  0
SECTION
  2
HEADER
  9
$ACADVER
  1
AC1009
  9
$INSBASE
 10
0.0
 20
0.0
 30
0.0
  9
$EXTMIN
 10
-360.4237
 20
-224.1973
 30
-0.0001
  9
$EXTMAX
 10
988.2699
 20
2046.5737
 30
0.0
  9
$LIMMIN
 10
0.0
 20
0.0
  9
$LIMMAX
 10
12.0
 20
9.0
  9
$ORTHOMODE
 70
     0
  9
$REGENMODE
 70
     1
  9
$FILLMODE
 70
     1
  9
$QTEXTMODE
 70
     0
  9
$MIRRTEXT
 70
     1
  9
$DRAGMODE
 70
     2
  9
$LTSCALE
 40
1.0
  9
$OSMODE
 70
     0
  9
$ATTMODE
 70
     1
  9
$TEXTSIZE
 40
0.2
  9
$TRACEWID
 40
0.05
  9
$TEXTSTYLE
  7
STANDARD
  9
$CLAYER
  8
0
  9
$CELTYPE
  6
CONTINUOUS
  9
$CECOLOR
 62
   256
  9
$DIMSCALE
 40
1.0
  9
$DIMASZ
 40
0.18
  9
$DIMEXO
 40
0.0625
  9
$DIMDLI
 40
0.38
  9
$DIMRND
 40
0.0
  9
$DIMDLE
 40
0.0
  9
$DIMEXE
 40
0.18
  9
$DIMTP
 40
0.0
  9
$DIMTM
 40
0.0
  9
$DIMTXT
 40
0.18
  9
$DIMCEN
 40
0.09
  9
$DIMTSZ
 40
0.0
  9
$DIMTOL
 70
     0
  9
$DIMLIM
 70
     0
  9
$DIMTIH
 70
     1
  9
$DIMTOH
 70
     1
  9
$DIMSE1
 70
     0
  9
$DIMSE2
 70
     0
  9
$DIMTAD
 70
     0
  9
$DIMZIN
 70
     0
  9
$DIMBLK
  1

  9
$DIMASO
 70
     1
  9
$DIMSHO
 70
     1
  9
$DIMPOST
  1

  9
$DIMAPOST
  1

  9
$DIMALT
 70
     0
  9
$DIMALTD
 70
     2
  9
$DIMALTF
 40
25.4
  9
$DIMLFAC
 40
1.0
  9
$DIMTOFL
 70
     0
  9
$DIMTVP
 40
0.0
  9
$DIMTIX
 70
     0
  9
$DIMSOXD
 70
     0
  9
$DIMSAH
 70
     0
  9
$DIMBLK1
  1

  9
$DIMBLK2
  1

  9
$DIMSTYLE
  2
STANDARD
  9
$DIMCLRD
 70
     0
  9
$DIMCLRE
 70
     0
  9
$DIMCLRT
 70
     0
  9
$DIMTFAC
 40
1.0
  9
$DIMGAP
 40
0.09
  9
$LUNITS
 70
     2
  9
$LUPREC
 70
     4
  9
$AXISMODE
 70
     0
  9
$AXISUNIT
 10
0.0
 20
0.0
  9
$SKETCHINC
 40
0.1
  9
$FILLETRAD
 40
0.0
  9
$AUNITS
 70
     0
  9
$AUPREC
 70
     0
  9
$MENU
  1
acad
  9
$ELEVATION
 40
0.0
  9
$PELEVATION
 40
0.0
  9
$THICKNESS
 40
0.0
  9
$LIMCHECK
 70
     0
  9
$BLIPMODE
 70
     1
  9
$CHAMFERA
 40
0.0
  9
$CHAMFERB
 40
0.0
  9
$SKPOLY
 70
     0
  9
$TDCREATE
 40
2451562.603530093
  9
$TDUPDATE
 40
2451562.603530093
  9
$TDINDWG
 40
0.0000000000
  9
$TDUSRTIMER
 40
0.0000000000
  9
$USRTIMER
 70
     1
  9
$ANGBASE
 50
0.0
  9
$ANGDIR
 70
     0
  9
$PDMODE
 70
     0
  9
$PDSIZE
 40
0.0
  9
$PLINEWID
 40
0.0
  9
$COORDS
 70
     0
  9
$SPLFRAME
 70
     0
  9
$SPLINETYPE
 70
     6
  9
$SPLINESEGS
 70
    10
  9
$ATTDIA
 70
     0
  9
$ATTREQ
 70
     1
  9
$HANDLING
 70
     1
  9
$HANDSEED
  5
892
  9
$SURFTAB1
 70
     6
  9
$SURFTAB2
 70
     6
  9
$SURFTYPE
 70
     6
  9
$SURFU
 70
     6
  9
$SURFV
 70
     6
  9
$UCSNAME
  2

  9
$UCSORG
 10
0.0
 20
0.0
 30
0.0
  9
$UCSXDIR
 10
1.0
 20
0.0
 30
0.0
  9
$UCSYDIR
 10
0.0
 20
1.0
 30
0.0
  9
$PUCSNAME
  2

  9
$PUCSORG
 10
0.0
 20
0.0
 30
0.0
  9
$PUCSXDIR
 10
1.0
 20
0.0
 30
0.0
  9
$PUCSYDIR
 10
0.0
 20
1.0
 30
0.0
  9
$USERI1
 70
     0
  9
$USERI2
 70
     0
  9
$USERI3
 70
     0
  9
$USERI4
 70
     0
  9
$USERI5
 70
     0
  9
$USERR1
 40
0.0
  9
$USERR2
 40
0.0
  9
$USERR3
 40
0.0
  9
$USERR4
 40
0.0
  9
$USERR5
 40
0.0
  9
$WORLDVIEW
 70
     1
  9
$SHADEDGE
 70
     3
  9
$SHADEDIF
 70
    70
  9
$TILEMODE
 70
     1
  9
$MAXACTVP
 70
    16
  9
$PINSBASE
 10
0.0
 20
0.0
 30
0.0
  9
$PLIMCHECK
 70
     0
  9
$PEXTMIN
 10
-1.000000E+20
 20
-1.000000E+20
 30
-1.000000E+20
  9
$PEXTMAX
 10
-1.000000E+20
 20
-1.000000E+20
 30
-1.000000E+20
  9
$PLIMMIN
 10
0.0
 20
0.0
  9
$PLIMMAX
 10
12.0
 20
9.0
  9
$UNITMODE
 70
     0
  9
$VISRETAIN
 70
     0
  9
$PLINEGEN
 70
     1
  9
$PSLTSCALE
 70
     0
  9
$TREEDEPTH
 70
  3020
  9
$DWGCODEPAGE
  3
ansi_1252
  0
ENDSEC
  0
SECTION
  2
TABLES
  0
TABLE
  2
VPORT
 70
     1
  0
VPORT
  2
*ACTIVE
 70
     0
 10
0.0
 20
0.0
 11
1.0
 21
1.0
 12
0.0
 22
0.0
 13
0.0
 23
0.0
 14
0.0
 24
0.0
 15
0.0
 25
0.0
 16
0.0
 26
0.0
 36
1.0
 17
255.399029
 27
1613.4132
 37
-0.0001
 40
937.5126
 41
1.489209
 42
50.0
 43
1685.2785
 44
-1685.2785
 50
0.0
 51
0.0
 71
    22
 72
   100
 73
     1
 74
     0
 75
     0
 76
     0
 77
     0
 78
     0
  0
ENDTAB
  0
TABLE
  2
LTYPE
 70
     7
  0
LTYPE
  2
CONTINUOUS
 70
     0
  3
Solid line
 72
    65
 73
     0
 40
0.0
  0
LTYPE
  2
DOT
 70
    64
  3
. . . . . . . . . . . . . . . . . . . . . . . . . . . . . . . . .
 72
    65
 73
     2
 40
0.25
 49
0.0
 49
-0.25
  0
LTYPE
  2
HIDDEN
 70
    64
  3
__ __ __ __ __ __ __ __ __ __ __ __ __ __ __ __ __ __ __ __ __ 
 72
    65
 73
     2
 40
0.375
 49
0.25
 49
-0.125
  0
LTYPE
  2
DASHED
 70
    64
  3
__ __ __ __ __ __ __ __ __ __ __ __ __ __ __ __ __ __ __ __ __
 72
    65
 73
     2
 40
0.75
 49
0.5
 49
-0.25
  0
LTYPE
  2
DASHDOT
 70
    64
  3
__ . __ . __ . __ . __ . __ . __ . __ . __ . __ . __ . __ . _
 72
    65
 73
     4
 40
1.0
 49
0.5
 49
-0.25
 49
0.0
 49
-0.25
  0
LTYPE
  2
DIVIDE
 70
    64
  3
____ . . ____ . . ____ . . ____ . . ____ . . ____ . . ____ . .
 72
    65
 73
     6
 40
1.25
 49
0.5
 49
-0.25
 49
0.0
 49
-0.25
 49
0.0
 49
-0.25
  0
LTYPE
  2
CENTER
 70
    64
  3
____ _ ____ _ ____ _ ____ _ ____ _ ____ _ ____ _ ____ _ ____ _
 72
    65
 73
     4
 40
2.0
 49
1.25
 49
-0.25
 49
0.25
 49
-0.25
  0
ENDTAB
  0
TABLE
  2
LAYER
 70
     5
  0
LAYER
  2
0
 70
    64
 62
     7
  6
CONTINUOUS
  0
LAYER
  2
CONSTRUCTION_CLASS
 70
    64
 62
     7
  6
CONTINUOUS
  0
LAYER
  2
PATTERN_CLASS
 70
     0
 62
     7
  6
CONTINUOUS
  0
LAYER
  2
DCA_INFO
 70
    64
 62
     7
  6
CONTINUOUS
  0
LAYER
  2
1
 70
    64
 62
     7
  6
CONTINUOUS
  0
ENDTAB
  0
TABLE
  2
STYLE
 70
     5
  0
STYLE
  2
STANDARD
 70
     0
 40
0.0
 41
1.0
 50
0.0
 71
     0
 42
0.0
  3
txt
  4

  0
STYLE
  2
MONOTXT
 70
     0
 40
0.2
 41
1.0
 50
0.0
 71
     0
 42
0.2
  3
MONOTXT
  4

  0
STYLE
  2
txt
 70
     0
 40
0.2
 41
1.0
 50
0.0
 71
     0
 42
0.2
  3
TXT
  4

  0
STYLE
  2
ROMANT
 70
     0
 40
0.2
 41
1.0
 50
0.0
 71
     0
 42
0.2
  3
ROMANT
  4

  0
STYLE
  2
ROMANS
 70
     0
 40
0.2
 41
1.0
 50
0.0
 71
     0
 42
0.2
  3
ROMANS
  4

  0
ENDTAB
  0
TABLE
  2
VIEW
 70
     0
  0
VIEW
  2
PLOT
 70
     0
 40
838.2
 10
0.0
 20
0.0
 41
1295.4
 11
0.0
 21
0.0
 31
8382.0
 12
384.0271
 22
195.0526
 32
0.0
 42
50.0
 43
4191.0
 44
-4191.0
 50
0.0
 71
    22
  0
ENDTAB
  0
TABLE
  2
UCS
 70
     0
  0
ENDTAB
  0
TABLE
  2
APPID
 70
     1
  0
APPID
  2
ACAD
 70
     0
  0
ENDTAB
  0
TABLE
  2
DIMSTYLE
 70
     1
  0
DIMSTYLE
  2
STANDARD
 70
     0
  3

  4

  5

  6

  7

 40
1.0
 41
0.18
 42
0.0625
 43
0.38
 44
0.18
 45
0.0
 46
0.0
 47
0.0
 48
0.0
140
0.18
141
0.09
142
0.0
143
25.4
144
1.0
145
0.0
146
1.0
147
0.09
 71
     0
 72
     0
 73
     1
 74
     1
 75
     0
 76
     0
 77
     0
 78
     0
170
     0
171
     2
172
     0
173
     0
174
     0
175
     0
176
     0
177
     0
178
     0
  0
ENDTAB
  0
ENDSEC
  0
SECTION
  2
BLOCKS
  0
BLOCK
  8
CONSTRUCTION_CLASS
  6
CONTINUOUS
 62
    40
  5
2A
  2
PROJ_N
 70
     0
 10
0.0
 20
0.0
 30
0.0
  3
PROJ_N
  0
POINT
  8
CONSTRUCTION_CLASS
  6
CONTINUOUS
 62
    40
  5
2B
 10
0.0
 20
0.0
 30
0.0
  0
ATTDEF
  8
DCA_INFO
  6
CONTINUOUS
 62
    40
  5
2D
 10
0.5501
 20
0.0001
 30
0.0
 40
0.3
  1
corr-l
  3
NAME
  2
NAME
 70
     1
  7
MONOTXT
 72
     1
 11
0.5501
 21
0.0001
 31
0.0
210
0.0
220
0.0
230
1.0
  0
ENDBLK
  8
DCA_INFO
  6
CONTINUOUS
 62
    40
  5
2E
  0
BLOCK
  8
CONSTRUCTION_CLASS
  6
CONTINUOUS
 62
    40
  5
546
  2
STAMP
 70
     0
 10
0.0
 20
0.0
 30
0.0
  3
STAMP
  0
POINT
  8
CONSTRUCTION_CLASS
  6
CONTINUOUS
 62
    40
  5
547
 10
0.0
 20
0.0
 30
0.0
  0
ENDBLK
  8
CONSTRUCTION_CLASS
  6
CONTINUOUS
 62
    40
  5
548
  0
ENDSEC
  0
SECTION
  2
ENTITIES
  0
INSERT
  8
DCA_INFO
  6
CONTINUOUS
 62
    40
  5
2F
 66
     1
  2
PROJ_N
 10
-263.6729
 20
-224.0474
 30
0.0
 41
1.5
 42
1.5
 43
1.5
210
0.0
220
0.0
230
1.0
  0
ATTRIB
  8
DCA_INFO
  6
CONTINUOUS
 62
    40
  5
30
 10
-263.7854
 20
-224.0473
 30
0.0
 40
0.3
  1
corr-l
  2
NAME
 70
     1
  7
MONOTXT
 72
     1
 11
-263.1228
 21
-224.0473
 31
0.0
210
0.0
220
0.0
230
1.0
  0
SEQEND
  8
DCA_INFO
  6
CONTINUOUS
 62
    40
  5
31
  0
LINE
  8
0
  6
CONTINUOUS
 62
     2
  5
32
 10
-20.4648
 20
1498.0077
 30
0.0
 11
110.4353
 21
1498.0077
 31
0.0
  0
LINE
  8
0
  6
CONTINUOUS
 62
     2
  5
33
 10
110.4353
 20
1301.6576
 30
0.0
 11
-20.4648
 21
1301.6576
 31
0.0
  0
LINE
  8
0
  6
CONTINUOUS
 62
     7
  5
34
 10
146.4328
 20
1929.9778
 30
0.0
 11
146.4328
 21
1268.9326
 31
0.0
  0
LINE
  8
0
  6
CONTINUOUS
 62
     2
  5
35
 10
-20.4648
 20
1743.4453
 30
0.0
 11
110.4353
 21
1743.4453
 31
0.0
  0
LINE
  8
0
  6
CONTINUOUS
 62
     7
  5
36
 10
-167.7273
 20
1913.6153
 30
0.0
 11
146.4328
 21
1913.6153
 31
0.0
  0
LINE
  8
0
  6
CONTINUOUS
 62
     7
  5
37
 10
-203.7248
 20
1905.4341
 30
0.0
 11
146.4328
 21
1905.4341
 31
0.0
  0
LINE
  8
0
  6
CONTINUOUS
 62
     7
  5
38
 10
-203.7248
 20
1897.2528
 30
0.0
 11
146.4328
 21
1897.2528
 31
0.0
  0
LINE
  8
0
  6
CONTINUOUS
 62
     2
  5
39
 10
-20.4648
 20
1889.0716
 30
0.0
 11
110.4353
 21
1889.0716
 31
0.0
  0
LINE
  8
0
  6
CONTINUOUS
 62
     2
  5
3A
 10
-20.4648
 20
1880.8903
 30
0.0
 11
110.4353
 21
1880.8903
 31
0.0
  0
LINE
  8
0
  6
CONTINUOUS
 62
     2
  5
3B
 10
-20.4648
 20
1872.7091
 30
0.0
 11
110.4353
 21
1872.7091
 31
0.0
  0
LINE
  8
0
  6
CONTINUOUS
 62
     2
  5
3C
 10
-20.4648
 20
1864.5278
 30
0.0
 11
110.4353
 21
1864.5278
 31
0.0
  0
LINE
  8
0
  6
CONTINUOUS
 62
     2
  5
3D
 10
-20.4648
 20
1856.3465
 30
0.0
 11
110.4353
 21
1856.3465
 31
0.0
  0
LINE
  8
0
  6
CONTINUOUS
 62
     2
  5
3E
 10
-20.4648
 20
1848.1653
 30
0.0
 11
110.4353
 21
1848.1653
 31
0.0
  0
LINE
  8
0
  6
CONTINUOUS
 62
     2
  5
3F
 10
-20.4648
 20
1839.984
 30
0.0
 11
110.4353
 21
1839.984
 31
0.0
  0
LINE
  8
0
  6
CONTINUOUS
 62
     2
  5
40
 10
-20.4648
 20
1831.8028
 30
0.0
 11
110.4353
 21
1831.8028
 31
0.0
  0
LINE
  8
0
  6
CONTINUOUS
 62
     2
  5
41
 10
-20.4648
 20
1823.6215
 30
0.0
 11
110.4353
 21
1823.6215
 31
0.0
  0
LINE
  8
0
  6
CONTINUOUS
 62
     2
  5
42
 10
-20.4648
 20
1815.4403
 30
0.0
 11
110.4353
 21
1815.4403
 31
0.0
  0
LINE
  8
0
  6
CONTINUOUS
 62
     2
  5
43
 10
-20.4648
 20
1807.259
 30
0.0
 11
110.4353
 21
1807.259
 31
0.0
  0
LINE
  8
0
  6
CONTINUOUS
 62
     2
  5
44
 10
-20.4648
 20
1799.0778
 30
0.0
 11
110.4353
 21
1799.0778
 31
0.0
  0
LINE
  8
0
  6
CONTINUOUS
 62
     2
  5
45
 10
-20.4648
 20
1790.8965
 30
0.0
 11
110.4353
 21
1790.8965
 31
0.0
  0
LINE
  8
0
  6
CONTINUOUS
 62
     2
  5
46
 10
-20.4648
 20
1782.7153
 30
0.0
 11
110.4353
 21
1782.7153
 31
0.0
  0
LINE
  8
0
  6
CONTINUOUS
 62
     2
  5
47
 10
-20.4648
 20
1774.534
 30
0.0
 11
110.4353
 21
1774.534
 31
0.0
  0
LINE
  8
0
  6
CONTINUOUS
 62
     2
  5
48
 10
-20.4648
 20
1766.3528
 30
0.0
 11
110.4353
 21
1766.3528
 31
0.0
  0
LINE
  8
0
  6
CONTINUOUS
 62
     2
  5
49
 10
-20.4648
 20
1758.1715
 30
0.0
 11
110.4353
 21
1758.1715
 31
0.0
  0
LINE
  8
0
  6
CONTINUOUS
 62
     2
  5
4A
 10
-20.4648
 20
1749.9903
 30
0.0
 11
110.4353
 21
1749.9903
 31
0.0
  0
LINE
  8
0
  6
CONTINUOUS
 62
     2
  5
4B
 10
-20.4648
 20
1735.264
 30
0.0
 11
110.4353
 21
1735.264
 31
0.0
  0
LINE
  8
0
  6
CONTINUOUS
 62
     2
  5
4C
 10
-20.4648
 20
1727.0827
 30
0.0
 11
110.4353
 21
1727.0827
 31
0.0
  0
LINE
  8
0
  6
CONTINUOUS
 62
     2
  5
4D
 10
-20.4648
 20
1718.9015
 30
0.0
 11
110.4353
 21
1718.9015
 31
0.0
  0
LINE
  8
0
  6
CONTINUOUS
 62
     2
  5
4E
 10
-20.4648
 20
1710.7202
 30
0.0
 11
110.4353
 21
1710.7202
 31
0.0
  0
LINE
  8
0
  6
CONTINUOUS
 62
     2
  5
4F
 10
-20.4648
 20
1702.539
 30
0.0
 11
110.4353
 21
1702.539
 31
0.0
  0
LINE
  8
0
  6
CONTINUOUS
 62
     7
  5
50
 10
-20.4648
 20
1694.3577
 30
0.0
 11
110.4353
 21
1694.3577
 31
0.0
  0
LINE
  8
0
  6
CONTINUOUS
 62
     7
  5
51
 10
-20.4648
 20
1686.1765
 30
0.0
 11
110.4353
 21
1686.1765
 31
0.0
  0
LINE
  8
0
  6
CONTINUOUS
 62
     2
  5
52
 10
-20.4648
 20
1677.9952
 30
0.0
 11
110.4353
 21
1677.9952
 31
0.0
  0
LINE
  8
0
  6
CONTINUOUS
 62
     2
  5
53
 10
-20.4648
 20
1669.814
 30
0.0
 11
110.4353
 21
1669.814
 31
0.0
  0
LINE
  8
0
  6
CONTINUOUS
 62
     2
  5
54
 10
-20.4648
 20
1661.6327
 30
0.0
 11
110.4353
 21
1661.6327
 31
0.0
  0
LINE
  8
0
  6
CONTINUOUS
 62
     2
  5
55
 10
-20.4648
 20
1653.4515
 30
0.0
 11
110.4353
 21
1653.4515
 31
0.0
  0
LINE
  8
0
  6
CONTINUOUS
 62
     2
  5
56
 10
-20.4648
 20
1645.2702
 30
0.0
 11
110.4353
 21
1645.2702
 31
0.0
  0
LINE
  8
0
  6
CONTINUOUS
 62
     2
  5
57
 10
-20.4648
 20
1637.089
 30
0.0
 11
110.4353
 21
1637.089
 31
0.0
  0
LINE
  8
0
  6
CONTINUOUS
 62
     2
  5
58
 10
-20.4648
 20
1628.9077
 30
0.0
 11
110.4353
 21
1628.9077
 31
0.0
  0
LINE
  8
0
  6
CONTINUOUS
 62
     2
  5
59
 10
-20.4648
 20
1620.7265
 30
0.0
 11
110.4353
 21
1620.7265
 31
0.0
  0
LINE
  8
0
  6
CONTINUOUS
 62
     2
  5
5A
 10
-20.4648
 20
1612.5452
 30
0.0
 11
110.4353
 21
1612.5452
 31
0.0
  0
LINE
  8
0
  6
CONTINUOUS
 62
     2
  5
5B
 10
-20.4648
 20
1604.3639
 30
0.0
 11
110.4353
 21
1604.3639
 31
0.0
  0
LINE
  8
0
  6
CONTINUOUS
 62
     2
  5
5C
 10
-20.4648
 20
1596.1827
 30
0.0
 11
110.4353
 21
1596.1827
 31
0.0
  0
LINE
  8
0
  6
CONTINUOUS
 62
     2
  5
5D
 10
-20.4648
 20
1588.0014
 30
0.0
 11
110.4353
 21
1588.0014
 31
0.0
  0
LINE
  8
0
  6
CONTINUOUS
 62
     2
  5
5E
 10
-20.4648
 20
1579.8202
 30
0.0
 11
110.4353
 21
1579.8202
 31
0.0
  0
LINE
  8
0
  6
CONTINUOUS
 62
     2
  5
5F
 10
-20.4648
 20
1571.6389
 30
0.0
 11
110.4353
 21
1571.6389
 31
0.0
  0
LINE
  8
0
  6
CONTINUOUS
 62
     2
  5
60
 10
-20.4648
 20
1563.4577
 30
0.0
 11
110.4353
 21
1563.4577
 31
0.0
  0
LINE
  8
0
  6
CONTINUOUS
 62
     2
  5
61
 10
-20.4648
 20
1506.1889
 30
0.0
 11
110.4353
 21
1506.1889
 31
0.0
  0
LINE
  8
0
  6
CONTINUOUS
 62
     2
  5
62
 10
-20.4648
 20
1489.8264
 30
0.0
 11
110.4353
 21
1489.8264
 31
0.0
  0
LINE
  8
0
  6
CONTINUOUS
 62
     2
  5
63
 10
-20.4648
 20
1481.6452
 30
0.0
 11
110.4353
 21
1481.6452
 31
0.0
  0
LINE
  8
0
  6
CONTINUOUS
 62
     7
  5
64
 10
-20.4648
 20
1473.4639
 30
0.0
 11
110.4353
 21
1473.4639
 31
0.0
  0
LINE
  8
0
  6
CONTINUOUS
 62
     7
  5
65
 10
-20.4648
 20
1473.4639
 30
0.0
 11
110.4353
 21
1473.4639
 31
0.0
  0
LINE
  8
0
  6
CONTINUOUS
 62
     7
  5
66
 10
-20.4648
 20
1465.2826
 30
0.0
 11
110.4353
 21
1465.2826
 31
0.0
  0
LINE
  8
0
  6
CONTINUOUS
 62
     2
  5
67
 10
-20.4648
 20
1457.1014
 30
0.0
 11
110.4353
 21
1457.1014
 31
0.0
  0
LINE
  8
0
  6
CONTINUOUS
 62
     2
  5
68
 10
-20.4648
 20
1448.9201
 30
0.0
 11
110.4353
 21
1448.9201
 31
0.0
  0
LINE
  8
0
  6
CONTINUOUS
 62
     2
  5
69
 10
-20.4648
 20
1440.7389
 30
0.0
 11
110.4353
 21
1440.7389
 31
0.0
  0
LINE
  8
0
  6
CONTINUOUS
 62
     2
  5
6A
 10
-20.4648
 20
1432.5576
 30
0.0
 11
110.4353
 21
1432.5576
 31
0.0
  0
LINE
  8
0
  6
CONTINUOUS
 62
     2
  5
6B
 10
-20.4648
 20
1424.3764
 30
0.0
 11
110.4353
 21
1424.3764
 31
0.0
  0
LINE
  8
0
  6
CONTINUOUS
 62
     2
  5
6C
 10
-20.4648
 20
1416.1951
 30
0.0
 11
110.4353
 21
1416.1951
 31
0.0
  0
LINE
  8
0
  6
CONTINUOUS
 62
     2
  5
6D
 10
-20.4648
 20
1408.0139
 30
0.0
 11
110.4353
 21
1408.0139
 31
0.0
  0
LINE
  8
0
  6
CONTINUOUS
 62
     2
  5
6E
 10
-20.4648
 20
1399.8326
 30
0.0
 11
110.4353
 21
1399.8326
 31
0.0
  0
LINE
  8
0
  6
CONTINUOUS
 62
     2
  5
6F
 10
-20.4648
 20
1391.6514
 30
0.0
 11
110.4353
 21
1391.6514
 31
0.0
  0
LINE
  8
0
  6
CONTINUOUS
 62
     2
  5
70
 10
-20.4648
 20
1383.4701
 30
0.0
 11
110.4353
 21
1383.4701
 31
0.0
  0
LINE
  8
0
  6
CONTINUOUS
 62
     2
  5
71
 10
-20.4648
 20
1375.2889
 30
0.0
 11
110.4353
 21
1375.2889
 31
0.0
  0
LINE
  8
0
  6
CONTINUOUS
 62
     2
  5
72
 10
-20.4648
 20
1367.1076
 30
0.0
 11
110.4353
 21
1367.1076
 31
0.0
  0
LINE
  8
0
  6
CONTINUOUS
 62
     2
  5
73
 10
-20.4648
 20
1358.9264
 30
0.0
 11
110.4353
 21
1358.9264
 31
0.0
  0
LINE
  8
0
  6
CONTINUOUS
 62
     2
  5
74
 10
-20.4648
 20
1350.7451
 30
0.0
 11
110.4353
 21
1350.7451
 31
0.0
  0
LINE
  8
0
  6
CONTINUOUS
 62
     2
  5
75
 10
-20.4648
 20
1342.5638
 30
0.0
 11
110.4353
 21
1342.5638
 31
0.0
  0
LINE
  8
0
  6
CONTINUOUS
 62
     2
  5
76
 10
-20.4648
 20
1334.3826
 30
0.0
 11
110.4353
 21
1334.3826
 31
0.0
  0
LINE
  8
0
  6
CONTINUOUS
 62
     2
  5
77
 10
-20.4648
 20
1326.2013
 30
0.0
 11
110.4353
 21
1326.2013
 31
0.0
  0
LINE
  8
0
  6
CONTINUOUS
 62
     2
  5
78
 10
-20.4648
 20
1318.0201
 30
0.0
 11
110.4353
 21
1318.0201
 31
0.0
  0
LINE
  8
0
  6
CONTINUOUS
 62
   140
  5
79
 10
-203.7248
 20
1929.9778
 30
0.0
 11
846.7481
 21
1929.9778
 31
0.0
  0
LINE
  8
0
  6
CONTINUOUS
 62
     2
  5
7A
 10
-180.8173
 20
1929.9778
 30
0.0
 11
-180.8173
 21
1268.9326
 31
0.0
  0
LINE
  8
0
  6
CONTINUOUS
 62
     2
  5
7B
 10
-167.7273
 20
1929.9778
 30
0.0
 11
-167.7273
 21
1268.9326
 31
0.0
  0
LINE
  8
0
  6
CONTINUOUS
 62
     2
  5
7C
 10
-144.8198
 20
1913.6153
 30
0.0
 11
-144.8198
 21
1268.9326
 31
0.0
  0
LINE
  8
0
  6
CONTINUOUS
 62
     2
  5
7D
 10
-125.1848
 20
1913.6153
 30
0.0
 11
-125.1848
 21
1268.9326
 31
0.0
  0
LINE
  8
0
  6
CONTINUOUS
 62
     2
  5
7E
 10
-105.5498
 20
1913.6153
 30
0.0
 11
-105.5498
 21
1268.9326
 31
0.0
  0
LINE
  8
0
  6
CONTINUOUS
 62
     2
  5
7F
 10
-85.9148
 20
1913.6153
 30
0.0
 11
-85.9148
 21
1268.9326
 31
0.0
  0
LINE
  8
0
  6
CONTINUOUS
 62
     2
  5
80
 10
-59.7348
 20
1913.6153
 30
0.0
 11
-59.7348
 21
1268.9326
 31
0.0
  0
LINE
  8
0
  6
CONTINUOUS
 62
     2
  5
81
 10
-33.5548
 20
1913.6153
 30
0.0
 11
-33.5548
 21
1268.9326
 31
0.0
  0
LINE
  8
0
  6
CONTINUOUS
 62
     7
  5
82
 10
-20.4648
 20
1929.9778
 30
0.0
 11
-20.4648
 21
1268.9326
 31
0.0
  0
LINE
  8
0
  6
CONTINUOUS
 62
     2
  5
83
 10
-10.6472
 20
1913.6153
 30
0.0
 11
-10.6472
 21
1815.4403
 31
0.0
  0
LINE
  8
0
  6
CONTINUOUS
 62
     2
  5
84
 10
-0.8297
 20
1913.6153
 30
0.0
 11
-0.8297
 21
1815.4403
 31
0.0
  0
LINE
  8
0
  6
CONTINUOUS
 62
     2
  5
85
 10
12.2603
 20
1913.6153
 30
0.0
 11
12.2603
 21
1815.4403
 31
0.0
  0
LINE
  8
0
  6
CONTINUOUS
 62
     2
  5
86
 10
31.8953
 20
1913.6153
 30
0.0
 11
31.8953
 21
1815.4403
 31
0.0
  0
LINE
  8
0
  6
CONTINUOUS
 62
     2
  5
87
 10
51.5303
 20
1913.6153
 30
0.0
 11
51.5303
 21
1815.4403
 31
0.0
  0
LINE
  8
0
  6
CONTINUOUS
 62
     2
  5
88
 10
71.1653
 20
1929.9778
 30
0.0
 11
71.1653
 21
1815.4403
 31
0.0
  0
LINE
  8
0
  6
CONTINUOUS
 62
     2
  5
89
 10
90.8003
 20
1913.6153
 30
0.0
 11
90.8003
 21
1815.4403
 31
0.0
  0
LINE
  8
0
  6
CONTINUOUS
 62
     2
  5
8A
 10
110.4353
 20
1913.6153
 30
0.0
 11
110.4353
 21
1350.7451
 31
0.0
  0
LINE
  8
0
  6
CONTINUOUS
 62
     2
  5
8B
 10
130.0703
 20
1913.6153
 30
0.0
 11
130.0703
 21
1268.9326
 31
0.0
  0
LINE
  8
0
  6
CONTINUOUS
 62
     7
  5
8C
 10
-203.7248
 20
1473.4639
 30
0.0
 11
-20.4648
 21
1473.4639
 31
0.0
  0
LINE
  8
0
  6
CONTINUOUS
 62
   140
  5
8D
 10
-203.7248
 20
1929.9778
 30
0.0
 11
-203.7248
 21
1268.9326
 31
0.0
  0
LINE
  8
0
  6
CONTINUOUS
 62
     7
  5
8E
 10
-20.4648
 20
1465.2826
 30
0.0
 11
-203.7248
 21
1465.2826
 31
0.0
  0
LINE
  8
0
  6
CONTINUOUS
 62
     7
  5
8F
 10
-203.7248
 20
1694.3577
 30
0.0
 11
-20.4648
 21
1694.3577
 31
0.0
  0
LINE
  8
0
  6
CONTINUOUS
 62
     7
  5
90
 10
-20.4648
 20
1686.1765
 30
0.0
 11
-203.7248
 21
1686.1765
 31
0.0
  0
LINE
  8
0
  6
CONTINUOUS
 62
     7
  5
91
 10
110.4353
 20
1694.3577
 30
0.0
 11
146.4328
 21
1694.3577
 31
0.0
  0
LINE
  8
0
  6
CONTINUOUS
 62
     7
  5
92
 10
110.4353
 20
1686.1765
 30
0.0
 11
146.4328
 21
1686.1765
 31
0.0
  0
LINE
  8
0
  6
CONTINUOUS
 62
     7
  5
93
 10
110.4353
 20
1473.4639
 30
0.0
 11
146.4328
 21
1473.4639
 31
0.0
  0
LINE
  8
0
  6
CONTINUOUS
 62
     7
  5
94
 10
110.4353
 20
1465.2826
 30
0.0
 11
146.4328
 21
1465.2826
 31
0.0
  0
TEXT
  8
0
  6
CONTINUOUS
 62
     7
  5
95
 10
-123.5039
 20
1918.2647
 30
0.0
 40
6.545
  1
DIMENSIONS
  7
MONOTXT
210
0.0
220
0.0
230
1.0
  0
TEXT
  8
0
  6
CONTINUOUS
 62
    40
  5
96
 10
-157.9462
 20
1906.8263
 30
0.0
 40
5.61
  1
L
  7
MONOTXT
210
0.0
220
0.0
230
1.0
  0
TEXT
  8
0
  6
CONTINUOUS
 62
    40
  5
97
 10
-137.4918
 20
1906.9582
 30
0.0
 40
5.61
  1
M
  7
MONOTXT
210
0.0
220
0.0
230
1.0
  0
TEXT
  8
0
  6
CONTINUOUS
 62
    40
  5
98
 10
-117.492
 20
1906.9582
 30
0.0
 40
5.61
  1
N
  7
MONOTXT
210
0.0
220
0.0
230
1.0
  0
TEXT
  8
0
  6
CONTINUOUS
 62
    40
  5
99
 10
-99.3104
 20
1906.5039
 30
0.0
 40
5.61
  1
O
  7
MONOTXT
210
0.0
220
0.0
230
1.0
  0
TEXT
  8
0
  6
CONTINUOUS
 62
    40
  5
9A
 10
-75.6743
 20
1906.5039
 30
0.0
 40
5.61
  1
P
  7
MONOTXT
210
0.0
220
0.0
230
1.0
  0
TEXT
  8
0
  6
CONTINUOUS
 62
    40
  5
9B
 10
-50.22
 20
1906.9582
 30
0.0
 40
5.61
  1
Q
  7
MONOTXT
210
0.0
220
0.0
230
1.0
  0
TEXT
  8
0
  6
CONTINUOUS
 62
    40
  5
9C
 10
-28.8566
 20
1906.5039
 30
0.0
 40
5.61
  1
T
  7
MONOTXT
210
0.0
220
0.0
230
1.0
  0
TEXT
  8
0
  6
CONTINUOUS
 62
     7
  5
9D
 10
-196.5269
 20
1918.7703
 30
0.0
 40
5.61
  1
I.D.
  7
MONOTXT
210
0.0
220
0.0
230
1.0
  0
TEXT
  8
0
  6
CONTINUOUS
 62
     7
  5
9E
 10
-200.6177
 20
1908.6279
 30
0.0
 40
5.61
  1
PIPE
  7
MONOTXT
210
0.0
220
0.0
230
1.0
  0
TEXT
  8
0
  6
CONTINUOUS
 62
    40
  5
9F
 10
-176.1278
 20
1911.047
 30
0.0
 40
3.2725
  1
FILL
 50
90.0
  7
MONOTXT
210
0.0
220
0.0
230
1.0
  0
TEXT
  8
0
  6
CONTINUOUS
 62
    40
  5
A0
 10
-170.8295
 20
1907.8668
 30
0.0
 40
3.2725
  1
SLOPE
 50
90.0
  7
MONOTXT
210
0.0
220
0.0
230
1.0
  0
TEXT
  8
0
  6
CONTINUOUS
 62
    40
  5
A1
 10
-177.1331
 20
1900.0955
 30
0.0
 40
3.0
  1
2:1
  7
MONOTXT
210
0.0
220
0.0
230
1.0
  0
TEXT
  8
0
  6
CONTINUOUS
 62
     7
  5
A2
 10
-13.0937
 20
1917.8616
 30
0.0
 40
6.545
  1
REINFORCEMENT
  7
MONOTXT
210
0.0
220
0.0
230
1.0
  0
TEXT
  8
0
  6
CONTINUOUS
 62
    40
  5
A3
 10
-18.8567
 20
1908.0409
 30
0.0
 40
2.9452
  1
MK
  7
MONOTXT
210
0.0
220
0.0
230
1.0
  0
TEXT
  8
0
  6
CONTINUOUS
 62
    40
  5
A4
 10
-10.437
 20
1908.0442
 30
0.0
 40
2.9452
  1
SIZE
  7
MONOTXT
210
0.0
220
0.0
230
1.0
  0
TEXT
  8
0
  6
CONTINUOUS
 62
    40
  5
A5
 10
2.1785
 20
1908.0437
 30
0.0
 40
2.9452
  1
NO.
  7
MONOTXT
210
0.0
220
0.0
230
1.0
  0
TEXT
  8
0
  6
CONTINUOUS
 62
    40
  5
A6
 10
19.4221
 20
1907.2029
 30
0.0
 40
3.2725
  1
a
  7
MONOTXT
210
0.0
220
0.0
230
1.0
  0
TEXT
  8
0
  6
CONTINUOUS
 62
    40
  5
A7
 10
39.6096
 20
1907.0628
 30
0.0
 40
3.2725
  1
b
  7
MONOTXT
210
0.0
220
0.0
230
1.0
  0
TEXT
  8
0
  6
CONTINUOUS
 62
    40
  5
A8
 10
54.0493
 20
1908.0437
 30
0.0
 40
2.9452
  1
TOTAL
  7
MONOTXT
210
0.0
220
0.0
230
1.0
  0
TEXT
  8
0
  6
CONTINUOUS
 62
    40
  5
A9
 10
73.2555
 20
1908.0437
 30
0.0
 40
2.9452
  1
SPAC.
  7
MONOTXT
210
0.0
220
0.0
230
1.0
  0
TEXT
  8
0
  6
CONTINUOUS
 62
    40
  5
AA
 10
93.4487
 20
1908.0853
 30
0.0
 40
2.9452
  1
TYPE
  7
MONOTXT
210
0.0
220
0.0
230
1.0
  0
TEXT
  8
0
  6
CONTINUOUS
 62
    40
  5
AB
 10
114.8056
 20
1910.163
 30
0.0
 40
2.9452
  1
CONC.
  7
MONOTXT
210
0.0
220
0.0
230
1.0
  0
TEXT
  8
0
  6
CONTINUOUS
 62
    40
  5
AC
 10
132.4652
 20
1910.2934
 30
0.0
 40
2.9452
  1
STEEL
  7
MONOTXT
210
0.0
220
0.0
230
1.0
  0
TEXT
  8
0
  6
CONTINUOUS
 62
     7
  5
AD
 10
83.6488
 20
1917.9149
 30
0.0
 40
6.545
  1
QUANTITY
  7
MONOTXT
210
0.0
220
0.0
230
1.0
  0
TEXT
  8
0
  6
CONTINUOUS
 62
    40
  5
AE
 10
-18.3445
 20
1892.0062
 30
0.0
 40
3.0
  1
D2
  7
MONOTXT
210
0.0
220
0.0
230
1.0
  0
TEXT
  8
0
  6
CONTINUOUS
 62
    40
  5
AF
 10
-18.0618
 20
1899.0708
 30
0.0
 40
3.0
  1
DI
  7
MONOTXT
210
0.0
220
0.0
230
1.0
  0
TEXT
  8
0
  6
CONTINUOUS
 62
    40
  5
B0
 10
-17.7249
 20
1883.159
 30
0.0
 40
3.0
  1
EI
  7
MONOTXT
 72
     4
 11
-15.7999
 21
1884.659
 31
0.0
210
0.0
220
0.0
230
1.0
  0
TEXT
  8
0
  6
CONTINUOUS
 62
    40
  5
B1
 10
-17.9501
 20
1875.8117
 30
0.0
 40
3.0
  1
E2
  7
MONOTXT
 72
     4
 11
-15.5172
 21
1877.3117
 31
0.0
210
0.0
220
0.0
230
1.0
  0
TEXT
  8
0
  6
CONTINUOUS
 62
    40
  5
B2
 10
-17.3846
 20
1867.3342
 30
0.0
 40
3.0
  1
E3
  7
MONOTXT
 72
     4
 11
-14.9517
 21
1868.8342
 31
0.0
210
0.0
220
0.0
230
1.0
  0
TEXT
  8
0
  6
CONTINUOUS
 62
    40
  5
B3
 10
-17.4555
 20
1859.1392
 30
0.0
 40
3.0
  1
E4
  7
MONOTXT
 72
     4
 11
-14.9517
 21
1860.6392
 31
0.0
210
0.0
220
0.0
230
1.0
  0
TEXT
  8
0
  6
CONTINUOUS
 62
    40
  5
B4
 10
-16.9308
 20
1851.3002
 30
0.0
 40
3.0
  1
F
  7
MONOTXT
210
0.0
220
0.0
230
1.0
  0
TEXT
  8
0
  6
CONTINUOUS
 62
    40
  5
B5
 10
-17.4963
 20
1841.6923
 30
0.0
 40
3.0
  1
G
  7
MONOTXT
210
0.0
220
0.0
230
1.0
  0
TEXT
  8
0
  6
CONTINUOUS
 62
    40
  5
B6
 10
-16.7563
 20
1834.0541
 30
0.0
 40
3.0
  1
H
  7
MONOTXT
210
0.0
220
0.0
230
1.0
  0
TEXT
  8
0
  6
CONTINUOUS
 62
    40
  5
B7
 10
-16.799
 20
1817.9247
 30
0.0
 40
3.0
  1
VI
  7
MONOTXT
210
0.0
220
0.0
230
1.0
  0
TEXT
  8
0
  6
CONTINUOUS
 62
    40
  5
B8
 10
-16.0074
 20
1809.7488
 30
0.0
 40
3.0
  1
THRU
  7
MONOTXT
210
0.0
220
0.0
230
1.0
  0
TEXT
  8
0
  6
CONTINUOUS
 62
    40
  5
B9
 10
-17.9712
 20
1801.2358
 30
0.0
 40
3.0
  1
V6
  7
MONOTXT
210
0.0
220
0.0
230
1.0
  0
TEXT
  8
0
  6
CONTINUOUS
 62
    40
  5
BA
 10
-17.7657
 20
1793.6021
 30
0.0
 40
3.0
  1
V7
  7
MONOTXT
210
0.0
220
0.0
230
1.0
  0
TEXT
  8
0
  6
CONTINUOUS
 62
    40
  5
BB
 10
-17.3268
 20
1785.4848
 30
0.0
 40
3.0
  1
H2
  7
MONOTXT
210
0.0
220
0.0
230
1.0
  0
TEXT
  8
0
  6
CONTINUOUS
 62
    40
  5
BC
 10
-17.2241
 20
1776.8693
 30
0.0
 40
3.0
  1
KI
  7
MONOTXT
210
0.0
220
0.0
230
1.0
  0
TEXT
  8
0
  6
CONTINUOUS
 62
    40
  5
BD
 10
-16.0074
 20
1768.8693
 30
0.0
 40
3.0
  1
THRU
  7
MONOTXT
210
0.0
220
0.0
230
1.0
  0
TEXT
  8
0
  6
CONTINUOUS
 62
    40
  5
BE
 10
-17.8545
 20
1760.4296
 30
0.0
 40
3.0
  1
K6
  7
MONOTXT
210
0.0
220
0.0
230
1.0
  0
TEXT
  8
0
  6
CONTINUOUS
 62
    40
  5
BF
 10
-18.1116
 20
1752.6654
 30
0.0
 40
3.0
  1
K7
  7
MONOTXT
210
0.0
220
0.0
230
1.0
  0
TEXT
  8
0
  6
CONTINUOUS
 62
    40
  5
C0
 10
-16.9684
 20
1738.1682
 30
0.0
 40
3.0
  1
PI
  7
MONOTXT
210
0.0
220
0.0
230
1.0
  0
TEXT
  8
0
  6
CONTINUOUS
 62
    40
  5
C1
 10
-15.9326
 20
1729.3623
 30
0.0
 40
3.0
  1
THRU
  7
MONOTXT
210
0.0
220
0.0
230
1.0
  0
TEXT
  8
0
  6
CONTINUOUS
 62
    40
  5
C2
 10
-17.7774
 20
1721.255
 30
0.0
 40
3.0
  1
P7
  7
MONOTXT
210
0.0
220
0.0
230
1.0
  0
TEXT
  8
0
  6
CONTINUOUS
 62
    40
  5
C3
 10
-17.5256
 20
1713.5025
 30
0.0
 40
3.0
  1
JI
  7
MONOTXT
210
0.0
220
0.0
230
1.0
  0
TEXT
  8
0
  6
CONTINUOUS
 62
    40
  5
C4
 10
-18.3346
 20
1704.9056
 30
0.0
 40
3.0
  1
J2
  7
MONOTXT
210
0.0
220
0.0
230
1.0
  0
TEXT
  8
0
  6
CONTINUOUS
 62
    40
  5
C5
 10
-18.1896
 20
1688.9233
 30
0.0
 40
3.0
  1
DI
  7
MONOTXT
210
0.0
220
0.0
230
1.0
  0
TEXT
  8
0
  6
CONTINUOUS
 62
    40
  5
C6
 10
-17.9034
 20
1680.929
 30
0.0
 40
3.0
  1
D2
  7
MONOTXT
210
0.0
220
0.0
230
1.0
  0
TEXT
  8
0
  6
CONTINUOUS
 62
    40
  5
C7
 10
-17.4072
 20
1672.152
 30
0.0
 40
3.0
  1
EI
  7
MONOTXT
210
0.0
220
0.0
230
1.0
  0
TEXT
  8
0
  6
CONTINUOUS
 62
    40
  5
C8
 10
-18.0543
 20
1664.454
 30
0.0
 40
3.0
  1
E2
  7
MONOTXT
210
0.0
220
0.0
230
1.0
  0
TEXT
  8
0
  6
CONTINUOUS
 62
    40
  5
C9
 10
-17.8691
 20
1655.7125
 30
0.0
 40
3.0
  1
E3
  7
MONOTXT
210
0.0
220
0.0
230
1.0
  0
TEXT
  8
0
  6
CONTINUOUS
 62
    40
  5
CA
 10
-17.7192
 20
1647.7304
 30
0.0
 40
3.0
  1
E4
  7
MONOTXT
210
0.0
220
0.0
230
1.0
  0
TEXT
  8
0
  6
CONTINUOUS
 62
    40
  5
CB
 10
-16.6134
 20
1639.1484
 30
0.0
 40
3.0
  1
F
  7
MONOTXT
210
0.0
220
0.0
230
1.0
  0
TEXT
  8
0
  6
CONTINUOUS
 62
    40
  5
CC
 10
-16.2947
 20
1631.1849
 30
0.0
 40
3.0
  1
G
  7
MONOTXT
210
0.0
220
0.0
230
1.0
  0
TEXT
  8
0
  6
CONTINUOUS
 62
    40
  5
CD
 10
-15.976
 20
1623.2214
 30
0.0
 40
3.0
  1
H
  7
MONOTXT
210
0.0
220
0.0
230
1.0
  0
TEXT
  8
0
  6
CONTINUOUS
 62
    40
  5
CE
 10
-16.799
 20
1615.0296
 30
0.0
 40
3.0
  1
VI
  7
MONOTXT
210
0.0
220
0.0
230
1.0
  0
TEXT
  8
0
  6
CONTINUOUS
 62
    40
  5
CF
 10
-16.0568
 20
1606.9332
 30
0.0
 40
3.0
  1
THRU
  7
MONOTXT
210
0.0
220
0.0
230
1.0
  0
TEXT
  8
0
  6
CONTINUOUS
 62
    40
  5
D0
 10
-18.0263
 20
1598.8563
 30
0.0
 40
3.0
  1
V5
  7
MONOTXT
210
0.0
220
0.0
230
1.0
  0
TEXT
  8
0
  6
CONTINUOUS
 62
    40
  5
D1
 10
-17.7904
 20
1589.9845
 30
0.0
 40
3.0
  1
V6
  7
MONOTXT
210
0.0
220
0.0
230
1.0
  0
TEXT
  8
0
  6
CONTINUOUS
 62
    40
  5
D2
 10
-17.7904
 20
1581.9306
 30
0.0
 40
3.0
  1
V7
  7
MONOTXT
210
0.0
220
0.0
230
1.0
  0
TEXT
  8
0
  6
CONTINUOUS
 62
    40
  5
D3
 10
-17.0661
 20
1573.2433
 30
0.0
 40
3.0
  1
V8
  7
MONOTXT
210
0.0
220
0.0
230
1.0
  0
TEXT
  8
0
  6
CONTINUOUS
 62
    40
  5
D4
 10
-17.3377
 20
1565.461
 30
0.0
 40
3.0
  1
KI
  7
MONOTXT
210
0.0
220
0.0
230
1.0
  0
TEXT
  8
0
  6
CONTINUOUS
 62
    40
  5
D5
 10
-15.4364
 20
1556.6832
 30
0.0
 40
3.0
  1
THRU
  7
MONOTXT
210
0.0
220
0.0
230
1.0
  0
TEXT
  8
0
  6
CONTINUOUS
 62
    40
  5
D6
 10
-17.7904
 20
1499.9038
 30
0.0
 40
3.0
  1
P8
  7
MONOTXT
210
0.0
220
0.0
230
1.0
  0
TEXT
  8
0
  6
CONTINUOUS
 62
    40
  5
D7
 10
-17.4283
 20
1491.8499
 30
0.0
 40
3.0
  1
JI
  7
MONOTXT
210
0.0
220
0.0
230
1.0
  0
TEXT
  8
0
  6
CONTINUOUS
 62
    40
  5
D8
 10
-18.1526
 20
1483.6338
 30
0.0
 40
3.0
  1
J2
  7
MONOTXT
210
0.0
220
0.0
230
1.0
  0
TEXT
  8
0
  6
CONTINUOUS
 62
    40
  5
D9
 10
-18.6053
 20
1475.399
 30
0.0
 40
3.0
  1
H2
  7
MONOTXT
210
0.0
220
0.0
230
1.0
  0
TEXT
  8
0
  6
CONTINUOUS
 62
    40
  5
DA
 10
-17.6093
 20
1467.6348
 30
0.0
 40
3.0
  1
DI
  7
MONOTXT
210
0.0
220
0.0
230
1.0
  0
TEXT
  8
0
  6
CONTINUOUS
 62
    40
  5
DB
 10
-17.8067
 20
1459.6342
 30
0.0
 40
3.0
  1
D2
  7
MONOTXT
210
0.0
220
0.0
230
1.0
  0
TEXT
  8
0
  6
CONTINUOUS
 62
    40
  5
DC
 10
-16.9919
 20
1451.6923
 30
0.0
 40
3.0
  1
EI
  7
MONOTXT
210
0.0
220
0.0
230
1.0
  0
TEXT
  8
0
  6
CONTINUOUS
 62
    40
  5
DD
 10
-18.3337
 20
1443.1113
 30
0.0
 40
3.0
  1
E2
  7
MONOTXT
210
0.0
220
0.0
230
1.0
  0
TEXT
  8
0
  6
CONTINUOUS
 62
    40
  5
DE
 10
-17.8439
 20
1434.9827
 30
0.0
 40
3.0
  1
E3
  7
MONOTXT
210
0.0
220
0.0
230
1.0
  0
TEXT
  8
0
  6
CONTINUOUS
 62
    40
  5
DF
 10
-18.0457
 20
1426.679
 30
0.0
 40
3.0
  1
E4
  7
MONOTXT
210
0.0
220
0.0
230
1.0
  0
TEXT
  8
0
  6
CONTINUOUS
 62
    40
  5
E0
 10
-17.6999
 20
1419.1308
 30
0.0
 40
3.0
  1
E5
  7
MONOTXT
210
0.0
220
0.0
230
1.0
  0
TEXT
  8
0
  6
CONTINUOUS
 62
    40
  5
E1
 10
-17.1567
 20
1409.9005
 30
0.0
 40
3.0
  1
F
  7
MONOTXT
210
0.0
220
0.0
230
1.0
  0
TEXT
  8
0
  6
CONTINUOUS
 62
    40
  5
E2
 10
-17.0661
 20
1402.1182
 30
0.0
 40
3.0
  1
G
  7
MONOTXT
210
0.0
220
0.0
230
1.0
  0
TEXT
  8
0
  6
CONTINUOUS
 62
    40
  5
E3
 10
-16.2404
 20
1393.6677
 30
0.0
 40
3.0
  1
H
  7
MONOTXT
210
0.0
220
0.0
230
1.0
  0
TEXT
  8
0
  6
CONTINUOUS
 62
    40
  5
E4
 10
-18.0657
 20
1385.823
 30
0.0
 40
3.0
  1
VI
  7
MONOTXT
210
0.0
220
0.0
230
1.0
  0
TEXT
  8
0
  6
CONTINUOUS
 62
    40
  5
E5
 10
-18.2482
 20
1369.5863
 30
0.0
 40
3.0
  1
V4
  7
MONOTXT
210
0.0
220
0.0
230
1.0
  0
TEXT
  8
0
  6
CONTINUOUS
 62
    40
  5
E6
 10
-16.9277
 20
1377.8662
 30
0.0
 40
3.0
  1
THRU
  7
MONOTXT
210
0.0
220
0.0
230
1.0
  0
TEXT
  8
0
  6
CONTINUOUS
 62
    40
  5
E7
 10
-18.2482
 20
1361.0118
 30
0.0
 40
3.0
  1
V5
  7
MONOTXT
210
0.0
220
0.0
230
1.0
  0
TEXT
  8
0
  6
CONTINUOUS
 62
    40
  5
E8
 10
-18.0657
 20
1353.532
 30
0.0
 40
3.0
  1
V6
  7
MONOTXT
210
0.0
220
0.0
230
1.0
  0
TEXT
  8
0
  6
CONTINUOUS
 62
    40
  5
E9
 10
-18.1309
 20
1344.3882
 30
0.0
 40
3.0
  1
V7
  7
MONOTXT
210
0.0
220
0.0
230
1.0
  0
TEXT
  8
0
  6
CONTINUOUS
 62
    40
  5
EA
 10
-17.7007
 20
1336.3831
 30
0.0
 40
3.0
  1
V8
  7
MONOTXT
210
0.0
220
0.0
230
1.0
  0
TEXT
  8
0
  6
CONTINUOUS
 62
    40
  5
EB
 10
-17.7007
 20
1329.0857
 30
0.0
 40
3.0
  1
V9
  7
MONOTXT
210
0.0
220
0.0
230
1.0
  0
TEXT
  8
0
  6
CONTINUOUS
 62
    40
  5
EC
 10
-18.0793
 20
1320.3288
 30
0.0
 40
3.0
  1
V0
  7
MONOTXT
210
0.0
220
0.0
230
1.0
  0
TEXT
  8
0
  6
CONTINUOUS
 62
    40
  5
ED
 10
-16.788
 20
1312.3017
 30
0.0
 40
3.0
  1
KI
  7
MONOTXT
210
0.0
220
0.0
230
1.0
  0
LINE
  8
0
  6
CONTINUOUS
 62
     2
  5
EE
 10
-20.4648
 20
1301.6576
 30
0.0
 11
110.4353
 21
1301.6576
 31
0.0
  0
LINE
  8
0
  6
CONTINUOUS
 62
     2
  5
EF
 10
-20.4648
 20
1301.6576
 30
0.0
 11
110.4353
 21
1301.6576
 31
0.0
  0
LINE
  8
0
  6
CONTINUOUS
 62
     2
  5
F0
 10
-20.4648
 20
1301.6576
 30
0.0
 11
110.4353
 21
1301.6576
 31
0.0
  0
LINE
  8
0
  6
CONTINUOUS
 62
     2
  5
F1
 10
-20.4648
 20
1309.8388
 30
0.0
 11
110.4353
 21
1309.8388
 31
0.0
  0
LINE
  8
0
  6
CONTINUOUS
 62
     2
  5
F2
 10
-20.4648
 20
1301.6576
 30
0.0
 11
110.4353
 21
1301.6576
 31
0.0
  0
LINE
  8
0
  6
CONTINUOUS
 62
     2
  5
F3
 10
-20.4648
 20
1293.4763
 30
0.0
 11
110.4353
 21
1293.4763
 31
0.0
  0
LINE
  8
0
  6
CONTINUOUS
 62
     2
  5
F4
 10
-20.4648
 20
1285.2951
 30
0.0
 11
110.4353
 21
1285.2951
 31
0.0
  0
LINE
  8
0
  6
CONTINUOUS
 62
     2
  5
F5
 10
-20.4648
 20
1277.1138
 30
0.0
 11
110.4353
 21
1277.1138
 31
0.0
  0
LINE
  8
0
  6
CONTINUOUS
 62
     2
  5
F6
 10
-10.6472
 20
1301.6576
 30
0.0
 11
-10.6472
 21
1268.9326
 31
0.0
  0
LINE
  8
0
  6
CONTINUOUS
 62
     2
  5
F7
 10
-0.8297
 20
1301.6576
 30
0.0
 11
-0.8297
 21
1268.9326
 31
0.0
  0
LINE
  8
0
  6
CONTINUOUS
 62
     2
  5
F8
 10
12.2603
 20
1301.6576
 30
0.0
 11
12.2603
 21
1268.9326
 31
0.0
  0
LINE
  8
0
  6
CONTINUOUS
 62
     2
  5
F9
 10
31.8953
 20
1301.6576
 30
0.0
 11
31.8953
 21
1268.9326
 31
0.0
  0
LINE
  8
0
  6
CONTINUOUS
 62
     2
  5
FA
 10
51.5303
 20
1301.6576
 30
0.0
 11
51.5303
 21
1268.9326
 31
0.0
  0
LINE
  8
0
  6
CONTINUOUS
 62
     2
  5
FB
 10
71.1653
 20
1301.6576
 30
0.0
 11
71.1653
 21
1268.9326
 31
0.0
  0
LINE
  8
0
  6
CONTINUOUS
 62
     2
  5
FC
 10
90.8003
 20
1301.6576
 30
0.0
 11
90.8003
 21
1268.9326
 31
0.0
  0
LINE
  8
0
  6
CONTINUOUS
 62
     2
  5
FD
 10
110.4353
 20
1301.6576
 30
0.0
 11
110.4353
 21
1268.9326
 31
0.0
  0
LINE
  8
0
  6
CONTINUOUS
 62
   140
  5
FE
 10
-203.7248
 20
1268.9326
 30
0.0
 11
496.5905
 21
1268.9326
 31
0.0
  0
TEXT
  8
0
  6
CONTINUOUS
 62
    40
  5
FF
 10
-16.1317
 20
1303.8351
 30
0.0
 40
3.0
  1
THRU
  7
MONOTXT
210
0.0
220
0.0
230
1.0
  0
TEXT
  8
0
  6
CONTINUOUS
 62
    40
  5
100
 10
-18.0676
 20
1295.2488
 30
0.0
 40
3.0
  1
K4
  7
MONOTXT
210
0.0
220
0.0
230
1.0
  0
TEXT
  8
0
  6
CONTINUOUS
 62
    40
  5
101
 10
-18.1886
 20
1287.8719
 30
0.0
 40
3.0
  1
K5
  7
MONOTXT
210
0.0
220
0.0
230
1.0
  0
TEXT
  8
0
  6
CONTINUOUS
 62
    40
  5
102
 10
-18.1886
 20
1279.1647
 30
0.0
 40
3.0
  1
K6
  7
MONOTXT
210
0.0
220
0.0
230
1.0
  0
TEXT
  8
0
  6
CONTINUOUS
 62
    40
  5
103
 10
-17.7464
 20
1271.6669
 30
0.0
 40
3.0
  1
H2
  7
MONOTXT
210
0.0
220
0.0
230
1.0
  0
TEXT
  8
0
  6
CONTINUOUS
 62
    40
  5
104
 10
1.8542
 20
1899.7789
 30
0.0
 40
3.0
  1
12
  7
MONOTXT
210
0.0
220
0.0
230
1.0
  0
TEXT
  8
0
  6
CONTINUOUS
 62
    40
  5
105
 10
4.038
 20
1891.0482
 30
0.0
 40
3.0
  1
4
  7
MONOTXT
210
0.0
220
0.0
230
1.0
  0
TEXT
  8
0
  6
CONTINUOUS
 62
    40
  5
106
 10
3.641
 20
1882.5159
 30
0.0
 40
3.0
  1
2
  7
MONOTXT
210
0.0
220
0.0
230
1.0
  0
TEXT
  8
0
  6
CONTINUOUS
 62
    40
  5
107
 10
3.641
 20
1874.7773
 30
0.0
 40
3.0
  1
1
  7
MONOTXT
210
0.0
220
0.0
230
1.0
  0
TEXT
  8
0
  6
CONTINUOUS
 62
    40
  5
108
 10
3.8395
 20
1867.4355
 30
0.0
 40
3.0
  1
1
  7
MONOTXT
210
0.0
220
0.0
230
1.0
  0
TEXT
  8
0
  6
CONTINUOUS
 62
    40
  5
109
 10
4.038
 20
1859.3
 30
0.0
 40
3.0
  1
1
  7
MONOTXT
210
0.0
220
0.0
230
1.0
  0
TEXT
  8
0
  6
CONTINUOUS
 62
    40
  5
10A
 10
4.038
 20
1851.5614
 30
0.0
 40
3.0
  1
2
  7
MONOTXT
210
0.0
220
0.0
230
1.0
  0
TEXT
  8
0
  6
CONTINUOUS
 62
    40
  5
10B
 10
3.8395
 20
1842.6323
 30
0.0
 40
3.0
  1
4
  7
MONOTXT
210
0.0
220
0.0
230
1.0
  0
TEXT
  8
0
  6
CONTINUOUS
 62
    40
  5
10C
 10
3.4745
 20
1834.2107
 30
0.0
 40
3.0
  1
18
  7
MONOTXT
210
0.0
220
0.0
230
1.0
  0
TEXT
  8
0
  6
CONTINUOUS
 62
    40
  5
10D
 10
-6.7504
 20
1818.0075
 30
0.0
 40
3.0
  1
5
  7
MONOTXT
210
0.0
220
0.0
230
1.0
  0
TEXT
  8
0
  6
CONTINUOUS
 62
    40
  5
10E
 10
-6.5762
 20
1801.4992
 30
0.0
 40
3.0
  1
5
  7
MONOTXT
210
0.0
220
0.0
230
1.0
  0
TEXT
  8
0
  6
CONTINUOUS
 62
    40
  5
10F
 10
-7.6781
 20
1793.7435
 30
0.0
 40
3.0
  1
6
  7
MONOTXT
210
0.0
220
0.0
230
1.0
  0
TEXT
  8
0
  6
CONTINUOUS
 62
    40
  5
110
 10
-7.33
 20
1785.4169
 30
0.0
 40
3.0
  1
4
  7
MONOTXT
210
0.0
220
0.0
230
1.0
  0
TEXT
  8
0
  6
CONTINUOUS
 62
    40
  5
111
 10
-7.0596
 20
1777.0839
 30
0.0
 40
3.0
  1
5
  7
MONOTXT
210
0.0
220
0.0
230
1.0
  0
TEXT
  8
0
  6
CONTINUOUS
 62
    40
  5
112
 10
-6.9051
 20
1760.4121
 30
0.0
 40
3.0
  1
5
  7
MONOTXT
210
0.0
220
0.0
230
1.0
  0
TEXT
  8
0
  6
CONTINUOUS
 62
    40
  5
113
 10
-8.2915
 20
1752.7063
 30
0.0
 40
3.0
  1
6
  7
MONOTXT
210
0.0
220
0.0
230
1.0
  0
TEXT
  8
0
  6
CONTINUOUS
 62
    40
  5
114
 10
-8.1416
 20
1737.8831
 30
0.0
 40
3.0
  1
5
  7
MONOTXT
210
0.0
220
0.0
230
1.0
  0
TEXT
  8
0
  6
CONTINUOUS
 62
    40
  5
115
 10
-7.0596
 20
1721.2521
 30
0.0
 40
3.0
  1
5
  7
MONOTXT
210
0.0
220
0.0
230
1.0
  0
TEXT
  8
0
  6
CONTINUOUS
 62
    40
  5
116
 10
-7.0596
 20
1713.2845
 30
0.0
 40
3.0
  1
5
  7
MONOTXT
210
0.0
220
0.0
230
1.0
  0
TEXT
  8
0
  6
CONTINUOUS
 62
    40
  5
117
 10
-7.8324
 20
1704.9566
 30
0.0
 40
3.0
  1
5
  7
MONOTXT
210
0.0
220
0.0
230
1.0
  0
TEXT
  8
0
  6
CONTINUOUS
 62
    40
  5
118
 10
-7.772
 20
1689.2615
 30
0.0
 40
3.0
  1
4
  7
MONOTXT
210
0.0
220
0.0
230
1.0
  0
TEXT
  8
0
  6
CONTINUOUS
 62
    40
  5
119
 10
-7.0372
 20
1680.5595
 30
0.0
 40
3.0
  1
4
  7
MONOTXT
210
0.0
220
0.0
230
1.0
  0
TEXT
  8
0
  6
CONTINUOUS
 62
    40
  5
11A
 10
-7.0596
 20
1672.9583
 30
0.0
 40
3.0
  1
5
  7
MONOTXT
210
0.0
220
0.0
230
1.0
  0
TEXT
  8
0
  6
CONTINUOUS
 62
    40
  5
11B
 10
-7.0596
 20
1664.4412
 30
0.0
 40
3.0
  1
5
  7
MONOTXT
210
0.0
220
0.0
230
1.0
  0
TEXT
  8
0
  6
CONTINUOUS
 62
    40
  5
11C
 10
-7.0596
 20
1656.7484
 30
0.0
 40
3.0
  1
5
  7
MONOTXT
210
0.0
220
0.0
230
1.0
  0
TEXT
  8
0
  6
CONTINUOUS
 62
    40
  5
11D
 10
-7.0596
 20
1648.5061
 30
0.0
 40
3.0
  1
5
  7
MONOTXT
210
0.0
220
0.0
230
1.0
  0
TEXT
  8
0
  6
CONTINUOUS
 62
    40
  5
11E
 10
-7.0596
 20
1639.989
 30
0.0
 40
3.0
  1
5
  7
MONOTXT
210
0.0
220
0.0
230
1.0
  0
TEXT
  8
0
  6
CONTINUOUS
 62
    40
  5
11F
 10
-7.0596
 20
1632.0215
 30
0.0
 40
3.0
  1
5
  7
MONOTXT
210
0.0
220
0.0
230
1.0
  0
TEXT
  8
0
  6
CONTINUOUS
 62
    40
  5
120
 10
-7.0596
 20
1623.3678
 30
0.0
 40
3.0
  1
5
  7
MONOTXT
210
0.0
220
0.0
230
1.0
  0
TEXT
  8
0
  6
CONTINUOUS
 62
    40
  5
121
 10
-6.7132
 20
1615.126
 30
0.0
 40
3.0
  1
5
  7
MONOTXT
210
0.0
220
0.0
230
1.0
  0
TEXT
  8
0
  6
CONTINUOUS
 62
    40
  5
122
 10
-6.7132
 20
1598.6713
 30
0.0
 40
3.0
  1
5
  7
MONOTXT
210
0.0
220
0.0
230
1.0
  0
TEXT
  8
0
  6
CONTINUOUS
 62
    40
  5
123
 10
-7.5639
 20
1590.3541
 30
0.0
 40
3.0
  1
6
  7
MONOTXT
210
0.0
220
0.0
230
1.0
  0
TEXT
  8
0
  6
CONTINUOUS
 62
    40
  5
124
 10
-7.5639
 20
1581.7921
 30
0.0
 40
3.0
  1
6
  7
MONOTXT
210
0.0
220
0.0
230
1.0
  0
TEXT
  8
0
  6
CONTINUOUS
 62
    40
  5
125
 10
-7.3192
 20
1574.2087
 30
0.0
 40
3.0
  1
7
  7
MONOTXT
210
0.0
220
0.0
230
1.0
  0
TEXT
  8
0
  6
CONTINUOUS
 62
    40
  5
126
 10
-6.7132
 20
1566.6253
 30
0.0
 40
3.0
  1
5
  7
MONOTXT
210
0.0
220
0.0
230
1.0
  0
TEXT
  8
0
  6
CONTINUOUS
 62
    40
  5
127
 10
-6.7132
 20
1499.9247
 30
0.0
 40
3.0
  1
5
  7
MONOTXT
210
0.0
220
0.0
230
1.0
  0
TEXT
  8
0
  6
CONTINUOUS
 62
    40
  5
128
 10
-7.0219
 20
1492.0447
 30
0.0
 40
3.0
  1
5
  7
MONOTXT
210
0.0
220
0.0
230
1.0
  0
TEXT
  8
0
  6
CONTINUOUS
 62
    40
  5
129
 10
-6.7132
 20
1483.5347
 30
0.0
 40
3.0
  1
5
  7
MONOTXT
210
0.0
220
0.0
230
1.0
  0
TEXT
  8
0
  6
CONTINUOUS
 62
    40
  5
12A
 10
-6.958
 20
1475.7067
 30
0.0
 40
3.0
  1
4
  7
MONOTXT
210
0.0
220
0.0
230
1.0
  0
TEXT
  8
0
  6
CONTINUOUS
 62
    40
  5
12B
 10
-6.958
 20
1467.5255
 30
0.0
 40
3.0
  1
4
  7
MONOTXT
210
0.0
220
0.0
230
1.0
  0
TEXT
  8
0
  6
CONTINUOUS
 62
    40
  5
12C
 10
-6.958
 20
1459.3442
 30
0.0
 40
3.0
  1
4
  7
MONOTXT
210
0.0
220
0.0
230
1.0
  0
TEXT
  8
0
  6
CONTINUOUS
 62
    40
  5
12D
 10
-7.0642
 20
1451.4157
 30
0.0
 40
3.0
  1
5
  7
MONOTXT
210
0.0
220
0.0
230
1.0
  0
TEXT
  8
0
  6
CONTINUOUS
 62
    40
  5
12E
 10
-7.0642
 20
1442.8681
 30
0.0
 40
3.0
  1
5
  7
MONOTXT
210
0.0
220
0.0
230
1.0
  0
TEXT
  8
0
  6
CONTINUOUS
 62
    40
  5
12F
 10
-7.0642
 20
1435.0074
 30
0.0
 40
3.0
  1
5
  7
MONOTXT
210
0.0
220
0.0
230
1.0
  0
TEXT
  8
0
  6
CONTINUOUS
 62
    40
  5
130
 10
-7.0642
 20
1426.7651
 30
0.0
 40
3.0
  1
5
  7
MONOTXT
210
0.0
220
0.0
230
1.0
  0
TEXT
  8
0
  6
CONTINUOUS
 62
    40
  5
131
 10
-7.0642
 20
1418.9807
 30
0.0
 40
3.0
  1
5
  7
MONOTXT
210
0.0
220
0.0
230
1.0
  0
TEXT
  8
0
  6
CONTINUOUS
 62
    40
  5
132
 10
-7.0642
 20
1409.9752
 30
0.0
 40
3.0
  1
5
  7
MONOTXT
210
0.0
220
0.0
230
1.0
  0
TEXT
  8
0
  6
CONTINUOUS
 62
    40
  5
133
 10
-7.0642
 20
1402.2671
 30
0.0
 40
3.0
  1
5
  7
MONOTXT
210
0.0
220
0.0
230
1.0
  0
TEXT
  8
0
  6
CONTINUOUS
 62
    40
  5
134
 10
-7.0642
 20
1394.2538
 30
0.0
 40
3.0
  1
5
  7
MONOTXT
210
0.0
220
0.0
230
1.0
  0
TEXT
  8
0
  6
CONTINUOUS
 62
    40
  5
135
 10
-7.0642
 20
1385.7825
 30
0.0
 40
3.0
  1
5
  7
MONOTXT
210
0.0
220
0.0
230
1.0
  0
TEXT
  8
0
  6
CONTINUOUS
 62
    40
  5
136
 10
-7.0642
 20
1369.6032
 30
0.0
 40
3.0
  1
5
  7
MONOTXT
210
0.0
220
0.0
230
1.0
  0
TEXT
  8
0
  6
CONTINUOUS
 62
    40
  5
137
 10
-7.9904
 20
1361.5135
 30
0.0
 40
3.0
  1
6
  7
MONOTXT
210
0.0
220
0.0
230
1.0
  0
TEXT
  8
0
  6
CONTINUOUS
 62
    40
  5
138
 10
-8.07
 20
1353.2021
 30
0.0
 40
3.0
  1
6
  7
MONOTXT
210
0.0
220
0.0
230
1.0
  0
TEXT
  8
0
  6
CONTINUOUS
 62
    40
  5
139
 10
-7.9969
 20
1344.7999
 30
0.0
 40
3.0
  1
7
  7
MONOTXT
210
0.0
220
0.0
230
1.0
  0
TEXT
  8
0
  6
CONTINUOUS
 62
    40
  5
13A
 10
-7.3795
 20
1336.405
 30
0.0
 40
3.0
  1
7
  7
MONOTXT
210
0.0
220
0.0
230
1.0
  0
TEXT
  8
0
  6
CONTINUOUS
 62
    40
  5
13B
 10
-7.6816
 20
1328.3916
 30
0.0
 40
3.0
  1
8
  7
MONOTXT
210
0.0
220
0.0
230
1.0
  0
TEXT
  8
0
  6
CONTINUOUS
 62
    40
  5
13C
 10
-8.4551
 20
1320.5346
 30
0.0
 40
3.0
  1
8
  7
MONOTXT
210
0.0
220
0.0
230
1.0
  0
TEXT
  8
0
  6
CONTINUOUS
 62
    40
  5
13D
 10
-7.3065
 20
1311.907
 30
0.0
 40
3.0
  1
5
  7
MONOTXT
210
0.0
220
0.0
230
1.0
  0
TEXT
  8
0
  6
CONTINUOUS
 62
    40
  5
13E
 10
-7.6152
 20
1295.655
 30
0.0
 40
3.0
  1
5
  7
MONOTXT
210
0.0
220
0.0
230
1.0
  0
TEXT
  8
0
  6
CONTINUOUS
 62
    40
  5
13F
 10
-7.6052
 20
1287.9503
 30
0.0
 40
3.0
  1
6
  7
MONOTXT
210
0.0
220
0.0
230
1.0
  0
TEXT
  8
0
  6
CONTINUOUS
 62
    40
  5
140
 10
-8.2227
 20
1279.5519
 30
0.0
 40
3.0
  1
6
  7
MONOTXT
210
0.0
220
0.0
230
1.0
  0
TEXT
  8
0
  6
CONTINUOUS
 62
    40
  5
141
 10
-8.4282
 20
1271.4515
 30
0.0
 40
3.0
  1
4
  7
MONOTXT
210
0.0
220
0.0
230
1.0
  0
TEXT
  8
0
  6
CONTINUOUS
 62
    40
  5
142
 10
-6.8351
 20
1900.1147
 30
0.0
 40
3.0
  1
4
  7
MONOTXT
210
0.0
220
0.0
230
1.0
  0
TEXT
  8
0
  6
CONTINUOUS
 62
    40
  5
143
 10
-6.8351
 20
1890.7734
 30
0.0
 40
3.0
  1
4
  7
MONOTXT
210
0.0
220
0.0
230
1.0
  0
TEXT
  8
0
  6
CONTINUOUS
 62
    40
  5
144
 10
-7.0596
 20
1834.1503
 30
0.0
 40
3.0
  1
5
  7
MONOTXT
210
0.0
220
0.0
230
1.0
  0
TEXT
  8
0
  6
CONTINUOUS
 62
    40
  5
145
 10
-7.0596
 20
1842.1942
 30
0.0
 40
3.0
  1
5
  7
MONOTXT
210
0.0
220
0.0
230
1.0
  0
TEXT
  8
0
  6
CONTINUOUS
 62
    40
  5
146
 10
-7.0596
 20
1851.0165
 30
0.0
 40
3.0
  1
5
  7
MONOTXT
210
0.0
220
0.0
230
1.0
  0
TEXT
  8
0
  6
CONTINUOUS
 62
    40
  5
147
 10
-7.0596
 20
1858.8009
 30
0.0
 40
3.0
  1
5
  7
MONOTXT
210
0.0
220
0.0
230
1.0
  0
TEXT
  8
0
  6
CONTINUOUS
 62
    40
  5
148
 10
-7.0596
 20
1867.1043
 30
0.0
 40
3.0
  1
5
  7
MONOTXT
210
0.0
220
0.0
230
1.0
  0
TEXT
  8
0
  6
CONTINUOUS
 62
    40
  5
149
 10
-7.0596
 20
1874.8887
 30
0.0
 40
3.0
  1
5
  7
MONOTXT
210
0.0
220
0.0
230
1.0
  0
TEXT
  8
0
  6
CONTINUOUS
 62
    40
  5
14A
 10
-7.0596
 20
1882.9326
 30
0.0
 40
3.0
  1
5
  7
MONOTXT
210
0.0
220
0.0
230
1.0
  0
TEXT
  8
0
  6
CONTINUOUS
 62
    40
  5
14B
 10
4.038
 20
1818.2929
 30
0.0
 40
3.0
  1
2
  7
MONOTXT
210
0.0
220
0.0
230
1.0
  0
TEXT
  8
0
  6
CONTINUOUS
 62
    40
  5
14C
 10
4.038
 20
1801.4818
 30
0.0
 40
3.0
  1
2
  7
MONOTXT
210
0.0
220
0.0
230
1.0
  0
TEXT
  8
0
  6
CONTINUOUS
 62
    40
  5
14D
 10
4.038
 20
1793.5636
 30
0.0
 40
3.0
  1
2
  7
MONOTXT
210
0.0
220
0.0
230
1.0
  0
TEXT
  8
0
  6
CONTINUOUS
 62
    40
  5
14E
 10
3.809
 20
1785.4245
 30
0.0
 40
3.0
  1
8
  7
MONOTXT
210
0.0
220
0.0
230
1.0
  0
TEXT
  8
0
  6
CONTINUOUS
 62
    40
  5
14F
 10
4.038
 20
1777.0356
 30
0.0
 40
3.0
  1
2
  7
MONOTXT
210
0.0
220
0.0
230
1.0
  0
TEXT
  8
0
  6
CONTINUOUS
 62
    40
  5
150
 10
3.7039
 20
1760.4149
 30
0.0
 40
3.0
  1
2
  7
MONOTXT
210
0.0
220
0.0
230
1.0
  0
TEXT
  8
0
  6
CONTINUOUS
 62
    40
  5
151
 10
3.5493
 20
1752.7301
 30
0.0
 40
3.0
  1
2
  7
MONOTXT
210
0.0
220
0.0
230
1.0
  0
TEXT
  8
0
  6
CONTINUOUS
 62
    40
  5
152
 10
3.5493
 20
1737.9397
 30
0.0
 40
3.0
  1
2
  7
MONOTXT
210
0.0
220
0.0
230
1.0
  0
TEXT
  8
0
  6
CONTINUOUS
 62
    40
  5
153
 10
3.5493
 20
1721.0735
 30
0.0
 40
3.0
  1
2
  7
MONOTXT
210
0.0
220
0.0
230
1.0
  0
TEXT
  8
0
  6
CONTINUOUS
 62
    40
  5
154
 10
3.6068
 20
1713.0556
 30
0.0
 40
3.0
  1
4
  7
MONOTXT
210
0.0
220
0.0
230
1.0
  0
TEXT
  8
0
  6
CONTINUOUS
 62
    40
  5
155
 10
3.6068
 20
1704.7522
 30
0.0
 40
3.0
  1
4
  7
MONOTXT
210
0.0
220
0.0
230
1.0
  0
TEXT
  8
0
  6
CONTINUOUS
 62
    40
  5
156
 10
4.0686
 20
1689.0201
 30
0.0
 40
3.0
  1
14
  7
MONOTXT
210
0.0
220
0.0
230
1.0
  0
TEXT
  8
0
  6
CONTINUOUS
 62
    40
  5
157
 10
3.6068
 20
1680.2237
 30
0.0
 40
3.0
  1
4
  7
MONOTXT
210
0.0
220
0.0
230
1.0
  0
TEXT
  8
0
  6
CONTINUOUS
 62
    40
  5
158
 10
3.5493
 20
1671.6349
 30
0.0
 40
3.0
  1
2
  7
MONOTXT
210
0.0
220
0.0
230
1.0
  0
TEXT
  8
0
  6
CONTINUOUS
 62
    40
  5
159
 10
3.0301
 20
1663.8505
 30
0.0
 40
3.0
  1
1
  7
MONOTXT
210
0.0
220
0.0
230
1.0
  0
TEXT
  8
0
  6
CONTINUOUS
 62
    40
  5
15A
 10
3.0301
 20
1655.9486
 30
0.0
 40
3.0
  1
1
  7
MONOTXT
210
0.0
220
0.0
230
1.0
  0
TEXT
  8
0
  6
CONTINUOUS
 62
    40
  5
15B
 10
3.0301
 20
1647.6452
 30
0.0
 40
3.0
  1
1
  7
MONOTXT
210
0.0
220
0.0
230
1.0
  0
TEXT
  8
0
  6
CONTINUOUS
 62
    40
  5
15C
 10
3.5493
 20
1640.2378
 30
0.0
 40
3.0
  1
2
  7
MONOTXT
210
0.0
220
0.0
230
1.0
  0
TEXT
  8
0
  6
CONTINUOUS
 62
    40
  5
15D
 10
4.3282
 20
1631.9345
 30
0.0
 40
3.0
  1
4
  7
MONOTXT
210
0.0
220
0.0
230
1.0
  0
TEXT
  8
0
  6
CONTINUOUS
 62
    40
  5
15E
 10
2.7705
 20
1623.3716
 30
0.0
 40
3.0
  1
18
  7
MONOTXT
210
0.0
220
0.0
230
1.0
  0
TEXT
  8
0
  6
CONTINUOUS
 62
    40
  5
15F
 10
4.8474
 20
1615.0683
 30
0.0
 40
3.0
  1
2
  7
MONOTXT
210
0.0
220
0.0
230
1.0
  0
TEXT
  8
0
  6
CONTINUOUS
 62
    40
  5
160
 10
4.8474
 20
1598.4615
 30
0.0
 40
3.0
  1
2
  7
MONOTXT
210
0.0
220
0.0
230
1.0
  0
TEXT
  8
0
  6
CONTINUOUS
 62
    40
  5
161
 10
4.8474
 20
1590.1582
 30
0.0
 40
3.0
  1
2
  7
MONOTXT
210
0.0
220
0.0
230
1.0
  0
TEXT
  8
0
  6
CONTINUOUS
 62
    40
  5
162
 10
4.8474
 20
1581.0764
 30
0.0
 40
3.0
  1
2
  7
MONOTXT
210
0.0
220
0.0
230
1.0
  0
TEXT
  8
0
  6
CONTINUOUS
 62
    40
  5
163
 10
4.8474
 20
1573.8109
 30
0.0
 40
3.0
  1
2
  7
MONOTXT
210
0.0
220
0.0
230
1.0
  0
TEXT
  8
0
  6
CONTINUOUS
 62
    40
  5
164
 10
4.8474
 20
1566.286
 30
0.0
 40
3.0
  1
2
  7
MONOTXT
210
0.0
220
0.0
230
1.0
  0
TEXT
  8
0
  6
CONTINUOUS
 62
    40
  5
165
 10
4.8474
 20
1500.5918
 30
0.0
 40
3.0
  1
2
  7
MONOTXT
210
0.0
220
0.0
230
1.0
  0
TEXT
  8
0
  6
CONTINUOUS
 62
    40
  5
166
 10
5.6262
 20
1492.5479
 30
0.0
 40
3.0
  1
4
  7
MONOTXT
210
0.0
220
0.0
230
1.0
  0
TEXT
  8
0
  6
CONTINUOUS
 62
    40
  5
167
 10
5.6262
 20
1483.4661
 30
0.0
 40
3.0
  1
4
  7
MONOTXT
210
0.0
220
0.0
230
1.0
  0
TEXT
  8
0
  6
CONTINUOUS
 62
    40
  5
168
 10
5.6684
 20
1475.6062
 30
0.0
 40
3.0
  1
8
  7
MONOTXT
210
0.0
220
0.0
230
1.0
  0
TEXT
  8
0
  6
CONTINUOUS
 62
    40
  5
169
 10
3.5493
 20
1468.0347
 30
0.0
 40
3.0
  1
16
  7
MONOTXT
210
0.0
220
0.0
230
1.0
  0
TEXT
  8
0
  6
CONTINUOUS
 62
    40
  5
16A
 10
4.9561
 20
1459.7313
 30
0.0
 40
3.0
  1
4
  7
MONOTXT
210
0.0
220
0.0
230
1.0
  0
TEXT
  8
0
  6
CONTINUOUS
 62
    40
  5
16B
 10
4.5878
 20
1451.6874
 30
0.0
 40
3.0
  1
2
  7
MONOTXT
210
0.0
220
0.0
230
1.0
  0
TEXT
  8
0
  6
CONTINUOUS
 62
    40
  5
16C
 10
4.5878
 20
1443.6435
 30
0.0
 40
3.0
  1
1
  7
MONOTXT
210
0.0
220
0.0
230
1.0
  0
TEXT
  8
0
  6
CONTINUOUS
 62
    40
  5
16D
 10
4.5878
 20
1435.0807
 30
0.0
 40
3.0
  1
1
  7
MONOTXT
210
0.0
220
0.0
230
1.0
  0
TEXT
  8
0
  6
CONTINUOUS
 62
    40
  5
16E
 10
4.5878
 20
1426.7773
 30
0.0
 40
3.0
  1
1
  7
MONOTXT
210
0.0
220
0.0
230
1.0
  0
TEXT
  8
0
  6
CONTINUOUS
 62
    40
  5
16F
 10
4.5878
 20
1418.2145
 30
0.0
 40
3.0
  1
1
  7
MONOTXT
210
0.0
220
0.0
230
1.0
  0
TEXT
  8
0
  6
CONTINUOUS
 62
    40
  5
170
 10
4.5878
 20
1410.4301
 30
0.0
 40
3.0
  1
2
  7
MONOTXT
210
0.0
220
0.0
230
1.0
  0
TEXT
  8
0
  6
CONTINUOUS
 62
    40
  5
171
 10
3.809
 20
1402.6457
 30
0.0
 40
3.0
  1
4
  7
MONOTXT
210
0.0
220
0.0
230
1.0
  0
TEXT
  8
0
  6
CONTINUOUS
 62
    40
  5
172
 10
3.6966
 20
1393.9841
 30
0.0
 40
3.0
  1
18
  7
MONOTXT
210
0.0
220
0.0
230
1.0
  0
TEXT
  8
0
  6
CONTINUOUS
 62
    40
  5
173
 10
4.5878
 20
1386.2984
 30
0.0
 40
3.0
  1
2
  7
MONOTXT
210
0.0
220
0.0
230
1.0
  0
TEXT
  8
0
  6
CONTINUOUS
 62
    40
  5
174
 10
4.5878
 20
1369.8398
 30
0.0
 40
3.0
  1
2
  7
MONOTXT
210
0.0
220
0.0
230
1.0
  0
TEXT
  8
0
  6
CONTINUOUS
 62
    40
  5
175
 10
4.5878
 20
1361.4871
 30
0.0
 40
3.0
  1
2
  7
MONOTXT
210
0.0
220
0.0
230
1.0
  0
TEXT
  8
0
  6
CONTINUOUS
 62
    40
  5
176
 10
4.5878
 20
1352.566
 30
0.0
 40
3.0
  1
2
  7
MONOTXT
210
0.0
220
0.0
230
1.0
  0
TEXT
  8
0
  6
CONTINUOUS
 62
    40
  5
177
 10
4.5878
 20
1345.0411
 30
0.0
 40
3.0
  1
2
  7
MONOTXT
210
0.0
220
0.0
230
1.0
  0
TEXT
  8
0
  6
CONTINUOUS
 62
    40
  5
178
 10
4.5878
 20
1336.4783
 30
0.0
 40
3.0
  1
2
  7
MONOTXT
210
0.0
220
0.0
230
1.0
  0
TEXT
  8
0
  6
CONTINUOUS
 62
    40
  5
179
 10
4.5878
 20
1328.6939
 30
0.0
 40
3.0
  1
2
  7
MONOTXT
210
0.0
220
0.0
230
1.0
  0
TEXT
  8
0
  6
CONTINUOUS
 62
    40
  5
17A
 10
4.5878
 20
1321.1689
 30
0.0
 40
3.0
  1
2
  7
MONOTXT
210
0.0
220
0.0
230
1.0
  0
TEXT
  8
0
  6
CONTINUOUS
 62
    40
  5
17B
 10
4.5878
 20
1312.3466
 30
0.0
 40
3.0
  1
2
  7
MONOTXT
210
0.0
220
0.0
230
1.0
  0
TEXT
  8
0
  6
CONTINUOUS
 62
    40
  5
17C
 10
4.5878
 20
1295.7399
 30
0.0
 40
3.0
  1
2
  7
MONOTXT
210
0.0
220
0.0
230
1.0
  0
TEXT
  8
0
  6
CONTINUOUS
 62
    40
  5
17D
 10
4.5878
 20
1287.9555
 30
0.0
 40
3.0
  1
2
  7
MONOTXT
210
0.0
220
0.0
230
1.0
  0
TEXT
  8
0
  6
CONTINUOUS
 62
    40
  5
17E
 10
4.5878
 20
1279.6521
 30
0.0
 40
3.0
  1
2
  7
MONOTXT
210
0.0
220
0.0
230
1.0
  0
TEXT
  8
0
  6
CONTINUOUS
 62
    40
  5
17F
 10
4.5878
 20
1271.4109
 30
0.0
 40
3.0
  1
8
  7
MONOTXT
210
0.0
220
0.0
230
1.0
  0
TEXT
  8
0
  6
CONTINUOUS
 62
    40
  5
180
 10
24.5516
 20
1809.4875
 30
0.0
 40
3.0
  1
6" INCREMENTS
  7
MONOTXT
210
0.0
220
0.0
230
1.0
  0
TEXT
  8
0
  6
CONTINUOUS
 62
    40
  5
181
 10
24.5516
 20
1768.7398
 30
0.0
 40
3.0
  1
6" INCREMENTS
  7
MONOTXT
210
0.0
220
0.0
230
1.0
  0
TEXT
  8
0
  6
CONTINUOUS
 62
    40
  5
182
 10
21.4601
 20
1729.5025
 30
0.0
 40
3.0
  1
6" INCREMENTS
  7
MONOTXT
210
0.0
220
0.0
230
1.0
  0
TEXT
  8
0
  6
CONTINUOUS
 62
    40
  5
183
 10
26.0352
 20
1606.9018
 30
0.0
 40
3.0
  1
6" INCREMENTS
  7
MONOTXT
210
0.0
220
0.0
230
1.0
  0
TEXT
  8
0
  6
CONTINUOUS
 62
    40
  5
184
 10
22.3254
 20
1507.8115
 30
0.0
 40
3.0
  1
6" INCREMENTS
  7
MONOTXT
210
0.0
220
0.0
230
1.0
  0
LINE
  8
0
  6
CONTINUOUS
 62
     2
  5
185
 10
-20.4648
 20
1522.5514
 30
0.0
 11
110.4353
 21
1522.5514
 31
0.0
  0
LINE
  8
0
  6
CONTINUOUS
 62
     2
  5
186
 10
-20.4648
 20
1547.0952
 30
0.0
 11
110.4353
 21
1547.0952
 31
0.0
  0
LINE
  8
0
  6
CONTINUOUS
 62
     2
  5
187
 10
-20.4648
 20
1555.2764
 30
0.0
 11
110.4353
 21
1555.2764
 31
0.0
  0
LINE
  8
0
  6
CONTINUOUS
 62
     2
  5
188
 10
-10.6472
 20
1326.2013
 30
0.0
 11
-10.6472
 21
1309.8388
 31
0.0
  0
LINE
  8
0
  6
CONTINUOUS
 62
     2
  5
189
 10
-0.8297
 20
1326.2013
 30
0.0
 11
-0.8297
 21
1309.8388
 31
0.0
  0
LINE
  8
0
  6
CONTINUOUS
 62
     2
  5
18A
 10
12.2603
 20
1326.2013
 30
0.0
 11
12.2603
 21
1309.8388
 31
0.0
  0
LINE
  8
0
  6
CONTINUOUS
 62
     2
  5
18B
 10
31.8953
 20
1326.2013
 30
0.0
 11
31.8953
 21
1309.8388
 31
0.0
  0
LINE
  8
0
  6
CONTINUOUS
 62
     2
  5
18C
 10
51.5303
 20
1326.2013
 30
0.0
 11
51.5303
 21
1309.8388
 31
0.0
  0
LINE
  8
0
  6
CONTINUOUS
 62
     2
  5
18D
 10
71.1653
 20
1326.2013
 30
0.0
 11
71.1653
 21
1309.8388
 31
0.0
  0
LINE
  8
0
  6
CONTINUOUS
 62
     2
  5
18E
 10
90.8003
 20
1326.2013
 30
0.0
 11
90.8003
 21
1309.8388
 31
0.0
  0
LINE
  8
0
  6
CONTINUOUS
 62
     2
  5
18F
 10
110.4353
 20
1326.2013
 30
0.0
 11
110.4353
 21
1301.6576
 31
0.0
  0
TEXT
  8
0
  6
CONTINUOUS
 62
    40
  5
190
 10
-18.1375
 20
1540.9585
 30
0.0
 40
3.0
  1
K6
  7
MONOTXT
210
0.0
220
0.0
230
1.0
  0
TEXT
  8
0
  6
CONTINUOUS
 62
    40
  5
191
 10
-18.225
 20
1532.8263
 30
0.0
 40
3.0
  1
K7
  7
MONOTXT
210
0.0
220
0.0
230
1.0
  0
TEXT
  8
0
  6
CONTINUOUS
 62
    40
  5
192
 10
-17.9414
 20
1524.9432
 30
0.0
 40
3.0
  1
K8
  7
MONOTXT
210
0.0
220
0.0
230
1.0
  0
LINE
  8
0
  6
CONTINUOUS
 62
     2
  5
193
 10
-20.4648
 20
1538.9139
 30
0.0
 11
110.4353
 21
1538.9139
 31
0.0
  0
LINE
  8
0
  6
CONTINUOUS
 62
     2
  5
194
 10
-20.4648
 20
1530.7327
 30
0.0
 11
110.4353
 21
1530.7327
 31
0.0
  0
TEXT
  8
0
  6
CONTINUOUS
 62
    40
  5
195
 10
-17.4396
 20
1516.6
 30
0.0
 40
3.0
  1
PI
  7
MONOTXT
210
0.0
220
0.0
230
1.0
  0
TEXT
  8
0
  6
CONTINUOUS
 62
    40
  5
196
 10
-15.8558
 20
1508.6861
 30
0.0
 40
3.0
  1
THRU
  7
MONOTXT
210
0.0
220
0.0
230
1.0
  0
TEXT
  8
0
  6
CONTINUOUS
 62
    40
  5
197
 10
22.3254
 20
1556.6969
 30
0.0
 40
3.0
  1
6" INCREMENTS
  7
MONOTXT
210
0.0
220
0.0
230
1.0
  0
TEXT
  8
0
  6
CONTINUOUS
 62
    40
  5
198
 10
-7.0371
 20
1541.1241
 30
0.0
 40
3.0
  1
6
  7
MONOTXT
210
0.0
220
0.0
230
1.0
  0
TEXT
  8
0
  6
CONTINUOUS
 62
    40
  5
199
 10
-7.379
 20
1533.0753
 30
0.0
 40
3.0
  1
6
  7
MONOTXT
210
0.0
220
0.0
230
1.0
  0
TEXT
  8
0
  6
CONTINUOUS
 62
    40
  5
19A
 10
-7.3054
 20
1524.8077
 30
0.0
 40
3.0
  1
7
  7
MONOTXT
210
0.0
220
0.0
230
1.0
  0
TEXT
  8
0
  6
CONTINUOUS
 62
    40
  5
19B
 10
-7.0552
 20
1516.7255
 30
0.0
 40
3.0
  1
5
  7
MONOTXT
210
0.0
220
0.0
230
1.0
  0
TEXT
  8
0
  6
CONTINUOUS
 62
    40
  5
19C
 10
4.8474
 20
1516.4892
 30
0.0
 40
3.0
  1
2
  7
MONOTXT
210
0.0
220
0.0
230
1.0
  0
TEXT
  8
0
  6
CONTINUOUS
 62
    40
  5
19D
 10
4.8474
 20
1525.4831
 30
0.0
 40
3.0
  1
2
  7
MONOTXT
210
0.0
220
0.0
230
1.0
  0
TEXT
  8
0
  6
CONTINUOUS
 62
    40
  5
19E
 10
4.8474
 20
1532.7485
 30
0.0
 40
3.0
  1
2
  7
MONOTXT
210
0.0
220
0.0
230
1.0
  0
TEXT
  8
0
  6
CONTINUOUS
 62
    40
  5
19F
 10
4.8474
 20
1541.8303
 30
0.0
 40
3.0
  1
2
  7
MONOTXT
210
0.0
220
0.0
230
1.0
  0
LINE
  8
0
  6
CONTINUOUS
 62
     2
  5
1A0
 10
-10.6472
 20
1342.5638
 30
0.0
 11
-10.6472
 21
1326.2013
 31
0.0
  0
LINE
  8
0
  6
CONTINUOUS
 62
     2
  5
1A1
 10
-0.8297
 20
1342.5638
 30
0.0
 11
-0.8297
 21
1326.2013
 31
0.0
  0
LINE
  8
0
  6
CONTINUOUS
 62
     2
  5
1A2
 10
12.2603
 20
1342.5638
 30
0.0
 11
12.2603
 21
1326.2013
 31
0.0
  0
LINE
  8
0
  6
CONTINUOUS
 62
     2
  5
1A3
 10
31.8953
 20
1342.5638
 30
0.0
 11
31.8953
 21
1326.2013
 31
0.0
  0
LINE
  8
0
  6
CONTINUOUS
 62
     2
  5
1A4
 10
51.5303
 20
1342.5638
 30
0.0
 11
51.5303
 21
1326.2013
 31
0.0
  0
LINE
  8
0
  6
CONTINUOUS
 62
     2
  5
1A5
 10
71.1653
 20
1342.5638
 30
0.0
 11
71.1653
 21
1326.2013
 31
0.0
  0
LINE
  8
0
  6
CONTINUOUS
 62
     2
  5
1A6
 10
90.8003
 20
1342.5638
 30
0.0
 11
90.8003
 21
1326.2013
 31
0.0
  0
LINE
  8
0
  6
CONTINUOUS
 62
     2
  5
1A7
 10
110.4353
 20
1342.5638
 30
0.0
 11
110.4353
 21
1326.2013
 31
0.0
  0
TEXT
  8
0
  6
CONTINUOUS
 62
    40
  5
1A8
 10
55.2303
 20
1631.2809
 30
0.0
 40
3.0
  1
36'-1"
  7
MONOTXT
210
0.0
220
0.0
230
1.0
  0
LINE
  8
0
  6
CONTINUOUS
 62
     2
  5
1A9
 10
-10.6472
 20
1350.7451
 30
0.0
 11
-10.6472
 21
1342.5638
 31
0.0
  0
LINE
  8
0
  6
CONTINUOUS
 62
     2
  5
1AA
 10
-0.8297
 20
1350.7451
 30
0.0
 11
-0.8297
 21
1342.5638
 31
0.0
  0
LINE
  8
0
  6
CONTINUOUS
 62
     2
  5
1AB
 10
12.2603
 20
1350.7451
 30
0.0
 11
12.2603
 21
1342.5638
 31
0.0
  0
LINE
  8
0
  6
CONTINUOUS
 62
     2
  5
1AC
 10
31.8953
 20
1350.7451
 30
0.0
 11
31.8953
 21
1342.5638
 31
0.0
  0
LINE
  8
0
  6
CONTINUOUS
 62
     2
  5
1AD
 10
51.5303
 20
1350.7451
 30
0.0
 11
51.5303
 21
1342.5638
 31
0.0
  0
LINE
  8
0
  6
CONTINUOUS
 62
     2
  5
1AE
 10
71.1653
 20
1350.7451
 30
0.0
 11
71.1653
 21
1342.5638
 31
0.0
  0
LINE
  8
0
  6
CONTINUOUS
 62
     2
  5
1AF
 10
90.8003
 20
1350.7451
 30
0.0
 11
90.8003
 21
1342.5638
 31
0.0
  0
LINE
  8
0
  6
CONTINUOUS
 62
     2
  5
1B0
 10
110.4353
 20
1350.7451
 30
0.0
 11
110.4353
 21
1342.5638
 31
0.0
  0
LINE
  8
0
  6
CONTINUOUS
 62
     2
  5
1B1
 10
-20.4648
 20
1530.7327
 30
0.0
 11
110.4353
 21
1530.7327
 31
0.0
  0
LINE
  8
0
  6
CONTINUOUS
 62
     2
  5
1B2
 10
-20.4648
 20
1514.3702
 30
0.0
 11
110.4353
 21
1514.3702
 31
0.0
  0
TEXT
  8
0
  6
CONTINUOUS
 62
    40
  5
1B3
 10
-18.4329
 20
1549.6837
 30
0.0
 40
3.0
  1
K5
  7
MONOTXT
210
0.0
220
0.0
230
1.0
  0
TEXT
  8
0
  6
CONTINUOUS
 62
    40
  5
1B4
 10
4.8474
 20
1549.7476
 30
0.0
 40
3.0
  1
2
  7
MONOTXT
210
0.0
220
0.0
230
1.0
  0
TEXT
  8
0
  6
CONTINUOUS
 62
    40
  5
1B5
 10
54.4717
 20
1402.3304
 30
0.0
 40
3.0
  1
40'-9"
  7
MONOTXT
210
0.0
220
0.0
230
1.0
  0
TEXT
  8
0
  6
CONTINUOUS
 62
    40
  5
1B6
 10
32.3904
 20
1303.9786
 30
0.0
 40
3.0
  1
6" INCREMENTS
  7
MONOTXT
210
0.0
220
0.0
230
1.0
  0
TEXT
  8
0
  6
CONTINUOUS
 62
    40
  5
1B7
 10
95.8796
 20
1900.6413
 30
0.0
 40
3.0
  1
BENT
  7
MONOTXT
210
0.0
220
0.0
230
1.0
  0
TEXT
  8
0
  6
CONTINUOUS
 62
    40
  5
1B8
 10
94.0471
 20
1883.5462
 30
0.0
 40
3.0
  1
STR.
  7
MONOTXT
210
0.0
220
0.0
230
1.0
  0
TEXT
  8
0
  6
CONTINUOUS
 62
    40
  5
1B9
 10
95.8796
 20
1891.1779
 30
0.0
 40
3.0
  1
BENT
  7
MONOTXT
210
0.0
220
0.0
230
1.0
  0
TEXT
  8
0
  6
CONTINUOUS
 62
    40
  5
1BA
 10
94.0471
 20
1874.9986
 30
0.0
 40
3.0
  1
STR.
  7
MONOTXT
210
0.0
220
0.0
230
1.0
  0
TEXT
  8
0
  6
CONTINUOUS
 62
    40
  5
1BB
 10
94.0471
 20
1867.3668
 30
0.0
 40
3.0
  1
STR.
  7
MONOTXT
210
0.0
220
0.0
230
1.0
  0
TEXT
  8
0
  6
CONTINUOUS
 62
    40
  5
1BC
 10
94.0471
 20
1859.4298
 30
0.0
 40
3.0
  1
STR.
  7
MONOTXT
210
0.0
220
0.0
230
1.0
  0
TEXT
  8
0
  6
CONTINUOUS
 62
    40
  5
1BD
 10
94.0471
 20
1850.5769
 30
0.0
 40
3.0
  1
STR.
  7
MONOTXT
210
0.0
220
0.0
230
1.0
  0
TEXT
  8
0
  6
CONTINUOUS
 62
    40
  5
1BE
 10
95.8796
 20
1842.6399
 30
0.0
 40
3.0
  1
BENT
  7
MONOTXT
210
0.0
220
0.0
230
1.0
  0
TEXT
  8
0
  6
CONTINUOUS
 62
    40
  5
1BF
 10
94.0471
 20
1834.7029
 30
0.0
 40
3.0
  1
STR.
  7
MONOTXT
210
0.0
220
0.0
230
1.0
  0
TEXT
  8
0
  6
CONTINUOUS
 62
    40
  5
1C0
 10
95.8796
 20
1817.6077
 30
0.0
 40
3.0
  1
BENT
  7
MONOTXT
210
0.0
220
0.0
230
1.0
  0
TEXT
  8
0
  6
CONTINUOUS
 62
    40
  5
1C1
 10
95.4159
 20
1801.2817
 30
0.0
 40
3.0
  1
BENT
  7
MONOTXT
210
0.0
220
0.0
230
1.0
  0
TEXT
  8
0
  6
CONTINUOUS
 62
    40
  5
1C2
 10
95.4159
 20
1793.4913
 30
0.0
 40
3.0
  1
BENT
  7
MONOTXT
210
0.0
220
0.0
230
1.0
  0
TEXT
  8
0
  6
CONTINUOUS
 62
    40
  5
1C3
 10
95.593
 20
1785.4036
 30
0.0
 40
3.0
  1
STR.
  7
MONOTXT
210
0.0
220
0.0
230
1.0
  0
TEXT
  8
0
  6
CONTINUOUS
 62
    40
  5
1C4
 10
95.4159
 20
1777.0107
 30
0.0
 40
3.0
  1
BENT
  7
MONOTXT
210
0.0
220
0.0
230
1.0
  0
TEXT
  8
0
  6
CONTINUOUS
 62
    40
  5
1C5
 10
95.8796
 20
1760.2168
 30
0.0
 40
3.0
  1
BENT
  7
MONOTXT
210
0.0
220
0.0
230
1.0
  0
TEXT
  8
0
  6
CONTINUOUS
 62
    40
  5
1C6
 10
95.8796
 20
1752.2798
 30
0.0
 40
3.0
  1
BENT
  7
MONOTXT
210
0.0
220
0.0
230
1.0
  0
TEXT
  8
0
  6
CONTINUOUS
 62
    40
  5
1C7
 10
95.8796
 20
1736.711
 30
0.0
 40
3.0
  1
BENT
  7
MONOTXT
210
0.0
220
0.0
230
1.0
  0
TEXT
  8
0
  6
CONTINUOUS
 62
    40
  5
1C8
 10
95.8796
 20
1721.1422
 30
0.0
 40
3.0
  1
BENT
  7
MONOTXT
210
0.0
220
0.0
230
1.0
  0
TEXT
  8
0
  6
CONTINUOUS
 62
    40
  5
1C9
 10
96.6265
 20
1713.6611
 30
0.0
 40
3.0
  1
STR.
  7
MONOTXT
210
0.0
220
0.0
230
1.0
  0
TEXT
  8
0
  6
CONTINUOUS
 62
    40
  5
1CA
 10
96.781
 20
1704.9669
 30
0.0
 40
3.0
  1
STR.
  7
MONOTXT
210
0.0
220
0.0
230
1.0
  0
TEXT
  8
0
  6
CONTINUOUS
 62
    40
  5
1CB
 10
95.8796
 20
1688.9065
 30
0.0
 40
3.0
  1
BENT
  7
MONOTXT
210
0.0
220
0.0
230
1.0
  0
TEXT
  8
0
  6
CONTINUOUS
 62
    40
  5
1CC
 10
95.8796
 20
1679.9917
 30
0.0
 40
3.0
  1
BENT
  7
MONOTXT
210
0.0
220
0.0
230
1.0
  0
TEXT
  8
0
  6
CONTINUOUS
 62
    40
  5
1CD
 10
97.0902
 20
1672.364
 30
0.0
 40
3.0
  1
STR.
  7
MONOTXT
210
0.0
220
0.0
230
1.0
  0
TEXT
  8
0
  6
CONTINUOUS
 62
    40
  5
1CE
 10
98.0176
 20
1664.1176
 30
0.0
 40
3.0
  1
STR.
  7
MONOTXT
210
0.0
220
0.0
230
1.0
  0
TEXT
  8
0
  6
CONTINUOUS
 62
    40
  5
1CF
 10
98.0176
 20
1655.8753
 30
0.0
 40
3.0
  1
STR.
  7
MONOTXT
210
0.0
220
0.0
230
1.0
  0
TEXT
  8
0
  6
CONTINUOUS
 62
    40
  5
1D0
 10
98.0176
 20
1647.3277
 30
0.0
 40
3.0
  1
STR.
  7
MONOTXT
210
0.0
220
0.0
230
1.0
  0
TEXT
  8
0
  6
CONTINUOUS
 62
    40
  5
1D1
 10
98.0176
 20
1639.0854
 30
0.0
 40
3.0
  1
STR.
  7
MONOTXT
210
0.0
220
0.0
230
1.0
  0
TEXT
  8
0
  6
CONTINUOUS
 62
    40
  5
1D2
 10
95.8796
 20
1631.4537
 30
0.0
 40
3.0
  1
BENT
  7
MONOTXT
210
0.0
220
0.0
230
1.0
  0
TEXT
  8
0
  6
CONTINUOUS
 62
    40
  5
1D3
 10
98.0176
 20
1623.5166
 30
0.0
 40
3.0
  1
STR.
  7
MONOTXT
210
0.0
220
0.0
230
1.0
  0
TEXT
  8
0
  6
CONTINUOUS
 62
    40
  5
1D4
 10
95.8796
 20
1614.6638
 30
0.0
 40
3.0
  1
BENT
  7
MONOTXT
210
0.0
220
0.0
230
1.0
  0
TEXT
  8
0
  6
CONTINUOUS
 62
    40
  5
1D5
 10
95.8796
 20
1597.2634
 30
0.0
 40
3.0
  1
BENT
  7
MONOTXT
210
0.0
220
0.0
230
1.0
  0
TEXT
  8
0
  6
CONTINUOUS
 62
    40
  5
1D6
 10
95.8796
 20
1589.9369
 30
0.0
 40
3.0
  1
BENT
  7
MONOTXT
210
0.0
220
0.0
230
1.0
  0
TEXT
  8
0
  6
CONTINUOUS
 62
    40
  5
1D7
 10
95.8796
 20
1582.3051
 30
0.0
 40
3.0
  1
BENT
  7
MONOTXT
210
0.0
220
0.0
230
1.0
  0
TEXT
  8
0
  6
CONTINUOUS
 62
    40
  5
1D8
 10
95.8796
 20
1574.0628
 30
0.0
 40
3.0
  1
BENT
  7
MONOTXT
210
0.0
220
0.0
230
1.0
  0
TEXT
  8
0
  6
CONTINUOUS
 62
    40
  5
1D9
 10
95.8796
 20
1566.431
 30
0.0
 40
3.0
  1
BENT
  7
MONOTXT
210
0.0
220
0.0
230
1.0
  0
TEXT
  8
0
  6
CONTINUOUS
 62
    40
  5
1DA
 10
95.8796
 20
1550.2517
 30
0.0
 40
3.0
  1
BENT
  7
MONOTXT
210
0.0
220
0.0
230
1.0
  0
TEXT
  8
0
  6
CONTINUOUS
 62
    40
  5
1DB
 10
95.8796
 20
1542.0094
 30
0.0
 40
3.0
  1
BENT
  7
MONOTXT
210
0.0
220
0.0
230
1.0
  0
TEXT
  8
0
  6
CONTINUOUS
 62
    40
  5
1DC
 10
95.8796
 20
1533.7671
 30
0.0
 40
3.0
  1
BENT
  7
MONOTXT
210
0.0
220
0.0
230
1.0
  0
TEXT
  8
0
  6
CONTINUOUS
 62
    40
  5
1DD
 10
95.8796
 20
1525.2195
 30
0.0
 40
3.0
  1
BENT
  7
MONOTXT
210
0.0
220
0.0
230
1.0
  0
TEXT
  8
0
  6
CONTINUOUS
 62
    40
  5
1DE
 10
95.8796
 20
1516.3666
 30
0.0
 40
3.0
  1
BENT
  7
MONOTXT
210
0.0
220
0.0
230
1.0
  0
TEXT
  8
0
  6
CONTINUOUS
 62
    40
  5
1DF
 10
95.8796
 20
1500.1873
 30
0.0
 40
3.0
  1
BENT
  7
MONOTXT
210
0.0
220
0.0
230
1.0
  0
TEXT
  8
0
  6
CONTINUOUS
 62
    40
  5
1E0
 10
98.0176
 20
1492.2503
 30
0.0
 40
3.0
  1
STR.
  7
MONOTXT
210
0.0
220
0.0
230
1.0
  0
TEXT
  8
0
  6
CONTINUOUS
 62
    40
  5
1E1
 10
98.0176
 20
1483.7027
 30
0.0
 40
3.0
  1
STR.
  7
MONOTXT
210
0.0
220
0.0
230
1.0
  0
TEXT
  8
0
  6
CONTINUOUS
 62
    40
  5
1E2
 10
98.0176
 20
1475.7656
 30
0.0
 40
3.0
  1
STR.
  7
MONOTXT
210
0.0
220
0.0
230
1.0
  0
TEXT
  8
0
  6
CONTINUOUS
 62
    40
  5
1E3
 10
95.8796
 20
1468.0728
 30
0.0
 40
3.0
  1
BENT
  7
MONOTXT
210
0.0
220
0.0
230
1.0
  0
TEXT
  8
0
  6
CONTINUOUS
 62
    40
  5
1E4
 10
95.8796
 20
1459.22
 30
0.0
 40
3.0
  1
BENT
  7
MONOTXT
210
0.0
220
0.0
230
1.0
  0
TEXT
  8
0
  6
CONTINUOUS
 62
    40
  5
1E5
 10
98.0176
 20
1451.2829
 30
0.0
 40
3.0
  1
STR.
  7
MONOTXT
210
0.0
220
0.0
230
1.0
  0
TEXT
  8
0
  6
CONTINUOUS
 62
    40
  5
1E6
 10
98.0176
 20
1442.7354
 30
0.0
 40
3.0
  1
STR.
  7
MONOTXT
210
0.0
220
0.0
230
1.0
  0
TEXT
  8
0
  6
CONTINUOUS
 62
    40
  5
1E7
 10
98.0176
 20
1435.1036
 30
0.0
 40
3.0
  1
STR.
  7
MONOTXT
210
0.0
220
0.0
230
1.0
  0
TEXT
  8
0
  6
CONTINUOUS
 62
    40
  5
1E8
 10
98.0176
 20
1427.1666
 30
0.0
 40
3.0
  1
STR.
  7
MONOTXT
210
0.0
220
0.0
230
1.0
  0
TEXT
  8
0
  6
CONTINUOUS
 62
    40
  5
1E9
 10
98.0176
 20
1418.619
 30
0.0
 40
3.0
  1
STR.
  7
MONOTXT
210
0.0
220
0.0
230
1.0
  0
TEXT
  8
0
  6
CONTINUOUS
 62
    40
  5
1EA
 10
98.0176
 20
1410.0714
 30
0.0
 40
3.0
  1
STR.
  7
MONOTXT
210
0.0
220
0.0
230
1.0
  0
TEXT
  8
0
  6
CONTINUOUS
 62
    40
  5
1EB
 10
95.8796
 20
1401.8291
 30
0.0
 40
3.0
  1
BENT
  7
MONOTXT
210
0.0
220
0.0
230
1.0
  0
TEXT
  8
0
  6
CONTINUOUS
 62
    40
  5
1EC
 10
98.0176
 20
1393.8921
 30
0.0
 40
3.0
  1
STR.
  7
MONOTXT
210
0.0
220
0.0
230
1.0
  0
TEXT
  8
0
  6
CONTINUOUS
 62
    40
  5
1ED
 10
95.8796
 20
1386.2603
 30
0.0
 40
3.0
  1
BENT
  7
MONOTXT
210
0.0
220
0.0
230
1.0
  0
TEXT
  8
0
  6
CONTINUOUS
 62
    40
  5
1EE
 10
31.1555
 20
1377.8648
 30
0.0
 40
3.0
  1
6" INCREMENTS
  7
MONOTXT
210
0.0
220
0.0
230
1.0
  0
TEXT
  8
0
  6
CONTINUOUS
 62
    40
  5
1EF
 10
95.8796
 20
1369.4704
 30
0.0
 40
3.0
  1
BENT
  7
MONOTXT
210
0.0
220
0.0
230
1.0
  0
TEXT
  8
0
  6
CONTINUOUS
 62
    40
  5
1F0
 10
95.8796
 20
1361.2281
 30
0.0
 40
3.0
  1
BENT
  7
MONOTXT
210
0.0
220
0.0
230
1.0
  0
TEXT
  8
0
  6
CONTINUOUS
 62
    40
  5
1F1
 10
95.8796
 20
1353.2911
 30
0.0
 40
3.0
  1
BENT
  7
MONOTXT
210
0.0
220
0.0
230
1.0
  0
TEXT
  8
0
  6
CONTINUOUS
 62
    40
  5
1F2
 10
95.8796
 20
1345.0487
 30
0.0
 40
3.0
  1
BENT
  7
MONOTXT
210
0.0
220
0.0
230
1.0
  0
TEXT
  8
0
  6
CONTINUOUS
 62
    40
  5
1F3
 10
95.8796
 20
1336.5012
 30
0.0
 40
3.0
  1
BENT
  7
MONOTXT
210
0.0
220
0.0
230
1.0
  0
TEXT
  8
0
  6
CONTINUOUS
 62
    40
  5
1F4
 10
95.8796
 20
1328.2589
 30
0.0
 40
3.0
  1
BENT
  7
MONOTXT
210
0.0
220
0.0
230
1.0
  0
TEXT
  8
0
  6
CONTINUOUS
 62
    40
  5
1F5
 10
95.8796
 20
1320.0166
 30
0.0
 40
3.0
  1
BENT
  7
MONOTXT
210
0.0
220
0.0
230
1.0
  0
TEXT
  8
0
  6
CONTINUOUS
 62
    40
  5
1F6
 10
95.8796
 20
1312.0795
 30
0.0
 40
3.0
  1
BENT
  7
MONOTXT
210
0.0
220
0.0
230
1.0
  0
TEXT
  8
0
  6
CONTINUOUS
 62
    40
  5
1F7
 10
95.8796
 20
1295.5949
 30
0.0
 40
3.0
  1
BENT
  7
MONOTXT
210
0.0
220
0.0
230
1.0
  0
TEXT
  8
0
  6
CONTINUOUS
 62
    40
  5
1F8
 10
95.8796
 20
1287.9631
 30
0.0
 40
3.0
  1
BENT
  7
MONOTXT
210
0.0
220
0.0
230
1.0
  0
TEXT
  8
0
  6
CONTINUOUS
 62
    40
  5
1F9
 10
95.8796
 20
1279.4156
 30
0.0
 40
3.0
  1
BENT
  7
MONOTXT
210
0.0
220
0.0
230
1.0
  0
TEXT
  8
0
  6
CONTINUOUS
 62
    40
  5
1FA
 10
96.1851
 20
1271.1732
 30
0.0
 40
3.0
  1
STR.
  7
MONOTXT
210
0.0
220
0.0
230
1.0
  0
TEXT
  8
0
  6
CONTINUOUS
 62
    40
  5
1FB
 10
-177.5658
 20
1688.6139
 30
0.0
 40
3.0
  1
2:1
  7
MONOTXT
210
0.0
220
0.0
230
1.0
  0
TEXT
  8
0
  6
CONTINUOUS
 62
    40
  5
1FC
 10
-197.2903
 20
1688.4779
 30
0.0
 40
3.0
  1
84"
  7
MONOTXT
210
0.0
220
0.0
230
1.0
  0
TEXT
  8
0
  6
CONTINUOUS
 62
    40
  5
1FD
 10
-30.4196
 20
1688.4779
 30
0.0
 40
3.0
  1
12"
  7
MONOTXT
210
0.0
220
0.0
230
1.0
  0
TEXT
  8
0
  6
CONTINUOUS
 62
    40
  5
1FE
 10
-198.5096
 20
1899.7209
 30
0.0
 40
3.0
  1
72"
  7
MONOTXT
210
0.0
220
0.0
230
1.0
  0
TEXT
  8
0
  6
CONTINUOUS
 62
    40
  5
1FF
 10
-31.8009
 20
1899.8088
 30
0.0
 40
3.0
  1
12"
  7
MONOTXT
210
0.0
220
0.0
230
1.0
  0
TEXT
  8
0
  6
CONTINUOUS
 62
    40
  5
200
 10
-198.5096
 20
1467.8914
 30
0.0
 40
3.0
  1
96"
  7
MONOTXT
210
0.0
220
0.0
230
1.0
  0
TEXT
  8
0
  6
CONTINUOUS
 62
    40
  5
201
 10
-176.5617
 20
1467.8914
 30
0.0
 40
3.0
  1
2:1
  7
MONOTXT
210
0.0
220
0.0
230
1.0
  0
TEXT
  8
0
  6
CONTINUOUS
 62
    40
  5
202
 10
-31.1161
 20
1468.1263
 30
0.0
 40
3.0
  1
12"
  7
MONOTXT
210
0.0
220
0.0
230
1.0
  0
TEXT
  8
0
  6
CONTINUOUS
 62
    40
  5
203
 10
133.2022
 20
1688.9351
 30
0.0
 40
3.0
  1
1095
  7
MONOTXT
210
0.0
220
0.0
230
1.0
  0
TEXT
  8
0
  6
CONTINUOUS
 62
    40
  5
204
 10
133.7758
 20
1467.72
 30
0.0
 40
3.0
  1
1485
  7
MONOTXT
210
0.0
220
0.0
230
1.0
  0
TEXT
  8
0
  6
CONTINUOUS
 62
    40
  5
205
 10
133.8912
 20
1900.2084
 30
0.0
 40
3.0
  1
972
  7
MONOTXT
210
0.0
220
0.0
230
1.0
  0
LINE
  8
0
  6
CONTINUOUS
 62
     2
  5
206
 10
480.2279
 20
1301.6576
 30
0.0
 11
480.2279
 21
1268.9326
 31
0.0
  0
LINE
  8
0
  6
CONTINUOUS
 62
     2
  5
207
 10
480.2279
 20
1342.5638
 30
0.0
 11
480.2279
 21
1301.6576
 31
0.0
  0
LINE
  8
0
  6
CONTINUOUS
 62
     2
  5
208
 10
290.4229
 20
1913.6153
 30
0.0
 11
290.4229
 21
1905.4341
 31
0.0
  0
LINE
  8
0
  6
CONTINUOUS
 62
     2
  5
209
 10
264.2429
 20
1913.6153
 30
0.0
 11
264.2429
 21
1905.4341
 31
0.0
  0
LINE
  8
0
  6
CONTINUOUS
 62
     2
  5
20A
 10
224.9728
 20
1913.6153
 30
0.0
 11
224.9728
 21
1905.4341
 31
0.0
  0
LINE
  8
0
  6
CONTINUOUS
 62
     2
  5
20B
 10
244.6079
 20
1913.6153
 30
0.0
 11
244.6079
 21
1905.4341
 31
0.0
  0
LINE
  8
0
  6
CONTINUOUS
 62
     2
  5
20C
 10
205.3378
 20
1929.9778
 30
0.0
 11
205.3378
 21
1905.4341
 31
0.0
  0
LINE
  8
0
  6
CONTINUOUS
 62
     2
  5
20D
 10
182.4303
 20
1929.9778
 30
0.0
 11
182.4303
 21
1905.4341
 31
0.0
  0
LINE
  8
0
  6
CONTINUOUS
 62
     2
  5
20E
 10
169.3403
 20
1929.9778
 30
0.0
 11
169.3403
 21
1905.4341
 31
0.0
  0
LINE
  8
0
  6
CONTINUOUS
 62
     2
  5
20F
 10
316.6029
 20
1913.6153
 30
0.0
 11
316.6029
 21
1905.4341
 31
0.0
  0
LINE
  8
0
  6
CONTINUOUS
 62
     2
  5
210
 10
362.4179
 20
1913.6153
 30
0.0
 11
362.4179
 21
1872.7091
 31
0.0
  0
LINE
  8
0
  6
CONTINUOUS
 62
     2
  5
211
 10
329.6929
 20
1686.1765
 30
0.0
 11
460.5929
 21
1686.1765
 31
0.0
  0
LINE
  8
0
  6
CONTINUOUS
 62
     2
  5
212
 10
329.6929
 20
1677.9952
 30
0.0
 11
460.5929
 21
1677.9952
 31
0.0
  0
LINE
  8
0
  6
CONTINUOUS
 62
     2
  5
213
 10
382.0529
 20
1913.6153
 30
0.0
 11
382.0529
 21
1872.7091
 31
0.0
  0
LINE
  8
0
  6
CONTINUOUS
 62
     2
  5
214
 10
329.6929
 20
1669.814
 30
0.0
 11
460.5929
 21
1669.814
 31
0.0
  0
LINE
  8
0
  6
CONTINUOUS
 62
     2
  5
215
 10
329.6929
 20
1661.6327
 30
0.0
 11
460.5929
 21
1661.6327
 31
0.0
  0
LINE
  8
0
  6
CONTINUOUS
 62
     2
  5
216
 10
329.6929
 20
1653.4515
 30
0.0
 11
460.5929
 21
1653.4515
 31
0.0
  0
LINE
  8
0
  6
CONTINUOUS
 62
     2
  5
217
 10
329.6929
 20
1645.2702
 30
0.0
 11
460.5929
 21
1645.2702
 31
0.0
  0
LINE
  8
0
  6
CONTINUOUS
 62
     2
  5
218
 10
421.3229
 20
1929.9778
 30
0.0
 11
421.3229
 21
1872.7091
 31
0.0
  0
LINE
  8
0
  6
CONTINUOUS
 62
     2
  5
219
 10
329.6929
 20
1637.089
 30
0.0
 11
460.5929
 21
1637.089
 31
0.0
  0
LINE
  8
0
  6
CONTINUOUS
 62
     2
  5
21A
 10
401.6879
 20
1913.6153
 30
0.0
 11
401.6879
 21
1872.7091
 31
0.0
  0
LINE
  8
0
  6
CONTINUOUS
 62
     2
  5
21B
 10
329.6929
 20
1628.9077
 30
0.0
 11
460.5929
 21
1628.9077
 31
0.0
  0
LINE
  8
0
  6
CONTINUOUS
 62
     2
  5
21C
 10
349.3279
 20
1913.6153
 30
0.0
 11
349.3279
 21
1872.7091
 31
0.0
  0
LINE
  8
0
  6
CONTINUOUS
 62
     7
  5
21D
 10
329.6929
 20
1929.9778
 30
0.0
 11
329.6929
 21
1268.9326
 31
0.0
  0
LINE
  8
0
  6
CONTINUOUS
 62
     2
  5
21E
 10
339.5104
 20
1913.6153
 30
0.0
 11
339.5104
 21
1872.7091
 31
0.0
  0
LINE
  8
0
  6
CONTINUOUS
 62
     2
  5
21F
 10
329.6929
 20
1620.7265
 30
0.0
 11
460.5929
 21
1620.7265
 31
0.0
  0
LINE
  8
0
  6
CONTINUOUS
 62
     2
  5
220
 10
329.6929
 20
1612.5452
 30
0.0
 11
460.5929
 21
1612.5452
 31
0.0
  0
LINE
  8
0
  6
CONTINUOUS
 62
     2
  5
221
 10
480.2279
 20
1913.6153
 30
0.0
 11
480.2279
 21
1350.7451
 31
0.0
  0
LINE
  8
0
  6
CONTINUOUS
 62
     2
  5
222
 10
329.6929
 20
1694.3577
 30
0.0
 11
460.5929
 21
1694.3577
 31
0.0
  0
LINE
  8
0
  6
CONTINUOUS
 62
     2
  5
223
 10
329.6929
 20
1702.539
 30
0.0
 11
460.5929
 21
1702.539
 31
0.0
  0
LINE
  8
0
  6
CONTINUOUS
 62
     2
  5
224
 10
329.6929
 20
1710.7202
 30
0.0
 11
460.5929
 21
1710.7202
 31
0.0
  0
LINE
  8
0
  6
CONTINUOUS
 62
     2
  5
225
 10
440.9579
 20
1913.6153
 30
0.0
 11
440.9579
 21
1872.7091
 31
0.0
  0
LINE
  8
0
  6
CONTINUOUS
 62
     2
  5
226
 10
329.6929
 20
1727.0827
 30
0.0
 11
460.5929
 21
1727.0827
 31
0.0
  0
LINE
  8
0
  6
CONTINUOUS
 62
     2
  5
227
 10
329.6929
 20
1735.264
 30
0.0
 11
460.5929
 21
1735.264
 31
0.0
  0
LINE
  8
0
  6
CONTINUOUS
 62
     2
  5
228
 10
329.6929
 20
1743.4453
 30
0.0
 11
460.5929
 21
1743.4453
 31
0.0
  0
LINE
  8
0
  6
CONTINUOUS
 62
     2
  5
229
 10
329.6929
 20
1749.9903
 30
0.0
 11
460.5929
 21
1749.9903
 31
0.0
  0
LINE
  8
0
  6
CONTINUOUS
 62
     2
  5
22A
 10
460.5929
 20
1913.6153
 30
0.0
 11
460.5929
 21
1350.7451
 31
0.0
  0
LINE
  8
0
  6
CONTINUOUS
 62
     2
  5
22B
 10
329.6929
 20
1758.1715
 30
0.0
 11
460.5929
 21
1758.1715
 31
0.0
  0
LINE
  8
0
  6
CONTINUOUS
 62
     2
  5
22C
 10
329.6929
 20
1766.3528
 30
0.0
 11
460.5929
 21
1766.3528
 31
0.0
  0
LINE
  8
0
  6
CONTINUOUS
 62
     2
  5
22D
 10
329.6929
 20
1774.534
 30
0.0
 11
460.5929
 21
1774.534
 31
0.0
  0
LINE
  8
0
  6
CONTINUOUS
 62
     2
  5
22E
 10
329.6929
 20
1782.7153
 30
0.0
 11
460.5929
 21
1782.7153
 31
0.0
  0
LINE
  8
0
  6
CONTINUOUS
 62
     2
  5
22F
 10
329.6929
 20
1790.8965
 30
0.0
 11
460.5929
 21
1790.8965
 31
0.0
  0
LINE
  8
0
  6
CONTINUOUS
 62
     2
  5
230
 10
329.6929
 20
1799.0778
 30
0.0
 11
460.5929
 21
1799.0778
 31
0.0
  0
LINE
  8
0
  6
CONTINUOUS
 62
     2
  5
231
 10
329.6929
 20
1807.259
 30
0.0
 11
460.5929
 21
1807.259
 31
0.0
  0
LINE
  8
0
  6
CONTINUOUS
 62
     2
  5
232
 10
329.6929
 20
1815.4403
 30
0.0
 11
460.5929
 21
1815.4403
 31
0.0
  0
LINE
  8
0
  6
CONTINUOUS
 62
     2
  5
233
 10
329.6929
 20
1823.6215
 30
0.0
 11
460.5929
 21
1823.6215
 31
0.0
  0
LINE
  8
0
  6
CONTINUOUS
 62
     7
  5
234
 10
329.6929
 20
1831.8028
 30
0.0
 11
460.5929
 21
1831.8028
 31
0.0
  0
LINE
  8
0
  6
CONTINUOUS
 62
     7
  5
235
 10
329.6929
 20
1839.984
 30
0.0
 11
460.5929
 21
1839.984
 31
0.0
  0
LINE
  8
0
  6
CONTINUOUS
 62
     2
  5
236
 10
329.6929
 20
1848.1653
 30
0.0
 11
460.5929
 21
1848.1653
 31
0.0
  0
LINE
  8
0
  6
CONTINUOUS
 62
     2
  5
237
 10
329.6929
 20
1856.3465
 30
0.0
 11
460.5929
 21
1856.3465
 31
0.0
  0
LINE
  8
0
  6
CONTINUOUS
 62
     2
  5
238
 10
329.6929
 20
1864.5278
 30
0.0
 11
460.5929
 21
1864.5278
 31
0.0
  0
LINE
  8
0
  6
CONTINUOUS
 62
     2
  5
239
 10
329.6929
 20
1872.7091
 30
0.0
 11
460.5929
 21
1872.7091
 31
0.0
  0
LINE
  8
0
  6
CONTINUOUS
 62
     2
  5
23A
 10
329.6929
 20
1880.8903
 30
0.0
 11
460.5929
 21
1880.8903
 31
0.0
  0
LINE
  8
0
  6
CONTINUOUS
 62
     2
  5
23B
 10
329.6929
 20
1889.0716
 30
0.0
 11
460.5929
 21
1889.0716
 31
0.0
  0
LINE
  8
0
  6
CONTINUOUS
 62
     2
  5
23C
 10
329.6929
 20
1897.2528
 30
0.0
 11
460.5929
 21
1897.2528
 31
0.0
  0
LINE
  8
0
  6
CONTINUOUS
 62
     7
  5
23D
 10
146.4328
 20
1905.4341
 30
0.0
 11
460.5929
 21
1905.4341
 31
0.0
  0
LINE
  8
0
  6
CONTINUOUS
 62
     7
  5
23E
 10
182.4303
 20
1913.6153
 30
0.0
 11
460.5929
 21
1913.6153
 31
0.0
  0
TEXT
  8
0
  6
CONTINUOUS
 62
     7
  5
23F
 10
336.751
 20
1918.5438
 30
0.0
 40
6.545
  1
REINFORCEMENT
  7
MONOTXT
210
0.0
220
0.0
230
1.0
  0
TEXT
  8
0
  6
CONTINUOUS
 62
     7
  5
240
 10
433.8065
 20
1917.9149
 30
0.0
 40
6.545
  1
QUANTITY
  7
MONOTXT
210
0.0
220
0.0
230
1.0
  0
LINE
  8
0
  6
CONTINUOUS
 62
     7
  5
241
 10
460.5929
 20
1913.6153
 30
0.0
 11
496.5905
 21
1913.6153
 31
0.0
  0
LINE
  8
0
  6
CONTINUOUS
 62
     7
  5
242
 10
460.5929
 20
1905.4341
 30
0.0
 11
496.5905
 21
1905.4341
 31
0.0
  0
TEXT
  8
0
  6
CONTINUOUS
 62
     7
  5
243
 10
224.9384
 20
1918.7716
 30
0.0
 40
6.545
  1
DIMENSIONS
  7
MONOTXT
210
0.0
220
0.0
230
1.0
  0
TEXT
  8
0
  6
CONTINUOUS
 62
     7
  5
244
 10
152.0051
 20
1918.7703
 30
0.0
 40
5.61
  1
I.D.
  7
MONOTXT
210
0.0
220
0.0
230
1.0
  0
TEXT
  8
0
  6
CONTINUOUS
 62
     7
  5
245
 10
149.1647
 20
1908.6279
 30
0.0
 40
5.61
  1
PIPE
  7
MONOTXT
210
0.0
220
0.0
230
1.0
  0
LINE
  8
0
  6
CONTINUOUS
 62
     2
  5
246
 10
329.6929
 20
1604.3639
 30
0.0
 11
460.5929
 21
1604.3639
 31
0.0
  0
LINE
  8
0
  6
CONTINUOUS
 62
     2
  5
247
 10
329.6929
 20
1596.1827
 30
0.0
 11
460.5929
 21
1596.1827
 31
0.0
  0
LINE
  8
0
  6
CONTINUOUS
 62
     2
  5
248
 10
329.6929
 20
1588.0014
 30
0.0
 11
460.5929
 21
1588.0014
 31
0.0
  0
LINE
  8
0
  6
CONTINUOUS
 62
     2
  5
249
 10
329.6929
 20
1579.8202
 30
0.0
 11
460.5929
 21
1579.8202
 31
0.0
  0
LINE
  8
0
  6
CONTINUOUS
 62
     2
  5
24A
 10
329.6929
 20
1571.6389
 30
0.0
 11
460.5929
 21
1571.6389
 31
0.0
  0
LINE
  8
0
  6
CONTINUOUS
 62
     2
  5
24B
 10
329.6929
 20
1563.4577
 30
0.0
 11
460.5929
 21
1563.4577
 31
0.0
  0
LINE
  8
0
  6
CONTINUOUS
 62
     2
  5
24C
 10
329.6929
 20
1555.2764
 30
0.0
 11
460.5929
 21
1555.2764
 31
0.0
  0
LINE
  8
0
  6
CONTINUOUS
 62
     2
  5
24D
 10
329.6929
 20
1547.0952
 30
0.0
 11
460.5929
 21
1547.0952
 31
0.0
  0
LINE
  8
0
  6
CONTINUOUS
 62
     2
  5
24E
 10
329.6929
 20
1538.9139
 30
0.0
 11
460.5929
 21
1538.9139
 31
0.0
  0
LINE
  8
0
  6
CONTINUOUS
 62
     2
  5
24F
 10
329.6929
 20
1530.7327
 30
0.0
 11
460.5929
 21
1530.7327
 31
0.0
  0
LINE
  8
0
  6
CONTINUOUS
 62
     2
  5
250
 10
329.6929
 20
1522.5514
 30
0.0
 11
460.5929
 21
1522.5514
 31
0.0
  0
LINE
  8
0
  6
CONTINUOUS
 62
     7
  5
251
 10
329.6929
 20
1514.3702
 30
0.0
 11
460.5929
 21
1514.3702
 31
0.0
  0
LINE
  8
0
  6
CONTINUOUS
 62
     2
  5
252
 10
329.6929
 20
1473.4639
 30
0.0
 11
460.5929
 21
1473.4639
 31
0.0
  0
LINE
  8
0
  6
CONTINUOUS
 62
     2
  5
253
 10
329.6929
 20
1481.6452
 30
0.0
 11
460.5929
 21
1481.6452
 31
0.0
  0
LINE
  8
0
  6
CONTINUOUS
 62
     2
  5
254
 10
329.6929
 20
1489.8264
 30
0.0
 11
460.5929
 21
1489.8264
 31
0.0
  0
LINE
  8
0
  6
CONTINUOUS
 62
     2
  5
255
 10
329.6929
 20
1498.0077
 30
0.0
 11
460.5929
 21
1498.0077
 31
0.0
  0
LINE
  8
0
  6
CONTINUOUS
 62
     7
  5
256
 10
329.6929
 20
1506.1889
 30
0.0
 11
460.5929
 21
1506.1889
 31
0.0
  0
LINE
  8
0
  6
CONTINUOUS
 62
     2
  5
257
 10
329.6929
 20
1465.2826
 30
0.0
 11
460.5929
 21
1465.2826
 31
0.0
  0
LINE
  8
0
  6
CONTINUOUS
 62
     2
  5
258
 10
329.6929
 20
1457.1014
 30
0.0
 11
460.5929
 21
1457.1014
 31
0.0
  0
LINE
  8
0
  6
CONTINUOUS
 62
     2
  5
259
 10
329.6929
 20
1448.9201
 30
0.0
 11
460.5929
 21
1448.9201
 31
0.0
  0
LINE
  8
0
  6
CONTINUOUS
 62
     2
  5
25A
 10
329.6929
 20
1440.7389
 30
0.0
 11
460.5929
 21
1440.7389
 31
0.0
  0
LINE
  8
0
  6
CONTINUOUS
 62
     2
  5
25B
 10
329.6929
 20
1432.5576
 30
0.0
 11
460.5929
 21
1432.5576
 31
0.0
  0
LINE
  8
0
  6
CONTINUOUS
 62
     2
  5
25C
 10
329.6929
 20
1424.3764
 30
0.0
 11
460.5929
 21
1424.3764
 31
0.0
  0
LINE
  8
0
  6
CONTINUOUS
 62
     2
  5
25D
 10
329.6929
 20
1416.1951
 30
0.0
 11
460.5929
 21
1416.1951
 31
0.0
  0
LINE
  8
0
  6
CONTINUOUS
 62
     2
  5
25E
 10
329.6929
 20
1408.0139
 30
0.0
 11
460.5929
 21
1408.0139
 31
0.0
  0
LINE
  8
0
  6
CONTINUOUS
 62
     2
  5
25F
 10
329.6929
 20
1391.6514
 30
0.0
 11
460.5929
 21
1391.6514
 31
0.0
  0
LINE
  8
0
  6
CONTINUOUS
 62
     2
  5
260
 10
329.6929
 20
1399.8326
 30
0.0
 11
460.5929
 21
1399.8326
 31
0.0
  0
LINE
  8
0
  6
CONTINUOUS
 62
     2
  5
261
 10
329.6929
 20
1383.4701
 30
0.0
 11
460.5929
 21
1383.4701
 31
0.0
  0
LINE
  8
0
  6
CONTINUOUS
 62
     2
  5
262
 10
329.6929
 20
1375.2889
 30
0.0
 11
460.5929
 21
1375.2889
 31
0.0
  0
LINE
  8
0
  6
CONTINUOUS
 62
     2
  5
263
 10
329.6929
 20
1367.1076
 30
0.0
 11
460.5929
 21
1367.1076
 31
0.0
  0
LINE
  8
0
  6
CONTINUOUS
 62
     2
  5
264
 10
329.6929
 20
1358.9264
 30
0.0
 11
460.5929
 21
1358.9264
 31
0.0
  0
LINE
  8
0
  6
CONTINUOUS
 62
     2
  5
265
 10
329.6929
 20
1350.7451
 30
0.0
 11
460.5929
 21
1350.7451
 31
0.0
  0
LINE
  8
0
  6
CONTINUOUS
 62
     2
  5
266
 10
329.6929
 20
1342.5638
 30
0.0
 11
460.5929
 21
1342.5638
 31
0.0
  0
LINE
  8
0
  6
CONTINUOUS
 62
     2
  5
267
 10
329.6929
 20
1334.3826
 30
0.0
 11
460.5929
 21
1334.3826
 31
0.0
  0
LINE
  8
0
  6
CONTINUOUS
 62
     2
  5
268
 10
329.6929
 20
1326.2013
 30
0.0
 11
460.5929
 21
1326.2013
 31
0.0
  0
LINE
  8
0
  6
CONTINUOUS
 62
     2
  5
269
 10
329.6929
 20
1318.0201
 30
0.0
 11
460.5929
 21
1318.0201
 31
0.0
  0
LINE
  8
0
  6
CONTINUOUS
 62
     2
  5
26A
 10
329.6929
 20
1301.6576
 30
0.0
 11
460.5929
 21
1301.6576
 31
0.0
  0
LINE
  8
0
  6
CONTINUOUS
 62
     2
  5
26B
 10
329.6929
 20
1293.4763
 30
0.0
 11
460.5929
 21
1293.4763
 31
0.0
  0
LINE
  8
0
  6
CONTINUOUS
 62
     2
  5
26C
 10
329.6929
 20
1285.2951
 30
0.0
 11
460.5929
 21
1285.2951
 31
0.0
  0
LINE
  8
0
  6
CONTINUOUS
 62
     2
  5
26D
 10
329.6929
 20
1277.1138
 30
0.0
 11
460.5929
 21
1277.1138
 31
0.0
  0
LINE
  8
0
  6
CONTINUOUS
 62
     2
  5
26E
 10
329.6929
 20
1301.6576
 30
0.0
 11
460.5929
 21
1301.6576
 31
0.0
  0
LINE
  8
0
  6
CONTINUOUS
 62
     2
  5
26F
 10
329.6929
 20
1301.6576
 30
0.0
 11
460.5929
 21
1301.6576
 31
0.0
  0
LINE
  8
0
  6
CONTINUOUS
 62
     2
  5
270
 10
329.6929
 20
1301.6576
 30
0.0
 11
460.5929
 21
1301.6576
 31
0.0
  0
LINE
  8
0
  6
CONTINUOUS
 62
     2
  5
271
 10
460.5929
 20
1301.6576
 30
0.0
 11
329.6929
 21
1301.6576
 31
0.0
  0
LINE
  8
0
  6
CONTINUOUS
 62
     2
  5
272
 10
401.6879
 20
1301.6576
 30
0.0
 11
401.6879
 21
1268.9326
 31
0.0
  0
LINE
  8
0
  6
CONTINUOUS
 62
     2
  5
273
 10
382.0529
 20
1301.6576
 30
0.0
 11
382.0529
 21
1268.9326
 31
0.0
  0
LINE
  8
0
  6
CONTINUOUS
 62
     2
  5
274
 10
362.4179
 20
1301.6576
 30
0.0
 11
362.4179
 21
1268.9326
 31
0.0
  0
LINE
  8
0
  6
CONTINUOUS
 62
     2
  5
275
 10
349.3279
 20
1301.6576
 30
0.0
 11
349.3279
 21
1268.9326
 31
0.0
  0
LINE
  8
0
  6
CONTINUOUS
 62
     2
  5
276
 10
339.5104
 20
1301.6576
 30
0.0
 11
339.5104
 21
1268.9326
 31
0.0
  0
LINE
  8
0
  6
CONTINUOUS
 62
     2
  5
277
 10
339.5104
 20
1342.5638
 30
0.0
 11
339.5104
 21
1326.2013
 31
0.0
  0
LINE
  8
0
  6
CONTINUOUS
 62
     2
  5
278
 10
339.5104
 20
1326.2013
 30
0.0
 11
339.5104
 21
1301.6576
 31
0.0
  0
LINE
  8
0
  6
CONTINUOUS
 62
     2
  5
279
 10
339.5104
 20
1350.7451
 30
0.0
 11
339.5104
 21
1342.5638
 31
0.0
  0
LINE
  8
0
  6
CONTINUOUS
 62
     2
  5
27A
 10
401.6879
 20
1342.5638
 30
0.0
 11
401.6879
 21
1326.2013
 31
0.0
  0
LINE
  8
0
  6
CONTINUOUS
 62
     2
  5
27B
 10
382.0529
 20
1342.5638
 30
0.0
 11
382.0529
 21
1326.2013
 31
0.0
  0
LINE
  8
0
  6
CONTINUOUS
 62
     2
  5
27C
 10
362.4179
 20
1342.5638
 30
0.0
 11
362.4179
 21
1326.2013
 31
0.0
  0
LINE
  8
0
  6
CONTINUOUS
 62
     2
  5
27D
 10
349.3279
 20
1342.5638
 30
0.0
 11
349.3279
 21
1326.2013
 31
0.0
  0
LINE
  8
0
  6
CONTINUOUS
 62
     2
  5
27E
 10
362.4179
 20
1326.2013
 30
0.0
 11
362.4179
 21
1301.6576
 31
0.0
  0
LINE
  8
0
  6
CONTINUOUS
 62
     2
  5
27F
 10
349.3279
 20
1326.2013
 30
0.0
 11
349.3279
 21
1301.6576
 31
0.0
  0
LINE
  8
0
  6
CONTINUOUS
 62
     2
  5
280
 10
401.6879
 20
1326.2013
 30
0.0
 11
401.6879
 21
1301.6576
 31
0.0
  0
LINE
  8
0
  6
CONTINUOUS
 62
     2
  5
281
 10
382.0529
 20
1326.2013
 30
0.0
 11
382.0529
 21
1301.6576
 31
0.0
  0
LINE
  8
0
  6
CONTINUOUS
 62
     2
  5
282
 10
362.4179
 20
1350.7451
 30
0.0
 11
362.4179
 21
1342.5638
 31
0.0
  0
LINE
  8
0
  6
CONTINUOUS
 62
     2
  5
283
 10
349.3279
 20
1350.7451
 30
0.0
 11
349.3279
 21
1342.5638
 31
0.0
  0
LINE
  8
0
  6
CONTINUOUS
 62
     2
  5
284
 10
401.6879
 20
1350.7451
 30
0.0
 11
401.6879
 21
1342.5638
 31
0.0
  0
LINE
  8
0
  6
CONTINUOUS
 62
     2
  5
285
 10
382.0529
 20
1350.7451
 30
0.0
 11
382.0529
 21
1342.5638
 31
0.0
  0
LINE
  8
0
  6
CONTINUOUS
 62
     2
  5
286
 10
460.5929
 20
1301.6576
 30
0.0
 11
460.5929
 21
1268.9326
 31
0.0
  0
LINE
  8
0
  6
CONTINUOUS
 62
     2
  5
287
 10
440.9579
 20
1301.6576
 30
0.0
 11
440.9579
 21
1268.9326
 31
0.0
  0
LINE
  8
0
  6
CONTINUOUS
 62
     2
  5
288
 10
421.3229
 20
1301.6576
 30
0.0
 11
421.3229
 21
1268.9326
 31
0.0
  0
LINE
  8
0
  6
CONTINUOUS
 62
     2
  5
289
 10
460.5929
 20
1342.5638
 30
0.0
 11
460.5929
 21
1326.2013
 31
0.0
  0
LINE
  8
0
  6
CONTINUOUS
 62
     2
  5
28A
 10
440.9579
 20
1342.5638
 30
0.0
 11
440.9579
 21
1326.2013
 31
0.0
  0
LINE
  8
0
  6
CONTINUOUS
 62
     2
  5
28B
 10
421.3229
 20
1342.5638
 30
0.0
 11
421.3229
 21
1326.2013
 31
0.0
  0
LINE
  8
0
  6
CONTINUOUS
 62
     2
  5
28C
 10
421.3229
 20
1326.2013
 30
0.0
 11
421.3229
 21
1301.6576
 31
0.0
  0
LINE
  8
0
  6
CONTINUOUS
 62
     2
  5
28D
 10
460.5929
 20
1326.2013
 30
0.0
 11
460.5929
 21
1301.6576
 31
0.0
  0
LINE
  8
0
  6
CONTINUOUS
 62
     2
  5
28E
 10
440.9579
 20
1326.2013
 30
0.0
 11
440.9579
 21
1301.6576
 31
0.0
  0
LINE
  8
0
  6
CONTINUOUS
 62
     2
  5
28F
 10
421.3229
 20
1350.7451
 30
0.0
 11
421.3229
 21
1342.5638
 31
0.0
  0
LINE
  8
0
  6
CONTINUOUS
 62
     2
  5
290
 10
460.5929
 20
1350.7451
 30
0.0
 11
460.5929
 21
1342.5638
 31
0.0
  0
LINE
  8
0
  6
CONTINUOUS
 62
     2
  5
291
 10
440.9579
 20
1350.7451
 30
0.0
 11
440.9579
 21
1342.5638
 31
0.0
  0
LINE
  8
0
  6
CONTINUOUS
 62
     2
  5
292
 10
480.2279
 20
1350.7451
 30
0.0
 11
480.2279
 21
1342.5638
 31
0.0
  0
LINE
  8
0
  6
CONTINUOUS
 62
     2
  5
293
 10
329.6929
 20
1735.264
 30
0.0
 11
460.5929
 21
1735.264
 31
0.0
  0
LINE
  8
0
  6
CONTINUOUS
 62
     2
  5
294
 10
329.6929
 20
1718.9015
 30
0.0
 11
460.5929
 21
1718.9015
 31
0.0
  0
LINE
  8
0
  6
CONTINUOUS
 62
     2
  5
295
 10
329.6929
 20
1309.8388
 30
0.0
 11
460.5929
 21
1309.8388
 31
0.0
  0
TEXT
  8
0
  6
CONTINUOUS
 62
    40
  5
296
 10
192.2115
 20
1906.5039
 30
0.0
 40
5.61
  1
L
  7
MONOTXT
210
0.0
220
0.0
230
1.0
  0
TEXT
  8
0
  6
CONTINUOUS
 62
    40
  5
297
 10
212.6658
 20
1906.9582
 30
0.0
 40
5.61
  1
M
  7
MONOTXT
210
0.0
220
0.0
230
1.0
  0
TEXT
  8
0
  6
CONTINUOUS
 62
    40
  5
298
 10
232.6656
 20
1906.9582
 30
0.0
 40
5.61
  1
N
  7
MONOTXT
210
0.0
220
0.0
230
1.0
  0
TEXT
  8
0
  6
CONTINUOUS
 62
    40
  5
299
 10
250.8472
 20
1906.5039
 30
0.0
 40
5.61
  1
O
  7
MONOTXT
210
0.0
220
0.0
230
1.0
  0
TEXT
  8
0
  6
CONTINUOUS
 62
    40
  5
29A
 10
274.4834
 20
1906.5039
 30
0.0
 40
5.61
  1
P
  7
MONOTXT
210
0.0
220
0.0
230
1.0
  0
TEXT
  8
0
  6
CONTINUOUS
 62
    40
  5
29B
 10
299.9377
 20
1906.9582
 30
0.0
 40
5.61
  1
Q
  7
MONOTXT
210
0.0
220
0.0
230
1.0
  0
TEXT
  8
0
  6
CONTINUOUS
 62
    40
  5
29C
 10
321.3011
 20
1906.5039
 30
0.0
 40
5.61
  1
T
  7
MONOTXT
210
0.0
220
0.0
230
1.0
  0
TEXT
  8
0
  6
CONTINUOUS
 62
    40
  5
29D
 10
179.3282
 20
1907.8668
 30
0.0
 40
3.2725
  1
SLOPE
 50
90.0
  7
MONOTXT
210
0.0
220
0.0
230
1.0
  0
TEXT
  8
0
  6
CONTINUOUS
 62
    40
  5
29E
 10
174.0298
 20
1911.047
 30
0.0
 40
3.2725
  1
FILL
 50
90.0
  7
MONOTXT
210
0.0
220
0.0
230
1.0
  0
TEXT
  8
0
  6
CONTINUOUS
 62
    40
  5
29F
 10
330.8143
 20
1908.2714
 30
0.0
 40
2.9452
  1
MK
  7
MONOTXT
210
0.0
220
0.0
230
1.0
  0
TEXT
  8
0
  6
CONTINUOUS
 62
    40
  5
2A0
 10
339.5773
 20
1907.4742
 30
0.0
 40
2.9452
  1
SIZE
  7
MONOTXT
210
0.0
220
0.0
230
1.0
  0
TEXT
  8
0
  6
CONTINUOUS
 62
    40
  5
2A1
 10
352.536
 20
1907.7024
 30
0.0
 40
2.9452
  1
NO.
  7
MONOTXT
210
0.0
220
0.0
230
1.0
  0
TEXT
  8
0
  6
CONTINUOUS
 62
    40
  5
2A2
 10
371.0382
 20
1907.6622
 30
0.0
 40
3.2725
  1
a
  7
MONOTXT
210
0.0
220
0.0
230
1.0
  0
TEXT
  8
0
  6
CONTINUOUS
 62
    40
  5
2A3
 10
390.5392
 20
1907.6364
 30
0.0
 40
3.2725
  1
b
  7
MONOTXT
210
0.0
220
0.0
230
1.0
  0
TEXT
  8
0
  6
CONTINUOUS
 62
    40
  5
2A4
 10
402.576
 20
1907.7024
 30
0.0
 40
2.9452
  1
TOTAL
  7
MONOTXT
210
0.0
220
0.0
230
1.0
  0
TEXT
  8
0
  6
CONTINUOUS
 62
    40
  5
2A5
 10
424.7572
 20
1907.588
 30
0.0
 40
2.9452
  1
SPAC.
  7
MONOTXT
210
0.0
220
0.0
230
1.0
  0
TEXT
  8
0
  6
CONTINUOUS
 62
    40
  5
2A6
 10
445.4081
 20
1907.5153
 30
0.0
 40
2.9452
  1
TYPE
  7
MONOTXT
210
0.0
220
0.0
230
1.0
  0
TEXT
  8
0
  6
CONTINUOUS
 62
    40
  5
2A7
 10
482.2022
 20
1906.5163
 30
0.0
 40
2.2907
  1
(kg)
  7
MONOTXT
210
0.0
220
0.0
230
1.0
  0
TEXT
  8
0
  6
CONTINUOUS
 62
    40
  5
2A8
 10
464.5398
 20
1909.9967
 30
0.0
 40
2.9452
  1
CONC.
  7
MONOTXT
210
0.0
220
0.0
230
1.0
  0
TEXT
  8
0
  6
CONTINUOUS
 62
    40
  5
2A9
 10
480.7878
 20
1909.8823
 30
0.0
 40
2.9452
  1
STEEL
  7
MONOTXT
210
0.0
220
0.0
230
1.0
  0
TEXT
  8
0
  6
CONTINUOUS
 62
     7
  5
2AA
 10
685.5439
 20
1917.8616
 30
0.0
 40
6.545
  1
REINFORCEMENT
  7
MONOTXT
210
0.0
220
0.0
230
1.0
  0
LINE
  8
0
  6
CONTINUOUS
 62
     2
  5
2AB
 10
679.8505
 20
1889.0716
 30
0.0
 11
810.7506
 21
1889.0716
 31
0.0
  0
LINE
  8
0
  6
CONTINUOUS
 62
     2
  5
2AC
 10
679.8505
 20
1880.8903
 30
0.0
 11
810.7506
 21
1880.8903
 31
0.0
  0
LINE
  8
0
  6
CONTINUOUS
 62
     2
  5
2AD
 10
679.8505
 20
1872.7091
 30
0.0
 11
810.7506
 21
1872.7091
 31
0.0
  0
LINE
  8
0
  6
CONTINUOUS
 62
     2
  5
2AE
 10
679.8505
 20
1864.5278
 30
0.0
 11
810.7506
 21
1864.5278
 31
0.0
  0
LINE
  8
0
  6
CONTINUOUS
 62
     2
  5
2AF
 10
679.8505
 20
1856.3465
 30
0.0
 11
810.7506
 21
1856.3465
 31
0.0
  0
LINE
  8
0
  6
CONTINUOUS
 62
     2
  5
2B0
 10
679.8505
 20
1848.1653
 30
0.0
 11
810.7506
 21
1848.1653
 31
0.0
  0
LINE
  8
0
  6
CONTINUOUS
 62
     2
  5
2B1
 10
679.8505
 20
1839.984
 30
0.0
 11
810.7506
 21
1839.984
 31
0.0
  0
LINE
  8
0
  6
CONTINUOUS
 62
     2
  5
2B2
 10
679.8505
 20
1831.8028
 30
0.0
 11
810.7506
 21
1831.8028
 31
0.0
  0
LINE
  8
0
  6
CONTINUOUS
 62
     2
  5
2B3
 10
679.8505
 20
1823.6215
 30
0.0
 11
810.7506
 21
1823.6215
 31
0.0
  0
LINE
  8
0
  6
CONTINUOUS
 62
     2
  5
2B4
 10
679.8505
 20
1815.4403
 30
0.0
 11
810.7506
 21
1815.4403
 31
0.0
  0
LINE
  8
0
  6
CONTINUOUS
 62
     2
  5
2B5
 10
679.8505
 20
1807.259
 30
0.0
 11
810.7506
 21
1807.259
 31
0.0
  0
LINE
  8
0
  6
CONTINUOUS
 62
     2
  5
2B6
 10
679.8505
 20
1799.0778
 30
0.0
 11
810.7506
 21
1799.0778
 31
0.0
  0
LINE
  8
0
  6
CONTINUOUS
 62
     7
  5
2B7
 10
532.588
 20
1913.6153
 30
0.0
 11
810.7506
 21
1913.6153
 31
0.0
  0
LINE
  8
0
  6
CONTINUOUS
 62
     7
  5
2B8
 10
496.5905
 20
1905.4341
 30
0.0
 11
810.7506
 21
1905.4341
 31
0.0
  0
LINE
  8
0
  6
CONTINUOUS
 62
     2
  5
2B9
 10
679.8505
 20
1718.9015
 30
0.0
 11
810.7506
 21
1718.9015
 31
0.0
  0
LINE
  8
0
  6
CONTINUOUS
 62
     2
  5
2BA
 10
679.8505
 20
1735.264
 30
0.0
 11
810.7506
 21
1735.264
 31
0.0
  0
LINE
  8
0
  6
CONTINUOUS
 62
     7
  5
2BB
 10
679.8505
 20
1790.8965
 30
0.0
 11
810.7506
 21
1790.8965
 31
0.0
  0
LINE
  8
0
  6
CONTINUOUS
 62
     7
  5
2BC
 10
679.8505
 20
1782.7153
 30
0.0
 11
810.7506
 21
1782.7153
 31
0.0
  0
LINE
  8
0
  6
CONTINUOUS
 62
     2
  5
2BD
 10
679.8505
 20
1774.534
 30
0.0
 11
810.7506
 21
1774.534
 31
0.0
  0
LINE
  8
0
  6
CONTINUOUS
 62
     2
  5
2BE
 10
679.8505
 20
1766.3528
 30
0.0
 11
810.7506
 21
1766.3528
 31
0.0
  0
LINE
  8
0
  6
CONTINUOUS
 62
     2
  5
2BF
 10
679.8505
 20
1758.1715
 30
0.0
 11
810.7506
 21
1758.1715
 31
0.0
  0
LINE
  8
0
  6
CONTINUOUS
 62
     2
  5
2C0
 10
679.8505
 20
1749.9903
 30
0.0
 11
810.7506
 21
1749.9903
 31
0.0
  0
LINE
  8
0
  6
CONTINUOUS
 62
     2
  5
2C1
 10
679.8505
 20
1743.4453
 30
0.0
 11
810.7506
 21
1743.4453
 31
0.0
  0
LINE
  8
0
  6
CONTINUOUS
 62
     2
  5
2C2
 10
679.8505
 20
1735.264
 30
0.0
 11
810.7506
 21
1735.264
 31
0.0
  0
LINE
  8
0
  6
CONTINUOUS
 62
     2
  5
2C3
 10
679.8505
 20
1727.0827
 30
0.0
 11
810.7506
 21
1727.0827
 31
0.0
  0
LINE
  8
0
  6
CONTINUOUS
 62
     2
  5
2C4
 10
679.8505
 20
1710.7202
 30
0.0
 11
810.7506
 21
1710.7202
 31
0.0
  0
LINE
  8
0
  6
CONTINUOUS
 62
     2
  5
2C5
 10
679.8505
 20
1702.539
 30
0.0
 11
810.7506
 21
1702.539
 31
0.0
  0
LINE
  8
0
  6
CONTINUOUS
 62
     2
  5
2C6
 10
679.8505
 20
1694.3577
 30
0.0
 11
810.7506
 21
1694.3577
 31
0.0
  0
LINE
  8
0
  6
CONTINUOUS
 62
     2
  5
2C7
 10
679.8505
 20
1628.9077
 30
0.0
 11
810.7506
 21
1628.9077
 31
0.0
  0
LINE
  8
0
  6
CONTINUOUS
 62
     2
  5
2C8
 10
679.8505
 20
1637.089
 30
0.0
 11
810.7506
 21
1637.089
 31
0.0
  0
LINE
  8
0
  6
CONTINUOUS
 62
     2
  5
2C9
 10
679.8505
 20
1645.2702
 30
0.0
 11
810.7506
 21
1645.2702
 31
0.0
  0
LINE
  8
0
  6
CONTINUOUS
 62
     2
  5
2CA
 10
679.8505
 20
1653.4515
 30
0.0
 11
810.7506
 21
1653.4515
 31
0.0
  0
LINE
  8
0
  6
CONTINUOUS
 62
     2
  5
2CB
 10
679.8505
 20
1661.6327
 30
0.0
 11
810.7506
 21
1661.6327
 31
0.0
  0
LINE
  8
0
  6
CONTINUOUS
 62
     2
  5
2CC
 10
679.8505
 20
1669.814
 30
0.0
 11
810.7506
 21
1669.814
 31
0.0
  0
LINE
  8
0
  6
CONTINUOUS
 62
     2
  5
2CD
 10
679.8505
 20
1677.9952
 30
0.0
 11
810.7506
 21
1677.9952
 31
0.0
  0
LINE
  8
0
  6
CONTINUOUS
 62
     2
  5
2CE
 10
679.8505
 20
1686.1765
 30
0.0
 11
810.7506
 21
1686.1765
 31
0.0
  0
LINE
  8
0
  6
CONTINUOUS
 62
     2
  5
2CF
 10
679.8505
 20
1457.1014
 30
0.0
 11
810.7506
 21
1457.1014
 31
0.0
  0
LINE
  8
0
  6
CONTINUOUS
 62
     2
  5
2D0
 10
679.8505
 20
1465.2826
 30
0.0
 11
810.7506
 21
1465.2826
 31
0.0
  0
LINE
  8
0
  6
CONTINUOUS
 62
     2
  5
2D1
 10
679.8505
 20
1506.1889
 30
0.0
 11
810.7506
 21
1506.1889
 31
0.0
  0
LINE
  8
0
  6
CONTINUOUS
 62
     2
  5
2D2
 10
679.8505
 20
1498.0077
 30
0.0
 11
810.7506
 21
1498.0077
 31
0.0
  0
LINE
  8
0
  6
CONTINUOUS
 62
     2
  5
2D3
 10
679.8505
 20
1489.8264
 30
0.0
 11
810.7506
 21
1489.8264
 31
0.0
  0
LINE
  8
0
  6
CONTINUOUS
 62
     2
  5
2D4
 10
679.8505
 20
1481.6452
 30
0.0
 11
810.7506
 21
1481.6452
 31
0.0
  0
LINE
  8
0
  6
CONTINUOUS
 62
     2
  5
2D5
 10
679.8505
 20
1473.4639
 30
0.0
 11
810.7506
 21
1473.4639
 31
0.0
  0
LINE
  8
0
  6
CONTINUOUS
 62
     2
  5
2D6
 10
679.8505
 20
1514.3702
 30
0.0
 11
810.7506
 21
1514.3702
 31
0.0
  0
LINE
  8
0
  6
CONTINUOUS
 62
     2
  5
2D7
 10
679.8505
 20
1522.5514
 30
0.0
 11
810.7506
 21
1522.5514
 31
0.0
  0
LINE
  8
0
  6
CONTINUOUS
 62
     2
  5
2D8
 10
679.8505
 20
1530.7327
 30
0.0
 11
810.7506
 21
1530.7327
 31
0.0
  0
LINE
  8
0
  6
CONTINUOUS
 62
     2
  5
2D9
 10
679.8505
 20
1538.9139
 30
0.0
 11
810.7506
 21
1538.9139
 31
0.0
  0
LINE
  8
0
  6
CONTINUOUS
 62
     2
  5
2DA
 10
679.8505
 20
1547.0952
 30
0.0
 11
810.7506
 21
1547.0952
 31
0.0
  0
LINE
  8
0
  6
CONTINUOUS
 62
     2
  5
2DB
 10
679.8505
 20
1555.2764
 30
0.0
 11
810.7506
 21
1555.2764
 31
0.0
  0
LINE
  8
0
  6
CONTINUOUS
 62
     2
  5
2DC
 10
679.8505
 20
1563.4577
 30
0.0
 11
810.7506
 21
1563.4577
 31
0.0
  0
LINE
  8
0
  6
CONTINUOUS
 62
     2
  5
2DD
 10
679.8505
 20
1571.6389
 30
0.0
 11
810.7506
 21
1571.6389
 31
0.0
  0
LINE
  8
0
  6
CONTINUOUS
 62
     2
  5
2DE
 10
679.8505
 20
1579.8202
 30
0.0
 11
810.7506
 21
1579.8202
 31
0.0
  0
LINE
  8
0
  6
CONTINUOUS
 62
     2
  5
2DF
 10
679.8505
 20
1588.0014
 30
0.0
 11
810.7506
 21
1588.0014
 31
0.0
  0
LINE
  8
0
  6
CONTINUOUS
 62
     2
  5
2E0
 10
679.8505
 20
1596.1827
 30
0.0
 11
810.7506
 21
1596.1827
 31
0.0
  0
LINE
  8
0
  6
CONTINUOUS
 62
     2
  5
2E1
 10
679.8505
 20
1604.3639
 30
0.0
 11
810.7506
 21
1604.3639
 31
0.0
  0
LINE
  8
0
  6
CONTINUOUS
 62
     2
  5
2E2
 10
679.8505
 20
1612.5452
 30
0.0
 11
810.7506
 21
1612.5452
 31
0.0
  0
LINE
  8
0
  6
CONTINUOUS
 62
     2
  5
2E3
 10
679.8505
 20
1620.7265
 30
0.0
 11
810.7506
 21
1620.7265
 31
0.0
  0
LINE
  8
0
  6
CONTINUOUS
 62
   140
  5
2E4
 10
496.5905
 20
1350.7451
 30
0.0
 11
846.7481
 21
1350.7451
 31
0.0
  0
LINE
  8
0
  6
CONTINUOUS
 62
     2
  5
2E5
 10
679.8505
 20
1383.4701
 30
0.0
 11
810.7506
 21
1383.4701
 31
0.0
  0
LINE
  8
0
  6
CONTINUOUS
 62
     2
  5
2E6
 10
679.8505
 20
1399.8326
 30
0.0
 11
810.7506
 21
1399.8326
 31
0.0
  0
LINE
  8
0
  6
CONTINUOUS
 62
     2
  5
2E7
 10
679.8505
 20
1391.6514
 30
0.0
 11
810.7506
 21
1391.6514
 31
0.0
  0
LINE
  8
0
  6
CONTINUOUS
 62
     2
  5
2E8
 10
679.8505
 20
1408.0139
 30
0.0
 11
810.7506
 21
1408.0139
 31
0.0
  0
LINE
  8
0
  6
CONTINUOUS
 62
     2
  5
2E9
 10
679.8505
 20
1416.1951
 30
0.0
 11
810.7506
 21
1416.1951
 31
0.0
  0
LINE
  8
0
  6
CONTINUOUS
 62
     2
  5
2EA
 10
679.8505
 20
1424.3764
 30
0.0
 11
810.7506
 21
1424.3764
 31
0.0
  0
LINE
  8
0
  6
CONTINUOUS
 62
     2
  5
2EB
 10
679.8505
 20
1432.5576
 30
0.0
 11
810.7506
 21
1432.5576
 31
0.0
  0
LINE
  8
0
  6
CONTINUOUS
 62
     2
  5
2EC
 10
679.8505
 20
1440.7389
 30
0.0
 11
810.7506
 21
1440.7389
 31
0.0
  0
LINE
  8
0
  6
CONTINUOUS
 62
     2
  5
2ED
 10
679.8505
 20
1448.9201
 30
0.0
 11
810.7506
 21
1448.9201
 31
0.0
  0
LINE
  8
0
  6
CONTINUOUS
 62
     2
  5
2EE
 10
689.668
 20
1913.6153
 30
0.0
 11
689.668
 21
1839.984
 31
0.0
  0
LINE
  8
0
  6
CONTINUOUS
 62
     2
  5
2EF
 10
679.8505
 20
1929.9778
 30
0.0
 11
679.8505
 21
1350.7451
 31
0.0
  0
LINE
  8
0
  6
CONTINUOUS
 62
     2
  5
2F0
 10
699.4855
 20
1913.6153
 30
0.0
 11
699.4855
 21
1839.984
 31
0.0
  0
LINE
  8
0
  6
CONTINUOUS
 62
     2
  5
2F1
 10
732.2105
 20
1913.6153
 30
0.0
 11
732.2105
 21
1839.984
 31
0.0
  0
LINE
  8
0
  6
CONTINUOUS
 62
     2
  5
2F2
 10
712.5755
 20
1913.6153
 30
0.0
 11
712.5755
 21
1839.984
 31
0.0
  0
LINE
  8
0
  6
CONTINUOUS
 62
     2
  5
2F3
 10
666.7605
 20
1913.6153
 30
0.0
 11
666.7605
 21
1350.7451
 31
0.0
  0
LINE
  8
0
  6
CONTINUOUS
 62
     2
  5
2F4
 10
519.498
 20
1929.9778
 30
0.0
 11
519.498
 21
1350.7451
 31
0.0
  0
LINE
  8
0
  6
CONTINUOUS
 62
     2
  5
2F5
 10
532.588
 20
1929.9778
 30
0.0
 11
532.588
 21
1350.7451
 31
0.0
  0
LINE
  8
0
  6
CONTINUOUS
 62
     2
  5
2F6
 10
555.4955
 20
1929.9778
 30
0.0
 11
555.4955
 21
1350.7451
 31
0.0
  0
LINE
  8
0
  6
CONTINUOUS
 62
     2
  5
2F7
 10
594.7655
 20
1913.6153
 30
0.0
 11
594.7655
 21
1350.7451
 31
0.0
  0
LINE
  8
0
  6
CONTINUOUS
 62
     2
  5
2F8
 10
575.1305
 20
1913.6153
 30
0.0
 11
575.1305
 21
1350.7451
 31
0.0
  0
LINE
  8
0
  6
CONTINUOUS
 62
     2
  5
2F9
 10
614.4005
 20
1913.6153
 30
0.0
 11
614.4005
 21
1350.7451
 31
0.0
  0
LINE
  8
0
  6
CONTINUOUS
 62
     2
  5
2FA
 10
640.5805
 20
1913.6153
 30
0.0
 11
640.5805
 21
1350.7451
 31
0.0
  0
LINE
  8
0
  6
CONTINUOUS
 62
   140
  5
2FB
 10
496.5905
 20
1350.7451
 30
0.0
 11
496.5905
 21
1268.9326
 31
0.0
  0
LINE
  8
0
  6
CONTINUOUS
 62
     7
  5
2FC
 10
496.5905
 20
1929.9778
 30
0.0
 11
496.5905
 21
1350.7451
 31
0.0
  0
TEXT
  8
0
  6
CONTINUOUS
 62
     7
  5
2FD
 10
575.096
 20
1918.0894
 30
0.0
 40
6.545
  1
DIMENSIONS
  7
MONOTXT
210
0.0
220
0.0
230
1.0
  0
TEXT
  8
0
  6
CONTINUOUS
 62
    40
  5
2FE
 10
542.3691
 20
1906.5039
 30
0.0
 40
5.61
  1
L
  7
MONOTXT
210
0.0
220
0.0
230
1.0
  0
TEXT
  8
0
  6
CONTINUOUS
 62
     7
  5
2FF
 10
499.564
 20
1908.6279
 30
0.0
 40
5.61
  1
PIPE
  7
MONOTXT
210
0.0
220
0.0
230
1.0
  0
TEXT
  8
0
  6
CONTINUOUS
 62
     7
  5
300
 10
502.1627
 20
1918.7703
 30
0.0
 40
5.61
  1
I.D.
  7
MONOTXT
210
0.0
220
0.0
230
1.0
  0
TEXT
  8
0
  6
CONTINUOUS
 62
    40
  5
301
 10
529.4858
 20
1907.8668
 30
0.0
 40
3.2725
  1
SLOPE
 50
90.0
  7
MONOTXT
210
0.0
220
0.0
230
1.0
  0
TEXT
  8
0
  6
CONTINUOUS
 62
    40
  5
302
 10
524.1875
 20
1911.047
 30
0.0
 40
3.2725
  1
FILL
 50
90.0
  7
MONOTXT
210
0.0
220
0.0
230
1.0
  0
TEXT
  8
0
  6
CONTINUOUS
 62
    40
  5
303
 10
562.8234
 20
1906.9582
 30
0.0
 40
5.61
  1
M
  7
MONOTXT
210
0.0
220
0.0
230
1.0
  0
TEXT
  8
0
  6
CONTINUOUS
 62
    40
  5
304
 10
601.0049
 20
1906.5039
 30
0.0
 40
5.61
  1
O
  7
MONOTXT
210
0.0
220
0.0
230
1.0
  0
TEXT
  8
0
  6
CONTINUOUS
 62
    40
  5
305
 10
582.8232
 20
1906.9582
 30
0.0
 40
5.61
  1
N
  7
MONOTXT
210
0.0
220
0.0
230
1.0
  0
TEXT
  8
0
  6
CONTINUOUS
 62
    40
  5
306
 10
671.4587
 20
1906.5039
 30
0.0
 40
5.61
  1
T
  7
MONOTXT
210
0.0
220
0.0
230
1.0
  0
TEXT
  8
0
  6
CONTINUOUS
 62
    40
  5
307
 10
624.641
 20
1906.5039
 30
0.0
 40
5.61
  1
P
  7
MONOTXT
210
0.0
220
0.0
230
1.0
  0
TEXT
  8
0
  6
CONTINUOUS
 62
    40
  5
308
 10
650.0953
 20
1906.9582
 30
0.0
 40
5.61
  1
Q
  7
MONOTXT
210
0.0
220
0.0
230
1.0
  0
TEXT
  8
0
  6
CONTINUOUS
 62
    40
  5
309
 10
702.6937
 20
1907.7024
 30
0.0
 40
2.9452
  1
NO.
  7
MONOTXT
210
0.0
220
0.0
230
1.0
  0
TEXT
  8
0
  6
CONTINUOUS
 62
    40
  5
30A
 10
689.7349
 20
1907.4742
 30
0.0
 40
2.9452
  1
SIZE
  7
MONOTXT
210
0.0
220
0.0
230
1.0
  0
TEXT
  8
0
  6
CONTINUOUS
 62
    40
  5
30B
 10
680.972
 20
1908.2714
 30
0.0
 40
2.9452
  1
MK
  7
MONOTXT
210
0.0
220
0.0
230
1.0
  0
TEXT
  8
0
  6
CONTINUOUS
 62
    40
  5
30C
 10
721.1958
 20
1907.6622
 30
0.0
 40
3.2725
  1
a
  7
MONOTXT
210
0.0
220
0.0
230
1.0
  0
LINE
  8
0
  6
CONTINUOUS
 62
     2
  5
30D
 10
810.7506
 20
1913.6153
 30
0.0
 11
810.7506
 21
1350.7451
 31
0.0
  0
LINE
  8
0
  6
CONTINUOUS
 62
     2
  5
30E
 10
791.1156
 20
1913.6153
 30
0.0
 11
791.1156
 21
1839.984
 31
0.0
  0
LINE
  8
0
  6
CONTINUOUS
 62
   140
  5
30F
 10
846.7481
 20
1929.9778
 30
0.0
 11
846.7481
 21
1350.7451
 31
0.0
  0
LINE
  8
0
  6
CONTINUOUS
 62
     2
  5
310
 10
830.3856
 20
1913.6153
 30
0.0
 11
830.3856
 21
1350.7451
 31
0.0
  0
LINE
  8
0
  6
CONTINUOUS
 62
     2
  5
311
 10
751.8456
 20
1913.6153
 30
0.0
 11
751.8456
 21
1839.984
 31
0.0
  0
LINE
  8
0
  6
CONTINUOUS
 62
     2
  5
312
 10
771.4806
 20
1929.9778
 30
0.0
 11
771.4806
 21
1839.984
 31
0.0
  0
TEXT
  8
0
  6
CONTINUOUS
 62
    40
  5
313
 10
795.5657
 20
1907.5153
 30
0.0
 40
2.9452
  1
TYPE
  7
MONOTXT
210
0.0
220
0.0
230
1.0
  0
TEXT
  8
0
  6
CONTINUOUS
 62
     7
  5
314
 10
783.9641
 20
1917.9149
 30
0.0
 40
6.545
  1
QUANTITY
  7
MONOTXT
210
0.0
220
0.0
230
1.0
  0
TEXT
  8
0
  6
CONTINUOUS
 62
    40
  5
315
 10
752.7337
 20
1907.7024
 30
0.0
 40
2.9452
  1
TOTAL
  7
MONOTXT
210
0.0
220
0.0
230
1.0
  0
TEXT
  8
0
  6
CONTINUOUS
 62
    40
  5
316
 10
740.6969
 20
1907.6364
 30
0.0
 40
3.2725
  1
b
  7
MONOTXT
210
0.0
220
0.0
230
1.0
  0
TEXT
  8
0
  6
CONTINUOUS
 62
    40
  5
317
 10
774.9149
 20
1907.588
 30
0.0
 40
2.9452
  1
SPAC.
  7
MONOTXT
210
0.0
220
0.0
230
1.0
  0
TEXT
  8
0
  6
CONTINUOUS
 62
    40
  5
318
 10
830.9455
 20
1909.8823
 30
0.0
 40
2.9452
  1
STEEL
  7
MONOTXT
210
0.0
220
0.0
230
1.0
  0
LINE
  8
0
  6
CONTINUOUS
 62
     2
  5
319
 10
811.4564
 20
1905.9153
 30
0.0
 11
846.7481
 21
1905.9153
 31
0.0
  0
LINE
  8
0
  6
CONTINUOUS
 62
     2
  5
31A
 10
811.4564
 20
1913.9362
 30
0.0
 11
846.7481
 21
1913.9362
 31
0.0
  0
TEXT
  8
0
  6
CONTINUOUS
 62
    40
  5
31B
 10
814.6974
 20
1909.9967
 30
0.0
 40
2.9452
  1
CONC.
  7
MONOTXT
210
0.0
220
0.0
230
1.0
  0
TEXT
  8
0
  6
CONTINUOUS
 62
    40
  5
31C
 10
834.0986
 20
1906.7042
 30
0.0
 40
2.2907
  1
(kg)
  7
MONOTXT
210
0.0
220
0.0
230
1.0
  0
TEXT
  8
0
  6
CONTINUOUS
 62
    40
  5
31D
 10
331.9887
 20
1899.6263
 30
0.0
 40
3.0
  1
K7
  7
MONOTXT
210
0.0
220
0.0
230
1.0
  0
TEXT
  8
0
  6
CONTINUOUS
 62
    40
  5
31E
 10
332.1872
 20
1891.2924
 30
0.0
 40
3.0
  1
K8
  7
MONOTXT
210
0.0
220
0.0
230
1.0
  0
TEXT
  8
0
  6
CONTINUOUS
 62
    40
  5
31F
 10
332.1872
 20
1883.1569
 30
0.0
 40
3.0
  1
K9
  7
MONOTXT
210
0.0
220
0.0
230
1.0
  0
TEXT
  8
0
  6
CONTINUOUS
 62
    40
  5
320
 10
331.7902
 20
1874.8231
 30
0.0
 40
3.0
  1
PI
  7
MONOTXT
210
0.0
220
0.0
230
1.0
  0
TEXT
  8
0
  6
CONTINUOUS
 62
    40
  5
321
 10
334.2354
 20
1866.886
 30
0.0
 40
3.0
  1
THRU
  7
MONOTXT
210
0.0
220
0.0
230
1.0
  0
TEXT
  8
0
  6
CONTINUOUS
 62
    40
  5
322
 10
332.1872
 20
1859.1474
 30
0.0
 40
3.0
  1
PI0
  7
MONOTXT
210
0.0
220
0.0
230
1.0
  0
TEXT
  8
0
  6
CONTINUOUS
 62
    40
  5
323
 10
332.5843
 20
1850.6151
 30
0.0
 40
3.0
  1
JI
  7
MONOTXT
210
0.0
220
0.0
230
1.0
  0
TEXT
  8
0
  6
CONTINUOUS
 62
    40
  5
324
 10
332.7828
 20
1842.0828
 30
0.0
 40
3.0
  1
J2
  7
MONOTXT
210
0.0
220
0.0
230
1.0
  0
TEXT
  8
0
  6
CONTINUOUS
 62
    40
  5
325
 10
332.5843
 20
1834.2785
 30
0.0
 40
3.0
  1
DI
  7
MONOTXT
210
0.0
220
0.0
230
1.0
  0
TEXT
  8
0
  6
CONTINUOUS
 62
    40
  5
326
 10
332.3857
 20
1825.8118
 30
0.0
 40
3.0
  1
D2
  7
MONOTXT
210
0.0
220
0.0
230
1.0
  0
TEXT
  8
0
  6
CONTINUOUS
 62
    40
  5
327
 10
333.1134
 20
1818.0957
 30
0.0
 40
3.0
  1
EI
  7
MONOTXT
210
0.0
220
0.0
230
1.0
  0
TEXT
  8
0
  6
CONTINUOUS
 62
    40
  5
328
 10
332.4741
 20
1809.7394
 30
0.0
 40
3.0
  1
E2
  7
MONOTXT
210
0.0
220
0.0
230
1.0
  0
TEXT
  8
0
  6
CONTINUOUS
 62
    40
  5
329
 10
332.7828
 20
1801.4055
 30
0.0
 40
3.0
  1
E3
  7
MONOTXT
210
0.0
220
0.0
230
1.0
  0
TEXT
  8
0
  6
CONTINUOUS
 62
    40
  5
32A
 10
332.1872
 20
1793.0716
 30
0.0
 40
3.0
  1
E4
  7
MONOTXT
210
0.0
220
0.0
230
1.0
  0
TEXT
  8
0
  6
CONTINUOUS
 62
    40
  5
32B
 10
332.1872
 20
1784.7377
 30
0.0
 40
3.0
  1
E5
  7
MONOTXT
210
0.0
220
0.0
230
1.0
  0
TEXT
  8
0
  6
CONTINUOUS
 62
    40
  5
32C
 10
334.0395
 20
1777.2198
 30
0.0
 40
3.0
  1
F
  7
MONOTXT
210
0.0
220
0.0
230
1.0
  0
TEXT
  8
0
  6
CONTINUOUS
 62
    40
  5
32D
 10
332.9813
 20
1768.8636
 30
0.0
 40
3.0
  1
G
  7
MONOTXT
210
0.0
220
0.0
230
1.0
  0
TEXT
  8
0
  6
CONTINUOUS
 62
    40
  5
32E
 10
333.5769
 20
1760.3313
 30
0.0
 40
3.0
  1
H
  7
MONOTXT
210
0.0
220
0.0
230
1.0
  0
TEXT
  8
0
  6
CONTINUOUS
 62
    40
  5
32F
 10
332.6726
 20
1745.4269
 30
0.0
 40
3.0
  1
VI
  7
MONOTXT
210
0.0
220
0.0
230
1.0
  0
TEXT
  8
0
  6
CONTINUOUS
 62
    40
  5
330
 10
333.1799
 20
1738.306
 30
0.0
 40
3.0
  1
THRU
  7
MONOTXT
210
0.0
220
0.0
230
1.0
  0
TEXT
  8
0
  6
CONTINUOUS
 62
    40
  5
331
 10
332.342
 20
1729.4872
 30
0.0
 40
3.0
  1
V4
  7
MONOTXT
210
0.0
220
0.0
230
1.0
  0
TEXT
  8
0
  6
CONTINUOUS
 62
    40
  5
332
 10
332.4522
 20
1721.2414
 30
0.0
 40
3.0
  1
V5
  7
MONOTXT
210
0.0
220
0.0
230
1.0
  0
TEXT
  8
0
  6
CONTINUOUS
 62
    40
  5
333
 10
332.342
 20
1713.5908
 30
0.0
 40
3.0
  1
V6
  7
MONOTXT
210
0.0
220
0.0
230
1.0
  0
TEXT
  8
0
  6
CONTINUOUS
 62
    40
  5
334
 10
332.2755
 20
1705.1913
 30
0.0
 40
3.0
  1
V7
  7
MONOTXT
210
0.0
220
0.0
230
1.0
  0
TEXT
  8
0
  6
CONTINUOUS
 62
    40
  5
335
 10
332.1436
 20
1697.0334
 30
0.0
 40
3.0
  1
V8
  7
MONOTXT
210
0.0
220
0.0
230
1.0
  0
TEXT
  8
0
  6
CONTINUOUS
 62
    40
  5
336
 10
331.9887
 20
1688.6995
 30
0.0
 40
3.0
  1
V9
  7
MONOTXT
210
0.0
220
0.0
230
1.0
  0
TEXT
  8
0
  6
CONTINUOUS
 62
    40
  5
337
 10
330.7823
 20
1680.5641
 30
0.0
 40
3.0
  1
V10
  7
MONOTXT
210
0.0
220
0.0
230
1.0
  0
TEXT
  8
0
  6
CONTINUOUS
 62
    40
  5
338
 10
332.9813
 20
1672.2302
 30
0.0
 40
3.0
  1
VI
  7
MONOTXT
210
0.0
220
0.0
230
1.0
  0
TEXT
  8
0
  6
CONTINUOUS
 62
    40
  5
339
 10
332.5843
 20
1664.0947
 30
0.0
 40
3.0
  1
H2
  7
MONOTXT
210
0.0
220
0.0
230
1.0
  0
TEXT
  8
0
  6
CONTINUOUS
 62
    40
  5
33A
 10
332.5843
 20
1655.7608
 30
0.0
 40
3.0
  1
KI
  7
MONOTXT
210
0.0
220
0.0
230
1.0
  0
TEXT
  8
0
  6
CONTINUOUS
 62
    40
  5
33B
 10
332.9813
 20
1647.6254
 30
0.0
 40
3.0
  1
THRU
  7
MONOTXT
210
0.0
220
0.0
230
1.0
  0
TEXT
  8
0
  6
CONTINUOUS
 62
    40
  5
33C
 10
333.3784
 20
1639.4899
 30
0.0
 40
3.0
  1
K3
  7
MONOTXT
210
0.0
220
0.0
230
1.0
  0
TEXT
  8
0
  6
CONTINUOUS
 62
    40
  5
33D
 10
333.5769
 20
1631.3544
 30
0.0
 40
3.0
  1
K4
  7
MONOTXT
210
0.0
220
0.0
230
1.0
  0
TEXT
  8
0
  6
CONTINUOUS
 62
    40
  5
33E
 10
333.974
 20
1623.0205
 30
0.0
 40
3.0
  1
K5
  7
MONOTXT
210
0.0
220
0.0
230
1.0
  0
TEXT
  8
0
  6
CONTINUOUS
 62
    40
  5
33F
 10
333.3784
 20
1614.8851
 30
0.0
 40
3.0
  1
K6
  7
MONOTXT
210
0.0
220
0.0
230
1.0
  0
TEXT
  8
0
  6
CONTINUOUS
 62
    40
  5
340
 10
332.3857
 20
1606.7496
 30
0.0
 40
3.0
  1
K7
  7
MONOTXT
210
0.0
220
0.0
230
1.0
  0
TEXT
  8
0
  6
CONTINUOUS
 62
    40
  5
341
 10
332.3857
 20
1598.4157
 30
0.0
 40
3.0
  1
K8
  7
MONOTXT
210
0.0
220
0.0
230
1.0
  0
TEXT
  8
0
  6
CONTINUOUS
 62
    40
  5
342
 10
332.5843
 20
1589.8834
 30
0.0
 40
3.0
  1
K9
  7
MONOTXT
210
0.0
220
0.0
230
1.0
  0
TEXT
  8
0
  6
CONTINUOUS
 62
    40
  5
343
 10
330.6601
 20
1582.5962
 30
0.0
 40
3.0
  1
K10
  7
MONOTXT
210
0.0
220
0.0
230
1.0
  0
TEXT
  8
0
  6
CONTINUOUS
 62
    40
  5
344
 10
331.9887
 20
1565.6754
 30
0.0
 40
3.0
  1
PI
  7
MONOTXT
210
0.0
220
0.0
230
1.0
  0
TEXT
  8
0
  6
CONTINUOUS
 62
    40
  5
345
 10
332.1872
 20
1557.54
 30
0.0
 40
3.0
  1
THRU
  7
MONOTXT
210
0.0
220
0.0
230
1.0
  0
TEXT
  8
0
  6
CONTINUOUS
 62
    40
  5
346
 10
332.1872
 20
1549.8014
 30
0.0
 40
3.0
  1
PII
  7
MONOTXT
210
0.0
220
0.0
230
1.0
  0
TEXT
  8
0
  6
CONTINUOUS
 62
    40
  5
347
 10
331.5916
 20
1532.7367
 30
0.0
 40
3.0
  1
JI
  7
MONOTXT
210
0.0
220
0.0
230
1.0
  0
TEXT
  8
0
  6
CONTINUOUS
 62
    40
  5
348
 10
331.9887
 20
1524.9981
 30
0.0
 40
3.0
  1
J2
  7
MONOTXT
210
0.0
220
0.0
230
1.0
  0
TEXT
  8
0
  6
CONTINUOUS
 62
    40
  5
349
 10
331.5916
 20
1516.4658
 30
0.0
 40
3.0
  1
J3
  7
MONOTXT
210
0.0
220
0.0
230
1.0
  0
TEXT
  8
0
  6
CONTINUOUS
 62
    40
  5
34A
 10
332.3857
 20
1508.7272
 30
0.0
 40
3.0
  1
DI
  7
MONOTXT
210
0.0
220
0.0
230
1.0
  0
TEXT
  8
0
  6
CONTINUOUS
 62
    40
  5
34B
 10
331.9887
 20
1500.5917
 30
0.0
 40
3.0
  1
D2
  7
MONOTXT
210
0.0
220
0.0
230
1.0
  0
TEXT
  8
0
  6
CONTINUOUS
 62
    40
  5
34C
 10
332.7828
 20
1492.4563
 30
0.0
 40
3.0
  1
EI
  7
MONOTXT
210
0.0
220
0.0
230
1.0
  0
TEXT
  8
0
  6
CONTINUOUS
 62
    40
  5
34D
 10
332.7828
 20
1484.1224
 30
0.0
 40
3.0
  1
E2
  7
MONOTXT
210
0.0
220
0.0
230
1.0
  0
TEXT
  8
0
  6
CONTINUOUS
 62
    40
  5
34E
 10
332.3857
 20
1475.7885
 30
0.0
 40
3.0
  1
E3
  7
MONOTXT
210
0.0
220
0.0
230
1.0
  0
TEXT
  8
0
  6
CONTINUOUS
 62
    40
  5
34F
 10
332.5843
 20
1467.4546
 30
0.0
 40
3.0
  1
E4
  7
MONOTXT
210
0.0
220
0.0
230
1.0
  0
TEXT
  8
0
  6
CONTINUOUS
 62
    40
  5
350
 10
332.5843
 20
1459.3192
 30
0.0
 40
3.0
  1
E5
  7
MONOTXT
210
0.0
220
0.0
230
1.0
  0
TEXT
  8
0
  6
CONTINUOUS
 62
    40
  5
351
 10
332.5843
 20
1451.779
 30
0.0
 40
3.0
  1
E6
  7
MONOTXT
210
0.0
220
0.0
230
1.0
  0
TEXT
  8
0
  6
CONTINUOUS
 62
    40
  5
352
 10
332.7828
 20
1443.2466
 30
0.0
 40
3.0
  1
F
  7
MONOTXT
210
0.0
220
0.0
230
1.0
  0
TEXT
  8
0
  6
CONTINUOUS
 62
    40
  5
353
 10
333.5769
 20
1434.9128
 30
0.0
 40
3.0
  1
G
  7
MONOTXT
210
0.0
220
0.0
230
1.0
  0
TEXT
  8
0
  6
CONTINUOUS
 62
    40
  5
354
 10
332.7828
 20
1426.7773
 30
0.0
 40
3.0
  1
H
  7
MONOTXT
210
0.0
220
0.0
230
1.0
  0
TEXT
  8
0
  6
CONTINUOUS
 62
    40
  5
355
 10
332.5405
 20
1418.6418
 30
0.0
 40
3.0
  1
VI
  7
MONOTXT
210
0.0
220
0.0
230
1.0
  0
TEXT
  8
0
  6
CONTINUOUS
 62
    40
  5
356
 10
332.2318
 20
1410.5064
 30
0.0
 40
3.0
  1
V2
  7
MONOTXT
210
0.0
220
0.0
230
1.0
  0
TEXT
  8
0
  6
CONTINUOUS
 62
    40
  5
357
 10
331.945
 20
1401.974
 30
0.0
 40
3.0
  1
V3
  7
MONOTXT
210
0.0
220
0.0
230
1.0
  0
TEXT
  8
0
  6
CONTINUOUS
 62
    40
  5
358
 10
332.3421
 20
1394.037
 30
0.0
 40
3.0
  1
V4
  7
MONOTXT
210
0.0
220
0.0
230
1.0
  0
TEXT
  8
0
  6
CONTINUOUS
 62
    40
  5
359
 10
332.5405
 20
1385.9896
 30
0.0
 40
3.0
  1
V5
  7
MONOTXT
210
0.0
220
0.0
230
1.0
  0
TEXT
  8
0
  6
CONTINUOUS
 62
    40
  5
35A
 10
332.1217
 20
1377.4572
 30
0.0
 40
3.0
  1
V6
  7
MONOTXT
210
0.0
220
0.0
230
1.0
  0
TEXT
  8
0
  6
CONTINUOUS
 62
    40
  5
35B
 10
332.3638
 20
1369.653
 30
0.0
 40
3.0
  1
V7
  7
MONOTXT
210
0.0
220
0.0
230
1.0
  0
TEXT
  8
0
  6
CONTINUOUS
 62
    40
  5
35C
 10
332.5843
 20
1361.2967
 30
0.0
 40
3.0
  1
V8
  7
MONOTXT
210
0.0
220
0.0
230
1.0
  0
TEXT
  8
0
  6
CONTINUOUS
 62
    40
  5
35D
 10
331.5261
 20
1352.9628
 30
0.0
 40
3.0
  1
V9
  7
MONOTXT
210
0.0
220
0.0
230
1.0
  0
TEXT
  8
0
  6
CONTINUOUS
 62
    40
  5
35E
 10
331.5916
 20
1344.629
 30
0.0
 40
3.0
  1
VI0
  7
MONOTXT
210
0.0
220
0.0
230
1.0
  0
TEXT
  8
0
  6
CONTINUOUS
 62
    40
  5
35F
 10
331.7902
 20
1336.0966
 30
0.0
 40
3.0
  1
VII
  7
MONOTXT
210
0.0
220
0.0
230
1.0
  0
TEXT
  8
0
  6
CONTINUOUS
 62
    40
  5
360
 10
331.3713
 20
1328.6668
 30
0.0
 40
3.0
  1
V12
  7
MONOTXT
210
0.0
220
0.0
230
1.0
  0
TEXT
  8
0
  6
CONTINUOUS
 62
    40
  5
361
 10
331.9887
 20
1312.2855
 30
0.0
 40
3.0
  1
KI
  7
MONOTXT
210
0.0
220
0.0
230
1.0
  0
TEXT
  8
0
  6
CONTINUOUS
 62
    40
  5
362
 10
332.3857
 20
1304.1501
 30
0.0
 40
3.0
  1
K2
  7
MONOTXT
210
0.0
220
0.0
230
1.0
  0
TEXT
  8
0
  6
CONTINUOUS
 62
    40
  5
363
 10
332.3857
 20
1296.0146
 30
0.0
 40
3.0
  1
K3
  7
MONOTXT
210
0.0
220
0.0
230
1.0
  0
TEXT
  8
0
  6
CONTINUOUS
 62
    40
  5
364
 10
332.5843
 20
1287.6807
 30
0.0
 40
3.0
  1
K4
  7
MONOTXT
210
0.0
220
0.0
230
1.0
  0
TEXT
  8
0
  6
CONTINUOUS
 62
    40
  5
365
 10
332.4522
 20
1279.8765
 30
0.0
 40
3.0
  1
K5
  7
MONOTXT
210
0.0
220
0.0
230
1.0
  0
TEXT
  8
0
  6
CONTINUOUS
 62
    40
  5
366
 10
353.4016
 20
1899.1837
 30
0.0
 40
3.0
  1
2
  7
MONOTXT
210
0.0
220
0.0
230
1.0
  0
TEXT
  8
0
  6
CONTINUOUS
 62
    40
  5
367
 10
353.4016
 20
1891.0787
 30
0.0
 40
3.0
  1
2
  7
MONOTXT
210
0.0
220
0.0
230
1.0
  0
TEXT
  8
0
  6
CONTINUOUS
 62
    40
  5
368
 10
353.4016
 20
1883.5233
 30
0.0
 40
3.0
  1
2
  7
MONOTXT
210
0.0
220
0.0
230
1.0
  0
TEXT
  8
0
  6
CONTINUOUS
 62
    40
  5
369
 10
353.4016
 20
1874.8688
 30
0.0
 40
3.0
  1
2
  7
MONOTXT
210
0.0
220
0.0
230
1.0
  0
TEXT
  8
0
  6
CONTINUOUS
 62
    40
  5
36A
 10
353.4016
 20
1858.9337
 30
0.0
 40
3.0
  1
2
  7
MONOTXT
210
0.0
220
0.0
230
1.0
  0
TEXT
  8
0
  6
CONTINUOUS
 62
    40
  5
36B
 10
354.2262
 20
1850.1419
 30
0.0
 40
3.0
  1
4
  7
MONOTXT
210
0.0
220
0.0
230
1.0
  0
TEXT
  8
0
  6
CONTINUOUS
 62
    40
  5
36C
 10
343.7426
 20
1899.1837
 30
0.0
 40
3.0
  1
7
  7
MONOTXT
210
0.0
220
0.0
230
1.0
  0
TEXT
  8
0
  6
CONTINUOUS
 62
    40
  5
36D
 10
343.4339
 20
1891.182
 30
0.0
 40
3.0
  1
7
  7
MONOTXT
210
0.0
220
0.0
230
1.0
  0
TEXT
  8
0
  6
CONTINUOUS
 62
    40
  5
36E
 10
343.2309
 20
1882.699
 30
0.0
 40
3.0
  1
8
  7
MONOTXT
210
0.0
220
0.0
230
1.0
  0
TEXT
  8
0
  6
CONTINUOUS
 62
    40
  5
36F
 10
343.4698
 20
1874.9029
 30
0.0
 40
3.0
  1
5
  7
MONOTXT
210
0.0
220
0.0
230
1.0
  0
TEXT
  8
0
  6
CONTINUOUS
 62
    40
  5
370
 10
343.2986
 20
1859.0019
 30
0.0
 40
3.0
  1
5
  7
MONOTXT
210
0.0
220
0.0
230
1.0
  0
TEXT
  8
0
  6
CONTINUOUS
 62
    40
  5
371
 10
342.1313
 20
1850.4167
 30
0.0
 40
3.0
  1
5
  7
MONOTXT
210
0.0
220
0.0
230
1.0
  0
TEXT
  8
0
  6
CONTINUOUS
 62
    40
  5
372
 10
342.956
 20
1841.8996
 30
0.0
 40
3.0
  1
5
  7
MONOTXT
210
0.0
220
0.0
230
1.0
  0
TEXT
  8
0
  6
CONTINUOUS
 62
    40
  5
373
 10
342.476
 20
1834.3092
 30
0.0
 40
3.0
  1
4
  7
MONOTXT
210
0.0
220
0.0
230
1.0
  0
TEXT
  8
0
  6
CONTINUOUS
 62
    40
  5
374
 10
343.0934
 20
1825.6897
 30
0.0
 40
3.0
  1
4
  7
MONOTXT
210
0.0
220
0.0
230
1.0
  0
TEXT
  8
0
  6
CONTINUOUS
 62
    40
  5
375
 10
343.9181
 20
1817.8595
 30
0.0
 40
3.0
  1
5
  7
MONOTXT
210
0.0
220
0.0
230
1.0
  0
TEXT
  8
0
  6
CONTINUOUS
 62
    40
  5
376
 10
343.9181
 20
1809.3425
 30
0.0
 40
3.0
  1
5
  7
MONOTXT
210
0.0
220
0.0
230
1.0
  0
TEXT
  8
0
  6
CONTINUOUS
 62
    40
  5
377
 10
343.9181
 20
1801.2376
 30
0.0
 40
3.0
  1
5
  7
MONOTXT
210
0.0
220
0.0
230
1.0
  0
TEXT
  8
0
  6
CONTINUOUS
 62
    40
  5
378
 10
343.9181
 20
1792.3084
 30
0.0
 40
3.0
  1
5
  7
MONOTXT
210
0.0
220
0.0
230
1.0
  0
TEXT
  8
0
  6
CONTINUOUS
 62
    40
  5
379
 10
343.9181
 20
1785.0277
 30
0.0
 40
3.0
  1
5
  7
MONOTXT
210
0.0
220
0.0
230
1.0
  0
TEXT
  8
0
  6
CONTINUOUS
 62
    40
  5
37A
 10
343.9181
 20
1777.1975
 30
0.0
 40
3.0
  1
5
  7
MONOTXT
210
0.0
220
0.0
230
1.0
  0
TEXT
  8
0
  6
CONTINUOUS
 62
    40
  5
37B
 10
343.9181
 20
1768.9552
 30
0.0
 40
3.0
  1
5
  7
MONOTXT
210
0.0
220
0.0
230
1.0
  0
TEXT
  8
0
  6
CONTINUOUS
 62
    40
  5
37C
 10
343.5058
 20
1760.5404
 30
0.0
 40
3.0
  1
5
  7
MONOTXT
210
0.0
220
0.0
230
1.0
  0
TEXT
  8
0
  6
CONTINUOUS
 62
    40
  5
37D
 10
343.0934
 20
1745.3272
 30
0.0
 40
3.0
  1
5
  7
MONOTXT
210
0.0
220
0.0
230
1.0
  0
TEXT
  8
0
  6
CONTINUOUS
 62
    40
  5
37E
 10
342.8185
 20
1729.1174
 30
0.0
 40
3.0
  1
5
  7
MONOTXT
210
0.0
220
0.0
230
1.0
  0
TEXT
  8
0
  6
CONTINUOUS
 62
    40
  5
37F
 10
343.6432
 20
1721.0124
 30
0.0
 40
3.0
  1
6
  7
MONOTXT
210
0.0
220
0.0
230
1.0
  0
TEXT
  8
0
  6
CONTINUOUS
 62
    40
  5
380
 10
342.3407
 20
1713.5594
 30
0.0
 40
3.0
  1
6
  7
MONOTXT
210
0.0
220
0.0
230
1.0
  0
TEXT
  8
0
  6
CONTINUOUS
 62
    40
  5
381
 10
342.032
 20
1705.351
 30
0.0
 40
3.0
  1
7
  7
MONOTXT
210
0.0
220
0.0
230
1.0
  0
TEXT
  8
0
  6
CONTINUOUS
 62
    40
  5
382
 10
342.0996
 20
1697.0406
 30
0.0
 40
3.0
  1
8
  7
MONOTXT
210
0.0
220
0.0
230
1.0
  0
TEXT
  8
0
  6
CONTINUOUS
 62
    40
  5
383
 10
342.2032
 20
1688.7642
 30
0.0
 40
3.0
  1
8
  7
MONOTXT
210
0.0
220
0.0
230
1.0
  0
TEXT
  8
0
  6
CONTINUOUS
 62
    40
  5
384
 10
342.5457
 20
1680.556
 30
0.0
 40
3.0
  1
9
  7
MONOTXT
210
0.0
220
0.0
230
1.0
  0
TEXT
  8
0
  6
CONTINUOUS
 62
    40
  5
385
 10
342.6494
 20
1672.1421
 30
0.0
 40
3.0
  1
9
  7
MONOTXT
210
0.0
220
0.0
230
1.0
  0
TEXT
  8
0
  6
CONTINUOUS
 62
    40
  5
386
 10
342.1334
 20
1664.1746
 30
0.0
 40
3.0
  1
4
  7
MONOTXT
210
0.0
220
0.0
230
1.0
  0
TEXT
  8
0
  6
CONTINUOUS
 62
    40
  5
387
 10
343.1293
 20
1656.1378
 30
0.0
 40
3.0
  1
5
  7
MONOTXT
210
0.0
220
0.0
230
1.0
  0
TEXT
  8
0
  6
CONTINUOUS
 62
    40
  5
388
 10
343.2309
 20
1639.551
 30
0.0
 40
3.0
  1
5
  7
MONOTXT
210
0.0
220
0.0
230
1.0
  0
TEXT
  8
0
  6
CONTINUOUS
 62
    40
  5
389
 10
342.8185
 20
1631.0339
 30
0.0
 40
3.0
  1
6
  7
MONOTXT
210
0.0
220
0.0
230
1.0
  0
TEXT
  8
0
  6
CONTINUOUS
 62
    40
  5
38A
 10
343.1213
 20
1623.2768
 30
0.0
 40
3.0
  1
6
  7
MONOTXT
210
0.0
220
0.0
230
1.0
  0
TEXT
  8
0
  6
CONTINUOUS
 62
    40
  5
38B
 10
343.2309
 20
1615.0988
 30
0.0
 40
3.0
  1
7
  7
MONOTXT
210
0.0
220
0.0
230
1.0
  0
TEXT
  8
0
  6
CONTINUOUS
 62
    40
  5
38C
 10
343.0848
 20
1607.0304
 30
0.0
 40
3.0
  1
7
  7
MONOTXT
210
0.0
220
0.0
230
1.0
  0
TEXT
  8
0
  6
CONTINUOUS
 62
    40
  5
38D
 10
343.2309
 20
1598.3394
 30
0.0
 40
3.0
  1
8
  7
MONOTXT
210
0.0
220
0.0
230
1.0
  0
TEXT
  8
0
  6
CONTINUOUS
 62
    40
  5
38E
 10
343.3683
 20
1590.0971
 30
0.0
 40
3.0
  1
8
  7
MONOTXT
210
0.0
220
0.0
230
1.0
  0
TEXT
  8
0
  6
CONTINUOUS
 62
    40
  5
38F
 10
343.5702
 20
1582.3765
 30
0.0
 40
3.0
  1
9
  7
MONOTXT
210
0.0
220
0.0
230
1.0
  0
TEXT
  8
0
  6
CONTINUOUS
 62
    40
  5
390
 10
343.0934
 20
1565.3702
 30
0.0
 40
3.0
  1
5
  7
MONOTXT
210
0.0
220
0.0
230
1.0
  0
TEXT
  8
0
  6
CONTINUOUS
 62
    40
  5
391
 10
342.2688
 20
1549.4351
 30
0.0
 40
3.0
  1
5
  7
MONOTXT
210
0.0
220
0.0
230
1.0
  0
TEXT
  8
0
  6
CONTINUOUS
 62
    40
  5
392
 10
342.6811
 20
1532.6757
 30
0.0
 40
3.0
  1
5
  7
MONOTXT
210
0.0
220
0.0
230
1.0
  0
TEXT
  8
0
  6
CONTINUOUS
 62
    40
  5
393
 10
343.5058
 20
1524.296
 30
0.0
 40
3.0
  1
5
  7
MONOTXT
210
0.0
220
0.0
230
1.0
  0
TEXT
  8
0
  6
CONTINUOUS
 62
    40
  5
394
 10
343.2668
 20
1516.5
 30
0.0
 40
3.0
  1
5
  7
MONOTXT
210
0.0
220
0.0
230
1.0
  0
TEXT
  8
0
  6
CONTINUOUS
 62
    40
  5
395
 10
342.9474
 20
1508.8096
 30
0.0
 40
3.0
  1
4
  7
MONOTXT
210
0.0
220
0.0
230
1.0
  0
TEXT
  8
0
  6
CONTINUOUS
 62
    40
  5
396
 10
342.462
 20
1500.8785
 30
0.0
 40
3.0
  1
4
  7
MONOTXT
210
0.0
220
0.0
230
1.0
  0
TEXT
  8
0
  6
CONTINUOUS
 62
    40
  5
397
 10
342.6811
 20
1491.6015
 30
0.0
 40
3.0
  1
5
  7
MONOTXT
210
0.0
220
0.0
230
1.0
  0
TEXT
  8
0
  6
CONTINUOUS
 62
    40
  5
398
 10
342.6811
 20
1483.3592
 30
0.0
 40
3.0
  1
5
  7
MONOTXT
210
0.0
220
0.0
230
1.0
  0
TEXT
  8
0
  6
CONTINUOUS
 62
    40
  5
399
 10
342.6811
 20
1475.8038
 30
0.0
 40
3.0
  1
5
  7
MONOTXT
210
0.0
220
0.0
230
1.0
  0
TEXT
  8
0
  6
CONTINUOUS
 62
    40
  5
39A
 10
342.6811
 20
1467.8362
 30
0.0
 40
3.0
  1
5
  7
MONOTXT
210
0.0
220
0.0
230
1.0
  0
TEXT
  8
0
  6
CONTINUOUS
 62
    40
  5
39B
 10
342.6811
 20
1459.4565
 30
0.0
 40
3.0
  1
5
  7
MONOTXT
210
0.0
220
0.0
230
1.0
  0
TEXT
  8
0
  6
CONTINUOUS
 62
    40
  5
39C
 10
342.6811
 20
1450.9395
 30
0.0
 40
3.0
  1
5
  7
MONOTXT
210
0.0
220
0.0
230
1.0
  0
TEXT
  8
0
  6
CONTINUOUS
 62
    40
  5
39D
 10
342.9898
 20
1443.4521
 30
0.0
 40
3.0
  1
5
  7
MONOTXT
210
0.0
220
0.0
230
1.0
  0
TEXT
  8
0
  6
CONTINUOUS
 62
    40
  5
39E
 10
342.9898
 20
1434.7637
 30
0.0
 40
3.0
  1
5
  7
MONOTXT
210
0.0
220
0.0
230
1.0
  0
TEXT
  8
0
  6
CONTINUOUS
 62
    40
  5
39F
 10
342.6811
 20
1427.0368
 30
0.0
 40
3.0
  1
5
  7
MONOTXT
210
0.0
220
0.0
230
1.0
  0
TEXT
  8
0
  6
CONTINUOUS
 62
    40
  5
3A0
 10
343.0934
 20
1418.6571
 30
0.0
 40
3.0
  1
5
  7
MONOTXT
210
0.0
220
0.0
230
1.0
  0
TEXT
  8
0
  6
CONTINUOUS
 62
    40
  5
3A1
 10
342.956
 20
1410.0027
 30
0.0
 40
3.0
  1
5
  7
MONOTXT
210
0.0
220
0.0
230
1.0
  0
TEXT
  8
0
  6
CONTINUOUS
 62
    40
  5
3A2
 10
342.8185
 20
1401.4856
 30
0.0
 40
3.0
  1
6
  7
MONOTXT
210
0.0
220
0.0
230
1.0
  0
TEXT
  8
0
  6
CONTINUOUS
 62
    40
  5
3A3
 10
343.0934
 20
1393.7928
 30
0.0
 40
3.0
  1
6
  7
MONOTXT
210
0.0
220
0.0
230
1.0
  0
TEXT
  8
0
  6
CONTINUOUS
 62
    40
  5
3A4
 10
343.2309
 20
1385.5505
 30
0.0
 40
3.0
  1
7
  7
MONOTXT
210
0.0
220
0.0
230
1.0
  0
TEXT
  8
0
  6
CONTINUOUS
 62
    40
  5
3A5
 10
342.956
 20
1377.3082
 30
0.0
 40
3.0
  1
7
  7
MONOTXT
210
0.0
220
0.0
230
1.0
  0
TEXT
  8
0
  6
CONTINUOUS
 62
    40
  5
3A6
 10
342.956
 20
1369.7528
 30
0.0
 40
3.0
  1
8
  7
MONOTXT
210
0.0
220
0.0
230
1.0
  0
TEXT
  8
0
  6
CONTINUOUS
 62
    40
  5
3A7
 10
342.8185
 20
1361.5104
 30
0.0
 40
3.0
  1
8
  7
MONOTXT
210
0.0
220
0.0
230
1.0
  0
TEXT
  8
0
  6
CONTINUOUS
 62
    40
  5
3A8
 10
343.6432
 20
1352.856
 30
0.0
 40
3.0
  1
9
  7
MONOTXT
210
0.0
220
0.0
230
1.0
  0
TEXT
  8
0
  6
CONTINUOUS
 62
    40
  5
3A9
 10
343.3683
 20
1344.7511
 30
0.0
 40
3.0
  1
9
  7
MONOTXT
210
0.0
220
0.0
230
1.0
  0
TEXT
  8
0
  6
CONTINUOUS
 62
    40
  5
3AA
 10
341.5816
 20
1336.234
 30
0.0
 40
3.0
  1
10
  7
MONOTXT
210
0.0
220
0.0
230
1.0
  0
TEXT
  8
0
  6
CONTINUOUS
 62
    40
  5
3AB
 10
341.4441
 20
1327.9917
 30
0.0
 40
3.0
  1
10
  7
MONOTXT
210
0.0
220
0.0
230
1.0
  0
TEXT
  8
0
  6
CONTINUOUS
 62
    40
  5
3AC
 10
343.1071
 20
1312.3109
 30
0.0
 40
3.0
  1
5
  7
MONOTXT
210
0.0
220
0.0
230
1.0
  0
TEXT
  8
0
  6
CONTINUOUS
 62
    40
  5
3AD
 10
342.9697
 20
1304.3433
 30
0.0
 40
3.0
  1
5
  7
MONOTXT
210
0.0
220
0.0
230
1.0
  0
TEXT
  8
0
  6
CONTINUOUS
 62
    40
  5
3AE
 10
342.6948
 20
1296.5131
 30
0.0
 40
3.0
  1
6
  7
MONOTXT
210
0.0
220
0.0
230
1.0
  0
TEXT
  8
0
  6
CONTINUOUS
 62
    40
  5
3AF
 10
343.2446
 20
1287.5839
 30
0.0
 40
3.0
  1
6
  7
MONOTXT
210
0.0
220
0.0
230
1.0
  0
TEXT
  8
0
  6
CONTINUOUS
 62
    40
  5
3B0
 10
343.0313
 20
1279.6417
 30
0.0
 40
3.0
  1
7
  7
MONOTXT
210
0.0
220
0.0
230
1.0
  0
TEXT
  8
0
  6
CONTINUOUS
 62
    40
  5
3B1
 10
352.9104
 20
1842.5254
 30
0.0
 40
3.0
  1
4
  7
MONOTXT
210
0.0
220
0.0
230
1.0
  0
TEXT
  8
0
  6
CONTINUOUS
 62
    40
  5
3B2
 10
352.9104
 20
1833.8252
 30
0.0
 40
3.0
  1
19
  7
MONOTXT
210
0.0
220
0.0
230
1.0
  0
TEXT
  8
0
  6
CONTINUOUS
 62
    40
  5
3B3
 10
353.8366
 20
1826.0515
 30
0.0
 40
3.0
  1
4
  7
MONOTXT
210
0.0
220
0.0
230
1.0
  0
TEXT
  8
0
  6
CONTINUOUS
 62
    40
  5
3B4
 10
353.4016
 20
1817.8595
 30
0.0
 40
3.0
  1
2
  7
MONOTXT
210
0.0
220
0.0
230
1.0
  0
TEXT
  8
0
  6
CONTINUOUS
 62
    40
  5
3B5
 10
354.2848
 20
1809.7851
 30
0.0
 40
3.0
  1
I
  7
MONOTXT
210
0.0
220
0.0
230
1.0
  0
TEXT
  8
0
  6
CONTINUOUS
 62
    40
  5
3B6
 10
354.2848
 20
1800.627
 30
0.0
 40
3.0
  1
I
  7
MONOTXT
210
0.0
220
0.0
230
1.0
  0
TEXT
  8
0
  6
CONTINUOUS
 62
    40
  5
3B7
 10
354.2848
 20
1793.0716
 30
0.0
 40
3.0
  1
I
  7
MONOTXT
210
0.0
220
0.0
230
1.0
  0
TEXT
  8
0
  6
CONTINUOUS
 62
    40
  5
3B8
 10
354.2848
 20
1785.2872
 30
0.0
 40
3.0
  1
I
  7
MONOTXT
210
0.0
220
0.0
230
1.0
  0
TEXT
  8
0
  6
CONTINUOUS
 62
    40
  5
3B9
 10
352.6813
 20
1777.0449
 30
0.0
 40
3.0
  1
2
  7
MONOTXT
210
0.0
220
0.0
230
1.0
  0
TEXT
  8
0
  6
CONTINUOUS
 62
    40
  5
3BA
 10
353.5976
 20
1768.8026
 30
0.0
 40
3.0
  1
4
  7
MONOTXT
210
0.0
220
0.0
230
1.0
  0
TEXT
  8
0
  6
CONTINUOUS
 62
    40
  5
3BB
 10
352.2231
 20
1761.0182
 30
0.0
 40
3.0
  1
22
  7
MONOTXT
210
0.0
220
0.0
230
1.0
  0
TEXT
  8
0
  6
CONTINUOUS
 62
    40
  5
3BC
 10
352.9104
 20
1745.4494
 30
0.0
 40
3.0
  1
2
  7
MONOTXT
210
0.0
220
0.0
230
1.0
  0
TEXT
  8
0
  6
CONTINUOUS
 62
    40
  5
3BD
 10
352.9104
 20
1729.8805
 30
0.0
 40
3.0
  1
2
  7
MONOTXT
210
0.0
220
0.0
230
1.0
  0
TEXT
  8
0
  6
CONTINUOUS
 62
    40
  5
3BE
 10
352.9104
 20
1721.4093
 30
0.0
 40
3.0
  1
2
  7
MONOTXT
210
0.0
220
0.0
230
1.0
  0
TEXT
  8
0
  6
CONTINUOUS
 62
    40
  5
3BF
 10
352.9104
 20
1713.6249
 30
0.0
 40
3.0
  1
2
  7
MONOTXT
210
0.0
220
0.0
230
1.0
  0
TEXT
  8
0
  6
CONTINUOUS
 62
    40
  5
3C0
 10
352.9104
 20
1705.1536
 30
0.0
 40
3.0
  1
2
  7
MONOTXT
210
0.0
220
0.0
230
1.0
  0
TEXT
  8
0
  6
CONTINUOUS
 62
    40
  5
3C1
 10
352.9104
 20
1696.9113
 30
0.0
 40
3.0
  1
2
  7
MONOTXT
210
0.0
220
0.0
230
1.0
  0
TEXT
  8
0
  6
CONTINUOUS
 62
    40
  5
3C2
 10
352.9104
 20
1689.1269
 30
0.0
 40
3.0
  1
2
  7
MONOTXT
210
0.0
220
0.0
230
1.0
  0
TEXT
  8
0
  6
CONTINUOUS
 62
    40
  5
3C3
 10
352.9104
 20
1680.6556
 30
0.0
 40
3.0
  1
2
  7
MONOTXT
210
0.0
220
0.0
230
1.0
  0
TEXT
  8
0
  6
CONTINUOUS
 62
    40
  5
3C4
 10
353.6764
 20
1664.4153
 30
0.0
 40
3.0
  1
8
  7
MONOTXT
210
0.0
220
0.0
230
1.0
  0
TEXT
  8
0
  6
CONTINUOUS
 62
    40
  5
3C5
 10
352.9104
 20
1672.6423
 30
0.0
 40
3.0
  1
2
  7
MONOTXT
210
0.0
220
0.0
230
1.0
  0
TEXT
  8
0
  6
CONTINUOUS
 62
    40
  5
3C6
 10
353.8366
 20
1656.3866
 30
0.0
 40
3.0
  1
2
  7
MONOTXT
210
0.0
220
0.0
230
1.0
  0
TEXT
  8
0
  6
CONTINUOUS
 62
    40
  5
3C7
 10
352.9104
 20
1639.6731
 30
0.0
 40
3.0
  1
2
  7
MONOTXT
210
0.0
220
0.0
230
1.0
  0
TEXT
  8
0
  6
CONTINUOUS
 62
    40
  5
3C8
 10
352.9104
 20
1631.4308
 30
0.0
 40
3.0
  1
2
  7
MONOTXT
210
0.0
220
0.0
230
1.0
  0
TEXT
  8
0
  6
CONTINUOUS
 62
    40
  5
3C9
 10
352.9104
 20
1623.1885
 30
0.0
 40
3.0
  1
2
  7
MONOTXT
210
0.0
220
0.0
230
1.0
  0
TEXT
  8
0
  6
CONTINUOUS
 62
    40
  5
3CA
 10
352.9104
 20
1615.633
 30
0.0
 40
3.0
  1
2
  7
MONOTXT
210
0.0
220
0.0
230
1.0
  0
TEXT
  8
0
  6
CONTINUOUS
 62
    40
  5
3CB
 10
352.9104
 20
1607.6197
 30
0.0
 40
3.0
  1
2
  7
MONOTXT
210
0.0
220
0.0
230
1.0
  0
TEXT
  8
0
  6
CONTINUOUS
 62
    40
  5
3CC
 10
352.9104
 20
1598.6905
 30
0.0
 40
3.0
  1
2
  7
MONOTXT
210
0.0
220
0.0
230
1.0
  0
TEXT
  8
0
  6
CONTINUOUS
 62
    40
  5
3CD
 10
352.9104
 20
1590.6771
 30
0.0
 40
3.0
  1
2
  7
MONOTXT
210
0.0
220
0.0
230
1.0
  0
TEXT
  8
0
  6
CONTINUOUS
 62
    40
  5
3CE
 10
352.9104
 20
1582.6638
 30
0.0
 40
3.0
  1
2
  7
MONOTXT
210
0.0
220
0.0
230
1.0
  0
TEXT
  8
0
  6
CONTINUOUS
 62
    40
  5
3CF
 10
352.9104
 20
1565.4923
 30
0.0
 40
3.0
  1
2
  7
MONOTXT
210
0.0
220
0.0
230
1.0
  0
TEXT
  8
0
  6
CONTINUOUS
 62
    40
  5
3D0
 10
353.8446
 20
1549.3009
 30
0.0
 40
3.0
  1
2
  7
MONOTXT
210
0.0
220
0.0
230
1.0
  0
TEXT
  8
0
  6
CONTINUOUS
 62
    40
  5
3D1
 10
353.8266
 20
1533.6678
 30
0.0
 40
3.0
  1
4
  7
MONOTXT
210
0.0
220
0.0
230
1.0
  0
TEXT
  8
0
  6
CONTINUOUS
 62
    40
  5
3D2
 10
353.8266
 20
1524.9676
 30
0.0
 40
3.0
  1
4
  7
MONOTXT
210
0.0
220
0.0
230
1.0
  0
TEXT
  8
0
  6
CONTINUOUS
 62
    40
  5
3D3
 10
354.2848
 20
1516.7073
 30
0.0
 40
3.0
  1
4
  7
MONOTXT
210
0.0
220
0.0
230
1.0
  0
TEXT
  8
0
  6
CONTINUOUS
 62
    40
  5
3D4
 10
353.891
 20
1508.483
 30
0.0
 40
3.0
  1
21
  7
MONOTXT
210
0.0
220
0.0
230
1.0
  0
TEXT
  8
0
  6
CONTINUOUS
 62
    40
  5
3D5
 10
354.3671
 20
1501.0561
 30
0.0
 40
3.0
  1
4
  7
MONOTXT
210
0.0
220
0.0
230
1.0
  0
TEXT
  8
0
  6
CONTINUOUS
 62
    40
  5
3D6
 10
354.0557
 20
1492.2274
 30
0.0
 40
3.0
  1
2
  7
MONOTXT
210
0.0
220
0.0
230
1.0
  0
TEXT
  8
0
  6
CONTINUOUS
 62
    40
  5
3D7
 10
354.0557
 20
1484.6719
 30
0.0
 40
3.0
  1
I
  7
MONOTXT
210
0.0
220
0.0
230
1.0
  0
TEXT
  8
0
  6
CONTINUOUS
 62
    40
  5
3D8
 10
354.0557
 20
1475.0559
 30
0.0
 40
3.0
  1
I
  7
MONOTXT
210
0.0
220
0.0
230
1.0
  0
TEXT
  8
0
  6
CONTINUOUS
 62
    40
  5
3D9
 10
354.0557
 20
1467.7294
 30
0.0
 40
3.0
  1
I
  7
MONOTXT
210
0.0
220
0.0
230
1.0
  0
TEXT
  8
0
  6
CONTINUOUS
 62
    40
  5
3DA
 10
354.0557
 20
1459.2581
 30
0.0
 40
3.0
  1
I
  7
MONOTXT
210
0.0
220
0.0
230
1.0
  0
TEXT
  8
0
  6
CONTINUOUS
 62
    40
  5
3DB
 10
354.0557
 20
1452.1606
 30
0.0
 40
3.0
  1
I
  7
MONOTXT
210
0.0
220
0.0
230
1.0
  0
TEXT
  8
0
  6
CONTINUOUS
 62
    40
  5
3DC
 10
353.8266
 20
1443.6893
 30
0.0
 40
3.0
  1
2
  7
MONOTXT
210
0.0
220
0.0
230
1.0
  0
TEXT
  8
0
  6
CONTINUOUS
 62
    40
  5
3DD
 10
353.8266
 20
1435.2181
 30
0.0
 40
3.0
  1
4
  7
MONOTXT
210
0.0
220
0.0
230
1.0
  0
TEXT
  8
0
  6
CONTINUOUS
 62
    40
  5
3DE
 10
352.6813
 20
1427.2047
 30
0.0
 40
3.0
  1
22
  7
MONOTXT
210
0.0
220
0.0
230
1.0
  0
TEXT
  8
0
  6
CONTINUOUS
 62
    40
  5
3DF
 10
352.6813
 20
1418.4615
 30
0.0
 40
3.0
  1
2
  7
MONOTXT
210
0.0
220
0.0
230
1.0
  0
TEXT
  8
0
  6
CONTINUOUS
 62
    40
  5
3E0
 10
352.6813
 20
1411.8649
 30
0.0
 40
3.0
  1
2
  7
MONOTXT
210
0.0
220
0.0
230
1.0
  0
TEXT
  8
0
  6
CONTINUOUS
 62
    40
  5
3E1
 10
352.6813
 20
1402.2488
 30
0.0
 40
3.0
  1
2
  7
MONOTXT
210
0.0
220
0.0
230
1.0
  0
TEXT
  8
0
  6
CONTINUOUS
 62
    40
  5
3E2
 10
352.6813
 20
1394.6934
 30
0.0
 40
3.0
  1
2
  7
MONOTXT
210
0.0
220
0.0
230
1.0
  0
TEXT
  8
0
  6
CONTINUOUS
 62
    40
  5
3E3
 10
352.6813
 20
1385.9932
 30
0.0
 40
3.0
  1
2
  7
MONOTXT
210
0.0
220
0.0
230
1.0
  0
TEXT
  8
0
  6
CONTINUOUS
 62
    40
  5
3E4
 10
352.6813
 20
1377.5219
 30
0.0
 40
3.0
  1
2
  7
MONOTXT
210
0.0
220
0.0
230
1.0
  0
TEXT
  8
0
  6
CONTINUOUS
 62
    40
  5
3E5
 10
352.6813
 20
1369.2796
 30
0.0
 40
3.0
  1
2
  7
MONOTXT
210
0.0
220
0.0
230
1.0
  0
TEXT
  8
0
  6
CONTINUOUS
 62
    40
  5
3E6
 10
352.6813
 20
1361.7242
 30
0.0
 40
3.0
  1
2
  7
MONOTXT
210
0.0
220
0.0
230
1.0
  0
TEXT
  8
0
  6
CONTINUOUS
 62
    40
  5
3E7
 10
352.6813
 20
1353.4818
 30
0.0
 40
3.0
  1
2
  7
MONOTXT
210
0.0
220
0.0
230
1.0
  0
TEXT
  8
0
  6
CONTINUOUS
 62
    40
  5
3E8
 10
352.6813
 20
1344.7816
 30
0.0
 40
3.0
  1
2
  7
MONOTXT
210
0.0
220
0.0
230
1.0
  0
TEXT
  8
0
  6
CONTINUOUS
 62
    40
  5
3E9
 10
352.6813
 20
1337.913
 30
0.0
 40
3.0
  1
2
  7
MONOTXT
210
0.0
220
0.0
230
1.0
  0
TEXT
  8
0
  6
CONTINUOUS
 62
    40
  5
3EA
 10
352.6813
 20
1329.2128
 30
0.0
 40
3.0
  1
2
  7
MONOTXT
210
0.0
220
0.0
230
1.0
  0
TEXT
  8
0
  6
CONTINUOUS
 62
    40
  5
3EB
 10
353.3342
 20
1312.7604
 30
0.0
 40
3.0
  1
2
  7
MONOTXT
210
0.0
220
0.0
230
1.0
  0
TEXT
  8
0
  6
CONTINUOUS
 62
    40
  5
3EC
 10
353.3342
 20
1304.2891
 30
0.0
 40
3.0
  1
2
  7
MONOTXT
210
0.0
220
0.0
230
1.0
  0
TEXT
  8
0
  6
CONTINUOUS
 62
    40
  5
3ED
 10
353.3342
 20
1296.7336
 30
0.0
 40
3.0
  1
2
  7
MONOTXT
210
0.0
220
0.0
230
1.0
  0
TEXT
  8
0
  6
CONTINUOUS
 62
    40
  5
3EE
 10
353.3342
 20
1287.5755
 30
0.0
 40
3.0
  1
2
  7
MONOTXT
210
0.0
220
0.0
230
1.0
  0
TEXT
  8
0
  6
CONTINUOUS
 62
    40
  5
3EF
 10
353.4648
 20
1279.5875
 30
0.0
 40
3.0
  1
2
  7
MONOTXT
210
0.0
220
0.0
230
1.0
  0
TEXT
  8
0
  6
CONTINUOUS
 62
    40
  5
3F0
 10
376.4016
 20
1866.7507
 30
0.0
 40
3.0
  1
6" INCREMENTS
  7
MONOTXT
210
0.0
220
0.0
230
1.0
  0
TEXT
  8
0
  6
CONTINUOUS
 62
    40
  5
3F1
 10
373.7961
 20
1737.5614
 30
0.0
 40
3.0
  1
6" INCREMENTS
  7
MONOTXT
210
0.0
220
0.0
230
1.0
  0
TEXT
  8
0
  6
CONTINUOUS
 62
    40
  5
3F2
 10
373.6605
 20
1648.1976
 30
0.0
 40
3.0
  1
6" INCREMENTS
  7
MONOTXT
210
0.0
220
0.0
230
1.0
  0
TEXT
  8
0
  6
CONTINUOUS
 62
    40
  5
3F3
 10
371.1386
 20
1558.1052
 30
0.0
 40
3.0
  1
6" INCREMENTS
  7
MONOTXT
210
0.0
220
0.0
230
1.0
  0
TEXT
  8
0
  6
CONTINUOUS
 62
    40
  5
3F4
 10
405.4272
 20
1435.0775
 30
0.0
 40
3.0
  1
50'-7"
  7
MONOTXT
210
0.0
220
0.0
230
1.0
  0
TEXT
  8
0
  6
CONTINUOUS
 62
    40
  5
3F5
 10
406.9458
 20
1768.341
 30
0.0
 40
3.0
  1
45'-9"
  7
MONOTXT
210
0.0
220
0.0
230
1.0
  0
TEXT
  8
0
  6
CONTINUOUS
 62
    40
  5
3F6
 10
406.9458
 20
1818.0595
 30
0.0
 40
3.0
  1
33'-3"
  7
MONOTXT
210
0.0
220
0.0
230
1.0
  0
TEXT
  8
0
  6
CONTINUOUS
 62
    40
  5
3F7
 10
446.3926
 20
1899.2785
 30
0.0
 40
3.0
  1
BENT
  7
MONOTXT
210
0.0
220
0.0
230
1.0
  0
TEXT
  8
0
  6
CONTINUOUS
 62
    40
  5
3F8
 10
446.3926
 20
1890.8365
 30
0.0
 40
3.0
  1
BENT
  7
MONOTXT
210
0.0
220
0.0
230
1.0
  0
TEXT
  8
0
  6
CONTINUOUS
 62
    40
  5
3F9
 10
446.3926
 20
1883.3687
 30
0.0
 40
3.0
  1
BENT
  7
MONOTXT
210
0.0
220
0.0
230
1.0
  0
TEXT
  8
0
  6
CONTINUOUS
 62
    40
  5
3FA
 10
446.3926
 20
1875.5762
 30
0.0
 40
3.0
  1
BENT
  7
MONOTXT
210
0.0
220
0.0
230
1.0
  0
TEXT
  8
0
  6
CONTINUOUS
 62
    40
  5
3FB
 10
446.3926
 20
1859.017
 30
0.0
 40
3.0
  1
BENT
  7
MONOTXT
210
0.0
220
0.0
230
1.0
  0
TEXT
  8
0
  6
CONTINUOUS
 62
    40
  5
3FC
 10
448.3417
 20
1850.5751
 30
0.0
 40
3.0
  1
STR.
  7
MONOTXT
210
0.0
220
0.0
230
1.0
  0
TEXT
  8
0
  6
CONTINUOUS
 62
    40
  5
3FD
 10
448.3417
 20
1842.1332
 30
0.0
 40
3.0
  1
STR.
  7
MONOTXT
210
0.0
220
0.0
230
1.0
  0
TEXT
  8
0
  6
CONTINUOUS
 62
    40
  5
3FE
 10
446.3926
 20
1834.6654
 30
0.0
 40
3.0
  1
BENT
  7
MONOTXT
210
0.0
220
0.0
230
1.0
  0
TEXT
  8
0
  6
CONTINUOUS
 62
    40
  5
3FF
 10
446.3926
 20
1825.8988
 30
0.0
 40
3.0
  1
BENT
  7
MONOTXT
210
0.0
220
0.0
230
1.0
  0
TEXT
  8
0
  6
CONTINUOUS
 62
    40
  5
400
 10
448.3417
 20
1818.1062
 30
0.0
 40
3.0
  1
STR.
  7
MONOTXT
210
0.0
220
0.0
230
1.0
  0
TEXT
  8
0
  6
CONTINUOUS
 62
    40
  5
401
 10
448.3417
 20
1809.3396
 30
0.0
 40
3.0
  1
STR.
  7
MONOTXT
210
0.0
220
0.0
230
1.0
  0
TEXT
  8
0
  6
CONTINUOUS
 62
    40
  5
402
 10
448.3417
 20
1801.5471
 30
0.0
 40
3.0
  1
STR.
  7
MONOTXT
210
0.0
220
0.0
230
1.0
  0
TEXT
  8
0
  6
CONTINUOUS
 62
    40
  5
403
 10
448.3417
 20
1793.4299
 30
0.0
 40
3.0
  1
STR.
  7
MONOTXT
210
0.0
220
0.0
230
1.0
  0
TEXT
  8
0
  6
CONTINUOUS
 62
    40
  5
404
 10
448.3417
 20
1785.6373
 30
0.0
 40
3.0
  1
STR.
  7
MONOTXT
210
0.0
220
0.0
230
1.0
  0
TEXT
  8
0
  6
CONTINUOUS
 62
    40
  5
405
 10
448.3417
 20
1776.8707
 30
0.0
 40
3.0
  1
STR.
  7
MONOTXT
210
0.0
220
0.0
230
1.0
  0
TEXT
  8
0
  6
CONTINUOUS
 62
    40
  5
406
 10
446.3926
 20
1768.7535
 30
0.0
 40
3.0
  1
BENT
  7
MONOTXT
210
0.0
220
0.0
230
1.0
  0
TEXT
  8
0
  6
CONTINUOUS
 62
    40
  5
407
 10
448.3417
 20
1760.3116
 30
0.0
 40
3.0
  1
STR.
  7
MONOTXT
210
0.0
220
0.0
230
1.0
  0
TEXT
  8
0
  6
CONTINUOUS
 62
    40
  5
408
 10
446.3926
 20
1745.0512
 30
0.0
 40
3.0
  1
BENT
  7
MONOTXT
210
0.0
220
0.0
230
1.0
  0
TEXT
  8
0
  6
CONTINUOUS
 62
    40
  5
409
 10
446.3926
 20
1729.4661
 30
0.0
 40
3.0
  1
BENT
  7
MONOTXT
210
0.0
220
0.0
230
1.0
  0
TEXT
  8
0
  6
CONTINUOUS
 62
    40
  5
40A
 10
446.3926
 20
1729.4661
 30
0.0
 40
3.0
  1
BENT
  7
MONOTXT
210
0.0
220
0.0
230
1.0
  0
TEXT
  8
0
  6
CONTINUOUS
 62
    40
  5
40B
 10
446.3926
 20
1721.6736
 30
0.0
 40
3.0
  1
BENT
  7
MONOTXT
210
0.0
220
0.0
230
1.0
  0
TEXT
  8
0
  6
CONTINUOUS
 62
    40
  5
40C
 10
446.3926
 20
1712.907
 30
0.0
 40
3.0
  1
BENT
  7
MONOTXT
210
0.0
220
0.0
230
1.0
  0
TEXT
  8
0
  6
CONTINUOUS
 62
    40
  5
40D
 10
446.3926
 20
1704.4651
 30
0.0
 40
3.0
  1
BENT
  7
MONOTXT
210
0.0
220
0.0
230
1.0
  0
TEXT
  8
0
  6
CONTINUOUS
 62
    40
  5
40E
 10
446.3926
 20
1696.3479
 30
0.0
 40
3.0
  1
BENT
  7
MONOTXT
210
0.0
220
0.0
230
1.0
  0
TEXT
  8
0
  6
CONTINUOUS
 62
    40
  5
40F
 10
446.3926
 20
1689.2047
 30
0.0
 40
3.0
  1
BENT
  7
MONOTXT
210
0.0
220
0.0
230
1.0
  0
TEXT
  8
0
  6
CONTINUOUS
 62
    40
  5
410
 10
446.3926
 20
1679.7887
 30
0.0
 40
3.0
  1
BENT
  7
MONOTXT
210
0.0
220
0.0
230
1.0
  0
TEXT
  8
0
  6
CONTINUOUS
 62
    40
  5
411
 10
446.3926
 20
1671.9962
 30
0.0
 40
3.0
  1
BENT
  7
MONOTXT
210
0.0
220
0.0
230
1.0
  0
TEXT
  8
0
  6
CONTINUOUS
 62
    40
  5
412
 10
448.3417
 20
1663.879
 30
0.0
 40
3.0
  1
STR.
  7
MONOTXT
210
0.0
220
0.0
230
1.0
  0
TEXT
  8
0
  6
CONTINUOUS
 62
    40
  5
413
 10
446.3926
 20
1655.437
 30
0.0
 40
3.0
  1
BENT
  7
MONOTXT
210
0.0
220
0.0
230
1.0
  0
TEXT
  8
0
  6
CONTINUOUS
 62
    40
  5
414
 10
446.3926
 20
1640.5014
 30
0.0
 40
3.0
  1
BENT
  7
MONOTXT
210
0.0
220
0.0
230
1.0
  0
TEXT
  8
0
  6
CONTINUOUS
 62
    40
  5
415
 10
446.3926
 20
1631.0854
 30
0.0
 40
3.0
  1
BENT
  7
MONOTXT
210
0.0
220
0.0
230
1.0
  0
TEXT
  8
0
  6
CONTINUOUS
 62
    40
  5
416
 10
446.3926
 20
1621.3447
 30
0.0
 40
3.0
  1
BENT
  7
MONOTXT
210
0.0
220
0.0
230
1.0
  0
TEXT
  8
0
  6
CONTINUOUS
 62
    40
  5
417
 10
446.3926
 20
1614.2015
 30
0.0
 40
3.0
  1
BENT
  7
MONOTXT
210
0.0
220
0.0
230
1.0
  0
TEXT
  8
0
  6
CONTINUOUS
 62
    40
  5
418
 10
446.3926
 20
1607.0584
 30
0.0
 40
3.0
  1
BENT
  7
MONOTXT
210
0.0
220
0.0
230
1.0
  0
TEXT
  8
0
  6
CONTINUOUS
 62
    40
  5
419
 10
446.3926
 20
1599.2658
 30
0.0
 40
3.0
  1
BENT
  7
MONOTXT
210
0.0
220
0.0
230
1.0
  0
TEXT
  8
0
  6
CONTINUOUS
 62
    40
  5
41A
 10
446.3926
 20
1590.4993
 30
0.0
 40
3.0
  1
BENT
  7
MONOTXT
210
0.0
220
0.0
230
1.0
  0
TEXT
  8
0
  6
CONTINUOUS
 62
    40
  5
41B
 10
446.3926
 20
1582.7067
 30
0.0
 40
3.0
  1
BENT
  7
MONOTXT
210
0.0
220
0.0
230
1.0
  0
TEXT
  8
0
  6
CONTINUOUS
 62
    40
  5
41C
 10
446.3926
 20
1566.4723
 30
0.0
 40
3.0
  1
BENT
  7
MONOTXT
210
0.0
220
0.0
230
1.0
  0
TEXT
  8
0
  6
CONTINUOUS
 62
    40
  5
41D
 10
446.3926
 20
1549.5884
 30
0.0
 40
3.0
  1
BENT
  7
MONOTXT
210
0.0
220
0.0
230
1.0
  0
TEXT
  8
0
  6
CONTINUOUS
 62
    40
  5
41E
 10
446.3926
 20
1533.6787
 30
0.0
 40
3.0
  1
STR.
  7
MONOTXT
210
0.0
220
0.0
230
1.0
  0
TEXT
  8
0
  6
CONTINUOUS
 62
    40
  5
41F
 10
446.3926
 20
1524.5874
 30
0.0
 40
3.0
  1
STR.
  7
MONOTXT
210
0.0
220
0.0
230
1.0
  0
TEXT
  8
0
  6
CONTINUOUS
 62
    40
  5
420
 10
446.3926
 20
1516.4702
 30
0.0
 40
3.0
  1
STR.
  7
MONOTXT
210
0.0
220
0.0
230
1.0
  0
TEXT
  8
0
  6
CONTINUOUS
 62
    40
  5
421
 10
446.3926
 20
1508.6776
 30
0.0
 40
3.0
  1
BENT
  7
MONOTXT
210
0.0
220
0.0
230
1.0
  0
TEXT
  8
0
  6
CONTINUOUS
 62
    40
  5
422
 10
446.3926
 20
1500.2357
 30
0.0
 40
3.0
  1
BENT
  7
MONOTXT
210
0.0
220
0.0
230
1.0
  0
TEXT
  8
0
  6
CONTINUOUS
 62
    40
  5
423
 10
446.3926
 20
1491.4691
 30
0.0
 40
3.0
  1
STR.
  7
MONOTXT
210
0.0
220
0.0
230
1.0
  0
TEXT
  8
0
  6
CONTINUOUS
 62
    40
  5
424
 10
446.3926
 20
1483.3519
 30
0.0
 40
3.0
  1
STR.
  7
MONOTXT
210
0.0
220
0.0
230
1.0
  0
TEXT
  8
0
  6
CONTINUOUS
 62
    40
  5
425
 10
446.3926
 20
1475.5593
 30
0.0
 40
3.0
  1
STR.
  7
MONOTXT
210
0.0
220
0.0
230
1.0
  0
TEXT
  8
0
  6
CONTINUOUS
 62
    40
  5
426
 10
446.3926
 20
1467.7668
 30
0.0
 40
3.0
  1
STR.
  7
MONOTXT
210
0.0
220
0.0
230
1.0
  0
TEXT
  8
0
  6
CONTINUOUS
 62
    40
  5
427
 10
446.3926
 20
1459.6496
 30
0.0
 40
3.0
  1
STR.
  7
MONOTXT
210
0.0
220
0.0
230
1.0
  0
TEXT
  8
0
  6
CONTINUOUS
 62
    40
  5
428
 10
446.3926
 20
1451.5324
 30
0.0
 40
3.0
  1
STR.
  7
MONOTXT
210
0.0
220
0.0
230
1.0
  0
TEXT
  8
0
  6
CONTINUOUS
 62
    40
  5
429
 10
446.3926
 20
1443.0905
 30
0.0
 40
3.0
  1
STR.
  7
MONOTXT
210
0.0
220
0.0
230
1.0
  0
TEXT
  8
0
  6
CONTINUOUS
 62
    40
  5
42A
 10
446.3926
 20
1435.6226
 30
0.0
 40
3.0
  1
BENT
  7
MONOTXT
210
0.0
220
0.0
230
1.0
  0
TEXT
  8
0
  6
CONTINUOUS
 62
    40
  5
42B
 10
446.3926
 20
1426.2066
 30
0.0
 40
3.0
  1
STR.
  7
MONOTXT
210
0.0
220
0.0
230
1.0
  0
TEXT
  8
0
  6
CONTINUOUS
 62
    40
  5
42C
 10
446.3926
 20
1418.0894
 30
0.0
 40
3.0
  1
BENT
  7
MONOTXT
210
0.0
220
0.0
230
1.0
  0
TEXT
  8
0
  6
CONTINUOUS
 62
    40
  5
42D
 10
446.3926
 20
1410.2969
 30
0.0
 40
3.0
  1
BENT
  7
MONOTXT
210
0.0
220
0.0
230
1.0
  0
TEXT
  8
0
  6
CONTINUOUS
 62
    40
  5
42E
 10
446.3926
 20
1401.855
 30
0.0
 40
3.0
  1
BENT
  7
MONOTXT
210
0.0
220
0.0
230
1.0
  0
TEXT
  8
0
  6
CONTINUOUS
 62
    40
  5
42F
 10
446.3926
 20
1393.7377
 30
0.0
 40
3.0
  1
BENT
  7
MONOTXT
210
0.0
220
0.0
230
1.0
  0
TEXT
  8
0
  6
CONTINUOUS
 62
    40
  5
430
 10
446.3926
 20
1385.2958
 30
0.0
 40
3.0
  1
BENT
  7
MONOTXT
210
0.0
220
0.0
230
1.0
  0
TEXT
  8
0
  6
CONTINUOUS
 62
    40
  5
431
 10
446.3926
 20
1377.5033
 30
0.0
 40
3.0
  1
BENT
  7
MONOTXT
210
0.0
220
0.0
230
1.0
  0
TEXT
  8
0
  6
CONTINUOUS
 62
    40
  5
432
 10
446.3926
 20
1369.3861
 30
0.0
 40
3.0
  1
BENT
  7
MONOTXT
210
0.0
220
0.0
230
1.0
  0
TEXT
  8
0
  6
CONTINUOUS
 62
    40
  5
433
 10
446.3926
 20
1361.2688
 30
0.0
 40
3.0
  1
BENT
  7
MONOTXT
210
0.0
220
0.0
230
1.0
  0
TEXT
  8
0
  6
CONTINUOUS
 62
    40
  5
434
 10
446.3926
 20
1352.5022
 30
0.0
 40
3.0
  1
BENT
  7
MONOTXT
210
0.0
220
0.0
230
1.0
  0
TEXT
  8
0
  6
CONTINUOUS
 62
    40
  5
435
 10
446.3926
 20
1344.7097
 30
0.0
 40
3.0
  1
BENT
  7
MONOTXT
210
0.0
220
0.0
230
1.0
  0
TEXT
  8
0
  6
CONTINUOUS
 62
    40
  5
436
 10
446.3926
 20
1336.2678
 30
0.0
 40
3.0
  1
BENT
  7
MONOTXT
210
0.0
220
0.0
230
1.0
  0
TEXT
  8
0
  6
CONTINUOUS
 62
    40
  5
437
 10
446.3926
 20
1328.8
 30
0.0
 40
3.0
  1
BENT
  7
MONOTXT
210
0.0
220
0.0
230
1.0
  0
TEXT
  8
0
  6
CONTINUOUS
 62
    40
  5
438
 10
446.3926
 20
1312.5655
 30
0.0
 40
3.0
  1
BENT
  7
MONOTXT
210
0.0
220
0.0
230
1.0
  0
TEXT
  8
0
  6
CONTINUOUS
 62
    40
  5
439
 10
446.3926
 20
1302.8248
 30
0.0
 40
3.0
  1
BENT
  7
MONOTXT
210
0.0
220
0.0
230
1.0
  0
TEXT
  8
0
  6
CONTINUOUS
 62
    40
  5
43A
 10
446.3926
 20
1295.6817
 30
0.0
 40
3.0
  1
BENT
  7
MONOTXT
210
0.0
220
0.0
230
1.0
  0
TEXT
  8
0
  6
CONTINUOUS
 62
    40
  5
43B
 10
446.3926
 20
1287.2398
 30
0.0
 40
3.0
  1
BENT
  7
MONOTXT
210
0.0
220
0.0
230
1.0
  0
TEXT
  8
0
  6
CONTINUOUS
 62
    40
  5
43C
 10
446.3926
 20
1279.1225
 30
0.0
 40
3.0
  1
BENT
  7
MONOTXT
210
0.0
220
0.0
230
1.0
  0
LINE
  8
0
  6
CONTINUOUS
 62
     7
  5
43D
 10
329.6929
 20
1839.984
 30
0.0
 11
146.4328
 21
1839.984
 31
0.0
  0
LINE
  8
0
  6
CONTINUOUS
 62
     7
  5
43E
 10
146.4328
 20
1831.8028
 30
0.0
 11
329.6929
 21
1831.8028
 31
0.0
  0
LINE
  8
0
  6
CONTINUOUS
 62
     7
  5
43F
 10
460.5929
 20
1839.984
 30
0.0
 11
496.3139
 21
1839.984
 31
0.0
  0
LINE
  8
0
  6
CONTINUOUS
 62
     7
  5
440
 10
460.5929
 20
1831.8028
 30
0.0
 11
496.5905
 21
1831.8028
 31
0.0
  0
LINE
  8
0
  6
CONTINUOUS
 62
    40
  5
441
 10
496.3139
 20
1839.984
 30
0.0
 11
496.5905
 21
1839.984
 31
0.0
  0
TEXT
  8
0
  6
CONTINUOUS
 62
    40
  5
442
 10
150.8151
 20
1890.2231
 30
0.0
 40
3.0
  1
96"
  7
MONOTXT
210
0.0
220
0.0
230
1.0
  0
TEXT
  8
0
  6
CONTINUOUS
 62
    40
  5
443
 10
150.2649
 20
1834.2282
 30
0.0
 40
3.0
  1
108"
  7
MONOTXT
210
0.0
220
0.0
230
1.0
  0
TEXT
  8
0
  6
CONTINUOUS
 62
    40
  5
444
 10
171.8792
 20
1834.7508
 30
0.0
 40
3.0
  1
2:1
  7
MONOTXT
210
0.0
220
0.0
230
1.0
  0
TEXT
  8
0
  6
CONTINUOUS
 62
    40
  5
445
 10
268.9693
 20
1834.7508
 30
0.0
 40
3.0
  1
33'-9"
  7
MONOTXT
210
0.0
220
0.0
230
1.0
  0
TEXT
  8
0
  6
CONTINUOUS
 62
    40
  5
446
 10
319.3446
 20
1834.4024
 30
0.0
 40
3.0
  1
12"
  7
MONOTXT
210
0.0
220
0.0
230
1.0
  0
LINE
  8
0
  6
CONTINUOUS
 62
     7
  5
447
 10
329.6929
 20
1514.3702
 30
0.0
 11
146.4328
 21
1514.3702
 31
0.0
  0
LINE
  8
0
  6
CONTINUOUS
 62
     7
  5
448
 10
146.4328
 20
1506.1889
 30
0.0
 11
329.6929
 21
1506.1889
 31
0.0
  0
TEXT
  8
0
  6
CONTINUOUS
 62
    40
  5
449
 10
151.3892
 20
1508.992
 30
0.0
 40
3.0
  1
120"
  7
MONOTXT
210
0.0
220
0.0
230
1.0
  0
TEXT
  8
0
  6
CONTINUOUS
 62
    40
  5
44A
 10
171.9572
 20
1508.992
 30
0.0
 40
3.0
  1
2:1
  7
MONOTXT
210
0.0
220
0.0
230
1.0
  0
TEXT
  8
0
  6
CONTINUOUS
 62
    40
  5
44B
 10
269.841
 20
1509.0183
 30
0.0
 40
3.0
  1
37'-4"
  7
MONOTXT
210
0.0
220
0.0
230
1.0
  0
TEXT
  8
0
  6
CONTINUOUS
 62
    40
  5
44C
 10
318.3375
 20
1508.8027
 30
0.0
 40
3.0
  1
14"
  7
MONOTXT
210
0.0
220
0.0
230
1.0
  0
LINE
  8
0
  6
CONTINUOUS
 62
     7
  5
44D
 10
460.5929
 20
1514.3702
 30
0.0
 11
496.5905
 21
1514.3702
 31
0.0
  0
LINE
  8
0
  6
CONTINUOUS
 62
     7
  5
44E
 10
460.5929
 20
1506.1889
 30
0.0
 11
496.5905
 21
1506.1889
 31
0.0
  0
TEXT
  8
0
  6
CONTINUOUS
 62
    40
  5
44F
 10
484.8833
 20
1508.8945
 30
0.0
 40
3.0
  1
2492
  7
MONOTXT
210
0.0
220
0.0
230
1.0
  0
TEXT
  8
0
  6
CONTINUOUS
 62
    40
  5
450
 10
483.0872
 20
1834.4398
 30
0.0
 40
3.0
  1
1927
  7
MONOTXT
210
0.0
220
0.0
230
1.0
  0
TEXT
  8
0
  6
CONTINUOUS
 62
    40
  5
451
 10
682.8209
 20
1899.6034
 30
0.0
 40
3.0
  1
K6
  7
MONOTXT
210
0.0
220
0.0
230
1.0
  0
TEXT
  8
0
  6
CONTINUOUS
 62
    40
  5
452
 10
682.6376
 20
1890.9948
 30
0.0
 40
3.0
  1
K7
  7
MONOTXT
210
0.0
220
0.0
230
1.0
  0
TEXT
  8
0
  6
CONTINUOUS
 62
    40
  5
453
 10
682.6376
 20
1883.1188
 30
0.0
 40
3.0
  1
K8
  7
MONOTXT
210
0.0
220
0.0
230
1.0
  0
TEXT
  8
0
  6
CONTINUOUS
 62
    40
  5
454
 10
682.6376
 20
1875.0596
 30
0.0
 40
3.0
  1
K9
  7
MONOTXT
210
0.0
220
0.0
230
1.0
  0
TEXT
  8
0
  6
CONTINUOUS
 62
    40
  5
455
 10
681.933
 20
1867.3668
 30
0.0
 40
3.0
  1
KI0
  7
MONOTXT
210
0.0
220
0.0
230
1.0
  0
TEXT
  8
0
  6
CONTINUOUS
 62
    40
  5
456
 10
681.7213
 20
1858.0255
 30
0.0
 40
3.0
  1
KII
  7
MONOTXT
210
0.0
220
0.0
230
1.0
  0
TEXT
  8
0
  6
CONTINUOUS
 62
    40
  5
457
 10
681.7213
 20
1849.9664
 30
0.0
 40
3.0
  1
H2
  7
MONOTXT
210
0.0
220
0.0
230
1.0
  0
TEXT
  8
0
  6
CONTINUOUS
 62
    40
  5
458
 10
682.2711
 20
1842.0904
 30
0.0
 40
3.0
  1
PI
  7
MONOTXT
210
0.0
220
0.0
230
1.0
  0
TEXT
  8
0
  6
CONTINUOUS
 62
    40
  5
459
 10
684.2869
 20
1833.8481
 30
0.0
 40
3.0
  1
THRU
  7
MONOTXT
210
0.0
220
0.0
230
1.0
  0
TEXT
  8
0
  6
CONTINUOUS
 62
    40
  5
45A
 10
681.9046
 20
1825.6058
 30
0.0
 40
3.0
  1
PI2
  7
MONOTXT
210
0.0
220
0.0
230
1.0
  0
TEXT
  8
0
  6
CONTINUOUS
 62
    40
  5
45B
 10
682.0879
 20
1809.4875
 30
0.0
 40
3.0
  1
JI
  7
MONOTXT
210
0.0
220
0.0
230
1.0
  0
TEXT
  8
0
  6
CONTINUOUS
 62
    40
  5
45C
 10
682.0879
 20
1801.6115
 30
0.0
 40
3.0
  1
J2
  7
MONOTXT
210
0.0
220
0.0
230
1.0
  0
TEXT
  8
0
  6
CONTINUOUS
 62
    40
  5
45D
 10
682.0879
 20
1793.0029
 30
0.0
 40
3.0
  1
J3
  7
MONOTXT
210
0.0
220
0.0
230
1.0
  0
TEXT
  8
0
  6
CONTINUOUS
 62
    40
  5
45E
 10
682.0879
 20
1784.9437
 30
0.0
 40
3.0
  1
DI
  7
MONOTXT
210
0.0
220
0.0
230
1.0
  0
TEXT
  8
0
  6
CONTINUOUS
 62
    40
  5
45F
 10
682.0879
 20
1777.0678
 30
0.0
 40
3.0
  1
D2
  7
MONOTXT
210
0.0
220
0.0
230
1.0
  0
TEXT
  8
0
  6
CONTINUOUS
 62
    40
  5
460
 10
682.2711
 20
1768.6423
 30
0.0
 40
3.0
  1
EI
  7
MONOTXT
210
0.0
220
0.0
230
1.0
  0
TEXT
  8
0
  6
CONTINUOUS
 62
    40
  5
461
 10
682.2711
 20
1760.5831
 30
0.0
 40
3.0
  1
E2
  7
MONOTXT
210
0.0
220
0.0
230
1.0
  0
TEXT
  8
0
  6
CONTINUOUS
 62
    40
  5
462
 10
682.8307
 20
1752.5922
 30
0.0
 40
3.0
  1
E3
  7
MONOTXT
210
0.0
220
0.0
230
1.0
  0
TEXT
  8
0
  6
CONTINUOUS
 62
    40
  5
463
 10
682.3967
 20
1745.4382
 30
0.0
 40
3.0
  1
E4
  7
MONOTXT
210
0.0
220
0.0
230
1.0
  0
TEXT
  8
0
  6
CONTINUOUS
 62
    40
  5
464
 10
682.0879
 20
1737.871
 30
0.0
 40
3.0
  1
E5
  7
MONOTXT
210
0.0
220
0.0
230
1.0
  0
TEXT
  8
0
  6
CONTINUOUS
 62
    40
  5
465
 10
681.7213
 20
1729.2624
 30
0.0
 40
3.0
  1
E6
  7
MONOTXT
210
0.0
220
0.0
230
1.0
  0
TEXT
  8
0
  6
CONTINUOUS
 62
    40
  5
466
 10
682.2133
 20
1721.5802
 30
0.0
 40
3.0
  1
E7
  7
MONOTXT
210
0.0
220
0.0
230
1.0
  0
TEXT
  8
0
  6
CONTINUOUS
 62
    40
  5
467
 10
681.9046
 20
1680.0527
 30
0.0
 40
3.0
  1
F
  7
MONOTXT
210
0.0
220
0.0
230
1.0
  0
TEXT
  8
0
  6
CONTINUOUS
 62
    40
  5
468
 10
681.7213
 20
1671.6273
 30
0.0
 40
3.0
  1
G
  7
MONOTXT
210
0.0
220
0.0
230
1.0
  0
TEXT
  8
0
  6
CONTINUOUS
 62
    40
  5
469
 10
681.7213
 20
1663.5681
 30
0.0
 40
3.0
  1
H
  7
MONOTXT
210
0.0
220
0.0
230
1.0
  0
TEXT
  8
0
  6
CONTINUOUS
 62
    40
  5
46A
 10
681.7213
 20
1647.0835
 30
0.0
 40
3.0
  1
VI
  7
MONOTXT
210
0.0
220
0.0
230
1.0
  0
TEXT
  8
0
  6
CONTINUOUS
 62
    40
  5
46B
 10
681.7213
 20
1638.8412
 30
0.0
 40
3.0
  1
V2
  7
MONOTXT
210
0.0
220
0.0
230
1.0
  0
TEXT
  8
0
  6
CONTINUOUS
 62
    40
  5
46C
 10
681.7213
 20
1630.5989
 30
0.0
 40
3.0
  1
V3
  7
MONOTXT
210
0.0
220
0.0
230
1.0
  0
TEXT
  8
0
  6
CONTINUOUS
 62
    40
  5
46D
 10
681.9046
 20
1622.5398
 30
0.0
 40
3.0
  1
V4
  7
MONOTXT
210
0.0
220
0.0
230
1.0
  0
TEXT
  8
0
  6
CONTINUOUS
 62
    40
  5
46E
 10
681.9046
 20
1614.2975
 30
0.0
 40
3.0
  1
V5
  7
MONOTXT
210
0.0
220
0.0
230
1.0
  0
TEXT
  8
0
  6
CONTINUOUS
 62
    40
  5
46F
 10
681.7213
 20
1606.2383
 30
0.0
 40
3.0
  1
V6
  7
MONOTXT
210
0.0
220
0.0
230
1.0
  0
TEXT
  8
0
  6
CONTINUOUS
 62
    40
  5
470
 10
682.0879
 20
1597.996
 30
0.0
 40
3.0
  1
V7
  7
MONOTXT
210
0.0
220
0.0
230
1.0
  0
TEXT
  8
0
  6
CONTINUOUS
 62
    40
  5
471
 10
681.7213
 20
1589.7537
 30
0.0
 40
3.0
  1
V8
  7
MONOTXT
210
0.0
220
0.0
230
1.0
  0
TEXT
  8
0
  6
CONTINUOUS
 62
    40
  5
472
 10
681.7213
 20
1581.6945
 30
0.0
 40
3.0
  1
V9
  7
MONOTXT
210
0.0
220
0.0
230
1.0
  0
TEXT
  8
0
  6
CONTINUOUS
 62
    40
  5
473
 10
681.8663
 20
1565.8388
 30
0.0
 40
3.0
  1
VII
  7
MONOTXT
210
0.0
220
0.0
230
1.0
  0
TEXT
  8
0
  6
CONTINUOUS
 62
    40
  5
474
 10
681.9046
 20
1557.1508
 30
0.0
 40
3.0
  1
VI2
  7
MONOTXT
210
0.0
220
0.0
230
1.0
  0
TEXT
  8
0
  6
CONTINUOUS
 62
    40
  5
475
 10
681.7213
 20
1540.8493
 30
0.0
 40
3.0
  1
VI4
  7
MONOTXT
210
0.0
220
0.0
230
1.0
  0
TEXT
  8
0
  6
CONTINUOUS
 62
    40
  5
476
 10
681.7213
 20
1573.6354
 30
0.0
 40
3.0
  1
VI0
  7
MONOTXT
210
0.0
220
0.0
230
1.0
  0
TEXT
  8
0
  6
CONTINUOUS
 62
    40
  5
477
 10
682.0879
 20
1549.0916
 30
0.0
 40
3.0
  1
VI3
  7
MONOTXT
210
0.0
220
0.0
230
1.0
  0
TEXT
  8
0
  6
CONTINUOUS
 62
    40
  5
478
 10
681.9046
 20
1524.5479
 30
0.0
 40
3.0
  1
KI
  7
MONOTXT
210
0.0
220
0.0
230
1.0
  0
TEXT
  8
0
  6
CONTINUOUS
 62
    40
  5
479
 10
681.9046
 20
1516.3056
 30
0.0
 40
3.0
  1
K2
  7
MONOTXT
210
0.0
220
0.0
230
1.0
  0
TEXT
  8
0
  6
CONTINUOUS
 62
    40
  5
47A
 10
681.7213
 20
1508.0633
 30
0.0
 40
3.0
  1
K3
  7
MONOTXT
210
0.0
220
0.0
230
1.0
  0
TEXT
  8
0
  6
CONTINUOUS
 62
    40
  5
47B
 10
681.7213
 20
1499.821
 30
0.0
 40
3.0
  1
K4
  7
MONOTXT
210
0.0
220
0.0
230
1.0
  0
TEXT
  8
0
  6
CONTINUOUS
 62
    40
  5
47C
 10
681.7213
 20
1491.5787
 30
0.0
 40
3.0
  1
K5
  7
MONOTXT
210
0.0
220
0.0
230
1.0
  0
TEXT
  8
0
  6
CONTINUOUS
 62
    40
  5
47D
 10
681.9046
 20
1483.5195
 30
0.0
 40
3.0
  1
K6
  7
MONOTXT
210
0.0
220
0.0
230
1.0
  0
TEXT
  8
0
  6
CONTINUOUS
 62
    40
  5
47E
 10
682.2328
 20
1475.2955
 30
0.0
 40
3.0
  1
K7
  7
MONOTXT
210
0.0
220
0.0
230
1.0
  0
TEXT
  8
0
  6
CONTINUOUS
 62
    40
  5
47F
 10
681.7213
 20
1467.2181
 30
0.0
 40
3.0
  1
K8
  7
MONOTXT
210
0.0
220
0.0
230
1.0
  0
TEXT
  8
0
  6
CONTINUOUS
 62
    40
  5
480
 10
681.7213
 20
1459.1589
 30
0.0
 40
3.0
  1
K9
  7
MONOTXT
210
0.0
220
0.0
230
1.0
  0
TEXT
  8
0
  6
CONTINUOUS
 62
    40
  5
481
 10
681.7213
 20
1450.5503
 30
0.0
 40
3.0
  1
KI0
  7
MONOTXT
210
0.0
220
0.0
230
1.0
  0
TEXT
  8
0
  6
CONTINUOUS
 62
    40
  5
482
 10
681.3548
 20
1442.6743
 30
0.0
 40
3.0
  1
KII
  7
MONOTXT
210
0.0
220
0.0
230
1.0
  0
TEXT
  8
0
  6
CONTINUOUS
 62
    40
  5
483
 10
681.7213
 20
1434.432
 30
0.0
 40
3.0
  1
KI2
  7
MONOTXT
210
0.0
220
0.0
230
1.0
  0
TEXT
  8
0
  6
CONTINUOUS
 62
    40
  5
484
 10
681.9046
 20
1426.1897
 30
0.0
 40
3.0
  1
KI3
  7
MONOTXT
210
0.0
220
0.0
230
1.0
  0
TEXT
  8
0
  6
CONTINUOUS
 62
    40
  5
485
 10
682.0879
 20
1410.4451
 30
0.0
 40
3.0
  1
PI
  7
MONOTXT
210
0.0
220
0.0
230
1.0
  0
TEXT
  8
0
  6
CONTINUOUS
 62
    40
  5
486
 10
681.7213
 20
1402.237
 30
0.0
 40
3.0
  1
THRU
  7
MONOTXT
210
0.0
220
0.0
230
1.0
  0
TEXT
  8
0
  6
CONTINUOUS
 62
    40
  5
487
 10
682.0879
 20
1393.5257
 30
0.0
 40
3.0
  1
PI4
  7
MONOTXT
210
0.0
220
0.0
230
1.0
  0
TEXT
  8
0
  6
CONTINUOUS
 62
    40
  5
488
 10
681.9046
 20
1377.2243
 30
0.0
 40
3.0
  1
JI
  7
MONOTXT
210
0.0
220
0.0
230
1.0
  0
TEXT
  8
0
  6
CONTINUOUS
 62
    40
  5
489
 10
681.7213
 20
1368.982
 30
0.0
 40
3.0
  1
J2
  7
MONOTXT
210
0.0
220
0.0
230
1.0
  0
TEXT
  8
0
  6
CONTINUOUS
 62
    40
  5
48A
 10
682.0879
 20
1360.7397
 30
0.0
 40
3.0
  1
J3
  7
MONOTXT
210
0.0
220
0.0
230
1.0
  0
TEXT
  8
0
  6
CONTINUOUS
 62
    40
  5
48B
 10
681.7213
 20
1353.1495
 30
0.0
 40
3.0
  1
J4
  7
MONOTXT
210
0.0
220
0.0
230
1.0
  0
TEXT
  8
0
  6
CONTINUOUS
 62
    40
  5
48C
 10
692.7167
 20
1353.5158
 30
0.0
 40
3.0
  1
5
  7
MONOTXT
210
0.0
220
0.0
230
1.0
  0
TEXT
  8
0
  6
CONTINUOUS
 62
    40
  5
48D
 10
704.2618
 20
1353.5158
 30
0.0
 40
3.0
  1
4
  7
MONOTXT
210
0.0
220
0.0
230
1.0
  0
TEXT
  8
0
  6
CONTINUOUS
 62
    40
  5
48E
 10
692.7167
 20
1360.9228
 30
0.0
 40
3.0
  1
5
  7
MONOTXT
210
0.0
220
0.0
230
1.0
  0
TEXT
  8
0
  6
CONTINUOUS
 62
    40
  5
48F
 10
692.7167
 20
1368.982
 30
0.0
 40
3.0
  1
5
  7
MONOTXT
210
0.0
220
0.0
230
1.0
  0
TEXT
  8
0
  6
CONTINUOUS
 62
    40
  5
490
 10
692.7167
 20
1376.8579
 30
0.0
 40
3.0
  1
5
  7
MONOTXT
210
0.0
220
0.0
230
1.0
  0
TEXT
  8
0
  6
CONTINUOUS
 62
    40
  5
491
 10
704.2618
 20
1361.2891
 30
0.0
 40
3.0
  1
4
  7
MONOTXT
210
0.0
220
0.0
230
1.0
  0
TEXT
  8
0
  6
CONTINUOUS
 62
    40
  5
492
 10
704.2618
 20
1369.5314
 30
0.0
 40
3.0
  1
4
  7
MONOTXT
210
0.0
220
0.0
230
1.0
  0
TEXT
  8
0
  6
CONTINUOUS
 62
    40
  5
493
 10
704.2618
 20
1377.2243
 30
0.0
 40
3.0
  1
4
  7
MONOTXT
210
0.0
220
0.0
230
1.0
  0
TEXT
  8
0
  6
CONTINUOUS
 62
    40
  5
494
 10
692.7167
 20
1393.7089
 30
0.0
 40
3.0
  1
5
  7
MONOTXT
210
0.0
220
0.0
230
1.0
  0
TEXT
  8
0
  6
CONTINUOUS
 62
    40
  5
495
 10
692.7167
 20
1410.4451
 30
0.0
 40
3.0
  1
5
  7
MONOTXT
210
0.0
220
0.0
230
1.0
  0
TEXT
  8
0
  6
CONTINUOUS
 62
    40
  5
496
 10
702.7957
 20
1427.655
 30
0.0
 40
3.0
  1
2
  7
MONOTXT
210
0.0
220
0.0
230
1.0
  0
TEXT
  8
0
  6
CONTINUOUS
 62
    40
  5
497
 10
702.7957
 20
1410.2398
 30
0.0
 40
3.0
  1
2
  7
MONOTXT
210
0.0
220
0.0
230
1.0
  0
TEXT
  8
0
  6
CONTINUOUS
 62
    40
  5
498
 10
702.7957
 20
1394.2584
 30
0.0
 40
3.0
  1
2
  7
MONOTXT
210
0.0
220
0.0
230
1.0
  0
TEXT
  8
0
  6
CONTINUOUS
 62
    40
  5
499
 10
691.6171
 20
1426.7392
 30
0.0
 40
3.0
  1
11
  7
MONOTXT
210
0.0
220
0.0
230
1.0
  0
TEXT
  8
0
  6
CONTINUOUS
 62
    40
  5
49A
 10
691.6171
 20
1434.9815
 30
0.0
 40
3.0
  1
11
  7
MONOTXT
210
0.0
220
0.0
230
1.0
  0
TEXT
  8
0
  6
CONTINUOUS
 62
    40
  5
49B
 10
702.0627
 20
1434.9815
 30
0.0
 40
3.0
  1
2
  7
MONOTXT
210
0.0
220
0.0
230
1.0
  0
TEXT
  8
0
  6
CONTINUOUS
 62
    40
  5
49C
 10
702.0627
 20
1442.4911
 30
0.0
 40
3.0
  1
2
  7
MONOTXT
210
0.0
220
0.0
230
1.0
  0
TEXT
  8
0
  6
CONTINUOUS
 62
    40
  5
49D
 10
702.0627
 20
1450.5503
 30
0.0
 40
3.0
  1
2
  7
MONOTXT
210
0.0
220
0.0
230
1.0
  0
TEXT
  8
0
  6
CONTINUOUS
 62
    40
  5
49E
 10
702.0627
 20
1458.9757
 30
0.0
 40
3.0
  1
2
  7
MONOTXT
210
0.0
220
0.0
230
1.0
  0
TEXT
  8
0
  6
CONTINUOUS
 62
    40
  5
49F
 10
702.0627
 20
1468.1339
 30
0.0
 40
3.0
  1
2
  7
MONOTXT
210
0.0
220
0.0
230
1.0
  0
TEXT
  8
0
  6
CONTINUOUS
 62
    40
  5
4A0
 10
702.0627
 20
1475.6435
 30
0.0
 40
3.0
  1
2
  7
MONOTXT
210
0.0
220
0.0
230
1.0
  0
TEXT
  8
0
  6
CONTINUOUS
 62
    40
  5
4A1
 10
702.0627
 20
1484.069
 30
0.0
 40
3.0
  1
2
  7
MONOTXT
210
0.0
220
0.0
230
1.0
  0
TEXT
  8
0
  6
CONTINUOUS
 62
    40
  5
4A2
 10
702.0627
 20
1491.3955
 30
0.0
 40
3.0
  1
2
  7
MONOTXT
210
0.0
220
0.0
230
1.0
  0
TEXT
  8
0
  6
CONTINUOUS
 62
    40
  5
4A3
 10
702.0627
 20
1500.1873
 30
0.0
 40
3.0
  1
2
  7
MONOTXT
210
0.0
220
0.0
230
1.0
  0
TEXT
  8
0
  6
CONTINUOUS
 62
    40
  5
4A4
 10
702.0627
 20
1507.8801
 30
0.0
 40
3.0
  1
2
  7
MONOTXT
210
0.0
220
0.0
230
1.0
  0
TEXT
  8
0
  6
CONTINUOUS
 62
    40
  5
4A5
 10
702.0627
 20
1516.6719
 30
0.0
 40
3.0
  1
2
  7
MONOTXT
210
0.0
220
0.0
230
1.0
  0
TEXT
  8
0
  6
CONTINUOUS
 62
    40
  5
4A6
 10
702.0627
 20
1524.3647
 30
0.0
 40
3.0
  1
2
  7
MONOTXT
210
0.0
220
0.0
230
1.0
  0
TEXT
  8
0
  6
CONTINUOUS
 62
    40
  5
4A7
 10
691.8004
 20
1442.8575
 30
0.0
 40
3.0
  1
10
  7
MONOTXT
210
0.0
220
0.0
230
1.0
  0
TEXT
  8
0
  6
CONTINUOUS
 62
    40
  5
4A8
 10
691.8004
 20
1450.9166
 30
0.0
 40
3.0
  1
10
  7
MONOTXT
210
0.0
220
0.0
230
1.0
  0
TEXT
  8
0
  6
CONTINUOUS
 62
    40
  5
4A9
 10
692.7167
 20
1458.9757
 30
0.0
 40
3.0
  1
9
  7
MONOTXT
210
0.0
220
0.0
230
1.0
  0
TEXT
  8
0
  6
CONTINUOUS
 62
    40
  5
4AA
 10
691.9837
 20
1467.0349
 30
0.0
 40
3.0
  1
9
  7
MONOTXT
210
0.0
220
0.0
230
1.0
  0
TEXT
  8
0
  6
CONTINUOUS
 62
    40
  5
4AB
 10
691.8004
 20
1475.4604
 30
0.0
 40
3.0
  1
8
  7
MONOTXT
210
0.0
220
0.0
230
1.0
  0
TEXT
  8
0
  6
CONTINUOUS
 62
    40
  5
4AC
 10
691.9837
 20
1483.8858
 30
0.0
 40
3.0
  1
8
  7
MONOTXT
210
0.0
220
0.0
230
1.0
  0
TEXT
  8
0
  6
CONTINUOUS
 62
    40
  5
4AD
 10
691.4339
 20
1491.7618
 30
0.0
 40
3.0
  1
7
  7
MONOTXT
210
0.0
220
0.0
230
1.0
  0
TEXT
  8
0
  6
CONTINUOUS
 62
    40
  5
4AE
 10
691.6171
 20
1499.821
 30
0.0
 40
3.0
  1
7
  7
MONOTXT
210
0.0
220
0.0
230
1.0
  0
TEXT
  8
0
  6
CONTINUOUS
 62
    40
  5
4AF
 10
691.4339
 20
1508.0633
 30
0.0
 40
3.0
  1
7
  7
MONOTXT
210
0.0
220
0.0
230
1.0
  0
TEXT
  8
0
  6
CONTINUOUS
 62
    40
  5
4B0
 10
691.8004
 20
1516.3056
 30
0.0
 40
3.0
  1
6
  7
MONOTXT
210
0.0
220
0.0
230
1.0
  0
TEXT
  8
0
  6
CONTINUOUS
 62
    40
  5
4B1
 10
691.8004
 20
1524.5479
 30
0.0
 40
3.0
  1
6
  7
MONOTXT
210
0.0
220
0.0
230
1.0
  0
TEXT
  8
0
  6
CONTINUOUS
 62
    40
  5
4B2
 10
702.0627
 20
1541.0325
 30
0.0
 40
3.0
  1
2
  7
MONOTXT
210
0.0
220
0.0
230
1.0
  0
TEXT
  8
0
  6
CONTINUOUS
 62
    40
  5
4B3
 10
702.0627
 20
1549.458
 30
0.0
 40
3.0
  1
2
  7
MONOTXT
210
0.0
220
0.0
230
1.0
  0
TEXT
  8
0
  6
CONTINUOUS
 62
    40
  5
4B4
 10
702.0627
 20
1558.2498
 30
0.0
 40
3.0
  1
2
  7
MONOTXT
210
0.0
220
0.0
230
1.0
  0
TEXT
  8
0
  6
CONTINUOUS
 62
    40
  5
4B5
 10
702.0627
 20
1566.3089
 30
0.0
 40
3.0
  1
2
  7
MONOTXT
210
0.0
220
0.0
230
1.0
  0
TEXT
  8
0
  6
CONTINUOUS
 62
    40
  5
4B6
 10
702.0627
 20
1573.8186
 30
0.0
 40
3.0
  1
2
  7
MONOTXT
210
0.0
220
0.0
230
1.0
  0
TEXT
  8
0
  6
CONTINUOUS
 62
    40
  5
4B7
 10
702.0627
 20
1582.7935
 30
0.0
 40
3.0
  1
2
  7
MONOTXT
210
0.0
220
0.0
230
1.0
  0
TEXT
  8
0
  6
CONTINUOUS
 62
    40
  5
4B8
 10
702.0627
 20
1590.4863
 30
0.0
 40
3.0
  1
2
  7
MONOTXT
210
0.0
220
0.0
230
1.0
  0
TEXT
  8
0
  6
CONTINUOUS
 62
    40
  5
4B9
 10
702.0627
 20
1599.2781
 30
0.0
 40
3.0
  1
2
  7
MONOTXT
210
0.0
220
0.0
230
1.0
  0
TEXT
  8
0
  6
CONTINUOUS
 62
    40
  5
4BA
 10
702.0627
 20
1607.7036
 30
0.0
 40
3.0
  1
2
  7
MONOTXT
210
0.0
220
0.0
230
1.0
  0
TEXT
  8
0
  6
CONTINUOUS
 62
    40
  5
4BB
 10
702.0627
 20
1614.2975
 30
0.0
 40
3.0
  1
2
  7
MONOTXT
210
0.0
220
0.0
230
1.0
  0
TEXT
  8
0
  6
CONTINUOUS
 62
    40
  5
4BC
 10
691.9837
 20
1541.0325
 30
0.0
 40
3.0
  1
11
  7
MONOTXT
210
0.0
220
0.0
230
1.0
  0
TEXT
  8
0
  6
CONTINUOUS
 62
    40
  5
4BD
 10
691.6171
 20
1550.2517
 30
0.0
 40
3.0
  1
11
  7
MONOTXT
210
0.0
220
0.0
230
1.0
  0
TEXT
  8
0
  6
CONTINUOUS
 62
    40
  5
4BE
 10
691.6171
 20
1558.555
 30
0.0
 40
3.0
  1
11
  7
MONOTXT
210
0.0
220
0.0
230
1.0
  0
TEXT
  8
0
  6
CONTINUOUS
 62
    40
  5
4BF
 10
691.8004
 20
1566.431
 30
0.0
 40
3.0
  1
10
  7
MONOTXT
210
0.0
220
0.0
230
1.0
  0
TEXT
  8
0
  6
CONTINUOUS
 62
    40
  5
4C0
 10
691.8004
 20
1574.2459
 30
0.0
 40
3.0
  1
10
  7
MONOTXT
210
0.0
220
0.0
230
1.0
  0
TEXT
  8
0
  6
CONTINUOUS
 62
    40
  5
4C1
 10
692.7167
 20
1581.084
 30
0.0
 40
3.0
  1
9
  7
MONOTXT
210
0.0
220
0.0
230
1.0
  0
TEXT
  8
0
  6
CONTINUOUS
 62
    40
  5
4C2
 10
692.7167
 20
1588.8989
 30
0.0
 40
3.0
  1
9
  7
MONOTXT
210
0.0
220
0.0
230
1.0
  0
TEXT
  8
0
  6
CONTINUOUS
 62
    40
  5
4C3
 10
691.8004
 20
1598.0571
 30
0.0
 40
3.0
  1
8
  7
MONOTXT
210
0.0
220
0.0
230
1.0
  0
TEXT
  8
0
  6
CONTINUOUS
 62
    40
  5
4C4
 10
691.8004
 20
1607.8257
 30
0.0
 40
3.0
  1
8
  7
MONOTXT
210
0.0
220
0.0
230
1.0
  0
TEXT
  8
0
  6
CONTINUOUS
 62
    40
  5
4C5
 10
691.4339
 20
1614.3585
 30
0.0
 40
3.0
  1
7
  7
MONOTXT
210
0.0
220
0.0
230
1.0
  0
TEXT
  8
0
  6
CONTINUOUS
 62
    40
  5
4C6
 10
691.4339
 20
1622.1734
 30
0.0
 40
3.0
  1
7
  7
MONOTXT
210
0.0
220
0.0
230
1.0
  0
TEXT
  8
0
  6
CONTINUOUS
 62
    40
  5
4C7
 10
691.8004
 20
1632.0031
 30
0.0
 40
3.0
  1
6
  7
MONOTXT
210
0.0
220
0.0
230
1.0
  0
TEXT
  8
0
  6
CONTINUOUS
 62
    40
  5
4C8
 10
691.8004
 20
1639.8181
 30
0.0
 40
3.0
  1
6
  7
MONOTXT
210
0.0
220
0.0
230
1.0
  0
TEXT
  8
0
  6
CONTINUOUS
 62
    40
  5
4C9
 10
693.6527
 20
1647.7623
 30
0.0
 40
3.0
  1
6
  7
MONOTXT
210
0.0
220
0.0
230
1.0
  0
TEXT
  8
0
  6
CONTINUOUS
 62
    40
  5
4CA
 10
702.0627
 20
1622.6008
 30
0.0
 40
3.0
  1
2
  7
MONOTXT
210
0.0
220
0.0
230
1.0
  0
TEXT
  8
0
  6
CONTINUOUS
 62
    40
  5
4CB
 10
702.0627
 20
1631.881
 30
0.0
 40
3.0
  1
2
  7
MONOTXT
210
0.0
220
0.0
230
1.0
  0
TEXT
  8
0
  6
CONTINUOUS
 62
    40
  5
4CC
 10
702.0627
 20
1639.2075
 30
0.0
 40
3.0
  1
2
  7
MONOTXT
210
0.0
220
0.0
230
1.0
  0
TEXT
  8
0
  6
CONTINUOUS
 62
    40
  5
4CD
 10
702.0627
 20
1647.9993
 30
0.0
 40
3.0
  1
2
  7
MONOTXT
210
0.0
220
0.0
230
1.0
  0
TEXT
  8
0
  6
CONTINUOUS
 62
    40
  5
4CE
 10
693.058
 20
1663.9456
 30
0.0
 40
3.0
  1
5
  7
MONOTXT
210
0.0
220
0.0
230
1.0
  0
TEXT
  8
0
  6
CONTINUOUS
 62
    40
  5
4CF
 10
702.0855
 20
1664.5633
 30
0.0
 40
3.0
  1
26
  7
MONOTXT
210
0.0
220
0.0
230
1.0
  0
TEXT
  8
0
  6
CONTINUOUS
 62
    40
  5
4D0
 10
693.1867
 20
1672.249
 30
0.0
 40
3.0
  1
5
  7
MONOTXT
210
0.0
220
0.0
230
1.0
  0
TEXT
  8
0
  6
CONTINUOUS
 62
    40
  5
4D1
 10
702.0855
 20
1672.3782
 30
0.0
 40
3.0
  1
4
  7
MONOTXT
210
0.0
220
0.0
230
1.0
  0
TEXT
  8
0
  6
CONTINUOUS
 62
    40
  5
4D2
 10
693.238
 20
1680.6816
 30
0.0
 40
3.0
  1
5
  7
MONOTXT
210
0.0
220
0.0
230
1.0
  0
TEXT
  8
0
  6
CONTINUOUS
 62
    40
  5
4D3
 10
702.5742
 20
1680.1932
 30
0.0
 40
3.0
  1
2
  7
MONOTXT
210
0.0
220
0.0
230
1.0
  0
TEXT
  8
0
  6
CONTINUOUS
 62
    40
  5
4D4
 10
692.9293
 20
1721.71
 30
0.0
 40
3.0
  1
5
  7
MONOTXT
210
0.0
220
0.0
230
1.0
  0
TEXT
  8
0
  6
CONTINUOUS
 62
    40
  5
4D5
 10
702.5742
 20
1721.2216
 30
0.0
 40
3.0
  1
1
  7
MONOTXT
210
0.0
220
0.0
230
1.0
  0
TEXT
  8
0
  6
CONTINUOUS
 62
    40
  5
4D6
 10
693.5467
 20
1729.8338
 30
0.0
 40
3.0
  1
5
  7
MONOTXT
210
0.0
220
0.0
230
1.0
  0
TEXT
  8
0
  6
CONTINUOUS
 62
    40
  5
4D7
 10
693.8554
 20
1737.9575
 30
0.0
 40
3.0
  1
5
  7
MONOTXT
210
0.0
220
0.0
230
1.0
  0
TEXT
  8
0
  6
CONTINUOUS
 62
    40
  5
4D8
 10
693.5467
 20
1745.6432
 30
0.0
 40
3.0
  1
5
  7
MONOTXT
210
0.0
220
0.0
230
1.0
  0
TEXT
  8
0
  6
CONTINUOUS
 62
    40
  5
4D9
 10
693.5467
 20
1752.2227
 30
0.0
 40
3.0
  1
5
  7
MONOTXT
210
0.0
220
0.0
230
1.0
  0
TEXT
  8
0
  6
CONTINUOUS
 62
    40
  5
4DA
 10
693.238
 20
1760.7846
 30
0.0
 40
3.0
  1
5
  7
MONOTXT
210
0.0
220
0.0
230
1.0
  0
TEXT
  8
0
  6
CONTINUOUS
 62
    40
  5
4DB
 10
693.5467
 20
1769.2173
 30
0.0
 40
3.0
  1
5
  7
MONOTXT
210
0.0
220
0.0
230
1.0
  0
TEXT
  8
0
  6
CONTINUOUS
 62
    40
  5
4DC
 10
702.5742
 20
1730.0133
 30
0.0
 40
3.0
  1
1
  7
MONOTXT
210
0.0
220
0.0
230
1.0
  0
TEXT
  8
0
  6
CONTINUOUS
 62
    40
  5
4DD
 10
702.5742
 20
1737.3398
 30
0.0
 40
3.0
  1
1
  7
MONOTXT
210
0.0
220
0.0
230
1.0
  0
TEXT
  8
0
  6
CONTINUOUS
 62
    40
  5
4DE
 10
702.5742
 20
1745.1548
 30
0.0
 40
3.0
  1
1
  7
MONOTXT
210
0.0
220
0.0
230
1.0
  0
TEXT
  8
0
  6
CONTINUOUS
 62
    40
  5
4DF
 10
702.5742
 20
1752.9697
 30
0.0
 40
3.0
  1
1
  7
MONOTXT
210
0.0
220
0.0
230
1.0
  0
TEXT
  8
0
  6
CONTINUOUS
 62
    40
  5
4E0
 10
702.5742
 20
1760.2962
 30
0.0
 40
3.0
  1
1
  7
MONOTXT
210
0.0
220
0.0
230
1.0
  0
TEXT
  8
0
  6
CONTINUOUS
 62
    40
  5
4E1
 10
702.5742
 20
1768.5996
 30
0.0
 40
3.0
  1
2
  7
MONOTXT
210
0.0
220
0.0
230
1.0
  0
TEXT
  8
0
  6
CONTINUOUS
 62
    40
  5
4E2
 10
704.5553
 20
1777.2621
 30
0.0
 40
3.0
  1
4
  7
MONOTXT
210
0.0
220
0.0
230
1.0
  0
TEXT
  8
0
  6
CONTINUOUS
 62
    40
  5
4E3
 10
702.5486
 20
1785.0519
 30
0.0
 40
3.0
  1
26
  7
MONOTXT
210
0.0
220
0.0
230
1.0
  0
TEXT
  8
0
  6
CONTINUOUS
 62
    40
  5
4E4
 10
693.3667
 20
1777.3914
 30
0.0
 40
3.0
  1
4
  7
MONOTXT
210
0.0
220
0.0
230
1.0
  0
TEXT
  8
0
  6
CONTINUOUS
 62
    40
  5
4E5
 10
693.3667
 20
1785.2063
 30
0.0
 40
3.0
  1
4
  7
MONOTXT
210
0.0
220
0.0
230
1.0
  0
TEXT
  8
0
  6
CONTINUOUS
 62
    40
  5
4E6
 10
693.058
 20
1793.33
 30
0.0
 40
3.0
  1
5
  7
MONOTXT
210
0.0
220
0.0
230
1.0
  0
TEXT
  8
0
  6
CONTINUOUS
 62
    40
  5
4E7
 10
693.238
 20
1801.4538
 30
0.0
 40
3.0
  1
5
  7
MONOTXT
210
0.0
220
0.0
230
1.0
  0
TEXT
  8
0
  6
CONTINUOUS
 62
    40
  5
4E8
 10
693.3667
 20
1809.4483
 30
0.0
 40
3.0
  1
5
  7
MONOTXT
210
0.0
220
0.0
230
1.0
  0
TEXT
  8
0
  6
CONTINUOUS
 62
    40
  5
4E9
 10
703.8091
 20
1793.3301
 30
0.0
 40
3.0
  1
4
  7
MONOTXT
210
0.0
220
0.0
230
1.0
  0
TEXT
  8
0
  6
CONTINUOUS
 62
    40
  5
4EA
 10
703.9378
 20
1801.6586
 30
0.0
 40
3.0
  1
4
  7
MONOTXT
210
0.0
220
0.0
230
1.0
  0
TEXT
  8
0
  6
CONTINUOUS
 62
    40
  5
4EB
 10
703.9634
 20
1809.6279
 30
0.0
 40
3.0
  1
4
  7
MONOTXT
210
0.0
220
0.0
230
1.0
  0
TEXT
  8
0
  6
CONTINUOUS
 62
    40
  5
4EC
 10
703.9635
 20
1825.9259
 30
0.0
 40
3.0
  1
2
  7
MONOTXT
210
0.0
220
0.0
230
1.0
  0
TEXT
  8
0
  6
CONTINUOUS
 62
    40
  5
4ED
 10
704.0762
 20
1842.4822
 30
0.0
 40
3.0
  1
2
  7
MONOTXT
210
0.0
220
0.0
230
1.0
  0
TEXT
  8
0
  6
CONTINUOUS
 62
    40
  5
4EE
 10
693.9842
 20
1826.2347
 30
0.0
 40
3.0
  1
5
  7
MONOTXT
210
0.0
220
0.0
230
1.0
  0
TEXT
  8
0
  6
CONTINUOUS
 62
    40
  5
4EF
 10
692.3119
 20
1842.3529
 30
0.0
 40
3.0
  1
5
  7
MONOTXT
210
0.0
220
0.0
230
1.0
  0
TEXT
  8
0
  6
CONTINUOUS
 62
    40
  5
4F0
 10
692.3119
 20
1850.6563
 30
0.0
 40
3.0
  1
4
  7
MONOTXT
210
0.0
220
0.0
230
1.0
  0
TEXT
  8
0
  6
CONTINUOUS
 62
    40
  5
4F1
 10
704.1018
 20
1850.1679
 30
0.0
 40
3.0
  1
8
  7
MONOTXT
210
0.0
220
0.0
230
1.0
  0
TEXT
  8
0
  6
CONTINUOUS
 62
    40
  5
4F2
 10
692.4919
 20
1858.5467
 30
0.0
 40
3.0
  1
I0
  7
MONOTXT
210
0.0
220
0.0
230
1.0
  0
TEXT
  8
0
  6
CONTINUOUS
 62
    40
  5
4F3
 10
704.1018
 20
1858.9094
 30
0.0
 40
3.0
  1
2
  7
MONOTXT
210
0.0
220
0.0
230
1.0
  0
TEXT
  8
0
  6
CONTINUOUS
 62
    40
  5
4F4
 10
704.1018
 20
1866.8055
 30
0.0
 40
3.0
  1
2
  7
MONOTXT
210
0.0
220
0.0
230
1.0
  0
TEXT
  8
0
  6
CONTINUOUS
 62
    40
  5
4F5
 10
704.1018
 20
1877.0317
 30
0.0
 40
3.0
  1
2
  7
MONOTXT
210
0.0
220
0.0
230
1.0
  0
TEXT
  8
0
  6
CONTINUOUS
 62
    40
  5
4F6
 10
704.1018
 20
1883.8698
 30
0.0
 40
3.0
  1
2
  7
MONOTXT
210
0.0
220
0.0
230
1.0
  0
TEXT
  8
0
  6
CONTINUOUS
 62
    40
  5
4F7
 10
704.1018
 20
1891.6847
 30
0.0
 40
3.0
  1
2
  7
MONOTXT
210
0.0
220
0.0
230
1.0
  0
TEXT
  8
0
  6
CONTINUOUS
 62
    40
  5
4F8
 10
704.1018
 20
1899.767
 30
0.0
 40
3.0
  1
2
  7
MONOTXT
210
0.0
220
0.0
230
1.0
  0
TEXT
  8
0
  6
CONTINUOUS
 62
    40
  5
4F9
 10
692.3119
 20
1866.7746
 30
0.0
 40
3.0
  1
9
  7
MONOTXT
210
0.0
220
0.0
230
1.0
  0
TEXT
  8
0
  6
CONTINUOUS
 62
    40
  5
4FA
 10
691.8232
 20
1875.078
 30
0.0
 40
3.0
  1
9
  7
MONOTXT
210
0.0
220
0.0
230
1.0
  0
TEXT
  8
0
  6
CONTINUOUS
 62
    40
  5
4FB
 10
692.3119
 20
1883.3813
 30
0.0
 40
3.0
  1
8
  7
MONOTXT
210
0.0
220
0.0
230
1.0
  0
TEXT
  8
0
  6
CONTINUOUS
 62
    40
  5
4FC
 10
692.3119
 20
1899.988
 30
0.0
 40
3.0
  1
7
  7
MONOTXT
210
0.0
220
0.0
230
1.0
  0
TEXT
  8
0
  6
CONTINUOUS
 62
    40
  5
4FD
 10
692.3119
 20
1891.2271
 30
0.0
 40
3.0
  1
8
  7
MONOTXT
210
0.0
220
0.0
230
1.0
  0
TEXT
  8
0
  6
CONTINUOUS
 62
    40
  5
4FE
 10
721.8915
 20
1834.6489
 30
0.0
 40
3.0
  1
6" INCREMENTS
  7
MONOTXT
210
0.0
220
0.0
230
1.0
  0
TEXT
  8
0
  6
CONTINUOUS
 62
    40
  5
4FF
 10
796.1092
 20
1352.9388
 30
0.0
 40
3.0
  1
STR.
  7
MONOTXT
210
0.0
220
0.0
230
1.0
  0
TEXT
  8
0
  6
CONTINUOUS
 62
    40
  5
500
 10
796.1092
 20
1360.4612
 30
0.0
 40
3.0
  1
STR.
  7
MONOTXT
210
0.0
220
0.0
230
1.0
  0
TEXT
  8
0
  6
CONTINUOUS
 62
    40
  5
501
 10
796.1092
 20
1369.4881
 30
0.0
 40
3.0
  1
STR.
  7
MONOTXT
210
0.0
220
0.0
230
1.0
  0
TEXT
  8
0
  6
CONTINUOUS
 62
    40
  5
502
 10
796.1092
 20
1377.3866
 30
0.0
 40
3.0
  1
STR.
  7
MONOTXT
210
0.0
220
0.0
230
1.0
  0
TEXT
  8
0
  6
CONTINUOUS
 62
    40
  5
503
 10
795.3565
 20
1394.3121
 30
0.0
 40
3.0
  1
BENT
  7
MONOTXT
210
0.0
220
0.0
230
1.0
  0
TEXT
  8
0
  6
CONTINUOUS
 62
    40
  5
504
 10
795.3565
 20
1410.4853
 30
0.0
 40
3.0
  1
BENT
  7
MONOTXT
210
0.0
220
0.0
230
1.0
  0
TEXT
  8
0
  6
CONTINUOUS
 62
    40
  5
505
 10
723.0137
 20
1402.781
 30
0.0
 40
3.0
  1
6" INCREMENTS
  7
MONOTXT
210
0.0
220
0.0
230
1.0
  0
TEXT
  8
0
  6
CONTINUOUS
 62
    40
  5
506
 10
795.3565
 20
1426.3758
 30
0.0
 40
3.0
  1
BENT
  7
MONOTXT
210
0.0
220
0.0
230
1.0
  0
TEXT
  8
0
  6
CONTINUOUS
 62
    40
  5
507
 10
795.3565
 20
1435.7788
 30
0.0
 40
3.0
  1
BENT
  7
MONOTXT
210
0.0
220
0.0
230
1.0
  0
TEXT
  8
0
  6
CONTINUOUS
 62
    40
  5
508
 10
795.3565
 20
1442.549
 30
0.0
 40
3.0
  1
BENT
  7
MONOTXT
210
0.0
220
0.0
230
1.0
  0
TEXT
  8
0
  6
CONTINUOUS
 62
    40
  5
509
 10
795.3565
 20
1451.5759
 30
0.0
 40
3.0
  1
BENT
  7
MONOTXT
210
0.0
220
0.0
230
1.0
  0
TEXT
  8
0
  6
CONTINUOUS
 62
    40
  5
50A
 10
795.3565
 20
1459.4745
 30
0.0
 40
3.0
  1
BENT
  7
MONOTXT
210
0.0
220
0.0
230
1.0
  0
TEXT
  8
0
  6
CONTINUOUS
 62
    40
  5
50B
 10
795.3565
 20
1466.9969
 30
0.0
 40
3.0
  1
BENT
  7
MONOTXT
210
0.0
220
0.0
230
1.0
  0
TEXT
  8
0
  6
CONTINUOUS
 62
    40
  5
50C
 10
795.3565
 20
1475.6477
 30
0.0
 40
3.0
  1
BENT
  7
MONOTXT
210
0.0
220
0.0
230
1.0
  0
TEXT
  8
0
  6
CONTINUOUS
 62
    40
  5
50D
 10
795.3565
 20
1483.5462
 30
0.0
 40
3.0
  1
BENT
  7
MONOTXT
210
0.0
220
0.0
230
1.0
  0
TEXT
  8
0
  6
CONTINUOUS
 62
    40
  5
50E
 10
795.3565
 20
1492.197
 30
0.0
 40
3.0
  1
BENT
  7
MONOTXT
210
0.0
220
0.0
230
1.0
  0
TEXT
  8
0
  6
CONTINUOUS
 62
    40
  5
50F
 10
795.3565
 20
1500.0956
 30
0.0
 40
3.0
  1
BENT
  7
MONOTXT
210
0.0
220
0.0
230
1.0
  0
TEXT
  8
0
  6
CONTINUOUS
 62
    40
  5
510
 10
795.3565
 20
1508.3702
 30
0.0
 40
3.0
  1
BENT
  7
MONOTXT
210
0.0
220
0.0
230
1.0
  0
TEXT
  8
0
  6
CONTINUOUS
 62
    40
  5
511
 10
795.3565
 20
1515.8927
 30
0.0
 40
3.0
  1
BENT
  7
MONOTXT
210
0.0
220
0.0
230
1.0
  0
TEXT
  8
0
  6
CONTINUOUS
 62
    40
  5
512
 10
795.3565
 20
1524.9196
 30
0.0
 40
3.0
  1
BENT
  7
MONOTXT
210
0.0
220
0.0
230
1.0
  0
TEXT
  8
0
  6
CONTINUOUS
 62
    40
  5
513
 10
795.3565
 20
1541.0928
 30
0.0
 40
3.0
  1
BENT
  7
MONOTXT
210
0.0
220
0.0
230
1.0
  0
TEXT
  8
0
  6
CONTINUOUS
 62
    40
  5
514
 10
795.3565
 20
1550.1197
 30
0.0
 40
3.0
  1
BENT
  7
MONOTXT
210
0.0
220
0.0
230
1.0
  0
TEXT
  8
0
  6
CONTINUOUS
 62
    40
  5
515
 10
795.3565
 20
1557.6421
 30
0.0
 40
3.0
  1
BENT
  7
MONOTXT
210
0.0
220
0.0
230
1.0
  0
TEXT
  8
0
  6
CONTINUOUS
 62
    40
  5
516
 10
795.3565
 20
1565.9168
 30
0.0
 40
3.0
  1
BENT
  7
MONOTXT
210
0.0
220
0.0
230
1.0
  0
TEXT
  8
0
  6
CONTINUOUS
 62
    40
  5
517
 10
795.3565
 20
1573.8153
 30
0.0
 40
3.0
  1
BENT
  7
MONOTXT
210
0.0
220
0.0
230
1.0
  0
TEXT
  8
0
  6
CONTINUOUS
 62
    40
  5
518
 10
795.3565
 20
1582.4661
 30
0.0
 40
3.0
  1
BENT
  7
MONOTXT
210
0.0
220
0.0
230
1.0
  0
TEXT
  8
0
  6
CONTINUOUS
 62
    40
  5
519
 10
795.3565
 20
1591.493
 30
0.0
 40
3.0
  1
BENT
  7
MONOTXT
210
0.0
220
0.0
230
1.0
  0
TEXT
  8
0
  6
CONTINUOUS
 62
    40
  5
51A
 10
795.3565
 20
1598.6393
 30
0.0
 40
3.0
  1
BENT
  7
MONOTXT
210
0.0
220
0.0
230
1.0
  0
TEXT
  8
0
  6
CONTINUOUS
 62
    40
  5
51B
 10
795.3565
 20
1606.1618
 30
0.0
 40
3.0
  1
BENT
  7
MONOTXT
210
0.0
220
0.0
230
1.0
  0
TEXT
  8
0
  6
CONTINUOUS
 62
    40
  5
51C
 10
795.3565
 20
1614.0603
 30
0.0
 40
3.0
  1
BENT
  7
MONOTXT
210
0.0
220
0.0
230
1.0
  0
TEXT
  8
0
  6
CONTINUOUS
 62
    40
  5
51D
 10
795.3565
 20
1622.7111
 30
0.0
 40
3.0
  1
BENT
  7
MONOTXT
210
0.0
220
0.0
230
1.0
  0
TEXT
  8
0
  6
CONTINUOUS
 62
    40
  5
51E
 10
795.3565
 20
1630.9858
 30
0.0
 40
3.0
  1
BENT
  7
MONOTXT
210
0.0
220
0.0
230
1.0
  0
TEXT
  8
0
  6
CONTINUOUS
 62
    40
  5
51F
 10
795.3565
 20
1640.3888
 30
0.0
 40
3.0
  1
BENT
  7
MONOTXT
210
0.0
220
0.0
230
1.0
  0
TEXT
  8
0
  6
CONTINUOUS
 62
    40
  5
520
 10
795.3565
 20
1648.6635
 30
0.0
 40
3.0
  1
BENT
  7
MONOTXT
210
0.0
220
0.0
230
1.0
  0
TEXT
  8
0
  6
CONTINUOUS
 62
    40
  5
521
 10
795.7329
 20
1664.0844
 30
0.0
 40
3.0
  1
STR.
  7
MONOTXT
210
0.0
220
0.0
230
1.0
  0
TEXT
  8
0
  6
CONTINUOUS
 62
    40
  5
522
 10
795.3565
 20
1671.983
 30
0.0
 40
3.0
  1
BENT
  7
MONOTXT
210
0.0
220
0.0
230
1.0
  0
TEXT
  8
0
  6
CONTINUOUS
 62
    40
  5
523
 10
795.7329
 20
1680.2576
 30
0.0
 40
3.0
  1
STR.
  7
MONOTXT
210
0.0
220
0.0
230
1.0
  0
TEXT
  8
0
  6
CONTINUOUS
 62
    40
  5
524
 10
795.7329
 20
1720.8812
 30
0.0
 40
3.0
  1
STR.
  7
MONOTXT
210
0.0
220
0.0
230
1.0
  0
TEXT
  8
0
  6
CONTINUOUS
 62
    40
  5
525
 10
795.7329
 20
1729.1559
 30
0.0
 40
3.0
  1
STR.
  7
MONOTXT
210
0.0
220
0.0
230
1.0
  0
TEXT
  8
0
  6
CONTINUOUS
 62
    40
  5
526
 10
795.7329
 20
1737.8066
 30
0.0
 40
3.0
  1
STR.
  7
MONOTXT
210
0.0
220
0.0
230
1.0
  0
TEXT
  8
0
  6
CONTINUOUS
 62
    40
  5
527
 10
795.7329
 20
1744.953
 30
0.0
 40
3.0
  1
STR.
  7
MONOTXT
210
0.0
220
0.0
230
1.0
  0
TEXT
  8
0
  6
CONTINUOUS
 62
    40
  5
528
 10
795.7329
 20
1752.8515
 30
0.0
 40
3.0
  1
STR.
  7
MONOTXT
210
0.0
220
0.0
230
1.0
  0
TEXT
  8
0
  6
CONTINUOUS
 62
    40
  5
529
 10
795.7329
 20
1761.5023
 30
0.0
 40
3.0
  1
STR.
  7
MONOTXT
210
0.0
220
0.0
230
1.0
  0
TEXT
  8
0
  6
CONTINUOUS
 62
    40
  5
52A
 10
795.7329
 20
1768.6486
 30
0.0
 40
3.0
  1
STR.
  7
MONOTXT
210
0.0
220
0.0
230
1.0
  0
TEXT
  8
0
  6
CONTINUOUS
 62
    40
  5
52B
 10
795.3565
 20
1776.9233
 30
0.0
 40
3.0
  1
BENT
  7
MONOTXT
210
0.0
220
0.0
230
1.0
  0
TEXT
  8
0
  6
CONTINUOUS
 62
    40
  5
52C
 10
795.3565
 20
1785.574
 30
0.0
 40
3.0
  1
BENT
  7
MONOTXT
210
0.0
220
0.0
230
1.0
  0
TEXT
  8
0
  6
CONTINUOUS
 62
    40
  5
52D
 10
795.7329
 20
1792.3442
 30
0.0
 40
3.0
  1
STR.
  7
MONOTXT
210
0.0
220
0.0
230
1.0
  0
TEXT
  8
0
  6
CONTINUOUS
 62
    40
  5
52E
 10
795.7329
 20
1800.995
 30
0.0
 40
3.0
  1
STR.
  7
MONOTXT
210
0.0
220
0.0
230
1.0
  0
TEXT
  8
0
  6
CONTINUOUS
 62
    40
  5
52F
 10
795.7329
 20
1809.6458
 30
0.0
 40
3.0
  1
STR.
  7
MONOTXT
210
0.0
220
0.0
230
1.0
  0
TEXT
  8
0
  6
CONTINUOUS
 62
    40
  5
530
 10
795.3565
 20
1825.819
 30
0.0
 40
3.0
  1
BENT
  7
MONOTXT
210
0.0
220
0.0
230
1.0
  0
TEXT
  8
0
  6
CONTINUOUS
 62
    40
  5
531
 10
795.3565
 20
1842.3684
 30
0.0
 40
3.0
  1
BENT
  7
MONOTXT
210
0.0
220
0.0
230
1.0
  0
TEXT
  8
0
  6
CONTINUOUS
 62
    40
  5
532
 10
795.7329
 20
1850.643
 30
0.0
 40
3.0
  1
STR.
  7
MONOTXT
210
0.0
220
0.0
230
1.0
  0
TEXT
  8
0
  6
CONTINUOUS
 62
    40
  5
533
 10
795.3565
 20
1858.5416
 30
0.0
 40
3.0
  1
BENT
  7
MONOTXT
210
0.0
220
0.0
230
1.0
  0
TEXT
  8
0
  6
CONTINUOUS
 62
    40
  5
534
 10
795.3565
 20
1866.8162
 30
0.0
 40
3.0
  1
BENT
  7
MONOTXT
210
0.0
220
0.0
230
1.0
  0
TEXT
  8
0
  6
CONTINUOUS
 62
    40
  5
535
 10
795.3565
 20
1874.7148
 30
0.0
 40
3.0
  1
BENT
  7
MONOTXT
210
0.0
220
0.0
230
1.0
  0
TEXT
  8
0
  6
CONTINUOUS
 62
    40
  5
536
 10
795.3565
 20
1882.6133
 30
0.0
 40
3.0
  1
BENT
  7
MONOTXT
210
0.0
220
0.0
230
1.0
  0
TEXT
  8
0
  6
CONTINUOUS
 62
    40
  5
537
 10
795.3565
 20
1891.2641
 30
0.0
 40
3.0
  1
BENT
  7
MONOTXT
210
0.0
220
0.0
230
1.0
  0
TEXT
  8
0
  6
CONTINUOUS
 62
    40
  5
538
 10
795.3565
 20
1899.5388
 30
0.0
 40
3.0
  1
BENT
  7
MONOTXT
210
0.0
220
0.0
230
1.0
  0
LINE
  8
0
  6
CONTINUOUS
 62
     7
  5
539
 10
810.7506
 20
1790.8965
 30
0.0
 11
846.7481
 21
1790.8965
 31
0.0
  0
LINE
  8
0
  6
CONTINUOUS
 62
     7
  5
53A
 10
810.7506
 20
1782.7153
 30
0.0
 11
846.7481
 21
1782.7153
 31
0.0
  0
TEXT
  8
0
  6
CONTINUOUS
 62
    40
  5
53B
 10
833.735
 20
1785.5715
 30
0.0
 40
3.0
  1
3958
  7
MONOTXT
210
0.0
220
0.0
230
1.0
  0
LINE
  8
0
  6
CONTINUOUS
 62
     7
  5
53C
 10
679.8505
 20
1790.8965
 30
0.0
 11
496.5905
 21
1790.8965
 31
0.0
  0
LINE
  8
0
  6
CONTINUOUS
 62
     7
  5
53D
 10
679.8505
 20
1782.7153
 30
0.0
 11
496.5905
 21
1782.7153
 31
0.0
  0
TEXT
  8
0
  6
CONTINUOUS
 62
    40
  5
53E
 10
502.1999
 20
1785.1979
 30
0.0
 40
3.0
  1
144"
  7
MONOTXT
210
0.0
220
0.0
230
1.0
  0
TEXT
  8
0
  6
CONTINUOUS
 62
    40
  5
53F
 10
501.0804
 20
1899.5388
 30
0.0
 40
3.0
  1
120"
  7
MONOTXT
210
0.0
220
0.0
230
1.0
  0
LINE
  8
0
  6
CONTINUOUS
 62
     2
  5
540
 10
679.8505
 20
1897.2528
 30
0.0
 11
810.7506
 21
1897.2528
 31
0.0
  0
TEXT
  8
0
  6
CONTINUOUS
 62
    40
  5
541
 10
521.7775
 20
1785.1941
 30
0.0
 40
3.0
  1
2:1
  7
MONOTXT
210
0.0
220
0.0
230
1.0
  0
TEXT
  8
0
  6
CONTINUOUS
 62
    40
  5
542
 10
619.6134
 20
1785.1979
 30
0.0
 40
3.0
  1
44'-3"
  7
MONOTXT
210
0.0
220
0.0
230
1.0
  0
TEXT
  8
0
  6
CONTINUOUS
 62
    40
  5
543
 10
669.2919
 20
1785.1953
 30
0.0
 40
3.0
  1
16"
  7
MONOTXT
210
0.0
220
0.0
230
1.0
  0
INSERT
  8
1
  6
CONTINUOUS
 62
    40
  5
549
  2
STAMP
 10
-262.4367
 20
1172.8659
 30
0.0
 41
50.0
 42
50.0
 43
50.0
210
0.0
220
0.0
230
1.0
  0
LINE
  8
0
  6
CONTINUOUS
 62
     2
  5
54A
 10
-10.6472
 20
1807.259
 30
0.0
 11
-10.6472
 21
1774.534
 31
0.0
  0
LINE
  8
0
  6
CONTINUOUS
 62
     2
  5
54B
 10
-0.8297
 20
1807.259
 30
0.0
 11
-0.8297
 21
1774.534
 31
0.0
  0
LINE
  8
0
  6
CONTINUOUS
 62
     2
  5
54C
 10
12.2603
 20
1807.259
 30
0.0
 11
12.2603
 21
1774.534
 31
0.0
  0
LINE
  8
0
  6
CONTINUOUS
 62
     2
  5
54D
 10
31.8953
 20
1807.259
 30
0.0
 11
31.8953
 21
1774.534
 31
0.0
  0
LINE
  8
0
  6
CONTINUOUS
 62
     2
  5
54E
 10
51.5303
 20
1807.259
 30
0.0
 11
51.5303
 21
1774.534
 31
0.0
  0
LINE
  8
0
  6
CONTINUOUS
 62
     2
  5
54F
 10
71.1653
 20
1807.259
 30
0.0
 11
71.1653
 21
1774.534
 31
0.0
  0
LINE
  8
0
  6
CONTINUOUS
 62
     2
  5
550
 10
90.8003
 20
1807.259
 30
0.0
 11
90.8003
 21
1774.534
 31
0.0
  0
LINE
  8
0
  6
CONTINUOUS
 62
     2
  5
551
 10
90.8003
 20
1766.3528
 30
0.0
 11
90.8003
 21
1735.264
 31
0.0
  0
LINE
  8
0
  6
CONTINUOUS
 62
     2
  5
552
 10
71.1653
 20
1766.3528
 30
0.0
 11
71.1653
 21
1735.264
 31
0.0
  0
LINE
  8
0
  6
CONTINUOUS
 62
     2
  5
553
 10
51.5303
 20
1766.3528
 30
0.0
 11
51.5303
 21
1735.264
 31
0.0
  0
LINE
  8
0
  6
CONTINUOUS
 62
     2
  5
554
 10
31.8953
 20
1766.3528
 30
0.0
 11
31.8953
 21
1735.264
 31
0.0
  0
LINE
  8
0
  6
CONTINUOUS
 62
     2
  5
555
 10
12.2603
 20
1766.3528
 30
0.0
 11
12.2603
 21
1735.264
 31
0.0
  0
LINE
  8
0
  6
CONTINUOUS
 62
     2
  5
556
 10
-0.8297
 20
1766.3528
 30
0.0
 11
-0.8297
 21
1735.264
 31
0.0
  0
LINE
  8
0
  6
CONTINUOUS
 62
     2
  5
557
 10
-10.6472
 20
1766.3528
 30
0.0
 11
-10.6472
 21
1735.264
 31
0.0
  0
LINE
  8
0
  6
CONTINUOUS
 62
     2
  5
558
 10
362.4179
 20
1864.5278
 30
0.0
 11
362.4179
 21
1743.4453
 31
0.0
  0
LINE
  8
0
  6
CONTINUOUS
 62
     2
  5
559
 10
382.0529
 20
1864.5278
 30
0.0
 11
382.0529
 21
1743.4453
 31
0.0
  0
LINE
  8
0
  6
CONTINUOUS
 62
     2
  5
55A
 10
421.3229
 20
1864.5278
 30
0.0
 11
421.3229
 21
1743.4453
 31
0.0
  0
LINE
  8
0
  6
CONTINUOUS
 62
     2
  5
55B
 10
401.6879
 20
1864.5278
 30
0.0
 11
401.6879
 21
1743.4453
 31
0.0
  0
LINE
  8
0
  6
CONTINUOUS
 62
     2
  5
55C
 10
349.3279
 20
1864.5278
 30
0.0
 11
349.3279
 21
1743.4453
 31
0.0
  0
LINE
  8
0
  6
CONTINUOUS
 62
     2
  5
55D
 10
339.5104
 20
1864.5278
 30
0.0
 11
339.5104
 21
1743.4453
 31
0.0
  0
LINE
  8
0
  6
CONTINUOUS
 62
     2
  5
55E
 10
440.9579
 20
1864.5278
 30
0.0
 11
440.9579
 21
1743.4453
 31
0.0
  0
LINE
  8
0
  6
CONTINUOUS
 62
     2
  5
55F
 10
440.9579
 20
1735.264
 30
0.0
 11
440.9579
 21
1653.4515
 31
0.0
  0
LINE
  8
0
  6
CONTINUOUS
 62
     2
  5
560
 10
339.5104
 20
1735.264
 30
0.0
 11
339.5104
 21
1653.4515
 31
0.0
  0
LINE
  8
0
  6
CONTINUOUS
 62
     2
  5
561
 10
349.3279
 20
1735.264
 30
0.0
 11
349.3279
 21
1653.4515
 31
0.0
  0
LINE
  8
0
  6
CONTINUOUS
 62
     2
  5
562
 10
401.6879
 20
1735.264
 30
0.0
 11
401.6879
 21
1653.4515
 31
0.0
  0
LINE
  8
0
  6
CONTINUOUS
 62
     2
  5
563
 10
421.3229
 20
1735.264
 30
0.0
 11
421.3229
 21
1653.4515
 31
0.0
  0
LINE
  8
0
  6
CONTINUOUS
 62
     2
  5
564
 10
382.0529
 20
1735.264
 30
0.0
 11
382.0529
 21
1653.4515
 31
0.0
  0
LINE
  8
0
  6
CONTINUOUS
 62
     2
  5
565
 10
362.4179
 20
1735.264
 30
0.0
 11
362.4179
 21
1653.4515
 31
0.0
  0
LINE
  8
0
  6
CONTINUOUS
 62
     2
  5
566
 10
362.4179
 20
1645.2702
 30
0.0
 11
362.4179
 21
1563.4577
 31
0.0
  0
LINE
  8
0
  6
CONTINUOUS
 62
     2
  5
567
 10
382.0529
 20
1645.2702
 30
0.0
 11
382.0529
 21
1563.4577
 31
0.0
  0
LINE
  8
0
  6
CONTINUOUS
 62
     2
  5
568
 10
421.3229
 20
1645.2702
 30
0.0
 11
421.3229
 21
1563.4577
 31
0.0
  0
LINE
  8
0
  6
CONTINUOUS
 62
     2
  5
569
 10
401.6879
 20
1645.2702
 30
0.0
 11
401.6879
 21
1563.4577
 31
0.0
  0
LINE
  8
0
  6
CONTINUOUS
 62
     2
  5
56A
 10
349.3279
 20
1645.2702
 30
0.0
 11
349.3279
 21
1563.4577
 31
0.0
  0
LINE
  8
0
  6
CONTINUOUS
 62
     2
  5
56B
 10
339.5104
 20
1645.2702
 30
0.0
 11
339.5104
 21
1563.4577
 31
0.0
  0
LINE
  8
0
  6
CONTINUOUS
 62
     2
  5
56C
 10
440.9579
 20
1645.2702
 30
0.0
 11
440.9579
 21
1563.4577
 31
0.0
  0
LINE
  8
0
  6
CONTINUOUS
 62
     2
  5
56D
 10
440.9579
 20
1555.2764
 30
0.0
 11
440.9579
 21
1350.7451
 31
0.0
  0
LINE
  8
0
  6
CONTINUOUS
 62
     2
  5
56E
 10
339.5104
 20
1555.2764
 30
0.0
 11
339.5104
 21
1350.7451
 31
0.0
  0
LINE
  8
0
  6
CONTINUOUS
 62
     2
  5
56F
 10
349.3279
 20
1555.2764
 30
0.0
 11
349.3279
 21
1350.7451
 31
0.0
  0
LINE
  8
0
  6
CONTINUOUS
 62
     2
  5
570
 10
401.6879
 20
1555.2764
 30
0.0
 11
401.6879
 21
1350.7451
 31
0.0
  0
LINE
  8
0
  6
CONTINUOUS
 62
     2
  5
571
 10
421.3229
 20
1555.2764
 30
0.0
 11
421.3229
 21
1350.7451
 31
0.0
  0
LINE
  8
0
  6
CONTINUOUS
 62
     2
  5
572
 10
382.0529
 20
1555.2764
 30
0.0
 11
382.0529
 21
1350.7451
 31
0.0
  0
LINE
  8
0
  6
CONTINUOUS
 62
     2
  5
573
 10
362.4179
 20
1555.2764
 30
0.0
 11
362.4179
 21
1350.7451
 31
0.0
  0
TEXT
  8
0
  6
CONTINUOUS
 62
    40
  5
574
 10
467.2248
 20
1906.737
 30
0.0
 40
2.295
  1
(M%%214)
  7
MONOTXT
210
0.0
220
0.0
230
1.0
  0
TEXT
  8
0
  6
CONTINUOUS
 62
    40
  5
575
 10
817.3741
 20
1906.643
 30
0.0
 40
2.295
  1
(M%%214)
  7
MONOTXT
210
0.0
220
0.0
230
1.0
  0
LINE
  8
0
  6
CONTINUOUS
 62
     2
  5
576
 10
689.668
 20
1432.5576
 30
0.0
 11
689.668
 21
1408.0139
 31
0.0
  0
LINE
  8
0
  6
CONTINUOUS
 62
     2
  5
577
 10
699.4855
 20
1432.5576
 30
0.0
 11
699.4855
 21
1408.0139
 31
0.0
  0
LINE
  8
0
  6
CONTINUOUS
 62
     2
  5
578
 10
732.2105
 20
1432.5576
 30
0.0
 11
732.2105
 21
1408.0139
 31
0.0
  0
LINE
  8
0
  6
CONTINUOUS
 62
     2
  5
579
 10
712.5755
 20
1432.5576
 30
0.0
 11
712.5755
 21
1408.0139
 31
0.0
  0
LINE
  8
0
  6
CONTINUOUS
 62
     2
  5
57A
 10
791.1156
 20
1432.5576
 30
0.0
 11
791.1156
 21
1408.0139
 31
0.0
  0
LINE
  8
0
  6
CONTINUOUS
 62
     2
  5
57B
 10
751.8456
 20
1432.5576
 30
0.0
 11
751.8456
 21
1408.0139
 31
0.0
  0
LINE
  8
0
  6
CONTINUOUS
 62
     2
  5
57C
 10
771.4806
 20
1432.5576
 30
0.0
 11
771.4806
 21
1408.0139
 31
0.0
  0
LINE
  8
0
  6
CONTINUOUS
 62
     2
  5
57D
 10
771.4806
 20
1831.8028
 30
0.0
 11
771.4806
 21
1432.5576
 31
0.0
  0
LINE
  8
0
  6
CONTINUOUS
 62
     2
  5
57E
 10
751.8456
 20
1831.8028
 30
0.0
 11
751.8456
 21
1432.5576
 31
0.0
  0
LINE
  8
0
  6
CONTINUOUS
 62
     2
  5
57F
 10
791.1156
 20
1831.8028
 30
0.0
 11
791.1156
 21
1432.5576
 31
0.0
  0
LINE
  8
0
  6
CONTINUOUS
 62
     2
  5
580
 10
712.5755
 20
1831.8028
 30
0.0
 11
712.5755
 21
1432.5576
 31
0.0
  0
LINE
  8
0
  6
CONTINUOUS
 62
     2
  5
581
 10
732.2105
 20
1831.8028
 30
0.0
 11
732.2105
 21
1432.5576
 31
0.0
  0
LINE
  8
0
  6
CONTINUOUS
 62
     2
  5
582
 10
699.4855
 20
1831.8028
 30
0.0
 11
699.4855
 21
1432.5576
 31
0.0
  0
LINE
  8
0
  6
CONTINUOUS
 62
     2
  5
583
 10
689.668
 20
1831.8028
 30
0.0
 11
689.668
 21
1432.5576
 31
0.0
  0
LINE
  8
0
  6
CONTINUOUS
 62
     2
  5
584
 10
-10.6472
 20
1375.2889
 30
0.0
 11
-10.6472
 21
1350.7451
 31
0.0
  0
LINE
  8
0
  6
CONTINUOUS
 62
     2
  5
585
 10
-0.8297
 20
1375.2889
 30
0.0
 11
-0.8297
 21
1350.7451
 31
0.0
  0
LINE
  8
0
  6
CONTINUOUS
 62
     2
  5
586
 10
12.2603
 20
1375.2889
 30
0.0
 11
12.2603
 21
1350.7451
 31
0.0
  0
LINE
  8
0
  6
CONTINUOUS
 62
     2
  5
587
 10
31.8953
 20
1375.2889
 30
0.0
 11
31.8953
 21
1350.7451
 31
0.0
  0
LINE
  8
0
  6
CONTINUOUS
 62
     2
  5
588
 10
51.5303
 20
1375.2889
 30
0.0
 11
51.5303
 21
1350.7451
 31
0.0
  0
LINE
  8
0
  6
CONTINUOUS
 62
     2
  5
589
 10
71.1653
 20
1375.2889
 30
0.0
 11
71.1653
 21
1350.7451
 31
0.0
  0
LINE
  8
0
  6
CONTINUOUS
 62
     2
  5
58A
 10
90.8003
 20
1375.2889
 30
0.0
 11
90.8003
 21
1350.7451
 31
0.0
  0
LINE
  8
0
  6
CONTINUOUS
 62
     2
  5
58B
 10
90.8003
 20
1506.1889
 30
0.0
 11
90.8003
 21
1383.4701
 31
0.0
  0
LINE
  8
0
  6
CONTINUOUS
 62
     2
  5
58C
 10
71.1653
 20
1506.1889
 30
0.0
 11
71.1653
 21
1383.4701
 31
0.0
  0
LINE
  8
0
  6
CONTINUOUS
 62
     2
  5
58D
 10
51.5303
 20
1506.1889
 30
0.0
 11
51.5303
 21
1383.4701
 31
0.0
  0
LINE
  8
0
  6
CONTINUOUS
 62
     2
  5
58E
 10
31.8953
 20
1506.1889
 30
0.0
 11
31.8953
 21
1383.4701
 31
0.0
  0
LINE
  8
0
  6
CONTINUOUS
 62
     2
  5
58F
 10
12.2603
 20
1506.1889
 30
0.0
 11
12.2603
 21
1383.4701
 31
0.0
  0
LINE
  8
0
  6
CONTINUOUS
 62
     2
  5
590
 10
-0.8297
 20
1506.1889
 30
0.0
 11
-0.8297
 21
1383.4701
 31
0.0
  0
LINE
  8
0
  6
CONTINUOUS
 62
     2
  5
591
 10
-10.6472
 20
1506.1889
 30
0.0
 11
-10.6472
 21
1383.4701
 31
0.0
  0
LINE
  8
0
  6
CONTINUOUS
 62
     2
  5
592
 10
-10.6472
 20
1555.2764
 30
0.0
 11
-10.6472
 21
1514.3702
 31
0.0
  0
LINE
  8
0
  6
CONTINUOUS
 62
     2
  5
593
 10
-0.8297
 20
1555.2764
 30
0.0
 11
-0.8297
 21
1514.3702
 31
0.0
  0
LINE
  8
0
  6
CONTINUOUS
 62
     2
  5
594
 10
12.2603
 20
1555.2764
 30
0.0
 11
12.2603
 21
1514.3702
 31
0.0
  0
LINE
  8
0
  6
CONTINUOUS
 62
     2
  5
595
 10
31.8953
 20
1555.2764
 30
0.0
 11
31.8953
 21
1514.3702
 31
0.0
  0
LINE
  8
0
  6
CONTINUOUS
 62
     2
  5
596
 10
51.5303
 20
1555.2764
 30
0.0
 11
51.5303
 21
1514.3702
 31
0.0
  0
LINE
  8
0
  6
CONTINUOUS
 62
     2
  5
597
 10
71.1653
 20
1555.2764
 30
0.0
 11
71.1653
 21
1514.3702
 31
0.0
  0
LINE
  8
0
  6
CONTINUOUS
 62
     2
  5
598
 10
90.8003
 20
1555.2764
 30
0.0
 11
90.8003
 21
1514.3702
 31
0.0
  0
LINE
  8
0
  6
CONTINUOUS
 62
     2
  5
599
 10
90.8003
 20
1604.3639
 30
0.0
 11
90.8003
 21
1563.4577
 31
0.0
  0
LINE
  8
0
  6
CONTINUOUS
 62
     2
  5
59A
 10
71.1653
 20
1604.3639
 30
0.0
 11
71.1653
 21
1563.4577
 31
0.0
  0
LINE
  8
0
  6
CONTINUOUS
 62
     2
  5
59B
 10
51.5303
 20
1604.3639
 30
0.0
 11
51.5303
 21
1563.4577
 31
0.0
  0
LINE
  8
0
  6
CONTINUOUS
 62
     2
  5
59C
 10
31.8953
 20
1604.3639
 30
0.0
 11
31.8953
 21
1563.4577
 31
0.0
  0
LINE
  8
0
  6
CONTINUOUS
 62
     2
  5
59D
 10
12.2603
 20
1604.3639
 30
0.0
 11
12.2603
 21
1563.4577
 31
0.0
  0
LINE
  8
0
  6
CONTINUOUS
 62
     2
  5
59E
 10
-0.8297
 20
1604.3639
 30
0.0
 11
-0.8297
 21
1563.4577
 31
0.0
  0
LINE
  8
0
  6
CONTINUOUS
 62
     2
  5
59F
 10
-10.6472
 20
1604.3639
 30
0.0
 11
-10.6472
 21
1563.4577
 31
0.0
  0
LINE
  8
0
  6
CONTINUOUS
 62
     2
  5
5A0
 10
-10.6472
 20
1727.0827
 30
0.0
 11
-10.6472
 21
1612.5452
 31
0.0
  0
LINE
  8
0
  6
CONTINUOUS
 62
     2
  5
5A1
 10
-0.8297
 20
1727.0827
 30
0.0
 11
-0.8297
 21
1612.5452
 31
0.0
  0
LINE
  8
0
  6
CONTINUOUS
 62
     2
  5
5A2
 10
12.2603
 20
1727.0827
 30
0.0
 11
12.2603
 21
1612.5452
 31
0.0
  0
LINE
  8
0
  6
CONTINUOUS
 62
     2
  5
5A3
 10
31.8953
 20
1727.0827
 30
0.0
 11
31.8953
 21
1612.5452
 31
0.0
  0
LINE
  8
0
  6
CONTINUOUS
 62
     2
  5
5A4
 10
51.5303
 20
1727.0827
 30
0.0
 11
51.5303
 21
1612.5452
 31
0.0
  0
LINE
  8
0
  6
CONTINUOUS
 62
     2
  5
5A5
 10
71.1653
 20
1727.0827
 30
0.0
 11
71.1653
 21
1612.5452
 31
0.0
  0
LINE
  8
0
  6
CONTINUOUS
 62
     2
  5
5A6
 10
90.8003
 20
1727.0827
 30
0.0
 11
90.8003
 21
1612.5452
 31
0.0
  0
LINE
  8
0
  6
CONTINUOUS
 62
     2
  5
5A7
 10
316.6029
 20
1905.4341
 30
0.0
 11
316.6029
 21
1268.9326
 31
0.0
  0
LINE
  8
0
  6
CONTINUOUS
 62
     2
  5
5A8
 10
290.4229
 20
1905.4341
 30
0.0
 11
290.4229
 21
1268.9326
 31
0.0
  0
LINE
  8
0
  6
CONTINUOUS
 62
     2
  5
5A9
 10
264.2429
 20
1905.4341
 30
0.0
 11
264.2429
 21
1268.9326
 31
0.0
  0
LINE
  8
0
  6
CONTINUOUS
 62
     2
  5
5AA
 10
244.6079
 20
1905.4341
 30
0.0
 11
244.6079
 21
1268.9326
 31
0.0
  0
LINE
  8
0
  6
CONTINUOUS
 62
     2
  5
5AB
 10
224.9728
 20
1905.4341
 30
0.0
 11
224.9728
 21
1268.9326
 31
0.0
  0
LINE
  8
0
  6
CONTINUOUS
 62
     2
  5
5AC
 10
205.3378
 20
1905.4341
 30
0.0
 11
205.3378
 21
1268.9326
 31
0.0
  0
LINE
  8
0
  6
CONTINUOUS
 62
     2
  5
5AD
 10
182.4303
 20
1905.4341
 30
0.0
 11
182.4303
 21
1268.9326
 31
0.0
  0
LINE
  8
0
  6
CONTINUOUS
 62
     2
  5
5AE
 10
169.3403
 20
1905.4341
 30
0.0
 11
169.3403
 21
1268.9326
 31
0.0
  0
LINE
  8
0
  6
CONTINUOUS
 62
     2
  5
5AF
 10
679.8505
 20
1358.9264
 30
0.0
 11
810.7506
 21
1358.9264
 31
0.0
  0
LINE
  8
0
  6
CONTINUOUS
 62
     2
  5
5B0
 10
679.8505
 20
1367.1076
 30
0.0
 11
810.7506
 21
1367.1076
 31
0.0
  0
LINE
  8
0
  6
CONTINUOUS
 62
     2
  5
5B1
 10
679.8505
 20
1375.2889
 30
0.0
 11
810.7506
 21
1375.2889
 31
0.0
  0
TEXT
  8
0
  6
CONTINUOUS
 62
    40
  5
5B2
 10
757.881
 20
1776.7457
 30
0.0
 40
3.0
  1
4-4"
  7
MONOTXT
210
0.0
220
0.0
230
1.0
  0
TEXT
  8
0
  6
CONTINUOUS
 62
    40
  5
5B3
 10
756.1025
 20
1769.1822
 30
0.0
 40
3.0
  1
43'-9"
  7
MONOTXT
210
0.0
220
0.0
230
1.0
  0
LINE
  8
0
  6
CONTINUOUS
 62
     2
  5
5B4
 10
771.4806
 20
1399.8326
 30
0.0
 11
771.4806
 21
1350.7451
 31
0.0
  0
LINE
  8
0
  6
CONTINUOUS
 62
     2
  5
5B5
 10
751.8456
 20
1399.8326
 30
0.0
 11
751.8456
 21
1350.7451
 31
0.0
  0
LINE
  8
0
  6
CONTINUOUS
 62
     2
  5
5B6
 10
712.5755
 20
1399.8326
 30
0.0
 11
712.5755
 21
1350.7451
 31
0.0
  0
LINE
  8
0
  6
CONTINUOUS
 62
     2
  5
5B7
 10
732.2105
 20
1399.8326
 30
0.0
 11
732.2105
 21
1350.7451
 31
0.0
  0
LINE
  8
0
  6
CONTINUOUS
 62
     2
  5
5B8
 10
699.4855
 20
1399.8326
 30
0.0
 11
699.4855
 21
1350.7451
 31
0.0
  0
LINE
  8
0
  6
CONTINUOUS
 62
     2
  5
5B9
 10
689.668
 20
1399.8326
 30
0.0
 11
689.668
 21
1350.7451
 31
0.0
  0
LINE
  8
0
  6
CONTINUOUS
 62
     2
  5
5BA
 10
791.1156
 20
1399.8326
 30
0.0
 11
791.1156
 21
1350.7451
 31
0.0
  0
TEXT
  8
0
  6
CONTINUOUS
 62
    40
  5
5BB
 10
702.0855
 20
1656.3821
 30
0.0
 40
3.0
  1
8
  7
MONOTXT
210
0.0
220
0.0
230
1.0
  0
TEXT
  8
0
  6
CONTINUOUS
 62
    40
  5
5BC
 10
693.3667
 20
1655.7644
 30
0.0
 40
3.0
  1
4
  7
MONOTXT
210
0.0
220
0.0
230
1.0
  0
TEXT
  8
0
  6
CONTINUOUS
 62
    40
  5
5BD
 10
681.7213
 20
1655.3869
 30
0.0
 40
3.0
  1
H2
  7
MONOTXT
210
0.0
220
0.0
230
1.0
  0
TEXT
  8
0
  6
CONTINUOUS
 62
    40
  5
5BE
 10
795.7329
 20
1655.9032
 30
0.0
 40
3.0
  1
STR.
  7
MONOTXT
210
0.0
220
0.0
230
1.0
  0
TEXT
  8
1
  6
CONTINUOUS
 62
   140
  5
5C0
 10
960.4467
 20
1186.5609
 30
-0.0001
 40
2.304
  1
$$$$$$$$$FILENAME$$$$$$$$
 50
90.0
  7
txt
 11
959.2947
 21
1186.5609
 31
-0.0001
210
0.0
220
0.0
230
1.0
 73
     2
  0
TEXT
  8
1
  6
CONTINUOUS
 62
   140
  5
5C1
 10
960.4467
 20
1252.7657
 30
-0.0001
 40
2.304
  1
$USERNAME$
 50
90.0
  7
txt
 11
959.2947
 21
1252.7657
 31
-0.0001
210
0.0
220
0.0
230
1.0
 73
     2
  0
TEXT
  8
1
  6
CONTINUOUS
 62
   140
  5
5C2
 10
960.4467
 20
1282.4713
 30
-0.0001
 40
2.304
  1
DD-MMM-YYYY HH:MM
 50
90.0
  7
txt
 11
959.2947
 21
1282.4713
 31
-0.0001
210
0.0
220
0.0
230
1.0
 73
     2
  0
POINT
  8
1
  6
CONTINUOUS
 62
     7
  5
5C3
 10
974.5043
 20
2046.5737
 30
-0.0001
  0
POINT
  8
1
  6
CONTINUOUS
 62
     7
  5
5C4
 10
-360.4237
 20
1131.9273
 30
-0.0001
  0
POINT
  8
1
  6
CONTINUOUS
 62
     2
  5
5C5
 10
-318.2477
 20
1992.9033
 30
-0.0001
  0
POINT
  8
1
  6
CONTINUOUS
 62
     2
  5
5C6
 10
960.7443
 20
1185.5945
 30
-0.0001
  0
POINT
  8
1
  6
CONTINUOUS
 62
   110
  5
5C7
 10
968.4243
 20
2004.2569
 30
-0.0001
  0
POINT
  8
1
  6
CONTINUOUS
 62
   110
  5
5C8
 10
-324.8877
 20
1174.5289
 30
-0.0001
  0
LINE
  8
1
  6
CONTINUOUS
 62
   140
  5
5C9
 10
-291.0957
 20
1992.4489
 30
-0.0001
 11
-291.0957
 21
1186.0489
 31
-0.0001
  0
LINE
  8
1
  6
CONTINUOUS
 62
   140
  5
5CA
 10
956.9043
 20
1992.4489
 30
-0.0001
 11
-291.0957
 21
1992.4489
 31
-0.0001
  0
LINE
  8
1
  6
CONTINUOUS
 62
   140
  5
5CB
 10
956.9043
 20
1992.4489
 30
-0.0001
 11
956.9043
 21
1186.0489
 31
-0.0001
  0
LINE
  8
1
  6
CONTINUOUS
 62
   140
  5
5CC
 10
956.9043
 20
1186.0489
 30
-0.0001
 11
-291.0957
 21
1186.0489
 31
-0.0001
  0
LINE
  8
1
  6
CONTINUOUS
 62
   140
  5
5CD
 10
-300.6957
 20
1842.6889
 30
-0.0001
 11
-316.0557
 21
1842.6889
 31
-0.0001
  0
LINE
  8
1
  6
CONTINUOUS
 62
   140
  5
5CE
 10
-300.6957
 20
1735.1689
 30
-0.0001
 11
-316.0557
 21
1735.1689
 31
-0.0001
  0
LINE
  8
1
  6
CONTINUOUS
 62
   140
  5
5CF
 10
-300.6957
 20
1443.3289
 30
-0.0001
 11
-316.0557
 21
1443.3289
 31
-0.0001
  0
LINE
  8
1
  6
CONTINUOUS
 62
   140
  5
5D0
 10
-300.6957
 20
1335.8089
 30
-0.0001
 11
-316.0557
 21
1335.8089
 31
-0.0001
  0
CIRCLE
  8
1
  6
CONTINUOUS
 62
   140
  5
5D1
 10
-310.2957
 20
1842.6889
 30
-0.0001
 40
4.8
210
0.0
220
0.0
230
1.0
  0
CIRCLE
  8
1
  6
CONTINUOUS
 62
   140
  5
5D2
 10
-310.2957
 20
1735.1689
 30
-0.0001
 40
4.8
210
0.0
220
0.0
230
1.0
  0
CIRCLE
  8
1
  6
CONTINUOUS
 62
   140
  5
5D3
 10
-310.2957
 20
1443.3289
 30
-0.0001
 40
4.8
210
0.0
220
0.0
230
1.0
  0
CIRCLE
  8
1
  6
CONTINUOUS
 62
   140
  5
5D4
 10
-310.2957
 20
1335.8089
 30
-0.0001
 40
4.8
210
0.0
220
0.0
230
1.0
  0
POINT
  8
1
  6
CONTINUOUS
 62
   140
  5
5D5
 10
-291.0957
 20
1186.0489
 30
-0.0001
  0
POINT
  8
1
  6
CONTINUOUS
 62
   140
  5
5D6
 10
-291.0957
 20
1992.4489
 30
-0.0001
  0
POINT
  8
1
  6
CONTINUOUS
 62
   140
  5
5D7
 10
956.9043
 20
1992.4489
 30
-0.0001
  0
POINT
  8
1
  6
CONTINUOUS
 62
   140
  5
5D8
 10
956.9043
 20
1186.0489
 30
-0.0001
  0
LINE
  8
1
  6
CONTINUOUS
 62
   140
  5
5D9
 10
956.9043
 20
1186.0489
 30
-0.0001
 11
956.9043
 21
1282.0105
 31
-0.0001
  0
LINE
  8
1
  6
CONTINUOUS
 62
   140
  5
5DA
 10
956.9043
 20
1320.0585
 30
-0.0001
 11
726.5043
 21
1320.0585
 31
-0.0001
  0
LINE
  8
1
  6
CONTINUOUS
 62
   140
  5
5DB
 10
956.9043
 20
1186.0489
 30
-0.0001
 11
726.5043
 21
1186.0489
 31
-0.0001
  0
LINE
  8
1
  6
CONTINUOUS
 62
   140
  5
5DC
 10
785.5603
 20
1258.9705
 30
-0.0001
 11
726.5043
 21
1258.9705
 31
-0.0001
  0
LINE
  8
1
  6
CONTINUOUS
 62
   140
  5
5DD
 10
785.5603
 20
1251.3289
 30
-0.0001
 11
726.5043
 21
1251.3289
 31
-0.0001
  0
LINE
  8
1
  6
CONTINUOUS
 62
   140
  5
5DE
 10
785.5603
 20
1243.6873
 30
-0.0001
 11
726.5043
 21
1243.6873
 31
-0.0001
  0
LINE
  8
1
  6
CONTINUOUS
 62
   140
  5
5DF
 10
785.5603
 20
1236.0457
 30
-0.0001
 11
726.5043
 21
1236.0457
 31
-0.0001
  0
LINE
  8
1
  6
CONTINUOUS
 62
   140
  5
5E0
 10
785.5603
 20
1228.4041
 30
-0.0001
 11
726.5043
 21
1228.4041
 31
-0.0001
  0
LINE
  8
1
  6
CONTINUOUS
 62
   140
  5
5E1
 10
785.5603
 20
1220.7625
 30
-0.0001
 11
726.5043
 21
1220.7625
 31
-0.0001
  0
LINE
  8
1
  6
CONTINUOUS
 62
   140
  5
5E2
 10
785.5603
 20
1213.1209
 30
-0.0001
 11
726.5043
 21
1213.1209
 31
-0.0001
  0
LINE
  8
1
  6
CONTINUOUS
 62
   140
  5
5E3
 10
785.5603
 20
1205.4793
 30
-0.0001
 11
726.5043
 21
1205.4793
 31
-0.0001
  0
LINE
  8
1
  6
CONTINUOUS
 62
   140
  5
5E4
 10
785.5603
 20
1197.8377
 30
-0.0001
 11
726.5043
 21
1197.8377
 31
-0.0001
  0
TEXT
  8
1
  6
CONTINUOUS
 62
   140
  5
5E5
 10
738.2963
 20
1260.7881
 30
-0.0001
 40
3.0336
  1
REVISION DATE
 41
1.003165
  7
MONOTXT
210
0.0
220
0.0
230
1.0
  0
LINE
  8
1
  6
CONTINUOUS
 62
   140
  5
5E6
 10
726.5043
 20
1240.1929
 30
-0.0001
 11
726.5043
 21
1186.0489
 31
-0.0001
  0
TEXT
  8
1
  6
CONTINUOUS
 62
   140
  5
5E8
 10
734.6195
 20
1310.2697
 30
-0.0001
 40
7.2
  1
WEST VIRGINIA DEPARTMENT OF TRANSPORTATION
  7
ROMANT
 72
     4
 11
841.0037
 21
1313.8697
 31
-0.0001
210
0.0
220
0.0
230
1.0
  0
TEXT
  8
1
  6
CONTINUOUS
 62
   140
  5
5E9
 10
795.0163
 20
1302.2473
 30
-0.0001
 40
7.2
  1
DIVISION OF HIGHWAYS
  7
ROMANT
 72
     4
 11
841.8446
 21
1305.8473
 31
-0.0001
210
0.0
220
0.0
230
1.0
  0
TEXT
  8
1
  6
CONTINUOUS
 62
   140
  5
5EA
 10
803.8515
 20
1294.6377
 30
-0.0001
 40
7.2
  1
STANDARD DETAIL
  7
ROMANT
 72
     4
 11
841.4105
 21
1298.2377
 31
-0.0001
210
0.0
220
0.0
230
1.0
  0
LINE
  8
1
  6
CONTINUOUS
 62
   140
  5
5EB
 10
785.5603
 20
1266.6505
 30
-0.0001
 11
726.5043
 21
1266.6505
 31
-0.0001
  0
LINE
  8
1
  6
CONTINUOUS
 62
   140
  5
5EC
 10
785.5603
 20
1186.0489
 30
-0.0001
 11
785.5603
 21
1266.6505
 31
-0.0001
  0
LINE
  8
1
  6
CONTINUOUS
 62
   140
  5
5ED
 10
726.5043
 20
1186.0489
 30
-0.0001
 11
726.5043
 21
1320.0585
 31
-0.0001
  0
TEXT
  8
1
  6
CONTINUOUS
 62
     2
  5
5EE
 10
803.5011
 20
1194.3849
 30
-0.0001
 40
6.4
  1
STANDARD SHEET DR2       
  7
txt
 72
     4
 11
881.8128
 21
1197.5849
 31
-0.0001
210
0.0
220
0.0
230
1.0
  0
TEXT
  8
1
  6
CONTINUOUS
 62
     2
  5
5EF
 10
775.1027
 20
1276.7529
 30
-0.0001
 40
8.0
  1
                        
  7
txt
 72
     4
 11
869.7695
 21
1280.7529
 31
-0.0001
210
0.0
220
0.0
230
1.0
  0
TEXT
  8
1
  6
CONTINUOUS
 62
     2
  5
5F0
 10
789.9028
 20
1262.4841
 30
-0.0001
 40
8.0
  1
      PIPE CULVERT      
  7
txt
 72
     4
 11
884.0131
 21
1266.4841
 31
-0.0001
210
0.0
220
0.0
230
1.0
  0
TEXT
  8
1
  6
CONTINUOUS
 62
     2
  5
5F1
 10
781.962
 20
1248.0713
 30
-0.0001
 40
8.0
  1
        WINGWALLS       
  7
txt
 72
     4
 11
876.1353
 21
1252.0713
 31
-0.0001
210
0.0
220
0.0
230
1.0
  0
TEXT
  8
1
  6
CONTINUOUS
 62
     2
  5
5F2
 10
800.1123
 20
1234.6185
 30
-0.0001
 40
8.0
  1
     (SHEET 4 OF 4)     
  7
txt
 72
     4
 11
894.1911
 21
1238.6185
 31
-0.0001
210
0.0
220
0.0
230
1.0
  0
TEXT
  8
1
  6
CONTINUOUS
 62
     2
  5
5F3
 10
775.3171
 20
1221.1657
 30
-0.0001
 40
8.0
  1
                        
  7
txt
 72
     4
 11
869.9839
 21
1225.1657
 31
-0.0001
210
0.0
220
0.0
230
1.0
  0
TEXT
  8
1
  6
CONTINUOUS
 62
     2
  5
5F5
 10
727.8515
 20
1252.7273
 30
-0.0001
 40
3.2
  1
                  
  7
ROMANS
 72
     4
 11
756.1183
 21
1254.3273
 31
-0.0001
210
0.0
220
0.0
230
1.0
  0
TEXT
  8
1
  6
CONTINUOUS
 62
     2
  5
5F6
 10
727.8515
 20
1245.0857
 30
-0.0001
 40
3.2
  1
                  
  7
ROMANS
 72
     4
 11
756.1183
 21
1246.6857
 31
-0.0001
210
0.0
220
0.0
230
1.0
  0
TEXT
  8
1
  6
CONTINUOUS
 62
     2
  5
5F7
 10
727.8515
 20
1237.4441
 30
-0.0001
 40
3.2
  1
                  
  7
ROMANS
 72
     4
 11
756.1183
 21
1239.0441
 31
-0.0001
210
0.0
220
0.0
230
1.0
  0
TEXT
  8
1
  6
CONTINUOUS
 62
     2
  5
5F8
 10
727.8515
 20
1229.8025
 30
-0.0001
 40
3.2
  1
                  
  7
ROMANS
 72
     4
 11
756.1183
 21
1231.4025
 31
-0.0001
210
0.0
220
0.0
230
1.0
  0
TEXT
  8
1
  6
CONTINUOUS
 62
     2
  5
5F9
 10
727.8515
 20
1222.1609
 30
-0.0001
 40
3.2
  1
                  
  7
ROMANS
 72
     4
 11
756.1183
 21
1223.7609
 31
-0.0001
210
0.0
220
0.0
230
1.0
  0
TEXT
  8
1
  6
CONTINUOUS
 62
     2
  5
5FA
 10
727.8515
 20
1214.5193
 30
-0.0001
 40
3.2
  1
                  
  7
ROMANS
 72
     4
 11
756.1183
 21
1216.1193
 31
-0.0001
210
0.0
220
0.0
230
1.0
  0
TEXT
  8
1
  6
CONTINUOUS
 62
     2
  5
5FB
 10
727.8515
 20
1206.8777
 30
-0.0001
 40
3.2
  1
                  
  7
ROMANS
 72
     4
 11
756.1183
 21
1208.4777
 31
-0.0001
210
0.0
220
0.0
230
1.0
  0
TEXT
  8
1
  6
CONTINUOUS
 62
     2
  5
5FC
 10
727.8515
 20
1199.2361
 30
-0.0001
 40
3.2
  1
                  
  7
ROMANS
 72
     4
 11
756.1183
 21
1200.8361
 31
-0.0001
210
0.0
220
0.0
230
1.0
  0
TEXT
  8
1
  6
CONTINUOUS
 62
     2
  5
5FD
 10
727.7907
 20
1191.3961
 30
-0.0001
 40
3.2
  1
                  
  7
ROMANS
 72
     4
 11
756.0575
 21
1192.9961
 31
-0.0001
210
0.0
220
0.0
230
1.0
  0
TEXT
  8
1
  6
CONTINUOUS
 62
   140
  5
5FE
 10
-289.2525
 20
1181.4025
 30
-0.0001
 40
2.304
  1
D09K20C95-STDBOR c
  7
MONOTXT
210
0.0
220
0.0
230
1.0
  0
POINT
  8
1
  6
CONTINUOUS
 62
     7
  5
5FF
 10
974.5043
 20
2046.5737
 30
-0.0001
  0
POINT
  8
1
  6
CONTINUOUS
 62
     7
  5
600
 10
-360.4237
 20
1131.9273
 30
-0.0001
  0
POINT
  8
1
  6
CONTINUOUS
 62
     2
  5
601
 10
-318.2477
 20
1992.9033
 30
-0.0001
  0
POINT
  8
1
  6
CONTINUOUS
 62
     2
  5
602
 10
960.7443
 20
1185.5945
 30
-0.0001
  0
POINT
  8
1
  6
CONTINUOUS
 62
   110
  5
603
 10
968.4243
 20
2004.2569
 30
-0.0001
  0
POINT
  8
1
  6
CONTINUOUS
 62
   110
  5
604
 10
-324.8877
 20
1174.5289
 30
-0.0001
  0
TEXT
  8
0
  6
CONTINUOUS
 62
    40
  5
605
 10
17.4983
 20
1842.3499
 30
0.0
 40
3.0
  1
7'-7"
  7
MONOTXT
210
0.0
220
0.0
230
1.0
  0
TEXT
  8
0
  6
CONTINUOUS
 62
    40
  5
606
 10
36.4361
 20
1842.0904
 30
0.0
 40
3.0
  1
11'-9"
  7
MONOTXT
210
0.0
220
0.0
230
1.0
  0
TEXT
  8
0
  6
CONTINUOUS
 62
    40
  5
607
 10
-161.5233
 20
1900.1272
 30
0.0
 40
3.0
  1
7'-4"
  7
MONOTXT
210
0.0
220
0.0
230
1.0
  0
TEXT
  8
0
  6
CONTINUOUS
 62
    40
  5
608
 10
-139.1689
 20
1899.7209
 30
0.0
 40
3.0
  1
3'-6"
  7
MONOTXT
210
0.0
220
0.0
230
1.0
  0
TEXT
  8
0
  6
CONTINUOUS
 62
    40
  5
609
 10
-118.8468
 20
1900.1272
 30
0.0
 40
3.0
  1
7'-1"
  7
MONOTXT
210
0.0
220
0.0
230
1.0
  0
TEXT
  8
0
  6
CONTINUOUS
 62
    40
  5
60A
 10
-100.9633
 20
1900.1272
 30
0.0
 40
3.0
  1
8'-0"
  7
MONOTXT
210
0.0
220
0.0
230
1.0
  0
TEXT
  8
0
  6
CONTINUOUS
 62
    40
  5
60B
 10
-80.6412
 20
1900.1272
 30
0.0
 40
3.0
  1
23'-3"
  7
MONOTXT
210
0.0
220
0.0
230
1.0
  0
TEXT
  8
0
  6
CONTINUOUS
 62
    40
  5
60C
 10
-54.2224
 20
1900.1272
 30
0.0
 40
3.0
  1
10'-9"
  7
MONOTXT
210
0.0
220
0.0
230
1.0
  0
TEXT
  8
0
  6
CONTINUOUS
 62
    40
  5
60D
 10
57.3324
 20
1899.7866
 30
0.0
 40
3.0
  1
5'-1"
  7
MONOTXT
210
0.0
220
0.0
230
1.0
  0
TEXT
  8
0
  6
CONTINUOUS
 62
    40
  5
60E
 10
56.7827
 20
1891.3611
 30
0.0
 40
3.0
  1
4'-4"
  7
MONOTXT
210
0.0
220
0.0
230
1.0
  0
TEXT
  8
0
  6
CONTINUOUS
 62
    40
  5
60F
 10
56.4109
 20
1883.1188
 30
0.0
 40
3.0
  1
22'-9"
  7
MONOTXT
210
0.0
220
0.0
230
1.0
  0
TEXT
  8
0
  6
CONTINUOUS
 62
    40
  5
610
 10
56.4109
 20
1874.6933
 30
0.0
 40
3.0
  1
20'-8"
  7
MONOTXT
210
0.0
220
0.0
230
1.0
  0
TEXT
  8
0
  6
CONTINUOUS
 62
    40
  5
611
 10
56.4109
 20
1867.1837
 30
0.0
 40
3.0
  1
17'-8"
  7
MONOTXT
210
0.0
220
0.0
230
1.0
  0
TEXT
  8
0
  6
CONTINUOUS
 62
    40
  5
612
 10
56.9128
 20
1858.3828
 30
0.0
 40
3.0
  1
14'-8"
  7
MONOTXT
210
0.0
220
0.0
230
1.0
  0
TEXT
  8
0
  6
CONTINUOUS
 62
    40
  5
613
 10
57.4935
 20
1850.1399
 30
0.0
 40
3.0
  1
9'-11"
  7
MONOTXT
210
0.0
220
0.0
230
1.0
  0
TEXT
  8
0
  6
CONTINUOUS
 62
    40
  5
614
 10
57.4935
 20
1842.7431
 30
0.0
 40
3.0
  1
31'-1"
  7
MONOTXT
210
0.0
220
0.0
230
1.0
  0
TEXT
  8
0
  6
CONTINUOUS
 62
    40
  5
615
 10
57.5423
 20
1834.7179
 30
0.0
 40
3.0
  1
10'-1"
  7
MONOTXT
210
0.0
220
0.0
230
1.0
  0
TEXT
  8
0
  6
CONTINUOUS
 62
    40
  5
616
 10
56.6889
 20
1817.8436
 30
0.0
 40
3.0
  1
6'-2"
  7
MONOTXT
210
0.0
220
0.0
230
1.0
  0
TEXT
  8
0
  6
CONTINUOUS
 62
    40
  5
617
 10
75.3161
 20
1899.489
 30
0.0
 40
3.0
  1
18" cc
  7
MONOTXT
210
0.0
220
0.0
230
1.0
  0
TEXT
  8
0
  6
CONTINUOUS
 62
    40
  5
618
 10
75.4772
 20
1890.8687
 30
0.0
 40
3.0
  1
18" cc
  7
MONOTXT
210
0.0
220
0.0
230
1.0
  0
TEXT
  8
0
  6
CONTINUOUS
 62
    40
  5
619
 10
75.1549
 20
1882.9416
 30
0.0
 40
3.0
  1
18" cc
  7
MONOTXT
210
0.0
220
0.0
230
1.0
  0
TEXT
  8
0
  6
CONTINUOUS
 62
    40
  5
61A
 10
75.1549
 20
1874.3912
 30
0.0
 40
3.0
  1
18" cc
  7
MONOTXT
210
0.0
220
0.0
230
1.0
  0
TEXT
  8
0
  6
CONTINUOUS
 62
    40
  5
61B
 10
74.6716
 20
1866.5341
 30
0.0
 40
3.0
  1
18" cc
  7
MONOTXT
210
0.0
220
0.0
230
1.0
  0
TEXT
  8
0
  6
CONTINUOUS
 62
    40
  5
61C
 10
74.8327
 20
1858.677
 30
0.0
 40
3.0
  1
18" cc
  7
MONOTXT
210
0.0
220
0.0
230
1.0
  0
TEXT
  8
0
  6
CONTINUOUS
 62
    40
  5
61D
 10
74.9519
 20
1850.8199
 30
0.0
 40
3.0
  1
5" cc
  7
MONOTXT
210
0.0
220
0.0
230
1.0
  0
TEXT
  8
0
  6
CONTINUOUS
 62
    40
  5
61E
 10
117.1225
 20
1906.643
 30
0.0
 40
2.295
  1
(C.Y.)
  7
MONOTXT
210
0.0
220
0.0
230
1.0
  0
TEXT
  8
0
  6
CONTINUOUS
 62
    40
  5
61F
 10
134.8921
 20
1906.6289
 30
0.0
 40
2.2907
  1
(LBS.)
  7
MONOTXT
210
0.0
220
0.0
230
1.0
  0
TEXT
  8
0
  6
CONTINUOUS
 62
    40
  5
620
 10
17.4983
 20
1818.203
 30
0.0
 40
3.0
  1
2'-0"
  7
MONOTXT
210
0.0
220
0.0
230
1.0
  0
TEXT
  8
0
  6
CONTINUOUS
 62
    40
  5
621
 10
37.3523
 20
1817.913
 30
0.0
 40
3.0
  1
4'-2"
  7
MONOTXT
210
0.0
220
0.0
230
1.0
  0
TEXT
  8
0
  6
CONTINUOUS
 62
    40
  5
622
 10
73.9853
 20
1818.0803
 30
0.0
 40
3.0
  1
18" cc
  7
MONOTXT
210
0.0
220
0.0
230
1.0
  0
TEXT
  8
0
  6
CONTINUOUS
 62
    40
  5
623
 10
17.4983
 20
1801.3215
 30
0.0
 40
3.0
  1
2'-0"
  7
MONOTXT
210
0.0
220
0.0
230
1.0
  0
TEXT
  8
0
  6
CONTINUOUS
 62
    40
  5
624
 10
35.703
 20
1801.2452
 30
0.0
 40
3.0
  1
6'-8"
  7
MONOTXT
210
0.0
220
0.0
230
1.0
  0
TEXT
  8
0
  6
CONTINUOUS
 62
    40
  5
625
 10
56.9128
 20
1801.2147
 30
0.0
 40
3.0
  1
8'-8"
  7
MONOTXT
210
0.0
220
0.0
230
1.0
  0
TEXT
  8
0
  6
CONTINUOUS
 62
    40
  5
626
 10
74.0926
 20
1801.5973
 30
0.0
 40
3.0
  1
18" cc
  7
MONOTXT
210
0.0
220
0.0
230
1.0
  0
TEXT
  8
0
  6
CONTINUOUS
 62
    40
  5
627
 10
17.4983
 20
1793.3137
 30
0.0
 40
3.0
  1
2'-0"
  7
MONOTXT
210
0.0
220
0.0
230
1.0
  0
TEXT
  8
0
  6
CONTINUOUS
 62
    40
  5
628
 10
35.8863
 20
1793.5524
 30
0.0
 40
3.0
  1
7'-2"
  7
MONOTXT
210
0.0
220
0.0
230
1.0
  0
TEXT
  8
0
  6
CONTINUOUS
 62
    40
  5
629
 10
56.9128
 20
1793.5037
 30
0.0
 40
3.0
  1
9'-2"
  7
MONOTXT
210
0.0
220
0.0
230
1.0
  0
TEXT
  8
0
  6
CONTINUOUS
 62
    40
  5
62A
 10
74.4017
 20
1793.509
 30
0.0
 40
3.0
  1
18" cc
  7
MONOTXT
210
0.0
220
0.0
230
1.0
  0
TEXT
  8
0
  6
CONTINUOUS
 62
    40
  5
62B
 10
57.1788
 20
1785.2609
 30
0.0
 40
3.0
  1
5'-0"
  7
MONOTXT
210
0.0
220
0.0
230
1.0
  0
TEXT
  8
0
  6
CONTINUOUS
 62
    40
  5
62C
 10
17.4983
 20
1776.9609
 30
0.0
 40
3.0
  1
2'-0"
  7
MONOTXT
210
0.0
220
0.0
230
1.0
  0
TEXT
  8
0
  6
CONTINUOUS
 62
    40
  5
62D
 10
38.0244
 20
1777.5498
 30
0.0
 40
3.0
  1
2'-7"
  7
MONOTXT
210
0.0
220
0.0
230
1.0
  0
TEXT
  8
0
  6
CONTINUOUS
 62
    40
  5
62E
 10
56.9128
 20
1777.5498
 30
0.0
 40
3.0
  1
4'-7"
  7
MONOTXT
210
0.0
220
0.0
230
1.0
  0
TEXT
  8
0
  6
CONTINUOUS
 62
    40
  5
62F
 10
73.938
 20
1777.1015
 30
0.0
 40
3.0
  1
18" cc
  7
MONOTXT
210
0.0
220
0.0
230
1.0
  0
TEXT
  8
0
  6
CONTINUOUS
 62
    40
  5
630
 10
17.4983
 20
1760.4312
 30
0.0
 40
3.0
  1
2'-0"
  7
MONOTXT
210
0.0
220
0.0
230
1.0
  0
TEXT
  8
0
  6
CONTINUOUS
 62
    40
  5
631
 10
37.7188
 20
1760.7663
 30
0.0
 40
3.0
  1
5'-1"
  7
MONOTXT
210
0.0
220
0.0
230
1.0
  0
TEXT
  8
0
  6
CONTINUOUS
 62
    40
  5
632
 10
56.6036
 20
1760.4703
 30
0.0
 40
3.0
  1
7'-1"
  7
MONOTXT
210
0.0
220
0.0
230
1.0
  0
TEXT
  8
0
  6
CONTINUOUS
 62
    40
  5
633
 10
74.2472
 20
1760.541
 30
0.0
 40
3.0
  1
18" cc
  7
MONOTXT
210
0.0
220
0.0
230
1.0
  0
TEXT
  8
0
  6
CONTINUOUS
 62
    40
  5
634
 10
17.4983
 20
1752.3866
 30
0.0
 40
3.0
  1
2'-0"
  7
MONOTXT
210
0.0
220
0.0
230
1.0
  0
TEXT
  8
0
  6
CONTINUOUS
 62
    40
  5
635
 10
38.6351
 20
1752.524
 30
0.0
 40
3.0
  1
5'-7"
  7
MONOTXT
210
0.0
220
0.0
230
1.0
  0
TEXT
  8
0
  6
CONTINUOUS
 62
    40
  5
636
 10
58.2429
 20
1752.5555
 30
0.0
 40
3.0
  1
7'-7"
  7
MONOTXT
210
0.0
220
0.0
230
1.0
  0
TEXT
  8
0
  6
CONTINUOUS
 62
    40
  5
637
 10
74.0926
 20
1752.3747
 30
0.0
 40
3.0
  1
18" cc
  7
MONOTXT
210
0.0
220
0.0
230
1.0
  0
TEXT
  8
0
  6
CONTINUOUS
 62
    40
  5
638
 10
17.4983
 20
1737.9287
 30
0.0
 40
3.0
  1
2'-0"
  7
MONOTXT
210
0.0
220
0.0
230
1.0
  0
TEXT
  8
0
  6
CONTINUOUS
 62
    40
  5
639
 10
37.6678
 20
1737.6878
 30
0.0
 40
3.0
  1
4'-2"
  7
MONOTXT
210
0.0
220
0.0
230
1.0
  0
TEXT
  8
0
  6
CONTINUOUS
 62
    40
  5
63A
 10
56.1959
 20
1737.6652
 30
0.0
 40
3.0
  1
6'-2"
  7
MONOTXT
210
0.0
220
0.0
230
1.0
  0
TEXT
  8
0
  6
CONTINUOUS
 62
    40
  5
63B
 10
73.7834
 20
1737.8159
 30
0.0
 40
3.0
  1
18" cc
  7
MONOTXT
210
0.0
220
0.0
230
1.0
  0
TEXT
  8
0
  6
CONTINUOUS
 62
    40
  5
63C
 10
16.5518
 20
1721.2512
 30
0.0
 40
3.0
  1
2'-0"
  7
MONOTXT
210
0.0
220
0.0
230
1.0
  0
TEXT
  8
0
  6
CONTINUOUS
 62
    40
  5
63D
 10
36.0508
 20
1721.5056
 30
0.0
 40
3.0
  1
7'-2"
  7
MONOTXT
210
0.0
220
0.0
230
1.0
  0
TEXT
  8
0
  6
CONTINUOUS
 62
    40
  5
63E
 10
56.4059
 20
1721.3341
 30
0.0
 40
3.0
  1
9'-2"
  7
MONOTXT
210
0.0
220
0.0
230
1.0
  0
TEXT
  8
0
  6
CONTINUOUS
 62
    40
  5
63F
 10
73.938
 20
1721.4084
 30
0.0
 40
3.0
  1
18" cc
  7
MONOTXT
210
0.0
220
0.0
230
1.0
  0
TEXT
  8
0
  6
CONTINUOUS
 62
    40
  5
640
 10
56.5691
 20
1713.0913
 30
0.0
 40
3.0
  1
1'-3"
  7
MONOTXT
210
0.0
220
0.0
230
1.0
  0
TEXT
  8
0
  6
CONTINUOUS
 62
    40
  5
641
 10
74.0925
 20
1713.0873
 30
0.0
 40
3.0
  1
18" cc
  7
MONOTXT
210
0.0
220
0.0
230
1.0
  0
TEXT
  8
0
  6
CONTINUOUS
 62
    40
  5
642
 10
56.8382
 20
1705.1143
 30
0.0
 40
3.0
  1
2'-6"
  7
MONOTXT
210
0.0
220
0.0
230
1.0
  0
TEXT
  8
0
  6
CONTINUOUS
 62
    40
  5
643
 10
74.0925
 20
1705.1538
 30
0.0
 40
3.0
  1
18" cc
  7
MONOTXT
210
0.0
220
0.0
230
1.0
  0
TEXT
  8
0
  6
CONTINUOUS
 62
    40
  5
644
 10
-161.9297
 20
1688.8841
 30
0.0
 40
3.0
  1
8'-6"
  7
MONOTXT
210
0.0
220
0.0
230
1.0
  0
TEXT
  8
0
  6
CONTINUOUS
 62
    40
  5
645
 10
-139.7872
 20
1688.7872
 30
0.0
 40
3.0
  1
4'-0"
  7
MONOTXT
210
0.0
220
0.0
230
1.0
  0
TEXT
  8
0
  6
CONTINUOUS
 62
    40
  5
646
 10
-119.6597
 20
1688.4779
 30
0.0
 40
3.0
  1
8'-2"
  7
MONOTXT
210
0.0
220
0.0
230
1.0
  0
TEXT
  8
0
  6
CONTINUOUS
 62
    40
  5
647
 10
-99.744
 20
1688.4779
 30
0.0
 40
3.0
  1
9'-2"
  7
MONOTXT
210
0.0
220
0.0
230
1.0
  0
TEXT
  8
0
  6
CONTINUOUS
 62
    40
  5
648
 10
-78.6089
 20
1688.7871
 30
0.0
 40
3.0
  1
26'-9"
  7
MONOTXT
210
0.0
220
0.0
230
1.0
  0
TEXT
  8
0
  6
CONTINUOUS
 62
    40
  5
649
 10
-53.8159
 20
1688.4779
 30
0.0
 40
3.0
  1
12'-5"
  7
MONOTXT
210
0.0
220
0.0
230
1.0
  0
TEXT
  8
0
  6
CONTINUOUS
 62
    40
  5
64A
 10
56.9896
 20
1688.7147
 30
0.0
 40
3.0
  1
5'-1"
  7
MONOTXT
210
0.0
220
0.0
230
1.0
  0
TEXT
  8
0
  6
CONTINUOUS
 62
    40
  5
64B
 10
73.6836
 20
1688.7148
 30
0.0
 40
3.0
  1
18" cc
  7
MONOTXT
210
0.0
220
0.0
230
1.0
  0
TEXT
  8
0
  6
CONTINUOUS
 62
    40
  5
64C
 10
114.3614
 20
1688.9351
 30
0.0
 40
3.0
  1
14.25
  7
MONOTXT
210
0.0
220
0.0
230
1.0
  0
TEXT
  8
0
  6
CONTINUOUS
 62
    40
  5
64D
 10
56.3282
 20
1680.8246
 30
0.0
 40
3.0
  1
4'-4"
  7
MONOTXT
210
0.0
220
0.0
230
1.0
  0
TEXT
  8
0
  6
CONTINUOUS
 62
    40
  5
64E
 10
73.3745
 20
1680.6737
 30
0.0
 40
3.0
  1
18" cc
  7
MONOTXT
210
0.0
220
0.0
230
1.0
  0
TEXT
  8
0
  6
CONTINUOUS
 62
    40
  5
64F
 10
55.3079
 20
1672.3159
 30
0.0
 40
3.0
  1
26'-3"
  7
MONOTXT
210
0.0
220
0.0
230
1.0
  0
TEXT
  8
0
  6
CONTINUOUS
 62
    40
  5
650
 10
73.7834
 20
1672.0927
 30
0.0
 40
3.0
  1
18" cc
  7
MONOTXT
210
0.0
220
0.0
230
1.0
  0
TEXT
  8
0
  6
CONTINUOUS
 62
    40
  5
651
 10
55.2734
 20
1664.2088
 30
0.0
 40
3.0
  1
24'-2"
  7
MONOTXT
210
0.0
220
0.0
230
1.0
  0
TEXT
  8
0
  6
CONTINUOUS
 62
    40
  5
652
 10
73.4743
 20
1664.3609
 30
0.0
 40
3.0
  1
18" cc
  7
MONOTXT
210
0.0
220
0.0
230
1.0
  0
TEXT
  8
0
  6
CONTINUOUS
 62
    40
  5
653
 10
74.0926
 20
1655.7013
 30
0.0
 40
3.0
  1
18" cc
  7
MONOTXT
210
0.0
220
0.0
230
1.0
  0
TEXT
  8
0
  6
CONTINUOUS
 62
    40
  5
654
 10
73.7834
 20
1647.9695
 30
0.0
 40
3.0
  1
18" cc
  7
MONOTXT
210
0.0
220
0.0
230
1.0
  0
TEXT
  8
0
  6
CONTINUOUS
 62
    40
  5
655
 10
55.8056
 20
1656.0094
 30
0.0
 40
3.0
  1
21'-2"
  7
MONOTXT
210
0.0
220
0.0
230
1.0
  0
TEXT
  8
0
  6
CONTINUOUS
 62
    40
  5
656
 10
55.8486
 20
1648.1192
 30
0.0
 40
3.0
  1
18'-2"
  7
MONOTXT
210
0.0
220
0.0
230
1.0
  0
TEXT
  8
0
  6
CONTINUOUS
 62
    40
  5
657
 10
55.8486
 20
1639.437
 30
0.0
 40
3.0
  1
11'-1"
  7
MONOTXT
210
0.0
220
0.0
230
1.0
  0
TEXT
  8
0
  6
CONTINUOUS
 62
    40
  5
658
 10
74.9421
 20
1639.5088
 30
0.0
 40
3.0
  1
5" cc
  7
MONOTXT
210
0.0
220
0.0
230
1.0
  0
TEXT
  8
0
  6
CONTINUOUS
 62
    40
  5
659
 10
17.2123
 20
1631.4729
 30
0.0
 40
3.0
  1
8'-9"
  7
MONOTXT
210
0.0
220
0.0
230
1.0
  0
TEXT
  8
0
  6
CONTINUOUS
 62
    40
  5
65A
 10
36.001
 20
1631.1484
 30
0.0
 40
3.0
  1
13'-8"
  7
MONOTXT
210
0.0
220
0.0
230
1.0
  0
TEXT
  8
0
  6
CONTINUOUS
 62
    40
  5
65B
 10
54.2524
 20
1623.3907
 30
0.0
 40
3.0
  1
11'-9"
  7
MONOTXT
210
0.0
220
0.0
230
1.0
  0
TEXT
  8
0
  6
CONTINUOUS
 62
    40
  5
65C
 10
16.3802
 20
1615.2019
 30
0.0
 40
3.0
  1
2'-0"
  7
MONOTXT
210
0.0
220
0.0
230
1.0
  0
TEXT
  8
0
  6
CONTINUOUS
 62
    40
  5
65D
 10
36.0695
 20
1615.0301
 30
0.0
 40
3.0
  1
4'-8"
  7
MONOTXT
210
0.0
220
0.0
230
1.0
  0
TEXT
  8
0
  6
CONTINUOUS
 62
    40
  5
65E
 10
55.6762
 20
1615.2346
 30
0.0
 40
3.0
  1
6'-8"
  7
MONOTXT
210
0.0
220
0.0
230
1.0
  0
TEXT
  8
0
  6
CONTINUOUS
 62
    40
  5
65F
 10
74.0926
 20
1615.1866
 30
0.0
 40
3.0
  1
18" cc
  7
MONOTXT
210
0.0
220
0.0
230
1.0
  0
TEXT
  8
0
  6
CONTINUOUS
 62
    40
  5
660
 10
17.3076
 20
1598.6604
 30
0.0
 40
3.0
  1
2'-0"
  7
MONOTXT
210
0.0
220
0.0
230
1.0
  0
TEXT
  8
0
  6
CONTINUOUS
 62
    40
  5
661
 10
36.8026
 20
1597.8128
 30
0.0
 40
3.0
  1
6'-8"
  7
MONOTXT
210
0.0
220
0.0
230
1.0
  0
TEXT
  8
0
  6
CONTINUOUS
 62
    40
  5
662
 10
55.8486
 20
1598.1304
 30
0.0
 40
3.0
  1
8'-8"
  7
MONOTXT
210
0.0
220
0.0
230
1.0
  0
TEXT
  8
0
  6
CONTINUOUS
 62
    40
  5
663
 10
74.0926
 20
1598.4859
 30
0.0
 40
3.0
  1
18" cc
  7
MONOTXT
210
0.0
220
0.0
230
1.0
  0
TEXT
  8
0
  6
CONTINUOUS
 62
    40
  5
664
 10
73.7835
 20
1590.7541
 30
0.0
 40
3.0
  1
18" cc
  7
MONOTXT
210
0.0
220
0.0
230
1.0
  0
TEXT
  8
0
  6
CONTINUOUS
 62
    40
  5
665
 10
73.7835
 20
1582.7131
 30
0.0
 40
3.0
  1
18" cc
  7
MONOTXT
210
0.0
220
0.0
230
1.0
  0
TEXT
  8
0
  6
CONTINUOUS
 62
    40
  5
666
 10
74.4018
 20
1574.3627
 30
0.0
 40
3.0
  1
18" cc
  7
MONOTXT
210
0.0
220
0.0
230
1.0
  0
TEXT
  8
0
  6
CONTINUOUS
 62
    40
  5
667
 10
74.4018
 20
1566.3216
 30
0.0
 40
3.0
  1
18" cc
  7
MONOTXT
210
0.0
220
0.0
230
1.0
  0
TEXT
  8
0
  6
CONTINUOUS
 62
    40
  5
668
 10
17.3076
 20
1590.7763
 30
0.0
 40
3.0
  1
2'-0"
  7
MONOTXT
210
0.0
220
0.0
230
1.0
  0
TEXT
  8
0
  6
CONTINUOUS
 62
    40
  5
669
 10
36.9858
 20
1590.4863
 30
0.0
 40
3.0
  1
7'-2"
  7
MONOTXT
210
0.0
220
0.0
230
1.0
  0
TEXT
  8
0
  6
CONTINUOUS
 62
    40
  5
66A
 10
55.5826
 20
1590.4194
 30
0.0
 40
3.0
  1
9'-2"
  7
MONOTXT
210
0.0
220
0.0
230
1.0
  0
TEXT
  8
0
  6
CONTINUOUS
 62
    40
  5
66B
 10
16.9985
 20
1582.1332
 30
0.0
 40
3.0
  1
2'-0"
  7
MONOTXT
210
0.0
220
0.0
230
1.0
  0
TEXT
  8
0
  6
CONTINUOUS
 62
    40
  5
66C
 10
36.6082
 20
1582.187
 30
0.0
 40
3.0
  1
7'-8"
  7
MONOTXT
210
0.0
220
0.0
230
1.0
  0
TEXT
  8
0
  6
CONTINUOUS
 62
    40
  5
66D
 10
55.5899
 20
1582.399
 30
0.0
 40
3.0
  1
9'-8"
  7
MONOTXT
210
0.0
220
0.0
230
1.0
  0
TEXT
  8
0
  6
CONTINUOUS
 62
    40
  5
66E
 10
16.6893
 20
1574.1816
 30
0.0
 40
3.0
  1
2'-0"
  7
MONOTXT
210
0.0
220
0.0
230
1.0
  0
TEXT
  8
0
  6
CONTINUOUS
 62
    40
  5
66F
 10
36.9746
 20
1574.0017
 30
0.0
 40
3.0
  1
8'-3"
  7
MONOTXT
210
0.0
220
0.0
230
1.0
  0
TEXT
  8
0
  6
CONTINUOUS
 62
    40
  5
670
 10
54.9285
 20
1574.243
 30
0.0
 40
3.0
  1
10'-3"
  7
MONOTXT
210
0.0
220
0.0
230
1.0
  0
TEXT
  8
0
  6
CONTINUOUS
 62
    40
  5
671
 10
17.3076
 20
1566.0614
 30
0.0
 40
3.0
  1
2'-0"
  7
MONOTXT
210
0.0
220
0.0
230
1.0
  0
TEXT
  8
0
  6
CONTINUOUS
 62
    40
  5
672
 10
35.7381
 20
1566.1828
 30
0.0
 40
3.0
  1
2'-10"
  7
MONOTXT
210
0.0
220
0.0
230
1.0
  0
TEXT
  8
0
  6
CONTINUOUS
 62
    40
  5
673
 10
54.7992
 20
1566.1793
 30
0.0
 40
3.0
  1
4'-10"
  7
MONOTXT
210
0.0
220
0.0
230
1.0
  0
TEXT
  8
0
  6
CONTINUOUS
 62
    40
  5
674
 10
-6.7132
 20
1549.9246
 30
0.0
 40
3.0
  1
5
  7
MONOTXT
210
0.0
220
0.0
230
1.0
  0
TEXT
  8
0
  6
CONTINUOUS
 62
    40
  5
675
 10
17.9259
 20
1549.2506
 30
0.0
 40
3.0
  1
2'-0"
  7
MONOTXT
210
0.0
220
0.0
230
1.0
  0
TEXT
  8
0
  6
CONTINUOUS
 62
    40
  5
676
 10
36.6809
 20
1549.7314
 30
0.0
 40
3.0
  1
4'-10"
  7
MONOTXT
210
0.0
220
0.0
230
1.0
  0
TEXT
  8
0
  6
CONTINUOUS
 62
    40
  5
677
 10
55.7239
 20
1548.9581
 30
0.0
 40
3.0
  1
6'-10"
  7
MONOTXT
210
0.0
220
0.0
230
1.0
  0
TEXT
  8
0
  6
CONTINUOUS
 62
    40
  5
678
 10
17.9259
 20
1541.3333
 30
0.0
 40
3.0
  1
2'-0"
  7
MONOTXT
210
0.0
220
0.0
230
1.0
  0
TEXT
  8
0
  6
CONTINUOUS
 62
    40
  5
679
 10
37.6084
 20
1541.6613
 30
0.0
 40
3.0
  1
5'-4"
  7
MONOTXT
210
0.0
220
0.0
230
1.0
  0
TEXT
  8
0
  6
CONTINUOUS
 62
    40
  5
67A
 10
56.9015
 20
1540.5868
 30
0.0
 40
3.0
  1
7'-4"
  7
MONOTXT
210
0.0
220
0.0
230
1.0
  0
TEXT
  8
0
  6
CONTINUOUS
 62
    40
  5
67B
 10
73.7835
 20
1549.9301
 30
0.0
 40
3.0
  1
18" cc
  7
MONOTXT
210
0.0
220
0.0
230
1.0
  0
TEXT
  8
0
  6
CONTINUOUS
 62
    40
  5
67C
 10
73.7835
 20
1541.5798
 30
0.0
 40
3.0
  1
18" cc
  7
MONOTXT
210
0.0
220
0.0
230
1.0
  0
TEXT
  8
0
  6
CONTINUOUS
 62
    40
  5
67D
 10
73.7835
 20
1533.2295
 30
0.0
 40
3.0
  1
18" cc
  7
MONOTXT
210
0.0
220
0.0
230
1.0
  0
TEXT
  8
0
  6
CONTINUOUS
 62
    40
  5
67E
 10
74.0926
 20
1525.1884
 30
0.0
 40
3.0
  1
18" cc
  7
MONOTXT
210
0.0
220
0.0
230
1.0
  0
TEXT
  8
0
  6
CONTINUOUS
 62
    40
  5
67F
 10
73.7835
 20
1516.838
 30
0.0
 40
3.0
  1
18" cc
  7
MONOTXT
210
0.0
220
0.0
230
1.0
  0
TEXT
  8
0
  6
CONTINUOUS
 62
    40
  5
680
 10
17.9259
 20
1532.9994
 30
0.0
 40
3.0
  1
2'-0"
  7
MONOTXT
210
0.0
220
0.0
230
1.0
  0
TEXT
  8
0
  6
CONTINUOUS
 62
    40
  5
681
 10
37.0441
 20
1533.1261
 30
0.0
 40
3.0
  1
5'-10"
  7
MONOTXT
210
0.0
220
0.0
230
1.0
  0
TEXT
  8
0
  6
CONTINUOUS
 62
    40
  5
682
 10
55.6649
 20
1532.9611
 30
0.0
 40
3.0
  1
7'-10"
  7
MONOTXT
210
0.0
220
0.0
230
1.0
  0
TEXT
  8
0
  6
CONTINUOUS
 62
    40
  5
683
 10
17.3076
 20
1525.0478
 30
0.0
 40
3.0
  1
2'-0"
  7
MONOTXT
210
0.0
220
0.0
230
1.0
  0
TEXT
  8
0
  6
CONTINUOUS
 62
    40
  5
684
 10
36.5907
 20
1525.3767
 30
0.0
 40
3.0
  1
6'-4"
  7
MONOTXT
210
0.0
220
0.0
230
1.0
  0
TEXT
  8
0
  6
CONTINUOUS
 62
    40
  5
685
 10
16.9984
 20
1517.1015
 30
0.0
 40
3.0
  1
2'-0"
  7
MONOTXT
210
0.0
220
0.0
230
1.0
  0
TEXT
  8
0
  6
CONTINUOUS
 62
    40
  5
686
 10
36.1167
 20
1517.162
 30
0.0
 40
3.0
  1
4'-8"
  7
MONOTXT
210
0.0
220
0.0
230
1.0
  0
TEXT
  8
0
  6
CONTINUOUS
 62
    40
  5
687
 10
55.9741
 20
1524.9232
 30
0.0
 40
3.0
  1
8'-4"
  7
MONOTXT
210
0.0
220
0.0
230
1.0
  0
TEXT
  8
0
  6
CONTINUOUS
 62
    40
  5
688
 10
56.9015
 20
1516.7161
 30
0.0
 40
3.0
  1
6'-8"
  7
MONOTXT
210
0.0
220
0.0
230
1.0
  0
TEXT
  8
0
  6
CONTINUOUS
 62
    40
  5
689
 10
17.9259
 20
1500.3044
 30
0.0
 40
3.0
  1
2'-0"
  7
MONOTXT
210
0.0
220
0.0
230
1.0
  0
TEXT
  8
0
  6
CONTINUOUS
 62
    40
  5
68A
 10
37.5685
 20
1500.6362
 30
0.0
 40
3.0
  1
8'-2"
  7
MONOTXT
210
0.0
220
0.0
230
1.0
  0
TEXT
  8
0
  6
CONTINUOUS
 62
    40
  5
68B
 10
55.9754
 20
1500.4475
 30
0.0
 40
3.0
  1
10'-2"
  7
MONOTXT
210
0.0
220
0.0
230
1.0
  0
TEXT
  8
0
  6
CONTINUOUS
 62
    40
  5
68C
 10
74.0947
 20
1500.2381
 30
0.0
 40
3.0
  1
18" cc
  7
MONOTXT
210
0.0
220
0.0
230
1.0
  0
TEXT
  8
0
  6
CONTINUOUS
 62
    40
  5
68D
 10
56.9015
 20
1491.9666
 30
0.0
 40
3.0
  1
1'-5"
  7
MONOTXT
210
0.0
220
0.0
230
1.0
  0
TEXT
  8
0
  6
CONTINUOUS
 62
    40
  5
68E
 10
74.0947
 20
1491.841
 30
0.0
 40
3.0
  1
18" cc
  7
MONOTXT
210
0.0
220
0.0
230
1.0
  0
TEXT
  8
0
  6
CONTINUOUS
 62
    40
  5
68F
 10
56.2841
 20
1483.743
 30
0.0
 40
3.0
  1
2'-10"
  7
MONOTXT
210
0.0
220
0.0
230
1.0
  0
TEXT
  8
0
  6
CONTINUOUS
 62
    40
  5
690
 10
73.786
 20
1484.0617
 30
0.0
 40
3.0
  1
18" cc
  7
MONOTXT
210
0.0
220
0.0
230
1.0
  0
TEXT
  8
0
  6
CONTINUOUS
 62
    40
  5
691
 10
56.4684
 20
1475.6637
 30
0.0
 40
3.0
  1
6'-6"
  7
MONOTXT
210
0.0
220
0.0
230
1.0
  0
TEXT
  8
0
  6
CONTINUOUS
 62
    40
  5
692
 10
-162.7426
 20
1467.8914
 30
0.0
 40
3.0
  1
9'-8"
  7
MONOTXT
210
0.0
220
0.0
230
1.0
  0
TEXT
  8
0
  6
CONTINUOUS
 62
    40
  5
693
 10
-139.9818
 20
1467.8914
 30
0.0
 40
3.0
  1
4'-6"
  7
MONOTXT
210
0.0
220
0.0
230
1.0
  0
TEXT
  8
0
  6
CONTINUOUS
 62
    40
  5
694
 10
-119.6597
 20
1467.8914
 30
0.0
 40
3.0
  1
9'-3"
  7
MONOTXT
210
0.0
220
0.0
230
1.0
  0
TEXT
  8
0
  6
CONTINUOUS
 62
    40
  5
695
 10
-100.1504
 20
1467.8914
 30
0.0
 40
3.0
  1
10'-4"
  7
MONOTXT
210
0.0
220
0.0
230
1.0
  0
TEXT
  8
0
  6
CONTINUOUS
 62
    40
  5
696
 10
-78.5113
 20
1467.9889
 30
0.0
 40
3.0
  1
30'-3"
  7
MONOTXT
210
0.0
220
0.0
230
1.0
  0
TEXT
  8
0
  6
CONTINUOUS
 62
    40
  5
697
 10
-53.8159
 20
1468.2977
 30
0.0
 40
3.0
  1
14'-1"
  7
MONOTXT
210
0.0
220
0.0
230
1.0
  0
TEXT
  8
0
  6
CONTINUOUS
 62
    40
  5
698
 10
57.2997
 20
1467.513
 30
0.0
 40
3.0
  1
5'-1"
  7
MONOTXT
210
0.0
220
0.0
230
1.0
  0
TEXT
  8
0
  6
CONTINUOUS
 62
    40
  5
699
 10
56.3308
 20
1459.3131
 30
0.0
 40
3.0
  1
4'-4"
  7
MONOTXT
210
0.0
220
0.0
230
1.0
  0
TEXT
  8
0
  6
CONTINUOUS
 62
    40
  5
69A
 10
73.4773
 20
1467.6933
 30
0.0
 40
3.0
  1
18" cc
  7
MONOTXT
210
0.0
220
0.0
230
1.0
  0
TEXT
  8
0
  6
CONTINUOUS
 62
    40
  5
69B
 10
73.4773
 20
1459.6635
 30
0.0
 40
3.0
  1
18" cc
  7
MONOTXT
210
0.0
220
0.0
230
1.0
  0
TEXT
  8
0
  6
CONTINUOUS
 62
    40
  5
69C
 10
55.0692
 20
1451.5481
 30
0.0
 40
3.0
  1
29'-9"
  7
MONOTXT
210
0.0
220
0.0
230
1.0
  0
TEXT
  8
0
  6
CONTINUOUS
 62
    40
  5
69D
 10
73.786
 20
1451.3249
 30
0.0
 40
3.0
  1
18" cc
  7
MONOTXT
210
0.0
220
0.0
230
1.0
  0
TEXT
  8
0
  6
CONTINUOUS
 62
    40
  5
69E
 10
55.0692
 20
1443.1599
 30
0.0
 40
3.0
  1
27'-8"
  7
MONOTXT
210
0.0
220
0.0
230
1.0
  0
TEXT
  8
0
  6
CONTINUOUS
 62
    40
  5
69F
 10
74.0948
 20
1442.9862
 30
0.0
 40
3.0
  1
18" cc
  7
MONOTXT
210
0.0
220
0.0
230
1.0
  0
TEXT
  8
0
  6
CONTINUOUS
 62
    40
  5
6A0
 10
55.2135
 20
1410.5744
 30
0.0
 40
3.0
  1
12'-3"
  7
MONOTXT
210
0.0
220
0.0
230
1.0
  0
TEXT
  8
0
  6
CONTINUOUS
 62
    40
  5
6A1
 10
74.5559
 20
1410.5897
 30
0.0
 40
3.0
  1
5" cc
  7
MONOTXT
210
0.0
220
0.0
230
1.0
  0
TEXT
  8
0
  6
CONTINUOUS
 62
    40
  5
6A2
 10
16.0635
 20
1402.1998
 30
0.0
 40
3.0
  1
9'-11"
  7
MONOTXT
210
0.0
220
0.0
230
1.0
  0
TEXT
  8
0
  6
CONTINUOUS
 62
    40
  5
6A3
 10
35.2349
 20
1402.1205
 30
0.0
 40
3.0
  1
15'-5"
  7
MONOTXT
210
0.0
220
0.0
230
1.0
  0
TEXT
  8
0
  6
CONTINUOUS
 62
    40
  5
6A4
 10
54.9449
 20
1394.0031
 30
0.0
 40
3.0
  1
13'-5"
  7
MONOTXT
210
0.0
220
0.0
230
1.0
  0
TEXT
  8
0
  6
CONTINUOUS
 62
    40
  5
6A5
 10
16.9027
 20
1386.2218
 30
0.0
 40
3.0
  1
2'-0"
  7
MONOTXT
210
0.0
220
0.0
230
1.0
  0
TEXT
  8
0
  6
CONTINUOUS
 62
    40
  5
6A6
 10
37.6703
 20
1386.1515
 30
0.0
 40
3.0
  1
5'-2"
  7
MONOTXT
210
0.0
220
0.0
230
1.0
  0
TEXT
  8
0
  6
CONTINUOUS
 62
    40
  5
6A7
 10
56.6128
 20
1385.5947
 30
0.0
 40
3.0
  1
7'-2"
  7
MONOTXT
210
0.0
220
0.0
230
1.0
  0
TEXT
  8
0
  6
CONTINUOUS
 62
    40
  5
6A8
 10
73.4773
 20
1386.1598
 30
0.0
 40
3.0
  1
18" cc
  7
MONOTXT
210
0.0
220
0.0
230
1.0
  0
TEXT
  8
0
  6
CONTINUOUS
 62
    40
  5
6A9
 10
16.9027
 20
1369.4598
 30
0.0
 40
3.0
  1
2'-0"
  7
MONOTXT
210
0.0
220
0.0
230
1.0
  0
TEXT
  8
0
  6
CONTINUOUS
 62
    40
  5
6AA
 10
36.4012
 20
1369.5181
 30
0.0
 40
3.0
  1
6'-8"
  7
MONOTXT
210
0.0
220
0.0
230
1.0
  0
TEXT
  8
0
  6
CONTINUOUS
 62
    40
  5
6AB
 10
56.0354
 20
1369.3323
 30
0.0
 40
3.0
  1
8'-8"
  7
MONOTXT
210
0.0
220
0.0
230
1.0
  0
TEXT
  8
0
  6
CONTINUOUS
 62
    40
  5
6AC
 10
73.786
 20
1369.7913
 30
0.0
 40
3.0
  1
18" cc
  7
MONOTXT
210
0.0
220
0.0
230
1.0
  0
TEXT
  8
0
  6
CONTINUOUS
 62
    40
  5
6AD
 10
74.0947
 20
1361.7615
 30
0.0
 40
3.0
  1
18" cc
  7
MONOTXT
210
0.0
220
0.0
230
1.0
  0
TEXT
  8
0
  6
CONTINUOUS
 62
    40
  5
6AE
 10
74.0947
 20
1353.4228
 30
0.0
 40
3.0
  1
18" cc
  7
MONOTXT
210
0.0
220
0.0
230
1.0
  0
TEXT
  8
0
  6
CONTINUOUS
 62
    40
  5
6AF
 10
74.0947
 20
1345.393
 30
0.0
 40
3.0
  1
18" cc
  7
MONOTXT
210
0.0
220
0.0
230
1.0
  0
TEXT
  8
0
  6
CONTINUOUS
 62
    40
  5
6B0
 10
74.4034
 20
1336.7455
 30
0.0
 40
3.0
  1
18" cc
  7
MONOTXT
210
0.0
220
0.0
230
1.0
  0
TEXT
  8
0
  6
CONTINUOUS
 62
    40
  5
6B1
 10
74.0947
 20
1329.0246
 30
0.0
 40
3.0
  1
18" cc
  7
MONOTXT
210
0.0
220
0.0
230
1.0
  0
TEXT
  8
0
  6
CONTINUOUS
 62
    40
  5
6B2
 10
73.786
 20
1320.3771
 30
0.0
 40
3.0
  1
18" cc
  7
MONOTXT
210
0.0
220
0.0
230
1.0
  0
TEXT
  8
0
  6
CONTINUOUS
 62
    40
  5
6B3
 10
74.0947
 20
1312.3473
 30
0.0
 40
3.0
  1
18" cc
  7
MONOTXT
210
0.0
220
0.0
230
1.0
  0
TEXT
  8
0
  6
CONTINUOUS
 62
    40
  5
6B4
 10
16.9028
 20
1361.0788
 30
0.0
 40
3.0
  1
2'-0"
  7
MONOTXT
210
0.0
220
0.0
230
1.0
  0
TEXT
  8
0
  6
CONTINUOUS
 62
    40
  5
6B5
 10
36.751
 20
1361.2422
 30
0.0
 40
3.0
  1
7'-3"
  7
MONOTXT
210
0.0
220
0.0
230
1.0
  0
TEXT
  8
0
  6
CONTINUOUS
 62
    40
  5
6B6
 10
56.0354
 20
1361.4177
 30
0.0
 40
3.0
  1
9'-3"
  7
MONOTXT
210
0.0
220
0.0
230
1.0
  0
TEXT
  8
0
  6
CONTINUOUS
 62
    40
  5
6B7
 10
15.9767
 20
1353.049
 30
0.0
 40
3.0
  1
2'-0"
  7
MONOTXT
210
0.0
220
0.0
230
1.0
  0
TEXT
  8
0
  6
CONTINUOUS
 62
    40
  5
6B8
 10
15.9767
 20
1345.0192
 30
0.0
 40
3.0
  1
2'-0"
  7
MONOTXT
210
0.0
220
0.0
230
1.0
  0
TEXT
  8
0
  6
CONTINUOUS
 62
    40
  5
6B9
 10
15.9767
 20
1336.9894
 30
0.0
 40
3.0
  1
2'-0"
  7
MONOTXT
210
0.0
220
0.0
230
1.0
  0
TEXT
  8
0
  6
CONTINUOUS
 62
    40
  5
6BA
 10
15.668
 20
1328.6507
 30
0.0
 40
3.0
  1
2'-0"
  7
MONOTXT
210
0.0
220
0.0
230
1.0
  0
TEXT
  8
0
  6
CONTINUOUS
 62
    40
  5
6BB
 10
15.9767
 20
1320.6209
 30
0.0
 40
3.0
  1
2'-0"
  7
MONOTXT
210
0.0
220
0.0
230
1.0
  0
TEXT
  8
0
  6
CONTINUOUS
 62
    40
  5
6BC
 10
15.9767
 20
1312.2823
 30
0.0
 40
3.0
  1
2'-0"
  7
MONOTXT
210
0.0
220
0.0
230
1.0
  0
TEXT
  8
0
  6
CONTINUOUS
 62
    40
  5
6BD
 10
16.2854
 20
1295.6049
 30
0.0
 40
3.0
  1
2'-0"
  7
MONOTXT
210
0.0
220
0.0
230
1.0
  0
TEXT
  8
0
  6
CONTINUOUS
 62
    40
  5
6BE
 10
16.2854
 20
1287.884
 30
0.0
 40
3.0
  1
2'-0"
  7
MONOTXT
210
0.0
220
0.0
230
1.0
  0
TEXT
  8
0
  6
CONTINUOUS
 62
    40
  5
6BF
 10
16.5941
 20
1279.2365
 30
0.0
 40
3.0
  1
2'-0"
  7
MONOTXT
210
0.0
220
0.0
230
1.0
  0
TEXT
  8
0
  6
CONTINUOUS
 62
    40
  5
6C0
 10
36.5177
 20
1353.042
 30
0.0
 40
3.0
  1
7'-9"
  7
MONOTXT
210
0.0
220
0.0
230
1.0
  0
TEXT
  8
0
  6
CONTINUOUS
 62
    40
  5
6C1
 10
56.0153
 20
1353.3384
 30
0.0
 40
3.0
  1
9'-9"
  7
MONOTXT
210
0.0
220
0.0
230
1.0
  0
TEXT
  8
0
  6
CONTINUOUS
 62
    40
  5
6C2
 10
37.0185
 20
1345.1158
 30
0.0
 40
3.0
  1
8'-3"
  7
MONOTXT
210
0.0
220
0.0
230
1.0
  0
TEXT
  8
0
  6
CONTINUOUS
 62
    40
  5
6C3
 10
55.7267
 20
1345.259
 30
0.0
 40
3.0
  1
10'-3"
  7
MONOTXT
210
0.0
220
0.0
230
1.0
  0
TEXT
  8
0
  6
CONTINUOUS
 62
    40
  5
6C4
 10
36.5933
 20
1336.8398
 30
0.0
 40
3.0
  1
8'-10"
  7
MONOTXT
210
0.0
220
0.0
230
1.0
  0
TEXT
  8
0
  6
CONTINUOUS
 62
    40
  5
6C5
 10
54.8206
 20
1336.8709
 30
0.0
 40
3.0
  1
10'-10"
  7
MONOTXT
210
0.0
220
0.0
230
1.0
  0
TEXT
  8
0
  6
CONTINUOUS
 62
    40
  5
6C6
 10
36.5933
 20
1328.2959
 30
0.0
 40
3.0
  1
9'-4"
  7
MONOTXT
210
0.0
220
0.0
230
1.0
  0
TEXT
  8
0
  6
CONTINUOUS
 62
    40
  5
6C7
 10
55.7467
 20
1328.3182
 30
0.0
 40
3.0
  1
11'-4"
  7
MONOTXT
210
0.0
220
0.0
230
1.0
  0
TEXT
  8
0
  6
CONTINUOUS
 62
    40
  5
6C8
 10
36.2845
 20
1320.562
 30
0.0
 40
3.0
  1
9'-10"
  7
MONOTXT
210
0.0
220
0.0
230
1.0
  0
TEXT
  8
0
  6
CONTINUOUS
 62
    40
  5
6C9
 10
55.2736
 20
1319.9503
 30
0.0
 40
3.0
  1
11'-10"
  7
MONOTXT
210
0.0
220
0.0
230
1.0
  0
TEXT
  8
0
  6
CONTINUOUS
 62
    40
  5
6CA
 10
36.751
 20
1312.4376
 30
0.0
 40
3.0
  1
3'-1"
  7
MONOTXT
210
0.0
220
0.0
230
1.0
  0
TEXT
  8
0
  6
CONTINUOUS
 62
    40
  5
6CB
 10
56.9816
 20
1311.871
 30
0.0
 40
3.0
  1
5'-1"
  7
MONOTXT
210
0.0
220
0.0
230
1.0
  0
TEXT
  8
0
  6
CONTINUOUS
 62
    40
  5
6CC
 10
36.0169
 20
1295.5829
 30
0.0
 40
3.0
  1
4'-7"
  7
MONOTXT
210
0.0
220
0.0
230
1.0
  0
TEXT
  8
0
  6
CONTINUOUS
 62
    40
  5
6CD
 10
55.891
 20
1295.5477
 30
0.0
 40
3.0
  1
6'-7"
  7
MONOTXT
210
0.0
220
0.0
230
1.0
  0
TEXT
  8
0
  6
CONTINUOUS
 62
    40
  5
6CE
 10
74.0947
 20
1295.67
 30
0.0
 40
3.0
  1
18" cc
  7
MONOTXT
210
0.0
220
0.0
230
1.0
  0
TEXT
  8
0
  6
CONTINUOUS
 62
    40
  5
6CF
 10
74.4034
 20
1287.6402
 30
0.0
 40
3.0
  1
18" cc
  7
MONOTXT
210
0.0
220
0.0
230
1.0
  0
TEXT
  8
0
  6
CONTINUOUS
 62
    40
  5
6D0
 10
74.7121
 20
1279.3015
 30
0.0
 40
3.0
  1
18" cc
  7
MONOTXT
210
0.0
220
0.0
230
1.0
  0
TEXT
  8
0
  6
CONTINUOUS
 62
    40
  5
6D1
 10
36.5177
 20
1287.7733
 30
0.0
 40
3.0
  1
5'-1"
  7
MONOTXT
210
0.0
220
0.0
230
1.0
  0
TEXT
  8
0
  6
CONTINUOUS
 62
    40
  5
6D2
 10
55.9796
 20
1287.6534
 30
0.0
 40
3.0
  1
7'-1"
  7
MONOTXT
210
0.0
220
0.0
230
1.0
  0
TEXT
  8
0
  6
CONTINUOUS
 62
    40
  5
6D3
 10
36.5177
 20
1279.2991
 30
0.0
 40
3.0
  1
5'-7"
  7
MONOTXT
210
0.0
220
0.0
230
1.0
  0
TEXT
  8
0
  6
CONTINUOUS
 62
    40
  5
6D4
 10
56.0996
 20
1279.698
 30
0.0
 40
3.0
  1
7'-7"
  7
MONOTXT
210
0.0
220
0.0
230
1.0
  0
TEXT
  8
0
  6
CONTINUOUS
 62
    40
  5
6D5
 10
56.4083
 20
1271.3301
 30
0.0
 40
3.0
  1
8'-0"
  7
MONOTXT
210
0.0
220
0.0
230
1.0
  0
TEXT
  8
0
  6
CONTINUOUS
 62
    40
  5
6D6
 10
55.3779
 20
1435.1009
 30
0.0
 40
3.0
  1
24'-8"
  7
MONOTXT
210
0.0
220
0.0
230
1.0
  0
TEXT
  8
0
  6
CONTINUOUS
 62
    40
  5
6D7
 10
73.4772
 20
1434.6475
 30
0.0
 40
3.0
  1
18" cc
  7
MONOTXT
210
0.0
220
0.0
230
1.0
  0
TEXT
  8
0
  6
CONTINUOUS
 62
    40
  5
6D8
 10
73.4772
 20
1426.6177
 30
0.0
 40
3.0
  1
18" cc
  7
MONOTXT
210
0.0
220
0.0
230
1.0
  0
TEXT
  8
0
  6
CONTINUOUS
 62
    40
  5
6D9
 10
73.4773
 20
1418.5879
 30
0.0
 40
3.0
  1
18" cc
  7
MONOTXT
210
0.0
220
0.0
230
1.0
  0
TEXT
  8
0
  6
CONTINUOUS
 62
    40
  5
6DA
 10
54.9049
 20
1426.609
 30
0.0
 40
3.0
  1
21'-8"
  7
MONOTXT
210
0.0
220
0.0
230
1.0
  0
TEXT
  8
0
  6
CONTINUOUS
 62
    40
  5
6DB
 10
114.6482
 20
1467.72
 30
0.0
 40
3.0
  1
18.30
  7
MONOTXT
210
0.0
220
0.0
230
1.0
  0
TEXT
  8
0
  6
CONTINUOUS
 62
    40
  5
6DC
 10
55.2135
 20
1418.6334
 30
0.0
 40
3.0
  1
18'-8"
  7
MONOTXT
210
0.0
220
0.0
230
1.0
  0
TEXT
  8
0
  6
CONTINUOUS
 62
    40
  5
6DD
 10
114.5323
 20
1900.4049
 30
0.0
 40
3.0
  1
11.22
  7
MONOTXT
210
0.0
220
0.0
230
1.0
  0
TEXT
  8
0
  6
CONTINUOUS
 62
    40
  5
6DE
 10
185.4753
 20
1834.4024
 30
0.0
 40
3.0
  1
10'-10"
  7
MONOTXT
210
0.0
220
0.0
230
1.0
  0
TEXT
  8
0
  6
CONTINUOUS
 62
    40
  5
6DF
 10
208.8327
 20
1834.5766
 30
0.0
 40
3.0
  1
5'-0"
  7
MONOTXT
210
0.0
220
0.0
230
1.0
  0
TEXT
  8
0
  6
CONTINUOUS
 62
    40
  5
6E0
 10
229.0526
 20
1834.9251
 30
0.0
 40
3.0
  1
10'-4"
  7
MONOTXT
210
0.0
220
0.0
230
1.0
  0
TEXT
  8
0
  6
CONTINUOUS
 62
    40
  5
6E1
 10
248.4009
 20
1834.4024
 30
0.0
 40
3.0
  1
11'-6"
  7
MONOTXT
210
0.0
220
0.0
230
1.0
  0
TEXT
  8
0
  6
CONTINUOUS
 62
    40
  5
6E2
 10
295.4643
 20
1834.4024
 30
0.0
 40
3.0
  1
15'-9"
  7
MONOTXT
210
0.0
220
0.0
230
1.0
  0
TEXT
  8
0
  6
CONTINUOUS
 62
    40
  5
6E3
 10
366.3109
 20
1899.6635
 30
0.0
 40
3.0
  1
2'-0"
  7
MONOTXT
210
0.0
220
0.0
230
1.0
  0
TEXT
  8
0
  6
CONTINUOUS
 62
    40
  5
6E4
 10
366.3109
 20
1891.6511
 30
0.0
 40
3.0
  1
2'-0"
  7
MONOTXT
210
0.0
220
0.0
230
1.0
  0
TEXT
  8
0
  6
CONTINUOUS
 62
    40
  5
6E5
 10
366.0022
 20
1883.0893
 30
0.0
 40
3.0
  1
2'-0"
  7
MONOTXT
210
0.0
220
0.0
230
1.0
  0
TEXT
  8
0
  6
CONTINUOUS
 62
    40
  5
6E6
 10
366.3109
 20
1875.2581
 30
0.0
 40
3.0
  1
2'-0"
  7
MONOTXT
210
0.0
220
0.0
230
1.0
  0
TEXT
  8
0
  6
CONTINUOUS
 62
    40
  5
6E7
 10
424.3385
 20
1899.5768
 30
0.0
 40
3.0
  1
18" cc
  7
MONOTXT
210
0.0
220
0.0
230
1.0
  0
TEXT
  8
0
  6
CONTINUOUS
 62
    40
  5
6E8
 10
424.0298
 20
1891.2381
 30
0.0
 40
3.0
  1
18" cc
  7
MONOTXT
210
0.0
220
0.0
230
1.0
  0
TEXT
  8
0
  6
CONTINUOUS
 62
    40
  5
6E9
 10
424.0298
 20
1883.2083
 30
0.0
 40
3.0
  1
18" cc
  7
MONOTXT
210
0.0
220
0.0
230
1.0
  0
TEXT
  8
0
  6
CONTINUOUS
 62
    40
  5
6EA
 10
424.3385
 20
1875.1785
 30
0.0
 40
3.0
  1
18" cc
  7
MONOTXT
210
0.0
220
0.0
230
1.0
  0
TEXT
  8
0
  6
CONTINUOUS
 62
    40
  5
6EB
 10
387.0918
 20
1899.7923
 30
0.0
 40
3.0
  1
6'-1"
  7
MONOTXT
210
0.0
220
0.0
230
1.0
  0
TEXT
  8
0
  6
CONTINUOUS
 62
    40
  5
6EC
 10
406.7701
 20
1899.5768
 30
0.0
 40
3.0
  1
8'-1"
  7
MONOTXT
210
0.0
220
0.0
230
1.0
  0
TEXT
  8
0
  6
CONTINUOUS
 62
    40
  5
6ED
 10
406.7701
 20
1891.3197
 30
0.0
 40
3.0
  1
8'-7"
  7
MONOTXT
210
0.0
220
0.0
230
1.0
  0
TEXT
  8
0
  6
CONTINUOUS
 62
    40
  5
6EE
 10
386.8937
 20
1891.7442
 30
0.0
 40
3.0
  1
6'-7"
  7
MONOTXT
210
0.0
220
0.0
230
1.0
  0
TEXT
  8
0
  6
CONTINUOUS
 62
    40
  5
6EF
 10
386.7538
 20
1883.1895
 30
0.0
 40
3.0
  1
7'-1"
  7
MONOTXT
210
0.0
220
0.0
230
1.0
  0
TEXT
  8
0
  6
CONTINUOUS
 62
    40
  5
6F0
 10
406.6371
 20
1883.2382
 30
0.0
 40
3.0
  1
9'-1"
  7
MONOTXT
210
0.0
220
0.0
230
1.0
  0
TEXT
  8
0
  6
CONTINUOUS
 62
    40
  5
6F1
 10
386.7247
 20
1875.1078
 30
0.0
 40
3.0
  1
5'-2"
  7
MONOTXT
210
0.0
220
0.0
230
1.0
  0
TEXT
  8
0
  6
CONTINUOUS
 62
    40
  5
6F2
 10
405.711
 20
1874.8904
 30
0.0
 40
3.0
  1
7'-2"
  7
MONOTXT
210
0.0
220
0.0
230
1.0
  0
TEXT
  8
0
  6
CONTINUOUS
 62
    40
  5
6F3
 10
366.3109
 20
1858.865
 30
0.0
 40
3.0
  1
2'-0"
  7
MONOTXT
210
0.0
220
0.0
230
1.0
  0
TEXT
  8
0
  6
CONTINUOUS
 62
    40
  5
6F4
 10
387.0333
 20
1858.8424
 30
0.0
 40
3.0
  1
9'-8"
  7
MONOTXT
210
0.0
220
0.0
230
1.0
  0
TEXT
  8
0
  6
CONTINUOUS
 62
    40
  5
6F5
 10
406.9458
 20
1858.4668
 30
0.0
 40
3.0
  1
11'-8"
  7
MONOTXT
210
0.0
220
0.0
230
1.0
  0
TEXT
  8
0
  6
CONTINUOUS
 62
    40
  5
6F6
 10
424.3385
 20
1858.8182
 30
0.0
 40
3.0
  1
18" cc
  7
MONOTXT
210
0.0
220
0.0
230
1.0
  0
TEXT
  8
0
  6
CONTINUOUS
 62
    40
  5
6F7
 10
406.9458
 20
1850.561
 30
0.0
 40
3.0
  1
1'-7"
  7
MONOTXT
210
0.0
220
0.0
230
1.0
  0
TEXT
  8
0
  6
CONTINUOUS
 62
    40
  5
6F8
 10
406.9458
 20
1842.3039
 30
0.0
 40
3.0
  1
3'-2"
  7
MONOTXT
210
0.0
220
0.0
230
1.0
  0
TEXT
  8
0
  6
CONTINUOUS
 62
    40
  5
6F9
 10
423.7211
 20
1850.4796
 30
0.0
 40
3.0
  1
18" cc
  7
MONOTXT
210
0.0
220
0.0
230
1.0
  0
TEXT
  8
0
  6
CONTINUOUS
 62
    40
  5
6FA
 10
424.0298
 20
1842.4498
 30
0.0
 40
3.0
  1
18" cc
  7
MONOTXT
210
0.0
220
0.0
230
1.0
  0
TEXT
  8
0
  6
CONTINUOUS
 62
    40
  5
6FB
 10
407.1485
 20
1834.342
 30
0.0
 40
3.0
  1
5'-1"
  7
MONOTXT
210
0.0
220
0.0
230
1.0
  0
TEXT
  8
0
  6
CONTINUOUS
 62
    40
  5
6FC
 10
407.4145
 20
1825.8333
 30
0.0
 40
3.0
  1
4'-4"
  7
MONOTXT
210
0.0
220
0.0
230
1.0
  0
TEXT
  8
0
  6
CONTINUOUS
 62
    40
  5
6FD
 10
424.0298
 20
1834.1111
 30
0.0
 40
3.0
  1
18" cc
  7
MONOTXT
210
0.0
220
0.0
230
1.0
  0
TEXT
  8
0
  6
CONTINUOUS
 62
    40
  5
6FE
 10
423.721
 20
1826.0813
 30
0.0
 40
3.0
  1
18" cc
  7
MONOTXT
210
0.0
220
0.0
230
1.0
  0
TEXT
  8
0
  6
CONTINUOUS
 62
    40
  5
6FF
 10
425.5733
 20
1776.7738
 30
0.0
 40
3.0
  1
5" cc
  7
MONOTXT
210
0.0
220
0.0
230
1.0
  0
TEXT
  8
0
  6
CONTINUOUS
 62
    40
  5
700
 10
423.4123
 20
1817.7427
 30
0.0
 40
3.0
  1
18" cc
  7
MONOTXT
210
0.0
220
0.0
230
1.0
  0
TEXT
  8
0
  6
CONTINUOUS
 62
    40
  5
701
 10
423.4123
 20
1809.7129
 30
0.0
 40
3.0
  1
18" cc
  7
MONOTXT
210
0.0
220
0.0
230
1.0
  0
TEXT
  8
0
  6
CONTINUOUS
 62
    40
  5
702
 10
423.721
 20
1801.3742
 30
0.0
 40
3.0
  1
18" cc
  7
MONOTXT
210
0.0
220
0.0
230
1.0
  0
TEXT
  8
0
  6
CONTINUOUS
 62
    40
  5
703
 10
424.0297
 20
1793.3444
 30
0.0
 40
3.0
  1
18" cc
  7
MONOTXT
210
0.0
220
0.0
230
1.0
  0
TEXT
  8
0
  6
CONTINUOUS
 62
    40
  5
704
 10
423.721
 20
1785.3146
 30
0.0
 40
3.0
  1
18" cc
  7
MONOTXT
210
0.0
220
0.0
230
1.0
  0
TEXT
  8
0
  6
CONTINUOUS
 62
    40
  5
705
 10
463.6918
 20
1834.1309
 30
0.0
 40
3.0
  1
22.48
  7
MONOTXT
210
0.0
220
0.0
230
1.0
  0
TEXT
  8
0
  6
CONTINUOUS
 62
    40
  5
706
 10
406.7701
 20
1809.8024
 30
0.0
 40
3.0
  1
31'-2"
  7
MONOTXT
210
0.0
220
0.0
230
1.0
  0
TEXT
  8
0
  6
CONTINUOUS
 62
    40
  5
707
 10
406.9458
 20
1801.5452
 30
0.0
 40
3.0
  1
28'-2"
  7
MONOTXT
210
0.0
220
0.0
230
1.0
  0
TEXT
  8
0
  6
CONTINUOUS
 62
    40
  5
708
 10
406.9458
 20
1793.2881
 30
0.0
 40
3.0
  1
25'-2"
  7
MONOTXT
210
0.0
220
0.0
230
1.0
  0
TEXT
  8
0
  6
CONTINUOUS
 62
    40
  5
709
 10
406.9458
 20
1785.0309
 30
0.0
 40
3.0
  1
22'-2"
  7
MONOTXT
210
0.0
220
0.0
230
1.0
  0
TEXT
  8
0
  6
CONTINUOUS
 62
    40
  5
70A
 10
406.9458
 20
1776.4224
 30
0.0
 40
3.0
  1
13'-5"
  7
MONOTXT
210
0.0
220
0.0
230
1.0
  0
TEXT
  8
0
  6
CONTINUOUS
 62
    40
  5
70B
 10
364.8814
 20
1768.6756
 30
0.0
 40
3.0
  1
11'-1"
  7
MONOTXT
210
0.0
220
0.0
230
1.0
  0
TEXT
  8
0
  6
CONTINUOUS
 62
    40
  5
70C
 10
386.6106
 20
1768.9192
 30
0.0
 40
3.0
  1
17'-4"
  7
MONOTXT
210
0.0
220
0.0
230
1.0
  0
TEXT
  8
0
  6
CONTINUOUS
 62
    40
  5
70D
 10
407.1216
 20
1760.0838
 30
0.0
 40
3.0
  1
15'-1"
  7
MONOTXT
210
0.0
220
0.0
230
1.0
  0
TEXT
  8
0
  6
CONTINUOUS
 62
    40
  5
70E
 10
367.0439
 20
1745.2128
 30
0.0
 40
3.0
  1
2'-0"
  7
MONOTXT
210
0.0
220
0.0
230
1.0
  0
TEXT
  8
0
  6
CONTINUOUS
 62
    40
  5
70F
 10
386.2992
 20
1745.2666
 30
0.0
 40
3.0
  1
5'-8"
  7
MONOTXT
210
0.0
220
0.0
230
1.0
  0
TEXT
  8
0
  6
CONTINUOUS
 62
    40
  5
710
 10
407.2974
 20
1745.502
 30
0.0
 40
3.0
  1
7'-8"
  7
MONOTXT
210
0.0
220
0.0
230
1.0
  0
TEXT
  8
0
  6
CONTINUOUS
 62
    40
  5
711
 10
424.0297
 20
1745.1656
 30
0.0
 40
3.0
  1
18" cc
  7
MONOTXT
210
0.0
220
0.0
230
1.0
  0
TEXT
  8
0
  6
CONTINUOUS
 62
    40
  5
712
 10
366.4265
 20
1729.7708
 30
0.0
 40
3.0
  1
2'-0"
  7
MONOTXT
210
0.0
220
0.0
230
1.0
  0
TEXT
  8
0
  6
CONTINUOUS
 62
    40
  5
713
 10
366.4265
 20
1721.741
 30
0.0
 40
3.0
  1
2'-0"
  7
MONOTXT
210
0.0
220
0.0
230
1.0
  0
TEXT
  8
0
  6
CONTINUOUS
 62
    40
  5
714
 10
366.4265
 20
1713.7112
 30
0.0
 40
3.0
  1
2'-0"
  7
MONOTXT
210
0.0
220
0.0
230
1.0
  0
TEXT
  8
0
  6
CONTINUOUS
 62
    40
  5
715
 10
366.4265
 20
1705.3726
 30
0.0
 40
3.0
  1
2'-0"
  7
MONOTXT
210
0.0
220
0.0
230
1.0
  0
TEXT
  8
0
  6
CONTINUOUS
 62
    40
  5
716
 10
366.7352
 20
1697.0339
 30
0.0
 40
3.0
  1
2'-0"
  7
MONOTXT
210
0.0
220
0.0
230
1.0
  0
TEXT
  8
0
  6
CONTINUOUS
 62
    40
  5
717
 10
366.4265
 20
1689.0041
 30
0.0
 40
3.0
  1
2'-0"
  7
MONOTXT
210
0.0
220
0.0
230
1.0
  0
TEXT
  8
0
  6
CONTINUOUS
 62
    40
  5
718
 10
366.4265
 20
1680.6654
 30
0.0
 40
3.0
  1
2'-0"
  7
MONOTXT
210
0.0
220
0.0
230
1.0
  0
TEXT
  8
0
  6
CONTINUOUS
 62
    40
  5
719
 10
366.7352
 20
1672.6356
 30
0.0
 40
3.0
  1
2'-0"
  7
MONOTXT
210
0.0
220
0.0
230
1.0
  0
TEXT
  8
0
  6
CONTINUOUS
 62
    40
  5
71A
 10
366.4265
 20
1655.9583
 30
0.0
 40
3.0
  1
2'-0"
  7
MONOTXT
210
0.0
220
0.0
230
1.0
  0
TEXT
  8
0
  6
CONTINUOUS
 62
    40
  5
71B
 10
385.9612
 20
1729.3733
 30
0.0
 40
3.0
  1
7'-2"
  7
MONOTXT
210
0.0
220
0.0
230
1.0
  0
TEXT
  8
0
  6
CONTINUOUS
 62
    40
  5
71C
 10
386.2992
 20
1721.5183
 30
0.0
 40
3.0
  1
7'-8"
  7
MONOTXT
210
0.0
220
0.0
230
1.0
  0
TEXT
  8
0
  6
CONTINUOUS
 62
    40
  5
71D
 10
406.9887
 20
1729.6905
 30
0.0
 40
3.0
  1
9'-2"
  7
MONOTXT
210
0.0
220
0.0
230
1.0
  0
TEXT
  8
0
  6
CONTINUOUS
 62
    40
  5
71E
 10
423.721
 20
1729.7236
 30
0.0
 40
3.0
  1
18" cc
  7
MONOTXT
210
0.0
220
0.0
230
1.0
  0
TEXT
  8
0
  6
CONTINUOUS
 62
    40
  5
71F
 10
423.4123
 20
1722.0026
 30
0.0
 40
3.0
  1
18" cc
  7
MONOTXT
210
0.0
220
0.0
230
1.0
  0
TEXT
  8
0
  6
CONTINUOUS
 62
    40
  5
720
 10
423.721
 20
1713.664
 30
0.0
 40
3.0
  1
18" cc
  7
MONOTXT
210
0.0
220
0.0
230
1.0
  0
TEXT
  8
0
  6
CONTINUOUS
 62
    40
  5
721
 10
423.721
 20
1705.3253
 30
0.0
 40
3.0
  1
18" cc
  7
MONOTXT
210
0.0
220
0.0
230
1.0
  0
TEXT
  8
0
  6
CONTINUOUS
 62
    40
  5
722
 10
423.4123
 20
1697.2955
 30
0.0
 40
3.0
  1
18" cc
  7
MONOTXT
210
0.0
220
0.0
230
1.0
  0
TEXT
  8
0
  6
CONTINUOUS
 62
    40
  5
723
 10
423.4123
 20
1688.9569
 30
0.0
 40
3.0
  1
18" cc
  7
MONOTXT
210
0.0
220
0.0
230
1.0
  0
TEXT
  8
0
  6
CONTINUOUS
 62
    40
  5
724
 10
423.721
 20
1680.9271
 30
0.0
 40
3.0
  1
18" cc
  7
MONOTXT
210
0.0
220
0.0
230
1.0
  0
TEXT
  8
0
  6
CONTINUOUS
 62
    40
  5
725
 10
423.721
 20
1672.5884
 30
0.0
 40
3.0
  1
18" cc
  7
MONOTXT
210
0.0
220
0.0
230
1.0
  0
TEXT
  8
0
  6
CONTINUOUS
 62
    40
  5
726
 10
424.0297
 20
1655.6023
 30
0.0
 40
3.0
  1
18" cc
  7
MONOTXT
210
0.0
220
0.0
230
1.0
  0
TEXT
  8
0
  6
CONTINUOUS
 62
    40
  5
727
 10
406.9887
 20
1721.4334
 30
0.0
 40
3.0
  1
9'-8"
  7
MONOTXT
210
0.0
220
0.0
230
1.0
  0
TEXT
  8
0
  6
CONTINUOUS
 62
    40
  5
728
 10
386.4681
 20
1713.61
 30
0.0
 40
3.0
  1
8'-2"
  7
MONOTXT
210
0.0
220
0.0
230
1.0
  0
TEXT
  8
0
  6
CONTINUOUS
 62
    40
  5
729
 10
406.3711
 20
1713.1762
 30
0.0
 40
3.0
  1
10'-2"
  7
MONOTXT
210
0.0
220
0.0
230
1.0
  0
TEXT
  8
0
  6
CONTINUOUS
 62
    40
  5
72A
 10
386.6371
 20
1705.3063
 30
0.0
 40
3.0
  1
8'-9"
  7
MONOTXT
210
0.0
220
0.0
230
1.0
  0
TEXT
  8
0
  6
CONTINUOUS
 62
    40
  5
72B
 10
406.3712
 20
1705.1854
 30
0.0
 40
3.0
  1
10'-9"
  7
MONOTXT
210
0.0
220
0.0
230
1.0
  0
TEXT
  8
0
  6
CONTINUOUS
 62
    40
  5
72C
 10
386.806
 20
1696.8625
 30
0.0
 40
3.0
  1
9'-3"
  7
MONOTXT
210
0.0
220
0.0
230
1.0
  0
TEXT
  8
0
  6
CONTINUOUS
 62
    40
  5
72D
 10
406.9887
 20
1696.9283
 30
0.0
 40
3.0
  1
11'-3"
  7
MONOTXT
210
0.0
220
0.0
230
1.0
  0
TEXT
  8
0
  6
CONTINUOUS
 62
    40
  5
72E
 10
386.806
 20
1688.4188
 30
0.0
 40
3.0
  1
9'-9"
  7
MONOTXT
210
0.0
220
0.0
230
1.0
  0
TEXT
  8
0
  6
CONTINUOUS
 62
    40
  5
72F
 10
406.6799
 20
1688.2291
 30
0.0
 40
3.0
  1
11'-9"
  7
MONOTXT
210
0.0
220
0.0
230
1.0
  0
TEXT
  8
0
  6
CONTINUOUS
 62
    40
  5
730
 10
386.3575
 20
1680.6505
 30
0.0
 40
3.0
  1
10'-4"
  7
MONOTXT
210
0.0
220
0.0
230
1.0
  0
TEXT
  8
0
  6
CONTINUOUS
 62
    40
  5
731
 10
406.1955
 20
1680.8078
 30
0.0
 40
3.0
  1
12'-4"
  7
MONOTXT
210
0.0
220
0.0
230
1.0
  0
TEXT
  8
0
  6
CONTINUOUS
 62
    40
  5
732
 10
386.0489
 20
1672.1779
 30
0.0
 40
3.0
  1
10'-10"
  7
MONOTXT
210
0.0
220
0.0
230
1.0
  0
TEXT
  8
0
  6
CONTINUOUS
 62
    40
  5
733
 10
405.3121
 20
1672.2419
 30
0.0
 40
3.0
  1
12'-10"
  7
MONOTXT
210
0.0
220
0.0
230
1.0
  0
TEXT
  8
0
  6
CONTINUOUS
 62
    40
  5
734
 10
407.4731
 20
1663.809
 30
0.0
 40
3.0
  1
9'-0"
  7
MONOTXT
210
0.0
220
0.0
230
1.0
  0
TEXT
  8
0
  6
CONTINUOUS
 62
    40
  5
735
 10
407.4731
 20
1655.5519
 30
0.0
 40
3.0
  1
5'-4"
  7
MONOTXT
210
0.0
220
0.0
230
1.0
  0
TEXT
  8
0
  6
CONTINUOUS
 62
    40
  5
736
 10
386.975
 20
1655.6571
 30
0.0
 40
3.0
  1
3'-4"
  7
MONOTXT
210
0.0
220
0.0
230
1.0
  0
TEXT
  8
0
  6
CONTINUOUS
 62
    40
  5
737
 10
423.721
 20
1639.5427
 30
0.0
 40
3.0
  1
18" cc
  7
MONOTXT
210
0.0
220
0.0
230
1.0
  0
TEXT
  8
0
  6
CONTINUOUS
 62
    40
  5
738
 10
423.721
 20
1631.204
 30
0.0
 40
3.0
  1
18" cc
  7
MONOTXT
210
0.0
220
0.0
230
1.0
  0
TEXT
  8
0
  6
CONTINUOUS
 62
    40
  5
739
 10
423.721
 20
1623.4831
 30
0.0
 40
3.0
  1
18" cc
  7
MONOTXT
210
0.0
220
0.0
230
1.0
  0
TEXT
  8
0
  6
CONTINUOUS
 62
    40
  5
73A
 10
424.0297
 20
1615.1444
 30
0.0
 40
3.0
  1
18" cc
  7
MONOTXT
210
0.0
220
0.0
230
1.0
  0
TEXT
  8
0
  6
CONTINUOUS
 62
    40
  5
73B
 10
424.0297
 20
1607.1146
 30
0.0
 40
3.0
  1
18" cc
  7
MONOTXT
210
0.0
220
0.0
230
1.0
  0
TEXT
  8
0
  6
CONTINUOUS
 62
    40
  5
73C
 10
424.3384
 20
1598.776
 30
0.0
 40
3.0
  1
18" cc
  7
MONOTXT
210
0.0
220
0.0
230
1.0
  0
TEXT
  8
0
  6
CONTINUOUS
 62
    40
  5
73D
 10
424.6471
 20
1590.4373
 30
0.0
 40
3.0
  1
18" cc
  7
MONOTXT
210
0.0
220
0.0
230
1.0
  0
TEXT
  8
0
  6
CONTINUOUS
 62
    40
  5
73E
 10
424.3384
 20
1582.4075
 30
0.0
 40
3.0
  1
18" cc
  7
MONOTXT
210
0.0
220
0.0
230
1.0
  0
TEXT
  8
0
  6
CONTINUOUS
 62
    40
  5
73F
 10
366.1178
 20
1639.5898
 30
0.0
 40
3.0
  1
2'-0"
  7
MONOTXT
210
0.0
220
0.0
230
1.0
  0
TEXT
  8
0
  6
CONTINUOUS
 62
    40
  5
740
 10
366.1178
 20
1631.56
 30
0.0
 40
3.0
  1
2'-0"
  7
MONOTXT
210
0.0
220
0.0
230
1.0
  0
TEXT
  8
0
  6
CONTINUOUS
 62
    40
  5
741
 10
366.4265
 20
1623.2214
 30
0.0
 40
3.0
  1
2'-0"
  7
MONOTXT
210
0.0
220
0.0
230
1.0
  0
TEXT
  8
0
  6
CONTINUOUS
 62
    40
  5
742
 10
366.1178
 20
1615.1916
 30
0.0
 40
3.0
  1
2'-0"
  7
MONOTXT
210
0.0
220
0.0
230
1.0
  0
TEXT
  8
0
  6
CONTINUOUS
 62
    40
  5
743
 10
366.1178
 20
1606.8529
 30
0.0
 40
3.0
  1
2'-0"
  7
MONOTXT
210
0.0
220
0.0
230
1.0
  0
TEXT
  8
0
  6
CONTINUOUS
 62
    40
  5
744
 10
366.1178
 20
1598.5143
 30
0.0
 40
3.0
  1
2'-0"
  7
MONOTXT
210
0.0
220
0.0
230
1.0
  0
TEXT
  8
0
  6
CONTINUOUS
 62
    40
  5
745
 10
366.4265
 20
1590.4844
 30
0.0
 40
3.0
  1
2'-0"
  7
MONOTXT
210
0.0
220
0.0
230
1.0
  0
TEXT
  8
0
  6
CONTINUOUS
 62
    40
  5
746
 10
366.4265
 20
1582.4546
 30
0.0
 40
3.0
  1
2'-0"
  7
MONOTXT
210
0.0
220
0.0
230
1.0
  0
TEXT
  8
0
  6
CONTINUOUS
 62
    40
  5
747
 10
387.3129
 20
1640.2894
 30
0.0
 40
3.0
  1
4'-4"
  7
MONOTXT
210
0.0
220
0.0
230
1.0
  0
TEXT
  8
0
  6
CONTINUOUS
 62
    40
  5
748
 10
386.2471
 20
1631.3391
 30
0.0
 40
3.0
  1
4'-10"
  7
MONOTXT
210
0.0
220
0.0
230
1.0
  0
TEXT
  8
0
  6
CONTINUOUS
 62
    40
  5
749
 10
407.4731
 20
1639.389
 30
0.0
 40
3.0
  1
6'-4"
  7
MONOTXT
210
0.0
220
0.0
230
1.0
  0
TEXT
  8
0
  6
CONTINUOUS
 62
    40
  5
74A
 10
406.547
 20
1631.3075
 30
0.0
 40
3.0
  1
6'-10"
  7
MONOTXT
210
0.0
220
0.0
230
1.0
  0
TEXT
  8
0
  6
CONTINUOUS
 62
    40
  5
74B
 10
387.6508
 20
1623.2331
 30
0.0
 40
3.0
  1
5'-4"
  7
MONOTXT
210
0.0
220
0.0
230
1.0
  0
TEXT
  8
0
  6
CONTINUOUS
 62
    40
  5
74C
 10
406.8557
 20
1623.2261
 30
0.0
 40
3.0
  1
7'-4"
  7
MONOTXT
210
0.0
220
0.0
230
1.0
  0
TEXT
  8
0
  6
CONTINUOUS
 62
    40
  5
74D
 10
387.0333
 20
1614.7893
 30
0.0
 40
3.0
  1
5'-10"
  7
MONOTXT
210
0.0
220
0.0
230
1.0
  0
TEXT
  8
0
  6
CONTINUOUS
 62
    40
  5
74E
 10
406.8557
 20
1614.66
 30
0.0
 40
3.0
  1
7'-10"
  7
MONOTXT
210
0.0
220
0.0
230
1.0
  0
TEXT
  8
0
  6
CONTINUOUS
 62
    40
  5
74F
 10
387.9888
 20
1606.8522
 30
0.0
 40
3.0
  1
6'-4"
  7
MONOTXT
210
0.0
220
0.0
230
1.0
  0
TEXT
  8
0
  6
CONTINUOUS
 62
    40
  5
750
 10
406.8557
 20
1606.7118
 30
0.0
 40
3.0
  1
8'-4"
  7
MONOTXT
210
0.0
220
0.0
230
1.0
  0
TEXT
  8
0
  6
CONTINUOUS
 62
    40
  5
751
 10
386.7539
 20
1598.4085
 30
0.0
 40
3.0
  1
6'-10"
  7
MONOTXT
210
0.0
220
0.0
230
1.0
  0
TEXT
  8
0
  6
CONTINUOUS
 62
    40
  5
752
 10
406.8557
 20
1598.4546
 30
0.0
 40
3.0
  1
8'-10"
  7
MONOTXT
210
0.0
220
0.0
230
1.0
  0
TEXT
  8
0
  6
CONTINUOUS
 62
    40
  5
753
 10
386.8936
 20
1590.1336
 30
0.0
 40
3.0
  1
7'-4"
  7
MONOTXT
210
0.0
220
0.0
230
1.0
  0
TEXT
  8
0
  6
CONTINUOUS
 62
    40
  5
754
 10
406.6912
 20
1590.1047
 30
0.0
 40
3.0
  1
9'-4"
  7
MONOTXT
210
0.0
220
0.0
230
1.0
  0
TEXT
  8
0
  6
CONTINUOUS
 62
    40
  5
755
 10
386.7246
 20
1582.3654
 30
0.0
 40
3.0
  1
7'-10"
  7
MONOTXT
210
0.0
220
0.0
230
1.0
  0
TEXT
  8
0
  6
CONTINUOUS
 62
    40
  5
756
 10
406.0738
 20
1582.3654
 30
0.0
 40
3.0
  1
9'-10"
  7
MONOTXT
210
0.0
220
0.0
230
1.0
  0
TEXT
  8
0
  6
CONTINUOUS
 62
    40
  5
757
 10
366.4265
 20
1566.0862
 30
0.0
 40
3.0
  1
2'-0"
  7
MONOTXT
210
0.0
220
0.0
230
1.0
  0
TEXT
  8
0
  6
CONTINUOUS
 62
    40
  5
758
 10
366.7352
 20
1549.7177
 30
0.0
 40
3.0
  1
2'-0"
  7
MONOTXT
210
0.0
220
0.0
230
1.0
  0
TEXT
  8
0
  6
CONTINUOUS
 62
    40
  5
759
 10
407.9261
 20
1566.4911
 30
0.0
 40
3.0
  1
7'-8"
  7
MONOTXT
210
0.0
220
0.0
230
1.0
  0
TEXT
  8
0
  6
CONTINUOUS
 62
    40
  5
75A
 10
387.6508
 20
1565.9845
 30
0.0
 40
3.0
  1
5'-8"
  7
MONOTXT
210
0.0
220
0.0
230
1.0
  0
TEXT
  8
0
  6
CONTINUOUS
 62
    40
  5
75B
 10
424.6471
 20
1566.3479
 30
0.0
 40
3.0
  1
18" cc
  7
MONOTXT
210
0.0
220
0.0
230
1.0
  0
TEXT
  8
0
  6
CONTINUOUS
 62
    40
  5
75C
 10
424.3384
 20
1549.6706
 30
0.0
 40
3.0
  1
18" cc
  7
MONOTXT
210
0.0
220
0.0
230
1.0
  0
TEXT
  8
0
  6
CONTINUOUS
 62
    40
  5
75D
 10
424.9558
 20
1533.3022
 30
0.0
 40
3.0
  1
18" cc
  7
MONOTXT
210
0.0
220
0.0
230
1.0
  0
TEXT
  8
0
  6
CONTINUOUS
 62
    40
  5
75E
 10
424.3384
 20
1525.2724
 30
0.0
 40
3.0
  1
18" cc
  7
MONOTXT
210
0.0
220
0.0
230
1.0
  0
TEXT
  8
0
  6
CONTINUOUS
 62
    40
  5
75F
 10
424.9558
 20
1516.9337
 30
0.0
 40
3.0
  1
18" cc
  7
MONOTXT
210
0.0
220
0.0
230
1.0
  0
TEXT
  8
0
  6
CONTINUOUS
 62
    40
  5
760
 10
425.8303
 20
1443.8583
 30
0.0
 40
3.0
  1
5" cc
  7
MONOTXT
210
0.0
220
0.0
230
1.0
  0
TEXT
  8
0
  6
CONTINUOUS
 62
    40
  5
761
 10
424.9558
 20
1492.2266
 30
0.0
 40
3.0
  1
18" cc
  7
MONOTXT
210
0.0
220
0.0
230
1.0
  0
TEXT
  8
0
  6
CONTINUOUS
 62
    40
  5
762
 10
424.6471
 20
1483.888
 30
0.0
 40
3.0
  1
18" cc
  7
MONOTXT
210
0.0
220
0.0
230
1.0
  0
TEXT
  8
0
  6
CONTINUOUS
 62
    40
  5
763
 10
424.6471
 20
1475.8581
 30
0.0
 40
3.0
  1
18" cc
  7
MONOTXT
210
0.0
220
0.0
230
1.0
  0
TEXT
  8
0
  6
CONTINUOUS
 62
    40
  5
764
 10
424.6471
 20
1467.5195
 30
0.0
 40
3.0
  1
18" cc
  7
MONOTXT
210
0.0
220
0.0
230
1.0
  0
TEXT
  8
0
  6
CONTINUOUS
 62
    40
  5
765
 10
424.6471
 20
1459.7985
 30
0.0
 40
3.0
  1
18" cc
  7
MONOTXT
210
0.0
220
0.0
230
1.0
  0
TEXT
  8
0
  6
CONTINUOUS
 62
    40
  5
766
 10
424.3384
 20
1451.151
 30
0.0
 40
3.0
  1
18" cc
  7
MONOTXT
210
0.0
220
0.0
230
1.0
  0
TEXT
  8
0
  6
CONTINUOUS
 62
    40
  5
767
 10
386.4453
 20
1549.7147
 30
0.0
 40
3.0
  1
10'-8"
  7
MONOTXT
210
0.0
220
0.0
230
1.0
  0
TEXT
  8
0
  6
CONTINUOUS
 62
    40
  5
768
 10
406.3825
 20
1549.4059
 30
0.0
 40
3.0
  1
12'-8"
  7
MONOTXT
210
0.0
220
0.0
230
1.0
  0
TEXT
  8
0
  6
CONTINUOUS
 62
    40
  5
769
 10
407.7572
 20
1532.885
 30
0.0
 40
3.0
  1
1'-4"
  7
MONOTXT
210
0.0
220
0.0
230
1.0
  0
TEXT
  8
0
  6
CONTINUOUS
 62
    40
  5
76A
 10
407.4192
 20
1524.9479
 30
0.0
 40
3.0
  1
2'-9"
  7
MONOTXT
210
0.0
220
0.0
230
1.0
  0
TEXT
  8
0
  6
CONTINUOUS
 62
    40
  5
76B
 10
407.4192
 20
1516.5041
 30
0.0
 40
3.0
  1
4'-1"
  7
MONOTXT
210
0.0
220
0.0
230
1.0
  0
TEXT
  8
0
  6
CONTINUOUS
 62
    40
  5
76C
 10
188.808
 20
1508.4966
 30
0.0
 40
3.0
  1
12'-0"
  7
MONOTXT
210
0.0
220
0.0
230
1.0
  0
TEXT
  8
0
  6
CONTINUOUS
 62
    40
  5
76D
 10
208.6326
 20
1508.7443
 30
0.0
 40
3.0
  1
5'-6"
  7
MONOTXT
210
0.0
220
0.0
230
1.0
  0
TEXT
  8
0
  6
CONTINUOUS
 62
    40
  5
76E
 10
227.9616
 20
1508.992
 30
0.0
 40
3.0
  1
11'-5"
  7
MONOTXT
210
0.0
220
0.0
230
1.0
  0
TEXT
  8
0
  6
CONTINUOUS
 62
    40
  5
76F
 10
248.5296
 20
1508.7443
 30
0.0
 40
3.0
  1
12'-8"
  7
MONOTXT
210
0.0
220
0.0
230
1.0
  0
TEXT
  8
0
  6
CONTINUOUS
 62
    40
  5
770
 10
298.3388
 20
1508.7706
 30
0.0
 40
3.0
  1
17'-5"
  7
MONOTXT
210
0.0
220
0.0
230
1.0
  0
TEXT
  8
0
  6
CONTINUOUS
 62
    40
  5
771
 10
424.6471
 20
1500.5653
 30
0.0
 40
3.0
  1
18" cc
  7
MONOTXT
210
0.0
220
0.0
230
1.0
  0
TEXT
  8
0
  6
CONTINUOUS
 62
    40
  5
772
 10
424.3384
 20
1508.5951
 30
0.0
 40
3.0
  1
18" cc
  7
MONOTXT
210
0.0
220
0.0
230
1.0
  0
TEXT
  8
0
  6
CONTINUOUS
 62
    40
  5
773
 10
407.766
 20
1508.4193
 30
0.0
 40
3.0
  1
5'-1"
  7
MONOTXT
210
0.0
220
0.0
230
1.0
  0
TEXT
  8
0
  6
CONTINUOUS
 62
    40
  5
774
 10
407.4145
 20
1500.2194
 30
0.0
 40
3.0
  1
4'-4"
  7
MONOTXT
210
0.0
220
0.0
230
1.0
  0
TEXT
  8
0
  6
CONTINUOUS
 62
    40
  5
775
 10
464.6421
 20
1508.767
 30
0.0
 40
3.0
  1
31.78
  7
MONOTXT
210
0.0
220
0.0
230
1.0
  0
TEXT
  8
0
  6
CONTINUOUS
 62
    40
  5
776
 10
403.8545
 20
1492.1573
 30
0.0
 40
3.0
  1
36'-10"
  7
MONOTXT
210
0.0
220
0.0
230
1.0
  0
TEXT
  8
0
  6
CONTINUOUS
 62
    40
  5
777
 10
404.4718
 20
1484.0512
 30
0.0
 40
3.0
  1
35'-0"
  7
MONOTXT
210
0.0
220
0.0
230
1.0
  0
TEXT
  8
0
  6
CONTINUOUS
 62
    40
  5
778
 10
404.1632
 20
1475.8053
 30
0.0
 40
3.0
  1
32'-0"
  7
MONOTXT
210
0.0
220
0.0
230
1.0
  0
TEXT
  8
0
  6
CONTINUOUS
 62
    40
  5
779
 10
404.4719
 20
1467.6993
 30
0.0
 40
3.0
  1
29'-0"
  7
MONOTXT
210
0.0
220
0.0
230
1.0
  0
TEXT
  8
0
  6
CONTINUOUS
 62
    40
  5
77A
 10
404.7806
 20
1459.5644
 30
0.0
 40
3.0
  1
26'-0"
  7
MONOTXT
210
0.0
220
0.0
230
1.0
  0
TEXT
  8
0
  6
CONTINUOUS
 62
    40
  5
77B
 10
404.4719
 20
1451.7384
 30
0.0
 40
3.0
  1
23'-0"
  7
MONOTXT
210
0.0
220
0.0
230
1.0
  0
TEXT
  8
0
  6
CONTINUOUS
 62
    40
  5
77C
 10
404.8098
 20
1443.0724
 30
0.0
 40
3.0
  1
14'-7"
  7
MONOTXT
210
0.0
220
0.0
230
1.0
  0
TEXT
  8
0
  6
CONTINUOUS
 62
    40
  5
77D
 10
405.7359
 20
1426.4938
 30
0.0
 40
3.0
  1
16'-9"
  7
MONOTXT
210
0.0
220
0.0
230
1.0
  0
TEXT
  8
0
  6
CONTINUOUS
 62
    40
  5
77E
 10
366.7451
 20
1435.0379
 30
0.0
 40
3.0
  1
12'-3"
  7
MONOTXT
210
0.0
220
0.0
230
1.0
  0
TEXT
  8
0
  6
CONTINUOUS
 62
    40
  5
77F
 10
385.6233
 20
1434.9376
 30
0.0
 40
3.0
  1
19'-2"
  7
MONOTXT
210
0.0
220
0.0
230
1.0
  0
TEXT
  8
0
  6
CONTINUOUS
 62
    40
  5
780
 10
425.2646
 20
1426.7527
 30
0.0
 40
3.0
  1
18" cc
  7
MONOTXT
210
0.0
220
0.0
230
1.0
  0
TEXT
  8
0
  6
CONTINUOUS
 62
    40
  5
781
 10
424.6472
 20
1418.4141
 30
0.0
 40
3.0
  1
18" cc
  7
MONOTXT
210
0.0
220
0.0
230
1.0
  0
TEXT
  8
0
  6
CONTINUOUS
 62
    40
  5
782
 10
424.6472
 20
1410.0754
 30
0.0
 40
3.0
  1
18" cc
  7
MONOTXT
210
0.0
220
0.0
230
1.0
  0
TEXT
  8
0
  6
CONTINUOUS
 62
    40
  5
783
 10
424.3384
 20
1402.3544
 30
0.0
 40
3.0
  1
18" cc
  7
MONOTXT
210
0.0
220
0.0
230
1.0
  0
TEXT
  8
0
  6
CONTINUOUS
 62
    40
  5
784
 10
424.6472
 20
1394.3246
 30
0.0
 40
3.0
  1
18" cc
  7
MONOTXT
210
0.0
220
0.0
230
1.0
  0
TEXT
  8
0
  6
CONTINUOUS
 62
    40
  5
785
 10
424.6472
 20
1385.986
 30
0.0
 40
3.0
  1
18" cc
  7
MONOTXT
210
0.0
220
0.0
230
1.0
  0
TEXT
  8
0
  6
CONTINUOUS
 62
    40
  5
786
 10
424.6472
 20
1377.6473
 30
0.0
 40
3.0
  1
18" cc
  7
MONOTXT
210
0.0
220
0.0
230
1.0
  0
TEXT
  8
0
  6
CONTINUOUS
 62
    40
  5
787
 10
424.3384
 20
1369.6175
 30
0.0
 40
3.0
  1
18" cc
  7
MONOTXT
210
0.0
220
0.0
230
1.0
  0
TEXT
  8
0
  6
CONTINUOUS
 62
    40
  5
788
 10
424.9559
 20
1360.97
 30
0.0
 40
3.0
  1
18" cc
  7
MONOTXT
210
0.0
220
0.0
230
1.0
  0
TEXT
  8
0
  6
CONTINUOUS
 62
    40
  5
789
 10
424.6472
 20
1352.9402
 30
0.0
 40
3.0
  1
18" cc
  7
MONOTXT
210
0.0
220
0.0
230
1.0
  0
TEXT
  8
0
  6
CONTINUOUS
 62
    40
  5
78A
 10
424.9559
 20
1344.9104
 30
0.0
 40
3.0
  1
18" cc
  7
MONOTXT
210
0.0
220
0.0
230
1.0
  0
TEXT
  8
0
  6
CONTINUOUS
 62
    40
  5
78B
 10
424.6472
 20
1336.8806
 30
0.0
 40
3.0
  1
18" cc
  7
MONOTXT
210
0.0
220
0.0
230
1.0
  0
TEXT
  8
0
  6
CONTINUOUS
 62
    40
  5
78C
 10
424.9559
 20
1328.5419
 30
0.0
 40
3.0
  1
18" cc
  7
MONOTXT
210
0.0
220
0.0
230
1.0
  0
TEXT
  8
0
  6
CONTINUOUS
 62
    40
  5
78D
 10
424.6472
 20
1312.4823
 30
0.0
 40
3.0
  1
18" cc
  7
MONOTXT
210
0.0
220
0.0
230
1.0
  0
TEXT
  8
0
  6
CONTINUOUS
 62
    40
  5
78E
 10
424.3385
 20
1304.1436
 30
0.0
 40
3.0
  1
18" cc
  7
MONOTXT
210
0.0
220
0.0
230
1.0
  0
TEXT
  8
0
  6
CONTINUOUS
 62
    40
  5
78F
 10
424.3385
 20
1295.805
 30
0.0
 40
3.0
  1
18" cc
  7
MONOTXT
210
0.0
220
0.0
230
1.0
  0
TEXT
  8
0
  6
CONTINUOUS
 62
    40
  5
790
 10
424.3385
 20
1287.4663
 30
0.0
 40
3.0
  1
18" cc
  7
MONOTXT
210
0.0
220
0.0
230
1.0
  0
TEXT
  8
0
  6
CONTINUOUS
 62
    40
  5
791
 10
424.3385
 20
1279.4365
 30
0.0
 40
3.0
  1
18" cc
  7
MONOTXT
210
0.0
220
0.0
230
1.0
  0
TEXT
  8
0
  6
CONTINUOUS
 62
    40
  5
792
 10
366.2193
 20
1418.2679
 30
0.0
 40
3.0
  1
2'-0"
  7
MONOTXT
210
0.0
220
0.0
230
1.0
  0
TEXT
  8
0
  6
CONTINUOUS
 62
    40
  5
793
 10
366.2193
 20
1410.547
 30
0.0
 40
3.0
  1
2'-0"
  7
MONOTXT
210
0.0
220
0.0
230
1.0
  0
TEXT
  8
0
  6
CONTINUOUS
 62
    40
  5
794
 10
366.528
 20
1402.826
 30
0.0
 40
3.0
  1
2'-0"
  7
MONOTXT
210
0.0
220
0.0
230
1.0
  0
TEXT
  8
0
  6
CONTINUOUS
 62
    40
  5
795
 10
366.528
 20
1394.4874
 30
0.0
 40
3.0
  1
2'-0"
  7
MONOTXT
210
0.0
220
0.0
230
1.0
  0
TEXT
  8
0
  6
CONTINUOUS
 62
    40
  5
796
 10
366.528
 20
1386.1487
 30
0.0
 40
3.0
  1
2'-0"
  7
MONOTXT
210
0.0
220
0.0
230
1.0
  0
TEXT
  8
0
  6
CONTINUOUS
 62
    40
  5
797
 10
366.2193
 20
1378.1189
 30
0.0
 40
3.0
  1
2'-0"
  7
MONOTXT
210
0.0
220
0.0
230
1.0
  0
TEXT
  8
0
  6
CONTINUOUS
 62
    40
  5
798
 10
366.528
 20
1369.4714
 30
0.0
 40
3.0
  1
2'-0"
  7
MONOTXT
210
0.0
220
0.0
230
1.0
  0
TEXT
  8
0
  6
CONTINUOUS
 62
    40
  5
799
 10
366.528
 20
1361.7504
 30
0.0
 40
3.0
  1
2'-0"
  7
MONOTXT
210
0.0
220
0.0
230
1.0
  0
TEXT
  8
0
  6
CONTINUOUS
 62
    40
  5
79A
 10
366.2193
 20
1353.1029
 30
0.0
 40
3.0
  1
2'-0"
  7
MONOTXT
210
0.0
220
0.0
230
1.0
  0
TEXT
  8
0
  6
CONTINUOUS
 62
    40
  5
79B
 10
366.528
 20
1345.0731
 30
0.0
 40
3.0
  1
2'-0"
  7
MONOTXT
210
0.0
220
0.0
230
1.0
  0
TEXT
  8
0
  6
CONTINUOUS
 62
    40
  5
79C
 10
367.1455
 20
1337.3521
 30
0.0
 40
3.0
  1
2'-0"
  7
MONOTXT
210
0.0
220
0.0
230
1.0
  0
TEXT
  8
0
  6
CONTINUOUS
 62
    40
  5
79D
 10
366.8368
 20
1328.7047
 30
0.0
 40
3.0
  1
2'-0"
  7
MONOTXT
210
0.0
220
0.0
230
1.0
  0
TEXT
  8
0
  6
CONTINUOUS
 62
    40
  5
79E
 10
366.2193
 20
1312.645
 30
0.0
 40
3.0
  1
2'-0"
  7
MONOTXT
210
0.0
220
0.0
230
1.0
  0
TEXT
  8
0
  6
CONTINUOUS
 62
    40
  5
79F
 10
366.8368
 20
1304.3064
 30
0.0
 40
3.0
  1
2'-0"
  7
MONOTXT
210
0.0
220
0.0
230
1.0
  0
TEXT
  8
0
  6
CONTINUOUS
 62
    40
  5
7A0
 10
366.528
 20
1296.2766
 30
0.0
 40
3.0
  1
2'-0"
  7
MONOTXT
210
0.0
220
0.0
230
1.0
  0
TEXT
  8
0
  6
CONTINUOUS
 62
    40
  5
7A1
 10
366.8368
 20
1287.9379
 30
0.0
 40
3.0
  1
2'-0"
  7
MONOTXT
210
0.0
220
0.0
230
1.0
  0
TEXT
  8
0
  6
CONTINUOUS
 62
    40
  5
7A2
 10
366.528
 20
1279.5993
 30
0.0
 40
3.0
  1
2'-0"
  7
MONOTXT
210
0.0
220
0.0
230
1.0
  0
TEXT
  8
0
  6
CONTINUOUS
 62
    40
  5
7A3
 10
385.6233
 20
1418.7256
 30
0.0
 40
3.0
  1
6'-4"
  7
MONOTXT
210
0.0
220
0.0
230
1.0
  0
TEXT
  8
0
  6
CONTINUOUS
 62
    40
  5
7A4
 10
406.9708
 20
1418.6678
 30
0.0
 40
3.0
  1
8'-4"
  7
MONOTXT
210
0.0
220
0.0
230
1.0
  0
TEXT
  8
0
  6
CONTINUOUS
 62
    40
  5
7A5
 10
385.6233
 20
1410.1129
 30
0.0
 40
3.0
  1
6'-10"
  7
MONOTXT
210
0.0
220
0.0
230
1.0
  0
TEXT
  8
0
  6
CONTINUOUS
 62
    40
  5
7A6
 10
406.6621
 20
1410.6196
 30
0.0
 40
3.0
  1
8'-10"
  7
MONOTXT
210
0.0
220
0.0
230
1.0
  0
TEXT
  8
0
  6
CONTINUOUS
 62
    40
  5
7A7
 10
385.6233
 20
1401.6692
 30
0.0
 40
3.0
  1
7'-4"
  7
MONOTXT
210
0.0
220
0.0
230
1.0
  0
TEXT
  8
0
  6
CONTINUOUS
 62
    40
  5
7A8
 10
407.2795
 20
1402.4558
 30
0.0
 40
3.0
  1
9'-4"
  7
MONOTXT
210
0.0
220
0.0
230
1.0
  0
TEXT
  8
0
  6
CONTINUOUS
 62
    40
  5
7A9
 10
385.6233
 20
1393.7321
 30
0.0
 40
3.0
  1
7'-10"
  7
MONOTXT
210
0.0
220
0.0
230
1.0
  0
TEXT
  8
0
  6
CONTINUOUS
 62
    40
  5
7AA
 10
406.9707
 20
1393.9588
 30
0.0
 40
3.0
  1
9'-10"
  7
MONOTXT
210
0.0
220
0.0
230
1.0
  0
TEXT
  8
0
  6
CONTINUOUS
 62
    40
  5
7AB
 10
385.6233
 20
1385.4572
 30
0.0
 40
3.0
  1
8'-5"
  7
MONOTXT
210
0.0
220
0.0
230
1.0
  0
TEXT
  8
0
  6
CONTINUOUS
 62
    40
  5
7AC
 10
406.3533
 20
1386.1327
 30
0.0
 40
3.0
  1
10'-5"
  7
MONOTXT
210
0.0
220
0.0
230
1.0
  0
TEXT
  8
0
  6
CONTINUOUS
 62
    40
  5
7AD
 10
385.6233
 20
1377.3512
 30
0.0
 40
3.0
  1
8'-11"
  7
MONOTXT
210
0.0
220
0.0
230
1.0
  0
TEXT
  8
0
  6
CONTINUOUS
 62
    40
  5
7AE
 10
406.3533
 20
1377.689
 30
0.0
 40
3.0
  1
10'-11"
  7
MONOTXT
210
0.0
220
0.0
230
1.0
  0
TEXT
  8
0
  6
CONTINUOUS
 62
    40
  5
7AF
 10
385.6233
 20
1369.2452
 30
0.0
 40
3.0
  1
9'-5"
  7
MONOTXT
210
0.0
220
0.0
230
1.0
  0
TEXT
  8
0
  6
CONTINUOUS
 62
    40
  5
7B0
 10
407.2795
 20
1369.2452
 30
0.0
 40
3.0
  1
11'-5"
  7
MONOTXT
210
0.0
220
0.0
230
1.0
  0
TEXT
  8
0
  6
CONTINUOUS
 62
    40
  5
7B1
 10
385.6233
 20
1361.6459
 30
0.0
 40
3.0
  1
9'-11"
  7
MONOTXT
210
0.0
220
0.0
230
1.0
  0
TEXT
  8
0
  6
CONTINUOUS
 62
    40
  5
7B2
 10
407.3086
 20
1361.1392
 30
0.0
 40
3.0
  1
11'-11"
  7
MONOTXT
210
0.0
220
0.0
230
1.0
  0
TEXT
  8
0
  6
CONTINUOUS
 62
    40
  5
7B3
 10
385.4544
 20
1353.5398
 30
0.0
 40
3.0
  1
10'-6"
  7
MONOTXT
210
0.0
220
0.0
230
1.0
  0
TEXT
  8
0
  6
CONTINUOUS
 62
    40
  5
7B4
 10
407.3087
 20
1353.3421
 30
0.0
 40
3.0
  1
12'-6"
  7
MONOTXT
210
0.0
220
0.0
230
1.0
  0
TEXT
  8
0
  6
CONTINUOUS
 62
    40
  5
7B5
 10
406.3825
 20
1345.2361
 30
0.0
 40
3.0
  1
13'-0"
  7
MONOTXT
210
0.0
220
0.0
230
1.0
  0
TEXT
  8
0
  6
CONTINUOUS
 62
    40
  5
7B6
 10
405.7651
 20
1336.6523
 30
0.0
 40
3.0
  1
13'-6"
  7
MONOTXT
210
0.0
220
0.0
230
1.0
  0
TEXT
  8
0
  6
CONTINUOUS
 62
    40
  5
7B7
 10
385.4544
 20
1344.9272
 30
0.0
 40
3.0
  1
11'-0"
  7
MONOTXT
210
0.0
220
0.0
230
1.0
  0
TEXT
  8
0
  6
CONTINUOUS
 62
    40
  5
7B8
 10
385.4544
 20
1336.6523
 30
0.0
 40
3.0
  1
11'-6"
  7
MONOTXT
210
0.0
220
0.0
230
1.0
  0
TEXT
  8
0
  6
CONTINUOUS
 62
    40
  5
7B9
 10
385.6233
 20
1328.3775
 30
0.0
 40
3.0
  1
12'-0"
  7
MONOTXT
210
0.0
220
0.0
230
1.0
  0
TEXT
  8
0
  6
CONTINUOUS
 62
    40
  5
7BA
 10
406.3825
 20
1328.2086
 30
0.0
 40
3.0
  1
14'-0"
  7
MONOTXT
210
0.0
220
0.0
230
1.0
  0
TEXT
  8
0
  6
CONTINUOUS
 62
    40
  5
7BB
 10
385.6233
 20
1312.1655
 30
0.0
 40
3.0
  1
3'-9"
  7
MONOTXT
210
0.0
220
0.0
230
1.0
  0
TEXT
  8
0
  6
CONTINUOUS
 62
    40
  5
7BC
 10
407.4192
 20
1312.1655
 30
0.0
 40
3.0
  1
5'-9"
  7
MONOTXT
210
0.0
220
0.0
230
1.0
  0
TEXT
  8
0
  6
CONTINUOUS
 62
    40
  5
7BD
 10
385.6233
 20
1303.7217
 30
0.0
 40
3.0
  1
4'-3"
  7
MONOTXT
210
0.0
220
0.0
230
1.0
  0
TEXT
  8
0
  6
CONTINUOUS
 62
    40
  5
7BE
 10
407.2503
 20
1303.7217
 30
0.0
 40
3.0
  1
6'-3"
  7
MONOTXT
210
0.0
220
0.0
230
1.0
  0
TEXT
  8
0
  6
CONTINUOUS
 62
    40
  5
7BF
 10
385.6233
 20
1295.9535
 30
0.0
 40
3.0
  1
4'-9"
  7
MONOTXT
210
0.0
220
0.0
230
1.0
  0
TEXT
  8
0
  6
CONTINUOUS
 62
    40
  5
7C0
 10
407.0813
 20
1295.7846
 30
0.0
 40
3.0
  1
6'-9"
  7
MONOTXT
210
0.0
220
0.0
230
1.0
  0
TEXT
  8
0
  6
CONTINUOUS
 62
    40
  5
7C1
 10
385.7923
 20
1288.0164
 30
0.0
 40
3.0
  1
5'-3"
  7
MONOTXT
210
0.0
220
0.0
230
1.0
  0
TEXT
  8
0
  6
CONTINUOUS
 62
    40
  5
7C2
 10
406.5744
 20
1287.8475
 30
0.0
 40
3.0
  1
7'-3"
  7
MONOTXT
210
0.0
220
0.0
230
1.0
  0
TEXT
  8
0
  6
CONTINUOUS
 62
    40
  5
7C3
 10
385.9612
 20
1279.5726
 30
0.0
 40
3.0
  1
5'-9"
  7
MONOTXT
210
0.0
220
0.0
230
1.0
  0
TEXT
  8
0
  6
CONTINUOUS
 62
    40
  5
7C4
 10
407.0292
 20
1279.5726
 30
0.0
 40
3.0
  1
7'-9"
  7
MONOTXT
210
0.0
220
0.0
230
1.0
  0
TEXT
  8
0
  6
CONTINUOUS
 62
    40
  5
7C5
 10
718.2504
 20
1899.7136
 30
0.0
 40
3.0
  1
2'-0"
  7
MONOTXT
210
0.0
220
0.0
230
1.0
  0
TEXT
  8
0
  6
CONTINUOUS
 62
    40
  5
7C6
 10
717.633
 20
1891.3749
 30
0.0
 40
3.0
  1
2'-0"
  7
MONOTXT
210
0.0
220
0.0
230
1.0
  0
TEXT
  8
0
  6
CONTINUOUS
 62
    40
  5
7C7
 10
717.0155
 20
1883.3451
 30
0.0
 40
3.0
  1
2'-0"
  7
MONOTXT
210
0.0
220
0.0
230
1.0
  0
TEXT
  8
0
  6
CONTINUOUS
 62
    40
  5
7C8
 10
717.0155
 20
1875.3153
 30
0.0
 40
3.0
  1
2'-0"
  7
MONOTXT
210
0.0
220
0.0
230
1.0
  0
TEXT
  8
0
  6
CONTINUOUS
 62
    40
  5
7C9
 10
716.7068
 20
1867.2855
 30
0.0
 40
3.0
  1
2'-0"
  7
MONOTXT
210
0.0
220
0.0
230
1.0
  0
TEXT
  8
0
  6
CONTINUOUS
 62
    40
  5
7CA
 10
716.7069
 20
1858.638
 30
0.0
 40
3.0
  1
2'-0"
  7
MONOTXT
210
0.0
220
0.0
230
1.0
  0
TEXT
  8
0
  6
CONTINUOUS
 62
    40
  5
7CB
 10
717.0155
 20
1842.5784
 30
0.0
 40
3.0
  1
2'-0"
  7
MONOTXT
210
0.0
220
0.0
230
1.0
  0
TEXT
  8
0
  6
CONTINUOUS
 62
    40
  5
7CC
 10
716.7068
 20
1825.5922
 30
0.0
 40
3.0
  1
2'-0"
  7
MONOTXT
210
0.0
220
0.0
230
1.0
  0
TEXT
  8
0
  6
CONTINUOUS
 62
    40
  5
7CD
 10
736.2105
 20
1899.5972
 30
0.0
 40
3.0
  1
6'-3"
  7
MONOTXT
210
0.0
220
0.0
230
1.0
  0
TEXT
  8
0
  6
CONTINUOUS
 62
    40
  5
7CE
 10
736.0561
 20
1891.3759
 30
0.0
 40
3.0
  1
6'-9"
  7
MONOTXT
210
0.0
220
0.0
230
1.0
  0
TEXT
  8
0
  6
CONTINUOUS
 62
    40
  5
7CF
 10
755.7596
 20
1899.7178
 30
0.0
 40
3.0
  1
8'-3"
  7
MONOTXT
210
0.0
220
0.0
230
1.0
  0
TEXT
  8
0
  6
CONTINUOUS
 62
    40
  5
7D0
 10
755.7596
 20
1890.6909
 30
0.0
 40
3.0
  1
8'-9"
  7
MONOTXT
210
0.0
220
0.0
230
1.0
  0
TEXT
  8
0
  6
CONTINUOUS
 62
    40
  5
7D1
 10
735.4387
 20
1883.1685
 30
0.0
 40
3.0
  1
7'-3"
  7
MONOTXT
210
0.0
220
0.0
230
1.0
  0
TEXT
  8
0
  6
CONTINUOUS
 62
    40
  5
7D2
 10
755.7596
 20
1883.9207
 30
0.0
 40
3.0
  1
9'-3"
  7
MONOTXT
210
0.0
220
0.0
230
1.0
  0
TEXT
  8
0
  6
CONTINUOUS
 62
    40
  5
7D3
 10
773.936
 20
1899.5388
 30
0.0
 40
3.0
  1
18" cc
  7
MONOTXT
210
0.0
220
0.0
230
1.0
  0
TEXT
  8
0
  6
CONTINUOUS
 62
    40
  5
7D4
 10
773.6273
 20
1891.509
 30
0.0
 40
3.0
  1
18" cc
  7
MONOTXT
210
0.0
220
0.0
230
1.0
  0
TEXT
  8
0
  6
CONTINUOUS
 62
    40
  5
7D5
 10
773.6273
 20
1883.4792
 30
0.0
 40
3.0
  1
18" cc
  7
MONOTXT
210
0.0
220
0.0
230
1.0
  0
TEXT
  8
0
  6
CONTINUOUS
 62
    40
  5
7D6
 10
773.3186
 20
1875.4494
 30
0.0
 40
3.0
  1
18" cc
  7
MONOTXT
210
0.0
220
0.0
230
1.0
  0
TEXT
  8
0
  6
CONTINUOUS
 62
    40
  5
7D7
 10
773.6273
 20
1867.4196
 30
0.0
 40
3.0
  1
18" cc
  7
MONOTXT
210
0.0
220
0.0
230
1.0
  0
TEXT
  8
0
  6
CONTINUOUS
 62
    40
  5
7D8
 10
773.6273
 20
1858.4632
 30
0.0
 40
3.0
  1
18" cc
  7
MONOTXT
210
0.0
220
0.0
230
1.0
  0
TEXT
  8
0
  6
CONTINUOUS
 62
    40
  5
7D9
 10
773.6273
 20
1842.7124
 30
0.0
 40
3.0
  1
18" cc
  7
MONOTXT
210
0.0
220
0.0
230
1.0
  0
TEXT
  8
0
  6
CONTINUOUS
 62
    40
  5
7DA
 10
735.4387
 20
1875.2699
 30
0.0
 40
3.0
  1
7'-9"
  7
MONOTXT
210
0.0
220
0.0
230
1.0
  0
TEXT
  8
0
  6
CONTINUOUS
 62
    40
  5
7DB
 10
755.7596
 20
1875.2699
 30
0.0
 40
3.0
  1
9'-9"
  7
MONOTXT
210
0.0
220
0.0
230
1.0
  0
TEXT
  8
0
  6
CONTINUOUS
 62
    40
  5
7DC
 10
735.5931
 20
1867.0151
 30
0.0
 40
3.0
  1
8'-3"
  7
MONOTXT
210
0.0
220
0.0
230
1.0
  0
TEXT
  8
0
  6
CONTINUOUS
 62
    40
  5
7DD
 10
754.9879
 20
1866.8409
 30
0.0
 40
3.0
  1
10'-3"
  7
MONOTXT
210
0.0
220
0.0
230
1.0
  0
TEXT
  8
0
  6
CONTINUOUS
 62
    40
  5
7DE
 10
736.2105
 20
1858.4317
 30
0.0
 40
3.0
  1
8'-9"
  7
MONOTXT
210
0.0
220
0.0
230
1.0
  0
TEXT
  8
0
  6
CONTINUOUS
 62
    40
  5
7DF
 10
755.2098
 20
1858.8078
 30
0.0
 40
3.0
  1
10'-9"
  7
MONOTXT
210
0.0
220
0.0
230
1.0
  0
TEXT
  8
0
  6
CONTINUOUS
 62
    40
  5
7E0
 10
735.4387
 20
1842.5474
 30
0.0
 40
3.0
  1
6'-4"
  7
MONOTXT
210
0.0
220
0.0
230
1.0
  0
TEXT
  8
0
  6
CONTINUOUS
 62
    40
  5
7E1
 10
756.1359
 20
1842.3058
 30
0.0
 40
3.0
  1
8'-4"
  7
MONOTXT
210
0.0
220
0.0
230
1.0
  0
TEXT
  8
0
  6
CONTINUOUS
 62
    40
  5
7E2
 10
735.2844
 20
1825.7565
 30
0.0
 40
3.0
  1
11'-10"
  7
MONOTXT
210
0.0
220
0.0
230
1.0
  0
TEXT
  8
0
  6
CONTINUOUS
 62
    40
  5
7E3
 10
754.5923
 20
1825.6219
 30
0.0
 40
3.0
  1
13'-10"
  7
MONOTXT
210
0.0
220
0.0
230
1.0
  0
TEXT
  8
0
  6
CONTINUOUS
 62
    40
  5
7E4
 10
773.6273
 20
1825.7262
 30
0.0
 40
3.0
  1
18" cc
  7
MONOTXT
210
0.0
220
0.0
230
1.0
  0
TEXT
  8
0
  6
CONTINUOUS
 62
    40
  5
7E5
 10
773.3186
 20
1809.6666
 30
0.0
 40
3.0
  1
18" cc
  7
MONOTXT
210
0.0
220
0.0
230
1.0
  0
TEXT
  8
0
  6
CONTINUOUS
 62
    40
  5
7E6
 10
773.6274
 20
1801.9456
 30
0.0
 40
3.0
  1
18" cc
  7
MONOTXT
210
0.0
220
0.0
230
1.0
  0
TEXT
  8
0
  6
CONTINUOUS
 62
    40
  5
7E7
 10
773.9361
 20
1793.607
 30
0.0
 40
3.0
  1
18" cc
  7
MONOTXT
210
0.0
220
0.0
230
1.0
  0
TEXT
  8
0
  6
CONTINUOUS
 62
    40
  5
7E8
 10
774.2448
 20
1785.5772
 30
0.0
 40
3.0
  1
18" cc
  7
MONOTXT
210
0.0
220
0.0
230
1.0
  0
TEXT
  8
0
  6
CONTINUOUS
 62
    40
  5
7E9
 10
774.5535
 20
1777.2385
 30
0.0
 40
3.0
  1
18" cc
  7
MONOTXT
210
0.0
220
0.0
230
1.0
  0
TEXT
  8
0
  6
CONTINUOUS
 62
    40
  5
7EA
 10
773.9361
 20
1768.8999
 30
0.0
 40
3.0
  1
18" cc
  7
MONOTXT
210
0.0
220
0.0
230
1.0
  0
TEXT
  8
0
  6
CONTINUOUS
 62
    40
  5
7EB
 10
774.2448
 20
1761.1789
 30
0.0
 40
3.0
  1
18" cc
  7
MONOTXT
210
0.0
220
0.0
230
1.0
  0
TEXT
  8
0
  6
CONTINUOUS
 62
    40
  5
7EC
 10
775.1709
 20
1752.8402
 30
0.0
 40
3.0
  1
18" cc
  7
MONOTXT
210
0.0
220
0.0
230
1.0
  0
TEXT
  8
0
  6
CONTINUOUS
 62
    40
  5
7ED
 10
774.8622
 20
1745.4281
 30
0.0
 40
3.0
  1
18" cc
  7
MONOTXT
210
0.0
220
0.0
230
1.0
  0
TEXT
  8
0
  6
CONTINUOUS
 62
    40
  5
7EE
 10
774.5535
 20
1738.016
 30
0.0
 40
3.0
  1
18" cc
  7
MONOTXT
210
0.0
220
0.0
230
1.0
  0
TEXT
  8
0
  6
CONTINUOUS
 62
    40
  5
7EF
 10
774.2448
 20
1729.9862
 30
0.0
 40
3.0
  1
18" cc
  7
MONOTXT
210
0.0
220
0.0
230
1.0
  0
TEXT
  8
0
  6
CONTINUOUS
 62
    40
  5
7F0
 10
774.2448
 20
1721.6475
 30
0.0
 40
3.0
  1
18" cc
  7
MONOTXT
210
0.0
220
0.0
230
1.0
  0
TEXT
  8
0
  6
CONTINUOUS
 62
    40
  5
7F1
 10
757.9888
 20
1809.7824
 30
0.0
 40
3.0
  1
1'-6"
  7
MONOTXT
210
0.0
220
0.0
230
1.0
  0
TEXT
  8
0
  6
CONTINUOUS
 62
    40
  5
7F2
 10
758.1431
 20
1801.5981
 30
0.0
 40
3.0
  1
3'-0"
  7
MONOTXT
210
0.0
220
0.0
230
1.0
  0
TEXT
  8
0
  6
CONTINUOUS
 62
    40
  5
7F3
 10
757.5257
 20
1793.5683
 30
0.0
 40
3.0
  1
4'-6"
  7
MONOTXT
210
0.0
220
0.0
230
1.0
  0
TEXT
  8
0
  6
CONTINUOUS
 62
    40
  5
7F4
 10
537.9496
 20
1785.1966
 30
0.0
 40
3.0
  1
14'-4"
  7
MONOTXT
210
0.0
220
0.0
230
1.0
  0
TEXT
  8
0
  6
CONTINUOUS
 62
    40
  5
7F5
 10
559.0284
 20
1785.1953
 30
0.0
 40
3.0
  1
6'-6"
  7
MONOTXT
210
0.0
220
0.0
230
1.0
  0
TEXT
  8
0
  6
CONTINUOUS
 62
    40
  5
7F6
 10
577.8481
 20
1785.1966
 30
0.0
 40
3.0
  1
13'-6"
  7
MONOTXT
210
0.0
220
0.0
230
1.0
  0
TEXT
  8
0
  6
CONTINUOUS
 62
    40
  5
7F7
 10
598.1689
 20
1785.1979
 30
0.0
 40
3.0
  1
14'-10"
  7
MONOTXT
210
0.0
220
0.0
230
1.0
  0
TEXT
  8
0
  6
CONTINUOUS
 62
    40
  5
7F8
 10
644.4513
 20
1785.1953
 30
0.0
 40
3.0
  1
20'-9"
  7
MONOTXT
210
0.0
220
0.0
230
1.0
  0
TEXT
  8
0
  6
CONTINUOUS
 62
    40
  5
7F9
 10
813.7958
 20
1785.1953
 30
0.0
 40
3.0
  1
49.71
  7
MONOTXT
210
0.0
220
0.0
230
1.0
  0
TEXT
  8
0
  6
CONTINUOUS
 62
    40
  5
7FA
 10
757.6149
 20
1784.9456
 30
0.0
 40
3.0
  1
5'-1"
  7
MONOTXT
210
0.0
220
0.0
230
1.0
  0
TEXT
  8
0
  6
CONTINUOUS
 62
    40
  5
7FB
 10
756.1025
 20
1761.0009
 30
0.0
 40
3.0
  1
41'-11"
  7
MONOTXT
210
0.0
220
0.0
230
1.0
  0
TEXT
  8
0
  6
CONTINUOUS
 62
    40
  5
7FC
 10
756.1025
 20
1752.8197
 30
0.0
 40
3.0
  1
38'-11"
  7
MONOTXT
210
0.0
220
0.0
230
1.0
  0
TEXT
  8
0
  6
CONTINUOUS
 62
    40
  5
7FD
 10
756.1025
 20
1745.2992
 30
0.0
 40
3.0
  1
36'-11"
  7
MONOTXT
210
0.0
220
0.0
230
1.0
  0
TEXT
  8
0
  6
CONTINUOUS
 62
    40
  5
7FE
 10
756.1025
 20
1738.0934
 30
0.0
 40
3.0
  1
33'-11"
  7
MONOTXT
210
0.0
220
0.0
230
1.0
  0
TEXT
  8
0
  6
CONTINUOUS
 62
    40
  5
7FF
 10
756.1025
 20
1729.9121
 30
0.0
 40
3.0
  1
30'-1"
  7
MONOTXT
210
0.0
220
0.0
230
1.0
  0
TEXT
  8
0
  6
CONTINUOUS
 62
    40
  5
800
 10
756.1025
 20
1721.7309
 30
0.0
 40
3.0
  1
27'-1"
  7
MONOTXT
210
0.0
220
0.0
230
1.0
  0
TEXT
  8
0
  6
CONTINUOUS
 62
    40
  5
801
 10
774.8621
 20
1680.5664
 30
0.0
 40
3.0
  1
5" cc
  7
MONOTXT
210
0.0
220
0.0
230
1.0
  0
TEXT
  8
0
  6
CONTINUOUS
 62
    40
  5
802
 10
773.9361
 20
1647.8344
 30
0.0
 40
3.0
  1
18" cc
  7
MONOTXT
210
0.0
220
0.0
230
1.0
  0
TEXT
  8
0
  6
CONTINUOUS
 62
    40
  5
803
 10
774.2448
 20
1639.8045
 30
0.0
 40
3.0
  1
18" cc
  7
MONOTXT
210
0.0
220
0.0
230
1.0
  0
TEXT
  8
0
  6
CONTINUOUS
 62
    40
  5
804
 10
774.2448
 20
1631.4658
 30
0.0
 40
3.0
  1
18" cc
  7
MONOTXT
210
0.0
220
0.0
230
1.0
  0
TEXT
  8
0
  6
CONTINUOUS
 62
    40
  5
805
 10
774.5535
 20
1623.127
 30
0.0
 40
3.0
  1
18" cc
  7
MONOTXT
210
0.0
220
0.0
230
1.0
  0
TEXT
  8
0
  6
CONTINUOUS
 62
    40
  5
806
 10
774.8622
 20
1614.7883
 30
0.0
 40
3.0
  1
18" cc
  7
MONOTXT
210
0.0
220
0.0
230
1.0
  0
TEXT
  8
0
  6
CONTINUOUS
 62
    40
  5
807
 10
774.5535
 20
1606.7584
 30
0.0
 40
3.0
  1
18" cc
  7
MONOTXT
210
0.0
220
0.0
230
1.0
  0
TEXT
  8
0
  6
CONTINUOUS
 62
    40
  5
808
 10
774.2448
 20
1598.7286
 30
0.0
 40
3.0
  1
18" cc
  7
MONOTXT
210
0.0
220
0.0
230
1.0
  0
TEXT
  8
0
  6
CONTINUOUS
 62
    40
  5
809
 10
774.2448
 20
1590.6987
 30
0.0
 40
3.0
  1
18" cc
  7
MONOTXT
210
0.0
220
0.0
230
1.0
  0
TEXT
  8
0
  6
CONTINUOUS
 62
    40
  5
80A
 10
774.5535
 20
1582.0511
 30
0.0
 40
3.0
  1
18" cc
  7
MONOTXT
210
0.0
220
0.0
230
1.0
  0
TEXT
  8
0
  6
CONTINUOUS
 62
    40
  5
80B
 10
774.5535
 20
1574.0213
 30
0.0
 40
3.0
  1
18" cc
  7
MONOTXT
210
0.0
220
0.0
230
1.0
  0
TEXT
  8
0
  6
CONTINUOUS
 62
    40
  5
80C
 10
774.5535
 20
1565.3737
 30
0.0
 40
3.0
  1
18" cc
  7
MONOTXT
210
0.0
220
0.0
230
1.0
  0
TEXT
  8
0
  6
CONTINUOUS
 62
    40
  5
80D
 10
774.5535
 20
1557.6527
 30
0.0
 40
3.0
  1
18" cc
  7
MONOTXT
210
0.0
220
0.0
230
1.0
  0
TEXT
  8
0
  6
CONTINUOUS
 62
    40
  5
80E
 10
774.2448
 20
1549.7269
 30
0.0
 40
3.0
  1
18" cc
  7
MONOTXT
210
0.0
220
0.0
230
1.0
  0
TEXT
  8
0
  6
CONTINUOUS
 62
    40
  5
80F
 10
774.8622
 20
1541.3881
 30
0.0
 40
3.0
  1
18" cc
  7
MONOTXT
210
0.0
220
0.0
230
1.0
  0
TEXT
  8
0
  6
CONTINUOUS
 62
    40
  5
810
 10
755.485
 20
1680.8246
 30
0.0
 40
3.0
  1
16'-9"
  7
MONOTXT
210
0.0
220
0.0
230
1.0
  0
TEXT
  8
0
  6
CONTINUOUS
 62
    40
  5
811
 10
715.7357
 20
1672.4832
 30
0.0
 40
3.0
  1
14'-5"
  7
MONOTXT
210
0.0
220
0.0
230
1.0
  0
TEXT
  8
0
  6
CONTINUOUS
 62
    40
  5
812
 10
734.9422
 20
1672.4708
 30
0.0
 40
3.0
  1
22'-11"
  7
MONOTXT
210
0.0
220
0.0
230
1.0
  0
TEXT
  8
0
  6
CONTINUOUS
 62
    40
  5
813
 10
755.1955
 20
1672.4035
 30
0.0
 40
3.0
  1
60'-3"
  7
MONOTXT
210
0.0
220
0.0
230
1.0
  0
TEXT
  8
0
  6
CONTINUOUS
 62
    40
  5
814
 10
756.1025
 20
1664.4621
 30
0.0
 40
3.0
  1
20'-1"
  7
MONOTXT
210
0.0
220
0.0
230
1.0
  0
TEXT
  8
0
  6
CONTINUOUS
 62
    40
  5
815
 10
755.7735
 20
1655.9721
 30
0.0
 40
3.0
  1
13'-6"
  7
MONOTXT
210
0.0
220
0.0
230
1.0
  0
TEXT
  8
0
  6
CONTINUOUS
 62
    40
  5
816
 10
717.3577
 20
1647.8156
 30
0.0
 40
3.0
  1
2'-0"
  7
MONOTXT
210
0.0
220
0.0
230
1.0
  0
TEXT
  8
0
  6
CONTINUOUS
 62
    40
  5
817
 10
717.6664
 20
1639.4768
 30
0.0
 40
3.0
  1
2'-0"
  7
MONOTXT
210
0.0
220
0.0
230
1.0
  0
TEXT
  8
0
  6
CONTINUOUS
 62
    40
  5
818
 10
717.6664
 20
1631.447
 30
0.0
 40
3.0
  1
2'-0"
  7
MONOTXT
210
0.0
220
0.0
230
1.0
  0
TEXT
  8
0
  6
CONTINUOUS
 62
    40
  5
819
 10
717.9751
 20
1623.4171
 30
0.0
 40
3.0
  1
2'-0"
  7
MONOTXT
210
0.0
220
0.0
230
1.0
  0
TEXT
  8
0
  6
CONTINUOUS
 62
    40
  5
81A
 10
717.9751
 20
1615.3872
 30
0.0
 40
3.0
  1
2'-0"
  7
MONOTXT
210
0.0
220
0.0
230
1.0
  0
TEXT
  8
0
  6
CONTINUOUS
 62
    40
  5
81B
 10
717.6664
 20
1607.0485
 30
0.0
 40
3.0
  1
2'-0"
  7
MONOTXT
210
0.0
220
0.0
230
1.0
  0
TEXT
  8
0
  6
CONTINUOUS
 62
    40
  5
81C
 10
717.3577
 20
1599.0186
 30
0.0
 40
3.0
  1
2'-0"
  7
MONOTXT
210
0.0
220
0.0
230
1.0
  0
TEXT
  8
0
  6
CONTINUOUS
 62
    40
  5
81D
 10
717.9751
 20
1590.9887
 30
0.0
 40
3.0
  1
2'-0"
  7
MONOTXT
210
0.0
220
0.0
230
1.0
  0
TEXT
  8
0
  6
CONTINUOUS
 62
    40
  5
81E
 10
717.6664
 20
1582.9588
 30
0.0
 40
3.0
  1
2'-0"
  7
MONOTXT
210
0.0
220
0.0
230
1.0
  0
TEXT
  8
0
  6
CONTINUOUS
 62
    40
  5
81F
 10
717.6664
 20
1574.3113
 30
0.0
 40
3.0
  1
2'-0"
  7
MONOTXT
210
0.0
220
0.0
230
1.0
  0
TEXT
  8
0
  6
CONTINUOUS
 62
    40
  5
820
 10
717.6664
 20
1566.2814
 30
0.0
 40
3.0
  1
2'-0"
  7
MONOTXT
210
0.0
220
0.0
230
1.0
  0
TEXT
  8
0
  6
CONTINUOUS
 62
    40
  5
821
 10
717.3577
 20
1557.9427
 30
0.0
 40
3.0
  1
2'-0"
  7
MONOTXT
210
0.0
220
0.0
230
1.0
  0
TEXT
  8
0
  6
CONTINUOUS
 62
    40
  5
822
 10
717.6664
 20
1549.9128
 30
0.0
 40
3.0
  1
2'-0"
  7
MONOTXT
210
0.0
220
0.0
230
1.0
  0
TEXT
  8
0
  6
CONTINUOUS
 62
    40
  5
823
 10
717.6664
 20
1541.5741
 30
0.0
 40
3.0
  1
2'-0"
  7
MONOTXT
210
0.0
220
0.0
230
1.0
  0
TEXT
  8
0
  6
CONTINUOUS
 62
    40
  5
824
 10
736.5533
 20
1647.338
 30
0.0
 40
3.0
  1
7'-6"
  7
MONOTXT
210
0.0
220
0.0
230
1.0
  0
TEXT
  8
0
  6
CONTINUOUS
 62
    40
  5
825
 10
756.8742
 20
1647.338
 30
0.0
 40
3.0
  1
9'-6"
  7
MONOTXT
210
0.0
220
0.0
230
1.0
  0
TEXT
  8
0
  6
CONTINUOUS
 62
    40
  5
826
 10
736.5533
 20
1638.6872
 30
0.0
 40
3.0
  1
8'-0"
  7
MONOTXT
210
0.0
220
0.0
230
1.0
  0
TEXT
  8
0
  6
CONTINUOUS
 62
    40
  5
827
 10
756.8742
 20
1639.4395
 30
0.0
 40
3.0
  1
10'-0"
  7
MONOTXT
210
0.0
220
0.0
230
1.0
  0
TEXT
  8
0
  6
CONTINUOUS
 62
    40
  5
828
 10
736.177
 20
1631.1648
 30
0.0
 40
3.0
  1
8'-6"
  7
MONOTXT
210
0.0
220
0.0
230
1.0
  0
TEXT
  8
0
  6
CONTINUOUS
 62
    40
  5
829
 10
756.8742
 20
1631.5409
 30
0.0
 40
3.0
  1
10'-6"
  7
MONOTXT
210
0.0
220
0.0
230
1.0
  0
TEXT
  8
0
  6
CONTINUOUS
 62
    40
  5
82A
 10
736.177
 20
1623.3733
 30
0.0
 40
3.0
  1
9'-0"
  7
MONOTXT
210
0.0
220
0.0
230
1.0
  0
TEXT
  8
0
  6
CONTINUOUS
 62
    40
  5
82B
 10
756.4979
 20
1622.1379
 30
0.0
 40
3.0
  1
11'-0"
  7
MONOTXT
210
0.0
220
0.0
230
1.0
  0
TEXT
  8
0
  6
CONTINUOUS
 62
    40
  5
82C
 10
736.177
 20
1615.0986
 30
0.0
 40
3.0
  1
9'-6"
  7
MONOTXT
210
0.0
220
0.0
230
1.0
  0
TEXT
  8
0
  6
CONTINUOUS
 62
    40
  5
82D
 10
756.4979
 20
1613.8632
 30
0.0
 40
3.0
  1
11'-6"
  7
MONOTXT
210
0.0
220
0.0
230
1.0
  0
TEXT
  8
0
  6
CONTINUOUS
 62
    40
  5
82E
 10
736.177
 20
1606.3408
 30
0.0
 40
3.0
  1
10'-0"
  7
MONOTXT
210
0.0
220
0.0
230
1.0
  0
TEXT
  8
0
  6
CONTINUOUS
 62
    40
  5
82F
 10
756.4979
 20
1606.7566
 30
0.0
 40
3.0
  1
12'-0"
  7
MONOTXT
210
0.0
220
0.0
230
1.0
  0
TEXT
  8
0
  6
CONTINUOUS
 62
    40
  5
830
 10
736.177
 20
1598.0661
 30
0.0
 40
3.0
  1
10'-6"
  7
MONOTXT
210
0.0
220
0.0
230
1.0
  0
TEXT
  8
0
  6
CONTINUOUS
 62
    40
  5
831
 10
756.4979
 20
1597.69
 30
0.0
 40
3.0
  1
12'-6"
  7
MONOTXT
210
0.0
220
0.0
230
1.0
  0
TEXT
  8
0
  6
CONTINUOUS
 62
    40
  5
832
 10
736.177
 20
1589.7915
 30
0.0
 40
3.0
  1
11'-0"
  7
MONOTXT
210
0.0
220
0.0
230
1.0
  0
TEXT
  8
0
  6
CONTINUOUS
 62
    40
  5
833
 10
756.8742
 20
1589.4154
 30
0.0
 40
3.0
  1
13'-0"
  7
MONOTXT
210
0.0
220
0.0
230
1.0
  0
TEXT
  8
0
  6
CONTINUOUS
 62
    40
  5
834
 10
736.4857
 20
1582.1345
 30
0.0
 40
3.0
  1
11'-6"
  7
MONOTXT
210
0.0
220
0.0
230
1.0
  0
TEXT
  8
0
  6
CONTINUOUS
 62
    40
  5
835
 10
756.4979
 20
1581.8929
 30
0.0
 40
3.0
  1
13'-6"
  7
MONOTXT
210
0.0
220
0.0
230
1.0
  0
TEXT
  8
0
  6
CONTINUOUS
 62
    40
  5
836
 10
736.177
 20
1573.2421
 30
0.0
 40
3.0
  1
12'-0"
  7
MONOTXT
210
0.0
220
0.0
230
1.0
  0
TEXT
  8
0
  6
CONTINUOUS
 62
    40
  5
837
 10
756.4979
 20
1573.2421
 30
0.0
 40
3.0
  1
14'-0"
  7
MONOTXT
210
0.0
220
0.0
230
1.0
  0
TEXT
  8
0
  6
CONTINUOUS
 62
    40
  5
838
 10
736.177
 20
1565.7197
 30
0.0
 40
3.0
  1
12'-6"
  7
MONOTXT
210
0.0
220
0.0
230
1.0
  0
TEXT
  8
0
  6
CONTINUOUS
 62
    40
  5
839
 10
756.4979
 20
1565.3436
 30
0.0
 40
3.0
  1
14'-6"
  7
MONOTXT
210
0.0
220
0.0
230
1.0
  0
TEXT
  8
0
  6
CONTINUOUS
 62
    40
  5
83A
 10
736.5533
 20
1557.6193
 30
0.0
 40
3.0
  1
13'-0"
  7
MONOTXT
210
0.0
220
0.0
230
1.0
  0
TEXT
  8
0
  6
CONTINUOUS
 62
    40
  5
83B
 10
756.4979
 20
1557.445
 30
0.0
 40
3.0
  1
15'-0"
  7
MONOTXT
210
0.0
220
0.0
230
1.0
  0
TEXT
  8
0
  6
CONTINUOUS
 62
    40
  5
83C
 10
736.862
 20
1549.5862
 30
0.0
 40
3.0
  1
13'-6"
  7
MONOTXT
210
0.0
220
0.0
230
1.0
  0
TEXT
  8
0
  6
CONTINUOUS
 62
    40
  5
83D
 10
736.5533
 20
1541.2718
 30
0.0
 40
3.0
  1
14'-0"
  7
MONOTXT
210
0.0
220
0.0
230
1.0
  0
TEXT
  8
0
  6
CONTINUOUS
 62
    40
  5
83E
 10
756.4979
 20
1540.8957
 30
0.0
 40
3.0
  1
16'-0"
  7
MONOTXT
210
0.0
220
0.0
230
1.0
  0
TEXT
  8
0
  6
CONTINUOUS
 62
    40
  5
83F
 10
773.936
 20
1524.7106
 30
0.0
 40
3.0
  1
18" cc
  7
MONOTXT
210
0.0
220
0.0
230
1.0
  0
TEXT
  8
0
  6
CONTINUOUS
 62
    40
  5
840
 10
773.6273
 20
1516.6808
 30
0.0
 40
3.0
  1
18" cc
  7
MONOTXT
210
0.0
220
0.0
230
1.0
  0
TEXT
  8
0
  6
CONTINUOUS
 62
    40
  5
841
 10
773.6273
 20
1508.6509
 30
0.0
 40
3.0
  1
18" cc
  7
MONOTXT
210
0.0
220
0.0
230
1.0
  0
TEXT
  8
0
  6
CONTINUOUS
 62
    40
  5
842
 10
774.2448
 20
1500.0033
 30
0.0
 40
3.0
  1
18" cc
  7
MONOTXT
210
0.0
220
0.0
230
1.0
  0
TEXT
  8
0
  6
CONTINUOUS
 62
    40
  5
843
 10
773.936
 20
1492.2823
 30
0.0
 40
3.0
  1
18" cc
  7
MONOTXT
210
0.0
220
0.0
230
1.0
  0
TEXT
  8
0
  6
CONTINUOUS
 62
    40
  5
844
 10
774.2447
 20
1483.9435
 30
0.0
 40
3.0
  1
18" cc
  7
MONOTXT
210
0.0
220
0.0
230
1.0
  0
TEXT
  8
0
  6
CONTINUOUS
 62
    40
  5
845
 10
774.2447
 20
1475.6048
 30
0.0
 40
3.0
  1
18" cc
  7
MONOTXT
210
0.0
220
0.0
230
1.0
  0
TEXT
  8
0
  6
CONTINUOUS
 62
    40
  5
846
 10
773.0099
 20
1467.5749
 30
0.0
 40
3.0
  1
18" cc
  7
MONOTXT
210
0.0
220
0.0
230
1.0
  0
TEXT
  8
0
  6
CONTINUOUS
 62
    40
  5
847
 10
773.3186
 20
1458.9274
 30
0.0
 40
3.0
  1
18" cc
  7
MONOTXT
210
0.0
220
0.0
230
1.0
  0
TEXT
  8
0
  6
CONTINUOUS
 62
    40
  5
848
 10
773.0099
 20
1450.8975
 30
0.0
 40
3.0
  1
18" cc
  7
MONOTXT
210
0.0
220
0.0
230
1.0
  0
TEXT
  8
0
  6
CONTINUOUS
 62
    40
  5
849
 10
773.0099
 20
1442.5588
 30
0.0
 40
3.0
  1
18" cc
  7
MONOTXT
210
0.0
220
0.0
230
1.0
  0
TEXT
  8
0
  6
CONTINUOUS
 62
    40
  5
84A
 10
773.6273
 20
1434.2201
 30
0.0
 40
3.0
  1
18" cc
  7
MONOTXT
210
0.0
220
0.0
230
1.0
  0
TEXT
  8
0
  6
CONTINUOUS
 62
    40
  5
84B
 10
773.3186
 20
1426.1902
 30
0.0
 40
3.0
  1
18" cc
  7
MONOTXT
210
0.0
220
0.0
230
1.0
  0
TEXT
  8
0
  6
CONTINUOUS
 62
    40
  5
84C
 10
736.5533
 20
1524.7225
 30
0.0
 40
3.0
  1
4'-5"
  7
MONOTXT
210
0.0
220
0.0
230
1.0
  0
TEXT
  8
0
  6
CONTINUOUS
 62
    40
  5
84D
 10
756.4979
 20
1524.7225
 30
0.0
 40
3.0
  1
6'-5"
  7
MONOTXT
210
0.0
220
0.0
230
1.0
  0
TEXT
  8
0
  6
CONTINUOUS
 62
    40
  5
84E
 10
737.306
 20
1516.824
 30
0.0
 40
3.0
  1
4'-11"
  7
MONOTXT
210
0.0
220
0.0
230
1.0
  0
TEXT
  8
0
  6
CONTINUOUS
 62
    40
  5
84F
 10
757.077
 20
1516.6894
 30
0.0
 40
3.0
  1
6'-11"
  7
MONOTXT
210
0.0
220
0.0
230
1.0
  0
TEXT
  8
0
  6
CONTINUOUS
 62
    40
  5
850
 10
737.306
 20
1508.5493
 30
0.0
 40
3.0
  1
5'-5"
  7
MONOTXT
210
0.0
220
0.0
230
1.0
  0
TEXT
  8
0
  6
CONTINUOUS
 62
    40
  5
851
 10
757.3181
 20
1508.3077
 30
0.0
 40
3.0
  1
7'-5"
  7
MONOTXT
210
0.0
220
0.0
230
1.0
  0
TEXT
  8
0
  6
CONTINUOUS
 62
    40
  5
852
 10
737.6823
 20
1499.8985
 30
0.0
 40
3.0
  1
5'-11"
  7
MONOTXT
210
0.0
220
0.0
230
1.0
  0
TEXT
  8
0
  6
CONTINUOUS
 62
    40
  5
853
 10
756.7006
 20
1500.2073
 30
0.0
 40
3.0
  1
7'-11"
  7
MONOTXT
210
0.0
220
0.0
230
1.0
  0
TEXT
  8
0
  6
CONTINUOUS
 62
    40
  5
854
 10
737.6823
 20
1492.5504
 30
0.0
 40
3.0
  1
6'-5"
  7
MONOTXT
210
0.0
220
0.0
230
1.0
  0
TEXT
  8
0
  6
CONTINUOUS
 62
    40
  5
855
 10
757.077
 20
1492.4158
 30
0.0
 40
3.0
  1
8'-5"
  7
MONOTXT
210
0.0
220
0.0
230
1.0
  0
TEXT
  8
0
  6
CONTINUOUS
 62
    40
  5
856
 10
681.9046
 20
1418.4687
 30
0.0
 40
3.0
  1
KI4
  7
MONOTXT
210
0.0
220
0.0
230
1.0
  0
TEXT
  8
0
  6
CONTINUOUS
 62
    40
  5
857
 10
692.5432
 20
1418.4005
 30
0.0
 40
3.0
  1
11
  7
MONOTXT
210
0.0
220
0.0
230
1.0
  0
TEXT
  8
0
  6
CONTINUOUS
 62
    40
  5
858
 10
702.7957
 20
1418.3897
 30
0.0
 40
3.0
  1
2
  7
MONOTXT
210
0.0
220
0.0
230
1.0
  0
TEXT
  8
0
  6
CONTINUOUS
 62
    40
  5
859
 10
717.049
 20
1524.5878
 30
0.0
 40
3.0
  1
2'-0"
  7
MONOTXT
210
0.0
220
0.0
230
1.0
  0
TEXT
  8
0
  6
CONTINUOUS
 62
    40
  5
85A
 10
716.7403
 20
1516.558
 30
0.0
 40
3.0
  1
2'-0"
  7
MONOTXT
210
0.0
220
0.0
230
1.0
  0
TEXT
  8
0
  6
CONTINUOUS
 62
    40
  5
85B
 10
717.049
 20
1508.2192
 30
0.0
 40
3.0
  1
2'-0"
  7
MONOTXT
210
0.0
220
0.0
230
1.0
  0
TEXT
  8
0
  6
CONTINUOUS
 62
    40
  5
85C
 10
717.3577
 20
1499.8805
 30
0.0
 40
3.0
  1
2'-0"
  7
MONOTXT
210
0.0
220
0.0
230
1.0
  0
TEXT
  8
0
  6
CONTINUOUS
 62
    40
  5
85D
 10
717.049
 20
1492.1595
 30
0.0
 40
3.0
  1
2'-0"
  7
MONOTXT
210
0.0
220
0.0
230
1.0
  0
TEXT
  8
0
  6
CONTINUOUS
 62
    40
  5
85E
 10
717.3577
 20
1483.5119
 30
0.0
 40
3.0
  1
2'-0"
  7
MONOTXT
210
0.0
220
0.0
230
1.0
  0
TEXT
  8
0
  6
CONTINUOUS
 62
    40
  5
85F
 10
717.6664
 20
1475.1732
 30
0.0
 40
3.0
  1
2'-0"
  7
MONOTXT
210
0.0
220
0.0
230
1.0
  0
TEXT
  8
0
  6
CONTINUOUS
 62
    40
  5
860
 10
717.3577
 20
1467.7611
 30
0.0
 40
3.0
  1
2'-0"
  7
MONOTXT
210
0.0
220
0.0
230
1.0
  0
TEXT
  8
0
  6
CONTINUOUS
 62
    40
  5
861
 10
717.6664
 20
1458.8046
 30
0.0
 40
3.0
  1
2'-0"
  7
MONOTXT
210
0.0
220
0.0
230
1.0
  0
TEXT
  8
0
  6
CONTINUOUS
 62
    40
  5
862
 10
717.6664
 20
1450.7747
 30
0.0
 40
3.0
  1
2'-0"
  7
MONOTXT
210
0.0
220
0.0
230
1.0
  0
TEXT
  8
0
  6
CONTINUOUS
 62
    40
  5
863
 10
717.9751
 20
1442.7449
 30
0.0
 40
3.0
  1
2'-0"
  7
MONOTXT
210
0.0
220
0.0
230
1.0
  0
TEXT
  8
0
  6
CONTINUOUS
 62
    40
  5
864
 10
717.3577
 20
1434.715
 30
0.0
 40
3.0
  1
2'-0"
  7
MONOTXT
210
0.0
220
0.0
230
1.0
  0
TEXT
  8
0
  6
CONTINUOUS
 62
    40
  5
865
 10
717.3576
 20
1426.6852
 30
0.0
 40
3.0
  1
2'-0"
  7
MONOTXT
210
0.0
220
0.0
230
1.0
  0
TEXT
  8
0
  6
CONTINUOUS
 62
    40
  5
866
 10
717.3577
 20
1418.0375
 30
0.0
 40
3.0
  1
2'-0"
  7
MONOTXT
210
0.0
220
0.0
230
1.0
  0
TEXT
  8
0
  6
CONTINUOUS
 62
    40
  5
867
 10
717.049
 20
1410.3165
 30
0.0
 40
3.0
  1
2'-0"
  7
MONOTXT
210
0.0
220
0.0
230
1.0
  0
TEXT
  8
0
  6
CONTINUOUS
 62
    40
  5
868
 10
773.936
 20
1418.4692
 30
0.0
 40
3.0
  1
18" cc
  7
MONOTXT
210
0.0
220
0.0
230
1.0
  0
TEXT
  8
0
  6
CONTINUOUS
 62
    40
  5
869
 10
795.3565
 20
1418.6548
 30
0.0
 40
3.0
  1
BENT
  7
MONOTXT
210
0.0
220
0.0
230
1.0
  0
TEXT
  8
0
  6
CONTINUOUS
 62
    40
  5
86A
 10
737.6823
 20
1483.3492
 30
0.0
 40
3.0
  1
6'-11"
  7
MONOTXT
210
0.0
220
0.0
230
1.0
  0
TEXT
  8
0
  6
CONTINUOUS
 62
    40
  5
86B
 10
756.7683
 20
1484.2084
 30
0.0
 40
3.0
  1
8'-11"
  7
MONOTXT
210
0.0
220
0.0
230
1.0
  0
TEXT
  8
0
  6
CONTINUOUS
 62
    40
  5
86C
 10
737.6823
 20
1475.8267
 30
0.0
 40
3.0
  1
7'-5"
  7
MONOTXT
210
0.0
220
0.0
230
1.0
  0
TEXT
  8
0
  6
CONTINUOUS
 62
    40
  5
86D
 10
757.077
 20
1475.8267
 30
0.0
 40
3.0
  1
9'-5"
  7
MONOTXT
210
0.0
220
0.0
230
1.0
  0
TEXT
  8
0
  6
CONTINUOUS
 62
    40
  5
86E
 10
737.3736
 20
1467.0415
 30
0.0
 40
3.0
  1
7'-11"
  7
MONOTXT
210
0.0
220
0.0
230
1.0
  0
TEXT
  8
0
  6
CONTINUOUS
 62
    40
  5
86F
 10
757.077
 20
1467.176
 30
0.0
 40
3.0
  1
9'-11"
  7
MONOTXT
210
0.0
220
0.0
230
1.0
  0
TEXT
  8
0
  6
CONTINUOUS
 62
    40
  5
870
 10
737.6823
 20
1459.2774
 30
0.0
 40
3.0
  1
8'-5"
  7
MONOTXT
210
0.0
220
0.0
230
1.0
  0
TEXT
  8
0
  6
CONTINUOUS
 62
    40
  5
871
 10
756.2184
 20
1458.9013
 30
0.0
 40
3.0
  1
10'-5"
  7
MONOTXT
210
0.0
220
0.0
230
1.0
  0
TEXT
  8
0
  6
CONTINUOUS
 62
    40
  5
872
 10
737.6823
 20
1450.2505
 30
0.0
 40
3.0
  1
8'-11"
  7
MONOTXT
210
0.0
220
0.0
230
1.0
  0
TEXT
  8
0
  6
CONTINUOUS
 62
    40
  5
873
 10
755.6012
 20
1450.9355
 30
0.0
 40
3.0
  1
10'-11"
  7
MONOTXT
210
0.0
220
0.0
230
1.0
  0
TEXT
  8
0
  6
CONTINUOUS
 62
    40
  5
874
 10
737.6823
 20
1442.7281
 30
0.0
 40
3.0
  1
9'-5"
  7
MONOTXT
210
0.0
220
0.0
230
1.0
  0
TEXT
  8
0
  6
CONTINUOUS
 62
    40
  5
875
 10
756.8359
 20
1442.7281
 30
0.0
 40
3.0
  1
11'-5"
  7
MONOTXT
210
0.0
220
0.0
230
1.0
  0
TEXT
  8
0
  6
CONTINUOUS
 62
    40
  5
876
 10
737.0648
 20
1434.8295
 30
0.0
 40
3.0
  1
9'-11"
  7
MONOTXT
210
0.0
220
0.0
230
1.0
  0
TEXT
  8
0
  6
CONTINUOUS
 62
    40
  5
877
 10
756.5272
 20
1434.695
 30
0.0
 40
3.0
  1
11'-11"
  7
MONOTXT
210
0.0
220
0.0
230
1.0
  0
TEXT
  8
0
  6
CONTINUOUS
 62
    40
  5
878
 10
736.7562
 20
1426.1787
 30
0.0
 40
3.0
  1
10'-5"
  7
MONOTXT
210
0.0
220
0.0
230
1.0
  0
TEXT
  8
0
  6
CONTINUOUS
 62
    40
  5
879
 10
756.1508
 20
1426.7292
 30
0.0
 40
3.0
  1
12'-5"
  7
MONOTXT
210
0.0
220
0.0
230
1.0
  0
TEXT
  8
0
  6
CONTINUOUS
 62
    40
  5
87A
 10
736.4475
 20
1418.1488
 30
0.0
 40
3.0
  1
10'-5"
  7
MONOTXT
210
0.0
220
0.0
230
1.0
  0
TEXT
  8
0
  6
CONTINUOUS
 62
    40
  5
87B
 10
736.4475
 20
1410.3555
 30
0.0
 40
3.0
  1
10'-11"
  7
MONOTXT
210
0.0
220
0.0
230
1.0
  0
TEXT
  8
0
  6
CONTINUOUS
 62
    40
  5
87C
 10
774.2447
 20
1410.1304
 30
0.0
 40
3.0
  1
18" cc
  7
MONOTXT
210
0.0
220
0.0
230
1.0
  0
TEXT
  8
0
  6
CONTINUOUS
 62
    40
  5
87D
 10
717.3577
 20
1393.9479
 30
0.0
 40
3.0
  1
2'-0"
  7
MONOTXT
210
0.0
220
0.0
230
1.0
  0
TEXT
  8
0
  6
CONTINUOUS
 62
    40
  5
87E
 10
737.306
 20
1393.7389
 30
0.0
 40
3.0
  1
14'-0"
  7
MONOTXT
210
0.0
220
0.0
230
1.0
  0
TEXT
  8
0
  6
CONTINUOUS
 62
    40
  5
87F
 10
758.3795
 20
1394.115
 30
0.0
 40
3.0
  1
16'-0"
  7
MONOTXT
210
0.0
220
0.0
230
1.0
  0
TEXT
  8
0
  6
CONTINUOUS
 62
    40
  5
880
 10
773.936
 20
1394.3794
 30
0.0
 40
3.0
  1
18" cc
  7
MONOTXT
210
0.0
220
0.0
230
1.0
  0
TEXT
  8
0
  6
CONTINUOUS
 62
    40
  5
881
 10
773.6273
 20
1378.0109
 30
0.0
 40
3.0
  1
18" cc
  7
MONOTXT
210
0.0
220
0.0
230
1.0
  0
TEXT
  8
0
  6
CONTINUOUS
 62
    40
  5
882
 10
773.6273
 20
1369.981
 30
0.0
 40
3.0
  1
18" cc
  7
MONOTXT
210
0.0
220
0.0
230
1.0
  0
TEXT
  8
0
  6
CONTINUOUS
 62
    40
  5
883
 10
773.936
 20
1361.6423
 30
0.0
 40
3.0
  1
18" cc
  7
MONOTXT
210
0.0
220
0.0
230
1.0
  0
TEXT
  8
0
  6
CONTINUOUS
 62
    40
  5
884
 10
773.6273
 20
1353.6124
 30
0.0
 40
3.0
  1
18" cc
  7
MONOTXT
210
0.0
220
0.0
230
1.0
  0
TEXT
  8
0
  6
CONTINUOUS
 62
    40
  5
885
 10
757.0476
 20
1377.7525
 30
0.0
 40
3.0
  1
1'-5"
  7
MONOTXT
210
0.0
220
0.0
230
1.0
  0
TEXT
  8
0
  6
CONTINUOUS
 62
    40
  5
886
 10
757.0476
 20
1369.5713
 30
0.0
 40
3.0
  1
2'-10"
  7
MONOTXT
210
0.0
220
0.0
230
1.0
  0
TEXT
  8
0
  6
CONTINUOUS
 62
    40
  5
887
 10
757.0476
 20
1361.39
 30
0.0
 40
3.0
  1
4'-3"
  7
MONOTXT
210
0.0
220
0.0
230
1.0
  0
TEXT
  8
0
  6
CONTINUOUS
 62
    40
  5
888
 10
757.0476
 20
1353.2088
 30
0.0
 40
3.0
  1
5'-9"
  7
MONOTXT
210
0.0
220
0.0
230
1.0
  0
TEXT
  8
0
  6
CONTINUOUS
 62
    40
  5
889
 10
756.4979
 20
1549.1704
 30
0.0
 40
3.0
  1
15'-6"
  7
MONOTXT
210
0.0
220
0.0
230
1.0
  0
TEXT
  8
0
  6
CONTINUOUS
 62
    40
  5
88A
 10
756.1509
 20
1418.3904
 30
0.0
 40
3.0
  1
12'-11"
  7
MONOTXT
210
0.0
220
0.0
230
1.0
  0
TEXT
  8
0
  6
CONTINUOUS
 62
    40
  5
88B
 10
755.9098
 20
1410.6386
 30
0.0
 40
3.0
  1
9'-6"
  7
MONOTXT
210
0.0
220
0.0
230
1.0
  0
TEXT
  8
0
  6
CONTINUOUS
 62
    40
  5
88C
 10
755.0389
 20
1850.5975
 30
0.0
 40
3.0
  1
10'-0"
  7
MONOTXT
210
0.0
220
0.0
230
1.0
  0
TEXT
  8
1
  6
CONTINUOUS
 62
   140
  5
88D
 10
733.791
 20
1268.9846
 30
-0.0001
 40
3.0336
  1
PREPARED 7/1/99
 41
1.003165
  7
MONOTXT
210
0.0
220
0.0
230
1.0
  0
ENDSEC
  0
EOF
