  0
SECTION
  2
HEADER
  9
$ACADVER
  1
AC1009
  9
$INSBASE
 10
0.0
 20
0.0
 30
0.0
  9
$EXTMIN
 10
-6.0
 20
-5.196
 30
0.0
  9
$EXTMAX
 10
127.90225
 20
61.904833
 30
0.0
  9
$LIMMIN
 10
0.0
 20
0.0
  9
$LIMMAX
 10
12.0
 20
9.0
  9
$ORTHOMODE
 70
     0
  9
$REGENMODE
 70
     1
  9
$FILLMODE
 70
     1
  9
$QTEXTMODE
 70
     0
  9
$MIRRTEXT
 70
     1
  9
$DRAGMODE
 70
     2
  9
$LTSCALE
 40
1.0
  9
$OSMODE
 70
     0
  9
$ATTMODE
 70
     1
  9
$TEXTSIZE
 40
0.2
  9
$TRACEWID
 40
0.05
  9
$TEXTSTYLE
  7
STANDARD
  9
$CLAYER
  8
0
  9
$CELTYPE
  6
CONTINUOUS
  9
$CECOLOR
 62
   256
  9
$DIMSCALE
 40
1.0
  9
$DIMASZ
 40
0.18
  9
$DIMEXO
 40
0.0625
  9
$DIMDLI
 40
0.38
  9
$DIMRND
 40
0.0
  9
$DIMDLE
 40
0.0
  9
$DIMEXE
 40
0.18
  9
$DIMTP
 40
0.0
  9
$DIMTM
 40
0.0
  9
$DIMTXT
 40
0.18
  9
$DIMCEN
 40
0.09
  9
$DIMTSZ
 40
0.0
  9
$DIMTOL
 70
     0
  9
$DIMLIM
 70
     0
  9
$DIMTIH
 70
     1
  9
$DIMTOH
 70
     1
  9
$DIMSE1
 70
     0
  9
$DIMSE2
 70
     0
  9
$DIMTAD
 70
     0
  9
$DIMZIN
 70
     0
  9
$DIMBLK
  1

  9
$DIMASO
 70
     1
  9
$DIMSHO
 70
     1
  9
$DIMPOST
  1

  9
$DIMAPOST
  1

  9
$DIMALT
 70
     0
  9
$DIMALTD
 70
     2
  9
$DIMALTF
 40
25.4
  9
$DIMLFAC
 40
1.0
  9
$DIMTOFL
 70
     0
  9
$DIMTVP
 40
0.0
  9
$DIMTIX
 70
     0
  9
$DIMSOXD
 70
     0
  9
$DIMSAH
 70
     0
  9
$DIMBLK1
  1

  9
$DIMBLK2
  1

  9
$DIMSTYLE
  2
STANDARD
  9
$DIMCLRD
 70
     0
  9
$DIMCLRE
 70
     0
  9
$DIMCLRT
 70
     0
  9
$DIMTFAC
 40
1.0
  9
$DIMGAP
 40
0.09
  9
$LUNITS
 70
     2
  9
$LUPREC
 70
     4
  9
$AXISMODE
 70
     0
  9
$AXISUNIT
 10
0.0
 20
0.0
  9
$SKETCHINC
 40
0.1
  9
$FILLETRAD
 40
0.0
  9
$AUNITS
 70
     0
  9
$AUPREC
 70
     0
  9
$MENU
  1
acad
  9
$ELEVATION
 40
0.0
  9
$PELEVATION
 40
0.0
  9
$THICKNESS
 40
0.0
  9
$LIMCHECK
 70
     0
  9
$BLIPMODE
 70
     1
  9
$CHAMFERA
 40
0.0
  9
$CHAMFERB
 40
0.0
  9
$SKPOLY
 70
     0
  9
$TDCREATE
 40
2451605.430173611
  9
$TDUPDATE
 40
2451605.430173611
  9
$TDINDWG
 40
0.0000000000
  9
$TDUSRTIMER
 40
0.0000000000
  9
$USRTIMER
 70
     1
  9
$ANGBASE
 50
0.0
  9
$ANGDIR
 70
     0
  9
$PDMODE
 70
     0
  9
$PDSIZE
 40
0.0
  9
$PLINEWID
 40
0.0
  9
$COORDS
 70
     0
  9
$SPLFRAME
 70
     0
  9
$SPLINETYPE
 70
     6
  9
$SPLINESEGS
 70
    10
  9
$ATTDIA
 70
     0
  9
$ATTREQ
 70
     1
  9
$HANDLING
 70
     1
  9
$HANDSEED
  5
9AD
  9
$SURFTAB1
 70
     6
  9
$SURFTAB2
 70
     6
  9
$SURFTYPE
 70
     6
  9
$SURFU
 70
     6
  9
$SURFV
 70
     6
  9
$UCSNAME
  2

  9
$UCSORG
 10
0.0
 20
0.0
 30
0.0
  9
$UCSXDIR
 10
1.0
 20
0.0
 30
0.0
  9
$UCSYDIR
 10
0.0
 20
1.0
 30
0.0
  9
$PUCSNAME
  2

  9
$PUCSORG
 10
0.0
 20
0.0
 30
0.0
  9
$PUCSXDIR
 10
1.0
 20
0.0
 30
0.0
  9
$PUCSYDIR
 10
0.0
 20
1.0
 30
0.0
  9
$USERI1
 70
     0
  9
$USERI2
 70
     0
  9
$USERI3
 70
     0
  9
$USERI4
 70
     0
  9
$USERI5
 70
     0
  9
$USERR1
 40
0.0
  9
$USERR2
 40
0.0
  9
$USERR3
 40
0.0
  9
$USERR4
 40
0.0
  9
$USERR5
 40
0.0
  9
$WORLDVIEW
 70
     1
  9
$SHADEDGE
 70
     3
  9
$SHADEDIF
 70
    70
  9
$TILEMODE
 70
     1
  9
$MAXACTVP
 70
    16
  9
$PINSBASE
 10
0.0
 20
0.0
 30
0.0
  9
$PLIMCHECK
 70
     0
  9
$PEXTMIN
 10
-1.000000E+20
 20
-1.000000E+20
 30
-1.000000E+20
  9
$PEXTMAX
 10
-1.000000E+20
 20
-1.000000E+20
 30
-1.000000E+20
  9
$PLIMMIN
 10
0.0
 20
0.0
  9
$PLIMMAX
 10
12.0
 20
9.0
  9
$UNITMODE
 70
     0
  9
$VISRETAIN
 70
     0
  9
$PLINEGEN
 70
     1
  9
$PSLTSCALE
 70
     0
  9
$TREEDEPTH
 70
  3020
  9
$DWGCODEPAGE
  3
ansi_1252
  0
ENDSEC
  0
SECTION
  2
TABLES
  0
TABLE
  2
VPORT
 70
     1
  0
VPORT
  2
*ACTIVE
 70
     0
 10
0.0
 20
0.0
 11
1.0
 21
1.0
 12
0.0
 22
0.0
 13
0.0
 23
0.0
 14
0.0
 24
0.0
 15
0.0
 25
0.0
 16
0.0
 26
0.0
 36
1.0
 17
119.187563
 27
44.635458
 37
0.0
 40
6.024417
 41
1.483761
 42
50.0
 43
0.000333
 44
0.0
 50
0.0
 51
0.0
 71
     0
 72
   100
 73
     1
 74
     0
 75
     0
 76
     0
 77
     0
 78
     0
  0
ENDTAB
  0
TABLE
  2
LTYPE
 70
     7
  0
LTYPE
  2
CONTINUOUS
 70
     0
  3
Solid line
 72
    65
 73
     0
 40
0.0
  0
LTYPE
  2
DOT
 70
    64
  3
. . . . . . . . . . . . . . . . . . . . . . . . . . . . . . . . .
 72
    65
 73
     2
 40
0.25
 49
0.0
 49
-0.25
  0
LTYPE
  2
HIDDEN
 70
    64
  3
__ __ __ __ __ __ __ __ __ __ __ __ __ __ __ __ __ __ __ __ __ 
 72
    65
 73
     2
 40
0.375
 49
0.25
 49
-0.125
  0
LTYPE
  2
DASHED
 70
    64
  3
__ __ __ __ __ __ __ __ __ __ __ __ __ __ __ __ __ __ __ __ __
 72
    65
 73
     2
 40
0.75
 49
0.5
 49
-0.25
  0
LTYPE
  2
DASHDOT
 70
    64
  3
__ . __ . __ . __ . __ . __ . __ . __ . __ . __ . __ . __ . _
 72
    65
 73
     4
 40
1.0
 49
0.5
 49
-0.25
 49
0.0
 49
-0.25
  0
LTYPE
  2
DIVIDE
 70
    64
  3
____ . . ____ . . ____ . . ____ . . ____ . . ____ . . ____ . .
 72
    65
 73
     6
 40
1.25
 49
0.5
 49
-0.25
 49
0.0
 49
-0.25
 49
0.0
 49
-0.25
  0
LTYPE
  2
CENTER
 70
    64
  3
____ _ ____ _ ____ _ ____ _ ____ _ ____ _ ____ _ ____ _ ____ _
 72
    65
 73
     4
 40
2.0
 49
1.25
 49
-0.25
 49
0.25
 49
-0.25
  0
ENDTAB
  0
TABLE
  2
LAYER
 70
     8
  0
LAYER
  2
0
 70
     0
 62
     7
  6
CONTINUOUS
  0
LAYER
  2
CONSTRUCTION_CLASS
 70
     0
 62
     7
  6
CONTINUOUS
  0
LAYER
  2
PATTERN_CLASS
 70
     0
 62
     7
  6
CONTINUOUS
  0
LAYER
  2
1
 70
    64
 62
     7
  6
CONTINUOUS
  0
LAYER
  2
2
 70
    64
 62
     7
  6
CONTINUOUS
  0
LAYER
  2
4
 70
    64
 62
     7
  6
CONTINUOUS
  0
LAYER
  2
8
 70
    64
 62
     7
  6
CONTINUOUS
  0
LAYER
  2
3
 70
    64
 62
     7
  6
CONTINUOUS
  0
ENDTAB
  0
TABLE
  2
STYLE
 70
     5
  0
STYLE
  2
STANDARD
 70
     0
 40
0.0
 41
1.0
 50
0.0
 71
     0
 42
0.0
  3
txt
  4

  0
STYLE
  2
MONOTXT
 70
     0
 40
0.2
 41
1.0
 50
0.0
 71
     0
 42
0.2
  3
MONOTXT
  4

  0
STYLE
  2
txt
 70
     0
 40
0.2
 41
1.0
 50
0.0
 71
     0
 42
0.2
  3
TXT
  4

  0
STYLE
  2
ROMANT
 70
     0
 40
0.2
 41
1.0
 50
0.0
 71
     0
 42
0.2
  3
ROMANT
  4

  0
STYLE
  2
ROMANS
 70
     0
 40
0.2
 41
1.0
 50
0.0
 71
     0
 42
0.2
  3
ROMANS
  4

  0
ENDTAB
  0
TABLE
  2
VIEW
 70
     0
  0
ENDTAB
  0
TABLE
  2
UCS
 70
     0
  0
ENDTAB
  0
TABLE
  2
APPID
 70
     1
  0
APPID
  2
ACAD
 70
     0
  0
ENDTAB
  0
TABLE
  2
DIMSTYLE
 70
     1
  0
DIMSTYLE
  2
STANDARD
 70
     0
  3

  4

  5

  6

  7

 40
1.0
 41
0.18
 42
0.0625
 43
0.38
 44
0.18
 45
0.0
 46
0.0
 47
0.0
 48
0.0
140
0.18
141
0.09
142
0.0
143
25.4
144
1.0
145
0.0
146
1.0
147
0.09
 71
     0
 72
     0
 73
     1
 74
     1
 75
     0
 76
     0
 77
     0
 78
     0
170
     0
171
     2
172
     0
173
     0
174
     0
175
     0
176
     0
177
     0
178
     0
  0
ENDTAB
  0
ENDSEC
  0
SECTION
  2
BLOCKS
  0
BLOCK
  8
1
  6
CONTINUOUS
 62
     7
  5
173
  2
$X1
 70
     0
 10
0.0
 20
0.0
 30
0.0
  3
$N1
  0
POINT
  8
1
  6
CONTINUOUS
 62
     7
  5
174
 10
10.755
 20
5.976
 30
0.0
  0
POINT
  8
1
  6
CONTINUOUS
 62
     7
  5
175
 10
4.455
 20
5.976
 30
0.0
  0
POINT
  8
1
  6
CONTINUOUS
 62
     7
  5
176
 10
4.455
 20
6.876
 30
0.0
  0
POINT
  8
1
  6
CONTINUOUS
 62
     7
  5
177
 10
10.755
 20
7.776
 30
0.0
  0
POINT
  8
1
  6
CONTINUOUS
 62
     7
  5
178
 10
4.455
 20
5.075917
 30
0.0
  0
POINT
  8
1
  6
CONTINUOUS
 62
     7
  5
179
 10
5.355
 20
5.075917
 30
0.0
  0
POINT
  8
1
  6
CONTINUOUS
 62
     7
  5
17A
 10
6.255
 20
5.075917
 30
0.0
  0
POINT
  8
1
  6
CONTINUOUS
 62
     7
  5
17B
 10
7.155
 20
5.075917
 30
0.0
  0
POINT
  8
1
  6
CONTINUOUS
 62
     7
  5
17C
 10
8.055
 20
5.075917
 30
0.0
  0
POINT
  8
1
  6
CONTINUOUS
 62
     7
  5
17D
 10
8.955
 20
5.075917
 30
0.0
  0
POINT
  8
1
  6
CONTINUOUS
 62
     7
  5
17E
 10
9.855
 20
5.075917
 30
0.0
  0
POINT
  8
1
  6
CONTINUOUS
 62
     7
  5
17F
 10
10.755
 20
5.075917
 30
0.0
  0
POINT
  8
1
  6
CONTINUOUS
 62
     7
  5
180
 10
4.464
 20
6.561
 30
0.0
  0
POINT
  8
1
  6
CONTINUOUS
 62
     7
  5
181
 10
10.763917
 20
6.561
 30
0.0
  0
POINT
  8
1
  6
CONTINUOUS
 62
     7
  5
182
 10
10.763917
 20
7.461
 30
0.0
  0
POINT
  8
1
  6
CONTINUOUS
 62
     7
  5
183
 10
10.763917
 20
8.361
 30
0.0
  0
POINT
  8
1
  6
CONTINUOUS
 62
     7
  5
184
 10
4.464
 20
5.661
 30
0.0
  0
POINT
  8
1
  6
CONTINUOUS
 62
     7
  5
185
 10
5.364
 20
5.661
 30
0.0
  0
POINT
  8
1
  6
CONTINUOUS
 62
     7
  5
186
 10
6.264
 20
5.661
 30
0.0
  0
POINT
  8
1
  6
CONTINUOUS
 62
     7
  5
187
 10
7.164
 20
5.661
 30
0.0
  0
POINT
  8
1
  6
CONTINUOUS
 62
     7
  5
188
 10
8.064
 20
5.661
 30
0.0
  0
POINT
  8
1
  6
CONTINUOUS
 62
     7
  5
189
 10
8.964
 20
5.661
 30
0.0
  0
POINT
  8
1
  6
CONTINUOUS
 62
     7
  5
18A
 10
9.864
 20
5.661
 30
0.0
  0
POINT
  8
1
  6
CONTINUOUS
 62
     7
  5
18B
 10
10.763917
 20
5.661
 30
0.0
  0
POINT
  8
1
  6
CONTINUOUS
 62
     7
  5
18C
 10
5.364
 20
4.761
 30
0.0
  0
POINT
  8
1
  6
CONTINUOUS
 62
     7
  5
18D
 10
8.964
 20
4.761
 30
0.0
  0
POINT
  8
1
  6
CONTINUOUS
 62
     7
  5
18E
 10
8.064
 20
4.761
 30
0.0
  0
POINT
  8
1
  6
CONTINUOUS
 62
     7
  5
18F
 10
10.791
 20
6.147
 30
0.0
  0
POINT
  8
1
  6
CONTINUOUS
 62
     7
  5
190
 10
4.490917
 20
6.147
 30
0.0
  0
POINT
  8
1
  6
CONTINUOUS
 62
     7
  5
191
 10
4.490917
 20
7.047
 30
0.0
  0
POINT
  8
1
  6
CONTINUOUS
 62
     7
  5
192
 10
10.791
 20
7.947
 30
0.0
  0
POINT
  8
1
  6
CONTINUOUS
 62
     7
  5
193
 10
4.490917
 20
5.247
 30
0.0
  0
POINT
  8
1
  6
CONTINUOUS
 62
     7
  5
194
 10
5.391
 20
5.247
 30
0.0
  0
POINT
  8
1
  6
CONTINUOUS
 62
     7
  5
195
 10
6.291
 20
5.247
 30
0.0
  0
POINT
  8
1
  6
CONTINUOUS
 62
     7
  5
196
 10
7.191
 20
5.247
 30
0.0
  0
POINT
  8
1
  6
CONTINUOUS
 62
     7
  5
197
 10
8.090917
 20
5.247
 30
0.0
  0
POINT
  8
1
  6
CONTINUOUS
 62
     7
  5
198
 10
8.991
 20
5.247
 30
0.0
  0
POINT
  8
1
  6
CONTINUOUS
 62
     7
  5
199
 10
9.891
 20
5.247
 30
0.0
  0
POINT
  8
1
  6
CONTINUOUS
 62
     7
  5
19A
 10
10.791
 20
5.247
 30
0.0
  0
LINE
  8
1
  6
CONTINUOUS
 62
     7
  5
19B
 10
10.322917
 20
5.867917
 30
0.0
 11
10.412917
 21
5.831917
 31
0.0
  0
LINE
  8
1
  6
CONTINUOUS
 62
     7
  5
19C
 10
11.222917
 20
5.867917
 30
0.0
 11
11.248167
 21
5.857833
 31
0.0
  0
LINE
  8
1
  6
CONTINUOUS
 62
     7
  5
19D
 10
10.322917
 20
6.767917
 30
0.0
 11
10.412917
 21
6.731917
 31
0.0
  0
LINE
  8
1
  6
CONTINUOUS
 62
     7
  5
19E
 10
11.222917
 20
6.767917
 30
0.0
 11
11.254
 21
6.7555
 31
0.0
  0
LINE
  8
1
  6
CONTINUOUS
 62
     7
  5
19F
 10
10.322917
 20
7.667917
 30
0.0
 11
10.412917
 21
7.631917
 31
0.0
  0
LINE
  8
1
  6
CONTINUOUS
 62
     7
  5
1A0
 10
11.222917
 20
7.667917
 30
0.0
 11
11.256833
 21
7.654333
 31
0.0
  0
LINE
  8
1
  6
CONTINUOUS
 62
     7
  5
1A1
 10
11.222917
 20
8.567917
 30
0.0
 11
11.256833
 21
8.554333
 31
0.0
  0
LINE
  8
1
  6
CONTINUOUS
 62
     7
  5
1A2
 10
11.223
 20
4.967917
 30
0.0
 11
11.27975
 21
4.94525
 31
0.0
  0
LINE
  8
1
  6
CONTINUOUS
 62
     7
  5
1A3
 10
10.323
 20
4.967917
 30
0.0
 11
10.412917
 21
4.931917
 31
0.0
  0
LINE
  8
1
  6
CONTINUOUS
 62
     7
  5
1A4
 10
9.423
 20
4.967917
 30
0.0
 11
9.512917
 21
4.931917
 31
0.0
  0
LINE
  8
1
  6
CONTINUOUS
 62
     7
  5
1A5
 10
4.022917
 20
6.767917
 30
0.0
 11
4.112917
 21
6.731917
 31
0.0
  0
LINE
  8
1
  6
CONTINUOUS
 62
     7
  5
1A6
 10
8.523
 20
4.967917
 30
0.0
 11
8.612917
 21
4.931917
 31
0.0
  0
LINE
  8
1
  6
CONTINUOUS
 62
     7
  5
1A7
 10
7.623
 20
4.967917
 30
0.0
 11
7.712917
 21
4.931917
 31
0.0
  0
LINE
  8
1
  6
CONTINUOUS
 62
     7
  5
1A8
 10
6.722917
 20
4.967917
 30
0.0
 11
6.812917
 21
4.931917
 31
0.0
  0
LINE
  8
1
  6
CONTINUOUS
 62
     7
  5
1A9
 10
4.022917
 20
5.867917
 30
0.0
 11
4.112917
 21
5.831917
 31
0.0
  0
LINE
  8
1
  6
CONTINUOUS
 62
     7
  5
1AA
 10
5.822917
 20
4.967917
 30
0.0
 11
5.912917
 21
4.931917
 31
0.0
  0
LINE
  8
1
  6
CONTINUOUS
 62
     7
  5
1AB
 10
4.922917
 20
4.967917
 30
0.0
 11
5.012917
 21
4.931917
 31
0.0
  0
LINE
  8
1
  6
CONTINUOUS
 62
     7
  5
1AC
 10
4.022917
 20
4.967917
 30
0.0
 11
4.112917
 21
4.931917
 31
0.0
  0
LINE
  8
1
  6
CONTINUOUS
 62
     7
  5
1AD
 10
5.913
 20
4.932
 30
0.0
 11
5.877
 21
4.905
 31
0.0
  0
LINE
  8
1
  6
CONTINUOUS
 62
     7
  5
1AE
 10
6.813
 20
4.932
 30
0.0
 11
6.777
 21
4.905
 31
0.0
  0
LINE
  8
1
  6
CONTINUOUS
 62
     7
  5
1AF
 10
10.413
 20
7.632
 30
0.0
 11
10.377
 21
7.605
 31
0.0
  0
LINE
  8
1
  6
CONTINUOUS
 62
     7
  5
1B0
 10
7.713
 20
4.932
 30
0.0
 11
7.677
 21
4.905
 31
0.0
  0
LINE
  8
1
  6
CONTINUOUS
 62
     7
  5
1B1
 10
8.613
 20
4.932
 30
0.0
 11
8.577
 21
4.905
 31
0.0
  0
LINE
  8
1
  6
CONTINUOUS
 62
     7
  5
1B2
 10
10.413
 20
5.832
 30
0.0
 11
10.377
 21
5.805
 31
0.0
  0
LINE
  8
1
  6
CONTINUOUS
 62
     7
  5
1B3
 10
9.513
 20
4.932
 30
0.0
 11
9.477
 21
4.905
 31
0.0
  0
LINE
  8
1
  6
CONTINUOUS
 62
     7
  5
1B4
 10
10.413
 20
4.932
 30
0.0
 11
10.377
 21
4.905
 31
0.0
  0
LINE
  8
1
  6
CONTINUOUS
 62
     7
  5
1B5
 10
5.013
 20
4.932
 30
0.0
 11
4.977
 21
4.905
 31
0.0
  0
LINE
  8
1
  6
CONTINUOUS
 62
     7
  5
1B6
 10
4.113
 20
4.932
 30
0.0
 11
4.077
 21
4.905
 31
0.0
  0
LINE
  8
1
  6
CONTINUOUS
 62
     7
  5
1B7
 10
4.113
 20
5.832
 30
0.0
 11
4.077
 21
5.805
 31
0.0
  0
LINE
  8
1
  6
CONTINUOUS
 62
     7
  5
1B8
 10
4.113
 20
6.732
 30
0.0
 11
4.077
 21
6.705
 31
0.0
  0
LINE
  8
1
  6
CONTINUOUS
 62
     7
  5
1B9
 10
8.576917
 20
4.904917
 30
0.0
 11
8.522917
 21
4.967917
 31
0.0
  0
LINE
  8
1
  6
CONTINUOUS
 62
     7
  5
1BA
 10
7.676917
 20
4.904917
 30
0.0
 11
7.622917
 21
4.967917
 31
0.0
  0
LINE
  8
1
  6
CONTINUOUS
 62
     7
  5
1BB
 10
6.776917
 20
4.904917
 30
0.0
 11
6.722917
 21
4.967917
 31
0.0
  0
LINE
  8
1
  6
CONTINUOUS
 62
     7
  5
1BC
 10
5.876917
 20
4.904917
 30
0.0
 11
5.822917
 21
4.967917
 31
0.0
  0
LINE
  8
1
  6
CONTINUOUS
 62
     7
  5
1BD
 10
5.876917
 20
4.904917
 30
0.0
 11
5.822917
 21
4.967917
 31
0.0
  0
LINE
  8
1
  6
CONTINUOUS
 62
     7
  5
1BE
 10
4.076917
 20
6.704917
 30
0.0
 11
4.022917
 21
6.767917
 31
0.0
  0
LINE
  8
1
  6
CONTINUOUS
 62
     7
  5
1BF
 10
4.976917
 20
4.904917
 30
0.0
 11
4.922917
 21
4.967917
 31
0.0
  0
LINE
  8
1
  6
CONTINUOUS
 62
     7
  5
1C0
 10
4.076917
 20
5.804917
 30
0.0
 11
4.022917
 21
5.867917
 31
0.0
  0
LINE
  8
1
  6
CONTINUOUS
 62
     7
  5
1C1
 10
4.076917
 20
4.904917
 30
0.0
 11
4.022917
 21
4.967917
 31
0.0
  0
LINE
  8
1
  6
CONTINUOUS
 62
     7
  5
1C2
 10
9.476917
 20
4.904917
 30
0.0
 11
9.422917
 21
4.967917
 31
0.0
  0
LINE
  8
1
  6
CONTINUOUS
 62
     7
  5
1C3
 10
10.376917
 20
4.904917
 30
0.0
 11
10.322917
 21
4.967917
 31
0.0
  0
LINE
  8
1
  6
CONTINUOUS
 62
     7
  5
1C4
 10
10.376917
 20
5.804917
 30
0.0
 11
10.322917
 21
5.867917
 31
0.0
  0
LINE
  8
1
  6
CONTINUOUS
 62
     7
  5
1C5
 10
11.274083
 20
4.908333
 30
0.0
 11
11.222917
 21
4.967917
 31
0.0
  0
LINE
  8
1
  6
CONTINUOUS
 62
     7
  5
1C6
 10
10.376917
 20
6.704917
 30
0.0
 11
10.322917
 21
6.767917
 31
0.0
  0
LINE
  8
1
  6
CONTINUOUS
 62
     7
  5
1C7
 10
11.246167
 20
5.840917
 30
0.0
 11
11.222917
 21
5.867917
 31
0.0
  0
LINE
  8
1
  6
CONTINUOUS
 62
     7
  5
1C8
 10
10.376917
 20
7.604917
 30
0.0
 11
10.322917
 21
7.667917
 31
0.0
  0
LINE
  8
1
  6
CONTINUOUS
 62
     7
  5
1C9
 10
11.250667
 20
6.735583
 30
0.0
 11
11.222917
 21
6.767917
 31
0.0
  0
LINE
  8
1
  6
CONTINUOUS
 62
     7
  5
1CA
 10
11.256833
 20
7.628333
 30
0.0
 11
11.222917
 21
7.667917
 31
0.0
  0
LINE
  8
1
  6
CONTINUOUS
 62
     7
  5
1CB
 10
11.256833
 20
8.528333
 30
0.0
 11
11.222917
 21
8.567917
 31
0.0
  0
LINE
  8
1
  6
CONTINUOUS
 62
     7
  5
1CC
 10
6.479917
 20
5.697
 30
0.0
 11
6.461917
 21
5.688
 31
0.0
  0
LINE
  8
1
  6
CONTINUOUS
 62
     7
  5
1CD
 10
4.679917
 20
4.797
 30
0.0
 11
4.661917
 21
4.788
 31
0.0
  0
LINE
  8
1
  6
CONTINUOUS
 62
     7
  5
1CE
 10
7.379917
 20
5.697
 30
0.0
 11
7.361917
 21
5.688
 31
0.0
  0
LINE
  8
1
  6
CONTINUOUS
 62
     7
  5
1CF
 10
5.579917
 20
4.797
 30
0.0
 11
5.561917
 21
4.788
 31
0.0
  0
LINE
  8
1
  6
CONTINUOUS
 62
     7
  5
1D0
 10
10.979917
 20
7.497
 30
0.0
 11
10.961917
 21
7.488
 31
0.0
  0
LINE
  8
1
  6
CONTINUOUS
 62
     7
  5
1D1
 10
8.279917
 20
5.697
 30
0.0
 11
8.261917
 21
5.688
 31
0.0
  0
LINE
  8
1
  6
CONTINUOUS
 62
     7
  5
1D2
 10
9.179917
 20
5.697
 30
0.0
 11
9.161917
 21
5.688
 31
0.0
  0
LINE
  8
1
  6
CONTINUOUS
 62
     7
  5
1D3
 10
7.379917
 20
4.797
 30
0.0
 11
7.361917
 21
4.788
 31
0.0
  0
LINE
  8
1
  6
CONTINUOUS
 62
     7
  5
1D4
 10
10.979917
 20
6.597
 30
0.0
 11
10.961917
 21
6.588
 31
0.0
  0
LINE
  8
1
  6
CONTINUOUS
 62
     7
  5
1D5
 10
10.079917
 20
5.697
 30
0.0
 11
10.061917
 21
5.688
 31
0.0
  0
LINE
  8
1
  6
CONTINUOUS
 62
     7
  5
1D6
 10
8.279917
 20
4.797
 30
0.0
 11
8.261917
 21
4.788
 31
0.0
  0
LINE
  8
1
  6
CONTINUOUS
 62
     7
  5
1D7
 10
10.979917
 20
5.697
 30
0.0
 11
10.961917
 21
5.688
 31
0.0
  0
LINE
  8
1
  6
CONTINUOUS
 62
     7
  5
1D8
 10
9.179917
 20
4.797
 30
0.0
 11
9.161917
 21
4.788
 31
0.0
  0
LINE
  8
1
  6
CONTINUOUS
 62
     7
  5
1D9
 10
10.979917
 20
4.797
 30
0.0
 11
10.961917
 21
4.788
 31
0.0
  0
LINE
  8
1
  6
CONTINUOUS
 62
     7
  5
1DA
 10
10.979917
 20
8.397
 30
0.0
 11
10.961917
 21
8.388
 31
0.0
  0
LINE
  8
1
  6
CONTINUOUS
 62
     7
  5
1DB
 10
5.579917
 20
5.697
 30
0.0
 11
5.561917
 21
5.688
 31
0.0
  0
LINE
  8
1
  6
CONTINUOUS
 62
     7
  5
1DC
 10
4.679917
 20
5.697
 30
0.0
 11
4.661917
 21
5.688
 31
0.0
  0
LINE
  8
1
  6
CONTINUOUS
 62
     7
  5
1DD
 10
3.779917
 20
5.697
 30
0.0
 11
3.776417
 21
5.695167
 31
0.0
  0
LINE
  8
1
  6
CONTINUOUS
 62
     7
  5
1DE
 10
4.679917
 20
6.597
 30
0.0
 11
4.661917
 21
6.588
 31
0.0
  0
LINE
  8
1
  6
CONTINUOUS
 62
     7
  5
1DF
 10
3.779917
 20
6.597
 30
0.0
 11
3.764333
 21
6.589167
 31
0.0
  0
LINE
  8
1
  6
CONTINUOUS
 62
     7
  5
1E0
 10
9.161917
 20
5.687917
 30
0.0
 11
9.188917
 21
5.669917
 31
0.0
  0
LINE
  8
1
  6
CONTINUOUS
 62
     7
  5
1E1
 10
10.961917
 20
4.787917
 30
0.0
 11
10.988917
 21
4.769917
 31
0.0
  0
LINE
  8
1
  6
CONTINUOUS
 62
     7
  5
1E2
 10
10.061917
 20
5.687917
 30
0.0
 11
10.088917
 21
5.669917
 31
0.0
  0
LINE
  8
1
  6
CONTINUOUS
 62
     7
  5
1E3
 10
10.961917
 20
5.687917
 30
0.0
 11
10.988917
 21
5.669917
 31
0.0
  0
LINE
  8
1
  6
CONTINUOUS
 62
     7
  5
1E4
 10
10.961917
 20
6.587917
 30
0.0
 11
10.988917
 21
6.569917
 31
0.0
  0
LINE
  8
1
  6
CONTINUOUS
 62
     7
  5
1E5
 10
10.961917
 20
7.487917
 30
0.0
 11
10.988917
 21
7.469917
 31
0.0
  0
LINE
  8
1
  6
CONTINUOUS
 62
     7
  5
1E6
 10
10.961917
 20
8.387917
 30
0.0
 11
10.988917
 21
8.369917
 31
0.0
  0
LINE
  8
1
  6
CONTINUOUS
 62
     7
  5
1E7
 10
8.261917
 20
5.687917
 30
0.0
 11
8.288917
 21
5.669917
 31
0.0
  0
LINE
  8
1
  6
CONTINUOUS
 62
     7
  5
1E8
 10
9.161917
 20
4.787917
 30
0.0
 11
9.188917
 21
4.769917
 31
0.0
  0
LINE
  8
1
  6
CONTINUOUS
 62
     7
  5
1E9
 10
7.361917
 20
5.687917
 30
0.0
 11
7.388917
 21
5.669917
 31
0.0
  0
LINE
  8
1
  6
CONTINUOUS
 62
     7
  5
1EA
 10
8.261917
 20
4.787917
 30
0.0
 11
8.288917
 21
4.769917
 31
0.0
  0
LINE
  8
1
  6
CONTINUOUS
 62
     7
  5
1EB
 10
6.461917
 20
5.687917
 30
0.0
 11
6.488917
 21
5.669917
 31
0.0
  0
LINE
  8
1
  6
CONTINUOUS
 62
     7
  5
1EC
 10
4.661917
 20
6.587917
 30
0.0
 11
4.688917
 21
6.569917
 31
0.0
  0
LINE
  8
1
  6
CONTINUOUS
 62
     7
  5
1ED
 10
7.361917
 20
4.787917
 30
0.0
 11
7.388917
 21
4.769917
 31
0.0
  0
LINE
  8
1
  6
CONTINUOUS
 62
     7
  5
1EE
 10
5.561917
 20
5.687917
 30
0.0
 11
5.588917
 21
5.669917
 31
0.0
  0
LINE
  8
1
  6
CONTINUOUS
 62
     7
  5
1EF
 10
3.76375
 20
6.58675
 30
0.0
 11
3.788917
 21
6.569917
 31
0.0
  0
LINE
  8
1
  6
CONTINUOUS
 62
     7
  5
1F0
 10
4.661917
 20
5.687917
 30
0.0
 11
4.688917
 21
5.669917
 31
0.0
  0
LINE
  8
1
  6
CONTINUOUS
 62
     7
  5
1F1
 10
5.561917
 20
4.787917
 30
0.0
 11
5.5795
 21
4.77625
 31
0.0
  0
LINE
  8
1
  6
CONTINUOUS
 62
     7
  5
1F2
 10
3.780417
 20
5.675667
 30
0.0
 11
3.788917
 21
5.669917
 31
0.0
  0
LINE
  8
1
  6
CONTINUOUS
 62
     7
  5
1F3
 10
4.661917
 20
4.787917
 30
0.0
 11
4.688917
 21
4.769917
 31
0.0
  0
LINE
  8
1
  6
CONTINUOUS
 62
     7
  5
1F4
 10
7.389
 20
5.67
 30
0.0
 11
7.38
 21
5.697
 31
0.0
  0
LINE
  8
1
  6
CONTINUOUS
 62
     7
  5
1F5
 10
7.389
 20
4.77
 30
0.0
 11
7.38
 21
4.797
 31
0.0
  0
LINE
  8
1
  6
CONTINUOUS
 62
     7
  5
1F6
 10
6.489
 20
5.67
 30
0.0
 11
6.48
 21
5.697
 31
0.0
  0
LINE
  8
1
  6
CONTINUOUS
 62
     7
  5
1F7
 10
5.589
 20
5.67
 30
0.0
 11
5.58
 21
5.697
 31
0.0
  0
LINE
  8
1
  6
CONTINUOUS
 62
     7
  5
1F8
 10
5.586417
 20
4.777667
 30
0.0
 11
5.58
 21
4.797
 31
0.0
  0
LINE
  8
1
  6
CONTINUOUS
 62
     7
  5
1F9
 10
4.689
 20
6.57
 30
0.0
 11
4.68
 21
6.597
 31
0.0
  0
LINE
  8
1
  6
CONTINUOUS
 62
     7
  5
1FA
 10
4.689
 20
5.67
 30
0.0
 11
4.68
 21
5.697
 31
0.0
  0
LINE
  8
1
  6
CONTINUOUS
 62
     7
  5
1FB
 10
4.689
 20
4.77
 30
0.0
 11
4.68
 21
4.797
 31
0.0
  0
LINE
  8
1
  6
CONTINUOUS
 62
     7
  5
1FC
 10
3.789
 20
6.57
 30
0.0
 11
3.78
 21
6.597
 31
0.0
  0
LINE
  8
1
  6
CONTINUOUS
 62
     7
  5
1FD
 10
3.789
 20
5.67
 30
0.0
 11
3.78
 21
5.697
 31
0.0
  0
LINE
  8
1
  6
CONTINUOUS
 62
     7
  5
1FE
 10
8.289
 20
4.77
 30
0.0
 11
8.28
 21
4.797
 31
0.0
  0
LINE
  8
1
  6
CONTINUOUS
 62
     7
  5
1FF
 10
8.289
 20
5.67
 30
0.0
 11
8.28
 21
5.697
 31
0.0
  0
LINE
  8
1
  6
CONTINUOUS
 62
     7
  5
200
 10
9.189
 20
4.77
 30
0.0
 11
9.18
 21
4.797
 31
0.0
  0
LINE
  8
1
  6
CONTINUOUS
 62
     7
  5
201
 10
9.189
 20
5.67
 30
0.0
 11
9.18
 21
5.697
 31
0.0
  0
LINE
  8
1
  6
CONTINUOUS
 62
     7
  5
202
 10
10.089
 20
5.67
 30
0.0
 11
10.08
 21
5.697
 31
0.0
  0
LINE
  8
1
  6
CONTINUOUS
 62
     7
  5
203
 10
10.989
 20
4.77
 30
0.0
 11
10.98
 21
4.797
 31
0.0
  0
LINE
  8
1
  6
CONTINUOUS
 62
     7
  5
204
 10
10.989
 20
5.67
 30
0.0
 11
10.98
 21
5.697
 31
0.0
  0
LINE
  8
1
  6
CONTINUOUS
 62
     7
  5
205
 10
10.989
 20
6.57
 30
0.0
 11
10.98
 21
6.597
 31
0.0
  0
LINE
  8
1
  6
CONTINUOUS
 62
     7
  5
206
 10
10.989
 20
6.57
 30
0.0
 11
10.98
 21
6.597
 31
0.0
  0
LINE
  8
1
  6
CONTINUOUS
 62
     7
  5
207
 10
10.989
 20
7.47
 30
0.0
 11
10.98
 21
7.497
 31
0.0
  0
LINE
  8
1
  6
CONTINUOUS
 62
     7
  5
208
 10
10.989
 20
8.37
 30
0.0
 11
10.98
 21
8.397
 31
0.0
  0
LINE
  8
1
  6
CONTINUOUS
 62
     7
  5
209
 10
6.155917
 20
5.606917
 30
0.0
 11
6.128917
 21
5.579917
 31
0.0
  0
LINE
  8
1
  6
CONTINUOUS
 62
     7
  5
20A
 10
7.055917
 20
5.606917
 30
0.0
 11
7.028917
 21
5.579917
 31
0.0
  0
LINE
  8
1
  6
CONTINUOUS
 62
     7
  5
20B
 10
7.955917
 20
5.606917
 30
0.0
 11
7.928917
 21
5.579917
 31
0.0
  0
LINE
  8
1
  6
CONTINUOUS
 62
     7
  5
20C
 10
10.655917
 20
8.306917
 30
0.0
 11
10.628917
 21
8.279917
 31
0.0
  0
LINE
  8
1
  6
CONTINUOUS
 62
     7
  5
20D
 10
8.855917
 20
5.606917
 30
0.0
 11
8.828917
 21
5.579917
 31
0.0
  0
LINE
  8
1
  6
CONTINUOUS
 62
     7
  5
20E
 10
10.655917
 20
7.406917
 30
0.0
 11
10.628917
 21
7.379917
 31
0.0
  0
LINE
  8
1
  6
CONTINUOUS
 62
     7
  5
20F
 10
9.755917
 20
5.606917
 30
0.0
 11
9.728917
 21
5.579917
 31
0.0
  0
LINE
  8
1
  6
CONTINUOUS
 62
     7
  5
210
 10
10.655917
 20
5.606917
 30
0.0
 11
10.628917
 21
5.579917
 31
0.0
  0
LINE
  8
1
  6
CONTINUOUS
 62
     7
  5
211
 10
5.255917
 20
5.606917
 30
0.0
 11
5.228917
 21
5.579917
 31
0.0
  0
LINE
  8
1
  6
CONTINUOUS
 62
     7
  5
212
 10
4.355917
 20
5.606917
 30
0.0
 11
4.328917
 21
5.579917
 31
0.0
  0
LINE
  8
1
  6
CONTINUOUS
 62
     7
  5
213
 10
4.355917
 20
6.506917
 30
0.0
 11
4.328917
 21
6.48
 31
0.0
  0
LINE
  8
1
  6
CONTINUOUS
 62
     7
  5
214
 10
4.329
 20
6.48
 30
0.0
 11
4.383
 21
6.48
 31
0.0
  0
LINE
  8
1
  6
CONTINUOUS
 62
     7
  5
215
 10
10.629
 20
6.48
 30
0.0
 11
10.683
 21
6.48
 31
0.0
  0
LINE
  8
1
  6
CONTINUOUS
 62
     7
  5
216
 10
10.629
 20
7.38
 30
0.0
 11
10.683
 21
7.38
 31
0.0
  0
LINE
  8
1
  6
CONTINUOUS
 62
     7
  5
217
 10
10.629
 20
8.279917
 30
0.0
 11
10.683
 21
8.279917
 31
0.0
  0
LINE
  8
1
  6
CONTINUOUS
 62
     7
  5
218
 10
4.329
 20
5.58
 30
0.0
 11
4.383
 21
5.58
 31
0.0
  0
LINE
  8
1
  6
CONTINUOUS
 62
     7
  5
219
 10
5.229
 20
5.58
 30
0.0
 11
5.283
 21
5.58
 31
0.0
  0
LINE
  8
1
  6
CONTINUOUS
 62
     7
  5
21A
 10
6.129
 20
5.58
 30
0.0
 11
6.183
 21
5.58
 31
0.0
  0
LINE
  8
1
  6
CONTINUOUS
 62
     7
  5
21B
 10
7.029
 20
5.58
 30
0.0
 11
7.083
 21
5.58
 31
0.0
  0
LINE
  8
1
  6
CONTINUOUS
 62
     7
  5
21C
 10
7.929
 20
5.58
 30
0.0
 11
7.983
 21
5.58
 31
0.0
  0
LINE
  8
1
  6
CONTINUOUS
 62
     7
  5
21D
 10
8.829
 20
5.58
 30
0.0
 11
8.882917
 21
5.58
 31
0.0
  0
LINE
  8
1
  6
CONTINUOUS
 62
     7
  5
21E
 10
9.728917
 20
5.58
 30
0.0
 11
9.783
 21
5.58
 31
0.0
  0
LINE
  8
1
  6
CONTINUOUS
 62
     7
  5
21F
 10
10.629
 20
5.58
 30
0.0
 11
10.683
 21
5.58
 31
0.0
  0
LINE
  8
1
  6
CONTINUOUS
 62
     7
  5
220
 10
7.983
 20
5.579917
 30
0.0
 11
7.956
 21
5.606917
 31
0.0
  0
LINE
  8
1
  6
CONTINUOUS
 62
     7
  5
221
 10
7.083
 20
5.579917
 30
0.0
 11
7.056
 21
5.606917
 31
0.0
  0
LINE
  8
1
  6
CONTINUOUS
 62
     7
  5
222
 10
6.183
 20
5.579917
 30
0.0
 11
6.156
 21
5.606917
 31
0.0
  0
LINE
  8
1
  6
CONTINUOUS
 62
     7
  5
223
 10
5.283
 20
5.579917
 30
0.0
 11
5.256
 21
5.606917
 31
0.0
  0
LINE
  8
1
  6
CONTINUOUS
 62
     7
  5
224
 10
4.383
 20
6.479917
 30
0.0
 11
4.356
 21
6.506917
 31
0.0
  0
LINE
  8
1
  6
CONTINUOUS
 62
     7
  5
225
 10
4.383
 20
5.579917
 30
0.0
 11
4.356
 21
5.606917
 31
0.0
  0
LINE
  8
1
  6
CONTINUOUS
 62
     7
  5
226
 10
8.883
 20
5.579917
 30
0.0
 11
8.856
 21
5.606917
 31
0.0
  0
LINE
  8
1
  6
CONTINUOUS
 62
     7
  5
227
 10
9.783
 20
5.579917
 30
0.0
 11
9.756
 21
5.606917
 31
0.0
  0
LINE
  8
1
  6
CONTINUOUS
 62
     7
  5
228
 10
10.683
 20
5.579917
 30
0.0
 11
10.656
 21
5.606917
 31
0.0
  0
LINE
  8
1
  6
CONTINUOUS
 62
     7
  5
229
 10
10.683
 20
6.479917
 30
0.0
 11
10.656
 21
6.506917
 31
0.0
  0
LINE
  8
1
  6
CONTINUOUS
 62
     7
  5
22A
 10
10.683
 20
7.379917
 30
0.0
 11
10.656
 21
7.406917
 31
0.0
  0
LINE
  8
1
  6
CONTINUOUS
 62
     7
  5
22B
 10
10.683
 20
8.279917
 30
0.0
 11
10.656
 21
8.306917
 31
0.0
  0
LINE
  8
1
  6
CONTINUOUS
 62
     7
  5
22C
 10
6.947917
 20
5.282917
 30
0.0
 11
6.938917
 21
5.255917
 31
0.0
  0
LINE
  8
1
  6
CONTINUOUS
 62
     7
  5
22D
 10
7.847917
 20
5.282917
 30
0.0
 11
7.838917
 21
5.255917
 31
0.0
  0
LINE
  8
1
  6
CONTINUOUS
 62
     7
  5
22E
 10
8.747917
 20
5.282917
 30
0.0
 11
8.738917
 21
5.255917
 31
0.0
  0
LINE
  8
1
  6
CONTINUOUS
 62
     7
  5
22F
 10
9.647917
 20
5.282917
 30
0.0
 11
9.638917
 21
5.255917
 31
0.0
  0
LINE
  8
1
  6
CONTINUOUS
 62
     7
  5
230
 10
10.547917
 20
7.982917
 30
0.0
 11
10.538917
 21
7.955917
 31
0.0
  0
LINE
  8
1
  6
CONTINUOUS
 62
     7
  5
231
 10
10.547917
 20
7.082917
 30
0.0
 11
10.538917
 21
7.055917
 31
0.0
  0
LINE
  8
1
  6
CONTINUOUS
 62
     7
  5
232
 10
10.547917
 20
6.182917
 30
0.0
 11
10.538917
 21
6.155917
 31
0.0
  0
LINE
  8
1
  6
CONTINUOUS
 62
     7
  5
233
 10
10.547917
 20
5.282917
 30
0.0
 11
10.538917
 21
5.255917
 31
0.0
  0
LINE
  8
1
  6
CONTINUOUS
 62
     7
  5
234
 10
6.047917
 20
5.282917
 30
0.0
 11
6.038917
 21
5.255917
 31
0.0
  0
LINE
  8
1
  6
CONTINUOUS
 62
     7
  5
235
 10
5.147917
 20
5.282917
 30
0.0
 11
5.138917
 21
5.255917
 31
0.0
  0
LINE
  8
1
  6
CONTINUOUS
 62
     7
  5
236
 10
4.247917
 20
7.083
 30
0.0
 11
4.238917
 21
7.056
 31
0.0
  0
LINE
  8
1
  6
CONTINUOUS
 62
     7
  5
237
 10
10.539
 20
6.156
 30
0.0
 11
10.584
 21
6.156
 31
0.0
  0
LINE
  8
1
  6
CONTINUOUS
 62
     7
  5
238
 10
4.239
 20
7.056
 30
0.0
 11
4.284
 21
7.056
 31
0.0
  0
LINE
  8
1
  6
CONTINUOUS
 62
     7
  5
239
 10
10.539
 20
7.956
 30
0.0
 11
10.584
 21
7.956
 31
0.0
  0
LINE
  8
1
  6
CONTINUOUS
 62
     7
  5
23A
 10
5.139
 20
5.256
 30
0.0
 11
5.184
 21
5.256
 31
0.0
  0
LINE
  8
1
  6
CONTINUOUS
 62
     7
  5
23B
 10
6.039
 20
5.256
 30
0.0
 11
6.084
 21
5.256
 31
0.0
  0
LINE
  8
1
  6
CONTINUOUS
 62
     7
  5
23C
 10
6.939
 20
5.256
 30
0.0
 11
6.984
 21
5.256
 31
0.0
  0
LINE
  8
1
  6
CONTINUOUS
 62
     7
  5
23D
 10
7.839
 20
5.256
 30
0.0
 11
7.884
 21
5.256
 31
0.0
  0
LINE
  8
1
  6
CONTINUOUS
 62
     7
  5
23E
 10
8.739
 20
5.256
 30
0.0
 11
8.784
 21
5.256
 31
0.0
  0
LINE
  8
1
  6
CONTINUOUS
 62
     7
  5
23F
 10
9.638917
 20
5.256
 30
0.0
 11
9.683917
 21
5.256
 31
0.0
  0
LINE
  8
1
  6
CONTINUOUS
 62
     7
  5
240
 10
10.539
 20
5.256
 30
0.0
 11
10.584
 21
5.256
 31
0.0
  0
LINE
  8
1
  6
CONTINUOUS
 62
     7
  5
241
 10
8.784
 20
5.256
 30
0.0
 11
8.747917
 21
5.283
 31
0.0
  0
LINE
  8
1
  6
CONTINUOUS
 62
     7
  5
242
 10
7.884
 20
5.256
 30
0.0
 11
7.848
 21
5.283
 31
0.0
  0
LINE
  8
1
  6
CONTINUOUS
 62
     7
  5
243
 10
6.984
 20
5.256
 30
0.0
 11
6.948
 21
5.283
 31
0.0
  0
LINE
  8
1
  6
CONTINUOUS
 62
     7
  5
244
 10
4.284
 20
7.056
 30
0.0
 11
4.248
 21
7.083
 31
0.0
  0
LINE
  8
1
  6
CONTINUOUS
 62
     7
  5
245
 10
6.084
 20
5.256
 30
0.0
 11
6.048
 21
5.283
 31
0.0
  0
LINE
  8
1
  6
CONTINUOUS
 62
     7
  5
246
 10
5.184
 20
5.256
 30
0.0
 11
5.147917
 21
5.283
 31
0.0
  0
LINE
  8
1
  6
CONTINUOUS
 62
     7
  5
247
 10
9.683917
 20
5.256
 30
0.0
 11
9.648
 21
5.283
 31
0.0
  0
LINE
  8
1
  6
CONTINUOUS
 62
     7
  5
248
 10
10.584
 20
5.256
 30
0.0
 11
10.548
 21
5.283
 31
0.0
  0
LINE
  8
1
  6
CONTINUOUS
 62
     7
  5
249
 10
10.584
 20
6.156
 30
0.0
 11
10.548
 21
6.183
 31
0.0
  0
LINE
  8
1
  6
CONTINUOUS
 62
     7
  5
24A
 10
10.584
 20
7.056
 30
0.0
 11
10.548
 21
7.083
 31
0.0
  0
LINE
  8
1
  6
CONTINUOUS
 62
     7
  5
24B
 10
10.584
 20
7.956
 30
0.0
 11
10.548
 21
7.983
 31
0.0
  0
LINE
  8
1
  6
CONTINUOUS
 62
     7
  5
24C
 10
5.570917
 20
5.292
 30
0.0
 11
5.543917
 21
5.274
 31
0.0
  0
LINE
  8
1
  6
CONTINUOUS
 62
     7
  5
24D
 10
6.470917
 20
5.292
 30
0.0
 11
6.443917
 21
5.274
 31
0.0
  0
LINE
  8
1
  6
CONTINUOUS
 62
     7
  5
24E
 10
10.970917
 20
7.992
 30
0.0
 11
10.943917
 21
7.974
 31
0.0
  0
LINE
  8
1
  6
CONTINUOUS
 62
     7
  5
24F
 10
10.970917
 20
7.992
 30
0.0
 11
10.943917
 21
7.974
 31
0.0
  0
LINE
  8
1
  6
CONTINUOUS
 62
     7
  5
250
 10
7.370917
 20
5.292
 30
0.0
 11
7.343917
 21
5.274
 31
0.0
  0
LINE
  8
1
  6
CONTINUOUS
 62
     7
  5
251
 10
8.270917
 20
5.292
 30
0.0
 11
8.243917
 21
5.274
 31
0.0
  0
LINE
  8
1
  6
CONTINUOUS
 62
     7
  5
252
 10
10.970917
 20
7.092
 30
0.0
 11
10.943917
 21
7.074
 31
0.0
  0
LINE
  8
1
  6
CONTINUOUS
 62
     7
  5
253
 10
9.170917
 20
5.292
 30
0.0
 11
9.143917
 21
5.274
 31
0.0
  0
LINE
  8
1
  6
CONTINUOUS
 62
     7
  5
254
 10
10.970917
 20
6.192
 30
0.0
 11
10.943917
 21
6.174
 31
0.0
  0
LINE
  8
1
  6
CONTINUOUS
 62
     7
  5
255
 10
10.070917
 20
5.292
 30
0.0
 11
10.043917
 21
5.274
 31
0.0
  0
LINE
  8
1
  6
CONTINUOUS
 62
     7
  5
256
 10
10.970917
 20
5.292
 30
0.0
 11
10.943917
 21
5.274
 31
0.0
  0
LINE
  8
1
  6
CONTINUOUS
 62
     7
  5
257
 10
4.671
 20
5.292
 30
0.0
 11
4.643917
 21
5.274
 31
0.0
  0
LINE
  8
1
  6
CONTINUOUS
 62
     7
  5
258
 10
4.671
 20
6.192
 30
0.0
 11
4.643917
 21
6.174
 31
0.0
  0
LINE
  8
1
  6
CONTINUOUS
 62
     7
  5
259
 10
4.671
 20
7.092
 30
0.0
 11
4.644
 21
7.074
 31
0.0
  0
LINE
  8
1
  6
CONTINUOUS
 62
     7
  5
25A
 10
10.944
 20
5.274
 30
0.0
 11
10.998
 21
5.256
 31
0.0
  0
LINE
  8
1
  6
CONTINUOUS
 62
     7
  5
25B
 10
10.944
 20
6.174
 30
0.0
 11
10.998
 21
6.156
 31
0.0
  0
LINE
  8
1
  6
CONTINUOUS
 62
     7
  5
25C
 10
10.944
 20
7.074
 30
0.0
 11
10.998
 21
7.056
 31
0.0
  0
LINE
  8
1
  6
CONTINUOUS
 62
     7
  5
25D
 10
10.944
 20
7.974
 30
0.0
 11
10.998
 21
7.956
 31
0.0
  0
LINE
  8
1
  6
CONTINUOUS
 62
     7
  5
25E
 10
10.044
 20
5.274
 30
0.0
 11
10.098
 21
5.256
 31
0.0
  0
LINE
  8
1
  6
CONTINUOUS
 62
     7
  5
25F
 10
4.644
 20
7.074
 30
0.0
 11
4.698
 21
7.056
 31
0.0
  0
LINE
  8
1
  6
CONTINUOUS
 62
     7
  5
260
 10
3.792
 20
7.057917
 30
0.0
 11
3.798
 21
7.056
 31
0.0
  0
LINE
  8
1
  6
CONTINUOUS
 62
     7
  5
261
 10
9.144
 20
5.274
 30
0.0
 11
9.198
 21
5.256
 31
0.0
  0
LINE
  8
1
  6
CONTINUOUS
 62
     7
  5
262
 10
8.244
 20
5.274
 30
0.0
 11
8.298
 21
5.256
 31
0.0
  0
LINE
  8
1
  6
CONTINUOUS
 62
     7
  5
263
 10
7.344
 20
5.274
 30
0.0
 11
7.398
 21
5.256
 31
0.0
  0
LINE
  8
1
  6
CONTINUOUS
 62
     7
  5
264
 10
4.644
 20
6.174
 30
0.0
 11
4.698
 21
6.156
 31
0.0
  0
LINE
  8
1
  6
CONTINUOUS
 62
     7
  5
265
 10
6.444
 20
5.274
 30
0.0
 11
6.498
 21
5.256
 31
0.0
  0
LINE
  8
1
  6
CONTINUOUS
 62
     7
  5
266
 10
5.544
 20
5.274
 30
0.0
 11
5.598
 21
5.256
 31
0.0
  0
LINE
  8
1
  6
CONTINUOUS
 62
     7
  5
267
 10
4.644
 20
5.274
 30
0.0
 11
4.698
 21
5.256
 31
0.0
  0
LINE
  8
1
  6
CONTINUOUS
 62
     7
  5
268
 10
3.790917
 20
5.258333
 30
0.0
 11
3.798
 21
5.256
 31
0.0
  0
LINE
  8
1
  6
CONTINUOUS
 62
     7
  5
269
 10
8.298
 20
5.256
 30
0.0
 11
8.271
 21
5.292
 31
0.0
  0
LINE
  8
1
  6
CONTINUOUS
 62
     7
  5
26A
 10
7.398
 20
5.256
 30
0.0
 11
7.371
 21
5.292
 31
0.0
  0
LINE
  8
1
  6
CONTINUOUS
 62
     7
  5
26B
 10
6.498
 20
5.256
 30
0.0
 11
6.471
 21
5.292
 31
0.0
  0
LINE
  8
1
  6
CONTINUOUS
 62
     7
  5
26C
 10
4.698
 20
7.056
 30
0.0
 11
4.671
 21
7.092
 31
0.0
  0
LINE
  8
1
  6
CONTINUOUS
 62
     7
  5
26D
 10
5.598
 20
5.256
 30
0.0
 11
5.571
 21
5.292
 31
0.0
  0
LINE
  8
1
  6
CONTINUOUS
 62
     7
  5
26E
 10
4.698
 20
6.156
 30
0.0
 11
4.671
 21
6.192
 31
0.0
  0
LINE
  8
1
  6
CONTINUOUS
 62
     7
  5
26F
 10
3.798
 20
7.056
 30
0.0
 11
3.790417
 21
7.066
 31
0.0
  0
LINE
  8
1
  6
CONTINUOUS
 62
     7
  5
270
 10
4.698
 20
5.256
 30
0.0
 11
4.671
 21
5.292
 31
0.0
  0
LINE
  8
1
  6
CONTINUOUS
 62
     7
  5
271
 10
3.798
 20
5.256
 30
0.0
 11
3.792417
 21
5.263333
 31
0.0
  0
LINE
  8
1
  6
CONTINUOUS
 62
     7
  5
272
 10
9.198
 20
5.256
 30
0.0
 11
9.170917
 21
5.292
 31
0.0
  0
LINE
  8
1
  6
CONTINUOUS
 62
     7
  5
273
 10
10.098
 20
5.256
 30
0.0
 11
10.071
 21
5.292
 31
0.0
  0
LINE
  8
1
  6
CONTINUOUS
 62
     7
  5
274
 10
10.998
 20
5.256
 30
0.0
 11
10.971
 21
5.292
 31
0.0
  0
LINE
  8
1
  6
CONTINUOUS
 62
     7
  5
275
 10
10.998
 20
6.156
 30
0.0
 11
10.971
 21
6.192
 31
0.0
  0
LINE
  8
1
  6
CONTINUOUS
 62
     7
  5
276
 10
10.998
 20
7.056
 30
0.0
 11
10.971
 21
7.092
 31
0.0
  0
LINE
  8
1
  6
CONTINUOUS
 62
     7
  5
277
 10
10.998
 20
7.956
 30
0.0
 11
10.971
 21
7.992
 31
0.0
  0
POINT
  8
1
  6
CONTINUOUS
 62
     7
  5
278
 10
4.032
 20
6.156
 30
0.0
  0
POINT
  8
1
  6
CONTINUOUS
 62
     7
  5
279
 10
10.332
 20
6.156
 30
0.0
  0
POINT
  8
1
  6
CONTINUOUS
 62
     7
  5
27A
 10
11.232
 20
6.156
 30
0.0
  0
POINT
  8
1
  6
CONTINUOUS
 62
     7
  5
27B
 10
4.032
 20
7.056
 30
0.0
  0
POINT
  8
1
  6
CONTINUOUS
 62
     7
  5
27C
 10
10.332
 20
7.956
 30
0.0
  0
POINT
  8
1
  6
CONTINUOUS
 62
     7
  5
27D
 10
11.232
 20
7.956
 30
0.0
  0
POINT
  8
1
  6
CONTINUOUS
 62
     7
  5
27E
 10
4.032
 20
5.256
 30
0.0
  0
POINT
  8
1
  6
CONTINUOUS
 62
     7
  5
27F
 10
4.932
 20
5.256
 30
0.0
  0
POINT
  8
1
  6
CONTINUOUS
 62
     7
  5
280
 10
5.832
 20
5.256
 30
0.0
  0
POINT
  8
1
  6
CONTINUOUS
 62
     7
  5
281
 10
6.732
 20
5.256
 30
0.0
  0
POINT
  8
1
  6
CONTINUOUS
 62
     7
  5
282
 10
7.632
 20
5.256
 30
0.0
  0
POINT
  8
1
  6
CONTINUOUS
 62
     7
  5
283
 10
8.532
 20
5.256
 30
0.0
  0
POINT
  8
1
  6
CONTINUOUS
 62
     7
  5
284
 10
9.432
 20
5.256
 30
0.0
  0
POINT
  8
1
  6
CONTINUOUS
 62
     7
  5
285
 10
10.332
 20
5.256
 30
0.0
  0
POINT
  8
1
  6
CONTINUOUS
 62
     7
  5
286
 10
11.232
 20
5.256
 30
0.0
  0
POINT
  8
1
  6
CONTINUOUS
 62
     7
  5
287
 10
3.789
 20
5.922
 30
0.0
  0
POINT
  8
1
  6
CONTINUOUS
 62
     7
  5
288
 10
10.989
 20
5.922
 30
0.0
  0
POINT
  8
1
  6
CONTINUOUS
 62
     7
  5
289
 10
4.689
 20
5.922
 30
0.0
  0
POINT
  8
1
  6
CONTINUOUS
 62
     7
  5
28A
 10
4.689
 20
6.822
 30
0.0
  0
POINT
  8
1
  6
CONTINUOUS
 62
     7
  5
28B
 10
10.989
 20
6.822
 30
0.0
  0
POINT
  8
1
  6
CONTINUOUS
 62
     7
  5
28C
 10
10.989
 20
7.722
 30
0.0
  0
POINT
  8
1
  6
CONTINUOUS
 62
     7
  5
28D
 10
10.989
 20
8.622
 30
0.0
  0
POINT
  8
1
  6
CONTINUOUS
 62
     7
  5
28E
 10
3.789
 20
5.022
 30
0.0
  0
POINT
  8
1
  6
CONTINUOUS
 62
     7
  5
28F
 10
4.689
 20
5.022
 30
0.0
  0
POINT
  8
1
  6
CONTINUOUS
 62
     7
  5
290
 10
5.589
 20
5.022
 30
0.0
  0
POINT
  8
1
  6
CONTINUOUS
 62
     7
  5
291
 10
6.489
 20
5.022
 30
0.0
  0
POINT
  8
1
  6
CONTINUOUS
 62
     7
  5
292
 10
7.389
 20
5.022
 30
0.0
  0
POINT
  8
1
  6
CONTINUOUS
 62
     7
  5
293
 10
8.289
 20
5.022
 30
0.0
  0
POINT
  8
1
  6
CONTINUOUS
 62
     7
  5
294
 10
9.189
 20
5.022
 30
0.0
  0
POINT
  8
1
  6
CONTINUOUS
 62
     7
  5
295
 10
10.089
 20
5.022
 30
0.0
  0
POINT
  8
1
  6
CONTINUOUS
 62
     7
  5
296
 10
10.989
 20
5.022
 30
0.0
  0
POINT
  8
1
  6
CONTINUOUS
 62
     7
  5
297
 10
4.041
 20
6.489
 30
0.0
  0
POINT
  8
1
  6
CONTINUOUS
 62
     7
  5
298
 10
4.041
 20
6.489
 30
0.0
  0
POINT
  8
1
  6
CONTINUOUS
 62
     7
  5
299
 10
10.340917
 20
6.489
 30
0.0
  0
POINT
  8
1
  6
CONTINUOUS
 62
     7
  5
29A
 10
10.340917
 20
7.389
 30
0.0
  0
POINT
  8
1
  6
CONTINUOUS
 62
     7
  5
29B
 10
11.241
 20
7.389
 30
0.0
  0
POINT
  8
1
  6
CONTINUOUS
 62
     7
  5
29C
 10
10.340917
 20
8.289
 30
0.0
  0
POINT
  8
1
  6
CONTINUOUS
 62
     7
  5
29D
 10
11.241
 20
8.289
 30
0.0
  0
POINT
  8
1
  6
CONTINUOUS
 62
     7
  5
29E
 10
4.041
 20
5.589
 30
0.0
  0
POINT
  8
1
  6
CONTINUOUS
 62
     7
  5
29F
 10
4.941
 20
5.589
 30
0.0
  0
POINT
  8
1
  6
CONTINUOUS
 62
     7
  5
2A0
 10
5.841
 20
5.589
 30
0.0
  0
POINT
  8
1
  6
CONTINUOUS
 62
     7
  5
2A1
 10
6.741
 20
5.589
 30
0.0
  0
POINT
  8
1
  6
CONTINUOUS
 62
     7
  5
2A2
 10
7.641
 20
5.589
 30
0.0
  0
POINT
  8
1
  6
CONTINUOUS
 62
     7
  5
2A3
 10
8.541
 20
5.589
 30
0.0
  0
POINT
  8
1
  6
CONTINUOUS
 62
     7
  5
2A4
 10
9.441
 20
5.589
 30
0.0
  0
POINT
  8
1
  6
CONTINUOUS
 62
     7
  5
2A5
 10
10.340917
 20
5.589
 30
0.0
  0
POINT
  8
1
  6
CONTINUOUS
 62
     7
  5
2A6
 10
11.241
 20
5.589
 30
0.0
  0
POINT
  8
1
  6
CONTINUOUS
 62
     7
  5
2A7
 10
10.584
 20
5.868
 30
0.0
  0
POINT
  8
1
  6
CONTINUOUS
 62
     7
  5
2A8
 10
4.284
 20
6.768
 30
0.0
  0
POINT
  8
1
  6
CONTINUOUS
 62
     7
  5
2A9
 10
10.584
 20
6.768
 30
0.0
  0
POINT
  8
1
  6
CONTINUOUS
 62
     7
  5
2AA
 10
10.584
 20
7.668
 30
0.0
  0
POINT
  8
1
  6
CONTINUOUS
 62
     7
  5
2AB
 10
10.584
 20
8.568
 30
0.0
  0
POINT
  8
1
  6
CONTINUOUS
 62
     7
  5
2AC
 10
4.284
 20
4.968
 30
0.0
  0
POINT
  8
1
  6
CONTINUOUS
 62
     7
  5
2AD
 10
5.184
 20
4.968
 30
0.0
  0
POINT
  8
1
  6
CONTINUOUS
 62
     7
  5
2AE
 10
6.084
 20
4.968
 30
0.0
  0
POINT
  8
1
  6
CONTINUOUS
 62
     7
  5
2AF
 10
6.984
 20
4.968
 30
0.0
  0
POINT
  8
1
  6
CONTINUOUS
 62
     7
  5
2B0
 10
7.884
 20
4.968
 30
0.0
  0
POINT
  8
1
  6
CONTINUOUS
 62
     7
  5
2B1
 10
8.784
 20
4.968
 30
0.0
  0
POINT
  8
1
  6
CONTINUOUS
 62
     7
  5
2B2
 10
9.683917
 20
4.968
 30
0.0
  0
POINT
  8
1
  6
CONTINUOUS
 62
     7
  5
2B3
 10
10.584
 20
4.968
 30
0.0
  0
POINT
  8
1
  6
CONTINUOUS
 62
     7
  5
2B4
 10
4.022917
 20
6.021
 30
0.0
  0
POINT
  8
1
  6
CONTINUOUS
 62
     7
  5
2B5
 10
10.323
 20
6.021
 30
0.0
  0
POINT
  8
1
  6
CONTINUOUS
 62
     7
  5
2B6
 10
11.223
 20
6.021
 30
0.0
  0
POINT
  8
1
  6
CONTINUOUS
 62
     7
  5
2B7
 10
4.022917
 20
6.921
 30
0.0
  0
POINT
  8
1
  6
CONTINUOUS
 62
     7
  5
2B8
 10
10.323
 20
7.821
 30
0.0
  0
POINT
  8
1
  6
CONTINUOUS
 62
     7
  5
2B9
 10
11.223
 20
7.821
 30
0.0
  0
POINT
  8
1
  6
CONTINUOUS
 62
     7
  5
2BA
 10
4.022917
 20
5.121
 30
0.0
  0
POINT
  8
1
  6
CONTINUOUS
 62
     7
  5
2BB
 10
4.923
 20
5.121
 30
0.0
  0
POINT
  8
1
  6
CONTINUOUS
 62
     7
  5
2BC
 10
5.823
 20
5.121
 30
0.0
  0
POINT
  8
1
  6
CONTINUOUS
 62
     7
  5
2BD
 10
6.723
 20
5.121
 30
0.0
  0
POINT
  8
1
  6
CONTINUOUS
 62
     7
  5
2BE
 10
7.623
 20
5.121
 30
0.0
  0
POINT
  8
1
  6
CONTINUOUS
 62
     7
  5
2BF
 10
8.523
 20
5.121
 30
0.0
  0
POINT
  8
1
  6
CONTINUOUS
 62
     7
  5
2C0
 10
9.423
 20
5.121
 30
0.0
  0
POINT
  8
1
  6
CONTINUOUS
 62
     7
  5
2C1
 10
10.323
 20
5.121
 30
0.0
  0
POINT
  8
1
  6
CONTINUOUS
 62
     7
  5
2C2
 10
11.223
 20
5.121
 30
0.0
  0
POINT
  8
1
  6
CONTINUOUS
 62
     7
  5
2C3
 10
3.825
 20
6.048
 30
0.0
  0
POINT
  8
1
  6
CONTINUOUS
 62
     7
  5
2C4
 10
11.025
 20
6.048
 30
0.0
  0
POINT
  8
1
  6
CONTINUOUS
 62
     7
  5
2C5
 10
4.724917
 20
6.048
 30
0.0
  0
POINT
  8
1
  6
CONTINUOUS
 62
     7
  5
2C6
 10
3.825
 20
6.948
 30
0.0
  0
POINT
  8
1
  6
CONTINUOUS
 62
     7
  5
2C7
 10
4.724917
 20
6.948
 30
0.0
  0
POINT
  8
1
  6
CONTINUOUS
 62
     7
  5
2C8
 10
11.025
 20
7.848
 30
0.0
  0
POINT
  8
1
  6
CONTINUOUS
 62
     7
  5
2C9
 10
3.825
 20
5.147917
 30
0.0
  0
POINT
  8
1
  6
CONTINUOUS
 62
     7
  5
2CA
 10
4.724917
 20
5.147917
 30
0.0
  0
POINT
  8
1
  6
CONTINUOUS
 62
     7
  5
2CB
 10
5.625
 20
5.147917
 30
0.0
  0
POINT
  8
1
  6
CONTINUOUS
 62
     7
  5
2CC
 10
6.525
 20
5.147917
 30
0.0
  0
POINT
  8
1
  6
CONTINUOUS
 62
     7
  5
2CD
 10
7.425
 20
5.147917
 30
0.0
  0
POINT
  8
1
  6
CONTINUOUS
 62
     7
  5
2CE
 10
8.324917
 20
5.147917
 30
0.0
  0
POINT
  8
1
  6
CONTINUOUS
 62
     7
  5
2CF
 10
9.225
 20
5.147917
 30
0.0
  0
POINT
  8
1
  6
CONTINUOUS
 62
     7
  5
2D0
 10
10.125
 20
5.147917
 30
0.0
  0
POINT
  8
1
  6
CONTINUOUS
 62
     7
  5
2D1
 10
11.025
 20
5.147917
 30
0.0
  0
POINT
  8
1
  6
CONTINUOUS
 62
     7
  5
2D2
 10
3.906
 20
5.994
 30
0.0
  0
POINT
  8
1
  6
CONTINUOUS
 62
     7
  5
2D3
 10
11.106
 20
5.994
 30
0.0
  0
POINT
  8
1
  6
CONTINUOUS
 62
     7
  5
2D4
 10
3.906
 20
6.894
 30
0.0
  0
POINT
  8
1
  6
CONTINUOUS
 62
     7
  5
2D5
 10
11.106
 20
7.794
 30
0.0
  0
POINT
  8
1
  6
CONTINUOUS
 62
     7
  5
2D6
 10
3.906
 20
5.094
 30
0.0
  0
POINT
  8
1
  6
CONTINUOUS
 62
     7
  5
2D7
 10
4.806
 20
5.094
 30
0.0
  0
POINT
  8
1
  6
CONTINUOUS
 62
     7
  5
2D8
 10
5.706
 20
5.094
 30
0.0
  0
POINT
  8
1
  6
CONTINUOUS
 62
     7
  5
2D9
 10
6.606
 20
5.094
 30
0.0
  0
POINT
  8
1
  6
CONTINUOUS
 62
     7
  5
2DA
 10
7.506
 20
5.094
 30
0.0
  0
POINT
  8
1
  6
CONTINUOUS
 62
     7
  5
2DB
 10
8.406
 20
5.094
 30
0.0
  0
POINT
  8
1
  6
CONTINUOUS
 62
     7
  5
2DC
 10
9.305917
 20
5.094
 30
0.0
  0
POINT
  8
1
  6
CONTINUOUS
 62
     7
  5
2DD
 10
10.206
 20
5.094
 30
0.0
  0
POINT
  8
1
  6
CONTINUOUS
 62
     7
  5
2DE
 10
11.106
 20
5.094
 30
0.0
  0
POINT
  8
1
  6
CONTINUOUS
 62
     7
  5
2DF
 10
3.87
 20
5.778
 30
0.0
  0
POINT
  8
1
  6
CONTINUOUS
 62
     7
  5
2E0
 10
11.07
 20
5.778
 30
0.0
  0
POINT
  8
1
  6
CONTINUOUS
 62
     7
  5
2E1
 10
11.07
 20
5.778
 30
0.0
  0
POINT
  8
1
  6
CONTINUOUS
 62
     7
  5
2E2
 10
4.769917
 20
5.778
 30
0.0
  0
POINT
  8
1
  6
CONTINUOUS
 62
     7
  5
2E3
 10
3.87
 20
6.678
 30
0.0
  0
POINT
  8
1
  6
CONTINUOUS
 62
     7
  5
2E4
 10
4.769917
 20
6.678
 30
0.0
  0
POINT
  8
1
  6
CONTINUOUS
 62
     7
  5
2E5
 10
11.07
 20
6.678
 30
0.0
  0
POINT
  8
1
  6
CONTINUOUS
 62
     7
  5
2E6
 10
11.07
 20
7.578
 30
0.0
  0
POINT
  8
1
  6
CONTINUOUS
 62
     7
  5
2E7
 10
11.07
 20
8.478
 30
0.0
  0
POINT
  8
1
  6
CONTINUOUS
 62
     7
  5
2E8
 10
3.87
 20
4.878
 30
0.0
  0
POINT
  8
1
  6
CONTINUOUS
 62
     7
  5
2E9
 10
4.769917
 20
4.878
 30
0.0
  0
POINT
  8
1
  6
CONTINUOUS
 62
     7
  5
2EA
 10
5.67
 20
4.878
 30
0.0
  0
POINT
  8
1
  6
CONTINUOUS
 62
     7
  5
2EB
 10
6.57
 20
4.878
 30
0.0
  0
POINT
  8
1
  6
CONTINUOUS
 62
     7
  5
2EC
 10
7.47
 20
4.878
 30
0.0
  0
POINT
  8
1
  6
CONTINUOUS
 62
     7
  5
2ED
 10
8.369917
 20
4.878
 30
0.0
  0
POINT
  8
1
  6
CONTINUOUS
 62
     7
  5
2EE
 10
9.27
 20
4.878
 30
0.0
  0
POINT
  8
1
  6
CONTINUOUS
 62
     7
  5
2EF
 10
10.17
 20
4.878
 30
0.0
  0
POINT
  8
1
  6
CONTINUOUS
 62
     7
  5
2F0
 10
11.07
 20
4.878
 30
0.0
  0
POINT
  8
1
  6
CONTINUOUS
 62
     7
  5
2F1
 10
10.853917
 20
5.814
 30
0.0
  0
POINT
  8
1
  6
CONTINUOUS
 62
     7
  5
2F2
 10
4.554
 20
5.814
 30
0.0
  0
POINT
  8
1
  6
CONTINUOUS
 62
     7
  5
2F3
 10
4.554
 20
6.714
 30
0.0
  0
POINT
  8
1
  6
CONTINUOUS
 62
     7
  5
2F4
 10
10.853917
 20
6.714
 30
0.0
  0
POINT
  8
1
  6
CONTINUOUS
 62
     7
  5
2F5
 10
10.853917
 20
7.614
 30
0.0
  0
POINT
  8
1
  6
CONTINUOUS
 62
     7
  5
2F6
 10
10.853917
 20
8.513917
 30
0.0
  0
POINT
  8
1
  6
CONTINUOUS
 62
     7
  5
2F7
 10
4.554
 20
4.914
 30
0.0
  0
POINT
  8
1
  6
CONTINUOUS
 62
     7
  5
2F8
 10
5.454
 20
4.914
 30
0.0
  0
POINT
  8
1
  6
CONTINUOUS
 62
     7
  5
2F9
 10
6.354
 20
4.914
 30
0.0
  0
POINT
  8
1
  6
CONTINUOUS
 62
     7
  5
2FA
 10
7.254
 20
4.914
 30
0.0
  0
POINT
  8
1
  6
CONTINUOUS
 62
     7
  5
2FB
 10
8.154
 20
4.914
 30
0.0
  0
POINT
  8
1
  6
CONTINUOUS
 62
     7
  5
2FC
 10
9.054
 20
4.914
 30
0.0
  0
POINT
  8
1
  6
CONTINUOUS
 62
     7
  5
2FD
 10
9.954
 20
4.914
 30
0.0
  0
POINT
  8
1
  6
CONTINUOUS
 62
     7
  5
2FE
 10
10.853917
 20
4.914
 30
0.0
  0
POINT
  8
1
  6
CONTINUOUS
 62
     7
  5
2FF
 10
10.863
 20
6.021
 30
0.0
  0
POINT
  8
1
  6
CONTINUOUS
 62
     7
  5
300
 10
4.563
 20
6.021
 30
0.0
  0
POINT
  8
1
  6
CONTINUOUS
 62
     7
  5
301
 10
4.563
 20
6.921
 30
0.0
  0
POINT
  8
1
  6
CONTINUOUS
 62
     7
  5
302
 10
10.863
 20
7.821
 30
0.0
  0
POINT
  8
1
  6
CONTINUOUS
 62
     7
  5
303
 10
4.563
 20
5.121
 30
0.0
  0
POINT
  8
1
  6
CONTINUOUS
 62
     7
  5
304
 10
5.463
 20
5.121
 30
0.0
  0
POINT
  8
1
  6
CONTINUOUS
 62
     7
  5
305
 10
6.363
 20
5.121
 30
0.0
  0
POINT
  8
1
  6
CONTINUOUS
 62
     7
  5
306
 10
7.263
 20
5.121
 30
0.0
  0
POINT
  8
1
  6
CONTINUOUS
 62
     7
  5
307
 10
8.163
 20
5.121
 30
0.0
  0
POINT
  8
1
  6
CONTINUOUS
 62
     7
  5
308
 10
9.063
 20
5.121
 30
0.0
  0
POINT
  8
1
  6
CONTINUOUS
 62
     7
  5
309
 10
9.962917
 20
5.121
 30
0.0
  0
POINT
  8
1
  6
CONTINUOUS
 62
     7
  5
30A
 10
10.863
 20
5.121
 30
0.0
  0
POINT
  8
1
  6
CONTINUOUS
 62
     7
  5
30B
 10
10.836
 20
6.219
 30
0.0
  0
POINT
  8
1
  6
CONTINUOUS
 62
     7
  5
30C
 10
4.535917
 20
6.219
 30
0.0
  0
POINT
  8
1
  6
CONTINUOUS
 62
     7
  5
30D
 10
4.535917
 20
7.119
 30
0.0
  0
POINT
  8
1
  6
CONTINUOUS
 62
     7
  5
30E
 10
10.836
 20
8.019
 30
0.0
  0
POINT
  8
1
  6
CONTINUOUS
 62
     7
  5
30F
 10
4.535917
 20
5.319
 30
0.0
  0
POINT
  8
1
  6
CONTINUOUS
 62
     7
  5
310
 10
5.436
 20
5.319
 30
0.0
  0
POINT
  8
1
  6
CONTINUOUS
 62
     7
  5
311
 10
6.336
 20
5.319
 30
0.0
  0
POINT
  8
1
  6
CONTINUOUS
 62
     7
  5
312
 10
7.236
 20
5.319
 30
0.0
  0
POINT
  8
1
  6
CONTINUOUS
 62
     7
  5
313
 10
8.135917
 20
5.319
 30
0.0
  0
POINT
  8
1
  6
CONTINUOUS
 62
     7
  5
314
 10
9.036
 20
5.319
 30
0.0
  0
POINT
  8
1
  6
CONTINUOUS
 62
     7
  5
315
 10
9.936
 20
5.319
 30
0.0
  0
POINT
  8
1
  6
CONTINUOUS
 62
     7
  5
316
 10
10.836
 20
5.319
 30
0.0
  0
POINT
  8
1
  6
CONTINUOUS
 62
     7
  5
317
 10
3.915
 20
6.255
 30
0.0
  0
POINT
  8
1
  6
CONTINUOUS
 62
     7
  5
318
 10
11.115
 20
6.255
 30
0.0
  0
POINT
  8
1
  6
CONTINUOUS
 62
     7
  5
319
 10
3.915
 20
7.155
 30
0.0
  0
POINT
  8
1
  6
CONTINUOUS
 62
     7
  5
31A
 10
11.115
 20
8.055
 30
0.0
  0
POINT
  8
1
  6
CONTINUOUS
 62
     7
  5
31B
 10
3.915
 20
5.355
 30
0.0
  0
POINT
  8
1
  6
CONTINUOUS
 62
     7
  5
31C
 10
4.815
 20
5.355
 30
0.0
  0
POINT
  8
1
  6
CONTINUOUS
 62
     7
  5
31D
 10
5.715
 20
5.355
 30
0.0
  0
POINT
  8
1
  6
CONTINUOUS
 62
     7
  5
31E
 10
6.615
 20
5.355
 30
0.0
  0
POINT
  8
1
  6
CONTINUOUS
 62
     7
  5
31F
 10
7.515
 20
5.355
 30
0.0
  0
POINT
  8
1
  6
CONTINUOUS
 62
     7
  5
320
 10
8.414917
 20
5.355
 30
0.0
  0
POINT
  8
1
  6
CONTINUOUS
 62
     7
  5
321
 10
9.315
 20
5.355
 30
0.0
  0
POINT
  8
1
  6
CONTINUOUS
 62
     7
  5
322
 10
10.215
 20
5.355
 30
0.0
  0
POINT
  8
1
  6
CONTINUOUS
 62
     7
  5
323
 10
11.115
 20
5.355
 30
0.0
  0
POINT
  8
1
  6
CONTINUOUS
 62
     7
  5
324
 10
4.113
 20
6.291
 30
0.0
  0
POINT
  8
1
  6
CONTINUOUS
 62
     7
  5
325
 10
10.413
 20
6.291
 30
0.0
  0
POINT
  8
1
  6
CONTINUOUS
 62
     7
  5
326
 10
4.113
 20
7.191
 30
0.0
  0
POINT
  8
1
  6
CONTINUOUS
 62
     7
  5
327
 10
10.413
 20
8.090917
 30
0.0
  0
POINT
  8
1
  6
CONTINUOUS
 62
     7
  5
328
 10
4.113
 20
5.391
 30
0.0
  0
POINT
  8
1
  6
CONTINUOUS
 62
     7
  5
329
 10
5.013
 20
5.391
 30
0.0
  0
POINT
  8
1
  6
CONTINUOUS
 62
     7
  5
32A
 10
5.013
 20
5.391
 30
0.0
  0
POINT
  8
1
  6
CONTINUOUS
 62
     7
  5
32B
 10
5.913
 20
5.391
 30
0.0
  0
POINT
  8
1
  6
CONTINUOUS
 62
     7
  5
32C
 10
6.813
 20
5.391
 30
0.0
  0
POINT
  8
1
  6
CONTINUOUS
 62
     7
  5
32D
 10
7.713
 20
5.391
 30
0.0
  0
POINT
  8
1
  6
CONTINUOUS
 62
     7
  5
32E
 10
8.613
 20
5.391
 30
0.0
  0
POINT
  8
1
  6
CONTINUOUS
 62
     7
  5
32F
 10
9.513
 20
5.391
 30
0.0
  0
POINT
  8
1
  6
CONTINUOUS
 62
     7
  5
330
 10
10.413
 20
5.391
 30
0.0
  0
POINT
  8
1
  6
CONTINUOUS
 62
     7
  5
331
 10
10.728
 20
6.255
 30
0.0
  0
POINT
  8
1
  6
CONTINUOUS
 62
     7
  5
332
 10
4.428
 20
6.255
 30
0.0
  0
POINT
  8
1
  6
CONTINUOUS
 62
     7
  5
333
 10
10.728
 20
8.055
 30
0.0
  0
POINT
  8
1
  6
CONTINUOUS
 62
     7
  5
334
 10
4.428
 20
5.355
 30
0.0
  0
POINT
  8
1
  6
CONTINUOUS
 62
     7
  5
335
 10
5.328
 20
5.355
 30
0.0
  0
POINT
  8
1
  6
CONTINUOUS
 62
     7
  5
336
 10
6.228
 20
5.355
 30
0.0
  0
POINT
  8
1
  6
CONTINUOUS
 62
     7
  5
337
 10
7.128
 20
5.355
 30
0.0
  0
POINT
  8
1
  6
CONTINUOUS
 62
     7
  5
338
 10
8.028
 20
5.355
 30
0.0
  0
POINT
  8
1
  6
CONTINUOUS
 62
     7
  5
339
 10
8.928
 20
5.355
 30
0.0
  0
POINT
  8
1
  6
CONTINUOUS
 62
     7
  5
33A
 10
9.828
 20
5.355
 30
0.0
  0
POINT
  8
1
  6
CONTINUOUS
 62
     7
  5
33B
 10
10.728
 20
5.355
 30
0.0
  0
POINT
  8
1
  6
CONTINUOUS
 62
     7
  5
33C
 10
10.512
 20
5.976
 30
0.0
  0
POINT
  8
1
  6
CONTINUOUS
 62
     7
  5
33D
 10
4.212
 20
6.876
 30
0.0
  0
POINT
  8
1
  6
CONTINUOUS
 62
     7
  5
33E
 10
10.512
 20
7.776
 30
0.0
  0
POINT
  8
1
  6
CONTINUOUS
 62
     7
  5
33F
 10
5.112
 20
5.075917
 30
0.0
  0
POINT
  8
1
  6
CONTINUOUS
 62
     7
  5
340
 10
6.012
 20
5.075917
 30
0.0
  0
POINT
  8
1
  6
CONTINUOUS
 62
     7
  5
341
 10
6.912
 20
5.075917
 30
0.0
  0
POINT
  8
1
  6
CONTINUOUS
 62
     7
  5
342
 10
7.812
 20
5.075917
 30
0.0
  0
POINT
  8
1
  6
CONTINUOUS
 62
     7
  5
343
 10
8.712
 20
5.075917
 30
0.0
  0
POINT
  8
1
  6
CONTINUOUS
 62
     7
  5
344
 10
9.612
 20
5.075917
 30
0.0
  0
POINT
  8
1
  6
CONTINUOUS
 62
     7
  5
345
 10
10.512
 20
5.075917
 30
0.0
  0
POINT
  8
1
  6
CONTINUOUS
 62
     7
  5
346
 10
4.122
 20
6.138
 30
0.0
  0
POINT
  8
1
  6
CONTINUOUS
 62
     7
  5
347
 10
10.422
 20
6.138
 30
0.0
  0
POINT
  8
1
  6
CONTINUOUS
 62
     7
  5
348
 10
4.122
 20
7.038
 30
0.0
  0
POINT
  8
1
  6
CONTINUOUS
 62
     7
  5
349
 10
10.422
 20
7.938
 30
0.0
  0
POINT
  8
1
  6
CONTINUOUS
 62
     7
  5
34A
 10
4.122
 20
5.238
 30
0.0
  0
POINT
  8
1
  6
CONTINUOUS
 62
     7
  5
34B
 10
5.022
 20
5.238
 30
0.0
  0
POINT
  8
1
  6
CONTINUOUS
 62
     7
  5
34C
 10
5.922
 20
5.238
 30
0.0
  0
POINT
  8
1
  6
CONTINUOUS
 62
     7
  5
34D
 10
6.822
 20
5.238
 30
0.0
  0
POINT
  8
1
  6
CONTINUOUS
 62
     7
  5
34E
 10
7.722
 20
5.238
 30
0.0
  0
POINT
  8
1
  6
CONTINUOUS
 62
     7
  5
34F
 10
8.622
 20
5.238
 30
0.0
  0
POINT
  8
1
  6
CONTINUOUS
 62
     7
  5
350
 10
9.522
 20
5.238
 30
0.0
  0
POINT
  8
1
  6
CONTINUOUS
 62
     7
  5
351
 10
10.422
 20
5.238
 30
0.0
  0
POINT
  8
1
  6
CONTINUOUS
 62
     7
  5
352
 10
4.194
 20
6.606
 30
0.0
  0
POINT
  8
1
  6
CONTINUOUS
 62
     7
  5
353
 10
10.494
 20
6.606
 30
0.0
  0
POINT
  8
1
  6
CONTINUOUS
 62
     7
  5
354
 10
10.494
 20
7.506
 30
0.0
  0
POINT
  8
1
  6
CONTINUOUS
 62
     7
  5
355
 10
10.494
 20
8.406
 30
0.0
  0
POINT
  8
1
  6
CONTINUOUS
 62
     7
  5
356
 10
4.194
 20
5.706
 30
0.0
  0
POINT
  8
1
  6
CONTINUOUS
 62
     7
  5
357
 10
5.094
 20
5.706
 30
0.0
  0
POINT
  8
1
  6
CONTINUOUS
 62
     7
  5
358
 10
5.994
 20
5.706
 30
0.0
  0
POINT
  8
1
  6
CONTINUOUS
 62
     7
  5
359
 10
6.894
 20
5.706
 30
0.0
  0
POINT
  8
1
  6
CONTINUOUS
 62
     7
  5
35A
 10
7.794
 20
5.706
 30
0.0
  0
POINT
  8
1
  6
CONTINUOUS
 62
     7
  5
35B
 10
8.694
 20
5.706
 30
0.0
  0
POINT
  8
1
  6
CONTINUOUS
 62
     7
  5
35C
 10
9.594
 20
5.706
 30
0.0
  0
POINT
  8
1
  6
CONTINUOUS
 62
     7
  5
35D
 10
10.494
 20
5.706
 30
0.0
  0
POINT
  8
1
  6
CONTINUOUS
 62
     7
  5
35E
 10
4.194
 20
4.806
 30
0.0
  0
POINT
  8
1
  6
CONTINUOUS
 62
     7
  5
35F
 10
10.494
 20
4.806
 30
0.0
  0
POINT
  8
1
  6
CONTINUOUS
 62
     7
  5
360
 10
9.594
 20
4.806
 30
0.0
  0
POINT
  8
1
  6
CONTINUOUS
 62
     7
  5
361
 10
5.994
 20
4.806
 30
0.0
  0
POINT
  8
1
  6
CONTINUOUS
 62
     7
  5
362
 10
7.794
 20
4.806
 30
0.0
  0
POINT
  8
1
  6
CONTINUOUS
 62
     7
  5
363
 10
6.894
 20
4.806
 30
0.0
  0
POINT
  8
1
  6
CONTINUOUS
 62
     7
  5
364
 10
3.924
 20
6.561
 30
0.0
  0
POINT
  8
1
  6
CONTINUOUS
 62
     7
  5
365
 10
11.124
 20
6.561
 30
0.0
  0
POINT
  8
1
  6
CONTINUOUS
 62
     7
  5
366
 10
11.124
 20
7.461
 30
0.0
  0
POINT
  8
1
  6
CONTINUOUS
 62
     7
  5
367
 10
11.124
 20
8.361
 30
0.0
  0
POINT
  8
1
  6
CONTINUOUS
 62
     7
  5
368
 10
3.924
 20
5.661
 30
0.0
  0
POINT
  8
1
  6
CONTINUOUS
 62
     7
  5
369
 10
4.824
 20
5.661
 30
0.0
  0
POINT
  8
1
  6
CONTINUOUS
 62
     7
  5
36A
 10
5.724
 20
5.661
 30
0.0
  0
POINT
  8
1
  6
CONTINUOUS
 62
     7
  5
36B
 10
6.624
 20
5.661
 30
0.0
  0
POINT
  8
1
  6
CONTINUOUS
 62
     7
  5
36C
 10
7.524
 20
5.661
 30
0.0
  0
POINT
  8
1
  6
CONTINUOUS
 62
     7
  5
36D
 10
8.424
 20
5.661
 30
0.0
  0
POINT
  8
1
  6
CONTINUOUS
 62
     7
  5
36E
 10
9.324
 20
5.661
 30
0.0
  0
POINT
  8
1
  6
CONTINUOUS
 62
     7
  5
36F
 10
10.224
 20
5.661
 30
0.0
  0
POINT
  8
1
  6
CONTINUOUS
 62
     7
  5
370
 10
11.124
 20
5.661
 30
0.0
  0
POINT
  8
1
  6
CONTINUOUS
 62
     7
  5
371
 10
3.924
 20
4.761
 30
0.0
  0
POINT
  8
1
  6
CONTINUOUS
 62
     7
  5
372
 10
11.124
 20
4.761
 30
0.0
  0
POINT
  8
1
  6
CONTINUOUS
 62
     7
  5
373
 10
11.124
 20
4.761
 30
0.0
  0
POINT
  8
1
  6
CONTINUOUS
 62
     7
  5
374
 10
7.524
 20
4.761
 30
0.0
  0
POINT
  8
1
  6
CONTINUOUS
 62
     7
  5
375
 10
4.194
 20
6.363
 30
0.0
  0
POINT
  8
1
  6
CONTINUOUS
 62
     7
  5
376
 10
10.494
 20
6.363
 30
0.0
  0
POINT
  8
1
  6
CONTINUOUS
 62
     7
  5
377
 10
4.194
 20
7.263
 30
0.0
  0
POINT
  8
1
  6
CONTINUOUS
 62
     7
  5
378
 10
10.494
 20
8.163
 30
0.0
  0
POINT
  8
1
  6
CONTINUOUS
 62
     7
  5
379
 10
4.194
 20
5.463
 30
0.0
  0
POINT
  8
1
  6
CONTINUOUS
 62
     7
  5
37A
 10
5.094
 20
5.463
 30
0.0
  0
POINT
  8
1
  6
CONTINUOUS
 62
     7
  5
37B
 10
5.994
 20
5.463
 30
0.0
  0
POINT
  8
1
  6
CONTINUOUS
 62
     7
  5
37C
 10
6.894
 20
5.463
 30
0.0
  0
POINT
  8
1
  6
CONTINUOUS
 62
     7
  5
37D
 10
7.794
 20
5.463
 30
0.0
  0
POINT
  8
1
  6
CONTINUOUS
 62
     7
  5
37E
 10
8.694
 20
5.463
 30
0.0
  0
POINT
  8
1
  6
CONTINUOUS
 62
     7
  5
37F
 10
9.594
 20
5.463
 30
0.0
  0
POINT
  8
1
  6
CONTINUOUS
 62
     7
  5
380
 10
10.494
 20
5.463
 30
0.0
  0
POINT
  8
1
  6
CONTINUOUS
 62
     7
  5
381
 10
3.897
 20
6.417
 30
0.0
  0
POINT
  8
1
  6
CONTINUOUS
 62
     7
  5
382
 10
11.097
 20
6.417
 30
0.0
  0
POINT
  8
1
  6
CONTINUOUS
 62
     7
  5
383
 10
11.097
 20
7.317
 30
0.0
  0
POINT
  8
1
  6
CONTINUOUS
 62
     7
  5
384
 10
11.097
 20
8.217
 30
0.0
  0
POINT
  8
1
  6
CONTINUOUS
 62
     7
  5
385
 10
3.897
 20
5.517
 30
0.0
  0
POINT
  8
1
  6
CONTINUOUS
 62
     7
  5
386
 10
4.797
 20
5.517
 30
0.0
  0
POINT
  8
1
  6
CONTINUOUS
 62
     7
  5
387
 10
5.697
 20
5.517
 30
0.0
  0
POINT
  8
1
  6
CONTINUOUS
 62
     7
  5
388
 10
6.597
 20
5.517
 30
0.0
  0
POINT
  8
1
  6
CONTINUOUS
 62
     7
  5
389
 10
7.497
 20
5.517
 30
0.0
  0
POINT
  8
1
  6
CONTINUOUS
 62
     7
  5
38A
 10
8.397
 20
5.517
 30
0.0
  0
POINT
  8
1
  6
CONTINUOUS
 62
     7
  5
38B
 10
9.297
 20
5.517
 30
0.0
  0
POINT
  8
1
  6
CONTINUOUS
 62
     7
  5
38C
 10
10.196917
 20
5.517
 30
0.0
  0
POINT
  8
1
  6
CONTINUOUS
 62
     7
  5
38D
 10
11.097
 20
5.517
 30
0.0
  0
POINT
  8
1
  6
CONTINUOUS
 62
     7
  5
38E
 10
10.808917
 20
6.39
 30
0.0
  0
POINT
  8
1
  6
CONTINUOUS
 62
     7
  5
38F
 10
4.509
 20
6.39
 30
0.0
  0
POINT
  8
1
  6
CONTINUOUS
 62
     7
  5
390
 10
10.808917
 20
7.29
 30
0.0
  0
POINT
  8
1
  6
CONTINUOUS
 62
     7
  5
391
 10
10.808917
 20
8.19
 30
0.0
  0
POINT
  8
1
  6
CONTINUOUS
 62
     7
  5
392
 10
4.509
 20
5.49
 30
0.0
  0
POINT
  8
1
  6
CONTINUOUS
 62
     7
  5
393
 10
5.409
 20
5.49
 30
0.0
  0
POINT
  8
1
  6
CONTINUOUS
 62
     7
  5
394
 10
6.309
 20
5.49
 30
0.0
  0
POINT
  8
1
  6
CONTINUOUS
 62
     7
  5
395
 10
7.209
 20
5.49
 30
0.0
  0
POINT
  8
1
  6
CONTINUOUS
 62
     7
  5
396
 10
8.109
 20
5.49
 30
0.0
  0
POINT
  8
1
  6
CONTINUOUS
 62
     7
  5
397
 10
9.009
 20
5.49
 30
0.0
  0
POINT
  8
1
  6
CONTINUOUS
 62
     7
  5
398
 10
9.909
 20
5.49
 30
0.0
  0
POINT
  8
1
  6
CONTINUOUS
 62
     7
  5
399
 10
10.808917
 20
5.49
 30
0.0
  0
POINT
  8
1
  6
CONTINUOUS
 62
     7
  5
39A
 10
10.917
 20
6.345
 30
0.0
  0
POINT
  8
1
  6
CONTINUOUS
 62
     7
  5
39B
 10
4.617
 20
6.345
 30
0.0
  0
POINT
  8
1
  6
CONTINUOUS
 62
     7
  5
39C
 10
10.917
 20
8.145
 30
0.0
  0
POINT
  8
1
  6
CONTINUOUS
 62
     7
  5
39D
 10
4.617
 20
5.445
 30
0.0
  0
POINT
  8
1
  6
CONTINUOUS
 62
     7
  5
39E
 10
5.517
 20
5.445
 30
0.0
  0
POINT
  8
1
  6
CONTINUOUS
 62
     7
  5
39F
 10
6.417
 20
5.445
 30
0.0
  0
POINT
  8
1
  6
CONTINUOUS
 62
     7
  5
3A0
 10
7.317
 20
5.445
 30
0.0
  0
POINT
  8
1
  6
CONTINUOUS
 62
     7
  5
3A1
 10
8.217
 20
5.445
 30
0.0
  0
POINT
  8
1
  6
CONTINUOUS
 62
     7
  5
3A2
 10
9.117
 20
5.445
 30
0.0
  0
POINT
  8
1
  6
CONTINUOUS
 62
     7
  5
3A3
 10
10.017
 20
5.445
 30
0.0
  0
POINT
  8
1
  6
CONTINUOUS
 62
     7
  5
3A4
 10
10.917
 20
5.445
 30
0.0
  0
POINT
  8
1
  6
CONTINUOUS
 62
     7
  5
3A5
 10
4.626
 20
6.471
 30
0.0
  0
POINT
  8
1
  6
CONTINUOUS
 62
     7
  5
3A6
 10
10.926
 20
6.471
 30
0.0
  0
POINT
  8
1
  6
CONTINUOUS
 62
     7
  5
3A7
 10
10.926
 20
7.371
 30
0.0
  0
POINT
  8
1
  6
CONTINUOUS
 62
     7
  5
3A8
 10
10.926
 20
8.271
 30
0.0
  0
POINT
  8
1
  6
CONTINUOUS
 62
     7
  5
3A9
 10
4.626
 20
5.571
 30
0.0
  0
POINT
  8
1
  6
CONTINUOUS
 62
     7
  5
3AA
 10
5.526
 20
5.571
 30
0.0
  0
POINT
  8
1
  6
CONTINUOUS
 62
     7
  5
3AB
 10
6.426
 20
5.571
 30
0.0
  0
POINT
  8
1
  6
CONTINUOUS
 62
     7
  5
3AC
 10
7.326
 20
5.571
 30
0.0
  0
POINT
  8
1
  6
CONTINUOUS
 62
     7
  5
3AD
 10
8.226
 20
5.571
 30
0.0
  0
POINT
  8
1
  6
CONTINUOUS
 62
     7
  5
3AE
 10
9.126
 20
5.571
 30
0.0
  0
POINT
  8
1
  6
CONTINUOUS
 62
     7
  5
3AF
 10
10.026
 20
5.571
 30
0.0
  0
POINT
  8
1
  6
CONTINUOUS
 62
     7
  5
3B0
 10
10.926
 20
5.571
 30
0.0
  0
POINT
  8
1
  6
CONTINUOUS
 62
     7
  5
3B1
 10
10.629
 20
6.327
 30
0.0
  0
POINT
  8
1
  6
CONTINUOUS
 62
     7
  5
3B2
 10
4.329
 20
6.327
 30
0.0
  0
POINT
  8
1
  6
CONTINUOUS
 62
     7
  5
3B3
 10
10.629
 20
8.127
 30
0.0
  0
POINT
  8
1
  6
CONTINUOUS
 62
     7
  5
3B4
 10
4.329
 20
5.426917
 30
0.0
  0
POINT
  8
1
  6
CONTINUOUS
 62
     7
  5
3B5
 10
5.229
 20
5.426917
 30
0.0
  0
POINT
  8
1
  6
CONTINUOUS
 62
     7
  5
3B6
 10
6.129
 20
5.426917
 30
0.0
  0
POINT
  8
1
  6
CONTINUOUS
 62
     7
  5
3B7
 10
7.029
 20
5.426917
 30
0.0
  0
POINT
  8
1
  6
CONTINUOUS
 62
     7
  5
3B8
 10
7.929
 20
5.426917
 30
0.0
  0
POINT
  8
1
  6
CONTINUOUS
 62
     7
  5
3B9
 10
8.829
 20
5.426917
 30
0.0
  0
POINT
  8
1
  6
CONTINUOUS
 62
     7
  5
3BA
 10
9.728917
 20
5.426917
 30
0.0
  0
POINT
  8
1
  6
CONTINUOUS
 62
     7
  5
3BB
 10
10.629
 20
5.426917
 30
0.0
  0
POINT
  8
1
  6
CONTINUOUS
 62
     7
  5
3BC
 10
10.629
 20
5.426917
 30
0.0
  0
POINT
  8
1
  6
CONTINUOUS
 62
     7
  5
3BD
 10
10.737
 20
5.796
 30
0.0
  0
POINT
  8
1
  6
CONTINUOUS
 62
     7
  5
3BE
 10
4.437
 20
5.796
 30
0.0
  0
POINT
  8
1
  6
CONTINUOUS
 62
     7
  5
3BF
 10
4.437
 20
6.696
 30
0.0
  0
POINT
  8
1
  6
CONTINUOUS
 62
     7
  5
3C0
 10
10.737
 20
6.696
 30
0.0
  0
POINT
  8
1
  6
CONTINUOUS
 62
     7
  5
3C1
 10
10.737
 20
7.596
 30
0.0
  0
POINT
  8
1
  6
CONTINUOUS
 62
     7
  5
3C2
 10
10.737
 20
8.496
 30
0.0
  0
POINT
  8
1
  6
CONTINUOUS
 62
     7
  5
3C3
 10
4.437
 20
4.896
 30
0.0
  0
POINT
  8
1
  6
CONTINUOUS
 62
     7
  5
3C4
 10
5.337
 20
4.896
 30
0.0
  0
POINT
  8
1
  6
CONTINUOUS
 62
     7
  5
3C5
 10
6.237
 20
4.896
 30
0.0
  0
POINT
  8
1
  6
CONTINUOUS
 62
     7
  5
3C6
 10
7.137
 20
4.896
 30
0.0
  0
POINT
  8
1
  6
CONTINUOUS
 62
     7
  5
3C7
 10
8.037
 20
4.896
 30
0.0
  0
POINT
  8
1
  6
CONTINUOUS
 62
     7
  5
3C8
 10
8.936917
 20
4.896
 30
0.0
  0
POINT
  8
1
  6
CONTINUOUS
 62
     7
  5
3C9
 10
9.837
 20
4.896
 30
0.0
  0
POINT
  8
1
  6
CONTINUOUS
 62
     7
  5
3CA
 10
10.737
 20
4.896
 30
0.0
  0
POINT
  8
1
  6
CONTINUOUS
 62
     7
  5
3CB
 10
10.692
 20
6.066
 30
0.0
  0
POINT
  8
1
  6
CONTINUOUS
 62
     7
  5
3CC
 10
4.392
 20
6.066
 30
0.0
  0
POINT
  8
1
  6
CONTINUOUS
 62
     7
  5
3CD
 10
4.392
 20
6.966
 30
0.0
  0
POINT
  8
1
  6
CONTINUOUS
 62
     7
  5
3CE
 10
10.692
 20
7.866
 30
0.0
  0
POINT
  8
1
  6
CONTINUOUS
 62
     7
  5
3CF
 10
4.392
 20
5.166
 30
0.0
  0
POINT
  8
1
  6
CONTINUOUS
 62
     7
  5
3D0
 10
5.292
 20
5.166
 30
0.0
  0
POINT
  8
1
  6
CONTINUOUS
 62
     7
  5
3D1
 10
6.192
 20
5.166
 30
0.0
  0
POINT
  8
1
  6
CONTINUOUS
 62
     7
  5
3D2
 10
7.092
 20
5.166
 30
0.0
  0
POINT
  8
1
  6
CONTINUOUS
 62
     7
  5
3D3
 10
7.992
 20
5.166
 30
0.0
  0
POINT
  8
1
  6
CONTINUOUS
 62
     7
  5
3D4
 10
8.892
 20
5.166
 30
0.0
  0
POINT
  8
1
  6
CONTINUOUS
 62
     7
  5
3D5
 10
9.792
 20
5.166
 30
0.0
  0
POINT
  8
1
  6
CONTINUOUS
 62
     7
  5
3D6
 10
10.692
 20
5.166
 30
0.0
  0
POINT
  8
1
  6
CONTINUOUS
 62
     7
  5
3D7
 10
3.978
 20
6.318
 30
0.0
  0
POINT
  8
1
  6
CONTINUOUS
 62
     7
  5
3D8
 10
10.278
 20
6.318
 30
0.0
  0
POINT
  8
1
  6
CONTINUOUS
 62
     7
  5
3D9
 10
11.178
 20
6.318
 30
0.0
  0
POINT
  8
1
  6
CONTINUOUS
 62
     7
  5
3DA
 10
3.978
 20
7.218
 30
0.0
  0
POINT
  8
1
  6
CONTINUOUS
 62
     7
  5
3DB
 10
10.278
 20
8.118
 30
0.0
  0
POINT
  8
1
  6
CONTINUOUS
 62
     7
  5
3DC
 10
11.178
 20
8.118
 30
0.0
  0
POINT
  8
1
  6
CONTINUOUS
 62
     7
  5
3DD
 10
3.978
 20
5.418
 30
0.0
  0
POINT
  8
1
  6
CONTINUOUS
 62
     7
  5
3DE
 10
4.878
 20
5.418
 30
0.0
  0
POINT
  8
1
  6
CONTINUOUS
 62
     7
  5
3DF
 10
5.778
 20
5.418
 30
0.0
  0
POINT
  8
1
  6
CONTINUOUS
 62
     7
  5
3E0
 10
6.678
 20
5.418
 30
0.0
  0
POINT
  8
1
  6
CONTINUOUS
 62
     7
  5
3E1
 10
7.578
 20
5.418
 30
0.0
  0
POINT
  8
1
  6
CONTINUOUS
 62
     7
  5
3E2
 10
8.478
 20
5.418
 30
0.0
  0
POINT
  8
1
  6
CONTINUOUS
 62
     7
  5
3E3
 10
9.378
 20
5.418
 30
0.0
  0
POINT
  8
1
  6
CONTINUOUS
 62
     7
  5
3E4
 10
10.278
 20
5.418
 30
0.0
  0
POINT
  8
1
  6
CONTINUOUS
 62
     7
  5
3E5
 10
11.178
 20
5.418
 30
0.0
  0
ENDBLK
  8
1
  6
CONTINUOUS
 62
     7
  5
3E6
  0
BLOCK
  8
1
  6
CONTINUOUS
 62
     7
  5
3F1
  2
$X2
 70
     0
 10
0.0
 20
0.0
 30
0.0
  3
$N2
  0
POINT
  8
1
  6
CONTINUOUS
 62
     7
  5
3F2
 10
11.655
 20
7.776
 30
0.0
  0
POINT
  8
1
  6
CONTINUOUS
 62
     7
  5
3F3
 10
12.555
 20
7.776
 30
0.0
  0
POINT
  8
1
  6
CONTINUOUS
 62
     7
  5
3F4
 10
11.664
 20
7.461
 30
0.0
  0
POINT
  8
1
  6
CONTINUOUS
 62
     7
  5
3F5
 10
12.564
 20
7.461
 30
0.0
  0
POINT
  8
1
  6
CONTINUOUS
 62
     7
  5
3F6
 10
11.664
 20
8.361
 30
0.0
  0
POINT
  8
1
  6
CONTINUOUS
 62
     7
  5
3F7
 10
11.691
 20
7.947
 30
0.0
  0
LINE
  8
1
  6
CONTINUOUS
 62
     7
  5
3F8
 10
12.122917
 20
8.567917
 30
0.0
 11
12.212917
 21
8.531917
 31
0.0
  0
LINE
  8
1
  6
CONTINUOUS
 62
     7
  5
3F9
 10
12.122917
 20
7.667917
 30
0.0
 11
12.212917
 21
7.631917
 31
0.0
  0
LINE
  8
1
  6
CONTINUOUS
 62
     7
  5
3FA
 10
12.213
 20
7.632
 30
0.0
 11
12.177
 21
7.605
 31
0.0
  0
LINE
  8
1
  6
CONTINUOUS
 62
     7
  5
3FB
 10
12.213
 20
8.532
 30
0.0
 11
12.177
 21
8.505
 31
0.0
  0
LINE
  8
1
  6
CONTINUOUS
 62
     7
  5
3FC
 10
12.176917
 20
7.604917
 30
0.0
 11
12.122917
 21
7.667917
 31
0.0
  0
LINE
  8
1
  6
CONTINUOUS
 62
     7
  5
3FD
 10
12.176917
 20
8.504917
 30
0.0
 11
12.122917
 21
8.567917
 31
0.0
  0
LINE
  8
1
  6
CONTINUOUS
 62
     7
  5
3FE
 10
11.879917
 20
7.497
 30
0.0
 11
11.861917
 21
7.488
 31
0.0
  0
LINE
  8
1
  6
CONTINUOUS
 62
     7
  5
3FF
 10
11.879917
 20
8.397
 30
0.0
 11
11.861917
 21
8.388
 31
0.0
  0
LINE
  8
1
  6
CONTINUOUS
 62
     7
  5
400
 10
11.861917
 20
8.387917
 30
0.0
 11
11.888917
 21
8.369917
 31
0.0
  0
LINE
  8
1
  6
CONTINUOUS
 62
     7
  5
401
 10
11.861917
 20
7.487917
 30
0.0
 11
11.888917
 21
7.469917
 31
0.0
  0
LINE
  8
1
  6
CONTINUOUS
 62
     7
  5
402
 10
11.889
 20
8.37
 30
0.0
 11
11.88
 21
8.397
 31
0.0
  0
LINE
  8
1
  6
CONTINUOUS
 62
     7
  5
403
 10
11.889
 20
7.47
 30
0.0
 11
11.88
 21
7.497
 31
0.0
  0
LINE
  8
1
  6
CONTINUOUS
 62
     7
  5
404
 10
11.555917
 20
8.306917
 30
0.0
 11
11.528917
 21
8.279917
 31
0.0
  0
LINE
  8
1
  6
CONTINUOUS
 62
     7
  5
405
 10
12.455917
 20
8.306917
 30
0.0
 11
12.428917
 21
8.279917
 31
0.0
  0
LINE
  8
1
  6
CONTINUOUS
 62
     7
  5
406
 10
11.555917
 20
7.406917
 30
0.0
 11
11.549417
 21
7.400417
 31
0.0
  0
LINE
  8
1
  6
CONTINUOUS
 62
     7
  5
407
 10
12.455917
 20
7.406917
 30
0.0
 11
12.4495
 21
7.4005
 31
0.0
  0
LINE
  8
1
  6
CONTINUOUS
 62
     7
  5
408
 10
11.529
 20
8.279917
 30
0.0
 11
11.583
 21
8.279917
 31
0.0
  0
LINE
  8
1
  6
CONTINUOUS
 62
     7
  5
409
 10
12.429
 20
8.279917
 30
0.0
 11
12.483
 21
8.279917
 31
0.0
  0
LINE
  8
1
  6
CONTINUOUS
 62
     7
  5
40A
 10
12.462417
 20
7.4005
 30
0.0
 11
12.456
 21
7.406917
 31
0.0
  0
LINE
  8
1
  6
CONTINUOUS
 62
     7
  5
40B
 10
11.583
 20
8.279917
 30
0.0
 11
11.556
 21
8.306917
 31
0.0
  0
LINE
  8
1
  6
CONTINUOUS
 62
     7
  5
40C
 10
11.5625
 20
7.400417
 30
0.0
 11
11.556
 21
7.406917
 31
0.0
  0
LINE
  8
1
  6
CONTINUOUS
 62
     7
  5
40D
 10
12.483
 20
8.279917
 30
0.0
 11
12.456
 21
8.306917
 31
0.0
  0
LINE
  8
1
  6
CONTINUOUS
 62
     7
  5
40E
 10
12.347917
 20
7.982917
 30
0.0
 11
12.338917
 21
7.955917
 31
0.0
  0
LINE
  8
1
  6
CONTINUOUS
 62
     7
  5
40F
 10
11.447917
 20
7.982917
 30
0.0
 11
11.438917
 21
7.955917
 31
0.0
  0
LINE
  8
1
  6
CONTINUOUS
 62
     7
  5
410
 10
11.439
 20
7.956
 30
0.0
 11
11.484
 21
7.956
 31
0.0
  0
LINE
  8
1
  6
CONTINUOUS
 62
     7
  5
411
 10
12.339
 20
7.956
 30
0.0
 11
12.384
 21
7.956
 31
0.0
  0
LINE
  8
1
  6
CONTINUOUS
 62
     7
  5
412
 10
11.484
 20
7.956
 30
0.0
 11
11.448
 21
7.983
 31
0.0
  0
LINE
  8
1
  6
CONTINUOUS
 62
     7
  5
413
 10
12.384
 20
7.956
 30
0.0
 11
12.348
 21
7.983
 31
0.0
  0
LINE
  8
1
  6
CONTINUOUS
 62
     7
  5
414
 10
11.870917
 20
7.992
 30
0.0
 11
11.843917
 21
7.974
 31
0.0
  0
LINE
  8
1
  6
CONTINUOUS
 62
     7
  5
415
 10
11.844
 20
7.974
 30
0.0
 11
11.898
 21
7.956
 31
0.0
  0
LINE
  8
1
  6
CONTINUOUS
 62
     7
  5
416
 10
11.898
 20
7.956
 30
0.0
 11
11.871
 21
7.992
 31
0.0
  0
POINT
  8
1
  6
CONTINUOUS
 62
     7
  5
417
 10
12.132
 20
7.956
 30
0.0
  0
POINT
  8
1
  6
CONTINUOUS
 62
     7
  5
418
 10
11.889
 20
7.722
 30
0.0
  0
POINT
  8
1
  6
CONTINUOUS
 62
     7
  5
419
 10
11.889
 20
8.622
 30
0.0
  0
POINT
  8
1
  6
CONTINUOUS
 62
     7
  5
41A
 10
12.141
 20
8.289
 30
0.0
  0
POINT
  8
1
  6
CONTINUOUS
 62
     7
  5
41B
 10
11.484
 20
7.668
 30
0.0
  0
POINT
  8
1
  6
CONTINUOUS
 62
     7
  5
41C
 10
12.384
 20
7.668
 30
0.0
  0
POINT
  8
1
  6
CONTINUOUS
 62
     7
  5
41D
 10
11.484
 20
8.568
 30
0.0
  0
POINT
  8
1
  6
CONTINUOUS
 62
     7
  5
41E
 10
12.384
 20
8.568
 30
0.0
  0
POINT
  8
1
  6
CONTINUOUS
 62
     7
  5
41F
 10
12.123
 20
7.821
 30
0.0
  0
POINT
  8
1
  6
CONTINUOUS
 62
     7
  5
420
 10
11.925
 20
7.848
 30
0.0
  0
POINT
  8
1
  6
CONTINUOUS
 62
     7
  5
421
 10
12.006
 20
7.794
 30
0.0
  0
POINT
  8
1
  6
CONTINUOUS
 62
     7
  5
422
 10
11.97
 20
7.578
 30
0.0
  0
POINT
  8
1
  6
CONTINUOUS
 62
     7
  5
423
 10
11.97
 20
8.478
 30
0.0
  0
POINT
  8
1
  6
CONTINUOUS
 62
     7
  5
424
 10
11.754
 20
7.614
 30
0.0
  0
POINT
  8
1
  6
CONTINUOUS
 62
     7
  5
425
 10
11.754
 20
8.513917
 30
0.0
  0
POINT
  8
1
  6
CONTINUOUS
 62
     7
  5
426
 10
11.763
 20
7.821
 30
0.0
  0
POINT
  8
1
  6
CONTINUOUS
 62
     7
  5
427
 10
11.736
 20
8.019
 30
0.0
  0
POINT
  8
1
  6
CONTINUOUS
 62
     7
  5
428
 10
12.015
 20
8.055
 30
0.0
  0
POINT
  8
1
  6
CONTINUOUS
 62
     7
  5
429
 10
12.213
 20
8.090917
 30
0.0
  0
POINT
  8
1
  6
CONTINUOUS
 62
     7
  5
42A
 10
11.628
 20
8.055
 30
0.0
  0
POINT
  8
1
  6
CONTINUOUS
 62
     7
  5
42B
 10
12.528
 20
8.055
 30
0.0
  0
POINT
  8
1
  6
CONTINUOUS
 62
     7
  5
42C
 10
11.412
 20
7.776
 30
0.0
  0
POINT
  8
1
  6
CONTINUOUS
 62
     7
  5
42D
 10
12.312
 20
7.776
 30
0.0
  0
POINT
  8
1
  6
CONTINUOUS
 62
     7
  5
42E
 10
12.222
 20
7.938
 30
0.0
  0
POINT
  8
1
  6
CONTINUOUS
 62
     7
  5
42F
 10
11.394
 20
7.506
 30
0.0
  0
POINT
  8
1
  6
CONTINUOUS
 62
     7
  5
430
 10
12.294
 20
7.506
 30
0.0
  0
POINT
  8
1
  6
CONTINUOUS
 62
     7
  5
431
 10
11.394
 20
8.406
 30
0.0
  0
POINT
  8
1
  6
CONTINUOUS
 62
     7
  5
432
 10
12.294
 20
8.406
 30
0.0
  0
POINT
  8
1
  6
CONTINUOUS
 62
     7
  5
433
 10
12.024
 20
7.461
 30
0.0
  0
POINT
  8
1
  6
CONTINUOUS
 62
     7
  5
434
 10
12.024
 20
8.361
 30
0.0
  0
POINT
  8
1
  6
CONTINUOUS
 62
     7
  5
435
 10
11.394
 20
8.163
 30
0.0
  0
POINT
  8
1
  6
CONTINUOUS
 62
     7
  5
436
 10
12.294
 20
8.163
 30
0.0
  0
POINT
  8
1
  6
CONTINUOUS
 62
     7
  5
437
 10
11.997
 20
8.217
 30
0.0
  0
POINT
  8
1
  6
CONTINUOUS
 62
     7
  5
438
 10
11.709
 20
8.19
 30
0.0
  0
POINT
  8
1
  6
CONTINUOUS
 62
     7
  5
439
 10
12.609
 20
8.19
 30
0.0
  0
POINT
  8
1
  6
CONTINUOUS
 62
     7
  5
43A
 10
11.817
 20
8.145
 30
0.0
  0
POINT
  8
1
  6
CONTINUOUS
 62
     7
  5
43B
 10
11.817
 20
8.145
 30
0.0
  0
POINT
  8
1
  6
CONTINUOUS
 62
     7
  5
43C
 10
11.826
 20
8.271
 30
0.0
  0
POINT
  8
1
  6
CONTINUOUS
 62
     7
  5
43D
 10
11.529
 20
8.127
 30
0.0
  0
POINT
  8
1
  6
CONTINUOUS
 62
     7
  5
43E
 10
12.429
 20
8.127
 30
0.0
  0
POINT
  8
1
  6
CONTINUOUS
 62
     7
  5
43F
 10
11.637
 20
7.596
 30
0.0
  0
POINT
  8
1
  6
CONTINUOUS
 62
     7
  5
440
 10
12.537
 20
7.596
 30
0.0
  0
POINT
  8
1
  6
CONTINUOUS
 62
     7
  5
441
 10
11.637
 20
8.496
 30
0.0
  0
POINT
  8
1
  6
CONTINUOUS
 62
     7
  5
442
 10
12.537
 20
8.496
 30
0.0
  0
POINT
  8
1
  6
CONTINUOUS
 62
     7
  5
443
 10
11.592
 20
7.866
 30
0.0
  0
POINT
  8
1
  6
CONTINUOUS
 62
     7
  5
444
 10
12.492
 20
7.866
 30
0.0
  0
POINT
  8
1
  6
CONTINUOUS
 62
     7
  5
445
 10
12.078
 20
8.118
 30
0.0
  0
ENDBLK
  8
1
  6
CONTINUOUS
 62
     7
  5
446
  0
BLOCK
  8
1
  6
CONTINUOUS
 62
     7
  5
449
  2
$X3
 70
     0
 10
0.0
 20
0.0
 30
0.0
  3
$N3
  0
LINE
  8
1
  6
CONTINUOUS
 62
     7
  5
44A
 10
11.256833
 20
8.552167
 30
0.0
 11
11.33975
 21
8.635083
 31
0.0
  0
LINE
  8
1
  6
CONTINUOUS
 62
     7
  5
44B
 10
11.256833
 20
8.71125
 30
0.0
 11
11.33975
 21
8.794167
 31
0.0
  0
LINE
  8
1
  6
CONTINUOUS
 62
     7
  5
44C
 10
11.256833
 20
8.870417
 30
0.0
 11
11.33975
 21
8.953333
 31
0.0
  0
LINE
  8
1
  6
CONTINUOUS
 62
     7
  5
44D
 10
11.256833
 20
9.0295
 30
0.0
 11
11.33975
 21
9.112417
 31
0.0
  0
LINE
  8
1
  6
CONTINUOUS
 62
     7
  5
44E
 10
11.256833
 20
9.188583
 30
0.0
 11
11.33975
 21
9.2715
 31
0.0
  0
ENDBLK
  8
1
  6
CONTINUOUS
 62
     7
  5
44F
  0
BLOCK
  8
1
  6
CONTINUOUS
 62
     7
  5
452
  2
$X4
 70
     0
 10
0.0
 20
0.0
 30
0.0
  3
$N4
  0
LINE
  8
1
  6
CONTINUOUS
 62
     7
  5
453
 10
11.256833
 20
8.074917
 30
0.0
 11
11.33975
 21
8.157833
 31
0.0
  0
LINE
  8
1
  6
CONTINUOUS
 62
     7
  5
454
 10
11.256833
 20
8.234
 30
0.0
 11
11.33975
 21
8.316917
 31
0.0
  0
LINE
  8
1
  6
CONTINUOUS
 62
     7
  5
455
 10
11.256833
 20
8.393083
 30
0.0
 11
11.33975
 21
8.476
 31
0.0
  0
LINE
  8
1
  6
CONTINUOUS
 62
     7
  5
456
 10
11.256833
 20
7.91575
 30
0.0
 11
11.33975
 21
7.99875
 31
0.0
  0
LINE
  8
1
  6
CONTINUOUS
 62
     7
  5
457
 10
11.256833
 20
7.756667
 30
0.0
 11
11.33975
 21
7.839583
 31
0.0
  0
LINE
  8
1
  6
CONTINUOUS
 62
     7
  5
458
 10
11.256833
 20
7.597583
 30
0.0
 11
11.33975
 21
7.6805
 31
0.0
  0
LINE
  8
1
  6
CONTINUOUS
 62
     7
  5
459
 10
11.256833
 20
7.4385
 30
0.0
 11
11.33975
 21
7.521417
 31
0.0
  0
ENDBLK
  8
1
  6
CONTINUOUS
 62
     7
  5
45A
  0
BLOCK
  8
1
  6
CONTINUOUS
 62
     7
  5
6BB
  2
$X6
 70
     0
 10
0.0
 20
0.0
 30
0.0
  3
$N6
  0
POINT
  8
1
  6
CONTINUOUS
 62
     7
  5
6BC
 10
23.355
 20
17.675917
 30
0.0
  0
POINT
  8
1
  6
CONTINUOUS
 62
     7
  5
6BD
 10
23.364
 20
17.361
 30
0.0
  0
POINT
  8
1
  6
CONTINUOUS
 62
     7
  5
6BE
 10
23.364
 20
18.261
 30
0.0
  0
POINT
  8
1
  6
CONTINUOUS
 62
     7
  5
6BF
 10
23.391
 20
17.847
 30
0.0
  0
LINE
  8
1
  6
CONTINUOUS
 62
     7
  5
6C0
 10
22.9995
 20
18.43725
 30
0.0
 11
23.012917
 21
18.431917
 31
0.0
  0
LINE
  8
1
  6
CONTINUOUS
 62
     7
  5
6C1
 10
22.922917
 20
17.567917
 30
0.0
 11
23.012917
 21
17.531917
 31
0.0
  0
LINE
  8
1
  6
CONTINUOUS
 62
     7
  5
6C2
 10
23.012917
 20
17.532
 30
0.0
 11
22.976917
 21
17.505
 31
0.0
  0
LINE
  8
1
  6
CONTINUOUS
 62
     7
  5
6C3
 10
23.012917
 20
18.432
 30
0.0
 11
22.976917
 21
18.405
 31
0.0
  0
LINE
  8
1
  6
CONTINUOUS
 62
     7
  5
6C4
 10
22.976917
 20
17.504917
 30
0.0
 11
22.922917
 21
17.567917
 31
0.0
  0
LINE
  8
1
  6
CONTINUOUS
 62
     7
  5
6C5
 10
22.976917
 20
18.404917
 30
0.0
 11
22.949167
 21
18.43725
 31
0.0
  0
LINE
  8
1
  6
CONTINUOUS
 62
     7
  5
6C6
 10
22.679917
 20
17.397
 30
0.0
 11
22.661917
 21
17.388
 31
0.0
  0
LINE
  8
1
  6
CONTINUOUS
 62
     7
  5
6C7
 10
23.579917
 20
17.397
 30
0.0
 11
23.561917
 21
17.388
 31
0.0
  0
LINE
  8
1
  6
CONTINUOUS
 62
     7
  5
6C8
 10
23.579917
 20
18.297
 30
0.0
 11
23.561917
 21
18.288
 31
0.0
  0
LINE
  8
1
  6
CONTINUOUS
 62
     7
  5
6C9
 10
22.679917
 20
18.297
 30
0.0
 11
22.661917
 21
18.288
 31
0.0
  0
LINE
  8
1
  6
CONTINUOUS
 62
     7
  5
6CA
 10
23.561917
 20
17.387917
 30
0.0
 11
23.588917
 21
17.369917
 31
0.0
  0
LINE
  8
1
  6
CONTINUOUS
 62
     7
  5
6CB
 10
22.661917
 20
18.287917
 30
0.0
 11
22.688917
 21
18.269917
 31
0.0
  0
LINE
  8
1
  6
CONTINUOUS
 62
     7
  5
6CC
 10
23.561917
 20
18.287917
 30
0.0
 11
23.588917
 21
18.269917
 31
0.0
  0
LINE
  8
1
  6
CONTINUOUS
 62
     7
  5
6CD
 10
22.661917
 20
17.387917
 30
0.0
 11
22.688917
 21
17.369917
 31
0.0
  0
LINE
  8
1
  6
CONTINUOUS
 62
     7
  5
6CE
 10
22.689
 20
18.27
 30
0.0
 11
22.68
 21
18.297
 31
0.0
  0
LINE
  8
1
  6
CONTINUOUS
 62
     7
  5
6CF
 10
22.689
 20
17.37
 30
0.0
 11
22.68
 21
17.397
 31
0.0
  0
LINE
  8
1
  6
CONTINUOUS
 62
     7
  5
6D0
 10
23.589
 20
17.37
 30
0.0
 11
23.58
 21
17.397
 31
0.0
  0
LINE
  8
1
  6
CONTINUOUS
 62
     7
  5
6D1
 10
23.589
 20
18.27
 30
0.0
 11
23.58
 21
18.297
 31
0.0
  0
LINE
  8
1
  6
CONTINUOUS
 62
     7
  5
6D2
 10
23.255917
 20
18.206917
 30
0.0
 11
23.228917
 21
18.179917
 31
0.0
  0
LINE
  8
1
  6
CONTINUOUS
 62
     7
  5
6D3
 10
23.255917
 20
17.306917
 30
0.0
 11
23.228917
 21
17.279917
 31
0.0
  0
LINE
  8
1
  6
CONTINUOUS
 62
     7
  5
6D4
 10
23.229
 20
17.28
 30
0.0
 11
23.283
 21
17.28
 31
0.0
  0
LINE
  8
1
  6
CONTINUOUS
 62
     7
  5
6D5
 10
23.229
 20
18.18
 30
0.0
 11
23.283
 21
18.18
 31
0.0
  0
LINE
  8
1
  6
CONTINUOUS
 62
     7
  5
6D6
 10
23.283
 20
17.279917
 30
0.0
 11
23.256
 21
17.306917
 31
0.0
  0
LINE
  8
1
  6
CONTINUOUS
 62
     7
  5
6D7
 10
23.283
 20
18.179917
 30
0.0
 11
23.256
 21
18.206917
 31
0.0
  0
LINE
  8
1
  6
CONTINUOUS
 62
     7
  5
6D8
 10
23.147917
 20
17.882917
 30
0.0
 11
23.138917
 21
17.855917
 31
0.0
  0
LINE
  8
1
  6
CONTINUOUS
 62
     7
  5
6D9
 10
23.139
 20
17.856
 30
0.0
 11
23.184
 21
17.856
 31
0.0
  0
LINE
  8
1
  6
CONTINUOUS
 62
     7
  5
6DA
 10
23.184
 20
17.855917
 30
0.0
 11
23.148
 21
17.882917
 31
0.0
  0
LINE
  8
1
  6
CONTINUOUS
 62
     7
  5
6DB
 10
23.570917
 20
17.892
 30
0.0
 11
23.543917
 21
17.874
 31
0.0
  0
LINE
  8
1
  6
CONTINUOUS
 62
     7
  5
6DC
 10
22.670917
 20
17.892
 30
0.0
 11
22.643917
 21
17.874
 31
0.0
  0
LINE
  8
1
  6
CONTINUOUS
 62
     7
  5
6DD
 10
22.644
 20
17.874
 30
0.0
 11
22.698
 21
17.856
 31
0.0
  0
LINE
  8
1
  6
CONTINUOUS
 62
     7
  5
6DE
 10
23.544
 20
17.874
 30
0.0
 11
23.598
 21
17.856
 31
0.0
  0
LINE
  8
1
  6
CONTINUOUS
 62
     7
  5
6DF
 10
22.697917
 20
17.856
 30
0.0
 11
22.670917
 21
17.892
 31
0.0
  0
LINE
  8
1
  6
CONTINUOUS
 62
     7
  5
6E0
 10
23.597917
 20
17.856
 30
0.0
 11
23.570917
 21
17.892
 31
0.0
  0
POINT
  8
1
  6
CONTINUOUS
 62
     7
  5
6E1
 10
22.932
 20
17.856
 30
0.0
  0
POINT
  8
1
  6
CONTINUOUS
 62
     7
  5
6E2
 10
22.689
 20
17.622
 30
0.0
  0
POINT
  8
1
  6
CONTINUOUS
 62
     7
  5
6E3
 10
23.589
 20
17.622
 30
0.0
  0
POINT
  8
1
  6
CONTINUOUS
 62
     7
  5
6E4
 10
22.941
 20
17.289
 30
0.0
  0
POINT
  8
1
  6
CONTINUOUS
 62
     7
  5
6E5
 10
22.941
 20
18.189
 30
0.0
  0
POINT
  8
1
  6
CONTINUOUS
 62
     7
  5
6E6
 10
23.184
 20
17.568
 30
0.0
  0
POINT
  8
1
  6
CONTINUOUS
 62
     7
  5
6E7
 10
22.923
 20
17.721
 30
0.0
  0
POINT
  8
1
  6
CONTINUOUS
 62
     7
  5
6E8
 10
22.725
 20
17.748
 30
0.0
  0
POINT
  8
1
  6
CONTINUOUS
 62
     7
  5
6E9
 10
23.625
 20
17.748
 30
0.0
  0
POINT
  8
1
  6
CONTINUOUS
 62
     7
  5
6EA
 10
22.806
 20
17.694
 30
0.0
  0
POINT
  8
1
  6
CONTINUOUS
 62
     7
  5
6EB
 10
23.706
 20
17.694
 30
0.0
  0
POINT
  8
1
  6
CONTINUOUS
 62
     7
  5
6EC
 10
22.77
 20
17.478
 30
0.0
  0
POINT
  8
1
  6
CONTINUOUS
 62
     7
  5
6ED
 10
23.67
 20
17.478
 30
0.0
  0
POINT
  8
1
  6
CONTINUOUS
 62
     7
  5
6EE
 10
22.77
 20
18.378
 30
0.0
  0
POINT
  8
1
  6
CONTINUOUS
 62
     7
  5
6EF
 10
23.67
 20
18.378
 30
0.0
  0
POINT
  8
1
  6
CONTINUOUS
 62
     7
  5
6F0
 10
22.554
 20
17.514
 30
0.0
  0
POINT
  8
1
  6
CONTINUOUS
 62
     7
  5
6F1
 10
23.454
 20
17.514
 30
0.0
  0
POINT
  8
1
  6
CONTINUOUS
 62
     7
  5
6F2
 10
22.554
 20
18.414
 30
0.0
  0
POINT
  8
1
  6
CONTINUOUS
 62
     7
  5
6F3
 10
23.454
 20
18.414
 30
0.0
  0
POINT
  8
1
  6
CONTINUOUS
 62
     7
  5
6F4
 10
22.563
 20
17.721
 30
0.0
  0
POINT
  8
1
  6
CONTINUOUS
 62
     7
  5
6F5
 10
23.463
 20
17.721
 30
0.0
  0
POINT
  8
1
  6
CONTINUOUS
 62
     7
  5
6F6
 10
22.536
 20
17.919
 30
0.0
  0
POINT
  8
1
  6
CONTINUOUS
 62
     7
  5
6F7
 10
23.436
 20
17.919
 30
0.0
  0
POINT
  8
1
  6
CONTINUOUS
 62
     7
  5
6F8
 10
22.815
 20
17.954917
 30
0.0
  0
POINT
  8
1
  6
CONTINUOUS
 62
     7
  5
6F9
 10
23.013
 20
17.991
 30
0.0
  0
POINT
  8
1
  6
CONTINUOUS
 62
     7
  5
6FA
 10
23.328
 20
17.954917
 30
0.0
  0
POINT
  8
1
  6
CONTINUOUS
 62
     7
  5
6FB
 10
23.112
 20
17.675917
 30
0.0
  0
POINT
  8
1
  6
CONTINUOUS
 62
     7
  5
6FC
 10
23.022
 20
17.838
 30
0.0
  0
POINT
  8
1
  6
CONTINUOUS
 62
     7
  5
6FD
 10
23.094
 20
17.406
 30
0.0
  0
POINT
  8
1
  6
CONTINUOUS
 62
     7
  5
6FE
 10
23.094
 20
18.306
 30
0.0
  0
POINT
  8
1
  6
CONTINUOUS
 62
     7
  5
6FF
 10
22.824
 20
17.361
 30
0.0
  0
POINT
  8
1
  6
CONTINUOUS
 62
     7
  5
700
 10
23.724
 20
17.361
 30
0.0
  0
POINT
  8
1
  6
CONTINUOUS
 62
     7
  5
701
 10
22.824
 20
18.261
 30
0.0
  0
POINT
  8
1
  6
CONTINUOUS
 62
     7
  5
702
 10
23.094
 20
18.063
 30
0.0
  0
POINT
  8
1
  6
CONTINUOUS
 62
     7
  5
703
 10
22.797
 20
18.117
 30
0.0
  0
POINT
  8
1
  6
CONTINUOUS
 62
     7
  5
704
 10
23.697
 20
18.117
 30
0.0
  0
POINT
  8
1
  6
CONTINUOUS
 62
     7
  5
705
 10
23.697
 20
18.117
 30
0.0
  0
POINT
  8
1
  6
CONTINUOUS
 62
     7
  5
706
 10
23.409
 20
18.09
 30
0.0
  0
POINT
  8
1
  6
CONTINUOUS
 62
     7
  5
707
 10
22.617
 20
18.045
 30
0.0
  0
POINT
  8
1
  6
CONTINUOUS
 62
     7
  5
708
 10
23.517
 20
18.045
 30
0.0
  0
POINT
  8
1
  6
CONTINUOUS
 62
     7
  5
709
 10
22.626
 20
17.271
 30
0.0
  0
POINT
  8
1
  6
CONTINUOUS
 62
     7
  5
70A
 10
23.526
 20
17.271
 30
0.0
  0
POINT
  8
1
  6
CONTINUOUS
 62
     7
  5
70B
 10
22.626
 20
18.171
 30
0.0
  0
POINT
  8
1
  6
CONTINUOUS
 62
     7
  5
70C
 10
23.526
 20
18.171
 30
0.0
  0
POINT
  8
1
  6
CONTINUOUS
 62
     7
  5
70D
 10
23.229
 20
18.027
 30
0.0
  0
POINT
  8
1
  6
CONTINUOUS
 62
     7
  5
70E
 10
23.337
 20
17.495917
 30
0.0
  0
POINT
  8
1
  6
CONTINUOUS
 62
     7
  5
70F
 10
23.337
 20
18.396
 30
0.0
  0
POINT
  8
1
  6
CONTINUOUS
 62
     7
  5
710
 10
23.292
 20
17.765917
 30
0.0
  0
POINT
  8
1
  6
CONTINUOUS
 62
     7
  5
711
 10
22.878
 20
18.018
 30
0.0
  0
ENDBLK
  8
1
  6
CONTINUOUS
 62
     7
  5
712
  0
BLOCK
  8
1
  6
CONTINUOUS
 62
     7
  5
715
  2
$X7
 70
     0
 10
0.0
 20
0.0
 30
0.0
  3
$N7
  0
LINE
  8
1
  6
CONTINUOUS
 62
     7
  5
716
 10
22.432917
 20
17.819
 30
0.0
 11
22.525333
 21
17.9115
 31
0.0
  0
LINE
  8
1
  6
CONTINUOUS
 62
     7
  5
717
 10
22.432917
 20
17.978167
 30
0.0
 11
22.525333
 21
18.070583
 31
0.0
  0
LINE
  8
1
  6
CONTINUOUS
 62
     7
  5
718
 10
22.432917
 20
18.13725
 30
0.0
 11
22.525333
 21
18.229667
 31
0.0
  0
LINE
  8
1
  6
CONTINUOUS
 62
     7
  5
719
 10
22.432917
 20
18.296333
 30
0.0
 11
22.525333
 21
18.38875
 31
0.0
  0
LINE
  8
1
  6
CONTINUOUS
 62
     7
  5
71A
 10
22.432917
 20
17.659917
 30
0.0
 11
22.525333
 21
17.752333
 31
0.0
  0
LINE
  8
1
  6
CONTINUOUS
 62
     7
  5
71B
 10
22.432917
 20
17.500833
 30
0.0
 11
22.525333
 21
17.59325
 31
0.0
  0
LINE
  8
1
  6
CONTINUOUS
 62
     7
  5
71C
 10
22.432917
 20
17.34175
 30
0.0
 11
22.525333
 21
17.434167
 31
0.0
  0
LINE
  8
1
  6
CONTINUOUS
 62
     7
  5
71D
 10
22.5165
 20
17.26625
 30
0.0
 11
22.525333
 21
17.275083
 31
0.0
  0
ENDBLK
  8
1
  6
CONTINUOUS
 62
     7
  5
71E
  0
BLOCK
  8
1
  6
CONTINUOUS
 62
     7
  5
72D
  2
BREAK
 70
     0
 10
0.0
 20
0.0
 30
0.0
  3
BREAK
  0
LINE
  8
1
  6
CONTINUOUS
 62
     7
  5
72E
 10
2.999917
 20
-5.199917
 30
0.0
 11
5.999917
 21
0.0
 31
0.0
  0
LINE
  8
1
  6
CONTINUOUS
 62
     7
  5
72F
 10
-2.999917
 20
5.199917
 30
0.0
 11
2.999917
 21
-5.199917
 31
0.0
  0
LINE
  8
1
  6
CONTINUOUS
 62
     7
  5
730
 10
-5.999917
 20
0.0
 30
0.0
 11
-2.999917
 21
5.199917
 31
0.0
  0
ENDBLK
  8
1
  6
CONTINUOUS
 62
     7
  5
731
  0
BLOCK
  8
1
  6
CONTINUOUS
 62
     7
  5
73A
  2
$X9
 70
     0
 10
0.0
 20
0.0
 30
0.0
  3
$N9
  0
POINT
  8
1
  6
CONTINUOUS
 62
     7
  5
73B
 10
20.655
 20
7.776
 30
0.0
  0
POINT
  8
1
  6
CONTINUOUS
 62
     7
  5
73C
 10
20.664
 20
7.461
 30
0.0
  0
POINT
  8
1
  6
CONTINUOUS
 62
     7
  5
73D
 10
20.664
 20
8.361
 30
0.0
  0
POINT
  8
1
  6
CONTINUOUS
 62
     7
  5
73E
 10
20.691
 20
7.947
 30
0.0
  0
LINE
  8
1
  6
CONTINUOUS
 62
     7
  5
73F
 10
20.223
 20
7.667917
 30
0.0
 11
20.312917
 21
7.631917
 31
0.0
  0
LINE
  8
1
  6
CONTINUOUS
 62
     7
  5
740
 10
20.313
 20
7.632
 30
0.0
 11
20.277
 21
7.605
 31
0.0
  0
LINE
  8
1
  6
CONTINUOUS
 62
     7
  5
741
 10
20.276917
 20
7.604917
 30
0.0
 11
20.222917
 21
7.667917
 31
0.0
  0
LINE
  8
1
  6
CONTINUOUS
 62
     7
  5
742
 10
20.879917
 20
8.397
 30
0.0
 11
20.861917
 21
8.388
 31
0.0
  0
LINE
  8
1
  6
CONTINUOUS
 62
     7
  5
743
 10
20.879917
 20
7.497
 30
0.0
 11
20.861917
 21
7.488
 31
0.0
  0
LINE
  8
1
  6
CONTINUOUS
 62
     7
  5
744
 10
20.861917
 20
7.487917
 30
0.0
 11
20.888917
 21
7.469917
 31
0.0
  0
LINE
  8
1
  6
CONTINUOUS
 62
     7
  5
745
 10
20.861917
 20
8.387917
 30
0.0
 11
20.888917
 21
8.369917
 31
0.0
  0
LINE
  8
1
  6
CONTINUOUS
 62
     7
  5
746
 10
20.889
 20
7.47
 30
0.0
 11
20.88
 21
7.497
 31
0.0
  0
LINE
  8
1
  6
CONTINUOUS
 62
     7
  5
747
 10
20.889
 20
8.37
 30
0.0
 11
20.88
 21
8.397
 31
0.0
  0
LINE
  8
1
  6
CONTINUOUS
 62
     7
  5
748
 10
20.555917
 20
8.306917
 30
0.0
 11
20.528917
 21
8.279917
 31
0.0
  0
LINE
  8
1
  6
CONTINUOUS
 62
     7
  5
749
 10
20.555917
 20
7.406917
 30
0.0
 11
20.528917
 21
7.379917
 31
0.0
  0
LINE
  8
1
  6
CONTINUOUS
 62
     7
  5
74A
 10
20.529
 20
7.38
 30
0.0
 11
20.582917
 21
7.38
 31
0.0
  0
LINE
  8
1
  6
CONTINUOUS
 62
     7
  5
74B
 10
20.529
 20
8.279917
 30
0.0
 11
20.582917
 21
8.279917
 31
0.0
  0
LINE
  8
1
  6
CONTINUOUS
 62
     7
  5
74C
 10
20.583
 20
7.379917
 30
0.0
 11
20.556
 21
7.406917
 31
0.0
  0
LINE
  8
1
  6
CONTINUOUS
 62
     7
  5
74D
 10
20.583
 20
8.279917
 30
0.0
 11
20.556
 21
8.306917
 31
0.0
  0
LINE
  8
1
  6
CONTINUOUS
 62
     7
  5
74E
 10
20.447917
 20
7.982917
 30
0.0
 11
20.438917
 21
7.955917
 31
0.0
  0
LINE
  8
1
  6
CONTINUOUS
 62
     7
  5
74F
 10
20.439
 20
7.956
 30
0.0
 11
20.484
 21
7.956
 31
0.0
  0
LINE
  8
1
  6
CONTINUOUS
 62
     7
  5
750
 10
20.484
 20
7.955917
 30
0.0
 11
20.448
 21
7.982917
 31
0.0
  0
LINE
  8
1
  6
CONTINUOUS
 62
     7
  5
751
 10
20.870917
 20
7.992
 30
0.0
 11
20.843917
 21
7.974
 31
0.0
  0
LINE
  8
1
  6
CONTINUOUS
 62
     7
  5
752
 10
20.844
 20
7.974
 30
0.0
 11
20.898
 21
7.956
 31
0.0
  0
LINE
  8
1
  6
CONTINUOUS
 62
     7
  5
753
 10
20.898
 20
7.956
 30
0.0
 11
20.870917
 21
7.992
 31
0.0
  0
POINT
  8
1
  6
CONTINUOUS
 62
     7
  5
754
 10
20.889
 20
7.722
 30
0.0
  0
POINT
  8
1
  6
CONTINUOUS
 62
     7
  5
755
 10
20.889
 20
8.622
 30
0.0
  0
POINT
  8
1
  6
CONTINUOUS
 62
     7
  5
756
 10
20.241
 20
7.389
 30
0.0
  0
POINT
  8
1
  6
CONTINUOUS
 62
     7
  5
757
 10
20.484
 20
7.668
 30
0.0
  0
POINT
  8
1
  6
CONTINUOUS
 62
     7
  5
758
 10
20.484
 20
8.568
 30
0.0
  0
POINT
  8
1
  6
CONTINUOUS
 62
     7
  5
759
 10
20.223
 20
7.821
 30
0.0
  0
POINT
  8
1
  6
CONTINUOUS
 62
     7
  5
75A
 10
20.925
 20
7.848
 30
0.0
  0
POINT
  8
1
  6
CONTINUOUS
 62
     7
  5
75B
 10
21.006
 20
7.794
 30
0.0
  0
POINT
  8
1
  6
CONTINUOUS
 62
     7
  5
75C
 10
20.97
 20
7.578
 30
0.0
  0
POINT
  8
1
  6
CONTINUOUS
 62
     7
  5
75D
 10
20.97
 20
8.478
 30
0.0
  0
POINT
  8
1
  6
CONTINUOUS
 62
     7
  5
75E
 10
20.754
 20
7.614
 30
0.0
  0
POINT
  8
1
  6
CONTINUOUS
 62
     7
  5
75F
 10
20.754
 20
8.513917
 30
0.0
  0
POINT
  8
1
  6
CONTINUOUS
 62
     7
  5
760
 10
20.763
 20
7.821
 30
0.0
  0
POINT
  8
1
  6
CONTINUOUS
 62
     7
  5
761
 10
20.736
 20
8.019
 30
0.0
  0
POINT
  8
1
  6
CONTINUOUS
 62
     7
  5
762
 10
21.015
 20
8.055
 30
0.0
  0
POINT
  8
1
  6
CONTINUOUS
 62
     7
  5
763
 10
20.628
 20
8.055
 30
0.0
  0
POINT
  8
1
  6
CONTINUOUS
 62
     7
  5
764
 10
20.412
 20
7.776
 30
0.0
  0
POINT
  8
1
  6
CONTINUOUS
 62
     7
  5
765
 10
20.393917
 20
7.506
 30
0.0
  0
POINT
  8
1
  6
CONTINUOUS
 62
     7
  5
766
 10
20.123917
 20
7.461
 30
0.0
  0
POINT
  8
1
  6
CONTINUOUS
 62
     7
  5
767
 10
21.024
 20
7.461
 30
0.0
  0
POINT
  8
1
  6
CONTINUOUS
 62
     7
  5
768
 10
21.024
 20
8.361
 30
0.0
  0
POINT
  8
1
  6
CONTINUOUS
 62
     7
  5
769
 10
20.393917
 20
7.263
 30
0.0
  0
POINT
  8
1
  6
CONTINUOUS
 62
     7
  5
76A
 10
20.997
 20
7.317
 30
0.0
  0
POINT
  8
1
  6
CONTINUOUS
 62
     7
  5
76B
 10
20.997
 20
8.217
 30
0.0
  0
POINT
  8
1
  6
CONTINUOUS
 62
     7
  5
76C
 10
20.709
 20
7.29
 30
0.0
  0
POINT
  8
1
  6
CONTINUOUS
 62
     7
  5
76D
 10
20.709
 20
8.19
 30
0.0
  0
POINT
  8
1
  6
CONTINUOUS
 62
     7
  5
76E
 10
20.817
 20
8.145
 30
0.0
  0
POINT
  8
1
  6
CONTINUOUS
 62
     7
  5
76F
 10
20.826
 20
7.371
 30
0.0
  0
POINT
  8
1
  6
CONTINUOUS
 62
     7
  5
770
 10
20.826
 20
8.271
 30
0.0
  0
POINT
  8
1
  6
CONTINUOUS
 62
     7
  5
771
 10
20.529
 20
8.127
 30
0.0
  0
POINT
  8
1
  6
CONTINUOUS
 62
     7
  5
772
 10
20.637
 20
7.596
 30
0.0
  0
POINT
  8
1
  6
CONTINUOUS
 62
     7
  5
773
 10
20.637
 20
8.496
 30
0.0
  0
POINT
  8
1
  6
CONTINUOUS
 62
     7
  5
774
 10
20.591917
 20
7.866
 30
0.0
  0
POINT
  8
1
  6
CONTINUOUS
 62
     7
  5
775
 10
21.078
 20
8.118
 30
0.0
  0
ENDBLK
  8
1
  6
CONTINUOUS
 62
     7
  5
776
  0
ENDSEC
  0
SECTION
  2
ENTITIES
  0
LINE
  8
1
  6
CONTINUOUS
 62
   233
  5
29
 10
96.806083
 20
57.138583
 30
0.0
 11
107.141083
 21
57.138583
 31
0.0
  0
LINE
  8
1
  6
CONTINUOUS
 62
   233
  5
2A
 10
96.806083
 20
56.445667
 30
0.0
 11
107.141083
 21
56.445667
 31
0.0
  0
LINE
  8
1
  6
CONTINUOUS
 62
   233
  5
2B
 10
98.238
 20
57.138583
 30
0.0
 11
98.238
 21
52.819417
 31
0.0
  0
LINE
  8
1
  6
CONTINUOUS
 62
   233
  5
2C
 10
98.238
 20
52.819417
 30
0.0
 11
105.847833
 21
52.819417
 31
0.0
  0
LINE
  8
1
  6
CONTINUOUS
 62
   233
  5
2D
 10
105.847833
 20
52.819417
 30
0.0
 11
105.847833
 21
57.138583
 31
0.0
  0
LINE
  8
1
  6
CONTINUOUS
 62
   233
  5
2E
 10
98.318833
 20
57.138583
 30
0.0
 11
98.318833
 21
52.90025
 31
0.0
  0
LINE
  8
1
  6
CONTINUOUS
 62
   233
  5
2F
 10
98.318833
 20
52.90025
 30
0.0
 11
105.766917
 21
52.90025
 31
0.0
  0
LINE
  8
1
  6
CONTINUOUS
 62
   233
  5
30
 10
105.766917
 20
52.90025
 30
0.0
 11
105.766917
 21
57.138583
 31
0.0
  0
LINE
  8
1
  6
CONTINUOUS
 62
   233
  5
31
 10
99.04625
 20
56.445667
 30
0.0
 11
99.04625
 21
53.593167
 31
0.0
  0
LINE
  8
1
  6
CONTINUOUS
 62
   233
  5
32
 10
99.04625
 20
53.593167
 30
0.0
 11
105.0395
 21
53.593167
 31
0.0
  0
LINE
  8
1
  6
CONTINUOUS
 62
   233
  5
33
 10
105.0395
 20
53.593167
 30
0.0
 11
105.0395
 21
56.445667
 31
0.0
  0
LINE
  8
1
  6
CONTINUOUS
 62
   233
  5
34
 10
99.311917
 20
56.180083
 30
0.0
 11
99.311917
 21
53.85875
 31
0.0
  0
LINE
  8
1
  6
CONTINUOUS
 62
   233
  5
35
 10
99.311917
 20
53.85875
 30
0.0
 11
101.959583
 21
53.85875
 31
0.0
  0
LINE
  8
1
  6
CONTINUOUS
 62
   233
  5
36
 10
104.773917
 20
53.85875
 30
0.0
 11
104.773917
 21
56.180083
 31
0.0
  0
LINE
  8
1
  6
CONTINUOUS
 62
   233
  5
37
 10
99.311917
 20
56.180083
 30
0.0
 11
101.959583
 21
56.180083
 31
0.0
  0
LINE
  8
1
  6
CONTINUOUS
 62
   233
  5
38
 10
101.959583
 20
53.593167
 30
0.0
 11
101.959583
 21
56.445667
 31
0.0
  0
LINE
  8
1
  6
CONTINUOUS
 62
   233
  5
39
 10
102.19325
 20
53.593167
 30
0.0
 11
102.19325
 21
56.445667
 31
0.0
  0
LINE
  8
1
  6
CONTINUOUS
 62
   233
  5
3A
 10
102.19325
 20
53.85875
 30
0.0
 11
104.773917
 21
53.85875
 31
0.0
  0
LINE
  8
1
  6
CONTINUOUS
 62
   233
  5
3B
 10
102.19325
 20
56.180083
 30
0.0
 11
104.773917
 21
56.180083
 31
0.0
  0
LINE
  8
1
  6
CONTINUOUS
 62
   233
  5
3C
 10
101.852917
 20
53.85875
 30
0.0
 11
101.852917
 21
56.180083
 31
0.0
  0
LINE
  8
1
  6
CONTINUOUS
 62
   233
  5
3D
 10
102.294833
 20
53.85875
 30
0.0
 11
102.294833
 21
56.180083
 31
0.0
  0
ARC
  8
1
  6
CONTINUOUS
 62
   233
  5
3E
 10
107.408
 20
56.959
 30
0.0
 40
0.321683
 50
146.070203
 51
226.5842
210
0.0
220
0.0
230
1.0
  0
ARC
  8
1
  6
CONTINUOUS
 62
   233
  5
3F
 10
107.013667
 20
56.610167
 30
0.0
 40
0.208061
 50
307.766675
 51
33.62655
210
0.0
220
0.0
230
1.0
  0
ARC
  8
1
  6
CONTINUOUS
 62
   233
  5
40
 10
96.9335
 20
56.610167
 30
0.0
 40
0.208061
 50
146.373444
 51
232.233319
210
0.0
220
0.0
230
1.0
  0
ARC
  8
1
  6
CONTINUOUS
 62
   233
  5
41
 10
96.539167
 20
56.959
 30
0.0
 40
0.321683
 50
313.415794
 51
33.929792
210
0.0
220
0.0
230
1.0
  0
LINE
  8
1
  6
CONTINUOUS
 62
   233
  5
42
 10
99.542417
 20
57.138583
 30
0.0
 11
99.542417
 21
57.843083
 31
0.0
  0
LINE
  8
1
  6
CONTINUOUS
 62
   233
  5
43
 10
101.170667
 20
57.138583
 30
0.0
 11
101.170667
 21
57.843083
 31
0.0
  0
ARC
  8
1
  6
CONTINUOUS
 62
   233
  5
44
 10
99.9495
 20
57.682917
 30
0.0
 40
0.437466
 50
21.485442
 51
158.514556
210
0.0
220
0.0
230
1.0
  0
ARC
  8
1
  6
CONTINUOUS
 62
   233
  5
45
 10
100.763667
 20
58.062667
 30
0.0
 40
0.462499
 50
208.339972
 51
331.660022
210
0.0
220
0.0
230
1.0
  0
ARC
  8
1
  6
CONTINUOUS
 62
   233
  5
46
 10
100.882333
 20
57.86575
 30
0.0
 40
0.289253
 50
355.515536
 51
114.418336
210
0.0
220
0.0
230
1.0
  0
ARC
  8
1
  6
CONTINUOUS
 62
   233
  5
47
 10
101.8525
 20
55.35475
 30
0.0
 40
2.980666
 50
110.805872
 51
120.897942
210
0.0
220
0.0
230
1.0
  0
LINE
  8
2
  6
HIDDEN
 62
   140
  5
49
 10
99.542417
 20
57.138667
 30
0.0
 11
99.542417
 21
56.180083
 31
0.0
  0
LINE
  8
2
  6
HIDDEN
 62
   140
  5
4A
 10
101.170667
 20
57.138583
 30
0.0
 11
101.170667
 21
56.180083
 31
0.0
  0
LINE
  8
2
  6
HIDDEN
 62
   140
  5
4B
 10
101.852917
 20
56.180083
 30
0.0
 11
101.852917
 21
56.79225
 31
0.0
  0
LINE
  8
2
  6
HIDDEN
 62
   140
  5
4C
 10
101.852917
 20
56.79225
 30
0.0
 11
102.294833
 21
56.79225
 31
0.0
  0
LINE
  8
2
  6
HIDDEN
 62
   140
  5
4D
 10
102.294833
 20
56.79225
 30
0.0
 11
102.294833
 21
56.180083
 31
0.0
  0
LINE
  8
2
  6
HIDDEN
 62
   140
  5
4E
 10
101.959583
 20
56.445667
 30
0.0
 11
101.959583
 21
56.79225
 31
0.0
  0
LINE
  8
2
  6
HIDDEN
 62
   140
  5
4F
 10
102.19325
 20
56.445667
 30
0.0
 11
102.19325
 21
56.79225
 31
0.0
  0
LINE
  8
2
  6
HIDDEN
 62
   140
  5
50
 10
102.19325
 20
53.593167
 30
0.0
 11
102.19325
 21
53.246583
 31
0.0
  0
LINE
  8
2
  6
HIDDEN
 62
   140
  5
51
 10
101.959583
 20
53.593167
 30
0.0
 11
101.959583
 21
53.246583
 31
0.0
  0
LINE
  8
2
  6
HIDDEN
 62
   140
  5
52
 10
102.294833
 20
53.246583
 30
0.0
 11
102.294833
 21
53.85875
 31
0.0
  0
LINE
  8
2
  6
HIDDEN
 62
   140
  5
53
 10
101.852917
 20
53.246583
 30
0.0
 11
102.294833
 21
53.246583
 31
0.0
  0
LINE
  8
2
  6
HIDDEN
 62
   140
  5
54
 10
101.852917
 20
53.85875
 30
0.0
 11
101.852917
 21
53.246583
 31
0.0
  0
LINE
  8
1
  6
CONTINUOUS
 62
   233
  5
55
 10
97.179583
 20
48.943917
 30
0.0
 11
107.50875
 21
48.943917
 31
0.0
  0
LINE
  8
1
  6
CONTINUOUS
 62
   233
  5
56
 10
97.179583
 20
48.245083
 30
0.0
 11
98.62475
 21
48.245083
 31
0.0
  0
LINE
  8
1
  6
CONTINUOUS
 62
   233
  5
57
 10
98.62475
 20
48.943917
 30
0.0
 11
98.62475
 21
47.013167
 31
0.0
  0
LINE
  8
1
  6
CONTINUOUS
 62
   233
  5
58
 10
98.707667
 20
47.013167
 30
0.0
 11
97.225833
 21
47.013167
 31
0.0
  0
LINE
  8
1
  6
CONTINUOUS
 62
   233
  5
59
 10
98.707667
 20
48.943917
 30
0.0
 11
98.707667
 21
47.013167
 31
0.0
  0
LINE
  8
1
  6
CONTINUOUS
 62
   233
  5
5A
 10
98.707667
 20
47.013167
 30
0.0
 11
98.707667
 21
46.901833
 31
0.0
  0
LINE
  8
1
  6
CONTINUOUS
 62
   233
  5
5B
 10
98.707667
 20
46.901833
 30
0.0
 11
99.1925
 21
46.901833
 31
0.0
  0
LINE
  8
1
  6
CONTINUOUS
 62
   233
  5
5C
 10
99.1925
 20
46.901833
 30
0.0
 11
99.1925
 21
46.734917
 31
0.0
  0
LINE
  8
1
  6
CONTINUOUS
 62
   233
  5
5D
 10
99.1925
 20
46.734917
 30
0.0
 11
99.687417
 21
46.734917
 31
0.0
  0
LINE
  8
1
  6
CONTINUOUS
 62
   233
  5
5E
 10
99.687417
 20
46.734917
 30
0.0
 11
99.687417
 21
45.365333
 31
0.0
  0
LINE
  8
1
  6
CONTINUOUS
 62
   233
  5
5F
 10
99.4745
 20
48.245083
 30
0.0
 11
99.4745
 21
47.978
 31
0.0
  0
LINE
  8
1
  6
CONTINUOUS
 62
   233
  5
60
 10
99.4745
 20
47.978
 30
0.0
 11
105.403417
 21
47.978
 31
0.0
  0
LINE
  8
1
  6
CONTINUOUS
 62
   233
  5
61
 10
99.687417
 20
46.734917
 30
0.0
 11
99.687417
 21
47.978
 31
0.0
  0
LINE
  8
1
  6
CONTINUOUS
 62
   233
  5
62
 10
99.123417
 20
44.66325
 30
0.0
 11
99.123417
 21
46.067417
 31
0.0
  0
LINE
  8
1
  6
CONTINUOUS
 62
   233
  5
63
 10
99.123417
 20
46.067417
 30
0.0
 11
99.2155
 21
46.067417
 31
0.0
  0
LINE
  8
1
  6
CONTINUOUS
 62
   233
  5
64
 10
99.2155
 20
46.067417
 30
0.0
 11
99.2155
 21
44.6575
 31
0.0
  0
LINE
  8
1
  6
CONTINUOUS
 62
   233
  5
65
 10
99.2155
 20
44.6575
 30
0.0
 11
99.123417
 21
44.6575
 31
0.0
  0
LINE
  8
1
  6
CONTINUOUS
 62
   233
  5
66
 10
99.123417
 20
44.6575
 30
0.0
 11
99.123417
 21
44.66325
 31
0.0
  0
LINE
  8
1
  6
CONTINUOUS
 62
   233
  5
67
 10
99.687417
 20
45.365333
 30
0.0
 11
103.405167
 21
45.365333
 31
0.0
  0
LINE
  8
1
  6
CONTINUOUS
 62
   233
  5
68
 10
98.707667
 20
48.245083
 30
0.0
 11
106.17025
 21
48.245083
 31
0.0
  0
LINE
  8
1
  6
CONTINUOUS
 62
   233
  5
69
 10
106.17025
 20
48.943917
 30
0.0
 11
106.17025
 21
47.013167
 31
0.0
  0
LINE
  8
1
  6
CONTINUOUS
 62
   233
  5
6A
 10
105.1905
 20
45.365333
 30
0.0
 11
101.472667
 21
45.365333
 31
0.0
  0
LINE
  8
1
  6
CONTINUOUS
 62
   233
  5
6B
 10
105.1905
 20
46.734917
 30
0.0
 11
105.1905
 21
47.978
 31
0.0
  0
LINE
  8
1
  6
CONTINUOUS
 62
   233
  5
6C
 10
105.1905
 20
46.734917
 30
0.0
 11
105.1905
 21
45.365333
 31
0.0
  0
LINE
  8
1
  6
CONTINUOUS
 62
   233
  5
6D
 10
105.46275
 20
46.734917
 30
0.0
 11
105.1905
 21
46.734917
 31
0.0
  0
LINE
  8
1
  6
CONTINUOUS
 62
   233
  5
6E
 10
106.17025
 20
48.943917
 30
0.0
 11
106.17025
 21
47.013167
 31
0.0
  0
LINE
  8
1
  6
CONTINUOUS
 62
   233
  5
6F
 10
106.17025
 20
47.013167
 30
0.0
 11
107.50875
 21
47.013167
 31
0.0
  0
LINE
  8
1
  6
CONTINUOUS
 62
   233
  5
70
 10
106.253167
 20
48.943917
 30
0.0
 11
106.253167
 21
47.013167
 31
0.0
  0
LINE
  8
1
  6
CONTINUOUS
 62
   233
  5
71
 10
105.403417
 20
48.245083
 30
0.0
 11
105.403417
 21
47.978
 31
0.0
  0
LINE
  8
1
  6
CONTINUOUS
 62
   233
  5
72
 10
105.1905
 20
45.365333
 30
0.0
 11
105.645083
 21
45.365333
 31
0.0
  0
LINE
  8
1
  6
CONTINUOUS
 62
   233
  5
73
 10
105.645083
 20
45.365333
 30
0.0
 11
105.645083
 21
45.542167
 31
0.0
  0
LINE
  8
1
  6
CONTINUOUS
 62
   233
  5
74
 10
105.645083
 20
45.542167
 30
0.0
 11
106.17025
 21
45.542167
 31
0.0
  0
LINE
  8
1
  6
CONTINUOUS
 62
   233
  5
75
 10
105.46275
 20
46.734917
 30
0.0
 11
105.46275
 21
46.900417
 31
0.0
  0
LINE
  8
1
  6
CONTINUOUS
 62
   233
  5
76
 10
105.46275
 20
46.900417
 30
0.0
 11
105.884
 21
46.900417
 31
0.0
  0
LINE
  8
1
  6
CONTINUOUS
 62
   233
  5
77
 10
105.884
 20
46.900417
 30
0.0
 11
105.884
 21
46.734917
 31
0.0
  0
LINE
  8
1
  6
CONTINUOUS
 62
   233
  5
78
 10
105.884
 20
46.734917
 30
0.0
 11
106.1245
 21
46.734917
 31
0.0
  0
LINE
  8
1
  6
CONTINUOUS
 62
   233
  5
79
 10
107.505833
 20
48.94375
 30
0.0
 11
107.50875
 21
48.94375
 31
0.0
  0
POINT
  8
1
  6
CONTINUOUS
 62
   233
  5
7A
 10
107.5125
 20
48.598083
 30
0.0
  0
POINT
  8
1
  6
CONTINUOUS
 62
   233
  5
7B
 10
107.5125
 20
48.58525
 30
0.0
  0
POINT
  8
1
  6
CONTINUOUS
 62
   233
  5
7C
 10
107.505833
 20
48.58525
 30
0.0
  0
POINT
  8
1
  6
CONTINUOUS
 62
   233
  5
7D
 10
107.499667
 20
48.58525
 30
0.0
  0
POINT
  8
1
  6
CONTINUOUS
 62
   233
  5
7E
 10
107.499667
 20
48.3275
 30
0.0
  0
POINT
  8
1
  6
CONTINUOUS
 62
   233
  5
7F
 10
107.499667
 20
48.315083
 30
0.0
  0
POINT
  8
1
  6
CONTINUOUS
 62
   233
  5
80
 10
107.505833
 20
48.315083
 30
0.0
  0
POINT
  8
1
  6
CONTINUOUS
 62
   233
  5
81
 10
107.505833
 20
48.308833
 30
0.0
  0
POINT
  8
1
  6
CONTINUOUS
 62
   233
  5
82
 10
107.5125
 20
48.113667
 30
0.0
  0
POINT
  8
1
  6
CONTINUOUS
 62
   233
  5
83
 10
107.5125
 20
48.107417
 30
0.0
  0
POINT
  8
1
  6
CONTINUOUS
 62
   233
  5
84
 10
107.474333
 20
48.044417
 30
0.0
  0
POINT
  8
1
  6
CONTINUOUS
 62
   233
  5
85
 10
107.505833
 20
47.283917
 30
0.0
  0
POINT
  8
1
  6
CONTINUOUS
 62
   233
  5
86
 10
107.505833
 20
47.271083
 30
0.0
  0
POINT
  8
1
  6
CONTINUOUS
 62
   233
  5
87
 10
107.5125
 20
47.013333
 30
0.0
  0
POINT
  8
1
  6
CONTINUOUS
 62
   233
  5
88
 10
107.524917
 20
47.013333
 30
0.0
  0
LINE
  8
1
  6
CONTINUOUS
 62
   233
  5
89
 10
106.253167
 20
48.245083
 30
0.0
 11
107.50875
 21
48.245083
 31
0.0
  0
LINE
  8
1
  6
CONTINUOUS
 62
   233
  5
8A
 10
106.17025
 20
47.013167
 30
0.0
 11
106.113
 21
46.788167
 31
0.0
  0
LINE
  8
1
  6
CONTINUOUS
 62
   233
  5
8B
 10
106.113
 20
46.788167
 30
0.0
 11
106.183167
 21
46.463333
 31
0.0
  0
LINE
  8
1
  6
CONTINUOUS
 62
   233
  5
8C
 10
106.183167
 20
46.463333
 30
0.0
 11
106.1305
 21
46.147333
 31
0.0
  0
LINE
  8
1
  6
CONTINUOUS
 62
   233
  5
8D
 10
106.1305
 20
46.147333
 30
0.0
 11
106.20075
 21
45.901583
 31
0.0
  0
LINE
  8
1
  6
CONTINUOUS
 62
   233
  5
8E
 10
106.20075
 20
45.901583
 30
0.0
 11
106.1305
 21
45.71725
 31
0.0
  0
LINE
  8
1
  6
CONTINUOUS
 62
   233
  5
8F
 10
106.1305
 20
45.71725
 30
0.0
 11
106.17025
 21
45.542167
 31
0.0
  0
LINE
  8
1
  6
CONTINUOUS
 62
   233
  5
90
 10
106.17025
 20
45.542167
 30
0.0
 11
106.139333
 21
45.287083
 31
0.0
  0
LINE
  8
1
  6
CONTINUOUS
 62
   233
  5
91
 10
106.17025
 20
45.167833
 30
0.0
 11
106.20075
 21
45.050083
 31
0.0
  0
LINE
  8
1
  6
CONTINUOUS
 62
   233
  5
92
 10
106.17025
 20
44.920417
 30
0.0
 11
106.1305
 21
44.751667
 31
0.0
  0
LINE
  8
1
  6
CONTINUOUS
 62
   233
  5
93
 10
106.17025
 20
44.7075
 30
0.0
 11
106.2095
 21
44.663833
 31
0.0
  0
LINE
  8
1
  6
CONTINUOUS
 62
   233
  5
94
 10
106.2095
 20
44.663833
 30
0.0
 11
106.17025
 21
44.41
 31
0.0
  0
LINE
  8
1
  6
CONTINUOUS
 62
   233
  5
95
 10
106.139333
 20
45.287083
 30
0.0
 11
106.17025
 21
45.167833
 31
0.0
  0
LINE
  8
1
  6
CONTINUOUS
 62
   233
  5
96
 10
106.20075
 20
45.050083
 30
0.0
 11
106.17025
 21
44.920417
 31
0.0
  0
LINE
  8
1
  6
CONTINUOUS
 62
   233
  5
97
 10
106.1305
 20
44.751667
 30
0.0
 11
106.17025
 21
44.7075
 31
0.0
  0
LINE
  8
1
  6
CONTINUOUS
 62
   233
  5
98
 10
98.707667
 20
46.901833
 30
0.0
 11
98.686583
 21
46.767667
 31
0.0
  0
LINE
  8
1
  6
CONTINUOUS
 62
   233
  5
99
 10
98.686583
 20
46.767667
 30
0.0
 11
98.743417
 21
46.474583
 31
0.0
  0
LINE
  8
1
  6
CONTINUOUS
 62
   233
  5
9A
 10
98.743417
 20
46.474583
 30
0.0
 11
98.662667
 21
46.139667
 31
0.0
  0
LINE
  8
1
  6
CONTINUOUS
 62
   233
  5
9B
 10
98.662667
 20
46.139667
 30
0.0
 11
98.749333
 21
45.777917
 31
0.0
  0
LINE
  8
1
  6
CONTINUOUS
 62
   233
  5
9C
 10
98.749333
 20
45.777917
 30
0.0
 11
98.671667
 21
45.395167
 31
0.0
  0
LINE
  8
1
  6
CONTINUOUS
 62
   233
  5
9D
 10
98.671667
 20
45.395167
 30
0.0
 11
98.749333
 21
45.021333
 31
0.0
  0
LINE
  8
1
  6
CONTINUOUS
 62
   233
  5
9E
 10
98.749333
 20
45.021333
 30
0.0
 11
98.668667
 21
44.75225
 31
0.0
  0
LINE
  8
1
  6
CONTINUOUS
 62
   233
  5
9F
 10
98.668667
 20
44.75225
 30
0.0
 11
98.734417
 21
44.501083
 31
0.0
  0
LINE
  8
1
  6
CONTINUOUS
 62
   233
  5
A0
 10
98.734417
 20
44.501083
 30
0.0
 11
98.707667
 21
44.41
 31
0.0
  0
LINE
  8
1
  6
CONTINUOUS
 62
   233
  5
A1
 10
97.179583
 20
48.943917
 30
0.0
 11
97.228917
 21
48.60525
 31
0.0
  0
LINE
  8
1
  6
CONTINUOUS
 62
   233
  5
A2
 10
97.228917
 20
48.60525
 30
0.0
 11
97.149917
 21
48.333083
 31
0.0
  0
LINE
  8
1
  6
CONTINUOUS
 62
   233
  5
A3
 10
97.149917
 20
48.333083
 30
0.0
 11
97.2465
 21
48.052167
 31
0.0
  0
LINE
  8
1
  6
CONTINUOUS
 62
   233
  5
A4
 10
97.2465
 20
48.052167
 30
0.0
 11
97.149917
 21
47.7625
 31
0.0
  0
LINE
  8
1
  6
CONTINUOUS
 62
   233
  5
A5
 10
97.149917
 20
47.7625
 30
0.0
 11
97.220167
 21
47.490417
 31
0.0
  0
LINE
  8
1
  6
CONTINUOUS
 62
   233
  5
A6
 10
97.220167
 20
47.490417
 30
0.0
 11
97.106083
 21
47.227083
 31
0.0
  0
LINE
  8
1
  6
CONTINUOUS
 62
   233
  5
A7
 10
97.106083
 20
47.227083
 30
0.0
 11
97.228917
 21
47.007583
 31
0.0
  0
LINE
  8
1
  6
CONTINUOUS
 62
   233
  5
A8
 10
107.50875
 20
48.943917
 30
0.0
 11
107.456083
 21
48.675417
 31
0.0
  0
LINE
  8
1
  6
CONTINUOUS
 62
   233
  5
A9
 10
107.456083
 20
48.675417
 30
0.0
 11
107.535083
 21
48.333083
 31
0.0
  0
LINE
  8
1
  6
CONTINUOUS
 62
   233
  5
AA
 10
107.535083
 20
48.333083
 30
0.0
 11
107.438583
 21
48.061
 31
0.0
  0
LINE
  8
1
  6
CONTINUOUS
 62
   233
  5
AB
 10
107.438583
 20
48.061
 30
0.0
 11
107.561417
 21
47.727417
 31
0.0
  0
LINE
  8
1
  6
CONTINUOUS
 62
   233
  5
AC
 10
107.561417
 20
47.727417
 30
0.0
 11
107.456083
 21
47.481667
 31
0.0
  0
LINE
  8
1
  6
CONTINUOUS
 62
   233
  5
AD
 10
107.456083
 20
47.481667
 30
0.0
 11
107.561417
 21
47.165583
 31
0.0
  0
LINE
  8
1
  6
CONTINUOUS
 62
   233
  5
AE
 10
107.561417
 20
47.165583
 30
0.0
 11
107.50875
 21
47.013167
 31
0.0
  0
POINT
  8
1
  6
CONTINUOUS
 62
     7
  5
AF
 10
97.568333
 20
47.38875
 30
0.0
  0
POINT
  8
1
  6
CONTINUOUS
 62
     7
  5
B0
 10
98.468333
 20
47.38875
 30
0.0
  0
POINT
  8
1
  6
CONTINUOUS
 62
     7
  5
B1
 10
99.368333
 20
47.38875
 30
0.0
  0
POINT
  8
1
  6
CONTINUOUS
 62
     7
  5
B2
 10
97.577333
 20
47.07375
 30
0.0
  0
POINT
  8
1
  6
CONTINUOUS
 62
     7
  5
B3
 10
98.477333
 20
47.07375
 30
0.0
  0
POINT
  8
1
  6
CONTINUOUS
 62
     7
  5
B4
 10
99.377333
 20
47.07375
 30
0.0
  0
POINT
  8
1
  6
CONTINUOUS
 62
     7
  5
B5
 10
97.577333
 20
47.97375
 30
0.0
  0
POINT
  8
1
  6
CONTINUOUS
 62
     7
  5
B6
 10
98.477333
 20
47.97375
 30
0.0
  0
POINT
  8
1
  6
CONTINUOUS
 62
     7
  5
B7
 10
99.377333
 20
47.97375
 30
0.0
  0
POINT
  8
1
  6
CONTINUOUS
 62
     7
  5
B8
 10
97.604333
 20
47.55975
 30
0.0
  0
POINT
  8
1
  6
CONTINUOUS
 62
     7
  5
B9
 10
98.504333
 20
47.55975
 30
0.0
  0
POINT
  8
1
  6
CONTINUOUS
 62
     7
  5
BA
 10
99.404333
 20
47.55975
 30
0.0
  0
LINE
  8
1
  6
CONTINUOUS
 62
     7
  5
BB
 10
97.212833
 20
48.150167
 30
0.0
 11
97.226333
 21
48.14475
 31
0.0
  0
LINE
  8
1
  6
CONTINUOUS
 62
     7
  5
BC
 10
98.036333
 20
48.18075
 30
0.0
 11
98.126333
 21
48.14475
 31
0.0
  0
LINE
  8
1
  6
CONTINUOUS
 62
     7
  5
BD
 10
98.936333
 20
48.18075
 30
0.0
 11
99.026333
 21
48.14475
 31
0.0
  0
LINE
  8
1
  6
CONTINUOUS
 62
     7
  5
BE
 10
98.936333
 20
47.28075
 30
0.0
 11
99.026333
 21
47.24475
 31
0.0
  0
LINE
  8
1
  6
CONTINUOUS
 62
     7
  5
BF
 10
98.036333
 20
47.28075
 30
0.0
 11
98.126333
 21
47.24475
 31
0.0
  0
LINE
  8
1
  6
CONTINUOUS
 62
     7
  5
C0
 10
97.136333
 20
47.28075
 30
0.0
 11
97.226333
 21
47.24475
 31
0.0
  0
LINE
  8
1
  6
CONTINUOUS
 62
     7
  5
C1
 10
99.026333
 20
48.14475
 30
0.0
 11
98.990333
 21
48.11775
 31
0.0
  0
LINE
  8
1
  6
CONTINUOUS
 62
     7
  5
C2
 10
98.126333
 20
47.24475
 30
0.0
 11
98.090333
 21
47.21775
 31
0.0
  0
LINE
  8
1
  6
CONTINUOUS
 62
     7
  5
C3
 10
99.026333
 20
47.24475
 30
0.0
 11
98.990333
 21
47.21775
 31
0.0
  0
LINE
  8
1
  6
CONTINUOUS
 62
     7
  5
C4
 10
97.226333
 20
47.24475
 30
0.0
 11
97.190333
 21
47.21775
 31
0.0
  0
LINE
  8
1
  6
CONTINUOUS
 62
     7
  5
C5
 10
98.126333
 20
48.14475
 30
0.0
 11
98.090333
 21
48.11775
 31
0.0
  0
LINE
  8
1
  6
CONTINUOUS
 62
     7
  5
C6
 10
97.226333
 20
48.14475
 30
0.0
 11
97.217083
 21
48.137833
 31
0.0
  0
LINE
  8
1
  6
CONTINUOUS
 62
     7
  5
C7
 10
98.090333
 20
48.11775
 30
0.0
 11
98.036333
 21
48.18075
 31
0.0
  0
LINE
  8
1
  6
CONTINUOUS
 62
     7
  5
C8
 10
98.090333
 20
47.21775
 30
0.0
 11
98.036333
 21
47.28075
 31
0.0
  0
LINE
  8
1
  6
CONTINUOUS
 62
     7
  5
C9
 10
97.190333
 20
47.21775
 30
0.0
 11
97.136333
 21
47.28075
 31
0.0
  0
LINE
  8
1
  6
CONTINUOUS
 62
     7
  5
CA
 10
98.990333
 20
47.21775
 30
0.0
 11
98.936333
 21
47.28075
 31
0.0
  0
LINE
  8
1
  6
CONTINUOUS
 62
     7
  5
CB
 10
98.990333
 20
48.11775
 30
0.0
 11
98.936333
 21
48.18075
 31
0.0
  0
LINE
  8
1
  6
CONTINUOUS
 62
     7
  5
CC
 10
97.793333
 20
47.10975
 30
0.0
 11
97.775333
 21
47.10075
 31
0.0
  0
LINE
  8
1
  6
CONTINUOUS
 62
     7
  5
CD
 10
99.593333
 20
47.10975
 30
0.0
 11
99.575333
 21
47.10075
 31
0.0
  0
LINE
  8
1
  6
CONTINUOUS
 62
     7
  5
CE
 10
97.793333
 20
48.00975
 30
0.0
 11
97.775333
 21
48.00075
 31
0.0
  0
LINE
  8
1
  6
CONTINUOUS
 62
     7
  5
CF
 10
98.693333
 20
48.90975
 30
0.0
 11
98.675333
 21
48.90075
 31
0.0
  0
LINE
  8
1
  6
CONTINUOUS
 62
     7
  5
D0
 10
97.775333
 20
48.00075
 30
0.0
 11
97.802333
 21
47.98275
 31
0.0
  0
LINE
  8
1
  6
CONTINUOUS
 62
     7
  5
D1
 10
99.575333
 20
47.10075
 30
0.0
 11
99.602333
 21
47.08275
 31
0.0
  0
LINE
  8
1
  6
CONTINUOUS
 62
     7
  5
D2
 10
97.775333
 20
47.10075
 30
0.0
 11
97.802333
 21
47.08275
 31
0.0
  0
LINE
  8
1
  6
CONTINUOUS
 62
     7
  5
D3
 10
97.802333
 20
47.98275
 30
0.0
 11
97.793333
 21
48.00975
 31
0.0
  0
LINE
  8
1
  6
CONTINUOUS
 62
     7
  5
D4
 10
97.802333
 20
47.08275
 30
0.0
 11
97.793333
 21
47.10975
 31
0.0
  0
LINE
  8
1
  6
CONTINUOUS
 62
     7
  5
D5
 10
99.602333
 20
47.08275
 30
0.0
 11
99.593333
 21
47.10975
 31
0.0
  0
LINE
  8
1
  6
CONTINUOUS
 62
     7
  5
D6
 10
98.369333
 20
47.01975
 30
0.0
 11
98.36275
 21
47.013167
 31
0.0
  0
LINE
  8
1
  6
CONTINUOUS
 62
     7
  5
D7
 10
99.269333
 20
47.91975
 30
0.0
 11
99.242333
 21
47.89275
 31
0.0
  0
LINE
  8
1
  6
CONTINUOUS
 62
     7
  5
D8
 10
99.269333
 20
47.01975
 30
0.0
 11
99.242333
 21
46.99275
 31
0.0
  0
LINE
  8
1
  6
CONTINUOUS
 62
     7
  5
D9
 10
98.369333
 20
47.91975
 30
0.0
 11
98.342333
 21
47.89275
 31
0.0
  0
LINE
  8
1
  6
CONTINUOUS
 62
     7
  5
DA
 10
97.469333
 20
47.01975
 30
0.0
 11
97.46275
 21
47.013167
 31
0.0
  0
LINE
  8
1
  6
CONTINUOUS
 62
     7
  5
DB
 10
97.469333
 20
47.91975
 30
0.0
 11
97.442333
 21
47.89275
 31
0.0
  0
LINE
  8
1
  6
CONTINUOUS
 62
     7
  5
DC
 10
99.242333
 20
46.99275
 30
0.0
 11
99.296333
 21
46.99275
 31
0.0
  0
LINE
  8
1
  6
CONTINUOUS
 62
     7
  5
DD
 10
97.442333
 20
47.89275
 30
0.0
 11
97.496333
 21
47.89275
 31
0.0
  0
LINE
  8
1
  6
CONTINUOUS
 62
     7
  5
DE
 10
98.342333
 20
47.89275
 30
0.0
 11
98.396333
 21
47.89275
 31
0.0
  0
LINE
  8
1
  6
CONTINUOUS
 62
     7
  5
DF
 10
99.242333
 20
47.89275
 30
0.0
 11
99.296333
 21
47.89275
 31
0.0
  0
LINE
  8
1
  6
CONTINUOUS
 62
     7
  5
E0
 10
98.375917
 20
47.013167
 30
0.0
 11
98.369333
 21
47.01975
 31
0.0
  0
LINE
  8
1
  6
CONTINUOUS
 62
     7
  5
E1
 10
97.496333
 20
47.89275
 30
0.0
 11
97.469333
 21
47.91975
 31
0.0
  0
LINE
  8
1
  6
CONTINUOUS
 62
     7
  5
E2
 10
97.475917
 20
47.013167
 30
0.0
 11
97.469333
 21
47.01975
 31
0.0
  0
LINE
  8
1
  6
CONTINUOUS
 62
     7
  5
E3
 10
99.296333
 20
46.99275
 30
0.0
 11
99.269333
 21
47.01975
 31
0.0
  0
LINE
  8
1
  6
CONTINUOUS
 62
     7
  5
E4
 10
98.396333
 20
47.89275
 30
0.0
 11
98.369333
 21
47.91975
 31
0.0
  0
LINE
  8
1
  6
CONTINUOUS
 62
     7
  5
E5
 10
99.296333
 20
47.89275
 30
0.0
 11
99.269333
 21
47.91975
 31
0.0
  0
LINE
  8
1
  6
CONTINUOUS
 62
     7
  5
E6
 10
98.261333
 20
47.59575
 30
0.0
 11
98.252333
 21
47.56875
 31
0.0
  0
LINE
  8
1
  6
CONTINUOUS
 62
     7
  5
E7
 10
99.161333
 20
47.59575
 30
0.0
 11
99.152333
 21
47.56875
 31
0.0
  0
LINE
  8
1
  6
CONTINUOUS
 62
     7
  5
E8
 10
97.361333
 20
47.59575
 30
0.0
 11
97.352333
 21
47.56875
 31
0.0
  0
LINE
  8
1
  6
CONTINUOUS
 62
     7
  5
E9
 10
97.352333
 20
47.56875
 30
0.0
 11
97.397333
 21
47.56875
 31
0.0
  0
LINE
  8
1
  6
CONTINUOUS
 62
     7
  5
EA
 10
98.252333
 20
47.56875
 30
0.0
 11
98.297333
 21
47.56875
 31
0.0
  0
LINE
  8
1
  6
CONTINUOUS
 62
     7
  5
EB
 10
99.152333
 20
47.56875
 30
0.0
 11
99.197333
 21
47.56875
 31
0.0
  0
LINE
  8
1
  6
CONTINUOUS
 62
     7
  5
EC
 10
98.297333
 20
47.56875
 30
0.0
 11
98.261333
 21
47.59575
 31
0.0
  0
LINE
  8
1
  6
CONTINUOUS
 62
     7
  5
ED
 10
97.397333
 20
47.56875
 30
0.0
 11
97.361333
 21
47.59575
 31
0.0
  0
LINE
  8
1
  6
CONTINUOUS
 62
     7
  5
EE
 10
99.197333
 20
47.56875
 30
0.0
 11
99.161333
 21
47.59575
 31
0.0
  0
LINE
  8
1
  6
CONTINUOUS
 62
     7
  5
EF
 10
99.584333
 20
47.60475
 30
0.0
 11
99.557333
 21
47.58675
 31
0.0
  0
LINE
  8
1
  6
CONTINUOUS
 62
     7
  5
F0
 10
97.784333
 20
47.60475
 30
0.0
 11
97.757333
 21
47.58675
 31
0.0
  0
LINE
  8
1
  6
CONTINUOUS
 62
     7
  5
F1
 10
98.707667
 20
47.57
 30
0.0
 11
98.711333
 21
47.56875
 31
0.0
  0
LINE
  8
1
  6
CONTINUOUS
 62
     7
  5
F2
 10
99.557333
 20
47.58675
 30
0.0
 11
99.611333
 21
47.56875
 31
0.0
  0
LINE
  8
1
  6
CONTINUOUS
 62
     7
  5
F3
 10
97.757333
 20
47.58675
 30
0.0
 11
97.811333
 21
47.56875
 31
0.0
  0
LINE
  8
1
  6
CONTINUOUS
 62
     7
  5
F4
 10
97.811333
 20
47.56875
 30
0.0
 11
97.784333
 21
47.60475
 31
0.0
  0
LINE
  8
1
  6
CONTINUOUS
 62
     7
  5
F5
 10
98.711333
 20
47.56875
 30
0.0
 11
98.707667
 21
47.573667
 31
0.0
  0
LINE
  8
1
  6
CONTINUOUS
 62
     7
  5
F6
 10
99.611333
 20
47.56875
 30
0.0
 11
99.584333
 21
47.60475
 31
0.0
  0
POINT
  8
1
  6
CONTINUOUS
 62
     7
  5
F7
 10
98.045333
 20
47.56875
 30
0.0
  0
POINT
  8
1
  6
CONTINUOUS
 62
     7
  5
F8
 10
98.945333
 20
47.56875
 30
0.0
  0
POINT
  8
1
  6
CONTINUOUS
 62
     7
  5
F9
 10
97.802333
 20
47.33475
 30
0.0
  0
POINT
  8
1
  6
CONTINUOUS
 62
     7
  5
FA
 10
99.602333
 20
47.33475
 30
0.0
  0
POINT
  8
1
  6
CONTINUOUS
 62
     7
  5
FB
 10
97.802333
 20
48.23475
 30
0.0
  0
POINT
  8
1
  6
CONTINUOUS
 62
     7
  5
FC
 10
98.954333
 20
47.00175
 30
0.0
  0
POINT
  8
1
  6
CONTINUOUS
 62
     7
  5
FD
 10
98.054333
 20
47.90175
 30
0.0
  0
POINT
  8
1
  6
CONTINUOUS
 62
     7
  5
FE
 10
98.954333
 20
47.90175
 30
0.0
  0
POINT
  8
1
  6
CONTINUOUS
 62
     7
  5
FF
 10
97.397333
 20
47.28075
 30
0.0
  0
POINT
  8
1
  6
CONTINUOUS
 62
     7
  5
100
 10
98.297333
 20
47.28075
 30
0.0
  0
POINT
  8
1
  6
CONTINUOUS
 62
     7
  5
101
 10
99.197333
 20
47.28075
 30
0.0
  0
POINT
  8
1
  6
CONTINUOUS
 62
     7
  5
102
 10
97.397333
 20
48.18075
 30
0.0
  0
POINT
  8
1
  6
CONTINUOUS
 62
     7
  5
103
 10
98.297333
 20
48.18075
 30
0.0
  0
POINT
  8
1
  6
CONTINUOUS
 62
     7
  5
104
 10
99.197333
 20
48.18075
 30
0.0
  0
POINT
  8
1
  6
CONTINUOUS
 62
     7
  5
105
 10
98.036333
 20
47.43375
 30
0.0
  0
POINT
  8
1
  6
CONTINUOUS
 62
     7
  5
106
 10
98.936333
 20
47.43375
 30
0.0
  0
POINT
  8
1
  6
CONTINUOUS
 62
     7
  5
107
 10
97.838333
 20
47.46075
 30
0.0
  0
POINT
  8
1
  6
CONTINUOUS
 62
     7
  5
108
 10
98.738333
 20
47.46075
 30
0.0
  0
POINT
  8
1
  6
CONTINUOUS
 62
     7
  5
109
 10
99.638333
 20
47.46075
 30
0.0
  0
POINT
  8
1
  6
CONTINUOUS
 62
     7
  5
10A
 10
97.919333
 20
47.40675
 30
0.0
  0
POINT
  8
1
  6
CONTINUOUS
 62
     7
  5
10B
 10
98.819333
 20
47.40675
 30
0.0
  0
POINT
  8
1
  6
CONTINUOUS
 62
     7
  5
10C
 10
97.883333
 20
47.19075
 30
0.0
  0
POINT
  8
1
  6
CONTINUOUS
 62
     7
  5
10D
 10
98.783333
 20
47.19075
 30
0.0
  0
POINT
  8
1
  6
CONTINUOUS
 62
     7
  5
10E
 10
99.683333
 20
47.19075
 30
0.0
  0
POINT
  8
1
  6
CONTINUOUS
 62
     7
  5
10F
 10
97.883333
 20
48.09075
 30
0.0
  0
POINT
  8
1
  6
CONTINUOUS
 62
     7
  5
110
 10
98.783333
 20
48.09075
 30
0.0
  0
POINT
  8
1
  6
CONTINUOUS
 62
     7
  5
111
 10
97.667333
 20
47.22675
 30
0.0
  0
POINT
  8
1
  6
CONTINUOUS
 62
     7
  5
112
 10
98.567333
 20
47.22675
 30
0.0
  0
POINT
  8
1
  6
CONTINUOUS
 62
     7
  5
113
 10
99.467333
 20
47.22675
 30
0.0
  0
POINT
  8
1
  6
CONTINUOUS
 62
     7
  5
114
 10
97.667333
 20
48.12675
 30
0.0
  0
POINT
  8
1
  6
CONTINUOUS
 62
     7
  5
115
 10
98.567333
 20
48.12675
 30
0.0
  0
POINT
  8
1
  6
CONTINUOUS
 62
     7
  5
116
 10
99.467333
 20
48.12675
 30
0.0
  0
POINT
  8
1
  6
CONTINUOUS
 62
     7
  5
117
 10
97.676333
 20
47.43375
 30
0.0
  0
POINT
  8
1
  6
CONTINUOUS
 62
     7
  5
118
 10
98.576333
 20
47.43375
 30
0.0
  0
POINT
  8
1
  6
CONTINUOUS
 62
     7
  5
119
 10
99.476333
 20
47.43375
 30
0.0
  0
POINT
  8
1
  6
CONTINUOUS
 62
     7
  5
11A
 10
97.649333
 20
47.63175
 30
0.0
  0
POINT
  8
1
  6
CONTINUOUS
 62
     7
  5
11B
 10
98.549333
 20
47.63175
 30
0.0
  0
POINT
  8
1
  6
CONTINUOUS
 62
     7
  5
11C
 10
99.449333
 20
47.63175
 30
0.0
  0
POINT
  8
1
  6
CONTINUOUS
 62
     7
  5
11D
 10
97.928333
 20
47.66775
 30
0.0
  0
POINT
  8
1
  6
CONTINUOUS
 62
     7
  5
11E
 10
98.828333
 20
47.66775
 30
0.0
  0
POINT
  8
1
  6
CONTINUOUS
 62
     7
  5
11F
 10
97.226333
 20
47.70375
 30
0.0
  0
POINT
  8
1
  6
CONTINUOUS
 62
     7
  5
120
 10
98.126333
 20
47.70375
 30
0.0
  0
POINT
  8
1
  6
CONTINUOUS
 62
     7
  5
121
 10
99.026333
 20
47.70375
 30
0.0
  0
POINT
  8
1
  6
CONTINUOUS
 62
     7
  5
122
 10
97.541333
 20
47.66775
 30
0.0
  0
POINT
  8
1
  6
CONTINUOUS
 62
     7
  5
123
 10
98.441333
 20
47.66775
 30
0.0
  0
POINT
  8
1
  6
CONTINUOUS
 62
     7
  5
124
 10
99.341333
 20
47.66775
 30
0.0
  0
POINT
  8
1
  6
CONTINUOUS
 62
     7
  5
125
 10
99.341333
 20
46.76775
 30
0.0
  0
POINT
  8
1
  6
CONTINUOUS
 62
     7
  5
126
 10
97.325333
 20
47.38875
 30
0.0
  0
POINT
  8
1
  6
CONTINUOUS
 62
     7
  5
127
 10
98.225333
 20
47.38875
 30
0.0
  0
POINT
  8
1
  6
CONTINUOUS
 62
     7
  5
128
 10
99.125333
 20
47.38875
 30
0.0
  0
POINT
  8
1
  6
CONTINUOUS
 62
     7
  5
129
 10
97.235333
 20
47.55075
 30
0.0
  0
POINT
  8
1
  6
CONTINUOUS
 62
     7
  5
12A
 10
98.135333
 20
47.55075
 30
0.0
  0
POINT
  8
1
  6
CONTINUOUS
 62
     7
  5
12B
 10
99.035333
 20
47.55075
 30
0.0
  0
POINT
  8
1
  6
CONTINUOUS
 62
     7
  5
12C
 10
97.307333
 20
47.11875
 30
0.0
  0
POINT
  8
1
  6
CONTINUOUS
 62
     7
  5
12D
 10
98.207333
 20
47.11875
 30
0.0
  0
POINT
  8
1
  6
CONTINUOUS
 62
     7
  5
12E
 10
99.107333
 20
47.11875
 30
0.0
  0
POINT
  8
1
  6
CONTINUOUS
 62
     7
  5
12F
 10
97.307333
 20
48.01875
 30
0.0
  0
POINT
  8
1
  6
CONTINUOUS
 62
     7
  5
130
 10
98.207333
 20
48.01875
 30
0.0
  0
POINT
  8
1
  6
CONTINUOUS
 62
     7
  5
131
 10
99.107333
 20
48.01875
 30
0.0
  0
POINT
  8
1
  6
CONTINUOUS
 62
     7
  5
132
 10
97.937333
 20
47.07375
 30
0.0
  0
POINT
  8
1
  6
CONTINUOUS
 62
     7
  5
133
 10
98.837333
 20
47.07375
 30
0.0
  0
POINT
  8
1
  6
CONTINUOUS
 62
     7
  5
134
 10
97.937333
 20
47.97375
 30
0.0
  0
POINT
  8
1
  6
CONTINUOUS
 62
     7
  5
135
 10
98.837333
 20
47.97375
 30
0.0
  0
POINT
  8
1
  6
CONTINUOUS
 62
     7
  5
136
 10
97.307333
 20
47.77575
 30
0.0
  0
POINT
  8
1
  6
CONTINUOUS
 62
     7
  5
137
 10
98.207333
 20
47.77575
 30
0.0
  0
POINT
  8
1
  6
CONTINUOUS
 62
     7
  5
138
 10
99.107333
 20
47.77575
 30
0.0
  0
POINT
  8
1
  6
CONTINUOUS
 62
     7
  5
139
 10
97.910333
 20
47.82975
 30
0.0
  0
POINT
  8
1
  6
CONTINUOUS
 62
     7
  5
13A
 10
98.810333
 20
47.82975
 30
0.0
  0
POINT
  8
1
  6
CONTINUOUS
 62
     7
  5
13B
 10
98.810333
 20
46.92975
 30
0.0
  0
POINT
  8
1
  6
CONTINUOUS
 62
     7
  5
13C
 10
97.622333
 20
47.80275
 30
0.0
  0
POINT
  8
1
  6
CONTINUOUS
 62
     7
  5
13D
 10
98.522333
 20
47.80275
 30
0.0
  0
POINT
  8
1
  6
CONTINUOUS
 62
     7
  5
13E
 10
99.422333
 20
47.80275
 30
0.0
  0
POINT
  8
1
  6
CONTINUOUS
 62
     7
  5
13F
 10
99.422333
 20
46.90275
 30
0.0
  0
POINT
  8
1
  6
CONTINUOUS
 62
     7
  5
140
 10
97.730333
 20
47.75775
 30
0.0
  0
POINT
  8
1
  6
CONTINUOUS
 62
     7
  5
141
 10
99.530333
 20
47.75775
 30
0.0
  0
POINT
  8
1
  6
CONTINUOUS
 62
     7
  5
142
 10
98.630333
 20
48.65775
 30
0.0
  0
POINT
  8
1
  6
CONTINUOUS
 62
     7
  5
143
 10
99.530333
 20
46.85775
 30
0.0
  0
POINT
  8
1
  6
CONTINUOUS
 62
     7
  5
144
 10
99.539333
 20
46.98375
 30
0.0
  0
POINT
  8
1
  6
CONTINUOUS
 62
     7
  5
145
 10
97.739333
 20
47.88375
 30
0.0
  0
POINT
  8
1
  6
CONTINUOUS
 62
     7
  5
146
 10
99.539333
 20
47.88375
 30
0.0
  0
POINT
  8
1
  6
CONTINUOUS
 62
     7
  5
147
 10
97.442333
 20
47.73975
 30
0.0
  0
POINT
  8
1
  6
CONTINUOUS
 62
     7
  5
148
 10
98.342333
 20
47.73975
 30
0.0
  0
POINT
  8
1
  6
CONTINUOUS
 62
     7
  5
149
 10
99.242333
 20
47.73975
 30
0.0
  0
POINT
  8
1
  6
CONTINUOUS
 62
     7
  5
14A
 10
99.242333
 20
46.83975
 30
0.0
  0
POINT
  8
1
  6
CONTINUOUS
 62
     7
  5
14B
 10
97.550333
 20
47.20875
 30
0.0
  0
POINT
  8
1
  6
CONTINUOUS
 62
     7
  5
14C
 10
98.450333
 20
47.20875
 30
0.0
  0
POINT
  8
1
  6
CONTINUOUS
 62
     7
  5
14D
 10
99.350333
 20
47.20875
 30
0.0
  0
POINT
  8
1
  6
CONTINUOUS
 62
     7
  5
14E
 10
97.550333
 20
48.10875
 30
0.0
  0
POINT
  8
1
  6
CONTINUOUS
 62
     7
  5
14F
 10
98.450333
 20
48.10875
 30
0.0
  0
POINT
  8
1
  6
CONTINUOUS
 62
     7
  5
150
 10
99.350333
 20
48.10875
 30
0.0
  0
POINT
  8
1
  6
CONTINUOUS
 62
     7
  5
151
 10
97.505333
 20
47.47875
 30
0.0
  0
POINT
  8
1
  6
CONTINUOUS
 62
     7
  5
152
 10
98.405333
 20
47.47875
 30
0.0
  0
POINT
  8
1
  6
CONTINUOUS
 62
     7
  5
153
 10
99.305333
 20
47.47875
 30
0.0
  0
POINT
  8
1
  6
CONTINUOUS
 62
     7
  5
154
 10
97.991333
 20
47.73075
 30
0.0
  0
POINT
  8
1
  6
CONTINUOUS
 62
     7
  5
155
 10
98.891333
 20
47.73075
 30
0.0
  0
LINE
  8
1
  6
CONTINUOUS
 62
   233
  5
156
 10
98.707667
 20
44.41
 30
0.0
 11
98.900583
 21
44.35275
 31
0.0
  0
LINE
  8
1
  6
CONTINUOUS
 62
   233
  5
157
 10
98.900583
 20
44.35275
 30
0.0
 11
99.313167
 21
44.4295
 31
0.0
  0
LINE
  8
1
  6
CONTINUOUS
 62
   233
  5
158
 10
99.313167
 20
44.4295
 30
0.0
 11
99.610583
 21
44.362333
 31
0.0
  0
LINE
  8
1
  6
CONTINUOUS
 62
   233
  5
159
 10
99.610583
 20
44.362333
 30
0.0
 11
100.119083
 21
44.448667
 31
0.0
  0
LINE
  8
1
  6
CONTINUOUS
 62
   233
  5
15A
 10
100.119083
 20
44.448667
 30
0.0
 11
100.311
 21
44.35275
 31
0.0
  0
LINE
  8
1
  6
CONTINUOUS
 62
   233
  5
15B
 10
100.311
 20
44.35275
 30
0.0
 11
100.598833
 21
44.410333
 31
0.0
  0
LINE
  8
1
  6
CONTINUOUS
 62
   233
  5
15C
 10
100.598833
 20
44.410333
 30
0.0
 11
100.963417
 21
44.35275
 31
0.0
  0
LINE
  8
1
  6
CONTINUOUS
 62
   233
  5
15D
 10
100.963417
 20
44.35275
 30
0.0
 11
101.318417
 21
44.448667
 31
0.0
  0
LINE
  8
1
  6
CONTINUOUS
 62
   233
  5
15E
 10
101.318417
 20
44.448667
 30
0.0
 11
101.6255
 21
44.35275
 31
0.0
  0
LINE
  8
1
  6
CONTINUOUS
 62
   233
  5
15F
 10
101.6255
 20
44.35275
 30
0.0
 11
102.00925
 21
44.419917
 31
0.0
  0
LINE
  8
1
  6
CONTINUOUS
 62
   233
  5
160
 10
102.00925
 20
44.419917
 30
0.0
 11
102.2875
 21
44.323917
 31
0.0
  0
LINE
  8
1
  6
CONTINUOUS
 62
   233
  5
161
 10
102.2875
 20
44.323917
 30
0.0
 11
102.623333
 21
44.410333
 31
0.0
  0
LINE
  8
1
  6
CONTINUOUS
 62
   233
  5
162
 10
102.623333
 20
44.410333
 30
0.0
 11
103.103
 21
44.314333
 31
0.0
  0
LINE
  8
1
  6
CONTINUOUS
 62
   233
  5
163
 10
103.103
 20
44.314333
 30
0.0
 11
103.515583
 21
44.45825
 31
0.0
  0
LINE
  8
1
  6
CONTINUOUS
 62
   233
  5
164
 10
103.515583
 20
44.45825
 30
0.0
 11
103.918583
 21
44.362333
 31
0.0
  0
LINE
  8
1
  6
CONTINUOUS
 62
   233
  5
165
 10
103.918583
 20
44.362333
 30
0.0
 11
104.273583
 21
44.391083
 31
0.0
  0
LINE
  8
1
  6
CONTINUOUS
 62
   233
  5
166
 10
104.273583
 20
44.391083
 30
0.0
 11
104.6765
 21
44.343167
 31
0.0
  0
LINE
  8
1
  6
CONTINUOUS
 62
   233
  5
167
 10
104.6765
 20
44.343167
 30
0.0
 11
104.945167
 21
44.4295
 31
0.0
  0
LINE
  8
1
  6
CONTINUOUS
 62
   233
  5
168
 10
104.945167
 20
44.4295
 30
0.0
 11
105.367333
 21
44.343167
 31
0.0
  0
LINE
  8
1
  6
CONTINUOUS
 62
   233
  5
169
 10
105.367333
 20
44.343167
 30
0.0
 11
105.703167
 21
44.410333
 31
0.0
  0
LINE
  8
1
  6
CONTINUOUS
 62
   233
  5
16A
 10
105.703167
 20
44.410333
 30
0.0
 11
105.923833
 21
44.323917
 31
0.0
  0
LINE
  8
1
  6
CONTINUOUS
 62
   233
  5
16B
 10
105.923833
 20
44.323917
 30
0.0
 11
106.17025
 21
44.41
 31
0.0
  0
LINE
  8
1
  6
CONTINUOUS
 62
   233
  5
16C
 10
102.438917
 20
47.978
 30
0.0
 11
102.56575
 21
47.978
 31
0.0
  0
LINE
  8
1
  6
CONTINUOUS
 62
   233
  5
16D
 10
102.438917
 20
47.978
 30
0.0
 11
102.2875
 21
47.978
 31
0.0
  0
LINE
  8
1
  6
CONTINUOUS
 62
   233
  5
16E
 10
102.2875
 20
47.978
 30
0.0
 11
102.172333
 21
47.461417
 31
0.0
  0
LINE
  8
1
  6
CONTINUOUS
 62
   233
  5
16F
 10
102.172333
 20
47.461417
 30
0.0
 11
102.632917
 21
47.461417
 31
0.0
  0
LINE
  8
1
  6
CONTINUOUS
 62
   233
  5
170
 10
102.590417
 20
47.978
 30
0.0
 11
102.7055
 21
47.461417
 31
0.0
  0
LINE
  8
1
  6
CONTINUOUS
 62
   233
  5
171
 10
102.632917
 20
47.461417
 30
0.0
 11
102.7055
 21
47.461417
 31
0.0
  0
INSERT
  8
1
  6
CONTINUOUS
 62
     7
  5
3E7
  2
$X1
 10
94.913417
 20
39.612833
 30
0.0
210
0.0
220
0.0
230
1.0
  0
LINE
  8
4
  6
CONTINUOUS
 62
    99
  5
3E9
 10
105.2615
 20
46.578667
 30
0.0
 11
105.271333
 21
46.578667
 31
0.0
  0
POINT
  8
4
  6
CONTINUOUS
 62
    99
  5
3EA
 10
105.271333
 20
46.578667
 30
0.0
  0
LINE
  8
4
  6
CONTINUOUS
 62
    99
  5
3EB
 10
105.616583
 20
46.626
 30
0.0
 11
105.645167
 21
46.626
 31
0.0
  0
LINE
  8
4
  6
CONTINUOUS
 62
    99
  5
3EC
 10
105.663833
 20
46.837
 30
0.0
 11
105.683667
 21
46.837
 31
0.0
  0
POINT
  8
4
  6
CONTINUOUS
 62
    99
  5
3ED
 10
105.683667
 20
46.837
 30
0.0
  0
LINE
  8
4
  6
CONTINUOUS
 62
    99
  5
3EE
 10
105.645167
 20
46.5105
 30
0.0
 11
105.645167
 21
46.50175
 31
0.0
  0
LINE
  8
4
  6
CONTINUOUS
 62
    99
  5
3EF
 10
105.817833
 20
46.558917
 30
0.0
 11
105.807917
 21
46.568833
 31
0.0
  0
INSERT
  8
1
  6
CONTINUOUS
 62
     7
  5
447
  2
$X2
 10
94.913417
 20
39.612833
 30
0.0
210
0.0
220
0.0
230
1.0
  0
INSERT
  8
1
  6
CONTINUOUS
 62
     7
  5
450
  2
$X3
 10
94.913417
 20
39.612833
 30
0.0
210
0.0
220
0.0
230
1.0
  0
INSERT
  8
1
  6
CONTINUOUS
 62
     7
  5
45B
  2
$X4
 10
94.913417
 20
39.612833
 30
0.0
210
0.0
220
0.0
230
1.0
  0
LINE
  8
4
  6
CONTINUOUS
 62
    99
  5
45C
 10
105.397083
 20
47.01625
 30
0.0
 11
105.405667
 21
47.01625
 31
0.0
  0
LINE
  8
4
  6
CONTINUOUS
 62
    99
  5
45D
 10
105.939
 20
46.936
 30
0.0
 11
105.94475
 21
46.936
 31
0.0
  0
POINT
  8
4
  6
CONTINUOUS
 62
    99
  5
45E
 10
105.741167
 20
46.712333
 30
0.0
  0
LINE
  8
4
  6
CONTINUOUS
 62
    99
  5
45F
 10
105.33975
 20
46.849917
 30
0.0
 11
105.348333
 21
46.849917
 31
0.0
  0
POINT
  8
4
  6
CONTINUOUS
 62
    99
  5
460
 10
105.57775
 20
46.835583
 30
0.0
  0
LINE
  8
4
  6
CONTINUOUS
 62
    99
  5
461
 10
106.04225
 20
46.634917
 30
0.0
 11
106.048
 21
46.640667
 31
0.0
  0
INSERT
  8
1
  6
CONTINUOUS
 62
     7
  5
462
  2
$X4
 10
87.362833
 20
39.612833
 30
0.0
210
0.0
220
0.0
230
1.0
  0
INSERT
  8
1
  6
CONTINUOUS
 62
     7
  5
463
  2
$X3
 10
87.362833
 20
39.612833
 30
0.0
210
0.0
220
0.0
230
1.0
  0
LINE
  8
1
  6
CONTINUOUS
 62
   233
  5
464
 10
111.029833
 20
56.128417
 30
0.0
 11
110.968167
 21
55.643083
 31
0.0
  0
LINE
  8
1
  6
CONTINUOUS
 62
   233
  5
465
 10
110.968167
 20
55.643083
 30
0.0
 11
111.615167
 21
55.643083
 31
0.0
  0
LINE
  8
1
  6
CONTINUOUS
 62
   233
  5
466
 10
111.615167
 20
55.643083
 30
0.0
 11
111.615167
 21
53.524417
 31
0.0
  0
LINE
  8
1
  6
CONTINUOUS
 62
   233
  5
467
 10
111.615167
 20
53.524417
 30
0.0
 11
114.095417
 21
53.524417
 31
0.0
  0
LINE
  8
1
  6
CONTINUOUS
 62
   233
  5
468
 10
114.095417
 20
53.524417
 30
0.0
 11
114.095417
 21
55.643083
 31
0.0
  0
LINE
  8
1
  6
CONTINUOUS
 62
   233
  5
469
 10
114.095417
 20
55.643083
 30
0.0
 11
111.615167
 21
55.643083
 31
0.0
  0
LINE
  8
1
  6
CONTINUOUS
 62
   233
  5
46A
 10
114.7425
 20
55.643083
 30
0.0
 11
114.095417
 21
55.643083
 31
0.0
  0
LINE
  8
1
  6
CONTINUOUS
 62
   233
  5
46B
 10
114.680833
 20
56.128417
 30
0.0
 11
114.7425
 21
55.643083
 31
0.0
  0
LINE
  8
1
  6
CONTINUOUS
 62
   233
  5
46C
 10
111.029833
 20
56.128417
 30
0.0
 11
114.680833
 21
56.128417
 31
0.0
  0
LINE
  8
1
  6
CONTINUOUS
 62
   233
  5
46D
 10
110.613833
 20
56.351833
 30
0.0
 11
116.383167
 21
56.351833
 31
0.0
  0
LINE
  8
1
  6
CONTINUOUS
 62
   233
  5
46E
 10
115.05825
 20
56.351833
 30
0.0
 11
115.05825
 21
55.180833
 31
0.0
  0
LINE
  8
1
  6
CONTINUOUS
 62
   233
  5
46F
 10
115.05825
 20
55.180833
 30
0.0
 11
116.383167
 21
55.180833
 31
0.0
  0
LINE
  8
1
  6
CONTINUOUS
 62
   233
  5
470
 10
115.150667
 20
56.351833
 30
0.0
 11
115.150667
 21
55.180833
 31
0.0
  0
LINE
  8
1
  6
CONTINUOUS
 62
   233
  5
471
 10
111.345583
 20
56.351833
 30
0.0
 11
111.345583
 21
56.128417
 31
0.0
  0
LINE
  8
1
  6
CONTINUOUS
 62
   233
  5
472
 10
114.311083
 20
56.351833
 30
0.0
 11
114.311083
 21
56.128417
 31
0.0
  0
LINE
  8
1
  6
CONTINUOUS
 62
   233
  5
473
 10
110.613833
 20
56.351833
 30
0.0
 11
110.613833
 21
55.874167
 31
0.0
  0
LINE
  8
1
  6
CONTINUOUS
 62
   233
  5
474
 10
110.613833
 20
55.874167
 30
0.0
 11
110.583083
 21
55.697
 31
0.0
  0
LINE
  8
1
  6
CONTINUOUS
 62
   233
  5
475
 10
110.583083
 20
55.697
 30
0.0
 11
110.583083
 21
55.558333
 31
0.0
  0
LINE
  8
1
  6
CONTINUOUS
 62
   233
  5
476
 10
110.583083
 20
55.558333
 30
0.0
 11
110.613833
 21
55.350333
 31
0.0
  0
LINE
  8
1
  6
CONTINUOUS
 62
   233
  5
477
 10
110.613833
 20
55.350333
 30
0.0
 11
110.59075
 21
55.15
 31
0.0
  0
LINE
  8
1
  6
CONTINUOUS
 62
   233
  5
478
 10
110.59075
 20
55.15
 30
0.0
 11
110.613833
 21
54.934333
 31
0.0
  0
LINE
  8
1
  6
CONTINUOUS
 62
   233
  5
479
 10
110.613833
 20
54.934333
 30
0.0
 11
110.583083
 21
54.68775
 31
0.0
  0
LINE
  8
1
  6
CONTINUOUS
 62
   233
  5
47A
 10
110.583083
 20
54.68775
 30
0.0
 11
110.652417
 21
54.379583
 31
0.0
  0
LINE
  8
1
  6
CONTINUOUS
 62
   233
  5
47B
 10
110.652417
 20
54.379583
 30
0.0
 11
110.613833
 21
54.079167
 31
0.0
  0
LINE
  8
1
  6
CONTINUOUS
 62
   233
  5
47C
 10
110.613833
 20
54.079167
 30
0.0
 11
110.62925
 21
53.76325
 31
0.0
  0
LINE
  8
1
  6
CONTINUOUS
 62
   233
  5
47D
 10
110.62925
 20
53.76325
 30
0.0
 11
110.583083
 21
53.47825
 31
0.0
  0
LINE
  8
1
  6
CONTINUOUS
 62
   233
  5
47E
 10
110.583083
 20
53.47825
 30
0.0
 11
110.644667
 21
53.1855
 31
0.0
  0
LINE
  8
1
  6
CONTINUOUS
 62
   233
  5
47F
 10
110.644667
 20
53.1855
 30
0.0
 11
110.613833
 21
52.938917
 31
0.0
  0
LINE
  8
1
  6
CONTINUOUS
 62
   233
  5
480
 10
110.613833
 20
52.938917
 30
0.0
 11
110.621583
 21
52.792583
 31
0.0
  0
LINE
  8
1
  6
CONTINUOUS
 62
   233
  5
481
 10
110.621583
 20
52.792583
 30
0.0
 11
110.62925
 21
52.569167
 31
0.0
  0
LINE
  8
1
  6
CONTINUOUS
 62
   233
  5
482
 10
110.62925
 20
52.569167
 30
0.0
 11
110.883417
 21
52.576833
 31
0.0
  0
LINE
  8
1
  6
CONTINUOUS
 62
   233
  5
483
 10
110.883417
 20
52.576833
 30
0.0
 11
111.176167
 21
52.576833
 31
0.0
  0
LINE
  8
1
  6
CONTINUOUS
 62
   233
  5
484
 10
111.176167
 20
52.576833
 30
0.0
 11
111.33025
 21
52.538333
 31
0.0
  0
LINE
  8
1
  6
CONTINUOUS
 62
   233
  5
485
 10
111.33025
 20
52.538333
 30
0.0
 11
111.599833
 21
52.576833
 31
0.0
  0
LINE
  8
1
  6
CONTINUOUS
 62
   233
  5
486
 10
111.599833
 20
52.576833
 30
0.0
 11
111.8155
 21
52.546
 31
0.0
  0
LINE
  8
1
  6
CONTINUOUS
 62
   233
  5
487
 10
111.8155
 20
52.546
 30
0.0
 11
112.146667
 21
52.576833
 31
0.0
  0
LINE
  8
1
  6
CONTINUOUS
 62
   233
  5
488
 10
112.146667
 20
52.576833
 30
0.0
 11
112.424
 21
52.522917
 31
0.0
  0
LINE
  8
1
  6
CONTINUOUS
 62
   233
  5
489
 10
112.424
 20
52.522917
 30
0.0
 11
112.732083
 21
52.576833
 31
0.0
  0
LINE
  8
1
  6
CONTINUOUS
 62
   233
  5
48A
 10
112.732083
 20
52.576833
 30
0.0
 11
112.98625
 21
52.538333
 31
0.0
  0
LINE
  8
1
  6
CONTINUOUS
 62
   233
  5
48B
 10
112.98625
 20
52.538333
 30
0.0
 11
113.171167
 21
52.561417
 31
0.0
  0
LINE
  8
1
  6
CONTINUOUS
 62
   233
  5
48C
 10
113.171167
 20
52.561417
 30
0.0
 11
113.564
 21
52.51525
 31
0.0
  0
LINE
  8
1
  6
CONTINUOUS
 62
   233
  5
48D
 10
113.564
 20
52.51525
 30
0.0
 11
113.733417
 21
52.569167
 31
0.0
  0
LINE
  8
1
  6
CONTINUOUS
 62
   233
  5
48E
 10
113.733417
 20
52.569167
 30
0.0
 11
114.026083
 21
52.538333
 31
0.0
  0
LINE
  8
1
  6
CONTINUOUS
 62
   233
  5
48F
 10
114.026083
 20
52.538333
 30
0.0
 11
114.272583
 21
52.576833
 31
0.0
  0
LINE
  8
1
  6
CONTINUOUS
 62
   233
  5
490
 10
114.272583
 20
52.576833
 30
0.0
 11
114.5345
 21
52.538333
 31
0.0
  0
LINE
  8
1
  6
CONTINUOUS
 62
   233
  5
491
 10
114.5345
 20
52.538333
 30
0.0
 11
114.727083
 21
52.561417
 31
0.0
  0
LINE
  8
1
  6
CONTINUOUS
 62
   233
  5
492
 10
114.727083
 20
52.561417
 30
0.0
 11
114.911917
 21
52.538333
 31
0.0
  0
LINE
  8
1
  6
CONTINUOUS
 62
   233
  5
493
 10
114.911917
 20
52.538333
 30
0.0
 11
115.081417
 21
52.561417
 31
0.0
  0
LINE
  8
1
  6
CONTINUOUS
 62
   233
  5
494
 10
115.081417
 20
52.561417
 30
0.0
 11
115.066
 21
52.692417
 31
0.0
  0
LINE
  8
1
  6
CONTINUOUS
 62
   233
  5
495
 10
115.066
 20
52.692417
 30
0.0
 11
115.166083
 21
52.93125
 31
0.0
  0
LINE
  8
1
  6
CONTINUOUS
 62
   233
  5
496
 10
115.166083
 20
52.93125
 30
0.0
 11
115.0275
 21
53.239417
 31
0.0
  0
LINE
  8
1
  6
CONTINUOUS
 62
   233
  5
497
 10
115.0275
 20
53.239417
 30
0.0
 11
115.09675
 21
53.462833
 31
0.0
  0
LINE
  8
1
  6
CONTINUOUS
 62
   233
  5
498
 10
115.09675
 20
53.462833
 30
0.0
 11
115.081417
 21
53.539833
 31
0.0
  0
LINE
  8
1
  6
CONTINUOUS
 62
   233
  5
499
 10
115.119917
 20
54.7725
 30
0.0
 11
115.05825
 21
55.180833
 31
0.0
  0
LINE
  8
1
  6
CONTINUOUS
 62
   233
  5
49A
 10
116.383167
 20
56.351833
 30
0.0
 11
116.390833
 21
56.251667
 31
0.0
  0
LINE
  8
1
  6
CONTINUOUS
 62
   233
  5
49B
 10
116.390833
 20
56.251667
 30
0.0
 11
116.3215
 21
56.166917
 31
0.0
  0
LINE
  8
1
  6
CONTINUOUS
 62
   233
  5
49C
 10
116.3215
 20
56.166917
 30
0.0
 11
116.352333
 21
56.005167
 31
0.0
  0
LINE
  8
1
  6
CONTINUOUS
 62
   233
  5
49D
 10
116.352333
 20
56.005167
 30
0.0
 11
116.290667
 21
55.835667
 31
0.0
  0
LINE
  8
1
  6
CONTINUOUS
 62
   233
  5
49E
 10
116.290667
 20
55.835667
 30
0.0
 11
116.352333
 21
55.65075
 31
0.0
  0
LINE
  8
1
  6
CONTINUOUS
 62
   233
  5
49F
 10
116.352333
 20
55.65075
 30
0.0
 11
116.290667
 21
55.473583
 31
0.0
  0
LINE
  8
1
  6
CONTINUOUS
 62
   233
  5
4A0
 10
116.290667
 20
55.473583
 30
0.0
 11
116.36775
 21
55.311833
 31
0.0
  0
LINE
  8
1
  6
CONTINUOUS
 62
   233
  5
4A1
 10
116.36775
 20
55.311833
 30
0.0
 11
116.383167
 21
55.180833
 31
0.0
  0
LINE
  8
1
  6
CONTINUOUS
 62
   233
  5
4A2
 10
115.081417
 20
53.539833
 30
0.0
 11
115.081417
 21
53.740167
 31
0.0
  0
LINE
  8
1
  6
CONTINUOUS
 62
   233
  5
4A3
 10
115.081417
 20
53.740167
 30
0.0
 11
115.135333
 21
53.986667
 31
0.0
  0
LINE
  8
1
  6
CONTINUOUS
 62
   233
  5
4A4
 10
115.135333
 20
53.986667
 30
0.0
 11
115.042833
 21
54.240917
 31
0.0
  0
LINE
  8
1
  6
CONTINUOUS
 62
   233
  5
4A5
 10
115.042833
 20
54.240917
 30
0.0
 11
115.166083
 21
54.4875
 31
0.0
  0
LINE
  8
1
  6
CONTINUOUS
 62
   233
  5
4A6
 10
115.166083
 20
54.4875
 30
0.0
 11
115.119917
 21
54.7725
 31
0.0
  0
POINT
  8
1
  6
CONTINUOUS
 62
     7
  5
4A7
 10
111.480417
 20
53.790583
 30
0.0
  0
POINT
  8
1
  6
CONTINUOUS
 62
     7
  5
4A8
 10
114.180417
 20
53.790583
 30
0.0
  0
POINT
  8
1
  6
CONTINUOUS
 62
     7
  5
4A9
 10
115.080417
 20
53.790583
 30
0.0
  0
POINT
  8
1
  6
CONTINUOUS
 62
     7
  5
4AA
 10
111.480417
 20
54.690583
 30
0.0
  0
POINT
  8
1
  6
CONTINUOUS
 62
     7
  5
4AB
 10
114.180417
 20
54.690583
 30
0.0
  0
POINT
  8
1
  6
CONTINUOUS
 62
     7
  5
4AC
 10
115.080417
 20
54.690583
 30
0.0
  0
POINT
  8
1
  6
CONTINUOUS
 62
     7
  5
4AD
 10
111.480417
 20
55.5905
 30
0.0
  0
POINT
  8
1
  6
CONTINUOUS
 62
     7
  5
4AE
 10
114.180417
 20
55.5905
 30
0.0
  0
POINT
  8
1
  6
CONTINUOUS
 62
     7
  5
4AF
 10
111.480417
 20
52.890583
 30
0.0
  0
POINT
  8
1
  6
CONTINUOUS
 62
     7
  5
4B0
 10
112.380417
 20
52.890583
 30
0.0
  0
POINT
  8
1
  6
CONTINUOUS
 62
     7
  5
4B1
 10
113.280417
 20
52.890583
 30
0.0
  0
POINT
  8
1
  6
CONTINUOUS
 62
     7
  5
4B2
 10
114.180417
 20
52.890583
 30
0.0
  0
POINT
  8
1
  6
CONTINUOUS
 62
     7
  5
4B3
 10
115.080417
 20
52.890583
 30
0.0
  0
POINT
  8
1
  6
CONTINUOUS
 62
     7
  5
4B4
 10
111.489417
 20
54.3755
 30
0.0
  0
POINT
  8
1
  6
CONTINUOUS
 62
     7
  5
4B5
 10
114.189417
 20
54.3755
 30
0.0
  0
POINT
  8
1
  6
CONTINUOUS
 62
     7
  5
4B6
 10
115.089417
 20
54.3755
 30
0.0
  0
POINT
  8
1
  6
CONTINUOUS
 62
     7
  5
4B7
 10
111.489417
 20
55.275583
 30
0.0
  0
POINT
  8
1
  6
CONTINUOUS
 62
     7
  5
4B8
 10
114.189417
 20
55.275583
 30
0.0
  0
POINT
  8
1
  6
CONTINUOUS
 62
     7
  5
4B9
 10
110.589333
 20
53.475583
 30
0.0
  0
POINT
  8
1
  6
CONTINUOUS
 62
     7
  5
4BA
 10
111.489417
 20
53.475583
 30
0.0
  0
POINT
  8
1
  6
CONTINUOUS
 62
     7
  5
4BB
 10
112.389417
 20
53.475583
 30
0.0
  0
POINT
  8
1
  6
CONTINUOUS
 62
     7
  5
4BC
 10
113.289417
 20
53.475583
 30
0.0
  0
POINT
  8
1
  6
CONTINUOUS
 62
     7
  5
4BD
 10
114.189417
 20
53.475583
 30
0.0
  0
POINT
  8
1
  6
CONTINUOUS
 62
     7
  5
4BE
 10
115.089417
 20
53.475583
 30
0.0
  0
POINT
  8
1
  6
CONTINUOUS
 62
     7
  5
4BF
 10
111.489417
 20
52.575583
 30
0.0
  0
POINT
  8
1
  6
CONTINUOUS
 62
     7
  5
4C0
 10
113.289417
 20
52.575583
 30
0.0
  0
POINT
  8
1
  6
CONTINUOUS
 62
     7
  5
4C1
 10
114.189417
 20
52.575583
 30
0.0
  0
POINT
  8
1
  6
CONTINUOUS
 62
     7
  5
4C2
 10
112.389417
 20
52.575583
 30
0.0
  0
POINT
  8
1
  6
CONTINUOUS
 62
     7
  5
4C3
 10
111.516333
 20
53.961583
 30
0.0
  0
POINT
  8
1
  6
CONTINUOUS
 62
     7
  5
4C4
 10
114.216417
 20
53.961583
 30
0.0
  0
POINT
  8
1
  6
CONTINUOUS
 62
     7
  5
4C5
 10
115.116417
 20
53.961583
 30
0.0
  0
POINT
  8
1
  6
CONTINUOUS
 62
     7
  5
4C6
 10
110.616417
 20
54.861583
 30
0.0
  0
POINT
  8
1
  6
CONTINUOUS
 62
     7
  5
4C7
 10
111.516333
 20
54.861583
 30
0.0
  0
POINT
  8
1
  6
CONTINUOUS
 62
     7
  5
4C8
 10
114.216417
 20
54.861583
 30
0.0
  0
POINT
  8
1
  6
CONTINUOUS
 62
     7
  5
4C9
 10
110.616417
 20
55.761583
 30
0.0
  0
POINT
  8
1
  6
CONTINUOUS
 62
     7
  5
4CA
 10
111.516333
 20
53.061583
 30
0.0
  0
POINT
  8
1
  6
CONTINUOUS
 62
     7
  5
4CB
 10
112.416417
 20
53.061583
 30
0.0
  0
POINT
  8
1
  6
CONTINUOUS
 62
     7
  5
4CC
 10
113.316417
 20
53.061583
 30
0.0
  0
POINT
  8
1
  6
CONTINUOUS
 62
     7
  5
4CD
 10
114.216417
 20
53.061583
 30
0.0
  0
LINE
  8
1
  6
CONTINUOUS
 62
     7
  5
4CE
 10
114.648333
 20
53.6825
 30
0.0
 11
114.738333
 21
53.6465
 31
0.0
  0
LINE
  8
1
  6
CONTINUOUS
 62
     7
  5
4CF
 10
114.648333
 20
54.5825
 30
0.0
 11
114.738333
 21
54.5465
 31
0.0
  0
LINE
  8
1
  6
CONTINUOUS
 62
     7
  5
4D0
 10
111.124917
 20
56.351833
 30
0.0
 11
111.138333
 21
56.3465
 31
0.0
  0
LINE
  8
1
  6
CONTINUOUS
 62
     7
  5
4D1
 10
114.648333
 20
55.4825
 30
0.0
 11
114.738333
 21
55.4465
 31
0.0
  0
LINE
  8
1
  6
CONTINUOUS
 62
     7
  5
4D2
 10
114.724917
 20
56.351833
 30
0.0
 11
114.738333
 21
56.3465
 31
0.0
  0
LINE
  8
1
  6
CONTINUOUS
 62
     7
  5
4D3
 10
111.048333
 20
54.5825
 30
0.0
 11
111.138333
 21
54.5465
 31
0.0
  0
LINE
  8
1
  6
CONTINUOUS
 62
     7
  5
4D4
 10
114.648333
 20
52.7825
 30
0.0
 11
114.738333
 21
52.7465
 31
0.0
  0
LINE
  8
1
  6
CONTINUOUS
 62
     7
  5
4D5
 10
113.748333
 20
52.7825
 30
0.0
 11
113.838333
 21
52.7465
 31
0.0
  0
LINE
  8
1
  6
CONTINUOUS
 62
     7
  5
4D6
 10
111.048333
 20
53.6825
 30
0.0
 11
111.138333
 21
53.6465
 31
0.0
  0
LINE
  8
1
  6
CONTINUOUS
 62
     7
  5
4D7
 10
112.848333
 20
52.7825
 30
0.0
 11
112.938333
 21
52.7465
 31
0.0
  0
LINE
  8
1
  6
CONTINUOUS
 62
     7
  5
4D8
 10
111.948333
 20
52.7825
 30
0.0
 11
112.038333
 21
52.7465
 31
0.0
  0
LINE
  8
1
  6
CONTINUOUS
 62
     7
  5
4D9
 10
111.048333
 20
52.7825
 30
0.0
 11
111.138333
 21
52.7465
 31
0.0
  0
LINE
  8
1
  6
CONTINUOUS
 62
     7
  5
4DA
 10
111.138333
 20
52.746583
 30
0.0
 11
111.102333
 21
52.719583
 31
0.0
  0
LINE
  8
1
  6
CONTINUOUS
 62
     7
  5
4DB
 10
114.738333
 20
55.446583
 30
0.0
 11
114.702333
 21
55.419583
 31
0.0
  0
LINE
  8
1
  6
CONTINUOUS
 62
     7
  5
4DC
 10
112.038333
 20
52.746583
 30
0.0
 11
112.002333
 21
52.719583
 31
0.0
  0
LINE
  8
1
  6
CONTINUOUS
 62
     7
  5
4DD
 10
114.738333
 20
54.546583
 30
0.0
 11
114.702333
 21
54.519583
 31
0.0
  0
LINE
  8
1
  6
CONTINUOUS
 62
     7
  5
4DE
 10
112.938333
 20
52.746583
 30
0.0
 11
112.902333
 21
52.719583
 31
0.0
  0
LINE
  8
1
  6
CONTINUOUS
 62
     7
  5
4DF
 10
114.738333
 20
53.646583
 30
0.0
 11
114.702333
 21
53.619583
 31
0.0
  0
LINE
  8
1
  6
CONTINUOUS
 62
     7
  5
4E0
 10
113.838333
 20
52.746583
 30
0.0
 11
113.802333
 21
52.719583
 31
0.0
  0
LINE
  8
1
  6
CONTINUOUS
 62
     7
  5
4E1
 10
114.738333
 20
52.746583
 30
0.0
 11
114.702333
 21
52.719583
 31
0.0
  0
LINE
  8
1
  6
CONTINUOUS
 62
     7
  5
4E2
 10
111.138333
 20
53.646583
 30
0.0
 11
111.102333
 21
53.619583
 31
0.0
  0
LINE
  8
1
  6
CONTINUOUS
 62
     7
  5
4E3
 10
114.738333
 20
56.346583
 30
0.0
 11
114.702333
 21
56.319583
 31
0.0
  0
LINE
  8
1
  6
CONTINUOUS
 62
     7
  5
4E4
 10
111.138333
 20
54.546583
 30
0.0
 11
111.102333
 21
54.519583
 31
0.0
  0
LINE
  8
1
  6
CONTINUOUS
 62
     7
  5
4E5
 10
111.138333
 20
56.346583
 30
0.0
 11
111.102333
 21
56.319583
 31
0.0
  0
LINE
  8
1
  6
CONTINUOUS
 62
     7
  5
4E6
 10
111.102333
 20
56.3195
 30
0.0
 11
111.074583
 21
56.351833
 31
0.0
  0
LINE
  8
1
  6
CONTINUOUS
 62
     7
  5
4E7
 10
113.802333
 20
52.7195
 30
0.0
 11
113.748333
 21
52.7825
 31
0.0
  0
LINE
  8
1
  6
CONTINUOUS
 62
     7
  5
4E8
 10
112.902333
 20
52.7195
 30
0.0
 11
112.848333
 21
52.7825
 31
0.0
  0
LINE
  8
1
  6
CONTINUOUS
 62
     7
  5
4E9
 10
111.102333
 20
54.5195
 30
0.0
 11
111.048333
 21
54.5825
 31
0.0
  0
LINE
  8
1
  6
CONTINUOUS
 62
     7
  5
4EA
 10
112.002333
 20
52.7195
 30
0.0
 11
111.948333
 21
52.7825
 31
0.0
  0
LINE
  8
1
  6
CONTINUOUS
 62
     7
  5
4EB
 10
111.102333
 20
53.6195
 30
0.0
 11
111.048333
 21
53.6825
 31
0.0
  0
LINE
  8
1
  6
CONTINUOUS
 62
     7
  5
4EC
 10
111.102333
 20
52.7195
 30
0.0
 11
111.048333
 21
52.7825
 31
0.0
  0
LINE
  8
1
  6
CONTINUOUS
 62
     7
  5
4ED
 10
111.102333
 20
52.7195
 30
0.0
 11
111.048333
 21
52.7825
 31
0.0
  0
LINE
  8
1
  6
CONTINUOUS
 62
     7
  5
4EE
 10
114.702333
 20
52.7195
 30
0.0
 11
114.648333
 21
52.7825
 31
0.0
  0
LINE
  8
1
  6
CONTINUOUS
 62
     7
  5
4EF
 10
114.702333
 20
53.6195
 30
0.0
 11
114.648333
 21
53.6825
 31
0.0
  0
LINE
  8
1
  6
CONTINUOUS
 62
     7
  5
4F0
 10
114.702333
 20
54.5195
 30
0.0
 11
114.648333
 21
54.5825
 31
0.0
  0
LINE
  8
1
  6
CONTINUOUS
 62
     7
  5
4F1
 10
114.702333
 20
55.4195
 30
0.0
 11
114.648333
 21
55.4825
 31
0.0
  0
LINE
  8
1
  6
CONTINUOUS
 62
     7
  5
4F2
 10
114.702333
 20
56.3195
 30
0.0
 11
114.674583
 21
56.351833
 31
0.0
  0
LINE
  8
1
  6
CONTINUOUS
 62
     7
  5
4F3
 10
111.705333
 20
53.511583
 30
0.0
 11
111.687333
 21
53.502583
 31
0.0
  0
LINE
  8
1
  6
CONTINUOUS
 62
     7
  5
4F4
 10
112.605333
 20
53.511583
 30
0.0
 11
112.587333
 21
53.502583
 31
0.0
  0
LINE
  8
1
  6
CONTINUOUS
 62
     7
  5
4F5
 10
110.805333
 20
52.611583
 30
0.0
 11
110.787333
 21
52.602583
 31
0.0
  0
LINE
  8
1
  6
CONTINUOUS
 62
     7
  5
4F6
 10
114.405333
 20
54.411583
 30
0.0
 11
114.387333
 21
54.402583
 31
0.0
  0
LINE
  8
1
  6
CONTINUOUS
 62
     7
  5
4F7
 10
113.505333
 20
53.511583
 30
0.0
 11
113.487333
 21
53.502583
 31
0.0
  0
LINE
  8
1
  6
CONTINUOUS
 62
     7
  5
4F8
 10
111.705333
 20
52.611583
 30
0.0
 11
111.687333
 21
52.602583
 31
0.0
  0
LINE
  8
1
  6
CONTINUOUS
 62
     7
  5
4F9
 10
114.405333
 20
53.511583
 30
0.0
 11
114.387333
 21
53.502583
 31
0.0
  0
LINE
  8
1
  6
CONTINUOUS
 62
     7
  5
4FA
 10
112.605333
 20
52.611583
 30
0.0
 11
112.587333
 21
52.602583
 31
0.0
  0
LINE
  8
1
  6
CONTINUOUS
 62
     7
  5
4FB
 10
113.505333
 20
52.611583
 30
0.0
 11
113.487333
 21
52.602583
 31
0.0
  0
LINE
  8
1
  6
CONTINUOUS
 62
     7
  5
4FC
 10
114.405333
 20
52.611583
 30
0.0
 11
114.387333
 21
52.602583
 31
0.0
  0
LINE
  8
1
  6
CONTINUOUS
 62
     7
  5
4FD
 10
110.805333
 20
53.511583
 30
0.0
 11
110.787333
 21
53.502583
 31
0.0
  0
LINE
  8
1
  6
CONTINUOUS
 62
     7
  5
4FE
 10
114.405333
 20
55.311583
 30
0.0
 11
114.387333
 21
55.302583
 31
0.0
  0
LINE
  8
1
  6
CONTINUOUS
 62
     7
  5
4FF
 10
110.805333
 20
54.411583
 30
0.0
 11
110.787333
 21
54.402583
 31
0.0
  0
LINE
  8
1
  6
CONTINUOUS
 62
     7
  5
500
 10
114.405333
 20
56.211583
 30
0.0
 11
114.387333
 21
56.202583
 31
0.0
  0
LINE
  8
1
  6
CONTINUOUS
 62
     7
  5
501
 10
110.805333
 20
55.311583
 30
0.0
 11
110.787333
 21
55.302583
 31
0.0
  0
LINE
  8
1
  6
CONTINUOUS
 62
     7
  5
502
 10
110.805333
 20
56.211583
 30
0.0
 11
110.787333
 21
56.202583
 31
0.0
  0
LINE
  8
1
  6
CONTINUOUS
 62
     7
  5
503
 10
114.387333
 20
53.5025
 30
0.0
 11
114.414333
 21
53.4845
 31
0.0
  0
LINE
  8
1
  6
CONTINUOUS
 62
     7
  5
504
 10
110.787333
 20
56.2025
 30
0.0
 11
110.814333
 21
56.1845
 31
0.0
  0
LINE
  8
1
  6
CONTINUOUS
 62
     7
  5
505
 10
114.387333
 20
54.4025
 30
0.0
 11
114.414333
 21
54.3845
 31
0.0
  0
LINE
  8
1
  6
CONTINUOUS
 62
     7
  5
506
 10
114.387333
 20
55.3025
 30
0.0
 11
114.414333
 21
55.2845
 31
0.0
  0
LINE
  8
1
  6
CONTINUOUS
 62
     7
  5
507
 10
114.387333
 20
56.2025
 30
0.0
 11
114.414333
 21
56.1845
 31
0.0
  0
LINE
  8
1
  6
CONTINUOUS
 62
     7
  5
508
 10
110.787333
 20
55.3025
 30
0.0
 11
110.814333
 21
55.2845
 31
0.0
  0
LINE
  8
1
  6
CONTINUOUS
 62
     7
  5
509
 10
113.487333
 20
53.5025
 30
0.0
 11
113.514333
 21
53.4845
 31
0.0
  0
LINE
  8
1
  6
CONTINUOUS
 62
     7
  5
50A
 10
114.387333
 20
52.6025
 30
0.0
 11
114.414333
 21
52.5845
 31
0.0
  0
LINE
  8
1
  6
CONTINUOUS
 62
     7
  5
50B
 10
112.587333
 20
53.5025
 30
0.0
 11
112.614333
 21
53.4845
 31
0.0
  0
LINE
  8
1
  6
CONTINUOUS
 62
     7
  5
50C
 10
110.787333
 20
54.4025
 30
0.0
 11
110.814333
 21
54.3845
 31
0.0
  0
LINE
  8
1
  6
CONTINUOUS
 62
     7
  5
50D
 10
113.487333
 20
52.6025
 30
0.0
 11
113.514333
 21
52.5845
 31
0.0
  0
LINE
  8
1
  6
CONTINUOUS
 62
     7
  5
50E
 10
111.687333
 20
53.5025
 30
0.0
 11
111.714333
 21
53.4845
 31
0.0
  0
LINE
  8
1
  6
CONTINUOUS
 62
     7
  5
50F
 10
112.587333
 20
52.6025
 30
0.0
 11
112.614333
 21
52.5845
 31
0.0
  0
LINE
  8
1
  6
CONTINUOUS
 62
     7
  5
510
 10
110.787333
 20
53.5025
 30
0.0
 11
110.814333
 21
53.4845
 31
0.0
  0
LINE
  8
1
  6
CONTINUOUS
 62
     7
  5
511
 10
111.687333
 20
52.6025
 30
0.0
 11
111.714333
 21
52.5845
 31
0.0
  0
LINE
  8
1
  6
CONTINUOUS
 62
     7
  5
512
 10
110.787333
 20
52.6025
 30
0.0
 11
110.814333
 21
52.5845
 31
0.0
  0
LINE
  8
1
  6
CONTINUOUS
 62
     7
  5
513
 10
112.614417
 20
53.484583
 30
0.0
 11
112.605417
 21
53.511583
 31
0.0
  0
LINE
  8
1
  6
CONTINUOUS
 62
     7
  5
514
 10
112.614417
 20
52.584583
 30
0.0
 11
112.605417
 21
52.611583
 31
0.0
  0
LINE
  8
1
  6
CONTINUOUS
 62
     7
  5
515
 10
111.714417
 20
53.484583
 30
0.0
 11
111.705417
 21
53.511583
 31
0.0
  0
LINE
  8
1
  6
CONTINUOUS
 62
     7
  5
516
 10
110.814417
 20
56.184583
 30
0.0
 11
110.805417
 21
56.211583
 31
0.0
  0
LINE
  8
1
  6
CONTINUOUS
 62
     7
  5
517
 10
111.714417
 20
52.584583
 30
0.0
 11
111.705417
 21
52.611583
 31
0.0
  0
LINE
  8
1
  6
CONTINUOUS
 62
     7
  5
518
 10
110.814417
 20
55.284583
 30
0.0
 11
110.805417
 21
55.311583
 31
0.0
  0
LINE
  8
1
  6
CONTINUOUS
 62
     7
  5
519
 10
110.814417
 20
54.384583
 30
0.0
 11
110.805417
 21
54.411583
 31
0.0
  0
LINE
  8
1
  6
CONTINUOUS
 62
     7
  5
51A
 10
110.814417
 20
53.484583
 30
0.0
 11
110.805417
 21
53.511583
 31
0.0
  0
LINE
  8
1
  6
CONTINUOUS
 62
     7
  5
51B
 10
110.814417
 20
52.584583
 30
0.0
 11
110.805417
 21
52.611583
 31
0.0
  0
LINE
  8
1
  6
CONTINUOUS
 62
     7
  5
51C
 10
113.514417
 20
52.584583
 30
0.0
 11
113.505417
 21
52.611583
 31
0.0
  0
LINE
  8
1
  6
CONTINUOUS
 62
     7
  5
51D
 10
113.514417
 20
53.484583
 30
0.0
 11
113.505417
 21
53.511583
 31
0.0
  0
LINE
  8
1
  6
CONTINUOUS
 62
     7
  5
51E
 10
114.414417
 20
52.584583
 30
0.0
 11
114.405417
 21
52.611583
 31
0.0
  0
LINE
  8
1
  6
CONTINUOUS
 62
     7
  5
51F
 10
114.414417
 20
53.484583
 30
0.0
 11
114.405417
 21
53.511583
 31
0.0
  0
LINE
  8
1
  6
CONTINUOUS
 62
     7
  5
520
 10
114.414417
 20
54.384583
 30
0.0
 11
114.405417
 21
54.411583
 31
0.0
  0
LINE
  8
1
  6
CONTINUOUS
 62
     7
  5
521
 10
114.414417
 20
55.284583
 30
0.0
 11
114.405417
 21
55.311583
 31
0.0
  0
LINE
  8
1
  6
CONTINUOUS
 62
     7
  5
522
 10
114.414417
 20
56.184583
 30
0.0
 11
114.405417
 21
56.211583
 31
0.0
  0
LINE
  8
1
  6
CONTINUOUS
 62
     7
  5
523
 10
111.381333
 20
53.4215
 30
0.0
 11
111.354333
 21
53.3945
 31
0.0
  0
LINE
  8
1
  6
CONTINUOUS
 62
     7
  5
524
 10
112.281333
 20
53.4215
 30
0.0
 11
112.254333
 21
53.3945
 31
0.0
  0
LINE
  8
1
  6
CONTINUOUS
 62
     7
  5
525
 10
114.981333
 20
56.1215
 30
0.0
 11
114.954333
 21
56.0945
 31
0.0
  0
LINE
  8
1
  6
CONTINUOUS
 62
     7
  5
526
 10
113.181333
 20
53.4215
 30
0.0
 11
113.154333
 21
53.3945
 31
0.0
  0
LINE
  8
1
  6
CONTINUOUS
 62
     7
  5
527
 10
114.981333
 20
55.2215
 30
0.0
 11
114.954333
 21
55.1945
 31
0.0
  0
LINE
  8
1
  6
CONTINUOUS
 62
     7
  5
528
 10
114.981333
 20
54.3215
 30
0.0
 11
114.954333
 21
54.2945
 31
0.0
  0
LINE
  8
1
  6
CONTINUOUS
 62
     7
  5
529
 10
114.081333
 20
53.4215
 30
0.0
 11
114.054333
 21
53.3945
 31
0.0
  0
LINE
  8
1
  6
CONTINUOUS
 62
     7
  5
52A
 10
114.981333
 20
53.4215
 30
0.0
 11
114.954333
 21
53.3945
 31
0.0
  0
LINE
  8
1
  6
CONTINUOUS
 62
     7
  5
52B
 10
111.381333
 20
54.3215
 30
0.0
 11
111.354333
 21
54.2945
 31
0.0
  0
LINE
  8
1
  6
CONTINUOUS
 62
     7
  5
52C
 10
111.381333
 20
55.2215
 30
0.0
 11
111.354333
 21
55.1945
 31
0.0
  0
LINE
  8
1
  6
CONTINUOUS
 62
     7
  5
52D
 10
111.354417
 20
54.294583
 30
0.0
 11
111.408417
 21
54.294583
 31
0.0
  0
LINE
  8
1
  6
CONTINUOUS
 62
     7
  5
52E
 10
114.0955
 20
54.294583
 30
0.0
 11
114.108417
 21
54.294583
 31
0.0
  0
LINE
  8
1
  6
CONTINUOUS
 62
     7
  5
52F
 10
114.954417
 20
54.294583
 30
0.0
 11
115.008417
 21
54.294583
 31
0.0
  0
LINE
  8
1
  6
CONTINUOUS
 62
     7
  5
530
 10
111.354417
 20
55.194583
 30
0.0
 11
111.408417
 21
55.194583
 31
0.0
  0
LINE
  8
1
  6
CONTINUOUS
 62
     7
  5
531
 10
114.0955
 20
55.194583
 30
0.0
 11
114.108417
 21
55.194583
 31
0.0
  0
LINE
  8
1
  6
CONTINUOUS
 62
     7
  5
532
 10
114.954417
 20
55.194583
 30
0.0
 11
115.008417
 21
55.194583
 31
0.0
  0
LINE
  8
1
  6
CONTINUOUS
 62
     7
  5
533
 10
114.954417
 20
56.094583
 30
0.0
 11
115.008417
 21
56.094583
 31
0.0
  0
LINE
  8
1
  6
CONTINUOUS
 62
     7
  5
534
 10
111.354417
 20
53.394583
 30
0.0
 11
111.408417
 21
53.394583
 31
0.0
  0
LINE
  8
1
  6
CONTINUOUS
 62
     7
  5
535
 10
112.254417
 20
53.394583
 30
0.0
 11
112.308417
 21
53.394583
 31
0.0
  0
LINE
  8
1
  6
CONTINUOUS
 62
     7
  5
536
 10
112.254417
 20
53.394583
 30
0.0
 11
112.308417
 21
53.394583
 31
0.0
  0
LINE
  8
1
  6
CONTINUOUS
 62
     7
  5
537
 10
113.154417
 20
53.394583
 30
0.0
 11
113.208333
 21
53.394583
 31
0.0
  0
LINE
  8
1
  6
CONTINUOUS
 62
     7
  5
538
 10
114.054333
 20
53.394583
 30
0.0
 11
114.108417
 21
53.394583
 31
0.0
  0
LINE
  8
1
  6
CONTINUOUS
 62
     7
  5
539
 10
114.954417
 20
53.394583
 30
0.0
 11
115.008417
 21
53.394583
 31
0.0
  0
LINE
  8
1
  6
CONTINUOUS
 62
     7
  5
53A
 10
113.208417
 20
53.3945
 30
0.0
 11
113.181417
 21
53.4215
 31
0.0
  0
LINE
  8
1
  6
CONTINUOUS
 62
     7
  5
53B
 10
111.408417
 20
55.1945
 30
0.0
 11
111.381417
 21
55.2215
 31
0.0
  0
LINE
  8
1
  6
CONTINUOUS
 62
     7
  5
53C
 10
112.308417
 20
53.3945
 30
0.0
 11
112.281417
 21
53.4215
 31
0.0
  0
LINE
  8
1
  6
CONTINUOUS
 62
     7
  5
53D
 10
111.408417
 20
54.2945
 30
0.0
 11
111.381417
 21
54.3215
 31
0.0
  0
LINE
  8
1
  6
CONTINUOUS
 62
     7
  5
53E
 10
111.408417
 20
53.3945
 30
0.0
 11
111.381417
 21
53.4215
 31
0.0
  0
LINE
  8
1
  6
CONTINUOUS
 62
     7
  5
53F
 10
114.108417
 20
53.3945
 30
0.0
 11
114.081417
 21
53.4215
 31
0.0
  0
LINE
  8
1
  6
CONTINUOUS
 62
     7
  5
540
 10
115.008417
 20
53.3945
 30
0.0
 11
114.981417
 21
53.4215
 31
0.0
  0
LINE
  8
1
  6
CONTINUOUS
 62
     7
  5
541
 10
114.108417
 20
54.2945
 30
0.0
 11
114.0955
 21
54.307417
 31
0.0
  0
LINE
  8
1
  6
CONTINUOUS
 62
     7
  5
542
 10
115.008417
 20
54.2945
 30
0.0
 11
114.981417
 21
54.3215
 31
0.0
  0
LINE
  8
1
  6
CONTINUOUS
 62
     7
  5
543
 10
114.108417
 20
55.1945
 30
0.0
 11
114.0955
 21
55.207417
 31
0.0
  0
LINE
  8
1
  6
CONTINUOUS
 62
     7
  5
544
 10
115.008417
 20
55.1945
 30
0.0
 11
114.981417
 21
55.2215
 31
0.0
  0
LINE
  8
1
  6
CONTINUOUS
 62
     7
  5
545
 10
115.008417
 20
56.0945
 30
0.0
 11
114.981417
 21
56.1215
 31
0.0
  0
LINE
  8
1
  6
CONTINUOUS
 62
     7
  5
546
 10
112.173333
 20
53.0975
 30
0.0
 11
112.164333
 21
53.0705
 31
0.0
  0
LINE
  8
1
  6
CONTINUOUS
 62
     7
  5
547
 10
113.073333
 20
53.0975
 30
0.0
 11
113.064333
 21
53.0705
 31
0.0
  0
LINE
  8
1
  6
CONTINUOUS
 62
     7
  5
548
 10
114.873333
 20
55.7975
 30
0.0
 11
114.864333
 21
55.7705
 31
0.0
  0
LINE
  8
1
  6
CONTINUOUS
 62
     7
  5
549
 10
113.973333
 20
53.0975
 30
0.0
 11
113.964333
 21
53.0705
 31
0.0
  0
LINE
  8
1
  6
CONTINUOUS
 62
     7
  5
54A
 10
114.873333
 20
54.8975
 30
0.0
 11
114.864333
 21
54.8705
 31
0.0
  0
LINE
  8
1
  6
CONTINUOUS
 62
     7
  5
54B
 10
114.873333
 20
53.9975
 30
0.0
 11
114.864333
 21
53.9705
 31
0.0
  0
LINE
  8
1
  6
CONTINUOUS
 62
     7
  5
54C
 10
114.873333
 20
53.0975
 30
0.0
 11
114.864333
 21
53.0705
 31
0.0
  0
LINE
  8
1
  6
CONTINUOUS
 62
     7
  5
54D
 10
111.273333
 20
53.0975
 30
0.0
 11
111.264333
 21
53.0705
 31
0.0
  0
LINE
  8
1
  6
CONTINUOUS
 62
     7
  5
54E
 10
111.273333
 20
53.9975
 30
0.0
 11
111.264333
 21
53.9705
 31
0.0
  0
LINE
  8
1
  6
CONTINUOUS
 62
     7
  5
54F
 10
111.273333
 20
54.8975
 30
0.0
 11
111.264333
 21
54.8705
 31
0.0
  0
LINE
  8
1
  6
CONTINUOUS
 62
     7
  5
550
 10
111.264417
 20
53.970583
 30
0.0
 11
111.309417
 21
53.970583
 31
0.0
  0
LINE
  8
1
  6
CONTINUOUS
 62
     7
  5
551
 10
114.864417
 20
53.970583
 30
0.0
 11
114.909417
 21
53.970583
 31
0.0
  0
LINE
  8
1
  6
CONTINUOUS
 62
     7
  5
552
 10
111.264417
 20
54.870583
 30
0.0
 11
111.309417
 21
54.870583
 31
0.0
  0
LINE
  8
1
  6
CONTINUOUS
 62
     7
  5
553
 10
114.864417
 20
54.870583
 30
0.0
 11
114.909417
 21
54.870583
 31
0.0
  0
LINE
  8
1
  6
CONTINUOUS
 62
     7
  5
554
 10
114.864417
 20
55.770583
 30
0.0
 11
114.909417
 21
55.770583
 31
0.0
  0
LINE
  8
1
  6
CONTINUOUS
 62
     7
  5
555
 10
111.264417
 20
53.070583
 30
0.0
 11
111.309417
 21
53.070583
 31
0.0
  0
LINE
  8
1
  6
CONTINUOUS
 62
     7
  5
556
 10
112.164417
 20
53.070583
 30
0.0
 11
112.209417
 21
53.070583
 31
0.0
  0
LINE
  8
1
  6
CONTINUOUS
 62
     7
  5
557
 10
113.064417
 20
53.070583
 30
0.0
 11
113.109417
 21
53.070583
 31
0.0
  0
LINE
  8
1
  6
CONTINUOUS
 62
     7
  5
558
 10
113.964333
 20
53.070583
 30
0.0
 11
114.009417
 21
53.070583
 31
0.0
  0
LINE
  8
1
  6
CONTINUOUS
 62
     7
  5
559
 10
114.864417
 20
53.070583
 30
0.0
 11
114.909417
 21
53.070583
 31
0.0
  0
LINE
  8
1
  6
CONTINUOUS
 62
     7
  5
55A
 10
114.009417
 20
53.0705
 30
0.0
 11
113.973417
 21
53.0975
 31
0.0
  0
LINE
  8
1
  6
CONTINUOUS
 62
     7
  5
55B
 10
111.309417
 20
54.8705
 30
0.0
 11
111.273417
 21
54.8975
 31
0.0
  0
LINE
  8
1
  6
CONTINUOUS
 62
     7
  5
55C
 10
113.109417
 20
53.0705
 30
0.0
 11
113.073417
 21
53.0975
 31
0.0
  0
LINE
  8
1
  6
CONTINUOUS
 62
     7
  5
55D
 10
111.309417
 20
53.9705
 30
0.0
 11
111.273417
 21
53.9975
 31
0.0
  0
LINE
  8
1
  6
CONTINUOUS
 62
     7
  5
55E
 10
112.209417
 20
53.0705
 30
0.0
 11
112.173417
 21
53.0975
 31
0.0
  0
LINE
  8
1
  6
CONTINUOUS
 62
     7
  5
55F
 10
111.309417
 20
53.0705
 30
0.0
 11
111.273417
 21
53.0975
 31
0.0
  0
LINE
  8
1
  6
CONTINUOUS
 62
     7
  5
560
 10
114.909417
 20
53.0705
 30
0.0
 11
114.873417
 21
53.0975
 31
0.0
  0
LINE
  8
1
  6
CONTINUOUS
 62
     7
  5
561
 10
114.909417
 20
53.9705
 30
0.0
 11
114.873417
 21
53.9975
 31
0.0
  0
LINE
  8
1
  6
CONTINUOUS
 62
     7
  5
562
 10
114.909417
 20
54.8705
 30
0.0
 11
114.873417
 21
54.8975
 31
0.0
  0
LINE
  8
1
  6
CONTINUOUS
 62
     7
  5
563
 10
114.909417
 20
55.7705
 30
0.0
 11
114.873417
 21
55.7975
 31
0.0
  0
LINE
  8
1
  6
CONTINUOUS
 62
     7
  5
564
 10
111.696333
 20
53.106583
 30
0.0
 11
111.669333
 21
53.088583
 31
0.0
  0
LINE
  8
1
  6
CONTINUOUS
 62
     7
  5
565
 10
114.396333
 20
54.906583
 30
0.0
 11
114.369333
 21
54.888583
 31
0.0
  0
LINE
  8
1
  6
CONTINUOUS
 62
     7
  5
566
 10
112.596333
 20
53.106583
 30
0.0
 11
112.569333
 21
53.088583
 31
0.0
  0
LINE
  8
1
  6
CONTINUOUS
 62
     7
  5
567
 10
114.396333
 20
54.006583
 30
0.0
 11
114.369333
 21
53.988583
 31
0.0
  0
LINE
  8
1
  6
CONTINUOUS
 62
     7
  5
568
 10
113.496333
 20
53.106583
 30
0.0
 11
113.469333
 21
53.088583
 31
0.0
  0
LINE
  8
1
  6
CONTINUOUS
 62
     7
  5
569
 10
114.396333
 20
53.106583
 30
0.0
 11
114.369333
 21
53.088583
 31
0.0
  0
LINE
  8
1
  6
CONTINUOUS
 62
     7
  5
56A
 10
110.796333
 20
53.106583
 30
0.0
 11
110.769333
 21
53.088583
 31
0.0
  0
LINE
  8
1
  6
CONTINUOUS
 62
     7
  5
56B
 10
110.796333
 20
54.006583
 30
0.0
 11
110.769333
 21
53.988583
 31
0.0
  0
LINE
  8
1
  6
CONTINUOUS
 62
     7
  5
56C
 10
110.796333
 20
54.906583
 30
0.0
 11
110.769333
 21
54.888583
 31
0.0
  0
LINE
  8
1
  6
CONTINUOUS
 62
     7
  5
56D
 10
110.796333
 20
55.806583
 30
0.0
 11
110.769333
 21
55.788583
 31
0.0
  0
LINE
  8
1
  6
CONTINUOUS
 62
     7
  5
56E
 10
110.769417
 20
54.888583
 30
0.0
 11
110.823417
 21
54.870583
 31
0.0
  0
LINE
  8
1
  6
CONTINUOUS
 62
     7
  5
56F
 10
114.369417
 20
53.988583
 30
0.0
 11
114.423417
 21
53.970583
 31
0.0
  0
LINE
  8
1
  6
CONTINUOUS
 62
     7
  5
570
 10
110.769417
 20
55.788583
 30
0.0
 11
110.823417
 21
55.770583
 31
0.0
  0
LINE
  8
1
  6
CONTINUOUS
 62
     7
  5
571
 10
114.369417
 20
54.888583
 30
0.0
 11
114.423417
 21
54.870583
 31
0.0
  0
LINE
  8
1
  6
CONTINUOUS
 62
     7
  5
572
 10
114.369417
 20
53.088583
 30
0.0
 11
114.423417
 21
53.070583
 31
0.0
  0
LINE
  8
1
  6
CONTINUOUS
 62
     7
  5
573
 10
110.769417
 20
53.988583
 30
0.0
 11
110.823417
 21
53.970583
 31
0.0
  0
LINE
  8
1
  6
CONTINUOUS
 62
     7
  5
574
 10
113.469417
 20
53.088583
 30
0.0
 11
113.523417
 21
53.070583
 31
0.0
  0
LINE
  8
1
  6
CONTINUOUS
 62
     7
  5
575
 10
112.569417
 20
53.088583
 30
0.0
 11
112.623417
 21
53.070583
 31
0.0
  0
LINE
  8
1
  6
CONTINUOUS
 62
     7
  5
576
 10
111.669417
 20
53.088583
 30
0.0
 11
111.723417
 21
53.070583
 31
0.0
  0
LINE
  8
1
  6
CONTINUOUS
 62
     7
  5
577
 10
110.769417
 20
53.088583
 30
0.0
 11
110.823417
 21
53.070583
 31
0.0
  0
LINE
  8
1
  6
CONTINUOUS
 62
     7
  5
578
 10
113.523333
 20
53.070583
 30
0.0
 11
113.496333
 21
53.106583
 31
0.0
  0
LINE
  8
1
  6
CONTINUOUS
 62
     7
  5
579
 10
110.823333
 20
55.770583
 30
0.0
 11
110.796333
 21
55.806583
 31
0.0
  0
LINE
  8
1
  6
CONTINUOUS
 62
     7
  5
57A
 10
112.623333
 20
53.070583
 30
0.0
 11
112.596333
 21
53.106583
 31
0.0
  0
LINE
  8
1
  6
CONTINUOUS
 62
     7
  5
57B
 10
110.823333
 20
54.870583
 30
0.0
 11
110.796333
 21
54.906583
 31
0.0
  0
LINE
  8
1
  6
CONTINUOUS
 62
     7
  5
57C
 10
111.723333
 20
53.070583
 30
0.0
 11
111.696333
 21
53.106583
 31
0.0
  0
LINE
  8
1
  6
CONTINUOUS
 62
     7
  5
57D
 10
110.823333
 20
53.970583
 30
0.0
 11
110.796333
 21
54.006583
 31
0.0
  0
LINE
  8
1
  6
CONTINUOUS
 62
     7
  5
57E
 10
110.823333
 20
53.070583
 30
0.0
 11
110.796333
 21
53.106583
 31
0.0
  0
LINE
  8
1
  6
CONTINUOUS
 62
     7
  5
57F
 10
110.823333
 20
53.070583
 30
0.0
 11
110.796333
 21
53.106583
 31
0.0
  0
LINE
  8
1
  6
CONTINUOUS
 62
     7
  5
580
 10
114.423333
 20
53.070583
 30
0.0
 11
114.396333
 21
53.106583
 31
0.0
  0
LINE
  8
1
  6
CONTINUOUS
 62
     7
  5
581
 10
114.423333
 20
53.970583
 30
0.0
 11
114.396333
 21
54.006583
 31
0.0
  0
LINE
  8
1
  6
CONTINUOUS
 62
     7
  5
582
 10
114.423333
 20
54.870583
 30
0.0
 11
114.396333
 21
54.906583
 31
0.0
  0
POINT
  8
1
  6
CONTINUOUS
 62
     7
  5
583
 10
111.057333
 20
53.970583
 30
0.0
  0
POINT
  8
1
  6
CONTINUOUS
 62
     7
  5
584
 10
114.657417
 20
53.970583
 30
0.0
  0
POINT
  8
1
  6
CONTINUOUS
 62
     7
  5
585
 10
111.057333
 20
54.870583
 30
0.0
  0
POINT
  8
1
  6
CONTINUOUS
 62
     7
  5
586
 10
114.657417
 20
54.870583
 30
0.0
  0
POINT
  8
1
  6
CONTINUOUS
 62
     7
  5
587
 10
111.057333
 20
53.070583
 30
0.0
  0
POINT
  8
1
  6
CONTINUOUS
 62
     7
  5
588
 10
111.957417
 20
53.070583
 30
0.0
  0
POINT
  8
1
  6
CONTINUOUS
 62
     7
  5
589
 10
112.857417
 20
53.070583
 30
0.0
  0
POINT
  8
1
  6
CONTINUOUS
 62
     7
  5
58A
 10
113.757417
 20
53.070583
 30
0.0
  0
POINT
  8
1
  6
CONTINUOUS
 62
     7
  5
58B
 10
114.657417
 20
53.070583
 30
0.0
  0
POINT
  8
1
  6
CONTINUOUS
 62
     7
  5
58C
 10
110.814417
 20
53.736583
 30
0.0
  0
POINT
  8
1
  6
CONTINUOUS
 62
     7
  5
58D
 10
114.414417
 20
53.736583
 30
0.0
  0
POINT
  8
1
  6
CONTINUOUS
 62
     7
  5
58E
 10
110.814417
 20
54.636583
 30
0.0
  0
POINT
  8
1
  6
CONTINUOUS
 62
     7
  5
58F
 10
114.414417
 20
54.636583
 30
0.0
  0
POINT
  8
1
  6
CONTINUOUS
 62
     7
  5
590
 10
110.814417
 20
55.536583
 30
0.0
  0
POINT
  8
1
  6
CONTINUOUS
 62
     7
  5
591
 10
114.414417
 20
55.536583
 30
0.0
  0
POINT
  8
1
  6
CONTINUOUS
 62
     7
  5
592
 10
110.814417
 20
52.836583
 30
0.0
  0
POINT
  8
1
  6
CONTINUOUS
 62
     7
  5
593
 10
111.714333
 20
52.836583
 30
0.0
  0
POINT
  8
1
  6
CONTINUOUS
 62
     7
  5
594
 10
112.614417
 20
52.836583
 30
0.0
  0
POINT
  8
1
  6
CONTINUOUS
 62
     7
  5
595
 10
113.514417
 20
52.836583
 30
0.0
  0
POINT
  8
1
  6
CONTINUOUS
 62
     7
  5
596
 10
114.414417
 20
52.836583
 30
0.0
  0
POINT
  8
1
  6
CONTINUOUS
 62
     7
  5
597
 10
111.066417
 20
54.303583
 30
0.0
  0
POINT
  8
1
  6
CONTINUOUS
 62
     7
  5
598
 10
114.666417
 20
54.303583
 30
0.0
  0
POINT
  8
1
  6
CONTINUOUS
 62
     7
  5
599
 10
111.066417
 20
55.203583
 30
0.0
  0
POINT
  8
1
  6
CONTINUOUS
 62
     7
  5
59A
 10
114.666417
 20
55.203583
 30
0.0
  0
POINT
  8
1
  6
CONTINUOUS
 62
     7
  5
59B
 10
111.066417
 20
53.403583
 30
0.0
  0
POINT
  8
1
  6
CONTINUOUS
 62
     7
  5
59C
 10
111.966417
 20
53.403583
 30
0.0
  0
POINT
  8
1
  6
CONTINUOUS
 62
     7
  5
59D
 10
112.866417
 20
53.403583
 30
0.0
  0
POINT
  8
1
  6
CONTINUOUS
 62
     7
  5
59E
 10
113.766333
 20
53.403583
 30
0.0
  0
POINT
  8
1
  6
CONTINUOUS
 62
     7
  5
59F
 10
114.666417
 20
53.403583
 30
0.0
  0
POINT
  8
1
  6
CONTINUOUS
 62
     7
  5
5A0
 10
111.309417
 20
53.682583
 30
0.0
  0
POINT
  8
1
  6
CONTINUOUS
 62
     7
  5
5A1
 10
114.909417
 20
53.682583
 30
0.0
  0
POINT
  8
1
  6
CONTINUOUS
 62
     7
  5
5A2
 10
111.309417
 20
54.582583
 30
0.0
  0
POINT
  8
1
  6
CONTINUOUS
 62
     7
  5
5A3
 10
114.909417
 20
54.582583
 30
0.0
  0
POINT
  8
1
  6
CONTINUOUS
 62
     7
  5
5A4
 10
111.309417
 20
55.482583
 30
0.0
  0
POINT
  8
1
  6
CONTINUOUS
 62
     7
  5
5A5
 10
114.909417
 20
55.482583
 30
0.0
  0
POINT
  8
1
  6
CONTINUOUS
 62
     7
  5
5A6
 10
111.309417
 20
52.782583
 30
0.0
  0
POINT
  8
1
  6
CONTINUOUS
 62
     7
  5
5A7
 10
112.209417
 20
52.782583
 30
0.0
  0
POINT
  8
1
  6
CONTINUOUS
 62
     7
  5
5A8
 10
113.109417
 20
52.782583
 30
0.0
  0
POINT
  8
1
  6
CONTINUOUS
 62
     7
  5
5A9
 10
114.009417
 20
52.782583
 30
0.0
  0
POINT
  8
1
  6
CONTINUOUS
 62
     7
  5
5AA
 10
114.909417
 20
52.782583
 30
0.0
  0
POINT
  8
1
  6
CONTINUOUS
 62
     7
  5
5AB
 10
111.048333
 20
53.835583
 30
0.0
  0
POINT
  8
1
  6
CONTINUOUS
 62
     7
  5
5AC
 10
114.648417
 20
53.835583
 30
0.0
  0
POINT
  8
1
  6
CONTINUOUS
 62
     7
  5
5AD
 10
111.048333
 20
54.735583
 30
0.0
  0
POINT
  8
1
  6
CONTINUOUS
 62
     7
  5
5AE
 10
114.648417
 20
54.735583
 30
0.0
  0
POINT
  8
1
  6
CONTINUOUS
 62
     7
  5
5AF
 10
111.048333
 20
55.635583
 30
0.0
  0
POINT
  8
1
  6
CONTINUOUS
 62
     7
  5
5B0
 10
114.648417
 20
55.635583
 30
0.0
  0
POINT
  8
1
  6
CONTINUOUS
 62
     7
  5
5B1
 10
111.048333
 20
52.935583
 30
0.0
  0
POINT
  8
1
  6
CONTINUOUS
 62
     7
  5
5B2
 10
111.948417
 20
52.935583
 30
0.0
  0
POINT
  8
1
  6
CONTINUOUS
 62
     7
  5
5B3
 10
112.848417
 20
52.935583
 30
0.0
  0
POINT
  8
1
  6
CONTINUOUS
 62
     7
  5
5B4
 10
113.748417
 20
52.935583
 30
0.0
  0
POINT
  8
1
  6
CONTINUOUS
 62
     7
  5
5B5
 10
114.648417
 20
52.935583
 30
0.0
  0
POINT
  8
1
  6
CONTINUOUS
 62
     7
  5
5B6
 10
110.850417
 20
53.862583
 30
0.0
  0
POINT
  8
1
  6
CONTINUOUS
 62
     7
  5
5B7
 10
114.450417
 20
53.862583
 30
0.0
  0
POINT
  8
1
  6
CONTINUOUS
 62
     7
  5
5B8
 10
110.850417
 20
54.762583
 30
0.0
  0
POINT
  8
1
  6
CONTINUOUS
 62
     7
  5
5B9
 10
114.450417
 20
54.762583
 30
0.0
  0
POINT
  8
1
  6
CONTINUOUS
 62
     7
  5
5BA
 10
110.850417
 20
55.662583
 30
0.0
  0
POINT
  8
1
  6
CONTINUOUS
 62
     7
  5
5BB
 10
110.850417
 20
52.962583
 30
0.0
  0
POINT
  8
1
  6
CONTINUOUS
 62
     7
  5
5BC
 10
111.750417
 20
52.962583
 30
0.0
  0
POINT
  8
1
  6
CONTINUOUS
 62
     7
  5
5BD
 10
112.650333
 20
52.962583
 30
0.0
  0
POINT
  8
1
  6
CONTINUOUS
 62
     7
  5
5BE
 10
113.550417
 20
52.962583
 30
0.0
  0
POINT
  8
1
  6
CONTINUOUS
 62
     7
  5
5BF
 10
114.450417
 20
52.962583
 30
0.0
  0
POINT
  8
1
  6
CONTINUOUS
 62
     7
  5
5C0
 10
110.931417
 20
53.808583
 30
0.0
  0
POINT
  8
1
  6
CONTINUOUS
 62
     7
  5
5C1
 10
114.531417
 20
53.808583
 30
0.0
  0
POINT
  8
1
  6
CONTINUOUS
 62
     7
  5
5C2
 10
110.931417
 20
54.708583
 30
0.0
  0
POINT
  8
1
  6
CONTINUOUS
 62
     7
  5
5C3
 10
114.531417
 20
54.708583
 30
0.0
  0
POINT
  8
1
  6
CONTINUOUS
 62
     7
  5
5C4
 10
110.931417
 20
55.608583
 30
0.0
  0
POINT
  8
1
  6
CONTINUOUS
 62
     7
  5
5C5
 10
114.531417
 20
55.608583
 30
0.0
  0
POINT
  8
1
  6
CONTINUOUS
 62
     7
  5
5C6
 10
110.931417
 20
52.908583
 30
0.0
  0
POINT
  8
1
  6
CONTINUOUS
 62
     7
  5
5C7
 10
111.831417
 20
52.908583
 30
0.0
  0
POINT
  8
1
  6
CONTINUOUS
 62
     7
  5
5C8
 10
111.831417
 20
52.908583
 30
0.0
  0
POINT
  8
1
  6
CONTINUOUS
 62
     7
  5
5C9
 10
112.731417
 20
52.908583
 30
0.0
  0
POINT
  8
1
  6
CONTINUOUS
 62
     7
  5
5CA
 10
113.631417
 20
52.908583
 30
0.0
  0
POINT
  8
1
  6
CONTINUOUS
 62
     7
  5
5CB
 10
114.531417
 20
52.908583
 30
0.0
  0
POINT
  8
1
  6
CONTINUOUS
 62
     7
  5
5CC
 10
110.895417
 20
53.592583
 30
0.0
  0
POINT
  8
1
  6
CONTINUOUS
 62
     7
  5
5CD
 10
114.495417
 20
53.592583
 30
0.0
  0
POINT
  8
1
  6
CONTINUOUS
 62
     7
  5
5CE
 10
110.895417
 20
54.492583
 30
0.0
  0
POINT
  8
1
  6
CONTINUOUS
 62
     7
  5
5CF
 10
114.495417
 20
54.492583
 30
0.0
  0
POINT
  8
1
  6
CONTINUOUS
 62
     7
  5
5D0
 10
110.895417
 20
55.392583
 30
0.0
  0
POINT
  8
1
  6
CONTINUOUS
 62
     7
  5
5D1
 10
114.495417
 20
55.392583
 30
0.0
  0
POINT
  8
1
  6
CONTINUOUS
 62
     7
  5
5D2
 10
110.895417
 20
56.292583
 30
0.0
  0
POINT
  8
1
  6
CONTINUOUS
 62
     7
  5
5D3
 10
114.495417
 20
56.292583
 30
0.0
  0
POINT
  8
1
  6
CONTINUOUS
 62
     7
  5
5D4
 10
110.895417
 20
52.692583
 30
0.0
  0
POINT
  8
1
  6
CONTINUOUS
 62
     7
  5
5D5
 10
111.795417
 20
52.692583
 30
0.0
  0
POINT
  8
1
  6
CONTINUOUS
 62
     7
  5
5D6
 10
112.695417
 20
52.692583
 30
0.0
  0
POINT
  8
1
  6
CONTINUOUS
 62
     7
  5
5D7
 10
113.595417
 20
52.692583
 30
0.0
  0
POINT
  8
1
  6
CONTINUOUS
 62
     7
  5
5D8
 10
114.495417
 20
52.692583
 30
0.0
  0
POINT
  8
1
  6
CONTINUOUS
 62
     7
  5
5D9
 10
110.679333
 20
53.628583
 30
0.0
  0
POINT
  8
1
  6
CONTINUOUS
 62
     7
  5
5DA
 10
111.579417
 20
53.628583
 30
0.0
  0
POINT
  8
1
  6
CONTINUOUS
 62
     7
  5
5DB
 10
114.279417
 20
53.628583
 30
0.0
  0
POINT
  8
1
  6
CONTINUOUS
 62
     7
  5
5DC
 10
110.679333
 20
54.528583
 30
0.0
  0
POINT
  8
1
  6
CONTINUOUS
 62
     7
  5
5DD
 10
111.579417
 20
54.528583
 30
0.0
  0
POINT
  8
1
  6
CONTINUOUS
 62
     7
  5
5DE
 10
114.279417
 20
54.528583
 30
0.0
  0
POINT
  8
1
  6
CONTINUOUS
 62
     7
  5
5DF
 10
110.679333
 20
55.428583
 30
0.0
  0
POINT
  8
1
  6
CONTINUOUS
 62
     7
  5
5E0
 10
111.579417
 20
55.428583
 30
0.0
  0
POINT
  8
1
  6
CONTINUOUS
 62
     7
  5
5E1
 10
114.279417
 20
55.428583
 30
0.0
  0
POINT
  8
1
  6
CONTINUOUS
 62
     7
  5
5E2
 10
110.679333
 20
56.328583
 30
0.0
  0
POINT
  8
1
  6
CONTINUOUS
 62
     7
  5
5E3
 10
110.679333
 20
52.728583
 30
0.0
  0
POINT
  8
1
  6
CONTINUOUS
 62
     7
  5
5E4
 10
111.579417
 20
52.728583
 30
0.0
  0
POINT
  8
1
  6
CONTINUOUS
 62
     7
  5
5E5
 10
112.479417
 20
52.728583
 30
0.0
  0
POINT
  8
1
  6
CONTINUOUS
 62
     7
  5
5E6
 10
113.379417
 20
52.728583
 30
0.0
  0
POINT
  8
1
  6
CONTINUOUS
 62
     7
  5
5E7
 10
114.279417
 20
52.728583
 30
0.0
  0
POINT
  8
1
  6
CONTINUOUS
 62
     7
  5
5E8
 10
110.688417
 20
53.835583
 30
0.0
  0
POINT
  8
1
  6
CONTINUOUS
 62
     7
  5
5E9
 10
111.588417
 20
53.835583
 30
0.0
  0
POINT
  8
1
  6
CONTINUOUS
 62
     7
  5
5EA
 10
114.288417
 20
53.835583
 30
0.0
  0
POINT
  8
1
  6
CONTINUOUS
 62
     7
  5
5EB
 10
110.688417
 20
54.735583
 30
0.0
  0
POINT
  8
1
  6
CONTINUOUS
 62
     7
  5
5EC
 10
111.588417
 20
54.735583
 30
0.0
  0
POINT
  8
1
  6
CONTINUOUS
 62
     7
  5
5ED
 10
114.288417
 20
54.735583
 30
0.0
  0
POINT
  8
1
  6
CONTINUOUS
 62
     7
  5
5EE
 10
110.688417
 20
55.635583
 30
0.0
  0
POINT
  8
1
  6
CONTINUOUS
 62
     7
  5
5EF
 10
111.588417
 20
55.635583
 30
0.0
  0
POINT
  8
1
  6
CONTINUOUS
 62
     7
  5
5F0
 10
114.288417
 20
55.635583
 30
0.0
  0
POINT
  8
1
  6
CONTINUOUS
 62
     7
  5
5F1
 10
110.688417
 20
52.935583
 30
0.0
  0
POINT
  8
1
  6
CONTINUOUS
 62
     7
  5
5F2
 10
111.588417
 20
52.935583
 30
0.0
  0
POINT
  8
1
  6
CONTINUOUS
 62
     7
  5
5F3
 10
112.488417
 20
52.935583
 30
0.0
  0
POINT
  8
1
  6
CONTINUOUS
 62
     7
  5
5F4
 10
113.388417
 20
52.935583
 30
0.0
  0
POINT
  8
1
  6
CONTINUOUS
 62
     7
  5
5F5
 10
114.288417
 20
52.935583
 30
0.0
  0
POINT
  8
1
  6
CONTINUOUS
 62
     7
  5
5F6
 10
110.661417
 20
54.033583
 30
0.0
  0
POINT
  8
1
  6
CONTINUOUS
 62
     7
  5
5F7
 10
111.561417
 20
54.033583
 30
0.0
  0
POINT
  8
1
  6
CONTINUOUS
 62
     7
  5
5F8
 10
114.261417
 20
54.033583
 30
0.0
  0
POINT
  8
1
  6
CONTINUOUS
 62
     7
  5
5F9
 10
110.661417
 20
54.9335
 30
0.0
  0
POINT
  8
1
  6
CONTINUOUS
 62
     7
  5
5FA
 10
111.561417
 20
54.9335
 30
0.0
  0
POINT
  8
1
  6
CONTINUOUS
 62
     7
  5
5FB
 10
114.261417
 20
54.9335
 30
0.0
  0
POINT
  8
1
  6
CONTINUOUS
 62
     7
  5
5FC
 10
110.661417
 20
55.833583
 30
0.0
  0
POINT
  8
1
  6
CONTINUOUS
 62
     7
  5
5FD
 10
110.661417
 20
53.133583
 30
0.0
  0
POINT
  8
1
  6
CONTINUOUS
 62
     7
  5
5FE
 10
111.561417
 20
53.133583
 30
0.0
  0
POINT
  8
1
  6
CONTINUOUS
 62
     7
  5
5FF
 10
112.461333
 20
53.133583
 30
0.0
  0
POINT
  8
1
  6
CONTINUOUS
 62
     7
  5
600
 10
113.361417
 20
53.133583
 30
0.0
  0
POINT
  8
1
  6
CONTINUOUS
 62
     7
  5
601
 10
114.261417
 20
53.133583
 30
0.0
  0
POINT
  8
1
  6
CONTINUOUS
 62
     7
  5
602
 10
110.940417
 20
54.069583
 30
0.0
  0
POINT
  8
1
  6
CONTINUOUS
 62
     7
  5
603
 10
114.540417
 20
54.069583
 30
0.0
  0
POINT
  8
1
  6
CONTINUOUS
 62
     7
  5
604
 10
110.940417
 20
54.969583
 30
0.0
  0
POINT
  8
1
  6
CONTINUOUS
 62
     7
  5
605
 10
114.540417
 20
54.969583
 30
0.0
  0
POINT
  8
1
  6
CONTINUOUS
 62
     7
  5
606
 10
110.940417
 20
55.8695
 30
0.0
  0
POINT
  8
1
  6
CONTINUOUS
 62
     7
  5
607
 10
110.940417
 20
53.169583
 30
0.0
  0
POINT
  8
1
  6
CONTINUOUS
 62
     7
  5
608
 10
111.840417
 20
53.169583
 30
0.0
  0
POINT
  8
1
  6
CONTINUOUS
 62
     7
  5
609
 10
112.740333
 20
53.169583
 30
0.0
  0
POINT
  8
1
  6
CONTINUOUS
 62
     7
  5
60A
 10
113.640417
 20
53.169583
 30
0.0
  0
POINT
  8
1
  6
CONTINUOUS
 62
     7
  5
60B
 10
114.540417
 20
53.169583
 30
0.0
  0
POINT
  8
1
  6
CONTINUOUS
 62
     7
  5
60C
 10
111.138417
 20
54.105583
 30
0.0
  0
POINT
  8
1
  6
CONTINUOUS
 62
     7
  5
60D
 10
114.738417
 20
54.105583
 30
0.0
  0
POINT
  8
1
  6
CONTINUOUS
 62
     7
  5
60E
 10
111.138417
 20
55.005583
 30
0.0
  0
POINT
  8
1
  6
CONTINUOUS
 62
     7
  5
60F
 10
114.738417
 20
55.005583
 30
0.0
  0
POINT
  8
1
  6
CONTINUOUS
 62
     7
  5
610
 10
114.738417
 20
55.905583
 30
0.0
  0
POINT
  8
1
  6
CONTINUOUS
 62
     7
  5
611
 10
114.738417
 20
55.905583
 30
0.0
  0
POINT
  8
1
  6
CONTINUOUS
 62
     7
  5
612
 10
111.138417
 20
53.205583
 30
0.0
  0
POINT
  8
1
  6
CONTINUOUS
 62
     7
  5
613
 10
112.038417
 20
53.205583
 30
0.0
  0
POINT
  8
1
  6
CONTINUOUS
 62
     7
  5
614
 10
112.938417
 20
53.205583
 30
0.0
  0
POINT
  8
1
  6
CONTINUOUS
 62
     7
  5
615
 10
113.838417
 20
53.205583
 30
0.0
  0
POINT
  8
1
  6
CONTINUOUS
 62
     7
  5
616
 10
114.738417
 20
53.205583
 30
0.0
  0
POINT
  8
1
  6
CONTINUOUS
 62
     7
  5
617
 10
111.453417
 20
54.069583
 30
0.0
  0
POINT
  8
1
  6
CONTINUOUS
 62
     7
  5
618
 10
114.153333
 20
54.069583
 30
0.0
  0
POINT
  8
1
  6
CONTINUOUS
 62
     7
  5
619
 10
115.053417
 20
54.069583
 30
0.0
  0
POINT
  8
1
  6
CONTINUOUS
 62
     7
  5
61A
 10
111.453417
 20
54.969583
 30
0.0
  0
POINT
  8
1
  6
CONTINUOUS
 62
     7
  5
61B
 10
114.153333
 20
54.969583
 30
0.0
  0
POINT
  8
1
  6
CONTINUOUS
 62
     7
  5
61C
 10
115.053417
 20
54.969583
 30
0.0
  0
POINT
  8
1
  6
CONTINUOUS
 62
     7
  5
61D
 10
115.053417
 20
55.8695
 30
0.0
  0
POINT
  8
1
  6
CONTINUOUS
 62
     7
  5
61E
 10
111.453417
 20
53.169583
 30
0.0
  0
POINT
  8
1
  6
CONTINUOUS
 62
     7
  5
61F
 10
112.353417
 20
53.169583
 30
0.0
  0
POINT
  8
1
  6
CONTINUOUS
 62
     7
  5
620
 10
113.253417
 20
53.169583
 30
0.0
  0
POINT
  8
1
  6
CONTINUOUS
 62
     7
  5
621
 10
114.153333
 20
53.169583
 30
0.0
  0
POINT
  8
1
  6
CONTINUOUS
 62
     7
  5
622
 10
115.053417
 20
53.169583
 30
0.0
  0
POINT
  8
1
  6
CONTINUOUS
 62
     7
  5
623
 10
111.237333
 20
53.790583
 30
0.0
  0
POINT
  8
1
  6
CONTINUOUS
 62
     7
  5
624
 10
114.837417
 20
53.790583
 30
0.0
  0
POINT
  8
1
  6
CONTINUOUS
 62
     7
  5
625
 10
111.237333
 20
54.690583
 30
0.0
  0
POINT
  8
1
  6
CONTINUOUS
 62
     7
  5
626
 10
114.837417
 20
54.690583
 30
0.0
  0
POINT
  8
1
  6
CONTINUOUS
 62
     7
  5
627
 10
111.237333
 20
55.5905
 30
0.0
  0
POINT
  8
1
  6
CONTINUOUS
 62
     7
  5
628
 10
114.837417
 20
55.5905
 30
0.0
  0
POINT
  8
1
  6
CONTINUOUS
 62
     7
  5
629
 10
111.237333
 20
52.890583
 30
0.0
  0
POINT
  8
1
  6
CONTINUOUS
 62
     7
  5
62A
 10
112.137417
 20
52.890583
 30
0.0
  0
POINT
  8
1
  6
CONTINUOUS
 62
     7
  5
62B
 10
113.037417
 20
52.890583
 30
0.0
  0
POINT
  8
1
  6
CONTINUOUS
 62
     7
  5
62C
 10
113.937417
 20
52.890583
 30
0.0
  0
POINT
  8
1
  6
CONTINUOUS
 62
     7
  5
62D
 10
114.837417
 20
52.890583
 30
0.0
  0
POINT
  8
1
  6
CONTINUOUS
 62
     7
  5
62E
 10
111.147333
 20
53.952583
 30
0.0
  0
POINT
  8
1
  6
CONTINUOUS
 62
     7
  5
62F
 10
114.747417
 20
53.952583
 30
0.0
  0
POINT
  8
1
  6
CONTINUOUS
 62
     7
  5
630
 10
111.147333
 20
54.852583
 30
0.0
  0
POINT
  8
1
  6
CONTINUOUS
 62
     7
  5
631
 10
114.747417
 20
54.852583
 30
0.0
  0
POINT
  8
1
  6
CONTINUOUS
 62
     7
  5
632
 10
114.747417
 20
55.752583
 30
0.0
  0
POINT
  8
1
  6
CONTINUOUS
 62
     7
  5
633
 10
111.147333
 20
53.052583
 30
0.0
  0
POINT
  8
1
  6
CONTINUOUS
 62
     7
  5
634
 10
112.047417
 20
53.052583
 30
0.0
  0
POINT
  8
1
  6
CONTINUOUS
 62
     7
  5
635
 10
112.947417
 20
53.052583
 30
0.0
  0
POINT
  8
1
  6
CONTINUOUS
 62
     7
  5
636
 10
113.847417
 20
53.052583
 30
0.0
  0
POINT
  8
1
  6
CONTINUOUS
 62
     7
  5
637
 10
114.747417
 20
53.052583
 30
0.0
  0
POINT
  8
1
  6
CONTINUOUS
 62
     7
  5
638
 10
111.219417
 20
54.420583
 30
0.0
  0
POINT
  8
1
  6
CONTINUOUS
 62
     7
  5
639
 10
114.819417
 20
54.420583
 30
0.0
  0
POINT
  8
1
  6
CONTINUOUS
 62
     7
  5
63A
 10
111.219417
 20
55.320583
 30
0.0
  0
POINT
  8
1
  6
CONTINUOUS
 62
     7
  5
63B
 10
114.819417
 20
55.320583
 30
0.0
  0
POINT
  8
1
  6
CONTINUOUS
 62
     7
  5
63C
 10
111.219417
 20
56.220583
 30
0.0
  0
POINT
  8
1
  6
CONTINUOUS
 62
     7
  5
63D
 10
114.819417
 20
56.220583
 30
0.0
  0
POINT
  8
1
  6
CONTINUOUS
 62
     7
  5
63E
 10
111.219417
 20
53.520583
 30
0.0
  0
POINT
  8
1
  6
CONTINUOUS
 62
     7
  5
63F
 10
112.119417
 20
53.520583
 30
0.0
  0
POINT
  8
1
  6
CONTINUOUS
 62
     7
  5
640
 10
113.019333
 20
53.520583
 30
0.0
  0
POINT
  8
1
  6
CONTINUOUS
 62
     7
  5
641
 10
113.919417
 20
53.520583
 30
0.0
  0
POINT
  8
1
  6
CONTINUOUS
 62
     7
  5
642
 10
114.819417
 20
53.520583
 30
0.0
  0
POINT
  8
1
  6
CONTINUOUS
 62
     7
  5
643
 10
111.219417
 20
52.620583
 30
0.0
  0
POINT
  8
1
  6
CONTINUOUS
 62
     7
  5
644
 10
112.119417
 20
52.620583
 30
0.0
  0
POINT
  8
1
  6
CONTINUOUS
 62
     7
  5
645
 10
113.019333
 20
52.620583
 30
0.0
  0
POINT
  8
1
  6
CONTINUOUS
 62
     7
  5
646
 10
113.919417
 20
52.620583
 30
0.0
  0
POINT
  8
1
  6
CONTINUOUS
 62
     7
  5
647
 10
114.819417
 20
52.620583
 30
0.0
  0
POINT
  8
1
  6
CONTINUOUS
 62
     7
  5
648
 10
110.949417
 20
54.3755
 30
0.0
  0
POINT
  8
1
  6
CONTINUOUS
 62
     7
  5
649
 10
114.549417
 20
54.3755
 30
0.0
  0
POINT
  8
1
  6
CONTINUOUS
 62
     7
  5
64A
 10
110.949417
 20
55.275583
 30
0.0
  0
POINT
  8
1
  6
CONTINUOUS
 62
     7
  5
64B
 10
114.549417
 20
55.275583
 30
0.0
  0
POINT
  8
1
  6
CONTINUOUS
 62
     7
  5
64C
 10
110.949417
 20
56.175583
 30
0.0
  0
POINT
  8
1
  6
CONTINUOUS
 62
     7
  5
64D
 10
114.549417
 20
56.175583
 30
0.0
  0
POINT
  8
1
  6
CONTINUOUS
 62
     7
  5
64E
 10
110.949417
 20
53.475583
 30
0.0
  0
POINT
  8
1
  6
CONTINUOUS
 62
     7
  5
64F
 10
111.849417
 20
53.475583
 30
0.0
  0
POINT
  8
1
  6
CONTINUOUS
 62
     7
  5
650
 10
112.749333
 20
53.475583
 30
0.0
  0
POINT
  8
1
  6
CONTINUOUS
 62
     7
  5
651
 10
113.649417
 20
53.475583
 30
0.0
  0
POINT
  8
1
  6
CONTINUOUS
 62
     7
  5
652
 10
114.549417
 20
53.475583
 30
0.0
  0
POINT
  8
1
  6
CONTINUOUS
 62
     7
  5
653
 10
114.549417
 20
52.575583
 30
0.0
  0
POINT
  8
1
  6
CONTINUOUS
 62
     7
  5
654
 10
112.749333
 20
52.575583
 30
0.0
  0
POINT
  8
1
  6
CONTINUOUS
 62
     7
  5
655
 10
113.649417
 20
52.575583
 30
0.0
  0
POINT
  8
1
  6
CONTINUOUS
 62
     7
  5
656
 10
111.849417
 20
52.575583
 30
0.0
  0
POINT
  8
1
  6
CONTINUOUS
 62
     7
  5
657
 10
111.219417
 20
54.177583
 30
0.0
  0
POINT
  8
1
  6
CONTINUOUS
 62
     7
  5
658
 10
114.819417
 20
54.177583
 30
0.0
  0
POINT
  8
1
  6
CONTINUOUS
 62
     7
  5
659
 10
111.219417
 20
55.077583
 30
0.0
  0
POINT
  8
1
  6
CONTINUOUS
 62
     7
  5
65A
 10
111.219417
 20
55.077583
 30
0.0
  0
POINT
  8
1
  6
CONTINUOUS
 62
     7
  5
65B
 10
114.819417
 20
55.077583
 30
0.0
  0
POINT
  8
1
  6
CONTINUOUS
 62
     7
  5
65C
 10
114.819417
 20
55.977583
 30
0.0
  0
POINT
  8
1
  6
CONTINUOUS
 62
     7
  5
65D
 10
111.219417
 20
53.277583
 30
0.0
  0
POINT
  8
1
  6
CONTINUOUS
 62
     7
  5
65E
 10
112.119417
 20
53.277583
 30
0.0
  0
POINT
  8
1
  6
CONTINUOUS
 62
     7
  5
65F
 10
113.019333
 20
53.277583
 30
0.0
  0
POINT
  8
1
  6
CONTINUOUS
 62
     7
  5
660
 10
113.919417
 20
53.277583
 30
0.0
  0
POINT
  8
1
  6
CONTINUOUS
 62
     7
  5
661
 10
114.819417
 20
53.277583
 30
0.0
  0
POINT
  8
1
  6
CONTINUOUS
 62
     7
  5
662
 10
110.922417
 20
54.231583
 30
0.0
  0
POINT
  8
1
  6
CONTINUOUS
 62
     7
  5
663
 10
114.522417
 20
54.231583
 30
0.0
  0
POINT
  8
1
  6
CONTINUOUS
 62
     7
  5
664
 10
110.922417
 20
55.1315
 30
0.0
  0
POINT
  8
1
  6
CONTINUOUS
 62
     7
  5
665
 10
114.522417
 20
55.1315
 30
0.0
  0
POINT
  8
1
  6
CONTINUOUS
 62
     7
  5
666
 10
110.922417
 20
56.031583
 30
0.0
  0
POINT
  8
1
  6
CONTINUOUS
 62
     7
  5
667
 10
110.922417
 20
53.331583
 30
0.0
  0
POINT
  8
1
  6
CONTINUOUS
 62
     7
  5
668
 10
111.822417
 20
53.331583
 30
0.0
  0
POINT
  8
1
  6
CONTINUOUS
 62
     7
  5
669
 10
112.722417
 20
53.331583
 30
0.0
  0
POINT
  8
1
  6
CONTINUOUS
 62
     7
  5
66A
 10
113.622417
 20
53.331583
 30
0.0
  0
POINT
  8
1
  6
CONTINUOUS
 62
     7
  5
66B
 10
114.522417
 20
53.331583
 30
0.0
  0
POINT
  8
1
  6
CONTINUOUS
 62
     7
  5
66C
 10
110.634417
 20
54.204583
 30
0.0
  0
POINT
  8
1
  6
CONTINUOUS
 62
     7
  5
66D
 10
111.534417
 20
54.204583
 30
0.0
  0
POINT
  8
1
  6
CONTINUOUS
 62
     7
  5
66E
 10
114.234417
 20
54.204583
 30
0.0
  0
POINT
  8
1
  6
CONTINUOUS
 62
     7
  5
66F
 10
110.634417
 20
55.104583
 30
0.0
  0
POINT
  8
1
  6
CONTINUOUS
 62
     7
  5
670
 10
111.534417
 20
55.104583
 30
0.0
  0
POINT
  8
1
  6
CONTINUOUS
 62
     7
  5
671
 10
114.234417
 20
55.104583
 30
0.0
  0
POINT
  8
1
  6
CONTINUOUS
 62
     7
  5
672
 10
110.634417
 20
56.004583
 30
0.0
  0
POINT
  8
1
  6
CONTINUOUS
 62
     7
  5
673
 10
110.634417
 20
53.304583
 30
0.0
  0
POINT
  8
1
  6
CONTINUOUS
 62
     7
  5
674
 10
111.534417
 20
53.304583
 30
0.0
  0
POINT
  8
1
  6
CONTINUOUS
 62
     7
  5
675
 10
112.434417
 20
53.304583
 30
0.0
  0
POINT
  8
1
  6
CONTINUOUS
 62
     7
  5
676
 10
113.334417
 20
53.304583
 30
0.0
  0
POINT
  8
1
  6
CONTINUOUS
 62
     7
  5
677
 10
114.234417
 20
53.304583
 30
0.0
  0
POINT
  8
1
  6
CONTINUOUS
 62
     7
  5
678
 10
110.742417
 20
54.159583
 30
0.0
  0
POINT
  8
1
  6
CONTINUOUS
 62
     7
  5
679
 10
114.342333
 20
54.159583
 30
0.0
  0
POINT
  8
1
  6
CONTINUOUS
 62
     7
  5
67A
 10
110.742417
 20
55.059583
 30
0.0
  0
POINT
  8
1
  6
CONTINUOUS
 62
     7
  5
67B
 10
114.342333
 20
55.059583
 30
0.0
  0
POINT
  8
1
  6
CONTINUOUS
 62
     7
  5
67C
 10
110.742417
 20
55.959583
 30
0.0
  0
POINT
  8
1
  6
CONTINUOUS
 62
     7
  5
67D
 10
110.742417
 20
53.259583
 30
0.0
  0
POINT
  8
1
  6
CONTINUOUS
 62
     7
  5
67E
 10
111.642417
 20
53.259583
 30
0.0
  0
POINT
  8
1
  6
CONTINUOUS
 62
     7
  5
67F
 10
112.542417
 20
53.259583
 30
0.0
  0
POINT
  8
1
  6
CONTINUOUS
 62
     7
  5
680
 10
113.442417
 20
53.259583
 30
0.0
  0
POINT
  8
1
  6
CONTINUOUS
 62
     7
  5
681
 10
114.342333
 20
53.259583
 30
0.0
  0
POINT
  8
1
  6
CONTINUOUS
 62
     7
  5
682
 10
110.751417
 20
54.2855
 30
0.0
  0
POINT
  8
1
  6
CONTINUOUS
 62
     7
  5
683
 10
114.351417
 20
54.2855
 30
0.0
  0
POINT
  8
1
  6
CONTINUOUS
 62
     7
  5
684
 10
110.751417
 20
55.185583
 30
0.0
  0
POINT
  8
1
  6
CONTINUOUS
 62
     7
  5
685
 10
114.351417
 20
55.185583
 30
0.0
  0
POINT
  8
1
  6
CONTINUOUS
 62
     7
  5
686
 10
110.751417
 20
56.085583
 30
0.0
  0
POINT
  8
1
  6
CONTINUOUS
 62
     7
  5
687
 10
110.751417
 20
53.385583
 30
0.0
  0
POINT
  8
1
  6
CONTINUOUS
 62
     7
  5
688
 10
111.651417
 20
53.385583
 30
0.0
  0
POINT
  8
1
  6
CONTINUOUS
 62
     7
  5
689
 10
112.551333
 20
53.385583
 30
0.0
  0
POINT
  8
1
  6
CONTINUOUS
 62
     7
  5
68A
 10
113.451417
 20
53.385583
 30
0.0
  0
POINT
  8
1
  6
CONTINUOUS
 62
     7
  5
68B
 10
114.351417
 20
53.385583
 30
0.0
  0
POINT
  8
1
  6
CONTINUOUS
 62
     7
  5
68C
 10
111.354417
 20
54.141583
 30
0.0
  0
POINT
  8
1
  6
CONTINUOUS
 62
     7
  5
68D
 10
114.954417
 20
54.141583
 30
0.0
  0
POINT
  8
1
  6
CONTINUOUS
 62
     7
  5
68E
 10
111.354417
 20
55.041583
 30
0.0
  0
POINT
  8
1
  6
CONTINUOUS
 62
     7
  5
68F
 10
114.954417
 20
55.041583
 30
0.0
  0
POINT
  8
1
  6
CONTINUOUS
 62
     7
  5
690
 10
114.954417
 20
55.941583
 30
0.0
  0
POINT
  8
1
  6
CONTINUOUS
 62
     7
  5
691
 10
111.354417
 20
53.241583
 30
0.0
  0
POINT
  8
1
  6
CONTINUOUS
 62
     7
  5
692
 10
112.254417
 20
53.241583
 30
0.0
  0
POINT
  8
1
  6
CONTINUOUS
 62
     7
  5
693
 10
113.154417
 20
53.241583
 30
0.0
  0
POINT
  8
1
  6
CONTINUOUS
 62
     7
  5
694
 10
114.054333
 20
53.241583
 30
0.0
  0
POINT
  8
1
  6
CONTINUOUS
 62
     7
  5
695
 10
114.954417
 20
53.241583
 30
0.0
  0
POINT
  8
1
  6
CONTINUOUS
 62
     7
  5
696
 10
111.462417
 20
53.610583
 30
0.0
  0
POINT
  8
1
  6
CONTINUOUS
 62
     7
  5
697
 10
114.162417
 20
53.610583
 30
0.0
  0
POINT
  8
1
  6
CONTINUOUS
 62
     7
  5
698
 10
115.062417
 20
53.610583
 30
0.0
  0
POINT
  8
1
  6
CONTINUOUS
 62
     7
  5
699
 10
111.462417
 20
54.510583
 30
0.0
  0
POINT
  8
1
  6
CONTINUOUS
 62
     7
  5
69A
 10
114.162417
 20
54.510583
 30
0.0
  0
POINT
  8
1
  6
CONTINUOUS
 62
     7
  5
69B
 10
115.062417
 20
54.510583
 30
0.0
  0
POINT
  8
1
  6
CONTINUOUS
 62
     7
  5
69C
 10
111.462417
 20
55.4105
 30
0.0
  0
POINT
  8
1
  6
CONTINUOUS
 62
     7
  5
69D
 10
114.162417
 20
55.4105
 30
0.0
  0
POINT
  8
1
  6
CONTINUOUS
 62
     7
  5
69E
 10
111.462417
 20
52.710583
 30
0.0
  0
POINT
  8
1
  6
CONTINUOUS
 62
     7
  5
69F
 10
112.362333
 20
52.710583
 30
0.0
  0
POINT
  8
1
  6
CONTINUOUS
 62
     7
  5
6A0
 10
113.262417
 20
52.710583
 30
0.0
  0
POINT
  8
1
  6
CONTINUOUS
 62
     7
  5
6A1
 10
114.162417
 20
52.710583
 30
0.0
  0
POINT
  8
1
  6
CONTINUOUS
 62
     7
  5
6A2
 10
115.062417
 20
52.710583
 30
0.0
  0
POINT
  8
1
  6
CONTINUOUS
 62
     7
  5
6A3
 10
115.062417
 20
52.710583
 30
0.0
  0
POINT
  8
1
  6
CONTINUOUS
 62
     7
  5
6A4
 10
111.417417
 20
53.880583
 30
0.0
  0
POINT
  8
1
  6
CONTINUOUS
 62
     7
  5
6A5
 10
114.117417
 20
53.880583
 30
0.0
  0
POINT
  8
1
  6
CONTINUOUS
 62
     7
  5
6A6
 10
115.017417
 20
53.880583
 30
0.0
  0
POINT
  8
1
  6
CONTINUOUS
 62
     7
  5
6A7
 10
111.417417
 20
54.780583
 30
0.0
  0
POINT
  8
1
  6
CONTINUOUS
 62
     7
  5
6A8
 10
114.117417
 20
54.780583
 30
0.0
  0
POINT
  8
1
  6
CONTINUOUS
 62
     7
  5
6A9
 10
115.017417
 20
54.780583
 30
0.0
  0
POINT
  8
1
  6
CONTINUOUS
 62
     7
  5
6AA
 10
115.017417
 20
55.6805
 30
0.0
  0
POINT
  8
1
  6
CONTINUOUS
 62
     7
  5
6AB
 10
111.417417
 20
52.980583
 30
0.0
  0
POINT
  8
1
  6
CONTINUOUS
 62
     7
  5
6AC
 10
112.317417
 20
52.980583
 30
0.0
  0
POINT
  8
1
  6
CONTINUOUS
 62
     7
  5
6AD
 10
113.217333
 20
52.980583
 30
0.0
  0
POINT
  8
1
  6
CONTINUOUS
 62
     7
  5
6AE
 10
114.117417
 20
52.980583
 30
0.0
  0
POINT
  8
1
  6
CONTINUOUS
 62
     7
  5
6AF
 10
115.017417
 20
52.980583
 30
0.0
  0
POINT
  8
1
  6
CONTINUOUS
 62
     7
  5
6B0
 10
111.003417
 20
54.132583
 30
0.0
  0
POINT
  8
1
  6
CONTINUOUS
 62
     7
  5
6B1
 10
114.603417
 20
54.132583
 30
0.0
  0
POINT
  8
1
  6
CONTINUOUS
 62
     7
  5
6B2
 10
111.003417
 20
55.0325
 30
0.0
  0
POINT
  8
1
  6
CONTINUOUS
 62
     7
  5
6B3
 10
114.603417
 20
55.0325
 30
0.0
  0
POINT
  8
1
  6
CONTINUOUS
 62
     7
  5
6B4
 10
111.003417
 20
55.932583
 30
0.0
  0
POINT
  8
1
  6
CONTINUOUS
 62
     7
  5
6B5
 10
111.003417
 20
53.232583
 30
0.0
  0
POINT
  8
1
  6
CONTINUOUS
 62
     7
  5
6B6
 10
111.903333
 20
53.232583
 30
0.0
  0
POINT
  8
1
  6
CONTINUOUS
 62
     7
  5
6B7
 10
112.803417
 20
53.232583
 30
0.0
  0
POINT
  8
1
  6
CONTINUOUS
 62
     7
  5
6B8
 10
113.703417
 20
53.232583
 30
0.0
  0
POINT
  8
1
  6
CONTINUOUS
 62
     7
  5
6B9
 10
114.603417
 20
53.232583
 30
0.0
  0
INSERT
  8
1
  6
CONTINUOUS
 62
     7
  5
713
  2
$X6
 10
92.625417
 20
37.914583
 30
0.0
210
0.0
220
0.0
230
1.0
  0
INSERT
  8
1
  6
CONTINUOUS
 62
     7
  5
71F
  2
$X7
 10
92.625417
 20
37.914583
 30
0.0
210
0.0
220
0.0
230
1.0
  0
LINE
  8
2
  6
HIDDEN
 62
   140
  5
720
 10
110.790667
 20
55.897167
 30
0.0
 11
110.790667
 21
56.821667
 31
0.0
  0
LINE
  8
2
  6
HIDDEN
 62
   140
  5
721
 10
110.790667
 20
56.821667
 30
0.0
 11
110.86
 21
56.821667
 31
0.0
  0
LINE
  8
2
  6
HIDDEN
 62
   140
  5
722
 10
110.86
 20
56.821667
 30
0.0
 11
110.86
 21
55.897167
 31
0.0
  0
LINE
  8
2
  6
HIDDEN
 62
   140
  5
723
 10
110.86
 20
55.897167
 30
0.0
 11
110.790667
 21
55.897167
 31
0.0
  0
LINE
  8
1
  6
CONTINUOUS
 62
   233
  5
724
 10
113.15075
 20
48.632583
 30
0.0
 11
113.15075
 21
50.024667
 31
0.0
  0
LINE
  8
1
  6
CONTINUOUS
 62
   233
  5
725
 10
113.15075
 20
50.024667
 30
0.0
 11
111.647667
 21
50.024667
 31
0.0
  0
LINE
  8
1
  6
CONTINUOUS
 62
   233
  5
726
 10
111.647667
 20
49.21075
 30
0.0
 11
112.173917
 21
49.21075
 31
0.0
  0
LINE
  8
1
  6
CONTINUOUS
 62
   233
  5
727
 10
112.173917
 20
49.21075
 30
0.0
 11
112.173917
 21
48.632583
 31
0.0
  0
LINE
  8
1
  6
CONTINUOUS
 62
   233
  5
728
 10
112.173917
 20
49.21075
 30
0.0
 11
112.48825
 21
49.21075
 31
0.0
  0
LINE
  8
1
  6
CONTINUOUS
 62
   233
  5
729
 10
112.48825
 20
49.21075
 30
0.0
 11
112.48825
 21
50.024667
 31
0.0
  0
LINE
  8
1
  6
CONTINUOUS
 62
   233
  5
72A
 10
112.420917
 20
50.024667
 30
0.0
 11
112.420917
 21
49.800167
 31
0.0
  0
LINE
  8
1
  6
CONTINUOUS
 62
   233
  5
72B
 10
112.420917
 20
49.800167
 30
0.0
 11
111.646167
 21
49.800167
 31
0.0
  0
INSERT
  8
1
  6
CONTINUOUS
 62
     7
  5
732
  2
BREAK
 10
112.690417
 20
48.632583
 30
0.0
 41
0.010417
 42
0.010417
210
0.0
220
0.0
230
1.0
  0
LINE
  8
1
  6
CONTINUOUS
 62
   233
  5
733
 10
112.752917
 20
48.632583
 30
0.0
 11
113.192
 21
48.632583
 31
0.0
  0
LINE
  8
1
  6
CONTINUOUS
 62
   233
  5
734
 10
112.627917
 20
48.632583
 30
0.0
 11
112.1315
 21
48.632583
 31
0.0
  0
INSERT
  8
1
  6
CONTINUOUS
 62
     7
  5
735
  2
BREAK
 10
111.647667
 20
49.621667
 30
0.0
 41
0.010417
 42
0.010417
 50
270.0
210
0.0
220
0.0
230
1.0
  0
LINE
  8
1
  6
CONTINUOUS
 62
   233
  5
736
 10
111.647667
 20
49.559167
 30
0.0
 11
111.647667
 21
49.176167
 31
0.0
  0
LINE
  8
1
  6
CONTINUOUS
 62
   233
  5
737
 10
111.647667
 20
49.684167
 30
0.0
 11
111.647667
 21
50.072583
 31
0.0
  0
LINE
  8
2
  6
HIDDEN
 62
   140
  5
738
 10
111.647667
 20
49.739833
 30
0.0
 11
112.48825
 21
49.739833
 31
0.0
  0
INSERT
  8
1
  6
CONTINUOUS
 62
     7
  5
777
  2
$X9
 10
92.051583
 20
41.372583
 30
0.0
210
0.0
220
0.0
230
1.0
  0
LINE
  8
1
  6
CONTINUOUS
 62
   233
  5
778
 10
109.522
 20
45.432583
 30
0.0
 11
109.522
 21
43.538667
 31
0.0
  0
LINE
  8
1
  6
CONTINUOUS
 62
   233
  5
779
 10
112.59875
 20
45.432583
 30
0.0
 11
112.59875
 21
43.538667
 31
0.0
  0
LINE
  8
1
  6
CONTINUOUS
 62
   233
  5
77A
 10
113.343
 20
45.432583
 30
0.0
 11
113.343
 21
43.538667
 31
0.0
  0
LINE
  8
1
  6
CONTINUOUS
 62
   233
  5
77B
 10
116.43625
 20
45.432583
 30
0.0
 11
116.43625
 21
43.538667
 31
0.0
  0
LINE
  8
1
  6
CONTINUOUS
 62
   233
  5
77C
 10
109.522
 20
44.994333
 30
0.0
 11
111.060417
 21
44.994333
 31
0.0
  0
LINE
  8
1
  6
CONTINUOUS
 62
   233
  5
77D
 10
111.060417
 20
44.994333
 30
0.0
 11
111.060417
 21
44.2335
 31
0.0
  0
LINE
  8
1
  6
CONTINUOUS
 62
   233
  5
77E
 10
111.060417
 20
44.2335
 30
0.0
 11
112.59875
 21
44.2335
 31
0.0
  0
LINE
  8
1
  6
CONTINUOUS
 62
   233
  5
77F
 10
113.343
 20
44.2335
 30
0.0
 11
114.1205
 21
44.2335
 31
0.0
  0
LINE
  8
1
  6
CONTINUOUS
 62
   233
  5
780
 10
114.1205
 20
44.2335
 30
0.0
 11
114.1205
 21
44.994333
 31
0.0
  0
LINE
  8
1
  6
CONTINUOUS
 62
   233
  5
781
 10
114.1205
 20
44.994333
 30
0.0
 11
115.6505
 21
44.994333
 31
0.0
  0
LINE
  8
1
  6
CONTINUOUS
 62
   233
  5
782
 10
115.6505
 20
44.994333
 30
0.0
 11
115.6505
 21
44.225167
 31
0.0
  0
LINE
  8
1
  6
CONTINUOUS
 62
   233
  5
783
 10
115.6505
 20
44.225167
 30
0.0
 11
116.43625
 21
44.225167
 31
0.0
  0
LINE
  8
1
  6
CONTINUOUS
 62
     7
  5
784
 10
109.522
 20
45.1755
 30
0.0
 11
109.522
 21
45.423
 31
0.0
  0
LINE
  8
1
  6
CONTINUOUS
 62
     7
  5
785
 10
111.060417
 20
44.886
 30
0.0
 11
111.060417
 21
45.423
 31
0.0
  0
LINE
  8
1
  6
CONTINUOUS
 62
     7
  5
786
 10
109.65325
 20
45.234
 30
0.0
 11
110.929083
 21
45.234
 31
0.0
  0
SOLID
  8
1
  6
CONTINUOUS
 62
     7
  5
787
 10
109.65325
 20
45.212083
 30
0.0
 11
109.65325
 21
45.255833
 31
0.0
 12
109.522
 22
45.234
 32
0.0
 13
109.522
 23
45.234
 33
0.0
  0
SOLID
  8
1
  6
CONTINUOUS
 62
     7
  5
788
 10
110.929083
 20
45.212083
 30
0.0
 11
110.929083
 21
45.255833
 31
0.0
 12
111.060417
 22
45.234
 32
0.0
 13
111.060417
 23
45.234
 33
0.0
  0
LINE
  8
8
  6
CONTINUOUS
 62
     7
  5
78A
 10
109.522
 20
45.109833
 30
0.0
 11
109.522083
 21
45.109833
 31
0.0
  0
LINE
  8
8
  6
CONTINUOUS
 62
     7
  5
78B
 10
111.060417
 20
44.820333
 30
0.0
 11
111.0605
 21
44.820333
 31
0.0
  0
LINE
  8
8
  6
CONTINUOUS
 62
     7
  5
78C
 10
111.060417
 20
45.234
 30
0.0
 11
111.0605
 21
45.234
 31
0.0
  0
LINE
  8
1
  6
CONTINUOUS
 62
     7
  5
78D
 10
111.060417
 20
44.275083
 30
0.0
 11
111.060417
 21
43.853833
 31
0.0
  0
LINE
  8
1
  6
CONTINUOUS
 62
     7
  5
78E
 10
112.59875
 20
44.035167
 30
0.0
 11
112.59875
 21
43.853833
 31
0.0
  0
LINE
  8
1
  6
CONTINUOUS
 62
     7
  5
78F
 10
111.191583
 20
44.042833
 30
0.0
 11
112.4675
 21
44.042833
 31
0.0
  0
SOLID
  8
1
  6
CONTINUOUS
 62
     7
  5
790
 10
111.191583
 20
44.021
 30
0.0
 11
111.191583
 21
44.064667
 31
0.0
 12
111.060417
 22
44.042833
 32
0.0
 13
111.060417
 23
44.042833
 33
0.0
  0
SOLID
  8
1
  6
CONTINUOUS
 62
     7
  5
791
 10
112.4675
 20
44.021
 30
0.0
 11
112.4675
 21
44.064667
 31
0.0
 12
112.59875
 22
44.042833
 32
0.0
 13
112.59875
 23
44.042833
 33
0.0
  0
LINE
  8
8
  6
CONTINUOUS
 62
     7
  5
792
 10
111.060417
 20
44.340667
 30
0.0
 11
111.0605
 21
44.340667
 31
0.0
  0
LINE
  8
8
  6
CONTINUOUS
 62
     7
  5
793
 10
112.59875
 20
44.100833
 30
0.0
 11
112.598917
 21
44.100833
 31
0.0
  0
LINE
  8
8
  6
CONTINUOUS
 62
     7
  5
794
 10
112.59875
 20
44.042833
 30
0.0
 11
112.598917
 21
44.042833
 31
0.0
  0
LINE
  8
1
  6
CONTINUOUS
 62
     7
  5
795
 10
113.343
 20
44.068167
 30
0.0
 11
113.343
 21
43.862083
 31
0.0
  0
LINE
  8
1
  6
CONTINUOUS
 62
     7
  5
796
 10
114.1205
 20
44.283333
 30
0.0
 11
114.1205
 21
43.862083
 31
0.0
  0
LINE
  8
1
  6
CONTINUOUS
 62
     7
  5
797
 10
113.47425
 20
44.051083
 30
0.0
 11
113.98925
 21
44.051083
 31
0.0
  0
SOLID
  8
1
  6
CONTINUOUS
 62
     7
  5
798
 10
113.47425
 20
44.029167
 30
0.0
 11
113.47425
 21
44.073
 31
0.0
 12
113.343
 22
44.051083
 32
0.0
 13
113.343
 23
44.051083
 33
0.0
  0
SOLID
  8
1
  6
CONTINUOUS
 62
     7
  5
799
 10
113.98925
 20
44.029167
 30
0.0
 11
113.98925
 21
44.073
 31
0.0
 12
114.1205
 22
44.051083
 32
0.0
 13
114.1205
 23
44.051083
 33
0.0
  0
LINE
  8
8
  6
CONTINUOUS
 62
     7
  5
79A
 10
113.343
 20
44.133833
 30
0.0
 11
113.343083
 21
44.133833
 31
0.0
  0
LINE
  8
8
  6
CONTINUOUS
 62
     7
  5
79B
 10
114.1205
 20
44.349
 30
0.0
 11
114.120583
 21
44.349
 31
0.0
  0
LINE
  8
8
  6
CONTINUOUS
 62
     7
  5
79C
 10
114.1205
 20
44.051083
 30
0.0
 11
114.120583
 21
44.051083
 31
0.0
  0
LINE
  8
1
  6
CONTINUOUS
 62
     7
  5
79D
 10
114.1205
 20
44.8695
 30
0.0
 11
114.1205
 21
45.431167
 31
0.0
  0
LINE
  8
1
  6
CONTINUOUS
 62
     7
  5
79E
 10
115.6505
 20
44.968667
 30
0.0
 11
115.6505
 21
45.431167
 31
0.0
  0
LINE
  8
1
  6
CONTINUOUS
 62
     7
  5
79F
 10
114.25175
 20
45.242167
 30
0.0
 11
115.51925
 21
45.242167
 31
0.0
  0
SOLID
  8
1
  6
CONTINUOUS
 62
     7
  5
7A0
 10
114.25175
 20
45.220333
 30
0.0
 11
114.25175
 21
45.264083
 31
0.0
 12
114.1205
 22
45.242167
 32
0.0
 13
114.1205
 23
45.242167
 33
0.0
  0
SOLID
  8
1
  6
CONTINUOUS
 62
     7
  5
7A1
 10
115.51925
 20
45.220333
 30
0.0
 11
115.51925
 21
45.264083
 31
0.0
 12
115.6505
 22
45.242167
 32
0.0
 13
115.6505
 23
45.242167
 33
0.0
  0
LINE
  8
8
  6
CONTINUOUS
 62
     7
  5
7A2
 10
114.1205
 20
44.803833
 30
0.0
 11
114.120583
 21
44.803833
 31
0.0
  0
LINE
  8
8
  6
CONTINUOUS
 62
     7
  5
7A3
 10
115.6505
 20
44.903083
 30
0.0
 11
115.650583
 21
44.903083
 31
0.0
  0
LINE
  8
8
  6
CONTINUOUS
 62
     7
  5
7A4
 10
115.6505
 20
45.242167
 30
0.0
 11
115.650583
 21
45.242167
 31
0.0
  0
LINE
  8
1
  6
CONTINUOUS
 62
     7
  5
7A5
 10
115.6505
 20
44.424
 30
0.0
 11
115.6505
 21
43.853833
 31
0.0
  0
LINE
  8
1
  6
CONTINUOUS
 62
     7
  5
7A6
 10
116.43625
 20
44.101333
 30
0.0
 11
116.43625
 21
43.853833
 31
0.0
  0
LINE
  8
1
  6
CONTINUOUS
 62
     7
  5
7A7
 10
115.78175
 20
44.042833
 30
0.0
 11
116.305
 21
44.042833
 31
0.0
  0
SOLID
  8
1
  6
CONTINUOUS
 62
     7
  5
7A8
 10
115.78175
 20
44.021
 30
0.0
 11
115.78175
 21
44.064667
 31
0.0
 12
115.6505
 22
44.042833
 32
0.0
 13
115.6505
 23
44.042833
 33
0.0
  0
SOLID
  8
1
  6
CONTINUOUS
 62
     7
  5
7A9
 10
116.304917
 20
44.021
 30
0.0
 11
116.304917
 21
44.064667
 31
0.0
 12
116.43625
 22
44.042833
 32
0.0
 13
116.43625
 23
44.042833
 33
0.0
  0
LINE
  8
8
  6
CONTINUOUS
 62
     7
  5
7AA
 10
115.6505
 20
44.489583
 30
0.0
 11
115.650583
 21
44.489583
 31
0.0
  0
LINE
  8
8
  6
CONTINUOUS
 62
     7
  5
7AB
 10
116.43625
 20
44.167
 30
0.0
 11
116.436417
 21
44.167
 31
0.0
  0
LINE
  8
8
  6
CONTINUOUS
 62
     7
  5
7AC
 10
116.43625
 20
44.042833
 30
0.0
 11
116.436417
 21
44.042833
 31
0.0
  0
LINE
  8
1
  6
CONTINUOUS
 62
     7
  5
7AD
 10
111.018083
 20
44.994333
 30
0.0
 11
111.447583
 21
44.994333
 31
0.0
  0
LINE
  8
1
  6
CONTINUOUS
 62
     7
  5
7AE
 10
111.24975
 20
44.2335
 30
0.0
 11
111.447583
 21
44.2335
 31
0.0
  0
LINE
  8
1
  6
CONTINUOUS
 62
     7
  5
7AF
 10
111.258583
 20
44.863083
 30
0.0
 11
111.258583
 21
44.613833
 31
0.0
  0
LINE
  8
1
  6
CONTINUOUS
 62
     7
  5
7B0
 10
111.258583
 20
44.364667
 30
0.0
 11
111.258583
 21
44.613833
 31
0.0
  0
SOLID
  8
1
  6
CONTINUOUS
 62
     7
  5
7B1
 10
111.2805
 20
44.863083
 30
0.0
 11
111.23675
 21
44.863083
 31
0.0
 12
111.258583
 22
44.994333
 32
0.0
 13
111.258583
 23
44.994333
 33
0.0
  0
SOLID
  8
1
  6
CONTINUOUS
 62
     7
  5
7B2
 10
111.2805
 20
44.364667
 30
0.0
 11
111.23675
 21
44.364667
 31
0.0
 12
111.258583
 22
44.2335
 32
0.0
 13
111.258583
 23
44.2335
 33
0.0
  0
LINE
  8
8
  6
CONTINUOUS
 62
     7
  5
7B3
 10
110.9525
 20
44.994333
 30
0.0
 11
110.952583
 21
44.994333
 31
0.0
  0
LINE
  8
8
  6
CONTINUOUS
 62
     7
  5
7B4
 10
111.184083
 20
44.2335
 30
0.0
 11
111.18425
 21
44.2335
 31
0.0
  0
LINE
  8
8
  6
CONTINUOUS
 62
     7
  5
7B5
 10
111.258583
 20
44.2335
 30
0.0
 11
111.25875
 21
44.2335
 31
0.0
  0
LINE
  8
1
  6
CONTINUOUS
 62
     7
  5
7B6
 10
114.055
 20
44.994333
 30
0.0
 11
113.69175
 21
44.994333
 31
0.0
  0
LINE
  8
1
  6
CONTINUOUS
 62
     7
  5
7B7
 10
113.780917
 20
44.2335
 30
0.0
 11
114.06975
 21
44.2335
 31
0.0
  0
LINE
  8
1
  6
CONTINUOUS
 62
     7
  5
7B8
 10
113.88075
 20
44.863083
 30
0.0
 11
113.88075
 21
44.613833
 31
0.0
  0
LINE
  8
1
  6
CONTINUOUS
 62
     7
  5
7B9
 10
113.88075
 20
44.364667
 30
0.0
 11
113.88075
 21
44.613833
 31
0.0
  0
SOLID
  8
1
  6
CONTINUOUS
 62
     7
  5
7BA
 10
113.902583
 20
44.863083
 30
0.0
 11
113.858917
 21
44.863083
 31
0.0
 12
113.88075
 22
44.994333
 32
0.0
 13
113.88075
 23
44.994333
 33
0.0
  0
SOLID
  8
1
  6
CONTINUOUS
 62
     7
  5
7BB
 10
113.902583
 20
44.364667
 30
0.0
 11
113.858917
 21
44.364667
 31
0.0
 12
113.88075
 22
44.2335
 32
0.0
 13
113.88075
 23
44.2335
 33
0.0
  0
LINE
  8
8
  6
CONTINUOUS
 62
     7
  5
7BC
 10
114.120583
 20
44.994333
 30
0.0
 11
114.12075
 21
44.994333
 31
0.0
  0
LINE
  8
8
  6
CONTINUOUS
 62
     7
  5
7BD
 10
113.71525
 20
44.2335
 30
0.0
 11
113.715417
 21
44.2335
 31
0.0
  0
LINE
  8
8
  6
CONTINUOUS
 62
     7
  5
7BE
 10
113.88075
 20
44.2335
 30
0.0
 11
113.880917
 21
44.2335
 31
0.0
  0
TEXT
  8
3
  6
CONTINUOUS
 62
     2
  5
7C1
 10
111.49025
 20
43.745083
 30
0.0
 40
0.15
  1
3" MIN
  7
MONOTXT
210
0.0
220
0.0
230
1.0
  0
TEXT
  8
3
  6
CONTINUOUS
 62
     2
  5
7C2
 10
113.50775
 20
44.737667
 30
0.0
 40
0.15
  1
2"
  7
MONOTXT
210
0.0
220
0.0
230
1.0
  0
TEXT
  8
3
  6
CONTINUOUS
 62
     2
  5
7C3
 10
113.40775
 20
44.480583
 30
0.0
 40
0.15
  1
MIN.
  7
MONOTXT
210
0.0
220
0.0
230
1.0
  0
TEXT
  8
3
  6
CONTINUOUS
 62
     2
  5
7C4
 10
110.07425
 20
42.898583
 30
0.0
 40
0.248083
  1
CONSTRUCTION JOINT DETAILS
  7
MONOTXT
210
0.0
220
0.0
230
1.0
  0
SOLID
  8
3
  6
CONTINUOUS
 62
     2
  5
7C5
 10
112.241083
 20
49.53425
 30
0.0
 11
112.241083
 21
49.578
 31
0.0
 12
112.109833
 22
49.556083
 32
0.0
 13
112.109833
 23
49.556083
 33
0.0
  0
LINE
  8
3
  6
CONTINUOUS
 62
     2
  5
7C6
 10
112.197333
 20
49.556083
 30
0.0
 11
113.62
 21
49.556083
 31
0.0
  0
TEXT
  8
3
  6
CONTINUOUS
 62
     2
  5
7C7
 10
110.606833
 20
47.929
 30
0.0
 40
0.27025
  1
PARTIAL SECTION A-A
  7
MONOTXT
210
0.0
220
0.0
230
1.0
  0
TEXT
  8
3
  6
CONTINUOUS
 62
     2
  5
7C8
 10
110.931583
 20
47.637417
 30
0.0
 40
0.146083
  1
(WITH OPTIONAL SHALLOW FRAME)
  7
MONOTXT
210
0.0
220
0.0
230
1.0
  0
LINE
  8
1
  6
CONTINUOUS
 62
     7
  5
7C9
 10
111.603917
 20
49.21075
 30
0.0
 11
111.223917
 21
49.21075
 31
0.0
  0
LINE
  8
1
  6
CONTINUOUS
 62
     7
  5
7CA
 10
111.602417
 20
49.800167
 30
0.0
 11
111.223917
 21
49.800167
 31
0.0
  0
LINE
  8
1
  6
CONTINUOUS
 62
     7
  5
7CB
 10
111.349917
 20
49.29825
 30
0.0
 11
111.349917
 21
49.505417
 31
0.0
  0
LINE
  8
1
  6
CONTINUOUS
 62
     7
  5
7CC
 10
111.349917
 20
49.712667
 30
0.0
 11
111.349917
 21
49.505417
 31
0.0
  0
SOLID
  8
1
  6
CONTINUOUS
 62
     7
  5
7CD
 10
111.371667
 20
49.342
 30
0.0
 11
111.327917
 21
49.342
 31
0.0
 12
111.349917
 22
49.21075
 32
0.0
 13
111.349917
 23
49.21075
 33
0.0
  0
SOLID
  8
1
  6
CONTINUOUS
 62
     7
  5
7CE
 10
111.371667
 20
49.668917
 30
0.0
 11
111.327917
 21
49.668917
 31
0.0
 12
111.349917
 22
49.800167
 32
0.0
 13
111.349917
 23
49.800167
 33
0.0
  0
LINE
  8
8
  6
CONTINUOUS
 62
     7
  5
7CF
 10
111.647667
 20
49.21075
 30
0.0
 11
111.64775
 21
49.21075
 31
0.0
  0
LINE
  8
8
  6
CONTINUOUS
 62
     7
  5
7D0
 10
111.646167
 20
49.800167
 30
0.0
 11
111.64625
 21
49.800167
 31
0.0
  0
LINE
  8
8
  6
CONTINUOUS
 62
     7
  5
7D1
 10
111.349917
 20
49.800167
 30
0.0
 11
111.35
 21
49.800167
 31
0.0
  0
LINE
  8
1
  6
CONTINUOUS
 62
     7
  5
7D2
 10
111.602417
 20
49.800167
 30
0.0
 11
111.223917
 21
49.800167
 31
0.0
  0
LINE
  8
1
  6
CONTINUOUS
 62
     7
  5
7D3
 10
111.603917
 20
50.024667
 30
0.0
 11
111.223917
 21
50.024667
 31
0.0
  0
LINE
  8
1
  6
CONTINUOUS
 62
     7
  5
7D4
 10
111.349917
 20
50.112167
 30
0.0
 11
111.349917
 21
50.199667
 31
0.0
  0
LINE
  8
1
  6
CONTINUOUS
 62
     7
  5
7D5
 10
111.349917
 20
49.712667
 30
0.0
 11
111.349917
 21
49.625167
 31
0.0
  0
LINE
  8
1
  6
CONTINUOUS
 62
     7
  5
7D6
 10
111.349917
 20
50.199667
 30
0.0
 11
111.437417
 21
50.199667
 31
0.0
  0
SOLID
  8
1
  6
CONTINUOUS
 62
     7
  5
7D7
 10
111.371667
 20
50.155917
 30
0.0
 11
111.327917
 21
50.155917
 31
0.0
 12
111.349917
 22
50.024667
 32
0.0
 13
111.349917
 23
50.024667
 33
0.0
  0
SOLID
  8
1
  6
CONTINUOUS
 62
     7
  5
7D8
 10
111.364417
 20
49.712667
 30
0.0
 11
111.33525
 21
49.712667
 31
0.0
 12
111.349917
 22
49.800167
 32
0.0
 13
111.349917
 23
49.800167
 33
0.0
  0
LINE
  8
8
  6
CONTINUOUS
 62
     7
  5
7D9
 10
111.646167
 20
49.800167
 30
0.0
 11
111.64625
 21
49.800167
 31
0.0
  0
LINE
  8
8
  6
CONTINUOUS
 62
     7
  5
7DA
 10
111.647667
 20
50.024667
 30
0.0
 11
111.64775
 21
50.024667
 31
0.0
  0
LINE
  8
8
  6
CONTINUOUS
 62
     7
  5
7DB
 10
111.349917
 20
50.024667
 30
0.0
 11
111.35
 21
50.024667
 31
0.0
  0
TEXT
  8
3
  6
CONTINUOUS
 62
     2
  5
7DC
 10
113.7275
 20
49.478083
 30
0.0
 40
0.146083
  1
SHALLOW FRAME
  7
MONOTXT
210
0.0
220
0.0
230
1.0
  0
LINE
  8
3
  6
CONTINUOUS
 62
     2
  5
7DD
 10
111.349917
 20
49.712667
 30
0.0
 11
111.349917
 21
50.024667
 31
0.0
  0
LINE
  8
3
  6
CONTINUOUS
 62
     2
  5
7DE
 10
106.296667
 20
44.806667
 30
0.0
 11
106.37525
 21
44.806667
 31
0.0
  0
SOLID
  8
3
  6
CONTINUOUS
 62
     2
  5
7DF
 10
112.304417
 20
50.489333
 30
0.0
 11
112.304417
 21
50.532917
 31
0.0
 12
112.173167
 22
50.511167
 32
0.0
 13
112.173167
 23
50.511167
 33
0.0
  0
SOLID
  8
3
  6
CONTINUOUS
 62
     2
  5
7E0
 10
112.356667
 20
50.532833
 30
0.0
 11
112.356667
 21
50.489083
 31
0.0
 12
112.487917
 22
50.510917
 32
0.0
 13
112.487917
 23
50.510917
 33
0.0
  0
SOLID
  8
3
  6
CONTINUOUS
 62
     2
  5
7E1
 10
111.333083
 20
49.941167
 30
0.0
 11
111.36225
 21
49.941167
 31
0.0
 12
111.347667
 22
50.028667
 32
0.0
 13
111.347667
 23
50.028667
 33
0.0
  0
SOLID
  8
3
  6
CONTINUOUS
 62
     2
  5
7E2
 10
111.3635
 20
49.897417
 30
0.0
 11
111.334333
 21
49.897417
 31
0.0
 12
111.348917
 22
49.809917
 32
0.0
 13
111.348917
 23
49.809917
 33
0.0
  0
LINE
  8
3
  6
CONTINUOUS
 62
     2
  5
7E3
 10
112.173167
 20
50.511167
 30
0.0
 11
112.48825
 21
50.511167
 31
0.0
  0
TEXT
  8
3
  6
CONTINUOUS
 62
     2
  5
7E4
 10
110.966333
 20
49.817917
 30
0.0
 40
0.146083
  1
2"
  7
MONOTXT
210
0.0
220
0.0
230
1.0
  0
TEXT
  8
3
  6
CONTINUOUS
 62
     2
  5
7E5
 10
110.980417
 20
49.427083
 30
0.0
 40
0.146083
  1
5"
  7
MONOTXT
210
0.0
220
0.0
230
1.0
  0
TEXT
  8
3
  6
CONTINUOUS
 62
     2
  5
7E6
 10
112.268417
 20
50.597
 30
0.0
 40
0.146083
  1
2"
  7
MONOTXT
210
0.0
220
0.0
230
1.0
  0
LINE
  8
1
  6
CONTINUOUS
 62
     7
  5
7E7
 10
112.48825
 20
50.068417
 30
0.0
 11
112.48825
 21
50.63825
 31
0.0
  0
LINE
  8
8
  6
CONTINUOUS
 62
     7
  5
7E8
 10
112.173917
 20
49.21075
 30
0.0
 11
112.174
 21
49.21075
 31
0.0
  0
LINE
  8
8
  6
CONTINUOUS
 62
     7
  5
7E9
 10
112.48825
 20
50.024667
 30
0.0
 11
112.488333
 21
50.024667
 31
0.0
  0
LINE
  8
8
  6
CONTINUOUS
 62
     7
  5
7EA
 10
112.48825
 20
50.51225
 30
0.0
 11
112.488333
 21
50.51225
 31
0.0
  0
LINE
  8
1
  6
CONTINUOUS
 62
     7
  5
7EB
 10
112.173917
 20
50.058833
 30
0.0
 11
112.173917
 21
50.63825
 31
0.0
  0
TEXT
  8
3
  6
CONTINUOUS
 62
     2
  5
7EC
 10
111.669917
 20
57.680083
 30
0.0
 40
0.146083
  1
CURB OR MEDIAN IF SPECIFIED
  7
MONOTXT
210
0.0
220
0.0
230
1.0
  0
TEXT
  8
3
  6
CONTINUOUS
 62
     2
  5
7ED
 10
111.71325
 20
55.749333
 30
0.0
 40
0.146083
  1
GRATE SUPPORT BAR
  7
MONOTXT
210
0.0
220
0.0
230
1.0
  0
LINE
  8
1
  6
CONTINUOUS
 62
     7
  5
7EE
 10
111.345583
 20
56.395583
 30
0.0
 11
111.345583
 21
56.83225
 31
0.0
  0
LINE
  8
1
  6
CONTINUOUS
 62
     7
  5
7EF
 10
111.620417
 20
56.451333
 30
0.0
 11
111.620417
 21
56.83225
 31
0.0
  0
LINE
  8
1
  6
CONTINUOUS
 62
     7
  5
7F0
 10
111.433083
 20
56.70625
 30
0.0
 11
111.532917
 21
56.70625
 31
0.0
  0
SOLID
  8
1
  6
CONTINUOUS
 62
     7
  5
7F1
 10
111.433083
 20
56.691667
 30
0.0
 11
111.433083
 21
56.720833
 31
0.0
 12
111.345583
 22
56.70625
 32
0.0
 13
111.345583
 23
56.70625
 33
0.0
  0
SOLID
  8
1
  6
CONTINUOUS
 62
     7
  5
7F2
 10
111.532917
 20
56.691667
 30
0.0
 11
111.532917
 21
56.720833
 31
0.0
 12
111.620417
 22
56.70625
 32
0.0
 13
111.620417
 23
56.70625
 33
0.0
  0
TEXT
  8
1
  6
CONTINUOUS
 62
     7
  5
7F3
 10
111.438
 20
56.78125
 30
0.0
 40
0.15
  1
2
 41
0.9
  7
MONOTXT
210
0.0
220
0.0
230
1.0
  0
LINE
  8
8
  6
CONTINUOUS
 62
     7
  5
7F4
 10
111.345583
 20
56.351833
 30
0.0
 11
111.345667
 21
56.351833
 31
0.0
  0
LINE
  8
8
  6
CONTINUOUS
 62
     7
  5
7F5
 10
111.620417
 20
56.407583
 30
0.0
 11
111.6205
 21
56.407583
 31
0.0
  0
LINE
  8
8
  6
CONTINUOUS
 62
     7
  5
7F6
 10
111.620417
 20
56.70625
 30
0.0
 11
111.6205
 21
56.70625
 31
0.0
  0
LINE
  8
1
  6
CONTINUOUS
 62
     7
  5
7F7
 10
111.620417
 20
56.451333
 30
0.0
 11
111.620417
 21
56.83225
 31
0.0
  0
LINE
  8
1
  6
CONTINUOUS
 62
     7
  5
7F8
 10
114.087917
 20
56.4585
 30
0.0
 11
114.087917
 21
56.83225
 31
0.0
  0
LINE
  8
1
  6
CONTINUOUS
 62
     7
  5
7F9
 10
111.707917
 20
56.70625
 30
0.0
 11
114.000417
 21
56.70625
 31
0.0
  0
SOLID
  8
1
  6
CONTINUOUS
 62
     7
  5
7FA
 10
111.751667
 20
56.684417
 30
0.0
 11
111.751667
 21
56.728167
 31
0.0
 12
111.620417
 22
56.70625
 32
0.0
 13
111.620417
 23
56.70625
 33
0.0
  0
SOLID
  8
1
  6
CONTINUOUS
 62
     7
  5
7FB
 10
113.956667
 20
56.684417
 30
0.0
 11
113.956667
 21
56.728167
 31
0.0
 12
114.087917
 22
56.70625
 32
0.0
 13
114.087917
 23
56.70625
 33
0.0
  0
TEXT
  8
1
  6
CONTINUOUS
 62
     7
  5
7FC
 10
112.699917
 20
56.78125
 30
0.0
 40
0.15
  1
20"
 41
0.9
  7
MONOTXT
210
0.0
220
0.0
230
1.0
  0
LINE
  8
8
  6
CONTINUOUS
 62
     7
  5
7FD
 10
111.620417
 20
56.407583
 30
0.0
 11
111.6205
 21
56.407583
 31
0.0
  0
LINE
  8
8
  6
CONTINUOUS
 62
     7
  5
7FE
 10
114.087917
 20
56.41475
 30
0.0
 11
114.088
 21
56.41475
 31
0.0
  0
LINE
  8
8
  6
CONTINUOUS
 62
     7
  5
7FF
 10
114.087917
 20
56.70625
 30
0.0
 11
114.088
 21
56.70625
 31
0.0
  0
LINE
  8
1
  6
CONTINUOUS
 62
     7
  5
800
 10
114.087917
 20
56.4585
 30
0.0
 11
114.087917
 21
56.83225
 31
0.0
  0
LINE
  8
1
  6
CONTINUOUS
 62
     7
  5
801
 10
114.311083
 20
56.395583
 30
0.0
 11
114.311083
 21
56.83225
 31
0.0
  0
LINE
  8
1
  6
CONTINUOUS
 62
     7
  5
802
 10
114.175417
 20
56.70625
 30
0.0
 11
114.223583
 21
56.70625
 31
0.0
  0
SOLID
  8
1
  6
CONTINUOUS
 62
     7
  5
803
 10
114.175417
 20
56.691667
 30
0.0
 11
114.175417
 21
56.720833
 31
0.0
 12
114.087917
 22
56.70625
 32
0.0
 13
114.087917
 23
56.70625
 33
0.0
  0
SOLID
  8
1
  6
CONTINUOUS
 62
     7
  5
804
 10
114.223583
 20
56.691667
 30
0.0
 11
114.223583
 21
56.720833
 31
0.0
 12
114.311083
 22
56.70625
 32
0.0
 13
114.311083
 23
56.70625
 33
0.0
  0
TEXT
  8
1
  6
CONTINUOUS
 62
     7
  5
805
 10
114.1545
 20
56.78125
 30
0.0
 40
0.15
  1
2
 41
0.9
  7
MONOTXT
210
0.0
220
0.0
230
1.0
  0
LINE
  8
8
  6
CONTINUOUS
 62
     7
  5
806
 10
114.087917
 20
56.41475
 30
0.0
 11
114.088
 21
56.41475
 31
0.0
  0
LINE
  8
8
  6
CONTINUOUS
 62
     7
  5
807
 10
114.311083
 20
56.351833
 30
0.0
 11
114.311167
 21
56.351833
 31
0.0
  0
LINE
  8
8
  6
CONTINUOUS
 62
     7
  5
808
 10
114.311083
 20
56.70625
 30
0.0
 11
114.311167
 21
56.70625
 31
0.0
  0
LINE
  8
3
  6
CONTINUOUS
 62
     2
  5
809
 10
111.762583
 20
56.351833
 30
0.0
 11
111.762583
 21
56.556917
 31
0.0
  0
SOLID
  8
3
  6
CONTINUOUS
 62
     2
  5
80A
 10
111.762583
 20
56.351833
 30
0.0
 11
111.74075
 21
56.474917
 31
0.0
 12
111.784417
 22
56.474917
 32
0.0
 13
111.784417
 23
56.474917
 33
0.0
  0
LINE
  8
3
  6
CONTINUOUS
 62
     2
  5
80B
 10
111.762583
 20
56.556917
 30
0.0
 11
112.032833
 21
56.556917
 31
0.0
  0
TEXT
  8
3
  6
CONTINUOUS
 62
     2
  5
80C
 10
112.179
 20
56.483833
 30
0.0
 40
0.146083
  1
2"
  7
MONOTXT
210
0.0
220
0.0
230
1.0
  0
LINE
  8
3
  6
CONTINUOUS
 62
     2
  5
80D
 10
111.758667
 20
56.128417
 30
0.0
 11
111.758667
 21
55.968417
 31
0.0
  0
SOLID
  8
3
  6
CONTINUOUS
 62
     2
  5
80E
 10
111.758667
 20
56.128417
 30
0.0
 11
111.780417
 21
56.005333
 31
0.0
 12
111.736917
 22
56.005333
 32
0.0
 13
111.736917
 23
56.005333
 33
0.0
  0
LINE
  8
1
  6
CONTINUOUS
 62
     7
  5
80F
 10
110.5285
 20
56.825417
 30
0.0
 11
110.166917
 21
56.825417
 31
0.0
  0
LINE
  8
1
  6
CONTINUOUS
 62
     7
  5
810
 10
110.524667
 20
56.354833
 30
0.0
 11
110.166917
 21
56.354833
 31
0.0
  0
LINE
  8
1
  6
CONTINUOUS
 62
     7
  5
811
 10
110.292917
 20
56.737917
 30
0.0
 11
110.292917
 21
56.590167
 31
0.0
  0
LINE
  8
1
  6
CONTINUOUS
 62
     7
  5
812
 10
110.292917
 20
56.442333
 30
0.0
 11
110.292917
 21
56.590167
 31
0.0
  0
SOLID
  8
1
  6
CONTINUOUS
 62
     7
  5
813
 10
110.321917
 20
56.650417
 30
0.0
 11
110.26375
 21
56.650417
 31
0.0
 12
110.292917
 22
56.825417
 32
0.0
 13
110.292917
 23
56.825417
 33
0.0
  0
SOLID
  8
1
  6
CONTINUOUS
 62
     7
  5
814
 10
110.321917
 20
56.529917
 30
0.0
 11
110.26375
 21
56.529917
 31
0.0
 12
110.292917
 22
56.35475
 32
0.0
 13
110.292917
 23
56.35475
 33
0.0
  0
LINE
  8
8
  6
CONTINUOUS
 62
     7
  5
815
 10
110.57225
 20
56.825417
 30
0.0
 11
110.572333
 21
56.825417
 31
0.0
  0
LINE
  8
8
  6
CONTINUOUS
 62
     7
  5
816
 10
110.568417
 20
56.354833
 30
0.0
 11
110.5685
 21
56.354833
 31
0.0
  0
LINE
  8
8
  6
CONTINUOUS
 62
     7
  5
817
 10
110.292917
 20
56.354833
 30
0.0
 11
110.293
 21
56.354833
 31
0.0
  0
LINE
  8
1
  6
CONTINUOUS
 62
     7
  5
818
 10
110.524667
 20
56.354917
 30
0.0
 11
110.166917
 21
56.354917
 31
0.0
  0
LINE
  8
1
  6
CONTINUOUS
 62
     7
  5
819
 10
110.524667
 20
55.888083
 30
0.0
 11
110.166917
 21
55.888083
 31
0.0
  0
LINE
  8
1
  6
CONTINUOUS
 62
     7
  5
81A
 10
110.292917
 20
56.267417
 30
0.0
 11
110.292917
 21
56.1215
 31
0.0
  0
LINE
  8
1
  6
CONTINUOUS
 62
     7
  5
81B
 10
110.292917
 20
55.975583
 30
0.0
 11
110.292917
 21
56.1215
 31
0.0
  0
SOLID
  8
1
  6
CONTINUOUS
 62
     7
  5
81C
 10
110.321917
 20
56.180083
 30
0.0
 11
110.26375
 21
56.180083
 31
0.0
 12
110.292917
 22
56.354917
 32
0.0
 13
110.292917
 23
56.354917
 33
0.0
  0
SOLID
  8
1
  6
CONTINUOUS
 62
     7
  5
81D
 10
110.321917
 20
56.063083
 30
0.0
 11
110.26375
 21
56.063083
 31
0.0
 12
110.292917
 22
55.888083
 32
0.0
 13
110.292917
 23
55.888083
 33
0.0
  0
LINE
  8
8
  6
CONTINUOUS
 62
     7
  5
81E
 10
110.568417
 20
56.354917
 30
0.0
 11
110.5685
 21
56.354917
 31
0.0
  0
LINE
  8
8
  6
CONTINUOUS
 62
     7
  5
81F
 10
110.568417
 20
55.888083
 30
0.0
 11
110.5685
 21
55.888083
 31
0.0
  0
LINE
  8
8
  6
CONTINUOUS
 62
     7
  5
820
 10
110.292917
 20
55.888083
 30
0.0
 11
110.293
 21
55.888083
 31
0.0
  0
TEXT
  8
3
  6
CONTINUOUS
 62
     2
  5
821
 10
110.040333
 20
56.492667
 30
0.0
 40
0.146083
  1
4"
  7
MONOTXT
210
0.0
220
0.0
230
1.0
  0
TEXT
  8
3
  6
CONTINUOUS
 62
     2
  5
822
 10
110.040333
 20
56.045
 30
0.0
 40
0.146083
  1
4"
  7
MONOTXT
210
0.0
220
0.0
230
1.0
  0
LINE
  8
1
  6
CONTINUOUS
 62
     7
  5
823
 10
111.615083
 20
54.401917
 30
0.0
 11
111.615083
 21
54.315833
 31
0.0
  0
LINE
  8
1
  6
CONTINUOUS
 62
     7
  5
824
 10
110.641
 20
54.48175
 30
0.0
 11
110.641
 21
54.567833
 31
0.0
  0
LINE
  8
1
  6
CONTINUOUS
 62
     7
  5
825
 10
111.527583
 20
54.441833
 30
0.0
 11
110.7285
 21
54.441833
 31
0.0
  0
SOLID
  8
1
  6
CONTINUOUS
 62
     7
  5
826
 10
111.527583
 20
54.42725
 30
0.0
 11
111.527583
 21
54.456417
 31
0.0
 12
111.615083
 22
54.441833
 32
0.0
 13
111.615083
 23
54.441833
 33
0.0
  0
SOLID
  8
1
  6
CONTINUOUS
 62
     7
  5
827
 10
110.7285
 20
54.42725
 30
0.0
 11
110.7285
 21
54.456417
 31
0.0
 12
110.640917
 22
54.441833
 32
0.0
 13
110.640917
 23
54.441833
 33
0.0
  0
TEXT
  8
1
  6
CONTINUOUS
 62
     7
  5
828
 10
110.86
 20
54.489583
 30
0.0
 40
0.15
  1
8" MIN
 41
0.9
  7
MONOTXT
210
0.0
220
0.0
230
1.0
  0
LINE
  8
8
  6
CONTINUOUS
 62
     7
  5
829
 10
111.615083
 20
54.445667
 30
0.0
 11
111.615167
 21
54.445667
 31
0.0
  0
LINE
  8
8
  6
CONTINUOUS
 62
     7
  5
82A
 10
110.641
 20
54.438
 30
0.0
 11
110.641083
 21
54.438
 31
0.0
  0
LINE
  8
8
  6
CONTINUOUS
 62
     7
  5
82B
 10
110.641
 20
54.441833
 30
0.0
 11
110.641083
 21
54.441833
 31
0.0
  0
LINE
  8
1
  6
CONTINUOUS
 62
     7
  5
82C
 10
110.974083
 20
55.534333
 30
0.0
 11
110.974083
 21
55.3105
 31
0.0
  0
LINE
  8
1
  6
CONTINUOUS
 62
     7
  5
82D
 10
111.615167
 20
55.39275
 30
0.0
 11
111.615167
 21
55.3105
 31
0.0
  0
LINE
  8
1
  6
CONTINUOUS
 62
     7
  5
82E
 10
111.061583
 20
55.4365
 30
0.0
 11
111.527667
 21
55.4365
 31
0.0
  0
SOLID
  8
1
  6
CONTINUOUS
 62
     7
  5
82F
 10
111.105333
 20
55.414667
 30
0.0
 11
111.105333
 21
55.458417
 31
0.0
 12
110.974083
 22
55.436417
 32
0.0
 13
110.974083
 23
55.436417
 33
0.0
  0
SOLID
  8
1
  6
CONTINUOUS
 62
     7
  5
830
 10
111.483917
 20
55.414667
 30
0.0
 11
111.483917
 21
55.458417
 31
0.0
 12
111.615167
 22
55.436417
 32
0.0
 13
111.615167
 23
55.436417
 33
0.0
  0
LINE
  8
8
  6
CONTINUOUS
 62
     7
  5
831
 10
110.974083
 20
55.578083
 30
0.0
 11
110.974167
 21
55.578083
 31
0.0
  0
LINE
  8
8
  6
CONTINUOUS
 62
     7
  5
832
 10
111.615167
 20
55.4365
 30
0.0
 11
111.61525
 21
55.4365
 31
0.0
  0
LINE
  8
8
  6
CONTINUOUS
 62
     7
  5
833
 10
111.615167
 20
55.4365
 30
0.0
 11
111.61525
 21
55.4365
 31
0.0
  0
LINE
  8
3
  6
CONTINUOUS
 62
     2
  5
834
 10
111.345583
 20
56.395583
 30
0.0
 11
111.090833
 21
56.75425
 31
0.0
  0
LINE
  8
3
  6
CONTINUOUS
 62
     2
  5
835
 10
111.345583
 20
56.62275
 30
0.0
 11
111.131417
 21
56.94825
 31
0.0
  0
LINE
  8
3
  6
CONTINUOUS
 62
     2
  5
836
 10
111.059417
 20
56.7985
 30
0.0
 11
110.752083
 21
57.231083
 31
0.0
  0
LINE
  8
3
  6
CONTINUOUS
 62
     2
  5
837
 10
111.083
 20
57.021833
 30
0.0
 11
110.794167
 21
57.460667
 31
0.0
  0
LINE
  8
3
  6
CONTINUOUS
 62
     2
  5
838
 10
104.003
 20
56.89625
 30
0.0
 11
103.448583
 21
58.53025
 31
0.0
  0
LINE
  8
3
  6
CONTINUOUS
 62
     2
  5
839
 10
103.448583
 20
58.53025
 30
0.0
 11
103.643667
 21
58.53025
 31
0.0
  0
LINE
  8
3
  6
CONTINUOUS
 62
     2
  5
83A
 10
110.824833
 20
57.131583
 30
0.0
 11
110.928167
 21
57.254083
 31
0.0
  0
SOLID
  8
3
  6
CONTINUOUS
 62
     2
  5
83B
 10
110.824833
 20
57.131583
 30
0.0
 11
110.887583
 21
57.23975
 31
0.0
 12
110.92075
 22
57.211667
 32
0.0
 13
110.92075
 23
57.211667
 33
0.0
  0
LINE
  8
3
  6
CONTINUOUS
 62
     2
  5
83C
 10
110.928167
 20
57.254083
 30
0.0
 11
110.962583
 21
57.292333
 31
0.0
  0
LINE
  8
3
  6
CONTINUOUS
 62
     2
  5
83D
 10
110.928167
 20
57.254083
 30
0.0
 11
111.375833
 21
57.759083
 31
0.0
  0
SOLID
  8
3
  6
CONTINUOUS
 62
     2
  5
83E
 10
110.928167
 20
57.254083
 30
0.0
 11
110.993417
 21
57.360583
 31
0.0
 12
111.026083
 22
57.33175
 32
0.0
 13
111.026083
 23
57.33175
 33
0.0
  0
LINE
  8
3
  6
CONTINUOUS
 62
     2
  5
83F
 10
111.375833
 20
57.759083
 30
0.0
 11
111.659083
 21
57.759083
 31
0.0
  0
TEXT
  8
3
  6
CONTINUOUS
 62
     2
  5
840
 10
111.180917
 20
55.4595
 30
0.0
 40
0.146083
  1
4"
  7
MONOTXT
210
0.0
220
0.0
230
1.0
  0
TEXT
  8
3
  6
CONTINUOUS
 62
     2
  5
841
 10
111.1235
 20
55.229833
 30
0.0
 40
0.146083
  1
MIN.
  7
MONOTXT
210
0.0
220
0.0
230
1.0
  0
LINE
  8
1
  6
CONTINUOUS
 62
     7
  5
842
 10
114.095417
 20
54.516167
 30
0.0
 11
114.095417
 21
54.609917
 31
0.0
  0
LINE
  8
1
  6
CONTINUOUS
 62
     7
  5
843
 10
115.149083
 20
54.523833
 30
0.0
 11
115.149083
 21
54.609917
 31
0.0
  0
LINE
  8
1
  6
CONTINUOUS
 62
     7
  5
844
 10
114.182917
 20
54.483917
 30
0.0
 11
115.061583
 21
54.483917
 31
0.0
  0
SOLID
  8
1
  6
CONTINUOUS
 62
     7
  5
845
 10
114.182917
 20
54.469333
 30
0.0
 11
114.182917
 21
54.4985
 31
0.0
 12
114.095417
 22
54.483917
 32
0.0
 13
114.095417
 23
54.483917
 33
0.0
  0
SOLID
  8
1
  6
CONTINUOUS
 62
     7
  5
846
 10
115.061583
 20
54.469333
 30
0.0
 11
115.061583
 21
54.4985
 31
0.0
 12
115.149083
 22
54.483917
 32
0.0
 13
115.149083
 23
54.483917
 33
0.0
  0
TEXT
  8
1
  6
CONTINUOUS
 62
     7
  5
847
 10
114.352917
 20
54.540917
 30
0.0
 40
0.15
  1
8" MIN
 41
0.9
  7
MONOTXT
210
0.0
220
0.0
230
1.0
  0
LINE
  8
8
  6
CONTINUOUS
 62
     7
  5
848
 10
114.095417
 20
54.472417
 30
0.0
 11
114.0955
 21
54.472417
 31
0.0
  0
LINE
  8
8
  6
CONTINUOUS
 62
     7
  5
849
 10
115.149083
 20
54.480083
 30
0.0
 11
115.149167
 21
54.480083
 31
0.0
  0
LINE
  8
8
  6
CONTINUOUS
 62
     7
  5
84A
 10
115.149083
 20
54.483917
 30
0.0
 11
115.149167
 21
54.483917
 31
0.0
  0
LINE
  8
1
  6
CONTINUOUS
 62
     7
  5
84B
 10
114.095417
 20
55.408167
 30
0.0
 11
114.095417
 21
55.31825
 31
0.0
  0
LINE
  8
1
  6
CONTINUOUS
 62
     7
  5
84C
 10
114.743417
 20
55.568833
 30
0.0
 11
114.743417
 21
55.31825
 31
0.0
  0
LINE
  8
1
  6
CONTINUOUS
 62
     7
  5
84D
 10
114.182917
 20
55.44425
 30
0.0
 11
114.655917
 21
55.44425
 31
0.0
  0
SOLID
  8
1
  6
CONTINUOUS
 62
     7
  5
84E
 10
114.226667
 20
55.422417
 30
0.0
 11
114.226667
 21
55.466
 31
0.0
 12
114.095417
 22
55.44425
 32
0.0
 13
114.095417
 23
55.44425
 33
0.0
  0
SOLID
  8
1
  6
CONTINUOUS
 62
     7
  5
84F
 10
114.61475
 20
55.42125
 30
0.0
 11
114.61475
 21
55.464917
 31
0.0
 12
114.746
 22
55.443167
 32
0.0
 13
114.746
 23
55.443167
 33
0.0
  0
TEXT
  8
1
  6
CONTINUOUS
 62
     7
  5
850
 10
114.335417
 20
55.463667
 30
0.0
 40
0.15
  1
4"
 41
0.9
  7
MONOTXT
210
0.0
220
0.0
230
1.0
  0
LINE
  8
8
  6
CONTINUOUS
 62
     7
  5
851
 10
114.095417
 20
55.451917
 30
0.0
 11
114.0955
 21
55.451917
 31
0.0
  0
LINE
  8
8
  6
CONTINUOUS
 62
     7
  5
852
 10
114.743417
 20
55.612583
 30
0.0
 11
114.7435
 21
55.612583
 31
0.0
  0
LINE
  8
8
  6
CONTINUOUS
 62
     7
  5
853
 10
114.743417
 20
55.44425
 30
0.0
 11
114.7435
 21
55.44425
 31
0.0
  0
TEXT
  8
3
  6
CONTINUOUS
 62
     2
  5
854
 10
114.265833
 20
55.24675
 30
0.0
 40
0.146083
  1
MIN.
  7
MONOTXT
210
0.0
220
0.0
230
1.0
  0
TEXT
  8
3
  6
CONTINUOUS
 62
     2
  5
855
 10
97.002917
 20
56.872583
 30
0.0
 40
0.146083
  1
CURB IF
  7
MONOTXT
210
0.0
220
0.0
230
1.0
  0
TEXT
  8
3
  6
CONTINUOUS
 62
     2
  5
856
 10
96.922917
 20
56.622
 30
0.0
 40
0.146083
  1
SPECIFIED
  7
MONOTXT
210
0.0
220
0.0
230
1.0
  0
TEXT
  8
3
  6
CONTINUOUS
 62
     2
  5
857
 10
102.687833
 20
55.056083
 30
0.0
 40
0.146083
  1
GRATE SUPPORT BAR
 41
0.799772
  7
MONOTXT
210
0.0
220
0.0
230
1.0
  0
TEXT
  8
3
  6
CONTINUOUS
 62
     2
  5
858
 10
102.687833
 20
54.805583
 30
0.0
 40
0.146083
  1
(NOT REQUIRED IF
 41
0.799772
  7
MONOTXT
210
0.0
220
0.0
230
1.0
  0
LINE
  8
3
  6
CONTINUOUS
 62
     2
  5
859
 10
102.294833
 20
55.127583
 30
0.0
 11
102.662333
 21
55.127583
 31
0.0
  0
SOLID
  8
3
  6
CONTINUOUS
 62
     2
  5
85A
 10
102.294833
 20
55.127583
 30
0.0
 11
102.4795
 21
55.16025
 31
0.0
 12
102.4795
 22
55.095
 32
0.0
 13
102.4795
 23
55.095
 33
0.0
  0
LINE
  8
3
  6
CONTINUOUS
 62
     2
  5
85B
 10
105.847833
 20
52.819417
 30
0.0
 11
106.232917
 21
52.464417
 31
0.0
  0
SOLID
  8
3
  6
CONTINUOUS
 62
     2
  5
85C
 10
105.847833
 20
52.819417
 30
0.0
 11
106.00575
 21
52.718333
 31
0.0
 12
105.9615
 22
52.670333
 32
0.0
 13
105.9615
 23
52.670333
 33
0.0
  0
LINE
  8
3
  6
CONTINUOUS
 62
     2
  5
85D
 10
106.232917
 20
52.464417
 30
0.0
 11
106.5145
 21
52.464417
 31
0.0
  0
TEXT
  8
3
  6
CONTINUOUS
 62
     2
  5
85E
 10
106.660667
 20
52.391333
 30
0.0
 40
0.146083
  1
1/2" EXPANSION JOINT
 41
0.799772
  7
MONOTXT
210
0.0
220
0.0
230
1.0
  0
LINE
  8
3
  6
CONTINUOUS
 62
     2
  5
85F
 10
105.918833
 20
55.0205
 30
0.0
 11
106.27625
 21
55.0205
 31
0.0
  0
LINE
  8
3
  6
CONTINUOUS
 62
     2
  5
860
 10
98.20725
 20
55.0205
 30
0.0
 11
97.849833
 21
55.0205
 31
0.0
  0
LINE
  8
3
  6
CONTINUOUS
 62
     2
  5
861
 10
102.05225
 20
57.240833
 30
0.0
 11
102.05225
 21
57.56575
 31
0.0
  0
LINE
  8
3
  6
CONTINUOUS
 62
     2
  5
862
 10
102.05225
 20
52.767667
 30
0.0
 11
102.05225
 21
52.496917
 31
0.0
  0
LINE
  8
3
  6
CONTINUOUS
 62
     2
  5
863
 10
97.849833
 20
55.38875
 30
0.0
 11
97.849833
 21
55.0205
 31
0.0
  0
SOLID
  8
3
  6
CONTINUOUS
 62
     2
  5
864
 10
97.849833
 20
55.38875
 30
0.0
 11
97.882333
 21
55.204167
 31
0.0
 12
97.81725
 22
55.204167
 32
0.0
 13
97.81725
 23
55.204167
 33
0.0
  0
LINE
  8
3
  6
CONTINUOUS
 62
     2
  5
865
 10
106.27625
 20
55.38875
 30
0.0
 11
106.27625
 21
55.0205
 31
0.0
  0
SOLID
  8
3
  6
CONTINUOUS
 62
     2
  5
866
 10
106.27625
 20
55.38875
 30
0.0
 11
106.308917
 21
55.204167
 31
0.0
 12
106.2435
 22
55.204167
 32
0.0
 13
106.2435
 23
55.204167
 33
0.0
  0
LINE
  8
3
  6
CONTINUOUS
 62
     2
  5
867
 10
102.4205
 20
57.56575
 30
0.0
 11
102.05225
 21
57.56575
 31
0.0
  0
SOLID
  8
3
  6
CONTINUOUS
 62
     2
  5
868
 10
102.4205
 20
57.56575
 30
0.0
 11
102.23575
 21
57.533167
 31
0.0
 12
102.23575
 22
57.59825
 32
0.0
 13
102.23575
 23
57.59825
 33
0.0
  0
SOLID
  8
3
  6
CONTINUOUS
 62
     2
  5
869
 10
102.4205
 20
52.496917
 30
0.0
 11
102.23575
 21
52.464333
 31
0.0
 12
102.23575
 22
52.529583
 32
0.0
 13
102.23575
 23
52.529583
 33
0.0
  0
LINE
  8
3
  6
CONTINUOUS
 62
     2
  5
86A
 10
102.4205
 20
52.496917
 30
0.0
 11
102.05225
 21
52.496917
 31
0.0
  0
TEXT
  8
3
  6
CONTINUOUS
 62
     2
  5
86B
 10
97.8125
 20
55.532667
 30
0.0
 40
0.146083
  1
B
 41
0.799772
  7
MONOTXT
210
0.0
220
0.0
230
1.0
  0
TEXT
  8
3
  6
CONTINUOUS
 62
     2
  5
86C
 10
106.254417
 20
55.504417
 30
0.0
 40
0.146083
  1
B
 41
0.799772
  7
MONOTXT
210
0.0
220
0.0
230
1.0
  0
TEXT
  8
3
  6
CONTINUOUS
 62
     2
  5
86D
 10
102.54675
 20
57.483167
 30
0.0
 40
0.146083
  1
A
 41
0.799772
  7
MONOTXT
210
0.0
220
0.0
230
1.0
  0
TEXT
  8
3
  6
CONTINUOUS
 62
     2
  5
86E
 10
102.536833
 20
52.44625
 30
0.0
 40
0.146083
  1
A
 41
0.799772
  7
MONOTXT
210
0.0
220
0.0
230
1.0
  0
TEXT
  8
3
  6
CONTINUOUS
 62
     2
  5
86F
 10
101.72125
 20
51.641417
 30
0.0
 40
0.289333
  1
PLAN
  7
MONOTXT
210
0.0
220
0.0
230
1.0
  0
LINE
  8
3
  6
CONTINUOUS
 62
     2
  5
870
 10
99.1925
 20
46.816083
 30
0.0
 11
98.188083
 21
46.816083
 31
0.0
  0
SOLID
  8
3
  6
CONTINUOUS
 62
     2
  5
871
 10
99.1925
 20
46.816083
 30
0.0
 11
99.007917
 21
46.7835
 31
0.0
 12
99.007917
 22
46.84875
 32
0.0
 13
99.007917
 23
46.84875
 33
0.0
  0
CIRCLE
  8
1
  6
CONTINUOUS
 62
     7
  5
872
 10
98.009417
 20
46.816083
 30
0.0
 40
0.178606
210
0.0
220
0.0
230
1.0
  0
TEXT
  8
1
  6
CONTINUOUS
 62
     7
  5
873
 10
97.943583
 20
46.771417
 30
0.0
 40
0.08925
  1
CJ
  7
MONOTXT
210
0.0
220
0.0
230
1.0
  0
LINE
  8
1
  6
CONTINUOUS
 62
   233
  5
874
 10
99.687417
 20
45.365333
 30
0.0
 11
98.683583
 21
45.365333
 31
0.0
  0
LINE
  8
3
  6
CONTINUOUS
 62
     2
  5
875
 10
98.683583
 20
45.365333
 30
0.0
 11
98.188083
 21
45.365333
 31
0.0
  0
SOLID
  8
3
  6
CONTINUOUS
 62
     2
  5
876
 10
98.683583
 20
45.365333
 30
0.0
 11
98.499
 21
45.33275
 31
0.0
 12
98.499
 22
45.398
 32
0.0
 13
98.499
 23
45.398
 33
0.0
  0
CIRCLE
  8
1
  6
CONTINUOUS
 62
     7
  5
877
 10
98.009417
 20
45.365333
 30
0.0
 40
0.178606
210
0.0
220
0.0
230
1.0
  0
TEXT
  8
1
  6
CONTINUOUS
 62
     7
  5
878
 10
97.943583
 20
45.320667
 30
0.0
 40
0.08925
  1
CJ
  7
MONOTXT
210
0.0
220
0.0
230
1.0
  0
LINE
  8
3
  6
CONTINUOUS
 62
     2
  5
879
 10
99.156083
 20
48.943917
 30
0.0
 11
99.317333
 21
49.846667
 31
0.0
  0
SOLID
  8
3
  6
CONTINUOUS
 62
     2
  5
87A
 10
99.156083
 20
48.943917
 30
0.0
 11
99.15625
 21
49.068917
 31
0.0
 12
99.199083
 22
49.06125
 32
0.0
 13
99.199083
 23
49.06125
 33
0.0
  0
LINE
  8
3
  6
CONTINUOUS
 62
     2
  5
87B
 10
99.317333
 20
49.846667
 30
0.0
 11
99.133
 21
49.846667
 31
0.0
  0
TEXT
  8
3
  6
CONTINUOUS
 62
     2
  5
87C
 10
97.208667
 20
49.719917
 30
0.0
 40
0.146083
  1
CURB IF SPECIFIED
 41
0.799772
  7
MONOTXT
210
0.0
220
0.0
230
1.0
  0
LINE
  8
3
  6
CONTINUOUS
 62
     2
  5
87D
 10
98.441583
 20
48.943917
 30
0.0
 11
99.317333
 21
49.846667
 31
0.0
  0
SOLID
  8
3
  6
CONTINUOUS
 62
     2
  5
87E
 10
98.441583
 20
48.943917
 30
0.0
 11
98.511667
 21
49.047333
 31
0.0
 12
98.542917
 22
49.017083
 32
0.0
 13
98.542917
 23
49.017083
 33
0.0
  0
LINE
  8
3
  6
CONTINUOUS
 62
     2
  5
87F
 10
105.6435
 20
45.44475
 30
0.0
 11
106.726583
 21
45.44475
 31
0.0
  0
SOLID
  8
3
  6
CONTINUOUS
 62
     2
  5
880
 10
105.6435
 20
45.44475
 30
0.0
 11
105.828167
 21
45.4775
 31
0.0
 12
105.828167
 22
45.412167
 32
0.0
 13
105.828167
 23
45.412167
 33
0.0
  0
CIRCLE
  8
1
  6
CONTINUOUS
 62
     7
  5
881
 10
106.90525
 20
45.44475
 30
0.0
 40
0.178606
210
0.0
220
0.0
230
1.0
  0
TEXT
  8
1
  6
CONTINUOUS
 62
     7
  5
882
 10
106.839333
 20
45.400167
 30
0.0
 40
0.08925
  1
CJ
  7
MONOTXT
210
0.0
220
0.0
230
1.0
  0
LINE
  8
3
  6
CONTINUOUS
 62
     2
  5
883
 10
105.884
 20
46.816083
 30
0.0
 11
106.738167
 21
46.816083
 31
0.0
  0
SOLID
  8
3
  6
CONTINUOUS
 62
     2
  5
884
 10
105.885
 20
46.816083
 30
0.0
 11
106.069667
 21
46.84875
 31
0.0
 12
106.069667
 22
46.7835
 32
0.0
 13
106.069667
 23
46.7835
 33
0.0
  0
CIRCLE
  8
1
  6
CONTINUOUS
 62
     7
  5
885
 10
106.91675
 20
46.816083
 30
0.0
 40
0.178606
210
0.0
220
0.0
230
1.0
  0
TEXT
  8
1
  6
CONTINUOUS
 62
     7
  5
886
 10
106.850833
 20
46.771417
 30
0.0
 40
0.08925
  1
CJ
  7
MONOTXT
210
0.0
220
0.0
230
1.0
  0
CIRCLE
  8
1
  6
CONTINUOUS
 62
   233
  5
887
 10
100.74125
 20
46.179417
 30
0.0
 40
0.814133
210
0.0
220
0.0
230
1.0
  0
TEXT
  8
3
  6
CONTINUOUS
 62
     2
  5
888
 10
100.304333
 20
46.638167
 30
0.0
 40
0.146083
  1
PIPE SIZE,
 41
0.799772
  7
MONOTXT
210
0.0
220
0.0
230
1.0
  0
TEXT
  8
3
  6
CONTINUOUS
 62
     2
  5
889
 10
100.282083
 20
46.387667
 30
0.0
 40
0.146083
  1
TYPE, AND
 41
0.799772
  7
MONOTXT
210
0.0
220
0.0
230
1.0
  0
TEXT
  8
3
  6
CONTINUOUS
 62
     2
  5
88A
 10
100.031667
 20
46.13375
 30
0.0
 40
0.146083
  1
LOCATION(S) AS
 41
0.799772
  7
MONOTXT
210
0.0
220
0.0
230
1.0
  0
TEXT
  8
3
  6
CONTINUOUS
 62
     2
  5
88B
 10
100.15675
 20
45.872833
 30
0.0
 40
0.146083
  1
SPECIFIED ON
 41
0.799772
  7
MONOTXT
210
0.0
220
0.0
230
1.0
  0
TEXT
  8
3
  6
CONTINUOUS
 62
     2
  5
88C
 10
100.257083
 20
45.622417
 30
0.0
 40
0.146083
  1
THE PLANS
 41
0.799772
  7
MONOTXT
210
0.0
220
0.0
230
1.0
  0
LINE
  8
3
  6
CONTINUOUS
 62
     2
  5
88D
 10
100.74125
 20
46.993583
 30
0.0
 11
100.74125
 21
48.245083
 31
0.0
  0
SOLID
  8
3
  6
CONTINUOUS
 62
     2
  5
88E
 10
100.74
 20
46.986917
 30
0.0
 11
100.707333
 21
47.171583
 31
0.0
 12
100.7725
 22
47.171583
 32
0.0
 13
100.7725
 23
47.171583
 33
0.0
  0
LINE
  8
3
  6
CONTINUOUS
 62
     2
  5
88F
 10
100.74125
 20
48.245083
 30
0.0
 11
100.74125
 21
48.06925
 31
0.0
  0
SOLID
  8
3
  6
CONTINUOUS
 62
     2
  5
890
 10
100.74125
 20
48.245
 30
0.0
 11
100.77375
 21
48.0605
 31
0.0
 12
100.708667
 22
48.0605
 32
0.0
 13
100.708667
 23
48.0605
 33
0.0
  0
LINE
  8
3
  6
CONTINUOUS
 62
     2
  5
891
 10
102.797583
 20
48.245083
 30
0.0
 11
102.797583
 21
45.365333
 31
0.0
  0
SOLID
  8
3
  6
CONTINUOUS
 62
     2
  5
892
 10
102.797583
 20
48.245
 30
0.0
 11
102.83025
 21
48.0605
 31
0.0
 12
102.765
 22
48.0605
 32
0.0
 13
102.765
 23
48.0605
 33
0.0
  0
LINE
  8
3
  6
CONTINUOUS
 62
     2
  5
893
 10
102.797583
 20
45.365333
 30
0.0
 11
102.797583
 21
45.68275
 31
0.0
  0
SOLID
  8
3
  6
CONTINUOUS
 62
     2
  5
894
 10
102.797583
 20
45.365333
 30
0.0
 11
102.765
 21
45.55
 31
0.0
 12
102.83025
 22
45.55
 32
0.0
 13
102.83025
 23
45.55
 33
0.0
  0
LINE
  8
1
  6
CONTINUOUS
 62
     7
  5
895
 10
105.970917
 20
48.245083
 30
0.0
 11
106.053167
 21
48.245083
 31
0.0
  0
LINE
  8
1
  6
CONTINUOUS
 62
     7
  5
896
 10
106.1265
 20
47.013167
 30
0.0
 11
105.801167
 21
47.013167
 31
0.0
  0
LINE
  8
1
  6
CONTINUOUS
 62
     7
  5
897
 10
105.927167
 20
48.157583
 30
0.0
 11
105.927167
 21
47.629167
 31
0.0
  0
LINE
  8
1
  6
CONTINUOUS
 62
     7
  5
898
 10
105.927167
 20
47.100667
 30
0.0
 11
105.927167
 21
47.629167
 31
0.0
  0
SOLID
  8
1
  6
CONTINUOUS
 62
     7
  5
899
 10
105.960083
 20
48.048417
 30
0.0
 11
105.894417
 21
48.048417
 31
0.0
 12
105.927167
 22
48.245
 32
0.0
 13
105.927167
 23
48.245
 33
0.0
  0
SOLID
  8
1
  6
CONTINUOUS
 62
     7
  5
89A
 10
105.960083
 20
47.210083
 30
0.0
 11
105.894417
 21
47.210083
 31
0.0
 12
105.927167
 22
47.013167
 32
0.0
 13
105.927167
 23
47.013167
 33
0.0
  0
LINE
  8
8
  6
CONTINUOUS
 62
     7
  5
89B
 10
105.927167
 20
48.245083
 30
0.0
 11
105.92725
 21
48.245083
 31
0.0
  0
LINE
  8
8
  6
CONTINUOUS
 62
     7
  5
89C
 10
106.17025
 20
47.013167
 30
0.0
 11
106.170333
 21
47.013167
 31
0.0
  0
LINE
  8
8
  6
CONTINUOUS
 62
     7
  5
89D
 10
105.927167
 20
47.013167
 30
0.0
 11
105.92725
 21
47.013167
 31
0.0
  0
LINE
  8
1
  6
CONTINUOUS
 62
     7
  5
89E
 10
99.25925
 20
46.067417
 30
0.0
 11
99.568917
 21
46.067417
 31
0.0
  0
LINE
  8
1
  6
CONTINUOUS
 62
     7
  5
89F
 10
99.406667
 20
45.365333
 30
0.0
 11
99.316917
 21
45.365333
 31
0.0
  0
LINE
  8
1
  6
CONTINUOUS
 62
     7
  5
8A0
 10
99.442917
 20
45.979917
 30
0.0
 11
99.442917
 21
45.878833
 31
0.0
  0
LINE
  8
1
  6
CONTINUOUS
 62
     7
  5
8A1
 10
99.442917
 20
45.452833
 30
0.0
 11
99.442917
 21
45.553833
 31
0.0
  0
SOLID
  8
1
  6
CONTINUOUS
 62
     7
  5
8A2
 10
99.464833
 20
45.936167
 30
0.0
 11
99.421083
 21
45.936167
 31
0.0
 12
99.442917
 22
46.067417
 32
0.0
 13
99.442917
 23
46.067417
 33
0.0
  0
SOLID
  8
1
  6
CONTINUOUS
 62
     7
  5
8A3
 10
99.464833
 20
45.496583
 30
0.0
 11
99.421083
 21
45.496583
 31
0.0
 12
99.442917
 22
45.365333
 32
0.0
 13
99.442917
 23
45.365333
 33
0.0
  0
TEXT
  8
1
  6
CONTINUOUS
 62
     7
  5
8A4
 10
99.352917
 20
45.641333
 30
0.0
 40
0.15
  1
6"
 41
0.9
  7
MONOTXT
210
0.0
220
0.0
230
1.0
  0
LINE
  8
8
  6
CONTINUOUS
 62
     7
  5
8A5
 10
99.2155
 20
46.067417
 30
0.0
 11
99.215583
 21
46.067417
 31
0.0
  0
LINE
  8
8
  6
CONTINUOUS
 62
     7
  5
8A6
 10
99.450417
 20
45.365333
 30
0.0
 11
99.4505
 21
45.365333
 31
0.0
  0
LINE
  8
8
  6
CONTINUOUS
 62
     7
  5
8A7
 10
99.442917
 20
45.365333
 30
0.0
 11
99.443
 21
45.365333
 31
0.0
  0
LINE
  8
1
  6
CONTINUOUS
 62
     7
  5
8A8
 10
99.406667
 20
45.365333
 30
0.0
 11
99.316917
 21
45.365333
 31
0.0
  0
LINE
  8
1
  6
CONTINUOUS
 62
     7
  5
8A9
 10
99.25925
 20
44.6575
 30
0.0
 11
99.568917
 21
44.6575
 31
0.0
  0
LINE
  8
1
  6
CONTINUOUS
 62
     7
  5
8AA
 10
99.442917
 20
45.277833
 30
0.0
 11
99.442917
 21
45.173917
 31
0.0
  0
LINE
  8
1
  6
CONTINUOUS
 62
     7
  5
8AB
 10
99.442917
 20
44.745
 30
0.0
 11
99.442917
 21
44.848917
 31
0.0
  0
SOLID
  8
1
  6
CONTINUOUS
 62
     7
  5
8AC
 10
99.464833
 20
45.234083
 30
0.0
 11
99.421083
 21
45.234083
 31
0.0
 12
99.442917
 22
45.365333
 32
0.0
 13
99.442917
 23
45.365333
 33
0.0
  0
SOLID
  8
1
  6
CONTINUOUS
 62
     7
  5
8AD
 10
99.464833
 20
44.78875
 30
0.0
 11
99.421083
 21
44.78875
 31
0.0
 12
99.442917
 22
44.6575
 32
0.0
 13
99.442917
 23
44.6575
 33
0.0
  0
TEXT
  8
1
  6
CONTINUOUS
 62
     7
  5
8AE
 10
99.352917
 20
44.936333
 30
0.0
 40
0.15
  1
6"
 41
0.9
  7
MONOTXT
210
0.0
220
0.0
230
1.0
  0
LINE
  8
8
  6
CONTINUOUS
 62
     7
  5
8AF
 10
99.450417
 20
45.365333
 30
0.0
 11
99.4505
 21
45.365333
 31
0.0
  0
LINE
  8
8
  6
CONTINUOUS
 62
     7
  5
8B0
 10
99.2155
 20
44.6575
 30
0.0
 11
99.215583
 21
44.6575
 31
0.0
  0
LINE
  8
8
  6
CONTINUOUS
 62
     7
  5
8B1
 10
99.442917
 20
44.6575
 30
0.0
 11
99.443
 21
44.6575
 31
0.0
  0
LINE
  8
1
  6
CONTINUOUS
 62
     7
  5
8B2
 10
98.714917
 20
46.396917
 30
0.0
 11
98.714917
 21
46.314667
 31
0.0
  0
LINE
  8
1
  6
CONTINUOUS
 62
     7
  5
8B3
 10
99.687417
 20
46.476917
 30
0.0
 11
99.687417
 21
46.566667
 31
0.0
  0
LINE
  8
1
  6
CONTINUOUS
 62
     7
  5
8B4
 10
98.802417
 20
46.440667
 30
0.0
 11
99.599917
 21
46.440667
 31
0.0
  0
SOLID
  8
1
  6
CONTINUOUS
 62
     7
  5
8B5
 10
98.846167
 20
46.418833
 30
0.0
 11
98.846167
 21
46.462583
 31
0.0
 12
98.714917
 22
46.440667
 32
0.0
 13
98.714917
 23
46.440667
 33
0.0
  0
SOLID
  8
1
  6
CONTINUOUS
 62
     7
  5
8B6
 10
99.556167
 20
46.418833
 30
0.0
 11
99.556167
 21
46.462583
 31
0.0
 12
99.687417
 22
46.440667
 32
0.0
 13
99.687417
 23
46.440667
 33
0.0
  0
TEXT
  8
1
  6
CONTINUOUS
 62
     7
  5
8B7
 10
98.940833
 20
46.515667
 30
0.0
 40
0.15
  1
8" MIN
 41
0.9
  7
MONOTXT
210
0.0
220
0.0
230
1.0
  0
LINE
  8
8
  6
CONTINUOUS
 62
     7
  5
8B8
 10
98.714917
 20
46.440667
 30
0.0
 11
98.715
 21
46.440667
 31
0.0
  0
LINE
  8
8
  6
CONTINUOUS
 62
     7
  5
8B9
 10
99.687417
 20
46.433167
 30
0.0
 11
99.6875
 21
46.433167
 31
0.0
  0
LINE
  8
8
  6
CONTINUOUS
 62
     7
  5
8BA
 10
99.687417
 20
46.440667
 30
0.0
 11
99.6875
 21
46.440667
 31
0.0
  0
LINE
  8
1
  6
CONTINUOUS
 62
     7
  5
8BB
 10
105.1905
 20
46.476917
 30
0.0
 11
105.1905
 21
46.566667
 31
0.0
  0
LINE
  8
1
  6
CONTINUOUS
 62
     7
  5
8BC
 10
106.159833
 20
46.411917
 30
0.0
 11
106.159833
 21
46.314667
 31
0.0
  0
LINE
  8
1
  6
CONTINUOUS
 62
     7
  5
8BD
 10
105.278
 20
46.440667
 30
0.0
 11
106.072333
 21
46.440667
 31
0.0
  0
SOLID
  8
1
  6
CONTINUOUS
 62
     7
  5
8BE
 10
105.38725
 20
46.407917
 30
0.0
 11
105.38725
 21
46.473583
 31
0.0
 12
105.1905
 22
46.440667
 32
0.0
 13
105.1905
 23
46.440667
 33
0.0
  0
SOLID
  8
1
  6
CONTINUOUS
 62
     7
  5
8BF
 10
105.963
 20
46.407917
 30
0.0
 11
105.963
 21
46.473583
 31
0.0
 12
106.159833
 22
46.440667
 32
0.0
 13
106.159833
 23
46.440667
 33
0.0
  0
TEXT
  8
1
  6
CONTINUOUS
 62
     7
  5
8C0
 10
105.41475
 20
46.515667
 30
0.0
 40
0.15
  1
8" MIN
 41
0.9
  7
MONOTXT
210
0.0
220
0.0
230
1.0
  0
LINE
  8
8
  6
CONTINUOUS
 62
     7
  5
8C1
 10
105.1905
 20
46.433167
 30
0.0
 11
105.190583
 21
46.433167
 31
0.0
  0
LINE
  8
8
  6
CONTINUOUS
 62
     7
  5
8C2
 10
106.159833
 20
46.455667
 30
0.0
 11
106.159917
 21
46.455667
 31
0.0
  0
LINE
  8
8
  6
CONTINUOUS
 62
     7
  5
8C3
 10
106.159833
 20
46.440667
 30
0.0
 11
106.159917
 21
46.440667
 31
0.0
  0
LINE
  8
1
  6
CONTINUOUS
 62
     7
  5
8C4
 10
99.4745
 20
48.288833
 30
0.0
 11
99.4745
 21
49.283417
 31
0.0
  0
LINE
  8
1
  6
CONTINUOUS
 62
     7
  5
8C5
 10
99.683083
 20
48.338083
 30
0.0
 11
99.683083
 21
49.283417
 31
0.0
  0
LINE
  8
1
  6
CONTINUOUS
 62
     7
  5
8C6
 10
99.562
 20
49.157417
 30
0.0
 11
99.595583
 21
49.157417
 31
0.0
  0
SOLID
  8
1
  6
CONTINUOUS
 62
     7
  5
8C7
 10
99.562
 20
49.142833
 30
0.0
 11
99.562
 21
49.172
 31
0.0
 12
99.4745
 22
49.157417
 32
0.0
 13
99.4745
 23
49.157417
 33
0.0
  0
SOLID
  8
1
  6
CONTINUOUS
 62
     7
  5
8C8
 10
99.595583
 20
49.142833
 30
0.0
 11
99.595583
 21
49.172
 31
0.0
 12
99.683083
 22
49.157417
 32
0.0
 13
99.683083
 23
49.157417
 33
0.0
  0
TEXT
  8
1
  6
CONTINUOUS
 62
     7
  5
8C9
 10
99.53375
 20
49.232417
 30
0.0
 40
0.15
  1
2
 41
0.9
  7
MONOTXT
210
0.0
220
0.0
230
1.0
  0
LINE
  8
8
  6
CONTINUOUS
 62
     7
  5
8CA
 10
99.4745
 20
48.245083
 30
0.0
 11
99.474583
 21
48.245083
 31
0.0
  0
LINE
  8
8
  6
CONTINUOUS
 62
     7
  5
8CB
 10
99.683083
 20
48.294333
 30
0.0
 11
99.683167
 21
48.294333
 31
0.0
  0
LINE
  8
8
  6
CONTINUOUS
 62
     7
  5
8CC
 10
99.683083
 20
49.157417
 30
0.0
 11
99.683167
 21
49.157417
 31
0.0
  0
LINE
  8
1
  6
CONTINUOUS
 62
     7
  5
8CD
 10
99.683083
 20
48.338083
 30
0.0
 11
99.683083
 21
49.283417
 31
0.0
  0
LINE
  8
1
  6
CONTINUOUS
 62
     7
  5
8CE
 10
102.438917
 20
48.02175
 30
0.0
 11
102.438917
 21
49.283417
 31
0.0
  0
LINE
  8
1
  6
CONTINUOUS
 62
     7
  5
8CF
 10
99.770583
 20
49.157417
 30
0.0
 11
102.351417
 21
49.157417
 31
0.0
  0
SOLID
  8
1
  6
CONTINUOUS
 62
     7
  5
8D0
 10
99.814333
 20
49.135583
 30
0.0
 11
99.814333
 21
49.179333
 31
0.0
 12
99.683083
 22
49.157417
 32
0.0
 13
99.683083
 23
49.157417
 33
0.0
  0
SOLID
  8
1
  6
CONTINUOUS
 62
     7
  5
8D1
 10
102.307667
 20
49.135583
 30
0.0
 11
102.307667
 21
49.179333
 31
0.0
 12
102.438917
 22
49.157417
 32
0.0
 13
102.438917
 23
49.157417
 33
0.0
  0
TEXT
  8
1
  6
CONTINUOUS
 62
     7
  5
8D2
 10
100.90675
 20
49.232417
 30
0.0
 40
0.15
  1
22"
 41
0.9
  7
MONOTXT
210
0.0
220
0.0
230
1.0
  0
LINE
  8
8
  6
CONTINUOUS
 62
     7
  5
8D3
 10
99.683083
 20
48.294333
 30
0.0
 11
99.683167
 21
48.294333
 31
0.0
  0
LINE
  8
8
  6
CONTINUOUS
 62
     7
  5
8D4
 10
102.438917
 20
47.978
 30
0.0
 11
102.439
 21
47.978
 31
0.0
  0
LINE
  8
8
  6
CONTINUOUS
 62
     7
  5
8D5
 10
102.438917
 20
49.157417
 30
0.0
 11
102.439
 21
49.157417
 31
0.0
  0
LINE
  8
1
  6
CONTINUOUS
 62
     7
  5
8D6
 10
102.438917
 20
48.02175
 30
0.0
 11
102.438917
 21
49.283417
 31
0.0
  0
LINE
  8
1
  6
CONTINUOUS
 62
     7
  5
8D7
 10
105.176667
 20
48.338083
 30
0.0
 11
105.176667
 21
49.283417
 31
0.0
  0
LINE
  8
1
  6
CONTINUOUS
 62
     7
  5
8D8
 10
102.526417
 20
49.157417
 30
0.0
 11
105.089167
 21
49.157417
 31
0.0
  0
SOLID
  8
1
  6
CONTINUOUS
 62
     7
  5
8D9
 10
102.570167
 20
49.135583
 30
0.0
 11
102.570167
 21
49.179333
 31
0.0
 12
102.438917
 22
49.157417
 32
0.0
 13
102.438917
 23
49.157417
 33
0.0
  0
SOLID
  8
1
  6
CONTINUOUS
 62
     7
  5
8DA
 10
105.045417
 20
49.135583
 30
0.0
 11
105.045417
 21
49.179333
 31
0.0
 12
105.176667
 22
49.157417
 32
0.0
 13
105.176667
 23
49.157417
 33
0.0
  0
TEXT
  8
1
  6
CONTINUOUS
 62
     7
  5
8DB
 10
103.6535
 20
49.232417
 30
0.0
 40
0.15
  1
22"
 41
0.9
  7
MONOTXT
210
0.0
220
0.0
230
1.0
  0
LINE
  8
8
  6
CONTINUOUS
 62
     7
  5
8DC
 10
102.438917
 20
47.978
 30
0.0
 11
102.439
 21
47.978
 31
0.0
  0
LINE
  8
8
  6
CONTINUOUS
 62
     7
  5
8DD
 10
105.176667
 20
48.294333
 30
0.0
 11
105.17675
 21
48.294333
 31
0.0
  0
LINE
  8
8
  6
CONTINUOUS
 62
     7
  5
8DE
 10
105.176667
 20
49.157417
 30
0.0
 11
105.17675
 21
49.157417
 31
0.0
  0
LINE
  8
1
  6
CONTINUOUS
 62
     7
  5
8DF
 10
105.176667
 20
48.338083
 30
0.0
 11
105.176667
 21
49.283417
 31
0.0
  0
LINE
  8
1
  6
CONTINUOUS
 62
     7
  5
8E0
 10
105.403417
 20
48.288833
 30
0.0
 11
105.403417
 21
49.283417
 31
0.0
  0
LINE
  8
1
  6
CONTINUOUS
 62
     7
  5
8E1
 10
105.264167
 20
49.157417
 30
0.0
 11
105.315917
 21
49.157417
 31
0.0
  0
SOLID
  8
1
  6
CONTINUOUS
 62
     7
  5
8E2
 10
105.264167
 20
49.142833
 30
0.0
 11
105.264167
 21
49.172
 31
0.0
 12
105.176667
 22
49.157417
 32
0.0
 13
105.176667
 23
49.157417
 33
0.0
  0
SOLID
  8
1
  6
CONTINUOUS
 62
     7
  5
8E3
 10
105.315917
 20
49.142833
 30
0.0
 11
105.315917
 21
49.172
 31
0.0
 12
105.403417
 22
49.157417
 32
0.0
 13
105.403417
 23
49.157417
 33
0.0
  0
TEXT
  8
1
  6
CONTINUOUS
 62
     7
  5
8E4
 10
105.245
 20
49.232417
 30
0.0
 40
0.15
  1
2
 41
0.9
  7
MONOTXT
210
0.0
220
0.0
230
1.0
  0
LINE
  8
8
  6
CONTINUOUS
 62
     7
  5
8E5
 10
105.176667
 20
48.294333
 30
0.0
 11
105.17675
 21
48.294333
 31
0.0
  0
LINE
  8
8
  6
CONTINUOUS
 62
     7
  5
8E6
 10
105.403417
 20
48.245083
 30
0.0
 11
105.4035
 21
48.245083
 31
0.0
  0
LINE
  8
8
  6
CONTINUOUS
 62
     7
  5
8E7
 10
105.403417
 20
49.157417
 30
0.0
 11
105.4035
 21
49.157417
 31
0.0
  0
TEXT
  8
3
  6
CONTINUOUS
 62
     2
  5
8E8
 10
102.872667
 20
47.7255
 30
0.0
 40
0.146083
  1
MIN. DEPTH OF REQUIRED
 41
0.799772
  7
MONOTXT
210
0.0
220
0.0
230
1.0
  0
TEXT
  8
3
  6
CONTINUOUS
 62
     2
  5
8E9
 10
102.872667
 20
47.475
 30
0.0
 40
0.146083
  1
OUTSIDE NEAT FORMING
 41
0.799772
  7
MONOTXT
210
0.0
220
0.0
230
1.0
  0
TEXT
  8
3
  6
CONTINUOUS
 62
     2
  5
8EA
 10
99.689833
 20
49.248667
 30
0.0
 40
0.146083
  1
"
 41
0.799772
  7
MONOTXT
210
0.0
220
0.0
230
1.0
  0
TEXT
  8
3
  6
CONTINUOUS
 62
     2
  5
8EB
 10
105.389
 20
49.2545
 30
0.0
 40
0.146083
  1
"
 41
0.799772
  7
MONOTXT
210
0.0
220
0.0
230
1.0
  0
TEXT
  8
3
  6
CONTINUOUS
 62
     2
  5
8EC
 10
102.71675
 20
45.7875
 30
0.0
 40
0.146083
  1
   EXCEED 8 FEET)
 41
0.799772
  7
MONOTXT
210
0.0
220
0.0
230
1.0
  0
TEXT
  8
3
  6
CONTINUOUS
 62
     2
  5
8ED
 10
111.940083
 20
51.732917
 30
0.0
 40
0.219167
  1
SECTION A-A
 41
0.79962
  7
MONOTXT
210
0.0
220
0.0
230
1.0
  0
TEXT
  8
3
  6
CONTINUOUS
 62
     2
  5
8EE
 10
111.57425
 20
56.798
 30
0.0
 40
0.146083
  1
"
 41
0.799772
  7
MONOTXT
210
0.0
220
0.0
230
1.0
  0
TEXT
  8
3
  6
CONTINUOUS
 62
     2
  5
8EF
 10
114.2905
 20
56.802083
 30
0.0
 40
0.146083
  1
"
 41
0.799772
  7
MONOTXT
210
0.0
220
0.0
230
1.0
  0
LINE
  8
3
  6
CONTINUOUS
 62
     2
  5
8F0
 10
100.74125
 20
45.365333
 30
0.0
 11
100.3655
 21
43.912917
 31
0.0
  0
SOLID
  8
3
  6
CONTINUOUS
 62
     2
  5
8F1
 10
100.74125
 20
45.365417
 30
0.0
 11
100.726667
 21
45.178417
 31
0.0
 12
100.663417
 22
45.19475
 32
0.0
 13
100.663417
 23
45.19475
 33
0.0
  0
LINE
  8
3
  6
CONTINUOUS
 62
     2
  5
8F2
 10
100.3655
 20
43.912917
 30
0.0
 11
100.093167
 21
43.912917
 31
0.0
  0
TEXT
  8
3
  6
CONTINUOUS
 62
     2
  5
8F3
 10
97.48
 20
43.809833
 30
0.0
 40
0.146083
  1
FLOWLINE OF OUTLET PIPE
 41
0.799772
  7
MONOTXT
210
0.0
220
0.0
230
1.0
  0
TEXT
  8
3
  6
CONTINUOUS
 62
     2
  5
8F4
 10
97.472667
 20
43.55225
 30
0.0
 40
0.146083
  1
SHALL MATCH BOTTOM ELEVATION
 41
0.799772
  7
MONOTXT
210
0.0
220
0.0
230
1.0
  0
TEXT
  8
3
  6
CONTINUOUS
 62
     2
  5
8F5
 10
97.472667
 20
43.30175
 30
0.0
 40
0.146083
  1
OF INLET
 41
0.799772
  7
MONOTXT
210
0.0
220
0.0
230
1.0
  0
TEXT
  8
3
  6
CONTINUOUS
 62
     2
  5
8F6
 10
101.234667
 20
42.858
 30
0.0
 40
0.3
  1
SECTION B-B
  7
MONOTXT
210
0.0
220
0.0
230
1.0
  0
TEXT
  8
3
  6
CONTINUOUS
 62
     2
  5
8F7
 10
96.766
 20
46.327167
 30
0.0
 40
0.146083
  1
#5
 41
0.799772
  7
MONOTXT
210
0.0
220
0.0
230
1.0
  0
TEXT
  8
3
  6
CONTINUOUS
 62
     2
  5
8F8
 10
96.766
 20
46.076667
 30
0.0
 40
0.146083
  1
REBARS AT 8"C-C
 41
0.799772
  7
MONOTXT
210
0.0
220
0.0
230
1.0
  0
TEXT
  8
3
  6
CONTINUOUS
 62
     2
  5
8F9
 10
96.766
 20
45.82625
 30
0.0
 40
0.146083
  1
AROUND PERIMETER
 41
0.799772
  7
MONOTXT
210
0.0
220
0.0
230
1.0
  0
LINE
  8
3
  6
CONTINUOUS
 62
     2
  5
8FA
 10
99.128917
 20
45.907583
 30
0.0
 11
98.584167
 21
45.907583
 31
0.0
  0
SOLID
  8
3
  6
CONTINUOUS
 62
     2
  5
8FB
 10
99.128917
 20
45.907583
 30
0.0
 11
98.944167
 21
45.875
 31
0.0
 12
98.944167
 22
45.94025
 32
0.0
 13
98.944167
 23
45.94025
 33
0.0
  0
LINE
  8
3
  6
CONTINUOUS
 62
     2
  5
8FC
 10
104.053417
 20
45.365333
 30
0.0
 11
104.053417
 21
44.36925
 31
0.0
  0
SOLID
  8
3
  6
CONTINUOUS
 62
     2
  5
8FD
 10
104.053333
 20
45.365333
 30
0.0
 11
104.086083
 21
45.18075
 31
0.0
 12
104.020833
 22
45.18075
 32
0.0
 13
104.020833
 23
45.18075
 33
0.0
  0
LINE
  8
3
  6
CONTINUOUS
 62
     2
  5
8FE
 10
104.053417
 20
44.36925
 30
0.0
 11
104.053417
 21
44.597417
 31
0.0
  0
SOLID
  8
3
  6
CONTINUOUS
 62
     2
  5
8FF
 10
104.053333
 20
44.36925
 30
0.0
 11
104.020833
 21
44.553917
 31
0.0
 12
104.086083
 22
44.553917
 32
0.0
 13
104.086083
 23
44.553917
 33
0.0
  0
TEXT
  8
3
  6
CONTINUOUS
 62
     2
  5
900
 10
104.237417
 20
44.693083
 30
0.0
 40
0.146083
  1
8" MINIMUM
 41
0.799772
  7
MONOTXT
210
0.0
220
0.0
230
1.0
  0
LINE
  8
1
  6
CONTINUOUS
 62
     7
  5
901
 10
99.813833
 20
47.977917
 30
0.0
 11
99.702167
 21
47.977917
 31
0.0
  0
LINE
  8
1
  6
CONTINUOUS
 62
     7
  5
902
 10
99.799167
 20
48.245
 30
0.0
 11
99.702167
 21
48.245
 31
0.0
  0
LINE
  8
1
  6
CONTINUOUS
 62
     7
  5
903
 10
99.828167
 20
48.3325
 30
0.0
 11
99.828167
 21
48.42
 31
0.0
  0
LINE
  8
1
  6
CONTINUOUS
 62
     7
  5
904
 10
99.828167
 20
47.890417
 30
0.0
 11
99.828167
 21
47.802917
 31
0.0
  0
LINE
  8
1
  6
CONTINUOUS
 62
     7
  5
905
 10
99.828167
 20
48.42
 30
0.0
 11
99.915667
 21
48.42
 31
0.0
  0
SOLID
  8
1
  6
CONTINUOUS
 62
     7
  5
906
 10
99.850167
 20
48.376333
 30
0.0
 11
99.806417
 21
48.376333
 31
0.0
 12
99.82825
 22
48.245
 32
0.0
 13
99.82825
 23
48.245
 33
0.0
  0
SOLID
  8
1
  6
CONTINUOUS
 62
     7
  5
907
 10
99.85725
 20
47.846667
 30
0.0
 11
99.8135
 21
47.846667
 31
0.0
 12
99.835333
 22
47.977917
 32
0.0
 13
99.835333
 23
47.977917
 33
0.0
  0
TEXT
  8
1
  6
CONTINUOUS
 62
     7
  5
908
 10
100.003167
 20
48.345
 30
0.0
 40
0.15
  1
2"
 41
0.9
  7
MONOTXT
210
0.0
220
0.0
230
1.0
  0
LINE
  8
8
  6
CONTINUOUS
 62
     7
  5
909
 10
99.857583
 20
47.977917
 30
0.0
 11
99.857667
 21
47.977917
 31
0.0
  0
LINE
  8
8
  6
CONTINUOUS
 62
     7
  5
90A
 10
99.842917
 20
48.245
 30
0.0
 11
99.843
 21
48.245
 31
0.0
  0
LINE
  8
8
  6
CONTINUOUS
 62
     7
  5
90B
 10
99.828167
 20
48.245
 30
0.0
 11
99.82825
 21
48.245
 31
0.0
  0
LINE
  8
3
  6
CONTINUOUS
 62
     2
  5
90C
 10
106.20975
 20
48.943917
 30
0.0
 11
106.702833
 21
49.962833
 31
0.0
  0
SOLID
  8
3
  6
CONTINUOUS
 62
     2
  5
90D
 10
106.20975
 20
48.943917
 30
0.0
 11
106.260667
 21
49.124333
 31
0.0
 12
106.319417
 22
49.095917
 32
0.0
 13
106.319417
 23
49.095917
 33
0.0
  0
LINE
  8
3
  6
CONTINUOUS
 62
     2
  5
90E
 10
106.702833
 20
49.962833
 30
0.0
 11
107.019333
 21
49.962833
 31
0.0
  0
TEXT
  8
3
  6
CONTINUOUS
 62
     2
  5
90F
 10
107.034083
 20
49.881917
 30
0.0
 40
0.146083
  1
1/2" EXPANSION JOINT
 41
0.799772
  7
MONOTXT
210
0.0
220
0.0
230
1.0
  0
TEXT
  8
3
  6
CONTINUOUS
 62
     2
  5
910
 10
121.868917
 20
60.291583
 30
0.0
 40
0.244917
  1
NOTES
  7
MONOTXT
210
0.0
220
0.0
230
1.0
  0
TEXT
  8
3
  6
CONTINUOUS
 62
     2
  5
911
 10
118.8715
 20
56.15775
 30
0.0
 40
0.133
  1
        FOR DETAILS OF GRATE SUPPORT BAR, SHALLOW FRAME,
  7
MONOTXT
210
0.0
220
0.0
230
1.0
  0
TEXT
  8
3
  6
CONTINUOUS
 62
     2
  5
912
 10
118.851167
 20
54.1485
 30
0.0
 40
0.133
  1
        THE CONTRACTOR MAY, AT HIS OPTION, OMIT USE OF
  7
MONOTXT
210
0.0
220
0.0
230
1.0
  0
TEXT
  8
3
  6
CONTINUOUS
 62
     2
  5
913
 10
118.836833
 20
53.891417
 30
0.0
 40
0.133
  1
THE FRAME BY FORMING A LEDGE IN THE CONCRETE.
  7
MONOTXT
210
0.0
220
0.0
230
1.0
  0
TEXT
  8
3
  6
CONTINUOUS
 62
     2
  5
914
 10
118.851167
 20
53.634167
 30
0.0
 40
0.133
  1
        SPECIAL CARE SHALL BE EXERCISED IN FORMING THE 2"
  7
MONOTXT
210
0.0
220
0.0
230
1.0
  0
TEXT
  8
3
  6
CONTINUOUS
 62
     2
  5
915
 10
118.851167
 20
53.377083
 30
0.0
 40
0.133
  1
WIDE CONCRETE LEDGE TO PROVIDE A SMOOTH, EVEN SURFACE FOR
  7
MONOTXT
210
0.0
220
0.0
230
1.0
  0
TEXT
  8
3
  6
CONTINUOUS
 62
     2
  5
916
 10
118.851167
 20
53.119917
 30
0.0
 40
0.133
  1
SUPPORTING THE GRATES IF THE SHALLOW FRAME IS NOT USED.
  7
MONOTXT
210
0.0
220
0.0
230
1.0
  0
TEXT
  8
3
  6
CONTINUOUS
 62
     2
  5
917
 10
118.851167
 20
52.86275
 30
0.0
 40
0.133
  1
NO PROJECTIONS SHALL EXIST ON THE BEARING SURFACES OF THE
  7
MONOTXT
210
0.0
220
0.0
230
1.0
  0
TEXT
  8
3
  6
CONTINUOUS
 62
     2
  5
918
 10
118.851167
 20
52.605667
 30
0.0
 40
0.133
  1
LEDGE OR THE GRATES, AND THE GRATES SHALL SEAT ON THE
  7
MONOTXT
210
0.0
220
0.0
230
1.0
  0
TEXT
  8
3
  6
CONTINUOUS
 62
     2
  5
919
 10
118.851167
 20
52.3485
 30
0.0
 40
0.133
  1
LEDGE WITHOUT ROCKING.
  7
MONOTXT
210
0.0
220
0.0
230
1.0
  0
TEXT
  8
3
  6
CONTINUOUS
 62
     2
  5
91A
 10
118.851167
 20
52.091333
 30
0.0
 40
0.133
  1
        OPTIONAL CONSTRUCTION JOINTS LABELED "CJ" MAY BE
  7
MONOTXT
210
0.0
220
0.0
230
1.0
  0
TEXT
  8
3
  6
CONTINUOUS
 62
     2
  5
91B
 10
118.8275
 20
50.150167
 30
0.0
 40
0.133
  1
        PC (MINIMUM PIPE COVER) SHALL BE 12" BELOW INLET
  7
MONOTXT
210
0.0
220
0.0
230
1.0
  0
TEXT
  8
3
  6
CONTINUOUS
 62
     2
  5
91C
 10
118.8275
 20
49.893083
 30
0.0
 40
0.133
  1
TOP FOR PIPES PLACED UNDER SIDEWALK OR GRASSED AREA
  7
MONOTXT
210
0.0
220
0.0
230
1.0
  0
TEXT
  8
3
  6
CONTINUOUS
 62
     2
  5
91D
 10
118.8275
 20
49.635917
 30
0.0
 40
0.133
  1
OR 24" BELOW INLET TOP FOR PIPES PLACED UNDER PAVEMENT
  7
MONOTXT
210
0.0
220
0.0
230
1.0
  0
TEXT
  8
3
  6
CONTINUOUS
 62
     2
  5
91E
 10
118.8275
 20
49.37875
 30
0.0
 40
0.133
  1
OR SHOULDER.
  7
MONOTXT
210
0.0
220
0.0
230
1.0
  0
TEXT
  8
3
  6
CONTINUOUS
 62
     2
  5
91F
 10
99.481667
 20
46.517167
 30
0.0
 40
0.15
  1
.
 41
0.9
  7
MONOTXT
210
0.0
220
0.0
230
1.0
  0
TEXT
  8
3
  6
CONTINUOUS
 62
     2
  5
920
 10
114.93875
 20
54.55375
 30
0.0
 40
0.15
  1
.
 41
0.9
  7
MONOTXT
210
0.0
220
0.0
230
1.0
  0
LINE
  8
3
  6
CONTINUOUS
 62
     2
  5
921
 10
105.051417
 20
47.557917
 30
0.0
 11
105.927167
 21
47.557917
 31
0.0
  0
CIRCLE
  8
1
  6
CONTINUOUS
 62
     7
  5
922
 10
105.927167
 20
47.557917
 30
0.0
 40
0.017972
210
0.0
220
0.0
230
1.0
  0
TEXT
  8
3
  6
CONTINUOUS
 62
     2
  5
923
 10
100.826
 20
47.443083
 30
0.0
 40
0.146083
  1
PC
 41
0.799772
  7
MONOTXT
210
0.0
220
0.0
230
1.0
  0
TEXT
  8
3
  6
CONTINUOUS
 62
     2
  5
924
 10
102.992833
 20
46.166917
 30
0.0
 40
0.146083
  1
H
 41
0.799772
  7
MONOTXT
210
0.0
220
0.0
230
1.0
  0
TEXT
  8
3
  6
CONTINUOUS
 62
     2
  5
925
 10
102.850167
 20
45.982667
 30
0.0
 40
0.146083
  1
 (VARIABLE-NOT TO
 41
0.799772
  7
MONOTXT
210
0.0
220
0.0
230
1.0
  0
LINE
  8
3
  6
CONTINUOUS
 62
     2
  5
926
 10
102.9615
 20
46.242833
 30
0.0
 11
102.797583
 21
46.242833
 31
0.0
  0
CIRCLE
  8
1
  6
CONTINUOUS
 62
     7
  5
927
 10
102.797583
 20
46.242833
 30
0.0
 40
0.017972
210
0.0
220
0.0
230
1.0
  0
CIRCLE
  8
1
  6
CONTINUOUS
 62
     7
  5
928
 10
104.019292
 20
56.848167
 30
0.0
 40
0.050792
210
0.0
220
0.0
230
1.0
  0
CIRCLE
  8
1
  6
CONTINUOUS
 62
     7
  5
929
 10
100.695375
 20
56.848167
 30
0.0
 40
0.050792
210
0.0
220
0.0
230
1.0
  0
SOLID
  8
3
  6
CONTINUOUS
 62
     2
  5
92A
 10
100.73875
 20
56.874667
 30
0.0
 11
100.87825
 21
56.999917
 31
0.0
 12
100.91275
 22
56.944333
 32
0.0
 13
100.91275
 23
56.944333
 33
0.0
  0
SOLID
  8
3
  6
CONTINUOUS
 62
     2
  5
92B
 10
104.003
 20
56.89625
 30
0.0
 11
103.91375
 21
57.061167
 31
0.0
 12
103.975917
 22
57.08175
 32
0.0
 13
103.975917
 23
57.08175
 33
0.0
  0
TEXT
  8
3
  6
CONTINUOUS
 62
     2
  5
92C
 10
103.861
 20
58.468583
 30
0.0
 40
0.146083
  1
8" - #5 BARS 
  7
MONOTXT
210
0.0
220
0.0
230
1.0
  0
POINT
  8
1
  6
DASHED
 62
     2
  5
92D
 10
94.619
 20
61.424833
 30
0.0
  0
POINT
  8
1
  6
DASHED
 62
     2
  5
92E
 10
127.844
 20
40.304833
 30
0.0
  0
LINE
  8
1
  6
DASHED
 62
     4
  5
92F
 10
127.714333
 20
61.904833
 30
0.0
 11
92.514333
 21
61.904833
 31
0.0
  0
LINE
  8
1
  6
DASHED
 62
     4
  5
930
 10
127.714333
 20
39.904833
 30
0.0
 11
92.514333
 21
39.904833
 31
0.0
  0
LINE
  8
1
  6
DASHED
 62
     4
  5
931
 10
94.089333
 20
61.904833
 30
0.0
 11
94.089333
 21
39.904833
 31
0.0
  0
LINE
  8
1
  6
CONTINUOUS
 62
   140
  5
932
 10
95.131
 20
61.404833
 30
0.0
 11
95.131
 21
40.404833
 31
0.0
  0
LINE
  8
1
  6
CONTINUOUS
 62
   140
  5
933
 10
127.631
 20
61.404833
 30
0.0
 11
95.131
 21
61.404833
 31
0.0
  0
LINE
  8
1
  6
CONTINUOUS
 62
   140
  5
934
 10
127.631
 20
61.404833
 30
0.0
 11
127.631
 21
40.404833
 31
0.0
  0
LINE
  8
1
  6
CONTINUOUS
 62
   140
  5
935
 10
127.631
 20
40.404833
 30
0.0
 11
95.131
 21
40.404833
 31
0.0
  0
LINE
  8
1
  6
CONTINUOUS
 62
   140
  5
936
 10
94.881
 20
57.504833
 30
0.0
 11
94.481
 21
57.504833
 31
0.0
  0
LINE
  8
1
  6
CONTINUOUS
 62
   140
  5
937
 10
94.881
 20
54.704833
 30
0.0
 11
94.481
 21
54.704833
 31
0.0
  0
LINE
  8
1
  6
CONTINUOUS
 62
   140
  5
938
 10
94.881
 20
47.104833
 30
0.0
 11
94.481
 21
47.104833
 31
0.0
  0
LINE
  8
1
  6
CONTINUOUS
 62
   140
  5
939
 10
94.881
 20
44.304833
 30
0.0
 11
94.481
 21
44.304833
 31
0.0
  0
CIRCLE
  8
1
  6
CONTINUOUS
 62
   140
  5
93A
 10
94.631
 20
57.504833
 30
0.0
 40
0.125
210
0.0
220
0.0
230
1.0
  0
CIRCLE
  8
1
  6
CONTINUOUS
 62
   140
  5
93B
 10
94.631
 20
54.704833
 30
0.0
 40
0.125
210
0.0
220
0.0
230
1.0
  0
CIRCLE
  8
1
  6
CONTINUOUS
 62
   140
  5
93C
 10
94.631
 20
47.104833
 30
0.0
 40
0.125
210
0.0
220
0.0
230
1.0
  0
CIRCLE
  8
1
  6
CONTINUOUS
 62
   140
  5
93D
 10
94.631
 20
44.304833
 30
0.0
 40
0.125
210
0.0
220
0.0
230
1.0
  0
TEXT
  8
1
  6
CONTINUOUS
 62
   140
  5
93F
 10
124.08675
 20
40.313083
 30
0.0
 40
0.06
  1
$$$$$$$$$FILENAME$$$$$$$$
  7
txt
 11
124.08675
 21
40.343083
 31
0.0
210
0.0
220
0.0
230
1.0
 73
     2
  0
TEXT
  8
1
  6
CONTINUOUS
 62
   140
  5
940
 10
125.810833
 20
40.313083
 30
0.0
 40
0.06
  1
$USERNAME$
  7
txt
 11
125.810833
 21
40.343083
 31
0.0
210
0.0
220
0.0
230
1.0
 73
     2
  0
TEXT
  8
1
  6
CONTINUOUS
 62
   140
  5
941
 10
126.584417
 20
40.313083
 30
0.0
 40
0.06
  1
DD-MMM-YYYY HH:MM
  7
txt
 11
126.584417
 21
40.343083
 31
0.0
210
0.0
220
0.0
230
1.0
 73
     2
  0
POINT
  8
1
  6
CONTINUOUS
 62
   140
  5
942
 10
95.131
 20
40.404833
 30
0.0
  0
POINT
  8
1
  6
CONTINUOUS
 62
   140
  5
943
 10
95.131
 20
61.404833
 30
0.0
  0
POINT
  8
1
  6
CONTINUOUS
 62
   140
  5
944
 10
127.631
 20
61.404833
 30
0.0
  0
POINT
  8
1
  6
CONTINUOUS
 62
   140
  5
945
 10
127.631
 20
40.404833
 30
0.0
  0
LINE
  8
1
  6
CONTINUOUS
 62
   140
  5
946
 10
127.631
 20
40.404833
 30
0.0
 11
127.631
 21
42.903833
 31
0.0
  0
LINE
  8
1
  6
CONTINUOUS
 62
   140
  5
947
 10
127.631
 20
43.894667
 30
0.0
 11
121.631
 21
43.894667
 31
0.0
  0
LINE
  8
1
  6
CONTINUOUS
 62
   140
  5
948
 10
127.631
 20
40.404833
 30
0.0
 11
121.631
 21
40.404833
 31
0.0
  0
LINE
  8
1
  6
CONTINUOUS
 62
   140
  5
949
 10
123.168917
 20
42.303833
 30
0.0
 11
121.631
 21
42.303833
 31
0.0
  0
LINE
  8
1
  6
CONTINUOUS
 62
   140
  5
94A
 10
123.168917
 20
42.104833
 30
0.0
 11
121.631
 21
42.104833
 31
0.0
  0
LINE
  8
1
  6
CONTINUOUS
 62
   140
  5
94B
 10
123.168917
 20
41.905833
 30
0.0
 11
121.631
 21
41.905833
 31
0.0
  0
LINE
  8
1
  6
CONTINUOUS
 62
   140
  5
94C
 10
123.168917
 20
41.706833
 30
0.0
 11
121.631
 21
41.706833
 31
0.0
  0
LINE
  8
1
  6
CONTINUOUS
 62
   140
  5
94D
 10
123.168917
 20
41.507833
 30
0.0
 11
121.631
 21
41.507833
 31
0.0
  0
LINE
  8
1
  6
CONTINUOUS
 62
   140
  5
94E
 10
123.168917
 20
41.308833
 30
0.0
 11
121.631
 21
41.308833
 31
0.0
  0
LINE
  8
1
  6
CONTINUOUS
 62
   140
  5
94F
 10
123.168917
 20
41.109833
 30
0.0
 11
121.631
 21
41.109833
 31
0.0
  0
LINE
  8
1
  6
CONTINUOUS
 62
   140
  5
950
 10
123.168917
 20
40.910833
 30
0.0
 11
121.631
 21
40.910833
 31
0.0
  0
LINE
  8
1
  6
CONTINUOUS
 62
   140
  5
951
 10
123.168917
 20
40.711833
 30
0.0
 11
121.631
 21
40.711833
 31
0.0
  0
TEXT
  8
1
  6
CONTINUOUS
 62
   140
  5
952
 10
121.938083
 20
42.351167
 30
0.0
 40
0.079
  1
REVISION DATE
 41
1.003165
  7
MONOTXT
210
0.0
220
0.0
230
1.0
  0
LINE
  8
1
  6
CONTINUOUS
 62
   140
  5
953
 10
121.631
 20
41.814833
 30
0.0
 11
121.631
 21
40.404833
 31
0.0
  0
TEXT
  8
1
  6
CONTINUOUS
 62
   140
  5
955
 10
121.842333
 20
43.63975
 30
0.0
 40
0.1875
  1
WEST VIRGINIA DEPARTMENT OF TRANSPORTATION
  7
ROMANT
 72
     4
 11
124.612667
 21
43.7335
 31
0.0
210
0.0
220
0.0
230
1.0
  0
TEXT
  8
1
  6
CONTINUOUS
 62
   140
  5
956
 10
123.415167
 20
43.430833
 30
0.0
 40
0.1875
  1
DIVISION OF HIGHWAYS
  7
ROMANT
 72
     4
 11
124.634667
 21
43.524583
 31
0.0
210
0.0
220
0.0
230
1.0
  0
TEXT
  8
1
  6
CONTINUOUS
 62
   140
  5
957
 10
123.64525
 20
43.232667
 30
0.0
 40
0.1875
  1
STANDARD DETAIL
  7
ROMANT
 72
     4
 11
124.623333
 21
43.326417
 31
0.0
210
0.0
220
0.0
230
1.0
  0
LINE
  8
1
  6
CONTINUOUS
 62
   140
  5
958
 10
123.168917
 20
42.503833
 30
0.0
 11
121.631
 21
42.503833
 31
0.0
  0
LINE
  8
1
  6
CONTINUOUS
 62
   140
  5
959
 10
123.168917
 20
40.404833
 30
0.0
 11
123.168917
 21
42.503833
 31
0.0
  0
LINE
  8
1
  6
CONTINUOUS
 62
   140
  5
95A
 10
121.631
 20
40.404833
 30
0.0
 11
121.631
 21
43.894667
 31
0.0
  0
TEXT
  8
1
  6
CONTINUOUS
 62
     2
  5
95B
 10
123.539167
 20
40.621917
 30
0.0
 40
0.166667
  1
STANDARD SHEET DR6-A     
  7
txt
 72
     4
 11
125.5785
 21
40.70525
 31
0.0
210
0.0
220
0.0
230
1.0
  0
TEXT
  8
1
  6
CONTINUOUS
 62
     2
  5
95C
 10
122.896583
 20
42.766917
 30
0.0
 40
0.208333
  1
                        
  7
txt
 72
     4
 11
125.361833
 21
42.871083
 31
0.0
210
0.0
220
0.0
230
1.0
  0
TEXT
  8
1
  6
CONTINUOUS
 62
     2
  5
95D
 10
122.90225
 20
42.395333
 30
0.0
 40
0.208333
  1
                        
  7
txt
 72
     4
 11
125.3675
 21
42.4995
 31
0.0
210
0.0
220
0.0
230
1.0
  0
TEXT
  8
1
  6
CONTINUOUS
 62
     2
  5
95E
 10
122.902167
 20
42.02
 30
0.0
 40
0.208333
  1
                        
  7
txt
 72
     4
 11
125.367417
 21
42.124167
 31
0.0
210
0.0
220
0.0
230
1.0
  0
TEXT
  8
1
  6
CONTINUOUS
 62
     2
  5
95F
 10
123.288167
 20
41.669667
 30
0.0
 40
0.208333
  1
      TYPE A INLET      
  7
txt
 72
     4
 11
125.739
 21
41.773833
 31
0.0
210
0.0
220
0.0
230
1.0
  0
TEXT
  8
1
  6
CONTINUOUS
 62
     2
  5
960
 10
122.902167
 20
41.319333
 30
0.0
 40
0.208333
  1
                        
  7
txt
 72
     4
 11
125.367417
 21
41.4235
 31
0.0
210
0.0
220
0.0
230
1.0
  0
TEXT
  8
1
  6
CONTINUOUS
 62
     2
  5
962
 10
121.666083
 20
41.94225
 30
0.0
 40
0.083333
  1
                  
  7
ROMANS
 72
     4
 11
122.402167
 21
41.983917
 31
0.0
210
0.0
220
0.0
230
1.0
  0
TEXT
  8
1
  6
CONTINUOUS
 62
     2
  5
963
 10
121.666083
 20
41.74325
 30
0.0
 40
0.083333
  1
                  
  7
ROMANS
 72
     4
 11
122.402167
 21
41.784917
 31
0.0
210
0.0
220
0.0
230
1.0
  0
TEXT
  8
1
  6
CONTINUOUS
 62
     2
  5
964
 10
121.666083
 20
41.54425
 30
0.0
 40
0.083333
  1
                  
  7
ROMANS
 72
     4
 11
122.402167
 21
41.585917
 31
0.0
210
0.0
220
0.0
230
1.0
  0
TEXT
  8
1
  6
CONTINUOUS
 62
     2
  5
965
 10
121.666083
 20
41.34525
 30
0.0
 40
0.083333
  1
                  
  7
ROMANS
 72
     4
 11
122.402167
 21
41.386917
 31
0.0
210
0.0
220
0.0
230
1.0
  0
TEXT
  8
1
  6
CONTINUOUS
 62
     2
  5
966
 10
121.666083
 20
41.14625
 30
0.0
 40
0.083333
  1
                  
  7
ROMANS
 72
     4
 11
122.402167
 21
41.187917
 31
0.0
210
0.0
220
0.0
230
1.0
  0
TEXT
  8
1
  6
CONTINUOUS
 62
     2
  5
967
 10
121.666083
 20
40.94725
 30
0.0
 40
0.083333
  1
                  
  7
ROMANS
 72
     4
 11
122.402167
 21
40.988917
 31
0.0
210
0.0
220
0.0
230
1.0
  0
TEXT
  8
1
  6
CONTINUOUS
 62
     2
  5
968
 10
121.666083
 20
40.74825
 30
0.0
 40
0.083333
  1
                  
  7
ROMANS
 72
     4
 11
122.402167
 21
40.789917
 31
0.0
210
0.0
220
0.0
230
1.0
  0
TEXT
  8
1
  6
CONTINUOUS
 62
     2
  5
969
 10
121.6645
 20
40.544083
 30
0.0
 40
0.083333
  1
                  
  7
ROMANS
 72
     4
 11
122.400583
 21
40.58575
 31
0.0
210
0.0
220
0.0
230
1.0
  0
POINT
  8
1
  6
DASHED
 62
     2
  5
96A
 10
94.619
 20
61.424833
 30
0.0
  0
POINT
  8
1
  6
DASHED
 62
     2
  5
96B
 10
127.844
 20
40.304833
 30
0.0
  0
TEXT
  8
1
  6
CONTINUOUS
 62
   140
  5
96C
 10
95.179
 20
40.283833
 30
0.0
 40
0.06
  1
P5A1G92-STDBOR a
  7
MONOTXT
210
0.0
220
0.0
230
1.0
  0
TEXT
  8
3
  6
CONTINUOUS
 62
     2
  5
96D
 10
116.2875
 20
57.254667
 30
0.0
 40
0.133
  1
                           REBARS ARE TO BE INSTALLED AT THE THIRD POINTS
  7
MONOTXT
210
0.0
220
0.0
230
1.0
  0
TEXT
  8
3
  6
CONTINUOUS
 62
     2
  5
96E
 10
118.736583
 20
57.00275
 30
0.0
 40
0.133
  1
TO CONNECT CURB TO INLET. REBARS ARE NOT REQUIRED IF CURB
  7
MONOTXT
210
0.0
220
0.0
230
1.0
  0
TEXT
  8
3
  6
CONTINUOUS
 62
     2
  5
96F
 10
118.773333
 20
56.758
 30
0.0
 40
0.133
  1
IS POURED MONOLITHICALLY WITH INLET OR IF TYPE V OR VI
  7
MONOTXT
210
0.0
220
0.0
230
1.0
  0
TEXT
  8
3
  6
CONTINUOUS
 62
     2
  5
970
 10
118.773417
 20
56.513083
 30
0.0
 40
0.133
  1
MEDIAN IS SPECIFIED ON THE PLANS.
  7
MONOTXT
210
0.0
220
0.0
230
1.0
  0
LINE
  8
3
  6
CONTINUOUS
 62
     2
  5
971
 10
100.73875
 20
56.874667
 30
0.0
 11
103.448583
 21
58.53025
 31
0.0
  0
LINE
  8
1
  6
CONTINUOUS
 62
     7
  5
972
 10
108.134
 20
48.245083
 30
0.0
 11
107.62475
 21
48.245083
 31
0.0
  0
LINE
  8
1
  6
CONTINUOUS
 62
     7
  5
973
 10
108.134
 20
47.013167
 30
0.0
 11
107.62475
 21
47.013167
 31
0.0
  0
LINE
  8
1
  6
CONTINUOUS
 62
     7
  5
974
 10
107.84575
 20
48.245083
 30
0.0
 11
107.84575
 21
47.013167
 31
0.0
  0
SOLID
  8
1
  6
CONTINUOUS
 62
     7
  5
975
 10
107.8675
 20
47.144417
 30
0.0
 11
107.82375
 21
47.144417
 31
0.0
 12
107.84575
 22
47.013167
 32
0.0
 13
107.84575
 23
47.013167
 33
0.0
  0
SOLID
  8
1
  6
CONTINUOUS
 62
     7
  5
976
 10
107.824
 20
48.113833
 30
0.0
 11
107.86775
 21
48.113833
 31
0.0
 12
107.84575
 22
48.245083
 32
0.0
 13
107.84575
 23
48.245083
 33
0.0
  0
TEXT
  8
3
  6
CONTINUOUS
 62
     2
  5
977
 10
108.143583
 20
47.842167
 30
0.0
 40
0.146083
  1
ADJACENT
  7
MONOTXT
210
0.0
220
0.0
230
1.0
  0
TEXT
  8
3
  6
CONTINUOUS
 62
     2
  5
978
 10
108.153167
 20
47.582667
 30
0.0
 40
0.146083
  1
PAVEMENT
  7
MONOTXT
210
0.0
220
0.0
230
1.0
  0
TEXT
  8
3
  6
CONTINUOUS
 62
     2
  5
979
 10
108.153167
 20
47.323167
 30
0.0
 40
0.146083
  1
STRUCTURE
  7
MONOTXT
210
0.0
220
0.0
230
1.0
  0
TEXT
  8
1
  6
CONTINUOUS
 62
     2
  5
97A
 10
121.745667
 20
42.587083
 30
0.0
 40
0.083333
  1
 PREPARED 7-1-99 
  7
ROMANS
 72
     4
 11
122.440083
 21
42.62875
 31
0.0
210
0.0
220
0.0
230
1.0
  0
TEXT
  8
3
  6
CONTINUOUS
 62
     2
  5
97B
 10
118.8715
 20
55.900667
 30
0.0
 40
0.133
  1
AND GRATES (TWO REQUIRED), SEE INLET CASTINGS STANDARD 
  7
MONOTXT
210
0.0
220
0.0
230
1.0
  0
TEXT
  8
3
  6
CONTINUOUS
 62
     2
  5
97C
 10
118.887917
 20
55.653917
 30
0.0
 40
0.133
  1
SHEET DR6-X.
  7
MONOTXT
210
0.0
220
0.0
230
1.0
  0
TEXT
  8
3
  6
CONTINUOUS
 62
   241
  5
97D
 10
119.618083
 20
59.217083
 30
0.0
 40
0.133
  1
THE FINAL INSTALLED TOP SURFACE OF INLET AND GRATE 
  7
MONOTXT
210
0.0
220
0.0
230
1.0
  0
TEXT
  8
3
  6
CONTINUOUS
 62
   241
  5
97E
 10
118.818917
 20
48.725583
 30
0.0
 40
0.133
  1
ON THE INLET BACKWALL AS DETAILED HEREIN OR AN APPROVED
  7
MONOTXT
210
0.0
220
0.0
230
1.0
  0
TEXT
  8
3
  6
CONTINUOUS
 62
   241
  5
97F
 10
118.82875
 20
48.48125
 30
0.0
 40
0.133
  1
CURB BOX AS MANUFACTURED WITH THE GRATE AND FRAME.
  7
MONOTXT
210
0.0
220
0.0
230
1.0
  0
TEXT
  8
3
  6
CONTINUOUS
 62
   241
  5
980
 10
118.8385
 20
48.217417
 30
0.0
 40
0.133
  1
DIMENSIONS OF THE CURB BOX SHOULD REASONABLY CONFORM
  7
MONOTXT
210
0.0
220
0.0
230
1.0
  0
TEXT
  8
3
  6
CONTINUOUS
 62
   241
  5
981
 10
119.873833
 20
48.989417
 30
0.0
 40
0.133
  1
CURB, IF SPECIFIED, MAY BE EITHER CONCRETE PLACED
  7
MONOTXT
210
0.0
220
0.0
230
1.0
  0
TEXT
  8
3
  6
CONTINUOUS
 62
   241
  5
982
 10
118.8385
 20
47.943833
 30
0.0
 40
0.133
  1
TO THE STANDARD CURB AS SPECIFIED ON THE PLANS. THE
  7
MONOTXT
210
0.0
220
0.0
230
1.0
  0
TEXT
  8
3
  6
CONTINUOUS
 62
   241
  5
983
 10
119.957167
 20
47.23275
 30
0.0
 40
0.133
  1
THIS INLET SHALL NOT BE PLACED IN A PEDESTRIAN
  7
MONOTXT
210
0.0
220
0.0
230
1.0
  0
TEXT
  8
3
  6
CONTINUOUS
 62
   241
  5
984
 10
118.837583
 20
46.996833
 30
0.0
 40
0.133
  1
CROSS WALK.
  7
MONOTXT
210
0.0
220
0.0
230
1.0
  0
TEXT
  8
3
  6
CONTINUOUS
 62
     2
  5
985
 10
102.602
 20
54.567417
 30
0.0
 40
0.146083
  1
 SHALLOW FRAME
 41
0.799772
  7
MONOTXT
210
0.0
220
0.0
230
1.0
  0
TEXT
  8
3
  6
CONTINUOUS
 62
     2
  5
986
 10
102.736917
 20
54.329
 30
0.0
 40
0.146083
  1
IS USED.)
 41
0.799772
  7
MONOTXT
210
0.0
220
0.0
230
1.0
  0
TEXT
  8
3
  6
CONTINUOUS
 62
     2
  5
987
 10
112.069083
 20
55.36875
 30
0.0
 40
0.146083
  1
(IF REQUIRED)
  7
MONOTXT
210
0.0
220
0.0
230
1.0
  0
TEXT
  8
1
  6
CONTINUOUS
 62
   241
  5
988
 10
120.4735
 20
55.644583
 30
0.0
 40
0.133
  1
USE OF THE SHALLOW FRAME WILL BE LIMITED TO 
  7
MONOTXT
210
0.0
220
0.0
230
1.0
  0
TEXT
  8
1
  6
CONTINUOUS
 62
   241
  5
989
 10
118.915417
 20
55.399167
 30
0.0
 40
0.133
  1
ROADWAYS CONSTRUCTED OF CONCRETE PAVEMENT. IF 
  7
MONOTXT
210
0.0
220
0.0
230
1.0
  0
TEXT
  8
1
  6
CONTINUOUS
 62
   241
  5
98A
 10
118.878667
 20
55.178083
 30
0.0
 40
0.133
  1
ADJACENT ROADWAY IS BUILT OF HOT MIX ASPHALT PAVEMENT,
  7
MONOTXT
210
0.0
220
0.0
230
1.0
  0
TEXT
  8
1
  6
CONTINUOUS
 62
   241
  5
98B
 10
118.866417
 20
54.944917
 30
0.0
 40
0.133
  1
THE FRAME AS REQUIRED FOR A TYPE F INLET (STANDARD
  7
MONOTXT
210
0.0
220
0.0
230
1.0
  0
TEXT
  8
1
  6
CONTINUOUS
 62
   241
  5
98C
 10
118.890917
 20
54.699417
 30
0.0
 40
0.133
  1
SHEET DR6F) WILL BE REQUIRED.
  7
MONOTXT
210
0.0
220
0.0
230
1.0
  0
TEXT
  8
1
  6
CONTINUOUS
 62
   241
  5
98D
 10
118.862
 20
50.61775
 30
0.0
 40
0.133
  1
MANUFACTURER'S RECOMMENDATIONS.
  7
MONOTXT
210
0.0
220
0.0
230
1.0
  0
TEXT
  8
3
  6
CONTINUOUS
 62
   241
  5
98E
 10
118.699917
 20
58.454917
 30
0.0
 40
0.133
  1
ON THE PLANS, IS FOR INFORMATION ONLY. 
  7
MONOTXT
210
0.0
220
0.0
230
1.0
  0
TEXT
  8
3
  6
CONTINUOUS
 62
   241
  5
98F
 10
119.636417
 20
59.89875
 30
0.0
 40
0.133
  1
THIS INLET SHOULD ONLY BE SPECIFIED WHEN ABUTTING 
  7
MONOTXT
210
0.0
220
0.0
230
1.0
  0
TEXT
  8
3
  6
CONTINUOUS
 62
   241
  5
990
 10
118.795583
 20
59.614333
 30
0.0
 40
0.133
  1
CONCRETE PAVEMENT
  7
MONOTXT
210
0.0
220
0.0
230
1.0
  0
TEXT
  8
1
  6
CONTINUOUS
 62
   241
  5
991
 10
118.84975
 20
50.84475
 30
0.0
 40
0.133
  1
SECTIONS. THICKER DEPTHS WILL BE ALLOWED IF AS PER THE
  7
MONOTXT
210
0.0
220
0.0
230
1.0
  0
TEXT
  8
3
  6
CONTINUOUS
 62
     2
  5
992
 10
102.872667
 20
47.224583
 30
0.0
 40
0.146083
  1
(ANY SIDE) = 10"
 41
0.799772
  7
MONOTXT
210
0.0
220
0.0
230
1.0
  0
TEXT
  8
1
  6
CONTINUOUS
 62
     2
  5
993
 10
119.668333
 20
58.034167
 30
0.0
 40
0.133
  1
CONSTRUCTION MAY BE CAST-IN-PLACE, PRECAST IN ONE OR 
  7
MONOTXT
210
0.0
220
0.0
230
1.0
  0
TEXT
  8
3
  6
CONTINUOUS
 62
     2
  5
994
 10
118.851167
 20
51.577083
 30
0.0
 40
0.133
  1
SHOWN HEREIN OR AS APPROVED BY THE ENGINEER. 
  7
MONOTXT
210
0.0
220
0.0
230
1.0
  0
TEXT
  8
3
  6
CONTINUOUS
 62
     2
  5
995
 10
118.851167
 20
51.834167
 30
0.0
 40
0.133
  1
ROUGHENED CONCRETE, KEYED OR DOWELED AS PER THE TYPICAL DETAILS 
  7
MONOTXT
210
0.0
220
0.0
230
1.0
  0
TEXT
  8
3
  6
CONTINUOUS
 62
   241
  5
996
 10
124.44925
 20
51.580083
 30
0.0
 40
0.133
  1
 NON SHRINK GROUT 
  7
MONOTXT
210
0.0
220
0.0
230
1.0
  0
TEXT
  8
1
  6
CONTINUOUS
 62
   241
  5
997
 10
118.825167
 20
51.33575
 30
0.0
 40
0.133
  1
MEETING THE REQUIREMENTS OF SUBSECTION 715.5 OF THE SPECIFICATIONS 
  7
MONOTXT
210
0.0
220
0.0
230
1.0
  0
TEXT
  8
1
  6
CONTINUOUS
 62
   241
  5
998
 10
118.855917
 20
51.1025
 30
0.0
 40
0.133
  1
MAY BE USED TO A DEPTH OF  1/2 " FOR LEVELING BETWEEN PRECAST
  7
MONOTXT
210
0.0
220
0.0
230
1.0
  0
TEXT
  8
1
  6
CONTINUOUS
 62
     2
  5
999
 10
118.66975
 20
57.779167
 30
0.0
 40
0.133
  1
MULTIPLE SECTIONS, OR ANY COMBINATION OF CAST-IN-PLACE AND PRECAST.
  7
MONOTXT
210
0.0
220
0.0
230
1.0
  0
TEXT
  8
3
  6
CONTINUOUS
 62
     2
  5
99A
 10
109.93275
 20
45.368
 30
0.0
 40
0.15
  1
3" MIN.
  7
MONOTXT
210
0.0
220
0.0
230
1.0
  0
TEXT
  8
3
  6
CONTINUOUS
 62
     2
  5
99B
 10
111.49025
 20
44.621833
 30
0.0
 40
0.15
  1
2" MIN.
  7
MONOTXT
210
0.0
220
0.0
230
1.0
  0
TEXT
  8
3
  6
CONTINUOUS
 62
     2
  5
99C
 10
113.419583
 20
43.680667
 30
0.0
 40
0.15
  1
2" MIN.
  7
MONOTXT
210
0.0
220
0.0
230
1.0
  0
TEXT
  8
3
  6
CONTINUOUS
 62
     2
  5
99D
 10
114.5235
 20
45.343167
 30
0.0
 40
0.15
  1
3" MIN.
  7
MONOTXT
210
0.0
220
0.0
230
1.0
  0
TEXT
  8
3
  6
CONTINUOUS
 62
     2
  5
99E
 10
115.623583
 20
43.645583
 30
0.0
 40
0.15
  1
2" MIN.
  7
MONOTXT
210
0.0
220
0.0
230
1.0
  0
TEXT
  8
3
  6
CONTINUOUS
 62
   241
  5
99F
 10
118.818917
 20
47.68
 30
0.0
 40
0.133
  1
CURB WILL BE PAID FOR PER SECTION 610, IN EITHER CASE
  7
MONOTXT
210
0.0
220
0.0
230
1.0
  0
TEXT
  8
1
  6
CONTINUOUS
 62
     2
  5
9A0
 10
119.9535
 20
46.548083
 30
0.0
 40
0.133
  1
THE MINIMUM DISTANCE FROM THE TOP OF ANY PIPE
  7
MONOTXT
210
0.0
220
0.0
230
1.0
  0
TEXT
  8
1
  6
CONTINUOUS
 62
     2
  5
9A1
 10
118.878417
 20
46.305167
 30
0.0
 40
0.133
  1
OPENING TO ANY CONSTRUCTION JOINT ABOVE THE OPENING 
  7
MONOTXT
210
0.0
220
0.0
230
1.0
  0
TEXT
  8
1
  6
CONTINUOUS
 62
     2
  5
9A2
 10
118.866833
 20
46.050667
 30
0.0
 40
0.133
  1
SHALL BE FOUR (4) INCHES.
  7
MONOTXT
210
0.0
220
0.0
230
1.0
  0
TEXT
  8
1
  6
CONTINUOUS
 62
     2
  5
9A3
 10
119.965083
 20
45.587833
 30
0.0
 40
0.133
  1
THE NUMBER AND LOCATION OF PIPE OPENINGS SHALL
  7
MONOTXT
210
0.0
220
0.0
230
1.0
  0
TEXT
  8
1
  6
CONTINUOUS
 62
     2
  5
9A4
 10
118.85525
 20
45.344917
 30
0.0
 40
0.133
  1
BE AS SHOWN IN THE PLANS. THE CONTRACTOR AT NO ADDITIONAL
  7
MONOTXT
210
0.0
220
0.0
230
1.0
  0
TEXT
  8
1
  6
CONTINUOUS
 62
     2
  5
9A5
 10
118.705
 20
45.090417
 30
0.0
 40
0.133
  1
 COST, SHALL BE RESPONSIBLE FOR ANY TEMPORARY BRACING 
  7
MONOTXT
210
0.0
220
0.0
230
1.0
  0
TEXT
  8
1
  6
CONTINUOUS
 62
     2
  5
9A6
 10
118.889917
 20
44.835833
 30
0.0
 40
0.133
  1
REQUIRED TO TRANSPORT PRECAST INLET SECTIONS DUE TO
  7
MONOTXT
210
0.0
220
0.0
230
1.0
  0
TEXT
  8
1
  6
CONTINUOUS
 62
     2
  5
9A7
 10
118.889917
 20
44.592917
 30
0.0
 40
0.133
  1
MULTIPLE OPENINGS.
  7
MONOTXT
210
0.0
220
0.0
230
1.0
  0
TEXT
  8
3
  6
CONTINUOUS
 62
   241
  5
9A8
 10
118.70975
 20
58.953167
 30
0.0
 40
0.133
  1
SHALL BE FLUSH WITH ADJACENT FINISHED SURFACES SUCH AS PAVEMENT,
  7
MONOTXT
210
0.0
220
0.0
230
1.0
  0
TEXT
  8
3
  6
CONTINUOUS
 62
   241
  5
9A9
 10
118.70975
 20
58.699167
 30
0.0
 40
0.133
  1
GUTTERS, CURBS, AND SIDEWALKS. TOP OF GRATE ELEVATION, IF SHOWN 
  7
MONOTXT
210
0.0
220
0.0
230
1.0
  0
ENDSEC
  0
EOF
