  0
SECTION
  2
HEADER
  9
$ACADVER
  1
AC1009
  9
$INSBASE
 10
0.0
 20
0.0
 30
0.0
  9
$EXTMIN
 10
0.0
 20
-0.313167
 30
0.0
  9
$EXTMAX
 10
127.292167
 20
79.569583
 30
0.0
  9
$LIMMIN
 10
0.0
 20
0.0
  9
$LIMMAX
 10
12.0
 20
9.0
  9
$ORTHOMODE
 70
     0
  9
$REGENMODE
 70
     1
  9
$FILLMODE
 70
     1
  9
$QTEXTMODE
 70
     0
  9
$MIRRTEXT
 70
     1
  9
$DRAGMODE
 70
     2
  9
$LTSCALE
 40
1.0
  9
$OSMODE
 70
     0
  9
$ATTMODE
 70
     1
  9
$TEXTSIZE
 40
0.2
  9
$TRACEWID
 40
0.05
  9
$TEXTSTYLE
  7
STANDARD
  9
$CLAYER
  8
0
  9
$CELTYPE
  6
CONTINUOUS
  9
$CECOLOR
 62
   256
  9
$DIMSCALE
 40
1.0
  9
$DIMASZ
 40
0.18
  9
$DIMEXO
 40
0.0625
  9
$DIMDLI
 40
0.38
  9
$DIMRND
 40
0.0
  9
$DIMDLE
 40
0.0
  9
$DIMEXE
 40
0.18
  9
$DIMTP
 40
0.0
  9
$DIMTM
 40
0.0
  9
$DIMTXT
 40
0.18
  9
$DIMCEN
 40
0.09
  9
$DIMTSZ
 40
0.0
  9
$DIMTOL
 70
     0
  9
$DIMLIM
 70
     0
  9
$DIMTIH
 70
     1
  9
$DIMTOH
 70
     1
  9
$DIMSE1
 70
     0
  9
$DIMSE2
 70
     0
  9
$DIMTAD
 70
     0
  9
$DIMZIN
 70
     0
  9
$DIMBLK
  1

  9
$DIMASO
 70
     1
  9
$DIMSHO
 70
     1
  9
$DIMPOST
  1

  9
$DIMAPOST
  1

  9
$DIMALT
 70
     0
  9
$DIMALTD
 70
     2
  9
$DIMALTF
 40
25.4
  9
$DIMLFAC
 40
1.0
  9
$DIMTOFL
 70
     0
  9
$DIMTVP
 40
0.0
  9
$DIMTIX
 70
     0
  9
$DIMSOXD
 70
     0
  9
$DIMSAH
 70
     0
  9
$DIMBLK1
  1

  9
$DIMBLK2
  1

  9
$DIMSTYLE
  2
STANDARD
  9
$DIMCLRD
 70
     0
  9
$DIMCLRE
 70
     0
  9
$DIMCLRT
 70
     0
  9
$DIMTFAC
 40
1.0
  9
$DIMGAP
 40
0.09
  9
$LUNITS
 70
     2
  9
$LUPREC
 70
     4
  9
$AXISMODE
 70
     0
  9
$AXISUNIT
 10
0.0
 20
0.0
  9
$SKETCHINC
 40
0.1
  9
$FILLETRAD
 40
0.0
  9
$AUNITS
 70
     0
  9
$AUPREC
 70
     0
  9
$MENU
  1
acad
  9
$ELEVATION
 40
0.0
  9
$PELEVATION
 40
0.0
  9
$THICKNESS
 40
0.0
  9
$LIMCHECK
 70
     0
  9
$BLIPMODE
 70
     1
  9
$CHAMFERA
 40
0.0
  9
$CHAMFERB
 40
0.0
  9
$SKPOLY
 70
     0
  9
$TDCREATE
 40
2451569.611886574
  9
$TDUPDATE
 40
2451569.611886574
  9
$TDINDWG
 40
0.0000000000
  9
$TDUSRTIMER
 40
0.0000000000
  9
$USRTIMER
 70
     1
  9
$ANGBASE
 50
0.0
  9
$ANGDIR
 70
     0
  9
$PDMODE
 70
     0
  9
$PDSIZE
 40
0.0
  9
$PLINEWID
 40
0.0
  9
$COORDS
 70
     0
  9
$SPLFRAME
 70
     0
  9
$SPLINETYPE
 70
     6
  9
$SPLINESEGS
 70
    10
  9
$ATTDIA
 70
     0
  9
$ATTREQ
 70
     1
  9
$HANDLING
 70
     1
  9
$HANDSEED
  5
B82
  9
$SURFTAB1
 70
     6
  9
$SURFTAB2
 70
     6
  9
$SURFTYPE
 70
     6
  9
$SURFU
 70
     6
  9
$SURFV
 70
     6
  9
$UCSNAME
  2

  9
$UCSORG
 10
0.0
 20
0.0
 30
0.0
  9
$UCSXDIR
 10
1.0
 20
0.0
 30
0.0
  9
$UCSYDIR
 10
0.0
 20
1.0
 30
0.0
  9
$PUCSNAME
  2

  9
$PUCSORG
 10
0.0
 20
0.0
 30
0.0
  9
$PUCSXDIR
 10
1.0
 20
0.0
 30
0.0
  9
$PUCSYDIR
 10
0.0
 20
1.0
 30
0.0
  9
$USERI1
 70
     0
  9
$USERI2
 70
     0
  9
$USERI3
 70
     0
  9
$USERI4
 70
     0
  9
$USERI5
 70
     0
  9
$USERR1
 40
0.0
  9
$USERR2
 40
0.0
  9
$USERR3
 40
0.0
  9
$USERR4
 40
0.0
  9
$USERR5
 40
0.0
  9
$WORLDVIEW
 70
     1
  9
$SHADEDGE
 70
     3
  9
$SHADEDIF
 70
    70
  9
$TILEMODE
 70
     1
  9
$MAXACTVP
 70
    16
  9
$PINSBASE
 10
0.0
 20
0.0
 30
0.0
  9
$PLIMCHECK
 70
     0
  9
$PEXTMIN
 10
-1.000000E+20
 20
-1.000000E+20
 30
-1.000000E+20
  9
$PEXTMAX
 10
-1.000000E+20
 20
-1.000000E+20
 30
-1.000000E+20
  9
$PLIMMIN
 10
0.0
 20
0.0
  9
$PLIMMAX
 10
12.0
 20
9.0
  9
$UNITMODE
 70
     0
  9
$VISRETAIN
 70
     0
  9
$PLINEGEN
 70
     1
  9
$PSLTSCALE
 70
     0
  9
$TREEDEPTH
 70
  3020
  9
$DWGCODEPAGE
  3
ansi_1252
  0
ENDSEC
  0
SECTION
  2
TABLES
  0
TABLE
  2
VPORT
 70
     1
  0
VPORT
  2
*ACTIVE
 70
     0
 10
0.0
 20
0.0
 11
1.0
 21
1.0
 12
0.0
 22
0.0
 13
0.0
 23
0.0
 14
0.0
 24
0.0
 15
0.0
 25
0.0
 16
0.0
 26
0.0
 36
1.0
 17
107.642638
 27
68.569583
 37
0.0
 40
22.55
 41
1.51087
 42
50.0
 43
0.0
 44
0.0
 50
0.0
 51
0.0
 71
     0
 72
   100
 73
     1
 74
     0
 75
     0
 76
     0
 77
     0
 78
     0
  0
ENDTAB
  0
TABLE
  2
LTYPE
 70
     7
  0
LTYPE
  2
CONTINUOUS
 70
     0
  3
Solid line
 72
    65
 73
     0
 40
0.0
  0
LTYPE
  2
DOT
 70
    64
  3
. . . . . . . . . . . . . . . . . . . . . . . . . . . . . . . . .
 72
    65
 73
     2
 40
0.25
 49
0.0
 49
-0.25
  0
LTYPE
  2
HIDDEN
 70
    64
  3
__ __ __ __ __ __ __ __ __ __ __ __ __ __ __ __ __ __ __ __ __ 
 72
    65
 73
     2
 40
0.375
 49
0.25
 49
-0.125
  0
LTYPE
  2
DASHED
 70
    64
  3
__ __ __ __ __ __ __ __ __ __ __ __ __ __ __ __ __ __ __ __ __
 72
    65
 73
     2
 40
0.75
 49
0.5
 49
-0.25
  0
LTYPE
  2
DASHDOT
 70
    64
  3
__ . __ . __ . __ . __ . __ . __ . __ . __ . __ . __ . __ . _
 72
    65
 73
     4
 40
1.0
 49
0.5
 49
-0.25
 49
0.0
 49
-0.25
  0
LTYPE
  2
DIVIDE
 70
    64
  3
____ . . ____ . . ____ . . ____ . . ____ . . ____ . . ____ . .
 72
    65
 73
     6
 40
1.25
 49
0.5
 49
-0.25
 49
0.0
 49
-0.25
 49
0.0
 49
-0.25
  0
LTYPE
  2
CENTER
 70
    64
  3
____ _ ____ _ ____ _ ____ _ ____ _ ____ _ ____ _ ____ _ ____ _
 72
    65
 73
     4
 40
2.0
 49
1.25
 49
-0.25
 49
0.25
 49
-0.25
  0
ENDTAB
  0
TABLE
  2
LAYER
 70
     9
  0
LAYER
  2
0
 70
     0
 62
     7
  6
CONTINUOUS
  0
LAYER
  2
CONSTRUCTION_CLASS
 70
     0
 62
     7
  6
CONTINUOUS
  0
LAYER
  2
PATTERN_CLASS
 70
     0
 62
     7
  6
CONTINUOUS
  0
LAYER
  2
1
 70
    64
 62
     7
  6
CONTINUOUS
  0
LAYER
  2
2
 70
    64
 62
     7
  6
CONTINUOUS
  0
LAYER
  2
4
 70
    64
 62
     7
  6
CONTINUOUS
  0
LAYER
  2
3
 70
    64
 62
     7
  6
CONTINUOUS
  0
LAYER
  2
7
 70
    64
 62
     7
  6
CONTINUOUS
  0
LAYER
  2
6
 70
    64
 62
     7
  6
CONTINUOUS
  0
ENDTAB
  0
TABLE
  2
STYLE
 70
     5
  0
STYLE
  2
STANDARD
 70
     0
 40
0.0
 41
1.0
 50
0.0
 71
     0
 42
0.0
  3
txt
  4

  0
STYLE
  2
MONOTXT
 70
     0
 40
0.2
 41
1.0
 50
0.0
 71
     0
 42
0.2
  3
MONOTXT
  4

  0
STYLE
  2
txt
 70
     0
 40
0.2
 41
1.0
 50
0.0
 71
     0
 42
0.2
  3
TXT
  4

  0
STYLE
  2
ROMANT
 70
     0
 40
0.2
 41
1.0
 50
0.0
 71
     0
 42
0.2
  3
ROMANT
  4

  0
STYLE
  2
ROMANS
 70
     0
 40
0.2
 41
1.0
 50
0.0
 71
     0
 42
0.2
  3
ROMANS
  4

  0
ENDTAB
  0
TABLE
  2
VIEW
 70
     0
  0
ENDTAB
  0
TABLE
  2
UCS
 70
     0
  0
ENDTAB
  0
TABLE
  2
APPID
 70
     1
  0
APPID
  2
ACAD
 70
     0
  0
ENDTAB
  0
TABLE
  2
DIMSTYLE
 70
     1
  0
DIMSTYLE
  2
STANDARD
 70
     0
  3

  4

  5

  6

  7

 40
1.0
 41
0.18
 42
0.0625
 43
0.38
 44
0.18
 45
0.0
 46
0.0
 47
0.0
 48
0.0
140
0.18
141
0.09
142
0.0
143
25.4
144
1.0
145
0.0
146
1.0
147
0.09
 71
     0
 72
     0
 73
     1
 74
     1
 75
     0
 76
     0
 77
     0
 78
     0
170
     0
171
     2
172
     0
173
     0
174
     0
175
     0
176
     0
177
     0
178
     0
  0
ENDTAB
  0
ENDSEC
  0
SECTION
  2
BLOCKS
  0
BLOCK
  8
1
  6
CONTINUOUS
 62
     7
  5
251
  2
$X32
 70
     0
 10
0.0
 20
0.0
 30
0.0
  3
$N32
  0
LINE
  8
1
  6
CONTINUOUS
 62
     7
  5
252
 10
15.644667
 20
3.71225
 30
0.0
 11
15.674083
 21
3.74175
 31
0.0
  0
LINE
  8
1
  6
CONTINUOUS
 62
     7
  5
253
 10
15.221667
 20
3.554417
 30
0.0
 11
15.246917
 21
3.579667
 31
0.0
  0
LINE
  8
1
  6
CONTINUOUS
 62
     7
  5
254
 10
15.909833
 20
3.71225
 30
0.0
 11
15.968917
 21
3.771333
 31
0.0
  0
LINE
  8
1
  6
CONTINUOUS
 62
     7
  5
255
 10
16.175
 20
3.71225
 30
0.0
 11
16.263667
 21
3.801
 31
0.0
  0
LINE
  8
1
  6
CONTINUOUS
 62
     7
  5
256
 10
16.440083
 20
3.71225
 30
0.0
 11
16.456667
 21
3.728833
 31
0.0
  0
LINE
  8
1
  6
CONTINUOUS
 62
     7
  5
257
 10
15.695167
 20
3.597
 30
0.0
 11
15.727583
 21
3.629417
 31
0.0
  0
LINE
  8
1
  6
CONTINUOUS
 62
     7
  5
258
 10
15.403833
 20
3.570833
 30
0.0
 11
15.462417
 21
3.629417
 31
0.0
  0
LINE
  8
1
  6
CONTINUOUS
 62
     7
  5
259
 10
15.9865
 20
3.62325
 30
0.0
 11
15.992833
 21
3.629417
 31
0.0
  0
LINE
  8
1
  6
CONTINUOUS
 62
     7
  5
25A
 10
16.125333
 20
3.762
 30
0.0
 11
16.153167
 21
3.789833
 31
0.0
  0
LINE
  8
1
  6
CONTINUOUS
 62
     7
  5
25B
 10
16.3905
 20
3.762
 30
0.0
 11
16.447833
 21
3.8195
 31
0.0
  0
LINE
  8
1
  6
CONTINUOUS
 62
     7
  5
25C
 10
15.585917
 20
3.587167
 30
0.0
 11
15.677833
 21
3.679083
 31
0.0
  0
LINE
  8
1
  6
CONTINUOUS
 62
     7
  5
25D
 10
15.2945
 20
3.561
 30
0.0
 11
15.412667
 21
3.679083
 31
0.0
  0
LINE
  8
1
  6
CONTINUOUS
 62
     7
  5
25E
 10
15.877333
 20
3.6135
 30
0.0
 11
15.943
 21
3.679083
 31
0.0
  0
LINE
  8
1
  6
CONTINUOUS
 62
     7
  5
25F
 10
16.168667
 20
3.639667
 30
0.0
 11
16.208083
 21
3.679083
 31
0.0
  0
LINE
  8
1
  6
CONTINUOUS
 62
     7
  5
260
 10
16.460083
 20
3.665833
 30
0.0
 11
16.46225
 21
3.668
 31
0.0
  0
LINE
  8
1
  6
CONTINUOUS
 62
     7
  5
261
 10
15.785083
 20
3.605083
 30
0.0
 11
15.677833
 21
3.71225
 31
0.0
  0
LINE
  8
1
  6
CONTINUOUS
 62
     7
  5
262
 10
15.54175
 20
3.58325
 30
0.0
 11
15.412667
 21
3.71225
 31
0.0
  0
LINE
  8
1
  6
CONTINUOUS
 62
     7
  5
263
 10
15.280083
 20
3.579667
 30
0.0
 11
15.216833
 21
3.642917
 31
0.0
  0
LINE
  8
1
  6
CONTINUOUS
 62
     7
  5
264
 10
16.02825
 20
3.627
 30
0.0
 11
15.943
 21
3.71225
 31
0.0
  0
LINE
  8
1
  6
CONTINUOUS
 62
     7
  5
265
 10
16.271667
 20
3.649
 30
0.0
 11
16.208083
 21
3.71225
 31
0.0
  0
LINE
  8
1
  6
CONTINUOUS
 62
     7
  5
266
 10
15.860083
 20
3.629417
 30
0.0
 11
15.741083
 21
3.7485
 31
0.0
  0
LINE
  8
1
  6
CONTINUOUS
 62
     7
  5
267
 10
15.595
 20
3.629417
 30
0.0
 11
15.500083
 21
3.724333
 31
0.0
  0
LINE
  8
1
  6
CONTINUOUS
 62
     7
  5
268
 10
15.329833
 20
3.629417
 30
0.0
 11
15.259167
 21
3.70025
 31
0.0
  0
LINE
  8
1
  6
CONTINUOUS
 62
     7
  5
269
 10
16.119417
 20
3.635167
 30
0.0
 11
15.992833
 21
3.762
 31
0.0
  0
LINE
  8
1
  6
CONTINUOUS
 62
     7
  5
26A
 10
16.362833
 20
3.657083
 30
0.0
 11
16.257917
 21
3.762
 31
0.0
  0
LINE
  8
1
  6
CONTINUOUS
 62
     7
  5
26B
 10
15.644667
 20
3.679083
 30
0.0
 11
15.590417
 21
3.7335
 31
0.0
  0
LINE
  8
1
  6
CONTINUOUS
 62
     7
  5
26C
 10
15.3795
 20
3.679083
 30
0.0
 11
15.3495
 21
3.709083
 31
0.0
  0
LINE
  8
1
  6
CONTINUOUS
 62
     7
  5
26D
 10
15.909833
 20
3.679083
 30
0.0
 11
15.8315
 21
3.757583
 31
0.0
  0
LINE
  8
1
  6
CONTINUOUS
 62
     7
  5
26E
 10
16.175
 20
3.679083
 30
0.0
 11
16.0725
 21
3.78175
 31
0.0
  0
LINE
  8
1
  6
CONTINUOUS
 62
     7
  5
26F
 10
16.440083
 20
3.679083
 30
0.0
 11
16.313417
 21
3.806
 31
0.0
  0
ENDBLK
  8
1
  6
CONTINUOUS
 62
     7
  5
270
  0
BLOCK
  8
1
  6
CONTINUOUS
 62
     7
  5
335
  2
$X4
 70
     0
 10
0.0
 20
0.0
 30
0.0
  3
$N4
  0
LINE
  8
1
  6
CONTINUOUS
 62
     7
  5
336
 10
5.235083
 20
14.993167
 30
0.0
 11
5.35725
 21
15.115417
 31
0.0
  0
LINE
  8
1
  6
CONTINUOUS
 62
     7
  5
337
 10
5.080083
 20
14.979583
 30
0.0
 11
5.202333
 21
15.101833
 31
0.0
  0
LINE
  8
1
  6
CONTINUOUS
 62
     7
  5
338
 10
4.925083
 20
14.966
 30
0.0
 11
5.04725
 21
15.08825
 31
0.0
  0
LINE
  8
1
  6
CONTINUOUS
 62
     7
  5
339
 10
4.770083
 20
14.9525
 30
0.0
 11
4.892333
 21
15.074833
 31
0.0
  0
LINE
  8
1
  6
CONTINUOUS
 62
     7
  5
33A
 10
4.615083
 20
14.938917
 30
0.0
 11
4.73725
 21
15.061083
 31
0.0
  0
LINE
  8
1
  6
CONTINUOUS
 62
     7
  5
33B
 10
4.460083
 20
14.925333
 30
0.0
 11
4.582333
 21
15.0475
 31
0.0
  0
LINE
  8
1
  6
CONTINUOUS
 62
     7
  5
33C
 10
4.305083
 20
14.91175
 30
0.0
 11
4.42725
 21
15.033917
 31
0.0
  0
LINE
  8
1
  6
CONTINUOUS
 62
     7
  5
33D
 10
4.15
 20
14.898167
 30
0.0
 11
4.272333
 21
15.0205
 31
0.0
  0
LINE
  8
1
  6
CONTINUOUS
 62
     7
  5
33E
 10
3.994917
 20
14.884583
 30
0.0
 11
4.11725
 21
15.00675
 31
0.0
  0
LINE
  8
1
  6
CONTINUOUS
 62
     7
  5
33F
 10
5.390083
 20
15.00675
 30
0.0
 11
5.512333
 21
15.129167
 31
0.0
  0
LINE
  8
1
  6
CONTINUOUS
 62
     7
  5
340
 10
5.545083
 20
15.0205
 30
0.0
 11
5.66725
 21
15.142667
 31
0.0
  0
LINE
  8
1
  6
CONTINUOUS
 62
     7
  5
341
 10
5.700083
 20
15.033917
 30
0.0
 11
5.822333
 21
15.156167
 31
0.0
  0
LINE
  8
1
  6
CONTINUOUS
 62
     7
  5
342
 10
5.855083
 20
15.0475
 30
0.0
 11
5.977417
 21
15.16975
 31
0.0
  0
LINE
  8
1
  6
CONTINUOUS
 62
     7
  5
343
 10
6.010083
 20
15.061083
 30
0.0
 11
6.1325
 21
15.183417
 31
0.0
  0
LINE
  8
1
  6
CONTINUOUS
 62
     7
  5
344
 10
6.165083
 20
15.074833
 30
0.0
 11
6.287417
 21
15.197
 31
0.0
  0
LINE
  8
1
  6
CONTINUOUS
 62
     7
  5
345
 10
6.32025
 20
15.08825
 30
0.0
 11
6.421333
 21
15.189333
 31
0.0
  0
ENDBLK
  8
1
  6
CONTINUOUS
 62
     7
  5
346
  0
BLOCK
  8
1
  6
CONTINUOUS
 62
     7
  5
34C
  2
$X5
 70
     0
 10
0.0
 20
0.0
 30
0.0
  3
$N5
  0
LINE
  8
1
  6
CONTINUOUS
 62
     7
  5
34D
 10
5.286667
 20
13.34775
 30
0.0
 11
5.472333
 21
13.533333
 31
0.0
  0
LINE
  8
1
  6
CONTINUOUS
 62
     7
  5
34E
 10
5.131833
 20
13.334417
 30
0.0
 11
5.317417
 21
13.52
 31
0.0
  0
LINE
  8
1
  6
CONTINUOUS
 62
     7
  5
34F
 10
4.977
 20
13.321
 30
0.0
 11
5.16275
 21
13.5065
 31
0.0
  0
LINE
  8
1
  6
CONTINUOUS
 62
     7
  5
350
 10
4.82225
 20
13.3075
 30
0.0
 11
5.007917
 21
13.493083
 31
0.0
  0
LINE
  8
1
  6
CONTINUOUS
 62
     7
  5
351
 10
4.667417
 20
13.294083
 30
0.0
 11
4.853
 21
13.47975
 31
0.0
  0
LINE
  8
1
  6
CONTINUOUS
 62
     7
  5
352
 10
4.51275
 20
13.28075
 30
0.0
 11
4.69825
 21
13.466417
 31
0.0
  0
LINE
  8
1
  6
CONTINUOUS
 62
     7
  5
353
 10
4.35775
 20
13.26725
 30
0.0
 11
4.543417
 21
13.452917
 31
0.0
  0
LINE
  8
1
  6
CONTINUOUS
 62
     7
  5
354
 10
4.203
 20
13.253833
 30
0.0
 11
4.388667
 21
13.439583
 31
0.0
  0
LINE
  8
1
  6
CONTINUOUS
 62
     7
  5
355
 10
4.107667
 20
13.300083
 30
0.0
 11
4.233833
 21
13.426167
 31
0.0
  0
LINE
  8
1
  6
CONTINUOUS
 62
     7
  5
356
 10
5.441583
 20
13.361083
 30
0.0
 11
5.627167
 21
13.54675
 31
0.0
  0
LINE
  8
1
  6
CONTINUOUS
 62
     7
  5
357
 10
5.596333
 20
13.374583
 30
0.0
 11
5.781833
 21
13.560083
 31
0.0
  0
LINE
  8
1
  6
CONTINUOUS
 62
     7
  5
358
 10
5.75125
 20
13.388
 30
0.0
 11
5.936667
 21
13.573417
 31
0.0
  0
LINE
  8
1
  6
CONTINUOUS
 62
     7
  5
359
 10
5.906083
 20
13.4015
 30
0.0
 11
6.091583
 21
13.586917
 31
0.0
  0
LINE
  8
1
  6
CONTINUOUS
 62
     7
  5
35A
 10
6.060833
 20
13.414833
 30
0.0
 11
6.246333
 21
13.60025
 31
0.0
  0
LINE
  8
1
  6
CONTINUOUS
 62
     7
  5
35B
 10
6.215667
 20
13.42825
 30
0.0
 11
6.401083
 21
13.613667
 31
0.0
  0
LINE
  8
1
  6
CONTINUOUS
 62
     7
  5
35C
 10
6.3705
 20
13.441583
 30
0.0
 11
6.421333
 21
13.4925
 31
0.0
  0
ENDBLK
  8
1
  6
CONTINUOUS
 62
     7
  5
35D
  0
BLOCK
  8
1
  6
CONTINUOUS
 62
     7
  5
44F
  2
$X6
 70
     0
 10
0.0
 20
0.0
 30
0.0
  3
$N6
  0
LINE
  8
1
  6
CONTINUOUS
 62
     7
  5
450
 10
14.354667
 20
3.536333
 30
0.0
 11
14.517417
 21
3.69875
 31
0.0
  0
LINE
  8
1
  6
CONTINUOUS
 62
     7
  5
451
 10
14.354667
 20
3.606917
 30
0.0
 11
14.461083
 21
3.713167
 31
0.0
  0
LINE
  8
1
  6
CONTINUOUS
 62
     7
  5
452
 10
14.354667
 20
3.677667
 30
0.0
 11
14.39025
 21
3.713167
 31
0.0
  0
LINE
  8
1
  6
CONTINUOUS
 62
     7
  5
453
 10
14.354667
 20
3.465417
 30
0.0
 11
14.517417
 21
3.628167
 31
0.0
  0
LINE
  8
1
  6
CONTINUOUS
 62
     7
  5
454
 10
14.354667
 20
3.394667
 30
0.0
 11
14.517417
 21
3.557417
 31
0.0
  0
LINE
  8
1
  6
CONTINUOUS
 62
     7
  5
455
 10
14.4215
 20
3.390833
 30
0.0
 11
14.517417
 21
3.486667
 31
0.0
  0
LINE
  8
1
  6
CONTINUOUS
 62
     7
  5
456
 10
14.49225
 20
3.390833
 30
0.0
 11
14.517417
 21
3.416083
 31
0.0
  0
ENDBLK
  8
1
  6
CONTINUOUS
 62
     7
  5
457
  0
BLOCK
  8
1
  6
CONTINUOUS
 62
   233
  5
4D5
  2
CJ
 70
     0
 10
0.0
 20
0.0
 30
0.0
  3
CJ
  0
CIRCLE
  8
1
  6
CONTINUOUS
 62
   233
  5
4D6
 10
0.313145
 20
-0.000052
 30
0.0
 40
0.313263
210
0.0
220
0.0
230
1.0
  0
TEXT
  8
1
  6
CONTINUOUS
 62
   233
  5
4D7
 10
0.128667
 20
-0.125083
 30
0.0
 40
0.25
  1
CJ
  7
MONOTXT
210
0.0
220
0.0
230
1.0
  0
ENDBLK
  8
1
  6
CONTINUOUS
 62
   233
  5
4D8
  0
BLOCK
  8
1
  6
CONTINUOUS
 62
     7
  5
65C
  2
$X48
 70
     0
 10
0.0
 20
0.0
 30
0.0
  3
$N48
  0
POINT
  8
1
  6
CONTINUOUS
 62
     7
  5
65D
 10
5.95
 20
15.64
 30
0.0
  0
POINT
  8
1
  6
CONTINUOUS
 62
     7
  5
65E
 10
5.95
 20
16.64
 30
0.0
  0
POINT
  8
1
  6
CONTINUOUS
 62
     7
  5
65F
 10
5.96
 20
15.29
 30
0.0
  0
POINT
  8
1
  6
CONTINUOUS
 62
     7
  5
660
 10
5.96
 20
16.29
 30
0.0
  0
POINT
  8
1
  6
CONTINUOUS
 62
     7
  5
661
 10
5.99
 20
15.83
 30
0.0
  0
POINT
  8
1
  6
CONTINUOUS
 62
     7
  5
662
 10
5.99
 20
16.829833
 30
0.0
  0
LINE
  8
1
  6
CONTINUOUS
 62
     7
  5
663
 10
5.469833
 20
15.519833
 30
0.0
 11
5.569833
 21
15.479833
 31
0.0
  0
LINE
  8
1
  6
CONTINUOUS
 62
     7
  5
664
 10
5.469833
 20
16.519833
 30
0.0
 11
5.569833
 21
16.479833
 31
0.0
  0
LINE
  8
1
  6
CONTINUOUS
 62
     7
  5
665
 10
5.569833
 20
15.48
 30
0.0
 11
5.529833
 21
15.45
 31
0.0
  0
LINE
  8
1
  6
CONTINUOUS
 62
     7
  5
666
 10
5.569833
 20
16.48
 30
0.0
 11
5.529833
 21
16.45
 31
0.0
  0
LINE
  8
1
  6
CONTINUOUS
 62
     7
  5
667
 10
5.529833
 20
15.449833
 30
0.0
 11
5.469833
 21
15.519833
 31
0.0
  0
LINE
  8
1
  6
CONTINUOUS
 62
     7
  5
668
 10
5.529833
 20
16.449833
 30
0.0
 11
5.469833
 21
16.519833
 31
0.0
  0
LINE
  8
1
  6
CONTINUOUS
 62
     7
  5
669
 10
6.199833
 20
15.33
 30
0.0
 11
6.179833
 21
15.32
 31
0.0
  0
LINE
  8
1
  6
CONTINUOUS
 62
     7
  5
66A
 10
6.199833
 20
16.33
 30
0.0
 11
6.179833
 21
16.32
 31
0.0
  0
LINE
  8
1
  6
CONTINUOUS
 62
     7
  5
66B
 10
6.179833
 20
15.32
 30
0.0
 11
6.209833
 21
15.299833
 31
0.0
  0
LINE
  8
1
  6
CONTINUOUS
 62
     7
  5
66C
 10
6.179833
 20
16.32
 30
0.0
 11
6.209833
 21
16.3
 31
0.0
  0
LINE
  8
1
  6
CONTINUOUS
 62
     7
  5
66D
 10
6.21
 20
14.3
 30
0.0
 11
6.2
 21
14.33
 31
0.0
  0
LINE
  8
1
  6
CONTINUOUS
 62
     7
  5
66E
 10
6.21
 20
15.3
 30
0.0
 11
6.2
 21
15.33
 31
0.0
  0
LINE
  8
1
  6
CONTINUOUS
 62
     7
  5
66F
 10
6.21
 20
16.3
 30
0.0
 11
6.2
 21
16.33
 31
0.0
  0
LINE
  8
1
  6
CONTINUOUS
 62
     7
  5
670
 10
5.839833
 20
15.23
 30
0.0
 11
5.809833
 21
15.2
 31
0.0
  0
LINE
  8
1
  6
CONTINUOUS
 62
     7
  5
671
 10
5.839833
 20
16.23
 30
0.0
 11
5.809833
 21
16.2
 31
0.0
  0
LINE
  8
1
  6
CONTINUOUS
 62
     7
  5
672
 10
5.81
 20
15.2
 30
0.0
 11
5.87
 21
15.2
 31
0.0
  0
LINE
  8
1
  6
CONTINUOUS
 62
     7
  5
673
 10
5.81
 20
16.2
 30
0.0
 11
5.87
 21
16.2
 31
0.0
  0
LINE
  8
1
  6
CONTINUOUS
 62
     7
  5
674
 10
5.87
 20
15.199833
 30
0.0
 11
5.84
 21
15.229833
 31
0.0
  0
LINE
  8
1
  6
CONTINUOUS
 62
     7
  5
675
 10
5.87
 20
16.199833
 30
0.0
 11
5.84
 21
16.229833
 31
0.0
  0
LINE
  8
1
  6
CONTINUOUS
 62
     7
  5
676
 10
5.719833
 20
15.87
 30
0.0
 11
5.709833
 21
15.84
 31
0.0
  0
LINE
  8
1
  6
CONTINUOUS
 62
     7
  5
677
 10
5.719833
 20
16.87
 30
0.0
 11
5.709833
 21
16.84
 31
0.0
  0
LINE
  8
1
  6
CONTINUOUS
 62
     7
  5
678
 10
5.71
 20
15.84
 30
0.0
 11
5.76
 21
15.84
 31
0.0
  0
LINE
  8
1
  6
CONTINUOUS
 62
     7
  5
679
 10
5.71
 20
16.84
 30
0.0
 11
5.76
 21
16.84
 31
0.0
  0
LINE
  8
1
  6
CONTINUOUS
 62
     7
  5
67A
 10
5.76
 20
15.84
 30
0.0
 11
5.72
 21
15.87
 31
0.0
  0
LINE
  8
1
  6
CONTINUOUS
 62
     7
  5
67B
 10
5.76
 20
16.84
 30
0.0
 11
5.72
 21
16.87
 31
0.0
  0
LINE
  8
1
  6
CONTINUOUS
 62
     7
  5
67C
 10
6.19
 20
15.88
 30
0.0
 11
6.16
 21
15.86
 31
0.0
  0
LINE
  8
1
  6
CONTINUOUS
 62
     7
  5
67D
 10
6.19
 20
16.88
 30
0.0
 11
6.16
 21
16.86
 31
0.0
  0
LINE
  8
1
  6
CONTINUOUS
 62
     7
  5
67E
 10
6.16
 20
15.86
 30
0.0
 11
6.22
 21
15.84
 31
0.0
  0
LINE
  8
1
  6
CONTINUOUS
 62
     7
  5
67F
 10
6.16
 20
16.86
 30
0.0
 11
6.22
 21
16.84
 31
0.0
  0
LINE
  8
1
  6
CONTINUOUS
 62
     7
  5
680
 10
6.219833
 20
14.84
 30
0.0
 11
6.189833
 21
14.88
 31
0.0
  0
LINE
  8
1
  6
CONTINUOUS
 62
     7
  5
681
 10
6.219833
 20
15.84
 30
0.0
 11
6.189833
 21
15.88
 31
0.0
  0
LINE
  8
1
  6
CONTINUOUS
 62
     7
  5
682
 10
6.219833
 20
16.84
 30
0.0
 11
6.189833
 21
16.88
 31
0.0
  0
POINT
  8
1
  6
CONTINUOUS
 62
     7
  5
683
 10
5.48
 20
15.84
 30
0.0
  0
POINT
  8
1
  6
CONTINUOUS
 62
     7
  5
684
 10
5.48
 20
16.84
 30
0.0
  0
POINT
  8
1
  6
CONTINUOUS
 62
     7
  5
685
 10
6.21
 20
15.58
 30
0.0
  0
POINT
  8
1
  6
CONTINUOUS
 62
     7
  5
686
 10
6.21
 20
16.579833
 30
0.0
  0
POINT
  8
1
  6
CONTINUOUS
 62
     7
  5
687
 10
5.49
 20
15.21
 30
0.0
  0
POINT
  8
1
  6
CONTINUOUS
 62
     7
  5
688
 10
5.49
 20
16.21
 30
0.0
  0
POINT
  8
1
  6
CONTINUOUS
 62
     7
  5
689
 10
5.76
 20
15.52
 30
0.0
  0
POINT
  8
1
  6
CONTINUOUS
 62
     7
  5
68A
 10
5.76
 20
16.52
 30
0.0
  0
POINT
  8
1
  6
CONTINUOUS
 62
     7
  5
68B
 10
5.47
 20
15.69
 30
0.0
  0
POINT
  8
1
  6
CONTINUOUS
 62
     7
  5
68C
 10
5.47
 20
16.69
 30
0.0
  0
POINT
  8
1
  6
CONTINUOUS
 62
     7
  5
68D
 10
6.25
 20
15.72
 30
0.0
  0
POINT
  8
1
  6
CONTINUOUS
 62
     7
  5
68E
 10
6.25
 20
16.72
 30
0.0
  0
POINT
  8
1
  6
CONTINUOUS
 62
     7
  5
68F
 10
6.34
 20
15.66
 30
0.0
  0
POINT
  8
1
  6
CONTINUOUS
 62
     7
  5
690
 10
6.34
 20
16.66
 30
0.0
  0
POINT
  8
1
  6
CONTINUOUS
 62
     7
  5
691
 10
6.3
 20
15.42
 30
0.0
  0
POINT
  8
1
  6
CONTINUOUS
 62
     7
  5
692
 10
6.3
 20
16.42
 30
0.0
  0
POINT
  8
1
  6
CONTINUOUS
 62
     7
  5
693
 10
6.06
 20
15.46
 30
0.0
  0
POINT
  8
1
  6
CONTINUOUS
 62
     7
  5
694
 10
6.06
 20
16.46
 30
0.0
  0
POINT
  8
1
  6
CONTINUOUS
 62
     7
  5
695
 10
6.07
 20
15.69
 30
0.0
  0
POINT
  8
1
  6
CONTINUOUS
 62
     7
  5
696
 10
6.07
 20
16.69
 30
0.0
  0
POINT
  8
1
  6
CONTINUOUS
 62
     7
  5
697
 10
6.04
 20
15.91
 30
0.0
  0
POINT
  8
1
  6
CONTINUOUS
 62
     7
  5
698
 10
6.04
 20
16.91
 30
0.0
  0
POINT
  8
1
  6
CONTINUOUS
 62
     7
  5
699
 10
6.35
 20
15.95
 30
0.0
  0
POINT
  8
1
  6
CONTINUOUS
 62
     7
  5
69A
 10
5.57
 20
15.99
 30
0.0
  0
POINT
  8
1
  6
CONTINUOUS
 62
     7
  5
69B
 10
5.57
 20
16.989833
 30
0.0
  0
POINT
  8
1
  6
CONTINUOUS
 62
     7
  5
69C
 10
5.92
 20
15.95
 30
0.0
  0
POINT
  8
1
  6
CONTINUOUS
 62
     7
  5
69D
 10
5.92
 20
16.95
 30
0.0
  0
POINT
  8
1
  6
CONTINUOUS
 62
     7
  5
69E
 10
5.68
 20
15.64
 30
0.0
  0
POINT
  8
1
  6
CONTINUOUS
 62
     7
  5
69F
 10
5.68
 20
16.64
 30
0.0
  0
POINT
  8
1
  6
CONTINUOUS
 62
     7
  5
6A0
 10
5.58
 20
15.82
 30
0.0
  0
POINT
  8
1
  6
CONTINUOUS
 62
     7
  5
6A1
 10
5.58
 20
16.82
 30
0.0
  0
POINT
  8
1
  6
CONTINUOUS
 62
     7
  5
6A2
 10
5.66
 20
15.34
 30
0.0
  0
POINT
  8
1
  6
CONTINUOUS
 62
     7
  5
6A3
 10
5.66
 20
16.34
 30
0.0
  0
POINT
  8
1
  6
CONTINUOUS
 62
     7
  5
6A4
 10
6.36
 20
15.29
 30
0.0
  0
POINT
  8
1
  6
CONTINUOUS
 62
     7
  5
6A5
 10
6.36
 20
16.29
 30
0.0
  0
POINT
  8
1
  6
CONTINUOUS
 62
     7
  5
6A6
 10
6.36
 20
16.29
 30
0.0
  0
POINT
  8
1
  6
CONTINUOUS
 62
     7
  5
6A7
 10
5.66
 20
16.07
 30
0.0
  0
POINT
  8
1
  6
CONTINUOUS
 62
     7
  5
6A8
 10
5.66
 20
17.07
 30
0.0
  0
POINT
  8
1
  6
CONTINUOUS
 62
     7
  5
6A9
 10
6.33
 20
16.13
 30
0.0
  0
POINT
  8
1
  6
CONTINUOUS
 62
     7
  5
6AA
 10
6.01
 20
16.1
 30
0.0
  0
POINT
  8
1
  6
CONTINUOUS
 62
     7
  5
6AB
 10
6.01
 20
17.1
 30
0.0
  0
POINT
  8
1
  6
CONTINUOUS
 62
     7
  5
6AC
 10
6.13
 20
16.05
 30
0.0
  0
POINT
  8
1
  6
CONTINUOUS
 62
     7
  5
6AD
 10
6.13
 20
17.05
 30
0.0
  0
POINT
  8
1
  6
CONTINUOUS
 62
     7
  5
6AE
 10
6.14
 20
15.19
 30
0.0
  0
POINT
  8
1
  6
CONTINUOUS
 62
     7
  5
6AF
 10
6.14
 20
16.19
 30
0.0
  0
POINT
  8
1
  6
CONTINUOUS
 62
     7
  5
6B0
 10
5.81
 20
16.03
 30
0.0
  0
POINT
  8
1
  6
CONTINUOUS
 62
     7
  5
6B1
 10
5.81
 20
17.03
 30
0.0
  0
POINT
  8
1
  6
CONTINUOUS
 62
     7
  5
6B2
 10
5.93
 20
15.44
 30
0.0
  0
POINT
  8
1
  6
CONTINUOUS
 62
     7
  5
6B3
 10
5.93
 20
16.44
 30
0.0
  0
POINT
  8
1
  6
CONTINUOUS
 62
     7
  5
6B4
 10
5.88
 20
15.74
 30
0.0
  0
POINT
  8
1
  6
CONTINUOUS
 62
     7
  5
6B5
 10
5.88
 20
16.739833
 30
0.0
  0
POINT
  8
1
  6
CONTINUOUS
 62
     7
  5
6B6
 10
6.42
 20
16.02
 30
0.0
  0
POINT
  8
1
  6
CONTINUOUS
 62
     7
  5
6B7
 10
5.42
 20
17.02
 30
0.0
  0
ENDBLK
  8
1
  6
CONTINUOUS
 62
     7
  5
6B8
  0
BLOCK
  8
1
  6
CONTINUOUS
 62
     7
  5
6C1
  2
$X49
 70
     0
 10
0.0
 20
0.0
 30
0.0
  3
$N49
  0
POINT
  8
1
  6
CONTINUOUS
 62
     7
  5
6C2
 10
10.95
 20
14.64
 30
0.0
  0
POINT
  8
1
  6
CONTINUOUS
 62
     7
  5
6C3
 10
10.95
 20
15.64
 30
0.0
  0
POINT
  8
1
  6
CONTINUOUS
 62
     7
  5
6C4
 10
10.95
 20
16.64
 30
0.0
  0
POINT
  8
1
  6
CONTINUOUS
 62
     7
  5
6C5
 10
10.95
 20
13.64
 30
0.0
  0
POINT
  8
1
  6
CONTINUOUS
 62
     7
  5
6C6
 10
5.95
 20
12.64
 30
0.0
  0
POINT
  8
1
  6
CONTINUOUS
 62
     7
  5
6C7
 10
6.95
 20
12.64
 30
0.0
  0
POINT
  8
1
  6
CONTINUOUS
 62
     7
  5
6C8
 10
7.95
 20
12.64
 30
0.0
  0
POINT
  8
1
  6
CONTINUOUS
 62
     7
  5
6C9
 10
8.949833
 20
12.64
 30
0.0
  0
POINT
  8
1
  6
CONTINUOUS
 62
     7
  5
6CA
 10
9.949833
 20
12.64
 30
0.0
  0
POINT
  8
1
  6
CONTINUOUS
 62
     7
  5
6CB
 10
10.96
 20
14.29
 30
0.0
  0
POINT
  8
1
  6
CONTINUOUS
 62
     7
  5
6CC
 10
10.96
 20
15.29
 30
0.0
  0
POINT
  8
1
  6
CONTINUOUS
 62
     7
  5
6CD
 10
10.96
 20
16.29
 30
0.0
  0
POINT
  8
1
  6
CONTINUOUS
 62
     7
  5
6CE
 10
5.96
 20
13.29
 30
0.0
  0
POINT
  8
1
  6
CONTINUOUS
 62
     7
  5
6CF
 10
6.96
 20
13.29
 30
0.0
  0
POINT
  8
1
  6
CONTINUOUS
 62
     7
  5
6D0
 10
7.96
 20
13.29
 30
0.0
  0
POINT
  8
1
  6
CONTINUOUS
 62
     7
  5
6D1
 10
8.96
 20
13.29
 30
0.0
  0
POINT
  8
1
  6
CONTINUOUS
 62
     7
  5
6D2
 10
9.96
 20
13.29
 30
0.0
  0
POINT
  8
1
  6
CONTINUOUS
 62
     7
  5
6D3
 10
10.96
 20
13.29
 30
0.0
  0
POINT
  8
1
  6
CONTINUOUS
 62
     7
  5
6D4
 10
10.99
 20
14.83
 30
0.0
  0
POINT
  8
1
  6
CONTINUOUS
 62
     7
  5
6D5
 10
10.99
 20
15.83
 30
0.0
  0
POINT
  8
1
  6
CONTINUOUS
 62
     7
  5
6D6
 10
10.99
 20
16.829833
 30
0.0
  0
POINT
  8
1
  6
CONTINUOUS
 62
     7
  5
6D7
 10
10.99
 20
13.83
 30
0.0
  0
POINT
  8
1
  6
CONTINUOUS
 62
     7
  5
6D8
 10
5.99
 20
12.83
 30
0.0
  0
POINT
  8
1
  6
CONTINUOUS
 62
     7
  5
6D9
 10
6.99
 20
12.83
 30
0.0
  0
POINT
  8
1
  6
CONTINUOUS
 62
     7
  5
6DA
 10
7.99
 20
12.83
 30
0.0
  0
POINT
  8
1
  6
CONTINUOUS
 62
     7
  5
6DB
 10
8.99
 20
12.83
 30
0.0
  0
POINT
  8
1
  6
CONTINUOUS
 62
     7
  5
6DC
 10
9.99
 20
12.83
 30
0.0
  0
POINT
  8
1
  6
CONTINUOUS
 62
     7
  5
6DD
 10
10.99
 20
12.83
 30
0.0
  0
LINE
  8
1
  6
CONTINUOUS
 62
     7
  5
6DE
 10
10.469833
 20
14.519833
 30
0.0
 11
10.569833
 21
14.479833
 31
0.0
  0
LINE
  8
1
  6
CONTINUOUS
 62
     7
  5
6DF
 10
10.469833
 20
15.519833
 30
0.0
 11
10.569833
 21
15.479833
 31
0.0
  0
LINE
  8
1
  6
CONTINUOUS
 62
     7
  5
6E0
 10
10.469833
 20
16.519833
 30
0.0
 11
10.569833
 21
16.479833
 31
0.0
  0
LINE
  8
1
  6
CONTINUOUS
 62
     7
  5
6E1
 10
10.469833
 20
13.519833
 30
0.0
 11
10.569833
 21
13.479833
 31
0.0
  0
LINE
  8
1
  6
CONTINUOUS
 62
     7
  5
6E2
 10
9.469833
 20
13.519833
 30
0.0
 11
9.569833
 21
13.479833
 31
0.0
  0
LINE
  8
1
  6
CONTINUOUS
 62
     7
  5
6E3
 10
8.469833
 20
13.519833
 30
0.0
 11
8.569833
 21
13.479833
 31
0.0
  0
LINE
  8
1
  6
CONTINUOUS
 62
     7
  5
6E4
 10
7.469833
 20
13.519833
 30
0.0
 11
7.569833
 21
13.479833
 31
0.0
  0
LINE
  8
1
  6
CONTINUOUS
 62
     7
  5
6E5
 10
6.469833
 20
13.519833
 30
0.0
 11
6.569833
 21
13.479833
 31
0.0
  0
LINE
  8
1
  6
CONTINUOUS
 62
     7
  5
6E6
 10
7.569833
 20
13.48
 30
0.0
 11
7.529833
 21
13.45
 31
0.0
  0
LINE
  8
1
  6
CONTINUOUS
 62
     7
  5
6E7
 10
10.569833
 20
15.48
 30
0.0
 11
10.529833
 21
15.45
 31
0.0
  0
LINE
  8
1
  6
CONTINUOUS
 62
     7
  5
6E8
 10
8.569833
 20
13.48
 30
0.0
 11
8.529833
 21
13.45
 31
0.0
  0
LINE
  8
1
  6
CONTINUOUS
 62
     7
  5
6E9
 10
10.569833
 20
14.48
 30
0.0
 11
10.529833
 21
14.45
 31
0.0
  0
LINE
  8
1
  6
CONTINUOUS
 62
     7
  5
6EA
 10
9.569833
 20
13.48
 30
0.0
 11
9.529833
 21
13.45
 31
0.0
  0
LINE
  8
1
  6
CONTINUOUS
 62
     7
  5
6EB
 10
10.569833
 20
13.48
 30
0.0
 11
10.529833
 21
13.45
 31
0.0
  0
LINE
  8
1
  6
CONTINUOUS
 62
     7
  5
6EC
 10
6.569833
 20
13.48
 30
0.0
 11
6.529833
 21
13.45
 31
0.0
  0
LINE
  8
1
  6
CONTINUOUS
 62
     7
  5
6ED
 10
10.569833
 20
16.48
 30
0.0
 11
10.529833
 21
16.45
 31
0.0
  0
LINE
  8
1
  6
CONTINUOUS
 62
     7
  5
6EE
 10
9.569833
 20
16.48
 30
0.0
 11
9.529833
 21
16.45
 31
0.0
  0
LINE
  8
1
  6
CONTINUOUS
 62
     7
  5
6EF
 10
5.569833
 20
13.48
 30
0.0
 11
5.529833
 21
13.45
 31
0.0
  0
LINE
  8
1
  6
CONTINUOUS
 62
     7
  5
6F0
 10
9.529833
 20
13.449833
 30
0.0
 11
9.469833
 21
13.519833
 31
0.0
  0
LINE
  8
1
  6
CONTINUOUS
 62
     7
  5
6F1
 10
8.529833
 20
13.449833
 30
0.0
 11
8.469833
 21
13.519833
 31
0.0
  0
LINE
  8
1
  6
CONTINUOUS
 62
     7
  5
6F2
 10
7.529833
 20
13.449833
 30
0.0
 11
7.469833
 21
13.519833
 31
0.0
  0
LINE
  8
1
  6
CONTINUOUS
 62
     7
  5
6F3
 10
6.529833
 20
13.449833
 30
0.0
 11
6.469833
 21
13.519833
 31
0.0
  0
LINE
  8
1
  6
CONTINUOUS
 62
     7
  5
6F4
 10
10.529833
 20
13.449833
 30
0.0
 11
10.469833
 21
13.519833
 31
0.0
  0
LINE
  8
1
  6
CONTINUOUS
 62
     7
  5
6F5
 10
10.529833
 20
14.449833
 30
0.0
 11
10.469833
 21
14.519833
 31
0.0
  0
LINE
  8
1
  6
CONTINUOUS
 62
     7
  5
6F6
 10
10.529833
 20
15.449833
 30
0.0
 11
10.469833
 21
15.519833
 31
0.0
  0
LINE
  8
1
  6
CONTINUOUS
 62
     7
  5
6F7
 10
10.529833
 20
16.449833
 30
0.0
 11
10.469833
 21
16.519833
 31
0.0
  0
LINE
  8
1
  6
CONTINUOUS
 62
     7
  5
6F8
 10
6.199833
 20
13.33
 30
0.0
 11
6.179833
 21
13.32
 31
0.0
  0
LINE
  8
1
  6
CONTINUOUS
 62
     7
  5
6F9
 10
7.199833
 20
13.33
 30
0.0
 11
7.179833
 21
13.32
 31
0.0
  0
LINE
  8
1
  6
CONTINUOUS
 62
     7
  5
6FA
 10
11.199833
 20
15.33
 30
0.0
 11
11.179833
 21
15.32
 31
0.0
  0
LINE
  8
1
  6
CONTINUOUS
 62
     7
  5
6FB
 10
8.199833
 20
13.33
 30
0.0
 11
8.179833
 21
13.32
 31
0.0
  0
LINE
  8
1
  6
CONTINUOUS
 62
     7
  5
6FC
 10
9.199833
 20
13.33
 30
0.0
 11
9.179833
 21
13.32
 31
0.0
  0
LINE
  8
1
  6
CONTINUOUS
 62
     7
  5
6FD
 10
11.199833
 20
14.33
 30
0.0
 11
11.179833
 21
14.32
 31
0.0
  0
LINE
  8
1
  6
CONTINUOUS
 62
     7
  5
6FE
 10
10.199833
 20
13.33
 30
0.0
 11
10.179833
 21
13.32
 31
0.0
  0
LINE
  8
1
  6
CONTINUOUS
 62
     7
  5
6FF
 10
11.199833
 20
13.33
 30
0.0
 11
11.179833
 21
13.32
 31
0.0
  0
LINE
  8
1
  6
CONTINUOUS
 62
     7
  5
700
 10
11.199833
 20
16.33
 30
0.0
 11
11.179833
 21
16.32
 31
0.0
  0
LINE
  8
1
  6
CONTINUOUS
 62
     7
  5
701
 10
11.179833
 20
13.319833
 30
0.0
 11
11.209833
 21
13.299833
 31
0.0
  0
LINE
  8
1
  6
CONTINUOUS
 62
     7
  5
702
 10
11.179833
 20
14.319833
 30
0.0
 11
11.209833
 21
14.299833
 31
0.0
  0
LINE
  8
1
  6
CONTINUOUS
 62
     7
  5
703
 10
11.179833
 20
15.319833
 30
0.0
 11
11.209833
 21
15.299833
 31
0.0
  0
LINE
  8
1
  6
CONTINUOUS
 62
     7
  5
704
 10
11.179833
 20
16.319833
 30
0.0
 11
11.209833
 21
16.299833
 31
0.0
  0
LINE
  8
1
  6
CONTINUOUS
 62
     7
  5
705
 10
10.179833
 20
13.319833
 30
0.0
 11
10.209833
 21
13.299833
 31
0.0
  0
LINE
  8
1
  6
CONTINUOUS
 62
     7
  5
706
 10
9.179833
 20
13.319833
 30
0.0
 11
9.209833
 21
13.299833
 31
0.0
  0
LINE
  8
1
  6
CONTINUOUS
 62
     7
  5
707
 10
8.179833
 20
13.319833
 30
0.0
 11
8.209833
 21
13.299833
 31
0.0
  0
LINE
  8
1
  6
CONTINUOUS
 62
     7
  5
708
 10
7.179833
 20
13.319833
 30
0.0
 11
7.209833
 21
13.299833
 31
0.0
  0
LINE
  8
1
  6
CONTINUOUS
 62
     7
  5
709
 10
6.179833
 20
13.319833
 30
0.0
 11
6.209833
 21
13.299833
 31
0.0
  0
LINE
  8
1
  6
CONTINUOUS
 62
     7
  5
70A
 10
8.21
 20
13.3
 30
0.0
 11
8.2
 21
13.33
 31
0.0
  0
LINE
  8
1
  6
CONTINUOUS
 62
     7
  5
70B
 10
8.21
 20
13.3
 30
0.0
 11
8.2
 21
13.33
 31
0.0
  0
LINE
  8
1
  6
CONTINUOUS
 62
     7
  5
70C
 10
7.21
 20
13.3
 30
0.0
 11
7.2
 21
13.33
 31
0.0
  0
LINE
  8
1
  6
CONTINUOUS
 62
     7
  5
70D
 10
6.21
 20
13.3
 30
0.0
 11
6.2
 21
13.33
 31
0.0
  0
LINE
  8
1
  6
CONTINUOUS
 62
     7
  5
70E
 10
9.21
 20
13.3
 30
0.0
 11
9.2
 21
13.33
 31
0.0
  0
LINE
  8
1
  6
CONTINUOUS
 62
     7
  5
70F
 10
10.21
 20
13.3
 30
0.0
 11
10.2
 21
13.33
 31
0.0
  0
LINE
  8
1
  6
CONTINUOUS
 62
     7
  5
710
 10
11.21
 20
13.3
 30
0.0
 11
11.2
 21
13.33
 31
0.0
  0
LINE
  8
1
  6
CONTINUOUS
 62
     7
  5
711
 10
11.21
 20
14.3
 30
0.0
 11
11.2
 21
14.33
 31
0.0
  0
LINE
  8
1
  6
CONTINUOUS
 62
     7
  5
712
 10
11.21
 20
15.3
 30
0.0
 11
11.2
 21
15.33
 31
0.0
  0
LINE
  8
1
  6
CONTINUOUS
 62
     7
  5
713
 10
11.21
 20
16.3
 30
0.0
 11
11.2
 21
16.33
 31
0.0
  0
LINE
  8
1
  6
CONTINUOUS
 62
     7
  5
714
 10
6.839833
 20
13.23
 30
0.0
 11
6.809833
 21
13.2
 31
0.0
  0
LINE
  8
1
  6
CONTINUOUS
 62
     7
  5
715
 10
7.839833
 20
13.229833
 30
0.0
 11
7.809833
 21
13.199833
 31
0.0
  0
LINE
  8
1
  6
CONTINUOUS
 62
     7
  5
716
 10
10.839833
 20
16.229833
 30
0.0
 11
10.809833
 21
16.199833
 31
0.0
  0
LINE
  8
1
  6
CONTINUOUS
 62
     7
  5
717
 10
8.839833
 20
13.229833
 30
0.0
 11
8.809833
 21
13.199833
 31
0.0
  0
LINE
  8
1
  6
CONTINUOUS
 62
     7
  5
718
 10
10.839833
 20
15.229833
 30
0.0
 11
10.809833
 21
15.199833
 31
0.0
  0
LINE
  8
1
  6
CONTINUOUS
 62
     7
  5
719
 10
9.839833
 20
13.229833
 30
0.0
 11
9.809833
 21
13.199833
 31
0.0
  0
LINE
  8
1
  6
CONTINUOUS
 62
     7
  5
71A
 10
10.839833
 20
14.229833
 30
0.0
 11
10.809833
 21
14.199833
 31
0.0
  0
LINE
  8
1
  6
CONTINUOUS
 62
     7
  5
71B
 10
10.839833
 20
13.229833
 30
0.0
 11
10.809833
 21
13.199833
 31
0.0
  0
LINE
  8
1
  6
CONTINUOUS
 62
     7
  5
71C
 10
5.839833
 20
13.23
 30
0.0
 11
5.809833
 21
13.2
 31
0.0
  0
LINE
  8
1
  6
CONTINUOUS
 62
     7
  5
71D
 10
10.81
 20
14.2
 30
0.0
 11
10.869833
 21
14.2
 31
0.0
  0
LINE
  8
1
  6
CONTINUOUS
 62
     7
  5
71E
 10
10.81
 20
15.2
 30
0.0
 11
10.869833
 21
15.2
 31
0.0
  0
LINE
  8
1
  6
CONTINUOUS
 62
     7
  5
71F
 10
10.81
 20
16.2
 30
0.0
 11
10.869833
 21
16.2
 31
0.0
  0
LINE
  8
1
  6
CONTINUOUS
 62
     7
  5
720
 10
5.81
 20
13.2
 30
0.0
 11
5.87
 21
13.2
 31
0.0
  0
LINE
  8
1
  6
CONTINUOUS
 62
     7
  5
721
 10
6.81
 20
13.2
 30
0.0
 11
6.87
 21
13.2
 31
0.0
  0
LINE
  8
1
  6
CONTINUOUS
 62
     7
  5
722
 10
7.81
 20
13.2
 30
0.0
 11
7.87
 21
13.2
 31
0.0
  0
LINE
  8
1
  6
CONTINUOUS
 62
     7
  5
723
 10
8.81
 20
13.2
 30
0.0
 11
8.869833
 21
13.2
 31
0.0
  0
LINE
  8
1
  6
CONTINUOUS
 62
     7
  5
724
 10
9.81
 20
13.2
 30
0.0
 11
9.869833
 21
13.2
 31
0.0
  0
LINE
  8
1
  6
CONTINUOUS
 62
     7
  5
725
 10
10.81
 20
13.2
 30
0.0
 11
10.869833
 21
13.2
 31
0.0
  0
LINE
  8
1
  6
CONTINUOUS
 62
     7
  5
726
 10
9.87
 20
13.199833
 30
0.0
 11
9.84
 21
13.229833
 31
0.0
  0
LINE
  8
1
  6
CONTINUOUS
 62
     7
  5
727
 10
8.87
 20
13.199833
 30
0.0
 11
8.84
 21
13.229833
 31
0.0
  0
LINE
  8
1
  6
CONTINUOUS
 62
     7
  5
728
 10
7.87
 20
13.199833
 30
0.0
 11
7.84
 21
13.229833
 31
0.0
  0
LINE
  8
1
  6
CONTINUOUS
 62
     7
  5
729
 10
6.87
 20
13.199833
 30
0.0
 11
6.84
 21
13.229833
 31
0.0
  0
LINE
  8
1
  6
CONTINUOUS
 62
     7
  5
72A
 10
5.87
 20
13.199833
 30
0.0
 11
5.84
 21
13.229833
 31
0.0
  0
LINE
  8
1
  6
CONTINUOUS
 62
     7
  5
72B
 10
10.87
 20
13.199833
 30
0.0
 11
10.84
 21
13.229833
 31
0.0
  0
LINE
  8
1
  6
CONTINUOUS
 62
     7
  5
72C
 10
10.87
 20
14.199833
 30
0.0
 11
10.84
 21
14.229833
 31
0.0
  0
LINE
  8
1
  6
CONTINUOUS
 62
     7
  5
72D
 10
10.87
 20
15.199833
 30
0.0
 11
10.84
 21
15.229833
 31
0.0
  0
LINE
  8
1
  6
CONTINUOUS
 62
     7
  5
72E
 10
10.87
 20
16.199833
 30
0.0
 11
10.84
 21
16.229833
 31
0.0
  0
LINE
  8
1
  6
CONTINUOUS
 62
     7
  5
72F
 10
7.719833
 20
12.87
 30
0.0
 11
7.709833
 21
12.84
 31
0.0
  0
LINE
  8
1
  6
CONTINUOUS
 62
     7
  5
730
 10
8.719833
 20
12.87
 30
0.0
 11
8.709833
 21
12.84
 31
0.0
  0
LINE
  8
1
  6
CONTINUOUS
 62
     7
  5
731
 10
10.719833
 20
16.87
 30
0.0
 11
10.709833
 21
16.84
 31
0.0
  0
LINE
  8
1
  6
CONTINUOUS
 62
     7
  5
732
 10
9.719833
 20
12.869833
 30
0.0
 11
9.709833
 21
12.839833
 31
0.0
  0
LINE
  8
1
  6
CONTINUOUS
 62
     7
  5
733
 10
10.719833
 20
15.87
 30
0.0
 11
10.709833
 21
15.84
 31
0.0
  0
LINE
  8
1
  6
CONTINUOUS
 62
     7
  5
734
 10
10.719833
 20
14.87
 30
0.0
 11
10.709833
 21
14.84
 31
0.0
  0
LINE
  8
1
  6
CONTINUOUS
 62
     7
  5
735
 10
10.719833
 20
13.869833
 30
0.0
 11
10.709833
 21
13.839833
 31
0.0
  0
LINE
  8
1
  6
CONTINUOUS
 62
     7
  5
736
 10
10.719833
 20
12.869833
 30
0.0
 11
10.709833
 21
12.839833
 31
0.0
  0
LINE
  8
1
  6
CONTINUOUS
 62
     7
  5
737
 10
6.719833
 20
12.87
 30
0.0
 11
6.709833
 21
12.84
 31
0.0
  0
LINE
  8
1
  6
CONTINUOUS
 62
     7
  5
738
 10
5.719833
 20
12.87
 30
0.0
 11
5.709833
 21
12.84
 31
0.0
  0
LINE
  8
1
  6
CONTINUOUS
 62
     7
  5
739
 10
10.71
 20
14.84
 30
0.0
 11
10.76
 21
14.84
 31
0.0
  0
LINE
  8
1
  6
CONTINUOUS
 62
     7
  5
73A
 10
10.71
 20
15.84
 30
0.0
 11
10.76
 21
15.84
 31
0.0
  0
LINE
  8
1
  6
CONTINUOUS
 62
     7
  5
73B
 10
10.71
 20
16.84
 30
0.0
 11
10.76
 21
16.84
 31
0.0
  0
LINE
  8
1
  6
CONTINUOUS
 62
     7
  5
73C
 10
10.71
 20
13.84
 30
0.0
 11
10.76
 21
13.84
 31
0.0
  0
LINE
  8
1
  6
CONTINUOUS
 62
     7
  5
73D
 10
5.71
 20
12.84
 30
0.0
 11
5.76
 21
12.84
 31
0.0
  0
LINE
  8
1
  6
CONTINUOUS
 62
     7
  5
73E
 10
6.71
 20
12.84
 30
0.0
 11
6.76
 21
12.84
 31
0.0
  0
LINE
  8
1
  6
CONTINUOUS
 62
     7
  5
73F
 10
7.71
 20
12.84
 30
0.0
 11
7.76
 21
12.84
 31
0.0
  0
LINE
  8
1
  6
CONTINUOUS
 62
     7
  5
740
 10
8.71
 20
12.84
 30
0.0
 11
8.76
 21
12.84
 31
0.0
  0
LINE
  8
1
  6
CONTINUOUS
 62
     7
  5
741
 10
9.71
 20
12.84
 30
0.0
 11
9.76
 21
12.84
 31
0.0
  0
LINE
  8
1
  6
CONTINUOUS
 62
     7
  5
742
 10
10.71
 20
12.84
 30
0.0
 11
10.76
 21
12.84
 31
0.0
  0
LINE
  8
1
  6
CONTINUOUS
 62
     7
  5
743
 10
10.76
 20
12.84
 30
0.0
 11
10.72
 21
12.87
 31
0.0
  0
LINE
  8
1
  6
CONTINUOUS
 62
     7
  5
744
 10
9.76
 20
12.84
 30
0.0
 11
9.72
 21
12.87
 31
0.0
  0
LINE
  8
1
  6
CONTINUOUS
 62
     7
  5
745
 10
8.76
 20
12.84
 30
0.0
 11
8.72
 21
12.87
 31
0.0
  0
LINE
  8
1
  6
CONTINUOUS
 62
     7
  5
746
 10
7.76
 20
12.84
 30
0.0
 11
7.72
 21
12.87
 31
0.0
  0
LINE
  8
1
  6
CONTINUOUS
 62
     7
  5
747
 10
6.76
 20
12.84
 30
0.0
 11
6.72
 21
12.87
 31
0.0
  0
LINE
  8
1
  6
CONTINUOUS
 62
     7
  5
748
 10
5.76
 20
12.84
 30
0.0
 11
5.72
 21
12.87
 31
0.0
  0
LINE
  8
1
  6
CONTINUOUS
 62
     7
  5
749
 10
10.76
 20
13.84
 30
0.0
 11
10.72
 21
13.87
 31
0.0
  0
LINE
  8
1
  6
CONTINUOUS
 62
     7
  5
74A
 10
10.76
 20
14.84
 30
0.0
 11
10.72
 21
14.87
 31
0.0
  0
LINE
  8
1
  6
CONTINUOUS
 62
     7
  5
74B
 10
10.76
 20
15.84
 30
0.0
 11
10.72
 21
15.87
 31
0.0
  0
LINE
  8
1
  6
CONTINUOUS
 62
     7
  5
74C
 10
10.76
 20
16.84
 30
0.0
 11
10.72
 21
16.87
 31
0.0
  0
LINE
  8
1
  6
CONTINUOUS
 62
     7
  5
74D
 10
6.19
 20
12.88
 30
0.0
 11
6.16
 21
12.86
 31
0.0
  0
LINE
  8
1
  6
CONTINUOUS
 62
     7
  5
74E
 10
11.19
 20
15.88
 30
0.0
 11
11.16
 21
15.86
 31
0.0
  0
LINE
  8
1
  6
CONTINUOUS
 62
     7
  5
74F
 10
7.19
 20
12.88
 30
0.0
 11
7.16
 21
12.86
 31
0.0
  0
LINE
  8
1
  6
CONTINUOUS
 62
     7
  5
750
 10
8.19
 20
12.88
 30
0.0
 11
8.16
 21
12.86
 31
0.0
  0
LINE
  8
1
  6
CONTINUOUS
 62
     7
  5
751
 10
11.19
 20
14.88
 30
0.0
 11
11.159833
 21
14.86
 31
0.0
  0
LINE
  8
1
  6
CONTINUOUS
 62
     7
  5
752
 10
9.19
 20
12.88
 30
0.0
 11
9.16
 21
12.86
 31
0.0
  0
LINE
  8
1
  6
CONTINUOUS
 62
     7
  5
753
 10
11.19
 20
13.88
 30
0.0
 11
11.159833
 21
13.86
 31
0.0
  0
LINE
  8
1
  6
CONTINUOUS
 62
     7
  5
754
 10
11.19
 20
13.88
 30
0.0
 11
11.159833
 21
13.86
 31
0.0
  0
LINE
  8
1
  6
CONTINUOUS
 62
     7
  5
755
 10
10.19
 20
12.88
 30
0.0
 11
10.159833
 21
12.86
 31
0.0
  0
LINE
  8
1
  6
CONTINUOUS
 62
     7
  5
756
 10
11.189833
 20
12.88
 30
0.0
 11
11.159833
 21
12.86
 31
0.0
  0
LINE
  8
1
  6
CONTINUOUS
 62
     7
  5
757
 10
11.19
 20
16.88
 30
0.0
 11
11.16
 21
16.86
 31
0.0
  0
LINE
  8
1
  6
CONTINUOUS
 62
     7
  5
758
 10
9.19
 20
15.88
 30
0.0
 11
9.16
 21
15.86
 31
0.0
  0
LINE
  8
1
  6
CONTINUOUS
 62
     7
  5
759
 10
6.19
 20
13.88
 30
0.0
 11
6.16
 21
13.86
 31
0.0
  0
LINE
  8
1
  6
CONTINUOUS
 62
     7
  5
75A
 10
11.16
 20
13.86
 30
0.0
 11
11.22
 21
13.84
 31
0.0
  0
LINE
  8
1
  6
CONTINUOUS
 62
     7
  5
75B
 10
11.16
 20
14.86
 30
0.0
 11
11.22
 21
14.84
 31
0.0
  0
LINE
  8
1
  6
CONTINUOUS
 62
     7
  5
75C
 10
11.16
 20
15.86
 30
0.0
 11
11.22
 21
15.84
 31
0.0
  0
LINE
  8
1
  6
CONTINUOUS
 62
     7
  5
75D
 10
11.16
 20
16.86
 30
0.0
 11
11.22
 21
16.84
 31
0.0
  0
LINE
  8
1
  6
CONTINUOUS
 62
     7
  5
75E
 10
11.16
 20
12.86
 30
0.0
 11
11.22
 21
12.84
 31
0.0
  0
LINE
  8
1
  6
CONTINUOUS
 62
     7
  5
75F
 10
10.16
 20
12.86
 30
0.0
 11
10.22
 21
12.84
 31
0.0
  0
LINE
  8
1
  6
CONTINUOUS
 62
     7
  5
760
 10
9.16
 20
12.86
 30
0.0
 11
9.22
 21
12.84
 31
0.0
  0
LINE
  8
1
  6
CONTINUOUS
 62
     7
  5
761
 10
8.16
 20
12.86
 30
0.0
 11
8.22
 21
12.84
 31
0.0
  0
LINE
  8
1
  6
CONTINUOUS
 62
     7
  5
762
 10
7.16
 20
12.86
 30
0.0
 11
7.22
 21
12.84
 31
0.0
  0
LINE
  8
1
  6
CONTINUOUS
 62
     7
  5
763
 10
6.16
 20
12.86
 30
0.0
 11
6.22
 21
12.84
 31
0.0
  0
LINE
  8
1
  6
CONTINUOUS
 62
     7
  5
764
 10
9.22
 20
12.84
 30
0.0
 11
9.19
 21
12.88
 31
0.0
  0
LINE
  8
1
  6
CONTINUOUS
 62
     7
  5
765
 10
8.22
 20
12.84
 30
0.0
 11
8.19
 21
12.88
 31
0.0
  0
LINE
  8
1
  6
CONTINUOUS
 62
     7
  5
766
 10
7.22
 20
12.84
 30
0.0
 11
7.19
 21
12.88
 31
0.0
  0
LINE
  8
1
  6
CONTINUOUS
 62
     7
  5
767
 10
6.22
 20
12.84
 30
0.0
 11
6.19
 21
12.88
 31
0.0
  0
LINE
  8
1
  6
CONTINUOUS
 62
     7
  5
768
 10
10.22
 20
12.84
 30
0.0
 11
10.19
 21
12.88
 31
0.0
  0
LINE
  8
1
  6
CONTINUOUS
 62
     7
  5
769
 10
11.22
 20
12.84
 30
0.0
 11
11.19
 21
12.88
 31
0.0
  0
LINE
  8
1
  6
CONTINUOUS
 62
     7
  5
76A
 10
11.219833
 20
13.84
 30
0.0
 11
11.189833
 21
13.88
 31
0.0
  0
LINE
  8
1
  6
CONTINUOUS
 62
     7
  5
76B
 10
11.219833
 20
14.84
 30
0.0
 11
11.189833
 21
14.88
 31
0.0
  0
LINE
  8
1
  6
CONTINUOUS
 62
     7
  5
76C
 10
11.219833
 20
15.84
 30
0.0
 11
11.189833
 21
15.88
 31
0.0
  0
LINE
  8
1
  6
CONTINUOUS
 62
     7
  5
76D
 10
11.219833
 20
16.84
 30
0.0
 11
11.189833
 21
16.88
 31
0.0
  0
POINT
  8
1
  6
CONTINUOUS
 62
     7
  5
76E
 10
10.48
 20
14.84
 30
0.0
  0
POINT
  8
1
  6
CONTINUOUS
 62
     7
  5
76F
 10
10.48
 20
15.84
 30
0.0
  0
POINT
  8
1
  6
CONTINUOUS
 62
     7
  5
770
 10
10.48
 20
13.84
 30
0.0
  0
POINT
  8
1
  6
CONTINUOUS
 62
     7
  5
771
 10
5.48
 20
12.84
 30
0.0
  0
POINT
  8
1
  6
CONTINUOUS
 62
     7
  5
772
 10
6.48
 20
12.84
 30
0.0
  0
POINT
  8
1
  6
CONTINUOUS
 62
     7
  5
773
 10
7.48
 20
12.84
 30
0.0
  0
POINT
  8
1
  6
CONTINUOUS
 62
     7
  5
774
 10
8.48
 20
12.84
 30
0.0
  0
POINT
  8
1
  6
CONTINUOUS
 62
     7
  5
775
 10
9.48
 20
12.84
 30
0.0
  0
POINT
  8
1
  6
CONTINUOUS
 62
     7
  5
776
 10
10.48
 20
12.84
 30
0.0
  0
POINT
  8
1
  6
CONTINUOUS
 62
     7
  5
777
 10
11.21
 20
14.58
 30
0.0
  0
POINT
  8
1
  6
CONTINUOUS
 62
     7
  5
778
 10
11.21
 20
15.58
 30
0.0
  0
POINT
  8
1
  6
CONTINUOUS
 62
     7
  5
779
 10
11.21
 20
16.579833
 30
0.0
  0
POINT
  8
1
  6
CONTINUOUS
 62
     7
  5
77A
 10
7.21
 20
13.58
 30
0.0
  0
POINT
  8
1
  6
CONTINUOUS
 62
     7
  5
77B
 10
8.21
 20
13.58
 30
0.0
  0
POINT
  8
1
  6
CONTINUOUS
 62
     7
  5
77C
 10
9.21
 20
13.58
 30
0.0
  0
POINT
  8
1
  6
CONTINUOUS
 62
     7
  5
77D
 10
10.21
 20
13.58
 30
0.0
  0
POINT
  8
1
  6
CONTINUOUS
 62
     7
  5
77E
 10
11.21
 20
13.58
 30
0.0
  0
POINT
  8
1
  6
CONTINUOUS
 62
     7
  5
77F
 10
6.21
 20
12.58
 30
0.0
  0
POINT
  8
1
  6
CONTINUOUS
 62
     7
  5
780
 10
7.21
 20
12.58
 30
0.0
  0
POINT
  8
1
  6
CONTINUOUS
 62
     7
  5
781
 10
9.21
 20
12.58
 30
0.0
  0
POINT
  8
1
  6
CONTINUOUS
 62
     7
  5
782
 10
10.49
 20
14.21
 30
0.0
  0
POINT
  8
1
  6
CONTINUOUS
 62
     7
  5
783
 10
10.49
 20
15.21
 30
0.0
  0
POINT
  8
1
  6
CONTINUOUS
 62
     7
  5
784
 10
10.49
 20
16.21
 30
0.0
  0
POINT
  8
1
  6
CONTINUOUS
 62
     7
  5
785
 10
5.49
 20
13.21
 30
0.0
  0
POINT
  8
1
  6
CONTINUOUS
 62
     7
  5
786
 10
6.49
 20
13.21
 30
0.0
  0
POINT
  8
1
  6
CONTINUOUS
 62
     7
  5
787
 10
7.49
 20
13.21
 30
0.0
  0
POINT
  8
1
  6
CONTINUOUS
 62
     7
  5
788
 10
8.49
 20
13.21
 30
0.0
  0
POINT
  8
1
  6
CONTINUOUS
 62
     7
  5
789
 10
9.49
 20
13.21
 30
0.0
  0
POINT
  8
1
  6
CONTINUOUS
 62
     7
  5
78A
 10
10.49
 20
13.21
 30
0.0
  0
POINT
  8
1
  6
CONTINUOUS
 62
     7
  5
78B
 10
10.76
 20
14.52
 30
0.0
  0
POINT
  8
1
  6
CONTINUOUS
 62
     7
  5
78C
 10
10.76
 20
15.52
 30
0.0
  0
POINT
  8
1
  6
CONTINUOUS
 62
     7
  5
78D
 10
10.76
 20
16.52
 30
0.0
  0
POINT
  8
1
  6
CONTINUOUS
 62
     7
  5
78E
 10
6.76
 20
13.52
 30
0.0
  0
POINT
  8
1
  6
CONTINUOUS
 62
     7
  5
78F
 10
7.76
 20
13.52
 30
0.0
  0
POINT
  8
1
  6
CONTINUOUS
 62
     7
  5
790
 10
8.76
 20
13.52
 30
0.0
  0
POINT
  8
1
  6
CONTINUOUS
 62
     7
  5
791
 10
9.76
 20
13.52
 30
0.0
  0
POINT
  8
1
  6
CONTINUOUS
 62
     7
  5
792
 10
10.76
 20
13.52
 30
0.0
  0
POINT
  8
1
  6
CONTINUOUS
 62
     7
  5
793
 10
10.47
 20
14.69
 30
0.0
  0
POINT
  8
1
  6
CONTINUOUS
 62
     7
  5
794
 10
10.47
 20
15.69
 30
0.0
  0
POINT
  8
1
  6
CONTINUOUS
 62
     7
  5
795
 10
10.47
 20
16.69
 30
0.0
  0
POINT
  8
1
  6
CONTINUOUS
 62
     7
  5
796
 10
10.47
 20
13.69
 30
0.0
  0
POINT
  8
1
  6
CONTINUOUS
 62
     7
  5
797
 10
5.47
 20
12.69
 30
0.0
  0
POINT
  8
1
  6
CONTINUOUS
 62
     7
  5
798
 10
6.47
 20
12.69
 30
0.0
  0
POINT
  8
1
  6
CONTINUOUS
 62
     7
  5
799
 10
7.47
 20
12.69
 30
0.0
  0
POINT
  8
1
  6
CONTINUOUS
 62
     7
  5
79A
 10
8.47
 20
12.69
 30
0.0
  0
POINT
  8
1
  6
CONTINUOUS
 62
     7
  5
79B
 10
9.47
 20
12.69
 30
0.0
  0
POINT
  8
1
  6
CONTINUOUS
 62
     7
  5
79C
 10
10.47
 20
12.69
 30
0.0
  0
POINT
  8
1
  6
CONTINUOUS
 62
     7
  5
79D
 10
10.47
 20
12.69
 30
0.0
  0
POINT
  8
1
  6
CONTINUOUS
 62
     7
  5
79E
 10
11.25
 20
14.72
 30
0.0
  0
POINT
  8
1
  6
CONTINUOUS
 62
     7
  5
79F
 10
11.25
 20
15.72
 30
0.0
  0
POINT
  8
1
  6
CONTINUOUS
 62
     7
  5
7A0
 10
11.25
 20
16.72
 30
0.0
  0
POINT
  8
1
  6
CONTINUOUS
 62
     7
  5
7A1
 10
11.25
 20
13.72
 30
0.0
  0
POINT
  8
1
  6
CONTINUOUS
 62
     7
  5
7A2
 10
6.25
 20
12.72
 30
0.0
  0
POINT
  8
1
  6
CONTINUOUS
 62
     7
  5
7A3
 10
7.25
 20
12.72
 30
0.0
  0
POINT
  8
1
  6
CONTINUOUS
 62
     7
  5
7A4
 10
8.25
 20
12.72
 30
0.0
  0
POINT
  8
1
  6
CONTINUOUS
 62
     7
  5
7A5
 10
9.25
 20
12.72
 30
0.0
  0
POINT
  8
1
  6
CONTINUOUS
 62
     7
  5
7A6
 10
10.25
 20
12.72
 30
0.0
  0
POINT
  8
1
  6
CONTINUOUS
 62
     7
  5
7A7
 10
11.25
 20
12.72
 30
0.0
  0
POINT
  8
1
  6
CONTINUOUS
 62
     7
  5
7A8
 10
11.34
 20
14.66
 30
0.0
  0
POINT
  8
1
  6
CONTINUOUS
 62
     7
  5
7A9
 10
11.34
 20
15.66
 30
0.0
  0
POINT
  8
1
  6
CONTINUOUS
 62
     7
  5
7AA
 10
11.34
 20
16.66
 30
0.0
  0
POINT
  8
1
  6
CONTINUOUS
 62
     7
  5
7AB
 10
11.34
 20
13.66
 30
0.0
  0
POINT
  8
1
  6
CONTINUOUS
 62
     7
  5
7AC
 10
6.34
 20
12.66
 30
0.0
  0
POINT
  8
1
  6
CONTINUOUS
 62
     7
  5
7AD
 10
7.34
 20
12.66
 30
0.0
  0
POINT
  8
1
  6
CONTINUOUS
 62
     7
  5
7AE
 10
8.34
 20
12.66
 30
0.0
  0
POINT
  8
1
  6
CONTINUOUS
 62
     7
  5
7AF
 10
9.34
 20
12.66
 30
0.0
  0
POINT
  8
1
  6
CONTINUOUS
 62
     7
  5
7B0
 10
10.34
 20
12.66
 30
0.0
  0
POINT
  8
1
  6
CONTINUOUS
 62
     7
  5
7B1
 10
11.3
 20
14.42
 30
0.0
  0
POINT
  8
1
  6
CONTINUOUS
 62
     7
  5
7B2
 10
11.3
 20
15.42
 30
0.0
  0
POINT
  8
1
  6
CONTINUOUS
 62
     7
  5
7B3
 10
11.3
 20
16.42
 30
0.0
  0
POINT
  8
1
  6
CONTINUOUS
 62
     7
  5
7B4
 10
6.3
 20
13.42
 30
0.0
  0
POINT
  8
1
  6
CONTINUOUS
 62
     7
  5
7B5
 10
7.3
 20
13.42
 30
0.0
  0
POINT
  8
1
  6
CONTINUOUS
 62
     7
  5
7B6
 10
8.3
 20
13.42
 30
0.0
  0
POINT
  8
1
  6
CONTINUOUS
 62
     7
  5
7B7
 10
9.3
 20
13.42
 30
0.0
  0
POINT
  8
1
  6
CONTINUOUS
 62
     7
  5
7B8
 10
10.3
 20
13.42
 30
0.0
  0
POINT
  8
1
  6
CONTINUOUS
 62
     7
  5
7B9
 10
11.3
 20
13.42
 30
0.0
  0
POINT
  8
1
  6
CONTINUOUS
 62
     7
  5
7BA
 10
11.06
 20
14.46
 30
0.0
  0
POINT
  8
1
  6
CONTINUOUS
 62
     7
  5
7BB
 10
11.06
 20
15.46
 30
0.0
  0
POINT
  8
1
  6
CONTINUOUS
 62
     7
  5
7BC
 10
11.06
 20
16.46
 30
0.0
  0
POINT
  8
1
  6
CONTINUOUS
 62
     7
  5
7BD
 10
7.06
 20
13.46
 30
0.0
  0
POINT
  8
1
  6
CONTINUOUS
 62
     7
  5
7BE
 10
8.06
 20
13.46
 30
0.0
  0
POINT
  8
1
  6
CONTINUOUS
 62
     7
  5
7BF
 10
9.06
 20
13.46
 30
0.0
  0
POINT
  8
1
  6
CONTINUOUS
 62
     7
  5
7C0
 10
10.06
 20
13.46
 30
0.0
  0
POINT
  8
1
  6
CONTINUOUS
 62
     7
  5
7C1
 10
11.06
 20
13.46
 30
0.0
  0
POINT
  8
1
  6
CONTINUOUS
 62
     7
  5
7C2
 10
11.07
 20
14.69
 30
0.0
  0
POINT
  8
1
  6
CONTINUOUS
 62
     7
  5
7C3
 10
11.07
 20
15.69
 30
0.0
  0
POINT
  8
1
  6
CONTINUOUS
 62
     7
  5
7C4
 10
11.07
 20
16.69
 30
0.0
  0
POINT
  8
1
  6
CONTINUOUS
 62
     7
  5
7C5
 10
11.07
 20
13.69
 30
0.0
  0
POINT
  8
1
  6
CONTINUOUS
 62
     7
  5
7C6
 10
6.07
 20
12.69
 30
0.0
  0
POINT
  8
1
  6
CONTINUOUS
 62
     7
  5
7C7
 10
7.07
 20
12.69
 30
0.0
  0
POINT
  8
1
  6
CONTINUOUS
 62
     7
  5
7C8
 10
8.07
 20
12.69
 30
0.0
  0
POINT
  8
1
  6
CONTINUOUS
 62
     7
  5
7C9
 10
9.07
 20
12.69
 30
0.0
  0
POINT
  8
1
  6
CONTINUOUS
 62
     7
  5
7CA
 10
10.07
 20
12.69
 30
0.0
  0
POINT
  8
1
  6
CONTINUOUS
 62
     7
  5
7CB
 10
11.07
 20
12.69
 30
0.0
  0
POINT
  8
1
  6
CONTINUOUS
 62
     7
  5
7CC
 10
11.04
 20
13.91
 30
0.0
  0
POINT
  8
1
  6
CONTINUOUS
 62
     7
  5
7CD
 10
11.04
 20
14.91
 30
0.0
  0
POINT
  8
1
  6
CONTINUOUS
 62
     7
  5
7CE
 10
11.04
 20
15.91
 30
0.0
  0
POINT
  8
1
  6
CONTINUOUS
 62
     7
  5
7CF
 10
11.04
 20
16.91
 30
0.0
  0
POINT
  8
1
  6
CONTINUOUS
 62
     7
  5
7D0
 10
6.04
 20
12.91
 30
0.0
  0
POINT
  8
1
  6
CONTINUOUS
 62
     7
  5
7D1
 10
7.04
 20
12.91
 30
0.0
  0
POINT
  8
1
  6
CONTINUOUS
 62
     7
  5
7D2
 10
8.039833
 20
12.91
 30
0.0
  0
POINT
  8
1
  6
CONTINUOUS
 62
     7
  5
7D3
 10
9.039833
 20
12.91
 30
0.0
  0
POINT
  8
1
  6
CONTINUOUS
 62
     7
  5
7D4
 10
10.039833
 20
12.91
 30
0.0
  0
POINT
  8
1
  6
CONTINUOUS
 62
     7
  5
7D5
 10
11.04
 20
12.91
 30
0.0
  0
POINT
  8
1
  6
CONTINUOUS
 62
     7
  5
7D6
 10
11.35
 20
13.95
 30
0.0
  0
POINT
  8
1
  6
CONTINUOUS
 62
     7
  5
7D7
 10
11.35
 20
14.95
 30
0.0
  0
POINT
  8
1
  6
CONTINUOUS
 62
     7
  5
7D8
 10
11.35
 20
15.95
 30
0.0
  0
POINT
  8
1
  6
CONTINUOUS
 62
     7
  5
7D9
 10
11.35
 20
16.95
 30
0.0
  0
POINT
  8
1
  6
CONTINUOUS
 62
     7
  5
7DA
 10
6.35
 20
12.95
 30
0.0
  0
POINT
  8
1
  6
CONTINUOUS
 62
     7
  5
7DB
 10
7.35
 20
12.95
 30
0.0
  0
POINT
  8
1
  6
CONTINUOUS
 62
     7
  5
7DC
 10
8.35
 20
12.95
 30
0.0
  0
POINT
  8
1
  6
CONTINUOUS
 62
     7
  5
7DD
 10
9.35
 20
12.95
 30
0.0
  0
POINT
  8
1
  6
CONTINUOUS
 62
     7
  5
7DE
 10
10.35
 20
12.95
 30
0.0
  0
POINT
  8
1
  6
CONTINUOUS
 62
     7
  5
7DF
 10
11.35
 20
12.95
 30
0.0
  0
POINT
  8
1
  6
CONTINUOUS
 62
     7
  5
7E0
 10
10.57
 20
13.99
 30
0.0
  0
POINT
  8
1
  6
CONTINUOUS
 62
     7
  5
7E1
 10
10.57
 20
14.99
 30
0.0
  0
POINT
  8
1
  6
CONTINUOUS
 62
     7
  5
7E2
 10
10.57
 20
15.99
 30
0.0
  0
POINT
  8
1
  6
CONTINUOUS
 62
     7
  5
7E3
 10
10.57
 20
16.989833
 30
0.0
  0
POINT
  8
1
  6
CONTINUOUS
 62
     7
  5
7E4
 10
5.57
 20
12.99
 30
0.0
  0
POINT
  8
1
  6
CONTINUOUS
 62
     7
  5
7E5
 10
6.57
 20
12.99
 30
0.0
  0
POINT
  8
1
  6
CONTINUOUS
 62
     7
  5
7E6
 10
6.57
 20
12.99
 30
0.0
  0
POINT
  8
1
  6
CONTINUOUS
 62
     7
  5
7E7
 10
7.57
 20
12.99
 30
0.0
  0
POINT
  8
1
  6
CONTINUOUS
 62
     7
  5
7E8
 10
8.57
 20
12.99
 30
0.0
  0
POINT
  8
1
  6
CONTINUOUS
 62
     7
  5
7E9
 10
9.57
 20
12.99
 30
0.0
  0
POINT
  8
1
  6
CONTINUOUS
 62
     7
  5
7EA
 10
10.57
 20
12.99
 30
0.0
  0
POINT
  8
1
  6
CONTINUOUS
 62
     7
  5
7EB
 10
10.92
 20
13.95
 30
0.0
  0
POINT
  8
1
  6
CONTINUOUS
 62
     7
  5
7EC
 10
10.92
 20
14.95
 30
0.0
  0
POINT
  8
1
  6
CONTINUOUS
 62
     7
  5
7ED
 10
10.92
 20
15.95
 30
0.0
  0
POINT
  8
1
  6
CONTINUOUS
 62
     7
  5
7EE
 10
10.92
 20
16.95
 30
0.0
  0
POINT
  8
1
  6
CONTINUOUS
 62
     7
  5
7EF
 10
5.92
 20
12.95
 30
0.0
  0
POINT
  8
1
  6
CONTINUOUS
 62
     7
  5
7F0
 10
6.92
 20
12.95
 30
0.0
  0
POINT
  8
1
  6
CONTINUOUS
 62
     7
  5
7F1
 10
7.92
 20
12.95
 30
0.0
  0
POINT
  8
1
  6
CONTINUOUS
 62
     7
  5
7F2
 10
8.92
 20
12.95
 30
0.0
  0
POINT
  8
1
  6
CONTINUOUS
 62
     7
  5
7F3
 10
9.92
 20
12.95
 30
0.0
  0
POINT
  8
1
  6
CONTINUOUS
 62
     7
  5
7F4
 10
10.92
 20
12.95
 30
0.0
  0
POINT
  8
1
  6
CONTINUOUS
 62
     7
  5
7F5
 10
10.68
 20
14.64
 30
0.0
  0
POINT
  8
1
  6
CONTINUOUS
 62
     7
  5
7F6
 10
10.68
 20
15.64
 30
0.0
  0
POINT
  8
1
  6
CONTINUOUS
 62
     7
  5
7F7
 10
10.68
 20
16.64
 30
0.0
  0
POINT
  8
1
  6
CONTINUOUS
 62
     7
  5
7F8
 10
10.68
 20
13.64
 30
0.0
  0
POINT
  8
1
  6
CONTINUOUS
 62
     7
  5
7F9
 10
5.68
 20
12.64
 30
0.0
  0
POINT
  8
1
  6
CONTINUOUS
 62
     7
  5
7FA
 10
6.68
 20
12.64
 30
0.0
  0
POINT
  8
1
  6
CONTINUOUS
 62
     7
  5
7FB
 10
7.68
 20
12.64
 30
0.0
  0
POINT
  8
1
  6
CONTINUOUS
 62
     7
  5
7FC
 10
8.68
 20
12.64
 30
0.0
  0
POINT
  8
1
  6
CONTINUOUS
 62
     7
  5
7FD
 10
9.68
 20
12.64
 30
0.0
  0
POINT
  8
1
  6
CONTINUOUS
 62
     7
  5
7FE
 10
10.68
 20
12.64
 30
0.0
  0
POINT
  8
1
  6
CONTINUOUS
 62
     7
  5
7FF
 10
10.58
 20
14.82
 30
0.0
  0
POINT
  8
1
  6
CONTINUOUS
 62
     7
  5
800
 10
10.58
 20
15.82
 30
0.0
  0
POINT
  8
1
  6
CONTINUOUS
 62
     7
  5
801
 10
10.58
 20
16.82
 30
0.0
  0
POINT
  8
1
  6
CONTINUOUS
 62
     7
  5
802
 10
10.58
 20
13.82
 30
0.0
  0
POINT
  8
1
  6
CONTINUOUS
 62
     7
  5
803
 10
5.58
 20
12.82
 30
0.0
  0
POINT
  8
1
  6
CONTINUOUS
 62
     7
  5
804
 10
6.58
 20
12.82
 30
0.0
  0
POINT
  8
1
  6
CONTINUOUS
 62
     7
  5
805
 10
7.58
 20
12.82
 30
0.0
  0
POINT
  8
1
  6
CONTINUOUS
 62
     7
  5
806
 10
8.58
 20
12.82
 30
0.0
  0
POINT
  8
1
  6
CONTINUOUS
 62
     7
  5
807
 10
9.58
 20
12.82
 30
0.0
  0
POINT
  8
1
  6
CONTINUOUS
 62
     7
  5
808
 10
10.58
 20
12.82
 30
0.0
  0
POINT
  8
1
  6
CONTINUOUS
 62
     7
  5
809
 10
10.66
 20
14.34
 30
0.0
  0
POINT
  8
1
  6
CONTINUOUS
 62
     7
  5
80A
 10
10.66
 20
15.34
 30
0.0
  0
POINT
  8
1
  6
CONTINUOUS
 62
     7
  5
80B
 10
10.66
 20
16.34
 30
0.0
  0
POINT
  8
1
  6
CONTINUOUS
 62
     7
  5
80C
 10
5.66
 20
13.34
 30
0.0
  0
POINT
  8
1
  6
CONTINUOUS
 62
     7
  5
80D
 10
6.66
 20
13.34
 30
0.0
  0
POINT
  8
1
  6
CONTINUOUS
 62
     7
  5
80E
 10
7.66
 20
13.34
 30
0.0
  0
POINT
  8
1
  6
CONTINUOUS
 62
     7
  5
80F
 10
8.66
 20
13.34
 30
0.0
  0
POINT
  8
1
  6
CONTINUOUS
 62
     7
  5
810
 10
9.66
 20
13.34
 30
0.0
  0
POINT
  8
1
  6
CONTINUOUS
 62
     7
  5
811
 10
10.66
 20
13.34
 30
0.0
  0
POINT
  8
1
  6
CONTINUOUS
 62
     7
  5
812
 10
11.36
 20
14.29
 30
0.0
  0
POINT
  8
1
  6
CONTINUOUS
 62
     7
  5
813
 10
11.36
 20
15.29
 30
0.0
  0
POINT
  8
1
  6
CONTINUOUS
 62
     7
  5
814
 10
11.36
 20
16.29
 30
0.0
  0
POINT
  8
1
  6
CONTINUOUS
 62
     7
  5
815
 10
6.36
 20
13.29
 30
0.0
  0
POINT
  8
1
  6
CONTINUOUS
 62
     7
  5
816
 10
7.36
 20
13.29
 30
0.0
  0
POINT
  8
1
  6
CONTINUOUS
 62
     7
  5
817
 10
8.36
 20
13.29
 30
0.0
  0
POINT
  8
1
  6
CONTINUOUS
 62
     7
  5
818
 10
9.36
 20
13.29
 30
0.0
  0
POINT
  8
1
  6
CONTINUOUS
 62
     7
  5
819
 10
10.36
 20
13.29
 30
0.0
  0
POINT
  8
1
  6
CONTINUOUS
 62
     7
  5
81A
 10
11.36
 20
13.29
 30
0.0
  0
POINT
  8
1
  6
CONTINUOUS
 62
     7
  5
81B
 10
10.66
 20
14.07
 30
0.0
  0
POINT
  8
1
  6
CONTINUOUS
 62
     7
  5
81C
 10
10.66
 20
15.07
 30
0.0
  0
POINT
  8
1
  6
CONTINUOUS
 62
     7
  5
81D
 10
10.66
 20
16.07
 30
0.0
  0
POINT
  8
1
  6
CONTINUOUS
 62
     7
  5
81E
 10
10.66
 20
17.07
 30
0.0
  0
POINT
  8
1
  6
CONTINUOUS
 62
     7
  5
81F
 10
5.66
 20
13.07
 30
0.0
  0
POINT
  8
1
  6
CONTINUOUS
 62
     7
  5
820
 10
6.66
 20
13.07
 30
0.0
  0
POINT
  8
1
  6
CONTINUOUS
 62
     7
  5
821
 10
7.66
 20
13.07
 30
0.0
  0
POINT
  8
1
  6
CONTINUOUS
 62
     7
  5
822
 10
8.66
 20
13.07
 30
0.0
  0
POINT
  8
1
  6
CONTINUOUS
 62
     7
  5
823
 10
9.66
 20
13.07
 30
0.0
  0
POINT
  8
1
  6
CONTINUOUS
 62
     7
  5
824
 10
10.66
 20
13.07
 30
0.0
  0
POINT
  8
1
  6
CONTINUOUS
 62
     7
  5
825
 10
11.33
 20
14.13
 30
0.0
  0
POINT
  8
1
  6
CONTINUOUS
 62
     7
  5
826
 10
11.33
 20
15.13
 30
0.0
  0
POINT
  8
1
  6
CONTINUOUS
 62
     7
  5
827
 10
11.33
 20
16.13
 30
0.0
  0
POINT
  8
1
  6
CONTINUOUS
 62
     7
  5
828
 10
11.33
 20
17.13
 30
0.0
  0
POINT
  8
1
  6
CONTINUOUS
 62
     7
  5
829
 10
6.33
 20
13.13
 30
0.0
  0
POINT
  8
1
  6
CONTINUOUS
 62
     7
  5
82A
 10
7.33
 20
13.13
 30
0.0
  0
POINT
  8
1
  6
CONTINUOUS
 62
     7
  5
82B
 10
8.33
 20
13.13
 30
0.0
  0
POINT
  8
1
  6
CONTINUOUS
 62
     7
  5
82C
 10
9.33
 20
13.13
 30
0.0
  0
POINT
  8
1
  6
CONTINUOUS
 62
     7
  5
82D
 10
10.33
 20
13.13
 30
0.0
  0
POINT
  8
1
  6
CONTINUOUS
 62
     7
  5
82E
 10
11.33
 20
13.13
 30
0.0
  0
POINT
  8
1
  6
CONTINUOUS
 62
     7
  5
82F
 10
11.33
 20
13.13
 30
0.0
  0
POINT
  8
1
  6
CONTINUOUS
 62
     7
  5
830
 10
11.01
 20
14.1
 30
0.0
  0
POINT
  8
1
  6
CONTINUOUS
 62
     7
  5
831
 10
11.01
 20
15.1
 30
0.0
  0
POINT
  8
1
  6
CONTINUOUS
 62
     7
  5
832
 10
11.01
 20
16.1
 30
0.0
  0
POINT
  8
1
  6
CONTINUOUS
 62
     7
  5
833
 10
11.01
 20
17.1
 30
0.0
  0
POINT
  8
1
  6
CONTINUOUS
 62
     7
  5
834
 10
6.01
 20
13.1
 30
0.0
  0
POINT
  8
1
  6
CONTINUOUS
 62
     7
  5
835
 10
7.01
 20
13.1
 30
0.0
  0
POINT
  8
1
  6
CONTINUOUS
 62
     7
  5
836
 10
8.01
 20
13.1
 30
0.0
  0
POINT
  8
1
  6
CONTINUOUS
 62
     7
  5
837
 10
9.01
 20
13.1
 30
0.0
  0
POINT
  8
1
  6
CONTINUOUS
 62
     7
  5
838
 10
10.01
 20
13.1
 30
0.0
  0
POINT
  8
1
  6
CONTINUOUS
 62
     7
  5
839
 10
11.01
 20
13.1
 30
0.0
  0
POINT
  8
1
  6
CONTINUOUS
 62
     7
  5
83A
 10
11.13
 20
14.05
 30
0.0
  0
POINT
  8
1
  6
CONTINUOUS
 62
     7
  5
83B
 10
11.13
 20
15.05
 30
0.0
  0
POINT
  8
1
  6
CONTINUOUS
 62
     7
  5
83C
 10
11.13
 20
16.05
 30
0.0
  0
POINT
  8
1
  6
CONTINUOUS
 62
     7
  5
83D
 10
11.13
 20
17.05
 30
0.0
  0
POINT
  8
1
  6
CONTINUOUS
 62
     7
  5
83E
 10
6.13
 20
13.05
 30
0.0
  0
POINT
  8
1
  6
CONTINUOUS
 62
     7
  5
83F
 10
7.13
 20
13.05
 30
0.0
  0
POINT
  8
1
  6
CONTINUOUS
 62
     7
  5
840
 10
8.13
 20
13.05
 30
0.0
  0
POINT
  8
1
  6
CONTINUOUS
 62
     7
  5
841
 10
9.13
 20
13.05
 30
0.0
  0
POINT
  8
1
  6
CONTINUOUS
 62
     7
  5
842
 10
10.13
 20
13.05
 30
0.0
  0
POINT
  8
1
  6
CONTINUOUS
 62
     7
  5
843
 10
11.13
 20
13.05
 30
0.0
  0
POINT
  8
1
  6
CONTINUOUS
 62
     7
  5
844
 10
11.14
 20
14.19
 30
0.0
  0
POINT
  8
1
  6
CONTINUOUS
 62
     7
  5
845
 10
11.14
 20
15.19
 30
0.0
  0
POINT
  8
1
  6
CONTINUOUS
 62
     7
  5
846
 10
11.14
 20
16.19
 30
0.0
  0
POINT
  8
1
  6
CONTINUOUS
 62
     7
  5
847
 10
6.14
 20
13.19
 30
0.0
  0
POINT
  8
1
  6
CONTINUOUS
 62
     7
  5
848
 10
7.14
 20
13.19
 30
0.0
  0
POINT
  8
1
  6
CONTINUOUS
 62
     7
  5
849
 10
8.14
 20
13.19
 30
0.0
  0
POINT
  8
1
  6
CONTINUOUS
 62
     7
  5
84A
 10
9.14
 20
13.19
 30
0.0
  0
POINT
  8
1
  6
CONTINUOUS
 62
     7
  5
84B
 10
10.14
 20
13.19
 30
0.0
  0
POINT
  8
1
  6
CONTINUOUS
 62
     7
  5
84C
 10
11.14
 20
13.19
 30
0.0
  0
POINT
  8
1
  6
CONTINUOUS
 62
     7
  5
84D
 10
10.81
 20
14.03
 30
0.0
  0
POINT
  8
1
  6
CONTINUOUS
 62
     7
  5
84E
 10
10.81
 20
15.03
 30
0.0
  0
POINT
  8
1
  6
CONTINUOUS
 62
     7
  5
84F
 10
10.81
 20
16.03
 30
0.0
  0
POINT
  8
1
  6
CONTINUOUS
 62
     7
  5
850
 10
10.81
 20
17.03
 30
0.0
  0
POINT
  8
1
  6
CONTINUOUS
 62
     7
  5
851
 10
5.81
 20
13.03
 30
0.0
  0
POINT
  8
1
  6
CONTINUOUS
 62
     7
  5
852
 10
6.81
 20
13.03
 30
0.0
  0
POINT
  8
1
  6
CONTINUOUS
 62
     7
  5
853
 10
7.81
 20
13.03
 30
0.0
  0
POINT
  8
1
  6
CONTINUOUS
 62
     7
  5
854
 10
8.81
 20
13.03
 30
0.0
  0
POINT
  8
1
  6
CONTINUOUS
 62
     7
  5
855
 10
9.81
 20
13.03
 30
0.0
  0
POINT
  8
1
  6
CONTINUOUS
 62
     7
  5
856
 10
10.81
 20
13.03
 30
0.0
  0
POINT
  8
1
  6
CONTINUOUS
 62
     7
  5
857
 10
10.93
 20
14.44
 30
0.0
  0
POINT
  8
1
  6
CONTINUOUS
 62
     7
  5
858
 10
10.93
 20
15.44
 30
0.0
  0
POINT
  8
1
  6
CONTINUOUS
 62
     7
  5
859
 10
10.93
 20
16.44
 30
0.0
  0
POINT
  8
1
  6
CONTINUOUS
 62
     7
  5
85A
 10
6.93
 20
13.44
 30
0.0
  0
POINT
  8
1
  6
CONTINUOUS
 62
     7
  5
85B
 10
7.93
 20
13.44
 30
0.0
  0
POINT
  8
1
  6
CONTINUOUS
 62
     7
  5
85C
 10
8.93
 20
13.44
 30
0.0
  0
POINT
  8
1
  6
CONTINUOUS
 62
     7
  5
85D
 10
9.93
 20
13.44
 30
0.0
  0
POINT
  8
1
  6
CONTINUOUS
 62
     7
  5
85E
 10
10.93
 20
13.44
 30
0.0
  0
POINT
  8
1
  6
CONTINUOUS
 62
     7
  5
85F
 10
10.88
 20
14.74
 30
0.0
  0
POINT
  8
1
  6
CONTINUOUS
 62
     7
  5
860
 10
10.88
 20
15.74
 30
0.0
  0
POINT
  8
1
  6
CONTINUOUS
 62
     7
  5
861
 10
10.88
 20
16.739833
 30
0.0
  0
POINT
  8
1
  6
CONTINUOUS
 62
     7
  5
862
 10
10.88
 20
13.74
 30
0.0
  0
POINT
  8
1
  6
CONTINUOUS
 62
     7
  5
863
 10
5.88
 20
12.74
 30
0.0
  0
POINT
  8
1
  6
CONTINUOUS
 62
     7
  5
864
 10
6.88
 20
12.74
 30
0.0
  0
POINT
  8
1
  6
CONTINUOUS
 62
     7
  5
865
 10
7.88
 20
12.74
 30
0.0
  0
POINT
  8
1
  6
CONTINUOUS
 62
     7
  5
866
 10
8.88
 20
12.74
 30
0.0
  0
POINT
  8
1
  6
CONTINUOUS
 62
     7
  5
867
 10
9.88
 20
12.74
 30
0.0
  0
POINT
  8
1
  6
CONTINUOUS
 62
     7
  5
868
 10
10.88
 20
12.74
 30
0.0
  0
POINT
  8
1
  6
CONTINUOUS
 62
     7
  5
869
 10
10.42
 20
14.02
 30
0.0
  0
POINT
  8
1
  6
CONTINUOUS
 62
     7
  5
86A
 10
10.42
 20
15.02
 30
0.0
  0
POINT
  8
1
  6
CONTINUOUS
 62
     7
  5
86B
 10
10.42
 20
16.02
 30
0.0
  0
POINT
  8
1
  6
CONTINUOUS
 62
     7
  5
86C
 10
5.42
 20
13.02
 30
0.0
  0
POINT
  8
1
  6
CONTINUOUS
 62
     7
  5
86D
 10
6.42
 20
13.02
 30
0.0
  0
POINT
  8
1
  6
CONTINUOUS
 62
     7
  5
86E
 10
7.42
 20
13.02
 30
0.0
  0
POINT
  8
1
  6
CONTINUOUS
 62
     7
  5
86F
 10
8.42
 20
13.02
 30
0.0
  0
POINT
  8
1
  6
CONTINUOUS
 62
     7
  5
870
 10
9.42
 20
13.02
 30
0.0
  0
POINT
  8
1
  6
CONTINUOUS
 62
     7
  5
871
 10
10.42
 20
13.02
 30
0.0
  0
POINT
  8
1
  6
CONTINUOUS
 62
     7
  5
872
 10
11.42
 20
13.02
 30
0.0
  0
ENDBLK
  8
1
  6
CONTINUOUS
 62
     7
  5
873
  0
BLOCK
  8
1
  6
CONTINUOUS
 62
     7
  5
87C
  2
$X50
 70
     0
 10
0.0
 20
0.0
 30
0.0
  3
$N50
  0
POINT
  8
1
  6
CONTINUOUS
 62
     7
  5
87D
 10
16.95
 20
14.64
 30
0.0
  0
POINT
  8
1
  6
CONTINUOUS
 62
     7
  5
87E
 10
21.95
 20
14.64
 30
0.0
  0
POINT
  8
1
  6
CONTINUOUS
 62
     7
  5
87F
 10
16.95
 20
15.64
 30
0.0
  0
POINT
  8
1
  6
CONTINUOUS
 62
     7
  5
880
 10
21.95
 20
15.64
 30
0.0
  0
POINT
  8
1
  6
CONTINUOUS
 62
     7
  5
881
 10
16.95
 20
16.64
 30
0.0
  0
POINT
  8
1
  6
CONTINUOUS
 62
     7
  5
882
 10
21.95
 20
16.64
 30
0.0
  0
POINT
  8
1
  6
CONTINUOUS
 62
     7
  5
883
 10
16.95
 20
13.64
 30
0.0
  0
POINT
  8
1
  6
CONTINUOUS
 62
     7
  5
884
 10
17.95
 20
13.64
 30
0.0
  0
POINT
  8
1
  6
CONTINUOUS
 62
     7
  5
885
 10
18.95
 20
13.64
 30
0.0
  0
POINT
  8
1
  6
CONTINUOUS
 62
     7
  5
886
 10
19.95
 20
13.64
 30
0.0
  0
POINT
  8
1
  6
CONTINUOUS
 62
     7
  5
887
 10
20.95
 20
13.64
 30
0.0
  0
POINT
  8
1
  6
CONTINUOUS
 62
     7
  5
888
 10
16.95
 20
12.64
 30
0.0
  0
POINT
  8
1
  6
CONTINUOUS
 62
     7
  5
889
 10
17.95
 20
12.64
 30
0.0
  0
POINT
  8
1
  6
CONTINUOUS
 62
     7
  5
88A
 10
18.95
 20
12.64
 30
0.0
  0
POINT
  8
1
  6
CONTINUOUS
 62
     7
  5
88B
 10
16.96
 20
14.29
 30
0.0
  0
POINT
  8
1
  6
CONTINUOUS
 62
     7
  5
88C
 10
16.96
 20
15.29
 30
0.0
  0
POINT
  8
1
  6
CONTINUOUS
 62
     7
  5
88D
 10
21.96
 20
15.29
 30
0.0
  0
POINT
  8
1
  6
CONTINUOUS
 62
     7
  5
88E
 10
16.96
 20
16.29
 30
0.0
  0
POINT
  8
1
  6
CONTINUOUS
 62
     7
  5
88F
 10
21.96
 20
16.29
 30
0.0
  0
POINT
  8
1
  6
CONTINUOUS
 62
     7
  5
890
 10
16.96
 20
13.29
 30
0.0
  0
POINT
  8
1
  6
CONTINUOUS
 62
     7
  5
891
 10
17.96
 20
13.29
 30
0.0
  0
POINT
  8
1
  6
CONTINUOUS
 62
     7
  5
892
 10
18.96
 20
13.29
 30
0.0
  0
POINT
  8
1
  6
CONTINUOUS
 62
     7
  5
893
 10
19.96
 20
13.29
 30
0.0
  0
POINT
  8
1
  6
CONTINUOUS
 62
     7
  5
894
 10
20.96
 20
13.29
 30
0.0
  0
POINT
  8
1
  6
CONTINUOUS
 62
     7
  5
895
 10
16.989833
 20
14.83
 30
0.0
  0
POINT
  8
1
  6
CONTINUOUS
 62
     7
  5
896
 10
21.99
 20
14.83
 30
0.0
  0
POINT
  8
1
  6
CONTINUOUS
 62
     7
  5
897
 10
16.989833
 20
15.83
 30
0.0
  0
POINT
  8
1
  6
CONTINUOUS
 62
     7
  5
898
 10
21.99
 20
15.83
 30
0.0
  0
POINT
  8
1
  6
CONTINUOUS
 62
     7
  5
899
 10
21.99
 20
16.829833
 30
0.0
  0
POINT
  8
1
  6
CONTINUOUS
 62
     7
  5
89A
 10
16.989833
 20
13.83
 30
0.0
  0
POINT
  8
1
  6
CONTINUOUS
 62
     7
  5
89B
 10
21.99
 20
13.83
 30
0.0
  0
POINT
  8
1
  6
CONTINUOUS
 62
     7
  5
89C
 10
16.989833
 20
12.83
 30
0.0
  0
POINT
  8
1
  6
CONTINUOUS
 62
     7
  5
89D
 10
17.989833
 20
12.83
 30
0.0
  0
POINT
  8
1
  6
CONTINUOUS
 62
     7
  5
89E
 10
18.989833
 20
12.83
 30
0.0
  0
POINT
  8
1
  6
CONTINUOUS
 62
     7
  5
89F
 10
19.989833
 20
12.83
 30
0.0
  0
POINT
  8
1
  6
CONTINUOUS
 62
     7
  5
8A0
 10
20.989833
 20
12.83
 30
0.0
  0
POINT
  8
1
  6
CONTINUOUS
 62
     7
  5
8A1
 10
21.99
 20
12.83
 30
0.0
  0
LINE
  8
1
  6
CONTINUOUS
 62
     7
  5
8A2
 10
16.469833
 20
16.519833
 30
0.0
 11
16.569833
 21
16.479833
 31
0.0
  0
LINE
  8
1
  6
CONTINUOUS
 62
     7
  5
8A3
 10
21.469833
 20
14.519833
 30
0.0
 11
21.569833
 21
14.479833
 31
0.0
  0
LINE
  8
1
  6
CONTINUOUS
 62
     7
  5
8A4
 10
21.469833
 20
15.519833
 30
0.0
 11
21.569833
 21
15.479833
 31
0.0
  0
LINE
  8
1
  6
CONTINUOUS
 62
     7
  5
8A5
 10
21.469833
 20
16.519833
 30
0.0
 11
21.569833
 21
16.479833
 31
0.0
  0
LINE
  8
1
  6
CONTINUOUS
 62
     7
  5
8A6
 10
16.469833
 20
15.519833
 30
0.0
 11
16.569833
 21
15.479833
 31
0.0
  0
LINE
  8
1
  6
CONTINUOUS
 62
     7
  5
8A7
 10
21.469833
 20
13.519833
 30
0.0
 11
21.569833
 21
13.479833
 31
0.0
  0
LINE
  8
1
  6
CONTINUOUS
 62
     7
  5
8A8
 10
20.469833
 20
13.519833
 30
0.0
 11
20.569833
 21
13.479833
 31
0.0
  0
LINE
  8
1
  6
CONTINUOUS
 62
     7
  5
8A9
 10
19.469833
 20
13.519833
 30
0.0
 11
19.569833
 21
13.479833
 31
0.0
  0
LINE
  8
1
  6
CONTINUOUS
 62
     7
  5
8AA
 10
16.482583
 20
14.514917
 30
0.0
 11
16.569833
 21
14.479833
 31
0.0
  0
LINE
  8
1
  6
CONTINUOUS
 62
     7
  5
8AB
 10
18.469833
 20
13.519833
 30
0.0
 11
18.569833
 21
13.479833
 31
0.0
  0
LINE
  8
1
  6
CONTINUOUS
 62
     7
  5
8AC
 10
17.469833
 20
13.519833
 30
0.0
 11
17.569833
 21
13.479833
 31
0.0
  0
LINE
  8
1
  6
CONTINUOUS
 62
     7
  5
8AD
 10
16.47975
 20
13.516
 30
0.0
 11
16.569833
 21
13.479833
 31
0.0
  0
LINE
  8
1
  6
CONTINUOUS
 62
     7
  5
8AE
 10
17.569833
 20
13.48
 30
0.0
 11
17.529833
 21
13.45
 31
0.0
  0
LINE
  8
1
  6
CONTINUOUS
 62
     7
  5
8AF
 10
21.569833
 20
16.48
 30
0.0
 11
21.529833
 21
16.45
 31
0.0
  0
LINE
  8
1
  6
CONTINUOUS
 62
     7
  5
8B0
 10
18.569833
 20
13.48
 30
0.0
 11
18.529833
 21
13.45
 31
0.0
  0
LINE
  8
1
  6
CONTINUOUS
 62
     7
  5
8B1
 10
21.569833
 20
15.48
 30
0.0
 11
21.529833
 21
15.45
 31
0.0
  0
LINE
  8
1
  6
CONTINUOUS
 62
     7
  5
8B2
 10
19.569833
 20
13.48
 30
0.0
 11
19.529833
 21
13.45
 31
0.0
  0
LINE
  8
1
  6
CONTINUOUS
 62
     7
  5
8B3
 10
21.569833
 20
14.48
 30
0.0
 11
21.529833
 21
14.45
 31
0.0
  0
LINE
  8
1
  6
CONTINUOUS
 62
     7
  5
8B4
 10
20.569833
 20
13.48
 30
0.0
 11
20.529833
 21
13.45
 31
0.0
  0
LINE
  8
1
  6
CONTINUOUS
 62
     7
  5
8B5
 10
21.569833
 20
13.48
 30
0.0
 11
21.529833
 21
13.45
 31
0.0
  0
LINE
  8
1
  6
CONTINUOUS
 62
     7
  5
8B6
 10
16.569833
 20
13.48
 30
0.0
 11
16.529833
 21
13.45
 31
0.0
  0
LINE
  8
1
  6
CONTINUOUS
 62
     7
  5
8B7
 10
16.569833
 20
14.48
 30
0.0
 11
16.529833
 21
14.45
 31
0.0
  0
LINE
  8
1
  6
CONTINUOUS
 62
     7
  5
8B8
 10
16.569833
 20
15.48
 30
0.0
 11
16.529833
 21
15.45
 31
0.0
  0
LINE
  8
1
  6
CONTINUOUS
 62
     7
  5
8B9
 10
16.569833
 20
16.48
 30
0.0
 11
16.529833
 21
16.45
 31
0.0
  0
LINE
  8
1
  6
CONTINUOUS
 62
     7
  5
8BA
 10
20.529833
 20
13.449833
 30
0.0
 11
20.469833
 21
13.519833
 31
0.0
  0
LINE
  8
1
  6
CONTINUOUS
 62
     7
  5
8BB
 10
19.529833
 20
13.449833
 30
0.0
 11
19.469833
 21
13.519833
 31
0.0
  0
LINE
  8
1
  6
CONTINUOUS
 62
     7
  5
8BC
 10
16.529833
 20
16.449833
 30
0.0
 11
16.469833
 21
16.519833
 31
0.0
  0
LINE
  8
1
  6
CONTINUOUS
 62
     7
  5
8BD
 10
18.529833
 20
13.449833
 30
0.0
 11
18.469833
 21
13.519833
 31
0.0
  0
LINE
  8
1
  6
CONTINUOUS
 62
     7
  5
8BE
 10
16.529833
 20
15.449833
 30
0.0
 11
16.469833
 21
15.519833
 31
0.0
  0
LINE
  8
1
  6
CONTINUOUS
 62
     7
  5
8BF
 10
17.529833
 20
13.449833
 30
0.0
 11
17.469833
 21
13.519833
 31
0.0
  0
LINE
  8
1
  6
CONTINUOUS
 62
     7
  5
8C0
 10
16.529833
 20
14.449833
 30
0.0
 11
16.480833
 21
14.507167
 31
0.0
  0
LINE
  8
1
  6
CONTINUOUS
 62
     7
  5
8C1
 10
16.529833
 20
13.449833
 30
0.0
 11
16.47825
 21
13.510083
 31
0.0
  0
LINE
  8
1
  6
CONTINUOUS
 62
     7
  5
8C2
 10
21.529833
 20
13.449833
 30
0.0
 11
21.469833
 21
13.519833
 31
0.0
  0
LINE
  8
1
  6
CONTINUOUS
 62
     7
  5
8C3
 10
21.529833
 20
14.449833
 30
0.0
 11
21.469833
 21
14.519833
 31
0.0
  0
LINE
  8
1
  6
CONTINUOUS
 62
     7
  5
8C4
 10
21.529833
 20
15.449833
 30
0.0
 11
21.469833
 21
15.519833
 31
0.0
  0
LINE
  8
1
  6
CONTINUOUS
 62
     7
  5
8C5
 10
21.529833
 20
16.449833
 30
0.0
 11
21.469833
 21
16.519833
 31
0.0
  0
LINE
  8
1
  6
CONTINUOUS
 62
     7
  5
8C6
 10
21.529833
 20
16.449833
 30
0.0
 11
21.469833
 21
16.519833
 31
0.0
  0
LINE
  8
1
  6
CONTINUOUS
 62
     7
  5
8C7
 10
17.199833
 20
13.33
 30
0.0
 11
17.179833
 21
13.32
 31
0.0
  0
LINE
  8
1
  6
CONTINUOUS
 62
     7
  5
8C8
 10
18.199833
 20
13.33
 30
0.0
 11
18.179833
 21
13.32
 31
0.0
  0
LINE
  8
1
  6
CONTINUOUS
 62
     7
  5
8C9
 10
22.199833
 20
15.33
 30
0.0
 11
22.179833
 21
15.32
 31
0.0
  0
LINE
  8
1
  6
CONTINUOUS
 62
     7
  5
8CA
 10
19.199833
 20
13.33
 30
0.0
 11
19.179833
 21
13.32
 31
0.0
  0
LINE
  8
1
  6
CONTINUOUS
 62
     7
  5
8CB
 10
20.199833
 20
13.33
 30
0.0
 11
20.179833
 21
13.32
 31
0.0
  0
LINE
  8
1
  6
CONTINUOUS
 62
     7
  5
8CC
 10
22.199833
 20
14.33
 30
0.0
 11
22.179833
 21
14.32
 31
0.0
  0
LINE
  8
1
  6
CONTINUOUS
 62
     7
  5
8CD
 10
21.199833
 20
13.33
 30
0.0
 11
21.179833
 21
13.32
 31
0.0
  0
LINE
  8
1
  6
CONTINUOUS
 62
     7
  5
8CE
 10
22.199833
 20
13.33
 30
0.0
 11
22.179833
 21
13.32
 31
0.0
  0
LINE
  8
1
  6
CONTINUOUS
 62
     7
  5
8CF
 10
22.199833
 20
16.33
 30
0.0
 11
22.179833
 21
16.32
 31
0.0
  0
LINE
  8
1
  6
CONTINUOUS
 62
     7
  5
8D0
 10
17.199833
 20
14.33
 30
0.0
 11
17.179833
 21
14.32
 31
0.0
  0
LINE
  8
1
  6
CONTINUOUS
 62
     7
  5
8D1
 10
17.199833
 20
15.33
 30
0.0
 11
17.179833
 21
15.32
 31
0.0
  0
LINE
  8
1
  6
CONTINUOUS
 62
     7
  5
8D2
 10
17.199833
 20
16.33
 30
0.0
 11
17.179833
 21
16.32
 31
0.0
  0
LINE
  8
1
  6
CONTINUOUS
 62
     7
  5
8D3
 10
17.179833
 20
16.319833
 30
0.0
 11
17.209833
 21
16.299833
 31
0.0
  0
LINE
  8
1
  6
CONTINUOUS
 62
     7
  5
8D4
 10
22.179833
 20
13.319833
 30
0.0
 11
22.209833
 21
13.299833
 31
0.0
  0
LINE
  8
1
  6
CONTINUOUS
 62
     7
  5
8D5
 10
22.179833
 20
14.319833
 30
0.0
 11
22.209833
 21
14.299833
 31
0.0
  0
LINE
  8
1
  6
CONTINUOUS
 62
     7
  5
8D6
 10
22.179833
 20
15.319833
 30
0.0
 11
22.209833
 21
15.299833
 31
0.0
  0
LINE
  8
1
  6
CONTINUOUS
 62
     7
  5
8D7
 10
22.179833
 20
16.319833
 30
0.0
 11
22.209833
 21
16.299833
 31
0.0
  0
LINE
  8
1
  6
CONTINUOUS
 62
     7
  5
8D8
 10
21.179833
 20
13.319833
 30
0.0
 11
21.209833
 21
13.299833
 31
0.0
  0
LINE
  8
1
  6
CONTINUOUS
 62
     7
  5
8D9
 10
17.179833
 20
15.319833
 30
0.0
 11
17.209833
 21
15.299833
 31
0.0
  0
LINE
  8
1
  6
CONTINUOUS
 62
     7
  5
8DA
 10
20.179833
 20
13.319833
 30
0.0
 11
20.209833
 21
13.299833
 31
0.0
  0
LINE
  8
1
  6
CONTINUOUS
 62
     7
  5
8DB
 10
19.179833
 20
13.319833
 30
0.0
 11
19.209833
 21
13.299833
 31
0.0
  0
LINE
  8
1
  6
CONTINUOUS
 62
     7
  5
8DC
 10
17.179833
 20
14.319833
 30
0.0
 11
17.209833
 21
14.299833
 31
0.0
  0
LINE
  8
1
  6
CONTINUOUS
 62
     7
  5
8DD
 10
18.179833
 20
13.319833
 30
0.0
 11
18.209833
 21
13.299833
 31
0.0
  0
LINE
  8
1
  6
CONTINUOUS
 62
     7
  5
8DE
 10
17.179833
 20
13.319833
 30
0.0
 11
17.209833
 21
13.299833
 31
0.0
  0
LINE
  8
1
  6
CONTINUOUS
 62
     7
  5
8DF
 10
19.21
 20
13.3
 30
0.0
 11
19.2
 21
13.33
 31
0.0
  0
LINE
  8
1
  6
CONTINUOUS
 62
     7
  5
8E0
 10
18.21
 20
13.3
 30
0.0
 11
18.2
 21
13.33
 31
0.0
  0
LINE
  8
1
  6
CONTINUOUS
 62
     7
  5
8E1
 10
17.21
 20
16.3
 30
0.0
 11
17.2
 21
16.33
 31
0.0
  0
LINE
  8
1
  6
CONTINUOUS
 62
     7
  5
8E2
 10
17.21
 20
15.3
 30
0.0
 11
17.2
 21
15.33
 31
0.0
  0
LINE
  8
1
  6
CONTINUOUS
 62
     7
  5
8E3
 10
17.21
 20
14.3
 30
0.0
 11
17.2
 21
14.33
 31
0.0
  0
LINE
  8
1
  6
CONTINUOUS
 62
     7
  5
8E4
 10
17.21
 20
13.3
 30
0.0
 11
17.2
 21
13.33
 31
0.0
  0
LINE
  8
1
  6
CONTINUOUS
 62
     7
  5
8E5
 10
20.21
 20
13.3
 30
0.0
 11
20.2
 21
13.33
 31
0.0
  0
LINE
  8
1
  6
CONTINUOUS
 62
     7
  5
8E6
 10
21.21
 20
13.3
 30
0.0
 11
21.2
 21
13.33
 31
0.0
  0
LINE
  8
1
  6
CONTINUOUS
 62
     7
  5
8E7
 10
22.21
 20
13.3
 30
0.0
 11
22.2
 21
13.33
 31
0.0
  0
LINE
  8
1
  6
CONTINUOUS
 62
     7
  5
8E8
 10
22.21
 20
14.3
 30
0.0
 11
22.2
 21
14.33
 31
0.0
  0
LINE
  8
1
  6
CONTINUOUS
 62
     7
  5
8E9
 10
22.21
 20
15.3
 30
0.0
 11
22.2
 21
15.33
 31
0.0
  0
LINE
  8
1
  6
CONTINUOUS
 62
     7
  5
8EA
 10
22.21
 20
16.3
 30
0.0
 11
22.2
 21
16.33
 31
0.0
  0
LINE
  8
1
  6
CONTINUOUS
 62
     7
  5
8EB
 10
16.839833
 20
13.229833
 30
0.0
 11
16.809833
 21
13.199833
 31
0.0
  0
LINE
  8
1
  6
CONTINUOUS
 62
     7
  5
8EC
 10
17.839833
 20
13.229833
 30
0.0
 11
17.809833
 21
13.199833
 31
0.0
  0
LINE
  8
1
  6
CONTINUOUS
 62
     7
  5
8ED
 10
18.839833
 20
13.229833
 30
0.0
 11
18.809833
 21
13.199833
 31
0.0
  0
LINE
  8
1
  6
CONTINUOUS
 62
     7
  5
8EE
 10
21.839833
 20
16.229833
 30
0.0
 11
21.809833
 21
16.199833
 31
0.0
  0
LINE
  8
1
  6
CONTINUOUS
 62
     7
  5
8EF
 10
19.839833
 20
13.229833
 30
0.0
 11
19.809833
 21
13.199833
 31
0.0
  0
LINE
  8
1
  6
CONTINUOUS
 62
     7
  5
8F0
 10
21.839833
 20
15.229833
 30
0.0
 11
21.809833
 21
15.199833
 31
0.0
  0
LINE
  8
1
  6
CONTINUOUS
 62
     7
  5
8F1
 10
20.839833
 20
13.229833
 30
0.0
 11
20.809833
 21
13.199833
 31
0.0
  0
LINE
  8
1
  6
CONTINUOUS
 62
     7
  5
8F2
 10
21.839833
 20
14.229833
 30
0.0
 11
21.809833
 21
14.199833
 31
0.0
  0
LINE
  8
1
  6
CONTINUOUS
 62
     7
  5
8F3
 10
21.839833
 20
13.229833
 30
0.0
 11
21.809833
 21
13.199833
 31
0.0
  0
LINE
  8
1
  6
CONTINUOUS
 62
     7
  5
8F4
 10
16.839833
 20
14.229833
 30
0.0
 11
16.809833
 21
14.199833
 31
0.0
  0
LINE
  8
1
  6
CONTINUOUS
 62
     7
  5
8F5
 10
16.839833
 20
15.229833
 30
0.0
 11
16.809833
 21
15.199833
 31
0.0
  0
LINE
  8
1
  6
CONTINUOUS
 62
     7
  5
8F6
 10
16.839833
 20
16.229833
 30
0.0
 11
16.809833
 21
16.199833
 31
0.0
  0
LINE
  8
1
  6
CONTINUOUS
 62
     7
  5
8F7
 10
16.809833
 20
14.2
 30
0.0
 11
16.87
 21
14.2
 31
0.0
  0
LINE
  8
1
  6
CONTINUOUS
 62
     7
  5
8F8
 10
21.809833
 20
14.2
 30
0.0
 11
21.865333
 21
14.2
 31
0.0
  0
LINE
  8
1
  6
CONTINUOUS
 62
     7
  5
8F9
 10
16.809833
 20
15.2
 30
0.0
 11
16.87
 21
15.2
 31
0.0
  0
LINE
  8
1
  6
CONTINUOUS
 62
     7
  5
8FA
 10
21.809833
 20
15.2
 30
0.0
 11
21.87
 21
15.2
 31
0.0
  0
LINE
  8
1
  6
CONTINUOUS
 62
     7
  5
8FB
 10
16.809833
 20
16.2
 30
0.0
 11
16.87
 21
16.2
 31
0.0
  0
LINE
  8
1
  6
CONTINUOUS
 62
     7
  5
8FC
 10
21.809833
 20
16.2
 30
0.0
 11
21.87
 21
16.2
 31
0.0
  0
LINE
  8
1
  6
CONTINUOUS
 62
     7
  5
8FD
 10
16.809833
 20
13.2
 30
0.0
 11
16.87
 21
13.2
 31
0.0
  0
LINE
  8
1
  6
CONTINUOUS
 62
     7
  5
8FE
 10
17.809833
 20
13.2
 30
0.0
 11
17.87
 21
13.2
 31
0.0
  0
LINE
  8
1
  6
CONTINUOUS
 62
     7
  5
8FF
 10
18.809833
 20
13.2
 30
0.0
 11
18.87
 21
13.2
 31
0.0
  0
LINE
  8
1
  6
CONTINUOUS
 62
     7
  5
900
 10
19.809833
 20
13.2
 30
0.0
 11
19.87
 21
13.2
 31
0.0
  0
LINE
  8
1
  6
CONTINUOUS
 62
     7
  5
901
 10
20.809833
 20
13.2
 30
0.0
 11
20.87
 21
13.2
 31
0.0
  0
LINE
  8
1
  6
CONTINUOUS
 62
     7
  5
902
 10
21.809833
 20
13.2
 30
0.0
 11
21.865333
 21
13.2
 31
0.0
  0
LINE
  8
1
  6
CONTINUOUS
 62
     7
  5
903
 10
20.87
 20
13.199833
 30
0.0
 11
20.84
 21
13.229833
 31
0.0
  0
LINE
  8
1
  6
CONTINUOUS
 62
     7
  5
904
 10
19.87
 20
13.199833
 30
0.0
 11
19.84
 21
13.229833
 31
0.0
  0
LINE
  8
1
  6
CONTINUOUS
 62
     7
  5
905
 10
16.87
 20
16.199833
 30
0.0
 11
16.84
 21
16.229833
 31
0.0
  0
LINE
  8
1
  6
CONTINUOUS
 62
     7
  5
906
 10
18.87
 20
13.199833
 30
0.0
 11
18.84
 21
13.229833
 31
0.0
  0
LINE
  8
1
  6
CONTINUOUS
 62
     7
  5
907
 10
16.87
 20
15.199833
 30
0.0
 11
16.84
 21
15.229833
 31
0.0
  0
LINE
  8
1
  6
CONTINUOUS
 62
     7
  5
908
 10
17.87
 20
13.199833
 30
0.0
 11
17.84
 21
13.229833
 31
0.0
  0
LINE
  8
1
  6
CONTINUOUS
 62
     7
  5
909
 10
16.87
 20
14.199833
 30
0.0
 11
16.84
 21
14.229833
 31
0.0
  0
LINE
  8
1
  6
CONTINUOUS
 62
     7
  5
90A
 10
16.87
 20
13.199833
 30
0.0
 11
16.84
 21
13.229833
 31
0.0
  0
LINE
  8
1
  6
CONTINUOUS
 62
     7
  5
90B
 10
21.865333
 20
13.204583
 30
0.0
 11
21.84
 21
13.229833
 31
0.0
  0
LINE
  8
1
  6
CONTINUOUS
 62
     7
  5
90C
 10
21.865333
 20
14.204583
 30
0.0
 11
21.84
 21
14.229833
 31
0.0
  0
LINE
  8
1
  6
CONTINUOUS
 62
     7
  5
90D
 10
21.87
 20
15.199833
 30
0.0
 11
21.84
 21
15.229833
 31
0.0
  0
LINE
  8
1
  6
CONTINUOUS
 62
     7
  5
90E
 10
21.87
 20
16.199833
 30
0.0
 11
21.84
 21
16.229833
 31
0.0
  0
LINE
  8
1
  6
CONTINUOUS
 62
     7
  5
90F
 10
21.87
 20
16.199833
 30
0.0
 11
21.84
 21
16.229833
 31
0.0
  0
LINE
  8
1
  6
CONTINUOUS
 62
     7
  5
910
 10
18.719833
 20
12.869833
 30
0.0
 11
18.709833
 21
12.839833
 31
0.0
  0
LINE
  8
1
  6
CONTINUOUS
 62
     7
  5
911
 10
19.719833
 20
12.869833
 30
0.0
 11
19.709833
 21
12.839833
 31
0.0
  0
LINE
  8
1
  6
CONTINUOUS
 62
     7
  5
912
 10
20.719833
 20
12.869833
 30
0.0
 11
20.709833
 21
12.839833
 31
0.0
  0
LINE
  8
1
  6
CONTINUOUS
 62
     7
  5
913
 10
21.719833
 20
15.869833
 30
0.0
 11
21.709833
 21
15.839833
 31
0.0
  0
LINE
  8
1
  6
CONTINUOUS
 62
     7
  5
914
 10
21.719833
 20
14.869833
 30
0.0
 11
21.709833
 21
14.839833
 31
0.0
  0
LINE
  8
1
  6
CONTINUOUS
 62
     7
  5
915
 10
21.719833
 20
13.869833
 30
0.0
 11
21.709833
 21
13.839833
 31
0.0
  0
LINE
  8
1
  6
CONTINUOUS
 62
     7
  5
916
 10
21.719833
 20
12.869833
 30
0.0
 11
21.709833
 21
12.839833
 31
0.0
  0
LINE
  8
1
  6
CONTINUOUS
 62
     7
  5
917
 10
17.719833
 20
12.869833
 30
0.0
 11
17.709833
 21
12.839833
 31
0.0
  0
LINE
  8
1
  6
CONTINUOUS
 62
     7
  5
918
 10
16.719833
 20
12.869833
 30
0.0
 11
16.709833
 21
12.839833
 31
0.0
  0
LINE
  8
1
  6
CONTINUOUS
 62
     7
  5
919
 10
16.719833
 20
13.869833
 30
0.0
 11
16.709833
 21
13.839833
 31
0.0
  0
LINE
  8
1
  6
CONTINUOUS
 62
     7
  5
91A
 10
16.719833
 20
14.869833
 30
0.0
 11
16.709833
 21
14.839833
 31
0.0
  0
LINE
  8
1
  6
CONTINUOUS
 62
     7
  5
91B
 10
16.719833
 20
15.869833
 30
0.0
 11
16.709833
 21
15.839833
 31
0.0
  0
LINE
  8
1
  6
CONTINUOUS
 62
     7
  5
91C
 10
16.719833
 20
16.869833
 30
0.0
 11
16.709833
 21
16.839833
 31
0.0
  0
LINE
  8
1
  6
CONTINUOUS
 62
     7
  5
91D
 10
16.71
 20
14.84
 30
0.0
 11
16.76
 21
14.84
 31
0.0
  0
LINE
  8
1
  6
CONTINUOUS
 62
     7
  5
91E
 10
21.71
 20
14.84
 30
0.0
 11
21.76
 21
14.84
 31
0.0
  0
LINE
  8
1
  6
CONTINUOUS
 62
     7
  5
91F
 10
16.71
 20
15.84
 30
0.0
 11
16.76
 21
15.84
 31
0.0
  0
LINE
  8
1
  6
CONTINUOUS
 62
     7
  5
920
 10
21.71
 20
15.84
 30
0.0
 11
21.76
 21
15.84
 31
0.0
  0
LINE
  8
1
  6
CONTINUOUS
 62
     7
  5
921
 10
16.71
 20
16.84
 30
0.0
 11
16.76
 21
16.84
 31
0.0
  0
LINE
  8
1
  6
CONTINUOUS
 62
     7
  5
922
 10
16.71
 20
13.84
 30
0.0
 11
16.76
 21
13.84
 31
0.0
  0
LINE
  8
1
  6
CONTINUOUS
 62
     7
  5
923
 10
21.71
 20
13.84
 30
0.0
 11
21.76
 21
13.84
 31
0.0
  0
LINE
  8
1
  6
CONTINUOUS
 62
     7
  5
924
 10
16.71
 20
12.84
 30
0.0
 11
16.76
 21
12.84
 31
0.0
  0
LINE
  8
1
  6
CONTINUOUS
 62
     7
  5
925
 10
17.71
 20
12.84
 30
0.0
 11
17.76
 21
12.84
 31
0.0
  0
LINE
  8
1
  6
CONTINUOUS
 62
     7
  5
926
 10
18.71
 20
12.84
 30
0.0
 11
18.76
 21
12.84
 31
0.0
  0
LINE
  8
1
  6
CONTINUOUS
 62
     7
  5
927
 10
19.71
 20
12.84
 30
0.0
 11
19.76
 21
12.84
 31
0.0
  0
LINE
  8
1
  6
CONTINUOUS
 62
     7
  5
928
 10
20.71
 20
12.84
 30
0.0
 11
20.76
 21
12.84
 31
0.0
  0
LINE
  8
1
  6
CONTINUOUS
 62
     7
  5
929
 10
21.71
 20
12.84
 30
0.0
 11
21.76
 21
12.84
 31
0.0
  0
LINE
  8
1
  6
CONTINUOUS
 62
     7
  5
92A
 10
16.76
 20
16.839833
 30
0.0
 11
16.72
 21
16.869833
 31
0.0
  0
LINE
  8
1
  6
CONTINUOUS
 62
     7
  5
92B
 10
21.76
 20
12.839833
 30
0.0
 11
21.72
 21
12.869833
 31
0.0
  0
LINE
  8
1
  6
CONTINUOUS
 62
     7
  5
92C
 10
16.76
 20
15.839833
 30
0.0
 11
16.72
 21
15.869833
 31
0.0
  0
LINE
  8
1
  6
CONTINUOUS
 62
     7
  5
92D
 10
20.76
 20
12.839833
 30
0.0
 11
20.72
 21
12.869833
 31
0.0
  0
LINE
  8
1
  6
CONTINUOUS
 62
     7
  5
92E
 10
19.76
 20
12.839833
 30
0.0
 11
19.72
 21
12.869833
 31
0.0
  0
LINE
  8
1
  6
CONTINUOUS
 62
     7
  5
92F
 10
16.76
 20
14.839833
 30
0.0
 11
16.72
 21
14.869833
 31
0.0
  0
LINE
  8
1
  6
CONTINUOUS
 62
     7
  5
930
 10
18.76
 20
12.839833
 30
0.0
 11
18.72
 21
12.869833
 31
0.0
  0
LINE
  8
1
  6
CONTINUOUS
 62
     7
  5
931
 10
16.76
 20
13.839833
 30
0.0
 11
16.72
 21
13.869833
 31
0.0
  0
LINE
  8
1
  6
CONTINUOUS
 62
     7
  5
932
 10
17.76
 20
12.839833
 30
0.0
 11
17.72
 21
12.869833
 31
0.0
  0
LINE
  8
1
  6
CONTINUOUS
 62
     7
  5
933
 10
16.76
 20
12.839833
 30
0.0
 11
16.72
 21
12.869833
 31
0.0
  0
LINE
  8
1
  6
CONTINUOUS
 62
     7
  5
934
 10
21.76
 20
13.839833
 30
0.0
 11
21.72
 21
13.869833
 31
0.0
  0
LINE
  8
1
  6
CONTINUOUS
 62
     7
  5
935
 10
21.76
 20
14.839833
 30
0.0
 11
21.72
 21
14.869833
 31
0.0
  0
LINE
  8
1
  6
CONTINUOUS
 62
     7
  5
936
 10
21.76
 20
15.839833
 30
0.0
 11
21.72
 21
15.869833
 31
0.0
  0
LINE
  8
1
  6
CONTINUOUS
 62
     7
  5
937
 10
17.189833
 20
12.88
 30
0.0
 11
17.159833
 21
12.86
 31
0.0
  0
LINE
  8
1
  6
CONTINUOUS
 62
     7
  5
938
 10
22.189833
 20
15.88
 30
0.0
 11
22.159833
 21
15.86
 31
0.0
  0
LINE
  8
1
  6
CONTINUOUS
 62
     7
  5
939
 10
18.189833
 20
12.88
 30
0.0
 11
18.159833
 21
12.86
 31
0.0
  0
LINE
  8
1
  6
CONTINUOUS
 62
     7
  5
93A
 10
19.189833
 20
12.88
 30
0.0
 11
19.159833
 21
12.86
 31
0.0
  0
LINE
  8
1
  6
CONTINUOUS
 62
     7
  5
93B
 10
22.189833
 20
14.88
 30
0.0
 11
22.159833
 21
14.86
 31
0.0
  0
LINE
  8
1
  6
CONTINUOUS
 62
     7
  5
93C
 10
20.189833
 20
12.88
 30
0.0
 11
20.159833
 21
12.86
 31
0.0
  0
LINE
  8
1
  6
CONTINUOUS
 62
     7
  5
93D
 10
22.189833
 20
13.88
 30
0.0
 11
22.159833
 21
13.86
 31
0.0
  0
LINE
  8
1
  6
CONTINUOUS
 62
     7
  5
93E
 10
21.189833
 20
12.88
 30
0.0
 11
21.159833
 21
12.86
 31
0.0
  0
LINE
  8
1
  6
CONTINUOUS
 62
     7
  5
93F
 10
22.189833
 20
12.88
 30
0.0
 11
22.159833
 21
12.86
 31
0.0
  0
LINE
  8
1
  6
CONTINUOUS
 62
     7
  5
940
 10
22.189833
 20
16.88
 30
0.0
 11
22.159833
 21
16.86
 31
0.0
  0
LINE
  8
1
  6
CONTINUOUS
 62
     7
  5
941
 10
17.189833
 20
13.88
 30
0.0
 11
17.159833
 21
13.86
 31
0.0
  0
LINE
  8
1
  6
CONTINUOUS
 62
     7
  5
942
 10
17.189833
 20
14.88
 30
0.0
 11
17.159833
 21
14.86
 31
0.0
  0
LINE
  8
1
  6
CONTINUOUS
 62
     7
  5
943
 10
17.189833
 20
15.88
 30
0.0
 11
17.159833
 21
15.86
 31
0.0
  0
LINE
  8
1
  6
CONTINUOUS
 62
     7
  5
944
 10
22.16
 20
13.86
 30
0.0
 11
22.22
 21
13.84
 31
0.0
  0
LINE
  8
1
  6
CONTINUOUS
 62
     7
  5
945
 10
17.16
 20
15.86
 30
0.0
 11
17.22
 21
15.84
 31
0.0
  0
LINE
  8
1
  6
CONTINUOUS
 62
     7
  5
946
 10
22.16
 20
14.86
 30
0.0
 11
22.22
 21
14.84
 31
0.0
  0
LINE
  8
1
  6
CONTINUOUS
 62
     7
  5
947
 10
22.16
 20
15.86
 30
0.0
 11
22.22
 21
15.84
 31
0.0
  0
LINE
  8
1
  6
CONTINUOUS
 62
     7
  5
948
 10
22.16
 20
16.86
 30
0.0
 11
22.22
 21
16.84
 31
0.0
  0
LINE
  8
1
  6
CONTINUOUS
 62
     7
  5
949
 10
17.16
 20
14.86
 30
0.0
 11
17.22
 21
14.84
 31
0.0
  0
LINE
  8
1
  6
CONTINUOUS
 62
     7
  5
94A
 10
22.16
 20
12.86
 30
0.0
 11
22.22
 21
12.84
 31
0.0
  0
LINE
  8
1
  6
CONTINUOUS
 62
     7
  5
94B
 10
21.16
 20
12.86
 30
0.0
 11
21.22
 21
12.84
 31
0.0
  0
LINE
  8
1
  6
CONTINUOUS
 62
     7
  5
94C
 10
17.16
 20
13.86
 30
0.0
 11
17.22
 21
13.84
 31
0.0
  0
LINE
  8
1
  6
CONTINUOUS
 62
     7
  5
94D
 10
20.16
 20
12.86
 30
0.0
 11
20.22
 21
12.84
 31
0.0
  0
LINE
  8
1
  6
CONTINUOUS
 62
     7
  5
94E
 10
19.16
 20
12.86
 30
0.0
 11
19.22
 21
12.84
 31
0.0
  0
LINE
  8
1
  6
CONTINUOUS
 62
     7
  5
94F
 10
18.16
 20
12.86
 30
0.0
 11
18.22
 21
12.84
 31
0.0
  0
LINE
  8
1
  6
CONTINUOUS
 62
     7
  5
950
 10
17.16
 20
12.86
 30
0.0
 11
17.22
 21
12.84
 31
0.0
  0
LINE
  8
1
  6
CONTINUOUS
 62
     7
  5
951
 10
20.22
 20
12.84
 30
0.0
 11
20.19
 21
12.88
 31
0.0
  0
LINE
  8
1
  6
CONTINUOUS
 62
     7
  5
952
 10
17.219833
 20
15.84
 30
0.0
 11
17.189833
 21
15.88
 31
0.0
  0
LINE
  8
1
  6
CONTINUOUS
 62
     7
  5
953
 10
19.22
 20
12.84
 30
0.0
 11
19.19
 21
12.88
 31
0.0
  0
LINE
  8
1
  6
CONTINUOUS
 62
     7
  5
954
 10
17.219833
 20
14.84
 30
0.0
 11
17.189833
 21
14.88
 31
0.0
  0
LINE
  8
1
  6
CONTINUOUS
 62
     7
  5
955
 10
18.22
 20
12.84
 30
0.0
 11
18.19
 21
12.88
 31
0.0
  0
LINE
  8
1
  6
CONTINUOUS
 62
     7
  5
956
 10
17.219833
 20
13.84
 30
0.0
 11
17.189833
 21
13.88
 31
0.0
  0
LINE
  8
1
  6
CONTINUOUS
 62
     7
  5
957
 10
17.22
 20
12.84
 30
0.0
 11
17.19
 21
12.88
 31
0.0
  0
LINE
  8
1
  6
CONTINUOUS
 62
     7
  5
958
 10
17.22
 20
12.84
 30
0.0
 11
17.19
 21
12.88
 31
0.0
  0
LINE
  8
1
  6
CONTINUOUS
 62
     7
  5
959
 10
21.22
 20
12.84
 30
0.0
 11
21.19
 21
12.88
 31
0.0
  0
LINE
  8
1
  6
CONTINUOUS
 62
     7
  5
95A
 10
22.22
 20
12.84
 30
0.0
 11
22.19
 21
12.88
 31
0.0
  0
LINE
  8
1
  6
CONTINUOUS
 62
     7
  5
95B
 10
22.219833
 20
13.84
 30
0.0
 11
22.189833
 21
13.88
 31
0.0
  0
LINE
  8
1
  6
CONTINUOUS
 62
     7
  5
95C
 10
22.219833
 20
14.84
 30
0.0
 11
22.189833
 21
14.88
 31
0.0
  0
LINE
  8
1
  6
CONTINUOUS
 62
     7
  5
95D
 10
22.219833
 20
15.84
 30
0.0
 11
22.189833
 21
15.88
 31
0.0
  0
LINE
  8
1
  6
CONTINUOUS
 62
     7
  5
95E
 10
22.219833
 20
16.84
 30
0.0
 11
22.189833
 21
16.88
 31
0.0
  0
POINT
  8
1
  6
CONTINUOUS
 62
     7
  5
95F
 10
16.48
 20
14.84
 30
0.0
  0
POINT
  8
1
  6
CONTINUOUS
 62
     7
  5
960
 10
21.48
 20
14.84
 30
0.0
  0
POINT
  8
1
  6
CONTINUOUS
 62
     7
  5
961
 10
16.48
 20
15.84
 30
0.0
  0
POINT
  8
1
  6
CONTINUOUS
 62
     7
  5
962
 10
21.48
 20
15.84
 30
0.0
  0
POINT
  8
1
  6
CONTINUOUS
 62
     7
  5
963
 10
16.48
 20
16.84
 30
0.0
  0
POINT
  8
1
  6
CONTINUOUS
 62
     7
  5
964
 10
16.48
 20
13.84
 30
0.0
  0
POINT
  8
1
  6
CONTINUOUS
 62
     7
  5
965
 10
21.48
 20
13.84
 30
0.0
  0
POINT
  8
1
  6
CONTINUOUS
 62
     7
  5
966
 10
16.48
 20
12.84
 30
0.0
  0
POINT
  8
1
  6
CONTINUOUS
 62
     7
  5
967
 10
17.48
 20
12.84
 30
0.0
  0
POINT
  8
1
  6
CONTINUOUS
 62
     7
  5
968
 10
18.48
 20
12.84
 30
0.0
  0
POINT
  8
1
  6
CONTINUOUS
 62
     7
  5
969
 10
19.48
 20
12.84
 30
0.0
  0
POINT
  8
1
  6
CONTINUOUS
 62
     7
  5
96A
 10
20.48
 20
12.84
 30
0.0
  0
POINT
  8
1
  6
CONTINUOUS
 62
     7
  5
96B
 10
21.48
 20
12.84
 30
0.0
  0
POINT
  8
1
  6
CONTINUOUS
 62
     7
  5
96C
 10
17.21
 20
14.58
 30
0.0
  0
POINT
  8
1
  6
CONTINUOUS
 62
     7
  5
96D
 10
22.21
 20
14.58
 30
0.0
  0
POINT
  8
1
  6
CONTINUOUS
 62
     7
  5
96E
 10
17.21
 20
15.58
 30
0.0
  0
POINT
  8
1
  6
CONTINUOUS
 62
     7
  5
96F
 10
22.21
 20
15.58
 30
0.0
  0
POINT
  8
1
  6
CONTINUOUS
 62
     7
  5
970
 10
17.21
 20
16.579833
 30
0.0
  0
POINT
  8
1
  6
CONTINUOUS
 62
     7
  5
971
 10
22.21
 20
16.579833
 30
0.0
  0
POINT
  8
1
  6
CONTINUOUS
 62
     7
  5
972
 10
17.21
 20
13.58
 30
0.0
  0
POINT
  8
1
  6
CONTINUOUS
 62
     7
  5
973
 10
18.21
 20
13.58
 30
0.0
  0
POINT
  8
1
  6
CONTINUOUS
 62
     7
  5
974
 10
19.21
 20
13.58
 30
0.0
  0
POINT
  8
1
  6
CONTINUOUS
 62
     7
  5
975
 10
20.21
 20
13.58
 30
0.0
  0
POINT
  8
1
  6
CONTINUOUS
 62
     7
  5
976
 10
21.21
 20
13.58
 30
0.0
  0
POINT
  8
1
  6
CONTINUOUS
 62
     7
  5
977
 10
22.21
 20
13.58
 30
0.0
  0
POINT
  8
1
  6
CONTINUOUS
 62
     7
  5
978
 10
19.21
 20
12.58
 30
0.0
  0
POINT
  8
1
  6
CONTINUOUS
 62
     7
  5
979
 10
16.489833
 20
14.21
 30
0.0
  0
POINT
  8
1
  6
CONTINUOUS
 62
     7
  5
97A
 10
21.489833
 20
14.21
 30
0.0
  0
POINT
  8
1
  6
CONTINUOUS
 62
     7
  5
97B
 10
16.489833
 20
15.21
 30
0.0
  0
POINT
  8
1
  6
CONTINUOUS
 62
     7
  5
97C
 10
21.489833
 20
15.21
 30
0.0
  0
POINT
  8
1
  6
CONTINUOUS
 62
     7
  5
97D
 10
16.489833
 20
16.21
 30
0.0
  0
POINT
  8
1
  6
CONTINUOUS
 62
     7
  5
97E
 10
21.489833
 20
16.21
 30
0.0
  0
POINT
  8
1
  6
CONTINUOUS
 62
     7
  5
97F
 10
16.489833
 20
13.21
 30
0.0
  0
POINT
  8
1
  6
CONTINUOUS
 62
     7
  5
980
 10
17.489833
 20
13.21
 30
0.0
  0
POINT
  8
1
  6
CONTINUOUS
 62
     7
  5
981
 10
18.489833
 20
13.21
 30
0.0
  0
POINT
  8
1
  6
CONTINUOUS
 62
     7
  5
982
 10
19.489833
 20
13.21
 30
0.0
  0
POINT
  8
1
  6
CONTINUOUS
 62
     7
  5
983
 10
20.489833
 20
13.21
 30
0.0
  0
POINT
  8
1
  6
CONTINUOUS
 62
     7
  5
984
 10
21.489833
 20
13.21
 30
0.0
  0
POINT
  8
1
  6
CONTINUOUS
 62
     7
  5
985
 10
16.76
 20
14.52
 30
0.0
  0
POINT
  8
1
  6
CONTINUOUS
 62
     7
  5
986
 10
21.76
 20
14.52
 30
0.0
  0
POINT
  8
1
  6
CONTINUOUS
 62
     7
  5
987
 10
16.76
 20
15.52
 30
0.0
  0
POINT
  8
1
  6
CONTINUOUS
 62
     7
  5
988
 10
21.76
 20
15.52
 30
0.0
  0
POINT
  8
1
  6
CONTINUOUS
 62
     7
  5
989
 10
16.76
 20
16.52
 30
0.0
  0
POINT
  8
1
  6
CONTINUOUS
 62
     7
  5
98A
 10
21.76
 20
16.52
 30
0.0
  0
POINT
  8
1
  6
CONTINUOUS
 62
     7
  5
98B
 10
16.76
 20
13.52
 30
0.0
  0
POINT
  8
1
  6
CONTINUOUS
 62
     7
  5
98C
 10
17.76
 20
13.52
 30
0.0
  0
POINT
  8
1
  6
CONTINUOUS
 62
     7
  5
98D
 10
18.76
 20
13.52
 30
0.0
  0
POINT
  8
1
  6
CONTINUOUS
 62
     7
  5
98E
 10
19.76
 20
13.52
 30
0.0
  0
POINT
  8
1
  6
CONTINUOUS
 62
     7
  5
98F
 10
20.76
 20
13.52
 30
0.0
  0
POINT
  8
1
  6
CONTINUOUS
 62
     7
  5
990
 10
21.76
 20
13.52
 30
0.0
  0
POINT
  8
1
  6
CONTINUOUS
 62
     7
  5
991
 10
21.47
 20
14.69
 30
0.0
  0
POINT
  8
1
  6
CONTINUOUS
 62
     7
  5
992
 10
16.47
 20
15.69
 30
0.0
  0
POINT
  8
1
  6
CONTINUOUS
 62
     7
  5
993
 10
21.47
 20
15.69
 30
0.0
  0
POINT
  8
1
  6
CONTINUOUS
 62
     7
  5
994
 10
16.47
 20
16.69
 30
0.0
  0
POINT
  8
1
  6
CONTINUOUS
 62
     7
  5
995
 10
21.47
 20
16.69
 30
0.0
  0
POINT
  8
1
  6
CONTINUOUS
 62
     7
  5
996
 10
16.47
 20
13.69
 30
0.0
  0
POINT
  8
1
  6
CONTINUOUS
 62
     7
  5
997
 10
21.47
 20
13.69
 30
0.0
  0
POINT
  8
1
  6
CONTINUOUS
 62
     7
  5
998
 10
17.47
 20
12.69
 30
0.0
  0
POINT
  8
1
  6
CONTINUOUS
 62
     7
  5
999
 10
18.47
 20
12.69
 30
0.0
  0
POINT
  8
1
  6
CONTINUOUS
 62
     7
  5
99A
 10
19.47
 20
12.69
 30
0.0
  0
POINT
  8
1
  6
CONTINUOUS
 62
     7
  5
99B
 10
20.47
 20
12.69
 30
0.0
  0
POINT
  8
1
  6
CONTINUOUS
 62
     7
  5
99C
 10
21.47
 20
12.69
 30
0.0
  0
POINT
  8
1
  6
CONTINUOUS
 62
     7
  5
99D
 10
17.25
 20
14.72
 30
0.0
  0
POINT
  8
1
  6
CONTINUOUS
 62
     7
  5
99E
 10
22.25
 20
14.72
 30
0.0
  0
POINT
  8
1
  6
CONTINUOUS
 62
     7
  5
99F
 10
17.25
 20
15.72
 30
0.0
  0
POINT
  8
1
  6
CONTINUOUS
 62
     7
  5
9A0
 10
22.25
 20
15.72
 30
0.0
  0
POINT
  8
1
  6
CONTINUOUS
 62
     7
  5
9A1
 10
22.25
 20
15.72
 30
0.0
  0
POINT
  8
1
  6
CONTINUOUS
 62
     7
  5
9A2
 10
17.25
 20
16.72
 30
0.0
  0
POINT
  8
1
  6
CONTINUOUS
 62
     7
  5
9A3
 10
22.25
 20
16.72
 30
0.0
  0
POINT
  8
1
  6
CONTINUOUS
 62
     7
  5
9A4
 10
17.25
 20
13.72
 30
0.0
  0
POINT
  8
1
  6
CONTINUOUS
 62
     7
  5
9A5
 10
22.25
 20
13.72
 30
0.0
  0
POINT
  8
1
  6
CONTINUOUS
 62
     7
  5
9A6
 10
17.25
 20
12.72
 30
0.0
  0
POINT
  8
1
  6
CONTINUOUS
 62
     7
  5
9A7
 10
18.25
 20
12.72
 30
0.0
  0
POINT
  8
1
  6
CONTINUOUS
 62
     7
  5
9A8
 10
19.25
 20
12.72
 30
0.0
  0
POINT
  8
1
  6
CONTINUOUS
 62
     7
  5
9A9
 10
20.25
 20
12.72
 30
0.0
  0
POINT
  8
1
  6
CONTINUOUS
 62
     7
  5
9AA
 10
21.25
 20
12.72
 30
0.0
  0
POINT
  8
1
  6
CONTINUOUS
 62
     7
  5
9AB
 10
22.25
 20
12.72
 30
0.0
  0
POINT
  8
1
  6
CONTINUOUS
 62
     7
  5
9AC
 10
17.34
 20
14.66
 30
0.0
  0
POINT
  8
1
  6
CONTINUOUS
 62
     7
  5
9AD
 10
22.34
 20
14.66
 30
0.0
  0
POINT
  8
1
  6
CONTINUOUS
 62
     7
  5
9AE
 10
17.34
 20
15.66
 30
0.0
  0
POINT
  8
1
  6
CONTINUOUS
 62
     7
  5
9AF
 10
22.34
 20
15.66
 30
0.0
  0
POINT
  8
1
  6
CONTINUOUS
 62
     7
  5
9B0
 10
17.34
 20
16.66
 30
0.0
  0
POINT
  8
1
  6
CONTINUOUS
 62
     7
  5
9B1
 10
22.34
 20
16.66
 30
0.0
  0
POINT
  8
1
  6
CONTINUOUS
 62
     7
  5
9B2
 10
17.34
 20
13.66
 30
0.0
  0
POINT
  8
1
  6
CONTINUOUS
 62
     7
  5
9B3
 10
18.34
 20
13.66
 30
0.0
  0
POINT
  8
1
  6
CONTINUOUS
 62
     7
  5
9B4
 10
19.34
 20
13.66
 30
0.0
  0
POINT
  8
1
  6
CONTINUOUS
 62
     7
  5
9B5
 10
20.34
 20
13.66
 30
0.0
  0
POINT
  8
1
  6
CONTINUOUS
 62
     7
  5
9B6
 10
21.34
 20
13.66
 30
0.0
  0
POINT
  8
1
  6
CONTINUOUS
 62
     7
  5
9B7
 10
22.34
 20
13.66
 30
0.0
  0
POINT
  8
1
  6
CONTINUOUS
 62
     7
  5
9B8
 10
17.34
 20
12.66
 30
0.0
  0
POINT
  8
1
  6
CONTINUOUS
 62
     7
  5
9B9
 10
18.34
 20
12.66
 30
0.0
  0
POINT
  8
1
  6
CONTINUOUS
 62
     7
  5
9BA
 10
19.34
 20
12.66
 30
0.0
  0
POINT
  8
1
  6
CONTINUOUS
 62
     7
  5
9BB
 10
20.34
 20
12.66
 30
0.0
  0
POINT
  8
1
  6
CONTINUOUS
 62
     7
  5
9BC
 10
21.34
 20
12.66
 30
0.0
  0
POINT
  8
1
  6
CONTINUOUS
 62
     7
  5
9BD
 10
17.3
 20
14.42
 30
0.0
  0
POINT
  8
1
  6
CONTINUOUS
 62
     7
  5
9BE
 10
22.3
 20
14.42
 30
0.0
  0
POINT
  8
1
  6
CONTINUOUS
 62
     7
  5
9BF
 10
17.3
 20
15.42
 30
0.0
  0
POINT
  8
1
  6
CONTINUOUS
 62
     7
  5
9C0
 10
22.3
 20
15.42
 30
0.0
  0
POINT
  8
1
  6
CONTINUOUS
 62
     7
  5
9C1
 10
17.3
 20
16.42
 30
0.0
  0
POINT
  8
1
  6
CONTINUOUS
 62
     7
  5
9C2
 10
22.3
 20
16.42
 30
0.0
  0
POINT
  8
1
  6
CONTINUOUS
 62
     7
  5
9C3
 10
17.3
 20
13.42
 30
0.0
  0
POINT
  8
1
  6
CONTINUOUS
 62
     7
  5
9C4
 10
18.3
 20
13.42
 30
0.0
  0
POINT
  8
1
  6
CONTINUOUS
 62
     7
  5
9C5
 10
19.3
 20
13.42
 30
0.0
  0
POINT
  8
1
  6
CONTINUOUS
 62
     7
  5
9C6
 10
20.3
 20
13.42
 30
0.0
  0
POINT
  8
1
  6
CONTINUOUS
 62
     7
  5
9C7
 10
21.3
 20
13.42
 30
0.0
  0
POINT
  8
1
  6
CONTINUOUS
 62
     7
  5
9C8
 10
22.3
 20
13.42
 30
0.0
  0
POINT
  8
1
  6
CONTINUOUS
 62
     7
  5
9C9
 10
17.059833
 20
14.46
 30
0.0
  0
POINT
  8
1
  6
CONTINUOUS
 62
     7
  5
9CA
 10
22.06
 20
14.46
 30
0.0
  0
POINT
  8
1
  6
CONTINUOUS
 62
     7
  5
9CB
 10
17.059833
 20
15.46
 30
0.0
  0
POINT
  8
1
  6
CONTINUOUS
 62
     7
  5
9CC
 10
22.06
 20
15.46
 30
0.0
  0
POINT
  8
1
  6
CONTINUOUS
 62
     7
  5
9CD
 10
17.059833
 20
16.46
 30
0.0
  0
POINT
  8
1
  6
CONTINUOUS
 62
     7
  5
9CE
 10
22.06
 20
16.46
 30
0.0
  0
POINT
  8
1
  6
CONTINUOUS
 62
     7
  5
9CF
 10
17.059833
 20
13.46
 30
0.0
  0
POINT
  8
1
  6
CONTINUOUS
 62
     7
  5
9D0
 10
18.059833
 20
13.46
 30
0.0
  0
POINT
  8
1
  6
CONTINUOUS
 62
     7
  5
9D1
 10
19.059833
 20
13.46
 30
0.0
  0
POINT
  8
1
  6
CONTINUOUS
 62
     7
  5
9D2
 10
20.059833
 20
13.46
 30
0.0
  0
POINT
  8
1
  6
CONTINUOUS
 62
     7
  5
9D3
 10
21.059833
 20
13.46
 30
0.0
  0
POINT
  8
1
  6
CONTINUOUS
 62
     7
  5
9D4
 10
22.06
 20
13.46
 30
0.0
  0
POINT
  8
1
  6
CONTINUOUS
 62
     7
  5
9D5
 10
17.07
 20
14.69
 30
0.0
  0
POINT
  8
1
  6
CONTINUOUS
 62
     7
  5
9D6
 10
22.07
 20
14.69
 30
0.0
  0
POINT
  8
1
  6
CONTINUOUS
 62
     7
  5
9D7
 10
17.07
 20
15.69
 30
0.0
  0
POINT
  8
1
  6
CONTINUOUS
 62
     7
  5
9D8
 10
22.07
 20
15.69
 30
0.0
  0
POINT
  8
1
  6
CONTINUOUS
 62
     7
  5
9D9
 10
17.07
 20
16.69
 30
0.0
  0
POINT
  8
1
  6
CONTINUOUS
 62
     7
  5
9DA
 10
22.07
 20
16.69
 30
0.0
  0
POINT
  8
1
  6
CONTINUOUS
 62
     7
  5
9DB
 10
17.07
 20
13.69
 30
0.0
  0
POINT
  8
1
  6
CONTINUOUS
 62
     7
  5
9DC
 10
22.07
 20
13.69
 30
0.0
  0
POINT
  8
1
  6
CONTINUOUS
 62
     7
  5
9DD
 10
17.07
 20
12.69
 30
0.0
  0
POINT
  8
1
  6
CONTINUOUS
 62
     7
  5
9DE
 10
18.07
 20
12.69
 30
0.0
  0
POINT
  8
1
  6
CONTINUOUS
 62
     7
  5
9DF
 10
19.07
 20
12.69
 30
0.0
  0
POINT
  8
1
  6
CONTINUOUS
 62
     7
  5
9E0
 10
20.07
 20
12.69
 30
0.0
  0
POINT
  8
1
  6
CONTINUOUS
 62
     7
  5
9E1
 10
21.07
 20
12.69
 30
0.0
  0
POINT
  8
1
  6
CONTINUOUS
 62
     7
  5
9E2
 10
22.07
 20
12.69
 30
0.0
  0
POINT
  8
1
  6
CONTINUOUS
 62
     7
  5
9E3
 10
17.04
 20
13.91
 30
0.0
  0
POINT
  8
1
  6
CONTINUOUS
 62
     7
  5
9E4
 10
22.04
 20
13.91
 30
0.0
  0
POINT
  8
1
  6
CONTINUOUS
 62
     7
  5
9E5
 10
17.04
 20
14.91
 30
0.0
  0
POINT
  8
1
  6
CONTINUOUS
 62
     7
  5
9E6
 10
22.04
 20
14.91
 30
0.0
  0
POINT
  8
1
  6
CONTINUOUS
 62
     7
  5
9E7
 10
17.04
 20
15.91
 30
0.0
  0
POINT
  8
1
  6
CONTINUOUS
 62
     7
  5
9E8
 10
22.04
 20
15.91
 30
0.0
  0
POINT
  8
1
  6
CONTINUOUS
 62
     7
  5
9E9
 10
22.04
 20
16.91
 30
0.0
  0
POINT
  8
1
  6
CONTINUOUS
 62
     7
  5
9EA
 10
22.04
 20
16.91
 30
0.0
  0
POINT
  8
1
  6
CONTINUOUS
 62
     7
  5
9EB
 10
17.04
 20
12.91
 30
0.0
  0
POINT
  8
1
  6
CONTINUOUS
 62
     7
  5
9EC
 10
18.04
 20
12.91
 30
0.0
  0
POINT
  8
1
  6
CONTINUOUS
 62
     7
  5
9ED
 10
19.04
 20
12.91
 30
0.0
  0
POINT
  8
1
  6
CONTINUOUS
 62
     7
  5
9EE
 10
20.04
 20
12.91
 30
0.0
  0
POINT
  8
1
  6
CONTINUOUS
 62
     7
  5
9EF
 10
21.04
 20
12.91
 30
0.0
  0
POINT
  8
1
  6
CONTINUOUS
 62
     7
  5
9F0
 10
22.04
 20
12.91
 30
0.0
  0
POINT
  8
1
  6
CONTINUOUS
 62
     7
  5
9F1
 10
17.35
 20
13.95
 30
0.0
  0
POINT
  8
1
  6
CONTINUOUS
 62
     7
  5
9F2
 10
22.35
 20
13.95
 30
0.0
  0
POINT
  8
1
  6
CONTINUOUS
 62
     7
  5
9F3
 10
17.35
 20
14.95
 30
0.0
  0
POINT
  8
1
  6
CONTINUOUS
 62
     7
  5
9F4
 10
22.35
 20
14.95
 30
0.0
  0
POINT
  8
1
  6
CONTINUOUS
 62
     7
  5
9F5
 10
17.35
 20
15.95
 30
0.0
  0
POINT
  8
1
  6
CONTINUOUS
 62
     7
  5
9F6
 10
22.35
 20
15.95
 30
0.0
  0
POINT
  8
1
  6
CONTINUOUS
 62
     7
  5
9F7
 10
22.35
 20
16.95
 30
0.0
  0
POINT
  8
1
  6
CONTINUOUS
 62
     7
  5
9F8
 10
17.35
 20
12.95
 30
0.0
  0
POINT
  8
1
  6
CONTINUOUS
 62
     7
  5
9F9
 10
18.35
 20
12.95
 30
0.0
  0
POINT
  8
1
  6
CONTINUOUS
 62
     7
  5
9FA
 10
19.35
 20
12.95
 30
0.0
  0
POINT
  8
1
  6
CONTINUOUS
 62
     7
  5
9FB
 10
20.35
 20
12.95
 30
0.0
  0
POINT
  8
1
  6
CONTINUOUS
 62
     7
  5
9FC
 10
21.35
 20
12.95
 30
0.0
  0
POINT
  8
1
  6
CONTINUOUS
 62
     7
  5
9FD
 10
22.35
 20
12.95
 30
0.0
  0
POINT
  8
1
  6
CONTINUOUS
 62
     7
  5
9FE
 10
16.57
 20
13.99
 30
0.0
  0
POINT
  8
1
  6
CONTINUOUS
 62
     7
  5
9FF
 10
21.57
 20
13.99
 30
0.0
  0
POINT
  8
1
  6
CONTINUOUS
 62
     7
  5
A00
 10
16.57
 20
14.99
 30
0.0
  0
POINT
  8
1
  6
CONTINUOUS
 62
     7
  5
A01
 10
21.57
 20
14.99
 30
0.0
  0
POINT
  8
1
  6
CONTINUOUS
 62
     7
  5
A02
 10
16.57
 20
15.99
 30
0.0
  0
POINT
  8
1
  6
CONTINUOUS
 62
     7
  5
A03
 10
21.57
 20
15.99
 30
0.0
  0
POINT
  8
1
  6
CONTINUOUS
 62
     7
  5
A04
 10
16.57
 20
16.989833
 30
0.0
  0
POINT
  8
1
  6
CONTINUOUS
 62
     7
  5
A05
 10
16.57
 20
12.99
 30
0.0
  0
POINT
  8
1
  6
CONTINUOUS
 62
     7
  5
A06
 10
17.57
 20
12.99
 30
0.0
  0
POINT
  8
1
  6
CONTINUOUS
 62
     7
  5
A07
 10
18.57
 20
12.99
 30
0.0
  0
POINT
  8
1
  6
CONTINUOUS
 62
     7
  5
A08
 10
19.57
 20
12.99
 30
0.0
  0
POINT
  8
1
  6
CONTINUOUS
 62
     7
  5
A09
 10
20.57
 20
12.99
 30
0.0
  0
POINT
  8
1
  6
CONTINUOUS
 62
     7
  5
A0A
 10
21.57
 20
12.99
 30
0.0
  0
POINT
  8
1
  6
CONTINUOUS
 62
     7
  5
A0B
 10
16.92
 20
13.95
 30
0.0
  0
POINT
  8
1
  6
CONTINUOUS
 62
     7
  5
A0C
 10
16.92
 20
14.95
 30
0.0
  0
POINT
  8
1
  6
CONTINUOUS
 62
     7
  5
A0D
 10
21.92
 20
14.95
 30
0.0
  0
POINT
  8
1
  6
CONTINUOUS
 62
     7
  5
A0E
 10
16.92
 20
15.95
 30
0.0
  0
POINT
  8
1
  6
CONTINUOUS
 62
     7
  5
A0F
 10
21.92
 20
15.95
 30
0.0
  0
POINT
  8
1
  6
CONTINUOUS
 62
     7
  5
A10
 10
16.92
 20
16.95
 30
0.0
  0
POINT
  8
1
  6
CONTINUOUS
 62
     7
  5
A11
 10
21.92
 20
16.95
 30
0.0
  0
POINT
  8
1
  6
CONTINUOUS
 62
     7
  5
A12
 10
16.92
 20
12.95
 30
0.0
  0
POINT
  8
1
  6
CONTINUOUS
 62
     7
  5
A13
 10
17.92
 20
12.95
 30
0.0
  0
POINT
  8
1
  6
CONTINUOUS
 62
     7
  5
A14
 10
18.92
 20
12.95
 30
0.0
  0
POINT
  8
1
  6
CONTINUOUS
 62
     7
  5
A15
 10
19.92
 20
12.95
 30
0.0
  0
POINT
  8
1
  6
CONTINUOUS
 62
     7
  5
A16
 10
20.92
 20
12.95
 30
0.0
  0
POINT
  8
1
  6
CONTINUOUS
 62
     7
  5
A17
 10
21.92
 20
12.95
 30
0.0
  0
POINT
  8
1
  6
CONTINUOUS
 62
     7
  5
A18
 10
16.68
 20
14.64
 30
0.0
  0
POINT
  8
1
  6
CONTINUOUS
 62
     7
  5
A19
 10
21.68
 20
14.64
 30
0.0
  0
POINT
  8
1
  6
CONTINUOUS
 62
     7
  5
A1A
 10
16.68
 20
15.64
 30
0.0
  0
POINT
  8
1
  6
CONTINUOUS
 62
     7
  5
A1B
 10
21.68
 20
15.64
 30
0.0
  0
POINT
  8
1
  6
CONTINUOUS
 62
     7
  5
A1C
 10
16.68
 20
16.64
 30
0.0
  0
POINT
  8
1
  6
CONTINUOUS
 62
     7
  5
A1D
 10
21.68
 20
16.64
 30
0.0
  0
POINT
  8
1
  6
CONTINUOUS
 62
     7
  5
A1E
 10
16.68
 20
13.64
 30
0.0
  0
POINT
  8
1
  6
CONTINUOUS
 62
     7
  5
A1F
 10
17.68
 20
13.64
 30
0.0
  0
POINT
  8
1
  6
CONTINUOUS
 62
     7
  5
A20
 10
18.68
 20
13.64
 30
0.0
  0
POINT
  8
1
  6
CONTINUOUS
 62
     7
  5
A21
 10
19.68
 20
13.64
 30
0.0
  0
POINT
  8
1
  6
CONTINUOUS
 62
     7
  5
A22
 10
20.68
 20
13.64
 30
0.0
  0
POINT
  8
1
  6
CONTINUOUS
 62
     7
  5
A23
 10
21.68
 20
13.64
 30
0.0
  0
POINT
  8
1
  6
CONTINUOUS
 62
     7
  5
A24
 10
16.68
 20
12.64
 30
0.0
  0
POINT
  8
1
  6
CONTINUOUS
 62
     7
  5
A25
 10
17.68
 20
12.64
 30
0.0
  0
POINT
  8
1
  6
CONTINUOUS
 62
     7
  5
A26
 10
18.68
 20
12.64
 30
0.0
  0
POINT
  8
1
  6
CONTINUOUS
 62
     7
  5
A27
 10
19.68
 20
12.64
 30
0.0
  0
POINT
  8
1
  6
CONTINUOUS
 62
     7
  5
A28
 10
16.579833
 20
14.82
 30
0.0
  0
POINT
  8
1
  6
CONTINUOUS
 62
     7
  5
A29
 10
21.579833
 20
14.82
 30
0.0
  0
POINT
  8
1
  6
CONTINUOUS
 62
     7
  5
A2A
 10
16.579833
 20
15.82
 30
0.0
  0
POINT
  8
1
  6
CONTINUOUS
 62
     7
  5
A2B
 10
21.579833
 20
15.82
 30
0.0
  0
POINT
  8
1
  6
CONTINUOUS
 62
     7
  5
A2C
 10
16.579833
 20
16.82
 30
0.0
  0
POINT
  8
1
  6
CONTINUOUS
 62
     7
  5
A2D
 10
16.579833
 20
13.82
 30
0.0
  0
POINT
  8
1
  6
CONTINUOUS
 62
     7
  5
A2E
 10
21.579833
 20
13.82
 30
0.0
  0
POINT
  8
1
  6
CONTINUOUS
 62
     7
  5
A2F
 10
16.579833
 20
12.82
 30
0.0
  0
POINT
  8
1
  6
CONTINUOUS
 62
     7
  5
A30
 10
17.579833
 20
12.82
 30
0.0
  0
POINT
  8
1
  6
CONTINUOUS
 62
     7
  5
A31
 10
18.579833
 20
12.82
 30
0.0
  0
POINT
  8
1
  6
CONTINUOUS
 62
     7
  5
A32
 10
19.579833
 20
12.82
 30
0.0
  0
POINT
  8
1
  6
CONTINUOUS
 62
     7
  5
A33
 10
19.579833
 20
12.82
 30
0.0
  0
POINT
  8
1
  6
CONTINUOUS
 62
     7
  5
A34
 10
20.579833
 20
12.82
 30
0.0
  0
POINT
  8
1
  6
CONTINUOUS
 62
     7
  5
A35
 10
21.579833
 20
12.82
 30
0.0
  0
POINT
  8
1
  6
CONTINUOUS
 62
     7
  5
A36
 10
16.66
 20
14.34
 30
0.0
  0
POINT
  8
1
  6
CONTINUOUS
 62
     7
  5
A37
 10
21.66
 20
14.34
 30
0.0
  0
POINT
  8
1
  6
CONTINUOUS
 62
     7
  5
A38
 10
16.66
 20
15.34
 30
0.0
  0
POINT
  8
1
  6
CONTINUOUS
 62
     7
  5
A39
 10
21.66
 20
15.34
 30
0.0
  0
POINT
  8
1
  6
CONTINUOUS
 62
     7
  5
A3A
 10
16.66
 20
16.34
 30
0.0
  0
POINT
  8
1
  6
CONTINUOUS
 62
     7
  5
A3B
 10
21.66
 20
16.34
 30
0.0
  0
POINT
  8
1
  6
CONTINUOUS
 62
     7
  5
A3C
 10
16.66
 20
13.34
 30
0.0
  0
POINT
  8
1
  6
CONTINUOUS
 62
     7
  5
A3D
 10
17.66
 20
13.34
 30
0.0
  0
POINT
  8
1
  6
CONTINUOUS
 62
     7
  5
A3E
 10
18.66
 20
13.34
 30
0.0
  0
POINT
  8
1
  6
CONTINUOUS
 62
     7
  5
A3F
 10
19.66
 20
13.34
 30
0.0
  0
POINT
  8
1
  6
CONTINUOUS
 62
     7
  5
A40
 10
20.66
 20
13.34
 30
0.0
  0
POINT
  8
1
  6
CONTINUOUS
 62
     7
  5
A41
 10
21.66
 20
13.34
 30
0.0
  0
POINT
  8
1
  6
CONTINUOUS
 62
     7
  5
A42
 10
17.36
 20
14.29
 30
0.0
  0
POINT
  8
1
  6
CONTINUOUS
 62
     7
  5
A43
 10
22.36
 20
14.29
 30
0.0
  0
POINT
  8
1
  6
CONTINUOUS
 62
     7
  5
A44
 10
17.36
 20
15.29
 30
0.0
  0
POINT
  8
1
  6
CONTINUOUS
 62
     7
  5
A45
 10
22.36
 20
15.29
 30
0.0
  0
POINT
  8
1
  6
CONTINUOUS
 62
     7
  5
A46
 10
17.36
 20
16.29
 30
0.0
  0
POINT
  8
1
  6
CONTINUOUS
 62
     7
  5
A47
 10
22.36
 20
16.29
 30
0.0
  0
POINT
  8
1
  6
CONTINUOUS
 62
     7
  5
A48
 10
17.36
 20
13.29
 30
0.0
  0
POINT
  8
1
  6
CONTINUOUS
 62
     7
  5
A49
 10
18.36
 20
13.29
 30
0.0
  0
POINT
  8
1
  6
CONTINUOUS
 62
     7
  5
A4A
 10
19.36
 20
13.29
 30
0.0
  0
POINT
  8
1
  6
CONTINUOUS
 62
     7
  5
A4B
 10
20.36
 20
13.29
 30
0.0
  0
POINT
  8
1
  6
CONTINUOUS
 62
     7
  5
A4C
 10
21.36
 20
13.29
 30
0.0
  0
POINT
  8
1
  6
CONTINUOUS
 62
     7
  5
A4D
 10
22.36
 20
13.29
 30
0.0
  0
POINT
  8
1
  6
CONTINUOUS
 62
     7
  5
A4E
 10
16.66
 20
14.07
 30
0.0
  0
POINT
  8
1
  6
CONTINUOUS
 62
     7
  5
A4F
 10
21.66
 20
14.07
 30
0.0
  0
POINT
  8
1
  6
CONTINUOUS
 62
     7
  5
A50
 10
16.66
 20
15.07
 30
0.0
  0
POINT
  8
1
  6
CONTINUOUS
 62
     7
  5
A51
 10
21.66
 20
15.07
 30
0.0
  0
POINT
  8
1
  6
CONTINUOUS
 62
     7
  5
A52
 10
16.66
 20
16.07
 30
0.0
  0
POINT
  8
1
  6
CONTINUOUS
 62
     7
  5
A53
 10
21.66
 20
16.07
 30
0.0
  0
POINT
  8
1
  6
CONTINUOUS
 62
     7
  5
A54
 10
16.66
 20
17.07
 30
0.0
  0
POINT
  8
1
  6
CONTINUOUS
 62
     7
  5
A55
 10
16.66
 20
13.07
 30
0.0
  0
POINT
  8
1
  6
CONTINUOUS
 62
     7
  5
A56
 10
17.66
 20
13.07
 30
0.0
  0
POINT
  8
1
  6
CONTINUOUS
 62
     7
  5
A57
 10
18.66
 20
13.07
 30
0.0
  0
POINT
  8
1
  6
CONTINUOUS
 62
     7
  5
A58
 10
19.66
 20
13.07
 30
0.0
  0
POINT
  8
1
  6
CONTINUOUS
 62
     7
  5
A59
 10
20.66
 20
13.07
 30
0.0
  0
POINT
  8
1
  6
CONTINUOUS
 62
     7
  5
A5A
 10
21.66
 20
13.07
 30
0.0
  0
POINT
  8
1
  6
CONTINUOUS
 62
     7
  5
A5B
 10
17.329833
 20
14.13
 30
0.0
  0
POINT
  8
1
  6
CONTINUOUS
 62
     7
  5
A5C
 10
22.33
 20
14.13
 30
0.0
  0
POINT
  8
1
  6
CONTINUOUS
 62
     7
  5
A5D
 10
17.329833
 20
15.13
 30
0.0
  0
POINT
  8
1
  6
CONTINUOUS
 62
     7
  5
A5E
 10
22.33
 20
15.13
 30
0.0
  0
POINT
  8
1
  6
CONTINUOUS
 62
     7
  5
A5F
 10
17.329833
 20
16.13
 30
0.0
  0
POINT
  8
1
  6
CONTINUOUS
 62
     7
  5
A60
 10
22.33
 20
16.13
 30
0.0
  0
POINT
  8
1
  6
CONTINUOUS
 62
     7
  5
A61
 10
22.33
 20
17.13
 30
0.0
  0
POINT
  8
1
  6
CONTINUOUS
 62
     7
  5
A62
 10
17.329833
 20
13.13
 30
0.0
  0
POINT
  8
1
  6
CONTINUOUS
 62
     7
  5
A63
 10
18.329833
 20
13.13
 30
0.0
  0
POINT
  8
1
  6
CONTINUOUS
 62
     7
  5
A64
 10
19.329833
 20
13.13
 30
0.0
  0
POINT
  8
1
  6
CONTINUOUS
 62
     7
  5
A65
 10
20.329833
 20
13.13
 30
0.0
  0
POINT
  8
1
  6
CONTINUOUS
 62
     7
  5
A66
 10
21.329833
 20
13.13
 30
0.0
  0
POINT
  8
1
  6
CONTINUOUS
 62
     7
  5
A67
 10
22.33
 20
13.13
 30
0.0
  0
POINT
  8
1
  6
CONTINUOUS
 62
     7
  5
A68
 10
17.01
 20
14.1
 30
0.0
  0
POINT
  8
1
  6
CONTINUOUS
 62
     7
  5
A69
 10
22.01
 20
14.1
 30
0.0
  0
POINT
  8
1
  6
CONTINUOUS
 62
     7
  5
A6A
 10
17.01
 20
15.1
 30
0.0
  0
POINT
  8
1
  6
CONTINUOUS
 62
     7
  5
A6B
 10
22.01
 20
15.1
 30
0.0
  0
POINT
  8
1
  6
CONTINUOUS
 62
     7
  5
A6C
 10
17.01
 20
16.1
 30
0.0
  0
POINT
  8
1
  6
CONTINUOUS
 62
     7
  5
A6D
 10
22.01
 20
16.1
 30
0.0
  0
POINT
  8
1
  6
CONTINUOUS
 62
     7
  5
A6E
 10
22.01
 20
17.1
 30
0.0
  0
POINT
  8
1
  6
CONTINUOUS
 62
     7
  5
A6F
 10
17.01
 20
13.1
 30
0.0
  0
POINT
  8
1
  6
CONTINUOUS
 62
     7
  5
A70
 10
18.01
 20
13.1
 30
0.0
  0
POINT
  8
1
  6
CONTINUOUS
 62
     7
  5
A71
 10
19.01
 20
13.1
 30
0.0
  0
POINT
  8
1
  6
CONTINUOUS
 62
     7
  5
A72
 10
20.01
 20
13.1
 30
0.0
  0
POINT
  8
1
  6
CONTINUOUS
 62
     7
  5
A73
 10
21.01
 20
13.1
 30
0.0
  0
POINT
  8
1
  6
CONTINUOUS
 62
     7
  5
A74
 10
22.01
 20
13.1
 30
0.0
  0
POINT
  8
1
  6
CONTINUOUS
 62
     7
  5
A75
 10
17.13
 20
14.05
 30
0.0
  0
POINT
  8
1
  6
CONTINUOUS
 62
     7
  5
A76
 10
22.13
 20
14.05
 30
0.0
  0
POINT
  8
1
  6
CONTINUOUS
 62
     7
  5
A77
 10
17.13
 20
15.05
 30
0.0
  0
POINT
  8
1
  6
CONTINUOUS
 62
     7
  5
A78
 10
22.13
 20
15.05
 30
0.0
  0
POINT
  8
1
  6
CONTINUOUS
 62
     7
  5
A79
 10
17.13
 20
16.05
 30
0.0
  0
POINT
  8
1
  6
CONTINUOUS
 62
     7
  5
A7A
 10
22.13
 20
16.05
 30
0.0
  0
POINT
  8
1
  6
CONTINUOUS
 62
     7
  5
A7B
 10
22.13
 20
17.05
 30
0.0
  0
POINT
  8
1
  6
CONTINUOUS
 62
     7
  5
A7C
 10
22.13
 20
17.05
 30
0.0
  0
POINT
  8
1
  6
CONTINUOUS
 62
     7
  5
A7D
 10
17.13
 20
13.05
 30
0.0
  0
POINT
  8
1
  6
CONTINUOUS
 62
     7
  5
A7E
 10
18.13
 20
13.05
 30
0.0
  0
POINT
  8
1
  6
CONTINUOUS
 62
     7
  5
A7F
 10
19.13
 20
13.05
 30
0.0
  0
POINT
  8
1
  6
CONTINUOUS
 62
     7
  5
A80
 10
20.13
 20
13.05
 30
0.0
  0
POINT
  8
1
  6
CONTINUOUS
 62
     7
  5
A81
 10
21.13
 20
13.05
 30
0.0
  0
POINT
  8
1
  6
CONTINUOUS
 62
     7
  5
A82
 10
22.13
 20
13.05
 30
0.0
  0
POINT
  8
1
  6
CONTINUOUS
 62
     7
  5
A83
 10
17.14
 20
14.19
 30
0.0
  0
POINT
  8
1
  6
CONTINUOUS
 62
     7
  5
A84
 10
22.14
 20
14.19
 30
0.0
  0
POINT
  8
1
  6
CONTINUOUS
 62
     7
  5
A85
 10
17.14
 20
15.19
 30
0.0
  0
POINT
  8
1
  6
CONTINUOUS
 62
     7
  5
A86
 10
22.14
 20
15.19
 30
0.0
  0
POINT
  8
1
  6
CONTINUOUS
 62
     7
  5
A87
 10
17.14
 20
16.19
 30
0.0
  0
POINT
  8
1
  6
CONTINUOUS
 62
     7
  5
A88
 10
22.14
 20
16.19
 30
0.0
  0
POINT
  8
1
  6
CONTINUOUS
 62
     7
  5
A89
 10
17.14
 20
13.19
 30
0.0
  0
POINT
  8
1
  6
CONTINUOUS
 62
     7
  5
A8A
 10
18.14
 20
13.19
 30
0.0
  0
POINT
  8
1
  6
CONTINUOUS
 62
     7
  5
A8B
 10
19.14
 20
13.19
 30
0.0
  0
POINT
  8
1
  6
CONTINUOUS
 62
     7
  5
A8C
 10
20.14
 20
13.19
 30
0.0
  0
POINT
  8
1
  6
CONTINUOUS
 62
     7
  5
A8D
 10
21.14
 20
13.19
 30
0.0
  0
POINT
  8
1
  6
CONTINUOUS
 62
     7
  5
A8E
 10
22.14
 20
13.19
 30
0.0
  0
POINT
  8
1
  6
CONTINUOUS
 62
     7
  5
A8F
 10
16.809833
 20
14.03
 30
0.0
  0
POINT
  8
1
  6
CONTINUOUS
 62
     7
  5
A90
 10
21.809833
 20
14.03
 30
0.0
  0
POINT
  8
1
  6
CONTINUOUS
 62
     7
  5
A91
 10
16.809833
 20
15.03
 30
0.0
  0
POINT
  8
1
  6
CONTINUOUS
 62
     7
  5
A92
 10
21.809833
 20
15.03
 30
0.0
  0
POINT
  8
1
  6
CONTINUOUS
 62
     7
  5
A93
 10
16.809833
 20
16.03
 30
0.0
  0
POINT
  8
1
  6
CONTINUOUS
 62
     7
  5
A94
 10
21.809833
 20
16.03
 30
0.0
  0
POINT
  8
1
  6
CONTINUOUS
 62
     7
  5
A95
 10
16.809833
 20
17.03
 30
0.0
  0
POINT
  8
1
  6
CONTINUOUS
 62
     7
  5
A96
 10
16.809833
 20
13.03
 30
0.0
  0
POINT
  8
1
  6
CONTINUOUS
 62
     7
  5
A97
 10
17.809833
 20
13.03
 30
0.0
  0
POINT
  8
1
  6
CONTINUOUS
 62
     7
  5
A98
 10
18.809833
 20
13.03
 30
0.0
  0
POINT
  8
1
  6
CONTINUOUS
 62
     7
  5
A99
 10
19.809833
 20
13.03
 30
0.0
  0
POINT
  8
1
  6
CONTINUOUS
 62
     7
  5
A9A
 10
20.809833
 20
13.03
 30
0.0
  0
POINT
  8
1
  6
CONTINUOUS
 62
     7
  5
A9B
 10
21.809833
 20
13.03
 30
0.0
  0
POINT
  8
1
  6
CONTINUOUS
 62
     7
  5
A9C
 10
16.93
 20
14.44
 30
0.0
  0
POINT
  8
1
  6
CONTINUOUS
 62
     7
  5
A9D
 10
16.93
 20
15.44
 30
0.0
  0
POINT
  8
1
  6
CONTINUOUS
 62
     7
  5
A9E
 10
21.93
 20
15.44
 30
0.0
  0
POINT
  8
1
  6
CONTINUOUS
 62
     7
  5
A9F
 10
16.93
 20
16.44
 30
0.0
  0
POINT
  8
1
  6
CONTINUOUS
 62
     7
  5
AA0
 10
21.93
 20
16.44
 30
0.0
  0
POINT
  8
1
  6
CONTINUOUS
 62
     7
  5
AA1
 10
16.93
 20
13.44
 30
0.0
  0
POINT
  8
1
  6
CONTINUOUS
 62
     7
  5
AA2
 10
17.93
 20
13.44
 30
0.0
  0
POINT
  8
1
  6
CONTINUOUS
 62
     7
  5
AA3
 10
18.93
 20
13.44
 30
0.0
  0
POINT
  8
1
  6
CONTINUOUS
 62
     7
  5
AA4
 10
19.93
 20
13.44
 30
0.0
  0
POINT
  8
1
  6
CONTINUOUS
 62
     7
  5
AA5
 10
20.93
 20
13.44
 30
0.0
  0
POINT
  8
1
  6
CONTINUOUS
 62
     7
  5
AA6
 10
16.88
 20
14.74
 30
0.0
  0
POINT
  8
1
  6
CONTINUOUS
 62
     7
  5
AA7
 10
21.88
 20
14.74
 30
0.0
  0
POINT
  8
1
  6
CONTINUOUS
 62
     7
  5
AA8
 10
16.88
 20
15.74
 30
0.0
  0
POINT
  8
1
  6
CONTINUOUS
 62
     7
  5
AA9
 10
21.88
 20
15.74
 30
0.0
  0
POINT
  8
1
  6
CONTINUOUS
 62
     7
  5
AAA
 10
16.88
 20
16.739833
 30
0.0
  0
POINT
  8
1
  6
CONTINUOUS
 62
     7
  5
AAB
 10
21.88
 20
16.739833
 30
0.0
  0
POINT
  8
1
  6
CONTINUOUS
 62
     7
  5
AAC
 10
16.88
 20
13.74
 30
0.0
  0
POINT
  8
1
  6
CONTINUOUS
 62
     7
  5
AAD
 10
16.88
 20
12.74
 30
0.0
  0
POINT
  8
1
  6
CONTINUOUS
 62
     7
  5
AAE
 10
17.88
 20
12.74
 30
0.0
  0
POINT
  8
1
  6
CONTINUOUS
 62
     7
  5
AAF
 10
18.88
 20
12.74
 30
0.0
  0
POINT
  8
1
  6
CONTINUOUS
 62
     7
  5
AB0
 10
19.88
 20
12.74
 30
0.0
  0
POINT
  8
1
  6
CONTINUOUS
 62
     7
  5
AB1
 10
20.88
 20
12.74
 30
0.0
  0
POINT
  8
1
  6
CONTINUOUS
 62
     7
  5
AB2
 10
21.88
 20
12.74
 30
0.0
  0
POINT
  8
1
  6
CONTINUOUS
 62
     7
  5
AB3
 10
17.42
 20
14.02
 30
0.0
  0
POINT
  8
1
  6
CONTINUOUS
 62
     7
  5
AB4
 10
17.42
 20
15.02
 30
0.0
  0
POINT
  8
1
  6
CONTINUOUS
 62
     7
  5
AB5
 10
17.42
 20
16.02
 30
0.0
  0
POINT
  8
1
  6
CONTINUOUS
 62
     7
  5
AB6
 10
16.42
 20
17.02
 30
0.0
  0
POINT
  8
1
  6
CONTINUOUS
 62
     7
  5
AB7
 10
17.42
 20
13.02
 30
0.0
  0
POINT
  8
1
  6
CONTINUOUS
 62
     7
  5
AB8
 10
18.42
 20
13.02
 30
0.0
  0
POINT
  8
1
  6
CONTINUOUS
 62
     7
  5
AB9
 10
19.42
 20
13.02
 30
0.0
  0
POINT
  8
1
  6
CONTINUOUS
 62
     7
  5
ABA
 10
20.42
 20
13.02
 30
0.0
  0
POINT
  8
1
  6
CONTINUOUS
 62
     7
  5
ABB
 10
21.42
 20
13.02
 30
0.0
  0
POINT
  8
1
  6
CONTINUOUS
 62
     7
  5
ABC
 10
22.42
 20
13.02
 30
0.0
  0
ENDBLK
  8
1
  6
CONTINUOUS
 62
     7
  5
ABD
  0
ENDSEC
  0
SECTION
  2
ENTITIES
  0
LINE
  8
1
  6
CONTINUOUS
 62
   233
  5
29
 10
116.772583
 20
71.013167
 30
0.0
 11
115.663583
 21
71.65975
 31
0.0
  0
LINE
  8
1
  6
CONTINUOUS
 62
   233
  5
2A
 10
115.663583
 20
71.65975
 30
0.0
 11
115.709833
 21
71.696667
 31
0.0
  0
LINE
  8
1
  6
CONTINUOUS
 62
   233
  5
2B
 10
116.772583
 20
71.013167
 30
0.0
 11
116.812917
 21
71.053583
 31
0.0
  0
LINE
  8
1
  6
CONTINUOUS
 62
   233
  5
2C
 10
116.772583
 20
71.013167
 30
0.0
 11
116.772583
 21
70.906417
 31
0.0
  0
LINE
  8
1
  6
CONTINUOUS
 62
   233
  5
2D
 10
115.663583
 20
71.65975
 30
0.0
 11
115.663583
 21
71.552917
 31
0.0
  0
LINE
  8
1
  6
CONTINUOUS
 62
   233
  5
2E
 10
116.772583
 20
70.906417
 30
0.0
 11
116.687417
 21
70.956083
 31
0.0
  0
LINE
  8
1
  6
CONTINUOUS
 62
   233
  5
2F
 10
116.772583
 20
70.906417
 30
0.0
 11
116.813
 21
70.946833
 31
0.0
  0
LINE
  8
1
  6
CONTINUOUS
 62
   233
  5
30
 10
116.812917
 20
71.053583
 30
0.0
 11
116.812917
 21
70.946833
 31
0.0
  0
LINE
  8
1
  6
CONTINUOUS
 62
   233
  5
31
 10
116.812917
 20
71.053583
 30
0.0
 11
115.709833
 21
71.696667
 31
0.0
  0
LINE
  8
1
  6
CONTINUOUS
 62
   233
  5
32
 10
115.52
 20
70.071167
 30
0.0
 11
114.416833
 21
70.71425
 31
0.0
  0
LINE
  8
1
  6
CONTINUOUS
 62
   233
  5
33
 10
115.52
 20
70.071167
 30
0.0
 11
115.52
 21
69.964417
 31
0.0
  0
LINE
  8
1
  6
CONTINUOUS
 62
   233
  5
34
 10
115.479667
 20
69.924
 30
0.0
 11
115.520083
 21
69.964417
 31
0.0
  0
LINE
  8
1
  6
CONTINUOUS
 62
   233
  5
35
 10
115.479667
 20
69.924
 30
0.0
 11
114.370667
 21
70.570583
 31
0.0
  0
LINE
  8
1
  6
CONTINUOUS
 62
   233
  5
36
 10
114.370667
 20
70.677333
 30
0.0
 11
114.370667
 21
70.570583
 31
0.0
  0
LINE
  8
1
  6
CONTINUOUS
 62
   233
  5
37
 10
115.479667
 20
70.030833
 30
0.0
 11
115.479667
 21
69.924
 31
0.0
  0
LINE
  8
1
  6
CONTINUOUS
 62
   233
  5
38
 10
115.479667
 20
70.030833
 30
0.0
 11
115.52
 21
70.071167
 31
0.0
  0
LINE
  8
1
  6
CONTINUOUS
 62
   233
  5
39
 10
114.370667
 20
70.677333
 30
0.0
 11
114.416833
 21
70.71425
 31
0.0
  0
LINE
  8
1
  6
CONTINUOUS
 62
   233
  5
3A
 10
115.479667
 20
70.030833
 30
0.0
 11
114.370667
 21
70.677333
 31
0.0
  0
LINE
  8
1
  6
CONTINUOUS
 62
   233
  5
3B
 10
116.691167
 20
71.060667
 30
0.0
 11
115.405083
 21
70.138167
 31
0.0
  0
LINE
  8
1
  6
CONTINUOUS
 62
   233
  5
3C
 10
116.687417
 20
70.956083
 30
0.0
 11
115.483417
 21
70.0925
 31
0.0
  0
LINE
  8
1
  6
CONTINUOUS
 62
   233
  5
3D
 10
116.659167
 20
71.079333
 30
0.0
 11
115.373
 21
70.156833
 31
0.0
  0
LINE
  8
1
  6
CONTINUOUS
 62
   233
  5
3E
 10
116.691167
 20
71.060667
 30
0.0
 11
116.687417
 21
70.956083
 31
0.0
  0
LINE
  8
1
  6
CONTINUOUS
 62
   233
  5
3F
 10
116.520333
 20
71.16025
 30
0.0
 11
115.23425
 21
70.23775
 31
0.0
  0
LINE
  8
1
  6
CONTINUOUS
 62
   233
  5
40
 10
116.552417
 20
71.141583
 30
0.0
 11
115.26625
 21
70.219083
 31
0.0
  0
LINE
  8
1
  6
CONTINUOUS
 62
   233
  5
41
 10
116.548583
 20
71.037
 30
0.0
 11
115.344583
 21
70.173417
 31
0.0
  0
LINE
  8
1
  6
CONTINUOUS
 62
   233
  5
42
 10
116.552417
 20
71.141583
 30
0.0
 11
116.548583
 21
71.037
 31
0.0
  0
LINE
  8
1
  6
CONTINUOUS
 62
   233
  5
43
 10
116.366333
 20
71.250083
 30
0.0
 11
115.080167
 21
70.3275
 31
0.0
  0
LINE
  8
1
  6
CONTINUOUS
 62
   233
  5
44
 10
116.398333
 20
71.231417
 30
0.0
 11
115.11225
 21
70.308833
 31
0.0
  0
LINE
  8
1
  6
CONTINUOUS
 62
   233
  5
45
 10
116.398333
 20
71.231417
 30
0.0
 11
116.394583
 21
71.126833
 31
0.0
  0
LINE
  8
1
  6
CONTINUOUS
 62
   233
  5
46
 10
116.394583
 20
71.126833
 30
0.0
 11
115.190583
 21
70.263167
 31
0.0
  0
LINE
  8
1
  6
CONTINUOUS
 62
   233
  5
47
 10
116.228167
 20
71.330583
 30
0.0
 11
114.942
 21
70.408083
 31
0.0
  0
LINE
  8
1
  6
CONTINUOUS
 62
   233
  5
48
 10
116.260167
 20
71.311917
 30
0.0
 11
114.974
 21
70.389417
 31
0.0
  0
LINE
  8
1
  6
CONTINUOUS
 62
   233
  5
49
 10
116.260167
 20
71.311917
 30
0.0
 11
116.256417
 21
71.207333
 31
0.0
  0
LINE
  8
1
  6
CONTINUOUS
 62
   233
  5
4A
 10
116.256417
 20
71.207333
 30
0.0
 11
115.052417
 21
70.34375
 31
0.0
  0
LINE
  8
1
  6
CONTINUOUS
 62
   233
  5
4B
 10
116.113333
 20
71.29075
 30
0.0
 11
114.909333
 21
70.427167
 31
0.0
  0
LINE
  8
1
  6
CONTINUOUS
 62
   233
  5
4C
 10
116.117083
 20
71.395333
 30
0.0
 11
116.113333
 21
71.29075
 31
0.0
  0
LINE
  8
1
  6
CONTINUOUS
 62
   233
  5
4D
 10
116.117083
 20
71.395333
 30
0.0
 11
114.831
 21
70.472833
 31
0.0
  0
LINE
  8
1
  6
CONTINUOUS
 62
   233
  5
4E
 10
116.085083
 20
71.414
 30
0.0
 11
114.798917
 21
70.4915
 31
0.0
  0
LINE
  8
1
  6
CONTINUOUS
 62
   233
  5
4F
 10
115.952083
 20
71.491583
 30
0.0
 11
115.948333
 21
71.387
 31
0.0
  0
LINE
  8
1
  6
CONTINUOUS
 62
   233
  5
50
 10
115.952083
 20
71.491583
 30
0.0
 11
114.666
 21
70.569083
 31
0.0
  0
LINE
  8
1
  6
CONTINUOUS
 62
   233
  5
51
 10
115.920083
 20
71.51025
 30
0.0
 11
114.633917
 21
70.58775
 31
0.0
  0
LINE
  8
1
  6
CONTINUOUS
 62
   233
  5
52
 10
115.948333
 20
71.387
 30
0.0
 11
114.744333
 21
70.523333
 31
0.0
  0
LINE
  8
1
  6
CONTINUOUS
 62
   233
  5
53
 10
115.819083
 20
71.569083
 30
0.0
 11
114.533
 21
70.646583
 31
0.0
  0
LINE
  8
1
  6
CONTINUOUS
 62
   233
  5
54
 10
115.787083
 20
71.58775
 30
0.0
 11
114.500917
 21
70.66525
 31
0.0
  0
LINE
  8
1
  6
CONTINUOUS
 62
   233
  5
55
 10
115.819083
 20
71.569083
 30
0.0
 11
115.815333
 21
71.4645
 31
0.0
  0
LINE
  8
1
  6
CONTINUOUS
 62
   233
  5
56
 10
115.815333
 20
71.4645
 30
0.0
 11
114.611333
 21
70.600917
 31
0.0
  0
LINE
  8
1
  6
CONTINUOUS
 62
   233
  5
57
 10
116.577
 20
71.020417
 30
0.0
 11
116.548583
 21
71.037
 31
0.0
  0
LINE
  8
1
  6
CONTINUOUS
 62
   233
  5
58
 10
116.43825
 20
71.101333
 30
0.0
 11
116.394583
 21
71.126833
 31
0.0
  0
LINE
  8
1
  6
CONTINUOUS
 62
   233
  5
59
 10
116.284167
 20
71.191167
 30
0.0
 11
116.256417
 21
71.207333
 31
0.0
  0
LINE
  8
1
  6
CONTINUOUS
 62
   233
  5
5A
 10
116.146
 20
71.27175
 30
0.0
 11
116.113333
 21
71.29075
 31
0.0
  0
LINE
  8
1
  6
CONTINUOUS
 62
   233
  5
5B
 10
116.002917
 20
71.355083
 30
0.0
 11
115.948333
 21
71.387
 31
0.0
  0
LINE
  8
1
  6
CONTINUOUS
 62
   233
  5
5C
 10
115.837917
 20
71.451333
 30
0.0
 11
115.815333
 21
71.4645
 31
0.0
  0
LINE
  8
1
  6
CONTINUOUS
 62
   233
  5
5D
 10
115.704917
 20
71.528833
 30
0.0
 11
115.663583
 21
71.552917
 31
0.0
  0
LINE
  8
1
  6
CONTINUOUS
 62
   233
  5
5E
 10
115.779583
 20
69.7175
 30
0.0
 11
114.407833
 21
68.90975
 31
0.0
  0
LINE
  8
1
  6
CONTINUOUS
 62
   233
  5
5F
 10
115.751833
 20
69.733667
 30
0.0
 11
114.38
 21
68.925833
 31
0.0
  0
LINE
  8
1
  6
CONTINUOUS
 62
   233
  5
60
 10
115.776833
 20
69.613917
 30
0.0
 11
114.495333
 21
68.85925
 31
0.0
  0
LINE
  8
1
  6
CONTINUOUS
 62
   233
  5
61
 10
115.7205
 20
69.751917
 30
0.0
 11
116.925333
 21
69.051583
 31
0.0
  0
LINE
  8
1
  6
CONTINUOUS
 62
   233
  5
62
 10
115.77775
 20
69.786
 30
0.0
 11
116.9865
 21
69.083417
 31
0.0
  0
LINE
  8
1
  6
CONTINUOUS
 62
   233
  5
63
 10
115.7205
 20
69.751917
 30
0.0
 11
115.77775
 21
69.786
 31
0.0
  0
LINE
  8
1
  6
CONTINUOUS
 62
   233
  5
64
 10
116.925333
 20
68.950833
 30
0.0
 11
116.885167
 21
68.974
 31
0.0
  0
LINE
  8
1
  6
CONTINUOUS
 62
   233
  5
65
 10
115.597917
 20
68.356417
 30
0.0
 11
114.61
 21
68.926833
 31
0.0
  0
LINE
  8
1
  6
CONTINUOUS
 62
   233
  5
66
 10
115.57175
 20
68.23775
 30
0.0
 11
114.338
 21
68.950083
 31
0.0
  0
LINE
  8
1
  6
CONTINUOUS
 62
   233
  5
67
 10
114.338
 20
68.950083
 30
0.0
 11
114.289667
 21
68.922167
 31
0.0
  0
LINE
  8
1
  6
CONTINUOUS
 62
   233
  5
68
 10
114.289667
 20
68.922167
 30
0.0
 11
115.523417
 21
68.209833
 31
0.0
  0
LINE
  8
1
  6
CONTINUOUS
 62
   233
  5
69
 10
114.289667
 20
68.922167
 30
0.0
 11
114.289583
 21
68.804917
 31
0.0
  0
LINE
  8
1
  6
CONTINUOUS
 62
   233
  5
6A
 10
114.289583
 20
68.804917
 30
0.0
 11
115.524
 21
68.09225
 31
0.0
  0
LINE
  8
1
  6
CONTINUOUS
 62
   233
  5
6B
 10
116.777583
 20
68.866833
 30
0.0
 11
116.738667
 21
68.889333
 31
0.0
  0
LINE
  8
1
  6
CONTINUOUS
 62
   233
  5
6C
 10
116.777583
 20
68.816
 30
0.0
 11
116.694583
 21
68.863917
 31
0.0
  0
LINE
  8
1
  6
CONTINUOUS
 62
   233
  5
6D
 10
116.863833
 20
69.087333
 30
0.0
 11
115.482083
 21
68.2895
 31
0.0
  0
LINE
  8
1
  6
CONTINUOUS
 62
   233
  5
6E
 10
116.885167
 20
69.074917
 30
0.0
 11
115.5035
 21
68.277167
 31
0.0
  0
LINE
  8
1
  6
CONTINUOUS
 62
   233
  5
6F
 10
116.885167
 20
69.074917
 30
0.0
 11
116.885167
 21
68.974
 31
0.0
  0
LINE
  8
1
  6
CONTINUOUS
 62
   233
  5
70
 10
116.885167
 20
68.974
 30
0.0
 11
115.57175
 21
68.215667
 31
0.0
  0
LINE
  8
1
  6
CONTINUOUS
 62
   233
  5
71
 10
116.9865
 20
68.936667
 30
0.0
 11
116.777583
 21
68.816
 31
0.0
  0
LINE
  8
1
  6
CONTINUOUS
 62
   233
  5
72
 10
115.523417
 20
68.209833
 30
0.0
 11
115.523417
 21
68.091833
 31
0.0
  0
LINE
  8
1
  6
CONTINUOUS
 62
   233
  5
73
 10
115.523417
 20
68.209833
 30
0.0
 11
115.572083
 21
68.238
 31
0.0
  0
LINE
  8
1
  6
CONTINUOUS
 62
   233
  5
74
 10
115.57175
 20
68.23775
 30
0.0
 11
115.57175
 21
68.168917
 31
0.0
  0
LINE
  8
1
  6
CONTINUOUS
 62
   233
  5
75
 10
116.925333
 20
68.950833
 30
0.0
 11
116.925333
 21
69.0515
 31
0.0
  0
LINE
  8
1
  6
CONTINUOUS
 62
   233
  5
76
 10
116.925333
 20
69.0515
 30
0.0
 11
116.9865
 21
69.083417
 31
0.0
  0
LINE
  8
1
  6
CONTINUOUS
 62
   233
  5
77
 10
116.776417
 20
69.03675
 30
0.0
 11
115.776833
 21
69.613917
 31
0.0
  0
LINE
  8
1
  6
CONTINUOUS
 62
   233
  5
78
 10
115.7205
 20
69.751917
 30
0.0
 11
115.7205
 21
69.71575
 31
0.0
  0
LINE
  8
1
  6
CONTINUOUS
 62
   233
  5
79
 10
115.779583
 20
69.7175
 30
0.0
 11
115.778
 21
69.612583
 31
0.0
  0
LINE
  8
1
  6
CONTINUOUS
 62
   233
  5
7A
 10
115.7525
 20
68.22425
 30
0.0
 11
115.7525
 21
68.2735
 31
0.0
  0
LINE
  8
1
  6
CONTINUOUS
 62
   233
  5
7B
 10
116.777583
 20
68.816
 30
0.0
 11
116.777583
 21
68.866833
 31
0.0
  0
LINE
  8
1
  6
CONTINUOUS
 62
   233
  5
7C
 10
116.9865
 20
69.083417
 30
0.0
 11
116.9865
 21
68.936667
 31
0.0
  0
LINE
  8
1
  6
CONTINUOUS
 62
   233
  5
7D
 10
116.777583
 20
68.866833
 30
0.0
 11
116.925333
 21
68.950833
 31
0.0
  0
LINE
  8
1
  6
CONTINUOUS
 62
   233
  5
7E
 10
116.58575
 20
68.92675
 30
0.0
 11
115.588083
 21
69.50275
 31
0.0
  0
LINE
  8
1
  6
CONTINUOUS
 62
   233
  5
7F
 10
116.629833
 20
68.952167
 30
0.0
 11
115.631667
 21
69.528417
 31
0.0
  0
LINE
  8
1
  6
CONTINUOUS
 62
   233
  5
80
 10
115.7525
 20
68.2735
 30
0.0
 11
115.57175
 21
68.168917
 31
0.0
  0
LINE
  8
1
  6
CONTINUOUS
 62
   233
  5
81
 10
115.7525
 20
68.22425
 30
0.0
 11
115.523417
 21
68.091917
 31
0.0
  0
LINE
  8
1
  6
CONTINUOUS
 62
   233
  5
82
 10
115.7525
 20
68.2735
 30
0.0
 11
115.7105
 21
68.29575
 31
0.0
  0
LINE
  8
1
  6
CONTINUOUS
 62
   233
  5
83
 10
117.357083
 20
66.94925
 30
0.0
 11
115.685
 21
67.914583
 31
0.0
  0
LINE
  8
1
  6
CONTINUOUS
 62
   233
  5
84
 10
115.685
 20
67.914583
 30
0.0
 11
113.910333
 21
66.89
 31
0.0
  0
LINE
  8
1
  6
CONTINUOUS
 62
   233
  5
85
 10
113.910333
 20
66.89
 30
0.0
 11
115.604333
 21
65.912
 31
0.0
  0
LINE
  8
1
  6
CONTINUOUS
 62
   233
  5
86
 10
115.604333
 20
65.912
 30
0.0
 11
117.357083
 21
66.94925
 31
0.0
  0
LINE
  8
1
  6
CONTINUOUS
 62
   233
  5
87
 10
115.604333
 20
65.912
 30
0.0
 11
115.604333
 21
64.268333
 31
0.0
  0
LINE
  8
1
  6
CONTINUOUS
 62
   233
  5
88
 10
117.357083
 20
66.94925
 30
0.0
 11
117.357083
 21
65.294833
 31
0.0
  0
LINE
  8
1
  6
CONTINUOUS
 62
   233
  5
89
 10
113.910333
 20
66.89
 30
0.0
 11
113.910333
 21
65.29175
 31
0.0
  0
LINE
  8
1
  6
CONTINUOUS
 62
   233
  5
8A
 10
113.910333
 20
65.29175
 30
0.0
 11
115.604333
 21
64.268333
 31
0.0
  0
LINE
  8
1
  6
CONTINUOUS
 62
   233
  5
8B
 10
115.604333
 20
64.268333
 30
0.0
 11
117.357083
 21
65.294833
 31
0.0
  0
LINE
  8
1
  6
CONTINUOUS
 62
   233
  5
8C
 10
115.727917
 20
67.611667
 30
0.0
 11
114.41975
 21
66.856333
 31
0.0
  0
LINE
  8
1
  6
CONTINUOUS
 62
   233
  5
8D
 10
114.41975
 20
66.856333
 30
0.0
 11
115.549667
 21
66.204
 31
0.0
  0
LINE
  8
1
  6
CONTINUOUS
 62
   233
  5
8E
 10
115.549667
 20
66.204
 30
0.0
 11
116.857917
 21
66.95925
 31
0.0
  0
LINE
  8
1
  6
CONTINUOUS
 62
   233
  5
8F
 10
116.857917
 20
66.95925
 30
0.0
 11
115.727917
 21
67.611667
 31
0.0
  0
LINE
  8
1
  6
CONTINUOUS
 62
   233
  5
90
 10
115.727917
 20
67.611667
 30
0.0
 11
115.727917
 21
67.526667
 31
0.0
  0
LINE
  8
1
  6
CONTINUOUS
 62
   233
  5
91
 10
116.76925
 20
66.908083
 30
0.0
 11
115.727917
 21
67.526667
 31
0.0
  0
LINE
  8
1
  6
CONTINUOUS
 62
   233
  5
92
 10
115.727917
 20
67.526667
 30
0.0
 11
114.493333
 21
66.813833
 31
0.0
  0
LINE
  8
1
  6
CONTINUOUS
 62
   233
  5
93
 10
115.634833
 20
67.472917
 30
0.0
 11
116.691167
 21
66.863
 31
0.0
  0
LINE
  8
1
  6
CONTINUOUS
 62
   233
  5
94
 10
115.634833
 20
67.472917
 30
0.0
 11
115.634833
 21
66.253167
 31
0.0
  0
POLYLINE
  8
1
  6
CONTINUOUS
 62
   233
  5
95
 66
     1
 10
0.0
 20
0.0
 30
0.0
  0
VERTEX
  8
1
  6
CONTINUOUS
 62
   233
  5
96
 10
116.759071
 20
65.952594
 30
0.0
 42
0.166969
  0
VERTEX
  8
1
  6
CONTINUOUS
 62
   233
  5
97
 10
116.664651
 20
65.966892
 30
0.0
 42
0.105462
  0
VERTEX
  8
1
  6
CONTINUOUS
 62
   233
  5
98
 10
116.527107
 20
65.91037
 30
0.0
 42
0.068088
  0
VERTEX
  8
1
  6
CONTINUOUS
 62
   233
  5
99
 10
116.408371
 20
65.802758
 30
0.0
 42
0.054253
  0
VERTEX
  8
1
  6
CONTINUOUS
 62
   233
  5
9A
 10
116.296632
 20
65.636038
 30
0.0
 42
0.054253
  0
VERTEX
  8
1
  6
CONTINUOUS
 62
   233
  5
9B
 10
116.223499
 20
65.449101
 30
0.0
 42
0.068088
  0
VERTEX
  8
1
  6
CONTINUOUS
 62
   233
  5
9C
 10
116.202928
 20
65.290195
 30
0.0
 42
0.105462
  0
VERTEX
  8
1
  6
CONTINUOUS
 62
   233
  5
9D
 10
116.234957
 20
65.144881
 30
0.0
 42
0.166969
  0
VERTEX
  8
1
  6
CONTINUOUS
 62
   233
  5
9E
 10
116.300679
 20
65.075573
 30
0.0
 42
0.166969
  0
VERTEX
  8
1
  6
CONTINUOUS
 62
   233
  5
9F
 10
116.395099
 20
65.061275
 30
0.0
 42
0.105462
  0
VERTEX
  8
1
  6
CONTINUOUS
 62
   233
  5
A0
 10
116.532684
 20
65.117851
 30
0.0
 42
0.068088
  0
VERTEX
  8
1
  6
CONTINUOUS
 62
   233
  5
A1
 10
116.651337
 20
65.225442
 30
0.0
 42
0.054253
  0
VERTEX
  8
1
  6
CONTINUOUS
 62
   233
  5
A2
 10
116.763118
 20
65.392129
 30
0.0
 42
0.054253
  0
VERTEX
  8
1
  6
CONTINUOUS
 62
   233
  5
A3
 10
116.836251
 20
65.579066
 30
0.0
 42
0.068088
  0
VERTEX
  8
1
  6
CONTINUOUS
 62
   233
  5
A4
 10
116.856864
 20
65.738
 30
0.0
 42
0.105462
  0
VERTEX
  8
1
  6
CONTINUOUS
 62
   233
  5
A5
 10
116.824751
 20
65.883247
 30
0.0
 42
0.166969
  0
VERTEX
  8
1
  6
CONTINUOUS
 62
   233
  5
A6
 10
116.759084
 20
65.952581
 30
0.0
  0
SEQEND
  8
1
  6
CONTINUOUS
 62
   233
  5
A7
  0
POLYLINE
  8
1
  6
CONTINUOUS
 62
   233
  5
A8
 66
     1
 10
0.0
 20
0.0
 30
0.0
  0
VERTEX
  8
1
  6
CONTINUOUS
 62
   233
  5
A9
 10
116.206592
 20
65.241284
 30
0.0
 42
0.053429
  0
VERTEX
  8
1
  6
CONTINUOUS
 62
   233
  5
AA
 10
116.273476
 20
65.277213
 30
0.0
 42
0.068088
  0
VERTEX
  8
1
  6
CONTINUOUS
 62
   233
  5
AB
 10
116.392262
 20
65.384867
 30
0.0
 42
0.054253
  0
VERTEX
  8
1
  6
CONTINUOUS
 62
   233
  5
AC
 10
116.503951
 20
65.551629
 30
0.0
 42
0.054253
  0
VERTEX
  8
1
  6
CONTINUOUS
 62
   233
  5
AD
 10
116.577071
 20
65.738553
 30
0.0
 42
0.068088
  0
VERTEX
  8
1
  6
CONTINUOUS
 62
   233
  5
AE
 10
116.597718
 20
65.897392
 30
0.0
 42
0.034447
  0
VERTEX
  8
1
  6
CONTINUOUS
 62
   233
  5
AF
 10
116.593968
 20
65.946308
 30
0.0
  0
SEQEND
  8
1
  6
CONTINUOUS
 62
   233
  5
B0
  0
LINE
  8
1
  6
CONTINUOUS
 62
   233
  5
B1
 10
116.579083
 20
65.746
 30
0.0
 11
116.433083
 21
65.830333
 31
0.0
  0
LINE
  8
1
  6
CONTINUOUS
 62
   233
  5
B2
 10
114.566833
 20
62.098917
 30
0.0
 11
114.566833
 21
60.931917
 31
0.0
  0
LINE
  8
1
  6
CONTINUOUS
 62
   233
  5
B3
 10
114.566833
 20
61.36825
 30
0.0
 11
114.069583
 21
61.36825
 31
0.0
  0
LINE
  8
1
  6
CONTINUOUS
 62
   233
  5
B4
 10
114.069583
 20
61.36825
 30
0.0
 11
114.069583
 21
61.855333
 31
0.0
  0
LINE
  8
1
  6
CONTINUOUS
 62
   233
  5
B5
 10
114.069583
 20
61.855333
 30
0.0
 11
113.15625
 21
61.855333
 31
0.0
  0
LINE
  8
1
  6
CONTINUOUS
 62
   233
  5
B6
 10
113.15625
 20
61.855333
 30
0.0
 11
113.15625
 21
61.358083
 31
0.0
  0
LINE
  8
1
  6
CONTINUOUS
 62
   233
  5
B7
 10
113.15625
 20
61.358083
 30
0.0
 11
112.689417
 21
61.358083
 31
0.0
  0
LINE
  8
1
  6
CONTINUOUS
 62
   233
  5
B8
 10
112.222667
 20
61.358083
 30
0.0
 11
111.2485
 21
61.358083
 31
0.0
  0
LINE
  8
1
  6
CONTINUOUS
 62
   233
  5
B9
 10
111.2485
 20
61.358083
 30
0.0
 11
111.2485
 21
61.84525
 31
0.0
  0
LINE
  8
1
  6
CONTINUOUS
 62
   233
  5
BA
 10
111.2485
 20
61.84525
 30
0.0
 11
110.34525
 21
61.84525
 31
0.0
  0
LINE
  8
1
  6
CONTINUOUS
 62
   233
  5
BB
 10
112.689417
 20
62.098917
 30
0.0
 11
112.689417
 21
60.931917
 31
0.0
  0
LINE
  8
1
  6
CONTINUOUS
 62
   233
  5
BC
 10
112.222667
 20
62.098917
 30
0.0
 11
112.222667
 21
60.931917
 31
0.0
  0
LINE
  8
1
  6
CONTINUOUS
 62
   233
  5
BD
 10
110.34525
 20
62.098917
 30
0.0
 11
110.34525
 21
60.931917
 31
0.0
  0
TEXT
  8
2
  6
CONTINUOUS
 62
     2
  5
C0
 10
110.037583
 20
59.9105
 30
0.0
 40
0.225
  1
CONSTRUCTION JOINT DETAILS
  7
MONOTXT
210
0.0
220
0.0
230
1.0
  0
TEXT
  8
2
  6
CONTINUOUS
 62
     2
  5
C1
 10
121.67
 20
77.492583
 30
0.0
 40
0.35
  1
NOTES
  7
MONOTXT
210
0.0
220
0.0
230
1.0
  0
LINE
  8
1
  6
CONTINUOUS
 62
     7
  5
C2
 10
111.2485
 20
61.245583
 30
0.0
 11
111.2485
 21
60.776667
 31
0.0
  0
LINE
  8
1
  6
CONTINUOUS
 62
     7
  5
C3
 10
112.222667
 20
61.245583
 30
0.0
 11
112.222667
 21
60.776667
 31
0.0
  0
LINE
  8
1
  6
CONTINUOUS
 62
     7
  5
C4
 10
111.361
 20
60.889167
 30
0.0
 11
112.110167
 21
60.889167
 31
0.0
  0
SOLID
  8
1
  6
CONTINUOUS
 62
     7
  5
C5
 10
111.361
 20
60.907917
 30
0.0
 11
111.361
 21
60.870417
 31
0.0
 12
111.2485
 22
60.889167
 32
0.0
 13
111.2485
 23
60.889167
 33
0.0
  0
SOLID
  8
1
  6
CONTINUOUS
 62
     7
  5
C6
 10
112.110167
 20
60.907917
 30
0.0
 11
112.110167
 21
60.870417
 31
0.0
 12
112.222667
 22
60.889167
 32
0.0
 13
112.222667
 23
60.889167
 33
0.0
  0
TEXT
  8
1
  6
CONTINUOUS
 62
     7
  5
C7
 10
111.49175
 20
60.945417
 30
0.0
 40
0.15
  1
3"MIN.
  7
MONOTXT
210
0.0
220
0.0
230
1.0
  0
POINT
  8
4
  6
CONTINUOUS
 62
     7
  5
C9
 10
111.2485
 20
61.358083
 30
0.0
  0
LINE
  8
4
  6
CONTINUOUS
 62
     7
  5
CA
 10
112.222667
 20
61.358083
 30
0.0
 11
112.22275
 21
61.358083
 31
0.0
  0
LINE
  8
4
  6
CONTINUOUS
 62
     7
  5
CB
 10
112.222667
 20
60.889167
 30
0.0
 11
112.22275
 21
60.889167
 31
0.0
  0
LINE
  8
1
  6
CONTINUOUS
 62
     7
  5
CC
 10
114.069583
 20
61.967833
 30
0.0
 11
114.069583
 21
62.332917
 31
0.0
  0
LINE
  8
1
  6
CONTINUOUS
 62
     7
  5
CD
 10
113.15625
 20
61.967833
 30
0.0
 11
113.15625
 21
62.332917
 31
0.0
  0
LINE
  8
1
  6
CONTINUOUS
 62
     7
  5
CE
 10
113.957083
 20
62.220417
 30
0.0
 11
113.26875
 21
62.220417
 31
0.0
  0
SOLID
  8
1
  6
CONTINUOUS
 62
     7
  5
CF
 10
113.957083
 20
62.239167
 30
0.0
 11
113.957083
 21
62.201667
 31
0.0
 12
114.069583
 22
62.220417
 32
0.0
 13
114.069583
 23
62.220417
 33
0.0
  0
SOLID
  8
1
  6
CONTINUOUS
 62
     7
  5
D0
 10
113.26875
 20
62.239167
 30
0.0
 11
113.26875
 21
62.201667
 31
0.0
 12
113.15625
 22
62.220417
 32
0.0
 13
113.15625
 23
62.220417
 33
0.0
  0
TEXT
  8
1
  6
CONTINUOUS
 62
     7
  5
D1
 10
113.369167
 20
62.276667
 30
0.0
 40
0.15
  1
3"MIN.
  7
MONOTXT
210
0.0
220
0.0
230
1.0
  0
LINE
  8
4
  6
CONTINUOUS
 62
     7
  5
D2
 10
114.069583
 20
61.855333
 30
0.0
 11
114.069667
 21
61.855333
 31
0.0
  0
LINE
  8
4
  6
CONTINUOUS
 62
     7
  5
D3
 10
113.15625
 20
61.855333
 30
0.0
 11
113.156333
 21
61.855333
 31
0.0
  0
LINE
  8
4
  6
CONTINUOUS
 62
     7
  5
D4
 10
113.15625
 20
62.220417
 30
0.0
 11
113.156333
 21
62.220417
 31
0.0
  0
LINE
  8
1
  6
CONTINUOUS
 62
     7
  5
D5
 10
111.2485
 20
61.95775
 30
0.0
 11
111.2485
 21
62.332917
 31
0.0
  0
LINE
  8
1
  6
CONTINUOUS
 62
     7
  5
D6
 10
110.34525
 20
61.95775
 30
0.0
 11
110.34525
 21
62.332917
 31
0.0
  0
LINE
  8
1
  6
CONTINUOUS
 62
     7
  5
D7
 10
111.136
 20
62.220417
 30
0.0
 11
110.45775
 21
62.220417
 31
0.0
  0
SOLID
  8
1
  6
CONTINUOUS
 62
     7
  5
D8
 10
111.136
 20
62.239167
 30
0.0
 11
111.136
 21
62.201667
 31
0.0
 12
111.2485
 22
62.220417
 32
0.0
 13
111.2485
 23
62.220417
 33
0.0
  0
SOLID
  8
1
  6
CONTINUOUS
 62
     7
  5
D9
 10
110.45775
 20
62.239167
 30
0.0
 11
110.45775
 21
62.201667
 31
0.0
 12
110.34525
 22
62.220417
 32
0.0
 13
110.34525
 23
62.220417
 33
0.0
  0
TEXT
  8
1
  6
CONTINUOUS
 62
     7
  5
DA
 10
110.553083
 20
62.276667
 30
0.0
 40
0.15
  1
3"MIN.
  7
MONOTXT
210
0.0
220
0.0
230
1.0
  0
POINT
  8
4
  6
CONTINUOUS
 62
     7
  5
DB
 10
111.2485
 20
61.84525
 30
0.0
  0
LINE
  8
4
  6
CONTINUOUS
 62
     7
  5
DC
 10
110.34525
 20
61.84525
 30
0.0
 11
110.345333
 21
61.84525
 31
0.0
  0
LINE
  8
4
  6
CONTINUOUS
 62
     7
  5
DD
 10
110.34525
 20
62.220417
 30
0.0
 11
110.345333
 21
62.220417
 31
0.0
  0
LINE
  8
1
  6
CONTINUOUS
 62
     7
  5
DE
 10
111.361
 20
61.358
 30
0.0
 11
111.605
 21
61.358
 31
0.0
  0
LINE
  8
1
  6
CONTINUOUS
 62
     7
  5
DF
 10
111.361
 20
61.845167
 30
0.0
 11
111.605
 21
61.845167
 31
0.0
  0
LINE
  8
1
  6
CONTINUOUS
 62
     7
  5
E0
 10
111.4925
 20
61.2455
 30
0.0
 11
111.4925
 21
61.133
 31
0.0
  0
LINE
  8
1
  6
CONTINUOUS
 62
     7
  5
E1
 10
111.4925
 20
61.957667
 30
0.0
 11
111.4925
 21
62.070167
 31
0.0
  0
SOLID
  8
1
  6
CONTINUOUS
 62
     7
  5
E2
 10
111.47375
 20
61.2455
 30
0.0
 11
111.51125
 21
61.2455
 31
0.0
 12
111.4925
 22
61.358
 32
0.0
 13
111.4925
 23
61.358
 33
0.0
  0
SOLID
  8
1
  6
CONTINUOUS
 62
     7
  5
E3
 10
111.47375
 20
61.957583
 30
0.0
 11
111.51125
 21
61.957583
 31
0.0
 12
111.4925
 22
61.845083
 32
0.0
 13
111.4925
 23
61.845083
 33
0.0
  0
LINE
  8
1
  6
CONTINUOUS
 62
     7
  5
E4
 10
111.4925
 20
61.358
 30
0.0
 11
111.4925
 21
61.845167
 31
0.0
  0
TEXT
  8
1
  6
CONTINUOUS
 62
     7
  5
E5
 10
111.594
 20
61.519917
 30
0.0
 40
0.15
  1
2"MIN
  7
MONOTXT
210
0.0
220
0.0
230
1.0
  0
POINT
  8
4
  6
CONTINUOUS
 62
     7
  5
E6
 10
111.2485
 20
61.358
 30
0.0
  0
POINT
  8
4
  6
CONTINUOUS
 62
     7
  5
E7
 10
111.2485
 20
61.845167
 30
0.0
  0
LINE
  8
4
  6
CONTINUOUS
 62
     7
  5
E8
 10
111.4925
 20
61.845167
 30
0.0
 11
111.492583
 21
61.845167
 31
0.0
  0
LINE
  8
1
  6
CONTINUOUS
 62
     7
  5
E9
 10
113.04375
 20
61.358083
 30
0.0
 11
112.8255
 21
61.358083
 31
0.0
  0
LINE
  8
1
  6
CONTINUOUS
 62
     7
  5
EA
 10
113.04375
 20
61.855333
 30
0.0
 11
112.8255
 21
61.855333
 31
0.0
  0
LINE
  8
1
  6
CONTINUOUS
 62
     7
  5
EB
 10
112.938
 20
61.245583
 30
0.0
 11
112.938
 21
61.133083
 31
0.0
  0
LINE
  8
1
  6
CONTINUOUS
 62
     7
  5
EC
 10
112.938
 20
61.967833
 30
0.0
 11
112.938
 21
62.080333
 31
0.0
  0
SOLID
  8
1
  6
CONTINUOUS
 62
     7
  5
ED
 10
112.91925
 20
61.245583
 30
0.0
 11
112.95675
 21
61.245583
 31
0.0
 12
112.938
 22
61.358083
 32
0.0
 13
112.938
 23
61.358083
 33
0.0
  0
SOLID
  8
1
  6
CONTINUOUS
 62
     7
  5
EE
 10
112.91925
 20
61.967833
 30
0.0
 11
112.95675
 21
61.967833
 31
0.0
 12
112.938
 22
61.855333
 32
0.0
 13
112.938
 23
61.855333
 33
0.0
  0
LINE
  8
1
  6
CONTINUOUS
 62
     7
  5
EF
 10
112.938
 20
61.358083
 30
0.0
 11
112.938
 21
61.855333
 31
0.0
  0
TEXT
  8
1
  6
CONTINUOUS
 62
     7
  5
F0
 10
112.56625
 20
62.156167
 30
0.0
 40
0.15
  1
2"MIN
  7
MONOTXT
210
0.0
220
0.0
230
1.0
  0
LINE
  8
4
  6
CONTINUOUS
 62
     7
  5
F1
 10
113.15625
 20
61.358083
 30
0.0
 11
113.156333
 21
61.358083
 31
0.0
  0
LINE
  8
4
  6
CONTINUOUS
 62
     7
  5
F2
 10
113.15625
 20
61.855333
 30
0.0
 11
113.156333
 21
61.855333
 31
0.0
  0
LINE
  8
4
  6
CONTINUOUS
 62
     7
  5
F3
 10
112.938
 20
61.855333
 30
0.0
 11
112.938083
 21
61.855333
 31
0.0
  0
LINE
  8
1
  6
CONTINUOUS
 62
     7
  5
F4
 10
114.566833
 20
61.25575
 30
0.0
 11
114.566833
 21
60.776667
 31
0.0
  0
LINE
  8
1
  6
CONTINUOUS
 62
     7
  5
F5
 10
114.069583
 20
61.25575
 30
0.0
 11
114.069583
 21
60.776667
 31
0.0
  0
LINE
  8
1
  6
CONTINUOUS
 62
     7
  5
F6
 10
114.679333
 20
60.889167
 30
0.0
 11
114.791833
 21
60.889167
 31
0.0
  0
LINE
  8
1
  6
CONTINUOUS
 62
     7
  5
F7
 10
113.957083
 20
60.889167
 30
0.0
 11
113.844583
 21
60.889167
 31
0.0
  0
SOLID
  8
1
  6
CONTINUOUS
 62
     7
  5
F8
 10
114.679333
 20
60.907917
 30
0.0
 11
114.679333
 21
60.870417
 31
0.0
 12
114.566833
 22
60.889167
 32
0.0
 13
114.566833
 23
60.889167
 33
0.0
  0
SOLID
  8
1
  6
CONTINUOUS
 62
     7
  5
F9
 10
113.957083
 20
60.907917
 30
0.0
 11
113.957083
 21
60.870417
 31
0.0
 12
114.069583
 22
60.889167
 32
0.0
 13
114.069583
 23
60.889167
 33
0.0
  0
LINE
  8
1
  6
CONTINUOUS
 62
     7
  5
FA
 10
114.566833
 20
60.889167
 30
0.0
 11
114.069583
 21
60.889167
 31
0.0
  0
TEXT
  8
1
  6
CONTINUOUS
 62
     7
  5
FB
 10
114.912333
 20
60.83275
 30
0.0
 40
0.15
  1
2"MIN
  7
MONOTXT
210
0.0
220
0.0
230
1.0
  0
LINE
  8
4
  6
CONTINUOUS
 62
     7
  5
FC
 10
114.566833
 20
61.36825
 30
0.0
 11
114.566917
 21
61.36825
 31
0.0
  0
LINE
  8
4
  6
CONTINUOUS
 62
     7
  5
FD
 10
114.069583
 20
61.36825
 30
0.0
 11
114.069667
 21
61.36825
 31
0.0
  0
LINE
  8
4
  6
CONTINUOUS
 62
     7
  5
FE
 10
114.069583
 20
60.889167
 30
0.0
 11
114.069667
 21
60.889167
 31
0.0
  0
LINE
  8
1
  6
CONTINUOUS
 62
     7
  5
FF
 10
112.689417
 20
61.245583
 30
0.0
 11
112.689417
 21
60.776667
 31
0.0
  0
LINE
  8
1
  6
CONTINUOUS
 62
     7
  5
100
 10
113.15625
 20
61.245583
 30
0.0
 11
113.15625
 21
60.776667
 31
0.0
  0
LINE
  8
1
  6
CONTINUOUS
 62
     7
  5
101
 10
112.576917
 20
60.889167
 30
0.0
 11
112.464417
 21
60.889167
 31
0.0
  0
LINE
  8
1
  6
CONTINUOUS
 62
     7
  5
102
 10
113.26875
 20
60.889167
 30
0.0
 11
113.38125
 21
60.889167
 31
0.0
  0
SOLID
  8
1
  6
CONTINUOUS
 62
     7
  5
103
 10
112.576917
 20
60.907917
 30
0.0
 11
112.576917
 21
60.870417
 31
0.0
 12
112.689417
 22
60.889167
 32
0.0
 13
112.689417
 23
60.889167
 33
0.0
  0
SOLID
  8
1
  6
CONTINUOUS
 62
     7
  5
104
 10
113.26875
 20
60.907917
 30
0.0
 11
113.26875
 21
60.870417
 31
0.0
 12
113.15625
 22
60.889167
 32
0.0
 13
113.15625
 23
60.889167
 33
0.0
  0
LINE
  8
1
  6
CONTINUOUS
 62
     7
  5
105
 10
112.689417
 20
60.889167
 30
0.0
 11
113.15625
 21
60.889167
 31
0.0
  0
TEXT
  8
1
  6
CONTINUOUS
 62
     7
  5
106
 10
113.313333
 20
60.937
 30
0.0
 40
0.15
  1
2"MIN
  7
MONOTXT
210
0.0
220
0.0
230
1.0
  0
LINE
  8
4
  6
CONTINUOUS
 62
     7
  5
107
 10
112.689417
 20
61.358083
 30
0.0
 11
112.6895
 21
61.358083
 31
0.0
  0
LINE
  8
4
  6
CONTINUOUS
 62
     7
  5
108
 10
113.15625
 20
61.358083
 30
0.0
 11
113.156333
 21
61.358083
 31
0.0
  0
LINE
  8
4
  6
CONTINUOUS
 62
     7
  5
109
 10
113.15625
 20
60.889167
 30
0.0
 11
113.156333
 21
60.889167
 31
0.0
  0
SOLID
  8
2
  6
CONTINUOUS
 62
     2
  5
10A
 10
115.716417
 20
71.48
 30
0.0
 11
115.6845
 21
71.507083
 31
0.0
 12
115.619583
 22
71.398167
 32
0.0
 13
115.619583
 23
71.398167
 33
0.0
  0
LINE
  8
2
  6
CONTINUOUS
 62
     2
  5
10B
 10
115.6255
 20
71.40425
 30
0.0
 11
116.104417
 21
72.03825
 31
0.0
  0
LINE
  8
2
  6
CONTINUOUS
 62
     2
  5
10C
 10
116.104417
 20
72.03825
 30
0.0
 11
116.398667
 21
72.03825
 31
0.0
  0
TEXT
  8
2
  6
CONTINUOUS
 62
     2
  5
10D
 10
113.987083
 20
63.521917
 30
0.0
 40
0.25
  1
EXPLODED DETAIL
  7
MONOTXT
210
0.0
220
0.0
230
1.0
  0
TEXT
  8
2
  6
CONTINUOUS
 62
     2
  5
10E
 10
96.549583
 20
59.331583
 30
0.0
 40
0.175
  1
Table Note: Grate and frame weights are for information
  7
MONOTXT
210
0.0
220
0.0
230
1.0
  0
TEXT
  8
2
  6
CONTINUOUS
 62
     2
  5
10F
 10
96.625417
 20
59.008417
 30
0.0
 40
0.175
  1
only and will increase if larger straps and bars are used.
  7
MONOTXT
210
0.0
220
0.0
230
1.0
  0
TEXT
  8
2
  6
CONTINUOUS
 62
     2
  5
110
 10
95.80525
 20
62.046833
 30
0.0
 40
0.125
  1
A
  7
MONOTXT
210
0.0
220
0.0
230
1.0
  0
TEXT
  8
2
  6
CONTINUOUS
 62
     2
  5
111
 10
96.7555
 20
62.046833
 30
0.0
 40
0.125
  1
B
  7
MONOTXT
210
0.0
220
0.0
230
1.0
  0
TEXT
  8
2
  6
CONTINUOUS
 62
     2
  5
112
 10
97.7915
 20
62.046833
 30
0.0
 40
0.125
  1
C
  7
MONOTXT
210
0.0
220
0.0
230
1.0
  0
TEXT
  8
2
  6
CONTINUOUS
 62
     2
  5
113
 10
99.03775
 20
62.046833
 30
0.0
 40
0.125
  1
D
  7
MONOTXT
210
0.0
220
0.0
230
1.0
  0
TEXT
  8
2
  6
CONTINUOUS
 62
     2
  5
114
 10
99.722333
 20
62.0575
 30
0.0
 40
0.125
  1
H(Min)
  7
MONOTXT
210
0.0
220
0.0
230
1.0
  0
TEXT
  8
2
  6
CONTINUOUS
 62
     2
  5
115
 10
100.672417
 20
62.037417
 30
0.0
 40
0.125
  1
F
  7
MONOTXT
210
0.0
220
0.0
230
1.0
  0
TEXT
  8
2
  6
CONTINUOUS
 62
     2
  5
116
 10
101.167833
 20
62.037417
 30
0.0
 40
0.125
  1
Bars
  7
MONOTXT
210
0.0
220
0.0
230
1.0
  0
TEXT
  8
2
  6
CONTINUOUS
 62
     2
  5
117
 10
101.98925
 20
62.037417
 30
0.0
 40
0.125
  1
WT.
  7
MONOTXT
210
0.0
220
0.0
230
1.0
  0
TEXT
  8
2
  6
CONTINUOUS
 62
     2
  5
118
 10
102.632917
 20
62.037417
 30
0.0
 40
0.125
  1
WT.
  7
MONOTXT
210
0.0
220
0.0
230
1.0
  0
TEXT
  8
2
  6
CONTINUOUS
 62
     2
  5
119
 10
103.5625
 20
62.037417
 30
0.0
 40
0.125
  1
F
  7
MONOTXT
210
0.0
220
0.0
230
1.0
  0
TEXT
  8
2
  6
CONTINUOUS
 62
     2
  5
11A
 10
104.056083
 20
62.037417
 30
0.0
 40
0.125
  1
Bars
  7
MONOTXT
210
0.0
220
0.0
230
1.0
  0
TEXT
  8
2
  6
CONTINUOUS
 62
     2
  5
11B
 10
104.77025
 20
62.037417
 30
0.0
 40
0.125
  1
WT.
  7
MONOTXT
210
0.0
220
0.0
230
1.0
  0
TEXT
  8
2
  6
CONTINUOUS
 62
     2
  5
11C
 10
94.970333
 20
61.785583
 30
0.0
 40
0.125
  1
18"
  7
MONOTXT
210
0.0
220
0.0
230
1.0
  0
TEXT
  8
2
  6
CONTINUOUS
 62
     2
  5
11D
 10
96.978917
 20
62.378667
 30
0.0
 40
0.15
  1
DIMENSIONS
  7
MONOTXT
210
0.0
220
0.0
230
1.0
  0
TEXT
  8
2
  6
CONTINUOUS
 62
     2
  5
11E
 10
100.4815
 20
62.3545
 30
0.0
 40
0.15
  1
TYPE 2 GRATE
  7
MONOTXT
210
0.0
220
0.0
230
1.0
  0
TEXT
  8
2
  6
CONTINUOUS
 62
     2
  5
11F
 10
102.463667
 20
62.353167
 30
0.0
 40
0.15
  1
FRAME
  7
MONOTXT
210
0.0
220
0.0
230
1.0
  0
TEXT
  8
2
  6
CONTINUOUS
 62
     2
  5
120
 10
103.485333
 20
62.35675
 30
0.0
 40
0.15
  1
TYPE 1 GRATE
  7
MONOTXT
210
0.0
220
0.0
230
1.0
  0
TEXT
  8
2
  6
CONTINUOUS
 62
     2
  5
121
 10
95.644417
 20
61.785583
 30
0.0
 40
0.125
  1
2'-8"
  7
MONOTXT
210
0.0
220
0.0
230
1.0
  0
TEXT
  8
2
  6
CONTINUOUS
 62
     2
  5
122
 10
96.558417
 20
61.785583
 30
0.0
 40
0.125
  1
3'-2"
  7
MONOTXT
210
0.0
220
0.0
230
1.0
  0
TEXT
  8
2
  6
CONTINUOUS
 62
     2
  5
123
 10
97.335417
 20
61.785583
 30
0.0
 40
0.125
  1
2'-7 3/4"
  7
MONOTXT
210
0.0
220
0.0
230
1.0
  0
TEXT
  8
2
  6
CONTINUOUS
 62
     2
  5
124
 10
99.740917
 20
61.77425
 30
0.0
 40
0.125
  1
2'-0"
  7
MONOTXT
210
0.0
220
0.0
230
1.0
  0
TEXT
  8
2
  6
CONTINUOUS
 62
     2
  5
125
 10
100.383083
 20
61.776167
 30
0.0
 40
0.125
  1
3 3/8"
  7
MONOTXT
210
0.0
220
0.0
230
1.0
  0
TEXT
  8
2
  6
CONTINUOUS
 62
     2
  5
126
 10
101.368667
 20
61.776167
 30
0.0
 40
0.125
  1
7
  7
MONOTXT
210
0.0
220
0.0
230
1.0
  0
TEXT
  8
2
  6
CONTINUOUS
 62
     2
  5
127
 10
101.99425
 20
61.776167
 30
0.0
 40
0.125
  1
223
  7
MONOTXT
210
0.0
220
0.0
230
1.0
  0
TEXT
  8
2
  6
CONTINUOUS
 62
     2
  5
128
 10
102.61625
 20
61.776167
 30
0.0
 40
0.125
  1
62
  7
MONOTXT
210
0.0
220
0.0
230
1.0
  0
TEXT
  8
2
  6
CONTINUOUS
 62
     2
  5
129
 10
103.25225
 20
61.776167
 30
0.0
 40
0.125
  1
1 3/8"
  7
MONOTXT
210
0.0
220
0.0
230
1.0
  0
TEXT
  8
2
  6
CONTINUOUS
 62
     2
  5
12A
 10
104.111
 20
61.776167
 30
0.0
 40
0.125
  1
15
  7
MONOTXT
210
0.0
220
0.0
230
1.0
  0
TEXT
  8
2
  6
CONTINUOUS
 62
     2
  5
12B
 10
104.733
 20
61.776167
 30
0.0
 40
0.125
  1
453
  7
MONOTXT
210
0.0
220
0.0
230
1.0
  0
TEXT
  8
2
  6
CONTINUOUS
 62
     2
  5
12C
 10
94.93
 20
62.08475
 30
0.0
 40
0.06875
  1
Pipe Size
  7
MONOTXT
210
0.0
220
0.0
230
1.0
  0
LINE
  8
1
  6
CONTINUOUS
 62
   233
  5
12D
 10
94.83575
 20
62.601667
 30
0.0
 11
105.414667
 21
62.601667
 31
0.0
  0
LINE
  8
1
  6
CONTINUOUS
 62
   233
  5
12E
 10
105.414667
 20
62.601667
 30
0.0
 11
105.414667
 21
62.270833
 31
0.0
  0
LINE
  8
1
  6
CONTINUOUS
 62
   233
  5
12F
 10
105.414667
 20
62.270833
 30
0.0
 11
94.83575
 21
62.270833
 31
0.0
  0
LINE
  8
1
  6
CONTINUOUS
 62
   233
  5
130
 10
105.414667
 20
62.270833
 30
0.0
 11
105.414667
 21
61.974417
 31
0.0
  0
LINE
  8
1
  6
CONTINUOUS
 62
   233
  5
131
 10
105.414667
 20
61.974417
 30
0.0
 11
96.233917
 21
61.974417
 31
0.0
  0
LINE
  8
1
  6
CONTINUOUS
 62
   233
  5
132
 10
94.83575
 20
61.983833
 30
0.0
 11
94.83575
 21
62.28025
 31
0.0
  0
LINE
  8
1
  6
CONTINUOUS
 62
   233
  5
133
 10
94.83575
 20
62.28025
 30
0.0
 11
94.83575
 21
62.601667
 31
0.0
  0
LINE
  8
1
  6
CONTINUOUS
 62
   233
  5
134
 10
95.467
 20
62.28025
 30
0.0
 11
95.467
 21
59.640333
 31
0.0
  0
LINE
  8
1
  6
CONTINUOUS
 62
   233
  5
135
 10
105.031333
 20
61.975167
 30
0.0
 11
94.83575
 21
61.975167
 31
0.0
  0
LINE
  8
1
  6
CONTINUOUS
 62
   233
  5
136
 10
94.83575
 20
61.983833
 30
0.0
 11
94.83575
 21
61.7235
 31
0.0
  0
LINE
  8
1
  6
CONTINUOUS
 62
   233
  5
137
 10
105.414833
 20
61.714
 30
0.0
 11
105.414667
 21
61.975167
 31
0.0
  0
LINE
  8
1
  6
CONTINUOUS
 62
   233
  5
138
 10
105.414833
 20
61.453667
 30
0.0
 11
105.414667
 21
61.71475
 31
0.0
  0
LINE
  8
1
  6
CONTINUOUS
 62
   233
  5
139
 10
96.233917
 20
61.453667
 30
0.0
 11
105.414833
 21
61.453667
 31
0.0
  0
LINE
  8
1
  6
CONTINUOUS
 62
   233
  5
13A
 10
94.83575
 20
61.7235
 30
0.0
 11
94.83575
 21
61.463083
 31
0.0
  0
LINE
  8
1
  6
CONTINUOUS
 62
   233
  5
13B
 10
105.414667
 20
61.714
 30
0.0
 11
94.83575
 21
61.714
 31
0.0
  0
TEXT
  8
2
  6
CONTINUOUS
 62
     2
  5
13C
 10
104.733
 20
61.515833
 30
0.0
 40
0.125
  1
453
  7
MONOTXT
210
0.0
220
0.0
230
1.0
  0
TEXT
  8
2
  6
CONTINUOUS
 62
     2
  5
13D
 10
104.111
 20
61.515833
 30
0.0
 40
0.125
  1
15
  7
MONOTXT
210
0.0
220
0.0
230
1.0
  0
TEXT
  8
2
  6
CONTINUOUS
 62
     2
  5
13E
 10
103.25225
 20
61.515833
 30
0.0
 40
0.125
  1
1 3/8"
  7
MONOTXT
210
0.0
220
0.0
230
1.0
  0
TEXT
  8
2
  6
CONTINUOUS
 62
     2
  5
13F
 10
102.61625
 20
61.515833
 30
0.0
 40
0.125
  1
62
  7
MONOTXT
210
0.0
220
0.0
230
1.0
  0
TEXT
  8
2
  6
CONTINUOUS
 62
     2
  5
140
 10
101.99425
 20
61.515833
 30
0.0
 40
0.125
  1
223
  7
MONOTXT
210
0.0
220
0.0
230
1.0
  0
TEXT
  8
2
  6
CONTINUOUS
 62
     2
  5
141
 10
101.368667
 20
61.515833
 30
0.0
 40
0.125
  1
7
  7
MONOTXT
210
0.0
220
0.0
230
1.0
  0
TEXT
  8
2
  6
CONTINUOUS
 62
     2
  5
142
 10
99.740917
 20
61.513917
 30
0.0
 40
0.125
  1
2'-3"
  7
MONOTXT
210
0.0
220
0.0
230
1.0
  0
TEXT
  8
2
  6
CONTINUOUS
 62
     2
  5
143
 10
95.644417
 20
61.52525
 30
0.0
 40
0.125
  1
2'-8"
  7
MONOTXT
210
0.0
220
0.0
230
1.0
  0
TEXT
  8
2
  6
CONTINUOUS
 62
     2
  5
144
 10
94.970333
 20
61.52525
 30
0.0
 40
0.125
  1
21"
  7
MONOTXT
210
0.0
220
0.0
230
1.0
  0
TEXT
  8
2
  6
CONTINUOUS
 62
     2
  5
145
 10
94.970333
 20
61.264917
 30
0.0
 40
0.125
  1
24"
  7
MONOTXT
210
0.0
220
0.0
230
1.0
  0
TEXT
  8
2
  6
CONTINUOUS
 62
     2
  5
146
 10
95.644417
 20
61.264917
 30
0.0
 40
0.125
  1
2'-8"
  7
MONOTXT
210
0.0
220
0.0
230
1.0
  0
TEXT
  8
2
  6
CONTINUOUS
 62
     2
  5
147
 10
99.740917
 20
61.2535
 30
0.0
 40
0.125
  1
2'-6"
  7
MONOTXT
210
0.0
220
0.0
230
1.0
  0
TEXT
  8
2
  6
CONTINUOUS
 62
     2
  5
148
 10
101.368667
 20
61.2555
 30
0.0
 40
0.125
  1
7
  7
MONOTXT
210
0.0
220
0.0
230
1.0
  0
TEXT
  8
2
  6
CONTINUOUS
 62
     2
  5
149
 10
101.99425
 20
61.2555
 30
0.0
 40
0.125
  1
223
  7
MONOTXT
210
0.0
220
0.0
230
1.0
  0
TEXT
  8
2
  6
CONTINUOUS
 62
     2
  5
14A
 10
102.61625
 20
61.2555
 30
0.0
 40
0.125
  1
62
  7
MONOTXT
210
0.0
220
0.0
230
1.0
  0
TEXT
  8
2
  6
CONTINUOUS
 62
     2
  5
14B
 10
103.25225
 20
61.2555
 30
0.0
 40
0.125
  1
1 3/8"
  7
MONOTXT
210
0.0
220
0.0
230
1.0
  0
TEXT
  8
2
  6
CONTINUOUS
 62
     2
  5
14C
 10
104.111
 20
61.2555
 30
0.0
 40
0.125
  1
15
  7
MONOTXT
210
0.0
220
0.0
230
1.0
  0
TEXT
  8
2
  6
CONTINUOUS
 62
     2
  5
14D
 10
104.733
 20
61.2555
 30
0.0
 40
0.125
  1
453
  7
MONOTXT
210
0.0
220
0.0
230
1.0
  0
LINE
  8
1
  6
CONTINUOUS
 62
   233
  5
14E
 10
105.414667
 20
61.453667
 30
0.0
 11
96.233917
 21
61.453667
 31
0.0
  0
LINE
  8
1
  6
CONTINUOUS
 62
   233
  5
14F
 10
105.414667
 20
61.454417
 30
0.0
 11
96.233917
 21
61.454417
 31
0.0
  0
LINE
  8
1
  6
CONTINUOUS
 62
   233
  5
150
 10
94.83575
 20
61.463083
 30
0.0
 11
94.83575
 21
61.202667
 31
0.0
  0
LINE
  8
1
  6
CONTINUOUS
 62
   233
  5
151
 10
96.233917
 20
61.19325
 30
0.0
 11
105.414833
 21
61.19325
 31
0.0
  0
LINE
  8
1
  6
CONTINUOUS
 62
   233
  5
152
 10
105.414833
 20
61.19325
 30
0.0
 11
105.414667
 21
61.454417
 31
0.0
  0
LINE
  8
1
  6
CONTINUOUS
 62
   233
  5
153
 10
94.83575
 20
61.453667
 30
0.0
 11
105.031583
 21
61.453667
 31
0.0
  0
TEXT
  8
2
  6
CONTINUOUS
 62
     2
  5
154
 10
94.970333
 20
61.0045
 30
0.0
 40
0.125
  1
27"
  7
MONOTXT
210
0.0
220
0.0
230
1.0
  0
TEXT
  8
2
  6
CONTINUOUS
 62
     2
  5
155
 10
95.644417
 20
61.0045
 30
0.0
 40
0.125
  1
3'-0"
  7
MONOTXT
210
0.0
220
0.0
230
1.0
  0
TEXT
  8
2
  6
CONTINUOUS
 62
     2
  5
156
 10
99.740917
 20
60.993083
 30
0.0
 40
0.125
  1
2'-9"
  7
MONOTXT
210
0.0
220
0.0
230
1.0
  0
TEXT
  8
2
  6
CONTINUOUS
 62
     2
  5
157
 10
101.368667
 20
60.995083
 30
0.0
 40
0.125
  1
8
  7
MONOTXT
210
0.0
220
0.0
230
1.0
  0
TEXT
  8
2
  6
CONTINUOUS
 62
     2
  5
158
 10
101.99425
 20
60.995083
 30
0.0
 40
0.125
  1
279
  7
MONOTXT
210
0.0
220
0.0
230
1.0
  0
TEXT
  8
2
  6
CONTINUOUS
 62
     2
  5
159
 10
102.61625
 20
60.995083
 30
0.0
 40
0.125
  1
69
  7
MONOTXT
210
0.0
220
0.0
230
1.0
  0
TEXT
  8
2
  6
CONTINUOUS
 62
     2
  5
15A
 10
103.25225
 20
60.995083
 30
0.0
 40
0.125
  1
1 3/8"
  7
MONOTXT
210
0.0
220
0.0
230
1.0
  0
TEXT
  8
2
  6
CONTINUOUS
 62
     2
  5
15B
 10
104.111
 20
60.995083
 30
0.0
 40
0.125
  1
17
  7
MONOTXT
210
0.0
220
0.0
230
1.0
  0
TEXT
  8
2
  6
CONTINUOUS
 62
     2
  5
15C
 10
104.733
 20
60.995083
 30
0.0
 40
0.125
  1
566
  7
MONOTXT
210
0.0
220
0.0
230
1.0
  0
LINE
  8
1
  6
CONTINUOUS
 62
   233
  5
15D
 10
105.414667
 20
61.19325
 30
0.0
 11
96.233917
 21
61.19325
 31
0.0
  0
LINE
  8
1
  6
CONTINUOUS
 62
   233
  5
15E
 10
105.414667
 20
61.194
 30
0.0
 11
96.233917
 21
61.194
 31
0.0
  0
LINE
  8
1
  6
CONTINUOUS
 62
   233
  5
15F
 10
94.83575
 20
61.202667
 30
0.0
 11
94.83575
 21
60.942333
 31
0.0
  0
LINE
  8
1
  6
CONTINUOUS
 62
   233
  5
160
 10
96.233917
 20
60.932833
 30
0.0
 11
105.414833
 21
60.932833
 31
0.0
  0
LINE
  8
1
  6
CONTINUOUS
 62
   233
  5
161
 10
105.414833
 20
60.932833
 30
0.0
 11
105.414667
 21
61.194
 31
0.0
  0
LINE
  8
1
  6
CONTINUOUS
 62
   233
  5
162
 10
94.83575
 20
61.19325
 30
0.0
 11
105.031583
 21
61.19325
 31
0.0
  0
TEXT
  8
2
  6
CONTINUOUS
 62
     2
  5
163
 10
94.970333
 20
60.744083
 30
0.0
 40
0.125
  1
30"
  7
MONOTXT
210
0.0
220
0.0
230
1.0
  0
TEXT
  8
2
  6
CONTINUOUS
 62
     2
  5
164
 10
95.644417
 20
60.744083
 30
0.0
 40
0.125
  1
3'-6"
  7
MONOTXT
210
0.0
220
0.0
230
1.0
  0
TEXT
  8
2
  6
CONTINUOUS
 62
     2
  5
165
 10
99.740917
 20
60.73275
 30
0.0
 40
0.125
  1
3'-0"
  7
MONOTXT
210
0.0
220
0.0
230
1.0
  0
TEXT
  8
2
  6
CONTINUOUS
 62
     2
  5
166
 10
101.368667
 20
60.734667
 30
0.0
 40
0.125
  1
9
  7
MONOTXT
210
0.0
220
0.0
230
1.0
  0
TEXT
  8
2
  6
CONTINUOUS
 62
     2
  5
167
 10
101.99425
 20
60.734667
 30
0.0
 40
0.125
  1
357
  7
MONOTXT
210
0.0
220
0.0
230
1.0
  0
TEXT
  8
2
  6
CONTINUOUS
 62
     2
  5
168
 10
102.61625
 20
60.734667
 30
0.0
 40
0.125
  1
80
  7
MONOTXT
210
0.0
220
0.0
230
1.0
  0
TEXT
  8
2
  6
CONTINUOUS
 62
     2
  5
169
 10
103.25225
 20
60.734667
 30
0.0
 40
0.125
  1
1 3/8"
  7
MONOTXT
210
0.0
220
0.0
230
1.0
  0
TEXT
  8
2
  6
CONTINUOUS
 62
     2
  5
16A
 10
104.111
 20
60.734667
 30
0.0
 40
0.125
  1
21
  7
MONOTXT
210
0.0
220
0.0
230
1.0
  0
TEXT
  8
2
  6
CONTINUOUS
 62
     2
  5
16B
 10
104.733
 20
60.734667
 30
0.0
 40
0.125
  1
797
  7
MONOTXT
210
0.0
220
0.0
230
1.0
  0
LINE
  8
1
  6
CONTINUOUS
 62
   233
  5
16C
 10
105.414667
 20
60.932833
 30
0.0
 11
96.233917
 21
60.932833
 31
0.0
  0
LINE
  8
1
  6
CONTINUOUS
 62
   233
  5
16D
 10
105.414667
 20
60.933583
 30
0.0
 11
96.233917
 21
60.933583
 31
0.0
  0
LINE
  8
1
  6
CONTINUOUS
 62
   233
  5
16E
 10
94.83575
 20
60.942333
 30
0.0
 11
94.83575
 21
60.681917
 31
0.0
  0
LINE
  8
1
  6
CONTINUOUS
 62
   233
  5
16F
 10
96.233917
 20
60.6725
 30
0.0
 11
105.414833
 21
60.6725
 31
0.0
  0
LINE
  8
1
  6
CONTINUOUS
 62
   233
  5
170
 10
105.414833
 20
60.6725
 30
0.0
 11
105.414667
 21
60.933583
 31
0.0
  0
LINE
  8
1
  6
CONTINUOUS
 62
   233
  5
171
 10
94.83575
 20
60.932833
 30
0.0
 11
105.031583
 21
60.932833
 31
0.0
  0
TEXT
  8
2
  6
CONTINUOUS
 62
     2
  5
172
 10
94.970333
 20
60.483667
 30
0.0
 40
0.125
  1
33"
  7
MONOTXT
210
0.0
220
0.0
230
1.0
  0
TEXT
  8
2
  6
CONTINUOUS
 62
     2
  5
173
 10
95.644417
 20
60.483667
 30
0.0
 40
0.125
  1
3'-9"
  7
MONOTXT
210
0.0
220
0.0
230
1.0
  0
TEXT
  8
2
  6
CONTINUOUS
 62
     2
  5
174
 10
99.740917
 20
60.472333
 30
0.0
 40
0.125
  1
3'-3"
  7
MONOTXT
210
0.0
220
0.0
230
1.0
  0
TEXT
  8
2
  6
CONTINUOUS
 62
     2
  5
175
 10
101.368667
 20
60.47425
 30
0.0
 40
0.125
  1
10
  7
MONOTXT
210
0.0
220
0.0
230
1.0
  0
TEXT
  8
2
  6
CONTINUOUS
 62
     2
  5
176
 10
101.99425
 20
60.47425
 30
0.0
 40
0.125
  1
419
  7
MONOTXT
210
0.0
220
0.0
230
1.0
  0
TEXT
  8
2
  6
CONTINUOUS
 62
     2
  5
177
 10
102.61625
 20
60.47425
 30
0.0
 40
0.125
  1
85
  7
MONOTXT
210
0.0
220
0.0
230
1.0
  0
TEXT
  8
2
  6
CONTINUOUS
 62
     2
  5
178
 10
103.25225
 20
60.47425
 30
0.0
 40
0.125
  1
1 7/8"
  7
MONOTXT
210
0.0
220
0.0
230
1.0
  0
TEXT
  8
2
  6
CONTINUOUS
 62
     2
  5
179
 10
104.111
 20
60.47425
 30
0.0
 40
0.125
  1
21
  7
MONOTXT
210
0.0
220
0.0
230
1.0
  0
TEXT
  8
2
  6
CONTINUOUS
 62
     2
  5
17A
 10
104.733
 20
60.47425
 30
0.0
 40
0.125
  1
847
  7
MONOTXT
210
0.0
220
0.0
230
1.0
  0
LINE
  8
1
  6
CONTINUOUS
 62
   233
  5
17B
 10
105.414667
 20
60.6725
 30
0.0
 11
96.233917
 21
60.6725
 31
0.0
  0
LINE
  8
1
  6
CONTINUOUS
 62
   233
  5
17C
 10
105.414667
 20
60.67325
 30
0.0
 11
96.233917
 21
60.67325
 31
0.0
  0
LINE
  8
1
  6
CONTINUOUS
 62
   233
  5
17D
 10
94.83575
 20
60.681917
 30
0.0
 11
94.83575
 21
60.4215
 31
0.0
  0
LINE
  8
1
  6
CONTINUOUS
 62
   233
  5
17E
 10
96.233917
 20
60.412083
 30
0.0
 11
105.414833
 21
60.412083
 31
0.0
  0
LINE
  8
1
  6
CONTINUOUS
 62
   233
  5
17F
 10
105.414833
 20
60.412083
 30
0.0
 11
105.414667
 21
60.67325
 31
0.0
  0
LINE
  8
1
  6
CONTINUOUS
 62
   233
  5
180
 10
94.83575
 20
60.6725
 30
0.0
 11
105.031583
 21
60.6725
 31
0.0
  0
TEXT
  8
2
  6
CONTINUOUS
 62
     2
  5
181
 10
94.970333
 20
60.223333
 30
0.0
 40
0.125
  1
36"
  7
MONOTXT
210
0.0
220
0.0
230
1.0
  0
TEXT
  8
2
  6
CONTINUOUS
 62
     2
  5
182
 10
95.644417
 20
60.223333
 30
0.0
 40
0.125
  1
4'-0"
  7
MONOTXT
210
0.0
220
0.0
230
1.0
  0
TEXT
  8
2
  6
CONTINUOUS
 62
     2
  5
183
 10
99.740917
 20
60.211833
 30
0.0
 40
0.125
  1
3'-6"
  7
MONOTXT
210
0.0
220
0.0
230
1.0
  0
TEXT
  8
2
  6
CONTINUOUS
 62
     2
  5
184
 10
101.368667
 20
60.213917
 30
0.0
 40
0.125
  1
11
  7
MONOTXT
210
0.0
220
0.0
230
1.0
  0
TEXT
  8
2
  6
CONTINUOUS
 62
     2
  5
185
 10
101.99425
 20
60.213917
 30
0.0
 40
0.125
  1
486
  7
MONOTXT
210
0.0
220
0.0
230
1.0
  0
TEXT
  8
2
  6
CONTINUOUS
 62
     2
  5
186
 10
102.61625
 20
60.213917
 30
0.0
 40
0.125
  1
90
  7
MONOTXT
210
0.0
220
0.0
230
1.0
  0
TEXT
  8
2
  6
CONTINUOUS
 62
     2
  5
187
 10
103.25225
 20
60.213917
 30
0.0
 40
0.125
  1
1 3/8"
  7
MONOTXT
210
0.0
220
0.0
230
1.0
  0
TEXT
  8
2
  6
CONTINUOUS
 62
     2
  5
188
 10
104.111
 20
60.213917
 30
0.0
 40
0.125
  1
23
  7
MONOTXT
210
0.0
220
0.0
230
1.0
  0
TEXT
  8
2
  6
CONTINUOUS
 62
     2
  5
189
 10
104.733
 20
60.213917
 30
0.0
 40
0.125
  1
981
  7
MONOTXT
210
0.0
220
0.0
230
1.0
  0
LINE
  8
1
  6
CONTINUOUS
 62
   233
  5
18A
 10
105.414667
 20
60.412083
 30
0.0
 11
96.233917
 21
60.412083
 31
0.0
  0
LINE
  8
1
  6
CONTINUOUS
 62
   233
  5
18B
 10
105.414667
 20
60.412833
 30
0.0
 11
96.233917
 21
60.412833
 31
0.0
  0
LINE
  8
1
  6
CONTINUOUS
 62
   233
  5
18C
 10
94.83575
 20
60.4215
 30
0.0
 11
94.83575
 21
60.161167
 31
0.0
  0
LINE
  8
1
  6
CONTINUOUS
 62
   233
  5
18D
 10
105.414833
 20
60.15175
 30
0.0
 11
105.414667
 21
60.412833
 31
0.0
  0
LINE
  8
1
  6
CONTINUOUS
 62
   233
  5
18E
 10
94.83575
 20
60.412083
 30
0.0
 11
105.031583
 21
60.412083
 31
0.0
  0
TEXT
  8
2
  6
CONTINUOUS
 62
     2
  5
18F
 10
94.970333
 20
59.962917
 30
0.0
 40
0.125
  1
42"
  7
MONOTXT
210
0.0
220
0.0
230
1.0
  0
TEXT
  8
2
  6
CONTINUOUS
 62
     2
  5
190
 10
95.644417
 20
59.962917
 30
0.0
 40
0.125
  1
4'-6"
  7
MONOTXT
210
0.0
220
0.0
230
1.0
  0
TEXT
  8
2
  6
CONTINUOUS
 62
     2
  5
191
 10
99.740917
 20
59.951583
 30
0.0
 40
0.125
  1
4'-0"
  7
MONOTXT
210
0.0
220
0.0
230
1.0
  0
TEXT
  8
2
  6
CONTINUOUS
 62
     2
  5
192
 10
101.368667
 20
59.9535
 30
0.0
 40
0.125
  1
12
  7
MONOTXT
210
0.0
220
0.0
230
1.0
  0
TEXT
  8
2
  6
CONTINUOUS
 62
     2
  5
193
 10
101.99425
 20
59.9535
 30
0.0
 40
0.125
  1
587
  7
MONOTXT
210
0.0
220
0.0
230
1.0
  0
TEXT
  8
2
  6
CONTINUOUS
 62
     2
  5
194
 10
102.61625
 20
59.9535
 30
0.0
 40
0.125
  1
101
  7
MONOTXT
210
0.0
220
0.0
230
1.0
  0
TEXT
  8
2
  6
CONTINUOUS
 62
     2
  5
195
 10
103.25225
 20
59.9535
 30
0.0
 40
0.125
  1
1 3/8"
  7
MONOTXT
210
0.0
220
0.0
230
1.0
  0
TEXT
  8
2
  6
CONTINUOUS
 62
     2
  5
196
 10
104.111
 20
59.9535
 30
0.0
 40
0.125
  1
27
  7
MONOTXT
210
0.0
220
0.0
230
1.0
  0
TEXT
  8
2
  6
CONTINUOUS
 62
     2
  5
197
 10
104.733
 20
59.9535
 30
0.0
 40
0.125
  1
1277
  7
MONOTXT
210
0.0
220
0.0
230
1.0
  0
LINE
  8
1
  6
CONTINUOUS
 62
   233
  5
198
 10
94.83575
 20
60.161167
 30
0.0
 11
94.83575
 21
59.90075
 31
0.0
  0
LINE
  8
1
  6
CONTINUOUS
 62
   233
  5
199
 10
96.233917
 20
59.891333
 30
0.0
 11
105.414833
 21
59.891333
 31
0.0
  0
LINE
  8
1
  6
CONTINUOUS
 62
   233
  5
19A
 10
105.415
 20
59.630917
 30
0.0
 11
105.414667
 21
60.152417
 31
0.0
  0
LINE
  8
1
  6
CONTINUOUS
 62
   233
  5
19B
 10
94.83575
 20
60.15175
 30
0.0
 11
105.414667
 21
60.15175
 31
0.0
  0
TEXT
  8
2
  6
CONTINUOUS
 62
     2
  5
19C
 10
94.970333
 20
59.702583
 30
0.0
 40
0.125
  1
48"
  7
MONOTXT
210
0.0
220
0.0
230
1.0
  0
TEXT
  8
2
  6
CONTINUOUS
 62
     2
  5
19D
 10
95.644417
 20
59.702583
 30
0.0
 40
0.125
  1
5'-0"
  7
MONOTXT
210
0.0
220
0.0
230
1.0
  0
TEXT
  8
2
  6
CONTINUOUS
 62
     2
  5
19E
 10
99.740917
 20
59.691083
 30
0.0
 40
0.125
  1
4'-6"
  7
MONOTXT
210
0.0
220
0.0
230
1.0
  0
TEXT
  8
2
  6
CONTINUOUS
 62
     2
  5
19F
 10
101.368667
 20
59.693167
 30
0.0
 40
0.125
  1
14
  7
MONOTXT
210
0.0
220
0.0
230
1.0
  0
TEXT
  8
2
  6
CONTINUOUS
 62
     2
  5
1A0
 10
101.99425
 20
59.693167
 30
0.0
 40
0.125
  1
748
  7
MONOTXT
210
0.0
220
0.0
230
1.0
  0
TEXT
  8
2
  6
CONTINUOUS
 62
     2
  5
1A1
 10
102.61625
 20
59.693167
 30
0.0
 40
0.125
  1
112
  7
MONOTXT
210
0.0
220
0.0
230
1.0
  0
TEXT
  8
2
  6
CONTINUOUS
 62
     2
  5
1A2
 10
103.25225
 20
59.693167
 30
0.0
 40
0.125
  1
1 3/8"
  7
MONOTXT
210
0.0
220
0.0
230
1.0
  0
TEXT
  8
2
  6
CONTINUOUS
 62
     2
  5
1A3
 10
104.111
 20
59.693167
 30
0.0
 40
0.125
  1
29
  7
MONOTXT
210
0.0
220
0.0
230
1.0
  0
TEXT
  8
2
  6
CONTINUOUS
 62
     2
  5
1A4
 10
104.733
 20
59.693167
 30
0.0
 40
0.125
  1
1507
  7
MONOTXT
210
0.0
220
0.0
230
1.0
  0
LINE
  8
1
  6
CONTINUOUS
 62
   233
  5
1A5
 10
105.414667
 20
59.891333
 30
0.0
 11
96.233917
 21
59.891333
 31
0.0
  0
LINE
  8
1
  6
CONTINUOUS
 62
   233
  5
1A6
 10
105.414667
 20
59.892083
 30
0.0
 11
96.233917
 21
59.892083
 31
0.0
  0
LINE
  8
1
  6
CONTINUOUS
 62
   233
  5
1A7
 10
94.83575
 20
59.90075
 30
0.0
 11
94.83575
 21
59.628917
 31
0.0
  0
LINE
  8
1
  6
CONTINUOUS
 62
   233
  5
1A8
 10
94.83575
 20
59.630917
 30
0.0
 11
105.415
 21
59.630917
 31
0.0
  0
LINE
  8
1
  6
CONTINUOUS
 62
   233
  5
1A9
 10
94.83575
 20
59.891333
 30
0.0
 11
105.031583
 21
59.891333
 31
0.0
  0
LINE
  8
1
  6
CONTINUOUS
 62
   233
  5
1AA
 10
96.35775
 20
62.28025
 30
0.0
 11
96.35775
 21
59.640333
 31
0.0
  0
LINE
  8
1
  6
CONTINUOUS
 62
   233
  5
1AB
 10
97.271667
 20
62.28025
 30
0.0
 11
97.271667
 21
59.640333
 31
0.0
  0
LINE
  8
1
  6
CONTINUOUS
 62
   233
  5
1AC
 10
98.49
 20
62.28025
 30
0.0
 11
98.49
 21
59.640333
 31
0.0
  0
LINE
  8
1
  6
CONTINUOUS
 62
   233
  5
1AD
 10
99.662
 20
62.268917
 30
0.0
 11
99.662
 21
59.628917
 31
0.0
  0
LINE
  8
1
  6
CONTINUOUS
 62
   233
  5
1AE
 10
100.316917
 20
62.601667
 30
0.0
 11
100.316917
 21
59.630917
 31
0.0
  0
LINE
  8
1
  6
CONTINUOUS
 62
   233
  5
1AF
 10
101.072583
 20
62.270833
 30
0.0
 11
101.072583
 21
59.630917
 31
0.0
  0
LINE
  8
1
  6
CONTINUOUS
 62
   233
  5
1B0
 10
101.872833
 20
62.270833
 30
0.0
 11
101.872833
 21
59.630917
 31
0.0
  0
LINE
  8
1
  6
CONTINUOUS
 62
   233
  5
1B1
 10
102.414
 20
62.601667
 30
0.0
 11
102.414
 21
59.630917
 31
0.0
  0
LINE
  8
1
  6
CONTINUOUS
 62
   233
  5
1B2
 10
103.203667
 20
62.601667
 30
0.0
 11
103.203667
 21
59.630917
 31
0.0
  0
LINE
  8
1
  6
CONTINUOUS
 62
   233
  5
1B3
 10
104.005
 20
62.270833
 30
0.0
 11
104.005
 21
59.630917
 31
0.0
  0
LINE
  8
1
  6
CONTINUOUS
 62
   233
  5
1B4
 10
104.534583
 20
62.270833
 30
0.0
 11
104.534583
 21
59.630917
 31
0.0
  0
TEXT
  8
2
  6
CONTINUOUS
 62
     2
  5
1B5
 10
98.53775
 20
61.772417
 30
0.0
 40
0.125
  1
3'-1 3/4"
  7
MONOTXT
210
0.0
220
0.0
230
1.0
  0
TEXT
  8
2
  6
CONTINUOUS
 62
     2
  5
1B6
 10
96.55525
 20
59.702583
 30
0.0
 40
0.125
  1
5'-6"
  7
MONOTXT
210
0.0
220
0.0
230
1.0
  0
TEXT
  8
2
  6
CONTINUOUS
 62
     2
  5
1B7
 10
96.55525
 20
59.962917
 30
0.0
 40
0.125
  1
5'-0"
  7
MONOTXT
210
0.0
220
0.0
230
1.0
  0
TEXT
  8
2
  6
CONTINUOUS
 62
     2
  5
1B8
 10
96.55525
 20
60.223333
 30
0.0
 40
0.125
  1
4'-6"
  7
MONOTXT
210
0.0
220
0.0
230
1.0
  0
TEXT
  8
2
  6
CONTINUOUS
 62
     2
  5
1B9
 10
96.55525
 20
60.483667
 30
0.0
 40
0.125
  1
4'-3"
  7
MONOTXT
210
0.0
220
0.0
230
1.0
  0
TEXT
  8
2
  6
CONTINUOUS
 62
     2
  5
1BA
 10
96.55525
 20
60.744083
 30
0.0
 40
0.125
  1
4'-0"
  7
MONOTXT
210
0.0
220
0.0
230
1.0
  0
TEXT
  8
2
  6
CONTINUOUS
 62
     2
  5
1BB
 10
96.55525
 20
61.0045
 30
0.0
 40
0.125
  1
3'-6"
  7
MONOTXT
210
0.0
220
0.0
230
1.0
  0
TEXT
  8
2
  6
CONTINUOUS
 62
     2
  5
1BC
 10
96.55525
 20
61.264917
 30
0.0
 40
0.125
  1
3'-2"
  7
MONOTXT
210
0.0
220
0.0
230
1.0
  0
TEXT
  8
2
  6
CONTINUOUS
 62
     2
  5
1BD
 10
96.55525
 20
61.52525
 30
0.0
 40
0.125
  1
3'-2"
  7
MONOTXT
210
0.0
220
0.0
230
1.0
  0
TEXT
  8
2
  6
CONTINUOUS
 62
     2
  5
1BE
 10
97.320167
 20
61.52525
 30
0.0
 40
0.125
  1
2'-7 3/4"
  7
MONOTXT
210
0.0
220
0.0
230
1.0
  0
TEXT
  8
2
  6
CONTINUOUS
 62
     2
  5
1BF
 10
97.320167
 20
61.0045
 30
0.0
 40
0.125
  1
2'-11 3/4"
  7
MONOTXT
210
0.0
220
0.0
230
1.0
  0
TEXT
  8
2
  6
CONTINUOUS
 62
     2
  5
1C0
 10
97.320167
 20
60.744083
 30
0.0
 40
0.125
  1
3'-5 3/4"
  7
MONOTXT
210
0.0
220
0.0
230
1.0
  0
TEXT
  8
2
  6
CONTINUOUS
 62
     2
  5
1C1
 10
97.320167
 20
60.483667
 30
0.0
 40
0.125
  1
3'-8 3/4"
  7
MONOTXT
210
0.0
220
0.0
230
1.0
  0
TEXT
  8
2
  6
CONTINUOUS
 62
     2
  5
1C2
 10
97.320167
 20
60.223333
 30
0.0
 40
0.125
  1
3'-11 3/4"
  7
MONOTXT
210
0.0
220
0.0
230
1.0
  0
TEXT
  8
2
  6
CONTINUOUS
 62
     2
  5
1C3
 10
97.320167
 20
59.962917
 30
0.0
 40
0.125
  1
4'-5 3/4"
  7
MONOTXT
210
0.0
220
0.0
230
1.0
  0
TEXT
  8
2
  6
CONTINUOUS
 62
     2
  5
1C4
 10
97.320167
 20
59.702583
 30
0.0
 40
0.125
  1
4'-11 3/4"
  7
MONOTXT
210
0.0
220
0.0
230
1.0
  0
TEXT
  8
2
  6
CONTINUOUS
 62
     2
  5
1C5
 10
98.534667
 20
59.702583
 30
0.0
 40
0.125
  1
5'-5 3/4"
  7
MONOTXT
210
0.0
220
0.0
230
1.0
  0
TEXT
  8
2
  6
CONTINUOUS
 62
     2
  5
1C6
 10
98.534667
 20
59.962917
 30
0.0
 40
0.125
  1
4'-11 3/4"
  7
MONOTXT
210
0.0
220
0.0
230
1.0
  0
TEXT
  8
2
  6
CONTINUOUS
 62
     2
  5
1C7
 10
98.534667
 20
60.223333
 30
0.0
 40
0.125
  1
4'-5 3/4"
  7
MONOTXT
210
0.0
220
0.0
230
1.0
  0
TEXT
  8
2
  6
CONTINUOUS
 62
     2
  5
1C8
 10
98.534667
 20
60.483667
 30
0.0
 40
0.125
  1
4'-2 3/4"
  7
MONOTXT
210
0.0
220
0.0
230
1.0
  0
TEXT
  8
2
  6
CONTINUOUS
 62
     2
  5
1C9
 10
98.534667
 20
60.744083
 30
0.0
 40
0.125
  1
3'-11 3/4"
  7
MONOTXT
210
0.0
220
0.0
230
1.0
  0
TEXT
  8
2
  6
CONTINUOUS
 62
     2
  5
1CA
 10
98.534667
 20
61.0045
 30
0.0
 40
0.125
  1
3'-5 3/4"
  7
MONOTXT
210
0.0
220
0.0
230
1.0
  0
TEXT
  8
2
  6
CONTINUOUS
 62
     2
  5
1CB
 10
98.534667
 20
61.264917
 30
0.0
 40
0.125
  1
3'-1 3/4"
  7
MONOTXT
210
0.0
220
0.0
230
1.0
  0
TEXT
  8
2
  6
CONTINUOUS
 62
     2
  5
1CC
 10
98.534667
 20
61.52525
 30
0.0
 40
0.125
  1
3'-1 3/4"
  7
MONOTXT
210
0.0
220
0.0
230
1.0
  0
TEXT
  8
2
  6
CONTINUOUS
 62
     2
  5
1CD
 10
97.320167
 20
61.242333
 30
0.0
 40
0.125
  1
2'-7 3/4"
  7
MONOTXT
210
0.0
220
0.0
230
1.0
  0
TEXT
  8
2
  6
CONTINUOUS
 62
     2
  5
1CE
 10
100.389833
 20
59.693167
 30
0.0
 40
0.125
  1
3 3/8"
  7
MONOTXT
210
0.0
220
0.0
230
1.0
  0
TEXT
  8
2
  6
CONTINUOUS
 62
     2
  5
1CF
 10
100.389833
 20
60.213917
 30
0.0
 40
0.125
  1
3 3/8"
  7
MONOTXT
210
0.0
220
0.0
230
1.0
  0
TEXT
  8
2
  6
CONTINUOUS
 62
     2
  5
1D0
 10
100.389833
 20
60.47425
 30
0.0
 40
0.125
  1
3 7/8"
  7
MONOTXT
210
0.0
220
0.0
230
1.0
  0
TEXT
  8
2
  6
CONTINUOUS
 62
     2
  5
1D1
 10
100.389833
 20
60.995083
 30
0.0
 40
0.125
  1
3 3/8"
  7
MONOTXT
210
0.0
220
0.0
230
1.0
  0
TEXT
  8
2
  6
CONTINUOUS
 62
     2
  5
1D2
 10
100.389833
 20
61.2555
 30
0.0
 40
0.125
  1
3 3/8"
  7
MONOTXT
210
0.0
220
0.0
230
1.0
  0
TEXT
  8
2
  6
CONTINUOUS
 62
     2
  5
1D3
 10
100.389833
 20
61.515833
 30
0.0
 40
0.125
  1
3 3/8"
  7
MONOTXT
210
0.0
220
0.0
230
1.0
  0
TEXT
  8
2
  6
CONTINUOUS
 62
     2
  5
1D4
 10
100.389833
 20
60.74575
 30
0.0
 40
0.125
  1
3 3/8"
  7
MONOTXT
210
0.0
220
0.0
230
1.0
  0
TEXT
  8
2
  6
CONTINUOUS
 62
     2
  5
1D5
 10
100.389833
 20
59.96475
 30
0.0
 40
0.125
  1
3 3/8"
  7
MONOTXT
210
0.0
220
0.0
230
1.0
  0
POINT
  8
1
  6
DASHED
 62
     2
  5
1D6
 10
94.008917
 20
79.089583
 30
0.0
  0
POINT
  8
1
  6
DASHED
 62
     2
  5
1D7
 10
127.233917
 20
57.969583
 30
0.0
  0
LINE
  8
1
  6
DASHED
 62
     4
  5
1D8
 10
127.10425
 20
79.569583
 30
0.0
 11
91.90425
 21
79.569583
 31
0.0
  0
LINE
  8
1
  6
DASHED
 62
     4
  5
1D9
 10
127.10425
 20
57.569583
 30
0.0
 11
91.90425
 21
57.569583
 31
0.0
  0
LINE
  8
1
  6
DASHED
 62
     4
  5
1DA
 10
93.47925
 20
79.569583
 30
0.0
 11
93.47925
 21
57.569583
 31
0.0
  0
LINE
  8
1
  6
CONTINUOUS
 62
   140
  5
1DB
 10
94.520917
 20
79.069583
 30
0.0
 11
94.520917
 21
58.069583
 31
0.0
  0
LINE
  8
1
  6
CONTINUOUS
 62
   140
  5
1DC
 10
127.020917
 20
79.069583
 30
0.0
 11
94.520917
 21
79.069583
 31
0.0
  0
LINE
  8
1
  6
CONTINUOUS
 62
   140
  5
1DD
 10
127.020917
 20
79.069583
 30
0.0
 11
127.020917
 21
58.069583
 31
0.0
  0
LINE
  8
1
  6
CONTINUOUS
 62
   140
  5
1DE
 10
127.020917
 20
58.069583
 30
0.0
 11
94.520917
 21
58.069583
 31
0.0
  0
LINE
  8
1
  6
CONTINUOUS
 62
   140
  5
1DF
 10
94.270917
 20
75.169583
 30
0.0
 11
93.870917
 21
75.169583
 31
0.0
  0
LINE
  8
1
  6
CONTINUOUS
 62
   140
  5
1E0
 10
94.270917
 20
72.369583
 30
0.0
 11
93.870917
 21
72.369583
 31
0.0
  0
LINE
  8
1
  6
CONTINUOUS
 62
   140
  5
1E1
 10
94.270917
 20
64.769583
 30
0.0
 11
93.870917
 21
64.769583
 31
0.0
  0
LINE
  8
1
  6
CONTINUOUS
 62
   140
  5
1E2
 10
94.270917
 20
61.969583
 30
0.0
 11
93.870917
 21
61.969583
 31
0.0
  0
CIRCLE
  8
1
  6
CONTINUOUS
 62
   140
  5
1E3
 10
94.020917
 20
75.169583
 30
0.0
 40
0.125
210
0.0
220
0.0
230
1.0
  0
CIRCLE
  8
1
  6
CONTINUOUS
 62
   140
  5
1E4
 10
94.020917
 20
72.369583
 30
0.0
 40
0.125
210
0.0
220
0.0
230
1.0
  0
CIRCLE
  8
1
  6
CONTINUOUS
 62
   140
  5
1E5
 10
94.020917
 20
64.769583
 30
0.0
 40
0.125
210
0.0
220
0.0
230
1.0
  0
CIRCLE
  8
1
  6
CONTINUOUS
 62
   140
  5
1E6
 10
94.020917
 20
61.969583
 30
0.0
 40
0.125
210
0.0
220
0.0
230
1.0
  0
TEXT
  8
1
  6
CONTINUOUS
 62
   140
  5
1E8
 10
123.476667
 20
57.977833
 30
0.0
 40
0.06
  1
$$$$$$$$$FILENAME$$$$$$$$
  7
txt
 11
123.476667
 21
58.007833
 31
0.0
210
0.0
220
0.0
230
1.0
 73
     2
  0
TEXT
  8
1
  6
CONTINUOUS
 62
   140
  5
1E9
 10
125.20075
 20
57.977833
 30
0.0
 40
0.06
  1
$USERNAME$
  7
txt
 11
125.20075
 21
58.007833
 31
0.0
210
0.0
220
0.0
230
1.0
 73
     2
  0
TEXT
  8
1
  6
CONTINUOUS
 62
   140
  5
1EA
 10
125.974333
 20
57.977833
 30
0.0
 40
0.06
  1
DD-MMM-YYYY HH:MM
  7
txt
 11
125.974333
 21
58.007833
 31
0.0
210
0.0
220
0.0
230
1.0
 73
     2
  0
POINT
  8
1
  6
CONTINUOUS
 62
   140
  5
1EB
 10
94.520917
 20
58.069583
 30
0.0
  0
POINT
  8
1
  6
CONTINUOUS
 62
   140
  5
1EC
 10
94.520917
 20
79.069583
 30
0.0
  0
POINT
  8
1
  6
CONTINUOUS
 62
   140
  5
1ED
 10
127.020917
 20
79.069583
 30
0.0
  0
POINT
  8
1
  6
CONTINUOUS
 62
   140
  5
1EE
 10
127.020917
 20
58.069583
 30
0.0
  0
LINE
  8
1
  6
CONTINUOUS
 62
   140
  5
1EF
 10
127.020917
 20
58.069583
 30
0.0
 11
127.020917
 21
60.568583
 31
0.0
  0
LINE
  8
1
  6
CONTINUOUS
 62
   140
  5
1F0
 10
127.020917
 20
61.559417
 30
0.0
 11
121.020917
 21
61.559417
 31
0.0
  0
LINE
  8
1
  6
CONTINUOUS
 62
   140
  5
1F1
 10
127.020917
 20
58.069583
 30
0.0
 11
121.020917
 21
58.069583
 31
0.0
  0
LINE
  8
1
  6
CONTINUOUS
 62
   140
  5
1F2
 10
122.558833
 20
59.968583
 30
0.0
 11
121.020917
 21
59.968583
 31
0.0
  0
LINE
  8
1
  6
CONTINUOUS
 62
   140
  5
1F3
 10
122.558833
 20
59.769583
 30
0.0
 11
121.020917
 21
59.769583
 31
0.0
  0
LINE
  8
1
  6
CONTINUOUS
 62
   140
  5
1F4
 10
122.558833
 20
59.570583
 30
0.0
 11
121.020917
 21
59.570583
 31
0.0
  0
LINE
  8
1
  6
CONTINUOUS
 62
   140
  5
1F5
 10
122.558833
 20
59.371583
 30
0.0
 11
121.020917
 21
59.371583
 31
0.0
  0
LINE
  8
1
  6
CONTINUOUS
 62
   140
  5
1F6
 10
122.558833
 20
59.172583
 30
0.0
 11
121.020917
 21
59.172583
 31
0.0
  0
LINE
  8
1
  6
CONTINUOUS
 62
   140
  5
1F7
 10
122.558833
 20
58.973583
 30
0.0
 11
121.020917
 21
58.973583
 31
0.0
  0
LINE
  8
1
  6
CONTINUOUS
 62
   140
  5
1F8
 10
122.558833
 20
58.774583
 30
0.0
 11
121.020917
 21
58.774583
 31
0.0
  0
LINE
  8
1
  6
CONTINUOUS
 62
   140
  5
1F9
 10
122.558833
 20
58.575583
 30
0.0
 11
121.020917
 21
58.575583
 31
0.0
  0
LINE
  8
1
  6
CONTINUOUS
 62
   140
  5
1FA
 10
122.558833
 20
58.376583
 30
0.0
 11
121.020917
 21
58.376583
 31
0.0
  0
TEXT
  8
1
  6
CONTINUOUS
 62
   140
  5
1FB
 10
121.328
 20
60.015917
 30
0.0
 40
0.079
  1
REVISION DATE
 41
1.003165
  7
MONOTXT
210
0.0
220
0.0
230
1.0
  0
LINE
  8
1
  6
CONTINUOUS
 62
   140
  5
1FC
 10
121.020917
 20
59.479583
 30
0.0
 11
121.020917
 21
58.069583
 31
0.0
  0
TEXT
  8
1
  6
CONTINUOUS
 62
   140
  5
1FE
 10
121.23225
 20
61.3045
 30
0.0
 40
0.1875
  1
WEST VIRGINIA DEPARTMENT OF TRANSPORTATION
  7
ROMANT
 72
     4
 11
124.002583
 21
61.39825
 31
0.0
210
0.0
220
0.0
230
1.0
  0
TEXT
  8
1
  6
CONTINUOUS
 62
   140
  5
1FF
 10
122.805083
 20
61.095583
 30
0.0
 40
0.1875
  1
DIVISION OF HIGHWAYS
  7
ROMANT
 72
     4
 11
124.024583
 21
61.189333
 31
0.0
210
0.0
220
0.0
230
1.0
  0
TEXT
  8
1
  6
CONTINUOUS
 62
   140
  5
200
 10
123.035167
 20
60.897417
 30
0.0
 40
0.1875
  1
STANDARD DETAIL
  7
ROMANT
 72
     4
 11
124.01325
 21
60.991167
 31
0.0
210
0.0
220
0.0
230
1.0
  0
LINE
  8
1
  6
CONTINUOUS
 62
   140
  5
201
 10
122.558833
 20
60.168583
 30
0.0
 11
121.020917
 21
60.168583
 31
0.0
  0
LINE
  8
1
  6
CONTINUOUS
 62
   140
  5
202
 10
122.558833
 20
58.069583
 30
0.0
 11
122.558833
 21
60.168583
 31
0.0
  0
LINE
  8
1
  6
CONTINUOUS
 62
   140
  5
203
 10
121.020917
 20
58.069583
 30
0.0
 11
121.020917
 21
61.559417
 31
0.0
  0
TEXT
  8
1
  6
CONTINUOUS
 62
     2
  5
204
 10
122.908667
 20
58.286667
 30
0.0
 40
0.166667
  1
STANDARD SHEET DR6-G     
  7
txt
 72
     4
 11
124.948
 21
58.37
 31
0.0
210
0.0
220
0.0
230
1.0
  0
TEXT
  8
1
  6
CONTINUOUS
 62
     2
  5
205
 10
122.2865
 20
60.431667
 30
0.0
 40
0.208333
  1
                        
  7
txt
 72
     4
 11
124.75175
 21
60.535833
 31
0.0
210
0.0
220
0.0
230
1.0
  0
TEXT
  8
1
  6
CONTINUOUS
 62
     2
  5
206
 10
122.292167
 20
60.060083
 30
0.0
 40
0.208333
  1
                        
  7
txt
 72
     4
 11
124.757417
 21
60.16425
 31
0.0
210
0.0
220
0.0
230
1.0
  0
TEXT
  8
1
  6
CONTINUOUS
 62
     2
  5
207
 10
122.65925
 20
59.68475
 30
0.0
 40
0.208333
  1
      TYPE G INLET      
  7
txt
 72
     4
 11
125.110083
 21
59.788917
 31
0.0
210
0.0
220
0.0
230
1.0
  0
TEXT
  8
1
  6
CONTINUOUS
 62
     2
  5
208
 10
122.292083
 20
59.334417
 30
0.0
 40
0.208333
  1
                        
  7
txt
 72
     4
 11
124.757333
 21
59.438583
 31
0.0
210
0.0
220
0.0
230
1.0
  0
TEXT
  8
1
  6
CONTINUOUS
 62
     2
  5
209
 10
122.292083
 20
58.984083
 30
0.0
 40
0.208333
  1
                        
  7
txt
 72
     4
 11
124.757333
 21
59.08825
 31
0.0
210
0.0
220
0.0
230
1.0
  0
TEXT
  8
1
  6
CONTINUOUS
 62
     2
  5
20B
 10
121.056
 20
59.408
 30
0.0
 40
0.083333
  1
                  
  7
ROMANS
 72
     4
 11
121.792083
 21
59.449667
 31
0.0
210
0.0
220
0.0
230
1.0
  0
TEXT
  8
1
  6
CONTINUOUS
 62
     2
  5
20C
 10
121.056
 20
59.209
 30
0.0
 40
0.083333
  1
                  
  7
ROMANS
 72
     4
 11
121.792083
 21
59.250667
 31
0.0
210
0.0
220
0.0
230
1.0
  0
TEXT
  8
1
  6
CONTINUOUS
 62
     2
  5
20D
 10
121.056
 20
59.01
 30
0.0
 40
0.083333
  1
                  
  7
ROMANS
 72
     4
 11
121.792083
 21
59.051667
 31
0.0
210
0.0
220
0.0
230
1.0
  0
TEXT
  8
1
  6
CONTINUOUS
 62
     2
  5
20E
 10
121.056
 20
58.811
 30
0.0
 40
0.083333
  1
                  
  7
ROMANS
 72
     4
 11
121.792083
 21
58.852667
 31
0.0
210
0.0
220
0.0
230
1.0
  0
TEXT
  8
1
  6
CONTINUOUS
 62
     2
  5
20F
 10
121.056
 20
58.612
 30
0.0
 40
0.083333
  1
                  
  7
ROMANS
 72
     4
 11
121.792083
 21
58.653667
 31
0.0
210
0.0
220
0.0
230
1.0
  0
TEXT
  8
1
  6
CONTINUOUS
 62
     2
  5
210
 10
121.056
 20
58.413
 30
0.0
 40
0.083333
  1
                  
  7
ROMANS
 72
     4
 11
121.792083
 21
58.454667
 31
0.0
210
0.0
220
0.0
230
1.0
  0
TEXT
  8
1
  6
CONTINUOUS
 62
     2
  5
211
 10
121.054417
 20
58.208833
 30
0.0
 40
0.083333
  1
                  
  7
ROMANS
 72
     4
 11
121.7905
 21
58.2505
 31
0.0
210
0.0
220
0.0
230
1.0
  0
POINT
  8
1
  6
DASHED
 62
     2
  5
212
 10
94.008917
 20
79.089583
 30
0.0
  0
POINT
  8
1
  6
DASHED
 62
     2
  5
213
 10
127.233917
 20
57.969583
 30
0.0
  0
TEXT
  8
1
  6
CONTINUOUS
 62
   140
  5
214
 10
94.568917
 20
57.948583
 30
0.0
 40
0.06
  1
P5A1G92-STDBOR a
  7
MONOTXT
210
0.0
220
0.0
230
1.0
  0
TEXT
  8
2
  6
CONTINUOUS
 62
     2
  5
215
 10
116.490917
 20
72.17225
 30
0.0
 40
0.15
  1
Direction
  7
MONOTXT
210
0.0
220
0.0
230
1.0
  0
TEXT
  8
2
  6
CONTINUOUS
 62
     2
  5
216
 10
116.4905
 20
71.920667
 30
0.0
 40
0.15
  1
of flow
  7
MONOTXT
210
0.0
220
0.0
230
1.0
  0
TEXT
  8
2
  6
CONTINUOUS
 62
     2
  5
217
 10
116.509
 20
71.730417
 30
0.0
 40
0.15
  1
parallel
  7
MONOTXT
210
0.0
220
0.0
230
1.0
  0
TEXT
  8
2
  6
CONTINUOUS
 62
     2
  5
218
 10
116.48825
 20
71.447083
 30
0.0
 40
0.15
  1
to bars
  7
MONOTXT
210
0.0
220
0.0
230
1.0
  0
LINE
  8
1
  6
CONTINUOUS
 62
   233
  5
219
 10
95.165083
 20
75.539083
 30
0.0
 11
100.878333
 21
75.539083
 31
0.0
  0
LINE
  8
1
  6
CONTINUOUS
 62
   233
  5
21A
 10
100.878333
 20
77.699333
 30
0.0
 11
95.165083
 21
77.699333
 31
0.0
  0
LINE
  8
1
  6
CONTINUOUS
 62
   233
  5
21B
 10
95.165083
 20
77.699333
 30
0.0
 11
95.165083
 21
75.539083
 31
0.0
  0
LINE
  8
1
  6
CONTINUOUS
 62
   233
  5
21C
 10
95.165083
 20
75.799417
 30
0.0
 11
100.878333
 21
75.799417
 31
0.0
  0
LINE
  8
1
  6
CONTINUOUS
 62
   233
  5
21D
 10
95.165083
 20
76.046583
 30
0.0
 11
100.878333
 21
76.046583
 31
0.0
  0
LINE
  8
1
  6
CONTINUOUS
 62
   233
  5
21E
 10
95.165083
 20
76.339417
 30
0.0
 11
100.878333
 21
76.339417
 31
0.0
  0
LINE
  8
1
  6
CONTINUOUS
 62
   233
  5
21F
 10
95.165083
 20
76.632167
 30
0.0
 11
100.878333
 21
76.632167
 31
0.0
  0
LINE
  8
1
  6
CONTINUOUS
 62
   233
  5
220
 10
95.165083
 20
77.263417
 30
0.0
 11
100.878333
 21
77.263417
 31
0.0
  0
LINE
  8
1
  6
CONTINUOUS
 62
   233
  5
221
 10
96.157667
 20
75.539083
 30
0.0
 11
96.157667
 21
76.872917
 31
0.0
  0
LINE
  8
1
  6
CONTINUOUS
 62
   233
  5
222
 10
97.106833
 20
75.539083
 30
0.0
 11
97.106833
 21
77.263417
 31
0.0
  0
LINE
  8
1
  6
CONTINUOUS
 62
   233
  5
223
 10
95.165083
 20
76.853417
 30
0.0
 11
97.106833
 21
76.853417
 31
0.0
  0
TEXT
  8
3
  6
CONTINUOUS
 62
     2
  5
225
 10
96.168833
 20
77.334917
 30
0.0
 40
0.2025
  1
INLET MOUNDING TABLE
  7
MONOTXT
210
0.0
220
0.0
230
1.0
  0
TEXT
  8
3
  6
CONTINUOUS
 62
     2
  5
226
 10
95.469167
 20
77.094167
 30
0.0
 40
0.135
  1
DITCH GRADE
  7
MONOTXT
210
0.0
220
0.0
230
1.0
  0
TEXT
  8
3
  6
CONTINUOUS
 62
     2
  5
227
 10
96.021167
 20
76.914667
 30
0.0
 40
0.1125
  1
(%)
  7
MONOTXT
210
0.0
220
0.0
230
1.0
  0
TEXT
  8
3
  6
CONTINUOUS
 62
     2
  5
228
 10
95.38225
 20
76.684333
 30
0.0
 40
0.135
  1
FROM
  7
MONOTXT
210
0.0
220
0.0
230
1.0
  0
TEXT
  8
3
  6
CONTINUOUS
 62
     2
  5
229
 10
96.492583
 20
76.684333
 30
0.0
 40
0.135
  1
TO
  7
MONOTXT
210
0.0
220
0.0
230
1.0
  0
TEXT
  8
3
  6
CONTINUOUS
 62
     2
  5
22A
 10
95.593167
 20
76.437
 30
0.0
 40
0.135
  1
0
  7
MONOTXT
210
0.0
220
0.0
230
1.0
  0
TEXT
  8
3
  6
CONTINUOUS
 62
     2
  5
22B
 10
95.593167
 20
76.163583
 30
0.0
 40
0.135
  1
3
  7
MONOTXT
210
0.0
220
0.0
230
1.0
  0
TEXT
  8
3
  6
CONTINUOUS
 62
     2
  5
22C
 10
95.593167
 20
75.870833
 30
0.0
 40
0.135
  1
5
  7
MONOTXT
210
0.0
220
0.0
230
1.0
  0
TEXT
  8
3
  6
CONTINUOUS
 62
     2
  5
22D
 10
95.506333
 20
75.62375
 30
0.0
 40
0.135
  1
7.5
  7
MONOTXT
210
0.0
220
0.0
230
1.0
  0
TEXT
  8
3
  6
CONTINUOUS
 62
     2
  5
22E
 10
96.461583
 20
75.62375
 30
0.0
 40
0.135
  1
UP
  7
MONOTXT
210
0.0
220
0.0
230
1.0
  0
TEXT
  8
3
  6
CONTINUOUS
 62
     2
  5
22F
 10
96.455417
 20
75.870833
 30
0.0
 40
0.135
  1
7.5
  7
MONOTXT
210
0.0
220
0.0
230
1.0
  0
TEXT
  8
3
  6
CONTINUOUS
 62
     2
  5
230
 10
96.5485
 20
76.163583
 30
0.0
 40
0.135
  1
5
  7
MONOTXT
210
0.0
220
0.0
230
1.0
  0
TEXT
  8
3
  6
CONTINUOUS
 62
     2
  5
231
 10
96.5485
 20
76.437
 30
0.0
 40
0.135
  1
3
  7
MONOTXT
210
0.0
220
0.0
230
1.0
  0
TEXT
  8
3
  6
CONTINUOUS
 62
     2
  5
232
 10
98.00625
 20
75.870833
 30
0.0
 40
0.135
  1
8
  7
MONOTXT
210
0.0
220
0.0
230
1.0
  0
TEXT
  8
3
  6
CONTINUOUS
 62
     2
  5
233
 10
97.987583
 20
76.131083
 30
0.0
 40
0.135
  1
9
  7
MONOTXT
210
0.0
220
0.0
230
1.0
  0
TEXT
  8
3
  6
CONTINUOUS
 62
     2
  5
234
 10
97.913083
 20
76.437
 30
0.0
 40
0.135
  1
10
  7
MONOTXT
210
0.0
220
0.0
230
1.0
  0
TEXT
  8
3
  6
CONTINUOUS
 62
     2
  5
235
 10
97.212167
 20
75.62375
 30
0.0
 40
0.135
  1
SPECIAL DESIGN
  7
MONOTXT
210
0.0
220
0.0
230
1.0
  0
TEXT
  8
3
  6
CONTINUOUS
 62
     2
  5
236
 10
97.224583
 20
77.094167
 30
0.0
 40
0.135
  1
L1, HORIZONTAL
  7
MONOTXT
210
0.0
220
0.0
230
1.0
  0
TEXT
  8
3
  6
CONTINUOUS
 62
     2
  5
237
 10
97.634083
 20
76.9185
 30
0.0
 40
0.135
  1
LENGTH
  7
MONOTXT
210
0.0
220
0.0
230
1.0
  0
TEXT
  8
3
  6
CONTINUOUS
 62
     2
  5
238
 10
97.820083
 20
76.723333
 30
0.0
 40
0.135
  1
(FT.)
  7
MONOTXT
210
0.0
220
0.0
230
1.0
  0
TEXT
  8
3
  6
CONTINUOUS
 62
     2
  5
239
 10
105.276333
 20
75.589417
 30
0.0
 40
0.15
  1
Median  and Side Ditches
  7
MONOTXT
210
0.0
220
0.0
230
1.0
  0
TEXT
  8
3
  6
CONTINUOUS
 62
     2
  5
23A
 10
105.196667
 20
75.83325
 30
0.0
 40
0.243
  1
MOUNDING DETAIL
  7
MONOTXT
210
0.0
220
0.0
230
1.0
  0
LINE
  8
1
  6
CONTINUOUS
 62
   233
  5
23B
 10
101.187167
 20
76.477583
 30
0.0
 11
103.590167
 21
76.687667
 31
0.0
  0
LINE
  8
1
  6
CONTINUOUS
 62
   233
  5
23C
 10
103.590167
 20
76.687667
 30
0.0
 11
106.503583
 21
77.519
 31
0.0
  0
LINE
  8
1
  6
CONTINUOUS
 62
   233
  5
23D
 10
106.503583
 20
77.519
 30
0.0
 11
106.829833
 21
77.53125
 31
0.0
  0
LINE
  8
1
  6
CONTINUOUS
 62
   233
  5
23E
 10
106.829833
 20
77.53125
 30
0.0
 11
107.307667
 21
77.53125
 31
0.0
  0
LINE
  8
1
  6
CONTINUOUS
 62
   233
  5
23F
 10
107.307667
 20
77.53125
 30
0.0
 11
109.265417
 21
77.335667
 31
0.0
  0
LINE
  8
1
  6
CONTINUOUS
 62
   233
  5
240
 10
109.265417
 20
77.335667
 30
0.0
 11
110.337583
 21
77.335667
 31
0.0
  0
LINE
  8
1
  6
CONTINUOUS
 62
   233
  5
241
 10
110.337583
 20
77.335667
 30
0.0
 11
112.58875
 21
77.556083
 31
0.0
  0
LINE
  8
2
  6
HIDDEN
 62
     2
  5
242
 10
110.337583
 20
77.335667
 30
0.0
 11
103.590167
 21
76.687667
 31
0.0
  0
LINE
  8
1
  6
CONTINUOUS
 62
   233
  5
243
 10
110.337583
 20
77.335667
 30
0.0
 11
110.337583
 21
76.594667
 31
0.0
  0
LINE
  8
1
  6
CONTINUOUS
 62
   233
  5
244
 10
110.337583
 20
76.594667
 30
0.0
 11
109.309917
 21
76.594667
 31
0.0
  0
LINE
  8
1
  6
CONTINUOUS
 62
   233
  5
245
 10
109.309917
 20
76.594667
 30
0.0
 11
109.309917
 21
77.335667
 31
0.0
  0
LINE
  8
1
  6
CONTINUOUS
 62
   233
  5
246
 10
110.159417
 20
77.335667
 30
0.0
 11
110.159417
 21
76.791083
 31
0.0
  0
LINE
  8
1
  6
CONTINUOUS
 62
   233
  5
247
 10
110.159417
 20
76.791083
 30
0.0
 11
109.503667
 21
76.791083
 31
0.0
  0
LINE
  8
1
  6
CONTINUOUS
 62
   233
  5
248
 10
109.503667
 20
76.791083
 30
0.0
 11
109.503667
 21
77.335667
 31
0.0
  0
CIRCLE
  8
1
  6
CONTINUOUS
 62
   233
  5
249
 10
109.82345
 20
77.007796
 30
0.0
 40
0.213207
210
0.0
220
0.0
230
1.0
  0
LINE
  8
7
  6
CENTER
 62
     2
  5
24B
 10
109.074083
 20
77.007833
 30
0.0
 11
110.5245
 21
77.007833
 31
0.0
  0
LINE
  8
7
  6
CENTER
 62
     2
  5
24C
 10
109.823417
 20
77.756417
 30
0.0
 11
109.823417
 21
76.327
 31
0.0
  0
SOLID
  8
3
  6
CONTINUOUS
 62
     2
  5
24D
 10
110.464167
 20
76.8885
 30
0.0
 11
110.464167
 21
76.930667
 31
0.0
 12
110.337583
 22
76.909583
 32
0.0
 13
110.337583
 23
76.909583
 33
0.0
  0
LINE
  8
3
  6
CONTINUOUS
 62
     2
  5
24E
 10
110.464167
 20
76.909583
 30
0.0
 11
110.925417
 21
76.909583
 31
0.0
  0
TEXT
  8
3
  6
CONTINUOUS
 62
     2
  5
24F
 10
110.991917
 20
76.874583
 30
0.0
 40
0.15
  1
Inlet
  7
MONOTXT
210
0.0
220
0.0
230
1.0
  0
INSERT
  8
1
  6
CONTINUOUS
 62
     7
  5
271
  2
$X32
 10
95.7085
 20
73.66975
 30
0.0
 41
1.012503
 42
1.012503
210
0.0
220
0.0
230
1.0
  0
SOLID
  8
3
  6
CONTINUOUS
 62
     2
  5
272
 10
112.344083
 20
77.646417
 30
0.0
 11
112.313
 21
77.617833
 31
0.0
 12
112.41425
 22
77.539083
 32
0.0
 13
112.41425
 23
77.539083
 33
0.0
  0
LINE
  8
3
  6
CONTINUOUS
 62
     2
  5
273
 10
112.3285
 20
77.632
 30
0.0
 11
112.221667
 21
77.74775
 31
0.0
  0
LINE
  8
3
  6
CONTINUOUS
 62
     2
  5
274
 10
112.221667
 20
77.74775
 30
0.0
 11
111.983583
 21
77.74775
 31
0.0
  0
TEXT
  8
3
  6
CONTINUOUS
 62
     2
  5
275
 10
110.610083
 20
77.712167
 30
0.0
 40
0.15
  1
Ditch Grade
  7
MONOTXT
210
0.0
220
0.0
230
1.0
  0
INSERT
  8
1
  6
CONTINUOUS
 62
     7
  5
276
  2
$X32
 10
91.714
 20
77.309167
 30
0.0
 41
1.0125
 42
1.0125
 50
347.15239
210
0.0
220
0.0
230
1.0
  0
SOLID
  8
3
  6
CONTINUOUS
 62
     2
  5
277
 10
107.264167
 20
77.452167
 30
0.0
 11
107.232167
 21
77.479667
 31
0.0
 12
107.165667
 22
77.369833
 32
0.0
 13
107.165667
 23
77.369833
 33
0.0
  0
LINE
  8
3
  6
CONTINUOUS
 62
     2
  5
278
 10
107.248167
 20
77.465917
 30
0.0
 11
107.638417
 21
77.92025
 31
0.0
  0
LINE
  8
3
  6
CONTINUOUS
 62
     2
  5
279
 10
107.638417
 20
77.92025
 30
0.0
 11
107.799833
 21
77.92025
 31
0.0
  0
TEXT
  8
3
  6
CONTINUOUS
 62
     2
  5
27A
 10
107.852917
 20
77.87175
 30
0.0
 40
0.15
  1
Inlet Mound
  7
MONOTXT
210
0.0
220
0.0
230
1.0
  0
LINE
  8
2
  6
HIDDEN
 62
     2
  5
27B
 10
107.321417
 20
77.521083
 30
0.0
 11
106.767917
 21
77.63
 31
0.0
  0
LINE
  8
2
  6
HIDDEN
 62
     2
  5
27C
 10
106.767917
 20
77.63
 30
0.0
 11
106.503583
 21
77.519
 31
0.0
  0
LINE
  8
1
  6
CONTINUOUS
 62
     7
  5
27D
 10
106.70025
 20
76.9925
 30
0.0
 11
106.562667
 21
76.9925
 31
0.0
  0
LINE
  8
1
  6
CONTINUOUS
 62
     7
  5
27E
 10
106.704667
 20
77.63
 30
0.0
 11
106.562667
 21
77.63
 31
0.0
  0
LINE
  8
1
  6
CONTINUOUS
 62
     7
  5
27F
 10
106.744917
 20
77.119
 30
0.0
 11
106.744917
 21
77.503333
 31
0.0
  0
SOLID
  8
1
  6
CONTINUOUS
 62
     7
  5
280
 10
106.766
 20
77.119
 30
0.0
 11
106.72375
 21
77.119
 31
0.0
 12
106.744917
 22
76.9925
 32
0.0
 13
106.744917
 23
76.9925
 33
0.0
  0
SOLID
  8
1
  6
CONTINUOUS
 62
     7
  5
281
 10
106.766
 20
77.503333
 30
0.0
 11
106.72375
 21
77.503333
 31
0.0
 12
106.744917
 22
77.63
 32
0.0
 13
106.744917
 23
77.63
 33
0.0
  0
LINE
  8
6
  6
CONTINUOUS
 62
     7
  5
283
 10
106.7635
 20
76.9925
 30
0.0
 11
106.763583
 21
76.9925
 31
0.0
  0
LINE
  8
6
  6
CONTINUOUS
 62
     7
  5
284
 10
106.767917
 20
77.63
 30
0.0
 11
106.768
 21
77.63
 31
0.0
  0
POINT
  8
6
  6
CONTINUOUS
 62
     7
  5
285
 10
106.744917
 20
77.63
 30
0.0
  0
SOLID
  8
3
  6
CONTINUOUS
 62
     2
  5
286
 10
106.792167
 20
77.20225
 30
0.0
 11
106.82825
 21
77.224
 31
0.0
 12
106.744917
 22
77.3215
 32
0.0
 13
106.744917
 23
77.3215
 33
0.0
  0
LINE
  8
3
  6
CONTINUOUS
 62
     2
  5
287
 10
106.810167
 20
77.213083
 30
0.0
 11
107.131
 21
76.680417
 31
0.0
  0
LINE
  8
3
  6
CONTINUOUS
 62
     2
  5
288
 10
107.131
 20
76.680417
 30
0.0
 11
107.28675
 21
76.680417
 31
0.0
  0
TEXT
  8
3
  6
CONTINUOUS
 62
     2
  5
289
 10
107.327083
 20
76.60175
 30
0.0
 40
0.15
  1
1' Vertical Height
  7
MONOTXT
210
0.0
220
0.0
230
1.0
  0
TEXT
  8
3
  6
CONTINUOUS
 62
     2
  5
28A
 10
106.9455
 20
76.3625
 30
0.0
 40
0.15
  1
(above ditch grade)
  7
MONOTXT
210
0.0
220
0.0
230
1.0
  0
LINE
  8
1
  6
CONTINUOUS
 62
     7
  5
28B
 10
107.26925
 20
77.817167
 30
0.0
 11
107.26925
 21
78.087917
 31
0.0
  0
LINE
  8
1
  6
CONTINUOUS
 62
     7
  5
28C
 10
106.417
 20
77.817167
 30
0.0
 11
106.417
 21
78.087917
 31
0.0
  0
LINE
  8
1
  6
CONTINUOUS
 62
     7
  5
28D
 10
107.14275
 20
77.94975
 30
0.0
 11
106.543583
 21
77.94975
 31
0.0
  0
SOLID
  8
1
  6
CONTINUOUS
 62
     7
  5
28E
 10
107.14275
 20
77.928667
 30
0.0
 11
107.14275
 21
77.970833
 31
0.0
 12
107.26925
 22
77.94975
 32
0.0
 13
107.26925
 23
77.94975
 33
0.0
  0
SOLID
  8
1
  6
CONTINUOUS
 62
     7
  5
28F
 10
106.543583
 20
77.928667
 30
0.0
 11
106.543583
 21
77.970833
 31
0.0
 12
106.417
 22
77.94975
 32
0.0
 13
106.417
 23
77.94975
 33
0.0
  0
TEXT
  8
1
  6
CONTINUOUS
 62
     7
  5
290
 10
106.797167
 20
77.978583
 30
0.0
 40
0.15
  1
4'
  7
MONOTXT
210
0.0
220
0.0
230
1.0
  0
LINE
  8
6
  6
CONTINUOUS
 62
     7
  5
291
 10
107.26925
 20
77.53125
 30
0.0
 11
107.269417
 21
77.53125
 31
0.0
  0
LINE
  8
6
  6
CONTINUOUS
 62
     7
  5
292
 10
106.417
 20
77.494417
 30
0.0
 11
106.417083
 21
77.494417
 31
0.0
  0
LINE
  8
6
  6
CONTINUOUS
 62
     7
  5
293
 10
106.417
 20
77.94975
 30
0.0
 11
106.417083
 21
77.94975
 31
0.0
  0
TEXT
  8
3
  6
CONTINUOUS
 62
     2
  5
294
 10
106.382917
 20
77.666
 30
0.0
 40
0.15
  1
Rounding
  7
MONOTXT
210
0.0
220
0.0
230
1.0
  0
INSERT
  8
1
  6
CONTINUOUS
 62
     7
  5
295
  2
$X32
 10
90.664417
 20
70.509667
 30
0.0
 41
1.012499
 42
1.012499
 50
10.791225
210
0.0
220
0.0
230
1.0
  0
SOLID
  8
3
  6
CONTINUOUS
 62
     2
  5
296
 10
106.406917
 20
76.899167
 30
0.0
 11
106.43525
 21
76.867917
 31
0.0
 12
106.51475
 22
76.968583
 32
0.0
 13
106.51475
 23
76.968583
 33
0.0
  0
LINE
  8
3
  6
CONTINUOUS
 62
     2
  5
297
 10
106.421083
 20
76.883583
 30
0.0
 11
106.10875
 21
76.6005
 31
0.0
  0
TEXT
  8
3
  6
CONTINUOUS
 62
     2
  5
298
 10
104.553583
 20
76.514417
 30
0.0
 40
0.15
  1
Ditch Grade
  7
MONOTXT
210
0.0
220
0.0
230
1.0
  0
LINE
  8
1
  6
CONTINUOUS
 62
     7
  5
299
 10
103.590167
 20
76.751
 30
0.0
 11
103.590167
 21
78.4775
 31
0.0
  0
LINE
  8
1
  6
CONTINUOUS
 62
     7
  5
29A
 10
106.77975
 20
78.1045
 30
0.0
 11
106.77975
 21
78.4775
 31
0.0
  0
LINE
  8
1
  6
CONTINUOUS
 62
     7
  5
29B
 10
103.716667
 20
78.29525
 30
0.0
 11
106.653167
 21
78.29525
 31
0.0
  0
SOLID
  8
1
  6
CONTINUOUS
 62
     7
  5
29C
 10
103.716667
 20
78.27425
 30
0.0
 11
103.716667
 21
78.316417
 31
0.0
 12
103.590167
 22
78.29525
 32
0.0
 13
103.590167
 23
78.29525
 33
0.0
  0
SOLID
  8
1
  6
CONTINUOUS
 62
     7
  5
29D
 10
106.653167
 20
78.27425
 30
0.0
 11
106.653167
 21
78.316417
 31
0.0
 12
106.77975
 22
78.29525
 32
0.0
 13
106.77975
 23
78.29525
 33
0.0
  0
POINT
  8
6
  6
CONTINUOUS
 62
     7
  5
29E
 10
103.590167
 20
76.687667
 30
0.0
  0
LINE
  8
6
  6
CONTINUOUS
 62
     7
  5
29F
 10
106.77975
 20
78.19175
 30
0.0
 11
106.779833
 21
78.19175
 31
0.0
  0
LINE
  8
6
  6
CONTINUOUS
 62
     7
  5
2A0
 10
106.77975
 20
78.29525
 30
0.0
 11
106.779833
 21
78.29525
 31
0.0
  0
LINE
  8
1
  6
CONTINUOUS
 62
     7
  5
2A1
 10
106.77975
 20
78.1045
 30
0.0
 11
106.77975
 21
78.4775
 31
0.0
  0
LINE
  8
1
  6
CONTINUOUS
 62
     7
  5
2A2
 10
109.309917
 20
77.399
 30
0.0
 11
109.309917
 21
78.4775
 31
0.0
  0
LINE
  8
1
  6
CONTINUOUS
 62
     7
  5
2A3
 10
106.90625
 20
78.29525
 30
0.0
 11
109.183333
 21
78.29525
 31
0.0
  0
SOLID
  8
1
  6
CONTINUOUS
 62
     7
  5
2A4
 10
106.90625
 20
78.27425
 30
0.0
 11
106.90625
 21
78.316417
 31
0.0
 12
106.77975
 22
78.29525
 32
0.0
 13
106.77975
 23
78.29525
 33
0.0
  0
SOLID
  8
1
  6
CONTINUOUS
 62
     7
  5
2A5
 10
109.183333
 20
78.27425
 30
0.0
 11
109.183333
 21
78.316417
 31
0.0
 12
109.309917
 22
78.29525
 32
0.0
 13
109.309917
 23
78.29525
 33
0.0
  0
TEXT
  8
1
  6
CONTINUOUS
 62
     7
  5
2A6
 10
108.010083
 20
78.356
 30
0.0
 40
0.15
  1
L1
  7
MONOTXT
210
0.0
220
0.0
230
1.0
  0
LINE
  8
6
  6
CONTINUOUS
 62
     7
  5
2A7
 10
106.77975
 20
78.19175
 30
0.0
 11
106.779833
 21
78.19175
 31
0.0
  0
POINT
  8
6
  6
CONTINUOUS
 62
     7
  5
2A8
 10
109.309917
 20
77.335667
 30
0.0
  0
POINT
  8
6
  6
CONTINUOUS
 62
     7
  5
2A9
 10
109.309917
 20
78.29525
 30
0.0
  0
INSERT
  8
1
  6
CONTINUOUS
 62
     7
  5
2AA
  2
$X32
 10
85.890417
 20
73.136
 30
0.0
 41
1.012496
 42
1.012496
 50
358.422418
210
0.0
220
0.0
230
1.0
  0
TEXT
  8
3
  6
CONTINUOUS
 62
     2
  5
2AB
 10
101.382333
 20
76.849
 30
0.0
 40
0.15
  1
Ditch Grade
  7
MONOTXT
210
0.0
220
0.0
230
1.0
  0
SOLID
  8
3
  6
CONTINUOUS
 62
     2
  5
2AC
 10
103.077333
 20
76.710167
 30
0.0
 11
103.065083
 21
76.669833
 31
0.0
 12
103.192167
 22
76.652917
 32
0.0
 13
103.192167
 23
76.652917
 33
0.0
  0
LINE
  8
3
  6
CONTINUOUS
 62
     2
  5
2AD
 10
103.071167
 20
76.69
 30
0.0
 11
102.766833
 21
76.783167
 31
0.0
  0
LINE
  8
3
  6
CONTINUOUS
 62
     2
  5
2AE
 10
102.766833
 20
76.783167
 30
0.0
 11
102.54775
 21
76.783167
 31
0.0
  0
LINE
  8
1
  6
CONTINUOUS
 62
   233
  5
2AF
 10
97.503
 20
74.055583
 30
0.0
 11
97.503
 21
73.748
 31
0.0
  0
LINE
  8
1
  6
CONTINUOUS
 62
   233
  5
2B0
 10
100.172417
 20
74.055583
 30
0.0
 11
100.172417
 21
73.792
 31
0.0
  0
LINE
  8
1
  6
CONTINUOUS
 62
   233
  5
2B1
 10
97.503
 20
72.7285
 30
0.0
 11
96.872083
 21
72.673167
 31
0.0
  0
LINE
  8
1
  6
CONTINUOUS
 62
   233
  5
2B2
 10
97.503
 20
72.653167
 30
0.0
 11
95.825417
 21
72.506167
 31
0.0
  0
LINE
  8
1
  6
CONTINUOUS
 62
   233
  5
2B3
 10
97.503
 20
71.654833
 30
0.0
 11
95.971667
 21
71.520583
 31
0.0
  0
LINE
  8
1
  6
CONTINUOUS
 62
   233
  5
2B4
 10
97.503
 20
71.538667
 30
0.0
 11
95.93025
 21
71.40075
 31
0.0
  0
ARC
  8
1
  6
CONTINUOUS
 62
    30
  5
2B5
 10
96.329056
 20
72.3886
 30
0.0
 40
0.517164
 50
157.848672
 51
217.424353
210
0.0
220
0.0
230
1.0
  0
ARC
  8
1
  6
CONTINUOUS
 62
   233
  5
2B6
 10
95.188587
 20
71.724625
 30
0.0
 40
0.809222
 50
336.412114
 51
25.603619
210
0.0
220
0.0
230
1.0
  0
LINE
  8
3
  6
HIDDEN
 62
   140
  5
2B7
 10
97.356583
 20
71.642
 30
0.0
 11
97.356583
 21
71.753833
 31
0.0
  0
LINE
  8
3
  6
HIDDEN
 62
   140
  5
2B8
 10
97.356583
 20
71.753833
 30
0.0
 11
97.029333
 21
71.753833
 31
0.0
  0
LINE
  8
3
  6
HIDDEN
 62
   140
  5
2B9
 10
97.029333
 20
71.753833
 30
0.0
 11
97.029333
 21
71.62575
 31
0.0
  0
LINE
  8
3
  6
HIDDEN
 62
   140
  5
2BA
 10
97.029333
 20
71.62575
 30
0.0
 11
96.844917
 21
71.62575
 31
0.0
  0
LINE
  8
3
  6
HIDDEN
 62
   140
  5
2BB
 10
96.834167
 20
72.594583
 30
0.0
 11
96.834167
 21
71.595
 31
0.0
  0
LINE
  8
1
  6
CONTINUOUS
 62
   233
  5
2BC
 10
96.82975
 20
74.055583
 30
0.0
 11
97.389833
 21
74.055583
 31
0.0
  0
LINE
  8
1
  6
CONTINUOUS
 62
   233
  5
2BD
 10
97.420167
 20
74.055583
 30
0.0
 11
97.420167
 21
73.792
 31
0.0
  0
LINE
  8
1
  6
CONTINUOUS
 62
   233
  5
2BE
 10
97.420167
 20
73.792
 30
0.0
 11
100.172417
 21
73.792
 31
0.0
  0
LINE
  8
1
  6
CONTINUOUS
 62
   233
  5
2BF
 10
100.2455
 20
73.792
 30
0.0
 11
100.2455
 21
74.055583
 31
0.0
  0
LINE
  8
1
  6
CONTINUOUS
 62
   233
  5
2C0
 10
97.82075
 20
74.055583
 30
0.0
 11
97.82075
 21
73.792
 31
0.0
  0
LINE
  8
1
  6
CONTINUOUS
 62
   233
  5
2C1
 10
97.968333
 20
74.055583
 30
0.0
 11
97.968333
 21
73.792
 31
0.0
  0
LINE
  8
1
  6
CONTINUOUS
 62
   233
  5
2C2
 10
98.17925
 20
74.055583
 30
0.0
 11
98.17925
 21
73.792
 31
0.0
  0
LINE
  8
1
  6
CONTINUOUS
 62
   233
  5
2C3
 10
98.284667
 20
74.055583
 30
0.0
 11
98.284667
 21
73.792
 31
0.0
  0
LINE
  8
1
  6
CONTINUOUS
 62
   233
  5
2C4
 10
98.495417
 20
74.055583
 30
0.0
 11
98.495417
 21
73.792
 31
0.0
  0
LINE
  8
1
  6
CONTINUOUS
 62
   233
  5
2C5
 10
98.590417
 20
74.055583
 30
0.0
 11
98.590417
 21
73.792
 31
0.0
  0
LINE
  8
1
  6
CONTINUOUS
 62
   233
  5
2C6
 10
98.822333
 20
74.055583
 30
0.0
 11
98.822333
 21
73.792
 31
0.0
  0
LINE
  8
1
  6
CONTINUOUS
 62
   233
  5
2C7
 10
98.927667
 20
74.055583
 30
0.0
 11
98.927667
 21
73.792
 31
0.0
  0
LINE
  8
1
  6
CONTINUOUS
 62
   233
  5
2C8
 10
99.128
 20
74.055583
 30
0.0
 11
99.128
 21
73.792
 31
0.0
  0
LINE
  8
1
  6
CONTINUOUS
 62
   233
  5
2C9
 10
99.233417
 20
74.055583
 30
0.0
 11
99.233417
 21
73.792
 31
0.0
  0
LINE
  8
1
  6
CONTINUOUS
 62
   233
  5
2CA
 10
99.454833
 20
74.055583
 30
0.0
 11
99.454833
 21
73.792
 31
0.0
  0
LINE
  8
1
  6
CONTINUOUS
 62
   233
  5
2CB
 10
99.570833
 20
74.055583
 30
0.0
 11
99.570833
 21
73.792
 31
0.0
  0
LINE
  8
1
  6
CONTINUOUS
 62
   233
  5
2CC
 10
99.771167
 20
74.055583
 30
0.0
 11
99.771167
 21
73.792
 31
0.0
  0
LINE
  8
1
  6
CONTINUOUS
 62
   233
  5
2CD
 10
99.865917
 20
74.055583
 30
0.0
 11
99.865917
 21
73.792
 31
0.0
  0
LINE
  8
1
  6
CONTINUOUS
 62
   233
  5
2CE
 10
97.482417
 20
71.653
 30
0.0
 11
100.172417
 21
71.653
 31
0.0
  0
LINE
  8
1
  6
CONTINUOUS
 62
   233
  5
2CF
 10
100.540667
 20
71.653
 30
0.0
 11
100.540667
 21
71.810083
 31
0.0
  0
LINE
  8
1
  6
CONTINUOUS
 62
   233
  5
2D0
 10
100.540667
 20
71.810083
 30
0.0
 11
100.853417
 21
71.810083
 31
0.0
  0
LINE
  8
1
  6
CONTINUOUS
 62
   233
  5
2D1
 10
96.82975
 20
74.055583
 30
0.0
 11
95.480417
 21
74.551
 31
0.0
  0
LINE
  8
1
  6
CONTINUOUS
 62
   233
  5
2D2
 10
96.82975
 20
74.055583
 30
0.0
 11
96.787667
 21
73.897417
 31
0.0
  0
LINE
  8
1
  6
CONTINUOUS
 62
   233
  5
2D3
 10
96.787667
 20
73.897417
 30
0.0
 11
96.82975
 21
73.834167
 31
0.0
  0
LINE
  8
1
  6
CONTINUOUS
 62
   233
  5
2D4
 10
96.82975
 20
73.834167
 30
0.0
 11
96.777167
 21
73.73925
 31
0.0
  0
LINE
  8
1
  6
CONTINUOUS
 62
   233
  5
2D5
 10
96.777167
 20
73.73925
 30
0.0
 11
96.81925
 21
73.581083
 31
0.0
  0
LINE
  8
1
  6
CONTINUOUS
 62
   233
  5
2D6
 10
96.81925
 20
73.581083
 30
0.0
 11
96.81925
 21
73.423
 31
0.0
  0
LINE
  8
1
  6
CONTINUOUS
 62
   233
  5
2D7
 10
96.81925
 20
73.423
 30
0.0
 11
96.850917
 21
73.307083
 31
0.0
  0
LINE
  8
1
  6
CONTINUOUS
 62
   233
  5
2D8
 10
96.850917
 20
73.307083
 30
0.0
 11
96.787667
 21
73.191083
 31
0.0
  0
LINE
  8
1
  6
CONTINUOUS
 62
   233
  5
2D9
 10
96.787667
 20
73.191083
 30
0.0
 11
96.850917
 21
73.064583
 31
0.0
  0
LINE
  8
1
  6
CONTINUOUS
 62
   233
  5
2DA
 10
96.850917
 20
73.064583
 30
0.0
 11
96.808667
 21
72.969667
 31
0.0
  0
LINE
  8
1
  6
CONTINUOUS
 62
   233
  5
2DB
 10
96.808667
 20
72.969667
 30
0.0
 11
96.82975
 21
72.895917
 31
0.0
  0
LINE
  8
1
  6
CONTINUOUS
 62
   233
  5
2DC
 10
96.82975
 20
72.895917
 30
0.0
 11
96.798167
 21
72.790417
 31
0.0
  0
LINE
  8
1
  6
CONTINUOUS
 62
   233
  5
2DD
 10
96.798167
 20
72.790417
 30
0.0
 11
96.872
 21
72.6745
 31
0.0
  0
LINE
  8
1
  6
CONTINUOUS
 62
   233
  5
2DE
 10
96.817833
 20
71.478667
 30
0.0
 11
96.850917
 21
71.36725
 31
0.0
  0
LINE
  8
1
  6
CONTINUOUS
 62
   233
  5
2DF
 10
96.850917
 20
71.36725
 30
0.0
 11
96.798167
 21
71.293417
 31
0.0
  0
LINE
  8
1
  6
CONTINUOUS
 62
   233
  5
2E0
 10
96.798167
 20
71.293417
 30
0.0
 11
96.840333
 21
71.167
 31
0.0
  0
LINE
  8
1
  6
CONTINUOUS
 62
   233
  5
2E1
 10
96.840333
 20
71.167
 30
0.0
 11
96.787667
 21
71.03
 31
0.0
  0
LINE
  8
1
  6
CONTINUOUS
 62
   233
  5
2E2
 10
96.787667
 20
71.03
 30
0.0
 11
96.8825
 21
70.966667
 31
0.0
  0
LINE
  8
1
  6
CONTINUOUS
 62
   233
  5
2E3
 10
96.8825
 20
70.966667
 30
0.0
 11
97.019583
 21
70.97725
 31
0.0
  0
LINE
  8
1
  6
CONTINUOUS
 62
   233
  5
2E4
 10
97.019583
 20
70.97725
 30
0.0
 11
97.146167
 21
70.924417
 31
0.0
  0
LINE
  8
1
  6
CONTINUOUS
 62
   233
  5
2E5
 10
97.146167
 20
70.924417
 30
0.0
 11
97.31475
 21
70.956167
 31
0.0
  0
LINE
  8
1
  6
CONTINUOUS
 62
   233
  5
2E6
 10
97.31475
 20
70.956167
 30
0.0
 11
97.3885
 21
70.913917
 31
0.0
  0
LINE
  8
1
  6
CONTINUOUS
 62
   233
  5
2E7
 10
97.3885
 20
70.913917
 30
0.0
 11
97.515083
 21
70.966667
 31
0.0
  0
LINE
  8
1
  6
CONTINUOUS
 62
   233
  5
2E8
 10
97.515083
 20
70.966667
 30
0.0
 11
97.725917
 21
70.924417
 31
0.0
  0
LINE
  8
1
  6
CONTINUOUS
 62
   233
  5
2E9
 10
97.725917
 20
70.924417
 30
0.0
 11
97.884083
 21
70.945583
 31
0.0
  0
LINE
  8
1
  6
CONTINUOUS
 62
   233
  5
2EA
 10
97.884083
 20
70.945583
 30
0.0
 11
97.968333
 21
70.913917
 31
0.0
  0
LINE
  8
1
  6
CONTINUOUS
 62
   233
  5
2EB
 10
97.968333
 20
70.913917
 30
0.0
 11
98.094917
 21
70.966667
 31
0.0
  0
LINE
  8
1
  6
CONTINUOUS
 62
   233
  5
2EC
 10
98.094917
 20
70.966667
 30
0.0
 11
98.295167
 21
70.913917
 31
0.0
  0
LINE
  8
1
  6
CONTINUOUS
 62
   233
  5
2ED
 10
98.295167
 20
70.913917
 30
0.0
 11
98.474417
 21
70.966667
 31
0.0
  0
LINE
  8
1
  6
CONTINUOUS
 62
   233
  5
2EE
 10
98.474417
 20
70.966667
 30
0.0
 11
98.664167
 21
70.924417
 31
0.0
  0
LINE
  8
1
  6
CONTINUOUS
 62
   233
  5
2EF
 10
98.664167
 20
70.924417
 30
0.0
 11
98.716833
 21
70.97725
 31
0.0
  0
LINE
  8
1
  6
CONTINUOUS
 62
   233
  5
2F0
 10
98.716833
 20
70.97725
 30
0.0
 11
98.811833
 21
70.924417
 31
0.0
  0
LINE
  8
1
  6
CONTINUOUS
 62
   233
  5
2F1
 10
98.811833
 20
70.924417
 30
0.0
 11
98.906583
 21
70.956167
 31
0.0
  0
LINE
  8
1
  6
CONTINUOUS
 62
   233
  5
2F2
 10
98.906583
 20
70.956167
 30
0.0
 11
99.022667
 21
70.913917
 31
0.0
  0
LINE
  8
1
  6
CONTINUOUS
 62
   233
  5
2F3
 10
99.022667
 20
70.913917
 30
0.0
 11
99.222917
 21
70.98775
 31
0.0
  0
LINE
  8
1
  6
CONTINUOUS
 62
   233
  5
2F4
 10
99.222917
 20
70.98775
 30
0.0
 11
99.3705
 21
70.924417
 31
0.0
  0
LINE
  8
1
  6
CONTINUOUS
 62
   233
  5
2F5
 10
99.3705
 20
70.924417
 30
0.0
 11
99.497
 21
70.956167
 31
0.0
  0
LINE
  8
1
  6
CONTINUOUS
 62
   233
  5
2F6
 10
99.497
 20
70.956167
 30
0.0
 11
99.570833
 21
70.913917
 31
0.0
  0
LINE
  8
1
  6
CONTINUOUS
 62
   233
  5
2F7
 10
99.570833
 20
70.913917
 30
0.0
 11
99.68675
 21
70.98775
 31
0.0
  0
LINE
  8
1
  6
CONTINUOUS
 62
   233
  5
2F8
 10
99.68675
 20
70.98775
 30
0.0
 11
99.81325
 21
70.945583
 31
0.0
  0
LINE
  8
1
  6
CONTINUOUS
 62
   233
  5
2F9
 10
99.81325
 20
70.945583
 30
0.0
 11
100.097917
 21
70.98775
 31
0.0
  0
LINE
  8
1
  6
CONTINUOUS
 62
   233
  5
2FA
 10
100.097917
 20
70.98775
 30
0.0
 11
100.18225
 21
70.945583
 31
0.0
  0
LINE
  8
1
  6
CONTINUOUS
 62
   233
  5
2FB
 10
100.18225
 20
70.945583
 30
0.0
 11
100.319333
 21
71.008833
 31
0.0
  0
LINE
  8
1
  6
CONTINUOUS
 62
   233
  5
2FC
 10
100.319333
 20
71.008833
 30
0.0
 11
100.424667
 21
70.945583
 31
0.0
  0
LINE
  8
1
  6
CONTINUOUS
 62
   233
  5
2FD
 10
100.424667
 20
70.945583
 30
0.0
 11
100.519583
 21
71.019417
 31
0.0
  0
LINE
  8
1
  6
CONTINUOUS
 62
   233
  5
2FE
 10
100.519583
 20
71.019417
 30
0.0
 11
100.719917
 21
70.97725
 31
0.0
  0
LINE
  8
1
  6
CONTINUOUS
 62
   233
  5
2FF
 10
100.719917
 20
70.97725
 30
0.0
 11
100.80425
 21
71.019417
 31
0.0
  0
LINE
  8
1
  6
CONTINUOUS
 62
   233
  5
300
 10
100.80425
 20
71.019417
 30
0.0
 11
100.920167
 21
70.966667
 31
0.0
  0
LINE
  8
1
  6
CONTINUOUS
 62
   233
  5
301
 10
100.920167
 20
70.966667
 30
0.0
 11
100.878
 21
71.1775
 31
0.0
  0
LINE
  8
1
  6
CONTINUOUS
 62
   233
  5
302
 10
100.878
 20
71.1775
 30
0.0
 11
100.920167
 21
71.325083
 31
0.0
  0
LINE
  8
1
  6
CONTINUOUS
 62
   233
  5
303
 10
100.920167
 20
71.325083
 30
0.0
 11
100.857
 21
71.451667
 31
0.0
  0
LINE
  8
1
  6
CONTINUOUS
 62
   233
  5
304
 10
100.857
 20
71.451667
 30
0.0
 11
100.878
 21
71.641417
 31
0.0
  0
LINE
  8
1
  6
CONTINUOUS
 62
   233
  5
305
 10
100.878
 20
71.641417
 30
0.0
 11
100.835917
 21
71.757333
 31
0.0
  0
LINE
  8
1
  6
CONTINUOUS
 62
   233
  5
306
 10
100.835917
 20
71.757333
 30
0.0
 11
100.878
 21
71.883833
 31
0.0
  0
LINE
  8
1
  6
CONTINUOUS
 62
   233
  5
307
 10
100.878
 20
71.883833
 30
0.0
 11
100.825333
 21
71.97875
 31
0.0
  0
LINE
  8
1
  6
CONTINUOUS
 62
   233
  5
308
 10
100.825333
 20
71.97875
 30
0.0
 11
100.8675
 21
72.126333
 31
0.0
  0
LINE
  8
1
  6
CONTINUOUS
 62
   233
  5
309
 10
100.8675
 20
72.126333
 30
0.0
 11
100.825333
 21
72.273917
 31
0.0
  0
LINE
  8
1
  6
CONTINUOUS
 62
   233
  5
30A
 10
100.825333
 20
72.273917
 30
0.0
 11
100.888583
 21
72.4425
 31
0.0
  0
LINE
  8
1
  6
CONTINUOUS
 62
   233
  5
30B
 10
100.888583
 20
72.4425
 30
0.0
 11
100.825333
 21
72.579667
 31
0.0
  0
LINE
  8
1
  6
CONTINUOUS
 62
   233
  5
30C
 10
100.825333
 20
72.579667
 30
0.0
 11
100.878
 21
72.822083
 31
0.0
  0
LINE
  8
1
  6
CONTINUOUS
 62
   233
  5
30D
 10
100.878
 20
72.822083
 30
0.0
 11
100.825333
 21
73.032917
 31
0.0
  0
LINE
  8
1
  6
CONTINUOUS
 62
   233
  5
30E
 10
100.825333
 20
73.032917
 30
0.0
 11
100.878
 21
73.23325
 31
0.0
  0
LINE
  8
1
  6
CONTINUOUS
 62
   233
  5
30F
 10
100.878
 20
73.23325
 30
0.0
 11
100.846417
 21
73.380833
 31
0.0
  0
LINE
  8
1
  6
CONTINUOUS
 62
   233
  5
310
 10
100.846417
 20
73.380833
 30
0.0
 11
100.857
 21
73.528417
 31
0.0
  0
LINE
  8
1
  6
CONTINUOUS
 62
   233
  5
311
 10
100.857
 20
73.528417
 30
0.0
 11
100.835917
 21
73.676
 31
0.0
  0
LINE
  8
1
  6
CONTINUOUS
 62
   233
  5
312
 10
100.835917
 20
73.676
 30
0.0
 11
100.878
 21
73.823583
 31
0.0
  0
LINE
  8
1
  6
CONTINUOUS
 62
   233
  5
313
 10
100.878
 20
73.823583
 30
0.0
 11
100.825333
 21
74.055583
 31
0.0
  0
LINE
  8
3
  6
HIDDEN
 62
   140
  5
314
 10
97.389833
 20
74.055583
 30
0.0
 11
97.389833
 21
73.748
 31
0.0
  0
LINE
  8
3
  6
HIDDEN
 62
   140
  5
315
 10
97.389833
 20
73.748
 30
0.0
 11
97.503
 21
73.748
 31
0.0
  0
LINE
  8
3
  6
HIDDEN
 62
   140
  5
316
 10
100.290417
 20
73.748
 30
0.0
 11
100.290417
 21
74.055583
 31
0.0
  0
LINE
  8
1
  6
CONTINUOUS
 62
   233
  5
317
 10
100.825333
 20
74.055583
 30
0.0
 11
101.626333
 21
74.392917
 31
0.0
  0
LINE
  8
1
  6
CONTINUOUS
 62
     7
  5
318
 10
100.172417
 20
74.139917
 30
0.0
 11
100.172417
 21
74.678833
 31
0.0
  0
LINE
  8
1
  6
CONTINUOUS
 62
     7
  5
319
 10
100.825333
 20
74.139917
 30
0.0
 11
100.825333
 21
74.678833
 31
0.0
  0
LINE
  8
1
  6
CONTINUOUS
 62
     7
  5
31A
 10
100.25675
 20
74.594417
 30
0.0
 11
100.740917
 21
74.594417
 31
0.0
  0
SOLID
  8
1
  6
CONTINUOUS
 62
     7
  5
31B
 10
100.25675
 20
74.580333
 30
0.0
 11
100.25675
 21
74.6085
 31
0.0
 12
100.172417
 22
74.594417
 32
0.0
 13
100.172417
 23
74.594417
 33
0.0
  0
SOLID
  8
1
  6
CONTINUOUS
 62
     7
  5
31C
 10
100.740917
 20
74.580333
 30
0.0
 11
100.740917
 21
74.6085
 31
0.0
 12
100.825333
 22
74.594417
 32
0.0
 13
100.825333
 23
74.594417
 33
0.0
  0
TEXT
  8
1
  6
CONTINUOUS
 62
     7
  5
31D
 10
100.136
 20
74.752167
 30
0.0
 40
0.15
  1
8" MIN.
  7
MONOTXT
210
0.0
220
0.0
230
1.0
  0
POINT
  8
4
  6
CONTINUOUS
 62
     7
  5
31E
 10
100.172417
 20
74.055583
 30
0.0
  0
POINT
  8
4
  6
CONTINUOUS
 62
     7
  5
31F
 10
100.825333
 20
74.055583
 30
0.0
  0
POINT
  8
4
  6
CONTINUOUS
 62
     7
  5
320
 10
100.825333
 20
74.594417
 30
0.0
  0
LINE
  8
1
  6
CONTINUOUS
 62
     7
  5
321
 10
96.82975
 20
74.139917
 30
0.0
 11
96.82975
 21
74.678833
 31
0.0
  0
LINE
  8
1
  6
CONTINUOUS
 62
     7
  5
322
 10
96.914167
 20
74.594417
 30
0.0
 11
97.416583
 21
74.594417
 31
0.0
  0
SOLID
  8
1
  6
CONTINUOUS
 62
     7
  5
323
 10
96.914167
 20
74.580333
 30
0.0
 11
96.914167
 21
74.6085
 31
0.0
 12
96.82975
 22
74.594417
 32
0.0
 13
96.82975
 23
74.594417
 33
0.0
  0
SOLID
  8
1
  6
CONTINUOUS
 62
     7
  5
324
 10
97.418583
 20
74.580333
 30
0.0
 11
97.418583
 21
74.6085
 31
0.0
 12
97.503
 22
74.594417
 32
0.0
 13
97.503
 23
74.594417
 33
0.0
  0
TEXT
  8
1
  6
CONTINUOUS
 62
     7
  5
325
 10
96.803167
 20
74.735167
 30
0.0
 40
0.15
  1
8" MIN.
  7
MONOTXT
210
0.0
220
0.0
230
1.0
  0
LINE
  8
4
  6
CONTINUOUS
 62
     7
  5
326
 10
96.82975
 20
74.055583
 30
0.0
 11
96.829833
 21
74.055583
 31
0.0
  0
LINE
  8
4
  6
CONTINUOUS
 62
     7
  5
327
 10
97.500917
 20
74.052917
 30
0.0
 11
97.501
 21
74.052917
 31
0.0
  0
LINE
  8
4
  6
CONTINUOUS
 62
     7
  5
328
 10
97.500917
 20
74.594417
 30
0.0
 11
97.501
 21
74.594417
 31
0.0
  0
LINE
  8
1
  6
CONTINUOUS
 62
     7
  5
329
 10
97.503
 20
74.139917
 30
0.0
 11
97.503
 21
74.678833
 31
0.0
  0
LINE
  8
1
  6
CONTINUOUS
 62
     7
  5
32A
 10
100.172417
 20
74.139917
 30
0.0
 11
100.172417
 21
74.678833
 31
0.0
  0
LINE
  8
1
  6
CONTINUOUS
 62
     7
  5
32B
 10
97.587333
 20
74.594417
 30
0.0
 11
100.088
 21
74.594417
 31
0.0
  0
SOLID
  8
1
  6
CONTINUOUS
 62
     7
  5
32C
 10
97.587333
 20
74.580333
 30
0.0
 11
97.587333
 21
74.6085
 31
0.0
 12
97.503
 22
74.594417
 32
0.0
 13
97.503
 23
74.594417
 33
0.0
  0
SOLID
  8
1
  6
CONTINUOUS
 62
     7
  5
32D
 10
100.088
 20
74.580333
 30
0.0
 11
100.088
 21
74.6085
 31
0.0
 12
100.172417
 22
74.594417
 32
0.0
 13
100.172417
 23
74.594417
 33
0.0
  0
TEXT
  8
1
  6
CONTINUOUS
 62
     7
  5
32E
 10
98.779167
 20
74.743417
 30
0.0
 40
0.15
  1
A
  7
MONOTXT
210
0.0
220
0.0
230
1.0
  0
POINT
  8
4
  6
CONTINUOUS
 62
     7
  5
32F
 10
97.503
 20
74.055583
 30
0.0
  0
POINT
  8
4
  6
CONTINUOUS
 62
     7
  5
330
 10
100.172417
 20
74.055583
 30
0.0
  0
POINT
  8
4
  6
CONTINUOUS
 62
     7
  5
331
 10
100.172417
 20
74.594417
 30
0.0
  0
LINE
  8
1
  6
CONTINUOUS
 62
   233
  5
332
 10
97.503
 20
72.653167
 30
0.0
 11
97.503
 21
72.7285
 31
0.0
  0
LINE
  8
1
  6
CONTINUOUS
 62
   233
  5
333
 10
95.825417
 20
72.506167
 30
0.0
 11
95.850083
 21
72.583583
 31
0.0
  0
INSERT
  8
1
  6
CONTINUOUS
 62
     7
  5
347
  2
$X4
 10
93.168583
 20
62.462583
 30
0.0
 41
0.675
 42
0.675
210
0.0
220
0.0
230
1.0
  0
LINE
  8
1
  6
CONTINUOUS
 62
   233
  5
348
 10
95.971667
 20
71.520583
 30
0.0
 11
95.926917
 21
71.402167
 31
0.0
  0
LINE
  8
1
  6
CONTINUOUS
 62
   233
  5
349
 10
95.926917
 20
71.402167
 30
0.0
 11
96.81775
 21
71.479333
 31
0.0
  0
LINE
  8
1
  6
CONTINUOUS
 62
   233
  5
34A
 10
97.503
 20
71.538667
 30
0.0
 11
97.503
 21
71.653
 31
0.0
  0
INSERT
  8
1
  6
CONTINUOUS
 62
     7
  5
35E
  2
$X5
 10
93.168583
 20
62.462583
 30
0.0
 41
0.675
 42
0.675
210
0.0
220
0.0
230
1.0
  0
SOLID
  8
2
  6
CONTINUOUS
 62
     2
  5
35F
 10
97.291917
 20
73.89225
 30
0.0
 11
97.297167
 21
73.850417
 31
0.0
 12
97.420167
 22
73.886917
 32
0.0
 13
97.420167
 23
73.886917
 33
0.0
  0
LINE
  8
2
  6
CONTINUOUS
 62
     2
  5
360
 10
97.3365
 20
73.8765
 30
0.0
 11
96.397667
 21
73.760333
 31
0.0
  0
ARC
  8
1
  6
CONTINUOUS
 62
   233
  5
361
 10
94.957625
 20
66.559525
 30
0.0
 40
1.025405
 50
340.549469
 51
28.979969
210
0.0
220
0.0
230
1.0
  0
ARC
  8
1
  6
CONTINUOUS
 62
   233
  5
362
 10
96.372088
 20
66.677425
 30
0.0
 40
0.641323
 50
143.783642
 51
225.745797
210
0.0
220
0.0
230
1.0
  0
ARC
  8
1
  6
CONTINUOUS
 62
   233
  5
363
 10
95.407738
 20
67.404681
 30
0.0
 40
0.566635
 50
322.06375
 51
12.235183
210
0.0
220
0.0
230
1.0
  0
LINE
  8
1
  6
CONTINUOUS
 62
   233
  5
364
 10
95.9615
 20
67.52475
 30
0.0
 11
96.845167
 21
67.52475
 31
0.0
  0
LINE
  8
1
  6
CONTINUOUS
 62
   233
  5
365
 10
95.9245
 20
66.218167
 30
0.0
 11
96.853417
 21
66.218167
 31
0.0
  0
LINE
  8
1
  6
CONTINUOUS
 62
   233
  5
366
 10
97.483417
 20
68.532333
 30
0.0
 11
97.483417
 21
65.19175
 31
0.0
  0
LINE
  8
1
  6
CONTINUOUS
 62
   233
  5
367
 10
97.530917
 20
68.531833
 30
0.0
 11
97.530917
 21
65.19175
 31
0.0
  0
LINE
  8
3
  6
HIDDEN
 62
   140
  5
368
 10
96.845167
 20
67.52475
 30
0.0
 11
97.445917
 21
67.525417
 31
0.0
  0
LINE
  8
3
  6
HIDDEN
 62
   140
  5
369
 10
95.972917
 20
67.363667
 30
0.0
 11
97.445917
 21
67.38025
 31
0.0
  0
LINE
  8
3
  6
HIDDEN
 62
   140
  5
36A
 10
95.96325
 20
66.35875
 30
0.0
 11
97.445917
 21
66.3565
 31
0.0
  0
LINE
  8
3
  6
HIDDEN
 62
   140
  5
36B
 10
96.853417
 20
66.218167
 30
0.0
 11
97.445917
 21
66.2235
 31
0.0
  0
LINE
  8
1
  6
CONTINUOUS
 62
   233
  5
36C
 10
100.25425
 20
68.532333
 30
0.0
 11
100.25425
 21
65.19175
 31
0.0
  0
LINE
  8
1
  6
CONTINUOUS
 62
   233
  5
36D
 10
100.206833
 20
68.532333
 30
0.0
 11
100.206833
 21
65.19175
 31
0.0
  0
LINE
  8
1
  6
CONTINUOUS
 62
   233
  5
36E
 10
97.436333
 20
68.532333
 30
0.0
 11
100.301417
 21
68.532333
 31
0.0
  0
LINE
  8
1
  6
CONTINUOUS
 62
   233
  5
36F
 10
100.301417
 20
68.585917
 30
0.0
 11
97.436333
 21
68.585917
 31
0.0
  0
LINE
  8
1
  6
CONTINUOUS
 62
   233
  5
370
 10
97.436333
 20
68.585917
 30
0.0
 11
97.436333
 21
68.532333
 31
0.0
  0
LINE
  8
3
  6
HIDDEN
 62
   140
  5
371
 10
97.436333
 20
68.532333
 30
0.0
 11
97.436333
 21
68.30725
 31
0.0
  0
LINE
  8
3
  6
HIDDEN
 62
   140
  5
372
 10
97.436333
 20
68.30725
 30
0.0
 11
97.483417
 21
68.30725
 31
0.0
  0
LINE
  8
1
  6
CONTINUOUS
 62
   233
  5
373
 10
97.530917
 20
68.3075
 30
0.0
 11
100.206833
 21
68.3075
 31
0.0
  0
LINE
  8
1
  6
CONTINUOUS
 62
   233
  5
374
 10
97.530917
 20
68.230333
 30
0.0
 11
100.206833
 21
68.230333
 31
0.0
  0
LINE
  8
3
  6
HIDDEN
 62
   140
  5
375
 10
100.301417
 20
68.532333
 30
0.0
 11
100.301417
 21
68.30725
 31
0.0
  0
LINE
  8
3
  6
HIDDEN
 62
   140
  5
376
 10
100.301417
 20
68.30725
 30
0.0
 11
100.25425
 21
68.30725
 31
0.0
  0
LINE
  8
1
  6
CONTINUOUS
 62
   233
  5
377
 10
100.301417
 20
68.532333
 30
0.0
 11
100.301417
 21
68.585917
 31
0.0
  0
LINE
  8
1
  6
CONTINUOUS
 62
   233
  5
378
 10
97.530917
 20
65.4565
 30
0.0
 11
100.206833
 21
65.4565
 31
0.0
  0
LINE
  8
1
  6
CONTINUOUS
 62
   233
  5
379
 10
97.530917
 20
65.533667
 30
0.0
 11
100.206833
 21
65.533667
 31
0.0
  0
LINE
  8
1
  6
CONTINUOUS
 62
   233
  5
37A
 10
100.301417
 20
65.19175
 30
0.0
 11
100.301417
 21
65.138167
 31
0.0
  0
LINE
  8
3
  6
HIDDEN
 62
   140
  5
37B
 10
100.301417
 20
65.416917
 30
0.0
 11
100.25425
 21
65.416917
 31
0.0
  0
LINE
  8
3
  6
HIDDEN
 62
   140
  5
37C
 10
100.301417
 20
65.19175
 30
0.0
 11
100.301417
 21
65.416917
 31
0.0
  0
LINE
  8
3
  6
HIDDEN
 62
   140
  5
37D
 10
97.436333
 20
65.416917
 30
0.0
 11
97.483417
 21
65.416917
 31
0.0
  0
LINE
  8
3
  6
HIDDEN
 62
   140
  5
37E
 10
97.436333
 20
65.19175
 30
0.0
 11
97.436333
 21
65.416917
 31
0.0
  0
LINE
  8
1
  6
CONTINUOUS
 62
   233
  5
37F
 10
97.436333
 20
65.138167
 30
0.0
 11
97.436333
 21
65.19175
 31
0.0
  0
LINE
  8
1
  6
CONTINUOUS
 62
   233
  5
380
 10
100.301417
 20
65.138167
 30
0.0
 11
97.436333
 21
65.138167
 31
0.0
  0
LINE
  8
1
  6
CONTINUOUS
 62
   233
  5
381
 10
97.436333
 20
65.19175
 30
0.0
 11
100.301417
 21
65.19175
 31
0.0
  0
LINE
  8
1
  6
CONTINUOUS
 62
   233
  5
382
 10
105.63875
 20
74.164917
 30
0.0
 11
106.010333
 21
74.164917
 31
0.0
  0
LINE
  8
1
  6
CONTINUOUS
 62
   233
  5
383
 10
105.63875
 20
74.164917
 30
0.0
 11
105.59375
 21
74.007167
 31
0.0
  0
LINE
  8
1
  6
CONTINUOUS
 62
   233
  5
384
 10
105.59375
 20
74.007167
 30
0.0
 11
105.6275
 21
73.849417
 31
0.0
  0
LINE
  8
1
  6
CONTINUOUS
 62
   233
  5
385
 10
105.6275
 20
73.849417
 30
0.0
 11
105.571167
 21
73.781833
 31
0.0
  0
LINE
  8
1
  6
CONTINUOUS
 62
   233
  5
386
 10
105.571167
 20
73.781833
 30
0.0
 11
105.63875
 21
73.714167
 31
0.0
  0
LINE
  8
1
  6
CONTINUOUS
 62
   233
  5
387
 10
105.63875
 20
73.714167
 30
0.0
 11
105.65
 21
73.635417
 31
0.0
  0
LINE
  8
1
  6
CONTINUOUS
 62
   233
  5
388
 10
105.65
 20
73.635417
 30
0.0
 11
105.65
 21
73.612833
 31
0.0
  0
LINE
  8
1
  6
CONTINUOUS
 62
   233
  5
389
 10
105.65
 20
73.612833
 30
0.0
 11
105.6275
 21
73.466333
 31
0.0
  0
LINE
  8
1
  6
CONTINUOUS
 62
   233
  5
38A
 10
105.6275
 20
73.466333
 30
0.0
 11
105.63875
 21
73.398667
 31
0.0
  0
LINE
  8
1
  6
CONTINUOUS
 62
   233
  5
38B
 10
105.63875
 20
73.398667
 30
0.0
 11
105.605
 21
73.331167
 31
0.0
  0
LINE
  8
1
  6
CONTINUOUS
 62
   233
  5
38C
 10
105.605
 20
73.331167
 30
0.0
 11
105.66125
 21
73.229667
 31
0.0
  0
LINE
  8
1
  6
CONTINUOUS
 62
   233
  5
38D
 10
105.66125
 20
73.229667
 30
0.0
 11
105.59375
 21
73.162167
 31
0.0
  0
LINE
  8
1
  6
CONTINUOUS
 62
   233
  5
38E
 10
105.59375
 20
73.162167
 30
0.0
 11
105.65
 21
72.959333
 31
0.0
  0
LINE
  8
1
  6
CONTINUOUS
 62
   233
  5
38F
 10
105.65
 20
72.959333
 30
0.0
 11
105.605
 21
72.857917
 31
0.0
  0
LINE
  8
1
  6
CONTINUOUS
 62
   233
  5
390
 10
105.605
 20
72.857917
 30
0.0
 11
105.63875
 21
72.7565
 31
0.0
  0
LINE
  8
1
  6
CONTINUOUS
 62
   233
  5
391
 10
105.63875
 20
72.7565
 30
0.0
 11
105.6275
 21
72.632583
 31
0.0
  0
LINE
  8
1
  6
CONTINUOUS
 62
   233
  5
392
 10
105.6275
 20
72.632583
 30
0.0
 11
105.683833
 21
72.42975
 31
0.0
  0
LINE
  8
1
  6
CONTINUOUS
 62
   233
  5
393
 10
105.683833
 20
72.42975
 30
0.0
 11
105.65
 21
72.272
 31
0.0
  0
LINE
  8
1
  6
CONTINUOUS
 62
   233
  5
394
 10
105.65
 20
72.272
 30
0.0
 11
105.65
 21
72.181917
 31
0.0
  0
LINE
  8
1
  6
CONTINUOUS
 62
   233
  5
395
 10
105.65
 20
72.181917
 30
0.0
 11
105.6275
 21
72.125583
 31
0.0
  0
LINE
  8
1
  6
CONTINUOUS
 62
   233
  5
396
 10
105.6275
 20
72.125583
 30
0.0
 11
105.65
 21
71.956583
 31
0.0
  0
LINE
  8
1
  6
CONTINUOUS
 62
   233
  5
397
 10
105.65
 20
71.956583
 30
0.0
 11
105.6275
 21
71.855167
 31
0.0
  0
LINE
  8
1
  6
CONTINUOUS
 62
   233
  5
398
 10
105.6275
 20
71.855167
 30
0.0
 11
105.683833
 21
71.753667
 31
0.0
  0
LINE
  8
1
  6
CONTINUOUS
 62
   233
  5
399
 10
105.683833
 20
71.753667
 30
0.0
 11
105.65
 21
71.618583
 31
0.0
  0
LINE
  8
1
  6
CONTINUOUS
 62
   233
  5
39A
 10
105.65
 20
71.618583
 30
0.0
 11
105.672583
 21
71.539667
 31
0.0
  0
LINE
  8
1
  6
CONTINUOUS
 62
   233
  5
39B
 10
105.672583
 20
71.539667
 30
0.0
 11
105.6275
 21
71.427
 31
0.0
  0
LINE
  8
1
  6
CONTINUOUS
 62
   233
  5
39C
 10
105.6275
 20
71.427
 30
0.0
 11
105.683833
 21
71.26925
 31
0.0
  0
LINE
  8
1
  6
CONTINUOUS
 62
   233
  5
39D
 10
105.683833
 20
71.26925
 30
0.0
 11
105.6275
 21
71.212917
 31
0.0
  0
LINE
  8
1
  6
CONTINUOUS
 62
   233
  5
39E
 10
105.6275
 20
71.212917
 30
0.0
 11
105.683833
 21
71.089
 31
0.0
  0
LINE
  8
1
  6
CONTINUOUS
 62
   233
  5
39F
 10
105.683833
 20
71.089
 30
0.0
 11
105.78525
 21
71.100333
 31
0.0
  0
LINE
  8
1
  6
CONTINUOUS
 62
   233
  5
3A0
 10
105.78525
 20
71.100333
 30
0.0
 11
105.864167
 21
71.055167
 31
0.0
  0
LINE
  8
1
  6
CONTINUOUS
 62
   233
  5
3A1
 10
105.864167
 20
71.055167
 30
0.0
 11
106.010583
 21
71.07775
 31
0.0
  0
LINE
  8
1
  6
CONTINUOUS
 62
   233
  5
3A2
 10
106.010583
 20
71.07775
 30
0.0
 11
106.066917
 21
71.055167
 31
0.0
  0
LINE
  8
1
  6
CONTINUOUS
 62
   233
  5
3A3
 10
106.066917
 20
71.055167
 30
0.0
 11
106.134583
 21
71.07775
 31
0.0
  0
LINE
  8
1
  6
CONTINUOUS
 62
   233
  5
3A4
 10
106.134583
 20
71.07775
 30
0.0
 11
106.202167
 21
71.043917
 31
0.0
  0
LINE
  8
1
  6
CONTINUOUS
 62
   233
  5
3A5
 10
106.202167
 20
71.043917
 30
0.0
 11
106.37125
 21
71.100333
 31
0.0
  0
LINE
  8
1
  6
CONTINUOUS
 62
   233
  5
3A6
 10
106.37125
 20
71.100333
 30
0.0
 11
106.483833
 21
71.055167
 31
0.0
  0
LINE
  8
1
  6
CONTINUOUS
 62
   233
  5
3A7
 10
106.483833
 20
71.055167
 30
0.0
 11
106.607833
 21
71.100333
 31
0.0
  0
LINE
  8
1
  6
CONTINUOUS
 62
   233
  5
3A8
 10
106.607833
 20
71.100333
 30
0.0
 11
106.675417
 21
71.055167
 31
0.0
  0
LINE
  8
1
  6
CONTINUOUS
 62
   233
  5
3A9
 10
106.675417
 20
71.055167
 30
0.0
 11
106.70925
 21
71.07775
 31
0.0
  0
LINE
  8
1
  6
CONTINUOUS
 62
   233
  5
3AA
 10
106.70925
 20
71.07775
 30
0.0
 11
106.878333
 21
71.0665
 31
0.0
  0
LINE
  8
1
  6
CONTINUOUS
 62
   233
  5
3AB
 10
106.878333
 20
71.0665
 30
0.0
 11
106.945833
 21
71.111583
 31
0.0
  0
LINE
  8
1
  6
CONTINUOUS
 62
   233
  5
3AC
 10
106.945833
 20
71.111583
 30
0.0
 11
107.036
 21
71.07775
 31
0.0
  0
LINE
  8
1
  6
CONTINUOUS
 62
   233
  5
3AD
 10
107.036
 20
71.07775
 30
0.0
 11
107.14875
 21
71.100333
 31
0.0
  0
LINE
  8
1
  6
CONTINUOUS
 62
   233
  5
3AE
 10
107.14875
 20
71.100333
 30
0.0
 11
107.238833
 21
71.0665
 31
0.0
  0
LINE
  8
1
  6
CONTINUOUS
 62
   233
  5
3AF
 10
107.238833
 20
71.0665
 30
0.0
 11
107.374083
 21
71.100333
 31
0.0
  0
LINE
  8
1
  6
CONTINUOUS
 62
   233
  5
3B0
 10
107.374083
 20
71.100333
 30
0.0
 11
107.5205
 21
71.055167
 31
0.0
  0
LINE
  8
1
  6
CONTINUOUS
 62
   233
  5
3B1
 10
107.5205
 20
71.055167
 30
0.0
 11
107.678333
 21
71.100333
 31
0.0
  0
LINE
  8
1
  6
CONTINUOUS
 62
   233
  5
3B2
 10
107.678333
 20
71.100333
 30
0.0
 11
107.768417
 21
71.0665
 31
0.0
  0
LINE
  8
1
  6
CONTINUOUS
 62
   233
  5
3B3
 10
107.768417
 20
71.0665
 30
0.0
 11
107.847333
 21
71.100333
 31
0.0
  0
LINE
  8
1
  6
CONTINUOUS
 62
   233
  5
3B4
 10
107.847333
 20
71.100333
 30
0.0
 11
107.97125
 21
71.0665
 31
0.0
  0
LINE
  8
1
  6
CONTINUOUS
 62
   233
  5
3B5
 10
107.97125
 20
71.0665
 30
0.0
 11
108.016333
 21
71.122833
 31
0.0
  0
LINE
  8
1
  6
CONTINUOUS
 62
   233
  5
3B6
 10
108.016333
 20
71.122833
 30
0.0
 11
108.174083
 21
71.055167
 31
0.0
  0
LINE
  8
1
  6
CONTINUOUS
 62
   233
  5
3B7
 10
108.174083
 20
71.055167
 30
0.0
 11
108.309333
 21
71.111583
 31
0.0
  0
LINE
  8
1
  6
CONTINUOUS
 62
   233
  5
3B8
 10
108.309333
 20
71.111583
 30
0.0
 11
108.4445
 21
71.089
 31
0.0
  0
LINE
  8
1
  6
CONTINUOUS
 62
   233
  5
3B9
 10
108.4445
 20
71.089
 30
0.0
 11
108.534667
 21
71.122833
 31
0.0
  0
LINE
  8
1
  6
CONTINUOUS
 62
   233
  5
3BA
 10
108.534667
 20
71.122833
 30
0.0
 11
108.76
 21
71.089
 31
0.0
  0
LINE
  8
1
  6
CONTINUOUS
 62
   233
  5
3BB
 10
108.76
 20
71.089
 30
0.0
 11
108.850167
 21
71.122833
 31
0.0
  0
LINE
  8
1
  6
CONTINUOUS
 62
   233
  5
3BC
 10
108.850167
 20
71.122833
 30
0.0
 11
109.0755
 21
71.089
 31
0.0
  0
LINE
  8
1
  6
CONTINUOUS
 62
   233
  5
3BD
 10
109.0755
 20
71.089
 30
0.0
 11
109.1995
 21
71.111583
 31
0.0
  0
LINE
  8
1
  6
CONTINUOUS
 62
   233
  5
3BE
 10
109.1995
 20
71.111583
 30
0.0
 11
109.436083
 21
71.100333
 31
0.0
  0
LINE
  8
1
  6
CONTINUOUS
 62
   233
  5
3BF
 10
109.436083
 20
71.100333
 30
0.0
 11
109.582583
 21
71.134083
 31
0.0
  0
LINE
  8
1
  6
CONTINUOUS
 62
   233
  5
3C0
 10
109.582583
 20
71.134083
 30
0.0
 11
109.717833
 21
71.100333
 31
0.0
  0
LINE
  8
1
  6
CONTINUOUS
 62
   233
  5
3C1
 10
109.717833
 20
71.100333
 30
0.0
 11
109.684083
 21
71.26925
 31
0.0
  0
LINE
  8
1
  6
CONTINUOUS
 62
   233
  5
3C2
 10
109.684083
 20
71.26925
 30
0.0
 11
109.717833
 21
71.348083
 31
0.0
  0
LINE
  8
1
  6
CONTINUOUS
 62
   233
  5
3C3
 10
109.717833
 20
71.348083
 30
0.0
 11
109.6615
 21
71.483333
 31
0.0
  0
LINE
  8
1
  6
CONTINUOUS
 62
   233
  5
3C4
 10
109.6615
 20
71.483333
 30
0.0
 11
109.717833
 21
71.5735
 31
0.0
  0
LINE
  8
1
  6
CONTINUOUS
 62
   233
  5
3C5
 10
109.717833
 20
71.5735
 30
0.0
 11
109.684083
 21
71.708667
 31
0.0
  0
LINE
  8
1
  6
CONTINUOUS
 62
   233
  5
3C6
 10
109.684083
 20
71.708667
 30
0.0
 11
109.717833
 21
71.843917
 31
0.0
  0
LINE
  8
1
  6
CONTINUOUS
 62
   233
  5
3C7
 10
109.717833
 20
71.843917
 30
0.0
 11
109.65025
 21
71.967833
 31
0.0
  0
LINE
  8
1
  6
CONTINUOUS
 62
   233
  5
3C8
 10
109.65025
 20
71.967833
 30
0.0
 11
109.695333
 21
72.09175
 31
0.0
  0
LINE
  8
1
  6
CONTINUOUS
 62
   233
  5
3C9
 10
109.695333
 20
72.09175
 30
0.0
 11
109.67275
 21
72.159417
 31
0.0
  0
LINE
  8
1
  6
CONTINUOUS
 62
   233
  5
3CA
 10
109.67275
 20
72.159417
 30
0.0
 11
109.706583
 21
72.317083
 31
0.0
  0
LINE
  8
1
  6
CONTINUOUS
 62
   233
  5
3CB
 10
109.706583
 20
72.317083
 30
0.0
 11
109.6615
 21
72.4185
 31
0.0
  0
LINE
  8
1
  6
CONTINUOUS
 62
   233
  5
3CC
 10
109.6615
 20
72.4185
 30
0.0
 11
109.695333
 21
72.55375
 31
0.0
  0
LINE
  8
1
  6
CONTINUOUS
 62
   233
  5
3CD
 10
109.695333
 20
72.55375
 30
0.0
 11
109.6615
 21
72.76775
 31
0.0
  0
LINE
  8
1
  6
CONTINUOUS
 62
   233
  5
3CE
 10
109.6615
 20
72.76775
 30
0.0
 11
109.695333
 21
72.846667
 31
0.0
  0
LINE
  8
1
  6
CONTINUOUS
 62
   233
  5
3CF
 10
109.695333
 20
72.846667
 30
0.0
 11
109.65025
 21
72.959333
 31
0.0
  0
LINE
  8
1
  6
CONTINUOUS
 62
   233
  5
3D0
 10
109.65025
 20
72.959333
 30
0.0
 11
109.684083
 21
73.0945
 31
0.0
  0
LINE
  8
1
  6
CONTINUOUS
 62
   233
  5
3D1
 10
109.684083
 20
73.0945
 30
0.0
 11
109.6615
 21
73.207167
 31
0.0
  0
LINE
  8
1
  6
CONTINUOUS
 62
   233
  5
3D2
 10
109.6615
 20
73.207167
 30
0.0
 11
109.684083
 21
73.286
 31
0.0
  0
LINE
  8
1
  6
CONTINUOUS
 62
   233
  5
3D3
 10
109.684083
 20
73.286
 30
0.0
 11
109.65025
 21
73.387417
 31
0.0
  0
LINE
  8
1
  6
CONTINUOUS
 62
   233
  5
3D4
 10
109.65025
 20
73.387417
 30
0.0
 11
109.684083
 21
73.522667
 31
0.0
  0
LINE
  8
1
  6
CONTINUOUS
 62
   233
  5
3D5
 10
109.684083
 20
73.522667
 30
0.0
 11
109.65025
 21
73.56775
 31
0.0
  0
LINE
  8
1
  6
CONTINUOUS
 62
   233
  5
3D6
 10
109.65025
 20
73.56775
 30
0.0
 11
109.67275
 21
73.725417
 31
0.0
  0
LINE
  8
1
  6
CONTINUOUS
 62
   233
  5
3D7
 10
109.67275
 20
73.725417
 30
0.0
 11
109.638917
 21
73.826833
 31
0.0
  0
LINE
  8
1
  6
CONTINUOUS
 62
   233
  5
3D8
 10
109.638917
 20
73.826833
 30
0.0
 11
109.684083
 21
73.90575
 31
0.0
  0
LINE
  8
1
  6
CONTINUOUS
 62
   233
  5
3D9
 10
109.684083
 20
73.90575
 30
0.0
 11
109.638917
 21
74.05225
 31
0.0
  0
LINE
  8
1
  6
CONTINUOUS
 62
   233
  5
3DA
 10
109.638917
 20
74.05225
 30
0.0
 11
109.6615
 21
74.164917
 31
0.0
  0
LINE
  8
1
  6
CONTINUOUS
 62
   233
  5
3DB
 10
106.047667
 20
74.164917
 30
0.0
 11
106.047667
 21
73.936083
 31
0.0
  0
LINE
  8
1
  6
CONTINUOUS
 62
   233
  5
3DC
 10
106.047667
 20
73.936083
 30
0.0
 11
109.2815
 21
73.936083
 31
0.0
  0
LINE
  8
1
  6
CONTINUOUS
 62
   233
  5
3DD
 10
109.2815
 20
73.936083
 30
0.0
 11
109.2815
 21
74.164917
 31
0.0
  0
LINE
  8
1
  6
CONTINUOUS
 62
   233
  5
3DE
 10
106.085083
 20
74.164917
 30
0.0
 11
106.085083
 21
73.936083
 31
0.0
  0
LINE
  8
1
  6
CONTINUOUS
 62
   233
  5
3DF
 10
106.078833
 20
73.936083
 30
0.0
 11
109.2255
 21
73.936083
 31
0.0
  0
LINE
  8
1
  6
CONTINUOUS
 62
   233
  5
3E0
 10
109.2255
 20
74.164917
 30
0.0
 11
109.2255
 21
73.936083
 31
0.0
  0
LINE
  8
1
  6
CONTINUOUS
 62
   233
  5
3E1
 10
106.215917
 20
73.8925
 30
0.0
 11
106.010333
 21
73.8925
 31
0.0
  0
LINE
  8
1
  6
CONTINUOUS
 62
   233
  5
3E2
 10
106.010333
 20
73.8925
 30
0.0
 11
106.010333
 21
74.164917
 31
0.0
  0
LINE
  8
1
  6
CONTINUOUS
 62
   233
  5
3E3
 10
106.215917
 20
73.8925
 30
0.0
 11
106.215917
 21
73.936083
 31
0.0
  0
LINE
  8
1
  6
CONTINUOUS
 62
   233
  5
3E4
 10
109.091667
 20
73.8895
 30
0.0
 11
109.327333
 21
73.8895
 31
0.0
  0
LINE
  8
1
  6
CONTINUOUS
 62
   233
  5
3E5
 10
109.327333
 20
73.8895
 30
0.0
 11
109.327333
 21
74.164917
 31
0.0
  0
LINE
  8
1
  6
CONTINUOUS
 62
   233
  5
3E6
 10
109.091667
 20
73.8895
 30
0.0
 11
109.091667
 21
73.936083
 31
0.0
  0
LINE
  8
1
  6
CONTINUOUS
 62
   233
  5
3E7
 10
106.331167
 20
71.796583
 30
0.0
 11
106.331167
 21
73.845167
 31
0.0
  0
LINE
  8
1
  6
CONTINUOUS
 62
   233
  5
3E8
 10
109.026333
 20
71.796583
 30
0.0
 11
109.026333
 21
73.868583
 31
0.0
  0
LINE
  8
1
  6
CONTINUOUS
 62
   233
  5
3E9
 10
106.215917
 20
73.936083
 30
0.0
 11
106.047167
 21
73.936083
 31
0.0
  0
ARC
  8
1
  6
CONTINUOUS
 62
   233
  5
3EA
 10
106.225529
 20
73.829794
 30
0.0
 40
0.106734
 50
8.282011
 51
95.170794
210
0.0
220
0.0
230
1.0
  0
LINE
  8
1
  6
CONTINUOUS
 62
   233
  5
3EB
 10
109.091667
 20
73.936083
 30
0.0
 11
109.256583
 21
73.936083
 31
0.0
  0
LINE
  8
1
  6
CONTINUOUS
 62
   233
  5
3EC
 10
109.303333
 20
71.796583
 30
0.0
 11
109.026333
 21
71.796583
 31
0.0
  0
LINE
  8
1
  6
CONTINUOUS
 62
   233
  5
3ED
 10
106.01825
 20
71.796583
 30
0.0
 11
106.01825
 21
71.943167
 31
0.0
  0
LINE
  8
1
  6
CONTINUOUS
 62
   233
  5
3EE
 10
106.01825
 20
71.943167
 30
0.0
 11
105.647083
 21
71.943167
 31
0.0
  0
LINE
  8
1
  6
CONTINUOUS
 62
   233
  5
3EF
 10
109.376583
 20
72.34075
 30
0.0
 11
109.303333
 21
72.34075
 31
0.0
  0
LINE
  8
1
  6
CONTINUOUS
 62
   233
  5
3F0
 10
109.303333
 20
72.34075
 30
0.0
 11
109.303333
 21
71.315333
 31
0.0
  0
LINE
  8
1
  6
CONTINUOUS
 62
   233
  5
3F1
 10
109.303333
 20
71.315333
 30
0.0
 11
109.376583
 21
71.315333
 31
0.0
  0
LINE
  8
1
  6
CONTINUOUS
 62
   233
  5
3F2
 10
109.376583
 20
71.315333
 30
0.0
 11
109.376583
 21
72.34075
 31
0.0
  0
CIRCLE
  8
1
  6
CONTINUOUS
 62
   233
  5
3F3
 10
107.670479
 20
72.328312
 30
0.0
 40
0.52351
210
0.0
220
0.0
230
1.0
  0
CIRCLE
  8
1
  6
CONTINUOUS
 62
   233
  5
3F4
 10
107.670479
 20
72.323194
 30
0.0
 40
0.600497
210
0.0
220
0.0
230
1.0
  0
LINE
  8
1
  6
CONTINUOUS
 62
   233
  5
3F5
 10
106.01675
 20
70.477417
 30
0.0
 11
109.570917
 21
70.477417
 31
0.0
  0
LINE
  8
1
  6
CONTINUOUS
 62
   233
  5
3F6
 10
109.570917
 20
70.477417
 30
0.0
 11
109.570917
 21
70.446333
 31
0.0
  0
LINE
  8
1
  6
CONTINUOUS
 62
   233
  5
3F7
 10
109.570917
 20
70.446333
 30
0.0
 11
106.01675
 21
70.446333
 31
0.0
  0
LINE
  8
1
  6
CONTINUOUS
 62
   233
  5
3F8
 10
106.01675
 20
70.446333
 30
0.0
 11
106.01675
 21
70.477417
 31
0.0
  0
LINE
  8
1
  6
CONTINUOUS
 62
   233
  5
3F9
 10
105.985667
 20
67.026833
 30
0.0
 11
105.985667
 21
67.089
 31
0.0
  0
LINE
  8
1
  6
CONTINUOUS
 62
   233
  5
3FA
 10
105.985667
 20
67.089
 30
0.0
 11
109.570917
 21
67.089
 31
0.0
  0
LINE
  8
1
  6
CONTINUOUS
 62
   233
  5
3FB
 10
109.570917
 20
67.089
 30
0.0
 11
109.570917
 21
67.037167
 31
0.0
  0
LINE
  8
1
  6
CONTINUOUS
 62
   233
  5
3FC
 10
109.570917
 20
67.037167
 30
0.0
 11
105.933917
 21
67.037167
 31
0.0
  0
LINE
  8
1
  6
CONTINUOUS
 62
   233
  5
3FD
 10
106.43125
 20
70.446333
 30
0.0
 11
106.43125
 21
67.089
 31
0.0
  0
LINE
  8
1
  6
CONTINUOUS
 62
   233
  5
3FE
 10
106.555583
 20
70.446333
 30
0.0
 11
106.555583
 21
67.089
 31
0.0
  0
LINE
  8
1
  6
CONTINUOUS
 62
   233
  5
3FF
 10
106.43125
 20
70.35075
 30
0.0
 11
106.370583
 21
70.446333
 31
0.0
  0
LINE
  8
1
  6
CONTINUOUS
 62
   233
  5
400
 10
106.555583
 20
70.346833
 30
0.0
 11
106.618833
 21
70.446333
 31
0.0
  0
SOLID
  8
1
  6
CONTINUOUS
 62
   233
  5
401
 10
106.555583
 20
70.346833
 30
0.0
 11
106.555583
 21
70.446333
 31
0.0
 12
106.618833
 22
70.446333
 32
0.0
 13
106.618833
 23
70.446333
 33
0.0
  0
SOLID
  8
1
  6
CONTINUOUS
 62
   233
  5
402
 10
106.43125
 20
70.35075
 30
0.0
 11
106.43125
 21
70.446333
 31
0.0
 12
106.370583
 22
70.446333
 32
0.0
 13
106.370583
 23
70.446333
 33
0.0
  0
LINE
  8
1
  6
CONTINUOUS
 62
   233
  5
403
 10
106.43125
 20
67.183167
 30
0.0
 11
106.374917
 21
67.089
 31
0.0
  0
LINE
  8
1
  6
CONTINUOUS
 62
   233
  5
404
 10
106.5555
 20
67.183167
 30
0.0
 11
106.611833
 21
67.089
 31
0.0
  0
SOLID
  8
1
  6
CONTINUOUS
 62
   233
  5
405
 10
106.43125
 20
67.183167
 30
0.0
 11
106.374917
 21
67.089
 31
0.0
 12
106.43125
 22
67.089
 32
0.0
 13
106.43125
 23
67.089
 33
0.0
  0
SOLID
  8
1
  6
CONTINUOUS
 62
   233
  5
406
 10
106.555583
 20
67.183083
 30
0.0
 11
106.555583
 21
67.089
 31
0.0
 12
106.611833
 22
67.089
 32
0.0
 13
106.611833
 23
67.089
 33
0.0
  0
SOLID
  8
1
  6
CONTINUOUS
 62
   233
  5
407
 10
107.021917
 20
67.183083
 30
0.0
 11
107.021917
 21
67.089
 31
0.0
 12
107.078167
 22
67.089
 32
0.0
 13
107.078167
 23
67.089
 33
0.0
  0
SOLID
  8
1
  6
CONTINUOUS
 62
   233
  5
408
 10
106.897583
 20
67.183167
 30
0.0
 11
106.841167
 21
67.089
 31
0.0
 12
106.897583
 22
67.089
 32
0.0
 13
106.897583
 23
67.089
 33
0.0
  0
LINE
  8
1
  6
CONTINUOUS
 62
   233
  5
409
 10
107.02175
 20
67.183167
 30
0.0
 11
107.078167
 21
67.089
 31
0.0
  0
LINE
  8
1
  6
CONTINUOUS
 62
   233
  5
40A
 10
106.897583
 20
67.183167
 30
0.0
 11
106.841167
 21
67.089
 31
0.0
  0
SOLID
  8
1
  6
CONTINUOUS
 62
   233
  5
40B
 10
106.897583
 20
70.35075
 30
0.0
 11
106.897583
 21
70.446333
 31
0.0
 12
106.836833
 22
70.446333
 32
0.0
 13
106.836833
 23
70.446333
 33
0.0
  0
SOLID
  8
1
  6
CONTINUOUS
 62
   233
  5
40C
 10
107.021917
 20
70.346833
 30
0.0
 11
107.021917
 21
70.446333
 31
0.0
 12
107.085167
 22
70.446333
 32
0.0
 13
107.085167
 23
70.446333
 33
0.0
  0
LINE
  8
1
  6
CONTINUOUS
 62
   233
  5
40D
 10
107.021917
 20
70.346833
 30
0.0
 11
107.085167
 21
70.446333
 31
0.0
  0
LINE
  8
1
  6
CONTINUOUS
 62
   233
  5
40E
 10
106.897583
 20
70.35075
 30
0.0
 11
106.836833
 21
70.446333
 31
0.0
  0
LINE
  8
1
  6
CONTINUOUS
 62
   233
  5
40F
 10
107.021917
 20
70.446333
 30
0.0
 11
107.021917
 21
67.089
 31
0.0
  0
LINE
  8
1
  6
CONTINUOUS
 62
   233
  5
410
 10
106.897583
 20
70.446333
 30
0.0
 11
106.897583
 21
67.089
 31
0.0
  0
SOLID
  8
1
  6
CONTINUOUS
 62
   233
  5
411
 10
107.436333
 20
67.183083
 30
0.0
 11
107.436333
 21
67.089
 31
0.0
 12
107.492583
 22
67.089
 32
0.0
 13
107.492583
 23
67.089
 33
0.0
  0
SOLID
  8
1
  6
CONTINUOUS
 62
   233
  5
412
 10
107.312
 20
67.183167
 30
0.0
 11
107.255667
 21
67.089
 31
0.0
 12
107.312
 22
67.089
 32
0.0
 13
107.312
 23
67.089
 33
0.0
  0
LINE
  8
1
  6
CONTINUOUS
 62
   233
  5
413
 10
107.436333
 20
67.183167
 30
0.0
 11
107.492583
 21
67.089
 31
0.0
  0
LINE
  8
1
  6
CONTINUOUS
 62
   233
  5
414
 10
107.312
 20
67.183167
 30
0.0
 11
107.255667
 21
67.089
 31
0.0
  0
SOLID
  8
1
  6
CONTINUOUS
 62
   233
  5
415
 10
107.312
 20
70.35075
 30
0.0
 11
107.312
 21
70.446333
 31
0.0
 12
107.25125
 22
70.446333
 32
0.0
 13
107.25125
 23
70.446333
 33
0.0
  0
SOLID
  8
1
  6
CONTINUOUS
 62
   233
  5
416
 10
107.436333
 20
70.346833
 30
0.0
 11
107.436333
 21
70.446333
 31
0.0
 12
107.499583
 22
70.446333
 32
0.0
 13
107.499583
 23
70.446333
 33
0.0
  0
LINE
  8
1
  6
CONTINUOUS
 62
   233
  5
417
 10
107.436333
 20
70.346833
 30
0.0
 11
107.499583
 21
70.446333
 31
0.0
  0
LINE
  8
1
  6
CONTINUOUS
 62
   233
  5
418
 10
107.312
 20
70.35075
 30
0.0
 11
107.25125
 21
70.446333
 31
0.0
  0
LINE
  8
1
  6
CONTINUOUS
 62
   233
  5
419
 10
107.436333
 20
70.446333
 30
0.0
 11
107.436333
 21
67.089
 31
0.0
  0
LINE
  8
1
  6
CONTINUOUS
 62
   233
  5
41A
 10
107.312
 20
70.446333
 30
0.0
 11
107.312
 21
67.089
 31
0.0
  0
LINE
  8
1
  6
CONTINUOUS
 62
   233
  5
41B
 10
107.716083
 20
70.446333
 30
0.0
 11
107.716083
 21
67.089
 31
0.0
  0
LINE
  8
1
  6
CONTINUOUS
 62
   233
  5
41C
 10
107.8405
 20
70.446333
 30
0.0
 11
107.8405
 21
67.089
 31
0.0
  0
LINE
  8
1
  6
CONTINUOUS
 62
   233
  5
41D
 10
107.716083
 20
70.35075
 30
0.0
 11
107.655333
 21
70.446333
 31
0.0
  0
LINE
  8
1
  6
CONTINUOUS
 62
   233
  5
41E
 10
107.8405
 20
70.346833
 30
0.0
 11
107.90375
 21
70.446333
 31
0.0
  0
SOLID
  8
1
  6
CONTINUOUS
 62
   233
  5
41F
 10
107.8405
 20
70.346833
 30
0.0
 11
107.8405
 21
70.446333
 31
0.0
 12
107.90375
 22
70.446333
 32
0.0
 13
107.90375
 23
70.446333
 33
0.0
  0
SOLID
  8
1
  6
CONTINUOUS
 62
   233
  5
420
 10
107.716083
 20
70.35075
 30
0.0
 11
107.716083
 21
70.446333
 31
0.0
 12
107.655333
 22
70.446333
 32
0.0
 13
107.655333
 23
70.446333
 33
0.0
  0
LINE
  8
1
  6
CONTINUOUS
 62
   233
  5
421
 10
107.716083
 20
67.183167
 30
0.0
 11
107.659833
 21
67.089
 31
0.0
  0
LINE
  8
1
  6
CONTINUOUS
 62
   233
  5
422
 10
107.840417
 20
67.183167
 30
0.0
 11
107.896833
 21
67.089
 31
0.0
  0
SOLID
  8
1
  6
CONTINUOUS
 62
   233
  5
423
 10
107.716083
 20
67.183167
 30
0.0
 11
107.659833
 21
67.089
 31
0.0
 12
107.716083
 22
67.089
 32
0.0
 13
107.716083
 23
67.089
 33
0.0
  0
SOLID
  8
1
  6
CONTINUOUS
 62
   233
  5
424
 10
107.8405
 20
67.183083
 30
0.0
 11
107.8405
 21
67.089
 31
0.0
 12
107.896833
 22
67.089
 32
0.0
 13
107.896833
 23
67.089
 33
0.0
  0
SOLID
  8
1
  6
CONTINUOUS
 62
   233
  5
425
 10
108.317083
 20
67.183083
 30
0.0
 11
108.317083
 21
67.089
 31
0.0
 12
108.373333
 22
67.089
 32
0.0
 13
108.373333
 23
67.089
 33
0.0
  0
SOLID
  8
1
  6
CONTINUOUS
 62
   233
  5
426
 10
108.192833
 20
67.183167
 30
0.0
 11
108.136417
 21
67.089
 31
0.0
 12
108.192833
 22
67.089
 32
0.0
 13
108.192833
 23
67.089
 33
0.0
  0
LINE
  8
1
  6
CONTINUOUS
 62
   233
  5
427
 10
108.317083
 20
67.183167
 30
0.0
 11
108.373333
 21
67.089
 31
0.0
  0
LINE
  8
1
  6
CONTINUOUS
 62
   233
  5
428
 10
108.192833
 20
67.183167
 30
0.0
 11
108.136417
 21
67.089
 31
0.0
  0
SOLID
  8
1
  6
CONTINUOUS
 62
   233
  5
429
 10
108.192833
 20
70.35075
 30
0.0
 11
108.192833
 21
70.446333
 31
0.0
 12
108.132083
 22
70.446333
 32
0.0
 13
108.132083
 23
70.446333
 33
0.0
  0
SOLID
  8
1
  6
CONTINUOUS
 62
   233
  5
42A
 10
108.317083
 20
70.346833
 30
0.0
 11
108.317083
 21
70.446333
 31
0.0
 12
108.380333
 22
70.446333
 32
0.0
 13
108.380333
 23
70.446333
 33
0.0
  0
LINE
  8
1
  6
CONTINUOUS
 62
   233
  5
42B
 10
108.317083
 20
70.346833
 30
0.0
 11
108.380333
 21
70.446333
 31
0.0
  0
LINE
  8
1
  6
CONTINUOUS
 62
   233
  5
42C
 10
108.192833
 20
70.35075
 30
0.0
 11
108.132083
 21
70.446333
 31
0.0
  0
LINE
  8
1
  6
CONTINUOUS
 62
   233
  5
42D
 10
108.317083
 20
70.446333
 30
0.0
 11
108.317083
 21
67.089
 31
0.0
  0
LINE
  8
1
  6
CONTINUOUS
 62
   233
  5
42E
 10
108.192833
 20
70.446333
 30
0.0
 11
108.192833
 21
67.089
 31
0.0
  0
LINE
  8
1
  6
CONTINUOUS
 62
   233
  5
42F
 10
108.628083
 20
70.446333
 30
0.0
 11
108.628083
 21
67.089
 31
0.0
  0
LINE
  8
1
  6
CONTINUOUS
 62
   233
  5
430
 10
108.752333
 20
70.446333
 30
0.0
 11
108.752333
 21
67.089
 31
0.0
  0
LINE
  8
1
  6
CONTINUOUS
 62
   233
  5
431
 10
108.628083
 20
70.35075
 30
0.0
 11
108.567333
 21
70.446333
 31
0.0
  0
LINE
  8
1
  6
CONTINUOUS
 62
   233
  5
432
 10
108.752333
 20
70.346833
 30
0.0
 11
108.815583
 21
70.446333
 31
0.0
  0
SOLID
  8
1
  6
CONTINUOUS
 62
   233
  5
433
 10
108.752333
 20
70.346833
 30
0.0
 11
108.752333
 21
70.446333
 31
0.0
 12
108.815583
 22
70.446333
 32
0.0
 13
108.815583
 23
70.446333
 33
0.0
  0
SOLID
  8
1
  6
CONTINUOUS
 62
   233
  5
434
 10
108.628083
 20
70.35075
 30
0.0
 11
108.628083
 21
70.446333
 31
0.0
 12
108.567333
 22
70.446333
 32
0.0
 13
108.567333
 23
70.446333
 33
0.0
  0
LINE
  8
1
  6
CONTINUOUS
 62
   233
  5
435
 10
108.628083
 20
67.183167
 30
0.0
 11
108.571667
 21
67.089
 31
0.0
  0
LINE
  8
1
  6
CONTINUOUS
 62
   233
  5
436
 10
108.75225
 20
67.183167
 30
0.0
 11
108.808583
 21
67.089
 31
0.0
  0
SOLID
  8
1
  6
CONTINUOUS
 62
   233
  5
437
 10
108.628083
 20
67.183167
 30
0.0
 11
108.571667
 21
67.089
 31
0.0
 12
108.628083
 22
67.089
 32
0.0
 13
108.628083
 23
67.089
 33
0.0
  0
SOLID
  8
1
  6
CONTINUOUS
 62
   233
  5
438
 10
108.752333
 20
67.183083
 30
0.0
 11
108.752333
 21
67.089
 31
0.0
 12
108.808583
 22
67.089
 32
0.0
 13
108.808583
 23
67.089
 33
0.0
  0
SOLID
  8
1
  6
CONTINUOUS
 62
   233
  5
439
 10
109.177167
 20
67.183083
 30
0.0
 11
109.177167
 21
67.089
 31
0.0
 12
109.233417
 22
67.089
 32
0.0
 13
109.233417
 23
67.089
 33
0.0
  0
SOLID
  8
1
  6
CONTINUOUS
 62
   233
  5
43A
 10
109.052833
 20
67.183167
 30
0.0
 11
108.9965
 21
67.089
 31
0.0
 12
109.052833
 22
67.089
 32
0.0
 13
109.052833
 23
67.089
 33
0.0
  0
LINE
  8
1
  6
CONTINUOUS
 62
   233
  5
43B
 10
109.177083
 20
67.183167
 30
0.0
 11
109.233417
 21
67.089
 31
0.0
  0
LINE
  8
1
  6
CONTINUOUS
 62
   233
  5
43C
 10
109.052833
 20
67.183167
 30
0.0
 11
108.9965
 21
67.089
 31
0.0
  0
SOLID
  8
1
  6
CONTINUOUS
 62
   233
  5
43D
 10
109.052833
 20
70.35075
 30
0.0
 11
109.052833
 21
70.446333
 31
0.0
 12
108.992083
 22
70.446333
 32
0.0
 13
108.992083
 23
70.446333
 33
0.0
  0
SOLID
  8
1
  6
CONTINUOUS
 62
   233
  5
43E
 10
109.177167
 20
70.346833
 30
0.0
 11
109.177167
 21
70.446333
 31
0.0
 12
109.240417
 22
70.446333
 32
0.0
 13
109.240417
 23
70.446333
 33
0.0
  0
LINE
  8
1
  6
CONTINUOUS
 62
   233
  5
43F
 10
109.177167
 20
70.346833
 30
0.0
 11
109.240417
 21
70.446333
 31
0.0
  0
LINE
  8
1
  6
CONTINUOUS
 62
   233
  5
440
 10
109.052833
 20
70.35075
 30
0.0
 11
108.992083
 21
70.446333
 31
0.0
  0
LINE
  8
1
  6
CONTINUOUS
 62
   233
  5
441
 10
109.177167
 20
70.446333
 30
0.0
 11
109.177167
 21
67.089
 31
0.0
  0
LINE
  8
1
  6
CONTINUOUS
 62
   233
  5
442
 10
109.052833
 20
70.446333
 30
0.0
 11
109.052833
 21
67.089
 31
0.0
  0
LINE
  8
1
  6
CONTINUOUS
 62
   233
  5
443
 10
105.702583
 20
65.992083
 30
0.0
 11
109.215333
 21
65.992083
 31
0.0
  0
LINE
  8
1
  6
CONTINUOUS
 62
   233
  5
444
 10
109.215333
 20
65.992083
 30
0.0
 11
109.215333
 21
65.774583
 31
0.0
  0
LINE
  8
1
  6
CONTINUOUS
 62
   233
  5
445
 10
109.215333
 20
65.774583
 30
0.0
 11
105.702583
 21
65.774583
 31
0.0
  0
LINE
  8
1
  6
CONTINUOUS
 62
   233
  5
446
 10
105.702583
 20
65.774583
 30
0.0
 11
105.702583
 21
65.992083
 31
0.0
  0
LINE
  8
1
  6
CONTINUOUS
 62
   233
  5
447
 10
105.754167
 20
63.843667
 30
0.0
 11
109.260417
 21
63.843667
 31
0.0
  0
LINE
  8
1
  6
CONTINUOUS
 62
   233
  5
448
 10
109.260417
 20
63.843667
 30
0.0
 11
109.260417
 21
63.620167
 31
0.0
  0
LINE
  8
1
  6
CONTINUOUS
 62
   233
  5
449
 10
105.754167
 20
63.620167
 30
0.0
 11
105.754167
 21
63.843667
 31
0.0
  0
LINE
  8
1
  6
CONTINUOUS
 62
   233
  5
44A
 10
105.978167
 20
65.774583
 30
0.0
 11
105.868333
 21
65.774583
 31
0.0
  0
LINE
  8
1
  6
CONTINUOUS
 62
   233
  5
44B
 10
105.978167
 20
65.992083
 30
0.0
 11
105.868333
 21
65.992083
 31
0.0
  0
LINE
  8
1
  6
CONTINUOUS
 62
   233
  5
44C
 10
105.978167
 20
65.992083
 30
0.0
 11
105.978167
 21
65.774583
 31
0.0
  0
LINE
  8
1
  6
CONTINUOUS
 62
   233
  5
44D
 10
105.868333
 20
65.992083
 30
0.0
 11
105.868333
 21
65.774583
 31
0.0
  0
INSERT
  8
1
  6
CONTINUOUS
 62
     7
  5
458
  2
$X6
 10
96.178917
 20
63.485667
 30
0.0
 41
0.675
 42
0.675
210
0.0
220
0.0
230
1.0
  0
INSERT
  8
1
  6
CONTINUOUS
 62
     7
  5
459
  2
$X6
 10
96.394417
 20
63.485667
 30
0.0
 41
0.675
 42
0.675
210
0.0
220
0.0
230
1.0
  0
LINE
  8
1
  6
CONTINUOUS
 62
   233
  5
45A
 10
106.084083
 20
65.992083
 30
0.0
 11
106.084083
 21
65.774583
 31
0.0
  0
LINE
  8
1
  6
CONTINUOUS
 62
   233
  5
45B
 10
106.193833
 20
65.992083
 30
0.0
 11
106.193833
 21
65.774583
 31
0.0
  0
LINE
  8
1
  6
CONTINUOUS
 62
   233
  5
45C
 10
106.193833
 20
65.992083
 30
0.0
 11
106.084083
 21
65.992083
 31
0.0
  0
LINE
  8
1
  6
CONTINUOUS
 62
   233
  5
45D
 10
106.193833
 20
65.774583
 30
0.0
 11
106.084083
 21
65.774583
 31
0.0
  0
LINE
  8
1
  6
CONTINUOUS
 62
   233
  5
45E
 10
106.4095
 20
65.774583
 30
0.0
 11
106.299667
 21
65.774583
 31
0.0
  0
LINE
  8
1
  6
CONTINUOUS
 62
   233
  5
45F
 10
106.4095
 20
65.992083
 30
0.0
 11
106.299667
 21
65.992083
 31
0.0
  0
LINE
  8
1
  6
CONTINUOUS
 62
   233
  5
460
 10
106.4095
 20
65.992083
 30
0.0
 11
106.4095
 21
65.774583
 31
0.0
  0
LINE
  8
1
  6
CONTINUOUS
 62
   233
  5
461
 10
106.299667
 20
65.992083
 30
0.0
 11
106.299667
 21
65.774583
 31
0.0
  0
INSERT
  8
1
  6
CONTINUOUS
 62
     7
  5
462
  2
$X6
 10
96.610167
 20
63.485667
 30
0.0
 41
0.675
 42
0.675
210
0.0
220
0.0
230
1.0
  0
INSERT
  8
1
  6
CONTINUOUS
 62
     7
  5
463
  2
$X6
 10
96.83375
 20
63.485667
 30
0.0
 41
0.675
 42
0.675
210
0.0
220
0.0
230
1.0
  0
LINE
  8
1
  6
CONTINUOUS
 62
   233
  5
464
 10
106.523333
 20
65.992083
 30
0.0
 11
106.523333
 21
65.774583
 31
0.0
  0
LINE
  8
1
  6
CONTINUOUS
 62
   233
  5
465
 10
106.633083
 20
65.992083
 30
0.0
 11
106.633083
 21
65.774583
 31
0.0
  0
LINE
  8
1
  6
CONTINUOUS
 62
   233
  5
466
 10
106.633083
 20
65.992083
 30
0.0
 11
106.523333
 21
65.992083
 31
0.0
  0
LINE
  8
1
  6
CONTINUOUS
 62
   233
  5
467
 10
106.633083
 20
65.774583
 30
0.0
 11
106.523333
 21
65.774583
 31
0.0
  0
LINE
  8
1
  6
CONTINUOUS
 62
   233
  5
468
 10
106.84875
 20
65.774583
 30
0.0
 11
106.739
 21
65.774583
 31
0.0
  0
LINE
  8
1
  6
CONTINUOUS
 62
   233
  5
469
 10
106.84875
 20
65.992083
 30
0.0
 11
106.739
 21
65.992083
 31
0.0
  0
LINE
  8
1
  6
CONTINUOUS
 62
   233
  5
46A
 10
106.84875
 20
65.992083
 30
0.0
 11
106.84875
 21
65.774583
 31
0.0
  0
LINE
  8
1
  6
CONTINUOUS
 62
   233
  5
46B
 10
106.739
 20
65.992083
 30
0.0
 11
106.739
 21
65.774583
 31
0.0
  0
INSERT
  8
1
  6
CONTINUOUS
 62
     7
  5
46C
  2
$X6
 10
97.049417
 20
63.485667
 30
0.0
 41
0.675
 42
0.675
210
0.0
220
0.0
230
1.0
  0
INSERT
  8
1
  6
CONTINUOUS
 62
     7
  5
46D
  2
$X6
 10
97.257083
 20
63.485667
 30
0.0
 41
0.675
 42
0.675
210
0.0
220
0.0
230
1.0
  0
LINE
  8
1
  6
CONTINUOUS
 62
   233
  5
46E
 10
106.946667
 20
65.992083
 30
0.0
 11
106.946667
 21
65.774583
 31
0.0
  0
LINE
  8
1
  6
CONTINUOUS
 62
   233
  5
46F
 10
107.056417
 20
65.992083
 30
0.0
 11
107.056417
 21
65.774583
 31
0.0
  0
LINE
  8
1
  6
CONTINUOUS
 62
   233
  5
470
 10
107.056417
 20
65.992083
 30
0.0
 11
106.946667
 21
65.992083
 31
0.0
  0
LINE
  8
1
  6
CONTINUOUS
 62
   233
  5
471
 10
107.056417
 20
65.774583
 30
0.0
 11
106.946667
 21
65.774583
 31
0.0
  0
LINE
  8
1
  6
CONTINUOUS
 62
   233
  5
472
 10
107.296083
 20
65.774583
 30
0.0
 11
107.18625
 21
65.774583
 31
0.0
  0
LINE
  8
1
  6
CONTINUOUS
 62
   233
  5
473
 10
107.296083
 20
65.992083
 30
0.0
 11
107.18625
 21
65.992083
 31
0.0
  0
LINE
  8
1
  6
CONTINUOUS
 62
   233
  5
474
 10
107.296083
 20
65.992083
 30
0.0
 11
107.296083
 21
65.774583
 31
0.0
  0
LINE
  8
1
  6
CONTINUOUS
 62
   233
  5
475
 10
107.18625
 20
65.992083
 30
0.0
 11
107.18625
 21
65.774583
 31
0.0
  0
INSERT
  8
1
  6
CONTINUOUS
 62
     7
  5
476
  2
$X6
 10
97.496667
 20
63.485667
 30
0.0
 41
0.675
 42
0.675
210
0.0
220
0.0
230
1.0
  0
INSERT
  8
1
  6
CONTINUOUS
 62
     7
  5
477
  2
$X6
 10
97.704333
 20
63.485667
 30
0.0
 41
0.675
 42
0.675
210
0.0
220
0.0
230
1.0
  0
LINE
  8
1
  6
CONTINUOUS
 62
   233
  5
478
 10
107.393917
 20
65.992083
 30
0.0
 11
107.393917
 21
65.774583
 31
0.0
  0
LINE
  8
1
  6
CONTINUOUS
 62
   233
  5
479
 10
107.50375
 20
65.992083
 30
0.0
 11
107.50375
 21
65.774583
 31
0.0
  0
LINE
  8
1
  6
CONTINUOUS
 62
   233
  5
47A
 10
107.50375
 20
65.992083
 30
0.0
 11
107.393917
 21
65.992083
 31
0.0
  0
LINE
  8
1
  6
CONTINUOUS
 62
   233
  5
47B
 10
107.50375
 20
65.774583
 30
0.0
 11
107.393917
 21
65.774583
 31
0.0
  0
LINE
  8
1
  6
CONTINUOUS
 62
   233
  5
47C
 10
107.711417
 20
65.774583
 30
0.0
 11
107.601583
 21
65.774583
 31
0.0
  0
LINE
  8
1
  6
CONTINUOUS
 62
   233
  5
47D
 10
107.711417
 20
65.992083
 30
0.0
 11
107.601583
 21
65.992083
 31
0.0
  0
LINE
  8
1
  6
CONTINUOUS
 62
   233
  5
47E
 10
107.711417
 20
65.992083
 30
0.0
 11
107.711417
 21
65.774583
 31
0.0
  0
LINE
  8
1
  6
CONTINUOUS
 62
   233
  5
47F
 10
107.601583
 20
65.992083
 30
0.0
 11
107.601583
 21
65.774583
 31
0.0
  0
INSERT
  8
1
  6
CONTINUOUS
 62
     7
  5
480
  2
$X6
 10
97.912083
 20
63.485667
 30
0.0
 41
0.675
 42
0.675
210
0.0
220
0.0
230
1.0
  0
INSERT
  8
1
  6
CONTINUOUS
 62
     7
  5
481
  2
$X6
 10
98.151667
 20
63.485667
 30
0.0
 41
0.675
 42
0.675
210
0.0
220
0.0
230
1.0
  0
LINE
  8
1
  6
CONTINUOUS
 62
   233
  5
482
 10
107.84125
 20
65.992083
 30
0.0
 11
107.84125
 21
65.774583
 31
0.0
  0
LINE
  8
1
  6
CONTINUOUS
 62
   233
  5
483
 10
107.950917
 20
65.992083
 30
0.0
 11
107.950917
 21
65.774583
 31
0.0
  0
LINE
  8
1
  6
CONTINUOUS
 62
   233
  5
484
 10
107.950917
 20
65.992083
 30
0.0
 11
107.84125
 21
65.992083
 31
0.0
  0
LINE
  8
1
  6
CONTINUOUS
 62
   233
  5
485
 10
107.950917
 20
65.774583
 30
0.0
 11
107.84125
 21
65.774583
 31
0.0
  0
LINE
  8
1
  6
CONTINUOUS
 62
   233
  5
486
 10
108.174583
 20
65.774583
 30
0.0
 11
108.064917
 21
65.774583
 31
0.0
  0
LINE
  8
1
  6
CONTINUOUS
 62
   233
  5
487
 10
108.174583
 20
65.992083
 30
0.0
 11
108.064917
 21
65.992083
 31
0.0
  0
LINE
  8
1
  6
CONTINUOUS
 62
   233
  5
488
 10
108.174583
 20
65.992083
 30
0.0
 11
108.174583
 21
65.774583
 31
0.0
  0
LINE
  8
1
  6
CONTINUOUS
 62
   233
  5
489
 10
108.064917
 20
65.992083
 30
0.0
 11
108.064917
 21
65.774583
 31
0.0
  0
INSERT
  8
1
  6
CONTINUOUS
 62
     7
  5
48A
  2
$X6
 10
98.375333
 20
63.485667
 30
0.0
 41
0.675
 42
0.675
210
0.0
220
0.0
230
1.0
  0
INSERT
  8
1
  6
CONTINUOUS
 62
     7
  5
48B
  2
$X6
 10
98.599
 20
63.485667
 30
0.0
 41
0.675
 42
0.675
210
0.0
220
0.0
230
1.0
  0
LINE
  8
1
  6
CONTINUOUS
 62
   233
  5
48C
 10
108.2885
 20
65.992083
 30
0.0
 11
108.2885
 21
65.774583
 31
0.0
  0
LINE
  8
1
  6
CONTINUOUS
 62
   233
  5
48D
 10
108.39825
 20
65.992083
 30
0.0
 11
108.39825
 21
65.774583
 31
0.0
  0
LINE
  8
1
  6
CONTINUOUS
 62
   233
  5
48E
 10
108.39825
 20
65.992083
 30
0.0
 11
108.2885
 21
65.992083
 31
0.0
  0
LINE
  8
1
  6
CONTINUOUS
 62
   233
  5
48F
 10
108.39825
 20
65.774583
 30
0.0
 11
108.2885
 21
65.774583
 31
0.0
  0
LINE
  8
1
  6
CONTINUOUS
 62
   233
  5
490
 10
108.598
 20
65.774583
 30
0.0
 11
108.488167
 21
65.774583
 31
0.0
  0
LINE
  8
1
  6
CONTINUOUS
 62
   233
  5
491
 10
108.598
 20
65.992083
 30
0.0
 11
108.488167
 21
65.992083
 31
0.0
  0
LINE
  8
1
  6
CONTINUOUS
 62
   233
  5
492
 10
108.598
 20
65.992083
 30
0.0
 11
108.598
 21
65.774583
 31
0.0
  0
LINE
  8
1
  6
CONTINUOUS
 62
   233
  5
493
 10
108.488167
 20
65.992083
 30
0.0
 11
108.488167
 21
65.774583
 31
0.0
  0
INSERT
  8
1
  6
CONTINUOUS
 62
     7
  5
494
  2
$X6
 10
98.798667
 20
63.485667
 30
0.0
 41
0.675
 42
0.675
210
0.0
220
0.0
230
1.0
  0
INSERT
  8
1
  6
CONTINUOUS
 62
     7
  5
495
  2
$X6
 10
99.030167
 20
63.485667
 30
0.0
 41
0.675
 42
0.675
210
0.0
220
0.0
230
1.0
  0
LINE
  8
1
  6
CONTINUOUS
 62
   233
  5
496
 10
108.71975
 20
65.992083
 30
0.0
 11
108.71975
 21
65.774583
 31
0.0
  0
LINE
  8
1
  6
CONTINUOUS
 62
   233
  5
497
 10
108.829583
 20
65.992083
 30
0.0
 11
108.829583
 21
65.774583
 31
0.0
  0
LINE
  8
1
  6
CONTINUOUS
 62
   233
  5
498
 10
108.829583
 20
65.992083
 30
0.0
 11
108.71975
 21
65.992083
 31
0.0
  0
LINE
  8
1
  6
CONTINUOUS
 62
   233
  5
499
 10
108.829583
 20
65.774583
 30
0.0
 11
108.71975
 21
65.774583
 31
0.0
  0
LINE
  8
1
  6
CONTINUOUS
 62
   233
  5
49A
 10
109.04525
 20
65.774583
 30
0.0
 11
108.9355
 21
65.774583
 31
0.0
  0
LINE
  8
1
  6
CONTINUOUS
 62
   233
  5
49B
 10
109.04525
 20
65.992083
 30
0.0
 11
108.9355
 21
65.992083
 31
0.0
  0
LINE
  8
1
  6
CONTINUOUS
 62
   233
  5
49C
 10
109.04525
 20
65.992083
 30
0.0
 11
109.04525
 21
65.774583
 31
0.0
  0
LINE
  8
1
  6
CONTINUOUS
 62
   233
  5
49D
 10
108.9355
 20
65.992083
 30
0.0
 11
108.9355
 21
65.774583
 31
0.0
  0
INSERT
  8
1
  6
CONTINUOUS
 62
     7
  5
49E
  2
$X6
 10
99.245833
 20
63.485667
 30
0.0
 41
0.675
 42
0.675
210
0.0
220
0.0
230
1.0
  0
LINE
  8
1
  6
CONTINUOUS
 62
   233
  5
49F
 10
106.261583
 20
63.624833
 30
0.0
 11
106.15175
 21
63.624833
 31
0.0
  0
LINE
  8
1
  6
CONTINUOUS
 62
   233
  5
4A0
 10
106.261583
 20
63.8425
 30
0.0
 11
106.15175
 21
63.8425
 31
0.0
  0
LINE
  8
1
  6
CONTINUOUS
 62
   233
  5
4A1
 10
106.261583
 20
63.8425
 30
0.0
 11
106.261583
 21
63.624833
 31
0.0
  0
LINE
  8
1
  6
CONTINUOUS
 62
   233
  5
4A2
 10
106.15175
 20
63.8425
 30
0.0
 11
106.15175
 21
63.624833
 31
0.0
  0
INSERT
  8
1
  6
CONTINUOUS
 62
     7
  5
4A3
  2
$X6
 10
96.462167
 20
61.336167
 30
0.0
 41
0.675
 42
0.675
210
0.0
220
0.0
230
1.0
  0
INSERT
  8
1
  6
CONTINUOUS
 62
     7
  5
4A4
  2
$X6
 10
96.8935
 20
61.336167
 30
0.0
 41
0.675
 42
0.675
210
0.0
220
0.0
230
1.0
  0
LINE
  8
1
  6
CONTINUOUS
 62
   233
  5
4A5
 10
106.583083
 20
63.8425
 30
0.0
 11
106.583083
 21
63.624833
 31
0.0
  0
LINE
  8
1
  6
CONTINUOUS
 62
   233
  5
4A6
 10
106.692833
 20
63.8425
 30
0.0
 11
106.692833
 21
63.624833
 31
0.0
  0
LINE
  8
1
  6
CONTINUOUS
 62
   233
  5
4A7
 10
106.692833
 20
63.8425
 30
0.0
 11
106.583083
 21
63.8425
 31
0.0
  0
LINE
  8
1
  6
CONTINUOUS
 62
   233
  5
4A8
 10
106.692833
 20
63.624833
 30
0.0
 11
106.583083
 21
63.624833
 31
0.0
  0
LINE
  8
1
  6
CONTINUOUS
 62
   233
  5
4A9
 10
107.132083
 20
63.624833
 30
0.0
 11
107.022417
 21
63.624833
 31
0.0
  0
LINE
  8
1
  6
CONTINUOUS
 62
   233
  5
4AA
 10
107.132083
 20
63.8425
 30
0.0
 11
107.022417
 21
63.8425
 31
0.0
  0
LINE
  8
1
  6
CONTINUOUS
 62
   233
  5
4AB
 10
107.132083
 20
63.8425
 30
0.0
 11
107.132083
 21
63.624833
 31
0.0
  0
LINE
  8
1
  6
CONTINUOUS
 62
   233
  5
4AC
 10
107.022417
 20
63.8425
 30
0.0
 11
107.022417
 21
63.624833
 31
0.0
  0
INSERT
  8
1
  6
CONTINUOUS
 62
     7
  5
4AD
  2
$X6
 10
97.332833
 20
61.336167
 30
0.0
 41
0.675
 42
0.675
210
0.0
220
0.0
230
1.0
  0
INSERT
  8
1
  6
CONTINUOUS
 62
     7
  5
4AE
  2
$X6
 10
97.780083
 20
61.336167
 30
0.0
 41
0.675
 42
0.675
210
0.0
220
0.0
230
1.0
  0
LINE
  8
1
  6
CONTINUOUS
 62
   233
  5
4AF
 10
107.469583
 20
63.8425
 30
0.0
 11
107.469583
 21
63.624833
 31
0.0
  0
LINE
  8
1
  6
CONTINUOUS
 62
   233
  5
4B0
 10
107.579417
 20
63.8425
 30
0.0
 11
107.579417
 21
63.624833
 31
0.0
  0
LINE
  8
1
  6
CONTINUOUS
 62
   233
  5
4B1
 10
107.579417
 20
63.8425
 30
0.0
 11
107.469583
 21
63.8425
 31
0.0
  0
LINE
  8
1
  6
CONTINUOUS
 62
   233
  5
4B2
 10
107.579417
 20
63.624833
 30
0.0
 11
107.469583
 21
63.624833
 31
0.0
  0
LINE
  8
1
  6
CONTINUOUS
 62
   233
  5
4B3
 10
108.01075
 20
63.624833
 30
0.0
 11
107.900917
 21
63.624833
 31
0.0
  0
LINE
  8
1
  6
CONTINUOUS
 62
   233
  5
4B4
 10
108.01075
 20
63.8425
 30
0.0
 11
107.900917
 21
63.8425
 31
0.0
  0
LINE
  8
1
  6
CONTINUOUS
 62
   233
  5
4B5
 10
108.01075
 20
63.8425
 30
0.0
 11
108.01075
 21
63.624833
 31
0.0
  0
LINE
  8
1
  6
CONTINUOUS
 62
   233
  5
4B6
 10
107.900917
 20
63.8425
 30
0.0
 11
107.900917
 21
63.624833
 31
0.0
  0
INSERT
  8
1
  6
CONTINUOUS
 62
     7
  5
4B7
  2
$X6
 10
98.211417
 20
61.336167
 30
0.0
 41
0.675
 42
0.675
210
0.0
220
0.0
230
1.0
  0
INSERT
  8
1
  6
CONTINUOUS
 62
     7
  5
4B8
  2
$X6
 10
98.642667
 20
61.336167
 30
0.0
 41
0.675
 42
0.675
210
0.0
220
0.0
230
1.0
  0
LINE
  8
1
  6
CONTINUOUS
 62
   233
  5
4B9
 10
108.33225
 20
63.8425
 30
0.0
 11
108.33225
 21
63.624833
 31
0.0
  0
LINE
  8
1
  6
CONTINUOUS
 62
   233
  5
4BA
 10
108.442083
 20
63.8425
 30
0.0
 11
108.442083
 21
63.624833
 31
0.0
  0
LINE
  8
1
  6
CONTINUOUS
 62
   233
  5
4BB
 10
108.442083
 20
63.8425
 30
0.0
 11
108.33225
 21
63.8425
 31
0.0
  0
LINE
  8
1
  6
CONTINUOUS
 62
   233
  5
4BC
 10
108.442083
 20
63.624833
 30
0.0
 11
108.33225
 21
63.624833
 31
0.0
  0
LINE
  8
1
  6
CONTINUOUS
 62
   233
  5
4BD
 10
108.889333
 20
63.624833
 30
0.0
 11
108.779583
 21
63.624833
 31
0.0
  0
LINE
  8
1
  6
CONTINUOUS
 62
   233
  5
4BE
 10
108.889333
 20
63.8425
 30
0.0
 11
108.779583
 21
63.8425
 31
0.0
  0
LINE
  8
1
  6
CONTINUOUS
 62
   233
  5
4BF
 10
108.889333
 20
63.8425
 30
0.0
 11
108.889333
 21
63.624833
 31
0.0
  0
LINE
  8
1
  6
CONTINUOUS
 62
   233
  5
4C0
 10
108.779583
 20
63.8425
 30
0.0
 11
108.779583
 21
63.624833
 31
0.0
  0
INSERT
  8
1
  6
CONTINUOUS
 62
     7
  5
4C1
  2
$X6
 10
99.089917
 20
61.336167
 30
0.0
 41
0.675
 42
0.675
210
0.0
220
0.0
230
1.0
  0
SOLID
  8
2
  6
CONTINUOUS
 62
     2
  5
4C2
 10
100.408417
 20
73.86425
 30
0.0
 11
100.418417
 21
73.90525
 31
0.0
 12
100.290333
 22
73.914667
 32
0.0
 13
100.290333
 23
73.914667
 33
0.0
  0
LINE
  8
2
  6
CONTINUOUS
 62
     2
  5
4C3
 10
100.372417
 20
73.894667
 30
0.0
 11
101.062667
 21
73.726083
 31
0.0
  0
SOLID
  8
2
  6
CONTINUOUS
 62
     2
  5
4C4
 10
98.40025
 20
73.82875
 30
0.0
 11
98.433333
 21
73.8025
 31
0.0
 12
98.495417
 22
73.914667
 32
0.0
 13
98.495417
 23
73.914667
 33
0.0
  0
LINE
  8
2
  6
CONTINUOUS
 62
     2
  5
4C5
 10
98.443
 20
73.848667
 30
0.0
 11
98.245667
 21
73.600417
 31
0.0
  0
LINE
  8
2
  6
CONTINUOUS
 62
     2
  5
4C6
 10
98.245667
 20
73.600417
 30
0.0
 11
98.195333
 21
73.600417
 31
0.0
  0
SOLID
  8
2
  6
CONTINUOUS
 62
     2
  5
4C7
 10
99.6295
 20
73.808917
 30
0.0
 11
99.670583
 21
73.799333
 31
0.0
 12
99.679333
 22
73.927333
 32
0.0
 13
99.679333
 23
73.927333
 33
0.0
  0
LINE
  8
2
  6
CONTINUOUS
 62
     2
  5
4C8
 10
99.659833
 20
73.84525
 30
0.0
 11
99.616417
 21
73.66325
 31
0.0
  0
LINE
  8
2
  6
CONTINUOUS
 62
     2
  5
4C9
 10
99.616417
 20
73.66325
 30
0.0
 11
99.532
 21
73.66325
 31
0.0
  0
TEXT
  8
2
  6
CONTINUOUS
 62
     2
  5
4CA
 10
98.914833
 20
73.56175
 30
0.0
 40
0.15
  1
Strap
  7
MONOTXT
210
0.0
220
0.0
230
1.0
  0
TEXT
  8
2
  6
CONTINUOUS
 62
     2
  5
4CB
 10
97.791417
 20
73.505083
 30
0.0
 40
0.15
  1
Bar
  7
MONOTXT
210
0.0
220
0.0
230
1.0
  0
SOLID
  8
2
  6
CONTINUOUS
 62
     2
  5
4CC
 10
100.66725
 20
71.692833
 30
0.0
 11
100.66725
 21
71.735
 31
0.0
 12
100.540667
 22
71.713917
 32
0.0
 13
100.540667
 23
71.713917
 33
0.0
  0
LINE
  8
2
  6
CONTINUOUS
 62
     2
  5
4CD
 10
100.625083
 20
71.713917
 30
0.0
 11
101.352083
 21
71.713917
 31
0.0
  0
LINE
  8
1
  6
CONTINUOUS
 62
   233
  5
4CE
 10
105.63875
 20
74.164917
 30
0.0
 11
103.886417
 21
74.309
 31
0.0
  0
LINE
  8
1
  6
CONTINUOUS
 62
   233
  5
4CF
 10
109.6615
 20
74.164917
 30
0.0
 11
110.929917
 21
74.388417
 31
0.0
  0
LINE
  8
3
  6
HIDDEN
 62
   140
  5
4D0
 10
109.647167
 20
73.802083
 30
0.0
 11
111.00925
 21
73.67475
 31
0.0
  0
SOLID
  8
2
  6
CONTINUOUS
 62
     2
  5
4D1
 10
107.246417
 20
73.967083
 30
0.0
 11
107.284333
 21
73.948833
 31
0.0
 12
107.320083
 22
74.072083
 32
0.0
 13
107.320083
 23
74.072083
 33
0.0
  0
LINE
  8
2
  6
CONTINUOUS
 62
     2
  5
4D2
 10
107.28575
 20
73.995167
 30
0.0
 11
107.163667
 21
73.740833
 31
0.0
  0
LINE
  8
2
  6
CONTINUOUS
 62
     2
  5
4D3
 10
107.163667
 20
73.740833
 30
0.0
 11
106.991917
 21
73.740833
 31
0.0
  0
INSERT
  8
1
  6
CONTINUOUS
 62
   233
  5
4D9
  2
CJ
 10
101.352083
 20
71.713917
 30
0.0
 41
0.675
 42
0.675
210
0.0
220
0.0
230
1.0
  0
SOLID
  8
2
  6
CONTINUOUS
 62
     2
  5
4DA
 10
109.100583
 20
74.029083
 30
0.0
 11
109.116833
 21
73.990083
 31
0.0
 12
109.2255
 22
74.05825
 32
0.0
 13
109.2255
 23
74.05825
 33
0.0
  0
LINE
  8
2
  6
CONTINUOUS
 62
     2
  5
4DB
 10
109.147667
 20
74.02575
 30
0.0
 11
108.59075
 21
73.793917
 31
0.0
  0
LINE
  8
2
  6
CONTINUOUS
 62
     2
  5
4DC
 10
108.59075
 20
73.793917
 30
0.0
 11
108.445417
 21
73.793917
 31
0.0
  0
SOLID
  8
2
  6
CONTINUOUS
 62
     2
  5
4DD
 10
107.300917
 20
72.939833
 30
0.0
 11
107.279167
 21
72.90375
 31
0.0
 12
107.398333
 22
72.856333
 32
0.0
 13
107.398333
 23
72.856333
 33
0.0
  0
LINE
  8
2
  6
CONTINUOUS
 62
     2
  5
4DE
 10
107.292
 20
72.920167
 30
0.0
 11
106.948583
 21
73.0825
 31
0.0
  0
TEXT
  8
2
  6
CONTINUOUS
 62
     2
  5
4DF
 10
106.554917
 20
73.471167
 30
0.0
 40
0.15
  1
Pipe size, type, and
  7
MONOTXT
210
0.0
220
0.0
230
1.0
  0
TEXT
  8
2
  6
CONTINUOUS
 62
     2
  5
4E0
 10
106.3665
 20
73.260333
 30
0.0
 40
0.15
  1
location(s) as specified
  7
MONOTXT
210
0.0
220
0.0
230
1.0
  0
TEXT
  8
2
  6
CONTINUOUS
 62
     2
  5
4E1
 10
107.283667
 20
73.041333
 30
0.0
 40
0.15
  1
on the Plans.
  7
MONOTXT
210
0.0
220
0.0
230
1.0
  0
TEXT
  8
2
  6
CONTINUOUS
 62
     2
  5
4E2
 10
106.620583
 20
73.69425
 30
0.0
 40
0.15
  1
Bar
  7
MONOTXT
210
0.0
220
0.0
230
1.0
  0
TEXT
  8
2
  6
CONTINUOUS
 62
     2
  5
4E3
 10
107.767417
 20
73.735917
 30
0.0
 40
0.15
  1
Strap
  7
MONOTXT
210
0.0
220
0.0
230
1.0
  0
LINE
  8
1
  6
CONTINUOUS
 62
     7
  5
4E4
 10
105.510417
 20
71.099417
 30
0.0
 11
104.023083
 21
71.099417
 31
0.0
  0
LINE
  8
1
  6
CONTINUOUS
 62
     7
  5
4E5
 10
104.192417
 20
71.7705
 30
0.0
 11
104.023083
 21
71.7705
 31
0.0
  0
LINE
  8
1
  6
CONTINUOUS
 62
     7
  5
4E6
 10
104.117
 20
71.099417
 30
0.0
 11
104.117
 21
71.7705
 31
0.0
  0
TEXT
  8
1
  6
CONTINUOUS
 62
     7
  5
4E7
 10
104.082417
 20
71.19775
 30
0.0
 40
0.111417
  1
8" MIN.
 50
90.0
  7
MONOTXT
210
0.0
220
0.0
230
1.0
  0
LINE
  8
4
  6
CONTINUOUS
 62
     7
  5
4E8
 10
105.594833
 20
71.099417
 30
0.0
 11
105.594917
 21
71.099417
 31
0.0
  0
LINE
  8
4
  6
CONTINUOUS
 62
     7
  5
4E9
 10
104.27675
 20
71.7705
 30
0.0
 11
104.276833
 21
71.7705
 31
0.0
  0
LINE
  8
4
  6
CONTINUOUS
 62
     7
  5
4EA
 10
104.117
 20
71.7705
 30
0.0
 11
104.117083
 21
71.7705
 31
0.0
  0
LINE
  8
1
  6
CONTINUOUS
 62
     7
  5
4EB
 10
104.191833
 20
71.7705
 30
0.0
 11
104.201417
 21
71.7705
 31
0.0
  0
LINE
  8
1
  6
CONTINUOUS
 62
     7
  5
4EC
 10
104.390167
 20
74.120583
 30
0.0
 11
104.032667
 21
74.120583
 31
0.0
  0
LINE
  8
1
  6
CONTINUOUS
 62
     7
  5
4ED
 10
104.117
 20
71.854917
 30
0.0
 11
104.117
 21
74.036167
 31
0.0
  0
SOLID
  8
1
  6
CONTINUOUS
 62
     7
  5
4EE
 10
104.102917
 20
71.854917
 30
0.0
 11
104.131083
 21
71.854917
 31
0.0
 12
104.117
 22
71.7705
 32
0.0
 13
104.117
 23
71.7705
 33
0.0
  0
SOLID
  8
1
  6
CONTINUOUS
 62
     7
  5
4EF
 10
104.095917
 20
73.994
 30
0.0
 11
104.138083
 21
73.994
 31
0.0
 12
104.117
 22
74.120583
 32
0.0
 13
104.117
 23
74.120583
 33
0.0
  0
TEXT
  8
1
  6
CONTINUOUS
 62
     7
  5
4F0
 10
104.088583
 20
72.2245
 30
0.0
 40
0.111417
  1
(H) MAXIMUM 8 FEET
 50
90.0
  7
MONOTXT
210
0.0
220
0.0
230
1.0
  0
LINE
  8
4
  6
CONTINUOUS
 62
     7
  5
4F1
 10
104.117
 20
71.7705
 30
0.0
 11
104.117083
 21
71.7705
 31
0.0
  0
POINT
  8
4
  6
CONTINUOUS
 62
     7
  5
4F2
 10
104.474583
 20
74.120583
 30
0.0
  0
LINE
  8
4
  6
CONTINUOUS
 62
     7
  5
4F3
 10
104.117
 20
74.120583
 30
0.0
 11
104.117083
 21
74.120583
 31
0.0
  0
LINE
  8
1
  6
CONTINUOUS
 62
     7
  5
4F4
 10
109.219
 20
71.315333
 30
0.0
 11
109.108667
 21
71.315333
 31
0.0
  0
LINE
  8
1
  6
CONTINUOUS
 62
     7
  5
4F5
 10
109.219
 20
71.796583
 30
0.0
 11
109.108667
 21
71.796583
 31
0.0
  0
LINE
  8
1
  6
CONTINUOUS
 62
     7
  5
4F6
 10
109.193
 20
71.399667
 30
0.0
 11
109.193
 21
71.71225
 31
0.0
  0
SOLID
  8
1
  6
CONTINUOUS
 62
     7
  5
4F7
 10
109.178917
 20
71.399667
 30
0.0
 11
109.207083
 21
71.399667
 31
0.0
 12
109.193
 22
71.315333
 32
0.0
 13
109.193
 23
71.315333
 33
0.0
  0
SOLID
  8
1
  6
CONTINUOUS
 62
     7
  5
4F8
 10
109.178917
 20
71.71225
 30
0.0
 11
109.207083
 21
71.71225
 31
0.0
 12
109.193
 22
71.796583
 32
0.0
 13
109.193
 23
71.796583
 33
0.0
  0
TEXT
  8
1
  6
CONTINUOUS
 62
     2
  5
4F9
 10
109.058667
 20
71.499667
 30
0.0
 40
0.111417
  1
6"
  7
MONOTXT
210
0.0
220
0.0
230
1.0
  0
POINT
  8
4
  6
CONTINUOUS
 62
     7
  5
4FA
 10
109.303333
 20
71.315333
 30
0.0
  0
POINT
  8
4
  6
CONTINUOUS
 62
     7
  5
4FB
 10
109.303333
 20
71.796583
 30
0.0
  0
LINE
  8
4
  6
CONTINUOUS
 62
     7
  5
4FC
 10
109.193
 20
71.796583
 30
0.0
 11
109.193083
 21
71.796583
 31
0.0
  0
LINE
  8
1
  6
CONTINUOUS
 62
     7
  5
4FD
 10
109.219
 20
71.796583
 30
0.0
 11
109.111583
 21
71.796583
 31
0.0
  0
LINE
  8
1
  6
CONTINUOUS
 62
     7
  5
4FE
 10
109.219
 20
72.34075
 30
0.0
 11
109.111583
 21
72.34075
 31
0.0
  0
LINE
  8
1
  6
CONTINUOUS
 62
     7
  5
4FF
 10
109.195917
 20
71.881
 30
0.0
 11
109.195917
 21
72.256333
 31
0.0
  0
SOLID
  8
1
  6
CONTINUOUS
 62
     7
  5
500
 10
109.181833
 20
71.881
 30
0.0
 11
109.21
 21
71.881
 31
0.0
 12
109.195917
 22
71.796583
 32
0.0
 13
109.195917
 23
71.796583
 33
0.0
  0
SOLID
  8
1
  6
CONTINUOUS
 62
     7
  5
501
 10
109.181833
 20
72.256333
 30
0.0
 11
109.21
 21
72.256333
 31
0.0
 12
109.195917
 22
72.34075
 32
0.0
 13
109.195917
 23
72.34075
 33
0.0
  0
TEXT
  8
1
  6
CONTINUOUS
 62
     2
  5
502
 10
109.057
 20
72.012417
 30
0.0
 40
0.111417
  1
6"
  7
MONOTXT
210
0.0
220
0.0
230
1.0
  0
POINT
  8
4
  6
CONTINUOUS
 62
     7
  5
503
 10
109.303333
 20
71.796583
 30
0.0
  0
POINT
  8
4
  6
CONTINUOUS
 62
     7
  5
504
 10
109.303333
 20
72.34075
 30
0.0
  0
LINE
  8
4
  6
CONTINUOUS
 62
     7
  5
505
 10
109.195917
 20
72.34075
 30
0.0
 11
109.196
 21
72.34075
 31
0.0
  0
SOLID
  8
2
  6
CONTINUOUS
 62
     2
  5
506
 10
109.503167
 20
71.779417
 30
0.0
 11
109.503167
 21
71.821667
 31
0.0
 12
109.376583
 22
71.8005
 32
0.0
 13
109.376583
 23
71.8005
 33
0.0
  0
LINE
  8
2
  6
CONTINUOUS
 62
     2
  5
507
 10
109.460917
 20
71.8005
 30
0.0
 11
109.699333
 21
71.8005
 31
0.0
  0
SOLID
  8
2
  6
CONTINUOUS
 62
     2
  5
508
 10
109.825833
 20
71.779417
 30
0.0
 11
109.825833
 21
71.821667
 31
0.0
 12
109.699333
 22
71.8005
 32
0.0
 13
109.699333
 23
71.8005
 33
0.0
  0
LINE
  8
2
  6
CONTINUOUS
 62
     2
  5
509
 10
109.78375
 20
71.8005
 30
0.0
 11
110.5565
 21
71.8005
 31
0.0
  0
SOLID
  8
2
  6
CONTINUOUS
 62
     2
  5
50A
 10
110.998083
 20
73.778083
 30
0.0
 11
110.964333
 21
73.80325
 31
0.0
 12
110.90575
 22
73.689
 32
0.0
 13
110.90575
 23
73.689
 33
0.0
  0
LINE
  8
2
  6
CONTINUOUS
 62
     2
  5
50B
 10
110.982083
 20
73.795833
 30
0.0
 11
111.081
 21
73.92925
 31
0.0
  0
LINE
  8
2
  6
CONTINUOUS
 62
     2
  5
50C
 10
111.088083
 20
73.936333
 30
0.0
 11
110.864
 21
73.936333
 31
0.0
  0
SOLID
  8
2
  6
CONTINUOUS
 62
     2
  5
50D
 10
110.140583
 20
74.342
 30
0.0
 11
110.102333
 21
74.359917
 31
0.0
 12
110.0675
 22
74.236417
 32
0.0
 13
110.0675
 23
74.236417
 33
0.0
  0
LINE
  8
2
  6
CONTINUOUS
 62
     2
  5
50E
 10
110.103417
 20
74.31275
 30
0.0
 11
110.1895
 21
74.49575
 31
0.0
  0
LINE
  8
2
  6
CONTINUOUS
 62
     2
  5
50F
 10
110.1895
 20
74.49575
 30
0.0
 11
110.320583
 21
74.49575
 31
0.0
  0
SOLID
  8
2
  6
CONTINUOUS
 62
     2
  5
510
 10
105.891667
 20
71.880583
 30
0.0
 11
105.891667
 21
71.838417
 31
0.0
 12
106.01825
 22
71.859417
 32
0.0
 13
106.01825
 23
71.859417
 33
0.0
  0
LINE
  8
2
  6
CONTINUOUS
 62
     2
  5
511
 10
105.933917
 20
71.859417
 30
0.0
 11
105.002083
 21
71.859417
 31
0.0
  0
TEXT
  8
2
  6
CONTINUOUS
 62
     2
  5
512
 10
109.732083
 20
73.988
 30
0.0
 40
0.15
  1
Ditch Grade
  7
MONOTXT
210
0.0
220
0.0
230
1.0
  0
TEXT
  8
2
  6
CONTINUOUS
 62
     2
  5
513
 10
110.367917
 20
74.489917
 30
0.0
 40
0.15
  1
Inlet Mound
  7
MONOTXT
210
0.0
220
0.0
230
1.0
  0
SOLID
  8
2
  6
CONTINUOUS
 62
     2
  5
514
 10
109.404333
 20
73.879583
 30
0.0
 11
109.433417
 21
73.91
 31
0.0
 12
109.327333
 22
73.98225
 32
0.0
 13
109.327333
 23
73.98225
 33
0.0
  0
LINE
  8
2
  6
CONTINUOUS
 62
     2
  5
515
 10
109.388417
 20
73.924
 30
0.0
 11
109.812917
 21
73.518583
 31
0.0
  0
LINE
  8
2
  6
CONTINUOUS
 62
     2
  5
516
 10
109.812917
 20
73.518583
 30
0.0
 11
109.906667
 21
73.518583
 31
0.0
  0
TEXT
  8
2
  6
CONTINUOUS
 62
     2
  5
517
 10
109.92975
 20
73.464083
 30
0.0
 40
0.15
  1
Angle
  7
MONOTXT
210
0.0
220
0.0
230
1.0
  0
TEXT
  8
2
  6
CONTINUOUS
 62
     2
  5
518
 10
109.825083
 20
73.230917
 30
0.0
 40
0.15
  1
3" x 2 1/2" x 3/8",
  7
MONOTXT
210
0.0
220
0.0
230
1.0
  0
TEXT
  8
2
  6
CONTINUOUS
 62
     2
  5
519
 10
109.8695
 20
73.0115
 30
0.0
 40
0.15
  1
6.6 Lb./L.F.
  7
MONOTXT
210
0.0
220
0.0
230
1.0
  0
INSERT
  8
1
  6
CONTINUOUS
 62
   233
  5
51A
  2
CJ
 10
104.57475
 20
71.8725
 30
0.0
 41
0.675
 42
0.675
210
0.0
220
0.0
230
1.0
  0
INSERT
  8
1
  6
CONTINUOUS
 62
   233
  5
51B
  2
CJ
 10
110.553417
 20
71.803333
 30
0.0
 41
0.675
 42
0.675
210
0.0
220
0.0
230
1.0
  0
LINE
  8
1
  6
CONTINUOUS
 62
     2
  5
51C
 10
105.63875
 20
74.24925
 30
0.0
 11
105.63875
 21
74.765583
 31
0.0
  0
LINE
  8
1
  6
CONTINUOUS
 62
     2
  5
51D
 10
106.329
 20
74.24925
 30
0.0
 11
106.329
 21
74.765583
 31
0.0
  0
LINE
  8
1
  6
CONTINUOUS
 62
     7
  5
51E
 10
106.413333
 20
74.681167
 30
0.0
 11
106.49775
 21
74.681167
 31
0.0
  0
SOLID
  8
1
  6
CONTINUOUS
 62
     7
  5
51F
 10
106.244583
 20
74.695167
 30
0.0
 11
106.244583
 21
74.667
 31
0.0
 12
106.329
 22
74.681167
 32
0.0
 13
106.329
 23
74.681167
 33
0.0
  0
SOLID
  8
1
  6
CONTINUOUS
 62
     7
  5
520
 10
105.723167
 20
74.695167
 30
0.0
 11
105.723167
 21
74.667
 31
0.0
 12
105.63875
 22
74.681167
 32
0.0
 13
105.63875
 23
74.681167
 33
0.0
  0
LINE
  8
1
  6
CONTINUOUS
 62
     2
  5
521
 10
105.63875
 20
74.681167
 30
0.0
 11
106.329
 21
74.681167
 31
0.0
  0
TEXT
  8
1
  6
CONTINUOUS
 62
     2
  5
522
 10
105.60875
 20
74.8
 30
0.0
 40
0.15
  1
8" MIN.
  7
MONOTXT
210
0.0
220
0.0
230
1.0
  0
LINE
  8
4
  6
CONTINUOUS
 62
     7
  5
523
 10
105.63875
 20
74.164917
 30
0.0
 11
105.638833
 21
74.164917
 31
0.0
  0
LINE
  8
4
  6
CONTINUOUS
 62
     7
  5
524
 10
106.329
 20
74.164917
 30
0.0
 11
106.329083
 21
74.164917
 31
0.0
  0
LINE
  8
4
  6
CONTINUOUS
 62
     7
  5
525
 10
106.329
 20
74.681167
 30
0.0
 11
106.329083
 21
74.681167
 31
0.0
  0
LINE
  8
1
  6
CONTINUOUS
 62
     7
  5
526
 10
106.329
 20
74.24925
 30
0.0
 11
106.329
 21
74.765583
 31
0.0
  0
LINE
  8
1
  6
CONTINUOUS
 62
     2
  5
527
 10
108.995917
 20
74.24925
 30
0.0
 11
108.995917
 21
74.765583
 31
0.0
  0
LINE
  8
1
  6
CONTINUOUS
 62
     2
  5
528
 10
106.413333
 20
74.681167
 30
0.0
 11
108.911583
 21
74.681167
 31
0.0
  0
SOLID
  8
1
  6
CONTINUOUS
 62
     7
  5
529
 10
106.413333
 20
74.695167
 30
0.0
 11
106.413333
 21
74.667
 31
0.0
 12
106.329
 22
74.681167
 32
0.0
 13
106.329
 23
74.681167
 33
0.0
  0
SOLID
  8
1
  6
CONTINUOUS
 62
     7
  5
52A
 10
108.911583
 20
74.695167
 30
0.0
 11
108.911583
 21
74.667
 31
0.0
 12
108.995917
 22
74.681167
 32
0.0
 13
108.995917
 23
74.681167
 33
0.0
  0
TEXT
  8
1
  6
CONTINUOUS
 62
     2
  5
52B
 10
107.6135
 20
74.82075
 30
0.0
 40
0.15
  1
A
  7
MONOTXT
210
0.0
220
0.0
230
1.0
  0
LINE
  8
4
  6
CONTINUOUS
 62
     7
  5
52C
 10
106.329
 20
74.164917
 30
0.0
 11
106.329083
 21
74.164917
 31
0.0
  0
LINE
  8
4
  6
CONTINUOUS
 62
     7
  5
52D
 10
108.995917
 20
74.164917
 30
0.0
 11
108.996
 21
74.164917
 31
0.0
  0
LINE
  8
4
  6
CONTINUOUS
 62
     7
  5
52E
 10
108.995917
 20
74.681167
 30
0.0
 11
108.996
 21
74.681167
 31
0.0
  0
LINE
  8
1
  6
CONTINUOUS
 62
     7
  5
52F
 10
108.995917
 20
74.24925
 30
0.0
 11
108.995917
 21
74.765583
 31
0.0
  0
LINE
  8
1
  6
CONTINUOUS
 62
     2
  5
530
 10
109.6615
 20
74.24925
 30
0.0
 11
109.6615
 21
74.765583
 31
0.0
  0
LINE
  8
1
  6
CONTINUOUS
 62
     7
  5
531
 10
108.911583
 20
74.681167
 30
0.0
 11
108.827167
 21
74.681167
 31
0.0
  0
SOLID
  8
1
  6
CONTINUOUS
 62
     7
  5
532
 10
108.911583
 20
74.695167
 30
0.0
 11
108.911583
 21
74.667
 31
0.0
 12
108.995917
 22
74.681167
 32
0.0
 13
108.995917
 23
74.681167
 33
0.0
  0
SOLID
  8
1
  6
CONTINUOUS
 62
     7
  5
533
 10
109.080333
 20
74.695167
 30
0.0
 11
109.080333
 21
74.667
 31
0.0
 12
108.995917
 22
74.681167
 32
0.0
 13
108.995917
 23
74.681167
 33
0.0
  0
LINE
  8
1
  6
CONTINUOUS
 62
     2
  5
534
 10
108.995917
 20
74.681167
 30
0.0
 11
109.6615
 21
74.681167
 31
0.0
  0
TEXT
  8
1
  6
CONTINUOUS
 62
     2
  5
535
 10
108.982167
 20
74.823417
 30
0.0
 40
0.15
  1
8" MIN.
  7
MONOTXT
210
0.0
220
0.0
230
1.0
  0
LINE
  8
4
  6
CONTINUOUS
 62
     7
  5
536
 10
108.995917
 20
74.164917
 30
0.0
 11
108.996
 21
74.164917
 31
0.0
  0
LINE
  8
4
  6
CONTINUOUS
 62
     7
  5
537
 10
109.6615
 20
74.164917
 30
0.0
 11
109.661583
 21
74.164917
 31
0.0
  0
LINE
  8
4
  6
CONTINUOUS
 62
     7
  5
538
 10
109.6615
 20
74.681167
 30
0.0
 11
109.661583
 21
74.681167
 31
0.0
  0
SOLID
  8
2
  6
CONTINUOUS
 62
     2
  5
539
 10
105.606833
 20
74.28925
 30
0.0
 11
105.568333
 21
74.272167
 31
0.0
 12
105.63875
 22
74.164917
 32
0.0
 13
105.63875
 23
74.164917
 33
0.0
  0
LINE
  8
2
  6
CONTINUOUS
 62
     2
  5
53A
 10
105.60475
 20
74.242083
 30
0.0
 11
105.439417
 21
74.616167
 31
0.0
  0
LINE
  8
2
  6
CONTINUOUS
 62
     2
  5
53B
 10
105.439417
 20
74.616167
 30
0.0
 11
105.273167
 21
74.616167
 31
0.0
  0
SOLID
  8
2
  6
CONTINUOUS
 62
     2
  5
53C
 10
105.107333
 20
74.329667
 30
0.0
 11
105.069
 21
74.311917
 31
0.0
 12
105.14125
 22
74.20575
 32
0.0
 13
105.14125
 23
74.20575
 33
0.0
  0
LINE
  8
2
  6
CONTINUOUS
 62
     2
  5
53D
 10
105.105833
 20
74.2825
 30
0.0
 11
105.045167
 21
74.414
 31
0.0
  0
LINE
  8
2
  6
CONTINUOUS
 62
     2
  5
53E
 10
105.045167
 20
74.414
 30
0.0
 11
104.878833
 21
74.414
 31
0.0
  0
SOLID
  8
2
  6
CONTINUOUS
 62
     2
  5
53F
 10
109.503167
 20
71.321917
 30
0.0
 11
109.503167
 21
71.364167
 31
0.0
 12
109.376583
 22
71.343083
 32
0.0
 13
109.376583
 23
71.343083
 33
0.0
  0
LINE
  8
2
  6
CONTINUOUS
 62
     2
  5
540
 10
109.460917
 20
71.343083
 30
0.0
 11
110.365333
 21
71.343083
 31
0.0
  0
TEXT
  8
2
  6
CONTINUOUS
 62
     2
  5
541
 10
103.651167
 20
74.5945
 30
0.0
 40
0.111417
  1
Flow Line of Ditch
  7
MONOTXT
210
0.0
220
0.0
230
1.0
  0
TEXT
  8
2
  6
CONTINUOUS
 62
     2
  5
542
 10
103.946417
 20
74.378833
 30
0.0
 40
0.111417
  1
Ditch Grade
  7
MONOTXT
210
0.0
220
0.0
230
1.0
  0
TEXT
  8
2
  6
CONTINUOUS
 62
     2
  5
543
 10
110.40425
 20
71.414333
 30
0.0
 40
0.111417
  1
#5 Rebars at
  7
MONOTXT
210
0.0
220
0.0
230
1.0
  0
TEXT
  8
2
  6
CONTINUOUS
 62
     2
  5
544
 10
110.4135
 20
71.218333
 30
0.0
 40
0.111417
  1
8" c-c around perimeter
  7
MONOTXT
210
0.0
220
0.0
230
1.0
  0
TEXT
  8
2
  6
CONTINUOUS
 62
     2
  5
545
 10
106.85225
 20
70.676917
 30
0.0
 40
0.16875
  1
SECTION B-B
  7
MONOTXT
210
0.0
220
0.0
230
1.0
  0
TEXT
  8
2
  6
CONTINUOUS
 62
     2
  5
546
 10
105.830667
 20
66.712917
 30
0.0
 40
0.16875
  1
PLAN VIEW-TYPE 2 GRATE
  7
MONOTXT
210
0.0
220
0.0
230
1.0
  0
SOLID
  8
2
  6
CONTINUOUS
 62
     2
  5
547
 10
108.994583
 20
67.22275
 30
0.0
 11
108.971167
 21
67.207083
 31
0.0
 12
109.029917
 22
67.144833
 32
0.0
 13
109.029917
 23
67.144833
 33
0.0
  0
LINE
  8
2
  6
CONTINUOUS
 62
     2
  5
548
 10
108.982833
 20
67.214917
 30
0.0
 11
108.829333
 21
67.559167
 31
0.0
  0
LINE
  8
2
  6
CONTINUOUS
 62
     2
  5
549
 10
108.829333
 20
67.559167
 30
0.0
 11
109.541417
 21
67.559167
 31
0.0
  0
SOLID
  8
2
  6
CONTINUOUS
 62
     2
  5
54A
 10
109.252
 20
67.2125
 30
0.0
 11
109.227
 21
67.2255
 31
0.0
 12
109.200333
 22
67.14425
 32
0.0
 13
109.200333
 23
67.14425
 33
0.0
  0
LINE
  8
2
  6
CONTINUOUS
 62
     2
  5
54B
 10
109.2395
 20
67.219
 30
0.0
 11
109.417417
 21
67.559167
 31
0.0
  0
LINE
  8
1
  6
CONTINUOUS
 62
     7
  5
54C
 10
105.90125
 20
67.037167
 30
0.0
 11
105.541
 21
67.037167
 31
0.0
  0
LINE
  8
1
  6
CONTINUOUS
 62
     7
  5
54D
 10
105.932417
 20
70.477417
 30
0.0
 11
105.541
 21
70.477417
 31
0.0
  0
LINE
  8
1
  6
CONTINUOUS
 62
     7
  5
54E
 10
105.625333
 20
67.121583
 30
0.0
 11
105.625333
 21
70.393083
 31
0.0
  0
SOLID
  8
1
  6
CONTINUOUS
 62
     7
  5
54F
 10
105.61125
 20
67.121583
 30
0.0
 11
105.639333
 21
67.121583
 31
0.0
 12
105.625333
 22
67.037167
 32
0.0
 13
105.625333
 23
67.037167
 33
0.0
  0
SOLID
  8
1
  6
CONTINUOUS
 62
     7
  5
550
 10
105.61125
 20
70.393083
 30
0.0
 11
105.639333
 21
70.393083
 31
0.0
 12
105.625333
 22
70.477417
 32
0.0
 13
105.625333
 23
70.477417
 33
0.0
  0
TEXT
  8
1
  6
CONTINUOUS
 62
     7
  5
551
 10
105.300167
 20
69.018333
 30
0.0
 40
0.15
  1
D
  7
MONOTXT
210
0.0
220
0.0
230
1.0
  0
LINE
  8
4
  6
CONTINUOUS
 62
     7
  5
552
 10
105.985667
 20
67.037167
 30
0.0
 11
105.98575
 21
67.037167
 31
0.0
  0
LINE
  8
4
  6
CONTINUOUS
 62
     7
  5
553
 10
106.01675
 20
70.477417
 30
0.0
 11
106.016833
 21
70.477417
 31
0.0
  0
LINE
  8
4
  6
CONTINUOUS
 62
     7
  5
554
 10
105.625333
 20
70.477417
 30
0.0
 11
105.625417
 21
70.477417
 31
0.0
  0
LINE
  8
1
  6
CONTINUOUS
 62
     7
  5
555
 10
105.702583
 20
66.0765
 30
0.0
 11
105.702583
 21
66.176583
 31
0.0
  0
LINE
  8
1
  6
CONTINUOUS
 62
     7
  5
556
 10
105.868333
 20
66.0765
 30
0.0
 11
105.868333
 21
66.176583
 31
0.0
  0
LINE
  8
1
  6
CONTINUOUS
 62
     7
  5
557
 10
105.61825
 20
66.092167
 30
0.0
 11
105.533833
 21
66.092167
 31
0.0
  0
LINE
  8
1
  6
CONTINUOUS
 62
     7
  5
558
 10
105.95275
 20
66.092167
 30
0.0
 11
106.037083
 21
66.092167
 31
0.0
  0
SOLID
  8
1
  6
CONTINUOUS
 62
     7
  5
559
 10
105.61825
 20
66.10625
 30
0.0
 11
105.61825
 21
66.078167
 31
0.0
 12
105.702583
 22
66.092167
 32
0.0
 13
105.702583
 23
66.092167
 33
0.0
  0
SOLID
  8
1
  6
CONTINUOUS
 62
     7
  5
55A
 10
105.95275
 20
66.10625
 30
0.0
 11
105.95275
 21
66.078167
 31
0.0
 12
105.868333
 22
66.092167
 32
0.0
 13
105.868333
 23
66.092167
 33
0.0
  0
LINE
  8
1
  6
CONTINUOUS
 62
     7
  5
55B
 10
105.702583
 20
66.092167
 30
0.0
 11
105.868333
 21
66.092167
 31
0.0
  0
TEXT
  8
1
  6
CONTINUOUS
 62
     7
  5
55C
 10
105.75625
 20
66.126833
 30
0.0
 40
0.15
  1
F
  7
MONOTXT
210
0.0
220
0.0
230
1.0
  0
LINE
  8
4
  6
CONTINUOUS
 62
     7
  5
55D
 10
105.702583
 20
65.992083
 30
0.0
 11
105.702667
 21
65.992083
 31
0.0
  0
LINE
  8
4
  6
CONTINUOUS
 62
     7
  5
55E
 10
105.868333
 20
65.992083
 30
0.0
 11
105.868417
 21
65.992083
 31
0.0
  0
LINE
  8
4
  6
CONTINUOUS
 62
     7
  5
55F
 10
105.868333
 20
66.092167
 30
0.0
 11
105.868417
 21
66.092167
 31
0.0
  0
LINE
  8
1
  6
CONTINUOUS
 62
     7
  5
560
 10
109.04525
 20
66.0765
 30
0.0
 11
109.04525
 21
66.176583
 31
0.0
  0
LINE
  8
1
  6
CONTINUOUS
 62
     7
  5
561
 10
109.215333
 20
66.0765
 30
0.0
 11
109.215333
 21
66.176583
 31
0.0
  0
LINE
  8
1
  6
CONTINUOUS
 62
     7
  5
562
 10
108.960917
 20
66.092167
 30
0.0
 11
108.8765
 21
66.092167
 31
0.0
  0
LINE
  8
1
  6
CONTINUOUS
 62
     7
  5
563
 10
109.299667
 20
66.092167
 30
0.0
 11
109.384083
 21
66.092167
 31
0.0
  0
SOLID
  8
1
  6
CONTINUOUS
 62
     7
  5
564
 10
108.960917
 20
66.10625
 30
0.0
 11
108.960917
 21
66.078167
 31
0.0
 12
109.04525
 22
66.092167
 32
0.0
 13
109.04525
 23
66.092167
 33
0.0
  0
SOLID
  8
1
  6
CONTINUOUS
 62
     7
  5
565
 10
109.299667
 20
66.10625
 30
0.0
 11
109.299667
 21
66.078167
 31
0.0
 12
109.215333
 22
66.092167
 32
0.0
 13
109.215333
 23
66.092167
 33
0.0
  0
LINE
  8
1
  6
CONTINUOUS
 62
     7
  5
566
 10
109.04525
 20
66.092167
 30
0.0
 11
109.215333
 21
66.092167
 31
0.0
  0
TEXT
  8
1
  6
CONTINUOUS
 62
     7
  5
567
 10
109.10575
 20
66.1275
 30
0.0
 40
0.15
  1
F
  7
MONOTXT
210
0.0
220
0.0
230
1.0
  0
POINT
  8
4
  6
CONTINUOUS
 62
     7
  5
568
 10
109.04525
 20
65.992083
 30
0.0
  0
LINE
  8
4
  6
CONTINUOUS
 62
     7
  5
569
 10
109.215333
 20
65.992083
 30
0.0
 11
109.215417
 21
65.992083
 31
0.0
  0
LINE
  8
4
  6
CONTINUOUS
 62
     7
  5
56A
 10
109.215333
 20
66.092167
 30
0.0
 11
109.215417
 21
66.092167
 31
0.0
  0
LINE
  8
1
  6
CONTINUOUS
 62
     7
  5
56B
 10
105.702583
 20
66.0765
 30
0.0
 11
105.702583
 21
66.423
 31
0.0
  0
LINE
  8
1
  6
CONTINUOUS
 62
     7
  5
56C
 10
109.215333
 20
66.0765
 30
0.0
 11
109.215333
 21
66.423
 31
0.0
  0
LINE
  8
1
  6
CONTINUOUS
 62
     7
  5
56D
 10
105.787
 20
66.338583
 30
0.0
 11
109.130917
 21
66.338583
 31
0.0
  0
SOLID
  8
1
  6
CONTINUOUS
 62
     7
  5
56E
 10
105.787
 20
66.352667
 30
0.0
 11
105.787
 21
66.3245
 31
0.0
 12
105.702583
 22
66.338583
 32
0.0
 13
105.702583
 23
66.338583
 33
0.0
  0
SOLID
  8
1
  6
CONTINUOUS
 62
     7
  5
56F
 10
109.130917
 20
66.352667
 30
0.0
 11
109.130917
 21
66.3245
 31
0.0
 12
109.215333
 22
66.338583
 32
0.0
 13
109.215333
 23
66.338583
 33
0.0
  0
TEXT
  8
1
  6
CONTINUOUS
 62
     7
  5
570
 10
107.424333
 20
66.376583
 30
0.0
 40
0.15
  1
C
  7
MONOTXT
210
0.0
220
0.0
230
1.0
  0
LINE
  8
4
  6
CONTINUOUS
 62
     7
  5
571
 10
105.702583
 20
65.992083
 30
0.0
 11
105.702667
 21
65.992083
 31
0.0
  0
LINE
  8
4
  6
CONTINUOUS
 62
     7
  5
572
 10
109.215333
 20
65.992083
 30
0.0
 11
109.215417
 21
65.992083
 31
0.0
  0
LINE
  8
4
  6
CONTINUOUS
 62
     7
  5
573
 10
109.215333
 20
66.338583
 30
0.0
 11
109.215417
 21
66.338583
 31
0.0
  0
LINE
  8
1
  6
CONTINUOUS
 62
     7
  5
574
 10
109.299667
 20
65.992083
 30
0.0
 11
109.552333
 21
65.992083
 31
0.0
  0
LINE
  8
1
  6
CONTINUOUS
 62
     7
  5
575
 10
109.299667
 20
65.774583
 30
0.0
 11
109.552333
 21
65.774583
 31
0.0
  0
LINE
  8
1
  6
CONTINUOUS
 62
     7
  5
576
 10
109.468
 20
66.0765
 30
0.0
 11
109.468
 21
66.160833
 31
0.0
  0
LINE
  8
1
  6
CONTINUOUS
 62
     7
  5
577
 10
109.468
 20
65.690167
 30
0.0
 11
109.468
 21
65.605833
 31
0.0
  0
SOLID
  8
1
  6
CONTINUOUS
 62
     7
  5
578
 10
109.453917
 20
66.0765
 30
0.0
 11
109.482
 21
66.0765
 31
0.0
 12
109.468
 22
65.992083
 32
0.0
 13
109.468
 23
65.992083
 33
0.0
  0
SOLID
  8
1
  6
CONTINUOUS
 62
     7
  5
579
 10
109.453917
 20
65.690167
 30
0.0
 11
109.482
 21
65.690167
 31
0.0
 12
109.468
 22
65.774583
 32
0.0
 13
109.468
 23
65.774583
 33
0.0
  0
LINE
  8
1
  6
CONTINUOUS
 62
     7
  5
57A
 10
109.468
 20
65.992083
 30
0.0
 11
109.468
 21
65.774583
 31
0.0
  0
TEXT
  8
1
  6
CONTINUOUS
 62
     7
  5
57B
 10
109.5395
 20
65.834917
 30
0.0
 40
0.15
  1
2 3/4"
  7
MONOTXT
210
0.0
220
0.0
230
1.0
  0
LINE
  8
4
  6
CONTINUOUS
 62
     7
  5
57C
 10
109.215333
 20
65.992083
 30
0.0
 11
109.215417
 21
65.992083
 31
0.0
  0
LINE
  8
4
  6
CONTINUOUS
 62
     7
  5
57D
 10
109.215333
 20
65.774583
 30
0.0
 11
109.215417
 21
65.774583
 31
0.0
  0
LINE
  8
4
  6
CONTINUOUS
 62
     7
  5
57E
 10
109.468
 20
65.774583
 30
0.0
 11
109.468083
 21
65.774583
 31
0.0
  0
LINE
  8
1
  6
CONTINUOUS
 62
     7
  5
57F
 10
105.868333
 20
65.690167
 30
0.0
 11
105.868333
 21
65.481083
 31
0.0
  0
LINE
  8
1
  6
CONTINUOUS
 62
     7
  5
580
 10
105.978167
 20
65.690167
 30
0.0
 11
105.978167
 21
65.481083
 31
0.0
  0
LINE
  8
1
  6
CONTINUOUS
 62
     7
  5
581
 10
105.784
 20
65.565417
 30
0.0
 11
105.699583
 21
65.565417
 31
0.0
  0
LINE
  8
1
  6
CONTINUOUS
 62
     7
  5
582
 10
106.0625
 20
65.565417
 30
0.0
 11
106.146917
 21
65.565417
 31
0.0
  0
SOLID
  8
1
  6
CONTINUOUS
 62
     7
  5
583
 10
105.784
 20
65.579583
 30
0.0
 11
105.784
 21
65.551417
 31
0.0
 12
105.868333
 22
65.565417
 32
0.0
 13
105.868333
 23
65.565417
 33
0.0
  0
SOLID
  8
1
  6
CONTINUOUS
 62
     7
  5
584
 10
106.0625
 20
65.579583
 30
0.0
 11
106.0625
 21
65.551417
 31
0.0
 12
105.978167
 22
65.565417
 32
0.0
 13
105.978167
 23
65.565417
 33
0.0
  0
LINE
  8
1
  6
CONTINUOUS
 62
     7
  5
585
 10
105.868333
 20
65.565417
 30
0.0
 11
105.978167
 21
65.565417
 31
0.0
  0
TEXT
  8
1
  6
CONTINUOUS
 62
     7
  5
586
 10
105.576333
 20
65.51925
 30
0.0
 40
0.15
  1
1"
  7
MONOTXT
210
0.0
220
0.0
230
1.0
  0
LINE
  8
4
  6
CONTINUOUS
 62
     7
  5
587
 10
105.868333
 20
65.774583
 30
0.0
 11
105.868417
 21
65.774583
 31
0.0
  0
LINE
  8
4
  6
CONTINUOUS
 62
     7
  5
588
 10
105.978167
 20
65.774583
 30
0.0
 11
105.97825
 21
65.774583
 31
0.0
  0
LINE
  8
4
  6
CONTINUOUS
 62
     7
  5
589
 10
105.978167
 20
65.565417
 30
0.0
 11
105.97825
 21
65.565417
 31
0.0
  0
LINE
  8
1
  6
CONTINUOUS
 62
     7
  5
58A
 10
106.4095
 20
65.690167
 30
0.0
 11
106.4095
 21
65.481167
 31
0.0
  0
LINE
  8
1
  6
CONTINUOUS
 62
     7
  5
58B
 10
106.523333
 20
65.690167
 30
0.0
 11
106.523333
 21
65.481083
 31
0.0
  0
LINE
  8
1
  6
CONTINUOUS
 62
     7
  5
58C
 10
106.325083
 20
65.5655
 30
0.0
 11
106.24075
 21
65.5655
 31
0.0
  0
LINE
  8
1
  6
CONTINUOUS
 62
     7
  5
58D
 10
106.607667
 20
65.565417
 30
0.0
 11
106.692083
 21
65.565417
 31
0.0
  0
SOLID
  8
1
  6
CONTINUOUS
 62
     7
  5
58E
 10
106.325083
 20
65.579583
 30
0.0
 11
106.325083
 21
65.551417
 31
0.0
 12
106.4095
 22
65.5655
 32
0.0
 13
106.4095
 23
65.5655
 33
0.0
  0
SOLID
  8
1
  6
CONTINUOUS
 62
     7
  5
58F
 10
106.607667
 20
65.579583
 30
0.0
 11
106.607667
 21
65.551417
 31
0.0
 12
106.523333
 22
65.565417
 32
0.0
 13
106.523333
 23
65.565417
 33
0.0
  0
LINE
  8
1
  6
CONTINUOUS
 62
     7
  5
590
 10
106.392417
 20
65.565417
 30
0.0
 11
106.523333
 21
65.565417
 31
0.0
  0
TEXT
  8
1
  6
CONTINUOUS
 62
     7
  5
591
 10
106.789167
 20
65.521833
 30
0.0
 40
0.15
  1
1"
  7
MONOTXT
210
0.0
220
0.0
230
1.0
  0
LINE
  8
4
  6
CONTINUOUS
 62
     7
  5
592
 10
106.4095
 20
65.774583
 30
0.0
 11
106.409583
 21
65.774583
 31
0.0
  0
LINE
  8
4
  6
CONTINUOUS
 62
     7
  5
593
 10
106.523333
 20
65.774583
 30
0.0
 11
106.523417
 21
65.774583
 31
0.0
  0
LINE
  8
4
  6
CONTINUOUS
 62
     7
  5
594
 10
106.523333
 20
65.565417
 30
0.0
 11
106.523417
 21
65.565417
 31
0.0
  0
LINE
  8
1
  6
CONTINUOUS
 62
     7
  5
595
 10
108.174583
 20
65.690167
 30
0.0
 11
108.174583
 21
65.481167
 31
0.0
  0
LINE
  8
1
  6
CONTINUOUS
 62
     7
  5
596
 10
108.2885
 20
65.690167
 30
0.0
 11
108.2885
 21
65.481083
 31
0.0
  0
LINE
  8
1
  6
CONTINUOUS
 62
     7
  5
597
 10
108.09025
 20
65.5655
 30
0.0
 11
108.005833
 21
65.5655
 31
0.0
  0
LINE
  8
1
  6
CONTINUOUS
 62
     7
  5
598
 10
108.372917
 20
65.565417
 30
0.0
 11
108.45725
 21
65.565417
 31
0.0
  0
SOLID
  8
1
  6
CONTINUOUS
 62
     7
  5
599
 10
108.09025
 20
65.579583
 30
0.0
 11
108.09025
 21
65.551417
 31
0.0
 12
108.174583
 22
65.5655
 32
0.0
 13
108.174583
 23
65.5655
 33
0.0
  0
SOLID
  8
1
  6
CONTINUOUS
 62
     7
  5
59A
 10
108.372917
 20
65.579583
 30
0.0
 11
108.372917
 21
65.551417
 31
0.0
 12
108.2885
 22
65.565417
 32
0.0
 13
108.2885
 23
65.565417
 33
0.0
  0
LINE
  8
1
  6
CONTINUOUS
 62
     7
  5
59B
 10
108.157667
 20
65.565417
 30
0.0
 11
108.2885
 21
65.565417
 31
0.0
  0
TEXT
  8
1
  6
CONTINUOUS
 62
     7
  5
59C
 10
107.842833
 20
65.516083
 30
0.0
 40
0.15
  1
1"
  7
MONOTXT
210
0.0
220
0.0
230
1.0
  0
LINE
  8
4
  6
CONTINUOUS
 62
     7
  5
59D
 10
108.174583
 20
65.774583
 30
0.0
 11
108.174667
 21
65.774583
 31
0.0
  0
LINE
  8
4
  6
CONTINUOUS
 62
     7
  5
59E
 10
108.2885
 20
65.774583
 30
0.0
 11
108.288583
 21
65.774583
 31
0.0
  0
LINE
  8
4
  6
CONTINUOUS
 62
     7
  5
59F
 10
108.2885
 20
65.565417
 30
0.0
 11
108.288583
 21
65.565417
 31
0.0
  0
LINE
  8
1
  6
CONTINUOUS
 62
     7
  5
5A0
 10
108.9355
 20
65.690167
 30
0.0
 11
108.9355
 21
65.481083
 31
0.0
  0
LINE
  8
1
  6
CONTINUOUS
 62
     7
  5
5A1
 10
109.04525
 20
65.690167
 30
0.0
 11
109.04525
 21
65.481083
 31
0.0
  0
LINE
  8
1
  6
CONTINUOUS
 62
     7
  5
5A2
 10
108.851083
 20
65.565417
 30
0.0
 11
108.76675
 21
65.565417
 31
0.0
  0
LINE
  8
1
  6
CONTINUOUS
 62
     7
  5
5A3
 10
109.129667
 20
65.565417
 30
0.0
 11
109.214
 21
65.565417
 31
0.0
  0
SOLID
  8
1
  6
CONTINUOUS
 62
     7
  5
5A4
 10
108.851083
 20
65.579583
 30
0.0
 11
108.851083
 21
65.551417
 31
0.0
 12
108.9355
 22
65.565417
 32
0.0
 13
108.9355
 23
65.565417
 33
0.0
  0
SOLID
  8
1
  6
CONTINUOUS
 62
     7
  5
5A5
 10
109.129667
 20
65.579583
 30
0.0
 11
109.129667
 21
65.551417
 31
0.0
 12
109.04525
 22
65.565417
 32
0.0
 13
109.04525
 23
65.565417
 33
0.0
  0
LINE
  8
1
  6
CONTINUOUS
 62
     7
  5
5A6
 10
108.9355
 20
65.565417
 30
0.0
 11
109.04525
 21
65.565417
 31
0.0
  0
TEXT
  8
1
  6
CONTINUOUS
 62
     7
  5
5A7
 10
109.250167
 20
65.497
 30
0.0
 40
0.15
  1
1"
  7
MONOTXT
210
0.0
220
0.0
230
1.0
  0
POINT
  8
4
  6
CONTINUOUS
 62
     7
  5
5A8
 10
108.9355
 20
65.774583
 30
0.0
  0
POINT
  8
4
  6
CONTINUOUS
 62
     7
  5
5A9
 10
109.04525
 20
65.774583
 30
0.0
  0
POINT
  8
4
  6
CONTINUOUS
 62
     7
  5
5AA
 10
109.04525
 20
65.565417
 30
0.0
  0
TEXT
  8
2
  6
CONTINUOUS
 62
     2
  5
5AB
 10
106.141
 20
64.954583
 30
0.0
 40
0.15
  1
Strap
  7
MONOTXT
210
0.0
220
0.0
230
1.0
  0
SOLID
  8
2
  6
CONTINUOUS
 62
     2
  5
5AC
 10
107.762417
 20
65.760833
 30
0.0
 11
107.7905
 21
65.760833
 31
0.0
 12
107.7765
 22
65.845167
 32
0.0
 13
107.7765
 23
65.845167
 33
0.0
  0
LINE
  8
2
  6
CONTINUOUS
 62
     2
  5
5AD
 10
107.7765
 20
65.760833
 30
0.0
 11
107.7765
 21
65.212083
 31
0.0
  0
LINE
  8
2
  6
CONTINUOUS
 62
     2
  5
5AE
 10
107.7765
 20
65.212083
 30
0.0
 11
107.026583
 21
65.212083
 31
0.0
  0
LINE
  8
1
  6
CONTINUOUS
 62
     7
  5
5AF
 10
105.754167
 20
63.928083
 30
0.0
 11
105.754167
 21
64.088833
 31
0.0
  0
LINE
  8
1
  6
CONTINUOUS
 62
     7
  5
5B0
 10
106.15175
 20
63.91825
 30
0.0
 11
106.15175
 21
64.088833
 31
0.0
  0
LINE
  8
1
  6
CONTINUOUS
 62
     7
  5
5B1
 10
105.8385
 20
64.004417
 30
0.0
 11
106.067417
 21
64.004417
 31
0.0
  0
SOLID
  8
1
  6
CONTINUOUS
 62
     7
  5
5B2
 10
105.8385
 20
64.018417
 30
0.0
 11
105.8385
 21
63.990333
 31
0.0
 12
105.754167
 22
64.004417
 32
0.0
 13
105.754167
 23
64.004417
 33
0.0
  0
SOLID
  8
1
  6
CONTINUOUS
 62
     7
  5
5B3
 10
106.067417
 20
64.018417
 30
0.0
 11
106.067417
 21
63.990333
 31
0.0
 12
106.15175
 22
64.004417
 32
0.0
 13
106.15175
 23
64.004417
 33
0.0
  0
TEXT
  8
1
  6
CONTINUOUS
 62
     7
  5
5B4
 10
105.92575
 20
64.0375
 30
0.0
 40
0.15
  1
F
  7
MONOTXT
210
0.0
220
0.0
230
1.0
  0
POINT
  8
4
  6
CONTINUOUS
 62
     7
  5
5B5
 10
105.754167
 20
63.843667
 30
0.0
  0
POINT
  8
4
  6
CONTINUOUS
 62
     7
  5
5B6
 10
106.15175
 20
63.833917
 30
0.0
  0
POINT
  8
4
  6
CONTINUOUS
 62
     7
  5
5B7
 10
106.15175
 20
64.004417
 30
0.0
  0
LINE
  8
1
  6
CONTINUOUS
 62
     7
  5
5B8
 10
106.15175
 20
63.91825
 30
0.0
 11
106.15175
 21
64.088833
 31
0.0
  0
LINE
  8
1
  6
CONTINUOUS
 62
     7
  5
5B9
 10
108.889333
 20
63.91825
 30
0.0
 11
108.889333
 21
64.088833
 31
0.0
  0
LINE
  8
1
  6
CONTINUOUS
 62
     7
  5
5BA
 10
106.236167
 20
64.004417
 30
0.0
 11
108.805
 21
64.004417
 31
0.0
  0
SOLID
  8
1
  6
CONTINUOUS
 62
     7
  5
5BB
 10
106.236167
 20
64.018417
 30
0.0
 11
106.236167
 21
63.990333
 31
0.0
 12
106.15175
 22
64.004417
 32
0.0
 13
106.15175
 23
64.004417
 33
0.0
  0
SOLID
  8
1
  6
CONTINUOUS
 62
     7
  5
5BC
 10
108.805
 20
64.018417
 30
0.0
 11
108.805
 21
63.990333
 31
0.0
 12
108.889333
 22
64.004417
 32
0.0
 13
108.889333
 23
64.004417
 33
0.0
  0
TEXT
  8
1
  6
CONTINUOUS
 62
     7
  5
5BD
 10
106.420333
 20
64.040167
 30
0.0
 40
0.15
  1
Bars 4" Ctr. to Ctr.
  7
MONOTXT
210
0.0
220
0.0
230
1.0
  0
POINT
  8
4
  6
CONTINUOUS
 62
     7
  5
5BE
 10
106.15175
 20
63.833917
 30
0.0
  0
POINT
  8
4
  6
CONTINUOUS
 62
     7
  5
5BF
 10
108.889333
 20
63.833917
 30
0.0
  0
POINT
  8
4
  6
CONTINUOUS
 62
     7
  5
5C0
 10
108.889333
 20
64.004417
 30
0.0
  0
LINE
  8
1
  6
CONTINUOUS
 62
     7
  5
5C1
 10
108.889333
 20
63.91825
 30
0.0
 11
108.889333
 21
64.088833
 31
0.0
  0
LINE
  8
1
  6
CONTINUOUS
 62
     7
  5
5C2
 10
109.260417
 20
63.928083
 30
0.0
 11
109.260417
 21
64.088833
 31
0.0
  0
LINE
  8
1
  6
CONTINUOUS
 62
     7
  5
5C3
 10
108.97375
 20
64.004417
 30
0.0
 11
109.176
 21
64.004417
 31
0.0
  0
SOLID
  8
1
  6
CONTINUOUS
 62
     7
  5
5C4
 10
108.97375
 20
64.018417
 30
0.0
 11
108.97375
 21
63.990333
 31
0.0
 12
108.889333
 22
64.004417
 32
0.0
 13
108.889333
 23
64.004417
 33
0.0
  0
SOLID
  8
1
  6
CONTINUOUS
 62
     7
  5
5C5
 10
109.176
 20
64.018417
 30
0.0
 11
109.176
 21
63.990333
 31
0.0
 12
109.260417
 22
64.004417
 32
0.0
 13
109.260417
 23
64.004417
 33
0.0
  0
TEXT
  8
1
  6
CONTINUOUS
 62
     7
  5
5C6
 10
109.043417
 20
64.042167
 30
0.0
 40
0.15
  1
F
  7
MONOTXT
210
0.0
220
0.0
230
1.0
  0
POINT
  8
4
  6
CONTINUOUS
 62
     7
  5
5C7
 10
108.889333
 20
63.833917
 30
0.0
  0
POINT
  8
4
  6
CONTINUOUS
 62
     7
  5
5C8
 10
109.260417
 20
63.843667
 30
0.0
  0
POINT
  8
4
  6
CONTINUOUS
 62
     7
  5
5C9
 10
109.260417
 20
64.004417
 30
0.0
  0
LINE
  8
1
  6
CONTINUOUS
 62
     7
  5
5CA
 10
105.754167
 20
63.928083
 30
0.0
 11
105.754167
 21
64.35525
 31
0.0
  0
LINE
  8
1
  6
CONTINUOUS
 62
     7
  5
5CB
 10
109.260417
 20
63.928083
 30
0.0
 11
109.260417
 21
64.35525
 31
0.0
  0
LINE
  8
1
  6
CONTINUOUS
 62
     7
  5
5CC
 10
105.8385
 20
64.270917
 30
0.0
 11
109.176
 21
64.270917
 31
0.0
  0
SOLID
  8
1
  6
CONTINUOUS
 62
     7
  5
5CD
 10
105.8385
 20
64.285
 30
0.0
 11
105.8385
 21
64.256833
 31
0.0
 12
105.754167
 22
64.270917
 32
0.0
 13
105.754167
 23
64.270917
 33
0.0
  0
SOLID
  8
1
  6
CONTINUOUS
 62
     7
  5
5CE
 10
109.176
 20
64.285
 30
0.0
 11
109.176
 21
64.256833
 31
0.0
 12
109.260417
 22
64.270917
 32
0.0
 13
109.260417
 23
64.270917
 33
0.0
  0
TEXT
  8
1
  6
CONTINUOUS
 62
     7
  5
5CF
 10
107.470833
 20
64.308917
 30
0.0
 40
0.15
  1
C
  7
MONOTXT
210
0.0
220
0.0
230
1.0
  0
POINT
  8
4
  6
CONTINUOUS
 62
     7
  5
5D0
 10
105.754167
 20
63.843667
 30
0.0
  0
POINT
  8
4
  6
CONTINUOUS
 62
     7
  5
5D1
 10
109.260417
 20
63.843667
 30
0.0
  0
POINT
  8
4
  6
CONTINUOUS
 62
     7
  5
5D2
 10
109.260417
 20
64.270917
 30
0.0
  0
LINE
  8
1
  6
CONTINUOUS
 62
     7
  5
5D3
 10
106.15175
 20
63.584833
 30
0.0
 11
106.15175
 21
63.3825
 31
0.0
  0
LINE
  8
1
  6
CONTINUOUS
 62
     7
  5
5D4
 10
106.248333
 20
63.584833
 30
0.0
 11
106.248333
 21
63.3825
 31
0.0
  0
LINE
  8
1
  6
CONTINUOUS
 62
     7
  5
5D5
 10
106.067417
 20
63.466917
 30
0.0
 11
105.983
 21
63.466917
 31
0.0
  0
LINE
  8
1
  6
CONTINUOUS
 62
     7
  5
5D6
 10
106.332667
 20
63.466917
 30
0.0
 11
106.417083
 21
63.466917
 31
0.0
  0
SOLID
  8
1
  6
CONTINUOUS
 62
     7
  5
5D7
 10
106.067417
 20
63.481
 30
0.0
 11
106.067417
 21
63.452917
 31
0.0
 12
106.15175
 22
63.466917
 32
0.0
 13
106.15175
 23
63.466917
 33
0.0
  0
SOLID
  8
1
  6
CONTINUOUS
 62
     7
  5
5D8
 10
106.332667
 20
63.481
 30
0.0
 11
106.332667
 21
63.452917
 31
0.0
 12
106.248333
 22
63.466917
 32
0.0
 13
106.248333
 23
63.466917
 33
0.0
  0
LINE
  8
1
  6
CONTINUOUS
 62
     7
  5
5D9
 10
106.15175
 20
63.466917
 30
0.0
 11
106.248333
 21
63.466917
 31
0.0
  0
TEXT
  8
1
  6
CONTINUOUS
 62
     7
  5
5DA
 10
105.858
 20
63.44025
 30
0.0
 40
0.15
  1
1"
  7
MONOTXT
210
0.0
220
0.0
230
1.0
  0
POINT
  8
4
  6
CONTINUOUS
 62
     7
  5
5DB
 10
106.15175
 20
63.620167
 30
0.0
  0
LINE
  8
4
  6
CONTINUOUS
 62
     7
  5
5DC
 10
106.248333
 20
63.620167
 30
0.0
 11
106.248417
 21
63.620167
 31
0.0
  0
LINE
  8
4
  6
CONTINUOUS
 62
     7
  5
5DD
 10
106.248333
 20
63.466917
 30
0.0
 11
106.248417
 21
63.466917
 31
0.0
  0
LINE
  8
1
  6
CONTINUOUS
 62
     7
  5
5DE
 10
107.902083
 20
63.584833
 30
0.0
 11
107.902083
 21
63.3825
 31
0.0
  0
LINE
  8
1
  6
CONTINUOUS
 62
     7
  5
5DF
 10
108.01075
 20
63.581
 30
0.0
 11
108.01075
 21
63.3825
 31
0.0
  0
LINE
  8
1
  6
CONTINUOUS
 62
     7
  5
5E0
 10
107.817667
 20
63.466917
 30
0.0
 11
107.733333
 21
63.466917
 31
0.0
  0
LINE
  8
1
  6
CONTINUOUS
 62
     7
  5
5E1
 10
108.095083
 20
63.466917
 30
0.0
 11
108.248083
 21
63.466917
 31
0.0
  0
SOLID
  8
1
  6
CONTINUOUS
 62
     7
  5
5E2
 10
107.817667
 20
63.481
 30
0.0
 11
107.817667
 21
63.452917
 31
0.0
 12
107.902083
 22
63.466917
 32
0.0
 13
107.902083
 23
63.466917
 33
0.0
  0
SOLID
  8
1
  6
CONTINUOUS
 62
     7
  5
5E3
 10
108.095083
 20
63.481
 30
0.0
 11
108.095083
 21
63.452917
 31
0.0
 12
108.01075
 22
63.466917
 32
0.0
 13
108.01075
 23
63.466917
 33
0.0
  0
LINE
  8
1
  6
CONTINUOUS
 62
     7
  5
5E4
 10
107.902083
 20
63.466917
 30
0.0
 11
108.01075
 21
63.466917
 31
0.0
  0
TEXT
  8
1
  6
CONTINUOUS
 62
     7
  5
5E5
 10
107.629583
 20
63.42725
 30
0.0
 40
0.15
  1
1"
  7
MONOTXT
210
0.0
220
0.0
230
1.0
  0
LINE
  8
4
  6
CONTINUOUS
 62
     7
  5
5E6
 10
107.902083
 20
63.620167
 30
0.0
 11
107.902167
 21
63.620167
 31
0.0
  0
POINT
  8
4
  6
CONTINUOUS
 62
     7
  5
5E7
 10
108.01075
 20
63.616333
 30
0.0
  0
POINT
  8
4
  6
CONTINUOUS
 62
     7
  5
5E8
 10
108.01075
 20
63.466917
 30
0.0
  0
LINE
  8
1
  6
CONTINUOUS
 62
     7
  5
5E9
 10
108.01075
 20
63.597917
 30
0.0
 11
108.01075
 21
63.3825
 31
0.0
  0
LINE
  8
1
  6
CONTINUOUS
 62
     7
  5
5EA
 10
108.33225
 20
63.584833
 30
0.0
 11
108.33225
 21
63.3825
 31
0.0
  0
LINE
  8
1
  6
CONTINUOUS
 62
     7
  5
5EB
 10
107.926333
 20
63.466917
 30
0.0
 11
107.842
 21
63.466917
 31
0.0
  0
SOLID
  8
1
  6
CONTINUOUS
 62
     7
  5
5EC
 10
108.247917
 20
63.481
 30
0.0
 11
108.247917
 21
63.452917
 31
0.0
 12
108.33225
 22
63.466917
 32
0.0
 13
108.33225
 23
63.466917
 33
0.0
  0
LINE
  8
1
  6
CONTINUOUS
 62
     7
  5
5ED
 10
108.01075
 20
63.466917
 30
0.0
 11
108.33225
 21
63.466917
 31
0.0
  0
TEXT
  8
1
  6
CONTINUOUS
 62
     7
  5
5EE
 10
108.5305
 20
63.3645
 30
0.0
 40
0.15
  1
3"
  7
MONOTXT
210
0.0
220
0.0
230
1.0
  0
POINT
  8
4
  6
CONTINUOUS
 62
     7
  5
5EF
 10
108.01075
 20
63.63325
 30
0.0
  0
LINE
  8
4
  6
CONTINUOUS
 62
     7
  5
5F0
 10
108.33225
 20
63.620167
 30
0.0
 11
108.332333
 21
63.620167
 31
0.0
  0
POINT
  8
4
  6
CONTINUOUS
 62
     7
  5
5F1
 10
108.33225
 20
63.466917
 30
0.0
  0
SOLID
  8
2
  6
CONTINUOUS
 62
     2
  5
5F2
 10
107.574667
 20
63.552083
 30
0.0
 11
107.6005
 21
63.540917
 31
0.0
 12
107.621167
 22
63.624
 32
0.0
 13
107.621167
 23
63.624
 33
0.0
  0
LINE
  8
2
  6
CONTINUOUS
 62
     2
  5
5F3
 10
107.58575
 20
63.546167
 30
0.0
 11
107.449667
 21
63.307333
 31
0.0
  0
TEXT
  8
2
  6
CONTINUOUS
 62
     2
  5
5F4
 10
105.5285
 20
62.562583
 30
0.0
 40
0.16875
  1
SECTION THROUGH TYPE 2 GRATE
  7
MONOTXT
210
0.0
220
0.0
230
1.0
  0
LINE
  8
1
  6
CONTINUOUS
 62
   233
  5
5F5
 10
105.754167
 20
63.624167
 30
0.0
 11
109.260417
 21
63.624167
 31
0.0
  0
TEXT
  8
2
  6
CONTINUOUS
 62
     2
  5
5F6
 10
97.81275
 20
70.47275
 30
0.0
 40
0.204167
  1
SECTION A-A
  7
MONOTXT
210
0.0
220
0.0
230
1.0
  0
TEXT
  8
2
  6
CONTINUOUS
 62
     2
  5
5F7
 10
97.54075
 20
70.254333
 30
0.0
 40
0.15
  1
(Type 2 Grate Shown)
  7
MONOTXT
210
0.0
220
0.0
230
1.0
  0
TEXT
  8
2
  6
CONTINUOUS
 62
     2
  5
5F8
 10
97.319
 20
69.521083
 30
0.0
 40
0.15
  1
3" X 2 1/2" X 3/8" Angle,
  7
MONOTXT
210
0.0
220
0.0
230
1.0
  0
TEXT
  8
2
  6
CONTINUOUS
 62
     2
  5
5F9
 10
97.961917
 20
69.3085
 30
0.0
 40
0.15
  1
6.6 Lb./L.F.
  7
MONOTXT
210
0.0
220
0.0
230
1.0
  0
LINE
  8
1
  6
CONTINUOUS
 62
     7
  5
5FA
 10
100.903167
 20
68.971583
 30
0.0
 11
100.903167
 21
69.86
 31
0.0
  0
LINE
  8
1
  6
CONTINUOUS
 62
     7
  5
5FB
 10
100.818833
 20
69.775583
 30
0.0
 11
100.249583
 21
69.775583
 31
0.0
  0
SOLID
  8
1
  6
CONTINUOUS
 62
     7
  5
5FC
 10
100.776667
 20
69.796583
 30
0.0
 11
100.776667
 21
69.754417
 31
0.0
 12
100.903167
 22
69.775583
 32
0.0
 13
100.903167
 23
69.775583
 33
0.0
  0
SOLID
  8
1
  6
CONTINUOUS
 62
     7
  5
5FD
 10
100.29175
 20
69.796583
 30
0.0
 11
100.29175
 21
69.754417
 31
0.0
 12
100.165167
 22
69.775583
 32
0.0
 13
100.165167
 23
69.775583
 33
0.0
  0
TEXT
  8
1
  6
CONTINUOUS
 62
     7
  5
5FE
 10
100.15925
 20
69.909667
 30
0.0
 40
0.15
  1
8" MIN.
  7
MONOTXT
210
0.0
220
0.0
230
1.0
  0
LINE
  8
4
  6
CONTINUOUS
 62
     7
  5
5FF
 10
100.903167
 20
68.88725
 30
0.0
 11
100.90325
 21
68.88725
 31
0.0
  0
LINE
  8
4
  6
CONTINUOUS
 62
     7
  5
600
 10
100.165167
 20
68.926417
 30
0.0
 11
100.16525
 21
68.926417
 31
0.0
  0
LINE
  8
4
  6
CONTINUOUS
 62
     7
  5
601
 10
100.165167
 20
69.775583
 30
0.0
 11
100.16525
 21
69.775583
 31
0.0
  0
LINE
  8
1
  6
CONTINUOUS
 62
     7
  5
602
 10
96.867083
 20
68.971583
 30
0.0
 11
96.867083
 21
69.86
 31
0.0
  0
LINE
  8
1
  6
CONTINUOUS
 62
     7
  5
603
 10
96.782667
 20
69.775583
 30
0.0
 11
96.698333
 21
69.775583
 31
0.0
  0
LINE
  8
1
  6
CONTINUOUS
 62
     7
  5
604
 10
97.581917
 20
69.775583
 30
0.0
 11
97.66625
 21
69.775583
 31
0.0
  0
SOLID
  8
1
  6
CONTINUOUS
 62
     7
  5
605
 10
96.740417
 20
69.796583
 30
0.0
 11
96.740417
 21
69.754417
 31
0.0
 12
96.867083
 22
69.775583
 32
0.0
 13
96.867083
 23
69.775583
 33
0.0
  0
SOLID
  8
1
  6
CONTINUOUS
 62
     7
  5
606
 10
97.624
 20
69.796583
 30
0.0
 11
97.624
 21
69.754417
 31
0.0
 12
97.4975
 22
69.775583
 32
0.0
 13
97.4975
 23
69.775583
 33
0.0
  0
LINE
  8
1
  6
CONTINUOUS
 62
     7
  5
607
 10
96.867083
 20
69.775583
 30
0.0
 11
97.4975
 21
69.775583
 31
0.0
  0
TEXT
  8
1
  6
CONTINUOUS
 62
     7
  5
608
 10
96.814
 20
69.8915
 30
0.0
 40
0.15
  1
8" MIN.
  7
MONOTXT
210
0.0
220
0.0
230
1.0
  0
LINE
  8
4
  6
CONTINUOUS
 62
     7
  5
609
 10
96.867083
 20
68.88725
 30
0.0
 11
96.867167
 21
68.88725
 31
0.0
  0
LINE
  8
4
  6
CONTINUOUS
 62
     7
  5
60A
 10
97.4975
 20
68.887917
 30
0.0
 11
97.497583
 21
68.887917
 31
0.0
  0
LINE
  8
4
  6
CONTINUOUS
 62
     7
  5
60B
 10
97.4975
 20
69.775583
 30
0.0
 11
97.497583
 21
69.775583
 31
0.0
  0
POINT
  8
1
  6
CONTINUOUS
 62
     7
  5
60C
 10
97.4975
 20
69.86
 30
0.0
  0
POINT
  8
1
  6
CONTINUOUS
 62
     7
  5
60D
 10
100.165167
 20
69.86
 30
0.0
  0
LINE
  8
1
  6
CONTINUOUS
 62
     7
  5
60E
 10
97.581917
 20
69.775583
 30
0.0
 11
100.080833
 21
69.775583
 31
0.0
  0
SOLID
  8
1
  6
CONTINUOUS
 62
     7
  5
60F
 10
97.581917
 20
69.789583
 30
0.0
 11
97.581917
 21
69.7615
 31
0.0
 12
97.4975
 22
69.775583
 32
0.0
 13
97.4975
 23
69.775583
 33
0.0
  0
SOLID
  8
1
  6
CONTINUOUS
 62
     7
  5
610
 10
100.038667
 20
69.796583
 30
0.0
 11
100.038667
 21
69.754417
 31
0.0
 12
100.165167
 22
69.775583
 32
0.0
 13
100.165167
 23
69.775583
 33
0.0
  0
TEXT
  8
1
  6
CONTINUOUS
 62
     7
  5
611
 10
98.793917
 20
69.873417
 30
0.0
 40
0.15
  1
A
  7
MONOTXT
210
0.0
220
0.0
230
1.0
  0
LINE
  8
4
  6
CONTINUOUS
 62
     7
  5
612
 10
97.4975
 20
69.775583
 30
0.0
 11
97.497583
 21
69.775583
 31
0.0
  0
LINE
  8
4
  6
CONTINUOUS
 62
     7
  5
613
 10
100.165167
 20
69.775583
 30
0.0
 11
100.16525
 21
69.775583
 31
0.0
  0
LINE
  8
4
  6
CONTINUOUS
 62
     7
  5
614
 10
100.165167
 20
69.775583
 30
0.0
 11
100.16525
 21
69.775583
 31
0.0
  0
SOLID
  8
2
  6
CONTINUOUS
 62
     2
  5
615
 10
99.833
 20
68.702333
 30
0.0
 11
99.792333
 21
68.713583
 31
0.0
 12
99.779083
 22
68.585917
 32
0.0
 13
99.779083
 23
68.585917
 33
0.0
  0
LINE
  8
2
  6
CONTINUOUS
 62
     2
  5
616
 10
99.801417
 20
68.66725
 30
0.0
 11
100.008333
 21
69.419
 31
0.0
  0
LINE
  8
2
  6
CONTINUOUS
 62
     2
  5
617
 10
100.008333
 20
69.419
 30
0.0
 11
99.463333
 21
69.419
 31
0.0
  0
SOLID
  8
2
  6
CONTINUOUS
 62
     2
  5
618
 10
97.61275
 20
67.099
 30
0.0
 11
97.60025
 21
67.124167
 31
0.0
 12
97.530917
 22
67.074
 32
0.0
 13
97.530917
 23
67.074
 33
0.0
  0
LINE
  8
2
  6
CONTINUOUS
 62
     2
  5
619
 10
97.6065
 20
67.111583
 30
0.0
 11
97.745917
 21
67.180667
 31
0.0
  0
POINT
  8
2
  6
CONTINUOUS
 62
     2
  5
61A
 10
97.745917
 20
67.180667
 30
0.0
  0
LINE
  8
1
  6
CONTINUOUS
 62
     7
  5
61B
 10
100.996583
 20
68.88725
 30
0.0
 11
101.587917
 21
68.88725
 31
0.0
  0
LINE
  8
1
  6
CONTINUOUS
 62
     7
  5
61C
 10
101.025167
 20
68.237167
 30
0.0
 11
101.587917
 21
68.237167
 31
0.0
  0
LINE
  8
1
  6
CONTINUOUS
 62
     7
  5
61D
 10
101.503583
 20
68.971583
 30
0.0
 11
101.503583
 21
69.056
 31
0.0
  0
SOLID
  8
1
  6
CONTINUOUS
 62
     7
  5
61E
 10
101.4895
 20
68.971583
 30
0.0
 11
101.517667
 21
68.971583
 31
0.0
 12
101.503583
 22
68.88725
 32
0.0
 13
101.503583
 23
68.88725
 33
0.0
  0
SOLID
  8
1
  6
CONTINUOUS
 62
     7
  5
61F
 10
101.4825
 20
68.110583
 30
0.0
 11
101.524667
 21
68.110583
 31
0.0
 12
101.503583
 22
68.237167
 32
0.0
 13
101.503583
 23
68.237167
 33
0.0
  0
LINE
  8
1
  6
CONTINUOUS
 62
     7
  5
620
 10
101.503583
 20
68.88725
 30
0.0
 11
101.503583
 21
68.237167
 31
0.0
  0
TEXT
  8
1
  6
CONTINUOUS
 62
     7
  5
621
 10
101.812667
 20
68.203417
 30
0.0
 40
0.15
  1
8" MIN.
 50
90.0
  7
MONOTXT
210
0.0
220
0.0
230
1.0
  0
LINE
  8
4
  6
CONTINUOUS
 62
     7
  5
622
 10
100.903167
 20
68.88725
 30
0.0
 11
100.90325
 21
68.88725
 31
0.0
  0
LINE
  8
4
  6
CONTINUOUS
 62
     7
  5
623
 10
100.931833
 20
68.237167
 30
0.0
 11
100.931917
 21
68.237167
 31
0.0
  0
LINE
  8
4
  6
CONTINUOUS
 62
     7
  5
624
 10
101.503583
 20
68.237167
 30
0.0
 11
101.503667
 21
68.237167
 31
0.0
  0
LINE
  8
1
  6
CONTINUOUS
 62
     7
  5
625
 10
101.587917
 20
68.237167
 30
0.0
 11
101.596833
 21
68.237167
 31
0.0
  0
LINE
  8
1
  6
CONTINUOUS
 62
     7
  5
626
 10
100.998333
 20
65.5195
 30
0.0
 11
101.587917
 21
65.5195
 31
0.0
  0
LINE
  8
1
  6
CONTINUOUS
 62
     7
  5
627
 10
101.503583
 20
68.15275
 30
0.0
 11
101.503583
 21
65.603917
 31
0.0
  0
SOLID
  8
1
  6
CONTINUOUS
 62
     7
  5
628
 10
101.4825
 20
65.646
 30
0.0
 11
101.524667
 21
65.646
 31
0.0
 12
101.503583
 22
65.5195
 32
0.0
 13
101.503583
 23
65.5195
 33
0.0
  0
TEXT
  8
1
  6
CONTINUOUS
 62
     7
  5
629
 10
101.73875
 20
66.849583
 30
0.0
 40
0.15
  1
A
 50
90.0
  7
MONOTXT
210
0.0
220
0.0
230
1.0
  0
LINE
  8
4
  6
CONTINUOUS
 62
     7
  5
62A
 10
101.503583
 20
68.237167
 30
0.0
 11
101.503667
 21
68.237167
 31
0.0
  0
LINE
  8
4
  6
CONTINUOUS
 62
     7
  5
62B
 10
100.914
 20
65.5195
 30
0.0
 11
100.914083
 21
65.5195
 31
0.0
  0
LINE
  8
4
  6
CONTINUOUS
 62
     7
  5
62C
 10
101.503583
 20
65.5195
 30
0.0
 11
101.503667
 21
65.5195
 31
0.0
  0
POINT
  8
1
  6
CONTINUOUS
 62
     7
  5
62D
 10
101.419167
 20
65.5195
 30
0.0
  0
LINE
  8
1
  6
CONTINUOUS
 62
     7
  5
62E
 10
100.987583
 20
64.822
 30
0.0
 11
101.587917
 21
64.822
 31
0.0
  0
LINE
  8
1
  6
CONTINUOUS
 62
     7
  5
62F
 10
101.503583
 20
65.603917
 30
0.0
 11
101.503583
 21
65.68825
 31
0.0
  0
LINE
  8
1
  6
CONTINUOUS
 62
     7
  5
630
 10
101.503583
 20
64.737667
 30
0.0
 11
101.503583
 21
64.65325
 31
0.0
  0
SOLID
  8
1
  6
CONTINUOUS
 62
     7
  5
631
 10
101.4895
 20
65.603917
 30
0.0
 11
101.517667
 21
65.603917
 31
0.0
 12
101.503583
 22
65.5195
 32
0.0
 13
101.503583
 23
65.5195
 33
0.0
  0
SOLID
  8
1
  6
CONTINUOUS
 62
     7
  5
632
 10
101.4825
 20
64.695417
 30
0.0
 11
101.524667
 21
64.695417
 31
0.0
 12
101.503583
 22
64.822
 32
0.0
 13
101.503583
 23
64.822
 33
0.0
  0
LINE
  8
1
  6
CONTINUOUS
 62
     7
  5
633
 10
101.503583
 20
65.5195
 30
0.0
 11
101.503583
 21
64.822
 31
0.0
  0
TEXT
  8
1
  6
CONTINUOUS
 62
     7
  5
634
 10
101.801583
 20
64.811583
 30
0.0
 40
0.15
  1
8" MIN.
 50
90.0
  7
MONOTXT
210
0.0
220
0.0
230
1.0
  0
LINE
  8
4
  6
CONTINUOUS
 62
     7
  5
635
 10
101.503583
 20
65.5195
 30
0.0
 11
101.503667
 21
65.5195
 31
0.0
  0
LINE
  8
4
  6
CONTINUOUS
 62
     7
  5
636
 10
100.903167
 20
64.822
 30
0.0
 11
100.90325
 21
64.822
 31
0.0
  0
LINE
  8
4
  6
CONTINUOUS
 62
     7
  5
637
 10
101.503583
 20
64.822
 30
0.0
 11
101.503667
 21
64.822
 31
0.0
  0
TEXT
  8
2
  6
CONTINUOUS
 62
     2
  5
638
 10
97.247083
 20
64.882583
 30
0.0
 40
0.15
  1
3/8" Fillet Weld
  7
MONOTXT
210
0.0
220
0.0
230
1.0
  0
SOLID
  8
2
  6
CONTINUOUS
 62
     2
  5
639
 10
100.261
 20
65.07425
 30
0.0
 11
100.278583
 21
65.09625
 31
0.0
 12
100.203667
 22
65.137417
 32
0.0
 13
100.203667
 23
65.137417
 33
0.0
  0
LINE
  8
2
  6
CONTINUOUS
 62
     2
  5
63A
 10
100.203667
 20
65.137417
 30
0.0
 11
100.997333
 21
64.61475
 31
0.0
  0
LINE
  8
2
  6
CONTINUOUS
 62
     2
  5
63B
 10
100.994083
 20
64.612583
 30
0.0
 11
100.609333
 21
64.612583
 31
0.0
  0
TEXT
  8
2
  6
CONTINUOUS
 62
     2
  5
63C
 10
98.54075
 20
63.534
 30
0.0
 40
0.16875
  1
PLAN
  7
MONOTXT
210
0.0
220
0.0
230
1.0
  0
TEXT
  8
2
  6
CONTINUOUS
 62
     2
  5
63D
 10
105.4635
 20
64.656083
 30
0.0
 40
0.16875
  1
SECTION THROUGH TYPE 1 GRATE
  7
MONOTXT
210
0.0
220
0.0
230
1.0
  0
LINE
  8
1
  6
CONTINUOUS
 62
   233
  5
63E
 10
97.483417
 20
65.2385
 30
0.0
 11
97.436333
 21
65.19175
 31
0.0
  0
SOLID
  8
1
  6
CONTINUOUS
 62
   233
  5
63F
 10
97.436333
 20
65.19175
 30
0.0
 11
97.483417
 21
65.19175
 31
0.0
 12
97.483417
 22
65.2385
 32
0.0
 13
97.483417
 23
65.2385
 33
0.0
  0
LINE
  8
1
  6
CONTINUOUS
 62
   233
  5
640
 10
100.301417
 20
65.19175
 30
0.0
 11
100.25425
 21
65.241333
 31
0.0
  0
SOLID
  8
1
  6
CONTINUOUS
 62
   233
  5
641
 10
100.301417
 20
65.19175
 30
0.0
 11
100.25425
 21
65.241333
 31
0.0
 12
100.25425
 22
65.19175
 32
0.0
 13
100.25425
 23
65.19175
 33
0.0
  0
LINE
  8
1
  6
CONTINUOUS
 62
   233
  5
642
 10
97.436333
 20
68.532333
 30
0.0
 11
97.483417
 21
68.47925
 31
0.0
  0
SOLID
  8
1
  6
CONTINUOUS
 62
   233
  5
643
 10
97.483417
 20
68.47925
 30
0.0
 11
97.483417
 21
68.532333
 31
0.0
 12
97.436333
 22
68.532333
 32
0.0
 13
97.436333
 23
68.532333
 33
0.0
  0
LINE
  8
1
  6
CONTINUOUS
 62
   233
  5
644
 10
100.301417
 20
68.532333
 30
0.0
 11
100.25425
 21
68.477583
 31
0.0
  0
SOLID
  8
1
  6
CONTINUOUS
 62
   233
  5
645
 10
100.301417
 20
68.532333
 30
0.0
 11
100.25425
 21
68.532333
 31
0.0
 12
100.25425
 22
68.477583
 32
0.0
 13
100.25425
 23
68.477583
 33
0.0
  0
SOLID
  8
2
  6
CONTINUOUS
 62
     2
  5
646
 10
97.325667
 20
65.139333
 30
0.0
 11
97.349083
 21
65.10425
 31
0.0
 12
97.442583
 22
65.192167
 32
0.0
 13
97.442583
 23
65.192167
 33
0.0
  0
LINE
  8
2
  6
CONTINUOUS
 62
     2
  5
647
 10
97.366917
 20
65.145667
 30
0.0
 11
97.06375
 21
64.943417
 31
0.0
  0
LINE
  8
2
  6
CONTINUOUS
 62
     2
  5
648
 10
97.06375
 20
64.943417
 30
0.0
 11
97.18025
 21
64.943417
 31
0.0
  0
SOLID
  8
2
  6
CONTINUOUS
 62
     2
  5
649
 10
98.76675
 20
69.134083
 30
0.0
 11
98.76675
 21
69.197333
 31
0.0
 12
98.576917
 22
69.165667
 32
0.0
 13
98.576917
 23
69.165667
 33
0.0
  0
LINE
  8
2
  6
CONTINUOUS
 62
     2
  5
64A
 10
98.576917
 20
69.165667
 30
0.0
 11
98.85075
 21
69.165667
 31
0.0
  0
LINE
  8
2
  6
CENTER
 62
     2
  5
64B
 10
98.85075
 20
69.165667
 30
0.0
 11
98.85075
 21
64.576667
 31
0.0
  0
LINE
  8
2
  6
CONTINUOUS
 62
     2
  5
64C
 10
98.85075
 20
64.576667
 30
0.0
 11
98.5775
 21
64.576667
 31
0.0
  0
TEXT
  8
2
  6
CONTINUOUS
 62
     2
  5
64D
 10
98.373
 20
69.093833
 30
0.0
 40
0.15
  1
B
  7
MONOTXT
210
0.0
220
0.0
230
1.0
  0
TEXT
  8
2
  6
CONTINUOUS
 62
     2
  5
64E
 10
98.379417
 20
64.478
 30
0.0
 40
0.15
  1
B
  7
MONOTXT
210
0.0
220
0.0
230
1.0
  0
TEXT
  8
2
  6
CONTINUOUS
 62
     2
  5
64F
 10
96.52675
 20
67.1615
 30
0.0
 40
0.15
  1
A
  7
MONOTXT
210
0.0
220
0.0
230
1.0
  0
TEXT
  8
2
  6
CONTINUOUS
 62
     2
  5
650
 10
101.161
 20
67.203583
 30
0.0
 40
0.15
  1
A
  7
MONOTXT
210
0.0
220
0.0
230
1.0
  0
LINE
  8
2
  6
CONTINUOUS
 62
     2
  5
651
 10
98.661917
 20
64.576667
 30
0.0
 11
98.85075
 21
64.576667
 31
0.0
  0
SOLID
  8
2
  6
CONTINUOUS
 62
     2
  5
652
 10
101.181333
 20
66.953917
 30
0.0
 11
101.244667
 21
66.953917
 31
0.0
 12
101.212917
 22
67.14375
 32
0.0
 13
101.212917
 23
67.14375
 33
0.0
  0
LINE
  8
2
  6
CONTINUOUS
 62
     2
  5
653
 10
96.581583
 20
67.118833
 30
0.0
 11
96.581583
 21
66.84
 31
0.0
  0
LINE
  8
2
  6
CONTINUOUS
 62
     2
  5
654
 10
96.581583
 20
66.84
 30
0.0
 11
100.13475
 21
66.84
 31
0.0
  0
LINE
  8
2
  6
CONTINUOUS
 62
     2
  5
655
 10
101.212917
 20
66.84
 30
0.0
 11
101.212917
 21
67.14375
 31
0.0
  0
LINE
  8
2
  6
CONTINUOUS
 62
     2
  5
656
 10
101.212917
 20
67.059417
 30
0.0
 11
101.212917
 21
66.84
 31
0.0
  0
LINE
  8
1
  6
CONTINUOUS
 62
   233
  5
657
 10
97.503
 20
73.748
 30
0.0
 11
97.503
 21
71.654833
 31
0.0
  0
LINE
  8
1
  6
CONTINUOUS
 62
   233
  5
658
 10
97.389833
 20
74.055583
 30
0.0
 11
100.2455
 21
74.055583
 31
0.0
  0
LINE
  8
1
  6
CONTINUOUS
 62
   233
  5
659
 10
96.872083
 20
72.673167
 30
0.0
 11
95.850083
 21
72.583583
 31
0.0
  0
LINE
  8
3
  6
HIDDEN
 62
   140
  5
65A
 10
97.503
 20
73.748
 30
0.0
 11
100.290417
 21
73.748
 31
0.0
  0
INSERT
  8
1
  6
CONTINUOUS
 62
     7
  5
6B9
  2
$X48
 10
93.168583
 20
62.462583
 30
0.0
 41
0.675
 42
0.675
210
0.0
220
0.0
230
1.0
  0
LINE
  8
1
  6
CONTINUOUS
 62
   233
  5
6BA
 10
100.172417
 20
73.792
 30
0.0
 11
100.2455
 21
73.792
 31
0.0
  0
LINE
  8
1
  6
CONTINUOUS
 62
   233
  5
6BB
 10
100.172417
 20
73.792
 30
0.0
 11
100.172417
 21
71.653
 31
0.0
  0
LINE
  8
1
  6
CONTINUOUS
 62
   233
  5
6BC
 10
100.172417
 20
71.653
 30
0.0
 11
100.540667
 21
71.653
 31
0.0
  0
LINE
  8
1
  6
CONTINUOUS
 62
   233
  5
6BD
 10
100.2455
 20
74.055583
 30
0.0
 11
100.825333
 21
74.055583
 31
0.0
  0
LINE
  8
1
  6
CONTINUOUS
 62
   233
  5
6BE
 10
97.503
 20
71.654833
 30
0.0
 11
97.503
 21
71.538667
 31
0.0
  0
LINE
  8
1
  6
CONTINUOUS
 62
   233
  5
6BF
 10
96.81775
 20
71.479333
 30
0.0
 11
97.503
 21
71.538667
 31
0.0
  0
INSERT
  8
1
  6
CONTINUOUS
 62
     7
  5
874
  2
$X49
 10
93.168583
 20
62.462583
 30
0.0
 41
0.675
 42
0.675
210
0.0
220
0.0
230
1.0
  0
LINE
  8
1
  6
CONTINUOUS
 62
   233
  5
875
 10
106.331167
 20
71.796583
 30
0.0
 11
106.01825
 21
71.796583
 31
0.0
  0
LINE
  8
1
  6
CONTINUOUS
 62
   233
  5
876
 10
109.026333
 20
71.796583
 30
0.0
 11
106.331167
 21
71.796583
 31
0.0
  0
LINE
  8
1
  6
CONTINUOUS
 62
   233
  5
877
 10
109.327333
 20
74.164917
 30
0.0
 11
109.6615
 21
74.164917
 31
0.0
  0
LINE
  8
1
  6
CONTINUOUS
 62
   233
  5
878
 10
109.093833
 20
73.936083
 30
0.0
 11
109.154167
 21
73.936083
 31
0.0
  0
ARC
  8
1
  6
CONTINUOUS
 62
   233
  5
879
 10
109.093885
 20
73.86855
 30
0.0
 40
0.0675
 50
90.0
 51
180.0
210
0.0
220
0.0
230
1.0
  0
LINE
  8
1
  6
CONTINUOUS
 62
   233
  5
87A
 10
106.010333
 20
74.164917
 30
0.0
 11
109.327333
 21
74.164917
 31
0.0
  0
INSERT
  8
1
  6
CONTINUOUS
 62
     7
  5
ABE
  2
$X50
 10
94.54425
 20
62.567333
 30
0.0
 41
0.675
 42
0.675
210
0.0
220
0.0
230
1.0
  0
POINT
  8
1
  6
CONTINUOUS
 62
     7
  5
ABF
 10
99.177667
 20
68.532333
 30
0.0
  0
LINE
  8
1
  6
CONTINUOUS
 62
     7
  5
AC0
 10
99.333583
 20
65.19175
 30
0.0
 11
99.346417
 21
65.19175
 31
0.0
  0
LINE
  8
1
  6
CONTINUOUS
 62
     7
  5
AC1
 10
99.262
 20
68.447917
 30
0.0
 11
99.262
 21
65.276167
 31
0.0
  0
SOLID
  8
1
  6
CONTINUOUS
 62
     7
  5
AC2
 10
99.240917
 20
68.405833
 30
0.0
 11
99.283
 21
68.405833
 31
0.0
 12
99.262
 22
68.532333
 32
0.0
 13
99.262
 23
68.532333
 33
0.0
  0
SOLID
  8
1
  6
CONTINUOUS
 62
     7
  5
AC3
 10
99.240917
 20
65.318333
 30
0.0
 11
99.283
 21
65.318333
 31
0.0
 12
99.262
 22
65.19175
 32
0.0
 13
99.262
 23
65.19175
 33
0.0
  0
TEXT
  8
1
  6
CONTINUOUS
 62
     7
  5
AC4
 10
99.1295
 20
66.914333
 30
0.0
 40
0.15
  1
B
  7
MONOTXT
210
0.0
220
0.0
230
1.0
  0
POINT
  8
4
  6
CONTINUOUS
 62
     7
  5
AC5
 10
99.262
 20
68.532333
 30
0.0
  0
POINT
  8
4
  6
CONTINUOUS
 62
     7
  5
AC6
 10
99.249167
 20
65.19175
 30
0.0
  0
POINT
  8
4
  6
CONTINUOUS
 62
     7
  5
AC7
 10
99.262
 20
65.19175
 30
0.0
  0
POINT
  8
2
  6
CONTINUOUS
 62
     2
  5
AC8
 10
99.991833
 20
67.948833
 30
0.0
  0
LINE
  8
2
  6
CONTINUOUS
 62
     2
  5
AC9
 10
100.131167
 20
67.87975
 30
0.0
 11
99.991833
 21
67.948833
 31
0.0
  0
SOLID
  8
2
  6
CONTINUOUS
 62
     2
  5
ACA
 10
100.124917
 20
67.867167
 30
0.0
 11
100.137417
 21
67.892333
 31
0.0
 12
100.206833
 22
67.842333
 32
0.0
 13
100.206833
 23
67.842333
 33
0.0
  0
LINE
  8
2
  6
CONTINUOUS
 62
     2
  5
ACB
 10
100.13475
 20
66.84
 30
0.0
 11
101.212917
 21
66.84
 31
0.0
  0
LINE
  8
1
  6
CONTINUOUS
 62
     7
  5
ACC
 10
105.868333
 20
66.0765
 30
0.0
 11
105.868333
 21
66.176583
 31
0.0
  0
LINE
  8
1
  6
CONTINUOUS
 62
     7
  5
ACD
 10
109.04525
 20
66.0765
 30
0.0
 11
109.04525
 21
66.176583
 31
0.0
  0
LINE
  8
1
  6
CONTINUOUS
 62
     7
  5
ACE
 10
105.95275
 20
66.092167
 30
0.0
 11
108.960917
 21
66.092167
 31
0.0
  0
SOLID
  8
1
  6
CONTINUOUS
 62
     7
  5
ACF
 10
105.95275
 20
66.10625
 30
0.0
 11
105.95275
 21
66.078167
 31
0.0
 12
105.868333
 22
66.092167
 32
0.0
 13
105.868333
 23
66.092167
 33
0.0
  0
SOLID
  8
1
  6
CONTINUOUS
 62
     7
  5
AD0
 10
108.960917
 20
66.10625
 30
0.0
 11
108.960917
 21
66.078167
 31
0.0
 12
109.04525
 22
66.092167
 32
0.0
 13
109.04525
 23
66.092167
 33
0.0
  0
LINE
  8
4
  6
CONTINUOUS
 62
     7
  5
AD1
 10
105.868333
 20
65.992083
 30
0.0
 11
105.868417
 21
65.992083
 31
0.0
  0
POINT
  8
4
  6
CONTINUOUS
 62
     7
  5
AD2
 10
109.04525
 20
65.992083
 30
0.0
  0
POINT
  8
4
  6
CONTINUOUS
 62
     7
  5
AD3
 10
109.04525
 20
66.092167
 30
0.0
  0
LINE
  8
2
  6
CONTINUOUS
 62
     2
  5
AD4
 10
106.583083
 20
63.584833
 30
0.0
 11
106.583083
 21
63.3825
 31
0.0
  0
SOLID
  8
2
  6
CONTINUOUS
 62
     2
  5
AD5
 10
106.49875
 20
63.481
 30
0.0
 11
106.49875
 21
63.452917
 31
0.0
 12
106.583083
 22
63.466917
 32
0.0
 13
106.583083
 23
63.466917
 33
0.0
  0
LINE
  8
2
  6
CONTINUOUS
 62
     2
  5
AD6
 10
106.261583
 20
63.466917
 30
0.0
 11
106.583083
 21
63.466917
 31
0.0
  0
TEXT
  8
2
  6
CONTINUOUS
 62
     2
  5
AD7
 10
106.709833
 20
63.397417
 30
0.0
 40
0.15
  1
3"
  7
MONOTXT
210
0.0
220
0.0
230
1.0
  0
POINT
  8
4
  6
CONTINUOUS
 62
     7
  5
AD8
 10
106.261583
 20
63.620167
 30
0.0
  0
POINT
  8
4
  6
CONTINUOUS
 62
     7
  5
AD9
 10
106.583083
 20
63.620167
 30
0.0
  0
POINT
  8
2
  6
CONTINUOUS
 62
     2
  5
ADA
 10
106.583083
 20
63.466917
 30
0.0
  0
SOLID
  8
1
  6
CONTINUOUS
 62
     7
  5
ADB
 10
109.577083
 20
74.695167
 30
0.0
 11
109.577083
 21
74.667
 31
0.0
 12
109.6615
 22
74.681167
 32
0.0
 13
109.6615
 23
74.681167
 33
0.0
  0
SOLID
  8
1
  6
CONTINUOUS
 62
     7
  5
ADC
 10
104.102917
 20
71.18375
 30
0.0
 11
104.131083
 21
71.18375
 31
0.0
 12
104.117
 22
71.099417
 32
0.0
 13
104.117
 23
71.099417
 33
0.0
  0
SOLID
  8
1
  6
CONTINUOUS
 62
     7
  5
ADD
 10
104.102917
 20
71.686167
 30
0.0
 11
104.131083
 21
71.686167
 31
0.0
 12
104.117
 22
71.7705
 32
0.0
 13
104.117
 23
71.7705
 33
0.0
  0
TEXT
  8
2
  6
CONTINUOUS
 62
     2
  5
ADE
 10
105.94275
 20
65.213583
 30
0.0
 40
0.15
  1
2 3/4 " x 7/16 "
  7
MONOTXT
210
0.0
220
0.0
230
1.0
  0
LINE
  8
1
  6
CONTINUOUS
 62
     2
  5
ADF
 10
107.28775
 20
63.3065
 30
0.0
 11
107.449667
 21
63.3065
 31
0.0
  0
TEXT
  8
2
  6
CONTINUOUS
 62
     2
  5
AE0
 10
109.726167
 20
67.651583
 30
0.0
 40
0.15
  1
 3/8 "
  7
MONOTXT
210
0.0
220
0.0
230
1.0
  0
TEXT
  8
2
  6
CONTINUOUS
 62
     2
  5
AE1
 10
109.651583
 20
67.385917
 30
0.0
 40
0.15
  1
Fillet
  7
MONOTXT
210
0.0
220
0.0
230
1.0
  0
TEXT
  8
2
  6
CONTINUOUS
 62
     2
  5
AE2
 10
109.5895
 20
67.134083
 30
0.0
 40
0.15
  1
Welds
  7
MONOTXT
210
0.0
220
0.0
230
1.0
  0
LINE
  8
1
  6
CONTINUOUS
 62
     7
  5
AE3
 10
109.34475
 20
63.843667
 30
0.0
 11
109.597417
 21
63.843667
 31
0.0
  0
LINE
  8
1
  6
CONTINUOUS
 62
     7
  5
AE4
 10
109.34475
 20
63.626167
 30
0.0
 11
109.597417
 21
63.626167
 31
0.0
  0
LINE
  8
1
  6
CONTINUOUS
 62
     7
  5
AE5
 10
109.513083
 20
63.928083
 30
0.0
 11
109.513083
 21
64.012417
 31
0.0
  0
LINE
  8
1
  6
CONTINUOUS
 62
     7
  5
AE6
 10
109.513083
 20
63.54175
 30
0.0
 11
109.513083
 21
63.457417
 31
0.0
  0
SOLID
  8
1
  6
CONTINUOUS
 62
     7
  5
AE7
 10
109.498917
 20
63.928083
 30
0.0
 11
109.527083
 21
63.928083
 31
0.0
 12
109.513083
 22
63.843667
 32
0.0
 13
109.513083
 23
63.843667
 33
0.0
  0
SOLID
  8
1
  6
CONTINUOUS
 62
     7
  5
AE8
 10
109.498917
 20
63.54175
 30
0.0
 11
109.527083
 21
63.54175
 31
0.0
 12
109.513083
 22
63.626167
 32
0.0
 13
109.513083
 23
63.626167
 33
0.0
  0
LINE
  8
1
  6
CONTINUOUS
 62
     7
  5
AE9
 10
109.513083
 20
63.843667
 30
0.0
 11
109.513083
 21
63.626167
 31
0.0
  0
TEXT
  8
1
  6
CONTINUOUS
 62
     7
  5
AEA
 10
109.64775
 20
63.693167
 30
0.0
 40
0.15
  1
2 3/4"
  7
MONOTXT
210
0.0
220
0.0
230
1.0
  0
LINE
  8
4
  6
CONTINUOUS
 62
     7
  5
AEB
 10
109.513083
 20
63.626167
 30
0.0
 11
109.513167
 21
63.626167
 31
0.0
  0
SOLID
  8
2
  6
CONTINUOUS
 62
     2
  5
AEC
 10
96.55
 20
66.929
 30
0.0
 11
96.613333
 21
66.929
 31
0.0
 12
96.581583
 22
67.118833
 32
0.0
 13
96.581583
 23
67.118833
 33
0.0
  0
TEXT
  8
1
  6
CONTINUOUS
 62
     7
  5
AED
 10
106.41575
 20
66.130083
 30
0.0
 40
0.15
  1
Bars 2" Ctr. to Ctr.
  7
MONOTXT
210
0.0
220
0.0
230
1.0
  0
TEXT
  8
2
  6
CONTINUOUS
 62
     2
  5
AEE
 10
94.731333
 20
58.350333
 30
0.0
 40
0.175
  1
Strap Thickness: 1/2"
  7
MONOTXT
210
0.0
220
0.0
230
1.0
  0
TEXT
  8
2
  6
CONTINUOUS
 62
     2
  5
AEF
 10
100.523667
 20
58.351333
 30
0.0
 40
0.175
  1
Strap Depth: 3"
  7
MONOTXT
210
0.0
220
0.0
230
1.0
  0
TEXT
  8
2
  6
CONTINUOUS
 62
     2
  5
AF0
 10
105.527833
 20
58.365917
 30
0.0
 40
0.175
  1
Bar Depth: 3"
  7
MONOTXT
210
0.0
220
0.0
230
1.0
  0
TEXT
  8
2
  6
CONTINUOUS
 62
     2
  5
AF1
 10
118.869667
 20
72.188667
 30
0.0
 40
0.175
  1
of the frame by forming a ledge in the concrete.
  7
MONOTXT
210
0.0
220
0.0
230
1.0
  0
LINE
  8
1
  6
CONTINUOUS
 62
   233
  5
AF2
 10
98.964083
 20
75.539083
 30
0.0
 11
100.878333
 21
75.539083
 31
0.0
  0
LINE
  8
1
  6
CONTINUOUS
 62
   233
  5
AF3
 10
100.878333
 20
75.539083
 30
0.0
 11
100.878333
 21
77.699333
 31
0.0
  0
LINE
  8
1
  6
CONTINUOUS
 62
   233
  5
AF4
 10
98.964083
 20
75.799417
 30
0.0
 11
100.878333
 21
75.799417
 31
0.0
  0
LINE
  8
1
  6
CONTINUOUS
 62
   233
  5
AF5
 10
98.964083
 20
76.632167
 30
0.0
 11
100.878333
 21
76.632167
 31
0.0
  0
LINE
  8
1
  6
CONTINUOUS
 62
   233
  5
AF6
 10
98.964083
 20
77.263417
 30
0.0
 11
100.878333
 21
77.263417
 31
0.0
  0
LINE
  8
1
  6
CONTINUOUS
 62
   233
  5
AF7
 10
98.992583
 20
75.539083
 30
0.0
 11
98.992583
 21
77.263417
 31
0.0
  0
TEXT
  8
3
  6
CONTINUOUS
 62
     2
  5
AF8
 10
99.807417
 20
75.851333
 30
0.0
 40
0.135
  1
40
  7
MONOTXT
210
0.0
220
0.0
230
1.0
  0
TEXT
  8
3
  6
CONTINUOUS
 62
     2
  5
AF9
 10
99.782167
 20
76.1375
 30
0.0
 40
0.135
  1
20
  7
MONOTXT
210
0.0
220
0.0
230
1.0
  0
TEXT
  8
3
  6
CONTINUOUS
 62
     2
  5
AFA
 10
99.798833
 20
76.437
 30
0.0
 40
0.135
  1
15
  7
MONOTXT
210
0.0
220
0.0
230
1.0
  0
TEXT
  8
3
  6
CONTINUOUS
 62
     2
  5
AFB
 10
99.097917
 20
75.62375
 30
0.0
 40
0.135
  1
SPECIAL DESIGN
  7
MONOTXT
210
0.0
220
0.0
230
1.0
  0
TEXT
  8
3
  6
CONTINUOUS
 62
     2
  5
AFC
 10
99.110333
 20
77.094167
 30
0.0
 40
0.135
  1
L2, HORIZONTAL
  7
MONOTXT
210
0.0
220
0.0
230
1.0
  0
TEXT
  8
3
  6
CONTINUOUS
 62
     2
  5
AFD
 10
99.519833
 20
76.9185
 30
0.0
 40
0.135
  1
LENGTH
  7
MONOTXT
210
0.0
220
0.0
230
1.0
  0
TEXT
  8
3
  6
CONTINUOUS
 62
     2
  5
AFE
 10
99.705833
 20
76.723333
 30
0.0
 40
0.135
  1
(FT.)
  7
MONOTXT
210
0.0
220
0.0
230
1.0
  0
TEXT
  8
1
  6
CONTINUOUS
 62
     7
  5
AFF
 10
105.069167
 20
78.356
 30
0.0
 40
0.15
  1
L2
  7
MONOTXT
210
0.0
220
0.0
230
1.0
  0
TEXT
  8
2
  6
CONTINUOUS
 62
     2
  5
B00
 10
106.1645
 20
63.1245
 30
0.0
 40
0.15
  1
2 3/4 " x 7/16 " 
  7
MONOTXT
210
0.0
220
0.0
230
1.0
  0
TEXT
  8
2
  6
CONTINUOUS
 62
     2
  5
B01
 10
106.3825
 20
62.8955
 30
0.0
 40
0.15
  1
Strap
  7
MONOTXT
210
0.0
220
0.0
230
1.0
  0
SOLID
  8
2
  6
CONTINUOUS
 62
     2
  5
B02
 10
98.75225
 20
64.610833
 30
0.0
 11
98.75225
 21
64.547583
 31
0.0
 12
98.562417
 22
64.57925
 32
0.0
 13
98.562417
 23
64.57925
 33
0.0
  0
TEXT
  8
2
  6
CONTINUOUS
 62
     2
  5
B03
 10
98.300083
 20
67.182
 30
0.0
 40
0.15
  1
Strap
 50
90.0
  7
MONOTXT
210
0.0
220
0.0
230
1.0
  0
TEXT
  8
2
  6
CONTINUOUS
 62
     2
  5
B04
 10
97.986
 20
66.821167
 30
0.0
 40
0.15
  1
 2 3/4 " x 7/16 "
 50
90.0
  7
MONOTXT
210
0.0
220
0.0
230
1.0
  0
TEXT
  8
2
  6
CONTINUOUS
 62
     2
  5
B05
 10
99.62775
 20
66.872917
 30
0.0
 40
0.15
  1
 2 3/4 " x 7/16 "
 50
90.0
  7
MONOTXT
210
0.0
220
0.0
230
1.0
  0
TEXT
  8
2
  6
CONTINUOUS
 62
     2
  5
B06
 10
99.920417
 20
67.276333
 30
0.0
 40
0.15
  1
Strap
 50
90.0
  7
MONOTXT
210
0.0
220
0.0
230
1.0
  0
TEXT
  8
2
  6
CONTINUOUS
 62
     2
  5
B07
 10
98.994583
 20
64.421
 30
0.0
 40
0.15
  1
3" x 2 1/2 " x 3/8 "
  7
MONOTXT
210
0.0
220
0.0
230
1.0
  0
TEXT
  8
2
  6
CONTINUOUS
 62
     2
  5
B08
 10
98.73325
 20
64.15475
 30
0.0
 40
0.15
  1
 angle, 6.6 Lb./L.F.
  7
MONOTXT
210
0.0
220
0.0
230
1.0
  0
TEXT
  8
2
  6
CONTINUOUS
 62
     2
  5
B09
 10
95.344
 20
73.484917
 30
0.0
 40
0.15
  1
2 3/4 " x 7/16 "
  7
MONOTXT
210
0.0
220
0.0
230
1.0
  0
TEXT
  8
2
  6
CONTINUOUS
 62
     2
  5
B0A
 10
95.429333
 20
73.797083
 30
0.0
 40
0.15
  1
 Strap
  7
MONOTXT
210
0.0
220
0.0
230
1.0
  0
TEXT
  8
2
  6
CONTINUOUS
 62
     2
  5
B0B
 10
101.125333
 20
73.701167
 30
0.0
 40
0.111417
  1
 Strap
  7
MONOTXT
210
0.0
220
0.0
230
1.0
  0
TEXT
  8
2
  6
CONTINUOUS
 62
     2
  5
B0C
 10
101.147583
 20
73.501333
 30
0.0
 40
0.111417
  1
2 3/4 " x 7/16 " 
  7
MONOTXT
210
0.0
220
0.0
230
1.0
  0
LINE
  8
3
  6
CONTINUOUS
 62
     2
  5
B0D
 10
105.940583
 20
76.595083
 30
0.0
 11
106.096333
 21
76.595083
 31
0.0
  0
LINE
  8
2
  6
CONTINUOUS
 62
     2
  5
B0E
 10
106.948583
 20
73.0825
 30
0.0
 11
107.239417
 21
73.0825
 31
0.0
  0
LINE
  8
1
  6
CONTINUOUS
 62
     7
  5
B0F
 10
97.4975
 20
68.97225
 30
0.0
 11
97.4975
 21
69.4165
 31
0.0
  0
LINE
  8
1
  6
CONTINUOUS
 62
     7
  5
B10
 10
97.4975
 20
69.68525
 30
0.0
 11
97.4975
 21
69.86
 31
0.0
  0
LINE
  8
1
  6
CONTINUOUS
 62
     7
  5
B11
 10
100.165167
 20
69.664
 30
0.0
 11
100.165167
 21
69.86
 31
0.0
  0
LINE
  8
1
  6
CONTINUOUS
 62
     7
  5
B12
 10
100.165167
 20
69.010833
 30
0.0
 11
100.165167
 21
69.4165
 31
0.0
  0
TEXT
  8
1
  6
CONTINUOUS
 62
     2
  5
B13
 10
121.12775
 20
60.231583
 30
0.0
 40
0.083333
  1
 PREPARED 7-1-99 
  7
ROMANS
 72
     4
 11
121.822167
 21
60.27325
 31
0.0
210
0.0
220
0.0
230
1.0
  0
TEXT
  8
2
  6
CONTINUOUS
 62
     2
  5
B14
 10
93.24475
 20
58.738917
 30
0.0
 40
0.175
  1
        The following substitutions in dimensions are acceptable for fabricating the grate and frame:
  7
MONOTXT
210
0.0
220
0.0
230
1.0
  0
TEXT
  8
2
  6
CONTINUOUS
 62
     2
  5
B15
 10
119.57825
 20
69.684917
 30
0.0
 40
0.175
  1
The Mounding Detail as shown is not required 
  7
MONOTXT
210
0.0
220
0.0
230
1.0
  0
TEXT
  8
3
  6
CONTINUOUS
 62
   241
  5
B16
 10
119.78925
 20
76.794667
 30
0.0
 40
0.175
  1
The final installed top surface of inlet and
  7
MONOTXT
210
0.0
220
0.0
230
1.0
  0
TEXT
  8
3
  6
CONTINUOUS
 62
   241
  5
B17
 10
118.872
 20
76.177083
 30
0.0
 40
0.175
  1
such as pavement, gutters, curbs, and sidewalks.
  7
MONOTXT
210
0.0
220
0.0
230
1.0
  0
TEXT
  8
3
  6
CONTINUOUS
 62
   241
  5
B18
 10
118.868417
 20
75.5955
 30
0.0
 40
0.175
  1
for information only.
  7
MONOTXT
210
0.0
220
0.0
230
1.0
  0
POLYLINE
  8
1
  6
CONTINUOUS
 62
   233
  5
B19
 66
     1
 10
0.0
 20
0.0
 30
0.0
  0
VERTEX
  8
1
  6
CONTINUOUS
 62
   233
  5
B1A
 10
96.867083
 20
64.822
 30
0.0
  0
VERTEX
  8
1
  6
CONTINUOUS
 62
   233
  5
B1B
 10
96.821083
 20
65.328083
 30
0.0
  0
VERTEX
  8
1
  6
CONTINUOUS
 62
   233
  5
B1C
 10
96.829631
 20
65.46729
 30
0.0
  0
VERTEX
  8
1
  6
CONTINUOUS
 62
   233
  5
B1D
 10
96.867278
 20
65.652347
 30
0.0
  0
VERTEX
  8
1
  6
CONTINUOUS
 62
   233
  5
B1E
 10
96.875417
 20
65.744917
 30
0.0
  0
VERTEX
  8
1
  6
CONTINUOUS
 62
   233
  5
B1F
 10
96.821083
 20
66.17075
 30
0.0
  0
VERTEX
  8
1
  6
CONTINUOUS
 62
   233
  5
B20
 10
96.857333
 20
66.632833
 30
0.0
  0
VERTEX
  8
1
  6
CONTINUOUS
 62
   233
  5
B21
 10
96.812083
 20
67.230833
 30
0.0
  0
VERTEX
  8
1
  6
CONTINUOUS
 62
   233
  5
B22
 10
96.84825
 20
67.801667
 30
0.0
  0
VERTEX
  8
1
  6
CONTINUOUS
 62
   233
  5
B23
 10
96.835271
 20
67.949894
 30
0.0
  0
VERTEX
  8
1
  6
CONTINUOUS
 62
   233
  5
B24
 10
96.80599
 20
68.147129
 30
0.0
  0
VERTEX
  8
1
  6
CONTINUOUS
 62
   233
  5
B25
 10
96.803
 20
68.245667
 30
0.0
  0
VERTEX
  8
1
  6
CONTINUOUS
 62
   233
  5
B26
 10
96.857333
 20
68.608083
 30
0.0
  0
VERTEX
  8
1
  6
CONTINUOUS
 62
   233
  5
B27
 10
96.867167
 20
68.88725
 30
0.0
  0
SEQEND
  8
1
  6
CONTINUOUS
 62
   233
  5
B28
  0
POLYLINE
  8
1
  6
CONTINUOUS
 62
   233
  5
B29
 66
     1
 10
0.0
 20
0.0
 30
0.0
  0
VERTEX
  8
1
  6
CONTINUOUS
 62
   233
  5
B2A
 10
96.867083
 20
68.88725
 30
0.0
  0
VERTEX
  8
1
  6
CONTINUOUS
 62
   233
  5
B2B
 10
97.400667
 20
68.916167
 30
0.0
  0
VERTEX
  8
1
  6
CONTINUOUS
 62
   233
  5
B2C
 10
97.762917
 20
68.907083
 30
0.0
  0
VERTEX
  8
1
  6
CONTINUOUS
 62
   233
  5
B2D
 10
98.270083
 20
68.889
 30
0.0
  0
VERTEX
  8
1
  6
CONTINUOUS
 62
   233
  5
B2E
 10
98.42119
 20
68.900303
 30
0.0
  0
VERTEX
  8
1
  6
CONTINUOUS
 62
   233
  5
B2F
 10
98.622166
 20
68.930583
 30
0.0
  0
VERTEX
  8
1
  6
CONTINUOUS
 62
   233
  5
B30
 10
98.722917
 20
68.93425
 30
0.0
  0
VERTEX
  8
1
  6
CONTINUOUS
 62
   233
  5
B31
 10
99.230083
 20
68.907083
 30
0.0
  0
VERTEX
  8
1
  6
CONTINUOUS
 62
   233
  5
B32
 10
99.66475
 20
68.889
 30
0.0
  0
VERTEX
  8
1
  6
CONTINUOUS
 62
   233
  5
B33
 10
99.821843
 20
68.90064
 30
0.0
  0
VERTEX
  8
1
  6
CONTINUOUS
 62
   233
  5
B34
 10
100.030902
 20
68.931848
 30
0.0
  0
VERTEX
  8
1
  6
CONTINUOUS
 62
   233
  5
B35
 10
100.135667
 20
68.93425
 30
0.0
  0
VERTEX
  8
1
  6
CONTINUOUS
 62
   233
  5
B36
 10
100.903167
 20
68.88725
 30
0.0
  0
SEQEND
  8
1
  6
CONTINUOUS
 62
   233
  5
B37
  0
POLYLINE
  8
1
  6
CONTINUOUS
 62
   233
  5
B38
 66
     1
 10
0.0
 20
0.0
 30
0.0
  0
VERTEX
  8
1
  6
CONTINUOUS
 62
   233
  5
B39
 10
100.903167
 20
68.88725
 30
0.0
  0
VERTEX
  8
1
  6
CONTINUOUS
 62
   233
  5
B3A
 10
100.95075
 20
68.417833
 30
0.0
  0
VERTEX
  8
1
  6
CONTINUOUS
 62
   233
  5
B3B
 10
100.948589
 20
68.269977
 30
0.0
  0
VERTEX
  8
1
  6
CONTINUOUS
 62
   233
  5
B3C
 10
100.921856
 20
68.072578
 30
0.0
  0
VERTEX
  8
1
  6
CONTINUOUS
 62
   233
  5
B3D
 10
100.9145
 20
67.973833
 30
0.0
  0
VERTEX
  8
1
  6
CONTINUOUS
 62
   233
  5
B3E
 10
100.923583
 20
67.339583
 30
0.0
  0
VERTEX
  8
1
  6
CONTINUOUS
 62
   233
  5
B3F
 10
100.968833
 20
66.91375
 30
0.0
  0
VERTEX
  8
1
  6
CONTINUOUS
 62
   233
  5
B40
 10
100.958188
 20
66.756634
 30
0.0
  0
VERTEX
  8
1
  6
CONTINUOUS
 62
   233
  5
B41
 10
100.922501
 20
66.547213
 30
0.0
  0
VERTEX
  8
1
  6
CONTINUOUS
 62
   233
  5
B42
 10
100.9145
 20
66.442583
 30
0.0
  0
VERTEX
  8
1
  6
CONTINUOUS
 62
   233
  5
B43
 10
100.968833
 20
66.043917
 30
0.0
  0
VERTEX
  8
1
  6
CONTINUOUS
 62
   233
  5
B44
 10
100.9145
 20
65.672417
 30
0.0
  0
VERTEX
  8
1
  6
CONTINUOUS
 62
   233
  5
B45
 10
100.932362
 20
65.475871
 30
0.0
  0
VERTEX
  8
1
  6
CONTINUOUS
 62
   233
  5
B46
 10
100.970022
 20
65.212969
 30
0.0
  0
VERTEX
  8
1
  6
CONTINUOUS
 62
   233
  5
B47
 10
100.95975
 20
65.0835
 30
0.0
  0
VERTEX
  8
1
  6
CONTINUOUS
 62
   233
  5
B48
 10
100.903167
 20
64.822
 30
0.0
  0
SEQEND
  8
1
  6
CONTINUOUS
 62
   233
  5
B49
  0
POLYLINE
  8
1
  6
CONTINUOUS
 62
   233
  5
B4A
 66
     1
 10
0.0
 20
0.0
 30
0.0
  0
VERTEX
  8
1
  6
CONTINUOUS
 62
   233
  5
B4B
 10
96.867083
 20
64.822
 30
0.0
  0
VERTEX
  8
1
  6
CONTINUOUS
 62
   233
  5
B4C
 10
97.301083
 20
64.7845
 30
0.0
  0
VERTEX
  8
1
  6
CONTINUOUS
 62
   233
  5
B4D
 10
97.430745
 20
64.784364
 30
0.0
  0
VERTEX
  8
1
  6
CONTINUOUS
 62
   233
  5
B4E
 10
97.603938
 20
64.799279
 30
0.0
  0
VERTEX
  8
1
  6
CONTINUOUS
 62
   233
  5
B4F
 10
97.6905
 20
64.802583
 30
0.0
  0
VERTEX
  8
1
  6
CONTINUOUS
 62
   233
  5
B50
 10
98.188583
 20
64.775417
 30
0.0
  0
VERTEX
  8
1
  6
CONTINUOUS
 62
   233
  5
B51
 10
98.686667
 20
64.811667
 30
0.0
  0
VERTEX
  8
1
  6
CONTINUOUS
 62
   233
  5
B52
 10
99.275333
 20
64.766333
 30
0.0
  0
VERTEX
  8
1
  6
CONTINUOUS
 62
   233
  5
B53
 10
99.6285
 20
64.820667
 30
0.0
  0
VERTEX
  8
1
  6
CONTINUOUS
 62
   233
  5
B54
 10
99.827686
 20
64.806992
 30
0.0
  0
VERTEX
  8
1
  6
CONTINUOUS
 62
   233
  5
B55
 10
100.093366
 20
64.775881
 30
0.0
  0
VERTEX
  8
1
  6
CONTINUOUS
 62
   233
  5
B56
 10
100.22625
 20
64.775417
 30
0.0
  0
VERTEX
  8
1
  6
CONTINUOUS
 62
   233
  5
B57
 10
100.903167
 20
64.822
 30
0.0
  0
SEQEND
  8
1
  6
CONTINUOUS
 62
   233
  5
B58
  0
TEXT
  8
2
  6
CONTINUOUS
 62
     2
  5
B59
 10
118.854833
 20
69.378
 30
0.0
 40
0.175
  1
when an inlet is placed in a sag.
  7
MONOTXT
210
0.0
220
0.0
230
1.0
  0
TEXT
  8
3
  6
CONTINUOUS
 62
   241
  5
B5A
 10
118.862083
 20
75.887583
 30
0.0
 40
0.175
  1
Top of grate elevation, if shown on the plans, is 
  7
MONOTXT
210
0.0
220
0.0
230
1.0
  0
TEXT
  8
3
  6
HIDDEN
 62
   233
  5
B5B
 10
124.451917
 20
68.724917
 30
0.0
 40
0.14
  1
"
  7
ROMANS
210
0.0
220
0.0
230
1.0
  0
TEXT
  8
1
  6
HIDDEN
 62
   233
  5
B5C
 10
119.56775
 20
75.0025
 30
0.0
 40
0.175
  1
Construction may be cast-in place, precast 
  7
MONOTXT
210
0.0
220
0.0
230
1.0
  0
TEXT
  8
1
  6
HIDDEN
 62
   233
  5
B5D
 10
118.839833
 20
74.427583
 30
0.0
 40
0.175
  1
cast-in-place and precast.
  7
MONOTXT
210
0.0
220
0.0
230
1.0
  0
TEXT
  8
3
  6
HIDDEN
 62
   233
  5
B5E
 10
118.220167
 20
68.956
 30
0.0
 40
0.175
  1
        Optional construction joints labeled  CJ"  
  7
MONOTXT
210
0.0
220
0.0
230
1.0
  0
TEXT
  8
3
  6
HIDDEN
 62
   233
  5
B5F
 10
118.857833
 20
68.659917
 30
0.0
 40
0.175
  1
may be roughened concrete, keyed or doweled as 
  7
MONOTXT
210
0.0
220
0.0
230
1.0
  0
TEXT
  8
3
  6
HIDDEN
 62
   233
  5
B60
 10
118.85775
 20
68.397833
 30
0.0
 40
0.175
  1
per the typical details shown herein or as approved 
  7
MONOTXT
210
0.0
220
0.0
230
1.0
  0
TEXT
  8
1
  6
CONTINUOUS
 62
     7
  5
B61
 10
118.849667
 20
68.072667
 30
0.0
 40
0.175
  1
by the Engineer. Non shrink grout meeting the 
  7
MONOTXT
210
0.0
220
0.0
230
1.0
  0
TEXT
  8
1
  6
CONTINUOUS
 62
     7
  5
B62
 10
118.84075
 20
67.77075
 30
0.0
 40
0.175
  1
requirements of subsection 715.5 of the specifications
  7
MONOTXT
210
0.0
220
0.0
230
1.0
  0
TEXT
  8
1
  6
CONTINUOUS
 62
     7
  5
B63
 10
118.82225
 20
67.493
 30
0.0
 40
0.175
  1
may be used to a depth of  1/2 " for leveling between
  7
MONOTXT
210
0.0
220
0.0
230
1.0
  0
TEXT
  8
1
  6
CONTINUOUS
 62
     7
  5
B64
 10
118.849583
 20
66.884333
 30
0.0
 40
0.175
  1
per the manufacturer's recommendations.
  7
MONOTXT
210
0.0
220
0.0
230
1.0
  0
TEXT
  8
1
  6
HIDDEN
 62
   233
  5
B65
 10
118.853167
 20
74.715833
 30
0.0
 40
0.175
  1
in one or multiple sections, or any combination of 
  7
MONOTXT
210
0.0
220
0.0
230
1.0
  0
TEXT
  8
2
  6
CONTINUOUS
 62
     2
  5
B66
 10
119.602333
 20
66.27925
 30
0.0
 40
0.175
  1
This inlet is to be installed in roadside or 
  7
MONOTXT
210
0.0
220
0.0
230
1.0
  0
TEXT
  8
2
  6
CONTINUOUS
 62
     2
  5
B67
 10
118.9975
 20
65.351083
 30
0.0
 40
0.175
  1
curb and gutter.
  7
MONOTXT
210
0.0
220
0.0
230
1.0
  0
TEXT
  8
2
  6
CONTINUOUS
 62
     2
  5
B68
 10
118.828167
 20
65.961667
 30
0.0
 40
0.175
  1
median ditches only. It is not to be placed adjacent 
  7
MONOTXT
210
0.0
220
0.0
230
1.0
  0
TEXT
  8
2
  6
CONTINUOUS
 62
     2
  5
B69
 10
118.816333
 20
65.630667
 30
0.0
 40
0.175
  1
to pavement or in the gutter pan of combination 
  7
MONOTXT
210
0.0
220
0.0
230
1.0
  0
TEXT
  8
1
  6
CONTINUOUS
 62
     7
  5
B6A
 10
119.566417
 20
63.933167
 30
0.0
 40
0.175
  1
The number and location of pipe openings 
  7
MONOTXT
210
0.0
220
0.0
230
1.0
  0
TEXT
  8
1
  6
CONTINUOUS
 62
     7
  5
B6B
 10
118.783917
 20
63.661583
 30
0.0
 40
0.175
  1
shall be as shown in the plans. The contractor at no
  7
MONOTXT
210
0.0
220
0.0
230
1.0
  0
TEXT
  8
1
  6
CONTINUOUS
 62
     7
  5
B6C
 10
118.788583
 20
63.383917
 30
0.0
 40
0.175
  1
additional cost, shall be responsible for any temporary
  7
MONOTXT
210
0.0
220
0.0
230
1.0
  0
TEXT
  8
1
  6
CONTINUOUS
 62
     7
  5
B6D
 10
118.784833
 20
62.751833
 30
0.0
 40
0.175
  1
due to multiple openings.
  7
MONOTXT
210
0.0
220
0.0
230
1.0
  0
TEXT
  8
1
  6
CONTINUOUS
 62
     7
  5
B6E
 10
118.804583
 20
63.047333
 30
0.0
 40
0.175
  1
bracing required to transport precast inlet sections
  7
MONOTXT
210
0.0
220
0.0
230
1.0
  0
TEXT
  8
1
  6
CONTINUOUS
 62
     7
  5
B6F
 10
118.832
 20
67.179917
 30
0.0
 40
0.175
  1
precast sections. Thicker depths will be allowed as 
  7
MONOTXT
210
0.0
220
0.0
230
1.0
  0
TEXT
  8
2
  6
CONTINUOUS
 62
     2
  5
B70
 10
119.587917
 20
73.85375
 30
0.0
 40
0.175
  1
Type 2 Grate shall be used at all locations
  7
MONOTXT
210
0.0
220
0.0
230
1.0
  0
TEXT
  8
2
  6
CONTINUOUS
 62
     2
  5
B71
 10
118.906583
 20
73.24275
 30
0.0
 40
0.175
  1
Urban Grates shall be used only at specially
  7
MONOTXT
210
0.0
220
0.0
230
1.0
  0
TEXT
  8
2
  6
CONTINUOUS
 62
     2
  5
B72
 10
118.898667
 20
73.532583
 30
0.0
 40
0.175
  1
unless otherwise specified on the Plans. Type 1
  7
MONOTXT
210
0.0
220
0.0
230
1.0
  0
TEXT
  8
2
  6
CONTINUOUS
 62
     2
  5
B73
 10
119.588
 20
72.485333
 30
0.0
 40
0.175
  1
The Contractor, at his option, may omit use 
  7
MONOTXT
210
0.0
220
0.0
230
1.0
  0
TEXT
  8
2
  6
CONTINUOUS
 62
     2
  5
B74
 10
119.57525
 20
71.670667
 30
0.0
 40
0.175
  1
Special care shall be execised in forming the
  7
MONOTXT
210
0.0
220
0.0
230
1.0
  0
TEXT
  8
2
  6
CONTINUOUS
 62
     2
  5
B75
 10
118.85675
 20
71.394167
 30
0.0
 40
0.175
  1
2" wide concrete ledge to provide a smooth, even
  7
MONOTXT
210
0.0
220
0.0
230
1.0
  0
TEXT
  8
2
  6
CONTINUOUS
 62
     2
  5
B76
 10
118.85675
 20
71.117583
 30
0.0
 40
0.175
  1
surface for supporting the grates if the shallow
  7
MONOTXT
210
0.0
220
0.0
230
1.0
  0
TEXT
  8
2
  6
CONTINUOUS
 62
     2
  5
B77
 10
118.86775
 20
70.796833
 30
0.0
 40
0.175
  1
frame is not used. no projections shall exist on the 
  7
MONOTXT
210
0.0
220
0.0
230
1.0
  0
TEXT
  8
2
  6
CONTINUOUS
 62
     2
  5
B78
 10
118.889917
 20
70.509167
 30
0.0
 40
0.175
  1
bearing surfaces of the ledge or the grates, and
  7
MONOTXT
210
0.0
220
0.0
230
1.0
  0
TEXT
  8
2
  6
CONTINUOUS
 62
     2
  5
B79
 10
118.867
 20
70.221667
 30
0.0
 40
0.175
  1
the grates shall seat on the ledge without rocking.
  7
MONOTXT
210
0.0
220
0.0
230
1.0
  0
TEXT
  8
2
  6
CONTINUOUS
 62
     2
  5
B7A
 10
118.884833
 20
72.9255
 30
0.0
 40
0.175
  1
designated locations as shown on the plans.
  7
MONOTXT
210
0.0
220
0.0
230
1.0
  0
TEXT
  8
3
  6
CONTINUOUS
 62
   241
  5
B7B
 10
118.881
 20
76.476417
 30
0.0
 40
0.175
  1
grate shall be flush with adjacent finished surfaces 
  7
MONOTXT
210
0.0
220
0.0
230
1.0
  0
TEXT
  8
1
  6
CONTINUOUS
 62
     7
  5
B7C
 10
118.83725
 20
64.36825
 30
0.0
 40
0.175
  1
opening shall be four (4) inches.
  7
MONOTXT
210
0.0
220
0.0
230
1.0
  0
TEXT
  8
1
  6
CONTINUOUS
 62
     7
  5
B7D
 10
118.83725
 20
64.618083
 30
0.0
 40
0.175
  1
pipe opening to any construction joint above the
  7
MONOTXT
210
0.0
220
0.0
230
1.0
  0
TEXT
  8
1
  6
CONTINUOUS
 62
     7
  5
B7E
 10
119.584667
 20
64.885333
 30
0.0
 40
0.175
  1
The minimum distance from the top of any
  7
MONOTXT
210
0.0
220
0.0
230
1.0
  0
ENDSEC
  0
EOF
