  0
SECTION
  2
HEADER
  9
$ACADVER
  1
AC1009
  9
$INSBASE
 10
0.0
 20
0.0
 30
0.0
  9
$EXTMIN
 10
-0.18
 20
-0.397167
 30
0.0
  9
$EXTMAX
 10
71.525
 20
22.213167
 30
0.0
  9
$LIMMIN
 10
0.0
 20
0.0
  9
$LIMMAX
 10
12.0
 20
9.0
  9
$ORTHOMODE
 70
     0
  9
$REGENMODE
 70
     1
  9
$FILLMODE
 70
     1
  9
$QTEXTMODE
 70
     0
  9
$MIRRTEXT
 70
     1
  9
$DRAGMODE
 70
     2
  9
$LTSCALE
 40
1.0
  9
$OSMODE
 70
     0
  9
$ATTMODE
 70
     1
  9
$TEXTSIZE
 40
0.2
  9
$TRACEWID
 40
0.05
  9
$TEXTSTYLE
  7
STANDARD
  9
$CLAYER
  8
0
  9
$CELTYPE
  6
CONTINUOUS
  9
$CECOLOR
 62
   256
  9
$DIMSCALE
 40
1.0
  9
$DIMASZ
 40
0.18
  9
$DIMEXO
 40
0.0625
  9
$DIMDLI
 40
0.38
  9
$DIMRND
 40
0.0
  9
$DIMDLE
 40
0.0
  9
$DIMEXE
 40
0.18
  9
$DIMTP
 40
0.0
  9
$DIMTM
 40
0.0
  9
$DIMTXT
 40
0.18
  9
$DIMCEN
 40
0.09
  9
$DIMTSZ
 40
0.0
  9
$DIMTOL
 70
     0
  9
$DIMLIM
 70
     0
  9
$DIMTIH
 70
     1
  9
$DIMTOH
 70
     1
  9
$DIMSE1
 70
     0
  9
$DIMSE2
 70
     0
  9
$DIMTAD
 70
     0
  9
$DIMZIN
 70
     0
  9
$DIMBLK
  1

  9
$DIMASO
 70
     1
  9
$DIMSHO
 70
     1
  9
$DIMPOST
  1

  9
$DIMAPOST
  1

  9
$DIMALT
 70
     0
  9
$DIMALTD
 70
     2
  9
$DIMALTF
 40
25.4
  9
$DIMLFAC
 40
1.0
  9
$DIMTOFL
 70
     0
  9
$DIMTVP
 40
0.0
  9
$DIMTIX
 70
     0
  9
$DIMSOXD
 70
     0
  9
$DIMSAH
 70
     0
  9
$DIMBLK1
  1

  9
$DIMBLK2
  1

  9
$DIMSTYLE
  2
STANDARD
  9
$DIMCLRD
 70
     0
  9
$DIMCLRE
 70
     0
  9
$DIMCLRT
 70
     0
  9
$DIMTFAC
 40
1.0
  9
$DIMGAP
 40
0.09
  9
$LUNITS
 70
     2
  9
$LUPREC
 70
     4
  9
$AXISMODE
 70
     0
  9
$AXISUNIT
 10
0.0
 20
0.0
  9
$SKETCHINC
 40
0.1
  9
$FILLETRAD
 40
0.0
  9
$AUNITS
 70
     0
  9
$AUPREC
 70
     0
  9
$MENU
  1
acad
  9
$ELEVATION
 40
0.0
  9
$PELEVATION
 40
0.0
  9
$THICKNESS
 40
0.0
  9
$LIMCHECK
 70
     0
  9
$BLIPMODE
 70
     1
  9
$CHAMFERA
 40
0.0
  9
$CHAMFERB
 40
0.0
  9
$SKPOLY
 70
     0
  9
$TDCREATE
 40
2451569.380393519
  9
$TDUPDATE
 40
2451569.380393519
  9
$TDINDWG
 40
0.0000000000
  9
$TDUSRTIMER
 40
0.0000000000
  9
$USRTIMER
 70
     1
  9
$ANGBASE
 50
0.0
  9
$ANGDIR
 70
     0
  9
$PDMODE
 70
     0
  9
$PDSIZE
 40
0.0
  9
$PLINEWID
 40
0.0
  9
$COORDS
 70
     0
  9
$SPLFRAME
 70
     0
  9
$SPLINETYPE
 70
     6
  9
$SPLINESEGS
 70
    10
  9
$ATTDIA
 70
     0
  9
$ATTREQ
 70
     1
  9
$HANDLING
 70
     1
  9
$HANDSEED
  5
86E
  9
$SURFTAB1
 70
     6
  9
$SURFTAB2
 70
     6
  9
$SURFTYPE
 70
     6
  9
$SURFU
 70
     6
  9
$SURFV
 70
     6
  9
$UCSNAME
  2

  9
$UCSORG
 10
0.0
 20
0.0
 30
0.0
  9
$UCSXDIR
 10
1.0
 20
0.0
 30
0.0
  9
$UCSYDIR
 10
0.0
 20
1.0
 30
0.0
  9
$PUCSNAME
  2

  9
$PUCSORG
 10
0.0
 20
0.0
 30
0.0
  9
$PUCSXDIR
 10
1.0
 20
0.0
 30
0.0
  9
$PUCSYDIR
 10
0.0
 20
1.0
 30
0.0
  9
$USERI1
 70
     0
  9
$USERI2
 70
     0
  9
$USERI3
 70
     0
  9
$USERI4
 70
     0
  9
$USERI5
 70
     0
  9
$USERR1
 40
0.0
  9
$USERR2
 40
0.0
  9
$USERR3
 40
0.0
  9
$USERR4
 40
0.0
  9
$USERR5
 40
0.0
  9
$WORLDVIEW
 70
     1
  9
$SHADEDGE
 70
     3
  9
$SHADEDIF
 70
    70
  9
$TILEMODE
 70
     1
  9
$MAXACTVP
 70
    16
  9
$PINSBASE
 10
0.0
 20
0.0
 30
0.0
  9
$PLIMCHECK
 70
     0
  9
$PEXTMIN
 10
-1.000000E+20
 20
-1.000000E+20
 30
-1.000000E+20
  9
$PEXTMAX
 10
-1.000000E+20
 20
-1.000000E+20
 30
-1.000000E+20
  9
$PLIMMIN
 10
0.0
 20
0.0
  9
$PLIMMAX
 10
12.0
 20
9.0
  9
$UNITMODE
 70
     0
  9
$VISRETAIN
 70
     0
  9
$PLINEGEN
 70
     1
  9
$PSLTSCALE
 70
     0
  9
$TREEDEPTH
 70
  3020
  9
$DWGCODEPAGE
  3
ansi_1252
  0
ENDSEC
  0
SECTION
  2
TABLES
  0
TABLE
  2
VPORT
 70
     1
  0
VPORT
  2
*ACTIVE
 70
     0
 10
0.0
 20
0.0
 11
1.0
 21
1.0
 12
0.0
 22
0.0
 13
0.0
 23
0.0
 14
0.0
 24
0.0
 15
0.0
 25
0.0
 16
0.0
 26
0.0
 36
1.0
 17
51.656815
 27
11.213167
 37
0.0
 40
22.55
 41
1.57971
 42
50.0
 43
0.0
 44
0.0
 50
0.0
 51
0.0
 71
     0
 72
   100
 73
     1
 74
     0
 75
     0
 76
     0
 77
     0
 78
     0
  0
ENDTAB
  0
TABLE
  2
LTYPE
 70
     7
  0
LTYPE
  2
CONTINUOUS
 70
     0
  3
Solid line
 72
    65
 73
     0
 40
0.0
  0
LTYPE
  2
DOT
 70
    64
  3
. . . . . . . . . . . . . . . . . . . . . . . . . . . . . . . . .
 72
    65
 73
     2
 40
0.25
 49
0.0
 49
-0.25
  0
LTYPE
  2
HIDDEN
 70
    64
  3
__ __ __ __ __ __ __ __ __ __ __ __ __ __ __ __ __ __ __ __ __ 
 72
    65
 73
     2
 40
0.375
 49
0.25
 49
-0.125
  0
LTYPE
  2
DASHED
 70
    64
  3
__ __ __ __ __ __ __ __ __ __ __ __ __ __ __ __ __ __ __ __ __
 72
    65
 73
     2
 40
0.75
 49
0.5
 49
-0.25
  0
LTYPE
  2
DASHDOT
 70
    64
  3
__ . __ . __ . __ . __ . __ . __ . __ . __ . __ . __ . __ . _
 72
    65
 73
     4
 40
1.0
 49
0.5
 49
-0.25
 49
0.0
 49
-0.25
  0
LTYPE
  2
DIVIDE
 70
    64
  3
____ . . ____ . . ____ . . ____ . . ____ . . ____ . . ____ . .
 72
    65
 73
     6
 40
1.25
 49
0.5
 49
-0.25
 49
0.0
 49
-0.25
 49
0.0
 49
-0.25
  0
LTYPE
  2
CENTER
 70
    64
  3
____ _ ____ _ ____ _ ____ _ ____ _ ____ _ ____ _ ____ _ ____ _
 72
    65
 73
     4
 40
2.0
 49
1.25
 49
-0.25
 49
0.25
 49
-0.25
  0
ENDTAB
  0
TABLE
  2
LAYER
 70
    10
  0
LAYER
  2
0
 70
     0
 62
     7
  6
CONTINUOUS
  0
LAYER
  2
CONSTRUCTION_CLASS
 70
     1
 62
     7
  6
CONTINUOUS
  0
LAYER
  2
PATTERN_CLASS
 70
     0
 62
     7
  6
CONTINUOUS
  0
LAYER
  2
1
 70
    64
 62
     7
  6
CONTINUOUS
  0
LAYER
  2
3
 70
    64
 62
     7
  6
CONTINUOUS
  0
LAYER
  2
6
 70
    64
 62
     7
  6
CONTINUOUS
  0
LAYER
  2
4
 70
    64
 62
     7
  6
CONTINUOUS
  0
LAYER
  2
2
 70
    64
 62
     7
  6
CONTINUOUS
  0
LAYER
  2
7
 70
    64
 62
     7
  6
CONTINUOUS
  0
LAYER
  2
5
 70
    64
 62
     7
  6
CONTINUOUS
  0
ENDTAB
  0
TABLE
  2
STYLE
 70
     5
  0
STYLE
  2
STANDARD
 70
     0
 40
0.0
 41
1.0
 50
0.0
 71
     0
 42
0.0
  3
txt
  4

  0
STYLE
  2
MONOTXT
 70
     0
 40
0.2
 41
1.0
 50
0.0
 71
     0
 42
0.2
  3
MONOTXT
  4

  0
STYLE
  2
txt
 70
     0
 40
0.2
 41
1.0
 50
0.0
 71
     0
 42
0.2
  3
TXT
  4

  0
STYLE
  2
ROMANT
 70
     0
 40
0.2
 41
1.0
 50
0.0
 71
     0
 42
0.2
  3
ROMANT
  4

  0
STYLE
  2
ROMANS
 70
     0
 40
0.2
 41
1.0
 50
0.0
 71
     0
 42
0.2
  3
ROMANS
  4

  0
ENDTAB
  0
TABLE
  2
VIEW
 70
     0
  0
ENDTAB
  0
TABLE
  2
UCS
 70
     0
  0
ENDTAB
  0
TABLE
  2
APPID
 70
     1
  0
APPID
  2
ACAD
 70
     0
  0
ENDTAB
  0
TABLE
  2
DIMSTYLE
 70
     1
  0
DIMSTYLE
  2
STANDARD
 70
     0
  3

  4

  5

  6

  7

 40
1.0
 41
0.18
 42
0.0625
 43
0.38
 44
0.18
 45
0.0
 46
0.0
 47
0.0
 48
0.0
140
0.18
141
0.09
142
0.0
143
25.4
144
1.0
145
0.0
146
1.0
147
0.09
 71
     0
 72
     0
 73
     1
 74
     1
 75
     0
 76
     0
 77
     0
 78
     0
170
     0
171
     2
172
     0
173
     0
174
     0
175
     0
176
     0
177
     0
178
     0
  0
ENDTAB
  0
ENDSEC
  0
SECTION
  2
BLOCKS
  0
BLOCK
  8
1
  6
CONTINUOUS
 62
     7
  5
8A
  2
$X9
 70
     0
 10
0.0
 20
0.0
 30
0.0
  3
$N9
  0
LINE
  8
1
  6
CONTINUOUS
 62
     7
  5
8B
 10
9.9375
 20
18.960917
 30
0.0
 11
9.9375
 21
19.055417
 31
0.0
  0
LINE
  8
1
  6
CONTINUOUS
 62
     7
  5
8C
 10
9.75
 20
18.960917
 30
0.0
 11
9.75
 21
19.117083
 31
0.0
  0
LINE
  8
1
  6
CONTINUOUS
 62
     7
  5
8D
 10
9.5625
 20
18.960917
 30
0.0
 11
9.5625
 21
19.304167
 31
0.0
  0
LINE
  8
1
  6
CONTINUOUS
 62
     7
  5
8E
 10
9.375
 20
18.961083
 30
0.0
 11
9.375
 21
19.304167
 31
0.0
  0
LINE
  8
1
  6
CONTINUOUS
 62
     7
  5
8F
 10
10.125
 20
18.960917
 30
0.0
 11
10.125
 21
19.070917
 31
0.0
  0
LINE
  8
1
  6
CONTINUOUS
 62
     7
  5
90
 10
10.3125
 20
18.960917
 30
0.0
 11
10.3125
 21
19.17325
 31
0.0
  0
LINE
  8
1
  6
CONTINUOUS
 62
     7
  5
91
 10
10.5
 20
18.960917
 30
0.0
 11
10.5
 21
19.304167
 31
0.0
  0
LINE
  8
1
  6
CONTINUOUS
 62
     7
  5
92
 10
9.906167
 20
18.960917
 30
0.0
 11
9.906167
 21
19.06
 31
0.0
  0
LINE
  8
1
  6
CONTINUOUS
 62
     7
  5
93
 10
9.71875
 20
18.960917
 30
0.0
 11
9.71875
 21
19.13675
 31
0.0
  0
LINE
  8
1
  6
CONTINUOUS
 62
     7
  5
94
 10
9.531167
 20
18.960917
 30
0.0
 11
9.531167
 21
19.304167
 31
0.0
  0
LINE
  8
1
  6
CONTINUOUS
 62
     7
  5
95
 10
9.34375
 20
18.966917
 30
0.0
 11
9.34375
 21
19.304167
 31
0.0
  0
LINE
  8
1
  6
CONTINUOUS
 62
     7
  5
96
 10
10.09375
 20
18.960917
 30
0.0
 11
10.09375
 21
19.063167
 31
0.0
  0
LINE
  8
1
  6
CONTINUOUS
 62
     7
  5
97
 10
10.281167
 20
18.960917
 30
0.0
 11
10.281167
 21
19.148
 31
0.0
  0
LINE
  8
1
  6
CONTINUOUS
 62
     7
  5
98
 10
10.46875
 20
18.960917
 30
0.0
 11
10.46875
 21
19.304167
 31
0.0
  0
LINE
  8
1
  6
CONTINUOUS
 62
     7
  5
99
 10
10.656167
 20
19.003333
 30
0.0
 11
10.656167
 21
19.304167
 31
0.0
  0
LINE
  8
1
  6
CONTINUOUS
 62
     7
  5
9A
 10
9.875
 20
18.960917
 30
0.0
 11
9.875
 21
19.066667
 31
0.0
  0
LINE
  8
1
  6
CONTINUOUS
 62
     7
  5
9B
 10
9.6875
 20
18.960917
 30
0.0
 11
9.6875
 21
19.16
 31
0.0
  0
LINE
  8
1
  6
CONTINUOUS
 62
     7
  5
9C
 10
9.5
 20
18.960917
 30
0.0
 11
9.5
 21
19.304167
 31
0.0
  0
LINE
  8
1
  6
CONTINUOUS
 62
     7
  5
9D
 10
9.3125
 20
18.982083
 30
0.0
 11
9.3125
 21
19.304167
 31
0.0
  0
LINE
  8
1
  6
CONTINUOUS
 62
     7
  5
9E
 10
10.0625
 20
18.960917
 30
0.0
 11
10.0625
 21
19.0575
 31
0.0
  0
LINE
  8
1
  6
CONTINUOUS
 62
     7
  5
9F
 10
10.25
 20
18.960917
 30
0.0
 11
10.25
 21
19.126583
 31
0.0
  0
LINE
  8
1
  6
CONTINUOUS
 62
     7
  5
A0
 10
10.4375
 20
18.960917
 30
0.0
 11
10.4375
 21
19.304167
 31
0.0
  0
LINE
  8
1
  6
CONTINUOUS
 62
     7
  5
A1
 10
10.625
 20
18.977667
 30
0.0
 11
10.625
 21
19.304167
 31
0.0
  0
LINE
  8
1
  6
CONTINUOUS
 62
     7
  5
A2
 10
9.8125
 20
19.062583
 30
0.0
 11
9.8125
 21
19.086833
 31
0.0
  0
LINE
  8
1
  6
CONTINUOUS
 62
     7
  5
A3
 10
9.625
 20
19.062583
 30
0.0
 11
9.625
 21
19.220417
 31
0.0
  0
LINE
  8
1
  6
CONTINUOUS
 62
     7
  5
A4
 10
9.4375
 20
19.062583
 30
0.0
 11
9.4375
 21
19.25
 31
0.0
  0
LINE
  8
1
  6
CONTINUOUS
 62
     7
  5
A5
 10
10.1875
 20
19.062583
 30
0.0
 11
10.1875
 21
19.0935
 31
0.0
  0
LINE
  8
1
  6
CONTINUOUS
 62
     7
  5
A6
 10
10.375
 20
19.062583
 30
0.0
 11
10.375
 21
19.239667
 31
0.0
  0
LINE
  8
1
  6
CONTINUOUS
 62
     7
  5
A7
 10
10.5625
 20
19.062583
 30
0.0
 11
10.5625
 21
19.25
 31
0.0
  0
ENDBLK
  8
1
  6
CONTINUOUS
 62
     7
  5
A8
  0
BLOCK
  8
1
  6
CONTINUOUS
 62
    52
  5
B1
  2
$X10
 70
     0
 10
0.0
 20
0.0
 30
0.0
  3
$N10
  0
LINE
  8
1
  6
CONTINUOUS
 62
    52
  5
B2
 10
9.113417
 20
18.924583
 30
0.0
 11
9.148083
 21
18.959333
 31
0.0
  0
LINE
  8
1
  6
CONTINUOUS
 62
    52
  5
B3
 10
10.98975
 20
20.800833
 30
0.0
 11
11.004333
 21
20.8155
 31
0.0
  0
LINE
  8
1
  6
CONTINUOUS
 62
    52
  5
B4
 10
10.71675
 20
20.527917
 30
0.0
 11
10.739167
 21
20.550333
 31
0.0
  0
LINE
  8
1
  6
CONTINUOUS
 62
    52
  5
B5
 10
9.106417
 20
19.182667
 30
0.0
 11
9.148083
 21
19.2245
 31
0.0
  0
LINE
  8
1
  6
CONTINUOUS
 62
    52
  5
B6
 10
10.71675
 20
20.793083
 30
0.0
 11
10.739167
 21
20.8155
 31
0.0
  0
LINE
  8
1
  6
CONTINUOUS
 62
    52
  5
B7
 10
9.106417
 20
19.447833
 30
0.0
 11
9.148083
 21
19.489667
 31
0.0
  0
LINE
  8
1
  6
CONTINUOUS
 62
    52
  5
B8
 10
9.106417
 20
19.713
 30
0.0
 11
9.148083
 21
19.754833
 31
0.0
  0
LINE
  8
1
  6
CONTINUOUS
 62
    52
  5
B9
 10
9.106417
 20
19.978167
 30
0.0
 11
9.148083
 21
20.02
 31
0.0
  0
LINE
  8
1
  6
CONTINUOUS
 62
    52
  5
BA
 10
9.106417
 20
20.243333
 30
0.0
 11
9.148083
 21
20.28525
 31
0.0
  0
LINE
  8
1
  6
CONTINUOUS
 62
    52
  5
BB
 10
9.106417
 20
20.5085
 30
0.0
 11
9.148083
 21
20.550333
 31
0.0
  0
LINE
  8
1
  6
CONTINUOUS
 62
    52
  5
BC
 10
9.106417
 20
20.773667
 30
0.0
 11
9.148083
 21
20.8155
 31
0.0
  0
LINE
  8
1
  6
CONTINUOUS
 62
    52
  5
BD
 10
8.845333
 20
20.77775
 30
0.0
 11
8.883
 21
20.8155
 31
0.0
  0
LINE
  8
1
  6
CONTINUOUS
 62
    52
  5
BE
 10
9.295167
 20
18.841167
 30
0.0
 11
9.403167
 21
18.949167
 31
0.0
  0
LINE
  8
1
  6
CONTINUOUS
 62
    52
  5
BF
 10
11.254833
 20
20.800833
 30
0.0
 11
11.2695
 21
20.8155
 31
0.0
  0
LINE
  8
1
  6
CONTINUOUS
 62
    52
  5
C0
 10
10.71675
 20
20.26275
 30
0.0
 11
10.739167
 21
20.28525
 31
0.0
  0
LINE
  8
1
  6
CONTINUOUS
 62
    52
  5
C1
 10
9.56025
 20
18.841167
 30
0.0
 11
9.668333
 21
18.949167
 31
0.0
  0
LINE
  8
1
  6
CONTINUOUS
 62
    52
  5
C2
 10
10.71675
 20
19.997667
 30
0.0
 11
10.739167
 21
20.02
 31
0.0
  0
LINE
  8
1
  6
CONTINUOUS
 62
    52
  5
C3
 10
9.8255
 20
18.841167
 30
0.0
 11
9.9335
 21
18.949167
 31
0.0
  0
LINE
  8
1
  6
CONTINUOUS
 62
    52
  5
C4
 10
10.71675
 20
19.732417
 30
0.0
 11
10.739167
 21
19.754833
 31
0.0
  0
LINE
  8
1
  6
CONTINUOUS
 62
    52
  5
C5
 10
10.090583
 20
18.841167
 30
0.0
 11
10.198667
 21
18.949167
 31
0.0
  0
LINE
  8
1
  6
CONTINUOUS
 62
    52
  5
C6
 10
10.71675
 20
19.46725
 30
0.0
 11
10.739167
 21
19.489667
 31
0.0
  0
LINE
  8
1
  6
CONTINUOUS
 62
    52
  5
C7
 10
10.355833
 20
18.841167
 30
0.0
 11
10.463917
 21
18.949167
 31
0.0
  0
LINE
  8
1
  6
CONTINUOUS
 62
    52
  5
C8
 10
10.68
 20
19.165333
 30
0.0
 11
10.739167
 21
19.2245
 31
0.0
  0
LINE
  8
1
  6
CONTINUOUS
 62
    52
  5
C9
 10
10.620917
 20
18.841167
 30
0.0
 11
10.739167
 21
18.959333
 31
0.0
  0
LINE
  8
1
  6
CONTINUOUS
 62
    52
  5
CA
 10
9.231
 20
18.876417
 30
0.0
 11
9.318833
 21
18.964167
 31
0.0
  0
LINE
  8
1
  6
CONTINUOUS
 62
    52
  5
CB
 10
11.155417
 20
20.800833
 30
0.0
 11
11.21975
 21
20.86525
 31
0.0
  0
LINE
  8
1
  6
CONTINUOUS
 62
    52
  5
CC
 10
10.822
 20
20.4675
 30
0.0
 11
10.834417
 21
20.479917
 31
0.0
  0
LINE
  8
1
  6
CONTINUOUS
 62
    52
  5
CD
 10
9.231
 20
19.141667
 30
0.0
 11
9.253417
 21
19.164
 31
0.0
  0
LINE
  8
1
  6
CONTINUOUS
 62
    52
  5
CE
 10
10.89025
 20
20.800833
 30
0.0
 11
10.9545
 21
20.86525
 31
0.0
  0
LINE
  8
1
  6
CONTINUOUS
 62
    52
  5
CF
 10
10.822
 20
20.732667
 30
0.0
 11
10.834417
 21
20.745
 31
0.0
  0
LINE
  8
1
  6
CONTINUOUS
 62
    52
  5
D0
 10
9.010917
 20
20.77775
 30
0.0
 11
9.098417
 21
20.86525
 31
0.0
  0
LINE
  8
1
  6
CONTINUOUS
 62
    52
  5
D1
 10
8.74575
 20
20.77775
 30
0.0
 11
8.83325
 21
20.86525
 31
0.0
  0
LINE
  8
1
  6
CONTINUOUS
 62
    52
  5
D2
 10
9.496167
 20
18.876417
 30
0.0
 11
9.568917
 21
18.949167
 31
0.0
  0
LINE
  8
1
  6
CONTINUOUS
 62
    52
  5
D3
 10
10.822
 20
20.202333
 30
0.0
 11
10.834417
 21
20.214667
 31
0.0
  0
LINE
  8
1
  6
CONTINUOUS
 62
    52
  5
D4
 10
9.761333
 20
18.876417
 30
0.0
 11
9.834167
 21
18.949167
 31
0.0
  0
LINE
  8
1
  6
CONTINUOUS
 62
    52
  5
D5
 10
10.822
 20
19.937167
 30
0.0
 11
10.834417
 21
19.949583
 31
0.0
  0
LINE
  8
1
  6
CONTINUOUS
 62
    52
  5
D6
 10
10.0265
 20
18.876417
 30
0.0
 11
10.09925
 21
18.949167
 31
0.0
  0
LINE
  8
1
  6
CONTINUOUS
 62
    52
  5
D7
 10
10.822
 20
19.672
 30
0.0
 11
10.834417
 21
19.684417
 31
0.0
  0
LINE
  8
1
  6
CONTINUOUS
 62
    52
  5
D8
 10
10.291667
 20
18.876417
 30
0.0
 11
10.364417
 21
18.949167
 31
0.0
  0
LINE
  8
1
  6
CONTINUOUS
 62
    52
  5
D9
 10
10.822
 20
19.406833
 30
0.0
 11
10.834417
 21
19.41925
 31
0.0
  0
LINE
  8
1
  6
CONTINUOUS
 62
    52
  5
DA
 10
10.68
 20
19.26475
 30
0.0
 11
10.689417
 21
19.27425
 31
0.0
  0
LINE
  8
1
  6
CONTINUOUS
 62
    52
  5
DB
 10
10.556833
 20
18.876417
 30
0.0
 11
10.689417
 21
19.009083
 31
0.0
  0
LINE
  8
1
  6
CONTINUOUS
 62
    52
  5
DC
 10
10.822
 20
19.141667
 30
0.0
 11
10.834417
 21
19.154083
 31
0.0
  0
LINE
  8
1
  6
CONTINUOUS
 62
    52
  5
DD
 10
9.181333
 20
18.926167
 30
0.0
 11
9.268833
 21
19.013833
 31
0.0
  0
LINE
  8
1
  6
CONTINUOUS
 62
    52
  5
DE
 10
11.056
 20
20.800833
 30
0.0
 11
11.148583
 21
20.8935
 31
0.0
  0
LINE
  8
1
  6
CONTINUOUS
 62
    52
  5
DF
 10
10.77225
 20
20.51725
 30
0.0
 11
10.834417
 21
20.579333
 31
0.0
  0
LINE
  8
1
  6
CONTINUOUS
 62
    52
  5
E0
 10
9.181333
 20
19.191333
 30
0.0
 11
9.253417
 21
19.263417
 31
0.0
  0
LINE
  8
1
  6
CONTINUOUS
 62
    52
  5
E1
 10
10.77225
 20
20.78225
 30
0.0
 11
10.883417
 21
20.8935
 31
0.0
  0
LINE
  8
1
  6
CONTINUOUS
 62
    52
  5
E2
 10
9.181333
 20
19.456417
 30
0.0
 11
9.216583
 21
19.491833
 31
0.0
  0
LINE
  8
1
  6
CONTINUOUS
 62
    52
  5
E3
 10
9.181333
 20
19.721667
 30
0.0
 11
9.216583
 21
19.757
 31
0.0
  0
LINE
  8
1
  6
CONTINUOUS
 62
    52
  5
E4
 10
9.181333
 20
19.986917
 30
0.0
 11
9.216583
 21
20.022167
 31
0.0
  0
LINE
  8
1
  6
CONTINUOUS
 62
    52
  5
E5
 10
9.181333
 20
20.251917
 30
0.0
 11
9.216583
 21
20.287333
 31
0.0
  0
LINE
  8
1
  6
CONTINUOUS
 62
    52
  5
E6
 10
9.181333
 20
20.51725
 30
0.0
 11
9.216583
 21
20.5525
 31
0.0
  0
LINE
  8
1
  6
CONTINUOUS
 62
    52
  5
E7
 10
9.181333
 20
20.78225
 30
0.0
 11
9.216583
 21
20.817667
 31
0.0
  0
LINE
  8
1
  6
CONTINUOUS
 62
    52
  5
E8
 10
8.916167
 20
20.78225
 30
0.0
 11
9.02725
 21
20.8935
 31
0.0
  0
LINE
  8
1
  6
CONTINUOUS
 62
    52
  5
E9
 10
8.687167
 20
20.8185
 30
0.0
 11
8.762
 21
20.8935
 31
0.0
  0
LINE
  8
1
  6
CONTINUOUS
 62
    52
  5
EA
 10
9.446417
 20
18.926167
 30
0.0
 11
9.469417
 21
18.949167
 31
0.0
  0
LINE
  8
1
  6
CONTINUOUS
 62
    52
  5
EB
 10
10.77225
 20
20.251917
 30
0.0
 11
10.834417
 21
20.314083
 31
0.0
  0
LINE
  8
1
  6
CONTINUOUS
 62
    52
  5
EC
 10
9.711667
 20
18.926167
 30
0.0
 11
9.734583
 21
18.949167
 31
0.0
  0
LINE
  8
1
  6
CONTINUOUS
 62
    52
  5
ED
 10
10.77225
 20
19.986917
 30
0.0
 11
10.834417
 21
20.049
 31
0.0
  0
LINE
  8
1
  6
CONTINUOUS
 62
    52
  5
EE
 10
9.97675
 20
18.926167
 30
0.0
 11
9.99975
 21
18.949167
 31
0.0
  0
LINE
  8
1
  6
CONTINUOUS
 62
    52
  5
EF
 10
10.77225
 20
19.721667
 30
0.0
 11
10.834417
 21
19.783833
 31
0.0
  0
LINE
  8
1
  6
CONTINUOUS
 62
    52
  5
F0
 10
10.242
 20
18.926167
 30
0.0
 11
10.264917
 21
18.949167
 31
0.0
  0
LINE
  8
1
  6
CONTINUOUS
 62
    52
  5
F1
 10
10.77225
 20
19.456417
 30
0.0
 11
10.834417
 21
19.518667
 31
0.0
  0
LINE
  8
1
  6
CONTINUOUS
 62
    52
  5
F2
 10
10.507
 20
18.926167
 30
0.0
 11
10.530083
 21
18.949167
 31
0.0
  0
LINE
  8
1
  6
CONTINUOUS
 62
    52
  5
F3
 10
10.77225
 20
19.191333
 30
0.0
 11
10.834417
 21
19.2535
 31
0.0
  0
LINE
  8
1
  6
CONTINUOUS
 62
    52
  5
F4
 10
10.77225
 20
18.926167
 30
0.0
 11
10.834417
 21
18.988333
 31
0.0
  0
LINE
  8
1
  6
CONTINUOUS
 62
    52
  5
F5
 10
10.77225
 20
18.959333
 30
0.0
 11
10.67825
 21
19.053417
 31
0.0
  0
LINE
  8
1
  6
CONTINUOUS
 62
    52
  5
F6
 10
8.916167
 20
20.8155
 30
0.0
 11
8.838167
 21
20.8935
 31
0.0
  0
LINE
  8
1
  6
CONTINUOUS
 62
    52
  5
F7
 10
9.181333
 20
20.550333
 30
0.0
 11
9.106417
 21
20.625333
 31
0.0
  0
LINE
  8
1
  6
CONTINUOUS
 62
    52
  5
F8
 10
9.181333
 20
20.28525
 30
0.0
 11
9.106417
 21
20.360167
 31
0.0
  0
LINE
  8
1
  6
CONTINUOUS
 62
    52
  5
F9
 10
9.181333
 20
20.02
 30
0.0
 11
9.106417
 21
20.095
 31
0.0
  0
LINE
  8
1
  6
CONTINUOUS
 62
    52
  5
FA
 10
9.181333
 20
19.754833
 30
0.0
 11
9.106417
 21
19.829833
 31
0.0
  0
LINE
  8
1
  6
CONTINUOUS
 62
    52
  5
FB
 10
9.181333
 20
19.754833
 30
0.0
 11
9.106417
 21
19.829833
 31
0.0
  0
LINE
  8
1
  6
CONTINUOUS
 62
    52
  5
FC
 10
9.181333
 20
19.489667
 30
0.0
 11
9.106417
 21
19.564667
 31
0.0
  0
LINE
  8
1
  6
CONTINUOUS
 62
    52
  5
FD
 10
9.181333
 20
19.2245
 30
0.0
 11
9.106417
 21
19.2995
 31
0.0
  0
LINE
  8
1
  6
CONTINUOUS
 62
    52
  5
FE
 10
9.181333
 20
18.959333
 30
0.0
 11
9.106417
 21
19.034333
 31
0.0
  0
LINE
  8
1
  6
CONTINUOUS
 62
    52
  5
FF
 10
10.77225
 20
19.2245
 30
0.0
 11
10.700417
 21
19.296333
 31
0.0
  0
LINE
  8
1
  6
CONTINUOUS
 62
    52
  5
100
 10
9.181333
 20
20.8155
 30
0.0
 11
9.103333
 21
20.8935
 31
0.0
  0
LINE
  8
1
  6
CONTINUOUS
 62
    52
  5
101
 10
10.77225
 20
19.489667
 30
0.0
 11
10.71675
 21
19.545167
 31
0.0
  0
LINE
  8
1
  6
CONTINUOUS
 62
    52
  5
102
 10
10.77225
 20
19.754833
 30
0.0
 11
10.71675
 21
19.810333
 31
0.0
  0
LINE
  8
1
  6
CONTINUOUS
 62
    52
  5
103
 10
10.77225
 20
20.02
 30
0.0
 11
10.71675
 21
20.0755
 31
0.0
  0
LINE
  8
1
  6
CONTINUOUS
 62
    52
  5
104
 10
10.77225
 20
20.28525
 30
0.0
 11
10.71675
 21
20.340667
 31
0.0
  0
LINE
  8
1
  6
CONTINUOUS
 62
    52
  5
105
 10
10.77225
 20
20.550333
 30
0.0
 11
10.71675
 21
20.60575
 31
0.0
  0
LINE
  8
1
  6
CONTINUOUS
 62
    52
  5
106
 10
10.77225
 20
20.8155
 30
0.0
 11
10.71675
 21
20.871
 31
0.0
  0
LINE
  8
1
  6
CONTINUOUS
 62
    52
  5
107
 10
11.037417
 20
20.8155
 30
0.0
 11
10.959417
 21
20.8935
 31
0.0
  0
LINE
  8
1
  6
CONTINUOUS
 62
    52
  5
108
 10
11.302583
 20
20.8155
 30
0.0
 11
11.224667
 21
20.8935
 31
0.0
  0
LINE
  8
1
  6
CONTINUOUS
 62
    52
  5
109
 10
10.822
 20
19.009083
 30
0.0
 11
10.689417
 21
19.141667
 31
0.0
  0
LINE
  8
1
  6
CONTINUOUS
 62
    52
  5
10A
 10
8.965833
 20
20.86525
 30
0.0
 11
8.937583
 21
20.8935
 31
0.0
  0
LINE
  8
1
  6
CONTINUOUS
 62
    52
  5
10B
 10
9.216583
 20
20.614417
 30
0.0
 11
9.106417
 21
20.72475
 31
0.0
  0
LINE
  8
1
  6
CONTINUOUS
 62
    52
  5
10C
 10
10.723917
 20
18.842
 30
0.0
 11
10.689417
 21
18.876417
 31
0.0
  0
LINE
  8
1
  6
CONTINUOUS
 62
    52
  5
10D
 10
8.700667
 20
20.86525
 30
0.0
 11
8.687167
 21
20.87875
 31
0.0
  0
LINE
  8
1
  6
CONTINUOUS
 62
    52
  5
10E
 10
9.216583
 20
20.34925
 30
0.0
 11
9.106417
 21
20.459583
 31
0.0
  0
LINE
  8
1
  6
CONTINUOUS
 62
    52
  5
10F
 10
10.459583
 20
18.841167
 30
0.0
 11
10.424167
 21
18.876417
 31
0.0
  0
LINE
  8
1
  6
CONTINUOUS
 62
    52
  5
110
 10
9.216583
 20
20.084083
 30
0.0
 11
9.106417
 21
20.194417
 31
0.0
  0
LINE
  8
1
  6
CONTINUOUS
 62
    52
  5
111
 10
10.194417
 20
18.841167
 30
0.0
 11
10.159167
 21
18.876417
 31
0.0
  0
LINE
  8
1
  6
CONTINUOUS
 62
    52
  5
112
 10
9.216583
 20
19.818917
 30
0.0
 11
9.106417
 21
19.929167
 31
0.0
  0
LINE
  8
1
  6
CONTINUOUS
 62
    52
  5
113
 10
9.92925
 20
18.841167
 30
0.0
 11
9.893833
 21
18.876417
 31
0.0
  0
LINE
  8
1
  6
CONTINUOUS
 62
    52
  5
114
 10
9.216583
 20
19.553833
 30
0.0
 11
9.106417
 21
19.664083
 31
0.0
  0
LINE
  8
1
  6
CONTINUOUS
 62
    52
  5
115
 10
9.664083
 20
18.841167
 30
0.0
 11
9.628667
 21
18.876417
 31
0.0
  0
LINE
  8
1
  6
CONTINUOUS
 62
    52
  5
116
 10
9.231
 20
19.27425
 30
0.0
 11
9.106417
 21
19.398833
 31
0.0
  0
LINE
  8
1
  6
CONTINUOUS
 62
    52
  5
117
 10
9.398917
 20
18.841167
 30
0.0
 11
9.363583
 21
18.876417
 31
0.0
  0
LINE
  8
1
  6
CONTINUOUS
 62
    52
  5
118
 10
9.231
 20
19.009083
 30
0.0
 11
9.106417
 21
19.13375
 31
0.0
  0
LINE
  8
1
  6
CONTINUOUS
 62
    52
  5
119
 10
10.822
 20
19.27425
 30
0.0
 11
10.71675
 21
19.379417
 31
0.0
  0
LINE
  8
1
  6
CONTINUOUS
 62
    52
  5
11A
 10
9.216583
 20
20.879667
 30
0.0
 11
9.202833
 21
20.8935
 31
0.0
  0
LINE
  8
1
  6
CONTINUOUS
 62
    52
  5
11B
 10
10.822
 20
19.539417
 30
0.0
 11
10.71675
 21
19.644667
 31
0.0
  0
LINE
  8
1
  6
CONTINUOUS
 62
    52
  5
11C
 10
10.822
 20
19.804667
 30
0.0
 11
10.71675
 21
19.90975
 31
0.0
  0
LINE
  8
1
  6
CONTINUOUS
 62
    52
  5
11D
 10
10.822
 20
20.06975
 30
0.0
 11
10.71675
 21
20.175
 31
0.0
  0
LINE
  8
1
  6
CONTINUOUS
 62
    52
  5
11E
 10
10.822
 20
20.334917
 30
0.0
 11
10.71675
 21
20.440167
 31
0.0
  0
LINE
  8
1
  6
CONTINUOUS
 62
    52
  5
11F
 10
10.822
 20
20.600083
 30
0.0
 11
10.71675
 21
20.705333
 31
0.0
  0
LINE
  8
1
  6
CONTINUOUS
 62
    52
  5
120
 10
10.822
 20
20.86525
 30
0.0
 11
10.79375
 21
20.8935
 31
0.0
  0
LINE
  8
1
  6
CONTINUOUS
 62
    52
  5
121
 10
11.087167
 20
20.86525
 30
0.0
 11
11.058917
 21
20.8935
 31
0.0
  0
LINE
  8
1
  6
CONTINUOUS
 62
    52
  5
122
 10
10.7925
 20
18.872833
 30
0.0
 11
10.739167
 21
18.926167
 31
0.0
  0
LINE
  8
1
  6
CONTINUOUS
 62
    52
  5
123
 10
8.887583
 20
20.77775
 30
0.0
 11
8.883
 21
20.78225
 31
0.0
  0
LINE
  8
1
  6
CONTINUOUS
 62
    52
  5
124
 10
9.216583
 20
20.44875
 30
0.0
 11
9.148083
 21
20.51725
 31
0.0
  0
LINE
  8
1
  6
CONTINUOUS
 62
    52
  5
125
 10
10.559
 20
18.841167
 30
0.0
 11
10.474
 21
18.926167
 31
0.0
  0
LINE
  8
1
  6
CONTINUOUS
 62
    52
  5
126
 10
9.216583
 20
20.183583
 30
0.0
 11
9.148083
 21
20.251917
 31
0.0
  0
LINE
  8
1
  6
CONTINUOUS
 62
    52
  5
127
 10
10.293833
 20
18.841167
 30
0.0
 11
10.208833
 21
18.926167
 31
0.0
  0
LINE
  8
1
  6
CONTINUOUS
 62
    52
  5
128
 10
9.216583
 20
19.918333
 30
0.0
 11
9.148083
 21
19.986917
 31
0.0
  0
LINE
  8
1
  6
CONTINUOUS
 62
    52
  5
129
 10
10.028667
 20
18.841167
 30
0.0
 11
9.943667
 21
18.926167
 31
0.0
  0
LINE
  8
1
  6
CONTINUOUS
 62
    52
  5
12A
 10
9.216583
 20
19.65325
 30
0.0
 11
9.148083
 21
19.721667
 31
0.0
  0
LINE
  8
1
  6
CONTINUOUS
 62
    52
  5
12B
 10
9.763417
 20
18.841167
 30
0.0
 11
9.678417
 21
18.926167
 31
0.0
  0
LINE
  8
1
  6
CONTINUOUS
 62
    52
  5
12C
 10
9.216583
 20
19.388
 30
0.0
 11
9.148083
 21
19.456417
 31
0.0
  0
LINE
  8
1
  6
CONTINUOUS
 62
    52
  5
12D
 10
9.498333
 20
18.841167
 30
0.0
 11
9.413333
 21
18.926167
 31
0.0
  0
LINE
  8
1
  6
CONTINUOUS
 62
    52
  5
12E
 10
9.253417
 20
19.086167
 30
0.0
 11
9.148083
 21
19.191333
 31
0.0
  0
LINE
  8
1
  6
CONTINUOUS
 62
    52
  5
12F
 10
9.233083
 20
18.841167
 30
0.0
 11
9.148083
 21
18.926167
 31
0.0
  0
LINE
  8
1
  6
CONTINUOUS
 62
    52
  5
130
 10
10.834417
 20
19.096083
 30
0.0
 11
10.739167
 21
19.191333
 31
0.0
  0
LINE
  8
1
  6
CONTINUOUS
 62
    52
  5
131
 10
9.216583
 20
20.713917
 30
0.0
 11
9.148083
 21
20.78225
 31
0.0
  0
LINE
  8
1
  6
CONTINUOUS
 62
    52
  5
132
 10
10.834417
 20
19.36125
 30
0.0
 11
10.739167
 21
19.456417
 31
0.0
  0
LINE
  8
1
  6
CONTINUOUS
 62
    52
  5
133
 10
10.834417
 20
19.626417
 30
0.0
 11
10.739167
 21
19.721667
 31
0.0
  0
LINE
  8
1
  6
CONTINUOUS
 62
    52
  5
134
 10
10.834417
 20
19.891583
 30
0.0
 11
10.739167
 21
19.986917
 31
0.0
  0
LINE
  8
1
  6
CONTINUOUS
 62
    52
  5
135
 10
10.834417
 20
20.15675
 30
0.0
 11
10.739167
 21
20.251917
 31
0.0
  0
LINE
  8
1
  6
CONTINUOUS
 62
    52
  5
136
 10
10.834417
 20
20.421917
 30
0.0
 11
10.739167
 21
20.51725
 31
0.0
  0
LINE
  8
1
  6
CONTINUOUS
 62
    52
  5
137
 10
10.834417
 20
20.687083
 30
0.0
 11
10.739167
 21
20.78225
 31
0.0
  0
ENDBLK
  8
1
  6
CONTINUOUS
 62
    52
  5
138
  0
BLOCK
  8
1
  6
CONTINUOUS
 62
    52
  5
1C8
  2
$X16
 70
     0
 10
0.0
 20
0.0
 30
0.0
  3
$N16
  0
LINE
  8
1
  6
CONTINUOUS
 62
    52
  5
1C9
 10
13.910167
 20
19.213417
 30
0.0
 11
13.921083
 21
19.224333
 31
0.0
  0
LINE
  8
1
  6
CONTINUOUS
 62
    52
  5
1CA
 10
13.645
 20
19.213417
 30
0.0
 11
13.656
 21
19.224333
 31
0.0
  0
LINE
  8
1
  6
CONTINUOUS
 62
    52
  5
1CB
 10
13.37975
 20
19.213417
 30
0.0
 11
13.390833
 21
19.224333
 31
0.0
  0
LINE
  8
1
  6
CONTINUOUS
 62
    52
  5
1CC
 10
13.114583
 20
19.213417
 30
0.0
 11
13.125583
 21
19.224333
 31
0.0
  0
LINE
  8
1
  6
CONTINUOUS
 62
    52
  5
1CD
 10
13.109833
 20
19.473667
 30
0.0
 11
13.125583
 21
19.489583
 31
0.0
  0
LINE
  8
1
  6
CONTINUOUS
 62
    52
  5
1CE
 10
13.109833
 20
19.738833
 30
0.0
 11
13.125583
 21
19.754667
 31
0.0
  0
LINE
  8
1
  6
CONTINUOUS
 62
    52
  5
1CF
 10
13.109833
 20
20.004
 30
0.0
 11
13.125583
 21
20.019833
 31
0.0
  0
LINE
  8
1
  6
CONTINUOUS
 62
    52
  5
1D0
 10
13.109833
 20
20.269167
 30
0.0
 11
13.125583
 21
20.285
 31
0.0
  0
LINE
  8
1
  6
CONTINUOUS
 62
    52
  5
1D1
 10
13.109833
 20
20.534333
 30
0.0
 11
13.125583
 21
20.55025
 31
0.0
  0
LINE
  8
1
  6
CONTINUOUS
 62
    52
  5
1D2
 10
13.109833
 20
20.7995
 30
0.0
 11
13.125583
 21
20.815333
 31
0.0
  0
LINE
  8
1
  6
CONTINUOUS
 62
    52
  5
1D3
 10
12.993083
 20
20.947833
 30
0.0
 11
12.996667
 21
20.9515
 31
0.0
  0
LINE
  8
1
  6
CONTINUOUS
 62
    52
  5
1D4
 10
14.175333
 20
19.213417
 30
0.0
 11
14.18625
 21
19.224333
 31
0.0
  0
LINE
  8
1
  6
CONTINUOUS
 62
    52
  5
1D5
 10
14.34775
 20
19.120667
 30
0.0
 11
14.416083
 21
19.189
 31
0.0
  0
LINE
  8
1
  6
CONTINUOUS
 62
    52
  5
1D6
 10
16.041083
 20
20.814
 30
0.0
 11
16.042333
 21
20.815333
 31
0.0
  0
LINE
  8
1
  6
CONTINUOUS
 62
    52
  5
1D7
 10
16.175
 20
20.947833
 30
0.0
 11
16.22525
 21
20.998167
 31
0.0
  0
LINE
  8
1
  6
CONTINUOUS
 62
    52
  5
1D8
 10
14.583917
 20
19.09175
 30
0.0
 11
14.616667
 21
19.1245
 31
0.0
  0
LINE
  8
1
  6
CONTINUOUS
 62
    52
  5
1D9
 10
16.041083
 20
20.548833
 30
0.0
 11
16.042333
 21
20.55025
 31
0.0
  0
LINE
  8
1
  6
CONTINUOUS
 62
    52
  5
1DA
 10
14.849083
 20
19.09175
 30
0.0
 11
14.981667
 21
19.224333
 31
0.0
  0
LINE
  8
1
  6
CONTINUOUS
 62
    52
  5
1DB
 10
16.041083
 20
20.283667
 30
0.0
 11
16.042333
 21
20.285
 31
0.0
  0
LINE
  8
1
  6
CONTINUOUS
 62
    52
  5
1DC
 10
15.236
 20
19.213417
 30
0.0
 11
15.246917
 21
19.224333
 31
0.0
  0
LINE
  8
1
  6
CONTINUOUS
 62
    52
  5
1DD
 10
16.041083
 20
20.0185
 30
0.0
 11
16.042333
 21
20.019833
 31
0.0
  0
LINE
  8
1
  6
CONTINUOUS
 62
    52
  5
1DE
 10
15.501167
 20
19.213417
 30
0.0
 11
15.512083
 21
19.224333
 31
0.0
  0
LINE
  8
1
  6
CONTINUOUS
 62
    52
  5
1DF
 10
16.041083
 20
19.753333
 30
0.0
 11
16.042333
 21
19.754667
 31
0.0
  0
LINE
  8
1
  6
CONTINUOUS
 62
    52
  5
1E0
 10
15.76625
 20
19.213417
 30
0.0
 11
15.777167
 21
19.224333
 31
0.0
  0
LINE
  8
1
  6
CONTINUOUS
 62
    52
  5
1E1
 10
16.041083
 20
19.488167
 30
0.0
 11
16.042333
 21
19.489583
 31
0.0
  0
LINE
  8
1
  6
CONTINUOUS
 62
    52
  5
1E2
 10
16.0315
 20
19.213417
 30
0.0
 11
16.042333
 21
19.224333
 31
0.0
  0
LINE
  8
1
  6
CONTINUOUS
 62
    52
  5
1E3
 10
13.81075
 20
19.213417
 30
0.0
 11
13.871417
 21
19.274083
 31
0.0
  0
LINE
  8
1
  6
CONTINUOUS
 62
    52
  5
1E4
 10
13.545583
 20
19.213417
 30
0.0
 11
13.60625
 21
19.274083
 31
0.0
  0
LINE
  8
1
  6
CONTINUOUS
 62
    52
  5
1E5
 10
13.280417
 20
19.213417
 30
0.0
 11
13.341083
 21
19.274083
 31
0.0
  0
LINE
  8
1
  6
CONTINUOUS
 62
    52
  5
1E6
 10
13.028583
 20
20.817833
 30
0.0
 11
13.075917
 21
20.865083
 31
0.0
  0
LINE
  8
1
  6
CONTINUOUS
 62
    52
  5
1E7
 10
14.075917
 20
19.213417
 30
0.0
 11
14.136583
 21
19.274083
 31
0.0
  0
LINE
  8
1
  6
CONTINUOUS
 62
    52
  5
1E8
 10
14.290167
 20
19.1625
 30
0.0
 11
14.357167
 21
19.2295
 31
0.0
  0
LINE
  8
1
  6
CONTINUOUS
 62
    52
  5
1E9
 10
16.125333
 20
20.997667
 30
0.0
 11
16.133333
 21
21.00575
 31
0.0
  0
LINE
  8
1
  6
CONTINUOUS
 62
    52
  5
1EA
 10
16.244083
 20
20.85125
 30
0.0
 11
16.257917
 21
20.865083
 31
0.0
  0
LINE
  8
1
  6
CONTINUOUS
 62
    52
  5
1EB
 10
16.125333
 20
20.7325
 30
0.0
 11
16.142
 21
20.749167
 31
0.0
  0
LINE
  8
1
  6
CONTINUOUS
 62
    52
  5
1EC
 10
14.799417
 20
19.1415
 30
0.0
 11
14.79975
 21
19.14175
 31
0.0
  0
LINE
  8
1
  6
CONTINUOUS
 62
    52
  5
1ED
 10
16.125333
 20
20.467333
 30
0.0
 11
16.142
 21
20.484
 31
0.0
  0
LINE
  8
1
  6
CONTINUOUS
 62
    52
  5
1EE
 10
15.136583
 20
19.213417
 30
0.0
 11
15.19725
 21
19.274083
 31
0.0
  0
LINE
  8
1
  6
CONTINUOUS
 62
    52
  5
1EF
 10
16.125333
 20
20.202167
 30
0.0
 11
16.142
 21
20.218833
 31
0.0
  0
LINE
  8
1
  6
CONTINUOUS
 62
    52
  5
1F0
 10
15.401667
 20
19.213417
 30
0.0
 11
15.462333
 21
19.274083
 31
0.0
  0
LINE
  8
1
  6
CONTINUOUS
 62
    52
  5
1F1
 10
16.125333
 20
19.937
 30
0.0
 11
16.142
 21
19.953667
 31
0.0
  0
LINE
  8
1
  6
CONTINUOUS
 62
    52
  5
1F2
 10
15.666917
 20
19.213417
 30
0.0
 11
15.7275
 21
19.274083
 31
0.0
  0
LINE
  8
1
  6
CONTINUOUS
 62
    52
  5
1F3
 10
16.125333
 20
19.671833
 30
0.0
 11
16.142
 21
19.6885
 31
0.0
  0
LINE
  8
1
  6
CONTINUOUS
 62
    52
  5
1F4
 10
15.932083
 20
19.213417
 30
0.0
 11
15.99275
 21
19.274083
 31
0.0
  0
LINE
  8
1
  6
CONTINUOUS
 62
    52
  5
1F5
 10
16.125333
 20
19.406667
 30
0.0
 11
16.142
 21
19.423333
 31
0.0
  0
LINE
  8
1
  6
CONTINUOUS
 62
    52
  5
1F6
 10
13.9765
 20
19.213417
 30
0.0
 11
14.086833
 21
19.32375
 31
0.0
  0
LINE
  8
1
  6
CONTINUOUS
 62
    52
  5
1F7
 10
13.711333
 20
19.213417
 30
0.0
 11
13.821667
 21
19.32375
 31
0.0
  0
LINE
  8
1
  6
CONTINUOUS
 62
    52
  5
1F8
 10
13.446167
 20
19.213417
 30
0.0
 11
13.5565
 21
19.32375
 31
0.0
  0
LINE
  8
1
  6
CONTINUOUS
 62
    52
  5
1F9
 10
13.181
 20
19.213417
 30
0.0
 11
13.29125
 21
19.32375
 31
0.0
  0
LINE
  8
1
  6
CONTINUOUS
 62
    52
  5
1FA
 10
13.158667
 20
19.456333
 30
0.0
 11
13.205417
 21
19.503
 31
0.0
  0
LINE
  8
1
  6
CONTINUOUS
 62
    52
  5
1FB
 10
13.158667
 20
19.7215
 30
0.0
 11
13.205417
 21
19.768167
 31
0.0
  0
LINE
  8
1
  6
CONTINUOUS
 62
    52
  5
1FC
 10
13.158667
 20
19.986667
 30
0.0
 11
13.205417
 21
20.033333
 31
0.0
  0
LINE
  8
1
  6
CONTINUOUS
 62
    52
  5
1FD
 10
13.158667
 20
20.251833
 30
0.0
 11
13.205417
 21
20.2985
 31
0.0
  0
LINE
  8
1
  6
CONTINUOUS
 62
    52
  5
1FE
 10
13.158667
 20
20.517
 30
0.0
 11
13.205417
 21
20.563667
 31
0.0
  0
LINE
  8
1
  6
CONTINUOUS
 62
    52
  5
1FF
 10
13.158667
 20
20.782167
 30
0.0
 11
13.205417
 21
20.828833
 31
0.0
  0
LINE
  8
1
  6
CONTINUOUS
 62
    52
  5
200
 10
12.929167
 20
20.817833
 30
0.0
 11
13.026167
 21
20.914833
 31
0.0
  0
LINE
  8
1
  6
CONTINUOUS
 62
    52
  5
201
 10
14.238583
 20
19.210417
 30
0.0
 11
14.305333
 21
19.277333
 31
0.0
  0
LINE
  8
1
  6
CONTINUOUS
 62
    52
  5
202
 10
16.144667
 20
20.85125
 30
0.0
 11
16.208167
 21
20.914833
 31
0.0
  0
LINE
  8
1
  6
CONTINUOUS
 62
    52
  5
203
 10
16.075583
 20
20.782167
 30
0.0
 11
16.142
 21
20.848667
 31
0.0
  0
LINE
  8
1
  6
CONTINUOUS
 62
    52
  5
204
 10
14.59
 20
19.031583
 30
0.0
 11
14.617083
 21
19.058583
 31
0.0
  0
LINE
  8
1
  6
CONTINUOUS
 62
    52
  5
205
 10
16.075583
 20
20.517
 30
0.0
 11
16.142
 21
20.583583
 31
0.0
  0
LINE
  8
1
  6
CONTINUOUS
 62
    52
  5
206
 10
15.014917
 20
19.191167
 30
0.0
 11
15.1475
 21
19.32375
 31
0.0
  0
LINE
  8
1
  6
CONTINUOUS
 62
    52
  5
207
 10
16.075583
 20
20.251833
 30
0.0
 11
16.142
 21
20.318333
 31
0.0
  0
LINE
  8
1
  6
CONTINUOUS
 62
    52
  5
208
 10
15.302167
 20
19.213417
 30
0.0
 11
15.412583
 21
19.32375
 31
0.0
  0
LINE
  8
1
  6
CONTINUOUS
 62
    52
  5
209
 10
16.075583
 20
19.986667
 30
0.0
 11
16.142
 21
20.053167
 31
0.0
  0
LINE
  8
1
  6
CONTINUOUS
 62
    52
  5
20A
 10
15.567333
 20
19.213417
 30
0.0
 11
15.67775
 21
19.32375
 31
0.0
  0
LINE
  8
1
  6
CONTINUOUS
 62
    52
  5
20B
 10
16.075583
 20
19.7215
 30
0.0
 11
16.142
 21
19.788
 31
0.0
  0
LINE
  8
1
  6
CONTINUOUS
 62
    52
  5
20C
 10
15.8325
 20
19.213417
 30
0.0
 11
15.942917
 21
19.32375
 31
0.0
  0
LINE
  8
1
  6
CONTINUOUS
 62
    52
  5
20D
 10
16.075583
 20
19.456333
 30
0.0
 11
16.142
 21
19.522917
 31
0.0
  0
LINE
  8
1
  6
CONTINUOUS
 62
    52
  5
20E
 10
16.09775
 20
19.213417
 30
0.0
 11
16.142
 21
19.257667
 31
0.0
  0
LINE
  8
1
  6
CONTINUOUS
 62
    52
  5
20F
 10
15.280083
 20
19.224333
 30
0.0
 11
15.174083
 21
19.330417
 31
0.0
  0
LINE
  8
1
  6
CONTINUOUS
 62
    52
  5
210
 10
15.014917
 20
19.224333
 30
0.0
 11
14.991083
 21
19.248167
 31
0.0
  0
LINE
  8
1
  6
CONTINUOUS
 62
    52
  5
211
 10
14.901833
 20
19.072333
 30
0.0
 11
14.882333
 21
19.09175
 31
0.0
  0
LINE
  8
1
  6
CONTINUOUS
 62
    52
  5
212
 10
14.901833
 20
19.072333
 30
0.0
 11
14.882333
 21
19.09175
 31
0.0
  0
LINE
  8
1
  6
CONTINUOUS
 62
    52
  5
213
 10
13.158667
 20
20.815333
 30
0.0
 11
13.026167
 21
20.947833
 31
0.0
  0
LINE
  8
1
  6
CONTINUOUS
 62
    52
  5
214
 10
14.68275
 20
19.026167
 30
0.0
 11
14.617083
 21
19.09175
 31
0.0
  0
LINE
  8
1
  6
CONTINUOUS
 62
    52
  5
215
 10
13.158667
 20
20.55025
 30
0.0
 11
13.109833
 21
20.599167
 31
0.0
  0
LINE
  8
1
  6
CONTINUOUS
 62
    52
  5
216
 10
14.219333
 20
19.224333
 30
0.0
 11
14.113417
 21
19.330417
 31
0.0
  0
LINE
  8
1
  6
CONTINUOUS
 62
    52
  5
217
 10
13.158667
 20
20.285
 30
0.0
 11
13.109833
 21
20.334
 31
0.0
  0
LINE
  8
1
  6
CONTINUOUS
 62
    52
  5
218
 10
13.954167
 20
19.224333
 30
0.0
 11
13.84825
 21
19.330417
 31
0.0
  0
LINE
  8
1
  6
CONTINUOUS
 62
    52
  5
219
 10
13.158667
 20
20.019833
 30
0.0
 11
13.109833
 21
20.068833
 31
0.0
  0
LINE
  8
1
  6
CONTINUOUS
 62
    52
  5
21A
 10
13.689
 20
19.224333
 30
0.0
 11
13.583083
 21
19.330417
 31
0.0
  0
LINE
  8
1
  6
CONTINUOUS
 62
    52
  5
21B
 10
13.158667
 20
19.754667
 30
0.0
 11
13.109833
 21
19.803667
 31
0.0
  0
LINE
  8
1
  6
CONTINUOUS
 62
    52
  5
21C
 10
13.423833
 20
19.224333
 30
0.0
 11
13.317917
 21
19.330417
 31
0.0
  0
LINE
  8
1
  6
CONTINUOUS
 62
    52
  5
21D
 10
13.158667
 20
19.489583
 30
0.0
 11
13.109833
 21
19.5385
 31
0.0
  0
LINE
  8
1
  6
CONTINUOUS
 62
    52
  5
21E
 10
13.158667
 20
19.224333
 30
0.0
 11
13.109833
 21
19.273333
 31
0.0
  0
LINE
  8
1
  6
CONTINUOUS
 62
    52
  5
21F
 10
15.54525
 20
19.224333
 30
0.0
 11
15.439167
 21
19.330417
 31
0.0
  0
LINE
  8
1
  6
CONTINUOUS
 62
    52
  5
220
 10
15.810417
 20
19.224333
 30
0.0
 11
15.704417
 21
19.330417
 31
0.0
  0
LINE
  8
1
  6
CONTINUOUS
 62
    52
  5
221
 10
16.075583
 20
19.224333
 30
0.0
 11
15.969583
 21
19.330417
 31
0.0
  0
LINE
  8
1
  6
CONTINUOUS
 62
    52
  5
222
 10
16.075583
 20
19.489583
 30
0.0
 11
16.041083
 21
19.523917
 31
0.0
  0
LINE
  8
1
  6
CONTINUOUS
 62
    52
  5
223
 10
16.075583
 20
19.754667
 30
0.0
 11
16.041083
 21
19.789083
 31
0.0
  0
LINE
  8
1
  6
CONTINUOUS
 62
    52
  5
224
 10
16.075583
 20
20.019833
 30
0.0
 11
16.041083
 21
20.05425
 31
0.0
  0
LINE
  8
1
  6
CONTINUOUS
 62
    52
  5
225
 10
16.075583
 20
20.285
 30
0.0
 11
16.041083
 21
20.319417
 31
0.0
  0
LINE
  8
1
  6
CONTINUOUS
 62
    52
  5
226
 10
16.075583
 20
20.55025
 30
0.0
 11
16.041083
 21
20.584583
 31
0.0
  0
LINE
  8
1
  6
CONTINUOUS
 62
    52
  5
227
 10
16.075583
 20
20.815333
 30
0.0
 11
16.041083
 21
20.84975
 31
0.0
  0
LINE
  8
1
  6
CONTINUOUS
 62
    52
  5
228
 10
16.30475
 20
20.85125
 30
0.0
 11
16.208167
 21
20.947833
 31
0.0
  0
LINE
  8
1
  6
CONTINUOUS
 62
    52
  5
229
 10
15.32975
 20
19.274083
 30
0.0
 11
15.2735
 21
19.330417
 31
0.0
  0
LINE
  8
1
  6
CONTINUOUS
 62
    52
  5
22A
 10
15.064583
 20
19.274083
 30
0.0
 11
15.039833
 21
19.298833
 31
0.0
  0
LINE
  8
1
  6
CONTINUOUS
 62
    52
  5
22B
 10
14.9685
 20
19.105
 30
0.0
 11
14.932083
 21
19.1415
 31
0.0
  0
LINE
  8
1
  6
CONTINUOUS
 62
    52
  5
22C
 10
13.205417
 20
20.868167
 30
0.0
 11
13.118083
 21
20.9555
 31
0.0
  0
LINE
  8
1
  6
CONTINUOUS
 62
    52
  5
22D
 10
14.7735
 20
19.034917
 30
0.0
 11
14.6855
 21
19.122917
 31
0.0
  0
LINE
  8
1
  6
CONTINUOUS
 62
    52
  5
22E
 10
12.943333
 20
20.865083
 30
0.0
 11
12.923833
 21
20.884417
 31
0.0
  0
LINE
  8
1
  6
CONTINUOUS
 62
    52
  5
22F
 10
13.205417
 20
20.603
 30
0.0
 11
13.109833
 21
20.698583
 31
0.0
  0
LINE
  8
1
  6
CONTINUOUS
 62
    52
  5
230
 10
14.488667
 20
19.054417
 30
0.0
 11
14.401667
 21
19.1415
 31
0.0
  0
LINE
  8
1
  6
CONTINUOUS
 62
    52
  5
231
 10
14.269083
 20
19.274083
 30
0.0
 11
14.212833
 21
19.330417
 31
0.0
  0
LINE
  8
1
  6
CONTINUOUS
 62
    52
  5
232
 10
13.205417
 20
20.337833
 30
0.0
 11
13.109833
 21
20.433417
 31
0.0
  0
LINE
  8
1
  6
CONTINUOUS
 62
    52
  5
233
 10
14.004
 20
19.274083
 30
0.0
 11
13.947667
 21
19.330417
 31
0.0
  0
LINE
  8
1
  6
CONTINUOUS
 62
    52
  5
234
 10
13.205417
 20
20.072667
 30
0.0
 11
13.109833
 21
20.16825
 31
0.0
  0
LINE
  8
1
  6
CONTINUOUS
 62
    52
  5
235
 10
13.73875
 20
19.274083
 30
0.0
 11
13.6825
 21
19.330417
 31
0.0
  0
LINE
  8
1
  6
CONTINUOUS
 62
    52
  5
236
 10
13.205417
 20
19.8075
 30
0.0
 11
13.109833
 21
19.903083
 31
0.0
  0
LINE
  8
1
  6
CONTINUOUS
 62
    52
  5
237
 10
13.473583
 20
19.274083
 30
0.0
 11
13.41725
 21
19.330417
 31
0.0
  0
LINE
  8
1
  6
CONTINUOUS
 62
    52
  5
238
 10
13.205417
 20
19.542333
 30
0.0
 11
13.109833
 21
19.637917
 31
0.0
  0
LINE
  8
1
  6
CONTINUOUS
 62
    52
  5
239
 10
13.208417
 20
19.274083
 30
0.0
 11
13.109833
 21
19.37275
 31
0.0
  0
LINE
  8
1
  6
CONTINUOUS
 62
    52
  5
23A
 10
15.594917
 20
19.274083
 30
0.0
 11
15.538667
 21
19.330417
 31
0.0
  0
LINE
  8
1
  6
CONTINUOUS
 62
    52
  5
23B
 10
15.860083
 20
19.274083
 30
0.0
 11
15.80375
 21
19.330417
 31
0.0
  0
LINE
  8
1
  6
CONTINUOUS
 62
    52
  5
23C
 10
16.125333
 20
19.274083
 30
0.0
 11
16.041083
 21
19.358333
 31
0.0
  0
LINE
  8
1
  6
CONTINUOUS
 62
    52
  5
23D
 10
16.125333
 20
19.53925
 30
0.0
 11
16.041083
 21
19.623417
 31
0.0
  0
LINE
  8
1
  6
CONTINUOUS
 62
    52
  5
23E
 10
16.125333
 20
19.804417
 30
0.0
 11
16.041083
 21
19.888583
 31
0.0
  0
LINE
  8
1
  6
CONTINUOUS
 62
    52
  5
23F
 10
16.125333
 20
20.069583
 30
0.0
 11
16.041083
 21
20.15375
 31
0.0
  0
LINE
  8
1
  6
CONTINUOUS
 62
    52
  5
240
 10
16.125333
 20
20.33475
 30
0.0
 11
16.041083
 21
20.419
 31
0.0
  0
LINE
  8
1
  6
CONTINUOUS
 62
    52
  5
241
 10
16.125333
 20
20.599917
 30
0.0
 11
16.041083
 21
20.684083
 31
0.0
  0
LINE
  8
1
  6
CONTINUOUS
 62
    52
  5
242
 10
16.125333
 20
20.865083
 30
0.0
 11
16.041083
 21
20.94925
 31
0.0
  0
LINE
  8
1
  6
CONTINUOUS
 62
    52
  5
243
 10
16.338417
 20
20.917
 30
0.0
 11
16.261583
 21
20.994
 31
0.0
  0
LINE
  8
1
  6
CONTINUOUS
 62
    52
  5
244
 10
15.3795
 20
19.32375
 30
0.0
 11
15.372917
 21
19.330417
 31
0.0
  0
LINE
  8
1
  6
CONTINUOUS
 62
    52
  5
245
 10
15.114333
 20
19.32375
 30
0.0
 11
15.10775
 21
19.330417
 31
0.0
  0
LINE
  8
1
  6
CONTINUOUS
 62
    52
  5
246
 10
15.028583
 20
19.144333
 30
0.0
 11
14.981667
 21
19.191167
 31
0.0
  0
LINE
  8
1
  6
CONTINUOUS
 62
    52
  5
247
 10
13.205417
 20
20.967583
 30
0.0
 11
13.20025
 21
20.97275
 31
0.0
  0
LINE
  8
1
  6
CONTINUOUS
 62
    52
  5
248
 10
14.849083
 20
19.058583
 30
0.0
 11
14.772917
 21
19.134833
 31
0.0
  0
LINE
  8
1
  6
CONTINUOUS
 62
    52
  5
249
 10
12.993083
 20
20.914833
 30
0.0
 11
12.95625
 21
20.9515
 31
0.0
  0
LINE
  8
1
  6
CONTINUOUS
 62
    52
  5
24A
 10
13.205417
 20
20.702417
 30
0.0
 11
13.125583
 21
20.782167
 31
0.0
  0
LINE
  8
1
  6
CONTINUOUS
 62
    52
  5
24B
 10
14.583917
 20
19.058583
 30
0.0
 11
14.487917
 21
19.154583
 31
0.0
  0
LINE
  8
1
  6
CONTINUOUS
 62
    52
  5
24C
 10
13.205417
 20
20.43725
 30
0.0
 11
13.125583
 21
20.517
 31
0.0
  0
LINE
  8
1
  6
CONTINUOUS
 62
    52
  5
24D
 10
14.053583
 20
19.32375
 30
0.0
 11
14.047083
 21
19.330417
 31
0.0
  0
LINE
  8
1
  6
CONTINUOUS
 62
    52
  5
24E
 10
13.205417
 20
20.172083
 30
0.0
 11
13.125583
 21
20.251833
 31
0.0
  0
LINE
  8
1
  6
CONTINUOUS
 62
    52
  5
24F
 10
13.788417
 20
19.32375
 30
0.0
 11
13.781833
 21
19.330417
 31
0.0
  0
LINE
  8
1
  6
CONTINUOUS
 62
    52
  5
250
 10
13.205417
 20
19.906917
 30
0.0
 11
13.125583
 21
19.986667
 31
0.0
  0
LINE
  8
1
  6
CONTINUOUS
 62
    52
  5
251
 10
13.523333
 20
19.32375
 30
0.0
 11
13.516667
 21
19.330417
 31
0.0
  0
LINE
  8
1
  6
CONTINUOUS
 62
    52
  5
252
 10
13.205417
 20
19.64175
 30
0.0
 11
13.125583
 21
19.7215
 31
0.0
  0
LINE
  8
1
  6
CONTINUOUS
 62
    52
  5
253
 10
13.258167
 20
19.32375
 30
0.0
 11
13.2515
 21
19.330417
 31
0.0
  0
LINE
  8
1
  6
CONTINUOUS
 62
    52
  5
254
 10
13.205417
 20
19.376583
 30
0.0
 11
13.125583
 21
19.456333
 31
0.0
  0
LINE
  8
1
  6
CONTINUOUS
 62
    52
  5
255
 10
15.644667
 20
19.32375
 30
0.0
 11
15.638083
 21
19.330417
 31
0.0
  0
LINE
  8
1
  6
CONTINUOUS
 62
    52
  5
256
 10
15.909833
 20
19.32375
 30
0.0
 11
15.90325
 21
19.330417
 31
0.0
  0
LINE
  8
1
  6
CONTINUOUS
 62
    52
  5
257
 10
16.142
 20
19.35675
 30
0.0
 11
16.042333
 21
19.456333
 31
0.0
  0
LINE
  8
1
  6
CONTINUOUS
 62
    52
  5
258
 10
16.142
 20
19.621917
 30
0.0
 11
16.042333
 21
19.7215
 31
0.0
  0
LINE
  8
1
  6
CONTINUOUS
 62
    52
  5
259
 10
16.142
 20
19.887083
 30
0.0
 11
16.042333
 21
19.986667
 31
0.0
  0
LINE
  8
1
  6
CONTINUOUS
 62
    52
  5
25A
 10
16.142
 20
20.152333
 30
0.0
 11
16.042333
 21
20.251833
 31
0.0
  0
LINE
  8
1
  6
CONTINUOUS
 62
    52
  5
25B
 10
16.142
 20
20.152333
 30
0.0
 11
16.042333
 21
20.251833
 31
0.0
  0
LINE
  8
1
  6
CONTINUOUS
 62
    52
  5
25C
 10
16.142
 20
20.417417
 30
0.0
 11
16.042333
 21
20.517
 31
0.0
  0
LINE
  8
1
  6
CONTINUOUS
 62
    52
  5
25D
 10
16.142
 20
20.682583
 30
0.0
 11
16.042333
 21
20.782167
 31
0.0
  0
LINE
  8
1
  6
CONTINUOUS
 62
    52
  5
25E
 10
16.175
 20
20.914833
 30
0.0
 11
16.088667
 21
21.001083
 31
0.0
  0
ENDBLK
  8
1
  6
CONTINUOUS
 62
    52
  5
25F
  0
BLOCK
  8
1
  6
CONTINUOUS
 62
    52
  5
2B7
  2
$X20
 70
     0
 10
0.0
 20
0.0
 30
0.0
  3
$N20
  0
LINE
  8
1
  6
CONTINUOUS
 62
    52
  5
2B8
 10
18.377667
 20
18.907917
 30
0.0
 11
18.428833
 21
18.959167
 31
0.0
  0
LINE
  8
1
  6
CONTINUOUS
 62
    52
  5
2B9
 10
18.1125
 20
18.907917
 30
0.0
 11
18.163667
 21
18.959167
 31
0.0
  0
LINE
  8
1
  6
CONTINUOUS
 62
    52
  5
2BA
 10
18.031083
 20
19.09175
 30
0.0
 11
18.078167
 21
19.13875
 31
0.0
  0
LINE
  8
1
  6
CONTINUOUS
 62
    52
  5
2BB
 10
17.898167
 20
20.814917
 30
0.0
 11
17.8985
 21
20.815333
 31
0.0
  0
LINE
  8
1
  6
CONTINUOUS
 62
    52
  5
2BC
 10
17.632917
 20
20.814917
 30
0.0
 11
17.633333
 21
20.815333
 31
0.0
  0
LINE
  8
1
  6
CONTINUOUS
 62
    52
  5
2BD
 10
17.766
 20
20.947833
 30
0.0
 11
17.804417
 21
20.986417
 31
0.0
  0
LINE
  8
1
  6
CONTINUOUS
 62
    52
  5
2BE
 10
18.642833
 20
18.907917
 30
0.0
 11
18.694
 21
18.959167
 31
0.0
  0
LINE
  8
1
  6
CONTINUOUS
 62
    52
  5
2BF
 10
18.907917
 20
18.907917
 30
0.0
 11
18.959167
 21
18.959167
 31
0.0
  0
LINE
  8
1
  6
CONTINUOUS
 62
    52
  5
2C0
 10
20.947917
 20
20.947833
 30
0.0
 11
21.025917
 21
21.025917
 31
0.0
  0
LINE
  8
1
  6
CONTINUOUS
 62
    52
  5
2C1
 10
19.173167
 20
18.907917
 30
0.0
 11
19.224333
 21
18.959167
 31
0.0
  0
LINE
  8
1
  6
CONTINUOUS
 62
    52
  5
2C2
 10
20.947917
 20
20.68275
 30
0.0
 11
20.993833
 21
20.728667
 31
0.0
  0
LINE
  8
1
  6
CONTINUOUS
 62
    52
  5
2C3
 10
19.438333
 20
18.907917
 30
0.0
 11
19.489583
 21
18.959167
 31
0.0
  0
LINE
  8
1
  6
CONTINUOUS
 62
    52
  5
2C4
 10
20.947917
 20
20.417583
 30
0.0
 11
20.993833
 21
20.4635
 31
0.0
  0
LINE
  8
1
  6
CONTINUOUS
 62
    52
  5
2C5
 10
19.7035
 20
18.907917
 30
0.0
 11
19.75475
 21
18.959167
 31
0.0
  0
LINE
  8
1
  6
CONTINUOUS
 62
    52
  5
2C6
 10
20.947917
 20
20.152417
 30
0.0
 11
20.993833
 21
20.198333
 31
0.0
  0
LINE
  8
1
  6
CONTINUOUS
 62
    52
  5
2C7
 10
19.968583
 20
18.907917
 30
0.0
 11
20.019917
 21
18.959167
 31
0.0
  0
LINE
  8
1
  6
CONTINUOUS
 62
    52
  5
2C8
 10
20.947917
 20
19.88725
 30
0.0
 11
20.993833
 21
19.933167
 31
0.0
  0
LINE
  8
1
  6
CONTINUOUS
 62
    52
  5
2C9
 10
20.23375
 20
18.907917
 30
0.0
 11
20.285
 21
18.959167
 31
0.0
  0
LINE
  8
1
  6
CONTINUOUS
 62
    52
  5
2CA
 10
20.947917
 20
19.622083
 30
0.0
 11
20.993833
 21
19.668
 31
0.0
  0
LINE
  8
1
  6
CONTINUOUS
 62
    52
  5
2CB
 10
20.499
 20
18.907917
 30
0.0
 11
20.55025
 21
18.959167
 31
0.0
  0
LINE
  8
1
  6
CONTINUOUS
 62
    52
  5
2CC
 10
20.947917
 20
19.356917
 30
0.0
 11
20.993833
 21
19.402833
 31
0.0
  0
LINE
  8
1
  6
CONTINUOUS
 62
    52
  5
2CD
 10
20.764167
 20
18.907917
 30
0.0
 11
20.815417
 21
18.959167
 31
0.0
  0
LINE
  8
1
  6
CONTINUOUS
 62
    52
  5
2CE
 10
18.543333
 20
18.907917
 30
0.0
 11
18.644333
 21
19.008917
 31
0.0
  0
LINE
  8
1
  6
CONTINUOUS
 62
    52
  5
2CF
 10
18.27825
 20
18.907917
 30
0.0
 11
18.379167
 21
19.008917
 31
0.0
  0
LINE
  8
1
  6
CONTINUOUS
 62
    52
  5
2D0
 10
18.013083
 20
18.907917
 30
0.0
 11
18.114
 21
19.008917
 31
0.0
  0
LINE
  8
1
  6
CONTINUOUS
 62
    52
  5
2D1
 10
17.9815
 20
19.1415
 30
0.0
 11
18.078167
 21
19.238167
 31
0.0
  0
LINE
  8
1
  6
CONTINUOUS
 62
    52
  5
2D2
 10
17.9815
 20
19.406667
 30
0.0
 11
17.993083
 21
19.41825
 31
0.0
  0
LINE
  8
1
  6
CONTINUOUS
 62
    52
  5
2D3
 10
17.9815
 20
19.671833
 30
0.0
 11
17.993083
 21
19.683417
 31
0.0
  0
LINE
  8
1
  6
CONTINUOUS
 62
    52
  5
2D4
 10
17.9815
 20
19.937
 30
0.0
 11
17.993083
 21
19.948583
 31
0.0
  0
LINE
  8
1
  6
CONTINUOUS
 62
    52
  5
2D5
 10
17.9815
 20
20.202167
 30
0.0
 11
17.993083
 21
20.21375
 31
0.0
  0
LINE
  8
1
  6
CONTINUOUS
 62
    52
  5
2D6
 10
17.9815
 20
20.467333
 30
0.0
 11
17.993083
 21
20.478917
 31
0.0
  0
LINE
  8
1
  6
CONTINUOUS
 62
    52
  5
2D7
 10
17.9815
 20
20.7325
 30
0.0
 11
17.993083
 21
20.744083
 31
0.0
  0
LINE
  8
1
  6
CONTINUOUS
 62
    52
  5
2D8
 10
17.79875
 20
20.814917
 30
0.0
 11
17.848833
 21
20.865083
 31
0.0
  0
LINE
  8
1
  6
CONTINUOUS
 62
    52
  5
2D9
 10
18.808583
 20
18.907917
 30
0.0
 11
18.9095
 21
19.008917
 31
0.0
  0
LINE
  8
1
  6
CONTINUOUS
 62
    52
  5
2DA
 10
20.898167
 20
20.997667
 30
0.0
 11
20.926417
 21
21.025917
 31
0.0
  0
LINE
  8
1
  6
CONTINUOUS
 62
    52
  5
2DB
 10
19.07375
 20
18.907917
 30
0.0
 11
19.174583
 21
19.008917
 31
0.0
  0
LINE
  8
1
  6
CONTINUOUS
 62
    52
  5
2DC
 10
21.163333
 20
20.997667
 30
0.0
 11
21.17175
 21
21.006
 31
0.0
  0
LINE
  8
1
  6
CONTINUOUS
 62
    52
  5
2DD
 10
20.898167
 20
20.7325
 30
0.0
 11
20.993833
 21
20.828167
 31
0.0
  0
LINE
  8
1
  6
CONTINUOUS
 62
    52
  5
2DE
 10
19.338917
 20
18.907917
 30
0.0
 11
19.439833
 21
19.008917
 31
0.0
  0
LINE
  8
1
  6
CONTINUOUS
 62
    52
  5
2DF
 10
20.898167
 20
20.467333
 30
0.0
 11
20.993833
 21
20.563
 31
0.0
  0
LINE
  8
1
  6
CONTINUOUS
 62
    52
  5
2E0
 10
19.604
 20
18.907917
 30
0.0
 11
19.705
 21
19.008917
 31
0.0
  0
LINE
  8
1
  6
CONTINUOUS
 62
    52
  5
2E1
 10
20.898167
 20
20.202167
 30
0.0
 11
20.993833
 21
20.297917
 31
0.0
  0
LINE
  8
1
  6
CONTINUOUS
 62
    52
  5
2E2
 10
19.869167
 20
18.907917
 30
0.0
 11
19.970167
 21
19.008917
 31
0.0
  0
LINE
  8
1
  6
CONTINUOUS
 62
    52
  5
2E3
 10
20.898167
 20
19.937
 30
0.0
 11
20.993833
 21
20.032667
 31
0.0
  0
LINE
  8
1
  6
CONTINUOUS
 62
    52
  5
2E4
 10
20.134417
 20
18.907917
 30
0.0
 11
20.23525
 21
19.008917
 31
0.0
  0
LINE
  8
1
  6
CONTINUOUS
 62
    52
  5
2E5
 10
20.898167
 20
19.671833
 30
0.0
 11
20.993833
 21
19.7675
 31
0.0
  0
LINE
  8
1
  6
CONTINUOUS
 62
    52
  5
2E6
 10
20.399583
 20
18.907917
 30
0.0
 11
20.500417
 21
19.008917
 31
0.0
  0
LINE
  8
1
  6
CONTINUOUS
 62
    52
  5
2E7
 10
20.898167
 20
19.406667
 30
0.0
 11
20.993833
 21
19.502333
 31
0.0
  0
LINE
  8
1
  6
CONTINUOUS
 62
    52
  5
2E8
 10
20.664667
 20
18.907917
 30
0.0
 11
20.765667
 21
19.008917
 31
0.0
  0
LINE
  8
1
  6
CONTINUOUS
 62
    52
  5
2E9
 10
20.898167
 20
19.1415
 30
0.0
 11
20.9475
 21
19.19075
 31
0.0
  0
LINE
  8
1
  6
CONTINUOUS
 62
    52
  5
2EA
 10
20.929833
 20
18.907917
 30
0.0
 11
20.9475
 21
18.925583
 31
0.0
  0
LINE
  8
1
  6
CONTINUOUS
 62
    52
  5
2EB
 10
18.462083
 20
18.926
 30
0.0
 11
18.549417
 21
19.013417
 31
0.0
  0
LINE
  8
1
  6
CONTINUOUS
 62
    52
  5
2EC
 10
18.196917
 20
18.926
 30
0.0
 11
18.28425
 21
19.013417
 31
0.0
  0
LINE
  8
1
  6
CONTINUOUS
 62
    52
  5
2ED
 10
17.9775
 20
18.971917
 30
0.0
 11
18.06425
 21
19.058583
 31
0.0
  0
LINE
  8
1
  6
CONTINUOUS
 62
    52
  5
2EE
 10
17.94875
 20
19.208167
 30
0.0
 11
18.06425
 21
19.32375
 31
0.0
  0
LINE
  8
1
  6
CONTINUOUS
 62
    52
  5
2EF
 10
17.931667
 20
19.456333
 30
0.0
 11
17.993083
 21
19.51775
 31
0.0
  0
LINE
  8
1
  6
CONTINUOUS
 62
    52
  5
2F0
 10
17.931667
 20
19.7215
 30
0.0
 11
17.993083
 21
19.782833
 31
0.0
  0
LINE
  8
1
  6
CONTINUOUS
 62
    52
  5
2F1
 10
17.931667
 20
19.986667
 30
0.0
 11
17.993083
 21
20.048
 31
0.0
  0
LINE
  8
1
  6
CONTINUOUS
 62
    52
  5
2F2
 10
17.931667
 20
20.251833
 30
0.0
 11
17.993083
 21
20.313167
 31
0.0
  0
LINE
  8
1
  6
CONTINUOUS
 62
    52
  5
2F3
 10
17.931667
 20
20.517
 30
0.0
 11
17.993083
 21
20.578333
 31
0.0
  0
LINE
  8
1
  6
CONTINUOUS
 62
    52
  5
2F4
 10
17.931667
 20
20.782167
 30
0.0
 11
17.993083
 21
20.8435
 31
0.0
  0
LINE
  8
1
  6
CONTINUOUS
 62
    52
  5
2F5
 10
17.699167
 20
20.814917
 30
0.0
 11
17.799083
 21
20.914833
 31
0.0
  0
LINE
  8
1
  6
CONTINUOUS
 62
    52
  5
2F6
 10
18.727167
 20
18.926
 30
0.0
 11
18.814583
 21
19.013417
 31
0.0
  0
LINE
  8
1
  6
CONTINUOUS
 62
    52
  5
2F7
 10
18.992333
 20
18.926
 30
0.0
 11
19.07975
 21
19.013417
 31
0.0
  0
LINE
  8
1
  6
CONTINUOUS
 62
    52
  5
2F8
 10
20.870167
 20
20.803833
 30
0.0
 11
20.981083
 21
20.914833
 31
0.0
  0
LINE
  8
1
  6
CONTINUOUS
 62
    52
  5
2F9
 10
19.2575
 20
18.926
 30
0.0
 11
19.344917
 21
19.013417
 31
0.0
  0
LINE
  8
1
  6
CONTINUOUS
 62
    52
  5
2FA
 10
20.870167
 20
20.538667
 30
0.0
 11
20.981083
 21
20.649583
 31
0.0
  0
LINE
  8
1
  6
CONTINUOUS
 62
    52
  5
2FB
 10
19.52275
 20
18.926
 30
0.0
 11
19.61
 21
19.013417
 31
0.0
  0
LINE
  8
1
  6
CONTINUOUS
 62
    52
  5
2FC
 10
20.870167
 20
20.2735
 30
0.0
 11
20.981083
 21
20.384417
 31
0.0
  0
LINE
  8
1
  6
CONTINUOUS
 62
    52
  5
2FD
 10
19.787833
 20
18.926
 30
0.0
 11
19.87525
 21
19.013417
 31
0.0
  0
LINE
  8
1
  6
CONTINUOUS
 62
    52
  5
2FE
 10
20.870167
 20
20.008333
 30
0.0
 11
20.981083
 21
20.11925
 31
0.0
  0
LINE
  8
1
  6
CONTINUOUS
 62
    52
  5
2FF
 10
20.053
 20
18.926
 30
0.0
 11
20.140417
 21
19.013417
 31
0.0
  0
LINE
  8
1
  6
CONTINUOUS
 62
    52
  5
300
 10
20.870167
 20
19.743167
 30
0.0
 11
20.981083
 21
19.854167
 31
0.0
  0
LINE
  8
1
  6
CONTINUOUS
 62
    52
  5
301
 10
20.870167
 20
19.743167
 30
0.0
 11
20.981083
 21
19.854167
 31
0.0
  0
LINE
  8
1
  6
CONTINUOUS
 62
    52
  5
302
 10
20.318167
 20
18.926
 30
0.0
 11
20.405583
 21
19.013417
 31
0.0
  0
LINE
  8
1
  6
CONTINUOUS
 62
    52
  5
303
 10
20.870167
 20
19.478
 30
0.0
 11
20.981083
 21
19.588917
 31
0.0
  0
LINE
  8
1
  6
CONTINUOUS
 62
    52
  5
304
 10
20.583333
 20
18.926
 30
0.0
 11
20.670667
 21
19.013417
 31
0.0
  0
LINE
  8
1
  6
CONTINUOUS
 62
    52
  5
305
 10
20.8485
 20
19.191167
 30
0.0
 11
20.981083
 21
19.32375
 31
0.0
  0
LINE
  8
1
  6
CONTINUOUS
 62
    52
  5
306
 10
20.8485
 20
18.926
 30
0.0
 11
20.9475
 21
19.025
 31
0.0
  0
LINE
  8
1
  6
CONTINUOUS
 62
    52
  5
307
 10
20.318167
 20
18.959167
 30
0.0
 11
20.263917
 21
19.013417
 31
0.0
  0
LINE
  8
1
  6
CONTINUOUS
 62
    52
  5
308
 10
20.053
 20
18.959167
 30
0.0
 11
19.99875
 21
19.013417
 31
0.0
  0
LINE
  8
1
  6
CONTINUOUS
 62
    52
  5
309
 10
19.787833
 20
18.959167
 30
0.0
 11
19.733583
 21
19.013417
 31
0.0
  0
LINE
  8
1
  6
CONTINUOUS
 62
    52
  5
30A
 10
17.931667
 20
20.815333
 30
0.0
 11
17.799083
 21
20.947833
 31
0.0
  0
LINE
  8
1
  6
CONTINUOUS
 62
    52
  5
30B
 10
19.52275
 20
18.959167
 30
0.0
 11
19.468417
 21
19.013417
 31
0.0
  0
LINE
  8
1
  6
CONTINUOUS
 62
    52
  5
30C
 10
17.6665
 20
20.815333
 30
0.0
 11
17.614
 21
20.86775
 31
0.0
  0
LINE
  8
1
  6
CONTINUOUS
 62
    52
  5
30D
 10
17.931667
 20
20.55025
 30
0.0
 11
17.907917
 21
20.573917
 31
0.0
  0
LINE
  8
1
  6
CONTINUOUS
 62
    52
  5
30E
 10
19.2575
 20
18.959167
 30
0.0
 11
19.20325
 21
19.013417
 31
0.0
  0
LINE
  8
1
  6
CONTINUOUS
 62
    52
  5
30F
 10
17.931667
 20
20.285
 30
0.0
 11
17.907917
 21
20.30875
 31
0.0
  0
LINE
  8
1
  6
CONTINUOUS
 62
    52
  5
310
 10
18.992333
 20
18.959167
 30
0.0
 11
18.938083
 21
19.013417
 31
0.0
  0
LINE
  8
1
  6
CONTINUOUS
 62
    52
  5
311
 10
17.931667
 20
20.019833
 30
0.0
 11
17.907917
 21
20.043583
 31
0.0
  0
LINE
  8
1
  6
CONTINUOUS
 62
    52
  5
312
 10
18.727167
 20
18.959167
 30
0.0
 11
18.672917
 21
19.013417
 31
0.0
  0
LINE
  8
1
  6
CONTINUOUS
 62
    52
  5
313
 10
17.931667
 20
19.754667
 30
0.0
 11
17.907917
 21
19.778417
 31
0.0
  0
LINE
  8
1
  6
CONTINUOUS
 62
    52
  5
314
 10
18.462083
 20
18.959167
 30
0.0
 11
18.40775
 21
19.013417
 31
0.0
  0
LINE
  8
1
  6
CONTINUOUS
 62
    52
  5
315
 10
17.931667
 20
19.489583
 30
0.0
 11
17.907917
 21
19.51325
 31
0.0
  0
LINE
  8
1
  6
CONTINUOUS
 62
    52
  5
316
 10
18.196917
 20
18.959167
 30
0.0
 11
18.06425
 21
19.09175
 31
0.0
  0
LINE
  8
1
  6
CONTINUOUS
 62
    52
  5
317
 10
17.931667
 20
19.224333
 30
0.0
 11
17.907917
 21
19.248167
 31
0.0
  0
LINE
  8
1
  6
CONTINUOUS
 62
    52
  5
318
 10
20.583333
 20
18.959167
 30
0.0
 11
20.529083
 21
19.013417
 31
0.0
  0
LINE
  8
1
  6
CONTINUOUS
 62
    52
  5
319
 10
20.8485
 20
18.959167
 30
0.0
 11
20.767833
 21
19.039833
 31
0.0
  0
LINE
  8
1
  6
CONTINUOUS
 62
    52
  5
31A
 10
20.8485
 20
19.224333
 30
0.0
 11
20.816
 21
19.256833
 31
0.0
  0
LINE
  8
1
  6
CONTINUOUS
 62
    52
  5
31B
 10
20.993833
 20
19.344167
 30
0.0
 11
20.981083
 21
19.356917
 31
0.0
  0
LINE
  8
1
  6
CONTINUOUS
 62
    52
  5
31C
 10
20.993833
 20
19.60925
 30
0.0
 11
20.981083
 21
19.622083
 31
0.0
  0
LINE
  8
1
  6
CONTINUOUS
 62
    52
  5
31D
 10
20.993833
 20
19.874417
 30
0.0
 11
20.981083
 21
19.88725
 31
0.0
  0
LINE
  8
1
  6
CONTINUOUS
 62
    52
  5
31E
 10
20.993833
 20
20.139583
 30
0.0
 11
20.981083
 21
20.152417
 31
0.0
  0
LINE
  8
1
  6
CONTINUOUS
 62
    52
  5
31F
 10
20.993833
 20
20.40475
 30
0.0
 11
20.981083
 21
20.417583
 31
0.0
  0
LINE
  8
1
  6
CONTINUOUS
 62
    52
  5
320
 10
20.993833
 20
20.669917
 30
0.0
 11
20.981083
 21
20.68275
 31
0.0
  0
LINE
  8
1
  6
CONTINUOUS
 62
    52
  5
321
 10
21.008583
 20
20.920417
 30
0.0
 11
20.981083
 21
20.947833
 31
0.0
  0
LINE
  8
1
  6
CONTINUOUS
 62
    52
  5
322
 10
20.102667
 20
19.008917
 30
0.0
 11
20.098167
 21
19.013417
 31
0.0
  0
LINE
  8
1
  6
CONTINUOUS
 62
    52
  5
323
 10
19.8375
 20
19.008917
 30
0.0
 11
19.833
 21
19.013417
 31
0.0
  0
LINE
  8
1
  6
CONTINUOUS
 62
    52
  5
324
 10
17.9815
 20
20.865083
 30
0.0
 11
17.853
 21
20.993417
 31
0.0
  0
LINE
  8
1
  6
CONTINUOUS
 62
    52
  5
325
 10
19.572333
 20
19.008917
 30
0.0
 11
19.567833
 21
19.013417
 31
0.0
  0
LINE
  8
1
  6
CONTINUOUS
 62
    52
  5
326
 10
17.71625
 20
20.865083
 30
0.0
 11
17.625
 21
20.956333
 31
0.0
  0
LINE
  8
1
  6
CONTINUOUS
 62
    52
  5
327
 10
17.9815
 20
20.599917
 30
0.0
 11
17.907917
 21
20.673333
 31
0.0
  0
LINE
  8
1
  6
CONTINUOUS
 62
    52
  5
328
 10
19.307167
 20
19.008917
 30
0.0
 11
19.302667
 21
19.013417
 31
0.0
  0
LINE
  8
1
  6
CONTINUOUS
 62
    52
  5
329
 10
17.9815
 20
20.33475
 30
0.0
 11
17.907917
 21
20.408167
 31
0.0
  0
LINE
  8
1
  6
CONTINUOUS
 62
    52
  5
32A
 10
19.042
 20
19.008917
 30
0.0
 11
19.0375
 21
19.013417
 31
0.0
  0
LINE
  8
1
  6
CONTINUOUS
 62
    52
  5
32B
 10
17.9815
 20
20.069583
 30
0.0
 11
17.907917
 21
20.143
 31
0.0
  0
LINE
  8
1
  6
CONTINUOUS
 62
    52
  5
32C
 10
18.776917
 20
19.008917
 30
0.0
 11
18.772333
 21
19.013417
 31
0.0
  0
LINE
  8
1
  6
CONTINUOUS
 62
    52
  5
32D
 10
17.9815
 20
19.804417
 30
0.0
 11
17.907917
 21
19.877833
 31
0.0
  0
LINE
  8
1
  6
CONTINUOUS
 62
    52
  5
32E
 10
18.511833
 20
19.008917
 30
0.0
 11
18.507167
 21
19.013417
 31
0.0
  0
LINE
  8
1
  6
CONTINUOUS
 62
    52
  5
32F
 10
17.9815
 20
19.53925
 30
0.0
 11
17.907917
 21
19.61275
 31
0.0
  0
LINE
  8
1
  6
CONTINUOUS
 62
    52
  5
330
 10
18.246667
 20
19.008917
 30
0.0
 11
18.242
 21
19.013417
 31
0.0
  0
LINE
  8
1
  6
CONTINUOUS
 62
    52
  5
331
 10
17.9815
 20
19.274083
 30
0.0
 11
17.907917
 21
19.3475
 31
0.0
  0
LINE
  8
1
  6
CONTINUOUS
 62
    52
  5
332
 10
17.9815
 20
19.008917
 30
0.0
 11
17.9775
 21
19.01275
 31
0.0
  0
LINE
  8
1
  6
CONTINUOUS
 62
    52
  5
333
 10
20.367833
 20
19.008917
 30
0.0
 11
20.363333
 21
19.013417
 31
0.0
  0
LINE
  8
1
  6
CONTINUOUS
 62
    52
  5
334
 10
20.633
 20
19.008917
 30
0.0
 11
20.6285
 21
19.013417
 31
0.0
  0
LINE
  8
1
  6
CONTINUOUS
 62
    52
  5
335
 10
20.898167
 20
19.008917
 30
0.0
 11
20.80925
 21
19.097917
 31
0.0
  0
LINE
  8
1
  6
CONTINUOUS
 62
    52
  5
336
 10
20.898167
 20
19.274083
 30
0.0
 11
20.826167
 21
19.346083
 31
0.0
  0
LINE
  8
1
  6
CONTINUOUS
 62
    52
  5
337
 10
20.898167
 20
19.53925
 30
0.0
 11
20.870167
 21
19.567333
 31
0.0
  0
LINE
  8
1
  6
CONTINUOUS
 62
    52
  5
338
 10
20.898167
 20
19.804417
 30
0.0
 11
20.870167
 21
19.8325
 31
0.0
  0
LINE
  8
1
  6
CONTINUOUS
 62
    52
  5
339
 10
20.898167
 20
20.069583
 30
0.0
 11
20.870167
 21
20.097667
 31
0.0
  0
LINE
  8
1
  6
CONTINUOUS
 62
    52
  5
33A
 10
20.898167
 20
20.33475
 30
0.0
 11
20.870167
 21
20.362833
 31
0.0
  0
LINE
  8
1
  6
CONTINUOUS
 62
    52
  5
33B
 10
20.898167
 20
20.599917
 30
0.0
 11
20.870167
 21
20.628
 31
0.0
  0
LINE
  8
1
  6
CONTINUOUS
 62
    52
  5
33C
 10
20.898167
 20
20.865083
 30
0.0
 11
20.870167
 21
20.893167
 31
0.0
  0
LINE
  8
1
  6
CONTINUOUS
 62
    52
  5
33D
 10
21.108
 20
20.920417
 30
0.0
 11
21.030833
 21
20.997667
 31
0.0
  0
LINE
  8
1
  6
CONTINUOUS
 62
    52
  5
33E
 10
20.303167
 20
18.907917
 30
0.0
 11
20.285
 21
18.926
 31
0.0
  0
LINE
  8
1
  6
CONTINUOUS
 62
    52
  5
33F
 10
20.037917
 20
18.907917
 30
0.0
 11
20.019917
 21
18.926
 31
0.0
  0
LINE
  8
1
  6
CONTINUOUS
 62
    52
  5
340
 10
17.993083
 20
20.952833
 30
0.0
 11
17.952417
 21
20.993417
 31
0.0
  0
LINE
  8
1
  6
CONTINUOUS
 62
    52
  5
341
 10
19.77275
 20
18.907917
 30
0.0
 11
19.75475
 21
18.926
 31
0.0
  0
LINE
  8
1
  6
CONTINUOUS
 62
    52
  5
342
 10
17.766
 20
20.914833
 30
0.0
 11
17.710083
 21
20.970583
 31
0.0
  0
LINE
  8
1
  6
CONTINUOUS
 62
    52
  5
343
 10
17.993083
 20
20.68775
 30
0.0
 11
17.907917
 21
20.77275
 31
0.0
  0
LINE
  8
1
  6
CONTINUOUS
 62
    52
  5
344
 10
19.507667
 20
18.907917
 30
0.0
 11
19.489583
 21
18.926
 31
0.0
  0
LINE
  8
1
  6
CONTINUOUS
 62
    52
  5
345
 10
17.993083
 20
20.4225
 30
0.0
 11
17.907917
 21
20.507583
 31
0.0
  0
LINE
  8
1
  6
CONTINUOUS
 62
    52
  5
346
 10
19.2425
 20
18.907917
 30
0.0
 11
19.224333
 21
18.926
 31
0.0
  0
LINE
  8
1
  6
CONTINUOUS
 62
    52
  5
347
 10
17.993083
 20
20.157333
 30
0.0
 11
17.907917
 21
20.242417
 31
0.0
  0
LINE
  8
1
  6
CONTINUOUS
 62
    52
  5
348
 10
18.977333
 20
18.907917
 30
0.0
 11
18.959167
 21
18.926
 31
0.0
  0
LINE
  8
1
  6
CONTINUOUS
 62
    52
  5
349
 10
17.993083
 20
19.892167
 30
0.0
 11
17.907917
 21
19.977333
 31
0.0
  0
LINE
  8
1
  6
CONTINUOUS
 62
    52
  5
34A
 10
17.993083
 20
19.892167
 30
0.0
 11
17.907917
 21
19.977333
 31
0.0
  0
LINE
  8
1
  6
CONTINUOUS
 62
    52
  5
34B
 10
18.712083
 20
18.907917
 30
0.0
 11
18.694
 21
18.926
 31
0.0
  0
LINE
  8
1
  6
CONTINUOUS
 62
    52
  5
34C
 10
17.993083
 20
19.627083
 30
0.0
 11
17.907917
 21
19.712083
 31
0.0
  0
LINE
  8
1
  6
CONTINUOUS
 62
    52
  5
34D
 10
18.447
 20
18.907917
 30
0.0
 11
18.428833
 21
18.926
 31
0.0
  0
LINE
  8
1
  6
CONTINUOUS
 62
    52
  5
34E
 10
17.993083
 20
19.361833
 30
0.0
 11
17.907917
 21
19.446917
 31
0.0
  0
LINE
  8
1
  6
CONTINUOUS
 62
    52
  5
34F
 10
18.031083
 20
19.32375
 30
0.0
 11
18.016917
 21
19.338
 31
0.0
  0
LINE
  8
1
  6
CONTINUOUS
 62
    52
  5
350
 10
18.181833
 20
18.907917
 30
0.0
 11
18.163667
 21
18.926
 31
0.0
  0
LINE
  8
1
  6
CONTINUOUS
 62
    52
  5
351
 10
18.031083
 20
19.058583
 30
0.0
 11
17.9775
 21
19.112167
 31
0.0
  0
LINE
  8
1
  6
CONTINUOUS
 62
    52
  5
352
 10
20.568333
 20
18.907917
 30
0.0
 11
20.55025
 21
18.926
 31
0.0
  0
LINE
  8
1
  6
CONTINUOUS
 62
    52
  5
353
 10
20.833417
 20
18.907917
 30
0.0
 11
20.815417
 21
18.926
 31
0.0
  0
LINE
  8
1
  6
CONTINUOUS
 62
    52
  5
354
 10
20.9475
 20
19.059083
 30
0.0
 11
20.816
 21
19.190583
 31
0.0
  0
LINE
  8
1
  6
CONTINUOUS
 62
    52
  5
355
 10
20.947917
 20
19.32375
 30
0.0
 11
20.870167
 21
19.401583
 31
0.0
  0
LINE
  8
1
  6
CONTINUOUS
 62
    52
  5
356
 10
20.947917
 20
19.588917
 30
0.0
 11
20.870167
 21
19.66675
 31
0.0
  0
LINE
  8
1
  6
CONTINUOUS
 62
    52
  5
357
 10
20.947917
 20
19.854167
 30
0.0
 11
20.870167
 21
19.931917
 31
0.0
  0
LINE
  8
1
  6
CONTINUOUS
 62
    52
  5
358
 10
20.947917
 20
20.11925
 30
0.0
 11
20.870167
 21
20.197083
 31
0.0
  0
LINE
  8
1
  6
CONTINUOUS
 62
    52
  5
359
 10
20.947917
 20
20.384417
 30
0.0
 11
20.870167
 21
20.46225
 31
0.0
  0
LINE
  8
1
  6
CONTINUOUS
 62
    52
  5
35A
 10
20.947917
 20
20.649583
 30
0.0
 11
20.870167
 21
20.727417
 31
0.0
  0
LINE
  8
1
  6
CONTINUOUS
 62
    52
  5
35B
 10
20.947917
 20
20.914833
 30
0.0
 11
20.870167
 21
20.992583
 31
0.0
  0
LINE
  8
1
  6
CONTINUOUS
 62
    52
  5
35C
 10
21.17175
 20
20.956083
 30
0.0
 11
21.102
 21
21.025917
 31
0.0
  0
ENDBLK
  8
1
  6
CONTINUOUS
 62
    52
  5
35D
  0
BLOCK
  8
1
  6
CONTINUOUS
 62
    52
  5
566
  2
$X48
 70
     0
 10
0.0
 20
0.0
 30
0.0
  3
$N48
  0
LINE
  8
1
  6
CONTINUOUS
 62
    52
  5
567
 10
27.139417
 20
18.919333
 30
0.0
 11
27.179333
 21
18.959167
 31
0.0
  0
LINE
  8
1
  6
CONTINUOUS
 62
    52
  5
568
 10
26.87425
 20
18.919333
 30
0.0
 11
26.914167
 21
18.959167
 31
0.0
  0
LINE
  8
1
  6
CONTINUOUS
 62
    52
  5
569
 10
26.624333
 20
18.934583
 30
0.0
 11
26.649
 21
18.959167
 31
0.0
  0
LINE
  8
1
  6
CONTINUOUS
 62
    52
  5
56A
 10
26.781583
 20
19.09175
 30
0.0
 11
26.782167
 21
19.092333
 31
0.0
  0
LINE
  8
1
  6
CONTINUOUS
 62
    52
  5
56B
 10
26.637583
 20
19.212917
 30
0.0
 11
26.649
 21
19.224333
 31
0.0
  0
LINE
  8
1
  6
CONTINUOUS
 62
    52
  5
56C
 10
27.404667
 20
18.919333
 30
0.0
 11
27.444417
 21
18.959167
 31
0.0
  0
LINE
  8
1
  6
CONTINUOUS
 62
    52
  5
56D
 10
27.669833
 20
18.919333
 30
0.0
 11
27.709667
 21
18.959167
 31
0.0
  0
LINE
  8
1
  6
CONTINUOUS
 62
    52
  5
56E
 10
27.934917
 20
18.919333
 30
0.0
 11
27.97475
 21
18.959167
 31
0.0
  0
LINE
  8
1
  6
CONTINUOUS
 62
    52
  5
56F
 10
28.200083
 20
18.919333
 30
0.0
 11
28.239917
 21
18.959167
 31
0.0
  0
LINE
  8
1
  6
CONTINUOUS
 62
    52
  5
570
 10
28.41725
 20
19.136583
 30
0.0
 11
28.500083
 21
19.219333
 31
0.0
  0
LINE
  8
1
  6
CONTINUOUS
 62
    52
  5
571
 10
28.46525
 20
18.919333
 30
0.0
 11
28.500083
 21
18.954167
 31
0.0
  0
LINE
  8
1
  6
CONTINUOUS
 62
    52
  5
572
 10
27.30525
 20
18.919333
 30
0.0
 11
27.394833
 21
19.008917
 31
0.0
  0
LINE
  8
1
  6
CONTINUOUS
 62
    52
  5
573
 10
27.040083
 20
18.919333
 30
0.0
 11
27.129667
 21
19.008917
 31
0.0
  0
LINE
  8
1
  6
CONTINUOUS
 62
    52
  5
574
 10
26.774833
 20
18.919333
 30
0.0
 11
26.864417
 21
19.008917
 31
0.0
  0
LINE
  8
1
  6
CONTINUOUS
 62
    52
  5
575
 10
26.731833
 20
19.1415
 30
0.0
 11
26.750667
 21
19.160417
 31
0.0
  0
LINE
  8
1
  6
CONTINUOUS
 62
    52
  5
576
 10
27.570333
 20
18.919333
 30
0.0
 11
27.659917
 21
19.008917
 31
0.0
  0
LINE
  8
1
  6
CONTINUOUS
 62
    52
  5
577
 10
27.8355
 20
18.919333
 30
0.0
 11
27.925083
 21
19.008917
 31
0.0
  0
LINE
  8
1
  6
CONTINUOUS
 62
    52
  5
578
 10
28.100667
 20
18.919333
 30
0.0
 11
28.19025
 21
19.008917
 31
0.0
  0
LINE
  8
1
  6
CONTINUOUS
 62
    52
  5
579
 10
28.423833
 20
19.2425
 30
0.0
 11
28.4555
 21
19.274083
 31
0.0
  0
LINE
  8
1
  6
CONTINUOUS
 62
    52
  5
57A
 10
28.365917
 20
18.919333
 30
0.0
 11
28.4555
 21
19.008917
 31
0.0
  0
LINE
  8
1
  6
CONTINUOUS
 62
    52
  5
57B
 10
27.212417
 20
18.926083
 30
0.0
 11
27.338
 21
19.0515
 31
0.0
  0
LINE
  8
1
  6
CONTINUOUS
 62
    52
  5
57C
 10
26.94725
 20
18.926083
 30
0.0
 11
27.07275
 21
19.0515
 31
0.0
  0
LINE
  8
1
  6
CONTINUOUS
 62
    52
  5
57D
 10
26.682083
 20
18.926083
 30
0.0
 11
26.814667
 21
19.058583
 31
0.0
  0
LINE
  8
1
  6
CONTINUOUS
 62
    52
  5
57E
 10
26.682083
 20
19.19125
 30
0.0
 11
26.749583
 21
19.258667
 31
0.0
  0
LINE
  8
1
  6
CONTINUOUS
 62
    52
  5
57F
 10
27.477583
 20
18.926083
 30
0.0
 11
27.603167
 21
19.0515
 31
0.0
  0
LINE
  8
1
  6
CONTINUOUS
 62
    52
  5
580
 10
27.74275
 20
18.926083
 30
0.0
 11
27.86825
 21
19.0515
 31
0.0
  0
LINE
  8
1
  6
CONTINUOUS
 62
    52
  5
581
 10
28.007917
 20
18.926083
 30
0.0
 11
28.133417
 21
19.0515
 31
0.0
  0
LINE
  8
1
  6
CONTINUOUS
 62
    52
  5
582
 10
28.273083
 20
18.926083
 30
0.0
 11
28.405667
 21
19.058583
 31
0.0
  0
LINE
  8
1
  6
CONTINUOUS
 62
    52
  5
583
 10
27.477583
 20
18.959167
 30
0.0
 11
27.38525
 21
19.0515
 31
0.0
  0
LINE
  8
1
  6
CONTINUOUS
 62
    52
  5
584
 10
27.212417
 20
18.959167
 30
0.0
 11
27.120083
 21
19.0515
 31
0.0
  0
LINE
  8
1
  6
CONTINUOUS
 62
    52
  5
585
 10
26.94725
 20
18.959167
 30
0.0
 11
26.853167
 21
19.0535
 31
0.0
  0
LINE
  8
1
  6
CONTINUOUS
 62
    52
  5
586
 10
26.682083
 20
19.224333
 30
0.0
 11
26.640083
 21
19.266333
 31
0.0
  0
LINE
  8
1
  6
CONTINUOUS
 62
    52
  5
587
 10
26.682083
 20
18.959167
 30
0.0
 11
26.628167
 21
19.013333
 31
0.0
  0
LINE
  8
1
  6
CONTINUOUS
 62
    52
  5
588
 10
27.74275
 20
18.959167
 30
0.0
 11
27.6505
 21
19.0515
 31
0.0
  0
LINE
  8
1
  6
CONTINUOUS
 62
    52
  5
589
 10
28.007917
 20
18.959167
 30
0.0
 11
27.915667
 21
19.0515
 31
0.0
  0
LINE
  8
1
  6
CONTINUOUS
 62
    52
  5
58A
 10
28.273083
 20
18.959167
 30
0.0
 11
28.18075
 21
19.0515
 31
0.0
  0
LINE
  8
1
  6
CONTINUOUS
 62
    52
  5
58B
 10
28.500083
 20
18.997333
 30
0.0
 11
28.405667
 21
19.09175
 31
0.0
  0
LINE
  8
1
  6
CONTINUOUS
 62
    52
  5
58C
 10
28.500083
 20
19.2625
 30
0.0
 11
28.423833
 21
19.33875
 31
0.0
  0
LINE
  8
1
  6
CONTINUOUS
 62
    52
  5
58D
 10
27.527333
 20
19.008917
 30
0.0
 11
27.484667
 21
19.0515
 31
0.0
  0
LINE
  8
1
  6
CONTINUOUS
 62
    52
  5
58E
 10
27.262167
 20
19.008917
 30
0.0
 11
27.2195
 21
19.0515
 31
0.0
  0
LINE
  8
1
  6
CONTINUOUS
 62
    52
  5
58F
 10
26.997
 20
19.008917
 30
0.0
 11
26.954333
 21
19.0515
 31
0.0
  0
LINE
  8
1
  6
CONTINUOUS
 62
    52
  5
590
 10
26.731833
 20
19.274083
 30
0.0
 11
26.684167
 21
19.321667
 31
0.0
  0
LINE
  8
1
  6
CONTINUOUS
 62
    52
  5
591
 10
26.731833
 20
19.008917
 30
0.0
 11
26.632583
 21
19.108167
 31
0.0
  0
LINE
  8
1
  6
CONTINUOUS
 62
    52
  5
592
 10
27.7925
 20
19.008917
 30
0.0
 11
27.749833
 21
19.0515
 31
0.0
  0
LINE
  8
1
  6
CONTINUOUS
 62
    52
  5
593
 10
28.057667
 20
19.008917
 30
0.0
 11
28.015083
 21
19.0515
 31
0.0
  0
LINE
  8
1
  6
CONTINUOUS
 62
    52
  5
594
 10
28.322833
 20
19.008917
 30
0.0
 11
28.28025
 21
19.0515
 31
0.0
  0
LINE
  8
1
  6
CONTINUOUS
 62
    52
  5
595
 10
28.500083
 20
19.09675
 30
0.0
 11
28.4555
 21
19.1415
 31
0.0
  0
LINE
  8
1
  6
CONTINUOUS
 62
    52
  5
596
 10
27.716333
 20
18.919333
 30
0.0
 11
27.709667
 21
18.926083
 31
0.0
  0
LINE
  8
1
  6
CONTINUOUS
 62
    52
  5
597
 10
27.451167
 20
18.919333
 30
0.0
 11
27.444417
 21
18.926083
 31
0.0
  0
LINE
  8
1
  6
CONTINUOUS
 62
    52
  5
598
 10
27.186
 20
18.919333
 30
0.0
 11
27.179333
 21
18.926083
 31
0.0
  0
LINE
  8
1
  6
CONTINUOUS
 62
    52
  5
599
 10
26.920833
 20
18.919333
 30
0.0
 11
26.914167
 21
18.926083
 31
0.0
  0
LINE
  8
1
  6
CONTINUOUS
 62
    52
  5
59A
 10
26.781583
 20
19.058583
 30
0.0
 11
26.649
 21
19.19125
 31
0.0
  0
LINE
  8
1
  6
CONTINUOUS
 62
    52
  5
59B
 10
26.655667
 20
18.919333
 30
0.0
 11
26.649
 21
18.926083
 31
0.0
  0
LINE
  8
1
  6
CONTINUOUS
 62
    52
  5
59C
 10
27.9815
 20
18.919333
 30
0.0
 11
27.97475
 21
18.926083
 31
0.0
  0
LINE
  8
1
  6
CONTINUOUS
 62
    52
  5
59D
 10
28.246667
 20
18.919333
 30
0.0
 11
28.239917
 21
18.926083
 31
0.0
  0
LINE
  8
1
  6
CONTINUOUS
 62
    52
  5
59E
 10
28.3725
 20
19.058583
 30
0.0
 11
28.362333
 21
19.068833
 31
0.0
  0
ENDBLK
  8
1
  6
CONTINUOUS
 62
    52
  5
59F
  0
BLOCK
  8
1
  6
CONTINUOUS
 62
     7
  5
5AE
  2
$D50
 70
     0
 10
0.0
 20
0.0
 30
0.0
  3
$N50
  0
LINE
  8
1
  6
CONTINUOUS
 62
     7
  5
5AF
 10
1.313167
 20
0.148167
 30
0.0
 11
-0.18
 21
0.148167
 31
0.0
  0
LINE
  8
1
  6
CONTINUOUS
 62
     7
  5
5B0
 10
0.660833
 20
0.0
 30
0.0
 11
-0.18
 21
0.0
 31
0.0
  0
LINE
  8
1
  6
CONTINUOUS
 62
     7
  5
5B1
 10
0.0
 20
0.085667
 30
0.0
 11
0.0
 21
0.0625
 31
0.0
  0
SOLID
  8
1
  6
CONTINUOUS
 62
     7
  5
5B2
 10
0.010417
 20
0.085667
 30
0.0
 11
-0.010417
 21
0.085667
 31
0.0
 12
0.0
 22
0.148167
 32
0.0
 13
0.0
 23
0.148167
 33
0.0
  0
SOLID
  8
1
  6
CONTINUOUS
 62
     7
  5
5B3
 10
0.010417
 20
0.0625
 30
0.0
 11
-0.010417
 21
0.0625
 31
0.0
 12
0.0
 22
0.0
 32
0.0
 13
0.0
 23
0.0
 33
0.0
  0
POINT
  8
6
  6
CONTINUOUS
 62
     7
  5
5B4
 10
1.375667
 20
0.148167
 30
0.0
  0
POINT
  8
6
  6
CONTINUOUS
 62
     7
  5
5B5
 10
0.723333
 20
0.0
 30
0.0
  0
LINE
  8
6
  6
CONTINUOUS
 62
     7
  5
5B6
 10
0.0
 20
0.0
 30
0.0
 11
0.000167
 21
0.0
 31
0.0
  0
ENDBLK
  8
6
  6
CONTINUOUS
 62
     7
  5
5B7
  0
BLOCK
  8
1
  6
CONTINUOUS
 62
     7
  5
5DC
  2
$X1
 70
     0
 10
0.0
 20
0.0
 30
0.0
  3
$N1
  0
LINE
  8
1
  6
CONTINUOUS
 62
     7
  5
5DD
 10
3.71225
 20
8.48525
 30
0.0
 11
3.730417
 21
8.503417
 31
0.0
  0
LINE
  8
1
  6
CONTINUOUS
 62
     7
  5
5DE
 10
3.5355
 20
8.48525
 30
0.0
 11
3.581083
 21
8.530833
 31
0.0
  0
LINE
  8
1
  6
CONTINUOUS
 62
     7
  5
5DF
 10
3.35875
 20
8.48525
 30
0.0
 11
3.422083
 21
8.548583
 31
0.0
  0
LINE
  8
1
  6
CONTINUOUS
 62
     7
  5
5E0
 10
3.221083
 20
8.524417
 30
0.0
 11
3.263083
 21
8.566333
 31
0.0
  0
LINE
  8
1
  6
CONTINUOUS
 62
     7
  5
5E1
 10
3.679083
 20
8.518417
 30
0.0
 11
3.680417
 21
8.51975
 31
0.0
  0
LINE
  8
1
  6
CONTINUOUS
 62
     7
  5
5E2
 10
3.502333
 20
8.518417
 30
0.0
 11
3.521417
 21
8.5375
 31
0.0
  0
LINE
  8
1
  6
CONTINUOUS
 62
     7
  5
5E3
 10
3.325583
 20
8.518417
 30
0.0
 11
3.362417
 21
8.55525
 31
0.0
  0
LINE
  8
1
  6
CONTINUOUS
 62
     7
  5
5E4
 10
3.765833
 20
8.42825
 30
0.0
 11
3.7675
 21
8.43
 31
0.0
  0
LINE
  8
1
  6
CONTINUOUS
 62
     7
  5
5E5
 10
3.529167
 20
8.43475
 30
0.0
 11
3.557583
 21
8.463167
 31
0.0
  0
LINE
  8
1
  6
CONTINUOUS
 62
     7
  5
5E6
 10
3.357083
 20
8.439417
 30
0.0
 11
3.380833
 21
8.463167
 31
0.0
  0
LINE
  8
1
  6
CONTINUOUS
 62
     7
  5
5E7
 10
3.292417
 20
8.5515
 30
0.0
 11
3.302833
 21
8.561917
 31
0.0
  0
LINE
  8
1
  6
CONTINUOUS
 62
     7
  5
5E8
 10
3.70125
 20
8.430083
 30
0.0
 11
3.734333
 21
8.463167
 31
0.0
  0
LINE
  8
1
  6
CONTINUOUS
 62
     7
  5
5E9
 10
3.873333
 20
8.425333
 30
0.0
 11
3.878917
 21
8.430917
 31
0.0
  0
LINE
  8
1
  6
CONTINUOUS
 62
     7
  5
5EA
 10
3.610333
 20
8.4325
 30
0.0
 11
3.557583
 21
8.48525
 31
0.0
  0
LINE
  8
1
  6
CONTINUOUS
 62
     7
  5
5EB
 10
3.428583
 20
8.4375
 30
0.0
 11
3.380833
 21
8.48525
 31
0.0
  0
LINE
  8
1
  6
CONTINUOUS
 62
     7
  5
5EC
 10
3.246833
 20
8.442417
 30
0.0
 11
3.21575
 21
8.4735
 31
0.0
  0
LINE
  8
1
  6
CONTINUOUS
 62
     7
  5
5ED
 10
3.792
 20
8.427583
 30
0.0
 11
3.734333
 21
8.48525
 31
0.0
  0
LINE
  8
1
  6
CONTINUOUS
 62
     7
  5
5EE
 10
3.49675
 20
8.435583
 30
0.0
 11
3.414
 21
8.518417
 31
0.0
  0
LINE
  8
1
  6
CONTINUOUS
 62
     7
  5
5EF
 10
3.315
 20
8.440583
 30
0.0
 11
3.237167
 21
8.518417
 31
0.0
  0
LINE
  8
1
  6
CONTINUOUS
 62
     7
  5
5F0
 10
3.678417
 20
8.430667
 30
0.0
 11
3.59075
 21
8.518417
 31
0.0
  0
LINE
  8
1
  6
CONTINUOUS
 62
     7
  5
5F1
 10
3.855917
 20
8.43
 30
0.0
 11
3.832167
 21
8.45375
 31
0.0
  0
LINE
  8
1
  6
CONTINUOUS
 62
     7
  5
5F2
 10
3.5355
 20
8.463167
 30
0.0
 11
3.453583
 21
8.545083
 31
0.0
  0
LINE
  8
1
  6
CONTINUOUS
 62
     7
  5
5F3
 10
3.35875
 20
8.463167
 30
0.0
 11
3.270333
 21
8.5515
 31
0.0
  0
LINE
  8
1
  6
CONTINUOUS
 62
     7
  5
5F4
 10
3.71225
 20
8.463167
 30
0.0
 11
3.652583
 21
8.522833
 31
0.0
  0
ENDBLK
  8
1
  6
CONTINUOUS
 62
     7
  5
5F5
  0
BLOCK
  8
1
  6
CONTINUOUS
 62
     7
  5
699
  2
$D37
 70
     0
 10
0.0
 20
0.0
 30
0.0
  3
$N37
  0
LINE
  8
1
  6
CONTINUOUS
 62
     7
  5
69A
 10
0.1215
 20
-0.154833
 30
0.0
 11
0.246417
 21
-0.093583
 31
0.0
  0
LINE
  8
1
  6
CONTINUOUS
 62
     7
  5
69B
 10
0.03675
 20
0.018
 30
0.0
 11
0.161583
 21
0.07925
 31
0.0
  0
LINE
  8
1
  6
CONTINUOUS
 62
     7
  5
69C
 10
-0.055
 20
0.11225
 30
0.0
 11
-0.110083
 21
0.224417
 31
0.0
  0
LINE
  8
1
  6
CONTINUOUS
 62
     7
  5
69D
 10
0.139833
 20
-0.285083
 30
0.0
 11
0.194917
 21
-0.39725
 31
0.0
  0
LINE
  8
1
  6
CONTINUOUS
 62
     7
  5
69E
 10
-0.110083
 20
0.224417
 30
0.0
 11
-0.165167
 21
0.336667
 31
0.0
  0
SOLID
  8
1
  6
CONTINUOUS
 62
     7
  5
69F
 10
-0.07375
 20
0.103083
 30
0.0
 11
-0.036333
 21
0.121417
 31
0.0
 12
0.0
 22
0.0
 32
0.0
 13
0.0
 23
0.0
 33
0.0
  0
SOLID
  8
1
  6
CONTINUOUS
 62
     7
  5
6A0
 10
0.121167
 20
-0.29425
 30
0.0
 11
0.158583
 21
-0.275833
 31
0.0
 12
0.084833
 22
-0.172833
 32
0.0
 13
0.084833
 23
-0.172833
 33
0.0
  0
LINE
  8
6
  6
CONTINUOUS
 62
     7
  5
6A1
 10
0.065417
 20
-0.182333
 30
0.0
 11
0.0655
 21
-0.182333
 31
0.0
  0
LINE
  8
6
  6
CONTINUOUS
 62
     7
  5
6A2
 10
-0.019333
 20
-0.0095
 30
0.0
 11
-0.01925
 21
-0.0095
 31
0.0
  0
LINE
  8
6
  6
CONTINUOUS
 62
     7
  5
6A3
 10
0.0
 20
0.0
 30
0.0
 11
0.000083
 21
0.0
 31
0.0
  0
ENDBLK
  8
6
  6
CONTINUOUS
 62
     7
  5
6A4
  0
ENDSEC
  0
SECTION
  2
ENTITIES
  0
LINE
  8
1
  6
CONTINUOUS
 62
   233
  5
29
 10
40.575333
 20
19.639
 30
0.0
 11
41.10325
 21
19.639
 31
0.0
  0
LINE
  8
1
  6
CONTINUOUS
 62
   211
  5
2A
 10
41.10325
 20
19.639
 30
0.0
 11
41.5905
 21
19.631833
 31
0.0
  0
LINE
  8
1
  6
CONTINUOUS
 62
   233
  5
2B
 10
41.5905
 20
19.631833
 30
0.0
 11
41.74625
 21
19.653167
 31
0.0
  0
LINE
  8
1
  6
CONTINUOUS
 62
   233
  5
2C
 10
43.749833
 20
19.660333
 30
0.0
 11
44.020583
 21
19.653167
 31
0.0
  0
LINE
  8
1
  6
CONTINUOUS
 62
   233
  5
2D
 10
44.331833
 20
19.617667
 30
0.0
 11
44.683833
 21
19.660333
 31
0.0
  0
LINE
  8
1
  6
CONTINUOUS
 62
   233
  5
2E
 10
44.683833
 20
19.660333
 30
0.0
 11
44.785333
 21
19.639
 31
0.0
  0
LINE
  8
1
  6
CONTINUOUS
 62
    52
  5
2F
 10
44.785333
 20
19.639
 30
0.0
 11
44.785333
 21
19.489833
 31
0.0
  0
CIRCLE
  8
1
  6
CONTINUOUS
 62
   233
  5
30
 10
42.856969
 20
17.899135
 30
0.0
 40
0.566641
210
0.0
220
0.0
230
1.0
  0
CIRCLE
  8
1
  6
CONTINUOUS
 62
   233
  5
31
 10
42.856969
 20
17.899135
 30
0.0
 40
0.646449
210
0.0
220
0.0
230
1.0
  0
LINE
  8
1
  6
CONTINUOUS
 62
   233
  5
32
 10
41.74625
 20
19.653167
 30
0.0
 11
41.884083
 21
19.638667
 31
0.0
  0
LINE
  8
1
  6
CONTINUOUS
 62
   233
  5
33
 10
41.884083
 20
19.638667
 30
0.0
 11
41.987833
 21
19.688917
 31
0.0
  0
LINE
  8
1
  6
CONTINUOUS
 62
   233
  5
34
 10
41.987833
 20
19.688917
 30
0.0
 11
42.075583
 21
19.638667
 31
0.0
  0
LINE
  8
1
  6
CONTINUOUS
 62
   233
  5
35
 10
42.075583
 20
19.638667
 30
0.0
 11
42.163417
 21
19.672167
 31
0.0
  0
LINE
  8
1
  6
CONTINUOUS
 62
   233
  5
36
 10
42.163417
 20
19.672167
 30
0.0
 11
42.40275
 21
19.622
 31
0.0
  0
LINE
  8
1
  6
CONTINUOUS
 62
   233
  5
37
 10
42.40275
 20
19.622
 30
0.0
 11
42.5225
 21
19.655417
 31
0.0
  0
LINE
  8
1
  6
CONTINUOUS
 62
   233
  5
38
 10
42.5225
 20
19.655417
 30
0.0
 11
42.714
 21
19.638667
 31
0.0
  0
LINE
  8
1
  6
CONTINUOUS
 62
   233
  5
39
 10
42.714
 20
19.638667
 30
0.0
 11
42.745917
 21
19.622
 31
0.0
  0
LINE
  8
1
  6
CONTINUOUS
 62
   233
  5
3A
 10
42.745917
 20
19.622
 30
0.0
 11
42.84175
 21
19.655417
 31
0.0
  0
LINE
  8
1
  6
CONTINUOUS
 62
   233
  5
3B
 10
42.84175
 20
19.655417
 30
0.0
 11
42.993167
 21
19.655417
 31
0.0
  0
LINE
  8
1
  6
CONTINUOUS
 62
   233
  5
3C
 10
42.993167
 20
19.655417
 30
0.0
 11
43.121083
 21
19.605167
 31
0.0
  0
LINE
  8
1
  6
CONTINUOUS
 62
   233
  5
3D
 10
43.121083
 20
19.605167
 30
0.0
 11
43.264667
 21
19.622
 31
0.0
  0
LINE
  8
1
  6
CONTINUOUS
 62
   233
  5
3E
 10
43.264667
 20
19.622
 30
0.0
 11
43.40025
 21
19.655417
 31
0.0
  0
LINE
  8
1
  6
CONTINUOUS
 62
   233
  5
3F
 10
43.40025
 20
19.655417
 30
0.0
 11
43.591833
 21
19.622
 31
0.0
  0
LINE
  8
1
  6
CONTINUOUS
 62
   233
  5
40
 10
43.591833
 20
19.622
 30
0.0
 11
43.749833
 21
19.660333
 31
0.0
  0
SOLID
  8
3
  6
CONTINUOUS
 62
    52
  5
42
 10
42.741417
 20
17.01075
 30
0.0
 11
42.7975
 21
17.01075
 31
0.0
 12
42.7695
 22
17.17975
 32
0.0
 13
42.7695
 23
17.17975
 33
0.0
  0
LINE
  8
3
  6
CONTINUOUS
 62
     2
  5
43
 10
42.7695
 20
17.01075
 30
0.0
 11
42.7695
 21
16.76675
 31
0.0
  0
LINE
  8
3
  6
CONTINUOUS
 62
     2
  5
44
 10
42.7695
 20
16.76675
 30
0.0
 11
43.2805
 21
16.76675
 31
0.0
  0
SOLID
  8
3
  6
CONTINUOUS
 62
   112
  5
45
 10
42.049917
 20
18.682833
 30
0.0
 11
42.049917
 21
18.6265
 31
0.0
 12
42.218917
 22
18.654667
 32
0.0
 13
42.218917
 23
18.654667
 33
0.0
  0
LINE
  8
3
  6
CONTINUOUS
 62
     2
  5
46
 10
42.075417
 20
18.658083
 30
0.0
 11
40.936167
 21
18.658083
 31
0.0
  0
LINE
  8
1
  6
CONTINUOUS
 62
     7
  5
47
 10
42.234583
 20
18.077667
 30
0.0
 11
42.234583
 21
19.296583
 31
0.0
  0
LINE
  8
1
  6
CONTINUOUS
 62
     7
  5
48
 10
43.496917
 20
17.979833
 30
0.0
 11
43.496917
 21
19.2985
 31
0.0
  0
LINE
  8
1
  6
CONTINUOUS
 62
     7
  5
49
 10
42.34825
 20
19.061
 30
0.0
 11
43.342667
 21
19.061
 31
0.0
  0
SOLID
  8
1
  6
CONTINUOUS
 62
     7
  5
4A
 10
42.415417
 20
19.03275
 30
0.0
 11
42.415417
 21
19.089167
 31
0.0
 12
42.246417
 22
19.061
 32
0.0
 13
42.246417
 23
19.061
 33
0.0
  0
SOLID
  8
1
  6
CONTINUOUS
 62
     7
  5
4B
 10
43.326833
 20
19.03275
 30
0.0
 11
43.326833
 21
19.089167
 31
0.0
 12
43.495833
 22
19.061
 32
0.0
 13
43.495833
 23
19.061
 33
0.0
  0
TEXT
  8
1
  6
CONTINUOUS
 62
   112
  5
4D
 10
42.609417
 20
19.142083
 30
0.0
 40
0.133
  1
O.D.
  7
MONOTXT
210
0.0
220
0.0
230
1.0
  0
LINE
  8
6
  6
CONTINUOUS
 62
     7
  5
4F
 10
42.17925
 20
17.901333
 30
0.0
 11
42.179333
 21
17.901333
 31
0.0
  0
LINE
  8
6
  6
CONTINUOUS
 62
     7
  5
50
 10
43.472167
 20
17.901333
 30
0.0
 11
43.472333
 21
17.901333
 31
0.0
  0
LINE
  8
6
  6
CONTINUOUS
 62
     7
  5
51
 10
43.472167
 20
19.061
 30
0.0
 11
43.472333
 21
19.061
 31
0.0
  0
LINE
  8
1
  6
CONTINUOUS
 62
     7
  5
52
 10
42.094417
 20
19.0525
 30
0.0
 11
41.91525
 21
19.0525
 31
0.0
  0
SOLID
  8
1
  6
CONTINUOUS
 62
     7
  5
53
 10
42.0695
 20
19.03225
 30
0.0
 11
42.0695
 21
19.088583
 31
0.0
 12
42.2385
 22
19.060417
 32
0.0
 13
42.2385
 23
19.060417
 33
0.0
  0
SOLID
  8
1
  6
CONTINUOUS
 62
     7
  5
54
 10
41.91525
 20
19.024333
 30
0.0
 11
41.91525
 21
19.080667
 31
0.0
 12
41.74625
 22
19.0525
 32
0.0
 13
41.74625
 23
19.0525
 33
0.0
  0
LINE
  8
6
  6
CONTINUOUS
 62
     7
  5
55
 10
42.17925
 20
19.0525
 30
0.0
 11
42.179333
 21
19.0525
 31
0.0
  0
LINE
  8
3
  6
CONTINUOUS
 62
     2
  5
56
 10
43.982083
 20
19.062167
 30
0.0
 11
44.151083
 21
19.062167
 31
0.0
  0
SOLID
  8
3
  6
CONTINUOUS
 62
     2
  5
57
 10
44.061
 20
19.034083
 30
0.0
 11
44.061
 21
19.090417
 31
0.0
 12
43.892
 22
19.062167
 32
0.0
 13
43.892
 23
19.062167
 33
0.0
  0
LINE
  8
3
  6
CONTINUOUS
 62
     2
  5
58
 10
43.749833
 20
19.0525
 30
0.0
 11
43.749917
 21
19.0525
 31
0.0
  0
POINT
  8
6
  6
CONTINUOUS
 62
     7
  5
59
 10
43.4475
 20
19.056833
 30
0.0
  0
POINT
  8
6
  6
CONTINUOUS
 62
     7
  5
5A
 10
43.4475
 20
19.044167
 30
0.0
  0
TEXT
  8
3
  6
CONTINUOUS
 62
   112
  5
5B
 10
44.252333
 20
19.066083
 30
0.0
 40
0.133
  1
18"
  7
MONOTXT
210
0.0
220
0.0
230
1.0
  0
TEXT
  8
3
  6
CONTINUOUS
 62
   112
  5
5C
 10
44.184083
 20
18.864167
 30
0.0
 40
0.133
  1
Min
  7
MONOTXT
210
0.0
220
0.0
230
1.0
  0
TEXT
  8
3
  6
CONTINUOUS
 62
   112
  5
5D
 10
41.91825
 20
19.149083
 30
0.0
 40
0.133
  1
18"
  7
MONOTXT
210
0.0
220
0.0
230
1.0
  0
TEXT
  8
3
  6
CONTINUOUS
 62
   112
  5
5E
 10
41.888833
 20
18.831083
 30
0.0
 40
0.133
  1
Min
  7
MONOTXT
210
0.0
220
0.0
230
1.0
  0
LINE
  8
1
  6
CONTINUOUS
 62
     7
  5
5F
 10
42.910167
 20
17.254833
 30
0.0
 11
44.311583
 21
17.254833
 31
0.0
  0
LINE
  8
1
  6
CONTINUOUS
 62
     7
  5
60
 10
44.080333
 20
17.561417
 30
0.0
 11
44.080333
 21
17.730417
 31
0.0
  0
LINE
  8
1
  6
CONTINUOUS
 62
     7
  5
61
 10
44.06825
 20
17.085833
 30
0.0
 11
44.06825
 21
16.916833
 31
0.0
  0
SOLID
  8
1
  6
CONTINUOUS
 62
     7
  5
62
 10
44.108417
 20
17.628083
 30
0.0
 11
44.052083
 21
17.628083
 31
0.0
 12
44.08025
 22
17.459083
 32
0.0
 13
44.08025
 23
17.459083
 33
0.0
  0
SOLID
  8
1
  6
CONTINUOUS
 62
     7
  5
63
 10
44.096417
 20
17.085833
 30
0.0
 11
44.040083
 21
17.085833
 31
0.0
 12
44.06825
 22
17.254833
 32
0.0
 13
44.06825
 23
17.254833
 33
0.0
  0
LINE
  8
6
  6
CONTINUOUS
 62
     7
  5
64
 10
42.825667
 20
17.254833
 30
0.0
 11
42.825833
 21
17.254833
 31
0.0
  0
TEXT
  8
3
  6
CONTINUOUS
 62
   112
  5
65
 10
44.479667
 20
17.709583
 30
0.0
 40
0.133
  1
0.15 O.D. Min.
  7
MONOTXT
210
0.0
220
0.0
230
1.0
  0
TEXT
  8
3
  6
CONTINUOUS
 62
     2
  5
66
 10
44.311417
 20
17.72375
 30
0.0
 40
0.243333
  1
*
  7
MONOTXT
210
0.0
220
0.0
230
1.0
  0
TEXT
  8
3
  6
CONTINUOUS
 62
   112
  5
67
 10
43.383583
 20
16.690083
 30
0.0
 40
0.133
  1
Fine Aggreqate
  7
MONOTXT
210
0.0
220
0.0
230
1.0
  0
TEXT
  8
3
  6
CONTINUOUS
 62
   112
  5
68
 10
43.543667
 20
16.431917
 30
0.0
 40
0.133
  1
for Leveling
  7
MONOTXT
210
0.0
220
0.0
230
1.0
  0
TEXT
  8
3
  6
CONTINUOUS
 62
   112
  5
69
 10
41.994
 20
15.981667
 30
0.0
 40
0.153583
  1
Class B Bedding
  7
MONOTXT
210
0.0
220
0.0
230
1.0
  0
TEXT
  8
3
  6
CONTINUOUS
 62
   112
  5
6A
 10
39.29825
 20
18.848083
 30
0.0
 40
0.133
  1
Compacted Backfill
  7
MONOTXT
210
0.0
220
0.0
230
1.0
  0
TEXT
  8
3
  6
CONTINUOUS
 62
    30
  5
6B
 10
40.078833
 20
18.626083
 30
0.0
 40
0.133
  1
Material
  7
MONOTXT
210
0.0
220
0.0
230
1.0
  0
TEXT
  8
3
  6
CONTINUOUS
 62
   112
  5
6C
 10
43.086583
 20
14.957917
 30
0.0
 40
0.179167
  1
(Trench shown is for 18" thru 54" Pipe)
  7
MONOTXT
210
0.0
220
0.0
230
1.0
  0
LINE
  8
6
  6
CONTINUOUS
 62
     7
  5
6D
 10
49.40925
 20
19.044167
 30
0.0
 11
49.409417
 21
19.044167
 31
0.0
  0
LINE
  8
6
  6
CONTINUOUS
 62
     7
  5
6E
 10
49.40925
 20
19.056833
 30
0.0
 11
49.409417
 21
19.056833
 31
0.0
  0
LINE
  8
3
  6
CONTINUOUS
 62
     2
  5
6F
 10
49.711583
 20
19.0525
 30
0.0
 11
49.711667
 21
19.0525
 31
0.0
  0
LINE
  8
1
  6
CONTINUOUS
 62
   233
  5
70
 10
49.553667
 20
19.622
 30
0.0
 11
49.790333
 21
19.67925
 31
0.0
  0
LINE
  8
1
  6
CONTINUOUS
 62
   233
  5
71
 10
49.362167
 20
19.655417
 30
0.0
 11
49.553667
 21
19.622
 31
0.0
  0
LINE
  8
1
  6
CONTINUOUS
 62
   233
  5
72
 10
49.226417
 20
19.622
 30
0.0
 11
49.362167
 21
19.655417
 31
0.0
  0
LINE
  8
1
  6
CONTINUOUS
 62
   233
  5
73
 10
49.082833
 20
19.605167
 30
0.0
 11
49.226417
 21
19.622
 31
0.0
  0
LINE
  8
1
  6
CONTINUOUS
 62
   233
  5
74
 10
48.955167
 20
19.655417
 30
0.0
 11
49.082833
 21
19.605167
 31
0.0
  0
LINE
  8
1
  6
CONTINUOUS
 62
   233
  5
75
 10
48.8035
 20
19.655417
 30
0.0
 11
48.955167
 21
19.655417
 31
0.0
  0
LINE
  8
1
  6
CONTINUOUS
 62
   233
  5
76
 10
48.707667
 20
19.622
 30
0.0
 11
48.8035
 21
19.655417
 31
0.0
  0
LINE
  8
1
  6
CONTINUOUS
 62
   233
  5
77
 10
48.67575
 20
19.638667
 30
0.0
 11
48.707667
 21
19.622
 31
0.0
  0
LINE
  8
1
  6
CONTINUOUS
 62
   233
  5
78
 10
48.48425
 20
19.655417
 30
0.0
 11
48.67575
 21
19.638667
 31
0.0
  0
LINE
  8
1
  6
CONTINUOUS
 62
   233
  5
79
 10
48.3645
 20
19.622
 30
0.0
 11
48.48425
 21
19.655417
 31
0.0
  0
LINE
  8
1
  6
CONTINUOUS
 62
   233
  5
7A
 10
48.125167
 20
19.672167
 30
0.0
 11
48.3645
 21
19.622
 31
0.0
  0
LINE
  8
1
  6
CONTINUOUS
 62
   233
  5
7B
 10
48.037333
 20
19.638667
 30
0.0
 11
48.125167
 21
19.672167
 31
0.0
  0
LINE
  8
1
  6
CONTINUOUS
 62
   233
  5
7C
 10
47.949583
 20
19.688917
 30
0.0
 11
48.037333
 21
19.638667
 31
0.0
  0
LINE
  8
1
  6
CONTINUOUS
 62
   233
  5
7D
 10
47.845833
 20
19.638667
 30
0.0
 11
47.949583
 21
19.688917
 31
0.0
  0
LINE
  8
1
  6
CONTINUOUS
 62
   233
  5
7E
 10
47.76225
 20
19.667833
 30
0.0
 11
47.845833
 21
19.638667
 31
0.0
  0
TEXT
  8
3
  6
CONTINUOUS
 62
   112
  5
7F
 10
48.258083
 20
15.848417
 30
0.0
 40
0.153583
  1
On Rock Foudation
  7
MONOTXT
210
0.0
220
0.0
230
1.0
  0
TEXT
  8
3
  6
CONTINUOUS
 62
   112
  5
80
 10
48.3805
 20
16.122917
 30
0.0
 40
0.153583
  1
Class B Bedding
  7
MONOTXT
210
0.0
220
0.0
230
1.0
  0
LINE
  8
1
  6
CONTINUOUS
 62
   233
  5
81
 10
49.795583
 20
17.519083
 30
0.0
 11
49.2605
 21
17.519083
 31
0.0
  0
LINE
  8
1
  6
CONTINUOUS
 62
   233
  5
82
 10
47.772167
 20
17.519083
 30
0.0
 11
47.772167
 21
19.664333
 31
0.0
  0
LINE
  8
1
  6
CONTINUOUS
 62
   233
  5
83
 10
48.295417
 20
17.519083
 30
0.0
 11
47.772167
 21
17.519083
 31
0.0
  0
LINE
  8
1
  6
CONTINUOUS
 62
   233
  5
84
 10
49.750833
 20
17.519083
 30
0.0
 11
49.750833
 21
17.223917
 31
0.0
  0
LINE
  8
1
  6
CONTINUOUS
 62
   233
  5
85
 10
49.581833
 20
17.054917
 30
0.0
 11
47.985917
 21
17.054917
 31
0.0
  0
LINE
  8
1
  6
CONTINUOUS
 62
   233
  5
86
 10
47.816917
 20
17.223917
 30
0.0
 11
47.816917
 21
17.519083
 31
0.0
  0
ARC
  8
1
  6
CONTINUOUS
 62
   233
  5
87
 10
49.58178
 20
17.223949
 30
0.0
 40
0.169
 50
270.0
 51
360.0
210
0.0
220
0.0
230
1.0
  0
ARC
  8
1
  6
CONTINUOUS
 62
   233
  5
88
 10
47.985857
 20
17.223949
 30
0.0
 40
0.169
 50
180.0
 51
270.0
210
0.0
220
0.0
230
1.0
  0
INSERT
  8
1
  6
CONTINUOUS
 62
     7
  5
A9
  2
$X9
 10
35.301417
 20
-8.580167
 30
0.0
 41
1.351999
 42
1.351999
210
0.0
220
0.0
230
1.0
  0
CIRCLE
  8
1
  6
CONTINUOUS
 62
   233
  5
AA
 10
48.783929
 20
17.944931
 30
0.0
 40
0.56675
210
0.0
220
0.0
230
1.0
  0
CIRCLE
  8
1
  6
CONTINUOUS
 62
   233
  5
AB
 10
48.783929
 20
17.944931
 30
0.0
 40
0.646294
210
0.0
220
0.0
230
1.0
  0
LINE
  8
1
  6
CONTINUOUS
 62
   233
  5
AC
 10
47.0465
 20
19.667833
 30
0.0
 11
47.76225
 21
19.667833
 31
0.0
  0
LINE
  8
1
  6
CONTINUOUS
 62
   233
  5
AD
 10
47.76225
 20
17.508417
 30
0.0
 11
47.812
 21
17.508417
 31
0.0
  0
LINE
  8
1
  6
CONTINUOUS
 62
   233
  5
AE
 10
49.74075
 20
17.508417
 30
0.0
 11
49.790417
 21
17.508417
 31
0.0
  0
LINE
  8
1
  6
CONTINUOUS
 62
   233
  5
AF
 10
49.790417
 20
19.667833
 30
0.0
 11
50.605667
 21
19.667833
 31
0.0
  0
INSERT
  8
1
  6
CONTINUOUS
 62
    52
  5
139
  2
$X10
 10
35.301417
 20
-8.580167
 30
0.0
 41
1.351999
 42
1.351999
210
0.0
220
0.0
230
1.0
  0
LINE
  8
1
  6
CONTINUOUS
 62
   233
  5
13A
 10
49.790333
 20
17.519083
 30
0.0
 11
49.790333
 21
19.67925
 31
0.0
  0
LINE
  8
6
  6
CONTINUOUS
 62
     7
  5
13B
 10
49.39025
 20
17.894667
 30
0.0
 11
49.390333
 21
17.894667
 31
0.0
  0
POINT
  8
6
  6
CONTINUOUS
 62
     7
  5
13C
 10
50.518917
 20
17.790083
 30
0.0
  0
LINE
  8
1
  6
CONTINUOUS
 62
     7
  5
13D
 10
47.772167
 20
19.024167
 30
0.0
 11
47.772167
 21
18.859333
 31
0.0
  0
LINE
  8
1
  6
CONTINUOUS
 62
     7
  5
13E
 10
48.138583
 20
18.031417
 30
0.0
 11
48.138583
 21
19.346083
 31
0.0
  0
LINE
  8
1
  6
CONTINUOUS
 62
     7
  5
13F
 10
47.941167
 20
19.10275
 30
0.0
 11
48.01075
 21
19.10275
 31
0.0
  0
SOLID
  8
1
  6
CONTINUOUS
 62
     7
  5
140
 10
47.941083
 20
19.074417
 30
0.0
 11
47.941083
 21
19.130833
 31
0.0
 12
47.772083
 22
19.10275
 32
0.0
 13
47.772083
 23
19.10275
 33
0.0
  0
SOLID
  8
1
  6
CONTINUOUS
 62
     7
  5
141
 10
47.97475
 20
19.074417
 30
0.0
 11
47.97475
 21
19.130833
 31
0.0
 12
48.14375
 22
19.10275
 32
0.0
 13
48.14375
 23
19.10275
 33
0.0
  0
LINE
  8
6
  6
CONTINUOUS
 62
     7
  5
142
 10
47.772167
 20
19.108667
 30
0.0
 11
47.77225
 21
19.108667
 31
0.0
  0
LINE
  8
6
  6
CONTINUOUS
 62
     7
  5
143
 10
48.17975
 20
17.946917
 30
0.0
 11
48.179917
 21
17.946917
 31
0.0
  0
LINE
  8
6
  6
CONTINUOUS
 62
     7
  5
144
 10
48.17975
 20
19.10275
 30
0.0
 11
48.179917
 21
19.10275
 31
0.0
  0
LINE
  8
1
  6
CONTINUOUS
 62
     7
  5
145
 10
48.34875
 20
19.10275
 30
0.0
 11
49.303333
 21
19.10275
 31
0.0
  0
SOLID
  8
1
  6
CONTINUOUS
 62
     7
  5
146
 10
48.307583
 20
19.06925
 30
0.0
 11
48.307583
 21
19.125667
 31
0.0
 12
48.138583
 22
19.097583
 32
0.0
 13
48.138583
 23
19.097583
 33
0.0
  0
SOLID
  8
1
  6
CONTINUOUS
 62
     7
  5
147
 10
49.257083
 20
19.079583
 30
0.0
 11
49.257083
 21
19.136
 31
0.0
 12
49.426083
 22
19.107917
 32
0.0
 13
49.426083
 23
19.107917
 33
0.0
  0
LINE
  8
6
  6
CONTINUOUS
 62
     7
  5
148
 10
48.17975
 20
17.946917
 30
0.0
 11
48.179917
 21
17.946917
 31
0.0
  0
LINE
  8
6
  6
CONTINUOUS
 62
     7
  5
149
 10
49.472333
 20
17.946917
 30
0.0
 11
49.472583
 21
17.946917
 31
0.0
  0
LINE
  8
6
  6
CONTINUOUS
 62
     7
  5
14A
 10
49.472333
 20
19.10275
 30
0.0
 11
49.472583
 21
19.10275
 31
0.0
  0
LINE
  8
1
  6
CONTINUOUS
 62
     7
  5
14B
 10
49.426083
 20
18.031417
 30
0.0
 11
49.426083
 21
19.346083
 31
0.0
  0
LINE
  8
1
  6
CONTINUOUS
 62
     7
  5
14C
 10
49.790333
 20
19.035833
 30
0.0
 11
49.790333
 21
18.859333
 31
0.0
  0
LINE
  8
1
  6
CONTINUOUS
 62
     7
  5
14D
 10
49.959333
 20
19.10275
 30
0.0
 11
50.128333
 21
19.10275
 31
0.0
  0
LINE
  8
1
  6
CONTINUOUS
 62
     7
  5
14E
 10
49.303333
 20
19.10275
 30
0.0
 11
49.134333
 21
19.10275
 31
0.0
  0
LINE
  8
1
  6
CONTINUOUS
 62
     7
  5
14F
 10
50.128333
 20
19.10275
 30
0.0
 11
50.297333
 21
19.10275
 31
0.0
  0
SOLID
  8
1
  6
CONTINUOUS
 62
     7
  5
150
 10
49.959333
 20
19.074417
 30
0.0
 11
49.959333
 21
19.130833
 31
0.0
 12
49.790333
 22
19.10275
 32
0.0
 13
49.790333
 23
19.10275
 33
0.0
  0
SOLID
  8
1
  6
CONTINUOUS
 62
     7
  5
151
 10
49.303333
 20
19.074417
 30
0.0
 11
49.303333
 21
19.130833
 31
0.0
 12
49.472333
 22
19.10275
 32
0.0
 13
49.472333
 23
19.10275
 33
0.0
  0
LINE
  8
6
  6
CONTINUOUS
 62
     7
  5
152
 10
49.472333
 20
17.946917
 30
0.0
 11
49.472583
 21
17.946917
 31
0.0
  0
LINE
  8
6
  6
CONTINUOUS
 62
     7
  5
153
 10
49.790333
 20
19.120417
 30
0.0
 11
49.790417
 21
19.120417
 31
0.0
  0
LINE
  8
6
  6
CONTINUOUS
 62
     7
  5
154
 10
49.790333
 20
19.10275
 30
0.0
 11
49.790417
 21
19.10275
 31
0.0
  0
TEXT
  8
3
  6
CONTINUOUS
 62
   112
  5
155
 10
47.831583
 20
19.18325
 30
0.0
 40
0.133
  1
18"
  7
MONOTXT
210
0.0
220
0.0
230
1.0
  0
TEXT
  8
3
  6
CONTINUOUS
 62
   112
  5
156
 10
48.5635
 20
19.138083
 30
0.0
 40
0.133
  1
O.D.
  7
MONOTXT
210
0.0
220
0.0
230
1.0
  0
TEXT
  8
3
  6
CONTINUOUS
 62
   112
  5
157
 10
50.331667
 20
19.122667
 30
0.0
 40
0.133
  1
18"
  7
MONOTXT
210
0.0
220
0.0
230
1.0
  0
TEXT
  8
3
  6
CONTINUOUS
 62
   112
  5
158
 10
47.82075
 20
18.872917
 30
0.0
 40
0.133
  1
Min
  7
MONOTXT
210
0.0
220
0.0
230
1.0
  0
TEXT
  8
3
  6
CONTINUOUS
 62
   112
  5
159
 10
50.329167
 20
18.887167
 30
0.0
 40
0.133
  1
Min
  7
MONOTXT
210
0.0
220
0.0
230
1.0
  0
SOLID
  8
3
  6
CONTINUOUS
 62
     2
  5
15A
 10
49.444833
 20
17.30425
 30
0.0
 11
49.476833
 21
17.350667
 31
0.0
 12
49.322083
 22
17.424
 32
0.0
 13
49.322083
 23
17.424
 33
0.0
  0
LINE
  8
3
  6
CONTINUOUS
 62
     2
  5
15B
 10
49.460917
 20
17.327417
 30
0.0
 11
49.615917
 21
17.219583
 31
0.0
  0
LINE
  8
3
  6
CONTINUOUS
 62
     2
  5
15C
 10
49.615917
 20
17.219583
 30
0.0
 11
50.752583
 21
17.219583
 31
0.0
  0
SOLID
  8
3
  6
CONTINUOUS
 62
     2
  5
15D
 10
49.684583
 20
18.272
 30
0.0
 11
49.720083
 21
18.315833
 31
0.0
 12
49.570833
 22
18.400167
 32
0.0
 13
49.570833
 23
18.400167
 33
0.0
  0
LINE
  8
3
  6
CONTINUOUS
 62
     2
  5
15E
 10
49.702333
 20
18.293917
 30
0.0
 11
50.111083
 21
17.963417
 31
0.0
  0
LINE
  8
3
  6
CONTINUOUS
 62
     2
  5
15F
 10
50.111083
 20
17.963417
 30
0.0
 11
50.60625
 21
17.963417
 31
0.0
  0
SOLID
  8
3
  6
CONTINUOUS
 62
     2
  5
160
 10
49.763667
 20
17.719917
 30
0.0
 11
49.734583
 21
17.768083
 31
0.0
 12
49.604583
 22
17.65625
 32
0.0
 13
49.604583
 23
17.65625
 33
0.0
  0
LINE
  8
3
  6
CONTINUOUS
 62
     2
  5
161
 10
49.749167
 20
17.744
 30
0.0
 11
50.111083
 21
17.963417
 31
0.0
  0
LINE
  8
1
  6
CONTINUOUS
 62
     7
  5
162
 10
48.7415
 20
17.30075
 30
0.0
 11
47.155583
 21
17.30075
 31
0.0
  0
LINE
  8
1
  6
CONTINUOUS
 62
     7
  5
163
 10
47.816
 20
17.059417
 30
0.0
 11
47.155583
 21
17.059417
 31
0.0
  0
LINE
  8
1
  6
CONTINUOUS
 62
     7
  5
164
 10
47.398917
 20
16.890417
 30
0.0
 11
47.398917
 21
16.721417
 31
0.0
  0
LINE
  8
1
  6
CONTINUOUS
 62
     7
  5
165
 10
47.398917
 20
17.46975
 30
0.0
 11
47.398917
 21
17.63875
 31
0.0
  0
LINE
  8
1
  6
CONTINUOUS
 62
     7
  5
166
 10
47.398917
 20
16.721417
 30
0.0
 11
47.229917
 21
16.721417
 31
0.0
  0
SOLID
  8
1
  6
CONTINUOUS
 62
     7
  5
167
 10
47.427167
 20
16.890417
 30
0.0
 11
47.370833
 21
16.890417
 31
0.0
 12
47.398917
 22
17.059417
 32
0.0
 13
47.398917
 23
17.059417
 33
0.0
  0
SOLID
  8
1
  6
CONTINUOUS
 62
     7
  5
168
 10
47.427167
 20
17.46975
 30
0.0
 11
47.370833
 21
17.46975
 31
0.0
 12
47.398917
 22
17.30075
 32
0.0
 13
47.398917
 23
17.30075
 33
0.0
  0
LINE
  8
6
  6
CONTINUOUS
 62
     7
  5
169
 10
48.826
 20
17.30075
 30
0.0
 11
48.826083
 21
17.30075
 31
0.0
  0
LINE
  8
6
  6
CONTINUOUS
 62
     7
  5
16A
 10
47.9005
 20
17.059417
 30
0.0
 11
47.900583
 21
17.059417
 31
0.0
  0
LINE
  8
6
  6
CONTINUOUS
 62
     7
  5
16B
 10
47.398917
 20
17.059417
 30
0.0
 11
47.399167
 21
17.059417
 31
0.0
  0
TEXT
  8
3
  6
CONTINUOUS
 62
   112
  5
16C
 10
47.103833
 20
17.57075
 30
0.0
 40
0.133
  1
12" min., 24" max.
 50
90.0
  7
MONOTXT
210
0.0
220
0.0
230
1.0
  0
TEXT
  8
3
  6
CONTINUOUS
 62
   112
  5
16D
 10
50.698167
 20
18.03375
 30
0.0
 40
0.133
  1
Compacted
  7
MONOTXT
210
0.0
220
0.0
230
1.0
  0
TEXT
  8
3
  6
CONTINUOUS
 62
   112
  5
16E
 10
50.548583
 20
17.755167
 30
0.0
 40
0.133
  1
Backfill Material
  7
MONOTXT
210
0.0
220
0.0
230
1.0
  0
TEXT
  8
3
  6
CONTINUOUS
 62
   112
  5
16F
 10
50.845917
 20
17.2875
 30
0.0
 40
0.133
  1
Fine Aggregate
  7
MONOTXT
210
0.0
220
0.0
230
1.0
  0
TEXT
  8
3
  6
CONTINUOUS
 62
   112
  5
170
 10
50.92425
 20
17.013417
 30
0.0
 40
0.133
  1
for Leveling
  7
MONOTXT
210
0.0
220
0.0
230
1.0
  0
SOLID
  8
3
  6
CONTINUOUS
 62
     2
  5
171
 10
48.24875
 20
17.005583
 30
0.0
 11
48.295
 21
17.037833
 31
0.0
 12
48.1755
 22
17.160417
 32
0.0
 13
48.1755
 23
17.160417
 33
0.0
  0
LINE
  8
3
  6
CONTINUOUS
 62
     2
  5
172
 10
48.271917
 20
17.02175
 30
0.0
 11
48.569417
 21
16.59375
 31
0.0
  0
LINE
  8
3
  6
CONTINUOUS
 62
     2
  5
173
 10
48.569417
 20
16.59375
 30
0.0
 11
48.906917
 21
16.59375
 31
0.0
  0
TEXT
  8
3
  6
CONTINUOUS
 62
   112
  5
174
 10
49.072
 20
16.559917
 30
0.0
 40
0.133
  1
Earth Cushion
  7
MONOTXT
210
0.0
220
0.0
230
1.0
  0
TEXT
  8
3
  6
CONTINUOUS
 62
   112
  5
175
 10
64.829167
 20
9.5145
 30
0.0
 40
0.153583
  1
For pipe without corrugations, a one inch layer of
  7
MONOTXT
210
0.0
220
0.0
230
1.0
  0
TEXT
  8
3
  6
CONTINUOUS
 62
   112
  5
176
 10
64.22125
 20
9.202583
 30
0.0
 40
0.153583
  1
fine aggregate for leveling will normally be adequate
  7
MONOTXT
210
0.0
220
0.0
230
1.0
  0
TEXT
  8
3
  6
CONTINUOUS
 62
   112
  5
177
 10
64.19775
 20
8.9025
 30
0.0
 40
0.153583
  1
to achieve a uniform bearing surface. For corrugated
  7
MONOTXT
210
0.0
220
0.0
230
1.0
  0
TEXT
  8
3
  6
CONTINUOUS
 62
   112
  5
178
 10
64.19775
 20
8.325667
 30
0.0
 40
0.153583
  1
ions, 2" minimum for 1" depth corrugations, and 3"
  7
MONOTXT
210
0.0
220
0.0
230
1.0
  0
TEXT
  8
3
  6
CONTINUOUS
 62
   112
  5
179
 10
64.19775
 20
8.037417
 30
0.0
 40
0.153583
  1
minimum for 2" or 2-1/2" depth corrugations.
  7
MONOTXT
210
0.0
220
0.0
230
1.0
  0
LINE
  8
1
  6
CONTINUOUS
 62
     7
  5
17A
 10
47.405083
 20
17.164417
 30
0.0
 11
46.679917
 21
17.2505
 31
0.0
  0
LINE
  8
1
  6
CONTINUOUS
 62
     7
  5
17B
 10
46.679917
 20
17.2505
 30
0.0
 11
46.679917
 21
17.587
 31
0.0
  0
CIRCLE
  8
1
  6
CONTINUOUS
 62
     7
  5
17C
 10
47.40506
 20
17.164349
 30
0.0
 40
0.022695
210
0.0
220
0.0
230
1.0
  0
POINT
  8
1
  6
DASHED
 62
     2
  5
17D
 10
38.241833
 20
21.733167
 30
0.0
  0
POINT
  8
1
  6
DASHED
 62
     2
  5
17E
 10
71.466833
 20
0.613167
 30
0.0
  0
LINE
  8
1
  6
DASHED
 62
     4
  5
17F
 10
71.337167
 20
22.213167
 30
0.0
 11
36.137167
 21
22.213167
 31
0.0
  0
LINE
  8
1
  6
DASHED
 62
     4
  5
180
 10
71.337167
 20
0.213167
 30
0.0
 11
36.137167
 21
0.213167
 31
0.0
  0
LINE
  8
1
  6
DASHED
 62
     4
  5
181
 10
37.712167
 20
22.213167
 30
0.0
 11
37.712167
 21
0.213167
 31
0.0
  0
LINE
  8
1
  6
CONTINUOUS
 62
   140
  5
182
 10
38.753833
 20
21.713167
 30
0.0
 11
38.753833
 21
0.713167
 31
0.0
  0
LINE
  8
1
  6
CONTINUOUS
 62
   140
  5
183
 10
71.253833
 20
21.713167
 30
0.0
 11
38.753833
 21
21.713167
 31
0.0
  0
LINE
  8
1
  6
CONTINUOUS
 62
   140
  5
184
 10
71.253833
 20
21.713167
 30
0.0
 11
71.253833
 21
0.713167
 31
0.0
  0
LINE
  8
1
  6
CONTINUOUS
 62
   140
  5
185
 10
71.253833
 20
0.713167
 30
0.0
 11
38.753833
 21
0.713167
 31
0.0
  0
LINE
  8
1
  6
CONTINUOUS
 62
   140
  5
186
 10
38.503833
 20
17.813167
 30
0.0
 11
38.103833
 21
17.813167
 31
0.0
  0
LINE
  8
1
  6
CONTINUOUS
 62
   140
  5
187
 10
38.503833
 20
15.013167
 30
0.0
 11
38.103833
 21
15.013167
 31
0.0
  0
LINE
  8
1
  6
CONTINUOUS
 62
   140
  5
188
 10
38.503833
 20
7.413167
 30
0.0
 11
38.103833
 21
7.413167
 31
0.0
  0
LINE
  8
1
  6
CONTINUOUS
 62
   140
  5
189
 10
38.503833
 20
4.613167
 30
0.0
 11
38.103833
 21
4.613167
 31
0.0
  0
CIRCLE
  8
1
  6
CONTINUOUS
 62
   140
  5
18A
 10
38.253833
 20
17.813167
 30
0.0
 40
0.125
210
0.0
220
0.0
230
1.0
  0
CIRCLE
  8
1
  6
CONTINUOUS
 62
   140
  5
18B
 10
38.253833
 20
15.013167
 30
0.0
 40
0.125
210
0.0
220
0.0
230
1.0
  0
CIRCLE
  8
1
  6
CONTINUOUS
 62
   140
  5
18C
 10
38.253833
 20
7.413167
 30
0.0
 40
0.125
210
0.0
220
0.0
230
1.0
  0
CIRCLE
  8
1
  6
CONTINUOUS
 62
   140
  5
18D
 10
38.253833
 20
4.613167
 30
0.0
 40
0.125
210
0.0
220
0.0
230
1.0
  0
TEXT
  8
1
  6
CONTINUOUS
 62
   140
  5
18F
 10
67.709583
 20
0.621417
 30
0.0
 40
0.06
  1
$$$$$$$$$FILENAME$$$$$$$$
  7
txt
 11
67.709583
 21
0.651417
 31
0.0
210
0.0
220
0.0
230
1.0
 73
     2
  0
TEXT
  8
1
  6
CONTINUOUS
 62
   140
  5
190
 10
69.433667
 20
0.621417
 30
0.0
 40
0.06
  1
$USERNAME$
  7
txt
 11
69.433667
 21
0.651417
 31
0.0
210
0.0
220
0.0
230
1.0
 73
     2
  0
TEXT
  8
1
  6
CONTINUOUS
 62
   140
  5
191
 10
70.20725
 20
0.621417
 30
0.0
 40
0.06
  1
DD-MMM-YYYY HH:MM
  7
txt
 11
70.20725
 21
0.651417
 31
0.0
210
0.0
220
0.0
230
1.0
 73
     2
  0
POINT
  8
1
  6
CONTINUOUS
 62
   140
  5
192
 10
38.753833
 20
0.713167
 30
0.0
  0
POINT
  8
1
  6
CONTINUOUS
 62
   140
  5
193
 10
38.753833
 20
21.713167
 30
0.0
  0
POINT
  8
1
  6
CONTINUOUS
 62
   140
  5
194
 10
71.253833
 20
21.713167
 30
0.0
  0
POINT
  8
1
  6
CONTINUOUS
 62
   140
  5
195
 10
71.253833
 20
0.713167
 30
0.0
  0
LINE
  8
1
  6
CONTINUOUS
 62
   140
  5
196
 10
71.253833
 20
0.713167
 30
0.0
 11
71.253833
 21
3.212167
 31
0.0
  0
LINE
  8
1
  6
CONTINUOUS
 62
   140
  5
197
 10
71.253833
 20
4.203
 30
0.0
 11
65.253833
 21
4.203
 31
0.0
  0
LINE
  8
1
  6
CONTINUOUS
 62
   140
  5
198
 10
71.253833
 20
0.713167
 30
0.0
 11
65.253833
 21
0.713167
 31
0.0
  0
LINE
  8
1
  6
CONTINUOUS
 62
   140
  5
199
 10
66.79175
 20
2.612167
 30
0.0
 11
65.253833
 21
2.612167
 31
0.0
  0
LINE
  8
1
  6
CONTINUOUS
 62
   140
  5
19A
 10
66.79175
 20
2.413167
 30
0.0
 11
65.253833
 21
2.413167
 31
0.0
  0
LINE
  8
1
  6
CONTINUOUS
 62
   140
  5
19B
 10
66.79175
 20
2.214167
 30
0.0
 11
65.253833
 21
2.214167
 31
0.0
  0
LINE
  8
1
  6
CONTINUOUS
 62
   140
  5
19C
 10
66.79175
 20
2.015167
 30
0.0
 11
65.253833
 21
2.015167
 31
0.0
  0
LINE
  8
1
  6
CONTINUOUS
 62
   140
  5
19D
 10
66.79175
 20
1.816167
 30
0.0
 11
65.253833
 21
1.816167
 31
0.0
  0
LINE
  8
1
  6
CONTINUOUS
 62
   140
  5
19E
 10
66.79175
 20
1.617167
 30
0.0
 11
65.253833
 21
1.617167
 31
0.0
  0
LINE
  8
1
  6
CONTINUOUS
 62
   140
  5
19F
 10
66.79175
 20
1.418167
 30
0.0
 11
65.253833
 21
1.418167
 31
0.0
  0
LINE
  8
1
  6
CONTINUOUS
 62
   140
  5
1A0
 10
66.79175
 20
1.219167
 30
0.0
 11
65.253833
 21
1.219167
 31
0.0
  0
LINE
  8
1
  6
CONTINUOUS
 62
   140
  5
1A1
 10
66.79175
 20
1.020167
 30
0.0
 11
65.253833
 21
1.020167
 31
0.0
  0
TEXT
  8
1
  6
CONTINUOUS
 62
   140
  5
1A2
 10
65.560917
 20
2.6595
 30
0.0
 40
0.079
  1
REVISION DATE
 41
1.003165
  7
MONOTXT
210
0.0
220
0.0
230
1.0
  0
LINE
  8
1
  6
CONTINUOUS
 62
   140
  5
1A3
 10
65.253833
 20
2.123167
 30
0.0
 11
65.253833
 21
0.713167
 31
0.0
  0
TEXT
  8
1
  6
CONTINUOUS
 62
   140
  5
1A5
 10
65.465167
 20
3.948083
 30
0.0
 40
0.1875
  1
WEST VIRGINIA DEPARTMENT OF TRANSPORTATION
  7
ROMANT
 72
     4
 11
68.2355
 21
4.041833
 31
0.0
210
0.0
220
0.0
230
1.0
  0
TEXT
  8
1
  6
CONTINUOUS
 62
   140
  5
1A6
 10
67.038
 20
3.739167
 30
0.0
 40
0.1875
  1
DIVISION OF HIGHWAYS
  7
ROMANT
 72
     4
 11
68.2575
 21
3.832917
 31
0.0
210
0.0
220
0.0
230
1.0
  0
TEXT
  8
1
  6
CONTINUOUS
 62
   140
  5
1A7
 10
67.268083
 20
3.541
 30
0.0
 40
0.1875
  1
STANDARD DETAIL
  7
ROMANT
 72
     4
 11
68.246167
 21
3.63475
 31
0.0
210
0.0
220
0.0
230
1.0
  0
LINE
  8
1
  6
CONTINUOUS
 62
   140
  5
1A8
 10
66.79175
 20
2.812167
 30
0.0
 11
65.253833
 21
2.812167
 31
0.0
  0
LINE
  8
1
  6
CONTINUOUS
 62
   140
  5
1A9
 10
66.79175
 20
0.713167
 30
0.0
 11
66.79175
 21
2.812167
 31
0.0
  0
LINE
  8
1
  6
CONTINUOUS
 62
   140
  5
1AA
 10
65.253833
 20
0.713167
 30
0.0
 11
65.253833
 21
4.203
 31
0.0
  0
TEXT
  8
1
  6
CONTINUOUS
 62
     2
  5
1AB
 10
67.26075
 20
0.93025
 30
0.0
 40
0.166667
  1
STANDARD SHEET DR8       
  7
txt
 72
     4
 11
69.300083
 21
1.013583
 31
0.0
210
0.0
220
0.0
230
1.0
  0
TEXT
  8
1
  6
CONTINUOUS
 62
     2
  5
1AC
 10
66.519417
 20
3.07525
 30
0.0
 40
0.208333
  1
                        
  7
txt
 72
     4
 11
68.984667
 21
3.179417
 31
0.0
210
0.0
220
0.0
230
1.0
  0
TEXT
  8
1
  6
CONTINUOUS
 62
     2
  5
1AD
 10
66.868833
 20
2.703667
 30
0.0
 40
0.208333
  1
 MISCELLANEOUS DRAINAGE 
  7
txt
 72
     4
 11
69.3155
 21
2.807833
 31
0.0
210
0.0
220
0.0
230
1.0
  0
TEXT
  8
1
  6
CONTINUOUS
 62
     2
  5
1AE
 10
67.19725
 20
2.3365
 30
0.0
 40
0.208333
  1
     (sheet 1 of 4)     
  7
txt
 72
     4
 11
69.64725
 21
2.440667
 31
0.0
210
0.0
220
0.0
230
1.0
  0
TEXT
  8
1
  6
CONTINUOUS
 62
     2
  5
1AF
 10
66.525
 20
1.978
 30
0.0
 40
0.208333
  1
                        
  7
txt
 72
     4
 11
68.99025
 21
2.082167
 31
0.0
210
0.0
220
0.0
230
1.0
  0
TEXT
  8
1
  6
CONTINUOUS
 62
     2
  5
1B0
 10
66.525
 20
1.627667
 30
0.0
 40
0.208333
  1
                        
  7
txt
 72
     4
 11
68.99025
 21
1.731833
 31
0.0
210
0.0
220
0.0
230
1.0
  0
TEXT
  8
1
  6
CONTINUOUS
 62
     2
  5
1B2
 10
65.288917
 20
2.449583
 30
0.0
 40
0.083333
  1
                  
  7
ROMANS
 72
     4
 11
66.025
 21
2.49125
 31
0.0
210
0.0
220
0.0
230
1.0
  0
TEXT
  8
1
  6
CONTINUOUS
 62
     2
  5
1B3
 10
65.288917
 20
2.250583
 30
0.0
 40
0.083333
  1
                  
  7
ROMANS
 72
     4
 11
66.025
 21
2.29225
 31
0.0
210
0.0
220
0.0
230
1.0
  0
TEXT
  8
1
  6
CONTINUOUS
 62
     2
  5
1B4
 10
65.288917
 20
2.051583
 30
0.0
 40
0.083333
  1
                  
  7
ROMANS
 72
     4
 11
66.025
 21
2.09325
 31
0.0
210
0.0
220
0.0
230
1.0
  0
TEXT
  8
1
  6
CONTINUOUS
 62
     2
  5
1B5
 10
65.288917
 20
1.852583
 30
0.0
 40
0.083333
  1
                  
  7
ROMANS
 72
     4
 11
66.025
 21
1.89425
 31
0.0
210
0.0
220
0.0
230
1.0
  0
TEXT
  8
1
  6
CONTINUOUS
 62
     2
  5
1B6
 10
65.288917
 20
1.653583
 30
0.0
 40
0.083333
  1
                  
  7
ROMANS
 72
     4
 11
66.025
 21
1.69525
 31
0.0
210
0.0
220
0.0
230
1.0
  0
TEXT
  8
1
  6
CONTINUOUS
 62
     2
  5
1B7
 10
65.288917
 20
1.454583
 30
0.0
 40
0.083333
  1
                  
  7
ROMANS
 72
     4
 11
66.025
 21
1.49625
 31
0.0
210
0.0
220
0.0
230
1.0
  0
TEXT
  8
1
  6
CONTINUOUS
 62
     2
  5
1B8
 10
65.288917
 20
1.255583
 30
0.0
 40
0.083333
  1
                  
  7
ROMANS
 72
     4
 11
66.025
 21
1.29725
 31
0.0
210
0.0
220
0.0
230
1.0
  0
TEXT
  8
1
  6
CONTINUOUS
 62
     2
  5
1B9
 10
65.288917
 20
1.056583
 30
0.0
 40
0.083333
  1
                  
  7
ROMANS
 72
     4
 11
66.025
 21
1.09825
 31
0.0
210
0.0
220
0.0
230
1.0
  0
TEXT
  8
1
  6
CONTINUOUS
 62
     2
  5
1BA
 10
65.287333
 20
0.852417
 30
0.0
 40
0.083333
  1
                  
  7
ROMANS
 72
     4
 11
66.023417
 21
0.894083
 31
0.0
210
0.0
220
0.0
230
1.0
  0
POINT
  8
1
  6
DASHED
 62
     2
  5
1BB
 10
38.241833
 20
21.733167
 30
0.0
  0
POINT
  8
1
  6
DASHED
 62
     2
  5
1BC
 10
71.466833
 20
0.613167
 30
0.0
  0
TEXT
  8
1
  6
CONTINUOUS
 62
   140
  5
1BD
 10
38.801833
 20
0.592167
 30
0.0
 40
0.06
  1
P5A1G92-STDBOR a
  7
MONOTXT
210
0.0
220
0.0
230
1.0
  0
LINE
  8
1
  6
CONTINUOUS
 62
   233
  5
1BE
 10
40.501
 20
13.884167
 30
0.0
 11
40.725333
 21
13.884167
 31
0.0
  0
LINE
  8
1
  6
CONTINUOUS
 62
   233
  5
1BF
 10
40.725333
 20
13.884167
 30
0.0
 11
40.861333
 21
13.91275
 31
0.0
  0
LINE
  8
1
  6
CONTINUOUS
 62
   233
  5
1C0
 10
40.861333
 20
13.91275
 30
0.0
 11
40.861333
 21
11.809167
 31
0.0
  0
LINE
  8
1
  6
CONTINUOUS
 62
   233
  5
1C1
 10
40.861333
 20
11.809167
 30
0.0
 11
42.276583
 21
11.809167
 31
0.0
  0
LINE
  8
1
  6
CONTINUOUS
 62
   233
  5
1C2
 10
44.491083
 20
11.809167
 30
0.0
 11
44.491083
 21
13.941167
 31
0.0
  0
LINE
  8
1
  6
CONTINUOUS
 62
   233
  5
1C3
 10
44.491083
 20
13.941167
 30
0.0
 11
44.627
 21
13.9555
 31
0.0
  0
LINE
  8
1
  6
CONTINUOUS
 62
   233
  5
1C4
 10
44.627
 20
13.9555
 30
0.0
 11
44.871667
 21
13.926917
 31
0.0
  0
LINE
  8
1
  6
CONTINUOUS
 62
   233
  5
1C5
 10
44.871667
 20
13.926917
 30
0.0
 11
44.871667
 21
13.755833
 31
0.0
  0
ARC
  8
1
  6
CONTINUOUS
 62
   233
  5
1C6
 10
42.721233
 20
12.170333
 30
0.0
 40
0.627578
 50
215.140842
 51
324.859153
210
0.0
220
0.0
230
1.0
  0
INSERT
  8
1
  6
CONTINUOUS
 62
    52
  5
260
  2
$X16
 10
23.958417
 20
-12.933833
 30
0.0
 41
1.280003
 42
1.280003
210
0.0
220
0.0
230
1.0
  0
CIRCLE
  8
1
  6
CONTINUOUS
 62
   233
  5
261
 10
42.726277
 20
12.27629
 30
0.0
 40
0.527311
210
0.0
220
0.0
230
1.0
  0
CIRCLE
  8
1
  6
CONTINUOUS
 62
   233
  5
262
 10
42.720277
 20
12.264373
 30
0.0
 40
0.624275
210
0.0
220
0.0
230
1.0
  0
LINE
  8
1
  6
CONTINUOUS
 62
   233
  5
263
 10
40.861333
 20
13.91275
 30
0.0
 11
40.9225
 21
13.948333
 31
0.0
  0
LINE
  8
1
  6
CONTINUOUS
 62
   233
  5
264
 10
40.9225
 20
13.948333
 30
0.0
 11
41.112917
 21
13.905583
 31
0.0
  0
LINE
  8
1
  6
CONTINUOUS
 62
   233
  5
265
 10
41.112917
 20
13.905583
 30
0.0
 11
41.303167
 21
13.941167
 31
0.0
  0
LINE
  8
1
  6
CONTINUOUS
 62
   233
  5
266
 10
41.303167
 20
13.941167
 30
0.0
 11
41.479917
 21
13.869917
 31
0.0
  0
LINE
  8
1
  6
CONTINUOUS
 62
   233
  5
267
 10
41.479917
 20
13.869917
 30
0.0
 11
41.649833
 21
13.869917
 31
0.0
  0
LINE
  8
1
  6
CONTINUOUS
 62
   233
  5
268
 10
41.649833
 20
13.869917
 30
0.0
 11
41.874167
 21
13.841417
 31
0.0
  0
LINE
  8
1
  6
CONTINUOUS
 62
   233
  5
269
 10
41.874167
 20
13.841417
 30
0.0
 11
42.064417
 21
13.905583
 31
0.0
  0
LINE
  8
1
  6
CONTINUOUS
 62
   233
  5
26A
 10
42.064417
 20
13.905583
 30
0.0
 11
42.43825
 21
13.8485
 31
0.0
  0
LINE
  8
1
  6
CONTINUOUS
 62
   233
  5
26B
 10
42.43825
 20
13.8485
 30
0.0
 11
42.57425
 21
13.884167
 31
0.0
  0
LINE
  8
1
  6
CONTINUOUS
 62
   233
  5
26C
 10
42.57425
 20
13.884167
 30
0.0
 11
42.703333
 21
13.841417
 31
0.0
  0
LINE
  8
1
  6
CONTINUOUS
 62
   233
  5
26D
 10
42.703333
 20
13.841417
 30
0.0
 11
42.914167
 21
13.89125
 31
0.0
  0
LINE
  8
1
  6
CONTINUOUS
 62
   233
  5
26E
 10
42.914167
 20
13.89125
 30
0.0
 11
43.17925
 21
13.8485
 31
0.0
  0
LINE
  8
1
  6
CONTINUOUS
 62
   233
  5
26F
 10
43.17925
 20
13.8485
 30
0.0
 11
43.3695
 21
13.919833
 31
0.0
  0
LINE
  8
1
  6
CONTINUOUS
 62
   233
  5
270
 10
43.3695
 20
13.919833
 30
0.0
 11
43.559833
 21
13.884167
 31
0.0
  0
LINE
  8
1
  6
CONTINUOUS
 62
   233
  5
271
 10
43.559833
 20
13.884167
 30
0.0
 11
43.736583
 21
13.884167
 31
0.0
  0
LINE
  8
1
  6
CONTINUOUS
 62
   233
  5
272
 10
43.736583
 20
13.884167
 30
0.0
 11
43.967667
 21
13.91275
 31
0.0
  0
LINE
  8
1
  6
CONTINUOUS
 62
   233
  5
273
 10
43.967667
 20
13.91275
 30
0.0
 11
44.205583
 21
13.9555
 31
0.0
  0
LINE
  8
1
  6
CONTINUOUS
 62
   233
  5
274
 10
44.205583
 20
13.9555
 30
0.0
 11
44.416333
 21
13.962667
 31
0.0
  0
LINE
  8
1
  6
CONTINUOUS
 62
   233
  5
275
 10
44.416333
 20
13.962667
 30
0.0
 11
44.491083
 21
13.941167
 31
0.0
  0
LINE
  8
1
  6
CONTINUOUS
 62
     7
  5
276
 10
40.861333
 20
13.358083
 30
0.0
 11
40.861333
 21
13.544083
 31
0.0
  0
LINE
  8
1
  6
CONTINUOUS
 62
     7
  5
277
 10
42.090167
 20
12.30275
 30
0.0
 11
42.090167
 21
13.544083
 31
0.0
  0
LINE
  8
1
  6
CONTINUOUS
 62
     7
  5
278
 10
41.021333
 20
13.313667
 30
0.0
 11
41.959917
 21
13.313667
 31
0.0
  0
SOLID
  8
1
  6
CONTINUOUS
 62
     7
  5
279
 10
41.021333
 20
13.286917
 30
0.0
 11
41.021333
 21
13.340333
 31
0.0
 12
40.861333
 22
13.313667
 32
0.0
 13
40.861333
 23
13.313667
 33
0.0
  0
SOLID
  8
1
  6
CONTINUOUS
 62
     7
  5
27A
 10
41.959917
 20
13.286917
 30
0.0
 11
41.959917
 21
13.340333
 31
0.0
 12
42.119917
 22
13.313667
 32
0.0
 13
42.119917
 23
13.313667
 33
0.0
  0
TEXT
  8
1
  6
CONTINUOUS
 62
   112
  5
27B
 10
41.28575
 20
13.3905
 30
0.0
 40
0.133
  1
O.D.
  7
MONOTXT
210
0.0
220
0.0
230
1.0
  0
LINE
  8
6
  6
CONTINUOUS
 62
     7
  5
27C
 10
40.861333
 20
13.278083
 30
0.0
 11
40.861417
 21
13.278083
 31
0.0
  0
LINE
  8
6
  6
CONTINUOUS
 62
     7
  5
27D
 10
42.119917
 20
12.22275
 30
0.0
 11
42.12
 21
12.22275
 31
0.0
  0
LINE
  8
6
  6
CONTINUOUS
 62
     7
  5
27E
 10
42.119917
 20
13.313667
 30
0.0
 11
42.12
 21
13.313667
 31
0.0
  0
LINE
  8
1
  6
CONTINUOUS
 62
     7
  5
27F
 10
43.368417
 20
12.30275
 30
0.0
 11
43.368417
 21
13.544083
 31
0.0
  0
LINE
  8
1
  6
CONTINUOUS
 62
     7
  5
280
 10
42.279917
 20
13.313667
 30
0.0
 11
43.208417
 21
13.313667
 31
0.0
  0
SOLID
  8
1
  6
CONTINUOUS
 62
     7
  5
281
 10
42.279917
 20
13.286917
 30
0.0
 11
42.279917
 21
13.340333
 31
0.0
 12
42.119917
 22
13.313667
 32
0.0
 13
42.119917
 23
13.313667
 33
0.0
  0
SOLID
  8
1
  6
CONTINUOUS
 62
     7
  5
282
 10
43.208417
 20
13.286917
 30
0.0
 11
43.208417
 21
13.340333
 31
0.0
 12
43.368417
 22
13.313667
 32
0.0
 13
43.368417
 23
13.313667
 33
0.0
  0
TEXT
  8
1
  6
CONTINUOUS
 62
   112
  5
283
 10
42.53925
 20
13.3905
 30
0.0
 40
0.133
  1
O.D.
  7
MONOTXT
210
0.0
220
0.0
230
1.0
  0
LINE
  8
6
  6
CONTINUOUS
 62
     7
  5
284
 10
42.119917
 20
12.22275
 30
0.0
 11
42.12
 21
12.22275
 31
0.0
  0
LINE
  8
6
  6
CONTINUOUS
 62
     7
  5
285
 10
43.368417
 20
12.22275
 30
0.0
 11
43.368583
 21
12.22275
 31
0.0
  0
LINE
  8
6
  6
CONTINUOUS
 62
     7
  5
286
 10
43.368417
 20
13.313667
 30
0.0
 11
43.368583
 21
13.313667
 31
0.0
  0
LINE
  8
1
  6
CONTINUOUS
 62
     7
  5
287
 10
43.368417
 20
12.30275
 30
0.0
 11
43.368417
 21
13.544083
 31
0.0
  0
LINE
  8
1
  6
CONTINUOUS
 62
     7
  5
288
 10
44.491083
 20
13.240833
 30
0.0
 11
44.491083
 21
13.08325
 31
0.0
  0
LINE
  8
1
  6
CONTINUOUS
 62
     7
  5
289
 10
43.528417
 20
13.313667
 30
0.0
 11
44.331083
 21
13.313667
 31
0.0
  0
SOLID
  8
1
  6
CONTINUOUS
 62
     7
  5
28A
 10
43.528417
 20
13.286917
 30
0.0
 11
43.528417
 21
13.340333
 31
0.0
 12
43.368417
 22
13.313667
 32
0.0
 13
43.368417
 23
13.313667
 33
0.0
  0
SOLID
  8
1
  6
CONTINUOUS
 62
     7
  5
28B
 10
44.331083
 20
13.286917
 30
0.0
 11
44.331083
 21
13.340333
 31
0.0
 12
44.491083
 22
13.313667
 32
0.0
 13
44.491083
 23
13.313667
 33
0.0
  0
TEXT
  8
1
  6
CONTINUOUS
 62
   112
  5
28C
 10
43.724917
 20
13.3905
 30
0.0
 40
0.133
  1
O.D.
  7
MONOTXT
210
0.0
220
0.0
230
1.0
  0
LINE
  8
6
  6
CONTINUOUS
 62
     7
  5
28D
 10
43.368417
 20
12.22275
 30
0.0
 11
43.368583
 21
12.22275
 31
0.0
  0
LINE
  8
6
  6
CONTINUOUS
 62
     7
  5
28E
 10
44.491083
 20
13.320833
 30
0.0
 11
44.49125
 21
13.320833
 31
0.0
  0
LINE
  8
6
  6
CONTINUOUS
 62
     7
  5
28F
 10
44.491083
 20
13.313667
 30
0.0
 11
44.49125
 21
13.313667
 31
0.0
  0
SOLID
  8
3
  6
CONTINUOUS
 62
     2
  5
290
 10
42.304583
 20
11.483083
 30
0.0
 11
42.352417
 21
11.459833
 31
0.0
 12
42.39825
 22
11.6155
 32
0.0
 13
42.39825
 23
11.6155
 33
0.0
  0
LINE
  8
3
  6
CONTINUOUS
 62
     2
  5
291
 10
42.328417
 20
11.4715
 30
0.0
 11
42.125667
 21
11.053167
 31
0.0
  0
LINE
  8
3
  6
CONTINUOUS
 62
     2
  5
292
 10
42.125667
 20
11.053167
 30
0.0
 11
42.553833
 21
11.053167
 31
0.0
  0
SOLID
  8
3
  6
CONTINUOUS
 62
     2
  5
293
 10
43.13525
 20
12.894833
 30
0.0
 11
43.13525
 21
12.948167
 31
0.0
 12
42.97525
 22
12.9215
 32
0.0
 13
42.97525
 23
12.9215
 33
0.0
  0
LINE
  8
3
  6
CONTINUOUS
 62
     2
  5
294
 10
43.13525
 20
12.9215
 30
0.0
 11
45.0145
 21
12.9215
 31
0.0
  0
SOLID
  8
3
  6
CONTINUOUS
 62
     2
  5
295
 10
43.611083
 20
12.337083
 30
0.0
 11
43.564083
 21
12.362167
 31
0.0
 12
43.51225
 22
12.208417
 32
0.0
 13
43.51225
 23
12.208417
 33
0.0
  0
LINE
  8
3
  6
CONTINUOUS
 62
     2
  5
296
 10
43.587583
 20
12.349667
 30
0.0
 11
43.892917
 21
12.9215
 31
0.0
  0
TEXT
  8
3
  6
CONTINUOUS
 62
   112
  5
297
 10
43.675417
 20
13.092667
 30
0.0
 40
0.133
  1
Min.
  7
MONOTXT
210
0.0
220
0.0
230
1.0
  0
TEXT
  8
3
  6
CONTINUOUS
 62
   112
  5
298
 10
41.275917
 20
13.092667
 30
0.0
 40
0.133
  1
Min.
  7
MONOTXT
210
0.0
220
0.0
230
1.0
  0
TEXT
  8
3
  6
CONTINUOUS
 62
   112
  5
299
 10
42.622417
 20
11.0555
 30
0.0
 40
0.133
  1
Fine Aggregate
  7
MONOTXT
210
0.0
220
0.0
230
1.0
  0
TEXT
  8
3
  6
CONTINUOUS
 62
   112
  5
29A
 10
42.63625
 20
10.794583
 30
0.0
 40
0.133
  1
For Leveling
  7
MONOTXT
210
0.0
220
0.0
230
1.0
  0
TEXT
  8
3
  6
CONTINUOUS
 62
   112
  5
29B
 10
45.165667
 20
12.938083
 30
0.0
 40
0.133
  1
Crushed
  7
MONOTXT
210
0.0
220
0.0
230
1.0
  0
TEXT
  8
3
  6
CONTINUOUS
 62
   112
  5
29C
 10
45.17975
 20
12.7205
 30
0.0
 40
0.133
  1
Aggregate
  7
MONOTXT
210
0.0
220
0.0
230
1.0
  0
TEXT
  8
3
  6
CONTINUOUS
 62
   112
  5
29D
 10
45.244083
 20
12.343
 30
0.0
 40
0.133
  1
Backfill
  7
MONOTXT
210
0.0
220
0.0
230
1.0
  0
TEXT
  8
3
  6
CONTINUOUS
 62
   112
  5
29E
 10
44.378583
 20
11.2925
 30
0.0
 40
0.153583
  1
0.15 O.D Min.
  7
MONOTXT
210
0.0
220
0.0
230
1.0
  0
LINE
  8
3
  6
CONTINUOUS
 62
     2
  5
29F
 10
42.824083
 20
11.635333
 30
0.0
 11
43.987583
 21
11.635333
 31
0.0
  0
LINE
  8
1
  6
CONTINUOUS
 62
     7
  5
2A0
 10
43.823583
 20
11.809167
 30
0.0
 11
43.987583
 21
11.809167
 31
0.0
  0
LINE
  8
3
  6
CONTINUOUS
 62
     2
  5
2A1
 10
43.75725
 20
11.969167
 30
0.0
 11
43.75725
 21
12.129167
 31
0.0
  0
LINE
  8
3
  6
CONTINUOUS
 62
     2
  5
2A2
 10
43.75725
 20
11.438417
 30
0.0
 11
43.75725
 21
11.3615
 31
0.0
  0
SOLID
  8
3
  6
CONTINUOUS
 62
     2
  5
2A3
 10
43.783917
 20
11.969167
 30
0.0
 11
43.730583
 21
11.969167
 31
0.0
 12
43.75725
 22
11.809167
 32
0.0
 13
43.75725
 23
11.809167
 33
0.0
  0
SOLID
  8
3
  6
CONTINUOUS
 62
     2
  5
2A4
 10
43.783917
 20
11.467833
 30
0.0
 11
43.730583
 21
11.467833
 31
0.0
 12
43.75725
 22
11.627833
 32
0.0
 13
43.75725
 23
11.627833
 33
0.0
  0
LINE
  8
6
  6
CONTINUOUS
 62
     7
  5
2A5
 10
42.744083
 20
11.598417
 30
0.0
 11
42.74425
 21
11.598417
 31
0.0
  0
LINE
  8
6
  6
CONTINUOUS
 62
     7
  5
2A6
 10
43.743583
 20
11.809167
 30
0.0
 11
43.743667
 21
11.809167
 31
0.0
  0
LINE
  8
6
  6
CONTINUOUS
 62
     7
  5
2A7
 10
43.75725
 20
11.809167
 30
0.0
 11
43.757333
 21
11.809167
 31
0.0
  0
LINE
  8
3
  6
CONTINUOUS
 62
     2
  5
2A8
 10
43.75725
 20
11.3615
 30
0.0
 11
44.329667
 21
11.3615
 31
0.0
  0
TEXT
  8
3
  6
CONTINUOUS
 62
   112
  5
2A9
 10
41.71075
 20
9.798333
 30
0.0
 40
0.153583
  1
Class B Bedding
  7
MONOTXT
210
0.0
220
0.0
230
1.0
  0
LINE
  8
1
  6
CONTINUOUS
 62
   233
  5
2AA
 10
46.504417
 20
13.888
 30
0.0
 11
46.8015
 21
13.937833
 31
0.0
  0
LINE
  8
1
  6
CONTINUOUS
 62
   233
  5
2AB
 10
46.8015
 20
13.937833
 30
0.0
 11
46.989583
 21
13.937833
 31
0.0
  0
LINE
  8
1
  6
CONTINUOUS
 62
   233
  5
2AC
 10
46.989583
 20
13.937833
 30
0.0
 11
46.989583
 21
11.818833
 31
0.0
  0
LINE
  8
1
  6
CONTINUOUS
 62
   233
  5
2AD
 10
46.989583
 20
11.818833
 30
0.0
 11
47.0985
 21
11.818833
 31
0.0
  0
LINE
  8
1
  6
CONTINUOUS
 62
   233
  5
2AE
 10
47.0985
 20
11.818833
 30
0.0
 11
47.0985
 21
11.563417
 31
0.0
  0
LINE
  8
1
  6
CONTINUOUS
 62
   233
  5
2AF
 10
47.2585
 20
11.403417
 30
0.0
 11
50.443
 21
11.403417
 31
0.0
  0
LINE
  8
1
  6
CONTINUOUS
 62
   233
  5
2B0
 10
50.603
 20
11.563417
 30
0.0
 11
50.603
 21
11.829167
 31
0.0
  0
LINE
  8
1
  6
CONTINUOUS
 62
   233
  5
2B1
 10
50.603
 20
11.829167
 30
0.0
 11
50.67225
 21
11.829167
 31
0.0
  0
LINE
  8
1
  6
CONTINUOUS
 62
   233
  5
2B2
 10
50.67225
 20
11.829167
 30
0.0
 11
50.67225
 21
13.979417
 31
0.0
  0
LINE
  8
1
  6
CONTINUOUS
 62
   233
  5
2B3
 10
50.67225
 20
13.979417
 30
0.0
 11
51.058333
 21
13.979417
 31
0.0
  0
ARC
  8
1
  6
CONTINUOUS
 62
   233
  5
2B4
 10
50.44299
 20
11.5634
 30
0.0
 40
0.16
 50
270.0
 51
360.0
210
0.0
220
0.0
230
1.0
  0
ARC
  8
1
  6
CONTINUOUS
 62
   233
  5
2B5
 10
47.258457
 20
11.5634
 30
0.0
 40
0.16
 50
180.0
 51
270.0
210
0.0
220
0.0
230
1.0
  0
INSERT
  8
1
  6
CONTINUOUS
 62
    52
  5
35E
  2
$X20
 10
23.958417
 20
-12.933833
 30
0.0
 41
1.280003
 42
1.280003
210
0.0
220
0.0
230
1.0
  0
LINE
  8
1
  6
CONTINUOUS
 62
   233
  5
35F
 10
50.603
 20
11.829167
 30
0.0
 11
49.2765
 21
11.825417
 31
0.0
  0
CIRCLE
  8
1
  6
CONTINUOUS
 62
   233
  5
360
 10
48.835843
 20
12.245107
 30
0.0
 40
0.516013
210
0.0
220
0.0
230
1.0
  0
CIRCLE
  8
1
  6
CONTINUOUS
 62
   233
  5
361
 10
48.835843
 20
12.245107
 30
0.0
 40
0.60865
210
0.0
220
0.0
230
1.0
  0
LINE
  8
1
  6
CONTINUOUS
 62
   233
  5
362
 10
48.397667
 20
11.82275
 30
0.0
 11
47.0985
 21
11.818833
 31
0.0
  0
ARC
  8
1
  6
CONTINUOUS
 62
   233
  5
363
 10
48.847253
 20
12.190797
 30
0.0
 40
0.639437
 50
217.055189
 51
323.284444
210
0.0
220
0.0
230
1.0
  0
LINE
  8
6
  6
CONTINUOUS
 62
     7
  5
364
 10
48.349667
 20
12.041167
 30
0.0
 11
48.34975
 21
12.041167
 31
0.0
  0
LINE
  8
6
  6
CONTINUOUS
 62
     7
  5
365
 10
49.302833
 20
12.437
 30
0.0
 11
49.302917
 21
12.437
 31
0.0
  0
LINE
  8
1
  6
CONTINUOUS
 62
     7
  5
366
 10
46.989583
 20
13.263333
 30
0.0
 11
46.989583
 21
13.112917
 31
0.0
  0
LINE
  8
1
  6
CONTINUOUS
 62
     7
  5
367
 10
48.22725
 20
12.325
 30
0.0
 11
48.22725
 21
13.57375
 31
0.0
  0
LINE
  8
1
  6
CONTINUOUS
 62
     7
  5
368
 10
47.149583
 20
13.343333
 30
0.0
 11
48.06725
 21
13.343333
 31
0.0
  0
SOLID
  8
1
  6
CONTINUOUS
 62
     7
  5
369
 10
47.149583
 20
13.316667
 30
0.0
 11
47.149583
 21
13.37
 31
0.0
 12
46.989583
 22
13.34325
 32
0.0
 13
46.989583
 23
13.34325
 33
0.0
  0
SOLID
  8
1
  6
CONTINUOUS
 62
     7
  5
36A
 10
48.06725
 20
13.316667
 30
0.0
 11
48.06725
 21
13.37
 31
0.0
 12
48.22725
 22
13.34325
 32
0.0
 13
48.22725
 23
13.34325
 33
0.0
  0
TEXT
  8
1
  6
CONTINUOUS
 62
   112
  5
36B
 10
47.403583
 20
13.420167
 30
0.0
 40
0.153583
  1
O.D.
  7
MONOTXT
210
0.0
220
0.0
230
1.0
  0
LINE
  8
6
  6
CONTINUOUS
 62
     7
  5
36C
 10
46.989583
 20
13.343333
 30
0.0
 11
46.989667
 21
13.343333
 31
0.0
  0
POINT
  8
6
  6
CONTINUOUS
 62
     7
  5
36D
 10
48.22725
 20
12.245
 30
0.0
  0
POINT
  8
6
  6
CONTINUOUS
 62
     7
  5
36E
 10
48.22725
 20
13.343333
 30
0.0
  0
LINE
  8
1
  6
CONTINUOUS
 62
     7
  5
36F
 10
48.22725
 20
12.325
 30
0.0
 11
48.22725
 21
13.57375
 31
0.0
  0
LINE
  8
1
  6
CONTINUOUS
 62
     7
  5
370
 10
49.4445
 20
12.325
 30
0.0
 11
49.4445
 21
13.57375
 31
0.0
  0
LINE
  8
1
  6
CONTINUOUS
 62
     7
  5
371
 10
48.38725
 20
13.343333
 30
0.0
 11
49.2845
 21
13.343333
 31
0.0
  0
SOLID
  8
1
  6
CONTINUOUS
 62
     7
  5
372
 10
48.38725
 20
13.316667
 30
0.0
 11
48.38725
 21
13.37
 31
0.0
 12
48.22725
 22
13.34325
 32
0.0
 13
48.22725
 23
13.34325
 33
0.0
  0
SOLID
  8
1
  6
CONTINUOUS
 62
     7
  5
373
 10
49.2845
 20
13.316667
 30
0.0
 11
49.2845
 21
13.37
 31
0.0
 12
49.4445
 22
13.34325
 32
0.0
 13
49.4445
 23
13.34325
 33
0.0
  0
TEXT
  8
1
  6
CONTINUOUS
 62
   112
  5
374
 10
48.631
 20
13.420167
 30
0.0
 40
0.153583
  1
O.D.
  7
MONOTXT
210
0.0
220
0.0
230
1.0
  0
POINT
  8
6
  6
CONTINUOUS
 62
     7
  5
375
 10
48.22725
 20
12.245
 30
0.0
  0
LINE
  8
6
  6
CONTINUOUS
 62
     7
  5
376
 10
49.4445
 20
12.245
 30
0.0
 11
49.444583
 21
12.245
 31
0.0
  0
LINE
  8
6
  6
CONTINUOUS
 62
     7
  5
377
 10
49.4445
 20
13.343333
 30
0.0
 11
49.444583
 21
13.343333
 31
0.0
  0
LINE
  8
1
  6
CONTINUOUS
 62
     7
  5
378
 10
49.4445
 20
12.325
 30
0.0
 11
49.4445
 21
13.57375
 31
0.0
  0
LINE
  8
1
  6
CONTINUOUS
 62
     7
  5
379
 10
50.67225
 20
13.399667
 30
0.0
 11
50.67225
 21
13.57375
 31
0.0
  0
LINE
  8
1
  6
CONTINUOUS
 62
     7
  5
37A
 10
49.6045
 20
13.343333
 30
0.0
 11
50.51225
 21
13.343333
 31
0.0
  0
SOLID
  8
1
  6
CONTINUOUS
 62
     7
  5
37B
 10
49.6045
 20
13.316667
 30
0.0
 11
49.6045
 21
13.37
 31
0.0
 12
49.4445
 22
13.34325
 32
0.0
 13
49.4445
 23
13.34325
 33
0.0
  0
SOLID
  8
1
  6
CONTINUOUS
 62
     7
  5
37C
 10
50.51225
 20
13.316667
 30
0.0
 11
50.51225
 21
13.37
 31
0.0
 12
50.67225
 22
13.34325
 32
0.0
 13
50.67225
 23
13.34325
 33
0.0
  0
TEXT
  8
1
  6
CONTINUOUS
 62
   112
  5
37D
 10
49.853417
 20
13.420167
 30
0.0
 40
0.153583
  1
O.D.
  7
MONOTXT
210
0.0
220
0.0
230
1.0
  0
LINE
  8
6
  6
CONTINUOUS
 62
     7
  5
37E
 10
49.4445
 20
12.245
 30
0.0
 11
49.444583
 21
12.245
 31
0.0
  0
LINE
  8
6
  6
CONTINUOUS
 62
     7
  5
37F
 10
50.67225
 20
13.319667
 30
0.0
 11
50.672333
 21
13.319667
 31
0.0
  0
LINE
  8
6
  6
CONTINUOUS
 62
     7
  5
380
 10
50.67225
 20
13.343333
 30
0.0
 11
50.672333
 21
13.343333
 31
0.0
  0
TEXT
  8
3
  6
CONTINUOUS
 62
   112
  5
381
 10
47.392917
 20
13.088333
 30
0.0
 40
0.153583
  1
Min.
  7
MONOTXT
210
0.0
220
0.0
230
1.0
  0
TEXT
  8
3
  6
CONTINUOUS
 62
   112
  5
382
 10
49.864417
 20
13.088333
 30
0.0
 40
0.153583
  1
Min.
  7
MONOTXT
210
0.0
220
0.0
230
1.0
  0
SOLID
  8
3
  6
CONTINUOUS
 62
     2
  5
383
 10
48.309583
 20
12.944333
 30
0.0
 11
48.309583
 21
12.891
 31
0.0
 12
48.469583
 22
12.917667
 32
0.0
 13
48.469583
 23
12.917667
 33
0.0
  0
LINE
  8
3
  6
CONTINUOUS
 62
     2
  5
384
 10
48.309583
 20
12.917667
 30
0.0
 11
46.395583
 21
12.917667
 31
0.0
  0
SOLID
  8
3
  6
CONTINUOUS
 62
     2
  5
385
 10
47.93925
 20
12.690667
 30
0.0
 11
47.91225
 21
12.644667
 31
0.0
 12
48.063833
 22
12.5865
 32
0.0
 13
48.063833
 23
12.5865
 33
0.0
  0
LINE
  8
3
  6
CONTINUOUS
 62
     2
  5
386
 10
47.92575
 20
12.667583
 30
0.0
 11
47.500167
 21
12.917667
 31
0.0
  0
SOLID
  8
3
  6
CONTINUOUS
 62
     2
  5
387
 10
48.94775
 20
11.415167
 30
0.0
 11
48.995083
 21
11.4395
 31
0.0
 12
48.898583
 22
11.569667
 32
0.0
 13
48.898583
 23
11.569667
 33
0.0
  0
LINE
  8
3
  6
CONTINUOUS
 62
     2
  5
388
 10
48.971583
 20
11.42725
 30
0.0
 11
49.213417
 21
10.95475
 31
0.0
  0
LINE
  8
3
  6
CONTINUOUS
 62
     2
  5
389
 10
49.213417
 20
10.95475
 30
0.0
 11
49.373417
 21
10.95475
 31
0.0
  0
SOLID
  8
3
  6
CONTINUOUS
 62
     2
  5
38A
 10
48.186667
 20
11.405333
 30
0.0
 11
48.233167
 21
11.4315
 31
0.0
 12
48.131417
 22
11.55775
 32
0.0
 13
48.131417
 23
11.55775
 33
0.0
  0
LINE
  8
3
  6
CONTINUOUS
 62
     2
  5
38B
 10
48.209917
 20
11.4185
 30
0.0
 11
48.424417
 21
11.0375
 31
0.0
  0
LINE
  8
3
  6
CONTINUOUS
 62
     2
  5
38C
 10
48.424417
 20
11.0375
 30
0.0
 11
47.905917
 21
11.0375
 31
0.0
  0
TEXT
  8
3
  6
CONTINUOUS
 62
   112
  5
38D
 10
46.866917
 20
11.010333
 30
0.0
 40
0.133
  1
Granular
  7
MONOTXT
210
0.0
220
0.0
230
1.0
  0
TEXT
  8
3
  6
CONTINUOUS
 62
   112
  5
38E
 10
46.899667
 20
10.827417
 30
0.0
 40
0.133
  1
Material
  7
MONOTXT
210
0.0
220
0.0
230
1.0
  0
TEXT
  8
3
  6
CONTINUOUS
 62
   112
  5
38F
 10
49.51125
 20
10.761833
 30
0.0
 40
0.133
  1
For Leveling
  7
MONOTXT
210
0.0
220
0.0
230
1.0
  0
TEXT
  8
3
  6
CONTINUOUS
 62
   112
  5
390
 10
49.478417
 20
10.9775
 30
0.0
 40
0.133
  1
Fine Aggregate
  7
MONOTXT
210
0.0
220
0.0
230
1.0
  0
TEXT
  8
3
  6
CONTINUOUS
 62
   112
  5
391
 10
47.796167
 20
9.536667
 30
0.0
 40
0.153583
  1
On Rock Foundation
  7
MONOTXT
210
0.0
220
0.0
230
1.0
  0
TEXT
  8
3
  6
CONTINUOUS
 62
   112
  5
392
 10
41.313
 20
8.669083
 30
0.0
 40
0.179167
  1
(Trench shown is for 60" thru 108" flexible
  7
MONOTXT
210
0.0
220
0.0
230
1.0
  0
TEXT
  8
3
  6
CONTINUOUS
 62
   112
  5
393
 10
44.749917
 20
10.7545
 30
0.0
 40
0.133
  1
0.50" per ft.
  7
MONOTXT
210
0.0
220
0.0
230
1.0
  0
TEXT
  8
3
  6
CONTINUOUS
 62
   112
  5
394
 10
44.717083
 20
10.5075
 30
0.0
 40
0.133
  1
fill over pipe;
  7
MONOTXT
210
0.0
220
0.0
230
1.0
  0
TEXT
  8
3
  6
CONTINUOUS
 62
   112
  5
395
 10
44.740833
 20
10.296167
 30
0.0
 40
0.133
  1
12" min., 24" max.
  7
MONOTXT
210
0.0
220
0.0
230
1.0
  0
LINE
  8
3
  6
CONTINUOUS
 62
     2
  5
396
 10
48.755833
 20
11.6365
 30
0.0
 11
46.45825
 21
11.6365
 31
0.0
  0
LINE
  8
3
  6
CONTINUOUS
 62
     2
  5
397
 10
47.1785
 20
11.403417
 30
0.0
 11
46.45825
 21
11.403417
 31
0.0
  0
LINE
  8
3
  6
CONTINUOUS
 62
     2
  5
398
 10
46.688583
 20
11.243417
 30
0.0
 11
46.688583
 21
10.849583
 31
0.0
  0
LINE
  8
3
  6
CONTINUOUS
 62
     2
  5
399
 10
46.688583
 20
11.7965
 30
0.0
 11
46.688583
 21
11.9565
 31
0.0
  0
LINE
  8
3
  6
CONTINUOUS
 62
     2
  5
39A
 10
46.688583
 20
10.849583
 30
0.0
 11
46.31525
 21
10.849583
 31
0.0
  0
SOLID
  8
3
  6
CONTINUOUS
 62
     2
  5
39B
 10
46.71525
 20
11.243417
 30
0.0
 11
46.661917
 21
11.243417
 31
0.0
 12
46.688583
 22
11.403417
 32
0.0
 13
46.688583
 23
11.403417
 33
0.0
  0
SOLID
  8
3
  6
CONTINUOUS
 62
     2
  5
39C
 10
46.71525
 20
11.796333
 30
0.0
 11
46.661917
 21
11.796333
 31
0.0
 12
46.688583
 22
11.636333
 32
0.0
 13
46.688583
 23
11.636333
 33
0.0
  0
LINE
  8
6
  6
CONTINUOUS
 62
     7
  5
39D
 10
48.835833
 20
11.6365
 30
0.0
 11
48.835917
 21
11.6365
 31
0.0
  0
LINE
  8
6
  6
CONTINUOUS
 62
     7
  5
39E
 10
47.2585
 20
11.403417
 30
0.0
 11
47.258583
 21
11.403417
 31
0.0
  0
LINE
  8
3
  6
CONTINUOUS
 62
     2
  5
39F
 10
46.688583
 20
11.403417
 30
0.0
 11
46.68875
 21
11.403417
 31
0.0
  0
LINE
  8
1
  6
CONTINUOUS
 62
   233
  5
3A0
 10
46.989583
 20
13.937833
 30
0.0
 11
47.208583
 21
13.950917
 31
0.0
  0
LINE
  8
1
  6
CONTINUOUS
 62
   233
  5
3A1
 10
47.208583
 20
13.950917
 30
0.0
 11
47.531083
 21
13.91325
 31
0.0
  0
LINE
  8
1
  6
CONTINUOUS
 62
   233
  5
3A2
 10
47.531083
 20
13.91325
 30
0.0
 11
47.860833
 21
13.943333
 31
0.0
  0
LINE
  8
1
  6
CONTINUOUS
 62
   233
  5
3A3
 10
47.860833
 20
13.943333
 30
0.0
 11
48.233417
 21
13.87575
 31
0.0
  0
LINE
  8
1
  6
CONTINUOUS
 62
   233
  5
3A4
 10
48.233417
 20
13.87575
 30
0.0
 11
48.627583
 21
13.935833
 31
0.0
  0
LINE
  8
1
  6
CONTINUOUS
 62
   233
  5
3A5
 10
48.627583
 20
13.935833
 30
0.0
 11
48.87125
 21
13.87575
 31
0.0
  0
LINE
  8
1
  6
CONTINUOUS
 62
   233
  5
3A6
 10
48.87125
 20
13.87575
 30
0.0
 11
49.3585
 21
13.958417
 31
0.0
  0
LINE
  8
1
  6
CONTINUOUS
 62
   233
  5
3A7
 10
49.3585
 20
13.958417
 30
0.0
 11
49.60225
 21
13.920833
 31
0.0
  0
LINE
  8
1
  6
CONTINUOUS
 62
   233
  5
3A8
 10
49.60225
 20
13.920833
 30
0.0
 11
49.967667
 21
13.973417
 31
0.0
  0
LINE
  8
1
  6
CONTINUOUS
 62
   233
  5
3A9
 10
49.967667
 20
13.973417
 30
0.0
 11
50.232917
 21
13.943333
 31
0.0
  0
LINE
  8
1
  6
CONTINUOUS
 62
   233
  5
3AA
 10
50.232917
 20
13.943333
 30
0.0
 11
50.4765
 21
14.033583
 31
0.0
  0
LINE
  8
1
  6
CONTINUOUS
 62
   233
  5
3AB
 10
50.4765
 20
14.033583
 30
0.0
 11
50.67225
 21
13.979417
 31
0.0
  0
TEXT
  8
3
  6
CONTINUOUS
 62
   112
  5
3AC
 10
45.877583
 20
11.3405
 30
0.0
 40
0.153583
  1
*
  7
MONOTXT
210
0.0
220
0.0
230
1.0
  0
LINE
  8
1
  6
CONTINUOUS
 62
   233
  5
3AD
 10
43.154
 20
11.809167
 30
0.0
 11
44.491083
 21
11.809167
 31
0.0
  0
TEXT
  8
3
  6
CONTINUOUS
 62
   112
  5
3AE
 10
41.436167
 20
1.9055
 30
0.0
 40
0.179167
  1
(Trench shown is for 60" thru 108" rigid
  7
MONOTXT
210
0.0
220
0.0
230
1.0
  0
TEXT
  8
3
  6
CONTINUOUS
 62
   112
  5
3AF
 10
43.53475
 20
1.278833
 30
0.0
 40
0.307167
  1
TYPICAL PIPE BEDDING
  7
MONOTXT
210
0.0
220
0.0
230
1.0
  0
TEXT
  8
3
  6
CONTINUOUS
 62
   112
  5
3B0
 10
41.891583
 20
2.99675
 30
0.0
 40
0.179167
  1
Class B Bedding
  7
MONOTXT
210
0.0
220
0.0
230
1.0
  0
LINE
  8
1
  6
CONTINUOUS
 62
   233
  5
3B1
 10
41.383417
 20
7.23725
 30
0.0
 11
41.566667
 21
7.234583
 31
0.0
  0
LINE
  8
1
  6
CONTINUOUS
 62
   233
  5
3B2
 10
41.566667
 20
7.234583
 30
0.0
 11
41.714083
 21
7.25475
 31
0.0
  0
LINE
  8
1
  6
CONTINUOUS
 62
   233
  5
3B3
 10
41.714083
 20
7.25475
 30
0.0
 11
41.714083
 21
5.1705
 31
0.0
  0
LINE
  8
1
  6
CONTINUOUS
 62
   233
  5
3B4
 10
41.714083
 20
5.1705
 30
0.0
 11
42.3945
 21
5.1705
 31
0.0
  0
LINE
  8
1
  6
CONTINUOUS
 62
   233
  5
3B5
 10
43.956583
 20
5.1705
 30
0.0
 11
43.956583
 21
7.2445
 31
0.0
  0
LINE
  8
1
  6
CONTINUOUS
 62
   233
  5
3B6
 10
43.610833
 20
7.2615
 30
0.0
 11
43.867167
 21
7.25475
 31
0.0
  0
LINE
  8
1
  6
CONTINUOUS
 62
   233
  5
3B7
 10
43.867167
 20
7.25475
 30
0.0
 11
44.161917
 21
7.221167
 31
0.0
  0
ARC
  8
1
  6
CONTINUOUS
 62
   233
  5
3B8
 10
42.826173
 20
5.532707
 30
0.0
 40
0.620796
 50
215.703886
 51
324.296108
210
0.0
220
0.0
230
1.0
  0
LINE
  8
1
  6
CONTINUOUS
 62
   233
  5
3B9
 10
43.956583
 20
5.1705
 30
0.0
 11
43.27125
 21
5.1705
 31
0.0
  0
CIRCLE
  8
1
  6
CONTINUOUS
 62
   233
  5
3BA
 10
42.835353
 20
5.596173
 30
0.0
 40
0.536465
210
0.0
220
0.0
230
1.0
  0
CIRCLE
  8
1
  6
CONTINUOUS
 62
   233
  5
3BB
 10
42.835353
 20
5.596173
 30
0.0
 40
0.612023
210
0.0
220
0.0
230
1.0
  0
LINE
  8
1
  6
CONTINUOUS
 62
   233
  5
3BC
 10
41.714083
 20
7.25475
 30
0.0
 11
41.844583
 21
7.241083
 31
0.0
  0
LINE
  8
1
  6
CONTINUOUS
 62
   233
  5
3BD
 10
41.844583
 20
7.241083
 30
0.0
 11
41.942667
 21
7.288667
 31
0.0
  0
LINE
  8
1
  6
CONTINUOUS
 62
   233
  5
3BE
 10
41.942667
 20
7.288667
 30
0.0
 11
42.02575
 21
7.241083
 31
0.0
  0
LINE
  8
1
  6
CONTINUOUS
 62
   233
  5
3BF
 10
42.02575
 20
7.241083
 30
0.0
 11
42.108917
 21
7.27275
 31
0.0
  0
LINE
  8
1
  6
CONTINUOUS
 62
   233
  5
3C0
 10
42.108917
 20
7.27275
 30
0.0
 11
42.3355
 21
7.225167
 31
0.0
  0
LINE
  8
1
  6
CONTINUOUS
 62
   233
  5
3C1
 10
42.3355
 20
7.225167
 30
0.0
 11
42.448917
 21
7.256833
 31
0.0
  0
LINE
  8
1
  6
CONTINUOUS
 62
   233
  5
3C2
 10
42.448917
 20
7.256833
 30
0.0
 11
42.63025
 21
7.241083
 31
0.0
  0
LINE
  8
1
  6
CONTINUOUS
 62
   233
  5
3C3
 10
42.63025
 20
7.241083
 30
0.0
 11
42.660417
 21
7.225167
 31
0.0
  0
LINE
  8
1
  6
CONTINUOUS
 62
   233
  5
3C4
 10
42.660417
 20
7.225167
 30
0.0
 11
42.751083
 21
7.256833
 31
0.0
  0
LINE
  8
1
  6
CONTINUOUS
 62
   233
  5
3C5
 10
42.751083
 20
7.256833
 30
0.0
 11
42.894667
 21
7.256833
 31
0.0
  0
LINE
  8
1
  6
CONTINUOUS
 62
   233
  5
3C6
 10
42.894667
 20
7.256833
 30
0.0
 11
43.0155
 21
7.20925
 31
0.0
  0
LINE
  8
1
  6
CONTINUOUS
 62
   233
  5
3C7
 10
43.0155
 20
7.20925
 30
0.0
 11
43.1515
 21
7.225167
 31
0.0
  0
LINE
  8
1
  6
CONTINUOUS
 62
   233
  5
3C8
 10
43.1515
 20
7.225167
 30
0.0
 11
43.279917
 21
7.256833
 31
0.0
  0
LINE
  8
1
  6
CONTINUOUS
 62
   233
  5
3C9
 10
43.279917
 20
7.256833
 30
0.0
 11
43.46125
 21
7.225167
 31
0.0
  0
LINE
  8
1
  6
CONTINUOUS
 62
   233
  5
3CA
 10
43.46125
 20
7.225167
 30
0.0
 11
43.610833
 21
7.2615
 31
0.0
  0
LINE
  8
1
  6
CONTINUOUS
 62
     7
  5
3CB
 10
42.224083
 20
5.670583
 30
0.0
 11
42.224083
 21
6.918917
 31
0.0
  0
LINE
  8
1
  6
CONTINUOUS
 62
     7
  5
3CC
 10
43.448333
 20
5.659417
 30
0.0
 11
43.448333
 21
6.90775
 31
0.0
  0
LINE
  8
1
  6
CONTINUOUS
 62
     7
  5
3CD
 10
42.2295
 20
6.694083
 30
0.0
 11
43.448333
 21
6.694083
 31
0.0
  0
SOLID
  8
1
  6
CONTINUOUS
 62
     7
  5
3CE
 10
42.385667
 20
6.667333
 30
0.0
 11
42.385667
 21
6.72075
 31
0.0
 12
42.225667
 22
6.694083
 32
0.0
 13
42.225667
 23
6.694083
 33
0.0
  0
SOLID
  8
1
  6
CONTINUOUS
 62
     7
  5
3CF
 10
43.288417
 20
6.667333
 30
0.0
 11
43.288417
 21
6.72075
 31
0.0
 12
43.448417
 22
6.694083
 32
0.0
 13
43.448417
 23
6.694083
 33
0.0
  0
TEXT
  8
1
  6
CONTINUOUS
 62
   112
  5
3D0
 10
42.65375
 20
6.754083
 30
0.0
 40
0.133
  1
O.D.
  7
MONOTXT
210
0.0
220
0.0
230
1.0
  0
LINE
  8
6
  6
CONTINUOUS
 62
     7
  5
3D1
 10
42.123917
 20
5.596167
 30
0.0
 11
42.124
 21
5.596167
 31
0.0
  0
LINE
  8
6
  6
CONTINUOUS
 62
     7
  5
3D2
 10
43.348
 20
5.596167
 30
0.0
 11
43.348083
 21
5.596167
 31
0.0
  0
LINE
  8
6
  6
CONTINUOUS
 62
     7
  5
3D3
 10
43.348
 20
6.694083
 30
0.0
 11
43.348083
 21
6.694083
 31
0.0
  0
LINE
  8
1
  6
CONTINUOUS
 62
     7
  5
3D4
 10
42.06375
 20
6.69375
 30
0.0
 11
41.880333
 21
6.69375
 31
0.0
  0
SOLID
  8
1
  6
CONTINUOUS
 62
     7
  5
3D5
 10
42.059083
 20
6.66875
 30
0.0
 11
42.059083
 21
6.722083
 31
0.0
 12
42.219083
 22
6.695417
 32
0.0
 13
42.219083
 23
6.695417
 33
0.0
  0
SOLID
  8
1
  6
CONTINUOUS
 62
     7
  5
3D6
 10
41.879083
 20
6.667083
 30
0.0
 11
41.879083
 21
6.720417
 31
0.0
 12
41.719083
 22
6.69375
 32
0.0
 13
41.719083
 23
6.69375
 33
0.0
  0
LINE
  8
6
  6
CONTINUOUS
 62
     7
  5
3D7
 10
42.207833
 20
6.69375
 30
0.0
 11
42.207917
 21
6.69375
 31
0.0
  0
LINE
  8
6
  6
CONTINUOUS
 62
     7
  5
3D8
 10
41.797917
 20
6.70175
 30
0.0
 11
41.798
 21
6.70175
 31
0.0
  0
LINE
  8
6
  6
CONTINUOUS
 62
     7
  5
3D9
 10
41.797917
 20
6.69375
 30
0.0
 11
41.798
 21
6.69375
 31
0.0
  0
SOLID
  8
3
  6
CONTINUOUS
 62
     2
  5
3DA
 10
43.503917
 20
6.668583
 30
0.0
 11
43.503917
 21
6.721917
 31
0.0
 12
43.343917
 22
6.69525
 32
0.0
 13
43.343917
 23
6.69525
 33
0.0
  0
LINE
  8
3
  6
CONTINUOUS
 62
     2
  5
3DB
 10
43.610833
 20
6.686083
 30
0.0
 11
43.610917
 21
6.686083
 31
0.0
  0
LINE
  8
4
  6
CONTINUOUS
 62
    99
  5
3DD
 10
43.324583
 20
6.690167
 30
0.0
 11
43.32475
 21
6.690167
 31
0.0
  0
LINE
  8
4
  6
CONTINUOUS
 62
    99
  5
3DE
 10
43.324583
 20
6.678167
 30
0.0
 11
43.32475
 21
6.678167
 31
0.0
  0
TEXT
  8
3
  6
CONTINUOUS
 62
   112
  5
3DF
 10
43.541167
 20
6.765083
 30
0.0
 40
0.133
  1
24"
  7
MONOTXT
210
0.0
220
0.0
230
1.0
  0
TEXT
  8
3
  6
CONTINUOUS
 62
   112
  5
3E0
 10
43.52225
 20
6.48025
 30
0.0
 40
0.133
  1
Min
  7
MONOTXT
210
0.0
220
0.0
230
1.0
  0
TEXT
  8
3
  6
CONTINUOUS
 62
   112
  5
3E1
 10
41.837167
 20
6.808083
 30
0.0
 40
0.133
  1
24"
  7
MONOTXT
210
0.0
220
0.0
230
1.0
  0
TEXT
  8
3
  6
CONTINUOUS
 62
   112
  5
3E2
 10
41.847667
 20
6.504167
 30
0.0
 40
0.133
  1
Min
  7
MONOTXT
210
0.0
220
0.0
230
1.0
  0
TEXT
  8
3
  6
CONTINUOUS
 62
   112
  5
3E3
 10
44.208167
 20
4.588917
 30
0.0
 40
0.133
  1
0.15 O.D. Min.
  7
MONOTXT
210
0.0
220
0.0
230
1.0
  0
TEXT
  8
3
  6
CONTINUOUS
 62
   112
  5
3E4
 10
45.560833
 20
4.662
 30
0.0
 40
0.230417
  1
*
  7
MONOTXT
210
0.0
220
0.0
230
1.0
  0
TEXT
  8
3
  6
CONTINUOUS
 62
   112
  5
3E5
 10
42.222917
 20
4.384167
 30
0.0
 40
0.133
  1
Fine Aggregate
  7
MONOTXT
210
0.0
220
0.0
230
1.0
  0
TEXT
  8
3
  6
CONTINUOUS
 62
   112
  5
3E6
 10
42.29625
 20
4.158083
 30
0.0
 40
0.133
  1
for Leveling
  7
MONOTXT
210
0.0
220
0.0
230
1.0
  0
LINE
  8
4
  6
CONTINUOUS
 62
    52
  5
3E7
 10
44.000333
 20
7.043
 30
0.0
 11
44.069583
 21
7.112167
 31
0.0
  0
LINE
  8
4
  6
CONTINUOUS
 62
    52
  5
3E8
 10
44.18275
 20
7.22525
 30
0.0
 11
44.21325
 21
7.255917
 31
0.0
  0
LINE
  8
4
  6
CONTINUOUS
 62
    52
  5
3E9
 10
41.63075
 20
5.289167
 30
0.0
 11
41.643583
 21
5.302
 31
0.0
  0
LINE
  8
4
  6
CONTINUOUS
 62
    52
  5
3EA
 10
41.63075
 20
5.5155
 30
0.0
 11
41.643583
 21
5.528333
 31
0.0
  0
LINE
  8
4
  6
CONTINUOUS
 62
    52
  5
3EB
 10
41.63075
 20
5.741833
 30
0.0
 11
41.643583
 21
5.754583
 31
0.0
  0
LINE
  8
4
  6
CONTINUOUS
 62
    52
  5
3EC
 10
41.63075
 20
5.968
 30
0.0
 11
41.643583
 21
5.980833
 31
0.0
  0
LINE
  8
4
  6
CONTINUOUS
 62
    52
  5
3ED
 10
41.63075
 20
6.19425
 30
0.0
 11
41.643583
 21
6.207167
 31
0.0
  0
LINE
  8
4
  6
CONTINUOUS
 62
    52
  5
3EE
 10
41.63075
 20
6.420583
 30
0.0
 11
41.643583
 21
6.433417
 31
0.0
  0
LINE
  8
4
  6
CONTINUOUS
 62
    52
  5
3EF
 10
41.63075
 20
6.646833
 30
0.0
 11
41.643583
 21
6.659667
 31
0.0
  0
LINE
  8
4
  6
CONTINUOUS
 62
    52
  5
3F0
 10
41.63075
 20
6.873083
 30
0.0
 11
41.643583
 21
6.886
 31
0.0
  0
LINE
  8
4
  6
CONTINUOUS
 62
    52
  5
3F1
 10
41.63075
 20
7.099417
 30
0.0
 11
41.643583
 21
7.112167
 31
0.0
  0
LINE
  8
4
  6
CONTINUOUS
 62
    99
  5
3F2
 10
41.530417
 20
7.22525
 30
0.0
 11
41.54
 21
7.235
 31
0.0
  0
LINE
  8
4
  6
CONTINUOUS
 62
    52
  5
3F3
 10
44.000333
 20
6.81675
 30
0.0
 11
44.069583
 21
6.886
 31
0.0
  0
LINE
  8
4
  6
CONTINUOUS
 62
    52
  5
3F4
 10
44.000333
 20
6.5905
 30
0.0
 11
44.069583
 21
6.659667
 31
0.0
  0
LINE
  8
4
  6
CONTINUOUS
 62
    52
  5
3F5
 10
42.282583
 20
5.032083
 30
0.0
 11
42.346167
 21
5.095667
 31
0.0
  0
LINE
  8
4
  6
CONTINUOUS
 62
    52
  5
3F6
 10
44.000333
 20
6.364167
 30
0.0
 11
44.069583
 21
6.433417
 31
0.0
  0
LINE
  8
4
  6
CONTINUOUS
 62
    52
  5
3F7
 10
42.448833
 20
4.97975
 30
0.0
 11
42.461167
 21
4.992083
 31
0.0
  0
LINE
  8
4
  6
CONTINUOUS
 62
    52
  5
3F8
 10
44.000333
 20
6.137917
 30
0.0
 11
44.069583
 21
6.207167
 31
0.0
  0
LINE
  8
4
  6
CONTINUOUS
 62
    52
  5
3F9
 10
42.53575
 20
4.840417
 30
0.0
 11
42.561917
 21
4.866667
 31
0.0
  0
LINE
  8
4
  6
CONTINUOUS
 62
    52
  5
3FA
 10
44.000333
 20
5.911667
 30
0.0
 11
44.069583
 21
5.980833
 31
0.0
  0
LINE
  8
4
  6
CONTINUOUS
 62
    52
  5
3FB
 10
42.715
 20
4.7895
 30
0.0
 11
42.774917
 21
4.8495
 31
0.0
  0
LINE
  8
4
  6
CONTINUOUS
 62
    52
  5
3FC
 10
44.000333
 20
5.6855
 30
0.0
 11
44.069583
 21
5.754583
 31
0.0
  0
LINE
  8
4
  6
CONTINUOUS
 62
    52
  5
3FD
 10
42.999417
 20
4.847667
 30
0.0
 11
43.00125
 21
4.8495
 31
0.0
  0
LINE
  8
4
  6
CONTINUOUS
 62
    52
  5
3FE
 10
43.1505
 20
4.903417
 30
0.0
 11
43.26375
 21
5.016583
 31
0.0
  0
LINE
  8
4
  6
CONTINUOUS
 62
    52
  5
3FF
 10
44.000333
 20
5.459167
 30
0.0
 11
44.069583
 21
5.528333
 31
0.0
  0
LINE
  8
4
  6
CONTINUOUS
 62
    52
  5
400
 10
44.000333
 20
5.232833
 30
0.0
 11
44.069583
 21
5.302
 31
0.0
  0
LINE
  8
4
  6
CONTINUOUS
 62
    52
  5
401
 10
44.000333
 20
7.127917
 30
0.0
 11
44.027167
 21
7.154667
 31
0.0
  0
LINE
  8
4
  6
CONTINUOUS
 62
    52
  5
402
 10
41.56
 20
7.1135
 30
0.0
 11
41.601083
 21
7.154667
 31
0.0
  0
LINE
  8
4
  6
CONTINUOUS
 62
    52
  5
403
 10
41.798917
 20
5.089833
 30
0.0
 11
41.827333
 21
5.118167
 31
0.0
  0
LINE
  8
4
  6
CONTINUOUS
 62
    52
  5
404
 10
44.000333
 20
6.901667
 30
0.0
 11
44.027167
 21
6.928333
 31
0.0
  0
LINE
  8
4
  6
CONTINUOUS
 62
    52
  5
405
 10
44.14025
 20
7.0415
 30
0.0
 11
44.141333
 21
7.042583
 31
0.0
  0
LINE
  8
4
  6
CONTINUOUS
 62
    52
  5
406
 10
42.02525
 20
5.089833
 30
0.0
 11
42.053667
 21
5.118167
 31
0.0
  0
LINE
  8
4
  6
CONTINUOUS
 62
    52
  5
407
 10
44.000333
 20
6.675333
 30
0.0
 11
44.027167
 21
6.702083
 31
0.0
  0
LINE
  8
4
  6
CONTINUOUS
 62
    99
  5
408
 10
44.14025
 20
6.81525
 30
0.0
 11
44.141333
 21
6.816333
 31
0.0
  0
LINE
  8
4
  6
CONTINUOUS
 62
    52
  5
409
 10
42.253583
 20
5.080333
 30
0.0
 11
42.312417
 21
5.13925
 31
0.0
  0
LINE
  8
4
  6
CONTINUOUS
 62
    52
  5
40A
 10
44.000333
 20
6.449083
 30
0.0
 11
44.027167
 21
6.475833
 31
0.0
  0
LINE
  8
4
  6
CONTINUOUS
 62
    52
  5
40B
 10
44.14025
 20
6.588917
 30
0.0
 11
44.141333
 21
6.590083
 31
0.0
  0
LINE
  8
4
  6
CONTINUOUS
 62
    99
  5
40C
 10
42.393083
 20
5.005
 30
0.0
 11
42.39325
 21
5.005167
 31
0.0
  0
LINE
  8
4
  6
CONTINUOUS
 62
    52
  5
40D
 10
44.000333
 20
6.222833
 30
0.0
 11
44.027167
 21
6.2495
 31
0.0
  0
LINE
  8
4
  6
CONTINUOUS
 62
    52
  5
40E
 10
44.14025
 20
6.362667
 30
0.0
 11
44.141333
 21
6.36375
 31
0.0
  0
LINE
  8
4
  6
CONTINUOUS
 62
    52
  5
40F
 10
42.488167
 20
4.871917
 30
0.0
 11
42.532833
 21
4.916583
 31
0.0
  0
LINE
  8
4
  6
CONTINUOUS
 62
    52
  5
410
 10
44.000333
 20
5.9965
 30
0.0
 11
44.027167
 21
6.02325
 31
0.0
  0
LINE
  8
4
  6
CONTINUOUS
 62
    52
  5
411
 10
44.14025
 20
6.1365
 30
0.0
 11
44.141333
 21
6.1375
 31
0.0
  0
LINE
  8
4
  6
CONTINUOUS
 62
    52
  5
412
 10
42.63675
 20
4.796083
 30
0.0
 11
42.732583
 21
4.891833
 31
0.0
  0
LINE
  8
4
  6
CONTINUOUS
 62
    52
  5
413
 10
44.000333
 20
5.77025
 30
0.0
 11
44.027167
 21
5.797
 31
0.0
  0
LINE
  8
4
  6
CONTINUOUS
 62
    52
  5
414
 10
44.14025
 20
5.910083
 30
0.0
 11
44.141333
 21
5.91125
 31
0.0
  0
LINE
  8
4
  6
CONTINUOUS
 62
    52
  5
415
 10
42.871917
 20
4.805
 30
0.0
 11
42.95875
 21
4.891833
 31
0.0
  0
LINE
  8
4
  6
CONTINUOUS
 62
    52
  5
416
 10
43.12525
 20
4.9535
 30
0.0
 11
43.238333
 21
5.066667
 31
0.0
  0
LINE
  8
4
  6
CONTINUOUS
 62
    52
  5
417
 10
44.000333
 20
5.544
 30
0.0
 11
44.027167
 21
5.570667
 31
0.0
  0
LINE
  8
4
  6
CONTINUOUS
 62
    52
  5
418
 10
44.14025
 20
5.683833
 30
0.0
 11
44.141333
 21
5.684917
 31
0.0
  0
LINE
  8
4
  6
CONTINUOUS
 62
    52
  5
419
 10
43.382917
 20
5.089833
 30
0.0
 11
43.411333
 21
5.118167
 31
0.0
  0
LINE
  8
4
  6
CONTINUOUS
 62
    52
  5
41A
 10
44.000333
 20
5.317667
 30
0.0
 11
44.027167
 21
5.3445
 31
0.0
  0
LINE
  8
4
  6
CONTINUOUS
 62
    52
  5
41B
 10
44.14025
 20
5.457583
 30
0.0
 11
44.141333
 21
5.458667
 31
0.0
  0
LINE
  8
4
  6
CONTINUOUS
 62
    52
  5
41C
 10
43.99875
 20
5.089833
 30
0.0
 11
44.027167
 21
5.118167
 31
0.0
  0
LINE
  8
4
  6
CONTINUOUS
 62
    52
  5
41D
 10
44.14025
 20
5.23125
 30
0.0
 11
44.141333
 21
5.2325
 31
0.0
  0
LINE
  8
4
  6
CONTINUOUS
 62
    52
  5
41E
 10
41.714167
 20
5.089833
 30
0.0
 11
41.785
 21
5.1605
 31
0.0
  0
LINE
  8
4
  6
CONTINUOUS
 62
    52
  5
41F
 10
44.097917
 20
7.083917
 30
0.0
 11
44.211
 21
7.197
 31
0.0
  0
LINE
  8
4
  6
CONTINUOUS
 62
    52
  5
420
 10
41.671833
 20
5.27375
 30
0.0
 11
41.714083
 21
5.315917
 31
0.0
  0
LINE
  8
4
  6
CONTINUOUS
 62
    52
  5
421
 10
41.671833
 20
5.499917
 30
0.0
 11
41.714083
 21
5.542167
 31
0.0
  0
LINE
  8
4
  6
CONTINUOUS
 62
    52
  5
422
 10
41.671833
 20
5.726333
 30
0.0
 11
41.714083
 21
5.7685
 31
0.0
  0
LINE
  8
4
  6
CONTINUOUS
 62
    52
  5
423
 10
41.671833
 20
5.9525
 30
0.0
 11
41.714083
 21
5.994833
 31
0.0
  0
LINE
  8
4
  6
CONTINUOUS
 62
    52
  5
424
 10
41.671833
 20
6.178833
 30
0.0
 11
41.714083
 21
6.221
 31
0.0
  0
LINE
  8
4
  6
CONTINUOUS
 62
    52
  5
425
 10
41.671833
 20
6.405167
 30
0.0
 11
41.714083
 21
6.44725
 31
0.0
  0
LINE
  8
4
  6
CONTINUOUS
 62
    52
  5
426
 10
41.671833
 20
6.631417
 30
0.0
 11
41.714083
 21
6.673583
 31
0.0
  0
LINE
  8
4
  6
CONTINUOUS
 62
    52
  5
427
 10
41.671833
 20
6.857583
 30
0.0
 11
41.714083
 21
6.899833
 31
0.0
  0
LINE
  8
4
  6
CONTINUOUS
 62
    52
  5
428
 10
41.671833
 20
7.083917
 30
0.0
 11
41.714083
 21
7.126083
 31
0.0
  0
LINE
  8
4
  6
CONTINUOUS
 62
    52
  5
429
 10
41.475167
 20
7.1135
 30
0.0
 11
41.558667
 21
7.197
 31
0.0
  0
LINE
  8
4
  6
CONTINUOUS
 62
    52
  5
42A
 10
41.940417
 20
5.089833
 30
0.0
 11
42.01125
 21
5.1605
 31
0.0
  0
LINE
  8
4
  6
CONTINUOUS
 62
    52
  5
42B
 10
44.097917
 20
6.857583
 30
0.0
 11
44.141333
 21
6.901167
 31
0.0
  0
LINE
  8
4
  6
CONTINUOUS
 62
    52
  5
42C
 10
42.166667
 20
5.089833
 30
0.0
 11
42.2295
 21
5.1525
 31
0.0
  0
LINE
  8
4
  6
CONTINUOUS
 62
    52
  5
42D
 10
44.097917
 20
6.631417
 30
0.0
 11
44.141333
 21
6.674833
 31
0.0
  0
LINE
  8
4
  6
CONTINUOUS
 62
    52
  5
42E
 10
44.097917
 20
6.405167
 30
0.0
 11
44.141333
 21
6.448667
 31
0.0
  0
LINE
  8
4
  6
CONTINUOUS
 62
    52
  5
42F
 10
42.4395
 20
4.902583
 30
0.0
 11
42.498083
 21
4.961083
 31
0.0
  0
LINE
  8
4
  6
CONTINUOUS
 62
    52
  5
430
 10
44.097917
 20
6.178833
 30
0.0
 11
44.141333
 21
6.222417
 31
0.0
  0
LINE
  8
4
  6
CONTINUOUS
 62
    52
  5
431
 10
42.576917
 20
4.821167
 30
0.0
 11
42.669833
 21
4.914083
 31
0.0
  0
LINE
  8
4
  6
CONTINUOUS
 62
    52
  5
432
 10
44.097917
 20
5.9525
 30
0.0
 11
44.141333
 21
5.996083
 31
0.0
  0
LINE
  8
4
  6
CONTINUOUS
 62
    52
  5
433
 10
42.786083
 20
4.800167
 30
0.0
 11
42.899083
 21
4.913333
 31
0.0
  0
LINE
  8
4
  6
CONTINUOUS
 62
    52
  5
434
 10
44.097917
 20
5.726333
 30
0.0
 11
44.141333
 21
5.769833
 31
0.0
  0
LINE
  8
4
  6
CONTINUOUS
 62
    52
  5
435
 10
44.097917
 20
5.499917
 30
0.0
 11
44.141333
 21
5.543583
 31
0.0
  0
LINE
  8
4
  6
CONTINUOUS
 62
    52
  5
436
 10
43.298083
 20
5.089833
 30
0.0
 11
43.368917
 21
5.1605
 31
0.0
  0
LINE
  8
4
  6
CONTINUOUS
 62
    52
  5
437
 10
43.52425
 20
5.089833
 30
0.0
 11
43.595167
 21
5.1605
 31
0.0
  0
LINE
  8
4
  6
CONTINUOUS
 62
    52
  5
438
 10
44.097917
 20
5.27375
 30
0.0
 11
44.141333
 21
5.31725
 31
0.0
  0
LINE
  8
4
  6
CONTINUOUS
 62
    99
  5
439
 10
43.750667
 20
5.089833
 30
0.0
 11
43.751833
 21
5.091
 31
0.0
  0
LINE
  8
4
  6
CONTINUOUS
 62
    52
  5
43A
 10
43.468
 20
5.089833
 30
0.0
 11
43.38725
 21
5.1705
 31
0.0
  0
LINE
  8
4
  6
CONTINUOUS
 62
    52
  5
43B
 10
41.44425
 20
7.1135
 30
0.0
 11
41.383417
 21
7.174417
 31
0.0
  0
LINE
  8
4
  6
CONTINUOUS
 62
    52
  5
43C
 10
41.671833
 20
6.886
 30
0.0
 11
41.63075
 21
6.927083
 31
0.0
  0
LINE
  8
4
  6
CONTINUOUS
 62
    52
  5
43D
 10
43.30525
 20
5.020417
 30
0.0
 11
43.24625
 21
5.079417
 31
0.0
  0
LINE
  8
4
  6
CONTINUOUS
 62
    52
  5
43E
 10
41.671833
 20
6.659667
 30
0.0
 11
41.63075
 21
6.70075
 31
0.0
  0
LINE
  8
4
  6
CONTINUOUS
 62
    52
  5
43F
 10
43.20625
 20
4.896917
 30
0.0
 11
43.192167
 21
4.911083
 31
0.0
  0
LINE
  8
4
  6
CONTINUOUS
 62
    52
  5
440
 10
41.671833
 20
6.433417
 30
0.0
 11
41.63075
 21
6.4745
 31
0.0
  0
LINE
  8
4
  6
CONTINUOUS
 62
    52
  5
441
 10
43.051417
 20
4.833167
 30
0.0
 11
42.960917
 21
4.923833
 31
0.0
  0
LINE
  8
4
  6
CONTINUOUS
 62
    52
  5
442
 10
41.671833
 20
6.207167
 30
0.0
 11
41.63075
 21
6.248167
 31
0.0
  0
LINE
  8
4
  6
CONTINUOUS
 62
    52
  5
443
 10
42.80325
 20
4.8495
 30
0.0
 11
42.740417
 21
4.912333
 31
0.0
  0
LINE
  8
4
  6
CONTINUOUS
 62
    52
  5
444
 10
41.671833
 20
5.980833
 30
0.0
 11
41.63075
 21
6.021833
 31
0.0
  0
LINE
  8
4
  6
CONTINUOUS
 62
    52
  5
445
 10
42.588333
 20
4.8915
 30
0.0
 11
42.47525
 21
5.004583
 31
0.0
  0
LINE
  8
4
  6
CONTINUOUS
 62
    52
  5
446
 10
41.671833
 20
5.754583
 30
0.0
 11
41.63075
 21
5.795667
 31
0.0
  0
LINE
  8
4
  6
CONTINUOUS
 62
    99
  5
447
 10
42.110333
 20
5.089833
 30
0.0
 11
42.029667
 21
5.1705
 31
0.0
  0
LINE
  8
4
  6
CONTINUOUS
 62
    52
  5
448
 10
41.671833
 20
5.528333
 30
0.0
 11
41.63075
 21
5.569417
 31
0.0
  0
LINE
  8
4
  6
CONTINUOUS
 62
    52
  5
449
 10
41.884083
 20
5.089833
 30
0.0
 11
41.803333
 21
5.1705
 31
0.0
  0
LINE
  8
4
  6
CONTINUOUS
 62
    52
  5
44A
 10
41.671833
 20
5.302
 30
0.0
 11
41.63075
 21
5.343083
 31
0.0
  0
LINE
  8
4
  6
CONTINUOUS
 62
    52
  5
44B
 10
41.65775
 20
5.089833
 30
0.0
 11
41.63075
 21
5.116833
 31
0.0
  0
LINE
  8
4
  6
CONTINUOUS
 62
    52
  5
44C
 10
44.08375
 20
5.089833
 30
0.0
 11
44.000333
 21
5.173167
 31
0.0
  0
LINE
  8
4
  6
CONTINUOUS
 62
    52
  5
44D
 10
41.671833
 20
7.112167
 30
0.0
 11
41.558667
 21
7.22525
 31
0.0
  0
LINE
  8
4
  6
CONTINUOUS
 62
    52
  5
44E
 10
44.097917
 20
5.302
 30
0.0
 11
44.000333
 21
5.3995
 31
0.0
  0
LINE
  8
4
  6
CONTINUOUS
 62
    52
  5
44F
 10
44.097917
 20
5.528333
 30
0.0
 11
44.000333
 21
5.62575
 31
0.0
  0
LINE
  8
4
  6
CONTINUOUS
 62
    52
  5
450
 10
44.097917
 20
5.754583
 30
0.0
 11
44.000333
 21
5.851917
 31
0.0
  0
LINE
  8
4
  6
CONTINUOUS
 62
    52
  5
451
 10
44.097917
 20
5.980833
 30
0.0
 11
44.000333
 21
6.078333
 31
0.0
  0
LINE
  8
4
  6
CONTINUOUS
 62
    52
  5
452
 10
44.097917
 20
6.207167
 30
0.0
 11
44.000333
 21
6.3045
 31
0.0
  0
LINE
  8
4
  6
CONTINUOUS
 62
    52
  5
453
 10
44.097917
 20
6.433417
 30
0.0
 11
44.000333
 21
6.530833
 31
0.0
  0
LINE
  8
4
  6
CONTINUOUS
 62
    52
  5
454
 10
44.097917
 20
6.659667
 30
0.0
 11
44.000333
 21
6.757167
 31
0.0
  0
LINE
  8
4
  6
CONTINUOUS
 62
    52
  5
455
 10
44.097917
 20
6.886
 30
0.0
 11
44.000333
 21
6.983417
 31
0.0
  0
LINE
  8
4
  6
CONTINUOUS
 62
    52
  5
456
 10
44.097917
 20
7.112167
 30
0.0
 11
44.000333
 21
7.209583
 31
0.0
  0
LINE
  8
4
  6
CONTINUOUS
 62
    52
  5
457
 10
43.524417
 20
5.118167
 30
0.0
 11
43.472167
 21
5.1705
 31
0.0
  0
LINE
  8
4
  6
CONTINUOUS
 62
    52
  5
458
 10
41.487917
 20
7.154667
 30
0.0
 11
41.405667
 21
7.236917
 31
0.0
  0
LINE
  8
4
  6
CONTINUOUS
 62
    52
  5
459
 10
41.714083
 20
6.9285
 30
0.0
 11
41.63075
 21
7.011833
 31
0.0
  0
LINE
  8
4
  6
CONTINUOUS
 62
    52
  5
45A
 10
43.342
 20
5.059
 30
0.0
 11
43.28975
 21
5.111333
 31
0.0
  0
LINE
  8
4
  6
CONTINUOUS
 62
    52
  5
45B
 10
41.714083
 20
6.702333
 30
0.0
 11
41.63075
 21
6.785583
 31
0.0
  0
LINE
  8
4
  6
CONTINUOUS
 62
    52
  5
45C
 10
43.274667
 20
4.932583
 30
0.0
 11
43.259333
 21
4.94775
 31
0.0
  0
LINE
  8
4
  6
CONTINUOUS
 62
    52
  5
45D
 10
41.714083
 20
6.476083
 30
0.0
 11
41.63075
 21
6.559417
 31
0.0
  0
LINE
  8
4
  6
CONTINUOUS
 62
    52
  5
45E
 10
43.104333
 20
4.861333
 30
0.0
 11
43.022583
 21
4.943167
 31
0.0
  0
LINE
  8
4
  6
CONTINUOUS
 62
    52
  5
45F
 10
41.714083
 20
6.24975
 30
0.0
 11
41.63075
 21
6.333
 31
0.0
  0
LINE
  8
4
  6
CONTINUOUS
 62
    52
  5
460
 10
42.8475
 20
4.8785
 30
0.0
 11
42.819833
 21
4.906333
 31
0.0
  0
LINE
  8
4
  6
CONTINUOUS
 62
    52
  5
461
 10
41.714083
 20
6.0235
 30
0.0
 11
41.63075
 21
6.106833
 31
0.0
  0
LINE
  8
4
  6
CONTINUOUS
 62
    52
  5
462
 10
42.592667
 20
4.93
 30
0.0
 11
42.5575
 21
4.96525
 31
0.0
  0
LINE
  8
4
  6
CONTINUOUS
 62
    52
  5
463
 10
41.714083
 20
5.79725
 30
0.0
 11
41.63075
 21
5.8805
 31
0.0
  0
LINE
  8
4
  6
CONTINUOUS
 62
    52
  5
464
 10
42.412083
 20
4.910917
 30
0.0
 11
42.298917
 21
5.024083
 31
0.0
  0
LINE
  8
4
  6
CONTINUOUS
 62
    52
  5
465
 10
42.16675
 20
5.118167
 30
0.0
 11
42.1145
 21
5.1705
 31
0.0
  0
LINE
  8
4
  6
CONTINUOUS
 62
    52
  5
466
 10
41.714083
 20
5.570833
 30
0.0
 11
41.63075
 21
5.654167
 31
0.0
  0
LINE
  8
4
  6
CONTINUOUS
 62
    52
  5
467
 10
41.940583
 20
5.118167
 30
0.0
 11
41.88825
 21
5.1705
 31
0.0
  0
LINE
  8
4
  6
CONTINUOUS
 62
    52
  5
468
 10
41.714083
 20
5.344667
 30
0.0
 11
41.63075
 21
5.427917
 31
0.0
  0
LINE
  8
4
  6
CONTINUOUS
 62
    52
  5
469
 10
41.71425
 20
5.118167
 30
0.0
 11
41.63075
 21
5.20175
 31
0.0
  0
LINE
  8
4
  6
CONTINUOUS
 62
    52
  5
46A
 10
44.14025
 20
5.118167
 30
0.0
 11
44.027167
 21
5.23125
 31
0.0
  0
LINE
  8
4
  6
CONTINUOUS
 62
    52
  5
46B
 10
41.714083
 20
7.154833
 30
0.0
 11
41.626167
 21
7.242667
 31
0.0
  0
LINE
  8
4
  6
CONTINUOUS
 62
    52
  5
46C
 10
44.14025
 20
5.3445
 30
0.0
 11
44.027167
 21
5.457583
 31
0.0
  0
LINE
  8
4
  6
CONTINUOUS
 62
    52
  5
46D
 10
44.14025
 20
5.570667
 30
0.0
 11
44.027167
 21
5.683833
 31
0.0
  0
LINE
  8
4
  6
CONTINUOUS
 62
    52
  5
46E
 10
44.14025
 20
5.797
 30
0.0
 11
44.027167
 21
5.910083
 31
0.0
  0
LINE
  8
4
  6
CONTINUOUS
 62
    52
  5
46F
 10
44.14025
 20
6.02325
 30
0.0
 11
44.027167
 21
6.1365
 31
0.0
  0
LINE
  8
4
  6
CONTINUOUS
 62
    52
  5
470
 10
44.14025
 20
6.2495
 30
0.0
 11
44.027167
 21
6.362667
 31
0.0
  0
LINE
  8
4
  6
CONTINUOUS
 62
    52
  5
471
 10
44.14025
 20
6.475833
 30
0.0
 11
44.027167
 21
6.588917
 31
0.0
  0
LINE
  8
4
  6
CONTINUOUS
 62
    52
  5
472
 10
44.14025
 20
6.702083
 30
0.0
 11
44.027167
 21
6.81525
 31
0.0
  0
LINE
  8
4
  6
CONTINUOUS
 62
    52
  5
473
 10
44.14025
 20
6.928333
 30
0.0
 11
44.027167
 21
7.0415
 31
0.0
  0
LINE
  8
4
  6
CONTINUOUS
 62
    52
  5
474
 10
44.14025
 20
7.154667
 30
0.0
 11
44.034417
 21
7.260583
 31
0.0
  0
LINE
  8
4
  6
CONTINUOUS
 62
    99
  5
475
 10
43.566917
 20
5.1605
 30
0.0
 11
43.556917
 21
5.1705
 31
0.0
  0
LINE
  8
4
  6
CONTINUOUS
 62
    52
  5
476
 10
41.530417
 20
7.197
 30
0.0
 11
41.49175
 21
7.235667
 31
0.0
  0
LINE
  8
4
  6
CONTINUOUS
 62
    52
  5
477
 10
41.714083
 20
7.0135
 30
0.0
 11
41.643583
 21
7.083917
 31
0.0
  0
LINE
  8
4
  6
CONTINUOUS
 62
    99
  5
478
 10
43.340583
 20
5.1605
 30
0.0
 11
43.330667
 21
5.1705
 31
0.0
  0
LINE
  8
4
  6
CONTINUOUS
 62
    52
  5
479
 10
41.714083
 20
6.787167
 30
0.0
 11
41.643583
 21
6.857583
 31
0.0
  0
LINE
  8
4
  6
CONTINUOUS
 62
    52
  5
47A
 10
43.279917
 20
4.994917
 30
0.0
 11
43.2675
 21
5.007417
 31
0.0
  0
LINE
  8
4
  6
CONTINUOUS
 62
    52
  5
47B
 10
41.714083
 20
6.560833
 30
0.0
 11
41.643583
 21
6.631417
 31
0.0
  0
LINE
  8
4
  6
CONTINUOUS
 62
    52
  5
47C
 10
43.140917
 20
4.8905
 30
0.0
 11
43.071583
 21
4.959833
 31
0.0
  0
LINE
  8
4
  6
CONTINUOUS
 62
    52
  5
47D
 10
41.714083
 20
6.334583
 30
0.0
 11
41.643583
 21
6.405167
 31
0.0
  0
LINE
  8
4
  6
CONTINUOUS
 62
    99
  5
47E
 10
42.888
 20
4.934333
 30
0.0
 11
42.8875
 21
4.934917
 31
0.0
  0
LINE
  8
4
  6
CONTINUOUS
 62
    52
  5
47F
 10
41.714083
 20
6.10825
 30
0.0
 11
41.643583
 21
6.178833
 31
0.0
  0
LINE
  8
4
  6
CONTINUOUS
 62
    52
  5
480
 10
42.802583
 20
4.7935
 30
0.0
 11
42.774917
 21
4.821167
 31
0.0
  0
LINE
  8
4
  6
CONTINUOUS
 62
    52
  5
481
 10
41.714083
 20
5.882083
 30
0.0
 11
41.643583
 21
5.9525
 31
0.0
  0
LINE
  8
4
  6
CONTINUOUS
 62
    52
  5
482
 10
42.557167
 20
4.81275
 30
0.0
 11
42.548583
 21
4.821167
 31
0.0
  0
LINE
  8
4
  6
CONTINUOUS
 62
    52
  5
483
 10
42.462167
 20
4.955333
 30
0.0
 11
42.349083
 21
5.0685
 31
0.0
  0
LINE
  8
4
  6
CONTINUOUS
 62
    99
  5
484
 10
42.20925
 20
5.1605
 30
0.0
 11
42.199417
 21
5.1705
 31
0.0
  0
LINE
  8
4
  6
CONTINUOUS
 62
    52
  5
485
 10
41.714083
 20
5.655833
 30
0.0
 11
41.643583
 21
5.726333
 31
0.0
  0
LINE
  8
4
  6
CONTINUOUS
 62
    99
  5
486
 10
41.982917
 20
5.1605
 30
0.0
 11
41.973083
 21
5.1705
 31
0.0
  0
LINE
  8
4
  6
CONTINUOUS
 62
    52
  5
487
 10
41.714083
 20
5.4295
 30
0.0
 11
41.643583
 21
5.499917
 31
0.0
  0
LINE
  8
4
  6
CONTINUOUS
 62
    99
  5
488
 10
41.756583
 20
5.1605
 30
0.0
 11
41.746833
 21
5.1705
 31
0.0
  0
LINE
  8
4
  6
CONTINUOUS
 62
    52
  5
489
 10
41.714083
 20
5.203167
 30
0.0
 11
41.643583
 21
5.27375
 31
0.0
  0
LINE
  8
4
  6
CONTINUOUS
 62
    52
  5
48A
 10
44.141333
 20
5.201917
 30
0.0
 11
44.069583
 21
5.27375
 31
0.0
  0
LINE
  8
4
  6
CONTINUOUS
 62
    99
  5
48B
 10
41.714083
 20
7.239667
 30
0.0
 11
41.700833
 21
7.252917
 31
0.0
  0
LINE
  8
4
  6
CONTINUOUS
 62
    52
  5
48C
 10
44.141333
 20
5.428167
 30
0.0
 11
44.069583
 21
5.499917
 31
0.0
  0
LINE
  8
4
  6
CONTINUOUS
 62
    52
  5
48D
 10
44.141333
 20
5.654417
 30
0.0
 11
44.069583
 21
5.726333
 31
0.0
  0
LINE
  8
4
  6
CONTINUOUS
 62
    52
  5
48E
 10
44.141333
 20
5.88075
 30
0.0
 11
44.069583
 21
5.9525
 31
0.0
  0
LINE
  8
4
  6
CONTINUOUS
 62
    52
  5
48F
 10
44.141333
 20
6.107
 30
0.0
 11
44.069583
 21
6.178833
 31
0.0
  0
LINE
  8
4
  6
CONTINUOUS
 62
    52
  5
490
 10
44.141333
 20
6.33325
 30
0.0
 11
44.069583
 21
6.405167
 31
0.0
  0
LINE
  8
4
  6
CONTINUOUS
 62
    52
  5
491
 10
44.141333
 20
6.559583
 30
0.0
 11
44.069583
 21
6.631417
 31
0.0
  0
LINE
  8
4
  6
CONTINUOUS
 62
    52
  5
492
 10
44.141333
 20
6.785833
 30
0.0
 11
44.069583
 21
6.857583
 31
0.0
  0
LINE
  8
4
  6
CONTINUOUS
 62
    52
  5
493
 10
44.141333
 20
7.012083
 30
0.0
 11
44.069583
 21
7.083917
 31
0.0
  0
LINE
  8
4
  6
CONTINUOUS
 62
    99
  5
494
 10
44.18275
 20
7.197
 30
0.0
 11
44.121583
 21
7.25825
 31
0.0
  0
LINE
  8
4
  6
CONTINUOUS
 62
    52
  5
495
 10
43.821083
 20
5.1125
 30
0.0
 11
43.766167
 21
5.167417
 31
0.0
  0
LINE
  8
4
  6
CONTINUOUS
 62
    52
  5
496
 10
43.940417
 20
5.1345
 30
0.0
 11
43.9125
 21
5.162583
 31
0.0
  0
LINE
  8
4
  6
CONTINUOUS
 62
    52
  5
497
 10
43.7685
 20
5.080167
 30
0.0
 11
43.6905
 21
5.158167
 31
0.0
  0
LINE
  8
4
  6
CONTINUOUS
 62
    52
  5
498
 10
43.909917
 20
5.080167
 30
0.0
 11
43.849333
 21
5.14075
 31
0.0
  0
LINE
  8
4
  6
CONTINUOUS
 62
    52
  5
499
 10
43.683583
 20
5.080167
 30
0.0
 11
43.623083
 21
5.14075
 31
0.0
  0
LINE
  8
4
  6
CONTINUOUS
 62
    52
  5
49A
 10
43.817083
 20
5.080167
 30
0.0
 11
43.849333
 21
5.1125
 31
0.0
  0
LINE
  8
4
  6
CONTINUOUS
 62
    52
  5
49B
 10
43.821083
 20
5.14075
 30
0.0
 11
43.854917
 21
5.174583
 31
0.0
  0
LINE
  8
3
  6
CONTINUOUS
 62
     2
  5
49C
 10
43.348
 20
6.694583
 30
0.0
 11
43.956583
 21
6.694583
 31
0.0
  0
SOLID
  8
3
  6
CONTINUOUS
 62
     2
  5
49D
 10
43.800583
 20
6.668583
 30
0.0
 11
43.800583
 21
6.721917
 31
0.0
 12
43.960583
 22
6.69525
 32
0.0
 13
43.960583
 23
6.69525
 33
0.0
  0
LINE
  8
1
  6
CONTINUOUS
 62
     7
  5
49E
 10
43.618667
 20
5.1705
 30
0.0
 11
43.453667
 21
5.1705
 31
0.0
  0
LINE
  8
3
  6
CONTINUOUS
 62
     2
  5
49F
 10
42.80025
 20
4.911917
 30
0.0
 11
43.9145
 21
4.911917
 31
0.0
  0
LINE
  8
3
  6
CONTINUOUS
 62
     2
  5
4A0
 10
43.684083
 20
4.751917
 30
0.0
 11
43.684083
 21
4.661
 31
0.0
  0
LINE
  8
3
  6
CONTINUOUS
 62
     2
  5
4A1
 10
43.684083
 20
5.3305
 30
0.0
 11
43.684083
 21
5.4905
 31
0.0
  0
SOLID
  8
3
  6
CONTINUOUS
 62
     2
  5
4A2
 10
43.71075
 20
4.751917
 30
0.0
 11
43.657417
 21
4.751917
 31
0.0
 12
43.684083
 22
4.911917
 32
0.0
 13
43.684083
 23
4.911917
 33
0.0
  0
SOLID
  8
3
  6
CONTINUOUS
 62
     2
  5
4A3
 10
43.71075
 20
5.3305
 30
0.0
 11
43.657417
 21
5.3305
 31
0.0
 12
43.684083
 22
5.1705
 32
0.0
 13
43.684083
 23
5.1705
 33
0.0
  0
LINE
  8
6
  6
CONTINUOUS
 62
     7
  5
4A4
 10
43.698667
 20
5.1705
 30
0.0
 11
43.698833
 21
5.1705
 31
0.0
  0
LINE
  8
6
  6
CONTINUOUS
 62
     7
  5
4A5
 10
42.72025
 20
4.911917
 30
0.0
 11
42.720333
 21
4.911917
 31
0.0
  0
LINE
  8
3
  6
CONTINUOUS
 62
     2
  5
4A6
 10
43.684083
 20
4.911917
 30
0.0
 11
43.68425
 21
4.911917
 31
0.0
  0
SOLID
  8
3
  6
CONTINUOUS
 62
     2
  5
4A7
 10
43.222917
 20
6.306167
 30
0.0
 11
43.222917
 21
6.359417
 31
0.0
 12
43.062917
 22
6.332833
 32
0.0
 13
43.062917
 23
6.332833
 33
0.0
  0
LINE
  8
3
  6
CONTINUOUS
 62
     2
  5
4A8
 10
43.222917
 20
6.332833
 30
0.0
 11
44.53925
 21
6.332833
 31
0.0
  0
SOLID
  8
3
  6
CONTINUOUS
 62
     2
  5
4A9
 10
43.584917
 20
5.934583
 30
0.0
 11
43.53925
 21
5.962167
 31
0.0
 12
43.4795
 22
5.811333
 32
0.0
 13
43.4795
 23
5.811333
 33
0.0
  0
LINE
  8
3
  6
CONTINUOUS
 62
     2
  5
4AA
 10
43.562083
 20
5.948417
 30
0.0
 11
43.79375
 21
6.332833
 31
0.0
  0
SOLID
  8
3
  6
CONTINUOUS
 62
     2
  5
4AB
 10
42.310417
 20
4.874833
 30
0.0
 11
42.35225
 21
4.841583
 31
0.0
 12
42.430583
 22
4.983667
 32
0.0
 13
42.430583
 23
4.983667
 33
0.0
  0
LINE
  8
3
  6
CONTINUOUS
 62
     2
  5
4AC
 10
42.331333
 20
4.858167
 30
0.0
 11
42.01775
 21
4.461667
 31
0.0
  0
LINE
  8
3
  6
CONTINUOUS
 62
     2
  5
4AD
 10
42.01775
 20
4.461667
 30
0.0
 11
42.163917
 21
4.461667
 31
0.0
  0
LINE
  8
3
  6
CONTINUOUS
 62
     2
  5
4AE
 10
43.684083
 20
4.661
 30
0.0
 11
44.07525
 21
4.661
 31
0.0
  0
LINE
  8
6
  6
CONTINUOUS
 62
     7
  5
4AF
 10
48.760083
 20
4.899667
 30
0.0
 11
48.760167
 21
4.899667
 31
0.0
  0
LINE
  8
6
  6
CONTINUOUS
 62
     7
  5
4B0
 10
49.7385
 20
5.15825
 30
0.0
 11
49.738667
 21
5.15825
 31
0.0
  0
LINE
  8
1
  6
CONTINUOUS
 62
     7
  5
4B1
 10
49.6585
 20
5.15825
 30
0.0
 11
49.4935
 21
5.15825
 31
0.0
  0
SOLID
  8
3
  6
CONTINUOUS
 62
     2
  5
4B2
 10
49.840417
 20
6.656333
 30
0.0
 11
49.840417
 21
6.709667
 31
0.0
 12
50.000417
 22
6.683
 32
0.0
 13
50.000417
 23
6.683
 33
0.0
  0
LINE
  8
3
  6
CONTINUOUS
 62
     2
  5
4B3
 10
49.387833
 20
6.682333
 30
0.0
 11
49.996333
 21
6.682333
 31
0.0
  0
LINE
  8
4
  6
CONTINUOUS
 62
    52
  5
4B4
 10
50.2225
 20
7.18475
 30
0.0
 11
50.16125
 21
7.246
 31
0.0
  0
LINE
  8
4
  6
CONTINUOUS
 62
    52
  5
4B5
 10
50.181167
 20
6.999833
 30
0.0
 11
50.109417
 21
7.071667
 31
0.0
  0
LINE
  8
4
  6
CONTINUOUS
 62
    52
  5
4B6
 10
50.181167
 20
6.773583
 30
0.0
 11
50.109417
 21
6.845333
 31
0.0
  0
LINE
  8
4
  6
CONTINUOUS
 62
    52
  5
4B7
 10
50.181167
 20
6.547333
 30
0.0
 11
50.109417
 21
6.619167
 31
0.0
  0
LINE
  8
4
  6
CONTINUOUS
 62
    52
  5
4B8
 10
50.181167
 20
6.321
 30
0.0
 11
50.109417
 21
6.392917
 31
0.0
  0
LINE
  8
4
  6
CONTINUOUS
 62
    52
  5
4B9
 10
50.181167
 20
6.09475
 30
0.0
 11
50.109417
 21
6.166583
 31
0.0
  0
LINE
  8
4
  6
CONTINUOUS
 62
    52
  5
4BA
 10
50.181167
 20
5.8685
 30
0.0
 11
50.109417
 21
5.94025
 31
0.0
  0
LINE
  8
4
  6
CONTINUOUS
 62
    52
  5
4BB
 10
50.181167
 20
5.642167
 30
0.0
 11
50.109417
 21
5.714083
 31
0.0
  0
LINE
  8
4
  6
CONTINUOUS
 62
    52
  5
4BC
 10
50.181167
 20
5.415917
 30
0.0
 11
50.109417
 21
5.487667
 31
0.0
  0
LINE
  8
4
  6
CONTINUOUS
 62
    99
  5
4BD
 10
47.753833
 20
7.227417
 30
0.0
 11
47.740583
 21
7.240667
 31
0.0
  0
LINE
  8
4
  6
CONTINUOUS
 62
    52
  5
4BE
 10
50.181167
 20
5.189667
 30
0.0
 11
50.109417
 21
5.2615
 31
0.0
  0
LINE
  8
4
  6
CONTINUOUS
 62
    52
  5
4BF
 10
47.753833
 20
5.190917
 30
0.0
 11
47.68325
 21
5.2615
 31
0.0
  0
LINE
  8
4
  6
CONTINUOUS
 62
    52
  5
4C0
 10
47.753833
 20
5.41725
 30
0.0
 11
47.68325
 21
5.487667
 31
0.0
  0
LINE
  8
4
  6
CONTINUOUS
 62
    52
  5
4C1
 10
47.753833
 20
5.643583
 30
0.0
 11
47.68325
 21
5.714083
 31
0.0
  0
LINE
  8
4
  6
CONTINUOUS
 62
    52
  5
4C2
 10
47.753833
 20
5.869833
 30
0.0
 11
47.68325
 21
5.94025
 31
0.0
  0
LINE
  8
4
  6
CONTINUOUS
 62
    52
  5
4C3
 10
47.753833
 20
6.096
 30
0.0
 11
47.68325
 21
6.166583
 31
0.0
  0
LINE
  8
4
  6
CONTINUOUS
 62
    52
  5
4C4
 10
47.753833
 20
6.322333
 30
0.0
 11
47.68325
 21
6.392917
 31
0.0
  0
LINE
  8
4
  6
CONTINUOUS
 62
    52
  5
4C5
 10
47.753833
 20
6.548583
 30
0.0
 11
47.68325
 21
6.619167
 31
0.0
  0
LINE
  8
4
  6
CONTINUOUS
 62
    52
  5
4C6
 10
47.753833
 20
6.774917
 30
0.0
 11
47.68325
 21
6.845333
 31
0.0
  0
LINE
  8
4
  6
CONTINUOUS
 62
    52
  5
4C7
 10
47.753833
 20
7.00125
 30
0.0
 11
47.68325
 21
7.071667
 31
0.0
  0
LINE
  8
4
  6
CONTINUOUS
 62
    52
  5
4C8
 10
47.570167
 20
7.18475
 30
0.0
 11
47.531583
 21
7.223417
 31
0.0
  0
LINE
  8
4
  6
CONTINUOUS
 62
    52
  5
4C9
 10
50.180167
 20
7.142417
 30
0.0
 11
50.074167
 21
7.248333
 31
0.0
  0
LINE
  8
4
  6
CONTINUOUS
 62
    52
  5
4CA
 10
50.180167
 20
6.916083
 30
0.0
 11
50.067
 21
7.02925
 31
0.0
  0
LINE
  8
4
  6
CONTINUOUS
 62
    52
  5
4CB
 10
50.180167
 20
6.689833
 30
0.0
 11
50.067
 21
6.803
 31
0.0
  0
LINE
  8
4
  6
CONTINUOUS
 62
    52
  5
4CC
 10
50.180167
 20
6.463583
 30
0.0
 11
50.067
 21
6.576667
 31
0.0
  0
LINE
  8
4
  6
CONTINUOUS
 62
    52
  5
4CD
 10
50.180167
 20
6.23725
 30
0.0
 11
50.067
 21
6.350417
 31
0.0
  0
LINE
  8
4
  6
CONTINUOUS
 62
    52
  5
4CE
 10
50.180167
 20
6.011
 30
0.0
 11
50.067
 21
6.12425
 31
0.0
  0
LINE
  8
4
  6
CONTINUOUS
 62
    52
  5
4CF
 10
50.180167
 20
5.78475
 30
0.0
 11
50.067
 21
5.897833
 31
0.0
  0
LINE
  8
4
  6
CONTINUOUS
 62
    52
  5
4D0
 10
50.180167
 20
5.558417
 30
0.0
 11
50.067
 21
5.671583
 31
0.0
  0
LINE
  8
4
  6
CONTINUOUS
 62
    52
  5
4D1
 10
50.180167
 20
5.33225
 30
0.0
 11
50.067
 21
5.445333
 31
0.0
  0
LINE
  8
4
  6
CONTINUOUS
 62
    52
  5
4D2
 10
47.753833
 20
7.142583
 30
0.0
 11
47.666
 21
7.230417
 31
0.0
  0
LINE
  8
4
  6
CONTINUOUS
 62
    52
  5
4D3
 10
50.180167
 20
5.105917
 30
0.0
 11
50.067
 21
5.219
 31
0.0
  0
LINE
  8
4
  6
CONTINUOUS
 62
    52
  5
4D4
 10
47.754
 20
5.105917
 30
0.0
 11
47.6705
 21
5.1895
 31
0.0
  0
LINE
  8
4
  6
CONTINUOUS
 62
    52
  5
4D5
 10
47.753833
 20
5.332417
 30
0.0
 11
47.6705
 21
5.415667
 31
0.0
  0
LINE
  8
4
  6
CONTINUOUS
 62
    52
  5
4D6
 10
47.753833
 20
5.558583
 30
0.0
 11
47.6705
 21
5.641917
 31
0.0
  0
LINE
  8
4
  6
CONTINUOUS
 62
    52
  5
4D7
 10
47.753833
 20
5.785
 30
0.0
 11
47.6705
 21
5.86825
 31
0.0
  0
LINE
  8
4
  6
CONTINUOUS
 62
    52
  5
4D8
 10
47.753833
 20
6.01125
 30
0.0
 11
47.6705
 21
6.094583
 31
0.0
  0
LINE
  8
4
  6
CONTINUOUS
 62
    52
  5
4D9
 10
47.753833
 20
6.2375
 30
0.0
 11
47.6705
 21
6.32075
 31
0.0
  0
LINE
  8
4
  6
CONTINUOUS
 62
    52
  5
4DA
 10
47.753833
 20
6.463833
 30
0.0
 11
47.6705
 21
6.547167
 31
0.0
  0
LINE
  8
4
  6
CONTINUOUS
 62
    52
  5
4DB
 10
47.753833
 20
6.690083
 30
0.0
 11
47.6705
 21
6.773333
 31
0.0
  0
LINE
  8
4
  6
CONTINUOUS
 62
    52
  5
4DC
 10
47.753833
 20
6.91625
 30
0.0
 11
47.6705
 21
6.999583
 31
0.0
  0
LINE
  8
4
  6
CONTINUOUS
 62
    52
  5
4DD
 10
47.527833
 20
7.142417
 30
0.0
 11
47.4455
 21
7.224667
 31
0.0
  0
LINE
  8
4
  6
CONTINUOUS
 62
    52
  5
4DE
 10
50.137667
 20
7.099917
 30
0.0
 11
50.040167
 21
7.197333
 31
0.0
  0
LINE
  8
4
  6
CONTINUOUS
 62
    52
  5
4DF
 10
50.137667
 20
6.87375
 30
0.0
 11
50.040167
 21
6.971167
 31
0.0
  0
LINE
  8
4
  6
CONTINUOUS
 62
    52
  5
4E0
 10
50.137667
 20
6.647417
 30
0.0
 11
50.040167
 21
6.744917
 31
0.0
  0
LINE
  8
4
  6
CONTINUOUS
 62
    52
  5
4E1
 10
50.137667
 20
6.421167
 30
0.0
 11
50.040167
 21
6.518583
 31
0.0
  0
LINE
  8
4
  6
CONTINUOUS
 62
    52
  5
4E2
 10
50.137667
 20
6.194917
 30
0.0
 11
50.040167
 21
6.29225
 31
0.0
  0
LINE
  8
4
  6
CONTINUOUS
 62
    52
  5
4E3
 10
50.137667
 20
5.968583
 30
0.0
 11
50.040167
 21
6.066083
 31
0.0
  0
LINE
  8
4
  6
CONTINUOUS
 62
    52
  5
4E4
 10
50.137667
 20
5.742333
 30
0.0
 11
50.040167
 21
5.839667
 31
0.0
  0
LINE
  8
4
  6
CONTINUOUS
 62
    52
  5
4E5
 10
50.137667
 20
5.516083
 30
0.0
 11
50.040167
 21
5.6135
 31
0.0
  0
LINE
  8
4
  6
CONTINUOUS
 62
    52
  5
4E6
 10
50.137667
 20
5.28975
 30
0.0
 11
50.040167
 21
5.38725
 31
0.0
  0
LINE
  8
4
  6
CONTINUOUS
 62
    52
  5
4E7
 10
47.711667
 20
7.099917
 30
0.0
 11
47.5985
 21
7.213
 31
0.0
  0
LINE
  8
4
  6
CONTINUOUS
 62
    52
  5
4E8
 10
50.123583
 20
5.077583
 30
0.0
 11
50.040167
 21
5.160917
 31
0.0
  0
LINE
  8
4
  6
CONTINUOUS
 62
    52
  5
4E9
 10
47.697583
 20
5.077583
 30
0.0
 11
47.6705
 21
5.104583
 31
0.0
  0
LINE
  8
4
  6
CONTINUOUS
 62
    52
  5
4EA
 10
47.711667
 20
5.28975
 30
0.0
 11
47.6705
 21
5.330833
 31
0.0
  0
LINE
  8
4
  6
CONTINUOUS
 62
    52
  5
4EB
 10
47.711667
 20
5.516083
 30
0.0
 11
47.6705
 21
5.557167
 31
0.0
  0
LINE
  8
4
  6
CONTINUOUS
 62
    52
  5
4EC
 10
47.711667
 20
5.742333
 30
0.0
 11
47.6705
 21
5.783417
 31
0.0
  0
LINE
  8
4
  6
CONTINUOUS
 62
    52
  5
4ED
 10
47.711667
 20
5.968583
 30
0.0
 11
47.6705
 21
6.009583
 31
0.0
  0
LINE
  8
4
  6
CONTINUOUS
 62
    52
  5
4EE
 10
47.711667
 20
6.194917
 30
0.0
 11
47.6705
 21
6.235917
 31
0.0
  0
LINE
  8
4
  6
CONTINUOUS
 62
    52
  5
4EF
 10
47.711667
 20
6.421167
 30
0.0
 11
47.6705
 21
6.46225
 31
0.0
  0
LINE
  8
4
  6
CONTINUOUS
 62
    52
  5
4F0
 10
47.711667
 20
6.647417
 30
0.0
 11
47.6705
 21
6.6885
 31
0.0
  0
LINE
  8
4
  6
CONTINUOUS
 62
    52
  5
4F1
 10
47.711667
 20
6.87375
 30
0.0
 11
47.6705
 21
6.914833
 31
0.0
  0
LINE
  8
4
  6
CONTINUOUS
 62
    52
  5
4F2
 10
47.484083
 20
7.10125
 30
0.0
 11
47.423167
 21
7.162167
 31
0.0
  0
LINE
  8
4
  6
CONTINUOUS
 62
    52
  5
4F3
 10
50.137667
 20
5.2615
 30
0.0
 11
50.181167
 21
5.305
 31
0.0
  0
LINE
  8
4
  6
CONTINUOUS
 62
    52
  5
4F4
 10
50.137667
 20
5.487667
 30
0.0
 11
50.181167
 21
5.531333
 31
0.0
  0
LINE
  8
4
  6
CONTINUOUS
 62
    52
  5
4F5
 10
50.137667
 20
5.714083
 30
0.0
 11
50.181167
 21
5.757583
 31
0.0
  0
LINE
  8
4
  6
CONTINUOUS
 62
    52
  5
4F6
 10
50.137667
 20
5.94025
 30
0.0
 11
50.181167
 21
5.983833
 31
0.0
  0
LINE
  8
4
  6
CONTINUOUS
 62
    52
  5
4F7
 10
50.137667
 20
6.166583
 30
0.0
 11
50.181167
 21
6.210167
 31
0.0
  0
LINE
  8
4
  6
CONTINUOUS
 62
    52
  5
4F8
 10
50.137667
 20
6.392917
 30
0.0
 11
50.181167
 21
6.436417
 31
0.0
  0
LINE
  8
4
  6
CONTINUOUS
 62
    52
  5
4F9
 10
50.137667
 20
6.619167
 30
0.0
 11
50.181167
 21
6.662583
 31
0.0
  0
LINE
  8
4
  6
CONTINUOUS
 62
    52
  5
4FA
 10
50.137667
 20
6.845333
 30
0.0
 11
50.181167
 21
6.888917
 31
0.0
  0
LINE
  8
4
  6
CONTINUOUS
 62
    52
  5
4FB
 10
47.515
 20
7.10125
 30
0.0
 11
47.5985
 21
7.18475
 31
0.0
  0
LINE
  8
4
  6
CONTINUOUS
 62
    52
  5
4FC
 10
47.711667
 20
7.071667
 30
0.0
 11
47.753833
 21
7.113833
 31
0.0
  0
LINE
  8
4
  6
CONTINUOUS
 62
    52
  5
4FD
 10
47.711667
 20
6.845333
 30
0.0
 11
47.753833
 21
6.887583
 31
0.0
  0
LINE
  8
4
  6
CONTINUOUS
 62
    52
  5
4FE
 10
47.711667
 20
6.619167
 30
0.0
 11
47.753833
 21
6.661333
 31
0.0
  0
LINE
  8
4
  6
CONTINUOUS
 62
    52
  5
4FF
 10
47.711667
 20
6.392917
 30
0.0
 11
47.753833
 21
6.435
 31
0.0
  0
LINE
  8
4
  6
CONTINUOUS
 62
    52
  5
500
 10
47.711667
 20
6.166583
 30
0.0
 11
47.753833
 21
6.20875
 31
0.0
  0
LINE
  8
4
  6
CONTINUOUS
 62
    52
  5
501
 10
47.711667
 20
5.94025
 30
0.0
 11
47.753833
 21
5.982583
 31
0.0
  0
LINE
  8
4
  6
CONTINUOUS
 62
    52
  5
502
 10
47.711667
 20
5.714083
 30
0.0
 11
47.753833
 21
5.75625
 31
0.0
  0
LINE
  8
4
  6
CONTINUOUS
 62
    52
  5
503
 10
47.711667
 20
5.487667
 30
0.0
 11
47.753833
 21
5.529917
 31
0.0
  0
LINE
  8
4
  6
CONTINUOUS
 62
    52
  5
504
 10
47.711667
 20
5.2615
 30
0.0
 11
47.753833
 21
5.303667
 31
0.0
  0
LINE
  8
4
  6
CONTINUOUS
 62
    52
  5
505
 10
50.137667
 20
7.071667
 30
0.0
 11
50.25075
 21
7.18475
 31
0.0
  0
LINE
  8
4
  6
CONTINUOUS
 62
    99
  5
506
 10
50.180167
 20
5.219
 30
0.0
 11
50.181167
 21
5.22025
 31
0.0
  0
LINE
  8
4
  6
CONTINUOUS
 62
    52
  5
507
 10
50.038583
 20
5.077583
 30
0.0
 11
50.067
 21
5.105917
 31
0.0
  0
LINE
  8
4
  6
CONTINUOUS
 62
    52
  5
508
 10
50.180167
 20
5.445333
 30
0.0
 11
50.181167
 21
5.446417
 31
0.0
  0
LINE
  8
4
  6
CONTINUOUS
 62
    52
  5
509
 10
50.040167
 20
5.305417
 30
0.0
 11
50.067
 21
5.33225
 31
0.0
  0
LINE
  8
4
  6
CONTINUOUS
 62
    52
  5
50A
 10
50.180167
 20
5.671583
 30
0.0
 11
50.181167
 21
5.672667
 31
0.0
  0
LINE
  8
4
  6
CONTINUOUS
 62
    52
  5
50B
 10
50.040167
 20
5.53175
 30
0.0
 11
50.067
 21
5.558417
 31
0.0
  0
LINE
  8
4
  6
CONTINUOUS
 62
    52
  5
50C
 10
50.180167
 20
5.897833
 30
0.0
 11
50.181167
 21
5.899
 31
0.0
  0
LINE
  8
4
  6
CONTINUOUS
 62
    52
  5
50D
 10
50.040167
 20
5.758
 30
0.0
 11
50.067
 21
5.78475
 31
0.0
  0
LINE
  8
4
  6
CONTINUOUS
 62
    52
  5
50E
 10
50.180167
 20
6.12425
 30
0.0
 11
50.181167
 21
6.12525
 31
0.0
  0
LINE
  8
4
  6
CONTINUOUS
 62
    52
  5
50F
 10
50.040167
 20
5.98425
 30
0.0
 11
50.067
 21
6.011
 31
0.0
  0
LINE
  8
4
  6
CONTINUOUS
 62
    99
  5
510
 10
50.180167
 20
6.350417
 30
0.0
 11
50.181167
 21
6.3515
 31
0.0
  0
LINE
  8
4
  6
CONTINUOUS
 62
    52
  5
511
 10
50.040167
 20
6.210583
 30
0.0
 11
50.067
 21
6.23725
 31
0.0
  0
LINE
  8
4
  6
CONTINUOUS
 62
    52
  5
512
 10
50.180167
 20
6.576667
 30
0.0
 11
50.181167
 21
6.577833
 31
0.0
  0
LINE
  8
4
  6
CONTINUOUS
 62
    52
  5
513
 10
50.040167
 20
6.436833
 30
0.0
 11
50.067
 21
6.463583
 31
0.0
  0
LINE
  8
4
  6
CONTINUOUS
 62
    99
  5
514
 10
50.180167
 20
6.803
 30
0.0
 11
50.181167
 21
6.804083
 31
0.0
  0
LINE
  8
4
  6
CONTINUOUS
 62
    52
  5
515
 10
50.040167
 20
6.663083
 30
0.0
 11
50.067
 21
6.689833
 31
0.0
  0
LINE
  8
4
  6
CONTINUOUS
 62
    52
  5
516
 10
50.180167
 20
7.02925
 30
0.0
 11
50.181167
 21
7.030333
 31
0.0
  0
LINE
  8
4
  6
CONTINUOUS
 62
    52
  5
517
 10
50.040167
 20
6.889417
 30
0.0
 11
50.067
 21
6.916083
 31
0.0
  0
LINE
  8
4
  6
CONTINUOUS
 62
    52
  5
518
 10
47.599833
 20
7.10125
 30
0.0
 11
47.640917
 21
7.142417
 31
0.0
  0
LINE
  8
4
  6
CONTINUOUS
 62
    52
  5
519
 10
50.040167
 20
7.115667
 30
0.0
 11
50.067
 21
7.142417
 31
0.0
  0
LINE
  8
4
  6
CONTINUOUS
 62
    52
  5
51A
 10
50.040167
 20
5.220583
 30
0.0
 11
50.109417
 21
5.28975
 31
0.0
  0
LINE
  8
4
  6
CONTINUOUS
 62
    52
  5
51B
 10
50.040167
 20
5.446917
 30
0.0
 11
50.109417
 21
5.516083
 31
0.0
  0
LINE
  8
4
  6
CONTINUOUS
 62
    52
  5
51C
 10
50.040167
 20
5.67325
 30
0.0
 11
50.109417
 21
5.742333
 31
0.0
  0
LINE
  8
4
  6
CONTINUOUS
 62
    52
  5
51D
 10
50.040167
 20
5.899417
 30
0.0
 11
50.109417
 21
5.968583
 31
0.0
  0
LINE
  8
4
  6
CONTINUOUS
 62
    52
  5
51E
 10
50.040167
 20
6.125667
 30
0.0
 11
50.109417
 21
6.194917
 31
0.0
  0
LINE
  8
4
  6
CONTINUOUS
 62
    52
  5
51F
 10
50.040167
 20
6.351917
 30
0.0
 11
50.109417
 21
6.421167
 31
0.0
  0
LINE
  8
4
  6
CONTINUOUS
 62
    52
  5
520
 10
50.040167
 20
6.57825
 30
0.0
 11
50.109417
 21
6.647417
 31
0.0
  0
LINE
  8
4
  6
CONTINUOUS
 62
    52
  5
521
 10
50.040167
 20
6.8045
 30
0.0
 11
50.109417
 21
6.87375
 31
0.0
  0
LINE
  8
4
  6
CONTINUOUS
 62
    99
  5
522
 10
47.570167
 20
7.213
 30
0.0
 11
47.579833
 21
7.22275
 31
0.0
  0
LINE
  8
4
  6
CONTINUOUS
 62
    52
  5
523
 10
47.6705
 20
7.087167
 30
0.0
 11
47.68325
 21
7.099917
 31
0.0
  0
LINE
  8
4
  6
CONTINUOUS
 62
    52
  5
524
 10
47.6705
 20
6.860833
 30
0.0
 11
47.68325
 21
6.87375
 31
0.0
  0
LINE
  8
4
  6
CONTINUOUS
 62
    52
  5
525
 10
47.6705
 20
6.634583
 30
0.0
 11
47.68325
 21
6.647417
 31
0.0
  0
LINE
  8
4
  6
CONTINUOUS
 62
    52
  5
526
 10
47.6705
 20
6.408333
 30
0.0
 11
47.68325
 21
6.421167
 31
0.0
  0
LINE
  8
4
  6
CONTINUOUS
 62
    52
  5
527
 10
47.6705
 20
6.182
 30
0.0
 11
47.68325
 21
6.194917
 31
0.0
  0
LINE
  8
4
  6
CONTINUOUS
 62
    52
  5
528
 10
47.6705
 20
5.95575
 30
0.0
 11
47.68325
 21
5.968583
 31
0.0
  0
LINE
  8
4
  6
CONTINUOUS
 62
    52
  5
529
 10
47.6705
 20
5.729583
 30
0.0
 11
47.68325
 21
5.742333
 31
0.0
  0
LINE
  8
4
  6
CONTINUOUS
 62
    52
  5
52A
 10
47.6705
 20
5.50325
 30
0.0
 11
47.68325
 21
5.516083
 31
0.0
  0
LINE
  8
4
  6
CONTINUOUS
 62
    52
  5
52B
 10
47.6705
 20
5.276917
 30
0.0
 11
47.68325
 21
5.28975
 31
0.0
  0
LINE
  8
4
  6
CONTINUOUS
 62
    52
  5
52C
 10
50.2225
 20
7.213
 30
0.0
 11
50.253
 21
7.243667
 31
0.0
  0
LINE
  8
4
  6
CONTINUOUS
 62
    52
  5
52D
 10
50.040167
 20
7.03075
 30
0.0
 11
50.109417
 21
7.099917
 31
0.0
  0
TEXT
  8
3
  6
CONTINUOUS
 62
   112
  5
52E
 10
47.84725
 20
6.486583
 30
0.0
 40
0.153583
  1
Min
  7
MONOTXT
210
0.0
220
0.0
230
1.0
  0
TEXT
  8
3
  6
CONTINUOUS
 62
   112
  5
52F
 10
47.8475
 20
6.753333
 30
0.0
 40
0.153583
  1
24"
  7
MONOTXT
210
0.0
220
0.0
230
1.0
  0
TEXT
  8
3
  6
CONTINUOUS
 62
   112
  5
530
 10
49.584333
 20
6.481333
 30
0.0
 40
0.153583
  1
Min
  7
MONOTXT
210
0.0
220
0.0
230
1.0
  0
TEXT
  8
3
  6
CONTINUOUS
 62
   112
  5
531
 10
49.605
 20
6.748083
 30
0.0
 40
0.153583
  1
24"
  7
MONOTXT
210
0.0
220
0.0
230
1.0
  0
LINE
  8
4
  6
CONTINUOUS
 62
    99
  5
532
 10
49.3645
 20
6.665917
 30
0.0
 11
49.364583
 21
6.665917
 31
0.0
  0
LINE
  8
4
  6
CONTINUOUS
 62
    99
  5
533
 10
49.3645
 20
6.677917
 30
0.0
 11
49.364583
 21
6.677917
 31
0.0
  0
LINE
  8
3
  6
CONTINUOUS
 62
     2
  5
534
 10
49.650667
 20
6.673833
 30
0.0
 11
49.65075
 21
6.673833
 31
0.0
  0
SOLID
  8
3
  6
CONTINUOUS
 62
     2
  5
535
 10
49.632417
 20
6.656333
 30
0.0
 11
49.632417
 21
6.709667
 31
0.0
 12
49.472417
 22
6.683
 32
0.0
 13
49.472417
 23
6.683
 33
0.0
  0
LINE
  8
1
  6
CONTINUOUS
 62
     7
  5
536
 10
47.753833
 20
6.601833
 30
0.0
 11
47.753833
 21
6.443417
 31
0.0
  0
LINE
  8
1
  6
CONTINUOUS
 62
     7
  5
537
 10
48.087583
 20
6.673833
 30
0.0
 11
47.913833
 21
6.673833
 31
0.0
  0
SOLID
  8
1
  6
CONTINUOUS
 62
     7
  5
538
 10
48.0985
 20
6.65275
 30
0.0
 11
48.0985
 21
6.706083
 31
0.0
 12
48.2585
 22
6.679417
 32
0.0
 13
48.2585
 23
6.679417
 33
0.0
  0
SOLID
  8
1
  6
CONTINUOUS
 62
     7
  5
539
 10
47.913833
 20
6.647167
 30
0.0
 11
47.913833
 21
6.7005
 31
0.0
 12
47.753833
 22
6.673833
 32
0.0
 13
47.753833
 23
6.673833
 33
0.0
  0
LINE
  8
6
  6
CONTINUOUS
 62
     7
  5
53A
 10
48.16375
 20
6.673833
 30
0.0
 11
48.163833
 21
6.673833
 31
0.0
  0
LINE
  8
6
  6
CONTINUOUS
 62
     7
  5
53B
 10
47.753833
 20
6.681833
 30
0.0
 11
47.753917
 21
6.681833
 31
0.0
  0
LINE
  8
6
  6
CONTINUOUS
 62
     7
  5
53C
 10
47.753833
 20
6.673833
 30
0.0
 11
47.753917
 21
6.673833
 31
0.0
  0
LINE
  8
1
  6
CONTINUOUS
 62
     7
  5
53D
 10
48.247333
 20
5.647167
 30
0.0
 11
48.247333
 21
6.8955
 31
0.0
  0
LINE
  8
1
  6
CONTINUOUS
 62
     7
  5
53E
 10
49.482667
 20
5.64725
 30
0.0
 11
49.482667
 21
6.895583
 31
0.0
  0
LINE
  8
1
  6
CONTINUOUS
 62
     7
  5
53F
 10
48.394167
 20
6.676833
 30
0.0
 11
49.353
 21
6.676833
 31
0.0
  0
SOLID
  8
1
  6
CONTINUOUS
 62
     7
  5
540
 10
48.4185
 20
6.655083
 30
0.0
 11
48.4185
 21
6.7085
 31
0.0
 12
48.2585
 22
6.681833
 32
0.0
 13
48.2585
 23
6.681833
 33
0.0
  0
SOLID
  8
1
  6
CONTINUOUS
 62
     7
  5
541
 10
49.317083
 20
6.655083
 30
0.0
 11
49.317083
 21
6.7085
 31
0.0
 12
49.477083
 22
6.681833
 32
0.0
 13
49.477083
 23
6.681833
 33
0.0
  0
TEXT
  8
1
  6
CONTINUOUS
 62
   112
  5
542
 10
48.671417
 20
6.741833
 30
0.0
 40
0.153583
  1
O.D.
  7
MONOTXT
210
0.0
220
0.0
230
1.0
  0
LINE
  8
6
  6
CONTINUOUS
 62
     7
  5
543
 10
48.16375
 20
5.583917
 30
0.0
 11
48.163833
 21
5.583917
 31
0.0
  0
LINE
  8
6
  6
CONTINUOUS
 62
     7
  5
544
 10
49.387833
 20
5.583917
 30
0.0
 11
49.387917
 21
5.583917
 31
0.0
  0
LINE
  8
6
  6
CONTINUOUS
 62
     7
  5
545
 10
49.387833
 20
6.681833
 30
0.0
 11
49.387917
 21
6.681833
 31
0.0
  0
LINE
  8
1
  6
CONTINUOUS
 62
   233
  5
546
 10
49.501167
 20
7.212917
 30
0.0
 11
49.650667
 21
7.24925
 31
0.0
  0
LINE
  8
1
  6
CONTINUOUS
 62
   233
  5
547
 10
49.319833
 20
7.244583
 30
0.0
 11
49.501167
 21
7.212917
 31
0.0
  0
LINE
  8
1
  6
CONTINUOUS
 62
   233
  5
548
 10
49.191333
 20
7.212917
 30
0.0
 11
49.319833
 21
7.244583
 31
0.0
  0
LINE
  8
1
  6
CONTINUOUS
 62
   233
  5
549
 10
49.055333
 20
7.197
 30
0.0
 11
49.191333
 21
7.212917
 31
0.0
  0
LINE
  8
1
  6
CONTINUOUS
 62
   233
  5
54A
 10
48.9345
 20
7.244583
 30
0.0
 11
49.055333
 21
7.197
 31
0.0
  0
LINE
  8
1
  6
CONTINUOUS
 62
   233
  5
54B
 10
48.790917
 20
7.244583
 30
0.0
 11
48.9345
 21
7.244583
 31
0.0
  0
LINE
  8
1
  6
CONTINUOUS
 62
   233
  5
54C
 10
48.70025
 20
7.212917
 30
0.0
 11
48.790917
 21
7.244583
 31
0.0
  0
LINE
  8
1
  6
CONTINUOUS
 62
   233
  5
54D
 10
48.670083
 20
7.228833
 30
0.0
 11
48.70025
 21
7.212917
 31
0.0
  0
LINE
  8
1
  6
CONTINUOUS
 62
   233
  5
54E
 10
48.48875
 20
7.244583
 30
0.0
 11
48.670083
 21
7.228833
 31
0.0
  0
LINE
  8
1
  6
CONTINUOUS
 62
   233
  5
54F
 10
48.375333
 20
7.212917
 30
0.0
 11
48.48875
 21
7.244583
 31
0.0
  0
LINE
  8
1
  6
CONTINUOUS
 62
   233
  5
550
 10
48.148667
 20
7.2605
 30
0.0
 11
48.375333
 21
7.212917
 31
0.0
  0
LINE
  8
1
  6
CONTINUOUS
 62
   233
  5
551
 10
48.065583
 20
7.228833
 30
0.0
 11
48.148667
 21
7.2605
 31
0.0
  0
LINE
  8
1
  6
CONTINUOUS
 62
   233
  5
552
 10
47.9825
 20
7.276417
 30
0.0
 11
48.065583
 21
7.228833
 31
0.0
  0
LINE
  8
1
  6
CONTINUOUS
 62
   233
  5
553
 10
47.88425
 20
7.228833
 30
0.0
 11
47.9825
 21
7.276417
 31
0.0
  0
LINE
  8
1
  6
CONTINUOUS
 62
   233
  5
554
 10
47.753833
 20
7.2425
 30
0.0
 11
47.88425
 21
7.228833
 31
0.0
  0
CIRCLE
  8
1
  6
CONTINUOUS
 62
   233
  5
555
 10
48.86494
 20
5.572757
 30
0.0
 40
0.612023
210
0.0
220
0.0
230
1.0
  0
CIRCLE
  8
1
  6
CONTINUOUS
 62
   233
  5
556
 10
48.853857
 20
5.561673
 30
0.0
 40
0.536465
210
0.0
220
0.0
230
1.0
  0
ARC
  8
1
  6
CONTINUOUS
 62
   233
  5
557
 10
48.854637
 20
5.514873
 30
0.0
 40
0.620796
 50
215.703886
 51
324.296108
210
0.0
220
0.0
230
1.0
  0
LINE
  8
1
  6
CONTINUOUS
 62
   233
  5
558
 10
49.907
 20
7.2425
 30
0.0
 11
50.201833
 21
7.208917
 31
0.0
  0
LINE
  8
1
  6
CONTINUOUS
 62
   233
  5
559
 10
49.650667
 20
7.24925
 30
0.0
 11
49.907
 21
7.2425
 31
0.0
  0
LINE
  8
1
  6
CONTINUOUS
 62
   233
  5
55A
 10
49.996333
 20
5.15825
 30
0.0
 11
49.996333
 21
7.23225
 31
0.0
  0
LINE
  8
1
  6
CONTINUOUS
 62
   233
  5
55B
 10
47.753833
 20
5.15825
 30
0.0
 11
48.39975
 21
5.15825
 31
0.0
  0
LINE
  8
1
  6
CONTINUOUS
 62
   233
  5
55C
 10
47.753833
 20
7.2425
 30
0.0
 11
47.753833
 21
5.15825
 31
0.0
  0
LINE
  8
1
  6
CONTINUOUS
 62
   233
  5
55D
 10
47.6065
 20
7.222333
 30
0.0
 11
47.753833
 21
7.2425
 31
0.0
  0
LINE
  8
1
  6
CONTINUOUS
 62
   233
  5
55E
 10
47.423167
 20
7.225
 30
0.0
 11
47.6065
 21
7.222333
 31
0.0
  0
LINE
  8
1
  6
CONTINUOUS
 62
   233
  5
55F
 10
49.313333
 20
5.15825
 30
0.0
 11
49.996333
 21
5.15825
 31
0.0
  0
LINE
  8
1
  6
CONTINUOUS
 62
   233
  5
560
 10
49.951333
 20
5.15825
 30
0.0
 11
49.951333
 21
4.93975
 31
0.0
  0
LINE
  8
1
  6
CONTINUOUS
 62
   233
  5
561
 10
49.791333
 20
4.77975
 30
0.0
 11
47.968333
 21
4.77975
 31
0.0
  0
LINE
  8
1
  6
CONTINUOUS
 62
   233
  5
562
 10
47.808333
 20
5.15825
 30
0.0
 11
47.808333
 21
4.93975
 31
0.0
  0
ARC
  8
1
  6
CONTINUOUS
 62
   233
  5
563
 10
49.791347
 20
4.939763
 30
0.0
 40
0.16
 50
270.0
 51
360.0
210
0.0
220
0.0
230
1.0
  0
ARC
  8
1
  6
CONTINUOUS
 62
   233
  5
564
 10
47.968307
 20
4.939763
 30
0.0
 40
0.16
 50
180.0
 51
270.0
210
0.0
220
0.0
230
1.0
  0
INSERT
  8
1
  6
CONTINUOUS
 62
    52
  5
5A0
  2
$X48
 10
13.56875
 20
-19.60625
 30
0.0
 41
1.280003
 42
1.280003
210
0.0
220
0.0
230
1.0
  0
SOLID
  8
3
  6
CONTINUOUS
 62
     2
  5
5A1
 10
48.871833
 20
4.753417
 30
0.0
 11
48.91625
 21
4.783083
 31
0.0
 12
48.805333
 22
4.901333
 32
0.0
 13
48.805333
 23
4.901333
 33
0.0
  0
LINE
  8
3
  6
CONTINUOUS
 62
     2
  5
5A2
 10
48.894083
 20
4.76825
 30
0.0
 11
49.221917
 21
4.276917
 31
0.0
  0
LINE
  8
3
  6
CONTINUOUS
 62
     2
  5
5A3
 10
49.221917
 20
4.276917
 30
0.0
 11
50.181167
 21
4.276917
 31
0.0
  0
TEXT
  8
3
  6
CONTINUOUS
 62
   112
  5
5A4
 10
50.341167
 20
4.200167
 30
0.0
 40
0.133
  1
Fine Aggregate
  7
MONOTXT
210
0.0
220
0.0
230
1.0
  0
TEXT
  8
3
  6
CONTINUOUS
 62
   112
  5
5A5
 10
50.474583
 20
3.981667
 30
0.0
 40
0.133
  1
For Leveling
  7
MONOTXT
210
0.0
220
0.0
230
1.0
  0
SOLID
  8
3
  6
CONTINUOUS
 62
     2
  5
5A6
 10
48.171167
 20
4.827
 30
0.0
 11
48.218
 21
4.852417
 31
0.0
 12
48.1185
 22
4.9805
 32
0.0
 13
48.1185
 23
4.9805
 33
0.0
  0
LINE
  8
3
  6
CONTINUOUS
 62
     2
  5
5A7
 10
48.194667
 20
4.839667
 30
0.0
 11
48.475
 21
4.321417
 31
0.0
  0
LINE
  8
3
  6
CONTINUOUS
 62
     2
  5
5A8
 10
48.475
 20
4.321417
 30
0.0
 11
47.812833
 21
4.321417
 31
0.0
  0
TEXT
  8
3
  6
CONTINUOUS
 62
   112
  5
5A9
 10
46.84825
 20
4.348083
 30
0.0
 40
0.133
  1
Granular
  7
MONOTXT
210
0.0
220
0.0
230
1.0
  0
TEXT
  8
3
  6
CONTINUOUS
 62
   112
  5
5AA
 10
46.83675
 20
4.130333
 30
0.0
 40
0.133
  1
Material
  7
MONOTXT
210
0.0
220
0.0
230
1.0
  0
LINE
  8
6
  6
CONTINUOUS
 62
     7
  5
5AB
 10
48.366167
 20
5.2365
 30
0.0
 11
48.36625
 21
5.2365
 31
0.0
  0
LINE
  8
6
  6
CONTINUOUS
 62
     7
  5
5AC
 10
49.19475
 20
5.918083
 30
0.0
 11
49.194833
 21
5.918083
 31
0.0
  0
INSERT
  8
1
  6
CONTINUOUS
 62
     7
  5
5B8
  2
$D50
 10
47.015
 20
4.78225
 30
0.0
 41
1.280003
 42
1.280003
210
0.0
220
0.0
230
1.0
  0
TEXT
  8
3
  6
CONTINUOUS
 62
   112
  5
5B9
 10
47.732083
 20
2.91275
 30
0.0
 40
0.179167
  1
Class B Bedding
  7
MONOTXT
210
0.0
220
0.0
230
1.0
  0
TEXT
  8
3
  6
CONTINUOUS
 62
   112
  5
5BA
 10
47.485917
 20
2.59225
 30
0.0
 40
0.179167
  1
On Rock Foundation
  7
MONOTXT
210
0.0
220
0.0
230
1.0
  0
TEXT
  8
3
  6
CONTINUOUS
 62
   112
  5
5BB
 10
44.752583
 20
6.355333
 30
0.0
 40
0.133
  1
Compacted
  7
MONOTXT
210
0.0
220
0.0
230
1.0
  0
TEXT
  8
3
  6
CONTINUOUS
 62
   112
  5
5BC
 10
44.60725
 20
6.1155
 30
0.0
 40
0.133
  1
Backfill Material
  7
MONOTXT
210
0.0
220
0.0
230
1.0
  0
SOLID
  8
3
  6
CONTINUOUS
 62
     2
  5
5BD
 10
48.527167
 20
6.405333
 30
0.0
 11
48.527167
 21
6.351917
 31
0.0
 12
48.687167
 22
6.378667
 32
0.0
 13
48.687167
 23
6.378667
 33
0.0
  0
LINE
  8
3
  6
CONTINUOUS
 62
     2
  5
5BE
 10
48.527167
 20
6.378667
 30
0.0
 11
46.3785
 21
6.378667
 31
0.0
  0
SOLID
  8
3
  6
CONTINUOUS
 62
     2
  5
5BF
 10
47.857167
 20
6.096
 30
0.0
 11
47.83475
 21
6.047833
 31
0.0
 12
47.991167
 22
6.004583
 32
0.0
 13
47.991167
 23
6.004583
 33
0.0
  0
LINE
  8
3
  6
CONTINUOUS
 62
     2
  5
5C0
 10
47.845917
 20
6.071917
 30
0.0
 11
47.18475
 21
6.378667
 31
0.0
  0
SOLID
  8
3
  6
CONTINUOUS
 62
     2
  5
5C1
 10
46.847833
 20
4.721083
 30
0.0
 11
46.875583
 21
4.67575
 31
0.0
 12
46.998083
 22
4.78225
 32
0.0
 13
46.998083
 23
4.78225
 33
0.0
  0
LINE
  8
3
  6
CONTINUOUS
 62
     2
  5
5C2
 10
46.861667
 20
4.6985
 30
0.0
 11
45.52125
 21
3.87625
 31
0.0
  0
LINE
  8
3
  6
CONTINUOUS
 62
     2
  5
5C3
 10
45.52125
 20
3.87625
 30
0.0
 11
46.149333
 21
3.87625
 31
0.0
  0
TEXT
  8
3
  6
CONTINUOUS
 62
   112
  5
5C4
 10
46.213417
 20
3.526417
 30
0.0
 40
0.133
  1
pipe, 12"min.,24"max.
  7
MONOTXT
210
0.0
220
0.0
230
1.0
  0
LINE
  8
1
  6
CONTINUOUS
 62
   233
  5
5C5
 10
59.210667
 20
12.070833
 30
0.0
 11
61.163833
 21
12.070833
 31
0.0
  0
LINE
  8
1
  6
CONTINUOUS
 62
   233
  5
5C6
 10
62.0765
 20
13.053583
 30
0.0
 11
61.03325
 21
12.419583
 31
0.0
  0
LINE
  8
1
  6
CONTINUOUS
 62
   233
  5
5C7
 10
61.03325
 20
12.419583
 30
0.0
 11
60.06475
 21
12.419583
 31
0.0
  0
LINE
  8
1
  6
CONTINUOUS
 62
   233
  5
5C8
 10
60.06475
 20
12.419583
 30
0.0
 11
59.4215
 21
12.070833
 31
0.0
  0
LINE
  8
1
  6
CONTINUOUS
 62
   233
  5
5C9
 10
62.0765
 20
12.80225
 30
0.0
 11
61.2775
 21
12.31475
 31
0.0
  0
LINE
  8
1
  6
CONTINUOUS
 62
   233
  5
5CA
 10
62.0765
 20
12.548833
 30
0.0
 11
61.286667
 21
12.103167
 31
0.0
  0
LINE
  8
1
  6
CONTINUOUS
 62
   233
  5
5CB
 10
61.147333
 20
12.278167
 30
0.0
 11
59.803917
 21
12.278167
 31
0.0
  0
LINE
  8
1
  6
CONTINUOUS
 62
   233
  5
5CC
 10
59.905083
 20
11.958667
 30
0.0
 11
59.76525
 21
11.958667
 31
0.0
  0
LINE
  8
1
  6
CONTINUOUS
 62
   233
  5
5CD
 10
59.76525
 20
11.958667
 30
0.0
 11
59.76525
 21
12.341
 31
0.0
  0
LINE
  8
1
  6
CONTINUOUS
 62
   233
  5
5CE
 10
59.76525
 20
12.341
 30
0.0
 11
59.850167
 21
12.341
 31
0.0
  0
ARC
  8
1
  6
CONTINUOUS
 62
   233
  5
5CF
 10
61.147333
 20
12.528167
 30
0.0
 40
0.25
 50
270.0
 51
301.389011
210
0.0
220
0.0
230
1.0
  0
ARC
  8
1
  6
CONTINUOUS
 62
   233
  5
5D0
 10
61.163833
 20
12.320833
 30
0.0
 40
0.25
 50
270.0
 51
299.436528
210
0.0
220
0.0
230
1.0
  0
LINE
  8
1
  6
CONTINUOUS
 62
   233
  5
5D1
 10
62.0765
 20
12.403833
 30
0.0
 11
62.0765
 21
13.158
 31
0.0
  0
LINE
  8
1
  6
CONTINUOUS
 62
   233
  5
5D2
 10
61.415583
 20
12.175917
 30
0.0
 11
61.330667
 21
12.347167
 31
0.0
  0
LINE
  8
2
  6
HIDDEN
 62
     2
  5
5D4
 10
59.850167
 20
12.341
 30
0.0
 11
59.886083
 21
12.276333
 31
0.0
  0
LINE
  8
2
  6
HIDDEN
 62
     2
  5
5D5
 10
59.886083
 20
12.276333
 30
0.0
 11
59.905083
 21
11.958667
 31
0.0
  0
LINE
  8
2
  6
HIDDEN
 62
     2
  5
5D6
 10
61.03325
 20
12.419583
 30
0.0
 11
60.70575
 21
12.21525
 31
0.0
  0
LINE
  8
2
  6
HIDDEN
 62
     2
  5
5D7
 10
60.70575
 20
12.21525
 30
0.0
 11
59.667333
 21
12.204083
 31
0.0
  0
LINE
  8
1
  6
CONTINUOUS
 62
   233
  5
5D8
 10
61.109583
 20
12.070833
 30
0.0
 11
61.09525
 21
12.278167
 31
0.0
  0
LINE
  8
1
  6
CONTINUOUS
 62
   233
  5
5D9
 10
58.285167
 20
12.343417
 30
0.0
 11
58.761083
 21
12.29025
 31
0.0
  0
LINE
  8
1
  6
CONTINUOUS
 62
   233
  5
5DA
 10
58.761083
 20
12.29025
 30
0.0
 11
59.210667
 21
12.070833
 31
0.0
  0
INSERT
  8
1
  6
CONTINUOUS
 62
     7
  5
5F6
  2
$X1
 10
55.05925
 20
3.772917
 30
0.0
210
0.0
220
0.0
230
1.0
  0
LINE
  8
1
  6
CONTINUOUS
 62
     7
  5
5F7
 10
61.109583
 20
12.008333
 30
0.0
 11
61.109583
 21
11.557417
 31
0.0
  0
LINE
  8
1
  6
CONTINUOUS
 62
     7
  5
5F8
 10
59.76525
 20
11.896167
 30
0.0
 11
59.76525
 21
11.557417
 31
0.0
  0
LINE
  8
1
  6
CONTINUOUS
 62
     7
  5
5F9
 10
60.984583
 20
11.737417
 30
0.0
 11
59.89025
 21
11.737417
 31
0.0
  0
SOLID
  8
1
  6
CONTINUOUS
 62
     7
  5
5FA
 10
60.984583
 20
11.716583
 30
0.0
 11
60.984583
 21
11.75825
 31
0.0
 12
61.109583
 22
11.737417
 32
0.0
 13
61.109583
 23
11.737417
 33
0.0
  0
SOLID
  8
1
  6
CONTINUOUS
 62
     7
  5
5FB
 10
59.89025
 20
11.716583
 30
0.0
 11
59.89025
 21
11.75825
 31
0.0
 12
59.76525
 22
11.737417
 32
0.0
 13
59.76525
 23
11.737417
 33
0.0
  0
TEXT
  8
1
  6
CONTINUOUS
 62
   112
  5
5FC
 10
60.176167
 20
11.778583
 30
0.0
 40
0.133
  1
10'-0"
  7
MONOTXT
210
0.0
220
0.0
230
1.0
  0
LINE
  8
6
  6
CONTINUOUS
 62
     7
  5
5FD
 10
61.109583
 20
12.070833
 30
0.0
 11
61.109667
 21
12.070833
 31
0.0
  0
LINE
  8
6
  6
CONTINUOUS
 62
     7
  5
5FE
 10
59.76525
 20
11.958667
 30
0.0
 11
59.765333
 21
11.958667
 31
0.0
  0
LINE
  8
6
  6
CONTINUOUS
 62
     7
  5
5FF
 10
59.76525
 20
11.737417
 30
0.0
 11
59.765333
 21
11.737417
 31
0.0
  0
TEXT
  8
3
  6
CONTINUOUS
 62
   112
  5
600
 10
60.059583
 20
11.562583
 30
0.0
 40
0.133
  1
Desirable
  7
MONOTXT
210
0.0
220
0.0
230
1.0
  0
TEXT
  8
3
  6
CONTINUOUS
 62
   112
  5
601
 10
59.588917
 20
10.565833
 30
0.0
 40
0.18
  1
SECTION B-B
  7
MONOTXT
210
0.0
220
0.0
230
1.0
  0
TEXT
  8
3
  6
CONTINUOUS
 62
   112
  5
602
 10
57.262917
 20
11.878583
 30
0.0
 40
0.133
  1
Headwall, wingwall or
  7
MONOTXT
210
0.0
220
0.0
230
1.0
  0
TEXT
  8
3
  6
CONTINUOUS
 62
   112
  5
603
 10
57.46
 20
11.599917
 30
0.0
 40
0.133
  1
end section
  7
MONOTXT
210
0.0
220
0.0
230
1.0
  0
SOLID
  8
3
  6
CONTINUOUS
 62
     2
  5
604
 10
59.653667
 20
11.898667
 30
0.0
 11
59.679167
 21
11.86575
 31
0.0
 12
59.76525
 22
11.958667
 32
0.0
 13
59.76525
 23
11.958667
 33
0.0
  0
LINE
  8
3
  6
CONTINUOUS
 62
     2
  5
605
 10
59.666417
 20
11.88225
 30
0.0
 11
59.506583
 21
11.758667
 31
0.0
  0
LINE
  8
3
  6
CONTINUOUS
 62
     2
  5
606
 10
59.506583
 20
11.758667
 30
0.0
 11
58.762667
 21
11.758667
 31
0.0
  0
TEXT
  8
3
  6
CONTINUOUS
 62
   112
  5
607
 10
55.3355
 20
8.2835
 30
0.0
 40
0.24
  1
OUTLET THROUGH BERM
  7
MONOTXT
210
0.0
220
0.0
230
1.0
  0
SOLID
  8
3
  6
CONTINUOUS
 62
     2
  5
608
 10
61.348333
 20
12.033583
 30
0.0
 11
61.356917
 21
12.074417
 31
0.0
 12
61.230333
 22
12.079833
 32
0.0
 13
61.230333
 23
12.079833
 33
0.0
  0
LINE
  8
3
  6
CONTINUOUS
 62
     2
  5
609
 10
61.352583
 20
12.054
 30
0.0
 11
61.677
 21
11.985417
 31
0.0
  0
LINE
  8
3
  6
CONTINUOUS
 62
     2
  5
60A
 10
61.677
 20
11.985417
 30
0.0
 11
61.722667
 21
11.985417
 31
0.0
  0
TEXT
  8
3
  6
CONTINUOUS
 62
   112
  5
60B
 10
61.847667
 20
11.925417
 30
0.0
 40
0.133
  1
Pipe Bend
  7
MONOTXT
210
0.0
220
0.0
230
1.0
  0
LINE
  8
1
  6
CONTINUOUS
 62
     7
  5
60C
 10
61.962583
 20
12.730667
 30
0.0
 11
62.079167
 21
12.797333
 31
0.0
  0
LINE
  8
1
  6
CONTINUOUS
 62
     7
  5
60D
 10
61.85575
 20
12.917417
 30
0.0
 11
61.972333
 21
12.984167
 31
0.0
  0
LINE
  8
3
  6
CONTINUOUS
 62
     2
  5
60E
 10
61.754083
 20
13.00325
 30
0.0
 11
61.692
 21
13.11175
 31
0.0
  0
LINE
  8
3
  6
CONTINUOUS
 62
     2
  5
60F
 10
61.985
 20
12.5995
 30
0.0
 11
62.047083
 21
12.491
 31
0.0
  0
SOLID
  8
3
  6
CONTINUOUS
 62
     2
  5
610
 10
61.736
 20
12.992917
 30
0.0
 11
61.772167
 21
13.013667
 31
0.0
 12
61.816083
 22
12.89475
 32
0.0
 13
61.816083
 23
12.89475
 33
0.0
  0
SOLID
  8
3
  6
CONTINUOUS
 62
     2
  5
611
 10
61.966917
 20
12.589167
 30
0.0
 11
62.003083
 21
12.609833
 31
0.0
 12
61.923
 22
12.708
 32
0.0
 13
61.923
 23
12.708
 33
0.0
  0
LINE
  8
6
  6
CONTINUOUS
 62
     7
  5
612
 10
61.908333
 20
12.699583
 30
0.0
 11
61.908417
 21
12.699583
 31
0.0
  0
LINE
  8
6
  6
CONTINUOUS
 62
     7
  5
613
 10
61.801417
 20
12.886417
 30
0.0
 11
61.8015
 21
12.886417
 31
0.0
  0
LINE
  8
6
  6
CONTINUOUS
 62
     7
  5
614
 10
61.816083
 20
12.89475
 30
0.0
 11
61.816167
 21
12.89475
 31
0.0
  0
TEXT
  8
3
  6
CONTINUOUS
 62
   112
  5
615
 10
61.79925
 20
13.1085
 30
0.0
 40
0.133
  1
2'-0" Min. Cover
 50
27.959139
  7
MONOTXT
210
0.0
220
0.0
230
1.0
  0
TEXT
  8
3
  6
CONTINUOUS
 62
   112
  5
616
 10
55.74575
 20
8.982833
 30
0.0
 40
0.18
  1
SECTION C-C
  7
MONOTXT
210
0.0
220
0.0
230
1.0
  0
CIRCLE
  8
1
  6
CONTINUOUS
 62
   233
  5
617
 10
56.407667
 20
9.7035
 30
0.0
 40
0.114613
210
0.0
220
0.0
230
1.0
  0
LINE
  8
1
  6
CONTINUOUS
 62
   233
  5
618
 10
57.8735
 20
9.760417
 30
0.0
 11
57.330583
 21
9.760417
 31
0.0
  0
LINE
  8
1
  6
CONTINUOUS
 62
   233
  5
619
 10
57.330583
 20
9.760417
 30
0.0
 11
56.70925
 21
9.944
 31
0.0
  0
LINE
  8
1
  6
CONTINUOUS
 62
   233
  5
61A
 10
56.70925
 20
9.944
 30
0.0
 11
56.13625
 21
9.944
 31
0.0
  0
LINE
  8
1
  6
CONTINUOUS
 62
   233
  5
61B
 10
56.13625
 20
9.944
 30
0.0
 11
55.4485
 21
9.754083
 31
0.0
  0
LINE
  8
1
  6
CONTINUOUS
 62
   233
  5
61C
 10
55.4485
 20
9.754083
 30
0.0
 11
54.972
 21
9.754083
 31
0.0
  0
LINE
  8
2
  6
HIDDEN
 62
     2
  5
61D
 10
57.330583
 20
9.760417
 30
0.0
 11
56.507083
 21
9.760417
 31
0.0
  0
LINE
  8
2
  6
HIDDEN
 62
     2
  5
61E
 10
56.308167
 20
9.760417
 30
0.0
 11
55.471417
 21
9.760417
 31
0.0
  0
LINE
  8
1
  6
CONTINUOUS
 62
     7
  5
61F
 10
56.13625
 20
10.0065
 30
0.0
 11
56.13625
 21
10.3835
 31
0.0
  0
LINE
  8
1
  6
CONTINUOUS
 62
     7
  5
620
 10
56.70925
 20
10.0065
 30
0.0
 11
56.70925
 21
10.3835
 31
0.0
  0
LINE
  8
1
  6
CONTINUOUS
 62
     7
  5
621
 10
56.26125
 20
10.2035
 30
0.0
 11
56.58425
 21
10.2035
 31
0.0
  0
SOLID
  8
1
  6
CONTINUOUS
 62
     7
  5
622
 10
56.26125
 20
10.182667
 30
0.0
 11
56.26125
 21
10.224333
 31
0.0
 12
56.13625
 22
10.2035
 32
0.0
 13
56.13625
 23
10.2035
 33
0.0
  0
SOLID
  8
1
  6
CONTINUOUS
 62
     7
  5
623
 10
56.58425
 20
10.182667
 30
0.0
 11
56.58425
 21
10.224333
 31
0.0
 12
56.70925
 22
10.2035
 32
0.0
 13
56.70925
 23
10.2035
 33
0.0
  0
LINE
  8
6
  6
CONTINUOUS
 62
     7
  5
624
 10
56.13625
 20
9.944
 30
0.0
 11
56.136333
 21
9.944
 31
0.0
  0
LINE
  8
6
  6
CONTINUOUS
 62
     7
  5
625
 10
56.70925
 20
9.944
 30
0.0
 11
56.709333
 21
9.944
 31
0.0
  0
LINE
  8
6
  6
CONTINUOUS
 62
     7
  5
626
 10
56.70925
 20
10.2035
 30
0.0
 11
56.709333
 21
10.2035
 31
0.0
  0
SOLID
  8
3
  6
CONTINUOUS
 62
     2
  5
627
 10
56.7855
 20
9.913
 30
0.0
 11
56.764583
 21
9.949
 31
0.0
 12
56.667083
 22
9.867917
 32
0.0
 13
56.667083
 23
9.867917
 33
0.0
  0
LINE
  8
3
  6
CONTINUOUS
 62
     2
  5
628
 10
56.775083
 20
9.931
 30
0.0
 11
57.101417
 21
10.121167
 31
0.0
  0
LINE
  8
3
  6
CONTINUOUS
 62
     2
  5
629
 10
57.101417
 20
10.121167
 30
0.0
 11
57.276333
 21
10.121167
 31
0.0
  0
TEXT
  8
3
  6
CONTINUOUS
 62
   112
  5
62A
 10
57.401333
 20
10.061167
 30
0.0
 40
0.133
  1
1'-0" Min. Cover
  7
MONOTXT
210
0.0
220
0.0
230
1.0
  0
SOLID
  8
3
  6
CONTINUOUS
 62
     2
  5
62B
 10
57.393
 20
9.715417
 30
0.0
 11
57.414083
 21
9.6795
 31
0.0
 12
57.511583
 22
9.760417
 32
0.0
 13
57.511583
 23
9.760417
 33
0.0
  0
LINE
  8
3
  6
CONTINUOUS
 62
     2
  5
62C
 10
57.403583
 20
9.6975
 30
0.0
 11
57.185833
 21
9.570583
 31
0.0
  0
LINE
  8
3
  6
CONTINUOUS
 62
     2
  5
62D
 10
57.185833
 20
9.570583
 30
0.0
 11
57.662417
 21
9.570583
 31
0.0
  0
TEXT
  8
3
  6
CONTINUOUS
 62
   112
  5
62E
 10
57.787417
 20
9.510583
 30
0.0
 40
0.133
  1
Top of Normal
  7
MONOTXT
210
0.0
220
0.0
230
1.0
  0
TEXT
  8
3
  6
CONTINUOUS
 62
   112
  5
62F
 10
57.860083
 20
9.2785
 30
0.0
 40
0.133
  1
Berm
  7
MONOTXT
210
0.0
220
0.0
230
1.0
  0
TEXT
  8
3
  6
CONTINUOUS
 62
   112
  5
630
 10
56.206583
 20
10.251167
 30
0.0
 40
0.133
  1
4'-0"
  7
MONOTXT
210
0.0
220
0.0
230
1.0
  0
TEXT
  8
3
  6
CONTINUOUS
 62
   112
  5
631
 10
55.594333
 20
9.844917
 30
0.0
 40
0.133
  1
10:1
 50
12.657692
  7
MONOTXT
210
0.0
220
0.0
230
1.0
  0
LINE
  8
3
  6
CONTINUOUS
 62
     2
  5
632
 10
56.500583
 20
9.818583
 30
0.0
 11
56.830583
 21
9.818583
 31
0.0
  0
LINE
  8
3
  6
CONTINUOUS
 62
     2
  5
633
 10
56.667083
 20
9.818583
 30
0.0
 11
56.667083
 21
9.944
 31
0.0
  0
LINE
  8
1
  6
CONTINUOUS
 62
   233
  5
634
 10
52.99325
 20
11.435917
 30
0.0
 11
53.7735
 21
11.435917
 31
0.0
  0
LINE
  8
1
  6
CONTINUOUS
 62
   233
  5
635
 10
52.959083
 20
13.787167
 30
0.0
 11
53.755667
 21
13.787167
 31
0.0
  0
LINE
  8
1
  6
CONTINUOUS
 62
   233
  5
636
 10
53.23925
 20
11.435917
 30
0.0
 11
53.23925
 21
13.787167
 31
0.0
  0
LINE
  8
1
  6
CONTINUOUS
 62
   233
  5
637
 10
53.46475
 20
13.787167
 30
0.0
 11
53.46475
 21
11.435917
 31
0.0
  0
LINE
  8
1
  6
CONTINUOUS
 62
   233
  5
638
 10
53.683333
 20
11.435917
 30
0.0
 11
53.683333
 21
12.646667
 31
0.0
  0
LINE
  8
1
  6
CONTINUOUS
 62
   233
  5
639
 10
55.494
 20
12.891083
 30
0.0
 11
54.312
 21
12.891083
 31
0.0
  0
LINE
  8
1
  6
CONTINUOUS
 62
   233
  5
63A
 10
55.494
 20
12.3535
 30
0.0
 11
54.312
 21
12.3535
 31
0.0
  0
LINE
  8
1
  6
CONTINUOUS
 62
   233
  5
63B
 10
53.956667
 20
11.435917
 30
0.0
 11
53.956667
 21
11.550667
 31
0.0
  0
LINE
  8
1
  6
CONTINUOUS
 62
   233
  5
63C
 10
55.186583
 20
11.435917
 30
0.0
 11
55.186583
 21
11.687083
 31
0.0
  0
LINE
  8
1
  6
CONTINUOUS
 62
   233
  5
63D
 10
53.956667
 20
13.658083
 30
0.0
 11
55.186583
 21
13.573
 31
0.0
  0
LINE
  8
1
  6
CONTINUOUS
 62
   233
  5
63E
 10
53.956667
 20
11.550667
 30
0.0
 11
55.186583
 21
11.687083
 31
0.0
  0
LINE
  8
1
  6
CONTINUOUS
 62
   233
  5
63F
 10
54.312
 20
12.891083
 30
0.0
 11
53.956667
 21
13.658083
 31
0.0
  0
LINE
  8
1
  6
CONTINUOUS
 62
   233
  5
640
 10
54.312
 20
12.3535
 30
0.0
 11
53.956667
 21
11.550667
 31
0.0
  0
LINE
  8
1
  6
CONTINUOUS
 62
   233
  5
641
 10
54.312
 20
12.3535
 30
0.0
 11
54.312
 21
12.891083
 31
0.0
  0
LINE
  8
1
  6
CONTINUOUS
 62
   233
  5
642
 10
55.494
 20
12.3535
 30
0.0
 11
55.494
 21
12.891083
 31
0.0
  0
LINE
  8
1
  6
CONTINUOUS
 62
   233
  5
643
 10
55.186583
 20
13.573
 30
0.0
 11
55.494
 21
12.891083
 31
0.0
  0
LINE
  8
1
  6
CONTINUOUS
 62
   233
  5
644
 10
55.494
 20
12.3535
 30
0.0
 11
55.186583
 21
11.687083
 31
0.0
  0
LINE
  8
1
  6
CONTINUOUS
 62
   233
  5
645
 10
55.186583
 20
13.573
 30
0.0
 11
55.186583
 21
13.787167
 31
0.0
  0
LINE
  8
2
  6
HIDDEN
 62
     2
  5
646
 10
56.313917
 20
12.539833
 30
0.0
 11
54.069167
 21
12.539833
 31
0.0
  0
LINE
  8
2
  6
HIDDEN
 62
     2
  5
647
 10
56.313917
 20
12.754917
 30
0.0
 11
54.069167
 21
12.754917
 31
0.0
  0
LINE
  8
1
  6
CONTINUOUS
 62
   233
  5
648
 10
56.313917
 20
12.404333
 30
0.0
 11
56.313917
 21
12.846667
 31
0.0
  0
LINE
  8
1
  6
CONTINUOUS
 62
   233
  5
649
 10
54.069167
 20
12.04075
 30
0.0
 11
54.069167
 21
13.189833
 31
0.0
  0
LINE
  8
1
  6
CONTINUOUS
 62
   233
  5
64A
 10
54.173583
 20
12.04075
 30
0.0
 11
54.173583
 21
13.189833
 31
0.0
  0
LINE
  8
1
  6
CONTINUOUS
 62
   233
  5
64B
 10
54.173583
 20
13.189833
 30
0.0
 11
54.069167
 21
13.189833
 31
0.0
  0
LINE
  8
1
  6
CONTINUOUS
 62
   233
  5
64C
 10
53.683333
 20
13.004917
 30
0.0
 11
53.683333
 21
13.787167
 31
0.0
  0
ARC
  8
1
  6
CONTINUOUS
 62
   233
  5
64D
 10
53.723583
 20
12.627833
 30
0.0
 40
0.044386
 50
33.392244
 51
154.867486
210
0.0
220
0.0
230
1.0
  0
ARC
  8
1
  6
CONTINUOUS
 62
   233
  5
64E
 10
53.969333
 20
12.789833
 30
0.0
 40
0.25
 50
213.392244
 51
269.999997
210
0.0
220
0.0
230
1.0
  0
ARC
  8
1
  6
CONTINUOUS
 62
   233
  5
64F
 10
53.933333
 20
13.004917
 30
0.0
 40
0.25
 50
180.0
 51
270.0
210
0.0
220
0.0
230
1.0
  0
LINE
  8
1
  6
CONTINUOUS
 62
   233
  5
650
 10
53.933333
 20
12.754917
 30
0.0
 11
54.069167
 21
12.754917
 31
0.0
  0
LINE
  8
1
  6
CONTINUOUS
 62
   233
  5
651
 10
53.969333
 20
12.539833
 30
0.0
 11
54.069167
 21
12.539833
 31
0.0
  0
LINE
  8
1
  6
CONTINUOUS
 62
   233
  5
652
 10
54.173583
 20
12.04075
 30
0.0
 11
54.069167
 21
12.04075
 31
0.0
  0
LINE
  8
1
  6
CONTINUOUS
 62
   233
  5
653
 10
53.956667
 20
13.658083
 30
0.0
 11
53.956667
 21
13.787167
 31
0.0
  0
LINE
  8
2
  6
HIDDEN
 62
     2
  5
654
 10
55.393833
 20
12.539833
 30
0.0
 11
55.393833
 21
12.754917
 31
0.0
  0
LINE
  8
2
  6
HIDDEN
 62
     2
  5
655
 10
55.622083
 20
12.539833
 30
0.0
 11
55.622083
 21
12.754917
 31
0.0
  0
LINE
  8
1
  6
CONTINUOUS
 62
   233
  5
656
 10
54.616583
 20
13.787167
 30
0.0
 11
54.658083
 21
13.834667
 31
0.0
  0
LINE
  8
1
  6
CONTINUOUS
 62
   233
  5
657
 10
54.658083
 20
13.834667
 30
0.0
 11
54.677583
 21
13.754583
 31
0.0
  0
LINE
  8
1
  6
CONTINUOUS
 62
   233
  5
658
 10
54.677583
 20
13.754583
 30
0.0
 11
54.716167
 21
13.787167
 31
0.0
  0
LINE
  8
1
  6
CONTINUOUS
 62
   233
  5
659
 10
54.716167
 20
13.787167
 30
0.0
 11
55.36425
 21
13.787167
 31
0.0
  0
LINE
  8
1
  6
CONTINUOUS
 62
   233
  5
65A
 10
53.755667
 20
13.787167
 30
0.0
 11
53.809083
 21
13.852667
 31
0.0
  0
LINE
  8
1
  6
CONTINUOUS
 62
   233
  5
65B
 10
53.809083
 20
13.852667
 30
0.0
 11
53.848
 21
13.753083
 31
0.0
  0
LINE
  8
1
  6
CONTINUOUS
 62
   233
  5
65C
 10
53.848
 20
13.753083
 30
0.0
 11
53.866417
 21
13.787167
 31
0.0
  0
LINE
  8
1
  6
CONTINUOUS
 62
   233
  5
65D
 10
53.866417
 20
13.787167
 30
0.0
 11
54.616583
 21
13.787167
 31
0.0
  0
LINE
  8
1
  6
CONTINUOUS
 62
   233
  5
65E
 10
54.715917
 20
11.435917
 30
0.0
 11
54.75775
 21
11.496667
 31
0.0
  0
LINE
  8
1
  6
CONTINUOUS
 62
   233
  5
65F
 10
54.75775
 20
11.496667
 30
0.0
 11
54.781333
 21
11.4085
 31
0.0
  0
LINE
  8
1
  6
CONTINUOUS
 62
   233
  5
660
 10
54.781333
 20
11.4085
 30
0.0
 11
54.821
 21
11.435917
 31
0.0
  0
LINE
  8
1
  6
CONTINUOUS
 62
   233
  5
661
 10
54.821
 20
11.435917
 30
0.0
 11
55.357417
 21
11.435917
 31
0.0
  0
LINE
  8
1
  6
CONTINUOUS
 62
   233
  5
662
 10
53.7735
 20
11.435917
 30
0.0
 11
53.80125
 21
11.491917
 31
0.0
  0
LINE
  8
1
  6
CONTINUOUS
 62
   233
  5
663
 10
53.80125
 20
11.491917
 30
0.0
 11
53.857667
 21
11.370667
 31
0.0
  0
LINE
  8
1
  6
CONTINUOUS
 62
   233
  5
664
 10
53.857667
 20
11.370667
 30
0.0
 11
53.882167
 21
11.435917
 31
0.0
  0
LINE
  8
1
  6
CONTINUOUS
 62
   233
  5
665
 10
53.882167
 20
11.435917
 30
0.0
 11
54.715917
 21
11.435917
 31
0.0
  0
TEXT
  8
3
  6
CONTINUOUS
 62
   112
  5
666
 10
53.79825
 20
10.65525
 30
0.0
 40
0.18
  1
PLAN
  7
MONOTXT
210
0.0
220
0.0
230
1.0
  0
LINE
  8
7
  6
CENTER
 62
     2
  5
668
 10
54.069167
 20
12.647417
 30
0.0
 11
56.313917
 21
12.647417
 31
0.0
  0
SOLID
  8
5
  6
CONTINUOUS
 62
   217
  5
66A
 10
52.834083
 20
12.832583
 30
0.0
 11
52.87575
 21
12.832583
 31
0.0
 12
52.854917
 22
12.957583
 32
0.0
 13
52.854917
 23
12.957583
 33
0.0
  0
LINE
  8
5
  6
CONTINUOUS
 62
   217
  5
66B
 10
52.854917
 20
12.832583
 30
0.0
 11
52.854917
 21
12.572083
 31
0.0
  0
LINE
  8
5
  6
CONTINUOUS
 62
   217
  5
66C
 10
52.854917
 20
12.572083
 30
0.0
 11
53.172667
 21
12.572083
 31
0.0
  0
SOLID
  8
5
  6
CONTINUOUS
 62
   217
  5
66D
 10
56.656917
 20
12.853417
 30
0.0
 11
56.698583
 21
12.853417
 31
0.0
 12
56.67775
 22
12.978417
 32
0.0
 13
56.67775
 23
12.978417
 33
0.0
  0
LINE
  8
5
  6
CONTINUOUS
 62
   217
  5
66E
 10
56.67775
 20
12.8655
 30
0.0
 11
56.67775
 21
12.6155
 31
0.0
  0
LINE
  8
5
  6
CONTINUOUS
 62
   217
  5
66F
 10
56.67775
 20
12.603417
 30
0.0
 11
56.4295
 21
12.603417
 31
0.0
  0
TEXT
  8
5
  6
CONTINUOUS
 62
   217
  5
670
 10
56.618167
 20
13.02975
 30
0.0
 40
0.18
  1
B
  7
MONOTXT
210
0.0
220
0.0
230
1.0
  0
TEXT
  8
5
  6
CONTINUOUS
 62
   217
  5
671
 10
52.8065
 20
13.022167
 30
0.0
 40
0.18
  1
B
  7
MONOTXT
210
0.0
220
0.0
230
1.0
  0
SOLID
  8
5
  6
CONTINUOUS
 62
   217
  5
672
 10
54.508083
 20
14.164583
 30
0.0
 11
54.508083
 21
14.122917
 31
0.0
 12
54.633083
 22
14.14375
 32
0.0
 13
54.633083
 23
14.14375
 33
0.0
  0
LINE
  8
5
  6
CONTINUOUS
 62
   217
  5
673
 10
54.542417
 20
14.14375
 30
0.0
 11
54.278917
 21
14.14375
 31
0.0
  0
LINE
  8
5
  6
CONTINUOUS
 62
   217
  5
674
 10
54.278917
 20
14.14375
 30
0.0
 11
54.278917
 21
13.85625
 31
0.0
  0
TEXT
  8
5
  6
CONTINUOUS
 62
   217
  5
675
 10
54.715917
 20
14.061833
 30
0.0
 40
0.153583
  1
C
  7
MONOTXT
210
0.0
220
0.0
230
1.0
  0
TEXT
  8
5
  6
CONTINUOUS
 62
   217
  5
676
 10
54.708333
 20
10.962333
 30
0.0
 40
0.18
  1
C
  7
MONOTXT
210
0.0
220
0.0
230
1.0
  0
LINE
  8
5
  6
CONTINUOUS
 62
   217
  5
677
 10
54.508083
 20
11.05175
 30
0.0
 11
54.278917
 21
11.05175
 31
0.0
  0
SOLID
  8
5
  6
CONTINUOUS
 62
   217
  5
678
 10
54.508083
 20
11.072583
 30
0.0
 11
54.508083
 21
11.030917
 31
0.0
 12
54.633083
 22
11.05175
 32
0.0
 13
54.633083
 23
11.05175
 33
0.0
  0
LINE
  8
5
  6
CONTINUOUS
 62
   217
  5
679
 10
54.278917
 20
11.05175
 30
0.0
 11
54.278917
 21
11.36
 31
0.0
  0
SOLID
  8
3
  6
CONTINUOUS
 62
     2
  5
67A
 10
53.620167
 20
12.820833
 30
0.0
 11
53.646667
 21
12.852917
 31
0.0
 12
53.537167
 22
12.9165
 32
0.0
 13
53.537167
 23
12.9165
 33
0.0
  0
LINE
  8
3
  6
CONTINUOUS
 62
     2
  5
67B
 10
53.6335
 20
12.836833
 30
0.0
 11
53.884667
 21
12.629083
 31
0.0
  0
SOLID
  8
3
  6
CONTINUOUS
 62
     2
  5
67C
 10
53.53125
 20
13.837167
 30
0.0
 11
53.572917
 21
13.8355
 31
0.0
 12
53.557167
 22
13.96125
 32
0.0
 13
53.557167
 23
13.96125
 33
0.0
  0
LINE
  8
3
  6
CONTINUOUS
 62
     2
  5
67D
 10
53.552083
 20
13.836333
 30
0.0
 11
53.55575
 21
13.47775
 31
0.0
  0
TEXT
  8
3
  6
CONTINUOUS
 62
   112
  5
67E
 10
56.9555
 20
1.708583
 30
0.0
 40
0.24
  1
PIPE FLUME
  7
MONOTXT
210
0.0
220
0.0
230
1.0
  0
TEXT
  8
3
  6
CONTINUOUS
 62
   112
  5
67F
 10
56.76225
 20
1.473083
 30
0.0
 40
0.153583
  1
Earth Cut or Shallow
  7
MONOTXT
210
0.0
220
0.0
230
1.0
  0
TEXT
  8
3
  6
CONTINUOUS
 62
   112
  5
680
 10
57.348083
 20
1.185083
 30
0.0
 40
0.153583
  1
Rock Cuts
  7
MONOTXT
210
0.0
220
0.0
230
1.0
  0
LINE
  8
1
  6
CONTINUOUS
 62
   233
  5
681
 10
54.506833
 20
3.054167
 30
0.0
 11
54.91475
 21
3.054167
 31
0.0
  0
LINE
  8
1
  6
CONTINUOUS
 62
   233
  5
682
 10
54.91475
 20
3.054167
 30
0.0
 11
54.91475
 21
3.59625
 31
0.0
  0
LINE
  8
1
  6
CONTINUOUS
 62
   233
  5
683
 10
54.91475
 20
3.59625
 30
0.0
 11
54.506833
 21
3.59625
 31
0.0
  0
LINE
  8
1
  6
CONTINUOUS
 62
   233
  5
684
 10
54.506833
 20
3.59625
 30
0.0
 11
54.506833
 21
3.054167
 31
0.0
  0
LINE
  8
1
  6
CONTINUOUS
 62
   233
  5
685
 10
54.593833
 20
3.13975
 30
0.0
 11
54.827667
 21
3.13975
 31
0.0
  0
LINE
  8
1
  6
CONTINUOUS
 62
   233
  5
686
 10
54.827667
 20
3.13975
 30
0.0
 11
54.827667
 21
3.544917
 31
0.0
  0
LINE
  8
1
  6
CONTINUOUS
 62
   233
  5
687
 10
54.827667
 20
3.544917
 30
0.0
 11
54.593833
 21
3.544917
 31
0.0
  0
LINE
  8
1
  6
CONTINUOUS
 62
   233
  5
688
 10
54.593833
 20
3.544917
 30
0.0
 11
54.593833
 21
3.13975
 31
0.0
  0
LINE
  8
1
  6
CONTINUOUS
 62
   233
  5
689
 10
54.593833
 20
3.13975
 30
0.0
 11
53.756333
 21
3.13975
 31
0.0
  0
LINE
  8
1
  6
CONTINUOUS
 62
   233
  5
68A
 10
54.593833
 20
3.253917
 30
0.0
 11
53.756333
 21
3.253917
 31
0.0
  0
LINE
  8
1
  6
CONTINUOUS
 62
   233
  5
68B
 10
54.506833
 20
3.59625
 30
0.0
 11
53.756333
 21
3.756
 31
0.0
  0
LINE
  8
1
  6
CONTINUOUS
 62
   233
  5
68C
 10
54.827667
 20
3.13975
 30
0.0
 11
57.302167
 21
4.527917
 31
0.0
  0
LINE
  8
1
  6
CONTINUOUS
 62
   233
  5
68D
 10
54.827667
 20
3.316667
 30
0.0
 11
57.302167
 21
4.70475
 31
0.0
  0
LINE
  8
1
  6
CONTINUOUS
 62
   233
  5
68E
 10
54.91475
 20
3.59625
 30
0.0
 11
57.302167
 21
4.91525
 31
0.0
  0
LINE
  8
1
  6
CONTINUOUS
 62
   233
  5
68F
 10
57.302167
 20
4.355167
 30
0.0
 11
57.302167
 21
4.748833
 31
0.0
  0
LINE
  8
1
  6
CONTINUOUS
 62
   233
  5
690
 10
57.302167
 20
4.748833
 30
0.0
 11
57.345667
 21
4.805917
 31
0.0
  0
LINE
  8
1
  6
CONTINUOUS
 62
   233
  5
691
 10
57.345667
 20
4.805917
 30
0.0
 11
57.236917
 21
4.748833
 31
0.0
  0
LINE
  8
1
  6
CONTINUOUS
 62
   233
  5
692
 10
57.236917
 20
4.748833
 30
0.0
 11
57.302167
 21
4.82875
 31
0.0
  0
LINE
  8
1
  6
CONTINUOUS
 62
   233
  5
693
 10
57.302167
 20
4.82875
 30
0.0
 11
57.302167
 21
5.154
 31
0.0
  0
SOLID
  8
3
  6
CONTINUOUS
 62
     2
  5
694
 10
55.008667
 20
3.037667
 30
0.0
 11
55.031167
 21
3.07275
 31
0.0
 12
54.91475
 22
3.122667
 32
0.0
 13
54.91475
 23
3.122667
 33
0.0
  0
LINE
  8
3
  6
CONTINUOUS
 62
     2
  5
695
 10
55.019917
 20
3.055167
 30
0.0
 11
55.208417
 21
2.934333
 31
0.0
  0
LINE
  8
3
  6
CONTINUOUS
 62
     2
  5
696
 10
55.208417
 20
2.934333
 30
0.0
 11
55.360667
 21
2.934333
 31
0.0
  0
TEXT
  8
3
  6
CONTINUOUS
 62
   112
  5
697
 10
55.485667
 20
2.874333
 30
0.0
 40
0.133
  1
Inlet
  7
MONOTXT
210
0.0
220
0.0
230
1.0
  0
INSERT
  8
1
  6
CONTINUOUS
 62
     7
  5
6A5
  2
$D37
 10
56.154833
 20
4.280167
 30
0.0
210
0.0
220
0.0
230
1.0
  0
LINE
  8
3
  6
CONTINUOUS
 62
     2
  5
6A6
 10
56.34975
 20
3.882917
 30
0.0
 11
56.464667
 21
3.659
 31
0.0
  0
LINE
  8
3
  6
CONTINUOUS
 62
     2
  5
6A7
 10
56.464667
 20
3.659
 30
0.0
 11
56.606083
 21
3.659
 31
0.0
  0
TEXT
  8
3
  6
CONTINUOUS
 62
   112
  5
6A8
 10
56.677333
 20
3.585667
 30
0.0
 40
0.133
  1
2'-0" Min. Cover
  7
MONOTXT
210
0.0
220
0.0
230
1.0
  0
TEXT
  8
3
  6
CONTINUOUS
 62
   112
  5
6A9
 10
56.1825
 20
4.600333
 30
0.0
 40
0.133
  1
Slope as shown on plans
 50
28.231731
  7
MONOTXT
210
0.0
220
0.0
230
1.0
  0
LINE
  8
1
  6
CONTINUOUS
 62
   233
  5
6AA
 10
57.56325
 20
4.937167
 30
0.0
 11
57.56325
 21
5.262417
 31
0.0
  0
LINE
  8
1
  6
CONTINUOUS
 62
   233
  5
6AB
 10
57.498
 20
4.85725
 30
0.0
 11
57.56325
 21
4.937167
 31
0.0
  0
LINE
  8
1
  6
CONTINUOUS
 62
   233
  5
6AC
 10
57.60675
 20
4.914333
 30
0.0
 11
57.498
 21
4.85725
 31
0.0
  0
LINE
  8
1
  6
CONTINUOUS
 62
   233
  5
6AD
 10
57.56325
 20
4.85725
 30
0.0
 11
57.60675
 21
4.914333
 31
0.0
  0
LINE
  8
1
  6
CONTINUOUS
 62
   233
  5
6AE
 10
57.56325
 20
4.463583
 30
0.0
 11
57.56325
 21
4.85725
 31
0.0
  0
LINE
  8
1
  6
CONTINUOUS
 62
   233
  5
6AF
 10
57.56325
 20
4.665417
 30
0.0
 11
59.159
 21
5.523417
 31
0.0
  0
LINE
  8
1
  6
CONTINUOUS
 62
   233
  5
6B0
 10
57.56325
 20
4.828167
 30
0.0
 11
59.112167
 21
5.65875
 31
0.0
  0
LINE
  8
1
  6
CONTINUOUS
 62
   233
  5
6B1
 10
57.56325
 20
5.071
 30
0.0
 11
58.727167
 21
5.690333
 31
0.0
  0
LINE
  8
1
  6
CONTINUOUS
 62
   233
  5
6B2
 10
59.277417
 20
5.55325
 30
0.0
 11
60.125333
 21
5.55325
 31
0.0
  0
LINE
  8
1
  6
CONTINUOUS
 62
   233
  5
6B3
 10
60.125333
 20
5.55325
 30
0.0
 11
60.57675
 21
5.77575
 31
0.0
  0
LINE
  8
1
  6
CONTINUOUS
 62
   233
  5
6B4
 10
60.57675
 20
5.77575
 30
0.0
 11
60.66375
 21
5.77575
 31
0.0
  0
LINE
  8
1
  6
CONTINUOUS
 62
   233
  5
6B5
 10
59.591167
 20
5.744
 30
0.0
 11
59.650667
 21
5.744
 31
0.0
  0
LINE
  8
1
  6
CONTINUOUS
 62
   233
  5
6B6
 10
59.650667
 20
5.744
 30
0.0
 11
59.650667
 21
5.447917
 31
0.0
  0
LINE
  8
1
  6
CONTINUOUS
 62
   233
  5
6B7
 10
59.650667
 20
5.447917
 30
0.0
 11
59.591167
 21
5.447917
 31
0.0
  0
LINE
  8
1
  6
CONTINUOUS
 62
   233
  5
6B8
 10
59.591167
 20
5.447917
 30
0.0
 11
59.591167
 21
5.744
 31
0.0
  0
LINE
  8
1
  6
CONTINUOUS
 62
   233
  5
6B9
 10
59.650667
 20
5.6885
 30
0.0
 11
59.23025
 21
5.6885
 31
0.0
  0
ARC
  8
1
  6
CONTINUOUS
 62
   233
  5
6BA
 10
59.277417
 20
5.30325
 30
0.0
 40
0.25
 50
90.0
 51
118.265439
210
0.0
220
0.0
230
1.0
  0
ARC
  8
1
  6
CONTINUOUS
 62
   233
  5
6BB
 10
59.23025
 20
5.4385
 30
0.0
 40
0.25
 50
90.0
 51
118.202706
210
0.0
220
0.0
230
1.0
  0
ARC
  8
1
  6
CONTINUOUS
 62
   233
  5
6BC
 10
59.206917
 20
4.94775
 30
0.0
 40
0.88408
 50
64.240278
 51
122.863578
210
0.0
220
0.0
230
1.0
  0
LINE
  8
1
  6
CONTINUOUS
 62
   233
  5
6BD
 10
59.351167
 20
5.55325
 30
0.0
 11
59.351167
 21
5.6885
 31
0.0
  0
LINE
  8
1
  6
CONTINUOUS
 62
   233
  5
6BE
 10
59.10525
 20
5.4945
 30
0.0
 11
59.038583
 21
5.619333
 31
0.0
  0
LINE
  8
2
  6
HIDDEN
 62
     2
  5
6BF
 10
59.650667
 20
5.710583
 30
0.0
 11
59.93075
 21
5.55325
 31
0.0
  0
LINE
  8
1
  6
CONTINUOUS
 62
     7
  5
6C0
 10
59.465167
 20
5.85575
 30
0.0
 11
59.465167
 21
6.294083
 31
0.0
  0
LINE
  8
1
  6
CONTINUOUS
 62
     7
  5
6C1
 10
58.904833
 20
5.841083
 30
0.0
 11
58.904833
 21
6.294083
 31
0.0
  0
LINE
  8
1
  6
CONTINUOUS
 62
     7
  5
6C2
 10
59.340167
 20
6.114083
 30
0.0
 11
59.029833
 21
6.114083
 31
0.0
  0
SOLID
  8
1
  6
CONTINUOUS
 62
     7
  5
6C3
 10
59.340167
 20
6.09325
 30
0.0
 11
59.340167
 21
6.134917
 31
0.0
 12
59.465167
 22
6.114083
 32
0.0
 13
59.465167
 23
6.114083
 33
0.0
  0
SOLID
  8
1
  6
CONTINUOUS
 62
     7
  5
6C4
 10
59.029833
 20
6.09325
 30
0.0
 11
59.029833
 21
6.134917
 31
0.0
 12
58.904833
 22
6.114083
 32
0.0
 13
58.904833
 23
6.114083
 33
0.0
  0
LINE
  8
6
  6
CONTINUOUS
 62
     7
  5
6C5
 10
59.465167
 20
5.79325
 30
0.0
 11
59.46525
 21
5.79325
 31
0.0
  0
LINE
  8
6
  6
CONTINUOUS
 62
     7
  5
6C6
 10
58.904833
 20
5.778583
 30
0.0
 11
58.904917
 21
5.778583
 31
0.0
  0
LINE
  8
6
  6
CONTINUOUS
 62
     7
  5
6C7
 10
58.904833
 20
6.114083
 30
0.0
 11
58.904917
 21
6.114083
 31
0.0
  0
LINE
  8
1
  6
CONTINUOUS
 62
     7
  5
6C8
 10
59.36075
 20
5.827083
 30
0.0
 11
59.482667
 21
5.827083
 31
0.0
  0
LINE
  8
1
  6
CONTINUOUS
 62
     7
  5
6C9
 10
59.365167
 20
5.6885
 30
0.0
 11
59.482667
 21
5.6885
 31
0.0
  0
LINE
  8
1
  6
CONTINUOUS
 62
     7
  5
6CA
 10
59.302667
 20
5.5635
 30
0.0
 11
59.302667
 21
5.4385
 31
0.0
  0
LINE
  8
1
  6
CONTINUOUS
 62
     7
  5
6CB
 10
59.302667
 20
5.952083
 30
0.0
 11
59.302667
 21
6.077083
 31
0.0
  0
LINE
  8
1
  6
CONTINUOUS
 62
     7
  5
6CC
 10
59.302667
 20
5.4385
 30
0.0
 11
59.302667
 21
5.3135
 31
0.0
  0
SOLID
  8
1
  6
CONTINUOUS
 62
     7
  5
6CD
 10
59.3235
 20
5.5635
 30
0.0
 11
59.281833
 21
5.5635
 31
0.0
 12
59.302667
 22
5.6885
 32
0.0
 13
59.302667
 23
5.6885
 33
0.0
  0
SOLID
  8
1
  6
CONTINUOUS
 62
     7
  5
6CE
 10
59.3235
 20
5.952083
 30
0.0
 11
59.281833
 21
5.952083
 31
0.0
 12
59.302667
 22
5.827083
 32
0.0
 13
59.302667
 23
5.827083
 33
0.0
  0
LINE
  8
6
  6
CONTINUOUS
 62
     7
  5
6CF
 10
59.29825
 20
5.827083
 30
0.0
 11
59.298333
 21
5.827083
 31
0.0
  0
LINE
  8
6
  6
CONTINUOUS
 62
     7
  5
6D0
 10
59.302667
 20
5.6885
 30
0.0
 11
59.30275
 21
5.6885
 31
0.0
  0
LINE
  8
6
  6
CONTINUOUS
 62
     7
  5
6D1
 10
59.302667
 20
5.6885
 30
0.0
 11
59.30275
 21
5.6885
 31
0.0
  0
TEXT
  8
3
  6
CONTINUOUS
 62
   112
  5
6D2
 10
59.46575
 20
5.156917
 30
0.0
 40
0.133
  1
1'-0" Min. Cover
  7
MONOTXT
210
0.0
220
0.0
230
1.0
  0
SOLID
  8
3
  6
CONTINUOUS
 62
     2
  5
6D3
 10
59.103917
 20
5.454167
 30
0.0
 11
59.13675
 21
5.428583
 31
0.0
 12
59.197083
 22
5.54
 32
0.0
 13
59.197083
 23
5.54
 33
0.0
  0
LINE
  8
3
  6
CONTINUOUS
 62
     2
  5
6D4
 10
59.120333
 20
5.441333
 30
0.0
 11
58.69
 21
4.88875
 31
0.0
  0
LINE
  8
3
  6
CONTINUOUS
 62
     2
  5
6D5
 10
58.69
 20
4.88875
 30
0.0
 11
58.87075
 21
4.88875
 31
0.0
  0
TEXT
  8
3
  6
CONTINUOUS
 62
   112
  5
6D6
 10
58.995667
 20
4.82875
 30
0.0
 40
0.133
  1
Pipe Bend
  7
MONOTXT
210
0.0
220
0.0
230
1.0
  0
TEXT
  8
3
  6
CONTINUOUS
 62
   112
  5
6D7
 10
58.949917
 20
6.191833
 30
0.0
 40
0.133
  1
10'-0"
  7
MONOTXT
210
0.0
220
0.0
230
1.0
  0
SOLID
  8
3
  6
CONTINUOUS
 62
     2
  5
6D8
 10
59.765917
 20
5.759833
 30
0.0
 11
59.742667
 21
5.794333
 31
0.0
 12
59.650667
 22
5.70725
 32
0.0
 13
59.650667
 23
5.70725
 33
0.0
  0
LINE
  8
3
  6
CONTINUOUS
 62
     2
  5
6D9
 10
59.754333
 20
5.777083
 30
0.0
 11
60.25475
 21
6.114167
 31
0.0
  0
LINE
  8
3
  6
CONTINUOUS
 62
     2
  5
6DA
 10
60.25475
 20
6.114167
 30
0.0
 11
60.46625
 21
6.114167
 31
0.0
  0
TEXT
  8
3
  6
CONTINUOUS
 62
   112
  5
6DB
 10
60.505833
 20
6.049417
 30
0.0
 40
0.133
  1
Headwall, wingwall or
  7
MONOTXT
210
0.0
220
0.0
230
1.0
  0
TEXT
  8
3
  6
CONTINUOUS
 62
   112
  5
6DC
 10
60.847833
 20
5.81675
 30
0.0
 40
0.133
  1
end section
  7
MONOTXT
210
0.0
220
0.0
230
1.0
  0
LINE
  8
3
  6
CONTINUOUS
 62
     2
  5
6DD
 10
59.302667
 20
5.3135
 30
0.0
 11
59.302667
 21
5.20775
 31
0.0
  0
LINE
  8
3
  6
CONTINUOUS
 62
     2
  5
6DE
 10
59.302667
 20
5.20775
 30
0.0
 11
59.461333
 21
5.20775
 31
0.0
  0
TEXT
  8
3
  6
CONTINUOUS
 62
   112
  5
6DF
 10
39.991667
 20
21.0775
 30
0.0
 40
0.153583
  1
*
  7
MONOTXT
210
0.0
220
0.0
230
1.0
  0
TEXT
  8
3
  6
CONTINUOUS
 62
   112
  5
6E0
 10
40.161583
 20
21.020833
 30
0.0
 40
0.133
  1
Except for structural plate
  7
MONOTXT
210
0.0
220
0.0
230
1.0
  0
TEXT
  8
3
  6
CONTINUOUS
 62
   112
  5
6E1
 10
42.958167
 20
21.020083
 30
0.0
 40
0.133
  1
pipe where length of bedding
  7
MONOTXT
210
0.0
220
0.0
230
1.0
  0
TEXT
  8
3
  6
CONTINUOUS
 62
   112
  5
6E2
 10
46.031417
 20
21.008917
 30
0.0
 40
0.133
  1
arc need not exceed width of
  7
MONOTXT
210
0.0
220
0.0
230
1.0
  0
TEXT
  8
3
  6
CONTINUOUS
 62
   112
  5
6E3
 10
44.05875
 20
20.74075
 30
0.0
 40
0.133
  1
plate pipe is first assembled
  7
MONOTXT
210
0.0
220
0.0
230
1.0
  0
TEXT
  8
3
  6
CONTINUOUS
 62
   112
  5
6E4
 10
40.182917
 20
20.48125
 30
0.0
 40
0.133
  1
and then placed in the trench,
  7
MONOTXT
210
0.0
220
0.0
230
1.0
  0
TEXT
  8
3
  6
CONTINUOUS
 62
   112
  5
6E5
 10
43.464333
 20
20.489
 30
0.0
 40
0.133
  1
the 0.15 O.D. minimum value
  7
MONOTXT
210
0.0
220
0.0
230
1.0
  0
TEXT
  8
3
  6
CONTINUOUS
 62
   112
  5
6E6
 10
46.51325
 20
20.494917
 30
0.0
 40
0.133
  1
will apply.
  7
MONOTXT
210
0.0
220
0.0
230
1.0
  0
TEXT
  8
3
  6
CONTINUOUS
 62
   112
  5
6E7
 10
46.848083
 20
17.642417
 30
0.0
 40
0.133
  1
 fill over pipe
 50
90.0
  7
MONOTXT
210
0.0
220
0.0
230
1.0
  0
TEXT
  8
3
  6
CONTINUOUS
 62
   112
  5
6E8
 10
46.609917
 20
17.799417
 30
0.0
 40
0.133
  1
0.50" per ft. 
 50
90.0
  7
MONOTXT
210
0.0
220
0.0
230
1.0
  0
TEXT
  8
3
  6
CONTINUOUS
 62
   112
  5
6E9
 10
55.48225
 20
16.64075
 30
0.0
 40
0.2
  1
MEDIAN OUTLET IN HIGH FILL
  7
MONOTXT
210
0.0
220
0.0
230
1.0
  0
TEXT
  8
3
  6
CONTINUOUS
 62
   112
  5
6EA
 10
54.0315
 20
16.3005
 30
0.0
 40
0.179167
  1
To be used where called for on the plans or as shown
  7
MONOTXT
210
0.0
220
0.0
230
1.0
  0
TEXT
  8
3
  6
CONTINUOUS
 62
   112
  5
6EB
 10
56.436167
 20
15.942667
 30
0.0
 40
0.179167
  1
on the cross sections.
  7
MONOTXT
210
0.0
220
0.0
230
1.0
  0
LINE
  8
1
  6
CONTINUOUS
 62
   233
  5
6EC
 10
59.88925
 20
18.637333
 30
0.0
 11
57.116083
 21
18.637333
 31
0.0
  0
LINE
  8
1
  6
CONTINUOUS
 62
   233
  5
6ED
 10
59.934
 20
18.828333
 30
0.0
 11
57.110083
 21
18.828333
 31
0.0
  0
LINE
  8
1
  6
CONTINUOUS
 62
   233
  5
6EE
 10
54.0955
 20
18.546
 30
0.0
 11
54.0955
 21
19.268417
 31
0.0
  0
LINE
  8
1
  6
CONTINUOUS
 62
   233
  5
6EF
 10
54.0955
 20
19.268417
 30
0.0
 11
53.557333
 21
19.268417
 31
0.0
  0
LINE
  8
1
  6
CONTINUOUS
 62
   233
  5
6F0
 10
53.557333
 20
19.268417
 30
0.0
 11
53.557333
 21
18.546
 31
0.0
  0
LINE
  8
1
  6
CONTINUOUS
 62
   233
  5
6F1
 10
53.557333
 20
18.546
 30
0.0
 11
54.0955
 21
18.546
 31
0.0
  0
LINE
  8
1
  6
CONTINUOUS
 62
   233
  5
6F2
 10
54.0955
 20
18.637333
 30
0.0
 11
53.668167
 21
18.637333
 31
0.0
  0
LINE
  8
1
  6
CONTINUOUS
 62
   233
  5
6F3
 10
53.668167
 20
18.637333
 30
0.0
 11
53.668167
 21
19.193667
 31
0.0
  0
LINE
  8
1
  6
CONTINUOUS
 62
   233
  5
6F4
 10
53.668167
 20
19.193667
 30
0.0
 11
54.000583
 21
19.193667
 31
0.0
  0
LINE
  8
1
  6
CONTINUOUS
 62
   233
  5
6F5
 10
54.000583
 20
19.193667
 30
0.0
 11
54.000583
 21
18.637333
 31
0.0
  0
LINE
  8
1
  6
CONTINUOUS
 62
   233
  5
6F6
 10
53.631667
 20
19.268417
 30
0.0
 11
53.668167
 21
19.193667
 31
0.0
  0
LINE
  8
1
  6
CONTINUOUS
 62
   233
  5
6F7
 10
54.052333
 20
19.268417
 30
0.0
 11
54.000583
 21
19.193667
 31
0.0
  0
TEXT
  8
3
  6
CONTINUOUS
 62
   112
  5
6F8
 10
53.683333
 20
18.27
 30
0.0
 40
0.133
  1
Inlet
  7
MONOTXT
210
0.0
220
0.0
230
1.0
  0
LINE
  8
1
  6
CONTINUOUS
 62
   233
  5
6F9
 10
54.0955
 20
19.268417
 30
0.0
 11
55.88425
 21
19.583917
 31
0.0
  0
LINE
  8
1
  6
CONTINUOUS
 62
   233
  5
6FA
 10
55.88425
 20
19.583917
 30
0.0
 11
56.97475
 21
19.583917
 31
0.0
  0
LINE
  8
1
  6
CONTINUOUS
 62
   233
  5
6FB
 10
58.000667
 20
19.583917
 30
0.0
 11
58.000667
 21
19.52325
 31
0.0
  0
LINE
  8
1
  6
CONTINUOUS
 62
   233
  5
6FC
 10
58.000667
 20
19.52325
 30
0.0
 11
57.639583
 21
19.52325
 31
0.0
  0
LINE
  8
1
  6
CONTINUOUS
 62
   233
  5
6FD
 10
57.639583
 20
19.52325
 30
0.0
 11
57.639583
 21
19.469583
 31
0.0
  0
LINE
  8
1
  6
CONTINUOUS
 62
   233
  5
6FE
 10
57.639583
 20
19.469583
 30
0.0
 11
57.104083
 21
19.469583
 31
0.0
  0
LINE
  8
1
  6
CONTINUOUS
 62
   233
  5
6FF
 10
56.367
 20
19.469583
 30
0.0
 11
56.367
 21
19.535833
 31
0.0
  0
LINE
  8
1
  6
CONTINUOUS
 62
   233
  5
700
 10
56.367
 20
19.535833
 30
0.0
 11
55.975833
 21
19.535833
 31
0.0
  0
LINE
  8
1
  6
CONTINUOUS
 62
   233
  5
701
 10
55.975833
 20
19.535833
 30
0.0
 11
55.975833
 21
19.583917
 31
0.0
  0
LINE
  8
1
  6
CONTINUOUS
 62
   233
  5
702
 10
57.104083
 20
19.703167
 30
0.0
 11
57.104083
 21
19.3275
 31
0.0
  0
LINE
  8
1
  6
CONTINUOUS
 62
   233
  5
703
 10
57.104083
 20
19.3275
 30
0.0
 11
57.15825
 21
19.3275
 31
0.0
  0
LINE
  8
1
  6
CONTINUOUS
 62
   233
  5
704
 10
57.15825
 20
19.3275
 30
0.0
 11
57.071
 21
19.2265
 31
0.0
  0
LINE
  8
1
  6
CONTINUOUS
 62
   233
  5
705
 10
57.071
 20
19.2265
 30
0.0
 11
57.110083
 21
19.2265
 31
0.0
  0
LINE
  8
1
  6
CONTINUOUS
 62
   233
  5
706
 10
57.110083
 20
19.2265
 30
0.0
 11
57.110083
 21
18.7815
 31
0.0
  0
LINE
  8
1
  6
CONTINUOUS
 62
   233
  5
707
 10
57.110083
 20
18.7815
 30
0.0
 11
57.17025
 21
18.7815
 31
0.0
  0
LINE
  8
1
  6
CONTINUOUS
 62
   233
  5
708
 10
57.17025
 20
18.7815
 30
0.0
 11
57.074
 21
18.708917
 31
0.0
  0
LINE
  8
1
  6
CONTINUOUS
 62
   233
  5
709
 10
57.074
 20
18.708917
 30
0.0
 11
57.116083
 21
18.693083
 31
0.0
  0
LINE
  8
1
  6
CONTINUOUS
 62
   233
  5
70A
 10
57.116083
 20
18.693083
 30
0.0
 11
57.116083
 21
18.462667
 31
0.0
  0
LINE
  8
1
  6
CONTINUOUS
 62
   233
  5
70B
 10
56.98675
 20
18.693083
 30
0.0
 11
56.98675
 21
18.462667
 31
0.0
  0
LINE
  8
1
  6
CONTINUOUS
 62
   233
  5
70C
 10
56.944667
 20
18.708917
 30
0.0
 11
56.98675
 21
18.693083
 31
0.0
  0
LINE
  8
1
  6
CONTINUOUS
 62
   233
  5
70D
 10
57.040917
 20
18.7815
 30
0.0
 11
56.944667
 21
18.708917
 31
0.0
  0
LINE
  8
1
  6
CONTINUOUS
 62
   233
  5
70E
 10
56.98075
 20
18.7815
 30
0.0
 11
57.040917
 21
18.7815
 31
0.0
  0
LINE
  8
1
  6
CONTINUOUS
 62
   233
  5
70F
 10
56.98075
 20
19.2265
 30
0.0
 11
56.98075
 21
18.7815
 31
0.0
  0
LINE
  8
1
  6
CONTINUOUS
 62
   233
  5
710
 10
56.941667
 20
19.2265
 30
0.0
 11
56.98075
 21
19.2265
 31
0.0
  0
LINE
  8
1
  6
CONTINUOUS
 62
   233
  5
711
 10
57.028917
 20
19.3275
 30
0.0
 11
56.941667
 21
19.2265
 31
0.0
  0
LINE
  8
1
  6
CONTINUOUS
 62
   233
  5
712
 10
56.97475
 20
19.3275
 30
0.0
 11
57.028917
 21
19.3275
 31
0.0
  0
LINE
  8
1
  6
CONTINUOUS
 62
   233
  5
713
 10
56.97475
 20
19.703167
 30
0.0
 11
56.97475
 21
19.3275
 31
0.0
  0
LINE
  8
1
  6
CONTINUOUS
 62
   233
  5
714
 10
57.104083
 20
19.583917
 30
0.0
 11
59.001167
 21
19.583917
 31
0.0
  0
LINE
  8
1
  6
CONTINUOUS
 62
   233
  5
715
 10
56.97475
 20
19.469583
 30
0.0
 11
56.367
 21
19.469583
 31
0.0
  0
LINE
  8
1
  6
CONTINUOUS
 62
   233
  5
716
 10
56.98075
 20
18.828333
 30
0.0
 11
54.000583
 21
18.828333
 31
0.0
  0
LINE
  8
1
  6
CONTINUOUS
 62
   233
  5
717
 10
56.98675
 20
18.637333
 30
0.0
 11
54.0955
 21
18.637333
 31
0.0
  0
TEXT
  8
3
  6
CONTINUOUS
 62
   112
  5
718
 10
55.824417
 20
18.384
 30
0.0
 40
0.133
  1
Slope as
  7
MONOTXT
210
0.0
220
0.0
230
1.0
  0
TEXT
  8
3
  6
CONTINUOUS
 62
   112
  5
719
 10
57.26475
 20
18.415083
 30
0.0
 40
0.133
  1
shown on plans
  7
MONOTXT
210
0.0
220
0.0
230
1.0
  0
LINE
  8
1
  6
CONTINUOUS
 62
   233
  5
71A
 10
61.384333
 20
18.139167
 30
0.0
 11
60.044917
 21
18.802333
 31
0.0
  0
LINE
  8
1
  6
CONTINUOUS
 62
   233
  5
71B
 10
61.339667
 20
17.94825
 30
0.0
 11
60.00025
 21
18.611333
 31
0.0
  0
ARC
  8
1
  6
CONTINUOUS
 62
   233
  5
71C
 10
59.934
 20
18.578333
 30
0.0
 40
0.25
 50
63.660272
 51
89.999997
210
0.0
220
0.0
230
1.0
  0
ARC
  8
1
  6
CONTINUOUS
 62
   233
  5
71D
 10
59.88925
 20
18.387333
 30
0.0
 40
0.25
 50
63.660272
 51
89.999997
210
0.0
220
0.0
230
1.0
  0
LINE
  8
1
  6
CONTINUOUS
 62
   233
  5
71E
 10
59.811917
 20
18.637333
 30
0.0
 11
59.811917
 21
18.828333
 31
0.0
  0
LINE
  8
1
  6
CONTINUOUS
 62
   233
  5
71F
 10
60.101167
 20
18.561417
 30
0.0
 11
60.198
 21
18.7265
 31
0.0
  0
LINE
  8
1
  6
CONTINUOUS
 62
   233
  5
720
 10
62.3555
 20
17.93525
 30
0.0
 11
61.97175
 21
18.12725
 31
0.0
  0
ARC
  8
1
  6
CONTINUOUS
 62
   233
  5
721
 10
59.001167
 20
19.333917
 30
0.0
 40
0.25
 50
63.420567
 51
89.999997
210
0.0
220
0.0
230
1.0
  0
LINE
  8
1
  6
CONTINUOUS
 62
   233
  5
722
 10
62.91475
 20
17.93525
 30
0.0
 11
61.395167
 21
17.93525
 31
0.0
  0
LINE
  8
1
  6
CONTINUOUS
 62
   233
  5
723
 10
61.97175
 20
18.12625
 30
0.0
 11
61.439833
 21
18.12625
 31
0.0
  0
ARC
  8
1
  6
CONTINUOUS
 62
   233
  5
724
 10
61.439833
 20
18.25125
 30
0.0
 40
0.125
 50
243.660272
 51
269.999997
210
0.0
220
0.0
230
1.0
  0
ARC
  8
1
  6
CONTINUOUS
 62
   233
  5
725
 10
61.395167
 20
18.06025
 30
0.0
 40
0.125
 50
243.660272
 51
269.999997
210
0.0
220
0.0
230
1.0
  0
LINE
  8
1
  6
CONTINUOUS
 62
   233
  5
726
 10
61.574583
 20
17.93525
 30
0.0
 11
61.574583
 21
18.12625
 31
0.0
  0
LINE
  8
1
  6
CONTINUOUS
 62
   233
  5
727
 10
61.17925
 20
18.027667
 30
0.0
 11
61.278417
 21
18.191667
 31
0.0
  0
LINE
  8
1
  6
CONTINUOUS
 62
   233
  5
728
 10
61.8935
 20
17.846833
 30
0.0
 11
61.97175
 21
17.846833
 31
0.0
  0
LINE
  8
1
  6
CONTINUOUS
 62
   233
  5
729
 10
61.97175
 20
17.846833
 30
0.0
 11
61.97175
 21
18.219333
 31
0.0
  0
LINE
  8
1
  6
CONTINUOUS
 62
   233
  5
72A
 10
61.97175
 20
18.219333
 30
0.0
 11
61.8935
 21
18.219333
 31
0.0
  0
LINE
  8
1
  6
CONTINUOUS
 62
   233
  5
72B
 10
61.8935
 20
18.219333
 30
0.0
 11
61.8935
 21
17.846833
 31
0.0
  0
LINE
  8
1
  6
CONTINUOUS
 62
   233
  5
72C
 10
61.8935
 20
18.166417
 30
0.0
 11
59.113083
 21
19.5575
 31
0.0
  0
LINE
  8
1
  6
CONTINUOUS
 62
   233
  5
72D
 10
63.518167
 20
18.278167
 30
0.0
 11
62.91475
 21
17.93525
 31
0.0
  0
SOLID
  8
3
  6
CONTINUOUS
 62
     2
  5
72E
 10
61.121833
 20
18.015
 30
0.0
 11
61.121833
 21
17.973333
 31
0.0
 12
61.246833
 22
17.994167
 32
0.0
 13
61.246833
 23
17.994167
 33
0.0
  0
LINE
  8
3
  6
CONTINUOUS
 62
     2
  5
72F
 10
61.121833
 20
17.994167
 30
0.0
 11
59.827417
 21
17.994167
 31
0.0
  0
SOLID
  8
3
  6
CONTINUOUS
 62
     2
  5
730
 10
59.993583
 20
18.516417
 30
0.0
 11
60.02825
 21
18.539667
 31
0.0
 12
59.941333
 22
18.631833
 32
0.0
 13
59.941333
 23
18.631833
 33
0.0
  0
LINE
  8
3
  6
CONTINUOUS
 62
     2
  5
731
 10
60.011
 20
18.528
 30
0.0
 11
60.369
 21
17.994167
 31
0.0
  0
SOLID
  8
3
  6
CONTINUOUS
 62
     2
  5
732
 10
59.7125
 20
18.52
 30
0.0
 11
59.7125
 21
18.478333
 31
0.0
 12
59.8375
 22
18.499167
 32
0.0
 13
59.8375
 23
18.499167
 33
0.0
  0
LINE
  8
3
  6
CONTINUOUS
 62
     2
  5
733
 10
59.7125
 20
18.499167
 30
0.0
 11
58.985
 21
18.499167
 31
0.0
  0
SOLID
  8
3
  6
CONTINUOUS
 62
     2
  5
734
 10
61.800167
 20
17.929417
 30
0.0
 11
61.833
 21
17.90375
 31
0.0
 12
61.8935
 22
18.015083
 32
0.0
 13
61.8935
 23
18.015083
 33
0.0
  0
LINE
  8
3
  6
CONTINUOUS
 62
     2
  5
735
 10
61.816583
 20
17.916583
 30
0.0
 11
61.48225
 21
17.488917
 31
0.0
  0
LINE
  8
3
  6
CONTINUOUS
 62
     2
  5
736
 10
61.48225
 20
17.488917
 30
0.0
 11
61.953583
 21
17.488917
 31
0.0
  0
TEXT
  8
3
  6
CONTINUOUS
 62
   112
  5
737
 10
58.55375
 20
17.888833
 30
0.0
 40
0.133
  1
Pipe Bends
  7
MONOTXT
210
0.0
220
0.0
230
1.0
  0
TEXT
  8
3
  6
CONTINUOUS
 62
   112
  5
738
 10
61.8125
 20
17.52625
 30
0.0
 40
0.133
  1
Headwall, wingwall or
  7
MONOTXT
210
0.0
220
0.0
230
1.0
  0
TEXT
  8
3
  6
CONTINUOUS
 62
   112
  5
739
 10
61.8125
 20
17.299583
 30
0.0
 40
0.133
  1
end section.
  7
MONOTXT
210
0.0
220
0.0
230
1.0
  0
LINE
  8
7
  6
CENTER
 62
     2
  5
73A
 10
62.588
 20
17.746833
 30
0.0
 11
62.588
 21
18.707333
 31
0.0
  0
SOLID
  8
3
  6
CONTINUOUS
 62
     2
  5
73B
 10
62.713
 20
18.45675
 30
0.0
 11
62.713
 21
18.498417
 31
0.0
 12
62.588
 22
18.477583
 32
0.0
 13
62.588
 23
18.477583
 33
0.0
  0
LINE
  8
3
  6
CONTINUOUS
 62
     2
  5
73C
 10
62.713
 20
18.477583
 30
0.0
 11
63.22325
 21
18.477583
 31
0.0
  0
TEXT
  8
3
  6
CONTINUOUS
 62
   112
  5
73D
 10
62.74575
 20
18.597
 30
0.0
 40
0.133
  1
C
  7
MONOTXT
210
0.0
220
0.0
230
1.0
  0
TEXT
  8
3
  6
CONTINUOUS
 62
   112
  5
73E
 10
62.78075
 20
18.535833
 30
0.0
 40
0.133
  1
L
  7
MONOTXT
210
0.0
220
0.0
230
1.0
  0
TEXT
  8
3
  6
CONTINUOUS
 62
   112
  5
73F
 10
63.00425
 20
18.5235
 30
0.0
 40
0.133
  1
Side Ditch
  7
MONOTXT
210
0.0
220
0.0
230
1.0
  0
LINE
  8
1
  6
CONTINUOUS
 62
     7
  5
740
 10
60.79375
 20
18.434917
 30
0.0
 11
60.931167
 21
18.374833
 31
0.0
  0
LINE
  8
1
  6
CONTINUOUS
 62
     7
  5
741
 10
60.896
 20
18.669083
 30
0.0
 11
61.0335
 21
18.609
 31
0.0
  0
LINE
  8
1
  6
CONTINUOUS
 62
     7
  5
742
 10
60.918583
 20
18.795583
 30
0.0
 11
60.968667
 21
18.910167
 31
0.0
  0
LINE
  8
1
  6
CONTINUOUS
 62
     7
  5
743
 10
60.716167
 20
18.332417
 30
0.0
 11
60.666083
 21
18.217833
 31
0.0
  0
LINE
  8
1
  6
CONTINUOUS
 62
     7
  5
744
 10
60.968667
 20
18.910167
 30
0.0
 11
61.093667
 21
18.910167
 31
0.0
  0
SOLID
  8
1
  6
CONTINUOUS
 62
     7
  5
745
 10
60.937667
 20
18.78725
 30
0.0
 11
60.8995
 21
18.804
 31
0.0
 12
60.868583
 22
18.681083
 32
0.0
 13
60.868583
 23
18.681083
 33
0.0
  0
SOLID
  8
1
  6
CONTINUOUS
 62
     7
  5
746
 10
60.73525
 20
18.324083
 30
0.0
 11
60.697083
 21
18.34075
 31
0.0
 12
60.76625
 22
18.446917
 32
0.0
 13
60.76625
 23
18.446917
 33
0.0
  0
TEXT
  8
1
  6
CONTINUOUS
 62
   112
  5
747
 10
61.218667
 20
18.850167
 30
0.0
 40
0.133
  1
2'-0" Min. Cover
  7
MONOTXT
210
0.0
220
0.0
230
1.0
  0
LINE
  8
6
  6
CONTINUOUS
 62
     7
  5
748
 10
60.736417
 20
18.46
 30
0.0
 11
60.7365
 21
18.46
 31
0.0
  0
LINE
  8
6
  6
CONTINUOUS
 62
     7
  5
749
 10
60.83875
 20
18.694083
 30
0.0
 11
60.838833
 21
18.694083
 31
0.0
  0
LINE
  8
6
  6
CONTINUOUS
 62
     7
  5
74A
 10
60.868583
 20
18.681083
 30
0.0
 11
60.868667
 21
18.681083
 31
0.0
  0
LINE
  8
1
  6
CONTINUOUS
 62
    52
  5
74B
 10
43.9175
 20
19.164917
 30
0.0
 11
43.9905
 21
19.237833
 31
0.0
  0
LINE
  8
1
  6
CONTINUOUS
 62
    52
  5
74C
 10
43.9175
 20
18.926
 30
0.0
 11
43.9905
 21
18.998917
 31
0.0
  0
LINE
  8
1
  6
CONTINUOUS
 62
    52
  5
74D
 10
43.9175
 20
18.686833
 30
0.0
 11
43.9905
 21
18.76
 31
0.0
  0
LINE
  8
1
  6
CONTINUOUS
 62
    52
  5
74E
 10
43.9175
 20
18.447917
 30
0.0
 11
43.9905
 21
18.520833
 31
0.0
  0
LINE
  8
1
  6
CONTINUOUS
 62
    52
  5
74F
 10
43.9175
 20
18.208833
 30
0.0
 11
43.9905
 21
18.281917
 31
0.0
  0
LINE
  8
1
  6
CONTINUOUS
 62
    52
  5
750
 10
43.9175
 20
17.969833
 30
0.0
 11
43.9905
 21
18.042917
 31
0.0
  0
LINE
  8
1
  6
CONTINUOUS
 62
    52
  5
751
 10
43.9175
 20
17.730833
 30
0.0
 11
43.9905
 21
17.803917
 31
0.0
  0
LINE
  8
1
  6
CONTINUOUS
 62
    52
  5
752
 10
43.9175
 20
17.491917
 30
0.0
 11
43.9905
 21
17.564917
 31
0.0
  0
LINE
  8
1
  6
CONTINUOUS
 62
    52
  5
753
 10
43.990417
 20
19.571667
 30
0.0
 11
44.018583
 21
19.599917
 31
0.0
  0
LINE
  8
1
  6
CONTINUOUS
 62
    52
  5
754
 10
43.9175
 20
19.254417
 30
0.0
 11
43.945667
 21
19.28275
 31
0.0
  0
LINE
  8
1
  6
CONTINUOUS
 62
     7
  5
755
 10
44.065167
 20
19.40225
 30
0.0
 11
44.06625
 21
19.403417
 31
0.0
  0
LINE
  8
1
  6
CONTINUOUS
 62
    52
  5
756
 10
43.9175
 20
19.0155
 30
0.0
 11
43.945667
 21
19.04375
 31
0.0
  0
LINE
  8
1
  6
CONTINUOUS
 62
    52
  5
757
 10
44.065167
 20
19.163167
 30
0.0
 11
44.06625
 21
19.164417
 31
0.0
  0
LINE
  8
1
  6
CONTINUOUS
 62
    52
  5
758
 10
43.9175
 20
18.7765
 30
0.0
 11
43.945667
 21
18.80475
 31
0.0
  0
LINE
  8
1
  6
CONTINUOUS
 62
     7
  5
759
 10
44.065167
 20
18.92425
 30
0.0
 11
44.06625
 21
18.925417
 31
0.0
  0
LINE
  8
1
  6
CONTINUOUS
 62
    52
  5
75A
 10
43.9175
 20
18.537417
 30
0.0
 11
43.945667
 21
18.56575
 31
0.0
  0
LINE
  8
1
  6
CONTINUOUS
 62
    52
  5
75B
 10
43.9175
 20
18.2985
 30
0.0
 11
43.945667
 21
18.32675
 31
0.0
  0
LINE
  8
1
  6
CONTINUOUS
 62
    52
  5
75C
 10
43.9175
 20
18.059583
 30
0.0
 11
43.945667
 21
18.08775
 31
0.0
  0
LINE
  8
1
  6
CONTINUOUS
 62
    52
  5
75D
 10
43.9175
 20
17.8205
 30
0.0
 11
43.945667
 21
17.84875
 31
0.0
  0
LINE
  8
1
  6
CONTINUOUS
 62
    52
  5
75E
 10
43.9175
 20
17.5815
 30
0.0
 11
43.945667
 21
17.60975
 31
0.0
  0
LINE
  8
1
  6
CONTINUOUS
 62
    52
  5
75F
 10
43.915667
 20
17.34075
 30
0.0
 11
43.945667
 21
17.37075
 31
0.0
  0
LINE
  8
1
  6
CONTINUOUS
 62
    52
  5
760
 10
43.915667
 20
17.34075
 30
0.0
 11
43.945667
 21
17.37075
 31
0.0
  0
LINE
  8
1
  6
CONTINUOUS
 62
    52
  5
761
 10
44.020333
 20
19.208083
 30
0.0
 11
44.06625
 21
19.254
 31
0.0
  0
LINE
  8
1
  6
CONTINUOUS
 62
    52
  5
762
 10
44.020333
 20
18.969083
 30
0.0
 11
44.06625
 21
19.015083
 31
0.0
  0
LINE
  8
1
  6
CONTINUOUS
 62
    52
  5
763
 10
44.020333
 20
18.730083
 30
0.0
 11
44.06625
 21
18.776083
 31
0.0
  0
LINE
  8
1
  6
CONTINUOUS
 62
    52
  5
764
 10
44.020333
 20
18.491083
 30
0.0
 11
44.06625
 21
18.537
 31
0.0
  0
LINE
  8
1
  6
CONTINUOUS
 62
    52
  5
765
 10
44.020333
 20
18.252083
 30
0.0
 11
44.06625
 21
18.298083
 31
0.0
  0
LINE
  8
1
  6
CONTINUOUS
 62
    52
  5
766
 10
44.020333
 20
18.013083
 30
0.0
 11
44.06625
 21
18.059083
 31
0.0
  0
LINE
  8
1
  6
CONTINUOUS
 62
    52
  5
767
 10
44.020333
 20
17.774
 30
0.0
 11
44.06625
 21
17.82
 31
0.0
  0
LINE
  8
1
  6
CONTINUOUS
 62
    52
  5
768
 10
43.826167
 20
17.34075
 30
0.0
 11
43.900917
 21
17.4155
 31
0.0
  0
LINE
  8
1
  6
CONTINUOUS
 62
    52
  5
769
 10
44.020333
 20
17.535083
 30
0.0
 11
44.06625
 21
17.581
 31
0.0
  0
LINE
  8
1
  6
CONTINUOUS
 62
    52
  5
76A
 10
44.024417
 20
17.34075
 30
0.0
 11
43.936333
 21
17.42875
 31
0.0
  0
LINE
  8
1
  6
CONTINUOUS
 62
    52
  5
76B
 10
44.039167
 20
17.564917
 30
0.0
 11
43.936333
 21
17.667917
 31
0.0
  0
LINE
  8
1
  6
CONTINUOUS
 62
    52
  5
76C
 10
44.039167
 20
17.803917
 30
0.0
 11
43.936333
 21
17.906833
 31
0.0
  0
LINE
  8
1
  6
CONTINUOUS
 62
    52
  5
76D
 10
44.039167
 20
18.042917
 30
0.0
 11
43.936333
 21
18.14575
 31
0.0
  0
LINE
  8
1
  6
CONTINUOUS
 62
    52
  5
76E
 10
44.039167
 20
18.281917
 30
0.0
 11
43.936333
 21
18.384917
 31
0.0
  0
LINE
  8
1
  6
CONTINUOUS
 62
    52
  5
76F
 10
44.039167
 20
18.520833
 30
0.0
 11
43.936333
 21
18.623833
 31
0.0
  0
LINE
  8
1
  6
CONTINUOUS
 62
    52
  5
770
 10
44.039167
 20
18.76
 30
0.0
 11
43.936333
 21
18.862833
 31
0.0
  0
LINE
  8
1
  6
CONTINUOUS
 62
    52
  5
771
 10
44.039167
 20
18.998917
 30
0.0
 11
43.936333
 21
19.101917
 31
0.0
  0
LINE
  8
1
  6
CONTINUOUS
 62
    52
  5
772
 10
44.039167
 20
19.237833
 30
0.0
 11
43.936333
 21
19.340833
 31
0.0
  0
LINE
  8
1
  6
CONTINUOUS
 62
    52
  5
773
 10
44.084
 20
17.37075
 30
0.0
 11
43.9645
 21
17.49025
 31
0.0
  0
LINE
  8
1
  6
CONTINUOUS
 62
    52
  5
774
 10
44.084
 20
17.60975
 30
0.0
 11
43.9645
 21
17.729167
 31
0.0
  0
LINE
  8
1
  6
CONTINUOUS
 62
    52
  5
775
 10
44.084
 20
17.84875
 30
0.0
 11
43.9645
 21
17.968333
 31
0.0
  0
LINE
  8
1
  6
CONTINUOUS
 62
    52
  5
776
 10
44.084
 20
18.08775
 30
0.0
 11
43.9645
 21
18.20725
 31
0.0
  0
LINE
  8
1
  6
CONTINUOUS
 62
    52
  5
777
 10
44.084
 20
18.32675
 30
0.0
 11
43.9645
 21
18.446167
 31
0.0
  0
LINE
  8
1
  6
CONTINUOUS
 62
    52
  5
778
 10
44.084
 20
18.56575
 30
0.0
 11
43.9645
 21
18.685333
 31
0.0
  0
LINE
  8
1
  6
CONTINUOUS
 62
    52
  5
779
 10
44.084
 20
18.80475
 30
0.0
 11
43.9645
 21
18.92425
 31
0.0
  0
LINE
  8
1
  6
CONTINUOUS
 62
    52
  5
77A
 10
44.084
 20
19.04375
 30
0.0
 11
43.9645
 21
19.163167
 31
0.0
  0
LINE
  8
1
  6
CONTINUOUS
 62
    52
  5
77B
 10
44.084
 20
19.28275
 30
0.0
 11
43.9645
 21
19.40225
 31
0.0
  0
LINE
  8
1
  6
CONTINUOUS
 62
    52
  5
77C
 10
44.085083
 20
17.459167
 30
0.0
 11
44.009333
 21
17.535083
 31
0.0
  0
LINE
  8
1
  6
CONTINUOUS
 62
    52
  5
77D
 10
44.085083
 20
17.698167
 30
0.0
 11
44.009333
 21
17.774
 31
0.0
  0
LINE
  8
1
  6
CONTINUOUS
 62
    52
  5
77E
 10
44.085083
 20
17.937167
 30
0.0
 11
44.009333
 21
18.013083
 31
0.0
  0
LINE
  8
1
  6
CONTINUOUS
 62
    52
  5
77F
 10
44.085083
 20
18.176167
 30
0.0
 11
44.009333
 21
18.252083
 31
0.0
  0
LINE
  8
1
  6
CONTINUOUS
 62
    52
  5
780
 10
44.085083
 20
18.41525
 30
0.0
 11
44.009333
 21
18.491083
 31
0.0
  0
LINE
  8
1
  6
CONTINUOUS
 62
    52
  5
781
 10
44.085083
 20
18.654167
 30
0.0
 11
44.009333
 21
18.730083
 31
0.0
  0
LINE
  8
1
  6
CONTINUOUS
 62
    52
  5
782
 10
44.085083
 20
18.893333
 30
0.0
 11
44.009333
 21
18.969083
 31
0.0
  0
LINE
  8
1
  6
CONTINUOUS
 62
    52
  5
783
 10
44.085083
 20
19.13225
 30
0.0
 11
44.009333
 21
19.208083
 31
0.0
  0
LINE
  8
1
  6
CONTINUOUS
 62
    52
  5
784
 10
44.085083
 20
19.371167
 30
0.0
 11
44.009333
 21
19.447
 31
0.0
  0
LINE
  8
1
  6
CONTINUOUS
 62
    52
  5
785
 10
44.085083
 20
19.371167
 30
0.0
 11
44.009333
 21
19.447
 31
0.0
  0
LINE
  8
1
  6
CONTINUOUS
 62
     7
  5
786
 10
44.252167
 20
19.618417
 30
0.0
 11
44.2605
 21
19.626833
 31
0.0
  0
LINE
  8
1
  6
CONTINUOUS
 62
    52
  5
787
 10
43.845
 20
17.37075
 30
0.0
 11
43.813
 21
17.402833
 31
0.0
  0
LINE
  8
1
  6
CONTINUOUS
 62
    52
  5
788
 10
44.20725
 20
19.54375
 30
0.0
 11
44.099333
 21
19.651583
 31
0.0
  0
LINE
  8
1
  6
CONTINUOUS
 62
    52
  5
789
 10
44.252167
 20
19.5885
 30
0.0
 11
44.194667
 21
19.646
 31
0.0
  0
LINE
  8
1
  6
CONTINUOUS
 62
    52
  5
78A
 10
41.65825
 20
19.489083
 30
0.0
 11
41.671833
 21
19.502667
 31
0.0
  0
LINE
  8
1
  6
CONTINUOUS
 62
    52
  5
78B
 10
41.552417
 20
19.622083
 30
0.0
 11
41.5625
 21
19.63225
 31
0.0
  0
LINE
  8
1
  6
CONTINUOUS
 62
    52
  5
78C
 10
41.31325
 20
19.622083
 30
0.0
 11
41.326833
 21
19.63575
 31
0.0
  0
LINE
  8
1
  6
CONTINUOUS
 62
    52
  5
78D
 10
41.074333
 20
19.622083
 30
0.0
 11
41.091167
 21
19.639
 31
0.0
  0
LINE
  8
1
  6
CONTINUOUS
 62
    52
  5
78E
 10
40.835417
 20
19.622083
 30
0.0
 11
40.852167
 21
19.639
 31
0.0
  0
LINE
  8
1
  6
CONTINUOUS
 62
     7
  5
78F
 10
40.59625
 20
19.622083
 30
0.0
 11
40.613167
 21
19.639
 31
0.0
  0
LINE
  8
1
  6
CONTINUOUS
 62
     7
  5
790
 10
44.205667
 20
19.622083
 30
0.0
 11
44.217
 21
19.633417
 31
0.0
  0
LINE
  8
1
  6
CONTINUOUS
 62
    52
  5
791
 10
44.288
 20
19.489833
 30
0.0
 11
44.300833
 21
19.502667
 31
0.0
  0
LINE
  8
1
  6
CONTINUOUS
 62
     7
  5
792
 10
44.42025
 20
19.622083
 30
0.0
 11
44.427417
 21
19.629167
 31
0.0
  0
LINE
  8
1
  6
CONTINUOUS
 62
    52
  5
793
 10
42.330417
 20
17.289083
 30
0.0
 11
42.397583
 21
17.35625
 31
0.0
  0
LINE
  8
1
  6
CONTINUOUS
 62
    52
  5
794
 10
44.526917
 20
19.489833
 30
0.0
 11
44.539833
 21
19.502667
 31
0.0
  0
LINE
  8
1
  6
CONTINUOUS
 62
    52
  5
795
 10
44.659417
 20
19.622083
 30
0.0
 11
44.695083
 21
19.657833
 31
0.0
  0
LINE
  8
1
  6
CONTINUOUS
 62
     7
  5
796
 10
42.508333
 20
17.232083
 30
0.0
 11
42.521333
 21
17.245167
 31
0.0
  0
LINE
  8
1
  6
CONTINUOUS
 62
     7
  5
797
 10
44.766083
 20
19.489833
 30
0.0
 11
44.778833
 21
19.502667
 31
0.0
  0
LINE
  8
1
  6
CONTINUOUS
 62
    52
  5
798
 10
42.600167
 20
17.084917
 30
0.0
 11
42.62775
 21
17.112583
 31
0.0
  0
LINE
  8
1
  6
CONTINUOUS
 62
    52
  5
799
 10
42.8035
 20
17.049333
 30
0.0
 11
42.866833
 21
17.112583
 31
0.0
  0
LINE
  8
1
  6
CONTINUOUS
 62
     7
  5
79A
 10
43.103833
 20
17.110667
 30
0.0
 11
43.105833
 21
17.112583
 31
0.0
  0
LINE
  8
1
  6
CONTINUOUS
 62
    52
  5
79B
 10
43.241083
 20
17.220167
 30
0.0
 11
43.3605
 21
17.339667
 31
0.0
  0
LINE
  8
1
  6
CONTINUOUS
 62
    52
  5
79C
 10
41.583583
 20
19.504
 30
0.0
 11
41.626917
 21
19.547417
 31
0.0
  0
LINE
  8
1
  6
CONTINUOUS
 62
    52
  5
79D
 10
41.344667
 20
19.504
 30
0.0
 11
41.388
 21
19.547417
 31
0.0
  0
LINE
  8
1
  6
CONTINUOUS
 62
    52
  5
79E
 10
41.1055
 20
19.504
 30
0.0
 11
41.149083
 21
19.547417
 31
0.0
  0
LINE
  8
1
  6
CONTINUOUS
 62
    52
  5
79F
 10
40.866583
 20
19.504
 30
0.0
 11
40.909917
 21
19.547417
 31
0.0
  0
LINE
  8
1
  6
CONTINUOUS
 62
    52
  5
7A0
 10
40.627583
 20
19.504
 30
0.0
 11
40.671
 21
19.547417
 31
0.0
  0
LINE
  8
1
  6
CONTINUOUS
 62
    52
  5
7A1
 10
41.836083
 20
17.366417
 30
0.0
 11
41.866083
 21
17.396417
 31
0.0
  0
LINE
  8
1
  6
CONTINUOUS
 62
    52
  5
7A2
 10
43.886
 20
19.450917
 30
0.0
 11
43.94375
 21
19.5085
 31
0.0
  0
LINE
  8
1
  6
CONTINUOUS
 62
    52
  5
7A3
 10
42.075
 20
17.366417
 30
0.0
 11
42.105
 21
17.396417
 31
0.0
  0
LINE
  8
1
  6
CONTINUOUS
 62
    52
  5
7A4
 10
42.2935
 20
17.341917
 30
0.0
 11
42.35575
 21
17.404167
 31
0.0
  0
LINE
  8
1
  6
CONTINUOUS
 62
    52
  5
7A5
 10
44.4375
 20
19.489833
 30
0.0
 11
44.495
 21
19.547417
 31
0.0
  0
LINE
  8
1
  6
CONTINUOUS
 62
     7
  5
7A6
 10
42.4635
 20
17.276833
 30
0.0
 11
42.463583
 21
17.277083
 31
0.0
  0
LINE
  8
1
  6
CONTINUOUS
 62
    52
  5
7A7
 10
44.676417
 20
19.489833
 30
0.0
 11
44.734083
 21
19.547417
 31
0.0
  0
LINE
  8
1
  6
CONTINUOUS
 62
    52
  5
7A8
 10
42.53575
 20
17.110083
 30
0.0
 11
42.583
 21
17.157417
 31
0.0
  0
LINE
  8
1
  6
CONTINUOUS
 62
     7
  5
7A9
 10
42.720833
 20
17.05625
 30
0.0
 11
42.822
 21
17.157417
 31
0.0
  0
LINE
  8
1
  6
CONTINUOUS
 62
    52
  5
7AA
 10
42.969333
 20
17.065667
 30
0.0
 11
43.061
 21
17.157417
 31
0.0
  0
LINE
  8
1
  6
CONTINUOUS
 62
    52
  5
7AB
 10
43.204167
 20
17.253083
 30
0.0
 11
43.323667
 21
17.372667
 31
0.0
  0
LINE
  8
1
  6
CONTINUOUS
 62
    52
  5
7AC
 10
43.509083
 20
17.366417
 30
0.0
 11
43.539083
 21
17.396417
 31
0.0
  0
LINE
  8
1
  6
CONTINUOUS
 62
    52
  5
7AD
 10
41.746333
 20
17.366417
 30
0.0
 11
41.821167
 21
17.441167
 31
0.0
  0
LINE
  8
1
  6
CONTINUOUS
 62
    52
  5
7AE
 10
41.701583
 20
19.472667
 30
0.0
 11
41.74625
 21
19.517333
 31
0.0
  0
LINE
  8
1
  6
CONTINUOUS
 62
    52
  5
7AF
 10
41.494
 20
19.504
 30
0.0
 11
41.582167
 21
19.592167
 31
0.0
  0
LINE
  8
1
  6
CONTINUOUS
 62
    52
  5
7B0
 10
41.254917
 20
19.504
 30
0.0
 11
41.343167
 21
19.592167
 31
0.0
  0
LINE
  8
1
  6
CONTINUOUS
 62
    52
  5
7B1
 10
41.015917
 20
19.504
 30
0.0
 11
41.104167
 21
19.592167
 31
0.0
  0
LINE
  8
1
  6
CONTINUOUS
 62
    52
  5
7B2
 10
40.777
 20
19.504
 30
0.0
 11
40.865167
 21
19.592167
 31
0.0
  0
LINE
  8
1
  6
CONTINUOUS
 62
    52
  5
7B3
 10
40.597833
 20
19.563917
 30
0.0
 11
40.626083
 21
19.592167
 31
0.0
  0
LINE
  8
1
  6
CONTINUOUS
 62
    52
  5
7B4
 10
41.985417
 20
17.366417
 30
0.0
 11
42.060167
 21
17.441167
 31
0.0
  0
LINE
  8
1
  6
CONTINUOUS
 62
    52
  5
7B5
 10
42.248083
 20
17.38225
 30
0.0
 11
42.3145
 21
17.448583
 31
0.0
  0
LINE
  8
1
  6
CONTINUOUS
 62
    52
  5
7B6
 10
44.34775
 20
19.489833
 30
0.0
 11
44.45025
 21
19.592167
 31
0.0
  0
LINE
  8
1
  6
CONTINUOUS
 62
    52
  5
7B7
 10
44.586833
 20
19.489833
 30
0.0
 11
44.689167
 21
19.592167
 31
0.0
  0
LINE
  8
1
  6
CONTINUOUS
 62
    52
  5
7B8
 10
42.476417
 20
17.140417
 30
0.0
 11
42.538167
 21
17.202167
 31
0.0
  0
LINE
  8
1
  6
CONTINUOUS
 62
    52
  5
7B9
 10
42.65775
 20
17.082667
 30
0.0
 11
42.75575
 21
17.18075
 31
0.0
  0
LINE
  8
1
  6
CONTINUOUS
 62
    52
  5
7BA
 10
42.896667
 20
17.082667
 30
0.0
 11
43.01625
 21
17.202167
 31
0.0
  0
LINE
  8
1
  6
CONTINUOUS
 62
    52
  5
7BB
 10
43.419333
 20
17.366417
 30
0.0
 11
43.494167
 21
17.441167
 31
0.0
  0
LINE
  8
1
  6
CONTINUOUS
 62
    52
  5
7BC
 10
43.598833
 20
17.366417
 30
0.0
 11
43.513667
 21
17.45175
 31
0.0
  0
LINE
  8
1
  6
CONTINUOUS
 62
    52
  5
7BD
 10
41.461333
 20
19.504
 30
0.0
 11
41.343167
 21
19.622083
 31
0.0
  0
LINE
  8
1
  6
CONTINUOUS
 62
    52
  5
7BE
 10
43.41425
 20
17.327917
 30
0.0
 11
43.351833
 21
17.39025
 31
0.0
  0
LINE
  8
1
  6
CONTINUOUS
 62
    52
  5
7BF
 10
41.22225
 20
19.504
 30
0.0
 11
41.104167
 21
19.622083
 31
0.0
  0
LINE
  8
1
  6
CONTINUOUS
 62
     7
  5
7C0
 10
43.270167
 20
17.217083
 30
0.0
 11
43.255167
 21
17.232083
 31
0.0
  0
LINE
  8
1
  6
CONTINUOUS
 62
    52
  5
7C1
 10
40.98325
 20
19.504
 30
0.0
 11
40.865167
 21
19.622083
 31
0.0
  0
LINE
  8
1
  6
CONTINUOUS
 62
    52
  5
7C2
 10
43.126833
 20
17.121583
 30
0.0
 11
43.031
 21
17.217333
 31
0.0
  0
LINE
  8
1
  6
CONTINUOUS
 62
    52
  5
7C3
 10
40.744333
 20
19.504
 30
0.0
 11
40.626083
 21
19.622083
 31
0.0
  0
LINE
  8
1
  6
CONTINUOUS
 62
    52
  5
7C4
 10
42.896667
 20
17.112583
 30
0.0
 11
42.830417
 21
17.178833
 31
0.0
  0
LINE
  8
1
  6
CONTINUOUS
 62
    52
  5
7C5
 10
42.65775
 20
17.112583
 30
0.0
 11
42.538167
 21
17.232083
 31
0.0
  0
LINE
  8
1
  6
CONTINUOUS
 62
    52
  5
7C6
 10
42.164833
 20
17.366417
 30
0.0
 11
42.079667
 21
17.45175
 31
0.0
  0
LINE
  8
1
  6
CONTINUOUS
 62
    52
  5
7C7
 10
41.925833
 20
17.366417
 30
0.0
 11
41.840667
 21
17.45175
 31
0.0
  0
LINE
  8
1
  6
CONTINUOUS
 62
    52
  5
7C8
 10
41.701583
 20
19.502667
 30
0.0
 11
41.582167
 21
19.622083
 31
0.0
  0
LINE
  8
1
  6
CONTINUOUS
 62
    52
  5
7C9
 10
44.569667
 20
19.502667
 30
0.0
 11
44.45025
 21
19.622083
 31
0.0
  0
LINE
  8
1
  6
CONTINUOUS
 62
    52
  5
7CA
 10
44.785333
 20
19.526
 30
0.0
 11
44.689167
 21
19.622083
 31
0.0
  0
LINE
  8
1
  6
CONTINUOUS
 62
    52
  5
7CB
 10
44.785333
 20
19.526
 30
0.0
 11
44.689167
 21
19.622083
 31
0.0
  0
LINE
  8
1
  6
CONTINUOUS
 62
    52
  5
7CC
 10
41.5075
 20
19.547417
 30
0.0
 11
41.420583
 21
19.634417
 31
0.0
  0
LINE
  8
1
  6
CONTINUOUS
 62
    52
  5
7CD
 10
43.4195
 20
17.396417
 30
0.0
 11
43.36425
 21
17.45175
 31
0.0
  0
LINE
  8
1
  6
CONTINUOUS
 62
    52
  5
7CE
 10
41.2685
 20
19.547417
 30
0.0
 11
41.178083
 21
19.637833
 31
0.0
  0
LINE
  8
1
  6
CONTINUOUS
 62
    52
  5
7CF
 10
43.316167
 20
17.26075
 30
0.0
 11
43.3
 21
17.276833
 31
0.0
  0
LINE
  8
1
  6
CONTINUOUS
 62
    52
  5
7D0
 10
41.0295
 20
19.547417
 30
0.0
 11
40.938
 21
19.639
 31
0.0
  0
LINE
  8
1
  6
CONTINUOUS
 62
    52
  5
7D1
 10
43.212083
 20
17.1495
 30
0.0
 11
43.12575
 21
17.235833
 31
0.0
  0
LINE
  8
1
  6
CONTINUOUS
 62
     7
  5
7D2
 10
40.7905
 20
19.547417
 30
0.0
 11
40.698833
 21
19.639
 31
0.0
  0
LINE
  8
1
  6
CONTINUOUS
 62
     7
  5
7D3
 10
42.941583
 20
17.157417
 30
0.0
 11
42.912167
 21
17.18675
 31
0.0
  0
LINE
  8
1
  6
CONTINUOUS
 62
     7
  5
7D4
 10
42.7025
 20
17.157417
 30
0.0
 11
42.665333
 21
17.1945
 31
0.0
  0
LINE
  8
1
  6
CONTINUOUS
 62
    52
  5
7D5
 10
42.4635
 20
17.157417
 30
0.0
 11
42.344
 21
17.276833
 31
0.0
  0
LINE
  8
1
  6
CONTINUOUS
 62
    52
  5
7D6
 10
42.224583
 20
17.396417
 30
0.0
 11
42.169167
 21
17.45175
 31
0.0
  0
LINE
  8
1
  6
CONTINUOUS
 62
    52
  5
7D7
 10
41.9855
 20
17.396417
 30
0.0
 11
41.93025
 21
17.45175
 31
0.0
  0
LINE
  8
1
  6
CONTINUOUS
 62
     7
  5
7D8
 10
41.74625
 20
19.547667
 30
0.0
 11
41.6535
 21
19.640417
 31
0.0
  0
LINE
  8
1
  6
CONTINUOUS
 62
    52
  5
7D9
 10
44.3755
 20
19.547417
 30
0.0
 11
44.301833
 21
19.621083
 31
0.0
  0
LINE
  8
1
  6
CONTINUOUS
 62
    52
  5
7DA
 10
44.6145
 20
19.547417
 30
0.0
 11
44.521333
 21
19.6405
 31
0.0
  0
LINE
  8
1
  6
CONTINUOUS
 62
     7
  5
7DB
 10
44.785333
 20
19.6155
 30
0.0
 11
44.755833
 21
19.645083
 31
0.0
  0
LINE
  8
1
  6
CONTINUOUS
 62
    52
  5
7DC
 10
41.552417
 20
19.592167
 30
0.0
 11
41.511583
 21
19.633
 31
0.0
  0
LINE
  8
1
  6
CONTINUOUS
 62
     7
  5
7DD
 10
43.464333
 20
17.441167
 30
0.0
 11
43.453917
 21
17.45175
 31
0.0
  0
LINE
  8
1
  6
CONTINUOUS
 62
    52
  5
7DE
 10
41.31325
 20
19.592167
 30
0.0
 11
41.269
 21
19.636417
 31
0.0
  0
LINE
  8
1
  6
CONTINUOUS
 62
     7
  5
7DF
 10
43.358
 20
17.308583
 30
0.0
 11
43.34475
 21
17.32175
 31
0.0
  0
LINE
  8
1
  6
CONTINUOUS
 62
    52
  5
7E0
 10
41.074333
 20
19.592167
 30
0.0
 11
41.0275
 21
19.639
 31
0.0
  0
LINE
  8
1
  6
CONTINUOUS
 62
    52
  5
7E1
 10
43.253
 20
17.178417
 30
0.0
 11
43.17975
 21
17.251667
 31
0.0
  0
LINE
  8
1
  6
CONTINUOUS
 62
    52
  5
7E2
 10
40.835417
 20
19.592167
 30
0.0
 11
40.788583
 21
19.639
 31
0.0
  0
LINE
  8
1
  6
CONTINUOUS
 62
     7
  5
7E3
 10
42.98625
 20
17.202167
 30
0.0
 11
42.985667
 21
17.20275
 31
0.0
  0
LINE
  8
1
  6
CONTINUOUS
 62
     7
  5
7E4
 10
40.59625
 20
19.592167
 30
0.0
 11
40.586417
 21
19.602083
 31
0.0
  0
LINE
  8
1
  6
CONTINUOUS
 62
    52
  5
7E5
 10
42.896167
 20
17.053417
 30
0.0
 11
42.866833
 21
17.082667
 31
0.0
  0
LINE
  8
1
  6
CONTINUOUS
 62
    52
  5
7E6
 10
42.63675
 20
17.07375
 30
0.0
 11
42.62775
 21
17.082667
 31
0.0
  0
LINE
  8
1
  6
CONTINUOUS
 62
    52
  5
7E7
 10
42.508333
 20
17.202167
 30
0.0
 11
42.388833
 21
17.32175
 31
0.0
  0
LINE
  8
1
  6
CONTINUOUS
 62
     7
  5
7E8
 10
42.26925
 20
17.441167
 30
0.0
 11
42.258833
 21
17.45175
 31
0.0
  0
LINE
  8
1
  6
CONTINUOUS
 62
     7
  5
7E9
 10
42.03025
 20
17.441167
 30
0.0
 11
42.019917
 21
17.45175
 31
0.0
  0
LINE
  8
1
  6
CONTINUOUS
 62
     7
  5
7EA
 10
41.791333
 20
17.441167
 30
0.0
 11
41.780833
 21
17.45175
 31
0.0
  0
LINE
  8
1
  6
CONTINUOUS
 62
     7
  5
7EB
 10
41.74625
 20
19.63725
 30
0.0
 11
41.732333
 21
19.651333
 31
0.0
  0
LINE
  8
1
  6
CONTINUOUS
 62
    52
  5
7EC
 10
44.205667
 20
19.592167
 30
0.0
 11
44.157667
 21
19.64025
 31
0.0
  0
LINE
  8
1
  6
CONTINUOUS
 62
     7
  5
7ED
 10
44.42025
 20
19.592167
 30
0.0
 11
44.388083
 21
19.624417
 31
0.0
  0
LINE
  8
1
  6
CONTINUOUS
 62
    52
  5
7EE
 10
44.659417
 20
19.592167
 30
0.0
 11
44.601333
 21
19.65025
 31
0.0
  0
LINE
  8
1
  6
CONTINUOUS
 62
     7
  5
7EF
 10
43.924833
 20
19.621833
 30
0.0
 11
43.948583
 21
19.645667
 31
0.0
  0
LINE
  8
1
  6
CONTINUOUS
 62
    52
  5
7F0
 10
43.907583
 20
19.553417
 30
0.0
 11
43.929
 21
19.574833
 31
0.0
  0
LINE
  8
1
  6
CONTINUOUS
 62
     7
  5
7F1
 10
43.789583
 20
19.65525
 30
0.0
 11
43.785583
 21
19.65925
 31
0.0
  0
LINE
  8
1
  6
CONTINUOUS
 62
     7
  5
7F2
 10
43.884917
 20
19.649667
 30
0.0
 11
43.877667
 21
19.656917
 31
0.0
  0
LINE
  8
1
  6
CONTINUOUS
 62
   233
  5
7F3
 10
44.059917
 20
19.651417
 30
0.0
 11
44.2605
 21
19.628583
 31
0.0
  0
LINE
  8
1
  6
CONTINUOUS
 62
   233
  5
7F4
 10
44.020583
 20
19.653167
 30
0.0
 11
44.035583
 21
19.651417
 31
0.0
  0
LINE
  8
1
  6
CONTINUOUS
 62
     7
  5
7F5
 10
44.080333
 20
17.730417
 30
0.0
 11
44.24825
 21
17.730417
 31
0.0
  0
LINE
  8
1
  6
CONTINUOUS
 62
    52
  5
7F6
 10
44.114917
 20
19.502667
 30
0.0
 11
44.053667
 21
19.563833
 31
0.0
  0
LINE
  8
1
  6
CONTINUOUS
 62
    52
  5
7F7
 10
44.008833
 20
19.54225
 30
0.0
 11
43.9505
 21
19.6005
 31
0.0
  0
LINE
  8
1
  6
CONTINUOUS
 62
    52
  5
7F8
 10
44.259333
 20
19.597083
 30
0.0
 11
44.234333
 21
19.622083
 31
0.0
  0
LINE
  8
1
  6
CONTINUOUS
 62
    52
  5
7F9
 10
44.159667
 20
19.547417
 30
0.0
 11
44.058583
 21
19.6485
 31
0.0
  0
LINE
  8
1
  6
CONTINUOUS
 62
     7
  5
7FA
 10
44.035417
 20
19.6485
 30
0.0
 11
44.032167
 21
19.65175
 31
0.0
  0
LINE
  8
1
  6
CONTINUOUS
 62
     7
  5
7FB
 10
43.961833
 20
17.448333
 30
0.0
 11
44.24725
 21
17.448333
 31
0.0
  0
LINE
  8
1
  6
CONTINUOUS
 62
   233
  5
7FC
 10
44.250833
 20
19.628583
 30
0.0
 11
44.259333
 21
19.627583
 31
0.0
  0
LINE
  8
1
  6
CONTINUOUS
 62
    52
  5
7FD
 10
44.250833
 20
19.5275
 30
0.0
 11
44.259333
 21
19.536
 31
0.0
  0
LINE
  8
1
  6
CONTINUOUS
 62
    52
  5
7FE
 10
44.244667
 20
19.536
 30
0.0
 11
44.256083
 21
19.547417
 31
0.0
  0
LINE
  8
1
  6
CONTINUOUS
 62
    52
  5
7FF
 10
44.259333
 20
19.588583
 30
0.0
 11
44.250833
 21
19.597083
 31
0.0
  0
LINE
  8
1
  6
CONTINUOUS
 62
   233
  5
800
 10
44.244667
 20
19.627583
 30
0.0
 11
44.259333
 21
19.625917
 31
0.0
  0
LINE
  8
1
  6
CONTINUOUS
 62
   233
  5
801
 10
44.259333
 20
19.625917
 30
0.0
 11
44.331833
 21
19.617667
 31
0.0
  0
LINE
  8
1
  6
CONTINUOUS
 62
    52
  5
802
 10
44.259333
 20
19.573917
 30
0.0
 11
44.244667
 21
19.588583
 31
0.0
  0
LINE
  8
1
  6
CONTINUOUS
 62
    52
  5
803
 10
44.33075
 20
19.502667
 30
0.0
 11
44.259333
 21
19.573917
 31
0.0
  0
LINE
  8
1
  6
CONTINUOUS
 62
    30
  5
804
 10
41.74625
 20
19.653167
 30
0.0
 11
41.74625
 21
17.45175
 31
0.0
  0
LINE
  8
1
  6
CONTINUOUS
 62
    30
  5
805
 10
41.74625
 20
17.45175
 30
0.0
 11
42.378833
 21
17.45175
 31
0.0
  0
LINE
  8
1
  6
CONTINUOUS
 62
    30
  5
806
 10
43.89275
 20
19.653
 30
0.0
 11
43.89275
 21
17.451583
 31
0.0
  0
LINE
  8
1
  6
CONTINUOUS
 62
    30
  5
807
 10
43.89275
 20
17.451583
 30
0.0
 11
43.318917
 21
17.451583
 31
0.0
  0
LINE
  8
1
  6
CONTINUOUS
 62
    52
  5
808
 10
43.936333
 20
19.403833
 30
0.0
 11
44.007417
 21
19.475083
 31
0.0
  0
LINE
  8
1
  6
CONTINUOUS
 62
     7
  5
809
 10
44.130667
 20
19.497083
 30
0.0
 11
44.132583
 21
19.499
 31
0.0
  0
LINE
  8
1
  6
CONTINUOUS
 62
    52
  5
80A
 10
44.039167
 20
19.447
 30
0.0
 11
44.06725
 21
19.475083
 31
0.0
  0
LINE
  8
1
  6
CONTINUOUS
 62
    52
  5
80B
 10
44.1905
 20
19.497083
 30
0.0
 11
44.2605
 21
19.567083
 31
0.0
  0
LINE
  8
1
  6
CONTINUOUS
 62
     7
  5
80C
 10
43.950167
 20
19.467833
 30
0.0
 11
43.957333
 21
19.475083
 31
0.0
  0
LINE
  8
1
  6
CONTINUOUS
 62
    52
  5
80D
 10
44.080583
 20
19.497083
 30
0.0
 11
44.086167
 21
19.502667
 31
0.0
  0
LINE
  8
1
  6
CONTINUOUS
 62
     7
  5
80E
 10
44.009917
 20
19.467833
 30
0.0
 11
44.017167
 21
19.475083
 31
0.0
  0
LINE
  8
1
  6
CONTINUOUS
 62
    52
  5
80F
 10
44.140417
 20
19.497083
 30
0.0
 11
44.2355
 21
19.592167
 31
0.0
  0
LINE
  8
1
  6
CONTINUOUS
 62
    52
  5
810
 10
44.098417
 20
19.467833
 30
0.0
 11
44.105667
 21
19.475083
 31
0.0
  0
LINE
  8
1
  6
CONTINUOUS
 62
     7
  5
811
 10
44.228917
 20
19.497083
 30
0.0
 11
44.259333
 21
19.5275
 31
0.0
  0
LINE
  8
6
  6
CONTINUOUS
 62
    52
  5
812
 10
41.751417
 20
17.424333
 30
0.0
 11
41.751333
 21
17.424333
 31
0.0
  0
LINE
  8
6
  6
CONTINUOUS
 62
    52
  5
813
 10
41.718417
 20
17.428
 30
0.0
 11
41.718333
 21
17.428
 31
0.0
  0
LINE
  8
1
  6
CONTINUOUS
 62
    52
  5
814
 10
41.751417
 20
19.1605
 30
0.0
 11
41.678417
 21
19.233417
 31
0.0
  0
LINE
  8
1
  6
CONTINUOUS
 62
    52
  5
815
 10
41.751417
 20
18.921583
 30
0.0
 11
41.678417
 21
18.9945
 31
0.0
  0
LINE
  8
1
  6
CONTINUOUS
 62
    52
  5
816
 10
41.751417
 20
18.682417
 30
0.0
 11
41.678417
 21
18.755583
 31
0.0
  0
LINE
  8
1
  6
CONTINUOUS
 62
    52
  5
817
 10
41.751417
 20
18.4435
 30
0.0
 11
41.678417
 21
18.516417
 31
0.0
  0
LINE
  8
1
  6
CONTINUOUS
 62
    52
  5
818
 10
41.751417
 20
18.204417
 30
0.0
 11
41.678417
 21
18.2775
 31
0.0
  0
LINE
  8
1
  6
CONTINUOUS
 62
    52
  5
819
 10
41.751417
 20
17.965417
 30
0.0
 11
41.678417
 21
18.0385
 31
0.0
  0
LINE
  8
1
  6
CONTINUOUS
 62
    52
  5
81A
 10
41.751417
 20
17.726417
 30
0.0
 11
41.678417
 21
17.7995
 31
0.0
  0
LINE
  8
1
  6
CONTINUOUS
 62
    52
  5
81B
 10
41.751417
 20
17.4875
 30
0.0
 11
41.678417
 21
17.5605
 31
0.0
  0
LINE
  8
1
  6
CONTINUOUS
 62
    52
  5
81C
 10
41.751417
 20
19.25
 30
0.0
 11
41.72325
 21
19.278333
 31
0.0
  0
LINE
  8
1
  6
CONTINUOUS
 62
    52
  5
81D
 10
41.60375
 20
19.397833
 30
0.0
 11
41.602667
 21
19.399
 31
0.0
  0
LINE
  8
1
  6
CONTINUOUS
 62
    52
  5
81E
 10
41.751417
 20
19.011083
 30
0.0
 11
41.72325
 21
19.039333
 31
0.0
  0
LINE
  8
1
  6
CONTINUOUS
 62
    52
  5
81F
 10
41.60375
 20
19.15875
 30
0.0
 11
41.602667
 21
19.16
 31
0.0
  0
LINE
  8
1
  6
CONTINUOUS
 62
    52
  5
820
 10
41.751417
 20
18.772083
 30
0.0
 11
41.72325
 21
18.800333
 31
0.0
  0
LINE
  8
1
  6
CONTINUOUS
 62
    52
  5
821
 10
41.60375
 20
18.919833
 30
0.0
 11
41.602667
 21
18.921
 31
0.0
  0
LINE
  8
1
  6
CONTINUOUS
 62
    52
  5
822
 10
41.751417
 20
18.533
 30
0.0
 11
41.72325
 21
18.561333
 31
0.0
  0
LINE
  8
1
  6
CONTINUOUS
 62
    52
  5
823
 10
41.60375
 20
18.680917
 30
0.0
 11
41.602667
 21
18.682
 31
0.0
  0
LINE
  8
1
  6
CONTINUOUS
 62
    52
  5
824
 10
41.751417
 20
18.294083
 30
0.0
 11
41.72325
 21
18.322333
 31
0.0
  0
LINE
  8
1
  6
CONTINUOUS
 62
    52
  5
825
 10
41.60375
 20
18.44175
 30
0.0
 11
41.602667
 21
18.443
 31
0.0
  0
LINE
  8
1
  6
CONTINUOUS
 62
    52
  5
826
 10
41.751417
 20
18.055167
 30
0.0
 11
41.72325
 21
18.083333
 31
0.0
  0
LINE
  8
1
  6
CONTINUOUS
 62
    52
  5
827
 10
41.60375
 20
18.202833
 30
0.0
 11
41.602667
 21
18.204
 31
0.0
  0
LINE
  8
1
  6
CONTINUOUS
 62
    52
  5
828
 10
41.751417
 20
17.816083
 30
0.0
 11
41.72325
 21
17.844333
 31
0.0
  0
LINE
  8
1
  6
CONTINUOUS
 62
    52
  5
829
 10
41.60375
 20
17.963917
 30
0.0
 11
41.602667
 21
17.965
 31
0.0
  0
LINE
  8
1
  6
CONTINUOUS
 62
    52
  5
82A
 10
41.751417
 20
17.577083
 30
0.0
 11
41.72325
 21
17.605333
 31
0.0
  0
LINE
  8
1
  6
CONTINUOUS
 62
    52
  5
82B
 10
41.60375
 20
17.72475
 30
0.0
 11
41.602667
 21
17.726
 31
0.0
  0
LINE
  8
1
  6
CONTINUOUS
 62
    52
  5
82C
 10
41.75325
 20
17.336333
 30
0.0
 11
41.72325
 21
17.366333
 31
0.0
  0
LINE
  8
1
  6
CONTINUOUS
 62
    52
  5
82D
 10
41.75325
 20
17.336333
 30
0.0
 11
41.72325
 21
17.366333
 31
0.0
  0
LINE
  8
1
  6
CONTINUOUS
 62
    52
  5
82E
 10
41.60375
 20
17.485833
 30
0.0
 11
41.602667
 21
17.487
 31
0.0
  0
LINE
  8
1
  6
CONTINUOUS
 62
    52
  5
82F
 10
41.648583
 20
19.203667
 30
0.0
 11
41.602667
 21
19.249583
 31
0.0
  0
LINE
  8
1
  6
CONTINUOUS
 62
    52
  5
830
 10
41.648583
 20
18.964667
 30
0.0
 11
41.602667
 21
19.010667
 31
0.0
  0
LINE
  8
1
  6
CONTINUOUS
 62
    52
  5
831
 10
41.648583
 20
18.725667
 30
0.0
 11
41.602667
 21
18.771667
 31
0.0
  0
LINE
  8
1
  6
CONTINUOUS
 62
    52
  5
832
 10
41.648583
 20
18.486667
 30
0.0
 11
41.602667
 21
18.532583
 31
0.0
  0
LINE
  8
1
  6
CONTINUOUS
 62
    52
  5
833
 10
41.648583
 20
18.247667
 30
0.0
 11
41.602667
 21
18.293667
 31
0.0
  0
LINE
  8
1
  6
CONTINUOUS
 62
    52
  5
834
 10
41.648583
 20
18.008667
 30
0.0
 11
41.602667
 21
18.054667
 31
0.0
  0
LINE
  8
1
  6
CONTINUOUS
 62
    52
  5
835
 10
41.648583
 20
17.769583
 30
0.0
 11
41.602667
 21
17.815583
 31
0.0
  0
LINE
  8
1
  6
CONTINUOUS
 62
    52
  5
836
 10
41.648583
 20
17.530667
 30
0.0
 11
41.602667
 21
17.576583
 31
0.0
  0
LINE
  8
1
  6
CONTINUOUS
 62
    52
  5
837
 10
41.585
 20
17.336333
 30
0.0
 11
41.583833
 21
17.337667
 31
0.0
  0
LINE
  8
1
  6
CONTINUOUS
 62
    52
  5
838
 10
41.6445
 20
17.336333
 30
0.0
 11
41.732583
 21
17.424333
 31
0.0
  0
LINE
  8
1
  6
CONTINUOUS
 62
    52
  5
839
 10
41.62975
 20
17.5605
 30
0.0
 11
41.732583
 21
17.6635
 31
0.0
  0
LINE
  8
1
  6
CONTINUOUS
 62
    52
  5
83A
 10
41.62975
 20
17.7995
 30
0.0
 11
41.732583
 21
17.902417
 31
0.0
  0
LINE
  8
1
  6
CONTINUOUS
 62
    52
  5
83B
 10
41.62975
 20
18.0385
 30
0.0
 11
41.732583
 21
18.141333
 31
0.0
  0
LINE
  8
1
  6
CONTINUOUS
 62
    52
  5
83C
 10
41.62975
 20
18.2775
 30
0.0
 11
41.732583
 21
18.3805
 31
0.0
  0
LINE
  8
1
  6
CONTINUOUS
 62
    52
  5
83D
 10
41.62975
 20
18.516417
 30
0.0
 11
41.732583
 21
18.619417
 31
0.0
  0
LINE
  8
1
  6
CONTINUOUS
 62
    52
  5
83E
 10
41.62975
 20
18.755583
 30
0.0
 11
41.732583
 21
18.858417
 31
0.0
  0
LINE
  8
1
  6
CONTINUOUS
 62
    52
  5
83F
 10
41.62975
 20
18.9945
 30
0.0
 11
41.732583
 21
19.0975
 31
0.0
  0
LINE
  8
1
  6
CONTINUOUS
 62
    52
  5
840
 10
41.62975
 20
19.233417
 30
0.0
 11
41.732583
 21
19.336417
 31
0.0
  0
LINE
  8
1
  6
CONTINUOUS
 62
    52
  5
841
 10
41.584917
 20
17.366333
 30
0.0
 11
41.704417
 21
17.485833
 31
0.0
  0
LINE
  8
1
  6
CONTINUOUS
 62
    52
  5
842
 10
41.584917
 20
17.605333
 30
0.0
 11
41.704417
 21
17.72475
 31
0.0
  0
LINE
  8
1
  6
CONTINUOUS
 62
    52
  5
843
 10
41.584917
 20
17.844333
 30
0.0
 11
41.704417
 21
17.963917
 31
0.0
  0
LINE
  8
1
  6
CONTINUOUS
 62
    52
  5
844
 10
41.584917
 20
18.083333
 30
0.0
 11
41.704417
 21
18.202833
 31
0.0
  0
LINE
  8
1
  6
CONTINUOUS
 62
    52
  5
845
 10
41.584917
 20
18.322333
 30
0.0
 11
41.704417
 21
18.44175
 31
0.0
  0
LINE
  8
1
  6
CONTINUOUS
 62
    52
  5
846
 10
41.584917
 20
18.561333
 30
0.0
 11
41.704417
 21
18.680917
 31
0.0
  0
LINE
  8
1
  6
CONTINUOUS
 62
    52
  5
847
 10
41.584917
 20
18.800333
 30
0.0
 11
41.704417
 21
18.919833
 31
0.0
  0
LINE
  8
1
  6
CONTINUOUS
 62
    52
  5
848
 10
41.584917
 20
19.039333
 30
0.0
 11
41.704417
 21
19.15875
 31
0.0
  0
LINE
  8
1
  6
CONTINUOUS
 62
    52
  5
849
 10
41.584917
 20
19.278333
 30
0.0
 11
41.704417
 21
19.397833
 31
0.0
  0
LINE
  8
1
  6
CONTINUOUS
 62
    52
  5
84A
 10
41.583833
 20
17.45475
 30
0.0
 11
41.659583
 21
17.530667
 31
0.0
  0
LINE
  8
1
  6
CONTINUOUS
 62
    52
  5
84B
 10
41.583833
 20
17.69375
 30
0.0
 11
41.659583
 21
17.769583
 31
0.0
  0
LINE
  8
1
  6
CONTINUOUS
 62
    52
  5
84C
 10
41.583833
 20
17.93275
 30
0.0
 11
41.659583
 21
18.008667
 31
0.0
  0
LINE
  8
1
  6
CONTINUOUS
 62
    52
  5
84D
 10
41.583833
 20
18.17175
 30
0.0
 11
41.659583
 21
18.247667
 31
0.0
  0
LINE
  8
1
  6
CONTINUOUS
 62
    52
  5
84E
 10
41.583833
 20
18.410833
 30
0.0
 11
41.659583
 21
18.486667
 31
0.0
  0
LINE
  8
1
  6
CONTINUOUS
 62
    52
  5
84F
 10
41.583833
 20
18.64975
 30
0.0
 11
41.659583
 21
18.725667
 31
0.0
  0
LINE
  8
1
  6
CONTINUOUS
 62
    52
  5
850
 10
41.583833
 20
18.888917
 30
0.0
 11
41.659583
 21
18.964667
 31
0.0
  0
LINE
  8
1
  6
CONTINUOUS
 62
    52
  5
851
 10
41.583833
 20
19.127833
 30
0.0
 11
41.659583
 21
19.203667
 31
0.0
  0
LINE
  8
1
  6
CONTINUOUS
 62
    52
  5
852
 10
41.583833
 20
19.36675
 30
0.0
 11
41.659583
 21
19.442583
 31
0.0
  0
LINE
  8
1
  6
CONTINUOUS
 62
    52
  5
853
 10
41.583833
 20
19.36675
 30
0.0
 11
41.659583
 21
19.442583
 31
0.0
  0
LINE
  8
1
  6
CONTINUOUS
 62
    52
  5
854
 10
41.732583
 20
19.399417
 30
0.0
 11
41.6615
 21
19.470667
 31
0.0
  0
LINE
  8
1
  6
CONTINUOUS
 62
    52
  5
855
 10
41.62975
 20
19.442583
 30
0.0
 11
41.601667
 21
19.470667
 31
0.0
  0
LINE
  8
1
  6
CONTINUOUS
 62
    52
  5
856
 10
41.71875
 20
19.463417
 30
0.0
 11
41.711583
 21
19.470667
 31
0.0
  0
LINE
  8
1
  6
CONTINUOUS
 62
    52
  5
857
 10
41.659
 20
19.463417
 30
0.0
 11
41.65175
 21
19.470667
 31
0.0
  0
LINE
  8
1
  6
CONTINUOUS
 62
    52
  5
858
 10
43.70075
 20
17.366417
 30
0.0
 11
43.626
 21
17.441167
 31
0.0
  0
LINE
  8
1
  6
CONTINUOUS
 62
    52
  5
859
 10
43.745333
 20
17.396417
 30
0.0
 11
43.800583
 21
17.45175
 31
0.0
  0
LINE
  8
1
  6
CONTINUOUS
 62
    52
  5
85A
 10
43.73375
 20
17.366417
 30
0.0
 11
43.70375
 21
17.396417
 31
0.0
  0
LINE
  8
3
  6
CONTINUOUS
 62
     2
  5
85B
 10
41.922
 20
18.377583
 30
0.0
 11
41.061167
 21
18.659917
 31
0.0
  0
SOLID
  8
3
  6
CONTINUOUS
 62
     2
  5
85C
 10
41.853917
 20
18.370583
 30
0.0
 11
41.87125
 21
18.424
 31
0.0
 12
42.02325
 22
18.344583
 32
0.0
 13
42.02325
 23
18.344583
 33
0.0
  0
TEXT
  8
3
  6
CONTINUOUS
 62
   112
  5
85D
 10
45.04675
 20
13.18425
 30
0.0
 40
0.133
  1
Compacted
  7
MONOTXT
210
0.0
220
0.0
230
1.0
  0
TEXT
  8
3
  6
CONTINUOUS
 62
   112
  5
85E
 10
48.037667
 20
9.798333
 30
0.0
 40
0.153583
  1
Class B Bedding
  7
MONOTXT
210
0.0
220
0.0
230
1.0
  0
ARC
  8
1
  6
CONTINUOUS
 62
   233
  5
85F
 10
48.779856
 20
17.857098
 30
0.0
 40
0.655716
 50
210.906444
 51
329.225539
210
0.0
220
0.0
230
1.0
  0
ARC
  8
1
  6
CONTINUOUS
 62
   233
  5
860
 10
42.850157
 20
17.847265
 30
0.0
 40
0.655716
 50
216.617247
 51
323.078761
210
0.0
220
0.0
230
1.0
  0
TEXT
  8
3
  6
CONTINUOUS
 62
   112
  5
861
 10
66.74275
 20
10.12125
 30
0.0
 40
0.24
  1
NOTES
  7
MONOTXT
210
0.0
220
0.0
230
1.0
  0
TEXT
  8
3
  6
CONTINUOUS
 62
   112
  5
862
 10
47.342
 20
1.89675
 30
0.0
 40
0.179167
  1
pipe in cut sections)
  7
MONOTXT
210
0.0
220
0.0
230
1.0
  0
TEXT
  8
3
  6
CONTINUOUS
 62
   112
  5
863
 10
40.201917
 20
20.737083
 30
0.0
 40
0.133
  1
bottom plate However, if structural
  7
MONOTXT
210
0.0
220
0.0
230
1.0
  0
LINE
  8
1
  6
CONTINUOUS
 62
   140
  5
864
 10
71.253833
 20
21.713167
 30
0.0
 11
71.253833
 21
0.713167
 31
0.0
  0
TEXT
  8
1
  6
CONTINUOUS
 62
     2
  5
865
 10
65.396833
 20
2.864917
 30
0.0
 40
0.083333
  1
 PREPARED 7-1-99
  7
ROMANS
 72
     4
 11
66.046167
 21
2.906583
 31
0.0
210
0.0
220
0.0
230
1.0
  0
TEXT
  8
3
  6
CONTINUOUS
 62
   112
  5
866
 10
53.963083
 20
7.842083
 30
0.0
 40
0.179167
  1
To be used where called for on the plans or as shown
  7
MONOTXT
210
0.0
220
0.0
230
1.0
  0
TEXT
  8
3
  6
CONTINUOUS
 62
   112
  5
867
 10
56.367667
 20
7.48425
 30
0.0
 40
0.179167
  1
on the cross sections.
  7
MONOTXT
210
0.0
220
0.0
230
1.0
  0
TEXT
  8
3
  6
CONTINUOUS
 62
   112
  5
868
 10
46.234167
 20
3.752917
 30
0.0
 40
0.133
  1
0.50" per ft. fill over
  7
MONOTXT
210
0.0
220
0.0
230
1.0
  0
TEXT
  8
3
  6
CONTINUOUS
 62
   112
  5
869
 10
47.5605
 20
8.657083
 30
0.0
 40
0.179167
  1
pipe in soil cut fill sections)
  7
MONOTXT
210
0.0
220
0.0
230
1.0
  0
TEXT
  8
3
  6
CONTINUOUS
 62
   112
  5
86A
 10
64.2095
 20
8.637667
 30
0.0
 40
0.153583
  1
pipe, layers shall be 1" minimum for  1/2 " depth corrugat-
  7
MONOTXT
210
0.0
220
0.0
230
1.0
  0
ENDSEC
  0
EOF
