  0
SECTION
  2
HEADER
  9
$ACADVER
  1
AC1009
  9
$INSBASE
 10
0.0
 20
0.0
 30
0.0
  9
$EXTMIN
 10
-2.1665
 20
-71.2461
 30
-0.1124
  9
$EXTMAX
 10
255.0845
 20
1.6914
 30
0.1124
  9
$LIMMIN
 10
0.0
 20
0.0
  9
$LIMMAX
 10
12.0
 20
9.0
  9
$ORTHOMODE
 70
     0
  9
$REGENMODE
 70
     1
  9
$FILLMODE
 70
     1
  9
$QTEXTMODE
 70
     0
  9
$MIRRTEXT
 70
     1
  9
$DRAGMODE
 70
     2
  9
$LTSCALE
 40
1.0
  9
$OSMODE
 70
     0
  9
$ATTMODE
 70
     1
  9
$TEXTSIZE
 40
0.2
  9
$TRACEWID
 40
0.05
  9
$TEXTSTYLE
  7
STANDARD
  9
$CLAYER
  8
0
  9
$CELTYPE
  6
CONTINUOUS
  9
$CECOLOR
 62
   256
  9
$DIMSCALE
 40
1.0
  9
$DIMASZ
 40
0.18
  9
$DIMEXO
 40
0.0625
  9
$DIMDLI
 40
0.38
  9
$DIMRND
 40
0.0
  9
$DIMDLE
 40
0.0
  9
$DIMEXE
 40
0.18
  9
$DIMTP
 40
0.0
  9
$DIMTM
 40
0.0
  9
$DIMTXT
 40
0.18
  9
$DIMCEN
 40
0.09
  9
$DIMTSZ
 40
0.0
  9
$DIMTOL
 70
     0
  9
$DIMLIM
 70
     0
  9
$DIMTIH
 70
     1
  9
$DIMTOH
 70
     1
  9
$DIMSE1
 70
     0
  9
$DIMSE2
 70
     0
  9
$DIMTAD
 70
     0
  9
$DIMZIN
 70
     0
  9
$DIMBLK
  1

  9
$DIMASO
 70
     1
  9
$DIMSHO
 70
     1
  9
$DIMPOST
  1

  9
$DIMAPOST
  1

  9
$DIMALT
 70
     0
  9
$DIMALTD
 70
     2
  9
$DIMALTF
 40
25.4
  9
$DIMLFAC
 40
1.0
  9
$DIMTOFL
 70
     0
  9
$DIMTVP
 40
0.0
  9
$DIMTIX
 70
     0
  9
$DIMSOXD
 70
     0
  9
$DIMSAH
 70
     0
  9
$DIMBLK1
  1

  9
$DIMBLK2
  1

  9
$DIMSTYLE
  2
STANDARD
  9
$DIMCLRD
 70
     0
  9
$DIMCLRE
 70
     0
  9
$DIMCLRT
 70
     0
  9
$DIMTFAC
 40
1.0
  9
$DIMGAP
 40
0.09
  9
$LUNITS
 70
     2
  9
$LUPREC
 70
     4
  9
$AXISMODE
 70
     0
  9
$AXISUNIT
 10
0.0
 20
0.0
  9
$SKETCHINC
 40
0.1
  9
$FILLETRAD
 40
0.0
  9
$AUNITS
 70
     0
  9
$AUPREC
 70
     0
  9
$MENU
  1
acad
  9
$ELEVATION
 40
0.0
  9
$PELEVATION
 40
0.0
  9
$THICKNESS
 40
0.0
  9
$LIMCHECK
 70
     0
  9
$BLIPMODE
 70
     1
  9
$CHAMFERA
 40
0.0
  9
$CHAMFERB
 40
0.0
  9
$SKPOLY
 70
     0
  9
$TDCREATE
 40
2451562.618090278
  9
$TDUPDATE
 40
2451562.618090278
  9
$TDINDWG
 40
0.0000000000
  9
$TDUSRTIMER
 40
0.0000000000
  9
$USRTIMER
 70
     1
  9
$ANGBASE
 50
0.0
  9
$ANGDIR
 70
     0
  9
$PDMODE
 70
     0
  9
$PDSIZE
 40
0.0
  9
$PLINEWID
 40
0.0
  9
$COORDS
 70
     0
  9
$SPLFRAME
 70
     0
  9
$SPLINETYPE
 70
     6
  9
$SPLINESEGS
 70
    10
  9
$ATTDIA
 70
     0
  9
$ATTREQ
 70
     1
  9
$HANDLING
 70
     1
  9
$HANDSEED
  5
876
  9
$SURFTAB1
 70
     6
  9
$SURFTAB2
 70
     6
  9
$SURFTYPE
 70
     6
  9
$SURFU
 70
     6
  9
$SURFV
 70
     6
  9
$UCSNAME
  2

  9
$UCSORG
 10
0.0
 20
0.0
 30
0.0
  9
$UCSXDIR
 10
1.0
 20
0.0
 30
0.0
  9
$UCSYDIR
 10
0.0
 20
1.0
 30
0.0
  9
$PUCSNAME
  2

  9
$PUCSORG
 10
0.0
 20
0.0
 30
0.0
  9
$PUCSXDIR
 10
1.0
 20
0.0
 30
0.0
  9
$PUCSYDIR
 10
0.0
 20
1.0
 30
0.0
  9
$USERI1
 70
     0
  9
$USERI2
 70
     0
  9
$USERI3
 70
     0
  9
$USERI4
 70
     0
  9
$USERI5
 70
     0
  9
$USERR1
 40
0.0
  9
$USERR2
 40
0.0
  9
$USERR3
 40
0.0
  9
$USERR4
 40
0.0
  9
$USERR5
 40
0.0
  9
$WORLDVIEW
 70
     1
  9
$SHADEDGE
 70
     3
  9
$SHADEDIF
 70
    70
  9
$TILEMODE
 70
     1
  9
$MAXACTVP
 70
    16
  9
$PINSBASE
 10
0.0
 20
0.0
 30
0.0
  9
$PLIMCHECK
 70
     0
  9
$PEXTMIN
 10
-1.000000E+20
 20
-1.000000E+20
 30
-1.000000E+20
  9
$PEXTMAX
 10
-1.000000E+20
 20
-1.000000E+20
 30
-1.000000E+20
  9
$PLIMMIN
 10
0.0
 20
0.0
  9
$PLIMMAX
 10
12.0
 20
9.0
  9
$UNITMODE
 70
     0
  9
$VISRETAIN
 70
     0
  9
$PLINEGEN
 70
     1
  9
$PSLTSCALE
 70
     0
  9
$TREEDEPTH
 70
  3020
  9
$DWGCODEPAGE
  3
ansi_1252
  0
ENDSEC
  0
SECTION
  2
TABLES
  0
TABLE
  2
VPORT
 70
     1
  0
VPORT
  2
*ACTIVE
 70
     0
 10
0.0
 20
0.0
 11
1.0
 21
1.0
 12
0.0
 22
0.0
 13
0.0
 23
0.0
 14
0.0
 24
0.0
 15
0.0
 25
0.0
 16
0.0
 26
0.0
 36
1.0
 17
232.496541
 27
-56.525
 37
0.0
 40
30.1568
 41
1.608456
 42
50.0
 43
59.655
 44
-59.655
 50
0.0
 51
0.0
 71
    22
 72
   100
 73
     1
 74
     0
 75
     0
 76
     0
 77
     0
 78
     0
  0
ENDTAB
  0
TABLE
  2
LTYPE
 70
     7
  0
LTYPE
  2
CONTINUOUS
 70
     0
  3
Solid line
 72
    65
 73
     0
 40
0.0
  0
LTYPE
  2
DOT
 70
    64
  3
. . . . . . . . . . . . . . . . . . . . . . . . . . . . . . . . .
 72
    65
 73
     2
 40
0.25
 49
0.0
 49
-0.25
  0
LTYPE
  2
HIDDEN
 70
    64
  3
__ __ __ __ __ __ __ __ __ __ __ __ __ __ __ __ __ __ __ __ __ 
 72
    65
 73
     2
 40
0.375
 49
0.25
 49
-0.125
  0
LTYPE
  2
DASHED
 70
    64
  3
__ __ __ __ __ __ __ __ __ __ __ __ __ __ __ __ __ __ __ __ __
 72
    65
 73
     2
 40
0.75
 49
0.5
 49
-0.25
  0
LTYPE
  2
DASHDOT
 70
    64
  3
__ . __ . __ . __ . __ . __ . __ . __ . __ . __ . __ . __ . _
 72
    65
 73
     4
 40
1.0
 49
0.5
 49
-0.25
 49
0.0
 49
-0.25
  0
LTYPE
  2
DIVIDE
 70
    64
  3
____ . . ____ . . ____ . . ____ . . ____ . . ____ . . ____ . .
 72
    65
 73
     6
 40
1.25
 49
0.5
 49
-0.25
 49
0.0
 49
-0.25
 49
0.0
 49
-0.25
  0
LTYPE
  2
CENTER
 70
    64
  3
____ _ ____ _ ____ _ ____ _ ____ _ ____ _ ____ _ ____ _ ____ _
 72
    65
 73
     4
 40
2.0
 49
1.25
 49
-0.25
 49
0.25
 49
-0.25
  0
ENDTAB
  0
TABLE
  2
LAYER
 70
    13
  0
LAYER
  2
0
 70
     0
 62
     7
  6
CONTINUOUS
  0
LAYER
  2
CONSTRUCTION_CLASS
 70
     0
 62
     7
  6
CONTINUOUS
  0
LAYER
  2
PATTERN_CLASS
 70
     0
 62
     7
  6
CONTINUOUS
  0
LAYER
  2
1
 70
    64
 62
     7
  6
CONTINUOUS
  0
LAYER
  2
3
 70
    64
 62
     7
  6
CONTINUOUS
  0
LAYER
  2
4
 70
    64
 62
     7
  6
CONTINUOUS
  0
LAYER
  2
6
 70
    64
 62
     7
  6
CONTINUOUS
  0
LAYER
  2
30
 70
    64
 62
     7
  6
CONTINUOUS
  0
LAYER
  2
59
 70
    64
 62
     7
  6
CONTINUOUS
  0
LAYER
  2
5
 70
    64
 62
     7
  6
CONTINUOUS
  0
LAYER
  2
DEFPOINTS
 70
    64
 62
     7
  6
CONTINUOUS
  0
LAYER
  2
62
 70
    64
 62
     7
  6
CONTINUOUS
  0
LAYER
  2
17
 70
    64
 62
     7
  6
CONTINUOUS
  0
ENDTAB
  0
TABLE
  2
STYLE
 70
     6
  0
STYLE
  2
STANDARD
 70
     0
 40
0.0
 41
1.0
 50
0.0
 71
     0
 42
0.0
  3
txt
  4

  0
STYLE
  2
ROMANS
 70
     0
 40
0.2
 41
1.0
 50
0.0
 71
     0
 42
0.2
  3
ROMANS
  4

  0
STYLE
  2
MONOTXT
 70
     0
 40
0.2
 41
1.0
 50
0.0
 71
     0
 42
0.2
  3
MONOTXT
  4

  0
STYLE
  2
ROMANT
 70
     0
 40
0.2
 41
1.0
 50
0.0
 71
     0
 42
0.2
  3
ROMANT
  4

  0
STYLE
  2
txt
 70
     0
 40
0.2
 41
1.0
 50
0.0
 71
     0
 42
0.2
  3
TXT
  4

  0
STYLE
  2
ITALICT
 70
     0
 40
0.2
 41
1.0
 50
0.0
 71
     0
 42
0.2
  3
ITALICT
  4

  0
ENDTAB
  0
TABLE
  2
VIEW
 70
     0
  0
ENDTAB
  0
TABLE
  2
UCS
 70
     0
  0
ENDTAB
  0
TABLE
  2
APPID
 70
     1
  0
APPID
  2
ACAD
 70
     0
  0
ENDTAB
  0
TABLE
  2
DIMSTYLE
 70
     2
  0
DIMSTYLE
  2
STANDARD
 70
     0
  3

  4

  5

  6

  7

 40
1.0
 41
0.18
 42
0.0625
 43
0.38
 44
0.18
 45
0.0
 46
0.0
 47
0.0
 48
0.0
140
0.18
141
0.09
142
0.0
143
25.4
144
1.0
145
0.0
146
1.0
147
0.09
 71
     0
 72
     0
 73
     1
 74
     1
 75
     0
 76
     0
 77
     0
 78
     0
170
     0
171
     2
172
     0
173
     0
174
     0
175
     0
176
     0
177
     0
178
     0
  0
DIMSTYLE
  2
MSADIM
 70
     0
  3

  4

  5

  6

  7

 40
1.0
 41
0.1
 42
0.05
 43
0.0
 44
0.05
 45
0.0
 46
0.0
 47
0.0
 48
0.0
140
0.1
141
0.0375
142
0.0
143
39.370079
144
1000.0
145
0.05
146
1.0
147
0.05
 71
     0
 72
     0
 73
     1
 74
     1
 75
     1
 76
     1
 77
     0
 78
     0
170
     0
171
     2
172
     0
173
     1
174
     0
175
     0
176
     0
177
     0
178
     0
  0
ENDTAB
  0
ENDSEC
  0
SECTION
  2
BLOCKS
  0
BLOCK
  8
1
  6
CONTINUOUS
 62
   140
  5
65
  2
TRANS
 70
     0
 10
0.0
 20
0.0
 30
0.0
  3
TRANS
  0
TEXT
  8
1
  6
CONTINUOUS
 62
   140
  5
66
 10
39.1107
 20
-25.184
 30
0.0
 40
0.072
  1
$$$$$$$$$FILENAME$$$$$$$$
 50
90.0
  7
txt
 11
39.0747
 21
-25.184
 31
0.0
210
0.0
220
0.0
230
1.0
 73
     2
  0
TEXT
  8
1
  6
CONTINUOUS
 62
   140
  5
67
 10
39.1107
 20
-23.1151
 30
0.0
 40
0.072
  1
$USERNAME$
 50
90.0
  7
txt
 11
39.0747
 21
-23.1151
 31
0.0
210
0.0
220
0.0
230
1.0
 73
     2
  0
TEXT
  8
1
  6
CONTINUOUS
 62
   140
  5
68
 10
39.1107
 20
-22.1868
 30
0.0
 40
0.072
  1
DD-MMM-YYYY HH:MM
 50
90.0
  7
txt
 11
39.0747
 21
-22.1868
 31
0.0
210
0.0
220
0.0
230
1.0
 73
     2
  0
POINT
  8
1
  6
CONTINUOUS
 62
     7
  5
69
 10
39.55
 20
1.6914
 30
0.0
  0
POINT
  8
1
  6
CONTINUOUS
 62
     7
  5
6A
 10
-2.1665
 20
-26.8913
 30
0.0
  0
POINT
  8
1
  6
CONTINUOUS
 62
     2
  5
6B
 10
-0.8485
 20
0.0142
 30
0.0
  0
POINT
  8
1
  6
CONTINUOUS
 62
     2
  5
6C
 10
39.12
 20
-25.2142
 30
0.0
  0
POINT
  8
1
  6
CONTINUOUS
 62
   110
  5
6D
 10
39.36
 20
0.369
 30
0.0
  0
POINT
  8
1
  6
CONTINUOUS
 62
   110
  5
6E
 10
-1.056
 20
-25.56
 30
0.0
  0
ENDBLK
  8
1
  6
CONTINUOUS
 62
   110
  5
6F
  0
BLOCK
  8
5
  6
CONTINUOUS
 62
     7
  5
9A
  2
*D1
 70
     1
 10
0.0
 20
0.0
 30
0.0
  3
*N1
  0
POLYLINE
  8
5
  6
CONTINUOUS
 62
   110
  5
9B
 66
     1
 10
0.0
 20
0.0
 30
0.0
210
0.0
220
0.0
230
1.0
  0
VERTEX
  8
5
  6
CONTINUOUS
 62
   110
  5
9C
 10
-0.0902
 20
-0.047
 30
0.0
  0
VERTEX
  8
5
  6
CONTINUOUS
 62
   110
  5
9D
 10
0.0
 20
0.0
 30
0.0
  0
VERTEX
  8
5
  6
CONTINUOUS
 62
   110
  5
9E
 10
-0.0671
 20
-0.0765
 30
0.0
  0
SEQEND
  8
5
  6
CONTINUOUS
 62
   110
  5
9F
  0
LINE
  8
5
  6
CONTINUOUS
 62
     7
  5
A0
 10
0.0
 20
0.0
 30
0.0
 11
-1.8004
 21
-1.4125
 31
0.0
  0
ENDBLK
  8
5
  6
CONTINUOUS
 62
     7
  5
A1
  0
BLOCK
  8
5
  6
CONTINUOUS
 62
     7
  5
E1
  2
*D2
 70
     1
 10
0.0
 20
0.0
 30
0.0
  3
*N2
  0
POLYLINE
  8
5
  6
CONTINUOUS
 62
   110
  5
E2
 66
     1
 10
0.0
 20
0.0
 30
0.0
210
0.0
220
0.0
230
1.0
  0
VERTEX
  8
5
  6
CONTINUOUS
 62
   110
  5
E3
 10
-0.0903
 20
-0.047
 30
0.0
  0
VERTEX
  8
5
  6
CONTINUOUS
 62
   110
  5
E4
 10
0.0
 20
0.0
 30
0.0
  0
VERTEX
  8
5
  6
CONTINUOUS
 62
   110
  5
E5
 10
-0.0671
 20
-0.0765
 30
0.0
  0
SEQEND
  8
5
  6
CONTINUOUS
 62
   110
  5
E6
  0
LINE
  8
5
  6
CONTINUOUS
 62
     7
  5
E7
 10
0.0
 20
0.0
 30
0.0
 11
-1.8005
 21
-1.4125
 31
0.0
  0
ENDBLK
  8
5
  6
CONTINUOUS
 62
     7
  5
E8
  0
BLOCK
  8
1
  6
CONTINUOUS
 62
     7
  5
24E
  2
ARROW2
 70
     0
 10
0.0
 20
0.0
 30
0.0
  3
ARROW2
  0
SOLID
  8
1
  6
CONTINUOUS
 62
     7
  5
24F
 10
0.0
 20
0.0
 30
0.0
 11
-0.1797
 21
0.0302
 31
0.0
 12
-0.1797
 22
-0.03
 32
0.0
 13
-0.1441
 23
0.0
 33
0.0
210
0.0
220
0.0
230
1.0
  0
ENDBLK
  8
1
  6
CONTINUOUS
 62
     7
  5
250
  0
BLOCK
  8
5
  6
CONTINUOUS
 62
     7
  5
5EA
  2
*D4
 70
     1
 10
0.0
 20
0.0
 30
0.0
  3
*N4
  0
POLYLINE
  8
5
  6
CONTINUOUS
 62
   110
  5
5EB
 66
     1
 10
0.0
 20
0.0
 30
0.0
210
0.0
220
0.0
230
1.0
  0
VERTEX
  8
5
  6
CONTINUOUS
 62
   110
  5
5EC
 10
0.0671
 20
-0.0765
 30
0.0
  0
VERTEX
  8
5
  6
CONTINUOUS
 62
   110
  5
5ED
 10
0.0
 20
0.0
 30
0.0
  0
VERTEX
  8
5
  6
CONTINUOUS
 62
   110
  5
5EE
 10
0.0903
 20
-0.047
 30
0.0
  0
SEQEND
  8
5
  6
CONTINUOUS
 62
   110
  5
5EF
  0
LINE
  8
5
  6
CONTINUOUS
 62
     7
  5
5F0
 10
0.0
 20
0.0
 30
0.0
 11
1.8005
 21
-1.4125
 31
0.0
  0
ENDBLK
  8
5
  6
CONTINUOUS
 62
     7
  5
5F1
  0
ENDSEC
  0
SECTION
  2
ENTITIES
  0
POINT
  8
1
  6
DASHED
 62
     2
  5
29
 10
254.7901
 20
-69.6748
 30
0.0
  0
POINT
  8
1
  6
DASHED
 62
     2
  5
2A
 10
254.7901
 20
-69.6748
 30
0.0
  0
POINT
  8
1
  6
DASHED
 62
     2
  5
2B
 10
254.7901
 20
-69.6748
 30
0.0
  0
POINT
  8
1
  6
DASHED
 62
     2
  5
2C
 10
254.7901
 20
-69.6748
 30
0.0
  0
POINT
  8
1
  6
DASHED
 62
     2
  5
2D
 10
254.7901
 20
-69.6748
 30
0.0
  0
TEXT
  8
3
  6
CONTINUOUS
 62
     2
  5
30
 10
249.2142
 20
-57.7274
 30
0.0
 40
0.33
  1
NOTES
  7
ROMANS
 72
     4
 11
249.9779
 21
-57.5624
 31
0.0
210
0.0
220
0.0
230
1.0
  0
POINT
  8
1
  6
DASHED
 62
     2
  5
31
 10
254.7901
 20
-69.6748
 30
0.0
  0
LINE
  8
1
  6
CONTINUOUS
 62
   140
  5
32
 10
215.5345
 20
-44.3548
 30
0.0
 11
215.5345
 21
-69.5548
 31
0.0
  0
LINE
  8
1
  6
CONTINUOUS
 62
   140
  5
33
 10
254.5345
 20
-44.3548
 30
0.0
 11
215.5345
 21
-44.3548
 31
0.0
  0
LINE
  8
1
  6
CONTINUOUS
 62
   140
  5
34
 10
254.5345
 20
-44.3548
 30
0.0
 11
254.5345
 21
-69.5548
 31
0.0
  0
LINE
  8
1
  6
CONTINUOUS
 62
   140
  5
35
 10
254.5345
 20
-69.5548
 30
0.0
 11
215.5345
 21
-69.5548
 31
0.0
  0
LINE
  8
1
  6
CONTINUOUS
 62
   140
  5
36
 10
215.2345
 20
-49.0348
 30
0.0
 11
214.7545
 21
-49.0348
 31
0.0
  0
LINE
  8
1
  6
CONTINUOUS
 62
   140
  5
37
 10
215.2345
 20
-52.3948
 30
0.0
 11
214.7545
 21
-52.3948
 31
0.0
  0
LINE
  8
1
  6
CONTINUOUS
 62
   140
  5
38
 10
215.2345
 20
-61.5148
 30
0.0
 11
214.7545
 21
-61.5148
 31
0.0
  0
LINE
  8
1
  6
CONTINUOUS
 62
   140
  5
39
 10
215.2345
 20
-64.8748
 30
0.0
 11
214.7545
 21
-64.8748
 31
0.0
  0
CIRCLE
  8
1
  6
CONTINUOUS
 62
   140
  5
3A
 10
214.9345
 20
-49.0348
 30
0.0
 40
0.15
210
0.0
220
0.0
230
1.0
  0
CIRCLE
  8
1
  6
CONTINUOUS
 62
   140
  5
3B
 10
214.9345
 20
-52.3948
 30
0.0
 40
0.15
210
0.0
220
0.0
230
1.0
  0
CIRCLE
  8
1
  6
CONTINUOUS
 62
   140
  5
3C
 10
214.9345
 20
-61.5148
 30
0.0
 40
0.15
210
0.0
220
0.0
230
1.0
  0
CIRCLE
  8
1
  6
CONTINUOUS
 62
   140
  5
3D
 10
214.9345
 20
-64.8748
 30
0.0
 40
0.15
210
0.0
220
0.0
230
1.0
  0
POINT
  8
1
  6
CONTINUOUS
 62
   140
  5
3E
 10
215.5345
 20
-69.5548
 30
0.0
  0
POINT
  8
1
  6
CONTINUOUS
 62
   140
  5
3F
 10
215.5345
 20
-44.3548
 30
0.0
  0
POINT
  8
1
  6
CONTINUOUS
 62
   140
  5
40
 10
254.5345
 20
-44.3548
 30
0.0
  0
POINT
  8
1
  6
CONTINUOUS
 62
   140
  5
41
 10
254.5345
 20
-69.5548
 30
0.0
  0
LINE
  8
1
  6
CONTINUOUS
 62
   140
  5
42
 10
254.5345
 20
-69.5548
 30
0.0
 11
254.5345
 21
-66.556
 31
0.0
  0
LINE
  8
1
  6
CONTINUOUS
 62
   140
  5
43
 10
254.5345
 20
-65.367
 30
0.0
 11
247.3345
 21
-65.367
 31
0.0
  0
LINE
  8
1
  6
CONTINUOUS
 62
   140
  5
44
 10
254.5345
 20
-69.5548
 30
0.0
 11
247.3345
 21
-69.5548
 31
0.0
  0
LINE
  8
1
  6
CONTINUOUS
 62
   140
  5
45
 10
249.18
 20
-67.276
 30
0.0
 11
247.3345
 21
-67.276
 31
0.0
  0
LINE
  8
1
  6
CONTINUOUS
 62
   140
  5
46
 10
249.18
 20
-67.5148
 30
0.0
 11
247.3345
 21
-67.5148
 31
0.0
  0
LINE
  8
1
  6
CONTINUOUS
 62
   140
  5
47
 10
249.18
 20
-67.7536
 30
0.0
 11
247.3345
 21
-67.7536
 31
0.0
  0
LINE
  8
1
  6
CONTINUOUS
 62
   140
  5
48
 10
249.18
 20
-67.9924
 30
0.0
 11
247.3345
 21
-67.9924
 31
0.0
  0
LINE
  8
1
  6
CONTINUOUS
 62
   140
  5
49
 10
249.18
 20
-68.2312
 30
0.0
 11
247.3345
 21
-68.2312
 31
0.0
  0
LINE
  8
1
  6
CONTINUOUS
 62
   140
  5
4A
 10
249.18
 20
-68.47
 30
0.0
 11
247.3345
 21
-68.47
 31
0.0
  0
LINE
  8
1
  6
CONTINUOUS
 62
   140
  5
4B
 10
249.18
 20
-68.7088
 30
0.0
 11
247.3345
 21
-68.7088
 31
0.0
  0
LINE
  8
1
  6
CONTINUOUS
 62
   140
  5
4C
 10
249.18
 20
-68.9476
 30
0.0
 11
247.3345
 21
-68.9476
 31
0.0
  0
LINE
  8
1
  6
CONTINUOUS
 62
   140
  5
4D
 10
249.18
 20
-69.1864
 30
0.0
 11
247.3345
 21
-69.1864
 31
0.0
  0
TEXT
  8
1
  6
CONTINUOUS
 62
   140
  5
4F
 10
247.703
 20
-67.2192
 30
0.0
 40
0.0948
  1
REVISION DATE
 41
1.003165
  7
MONOTXT
210
0.0
220
0.0
230
1.0
  0
LINE
  8
1
  6
CONTINUOUS
 62
   140
  5
50
 10
247.3345
 20
-67.8628
 30
0.0
 11
247.3345
 21
-69.5548
 31
0.0
  0
TEXT
  8
1
  6
CONTINUOUS
 62
   140
  5
52
 10
247.7068
 20
-65.7087
 30
0.0
 40
0.22
  1
WEST VIRGINIA DEPARTMENT OF TRANSPORTATION
  7
ROMANT
 72
     4
 11
250.9574
 21
-65.5987
 31
0.0
210
0.0
220
0.0
230
1.0
  0
TEXT
  8
1
  6
CONTINUOUS
 62
   140
  5
53
 10
249.6494
 20
-65.9594
 30
0.0
 40
0.22
  1
DIVISION OF HIGHWAYS
  7
ROMANT
 72
     4
 11
251.0802
 21
-65.8494
 31
0.0
210
0.0
220
0.0
230
1.0
  0
LINE
  8
1
  6
CONTINUOUS
 62
   140
  5
54
 10
249.18
 20
-67.036
 30
0.0
 11
247.3345
 21
-67.036
 31
0.0
  0
LINE
  8
1
  6
CONTINUOUS
 62
   140
  5
55
 10
249.18
 20
-69.5548
 30
0.0
 11
249.18
 21
-67.036
 31
0.0
  0
LINE
  8
1
  6
CONTINUOUS
 62
   140
  5
56
 10
247.3345
 20
-69.5548
 30
0.0
 11
247.3345
 21
-65.367
 31
0.0
  0
TEXT
  8
1
  6
CONTINUOUS
 62
     2
  5
57
 10
247.3766
 20
-68.1875
 30
0.0
 40
0.1
  1
                  
  7
ROMANS
 72
     4
 11
248.2599
 21
-68.1375
 31
0.0
210
0.0
220
0.0
230
1.0
  0
TEXT
  8
1
  6
CONTINUOUS
 62
     2
  5
58
 10
247.3766
 20
-68.4263
 30
0.0
 40
0.1
  1
                  
  7
ROMANS
 72
     4
 11
248.2599
 21
-68.3763
 31
0.0
210
0.0
220
0.0
230
1.0
  0
TEXT
  8
1
  6
CONTINUOUS
 62
     2
  5
59
 10
247.3766
 20
-68.6651
 30
0.0
 40
0.1
  1
                  
  7
ROMANS
 72
     4
 11
248.2599
 21
-68.6151
 31
0.0
210
0.0
220
0.0
230
1.0
  0
TEXT
  8
1
  6
CONTINUOUS
 62
     2
  5
5A
 10
247.3766
 20
-68.9039
 30
0.0
 40
0.1
  1
                  
  7
ROMANS
 72
     4
 11
248.2599
 21
-68.8539
 31
0.0
210
0.0
220
0.0
230
1.0
  0
TEXT
  8
1
  6
CONTINUOUS
 62
     2
  5
5B
 10
247.3766
 20
-69.1427
 30
0.0
 40
0.1
  1
                  
  7
ROMANS
 72
     4
 11
248.2599
 21
-69.0927
 31
0.0
210
0.0
220
0.0
230
1.0
  0
TEXT
  8
1
  6
CONTINUOUS
 62
     2
  5
5C
 10
247.3747
 20
-69.3877
 30
0.0
 40
0.1
  1
                  
  7
ROMANS
 72
     4
 11
248.258
 21
-69.3377
 31
0.0
210
0.0
220
0.0
230
1.0
  0
POINT
  8
1
  6
DASHED
 62
     2
  5
5D
 10
254.7901
 20
-69.6748
 30
0.0
  0
TEXT
  8
1
  6
CONTINUOUS
 62
   140
  5
5E
 10
215.5921
 20
-69.7
 30
0.0
 40
0.072
  1
P5A1G92-STDBOR a
  7
MONOTXT
210
0.0
220
0.0
230
1.0
  0
LINE
  8
1
  6
CONTINUOUS
 62
   140
  5
5F
 10
254.5345
 20
-44.3548
 30
0.0
 11
254.5345
 21
-69.5548
 31
0.0
  0
TEXT
  8
1
  6
CONTINUOUS
 62
   140
  5
61
 10
250.2814
 20
-69.6649
 30
0.0
 40
0.072
  1
$$$$$$$$$GR9M2$$$$$$$$
  7
txt
 11
250.2814
 21
-69.6289
 31
0.0
210
0.0
220
0.0
230
1.0
 73
     2
  0
TEXT
  8
1
  6
CONTINUOUS
 62
   140
  5
62
 10
253.2786
 20
-69.6649
 30
0.0
 40
0.072
  1
01-11-1995
  7
txt
 11
253.2786
 21
-69.6289
 31
0.0
210
0.0
220
0.0
230
1.0
 73
     2
  0
TEXT
  8
1
  6
CONTINUOUS
 62
   140
  5
63
 10
252.3503
 20
-69.6649
 30
0.0
 40
0.072
  1
$JMK 5/9/96$
  7
txt
 11
252.3503
 21
-69.6289
 31
0.0
210
0.0
220
0.0
230
1.0
 73
     2
  0
INSERT
  8
1
  6
CONTINUOUS
 62
   140
  5
70
  2
TRANS
 10
215.5345
 20
-44.3548
 30
0.0
210
0.0
220
0.0
230
1.0
  0
TEXT
  8
1
  6
CONTINUOUS
 62
     2
  5
71
 10
250.7354
 20
-68.7434
 30
0.0
 40
0.25
  1
(Sheet 3 of 4)
  7
txt
 72
     4
 11
252.4302
 21
-68.6184
 31
0.0
210
0.0
220
0.0
230
1.0
  0
LINE
  8
1
  6
CONTINUOUS
 62
   110
  5
72
 10
227.7385
 20
-66.3534
 30
0.0
 11
220.9447
 21
-66.3534
 31
0.0
  0
LINE
  8
1
  6
CONTINUOUS
 62
   110
  5
73
 10
222.0265
 20
-66.1749
 30
0.0
 11
220.9388
 21
-66.1749
 31
0.0
  0
LINE
  8
1
  6
CONTINUOUS
 62
   110
  5
74
 10
225.5965
 20
-64.4256
 30
0.0
 11
220.9788
 21
-64.4256
 31
0.0
  0
LINE
  8
1
  6
CONTINUOUS
 62
   110
  5
75
 10
227.3358
 20
-64.4256
 30
0.0
 11
225.5965
 21
-64.4256
 31
0.0
  0
CIRCLE
  8
4
  6
CONTINUOUS
 62
   110
  5
77
 10
226.072349
 20
-64.997203
 30
-0.000019
 40
0.040646
210
0.0
220
0.0
230
1.0
  0
LINE
  8
6
  6
CONTINUOUS
 62
     2
  5
79
 10
221.0108
 20
-63.4095
 30
0.0
 11
220.9788
 21
-64.8856
 31
0.0
  0
LINE
  8
6
  6
CONTINUOUS
 62
     2
  5
7A
 10
220.9788
 20
-64.8856
 30
0.0
 11
220.7189
 21
-64.6629
 31
0.0
  0
LINE
  8
6
  6
CONTINUOUS
 62
     2
  5
7B
 10
220.7189
 20
-64.6629
 30
0.0
 11
221.0716
 21
-65.1455
 31
0.0
  0
LINE
  8
6
  6
CONTINUOUS
 62
     2
  5
7C
 10
221.0716
 20
-65.1455
 30
0.0
 11
220.9416
 21
-65.0527
 31
0.0
  0
LINE
  8
6
  6
CONTINUOUS
 62
     2
  5
7D
 10
220.9416
 20
-65.0527
 30
0.0
 11
220.9602
 21
-65.8507
 31
0.0
  0
LINE
  8
6
  6
CONTINUOUS
 62
     2
  5
7E
 10
220.9602
 20
-65.8507
 30
0.0
 11
220.756
 21
-65.7208
 31
0.0
  0
LINE
  8
6
  6
CONTINUOUS
 62
     2
  5
7F
 10
220.756
 20
-65.7208
 30
0.0
 11
221.053
 21
-65.9807
 31
0.0
  0
LINE
  8
6
  6
CONTINUOUS
 62
     2
  5
80
 10
221.053
 20
-65.9807
 30
0.0
 11
220.9231
 21
-65.9435
 31
0.0
  0
LINE
  8
6
  6
CONTINUOUS
 62
     2
  5
81
 10
220.9231
 20
-65.9435
 30
0.0
 11
220.9687
 21
-66.7185
 31
0.0
  0
LINE
  8
1
  6
CONTINUOUS
 62
   110
  5
82
 10
227.7385
 20
-66.3534
 30
0.0
 11
227.7385
 21
-64.5389
 31
0.0
  0
LINE
  8
1
  6
CONTINUOUS
 62
   110
  5
83
 10
225.5965
 20
-66.3534
 30
0.0
 11
225.5965
 21
-64.4256
 31
0.0
  0
LINE
  8
1
  6
CONTINUOUS
 62
   110
  5
84
 10
222.0265
 20
-66.3534
 30
0.0
 11
222.0265
 21
-65.568
 31
0.0
  0
CIRCLE
  8
4
  6
CONTINUOUS
 62
   110
  5
85
 10
226.457909
 20
-64.812134
 30
-0.000019
 40
0.040646
210
0.0
220
0.0
230
1.0
  0
CIRCLE
  8
4
  6
CONTINUOUS
 62
   110
  5
86
 10
226.072349
 20
-64.62321
 30
-0.000019
 40
0.040646
210
0.0
220
0.0
230
1.0
  0
LINE
  8
1
  6
CONTINUOUS
 62
   110
  5
87
 10
225.5965
 20
-65.568
 30
0.0
 11
220.9602
 21
-65.568
 31
0.0
  0
CIRCLE
  8
4
  6
CONTINUOUS
 62
   110
  5
88
 10
226.072349
 20
-65.37104
 30
-0.000019
 40
0.040646
210
0.0
220
0.0
230
1.0
  0
CIRCLE
  8
4
  6
CONTINUOUS
 62
   110
  5
89
 10
226.457909
 20
-65.182115
 30
-0.000019
 40
0.040646
210
0.0
220
0.0
230
1.0
  0
TEXT
  8
30
  6
CONTINUOUS
 62
     2
  5
8B
 10
223.4845
 20
-67.7944
 30
0.0
 40
0.2719
  1
ELEVATION
  7
txt
210
0.0
220
0.0
230
1.0
  0
LINE
  8
3
  6
CONTINUOUS
 62
     2
  5
8C
 10
226.4581
 20
-64.5344
 30
0.0
 11
226.4581
 21
-65.4598
 31
0.0
  0
LINE
  8
3
  6
CONTINUOUS
 62
     2
  5
8D
 10
226.0725
 20
-64.4616
 30
0.0
 11
226.0725
 21
-65.5772
 31
0.0
  0
LINE
  8
3
  6
CONTINUOUS
 62
     2
  5
8E
 10
226.3746
 20
-64.6231
 30
0.0
 11
225.7702
 21
-64.6231
 31
0.0
  0
LINE
  8
3
  6
CONTINUOUS
 62
     2
  5
8F
 10
225.7702
 20
-64.9971
 30
0.0
 11
226.3746
 21
-64.9971
 31
0.0
  0
LINE
  8
3
  6
CONTINUOUS
 62
     2
  5
90
 10
225.7702
 20
-65.3711
 30
0.0
 11
226.3746
 21
-65.3711
 31
0.0
  0
LINE
  8
3
  6
CONTINUOUS
 62
     2
  5
91
 10
226.1558
 20
-64.8121
 30
0.0
 11
226.7602
 21
-64.8121
 31
0.0
  0
LINE
  8
3
  6
CONTINUOUS
 62
     2
  5
92
 10
226.1558
 20
-65.1822
 30
0.0
 11
226.7602
 21
-65.1822
 31
0.0
  0
TEXT
  8
59
  6
CONTINUOUS
 62
   110
  5
95
 10
229.3734
 20
-65.0191
 30
0.0
 40
0.1562
  1
C
  7
ITALICT
 11
229.3734
 21
-64.941
 31
0.0
210
0.0
220
0.0
230
1.0
 73
     2
  0
INSERT
  8
5
  6
CONTINUOUS
 62
     7
  5
A2
  2
*D1
 10
226.0498
 20
-65.6049
 30
0.0
 70
     0
 71
     0
  0
LINE
  8
1
  6
CONTINUOUS
 62
   110
  5
A3
 10
227.7385
 20
-46.705
 30
0.0
 11
227.7385
 21
-47.0382
 31
0.0
  0
LINE
  8
1
  6
CONTINUOUS
 62
   110
  5
A4
 10
222.0265
 20
-47.1572
 30
0.0
 11
222.0265
 21
-47.3813
 31
0.0
  0
LINE
  8
1
  6
CONTINUOUS
 62
   110
  5
A5
 10
222.0265
 20
-47.3813
 30
0.0
 11
220.9388
 21
-47.3813
 31
0.0
  0
LINE
  8
1
  6
DOT
 62
   110
  5
A6
 10
226.1234
 20
-46.705
 30
0.0
 11
226.1234
 21
-47.0382
 31
0.0
  0
TEXT
  8
30
  6
CONTINUOUS
 62
     2
  5
A7
 10
223.8174
 20
-49.1024
 30
0.0
 40
0.2719
  1
PLAN
  7
txt
210
0.0
220
0.0
230
1.0
  0
POLYLINE
  8
6
  6
CONTINUOUS
 62
     2
  5
A8
 66
     1
 10
0.0
 20
0.0
 30
-0.0001
210
0.0
220
0.0
230
1.0
  0
VERTEX
  8
6
  6
CONTINUOUS
 62
     2
  5
A9
 10
220.934
 20
-46.0725
 30
-0.0001
  0
VERTEX
  8
6
  6
CONTINUOUS
 62
     2
  5
AA
 10
220.934
 20
-46.8045
 30
-0.0001
  0
VERTEX
  8
6
  6
CONTINUOUS
 62
     2
  5
AB
 10
220.6541
 20
-46.8731
 30
-0.0001
  0
VERTEX
  8
6
  6
CONTINUOUS
 62
     2
  5
AC
 10
221.1423
 20
-46.9055
 30
-0.0001
  0
VERTEX
  8
6
  6
CONTINUOUS
 62
     2
  5
AD
 10
220.934
 20
-46.9519
 30
-0.0001
  0
SEQEND
  8
6
  6
CONTINUOUS
 62
     2
  5
AE
  0
LINE
  8
6
  6
CONTINUOUS
 62
     2
  5
AF
 10
220.9388
 20
-47.9291
 30
0.0
 11
220.9388
 21
-46.8212
 31
0.0
  0
LINE
  8
1
  6
CONTINUOUS
 62
   110
  5
B0
 10
225.5965
 20
-47.1572
 30
0.0
 11
220.9388
 21
-47.1572
 31
0.0
  0
LINE
  8
1
  6
CONTINUOUS
 62
   110
  5
B1
 10
227.7385
 20
-47.0382
 30
0.0
 11
220.9388
 21
-47.0382
 31
0.0
  0
LINE
  8
1
  6
CONTINUOUS
 62
   110
  5
B2
 10
227.3404
 20
-46.705
 30
0.0
 11
227.3404
 21
-47.0382
 31
0.0
  0
LINE
  8
1
  6
DOT
 62
   110
  5
B3
 10
226.0216
 20
-46.705
 30
0.0
 11
226.0216
 21
-47.0382
 31
0.0
  0
LINE
  8
1
  6
DOT
 62
   110
  5
B4
 10
226.4976
 20
-46.705
 30
0.0
 11
226.4976
 21
-47.0382
 31
0.0
  0
LINE
  8
1
  6
DOT
 62
   110
  5
B5
 10
226.5994
 20
-46.705
 30
0.0
 11
226.5994
 21
-47.0382
 31
0.0
  0
LINE
  8
1
  6
CONTINUOUS
 62
   110
  5
B6
 10
222.0265
 20
-46.586
 30
0.0
 11
222.0265
 21
-46.3619
 31
0.0
  0
LINE
  8
1
  6
CONTINUOUS
 62
   110
  5
B7
 10
222.0265
 20
-46.3619
 30
0.0
 11
220.9388
 21
-46.3619
 31
0.0
  0
LINE
  8
1
  6
CONTINUOUS
 62
   110
  5
B8
 10
225.5965
 20
-47.1572
 30
0.0
 11
225.5965
 21
-46.586
 31
0.0
  0
LINE
  8
1
  6
CONTINUOUS
 62
   110
  5
B9
 10
225.5965
 20
-46.586
 30
0.0
 11
220.9388
 21
-46.586
 31
0.0
  0
LINE
  8
1
  6
CONTINUOUS
 62
   110
  5
BA
 10
227.7385
 20
-46.705
 30
0.0
 11
220.934
 21
-46.705
 31
0.0
  0
LINE
  8
3
  6
CONTINUOUS
 62
     2
  5
BB
 10
226.5485
 20
-46.8716
 30
0.0
 11
226.5485
 21
-46.4099
 31
0.0
  0
LINE
  8
3
  6
CONTINUOUS
 62
     2
  5
BC
 10
226.0725
 20
-46.8716
 30
0.0
 11
226.0725
 21
-46.4099
 31
0.0
  0
LINE
  8
3
  6
CONTINUOUS
 62
     2
  5
BD
 10
226.5485
 20
-46.8716
 30
0.0
 11
226.5485
 21
-47.3258
 31
0.0
  0
LINE
  8
3
  6
CONTINUOUS
 62
     2
  5
BE
 10
226.0725
 20
-46.8716
 30
0.0
 11
226.0725
 21
-47.3258
 31
0.0
  0
LINE
  8
1
  6
CONTINUOUS
 62
   110
  5
BF
 10
225.5965
 20
-53.2017
 30
0.0
 11
220.9602
 21
-53.2017
 31
0.0
  0
LINE
  8
1
  6
CONTINUOUS
 62
   110
  5
C0
 10
222.0265
 20
-53.0232
 30
0.0
 11
220.9388
 21
-53.0232
 31
0.0
  0
LINE
  8
1
  6
CONTINUOUS
 62
   110
  5
C1
 10
225.5965
 20
-51.2739
 30
0.0
 11
220.9974
 21
-51.2739
 31
0.0
  0
LINE
  8
1
  6
CONTINUOUS
 62
   110
  5
C2
 10
227.3404
 20
-51.2739
 30
0.0
 11
225.5965
 21
-51.2739
 31
0.0
  0
CIRCLE
  8
4
  6
CONTINUOUS
 62
   110
  5
C3
 10
226.072463
 20
-51.845505
 30
-0.000019
 40
0.040646
210
0.0
220
0.0
230
1.0
  0
LINE
  8
6
  6
CONTINUOUS
 62
     2
  5
C4
 10
221.0108
 20
-50.2631
 30
0.0
 11
220.9788
 21
-51.734
 31
0.0
  0
LINE
  8
6
  6
CONTINUOUS
 62
     2
  5
C5
 10
220.9788
 20
-51.734
 30
0.0
 11
220.7189
 21
-51.5112
 31
0.0
  0
LINE
  8
6
  6
CONTINUOUS
 62
     2
  5
C6
 10
220.7189
 20
-51.5112
 30
0.0
 11
221.0716
 21
-51.9939
 31
0.0
  0
LINE
  8
6
  6
CONTINUOUS
 62
     2
  5
C7
 10
221.0716
 20
-51.9939
 30
0.0
 11
220.9417
 21
-51.901
 31
0.0
  0
LINE
  8
6
  6
CONTINUOUS
 62
     2
  5
C8
 10
220.9417
 20
-51.901
 30
0.0
 11
220.9602
 21
-52.6991
 31
0.0
  0
LINE
  8
6
  6
CONTINUOUS
 62
     2
  5
C9
 10
220.9602
 20
-52.6991
 30
0.0
 11
220.756
 21
-52.5691
 31
0.0
  0
LINE
  8
6
  6
CONTINUOUS
 62
     2
  5
CA
 10
220.756
 20
-52.5691
 30
0.0
 11
221.0531
 21
-52.829
 31
0.0
  0
LINE
  8
6
  6
CONTINUOUS
 62
     2
  5
CB
 10
221.0531
 20
-52.829
 30
0.0
 11
220.9231
 21
-52.7919
 31
0.0
  0
LINE
  8
6
  6
CONTINUOUS
 62
     2
  5
CC
 10
220.9231
 20
-52.7919
 30
0.0
 11
220.9602
 21
-53.423
 31
0.0
  0
LINE
  8
1
  6
CONTINUOUS
 62
   110
  5
CD
 10
227.7385
 20
-53.2017
 30
0.0
 11
227.7385
 21
-51.3929
 31
0.0
  0
LINE
  8
1
  6
CONTINUOUS
 62
   110
  5
CE
 10
225.5965
 20
-53.2017
 30
0.0
 11
225.5965
 21
-51.2739
 31
0.0
  0
LINE
  8
1
  6
CONTINUOUS
 62
   110
  5
CF
 10
222.0265
 20
-53.2017
 30
0.0
 11
222.0265
 21
-52.4163
 31
0.0
  0
POINT
  8
62
  6
CONTINUOUS
 62
   110
  5
D1
 10
225.0553
 20
-51.5797
 30
0.0
  0
CIRCLE
  8
4
  6
CONTINUOUS
 62
   110
  5
D2
 10
226.458023
 20
-51.660436
 30
-0.000019
 40
0.040646
210
0.0
220
0.0
230
1.0
  0
CIRCLE
  8
4
  6
CONTINUOUS
 62
   110
  5
D3
 10
226.072463
 20
-51.471512
 30
-0.000019
 40
0.040646
210
0.0
220
0.0
230
1.0
  0
LINE
  8
1
  6
CONTINUOUS
 62
   110
  5
D4
 10
225.5965
 20
-52.4163
 30
0.0
 11
220.9602
 21
-52.4163
 31
0.0
  0
CIRCLE
  8
4
  6
CONTINUOUS
 62
   110
  5
D5
 10
226.072463
 20
-52.219341
 30
-0.000019
 40
0.040646
210
0.0
220
0.0
230
1.0
  0
CIRCLE
  8
4
  6
CONTINUOUS
 62
   110
  5
D6
 10
226.458023
 20
-52.030417
 30
-0.000019
 40
0.040646
210
0.0
220
0.0
230
1.0
  0
TEXT
  8
30
  6
CONTINUOUS
 62
     2
  5
D7
 10
223.5123
 20
-54.7539
 30
0.0
 40
0.2719
  1
ELEVATION
  7
txt
210
0.0
220
0.0
230
1.0
  0
LINE
  8
3
  6
CONTINUOUS
 62
     2
  5
D8
 10
226.4581
 20
-51.3828
 30
0.0
 11
226.4581
 21
-52.3081
 31
0.0
  0
LINE
  8
3
  6
CONTINUOUS
 62
     2
  5
D9
 10
226.0725
 20
-51.3279
 30
0.0
 11
226.0725
 21
-52.3676
 31
0.0
  0
LINE
  8
3
  6
CONTINUOUS
 62
     2
  5
DA
 10
225.7702
 20
-51.4714
 30
0.0
 11
226.0725
 21
-51.4714
 31
0.0
  0
LINE
  8
3
  6
CONTINUOUS
 62
     2
  5
DB
 10
226.3749
 20
-51.4714
 30
0.0
 11
226.0725
 21
-51.4714
 31
0.0
  0
LINE
  8
3
  6
CONTINUOUS
 62
     2
  5
DC
 10
225.7702
 20
-51.8455
 30
0.0
 11
226.3749
 21
-51.8455
 31
0.0
  0
LINE
  8
3
  6
CONTINUOUS
 62
     2
  5
DD
 10
225.7702
 20
-52.2194
 30
0.0
 11
226.3749
 21
-52.2194
 31
0.0
  0
LINE
  8
3
  6
CONTINUOUS
 62
     2
  5
DE
 10
226.1558
 20
-51.6604
 30
0.0
 11
226.7604
 21
-51.6604
 31
0.0
  0
LINE
  8
3
  6
CONTINUOUS
 62
     2
  5
DF
 10
226.1558
 20
-52.0304
 30
0.0
 11
226.7604
 21
-52.0304
 31
0.0
  0
INSERT
  8
5
  6
CONTINUOUS
 62
     7
  5
E9
  2
*D2
 10
226.0499
 20
-52.4532
 30
0.0
 70
     0
 71
     0
  0
LINE
  8
1
  6
CONTINUOUS
 62
   140
  5
EA
 10
246.1272
 20
-46.4669
 30
0.0
 11
246.1272
 21
-47.1305
 31
0.0
  0
LINE
  8
1
  6
CONTINUOUS
 62
   140
  5
EB
 10
246.1691
 20
-47.8172
 30
0.0
 11
252.8653
 21
-47.6871
 31
0.0
  0
LINE
  8
1
  6
CONTINUOUS
 62
   140
  5
EC
 10
246.1247
 20
-45.7906
 30
0.0
 11
252.9275
 21
-45.9227
 31
0.0
  0
SOLID
  8
1
  6
CONTINUOUS
 62
     7
  5
ED
 10
239.0366
 20
-46.1337
 30
0.0
 11
239.0211
 21
-46.2264
 31
0.0
 12
239.0521
 22
-46.2264
 32
0.0
 13
239.0366
 23
-46.2079
 33
0.0
210
0.0
220
0.0
230
1.0
  0
LINE
  8
5
  6
CONTINUOUS
 62
     7
  5
EE
 10
239.0366
 20
-46.4669
 30
0.0
 11
239.0366
 21
-46.1337
 31
0.0
  0
LINE
  8
5
  6
CONTINUOUS
 62
     7
  5
EF
 10
239.0366
 20
-47.4637
 30
0.0
 11
239.0366
 21
-47.1305
 31
0.0
  0
LINE
  8
5
  6
CONTINUOUS
 62
     7
  5
F0
 10
239.4221
 20
-47.1305
 30
0.0
 11
239.4221
 21
-46.4669
 31
0.0
  0
SOLID
  8
1
  6
CONTINUOUS
 62
     7
  5
F1
 10
239.0366
 20
-46.4669
 30
0.0
 11
239.0521
 21
-46.3741
 31
0.0
 12
239.0211
 22
-46.3741
 32
0.0
 13
239.0366
 23
-46.3928
 33
0.0
210
0.0
220
0.0
230
1.0
  0
SOLID
  8
1
  6
CONTINUOUS
 62
     7
  5
F2
 10
239.4221
 20
-46.4669
 30
0.0
 11
239.4066
 21
-46.5596
 31
0.0
 12
239.4376
 22
-46.5596
 32
0.0
 13
239.4221
 23
-46.5411
 33
0.0
210
0.0
220
0.0
230
1.0
  0
SOLID
  8
1
  6
CONTINUOUS
 62
     7
  5
F3
 10
239.4221
 20
-47.1305
 30
0.0
 11
239.4376
 21
-47.0378
 31
0.0
 12
239.4066
 22
-47.0378
 32
0.0
 13
239.4221
 23
-47.0563
 33
0.0
210
0.0
220
0.0
230
1.0
  0
SOLID
  8
1
  6
CONTINUOUS
 62
     7
  5
F4
 10
239.0366
 20
-47.1305
 30
0.0
 11
239.0211
 21
-47.2233
 31
0.0
 12
239.0521
 22
-47.2233
 32
0.0
 13
239.0366
 23
-47.2047
 33
0.0
210
0.0
220
0.0
230
1.0
  0
SOLID
  8
1
  6
CONTINUOUS
 62
     7
  5
F5
 10
239.0366
 20
-47.4637
 30
0.0
 11
239.0521
 21
-47.371
 31
0.0
 12
239.0211
 22
-47.371
 32
0.0
 13
239.0366
 23
-47.3895
 33
0.0
210
0.0
220
0.0
230
1.0
  0
POLYLINE
  8
5
  6
CONTINUOUS
 62
     2
  5
F6
 66
     1
 10
0.0
 20
0.0
 30
0.0
 70
     1
210
0.0
220
0.0
230
1.0
  0
VERTEX
  8
5
  6
CONTINUOUS
 62
     2
  5
F7
 10
249.865
 20
-48.1953
 30
0.0
  0
VERTEX
  8
5
  6
CONTINUOUS
 62
     2
  5
F8
 10
250.0114
 20
-48.1953
 30
0.0
  0
VERTEX
  8
5
  6
CONTINUOUS
 62
     2
  5
F9
 10
250.0114
 20
-48.1488
 30
0.0
  0
VERTEX
  8
5
  6
CONTINUOUS
 62
     2
  5
FA
 10
250.1375
 20
-48.2235
 30
0.0
  0
VERTEX
  8
5
  6
CONTINUOUS
 62
     2
  5
FB
 10
250.0114
 20
-48.298
 30
0.0
  0
VERTEX
  8
5
  6
CONTINUOUS
 62
     2
  5
FC
 10
250.0114
 20
-48.2516
 30
0.0
  0
VERTEX
  8
5
  6
CONTINUOUS
 62
     2
  5
FD
 10
249.865
 20
-48.2516
 30
0.0
  0
SEQEND
  8
5
  6
CONTINUOUS
 62
     2
  5
FE
  0
POLYLINE
  8
5
  6
CONTINUOUS
 62
     2
  5
FF
 66
     1
 10
0.0
 20
0.0
 30
0.0
 70
     1
210
0.0
220
0.0
230
1.0
  0
VERTEX
  8
5
  6
CONTINUOUS
 62
     2
  5
100
 10
248.611
 20
-45.5198
 30
0.0
  0
VERTEX
  8
5
  6
CONTINUOUS
 62
     2
  5
101
 10
248.4647
 20
-45.5178
 30
0.0
  0
VERTEX
  8
5
  6
CONTINUOUS
 62
     2
  5
102
 10
248.4641
 20
-45.5641
 30
0.0
  0
VERTEX
  8
5
  6
CONTINUOUS
 62
     2
  5
103
 10
248.339
 20
-45.4878
 30
0.0
  0
VERTEX
  8
5
  6
CONTINUOUS
 62
     2
  5
104
 10
248.4662
 20
-45.4152
 30
0.0
  0
VERTEX
  8
5
  6
CONTINUOUS
 62
     2
  5
105
 10
248.4655
 20
-45.4615
 30
0.0
  0
VERTEX
  8
5
  6
CONTINUOUS
 62
     2
  5
106
 10
248.6118
 20
-45.4635
 30
0.0
  0
SEQEND
  8
5
  6
CONTINUOUS
 62
     2
  5
107
  0
LINE
  8
5
  6
CONTINUOUS
 62
   215
  5
108
 10
241.5777
 20
-47.4355
 30
0.0
 11
241.6099
 21
-47.417
 31
0.0
  0
LINE
  8
5
  6
CONTINUOUS
 62
   215
  5
109
 10
241.6099
 20
-47.417
 30
0.0
 11
241.5777
 21
-47.3981
 31
0.0
  0
LINE
  8
5
  6
CONTINUOUS
 62
   215
  5
10A
 10
241.8652
 20
-47.2175
 30
0.0
 11
241.8926
 21
-47.2175
 31
0.0
  0
LINE
  8
5
  6
CONTINUOUS
 62
   215
  5
10B
 10
241.8798
 20
-47.1923
 30
0.0
 11
241.8652
 21
-47.2175
 31
0.0
  0
LINE
  8
5
  6
CONTINUOUS
 62
   215
  5
10C
 10
244.9617
 20
-45.9256
 30
0.0
 11
244.9612
 21
-46.0056
 31
0.0
  0
LINE
  8
5
  6
CONTINUOUS
 62
   215
  5
10D
 10
244.9617
 20
-45.9256
 30
0.0
 11
244.9612
 21
-46.0056
 31
0.0
  0
LINE
  8
5
  6
CONTINUOUS
 62
   215
  5
10E
 10
244.9612
 20
-46.0056
 30
0.0
 11
244.9776
 21
-45.9963
 31
0.0
  0
LINE
  8
5
  6
CONTINUOUS
 62
   215
  5
10F
 10
244.9776
 20
-45.9348
 30
0.0
 11
244.9617
 21
-45.9256
 31
0.0
  0
LINE
  8
5
  6
CONTINUOUS
 62
   215
  5
110
 10
244.9612
 20
-46.0056
 30
0.0
 11
244.9776
 21
-45.9963
 31
0.0
  0
LINE
  8
5
  6
CONTINUOUS
 62
   215
  5
111
 10
244.9776
 20
-45.9348
 30
0.0
 11
244.9617
 21
-45.9256
 31
0.0
  0
LINE
  8
5
  6
CONTINUOUS
 62
   215
  5
112
 10
241.9454
 20
-47.2175
 30
0.0
 11
241.9308
 21
-47.1923
 31
0.0
  0
LINE
  8
5
  6
CONTINUOUS
 62
   215
  5
113
 10
242.6645
 20
-47.3039
 30
0.0
 11
242.7339
 21
-47.2639
 31
0.0
  0
LINE
  8
5
  6
CONTINUOUS
 62
   215
  5
114
 10
242.7339
 20
-47.2639
 30
0.0
 11
242.6648
 21
-47.2237
 31
0.0
  0
LINE
  8
5
  6
CONTINUOUS
 62
   215
  5
115
 10
242.6648
 20
-47.2237
 30
0.0
 11
242.6645
 21
-47.3039
 31
0.0
  0
LINE
  8
5
  6
CONTINUOUS
 62
   215
  5
116
 10
243.395
 20
-47.457
 30
0.0
 11
243.4644
 21
-47.417
 31
0.0
  0
LINE
  8
5
  6
CONTINUOUS
 62
   215
  5
117
 10
243.4644
 20
-47.417
 30
0.0
 11
243.3956
 21
-47.3768
 31
0.0
  0
LINE
  8
5
  6
CONTINUOUS
 62
   215
  5
118
 10
243.3956
 20
-47.3768
 30
0.0
 11
243.395
 21
-47.457
 31
0.0
  0
LINE
  8
5
  6
CONTINUOUS
 62
   215
  5
119
 10
246.1084
 20
-47.1812
 30
0.0
 11
246.0777
 21
-47.1598
 31
0.0
  0
LINE
  8
5
  6
CONTINUOUS
 62
   215
  5
11A
 10
246.0777
 20
-47.1598
 30
0.0
 11
246.0761
 21
-47.1782
 31
0.0
  0
LINE
  8
5
  6
CONTINUOUS
 62
   215
  5
11B
 10
243.7198
 20
-47.2175
 30
0.0
 11
243.7471
 21
-47.2175
 31
0.0
  0
LINE
  8
5
  6
CONTINUOUS
 62
   215
  5
11C
 10
243.7344
 20
-47.1923
 30
0.0
 11
243.7198
 21
-47.2175
 31
0.0
  0
LINE
  8
5
  6
CONTINUOUS
 62
   215
  5
11D
 10
241.8926
 20
-47.2175
 30
0.0
 11
241.9454
 21
-47.2175
 31
0.0
  0
CIRCLE
  8
5
  6
CONTINUOUS
 62
   215
  5
11E
 10
242.169968
 20
-47.337519
 30
0.000006
 40
0.004446
210
0.0
220
0.0
230
1.0
  0
CIRCLE
  8
5
  6
CONTINUOUS
 62
   215
  5
11F
 10
246.086092
 20
-47.334204
 30
0.000006
 40
0.004446
210
0.0
220
0.0
230
1.0
  0
CIRCLE
  8
5
  6
CONTINUOUS
 62
   215
  5
120
 10
243.127857
 20
-47.345092
 30
0.000006
 40
0.004446
210
0.0
220
0.0
230
1.0
  0
CIRCLE
  8
5
  6
CONTINUOUS
 62
   215
  5
121
 10
242.56082
 20
-47.230263
 30
0.000006
 40
0.004446
210
0.0
220
0.0
230
1.0
  0
LINE
  8
5
  6
CONTINUOUS
 62
   215
  5
122
 10
246.1095
 20
-45.8919
 30
0.0
 11
246.179
 21
-45.8519
 31
0.0
  0
LINE
  8
5
  6
CONTINUOUS
 62
   215
  5
123
 10
246.8162
 20
-45.9256
 30
0.0
 11
246.8158
 21
-46.0056
 31
0.0
  0
LINE
  8
5
  6
CONTINUOUS
 62
   215
  5
124
 10
246.4306
 20
-46.1122
 30
0.0
 11
246.5106
 21
-46.1122
 31
0.0
  0
LINE
  8
5
  6
CONTINUOUS
 62
   215
  5
125
 10
246.5106
 20
-46.1122
 30
0.0
 11
246.4708
 21
-46.0431
 31
0.0
  0
LINE
  8
5
  6
CONTINUOUS
 62
   215
  5
126
 10
246.4708
 20
-46.0431
 30
0.0
 11
246.4306
 21
-46.1122
 31
0.0
  0
LINE
  8
5
  6
CONTINUOUS
 62
   215
  5
127
 10
245.6895
 20
-46.114
 30
0.0
 11
245.7647
 21
-46.0866
 31
0.0
  0
LINE
  8
5
  6
CONTINUOUS
 62
   215
  5
128
 10
245.7647
 20
-46.0866
 30
0.0
 11
245.7037
 21
-46.0355
 31
0.0
  0
LINE
  8
5
  6
CONTINUOUS
 62
   215
  5
129
 10
245.7037
 20
-46.0355
 30
0.0
 11
245.6895
 21
-46.114
 31
0.0
  0
LINE
  8
5
  6
CONTINUOUS
 62
   215
  5
12A
 10
246.8162
 20
-45.9256
 30
0.0
 11
246.8158
 21
-46.0056
 31
0.0
  0
LINE
  8
5
  6
CONTINUOUS
 62
   215
  5
12B
 10
246.8158
 20
-46.0056
 30
0.0
 11
246.8321
 21
-45.9963
 31
0.0
  0
LINE
  8
5
  6
CONTINUOUS
 62
   215
  5
12C
 10
246.8321
 20
-45.9348
 30
0.0
 11
246.8162
 21
-45.9256
 31
0.0
  0
LINE
  8
5
  6
CONTINUOUS
 62
   215
  5
12D
 10
246.8158
 20
-46.0056
 30
0.0
 11
246.8321
 21
-45.9963
 31
0.0
  0
LINE
  8
5
  6
CONTINUOUS
 62
   215
  5
12E
 10
246.8321
 20
-45.9348
 30
0.0
 11
246.8162
 21
-45.9256
 31
0.0
  0
LINE
  8
5
  6
CONTINUOUS
 62
   215
  5
12F
 10
244.9776
 20
-45.9963
 30
0.0
 11
245.0306
 21
-45.9655
 31
0.0
  0
LINE
  8
5
  6
CONTINUOUS
 62
   215
  5
130
 10
245.0306
 20
-45.9655
 30
0.0
 11
244.9776
 21
-45.9348
 31
0.0
  0
CIRCLE
  8
5
  6
CONTINUOUS
 62
   215
  5
131
 10
245.239668
 20
-46.039905
 30
0.000006
 40
0.004446
210
0.0
220
0.0
230
1.0
  0
ARC
  8
5
  6
CONTINUOUS
 62
   215
  5
132
 10
245.914115
 20
-46.124288
 30
0.000006
 40
0.004446
 50
67.97985
 51
112.020147
210
0.0
220
0.0
230
1.0
  0
CIRCLE
  8
5
  6
CONTINUOUS
 62
   215
  5
133
 10
246.281939
 20
-45.970976
 30
0.000006
 40
0.004446
210
0.0
220
0.0
230
1.0
  0
CIRCLE
  8
5
  6
CONTINUOUS
 62
   215
  5
134
 10
246.680364
 20
-45.886748
 30
0.000006
 40
0.004446
210
0.0
220
0.0
230
1.0
  0
CIRCLE
  8
5
  6
CONTINUOUS
 62
   215
  5
135
 10
246.395724
 20
-45.917764
 30
0.000006
 40
0.004446
210
0.0
220
0.0
230
1.0
  0
LINE
  8
5
  6
CONTINUOUS
 62
   215
  5
136
 10
243.7999
 20
-47.2175
 30
0.0
 11
243.7854
 21
-47.1923
 31
0.0
  0
LINE
  8
5
  6
CONTINUOUS
 62
   215
  5
137
 10
247.0652
 20
-47.2421
 30
0.0
 11
247.1347
 21
-47.2021
 31
0.0
  0
LINE
  8
5
  6
CONTINUOUS
 62
   215
  5
138
 10
247.1347
 20
-47.2021
 30
0.0
 11
247.0655
 21
-47.1619
 31
0.0
  0
LINE
  8
5
  6
CONTINUOUS
 62
   215
  5
139
 10
247.0655
 20
-47.1619
 30
0.0
 11
247.0652
 21
-47.2421
 31
0.0
  0
LINE
  8
5
  6
CONTINUOUS
 62
   215
  5
13A
 10
247.4533
 20
-47.0881
 30
0.0
 11
247.5334
 21
-47.0881
 31
0.0
  0
LINE
  8
5
  6
CONTINUOUS
 62
   215
  5
13B
 10
247.7958
 20
-47.3952
 30
0.0
 11
247.8652
 21
-47.3552
 31
0.0
  0
LINE
  8
5
  6
CONTINUOUS
 62
   215
  5
13C
 10
247.8652
 20
-47.3552
 30
0.0
 11
247.7964
 21
-47.315
 31
0.0
  0
LINE
  8
5
  6
CONTINUOUS
 62
   215
  5
13D
 10
247.7964
 20
-47.315
 30
0.0
 11
247.7958
 21
-47.3952
 31
0.0
  0
LINE
  8
5
  6
CONTINUOUS
 62
   215
  5
13E
 10
247.3863
 20
-47.586
 30
0.0
 11
247.459
 21
-47.5524
 31
0.0
  0
LINE
  8
5
  6
CONTINUOUS
 62
   215
  5
13F
 10
247.459
 20
-47.5524
 30
0.0
 11
247.3935
 21
-47.5065
 31
0.0
  0
LINE
  8
5
  6
CONTINUOUS
 62
   215
  5
140
 10
247.3935
 20
-47.5065
 30
0.0
 11
247.3863
 21
-47.586
 31
0.0
  0
LINE
  8
5
  6
CONTINUOUS
 62
   215
  5
141
 10
247.3366
 20
-47.1875
 30
0.0
 11
247.3768
 21
-47.1181
 31
0.0
  0
LINE
  8
5
  6
CONTINUOUS
 62
   215
  5
142
 10
247.3768
 20
-47.1181
 30
0.0
 11
247.2967
 21
-47.1181
 31
0.0
  0
LINE
  8
5
  6
CONTINUOUS
 62
   215
  5
143
 10
247.2967
 20
-47.1181
 30
0.0
 11
247.3366
 21
-47.1875
 31
0.0
  0
LINE
  8
5
  6
CONTINUOUS
 62
   215
  5
144
 10
247.5334
 20
-47.0881
 30
0.0
 11
247.5104
 21
-47.0484
 31
0.0
  0
LINE
  8
5
  6
CONTINUOUS
 62
   215
  5
145
 10
247.4765
 20
-47.0484
 30
0.0
 11
247.4533
 21
-47.0881
 31
0.0
  0
LINE
  8
5
  6
CONTINUOUS
 62
   215
  5
146
 10
248.1206
 20
-47.1557
 30
0.0
 11
248.1479
 21
-47.1557
 31
0.0
  0
LINE
  8
5
  6
CONTINUOUS
 62
   215
  5
147
 10
248.1479
 20
-47.1088
 30
0.0
 11
248.1206
 21
-47.1557
 31
0.0
  0
LINE
  8
5
  6
CONTINUOUS
 62
   215
  5
148
 10
243.7471
 20
-47.2175
 30
0.0
 11
243.7999
 21
-47.2175
 31
0.0
  0
CIRCLE
  8
5
  6
CONTINUOUS
 62
   215
  5
149
 10
247.858129
 20
-47.107108
 30
0.000006
 40
0.004446
210
0.0
220
0.0
230
1.0
  0
CIRCLE
  8
5
  6
CONTINUOUS
 62
   215
  5
14A
 10
244.024544
 20
-47.337519
 30
0.000006
 40
0.004446
210
0.0
220
0.0
230
1.0
  0
CIRCLE
  8
5
  6
CONTINUOUS
 62
   215
  5
14B
 10
247.12248
 20
-47.54386
 30
0.000006
 40
0.004446
210
0.0
220
0.0
230
1.0
  0
CIRCLE
  8
5
  6
CONTINUOUS
 62
   215
  5
14C
 10
248.019168
 20
-47.451904
 30
0.000006
 40
0.004446
210
0.0
220
0.0
230
1.0
  0
CIRCLE
  8
5
  6
CONTINUOUS
 62
   215
  5
14D
 10
247.528633
 20
-47.283292
 30
0.000006
 40
0.004446
210
0.0
220
0.0
230
1.0
  0
CIRCLE
  8
5
  6
CONTINUOUS
 62
   215
  5
14E
 10
247.500396
 20
-46.821763
 30
0.000006
 40
0.004446
210
0.0
220
0.0
230
1.0
  0
LINE
  8
5
  6
CONTINUOUS
 62
   215
  5
14F
 10
247.6485
 20
-46.0457
 30
0.0
 11
247.6885
 21
-45.9762
 31
0.0
  0
LINE
  8
5
  6
CONTINUOUS
 62
   215
  5
150
 10
247.6885
 20
-45.9762
 30
0.0
 11
247.6086
 21
-45.9762
 31
0.0
  0
LINE
  8
5
  6
CONTINUOUS
 62
   215
  5
151
 10
247.6086
 20
-45.9762
 30
0.0
 11
247.6485
 21
-46.0457
 31
0.0
  0
LINE
  8
5
  6
CONTINUOUS
 62
   215
  5
152
 10
247.1233
 20
-45.9463
 30
0.0
 11
247.2033
 21
-45.9463
 31
0.0
  0
LINE
  8
5
  6
CONTINUOUS
 62
   215
  5
153
 10
247.2033
 20
-45.9463
 30
0.0
 11
247.1869
 21
-45.9179
 31
0.0
  0
LINE
  8
5
  6
CONTINUOUS
 62
   215
  5
154
 10
247.137
 20
-45.9226
 30
0.0
 11
247.1233
 21
-45.9463
 31
0.0
  0
LINE
  8
5
  6
CONTINUOUS
 62
   215
  5
155
 10
247.4253
 20
-46.2386
 30
0.0
 11
247.4947
 21
-46.1986
 31
0.0
  0
LINE
  8
5
  6
CONTINUOUS
 62
   215
  5
156
 10
247.4947
 20
-46.1986
 30
0.0
 11
247.4256
 21
-46.1585
 31
0.0
  0
LINE
  8
5
  6
CONTINUOUS
 62
   215
  5
157
 10
247.4256
 20
-46.1585
 30
0.0
 11
247.4253
 21
-46.2386
 31
0.0
  0
LINE
  8
5
  6
CONTINUOUS
 62
   215
  5
158
 10
247.839
 20
-45.9273
 30
0.0
 11
247.8439
 21
-45.9282
 31
0.0
  0
LINE
  8
5
  6
CONTINUOUS
 62
   215
  5
159
 10
247.8439
 20
-45.9282
 30
0.0
 11
247.8437
 21
-45.9274
 31
0.0
  0
LINE
  8
5
  6
CONTINUOUS
 62
   215
  5
15A
 10
248.132
 20
-46.2723
 30
0.0
 11
248.1316
 21
-46.3523
 31
0.0
  0
LINE
  8
5
  6
CONTINUOUS
 62
   215
  5
15B
 10
247.7464
 20
-46.4589
 30
0.0
 11
247.8264
 21
-46.4589
 31
0.0
  0
LINE
  8
5
  6
CONTINUOUS
 62
   215
  5
15C
 10
247.8264
 20
-46.4589
 30
0.0
 11
247.7866
 21
-46.3898
 31
0.0
  0
LINE
  8
5
  6
CONTINUOUS
 62
   215
  5
15D
 10
247.7866
 20
-46.3898
 30
0.0
 11
247.7464
 21
-46.4589
 31
0.0
  0
LINE
  8
5
  6
CONTINUOUS
 62
   215
  5
15E
 10
247.8033
 20
-46.8617
 30
0.0
 11
247.8726
 21
-46.8218
 31
0.0
  0
LINE
  8
5
  6
CONTINUOUS
 62
   215
  5
15F
 10
247.8726
 20
-46.8218
 30
0.0
 11
247.8038
 21
-46.7817
 31
0.0
  0
LINE
  8
5
  6
CONTINUOUS
 62
   215
  5
160
 10
247.8038
 20
-46.7817
 30
0.0
 11
247.8033
 21
-46.8617
 31
0.0
  0
LINE
  8
5
  6
CONTINUOUS
 62
   215
  5
161
 10
247.42
 20
-46.5887
 30
0.0
 11
247.5
 21
-46.5887
 31
0.0
  0
LINE
  8
5
  6
CONTINUOUS
 62
   215
  5
162
 10
247.5
 20
-46.5887
 30
0.0
 11
247.4602
 21
-46.5196
 31
0.0
  0
LINE
  8
5
  6
CONTINUOUS
 62
   215
  5
163
 10
247.4602
 20
-46.5196
 30
0.0
 11
247.42
 21
-46.5887
 31
0.0
  0
LINE
  8
5
  6
CONTINUOUS
 62
   215
  5
164
 10
247.0052
 20
-46.4607
 30
0.0
 11
247.0805
 21
-46.4333
 31
0.0
  0
LINE
  8
5
  6
CONTINUOUS
 62
   215
  5
165
 10
247.0805
 20
-46.4333
 30
0.0
 11
247.0194
 21
-46.3822
 31
0.0
  0
LINE
  8
5
  6
CONTINUOUS
 62
   215
  5
166
 10
247.0194
 20
-46.3822
 30
0.0
 11
247.0052
 21
-46.4607
 31
0.0
  0
LINE
  8
5
  6
CONTINUOUS
 62
   215
  5
167
 10
248.132
 20
-46.2723
 30
0.0
 11
248.1316
 21
-46.3523
 31
0.0
  0
LINE
  8
5
  6
CONTINUOUS
 62
   215
  5
168
 10
248.1316
 20
-46.3523
 30
0.0
 11
248.1479
 21
-46.343
 31
0.0
  0
LINE
  8
5
  6
CONTINUOUS
 62
   215
  5
169
 10
248.1479
 20
-46.2815
 30
0.0
 11
248.132
 21
-46.2723
 31
0.0
  0
LINE
  8
5
  6
CONTINUOUS
 62
   215
  5
16A
 10
248.1316
 20
-46.3523
 30
0.0
 11
248.1479
 21
-46.343
 31
0.0
  0
LINE
  8
5
  6
CONTINUOUS
 62
   215
  5
16B
 10
248.1479
 20
-46.2815
 30
0.0
 11
248.132
 21
-46.2723
 31
0.0
  0
LINE
  8
5
  6
CONTINUOUS
 62
   215
  5
16C
 10
247.5104
 20
-47.0484
 30
0.0
 11
247.4935
 21
-47.019
 31
0.0
  0
LINE
  8
5
  6
CONTINUOUS
 62
   215
  5
16D
 10
247.4935
 20
-47.019
 30
0.0
 11
247.4765
 21
-47.0484
 31
0.0
  0
LINE
  8
5
  6
CONTINUOUS
 62
   215
  5
16E
 10
246.8321
 20
-45.9963
 30
0.0
 11
246.8851
 21
-45.9655
 31
0.0
  0
LINE
  8
5
  6
CONTINUOUS
 62
   215
  5
16F
 10
246.8851
 20
-45.9655
 30
0.0
 11
246.8321
 21
-45.9348
 31
0.0
  0
CIRCLE
  8
5
  6
CONTINUOUS
 62
   215
  5
170
 10
247.094244
 20
-46.039905
 30
0.000006
 40
0.004446
210
0.0
220
0.0
230
1.0
  0
CIRCLE
  8
5
  6
CONTINUOUS
 62
   215
  5
171
 10
248.019168
 20
-46.716101
 30
0.000006
 40
0.004446
210
0.0
220
0.0
230
1.0
  0
CIRCLE
  8
5
  6
CONTINUOUS
 62
   215
  5
172
 10
247.613016
 20
-46.854112
 30
0.000006
 40
0.004446
210
0.0
220
0.0
230
1.0
  0
CIRCLE
  8
5
  6
CONTINUOUS
 62
   215
  5
173
 10
247.268219
 20
-46.969096
 30
0.000006
 40
0.004446
210
0.0
220
0.0
230
1.0
  0
CIRCLE
  8
5
  6
CONTINUOUS
 62
   215
  5
174
 10
247.229891
 20
-46.470988
 30
0.000006
 40
0.004446
210
0.0
220
0.0
230
1.0
  0
CIRCLE
  8
5
  6
CONTINUOUS
 62
   215
  5
175
 10
247.597715
 20
-46.317676
 30
0.000006
 40
0.004446
210
0.0
220
0.0
230
1.0
  0
CIRCLE
  8
5
  6
CONTINUOUS
 62
   215
  5
176
 10
247.99614
 20
-46.233448
 30
0.000006
 40
0.004446
210
0.0
220
0.0
230
1.0
  0
CIRCLE
  8
5
  6
CONTINUOUS
 62
   215
  5
177
 10
247.7739
 20
-46.103164
 30
0.000006
 40
0.004446
210
0.0
220
0.0
230
1.0
  0
CIRCLE
  8
5
  6
CONTINUOUS
 62
   215
  5
178
 10
247.485096
 20
-45.84842
 30
0.000006
 40
0.004446
210
0.0
220
0.0
230
1.0
  0
CIRCLE
  8
5
  6
CONTINUOUS
 62
   215
  5
179
 10
248.026741
 20
-46.991969
 30
0.000006
 40
0.004446
210
0.0
220
0.0
230
1.0
  0
ARC
  8
5
  6
CONTINUOUS
 62
   215
  5
17A
 10
248.034468
 20
-45.934552
 30
0.000006
 40
0.004446
 50
128.897092
 51
48.878403
210
0.0
220
0.0
230
1.0
  0
LINE
  8
5
  6
CONTINUOUS
 62
   215
  5
17B
 10
248.2007
 20
-47.1557
 30
0.0
 11
248.1608
 21
-47.0867
 31
0.0
  0
LINE
  8
5
  6
CONTINUOUS
 62
   215
  5
17C
 10
248.6593
 20
-47.0798
 30
0.0
 11
248.7344
 21
-47.0521
 31
0.0
  0
LINE
  8
5
  6
CONTINUOUS
 62
   215
  5
17D
 10
248.9198
 20
-47.2421
 30
0.0
 11
248.9892
 21
-47.2021
 31
0.0
  0
LINE
  8
5
  6
CONTINUOUS
 62
   215
  5
17E
 10
248.9892
 20
-47.2021
 30
0.0
 11
248.9201
 21
-47.1619
 31
0.0
  0
LINE
  8
5
  6
CONTINUOUS
 62
   215
  5
17F
 10
248.9201
 20
-47.1619
 30
0.0
 11
248.9198
 21
-47.2421
 31
0.0
  0
LINE
  8
5
  6
CONTINUOUS
 62
   215
  5
180
 10
249.3079
 20
-47.0881
 30
0.0
 11
249.388
 21
-47.0881
 31
0.0
  0
LINE
  8
5
  6
CONTINUOUS
 62
   215
  5
181
 10
249.6504
 20
-47.3952
 30
0.0
 11
249.7198
 21
-47.3552
 31
0.0
  0
LINE
  8
5
  6
CONTINUOUS
 62
   215
  5
182
 10
249.7198
 20
-47.3552
 30
0.0
 11
249.651
 21
-47.315
 31
0.0
  0
LINE
  8
5
  6
CONTINUOUS
 62
   215
  5
183
 10
249.651
 20
-47.315
 30
0.0
 11
249.6504
 21
-47.3952
 31
0.0
  0
LINE
  8
5
  6
CONTINUOUS
 62
   215
  5
184
 10
249.2409
 20
-47.586
 30
0.0
 11
249.3136
 21
-47.5524
 31
0.0
  0
LINE
  8
5
  6
CONTINUOUS
 62
   215
  5
185
 10
249.3136
 20
-47.5524
 30
0.0
 11
249.2481
 21
-47.5065
 31
0.0
  0
LINE
  8
5
  6
CONTINUOUS
 62
   215
  5
186
 10
249.2481
 20
-47.5065
 30
0.0
 11
249.2409
 21
-47.586
 31
0.0
  0
LINE
  8
5
  6
CONTINUOUS
 62
   215
  5
187
 10
248.6524
 20
-47.5342
 30
0.0
 11
248.6925
 21
-47.4648
 31
0.0
  0
LINE
  8
5
  6
CONTINUOUS
 62
   215
  5
188
 10
248.6925
 20
-47.4648
 30
0.0
 11
248.6125
 21
-47.4648
 31
0.0
  0
LINE
  8
5
  6
CONTINUOUS
 62
   215
  5
189
 10
248.6125
 20
-47.4648
 30
0.0
 11
248.6524
 21
-47.5342
 31
0.0
  0
LINE
  8
5
  6
CONTINUOUS
 62
   215
  5
18A
 10
248.2766
 20
-47.6445
 30
0.0
 11
248.266
 21
-47.6157
 31
0.0
  0
LINE
  8
5
  6
CONTINUOUS
 62
   215
  5
18B
 10
248.266
 20
-47.6157
 30
0.0
 11
248.2406
 21
-47.6459
 31
0.0
  0
LINE
  8
5
  6
CONTINUOUS
 62
   215
  5
18C
 10
248.7344
 20
-47.0521
 30
0.0
 11
248.7297
 21
-47.0484
 31
0.0
  0
LINE
  8
5
  6
CONTINUOUS
 62
   215
  5
18D
 10
248.6648
 20
-47.0484
 30
0.0
 11
248.6593
 21
-47.0798
 31
0.0
  0
LINE
  8
5
  6
CONTINUOUS
 62
   215
  5
18E
 10
249.388
 20
-47.0881
 30
0.0
 11
249.365
 21
-47.0484
 31
0.0
  0
LINE
  8
5
  6
CONTINUOUS
 62
   215
  5
18F
 10
249.3311
 20
-47.0484
 30
0.0
 11
249.3079
 21
-47.0881
 31
0.0
  0
LINE
  8
5
  6
CONTINUOUS
 62
   215
  5
190
 10
249.9751
 20
-47.1557
 30
0.0
 11
250.0025
 21
-47.1557
 31
0.0
  0
LINE
  8
5
  6
CONTINUOUS
 62
   215
  5
191
 10
250.0025
 20
-47.1088
 30
0.0
 11
249.9751
 21
-47.1557
 31
0.0
  0
LINE
  8
5
  6
CONTINUOUS
 62
   215
  5
192
 10
248.1479
 20
-47.1557
 30
0.0
 11
248.2007
 21
-47.1557
 31
0.0
  0
LINE
  8
5
  6
CONTINUOUS
 62
   215
  5
193
 10
248.1608
 20
-47.0867
 30
0.0
 11
248.1479
 21
-47.1088
 31
0.0
  0
CIRCLE
  8
5
  6
CONTINUOUS
 62
   215
  5
194
 10
249.712705
 20
-47.107108
 30
0.000006
 40
0.004446
210
0.0
220
0.0
230
1.0
  0
CIRCLE
  8
5
  6
CONTINUOUS
 62
   215
  5
195
 10
248.42532
 20
-47.275719
 30
0.000006
 40
0.004446
210
0.0
220
0.0
230
1.0
  0
CIRCLE
  8
5
  6
CONTINUOUS
 62
   215
  5
196
 10
248.977056
 20
-47.54386
 30
0.000006
 40
0.004446
210
0.0
220
0.0
230
1.0
  0
CIRCLE
  8
5
  6
CONTINUOUS
 62
   215
  5
197
 10
249.873744
 20
-47.451904
 30
0.000006
 40
0.004446
210
0.0
220
0.0
230
1.0
  0
CIRCLE
  8
5
  6
CONTINUOUS
 62
   215
  5
198
 10
249.383209
 20
-47.283292
 30
0.000006
 40
0.004446
210
0.0
220
0.0
230
1.0
  0
CIRCLE
  8
5
  6
CONTINUOUS
 62
   215
  5
199
 10
248.816172
 20
-47.168463
 30
0.000006
 40
0.004446
210
0.0
220
0.0
230
1.0
  0
LINE
  8
5
  6
CONTINUOUS
 62
   215
  5
19A
 10
248.6555
 20
-46.0976
 30
0.0
 11
248.6956
 21
-46.0281
 31
0.0
  0
LINE
  8
5
  6
CONTINUOUS
 62
   215
  5
19B
 10
248.6956
 20
-46.0281
 30
0.0
 11
248.6157
 21
-46.0281
 31
0.0
  0
LINE
  8
5
  6
CONTINUOUS
 62
   215
  5
19C
 10
248.6157
 20
-46.0281
 30
0.0
 11
248.6555
 21
-46.0976
 31
0.0
  0
LINE
  8
5
  6
CONTINUOUS
 62
   215
  5
19D
 10
249.2799
 20
-46.2386
 30
0.0
 11
249.3493
 21
-46.1986
 31
0.0
  0
LINE
  8
5
  6
CONTINUOUS
 62
   215
  5
19E
 10
249.3493
 20
-46.1986
 30
0.0
 11
249.2802
 21
-46.1585
 31
0.0
  0
LINE
  8
5
  6
CONTINUOUS
 62
   215
  5
19F
 10
249.2802
 20
-46.1585
 30
0.0
 11
249.2799
 21
-46.2386
 31
0.0
  0
LINE
  8
5
  6
CONTINUOUS
 62
   215
  5
1A0
 10
249.9866
 20
-46.2723
 30
0.0
 11
249.9862
 21
-46.3523
 31
0.0
  0
LINE
  8
5
  6
CONTINUOUS
 62
   215
  5
1A1
 10
249.601
 20
-46.4589
 30
0.0
 11
249.681
 21
-46.4589
 31
0.0
  0
LINE
  8
5
  6
CONTINUOUS
 62
   215
  5
1A2
 10
249.681
 20
-46.4589
 30
0.0
 11
249.6411
 21
-46.3898
 31
0.0
  0
LINE
  8
5
  6
CONTINUOUS
 62
   215
  5
1A3
 10
249.6411
 20
-46.3898
 30
0.0
 11
249.601
 21
-46.4589
 31
0.0
  0
LINE
  8
5
  6
CONTINUOUS
 62
   215
  5
1A4
 10
249.6579
 20
-46.8617
 30
0.0
 11
249.7272
 21
-46.8218
 31
0.0
  0
LINE
  8
5
  6
CONTINUOUS
 62
   215
  5
1A5
 10
249.7272
 20
-46.8218
 30
0.0
 11
249.6584
 21
-46.7817
 31
0.0
  0
LINE
  8
5
  6
CONTINUOUS
 62
   215
  5
1A6
 10
249.6584
 20
-46.7817
 30
0.0
 11
249.6579
 21
-46.8617
 31
0.0
  0
LINE
  8
5
  6
CONTINUOUS
 62
   215
  5
1A7
 10
249.2746
 20
-46.5887
 30
0.0
 11
249.3546
 21
-46.5887
 31
0.0
  0
LINE
  8
5
  6
CONTINUOUS
 62
   215
  5
1A8
 10
249.3546
 20
-46.5887
 30
0.0
 11
249.3148
 21
-46.5196
 31
0.0
  0
LINE
  8
5
  6
CONTINUOUS
 62
   215
  5
1A9
 10
249.3148
 20
-46.5196
 30
0.0
 11
249.2746
 21
-46.5887
 31
0.0
  0
LINE
  8
5
  6
CONTINUOUS
 62
   215
  5
1AA
 10
248.9985
 20
-46.8619
 30
0.0
 11
249.019
 21
-46.7845
 31
0.0
  0
LINE
  8
5
  6
CONTINUOUS
 62
   215
  5
1AB
 10
249.019
 20
-46.7845
 30
0.0
 11
248.942
 21
-46.805
 31
0.0
  0
LINE
  8
5
  6
CONTINUOUS
 62
   215
  5
1AC
 10
248.942
 20
-46.805
 30
0.0
 11
248.9985
 21
-46.8619
 31
0.0
  0
LINE
  8
5
  6
CONTINUOUS
 62
   215
  5
1AD
 10
248.8598
 20
-46.4607
 30
0.0
 11
248.9351
 21
-46.4333
 31
0.0
  0
LINE
  8
5
  6
CONTINUOUS
 62
   215
  5
1AE
 10
248.9351
 20
-46.4333
 30
0.0
 11
248.874
 21
-46.3822
 31
0.0
  0
LINE
  8
5
  6
CONTINUOUS
 62
   215
  5
1AF
 10
248.874
 20
-46.3822
 30
0.0
 11
248.8598
 21
-46.4607
 31
0.0
  0
LINE
  8
5
  6
CONTINUOUS
 62
   215
  5
1B0
 10
248.5084
 20
-46.6419
 30
0.0
 11
248.529
 21
-46.5645
 31
0.0
  0
LINE
  8
5
  6
CONTINUOUS
 62
   215
  5
1B1
 10
248.529
 20
-46.5645
 30
0.0
 11
248.4518
 21
-46.5853
 31
0.0
  0
LINE
  8
5
  6
CONTINUOUS
 62
   215
  5
1B2
 10
248.4518
 20
-46.5853
 30
0.0
 11
248.5084
 21
-46.6419
 31
0.0
  0
LINE
  8
5
  6
CONTINUOUS
 62
   215
  5
1B3
 10
248.1965
 20
-46.9084
 30
0.0
 11
248.2766
 21
-46.9084
 31
0.0
  0
LINE
  8
5
  6
CONTINUOUS
 62
   215
  5
1B4
 10
248.2766
 20
-46.9084
 30
0.0
 11
248.2367
 21
-46.8393
 31
0.0
  0
LINE
  8
5
  6
CONTINUOUS
 62
   215
  5
1B5
 10
248.2367
 20
-46.8393
 30
0.0
 11
248.1965
 21
-46.9084
 31
0.0
  0
LINE
  8
5
  6
CONTINUOUS
 62
   215
  5
1B6
 10
249.9866
 20
-46.2723
 30
0.0
 11
249.9862
 21
-46.3523
 31
0.0
  0
LINE
  8
5
  6
CONTINUOUS
 62
   215
  5
1B7
 10
249.9862
 20
-46.3523
 30
0.0
 11
250.0025
 21
-46.343
 31
0.0
  0
LINE
  8
5
  6
CONTINUOUS
 62
   215
  5
1B8
 10
250.0025
 20
-46.2815
 30
0.0
 11
249.9866
 21
-46.2723
 31
0.0
  0
LINE
  8
5
  6
CONTINUOUS
 62
   215
  5
1B9
 10
249.9862
 20
-46.3523
 30
0.0
 11
250.0025
 21
-46.343
 31
0.0
  0
LINE
  8
5
  6
CONTINUOUS
 62
   215
  5
1BA
 10
250.0025
 20
-46.2815
 30
0.0
 11
249.9866
 21
-46.2723
 31
0.0
  0
LINE
  8
5
  6
CONTINUOUS
 62
   215
  5
1BB
 10
249.365
 20
-47.0484
 30
0.0
 11
249.348
 21
-47.019
 31
0.0
  0
LINE
  8
5
  6
CONTINUOUS
 62
   215
  5
1BC
 10
249.348
 20
-47.019
 30
0.0
 11
249.3311
 21
-47.0484
 31
0.0
  0
LINE
  8
5
  6
CONTINUOUS
 62
   215
  5
1BD
 10
248.7297
 20
-47.0484
 30
0.0
 11
248.6735
 21
-47.0011
 31
0.0
  0
LINE
  8
5
  6
CONTINUOUS
 62
   215
  5
1BE
 10
248.6735
 20
-47.0011
 30
0.0
 11
248.6648
 21
-47.0484
 31
0.0
  0
LINE
  8
5
  6
CONTINUOUS
 62
   215
  5
1BF
 10
248.7297
 20
-47.0484
 30
0.0
 11
248.6735
 21
-47.0011
 31
0.0
  0
LINE
  8
5
  6
CONTINUOUS
 62
   215
  5
1C0
 10
248.6735
 20
-47.0011
 30
0.0
 11
248.6648
 21
-47.0484
 31
0.0
  0
LINE
  8
5
  6
CONTINUOUS
 62
   215
  5
1C1
 10
248.1479
 20
-46.343
 30
0.0
 11
248.2009
 21
-46.3122
 31
0.0
  0
LINE
  8
5
  6
CONTINUOUS
 62
   215
  5
1C2
 10
248.2009
 20
-46.3122
 30
0.0
 11
248.1479
 21
-46.2815
 31
0.0
  0
CIRCLE
  8
5
  6
CONTINUOUS
 62
   215
  5
1C3
 10
248.41002
 20
-46.386605
 30
0.000006
 40
0.004446
210
0.0
220
0.0
230
1.0
  0
CIRCLE
  8
5
  6
CONTINUOUS
 62
   215
  5
1C4
 10
248.739516
 20
-46.769884
 30
0.000006
 40
0.004446
210
0.0
220
0.0
230
1.0
  0
CIRCLE
  8
5
  6
CONTINUOUS
 62
   215
  5
1C5
 10
248.417747
 20
-46.938341
 30
0.000006
 40
0.004446
210
0.0
220
0.0
230
1.0
  0
CIRCLE
  8
5
  6
CONTINUOUS
 62
   215
  5
1C6
 10
248.287463
 20
-46.624145
 30
0.000006
 40
0.004446
210
0.0
220
0.0
230
1.0
  0
CIRCLE
  8
5
  6
CONTINUOUS
 62
   215
  5
1C7
 10
249.873744
 20
-46.716101
 30
0.000006
 40
0.004446
210
0.0
220
0.0
230
1.0
  0
CIRCLE
  8
5
  6
CONTINUOUS
 62
   215
  5
1C8
 10
249.467592
 20
-46.854112
 30
0.000006
 40
0.004446
210
0.0
220
0.0
230
1.0
  0
CIRCLE
  8
5
  6
CONTINUOUS
 62
   215
  5
1C9
 10
249.122795
 20
-46.969096
 30
0.000006
 40
0.004446
210
0.0
220
0.0
230
1.0
  0
CIRCLE
  8
5
  6
CONTINUOUS
 62
   215
  5
1CA
 10
249.084467
 20
-46.470988
 30
0.000006
 40
0.004446
210
0.0
220
0.0
230
1.0
  0
CIRCLE
  8
5
  6
CONTINUOUS
 62
   215
  5
1CB
 10
249.452291
 20
-46.317676
 30
0.000006
 40
0.004446
210
0.0
220
0.0
230
1.0
  0
CIRCLE
  8
5
  6
CONTINUOUS
 62
   215
  5
1CC
 10
249.850716
 20
-46.233448
 30
0.000006
 40
0.004446
210
0.0
220
0.0
230
1.0
  0
CIRCLE
  8
5
  6
CONTINUOUS
 62
   215
  5
1CD
 10
249.628476
 20
-46.103164
 30
0.000006
 40
0.004446
210
0.0
220
0.0
230
1.0
  0
CIRCLE
  8
5
  6
CONTINUOUS
 62
   215
  5
1CE
 10
248.800872
 20
-46.19512
 30
0.000006
 40
0.004446
210
0.0
220
0.0
230
1.0
  0
CIRCLE
  8
5
  6
CONTINUOUS
 62
   215
  5
1CF
 10
249.881317
 20
-46.991969
 30
0.000006
 40
0.004446
210
0.0
220
0.0
230
1.0
  0
CIRCLE
  8
5
  6
CONTINUOUS
 62
   215
  5
1D0
 10
248.348819
 20
-46.133764
 30
0.000006
 40
0.004446
210
0.0
220
0.0
230
1.0
  0
LINE
  8
5
  6
CONTINUOUS
 62
   215
  5
1D1
 10
250.0553
 20
-47.1557
 30
0.0
 11
250.0154
 21
-47.0867
 31
0.0
  0
LINE
  8
5
  6
CONTINUOUS
 62
   215
  5
1D2
 10
250.5138
 20
-47.0798
 30
0.0
 11
250.589
 21
-47.0521
 31
0.0
  0
LINE
  8
5
  6
CONTINUOUS
 62
   215
  5
1D3
 10
250.4242
 20
-47.2941
 30
0.0
 11
250.4936
 21
-47.2541
 31
0.0
  0
LINE
  8
5
  6
CONTINUOUS
 62
   215
  5
1D4
 10
250.4936
 20
-47.2541
 30
0.0
 11
250.4245
 21
-47.2139
 31
0.0
  0
LINE
  8
5
  6
CONTINUOUS
 62
   215
  5
1D5
 10
250.4245
 20
-47.2139
 30
0.0
 11
250.4242
 21
-47.2941
 31
0.0
  0
LINE
  8
5
  6
CONTINUOUS
 62
   215
  5
1D6
 10
250.0113
 20
-47.5668
 30
0.0
 11
250.0915
 21
-47.5668
 31
0.0
  0
LINE
  8
5
  6
CONTINUOUS
 62
   215
  5
1D7
 10
251.1542
 20
-47.5426
 30
0.0
 11
251.1027
 21
-47.5065
 31
0.0
  0
LINE
  8
5
  6
CONTINUOUS
 62
   215
  5
1D8
 10
251.1027
 20
-47.5065
 30
0.0
 11
251.0992
 21
-47.5446
 31
0.0
  0
LINE
  8
5
  6
CONTINUOUS
 62
   215
  5
1D9
 10
250.5069
 20
-47.5342
 30
0.0
 11
250.5471
 21
-47.4648
 31
0.0
  0
LINE
  8
5
  6
CONTINUOUS
 62
   215
  5
1DA
 10
250.5471
 20
-47.4648
 30
0.0
 11
250.4671
 21
-47.4648
 31
0.0
  0
LINE
  8
5
  6
CONTINUOUS
 62
   215
  5
1DB
 10
250.4671
 20
-47.4648
 30
0.0
 11
250.5069
 21
-47.5342
 31
0.0
  0
LINE
  8
5
  6
CONTINUOUS
 62
   215
  5
1DC
 10
250.589
 20
-47.0521
 30
0.0
 11
250.5843
 21
-47.0484
 31
0.0
  0
LINE
  8
5
  6
CONTINUOUS
 62
   215
  5
1DD
 10
250.5193
 20
-47.0484
 30
0.0
 11
250.5138
 21
-47.0798
 31
0.0
  0
LINE
  8
5
  6
CONTINUOUS
 62
   215
  5
1DE
 10
250.0915
 20
-47.5668
 30
0.0
 11
250.0685
 21
-47.5271
 31
0.0
  0
LINE
  8
5
  6
CONTINUOUS
 62
   215
  5
1DF
 10
250.0346
 20
-47.5271
 30
0.0
 11
250.0113
 21
-47.5668
 31
0.0
  0
LINE
  8
5
  6
CONTINUOUS
 62
   215
  5
1E0
 10
251.7534
 20
-47.6309
 30
0.0
 11
251.7808
 21
-47.6309
 31
0.0
  0
LINE
  8
5
  6
CONTINUOUS
 62
   215
  5
1E1
 10
251.7808
 20
-47.584
 30
0.0
 11
251.7534
 21
-47.6309
 31
0.0
  0
LINE
  8
5
  6
CONTINUOUS
 62
   215
  5
1E2
 10
250.0025
 20
-47.1557
 30
0.0
 11
250.0553
 21
-47.1557
 31
0.0
  0
LINE
  8
5
  6
CONTINUOUS
 62
   215
  5
1E3
 10
250.0154
 20
-47.0867
 30
0.0
 11
250.0025
 21
-47.1088
 31
0.0
  0
CIRCLE
  8
5
  6
CONTINUOUS
 62
   215
  5
1E4
 10
250.279896
 20
-47.275719
 30
0.000006
 40
0.004446
210
0.0
220
0.0
230
1.0
  0
CIRCLE
  8
5
  6
CONTINUOUS
 62
   215
  5
1E5
 10
250.831632
 20
-47.54386
 30
0.000006
 40
0.004446
210
0.0
220
0.0
230
1.0
  0
CIRCLE
  8
5
  6
CONTINUOUS
 62
   215
  5
1E6
 10
251.68672
 20
-47.486704
 30
0.000006
 40
0.004446
210
0.0
220
0.0
230
1.0
  0
LINE
  8
5
  6
CONTINUOUS
 62
   215
  5
1E7
 10
250.5101
 20
-46.0976
 30
0.0
 11
250.5502
 21
-46.0281
 31
0.0
  0
LINE
  8
5
  6
CONTINUOUS
 62
   215
  5
1E8
 10
250.5502
 20
-46.0281
 30
0.0
 11
250.4703
 21
-46.0281
 31
0.0
  0
LINE
  8
5
  6
CONTINUOUS
 62
   215
  5
1E9
 10
250.4703
 20
-46.0281
 30
0.0
 11
250.5101
 21
-46.0976
 31
0.0
  0
LINE
  8
5
  6
CONTINUOUS
 62
   215
  5
1EA
 10
251.1449
 20
-46.1033
 30
0.0
 11
251.2143
 21
-46.0633
 31
0.0
  0
LINE
  8
5
  6
CONTINUOUS
 62
   215
  5
1EB
 10
251.2143
 20
-46.0633
 30
0.0
 11
251.1452
 21
-46.0232
 31
0.0
  0
LINE
  8
5
  6
CONTINUOUS
 62
   215
  5
1EC
 10
251.1452
 20
-46.0232
 30
0.0
 11
251.1449
 21
-46.1033
 31
0.0
  0
LINE
  8
5
  6
CONTINUOUS
 62
   215
  5
1ED
 10
251.5125
 20
-46.8617
 30
0.0
 11
251.5818
 21
-46.8218
 31
0.0
  0
LINE
  8
5
  6
CONTINUOUS
 62
   215
  5
1EE
 10
251.5818
 20
-46.8218
 30
0.0
 11
251.513
 21
-46.7817
 31
0.0
  0
LINE
  8
5
  6
CONTINUOUS
 62
   215
  5
1EF
 10
251.513
 20
-46.7817
 30
0.0
 11
251.5125
 21
-46.8617
 31
0.0
  0
LINE
  8
5
  6
CONTINUOUS
 62
   215
  5
1F0
 10
251.1292
 20
-46.5887
 30
0.0
 11
251.2092
 21
-46.5887
 31
0.0
  0
LINE
  8
5
  6
CONTINUOUS
 62
   215
  5
1F1
 10
251.2092
 20
-46.5887
 30
0.0
 11
251.1693
 21
-46.5196
 31
0.0
  0
LINE
  8
5
  6
CONTINUOUS
 62
   215
  5
1F2
 10
251.1693
 20
-46.5196
 30
0.0
 11
251.1292
 21
-46.5887
 31
0.0
  0
LINE
  8
5
  6
CONTINUOUS
 62
   215
  5
1F3
 10
250.853
 20
-46.8619
 30
0.0
 11
250.8736
 21
-46.7845
 31
0.0
  0
LINE
  8
5
  6
CONTINUOUS
 62
   215
  5
1F4
 10
250.8736
 20
-46.7845
 30
0.0
 11
250.7965
 21
-46.805
 31
0.0
  0
LINE
  8
5
  6
CONTINUOUS
 62
   215
  5
1F5
 10
250.7965
 20
-46.805
 30
0.0
 11
250.853
 21
-46.8619
 31
0.0
  0
LINE
  8
5
  6
CONTINUOUS
 62
   215
  5
1F6
 10
250.7144
 20
-46.4607
 30
0.0
 11
250.7896
 21
-46.4333
 31
0.0
  0
LINE
  8
5
  6
CONTINUOUS
 62
   215
  5
1F7
 10
250.7896
 20
-46.4333
 30
0.0
 11
250.7286
 21
-46.3822
 31
0.0
  0
LINE
  8
5
  6
CONTINUOUS
 62
   215
  5
1F8
 10
250.7286
 20
-46.3822
 30
0.0
 11
250.7144
 21
-46.4607
 31
0.0
  0
LINE
  8
5
  6
CONTINUOUS
 62
   215
  5
1F9
 10
250.363
 20
-46.6419
 30
0.0
 11
250.3836
 21
-46.5645
 31
0.0
  0
LINE
  8
5
  6
CONTINUOUS
 62
   215
  5
1FA
 10
250.3836
 20
-46.5645
 30
0.0
 11
250.3064
 21
-46.5853
 31
0.0
  0
LINE
  8
5
  6
CONTINUOUS
 62
   215
  5
1FB
 10
250.3064
 20
-46.5853
 30
0.0
 11
250.363
 21
-46.6419
 31
0.0
  0
LINE
  8
5
  6
CONTINUOUS
 62
   215
  5
1FC
 10
250.051
 20
-46.9084
 30
0.0
 11
250.1312
 21
-46.9084
 31
0.0
  0
LINE
  8
5
  6
CONTINUOUS
 62
   215
  5
1FD
 10
250.1312
 20
-46.9084
 30
0.0
 11
250.0913
 21
-46.8393
 31
0.0
  0
LINE
  8
5
  6
CONTINUOUS
 62
   215
  5
1FE
 10
250.0913
 20
-46.8393
 30
0.0
 11
250.051
 21
-46.9084
 31
0.0
  0
LINE
  8
5
  6
CONTINUOUS
 62
   215
  5
1FF
 10
252.3816
 20
-46.3002
 30
0.0
 11
252.398
 21
-46.2909
 31
0.0
  0
LINE
  8
5
  6
CONTINUOUS
 62
   215
  5
200
 10
251.7913
 20
-46.885
 30
0.0
 11
251.7754
 21
-46.8758
 31
0.0
  0
LINE
  8
5
  6
CONTINUOUS
 62
   215
  5
201
 10
250.0685
 20
-47.5271
 30
0.0
 11
250.0515
 21
-47.4977
 31
0.0
  0
LINE
  8
5
  6
CONTINUOUS
 62
   215
  5
202
 10
250.0515
 20
-47.4977
 30
0.0
 11
250.0346
 21
-47.5271
 31
0.0
  0
LINE
  8
5
  6
CONTINUOUS
 62
   215
  5
203
 10
250.5843
 20
-47.0484
 30
0.0
 11
250.528
 21
-47.0011
 31
0.0
  0
LINE
  8
5
  6
CONTINUOUS
 62
   215
  5
204
 10
250.528
 20
-47.0011
 30
0.0
 11
250.5193
 21
-47.0484
 31
0.0
  0
LINE
  8
5
  6
CONTINUOUS
 62
   215
  5
205
 10
250.5843
 20
-47.0484
 30
0.0
 11
250.528
 21
-47.0011
 31
0.0
  0
LINE
  8
5
  6
CONTINUOUS
 62
   215
  5
206
 10
250.528
 20
-47.0011
 30
0.0
 11
250.5193
 21
-47.0484
 31
0.0
  0
LINE
  8
5
  6
CONTINUOUS
 62
   215
  5
207
 10
250.0025
 20
-46.343
 30
0.0
 11
250.0555
 21
-46.3122
 31
0.0
  0
LINE
  8
5
  6
CONTINUOUS
 62
   215
  5
208
 10
250.0555
 20
-46.3122
 30
0.0
 11
250.0025
 21
-46.2815
 31
0.0
  0
CIRCLE
  8
5
  6
CONTINUOUS
 62
   215
  5
209
 10
250.264596
 20
-46.386605
 30
0.000006
 40
0.004446
210
0.0
220
0.0
230
1.0
  0
CIRCLE
  8
5
  6
CONTINUOUS
 62
   215
  5
20A
 10
250.594092
 20
-46.769884
 30
0.000006
 40
0.004446
210
0.0
220
0.0
230
1.0
  0
CIRCLE
  8
5
  6
CONTINUOUS
 62
   215
  5
20B
 10
250.272323
 20
-46.938341
 30
0.000006
 40
0.004446
210
0.0
220
0.0
230
1.0
  0
CIRCLE
  8
5
  6
CONTINUOUS
 62
   215
  5
20C
 10
250.142039
 20
-46.624145
 30
0.000006
 40
0.004446
210
0.0
220
0.0
230
1.0
  0
CIRCLE
  8
5
  6
CONTINUOUS
 62
   215
  5
20D
 10
251.72832
 20
-46.716101
 30
0.000006
 40
0.004446
210
0.0
220
0.0
230
1.0
  0
CIRCLE
  8
5
  6
CONTINUOUS
 62
   215
  5
20E
 10
251.322168
 20
-46.854112
 30
0.000006
 40
0.004446
210
0.0
220
0.0
230
1.0
  0
CIRCLE
  8
5
  6
CONTINUOUS
 62
   215
  5
20F
 10
250.977371
 20
-46.969096
 30
0.000006
 40
0.004446
210
0.0
220
0.0
230
1.0
  0
CIRCLE
  8
5
  6
CONTINUOUS
 62
   215
  5
210
 10
250.817743
 20
-46.602788
 30
0.000006
 40
0.004446
210
0.0
220
0.0
230
1.0
  0
CIRCLE
  8
5
  6
CONTINUOUS
 62
   215
  5
211
 10
251.483052
 20
-46.103164
 30
0.000006
 40
0.004446
210
0.0
220
0.0
230
1.0
  0
CIRCLE
  8
5
  6
CONTINUOUS
 62
   215
  5
212
 10
250.655448
 20
-46.19512
 30
0.000006
 40
0.004446
210
0.0
220
0.0
230
1.0
  0
CIRCLE
  8
5
  6
CONTINUOUS
 62
   215
  5
213
 10
251.735893
 20
-46.991969
 30
0.000006
 40
0.004446
210
0.0
220
0.0
230
1.0
  0
CIRCLE
  8
5
  6
CONTINUOUS
 62
   215
  5
214
 10
250.203395
 20
-46.133764
 30
0.000006
 40
0.004446
210
0.0
220
0.0
230
1.0
  0
LINE
  8
5
  6
CONTINUOUS
 62
   215
  5
215
 10
251.8336
 20
-47.6309
 30
0.0
 11
251.7937
 21
-47.5619
 31
0.0
  0
LINE
  8
5
  6
CONTINUOUS
 62
   215
  5
216
 10
252.3684
 20
-47.0798
 30
0.0
 11
252.4436
 21
-47.0521
 31
0.0
  0
LINE
  8
5
  6
CONTINUOUS
 62
   215
  5
217
 10
252.629
 20
-47.2421
 30
0.0
 11
252.6984
 21
-47.2021
 31
0.0
  0
LINE
  8
5
  6
CONTINUOUS
 62
   215
  5
218
 10
252.6984
 20
-47.2021
 30
0.0
 11
252.6293
 21
-47.1619
 31
0.0
  0
LINE
  8
5
  6
CONTINUOUS
 62
   215
  5
219
 10
252.6293
 20
-47.1619
 30
0.0
 11
252.629
 21
-47.2421
 31
0.0
  0
LINE
  8
5
  6
CONTINUOUS
 62
   215
  5
21A
 10
252.3818
 20
-47.4991
 30
0.0
 11
252.4017
 21
-47.4648
 31
0.0
  0
LINE
  8
5
  6
CONTINUOUS
 62
   215
  5
21B
 10
252.4017
 20
-47.4648
 30
0.0
 11
252.3217
 21
-47.4648
 31
0.0
  0
LINE
  8
5
  6
CONTINUOUS
 62
   215
  5
21C
 10
252.3217
 20
-47.4648
 30
0.0
 11
252.3422
 21
-47.5005
 31
0.0
  0
LINE
  8
5
  6
CONTINUOUS
 62
   215
  5
21D
 10
252.4436
 20
-47.0521
 30
0.0
 11
252.4389
 21
-47.0484
 31
0.0
  0
LINE
  8
5
  6
CONTINUOUS
 62
   215
  5
21E
 10
252.3739
 20
-47.0484
 30
0.0
 11
252.3684
 21
-47.0798
 31
0.0
  0
LINE
  8
5
  6
CONTINUOUS
 62
   215
  5
21F
 10
251.7808
 20
-47.6309
 30
0.0
 11
251.8336
 21
-47.6309
 31
0.0
  0
LINE
  8
5
  6
CONTINUOUS
 62
   215
  5
220
 10
251.7937
 20
-47.5619
 30
0.0
 11
251.7808
 21
-47.584
 31
0.0
  0
CIRCLE
  8
5
  6
CONTINUOUS
 62
   215
  5
221
 10
252.134472
 20
-47.275719
 30
0.000006
 40
0.004446
210
0.0
220
0.0
230
1.0
  0
CIRCLE
  8
5
  6
CONTINUOUS
 62
   215
  5
222
 10
252.525324
 20
-47.168463
 30
0.000006
 40
0.004446
210
0.0
220
0.0
230
1.0
  0
LINE
  8
5
  6
CONTINUOUS
 62
   215
  5
223
 10
252.3647
 20
-46.0976
 30
0.0
 11
252.4048
 21
-46.0281
 31
0.0
  0
LINE
  8
5
  6
CONTINUOUS
 62
   215
  5
224
 10
252.4048
 20
-46.0281
 30
0.0
 11
252.3248
 21
-46.0281
 31
0.0
  0
LINE
  8
5
  6
CONTINUOUS
 62
   215
  5
225
 10
252.3248
 20
-46.0281
 30
0.0
 11
252.3647
 21
-46.0976
 31
0.0
  0
LINE
  8
5
  6
CONTINUOUS
 62
   215
  5
226
 10
252.7076
 20
-46.8619
 30
0.0
 11
252.7282
 21
-46.7845
 31
0.0
  0
LINE
  8
5
  6
CONTINUOUS
 62
   215
  5
227
 10
252.7282
 20
-46.7845
 30
0.0
 11
252.6511
 21
-46.805
 31
0.0
  0
LINE
  8
5
  6
CONTINUOUS
 62
   215
  5
228
 10
252.6511
 20
-46.805
 30
0.0
 11
252.7076
 21
-46.8619
 31
0.0
  0
LINE
  8
5
  6
CONTINUOUS
 62
   215
  5
229
 10
252.569
 20
-46.4607
 30
0.0
 11
252.6442
 21
-46.4333
 31
0.0
  0
LINE
  8
5
  6
CONTINUOUS
 62
   215
  5
22A
 10
252.6442
 20
-46.4333
 30
0.0
 11
252.5832
 21
-46.3822
 31
0.0
  0
LINE
  8
5
  6
CONTINUOUS
 62
   215
  5
22B
 10
252.5832
 20
-46.3822
 30
0.0
 11
252.569
 21
-46.4607
 31
0.0
  0
LINE
  8
5
  6
CONTINUOUS
 62
   215
  5
22C
 10
252.2176
 20
-46.6419
 30
0.0
 11
252.2381
 21
-46.5645
 31
0.0
  0
LINE
  8
5
  6
CONTINUOUS
 62
   215
  5
22D
 10
252.2381
 20
-46.5645
 30
0.0
 11
252.161
 21
-46.5853
 31
0.0
  0
LINE
  8
5
  6
CONTINUOUS
 62
   215
  5
22E
 10
252.161
 20
-46.5853
 30
0.0
 11
252.2176
 21
-46.6419
 31
0.0
  0
LINE
  8
5
  6
CONTINUOUS
 62
   215
  5
22F
 10
251.9056
 20
-46.9084
 30
0.0
 11
251.9858
 21
-46.9084
 31
0.0
  0
LINE
  8
5
  6
CONTINUOUS
 62
   215
  5
230
 10
251.9858
 20
-46.9084
 30
0.0
 11
251.9459
 21
-46.8393
 31
0.0
  0
LINE
  8
5
  6
CONTINUOUS
 62
   215
  5
231
 10
251.9459
 20
-46.8393
 30
0.0
 11
251.9056
 21
-46.9084
 31
0.0
  0
LINE
  8
5
  6
CONTINUOUS
 62
   215
  5
232
 10
252.4389
 20
-47.0484
 30
0.0
 11
252.3826
 21
-47.0011
 31
0.0
  0
LINE
  8
5
  6
CONTINUOUS
 62
   215
  5
233
 10
252.3826
 20
-47.0011
 30
0.0
 11
252.3739
 21
-47.0484
 31
0.0
  0
LINE
  8
5
  6
CONTINUOUS
 62
   215
  5
234
 10
252.4389
 20
-47.0484
 30
0.0
 11
252.3826
 21
-47.0011
 31
0.0
  0
LINE
  8
5
  6
CONTINUOUS
 62
   215
  5
235
 10
252.3826
 20
-47.0011
 30
0.0
 11
252.3739
 21
-47.0484
 31
0.0
  0
CIRCLE
  8
5
  6
CONTINUOUS
 62
   215
  5
236
 10
252.445072
 20
-46.560005
 30
0.000006
 40
0.004446
210
0.0
220
0.0
230
1.0
  0
CIRCLE
  8
5
  6
CONTINUOUS
 62
   215
  5
237
 10
252.448668
 20
-46.769884
 30
0.000006
 40
0.004446
210
0.0
220
0.0
230
1.0
  0
CIRCLE
  8
5
  6
CONTINUOUS
 62
   215
  5
238
 10
252.126899
 20
-46.938341
 30
0.000006
 40
0.004446
210
0.0
220
0.0
230
1.0
  0
CIRCLE
  8
5
  6
CONTINUOUS
 62
   215
  5
239
 10
251.996615
 20
-46.624145
 30
0.000006
 40
0.004446
210
0.0
220
0.0
230
1.0
  0
CIRCLE
  8
5
  6
CONTINUOUS
 62
   215
  5
23A
 10
252.831947
 20
-46.969096
 30
0.000006
 40
0.004446
210
0.0
220
0.0
230
1.0
  0
CIRCLE
  8
5
  6
CONTINUOUS
 62
   215
  5
23B
 10
252.510024
 20
-46.19512
 30
0.000006
 40
0.004446
210
0.0
220
0.0
230
1.0
  0
CIRCLE
  8
5
  6
CONTINUOUS
 62
   215
  5
23C
 10
252.057971
 20
-46.133764
 30
0.000006
 40
0.004446
210
0.0
220
0.0
230
1.0
  0
LINE
  8
1
  6
CONTINUOUS
 62
   140
  5
23D
 10
240.4152
 20
-51.1385
 30
0.0
 11
240.4152
 21
-52.9473
 31
0.0
  0
LINE
  8
1
  6
CONTINUOUS
 62
   140
  5
23E
 10
242.5572
 20
-51.0195
 30
0.0
 11
242.5572
 21
-52.9473
 31
0.0
  0
LINE
  8
1
  6
CONTINUOUS
 62
   140
  5
23F
 10
240.4152
 20
-52.9473
 30
0.0
 11
242.5572
 21
-52.9473
 31
0.0
  0
LINE
  8
1
  6
CONTINUOUS
 62
   140
  5
240
 10
242.5572
 20
-52.9473
 30
0.0
 11
248.6562
 21
-52.9473
 31
0.0
  0
LINE
  8
1
  6
CONTINUOUS
 62
   140
  5
241
 10
246.1272
 20
-52.7418
 30
0.0
 11
248.6353
 21
-52.7418
 31
0.0
  0
LINE
  8
1
  6
CONTINUOUS
 62
   140
  5
242
 10
242.5572
 20
-52.139
 30
0.0
 11
248.6353
 21
-52.139
 31
0.0
  0
LINE
  8
1
  6
CONTINUOUS
 62
   140
  5
243
 10
240.8008
 20
-51.0195
 30
0.0
 11
248.6769
 21
-51.0195
 31
0.0
  0
LINE
  8
1
  6
CONTINUOUS
 62
     7
  5
244
 10
242.0812
 20
-49.7106
 30
0.0
 11
242.0812
 21
-50.9698
 31
0.0
  0
LINE
  8
1
  6
CONTINUOUS
 62
     7
  5
245
 10
241.6956
 20
-50.1062
 30
0.0
 11
241.6956
 21
-50.96
 31
0.0
  0
LINE
  8
1
  6
CONTINUOUS
 62
     7
  5
246
 10
241.4053
 20
-51.4067
 30
0.0
 11
240.8201
 21
-51.4067
 31
0.0
  0
LINE
  8
1
  6
CONTINUOUS
 62
     7
  5
247
 10
242.9272
 20
-51.5917
 30
0.0
 11
242.3833
 21
-51.5917
 31
0.0
  0
LINE
  8
1
  6
CONTINUOUS
 62
     7
  5
248
 10
241.4053
 20
-51.7768
 30
0.0
 11
240.8201
 21
-51.7768
 31
0.0
  0
LINE
  8
1
  6
CONTINUOUS
 62
     7
  5
249
 10
242.9272
 20
-51.9657
 30
0.0
 11
242.3833
 21
-51.9657
 31
0.0
  0
LINE
  8
1
  6
CONTINUOUS
 62
   140
  5
24A
 10
238.4904
 20
-52.9473
 30
0.0
 11
240.2849
 21
-52.9473
 31
0.0
  0
LINE
  8
1
  6
CONTINUOUS
 62
     7
  5
24B
 10
242.0812
 20
-49.7869
 30
0.0
 11
240.4152
 21
-49.7869
 31
0.0
  0
LINE
  8
1
  6
CONTINUOUS
 62
     7
  5
24C
 10
240.4152
 20
-49.7106
 30
0.0
 11
240.4152
 21
-51.0294
 31
0.0
  0
INSERT
  8
1
  6
CONTINUOUS
 62
     7
  5
251
  2
ARROW2
 10
240.4152
 20
-49.7869
 30
0.0
 41
0.623349
 42
0.623349
 50
180.0
 43
1.026091
210
0.0
220
0.0
230
1.0
  0
INSERT
  8
1
  6
CONTINUOUS
 62
     7
  5
252
  2
ARROW2
 10
241.6956
 20
-50.1409
 30
0.0
 41
0.623349
 42
0.623349
 50
180.0
 43
1.026091
210
0.0
220
0.0
230
1.0
  0
INSERT
  8
1
  6
CONTINUOUS
 62
     7
  5
253
  2
ARROW2
 10
242.0812
 20
-50.1409
 30
0.0
 41
0.623349
 42
0.623349
 43
1.026091
210
0.0
220
0.0
230
1.0
  0
INSERT
  8
1
  6
CONTINUOUS
 62
     7
  5
254
  2
ARROW2
 10
242.0812
 20
-49.7869
 30
0.0
 41
0.623349
 42
0.623349
 43
1.026091
210
0.0
220
0.0
230
1.0
  0
LINE
  8
1
  6
CONTINUOUS
 62
     7
  5
255
 10
241.6956
 20
-50.1409
 30
0.0
 11
242.0812
 21
-50.1409
 31
0.0
  0
TEXT
  8
1
  6
CONTINUOUS
 62
     7
  5
256
 10
239.9137
 20
-52.3701
 30
0.0
 40
0.1272
  1
1'-9"
 50
90.0
  7
txt
 11
239.8501
 21
-52.3701
 31
0.0
210
0.0
220
0.0
230
1.0
 73
     2
  0
INSERT
  8
1
  6
CONTINUOUS
 62
     7
  5
257
  2
ARROW2
 10
239.993
 20
-51.5911
 30
0.0
 41
0.515167
 42
0.515167
 50
90.0
 43
0.848008
210
0.0
220
0.0
230
1.0
  0
INSERT
  8
1
  6
CONTINUOUS
 62
     7
  5
258
  2
ARROW2
 10
239.993
 20
-52.9473
 30
0.0
 41
0.515167
 42
0.515167
 50
270.0
 43
0.848008
210
0.0
220
0.0
230
1.0
  0
LINE
  8
1
  6
CONTINUOUS
 62
     7
  5
259
 10
242.9272
 20
-51.2177
 30
0.0
 11
242.3833
 21
-51.2177
 31
0.0
  0
LINE
  8
1
  6
CONTINUOUS
 62
     7
  5
25A
 10
240.8617
 20
-51.4067
 30
0.0
 11
240.8617
 21
-51.7768
 31
0.0
  0
POINT
  8
1
  6
CONTINUOUS
 62
     7
  5
25B
 10
243.0036
 20
-51.0944
 30
0.0
  0
INSERT
  8
1
  6
CONTINUOUS
 62
     7
  5
25C
  2
ARROW2
 10
240.8617
 20
-51.4067
 30
0.0
 41
0.515167
 42
0.515167
 50
90.0
 43
0.848008
210
0.0
220
0.0
230
1.0
  0
INSERT
  8
1
  6
CONTINUOUS
 62
     7
  5
25D
  2
ARROW2
 10
240.8617
 20
-51.7768
 30
0.0
 41
0.515167
 42
0.515167
 50
270.0
 43
0.848008
210
0.0
220
0.0
230
1.0
  0
LINE
  8
1
  6
CONTINUOUS
 62
     7
  5
25E
 10
242.8946
 20
-51.2177
 30
0.0
 11
242.8946
 21
-51.5917
 31
0.0
  0
INSERT
  8
1
  6
CONTINUOUS
 62
     7
  5
25F
  2
ARROW2
 10
242.8946
 20
-51.2177
 30
0.0
 41
0.623349
 42
0.623349
 50
90.0
 43
1.026091
210
0.0
220
0.0
230
1.0
  0
INSERT
  8
1
  6
CONTINUOUS
 62
     7
  5
260
  2
ARROW2
 10
242.8946
 20
-51.5917
 30
0.0
 41
0.623349
 42
0.623349
 50
270.0
 43
1.026091
210
0.0
220
0.0
230
1.0
  0
LINE
  8
1
  6
CONTINUOUS
 62
     7
  5
261
 10
242.8946
 20
-51.5917
 30
0.0
 11
242.8946
 21
-51.9657
 31
0.0
  0
INSERT
  8
1
  6
CONTINUOUS
 62
     7
  5
262
  2
ARROW2
 10
242.8946
 20
-51.5874
 30
0.0
 41
0.623349
 42
0.623349
 50
90.0
 43
1.026091
210
0.0
220
0.0
230
1.0
  0
INSERT
  8
1
  6
CONTINUOUS
 62
     7
  5
263
  2
ARROW2
 10
242.8946
 20
-51.9657
 30
0.0
 41
0.623349
 42
0.623349
 50
270.0
 43
1.026091
210
0.0
220
0.0
230
1.0
  0
TEXT
  8
1
  6
CONTINUOUS
 62
     7
  5
264
 10
237.546
 20
-52.8178
 30
0.0
 40
0.1272
  1
PAVEMENT
  7
txt
 11
237.546
 21
-52.7542
 31
0.0
210
0.0
220
0.0
230
1.0
 73
     2
  0
LINE
  8
1
  6
CONTINUOUS
 62
     7
  5
265
 10
238.6245
 20
-52.7546
 30
0.0
 11
238.7999
 21
-52.9461
 31
0.0
  0
LINE
  8
1
  6
CONTINUOUS
 62
     7
  5
266
 10
238.6245
 20
-52.7546
 30
0.0
 11
238.5244
 21
-52.7546
 31
0.0
  0
INSERT
  8
1
  6
CONTINUOUS
 62
     7
  5
267
  2
ARROW2
 10
238.7999
 20
-52.9461
 30
0.0
 41
0.515164
 42
0.515164
 50
312.50787
 43
0.848008
210
0.0
220
0.0
230
1.0
  0
LINE
  8
5
  6
CONTINUOUS
 62
   215
  5
268
 10
240.4938
 20
-51.3141
 30
0.0
 11
240.5739
 21
-51.3141
 31
0.0
  0
LINE
  8
5
  6
CONTINUOUS
 62
   215
  5
269
 10
241.4955
 20
-52.0829
 30
0.0
 11
241.5648
 21
-52.0428
 31
0.0
  0
LINE
  8
5
  6
CONTINUOUS
 62
   215
  5
26A
 10
241.5648
 20
-52.0428
 30
0.0
 11
241.4959
 21
-52.0027
 31
0.0
  0
LINE
  8
5
  6
CONTINUOUS
 62
   215
  5
26B
 10
241.4959
 20
-52.0027
 30
0.0
 11
241.4955
 21
-52.0829
 31
0.0
  0
LINE
  8
5
  6
CONTINUOUS
 62
   215
  5
26C
 10
240.7043
 20
-52.4334
 30
0.0
 11
240.7769
 21
-52.3997
 31
0.0
  0
LINE
  8
5
  6
CONTINUOUS
 62
   215
  5
26D
 10
240.7769
 20
-52.3997
 30
0.0
 11
240.7115
 21
-52.3538
 31
0.0
  0
LINE
  8
5
  6
CONTINUOUS
 62
   215
  5
26E
 10
240.7115
 20
-52.3538
 30
0.0
 11
240.7043
 21
-52.4334
 31
0.0
  0
LINE
  8
5
  6
CONTINUOUS
 62
   215
  5
26F
 10
241.1248
 20
-52.7808
 30
0.0
 11
241.1942
 21
-52.7409
 31
0.0
  0
LINE
  8
5
  6
CONTINUOUS
 62
   215
  5
270
 10
241.1942
 20
-52.7409
 30
0.0
 11
241.1252
 21
-52.7008
 31
0.0
  0
LINE
  8
5
  6
CONTINUOUS
 62
   215
  5
271
 10
241.1252
 20
-52.7008
 30
0.0
 11
241.1248
 21
-52.7808
 31
0.0
  0
LINE
  8
5
  6
CONTINUOUS
 62
   215
  5
272
 10
241.4648
 20
-52.4567
 30
0.0
 11
241.5435
 21
-52.4706
 31
0.0
  0
LINE
  8
5
  6
CONTINUOUS
 62
   215
  5
273
 10
241.5435
 20
-52.4706
 30
0.0
 11
241.5161
 21
-52.3953
 31
0.0
  0
LINE
  8
5
  6
CONTINUOUS
 62
   215
  5
274
 10
241.5161
 20
-52.3953
 30
0.0
 11
241.4648
 21
-52.4567
 31
0.0
  0
LINE
  8
5
  6
CONTINUOUS
 62
   215
  5
275
 10
241.8315
 20
-52.8145
 30
0.0
 11
241.8312
 21
-52.8946
 31
0.0
  0
LINE
  8
5
  6
CONTINUOUS
 62
   215
  5
276
 10
241.4948
 20
-52.9473
 30
0.0
 11
241.486
 21
-52.932
 31
0.0
  0
LINE
  8
5
  6
CONTINUOUS
 62
   215
  5
277
 10
241.486
 20
-52.932
 30
0.0
 11
241.4771
 21
-52.9473
 31
0.0
  0
LINE
  8
5
  6
CONTINUOUS
 62
   215
  5
278
 10
241.8315
 20
-52.8145
 30
0.0
 11
241.8312
 21
-52.8946
 31
0.0
  0
LINE
  8
5
  6
CONTINUOUS
 62
   215
  5
279
 10
240.5739
 20
-51.3141
 30
0.0
 11
240.551
 21
-51.2743
 31
0.0
  0
LINE
  8
5
  6
CONTINUOUS
 62
   215
  5
27A
 10
240.517
 20
-51.2743
 30
0.0
 11
240.4938
 21
-51.3141
 31
0.0
  0
LINE
  8
5
  6
CONTINUOUS
 62
   215
  5
27B
 10
240.7174
 20
-51.2676
 30
0.0
 11
240.7445
 21
-51.2676
 31
0.0
  0
LINE
  8
5
  6
CONTINUOUS
 62
   215
  5
27C
 10
240.7445
 20
-51.2206
 30
0.0
 11
240.7174
 21
-51.2676
 31
0.0
  0
LINE
  8
5
  6
CONTINUOUS
 62
   215
  5
27D
 10
241.8312
 20
-52.8946
 30
0.0
 11
241.8473
 21
-52.8852
 31
0.0
  0
LINE
  8
5
  6
CONTINUOUS
 62
   215
  5
27E
 10
241.8473
 20
-52.8239
 30
0.0
 11
241.8315
 21
-52.8145
 31
0.0
  0
LINE
  8
5
  6
CONTINUOUS
 62
   215
  5
27F
 10
241.8312
 20
-52.8946
 30
0.0
 11
241.8473
 21
-52.8852
 31
0.0
  0
LINE
  8
5
  6
CONTINUOUS
 62
   215
  5
280
 10
241.8473
 20
-52.8239
 30
0.0
 11
241.8315
 21
-52.8145
 31
0.0
  0
CIRCLE
  8
5
  6
CONTINUOUS
 62
   215
  5
281
 10
241.557614
 20
-51.794819
 30
0.000006
 40
0.004446
210
0.0
220
0.0
230
1.0
  0
CIRCLE
  8
5
  6
CONTINUOUS
 62
   215
  5
282
 10
241.297198
 20
-52.859975
 30
0.000006
 40
0.004446
210
0.0
220
0.0
230
1.0
  0
CIRCLE
  8
5
  6
CONTINUOUS
 62
   215
  5
283
 10
241.695627
 20
-52.775746
 30
0.000006
 40
0.004446
210
0.0
220
0.0
230
1.0
  0
CIRCLE
  8
5
  6
CONTINUOUS
 62
   215
  5
284
 10
241.473384
 20
-52.64546
 30
0.000006
 40
0.004446
210
0.0
220
0.0
230
1.0
  0
CIRCLE
  8
5
  6
CONTINUOUS
 62
   215
  5
285
 10
240.915698
 20
-52.55979
 30
0.000006
 40
0.004446
210
0.0
220
0.0
230
1.0
  0
CIRCLE
  8
5
  6
CONTINUOUS
 62
   215
  5
286
 10
241.718654
 20
-52.139619
 30
0.000006
 40
0.004446
210
0.0
220
0.0
230
1.0
  0
CIRCLE
  8
5
  6
CONTINUOUS
 62
   215
  5
287
 10
240.714814
 20
-51.998706
 30
0.000006
 40
0.004446
210
0.0
220
0.0
230
1.0
  0
CIRCLE
  8
5
  6
CONTINUOUS
 62
   215
  5
288
 10
241.733955
 20
-52.476847
 30
0.000006
 40
0.004446
210
0.0
220
0.0
230
1.0
  0
LINE
  8
5
  6
CONTINUOUS
 62
   215
  5
289
 10
241.8313
 20
-51.0145
 30
0.0
 11
241.8312
 21
-51.04
 31
0.0
  0
LINE
  8
5
  6
CONTINUOUS
 62
   215
  5
28A
 10
241.4459
 20
-51.1466
 30
0.0
 11
241.5259
 21
-51.1466
 31
0.0
  0
LINE
  8
5
  6
CONTINUOUS
 62
   215
  5
28B
 10
241.5259
 20
-51.1466
 30
0.0
 11
241.486
 21
-51.0774
 31
0.0
  0
LINE
  8
5
  6
CONTINUOUS
 62
   215
  5
28C
 10
241.486
 20
-51.0774
 30
0.0
 11
241.4459
 21
-51.1466
 31
0.0
  0
LINE
  8
5
  6
CONTINUOUS
 62
   215
  5
28D
 10
240.5695
 20
-52.1113
 30
0.0
 11
240.6389
 21
-52.0715
 31
0.0
  0
LINE
  8
5
  6
CONTINUOUS
 62
   215
  5
28E
 10
240.6389
 20
-52.0715
 30
0.0
 11
240.57
 21
-52.0315
 31
0.0
  0
LINE
  8
5
  6
CONTINUOUS
 62
   215
  5
28F
 10
240.57
 20
-52.0315
 30
0.0
 11
240.5695
 21
-52.1113
 31
0.0
  0
LINE
  8
5
  6
CONTINUOUS
 62
   215
  5
290
 10
241.0153
 20
-51.1827
 30
0.0
 11
241.0953
 21
-51.1827
 31
0.0
  0
LINE
  8
5
  6
CONTINUOUS
 62
   215
  5
291
 10
241.0953
 20
-51.1827
 30
0.0
 11
241.0556
 21
-51.1135
 31
0.0
  0
LINE
  8
5
  6
CONTINUOUS
 62
   215
  5
292
 10
241.0556
 20
-51.1135
 30
0.0
 11
241.0153
 21
-51.1827
 31
0.0
  0
LINE
  8
5
  6
CONTINUOUS
 62
   215
  5
293
 10
241.8313
 20
-51.0145
 30
0.0
 11
241.8312
 21
-51.04
 31
0.0
  0
LINE
  8
5
  6
CONTINUOUS
 62
   215
  5
294
 10
241.8312
 20
-51.04
 30
0.0
 11
241.8473
 21
-51.0307
 31
0.0
  0
LINE
  8
5
  6
CONTINUOUS
 62
   215
  5
295
 10
241.8312
 20
-51.04
 30
0.0
 11
241.8473
 21
-51.0307
 31
0.0
  0
LINE
  8
5
  6
CONTINUOUS
 62
   215
  5
296
 10
240.551
 20
-51.2743
 30
0.0
 11
240.5339
 21
-51.2449
 31
0.0
  0
LINE
  8
5
  6
CONTINUOUS
 62
   215
  5
297
 10
240.5339
 20
-51.2449
 30
0.0
 11
240.517
 21
-51.2743
 31
0.0
  0
CIRCLE
  8
5
  6
CONTINUOUS
 62
   215
  5
298
 10
241.718654
 20
-51.403808
 30
0.000006
 40
0.004446
210
0.0
220
0.0
230
1.0
  0
CIRCLE
  8
5
  6
CONTINUOUS
 62
   215
  5
299
 10
241.312498
 20
-51.541821
 30
0.000006
 40
0.004446
210
0.0
220
0.0
230
1.0
  0
CIRCLE
  8
5
  6
CONTINUOUS
 62
   215
  5
29A
 10
241.726227
 20
-51.679679
 30
0.000006
 40
0.004446
210
0.0
220
0.0
230
1.0
  0
LINE
  8
5
  6
CONTINUOUS
 62
   215
  5
29B
 10
240.7973
 20
-51.2676
 30
0.0
 11
240.7575
 21
-51.1986
 31
0.0
  0
LINE
  8
5
  6
CONTINUOUS
 62
   215
  5
29C
 10
242.3587
 20
-51.7677
 30
0.0
 11
242.4339
 21
-51.7398
 31
0.0
  0
LINE
  8
5
  6
CONTINUOUS
 62
   215
  5
29D
 10
242.6193
 20
-51.9296
 30
0.0
 11
242.6886
 21
-51.8899
 31
0.0
  0
LINE
  8
5
  6
CONTINUOUS
 62
   215
  5
29E
 10
242.6886
 20
-51.8899
 30
0.0
 11
242.6196
 21
-51.8495
 31
0.0
  0
LINE
  8
5
  6
CONTINUOUS
 62
   215
  5
29F
 10
242.6196
 20
-51.8495
 30
0.0
 11
242.6193
 21
-51.9296
 31
0.0
  0
LINE
  8
5
  6
CONTINUOUS
 62
   215
  5
2A0
 10
243.3126
 20
-51.7238
 30
0.0
 11
243.3927
 21
-51.7238
 31
0.0
  0
LINE
  8
5
  6
CONTINUOUS
 62
   215
  5
2A1
 10
243.3501
 20
-52.0829
 30
0.0
 11
243.4194
 21
-52.0428
 31
0.0
  0
LINE
  8
5
  6
CONTINUOUS
 62
   215
  5
2A2
 10
243.4194
 20
-52.0428
 30
0.0
 11
243.3505
 21
-52.0027
 31
0.0
  0
LINE
  8
5
  6
CONTINUOUS
 62
   215
  5
2A3
 10
243.3505
 20
-52.0027
 30
0.0
 11
243.3501
 21
-52.0829
 31
0.0
  0
LINE
  8
5
  6
CONTINUOUS
 62
   215
  5
2A4
 10
242.9404
 20
-52.2738
 30
0.0
 11
243.0131
 21
-52.2401
 31
0.0
  0
LINE
  8
5
  6
CONTINUOUS
 62
   215
  5
2A5
 10
243.0131
 20
-52.2401
 30
0.0
 11
242.9477
 21
-52.1942
 31
0.0
  0
LINE
  8
5
  6
CONTINUOUS
 62
   215
  5
2A6
 10
242.9477
 20
-52.1942
 30
0.0
 11
242.9404
 21
-52.2738
 31
0.0
  0
LINE
  8
5
  6
CONTINUOUS
 62
   215
  5
2A7
 10
242.3518
 20
-52.2219
 30
0.0
 11
242.3921
 21
-52.1524
 31
0.0
  0
LINE
  8
5
  6
CONTINUOUS
 62
   215
  5
2A8
 10
242.3921
 20
-52.1524
 30
0.0
 11
242.3121
 21
-52.1524
 31
0.0
  0
LINE
  8
5
  6
CONTINUOUS
 62
   215
  5
2A9
 10
242.3121
 20
-52.1524
 30
0.0
 11
242.3518
 21
-52.2219
 31
0.0
  0
LINE
  8
5
  6
CONTINUOUS
 62
   215
  5
2AA
 10
241.1371
 20
-52.1425
 30
0.0
 11
241.2158
 21
-52.1564
 31
0.0
  0
LINE
  8
5
  6
CONTINUOUS
 62
   215
  5
2AB
 10
241.2158
 20
-52.1564
 30
0.0
 11
241.1887
 21
-52.0814
 31
0.0
  0
LINE
  8
5
  6
CONTINUOUS
 62
   215
  5
2AC
 10
241.1887
 20
-52.0814
 30
0.0
 11
241.1371
 21
-52.1425
 31
0.0
  0
LINE
  8
5
  6
CONTINUOUS
 62
   215
  5
2AD
 10
242.355
 20
-52.6398
 30
0.0
 11
242.3952
 21
-52.5706
 31
0.0
  0
LINE
  8
5
  6
CONTINUOUS
 62
   215
  5
2AE
 10
242.3952
 20
-52.5706
 30
0.0
 11
242.3152
 21
-52.5706
 31
0.0
  0
LINE
  8
5
  6
CONTINUOUS
 62
   215
  5
2AF
 10
242.3152
 20
-52.5706
 30
0.0
 11
242.355
 21
-52.6398
 31
0.0
  0
LINE
  8
5
  6
CONTINUOUS
 62
   215
  5
2B0
 10
242.6773
 20
-52.4885
 30
0.0
 11
242.7574
 21
-52.4885
 31
0.0
  0
LINE
  8
5
  6
CONTINUOUS
 62
   215
  5
2B1
 10
242.7574
 20
-52.4885
 30
0.0
 11
242.7174
 21
-52.4195
 31
0.0
  0
LINE
  8
5
  6
CONTINUOUS
 62
   215
  5
2B2
 10
242.7174
 20
-52.4195
 30
0.0
 11
242.6773
 21
-52.4885
 31
0.0
  0
LINE
  8
5
  6
CONTINUOUS
 62
   215
  5
2B3
 10
242.9795
 20
-52.7808
 30
0.0
 11
243.0488
 21
-52.7409
 31
0.0
  0
LINE
  8
5
  6
CONTINUOUS
 62
   215
  5
2B4
 10
243.0488
 20
-52.7409
 30
0.0
 11
242.9799
 21
-52.7008
 31
0.0
  0
LINE
  8
5
  6
CONTINUOUS
 62
   215
  5
2B5
 10
242.9799
 20
-52.7008
 30
0.0
 11
242.9795
 21
-52.7808
 31
0.0
  0
LINE
  8
5
  6
CONTINUOUS
 62
   215
  5
2B6
 10
243.3194
 20
-52.4567
 30
0.0
 11
243.3981
 21
-52.4706
 31
0.0
  0
LINE
  8
5
  6
CONTINUOUS
 62
   215
  5
2B7
 10
243.3981
 20
-52.4706
 30
0.0
 11
243.3708
 21
-52.3953
 31
0.0
  0
LINE
  8
5
  6
CONTINUOUS
 62
   215
  5
2B8
 10
243.3708
 20
-52.3953
 30
0.0
 11
243.3194
 21
-52.4567
 31
0.0
  0
LINE
  8
5
  6
CONTINUOUS
 62
   215
  5
2B9
 10
243.686
 20
-52.8145
 30
0.0
 11
243.6858
 21
-52.8946
 31
0.0
  0
LINE
  8
5
  6
CONTINUOUS
 62
   215
  5
2BA
 10
243.3495
 20
-52.9473
 30
0.0
 11
243.3406
 21
-52.932
 31
0.0
  0
LINE
  8
5
  6
CONTINUOUS
 62
   215
  5
2BB
 10
243.3406
 20
-52.932
 30
0.0
 11
243.3317
 21
-52.9473
 31
0.0
  0
LINE
  8
5
  6
CONTINUOUS
 62
   215
  5
2BC
 10
242.6008
 20
-52.9473
 30
0.0
 11
242.5734
 21
-52.9244
 31
0.0
  0
LINE
  8
5
  6
CONTINUOUS
 62
   215
  5
2BD
 10
242.5734
 20
-52.9244
 30
0.0
 11
242.5693
 21
-52.9473
 31
0.0
  0
LINE
  8
5
  6
CONTINUOUS
 62
   215
  5
2BE
 10
243.686
 20
-52.8145
 30
0.0
 11
243.6858
 21
-52.8946
 31
0.0
  0
LINE
  8
5
  6
CONTINUOUS
 62
   215
  5
2BF
 10
242.4339
 20
-51.7398
 30
0.0
 11
242.4291
 21
-51.736
 31
0.0
  0
LINE
  8
5
  6
CONTINUOUS
 62
   215
  5
2C0
 10
242.3643
 20
-51.736
 30
0.0
 11
242.3587
 21
-51.7677
 31
0.0
  0
LINE
  8
5
  6
CONTINUOUS
 62
   215
  5
2C1
 10
243.3927
 20
-51.7238
 30
0.0
 11
243.3698
 21
-51.684
 31
0.0
  0
LINE
  8
5
  6
CONTINUOUS
 62
   215
  5
2C2
 10
243.3358
 20
-51.684
 30
0.0
 11
243.3126
 21
-51.7238
 31
0.0
  0
LINE
  8
5
  6
CONTINUOUS
 62
   215
  5
2C3
 10
243.6746
 20
-51.8435
 30
0.0
 11
243.7019
 21
-51.8435
 31
0.0
  0
LINE
  8
5
  6
CONTINUOUS
 62
   215
  5
2C4
 10
243.7019
 20
-51.7965
 30
0.0
 11
243.6746
 21
-51.8435
 31
0.0
  0
LINE
  8
5
  6
CONTINUOUS
 62
   215
  5
2C5
 10
243.6858
 20
-52.8946
 30
0.0
 11
243.7019
 21
-52.8852
 31
0.0
  0
LINE
  8
5
  6
CONTINUOUS
 62
   215
  5
2C6
 10
243.7019
 20
-52.8239
 30
0.0
 11
243.686
 21
-52.8145
 31
0.0
  0
LINE
  8
5
  6
CONTINUOUS
 62
   215
  5
2C7
 10
243.6858
 20
-52.8946
 30
0.0
 11
243.7019
 21
-52.8852
 31
0.0
  0
LINE
  8
5
  6
CONTINUOUS
 62
   215
  5
2C8
 10
243.7019
 20
-52.8239
 30
0.0
 11
243.686
 21
-52.8145
 31
0.0
  0
LINE
  8
5
  6
CONTINUOUS
 62
   215
  5
2C9
 10
240.7445
 20
-51.2676
 30
0.0
 11
240.7973
 21
-51.2676
 31
0.0
  0
LINE
  8
5
  6
CONTINUOUS
 62
   215
  5
2CA
 10
240.7575
 20
-51.1986
 30
0.0
 11
240.7445
 21
-51.2206
 31
0.0
  0
LINE
  8
5
  6
CONTINUOUS
 62
   215
  5
2CB
 10
241.8473
 20
-52.8852
 30
0.0
 11
241.9004
 21
-52.8544
 31
0.0
  0
LINE
  8
5
  6
CONTINUOUS
 62
   215
  5
2CC
 10
241.9004
 20
-52.8544
 30
0.0
 11
241.8473
 21
-52.8239
 31
0.0
  0
CIRCLE
  8
5
  6
CONTINUOUS
 62
   215
  5
2CD
 10
243.41221
 20
-51.794819
 30
0.000006
 40
0.004446
210
0.0
220
0.0
230
1.0
  0
CIRCLE
  8
5
  6
CONTINUOUS
 62
   215
  5
2CE
 10
242.124811
 20
-51.963433
 30
0.000006
 40
0.004446
210
0.0
220
0.0
230
1.0
  0
CIRCLE
  8
5
  6
CONTINUOUS
 62
   215
  5
2CF
 10
242.676553
 20
-52.231576
 30
0.000006
 40
0.004446
210
0.0
220
0.0
230
1.0
  0
CIRCLE
  8
5
  6
CONTINUOUS
 62
   215
  5
2D0
 10
242.178594
 20
-52.446246
 30
0.000006
 40
0.004446
210
0.0
220
0.0
230
1.0
  0
CIRCLE
  8
5
  6
CONTINUOUS
 62
   215
  5
2D1
 10
242.10951
 20
-52.928904
 30
0.000006
 40
0.004446
210
0.0
220
0.0
230
1.0
  0
CIRCLE
  8
5
  6
CONTINUOUS
 62
   215
  5
2D2
 10
243.151793
 20
-52.859975
 30
0.000006
 40
0.004446
210
0.0
220
0.0
230
1.0
  0
CIRCLE
  8
5
  6
CONTINUOUS
 62
   215
  5
2D3
 10
243.550222
 20
-52.775746
 30
0.000006
 40
0.004446
210
0.0
220
0.0
230
1.0
  0
CIRCLE
  8
5
  6
CONTINUOUS
 62
   215
  5
2D4
 10
243.32798
 20
-52.64546
 30
0.000006
 40
0.004446
210
0.0
220
0.0
230
1.0
  0
CIRCLE
  8
5
  6
CONTINUOUS
 62
   215
  5
2D5
 10
243.151793
 20
-52.40019
 30
0.000006
 40
0.004446
210
0.0
220
0.0
230
1.0
  0
CIRCLE
  8
5
  6
CONTINUOUS
 62
   215
  5
2D6
 10
242.500367
 20
-52.737417
 30
0.000006
 40
0.004446
210
0.0
220
0.0
230
1.0
  0
CIRCLE
  8
5
  6
CONTINUOUS
 62
   215
  5
2D7
 10
243.57325
 20
-52.139619
 30
0.000006
 40
0.004446
210
0.0
220
0.0
230
1.0
  0
CIRCLE
  8
5
  6
CONTINUOUS
 62
   215
  5
2D8
 10
243.08271
 20
-51.971006
 30
0.000006
 40
0.004446
210
0.0
220
0.0
230
1.0
  0
CIRCLE
  8
5
  6
CONTINUOUS
 62
   215
  5
2D9
 10
242.515667
 20
-51.856175
 30
0.000006
 40
0.004446
210
0.0
220
0.0
230
1.0
  0
CIRCLE
  8
5
  6
CONTINUOUS
 62
   215
  5
2DA
 10
243.588551
 20
-52.476847
 30
0.000006
 40
0.004446
210
0.0
220
0.0
230
1.0
  0
CIRCLE
  8
5
  6
CONTINUOUS
 62
   215
  5
2DB
 10
242.048309
 20
-52.676061
 30
0.000006
 40
0.004446
210
0.0
220
0.0
230
1.0
  0
LINE
  8
5
  6
CONTINUOUS
 62
   215
  5
2DC
 10
243.686
 20
-50.9598
 30
0.0
 11
243.6858
 21
-51.04
 31
0.0
  0
LINE
  8
5
  6
CONTINUOUS
 62
   215
  5
2DD
 10
243.3004
 20
-51.1466
 30
0.0
 11
243.3805
 21
-51.1466
 31
0.0
  0
LINE
  8
5
  6
CONTINUOUS
 62
   215
  5
2DE
 10
243.3805
 20
-51.1466
 30
0.0
 11
243.3406
 21
-51.0774
 31
0.0
  0
LINE
  8
5
  6
CONTINUOUS
 62
   215
  5
2DF
 10
243.3406
 20
-51.0774
 30
0.0
 11
243.3004
 21
-51.1466
 31
0.0
  0
LINE
  8
5
  6
CONTINUOUS
 62
   215
  5
2E0
 10
243.3573
 20
-51.5493
 30
0.0
 11
243.4268
 21
-51.5095
 31
0.0
  0
LINE
  8
5
  6
CONTINUOUS
 62
   215
  5
2E1
 10
243.4268
 20
-51.5095
 30
0.0
 11
243.3578
 21
-51.4695
 31
0.0
  0
LINE
  8
5
  6
CONTINUOUS
 62
   215
  5
2E2
 10
243.3578
 20
-51.4695
 30
0.0
 11
243.3573
 21
-51.5493
 31
0.0
  0
LINE
  8
5
  6
CONTINUOUS
 62
   215
  5
2E3
 10
241.9092
 20
-52.1056
 30
0.0
 11
241.9892
 21
-52.1056
 31
0.0
  0
LINE
  8
5
  6
CONTINUOUS
 62
   215
  5
2E4
 10
241.9892
 20
-52.1056
 30
0.0
 11
241.9495
 21
-52.0364
 31
0.0
  0
LINE
  8
5
  6
CONTINUOUS
 62
   215
  5
2E5
 10
241.9495
 20
-52.0364
 30
0.0
 11
241.9092
 21
-52.1056
 31
0.0
  0
LINE
  8
5
  6
CONTINUOUS
 62
   215
  5
2E6
 10
242.6978
 20
-51.5496
 30
0.0
 11
242.7185
 21
-51.4721
 31
0.0
  0
LINE
  8
5
  6
CONTINUOUS
 62
   215
  5
2E7
 10
242.7185
 20
-51.4721
 30
0.0
 11
242.6414
 21
-51.4928
 31
0.0
  0
LINE
  8
5
  6
CONTINUOUS
 62
   215
  5
2E8
 10
242.6414
 20
-51.4928
 30
0.0
 11
242.6978
 21
-51.5496
 31
0.0
  0
LINE
  8
5
  6
CONTINUOUS
 62
   215
  5
2E9
 10
242.5594
 20
-51.1484
 30
0.0
 11
242.6347
 21
-51.121
 31
0.0
  0
LINE
  8
5
  6
CONTINUOUS
 62
   215
  5
2EA
 10
242.6347
 20
-51.121
 30
0.0
 11
242.5734
 21
-51.0698
 31
0.0
  0
LINE
  8
5
  6
CONTINUOUS
 62
   215
  5
2EB
 10
242.5734
 20
-51.0698
 30
0.0
 11
242.5594
 21
-51.1484
 31
0.0
  0
LINE
  8
5
  6
CONTINUOUS
 62
   215
  5
2EC
 10
242.2078
 20
-51.3297
 30
0.0
 11
242.2285
 21
-51.2522
 31
0.0
  0
LINE
  8
5
  6
CONTINUOUS
 62
   215
  5
2ED
 10
242.2285
 20
-51.2522
 30
0.0
 11
242.1513
 21
-51.2731
 31
0.0
  0
LINE
  8
5
  6
CONTINUOUS
 62
   215
  5
2EE
 10
242.1513
 20
-51.2731
 30
0.0
 11
242.2078
 21
-51.3297
 31
0.0
  0
LINE
  8
5
  6
CONTINUOUS
 62
   215
  5
2EF
 10
240.9354
 20
-51.9673
 30
0.0
 11
241.0155
 21
-51.9673
 31
0.0
  0
LINE
  8
5
  6
CONTINUOUS
 62
   215
  5
2F0
 10
241.0155
 20
-51.9673
 30
0.0
 11
240.9755
 21
-51.898
 31
0.0
  0
LINE
  8
5
  6
CONTINUOUS
 62
   215
  5
2F1
 10
240.9755
 20
-51.898
 30
0.0
 11
240.9354
 21
-51.9673
 31
0.0
  0
LINE
  8
5
  6
CONTINUOUS
 62
   215
  5
2F2
 10
243.686
 20
-50.9598
 30
0.0
 11
243.6858
 21
-51.04
 31
0.0
  0
LINE
  8
5
  6
CONTINUOUS
 62
   215
  5
2F3
 10
243.6858
 20
-51.04
 30
0.0
 11
243.7019
 21
-51.0307
 31
0.0
  0
LINE
  8
5
  6
CONTINUOUS
 62
   215
  5
2F4
 10
243.7019
 20
-50.9692
 30
0.0
 11
243.686
 21
-50.9598
 31
0.0
  0
LINE
  8
5
  6
CONTINUOUS
 62
   215
  5
2F5
 10
243.6858
 20
-51.04
 30
0.0
 11
243.7019
 21
-51.0307
 31
0.0
  0
LINE
  8
5
  6
CONTINUOUS
 62
   215
  5
2F6
 10
243.7019
 20
-50.9692
 30
0.0
 11
243.686
 21
-50.9598
 31
0.0
  0
LINE
  8
5
  6
CONTINUOUS
 62
   215
  5
2F7
 10
243.3698
 20
-51.684
 30
0.0
 11
243.3528
 21
-51.6546
 31
0.0
  0
LINE
  8
5
  6
CONTINUOUS
 62
   215
  5
2F8
 10
243.3528
 20
-51.6546
 30
0.0
 11
243.3358
 21
-51.684
 31
0.0
  0
LINE
  8
5
  6
CONTINUOUS
 62
   215
  5
2F9
 10
242.4291
 20
-51.736
 30
0.0
 11
242.3728
 21
-51.6889
 31
0.0
  0
LINE
  8
5
  6
CONTINUOUS
 62
   215
  5
2FA
 10
242.3728
 20
-51.6889
 30
0.0
 11
242.3643
 21
-51.736
 31
0.0
  0
LINE
  8
5
  6
CONTINUOUS
 62
   215
  5
2FB
 10
242.4291
 20
-51.736
 30
0.0
 11
242.3728
 21
-51.6889
 31
0.0
  0
LINE
  8
5
  6
CONTINUOUS
 62
   215
  5
2FC
 10
242.3728
 20
-51.6889
 30
0.0
 11
242.3643
 21
-51.736
 31
0.0
  0
LINE
  8
5
  6
CONTINUOUS
 62
   215
  5
2FD
 10
241.8473
 20
-51.0307
 30
0.0
 11
241.8922
 21
-51.0046
 31
0.0
  0
CIRCLE
  8
5
  6
CONTINUOUS
 62
   215
  5
2FE
 10
242.10951
 20
-51.074308
 30
0.000006
 40
0.004446
210
0.0
220
0.0
230
1.0
  0
CIRCLE
  8
5
  6
CONTINUOUS
 62
   215
  5
2FF
 10
242.43901
 20
-51.457592
 30
0.000006
 40
0.004446
210
0.0
220
0.0
230
1.0
  0
CIRCLE
  8
5
  6
CONTINUOUS
 62
   215
  5
300
 10
242.117238
 20
-51.626051
 30
0.000006
 40
0.004446
210
0.0
220
0.0
230
1.0
  0
CIRCLE
  8
5
  6
CONTINUOUS
 62
   215
  5
301
 10
241.986953
 20
-51.311851
 30
0.000006
 40
0.004446
210
0.0
220
0.0
230
1.0
  0
CIRCLE
  8
5
  6
CONTINUOUS
 62
   215
  5
302
 10
243.57325
 20
-51.403808
 30
0.000006
 40
0.004446
210
0.0
220
0.0
230
1.0
  0
CIRCLE
  8
5
  6
CONTINUOUS
 62
   215
  5
303
 10
242.822293
 20
-51.656806
 30
0.000006
 40
0.004446
210
0.0
220
0.0
230
1.0
  0
CIRCLE
  8
5
  6
CONTINUOUS
 62
   215
  5
304
 10
242.636565
 20
-51.234993
 30
0.000006
 40
0.004446
210
0.0
220
0.0
230
1.0
  0
CIRCLE
  8
5
  6
CONTINUOUS
 62
   215
  5
305
 10
243.151793
 20
-51.005379
 30
0.000006
 40
0.004446
210
0.0
220
0.0
230
1.0
  0
CIRCLE
  8
5
  6
CONTINUOUS
 62
   215
  5
306
 10
243.550222
 20
-50.92115
 30
0.000006
 40
0.004446
210
0.0
220
0.0
230
1.0
  0
CIRCLE
  8
5
  6
CONTINUOUS
 62
   215
  5
307
 10
243.580823
 20
-51.679679
 30
0.000006
 40
0.004446
210
0.0
220
0.0
230
1.0
  0
LINE
  8
5
  6
CONTINUOUS
 62
   215
  5
308
 10
243.7547
 20
-51.8435
 30
0.0
 11
243.7149
 21
-51.7745
 31
0.0
  0
LINE
  8
5
  6
CONTINUOUS
 62
   215
  5
309
 10
244.2133
 20
-51.7677
 30
0.0
 11
244.2885
 21
-51.7398
 31
0.0
  0
LINE
  8
5
  6
CONTINUOUS
 62
   215
  5
30A
 10
244.4739
 20
-51.9296
 30
0.0
 11
244.5433
 21
-51.8899
 31
0.0
  0
LINE
  8
5
  6
CONTINUOUS
 62
   215
  5
30B
 10
244.5433
 20
-51.8899
 30
0.0
 11
244.4742
 21
-51.8495
 31
0.0
  0
LINE
  8
5
  6
CONTINUOUS
 62
   215
  5
30C
 10
244.4742
 20
-51.8495
 30
0.0
 11
244.4739
 21
-51.9296
 31
0.0
  0
LINE
  8
5
  6
CONTINUOUS
 62
   215
  5
30D
 10
244.8619
 20
-51.7758
 30
0.0
 11
244.9421
 21
-51.7758
 31
0.0
  0
LINE
  8
5
  6
CONTINUOUS
 62
   215
  5
30E
 10
245.2046
 20
-52.0829
 30
0.0
 11
245.2739
 21
-52.0428
 31
0.0
  0
LINE
  8
5
  6
CONTINUOUS
 62
   215
  5
30F
 10
245.2739
 20
-52.0428
 30
0.0
 11
245.2049
 21
-52.0027
 31
0.0
  0
LINE
  8
5
  6
CONTINUOUS
 62
   215
  5
310
 10
245.2049
 20
-52.0027
 30
0.0
 11
245.2046
 21
-52.0829
 31
0.0
  0
LINE
  8
5
  6
CONTINUOUS
 62
   215
  5
311
 10
244.7949
 20
-52.2738
 30
0.0
 11
244.8677
 21
-52.2401
 31
0.0
  0
LINE
  8
5
  6
CONTINUOUS
 62
   215
  5
312
 10
244.8677
 20
-52.2401
 30
0.0
 11
244.8023
 21
-52.1942
 31
0.0
  0
LINE
  8
5
  6
CONTINUOUS
 62
   215
  5
313
 10
244.8023
 20
-52.1942
 30
0.0
 11
244.7949
 21
-52.2738
 31
0.0
  0
LINE
  8
5
  6
CONTINUOUS
 62
   215
  5
314
 10
244.2064
 20
-52.2219
 30
0.0
 11
244.2467
 21
-52.1524
 31
0.0
  0
LINE
  8
5
  6
CONTINUOUS
 62
   215
  5
315
 10
244.2467
 20
-52.1524
 30
0.0
 11
244.1667
 21
-52.1524
 31
0.0
  0
LINE
  8
5
  6
CONTINUOUS
 62
   215
  5
316
 10
244.1667
 20
-52.1524
 30
0.0
 11
244.2064
 21
-52.2219
 31
0.0
  0
LINE
  8
5
  6
CONTINUOUS
 62
   215
  5
317
 10
243.7685
 20
-52.3646
 30
0.0
 11
243.8473
 21
-52.3785
 31
0.0
  0
LINE
  8
5
  6
CONTINUOUS
 62
   215
  5
318
 10
243.8473
 20
-52.3785
 30
0.0
 11
243.8202
 21
-52.3035
 31
0.0
  0
LINE
  8
5
  6
CONTINUOUS
 62
   215
  5
319
 10
243.8202
 20
-52.3035
 30
0.0
 11
243.7685
 21
-52.3646
 31
0.0
  0
LINE
  8
5
  6
CONTINUOUS
 62
   215
  5
31A
 10
244.2096
 20
-52.6398
 30
0.0
 11
244.2498
 21
-52.5706
 31
0.0
  0
LINE
  8
5
  6
CONTINUOUS
 62
   215
  5
31B
 10
244.2498
 20
-52.5706
 30
0.0
 11
244.1697
 21
-52.5706
 31
0.0
  0
LINE
  8
5
  6
CONTINUOUS
 62
   215
  5
31C
 10
244.1697
 20
-52.5706
 30
0.0
 11
244.2096
 21
-52.6398
 31
0.0
  0
LINE
  8
5
  6
CONTINUOUS
 62
   215
  5
31D
 10
244.5319
 20
-52.4885
 30
0.0
 11
244.612
 21
-52.4885
 31
0.0
  0
LINE
  8
5
  6
CONTINUOUS
 62
   215
  5
31E
 10
244.612
 20
-52.4885
 30
0.0
 11
244.572
 21
-52.4195
 31
0.0
  0
LINE
  8
5
  6
CONTINUOUS
 62
   215
  5
31F
 10
244.572
 20
-52.4195
 30
0.0
 11
244.5319
 21
-52.4885
 31
0.0
  0
LINE
  8
5
  6
CONTINUOUS
 62
   215
  5
320
 10
244.8341
 20
-52.7808
 30
0.0
 11
244.9034
 21
-52.7409
 31
0.0
  0
LINE
  8
5
  6
CONTINUOUS
 62
   215
  5
321
 10
244.9034
 20
-52.7409
 30
0.0
 11
244.8345
 21
-52.7008
 31
0.0
  0
LINE
  8
5
  6
CONTINUOUS
 62
   215
  5
322
 10
244.8345
 20
-52.7008
 30
0.0
 11
244.8341
 21
-52.7808
 31
0.0
  0
LINE
  8
5
  6
CONTINUOUS
 62
   215
  5
323
 10
245.174
 20
-52.4567
 30
0.0
 11
245.2526
 21
-52.4706
 31
0.0
  0
LINE
  8
5
  6
CONTINUOUS
 62
   215
  5
324
 10
245.2526
 20
-52.4706
 30
0.0
 11
245.2254
 21
-52.3953
 31
0.0
  0
LINE
  8
5
  6
CONTINUOUS
 62
   215
  5
325
 10
245.2254
 20
-52.3953
 30
0.0
 11
245.174
 21
-52.4567
 31
0.0
  0
LINE
  8
5
  6
CONTINUOUS
 62
   215
  5
326
 10
245.5405
 20
-52.8145
 30
0.0
 11
245.5402
 21
-52.8946
 31
0.0
  0
LINE
  8
5
  6
CONTINUOUS
 62
   215
  5
327
 10
245.2041
 20
-52.9473
 30
0.0
 11
245.1952
 21
-52.932
 31
0.0
  0
LINE
  8
5
  6
CONTINUOUS
 62
   215
  5
328
 10
245.1952
 20
-52.932
 30
0.0
 11
245.1863
 21
-52.9473
 31
0.0
  0
LINE
  8
5
  6
CONTINUOUS
 62
   215
  5
329
 10
244.4554
 20
-52.9473
 30
0.0
 11
244.428
 21
-52.9244
 31
0.0
  0
LINE
  8
5
  6
CONTINUOUS
 62
   215
  5
32A
 10
244.428
 20
-52.9244
 30
0.0
 11
244.4238
 21
-52.9473
 31
0.0
  0
LINE
  8
5
  6
CONTINUOUS
 62
   215
  5
32B
 10
245.5405
 20
-52.8145
 30
0.0
 11
245.5402
 21
-52.8946
 31
0.0
  0
LINE
  8
5
  6
CONTINUOUS
 62
   215
  5
32C
 10
244.2885
 20
-51.7398
 30
0.0
 11
244.2837
 21
-51.736
 31
0.0
  0
LINE
  8
5
  6
CONTINUOUS
 62
   215
  5
32D
 10
244.2189
 20
-51.736
 30
0.0
 11
244.2133
 21
-51.7677
 31
0.0
  0
LINE
  8
5
  6
CONTINUOUS
 62
   215
  5
32E
 10
244.9421
 20
-51.7758
 30
0.0
 11
244.9192
 21
-51.736
 31
0.0
  0
LINE
  8
5
  6
CONTINUOUS
 62
   215
  5
32F
 10
244.8851
 20
-51.736
 30
0.0
 11
244.8619
 21
-51.7758
 31
0.0
  0
LINE
  8
5
  6
CONTINUOUS
 62
   215
  5
330
 10
245.5292
 20
-51.8435
 30
0.0
 11
245.5564
 21
-51.8435
 31
0.0
  0
LINE
  8
5
  6
CONTINUOUS
 62
   215
  5
331
 10
245.5564
 20
-51.7965
 30
0.0
 11
245.5292
 21
-51.8435
 31
0.0
  0
LINE
  8
5
  6
CONTINUOUS
 62
   215
  5
332
 10
245.5402
 20
-52.8946
 30
0.0
 11
245.5564
 21
-52.8852
 31
0.0
  0
LINE
  8
5
  6
CONTINUOUS
 62
   215
  5
333
 10
245.5564
 20
-52.8239
 30
0.0
 11
245.5405
 21
-52.8145
 31
0.0
  0
LINE
  8
5
  6
CONTINUOUS
 62
   215
  5
334
 10
245.5402
 20
-52.8946
 30
0.0
 11
245.5564
 21
-52.8852
 31
0.0
  0
LINE
  8
5
  6
CONTINUOUS
 62
   215
  5
335
 10
245.5564
 20
-52.8239
 30
0.0
 11
245.5405
 21
-52.8145
 31
0.0
  0
LINE
  8
5
  6
CONTINUOUS
 62
   215
  5
336
 10
243.7019
 20
-51.8435
 30
0.0
 11
243.7547
 21
-51.8435
 31
0.0
  0
LINE
  8
5
  6
CONTINUOUS
 62
   215
  5
337
 10
243.7149
 20
-51.7745
 30
0.0
 11
243.7019
 21
-51.7965
 31
0.0
  0
LINE
  8
5
  6
CONTINUOUS
 62
   215
  5
338
 10
243.7019
 20
-52.8852
 30
0.0
 11
243.755
 21
-52.8544
 31
0.0
  0
LINE
  8
5
  6
CONTINUOUS
 62
   215
  5
339
 10
243.755
 20
-52.8544
 30
0.0
 11
243.7019
 21
-52.8239
 31
0.0
  0
CIRCLE
  8
5
  6
CONTINUOUS
 62
   215
  5
33A
 10
245.266805
 20
-51.794819
 30
0.000006
 40
0.004446
210
0.0
220
0.0
230
1.0
  0
CIRCLE
  8
5
  6
CONTINUOUS
 62
   215
  5
33B
 10
243.979407
 20
-51.963433
 30
0.000006
 40
0.004446
210
0.0
220
0.0
230
1.0
  0
CIRCLE
  8
5
  6
CONTINUOUS
 62
   215
  5
33C
 10
244.531149
 20
-52.231576
 30
0.000006
 40
0.004446
210
0.0
220
0.0
230
1.0
  0
CIRCLE
  8
5
  6
CONTINUOUS
 62
   215
  5
33D
 10
244.03319
 20
-52.446246
 30
0.000006
 40
0.004446
210
0.0
220
0.0
230
1.0
  0
CIRCLE
  8
5
  6
CONTINUOUS
 62
   215
  5
33E
 10
243.964106
 20
-52.928904
 30
0.000006
 40
0.004446
210
0.0
220
0.0
230
1.0
  0
CIRCLE
  8
5
  6
CONTINUOUS
 62
   215
  5
33F
 10
245.006389
 20
-52.859975
 30
0.000006
 40
0.004446
210
0.0
220
0.0
230
1.0
  0
CIRCLE
  8
5
  6
CONTINUOUS
 62
   215
  5
340
 10
245.404818
 20
-52.775746
 30
0.000006
 40
0.004446
210
0.0
220
0.0
230
1.0
  0
CIRCLE
  8
5
  6
CONTINUOUS
 62
   215
  5
341
 10
245.182576
 20
-52.64546
 30
0.000006
 40
0.004446
210
0.0
220
0.0
230
1.0
  0
CIRCLE
  8
5
  6
CONTINUOUS
 62
   215
  5
342
 10
245.006389
 20
-52.40019
 30
0.000006
 40
0.004446
210
0.0
220
0.0
230
1.0
  0
CIRCLE
  8
5
  6
CONTINUOUS
 62
   215
  5
343
 10
244.354962
 20
-52.737417
 30
0.000006
 40
0.004446
210
0.0
220
0.0
230
1.0
  0
CIRCLE
  8
5
  6
CONTINUOUS
 62
   215
  5
344
 10
245.427846
 20
-52.139619
 30
0.000006
 40
0.004446
210
0.0
220
0.0
230
1.0
  0
CIRCLE
  8
5
  6
CONTINUOUS
 62
   215
  5
345
 10
244.937305
 20
-51.971006
 30
0.000006
 40
0.004446
210
0.0
220
0.0
230
1.0
  0
CIRCLE
  8
5
  6
CONTINUOUS
 62
   215
  5
346
 10
244.370263
 20
-51.856175
 30
0.000006
 40
0.004446
210
0.0
220
0.0
230
1.0
  0
CIRCLE
  8
5
  6
CONTINUOUS
 62
   215
  5
347
 10
245.443147
 20
-52.476847
 30
0.000006
 40
0.004446
210
0.0
220
0.0
230
1.0
  0
CIRCLE
  8
5
  6
CONTINUOUS
 62
   215
  5
348
 10
243.902905
 20
-52.676061
 30
0.000006
 40
0.004446
210
0.0
220
0.0
230
1.0
  0
LINE
  8
5
  6
CONTINUOUS
 62
   215
  5
349
 10
244.8341
 20
-50.9261
 30
0.0
 11
244.8848
 21
-50.8969
 31
0.0
  0
LINE
  8
5
  6
CONTINUOUS
 62
   215
  5
34A
 10
244.8342
 20
-50.8969
 30
0.0
 11
244.8341
 21
-50.9261
 31
0.0
  0
LINE
  8
5
  6
CONTINUOUS
 62
   215
  5
34B
 10
245.5405
 20
-50.9598
 30
0.0
 11
245.5402
 21
-51.04
 31
0.0
  0
LINE
  8
5
  6
CONTINUOUS
 62
   215
  5
34C
 10
245.1551
 20
-51.1466
 30
0.0
 11
245.2352
 21
-51.1466
 31
0.0
  0
LINE
  8
5
  6
CONTINUOUS
 62
   215
  5
34D
 10
245.2352
 20
-51.1466
 30
0.0
 11
245.1952
 21
-51.0774
 31
0.0
  0
LINE
  8
5
  6
CONTINUOUS
 62
   215
  5
34E
 10
245.1952
 20
-51.0774
 30
0.0
 11
245.1551
 21
-51.1466
 31
0.0
  0
LINE
  8
5
  6
CONTINUOUS
 62
   215
  5
34F
 10
245.2119
 20
-51.5493
 30
0.0
 11
245.2814
 21
-51.5095
 31
0.0
  0
LINE
  8
5
  6
CONTINUOUS
 62
   215
  5
350
 10
245.2814
 20
-51.5095
 30
0.0
 11
245.2125
 21
-51.4695
 31
0.0
  0
LINE
  8
5
  6
CONTINUOUS
 62
   215
  5
351
 10
245.2125
 20
-51.4695
 30
0.0
 11
245.2119
 21
-51.5493
 31
0.0
  0
LINE
  8
5
  6
CONTINUOUS
 62
   215
  5
352
 10
244.8285
 20
-51.2764
 30
0.0
 11
244.9086
 21
-51.2764
 31
0.0
  0
LINE
  8
5
  6
CONTINUOUS
 62
   215
  5
353
 10
244.9086
 20
-51.2764
 30
0.0
 11
244.8689
 21
-51.2072
 31
0.0
  0
LINE
  8
5
  6
CONTINUOUS
 62
   215
  5
354
 10
244.8689
 20
-51.2072
 30
0.0
 11
244.8285
 21
-51.2764
 31
0.0
  0
LINE
  8
5
  6
CONTINUOUS
 62
   215
  5
355
 10
244.5524
 20
-51.5496
 30
0.0
 11
244.5731
 21
-51.4721
 31
0.0
  0
LINE
  8
5
  6
CONTINUOUS
 62
   215
  5
356
 10
244.5731
 20
-51.4721
 30
0.0
 11
244.496
 21
-51.4928
 31
0.0
  0
LINE
  8
5
  6
CONTINUOUS
 62
   215
  5
357
 10
244.496
 20
-51.4928
 30
0.0
 11
244.5524
 21
-51.5496
 31
0.0
  0
LINE
  8
5
  6
CONTINUOUS
 62
   215
  5
358
 10
244.414
 20
-51.1484
 30
0.0
 11
244.4892
 21
-51.121
 31
0.0
  0
LINE
  8
5
  6
CONTINUOUS
 62
   215
  5
359
 10
244.4892
 20
-51.121
 30
0.0
 11
244.428
 21
-51.0698
 31
0.0
  0
LINE
  8
5
  6
CONTINUOUS
 62
   215
  5
35A
 10
244.428
 20
-51.0698
 30
0.0
 11
244.414
 21
-51.1484
 31
0.0
  0
LINE
  8
5
  6
CONTINUOUS
 62
   215
  5
35B
 10
244.0625
 20
-51.3297
 30
0.0
 11
244.083
 21
-51.2522
 31
0.0
  0
LINE
  8
5
  6
CONTINUOUS
 62
   215
  5
35C
 10
244.083
 20
-51.2522
 30
0.0
 11
244.006
 21
-51.2731
 31
0.0
  0
LINE
  8
5
  6
CONTINUOUS
 62
   215
  5
35D
 10
244.006
 20
-51.2731
 30
0.0
 11
244.0625
 21
-51.3297
 31
0.0
  0
LINE
  8
5
  6
CONTINUOUS
 62
   215
  5
35E
 10
243.7507
 20
-51.5961
 30
0.0
 11
243.8307
 21
-51.5961
 31
0.0
  0
LINE
  8
5
  6
CONTINUOUS
 62
   215
  5
35F
 10
243.8307
 20
-51.5961
 30
0.0
 11
243.7907
 21
-51.5268
 31
0.0
  0
LINE
  8
5
  6
CONTINUOUS
 62
   215
  5
360
 10
243.7907
 20
-51.5268
 30
0.0
 11
243.7507
 21
-51.5961
 31
0.0
  0
LINE
  8
5
  6
CONTINUOUS
 62
   215
  5
361
 10
245.5405
 20
-50.9598
 30
0.0
 11
245.5402
 21
-51.04
 31
0.0
  0
LINE
  8
5
  6
CONTINUOUS
 62
   215
  5
362
 10
245.5402
 20
-51.04
 30
0.0
 11
245.5564
 21
-51.0307
 31
0.0
  0
LINE
  8
5
  6
CONTINUOUS
 62
   215
  5
363
 10
245.5564
 20
-50.9692
 30
0.0
 11
245.5405
 21
-50.9598
 31
0.0
  0
LINE
  8
5
  6
CONTINUOUS
 62
   215
  5
364
 10
245.5402
 20
-51.04
 30
0.0
 11
245.5564
 21
-51.0307
 31
0.0
  0
LINE
  8
5
  6
CONTINUOUS
 62
   215
  5
365
 10
245.5564
 20
-50.9692
 30
0.0
 11
245.5405
 21
-50.9598
 31
0.0
  0
LINE
  8
5
  6
CONTINUOUS
 62
   215
  5
366
 10
244.9192
 20
-51.736
 30
0.0
 11
244.9022
 21
-51.7066
 31
0.0
  0
LINE
  8
5
  6
CONTINUOUS
 62
   215
  5
367
 10
244.9022
 20
-51.7066
 30
0.0
 11
244.8851
 21
-51.736
 31
0.0
  0
LINE
  8
5
  6
CONTINUOUS
 62
   215
  5
368
 10
244.2837
 20
-51.736
 30
0.0
 11
244.2274
 21
-51.6889
 31
0.0
  0
LINE
  8
5
  6
CONTINUOUS
 62
   215
  5
369
 10
244.2274
 20
-51.6889
 30
0.0
 11
244.2189
 21
-51.736
 31
0.0
  0
LINE
  8
5
  6
CONTINUOUS
 62
   215
  5
36A
 10
244.2837
 20
-51.736
 30
0.0
 11
244.2274
 21
-51.6889
 31
0.0
  0
LINE
  8
5
  6
CONTINUOUS
 62
   215
  5
36B
 10
244.2274
 20
-51.6889
 30
0.0
 11
244.2189
 21
-51.736
 31
0.0
  0
LINE
  8
5
  6
CONTINUOUS
 62
   215
  5
36C
 10
243.7019
 20
-51.0307
 30
0.0
 11
243.755
 21
-50.9998
 31
0.0
  0
LINE
  8
5
  6
CONTINUOUS
 62
   215
  5
36D
 10
243.755
 20
-50.9998
 30
0.0
 11
243.7019
 21
-50.9692
 31
0.0
  0
CIRCLE
  8
5
  6
CONTINUOUS
 62
   215
  5
36E
 10
243.964106
 20
-51.074308
 30
0.000006
 40
0.004446
210
0.0
220
0.0
230
1.0
  0
CIRCLE
  8
5
  6
CONTINUOUS
 62
   215
  5
36F
 10
244.293606
 20
-51.457592
 30
0.000006
 40
0.004446
210
0.0
220
0.0
230
1.0
  0
CIRCLE
  8
5
  6
CONTINUOUS
 62
   215
  5
370
 10
243.971834
 20
-51.626051
 30
0.000006
 40
0.004446
210
0.0
220
0.0
230
1.0
  0
CIRCLE
  8
5
  6
CONTINUOUS
 62
   215
  5
371
 10
243.841548
 20
-51.311851
 30
0.000006
 40
0.004446
210
0.0
220
0.0
230
1.0
  0
CIRCLE
  8
5
  6
CONTINUOUS
 62
   215
  5
372
 10
245.427846
 20
-51.403808
 30
0.000006
 40
0.004446
210
0.0
220
0.0
230
1.0
  0
CIRCLE
  8
5
  6
CONTINUOUS
 62
   215
  5
373
 10
245.02169
 20
-51.541821
 30
0.000006
 40
0.004446
210
0.0
220
0.0
230
1.0
  0
CIRCLE
  8
5
  6
CONTINUOUS
 62
   215
  5
374
 10
244.676889
 20
-51.656806
 30
0.000006
 40
0.004446
210
0.0
220
0.0
230
1.0
  0
CIRCLE
  8
5
  6
CONTINUOUS
 62
   215
  5
375
 10
244.638561
 20
-51.158693
 30
0.000006
 40
0.004446
210
0.0
220
0.0
230
1.0
  0
CIRCLE
  8
5
  6
CONTINUOUS
 62
   215
  5
376
 10
245.006389
 20
-51.005379
 30
0.000006
 40
0.004446
210
0.0
220
0.0
230
1.0
  0
CIRCLE
  8
5
  6
CONTINUOUS
 62
   215
  5
377
 10
245.404818
 20
-50.92115
 30
0.000006
 40
0.004446
210
0.0
220
0.0
230
1.0
  0
CIRCLE
  8
5
  6
CONTINUOUS
 62
   215
  5
378
 10
245.435419
 20
-51.679679
 30
0.000006
 40
0.004446
210
0.0
220
0.0
230
1.0
  0
LINE
  8
5
  6
CONTINUOUS
 62
   215
  5
379
 10
245.6092
 20
-51.8435
 30
0.0
 11
245.5696
 21
-51.7745
 31
0.0
  0
LINE
  8
5
  6
CONTINUOUS
 62
   215
  5
37A
 10
246.3285
 20
-51.9296
 30
0.0
 11
246.3979
 21
-51.8899
 31
0.0
  0
LINE
  8
5
  6
CONTINUOUS
 62
   215
  5
37B
 10
246.3979
 20
-51.8899
 30
0.0
 11
246.3289
 21
-51.8495
 31
0.0
  0
LINE
  8
5
  6
CONTINUOUS
 62
   215
  5
37C
 10
246.3289
 20
-51.8495
 30
0.0
 11
246.3285
 21
-51.9296
 31
0.0
  0
LINE
  8
5
  6
CONTINUOUS
 62
   215
  5
37D
 10
246.0611
 20
-52.2219
 30
0.0
 11
246.1013
 21
-52.1524
 31
0.0
  0
LINE
  8
5
  6
CONTINUOUS
 62
   215
  5
37E
 10
246.1013
 20
-52.1524
 30
0.0
 11
246.0213
 21
-52.1524
 31
0.0
  0
LINE
  8
5
  6
CONTINUOUS
 62
   215
  5
37F
 10
246.0213
 20
-52.1524
 30
0.0
 11
246.0611
 21
-52.2219
 31
0.0
  0
LINE
  8
5
  6
CONTINUOUS
 62
   215
  5
380
 10
245.6231
 20
-52.3646
 30
0.0
 11
245.702
 21
-52.3785
 31
0.0
  0
LINE
  8
5
  6
CONTINUOUS
 62
   215
  5
381
 10
245.702
 20
-52.3785
 30
0.0
 11
245.6747
 21
-52.3035
 31
0.0
  0
LINE
  8
5
  6
CONTINUOUS
 62
   215
  5
382
 10
245.6747
 20
-52.3035
 30
0.0
 11
245.6231
 21
-52.3646
 31
0.0
  0
LINE
  8
5
  6
CONTINUOUS
 62
   215
  5
383
 10
246.1045
 20
-52.5706
 30
0.0
 11
246.0243
 21
-52.5706
 31
0.0
  0
LINE
  8
5
  6
CONTINUOUS
 62
   215
  5
384
 10
246.0243
 20
-52.5706
 30
0.0
 11
246.0642
 21
-52.6398
 31
0.0
  0
LINE
  8
5
  6
CONTINUOUS
 62
   215
  5
385
 10
246.3865
 20
-52.4885
 30
0.0
 11
246.408
 21
-52.4885
 31
0.0
  0
LINE
  8
5
  6
CONTINUOUS
 62
   215
  5
386
 10
246.4526
 20
-52.4642
 30
0.0
 11
246.4266
 21
-52.4195
 31
0.0
  0
LINE
  8
5
  6
CONTINUOUS
 62
   215
  5
387
 10
246.4266
 20
-52.4195
 30
0.0
 11
246.3865
 21
-52.4885
 31
0.0
  0
LINE
  8
5
  6
CONTINUOUS
 62
   215
  5
388
 10
246.31
 20
-52.9473
 30
0.0
 11
246.2826
 21
-52.9244
 31
0.0
  0
LINE
  8
5
  6
CONTINUOUS
 62
   215
  5
389
 10
246.2826
 20
-52.9244
 30
0.0
 11
246.2784
 21
-52.9473
 31
0.0
  0
LINE
  8
5
  6
CONTINUOUS
 62
   215
  5
38A
 10
245.5564
 20
-51.8435
 30
0.0
 11
245.6092
 21
-51.8435
 31
0.0
  0
LINE
  8
5
  6
CONTINUOUS
 62
   215
  5
38B
 10
245.5696
 20
-51.7745
 30
0.0
 11
245.5564
 21
-51.7965
 31
0.0
  0
LINE
  8
5
  6
CONTINUOUS
 62
   215
  5
38C
 10
245.5564
 20
-52.8852
 30
0.0
 11
245.6095
 21
-52.8544
 31
0.0
  0
LINE
  8
5
  6
CONTINUOUS
 62
   215
  5
38D
 10
245.6095
 20
-52.8544
 30
0.0
 11
245.5564
 21
-52.8239
 31
0.0
  0
CIRCLE
  8
5
  6
CONTINUOUS
 62
   215
  5
38E
 10
245.834003
 20
-51.963433
 30
0.000006
 40
0.004446
210
0.0
220
0.0
230
1.0
  0
CIRCLE
  8
5
  6
CONTINUOUS
 62
   215
  5
38F
 10
246.385745
 20
-52.231576
 30
0.000006
 40
0.004446
210
0.0
220
0.0
230
1.0
  0
CIRCLE
  8
5
  6
CONTINUOUS
 62
   215
  5
390
 10
245.887786
 20
-52.446246
 30
0.000006
 40
0.004446
210
0.0
220
0.0
230
1.0
  0
CIRCLE
  8
5
  6
CONTINUOUS
 62
   215
  5
391
 10
245.818702
 20
-52.928904
 30
0.000006
 40
0.004446
210
0.0
220
0.0
230
1.0
  0
CIRCLE
  8
5
  6
CONTINUOUS
 62
   215
  5
392
 10
246.209558
 20
-52.737417
 30
0.000006
 40
0.004446
210
0.0
220
0.0
230
1.0
  0
CIRCLE
  8
5
  6
CONTINUOUS
 62
   215
  5
393
 10
246.224859
 20
-51.856175
 30
0.000006
 40
0.004446
210
0.0
220
0.0
230
1.0
  0
CIRCLE
  8
5
  6
CONTINUOUS
 62
   215
  5
394
 10
245.757501
 20
-52.676061
 30
0.000006
 40
0.004446
210
0.0
220
0.0
230
1.0
  0
LINE
  8
5
  6
CONTINUOUS
 62
   215
  5
395
 10
246.3563
 20
-51.4912
 30
0.0
 11
246.3507
 21
-51.4928
 31
0.0
  0
LINE
  8
5
  6
CONTINUOUS
 62
   215
  5
396
 10
246.3507
 20
-51.4928
 30
0.0
 11
246.3563
 21
-51.4986
 31
0.0
  0
LINE
  8
5
  6
CONTINUOUS
 62
   215
  5
397
 10
246.2685
 20
-51.1484
 30
0.0
 11
246.3438
 21
-51.121
 31
0.0
  0
LINE
  8
5
  6
CONTINUOUS
 62
   215
  5
398
 10
246.3438
 20
-51.121
 30
0.0
 11
246.2826
 21
-51.0698
 31
0.0
  0
LINE
  8
5
  6
CONTINUOUS
 62
   215
  5
399
 10
246.2826
 20
-51.0698
 30
0.0
 11
246.2685
 21
-51.1484
 31
0.0
  0
LINE
  8
5
  6
CONTINUOUS
 62
   215
  5
39A
 10
245.9171
 20
-51.3297
 30
0.0
 11
245.9377
 21
-51.2522
 31
0.0
  0
LINE
  8
5
  6
CONTINUOUS
 62
   215
  5
39B
 10
245.9377
 20
-51.2522
 30
0.0
 11
245.8606
 21
-51.2731
 31
0.0
  0
LINE
  8
5
  6
CONTINUOUS
 62
   215
  5
39C
 10
245.8606
 20
-51.2731
 30
0.0
 11
245.9171
 21
-51.3297
 31
0.0
  0
LINE
  8
5
  6
CONTINUOUS
 62
   215
  5
39D
 10
245.6053
 20
-51.5961
 30
0.0
 11
245.6852
 21
-51.5961
 31
0.0
  0
LINE
  8
5
  6
CONTINUOUS
 62
   215
  5
39E
 10
245.6852
 20
-51.5961
 30
0.0
 11
245.6453
 21
-51.5268
 31
0.0
  0
LINE
  8
5
  6
CONTINUOUS
 62
   215
  5
39F
 10
245.6453
 20
-51.5268
 30
0.0
 11
245.6053
 21
-51.5961
 31
0.0
  0
LINE
  8
5
  6
CONTINUOUS
 62
   215
  5
3A0
 10
246.1384
 20
-51.736
 30
0.0
 11
246.0821
 21
-51.6889
 31
0.0
  0
LINE
  8
5
  6
CONTINUOUS
 62
   215
  5
3A1
 10
246.0821
 20
-51.6889
 30
0.0
 11
246.0735
 21
-51.736
 31
0.0
  0
LINE
  8
5
  6
CONTINUOUS
 62
   215
  5
3A2
 10
246.1384
 20
-51.736
 30
0.0
 11
246.0821
 21
-51.6889
 31
0.0
  0
LINE
  8
5
  6
CONTINUOUS
 62
   215
  5
3A3
 10
246.0821
 20
-51.6889
 30
0.0
 11
246.0735
 21
-51.736
 31
0.0
  0
LINE
  8
5
  6
CONTINUOUS
 62
   215
  5
3A4
 10
245.5564
 20
-51.0307
 30
0.0
 11
245.6095
 21
-50.9998
 31
0.0
  0
LINE
  8
5
  6
CONTINUOUS
 62
   215
  5
3A5
 10
245.6095
 20
-50.9998
 30
0.0
 11
245.5564
 21
-50.9692
 31
0.0
  0
CIRCLE
  8
5
  6
CONTINUOUS
 62
   215
  5
3A6
 10
245.818702
 20
-51.074308
 30
0.000006
 40
0.004446
210
0.0
220
0.0
230
1.0
  0
CIRCLE
  8
5
  6
CONTINUOUS
 62
   215
  5
3A7
 10
246.148202
 20
-51.457592
 30
0.000006
 40
0.004446
210
0.0
220
0.0
230
1.0
  0
CIRCLE
  8
5
  6
CONTINUOUS
 62
   215
  5
3A8
 10
245.82643
 20
-51.626051
 30
0.000006
 40
0.004446
210
0.0
220
0.0
230
1.0
  0
CIRCLE
  8
5
  6
CONTINUOUS
 62
   215
  5
3A9
 10
245.696144
 20
-51.311851
 30
0.000006
 40
0.004446
210
0.0
220
0.0
230
1.0
  0
LINE
  8
5
  6
CONTINUOUS
 62
     7
  5
3AA
 10
222.0265
 20
-45.8026
 30
0.0
 11
225.5965
 21
-45.8026
 31
0.0
  0
POLYLINE
  8
5
  6
CONTINUOUS
 62
     7
  5
3AB
 66
     1
 10
0.0
 20
0.0
 30
0.0
210
0.0
220
0.0
230
1.0
  0
VERTEX
  8
5
  6
CONTINUOUS
 62
     7
  5
3AC
 10
222.1265
 20
-45.8214
 30
0.0
  0
VERTEX
  8
5
  6
CONTINUOUS
 62
     7
  5
3AD
 10
222.0265
 20
-45.8026
 30
0.0
  0
VERTEX
  8
5
  6
CONTINUOUS
 62
     7
  5
3AE
 10
222.1265
 20
-45.7838
 30
0.0
  0
SEQEND
  8
5
  6
CONTINUOUS
 62
     7
  5
3AF
  0
POLYLINE
  8
5
  6
CONTINUOUS
 62
     7
  5
3B0
 66
     1
 10
0.0
 20
0.0
 30
0.0
210
0.0
220
0.0
230
1.0
  0
VERTEX
  8
5
  6
CONTINUOUS
 62
     7
  5
3B1
 10
225.4965
 20
-45.7838
 30
0.0
  0
VERTEX
  8
5
  6
CONTINUOUS
 62
     7
  5
3B2
 10
225.5965
 20
-45.8026
 30
0.0
  0
VERTEX
  8
5
  6
CONTINUOUS
 62
     7
  5
3B3
 10
225.4965
 20
-45.8214
 30
0.0
  0
SEQEND
  8
5
  6
CONTINUOUS
 62
     7
  5
3B4
  0
LINE
  8
5
  6
CONTINUOUS
 62
     7
  5
3B5
 10
222.0265
 20
-46.1076
 30
0.0
 11
222.0265
 21
-45.701
 31
0.0
  0
LINE
  8
5
  6
CONTINUOUS
 62
     7
  5
3B6
 10
225.5965
 20
-46.5044
 30
0.0
 11
225.5965
 21
-45.701
 31
0.0
  0
LINE
  8
5
  6
CONTINUOUS
 62
     7
  5
3B7
 10
225.5965
 20
-45.8026
 30
0.0
 11
227.7385
 21
-45.8026
 31
0.0
  0
POLYLINE
  8
5
  6
CONTINUOUS
 62
     7
  5
3B8
 66
     1
 10
0.0
 20
0.0
 30
0.0
210
0.0
220
0.0
230
1.0
  0
VERTEX
  8
5
  6
CONTINUOUS
 62
     7
  5
3B9
 10
225.6965
 20
-45.8213
 30
0.0
  0
VERTEX
  8
5
  6
CONTINUOUS
 62
     7
  5
3BA
 10
225.5965
 20
-45.8026
 30
0.0
  0
VERTEX
  8
5
  6
CONTINUOUS
 62
     7
  5
3BB
 10
225.6965
 20
-45.7839
 30
0.0
  0
SEQEND
  8
5
  6
CONTINUOUS
 62
     7
  5
3BC
  0
POLYLINE
  8
5
  6
CONTINUOUS
 62
     7
  5
3BD
 66
     1
 10
0.0
 20
0.0
 30
0.0
210
0.0
220
0.0
230
1.0
  0
VERTEX
  8
5
  6
CONTINUOUS
 62
     7
  5
3BE
 10
227.6385
 20
-45.7839
 30
0.0
  0
VERTEX
  8
5
  6
CONTINUOUS
 62
     7
  5
3BF
 10
227.7385
 20
-45.8026
 30
0.0
  0
VERTEX
  8
5
  6
CONTINUOUS
 62
     7
  5
3C0
 10
227.6385
 20
-45.8213
 30
0.0
  0
SEQEND
  8
5
  6
CONTINUOUS
 62
     7
  5
3C1
  0
LINE
  8
5
  6
CONTINUOUS
 62
     7
  5
3C2
 10
227.7385
 20
-46.6177
 30
0.0
 11
227.7385
 21
-45.701
 31
0.0
  0
LINE
  8
5
  6
CONTINUOUS
 62
     7
  5
3C3
 10
222.0265
 20
-47.836
 30
0.0
 11
225.5965
 21
-47.836
 31
0.0
  0
POLYLINE
  8
5
  6
CONTINUOUS
 62
     7
  5
3C4
 66
     1
 10
0.0
 20
0.0
 30
0.0
210
0.0
220
0.0
230
1.0
  0
VERTEX
  8
5
  6
CONTINUOUS
 62
     7
  5
3C5
 10
222.1265
 20
-47.8548
 30
0.0
  0
VERTEX
  8
5
  6
CONTINUOUS
 62
     7
  5
3C6
 10
222.0265
 20
-47.836
 30
0.0
  0
VERTEX
  8
5
  6
CONTINUOUS
 62
     7
  5
3C7
 10
222.1265
 20
-47.8172
 30
0.0
  0
SEQEND
  8
5
  6
CONTINUOUS
 62
     7
  5
3C8
  0
POLYLINE
  8
5
  6
CONTINUOUS
 62
     7
  5
3C9
 66
     1
 10
0.0
 20
0.0
 30
0.0
210
0.0
220
0.0
230
1.0
  0
VERTEX
  8
5
  6
CONTINUOUS
 62
     7
  5
3CA
 10
225.4965
 20
-47.8172
 30
0.0
  0
VERTEX
  8
5
  6
CONTINUOUS
 62
     7
  5
3CB
 10
225.5965
 20
-47.836
 30
0.0
  0
VERTEX
  8
5
  6
CONTINUOUS
 62
     7
  5
3CC
 10
225.4965
 20
-47.8548
 30
0.0
  0
SEQEND
  8
5
  6
CONTINUOUS
 62
     7
  5
3CD
  0
LINE
  8
5
  6
CONTINUOUS
 62
     7
  5
3CE
 10
222.0265
 20
-47.516
 30
0.0
 11
222.0265
 21
-47.9193
 31
0.0
  0
LINE
  8
5
  6
CONTINUOUS
 62
     7
  5
3CF
 10
225.5965
 20
-47.2389
 30
0.0
 11
225.5965
 21
-47.9193
 31
0.0
  0
LINE
  8
5
  6
CONTINUOUS
 62
     7
  5
3D0
 10
225.5965
 20
-47.836
 30
0.0
 11
227.7385
 21
-47.836
 31
0.0
  0
POLYLINE
  8
5
  6
CONTINUOUS
 62
     7
  5
3D1
 66
     1
 10
0.0
 20
0.0
 30
0.0
210
0.0
220
0.0
230
1.0
  0
VERTEX
  8
5
  6
CONTINUOUS
 62
     7
  5
3D2
 10
225.6965
 20
-47.8548
 30
0.0
  0
VERTEX
  8
5
  6
CONTINUOUS
 62
     7
  5
3D3
 10
225.5965
 20
-47.836
 30
0.0
  0
VERTEX
  8
5
  6
CONTINUOUS
 62
     7
  5
3D4
 10
225.6965
 20
-47.8172
 30
0.0
  0
SEQEND
  8
5
  6
CONTINUOUS
 62
     7
  5
3D5
  0
POLYLINE
  8
5
  6
CONTINUOUS
 62
     7
  5
3D6
 66
     1
 10
0.0
 20
0.0
 30
0.0
210
0.0
220
0.0
230
1.0
  0
VERTEX
  8
5
  6
CONTINUOUS
 62
     7
  5
3D7
 10
227.6385
 20
-47.8172
 30
0.0
  0
VERTEX
  8
5
  6
CONTINUOUS
 62
     7
  5
3D8
 10
227.7385
 20
-47.836
 30
0.0
  0
VERTEX
  8
5
  6
CONTINUOUS
 62
     7
  5
3D9
 10
227.6385
 20
-47.8548
 30
0.0
  0
SEQEND
  8
5
  6
CONTINUOUS
 62
     7
  5
3DA
  0
LINE
  8
5
  6
CONTINUOUS
 62
     7
  5
3DB
 10
227.7385
 20
-47.1256
 30
0.0
 11
227.7385
 21
-47.9193
 31
0.0
  0
LINE
  8
5
  6
CONTINUOUS
 62
     7
  5
3DC
 10
220.8702
 20
-53.2017
 30
0.0
 11
220.5002
 21
-53.2017
 31
0.0
  0
LINE
  8
5
  6
CONTINUOUS
 62
     7
  5
3DD
 10
224.4081
 20
-51.4714
 30
0.0
 11
224.4081
 21
-51.8455
 31
0.0
  0
POLYLINE
  8
5
  6
CONTINUOUS
 62
     7
  5
3DE
 66
     1
 10
0.0
 20
0.0
 30
0.0
210
0.0
220
0.0
230
1.0
  0
VERTEX
  8
5
  6
CONTINUOUS
 62
     7
  5
3DF
 10
224.4268
 20
-52.1194
 30
0.0
  0
VERTEX
  8
5
  6
CONTINUOUS
 62
     7
  5
3E0
 10
224.4081
 20
-52.2194
 30
0.0
  0
VERTEX
  8
5
  6
CONTINUOUS
 62
     7
  5
3E1
 10
224.3894
 20
-52.1194
 30
0.0
  0
SEQEND
  8
5
  6
CONTINUOUS
 62
     7
  5
3E2
  0
POLYLINE
  8
5
  6
CONTINUOUS
 62
     7
  5
3E3
 66
     1
 10
0.0
 20
0.0
 30
0.0
210
0.0
220
0.0
230
1.0
  0
VERTEX
  8
5
  6
CONTINUOUS
 62
     7
  5
3E4
 10
224.3894
 20
-51.9455
 30
0.0
  0
VERTEX
  8
5
  6
CONTINUOUS
 62
     7
  5
3E5
 10
224.4081
 20
-51.8455
 30
0.0
  0
VERTEX
  8
5
  6
CONTINUOUS
 62
     7
  5
3E6
 10
224.4268
 20
-51.9455
 30
0.0
  0
SEQEND
  8
5
  6
CONTINUOUS
 62
     7
  5
3E7
  0
LINE
  8
5
  6
CONTINUOUS
 62
     7
  5
3E8
 10
225.7388
 20
-51.4714
 30
0.0
 11
224.3581
 21
-51.4714
 31
0.0
  0
LINE
  8
5
  6
CONTINUOUS
 62
     7
  5
3E9
 10
225.6493
 20
-51.8455
 30
0.0
 11
224.3581
 21
-51.8455
 31
0.0
  0
LINE
  8
5
  6
CONTINUOUS
 62
     7
  5
3EA
 10
224.4081
 20
-51.8455
 30
0.0
 11
224.4081
 21
-52.2194
 31
0.0
  0
POLYLINE
  8
5
  6
CONTINUOUS
 62
     7
  5
3EB
 66
     1
 10
0.0
 20
0.0
 30
0.0
210
0.0
220
0.0
230
1.0
  0
VERTEX
  8
5
  6
CONTINUOUS
 62
     7
  5
3EC
 10
224.4268
 20
-51.7455
 30
0.0
  0
VERTEX
  8
5
  6
CONTINUOUS
 62
     7
  5
3ED
 10
224.4081
 20
-51.8455
 30
0.0
  0
VERTEX
  8
5
  6
CONTINUOUS
 62
     7
  5
3EE
 10
224.3894
 20
-51.7455
 30
0.0
  0
SEQEND
  8
5
  6
CONTINUOUS
 62
     7
  5
3EF
  0
LINE
  8
5
  6
CONTINUOUS
 62
     7
  5
3F0
 10
225.8602
 20
-50.3214
 30
0.0
 11
226.6995
 21
-50.3214
 31
0.0
  0
POLYLINE
  8
5
  6
CONTINUOUS
 62
     7
  5
3F1
 66
     1
 10
0.0
 20
0.0
 30
0.0
210
0.0
220
0.0
230
1.0
  0
VERTEX
  8
5
  6
CONTINUOUS
 62
     7
  5
3F2
 10
225.9725
 20
-50.3026
 30
0.0
  0
VERTEX
  8
5
  6
CONTINUOUS
 62
     7
  5
3F3
 10
226.0725
 20
-50.3214
 30
0.0
  0
VERTEX
  8
5
  6
CONTINUOUS
 62
     7
  5
3F4
 10
225.9725
 20
-50.3402
 30
0.0
  0
SEQEND
  8
5
  6
CONTINUOUS
 62
     7
  5
3F5
  0
POLYLINE
  8
5
  6
CONTINUOUS
 62
     7
  5
3F6
 66
     1
 10
0.0
 20
0.0
 30
0.0
210
0.0
220
0.0
230
1.0
  0
VERTEX
  8
5
  6
CONTINUOUS
 62
     7
  5
3F7
 10
226.5581
 20
-50.3402
 30
0.0
  0
VERTEX
  8
5
  6
CONTINUOUS
 62
     7
  5
3F8
 10
226.4581
 20
-50.3214
 30
0.0
  0
VERTEX
  8
5
  6
CONTINUOUS
 62
     7
  5
3F9
 10
226.5581
 20
-50.3026
 30
0.0
  0
SEQEND
  8
5
  6
CONTINUOUS
 62
     7
  5
3FA
  0
LINE
  8
5
  6
CONTINUOUS
 62
     7
  5
3FB
 10
226.0725
 20
-51.2168
 30
0.0
 11
226.0725
 21
-50.3244
 31
0.0
  0
LINE
  8
5
  6
CONTINUOUS
 62
     7
  5
3FC
 10
226.4581
 20
-51.2168
 30
0.0
 11
226.4581
 21
-50.2589
 31
0.0
  0
LINE
  8
5
  6
CONTINUOUS
 62
     7
  5
3FD
 10
226.0725
 20
-50.0099
 30
0.0
 11
227.7385
 21
-50.0099
 31
0.0
  0
POLYLINE
  8
5
  6
CONTINUOUS
 62
     7
  5
3FE
 66
     1
 10
0.0
 20
0.0
 30
0.0
210
0.0
220
0.0
230
1.0
  0
VERTEX
  8
5
  6
CONTINUOUS
 62
     7
  5
3FF
 10
226.1725
 20
-50.0286
 30
0.0
  0
VERTEX
  8
5
  6
CONTINUOUS
 62
     7
  5
400
 10
226.0725
 20
-50.0099
 30
0.0
  0
VERTEX
  8
5
  6
CONTINUOUS
 62
     7
  5
401
 10
226.1725
 20
-49.9912
 30
0.0
  0
SEQEND
  8
5
  6
CONTINUOUS
 62
     7
  5
402
  0
POLYLINE
  8
5
  6
CONTINUOUS
 62
     7
  5
403
 66
     1
 10
0.0
 20
0.0
 30
0.0
210
0.0
220
0.0
230
1.0
  0
VERTEX
  8
5
  6
CONTINUOUS
 62
     7
  5
404
 10
227.6385
 20
-49.9912
 30
0.0
  0
VERTEX
  8
5
  6
CONTINUOUS
 62
     7
  5
405
 10
227.7385
 20
-50.0099
 30
0.0
  0
VERTEX
  8
5
  6
CONTINUOUS
 62
     7
  5
406
 10
227.6385
 20
-50.0286
 30
0.0
  0
SEQEND
  8
5
  6
CONTINUOUS
 62
     7
  5
407
  0
LINE
  8
5
  6
CONTINUOUS
 62
     7
  5
408
 10
226.0725
 20
-51.1798
 30
0.0
 11
226.0725
 21
-49.9405
 31
0.0
  0
LINE
  8
5
  6
CONTINUOUS
 62
     7
  5
409
 10
227.7385
 20
-51.2345
 30
0.0
 11
227.7385
 21
-49.9405
 31
0.0
  0
LINE
  8
5
  6
CONTINUOUS
 62
     7
  5
40A
 10
228.2438
 20
-51.4538
 30
0.0
 11
228.2438
 21
-52.2622
 31
0.0
  0
POLYLINE
  8
5
  6
CONTINUOUS
 62
     7
  5
40B
 66
     1
 10
0.0
 20
0.0
 30
0.0
210
0.0
220
0.0
230
1.0
  0
VERTEX
  8
5
  6
CONTINUOUS
 62
     7
  5
40C
 10
228.2626
 20
-51.5604
 30
0.0
  0
VERTEX
  8
5
  6
CONTINUOUS
 62
     7
  5
40D
 10
228.2438
 20
-51.6604
 30
0.0
  0
VERTEX
  8
5
  6
CONTINUOUS
 62
     7
  5
40E
 10
228.225
 20
-51.5604
 30
0.0
  0
SEQEND
  8
5
  6
CONTINUOUS
 62
     7
  5
40F
  0
POLYLINE
  8
5
  6
CONTINUOUS
 62
     7
  5
410
 66
     1
 10
0.0
 20
0.0
 30
0.0
210
0.0
220
0.0
230
1.0
  0
VERTEX
  8
5
  6
CONTINUOUS
 62
     7
  5
411
 10
228.225
 20
-52.1304
 30
0.0
  0
VERTEX
  8
5
  6
CONTINUOUS
 62
     7
  5
412
 10
228.2438
 20
-52.0304
 30
0.0
  0
VERTEX
  8
5
  6
CONTINUOUS
 62
     7
  5
413
 10
228.2626
 20
-52.1304
 30
0.0
  0
SEQEND
  8
5
  6
CONTINUOUS
 62
     7
  5
414
  0
LINE
  8
5
  6
CONTINUOUS
 62
     7
  5
415
 10
226.8972
 20
-51.6604
 30
0.0
 11
228.2938
 21
-51.6604
 31
0.0
  0
LINE
  8
5
  6
CONTINUOUS
 62
     7
  5
416
 10
226.8972
 20
-52.0304
 30
0.0
 11
228.2938
 21
-52.0304
 31
0.0
  0
POLYLINE
  8
5
  6
CONTINUOUS
 62
     7
  5
417
 66
     1
 10
0.0
 20
0.0
 30
0.0
210
0.0
220
0.0
230
1.0
  0
VERTEX
  8
5
  6
CONTINUOUS
 62
     7
  5
418
 10
228.9716
 20
-51.4929
 30
0.0
  0
VERTEX
  8
5
  6
CONTINUOUS
 62
     7
  5
419
 10
228.9904
 20
-51.3929
 30
0.0
  0
VERTEX
  8
5
  6
CONTINUOUS
 62
     7
  5
41A
 10
229.0092
 20
-51.4929
 30
0.0
  0
SEQEND
  8
5
  6
CONTINUOUS
 62
     7
  5
41B
  0
LINE
  8
5
  6
CONTINUOUS
 62
     7
  5
41C
 10
227.7885
 20
-51.3929
 30
0.0
 11
229.0404
 21
-51.3929
 31
0.0
  0
LINE
  8
5
  6
CONTINUOUS
 62
     7
  5
41D
 10
228.6223
 20
-51.8455
 30
0.0
 11
228.6223
 21
-53.2017
 31
0.0
  0
POLYLINE
  8
5
  6
CONTINUOUS
 62
     7
  5
41E
 66
     1
 10
0.0
 20
0.0
 30
0.0
210
0.0
220
0.0
230
1.0
  0
VERTEX
  8
5
  6
CONTINUOUS
 62
     7
  5
41F
 10
228.6035
 20
-51.9455
 30
0.0
  0
VERTEX
  8
5
  6
CONTINUOUS
 62
     7
  5
420
 10
228.6223
 20
-51.8455
 30
0.0
  0
VERTEX
  8
5
  6
CONTINUOUS
 62
     7
  5
421
 10
228.6411
 20
-51.9455
 30
0.0
  0
SEQEND
  8
5
  6
CONTINUOUS
 62
     7
  5
422
  0
POLYLINE
  8
5
  6
CONTINUOUS
 62
     7
  5
423
 66
     1
 10
0.0
 20
0.0
 30
0.0
210
0.0
220
0.0
230
1.0
  0
VERTEX
  8
5
  6
CONTINUOUS
 62
     7
  5
424
 10
228.6411
 20
-53.1017
 30
0.0
  0
VERTEX
  8
5
  6
CONTINUOUS
 62
     7
  5
425
 10
228.6223
 20
-53.2017
 30
0.0
  0
VERTEX
  8
5
  6
CONTINUOUS
 62
     7
  5
426
 10
228.6035
 20
-53.1017
 30
0.0
  0
SEQEND
  8
5
  6
CONTINUOUS
 62
     7
  5
427
  0
LINE
  8
5
  6
DASHDOT
 62
   241
  5
428
 10
226.5712
 20
-51.8455
 30
0.0
 11
228.0397
 21
-51.8455
 31
0.0
  0
LINE
  8
5
  6
CONTINUOUS
 62
     7
  5
429
 10
226.0725
 20
-63.1517
 30
0.0
 11
227.7385
 21
-63.1517
 31
0.0
  0
POLYLINE
  8
5
  6
CONTINUOUS
 62
     7
  5
42A
 66
     1
 10
0.0
 20
0.0
 30
0.0
210
0.0
220
0.0
230
1.0
  0
VERTEX
  8
5
  6
CONTINUOUS
 62
     7
  5
42B
 10
226.1725
 20
-63.1705
 30
0.0
  0
VERTEX
  8
5
  6
CONTINUOUS
 62
     7
  5
42C
 10
226.0725
 20
-63.1517
 30
0.0
  0
VERTEX
  8
5
  6
CONTINUOUS
 62
     7
  5
42D
 10
226.1725
 20
-63.1329
 30
0.0
  0
SEQEND
  8
5
  6
CONTINUOUS
 62
     7
  5
42E
  0
POLYLINE
  8
5
  6
CONTINUOUS
 62
     7
  5
42F
 66
     1
 10
0.0
 20
0.0
 30
0.0
210
0.0
220
0.0
230
1.0
  0
VERTEX
  8
5
  6
CONTINUOUS
 62
     7
  5
430
 10
227.6385
 20
-63.1329
 30
0.0
  0
VERTEX
  8
5
  6
CONTINUOUS
 62
     7
  5
431
 10
227.7385
 20
-63.1517
 30
0.0
  0
VERTEX
  8
5
  6
CONTINUOUS
 62
     7
  5
432
 10
227.6385
 20
-63.1705
 30
0.0
  0
SEQEND
  8
5
  6
CONTINUOUS
 62
     7
  5
433
  0
LINE
  8
5
  6
CONTINUOUS
 62
     7
  5
434
 10
226.0725
 20
-64.3546
 30
0.0
 11
226.0725
 21
-63.0892
 31
0.0
  0
LINE
  8
5
  6
CONTINUOUS
 62
     7
  5
435
 10
227.7385
 20
-64.4358
 30
0.0
 11
227.7385
 21
-63.0892
 31
0.0
  0
LINE
  8
5
  6
CONTINUOUS
 62
     7
  5
436
 10
225.8725
 20
-63.5474
 30
0.0
 11
226.6533
 21
-63.5474
 31
0.0
  0
POLYLINE
  8
5
  6
CONTINUOUS
 62
     7
  5
437
 66
     1
 10
0.0
 20
0.0
 30
0.0
210
0.0
220
0.0
230
1.0
  0
VERTEX
  8
5
  6
CONTINUOUS
 62
     7
  5
438
 10
225.9725
 20
-63.5287
 30
0.0
  0
VERTEX
  8
5
  6
CONTINUOUS
 62
     7
  5
439
 10
226.0725
 20
-63.5474
 30
0.0
  0
VERTEX
  8
5
  6
CONTINUOUS
 62
     7
  5
43A
 10
225.9725
 20
-63.5661
 30
0.0
  0
SEQEND
  8
5
  6
CONTINUOUS
 62
     7
  5
43B
  0
POLYLINE
  8
5
  6
CONTINUOUS
 62
     7
  5
43C
 66
     1
 10
0.0
 20
0.0
 30
0.0
210
0.0
220
0.0
230
1.0
  0
VERTEX
  8
5
  6
CONTINUOUS
 62
     7
  5
43D
 10
226.5581
 20
-63.5661
 30
0.0
  0
VERTEX
  8
5
  6
CONTINUOUS
 62
     7
  5
43E
 10
226.4581
 20
-63.5474
 30
0.0
  0
VERTEX
  8
5
  6
CONTINUOUS
 62
     7
  5
43F
 10
226.5581
 20
-63.5287
 30
0.0
  0
SEQEND
  8
5
  6
CONTINUOUS
 62
     7
  5
440
  0
LINE
  8
5
  6
CONTINUOUS
 62
     7
  5
441
 10
226.4581
 20
-64.3546
 30
0.0
 11
226.4581
 21
-63.4988
 31
0.0
  0
LINE
  8
5
  6
CONTINUOUS
 62
     7
  5
442
 10
227.7885
 20
-64.5446
 30
0.0
 11
229.0239
 21
-64.5446
 31
0.0
  0
LINE
  8
5
  6
CONTINUOUS
 62
     7
  5
443
 10
228.5901
 20
-64.9971
 30
0.0
 11
228.5901
 21
-66.3534
 31
0.0
  0
POLYLINE
  8
5
  6
CONTINUOUS
 62
     7
  5
444
 66
     1
 10
0.0
 20
0.0
 30
0.0
210
0.0
220
0.0
230
1.0
  0
VERTEX
  8
5
  6
CONTINUOUS
 62
     7
  5
445
 10
228.5713
 20
-65.0971
 30
0.0
  0
VERTEX
  8
5
  6
CONTINUOUS
 62
     7
  5
446
 10
228.5901
 20
-64.9971
 30
0.0
  0
VERTEX
  8
5
  6
CONTINUOUS
 62
     7
  5
447
 10
228.6089
 20
-65.0971
 30
0.0
  0
SEQEND
  8
5
  6
CONTINUOUS
 62
     7
  5
448
  0
POLYLINE
  8
5
  6
CONTINUOUS
 62
     7
  5
449
 66
     1
 10
0.0
 20
0.0
 30
0.0
210
0.0
220
0.0
230
1.0
  0
VERTEX
  8
5
  6
CONTINUOUS
 62
     7
  5
44A
 10
228.6089
 20
-66.2534
 30
0.0
  0
VERTEX
  8
5
  6
CONTINUOUS
 62
     7
  5
44B
 10
228.5901
 20
-66.3534
 30
0.0
  0
VERTEX
  8
5
  6
CONTINUOUS
 62
     7
  5
44C
 10
228.5713
 20
-66.2534
 30
0.0
  0
SEQEND
  8
5
  6
CONTINUOUS
 62
     7
  5
44D
  0
LINE
  8
5
  6
DASHDOT
 62
   241
  5
44E
 10
226.5632
 20
-64.9971
 30
0.0
 11
228.1873
 21
-64.9971
 31
0.0
  0
LINE
  8
5
  6
CONTINUOUS
 62
     7
  5
44F
 10
228.2437
 20
-64.6072
 30
0.0
 11
228.2437
 21
-65.3982
 31
0.0
  0
POLYLINE
  8
5
  6
CONTINUOUS
 62
     7
  5
450
 66
     1
 10
0.0
 20
0.0
 30
0.0
210
0.0
220
0.0
230
1.0
  0
VERTEX
  8
5
  6
CONTINUOUS
 62
     7
  5
451
 10
228.2625
 20
-64.7121
 30
0.0
  0
VERTEX
  8
5
  6
CONTINUOUS
 62
     7
  5
452
 10
228.2437
 20
-64.8121
 30
0.0
  0
VERTEX
  8
5
  6
CONTINUOUS
 62
     7
  5
453
 10
228.2249
 20
-64.7121
 30
0.0
  0
SEQEND
  8
5
  6
CONTINUOUS
 62
     7
  5
454
  0
POLYLINE
  8
5
  6
CONTINUOUS
 62
     7
  5
455
 66
     1
 10
0.0
 20
0.0
 30
0.0
210
0.0
220
0.0
230
1.0
  0
VERTEX
  8
5
  6
CONTINUOUS
 62
     7
  5
456
 10
228.2249
 20
-65.2822
 30
0.0
  0
VERTEX
  8
5
  6
CONTINUOUS
 62
     7
  5
457
 10
228.2437
 20
-65.1822
 30
0.0
  0
VERTEX
  8
5
  6
CONTINUOUS
 62
     7
  5
458
 10
228.2625
 20
-65.2822
 30
0.0
  0
SEQEND
  8
5
  6
CONTINUOUS
 62
     7
  5
459
  0
LINE
  8
5
  6
CONTINUOUS
 62
     7
  5
45A
 10
226.9716
 20
-64.8121
 30
0.0
 11
228.2937
 21
-64.8121
 31
0.0
  0
LINE
  8
5
  6
CONTINUOUS
 62
     7
  5
45B
 10
226.9716
 20
-65.1822
 30
0.0
 11
228.2937
 21
-65.1822
 31
0.0
  0
LINE
  8
5
  6
CONTINUOUS
 62
     7
  5
45C
 10
224.4081
 20
-64.6231
 30
0.0
 11
224.4081
 21
-64.9971
 31
0.0
  0
POLYLINE
  8
5
  6
CONTINUOUS
 62
     7
  5
45D
 66
     1
 10
0.0
 20
0.0
 30
0.0
210
0.0
220
0.0
230
1.0
  0
VERTEX
  8
5
  6
CONTINUOUS
 62
     7
  5
45E
 10
224.3893
 20
-65.0971
 30
0.0
  0
VERTEX
  8
5
  6
CONTINUOUS
 62
     7
  5
45F
 10
224.4081
 20
-64.9971
 30
0.0
  0
VERTEX
  8
5
  6
CONTINUOUS
 62
     7
  5
460
 10
224.4269
 20
-65.0971
 30
0.0
  0
SEQEND
  8
5
  6
CONTINUOUS
 62
     7
  5
461
  0
LINE
  8
5
  6
CONTINUOUS
 62
     7
  5
462
 10
225.6493
 20
-64.6231
 30
0.0
 11
224.3581
 21
-64.6231
 31
0.0
  0
LINE
  8
5
  6
CONTINUOUS
 62
     7
  5
463
 10
225.6493
 20
-64.9971
 30
0.0
 11
224.3581
 21
-64.9971
 31
0.0
  0
LINE
  8
5
  6
CONTINUOUS
 62
     7
  5
464
 10
224.4081
 20
-64.9971
 30
0.0
 11
224.4081
 21
-65.3711
 31
0.0
  0
POLYLINE
  8
5
  6
CONTINUOUS
 62
     7
  5
465
 66
     1
 10
0.0
 20
0.0
 30
0.0
210
0.0
220
0.0
230
1.0
  0
VERTEX
  8
5
  6
CONTINUOUS
 62
     7
  5
466
 10
224.4269
 20
-64.8971
 30
0.0
  0
VERTEX
  8
5
  6
CONTINUOUS
 62
     7
  5
467
 10
224.4081
 20
-64.9971
 30
0.0
  0
VERTEX
  8
5
  6
CONTINUOUS
 62
     7
  5
468
 10
224.3893
 20
-64.8971
 30
0.0
  0
SEQEND
  8
5
  6
CONTINUOUS
 62
     7
  5
469
  0
LINE
  8
5
  6
DASHDOT
 62
   241
  5
46A
 10
228.5047
 20
-51.8455
 30
0.0
 11
228.9138
 21
-51.8455
 31
0.0
  0
TEXT
  8
30
  6
CONTINUOUS
 62
     2
  5
46B
 10
244.1858
 20
-48.7832
 30
0.0
 40
0.2719
  1
PLAN
  7
txt
210
0.0
220
0.0
230
1.0
  0
TEXT
  8
30
  6
CONTINUOUS
 62
     2
  5
46C
 10
243.4103
 20
-54.8826
 30
0.0
 40
0.2719
  1
ELEVATION
  7
txt
210
0.0
220
0.0
230
1.0
  0
LINE
  8
5
  6
DASHDOT
 62
   241
  5
46D
 10
228.5104
 20
-64.9971
 30
0.0
 11
228.8851
 21
-64.9971
 31
0.0
  0
TEXT
  8
59
  6
CONTINUOUS
 62
   110
  5
46E
 10
229.3922
 20
-65.0815
 30
0.0
 40
0.1562
  1
L
  7
ITALICT
 11
229.3922
 21
-65.0034
 31
0.0
210
0.0
220
0.0
230
1.0
 73
     2
  0
LINE
  8
1
  6
CONTINUOUS
 62
   110
  5
46F
 10
227.7385
 20
-59.4194
 30
0.0
 11
227.7385
 21
-59.7526
 31
0.0
  0
LINE
  8
1
  6
CONTINUOUS
 62
   110
  5
470
 10
222.0265
 20
-59.8716
 30
0.0
 11
222.0265
 21
-60.0957
 31
0.0
  0
LINE
  8
1
  6
CONTINUOUS
 62
   110
  5
471
 10
222.0265
 20
-60.0957
 30
0.0
 11
220.9388
 21
-60.0957
 31
0.0
  0
LINE
  8
1
  6
DOT
 62
   110
  5
472
 10
226.1234
 20
-59.4194
 30
0.0
 11
226.1234
 21
-59.7526
 31
0.0
  0
TEXT
  8
30
  6
CONTINUOUS
 62
     2
  5
473
 10
223.8729
 20
-62.1776
 30
0.0
 40
0.2719
  1
PLAN
  7
txt
210
0.0
220
0.0
230
1.0
  0
POLYLINE
  8
6
  6
CONTINUOUS
 62
     2
  5
474
 66
     1
 10
0.0
 20
0.0
 30
0.0
210
0.0
220
0.0
230
1.0
  0
VERTEX
  8
6
  6
CONTINUOUS
 62
     2
  5
475
 10
220.9388
 20
-59.0186
 30
0.0
  0
VERTEX
  8
6
  6
CONTINUOUS
 62
     2
  5
476
 10
220.9388
 20
-59.4891
 30
0.0
  0
VERTEX
  8
6
  6
CONTINUOUS
 62
     2
  5
477
 10
220.6589
 20
-59.5577
 30
0.0
  0
VERTEX
  8
6
  6
CONTINUOUS
 62
     2
  5
478
 10
221.1471
 20
-59.5901
 30
0.0
  0
VERTEX
  8
6
  6
CONTINUOUS
 62
     2
  5
479
 10
220.9388
 20
-59.6365
 30
0.0
  0
SEQEND
  8
6
  6
CONTINUOUS
 62
     2
  5
47A
  0
LINE
  8
6
  6
CONTINUOUS
 62
     2
  5
47B
 10
220.9388
 20
-60.6435
 30
0.0
 11
220.9388
 21
-59.6365
 31
0.0
  0
LINE
  8
1
  6
CONTINUOUS
 62
   110
  5
47C
 10
225.5965
 20
-59.8716
 30
0.0
 11
220.9388
 21
-59.8716
 31
0.0
  0
LINE
  8
1
  6
CONTINUOUS
 62
   110
  5
47D
 10
227.7385
 20
-59.7526
 30
0.0
 11
220.9388
 21
-59.7526
 31
0.0
  0
LINE
  8
1
  6
CONTINUOUS
 62
   110
  5
47E
 10
227.3358
 20
-59.4194
 30
0.0
 11
227.3358
 21
-59.7526
 31
0.0
  0
LINE
  8
1
  6
DOT
 62
   110
  5
47F
 10
226.0216
 20
-59.4194
 30
0.0
 11
226.0216
 21
-59.7526
 31
0.0
  0
LINE
  8
1
  6
DOT
 62
   110
  5
480
 10
226.4976
 20
-59.4194
 30
0.0
 11
226.4976
 21
-59.7526
 31
0.0
  0
LINE
  8
1
  6
DOT
 62
   110
  5
481
 10
226.5994
 20
-59.4194
 30
0.0
 11
226.5994
 21
-59.7526
 31
0.0
  0
LINE
  8
6
  6
CONTINUOUS
 62
     2
  5
482
 10
220.9388
 20
-59.6763
 30
0.0
 11
220.9388
 21
-59.6365
 31
0.0
  0
LINE
  8
1
  6
CONTINUOUS
 62
   110
  5
483
 10
225.5965
 20
-59.8716
 30
0.0
 11
225.5965
 21
-59.4194
 31
0.0
  0
LINE
  8
1
  6
CONTINUOUS
 62
   110
  5
484
 10
227.7385
 20
-59.4194
 30
0.0
 11
220.9388
 21
-59.4194
 31
0.0
  0
LINE
  8
3
  6
CONTINUOUS
 62
     2
  5
485
 10
226.5485
 20
-59.586
 30
0.0
 11
226.5485
 21
-59.1573
 31
0.0
  0
LINE
  8
3
  6
CONTINUOUS
 62
     2
  5
486
 10
226.0725
 20
-59.586
 30
0.0
 11
226.0725
 21
-59.1573
 31
0.0
  0
LINE
  8
3
  6
CONTINUOUS
 62
     2
  5
487
 10
226.5485
 20
-59.586
 30
0.0
 11
226.5485
 21
-60.0038
 31
0.0
  0
LINE
  8
3
  6
CONTINUOUS
 62
     2
  5
488
 10
226.0725
 20
-59.586
 30
0.0
 11
226.0725
 21
-60.0038
 31
0.0
  0
LINE
  8
5
  6
CONTINUOUS
 62
     7
  5
489
 10
222.0265
 20
-61.0998
 30
0.0
 11
225.5965
 21
-61.0998
 31
0.0
  0
POLYLINE
  8
5
  6
CONTINUOUS
 62
     7
  5
48A
 66
     1
 10
0.0
 20
0.0
 30
0.0
210
0.0
220
0.0
230
1.0
  0
VERTEX
  8
5
  6
CONTINUOUS
 62
     7
  5
48B
 10
222.1265
 20
-61.1186
 30
0.0
  0
VERTEX
  8
5
  6
CONTINUOUS
 62
     7
  5
48C
 10
222.0265
 20
-61.0998
 30
0.0
  0
VERTEX
  8
5
  6
CONTINUOUS
 62
     7
  5
48D
 10
222.1265
 20
-61.081
 30
0.0
  0
SEQEND
  8
5
  6
CONTINUOUS
 62
     7
  5
48E
  0
POLYLINE
  8
5
  6
CONTINUOUS
 62
     7
  5
48F
 66
     1
 10
0.0
 20
0.0
 30
0.0
210
0.0
220
0.0
230
1.0
  0
VERTEX
  8
5
  6
CONTINUOUS
 62
     7
  5
490
 10
225.4965
 20
-61.081
 30
0.0
  0
VERTEX
  8
5
  6
CONTINUOUS
 62
     7
  5
491
 10
225.5965
 20
-61.0998
 30
0.0
  0
VERTEX
  8
5
  6
CONTINUOUS
 62
     7
  5
492
 10
225.4965
 20
-61.1186
 30
0.0
  0
SEQEND
  8
5
  6
CONTINUOUS
 62
     7
  5
493
  0
LINE
  8
5
  6
CONTINUOUS
 62
     7
  5
494
 10
225.5965
 20
-59.9533
 30
0.0
 11
225.5965
 21
-61.2108
 31
0.0
  0
LINE
  8
5
  6
CONTINUOUS
 62
     7
  5
495
 10
225.5965
 20
-61.0998
 30
0.0
 11
227.7385
 21
-61.0998
 31
0.0
  0
POLYLINE
  8
5
  6
CONTINUOUS
 62
     7
  5
496
 66
     1
 10
0.0
 20
0.0
 30
0.0
210
0.0
220
0.0
230
1.0
  0
VERTEX
  8
5
  6
CONTINUOUS
 62
     7
  5
497
 10
225.6965
 20
-61.1186
 30
0.0
  0
VERTEX
  8
5
  6
CONTINUOUS
 62
     7
  5
498
 10
225.5965
 20
-61.0998
 30
0.0
  0
VERTEX
  8
5
  6
CONTINUOUS
 62
     7
  5
499
 10
225.6965
 20
-61.081
 30
0.0
  0
SEQEND
  8
5
  6
CONTINUOUS
 62
     7
  5
49A
  0
POLYLINE
  8
5
  6
CONTINUOUS
 62
     7
  5
49B
 66
     1
 10
0.0
 20
0.0
 30
0.0
210
0.0
220
0.0
230
1.0
  0
VERTEX
  8
5
  6
CONTINUOUS
 62
     7
  5
49C
 10
227.6385
 20
-61.081
 30
0.0
  0
VERTEX
  8
5
  6
CONTINUOUS
 62
     7
  5
49D
 10
227.7385
 20
-61.0998
 30
0.0
  0
VERTEX
  8
5
  6
CONTINUOUS
 62
     7
  5
49E
 10
227.6385
 20
-61.1186
 30
0.0
  0
SEQEND
  8
5
  6
CONTINUOUS
 62
     7
  5
49F
  0
LINE
  8
5
  6
CONTINUOUS
 62
     7
  5
4A0
 10
227.7385
 20
-59.84
 30
0.0
 11
227.7385
 21
-61.2108
 31
0.0
  0
LINE
  8
5
  6
CONTINUOUS
 62
     7
  5
4A1
 10
224.2494
 20
-67.0174
 30
0.0
 11
224.0663
 21
-67.0174
 31
0.0
  0
LINE
  8
5
  6
CONTINUOUS
 62
     7
  5
4A2
 10
224.2494
 20
-53.8657
 30
0.0
 11
224.0663
 21
-53.8657
 31
0.0
  0
TEXT
  8
59
  6
CONTINUOUS
 62
   110
  5
4A3
 10
228.5402
 20
-65.836
 30
0.0
 40
0.12
  1
1'-9"
 50
90.0
  7
txt
 11
228.4802
 21
-65.836
 31
0.0
210
0.0
220
0.0
230
1.0
 73
     2
  0
TEXT
  8
59
  6
CONTINUOUS
 62
   110
  5
4A4
 10
228.5824
 20
-52.7172
 30
0.0
 40
0.1272
  1
1'-9"
 50
90.0
  7
txt
 11
228.5188
 21
-52.7172
 31
0.0
210
0.0
220
0.0
230
1.0
 73
     2
  0
TEXT
  8
59
  6
CONTINUOUS
 62
   110
  5
4A5
 10
229.6677
 20
-51.8774
 30
0.0
 40
0.1562
  1
C
  7
ITALICT
 11
229.6677
 21
-51.7993
 31
0.0
210
0.0
220
0.0
230
1.0
 73
     2
  0
TEXT
  8
59
  6
CONTINUOUS
 62
   110
  5
4A6
 10
229.6865
 20
-51.9398
 30
0.0
 40
0.1562
  1
L
  7
ITALICT
 11
229.6865
 21
-51.8617
 31
0.0
210
0.0
220
0.0
230
1.0
 73
     2
  0
TEXT
  8
59
  6
CONTINUOUS
 62
   110
  5
4A7
 10
229.5821
 20
-65.0419
 30
0.0
 40
0.12
  1
Guardrail
  7
txt
 11
229.5821
 21
-64.9819
 31
0.0
210
0.0
220
0.0
230
1.0
 73
     2
  0
TEXT
  8
59
  6
CONTINUOUS
 62
   110
  5
4A8
 10
229.8594
 20
-51.8941
 30
0.0
 40
0.1272
  1
Guardrail
  7
txt
 11
229.8594
 21
-51.8305
 31
0.0
210
0.0
220
0.0
230
1.0
 73
     2
  0
LINE
  8
1
  6
CONTINUOUS
 62
   110
  5
4A9
 10
227.7385
 20
-53.2017
 30
0.0
 11
225.5965
 21
-53.2017
 31
0.0
  0
LINE
  8
5
  6
CONTINUOUS
 62
   215
  5
4AA
 10
243.8328
 20
-47.3736
 30
0.0
 11
243.865
 21
-47.3551
 31
0.0
  0
LINE
  8
5
  6
CONTINUOUS
 62
   215
  5
4AB
 10
243.865
 20
-47.3551
 30
0.0
 11
243.8328
 21
-47.3362
 31
0.0
  0
LINE
  8
5
  6
CONTINUOUS
 62
   215
  5
4AC
 10
244.1203
 20
-47.1556
 30
0.0
 11
244.1477
 21
-47.1556
 31
0.0
  0
LINE
  8
5
  6
CONTINUOUS
 62
   215
  5
4AD
 10
244.1349
 20
-47.1304
 30
0.0
 11
244.1203
 21
-47.1556
 31
0.0
  0
LINE
  8
5
  6
CONTINUOUS
 62
   215
  5
4AE
 10
244.1318
 20
-46.2722
 30
0.0
 11
244.1313
 21
-46.3522
 31
0.0
  0
LINE
  8
5
  6
CONTINUOUS
 62
   215
  5
4AF
 10
244.1318
 20
-46.2722
 30
0.0
 11
244.1313
 21
-46.3522
 31
0.0
  0
LINE
  8
5
  6
CONTINUOUS
 62
   215
  5
4B0
 10
244.1313
 20
-46.3522
 30
0.0
 11
244.1477
 21
-46.3429
 31
0.0
  0
LINE
  8
5
  6
CONTINUOUS
 62
   215
  5
4B1
 10
244.1477
 20
-46.2814
 30
0.0
 11
244.1318
 21
-46.2722
 31
0.0
  0
LINE
  8
5
  6
CONTINUOUS
 62
   215
  5
4B2
 10
244.1313
 20
-46.3522
 30
0.0
 11
244.1477
 21
-46.3429
 31
0.0
  0
LINE
  8
5
  6
CONTINUOUS
 62
   215
  5
4B3
 10
244.1477
 20
-46.2814
 30
0.0
 11
244.1318
 21
-46.2722
 31
0.0
  0
CIRCLE
  8
5
  6
CONTINUOUS
 62
   215
  5
4B4
 10
243.995888
 20
-46.233348
 30
0.000006
 40
0.004446
210
0.0
220
0.0
230
1.0
  0
LINE
  8
5
  6
CONTINUOUS
 62
   215
  5
4B5
 10
244.2005
 20
-47.1556
 30
0.0
 11
244.1859
 21
-47.1304
 31
0.0
  0
LINE
  8
5
  6
CONTINUOUS
 62
   215
  5
4B6
 10
244.9196
 20
-47.242
 30
0.0
 11
244.989
 21
-47.202
 31
0.0
  0
LINE
  8
5
  6
CONTINUOUS
 62
   215
  5
4B7
 10
244.989
 20
-47.202
 30
0.0
 11
244.9199
 21
-47.1618
 31
0.0
  0
LINE
  8
5
  6
CONTINUOUS
 62
   215
  5
4B8
 10
244.9199
 20
-47.1618
 30
0.0
 11
244.9196
 21
-47.242
 31
0.0
  0
LINE
  8
5
  6
CONTINUOUS
 62
   215
  5
4B9
 10
245.6501
 20
-47.3951
 30
0.0
 11
245.7195
 21
-47.3551
 31
0.0
  0
LINE
  8
5
  6
CONTINUOUS
 62
   215
  5
4BA
 10
245.7195
 20
-47.3551
 30
0.0
 11
245.6507
 21
-47.3149
 31
0.0
  0
LINE
  8
5
  6
CONTINUOUS
 62
   215
  5
4BB
 10
245.6507
 20
-47.3149
 30
0.0
 11
245.6501
 21
-47.3951
 31
0.0
  0
LINE
  8
5
  6
CONTINUOUS
 62
   215
  5
4BC
 10
245.2785
 20
-47.5278
 30
0.0
 11
245.2478
 21
-47.5064
 31
0.0
  0
LINE
  8
5
  6
CONTINUOUS
 62
   215
  5
4BD
 10
245.2478
 20
-47.5064
 30
0.0
 11
245.2462
 21
-47.5248
 31
0.0
  0
LINE
  8
5
  6
CONTINUOUS
 62
   215
  5
4BE
 10
245.9749
 20
-47.1556
 30
0.0
 11
246.0022
 21
-47.1556
 31
0.0
  0
LINE
  8
5
  6
CONTINUOUS
 62
   215
  5
4BF
 10
245.9895
 20
-47.1304
 30
0.0
 11
245.9749
 21
-47.1556
 31
0.0
  0
LINE
  8
5
  6
CONTINUOUS
 62
   215
  5
4C0
 10
244.1477
 20
-47.1556
 30
0.0
 11
244.2005
 21
-47.1556
 31
0.0
  0
CIRCLE
  8
5
  6
CONTINUOUS
 62
   215
  5
4C1
 10
244.425068
 20
-47.275619
 30
0.000006
 40
0.004446
210
0.0
220
0.0
230
1.0
  0
CIRCLE
  8
5
  6
CONTINUOUS
 62
   215
  5
4C2
 10
245.873492
 20
-47.451804
 30
0.000006
 40
0.004446
210
0.0
220
0.0
230
1.0
  0
CIRCLE
  8
5
  6
CONTINUOUS
 62
   215
  5
4C3
 10
245.382957
 20
-47.283192
 30
0.000006
 40
0.004446
210
0.0
220
0.0
230
1.0
  0
CIRCLE
  8
5
  6
CONTINUOUS
 62
   215
  5
4C4
 10
244.81592
 20
-47.168363
 30
0.000006
 40
0.004446
210
0.0
220
0.0
230
1.0
  0
LINE
  8
5
  6
CONTINUOUS
 62
   215
  5
4C5
 10
244.7715
 20
-46.0824
 30
0.0
 11
244.841
 21
-46.0424
 31
0.0
  0
LINE
  8
5
  6
CONTINUOUS
 62
   215
  5
4C6
 10
244.841
 20
-46.0424
 30
0.0
 11
244.7719
 21
-46.0023
 31
0.0
  0
LINE
  8
5
  6
CONTINUOUS
 62
   215
  5
4C7
 10
244.7719
 20
-46.0023
 30
0.0
 11
244.7715
 21
-46.0824
 31
0.0
  0
LINE
  8
5
  6
CONTINUOUS
 62
   215
  5
4C8
 10
245.4887
 20
-45.9149
 30
0.0
 11
245.4883
 21
-45.9949
 31
0.0
  0
LINE
  8
5
  6
CONTINUOUS
 62
   215
  5
4C9
 10
245.6007
 20
-46.4588
 30
0.0
 11
245.6807
 21
-46.4588
 31
0.0
  0
LINE
  8
5
  6
CONTINUOUS
 62
   215
  5
4CA
 10
245.6807
 20
-46.4588
 30
0.0
 11
245.6409
 21
-46.3897
 31
0.0
  0
LINE
  8
5
  6
CONTINUOUS
 62
   215
  5
4CB
 10
245.6409
 20
-46.3897
 30
0.0
 11
245.6007
 21
-46.4588
 31
0.0
  0
LINE
  8
5
  6
CONTINUOUS
 62
   215
  5
4CC
 10
244.8596
 20
-46.4606
 30
0.0
 11
244.9348
 21
-46.4332
 31
0.0
  0
LINE
  8
5
  6
CONTINUOUS
 62
   215
  5
4CD
 10
244.9348
 20
-46.4332
 30
0.0
 11
244.8738
 21
-46.3821
 31
0.0
  0
LINE
  8
5
  6
CONTINUOUS
 62
   215
  5
4CE
 10
244.8738
 20
-46.3821
 30
0.0
 11
244.8596
 21
-46.4606
 31
0.0
  0
LINE
  8
5
  6
CONTINUOUS
 62
   215
  5
4CF
 10
245.4887
 20
-45.9149
 30
0.0
 11
245.4883
 21
-45.9949
 31
0.0
  0
LINE
  8
5
  6
CONTINUOUS
 62
   215
  5
4D0
 10
245.4883
 20
-45.9949
 30
0.0
 11
245.5046
 21
-45.9856
 31
0.0
  0
LINE
  8
5
  6
CONTINUOUS
 62
   215
  5
4D1
 10
245.5046
 20
-45.9241
 30
0.0
 11
245.4887
 21
-45.9149
 31
0.0
  0
LINE
  8
5
  6
CONTINUOUS
 62
   215
  5
4D2
 10
245.4883
 20
-45.9949
 30
0.0
 11
245.5046
 21
-45.9856
 31
0.0
  0
LINE
  8
5
  6
CONTINUOUS
 62
   215
  5
4D3
 10
245.5046
 20
-45.9241
 30
0.0
 11
245.4887
 21
-45.9149
 31
0.0
  0
LINE
  8
5
  6
CONTINUOUS
 62
   215
  5
4D4
 10
244.1477
 20
-46.3429
 30
0.0
 11
244.2007
 21
-46.3121
 31
0.0
  0
LINE
  8
5
  6
CONTINUOUS
 62
   215
  5
4D5
 10
244.2007
 20
-46.3121
 30
0.0
 11
244.1477
 21
-46.2814
 31
0.0
  0
CIRCLE
  8
5
  6
CONTINUOUS
 62
   215
  5
4D6
 10
244.409768
 20
-46.386505
 30
0.000006
 40
0.004446
210
0.0
220
0.0
230
1.0
  0
ARC
  8
5
  6
CONTINUOUS
 62
   215
  5
4D7
 10
245.084215
 20
-46.470888
 30
0.000006
 40
0.004446
 50
67.97985
 51
112.020147
210
0.0
220
0.0
230
1.0
  0
CIRCLE
  8
5
  6
CONTINUOUS
 62
   215
  5
4D8
 10
245.452039
 20
-46.317576
 30
0.000006
 40
0.004446
210
0.0
220
0.0
230
1.0
  0
CIRCLE
  8
5
  6
CONTINUOUS
 62
   215
  5
4D9
 10
245.628224
 20
-46.103064
 30
0.000006
 40
0.004446
210
0.0
220
0.0
230
1.0
  0
CIRCLE
  8
5
  6
CONTINUOUS
 62
   215
  5
4DA
 10
244.80062
 20
-46.19502
 30
0.000006
 40
0.004446
210
0.0
220
0.0
230
1.0
  0
LINE
  8
5
  6
CONTINUOUS
 62
   215
  5
4DB
 10
246.055
 20
-47.1556
 30
0.0
 11
246.0405
 21
-47.1304
 31
0.0
  0
LINE
  8
5
  6
CONTINUOUS
 62
   215
  5
4DC
 10
246.7741
 20
-47.242
 30
0.0
 11
246.8436
 21
-47.202
 31
0.0
  0
LINE
  8
5
  6
CONTINUOUS
 62
   215
  5
4DD
 10
246.8436
 20
-47.202
 30
0.0
 11
246.7744
 21
-47.1618
 31
0.0
  0
LINE
  8
5
  6
CONTINUOUS
 62
   215
  5
4DE
 10
246.7744
 20
-47.1618
 30
0.0
 11
246.7741
 21
-47.242
 31
0.0
  0
LINE
  8
5
  6
CONTINUOUS
 62
   215
  5
4DF
 10
246.5067
 20
-47.5341
 30
0.0
 11
246.5469
 21
-47.4647
 31
0.0
  0
LINE
  8
5
  6
CONTINUOUS
 62
   215
  5
4E0
 10
246.5469
 20
-47.4647
 30
0.0
 11
246.4668
 21
-47.4647
 31
0.0
  0
LINE
  8
5
  6
CONTINUOUS
 62
   215
  5
4E1
 10
246.4668
 20
-47.4647
 30
0.0
 11
246.5067
 21
-47.5341
 31
0.0
  0
LINE
  8
5
  6
CONTINUOUS
 62
   215
  5
4E2
 10
246.0022
 20
-47.1556
 30
0.0
 11
246.055
 21
-47.1556
 31
0.0
  0
CIRCLE
  8
5
  6
CONTINUOUS
 62
   215
  5
4E3
 10
246.279644
 20
-47.275619
 30
0.000006
 40
0.004446
210
0.0
220
0.0
230
1.0
  0
CIRCLE
  8
5
  6
CONTINUOUS
 62
   215
  5
4E4
 10
246.83138
 20
-47.54376
 30
0.000006
 40
0.004446
210
0.0
220
0.0
230
1.0
  0
CIRCLE
  8
5
  6
CONTINUOUS
 62
   215
  5
4E5
 10
246.670496
 20
-47.168363
 30
0.000006
 40
0.004446
210
0.0
220
0.0
230
1.0
  0
LINE
  8
5
  6
CONTINUOUS
 62
   215
  5
4E6
 10
246.5099
 20
-46.0975
 30
0.0
 11
246.5499
 21
-46.028
 31
0.0
  0
LINE
  8
5
  6
CONTINUOUS
 62
   215
  5
4E7
 10
246.5499
 20
-46.028
 30
0.0
 11
246.47
 21
-46.028
 31
0.0
  0
LINE
  8
5
  6
CONTINUOUS
 62
   215
  5
4E8
 10
246.47
 20
-46.028
 30
0.0
 11
246.5099
 21
-46.0975
 31
0.0
  0
LINE
  8
5
  6
CONTINUOUS
 62
   215
  5
4E9
 10
246.8459
 20
-45.9225
 30
0.0
 11
246.8322
 21
-45.9462
 31
0.0
  0
LINE
  8
5
  6
CONTINUOUS
 62
   215
  5
4EA
 10
246.7141
 20
-46.4606
 30
0.0
 11
246.7894
 21
-46.4332
 31
0.0
  0
LINE
  8
5
  6
CONTINUOUS
 62
   215
  5
4EB
 10
246.7894
 20
-46.4332
 30
0.0
 11
246.7283
 21
-46.3821
 31
0.0
  0
LINE
  8
5
  6
CONTINUOUS
 62
   215
  5
4EC
 10
246.7283
 20
-46.3821
 30
0.0
 11
246.7141
 21
-46.4606
 31
0.0
  0
LINE
  8
5
  6
CONTINUOUS
 62
   215
  5
4ED
 10
245.5046
 20
-45.9856
 30
0.0
 11
245.5576
 21
-45.9548
 31
0.0
  0
LINE
  8
5
  6
CONTINUOUS
 62
   215
  5
4EE
 10
245.5576
 20
-45.9548
 30
0.0
 11
245.5046
 21
-45.9241
 31
0.0
  0
CIRCLE
  8
5
  6
CONTINUOUS
 62
   215
  5
4EF
 10
245.726844
 20
-45.966805
 30
0.000006
 40
0.004446
210
0.0
220
0.0
230
1.0
  0
CIRCLE
  8
5
  6
CONTINUOUS
 62
   215
  5
4F0
 10
245.961596
 20
-45.94182
 30
0.000006
 40
0.004446
210
0.0
220
0.0
230
1.0
  0
CIRCLE
  8
5
  6
CONTINUOUS
 62
   215
  5
4F1
 10
246.203143
 20
-46.133664
 30
0.000006
 40
0.004446
210
0.0
220
0.0
230
1.0
  0
LINE
  8
1
  6
CONTINUOUS
 62
   110
  5
4F2
 10
240.4152
 20
-47.1305
 30
0.0
 11
240.4152
 21
-47.4637
 31
0.0
  0
LINE
  8
1
  6
DOT
 62
   110
  5
4F3
 10
242.0303
 20
-47.1305
 30
0.0
 11
242.0303
 21
-47.4637
 31
0.0
  0
LINE
  8
1
  6
CONTINUOUS
 62
   110
  5
4F4
 10
242.5572
 20
-47.5827
 30
0.0
 11
246.1691
 21
-47.5827
 31
0.0
  0
LINE
  8
1
  6
CONTINUOUS
 62
   110
  5
4F5
 10
240.4152
 20
-47.4637
 30
0.0
 11
246.1691
 21
-47.4637
 31
0.0
  0
LINE
  8
1
  6
CONTINUOUS
 62
   110
  5
4F6
 10
240.8912
 20
-47.1305
 30
0.0
 11
240.8912
 21
-47.4637
 31
0.0
  0
LINE
  8
1
  6
DOT
 62
   110
  5
4F7
 10
242.1321
 20
-47.1305
 30
0.0
 11
242.1321
 21
-47.4637
 31
0.0
  0
LINE
  8
1
  6
DOT
 62
   110
  5
4F8
 10
241.6561
 20
-47.1305
 30
0.0
 11
241.6561
 21
-47.4637
 31
0.0
  0
LINE
  8
1
  6
DOT
 62
   110
  5
4F9
 10
241.5543
 20
-47.1305
 30
0.0
 11
241.5543
 21
-47.4637
 31
0.0
  0
LINE
  8
1
  6
CONTINUOUS
 62
   110
  5
4FA
 10
242.5572
 20
-47.5827
 30
0.0
 11
242.5572
 21
-47.1305
 31
0.0
  0
LINE
  8
1
  6
CONTINUOUS
 62
   110
  5
4FB
 10
240.4152
 20
-47.1305
 30
0.0
 11
246.1272
 21
-47.1305
 31
0.0
  0
LINE
  8
3
  6
CONTINUOUS
 62
     2
  5
4FC
 10
242.0812
 20
-47.2971
 30
0.0
 11
242.0812
 21
-47.0716
 31
0.0
  0
LINE
  8
3
  6
CONTINUOUS
 62
     2
  5
4FD
 10
241.6052
 20
-47.0716
 30
0.0
 11
241.6052
 21
-47.5404
 31
0.0
  0
LINE
  8
3
  6
CONTINUOUS
 62
     2
  5
4FE
 10
242.0812
 20
-47.2971
 30
0.0
 11
242.0812
 21
-47.5404
 31
0.0
  0
LINE
  8
1
  6
CONTINUOUS
 62
   110
  5
4FF
 10
240.4152
 20
-46.4669
 30
0.0
 11
240.4152
 21
-46.1337
 31
0.0
  0
LINE
  8
1
  6
DOT
 62
   110
  5
500
 10
242.0303
 20
-46.4669
 30
0.0
 11
242.0303
 21
-46.1337
 31
0.0
  0
LINE
  8
1
  6
CONTINUOUS
 62
   110
  5
501
 10
240.4152
 20
-46.1337
 30
0.0
 11
246.1247
 21
-46.1337
 31
0.0
  0
LINE
  8
1
  6
CONTINUOUS
 62
   110
  5
502
 10
240.8912
 20
-46.4669
 30
0.0
 11
240.8912
 21
-46.1337
 31
0.0
  0
LINE
  8
1
  6
DOT
 62
   110
  5
503
 10
242.1321
 20
-46.4669
 30
0.0
 11
242.1321
 21
-46.1337
 31
0.0
  0
LINE
  8
1
  6
DOT
 62
   110
  5
504
 10
241.6561
 20
-46.4669
 30
0.0
 11
241.6561
 21
-46.1337
 31
0.0
  0
LINE
  8
1
  6
DOT
 62
   110
  5
505
 10
241.5543
 20
-46.4669
 30
0.0
 11
241.5543
 21
-46.1337
 31
0.0
  0
LINE
  8
1
  6
CONTINUOUS
 62
   110
  5
506
 10
242.5572
 20
-46.0147
 30
0.0
 11
242.5572
 21
-46.4669
 31
0.0
  0
LINE
  8
1
  6
CONTINUOUS
 62
   110
  5
507
 10
240.4152
 20
-46.4669
 30
0.0
 11
246.1272
 21
-46.4669
 31
0.0
  0
LINE
  8
3
  6
CONTINUOUS
 62
     2
  5
508
 10
241.6052
 20
-46.3003
 30
0.0
 11
241.6052
 21
-46.5582
 31
0.0
  0
LINE
  8
3
  6
CONTINUOUS
 62
     2
  5
509
 10
241.6052
 20
-46.3003
 30
0.0
 11
241.6052
 21
-46.0587
 31
0.0
  0
LINE
  8
3
  6
CONTINUOUS
 62
     2
  5
50A
 10
242.0812
 20
-46.5582
 30
0.0
 11
242.0812
 21
-46.0587
 31
0.0
  0
LINE
  8
5
  6
CONTINUOUS
 62
     7
  5
50B
 10
246.1272
 20
-44.9957
 30
0.0
 11
242.5572
 21
-44.9957
 31
0.0
  0
POLYLINE
  8
5
  6
CONTINUOUS
 62
     7
  5
50C
 66
     1
 10
0.0
 20
0.0
 30
0.0
210
0.0
220
0.0
230
1.0
  0
VERTEX
  8
5
  6
CONTINUOUS
 62
     7
  5
50D
 10
246.0272
 20
-44.9769
 30
0.0
  0
VERTEX
  8
5
  6
CONTINUOUS
 62
     7
  5
50E
 10
246.1272
 20
-44.9957
 30
0.0
  0
VERTEX
  8
5
  6
CONTINUOUS
 62
     7
  5
50F
 10
246.0272
 20
-45.0145
 30
0.0
  0
SEQEND
  8
5
  6
CONTINUOUS
 62
     7
  5
510
  0
POLYLINE
  8
5
  6
CONTINUOUS
 62
     7
  5
511
 66
     1
 10
0.0
 20
0.0
 30
0.0
210
0.0
220
0.0
230
1.0
  0
VERTEX
  8
5
  6
CONTINUOUS
 62
     7
  5
512
 10
242.6572
 20
-45.0145
 30
0.0
  0
VERTEX
  8
5
  6
CONTINUOUS
 62
     7
  5
513
 10
242.5572
 20
-44.9957
 30
0.0
  0
VERTEX
  8
5
  6
CONTINUOUS
 62
     7
  5
514
 10
242.6572
 20
-44.9769
 30
0.0
  0
SEQEND
  8
5
  6
CONTINUOUS
 62
     7
  5
515
  0
LINE
  8
5
  6
CONTINUOUS
 62
     7
  5
516
 10
246.1272
 20
-45.6619
 30
0.0
 11
246.1272
 21
-44.8985
 31
0.0
  0
LINE
  8
5
  6
CONTINUOUS
 62
     7
  5
517
 10
242.5572
 20
-45.933
 30
0.0
 11
242.5572
 21
-44.8985
 31
0.0
  0
LINE
  8
5
  6
CONTINUOUS
 62
     7
  5
518
 10
242.5572
 20
-44.9957
 30
0.0
 11
240.4152
 21
-44.9957
 31
0.0
  0
POLYLINE
  8
5
  6
CONTINUOUS
 62
     7
  5
519
 66
     1
 10
0.0
 20
0.0
 30
0.0
210
0.0
220
0.0
230
1.0
  0
VERTEX
  8
5
  6
CONTINUOUS
 62
     7
  5
51A
 10
242.4572
 20
-44.9769
 30
0.0
  0
VERTEX
  8
5
  6
CONTINUOUS
 62
     7
  5
51B
 10
242.5572
 20
-44.9957
 30
0.0
  0
VERTEX
  8
5
  6
CONTINUOUS
 62
     7
  5
51C
 10
242.4572
 20
-45.0145
 30
0.0
  0
SEQEND
  8
5
  6
CONTINUOUS
 62
     7
  5
51D
  0
POLYLINE
  8
5
  6
CONTINUOUS
 62
     7
  5
51E
 66
     1
 10
0.0
 20
0.0
 30
0.0
210
0.0
220
0.0
230
1.0
  0
VERTEX
  8
5
  6
CONTINUOUS
 62
     7
  5
51F
 10
240.5152
 20
-45.0145
 30
0.0
  0
VERTEX
  8
5
  6
CONTINUOUS
 62
     7
  5
520
 10
240.4152
 20
-44.9957
 30
0.0
  0
VERTEX
  8
5
  6
CONTINUOUS
 62
     7
  5
521
 10
240.5152
 20
-44.9769
 30
0.0
  0
SEQEND
  8
5
  6
CONTINUOUS
 62
     7
  5
522
  0
LINE
  8
5
  6
CONTINUOUS
 62
     7
  5
523
 10
240.4152
 20
-46.0463
 30
0.0
 11
240.4152
 21
-44.8985
 31
0.0
  0
LINE
  8
5
  6
CONTINUOUS
 62
     7
  5
524
 10
240.3174
 20
-46.4669
 30
0.0
 11
239.3881
 21
-46.4669
 31
0.0
  0
LINE
  8
5
  6
CONTINUOUS
 62
     7
  5
525
 10
240.3174
 20
-47.1305
 30
0.0
 11
238.9683
 21
-47.1305
 31
0.0
  0
LINE
  8
5
  6
CONTINUOUS
 62
     7
  5
526
 10
239.8159
 20
-47.4637
 30
0.0
 11
240.3174
 21
-47.4637
 31
0.0
  0
LINE
  8
5
  6
CONTINUOUS
 62
   215
  5
527
 10
241.2194
 20
-46.2688
 30
0.0
 11
241.2189
 21
-46.3488
 31
0.0
  0
LINE
  8
5
  6
CONTINUOUS
 62
   215
  5
528
 10
241.2194
 20
-46.2688
 30
0.0
 11
241.2189
 21
-46.3488
 31
0.0
  0
LINE
  8
5
  6
CONTINUOUS
 62
   215
  5
529
 10
241.2189
 20
-46.3488
 30
0.0
 11
241.2353
 21
-46.3395
 31
0.0
  0
LINE
  8
5
  6
CONTINUOUS
 62
   215
  5
52A
 10
241.2353
 20
-46.278
 30
0.0
 11
241.2194
 21
-46.2688
 31
0.0
  0
LINE
  8
5
  6
CONTINUOUS
 62
   215
  5
52B
 10
241.2189
 20
-46.3488
 30
0.0
 11
241.2353
 21
-46.3395
 31
0.0
  0
LINE
  8
5
  6
CONTINUOUS
 62
   215
  5
52C
 10
241.2353
 20
-46.278
 30
0.0
 11
241.2194
 21
-46.2688
 31
0.0
  0
LINE
  8
5
  6
CONTINUOUS
 62
   215
  5
52D
 10
241.2353
 20
-46.3395
 30
0.0
 11
241.2883
 21
-46.3087
 31
0.0
  0
LINE
  8
5
  6
CONTINUOUS
 62
   215
  5
52E
 10
241.2883
 20
-46.3087
 30
0.0
 11
241.2353
 21
-46.278
 31
0.0
  0
LINE
  8
5
  6
CONTINUOUS
 62
   215
  5
52F
 10
242.7471
 20
-46.2626
 30
0.0
 11
242.7466
 21
-46.3426
 31
0.0
  0
LINE
  8
5
  6
CONTINUOUS
 62
   215
  5
530
 10
242.7471
 20
-46.2626
 30
0.0
 11
242.7466
 21
-46.3426
 31
0.0
  0
LINE
  8
5
  6
CONTINUOUS
 62
   215
  5
531
 10
242.7466
 20
-46.3426
 30
0.0
 11
242.763
 21
-46.3333
 31
0.0
  0
LINE
  8
5
  6
CONTINUOUS
 62
   215
  5
532
 10
242.763
 20
-46.2718
 30
0.0
 11
242.7471
 21
-46.2626
 31
0.0
  0
LINE
  8
5
  6
CONTINUOUS
 62
   215
  5
533
 10
242.7466
 20
-46.3426
 30
0.0
 11
242.763
 21
-46.3333
 31
0.0
  0
LINE
  8
5
  6
CONTINUOUS
 62
   215
  5
534
 10
242.763
 20
-46.2718
 30
0.0
 11
242.7471
 21
-46.2626
 31
0.0
  0
LINE
  8
5
  6
CONTINUOUS
 62
   215
  5
535
 10
242.763
 20
-46.3333
 30
0.0
 11
242.816
 21
-46.3025
 31
0.0
  0
LINE
  8
5
  6
CONTINUOUS
 62
   215
  5
536
 10
242.816
 20
-46.3025
 30
0.0
 11
242.763
 21
-46.2718
 31
0.0
  0
LINE
  8
5
  6
CONTINUOUS
 62
   215
  5
537
 10
241.2527
 20
-47.363
 30
0.0
 11
241.2733
 21
-47.2856
 31
0.0
  0
LINE
  8
5
  6
CONTINUOUS
 62
   215
  5
538
 10
241.2733
 20
-47.2856
 30
0.0
 11
241.1961
 21
-47.3064
 31
0.0
  0
LINE
  8
5
  6
CONTINUOUS
 62
   215
  5
539
 10
241.1961
 20
-47.3064
 30
0.0
 11
241.2527
 21
-47.363
 31
0.0
  0
CIRCLE
  8
5
  6
CONTINUOUS
 62
   215
  5
53A
 10
241.031763
 20
-47.345245
 30
0.000006
 40
0.004446
210
0.0
220
0.0
230
1.0
  0
LINE
  8
5
  6
CONTINUOUS
 62
   215
  5
53B
 10
240.5886
 20
-47.309
 30
0.0
 11
240.6579
 21
-47.2691
 31
0.0
  0
LINE
  8
5
  6
CONTINUOUS
 62
   215
  5
53C
 10
240.6579
 20
-47.2691
 30
0.0
 11
240.5891
 21
-47.229
 31
0.0
  0
LINE
  8
5
  6
CONTINUOUS
 62
   215
  5
53D
 10
240.5891
 20
-47.229
 30
0.0
 11
240.5886
 21
-47.309
 31
0.0
  0
LINE
  8
5
  6
CONTINUOUS
 62
   215
  5
53E
 10
240.7038
 20
-46.3906
 30
0.0
 11
240.7244
 21
-46.3132
 31
0.0
  0
LINE
  8
5
  6
CONTINUOUS
 62
   215
  5
53F
 10
240.7244
 20
-46.3132
 30
0.0
 11
240.6472
 21
-46.334
 31
0.0
  0
LINE
  8
5
  6
CONTINUOUS
 62
   215
  5
540
 10
240.6472
 20
-46.334
 30
0.0
 11
240.7038
 21
-46.3906
 31
0.0
  0
CIRCLE
  8
5
  6
CONTINUOUS
 62
   215
  5
541
 10
243.219088
 20
-46.264548
 30
0.000006
 40
0.004446
210
0.0
220
0.0
230
1.0
  0
CIRCLE
  8
5
  6
CONTINUOUS
 62
   215
  5
542
 10
242.345188
 20
-46.288748
 30
0.000006
 40
0.004446
210
0.0
220
0.0
230
1.0
  0
CIRCLE
  8
5
  6
CONTINUOUS
 62
   215
  5
543
 10
241.363788
 20
-46.382448
 30
0.000006
 40
0.004446
210
0.0
220
0.0
230
1.0
  0
CIRCLE
  8
5
  6
CONTINUOUS
 62
   215
  5
544
 10
240.489888
 20
-46.233248
 30
0.000006
 40
0.004446
210
0.0
220
0.0
230
1.0
  0
CIRCLE
  8
5
  6
CONTINUOUS
 62
   215
  5
545
 10
240.815788
 20
-46.323448
 30
0.000006
 40
0.004446
210
0.0
220
0.0
230
1.0
  0
CIRCLE
  8
5
  6
CONTINUOUS
 62
   215
  5
546
 10
240.486188
 20
-47.398348
 30
0.000006
 40
0.004446
210
0.0
220
0.0
230
1.0
  0
CIRCLE
  8
5
  6
CONTINUOUS
 62
   215
  5
547
 10
240.822588
 20
-47.245648
 30
0.000006
 40
0.004446
210
0.0
220
0.0
230
1.0
  0
CIRCLE
  8
5
  6
CONTINUOUS
 62
   215
  5
548
 10
240.559088
 20
-47.245648
 30
0.000006
 40
0.004446
210
0.0
220
0.0
230
1.0
  0
CIRCLE
  8
5
  6
CONTINUOUS
 62
   215
  5
549
 10
241.502288
 20
-47.242248
 30
0.000006
 40
0.004446
210
0.0
220
0.0
230
1.0
  0
CIRCLE
  8
5
  6
CONTINUOUS
 62
   215
  5
54A
 10
241.221388
 20
-47.224848
 30
0.000006
 40
0.004446
210
0.0
220
0.0
230
1.0
  0
CIRCLE
  8
5
  6
CONTINUOUS
 62
   215
  5
54B
 10
241.932288
 20
-47.374048
 30
0.000006
 40
0.004446
210
0.0
220
0.0
230
1.0
  0
CIRCLE
  8
5
  6
CONTINUOUS
 62
   215
  5
54C
 10
240.933288
 20
-46.212148
 30
0.000006
 40
0.004446
210
0.0
220
0.0
230
1.0
  0
CIRCLE
  8
5
  6
CONTINUOUS
 62
   215
  5
54D
 10
241.848788
 20
-46.222548
 30
0.000006
 40
0.004446
210
0.0
220
0.0
230
1.0
  0
CIRCLE
  8
5
  6
CONTINUOUS
 62
   215
  5
54E
 10
242.610988
 20
-46.402948
 30
0.000006
 40
0.004446
210
0.0
220
0.0
230
1.0
  0
CIRCLE
  8
5
  6
CONTINUOUS
 62
   215
  5
54F
 10
242.437588
 20
-46.423748
 30
0.000006
 40
0.004446
210
0.0
220
0.0
230
1.0
  0
LINE
  8
5
  6
CONTINUOUS
 62
   215
  5
550
 10
246.7069
 20
-51.7758
 30
0.0
 11
246.7871
 21
-51.7758
 31
0.0
  0
LINE
  8
5
  6
CONTINUOUS
 62
   215
  5
551
 10
246.7871
 20
-51.7758
 30
0.0
 11
246.7642
 21
-51.736
 31
0.0
  0
LINE
  8
5
  6
CONTINUOUS
 62
   215
  5
552
 10
246.7301
 20
-51.736
 30
0.0
 11
246.7069
 21
-51.7758
 31
0.0
  0
LINE
  8
5
  6
CONTINUOUS
 62
   215
  5
553
 10
247.3742
 20
-51.8435
 30
0.0
 11
247.4014
 21
-51.8435
 31
0.0
  0
LINE
  8
5
  6
CONTINUOUS
 62
   215
  5
554
 10
247.4014
 20
-51.7965
 30
0.0
 11
247.3742
 21
-51.8435
 31
0.0
  0
CIRCLE
  8
5
  6
CONTINUOUS
 62
   215
  5
555
 10
247.111805
 20
-51.794819
 30
0.000006
 40
0.004446
210
0.0
220
0.0
230
1.0
  0
CIRCLE
  8
5
  6
CONTINUOUS
 62
   215
  5
556
 10
246.782305
 20
-51.971006
 30
0.000006
 40
0.004446
210
0.0
220
0.0
230
1.0
  0
LINE
  8
5
  6
CONTINUOUS
 62
   215
  5
557
 10
247.0001
 20
-51.1466
 30
0.0
 11
247.0802
 21
-51.1466
 31
0.0
  0
LINE
  8
5
  6
CONTINUOUS
 62
   215
  5
558
 10
247.0802
 20
-51.1466
 30
0.0
 11
247.0402
 21
-51.0774
 31
0.0
  0
LINE
  8
5
  6
CONTINUOUS
 62
   215
  5
559
 10
247.0402
 20
-51.0774
 30
0.0
 11
247.0001
 21
-51.1466
 31
0.0
  0
LINE
  8
5
  6
CONTINUOUS
 62
   215
  5
55A
 10
247.0569
 20
-51.5493
 30
0.0
 11
247.1264
 21
-51.5095
 31
0.0
  0
LINE
  8
5
  6
CONTINUOUS
 62
   215
  5
55B
 10
247.1264
 20
-51.5095
 30
0.0
 11
247.0575
 21
-51.4695
 31
0.0
  0
LINE
  8
5
  6
CONTINUOUS
 62
   215
  5
55C
 10
247.0575
 20
-51.4695
 30
0.0
 11
247.0569
 21
-51.5493
 31
0.0
  0
LINE
  8
5
  6
CONTINUOUS
 62
   215
  5
55D
 10
246.6735
 20
-51.2764
 30
0.0
 11
246.7536
 21
-51.2764
 31
0.0
  0
LINE
  8
5
  6
CONTINUOUS
 62
   215
  5
55E
 10
246.7536
 20
-51.2764
 30
0.0
 11
246.7139
 21
-51.2072
 31
0.0
  0
LINE
  8
5
  6
CONTINUOUS
 62
   215
  5
55F
 10
246.7139
 20
-51.2072
 30
0.0
 11
246.6735
 21
-51.2764
 31
0.0
  0
LINE
  8
5
  6
CONTINUOUS
 62
   215
  5
560
 10
247.3852
 20
-51.04
 30
0.0
 11
247.4014
 21
-51.0307
 31
0.0
  0
LINE
  8
5
  6
CONTINUOUS
 62
   215
  5
561
 10
247.3852
 20
-51.04
 30
0.0
 11
247.4014
 21
-51.0307
 31
0.0
  0
LINE
  8
5
  6
CONTINUOUS
 62
   215
  5
562
 10
246.7642
 20
-51.736
 30
0.0
 11
246.7472
 21
-51.7066
 31
0.0
  0
LINE
  8
5
  6
CONTINUOUS
 62
   215
  5
563
 10
246.7472
 20
-51.7066
 30
0.0
 11
246.7301
 21
-51.736
 31
0.0
  0
CIRCLE
  8
5
  6
CONTINUOUS
 62
   215
  5
564
 10
247.272846
 20
-51.403808
 30
0.000006
 40
0.004446
210
0.0
220
0.0
230
1.0
  0
CIRCLE
  8
5
  6
CONTINUOUS
 62
   215
  5
565
 10
246.86669
 20
-51.541821
 30
0.000006
 40
0.004446
210
0.0
220
0.0
230
1.0
  0
CIRCLE
  8
5
  6
CONTINUOUS
 62
   215
  5
566
 10
246.521889
 20
-51.656806
 30
0.000006
 40
0.004446
210
0.0
220
0.0
230
1.0
  0
CIRCLE
  8
5
  6
CONTINUOUS
 62
   215
  5
567
 10
246.483561
 20
-51.158693
 30
0.000006
 40
0.004446
210
0.0
220
0.0
230
1.0
  0
CIRCLE
  8
5
  6
CONTINUOUS
 62
   215
  5
568
 10
246.851389
 20
-51.005379
 30
0.000006
 40
0.004446
210
0.0
220
0.0
230
1.0
  0
CIRCLE
  8
5
  6
CONTINUOUS
 62
   215
  5
569
 10
247.280419
 20
-51.679679
 30
0.000006
 40
0.004446
210
0.0
220
0.0
230
1.0
  0
LINE
  8
5
  6
CONTINUOUS
 62
   215
  5
56A
 10
247.4542
 20
-51.8435
 30
0.0
 11
247.4146
 21
-51.7745
 31
0.0
  0
LINE
  8
5
  6
CONTINUOUS
 62
   215
  5
56B
 10
247.9129
 20
-51.7677
 30
0.0
 11
247.988
 21
-51.7398
 31
0.0
  0
LINE
  8
5
  6
CONTINUOUS
 62
   215
  5
56C
 10
248.1735
 20
-51.9296
 30
0.0
 11
248.2429
 21
-51.8899
 31
0.0
  0
LINE
  8
5
  6
CONTINUOUS
 62
   215
  5
56D
 10
248.2429
 20
-51.8899
 30
0.0
 11
248.1739
 21
-51.8495
 31
0.0
  0
LINE
  8
5
  6
CONTINUOUS
 62
   215
  5
56E
 10
248.1739
 20
-51.8495
 30
0.0
 11
248.1735
 21
-51.9296
 31
0.0
  0
LINE
  8
5
  6
CONTINUOUS
 62
   215
  5
56F
 10
247.988
 20
-51.7398
 30
0.0
 11
247.9834
 21
-51.736
 31
0.0
  0
LINE
  8
5
  6
CONTINUOUS
 62
   215
  5
570
 10
247.9185
 20
-51.736
 30
0.0
 11
247.9129
 21
-51.7677
 31
0.0
  0
LINE
  8
5
  6
CONTINUOUS
 62
   215
  5
571
 10
247.4014
 20
-51.8435
 30
0.0
 11
247.4542
 21
-51.8435
 31
0.0
  0
LINE
  8
5
  6
CONTINUOUS
 62
   215
  5
572
 10
247.4146
 20
-51.7745
 30
0.0
 11
247.4014
 21
-51.7965
 31
0.0
  0
CIRCLE
  8
5
  6
CONTINUOUS
 62
   215
  5
573
 10
247.679003
 20
-51.963433
 30
0.000006
 40
0.004446
210
0.0
220
0.0
230
1.0
  0
CIRCLE
  8
5
  6
CONTINUOUS
 62
   215
  5
574
 10
248.069859
 20
-51.856175
 30
0.000006
 40
0.004446
210
0.0
220
0.0
230
1.0
  0
LINE
  8
5
  6
CONTINUOUS
 62
   215
  5
575
 10
248.2013
 20
-51.4912
 30
0.0
 11
248.1957
 21
-51.4928
 31
0.0
  0
LINE
  8
5
  6
CONTINUOUS
 62
   215
  5
576
 10
248.1957
 20
-51.4928
 30
0.0
 11
248.2013
 21
-51.4986
 31
0.0
  0
LINE
  8
5
  6
CONTINUOUS
 62
   215
  5
577
 10
248.1135
 20
-51.1484
 30
0.0
 11
248.1888
 21
-51.121
 31
0.0
  0
LINE
  8
5
  6
CONTINUOUS
 62
   215
  5
578
 10
248.1888
 20
-51.121
 30
0.0
 11
248.1276
 21
-51.0698
 31
0.0
  0
LINE
  8
5
  6
CONTINUOUS
 62
   215
  5
579
 10
248.1276
 20
-51.0698
 30
0.0
 11
248.1135
 21
-51.1484
 31
0.0
  0
LINE
  8
5
  6
CONTINUOUS
 62
   215
  5
57A
 10
247.7621
 20
-51.3297
 30
0.0
 11
247.7827
 21
-51.2522
 31
0.0
  0
LINE
  8
5
  6
CONTINUOUS
 62
   215
  5
57B
 10
247.7827
 20
-51.2522
 30
0.0
 11
247.7056
 21
-51.2731
 31
0.0
  0
LINE
  8
5
  6
CONTINUOUS
 62
   215
  5
57C
 10
247.7056
 20
-51.2731
 30
0.0
 11
247.7621
 21
-51.3297
 31
0.0
  0
LINE
  8
5
  6
CONTINUOUS
 62
   215
  5
57D
 10
247.4503
 20
-51.5961
 30
0.0
 11
247.5302
 21
-51.5961
 31
0.0
  0
LINE
  8
5
  6
CONTINUOUS
 62
   215
  5
57E
 10
247.5302
 20
-51.5961
 30
0.0
 11
247.4903
 21
-51.5268
 31
0.0
  0
LINE
  8
5
  6
CONTINUOUS
 62
   215
  5
57F
 10
247.4903
 20
-51.5268
 30
0.0
 11
247.4503
 21
-51.5961
 31
0.0
  0
LINE
  8
5
  6
CONTINUOUS
 62
   215
  5
580
 10
247.9834
 20
-51.736
 30
0.0
 11
247.9271
 21
-51.6889
 31
0.0
  0
LINE
  8
5
  6
CONTINUOUS
 62
   215
  5
581
 10
247.9271
 20
-51.6889
 30
0.0
 11
247.9185
 21
-51.736
 31
0.0
  0
LINE
  8
5
  6
CONTINUOUS
 62
   215
  5
582
 10
247.9834
 20
-51.736
 30
0.0
 11
247.9271
 21
-51.6889
 31
0.0
  0
LINE
  8
5
  6
CONTINUOUS
 62
   215
  5
583
 10
247.9271
 20
-51.6889
 30
0.0
 11
247.9185
 21
-51.736
 31
0.0
  0
LINE
  8
5
  6
CONTINUOUS
 62
   215
  5
584
 10
247.4014
 20
-51.0307
 30
0.0
 11
247.4545
 21
-50.9998
 31
0.0
  0
CIRCLE
  8
5
  6
CONTINUOUS
 62
   215
  5
585
 10
247.663702
 20
-51.074308
 30
0.000006
 40
0.004446
210
0.0
220
0.0
230
1.0
  0
CIRCLE
  8
5
  6
CONTINUOUS
 62
   215
  5
586
 10
247.993202
 20
-51.457592
 30
0.000006
 40
0.004446
210
0.0
220
0.0
230
1.0
  0
CIRCLE
  8
5
  6
CONTINUOUS
 62
   215
  5
587
 10
247.67143
 20
-51.626051
 30
0.000006
 40
0.004446
210
0.0
220
0.0
230
1.0
  0
CIRCLE
  8
5
  6
CONTINUOUS
 62
   215
  5
588
 10
247.541144
 20
-51.311851
 30
0.000006
 40
0.004446
210
0.0
220
0.0
230
1.0
  0
LINE
  8
5
  6
CONTINUOUS
 62
   215
  5
589
 10
246.6121
 20
-52.246
 30
0.0
 11
246.6849
 21
-52.2123
 31
0.0
  0
LINE
  8
5
  6
CONTINUOUS
 62
   215
  5
58A
 10
246.6849
 20
-52.2123
 30
0.0
 11
246.6195
 21
-52.1664
 31
0.0
  0
LINE
  8
5
  6
CONTINUOUS
 62
   215
  5
58B
 10
246.6195
 20
-52.1664
 30
0.0
 11
246.6121
 21
-52.246
 31
0.0
  0
LINE
  8
5
  6
CONTINUOUS
 62
   215
  5
58C
 10
246.9912
 20
-52.4289
 30
0.0
 11
247.0698
 21
-52.4428
 31
0.0
  0
LINE
  8
5
  6
CONTINUOUS
 62
   215
  5
58D
 10
247.0698
 20
-52.4428
 30
0.0
 11
247.0426
 21
-52.3675
 31
0.0
  0
LINE
  8
5
  6
CONTINUOUS
 62
   215
  5
58E
 10
247.0426
 20
-52.3675
 30
0.0
 11
246.9912
 21
-52.4289
 31
0.0
  0
CIRCLE
  8
5
  6
CONTINUOUS
 62
   215
  5
58F
 10
246.999776
 20
-52.61766
 30
0.000006
 40
0.004446
210
0.0
220
0.0
230
1.0
  0
CIRCLE
  8
5
  6
CONTINUOUS
 62
   215
  5
590
 10
246.823589
 20
-52.37239
 30
0.000006
 40
0.004446
210
0.0
220
0.0
230
1.0
  0
CIRCLE
  8
5
  6
CONTINUOUS
 62
   215
  5
591
 10
247.260347
 20
-52.449047
 30
0.000006
 40
0.004446
210
0.0
220
0.0
230
1.0
  0
LINE
  8
5
  6
CONTINUOUS
 62
   215
  5
592
 10
247.4403
 20
-52.3368
 30
0.0
 11
247.5192
 21
-52.3507
 31
0.0
  0
LINE
  8
5
  6
CONTINUOUS
 62
   215
  5
593
 10
247.5192
 20
-52.3507
 30
0.0
 11
247.4919
 21
-52.2757
 31
0.0
  0
LINE
  8
5
  6
CONTINUOUS
 62
   215
  5
594
 10
247.4919
 20
-52.2757
 30
0.0
 11
247.4403
 21
-52.3368
 31
0.0
  0
LINE
  8
5
  6
CONTINUOUS
 62
   215
  5
595
 10
247.8814
 20
-52.612
 30
0.0
 11
247.9217
 21
-52.5428
 31
0.0
  0
LINE
  8
5
  6
CONTINUOUS
 62
   215
  5
596
 10
247.9217
 20
-52.5428
 30
0.0
 11
247.8415
 21
-52.5428
 31
0.0
  0
LINE
  8
5
  6
CONTINUOUS
 62
   215
  5
597
 10
247.8415
 20
-52.5428
 30
0.0
 11
247.8814
 21
-52.612
 31
0.0
  0
LINE
  8
5
  6
CONTINUOUS
 62
   215
  5
598
 10
248.2037
 20
-52.4607
 30
0.0
 11
248.2252
 21
-52.4607
 31
0.0
  0
LINE
  8
5
  6
CONTINUOUS
 62
   215
  5
599
 10
248.2698
 20
-52.4364
 30
0.0
 11
248.2438
 21
-52.3917
 31
0.0
  0
LINE
  8
5
  6
CONTINUOUS
 62
   215
  5
59A
 10
248.2438
 20
-52.3917
 30
0.0
 11
248.2037
 21
-52.4607
 31
0.0
  0
CIRCLE
  8
5
  6
CONTINUOUS
 62
   215
  5
59B
 10
248.202945
 20
-52.203776
 30
0.000006
 40
0.004446
210
0.0
220
0.0
230
1.0
  0
CIRCLE
  8
5
  6
CONTINUOUS
 62
   215
  5
59C
 10
247.704986
 20
-52.418446
 30
0.000006
 40
0.004446
210
0.0
220
0.0
230
1.0
  0
CIRCLE
  8
5
  6
CONTINUOUS
 62
   215
  5
59D
 10
247.574701
 20
-52.648261
 30
0.000006
 40
0.004446
210
0.0
220
0.0
230
1.0
  0
TEXT
  8
3
  6
CONTINUOUS
 62
   241
  5
59E
 10
241.6085
 20
-55.6311
 30
0.0
 40
0.3
  1
DOUBLE MEDIAN TRANSITION
  7
txt
 72
     4
 11
245.1305
 21
-55.4811
 31
0.0
210
0.0
220
0.0
230
1.0
  0
CIRCLE
  8
4
  6
CONTINUOUS
 62
   110
  5
59F
 10
-242.081351
 20
-51.591803
 30
0.000019
 40
0.040646
210
0.0
220
0.0
230
-1.0
  0
CIRCLE
  8
4
  6
CONTINUOUS
 62
   110
  5
5A0
 10
-241.695791
 20
-51.406734
 30
0.000019
 40
0.040646
210
0.0
220
0.0
230
-1.0
  0
CIRCLE
  8
4
  6
CONTINUOUS
 62
   110
  5
5A1
 10
-242.081351
 20
-51.21781
 30
0.000019
 40
0.040646
210
0.0
220
0.0
230
-1.0
  0
CIRCLE
  8
4
  6
CONTINUOUS
 62
   110
  5
5A2
 10
-242.081351
 20
-51.96564
 30
0.000019
 40
0.040646
210
0.0
220
0.0
230
-1.0
  0
CIRCLE
  8
4
  6
CONTINUOUS
 62
   110
  5
5A3
 10
-241.695791
 20
-51.776715
 30
0.000019
 40
0.040646
210
0.0
220
0.0
230
-1.0
  0
LINE
  8
3
  6
CONTINUOUS
 62
     2
  5
5A4
 10
241.6956
 20
-51.2407
 30
0.0
 11
241.6956
 21
-51.5424
 31
0.0
  0
LINE
  8
3
  6
CONTINUOUS
 62
     2
  5
5A5
 10
242.0812
 20
-51.06
 30
0.0
 11
242.0812
 21
-52.1046
 31
0.0
  0
LINE
  8
3
  6
CONTINUOUS
 62
     2
  5
5A6
 10
242.2862
 20
-51.2177
 30
0.0
 11
242.0812
 21
-51.2177
 31
0.0
  0
LINE
  8
3
  6
CONTINUOUS
 62
     2
  5
5A7
 10
241.8769
 20
-51.2177
 30
0.0
 11
242.0812
 21
-51.2177
 31
0.0
  0
LINE
  8
3
  6
CONTINUOUS
 62
     2
  5
5A8
 10
242.2862
 20
-51.5917
 30
0.0
 11
241.8769
 21
-51.5917
 31
0.0
  0
LINE
  8
3
  6
CONTINUOUS
 62
     2
  5
5A9
 10
242.2862
 20
-51.9657
 30
0.0
 11
241.8769
 21
-51.9657
 31
0.0
  0
LINE
  8
3
  6
CONTINUOUS
 62
     2
  5
5AA
 10
241.9186
 20
-51.4067
 30
0.0
 11
241.4954
 21
-51.4067
 31
0.0
  0
LINE
  8
3
  6
CONTINUOUS
 62
     2
  5
5AB
 10
241.9186
 20
-51.7768
 30
0.0
 11
241.4954
 21
-51.7768
 31
0.0
  0
LINE
  8
1
  6
CONTINUOUS
 62
   110
  5
5AC
 10
227.3358
 20
-64.4256
 30
0.0
 11
227.7385
 21
-64.5389
 31
0.0
  0
LINE
  8
5
  6
CONTINUOUS
 62
     7
  5
5AD
 10
225.6493
 20
-65.3711
 30
0.0
 11
224.3581
 21
-65.3711
 31
0.0
  0
POLYLINE
  8
5
  6
CONTINUOUS
 62
     7
  5
5AE
 66
     1
 10
0.0
 20
0.0
 30
0.0
210
0.0
220
0.0
230
1.0
  0
VERTEX
  8
5
  6
CONTINUOUS
 62
     7
  5
5AF
 10
224.4269
 20
-65.2711
 30
0.0
  0
VERTEX
  8
5
  6
CONTINUOUS
 62
     7
  5
5B0
 10
224.4081
 20
-65.3711
 30
0.0
  0
VERTEX
  8
5
  6
CONTINUOUS
 62
     7
  5
5B1
 10
224.3893
 20
-65.2711
 30
0.0
  0
SEQEND
  8
5
  6
CONTINUOUS
 62
     7
  5
5B2
  0
POLYLINE
  8
5
  6
CONTINUOUS
 62
     7
  5
5B3
 66
     1
 10
0.0
 20
0.0
 30
0.0
210
0.0
220
0.0
230
1.0
  0
VERTEX
  8
5
  6
CONTINUOUS
 62
     7
  5
5B4
 10
224.3893
 20
-64.7231
 30
0.0
  0
VERTEX
  8
5
  6
CONTINUOUS
 62
     7
  5
5B5
 10
224.4081
 20
-64.6231
 30
0.0
  0
VERTEX
  8
5
  6
CONTINUOUS
 62
     7
  5
5B6
 10
224.4269
 20
-64.7231
 30
0.0
  0
SEQEND
  8
5
  6
CONTINUOUS
 62
     7
  5
5B7
  0
LINE
  8
5
  6
CONTINUOUS
 62
     7
  5
5B8
 10
225.6493
 20
-52.2194
 30
0.0
 11
224.3581
 21
-52.2194
 31
0.0
  0
POLYLINE
  8
5
  6
CONTINUOUS
 62
     7
  5
5B9
 66
     1
 10
0.0
 20
0.0
 30
0.0
210
0.0
220
0.0
230
1.0
  0
VERTEX
  8
5
  6
CONTINUOUS
 62
     7
  5
5BA
 10
224.3894
 20
-51.5714
 30
0.0
  0
VERTEX
  8
5
  6
CONTINUOUS
 62
     7
  5
5BB
 10
224.4081
 20
-51.4714
 30
0.0
  0
VERTEX
  8
5
  6
CONTINUOUS
 62
     7
  5
5BC
 10
224.4268
 20
-51.5714
 30
0.0
  0
SEQEND
  8
5
  6
CONTINUOUS
 62
     7
  5
5BD
  0
LINE
  8
1
  6
CONTINUOUS
 62
   110
  5
5BE
 10
227.3404
 20
-51.2739
 30
0.0
 11
227.7385
 21
-51.3929
 31
0.0
  0
LINE
  8
5
  6
CONTINUOUS
 62
   215
  5
5BF
 10
246.0796
 20
-47.1826
 30
0.0
 11
246.065
 21
-47.2078
 31
0.0
  0
LINE
  8
1
  6
CONTINUOUS
 62
   110
  5
5C0
 10
242.5572
 20
-47.5827
 30
0.0
 11
246.1691
 21
-47.8172
 31
0.0
  0
LINE
  8
1
  6
CONTINUOUS
 62
   110
  5
5C1
 10
242.5572
 20
-46.0147
 30
0.0
 11
246.1247
 21
-45.7906
 31
0.0
  0
LINE
  8
1
  6
CONTINUOUS
 62
   110
  5
5C2
 10
222.0265
 20
-47.3813
 30
0.0
 11
225.5965
 21
-47.1572
 31
0.0
  0
LINE
  8
1
  6
CONTINUOUS
 62
   110
  5
5C3
 10
222.0265
 20
-46.3619
 30
0.0
 11
225.5965
 21
-46.586
 31
0.0
  0
LINE
  8
1
  6
CONTINUOUS
 62
   110
  5
5C4
 10
222.0265
 20
-60.0957
 30
0.0
 11
225.5965
 21
-59.8716
 31
0.0
  0
LINE
  8
5
  6
CONTINUOUS
 62
     7
  5
5C5
 10
222.0265
 20
-60.2338
 30
0.0
 11
222.0265
 21
-61.2108
 31
0.0
  0
LINE
  8
1
  6
CONTINUOUS
 62
   140
  5
5C6
 10
246.1272
 20
-52.139
 30
0.0
 11
246.1272
 21
-52.9473
 31
0.0
  0
LINE
  8
1
  6
CONTINUOUS
 62
   241
  5
5C7
 10
251.4468
 20
-45.424
 30
-0.0001
 11
251.3636
 21
-45.424
 31
-0.0001
  0
LINE
  8
1
  6
CONTINUOUS
 62
   241
  5
5C8
 10
251.3636
 20
-45.424
 30
-0.0001
 11
251.1049
 21
-45.8653
 31
-0.0001
  0
POLYLINE
  8
1
  6
CONTINUOUS
 62
   241
  5
5C9
 66
     1
 10
0.0
 20
0.0
 30
-0.0001
210
0.0
220
0.0
230
1.0
  0
VERTEX
  8
1
  6
CONTINUOUS
 62
   241
  5
5CA
 10
251.1389
 20
-45.7694
 30
-0.0001
  0
VERTEX
  8
1
  6
CONTINUOUS
 62
   241
  5
5CB
 10
251.1049
 20
-45.8653
 30
-0.0001
  0
VERTEX
  8
1
  6
CONTINUOUS
 62
   241
  5
5CC
 10
251.1712
 20
-45.7882
 30
-0.0001
  0
SEQEND
  8
1
  6
CONTINUOUS
 62
   241
  5
5CD
  0
TEXT
  8
59
  6
CONTINUOUS
 62
   110
  5
5CE
 10
250.8326
 20
-48.202
 30
0.0
 40
0.1272
  1
70:1 Taper
  7
txt
 11
250.8326
 21
-48.1384
 31
0.0
210
0.0
220
0.0
230
1.0
 73
     2
  0
LINE
  8
1
  6
CONTINUOUS
 62
   241
  5
5CF
 10
251.8833
 20
-48.2119
 30
-0.0001
 11
252.1523
 21
-47.7528
 31
-0.0001
  0
LINE
  8
1
  6
CONTINUOUS
 62
   241
  5
5D0
 10
251.8001
 20
-48.2119
 30
-0.0001
 11
251.8833
 21
-48.2119
 31
-0.0001
  0
POLYLINE
  8
1
  6
CONTINUOUS
 62
   241
  5
5D1
 66
     1
 10
0.0
 20
0.0
 30
-0.0001
210
0.0
220
0.0
230
1.0
  0
VERTEX
  8
1
  6
CONTINUOUS
 62
   241
  5
5D2
 10
252.1183
 20
-47.8487
 30
-0.0001
  0
VERTEX
  8
1
  6
CONTINUOUS
 62
   241
  5
5D3
 10
252.1523
 20
-47.7528
 30
-0.0001
  0
VERTEX
  8
1
  6
CONTINUOUS
 62
   241
  5
5D4
 10
252.086
 20
-47.8299
 30
-0.0001
  0
SEQEND
  8
1
  6
CONTINUOUS
 62
   241
  5
5D5
  0
TEXT
  8
3
  6
CONTINUOUS
 62
   241
  5
5D6
 10
239.2161
 20
-67.842
 30
0.0
 40
0.3
  1
SINGLE FACE MEDIAN
  7
txt
 72
     4
 11
241.8452
 21
-67.692
 31
0.0
210
0.0
220
0.0
230
1.0
  0
TEXT
  8
3
  6
CONTINUOUS
 62
   241
  5
5D7
 10
239.6164
 20
-68.4253
 30
0.0
 40
0.3
  1
(ISOMETRIC VIEW)
  7
txt
 72
     4
 11
241.9478
 21
-68.2753
 31
0.0
210
0.0
220
0.0
230
1.0
  0
TEXT
  8
30
  6
CONTINUOUS
 62
     2
  5
5D8
 10
221.8395
 20
-55.6378
 30
0.0
 40
0.3
  1
DOUBLE FACE TRANSITION
  7
txt
 72
     4
 11
225.0639
 21
-55.4878
 31
0.0
210
0.0
220
0.0
230
1.0
  0
TEXT
  8
30
  6
CONTINUOUS
 62
     2
  5
5D9
 10
221.8282
 20
-68.5962
 30
0.0
 40
0.3
  1
SINGLE FACE TRANSITION
  7
txt
 72
     4
 11
225.0526
 21
-68.4462
 31
0.0
210
0.0
220
0.0
230
1.0
  0
LINE
  8
1
  6
CONTINUOUS
 62
   110
  5
5DA
 10
222.0265
 20
-53.0232
 30
0.0
 11
225.5965
 21
-52.4163
 31
0.0
  0
LINE
  8
1
  6
CONTINUOUS
 62
   110
  5
5DB
 10
222.0265
 20
-66.1749
 30
0.0
 11
225.5965
 21
-65.568
 31
0.0
  0
LINE
  8
1
  6
CONTINUOUS
 62
   140
  5
5DC
 10
229.7809
 20
-53.2017
 30
0.0
 11
227.804
 21
-53.2017
 31
0.0
  0
LINE
  8
1
  6
CONTINUOUS
 62
     7
  5
5DD
 10
229.4507
 20
-53.009
 30
0.0
 11
229.2753
 21
-53.2005
 31
0.0
  0
LINE
  8
1
  6
CONTINUOUS
 62
     7
  5
5DE
 10
229.4507
 20
-53.009
 30
0.0
 11
229.5508
 21
-53.009
 31
0.0
  0
INSERT
  8
1
  6
CONTINUOUS
 62
     7
  5
5DF
  2
ARROW2
 10
229.2753
 20
-53.2005
 30
0.0
 41
0.515164
 42
-0.515164
 50
227.49213
 43
0.848008
210
0.0
220
0.0
230
1.0
  0
TEXT
  8
1
  6
CONTINUOUS
 62
     7
  5
5E0
 10
229.6335
 20
-53.0608
 30
0.0
 40
0.1272
  1
PAVEMENT
  7
txt
 11
229.6335
 21
-52.9972
 31
0.0
210
0.0
220
0.0
230
1.0
 73
     2
  0
LINE
  8
1
  6
CONTINUOUS
 62
   140
  5
5E1
 10
229.7427
 20
-66.3534
 30
0.0
 11
227.8018
 21
-66.3534
 31
0.0
  0
LINE
  8
1
  6
CONTINUOUS
 62
     7
  5
5E2
 10
229.4546
 20
-66.1607
 30
0.0
 11
229.2792
 21
-66.3522
 31
0.0
  0
LINE
  8
1
  6
CONTINUOUS
 62
     7
  5
5E3
 10
229.4546
 20
-66.1607
 30
0.0
 11
229.5547
 21
-66.1607
 31
0.0
  0
INSERT
  8
1
  6
CONTINUOUS
 62
     7
  5
5E4
  2
ARROW2
 10
229.2792
 20
-66.3522
 30
0.0
 41
0.515164
 42
-0.515164
 50
227.49213
 43
0.848008
210
0.0
220
0.0
230
1.0
  0
TEXT
  8
1
  6
CONTINUOUS
 62
     7
  5
5E5
 10
229.6374
 20
-66.2125
 30
0.0
 40
0.1272
  1
PAVEMENT
  7
txt
 11
229.6374
 21
-66.1489
 31
0.0
210
0.0
220
0.0
230
1.0
 73
     2
  0
TEXT
  8
17
  6
CONTINUOUS
 62
     2
  5
5E7
 10
244.2243
 20
-53.4965
 30
0.0
 40
0.1272
  1
for Guardrail Pipe Include payment
  7
txt
 11
244.2243
 21
-53.4329
 31
0.0
210
0.0
220
0.0
230
1.0
 73
     2
  0
TEXT
  8
17
  6
CONTINUOUS
 62
     2
  5
5E8
 10
244.9471
 20
-53.7014
 30
0.0
 40
0.1272
  1
in Item 601-02
  7
txt
 11
244.9471
 21
-53.6378
 31
0.0
210
0.0
220
0.0
230
1.0
 73
     2
  0
INSERT
  8
5
  6
CONTINUOUS
 62
     7
  5
5F2
  2
*D4
 10
242.0924
 20
-52.0766
 30
0.0
 70
     0
 71
     0
  0
LINE
  8
5
  6
CONTINUOUS
 62
     7
  5
5F3
 10
243.8929
 20
-53.4891
 30
0.0
 11
244.076
 21
-53.4891
 31
0.0
  0
LINE
  8
5
  6
DASHDOT
 62
   241
  5
5F4
 10
240.5915
 20
-51.5911
 30
0.0
 11
239.6908
 21
-51.5911
 31
0.0
  0
LINE
  8
5
  6
DASHDOT
 62
   241
  5
5F5
 10
241.7977
 20
-51.5911
 30
0.0
 11
241.084
 21
-51.5911
 31
0.0
  0
LINE
  8
3
  6
CONTINUOUS
 62
     2
  5
5F6
 10
241.6956
 20
-51.632
 30
0.0
 11
241.6956
 21
-51.9652
 31
0.0
  0
TEXT
  8
59
  6
CONTINUOUS
 62
   110
  5
5F7
 10
238.9594
 20
-51.6344
 30
0.0
 40
0.1562
  1
C
  7
ITALICT
 11
238.9594
 21
-51.5563
 31
0.0
210
0.0
220
0.0
230
1.0
 73
     2
  0
TEXT
  8
59
  6
CONTINUOUS
 62
   110
  5
5F8
 10
238.9782
 20
-51.6968
 30
0.0
 40
0.1562
  1
L
  7
ITALICT
 11
238.9782
 21
-51.6187
 31
0.0
210
0.0
220
0.0
230
1.0
 73
     2
  0
TEXT
  8
59
  6
CONTINUOUS
 62
   110
  5
5F9
 10
238.1577
 20
-51.6651
 30
0.0
 40
0.1272
  1
Guardrail
  7
txt
 11
238.1577
 21
-51.6015
 31
0.0
210
0.0
220
0.0
230
1.0
 73
     2
  0
LINE
  8
6
  6
CONTINUOUS
 62
     2
  5
5FA
 10
248.7435
 20
-50.0846
 30
0.0
 11
248.7146
 21
-51.4146
 31
0.0
  0
LINE
  8
6
  6
CONTINUOUS
 62
     2
  5
5FB
 10
248.7146
 20
-51.4146
 30
0.0
 11
248.4547
 21
-51.1918
 31
0.0
  0
LINE
  8
6
  6
CONTINUOUS
 62
     2
  5
5FC
 10
248.4547
 20
-51.1918
 30
0.0
 11
248.8074
 21
-51.6745
 31
0.0
  0
LINE
  8
6
  6
CONTINUOUS
 62
     2
  5
5FD
 10
248.8074
 20
-51.6745
 30
0.0
 11
248.6775
 21
-51.5816
 31
0.0
  0
LINE
  8
6
  6
CONTINUOUS
 62
     2
  5
5FE
 10
248.6775
 20
-51.5816
 30
0.0
 11
248.696
 21
-52.3797
 31
0.0
  0
LINE
  8
6
  6
CONTINUOUS
 62
     2
  5
5FF
 10
248.696
 20
-52.3797
 30
0.0
 11
248.4918
 21
-52.2497
 31
0.0
  0
LINE
  8
6
  6
CONTINUOUS
 62
     2
  5
600
 10
248.4918
 20
-52.2497
 30
0.0
 11
248.7889
 21
-52.5096
 31
0.0
  0
LINE
  8
6
  6
CONTINUOUS
 62
     2
  5
601
 10
248.7889
 20
-52.5096
 30
0.0
 11
248.6589
 21
-52.4725
 31
0.0
  0
LINE
  8
6
  6
CONTINUOUS
 62
     2
  5
602
 10
248.6589
 20
-52.4725
 30
0.0
 11
248.7115
 21
-53.3672
 31
0.0
  0
LINE
  8
6
  6
CONTINUOUS
 62
     2
  5
603
 10
252.935
 20
-45.5387
 30
0.0
 11
252.9164
 21
-46.3927
 31
0.0
  0
LINE
  8
6
  6
CONTINUOUS
 62
     2
  5
604
 10
252.9164
 20
-46.3927
 30
0.0
 11
252.6565
 21
-46.1699
 31
0.0
  0
LINE
  8
6
  6
CONTINUOUS
 62
     2
  5
605
 10
252.6565
 20
-46.1699
 30
0.0
 11
253.0092
 21
-46.6526
 31
0.0
  0
LINE
  8
6
  6
CONTINUOUS
 62
     2
  5
606
 10
253.0092
 20
-46.6526
 30
0.0
 11
252.8793
 21
-46.5597
 31
0.0
  0
LINE
  8
6
  6
CONTINUOUS
 62
     2
  5
607
 10
252.8793
 20
-46.5597
 30
0.0
 11
252.8978
 21
-47.3578
 31
0.0
  0
LINE
  8
6
  6
CONTINUOUS
 62
     2
  5
608
 10
252.8978
 20
-47.3578
 30
0.0
 11
252.6936
 21
-47.2278
 31
0.0
  0
LINE
  8
6
  6
CONTINUOUS
 62
     2
  5
609
 10
252.6936
 20
-47.2278
 30
0.0
 11
252.9907
 21
-47.4877
 31
0.0
  0
LINE
  8
6
  6
CONTINUOUS
 62
     2
  5
60A
 10
252.9907
 20
-47.4877
 30
0.0
 11
252.8607
 21
-47.4506
 31
0.0
  0
LINE
  8
6
  6
CONTINUOUS
 62
     2
  5
60B
 10
252.8607
 20
-47.4506
 30
0.0
 11
252.9133
 21
-48.3453
 31
0.0
  0
LINE
  8
5
  6
CONTINUOUS
 62
     7
  5
60C
 10
240.3729
 20
-51.1385
 30
0.0
 11
239.4831
 21
-51.1385
 31
0.0
  0
LINE
  8
6
  6
CONTINUOUS
 62
     2
  5
60D
 10
239.7047
 20
-52.991
 30
-0.0005
 11
239.9259
 21
-53.2677
 31
-0.0005
  0
LINE
  8
6
  6
CONTINUOUS
 62
     2
  5
60E
 10
239.5322
 20
-53.0042
 30
-0.0005
 11
239.7453
 21
-53.2707
 31
-0.0005
  0
LINE
  8
6
  6
CONTINUOUS
 62
     2
  5
60F
 10
239.3089
 20
-52.9832
 30
-0.0005
 11
239.5368
 21
-53.2683
 31
-0.0005
  0
LINE
  8
6
  6
CONTINUOUS
 62
     2
  5
610
 10
239.1289
 20
-53.0009
 30
-0.0005
 11
239.3393
 21
-53.2641
 31
-0.0005
  0
LINE
  8
6
  6
CONTINUOUS
 62
     2
  5
611
 10
238.9503
 20
-52.9927
 30
-0.0005
 11
239.1614
 21
-53.2567
 31
-0.0005
  0
LINE
  8
6
  6
CONTINUOUS
 62
     2
  5
612
 10
238.7641
 20
-52.9835
 30
-0.0005
 11
238.9887
 21
-53.2644
 31
-0.0005
  0
LINE
  8
6
  6
CONTINUOUS
 62
     2
  5
613
 10
229.2192
 20
-53.2548
 30
-0.0005
 11
229.4404
 21
-53.5315
 31
-0.0005
  0
LINE
  8
6
  6
CONTINUOUS
 62
     2
  5
614
 10
229.0467
 20
-53.268
 30
-0.0005
 11
229.2598
 21
-53.5345
 31
-0.0005
  0
LINE
  8
6
  6
CONTINUOUS
 62
     2
  5
615
 10
228.8234
 20
-53.247
 30
-0.0005
 11
229.0513
 21
-53.5321
 31
-0.0005
  0
LINE
  8
6
  6
CONTINUOUS
 62
     2
  5
616
 10
228.6434
 20
-53.2647
 30
-0.0005
 11
228.8538
 21
-53.5279
 31
-0.0005
  0
LINE
  8
6
  6
CONTINUOUS
 62
     2
  5
617
 10
228.4648
 20
-53.2565
 30
-0.0005
 11
228.6759
 21
-53.5205
 31
-0.0005
  0
LINE
  8
6
  6
CONTINUOUS
 62
     2
  5
618
 10
228.2786
 20
-53.2473
 30
-0.0005
 11
228.5032
 21
-53.5282
 31
-0.0005
  0
LINE
  8
6
  6
CONTINUOUS
 62
     2
  5
619
 10
229.3213
 20
-66.4101
 30
-0.0005
 11
229.5425
 21
-66.6868
 31
-0.0005
  0
LINE
  8
6
  6
CONTINUOUS
 62
     2
  5
61A
 10
229.1488
 20
-66.4233
 30
-0.0005
 11
229.3619
 21
-66.6898
 31
-0.0005
  0
LINE
  8
6
  6
CONTINUOUS
 62
     2
  5
61B
 10
228.9255
 20
-66.4023
 30
-0.0005
 11
229.1534
 21
-66.6874
 31
-0.0005
  0
LINE
  8
6
  6
CONTINUOUS
 62
     2
  5
61C
 10
228.7455
 20
-66.42
 30
-0.0005
 11
228.9559
 21
-66.6832
 31
-0.0005
  0
LINE
  8
6
  6
CONTINUOUS
 62
     2
  5
61D
 10
228.5669
 20
-66.4118
 30
-0.0005
 11
228.778
 21
-66.6758
 31
-0.0005
  0
LINE
  8
6
  6
CONTINUOUS
 62
     2
  5
61E
 10
228.3807
 20
-66.4026
 30
-0.0005
 11
228.6053
 21
-66.6835
 31
-0.0005
  0
LINE
  8
5
  6
CONTINUOUS
 62
     7
  5
61F
 10
227.8049
 20
-59.4194
 30
0.0
 11
228.1932
 21
-59.4194
 31
0.0
  0
LINE
  8
5
  6
CONTINUOUS
 62
     7
  5
620
 10
227.8049
 20
-59.7526
 30
0.0
 11
228.1932
 21
-59.7526
 31
0.0
  0
LINE
  8
5
  6
CONTINUOUS
 62
     7
  5
621
 10
228.1377
 20
-59.4194
 30
0.0
 11
228.1377
 21
-59.7526
 31
0.0
  0
POLYLINE
  8
5
  6
CONTINUOUS
 62
     7
  5
622
 66
     1
 10
0.0
 20
0.0
 30
0.0
210
0.0
220
0.0
230
1.0
  0
VERTEX
  8
5
  6
CONTINUOUS
 62
     7
  5
623
 10
228.1189
 20
-59.5194
 30
0.0
  0
VERTEX
  8
5
  6
CONTINUOUS
 62
     7
  5
624
 10
228.1377
 20
-59.4194
 30
0.0
  0
VERTEX
  8
5
  6
CONTINUOUS
 62
     7
  5
625
 10
228.1565
 20
-59.5194
 30
0.0
  0
SEQEND
  8
5
  6
CONTINUOUS
 62
     7
  5
626
  0
POLYLINE
  8
5
  6
CONTINUOUS
 62
     7
  5
627
 66
     1
 10
0.0
 20
0.0
 30
0.0
210
0.0
220
0.0
230
1.0
  0
VERTEX
  8
5
  6
CONTINUOUS
 62
     7
  5
628
 10
228.1565
 20
-59.6526
 30
0.0
  0
VERTEX
  8
5
  6
CONTINUOUS
 62
     7
  5
629
 10
228.1377
 20
-59.7526
 30
0.0
  0
VERTEX
  8
5
  6
CONTINUOUS
 62
     7
  5
62A
 10
228.1189
 20
-59.6526
 30
0.0
  0
SEQEND
  8
5
  6
CONTINUOUS
 62
     7
  5
62B
  0
LINE
  8
5
  6
CONTINUOUS
 62
     7
  5
62C
 10
227.8417
 20
-46.705
 30
0.0
 11
228.23
 21
-46.705
 31
0.0
  0
LINE
  8
5
  6
CONTINUOUS
 62
     7
  5
62D
 10
227.8417
 20
-47.0382
 30
0.0
 11
228.23
 21
-47.0382
 31
0.0
  0
LINE
  8
5
  6
CONTINUOUS
 62
     7
  5
62E
 10
228.1745
 20
-46.705
 30
0.0
 11
228.1745
 21
-47.0382
 31
0.0
  0
POLYLINE
  8
5
  6
CONTINUOUS
 62
     7
  5
62F
 66
     1
 10
0.0
 20
0.0
 30
0.0
210
0.0
220
0.0
230
1.0
  0
VERTEX
  8
5
  6
CONTINUOUS
 62
     7
  5
630
 10
228.1557
 20
-46.805
 30
0.0
  0
VERTEX
  8
5
  6
CONTINUOUS
 62
     7
  5
631
 10
228.1745
 20
-46.705
 30
0.0
  0
VERTEX
  8
5
  6
CONTINUOUS
 62
     7
  5
632
 10
228.1933
 20
-46.805
 30
0.0
  0
SEQEND
  8
5
  6
CONTINUOUS
 62
     7
  5
633
  0
POLYLINE
  8
5
  6
CONTINUOUS
 62
     7
  5
634
 66
     1
 10
0.0
 20
0.0
 30
0.0
210
0.0
220
0.0
230
1.0
  0
VERTEX
  8
5
  6
CONTINUOUS
 62
     7
  5
635
 10
228.1933
 20
-46.9382
 30
0.0
  0
VERTEX
  8
5
  6
CONTINUOUS
 62
     7
  5
636
 10
228.1745
 20
-47.0382
 30
0.0
  0
VERTEX
  8
5
  6
CONTINUOUS
 62
     7
  5
637
 10
228.1557
 20
-46.9382
 30
0.0
  0
SEQEND
  8
5
  6
CONTINUOUS
 62
     7
  5
638
  0
TEXT
  8
1
  6
CONTINUOUS
 62
     2
  5
639
 10
250.4112
 20
-67.0096
 30
0.0
 40
0.25
  1
TYPE V MEDIAN
  7
txt
 72
     4
 11
251.982
 21
-66.8846
 31
0.0
210
0.0
220
0.0
230
1.0
  0
TEXT
  8
1
  6
CONTINUOUS
 62
     2
  5
63A
 10
249.6144
 20
-67.5596
 30
0.0
 40
0.25
  1
GUARDRAIL ATTACHMENT
  7
txt
 72
     4
 11
252.0534
 21
-67.4346
 31
0.0
210
0.0
220
0.0
230
1.0
  0
TEXT
  8
1
  6
CONTINUOUS
 62
     2
  5
63B
 10
249.7797
 20
-68.0442
 30
0.0
 40
0.25
  1
F-SHAPE OR N-J SHAPE
  7
txt
 72
     4
 11
252.2187
 21
-67.9192
 31
0.0
210
0.0
220
0.0
230
1.0
  0
LINE
  8
1
  6
CONTINUOUS
 62
   110
  5
63C
 10
234.769
 20
-67.9437
 30
0.0
 11
234.3513
 21
-67.703
 31
0.0
  0
LINE
  8
1
  6
CONTINUOUS
 62
   110
  5
63D
 10
234.3531
 20
-67.703
 30
0.0
 11
234.3531
 21
-65.7681
 31
0.0
  0
LINE
  8
1
  6
CONTINUOUS
 62
   110
  5
63E
 10
234.7692
 20
-66.0079
 30
0.0
 11
234.7692
 21
-67.9434
 31
0.0
  0
LINE
  8
1
  6
CONTINUOUS
 62
   110
  5
63F
 10
236.732
 20
-64.6291
 30
0.0
 11
236.732
 21
-66.8095
 31
0.0
  0
LINE
  8
1
  6
CONTINUOUS
 62
   110
  5
640
 10
236.7325
 20
-66.8087
 30
0.0
 11
236.9406
 21
-66.9289
 31
0.0
  0
LINE
  8
1
  6
CONTINUOUS
 62
   110
  5
641
 10
234.7099
 20
-65.3154
 30
0.0
 11
241.0787
 21
-61.6386
 31
0.0
  0
LINE
  8
1
  6
CONTINUOUS
 62
   110
  5
642
 10
236.9403
 20
-66.1915
 30
0.0
 11
241.7037
 21
-63.4414
 31
0.0
  0
LINE
  8
1
  6
CONTINUOUS
 62
   110
  5
643
 10
236.732
 20
-64.6291
 30
0.0
 11
236.9404
 21
-66.1916
 31
0.0
  0
LINE
  8
1
  6
CONTINUOUS
 62
   110
  5
644
 10
240.3818
 20
-65.1339
 30
0.0
 11
242.032
 21
-64.1819
 31
0.0
  0
LINE
  8
1
  6
CONTINUOUS
 62
   110
  5
645
 10
240.3814
 20
-65.322
 30
0.0
 11
242.0316
 21
-64.37
 31
0.0
  0
LINE
  8
1
  6
CONTINUOUS
 62
   110
  5
646
 10
235.1259
 20
-65.555
 30
0.0
 11
241.4957
 21
-61.8798
 31
0.0
  0
LINE
  8
1
  6
CONTINUOUS
 62
   110
  5
647
 10
234.7099
 20
-65.3154
 30
0.0
 11
235.126
 21
-65.5552
 31
0.0
  0
LINE
  8
1
  6
CONTINUOUS
 62
   110
  5
648
 10
234.3535
 20
-65.7675
 30
0.0
 11
234.7692
 21
-66.0079
 31
0.0
  0
POLYLINE
  8
1
  6
CONTINUOUS
 62
   140
  5
649
 66
     1
 10
0.0
 20
0.0
 30
0.0
 70
     1
210
0.0
220
0.0
230
1.0
  0
VERTEX
  8
1
  6
CONTINUOUS
 62
   140
  5
64A
 10
236.315471
 20
-65.123195
 30
0.0
 42
0.074514
  0
VERTEX
  8
1
  6
CONTINUOUS
 62
   140
  5
64B
 10
236.310711
 20
-65.121357
 30
0.0
 42
0.067785
  0
VERTEX
  8
1
  6
CONTINUOUS
 62
   140
  5
64C
 10
236.305374
 20
-65.12092
 30
0.0
 42
0.058044
  0
VERTEX
  8
1
  6
CONTINUOUS
 62
   140
  5
64D
 10
236.299664
 20
-65.1219
 30
0.0
 42
0.048826
  0
VERTEX
  8
1
  6
CONTINUOUS
 62
   140
  5
64E
 10
236.293803
 20
-65.124259
 30
0.0
 42
0.04164
  0
VERTEX
  8
1
  6
CONTINUOUS
 62
   140
  5
64F
 10
236.288014
 20
-65.127908
 30
0.0
 42
0.036645
  0
VERTEX
  8
1
  6
CONTINUOUS
 62
   140
  5
650
 10
236.28252
 20
-65.132706
 30
0.0
 42
0.033559
  0
VERTEX
  8
1
  6
CONTINUOUS
 62
   140
  5
651
 10
236.277533
 20
-65.138468
 30
0.0
 42
0.032095
  0
VERTEX
  8
1
  6
CONTINUOUS
 62
   140
  5
652
 10
236.273243
 20
-65.144973
 30
0.0
 42
0.032095
  0
VERTEX
  8
1
  6
CONTINUOUS
 62
   140
  5
653
 10
236.269816
 20
-65.151971
 30
0.0
 42
0.033559
  0
VERTEX
  8
1
  6
CONTINUOUS
 62
   140
  5
654
 10
236.267384
 20
-65.159194
 30
0.0
 42
0.036645
  0
VERTEX
  8
1
  6
CONTINUOUS
 62
   140
  5
655
 10
236.26604
 20
-65.166363
 30
0.0
 42
0.04164
  0
VERTEX
  8
1
  6
CONTINUOUS
 62
   140
  5
656
 10
236.265835
 20
-65.173203
 30
0.0
 42
0.048826
  0
VERTEX
  8
1
  6
CONTINUOUS
 62
   140
  5
657
 10
236.266778
 20
-65.179451
 30
0.0
 42
0.058044
  0
VERTEX
  8
1
  6
CONTINUOUS
 62
   140
  5
658
 10
236.268832
 20
-65.184867
 30
0.0
 42
0.067785
  0
VERTEX
  8
1
  6
CONTINUOUS
 62
   140
  5
659
 10
236.271919
 20
-65.189243
 30
0.0
 42
0.074514
  0
VERTEX
  8
1
  6
CONTINUOUS
 62
   140
  5
65A
 10
236.275919
 20
-65.192411
 30
0.0
 42
0.074514
  0
VERTEX
  8
1
  6
CONTINUOUS
 62
   140
  5
65B
 10
236.280679
 20
-65.194249
 30
0.0
 42
0.067785
  0
VERTEX
  8
1
  6
CONTINUOUS
 62
   140
  5
65C
 10
236.286016
 20
-65.194686
 30
0.0
 42
0.058044
  0
VERTEX
  8
1
  6
CONTINUOUS
 62
   140
  5
65D
 10
236.291726
 20
-65.193706
 30
0.0
 42
0.048826
  0
VERTEX
  8
1
  6
CONTINUOUS
 62
   140
  5
65E
 10
236.297587
 20
-65.191347
 30
0.0
 42
0.04164
  0
VERTEX
  8
1
  6
CONTINUOUS
 62
   140
  5
65F
 10
236.303376
 20
-65.187698
 30
0.0
 42
0.036645
  0
VERTEX
  8
1
  6
CONTINUOUS
 62
   140
  5
660
 10
236.30887
 20
-65.1829
 30
0.0
 42
0.033559
  0
VERTEX
  8
1
  6
CONTINUOUS
 62
   140
  5
661
 10
236.313857
 20
-65.177138
 30
0.0
 42
0.032095
  0
VERTEX
  8
1
  6
CONTINUOUS
 62
   140
  5
662
 10
236.318147
 20
-65.170633
 30
0.0
 42
0.032095
  0
VERTEX
  8
1
  6
CONTINUOUS
 62
   140
  5
663
 10
236.321574
 20
-65.163635
 30
0.0
 42
0.033559
  0
VERTEX
  8
1
  6
CONTINUOUS
 62
   140
  5
664
 10
236.324006
 20
-65.156412
 30
0.0
 42
0.036645
  0
VERTEX
  8
1
  6
CONTINUOUS
 62
   140
  5
665
 10
236.32535
 20
-65.149243
 30
0.0
 42
0.04164
  0
VERTEX
  8
1
  6
CONTINUOUS
 62
   140
  5
666
 10
236.325555
 20
-65.142403
 30
0.0
 42
0.048826
  0
VERTEX
  8
1
  6
CONTINUOUS
 62
   140
  5
667
 10
236.324612
 20
-65.136155
 30
0.0
 42
0.058044
  0
VERTEX
  8
1
  6
CONTINUOUS
 62
   140
  5
668
 10
236.322558
 20
-65.130739
 30
0.0
 42
0.067785
  0
VERTEX
  8
1
  6
CONTINUOUS
 62
   140
  5
669
 10
236.319471
 20
-65.126363
 30
0.0
 42
0.074514
  0
SEQEND
  8
1
  6
CONTINUOUS
 62
   140
  5
66A
  0
POLYLINE
  8
1
  6
CONTINUOUS
 62
   140
  5
66B
 66
     1
 10
0.0
 20
0.0
 30
0.0
 70
     1
210
0.0
220
0.0
230
1.0
  0
VERTEX
  8
1
  6
CONTINUOUS
 62
   140
  5
66C
 10
236.308671
 20
-65.493635
 30
0.0
 42
0.074514
  0
VERTEX
  8
1
  6
CONTINUOUS
 62
   140
  5
66D
 10
236.303911
 20
-65.491797
 30
0.0
 42
0.067785
  0
VERTEX
  8
1
  6
CONTINUOUS
 62
   140
  5
66E
 10
236.298574
 20
-65.49136
 30
0.0
 42
0.058044
  0
VERTEX
  8
1
  6
CONTINUOUS
 62
   140
  5
66F
 10
236.292864
 20
-65.49234
 30
0.0
 42
0.048826
  0
VERTEX
  8
1
  6
CONTINUOUS
 62
   140
  5
670
 10
236.287003
 20
-65.494699
 30
0.0
 42
0.04164
  0
VERTEX
  8
1
  6
CONTINUOUS
 62
   140
  5
671
 10
236.281214
 20
-65.498348
 30
0.0
 42
0.036645
  0
VERTEX
  8
1
  6
CONTINUOUS
 62
   140
  5
672
 10
236.27572
 20
-65.503146
 30
0.0
 42
0.033559
  0
VERTEX
  8
1
  6
CONTINUOUS
 62
   140
  5
673
 10
236.270733
 20
-65.508908
 30
0.0
 42
0.032095
  0
VERTEX
  8
1
  6
CONTINUOUS
 62
   140
  5
674
 10
236.266443
 20
-65.515413
 30
0.0
 42
0.032095
  0
VERTEX
  8
1
  6
CONTINUOUS
 62
   140
  5
675
 10
236.263016
 20
-65.522411
 30
0.0
 42
0.033559
  0
VERTEX
  8
1
  6
CONTINUOUS
 62
   140
  5
676
 10
236.260584
 20
-65.529634
 30
0.0
 42
0.036645
  0
VERTEX
  8
1
  6
CONTINUOUS
 62
   140
  5
677
 10
236.25924
 20
-65.536803
 30
0.0
 42
0.04164
  0
VERTEX
  8
1
  6
CONTINUOUS
 62
   140
  5
678
 10
236.259035
 20
-65.543643
 30
0.0
 42
0.048826
  0
VERTEX
  8
1
  6
CONTINUOUS
 62
   140
  5
679
 10
236.259978
 20
-65.549891
 30
0.0
 42
0.058044
  0
VERTEX
  8
1
  6
CONTINUOUS
 62
   140
  5
67A
 10
236.262032
 20
-65.555307
 30
0.0
 42
0.067785
  0
VERTEX
  8
1
  6
CONTINUOUS
 62
   140
  5
67B
 10
236.265119
 20
-65.559683
 30
0.0
 42
0.074514
  0
VERTEX
  8
1
  6
CONTINUOUS
 62
   140
  5
67C
 10
236.269119
 20
-65.562851
 30
0.0
 42
0.074514
  0
VERTEX
  8
1
  6
CONTINUOUS
 62
   140
  5
67D
 10
236.273879
 20
-65.564689
 30
0.0
 42
0.067785
  0
VERTEX
  8
1
  6
CONTINUOUS
 62
   140
  5
67E
 10
236.279216
 20
-65.565126
 30
0.0
 42
0.058044
  0
VERTEX
  8
1
  6
CONTINUOUS
 62
   140
  5
67F
 10
236.284926
 20
-65.564146
 30
0.0
 42
0.048826
  0
VERTEX
  8
1
  6
CONTINUOUS
 62
   140
  5
680
 10
236.290787
 20
-65.561787
 30
0.0
 42
0.04164
  0
VERTEX
  8
1
  6
CONTINUOUS
 62
   140
  5
681
 10
236.296576
 20
-65.558138
 30
0.0
 42
0.036645
  0
VERTEX
  8
1
  6
CONTINUOUS
 62
   140
  5
682
 10
236.30207
 20
-65.55334
 30
0.0
 42
0.033559
  0
VERTEX
  8
1
  6
CONTINUOUS
 62
   140
  5
683
 10
236.307057
 20
-65.547578
 30
0.0
 42
0.032095
  0
VERTEX
  8
1
  6
CONTINUOUS
 62
   140
  5
684
 10
236.311347
 20
-65.541073
 30
0.0
 42
0.032095
  0
VERTEX
  8
1
  6
CONTINUOUS
 62
   140
  5
685
 10
236.314774
 20
-65.534075
 30
0.0
 42
0.033559
  0
VERTEX
  8
1
  6
CONTINUOUS
 62
   140
  5
686
 10
236.317206
 20
-65.526852
 30
0.0
 42
0.036645
  0
VERTEX
  8
1
  6
CONTINUOUS
 62
   140
  5
687
 10
236.31855
 20
-65.519683
 30
0.0
 42
0.04164
  0
VERTEX
  8
1
  6
CONTINUOUS
 62
   140
  5
688
 10
236.318755
 20
-65.512843
 30
0.0
 42
0.048826
  0
VERTEX
  8
1
  6
CONTINUOUS
 62
   140
  5
689
 10
236.317812
 20
-65.506595
 30
0.0
 42
0.058044
  0
VERTEX
  8
1
  6
CONTINUOUS
 62
   140
  5
68A
 10
236.315758
 20
-65.501179
 30
0.0
 42
0.067785
  0
VERTEX
  8
1
  6
CONTINUOUS
 62
   140
  5
68B
 10
236.312671
 20
-65.496803
 30
0.0
 42
0.074514
  0
SEQEND
  8
1
  6
CONTINUOUS
 62
   140
  5
68C
  0
POLYLINE
  8
1
  6
CONTINUOUS
 62
   140
  5
68D
 66
     1
 10
0.0
 20
0.0
 30
0.0
 70
     1
210
0.0
220
0.0
230
1.0
  0
VERTEX
  8
1
  6
CONTINUOUS
 62
   140
  5
68E
 10
236.308571
 20
-65.885175
 30
0.0
 42
0.074514
  0
VERTEX
  8
1
  6
CONTINUOUS
 62
   140
  5
68F
 10
236.303811
 20
-65.883337
 30
0.0
 42
0.067785
  0
VERTEX
  8
1
  6
CONTINUOUS
 62
   140
  5
690
 10
236.298474
 20
-65.8829
 30
0.0
 42
0.058044
  0
VERTEX
  8
1
  6
CONTINUOUS
 62
   140
  5
691
 10
236.292764
 20
-65.88388
 30
0.0
 42
0.048826
  0
VERTEX
  8
1
  6
CONTINUOUS
 62
   140
  5
692
 10
236.286903
 20
-65.886239
 30
0.0
 42
0.04164
  0
VERTEX
  8
1
  6
CONTINUOUS
 62
   140
  5
693
 10
236.281114
 20
-65.889888
 30
0.0
 42
0.036645
  0
VERTEX
  8
1
  6
CONTINUOUS
 62
   140
  5
694
 10
236.27562
 20
-65.894686
 30
0.0
 42
0.033559
  0
VERTEX
  8
1
  6
CONTINUOUS
 62
   140
  5
695
 10
236.270633
 20
-65.900448
 30
0.0
 42
0.032095
  0
VERTEX
  8
1
  6
CONTINUOUS
 62
   140
  5
696
 10
236.266343
 20
-65.906953
 30
0.0
 42
0.032095
  0
VERTEX
  8
1
  6
CONTINUOUS
 62
   140
  5
697
 10
236.262916
 20
-65.913951
 30
0.0
 42
0.033559
  0
VERTEX
  8
1
  6
CONTINUOUS
 62
   140
  5
698
 10
236.260484
 20
-65.921174
 30
0.0
 42
0.036645
  0
VERTEX
  8
1
  6
CONTINUOUS
 62
   140
  5
699
 10
236.25914
 20
-65.928343
 30
0.0
 42
0.04164
  0
VERTEX
  8
1
  6
CONTINUOUS
 62
   140
  5
69A
 10
236.258935
 20
-65.935183
 30
0.0
 42
0.048826
  0
VERTEX
  8
1
  6
CONTINUOUS
 62
   140
  5
69B
 10
236.259878
 20
-65.941431
 30
0.0
 42
0.058044
  0
VERTEX
  8
1
  6
CONTINUOUS
 62
   140
  5
69C
 10
236.261932
 20
-65.946847
 30
0.0
 42
0.067785
  0
VERTEX
  8
1
  6
CONTINUOUS
 62
   140
  5
69D
 10
236.265019
 20
-65.951223
 30
0.0
 42
0.074514
  0
VERTEX
  8
1
  6
CONTINUOUS
 62
   140
  5
69E
 10
236.269019
 20
-65.954391
 30
0.0
 42
0.074514
  0
VERTEX
  8
1
  6
CONTINUOUS
 62
   140
  5
69F
 10
236.273779
 20
-65.956229
 30
0.0
 42
0.067785
  0
VERTEX
  8
1
  6
CONTINUOUS
 62
   140
  5
6A0
 10
236.279116
 20
-65.956666
 30
0.0
 42
0.058044
  0
VERTEX
  8
1
  6
CONTINUOUS
 62
   140
  5
6A1
 10
236.284826
 20
-65.955686
 30
0.0
 42
0.048826
  0
VERTEX
  8
1
  6
CONTINUOUS
 62
   140
  5
6A2
 10
236.290687
 20
-65.953327
 30
0.0
 42
0.04164
  0
VERTEX
  8
1
  6
CONTINUOUS
 62
   140
  5
6A3
 10
236.296476
 20
-65.949678
 30
0.0
 42
0.036645
  0
VERTEX
  8
1
  6
CONTINUOUS
 62
   140
  5
6A4
 10
236.30197
 20
-65.94488
 30
0.0
 42
0.033559
  0
VERTEX
  8
1
  6
CONTINUOUS
 62
   140
  5
6A5
 10
236.306957
 20
-65.939118
 30
0.0
 42
0.032095
  0
VERTEX
  8
1
  6
CONTINUOUS
 62
   140
  5
6A6
 10
236.311247
 20
-65.932613
 30
0.0
 42
0.032095
  0
VERTEX
  8
1
  6
CONTINUOUS
 62
   140
  5
6A7
 10
236.314674
 20
-65.925615
 30
0.0
 42
0.033559
  0
VERTEX
  8
1
  6
CONTINUOUS
 62
   140
  5
6A8
 10
236.317106
 20
-65.918392
 30
0.0
 42
0.036645
  0
VERTEX
  8
1
  6
CONTINUOUS
 62
   140
  5
6A9
 10
236.31845
 20
-65.911223
 30
0.0
 42
0.04164
  0
VERTEX
  8
1
  6
CONTINUOUS
 62
   140
  5
6AA
 10
236.318655
 20
-65.904383
 30
0.0
 42
0.048826
  0
VERTEX
  8
1
  6
CONTINUOUS
 62
   140
  5
6AB
 10
236.317712
 20
-65.898135
 30
0.0
 42
0.058044
  0
VERTEX
  8
1
  6
CONTINUOUS
 62
   140
  5
6AC
 10
236.315658
 20
-65.892719
 30
0.0
 42
0.067785
  0
VERTEX
  8
1
  6
CONTINUOUS
 62
   140
  5
6AD
 10
236.312571
 20
-65.888343
 30
0.0
 42
0.074514
  0
SEQEND
  8
1
  6
CONTINUOUS
 62
   140
  5
6AE
  0
POLYLINE
  8
1
  6
CONTINUOUS
 62
   140
  5
6AF
 66
     1
 10
0.0
 20
0.0
 30
0.0
 70
     1
210
0.0
220
0.0
230
1.0
  0
VERTEX
  8
1
  6
CONTINUOUS
 62
   140
  5
6B0
 10
235.923323
 20
-65.479119
 30
0.0
 42
0.074514
  0
VERTEX
  8
1
  6
CONTINUOUS
 62
   140
  5
6B1
 10
235.918563
 20
-65.477281
 30
0.0
 42
0.067785
  0
VERTEX
  8
1
  6
CONTINUOUS
 62
   140
  5
6B2
 10
235.913226
 20
-65.476844
 30
0.0
 42
0.058044
  0
VERTEX
  8
1
  6
CONTINUOUS
 62
   140
  5
6B3
 10
235.907516
 20
-65.477824
 30
0.0
 42
0.048826
  0
VERTEX
  8
1
  6
CONTINUOUS
 62
   140
  5
6B4
 10
235.901655
 20
-65.480183
 30
0.0
 42
0.04164
  0
VERTEX
  8
1
  6
CONTINUOUS
 62
   140
  5
6B5
 10
235.895866
 20
-65.483832
 30
0.0
 42
0.036645
  0
VERTEX
  8
1
  6
CONTINUOUS
 62
   140
  5
6B6
 10
235.890372
 20
-65.48863
 30
0.0
 42
0.033559
  0
VERTEX
  8
1
  6
CONTINUOUS
 62
   140
  5
6B7
 10
235.885385
 20
-65.494392
 30
0.0
 42
0.032095
  0
VERTEX
  8
1
  6
CONTINUOUS
 62
   140
  5
6B8
 10
235.881095
 20
-65.500897
 30
0.0
 42
0.032095
  0
VERTEX
  8
1
  6
CONTINUOUS
 62
   140
  5
6B9
 10
235.877668
 20
-65.507895
 30
0.0
 42
0.033559
  0
VERTEX
  8
1
  6
CONTINUOUS
 62
   140
  5
6BA
 10
235.875236
 20
-65.515118
 30
0.0
 42
0.036645
  0
VERTEX
  8
1
  6
CONTINUOUS
 62
   140
  5
6BB
 10
235.873892
 20
-65.522287
 30
0.0
 42
0.04164
  0
VERTEX
  8
1
  6
CONTINUOUS
 62
   140
  5
6BC
 10
235.873687
 20
-65.529127
 30
0.0
 42
0.048826
  0
VERTEX
  8
1
  6
CONTINUOUS
 62
   140
  5
6BD
 10
235.87463
 20
-65.535375
 30
0.0
 42
0.058044
  0
VERTEX
  8
1
  6
CONTINUOUS
 62
   140
  5
6BE
 10
235.876684
 20
-65.540791
 30
0.0
 42
0.067785
  0
VERTEX
  8
1
  6
CONTINUOUS
 62
   140
  5
6BF
 10
235.879771
 20
-65.545167
 30
0.0
 42
0.074514
  0
VERTEX
  8
1
  6
CONTINUOUS
 62
   140
  5
6C0
 10
235.883771
 20
-65.548335
 30
0.0
 42
0.074514
  0
VERTEX
  8
1
  6
CONTINUOUS
 62
   140
  5
6C1
 10
235.888531
 20
-65.550173
 30
0.0
 42
0.067785
  0
VERTEX
  8
1
  6
CONTINUOUS
 62
   140
  5
6C2
 10
235.893868
 20
-65.55061
 30
0.0
 42
0.058044
  0
VERTEX
  8
1
  6
CONTINUOUS
 62
   140
  5
6C3
 10
235.899578
 20
-65.54963
 30
0.0
 42
0.048826
  0
VERTEX
  8
1
  6
CONTINUOUS
 62
   140
  5
6C4
 10
235.905439
 20
-65.547271
 30
0.0
 42
0.04164
  0
VERTEX
  8
1
  6
CONTINUOUS
 62
   140
  5
6C5
 10
235.911228
 20
-65.543622
 30
0.0
 42
0.036645
  0
VERTEX
  8
1
  6
CONTINUOUS
 62
   140
  5
6C6
 10
235.916722
 20
-65.538824
 30
0.0
 42
0.033559
  0
VERTEX
  8
1
  6
CONTINUOUS
 62
   140
  5
6C7
 10
235.921709
 20
-65.533062
 30
0.0
 42
0.032095
  0
VERTEX
  8
1
  6
CONTINUOUS
 62
   140
  5
6C8
 10
235.925999
 20
-65.526557
 30
0.0
 42
0.032095
  0
VERTEX
  8
1
  6
CONTINUOUS
 62
   140
  5
6C9
 10
235.929426
 20
-65.519559
 30
0.0
 42
0.033559
  0
VERTEX
  8
1
  6
CONTINUOUS
 62
   140
  5
6CA
 10
235.931858
 20
-65.512336
 30
0.0
 42
0.036645
  0
VERTEX
  8
1
  6
CONTINUOUS
 62
   140
  5
6CB
 10
235.933202
 20
-65.505167
 30
0.0
 42
0.04164
  0
VERTEX
  8
1
  6
CONTINUOUS
 62
   140
  5
6CC
 10
235.933407
 20
-65.498327
 30
0.0
 42
0.048826
  0
VERTEX
  8
1
  6
CONTINUOUS
 62
   140
  5
6CD
 10
235.932464
 20
-65.492079
 30
0.0
 42
0.058044
  0
VERTEX
  8
1
  6
CONTINUOUS
 62
   140
  5
6CE
 10
235.93041
 20
-65.486663
 30
0.0
 42
0.067785
  0
VERTEX
  8
1
  6
CONTINUOUS
 62
   140
  5
6CF
 10
235.927323
 20
-65.482287
 30
0.0
 42
0.074514
  0
SEQEND
  8
1
  6
CONTINUOUS
 62
   140
  5
6D0
  0
POLYLINE
  8
1
  6
CONTINUOUS
 62
   140
  5
6D1
 66
     1
 10
0.0
 20
0.0
 30
0.0
 70
     1
210
0.0
220
0.0
230
1.0
  0
VERTEX
  8
1
  6
CONTINUOUS
 62
   140
  5
6D2
 10
235.916323
 20
-65.869735
 30
0.0
 42
0.074514
  0
VERTEX
  8
1
  6
CONTINUOUS
 62
   140
  5
6D3
 10
235.911563
 20
-65.867897
 30
0.0
 42
0.067785
  0
VERTEX
  8
1
  6
CONTINUOUS
 62
   140
  5
6D4
 10
235.906226
 20
-65.86746
 30
0.0
 42
0.058044
  0
VERTEX
  8
1
  6
CONTINUOUS
 62
   140
  5
6D5
 10
235.900516
 20
-65.86844
 30
0.0
 42
0.048826
  0
VERTEX
  8
1
  6
CONTINUOUS
 62
   140
  5
6D6
 10
235.894655
 20
-65.870799
 30
0.0
 42
0.04164
  0
VERTEX
  8
1
  6
CONTINUOUS
 62
   140
  5
6D7
 10
235.888866
 20
-65.874448
 30
0.0
 42
0.036645
  0
VERTEX
  8
1
  6
CONTINUOUS
 62
   140
  5
6D8
 10
235.883372
 20
-65.879246
 30
0.0
 42
0.033559
  0
VERTEX
  8
1
  6
CONTINUOUS
 62
   140
  5
6D9
 10
235.878385
 20
-65.885008
 30
0.0
 42
0.032095
  0
VERTEX
  8
1
  6
CONTINUOUS
 62
   140
  5
6DA
 10
235.874095
 20
-65.891513
 30
0.0
 42
0.032095
  0
VERTEX
  8
1
  6
CONTINUOUS
 62
   140
  5
6DB
 10
235.870668
 20
-65.898511
 30
0.0
 42
0.033559
  0
VERTEX
  8
1
  6
CONTINUOUS
 62
   140
  5
6DC
 10
235.868236
 20
-65.905734
 30
0.0
 42
0.036645
  0
VERTEX
  8
1
  6
CONTINUOUS
 62
   140
  5
6DD
 10
235.866892
 20
-65.912903
 30
0.0
 42
0.04164
  0
VERTEX
  8
1
  6
CONTINUOUS
 62
   140
  5
6DE
 10
235.866687
 20
-65.919743
 30
0.0
 42
0.048826
  0
VERTEX
  8
1
  6
CONTINUOUS
 62
   140
  5
6DF
 10
235.86763
 20
-65.925991
 30
0.0
 42
0.058044
  0
VERTEX
  8
1
  6
CONTINUOUS
 62
   140
  5
6E0
 10
235.869684
 20
-65.931407
 30
0.0
 42
0.067785
  0
VERTEX
  8
1
  6
CONTINUOUS
 62
   140
  5
6E1
 10
235.872771
 20
-65.935783
 30
0.0
 42
0.074514
  0
VERTEX
  8
1
  6
CONTINUOUS
 62
   140
  5
6E2
 10
235.876771
 20
-65.938951
 30
0.0
 42
0.074514
  0
VERTEX
  8
1
  6
CONTINUOUS
 62
   140
  5
6E3
 10
235.881531
 20
-65.940789
 30
0.0
 42
0.067785
  0
VERTEX
  8
1
  6
CONTINUOUS
 62
   140
  5
6E4
 10
235.886868
 20
-65.941226
 30
0.0
 42
0.058044
  0
VERTEX
  8
1
  6
CONTINUOUS
 62
   140
  5
6E5
 10
235.892578
 20
-65.940246
 30
0.0
 42
0.048826
  0
VERTEX
  8
1
  6
CONTINUOUS
 62
   140
  5
6E6
 10
235.898439
 20
-65.937887
 30
0.0
 42
0.04164
  0
VERTEX
  8
1
  6
CONTINUOUS
 62
   140
  5
6E7
 10
235.904228
 20
-65.934238
 30
0.0
 42
0.036645
  0
VERTEX
  8
1
  6
CONTINUOUS
 62
   140
  5
6E8
 10
235.909722
 20
-65.92944
 30
0.0
 42
0.033559
  0
VERTEX
  8
1
  6
CONTINUOUS
 62
   140
  5
6E9
 10
235.914709
 20
-65.923678
 30
0.0
 42
0.032095
  0
VERTEX
  8
1
  6
CONTINUOUS
 62
   140
  5
6EA
 10
235.918999
 20
-65.917173
 30
0.0
 42
0.032095
  0
VERTEX
  8
1
  6
CONTINUOUS
 62
   140
  5
6EB
 10
235.922426
 20
-65.910175
 30
0.0
 42
0.033559
  0
VERTEX
  8
1
  6
CONTINUOUS
 62
   140
  5
6EC
 10
235.924858
 20
-65.902952
 30
0.0
 42
0.036645
  0
VERTEX
  8
1
  6
CONTINUOUS
 62
   140
  5
6ED
 10
235.926202
 20
-65.895783
 30
0.0
 42
0.04164
  0
VERTEX
  8
1
  6
CONTINUOUS
 62
   140
  5
6EE
 10
235.926407
 20
-65.888943
 30
0.0
 42
0.048826
  0
VERTEX
  8
1
  6
CONTINUOUS
 62
   140
  5
6EF
 10
235.925464
 20
-65.882695
 30
0.0
 42
0.058044
  0
VERTEX
  8
1
  6
CONTINUOUS
 62
   140
  5
6F0
 10
235.92341
 20
-65.877279
 30
0.0
 42
0.067785
  0
VERTEX
  8
1
  6
CONTINUOUS
 62
   140
  5
6F1
 10
235.920323
 20
-65.872903
 30
0.0
 42
0.074514
  0
SEQEND
  8
1
  6
CONTINUOUS
 62
   140
  5
6F2
  0
LINE
  8
1
  6
CONTINUOUS
 62
   110
  5
6F3
 10
234.7685
 20
-67.9434
 30
0.0
 11
236.7322
 21
-66.81
 31
0.0
  0
LINE
  8
1
  6
CONTINUOUS
 62
   110
  5
6F4
 10
240.3852
 20
-65.1398
 30
0.0
 11
240.0541
 21
-64.3938
 31
0.0
  0
LINE
  8
1
  6
CONTINUOUS
 62
   110
  5
6F5
 10
236.9404
 20
-66.1917
 30
0.0
 11
236.9404
 21
-66.9293
 31
0.0
  0
LINE
  8
1
  6
CONTINUOUS
 62
   110
  5
6F6
 10
240.3852
 20
-65.3225
 30
0.0
 11
240.3852
 21
-65.1398
 31
0.0
  0
LINE
  8
1
  6
CONTINUOUS
 62
   110
  5
6F7
 10
236.9404
 20
-66.1916
 30
0.0
 11
240.3818
 21
-65.1339
 31
0.0
  0
LINE
  8
1
  6
CONTINUOUS
 62
   110
  5
6F8
 10
236.9406
 20
-66.9289
 30
0.0
 11
240.3814
 21
-65.322
 31
0.0
  0
LINE
  8
1
  6
CONTINUOUS
 62
   110
  5
6F9
 10
241.4949
 20
-61.8784
 30
0.0
 11
241.5674
 21
-62.2018
 31
-0.0005
  0
LINE
  8
1
  6
CONTINUOUS
 62
   110
  5
6FA
 10
241.5674
 20
-62.2018
 30
-0.0005
 11
241.5744
 21
-62.4792
 31
-0.0005
  0
LINE
  8
1
  6
CONTINUOUS
 62
   110
  5
6FB
 10
241.5744
 20
-62.4792
 30
-0.0005
 11
241.6368
 21
-62.7637
 31
-0.0005
  0
LINE
  8
1
  6
CONTINUOUS
 62
   110
  5
6FC
 10
241.6368
 20
-62.7637
 30
-0.0005
 11
241.6229
 21
-62.9371
 31
-0.0005
  0
LINE
  8
1
  6
CONTINUOUS
 62
   110
  5
6FD
 10
241.6229
 20
-62.9371
 30
-0.0005
 11
241.6784
 21
-63.0966
 31
-0.0005
  0
LINE
  8
1
  6
CONTINUOUS
 62
   110
  5
6FE
 10
241.6784
 20
-63.0966
 30
-0.0005
 11
241.6784
 21
-63.277
 31
-0.0005
  0
LINE
  8
1
  6
CONTINUOUS
 62
   110
  5
6FF
 10
241.6784
 20
-63.277
 30
-0.0005
 11
241.7025
 21
-63.4399
 31
0.0
  0
LINE
  8
1
  6
CONTINUOUS
 62
   110
  5
700
 10
241.7025
 20
-63.4399
 30
0.0
 11
241.7963
 21
-63.6863
 31
-0.0005
  0
LINE
  8
1
  6
CONTINUOUS
 62
   110
  5
701
 10
241.7963
 20
-63.6863
 30
-0.0005
 11
241.928
 21
-63.9013
 31
-0.0005
  0
LINE
  8
1
  6
CONTINUOUS
 62
   110
  5
702
 10
241.928
 20
-63.9013
 30
-0.0005
 11
241.9696
 21
-64.0609
 31
-0.0005
  0
LINE
  8
1
  6
CONTINUOUS
 62
   110
  5
703
 10
241.9696
 20
-64.0609
 30
-0.0005
 11
242.0313
 21
-64.1806
 31
0.0
  0
LINE
  8
1
  6
CONTINUOUS
 62
   110
  5
704
 10
242.0313
 20
-64.1806
 30
0.0
 11
242.0598
 21
-64.2898
 31
-0.0005
  0
LINE
  8
1
  6
CONTINUOUS
 62
   110
  5
705
 10
242.0598
 20
-64.2898
 30
-0.0005
 11
242.0316
 21
-64.37
 31
0.0
  0
LINE
  8
1
  6
DOT
 62
    40
  5
706
 10
241.0787
 20
-61.6386
 30
0.0
 11
241.0787
 21
-60.8954
 31
0.0
  0
LINE
  8
1
  6
DOT
 62
    40
  5
707
 10
236.3191
 20
-63.6418
 30
0.0
 11
241.0782
 21
-60.8944
 31
0.0
  0
LINE
  8
1
  6
DOT
 62
    40
  5
708
 10
236.6486
 20
-66.7585
 30
0.0
 11
236.6486
 21
-63.8309
 31
0.0
  0
LINE
  8
1
  6
CONTINUOUS
 62
   110
  5
709
 10
236.732
 20
-64.6291
 30
0.0
 11
236.9404
 21
-66.1916
 31
0.0
  0
LINE
  8
1
  6
DOT
 62
    40
  5
70A
 10
236.6485
 20
-63.8324
 30
0.0
 11
241.4075
 21
-61.085
 31
0.0
  0
LINE
  8
1
  6
DOT
 62
    40
  5
70B
 10
236.6479
 20
-66.7597
 30
0.0
 11
236.7328
 21
-66.8089
 31
0.0
  0
LINE
  8
1
  6
DOT
 62
    40
  5
70C
 10
234.6825
 20
-67.8936
 30
0.0
 11
236.6486
 21
-66.7585
 31
0.0
  0
LINE
  8
1
  6
DOT
 62
    40
  5
70D
 10
234.3513
 20
-67.703
 30
0.0
 11
234.3513
 21
-65.9334
 31
0.0
  0
LINE
  8
1
  6
CONTINUOUS
 62
   110
  5
70E
 10
241.0787
 20
-61.6386
 30
0.0
 11
241.4961
 21
-61.8791
 31
0.0
  0
LINE
  8
1
  6
CONTINUOUS
 62
     2
  5
70F
 10
241.4663
 20
-61.086
 30
0.0
 11
243.8705
 21
-61.086
 31
0.0
  0
LINE
  8
1
  6
CONTINUOUS
 62
     2
  5
710
 10
242.1442
 20
-64.2898
 30
0.0
 11
243.8705
 21
-64.2898
 31
0.0
  0
LINE
  8
5
  6
CONTINUOUS
 62
     7
  5
711
 10
242.5605
 20
-63.2807
 30
0.0
 11
242.5605
 21
-64.2898
 31
0.0
  0
INSERT
  8
1
  6
CONTINUOUS
 62
     7
  5
712
  2
ARROW2
 10
242.5605
 20
-64.2898
 30
0.0
 41
0.623349
 42
0.623349
 50
270.0
 43
1.026091
210
0.0
220
0.0
230
1.0
  0
INSERT
  8
1
  6
CONTINUOUS
 62
     7
  5
713
  2
ARROW2
 10
242.5605
 20
-61.8784
 30
0.0
 41
0.623349
 42
0.623349
 50
90.0
 43
1.026091
210
0.0
220
0.0
230
1.0
  0
LINE
  8
1
  6
CONTINUOUS
 62
     2
  5
714
 10
241.546
 20
-61.8784
 30
0.0
 11
242.609
 21
-61.8784
 31
0.0
  0
LINE
  8
1
  6
HIDDEN
 62
   140
  5
715
 10
236.3151
 20
-64.1229
 30
0.0
 11
241.0777
 21
-61.3734
 31
0.0
  0
LINE
  8
1
  6
CONTINUOUS
 62
     7
  5
716
 10
242.5605
 20
-61.8784
 30
0.0
 11
242.5605
 21
-61.5953
 31
0.0
  0
LINE
  8
1
  6
CONTINUOUS
 62
     7
  5
717
 10
243.1784
 20
-62.6639
 30
0.0
 11
243.1784
 21
-61.086
 31
0.0
  0
LINE
  8
1
  6
HIDDEN
 62
   140
  5
718
 10
241.0787
 20
-61.6386
 30
0.0
 11
241.0787
 21
-61.3734
 31
0.0
  0
LINE
  8
5
  6
CONTINUOUS
 62
     7
  5
719
 10
243.8081
 20
-62.6889
 30
0.0
 11
243.8081
 21
-64.2898
 31
0.0
  0
INSERT
  8
1
  6
CONTINUOUS
 62
     7
  5
71A
  2
ARROW2
 10
243.8081
 20
-64.2898
 30
0.0
 41
0.623349
 42
0.623349
 50
270.0
 43
1.026091
210
0.0
220
0.0
230
1.0
  0
INSERT
  8
1
  6
CONTINUOUS
 62
     7
  5
71B
  2
ARROW2
 10
243.8081
 20
-61.086
 30
0.0
 41
0.623349
 42
0.623349
 50
90.0
 43
1.026091
210
0.0
220
0.0
230
1.0
  0
LINE
  8
1
  6
DOT
 62
    40
  5
71C
 10
236.3191
 20
-63.6418
 30
0.0
 11
236.6485
 21
-63.8324
 31
0.0
  0
LINE
  8
1
  6
DOT
 62
    40
  5
71D
 10
234.4252
 20
-65.8088
 30
0.0
 11
234.7546
 21
-65.9994
 31
0.0
  0
LINE
  8
1
  6
DOT
 62
    40
  5
71E
 10
234.6825
 20
-67.8936
 30
0.0
 11
234.6825
 21
-65.9598
 31
0.0
  0
LINE
  8
1
  6
DOT
 62
    40
  5
71F
 10
236.6485
 20
-63.8324
 30
0.0
 11
236.7317
 21
-64.6285
 31
0.0
  0
LINE
  8
1
  6
DOT
 62
    40
  5
720
 10
241.0787
 20
-60.8954
 30
0.0
 11
241.4081
 21
-61.086
 31
0.0
  0
LINE
  8
1
  6
DOT
 62
    40
  5
721
 10
241.4953
 20
-61.8789
 30
0.0
 11
241.4081
 21
-61.086
 31
0.0
  0
LINE
  8
1
  6
HIDDEN
 62
   140
  5
722
 10
234.4251
 20
-65.8089
 30
0.0
 11
234.7692
 21
-66.0079
 31
0.0
  0
LINE
  8
1
  6
HIDDEN
 62
   140
  5
723
 10
241.0777
 20
-61.3734
 30
0.0
 11
241.4591
 21
-61.594
 31
0.0
  0
LINE
  8
1
  6
CONTINUOUS
 62
     2
  5
724
 10
241.546
 20
-61.5953
 30
0.0
 11
243.2402
 21
-61.5953
 31
0.0
  0
INSERT
  8
1
  6
CONTINUOUS
 62
     7
  5
725
  2
ARROW2
 10
242.5605
 20
-61.5953
 30
0.0
 41
0.623349
 42
0.623349
 50
90.0
 43
1.026091
210
0.0
220
0.0
230
1.0
  0
INSERT
  8
1
  6
CONTINUOUS
 62
     7
  5
726
  2
ARROW2
 10
242.5605
 20
-61.8784
 30
0.0
 41
0.623349
 42
0.623349
 50
270.0
 43
1.026091
210
0.0
220
0.0
230
1.0
  0
INSERT
  8
1
  6
CONTINUOUS
 62
     7
  5
727
  2
ARROW2
 10
243.1784
 20
-64.2898
 30
0.0
 41
0.623349
 42
0.623349
 50
270.0
 43
1.026091
210
0.0
220
0.0
230
1.0
  0
INSERT
  8
1
  6
CONTINUOUS
 62
     7
  5
728
  2
ARROW2
 10
243.1784
 20
-61.5953
 30
0.0
 41
0.623349
 42
0.623349
 50
90.0
 43
1.026091
210
0.0
220
0.0
230
1.0
  0
INSERT
  8
1
  6
CONTINUOUS
 62
     7
  5
729
  2
ARROW2
 10
243.1784
 20
-61.5953
 30
0.0
 41
0.623349
 42
0.623349
 50
270.0
 43
1.026091
210
0.0
220
0.0
230
1.0
  0
INSERT
  8
1
  6
CONTINUOUS
 62
     7
  5
72A
  2
ARROW2
 10
243.1784
 20
-61.086
 30
0.0
 41
0.623349
 42
0.623349
 50
90.0
 43
1.026091
210
0.0
220
0.0
230
1.0
  0
LINE
  8
1
  6
HIDDEN
 62
   140
  5
72B
 10
234.3513
 20
-67.703
 30
0.0
 11
234.3513
 21
-65.9334
 31
0.0
  0
LINE
  8
1
  6
HIDDEN
 62
   140
  5
72C
 10
234.7359
 20
-67.9246
 30
0.0
 11
234.7359
 21
-65.9901
 31
0.0
  0
POINT
  8
1
  6
HIDDEN
 62
   140
  5
72D
 10
236.3151
 20
-64.1229
 30
0.0
  0
LINE
  8
1
  6
HIDDEN
 62
   140
  5
72E
 10
236.3151
 20
-64.1229
 30
0.0
 11
236.6997
 21
-64.3445
 31
0.0
  0
LINE
  8
1
  6
HIDDEN
 62
   140
  5
72F
 10
236.6997
 20
-64.3445
 30
0.0
 11
241.4598
 21
-61.5953
 31
0.0
  0
LINE
  8
1
  6
HIDDEN
 62
   140
  5
730
 10
236.6997
 20
-66.7909
 30
0.0
 11
236.6997
 21
-64.3445
 31
0.0
  0
LINE
  8
1
  6
HIDDEN
 62
   140
  5
731
 10
234.7336
 20
-67.926
 30
0.0
 11
236.6997
 21
-66.7909
 31
0.0
  0
POLYLINE
  8
5
  6
CONTINUOUS
 62
     2
  5
732
 66
     1
 10
0.0
 20
0.0
 30
0.0
 70
     1
210
0.0
220
0.0
230
1.0
  0
VERTEX
  8
5
  6
CONTINUOUS
 62
     2
  5
733
 10
224.7588
 20
-45.3454
 30
0.0
  0
VERTEX
  8
5
  6
CONTINUOUS
 62
     2
  5
734
 10
224.6125
 20
-45.3434
 30
0.0
  0
VERTEX
  8
5
  6
CONTINUOUS
 62
     2
  5
735
 10
224.6119
 20
-45.3897
 30
0.0
  0
VERTEX
  8
5
  6
CONTINUOUS
 62
     2
  5
736
 10
224.4868
 20
-45.3134
 30
0.0
  0
VERTEX
  8
5
  6
CONTINUOUS
 62
     2
  5
737
 10
224.614
 20
-45.2408
 30
0.0
  0
VERTEX
  8
5
  6
CONTINUOUS
 62
     2
  5
738
 10
224.6133
 20
-45.2871
 30
0.0
  0
VERTEX
  8
5
  6
CONTINUOUS
 62
     2
  5
739
 10
224.7596
 20
-45.2891
 30
0.0
  0
SEQEND
  8
5
  6
CONTINUOUS
 62
     2
  5
73A
  0
POLYLINE
  8
5
  6
CONTINUOUS
 62
     2
  5
73B
 66
     1
 10
0.0
 20
0.0
 30
0.0
 70
     1
210
0.0
220
0.0
230
1.0
  0
VERTEX
  8
5
  6
CONTINUOUS
 62
     2
  5
73C
 10
225.63
 20
-48.154
 30
0.0
  0
VERTEX
  8
5
  6
CONTINUOUS
 62
     2
  5
73D
 10
225.7764
 20
-48.154
 30
0.0
  0
VERTEX
  8
5
  6
CONTINUOUS
 62
     2
  5
73E
 10
225.7764
 20
-48.1075
 30
0.0
  0
VERTEX
  8
5
  6
CONTINUOUS
 62
     2
  5
73F
 10
225.9025
 20
-48.1822
 30
0.0
  0
VERTEX
  8
5
  6
CONTINUOUS
 62
     2
  5
740
 10
225.7764
 20
-48.2567
 30
0.0
  0
VERTEX
  8
5
  6
CONTINUOUS
 62
     2
  5
741
 10
225.7764
 20
-48.2103
 30
0.0
  0
VERTEX
  8
5
  6
CONTINUOUS
 62
     2
  5
742
 10
225.63
 20
-48.2103
 30
0.0
  0
SEQEND
  8
5
  6
CONTINUOUS
 62
     2
  5
743
  0
TEXT
  8
1
  6
CONTINUOUS
 62
     7
  5
744
 10
224.5207
 20
-48.2391
 30
0.0
 40
0.1272
  1
Traffic Flow
  7
txt
 11
224.5207
 21
-48.1755
 31
0.0
210
0.0
220
0.0
230
1.0
 73
     2
  0
TEXT
  8
1
  6
CONTINUOUS
 62
     7
  5
745
 10
224.8814
 20
-45.3735
 30
0.0
 40
0.1272
  1
Traffic Flow
  7
txt
 11
224.8814
 21
-45.3099
 31
0.0
210
0.0
220
0.0
230
1.0
 73
     2
  0
LINE
  8
1
  6
CONTINUOUS
 62
   110
  5
746
 10
234.7692
 20
-66.0079
 30
0.0
 11
235.126
 21
-65.5552
 31
0.0
  0
LINE
  8
1
  6
CONTINUOUS
 62
   110
  5
747
 10
234.3531
 20
-65.7681
 30
0.0
 11
234.7099
 21
-65.3154
 31
0.0
  0
LINE
  8
1
  6
DOT
 62
    40
  5
748
 10
234.3535
 20
-65.7675
 30
0.0
 11
236.3191
 21
-63.6418
 31
0.0
  0
LINE
  8
1
  6
HIDDEN
 62
   140
  5
749
 10
234.3535
 20
-65.7675
 30
0.0
 11
236.3151
 21
-64.1229
 31
0.0
  0
LINE
  8
1
  6
HIDDEN
 62
   140
  5
74A
 10
234.7359
 20
-65.9901
 30
0.0
 11
236.6997
 21
-64.3445
 31
0.0
  0
LINE
  8
1
  6
DOT
 62
    40
  5
74B
 10
234.6825
 20
-65.9598
 30
0.0
 11
236.6485
 21
-63.8324
 31
0.0
  0
LINE
  8
5
  6
CONTINUOUS
 62
     7
  5
74C
 10
233.8582
 20
-65.7681
 30
0.0
 11
233.8582
 21
-66.618
 31
0.0
  0
LINE
  8
1
  6
CONTINUOUS
 62
     2
  5
74D
 10
233.7899
 20
-65.7681
 30
0.0
 11
234.2618
 21
-65.7681
 31
0.0
  0
LINE
  8
1
  6
CONTINUOUS
 62
     2
  5
74E
 10
233.7899
 20
-67.703
 30
0.0
 11
234.2618
 21
-67.703
 31
0.0
  0
INSERT
  8
1
  6
CONTINUOUS
 62
     7
  5
74F
  2
ARROW2
 10
233.8582
 20
-65.7681
 30
0.0
 41
0.623349
 42
0.623349
 50
90.0
 43
1.026091
210
0.0
220
0.0
230
1.0
  0
INSERT
  8
1
  6
CONTINUOUS
 62
     7
  5
750
  2
ARROW2
 10
233.8582
 20
-67.703
 30
0.0
 41
0.623349
 42
0.623349
 50
270.0
 43
1.026091
210
0.0
220
0.0
230
1.0
  0
LINE
  8
5
  6
CONTINUOUS
 62
     7
  5
751
 10
240.3174
 20
-46.1337
 30
0.0
 11
238.9683
 21
-46.1337
 31
0.0
  0
LINE
  8
5
  6
CONTINUOUS
 62
     7
  5
752
 10
239.8159
 20
-47.4637
 30
0.0
 11
238.9683
 21
-47.4637
 31
0.0
  0
LINE
  8
1
  6
CONTINUOUS
 62
   110
  5
753
 10
235.6483
 20
-68.4525
 30
0.0
 11
240.7292
 21
-65.5207
 31
0.0
  0
LINE
  8
1
  6
CONTINUOUS
 62
     7
  5
754
 10
240.7877
 20
-65.5544
 30
0.0
 11
240.5036
 21
-65.3907
 31
0.0
  0
LINE
  8
1
  6
CONTINUOUS
 62
     7
  5
755
 10
235.7054
 20
-68.4834
 30
0.0
 11
234.8921
 21
-68.0147
 31
0.0
  0
LINE
  8
1
  6
CONTINUOUS
 62
     7
  5
756
 10
237.6882
 20
-67.3596
 30
0.0
 11
237.0664
 21
-67.0013
 31
0.0
  0
INSERT
  8
1
  6
CONTINUOUS
 62
     7
  5
757
  2
ARROW2
 10
237.6142
 20
-67.3181
 30
0.0
 41
0.623338
 42
0.623338
 50
209.998865
 43
1.026091
210
0.0
220
0.0
230
1.0
  0
INSERT
  8
1
  6
CONTINUOUS
 62
     7
  5
758
  2
ARROW2
 10
240.7289
 20
-65.52
 30
0.0
 41
0.623353
 42
0.623353
 50
29.999549
 43
1.026091
210
0.0
220
0.0
230
1.0
  0
INSERT
  8
1
  6
CONTINUOUS
 62
     7
  5
759
  2
ARROW2
 10
235.6483
 20
-68.4525
 30
0.0
 41
0.623338
 42
0.623338
 50
209.998865
 43
1.026091
210
0.0
220
0.0
230
1.0
  0
INSERT
  8
1
  6
CONTINUOUS
 62
     7
  5
75A
  2
ARROW2
 10
237.6142
 20
-67.3181
 30
0.0
 41
0.623353
 42
0.623353
 50
29.999549
 43
1.026091
210
0.0
220
0.0
230
1.0
  0
TEXT
  8
59
  6
CONTINUOUS
 62
   110
  5
75B
 10
237.323
 20
-46.0828
 30
0.0
 40
0.1272
  1
(see sheet 1 and 2)
  7
txt
 72
     2
 11
239.6787
 21
-46.0192
 31
0.0
210
0.0
220
0.0
230
1.0
 73
     2
  0
TEXT
  8
59
  6
CONTINUOUS
 62
   110
  5
75C
 10
238.5964
 20
-46.3907
 30
0.0
 40
0.16
  1
"A"
  7
txt
 11
238.5964
 21
-46.3107
 31
0.0
210
0.0
220
0.0
230
1.0
 73
     2
  0
TEXT
  8
59
  6
CONTINUOUS
 62
   110
  5
75D
 10
238.5965
 20
-47.4319
 30
0.0
 40
0.16
  1
"A"
  7
txt
 11
238.5965
 21
-47.3519
 31
0.0
210
0.0
220
0.0
230
1.0
 73
     2
  0
TEXT
  8
59
  6
CONTINUOUS
 62
   110
  5
75E
 10
237.3508
 20
-47.6932
 30
0.0
 40
0.1272
  1
(see sheet 1 and 2)
  7
txt
 72
     2
 11
239.7065
 21
-47.6296
 31
0.0
210
0.0
220
0.0
230
1.0
 73
     2
  0
TEXT
  8
59
  6
CONTINUOUS
 62
   110
  5
75F
 10
228.339
 20
-46.9712
 30
0.0
 40
0.16
  1
"A"
  7
txt
 11
228.339
 21
-46.8912
 31
0.0
210
0.0
220
0.0
230
1.0
 73
     2
  0
TEXT
  8
59
  6
CONTINUOUS
 62
   110
  5
760
 10
228.4638
 20
-47.2046
 30
0.0
 40
0.1272
  1
(see sheet 1 and 2)
  7
txt
 11
228.4638
 21
-47.141
 31
0.0
210
0.0
220
0.0
230
1.0
 73
     2
  0
TEXT
  8
59
  6
CONTINUOUS
 62
   110
  5
761
 10
228.2488
 20
-59.6851
 30
0.0
 40
0.16
  1
"A"
  7
txt
 72
     2
 11
228.672
 21
-59.6051
 31
0.0
210
0.0
220
0.0
230
1.0
 73
     2
  0
TEXT
  8
59
  6
CONTINUOUS
 62
   110
  5
762
 10
228.4211
 20
-59.9325
 30
0.0
 40
0.1272
  1
(see sheet 1 and 2)
  7
txt
 11
228.4211
 21
-59.8689
 31
0.0
210
0.0
220
0.0
230
1.0
 73
     2
  0
LINE
  8
5
  6
CONTINUOUS
 62
     7
  5
763
 10
228.9904
 20
-51.3929
 30
0.0
 11
228.9904
 21
-53.2017
 31
0.0
  0
POLYLINE
  8
5
  6
CONTINUOUS
 62
     7
  5
764
 66
     1
 10
0.0
 20
0.0
 30
0.0
210
0.0
220
0.0
230
1.0
  0
VERTEX
  8
5
  6
CONTINUOUS
 62
     7
  5
765
 10
229.0092
 20
-53.1017
 30
0.0
  0
VERTEX
  8
5
  6
CONTINUOUS
 62
     7
  5
766
 10
228.9904
 20
-53.2017
 30
0.0
  0
VERTEX
  8
5
  6
CONTINUOUS
 62
     7
  5
767
 10
228.9716
 20
-53.1017
 30
0.0
  0
SEQEND
  8
5
  6
CONTINUOUS
 62
     7
  5
768
  0
LINE
  8
5
  6
DASHDOT
 62
   241
  5
769
 10
229.0664
 20
-51.8455
 30
0.0
 11
229.566
 21
-51.8455
 31
0.0
  0
LINE
  8
5
  6
CONTINUOUS
 62
     7
  5
76A
 10
228.9601
 20
-64.5446
 30
0.0
 11
228.9601
 21
-66.3534
 31
0.0
  0
POLYLINE
  8
5
  6
CONTINUOUS
 62
     7
  5
76B
 66
     1
 10
0.0
 20
0.0
 30
0.0
210
0.0
220
0.0
230
1.0
  0
VERTEX
  8
5
  6
CONTINUOUS
 62
     7
  5
76C
 10
228.9413
 20
-64.6446
 30
0.0
  0
VERTEX
  8
5
  6
CONTINUOUS
 62
     7
  5
76D
 10
228.9601
 20
-64.5446
 30
0.0
  0
VERTEX
  8
5
  6
CONTINUOUS
 62
     7
  5
76E
 10
228.9789
 20
-64.6446
 30
0.0
  0
SEQEND
  8
5
  6
CONTINUOUS
 62
     7
  5
76F
  0
POLYLINE
  8
5
  6
CONTINUOUS
 62
     7
  5
770
 66
     1
 10
0.0
 20
0.0
 30
0.0
210
0.0
220
0.0
230
1.0
  0
VERTEX
  8
5
  6
CONTINUOUS
 62
     7
  5
771
 10
228.9789
 20
-66.2534
 30
0.0
  0
VERTEX
  8
5
  6
CONTINUOUS
 62
     7
  5
772
 10
228.9601
 20
-66.3534
 30
0.0
  0
VERTEX
  8
5
  6
CONTINUOUS
 62
     7
  5
773
 10
228.9413
 20
-66.2534
 30
0.0
  0
SEQEND
  8
5
  6
CONTINUOUS
 62
     7
  5
774
  0
LINE
  8
5
  6
DASHDOT
 62
   241
  5
775
 10
229.0378
 20
-64.9971
 30
0.0
 11
229.2737
 21
-64.9971
 31
0.0
  0
LINE
  8
5
  6
CONTINUOUS
 62
     7
  5
776
 10
239.5767
 20
-51.1385
 30
0.0
 11
239.5767
 21
-52.9473
 31
0.0
  0
POLYLINE
  8
5
  6
CONTINUOUS
 62
     7
  5
777
 66
     1
 10
0.0
 20
0.0
 30
0.0
210
0.0
220
0.0
230
1.0
  0
VERTEX
  8
5
  6
CONTINUOUS
 62
     7
  5
778
 10
239.5579
 20
-51.2385
 30
0.0
  0
VERTEX
  8
5
  6
CONTINUOUS
 62
     7
  5
779
 10
239.5767
 20
-51.1385
 30
0.0
  0
VERTEX
  8
5
  6
CONTINUOUS
 62
     7
  5
77A
 10
239.5955
 20
-51.2385
 30
0.0
  0
SEQEND
  8
5
  6
CONTINUOUS
 62
     7
  5
77B
  0
POLYLINE
  8
5
  6
CONTINUOUS
 62
     7
  5
77C
 66
     1
 10
0.0
 20
0.0
 30
0.0
210
0.0
220
0.0
230
1.0
  0
VERTEX
  8
5
  6
CONTINUOUS
 62
     7
  5
77D
 10
239.5955
 20
-52.8473
 30
0.0
  0
VERTEX
  8
5
  6
CONTINUOUS
 62
     7
  5
77E
 10
239.5767
 20
-52.9473
 30
0.0
  0
VERTEX
  8
5
  6
CONTINUOUS
 62
     7
  5
77F
 10
239.5579
 20
-52.8473
 30
0.0
  0
SEQEND
  8
5
  6
CONTINUOUS
 62
     7
  5
780
  0
LINE
  8
5
  6
DASHDOT
 62
   241
  5
781
 10
239.5104
 20
-51.5911
 30
0.0
 11
239.1634
 21
-51.5911
 31
0.0
  0
LINE
  8
1
  6
CONTINUOUS
 62
   110
  5
782
 10
246.1247
 20
-46.0147
 30
0.0
 11
242.5572
 21
-46.0147
 31
0.0
  0
LINE
  8
1
  6
CONTINUOUS
 62
   140
  5
783
 10
246.1203
 20
-46.0146
 30
0.0
 11
252.9231
 21
-46.1467
 31
0.0
  0
LINE
  8
1
  6
CONTINUOUS
 62
   140
  5
784
 10
246.118
 20
-46.1336
 30
0.0
 11
252.9208
 21
-46.2657
 31
0.0
  0
LINE
  8
1
  6
CONTINUOUS
 62
   140
  5
785
 10
246.1645
 20
-47.5828
 30
0.0
 11
252.8607
 21
-47.4527
 31
0.0
  0
LINE
  8
1
  6
CONTINUOUS
 62
   140
  5
786
 10
246.1622
 20
-47.4638
 30
0.0
 11
252.8584
 21
-47.3337
 31
0.0
  0
TEXT
  8
59
  6
CONTINUOUS
 62
   110
  5
787
 10
251.5678
 20
-45.4844
 30
0.0
 40
0.1272
  1
70:1 Taper
  7
txt
 11
251.5678
 21
-45.4208
 31
0.0
210
0.0
220
0.0
230
1.0
 73
     2
  0
LINE
  8
1
  6
HIDDEN
 62
   140
  5
788
 10
242.5572
 20
-51.0195
 30
0.0
 11
242.5572
 21
-50.7543
 31
0.0
  0
LINE
  8
1
  6
DOT
 62
    40
  5
789
 10
242.5572
 20
-51.0195
 30
0.0
 11
242.5572
 21
-50.2763
 31
0.0
  0
LINE
  8
1
  6
HIDDEN
 62
   140
  5
78A
 10
242.5572
 20
-50.7543
 30
0.0
 11
248.6769
 21
-50.7543
 31
0.0
  0
LINE
  8
1
  6
DOT
 62
    40
  5
78B
 10
242.5572
 20
-50.2763
 30
0.0
 11
248.6769
 21
-50.2763
 31
0.0
  0
LINE
  8
1
  6
HIDDEN
 62
   140
  5
78C
 10
225.5965
 20
-51.2739
 30
0.0
 11
225.5965
 21
-51.0087
 31
0.0
  0
LINE
  8
1
  6
DOT
 62
    40
  5
78D
 10
225.5965
 20
-51.2739
 30
0.0
 11
225.5965
 21
-50.5307
 31
0.0
  0
LINE
  8
1
  6
DOT
 62
    40
  5
78E
 10
227.7385
 20
-51.3929
 30
0.0
 11
225.5965
 21
-50.5307
 31
0.0
  0
LINE
  8
1
  6
DOT
 62
    40
  5
78F
 10
225.5965
 20
-50.5307
 30
0.0
 11
220.9974
 21
-50.5307
 31
0.0
  0
LINE
  8
1
  6
HIDDEN
 62
   140
  5
790
 10
227.7385
 20
-51.3929
 30
0.0
 11
225.5965
 21
-51.0087
 31
0.0
  0
LINE
  8
1
  6
HIDDEN
 62
   140
  5
791
 10
225.5965
 20
-51.0087
 30
0.0
 11
220.9974
 21
-51.0087
 31
0.0
  0
LINE
  8
1
  6
HIDDEN
 62
   140
  5
792
 10
225.5965
 20
-64.4256
 30
0.0
 11
225.5965
 21
-64.1604
 31
0.0
  0
LINE
  8
1
  6
DOT
 62
    40
  5
793
 10
225.5965
 20
-64.4256
 30
0.0
 11
225.5965
 21
-63.6824
 31
0.0
  0
LINE
  8
1
  6
DOT
 62
    40
  5
794
 10
227.7385
 20
-64.5389
 30
0.0
 11
225.5965
 21
-63.6824
 31
0.0
  0
LINE
  8
1
  6
DOT
 62
    40
  5
795
 10
225.5965
 20
-63.6824
 30
0.0
 11
220.9788
 21
-63.6824
 31
0.0
  0
LINE
  8
1
  6
HIDDEN
 62
   140
  5
796
 10
227.7385
 20
-64.5389
 30
0.0
 11
225.5965
 21
-64.1604
 31
0.0
  0
LINE
  8
1
  6
HIDDEN
 62
   140
  5
797
 10
225.5965
 20
-64.1604
 30
0.0
 11
220.9788
 21
-64.1604
 31
0.0
  0
LINE
  8
1
  6
CONTINUOUS
 62
   110
  5
798
 10
242.5734
 20
-52.9244
 30
0.0
 11
242.5734
 21
-52.139
 31
0.0
  0
LINE
  8
1
  6
CONTINUOUS
 62
   140
  5
799
 10
240.8133
 20
-51.0195
 30
0.0
 11
240.4152
 21
-51.1385
 31
0.0
  0
LINE
  8
5
  6
CONTINUOUS
 62
     7
  5
79A
 10
239.993
 20
-51.5911
 30
0.0
 11
239.993
 21
-52.9473
 31
0.0
  0
LINE
  8
1
  6
CONTINUOUS
 62
   140
  5
79B
 10
246.1272
 20
-52.7418
 30
0.0
 11
242.5572
 21
-52.139
 31
0.0
  0
TEXT
  8
1
  6
CONTINUOUS
 62
     7
  5
79C
 10
248.7904
 20
-48.2901
 30
0.0
 40
0.1272
  1
Traffic Flow
 50
359.875228
  7
txt
 11
248.790539
 21
-48.2265
 31
0.0
210
0.0
220
0.0
230
1.0
 73
     2
  0
TEXT
  8
1
  6
CONTINUOUS
 62
     7
  5
79D
 10
248.7226
 20
-45.5501
 30
0.0
 40
0.1272
  1
Traffic Flow
  7
txt
 11
248.7226
 21
-45.4865
 31
0.0
210
0.0
220
0.0
230
1.0
 73
     2
  0
LINE
  8
1
  6
DOT
 62
    40
  5
79E
 10
240.4152
 20
-51.1385
 30
0.0
 11
242.5572
 21
-50.2763
 31
0.0
  0
LINE
  8
1
  6
HIDDEN
 62
   140
  5
79F
 10
240.4152
 20
-51.1385
 30
0.0
 11
242.5572
 21
-50.7543
 31
0.0
  0
LINE
  8
5
  6
CONTINUOUS
 62
     7
  5
7A0
 10
220.5002
 20
-51.2739
 30
0.0
 11
220.5002
 21
-53.2017
 31
0.0
  0
POINT
  8
5
  6
CONTINUOUS
 62
     7
  5
7A1
 10
220.417
 20
-51.2739
 30
0.0
  0
POLYLINE
  8
5
  6
CONTINUOUS
 62
     7
  5
7A2
 66
     1
 10
0.0
 20
0.0
 30
0.0
210
0.0
220
0.0
230
1.0
  0
VERTEX
  8
5
  6
CONTINUOUS
 62
     7
  5
7A3
 10
220.4815
 20
-51.3739
 30
0.0
  0
VERTEX
  8
5
  6
CONTINUOUS
 62
     7
  5
7A4
 10
220.5002
 20
-51.2739
 30
0.0
  0
VERTEX
  8
5
  6
CONTINUOUS
 62
     7
  5
7A5
 10
220.5189
 20
-51.3739
 30
0.0
  0
SEQEND
  8
5
  6
CONTINUOUS
 62
     7
  5
7A6
  0
POLYLINE
  8
5
  6
CONTINUOUS
 62
     7
  5
7A7
 66
     1
 10
0.0
 20
0.0
 30
0.0
210
0.0
220
0.0
230
1.0
  0
VERTEX
  8
5
  6
CONTINUOUS
 62
     7
  5
7A8
 10
220.5189
 20
-53.1017
 30
0.0
  0
VERTEX
  8
5
  6
CONTINUOUS
 62
     7
  5
7A9
 10
220.5002
 20
-53.2017
 30
0.0
  0
VERTEX
  8
5
  6
CONTINUOUS
 62
     7
  5
7AA
 10
220.4815
 20
-53.1017
 30
0.0
  0
SEQEND
  8
5
  6
CONTINUOUS
 62
     7
  5
7AB
  0
LINE
  8
5
  6
CONTINUOUS
 62
     7
  5
7AC
 10
220.8838
 20
-51.2739
 30
0.0
 11
220.4424
 21
-51.2739
 31
0.0
  0
LINE
  8
5
  6
CONTINUOUS
 62
     7
  5
7AD
 10
220.8838
 20
-51.0087
 30
0.0
 11
220.0677
 21
-51.0087
 31
0.0
  0
LINE
  8
5
  6
CONTINUOUS
 62
     7
  5
7AE
 10
220.8838
 20
-50.5307
 30
0.0
 11
220.4508
 21
-50.5307
 31
0.0
  0
LINE
  8
5
  6
CONTINUOUS
 62
     7
  5
7AF
 10
220.5002
 20
-53.2017
 30
0.0
 11
219.7347
 21
-53.2017
 31
0.0
  0
LINE
  8
5
  6
CONTINUOUS
 62
     7
  5
7B0
 10
220.1232
 20
-51.0087
 30
0.0
 11
220.1232
 21
-53.2017
 31
0.0
  0
LINE
  8
5
  6
CONTINUOUS
 62
     7
  5
7B1
 10
219.7902
 20
-50.5307
 30
0.0
 11
219.7902
 21
-53.2017
 31
0.0
  0
LINE
  8
5
  6
CONTINUOUS
 62
     7
  5
7B2
 10
220.4508
 20
-50.5307
 30
0.0
 11
219.7347
 21
-50.5307
 31
0.0
  0
POLYLINE
  8
5
  6
CONTINUOUS
 62
     7
  5
7B3
 66
     1
 10
0.0
 20
0.0
 30
0.0
210
0.0
220
0.0
230
1.0
  0
VERTEX
  8
5
  6
CONTINUOUS
 62
     7
  5
7B4
 10
220.1045
 20
-51.1087
 30
0.0
  0
VERTEX
  8
5
  6
CONTINUOUS
 62
     7
  5
7B5
 10
220.1232
 20
-51.0087
 30
0.0
  0
VERTEX
  8
5
  6
CONTINUOUS
 62
     7
  5
7B6
 10
220.1419
 20
-51.1087
 30
0.0
  0
SEQEND
  8
5
  6
CONTINUOUS
 62
     7
  5
7B7
  0
POLYLINE
  8
5
  6
CONTINUOUS
 62
     7
  5
7B8
 66
     1
 10
0.0
 20
0.0
 30
0.0
210
0.0
220
0.0
230
1.0
  0
VERTEX
  8
5
  6
CONTINUOUS
 62
     7
  5
7B9
 10
220.1419
 20
-53.1017
 30
0.0
  0
VERTEX
  8
5
  6
CONTINUOUS
 62
     7
  5
7BA
 10
220.1232
 20
-53.2017
 30
0.0
  0
VERTEX
  8
5
  6
CONTINUOUS
 62
     7
  5
7BB
 10
220.1045
 20
-53.1017
 30
0.0
  0
SEQEND
  8
5
  6
CONTINUOUS
 62
     7
  5
7BC
  0
POLYLINE
  8
5
  6
CONTINUOUS
 62
     7
  5
7BD
 66
     1
 10
0.0
 20
0.0
 30
0.0
210
0.0
220
0.0
230
1.0
  0
VERTEX
  8
5
  6
CONTINUOUS
 62
     7
  5
7BE
 10
219.8089
 20
-53.1017
 30
0.0
  0
VERTEX
  8
5
  6
CONTINUOUS
 62
     7
  5
7BF
 10
219.7902
 20
-53.2017
 30
0.0
  0
VERTEX
  8
5
  6
CONTINUOUS
 62
     7
  5
7C0
 10
219.7715
 20
-53.1017
 30
0.0
  0
SEQEND
  8
5
  6
CONTINUOUS
 62
     7
  5
7C1
  0
POLYLINE
  8
5
  6
CONTINUOUS
 62
     7
  5
7C2
 66
     1
 10
0.0
 20
0.0
 30
0.0
210
0.0
220
0.0
230
1.0
  0
VERTEX
  8
5
  6
CONTINUOUS
 62
     7
  5
7C3
 10
219.7715
 20
-50.6307
 30
0.0
  0
VERTEX
  8
5
  6
CONTINUOUS
 62
     7
  5
7C4
 10
219.7902
 20
-50.5307
 30
0.0
  0
VERTEX
  8
5
  6
CONTINUOUS
 62
     7
  5
7C5
 10
219.8089
 20
-50.6307
 30
0.0
  0
SEQEND
  8
5
  6
CONTINUOUS
 62
     7
  5
7C6
  0
LINE
  8
5
  6
CONTINUOUS
 62
     7
  5
7C7
 10
220.8566
 20
-66.3534
 30
0.0
 11
220.4866
 21
-66.3534
 31
0.0
  0
LINE
  8
5
  6
CONTINUOUS
 62
     7
  5
7C8
 10
220.4866
 20
-64.4256
 30
0.0
 11
220.4866
 21
-66.3534
 31
0.0
  0
POLYLINE
  8
5
  6
CONTINUOUS
 62
     7
  5
7C9
 66
     1
 10
0.0
 20
0.0
 30
0.0
210
0.0
220
0.0
230
1.0
  0
VERTEX
  8
5
  6
CONTINUOUS
 62
     7
  5
7CA
 10
220.4679
 20
-64.5256
 30
0.0
  0
VERTEX
  8
5
  6
CONTINUOUS
 62
     7
  5
7CB
 10
220.4866
 20
-64.4256
 30
0.0
  0
VERTEX
  8
5
  6
CONTINUOUS
 62
     7
  5
7CC
 10
220.5053
 20
-64.5256
 30
0.0
  0
SEQEND
  8
5
  6
CONTINUOUS
 62
     7
  5
7CD
  0
POLYLINE
  8
5
  6
CONTINUOUS
 62
     7
  5
7CE
 66
     1
 10
0.0
 20
0.0
 30
0.0
210
0.0
220
0.0
230
1.0
  0
VERTEX
  8
5
  6
CONTINUOUS
 62
     7
  5
7CF
 10
220.5053
 20
-66.2534
 30
0.0
  0
VERTEX
  8
5
  6
CONTINUOUS
 62
     7
  5
7D0
 10
220.4866
 20
-66.3534
 30
0.0
  0
VERTEX
  8
5
  6
CONTINUOUS
 62
     7
  5
7D1
 10
220.4679
 20
-66.2534
 30
0.0
  0
SEQEND
  8
5
  6
CONTINUOUS
 62
     7
  5
7D2
  0
LINE
  8
5
  6
CONTINUOUS
 62
     7
  5
7D3
 10
220.8702
 20
-64.4256
 30
0.0
 11
220.4288
 21
-64.4256
 31
0.0
  0
LINE
  8
5
  6
CONTINUOUS
 62
     7
  5
7D4
 10
220.8702
 20
-64.1604
 30
0.0
 11
220.0541
 21
-64.1604
 31
0.0
  0
LINE
  8
5
  6
CONTINUOUS
 62
     7
  5
7D5
 10
220.8702
 20
-63.6824
 30
0.0
 11
220.4372
 21
-63.6824
 31
0.0
  0
LINE
  8
5
  6
CONTINUOUS
 62
     7
  5
7D6
 10
220.4866
 20
-66.3534
 30
0.0
 11
219.7211
 21
-66.3534
 31
0.0
  0
LINE
  8
5
  6
CONTINUOUS
 62
     7
  5
7D7
 10
220.1096
 20
-64.1604
 30
0.0
 11
220.1096
 21
-66.3534
 31
0.0
  0
LINE
  8
5
  6
CONTINUOUS
 62
     7
  5
7D8
 10
219.7766
 20
-63.6824
 30
0.0
 11
219.7766
 21
-66.3534
 31
0.0
  0
LINE
  8
5
  6
CONTINUOUS
 62
     7
  5
7D9
 10
220.4372
 20
-63.6824
 30
0.0
 11
219.7211
 21
-63.6824
 31
0.0
  0
POLYLINE
  8
5
  6
CONTINUOUS
 62
     7
  5
7DA
 66
     1
 10
0.0
 20
0.0
 30
0.0
210
0.0
220
0.0
230
1.0
  0
VERTEX
  8
5
  6
CONTINUOUS
 62
     7
  5
7DB
 10
220.0909
 20
-64.2604
 30
0.0
  0
VERTEX
  8
5
  6
CONTINUOUS
 62
     7
  5
7DC
 10
220.1096
 20
-64.1604
 30
0.0
  0
VERTEX
  8
5
  6
CONTINUOUS
 62
     7
  5
7DD
 10
220.1283
 20
-64.2604
 30
0.0
  0
SEQEND
  8
5
  6
CONTINUOUS
 62
     7
  5
7DE
  0
POLYLINE
  8
5
  6
CONTINUOUS
 62
     7
  5
7DF
 66
     1
 10
0.0
 20
0.0
 30
0.0
210
0.0
220
0.0
230
1.0
  0
VERTEX
  8
5
  6
CONTINUOUS
 62
     7
  5
7E0
 10
220.1283
 20
-66.2534
 30
0.0
  0
VERTEX
  8
5
  6
CONTINUOUS
 62
     7
  5
7E1
 10
220.1096
 20
-66.3534
 30
0.0
  0
VERTEX
  8
5
  6
CONTINUOUS
 62
     7
  5
7E2
 10
220.0909
 20
-66.2534
 30
0.0
  0
SEQEND
  8
5
  6
CONTINUOUS
 62
     7
  5
7E3
  0
POLYLINE
  8
5
  6
CONTINUOUS
 62
     7
  5
7E4
 66
     1
 10
0.0
 20
0.0
 30
0.0
210
0.0
220
0.0
230
1.0
  0
VERTEX
  8
5
  6
CONTINUOUS
 62
     7
  5
7E5
 10
219.7953
 20
-66.2534
 30
0.0
  0
VERTEX
  8
5
  6
CONTINUOUS
 62
     7
  5
7E6
 10
219.7766
 20
-66.3534
 30
0.0
  0
VERTEX
  8
5
  6
CONTINUOUS
 62
     7
  5
7E7
 10
219.7579
 20
-66.2534
 30
0.0
  0
SEQEND
  8
5
  6
CONTINUOUS
 62
     7
  5
7E8
  0
POLYLINE
  8
5
  6
CONTINUOUS
 62
     7
  5
7E9
 66
     1
 10
0.0
 20
0.0
 30
0.0
210
0.0
220
0.0
230
1.0
  0
VERTEX
  8
5
  6
CONTINUOUS
 62
     7
  5
7EA
 10
219.7579
 20
-63.7824
 30
0.0
  0
VERTEX
  8
5
  6
CONTINUOUS
 62
     7
  5
7EB
 10
219.7766
 20
-63.6824
 30
0.0
  0
VERTEX
  8
5
  6
CONTINUOUS
 62
     7
  5
7EC
 10
219.7953
 20
-63.7824
 30
0.0
  0
SEQEND
  8
5
  6
CONTINUOUS
 62
     7
  5
7ED
  0
LINE
  8
5
  6
CONTINUOUS
 62
     7
  5
7EE
 10
248.8228
 20
-52.9473
 30
0.0
 11
249.1928
 21
-52.9473
 31
0.0
  0
LINE
  8
5
  6
CONTINUOUS
 62
     7
  5
7EF
 10
249.1928
 20
-51.0195
 30
0.0
 11
249.1928
 21
-52.9473
 31
0.0
  0
POLYLINE
  8
5
  6
CONTINUOUS
 62
     7
  5
7F0
 66
     1
 10
0.0
 20
0.0
 30
0.0
210
0.0
220
0.0
230
1.0
  0
VERTEX
  8
5
  6
CONTINUOUS
 62
     7
  5
7F1
 10
249.2115
 20
-51.1195
 30
0.0
  0
VERTEX
  8
5
  6
CONTINUOUS
 62
     7
  5
7F2
 10
249.1928
 20
-51.0195
 30
0.0
  0
VERTEX
  8
5
  6
CONTINUOUS
 62
     7
  5
7F3
 10
249.1741
 20
-51.1195
 30
0.0
  0
SEQEND
  8
5
  6
CONTINUOUS
 62
     7
  5
7F4
  0
POLYLINE
  8
5
  6
CONTINUOUS
 62
     7
  5
7F5
 66
     1
 10
0.0
 20
0.0
 30
0.0
210
0.0
220
0.0
230
1.0
  0
VERTEX
  8
5
  6
CONTINUOUS
 62
     7
  5
7F6
 10
249.1741
 20
-52.8473
 30
0.0
  0
VERTEX
  8
5
  6
CONTINUOUS
 62
     7
  5
7F7
 10
249.1928
 20
-52.9473
 30
0.0
  0
VERTEX
  8
5
  6
CONTINUOUS
 62
     7
  5
7F8
 10
249.2115
 20
-52.8473
 30
0.0
  0
SEQEND
  8
5
  6
CONTINUOUS
 62
     7
  5
7F9
  0
LINE
  8
5
  6
CONTINUOUS
 62
     7
  5
7FA
 10
248.8092
 20
-51.0195
 30
0.0
 11
249.2506
 21
-51.0195
 31
0.0
  0
LINE
  8
5
  6
CONTINUOUS
 62
     7
  5
7FB
 10
248.8092
 20
-50.7543
 30
0.0
 11
249.6253
 21
-50.7543
 31
0.0
  0
LINE
  8
5
  6
CONTINUOUS
 62
     7
  5
7FC
 10
248.8092
 20
-50.2763
 30
0.0
 11
249.2422
 21
-50.2763
 31
0.0
  0
LINE
  8
5
  6
CONTINUOUS
 62
     7
  5
7FD
 10
249.1928
 20
-52.9473
 30
0.0
 11
249.9583
 21
-52.9473
 31
0.0
  0
LINE
  8
5
  6
CONTINUOUS
 62
     7
  5
7FE
 10
249.5698
 20
-50.7543
 30
0.0
 11
249.5698
 21
-52.9473
 31
0.0
  0
LINE
  8
5
  6
CONTINUOUS
 62
     7
  5
7FF
 10
249.9028
 20
-50.2763
 30
0.0
 11
249.9028
 21
-52.9473
 31
0.0
  0
LINE
  8
5
  6
CONTINUOUS
 62
     7
  5
800
 10
249.2422
 20
-50.2763
 30
0.0
 11
249.9583
 21
-50.2763
 31
0.0
  0
POLYLINE
  8
5
  6
CONTINUOUS
 62
     7
  5
801
 66
     1
 10
0.0
 20
0.0
 30
0.0
210
0.0
220
0.0
230
1.0
  0
VERTEX
  8
5
  6
CONTINUOUS
 62
     7
  5
802
 10
249.5885
 20
-50.8543
 30
0.0
  0
VERTEX
  8
5
  6
CONTINUOUS
 62
     7
  5
803
 10
249.5698
 20
-50.7543
 30
0.0
  0
VERTEX
  8
5
  6
CONTINUOUS
 62
     7
  5
804
 10
249.5511
 20
-50.8543
 30
0.0
  0
SEQEND
  8
5
  6
CONTINUOUS
 62
     7
  5
805
  0
POLYLINE
  8
5
  6
CONTINUOUS
 62
     7
  5
806
 66
     1
 10
0.0
 20
0.0
 30
0.0
210
0.0
220
0.0
230
1.0
  0
VERTEX
  8
5
  6
CONTINUOUS
 62
     7
  5
807
 10
249.5511
 20
-52.8473
 30
0.0
  0
VERTEX
  8
5
  6
CONTINUOUS
 62
     7
  5
808
 10
249.5698
 20
-52.9473
 30
0.0
  0
VERTEX
  8
5
  6
CONTINUOUS
 62
     7
  5
809
 10
249.5885
 20
-52.8473
 30
0.0
  0
SEQEND
  8
5
  6
CONTINUOUS
 62
     7
  5
80A
  0
POLYLINE
  8
5
  6
CONTINUOUS
 62
     7
  5
80B
 66
     1
 10
0.0
 20
0.0
 30
0.0
210
0.0
220
0.0
230
1.0
  0
VERTEX
  8
5
  6
CONTINUOUS
 62
     7
  5
80C
 10
249.8841
 20
-52.8473
 30
0.0
  0
VERTEX
  8
5
  6
CONTINUOUS
 62
     7
  5
80D
 10
249.9028
 20
-52.9473
 30
0.0
  0
VERTEX
  8
5
  6
CONTINUOUS
 62
     7
  5
80E
 10
249.9215
 20
-52.8473
 30
0.0
  0
SEQEND
  8
5
  6
CONTINUOUS
 62
     7
  5
80F
  0
POLYLINE
  8
5
  6
CONTINUOUS
 62
     7
  5
810
 66
     1
 10
0.0
 20
0.0
 30
0.0
210
0.0
220
0.0
230
1.0
  0
VERTEX
  8
5
  6
CONTINUOUS
 62
     7
  5
811
 10
249.9215
 20
-50.3763
 30
0.0
  0
VERTEX
  8
5
  6
CONTINUOUS
 62
     7
  5
812
 10
249.9028
 20
-50.2763
 30
0.0
  0
VERTEX
  8
5
  6
CONTINUOUS
 62
     7
  5
813
 10
249.8841
 20
-50.3763
 30
0.0
  0
SEQEND
  8
5
  6
CONTINUOUS
 62
     7
  5
814
  0
TEXT
  8
1
  6
CONTINUOUS
 62
     7
  5
815
 10
226.3163
 20
-45.7137
 30
0.0
 40
0.1272
  1
2'- 11 3/8"
  7
txt
 11
226.3163
 21
-45.6501
 31
0.0
210
0.0
220
0.0
230
1.0
 73
     2
  0
TEXT
  8
1
  6
CONTINUOUS
 62
     7
  5
816
 10
226.3163
 20
-47.7437
 30
0.0
 40
0.1272
  1
2'- 11 3/8"
  7
txt
 11
226.3163
 21
-47.6801
 31
0.0
210
0.0
220
0.0
230
1.0
 73
     2
  0
TEXT
  8
1
  6
CONTINUOUS
 62
     7
  5
817
 10
223.678
 20
-45.7338
 30
0.0
 40
0.1272
  1
5'-3"
  7
txt
 11
223.678
 21
-45.6702
 31
0.0
210
0.0
220
0.0
230
1.0
 73
     2
  0
TEXT
  8
1
  6
CONTINUOUS
 62
     7
  5
818
 10
223.6214
 20
-47.7524
 30
0.0
 40
0.1272
  1
5'-3"
  7
txt
 11
223.6214
 21
-47.6888
 31
0.0
210
0.0
220
0.0
230
1.0
 73
     2
  0
TEXT
  8
59
  6
CONTINUOUS
 62
   110
  5
819
 10
226.5397
 20
-49.9468
 30
0.0
 40
0.1272
  1
2'-3 1/2"
  7
txt
 11
226.5397
 21
-49.8832
 31
0.0
210
0.0
220
0.0
230
1.0
 73
     2
  0
TEXT
  8
59
  6
CONTINUOUS
 62
   110
  5
81A
 10
226.282
 20
-50.2665
 30
0.0
 40
0.1272
  1
7 7/8"
  7
txt
 11
226.282
 21
-50.2029
 31
0.0
210
0.0
220
0.0
230
1.0
 73
     2
  0
TEXT
  8
59
  6
CONTINUOUS
 62
   110
  5
81B
 10
228.4514
 20
-52.0475
 30
0.0
 40
0.1272
  1
7 5/8"
 50
90.0
  7
txt
 11
228.3878
 21
-52.0475
 31
0.0
210
0.0
220
0.0
230
1.0
 73
     2
  0
TEXT
  8
59
  6
CONTINUOUS
 62
   110
  5
81C
 10
224.1096
 20
-52.0532
 30
0.0
 40
0.1272
  1
7 5/8"
 50
90.0
  7
txt
 11
224.046
 21
-52.0532
 31
0.0
210
0.0
220
0.0
230
1.0
 73
     2
  0
TEXT
  8
59
  6
CONTINUOUS
 62
   110
  5
81D
 10
228.9331
 20
-52.468
 30
0.0
 40
0.1272
  1
30"
 50
90.0
  7
txt
 11
228.8695
 21
-52.468
 31
0.0
210
0.0
220
0.0
230
1.0
 73
     2
  0
TEXT
  8
17
  6
CONTINUOUS
 62
     2
  5
81E
 10
221.1486
 20
-53.6959
 30
0.0
 40
0.1272
  1
5- 1" Dia. Non-rusting Sleeves
  7
txt
 11
221.1486
 21
-53.6323
 31
0.0
210
0.0
220
0.0
230
1.0
 73
     2
  0
TEXT
  8
17
  6
CONTINUOUS
 62
     2
  5
81F
 10
221.1486
 20
-53.8731
 30
0.0
 40
0.1272
  1
for Guardrail Pipe Include payment
  7
txt
 11
221.1486
 21
-53.8095
 31
0.0
210
0.0
220
0.0
230
1.0
 73
     2
  0
TEXT
  8
17
  6
CONTINUOUS
 62
     2
  5
820
 10
221.1486
 20
-54.0503
 30
0.0
 40
0.1272
  1
in Item 601-02
  7
txt
 11
221.1486
 21
-53.9867
 31
0.0
210
0.0
220
0.0
230
1.0
 73
     2
  0
LINE
  8
5
  6
CONTINUOUS
 62
     7
  5
821
 10
224.3761
 20
-51.6642
 30
0.0
 11
224.1834
 21
-51.6642
 31
0.0
  0
LINE
  8
5
  6
CONTINUOUS
 62
     7
  5
822
 10
224.3761
 20
-52.0219
 30
0.0
 11
224.1834
 21
-52.0219
 31
0.0
  0
POLYLINE
  8
5
  6
CONTINUOUS
 62
     7
  5
823
 66
     1
 10
0.0
 20
0.0
 30
0.0
210
0.0
220
0.0
230
1.0
  0
VERTEX
  8
5
  6
CONTINUOUS
 62
     7
  5
824
 10
224.2761
 20
-51.6454
 30
0.0
  0
VERTEX
  8
5
  6
CONTINUOUS
 62
     7
  5
825
 10
224.3761
 20
-51.6642
 30
0.0
  0
VERTEX
  8
5
  6
CONTINUOUS
 62
     7
  5
826
 10
224.2761
 20
-51.683
 30
0.0
  0
SEQEND
  8
5
  6
CONTINUOUS
 62
     7
  5
827
  0
POLYLINE
  8
5
  6
CONTINUOUS
 62
     7
  5
828
 66
     1
 10
0.0
 20
0.0
 30
0.0
210
0.0
220
0.0
230
1.0
  0
VERTEX
  8
5
  6
CONTINUOUS
 62
     7
  5
829
 10
224.2761
 20
-52.0031
 30
0.0
  0
VERTEX
  8
5
  6
CONTINUOUS
 62
     7
  5
82A
 10
224.3761
 20
-52.0219
 30
0.0
  0
VERTEX
  8
5
  6
CONTINUOUS
 62
     7
  5
82B
 10
224.2761
 20
-52.0407
 30
0.0
  0
SEQEND
  8
5
  6
CONTINUOUS
 62
     7
  5
82C
  0
LINE
  8
5
  6
CONTINUOUS
 62
     7
  5
82D
 10
224.1834
 20
-51.6642
 30
0.0
 11
224.1834
 21
-52.0219
 31
0.0
  0
TEXT
  8
59
  6
CONTINUOUS
 62
   110
  5
82E
 10
220.4275
 20
-52.3209
 30
0.0
 40
0.12
  1
32"
 50
90.0
  7
txt
 72
     4
 11
220.3675
 21
-52.1621
 31
0.0
210
0.0
220
0.0
230
1.0
  0
TEXT
  8
59
  6
CONTINUOUS
 62
   110
  5
82F
 10
220.0691
 20
-52.1751
 30
0.0
 40
0.12
  1
36"
 50
90.0
  7
txt
 72
     4
 11
220.0091
 21
-52.0163
 31
0.0
210
0.0
220
0.0
230
1.0
  0
TEXT
  8
59
  6
CONTINUOUS
 62
   110
  5
830
 10
219.736
 20
-51.7934
 30
0.0
 40
0.12
  1
42"
 50
90.0
  7
txt
 72
     4
 11
219.676
 21
-51.6346
 31
0.0
210
0.0
220
0.0
230
1.0
  0
TEXT
  8
59
  6
CONTINUOUS
 62
   110
  5
831
 10
226.3812
 20
-60.994
 30
0.0
 40
0.1272
  1
2'-11 3/8"
  7
txt
 11
226.3812
 21
-60.9304
 31
0.0
210
0.0
220
0.0
230
1.0
 73
     2
  0
TEXT
  8
59
  6
CONTINUOUS
 62
   110
  5
832
 10
223.5294
 20
-61.0287
 30
0.0
 40
0.1272
  1
5'-3"
  7
txt
 11
223.5294
 21
-60.9651
 31
0.0
210
0.0
220
0.0
230
1.0
 73
     2
  0
TEXT
  8
59
  6
CONTINUOUS
 62
   110
  5
833
 10
226.5869
 20
-63.0914
 30
0.0
 40
0.12
  1
2'-3 1/2"
  7
txt
 11
226.5869
 21
-63.0314
 31
0.0
210
0.0
220
0.0
230
1.0
 73
     2
  0
TEXT
  8
59
  6
CONTINUOUS
 62
   110
  5
834
 10
226.0903
 20
-63.4703
 30
0.0
 40
0.12
  1
7 7/8"
  7
txt
 11
226.0903
 21
-63.4103
 31
0.0
210
0.0
220
0.0
230
1.0
 73
     2
  0
TEXT
  8
59
  6
CONTINUOUS
 62
   110
  5
835
 10
228.4468
 20
-65.2063
 30
0.0
 40
0.12
  1
7 5/8"
 50
90.0
  7
txt
 72
     4
 11
228.3868
 21
-64.869
 31
0.0
210
0.0
220
0.0
230
1.0
  0
TEXT
  8
59
  6
CONTINUOUS
 62
   110
  5
836
 10
223.9832
 20
-65.1638
 30
0.0
 40
0.12
  1
7 5/8"
 50
90.0
  7
txt
 72
     4
 11
223.9232
 21
-64.8265
 31
0.0
210
0.0
220
0.0
230
1.0
  0
TEXT
  8
59
  6
CONTINUOUS
 62
   110
  5
837
 10
228.8858
 20
-65.6424
 30
0.0
 40
0.1272
  1
30"
 50
90.0
  7
txt
 11
228.8222
 21
-65.6424
 31
0.0
210
0.0
220
0.0
230
1.0
 73
     2
  0
LINE
  8
5
  6
CONTINUOUS
 62
     7
  5
838
 10
224.359
 20
-64.8045
 30
0.0
 11
224.0643
 21
-64.8045
 31
0.0
  0
LINE
  8
5
  6
CONTINUOUS
 62
     7
  5
839
 10
224.0643
 20
-64.8045
 30
0.0
 11
224.0643
 21
-65.1822
 31
0.0
  0
POLYLINE
  8
5
  6
CONTINUOUS
 62
     7
  5
83A
 66
     1
 10
0.0
 20
0.0
 30
0.0
210
0.0
220
0.0
230
1.0
  0
VERTEX
  8
5
  6
CONTINUOUS
 62
     7
  5
83B
 10
224.259
 20
-64.7858
 30
0.0
  0
VERTEX
  8
5
  6
CONTINUOUS
 62
     7
  5
83C
 10
224.359
 20
-64.8045
 30
0.0
  0
VERTEX
  8
5
  6
CONTINUOUS
 62
     7
  5
83D
 10
224.259
 20
-64.8232
 30
0.0
  0
SEQEND
  8
5
  6
CONTINUOUS
 62
     7
  5
83E
  0
LINE
  8
5
  6
CONTINUOUS
 62
     7
  5
83F
 10
224.359
 20
-65.1822
 30
0.0
 11
224.0643
 21
-65.1822
 31
0.0
  0
POLYLINE
  8
5
  6
CONTINUOUS
 62
     7
  5
840
 66
     1
 10
0.0
 20
0.0
 30
0.0
210
0.0
220
0.0
230
1.0
  0
VERTEX
  8
5
  6
CONTINUOUS
 62
     7
  5
841
 10
224.259
 20
-65.1635
 30
0.0
  0
VERTEX
  8
5
  6
CONTINUOUS
 62
     7
  5
842
 10
224.359
 20
-65.1822
 30
0.0
  0
VERTEX
  8
5
  6
CONTINUOUS
 62
     7
  5
843
 10
224.259
 20
-65.2009
 30
0.0
  0
SEQEND
  8
5
  6
CONTINUOUS
 62
     7
  5
844
  0
TEXT
  8
17
  6
CONTINUOUS
 62
     2
  5
845
 10
221.1574
 20
-66.8713
 30
0.0
 40
0.1272
  1
5- 1" Dia. Non-rusting Sleeves
  7
txt
 11
221.1574
 21
-66.8077
 31
0.0
210
0.0
220
0.0
230
1.0
 73
     2
  0
TEXT
  8
17
  6
CONTINUOUS
 62
     2
  5
846
 10
221.1574
 20
-67.0485
 30
0.0
 40
0.1272
  1
for Guardrail Pipe Include payment
  7
txt
 11
221.1574
 21
-66.9849
 31
0.0
210
0.0
220
0.0
230
1.0
 73
     2
  0
TEXT
  8
17
  6
CONTINUOUS
 62
     2
  5
847
 10
221.1574
 20
-67.2257
 30
0.0
 40
0.1272
  1
in Item 601-02
  7
txt
 11
221.1574
 21
-67.1621
 31
0.0
210
0.0
220
0.0
230
1.0
 73
     2
  0
TEXT
  8
59
  6
CONTINUOUS
 62
   110
  5
848
 10
220.4139
 20
-65.4726
 30
0.0
 40
0.12
  1
32"
 50
90.0
  7
txt
 72
     4
 11
220.3539
 21
-65.3138
 31
0.0
210
0.0
220
0.0
230
1.0
  0
TEXT
  8
59
  6
CONTINUOUS
 62
   110
  5
849
 10
220.0555
 20
-65.3268
 30
0.0
 40
0.12
  1
36"
 50
90.0
  7
txt
 72
     4
 11
219.9955
 21
-65.168
 31
0.0
210
0.0
220
0.0
230
1.0
  0
TEXT
  8
59
  6
CONTINUOUS
 62
   110
  5
84A
 10
219.7224
 20
-64.9451
 30
0.0
 40
0.12
  1
42"
 50
90.0
  7
txt
 72
     4
 11
219.6624
 21
-64.7863
 31
0.0
210
0.0
220
0.0
230
1.0
  0
TEXT
  8
59
  6
CONTINUOUS
 62
   110
  5
84B
 10
233.7574
 20
-66.8192
 30
0.0
 40
0.12
  1
30"
  7
txt
 72
     4
 11
233.9162
 21
-66.7592
 31
0.0
210
0.0
220
0.0
230
1.0
  0
TEXT
  8
59
  6
CONTINUOUS
 62
   110
  5
84C
 10
236.2348
 20
-68.0106
 30
0.0
 40
0.12
  1
2'-11 3/8"
 50
33.0
  7
txt
 72
     4
 11
236.684693
 21
-67.646894
 31
0.0
210
0.0
220
0.0
230
1.0
  0
TEXT
  8
59
  6
CONTINUOUS
 62
   110
  5
84D
 10
239.029
 20
-66.3829
 30
0.0
 40
0.12
  1
5'-3"
 50
33.0
  7
txt
 72
     4
 11
239.229304
 21
-66.181279
 31
0.0
210
0.0
220
0.0
230
1.0
  0
TEXT
  8
59
  6
CONTINUOUS
 62
   110
  5
84E
 10
242.4487
 20
-63.1708
 30
0.0
 40
0.12
  1
32"
  7
txt
 72
     4
 11
242.6075
 21
-63.1108
 31
0.0
210
0.0
220
0.0
230
1.0
  0
TEXT
  8
59
  6
CONTINUOUS
 62
   110
  5
84F
 10
243.0689
 20
-62.8759
 30
0.0
 40
0.12
  1
36"
  7
txt
 72
     4
 11
243.2277
 21
-62.8159
 31
0.0
210
0.0
220
0.0
230
1.0
  0
TEXT
  8
59
  6
CONTINUOUS
 62
   110
  5
850
 10
243.7061
 20
-62.5536
 30
0.0
 40
0.12
  1
42"
  7
txt
 72
     4
 11
243.8649
 21
-62.4936
 31
0.0
210
0.0
220
0.0
230
1.0
  0
TEXT
  8
59
  6
CONTINUOUS
 62
   110
  5
851
 10
242.9777
 20
-61.4112
 30
0.0
 40
0.12
  1
6"
  7
txt
 72
     4
 11
243.0769
 21
-61.3512
 31
0.0
210
0.0
220
0.0
230
1.0
  0
TEXT
  8
59
  6
CONTINUOUS
 62
   110
  5
852
 10
242.3551
 20
-61.8013
 30
0.0
 40
0.12
  1
4"
  7
txt
 72
     4
 11
242.4543
 21
-61.7413
 31
0.0
210
0.0
220
0.0
230
1.0
  0
TEXT
  8
59
  6
CONTINUOUS
 62
   110
  5
853
 10
244.116
 20
-44.9059
 30
0.0
 40
0.1272
  1
5'-3"
  7
txt
 11
244.116
 21
-44.8423
 31
0.0
210
0.0
220
0.0
230
1.0
 73
     2
  0
TEXT
  8
59
  6
CONTINUOUS
 62
   110
  5
854
 10
241.047
 20
-44.9009
 30
0.0
 40
0.1272
  1
2'-11 3/8"
  7
txt
 11
241.047
 21
-44.8373
 31
0.0
210
0.0
220
0.0
230
1.0
 73
     2
  0
TEXT
  8
1
  6
CONTINUOUS
 62
     7
  5
855
 10
239.3564
 20
-47.0981
 30
0.0
 40
0.1272
  1
2'-11 3/8"
 50
90.0
  7
txt
210
0.0
220
0.0
230
1.0
  0
LINE
  8
5
  6
CONTINUOUS
 62
     7
  5
856
 10
239.1784
 20
-46.4669
 30
0.0
 11
238.9683
 21
-46.4669
 31
0.0
  0
TEXT
  8
1
  6
CONTINUOUS
 62
     7
  5
857
 10
240.9219
 20
-49.7411
 30
0.0
 40
0.1272
  1
2'-3 1/2"
  7
txt
 11
240.9219
 21
-49.6775
 31
0.0
210
0.0
220
0.0
230
1.0
 73
     2
  0
TEXT
  8
1
  6
CONTINUOUS
 62
     7
  5
858
 10
241.5848
 20
-50.092
 30
0.0
 40
0.1272
  1
7 7/8"
  7
txt
 11
241.5848
 21
-50.0284
 31
0.0
210
0.0
220
0.0
230
1.0
 73
     2
  0
TEXT
  8
1
  6
CONTINUOUS
 62
     7
  5
859
 10
240.7943
 20
-51.8417
 30
0.0
 40
0.1272
  1
7 5/8"
 50
90.0
  7
txt
 11
240.7307
 21
-51.8417
 31
0.0
210
0.0
220
0.0
230
1.0
 73
     2
  0
TEXT
  8
1
  6
CONTINUOUS
 62
     7
  5
85A
 10
243.2799
 20
-51.8184
 30
0.0
 40
0.1272
  1
7 5/8"
 50
90.0
  7
txt
 72
     4
 11
243.2163
 21
-51.4608
 31
0.0
210
0.0
220
0.0
230
1.0
  0
TEXT
  8
59
  6
CONTINUOUS
 62
   110
  5
85B
 10
239.5137
 20
-52.4064
 30
0.0
 40
0.1272
  1
30"
 50
90.0
  7
txt
 11
239.4501
 21
-52.4064
 31
0.0
210
0.0
220
0.0
230
1.0
 73
     2
  0
TEXT
  8
17
  6
CONTINUOUS
 62
     2
  5
85C
 10
244.2024
 20
-53.3193
 30
0.0
 40
0.1272
  1
5- 1" Dia. Non-rusting Sleeves
  7
txt
 11
244.2024
 21
-53.2557
 31
0.0
210
0.0
220
0.0
230
1.0
 73
     2
  0
TEXT
  8
59
  6
CONTINUOUS
 62
   110
  5
85D
 10
249.1357
 20
-52.1151
 30
0.0
 40
0.12
  1
32"
 50
90.0
  7
txt
 72
     4
 11
249.0757
 21
-51.9563
 31
0.0
210
0.0
220
0.0
230
1.0
  0
TEXT
  8
59
  6
CONTINUOUS
 62
   110
  5
85E
 10
249.5219
 20
-51.9207
 30
0.0
 40
0.12
  1
36"
 50
90.0
  7
txt
 72
     4
 11
249.4619
 21
-51.7619
 31
0.0
210
0.0
220
0.0
230
1.0
  0
TEXT
  8
59
  6
CONTINUOUS
 62
   110
  5
85F
 10
249.855
 20
-51.7126
 30
0.0
 40
0.12
  1
42"
 50
90.0
  7
txt
 72
     4
 11
249.795
 21
-51.5538
 31
0.0
210
0.0
220
0.0
230
1.0
  0
LINE
  8
1
  6
CONTINUOUS
 62
     7
  5
860
 10
243.1086
 20
-51.4162
 30
0.0
 11
242.9218
 21
-51.4162
 31
0.0
  0
LINE
  8
1
  6
CONTINUOUS
 62
     7
  5
861
 10
243.1086
 20
-51.7848
 30
0.0
 11
242.9218
 21
-51.7848
 31
0.0
  0
INSERT
  8
1
  6
CONTINUOUS
 62
     7
  5
862
  2
ARROW2
 10
242.9218
 20
-51.4162
 30
0.0
 41
0.623349
 42
0.623349
 50
180.0
 43
1.026091
210
0.0
220
0.0
230
1.0
  0
INSERT
  8
1
  6
CONTINUOUS
 62
     7
  5
863
  2
ARROW2
 10
242.9218
 20
-51.7848
 30
0.0
 41
0.623349
 42
0.623349
 50
180.0
 43
1.026091
210
0.0
220
0.0
230
1.0
  0
LINE
  8
1
  6
CONTINUOUS
 62
     7
  5
864
 10
243.1086
 20
-51.4162
 30
0.0
 11
243.1086
 21
-51.7848
 31
0.0
  0
LINE
  8
5
  6
CONTINUOUS
 62
     7
  5
865
 10
243.8081
 20
-61.086
 30
0.0
 11
243.8081
 21
-62.3138
 31
0.0
  0
LINE
  8
1
  6
CONTINUOUS
 62
     7
  5
866
 10
243.1784
 20
-64.2898
 30
0.0
 11
243.1784
 21
-62.9556
 31
0.0
  0
LINE
  8
5
  6
CONTINUOUS
 62
     7
  5
867
 10
242.5605
 20
-61.8784
 30
0.0
 11
242.5605
 21
-62.9223
 31
0.0
  0
LINE
  8
5
  6
CONTINUOUS
 62
     7
  5
868
 10
233.8582
 20
-66.9264
 30
0.0
 11
233.8582
 21
-67.703
 31
0.0
  0
TEXT
  8
1
  6
CONTINUOUS
 62
   140
  5
869
 10
249.9073
 20
-66.2099
 30
0.0
 40
0.22
  1
STANDARD DETAIL
  7
ROMANT
 72
     4
 11
251.0549
 21
-66.0999
 31
0.0
210
0.0
220
0.0
230
1.0
  0
TEXT
  8
1
  6
CONTINUOUS
 62
     2
  5
86A
 10
250.2859
 20
-69.2637
 30
0.0
 40
0.2
  1
STANDARD SHEET GR12
  7
txt
 72
     4
 11
252.1379
 21
-69.1637
 31
0.0
210
0.0
220
0.0
230
1.0
  0
TEXT
  8
3
  6
CONTINUOUS
 62
     2
  5
86B
 10
246.1953
 20
-58.6031
 30
0.0
 40
0.1465
  1
The contractor shall  have the option to install either the N-J Shape
  7
MONOTXT
210
0.0
220
0.0
230
1.0
  0
TEXT
  8
3
  6
CONTINUOUS
 62
     2
  5
86C
 10
246.1953
 20
-58.9296
 30
0.0
 40
0.1465
  1
or the F-Shape median unless otherwise specified on the Plans.
  7
MONOTXT
210
0.0
220
0.0
230
1.0
  0
TEXT
  8
3
  6
CONTINUOUS
 62
     2
  5
86D
 10
246.1953
 20
-59.2561
 30
0.0
 40
0.1465
  1
 
  7
MONOTXT
210
0.0
220
0.0
230
1.0
  0
TEXT
  8
3
  6
CONTINUOUS
 62
     2
  5
86E
 10
246.1953
 20
-59.5826
 30
0.0
 40
0.1465
  1
For additional dimensions, notes and details see Sheet 1 and 2.
  7
MONOTXT
210
0.0
220
0.0
230
1.0
  0
TEXT
  8
3
  6
CONTINUOUS
 62
     2
  5
86F
 10
246.1953
 20
-59.9091
 30
0.0
 40
0.1465
  1
 
  7
MONOTXT
210
0.0
220
0.0
230
1.0
  0
TEXT
  8
3
  6
CONTINUOUS
 62
     2
  5
870
 10
246.1953
 20
-60.2356
 30
0.0
 40
0.1465
  1
For additional  notes and details of the guardrail  bolt pattern, see
  7
MONOTXT
210
0.0
220
0.0
230
1.0
  0
TEXT
  8
3
  6
CONTINUOUS
 62
     2
  5
871
 10
246.1953
 20
-60.5621
 30
0.0
 40
0.1465
  1
Standard Detail Sheet GR10.
  7
MONOTXT
210
0.0
220
0.0
230
1.0
  0
TEXT
  8
1
  6
CONTINUOUS
 62
   140
  5
872
 10
247.6823
 20
-66.9869
 30
0.0
 40
0.0799
  1
PREPARED 7-1-99
  7
MONOTXT
210
0.0
220
0.0
230
1.0
  0
ENDSEC
  0
EOF
