  0
SECTION
  2
HEADER
  9
$ACADVER
  1
AC1009
  9
$INSBASE
 10
0.0
 20
0.0
 30
0.0
  9
$EXTMIN
 10
92.5802
 20
29.6577
 30
0.0
  9
$EXTMAX
 10
134.2967
 20
99.1706
 30
0.0
  9
$LIMMIN
 10
0.0
 20
0.0
  9
$LIMMAX
 10
12.0
 20
9.0
  9
$ORTHOMODE
 70
     0
  9
$REGENMODE
 70
     1
  9
$FILLMODE
 70
     1
  9
$QTEXTMODE
 70
     0
  9
$MIRRTEXT
 70
     1
  9
$DRAGMODE
 70
     2
  9
$LTSCALE
 40
1.0
  9
$OSMODE
 70
     0
  9
$ATTMODE
 70
     1
  9
$TEXTSIZE
 40
0.2
  9
$TRACEWID
 40
0.05
  9
$TEXTSTYLE
  7
STANDARD
  9
$CLAYER
  8
0
  9
$CELTYPE
  6
CONTINUOUS
  9
$CECOLOR
 62
   256
  9
$DIMSCALE
 40
1.0
  9
$DIMASZ
 40
0.18
  9
$DIMEXO
 40
0.0625
  9
$DIMDLI
 40
0.38
  9
$DIMRND
 40
0.0
  9
$DIMDLE
 40
0.0
  9
$DIMEXE
 40
0.18
  9
$DIMTP
 40
0.0
  9
$DIMTM
 40
0.0
  9
$DIMTXT
 40
0.18
  9
$DIMCEN
 40
0.09
  9
$DIMTSZ
 40
0.0
  9
$DIMTOL
 70
     0
  9
$DIMLIM
 70
     0
  9
$DIMTIH
 70
     1
  9
$DIMTOH
 70
     1
  9
$DIMSE1
 70
     0
  9
$DIMSE2
 70
     0
  9
$DIMTAD
 70
     0
  9
$DIMZIN
 70
     0
  9
$DIMBLK
  1

  9
$DIMASO
 70
     1
  9
$DIMSHO
 70
     1
  9
$DIMPOST
  1

  9
$DIMAPOST
  1

  9
$DIMALT
 70
     0
  9
$DIMALTD
 70
     2
  9
$DIMALTF
 40
25.4
  9
$DIMLFAC
 40
1.0
  9
$DIMTOFL
 70
     0
  9
$DIMTVP
 40
0.0
  9
$DIMTIX
 70
     0
  9
$DIMSOXD
 70
     0
  9
$DIMSAH
 70
     0
  9
$DIMBLK1
  1

  9
$DIMBLK2
  1

  9
$DIMSTYLE
  2
STANDARD
  9
$DIMCLRD
 70
     0
  9
$DIMCLRE
 70
     0
  9
$DIMCLRT
 70
     0
  9
$DIMTFAC
 40
1.0
  9
$DIMGAP
 40
0.09
  9
$LUNITS
 70
     2
  9
$LUPREC
 70
     4
  9
$AXISMODE
 70
     0
  9
$AXISUNIT
 10
0.0
 20
0.0
  9
$SKETCHINC
 40
0.1
  9
$FILLETRAD
 40
0.0
  9
$AUNITS
 70
     0
  9
$AUPREC
 70
     0
  9
$MENU
  1
acad
  9
$ELEVATION
 40
0.0
  9
$PELEVATION
 40
0.0
  9
$THICKNESS
 40
0.0
  9
$LIMCHECK
 70
     0
  9
$BLIPMODE
 70
     1
  9
$CHAMFERA
 40
0.0
  9
$CHAMFERB
 40
0.0
  9
$SKPOLY
 70
     0
  9
$TDCREATE
 40
2451568.418043981
  9
$TDUPDATE
 40
2451568.418043981
  9
$TDINDWG
 40
0.0000000000
  9
$TDUSRTIMER
 40
0.0000000000
  9
$USRTIMER
 70
     1
  9
$ANGBASE
 50
0.0
  9
$ANGDIR
 70
     0
  9
$PDMODE
 70
     0
  9
$PDSIZE
 40
0.0
  9
$PLINEWID
 40
0.0
  9
$COORDS
 70
     0
  9
$SPLFRAME
 70
     0
  9
$SPLINETYPE
 70
     6
  9
$SPLINESEGS
 70
    10
  9
$ATTDIA
 70
     0
  9
$ATTREQ
 70
     1
  9
$HANDLING
 70
     1
  9
$HANDSEED
  5
51F
  9
$SURFTAB1
 70
     6
  9
$SURFTAB2
 70
     6
  9
$SURFTYPE
 70
     6
  9
$SURFU
 70
     6
  9
$SURFV
 70
     6
  9
$UCSNAME
  2

  9
$UCSORG
 10
0.0
 20
0.0
 30
0.0
  9
$UCSXDIR
 10
1.0
 20
0.0
 30
0.0
  9
$UCSYDIR
 10
0.0
 20
1.0
 30
0.0
  9
$PUCSNAME
  2

  9
$PUCSORG
 10
0.0
 20
0.0
 30
0.0
  9
$PUCSXDIR
 10
1.0
 20
0.0
 30
0.0
  9
$PUCSYDIR
 10
0.0
 20
1.0
 30
0.0
  9
$USERI1
 70
     0
  9
$USERI2
 70
     0
  9
$USERI3
 70
     0
  9
$USERI4
 70
     0
  9
$USERI5
 70
     0
  9
$USERR1
 40
0.0
  9
$USERR2
 40
0.0
  9
$USERR3
 40
0.0
  9
$USERR4
 40
0.0
  9
$USERR5
 40
0.0
  9
$WORLDVIEW
 70
     1
  9
$SHADEDGE
 70
     3
  9
$SHADEDIF
 70
    70
  9
$TILEMODE
 70
     1
  9
$MAXACTVP
 70
    16
  9
$PINSBASE
 10
0.0
 20
0.0
 30
0.0
  9
$PLIMCHECK
 70
     0
  9
$PEXTMIN
 10
-1.000000E+20
 20
-1.000000E+20
 30
-1.000000E+20
  9
$PEXTMAX
 10
-1.000000E+20
 20
-1.000000E+20
 30
-1.000000E+20
  9
$PLIMMIN
 10
0.0
 20
0.0
  9
$PLIMMAX
 10
12.0
 20
9.0
  9
$UNITMODE
 70
     0
  9
$VISRETAIN
 70
     0
  9
$PLINEGEN
 70
     1
  9
$PSLTSCALE
 70
     0
  9
$TREEDEPTH
 70
  3020
  9
$DWGCODEPAGE
  3
ansi_1252
  0
ENDSEC
  0
SECTION
  2
TABLES
  0
TABLE
  2
VPORT
 70
     1
  0
VPORT
  2
*ACTIVE
 70
     0
 10
0.0
 20
0.0
 11
1.0
 21
1.0
 12
0.0
 22
0.0
 13
0.0
 23
0.0
 14
0.0
 24
0.0
 15
0.0
 25
0.0
 16
0.0
 26
0.0
 36
1.0
 17
110.803655
 27
84.87925
 37
0.0
 40
29.2973
 41
1.565766
 42
50.0
 43
0.0
 44
0.0
 50
0.0
 51
0.0
 71
     0
 72
   100
 73
     1
 74
     0
 75
     0
 76
     0
 77
     0
 78
     0
  0
ENDTAB
  0
TABLE
  2
LTYPE
 70
     7
  0
LTYPE
  2
CONTINUOUS
 70
     0
  3
Solid line
 72
    65
 73
     0
 40
0.0
  0
LTYPE
  2
DOT
 70
    64
  3
. . . . . . . . . . . . . . . . . . . . . . . . . . . . . . . . .
 72
    65
 73
     2
 40
0.25
 49
0.0
 49
-0.25
  0
LTYPE
  2
HIDDEN
 70
    64
  3
__ __ __ __ __ __ __ __ __ __ __ __ __ __ __ __ __ __ __ __ __ 
 72
    65
 73
     2
 40
0.375
 49
0.25
 49
-0.125
  0
LTYPE
  2
DASHED
 70
    64
  3
__ __ __ __ __ __ __ __ __ __ __ __ __ __ __ __ __ __ __ __ __
 72
    65
 73
     2
 40
0.75
 49
0.5
 49
-0.25
  0
LTYPE
  2
DASHDOT
 70
    64
  3
__ . __ . __ . __ . __ . __ . __ . __ . __ . __ . __ . __ . _
 72
    65
 73
     4
 40
1.0
 49
0.5
 49
-0.25
 49
0.0
 49
-0.25
  0
LTYPE
  2
DIVIDE
 70
    64
  3
____ . . ____ . . ____ . . ____ . . ____ . . ____ . . ____ . .
 72
    65
 73
     6
 40
1.25
 49
0.5
 49
-0.25
 49
0.0
 49
-0.25
 49
0.0
 49
-0.25
  0
LTYPE
  2
CENTER
 70
    64
  3
____ _ ____ _ ____ _ ____ _ ____ _ ____ _ ____ _ ____ _ ____ _
 72
    65
 73
     4
 40
2.0
 49
1.25
 49
-0.25
 49
0.25
 49
-0.25
  0
ENDTAB
  0
TABLE
  2
LAYER
 70
    10
  0
LAYER
  2
0
 70
     0
 62
     7
  6
CONTINUOUS
  0
LAYER
  2
CONSTRUCTION_CLASS
 70
     0
 62
     7
  6
CONTINUOUS
  0
LAYER
  2
PATTERN_CLASS
 70
     0
 62
     7
  6
CONTINUOUS
  0
LAYER
  2
15
 70
    64
 62
     7
  6
CONTINUOUS
  0
LAYER
  2
2
 70
    64
 62
     7
  6
CONTINUOUS
  0
LAYER
  2
11
 70
    64
 62
     7
  6
CONTINUOUS
  0
LAYER
  2
4
 70
    64
 62
     7
  6
CONTINUOUS
  0
LAYER
  2
5
 70
    64
 62
     7
  6
CONTINUOUS
  0
LAYER
  2
1
 70
    64
 62
     7
  6
CONTINUOUS
  0
LAYER
  2
3
 70
    64
 62
     7
  6
CONTINUOUS
  0
ENDTAB
  0
TABLE
  2
STYLE
 70
     5
  0
STYLE
  2
STANDARD
 70
     0
 40
0.0
 41
1.0
 50
0.0
 71
     0
 42
0.0
  3
txt
  4

  0
STYLE
  2
txt
 70
     0
 40
0.2
 41
1.0
 50
0.0
 71
     0
 42
0.2
  3
TXT
  4

  0
STYLE
  2
ROMANS
 70
     0
 40
0.2
 41
1.0
 50
0.0
 71
     0
 42
0.2
  3
ROMANS
  4

  0
STYLE
  2
MONOTXT
 70
     0
 40
0.2
 41
1.0
 50
0.0
 71
     0
 42
0.2
  3
MONOTXT
  4

  0
STYLE
  2
ROMANT
 70
     0
 40
0.2
 41
1.0
 50
0.0
 71
     0
 42
0.2
  3
ROMANT
  4

  0
ENDTAB
  0
TABLE
  2
VIEW
 70
     0
  0
ENDTAB
  0
TABLE
  2
UCS
 70
     0
  0
ENDTAB
  0
TABLE
  2
APPID
 70
     1
  0
APPID
  2
ACAD
 70
     0
  0
ENDTAB
  0
TABLE
  2
DIMSTYLE
 70
     1
  0
DIMSTYLE
  2
STANDARD
 70
     0
  3

  4

  5

  6

  7

 40
1.0
 41
0.18
 42
0.0625
 43
0.38
 44
0.18
 45
0.0
 46
0.0
 47
0.0
 48
0.0
140
0.18
141
0.09
142
0.0
143
25.4
144
1.0
145
0.0
146
1.0
147
0.09
 71
     0
 72
     0
 73
     1
 74
     1
 75
     0
 76
     0
 77
     0
 78
     0
170
     0
171
     2
172
     0
173
     0
174
     0
175
     0
176
     0
177
     0
178
     0
  0
ENDTAB
  0
ENDSEC
  0
SECTION
  2
BLOCKS
  0
ENDSEC
  0
SECTION
  2
ENTITIES
  0
TEXT
  8
15
  6
CONTINUOUS
 62
   241
  5
2A
 10
129.3065
 20
29.7577
 30
0.0
 40
0.2
  1
STANDARD DETAIL SHEET GR7
  7
txt
210
0.0
220
0.0
230
1.0
  0
LINE
  8
2
  6
CONTINUOUS
 62
   140
  5
2C
 10
112.7163
 20
87.4416
 30
0.0
 11
112.4688
 21
87.4416
 31
0.0
  0
LINE
  8
2
  6
CONTINUOUS
 62
   140
  5
2D
 10
115.8101
 20
87.4416
 30
0.0
 11
115.5626
 21
87.4416
 31
0.0
  0
LINE
  8
2
  6
CONTINUOUS
 62
   140
  5
2E
 10
118.9038
 20
87.4416
 30
0.0
 11
118.6563
 21
87.4416
 31
0.0
  0
LINE
  8
2
  6
CONTINUOUS
 62
   140
  5
2F
 10
121.9976
 20
87.4416
 30
0.0
 11
121.7501
 21
87.4416
 31
0.0
  0
LINE
  8
2
  6
CONTINUOUS
 62
   140
  5
30
 10
121.8131
 20
91.8845
 30
0.0
 11
121.8131
 21
91.8138
 31
0.0
  0
LINE
  8
2
  6
CONTINUOUS
 62
   140
  5
31
 10
121.8112
 20
87.4287
 30
0.0
 11
121.8112
 21
87.3235
 31
0.0
  0
LINE
  8
2
  6
CONTINUOUS
 62
   140
  5
32
 10
121.8112
 20
86.5995
 30
0.0
 11
121.8112
 21
86.7047
 31
0.0
  0
LINE
  8
2
  6
CONTINUOUS
 62
   140
  5
33
 10
121.9365
 20
87.4287
 30
0.0
 11
121.9365
 21
87.3235
 31
0.0
  0
LINE
  8
2
  6
CONTINUOUS
 62
   140
  5
34
 10
121.9365
 20
86.5995
 30
0.0
 11
121.9365
 21
86.7047
 31
0.0
  0
LINE
  8
2
  6
DASHED
 62
   140
  5
35
 10
97.1479
 20
84.3535
 30
0.0
 11
97.2121
 21
84.3535
 31
0.0
  0
LINE
  8
11
  6
DASHED
 62
    40
  5
37
 10
106.2813
 20
84.3535
 30
0.0
 11
106.5288
 21
84.3535
 31
0.0
  0
LINE
  8
11
  6
DASHED
 62
    40
  5
38
 10
103.1876
 20
84.3535
 30
0.0
 11
103.4351
 21
84.3535
 31
0.0
  0
LINE
  8
11
  6
DASHED
 62
    40
  5
39
 10
100.0938
 20
84.3535
 30
0.0
 11
100.3413
 21
84.3535
 31
0.0
  0
LINE
  8
4
  6
CONTINUOUS
 62
     7
  5
3B
 10
95.7368
 20
86.1478
 30
0.0
 11
95.7368
 21
87.0141
 31
0.0
  0
LINE
  8
4
  6
CONTINUOUS
 62
     7
  5
3C
 10
96.3992
 20
87.0141
 30
0.0
 11
95.6131
 21
87.0141
 31
0.0
  0
LINE
  8
2
  6
CONTINUOUS
 62
   140
  5
3D
 10
119.1037
 20
87.0058
 30
0.0
 11
119.1037
 21
87.019
 31
0.0
  0
LINE
  8
2
  6
CONTINUOUS
 62
   140
  5
3E
 10
119.1037
 20
87.0329
 30
0.0
 11
119.1037
 21
87.0565
 31
0.0
  0
LINE
  8
2
  6
CONTINUOUS
 62
   140
  5
3F
 10
119.0175
 20
87.008
 30
0.0
 11
119.0175
 21
87.0017
 31
0.0
  0
LINE
  8
2
  6
CONTINUOUS
 62
   140
  5
40
 10
119.0532
 20
86.9938
 30
0.0
 11
119.0532
 21
87.0329
 31
0.0
  0
LINE
  8
2
  6
CONTINUOUS
 62
   140
  5
41
 10
119.0532
 20
87.041
 30
0.0
 11
119.0532
 21
87.05
 31
0.0
  0
LINE
  8
2
  6
CONTINUOUS
 62
   140
  5
42
 10
119.0687
 20
86.9783
 30
0.0
 11
119.0532
 21
86.9783
 31
0.0
  0
LINE
  8
2
  6
CONTINUOUS
 62
   140
  5
43
 10
119.0829
 20
87.0017
 30
0.0
 11
119.0175
 21
87.0017
 31
0.0
  0
LINE
  8
2
  6
CONTINUOUS
 62
   140
  5
44
 10
119.065
 20
87.0264
 30
0.0
 11
119.0175
 21
87.0264
 31
0.0
  0
LINE
  8
2
  6
CONTINUOUS
 62
   140
  5
45
 10
119.0976
 20
87.05
 30
0.0
 11
119.1037
 21
87.05
 31
0.0
  0
LINE
  8
2
  6
CONTINUOUS
 62
   140
  5
46
 10
119.1189
 20
86.9387
 30
0.0
 11
119.1189
 21
86.9225
 31
0.0
  0
LINE
  8
2
  6
HIDDEN
 62
   140
  5
47
 10
119.1189
 20
87.0711
 30
0.0
 11
119.1189
 21
86.9612
 31
0.0
  0
LINE
  8
2
  6
CONTINUOUS
 62
   140
  5
48
 10
119.1189
 20
86.9717
 30
0.0
 11
119.1037
 21
86.9717
 31
0.0
  0
LINE
  8
2
  6
HIDDEN
 62
   140
  5
49
 10
119.1189
 20
87.1057
 30
0.0
 11
119.1189
 21
87.091
 31
0.0
  0
LINE
  8
2
  6
HIDDEN
 62
   140
  5
4A
 10
119.1513
 20
86.9522
 30
0.0
 11
119.1513
 21
86.9225
 31
0.0
  0
LINE
  8
2
  6
HIDDEN
 62
   140
  5
4B
 10
119.1513
 20
86.9225
 30
0.0
 11
119.1189
 21
86.9225
 31
0.0
  0
LINE
  8
2
  6
HIDDEN
 62
   140
  5
4C
 10
119.1513
 20
87.1057
 30
0.0
 11
119.1189
 21
87.1057
 31
0.0
  0
LINE
  8
2
  6
HIDDEN
 62
   140
  5
4D
 10
119.1513
 20
87.076
 30
0.0
 11
119.1513
 21
87.1057
 31
0.0
  0
LINE
  8
2
  6
CONTINUOUS
 62
   140
  5
4E
 10
119.1226
 20
91.9376
 30
0.0
 11
119.107
 21
91.9376
 31
0.0
  0
LINE
  8
2
  6
CONTINUOUS
 62
   140
  5
4F
 10
119.0175
 20
87.0264
 30
0.0
 11
119.0175
 21
87.018
 31
0.0
  0
LINE
  8
2
  6
CONTINUOUS
 62
   140
  5
50
 10
119.0532
 20
87.05
 30
0.0
 11
119.0863
 21
87.05
 31
0.0
  0
LINE
  8
2
  6
CONTINUOUS
 62
   140
  5
51
 10
119.0532
 20
86.9783
 30
0.0
 11
119.0532
 21
86.9855
 31
0.0
  0
LINE
  8
2
  6
CONTINUOUS
 62
   140
  5
52
 10
119.1037
 20
86.9783
 30
0.0
 11
119.0814
 21
86.9783
 31
0.0
  0
LINE
  8
2
  6
CONTINUOUS
 62
   140
  5
53
 10
119.1037
 20
86.9714
 30
0.0
 11
119.1037
 21
86.9895
 31
0.0
  0
LINE
  8
2
  6
CONTINUOUS
 62
   140
  5
54
 10
119.1037
 20
87.0264
 30
0.0
 11
119.0777
 21
87.0264
 31
0.0
  0
LINE
  8
2
  6
CONTINUOUS
 62
   140
  5
55
 10
119.1037
 20
87.0017
 30
0.0
 11
119.0963
 21
87.0017
 31
0.0
  0
LINE
  8
2
  6
CONTINUOUS
 62
   140
  5
56
 10
119.1189
 20
87.0565
 30
0.0
 11
119.1037
 21
87.0565
 31
0.0
  0
LINE
  8
2
  6
CONTINUOUS
 62
   140
  5
57
 10
119.1226
 20
91.9437
 30
0.0
 11
119.1226
 21
91.8555
 31
0.0
  0
LINE
  8
2
  6
CONTINUOUS
 62
   140
  5
58
 10
119.1524
 20
91.9437
 30
0.0
 11
119.1226
 21
91.9437
 31
0.0
  0
LINE
  8
2
  6
CONTINUOUS
 62
   140
  5
59
 10
119.1524
 20
91.9166
 30
0.0
 11
119.1524
 21
91.9437
 31
0.0
  0
LINE
  8
2
  6
CONTINUOUS
 62
   140
  5
5A
 10
119.107
 20
91.885
 30
0.0
 11
119.0206
 21
91.885
 31
0.0
  0
LINE
  8
2
  6
CONTINUOUS
 62
   140
  5
5B
 10
119.107
 20
91.9098
 30
0.0
 11
119.0206
 21
91.9098
 31
0.0
  0
LINE
  8
2
  6
CONTINUOUS
 62
   140
  5
5C
 10
119.107
 20
91.8548
 30
0.0
 11
119.107
 21
91.9376
 31
0.0
  0
LINE
  8
2
  6
CONTINUOUS
 62
   140
  5
5D
 10
119.107
 20
91.8615
 30
0.0
 11
119.0564
 21
91.8615
 31
0.0
  0
LINE
  8
2
  6
CONTINUOUS
 62
   140
  5
5E
 10
119.0564
 20
91.8615
 30
0.0
 11
119.0564
 21
91.9333
 31
0.0
  0
LINE
  8
2
  6
CONTINUOUS
 62
   140
  5
5F
 10
119.0564
 20
91.9333
 30
0.0
 11
119.107
 21
91.9333
 31
0.0
  0
LINE
  8
2
  6
CONTINUOUS
 62
   140
  5
60
 10
119.0206
 20
91.9098
 30
0.0
 11
119.0206
 21
91.885
 31
0.0
  0
LINE
  8
4
  6
CONTINUOUS
 62
     7
  5
61
 10
100.2176
 20
83.3977
 30
0.0
 11
97.1238
 21
83.3977
 31
0.0
  0
LINE
  8
4
  6
CONTINUOUS
 62
     7
  5
62
 10
103.3113
 20
83.3977
 30
0.0
 11
100.2176
 21
83.3977
 31
0.0
  0
LINE
  8
4
  6
CONTINUOUS
 62
     7
  5
63
 10
106.4051
 20
83.3977
 30
0.0
 11
103.3113
 21
83.3977
 31
0.0
  0
LINE
  8
4
  6
CONTINUOUS
 62
     7
  5
64
 10
109.4988
 20
83.3977
 30
0.0
 11
106.4051
 21
83.3977
 31
0.0
  0
LINE
  8
4
  6
CONTINUOUS
 62
     7
  5
65
 10
112.5926
 20
83.3977
 30
0.0
 11
109.4988
 21
83.3977
 31
0.0
  0
LINE
  8
4
  6
CONTINUOUS
 62
     7
  5
66
 10
121.8738
 20
83.3977
 30
0.0
 11
118.7801
 21
83.3977
 31
0.0
  0
LINE
  8
5
  6
CONTINUOUS
 62
   241
  5
68
 10
97.2723
 20
87.3107
 30
0.0
 11
97.2723
 21
87.9825
 31
0.0
  0
LINE
  8
2
  6
CONTINUOUS
 62
   140
  5
69
 10
97.0355
 20
86.7047
 30
0.0
 11
97.2121
 21
86.7047
 31
0.0
  0
LINE
  8
5
  6
CONTINUOUS
 62
   241
  5
6A
 10
97.1238
 20
84.6782
 30
0.0
 11
97.1238
 21
81.716
 31
0.0
  0
LINE
  8
2
  6
CONTINUOUS
 62
   140
  5
6B
 10
100.0938
 20
86.7047
 30
0.0
 11
100.3413
 21
86.7047
 31
0.0
  0
LINE
  8
2
  6
CONTINUOUS
 62
   140
  5
6C
 10
103.1876
 20
86.7047
 30
0.0
 11
103.4351
 21
86.7047
 31
0.0
  0
LINE
  8
2
  6
CONTINUOUS
 62
   140
  5
6D
 10
106.2813
 20
86.7047
 30
0.0
 11
106.5288
 21
86.7047
 31
0.0
  0
LINE
  8
2
  6
CONTINUOUS
 62
   140
  5
6E
 10
109.3751
 20
86.7047
 30
0.0
 11
109.6226
 21
86.7047
 31
0.0
  0
LINE
  8
2
  6
CONTINUOUS
 62
   140
  5
6F
 10
112.4688
 20
86.7047
 30
0.0
 11
112.7163
 21
86.7047
 31
0.0
  0
LINE
  8
2
  6
CONTINUOUS
 62
   140
  5
70
 10
115.5626
 20
86.7047
 30
0.0
 11
115.8101
 21
86.7047
 31
0.0
  0
LINE
  8
2
  6
CONTINUOUS
 62
   140
  5
71
 10
118.6563
 20
86.7047
 30
0.0
 11
118.9038
 21
86.7047
 31
0.0
  0
LINE
  8
2
  6
HIDDEN
 62
   140
  5
72
 10
122.0776
 20
86.2829
 30
0.0
 11
122.1281
 21
86.2829
 31
0.0
  0
LINE
  8
2
  6
HIDDEN
 62
   140
  5
73
 10
122.0776
 20
86.3077
 30
0.0
 11
122.1281
 21
86.3077
 31
0.0
  0
LINE
  8
4
  6
CONTINUOUS
 62
     7
  5
74
 10
124.1762
 20
91.7369
 30
0.0
 11
126.8884
 21
91.7369
 31
0.0
  0
LINE
  8
2
  6
CONTINUOUS
 62
   140
  5
75
 10
97.3682
 20
91.7576
 30
0.0
 11
97.3682
 21
91.7162
 31
0.0
  0
LINE
  8
2
  6
CONTINUOUS
 62
   140
  5
76
 10
109.7432
 20
91.7594
 30
0.0
 11
109.7432
 21
91.7162
 31
0.0
  0
LINE
  8
2
  6
CONTINUOUS
 62
   140
  5
77
 10
109.2711
 20
87.2616
 30
0.0
 11
109.2711
 21
86.7666
 31
0.0
  0
LINE
  8
2
  6
CONTINUOUS
 62
   140
  5
78
 10
109.7421
 20
87.2616
 30
0.0
 11
109.7421
 21
86.7666
 31
0.0
  0
LINE
  8
2
  6
CONTINUOUS
 62
   140
  5
79
 10
96.8961
 20
87.2616
 30
0.0
 11
96.8961
 21
86.7666
 31
0.0
  0
LINE
  8
2
  6
CONTINUOUS
 62
   140
  5
7A
 10
97.3671
 20
87.2616
 30
0.0
 11
97.3671
 21
86.7666
 31
0.0
  0
LINE
  8
2
  6
CONTINUOUS
 62
   140
  5
7B
 10
96.8972
 20
91.8548
 30
0.0
 11
96.8972
 21
91.7162
 31
0.0
  0
LINE
  8
2
  6
CONTINUOUS
 62
   140
  5
7C
 10
97.3682
 20
91.8548
 30
0.0
 11
97.3682
 21
91.8008
 31
0.0
  0
LINE
  8
2
  6
CONTINUOUS
 62
   140
  5
7D
 10
109.2722
 20
91.8548
 30
0.0
 11
109.2722
 21
91.7162
 31
0.0
  0
CIRCLE
  8
2
  6
CONTINUOUS
 62
   140
  5
7E
 10
109.350333
 20
87.199749
 30
0.0
 40
0.018563
210
0.0
220
0.0
230
1.0
  0
CIRCLE
  8
2
  6
CONTINUOUS
 62
   140
  5
7F
 10
109.350333
 20
87.088369
 30
0.0
 40
0.018563
210
0.0
220
0.0
230
1.0
  0
CIRCLE
  8
2
  6
CONTINUOUS
 62
   140
  5
80
 10
109.350333
 20
86.828481
 30
0.0
 40
0.018563
210
0.0
220
0.0
230
1.0
  0
CIRCLE
  8
2
  6
CONTINUOUS
 62
   140
  5
81
 10
109.350333
 20
86.939861
 30
0.0
 40
0.018563
210
0.0
220
0.0
230
1.0
  0
CIRCLE
  8
2
  6
CONTINUOUS
 62
   140
  5
82
 10
109.647348
 20
86.828481
 30
0.0
 40
0.018563
210
0.0
220
0.0
230
1.0
  0
CIRCLE
  8
2
  6
CONTINUOUS
 62
   140
  5
83
 10
109.647348
 20
86.939861
 30
0.0
 40
0.018563
210
0.0
220
0.0
230
1.0
  0
CIRCLE
  8
2
  6
CONTINUOUS
 62
   140
  5
84
 10
109.647348
 20
87.088369
 30
0.0
 40
0.018563
210
0.0
220
0.0
230
1.0
  0
CIRCLE
  8
2
  6
CONTINUOUS
 62
   140
  5
85
 10
109.647348
 20
87.199749
 30
0.0
 40
0.018563
210
0.0
220
0.0
230
1.0
  0
LINE
  8
2
  6
CONTINUOUS
 62
   140
  5
86
 10
121.7991
 20
86.264
 30
0.0
 11
121.7501
 21
86.264
 31
0.0
  0
LINE
  8
2
  6
CONTINUOUS
 62
   140
  5
87
 10
121.8681
 20
86.264
 30
0.0
 11
121.8258
 21
86.264
 31
0.0
  0
LINE
  8
2
  6
CONTINUOUS
 62
   140
  5
88
 10
121.9327
 20
86.264
 30
0.0
 11
121.8925
 21
86.264
 31
0.0
  0
LINE
  8
2
  6
CONTINUOUS
 62
   140
  5
89
 10
121.9976
 20
86.264
 30
0.0
 11
121.9638
 21
86.264
 31
0.0
  0
LINE
  8
2
  6
CONTINUOUS
 62
   140
  5
8A
 10
121.7991
 20
86.2791
 30
0.0
 11
121.7501
 21
86.2791
 31
0.0
  0
LINE
  8
2
  6
CONTINUOUS
 62
   140
  5
8B
 10
121.8681
 20
86.2791
 30
0.0
 11
121.8258
 21
86.2791
 31
0.0
  0
LINE
  8
2
  6
CONTINUOUS
 62
   140
  5
8C
 10
121.9327
 20
86.2791
 30
0.0
 11
121.8925
 21
86.2791
 31
0.0
  0
LINE
  8
2
  6
CONTINUOUS
 62
   140
  5
8D
 10
121.9976
 20
86.2791
 30
0.0
 11
121.9638
 21
86.2791
 31
0.0
  0
LINE
  8
2
  6
CONTINUOUS
 62
   140
  5
8E
 10
121.7991
 20
86.3165
 30
0.0
 11
121.7501
 21
86.3165
 31
0.0
  0
LINE
  8
2
  6
CONTINUOUS
 62
   140
  5
8F
 10
121.8681
 20
86.3165
 30
0.0
 11
121.8258
 21
86.3165
 31
0.0
  0
LINE
  8
2
  6
CONTINUOUS
 62
   140
  5
90
 10
121.9327
 20
86.3165
 30
0.0
 11
121.8925
 21
86.3165
 31
0.0
  0
LINE
  8
2
  6
CONTINUOUS
 62
   140
  5
91
 10
121.9976
 20
86.3165
 30
0.0
 11
121.9638
 21
86.3165
 31
0.0
  0
LINE
  8
2
  6
CONTINUOUS
 62
   140
  5
92
 10
121.7991
 20
86.3296
 30
0.0
 11
121.7501
 21
86.3296
 31
0.0
  0
LINE
  8
2
  6
CONTINUOUS
 62
   140
  5
93
 10
121.8681
 20
86.3296
 30
0.0
 11
121.8258
 21
86.3296
 31
0.0
  0
LINE
  8
2
  6
CONTINUOUS
 62
   140
  5
94
 10
121.9327
 20
86.3296
 30
0.0
 11
121.8925
 21
86.3296
 31
0.0
  0
LINE
  8
2
  6
CONTINUOUS
 62
   140
  5
95
 10
121.9976
 20
86.3296
 30
0.0
 11
121.9638
 21
86.3296
 31
0.0
  0
LINE
  8
2
  6
CONTINUOUS
 62
   140
  5
96
 10
120.6221
 20
86.7047
 30
0.0
 11
120.6233
 21
86.7011
 31
0.0
  0
LINE
  8
2
  6
CONTINUOUS
 62
   140
  5
97
 10
120.6963
 20
86.7047
 30
0.0
 11
120.708
 21
86.6695
 31
0.0
  0
LINE
  8
2
  6
CONTINUOUS
 62
   140
  5
98
 10
120.7827
 20
86.6683
 30
0.0
 11
120.7927
 21
86.6381
 31
0.0
  0
LINE
  8
2
  6
CONTINUOUS
 62
   140
  5
99
 10
120.8675
 20
86.6368
 30
0.0
 11
120.8775
 21
86.6067
 31
0.0
  0
LINE
  8
2
  6
CONTINUOUS
 62
   140
  5
9A
 10
120.9523
 20
86.6054
 30
0.0
 11
120.9623
 21
86.5752
 31
0.0
  0
LINE
  8
2
  6
CONTINUOUS
 62
   140
  5
9B
 10
121.037
 20
86.574
 30
0.0
 11
121.047
 21
86.5437
 31
0.0
  0
LINE
  8
2
  6
CONTINUOUS
 62
   140
  5
9C
 10
121.1217
 20
86.5425
 30
0.0
 11
121.1318
 21
86.5124
 31
0.0
  0
LINE
  8
2
  6
CONTINUOUS
 62
   140
  5
9D
 10
121.2064
 20
86.511
 30
0.0
 11
121.2165
 21
86.4809
 31
0.0
  0
LINE
  8
2
  6
CONTINUOUS
 62
   140
  5
9E
 10
121.2911
 20
86.4797
 30
0.0
 11
121.3012
 21
86.4494
 31
0.0
  0
LINE
  8
2
  6
CONTINUOUS
 62
   140
  5
9F
 10
121.3758
 20
86.4481
 30
0.0
 11
121.386
 21
86.418
 31
0.0
  0
LINE
  8
2
  6
CONTINUOUS
 62
   140
  5
A0
 10
121.4606
 20
86.4167
 30
0.0
 11
121.4707
 21
86.3866
 31
0.0
  0
LINE
  8
2
  6
CONTINUOUS
 62
   140
  5
A1
 10
121.5454
 20
86.3852
 30
0.0
 11
121.5554
 21
86.3551
 31
0.0
  0
LINE
  8
2
  6
CONTINUOUS
 62
   140
  5
A2
 10
121.6301
 20
86.3537
 30
0.0
 11
121.6401
 21
86.3237
 31
0.0
  0
LINE
  8
2
  6
CONTINUOUS
 62
   140
  5
A3
 10
121.7149
 20
86.3223
 30
0.0
 11
121.7249
 21
86.2922
 31
0.0
  0
LINE
  8
2
  6
HIDDEN
 62
   140
  5
A4
 10
120.4976
 20
86.7477
 30
0.0
 11
119.832
 21
86.9947
 31
0.0
  0
LINE
  8
2
  6
HIDDEN
 62
   140
  5
A5
 10
120.6344
 20
86.7234
 30
0.0
 11
119.832
 21
87.0212
 31
0.0
  0
LINE
  8
2
  6
CONTINUOUS
 62
   140
  5
A6
 10
121.7501
 20
86.3092
 30
0.0
 11
120.6845
 21
86.7047
 31
0.0
  0
LINE
  8
2
  6
CONTINUOUS
 62
   140
  5
A7
 10
121.7501
 20
86.2829
 30
0.0
 11
120.6134
 21
86.7047
 31
0.0
  0
LINE
  8
2
  6
CONTINUOUS
 62
   140
  5
A8
 10
122.0776
 20
86.2378
 30
0.0
 11
122.0662
 21
86.2378
 31
0.0
  0
LINE
  8
2
  6
CONTINUOUS
 62
   140
  5
A9
 10
122.0776
 20
86.3553
 30
0.0
 11
122.0489
 21
86.3553
 31
0.0
  0
LINE
  8
2
  6
CONTINUOUS
 62
   140
  5
AA
 10
122.1638
 20
86.2829
 30
0.0
 11
122.1638
 21
86.3077
 31
0.0
  0
LINE
  8
2
  6
CONTINUOUS
 62
   140
  5
AB
 10
122.1281
 20
86.331
 30
0.0
 11
122.1281
 21
86.2593
 31
0.0
  0
LINE
  8
2
  6
CONTINUOUS
 62
   140
  5
AC
 10
122.1281
 20
86.2593
 30
0.0
 11
122.0776
 21
86.2593
 31
0.0
  0
LINE
  8
2
  6
CONTINUOUS
 62
   140
  5
AD
 10
121.9976
 20
86.2829
 30
0.0
 11
122.0278
 21
86.2829
 31
0.0
  0
LINE
  8
2
  6
CONTINUOUS
 62
   140
  5
AE
 10
121.9976
 20
86.3077
 30
0.0
 11
122.0241
 21
86.3077
 31
0.0
  0
LINE
  8
2
  6
CONTINUOUS
 62
   140
  5
AF
 10
122.0776
 20
86.331
 30
0.0
 11
122.1281
 21
86.331
 31
0.0
  0
LINE
  8
2
  6
CONTINUOUS
 62
   140
  5
B0
 10
122.0776
 20
86.3553
 30
0.0
 11
122.0776
 21
86.2378
 31
0.0
  0
LINE
  8
2
  6
CONTINUOUS
 62
   140
  5
B1
 10
122.0291
 20
86.4905
 30
0.0
 11
121.998
 21
86.4859
 31
0.0
  0
LINE
  8
2
  6
CONTINUOUS
 62
   140
  5
B2
 10
122.0459
 20
86.1593
 30
0.0
 11
121.998
 21
86.4859
 31
0.0
  0
LINE
  8
2
  6
CONTINUOUS
 62
   140
  5
B3
 10
122.077
 20
86.1639
 30
0.0
 11
122.0459
 21
86.1593
 31
0.0
  0
LINE
  8
2
  6
CONTINUOUS
 62
   140
  5
B4
 10
122.0291
 20
86.4905
 30
0.0
 11
122.077
 21
86.1639
 31
0.0
  0
POLYLINE
  8
2
  6
CONTINUOUS
 62
   140
  5
B5
 66
     1
 10
0.0
 20
0.0
 30
0.0
 70
     1
  0
VERTEX
  8
2
  6
CONTINUOUS
 62
   140
  5
B6
 10
121.8467
 20
86.2011
 30
0.0
  0
VERTEX
  8
2
  6
CONTINUOUS
 62
   140
  5
B7
 10
121.8591
 20
86.2225
 30
0.0
  0
VERTEX
  8
2
  6
CONTINUOUS
 62
   140
  5
B8
 10
121.8838
 20
86.2225
 30
0.0
  0
VERTEX
  8
2
  6
CONTINUOUS
 62
   140
  5
B9
 10
121.8962
 20
86.2011
 30
0.0
  0
VERTEX
  8
2
  6
CONTINUOUS
 62
   140
  5
BA
 10
121.8838
 20
86.1797
 30
0.0
  0
VERTEX
  8
2
  6
CONTINUOUS
 62
   140
  5
BB
 10
121.8591
 20
86.1797
 30
0.0
  0
SEQEND
  8
2
  6
CONTINUOUS
 62
   140
  5
BC
  0
LINE
  8
2
  6
CONTINUOUS
 62
   140
  5
BD
 10
121.6691
 20
86.2543
 30
0.0
 11
121.6691
 21
86.1478
 31
0.0
  0
LINE
  8
2
  6
CONTINUOUS
 62
   140
  5
BE
 10
121.9597
 20
86.2543
 30
0.0
 11
121.9597
 21
86.1478
 31
0.0
  0
POLYLINE
  8
2
  6
CONTINUOUS
 62
   140
  5
BF
 66
     1
 10
0.0
 20
0.0
 30
0.0
 70
     1
  0
VERTEX
  8
2
  6
CONTINUOUS
 62
   140
  5
C0
 10
118.7553
 20
86.2011
 30
0.0
  0
VERTEX
  8
2
  6
CONTINUOUS
 62
   140
  5
C1
 10
118.7677
 20
86.2225
 30
0.0
  0
VERTEX
  8
2
  6
CONTINUOUS
 62
   140
  5
C2
 10
118.7925
 20
86.2225
 30
0.0
  0
VERTEX
  8
2
  6
CONTINUOUS
 62
   140
  5
C3
 10
118.8048
 20
86.2011
 30
0.0
  0
VERTEX
  8
2
  6
CONTINUOUS
 62
   140
  5
C4
 10
118.7925
 20
86.1797
 30
0.0
  0
VERTEX
  8
2
  6
CONTINUOUS
 62
   140
  5
C5
 10
118.7677
 20
86.1797
 30
0.0
  0
SEQEND
  8
2
  6
CONTINUOUS
 62
   140
  5
C6
  0
LINE
  8
2
  6
CONTINUOUS
 62
   140
  5
C7
 10
118.9774
 20
86.2543
 30
0.0
 11
118.9774
 21
86.1478
 31
0.0
  0
LINE
  8
2
  6
CONTINUOUS
 62
   140
  5
C8
 10
118.6954
 20
86.2543
 30
0.0
 11
118.6954
 21
86.1478
 31
0.0
  0
LINE
  8
2
  6
CONTINUOUS
 62
   140
  5
C9
 10
118.6954
 20
86.2543
 30
0.0
 11
121.9597
 21
86.2543
 31
0.0
  0
LINE
  8
2
  6
HIDDEN
 62
   140
  5
CA
 10
119.2008
 20
87.045
 30
0.0
 11
119.2008
 21
86.9831
 31
0.0
  0
LINE
  8
2
  6
HIDDEN
 62
   140
  5
CB
 10
119.2627
 20
86.9831
 30
0.0
 11
119.2008
 21
86.9831
 31
0.0
  0
LINE
  8
2
  6
HIDDEN
 62
   140
  5
CC
 10
119.2627
 20
86.9831
 30
0.0
 11
119.2627
 21
87.045
 31
0.0
  0
LINE
  8
2
  6
HIDDEN
 62
   140
  5
CD
 10
119.2627
 20
87.045
 30
0.0
 11
119.2008
 21
87.045
 31
0.0
  0
LINE
  8
2
  6
HIDDEN
 62
   140
  5
CE
 10
119.3097
 20
87.045
 30
0.0
 11
119.3097
 21
86.9831
 31
0.0
  0
LINE
  8
2
  6
HIDDEN
 62
   140
  5
CF
 10
119.3716
 20
86.9831
 30
0.0
 11
119.3097
 21
86.9831
 31
0.0
  0
LINE
  8
2
  6
HIDDEN
 62
   140
  5
D0
 10
119.3716
 20
86.9831
 30
0.0
 11
119.3716
 21
87.045
 31
0.0
  0
LINE
  8
2
  6
HIDDEN
 62
   140
  5
D1
 10
119.3716
 20
87.045
 30
0.0
 11
119.3097
 21
87.045
 31
0.0
  0
LINE
  8
2
  6
HIDDEN
 62
   140
  5
D2
 10
119.4186
 20
87.045
 30
0.0
 11
119.4186
 21
86.9831
 31
0.0
  0
LINE
  8
2
  6
HIDDEN
 62
   140
  5
D3
 10
119.4805
 20
86.9831
 30
0.0
 11
119.4186
 21
86.9831
 31
0.0
  0
LINE
  8
2
  6
HIDDEN
 62
   140
  5
D4
 10
119.4805
 20
86.9831
 30
0.0
 11
119.4805
 21
87.045
 31
0.0
  0
LINE
  8
2
  6
HIDDEN
 62
   140
  5
D5
 10
119.4805
 20
87.045
 30
0.0
 11
119.4186
 21
87.045
 31
0.0
  0
LINE
  8
2
  6
HIDDEN
 62
   140
  5
D6
 10
119.5275
 20
87.045
 30
0.0
 11
119.5275
 21
86.9831
 31
0.0
  0
LINE
  8
2
  6
HIDDEN
 62
   140
  5
D7
 10
119.5894
 20
86.9831
 30
0.0
 11
119.5275
 21
86.9831
 31
0.0
  0
LINE
  8
2
  6
HIDDEN
 62
   140
  5
D8
 10
119.5894
 20
86.9831
 30
0.0
 11
119.5894
 21
87.045
 31
0.0
  0
LINE
  8
2
  6
HIDDEN
 62
   140
  5
D9
 10
119.5894
 20
87.045
 30
0.0
 11
119.5275
 21
87.045
 31
0.0
  0
LINE
  8
2
  6
HIDDEN
 62
   140
  5
DA
 10
119.6364
 20
87.045
 30
0.0
 11
119.6364
 21
86.9831
 31
0.0
  0
LINE
  8
2
  6
HIDDEN
 62
   140
  5
DB
 10
119.6983
 20
86.9831
 30
0.0
 11
119.6364
 21
86.9831
 31
0.0
  0
LINE
  8
2
  6
HIDDEN
 62
   140
  5
DC
 10
119.6983
 20
86.9831
 30
0.0
 11
119.6983
 21
87.045
 31
0.0
  0
LINE
  8
2
  6
HIDDEN
 62
   140
  5
DD
 10
119.6983
 20
87.045
 30
0.0
 11
119.6364
 21
87.045
 31
0.0
  0
LINE
  8
2
  6
HIDDEN
 62
   140
  5
DE
 10
119.8072
 20
86.9831
 30
0.0
 11
119.7453
 21
86.9831
 31
0.0
  0
LINE
  8
2
  6
HIDDEN
 62
   140
  5
DF
 10
119.8072
 20
87.045
 30
0.0
 11
119.7453
 21
87.045
 31
0.0
  0
LINE
  8
2
  6
HIDDEN
 62
   140
  5
E0
 10
119.7453
 20
87.045
 30
0.0
 11
119.7453
 21
86.9831
 31
0.0
  0
LINE
  8
2
  6
HIDDEN
 62
   140
  5
E1
 10
119.8072
 20
86.9831
 30
0.0
 11
119.8072
 21
87.045
 31
0.0
  0
LINE
  8
2
  6
HIDDEN
 62
   140
  5
E2
 10
119.832
 20
86.9522
 30
0.0
 11
119.1513
 21
86.9522
 31
0.0
  0
LINE
  8
2
  6
HIDDEN
 62
   140
  5
E3
 10
119.832
 20
87.076
 30
0.0
 11
119.1513
 21
87.076
 31
0.0
  0
LINE
  8
2
  6
HIDDEN
 62
   140
  5
E4
 10
119.1513
 20
87.076
 30
0.0
 11
119.1513
 21
86.9522
 31
0.0
  0
LINE
  8
2
  6
CONTINUOUS
 62
   140
  5
E5
 10
119.8331
 20
91.8548
 30
0.0
 11
119.8331
 21
91.9166
 31
0.0
  0
LINE
  8
2
  6
CONTINUOUS
 62
   140
  5
E6
 10
121.9365
 20
86.5995
 30
0.0
 11
121.8112
 21
86.5995
 31
0.0
  0
LINE
  8
2
  6
CONTINUOUS
 62
   140
  5
E7
 10
121.9365
 20
86.6755
 30
0.0
 11
121.8112
 21
86.6755
 31
0.0
  0
POLYLINE
  8
2
  6
CONTINUOUS
 62
   140
  5
E8
 66
     1
 10
0.0
 20
0.0
 30
0.0
 70
     1
  0
VERTEX
  8
2
  6
CONTINUOUS
 62
   140
  5
E9
 10
121.8602
 20
86.6375
 30
0.0
  0
VERTEX
  8
2
  6
CONTINUOUS
 62
   140
  5
EA
 10
121.8671
 20
86.6256
 30
0.0
  0
VERTEX
  8
2
  6
CONTINUOUS
 62
   140
  5
EB
 10
121.8807
 20
86.6256
 30
0.0
  0
VERTEX
  8
2
  6
CONTINUOUS
 62
   140
  5
EC
 10
121.8875
 20
86.6375
 30
0.0
  0
VERTEX
  8
2
  6
CONTINUOUS
 62
   140
  5
ED
 10
121.8807
 20
86.6494
 30
0.0
  0
VERTEX
  8
2
  6
CONTINUOUS
 62
   140
  5
EE
 10
121.8671
 20
86.6494
 30
0.0
  0
SEQEND
  8
2
  6
CONTINUOUS
 62
   140
  5
EF
  0
POLYLINE
  8
2
  6
CONTINUOUS
 62
   140
  5
F0
 66
     1
 10
0.0
 20
0.0
 30
0.0
 70
     1
  0
VERTEX
  8
2
  6
CONTINUOUS
 62
   140
  5
F1
 10
121.8602
 20
87.3907
 30
0.0
  0
VERTEX
  8
2
  6
CONTINUOUS
 62
   140
  5
F2
 10
121.8671
 20
87.4026
 30
0.0
  0
VERTEX
  8
2
  6
CONTINUOUS
 62
   140
  5
F3
 10
121.8807
 20
87.4026
 30
0.0
  0
VERTEX
  8
2
  6
CONTINUOUS
 62
   140
  5
F4
 10
121.8875
 20
87.3907
 30
0.0
  0
VERTEX
  8
2
  6
CONTINUOUS
 62
   140
  5
F5
 10
121.8807
 20
87.3788
 30
0.0
  0
VERTEX
  8
2
  6
CONTINUOUS
 62
   140
  5
F6
 10
121.8671
 20
87.3788
 30
0.0
  0
SEQEND
  8
2
  6
CONTINUOUS
 62
   140
  5
F7
  0
LINE
  8
2
  6
CONTINUOUS
 62
   140
  5
F8
 10
121.9365
 20
87.3527
 30
0.0
 11
121.8112
 21
87.3527
 31
0.0
  0
LINE
  8
2
  6
CONTINUOUS
 62
   140
  5
F9
 10
121.9365
 20
87.4287
 30
0.0
 11
121.8112
 21
87.4287
 31
0.0
  0
LINE
  8
2
  6
CONTINUOUS
 62
   140
  5
FA
 10
120.6531
 20
87.3049
 30
0.0
 11
120.6531
 21
86.7234
 31
0.0
  0
LINE
  8
2
  6
CONTINUOUS
 62
   140
  5
FB
 10
120.4483
 20
86.6545
 30
0.0
 11
120.435
 21
86.6679
 31
0.0
  0
LINE
  8
2
  6
CONTINUOUS
 62
   140
  5
FC
 10
120.435
 20
86.6679
 30
0.0
 11
120.5126
 21
86.7666
 31
0.0
  0
LINE
  8
2
  6
CONTINUOUS
 62
   140
  5
FD
 10
120.5126
 20
86.7234
 30
0.0
 11
120.4483
 21
86.6545
 31
0.0
  0
LINE
  8
2
  6
CONTINUOUS
 62
   140
  5
FE
 10
120.5126
 20
86.7234
 30
0.0
 11
120.6531
 21
86.7234
 31
0.0
  0
LINE
  8
2
  6
CONTINUOUS
 62
   140
  5
FF
 10
120.5126
 20
87.3049
 30
0.0
 11
120.6531
 21
87.3049
 31
0.0
  0
LINE
  8
2
  6
CONTINUOUS
 62
   140
  5
100
 10
120.435
 20
87.3603
 30
0.0
 11
120.5126
 21
87.2616
 31
0.0
  0
LINE
  8
2
  6
CONTINUOUS
 62
   140
  5
101
 10
120.4483
 20
87.3737
 30
0.0
 11
120.435
 21
87.3603
 31
0.0
  0
LINE
  8
2
  6
CONTINUOUS
 62
   140
  5
102
 10
120.5126
 20
87.3049
 30
0.0
 11
120.4483
 21
87.3737
 31
0.0
  0
LINE
  8
2
  6
CONTINUOUS
 62
   140
  5
103
 10
121.7501
 20
86.7047
 30
0.0
 11
121.7501
 21
86.2543
 31
0.0
  0
LINE
  8
2
  6
CONTINUOUS
 62
   140
  5
104
 10
121.9976
 20
87.341
 30
0.0
 11
121.9976
 21
87.4416
 31
0.0
  0
LINE
  8
2
  6
CONTINUOUS
 62
   140
  5
105
 10
120.6531
 20
86.8059
 30
0.0
 11
121.9365
 21
86.8059
 31
0.0
  0
LINE
  8
2
  6
CONTINUOUS
 62
   140
  5
106
 10
120.6531
 20
87.2223
 30
0.0
 11
121.9365
 21
87.2223
 31
0.0
  0
LINE
  8
2
  6
CONTINUOUS
 62
   140
  5
107
 10
122.3688
 20
86.581
 30
0.0
 11
121.9365
 21
86.7047
 31
0.0
  0
LINE
  8
2
  6
CONTINUOUS
 62
   140
  5
108
 10
122.3688
 20
87.4472
 30
0.0
 11
121.9365
 21
87.3235
 31
0.0
  0
LINE
  8
2
  6
CONTINUOUS
 62
   140
  5
109
 10
120.5126
 20
87.3235
 30
0.0
 11
120.5126
 21
86.7047
 31
0.0
  0
LINE
  8
2
  6
CONTINUOUS
 62
   140
  5
10A
 10
120.5126
 20
86.7047
 30
0.0
 11
121.9365
 21
86.7047
 31
0.0
  0
LINE
  8
2
  6
CONTINUOUS
 62
   140
  5
10B
 10
120.5126
 20
87.3235
 30
0.0
 11
121.9365
 21
87.3235
 31
0.0
  0
LINE
  8
2
  6
CONTINUOUS
 62
   140
  5
10C
 10
122.7079
 20
87.4472
 30
0.0
 11
122.7079
 21
86.581
 31
0.0
  0
LINE
  8
2
  6
CONTINUOUS
 62
   140
  5
10D
 10
122.6782
 20
87.4472
 30
0.0
 11
122.6782
 21
86.581
 31
0.0
  0
LINE
  8
2
  6
CONTINUOUS
 62
   140
  5
10E
 10
121.9365
 20
87.3235
 30
0.0
 11
121.9365
 21
86.7047
 31
0.0
  0
LINE
  8
2
  6
CONTINUOUS
 62
   140
  5
10F
 10
122.1867
 20
87.395
 30
0.0
 11
122.1867
 21
86.6332
 31
0.0
  0
LINE
  8
2
  6
CONTINUOUS
 62
   140
  5
110
 10
122.3688
 20
87.4472
 30
0.0
 11
122.3688
 21
86.581
 31
0.0
  0
LINE
  8
2
  6
CONTINUOUS
 62
   140
  5
111
 10
122.802
 20
87.4472
 30
0.0
 11
122.802
 21
86.581
 31
0.0
  0
LINE
  8
2
  6
CONTINUOUS
 62
   140
  5
112
 10
122.3688
 20
86.581
 30
0.0
 11
122.802
 21
86.581
 31
0.0
  0
LINE
  8
2
  6
CONTINUOUS
 62
   140
  5
113
 10
122.3688
 20
87.4472
 30
0.0
 11
122.802
 21
87.4472
 31
0.0
  0
LINE
  8
2
  6
CONTINUOUS
 62
   140
  5
114
 10
122.1405
 20
92.0254
 30
0.0
 11
122.1405
 21
92.0502
 31
0.0
  0
LINE
  8
2
  6
CONTINUOUS
 62
   140
  5
115
 10
122.1047
 20
92.0018
 30
0.0
 11
122.0543
 21
92.0018
 31
0.0
  0
LINE
  8
2
  6
CONTINUOUS
 62
   140
  5
116
 10
122.1047
 20
92.0736
 30
0.0
 11
122.1047
 21
92.0018
 31
0.0
  0
LINE
  8
2
  6
CONTINUOUS
 62
   140
  5
117
 10
122.0543
 20
92.0736
 30
0.0
 11
122.1047
 21
92.0736
 31
0.0
  0
LINE
  8
2
  6
CONTINUOUS
 62
   140
  5
118
 10
122.0543
 20
92.0978
 30
0.0
 11
122.0543
 21
91.9804
 31
0.0
  0
LINE
  8
2
  6
CONTINUOUS
 62
   140
  5
119
 10
122.0393
 20
91.9804
 30
0.0
 11
122.0543
 21
91.9804
 31
0.0
  0
LINE
  8
2
  6
CONTINUOUS
 62
   140
  5
11A
 10
122.0393
 20
92.0978
 30
0.0
 11
122.0543
 21
92.0978
 31
0.0
  0
LINE
  8
2
  6
CONTINUOUS
 62
   140
  5
11B
 10
119.8586
 20
91.9049
 30
0.0
 11
119.871
 21
91.881
 31
0.0
  0
LINE
  8
2
  6
CONTINUOUS
 62
   140
  5
11C
 10
119.93
 20
91.9104
 30
0.0
 11
119.9424
 21
91.8865
 31
0.0
  0
LINE
  8
2
  6
CONTINUOUS
 62
   140
  5
11D
 10
120.0014
 20
91.9158
 30
0.0
 11
120.0138
 21
91.8919
 31
0.0
  0
LINE
  8
2
  6
CONTINUOUS
 62
   140
  5
11E
 10
120.0728
 20
91.9214
 30
0.0
 11
120.0844
 21
91.8992
 31
0.0
  0
LINE
  8
2
  6
CONTINUOUS
 62
   140
  5
11F
 10
120.1442
 20
91.9268
 30
0.0
 11
120.1586
 21
91.8992
 31
0.0
  0
LINE
  8
2
  6
CONTINUOUS
 62
   140
  5
120
 10
120.2156
 20
91.9323
 30
0.0
 11
120.228
 21
91.9084
 31
0.0
  0
LINE
  8
2
  6
CONTINUOUS
 62
   140
  5
121
 10
120.287
 20
91.9377
 30
0.0
 11
120.2994
 21
91.9139
 31
0.0
  0
LINE
  8
2
  6
CONTINUOUS
 62
   140
  5
122
 10
120.3583
 20
91.9432
 30
0.0
 11
120.3708
 21
91.9194
 31
0.0
  0
LINE
  8
2
  6
CONTINUOUS
 62
   140
  5
123
 10
120.4298
 20
91.9487
 30
0.0
 11
120.4422
 21
91.9249
 31
0.0
  0
LINE
  8
2
  6
CONTINUOUS
 62
   140
  5
124
 10
120.5012
 20
91.9542
 30
0.0
 11
120.5136
 21
91.9304
 31
0.0
  0
LINE
  8
2
  6
CONTINUOUS
 62
   140
  5
125
 10
120.5726
 20
91.9597
 30
0.0
 11
120.5849
 21
91.9358
 31
0.0
  0
LINE
  8
2
  6
CONTINUOUS
 62
   140
  5
126
 10
120.644
 20
91.9652
 30
0.0
 11
120.6564
 21
91.9413
 31
0.0
  0
LINE
  8
2
  6
CONTINUOUS
 62
   140
  5
127
 10
120.7154
 20
91.9707
 30
0.0
 11
120.7279
 21
91.9467
 31
0.0
  0
LINE
  8
2
  6
CONTINUOUS
 62
   140
  5
128
 10
120.7867
 20
91.9761
 30
0.0
 11
120.7992
 21
91.9522
 31
0.0
  0
LINE
  8
2
  6
CONTINUOUS
 62
   140
  5
129
 10
120.8581
 20
91.9817
 30
0.0
 11
120.8706
 21
91.9578
 31
0.0
  0
LINE
  8
2
  6
CONTINUOUS
 62
   140
  5
12A
 10
120.9296
 20
91.9871
 30
0.0
 11
120.942
 21
91.9632
 31
0.0
  0
LINE
  8
2
  6
CONTINUOUS
 62
   140
  5
12B
 10
121.001
 20
91.9926
 30
0.0
 11
121.0133
 21
91.9687
 31
0.0
  0
LINE
  8
2
  6
CONTINUOUS
 62
   140
  5
12C
 10
121.0724
 20
91.998
 30
0.0
 11
121.0848
 21
91.9742
 31
0.0
  0
LINE
  8
2
  6
CONTINUOUS
 62
   140
  5
12D
 10
121.1438
 20
92.0035
 30
0.0
 11
121.1562
 21
91.9797
 31
0.0
  0
LINE
  8
2
  6
CONTINUOUS
 62
   140
  5
12E
 10
121.2151
 20
92.009
 30
0.0
 11
121.2275
 21
91.9851
 31
0.0
  0
LINE
  8
2
  6
CONTINUOUS
 62
   140
  5
12F
 10
121.2866
 20
92.0145
 30
0.0
 11
121.299
 21
91.9907
 31
0.0
  0
LINE
  8
2
  6
CONTINUOUS
 62
   140
  5
130
 10
121.358
 20
92.0199
 30
0.0
 11
121.3704
 21
91.9961
 31
0.0
  0
LINE
  8
2
  6
CONTINUOUS
 62
   140
  5
131
 10
121.4293
 20
92.0255
 30
0.0
 11
121.4417
 21
92.0016
 31
0.0
  0
LINE
  8
2
  6
CONTINUOUS
 62
   140
  5
132
 10
121.5007
 20
92.031
 30
0.0
 11
121.5132
 21
92.007
 31
0.0
  0
LINE
  8
2
  6
CONTINUOUS
 62
   140
  5
133
 10
121.5721
 20
92.0364
 30
0.0
 11
121.5846
 21
92.0125
 31
0.0
  0
LINE
  8
2
  6
CONTINUOUS
 62
   140
  5
134
 10
121.6435
 20
92.042
 30
0.0
 11
121.6559
 21
92.018
 31
0.0
  0
LINE
  8
2
  6
CONTINUOUS
 62
   140
  5
135
 10
121.715
 20
92.0474
 30
0.0
 11
121.7273
 21
92.0235
 31
0.0
  0
LINE
  8
2
  6
CONTINUOUS
 62
   140
  5
136
 10
121.1182
 20
91.9768
 30
0.0
 11
121.673
 21
91.9175
 31
0.0
  0
LINE
  8
2
  6
CONTINUOUS
 62
   140
  5
137
 10
118.9841
 20
92.2046
 30
0.0
 11
120.9829
 21
91.9912
 31
0.0
  0
LINE
  8
2
  6
CONTINUOUS
 62
   140
  5
138
 10
118.9841
 20
92.4534
 30
0.0
 11
121.673
 21
92.1664
 31
0.0
  0
LINE
  8
2
  6
CONTINUOUS
 62
   140
  5
139
 10
121.9628
 20
92.273
 30
0.0
 11
121.9628
 21
92.2334
 31
0.0
  0
LINE
  8
2
  6
CONTINUOUS
 62
   140
  5
13A
 10
121.673
 20
92.0194
 30
0.0
 11
121.673
 21
91.8845
 31
0.0
  0
LINE
  8
2
  6
CONTINUOUS
 62
   140
  5
13B
 10
121.7126
 20
92.0224
 30
0.0
 11
121.7126
 21
91.8845
 31
0.0
  0
LINE
  8
2
  6
CONTINUOUS
 62
   140
  5
13C
 10
121.9628
 20
92.273
 30
0.0
 11
121.673
 21
92.273
 31
0.0
  0
LINE
  8
2
  6
CONTINUOUS
 62
   140
  5
13D
 10
121.673
 20
92.273
 30
0.0
 11
121.673
 21
92.0442
 31
0.0
  0
LINE
  8
2
  6
CONTINUOUS
 62
   140
  5
13E
 10
121.9368
 20
91.8638
 30
0.0
 11
121.8131
 21
91.8638
 31
0.0
  0
LINE
  8
2
  6
CONTINUOUS
 62
   140
  5
13F
 10
122.0393
 20
91.8735
 30
0.0
 11
122.0393
 21
92.2334
 31
0.0
  0
LINE
  8
2
  6
CONTINUOUS
 62
   140
  5
140
 10
121.7126
 20
92.2334
 30
0.0
 11
121.7126
 21
92.0472
 31
0.0
  0
LINE
  8
2
  6
CONTINUOUS
 62
   140
  5
141
 10
122.0393
 20
92.2334
 30
0.0
 11
121.7126
 21
92.2334
 31
0.0
  0
LINE
  8
2
  6
CONTINUOUS
 62
   140
  5
142
 10
118.9841
 20
92.0849
 30
0.0
 11
118.9049
 21
92.0849
 31
0.0
  0
LINE
  8
2
  6
CONTINUOUS
 62
   140
  5
143
 10
118.6886
 20
92.5526
 30
0.0
 11
118.6886
 21
92.513
 31
0.0
  0
LINE
  8
2
  6
CONTINUOUS
 62
   140
  5
144
 10
118.6886
 20
92.5526
 30
0.0
 11
118.9841
 21
92.5526
 31
0.0
  0
LINE
  8
2
  6
CONTINUOUS
 62
   140
  5
145
 10
118.9841
 20
92.5526
 30
0.0
 11
118.9841
 21
92.0849
 31
0.0
  0
LINE
  8
2
  6
CONTINUOUS
 62
   140
  5
146
 10
119.8331
 20
91.9029
 30
0.0
 11
121.7522
 21
92.0502
 31
0.0
  0
LINE
  8
2
  6
CONTINUOUS
 62
   140
  5
147
 10
119.8331
 20
91.8781
 30
0.0
 11
121.7522
 21
92.0254
 31
0.0
  0
LINE
  8
2
  6
HIDDEN
 62
   140
  5
148
 10
122.0543
 20
92.0254
 30
0.0
 11
122.1047
 21
92.0254
 31
0.0
  0
LINE
  8
2
  6
CONTINUOUS
 62
   140
  5
149
 10
122.1047
 20
92.0502
 30
0.0
 11
122.1405
 21
92.0502
 31
0.0
  0
LINE
  8
2
  6
CONTINUOUS
 62
   140
  5
14A
 10
119.2019
 20
91.8548
 30
0.0
 11
119.2462
 21
91.8106
 31
0.0
  0
LINE
  8
2
  6
CONTINUOUS
 62
   140
  5
14B
 10
119.2638
 20
91.8106
 30
0.0
 11
119.2462
 21
91.8106
 31
0.0
  0
LINE
  8
2
  6
CONTINUOUS
 62
   140
  5
14C
 10
119.2638
 20
91.8106
 30
0.0
 11
119.2638
 21
91.8548
 31
0.0
  0
LINE
  8
2
  6
CONTINUOUS
 62
   140
  5
14D
 10
119.3108
 20
91.8548
 30
0.0
 11
119.3551
 21
91.8106
 31
0.0
  0
LINE
  8
2
  6
CONTINUOUS
 62
   140
  5
14E
 10
119.3727
 20
91.8106
 30
0.0
 11
119.3551
 21
91.8106
 31
0.0
  0
LINE
  8
2
  6
CONTINUOUS
 62
   140
  5
14F
 10
119.3727
 20
91.8106
 30
0.0
 11
119.3727
 21
91.8548
 31
0.0
  0
LINE
  8
2
  6
CONTINUOUS
 62
   140
  5
150
 10
119.4197
 20
91.8548
 30
0.0
 11
119.464
 21
91.8106
 31
0.0
  0
LINE
  8
2
  6
CONTINUOUS
 62
   140
  5
151
 10
119.4816
 20
91.8106
 30
0.0
 11
119.464
 21
91.8106
 31
0.0
  0
LINE
  8
2
  6
CONTINUOUS
 62
   140
  5
152
 10
119.4816
 20
91.8106
 30
0.0
 11
119.4816
 21
91.8548
 31
0.0
  0
LINE
  8
2
  6
CONTINUOUS
 62
   140
  5
153
 10
119.5286
 20
91.8548
 30
0.0
 11
119.5729
 21
91.8106
 31
0.0
  0
LINE
  8
2
  6
CONTINUOUS
 62
   140
  5
154
 10
119.5905
 20
91.8106
 30
0.0
 11
119.5729
 21
91.8106
 31
0.0
  0
LINE
  8
2
  6
CONTINUOUS
 62
   140
  5
155
 10
119.5905
 20
91.8106
 30
0.0
 11
119.5905
 21
91.8548
 31
0.0
  0
LINE
  8
2
  6
CONTINUOUS
 62
   140
  5
156
 10
119.6375
 20
91.8548
 30
0.0
 11
119.6818
 21
91.8106
 31
0.0
  0
LINE
  8
2
  6
CONTINUOUS
 62
   140
  5
157
 10
119.6994
 20
91.8106
 30
0.0
 11
119.6818
 21
91.8106
 31
0.0
  0
LINE
  8
2
  6
CONTINUOUS
 62
   140
  5
158
 10
119.6994
 20
91.8106
 30
0.0
 11
119.6994
 21
91.8548
 31
0.0
  0
LINE
  8
2
  6
CONTINUOUS
 62
   140
  5
159
 10
119.8083
 20
91.8106
 30
0.0
 11
119.7907
 21
91.8106
 31
0.0
  0
LINE
  8
2
  6
CONTINUOUS
 62
   140
  5
15A
 10
119.8083
 20
91.8106
 30
0.0
 11
119.8083
 21
91.8548
 31
0.0
  0
LINE
  8
2
  6
CONTINUOUS
 62
   140
  5
15B
 10
119.7464
 20
91.8548
 30
0.0
 11
119.7907
 21
91.8106
 31
0.0
  0
LINE
  8
2
  6
CONTINUOUS
 62
   140
  5
15C
 10
119.1524
 20
91.9166
 30
0.0
 11
119.1524
 21
91.8548
 31
0.0
  0
LINE
  8
2
  6
CONTINUOUS
 62
   140
  5
15D
 10
119.8331
 20
91.9166
 30
0.0
 11
119.1524
 21
91.9166
 31
0.0
  0
LINE
  8
2
  6
HIDDEN
 62
   140
  5
15E
 10
119.832
 20
86.9522
 30
0.0
 11
119.832
 21
87.076
 31
0.0
  0
LINE
  8
2
  6
CONTINUOUS
 62
   140
  5
15F
 10
121.9368
 20
91.8138
 30
0.0
 11
121.8131
 21
91.8138
 31
0.0
  0
LINE
  8
2
  6
CONTINUOUS
 62
   140
  5
160
 10
121.9997
 20
91.8845
 30
0.0
 11
121.7522
 21
92.1938
 31
0.0
  0
LINE
  8
2
  6
CONTINUOUS
 62
   140
  5
161
 10
121.9997
 20
92.1938
 30
0.0
 11
121.7522
 21
91.8845
 31
0.0
  0
LINE
  8
2
  6
CONTINUOUS
 62
   140
  5
162
 10
121.7522
 20
92.1938
 30
0.0
 11
121.7522
 21
91.8845
 31
0.0
  0
LINE
  8
2
  6
CONTINUOUS
 62
   140
  5
163
 10
121.9997
 20
91.8845
 30
0.0
 11
121.9997
 21
92.2334
 31
0.0
  0
LINE
  8
2
  6
CONTINUOUS
 62
   140
  5
164
 10
121.9997
 20
92.1938
 30
0.0
 11
121.7522
 21
92.1938
 31
0.0
  0
LINE
  8
2
  6
CONTINUOUS
 62
   140
  5
165
 10
122.214
 20
91.8799
 30
0.0
 11
122.214
 21
92.0438
 31
0.0
  0
LINE
  8
2
  6
CONTINUOUS
 62
   140
  5
166
 10
122.214
 20
92.0438
 30
0.0
 11
122.4393
 21
92.0438
 31
0.0
  0
LINE
  8
2
  6
CONTINUOUS
 62
   140
  5
167
 10
120.6374
 20
91.6865
 30
0.0
 11
120.6374
 21
91.6568
 31
0.0
  0
LINE
  8
2
  6
CONTINUOUS
 62
   140
  5
168
 10
120.6374
 20
91.9142
 30
0.0
 11
120.6374
 21
91.8845
 31
0.0
  0
LINE
  8
2
  6
CONTINUOUS
 62
   140
  5
169
 10
120.5137
 20
91.6568
 30
0.0
 11
120.6374
 21
91.6568
 31
0.0
  0
LINE
  8
2
  6
CONTINUOUS
 62
   140
  5
16A
 10
120.484
 20
91.8845
 30
0.0
 11
120.484
 21
91.6865
 31
0.0
  0
LINE
  8
2
  6
CONTINUOUS
 62
   140
  5
16B
 10
120.5137
 20
91.9142
 30
0.0
 11
120.6374
 21
91.9142
 31
0.0
  0
LINE
  8
2
  6
CONTINUOUS
 62
   140
  5
16C
 10
122.709
 20
92.2185
 30
0.0
 11
122.709
 21
91.3523
 31
0.0
  0
LINE
  8
2
  6
CONTINUOUS
 62
   140
  5
16D
 10
122.8031
 20
91.3523
 30
0.0
 11
122.6793
 21
91.3523
 31
0.0
  0
LINE
  8
2
  6
CONTINUOUS
 62
   140
  5
16E
 10
122.8031
 20
92.2185
 30
0.0
 11
122.6793
 21
92.2185
 31
0.0
  0
LINE
  8
2
  6
CONTINUOUS
 62
   140
  5
16F
 10
122.8031
 20
92.2185
 30
0.0
 11
122.8031
 21
91.3523
 31
0.0
  0
LINE
  8
2
  6
CONTINUOUS
 62
   140
  5
170
 10
122.1843
 20
91.7126
 30
0.0
 11
121.9368
 21
91.6865
 31
0.0
  0
LINE
  8
2
  6
CONTINUOUS
 62
   140
  5
171
 10
122.1843
 20
91.8582
 30
0.0
 11
121.9368
 21
91.8845
 31
0.0
  0
LINE
  8
2
  6
CONTINUOUS
 62
   140
  5
172
 10
122.6793
 20
91.3523
 30
0.0
 11
122.1843
 21
91.7126
 31
0.0
  0
LINE
  8
2
  6
CONTINUOUS
 62
   140
  5
173
 10
122.6793
 20
92.2185
 30
0.0
 11
122.1843
 21
91.8582
 31
0.0
  0
LINE
  8
2
  6
CONTINUOUS
 62
   140
  5
174
 10
122.6793
 20
92.2185
 30
0.0
 11
122.6793
 21
91.3523
 31
0.0
  0
LINE
  8
2
  6
CONTINUOUS
 62
   140
  5
175
 10
120.5137
 20
91.9142
 30
0.0
 11
120.5137
 21
91.6568
 31
0.0
  0
LINE
  8
2
  6
CONTINUOUS
 62
   140
  5
176
 10
121.9368
 20
91.8845
 30
0.0
 11
121.9368
 21
91.6865
 31
0.0
  0
LINE
  8
2
  6
CONTINUOUS
 62
   140
  5
177
 10
120.484
 20
91.6865
 30
0.0
 11
121.9368
 21
91.6865
 31
0.0
  0
LINE
  8
2
  6
CONTINUOUS
 62
   140
  5
178
 10
120.484
 20
91.8845
 30
0.0
 11
121.9997
 21
91.8845
 31
0.0
  0
CIRCLE
  8
2
  6
CONTINUOUS
 62
   140
  5
179
 10
97.272348
 20
87.199749
 30
0.0
 40
0.018563
210
0.0
220
0.0
230
1.0
  0
CIRCLE
  8
2
  6
CONTINUOUS
 62
   140
  5
17A
 10
97.272348
 20
87.088369
 30
0.0
 40
0.018563
210
0.0
220
0.0
230
1.0
  0
CIRCLE
  8
2
  6
CONTINUOUS
 62
   140
  5
17B
 10
97.272348
 20
86.939861
 30
0.0
 40
0.018563
210
0.0
220
0.0
230
1.0
  0
CIRCLE
  8
2
  6
CONTINUOUS
 62
   140
  5
17C
 10
97.272348
 20
86.828481
 30
0.0
 40
0.018563
210
0.0
220
0.0
230
1.0
  0
CIRCLE
  8
2
  6
CONTINUOUS
 62
   140
  5
17D
 10
96.975333
 20
86.939861
 30
0.0
 40
0.018563
210
0.0
220
0.0
230
1.0
  0
CIRCLE
  8
2
  6
CONTINUOUS
 62
   140
  5
17E
 10
96.975333
 20
86.828481
 30
0.0
 40
0.018563
210
0.0
220
0.0
230
1.0
  0
CIRCLE
  8
2
  6
CONTINUOUS
 62
   140
  5
17F
 10
96.975333
 20
87.088369
 30
0.0
 40
0.018563
210
0.0
220
0.0
230
1.0
  0
CIRCLE
  8
2
  6
CONTINUOUS
 62
   140
  5
180
 10
96.975333
 20
87.199749
 30
0.0
 40
0.018563
210
0.0
220
0.0
230
1.0
  0
CIRCLE
  8
2
  6
CONTINUOUS
 62
   140
  5
181
 10
97.123841
 20
87.014115
 30
0.0
 40
0.018563
210
0.0
220
0.0
230
1.0
  0
LINE
  8
2
  6
CONTINUOUS
 62
   140
  5
182
 10
121.9976
 20
86.2157
 30
0.0
 11
121.9976
 21
86.6872
 31
0.0
  0
LINE
  8
2
  6
CONTINUOUS
 62
   140
  5
183
 10
121.9597
 20
86.2157
 30
0.0
 11
122.0372
 21
86.2157
 31
0.0
  0
LINE
  8
2
  6
CONTINUOUS
 62
   140
  5
184
 10
122.0372
 20
86.2157
 30
0.0
 11
122.0372
 21
86.1478
 31
0.0
  0
LINE
  8
2
  6
CONTINUOUS
 62
   140
  5
185
 10
121.7501
 20
87.4416
 30
0.0
 11
121.7501
 21
87.3235
 31
0.0
  0
LINE
  8
2
  6
DASHED
 62
   140
  5
186
 10
121.7105
 20
83.9882
 30
0.0
 11
122.0372
 21
83.9882
 31
0.0
  0
LINE
  8
2
  6
DASHED
 62
   140
  5
187
 10
122.0372
 20
86.1047
 30
0.0
 11
122.0372
 21
83.9882
 31
0.0
  0
LINE
  8
2
  6
DASHED
 62
   140
  5
188
 10
121.7105
 20
86.1076
 30
0.0
 11
121.7105
 21
83.9882
 31
0.0
  0
LINE
  8
2
  6
DASHED
 62
   140
  5
189
 10
121.7501
 20
85.5969
 30
0.0
 11
121.9976
 21
85.5969
 31
0.0
  0
LINE
  8
2
  6
CONTINUOUS
 62
   140
  5
18A
 10
121.9976
 20
86.2157
 30
0.0
 11
121.9976
 21
86.171
 31
0.0
  0
LINE
  8
2
  6
DASHED
 62
   140
  5
18B
 10
121.9976
 20
86.1307
 30
0.0
 11
121.9976
 21
85.5969
 31
0.0
  0
LINE
  8
2
  6
DASHED
 62
   140
  5
18C
 10
121.7501
 20
86.1307
 30
0.0
 11
121.7501
 21
85.5969
 31
0.0
  0
LINE
  8
2
  6
CONTINUOUS
 62
   140
  5
18D
 10
121.6709
 20
85.6528
 30
0.0
 11
121.7105
 21
85.6528
 31
0.0
  0
LINE
  8
2
  6
CONTINUOUS
 62
   140
  5
18E
 10
121.6709
 20
84.9103
 30
0.0
 11
121.7105
 21
84.9103
 31
0.0
  0
LINE
  8
2
  6
DASHED
 62
   140
  5
18F
 10
121.6709
 20
85.6528
 30
0.0
 11
121.6709
 21
84.9103
 31
0.0
  0
LINE
  8
2
  6
DASHED
 62
   140
  5
190
 10
97.0355
 20
86.0787
 30
0.0
 11
97.0355
 21
84.3535
 31
0.0
  0
LINE
  8
2
  6
DASHED
 62
   140
  5
191
 10
97.2121
 20
86.0868
 30
0.0
 11
97.2121
 21
84.3535
 31
0.0
  0
LINE
  8
2
  6
DASHED
 62
   140
  5
192
 10
97.0355
 20
84.3535
 30
0.0
 11
97.1005
 21
84.3535
 31
0.0
  0
LINE
  8
2
  6
CONTINUOUS
 62
   140
  5
193
 10
97.2121
 20
86.7666
 30
0.0
 11
97.2121
 21
86.1478
 31
0.0
  0
LINE
  8
2
  6
CONTINUOUS
 62
   140
  5
194
 10
97.0355
 20
86.7666
 30
0.0
 11
97.0355
 21
86.1478
 31
0.0
  0
LINE
  8
2
  6
CONTINUOUS
 62
   140
  5
195
 10
97.0355
 20
87.3235
 30
0.0
 11
97.0355
 21
87.2616
 31
0.0
  0
LINE
  8
2
  6
CONTINUOUS
 62
   140
  5
196
 10
97.2121
 20
87.3235
 30
0.0
 11
97.2121
 21
87.2616
 31
0.0
  0
LINE
  8
2
  6
CONTINUOUS
 62
   140
  5
197
 10
97.0355
 20
87.3235
 30
0.0
 11
97.2121
 21
87.3235
 31
0.0
  0
LINE
  8
2
  6
CONTINUOUS
 62
   140
  5
198
 10
100.3413
 20
86.2328
 30
0.0
 11
100.3413
 21
86.7666
 31
0.0
  0
LINE
  8
2
  6
CONTINUOUS
 62
   140
  5
199
 10
100.0938
 20
87.3235
 30
0.0
 11
100.3413
 21
87.3235
 31
0.0
  0
LINE
  8
2
  6
CONTINUOUS
 62
   140
  5
19A
 10
100.0938
 20
87.3235
 30
0.0
 11
100.0938
 21
87.2616
 31
0.0
  0
LINE
  8
2
  6
CONTINUOUS
 62
   140
  5
19B
 10
100.3413
 20
87.2616
 30
0.0
 11
100.3413
 21
87.3235
 31
0.0
  0
LINE
  8
2
  6
CONTINUOUS
 62
   140
  5
19C
 10
100.0938
 20
86.7666
 30
0.0
 11
100.0938
 21
86.2328
 31
0.0
  0
LINE
  8
11
  6
DASHED
 62
    40
  5
19D
 10
100.3413
 20
86.0868
 30
0.0
 11
100.3413
 21
84.3535
 31
0.0
  0
LINE
  8
11
  6
DASHED
 62
    40
  5
19E
 10
100.0938
 20
86.0868
 30
0.0
 11
100.0938
 21
84.3535
 31
0.0
  0
CIRCLE
  8
2
  6
CONTINUOUS
 62
   140
  5
19F
 10
100.217209
 20
87.0139
 30
0.0
 40
0.02148
210
0.0
220
0.0
230
1.0
  0
LINE
  8
2
  6
CONTINUOUS
 62
   140
  5
1A0
 10
103.4351
 20
86.2328
 30
0.0
 11
103.4351
 21
86.7666
 31
0.0
  0
LINE
  8
2
  6
CONTINUOUS
 62
   140
  5
1A1
 10
103.1876
 20
87.3235
 30
0.0
 11
103.4351
 21
87.3235
 31
0.0
  0
LINE
  8
2
  6
CONTINUOUS
 62
   140
  5
1A2
 10
103.1876
 20
87.3235
 30
0.0
 11
103.1876
 21
87.2616
 31
0.0
  0
LINE
  8
2
  6
CONTINUOUS
 62
   140
  5
1A3
 10
103.4351
 20
87.2616
 30
0.0
 11
103.4351
 21
87.3235
 31
0.0
  0
LINE
  8
2
  6
CONTINUOUS
 62
   140
  5
1A4
 10
103.1876
 20
86.7666
 30
0.0
 11
103.1876
 21
86.2328
 31
0.0
  0
LINE
  8
11
  6
CONTINUOUS
 62
    40
  5
1A5
 10
103.4351
 20
86.2328
 30
0.0
 11
103.4351
 21
86.1478
 31
0.0
  0
LINE
  8
11
  6
DASHED
 62
    40
  5
1A6
 10
103.4351
 20
86.0868
 30
0.0
 11
103.4351
 21
84.3535
 31
0.0
  0
LINE
  8
11
  6
DASHED
 62
    40
  5
1A7
 10
103.1876
 20
86.0868
 30
0.0
 11
103.1876
 21
84.3535
 31
0.0
  0
LINE
  8
11
  6
CONTINUOUS
 62
    40
  5
1A8
 10
103.1876
 20
86.2328
 30
0.0
 11
103.1876
 21
86.1478
 31
0.0
  0
CIRCLE
  8
2
  6
CONTINUOUS
 62
   140
  5
1A9
 10
103.311491
 20
87.013988
 30
0.0
 40
0.021057
210
0.0
220
0.0
230
1.0
  0
LINE
  8
2
  6
CONTINUOUS
 62
   140
  5
1AA
 10
106.5288
 20
86.2328
 30
0.0
 11
106.5288
 21
86.7666
 31
0.0
  0
LINE
  8
2
  6
CONTINUOUS
 62
   140
  5
1AB
 10
106.2813
 20
87.3235
 30
0.0
 11
106.5288
 21
87.3235
 31
0.0
  0
LINE
  8
2
  6
CONTINUOUS
 62
   140
  5
1AC
 10
106.2813
 20
87.3235
 30
0.0
 11
106.2813
 21
87.2616
 31
0.0
  0
LINE
  8
2
  6
CONTINUOUS
 62
   140
  5
1AD
 10
106.5288
 20
87.2616
 30
0.0
 11
106.5288
 21
87.3235
 31
0.0
  0
LINE
  8
2
  6
CONTINUOUS
 62
   140
  5
1AE
 10
106.2813
 20
86.7666
 30
0.0
 11
106.2813
 21
86.2328
 31
0.0
  0
LINE
  8
11
  6
DASHED
 62
    40
  5
1AF
 10
106.5288
 20
86.0868
 30
0.0
 11
106.5288
 21
84.3535
 31
0.0
  0
LINE
  8
11
  6
DASHED
 62
    40
  5
1B0
 10
106.2813
 20
86.0868
 30
0.0
 11
106.2813
 21
84.3535
 31
0.0
  0
CIRCLE
  8
2
  6
CONTINUOUS
 62
   140
  5
1B1
 10
106.404968
 20
87.013866
 30
0.0
 40
0.021057
210
0.0
220
0.0
230
1.0
  0
LINE
  8
2
  6
CONTINUOUS
 62
   140
  5
1B2
 10
109.6226
 20
86.2328
 30
0.0
 11
109.6226
 21
86.7666
 31
0.0
  0
LINE
  8
2
  6
CONTINUOUS
 62
   140
  5
1B3
 10
109.3751
 20
87.3235
 30
0.0
 11
109.6226
 21
87.3235
 31
0.0
  0
LINE
  8
2
  6
CONTINUOUS
 62
   140
  5
1B4
 10
109.3751
 20
87.3235
 30
0.0
 11
109.3751
 21
87.2616
 31
0.0
  0
LINE
  8
2
  6
CONTINUOUS
 62
   140
  5
1B5
 10
109.6226
 20
87.2616
 30
0.0
 11
109.6226
 21
87.3235
 31
0.0
  0
LINE
  8
2
  6
CONTINUOUS
 62
   140
  5
1B6
 10
109.3751
 20
86.7666
 30
0.0
 11
109.3751
 21
86.2328
 31
0.0
  0
LINE
  8
2
  6
CONTINUOUS
 62
   140
  5
1B7
 10
112.4292
 20
86.1478
 30
0.0
 11
112.4292
 21
86.2157
 31
0.0
  0
LINE
  8
2
  6
CONTINUOUS
 62
   140
  5
1B8
 10
112.7163
 20
86.2157
 30
0.0
 11
112.7163
 21
86.7666
 31
0.0
  0
LINE
  8
2
  6
CONTINUOUS
 62
   140
  5
1B9
 10
112.4292
 20
86.2157
 30
0.0
 11
112.7559
 21
86.2157
 31
0.0
  0
LINE
  8
2
  6
CONTINUOUS
 62
   140
  5
1BA
 10
112.7559
 20
86.2157
 30
0.0
 11
112.7559
 21
86.1478
 31
0.0
  0
LINE
  8
2
  6
CONTINUOUS
 62
   140
  5
1BB
 10
112.4688
 20
87.3235
 30
0.0
 11
112.7163
 21
87.3235
 31
0.0
  0
LINE
  8
2
  6
CONTINUOUS
 62
   140
  5
1BC
 10
112.4688
 20
87.3235
 30
0.0
 11
112.4688
 21
87.2616
 31
0.0
  0
LINE
  8
2
  6
CONTINUOUS
 62
   140
  5
1BD
 10
112.7163
 20
87.3235
 30
0.0
 11
112.7163
 21
87.4416
 31
0.0
  0
LINE
  8
2
  6
CONTINUOUS
 62
   140
  5
1BE
 10
112.4688
 20
86.7666
 30
0.0
 11
112.4688
 21
86.2157
 31
0.0
  0
LINE
  8
2
  6
DASHED
 62
   140
  5
1BF
 10
112.4292
 20
83.9882
 30
0.0
 11
112.7559
 21
83.9882
 31
0.0
  0
LINE
  8
2
  6
DASHED
 62
   140
  5
1C0
 10
112.7559
 20
86.1047
 30
0.0
 11
112.7559
 21
83.9882
 31
0.0
  0
LINE
  8
2
  6
DASHED
 62
   140
  5
1C1
 10
112.4292
 20
86.1076
 30
0.0
 11
112.4292
 21
83.9882
 31
0.0
  0
LINE
  8
2
  6
DASHED
 62
   140
  5
1C2
 10
112.4688
 20
85.5969
 30
0.0
 11
112.7163
 21
85.5969
 31
0.0
  0
LINE
  8
2
  6
DASHED
 62
   140
  5
1C3
 10
112.7163
 20
86.2157
 30
0.0
 11
112.7163
 21
86.1478
 31
0.0
  0
LINE
  8
2
  6
DASHED
 62
   140
  5
1C4
 10
112.7163
 20
86.1307
 30
0.0
 11
112.7163
 21
85.5969
 31
0.0
  0
LINE
  8
2
  6
DASHED
 62
   140
  5
1C5
 10
112.4688
 20
86.1307
 30
0.0
 11
112.4688
 21
85.5969
 31
0.0
  0
LINE
  8
2
  6
DASHED
 62
   140
  5
1C6
 10
112.4688
 20
86.2157
 30
0.0
 11
112.4688
 21
86.1478
 31
0.0
  0
LINE
  8
2
  6
CONTINUOUS
 62
   140
  5
1C7
 10
112.3896
 20
85.6528
 30
0.0
 11
112.4292
 21
85.6528
 31
0.0
  0
LINE
  8
2
  6
CONTINUOUS
 62
   140
  5
1C8
 10
112.3896
 20
84.9103
 30
0.0
 11
112.4292
 21
84.9103
 31
0.0
  0
LINE
  8
2
  6
DASHED
 62
   140
  5
1C9
 10
112.3896
 20
85.6528
 30
0.0
 11
112.3896
 21
84.9103
 31
0.0
  0
CIRCLE
  8
2
  6
CONTINUOUS
 62
   140
  5
1CA
 10
112.591916
 20
87.014003
 30
0.0
 40
0.021057
210
0.0
220
0.0
230
1.0
  0
LINE
  8
2
  6
CONTINUOUS
 62
   140
  5
1CB
 10
115.8101
 20
86.2157
 30
0.0
 11
115.8101
 21
86.7666
 31
0.0
  0
LINE
  8
2
  6
CONTINUOUS
 62
   140
  5
1CC
 10
115.5626
 20
87.3235
 30
0.0
 11
115.8101
 21
87.3235
 31
0.0
  0
LINE
  8
2
  6
CONTINUOUS
 62
   140
  5
1CD
 10
115.5626
 20
87.4416
 30
0.0
 11
115.5626
 21
87.2616
 31
0.0
  0
LINE
  8
2
  6
CONTINUOUS
 62
   140
  5
1CE
 10
115.8101
 20
87.2616
 30
0.0
 11
115.8101
 21
87.4416
 31
0.0
  0
LINE
  8
2
  6
CONTINUOUS
 62
   140
  5
1CF
 10
115.5626
 20
86.7666
 30
0.0
 11
115.5626
 21
86.2157
 31
0.0
  0
CIRCLE
  8
2
  6
CONTINUOUS
 62
   140
  5
1D0
 10
115.686055
 20
87.01429
 30
0.0
 40
0.021057
210
0.0
220
0.0
230
1.0
  0
CIRCLE
  8
2
  6
CONTINUOUS
 62
   140
  5
1D1
 10
118.780467
 20
87.014202
 30
0.0
 40
0.021057
210
0.0
220
0.0
230
1.0
  0
LINE
  8
2
  6
DASHED
 62
   140
  5
1D2
 10
118.5771
 20
85.6528
 30
0.0
 11
118.5771
 21
84.9103
 31
0.0
  0
LINE
  8
2
  6
CONTINUOUS
 62
   140
  5
1D3
 10
118.5771
 20
84.9103
 30
0.0
 11
118.6167
 21
84.9103
 31
0.0
  0
LINE
  8
2
  6
CONTINUOUS
 62
   140
  5
1D4
 10
118.5771
 20
85.6528
 30
0.0
 11
118.6167
 21
85.6528
 31
0.0
  0
LINE
  8
2
  6
CONTINUOUS
 62
   140
  5
1D5
 10
118.6563
 20
86.2157
 30
0.0
 11
118.6563
 21
86.171
 31
0.0
  0
LINE
  8
2
  6
DASHED
 62
   140
  5
1D6
 10
118.6563
 20
86.1307
 30
0.0
 11
118.6563
 21
85.5969
 31
0.0
  0
LINE
  8
2
  6
DASHED
 62
   140
  5
1D7
 10
118.9038
 20
86.1307
 30
0.0
 11
118.9038
 21
85.5969
 31
0.0
  0
LINE
  8
2
  6
DASHED
 62
   140
  5
1D8
 10
118.6563
 20
85.5969
 30
0.0
 11
118.9038
 21
85.5969
 31
0.0
  0
LINE
  8
2
  6
DASHED
 62
   140
  5
1D9
 10
118.6167
 20
86.1076
 30
0.0
 11
118.6167
 21
83.9882
 31
0.0
  0
LINE
  8
2
  6
DASHED
 62
   140
  5
1DA
 10
118.9434
 20
86.1047
 30
0.0
 11
118.9434
 21
83.9882
 31
0.0
  0
LINE
  8
2
  6
DASHED
 62
   140
  5
1DB
 10
118.6167
 20
83.9882
 30
0.0
 11
118.9434
 21
83.9882
 31
0.0
  0
LINE
  8
2
  6
CONTINUOUS
 62
   140
  5
1DC
 10
118.6563
 20
86.7666
 30
0.0
 11
118.6563
 21
86.2157
 31
0.0
  0
LINE
  8
2
  6
CONTINUOUS
 62
   140
  5
1DD
 10
118.9038
 20
87.2616
 30
0.0
 11
118.9038
 21
87.4416
 31
0.0
  0
LINE
  8
2
  6
CONTINUOUS
 62
   140
  5
1DE
 10
118.6563
 20
87.4416
 30
0.0
 11
118.6563
 21
87.2616
 31
0.0
  0
LINE
  8
2
  6
CONTINUOUS
 62
   140
  5
1DF
 10
118.9049
 20
91.8548
 30
0.0
 11
118.9049
 21
92.1641
 31
0.0
  0
LINE
  8
2
  6
CONTINUOUS
 62
   140
  5
1E0
 10
118.6563
 20
87.3235
 30
0.0
 11
118.9038
 21
87.3235
 31
0.0
  0
LINE
  8
2
  6
CONTINUOUS
 62
   140
  5
1E1
 10
118.6178
 20
92.1245
 30
0.0
 11
118.6178
 21
92.513
 31
0.0
  0
LINE
  8
2
  6
CONTINUOUS
 62
   140
  5
1E2
 10
118.6167
 20
86.2157
 30
0.0
 11
118.6954
 21
86.2157
 31
0.0
  0
LINE
  8
2
  6
CONTINUOUS
 62
   140
  5
1E3
 10
97.0355
 20
86.1478
 30
0.0
 11
124.2152
 21
86.1478
 31
0.0
  0
LINE
  8
2
  6
CONTINUOUS
 62
   140
  5
1E4
 10
96.5052
 20
86.7666
 30
0.0
 11
120.5126
 21
86.7666
 31
0.0
  0
LINE
  8
2
  6
CONTINUOUS
 62
   140
  5
1E5
 10
96.5052
 20
87.2616
 30
0.0
 11
120.5126
 21
87.2616
 31
0.0
  0
LINE
  8
2
  6
CONTINUOUS
 62
   140
  5
1E6
 10
96.3832
 20
91.7162
 30
0.0
 11
120.484
 21
91.7162
 31
0.0
  0
LINE
  8
2
  6
CONTINUOUS
 62
   140
  5
1E7
 10
96.5119
 20
91.8548
 30
0.0
 11
120.484
 21
91.8548
 31
0.0
  0
LINE
  8
2
  6
CONTINUOUS
 62
   140
  5
1E8
 10
100.3424
 20
92.4734
 30
0.0
 11
100.3424
 21
92.1641
 31
0.0
  0
LINE
  8
2
  6
CONTINUOUS
 62
   140
  5
1E9
 10
100.3424
 20
92.1641
 30
0.0
 11
100.0949
 21
92.1641
 31
0.0
  0
LINE
  8
2
  6
CONTINUOUS
 62
   140
  5
1EA
 10
100.0949
 20
92.1641
 30
0.0
 11
100.0949
 21
92.4734
 31
0.0
  0
LINE
  8
2
  6
CONTINUOUS
 62
   140
  5
1EB
 10
100.0949
 20
92.4734
 30
0.0
 11
100.3424
 21
92.4734
 31
0.0
  0
LINE
  8
2
  6
CONTINUOUS
 62
   140
  5
1EC
 10
100.3424
 20
91.8548
 30
0.0
 11
100.3424
 21
92.1641
 31
0.0
  0
LINE
  8
2
  6
CONTINUOUS
 62
   140
  5
1ED
 10
100.0949
 20
92.1641
 30
0.0
 11
100.0949
 21
91.8548
 31
0.0
  0
LINE
  8
2
  6
CONTINUOUS
 62
   140
  5
1EE
 10
100.3424
 20
92.4734
 30
0.0
 11
100.0949
 21
92.1641
 31
0.0
  0
LINE
  8
2
  6
CONTINUOUS
 62
   140
  5
1EF
 10
100.0949
 20
92.4734
 30
0.0
 11
100.3424
 21
92.1641
 31
0.0
  0
LINE
  8
2
  6
CONTINUOUS
 62
   140
  5
1F0
 10
103.4362
 20
92.4734
 30
0.0
 11
103.4362
 21
92.1641
 31
0.0
  0
LINE
  8
2
  6
CONTINUOUS
 62
   140
  5
1F1
 10
103.4362
 20
92.1641
 30
0.0
 11
103.1887
 21
92.1641
 31
0.0
  0
LINE
  8
2
  6
CONTINUOUS
 62
   140
  5
1F2
 10
103.1887
 20
92.1641
 30
0.0
 11
103.1887
 21
92.4734
 31
0.0
  0
LINE
  8
2
  6
CONTINUOUS
 62
   140
  5
1F3
 10
103.1887
 20
92.4734
 30
0.0
 11
103.4362
 21
92.4734
 31
0.0
  0
LINE
  8
2
  6
CONTINUOUS
 62
   140
  5
1F4
 10
103.4362
 20
91.8548
 30
0.0
 11
103.4362
 21
92.1641
 31
0.0
  0
LINE
  8
2
  6
CONTINUOUS
 62
   140
  5
1F5
 10
103.1887
 20
92.1641
 30
0.0
 11
103.1887
 21
91.8548
 31
0.0
  0
LINE
  8
2
  6
CONTINUOUS
 62
   140
  5
1F6
 10
103.4362
 20
92.4734
 30
0.0
 11
103.1887
 21
92.1641
 31
0.0
  0
LINE
  8
2
  6
CONTINUOUS
 62
   140
  5
1F7
 10
103.1887
 20
92.4734
 30
0.0
 11
103.4362
 21
92.1641
 31
0.0
  0
LINE
  8
2
  6
CONTINUOUS
 62
   140
  5
1F8
 10
106.5299
 20
92.4734
 30
0.0
 11
106.5299
 21
92.1641
 31
0.0
  0
LINE
  8
2
  6
CONTINUOUS
 62
   140
  5
1F9
 10
106.5299
 20
92.1641
 30
0.0
 11
106.2824
 21
92.1641
 31
0.0
  0
LINE
  8
2
  6
CONTINUOUS
 62
   140
  5
1FA
 10
106.2824
 20
92.1641
 30
0.0
 11
106.2824
 21
92.4734
 31
0.0
  0
LINE
  8
2
  6
CONTINUOUS
 62
   140
  5
1FB
 10
106.2824
 20
92.4734
 30
0.0
 11
106.5299
 21
92.4734
 31
0.0
  0
LINE
  8
2
  6
CONTINUOUS
 62
   140
  5
1FC
 10
106.5299
 20
91.8548
 30
0.0
 11
106.5299
 21
92.1641
 31
0.0
  0
LINE
  8
2
  6
CONTINUOUS
 62
   140
  5
1FD
 10
106.2824
 20
92.1641
 30
0.0
 11
106.2824
 21
91.8548
 31
0.0
  0
LINE
  8
2
  6
CONTINUOUS
 62
   140
  5
1FE
 10
106.5299
 20
92.4734
 30
0.0
 11
106.2824
 21
92.1641
 31
0.0
  0
LINE
  8
2
  6
CONTINUOUS
 62
   140
  5
1FF
 10
106.2824
 20
92.4734
 30
0.0
 11
106.5299
 21
92.1641
 31
0.0
  0
LINE
  8
2
  6
CONTINUOUS
 62
   140
  5
200
 10
109.6237
 20
92.4734
 30
0.0
 11
109.6237
 21
92.1641
 31
0.0
  0
LINE
  8
2
  6
CONTINUOUS
 62
   140
  5
201
 10
109.6237
 20
92.1641
 30
0.0
 11
109.3762
 21
92.1641
 31
0.0
  0
LINE
  8
2
  6
CONTINUOUS
 62
   140
  5
202
 10
109.3762
 20
92.1641
 30
0.0
 11
109.3762
 21
92.4734
 31
0.0
  0
LINE
  8
2
  6
CONTINUOUS
 62
   140
  5
203
 10
109.3762
 20
92.4734
 30
0.0
 11
109.6237
 21
92.4734
 31
0.0
  0
LINE
  8
2
  6
CONTINUOUS
 62
   140
  5
204
 10
109.6237
 20
91.8548
 30
0.0
 11
109.6237
 21
92.1641
 31
0.0
  0
LINE
  8
2
  6
CONTINUOUS
 62
   140
  5
205
 10
109.3762
 20
92.1641
 30
0.0
 11
109.3762
 21
91.8548
 31
0.0
  0
LINE
  8
2
  6
CONTINUOUS
 62
   140
  5
206
 10
109.6237
 20
92.4734
 30
0.0
 11
109.3762
 21
92.1641
 31
0.0
  0
LINE
  8
2
  6
CONTINUOUS
 62
   140
  5
207
 10
109.3762
 20
92.4734
 30
0.0
 11
109.6237
 21
92.1641
 31
0.0
  0
LINE
  8
2
  6
CONTINUOUS
 62
   140
  5
208
 10
112.7174
 20
92.4734
 30
0.0
 11
112.7174
 21
92.1641
 31
0.0
  0
LINE
  8
2
  6
CONTINUOUS
 62
   140
  5
209
 10
112.7174
 20
92.1641
 30
0.0
 11
112.4699
 21
92.1641
 31
0.0
  0
LINE
  8
2
  6
CONTINUOUS
 62
   140
  5
20A
 10
112.4699
 20
92.1641
 30
0.0
 11
112.4699
 21
92.4734
 31
0.0
  0
LINE
  8
2
  6
CONTINUOUS
 62
   140
  5
20B
 10
112.4699
 20
92.4734
 30
0.0
 11
112.7174
 21
92.4734
 31
0.0
  0
LINE
  8
2
  6
CONTINUOUS
 62
   140
  5
20C
 10
112.7174
 20
91.8548
 30
0.0
 11
112.7174
 21
92.1641
 31
0.0
  0
LINE
  8
2
  6
CONTINUOUS
 62
   140
  5
20D
 10
112.4699
 20
92.1641
 30
0.0
 11
112.4699
 21
91.8548
 31
0.0
  0
LINE
  8
2
  6
CONTINUOUS
 62
   140
  5
20E
 10
112.7174
 20
92.4734
 30
0.0
 11
112.4699
 21
92.1641
 31
0.0
  0
LINE
  8
2
  6
CONTINUOUS
 62
   140
  5
20F
 10
112.4699
 20
92.4734
 30
0.0
 11
112.7174
 21
92.1641
 31
0.0
  0
LINE
  8
2
  6
CONTINUOUS
 62
   140
  5
210
 10
115.8112
 20
92.4734
 30
0.0
 11
115.8112
 21
92.1641
 31
0.0
  0
LINE
  8
2
  6
CONTINUOUS
 62
   140
  5
211
 10
115.8112
 20
92.1641
 30
0.0
 11
115.5637
 21
92.1641
 31
0.0
  0
LINE
  8
2
  6
CONTINUOUS
 62
   140
  5
212
 10
115.5637
 20
92.1641
 30
0.0
 11
115.5637
 21
92.4734
 31
0.0
  0
LINE
  8
2
  6
CONTINUOUS
 62
   140
  5
213
 10
115.5637
 20
92.4734
 30
0.0
 11
115.8112
 21
92.4734
 31
0.0
  0
LINE
  8
2
  6
CONTINUOUS
 62
   140
  5
214
 10
115.5241
 20
92.1245
 30
0.0
 11
115.5241
 21
92.513
 31
0.0
  0
LINE
  8
2
  6
CONTINUOUS
 62
   140
  5
215
 10
115.5241
 20
92.513
 30
0.0
 11
115.8508
 21
92.513
 31
0.0
  0
LINE
  8
2
  6
CONTINUOUS
 62
   140
  5
216
 10
115.8508
 20
92.513
 30
0.0
 11
115.8508
 21
92.1245
 31
0.0
  0
LINE
  8
2
  6
CONTINUOUS
 62
   140
  5
217
 10
115.8508
 20
92.1245
 30
0.0
 11
115.8112
 21
92.1245
 31
0.0
  0
LINE
  8
2
  6
CONTINUOUS
 62
   140
  5
218
 10
115.8112
 20
91.8548
 30
0.0
 11
115.8112
 21
92.1641
 31
0.0
  0
LINE
  8
2
  6
CONTINUOUS
 62
   140
  5
219
 10
115.5637
 20
92.1641
 30
0.0
 11
115.5637
 21
91.8548
 31
0.0
  0
LINE
  8
2
  6
CONTINUOUS
 62
   140
  5
21A
 10
115.5637
 20
92.1245
 30
0.0
 11
115.5241
 21
92.1245
 31
0.0
  0
LINE
  8
2
  6
CONTINUOUS
 62
   140
  5
21B
 10
115.8112
 20
92.4734
 30
0.0
 11
115.5637
 21
92.1641
 31
0.0
  0
LINE
  8
2
  6
CONTINUOUS
 62
   140
  5
21C
 10
115.5637
 20
92.4734
 30
0.0
 11
115.8112
 21
92.1641
 31
0.0
  0
LINE
  8
2
  6
CONTINUOUS
 62
   140
  5
21D
 10
118.6574
 20
92.4734
 30
0.0
 11
118.9049
 21
92.1641
 31
0.0
  0
LINE
  8
2
  6
CONTINUOUS
 62
   140
  5
21E
 10
118.9049
 20
92.4734
 30
0.0
 11
118.6574
 21
92.1641
 31
0.0
  0
LINE
  8
2
  6
CONTINUOUS
 62
   140
  5
21F
 10
118.6574
 20
92.1245
 30
0.0
 11
118.6178
 21
92.1245
 31
0.0
  0
LINE
  8
2
  6
CONTINUOUS
 62
   140
  5
220
 10
118.6574
 20
92.1641
 30
0.0
 11
118.6574
 21
91.8548
 31
0.0
  0
LINE
  8
2
  6
CONTINUOUS
 62
   140
  5
221
 10
118.9038
 20
86.2543
 30
0.0
 11
118.9038
 21
86.7666
 31
0.0
  0
LINE
  8
2
  6
CONTINUOUS
 62
   140
  5
222
 10
118.9445
 20
92.1245
 30
0.0
 11
118.9049
 21
92.1245
 31
0.0
  0
LINE
  8
2
  6
CONTINUOUS
 62
   140
  5
223
 10
118.9445
 20
92.513
 30
0.0
 11
118.9445
 21
92.1245
 31
0.0
  0
LINE
  8
2
  6
CONTINUOUS
 62
   140
  5
224
 10
118.6178
 20
92.513
 30
0.0
 11
118.9445
 21
92.513
 31
0.0
  0
LINE
  8
2
  6
CONTINUOUS
 62
   140
  5
225
 10
118.6167
 20
86.1478
 30
0.0
 11
118.6167
 21
86.2157
 31
0.0
  0
LINE
  8
2
  6
CONTINUOUS
 62
   140
  5
226
 10
118.6574
 20
92.4734
 30
0.0
 11
118.9049
 21
92.4734
 31
0.0
  0
LINE
  8
2
  6
CONTINUOUS
 62
   140
  5
227
 10
118.6574
 20
92.1641
 30
0.0
 11
118.6574
 21
92.4734
 31
0.0
  0
LINE
  8
2
  6
CONTINUOUS
 62
   140
  5
228
 10
118.9049
 20
92.1641
 30
0.0
 11
118.6574
 21
92.1641
 31
0.0
  0
LINE
  8
2
  6
CONTINUOUS
 62
   140
  5
229
 10
118.9049
 20
92.4734
 30
0.0
 11
118.9049
 21
92.1641
 31
0.0
  0
LINE
  8
4
  6
CONTINUOUS
 62
     7
  5
22A
 10
122.8649
 20
91.3523
 30
0.0
 11
123.4392
 21
91.3523
 31
0.0
  0
LINE
  8
4
  6
CONTINUOUS
 62
     7
  5
22B
 10
122.8638
 20
87.4472
 30
0.0
 11
123.4381
 21
87.4472
 31
0.0
  0
LINE
  8
4
  6
CONTINUOUS
 62
     7
  5
22C
 10
122.8638
 20
86.581
 30
0.0
 11
123.4381
 21
86.581
 31
0.0
  0
LINE
  8
4
  6
CONTINUOUS
 62
     7
  5
22D
 10
123.3144
 20
86.581
 30
0.0
 11
123.3144
 21
87.4472
 31
0.0
  0
TEXT
  8
2
  6
CONTINUOUS
 62
   140
  5
22E
 10
133.8574
 20
74.3641
 30
0.0
 40
0.072
  1
$USERNAME$
 50
90.0
  7
txt
 11
133.8214
 21
74.3641
 31
0.0
210
0.0
220
0.0
230
1.0
 73
     2
  0
TEXT
  8
2
  6
CONTINUOUS
 62
   140
  5
22F
 10
133.8574
 20
75.2924
 30
0.0
 40
0.072
  1
AT-JOHN-KILPATRICK
 50
90.0
  7
txt
 11
133.8214
 21
75.2924
 31
0.0
210
0.0
220
0.0
230
1.0
 73
     2
  0
POINT
  8
1
  6
CONTINUOUS
 62
   140
  5
231
 10
134.2967
 20
99.1706
 30
0.0
  0
POINT
  8
1
  6
CONTINUOUS
 62
   140
  5
232
 10
92.5802
 20
70.5879
 30
0.0
  0
POINT
  8
1
  6
CONTINUOUS
 62
   140
  5
233
 10
93.8982
 20
97.4934
 30
0.0
  0
POINT
  8
2
  6
CONTINUOUS
 62
   140
  5
234
 10
133.8667
 20
72.265
 30
0.0
  0
POINT
  8
1
  6
CONTINUOUS
 62
   140
  5
235
 10
134.1067
 20
97.8482
 30
0.0
  0
POINT
  8
1
  6
CONTINUOUS
 62
   140
  5
236
 10
93.6907
 20
71.9192
 30
0.0
  0
LINE
  8
1
  6
CONTINUOUS
 62
   140
  5
237
 10
94.7467
 20
97.4792
 30
0.0
 11
94.7467
 21
72.2792
 31
0.0
  0
LINE
  8
1
  6
CONTINUOUS
 62
   140
  5
238
 10
133.7467
 20
97.4792
 30
0.0
 11
94.7467
 21
97.4792
 31
0.0
  0
LINE
  8
1
  6
CONTINUOUS
 62
   140
  5
239
 10
133.7467
 20
97.4792
 30
0.0
 11
133.7467
 21
72.2792
 31
0.0
  0
LINE
  8
1
  6
CONTINUOUS
 62
   140
  5
23A
 10
133.7467
 20
72.2792
 30
0.0
 11
94.7467
 21
72.2792
 31
0.0
  0
LINE
  8
2
  6
HIDDEN
 62
     7
  5
23B
 10
94.9095
 20
93.4473
 30
0.0
 11
94.4295
 21
93.4473
 31
0.0
  0
LINE
  8
2
  6
HIDDEN
 62
     7
  5
23C
 10
94.9095
 20
90.0873
 30
0.0
 11
94.4295
 21
90.0873
 31
0.0
  0
LINE
  8
2
  6
HIDDEN
 62
     7
  5
23D
 10
94.4467
 20
80.3192
 30
0.0
 11
93.9667
 21
80.3192
 31
0.0
  0
LINE
  8
2
  6
HIDDEN
 62
     7
  5
23E
 10
94.4467
 20
76.9592
 30
0.0
 11
93.9667
 21
76.9592
 31
0.0
  0
CIRCLE
  8
2
  6
HIDDEN
 62
     7
  5
23F
 10
94.6095
 20
93.4473
 30
0.0
 40
0.15
210
0.0
220
0.0
230
1.0
  0
CIRCLE
  8
2
  6
HIDDEN
 62
     7
  5
240
 10
94.6095
 20
90.0873
 30
0.0
 40
0.15
210
0.0
220
0.0
230
1.0
  0
CIRCLE
  8
2
  6
HIDDEN
 62
     7
  5
241
 10
94.1467
 20
80.3192
 30
0.0
 40
0.15
210
0.0
220
0.0
230
1.0
  0
CIRCLE
  8
2
  6
HIDDEN
 62
     7
  5
242
 10
94.1467
 20
76.9592
 30
0.0
 40
0.15
210
0.0
220
0.0
230
1.0
  0
TEXT
  8
2
  6
CONTINUOUS
 62
   140
  5
244
 10
127.8237
 20
95.3641
 30
0.0
 40
0.144
  1
  
 41
0.833333
  7
ROMANS
 72
     4
 11
127.9237
 21
95.4361
 31
0.0
210
0.0
220
0.0
230
1.0
  0
TEXT
  8
2
  6
CONTINUOUS
 62
   140
  5
245
 10
128.2849
 20
95.553
 30
0.0
 40
0.12
  1
       
 41
0.8
  7
ROMANS
 72
     4
 11
128.6049
 21
95.613
 31
0.0
210
0.0
220
0.0
230
1.0
  0
TEXT
  8
2
  6
CONTINUOUS
 62
   140
  5
246
 10
128.2836
 20
95.3773
 30
0.0
 40
0.12
  1
       
 41
0.8
  7
ROMANS
 72
     4
 11
128.6036
 21
95.4373
 31
0.0
210
0.0
220
0.0
230
1.0
  0
TEXT
  8
2
  6
CONTINUOUS
 62
   140
  5
247
 10
128.2836
 20
95.1976
 30
0.0
 40
0.12
  1
       
 41
0.8
  7
ROMANS
 72
     4
 11
128.6036
 21
95.2576
 31
0.0
210
0.0
220
0.0
230
1.0
  0
TEXT
  8
2
  6
CONTINUOUS
 62
   140
  5
248
 10
129.1678
 20
95.2696
 30
0.0
 40
0.12
  1
         
  7
ROMANS
 72
     4
 11
129.6878
 21
95.3296
 31
0.0
210
0.0
220
0.0
230
1.0
  0
TEXT
  8
2
  6
CONTINUOUS
 62
   140
  5
249
 10
131.0504
 20
95.3773
 30
0.0
 40
0.12
  1
          
  7
ROMANS
 72
     4
 11
131.6304
 21
95.4373
 31
0.0
210
0.0
220
0.0
230
1.0
  0
TEXT
  8
2
  6
CONTINUOUS
 62
   140
  5
24A
 10
132.2437
 20
96.1532
 30
0.0
 40
0.12
  1
     
  7
ROMANS
 72
     4
 11
132.5237
 21
96.2132
 31
0.0
210
0.0
220
0.0
230
1.0
  0
TEXT
  8
2
  6
CONTINUOUS
 62
   140
  5
24B
 10
132.9663
 20
96.1532
 30
0.0
 40
0.12
  1
   
  7
ROMANS
 72
     4
 11
133.1263
 21
96.2132
 31
0.0
210
0.0
220
0.0
230
1.0
  0
POINT
  8
1
  6
CONTINUOUS
 62
   140
  5
24C
 10
94.7467
 20
72.2792
 30
0.0
  0
POINT
  8
1
  6
CONTINUOUS
 62
   140
  5
24D
 10
94.7467
 20
97.4792
 30
0.0
  0
POINT
  8
2
  6
HIDDEN
 62
     7
  5
24E
 10
133.7467
 20
97.4792
 30
0.0
  0
POINT
  8
2
  6
CONTINUOUS
 62
   140
  5
24F
 10
133.7467
 20
72.2792
 30
0.0
  0
LINE
  8
1
  6
CONTINUOUS
 62
   140
  5
250
 10
133.7467
 20
76.4766
 30
0.0
 11
126.5467
 21
76.4766
 31
0.0
  0
LINE
  8
1
  6
CONTINUOUS
 62
   140
  5
251
 10
128.3922
 20
74.558
 30
0.0
 11
126.5467
 21
74.558
 31
0.0
  0
LINE
  8
1
  6
CONTINUOUS
 62
   140
  5
252
 10
128.3922
 20
74.3192
 30
0.0
 11
126.5467
 21
74.3192
 31
0.0
  0
LINE
  8
1
  6
CONTINUOUS
 62
   140
  5
253
 10
128.3922
 20
74.0804
 30
0.0
 11
126.5467
 21
74.0804
 31
0.0
  0
LINE
  8
1
  6
CONTINUOUS
 62
   140
  5
254
 10
128.3922
 20
73.8416
 30
0.0
 11
126.5467
 21
73.8416
 31
0.0
  0
LINE
  8
1
  6
CONTINUOUS
 62
   140
  5
255
 10
128.3922
 20
73.6028
 30
0.0
 11
126.5467
 21
73.6028
 31
0.0
  0
LINE
  8
1
  6
CONTINUOUS
 62
   140
  5
256
 10
128.3922
 20
73.364
 30
0.0
 11
126.5467
 21
73.364
 31
0.0
  0
LINE
  8
1
  6
CONTINUOUS
 62
   140
  5
257
 10
128.3922
 20
73.1252
 30
0.0
 11
126.5467
 21
73.1252
 31
0.0
  0
LINE
  8
1
  6
CONTINUOUS
 62
   140
  5
258
 10
128.3922
 20
72.8864
 30
0.0
 11
126.5467
 21
72.8864
 31
0.0
  0
LINE
  8
1
  6
CONTINUOUS
 62
   140
  5
259
 10
128.3922
 20
72.6476
 30
0.0
 11
126.5467
 21
72.6476
 31
0.0
  0
TEXT
  8
1
  6
CONTINUOUS
 62
     2
  5
25B
 10
126.9152
 20
74.6148
 30
0.0
 40
0.0948
  1
REVISION DATE
 41
1.003165
  7
MONOTXT
210
0.0
220
0.0
230
1.0
  0
TEXT
  8
1
  6
CONTINUOUS
 62
   140
  5
25D
 10
126.9531
 20
76.1636
 30
0.0
 40
0.22
  1
WEST VIRGINIA DEPARTMENT OF TRANSPORTATION
  7
ROMANT
 72
     4
 11
130.2037
 21
76.2736
 31
0.0
210
0.0
220
0.0
230
1.0
  0
TEXT
  8
1
  6
CONTINUOUS
 62
   140
  5
25E
 10
128.9738
 20
75.9129
 30
0.0
 40
0.22
  1
DIVISION OF HIGHWAYS
  7
ROMANT
 72
     4
 11
130.4046
 21
76.0229
 31
0.0
210
0.0
220
0.0
230
1.0
  0
LINE
  8
1
  6
CONTINUOUS
 62
   140
  5
25F
 10
128.3922
 20
74.798
 30
0.0
 11
126.5467
 21
74.798
 31
0.0
  0
LINE
  8
1
  6
CONTINUOUS
 62
   140
  5
260
 10
128.3922
 20
72.2792
 30
0.0
 11
128.3922
 21
74.798
 31
0.0
  0
LINE
  8
1
  6
CONTINUOUS
 62
   140
  5
261
 10
126.5467
 20
72.2792
 30
0.0
 11
126.5467
 21
76.4766
 31
0.0
  0
TEXT
  8
2
  6
CONTINUOUS
 62
   140
  5
262
 10
126.5888
 20
73.8853
 30
0.0
 40
0.1
  1
                  
  7
ROMANS
 72
     4
 11
127.4721
 21
73.9353
 31
0.0
210
0.0
220
0.0
230
1.0
  0
TEXT
  8
2
  6
CONTINUOUS
 62
   140
  5
263
 10
126.5888
 20
73.6465
 30
0.0
 40
0.1
  1
                  
  7
ROMANS
 72
     4
 11
127.4721
 21
73.6965
 31
0.0
210
0.0
220
0.0
230
1.0
  0
TEXT
  8
2
  6
CONTINUOUS
 62
   140
  5
264
 10
126.5888
 20
73.4077
 30
0.0
 40
0.1
  1
                  
  7
ROMANS
 72
     4
 11
127.4721
 21
73.4577
 31
0.0
210
0.0
220
0.0
230
1.0
  0
TEXT
  8
2
  6
CONTINUOUS
 62
   140
  5
265
 10
126.5888
 20
73.1689
 30
0.0
 40
0.1
  1
                  
  7
ROMANS
 72
     4
 11
127.4721
 21
73.2189
 31
0.0
210
0.0
220
0.0
230
1.0
  0
TEXT
  8
2
  6
CONTINUOUS
 62
   140
  5
266
 10
126.5888
 20
72.9301
 30
0.0
 40
0.1
  1
                  
  7
ROMANS
 72
     4
 11
127.4721
 21
72.9801
 31
0.0
210
0.0
220
0.0
230
1.0
  0
TEXT
  8
2
  6
CONTINUOUS
 62
   140
  5
267
 10
126.5888
 20
72.6913
 30
0.0
 40
0.1
  1
                  
  7
ROMANS
 72
     4
 11
127.4721
 21
72.7413
 31
0.0
210
0.0
220
0.0
230
1.0
  0
TEXT
  8
2
  6
CONTINUOUS
 62
   140
  5
268
 10
126.5869
 20
72.4463
 30
0.0
 40
0.1
  1
                  
  7
ROMANS
 72
     4
 11
127.4702
 21
72.4963
 31
0.0
210
0.0
220
0.0
230
1.0
  0
TEXT
  8
2
  6
HIDDEN
 62
     7
  5
269
 10
94.8043
 20
72.134
 30
0.0
 40
0.072
  1
D09K20C95-STDBOR c
  7
MONOTXT
210
0.0
220
0.0
230
1.0
  0
POINT
  8
1
  6
CONTINUOUS
 62
   110
  5
26A
 10
134.2967
 20
99.1706
 30
0.0
  0
POINT
  8
1
  6
CONTINUOUS
 62
   110
  5
26B
 10
92.5802
 20
70.5879
 30
0.0
  0
POINT
  8
1
  6
CONTINUOUS
 62
     2
  5
26C
 10
93.8982
 20
97.4934
 30
0.0
  0
POINT
  8
2
  6
CONTINUOUS
 62
   140
  5
26D
 10
133.8667
 20
72.265
 30
0.0
  0
POINT
  8
2
  6
HIDDEN
 62
     7
  5
26E
 10
134.1067
 20
97.8482
 30
0.0
  0
POINT
  8
2
  6
HIDDEN
 62
     7
  5
26F
 10
93.6907
 20
71.9192
 30
0.0
  0
LINE
  8
2
  6
CONTINUOUS
 62
   140
  5
270
 10
109.7432
 20
91.7594
 30
0.0
 11
109.7432
 21
91.7162
 31
0.0
  0
LINE
  8
2
  6
CONTINUOUS
 62
   140
  5
271
 10
109.7432
 20
91.8548
 30
0.0
 11
109.7432
 21
91.806
 31
0.0
  0
LINE
  8
4
  6
CONTINUOUS
 62
     7
  5
272
 10
95.6531
 20
86.1478
 30
0.0
 11
96.4189
 21
86.1478
 31
0.0
  0
TEXT
  8
3
  6
CONTINUOUS
 62
     2
  5
274
 10
127.4718
 20
85.0609
 30
0.0
 40
0.28
  1
NOTES:
  7
ROMANS
210
0.0
220
0.0
230
1.0
  0
TEXT
  8
3
  6
CONTINUOUS
 62
     2
  5
275
 10
108.2179
 20
81.3313
 30
0.0
 40
0.3
  1
ELEVATION
 41
0.866333
  7
MONOTXT
 72
     1
 11
109.2513
 21
81.3313
 31
0.0
210
0.0
220
0.0
230
1.0
  0
POLYLINE
  8
4
  6
CONTINUOUS
 62
     7
  5
276
 66
     1
 10
0.0
 20
0.0
 30
0.0
  0
VERTEX
  8
4
  6
CONTINUOUS
 62
     7
  5
277
 10
115.6863
 20
82.5571
 30
0.0
  0
VERTEX
  8
4
  6
CONTINUOUS
 62
     7
  5
278
 10
115.5997
 20
82.5071
 30
0.0
  0
VERTEX
  8
4
  6
CONTINUOUS
 62
     7
  5
279
 10
115.6863
 20
82.5571
 30
0.0
  0
VERTEX
  8
4
  6
CONTINUOUS
 62
     7
  5
27A
 10
115.5997
 20
82.6071
 30
0.0
  0
SEQEND
  8
4
  6
CONTINUOUS
 62
     7
  5
27B
  0
POLYLINE
  8
4
  6
CONTINUOUS
 62
     7
  5
27C
 66
     1
 10
0.0
 20
0.0
 30
0.0
  0
VERTEX
  8
4
  6
CONTINUOUS
 62
     7
  5
27D
 10
97.2104
 20
83.4477
 30
0.0
  0
VERTEX
  8
4
  6
CONTINUOUS
 62
     7
  5
27E
 10
97.1238
 20
83.3977
 30
0.0
  0
VERTEX
  8
4
  6
CONTINUOUS
 62
     7
  5
27F
 10
97.2104
 20
83.3477
 30
0.0
  0
SEQEND
  8
4
  6
CONTINUOUS
 62
     7
  5
280
  0
POLYLINE
  8
4
  6
CONTINUOUS
 62
     7
  5
281
 66
     1
 10
0.0
 20
0.0
 30
0.0
  0
VERTEX
  8
4
  6
CONTINUOUS
 62
     7
  5
282
 10
115.7729
 20
83.4477
 30
0.0
  0
VERTEX
  8
4
  6
CONTINUOUS
 62
     7
  5
283
 10
115.6863
 20
83.3977
 30
0.0
  0
VERTEX
  8
4
  6
CONTINUOUS
 62
     7
  5
284
 10
115.7729
 20
83.3477
 30
0.0
  0
SEQEND
  8
4
  6
CONTINUOUS
 62
     7
  5
285
  0
POLYLINE
  8
4
  6
CONTINUOUS
 62
     7
  5
286
 66
     1
 10
0.0
 20
0.0
 30
0.0
  0
VERTEX
  8
4
  6
CONTINUOUS
 62
     7
  5
287
 10
121.8738
 20
83.3977
 30
0.0
  0
VERTEX
  8
4
  6
CONTINUOUS
 62
     7
  5
288
 10
121.7872
 20
83.3477
 30
0.0
  0
VERTEX
  8
4
  6
CONTINUOUS
 62
     7
  5
289
 10
121.8738
 20
83.3977
 30
0.0
  0
VERTEX
  8
4
  6
CONTINUOUS
 62
     7
  5
28A
 10
121.7872
 20
83.4477
 30
0.0
  0
SEQEND
  8
4
  6
CONTINUOUS
 62
     7
  5
28B
  0
POLYLINE
  8
4
  6
CONTINUOUS
 62
     7
  5
28C
 66
     1
 10
0.0
 20
0.0
 30
0.0
  0
VERTEX
  8
4
  6
CONTINUOUS
 62
     7
  5
28D
 10
115.6863
 20
83.3977
 30
0.0
  0
VERTEX
  8
4
  6
CONTINUOUS
 62
     7
  5
28E
 10
115.5997
 20
83.3477
 30
0.0
  0
VERTEX
  8
4
  6
CONTINUOUS
 62
     7
  5
28F
 10
115.6863
 20
83.3977
 30
0.0
  0
VERTEX
  8
4
  6
CONTINUOUS
 62
     7
  5
290
 10
115.5997
 20
83.4477
 30
0.0
  0
SEQEND
  8
4
  6
CONTINUOUS
 62
     7
  5
291
  0
LINE
  8
4
  6
CONTINUOUS
 62
     7
  5
292
 10
96.3859
 20
90.3493
 30
0.0
 11
96.3859
 21
91.4862
 31
0.0
  0
LINE
  8
4
  6
CONTINUOUS
 62
     7
  5
293
 10
96.2177
 20
91.594
 30
0.0
 11
96.5433
 21
91.9322
 31
0.0
  0
LINE
  8
5
  6
CONTINUOUS
 62
   241
  5
294
 10
97.1238
 20
92.6085
 30
0.0
 11
97.1238
 21
93.281
 31
0.0
  0
LINE
  8
4
  6
CONTINUOUS
 62
     7
  5
295
 10
96.4955
 20
85.8671
 30
0.0
 11
96.4955
 21
86.4224
 31
0.0
  0
LINE
  8
4
  6
CONTINUOUS
 62
     7
  5
296
 10
96.4955
 20
86.4224
 30
0.0
 11
96.6435
 21
86.5458
 31
0.0
  0
LINE
  8
4
  6
CONTINUOUS
 62
     7
  5
297
 10
96.6435
 20
86.5458
 30
0.0
 11
96.3599
 21
86.6816
 31
0.0
  0
LINE
  8
4
  6
CONTINUOUS
 62
     7
  5
298
 10
96.3599
 20
86.6816
 30
0.0
 11
96.5079
 21
86.8297
 31
0.0
  0
LINE
  8
4
  6
CONTINUOUS
 62
     7
  5
299
 10
96.5079
 20
86.8297
 30
0.0
 11
96.5079
 21
87.6935
 31
0.0
  0
LINE
  8
4
  6
CONTINUOUS
 62
     7
  5
29A
 10
97.1238
 20
94.5517
 30
0.0
 11
95.1766
 21
94.5517
 31
0.0
  0
LINE
  8
5
  6
CONTINUOUS
 62
   241
  5
29B
 10
97.1238
 20
93.4887
 30
0.0
 11
97.1238
 21
94.4109
 31
0.0
  0
POLYLINE
  8
4
  6
CONTINUOUS
 62
     7
  5
29C
 66
     1
 10
0.0
 20
0.0
 30
0.0
  0
VERTEX
  8
4
  6
CONTINUOUS
 62
     7
  5
29D
 10
124.3382
 20
91.6779
 30
0.0
  0
VERTEX
  8
4
  6
CONTINUOUS
 62
     7
  5
29E
 10
124.1762
 20
91.7369
 30
0.0
  0
VERTEX
  8
4
  6
CONTINUOUS
 62
     7
  5
29F
 10
124.3389
 20
91.7961
 30
0.0
  0
VERTEX
  8
4
  6
CONTINUOUS
 62
     7
  5
2A0
 10
124.3386
 20
91.7372
 30
0.0
  0
VERTEX
  8
4
  6
CONTINUOUS
 62
     7
  5
2A1
 10
124.1762
 20
91.7369
 30
0.0
  0
VERTEX
  8
4
  6
CONTINUOUS
 62
     7
  5
2A2
 10
124.3387
 20
91.6779
 30
0.0
  0
VERTEX
  8
4
  6
CONTINUOUS
 62
     7
  5
2A3
 10
124.3387
 20
91.7966
 30
0.0
  0
SEQEND
  8
4
  6
CONTINUOUS
 62
     7
  5
2A4
  0
TEXT
  8
5
  6
CONTINUOUS
 62
   241
  5
2A5
 10
123.2028
 20
86.7409
 30
0.0
 40
0.15
  1
1'-8 1/2 "
 50
90.0
 41
0.732667
  7
MONOTXT
 72
     1
 11
123.2028
 21
87.0079
 31
0.0
210
0.0
220
0.0
230
1.0
  0
LINE
  8
11
  6
DASHED
 62
    40
  5
2A6
 10
109.3751
 20
86.0868
 30
0.0
 11
109.3751
 21
84.3535
 31
0.0
  0
LINE
  8
11
  6
DASHED
 62
    40
  5
2A7
 10
109.3751
 20
84.3535
 30
0.0
 11
109.6226
 21
84.3535
 31
0.0
  0
LINE
  8
11
  6
DASHED
 62
    40
  5
2A8
 10
109.6226
 20
84.3535
 30
0.0
 11
109.6226
 21
86.0868
 31
0.0
  0
LINE
  8
2
  6
DASHED
 62
   140
  5
2A9
 10
115.8497
 20
86.1047
 30
0.0
 11
115.8497
 21
83.9882
 31
0.0
  0
LINE
  8
2
  6
CONTINUOUS
 62
   140
  5
2AA
 10
115.523
 20
86.1478
 30
0.0
 11
115.523
 21
86.2157
 31
0.0
  0
LINE
  8
2
  6
CONTINUOUS
 62
   140
  5
2AB
 10
115.523
 20
86.2157
 30
0.0
 11
115.8497
 21
86.2157
 31
0.0
  0
LINE
  8
2
  6
CONTINUOUS
 62
   140
  5
2AC
 10
115.8497
 20
86.2157
 30
0.0
 11
115.8497
 21
86.1478
 31
0.0
  0
LINE
  8
2
  6
DASHED
 62
   140
  5
2AD
 10
115.523
 20
83.9882
 30
0.0
 11
115.8497
 21
83.9882
 31
0.0
  0
LINE
  8
2
  6
DASHED
 62
   140
  5
2AE
 10
115.523
 20
86.1076
 30
0.0
 11
115.523
 21
83.9882
 31
0.0
  0
LINE
  8
2
  6
DASHED
 62
   140
  5
2AF
 10
115.5626
 20
85.5969
 30
0.0
 11
115.8101
 21
85.5969
 31
0.0
  0
LINE
  8
2
  6
DASHED
 62
   140
  5
2B0
 10
115.8101
 20
86.2157
 30
0.0
 11
115.8101
 21
86.1478
 31
0.0
  0
LINE
  8
2
  6
DASHED
 62
   140
  5
2B1
 10
115.8101
 20
86.1307
 30
0.0
 11
115.8101
 21
85.5969
 31
0.0
  0
LINE
  8
2
  6
DASHED
 62
   140
  5
2B2
 10
115.5626
 20
86.1307
 30
0.0
 11
115.5626
 21
85.5969
 31
0.0
  0
LINE
  8
2
  6
DASHED
 62
   140
  5
2B3
 10
115.5626
 20
86.2157
 30
0.0
 11
115.5626
 21
86.1478
 31
0.0
  0
LINE
  8
2
  6
CONTINUOUS
 62
   140
  5
2B4
 10
115.4834
 20
85.6528
 30
0.0
 11
115.523
 21
85.6528
 31
0.0
  0
LINE
  8
2
  6
CONTINUOUS
 62
   140
  5
2B5
 10
115.4834
 20
84.9103
 30
0.0
 11
115.523
 21
84.9103
 31
0.0
  0
LINE
  8
2
  6
DASHED
 62
   140
  5
2B6
 10
115.4834
 20
85.6528
 30
0.0
 11
115.4834
 21
84.9103
 31
0.0
  0
LINE
  8
4
  6
CONTINUOUS
 62
     7
  5
2B7
 10
118.7858
 20
83.3977
 30
0.0
 11
115.6863
 21
83.3977
 31
0.0
  0
LINE
  8
4
  6
CONTINUOUS
 62
     7
  5
2B8
 10
115.6863
 20
83.3977
 30
0.0
 11
112.5926
 21
83.3977
 31
0.0
  0
LINE
  8
2
  6
CONTINUOUS
 62
   140
  5
2B9
 10
98.8487
 20
86.1369
 30
0.0
 11
99.0362
 21
85.9494
 31
0.0
  0
LINE
  8
2
  6
CONTINUOUS
 62
   140
  5
2BA
 10
98.7922
 20
86.1369
 30
0.0
 11
99.008
 21
85.9211
 31
0.0
  0
LINE
  8
2
  6
CONTINUOUS
 62
   140
  5
2BB
 10
98.7356
 20
86.1369
 30
0.0
 11
98.9453
 21
85.9272
 31
0.0
  0
LINE
  8
2
  6
CONTINUOUS
 62
   140
  5
2BC
 10
98.679
 20
86.1369
 30
0.0
 11
98.8887
 21
85.9272
 31
0.0
  0
LINE
  8
2
  6
CONTINUOUS
 62
   140
  5
2BD
 10
98.6225
 20
86.1369
 30
0.0
 11
98.8322
 21
85.9272
 31
0.0
  0
LINE
  8
2
  6
CONTINUOUS
 62
   140
  5
2BE
 10
98.6225
 20
86.1369
 30
0.0
 11
98.4456
 21
85.96
 31
0.0
  0
LINE
  8
2
  6
CONTINUOUS
 62
   140
  5
2BF
 10
98.5659
 20
86.1369
 30
0.0
 11
98.4173
 21
85.9883
 31
0.0
  0
LINE
  8
2
  6
CONTINUOUS
 62
   140
  5
2C0
 10
98.5093
 20
86.1369
 30
0.0
 11
98.389
 21
86.0166
 31
0.0
  0
LINE
  8
2
  6
CONTINUOUS
 62
   140
  5
2C1
 10
98.4528
 20
86.1369
 30
0.0
 11
98.3608
 21
86.0449
 31
0.0
  0
LINE
  8
2
  6
CONTINUOUS
 62
   140
  5
2C2
 10
98.3962
 20
86.1369
 30
0.0
 11
98.3325
 21
86.0732
 31
0.0
  0
LINE
  8
2
  6
CONTINUOUS
 62
   140
  5
2C3
 10
98.6508
 20
86.1086
 30
0.0
 11
98.4693
 21
85.9272
 31
0.0
  0
LINE
  8
2
  6
CONTINUOUS
 62
   140
  5
2C4
 10
98.679
 20
86.0803
 30
0.0
 11
98.5259
 21
85.9272
 31
0.0
  0
LINE
  8
2
  6
CONTINUOUS
 62
   140
  5
2C5
 10
98.2688
 20
86.1369
 30
0.0
 11
98.4563
 21
85.9494
 31
0.0
  0
LINE
  8
2
  6
CONTINUOUS
 62
   140
  5
2C6
 10
98.2122
 20
86.1369
 30
0.0
 11
98.428
 21
85.9211
 31
0.0
  0
LINE
  8
2
  6
CONTINUOUS
 62
   140
  5
2C7
 10
98.1556
 20
86.1369
 30
0.0
 11
98.3653
 21
85.9272
 31
0.0
  0
LINE
  8
2
  6
CONTINUOUS
 62
   140
  5
2C8
 10
98.1019
 20
86.1369
 30
0.0
 11
98.0382
 21
86.0732
 31
0.0
  0
LINE
  8
2
  6
CONTINUOUS
 62
   140
  5
2C9
 10
98.1585
 20
86.1369
 30
0.0
 11
98.0665
 21
86.0449
 31
0.0
  0
LINE
  8
2
  6
CONTINUOUS
 62
   140
  5
2CA
 10
98.1853
 20
86.1072
 30
0.0
 11
98.0948
 21
86.0166
 31
0.0
  0
LINE
  8
2
  6
CONTINUOUS
 62
   140
  5
2CB
 10
98.2136
 20
86.0789
 30
0.0
 11
98.1231
 21
85.9883
 31
0.0
  0
LINE
  8
2
  6
CONTINUOUS
 62
   140
  5
2CC
 10
123.5473
 20
86.1219
 30
0.0
 11
123.7348
 21
85.9344
 31
0.0
  0
LINE
  8
2
  6
CONTINUOUS
 62
   140
  5
2CD
 10
123.4908
 20
86.1219
 30
0.0
 11
123.7066
 21
85.9061
 31
0.0
  0
LINE
  8
2
  6
CONTINUOUS
 62
   140
  5
2CE
 10
123.4342
 20
86.1219
 30
0.0
 11
123.6439
 21
85.9122
 31
0.0
  0
LINE
  8
2
  6
CONTINUOUS
 62
   140
  5
2CF
 10
123.3776
 20
86.1219
 30
0.0
 11
123.5873
 21
85.9122
 31
0.0
  0
LINE
  8
2
  6
CONTINUOUS
 62
   140
  5
2D0
 10
123.3211
 20
86.1219
 30
0.0
 11
123.5308
 21
85.9122
 31
0.0
  0
LINE
  8
2
  6
CONTINUOUS
 62
   140
  5
2D1
 10
123.3211
 20
86.1219
 30
0.0
 11
123.1442
 21
85.945
 31
0.0
  0
LINE
  8
2
  6
CONTINUOUS
 62
   140
  5
2D2
 10
123.2645
 20
86.1219
 30
0.0
 11
123.1159
 21
85.9733
 31
0.0
  0
LINE
  8
2
  6
CONTINUOUS
 62
   140
  5
2D3
 10
123.2079
 20
86.1219
 30
0.0
 11
123.0876
 21
86.0016
 31
0.0
  0
LINE
  8
2
  6
CONTINUOUS
 62
   140
  5
2D4
 10
123.1514
 20
86.1219
 30
0.0
 11
123.0594
 21
86.0299
 31
0.0
  0
LINE
  8
2
  6
CONTINUOUS
 62
   140
  5
2D5
 10
123.0948
 20
86.1219
 30
0.0
 11
123.0311
 21
86.0582
 31
0.0
  0
LINE
  8
2
  6
CONTINUOUS
 62
   140
  5
2D6
 10
123.3494
 20
86.0936
 30
0.0
 11
123.1679
 21
85.9122
 31
0.0
  0
LINE
  8
2
  6
CONTINUOUS
 62
   140
  5
2D7
 10
123.3776
 20
86.0653
 30
0.0
 11
123.2245
 21
85.9122
 31
0.0
  0
LINE
  8
2
  6
CONTINUOUS
 62
   140
  5
2D8
 10
122.9674
 20
86.1219
 30
0.0
 11
123.1549
 21
85.9344
 31
0.0
  0
LINE
  8
2
  6
CONTINUOUS
 62
   140
  5
2D9
 10
122.9108
 20
86.1219
 30
0.0
 11
123.1266
 21
85.9061
 31
0.0
  0
LINE
  8
2
  6
CONTINUOUS
 62
   140
  5
2DA
 10
122.8542
 20
86.1219
 30
0.0
 11
123.0639
 21
85.9122
 31
0.0
  0
LINE
  8
2
  6
CONTINUOUS
 62
   140
  5
2DB
 10
122.8005
 20
86.1219
 30
0.0
 11
122.7368
 21
86.0582
 31
0.0
  0
LINE
  8
2
  6
CONTINUOUS
 62
   140
  5
2DC
 10
122.8571
 20
86.1219
 30
0.0
 11
122.7651
 21
86.0299
 31
0.0
  0
LINE
  8
2
  6
CONTINUOUS
 62
   140
  5
2DD
 10
122.8839
 20
86.0922
 30
0.0
 11
122.7934
 21
86.0016
 31
0.0
  0
LINE
  8
2
  6
CONTINUOUS
 62
   140
  5
2DE
 10
122.9122
 20
86.0639
 30
0.0
 11
122.8217
 21
85.9733
 31
0.0
  0
POLYLINE
  8
4
  6
CONTINUOUS
 62
     7
  5
2DF
 66
     1
 10
0.0
 20
0.0
 30
0.0
  0
VERTEX
  8
4
  6
CONTINUOUS
 62
     7
  5
2E0
 10
123.3144
 20
87.4472
 30
0.0
  0
VERTEX
  8
4
  6
CONTINUOUS
 62
     7
  5
2E1
 10
123.3616
 20
87.3656
 30
0.0
  0
VERTEX
  8
4
  6
CONTINUOUS
 62
     7
  5
2E2
 10
123.3144
 20
87.4472
 30
0.0
  0
VERTEX
  8
4
  6
CONTINUOUS
 62
     7
  5
2E3
 10
123.2674
 20
87.3656
 30
0.0
  0
SEQEND
  8
4
  6
CONTINUOUS
 62
     7
  5
2E4
  0
POLYLINE
  8
4
  6
CONTINUOUS
 62
     7
  5
2E5
 66
     1
 10
0.0
 20
0.0
 30
0.0
  0
VERTEX
  8
4
  6
CONTINUOUS
 62
     7
  5
2E6
 10
123.3144
 20
86.581
 30
0.0
  0
VERTEX
  8
4
  6
CONTINUOUS
 62
     7
  5
2E7
 10
123.2674
 20
86.6625
 30
0.0
  0
VERTEX
  8
4
  6
CONTINUOUS
 62
     7
  5
2E8
 10
123.3144
 20
86.581
 30
0.0
  0
VERTEX
  8
4
  6
CONTINUOUS
 62
     7
  5
2E9
 10
123.3614
 20
86.6625
 30
0.0
  0
SEQEND
  8
4
  6
CONTINUOUS
 62
     7
  5
2EA
  0
LINE
  8
4
  6
CONTINUOUS
 62
     7
  5
2EB
 10
96.5568
 20
86.1478
 30
0.0
 11
96.9635
 21
86.1478
 31
0.0
  0
LINE
  8
4
  6
CONTINUOUS
 62
     7
  5
2EC
 10
123.8237
 20
88.3456
 30
0.0
 11
122.8979
 21
87.2422
 31
0.0
  0
LINE
  8
4
  6
CONTINUOUS
 62
     7
  5
2ED
 10
123.8241
 20
88.3461
 30
0.0
 11
124.1725
 21
88.3461
 31
0.0
  0
POLYLINE
  8
4
  6
CONTINUOUS
 62
     7
  5
2EE
 66
     1
 10
0.0
 20
0.0
 30
0.0
  0
VERTEX
  8
4
  6
CONTINUOUS
 62
     7
  5
2EF
 10
122.899
 20
87.238
 30
0.0
  0
VERTEX
  8
4
  6
CONTINUOUS
 62
     7
  5
2F0
 10
122.9156
 20
87.3308
 30
0.0
  0
VERTEX
  8
4
  6
CONTINUOUS
 62
     7
  5
2F1
 10
122.899
 20
87.238
 30
0.0
  0
VERTEX
  8
4
  6
CONTINUOUS
 62
     7
  5
2F2
 10
122.9876
 20
87.2704
 30
0.0
  0
SEQEND
  8
4
  6
CONTINUOUS
 62
     7
  5
2F3
  0
LINE
  8
5
  6
CONTINUOUS
 62
   241
  5
2F4
 10
96.9578
 20
87.307
 30
0.0
 11
96.9578
 21
87.9749
 31
0.0
  0
LINE
  8
4
  6
CONTINUOUS
 62
     7
  5
2F5
 10
95.8831
 20
87.8943
 30
0.0
 11
97.2723
 21
87.8943
 31
0.0
  0
POLYLINE
  8
4
  6
CONTINUOUS
 62
     7
  5
2F6
 66
     1
 10
0.0
 20
0.0
 30
0.0
  0
VERTEX
  8
4
  6
CONTINUOUS
 62
     7
  5
2F7
 10
96.9808
 20
87.8943
 30
0.0
  0
VERTEX
  8
4
  6
CONTINUOUS
 62
     7
  5
2F8
 10
97.0623
 20
87.9412
 30
0.0
  0
VERTEX
  8
4
  6
CONTINUOUS
 62
     7
  5
2F9
 10
96.9808
 20
87.8943
 30
0.0
  0
VERTEX
  8
4
  6
CONTINUOUS
 62
     7
  5
2FA
 10
97.0623
 20
87.847
 30
0.0
  0
SEQEND
  8
4
  6
CONTINUOUS
 62
     7
  5
2FB
  0
POLYLINE
  8
4
  6
CONTINUOUS
 62
     7
  5
2FC
 66
     1
 10
0.0
 20
0.0
 30
0.0
  0
VERTEX
  8
4
  6
CONTINUOUS
 62
     7
  5
2FD
 10
97.2723
 20
87.8943
 30
0.0
  0
VERTEX
  8
4
  6
CONTINUOUS
 62
     7
  5
2FE
 10
97.1906
 20
87.8473
 30
0.0
  0
VERTEX
  8
4
  6
CONTINUOUS
 62
     7
  5
2FF
 10
97.2723
 20
87.8943
 30
0.0
  0
VERTEX
  8
4
  6
CONTINUOUS
 62
     7
  5
300
 10
97.1906
 20
87.9413
 30
0.0
  0
SEQEND
  8
4
  6
CONTINUOUS
 62
     7
  5
301
  0
TEXT
  8
3
  6
CONTINUOUS
 62
   110
  5
302
 10
95.821
 20
88.2278
 30
0.0
 40
0.15
  1
Splice bolts
 41
0.732667
  7
ROMANS
 72
     1
 11
96.462
 21
88.2278
 31
0.0
210
0.0
220
0.0
230
1.0
  0
TEXT
  8
3
  6
CONTINUOUS
 62
   110
  5
303
 10
96.039
 20
87.9778
 30
0.0
 40
0.15
  1
and nuts
 41
0.732667
  7
ROMANS
 72
     1
 11
96.4602
 21
87.9778
 31
0.0
210
0.0
220
0.0
230
1.0
  0
LINE
  8
2
  6
CONTINUOUS
 62
   140
  5
304
 10
96.5052
 20
87.2023
 30
0.0
 11
120.5126
 21
87.2023
 31
0.0
  0
LINE
  8
2
  6
CONTINUOUS
 62
   140
  5
305
 10
96.5052
 20
87.1392
 30
0.0
 11
120.5126
 21
87.1392
 31
0.0
  0
LINE
  8
2
  6
CONTINUOUS
 62
   140
  5
306
 10
96.5052
 20
87.072
 30
0.0
 11
120.5126
 21
87.072
 31
0.0
  0
LINE
  8
2
  6
CONTINUOUS
 62
   140
  5
307
 10
96.5052
 20
86.9566
 30
0.0
 11
120.5126
 21
86.9566
 31
0.0
  0
LINE
  8
2
  6
CONTINUOUS
 62
   140
  5
308
 10
96.5052
 20
86.8892
 30
0.0
 11
120.5126
 21
86.8892
 31
0.0
  0
LINE
  8
2
  6
CONTINUOUS
 62
   140
  5
309
 10
96.5052
 20
86.8261
 30
0.0
 11
120.5126
 21
86.8261
 31
0.0
  0
LINE
  8
2
  6
CONTINUOUS
 62
   140
  5
30A
 10
96.5052
 20
86.9916
 30
0.0
 11
120.5126
 21
86.9916
 31
0.0
  0
LINE
  8
2
  6
CONTINUOUS
 62
   140
  5
30B
 10
120.5126
 20
87.0368
 30
0.0
 11
96.5052
 21
87.0368
 31
0.0
  0
CIRCLE
  8
2
  6
CONTINUOUS
 62
   140
  5
30C
 10
109.499046
 20
87.014081
 30
0.0
 40
0.021057
210
0.0
220
0.0
230
1.0
  0
LINE
  8
2
  6
HIDDEN
 62
   140
  5
30D
 10
122.0543
 20
92.0502
 30
0.0
 11
122.1047
 21
92.0502
 31
0.0
  0
LINE
  8
2
  6
CONTINUOUS
 62
   140
  5
30E
 10
122.1047
 20
92.0254
 30
0.0
 11
122.1405
 21
92.0254
 31
0.0
  0
LINE
  8
2
  6
CONTINUOUS
 62
   140
  5
30F
 10
122.1281
 20
86.3077
 30
0.0
 11
122.1638
 21
86.3077
 31
0.0
  0
LINE
  8
2
  6
CONTINUOUS
 62
   140
  5
310
 10
122.1281
 20
86.2829
 30
0.0
 11
122.1638
 21
86.2829
 31
0.0
  0
POINT
  8
1
  6
CONTINUOUS
 62
   140
  5
311
 10
133.7467
 20
72.2792
 30
0.0
  0
POINT
  8
1
  6
CONTINUOUS
 62
   140
  5
312
 10
133.7467
 20
97.4792
 30
0.0
  0
LINE
  8
11
  6
CONTINUOUS
 62
    40
  5
313
 10
106.5288
 20
86.2328
 30
0.0
 11
106.5288
 21
86.1478
 31
0.0
  0
LINE
  8
11
  6
CONTINUOUS
 62
    40
  5
314
 10
106.2813
 20
86.2328
 30
0.0
 11
106.2813
 21
86.1478
 31
0.0
  0
LINE
  8
11
  6
CONTINUOUS
 62
    40
  5
315
 10
100.0938
 20
86.2328
 30
0.0
 11
100.0938
 21
86.1478
 31
0.0
  0
LINE
  8
11
  6
CONTINUOUS
 62
    40
  5
316
 10
100.3413
 20
86.1478
 30
0.0
 11
100.3413
 21
86.2328
 31
0.0
  0
LINE
  8
11
  6
CONTINUOUS
 62
    40
  5
317
 10
109.6226
 20
86.1478
 30
0.0
 11
109.6226
 21
86.2328
 31
0.0
  0
LINE
  8
11
  6
CONTINUOUS
 62
    40
  5
318
 10
109.3751
 20
86.2328
 30
0.0
 11
109.3751
 21
86.1478
 31
0.0
  0
LINE
  8
2
  6
CONTINUOUS
 62
   140
  5
319
 10
112.7163
 20
87.2616
 30
0.0
 11
112.7163
 21
87.3235
 31
0.0
  0
LINE
  8
2
  6
CONTINUOUS
 62
   140
  5
31A
 10
112.4688
 20
87.4416
 30
0.0
 11
112.4688
 21
87.3235
 31
0.0
  0
LINE
  8
3
  6
CONTINUOUS
 62
   110
  5
31B
 10
96.5052
 20
86.9916
 30
0.0
 11
96.5052
 21
87.0368
 31
0.0
  0
POINT
  8
1
  6
CONTINUOUS
 62
   140
  5
31C
 10
126.5467
 20
76.4766
 30
0.0
  0
LINE
  8
2
  6
CONTINUOUS
 62
   140
  5
31D
 10
112.757
 20
92.513
 30
0.0
 11
112.757
 21
92.1245
 31
0.0
  0
LINE
  8
2
  6
CONTINUOUS
 62
   140
  5
31E
 10
112.4303
 20
92.1245
 30
0.0
 11
112.4303
 21
92.513
 31
0.0
  0
LINE
  8
2
  6
CONTINUOUS
 62
   140
  5
31F
 10
112.4303
 20
92.513
 30
0.0
 11
112.757
 21
92.513
 31
0.0
  0
LINE
  8
2
  6
CONTINUOUS
 62
   140
  5
320
 10
112.757
 20
92.1245
 30
0.0
 11
112.7174
 21
92.1245
 31
0.0
  0
LINE
  8
2
  6
CONTINUOUS
 62
   140
  5
321
 10
112.4699
 20
92.1245
 30
0.0
 11
112.4303
 21
92.1245
 31
0.0
  0
LINE
  8
4
  6
CONTINUOUS
 62
     7
  5
322
 10
97.1238
 20
83.8527
 30
0.0
 11
95.1783
 21
83.8527
 31
0.0
  0
POLYLINE
  8
4
  6
CONTINUOUS
 62
     7
  5
323
 66
     1
 10
0.0
 20
0.0
 30
0.0
  0
VERTEX
  8
4
  6
CONTINUOUS
 62
     7
  5
324
 10
97.1238
 20
83.8527
 30
0.0
  0
VERTEX
  8
4
  6
CONTINUOUS
 62
     7
  5
325
 10
97.0372
 20
83.8027
 30
0.0
  0
VERTEX
  8
4
  6
CONTINUOUS
 62
     7
  5
326
 10
97.1238
 20
83.8527
 30
0.0
  0
VERTEX
  8
4
  6
CONTINUOUS
 62
     7
  5
327
 10
97.0372
 20
83.9027
 30
0.0
  0
SEQEND
  8
4
  6
CONTINUOUS
 62
     7
  5
328
  0
TEXT
  8
3
  6
CONTINUOUS
 62
   110
  5
329
 10
95.6676
 20
83.9063
 30
0.0
 40
0.15
  1
Regular Line
 41
0.732667
  7
ROMANS
 72
     1
 11
96.3098
 21
83.9063
 31
0.0
210
0.0
220
0.0
230
1.0
  0
TEXT
  8
3
  6
CONTINUOUS
 62
   110
  5
32A
 10
96.0501
 20
83.6563
 30
0.0
 40
0.15
  1
Posts
 41
0.732667
  7
ROMANS
 72
     1
 11
96.3065
 21
83.6563
 31
0.0
210
0.0
220
0.0
230
1.0
  0
TEXT
  8
2
  6
CONTINUOUS
 62
   140
  5
32B
 10
133.8574
 20
72.2952
 30
0.0
 40
0.072
  1
$$$$$$$$$FILENAME$$$$$$$$$$
 50
90.0
  7
txt
 11
133.8214
 21
72.2952
 31
0.0
210
0.0
220
0.0
230
1.0
 73
     2
  0
TEXT
  8
3
  6
CONTINUOUS
 62
   110
  5
32C
 10
98.387
 20
88.1577
 30
0.0
 40
0.15
  1
Do not attach rail to
 41
0.732667
  7
ROMANS
 72
     1
 11
99.528
 21
88.1577
 31
0.0
210
0.0
220
0.0
230
1.0
  0
TEXT
  8
3
  6
CONTINUOUS
 62
   110
  5
32D
 10
98.3368
 20
87.9077
 30
0.0
 40
0.15
  1
block at this location
 41
0.732667
  7
ROMANS
 72
     1
 11
99.5282
 21
87.9077
 31
0.0
210
0.0
220
0.0
230
1.0
  0
POLYLINE
  8
4
  6
CONTINUOUS
 62
     7
  5
32E
 66
     1
 10
0.0
 20
0.0
 30
0.0
  0
VERTEX
  8
4
  6
CONTINUOUS
 62
     7
  5
32F
 10
98.177
 20
88.126
 30
0.0
  0
VERTEX
  8
4
  6
CONTINUOUS
 62
     7
  5
330
 10
98.130766
 20
88.126615
 30
0.0
  0
VERTEX
  8
4
  6
CONTINUOUS
 62
     7
  5
331
 10
98.067809
 20
88.127565
 30
0.0
  0
VERTEX
  8
4
  6
CONTINUOUS
 62
     7
  5
332
 10
98.035777
 20
88.127111
 30
0.0
  0
VERTEX
  8
4
  6
CONTINUOUS
 62
     7
  5
333
 10
97.987051
 20
88.124043
 30
0.0
  0
VERTEX
  8
4
  6
CONTINUOUS
 62
     7
  5
334
 10
97.962386
 20
88.121034
 30
0.0
  0
VERTEX
  8
4
  6
CONTINUOUS
 62
     7
  5
335
 10
97.92919
 20
88.115078
 30
0.0
  0
VERTEX
  8
4
  6
CONTINUOUS
 62
     7
  5
336
 10
97.912461
 20
88.111145
 30
0.0
  0
VERTEX
  8
4
  6
CONTINUOUS
 62
     7
  5
337
 10
97.887204
 20
88.103896
 30
0.0
  0
VERTEX
  8
4
  6
CONTINUOUS
 62
     7
  5
338
 10
97.848956
 20
88.089624
 30
0.0
  0
VERTEX
  8
4
  6
CONTINUOUS
 62
     7
  5
339
 10
97.814596
 20
88.073068
 30
0.0
  0
VERTEX
  8
4
  6
CONTINUOUS
 62
     7
  5
33A
 10
97.79729
 20
88.063282
 30
0.0
  0
VERTEX
  8
4
  6
CONTINUOUS
 62
     7
  5
33B
 10
97.771175
 20
88.046562
 30
0.0
  0
VERTEX
  8
4
  6
CONTINUOUS
 62
     7
  5
33C
 10
97.744873
 20
88.02723
 30
0.0
  0
VERTEX
  8
4
  6
CONTINUOUS
 62
     7
  5
33D
 10
97.731653
 20
88.016527
 30
0.0
  0
VERTEX
  8
4
  6
CONTINUOUS
 62
     7
  5
33E
 10
97.705076
 20
87.992932
 30
0.0
  0
VERTEX
  8
4
  6
CONTINUOUS
 62
     7
  5
33F
 10
97.69172
 20
87.979994
 30
0.0
  0
VERTEX
  8
4
  6
CONTINUOUS
 62
     7
  5
340
 10
97.6716
 20
87.959096
 30
0.0
  0
VERTEX
  8
4
  6
CONTINUOUS
 62
     7
  5
341
 10
97.635583
 20
87.917307
 30
0.0
  0
VERTEX
  8
4
  6
CONTINUOUS
 62
     7
  5
342
 10
97.617456
 20
87.894074
 30
0.0
  0
VERTEX
  8
4
  6
CONTINUOUS
 62
     7
  5
343
 10
97.590119
 20
87.856147
 30
0.0
  0
VERTEX
  8
4
  6
CONTINUOUS
 62
     7
  5
344
 10
97.562607
 20
87.814363
 30
0.0
  0
VERTEX
  8
4
  6
CONTINUOUS
 62
     7
  5
345
 10
97.548787
 20
87.791968
 30
0.0
  0
VERTEX
  8
4
  6
CONTINUOUS
 62
     7
  5
346
 10
97.507069
 20
87.71849
 30
0.0
  0
VERTEX
  8
4
  6
CONTINUOUS
 62
     7
  5
347
 10
97.486067
 20
87.67807
 30
0.0
  0
VERTEX
  8
4
  6
CONTINUOUS
 62
     7
  5
348
 10
97.44378
 20
87.589478
 30
0.0
  0
VERTEX
  8
4
  6
CONTINUOUS
 62
     7
  5
349
 10
97.422497
 20
87.54115
 30
0.0
  0
VERTEX
  8
4
  6
CONTINUOUS
 62
     7
  5
34A
 10
97.3904
 20
87.4634
 30
0.0
  0
SEQEND
  8
4
  6
CONTINUOUS
 62
     7
  5
34B
  0
SOLID
  8
4
  6
CONTINUOUS
 62
     7
  5
34C
 10
97.3635
 20
87.475
 30
0.0
 11
97.4173
 21
87.4518
 31
0.0
 12
97.3212
 22
87.3024
 32
0.0
 13
97.3212
 23
87.3024
 33
0.0
  0
POLYLINE
  8
4
  6
CONTINUOUS
 62
     7
  5
34D
 66
     1
 10
0.0
 20
0.0
 30
0.0
  0
VERTEX
  8
4
  6
CONTINUOUS
 62
     7
  5
34E
 10
95.2649
 20
83.9027
 30
0.0
  0
VERTEX
  8
4
  6
CONTINUOUS
 62
     7
  5
34F
 10
95.1783
 20
83.8527
 30
0.0
  0
VERTEX
  8
4
  6
CONTINUOUS
 62
     7
  5
350
 10
95.2649
 20
83.8027
 30
0.0
  0
SEQEND
  8
4
  6
CONTINUOUS
 62
     7
  5
351
  0
POLYLINE
  8
4
  6
CONTINUOUS
 62
     7
  5
352
 66
     1
 10
0.0
 20
0.0
 30
0.0
  0
VERTEX
  8
4
  6
CONTINUOUS
 62
     7
  5
353
 10
95.3984
 20
83.9027
 30
0.0
  0
VERTEX
  8
4
  6
CONTINUOUS
 62
     7
  5
354
 10
95.3118
 20
83.8527
 30
0.0
  0
VERTEX
  8
4
  6
CONTINUOUS
 62
     7
  5
355
 10
95.3984
 20
83.8027
 30
0.0
  0
SEQEND
  8
4
  6
CONTINUOUS
 62
     7
  5
356
  0
POLYLINE
  8
4
  6
CONTINUOUS
 62
     7
  5
357
 66
     1
 10
0.0
 20
0.0
 30
0.0
  0
VERTEX
  8
4
  6
CONTINUOUS
 62
     7
  5
358
 10
95.3467
 20
94.5517
 30
0.0
  0
VERTEX
  8
4
  6
CONTINUOUS
 62
     7
  5
359
 10
95.4282
 20
94.5986
 30
0.0
  0
VERTEX
  8
4
  6
CONTINUOUS
 62
     7
  5
35A
 10
95.3467
 20
94.5517
 30
0.0
  0
VERTEX
  8
4
  6
CONTINUOUS
 62
     7
  5
35B
 10
95.4282
 20
94.5044
 30
0.0
  0
SEQEND
  8
4
  6
CONTINUOUS
 62
     7
  5
35C
  0
TEXT
  8
5
  6
CONTINUOUS
 62
   241
  5
35D
 10
106.1065
 20
83.4844
 30
0.0
 40
0.15
  1
37'-6"
 41
0.732667
  7
MONOTXT
 72
     1
 11
106.3596
 21
83.4844
 31
0.0
210
0.0
220
0.0
230
1.0
  0
LINE
  8
4
  6
CONTINUOUS
 62
     7
  5
35E
 10
123.3155
 20
90.4861
 30
0.0
 11
123.3155
 21
91.3523
 31
0.0
  0
POLYLINE
  8
4
  6
CONTINUOUS
 62
     7
  5
35F
 66
     1
 10
0.0
 20
0.0
 30
0.0
  0
VERTEX
  8
4
  6
CONTINUOUS
 62
     7
  5
360
 10
123.3155
 20
90.4861
 30
0.0
  0
VERTEX
  8
4
  6
CONTINUOUS
 62
     7
  5
361
 10
123.2685
 20
90.5676
 30
0.0
  0
VERTEX
  8
4
  6
CONTINUOUS
 62
     7
  5
362
 10
123.3155
 20
90.4861
 30
0.0
  0
VERTEX
  8
4
  6
CONTINUOUS
 62
     7
  5
363
 10
123.3625
 20
90.5676
 30
0.0
  0
SEQEND
  8
4
  6
CONTINUOUS
 62
     7
  5
364
  0
POLYLINE
  8
4
  6
CONTINUOUS
 62
     7
  5
365
 66
     1
 10
0.0
 20
0.0
 30
0.0
  0
VERTEX
  8
4
  6
CONTINUOUS
 62
     7
  5
366
 10
123.3155
 20
91.3523
 30
0.0
  0
VERTEX
  8
4
  6
CONTINUOUS
 62
     7
  5
367
 10
123.3626
 20
91.2707
 30
0.0
  0
VERTEX
  8
4
  6
CONTINUOUS
 62
     7
  5
368
 10
123.3155
 20
91.3523
 30
0.0
  0
VERTEX
  8
4
  6
CONTINUOUS
 62
     7
  5
369
 10
123.2685
 20
91.2707
 30
0.0
  0
SEQEND
  8
4
  6
CONTINUOUS
 62
     7
  5
36A
  0
LINE
  8
2
  6
CONTINUOUS
 62
   140
  5
36B
 10
96.3859
 20
90.4861
 30
0.0
 11
133.0157
 21
90.4861
 31
0.0
  0
LINE
  8
4
  6
CONTINUOUS
 62
     7
  5
36C
 10
96.3859
 20
91.4808
 30
0.0
 11
96.2173
 21
91.5936
 31
0.0
  0
LINE
  8
4
  6
CONTINUOUS
 62
     7
  5
36D
 10
96.3859
 20
91.7687
 30
0.0
 11
96.5433
 21
91.9322
 31
0.0
  0
LINE
  8
4
  6
CONTINUOUS
 62
     7
  5
36E
 10
96.5433
 20
91.9322
 30
0.0
 11
96.3756
 21
92.0444
 31
0.0
  0
LINE
  8
4
  6
CONTINUOUS
 62
     7
  5
36F
 10
96.3756
 20
92.0444
 30
0.0
 11
96.3753
 21
92.1904
 31
0.0
  0
LINE
  8
2
  6
HIDDEN
 62
   140
  5
370
 10
112.5937
 20
94.1605
 30
0.0
 11
121.8749
 21
94.1605
 31
0.0
  0
LINE
  8
3
  6
CONTINUOUS
 62
    40
  5
371
 10
113.5597
 20
92.5526
 30
0.0
 11
113.5597
 21
94.1605
 31
0.0
  0
LINE
  8
2
  6
HIDDEN
 62
   140
  5
372
 10
121.8749
 20
94.1605
 30
0.0
 11
132.1985
 21
92.1796
 31
0.0
  0
TEXT
  8
3
  6
CONTINUOUS
 62
    40
  5
373
 10
114.6837
 20
93.8789
 30
0.0
 40
0.15
  1
10:1 slope
 41
0.733333
  7
ROMANS
 72
     1
 11
115.2165
 21
93.8789
 31
0.0
210
0.0
220
0.0
230
1.0
  0
TEXT
  8
3
  6
CONTINUOUS
 62
    40
  5
374
 10
114.9124
 20
93.6289
 30
0.0
 40
0.15
  1
 (Max)
 41
0.733333
  7
ROMANS
 72
     1
 11
115.2149
 21
93.6289
 31
0.0
210
0.0
220
0.0
230
1.0
  0
TEXT
  8
3
  6
CONTINUOUS
 62
    40
  5
375
 10
95.8141
 20
94.8947
 30
0.0
 40
0.15
  1
Standard
 41
0.733333
  7
ROMANS
 72
     1
 11
96.2361
 21
94.8947
 31
0.0
210
0.0
220
0.0
230
1.0
  0
TEXT
  8
3
  6
CONTINUOUS
 62
    40
  5
376
 10
96.0325
 20
94.6247
 30
0.0
 40
0.15
  1
post
 41
0.733333
  7
ROMANS
 72
     1
 11
96.2345
 21
94.6247
 31
0.0
210
0.0
220
0.0
230
1.0
  0
TEXT
  8
3
  6
CONTINUOUS
 62
    40
  5
377
 10
95.8141
 20
94.3547
 30
0.0
 40
0.15
  1
sections
 41
0.733333
  7
ROMANS
 72
     1
 11
96.2357
 21
94.3547
 31
0.0
210
0.0
220
0.0
230
1.0
  0
LINE
  8
5
  6
CONTINUOUS
 62
   241
  5
378
 10
97.1238
 20
93.4394
 30
0.0
 11
97.1238
 21
94.6862
 31
0.0
  0
LINE
  8
4
  6
CONTINUOUS
 62
     7
  5
379
 10
96.3753
 20
92.1904
 30
0.0
 11
96.3753
 21
92.6131
 31
0.0
  0
POLYLINE
  8
3
  6
CONTINUOUS
 62
    40
  5
37A
 66
     1
 10
0.0
 20
0.0
 30
0.0
  0
VERTEX
  8
3
  6
CONTINUOUS
 62
    40
  5
37B
 10
113.5597
 20
92.5526
 30
0.0
  0
VERTEX
  8
3
  6
CONTINUOUS
 62
    40
  5
37C
 10
113.5162
 20
92.6282
 30
0.0
  0
VERTEX
  8
3
  6
CONTINUOUS
 62
    40
  5
37D
 10
113.5597
 20
92.5526
 30
0.0
  0
VERTEX
  8
3
  6
CONTINUOUS
 62
    40
  5
37E
 10
113.6034
 20
92.6282
 30
0.0
  0
SEQEND
  8
3
  6
CONTINUOUS
 62
    40
  5
37F
  0
LINE
  8
3
  6
CONTINUOUS
 62
    40
  5
380
 10
116.0406
 20
94.0186
 30
0.0
 11
116.0406
 21
93.4462
 31
0.0
  0
POLYLINE
  8
3
  6
CONTINUOUS
 62
    40
  5
381
 66
     1
 10
0.0
 20
0.0
 30
0.0
  0
VERTEX
  8
3
  6
CONTINUOUS
 62
    40
  5
382
 10
115.9816
 20
93.8566
 30
0.0
  0
VERTEX
  8
3
  6
CONTINUOUS
 62
    40
  5
383
 10
116.0406
 20
94.0186
 30
0.0
  0
VERTEX
  8
3
  6
CONTINUOUS
 62
    40
  5
384
 10
116.0998
 20
93.8559
 30
0.0
  0
VERTEX
  8
3
  6
CONTINUOUS
 62
    40
  5
385
 10
116.0409
 20
93.8562
 30
0.0
  0
VERTEX
  8
3
  6
CONTINUOUS
 62
    40
  5
386
 10
116.0406
 20
94.0186
 30
0.0
  0
VERTEX
  8
3
  6
CONTINUOUS
 62
    40
  5
387
 10
115.9816
 20
93.8561
 30
0.0
  0
VERTEX
  8
3
  6
CONTINUOUS
 62
    40
  5
388
 10
116.1003
 20
93.8561
 30
0.0
  0
SEQEND
  8
3
  6
CONTINUOUS
 62
    40
  5
389
  0
LINE
  8
3
  6
CONTINUOUS
 62
    40
  5
38A
 10
104.8539
 20
93.4878
 30
0.0
 11
104.8539
 21
92.8946
 31
0.0
  0
POLYLINE
  8
3
  6
CONTINUOUS
 62
    40
  5
38B
 66
     1
 10
0.0
 20
0.0
 30
0.0
  0
VERTEX
  8
3
  6
CONTINUOUS
 62
    40
  5
38C
 10
104.7949
 20
93.3258
 30
0.0
  0
VERTEX
  8
3
  6
CONTINUOUS
 62
    40
  5
38D
 10
104.8539
 20
93.4878
 30
0.0
  0
VERTEX
  8
3
  6
CONTINUOUS
 62
    40
  5
38E
 10
104.9131
 20
93.3251
 30
0.0
  0
VERTEX
  8
3
  6
CONTINUOUS
 62
    40
  5
38F
 10
104.8542
 20
93.3254
 30
0.0
  0
VERTEX
  8
3
  6
CONTINUOUS
 62
    40
  5
390
 10
104.8539
 20
93.4878
 30
0.0
  0
VERTEX
  8
3
  6
CONTINUOUS
 62
    40
  5
391
 10
104.7949
 20
93.3253
 30
0.0
  0
VERTEX
  8
3
  6
CONTINUOUS
 62
    40
  5
392
 10
104.9136
 20
93.3253
 30
0.0
  0
SEQEND
  8
3
  6
CONTINUOUS
 62
    40
  5
393
  0
TEXT
  8
3
  6
CONTINUOUS
 62
    40
  5
394
 10
103.5721
 20
93.1992
 30
0.0
 40
0.15
  1
10:1 slope
 41
0.733333
  7
ROMANS
 72
     1
 11
104.1049
 21
93.1992
 31
0.0
210
0.0
220
0.0
230
1.0
  0
TEXT
  8
3
  6
CONTINUOUS
 62
    40
  5
395
 10
103.8553
 20
92.9492
 30
0.0
 40
0.15
  1
(Max)
 41
0.733333
  7
ROMANS
 72
     1
 11
104.1028
 21
92.9492
 31
0.0
210
0.0
220
0.0
230
1.0
  0
LINE
  8
3
  6
CONTINUOUS
 62
    40
  5
396
 10
112.5937
 20
94.2282
 30
0.0
 11
112.5937
 21
95.6771
 31
0.0
  0
LINE
  8
3
  6
CONTINUOUS
 62
    40
  5
397
 10
121.8749
 20
95.5861
 30
0.0
 11
112.5937
 21
95.5861
 31
0.0
  0
TEXT
  8
3
  6
CONTINUOUS
 62
    40
  5
398
 10
116.1101
 20
95.8191
 30
0.0
 40
0.1399
  1
slope 4:1 or flatter
 41
0.785561
  7
ROMANS
210
0.0
220
0.0
230
1.0
  0
LINE
  8
3
  6
CONTINUOUS
 62
    40
  5
399
 10
118.4393
 20
96.1481
 30
0.0
 11
118.4393
 21
95.7587
 31
0.0
  0
POLYLINE
  8
3
  6
CONTINUOUS
 62
    40
  5
39A
 66
     1
 10
0.0
 20
0.0
 30
0.0
  0
VERTEX
  8
3
  6
CONTINUOUS
 62
    40
  5
39B
 10
118.38
 20
96.1486
 30
0.0
  0
VERTEX
  8
3
  6
CONTINUOUS
 62
    40
  5
39C
 10
118.439
 20
96.3106
 30
0.0
  0
VERTEX
  8
3
  6
CONTINUOUS
 62
    40
  5
39D
 10
118.4982
 20
96.1479
 30
0.0
  0
VERTEX
  8
3
  6
CONTINUOUS
 62
    40
  5
39E
 10
118.4393
 20
96.1482
 30
0.0
  0
VERTEX
  8
3
  6
CONTINUOUS
 62
    40
  5
39F
 10
118.439
 20
96.3106
 30
0.0
  0
VERTEX
  8
3
  6
CONTINUOUS
 62
    40
  5
3A0
 10
118.38
 20
96.1481
 30
0.0
  0
VERTEX
  8
3
  6
CONTINUOUS
 62
    40
  5
3A1
 10
118.4987
 20
96.1481
 30
0.0
  0
SEQEND
  8
3
  6
CONTINUOUS
 62
    40
  5
3A2
  0
POLYLINE
  8
3
  6
CONTINUOUS
 62
    40
  5
3A3
 66
     1
 10
0.0
 20
0.0
 30
0.0
  0
VERTEX
  8
3
  6
CONTINUOUS
 62
    40
  5
3A4
 10
113.5597
 20
94.1605
 30
0.0
  0
VERTEX
  8
3
  6
CONTINUOUS
 62
    40
  5
3A5
 10
113.6068
 20
94.0789
 30
0.0
  0
VERTEX
  8
3
  6
CONTINUOUS
 62
    40
  5
3A6
 10
113.5597
 20
94.1605
 30
0.0
  0
VERTEX
  8
3
  6
CONTINUOUS
 62
    40
  5
3A7
 10
113.5127
 20
94.0789
 30
0.0
  0
SEQEND
  8
3
  6
CONTINUOUS
 62
    40
  5
3A8
  0
POLYLINE
  8
3
  6
CONTINUOUS
 62
    40
  5
3A9
 66
     1
 10
0.0
 20
0.0
 30
0.0
  0
VERTEX
  8
3
  6
CONTINUOUS
 62
    40
  5
3AA
 10
97.1238
 20
94.5517
 30
0.0
  0
VERTEX
  8
3
  6
CONTINUOUS
 62
    40
  5
3AB
 10
97.0421
 20
94.5047
 30
0.0
  0
VERTEX
  8
3
  6
CONTINUOUS
 62
    40
  5
3AC
 10
97.1238
 20
94.5517
 30
0.0
  0
VERTEX
  8
3
  6
CONTINUOUS
 62
    40
  5
3AD
 10
97.0421
 20
94.5987
 30
0.0
  0
SEQEND
  8
3
  6
CONTINUOUS
 62
    40
  5
3AE
  0
LINE
  8
3
  6
CONTINUOUS
 62
    40
  5
3AF
 10
123.0078
 20
92.694
 30
0.0
 11
122.7982
 21
92.244
 31
0.0
  0
POLYLINE
  8
3
  6
CONTINUOUS
 62
    40
  5
3B0
 66
     1
 10
0.0
 20
0.0
 30
0.0
  0
VERTEX
  8
3
  6
CONTINUOUS
 62
    40
  5
3B1
 10
122.7982
 20
92.244
 30
0.0
  0
VERTEX
  8
3
  6
CONTINUOUS
 62
    40
  5
3B2
 10
122.7902
 20
92.3381
 30
0.0
  0
VERTEX
  8
3
  6
CONTINUOUS
 62
    40
  5
3B3
 10
122.7982
 20
92.244
 30
0.0
  0
VERTEX
  8
3
  6
CONTINUOUS
 62
    40
  5
3B4
 10
122.8755
 20
92.2982
 30
0.0
  0
SEQEND
  8
3
  6
CONTINUOUS
 62
    40
  5
3B5
  0
LINE
  8
3
  6
CONTINUOUS
 62
    40
  5
3B6
 10
123.0078
 20
92.694
 30
0.0
 11
123.3003
 21
92.694
 31
0.0
  0
TEXT
  8
3
  6
CONTINUOUS
 62
    40
  5
3B7
 10
120.3277
 20
93.7156
 30
0.0
 40
0.15
  1
Shoulder
 41
0.732667
  7
ROMANS
 72
     1
 11
120.7489
 21
93.7156
 31
0.0
210
0.0
220
0.0
230
1.0
  0
TEXT
  8
3
  6
CONTINUOUS
 62
    40
  5
3B8
 10
120.1641
 20
93.4656
 30
0.0
 40
0.15
  1
break point
 41
0.732667
  7
ROMANS
 72
     1
 11
120.7505
 21
93.4656
 31
0.0
210
0.0
220
0.0
230
1.0
  0
LINE
  8
3
  6
CONTINUOUS
 62
    40
  5
3B9
 10
121.5222
 20
93.7176
 30
0.0
 11
121.2434
 21
93.7176
 31
0.0
  0
LINE
  8
3
  6
CONTINUOUS
 62
    40
  5
3BA
 10
122.0186
 20
94.0917
 30
0.0
 11
121.5222
 21
93.7176
 31
0.0
  0
LINE
  8
3
  6
CONTINUOUS
 62
    40
  5
3BB
 10
121.6414
 20
94.1327
 30
0.0
 11
121.5222
 21
93.7176
 31
0.0
  0
POLYLINE
  8
3
  6
CONTINUOUS
 62
    40
  5
3BC
 66
     1
 10
0.0
 20
0.0
 30
0.0
  0
VERTEX
  8
3
  6
CONTINUOUS
 62
    40
  5
3BD
 10
122.0186
 20
94.0917
 30
0.0
  0
VERTEX
  8
3
  6
CONTINUOUS
 62
    40
  5
3BE
 10
121.94
 20
94.0818
 30
0.0
  0
VERTEX
  8
3
  6
CONTINUOUS
 62
    40
  5
3BF
 10
122.0186
 20
94.0917
 30
0.0
  0
VERTEX
  8
3
  6
CONTINUOUS
 62
    40
  5
3C0
 10
121.9877
 20
94.0186
 30
0.0
  0
SEQEND
  8
3
  6
CONTINUOUS
 62
    40
  5
3C1
  0
POLYLINE
  8
3
  6
CONTINUOUS
 62
    40
  5
3C2
 66
     1
 10
0.0
 20
0.0
 30
0.0
  0
VERTEX
  8
3
  6
CONTINUOUS
 62
    40
  5
3C3
 10
121.6414
 20
94.1327
 30
0.0
  0
VERTEX
  8
3
  6
CONTINUOUS
 62
    40
  5
3C4
 10
121.5863
 20
94.0757
 30
0.0
  0
VERTEX
  8
3
  6
CONTINUOUS
 62
    40
  5
3C5
 10
121.6414
 20
94.1327
 30
0.0
  0
VERTEX
  8
3
  6
CONTINUOUS
 62
    40
  5
3C6
 10
121.6633
 20
94.0564
 30
0.0
  0
SEQEND
  8
3
  6
CONTINUOUS
 62
    40
  5
3C7
  0
POLYLINE
  8
3
  6
CONTINUOUS
 62
    40
  5
3C8
 66
     1
 10
0.0
 20
0.0
 30
0.0
  0
VERTEX
  8
3
  6
CONTINUOUS
 62
    40
  5
3C9
 10
95.1766
 20
94.5517
 30
0.0
  0
VERTEX
  8
3
  6
CONTINUOUS
 62
    40
  5
3CA
 10
95.2581
 20
94.5986
 30
0.0
  0
VERTEX
  8
3
  6
CONTINUOUS
 62
    40
  5
3CB
 10
95.1766
 20
94.5517
 30
0.0
  0
VERTEX
  8
3
  6
CONTINUOUS
 62
    40
  5
3CC
 10
95.2581
 20
94.5044
 30
0.0
  0
SEQEND
  8
3
  6
CONTINUOUS
 62
    40
  5
3CD
  0
POLYLINE
  8
3
  6
CONTINUOUS
 62
    40
  5
3CE
 66
     1
 10
0.0
 20
0.0
 30
0.0
  0
VERTEX
  8
3
  6
CONTINUOUS
 62
    40
  5
3CF
 10
121.8749
 20
95.5861
 30
0.0
  0
VERTEX
  8
3
  6
CONTINUOUS
 62
    40
  5
3D0
 10
121.8061
 20
95.5464
 30
0.0
  0
VERTEX
  8
3
  6
CONTINUOUS
 62
    40
  5
3D1
 10
121.8749
 20
95.5861
 30
0.0
  0
VERTEX
  8
3
  6
CONTINUOUS
 62
    40
  5
3D2
 10
121.8061
 20
95.6257
 30
0.0
  0
SEQEND
  8
3
  6
CONTINUOUS
 62
    40
  5
3D3
  0
POLYLINE
  8
3
  6
CONTINUOUS
 62
    40
  5
3D4
 66
     1
 10
0.0
 20
0.0
 30
0.0
  0
VERTEX
  8
3
  6
CONTINUOUS
 62
    40
  5
3D5
 10
96.7532
 20
93.129
 30
0.0
  0
VERTEX
  8
3
  6
CONTINUOUS
 62
    40
  5
3D6
 10
96.8048
 20
93.0396
 30
0.0
  0
VERTEX
  8
3
  6
CONTINUOUS
 62
    40
  5
3D7
 10
96.7532
 20
93.129
 30
0.0
  0
VERTEX
  8
3
  6
CONTINUOUS
 62
    40
  5
3D8
 10
96.7016
 20
93.0396
 30
0.0
  0
SEQEND
  8
3
  6
CONTINUOUS
 62
    40
  5
3D9
  0
LINE
  8
3
  6
CONTINUOUS
 62
    40
  5
3DA
 10
96.7532
 20
92.4726
 30
0.0
 11
96.7532
 21
93.1337
 31
0.0
  0
LINE
  8
2
  6
CONTINUOUS
 62
    30
  5
3DB
 10
96.9704
 20
92.4726
 30
0.0
 11
96.6663
 21
92.4726
 31
0.0
  0
LINE
  8
2
  6
HIDDEN
 62
   140
  5
3DC
 10
97.1238
 20
93.1337
 30
0.0
 11
96.3753
 21
93.1337
 31
0.0
  0
LINE
  8
3
  6
CONTINUOUS
 62
    40
  5
3DD
 10
121.8749
 20
94.3136
 30
0.0
 11
121.8749
 21
95.6771
 31
0.0
  0
LINE
  8
2
  6
HIDDEN
 62
   140
  5
3DE
 10
132.1985
 20
92.1796
 30
0.0
 11
133.0157
 21
92.1796
 31
0.0
  0
LINE
  8
4
  6
CONTINUOUS
 62
     7
  5
3DF
 10
96.3753
 20
92.6131
 30
0.0
 11
96.3753
 21
93.8854
 31
0.0
  0
TEXT
  8
3
  6
CONTINUOUS
 62
    40
  5
3E0
 10
111.1683
 20
94.642
 30
0.0
 40
0.15
  1
Shoulder
 41
0.732667
  7
ROMANS
 72
     1
 11
111.5895
 21
94.642
 31
0.0
210
0.0
220
0.0
230
1.0
  0
TEXT
  8
3
  6
CONTINUOUS
 62
    40
  5
3E1
 10
111.0048
 20
94.392
 30
0.0
 40
0.15
  1
break point
 41
0.732667
  7
ROMANS
 72
     1
 11
111.5912
 21
94.392
 31
0.0
210
0.0
220
0.0
230
1.0
  0
LINE
  8
3
  6
CONTINUOUS
 62
    40
  5
3E2
 10
112.2812
 20
94.6295
 30
0.0
 11
112.1262
 21
94.6295
 31
0.0
  0
LINE
  8
3
  6
CONTINUOUS
 62
    40
  5
3E3
 10
112.7776
 20
94.2554
 30
0.0
 11
112.2812
 21
94.6295
 31
0.0
  0
LINE
  8
3
  6
CONTINUOUS
 62
    40
  5
3E4
 10
112.4004
 20
94.2144
 30
0.0
 11
112.2812
 21
94.6295
 31
0.0
  0
POLYLINE
  8
3
  6
CONTINUOUS
 62
    40
  5
3E5
 66
     1
 10
0.0
 20
0.0
 30
0.0
  0
VERTEX
  8
3
  6
CONTINUOUS
 62
    40
  5
3E6
 10
112.7776
 20
94.2554
 30
0.0
  0
VERTEX
  8
3
  6
CONTINUOUS
 62
    40
  5
3E7
 10
112.699
 20
94.2653
 30
0.0
  0
VERTEX
  8
3
  6
CONTINUOUS
 62
    40
  5
3E8
 10
112.7776
 20
94.2554
 30
0.0
  0
VERTEX
  8
3
  6
CONTINUOUS
 62
    40
  5
3E9
 10
112.7467
 20
94.3285
 30
0.0
  0
SEQEND
  8
3
  6
CONTINUOUS
 62
    40
  5
3EA
  0
POLYLINE
  8
3
  6
CONTINUOUS
 62
    40
  5
3EB
 66
     1
 10
0.0
 20
0.0
 30
0.0
  0
VERTEX
  8
3
  6
CONTINUOUS
 62
    40
  5
3EC
 10
112.4004
 20
94.2144
 30
0.0
  0
VERTEX
  8
3
  6
CONTINUOUS
 62
    40
  5
3ED
 10
112.3453
 20
94.2714
 30
0.0
  0
VERTEX
  8
3
  6
CONTINUOUS
 62
    40
  5
3EE
 10
112.4004
 20
94.2144
 30
0.0
  0
VERTEX
  8
3
  6
CONTINUOUS
 62
    40
  5
3EF
 10
112.4223
 20
94.2907
 30
0.0
  0
SEQEND
  8
3
  6
CONTINUOUS
 62
    40
  5
3F0
  0
TEXT
  8
3
  6
CONTINUOUS
 62
    40
  5
3F1
 10
126.7159
 20
93.3449
 30
0.0
 40
0.15
  1
15:1
 50
347.0
 41
0.732667
  7
ROMANS
 72
     1
 11
126.894405
 21
93.303689
 31
0.0
210
0.0
220
0.0
230
1.0
  0
LINE
  8
3
  6
CONTINUOUS
 62
    40
  5
3F2
 10
121.8749
 20
94.4795
 30
0.0
 11
132.1985
 21
94.4795
 31
0.0
  0
TEXT
  8
3
  6
CONTINUOUS
 62
    40
  5
3F3
 10
127.8456
 20
93.8206
 30
0.0
 40
0.1399
  1
slope 4:1 or flatter
 41
0.785561
  7
ROMANS
210
0.0
220
0.0
230
1.0
  0
LINE
  8
3
  6
CONTINUOUS
 62
    40
  5
3F4
 10
130.1748
 20
94.1313
 30
0.0
 11
130.1748
 21
93.5589
 31
0.0
  0
POLYLINE
  8
3
  6
CONTINUOUS
 62
    40
  5
3F5
 66
     1
 10
0.0
 20
0.0
 30
0.0
  0
VERTEX
  8
3
  6
CONTINUOUS
 62
    40
  5
3F6
 10
130.1155
 20
94.1318
 30
0.0
  0
VERTEX
  8
3
  6
CONTINUOUS
 62
    40
  5
3F7
 10
130.1745
 20
94.2938
 30
0.0
  0
VERTEX
  8
3
  6
CONTINUOUS
 62
    40
  5
3F8
 10
130.2337
 20
94.1311
 30
0.0
  0
VERTEX
  8
3
  6
CONTINUOUS
 62
    40
  5
3F9
 10
130.1748
 20
94.1314
 30
0.0
  0
VERTEX
  8
3
  6
CONTINUOUS
 62
    40
  5
3FA
 10
130.1745
 20
94.2938
 30
0.0
  0
VERTEX
  8
3
  6
CONTINUOUS
 62
    40
  5
3FB
 10
130.1155
 20
94.1313
 30
0.0
  0
VERTEX
  8
3
  6
CONTINUOUS
 62
    40
  5
3FC
 10
130.2342
 20
94.1313
 30
0.0
  0
SEQEND
  8
3
  6
CONTINUOUS
 62
    40
  5
3FD
  0
LINE
  8
3
  6
CONTINUOUS
 62
    40
  5
3FE
 10
132.1985
 20
92.4416
 30
0.0
 11
132.1985
 21
94.6057
 31
0.0
  0
POLYLINE
  8
3
  6
CONTINUOUS
 62
    40
  5
3FF
 66
     1
 10
0.0
 20
0.0
 30
0.0
  0
VERTEX
  8
3
  6
CONTINUOUS
 62
    40
  5
400
 10
121.9436
 20
94.5192
 30
0.0
  0
VERTEX
  8
3
  6
CONTINUOUS
 62
    40
  5
401
 10
121.8749
 20
94.4795
 30
0.0
  0
VERTEX
  8
3
  6
CONTINUOUS
 62
    40
  5
402
 10
121.9436
 20
94.4398
 30
0.0
  0
SEQEND
  8
3
  6
CONTINUOUS
 62
    40
  5
403
  0
POLYLINE
  8
3
  6
CONTINUOUS
 62
    40
  5
404
 66
     1
 10
0.0
 20
0.0
 30
0.0
  0
VERTEX
  8
3
  6
CONTINUOUS
 62
    40
  5
405
 10
132.1985
 20
94.4795
 30
0.0
  0
VERTEX
  8
3
  6
CONTINUOUS
 62
    40
  5
406
 10
132.1297
 20
94.4398
 30
0.0
  0
VERTEX
  8
3
  6
CONTINUOUS
 62
    40
  5
407
 10
132.1985
 20
94.4795
 30
0.0
  0
VERTEX
  8
3
  6
CONTINUOUS
 62
    40
  5
408
 10
132.1297
 20
94.5191
 30
0.0
  0
SEQEND
  8
3
  6
CONTINUOUS
 62
    40
  5
409
  0
TEXT
  8
3
  6
CONTINUOUS
 62
    40
  5
40A
 10
125.177
 20
92.1927
 30
0.0
 40
0.15
  1
20:1 slope
 41
0.733333
  7
ROMANS
 72
     1
 11
125.7098
 21
92.1927
 31
0.0
210
0.0
220
0.0
230
1.0
  0
TEXT
  8
3
  6
CONTINUOUS
 62
    40
  5
40B
 10
124.4235
 20
91.9427
 30
0.0
 40
0.15
  1
(Max. relative to grade)
 41
0.733333
  7
ROMANS
 72
     1
 11
125.716
 21
91.9427
 31
0.0
210
0.0
220
0.0
230
1.0
  0
LINE
  8
2
  6
HIDDEN
 62
   140
  5
40C
 10
97.1238
 20
93.1337
 30
0.0
 11
112.5937
 21
94.1605
 31
0.0
  0
TEXT
  8
3
  6
CONTINUOUS
 62
    40
  5
40D
 10
124.5883
 20
94.6721
 30
0.0
 40
0.1399
  1
Transition back to existing shoulder break point
 41
0.785561
  7
ROMANS
210
0.0
220
0.0
230
1.0
  0
TEXT
  8
5
  6
CONTINUOUS
 62
   241
  5
40E
 10
113.4922
 20
93.1055
 30
0.0
 40
0.15
  1
3'- 4"
 50
90.0
 41
0.732667
  7
MONOTXT
 72
     1
 11
113.4922
 21
93.3534
 31
0.0
210
0.0
220
0.0
230
1.0
  0
TEXT
  8
3
  6
CONTINUOUS
 62
    40
  5
40F
 10
128.4255
 20
90.6284
 30
0.0
 40
0.15
  1
Edge of Traveled Way
 41
0.733333
  7
ROMANS
 72
     1
 11
129.5083
 21
90.6284
 31
0.0
210
0.0
220
0.0
230
1.0
  0
TEXT
  8
3
  6
CONTINUOUS
 62
    40
  5
410
 10
100.5057
 20
90.618
 30
0.0
 40
0.15
  1
Edge of Traveled Way
 41
0.733333
  7
ROMANS
 72
     1
 11
101.5885
 21
90.618
 31
0.0
210
0.0
220
0.0
230
1.0
  0
TEXT
  8
3
  6
CONTINUOUS
 62
     2
  5
411
 10
123.5384
 20
83.7828
 30
0.0
 40
0.15
  1
 
 41
0.8
  7
ROMANS
210
0.0
220
0.0
230
1.0
  0
TEXT
  8
3
  6
CONTINUOUS
 62
     2
  5
412
 10
123.5384
 20
83.7909
 30
0.0
 40
0.15
  1
All materials used shall meet the applicable requirements of Section 607 of the
 41
0.8
  7
ROMANS
210
0.0
220
0.0
230
1.0
  0
TEXT
  8
3
  6
CONTINUOUS
 62
     2
  5
413
 10
123.5384
 20
83.5409
 30
0.0
 40
0.15
  1
Standard Specifications Roads and Bridges.
 41
0.8
  7
ROMANS
210
0.0
220
0.0
230
1.0
  0
TEXT
  8
3
  6
CONTINUOUS
 62
     2
  5
414
 10
123.5384
 20
83.2909
 30
0.0
 40
0.15
  1
 
 41
0.8
  7
ROMANS
210
0.0
220
0.0
230
1.0
  0
TEXT
  8
3
  6
CONTINUOUS
 62
     2
  5
415
 10
123.5384
 20
83.0409
 30
0.0
 40
0.15
  1
The wood block shall be nailed to the post with a galvanized steel 10d common nail.
 41
0.8
  7
ROMANS
210
0.0
220
0.0
230
1.0
  0
TEXT
  8
3
  6
CONTINUOUS
 62
     2
  5
416
 10
123.5384
 20
82.7909
 30
0.0
 40
0.15
  1
The nails are to be driven into the center of the top or bottom of the block.
 41
0.8
  7
ROMANS
210
0.0
220
0.0
230
1.0
  0
TEXT
  8
3
  6
CONTINUOUS
 62
     2
  5
417
 10
123.5384
 20
82.2255
 30
0.0
 40
0.15
  1
 
 41
0.8
  7
ROMANS
210
0.0
220
0.0
230
1.0
  0
TEXT
  8
5
  6
CONTINUOUS
 62
   241
  5
418
 10
95.5356
 20
86.1368
 30
0.0
 40
0.15
  1
1'-10 3/8 "  1"
 50
90.0
 41
0.732667
  7
MONOTXT
 72
     1
 11
95.5356
 21
86.5954
 31
0.0
210
0.0
220
0.0
230
1.0
  0
LINE
  8
1
  6
CONTINUOUS
 62
   140
  5
419
 10
95.3829
 20
86.8469
 30
0.0
 11
95.4511
 21
86.8469
 31
0.0
  0
LINE
  8
1
  6
CONTINUOUS
 62
   140
  5
41A
 10
95.4182
 20
86.8135
 30
0.0
 11
95.4182
 21
86.8817
 31
0.0
  0
LINE
  8
1
  6
CONTINUOUS
 62
   140
  5
41B
 10
95.5106
 20
86.8135
 30
0.0
 11
95.5106
 21
86.8817
 31
0.0
  0
LINE
  8
2
  6
CONTINUOUS
 62
    40
  5
41C
 10
100.6592
 20
76.4851
 30
0.0
 11
100.6606
 21
76.4679
 31
0.0
  0
LINE
  8
2
  6
CONTINUOUS
 62
   140
  5
41D
 10
100.4682
 20
76.5145
 30
0.0
 11
100.4682
 21
76.4592
 31
0.0
  0
LINE
  8
2
  6
CONTINUOUS
 62
    40
  5
41E
 10
105.5303
 20
76.9614
 30
0.0
 11
105.4211
 21
77.0759
 31
0.0
  0
LINE
  8
2
  6
CONTINUOUS
 62
    40
  5
41F
 10
105.5195
 20
77.0846
 30
0.0
 11
105.4317
 21
76.9529
 31
0.0
  0
LINE
  8
2
  6
CONTINUOUS
 62
    40
  5
420
 10
105.4211
 20
77.0759
 30
0.0
 11
105.4317
 21
76.9529
 31
0.0
  0
LINE
  8
2
  6
CONTINUOUS
 62
    40
  5
421
 10
105.5303
 20
76.9614
 30
0.0
 11
105.5182
 21
77.1002
 31
0.0
  0
LINE
  8
2
  6
CONTINUOUS
 62
    40
  5
422
 10
105.5195
 20
77.0846
 30
0.0
 11
105.4211
 21
77.0759
 31
0.0
  0
LINE
  8
2
  6
CONTINUOUS
 62
    40
  5
423
 10
105.6157
 20
76.967
 30
0.0
 11
105.6101
 21
77.0322
 31
0.0
  0
LINE
  8
2
  6
CONTINUOUS
 62
    40
  5
424
 10
105.6101
 20
77.0322
 30
0.0
 11
105.6996
 21
77.04
 31
0.0
  0
LINE
  8
2
  6
CONTINUOUS
 62
    40
  5
425
 10
104.9274
 20
76.9088
 30
0.0
 11
104.9342
 21
76.8298
 31
0.0
  0
LINE
  8
2
  6
CONTINUOUS
 62
    40
  5
426
 10
105.8683
 20
76.7777
 30
0.0
 11
105.8192
 21
76.7734
 31
0.0
  0
LINE
  8
2
  6
CONTINUOUS
 62
    40
  5
427
 10
105.8382
 20
77.1222
 30
0.0
 11
105.789
 21
77.118
 31
0.0
  0
LINE
  8
2
  6
CONTINUOUS
 62
    40
  5
428
 10
105.8382
 20
77.1222
 30
0.0
 11
105.8683
 21
76.7777
 31
0.0
  0
LINE
  8
2
  6
CONTINUOUS
 62
    40
  5
429
 10
105.6095
 20
76.8995
 30
0.0
 11
105.5121
 21
76.8804
 31
0.0
  0
LINE
  8
2
  6
CONTINUOUS
 62
    40
  5
42A
 10
105.6047
 20
76.9574
 30
0.0
 11
105.5052
 21
76.9593
 31
0.0
  0
LINE
  8
2
  6
CONTINUOUS
 62
    40
  5
42B
 10
105.8192
 20
76.7734
 30
0.0
 11
105.6095
 21
76.8995
 31
0.0
  0
LINE
  8
2
  6
CONTINUOUS
 62
    40
  5
42C
 10
105.789
 20
77.118
 30
0.0
 11
105.6047
 21
76.9574
 31
0.0
  0
LINE
  8
2
  6
CONTINUOUS
 62
    40
  5
42D
 10
105.789
 20
77.118
 30
0.0
 11
105.8192
 21
76.7734
 31
0.0
  0
LINE
  8
2
  6
CONTINUOUS
 62
    40
  5
42E
 10
105.5052
 20
76.9593
 30
0.0
 11
105.5121
 21
76.8804
 31
0.0
  0
LINE
  8
2
  6
CONTINUOUS
 62
    40
  5
42F
 10
104.9342
 20
76.8298
 30
0.0
 11
105.5121
 21
76.8804
 31
0.0
  0
LINE
  8
2
  6
CONTINUOUS
 62
    40
  5
430
 10
104.9274
 20
76.9088
 30
0.0
 11
105.5303
 21
76.9614
 31
0.0
  0
LINE
  8
2
  6
CONTINUOUS
 62
   140
  5
431
 10
98.5961
 20
76.4592
 30
0.0
 11
100.5592
 21
76.4592
 31
0.0
  0
LINE
  8
2
  6
CONTINUOUS
 62
   140
  5
432
 10
98.6626
 20
76.5145
 30
0.0
 11
100.5592
 21
76.5145
 31
0.0
  0
LINE
  8
4
  6
CONTINUOUS
 62
     7
  5
433
 10
105.8957
 20
76.7757
 30
0.0
 11
106.2238
 21
76.7757
 31
0.0
  0
LINE
  8
4
  6
CONTINUOUS
 62
     7
  5
434
 10
106.1712
 20
76.4594
 30
0.0
 11
106.1712
 21
76.7757
 31
0.0
  0
LINE
  8
2
  6
CONTINUOUS
 62
    40
  5
435
 10
100.6558
 20
76.5231
 30
0.0
 11
100.6576
 21
76.5037
 31
0.0
  0
LINE
  8
4
  6
CONTINUOUS
 62
     7
  5
436
 10
98.5388
 20
75.7252
 30
0.0
 11
98.5388
 21
76.4105
 31
0.0
  0
LINE
  8
4
  6
CONTINUOUS
 62
     7
  5
437
 10
98.4933
 20
76.4411
 30
0.0
 11
98.6016
 21
76.5537
 31
0.0
  0
POLYLINE
  8
4
  6
CONTINUOUS
 62
     7
  5
438
 66
     1
 10
0.0
 20
0.0
 30
0.0
  0
VERTEX
  8
4
  6
CONTINUOUS
 62
     7
  5
439
 10
128.7865
 20
80.6767
 30
0.0
  0
VERTEX
  8
4
  6
CONTINUOUS
 62
     7
  5
43A
 10
128.757
 20
80.7275
 30
0.0
  0
VERTEX
  8
4
  6
CONTINUOUS
 62
     7
  5
43B
 10
128.7865
 20
80.6767
 30
0.0
  0
VERTEX
  8
4
  6
CONTINUOUS
 62
     7
  5
43C
 10
128.8158
 20
80.7275
 30
0.0
  0
SEQEND
  8
4
  6
CONTINUOUS
 62
     7
  5
43D
  0
POINT
  8
4
  6
CONTINUOUS
 62
     7
  5
43E
 10
106.1712
 20
76.7757
 30
0.0
  0
POLYLINE
  8
4
  6
CONTINUOUS
 62
     7
  5
43F
 66
     1
 10
0.0
 20
0.0
 30
0.0
  0
VERTEX
  8
4
  6
CONTINUOUS
 62
     7
  5
440
 10
104.9439
 20
76.4592
 30
0.0
  0
VERTEX
  8
4
  6
CONTINUOUS
 62
     7
  5
441
 10
104.9683
 20
76.417
 30
0.0
  0
VERTEX
  8
4
  6
CONTINUOUS
 62
     7
  5
442
 10
104.9439
 20
76.4592
 30
0.0
  0
VERTEX
  8
4
  6
CONTINUOUS
 62
     7
  5
443
 10
104.9196
 20
76.417
 30
0.0
  0
SEQEND
  8
4
  6
CONTINUOUS
 62
     7
  5
444
  0
LINE
  8
4
  6
CONTINUOUS
 62
     7
  5
445
 10
104.9439
 20
75.9681
 30
0.0
 11
104.9439
 21
76.4594
 31
0.0
  0
POLYLINE
  8
4
  6
CONTINUOUS
 62
     7
  5
446
 66
     1
 10
0.0
 20
0.0
 30
0.0
  0
VERTEX
  8
4
  6
CONTINUOUS
 62
     7
  5
447
 10
104.9439
 20
75.9701
 30
0.0
  0
VERTEX
  8
4
  6
CONTINUOUS
 62
     7
  5
448
 10
104.9196
 20
76.0123
 30
0.0
  0
VERTEX
  8
4
  6
CONTINUOUS
 62
     7
  5
449
 10
104.9439
 20
75.9701
 30
0.0
  0
VERTEX
  8
4
  6
CONTINUOUS
 62
     7
  5
44A
 10
104.9683
 20
76.0123
 30
0.0
  0
SEQEND
  8
4
  6
CONTINUOUS
 62
     7
  5
44B
  0
LINE
  8
4
  6
CONTINUOUS
 62
     7
  5
44C
 10
98.5388
 20
76.4106
 30
0.0
 11
98.4933
 21
76.4411
 31
0.0
  0
LINE
  8
4
  6
CONTINUOUS
 62
     7
  5
44D
 10
98.6016
 20
76.5537
 30
0.0
 11
98.5346
 21
76.5986
 31
0.0
  0
LINE
  8
4
  6
CONTINUOUS
 62
     7
  5
44E
 10
98.5345
 20
76.5986
 30
0.0
 11
98.5345
 21
77.0335
 31
0.0
  0
TEXT
  8
3
  6
CONTINUOUS
 62
    40
  5
44F
 10
101.6385
 20
75.9241
 30
0.0
 40
0.15
  1
Edge of Traveled Way
 41
0.732667
  7
ROMANS
 72
     1
 11
102.7203
 21
75.9241
 31
0.0
210
0.0
220
0.0
230
1.0
  0
LINE
  8
2
  6
CONTINUOUS
 62
   140
  5
450
 10
98.5879
 20
75.9681
 30
0.0
 11
101.4808
 21
75.9681
 31
0.0
  0
LINE
  8
2
  6
CONTINUOUS
 62
    40
  5
451
 10
100.5638
 20
76.4594
 30
0.0
 11
104.9331
 21
76.8417
 31
0.0
  0
LINE
  8
2
  6
CONTINUOUS
 62
    40
  5
452
 10
100.5592
 20
76.5145
 30
0.0
 11
104.9283
 21
76.8969
 31
0.0
  0
LINE
  8
2
  6
CONTINUOUS
 62
     7
  5
453
 10
101.1559
 20
76.4594
 30
0.0
 11
106.2238
 21
76.4594
 31
0.0
  0
LINE
  8
2
  6
CONTINUOUS
 62
     7
  5
454
 10
100.5592
 20
77.4875
 30
0.0
 11
105.4817
 21
77.4875
 31
0.0
  0
LINE
  8
2
  6
CONTINUOUS
 62
     7
  5
455
 10
105.4817
 20
77.1474
 30
0.0
 11
105.4817
 21
77.5868
 31
0.0
  0
LINE
  8
2
  6
CONTINUOUS
 62
     7
  5
456
 10
100.5592
 20
76.5911
 30
0.0
 11
100.5592
 21
77.5868
 31
0.0
  0
POLYLINE
  8
4
  6
CONTINUOUS
 62
     7
  5
457
 66
     1
 10
0.0
 20
0.0
 30
0.0
  0
VERTEX
  8
4
  6
CONTINUOUS
 62
     7
  5
458
 10
100.5598
 20
77.4872
 30
0.0
  0
VERTEX
  8
4
  6
CONTINUOUS
 62
     7
  5
459
 10
100.6101
 20
77.5167
 30
0.0
  0
VERTEX
  8
4
  6
CONTINUOUS
 62
     7
  5
45A
 10
100.5598
 20
77.4872
 30
0.0
  0
VERTEX
  8
4
  6
CONTINUOUS
 62
     7
  5
45B
 10
100.6101
 20
77.4579
 30
0.0
  0
SEQEND
  8
4
  6
CONTINUOUS
 62
     7
  5
45C
  0
POLYLINE
  8
4
  6
CONTINUOUS
 62
     7
  5
45D
 66
     1
 10
0.0
 20
0.0
 30
0.0
  0
VERTEX
  8
4
  6
CONTINUOUS
 62
     7
  5
45E
 10
105.4816
 20
77.4875
 30
0.0
  0
VERTEX
  8
4
  6
CONTINUOUS
 62
     7
  5
45F
 10
105.431
 20
77.4581
 30
0.0
  0
VERTEX
  8
4
  6
CONTINUOUS
 62
     7
  5
460
 10
105.4816
 20
77.4875
 30
0.0
  0
VERTEX
  8
4
  6
CONTINUOUS
 62
     7
  5
461
 10
105.431
 20
77.517
 30
0.0
  0
SEQEND
  8
4
  6
CONTINUOUS
 62
     7
  5
462
  0
TEXT
  8
3
  6
CONTINUOUS
 62
    40
  5
463
 10
105.9478
 20
76.5179
 30
0.0
 40
0.15
  1
1' offset
 41
0.732667
  7
ROMANS
 72
     1
 11
106.4243
 21
76.5179
 31
0.0
210
0.0
220
0.0
230
1.0
  0
TEXT
  8
3
  6
CONTINUOUS
 62
    40
  5
464
 10
102.4697
 20
77.5696
 30
0.0
 40
0.15
  1
25' or 50'
 41
0.732667
  7
ROMANS
 72
     1
 11
102.9825
 21
77.5696
 31
0.0
210
0.0
220
0.0
230
1.0
  0
TEXT
  8
3
  6
CONTINUOUS
 62
    40
  5
465
 10
98.8397
 20
76.8492
 30
0.0
 40
0.15
  1
Normal Face
 41
0.732667
  7
ROMANS
 72
     1
 11
99.4269
 21
76.8492
 31
0.0
210
0.0
220
0.0
230
1.0
  0
TEXT
  8
3
  6
CONTINUOUS
 62
    40
  5
466
 10
99.0769
 20
76.5992
 30
0.0
 40
0.15
  1
of Rail
 41
0.732667
  7
ROMANS
 72
     1
 11
99.4615
 21
76.5992
 31
0.0
210
0.0
220
0.0
230
1.0
  0
TEXT
  8
5
  6
CONTINUOUS
 62
   241
  5
467
 10
104.6942
 20
76.1276
 30
0.0
 40
0.15
  1
5' or less
 41
0.732667
  7
ROMANS
 72
     1
 11
105.2254
 21
76.1276
 31
0.0
210
0.0
220
0.0
230
1.0
  0
LINE
  8
2
  6
CONTINUOUS
 62
   140
  5
468
 10
103.9587
 20
75.9681
 30
0.0
 11
106.5248
 21
75.9681
 31
0.0
  0
TEXT
  8
3
  6
CONTINUOUS
 62
     2
  5
469
 10
101.4343
 20
75.0067
 30
0.0
 40
0.28
  1
FLARE DETAIL
 41
0.785714
  7
MONOTXT
 72
     1
 11
102.5922
 21
75.0067
 31
0.0
210
0.0
220
0.0
230
1.0
  0
POLYLINE
  8
4
  6
CONTINUOUS
 62
     7
  5
46A
 66
     1
 10
0.0
 20
0.0
 30
0.0
  0
VERTEX
  8
4
  6
CONTINUOUS
 62
     7
  5
46B
 10
106.1712
 20
76.7751
 30
0.0
  0
VERTEX
  8
4
  6
CONTINUOUS
 62
     7
  5
46C
 10
106.2007
 20
76.7243
 30
0.0
  0
VERTEX
  8
4
  6
CONTINUOUS
 62
     7
  5
46D
 10
106.1712
 20
76.7751
 30
0.0
  0
VERTEX
  8
4
  6
CONTINUOUS
 62
     7
  5
46E
 10
106.1419
 20
76.7243
 30
0.0
  0
SEQEND
  8
4
  6
CONTINUOUS
 62
     7
  5
46F
  0
POLYLINE
  8
3
  6
CONTINUOUS
 62
    40
  5
470
 66
     1
 10
0.0
 20
0.0
 30
0.0
  0
VERTEX
  8
3
  6
CONTINUOUS
 62
    40
  5
471
 10
96.7517
 20
92.4699
 30
0.0
  0
VERTEX
  8
3
  6
CONTINUOUS
 62
    40
  5
472
 10
96.7001
 20
92.5593
 30
0.0
  0
VERTEX
  8
3
  6
CONTINUOUS
 62
    40
  5
473
 10
96.7517
 20
92.4699
 30
0.0
  0
VERTEX
  8
3
  6
CONTINUOUS
 62
    40
  5
474
 10
96.8033
 20
92.5593
 30
0.0
  0
SEQEND
  8
3
  6
CONTINUOUS
 62
    40
  5
475
  0
POLYLINE
  8
4
  6
CONTINUOUS
 62
     7
  5
476
 66
     1
 10
0.0
 20
0.0
 30
0.0
  0
VERTEX
  8
4
  6
CONTINUOUS
 62
     7
  5
477
 10
95.7368
 20
86.9999
 30
0.0
  0
VERTEX
  8
4
  6
CONTINUOUS
 62
     7
  5
478
 10
95.7838
 20
86.9182
 30
0.0
  0
VERTEX
  8
4
  6
CONTINUOUS
 62
     7
  5
479
 10
95.7368
 20
86.9999
 30
0.0
  0
VERTEX
  8
4
  6
CONTINUOUS
 62
     7
  5
47A
 10
95.6898
 20
86.9182
 30
0.0
  0
SEQEND
  8
4
  6
CONTINUOUS
 62
     7
  5
47B
  0
POLYLINE
  8
4
  6
CONTINUOUS
 62
     7
  5
47C
 66
     1
 10
0.0
 20
0.0
 30
0.0
  0
VERTEX
  8
4
  6
CONTINUOUS
 62
     7
  5
47D
 10
95.7368
 20
86.1601
 30
0.0
  0
VERTEX
  8
4
  6
CONTINUOUS
 62
     7
  5
47E
 10
95.6898
 20
86.2418
 30
0.0
  0
VERTEX
  8
4
  6
CONTINUOUS
 62
     7
  5
47F
 10
95.7368
 20
86.1601
 30
0.0
  0
VERTEX
  8
4
  6
CONTINUOUS
 62
     7
  5
480
 10
95.7838
 20
86.2418
 30
0.0
  0
SEQEND
  8
4
  6
CONTINUOUS
 62
     7
  5
481
  0
POLYLINE
  8
4
  6
CONTINUOUS
 62
     7
  5
482
 66
     1
 10
0.0
 20
0.0
 30
0.0
  0
VERTEX
  8
4
  6
CONTINUOUS
 62
     7
  5
483
 10
106.1712
 20
76.4594
 30
0.0
  0
VERTEX
  8
4
  6
CONTINUOUS
 62
     7
  5
484
 10
106.1417
 20
76.5102
 30
0.0
  0
VERTEX
  8
4
  6
CONTINUOUS
 62
     7
  5
485
 10
106.1712
 20
76.4594
 30
0.0
  0
VERTEX
  8
4
  6
CONTINUOUS
 62
     7
  5
486
 10
106.2005
 20
76.5102
 30
0.0
  0
SEQEND
  8
4
  6
CONTINUOUS
 62
     7
  5
487
  0
LINE
  8
2
  6
CONTINUOUS
 62
   140
  5
488
 10
97.2472
 20
92.1641
 30
0.0
 11
97.2472
 21
91.8548
 31
0.0
  0
LINE
  8
2
  6
CONTINUOUS
 62
   140
  5
489
 10
97.2472
 20
91.8548
 30
0.0
 11
96.9997
 21
91.8548
 31
0.0
  0
LINE
  8
2
  6
CONTINUOUS
 62
   140
  5
48A
 10
96.9997
 20
91.8548
 30
0.0
 11
96.9997
 21
92.1641
 31
0.0
  0
TEXT
  8
3
  6
CONTINUOUS
 62
   110
  5
48B
 10
103.4264
 20
82.629
 30
0.0
 40
0.15
  1
Deduct 37'-6" From The 
 41
0.732667
  7
ROMANS
 72
     1
 11
104.6719
 21
82.629
 31
0.0
210
0.0
220
0.0
230
1.0
  0
TEXT
  8
3
  6
CONTINUOUS
 62
   110
  5
48C
 10
105.9274
 20
82.6402
 30
0.0
 40
0.15
  1
Length Of Need For Guardrail 
 41
0.732667
  7
ROMANS
 72
     1
 11
107.5026
 21
82.6402
 31
0.0
210
0.0
220
0.0
230
1.0
  0
TEXT
  8
3
  6
CONTINUOUS
 62
   110
  5
48D
 10
106.5103
 20
81.9538
 30
0.0
 40
0.15
  1
50'-0" Tangent Terminal Per Pre-Approved Shop Drawing
 41
0.732667
  7
ROMANS
 72
     1
 11
109.4046
 21
81.9538
 31
0.0
210
0.0
220
0.0
230
1.0
  0
TEXT
  8
3
  6
CONTINUOUS
 62
    40
  5
48E
 10
123.4241
 20
92.6379
 30
0.0
 40
0.15
  1
Impact
 41
0.732667
  7
ROMANS
 72
     1
 11
123.7357
 21
92.6379
 31
0.0
210
0.0
220
0.0
230
1.0
  0
TEXT
  8
3
  6
CONTINUOUS
 62
    40
  5
48F
 10
123.5339
 20
92.3879
 30
0.0
 40
0.15
  1
Head
 41
0.732667
  7
ROMANS
 72
     1
 11
123.7357
 21
92.3879
 31
0.0
210
0.0
220
0.0
230
1.0
  0
TEXT
  8
3
  6
CONTINUOUS
 62
     2
  5
490
 10
123.61
 20
79.2119
 30
0.0
 40
0.15
  1
miscellaneous hardware and parts as detailed on the pre-approved shop drawings,
 41
0.8
  7
ROMANS
210
0.0
220
0.0
230
1.0
  0
TEXT
  8
3
  6
CONTINUOUS
 62
    40
  5
491
 10
106.1991
 20
77.336
 30
0.0
 40
0.15
  1
Impact 
 41
0.732667
  7
ROMANS
 72
     1
 11
106.5654
 21
77.336
 31
0.0
210
0.0
220
0.0
230
1.0
  0
TEXT
  8
3
  6
CONTINUOUS
 62
    40
  5
492
 10
106.3636
 20
77.086
 30
0.0
 40
0.15
  1
Head
 41
0.732667
  7
ROMANS
 72
     1
 11
106.5654
 21
77.086
 31
0.0
210
0.0
220
0.0
230
1.0
  0
POLYLINE
  8
3
  6
CONTINUOUS
 62
     2
  5
493
 66
     1
 10
0.0
 20
0.0
 30
0.0
  0
VERTEX
  8
3
  6
CONTINUOUS
 62
     2
  5
494
 10
106.1606
 20
77.3991
 30
0.0
  0
VERTEX
  8
3
  6
CONTINUOUS
 62
     2
  5
495
 10
106.0832
 20
77.3991
 30
0.0
  0
VERTEX
  8
3
  6
CONTINUOUS
 62
     2
  5
496
 10
106.071181
 20
77.397271
 30
0.0
  0
VERTEX
  8
3
  6
CONTINUOUS
 62
     2
  5
497
 10
106.063856
 20
77.394189
 30
0.0
  0
VERTEX
  8
3
  6
CONTINUOUS
 62
     2
  5
498
 10
106.059261
 20
77.391403
 30
0.0
  0
VERTEX
  8
3
  6
CONTINUOUS
 62
     2
  5
499
 10
106.05073
 20
77.384294
 30
0.0
  0
VERTEX
  8
3
  6
CONTINUOUS
 62
     2
  5
49A
 10
106.044875
 20
77.377808
 30
0.0
  0
VERTEX
  8
3
  6
CONTINUOUS
 62
     2
  5
49B
 10
106.034443
 20
77.362577
 30
0.0
  0
VERTEX
  8
3
  6
CONTINUOUS
 62
     2
  5
49C
 10
106.025532
 20
77.345426
 30
0.0
  0
VERTEX
  8
3
  6
CONTINUOUS
 62
     2
  5
49D
 10
106.0114
 20
77.3106
 30
0.0
  0
VERTEX
  8
3
  6
CONTINUOUS
 62
     2
  5
49E
 10
106.008492
 20
77.301647
 30
0.0
  0
VERTEX
  8
3
  6
CONTINUOUS
 62
     2
  5
49F
 10
106.004943
 20
77.28353
 30
0.0
  0
VERTEX
  8
3
  6
CONTINUOUS
 62
     2
  5
4A0
 10
106.004013
 20
77.265171
 30
0.0
  0
VERTEX
  8
3
  6
CONTINUOUS
 62
     2
  5
4A1
 10
106.004608
 20
77.252822
 30
0.0
  0
VERTEX
  8
3
  6
CONTINUOUS
 62
     2
  5
4A2
 10
106.008069
 20
77.227928
 30
0.0
  0
VERTEX
  8
3
  6
CONTINUOUS
 62
     2
  5
4A3
 10
106.016781
 20
77.190316
 30
0.0
  0
VERTEX
  8
3
  6
CONTINUOUS
 62
     2
  5
4A4
 10
106.02893
 20
77.140279
 30
0.0
  0
VERTEX
  8
3
  6
CONTINUOUS
 62
     2
  5
4A5
 10
106.032646
 20
77.115573
 30
0.0
  0
VERTEX
  8
3
  6
CONTINUOUS
 62
     2
  5
4A6
 10
106.033257
 20
77.091233
 30
0.0
  0
VERTEX
  8
3
  6
CONTINUOUS
 62
     2
  5
4A7
 10
106.032038
 20
77.079236
 30
0.0
  0
VERTEX
  8
3
  6
CONTINUOUS
 62
     2
  5
4A8
 10
106.0279
 20
77.0615
 30
0.0
  0
VERTEX
  8
3
  6
CONTINUOUS
 62
     2
  5
4A9
 10
106.022848
 20
77.047338
 30
0.0
  0
VERTEX
  8
3
  6
CONTINUOUS
 62
     2
  5
4AA
 10
106.019239
 20
77.040869
 30
0.0
  0
VERTEX
  8
3
  6
CONTINUOUS
 62
     2
  5
4AB
 10
106.0144
 20
77.035742
 30
0.0
  0
VERTEX
  8
3
  6
CONTINUOUS
 62
     2
  5
4AC
 10
106.0114
 20
77.0339
 30
0.0
  0
VERTEX
  8
3
  6
CONTINUOUS
 62
     2
  5
4AD
 10
105.8621
 20
76.9619
 30
0.0
  0
SEQEND
  8
3
  6
CONTINUOUS
 62
     2
  5
4AE
  0
POLYLINE
  8
4
  6
CONTINUOUS
 62
     7
  5
4AF
 66
     1
 10
0.0
 20
0.0
 30
0.0
  0
VERTEX
  8
4
  6
CONTINUOUS
 62
     7
  5
4B0
 10
105.8621
 20
76.9619
 30
0.0
  0
VERTEX
  8
4
  6
CONTINUOUS
 62
     7
  5
4B1
 10
105.8913
 20
77.0128
 30
0.0
  0
VERTEX
  8
4
  6
CONTINUOUS
 62
     7
  5
4B2
 10
105.8621
 20
76.9619
 30
0.0
  0
VERTEX
  8
4
  6
CONTINUOUS
 62
     7
  5
4B3
 10
105.9207
 20
76.9618
 30
0.0
  0
SEQEND
  8
4
  6
CONTINUOUS
 62
     7
  5
4B4
  0
LINE
  8
2
  6
CONTINUOUS
 62
   140
  5
4B5
 10
97.2472
 20
92.4734
 30
0.0
 11
97.2472
 21
92.1641
 31
0.0
  0
LINE
  8
2
  6
CONTINUOUS
 62
   140
  5
4B6
 10
97.2472
 20
92.1641
 30
0.0
 11
96.9997
 21
92.1641
 31
0.0
  0
LINE
  8
2
  6
CONTINUOUS
 62
   140
  5
4B7
 10
96.9997
 20
92.1641
 30
0.0
 11
96.9997
 21
92.4734
 31
0.0
  0
LINE
  8
2
  6
CONTINUOUS
 62
   140
  5
4B8
 10
96.9997
 20
92.4734
 30
0.0
 11
97.2472
 21
92.4734
 31
0.0
  0
LINE
  8
2
  6
CONTINUOUS
 62
   140
  5
4B9
 10
97.2472
 20
92.4734
 30
0.0
 11
96.9997
 21
92.1641
 31
0.0
  0
LINE
  8
2
  6
CONTINUOUS
 62
   140
  5
4BA
 10
96.9997
 20
92.4734
 30
0.0
 11
97.2472
 21
92.1641
 31
0.0
  0
LINE
  8
5
  6
CONTINUOUS
 62
   241
  5
4BB
 10
97.1238
 20
84.8128
 30
0.0
 11
97.1238
 21
84.9788
 31
0.0
  0
LINE
  8
5
  6
CONTINUOUS
 62
   241
  5
4BC
 10
97.1238
 20
89.9627
 30
0.0
 11
97.1238
 21
93.4394
 31
0.0
  0
LINE
  8
5
  6
CONTINUOUS
 62
   241
  5
4BD
 10
97.1238
 20
85.1006
 30
0.0
 11
97.1238
 21
89.5642
 31
0.0
  0
LINE
  8
5
  6
CONTINUOUS
 62
   241
  5
4BE
 10
97.1238
 20
89.6694
 30
0.0
 11
97.1238
 21
89.8465
 31
0.0
  0
LINE
  8
5
  6
CONTINUOUS
 62
   241
  5
4BF
 10
121.8738
 20
94.4798
 30
0.0
 11
121.8738
 21
89.9775
 31
0.0
  0
LINE
  8
5
  6
CONTINUOUS
 62
   241
  5
4C0
 10
121.8738
 20
89.8054
 30
0.0
 11
121.8738
 21
89.49
 31
0.0
  0
LINE
  8
5
  6
CONTINUOUS
 62
   241
  5
4C1
 10
121.8738
 20
89.2892
 30
0.0
 11
121.8738
 21
81.716
 31
0.0
  0
TEXT
  8
3
  6
CONTINUOUS
 62
     2
  5
4C2
 10
123.5428
 20
80.2436
 30
0.0
 40
0.15
  1
 
 41
0.8
  7
ROMANS
210
0.0
220
0.0
230
1.0
  0
TEXT
  8
3
  6
CONTINUOUS
 62
     2
  5
4C3
 10
123.5428
 20
79.9936
 30
0.0
 40
0.15
  1
Rail element panel lengths shall be 25' only. Shorter lengths shall not be used.
 41
0.8
  7
ROMANS
210
0.0
220
0.0
230
1.0
  0
TEXT
  8
3
  6
CONTINUOUS
 62
     2
  5
4C4
 10
123.5875
 20
78.2053
 30
0.0
 40
0.1596
  1
Yellow reflective sheeting shall cover the entire nose of those terminals
 41
0.949875
  7
MONOTXT
 72
     2
 11
132.1583
 21
78.2851
 31
0.0
210
0.0
220
0.0
230
1.0
 73
     2
  0
TEXT
  8
3
  6
CONTINUOUS
 62
     2
  5
4C5
 10
123.6131
 20
77.9205
 30
0.0
 40
0.1596
  1
with a flat impact head. Those terminals with a rounded impact head shall
 41
0.949875
  7
MONOTXT
 72
     2
 11
132.4217
 21
78.0003
 31
0.0
210
0.0
220
0.0
230
1.0
 73
     2
  0
TEXT
  8
3
  6
CONTINUOUS
 62
     2
  5
4C6
 10
123.6348
 20
77.6428
 30
0.0
 40
0.1596
  1
be covered with a 1'-0" X 3'-0" yellow reflective sheet.
 41
0.949875
  7
MONOTXT
 72
     2
 11
130.3636
 21
77.7226
 31
0.0
210
0.0
220
0.0
230
1.0
 73
     2
  0
LINE
  8
4
  6
CONTINUOUS
 62
     7
  5
4C7
 10
121.8206
 20
81.8837
 30
0.0
 11
97.1238
 21
81.8837
 31
0.0
  0
LINE
  8
4
  6
CONTINUOUS
 62
     7
  5
4C8
 10
115.6863
 20
82.5571
 30
0.0
 11
97.1238
 21
82.5571
 31
0.0
  0
POLYLINE
  8
4
  6
CONTINUOUS
 62
     7
  5
4C9
 66
     1
 10
0.0
 20
0.0
 30
0.0
  0
VERTEX
  8
4
  6
CONTINUOUS
 62
     7
  5
4CA
 10
97.2104
 20
82.6071
 30
0.0
  0
VERTEX
  8
4
  6
CONTINUOUS
 62
     7
  5
4CB
 10
97.1238
 20
82.5571
 30
0.0
  0
VERTEX
  8
4
  6
CONTINUOUS
 62
     7
  5
4CC
 10
97.2104
 20
82.5071
 30
0.0
  0
SEQEND
  8
4
  6
CONTINUOUS
 62
     7
  5
4CD
  0
POLYLINE
  8
4
  6
CONTINUOUS
 62
     7
  5
4CE
 66
     1
 10
0.0
 20
0.0
 30
0.0
  0
VERTEX
  8
4
  6
CONTINUOUS
 62
     7
  5
4CF
 10
97.2104
 20
81.9337
 30
0.0
  0
VERTEX
  8
4
  6
CONTINUOUS
 62
     7
  5
4D0
 10
97.1238
 20
81.8837
 30
0.0
  0
VERTEX
  8
4
  6
CONTINUOUS
 62
     7
  5
4D1
 10
97.2104
 20
81.8337
 30
0.0
  0
SEQEND
  8
4
  6
CONTINUOUS
 62
     7
  5
4D2
  0
TEXT
  8
5
  6
CONTINUOUS
 62
   241
  5
4D3
 10
118.5307
 20
83.4733
 30
0.0
 40
0.15
  1
12'-6"
 41
0.732667
  7
MONOTXT
 72
     1
 11
118.7595
 21
83.4733
 31
0.0
210
0.0
220
0.0
230
1.0
  0
POLYLINE
  8
4
  6
CONTINUOUS
 62
     7
  5
4D4
 66
     1
 10
0.0
 20
0.0
 30
0.0
  0
VERTEX
  8
4
  6
CONTINUOUS
 62
     7
  5
4D5
 10
121.8206
 20
81.8837
 30
0.0
  0
VERTEX
  8
4
  6
CONTINUOUS
 62
     7
  5
4D6
 10
121.734
 20
81.8337
 30
0.0
  0
VERTEX
  8
4
  6
CONTINUOUS
 62
     7
  5
4D7
 10
121.8206
 20
81.8837
 30
0.0
  0
VERTEX
  8
4
  6
CONTINUOUS
 62
     7
  5
4D8
 10
121.734
 20
81.9337
 30
0.0
  0
SEQEND
  8
4
  6
CONTINUOUS
 62
     7
  5
4D9
  0
LINE
  8
4
  6
CONTINUOUS
 62
     7
  5
4DA
 10
115.6863
 20
88.8891
 30
0.0
 11
112.093
 21
88.8891
 31
0.0
  0
POLYLINE
  8
4
  6
CONTINUOUS
 62
     7
  5
4DB
 66
     1
 10
0.0
 20
0.0
 30
0.0
  0
VERTEX
  8
4
  6
CONTINUOUS
 62
     7
  5
4DC
 10
115.6863
 20
88.8891
 30
0.0
  0
VERTEX
  8
4
  6
CONTINUOUS
 62
     7
  5
4DD
 10
115.5997
 20
88.8391
 30
0.0
  0
VERTEX
  8
4
  6
CONTINUOUS
 62
     7
  5
4DE
 10
115.6863
 20
88.8891
 30
0.0
  0
VERTEX
  8
4
  6
CONTINUOUS
 62
     7
  5
4DF
 10
115.5997
 20
88.9391
 30
0.0
  0
SEQEND
  8
4
  6
CONTINUOUS
 62
     7
  5
4E0
  0
LINE
  8
5
  6
CONTINUOUS
 62
   241
  5
4E1
 10
115.6863
 20
84.7112
 30
0.0
 11
115.6863
 21
82.3375
 31
0.0
  0
LINE
  8
5
  6
CONTINUOUS
 62
   241
  5
4E2
 10
115.6863
 20
89.079
 30
0.0
 11
115.6863
 21
85.3755
 31
0.0
  0
LINE
  8
5
  6
CONTINUOUS
 62
   241
  5
4E3
 10
115.6863
 20
85.2205
 30
0.0
 11
115.6863
 21
84.8772
 31
0.0
  0
TEXT
  8
3
  6
CONTINUOUS
 62
   110
  5
4E4
 10
112.1884
 20
89.0173
 30
0.0
 40
0.15
  1
Length Of Need Terminal Point 
 41
0.732667
  7
ROMANS
 72
     1
 11
113.8186
 21
89.0173
 31
0.0
210
0.0
220
0.0
230
1.0
  0
TEXT
  8
3
  6
CONTINUOUS
 62
   110
  5
4E5
 10
112.5061
 20
88.6188
 30
0.0
 40
0.15
  1
As Shown In The Plans
 41
0.732667
  7
ROMANS
 72
     1
 11
113.6417
 21
88.6188
 31
0.0
210
0.0
220
0.0
230
1.0
  0
TEXT
  8
3
  6
CONTINUOUS
 62
   110
  5
4E6
 10
124.62
 20
88.4949
 30
0.0
 40
0.15
  1
Yellow reflective
 41
0.732667
  7
ROMANS
 72
     1
 11
125.537
 21
88.4949
 31
0.0
210
0.0
220
0.0
230
1.0
  0
TEXT
  8
3
  6
CONTINUOUS
 62
   110
  5
4E7
 10
124.4509
 20
88.2449
 30
0.0
 40
0.15
  1
adhesive sheeting to
 41
0.732667
  7
ROMANS
 72
     1
 11
125.537
 21
88.2449
 31
0.0
210
0.0
220
0.0
230
1.0
  0
TEXT
  8
3
  6
CONTINUOUS
 62
   110
  5
4E8
 10
124.5298
 20
87.9949
 30
0.0
 40
0.15
  1
be applied to nose.
 41
0.732667
  7
ROMANS
 72
     1
 11
125.537
 21
87.9949
 31
0.0
210
0.0
220
0.0
230
1.0
  0
TEXT
  8
5
  6
CONTINUOUS
 62
   241
  5
4E9
 10
123.261
 20
90.7287
 30
0.0
 40
0.15
  1
4'-0"
 50
90.0
 41
0.732667
  7
MONOTXT
 72
     1
 11
123.261
 21
90.9311
 31
0.0
210
0.0
220
0.0
230
1.0
  0
TEXT
  8
5
  6
CONTINUOUS
 62
   241
  5
4EA
 10
123.511
 20
90.7849
 30
0.0
 40
0.15
  1
min.
 50
90.0
 41
0.732667
  7
MONOTXT
 72
     1
 11
123.511
 21
90.9311
 31
0.0
210
0.0
220
0.0
230
1.0
  0
LINE
  8
3
  6
CONTINUOUS
 62
    40
  5
4EB
 10
118.5857
 20
92.5526
 30
0.0
 11
115.9157
 21
92.5526
 31
0.0
  0
LINE
  8
3
  6
CONTINUOUS
 62
    40
  5
4EC
 10
115.4622
 20
92.5526
 30
0.0
 11
113.5597
 21
92.5526
 31
0.0
  0
LINE
  8
3
  6
CONTINUOUS
 62
    40
  5
4ED
 10
113.5597
 20
92.5526
 30
0.0
 11
112.5937
 21
92.5526
 31
0.0
  0
TEXT
  8
3
  6
CONTINUOUS
 62
    40
  5
4EE
 10
96.6972
 20
92.6247
 30
0.0
 40
0.15
  1
1'-0"
 50
90.0
 41
0.732667
  7
MONOTXT
 72
     1
 11
96.6972
 21
92.8007
 31
0.0
210
0.0
220
0.0
230
1.0
  0
TEXT
  8
3
  6
CONTINUOUS
 62
     2
  5
4EF
 10
123.5384
 20
84.4755
 30
0.0
 40
0.15
  1
For details of Tangent End Terminal, see pre-appoved shop drawings.
 41
0.8
  7
ROMANS
210
0.0
220
0.0
230
1.0
  0
TEXT
  8
3
  6
CONTINUOUS
 62
     2
  5
4F0
 10
123.556
 20
82.0883
 30
0.0
 40
0.15
  1
The Tangent End Terminal installation shall maintain a 4' minimum offset 
 41
0.8
  7
ROMANS
210
0.0
220
0.0
230
1.0
  0
TEXT
  8
3
  6
CONTINUOUS
 62
     2
  5
4F1
 10
123.556
 20
81.8383
 30
0.0
 40
0.15
  1
from the edge of the impact head to the edge of the traveled way.  For
 41
0.8
  7
ROMANS
210
0.0
220
0.0
230
1.0
  0
TEXT
  8
3
  6
CONTINUOUS
 62
     2
  5
4F2
 10
123.556
 20
81.5883
 30
0.0
 40
0.15
  1
narrow existing shoulders that have an offset of 5' or less from the face of the
 41
0.8
  7
ROMANS
210
0.0
220
0.0
230
1.0
  0
TEXT
  8
3
  6
CONTINUOUS
 62
     2
  5
4F3
 10
123.556
 20
81.3383
 30
0.0
 40
0.15
  1
rail element to the edge of the traveled way, the rail and terminal may be
 41
0.8
  7
ROMANS
210
0.0
220
0.0
230
1.0
  0
TEXT
  8
3
  6
CONTINUOUS
 62
     2
  5
4F4
 10
123.556
 20
81.0883
 30
0.0
 40
0.15
  1
flared from the normal face of rail.  The flared offset distance shall be 1' at
 41
0.8
  7
ROMANS
210
0.0
220
0.0
230
1.0
  0
TEXT
  8
3
  6
CONTINUOUS
 62
     2
  5
4F5
 10
123.556
 20
80.8383
 30
0.0
 40
0.15
  1
a taper rate of 25:1, for a total flare length of 25'; or a taper rate of 50:1,
 41
0.8
  7
ROMANS
210
0.0
220
0.0
230
1.0
  0
TEXT
  8
3
  6
CONTINUOUS
 62
     2
  5
4F6
 10
123.556
 20
80.5883
 30
0.0
 40
0.15
  1
for a total flare length of 50' (see Flare Detail).
 41
0.8
  7
ROMANS
210
0.0
220
0.0
230
1.0
  0
TEXT
  8
3
  6
CONTINUOUS
 62
     2
  5
4F7
 10
123.5657
 20
79.4775
 30
0.0
 40
0.15
  1
The cost of furnishing and installing the Tangent End Terminal, complete with all 
 41
0.8
  7
ROMANS
210
0.0
220
0.0
230
1.0
  0
TEXT
  8
1
  6
CONTINUOUS
 62
     2
  5
4F8
 10
128.9367
 20
74.3756
 30
0.0
 40
0.22
  1
TANGENT END TERMINAL
  7
ROMANS
 72
     4
 11
131.0909
 21
74.4856
 31
0.0
210
0.0
220
0.0
230
1.0
  0
TEXT
  8
3
  6
CONTINUOUS
 62
     2
  5
4F9
 10
123.5657
 20
78.9241
 30
0.0
 40
0.15
  1
is to be included in the unit price bid for "Tangent End Terminal".
 41
0.8
  7
ROMANS
210
0.0
220
0.0
230
1.0
  0
TEXT
  8
3
  6
CONTINUOUS
 62
     2
  5
4FA
 10
106.4468
 20
89.8964
 30
0.0
 40
0.3
  1
TANGENT END TERMINAL PLAN
 41
0.866333
  7
MONOTXT
 72
     1
 11
109.5102
 21
89.8964
 31
0.0
210
0.0
220
0.0
230
1.0
  0
TEXT
  8
1
  6
CONTINUOUS
 62
   140
  5
4FB
 10
129.145
 20
75.6751
 30
0.0
 40
0.22
  1
STANDARD DETAIL
  7
ROMANT
 72
     4
 11
130.2926
 21
75.7851
 31
0.0
210
0.0
220
0.0
230
1.0
  0
TEXT
  8
1
  6
CONTINUOUS
 62
     2
  5
4FC
 10
129.318
 20
72.4864
 30
0.0
 40
0.2
  1
STANDARD SHEET GR6       
  7
txt
 72
     4
 11
131.7652
 21
72.5864
 31
0.0
210
0.0
220
0.0
230
1.0
  0
LINE
  8
3
  6
CONTINUOUS
 62
    40
  5
4FD
 10
121.8749
 20
95.5458
 30
0.0
 11
121.8749
 21
96.7027
 31
0.0
  0
LINE
  8
3
  6
CONTINUOUS
 62
    40
  5
4FE
 10
121.8675
 20
96.5875
 30
0.0
 11
97.1238
 21
96.5875
 31
0.0
  0
POLYLINE
  8
3
  6
CONTINUOUS
 62
    40
  5
4FF
 66
     1
 10
0.0
 20
0.0
 30
0.0
  0
VERTEX
  8
3
  6
CONTINUOUS
 62
    40
  5
500
 10
121.8675
 20
96.5875
 30
0.0
  0
VERTEX
  8
3
  6
CONTINUOUS
 62
    40
  5
501
 10
121.7987
 20
96.5478
 30
0.0
  0
VERTEX
  8
3
  6
CONTINUOUS
 62
    40
  5
502
 10
121.8675
 20
96.5875
 30
0.0
  0
VERTEX
  8
3
  6
CONTINUOUS
 62
    40
  5
503
 10
121.7987
 20
96.6271
 30
0.0
  0
SEQEND
  8
3
  6
CONTINUOUS
 62
    40
  5
504
  0
LINE
  8
3
  6
CONTINUOUS
 62
    40
  5
505
 10
97.1238
 20
94.6862
 30
0.0
 11
97.1238
 21
96.7027
 31
0.0
  0
POLYLINE
  8
3
  6
CONTINUOUS
 62
    40
  5
506
 66
     1
 10
0.0
 20
0.0
 30
0.0
  0
VERTEX
  8
3
  6
CONTINUOUS
 62
    40
  5
507
 10
97.1925
 20
96.6272
 30
0.0
  0
VERTEX
  8
3
  6
CONTINUOUS
 62
    40
  5
508
 10
97.1238
 20
96.5875
 30
0.0
  0
VERTEX
  8
3
  6
CONTINUOUS
 62
    40
  5
509
 10
97.1925
 20
96.5478
 30
0.0
  0
SEQEND
  8
3
  6
CONTINUOUS
 62
    40
  5
50A
  0
TEXT
  8
3
  6
CONTINUOUS
 62
    40
  5
50B
 10
106.88
 20
96.3606
 30
0.0
 40
0.1399
  1
"TANGENT END TERMINAL"
 41
0.785561
  7
ROMANS
210
0.0
220
0.0
230
1.0
  0
LINE
  8
4
  6
CONTINUOUS
 62
     7
  5
50C
 10
97.1238
 20
96.5875
 30
0.0
 11
95.1766
 21
96.5875
 31
0.0
  0
POLYLINE
  8
3
  6
CONTINUOUS
 62
    40
  5
50D
 66
     1
 10
0.0
 20
0.0
 30
0.0
  0
VERTEX
  8
3
  6
CONTINUOUS
 62
    40
  5
50E
 10
112.6624
 20
95.6258
 30
0.0
  0
VERTEX
  8
3
  6
CONTINUOUS
 62
    40
  5
50F
 10
112.5937
 20
95.5861
 30
0.0
  0
VERTEX
  8
3
  6
CONTINUOUS
 62
    40
  5
510
 10
112.6624
 20
95.5464
 30
0.0
  0
SEQEND
  8
3
  6
CONTINUOUS
 62
    40
  5
511
  0
POLYLINE
  8
3
  6
CONTINUOUS
 62
    40
  5
512
 66
     1
 10
0.0
 20
0.0
 30
0.0
  0
VERTEX
  8
3
  6
CONTINUOUS
 62
    40
  5
513
 10
97.1238
 20
96.5875
 30
0.0
  0
VERTEX
  8
3
  6
CONTINUOUS
 62
    40
  5
514
 10
97.055
 20
96.5478
 30
0.0
  0
VERTEX
  8
3
  6
CONTINUOUS
 62
    40
  5
515
 10
97.1238
 20
96.5875
 30
0.0
  0
VERTEX
  8
3
  6
CONTINUOUS
 62
    40
  5
516
 10
97.055
 20
96.6271
 30
0.0
  0
SEQEND
  8
3
  6
CONTINUOUS
 62
    40
  5
517
  0
TEXT
  8
3
  6
CONTINUOUS
 62
    40
  5
518
 10
95.5422
 20
96.9136
 30
0.0
 40
0.1399
  1
GUARDRAIL
 41
0.785561
  7
ROMANS
210
0.0
220
0.0
230
1.0
  0
TEXT
  8
3
  6
CONTINUOUS
 62
    40
  5
519
 10
95.4155
 20
96.6832
 30
0.0
 40
0.1399
  1
 PAY LIMITS
 41
0.785561
  7
ROMANS
210
0.0
220
0.0
230
1.0
  0
TEXT
  8
1
  6
CONTINUOUS
 62
     2
  5
51A
 10
126.9467
 20
74.8558
 30
0.0
 40
0.0799
  1
PREPARED 7-1-99
 41
0.876095
  7
ROMANS
210
0.0
220
0.0
230
1.0
  0
TEXT
  8
3
  6
CONTINUOUS
 62
    40
  5
51B
 10
106.8971
 20
96.6486
 30
0.0
 40
0.1399
  1
PAY LIMITS ITEM 607066-001
 41
0.785561
  7
ROMANS
210
0.0
220
0.0
230
1.0
  0
ENDSEC
  0
EOF
