  0
SECTION
  2
HEADER
  9
$ACADVER
  1
AC1009
  9
$INSBASE
 10
0.0
 20
0.0
 30
0.0
  9
$EXTMIN
 10
-224.886333
 20
-29.795083
 30
0.0
  9
$EXTMAX
 10
-188.198333
 20
-7.795083
 30
0.0
  9
$LIMMIN
 10
0.0
 20
0.0
  9
$LIMMAX
 10
12.0
 20
9.0
  9
$ORTHOMODE
 70
     0
  9
$REGENMODE
 70
     1
  9
$FILLMODE
 70
     1
  9
$QTEXTMODE
 70
     0
  9
$MIRRTEXT
 70
     1
  9
$DRAGMODE
 70
     2
  9
$LTSCALE
 40
1.0
  9
$OSMODE
 70
     0
  9
$ATTMODE
 70
     1
  9
$TEXTSIZE
 40
0.2
  9
$TRACEWID
 40
0.05
  9
$TEXTSTYLE
  7
STANDARD
  9
$CLAYER
  8
0
  9
$CELTYPE
  6
CONTINUOUS
  9
$CECOLOR
 62
   256
  9
$DIMSCALE
 40
1.0
  9
$DIMASZ
 40
0.18
  9
$DIMEXO
 40
0.0625
  9
$DIMDLI
 40
0.38
  9
$DIMRND
 40
0.0
  9
$DIMDLE
 40
0.0
  9
$DIMEXE
 40
0.18
  9
$DIMTP
 40
0.0
  9
$DIMTM
 40
0.0
  9
$DIMTXT
 40
0.18
  9
$DIMCEN
 40
0.09
  9
$DIMTSZ
 40
0.0
  9
$DIMTOL
 70
     0
  9
$DIMLIM
 70
     0
  9
$DIMTIH
 70
     1
  9
$DIMTOH
 70
     1
  9
$DIMSE1
 70
     0
  9
$DIMSE2
 70
     0
  9
$DIMTAD
 70
     0
  9
$DIMZIN
 70
     0
  9
$DIMBLK
  1

  9
$DIMASO
 70
     1
  9
$DIMSHO
 70
     1
  9
$DIMPOST
  1

  9
$DIMAPOST
  1

  9
$DIMALT
 70
     0
  9
$DIMALTD
 70
     2
  9
$DIMALTF
 40
25.4
  9
$DIMLFAC
 40
1.0
  9
$DIMTOFL
 70
     0
  9
$DIMTVP
 40
0.0
  9
$DIMTIX
 70
     0
  9
$DIMSOXD
 70
     0
  9
$DIMSAH
 70
     0
  9
$DIMBLK1
  1

  9
$DIMBLK2
  1

  9
$DIMSTYLE
  2
STANDARD
  9
$DIMCLRD
 70
     0
  9
$DIMCLRE
 70
     0
  9
$DIMCLRT
 70
     0
  9
$DIMTFAC
 40
1.0
  9
$DIMGAP
 40
0.09
  9
$LUNITS
 70
     2
  9
$LUPREC
 70
     4
  9
$AXISMODE
 70
     0
  9
$AXISUNIT
 10
0.0
 20
0.0
  9
$SKETCHINC
 40
0.1
  9
$FILLETRAD
 40
0.0
  9
$AUNITS
 70
     0
  9
$AUPREC
 70
     0
  9
$MENU
  1
acad
  9
$ELEVATION
 40
0.0
  9
$PELEVATION
 40
0.0
  9
$THICKNESS
 40
0.0
  9
$LIMCHECK
 70
     0
  9
$BLIPMODE
 70
     1
  9
$CHAMFERA
 40
0.0
  9
$CHAMFERB
 40
0.0
  9
$SKPOLY
 70
     0
  9
$TDCREATE
 40
2451562.623229167
  9
$TDUPDATE
 40
2451562.623229167
  9
$TDINDWG
 40
0.0000000000
  9
$TDUSRTIMER
 40
0.0000000000
  9
$USRTIMER
 70
     1
  9
$ANGBASE
 50
0.0
  9
$ANGDIR
 70
     0
  9
$PDMODE
 70
     0
  9
$PDSIZE
 40
0.0
  9
$PLINEWID
 40
0.0
  9
$COORDS
 70
     0
  9
$SPLFRAME
 70
     0
  9
$SPLINETYPE
 70
     6
  9
$SPLINESEGS
 70
    10
  9
$ATTDIA
 70
     0
  9
$ATTREQ
 70
     1
  9
$HANDLING
 70
     1
  9
$HANDSEED
  5
78
  9
$SURFTAB1
 70
     6
  9
$SURFTAB2
 70
     6
  9
$SURFTYPE
 70
     6
  9
$SURFU
 70
     6
  9
$SURFV
 70
     6
  9
$UCSNAME
  2

  9
$UCSORG
 10
0.0
 20
0.0
 30
0.0
  9
$UCSXDIR
 10
1.0
 20
0.0
 30
0.0
  9
$UCSYDIR
 10
0.0
 20
1.0
 30
0.0
  9
$PUCSNAME
  2

  9
$PUCSORG
 10
0.0
 20
0.0
 30
0.0
  9
$PUCSXDIR
 10
1.0
 20
0.0
 30
0.0
  9
$PUCSYDIR
 10
0.0
 20
1.0
 30
0.0
  9
$USERI1
 70
     0
  9
$USERI2
 70
     0
  9
$USERI3
 70
     0
  9
$USERI4
 70
     0
  9
$USERI5
 70
     0
  9
$USERR1
 40
0.0
  9
$USERR2
 40
0.0
  9
$USERR3
 40
0.0
  9
$USERR4
 40
0.0
  9
$USERR5
 40
0.0
  9
$WORLDVIEW
 70
     1
  9
$SHADEDGE
 70
     3
  9
$SHADEDIF
 70
    70
  9
$TILEMODE
 70
     1
  9
$MAXACTVP
 70
    16
  9
$PINSBASE
 10
0.0
 20
0.0
 30
0.0
  9
$PLIMCHECK
 70
     0
  9
$PEXTMIN
 10
-1.000000E+20
 20
-1.000000E+20
 30
-1.000000E+20
  9
$PEXTMAX
 10
-1.000000E+20
 20
-1.000000E+20
 30
-1.000000E+20
  9
$PLIMMIN
 10
0.0
 20
0.0
  9
$PLIMMAX
 10
12.0
 20
9.0
  9
$UNITMODE
 70
     0
  9
$VISRETAIN
 70
     0
  9
$PLINEGEN
 70
     1
  9
$PSLTSCALE
 70
     0
  9
$TREEDEPTH
 70
  3020
  9
$DWGCODEPAGE
  3
ansi_1252
  0
ENDSEC
  0
SECTION
  2
TABLES
  0
TABLE
  2
VPORT
 70
     1
  0
VPORT
  2
*ACTIVE
 70
     0
 10
0.0
 20
0.0
 11
1.0
 21
1.0
 12
0.0
 22
0.0
 13
0.0
 23
0.0
 14
0.0
 24
0.0
 15
0.0
 25
0.0
 16
0.0
 26
0.0
 36
1.0
 17
-207.507796
 27
-18.786292
 37
0.0
 40
22.571917
 41
1.58047
 42
50.0
 43
0.000333
 44
0.0
 50
0.0
 51
0.0
 71
     0
 72
   100
 73
     1
 74
     0
 75
     0
 76
     0
 77
     0
 78
     0
  0
ENDTAB
  0
TABLE
  2
LTYPE
 70
     7
  0
LTYPE
  2
CONTINUOUS
 70
     0
  3
Solid line
 72
    65
 73
     0
 40
0.0
  0
LTYPE
  2
DOT
 70
    64
  3
. . . . . . . . . . . . . . . . . . . . . . . . . . . . . . . . .
 72
    65
 73
     2
 40
0.25
 49
0.0
 49
-0.25
  0
LTYPE
  2
HIDDEN
 70
    64
  3
__ __ __ __ __ __ __ __ __ __ __ __ __ __ __ __ __ __ __ __ __ 
 72
    65
 73
     2
 40
0.375
 49
0.25
 49
-0.125
  0
LTYPE
  2
DASHED
 70
    64
  3
__ __ __ __ __ __ __ __ __ __ __ __ __ __ __ __ __ __ __ __ __
 72
    65
 73
     2
 40
0.75
 49
0.5
 49
-0.25
  0
LTYPE
  2
DASHDOT
 70
    64
  3
__ . __ . __ . __ . __ . __ . __ . __ . __ . __ . __ . __ . _
 72
    65
 73
     4
 40
1.0
 49
0.5
 49
-0.25
 49
0.0
 49
-0.25
  0
LTYPE
  2
DIVIDE
 70
    64
  3
____ . . ____ . . ____ . . ____ . . ____ . . ____ . . ____ . .
 72
    65
 73
     6
 40
1.25
 49
0.5
 49
-0.25
 49
0.0
 49
-0.25
 49
0.0
 49
-0.25
  0
LTYPE
  2
CENTER
 70
    64
  3
____ _ ____ _ ____ _ ____ _ ____ _ ____ _ ____ _ ____ _ ____ _
 72
    65
 73
     4
 40
2.0
 49
1.25
 49
-0.25
 49
0.25
 49
-0.25
  0
ENDTAB
  0
TABLE
  2
LAYER
 70
     4
  0
LAYER
  2
0
 70
     0
 62
     7
  6
CONTINUOUS
  0
LAYER
  2
CONSTRUCTION_CLASS
 70
     1
 62
     7
  6
CONTINUOUS
  0
LAYER
  2
PATTERN_CLASS
 70
     0
 62
     7
  6
CONTINUOUS
  0
LAYER
  2
1
 70
    64
 62
     7
  6
CONTINUOUS
  0
ENDTAB
  0
TABLE
  2
STYLE
 70
     5
  0
STYLE
  2
STANDARD
 70
     0
 40
0.0
 41
1.0
 50
0.0
 71
     0
 42
0.0
  3
txt
  4

  0
STYLE
  2
ROMANS
 70
     0
 40
0.2
 41
1.0
 50
0.0
 71
     0
 42
0.2
  3
ROMANS
  4

  0
STYLE
  2
txt
 70
     0
 40
0.2
 41
1.0
 50
0.0
 71
     0
 42
0.2
  3
TXT
  4

  0
STYLE
  2
MONOTXT
 70
     0
 40
0.2
 41
1.0
 50
0.0
 71
     0
 42
0.2
  3
MONOTXT
  4

  0
STYLE
  2
ROMANT
 70
     0
 40
0.2
 41
1.0
 50
0.0
 71
     0
 42
0.2
  3
ROMANT
  4

  0
ENDTAB
  0
TABLE
  2
VIEW
 70
     0
  0
ENDTAB
  0
TABLE
  2
UCS
 70
     0
  0
ENDTAB
  0
TABLE
  2
APPID
 70
     1
  0
APPID
  2
ACAD
 70
     0
  0
ENDTAB
  0
TABLE
  2
DIMSTYLE
 70
     1
  0
DIMSTYLE
  2
STANDARD
 70
     0
  3

  4

  5

  6

  7

 40
1.0
 41
0.18
 42
0.0625
 43
0.38
 44
0.18
 45
0.0
 46
0.0
 47
0.0
 48
0.0
140
0.18
141
0.09
142
0.0
143
25.4
144
1.0
145
0.0
146
1.0
147
0.09
 71
     0
 72
     0
 73
     1
 74
     1
 75
     0
 76
     0
 77
     0
 78
     0
170
     0
171
     2
172
     0
173
     0
174
     0
175
     0
176
     0
177
     0
178
     0
  0
ENDTAB
  0
ENDSEC
  0
SECTION
  2
BLOCKS
  0
ENDSEC
  0
SECTION
  2
ENTITIES
  0
TEXT
  8
1
  6
CONTINUOUS
 62
     2
  5
2A
 10
-195.734583
 20
-28.752667
 30
0.0
 40
0.083333
  1
                  
  7
ROMANS
 72
     4
 11
-194.9985
 21
-28.711
 31
0.0
210
0.0
220
0.0
230
1.0
  0
POINT
  8
1
  6
DASHED
 62
     2
  5
2B
 10
-222.781667
 20
-8.275083
 30
0.0
  0
TEXT
  8
1
  6
CONTINUOUS
 62
     2
  5
2C
 10
-195.367583
 20
-29.14125
 30
0.0
 40
0.083333
  1
                  
  7
ROMANS
 72
     4
 11
-194.6315
 21
-29.099583
 31
0.0
210
0.0
220
0.0
230
1.0
  0
TEXT
  8
1
  6
CONTINUOUS
 62
     2
  5
2D
 10
-195.367583
 20
-29.34025
 30
0.0
 40
0.083333
  1
                  
  7
ROMANS
 72
     4
 11
-194.6315
 21
-29.298583
 31
0.0
210
0.0
220
0.0
230
1.0
  0
POINT
  8
1
  6
DASHED
 62
     2
  5
2E
 10
-222.781667
 20
-8.275083
 30
0.0
  0
POINT
  8
1
  6
DASHED
 62
     2
  5
2F
 10
-189.556667
 20
-29.395083
 30
0.0
  0
LINE
  8
1
  6
DASHED
 62
     4
  5
30
 10
-189.686333
 20
-7.795083
 30
0.0
 11
-224.886333
 21
-7.795083
 31
0.0
  0
LINE
  8
1
  6
DASHED
 62
     4
  5
31
 10
-223.311333
 20
-7.795083
 30
0.0
 11
-223.311333
 21
-29.795083
 31
0.0
  0
LINE
  8
1
  6
CONTINUOUS
 62
   140
  5
32
 10
-222.269667
 20
-8.295083
 30
0.0
 11
-222.269667
 21
-29.295083
 31
0.0
  0
LINE
  8
1
  6
CONTINUOUS
 62
   140
  5
33
 10
-189.769667
 20
-8.295083
 30
0.0
 11
-222.269667
 21
-8.295083
 31
0.0
  0
LINE
  8
1
  6
CONTINUOUS
 62
   140
  5
34
 10
-189.769667
 20
-8.295083
 30
0.0
 11
-189.769667
 21
-29.295083
 31
0.0
  0
LINE
  8
1
  6
CONTINUOUS
 62
   140
  5
35
 10
-189.769667
 20
-29.295083
 30
0.0
 11
-222.269667
 21
-29.295083
 31
0.0
  0
LINE
  8
1
  6
CONTINUOUS
 62
   140
  5
36
 10
-222.519667
 20
-12.195083
 30
0.0
 11
-222.919667
 21
-12.195083
 31
0.0
  0
LINE
  8
1
  6
CONTINUOUS
 62
   140
  5
37
 10
-222.519667
 20
-14.995083
 30
0.0
 11
-222.919667
 21
-14.995083
 31
0.0
  0
LINE
  8
1
  6
CONTINUOUS
 62
   140
  5
38
 10
-222.519667
 20
-22.595083
 30
0.0
 11
-222.919667
 21
-22.595083
 31
0.0
  0
LINE
  8
1
  6
CONTINUOUS
 62
   140
  5
39
 10
-222.519667
 20
-25.395083
 30
0.0
 11
-222.919667
 21
-25.395083
 31
0.0
  0
CIRCLE
  8
1
  6
CONTINUOUS
 62
   140
  5
3A
 10
-222.769667
 20
-12.195083
 30
0.0
 40
0.125
210
0.0
220
0.0
230
1.0
  0
CIRCLE
  8
1
  6
CONTINUOUS
 62
   140
  5
3B
 10
-222.769667
 20
-14.995083
 30
0.0
 40
0.125
210
0.0
220
0.0
230
1.0
  0
CIRCLE
  8
1
  6
CONTINUOUS
 62
   140
  5
3C
 10
-222.769667
 20
-22.595083
 30
0.0
 40
0.125
210
0.0
220
0.0
230
1.0
  0
CIRCLE
  8
1
  6
CONTINUOUS
 62
   140
  5
3D
 10
-222.769667
 20
-25.395083
 30
0.0
 40
0.125
210
0.0
220
0.0
230
1.0
  0
TEXT
  8
1
  6
CONTINUOUS
 62
   140
  5
3F
 10
-191.589833
 20
-29.386833
 30
0.0
 40
0.06
  1
$HUSSEIN$
  7
txt
 11
-191.589833
 21
-29.356833
 31
0.0
210
0.0
220
0.0
230
1.0
 73
     2
  0
POINT
  8
1
  6
CONTINUOUS
 62
   140
  5
40
 10
-222.269667
 20
-29.295083
 30
0.0
  0
POINT
  8
1
  6
CONTINUOUS
 62
   140
  5
41
 10
-222.269667
 20
-8.295083
 30
0.0
  0
POINT
  8
1
  6
CONTINUOUS
 62
   140
  5
42
 10
-189.769667
 20
-8.295083
 30
0.0
  0
POINT
  8
1
  6
CONTINUOUS
 62
   140
  5
43
 10
-189.769667
 20
-29.295083
 30
0.0
  0
LINE
  8
1
  6
CONTINUOUS
 62
   140
  5
44
 10
-189.769667
 20
-29.295083
 30
0.0
 11
-189.769667
 21
-26.796083
 31
0.0
  0
LINE
  8
1
  6
CONTINUOUS
 62
   140
  5
45
 10
-189.769667
 20
-25.80525
 30
0.0
 11
-195.769667
 21
-25.80525
 31
0.0
  0
LINE
  8
1
  6
CONTINUOUS
 62
   140
  5
46
 10
-189.769667
 20
-29.295083
 30
0.0
 11
-195.769667
 21
-29.295083
 31
0.0
  0
LINE
  8
1
  6
CONTINUOUS
 62
   140
  5
47
 10
-194.23175
 20
-27.396083
 30
0.0
 11
-195.769667
 21
-27.396083
 31
0.0
  0
LINE
  8
1
  6
CONTINUOUS
 62
   140
  5
48
 10
-194.23175
 20
-27.595083
 30
0.0
 11
-195.769667
 21
-27.595083
 31
0.0
  0
LINE
  8
1
  6
CONTINUOUS
 62
   140
  5
49
 10
-194.23175
 20
-27.794083
 30
0.0
 11
-195.769667
 21
-27.794083
 31
0.0
  0
LINE
  8
1
  6
CONTINUOUS
 62
   140
  5
4A
 10
-194.23175
 20
-27.993083
 30
0.0
 11
-195.769667
 21
-27.993083
 31
0.0
  0
LINE
  8
1
  6
CONTINUOUS
 62
   140
  5
4B
 10
-194.23175
 20
-28.192083
 30
0.0
 11
-195.769667
 21
-28.192083
 31
0.0
  0
LINE
  8
1
  6
CONTINUOUS
 62
   140
  5
4C
 10
-194.23175
 20
-28.391083
 30
0.0
 11
-195.769667
 21
-28.391083
 31
0.0
  0
LINE
  8
1
  6
CONTINUOUS
 62
   140
  5
4D
 10
-194.23175
 20
-28.590083
 30
0.0
 11
-195.769667
 21
-28.590083
 31
0.0
  0
LINE
  8
1
  6
CONTINUOUS
 62
   140
  5
4E
 10
-194.23175
 20
-28.789083
 30
0.0
 11
-195.769667
 21
-28.789083
 31
0.0
  0
LINE
  8
1
  6
CONTINUOUS
 62
   140
  5
4F
 10
-194.23175
 20
-28.988083
 30
0.0
 11
-195.769667
 21
-28.988083
 31
0.0
  0
TEXT
  8
1
  6
CONTINUOUS
 62
   140
  5
51
 10
-195.462583
 20
-27.34875
 30
0.0
 40
0.079
  1
REVISION DATE
 41
1.003165
  7
MONOTXT
210
0.0
220
0.0
230
1.0
  0
LINE
  8
1
  6
CONTINUOUS
 62
   140
  5
52
 10
-195.769667
 20
-27.885083
 30
0.0
 11
-195.769667
 21
-29.295083
 31
0.0
  0
TEXT
  8
1
  6
CONTINUOUS
 62
   140
  5
54
 10
-195.558333
 20
-26.060167
 30
0.0
 40
0.1875
  1
WEST VIRGINIA DEPARTMENT OF TRANSPORTATION
  7
ROMANT
 72
     4
 11
-192.788
 21
-25.966417
 31
0.0
210
0.0
220
0.0
230
1.0
  0
TEXT
  8
1
  6
CONTINUOUS
 62
   140
  5
55
 10
-193.9855
 20
-26.269083
 30
0.0
 40
0.1875
  1
DIVISION OF HIGHWAYS
  7
ROMANT
 72
     4
 11
-192.766
 21
-26.175333
 31
0.0
210
0.0
220
0.0
230
1.0
  0
LINE
  8
1
  6
CONTINUOUS
 62
   140
  5
56
 10
-194.23175
 20
-27.196083
 30
0.0
 11
-195.769667
 21
-27.196083
 31
0.0
  0
LINE
  8
1
  6
CONTINUOUS
 62
   140
  5
57
 10
-194.23175
 20
-29.295083
 30
0.0
 11
-194.23175
 21
-27.196083
 31
0.0
  0
LINE
  8
1
  6
CONTINUOUS
 62
   140
  5
58
 10
-195.769667
 20
-29.295083
 30
0.0
 11
-195.769667
 21
-25.80525
 31
0.0
  0
TEXT
  8
1
  6
CONTINUOUS
 62
     2
  5
59
 10
-194.504083
 20
-26.933
 30
0.0
 40
0.208333
  1
                        
  7
txt
 72
     4
 11
-192.038833
 21
-26.828833
 31
0.0
210
0.0
220
0.0
230
1.0
  0
TEXT
  8
1
  6
CONTINUOUS
 62
     2
  5
5A
 10
-195.748583
 20
-27.340083
 30
0.0
 40
0.208333
  1
                        
  7
txt
 72
     4
 11
-193.283333
 21
-27.235917
 31
0.0
210
0.0
220
0.0
230
1.0
  0
TEXT
  8
1
  6
CONTINUOUS
 62
     2
  5
5B
 10
-195.734583
 20
-27.757667
 30
0.0
 40
0.083333
  1
                  
  7
ROMANS
 72
     4
 11
-194.9985
 21
-27.716
 31
0.0
210
0.0
220
0.0
230
1.0
  0
TEXT
  8
1
  6
CONTINUOUS
 62
     2
  5
5C
 10
-195.734583
 20
-27.956667
 30
0.0
 40
0.083333
  1
                  
  7
ROMANS
 72
     4
 11
-194.9985
 21
-27.915
 31
0.0
210
0.0
220
0.0
230
1.0
  0
TEXT
  8
1
  6
CONTINUOUS
 62
     2
  5
5D
 10
-195.734583
 20
-28.155667
 30
0.0
 40
0.083333
  1
                  
  7
ROMANS
 72
     4
 11
-194.9985
 21
-28.114
 31
0.0
210
0.0
220
0.0
230
1.0
  0
TEXT
  8
1
  6
CONTINUOUS
 62
     2
  5
5E
 10
-195.734583
 20
-28.354667
 30
0.0
 40
0.083333
  1
                  
  7
ROMANS
 72
     4
 11
-194.9985
 21
-28.313
 31
0.0
210
0.0
220
0.0
230
1.0
  0
TEXT
  8
1
  6
CONTINUOUS
 62
     2
  5
5F
 10
-195.734583
 20
-28.553667
 30
0.0
 40
0.083333
  1
                  
  7
ROMANS
 72
     4
 11
-194.9985
 21
-28.512
 31
0.0
210
0.0
220
0.0
230
1.0
  0
TEXT
  8
1
  6
CONTINUOUS
 62
     2
  5
60
 10
-195.734583
 20
-28.752667
 30
0.0
 40
0.083333
  1
                  
  7
ROMANS
 72
     4
 11
-194.9985
 21
-28.711
 31
0.0
210
0.0
220
0.0
230
1.0
  0
TEXT
  8
1
  6
CONTINUOUS
 62
     2
  5
61
 10
-195.734583
 20
-28.951667
 30
0.0
 40
0.083333
  1
                  
  7
ROMANS
 72
     4
 11
-194.9985
 21
-28.91
 31
0.0
210
0.0
220
0.0
230
1.0
  0
TEXT
  8
1
  6
CONTINUOUS
 62
     2
  5
62
 10
-195.736167
 20
-29.155833
 30
0.0
 40
0.083333
  1
                  
  7
ROMANS
 72
     4
 11
-195.000083
 21
-29.114167
 31
0.0
210
0.0
220
0.0
230
1.0
  0
POINT
  8
1
  6
DASHED
 62
     2
  5
63
 10
-222.781667
 20
-8.275083
 30
0.0
  0
POINT
  8
1
  6
DASHED
 62
     2
  5
64
 10
-189.556667
 20
-29.395083
 30
0.0
  0
TEXT
  8
1
  6
CONTINUOUS
 62
   140
  5
65
 10
-222.221667
 20
-29.416083
 30
0.0
 40
0.06
  1
P5A1G92-STDBOR a
  7
MONOTXT
210
0.0
220
0.0
230
1.0
  0
TEXT
  8
1
  6
CONTINUOUS
 62
     2
  5
66
 10
-193.8615
 20
-28.03025
 30
0.0
 40
0.208333
  1
GUARDRAIL FOR MEDIAN 
  7
txt
 72
     4
 11
-191.725667
 21
-27.926083
 31
0.0
210
0.0
220
0.0
230
1.0
  0
TEXT
  8
1
  6
CONTINUOUS
 62
     2
  5
67
 10
-194.730333
 20
-27.332667
 30
0.0
 40
0.208333
  1
     GUARDRAIL AT MEDIAN  
  7
txt
 72
     4
 11
-192.073667
 21
-27.2285
 31
0.0
210
0.0
220
0.0
230
1.0
  0
TEXT
  8
1
  6
CONTINUOUS
 62
     2
  5
68
 10
-192.676667
 20
-28.413333
 30
0.0
 40
0.208333
  1
OBSTACLE              
  7
txt
 72
     4
 11
-190.4375
 21
-28.309167
 31
0.0
210
0.0
220
0.0
230
1.0
  0
TEXT
  8
1
  6
CONTINUOUS
 62
     2
  5
69
 10
-193.015833
 20
-27.709917
 30
0.0
 40
0.208333
  1
  BRIDGES, 
  7
txt
 72
     4
 11
-191.911833
 21
-27.60575
 31
0.0
210
0.0
220
0.0
230
1.0
  0
TEXT
  8
1
  6
CONTINUOUS
 62
     2
  5
6A
 10
-195.73825
 20
-27.116917
 30
0.0
 40
0.083333
  1
                 
  7
ROMANS
 72
     4
 11
-195.043833
 21
-27.07525
 31
0.0
210
0.0
220
0.0
230
1.0
  0
TEXT
  8
1
  6
CONTINUOUS
 62
   140
  5
6B
 10
-193.313917
 20
-29.386833
 30
0.0
 40
0.06
  1
$$$$$$$$$GR8M$$$$$$$$
  7
txt
 11
-193.313917
 21
-29.356833
 31
0.0
210
0.0
220
0.0
230
1.0
 73
     2
  0
TEXT
  8
1
  6
CONTINUOUS
 62
   140
  5
6C
 10
-190.81625
 20
-29.386833
 30
0.0
 40
0.06
  1
01-11-1995
  7
txt
 11
-190.81625
 21
-29.356833
 31
0.0
210
0.0
220
0.0
230
1.0
 73
     2
  0
LINE
  8
1
  6
DASHED
 62
     4
  5
6D
 10
-189.686333
 20
-29.795083
 30
0.0
 11
-224.886333
 21
-29.795083
 31
0.0
  0
TEXT
  8
1
  6
CONTINUOUS
 62
     2
  5
6E
 10
-222.069667
 20
-25.019
 30
0.0
 40
0.15
  1
01-11-1995r
 41
0.75
  7
MONOTXT
 11
-222.069667
 21
-24.944
 31
0.0
210
0.0
220
0.0
230
1.0
 73
     2
  0
TEXT
  8
1
  6
CONTINUOUS
 62
     2
  5
6F
 10
-222.069667
 20
-24.944
 30
0.0
 40
0.15
  1
01-11-1995r
 41
0.75
  7
MONOTXT
 11
-222.069667
 21
-24.869
 31
0.0
210
0.0
220
0.0
230
1.0
 73
     2
  0
TEXT
  8
1
  6
CONTINUOUS
 62
   140
  5
70
 10
-193.755417
 20
-26.46725
 30
0.0
 40
0.1875
  1
STANDARD DETAIL
  7
ROMANT
 72
     4
 11
-192.777333
 21
-26.3735
 31
0.0
210
0.0
220
0.0
230
1.0
  0
TEXT
  8
1
  6
CONTINUOUS
 62
     2
  5
71
 10
-193.043917
 20
-29.086667
 30
0.0
 40
0.166667
  1
STANDARD SHEET GR8    
  7
txt
 72
     4
 11
-191.252583
 21
-29.003333
 31
0.0
210
0.0
220
0.0
230
1.0
  0
TEXT
  8
1
  6
CONTINUOUS
 62
   110
  5
72
 10
-211.808667
 20
-17.142667
 30
0.0
 40
1.416667
  1
LEFT BLANK
  7
txt
 72
     4
 11
-205.015417
 21
-16.434333
 31
0.0
210
0.0
220
0.0
230
1.0
  0
TEXT
  8
1
  6
CONTINUOUS
 62
   110
  5
73
 10
-213.149833
 20
-20.05525
 30
0.0
 40
1.416667
  1
INTENTIONALLY
  7
txt
 72
     4
 11
-204.248333
 21
-19.346917
 31
0.0
210
0.0
220
0.0
230
1.0
  0
TEXT
  8
1
  6
CONTINUOUS
 62
   110
  5
74
 10
-214.091333
 20
-14.39075
 30
0.0
 40
1.416667
  1
THIS SHEET WAS
  7
txt
 72
     4
 11
-204.487
 21
-13.682417
 31
0.0
210
0.0
220
0.0
230
1.0
  0
ENDSEC
  0
EOF
