  0
SECTION
  2
HEADER
  9
$ACADVER
  1
AC1009
  9
$INSBASE
 10
0.0
 20
0.0
 30
0.0
  9
$EXTMIN
 10
-4.781
 20
-1.63925
 30
0.0
  9
$EXTMAX
 10
85.341917
 20
92.895833
 30
0.0
  9
$LIMMIN
 10
0.0
 20
0.0
  9
$LIMMAX
 10
12.0
 20
9.0
  9
$ORTHOMODE
 70
     0
  9
$REGENMODE
 70
     1
  9
$FILLMODE
 70
     1
  9
$QTEXTMODE
 70
     0
  9
$MIRRTEXT
 70
     1
  9
$DRAGMODE
 70
     2
  9
$LTSCALE
 40
1.0
  9
$OSMODE
 70
     0
  9
$ATTMODE
 70
     1
  9
$TEXTSIZE
 40
0.2
  9
$TRACEWID
 40
0.05
  9
$TEXTSTYLE
  7
STANDARD
  9
$CLAYER
  8
0
  9
$CELTYPE
  6
CONTINUOUS
  9
$CECOLOR
 62
   256
  9
$DIMSCALE
 40
1.0
  9
$DIMASZ
 40
0.18
  9
$DIMEXO
 40
0.0625
  9
$DIMDLI
 40
0.38
  9
$DIMRND
 40
0.0
  9
$DIMDLE
 40
0.0
  9
$DIMEXE
 40
0.18
  9
$DIMTP
 40
0.0
  9
$DIMTM
 40
0.0
  9
$DIMTXT
 40
0.18
  9
$DIMCEN
 40
0.09
  9
$DIMTSZ
 40
0.0
  9
$DIMTOL
 70
     0
  9
$DIMLIM
 70
     0
  9
$DIMTIH
 70
     1
  9
$DIMTOH
 70
     1
  9
$DIMSE1
 70
     0
  9
$DIMSE2
 70
     0
  9
$DIMTAD
 70
     0
  9
$DIMZIN
 70
     0
  9
$DIMBLK
  1

  9
$DIMASO
 70
     1
  9
$DIMSHO
 70
     1
  9
$DIMPOST
  1

  9
$DIMAPOST
  1

  9
$DIMALT
 70
     0
  9
$DIMALTD
 70
     2
  9
$DIMALTF
 40
25.4
  9
$DIMLFAC
 40
1.0
  9
$DIMTOFL
 70
     0
  9
$DIMTVP
 40
0.0
  9
$DIMTIX
 70
     0
  9
$DIMSOXD
 70
     0
  9
$DIMSAH
 70
     0
  9
$DIMBLK1
  1

  9
$DIMBLK2
  1

  9
$DIMSTYLE
  2
STANDARD
  9
$DIMCLRD
 70
     0
  9
$DIMCLRE
 70
     0
  9
$DIMCLRT
 70
     0
  9
$DIMTFAC
 40
1.0
  9
$DIMGAP
 40
0.09
  9
$LUNITS
 70
     2
  9
$LUPREC
 70
     4
  9
$AXISMODE
 70
     0
  9
$AXISUNIT
 10
0.0
 20
0.0
  9
$SKETCHINC
 40
0.1
  9
$FILLETRAD
 40
0.0
  9
$AUNITS
 70
     0
  9
$AUPREC
 70
     0
  9
$MENU
  1
acad
  9
$ELEVATION
 40
0.0
  9
$PELEVATION
 40
0.0
  9
$THICKNESS
 40
0.0
  9
$LIMCHECK
 70
     0
  9
$BLIPMODE
 70
     1
  9
$CHAMFERA
 40
0.0
  9
$CHAMFERB
 40
0.0
  9
$SKPOLY
 70
     0
  9
$TDCREATE
 40
2451562.628969907
  9
$TDUPDATE
 40
2451562.628969907
  9
$TDINDWG
 40
0.0000000000
  9
$TDUSRTIMER
 40
0.0000000000
  9
$USRTIMER
 70
     1
  9
$ANGBASE
 50
0.0
  9
$ANGDIR
 70
     0
  9
$PDMODE
 70
     0
  9
$PDSIZE
 40
0.0
  9
$PLINEWID
 40
0.0
  9
$COORDS
 70
     0
  9
$SPLFRAME
 70
     0
  9
$SPLINETYPE
 70
     6
  9
$SPLINESEGS
 70
    10
  9
$ATTDIA
 70
     0
  9
$ATTREQ
 70
     1
  9
$HANDLING
 70
     1
  9
$HANDSEED
  5
60F
  9
$SURFTAB1
 70
     6
  9
$SURFTAB2
 70
     6
  9
$SURFTYPE
 70
     6
  9
$SURFU
 70
     6
  9
$SURFV
 70
     6
  9
$UCSNAME
  2

  9
$UCSORG
 10
0.0
 20
0.0
 30
0.0
  9
$UCSXDIR
 10
1.0
 20
0.0
 30
0.0
  9
$UCSYDIR
 10
0.0
 20
1.0
 30
0.0
  9
$PUCSNAME
  2

  9
$PUCSORG
 10
0.0
 20
0.0
 30
0.0
  9
$PUCSXDIR
 10
1.0
 20
0.0
 30
0.0
  9
$PUCSYDIR
 10
0.0
 20
1.0
 30
0.0
  9
$USERI1
 70
     0
  9
$USERI2
 70
     0
  9
$USERI3
 70
     0
  9
$USERI4
 70
     0
  9
$USERI5
 70
     0
  9
$USERR1
 40
0.0
  9
$USERR2
 40
0.0
  9
$USERR3
 40
0.0
  9
$USERR4
 40
0.0
  9
$USERR5
 40
0.0
  9
$WORLDVIEW
 70
     1
  9
$SHADEDGE
 70
     3
  9
$SHADEDIF
 70
    70
  9
$TILEMODE
 70
     1
  9
$MAXACTVP
 70
    16
  9
$PINSBASE
 10
0.0
 20
0.0
 30
0.0
  9
$PLIMCHECK
 70
     0
  9
$PEXTMIN
 10
-1.000000E+20
 20
-1.000000E+20
 30
-1.000000E+20
  9
$PEXTMAX
 10
-1.000000E+20
 20
-1.000000E+20
 30
-1.000000E+20
  9
$PLIMMIN
 10
0.0
 20
0.0
  9
$PLIMMAX
 10
12.0
 20
9.0
  9
$UNITMODE
 70
     0
  9
$VISRETAIN
 70
     0
  9
$PLINEGEN
 70
     1
  9
$PSLTSCALE
 70
     0
  9
$TREEDEPTH
 70
  3020
  9
$DWGCODEPAGE
  3
ansi_1252
  0
ENDSEC
  0
SECTION
  2
TABLES
  0
TABLE
  2
VPORT
 70
     1
  0
VPORT
  2
*ACTIVE
 70
     0
 10
0.0
 20
0.0
 11
1.0
 21
1.0
 12
0.0
 22
0.0
 13
0.0
 23
0.0
 14
0.0
 24
0.0
 15
0.0
 25
0.0
 16
0.0
 26
0.0
 36
1.0
 17
65.67023
 27
82.423625
 37
0.0
 40
23.605583
 41
1.564748
 42
50.0
 43
0.000333
 44
0.0
 50
0.0
 51
0.0
 71
     0
 72
   100
 73
     1
 74
     0
 75
     0
 76
     0
 77
     0
 78
     0
  0
ENDTAB
  0
TABLE
  2
LTYPE
 70
     7
  0
LTYPE
  2
CONTINUOUS
 70
     0
  3
Solid line
 72
    65
 73
     0
 40
0.0
  0
LTYPE
  2
DOT
 70
    64
  3
. . . . . . . . . . . . . . . . . . . . . . . . . . . . . . . . .
 72
    65
 73
     2
 40
0.25
 49
0.0
 49
-0.25
  0
LTYPE
  2
HIDDEN
 70
    64
  3
__ __ __ __ __ __ __ __ __ __ __ __ __ __ __ __ __ __ __ __ __ 
 72
    65
 73
     2
 40
0.375
 49
0.25
 49
-0.125
  0
LTYPE
  2
DASHED
 70
    64
  3
__ __ __ __ __ __ __ __ __ __ __ __ __ __ __ __ __ __ __ __ __
 72
    65
 73
     2
 40
0.75
 49
0.5
 49
-0.25
  0
LTYPE
  2
DASHDOT
 70
    64
  3
__ . __ . __ . __ . __ . __ . __ . __ . __ . __ . __ . __ . _
 72
    65
 73
     4
 40
1.0
 49
0.5
 49
-0.25
 49
0.0
 49
-0.25
  0
LTYPE
  2
DIVIDE
 70
    64
  3
____ . . ____ . . ____ . . ____ . . ____ . . ____ . . ____ . .
 72
    65
 73
     6
 40
1.25
 49
0.5
 49
-0.25
 49
0.0
 49
-0.25
 49
0.0
 49
-0.25
  0
LTYPE
  2
CENTER
 70
    64
  3
____ _ ____ _ ____ _ ____ _ ____ _ ____ _ ____ _ ____ _ ____ _
 72
    65
 73
     4
 40
2.0
 49
1.25
 49
-0.25
 49
0.25
 49
-0.25
  0
ENDTAB
  0
TABLE
  2
LAYER
 70
     5
  0
LAYER
  2
0
 70
     0
 62
     7
  6
CONTINUOUS
  0
LAYER
  2
CONSTRUCTION_CLASS
 70
     1
 62
     7
  6
CONTINUOUS
  0
LAYER
  2
PATTERN_CLASS
 70
     0
 62
     7
  6
CONTINUOUS
  0
LAYER
  2
1
 70
    64
 62
     7
  6
CONTINUOUS
  0
LAYER
  2
DEFPOINTS
 70
    64
 62
     7
  6
CONTINUOUS
  0
ENDTAB
  0
TABLE
  2
STYLE
 70
     5
  0
STYLE
  2
STANDARD
 70
     0
 40
0.0
 41
1.0
 50
0.0
 71
     0
 42
0.0
  3
txt
  4

  0
STYLE
  2
txt
 70
     0
 40
0.2
 41
1.0
 50
0.0
 71
     0
 42
0.2
  3
TXT
  4

  0
STYLE
  2
MONOTXT
 70
     0
 40
0.2
 41
1.0
 50
0.0
 71
     0
 42
0.2
  3
MONOTXT
  4

  0
STYLE
  2
ROMANT
 70
     0
 40
0.2
 41
1.0
 50
0.0
 71
     0
 42
0.2
  3
ROMANT
  4

  0
STYLE
  2
ROMANS
 70
     0
 40
0.2
 41
1.0
 50
0.0
 71
     0
 42
0.2
  3
ROMANS
  4

  0
ENDTAB
  0
TABLE
  2
VIEW
 70
     0
  0
ENDTAB
  0
TABLE
  2
UCS
 70
     0
  0
ENDTAB
  0
TABLE
  2
APPID
 70
     1
  0
APPID
  2
ACAD
 70
     0
  0
ENDTAB
  0
TABLE
  2
DIMSTYLE
 70
     2
  0
DIMSTYLE
  2
STANDARD
 70
     0
  3

  4

  5

  6

  7

 40
1.0
 41
0.18
 42
0.0625
 43
0.38
 44
0.18
 45
0.0
 46
0.0
 47
0.0
 48
0.0
140
0.18
141
0.09
142
0.0
143
25.4
144
1.0
145
0.0
146
1.0
147
0.09
 71
     0
 72
     0
 73
     1
 74
     1
 75
     0
 76
     0
 77
     0
 78
     0
170
     0
171
     2
172
     0
173
     0
174
     0
175
     0
176
     0
177
     0
178
     0
  0
DIMSTYLE
  2
MSADIM
 70
     0
  3

  4

  5

  6

  7

 40
1.0
 41
0.12
 42
0.06
 43
0.0
 44
0.06
 45
0.0
 46
0.0
 47
0.0
 48
0.0
140
0.12
141
0.06
142
0.0
143
25.4
144
1.0
145
0.06
146
1.0
147
0.06
 71
     0
 72
     0
 73
     1
 74
     1
 75
     1
 76
     1
 77
     0
 78
     2
170
     0
171
     2
172
     0
173
     1
174
     0
175
     0
176
     0
177
     0
178
     0
  0
ENDTAB
  0
ENDSEC
  0
SECTION
  2
BLOCKS
  0
BLOCK
  8
1
  6
CONTINUOUS
 62
     2
  5
4D2
  2
ARROW
 70
     0
 10
0.0
 20
0.0
 30
0.0
  3
ARROW
  0
SOLID
  8
1
  6
CONTINUOUS
 62
     2
  5
4D3
 10
-0.15
 20
0.025
 30
0.0
 11
0.0
 21
0.0
 31
0.0
 12
-0.15
 22
-0.025
 32
0.0
 13
-0.15
 23
-0.025
 33
0.0
  0
ENDBLK
  8
1
  6
CONTINUOUS
 62
     2
  5
4D4
  0
BLOCK
  8
1
  6
CONTINUOUS
 62
     2
  5
55C
  2
*D1
 70
     1
 10
0.0
 20
0.0
 30
0.0
  3
*N1
  0
SOLID
  8
1
  6
CONTINUOUS
 62
     2
  5
55D
 10
0.08975
 20
0.085167
 30
0.0
 11
0.0
 21
0.0
 31
0.0
 12
0.039083
 22
0.117333
 32
0.0
 13
0.039083
 23
0.117333
 33
0.0
  0
POLYLINE
  8
1
  6
CONTINUOUS
 62
     2
  5
55E
 66
     1
 10
0.0
 20
0.0
 30
0.0
  0
VERTEX
  8
1
  6
CONTINUOUS
 62
     2
  5
55F
 10
0.0
 20
0.0
 30
0.0
  0
VERTEX
  8
1
  6
CONTINUOUS
 62
     2
  5
560
 10
0.798083
 20
1.254583
 30
0.0
  0
VERTEX
  8
1
  6
CONTINUOUS
 62
     2
  5
561
 10
1.545417
 20
1.254583
 30
0.0
  0
SEQEND
  8
1
  6
CONTINUOUS
 62
     2
  5
562
  0
LINE
  8
1
  6
CONTINUOUS
 62
     2
  5
563
 10
1.545417
 20
1.254583
 30
0.0
 11
1.785417
 21
1.254583
 31
0.0
  0
TEXT
  8
1
  6
CONTINUOUS
 62
     2
  5
564
 10
1.845417
 20
1.194583
 30
0.0
 40
0.12
  1
Surface of ramp
  7
ROMANS
 11
1.845417
 21
1.254583
 31
0.0
210
0.0
220
0.0
230
1.0
 73
     2
  0
ENDBLK
  8
1
  6
CONTINUOUS
 62
     2
  5
565
  0
BLOCK
  8
1
  6
CONTINUOUS
 62
     2
  5
568
  2
*D2
 70
     1
 10
0.0
 20
0.0
 30
0.0
  3
*N2
  0
SOLID
  8
1
  6
CONTINUOUS
 62
     2
  5
569
 10
-0.041583
 20
0.1165
 30
0.0
 11
0.0
 21
0.0
 31
0.0
 12
-0.0915
 22
0.08325
 32
0.0
 13
-0.0915
 23
0.08325
 33
0.0
  0
POLYLINE
  8
1
  6
CONTINUOUS
 62
     2
  5
56A
 66
     1
 10
0.0
 20
0.0
 30
0.0
  0
VERTEX
  8
1
  6
CONTINUOUS
 62
     2
  5
56B
 10
0.0
 20
0.0
 30
0.0
  0
VERTEX
  8
1
  6
CONTINUOUS
 62
     2
  5
56C
 10
-0.65875
 20
0.988417
 30
0.0
  0
VERTEX
  8
1
  6
CONTINUOUS
 62
     2
  5
56D
 10
-2.58425
 20
0.988417
 30
0.0
  0
SEQEND
  8
1
  6
CONTINUOUS
 62
     2
  5
56E
  0
ENDBLK
  8
1
  6
CONTINUOUS
 62
     2
  5
56F
  0
BLOCK
  8
1
  6
CONTINUOUS
 62
     2
  5
597
  2
*D3
 70
     1
 10
0.0
 20
0.0
 30
0.0
  3
*N3
  0
SOLID
  8
1
  6
CONTINUOUS
 62
     2
  5
598
 10
-0.08875
 20
-0.086167
 30
0.0
 11
0.0
 21
0.0
 31
0.0
 12
-0.03775
 22
-0.117833
 32
0.0
 13
-0.03775
 23
-0.117833
 33
0.0
  0
POLYLINE
  8
1
  6
CONTINUOUS
 62
     2
  5
599
 66
     1
 10
0.0
 20
0.0
 30
0.0
  0
VERTEX
  8
1
  6
CONTINUOUS
 62
     2
  5
59A
 10
0.0
 20
0.0
 30
0.0
  0
VERTEX
  8
1
  6
CONTINUOUS
 62
     2
  5
59B
 10
-0.942
 20
-1.51925
 30
0.0
  0
VERTEX
  8
1
  6
CONTINUOUS
 62
     2
  5
59C
 10
-1.461083
 20
-1.51925
 30
0.0
  0
SEQEND
  8
1
  6
CONTINUOUS
 62
     2
  5
59D
  0
LINE
  8
1
  6
CONTINUOUS
 62
     2
  5
59E
 10
-1.461083
 20
-1.51925
 30
0.0
 11
-1.701083
 21
-1.51925
 31
0.0
  0
TEXT
  8
1
  6
CONTINUOUS
 62
     2
  5
59F
 10
-4.781
 20
-1.57925
 30
0.0
 40
0.12
  1
 1/4 " Expansion Joint Filler
  7
ROMANS
 11
-4.781
 21
-1.51925
 31
0.0
210
0.0
220
0.0
230
1.0
 73
     2
  0
ENDBLK
  8
1
  6
CONTINUOUS
 62
     2
  5
5A0
  0
BLOCK
  8
1
  6
CONTINUOUS
 62
     2
  5
5AE
  2
*D4
 70
     1
 10
0.0
 20
0.0
 30
0.0
  3
*N4
  0
SOLID
  8
1
  6
CONTINUOUS
 62
     2
  5
5AF
 10
-0.12
 20
0.03
 30
0.0
 11
0.0
 21
0.0
 31
0.0
 12
-0.12
 22
-0.03
 32
0.0
 13
-0.12
 23
-0.03
 33
0.0
  0
POLYLINE
  8
1
  6
CONTINUOUS
 62
     2
  5
5B0
 66
     1
 10
0.0
 20
0.0
 30
0.0
  0
VERTEX
  8
1
  6
CONTINUOUS
 62
     2
  5
5B1
 10
0.0
 20
0.0
 30
0.0
  0
VERTEX
  8
1
  6
CONTINUOUS
 62
     2
  5
5B2
 10
-0.173083
 20
0.0
 30
0.0
  0
VERTEX
  8
1
  6
CONTINUOUS
 62
     2
  5
5B3
 10
-0.173083
 20
0.0
 30
0.0
  0
SEQEND
  8
1
  6
CONTINUOUS
 62
     2
  5
5B4
  0
LINE
  8
1
  6
CONTINUOUS
 62
     2
  5
5B5
 10
-0.173083
 20
0.0
 30
0.0
 11
-0.413083
 21
0.0
 31
0.0
  0
TEXT
  8
1
  6
CONTINUOUS
 62
     2
  5
5B6
 10
-3.553
 20
-0.06
 30
0.0
 40
0.12
  1
Edge of Pavement or Gutter
  7
ROMANS
 11
-3.553
 21
0.0
 31
0.0
210
0.0
220
0.0
230
1.0
 73
     2
  0
ENDBLK
  8
1
  6
CONTINUOUS
 62
     2
  5
5B7
  0
BLOCK
  8
1
  6
CONTINUOUS
 62
     2
  5
5BA
  2
*D5
 70
     1
 10
0.0
 20
0.0
 30
0.0
  3
*N5
  0
SOLID
  8
1
  6
CONTINUOUS
 62
     2
  5
5BB
 10
-0.12
 20
0.03
 30
0.0
 11
0.0
 21
0.0
 31
0.0
 12
-0.12
 22
-0.03
 32
0.0
 13
-0.12
 23
-0.03
 33
0.0
  0
POLYLINE
  8
1
  6
CONTINUOUS
 62
     2
  5
5BC
 66
     1
 10
0.0
 20
0.0
 30
0.0
  0
VERTEX
  8
1
  6
CONTINUOUS
 62
     2
  5
5BD
 10
0.0
 20
0.0
 30
0.0
  0
VERTEX
  8
1
  6
CONTINUOUS
 62
     2
  5
5BE
 10
-1.230333
 20
0.0
 30
0.0
  0
VERTEX
  8
1
  6
CONTINUOUS
 62
     2
  5
5BF
 10
-1.230333
 20
0.0
 30
0.0
  0
SEQEND
  8
1
  6
CONTINUOUS
 62
     2
  5
5C0
  0
LINE
  8
1
  6
CONTINUOUS
 62
     2
  5
5C1
 10
-1.230333
 20
0.0
 30
0.0
 11
-1.470333
 21
0.0
 31
0.0
  0
TEXT
  8
1
  6
CONTINUOUS
 62
     2
  5
5C2
 10
-1.970917
 20
-0.06
 30
0.0
 40
0.12
  1
Curb
  7
ROMANS
 11
-1.970917
 21
0.0
 31
0.0
210
0.0
220
0.0
230
1.0
 73
     2
  0
ENDBLK
  8
1
  6
CONTINUOUS
 62
     2
  5
5C3
  0
BLOCK
  8
1
  6
CONTINUOUS
 62
     2
  5
5ED
  2
*D6
 70
     1
 10
0.0
 20
0.0
 30
0.0
  3
*N6
  0
POLYLINE
  8
1
  6
CONTINUOUS
 62
     2
  5
5EE
 66
     1
 10
0.0
 20
0.0
 30
0.0
  0
VERTEX
  8
1
  6
CONTINUOUS
 62
     2
  5
5EF
 10
0.1195
 20
-0.031833
 30
0.0
  0
VERTEX
  8
1
  6
CONTINUOUS
 62
     2
  5
5F0
 10
0.0
 20
0.0
 30
0.0
  0
VERTEX
  8
1
  6
CONTINUOUS
 62
     2
  5
5F1
 10
0.120417
 20
0.028167
 30
0.0
  0
SEQEND
  8
1
  6
CONTINUOUS
 62
     2
  5
5F2
  0
LINE
  8
1
  6
CONTINUOUS
 62
     2
  5
5F3
 10
0.0
 20
0.0
 30
0.0
 11
1.032333
 21
-0.015833
 31
0.0
  0
ENDBLK
  8
1
  6
CONTINUOUS
 62
     2
  5
5F4
  0
BLOCK
  8
1
  6
CONTINUOUS
 62
     2
  5
5F8
  2
*D7
 70
     1
 10
0.0
 20
0.0
 30
0.0
  3
*N7
  0
POLYLINE
  8
1
  6
CONTINUOUS
 62
     2
  5
5F9
 66
     1
 10
0.0
 20
0.0
 30
0.0
  0
VERTEX
  8
1
  6
CONTINUOUS
 62
     2
  5
5FA
 10
-0.03
 20
-0.12
 30
0.0
  0
VERTEX
  8
1
  6
CONTINUOUS
 62
     2
  5
5FB
 10
0.0
 20
0.0
 30
0.0
  0
VERTEX
  8
1
  6
CONTINUOUS
 62
     2
  5
5FC
 10
0.03
 20
-0.12
 30
0.0
  0
SEQEND
  8
1
  6
CONTINUOUS
 62
     2
  5
5FD
  0
LINE
  8
1
  6
CONTINUOUS
 62
     2
  5
5FE
 10
0.0
 20
0.0
 30
0.0
 11
0.0
 21
-0.9535
 31
0.0
  0
ENDBLK
  8
1
  6
CONTINUOUS
 62
     2
  5
5FF
  0
BLOCK
  8
1
  6
CONTINUOUS
 62
     2
  5
602
  2
*D8
 70
     1
 10
0.0
 20
0.0
 30
0.0
  3
*N8
  0
POLYLINE
  8
1
  6
CONTINUOUS
 62
     2
  5
603
 66
     1
 10
0.0
 20
0.0
 30
0.0
  0
VERTEX
  8
1
  6
CONTINUOUS
 62
     2
  5
604
 10
0.03
 20
0.12
 30
0.0
  0
VERTEX
  8
1
  6
CONTINUOUS
 62
     2
  5
605
 10
0.0
 20
0.0
 30
0.0
  0
VERTEX
  8
1
  6
CONTINUOUS
 62
     2
  5
606
 10
-0.03
 20
0.12
 30
0.0
  0
SEQEND
  8
1
  6
CONTINUOUS
 62
     2
  5
607
  0
LINE
  8
1
  6
CONTINUOUS
 62
     2
  5
608
 10
0.0
 20
0.0
 30
0.0
 11
0.0
 21
0.9535
 31
0.0
  0
ENDBLK
  8
1
  6
CONTINUOUS
 62
     2
  5
609
  0
ENDSEC
  0
SECTION
  2
ENTITIES
  0
POINT
  8
1
  6
DASHED
 62
     2
  5
29
 10
52.05875
 20
92.415833
 30
0.0
  0
POINT
  8
1
  6
DASHED
 62
     2
  5
2A
 10
85.28375
 20
71.295833
 30
0.0
  0
LINE
  8
1
  6
DASHED
 62
     2
  5
2B
 10
85.154083
 20
92.895833
 30
0.0
 11
49.954083
 21
92.895833
 31
0.0
  0
LINE
  8
1
  6
DASHED
 62
     2
  5
2C
 10
85.154083
 20
70.895833
 30
0.0
 11
49.954083
 21
70.895833
 31
0.0
  0
LINE
  8
1
  6
DASHED
 62
     2
  5
2D
 10
51.529083
 20
92.895833
 30
0.0
 11
51.529083
 21
70.895833
 31
0.0
  0
LINE
  8
1
  6
CONTINUOUS
 62
     2
  5
2E
 10
52.57075
 20
92.395833
 30
0.0
 11
52.57075
 21
71.395833
 31
0.0
  0
LINE
  8
1
  6
CONTINUOUS
 62
     2
  5
2F
 10
85.07075
 20
92.395833
 30
0.0
 11
52.57075
 21
92.395833
 31
0.0
  0
LINE
  8
1
  6
CONTINUOUS
 62
     2
  5
30
 10
85.07075
 20
92.395833
 30
0.0
 11
85.07075
 21
71.395833
 31
0.0
  0
LINE
  8
1
  6
CONTINUOUS
 62
     2
  5
31
 10
85.07075
 20
71.395833
 30
0.0
 11
52.57075
 21
71.395833
 31
0.0
  0
LINE
  8
1
  6
CONTINUOUS
 62
     2
  5
32
 10
52.32075
 20
88.495833
 30
0.0
 11
51.92075
 21
88.495833
 31
0.0
  0
LINE
  8
1
  6
CONTINUOUS
 62
     2
  5
33
 10
52.32075
 20
78.095833
 30
0.0
 11
51.92075
 21
78.095833
 31
0.0
  0
LINE
  8
1
  6
CONTINUOUS
 62
     2
  5
34
 10
52.32075
 20
75.295833
 30
0.0
 11
51.92075
 21
75.295833
 31
0.0
  0
CIRCLE
  8
1
  6
CONTINUOUS
 62
     2
  5
35
 10
52.07075
 20
88.495833
 30
0.0
 40
0.125
210
0.0
220
0.0
230
1.0
  0
CIRCLE
  8
1
  6
CONTINUOUS
 62
     2
  5
36
 10
52.07075
 20
78.095833
 30
0.0
 40
0.125
210
0.0
220
0.0
230
1.0
  0
CIRCLE
  8
1
  6
CONTINUOUS
 62
     2
  5
37
 10
52.07075
 20
75.295833
 30
0.0
 40
0.125
210
0.0
220
0.0
230
1.0
  0
TEXT
  8
1
  6
CONTINUOUS
 62
     2
  5
39
 10
81.5265
 20
71.304083
 30
0.0
 40
0.06
  1
$$$$$$$$$FILENAME$$$$$$$$
  7
txt
 11
81.5265
 21
71.334083
 31
0.0
210
0.0
220
0.0
230
1.0
 73
     2
  0
TEXT
  8
1
  6
CONTINUOUS
 62
     2
  5
3A
 10
83.250583
 20
71.304083
 30
0.0
 40
0.06
  1
$USERNAME$
  7
txt
 11
83.250583
 21
71.334083
 31
0.0
210
0.0
220
0.0
230
1.0
 73
     2
  0
TEXT
  8
1
  6
CONTINUOUS
 62
     2
  5
3B
 10
84.024167
 20
71.304083
 30
0.0
 40
0.06
  1
DD-MMM-YYYY HH:MM
  7
txt
 11
84.024167
 21
71.334083
 31
0.0
210
0.0
220
0.0
230
1.0
 73
     2
  0
POINT
  8
1
  6
CONTINUOUS
 62
     2
  5
3C
 10
52.57075
 20
71.395833
 30
0.0
  0
POINT
  8
1
  6
CONTINUOUS
 62
     2
  5
3D
 10
52.57075
 20
92.395833
 30
0.0
  0
POINT
  8
1
  6
CONTINUOUS
 62
     2
  5
3E
 10
85.07075
 20
92.395833
 30
0.0
  0
POINT
  8
1
  6
CONTINUOUS
 62
     2
  5
3F
 10
85.07075
 20
71.395833
 30
0.0
  0
LINE
  8
1
  6
CONTINUOUS
 62
     2
  5
40
 10
85.07075
 20
71.395833
 30
0.0
 11
85.07075
 21
73.894833
 31
0.0
  0
LINE
  8
1
  6
CONTINUOUS
 62
     2
  5
41
 10
85.07075
 20
74.885667
 30
0.0
 11
79.07075
 21
74.885667
 31
0.0
  0
LINE
  8
1
  6
CONTINUOUS
 62
     2
  5
42
 10
85.07075
 20
71.395833
 30
0.0
 11
79.07075
 21
71.395833
 31
0.0
  0
LINE
  8
1
  6
CONTINUOUS
 62
     2
  5
43
 10
80.608667
 20
73.294833
 30
0.0
 11
79.07075
 21
73.294833
 31
0.0
  0
LINE
  8
1
  6
CONTINUOUS
 62
     2
  5
44
 10
80.608667
 20
73.095833
 30
0.0
 11
79.07075
 21
73.095833
 31
0.0
  0
LINE
  8
1
  6
CONTINUOUS
 62
     2
  5
45
 10
80.608667
 20
72.896833
 30
0.0
 11
79.07075
 21
72.896833
 31
0.0
  0
LINE
  8
1
  6
CONTINUOUS
 62
     2
  5
46
 10
80.608667
 20
72.697833
 30
0.0
 11
79.07075
 21
72.697833
 31
0.0
  0
LINE
  8
1
  6
CONTINUOUS
 62
     2
  5
47
 10
80.608667
 20
72.498833
 30
0.0
 11
79.07075
 21
72.498833
 31
0.0
  0
LINE
  8
1
  6
CONTINUOUS
 62
     2
  5
48
 10
80.608667
 20
72.299833
 30
0.0
 11
79.07075
 21
72.299833
 31
0.0
  0
LINE
  8
1
  6
CONTINUOUS
 62
     2
  5
49
 10
80.608667
 20
72.100833
 30
0.0
 11
79.07075
 21
72.100833
 31
0.0
  0
LINE
  8
1
  6
CONTINUOUS
 62
     2
  5
4A
 10
80.608667
 20
71.901833
 30
0.0
 11
79.07075
 21
71.901833
 31
0.0
  0
LINE
  8
1
  6
CONTINUOUS
 62
     2
  5
4B
 10
80.608667
 20
71.702833
 30
0.0
 11
79.07075
 21
71.702833
 31
0.0
  0
TEXT
  8
1
  6
CONTINUOUS
 62
     2
  5
4D
 10
79.377833
 20
73.342167
 30
0.0
 40
0.079
  1
REVISION DATE
 41
1.003165
  7
MONOTXT
210
0.0
220
0.0
230
1.0
  0
LINE
  8
1
  6
CONTINUOUS
 62
     2
  5
4E
 10
79.07075
 20
72.805833
 30
0.0
 11
79.07075
 21
71.395833
 31
0.0
  0
TEXT
  8
1
  6
CONTINUOUS
 62
     2
  5
50
 10
79.282083
 20
74.63075
 30
0.0
 40
0.1875
  1
WEST VIRGINIA DEPARTMENT OF TRANSPORTATION
  7
ROMANT
 72
     4
 11
82.052417
 21
74.7245
 31
0.0
210
0.0
220
0.0
230
1.0
  0
TEXT
  8
1
  6
CONTINUOUS
 62
     2
  5
51
 10
80.854917
 20
74.421833
 30
0.0
 40
0.1875
  1
DIVISION OF HIGHWAYS
  7
ROMANT
 72
     4
 11
82.074417
 21
74.515583
 31
0.0
210
0.0
220
0.0
230
1.0
  0
TEXT
  8
1
  6
CONTINUOUS
 62
     2
  5
52
 10
81.085
 20
74.223667
 30
0.0
 40
0.1875
  1
STANDARD DETAIL
  7
ROMANT
 72
     4
 11
82.063083
 21
74.317417
 31
0.0
210
0.0
220
0.0
230
1.0
  0
LINE
  8
1
  6
CONTINUOUS
 62
     2
  5
53
 10
80.608667
 20
73.494833
 30
0.0
 11
79.07075
 21
73.494833
 31
0.0
  0
LINE
  8
1
  6
CONTINUOUS
 62
     2
  5
54
 10
80.608667
 20
71.395833
 30
0.0
 11
80.608667
 21
73.494833
 31
0.0
  0
LINE
  8
1
  6
CONTINUOUS
 62
     2
  5
55
 10
79.07075
 20
71.395833
 30
0.0
 11
79.07075
 21
74.885667
 31
0.0
  0
TEXT
  8
1
  6
CONTINUOUS
 62
     2
  5
56
 10
81.08375
 20
71.612917
 30
0.0
 40
0.166667
  1
STANDARD SHEET PVT7      
  7
txt
 72
     4
 11
83.123083
 21
71.69625
 31
0.0
210
0.0
220
0.0
230
1.0
  0
TEXT
  8
1
  6
CONTINUOUS
 62
     2
  5
57
 10
80.336333
 20
73.757917
 30
0.0
 40
0.208333
  1
                        
  7
txt
 72
     4
 11
82.801583
 21
73.862083
 31
0.0
210
0.0
220
0.0
230
1.0
  0
TEXT
  8
1
  6
CONTINUOUS
 62
     2
  5
58
 10
80.590583
 20
73.386333
 30
0.0
 40
0.208333
  1
     SIDEWALK RAMPS     
  7
txt
 72
     4
 11
83.040583
 21
73.4905
 31
0.0
210
0.0
220
0.0
230
1.0
  0
TEXT
  8
1
  6
CONTINUOUS
 62
     2
  5
59
 10
80.792583
 20
72.351
 30
0.0
 40
0.208333
  1
     (SHEET 1 OF 2)     
  7
txt
 72
     4
 11
83.242583
 21
72.455167
 31
0.0
210
0.0
220
0.0
230
1.0
  0
TEXT
  8
1
  6
CONTINUOUS
 62
     2
  5
5A
 10
80.341917
 20
72.660667
 30
0.0
 40
0.208333
  1
                        
  7
txt
 72
     4
 11
82.807167
 21
72.764833
 31
0.0
210
0.0
220
0.0
230
1.0
  0
TEXT
  8
1
  6
CONTINUOUS
 62
     2
  5
5B
 10
80.341917
 20
72.310333
 30
0.0
 40
0.208333
  1
                        
  7
txt
 72
     4
 11
82.807167
 21
72.4145
 31
0.0
210
0.0
220
0.0
230
1.0
  0
TEXT
  8
1
  6
CONTINUOUS
 62
     2
  5
5D
 10
79.105833
 20
72.93325
 30
0.0
 40
0.083333
  1
                  
  7
ROMANS
 72
     4
 11
79.841917
 21
72.974917
 31
0.0
210
0.0
220
0.0
230
1.0
  0
TEXT
  8
1
  6
CONTINUOUS
 62
     2
  5
5E
 10
79.105833
 20
72.73425
 30
0.0
 40
0.083333
  1
                  
  7
ROMANS
 72
     4
 11
79.841917
 21
72.775917
 31
0.0
210
0.0
220
0.0
230
1.0
  0
TEXT
  8
1
  6
CONTINUOUS
 62
     2
  5
5F
 10
79.105833
 20
72.53525
 30
0.0
 40
0.083333
  1
                  
  7
ROMANS
 72
     4
 11
79.841917
 21
72.576917
 31
0.0
210
0.0
220
0.0
230
1.0
  0
TEXT
  8
1
  6
CONTINUOUS
 62
     2
  5
60
 10
79.105833
 20
72.33625
 30
0.0
 40
0.083333
  1
                  
  7
ROMANS
 72
     4
 11
79.841917
 21
72.377917
 31
0.0
210
0.0
220
0.0
230
1.0
  0
TEXT
  8
1
  6
CONTINUOUS
 62
     2
  5
61
 10
79.105833
 20
72.13725
 30
0.0
 40
0.083333
  1
                  
  7
ROMANS
 72
     4
 11
79.841917
 21
72.178917
 31
0.0
210
0.0
220
0.0
230
1.0
  0
TEXT
  8
1
  6
CONTINUOUS
 62
     2
  5
62
 10
79.105833
 20
71.93825
 30
0.0
 40
0.083333
  1
                  
  7
ROMANS
 72
     4
 11
79.841917
 21
71.979917
 31
0.0
210
0.0
220
0.0
230
1.0
  0
TEXT
  8
1
  6
CONTINUOUS
 62
     2
  5
63
 10
79.105833
 20
71.73925
 30
0.0
 40
0.083333
  1
                  
  7
ROMANS
 72
     4
 11
79.841917
 21
71.780917
 31
0.0
210
0.0
220
0.0
230
1.0
  0
TEXT
  8
1
  6
CONTINUOUS
 62
     2
  5
64
 10
79.10425
 20
71.535083
 30
0.0
 40
0.083333
  1
                  
  7
ROMANS
 72
     4
 11
79.840333
 21
71.57675
 31
0.0
210
0.0
220
0.0
230
1.0
  0
POINT
  8
1
  6
DASHED
 62
     2
  5
65
 10
52.05875
 20
92.415833
 30
0.0
  0
POINT
  8
1
  6
DASHED
 62
     2
  5
66
 10
85.28375
 20
71.295833
 30
0.0
  0
TEXT
  8
1
  6
CONTINUOUS
 62
     2
  5
67
 10
52.61875
 20
71.274833
 30
0.0
 40
0.06
  1
P5A1G92-STDBOR a
  7
MONOTXT
210
0.0
220
0.0
230
1.0
  0
POLYLINE
  8
1
  6
CONTINUOUS
 62
     2
  5
68
 66
     1
 10
0.0
 20
0.0
 30
0.0
  0
VERTEX
  8
1
  6
CONTINUOUS
 62
     2
  5
69
 10
53.014833
 20
82.055583
 30
0.0
  0
VERTEX
  8
1
  6
CONTINUOUS
 62
     2
  5
6A
 10
54.21425
 20
81.325917
 30
0.0
  0
VERTEX
  8
1
  6
CONTINUOUS
 62
     2
  5
6B
 10
54.731167
 20
81.0665
 30
0.0
  0
VERTEX
  8
1
  6
CONTINUOUS
 62
     2
  5
6C
 10
55.316833
 20
80.84375
 30
0.0
  0
VERTEX
  8
1
  6
CONTINUOUS
 62
     2
  5
6D
 10
55.864917
 20
80.7035
 30
0.0
  0
VERTEX
  8
1
  6
CONTINUOUS
 62
     2
  5
6E
 10
56.200583
 20
80.65325
 30
0.0
  0
VERTEX
  8
1
  6
CONTINUOUS
 62
     2
  5
6F
 10
56.660917
 20
80.610583
 30
0.0
  0
VERTEX
  8
1
  6
CONTINUOUS
 62
     2
  5
70
 10
57.04775
 20
80.59525
 30
0.0
  0
VERTEX
  8
1
  6
CONTINUOUS
 62
     2
  5
71
 10
57.44525
 20
80.631667
 30
0.0
  0
VERTEX
  8
1
  6
CONTINUOUS
 62
     2
  5
72
 10
57.989583
 20
80.72725
 30
0.0
  0
VERTEX
  8
1
  6
CONTINUOUS
 62
     2
  5
73
 10
58.48375
 20
80.845667
 30
0.0
  0
VERTEX
  8
1
  6
CONTINUOUS
 62
     2
  5
74
 10
59.000583
 20
81.033583
 30
0.0
  0
VERTEX
  8
1
  6
CONTINUOUS
 62
     2
  5
75
 10
59.516417
 20
81.2835
 30
0.0
  0
VERTEX
  8
1
  6
CONTINUOUS
 62
     2
  5
76
 10
59.99775
 20
81.562
 30
0.0
  0
VERTEX
  8
1
  6
CONTINUOUS
 62
     2
  5
77
 10
60.677833
 20
81.9705
 30
0.0
  0
VERTEX
  8
1
  6
CONTINUOUS
 62
     2
  5
78
 10
61.395583
 20
82.42425
 30
0.0
  0
SEQEND
  8
1
  6
CONTINUOUS
 62
     2
  5
79
  0
POLYLINE
  8
1
  6
CONTINUOUS
 62
     2
  5
7A
 66
     1
 10
0.0
 20
0.0
 30
0.0
  0
VERTEX
  8
1
  6
CONTINUOUS
 62
     2
  5
7B
 10
53.04375
 20
82.26875
 30
0.0
  0
VERTEX
  8
1
  6
CONTINUOUS
 62
     2
  5
7C
 10
53.648333
 20
81.903833
 30
0.0
  0
VERTEX
  8
1
  6
CONTINUOUS
 62
     2
  5
7D
 10
54.160333
 20
81.584583
 30
0.0
  0
VERTEX
  8
1
  6
CONTINUOUS
 62
     2
  5
7E
 10
54.857667
 20
81.181917
 30
0.0
  0
VERTEX
  8
1
  6
CONTINUOUS
 62
     2
  5
7F
 10
55.396083
 20
80.928083
 30
0.0
  0
VERTEX
  8
1
  6
CONTINUOUS
 62
     2
  5
80
 10
55.782583
 20
80.779
 30
0.0
  0
VERTEX
  8
1
  6
CONTINUOUS
 62
     2
  5
81
 10
56.19875
 20
80.65725
 30
0.0
  0
VERTEX
  8
1
  6
CONTINUOUS
 62
     2
  5
82
 10
56.865167
 20
80.608667
 30
0.0
  0
VERTEX
  8
1
  6
CONTINUOUS
 62
     2
  5
83
 10
57.443333
 20
80.633667
 30
0.0
  0
VERTEX
  8
1
  6
CONTINUOUS
 62
     2
  5
84
 10
58.182083
 20
80.833417
 30
0.0
  0
VERTEX
  8
1
  6
CONTINUOUS
 62
     2
  5
85
 10
58.698833
 20
81.023333
 30
0.0
  0
VERTEX
  8
1
  6
CONTINUOUS
 62
     2
  5
86
 10
59.295083
 20
81.307667
 30
0.0
  0
VERTEX
  8
1
  6
CONTINUOUS
 62
     2
  5
87
 10
59.87525
 20
81.678083
 30
0.0
  0
VERTEX
  8
1
  6
CONTINUOUS
 62
     2
  5
88
 10
61.3185
 20
82.5815
 30
0.0
  0
SEQEND
  8
1
  6
CONTINUOUS
 62
     2
  5
89
  0
POLYLINE
  8
1
  6
CONTINUOUS
 62
     2
  5
8A
 66
     1
 10
0.0
 20
0.0
 30
0.0
  0
VERTEX
  8
1
  6
CONTINUOUS
 62
     2
  5
8B
 10
53.078833
 20
82.389917
 30
0.0
  0
VERTEX
  8
1
  6
CONTINUOUS
 62
     2
  5
8C
 10
53.919917
 20
81.86275
 30
0.0
  0
VERTEX
  8
1
  6
CONTINUOUS
 62
     2
  5
8D
 10
54.4685
 20
81.520833
 30
0.0
  0
VERTEX
  8
1
  6
CONTINUOUS
 62
     2
  5
8E
 10
54.9195
 20
81.270667
 30
0.0
  0
VERTEX
  8
1
  6
CONTINUOUS
 62
     2
  5
8F
 10
55.286
 20
81.087917
 30
0.0
  0
VERTEX
  8
1
  6
CONTINUOUS
 62
     2
  5
90
 10
55.612667
 20
80.969917
 30
0.0
  0
VERTEX
  8
1
  6
CONTINUOUS
 62
     2
  5
91
 10
56.04825
 20
80.845833
 30
0.0
  0
VERTEX
  8
1
  6
CONTINUOUS
 62
     2
  5
92
 10
56.443833
 20
80.770417
 30
0.0
  0
VERTEX
  8
1
  6
CONTINUOUS
 62
     2
  5
93
 10
56.941083
 20
80.727083
 30
0.0
  0
VERTEX
  8
1
  6
CONTINUOUS
 62
     2
  5
94
 10
57.445583
 20
80.7675
 30
0.0
  0
VERTEX
  8
1
  6
CONTINUOUS
 62
     2
  5
95
 10
58.256333
 20
80.967833
 30
0.0
  0
VERTEX
  8
1
  6
CONTINUOUS
 62
     2
  5
96
 10
58.873417
 20
81.22375
 30
0.0
  0
VERTEX
  8
1
  6
CONTINUOUS
 62
     2
  5
97
 10
59.487917
 20
81.551667
 30
0.0
  0
VERTEX
  8
1
  6
CONTINUOUS
 62
     2
  5
98
 10
61.30025
 20
82.65375
 30
0.0
  0
SEQEND
  8
1
  6
CONTINUOUS
 62
     2
  5
99
  0
LINE
  8
1
  6
CONTINUOUS
 62
     2
  5
9A
 10
54.464583
 20
81.516917
 30
0.0
 11
56.186333
 21
82.55475
 31
0.0
  0
LINE
  8
1
  6
CONTINUOUS
 62
     2
  5
9B
 10
56.186333
 20
82.55475
 30
0.0
 11
56.195
 21
80.665333
 31
0.0
  0
LINE
  8
1
  6
CONTINUOUS
 62
     2
  5
9C
 10
56.199833
 20
82.546583
 30
0.0
 11
57.445083
 21
82.560917
 31
0.0
  0
LINE
  8
1
  6
CONTINUOUS
 62
     2
  5
9D
 10
57.445083
 20
82.560917
 30
0.0
 11
57.431833
 21
80.643917
 31
0.0
  0
LINE
  8
1
  6
CONTINUOUS
 62
     2
  5
9E
 10
57.456667
 20
82.558667
 30
0.0
 11
59.332833
 21
81.468667
 31
0.0
  0
LINE
  8
1
  6
CONTINUOUS
 62
     2
  5
9F
 10
59.332833
 20
81.468667
 30
0.0
 11
59.4015
 21
81.3915
 31
0.0
  0
LINE
  8
1
  6
CONTINUOUS
 62
     2
  5
A0
 10
54.373833
 20
81.44275
 30
0.0
 11
54.478083
 21
81.512667
 31
0.0
  0
LINE
  8
1
  6
CONTINUOUS
 62
     2
  5
A1
 10
53.192083
 20
85.628583
 30
0.0
 11
56.760833
 21
83.5065
 31
0.0
  0
LINE
  8
1
  6
CONTINUOUS
 62
     2
  5
A2
 10
56.760833
 20
83.5065
 30
0.0
 11
60.597333
 21
85.8085
 31
0.0
  0
LINE
  8
1
  6
CONTINUOUS
 62
     2
  5
A3
 10
71.810583
 20
90.853917
 30
0.0
 11
71.81375
 21
88.3015
 31
0.0
  0
LINE
  8
1
  6
CONTINUOUS
 62
     2
  5
A4
 10
71.81375
 20
88.3015
 30
0.0
 11
74.59875
 21
88.26275
 31
0.0
  0
LINE
  8
1
  6
CONTINUOUS
 62
     2
  5
A5
 10
70.981917
 20
90.859583
 30
0.0
 11
70.957333
 21
88.27175
 31
0.0
  0
LINE
  8
1
  6
CONTINUOUS
 62
     2
  5
A6
 10
70.90025
 20
90.859167
 30
0.0
 11
70.883333
 21
88.271167
 31
0.0
  0
LINE
  8
1
  6
CONTINUOUS
 62
     2
  5
A7
 10
70.883333
 20
88.271167
 30
0.0
 11
70.9475
 21
88.266
 31
0.0
  0
LINE
  8
1
  6
CONTINUOUS
 62
     2
  5
A8
 10
74.580167
 20
87.402333
 30
0.0
 11
71.77325
 21
87.411583
 31
0.0
  0
LINE
  8
1
  6
CONTINUOUS
 62
     2
  5
A9
 10
71.77325
 20
87.411583
 30
0.0
 11
71.780083
 21
87.3535
 31
0.0
  0
LINE
  8
1
  6
CONTINUOUS
 62
     2
  5
AA
 10
71.780083
 20
87.3535
 30
0.0
 11
74.579
 21
87.3325
 31
0.0
  0
POLYLINE
  8
1
  6
CONTINUOUS
 62
     2
  5
AB
 66
     1
 10
0.0
 20
0.0
 30
0.0
  0
VERTEX
  8
1
  6
CONTINUOUS
 62
     2
  5
AC
 10
70.957333
 20
88.27175
 30
0.0
  0
VERTEX
  8
1
  6
CONTINUOUS
 62
     2
  5
AD
 10
70.973333
 20
87.957917
 30
0.0
  0
VERTEX
  8
1
  6
CONTINUOUS
 62
     2
  5
AE
 10
70.985508
 20
87.8805
 30
0.0
  0
VERTEX
  8
1
  6
CONTINUOUS
 62
     2
  5
AF
 10
71.04925
 20
87.732833
 30
0.0
  0
VERTEX
  8
1
  6
CONTINUOUS
 62
     2
  5
B0
 10
71.095234
 20
87.666766
 30
0.0
  0
VERTEX
  8
1
  6
CONTINUOUS
 62
     2
  5
B1
 10
71.130688
 20
87.628587
 30
0.0
  0
VERTEX
  8
1
  6
CONTINUOUS
 62
     2
  5
B2
 10
71.213667
 20
87.561917
 30
0.0
  0
VERTEX
  8
1
  6
CONTINUOUS
 62
     2
  5
B3
 10
71.369155
 20
87.474232
 30
0.0
  0
VERTEX
  8
1
  6
CONTINUOUS
 62
     2
  5
B4
 10
71.452917
 20
87.449583
 30
0.0
  0
VERTEX
  8
1
  6
CONTINUOUS
 62
     2
  5
B5
 10
71.633417
 20
87.424167
 30
0.0
  0
VERTEX
  8
1
  6
CONTINUOUS
 62
     2
  5
B6
 10
71.77325
 20
87.411583
 30
0.0
  0
SEQEND
  8
1
  6
CONTINUOUS
 62
     2
  5
B7
  0
POLYLINE
  8
1
  6
CONTINUOUS
 62
     2
  5
B8
 66
     1
 10
0.0
 20
0.0
 30
0.0
  0
VERTEX
  8
1
  6
CONTINUOUS
 62
     2
  5
B9
 10
70.8835
 20
88.268
 30
0.0
  0
VERTEX
  8
1
  6
CONTINUOUS
 62
     2
  5
BA
 10
70.9
 20
87.944
 30
0.0
  0
VERTEX
  8
1
  6
CONTINUOUS
 62
     2
  5
BB
 10
70.913549
 20
87.857841
 30
0.0
  0
VERTEX
  8
1
  6
CONTINUOUS
 62
     2
  5
BC
 10
70.931571
 20
87.802135
 30
0.0
  0
VERTEX
  8
1
  6
CONTINUOUS
 62
     2
  5
BD
 10
70.9845
 20
87.6935
 30
0.0
  0
VERTEX
  8
1
  6
CONTINUOUS
 62
     2
  5
BE
 10
71.036336
 20
87.619027
 30
0.0
  0
VERTEX
  8
1
  6
CONTINUOUS
 62
     2
  5
BF
 10
71.076301
 20
87.575989
 30
0.0
  0
VERTEX
  8
1
  6
CONTINUOUS
 62
     2
  5
C0
 10
71.169833
 20
87.500833
 30
0.0
  0
VERTEX
  8
1
  6
CONTINUOUS
 62
     2
  5
C1
 10
71.340006
 20
87.407387
 30
0.0
  0
VERTEX
  8
1
  6
CONTINUOUS
 62
     2
  5
C2
 10
71.431583
 20
87.377917
 30
0.0
  0
VERTEX
  8
1
  6
CONTINUOUS
 62
     2
  5
C3
 10
71.560141
 20
87.353748
 30
0.0
  0
VERTEX
  8
1
  6
CONTINUOUS
 62
     2
  5
C4
 10
71.624917
 20
87.350667
 30
0.0
  0
VERTEX
  8
1
  6
CONTINUOUS
 62
     2
  5
C5
 10
71.780083
 20
87.3535
 30
0.0
  0
SEQEND
  8
1
  6
CONTINUOUS
 62
     2
  5
C6
  0
LINE
  8
1
  6
CONTINUOUS
 62
     2
  5
C7
 10
70.94175
 20
88.274083
 30
0.0
 11
71.338417
 21
88.15075
 31
0.0
  0
LINE
  8
1
  6
CONTINUOUS
 62
     2
  5
C8
 10
71.338417
 20
88.15075
 30
0.0
 11
71.608
 21
87.872
 31
0.0
  0
LINE
  8
1
  6
CONTINUOUS
 62
     2
  5
C9
 10
71.608
 20
87.872
 30
0.0
 11
71.773333
 21
87.413583
 31
0.0
  0
LINE
  8
1
  6
CONTINUOUS
 62
     2
  5
CA
 10
71.773333
 20
87.413583
 30
0.0
 11
71.77275
 21
87.379583
 31
0.0
  0
LINE
  8
1
  6
CONTINUOUS
 62
     2
  5
CB
 10
70.955917
 20
87.75625
 30
0.0
 11
71.340417
 21
88.152667
 31
0.0
  0
LINE
  8
1
  6
CONTINUOUS
 62
     2
  5
CC
 10
71.222333
 20
87.469917
 30
0.0
 11
71.602167
 21
87.874167
 31
0.0
  0
LINE
  8
1
  6
CONTINUOUS
 62
     2
  5
CD
 10
69.312833
 20
88.458667
 30
0.0
 11
70.757833
 21
88.437333
 31
0.0
  0
LINE
  8
1
  6
CONTINUOUS
 62
     2
  5
CE
 10
69.182083
 20
90.82975
 30
0.0
 11
69.1605
 21
87.395083
 31
0.0
  0
LINE
  8
1
  6
CONTINUOUS
 62
     2
  5
CF
 10
69.1605
 20
87.395083
 30
0.0
 11
69.149
 21
86.608417
 31
0.0
  0
LINE
  8
1
  6
CONTINUOUS
 62
     2
  5
D0
 10
69.149
 20
86.608417
 30
0.0
 11
68.947917
 21
86.222833
 31
0.0
  0
LINE
  8
1
  6
CONTINUOUS
 62
     2
  5
D1
 10
68.947917
 20
86.222833
 30
0.0
 11
69.51975
 21
85.193417
 31
0.0
  0
LINE
  8
1
  6
CONTINUOUS
 62
     2
  5
D2
 10
69.51975
 20
85.193417
 30
0.0
 11
69.167583
 21
84.503083
 31
0.0
  0
LINE
  8
1
  6
CONTINUOUS
 62
     2
  5
D3
 10
69.167583
 20
84.503083
 30
0.0
 11
69.14025
 21
83.129583
 31
0.0
  0
LINE
  8
1
  6
CONTINUOUS
 62
     2
  5
D4
 10
69.14025
 20
83.129583
 30
0.0
 11
69.105083
 21
80.492
 31
0.0
  0
LINE
  8
1
  6
CONTINUOUS
 62
     2
  5
D5
 10
68.862917
 20
90.825833
 30
0.0
 11
68.862167
 21
89.525667
 31
0.0
  0
LINE
  8
1
  6
CONTINUOUS
 62
     2
  5
D6
 10
68.862167
 20
89.525667
 30
0.0
 11
68.863083
 21
88.892583
 31
0.0
  0
LINE
  8
1
  6
CONTINUOUS
 62
     2
  5
D7
 10
68.863083
 20
88.892583
 30
0.0
 11
68.8435
 21
86.60225
 31
0.0
  0
LINE
  8
1
  6
CONTINUOUS
 62
     2
  5
D8
 10
68.8435
 20
86.60225
 30
0.0
 11
68.537917
 21
86.020833
 31
0.0
  0
LINE
  8
1
  6
CONTINUOUS
 62
     2
  5
D9
 10
68.537917
 20
86.020833
 30
0.0
 11
69.09075
 21
85.015833
 31
0.0
  0
LINE
  8
1
  6
CONTINUOUS
 62
     2
  5
DA
 10
69.09075
 20
85.015833
 30
0.0
 11
68.865
 21
84.55475
 31
0.0
  0
LINE
  8
1
  6
CONTINUOUS
 62
     2
  5
DB
 10
68.865
 20
84.55475
 30
0.0
 11
68.828167
 21
82.278667
 31
0.0
  0
LINE
  8
1
  6
CONTINUOUS
 62
     2
  5
DC
 10
68.828167
 20
82.278667
 30
0.0
 11
68.815917
 21
81.56
 31
0.0
  0
LINE
  8
1
  6
CONTINUOUS
 62
     2
  5
DD
 10
68.815917
 20
81.56
 30
0.0
 11
68.809583
 21
80.503583
 31
0.0
  0
LINE
  8
1
  6
CONTINUOUS
 62
     2
  5
DE
 10
69.168167
 20
87.388917
 30
0.0
 11
70.49475
 21
87.381833
 31
0.0
  0
LINE
  8
1
  6
CONTINUOUS
 62
     2
  5
DF
 10
70.49475
 20
87.381833
 30
0.0
 11
70.484417
 21
83.924917
 31
0.0
  0
LINE
  8
1
  6
CONTINUOUS
 62
     2
  5
E0
 10
70.484417
 20
83.924917
 30
0.0
 11
69.173333
 21
83.927833
 31
0.0
  0
LINE
  8
1
  6
CONTINUOUS
 62
     2
  5
E1
 10
70.829167
 20
80.52525
 30
0.0
 11
70.845167
 21
82.835667
 31
0.0
  0
LINE
  8
1
  6
CONTINUOUS
 62
     2
  5
E2
 10
70.845167
 20
82.835667
 30
0.0
 11
70.89375
 21
82.83275
 31
0.0
  0
LINE
  8
1
  6
CONTINUOUS
 62
     2
  5
E3
 10
70.89375
 20
82.83275
 30
0.0
 11
70.891583
 21
80.538083
 31
0.0
  0
LINE
  8
1
  6
CONTINUOUS
 62
     2
  5
E4
 10
74.596417
 20
83.675333
 30
0.0
 11
71.702167
 21
83.696167
 31
0.0
  0
LINE
  8
1
  6
CONTINUOUS
 62
     2
  5
E5
 10
71.702167
 20
83.696167
 30
0.0
 11
71.701333
 21
83.762083
 31
0.0
  0
LINE
  8
1
  6
CONTINUOUS
 62
     2
  5
E6
 10
71.701333
 20
83.762083
 30
0.0
 11
74.59175
 21
83.743333
 31
0.0
  0
LINE
  8
1
  6
CONTINUOUS
 62
     2
  5
E7
 10
70.89375
 20
82.83275
 30
0.0
 11
71.325417
 21
83.04625
 31
0.0
  0
LINE
  8
1
  6
CONTINUOUS
 62
     2
  5
E8
 10
71.325417
 20
83.04625
 30
0.0
 11
71.588333
 21
83.292917
 31
0.0
  0
LINE
  8
1
  6
CONTINUOUS
 62
     2
  5
E9
 10
71.588333
 20
83.292917
 30
0.0
 11
71.698333
 21
83.69825
 31
0.0
  0
LINE
  8
1
  6
CONTINUOUS
 62
     2
  5
EA
 10
70.984
 20
83.448167
 30
0.0
 11
71.337167
 21
83.052
 31
0.0
  0
LINE
  8
1
  6
CONTINUOUS
 62
     2
  5
EB
 10
71.1995
 20
83.680917
 30
0.0
 11
71.582583
 21
83.299
 31
0.0
  0
LINE
  8
1
  6
CONTINUOUS
 62
     2
  5
EC
 10
71.756667
 20
80.50375
 30
0.0
 11
71.778417
 21
82.808
 31
0.0
  0
LINE
  8
1
  6
CONTINUOUS
 62
     2
  5
ED
 10
71.778417
 20
82.808
 30
0.0
 11
74.573833
 21
82.805083
 31
0.0
  0
LINE
  8
1
  6
CONTINUOUS
 62
     2
  5
EE
 10
69.326417
 20
82.575917
 30
0.0
 11
70.835917
 21
82.573333
 31
0.0
  0
LINE
  8
1
  6
CONTINUOUS
 62
     2
  5
EF
 10
69.290917
 20
82.70025
 30
0.0
 11
70.837417
 21
82.699
 31
0.0
  0
LINE
  8
1
  6
CONTINUOUS
 62
     2
  5
F0
 10
63.402583
 20
85.580833
 30
0.0
 11
66.341583
 21
85.561167
 31
0.0
  0
LINE
  8
1
  6
CONTINUOUS
 62
     2
  5
F1
 10
66.448583
 20
85.559083
 30
0.0
 11
66.534083
 21
85.5535
 31
0.0
  0
LINE
  8
1
  6
CONTINUOUS
 62
     2
  5
F2
 10
66.627583
 20
85.56375
 30
0.0
 11
66.715083
 21
85.562083
 31
0.0
  0
LINE
  8
1
  6
CONTINUOUS
 62
     2
  5
F3
 10
66.814333
 20
85.564167
 30
0.0
 11
68.786583
 21
85.546833
 31
0.0
  0
LINE
  8
1
  6
CONTINUOUS
 62
     2
  5
F4
 10
69.31975
 20
85.556667
 30
0.0
 11
69.934333
 21
85.549083
 31
0.0
  0
LINE
  8
1
  6
CONTINUOUS
 62
     2
  5
F5
 10
70.039333
 20
85.543083
 30
0.0
 11
70.161833
 21
85.54075
 31
0.0
  0
LINE
  8
1
  6
CONTINUOUS
 62
     2
  5
F6
 10
70.257167
 20
85.540917
 30
0.0
 11
70.325333
 21
85.545667
 31
0.0
  0
LINE
  8
1
  6
CONTINUOUS
 62
     2
  5
F7
 10
70.453583
 20
85.53725
 30
0.0
 11
74.614333
 21
85.528417
 31
0.0
  0
LINE
  8
1
  6
CONTINUOUS
 62
     2
  5
F8
 10
72.01825
 20
87.17525
 30
0.0
 11
71.990667
 21
83.8465
 31
0.0
  0
LINE
  8
1
  6
CONTINUOUS
 62
     2
  5
F9
 10
72.115417
 20
87.28325
 30
0.0
 11
72.098667
 21
85.73175
 31
0.0
  0
LINE
  8
1
  6
CONTINUOUS
 62
     2
  5
FA
 10
66.268
 20
90.829
 30
0.0
 11
66.247833
 21
88.047333
 31
0.0
  0
LINE
  8
1
  6
CONTINUOUS
 62
     2
  5
FB
 10
66.247833
 20
88.047333
 30
0.0
 11
63.437167
 21
88.066583
 31
0.0
  0
LINE
  8
1
  6
CONTINUOUS
 62
     2
  5
FC
 10
66.92325
 20
90.810583
 30
0.0
 11
66.893583
 21
88.043167
 31
0.0
  0
LINE
  8
1
  6
CONTINUOUS
 62
     2
  5
FD
 10
66.849583
 20
90.826
 30
0.0
 11
66.836833
 21
88.02425
 31
0.0
  0
LINE
  8
1
  6
CONTINUOUS
 62
     2
  5
FE
 10
63.445417
 20
87.409417
 30
0.0
 11
66.19
 21
87.395417
 31
0.0
  0
LINE
  8
1
  6
CONTINUOUS
 62
     2
  5
FF
 10
63.465917
 20
87.466917
 30
0.0
 11
66.224
 21
87.448667
 31
0.0
  0
LINE
  8
1
  6
CONTINUOUS
 62
     2
  5
100
 10
64.517167
 20
87.403083
 30
0.0
 11
64.51225
 21
87.455083
 31
0.0
  0
LINE
  8
1
  6
CONTINUOUS
 62
     2
  5
101
 10
64.51225
 20
87.455083
 30
0.0
 11
64.998667
 21
87.801417
 31
0.0
  0
LINE
  8
1
  6
CONTINUOUS
 62
     2
  5
102
 10
64.998667
 20
87.801417
 30
0.0
 11
64.995833
 21
87.405167
 31
0.0
  0
LINE
  8
1
  6
CONTINUOUS
 62
     2
  5
103
 10
65.004417
 20
87.79725
 30
0.0
 11
65.3895
 21
87.792
 31
0.0
  0
LINE
  8
1
  6
CONTINUOUS
 62
     2
  5
104
 10
65.3895
 20
87.792
 30
0.0
 11
65.386917
 21
87.403583
 31
0.0
  0
LINE
  8
1
  6
CONTINUOUS
 62
     2
  5
105
 10
65.391417
 20
87.794
 30
0.0
 11
65.86425
 21
87.4575
 31
0.0
  0
LINE
  8
1
  6
CONTINUOUS
 62
     2
  5
106
 10
65.86425
 20
87.4575
 30
0.0
 11
65.86325
 21
87.400417
 31
0.0
  0
LINE
  8
1
  6
CONTINUOUS
 62
     2
  5
107
 10
64.878917
 20
87.282417
 30
0.0
 11
64.844667
 21
83.901917
 31
0.0
  0
LINE
  8
1
  6
CONTINUOUS
 62
     2
  5
108
 10
64.779583
 20
85.337083
 30
0.0
 11
64.753583
 21
83.923583
 31
0.0
  0
LINE
  8
1
  6
CONTINUOUS
 62
     2
  5
109
 10
65.524833
 20
87.290167
 30
0.0
 11
65.489583
 21
83.85175
 31
0.0
  0
LINE
  8
1
  6
CONTINUOUS
 62
     2
  5
10A
 10
66.956833
 20
82.280167
 30
0.0
 11
68.832083
 21
82.278667
 31
0.0
  0
LINE
  8
1
  6
CONTINUOUS
 62
     2
  5
10B
 10
66.958083
 20
81.555167
 30
0.0
 11
68.81375
 21
81.546
 31
0.0
  0
LINE
  8
1
  6
CONTINUOUS
 62
     2
  5
10C
 10
63.432667
 20
83.351417
 30
0.0
 11
66.261167
 21
83.353833
 31
0.0
  0
LINE
  8
1
  6
CONTINUOUS
 62
     2
  5
10D
 10
66.4575
 20
83.116417
 30
0.0
 11
66.416833
 21
80.500917
 31
0.0
  0
LINE
  8
1
  6
CONTINUOUS
 62
     2
  5
10E
 10
66.43725
 20
81.129667
 30
0.0
 11
66.834167
 21
81.136083
 31
0.0
  0
LINE
  8
1
  6
CONTINUOUS
 62
     2
  5
10F
 10
66.455083
 20
81.7185
 30
0.0
 11
66.859667
 21
81.716833
 31
0.0
  0
LINE
  8
1
  6
CONTINUOUS
 62
     2
  5
110
 10
66.454
 20
82.111917
 30
0.0
 11
66.856667
 21
82.110333
 31
0.0
  0
LINE
  8
1
  6
CONTINUOUS
 62
     2
  5
111
 10
66.465167
 20
82.654917
 30
0.0
 11
66.861917
 21
82.647417
 31
0.0
  0
LINE
  8
1
  6
CONTINUOUS
 62
     2
  5
112
 10
63.416083
 20
83.745167
 30
0.0
 11
65.863167
 21
83.740833
 31
0.0
  0
LINE
  8
1
  6
CONTINUOUS
 62
     2
  5
113
 10
65.863167
 20
83.740833
 30
0.0
 11
65.867917
 21
83.792667
 31
0.0
  0
LINE
  8
1
  6
CONTINUOUS
 62
     2
  5
114
 10
65.867917
 20
83.792667
 30
0.0
 11
63.419333
 21
83.821
 31
0.0
  0
LINE
  8
1
  6
CONTINUOUS
 62
     2
  5
115
 10
66.770583
 20
80.48425
 30
0.0
 11
66.813667
 21
83.125667
 31
0.0
  0
LINE
  8
1
  6
CONTINUOUS
 62
     2
  5
116
 10
66.877333
 20
83.0965
 30
0.0
 11
66.831083
 21
80.495083
 31
0.0
  0
LINE
  8
1
  6
CONTINUOUS
 62
     2
  5
117
 10
66.90075
 20
88.466417
 30
0.0
 11
66.842417
 21
88.4675
 31
0.0
  0
LINE
  8
1
  6
CONTINUOUS
 62
     2
  5
118
 10
66.842417
 20
88.4675
 30
0.0
 11
66.52875
 21
89.008667
 31
0.0
  0
LINE
  8
1
  6
CONTINUOUS
 62
     2
  5
119
 10
66.52875
 20
89.008667
 30
0.0
 11
66.894417
 21
89.00775
 31
0.0
  0
LINE
  8
1
  6
CONTINUOUS
 62
     2
  5
11A
 10
66.526917
 20
89.012667
 30
0.0
 11
66.539167
 21
89.389917
 31
0.0
  0
LINE
  8
1
  6
CONTINUOUS
 62
     2
  5
11B
 10
66.539167
 20
89.389917
 30
0.0
 11
66.896917
 21
89.379167
 31
0.0
  0
LINE
  8
1
  6
CONTINUOUS
 62
     2
  5
11C
 10
66.543083
 20
89.393833
 30
0.0
 11
66.887667
 21
89.9805
 31
0.0
  0
LINE
  8
1
  6
CONTINUOUS
 62
     2
  5
11D
 10
67.052333
 20
88.910917
 30
0.0
 11
68.839833
 21
88.901
 31
0.0
  0
LINE
  8
1
  6
CONTINUOUS
 62
     2
  5
11E
 10
66.922833
 20
89.532417
 30
0.0
 11
68.84875
 21
89.535917
 31
0.0
  0
LINE
  8
1
  6
CONTINUOUS
 62
     2
  5
11F
 10
66.9445
 20
89.661833
 30
0.0
 11
68.765083
 21
89.651333
 31
0.0
  0
LINE
  8
1
  6
CONTINUOUS
 62
     2
  5
120
 10
64.436583
 20
83.356417
 30
0.0
 11
64.44225
 21
83.803667
 31
0.0
  0
LINE
  8
1
  6
CONTINUOUS
 62
     2
  5
121
 10
64.990667
 20
83.341917
 30
0.0
 11
64.9985
 21
83.797083
 31
0.0
  0
LINE
  8
1
  6
CONTINUOUS
 62
     2
  5
122
 10
65.344917
 20
83.351167
 30
0.0
 11
65.338833
 21
83.794667
 31
0.0
  0
LINE
  8
1
  6
CONTINUOUS
 62
     2
  5
123
 10
65.856583
 20
83.3535
 30
0.0
 11
65.860167
 21
83.79275
 31
0.0
  0
POLYLINE
  8
1
  6
CONTINUOUS
 62
     2
  5
124
 66
     1
 10
0.0
 20
0.0
 30
0.0
  0
VERTEX
  8
1
  6
CONTINUOUS
 62
     2
  5
125
 10
70.845167
 20
82.835667
 30
0.0
  0
VERTEX
  8
1
  6
CONTINUOUS
 62
     2
  5
126
 10
70.88675
 20
83.220333
 30
0.0
  0
VERTEX
  8
1
  6
CONTINUOUS
 62
     2
  5
127
 10
70.905454
 20
83.306731
 30
0.0
  0
VERTEX
  8
1
  6
CONTINUOUS
 62
     2
  5
128
 10
70.984417
 20
83.470167
 30
0.0
  0
VERTEX
  8
1
  6
CONTINUOUS
 62
     2
  5
129
 10
71.070557
 20
83.582551
 30
0.0
  0
VERTEX
  8
1
  6
CONTINUOUS
 62
     2
  5
12A
 10
71.121899
 20
83.629282
 30
0.0
  0
VERTEX
  8
1
  6
CONTINUOUS
 62
     2
  5
12B
 10
71.211833
 20
83.6895
 30
0.0
  0
VERTEX
  8
1
  6
CONTINUOUS
 62
     2
  5
12C
 10
71.334725
 20
83.746003
 30
0.0
  0
VERTEX
  8
1
  6
CONTINUOUS
 62
     2
  5
12D
 10
71.397281
 20
83.763456
 30
0.0
  0
VERTEX
  8
1
  6
CONTINUOUS
 62
     2
  5
12E
 10
71.493333
 20
83.772083
 30
0.0
  0
VERTEX
  8
1
  6
CONTINUOUS
 62
     2
  5
12F
 10
71.6955
 20
83.76225
 30
0.0
  0
VERTEX
  8
1
  6
CONTINUOUS
 62
     2
  5
130
 10
71.701333
 20
83.762083
 30
0.0
  0
SEQEND
  8
1
  6
CONTINUOUS
 62
     2
  5
131
  0
POLYLINE
  8
1
  6
CONTINUOUS
 62
     2
  5
132
 66
     1
 10
0.0
 20
0.0
 30
0.0
  0
VERTEX
  8
1
  6
CONTINUOUS
 62
     2
  5
133
 10
70.89375
 20
82.83275
 30
0.0
  0
VERTEX
  8
1
  6
CONTINUOUS
 62
     2
  5
134
 10
70.95125
 20
83.2045
 30
0.0
  0
VERTEX
  8
1
  6
CONTINUOUS
 62
     2
  5
135
 10
70.970303
 20
83.283172
 30
0.0
  0
VERTEX
  8
1
  6
CONTINUOUS
 62
     2
  5
136
 10
71.0405
 20
83.43275
 30
0.0
  0
VERTEX
  8
1
  6
CONTINUOUS
 62
     2
  5
137
 10
71.096417
 20
83.511236
 30
0.0
  0
VERTEX
  8
1
  6
CONTINUOUS
 62
     2
  5
138
 10
71.14025
 20
83.556076
 30
0.0
  0
VERTEX
  8
1
  6
CONTINUOUS
 62
     2
  5
139
 10
71.245917
 20
83.630833
 30
0.0
  0
VERTEX
  8
1
  6
CONTINUOUS
 62
     2
  5
13A
 10
71.357386
 20
83.682033
 30
0.0
  0
VERTEX
  8
1
  6
CONTINUOUS
 62
     2
  5
13B
 10
71.414127
 20
83.697848
 30
0.0
  0
VERTEX
  8
1
  6
CONTINUOUS
 62
     2
  5
13C
 10
71.50125
 20
83.70575
 30
0.0
  0
VERTEX
  8
1
  6
CONTINUOUS
 62
     2
  5
13D
 10
71.693
 20
83.696417
 30
0.0
  0
VERTEX
  8
1
  6
CONTINUOUS
 62
     2
  5
13E
 10
71.699417
 20
83.69625
 30
0.0
  0
SEQEND
  8
1
  6
CONTINUOUS
 62
     2
  5
13F
  0
POLYLINE
  8
1
  6
CONTINUOUS
 62
     2
  5
140
 66
     1
 10
0.0
 20
0.0
 30
0.0
  0
VERTEX
  8
1
  6
CONTINUOUS
 62
     2
  5
141
 10
66.893583
 20
88.043167
 30
0.0
  0
VERTEX
  8
1
  6
CONTINUOUS
 62
     2
  5
142
 10
66.870083
 20
87.92175
 30
0.0
  0
VERTEX
  8
1
  6
CONTINUOUS
 62
     2
  5
143
 10
66.865782
 20
87.904013
 30
0.0
  0
VERTEX
  8
1
  6
CONTINUOUS
 62
     2
  5
144
 10
66.862082
 20
87.892475
 30
0.0
  0
VERTEX
  8
1
  6
CONTINUOUS
 62
     2
  5
145
 10
66.852987
 20
87.869975
 30
0.0
  0
VERTEX
  8
1
  6
CONTINUOUS
 62
     2
  5
146
 10
66.836131
 20
87.837295
 30
0.0
  0
VERTEX
  8
1
  6
CONTINUOUS
 62
     2
  5
147
 10
66.797583
 20
87.773333
 30
0.0
  0
VERTEX
  8
1
  6
CONTINUOUS
 62
     2
  5
148
 10
66.756833
 20
87.707839
 30
0.0
  0
VERTEX
  8
1
  6
CONTINUOUS
 62
     2
  5
149
 10
66.7353
 20
87.676516
 30
0.0
  0
VERTEX
  8
1
  6
CONTINUOUS
 62
     2
  5
14A
 10
66.700523
 20
87.631181
 30
0.0
  0
VERTEX
  8
1
  6
CONTINUOUS
 62
     2
  5
14B
 10
66.675152
 20
87.601991
 30
0.0
  0
VERTEX
  8
1
  6
CONTINUOUS
 62
     2
  5
14C
 10
66.661673
 20
87.587688
 30
0.0
  0
VERTEX
  8
1
  6
CONTINUOUS
 62
     2
  5
14D
 10
66.640333
 20
87.566583
 30
0.0
  0
VERTEX
  8
1
  6
CONTINUOUS
 62
     2
  5
14E
 10
66.610182
 20
87.539283
 30
0.0
  0
VERTEX
  8
1
  6
CONTINUOUS
 62
     2
  5
14F
 10
66.594698
 20
87.526284
 30
0.0
  0
VERTEX
  8
1
  6
CONTINUOUS
 62
     2
  5
150
 10
66.570957
 20
87.507742
 30
0.0
  0
VERTEX
  8
1
  6
CONTINUOUS
 62
     2
  5
151
 10
66.534164
 20
87.482428
 30
0.0
  0
VERTEX
  8
1
  6
CONTINUOUS
 62
     2
  5
152
 10
66.495928
 20
87.460636
 30
0.0
  0
VERTEX
  8
1
  6
CONTINUOUS
 62
     2
  5
153
 10
66.476258
 20
87.451245
 30
0.0
  0
VERTEX
  8
1
  6
CONTINUOUS
 62
     2
  5
154
 10
66.449453
 20
87.440448
 30
0.0
  0
VERTEX
  8
1
  6
CONTINUOUS
 62
     2
  5
155
 10
66.435799
 20
87.435838
 30
0.0
  0
VERTEX
  8
1
  6
CONTINUOUS
 62
     2
  5
156
 10
66.415001
 20
87.429969
 30
0.0
  0
VERTEX
  8
1
  6
CONTINUOUS
 62
     2
  5
157
 10
66.383083
 20
87.423667
 30
0.0
  0
VERTEX
  8
1
  6
CONTINUOUS
 62
     2
  5
158
 10
66.19
 20
87.395417
 30
0.0
  0
SEQEND
  8
1
  6
CONTINUOUS
 62
     2
  5
159
  0
POLYLINE
  8
1
  6
CONTINUOUS
 62
     2
  5
15A
 66
     1
 10
0.0
 20
0.0
 30
0.0
  0
VERTEX
  8
1
  6
CONTINUOUS
 62
     2
  5
15B
 10
66.836833
 20
88.02425
 30
0.0
  0
VERTEX
  8
1
  6
CONTINUOUS
 62
     2
  5
15C
 10
66.824417
 20
87.937
 30
0.0
  0
VERTEX
  8
1
  6
CONTINUOUS
 62
     2
  5
15D
 10
66.82108
 20
87.920333
 30
0.0
  0
VERTEX
  8
1
  6
CONTINUOUS
 62
     2
  5
15E
 10
66.817912
 20
87.909517
 30
0.0
  0
VERTEX
  8
1
  6
CONTINUOUS
 62
     2
  5
15F
 10
66.809668
 20
87.888476
 30
0.0
  0
VERTEX
  8
1
  6
CONTINUOUS
 62
     2
  5
160
 10
66.793717
 20
87.858013
 30
0.0
  0
VERTEX
  8
1
  6
CONTINUOUS
 62
     2
  5
161
 10
66.75675
 20
87.7985
 30
0.0
  0
VERTEX
  8
1
  6
CONTINUOUS
 62
     2
  5
162
 10
66.71804
 20
87.736787
 30
0.0
  0
VERTEX
  8
1
  6
CONTINUOUS
 62
     2
  5
163
 10
66.697745
 20
87.70724
 30
0.0
  0
VERTEX
  8
1
  6
CONTINUOUS
 62
     2
  5
164
 10
66.665056
 20
87.664456
 30
0.0
  0
VERTEX
  8
1
  6
CONTINUOUS
 62
     2
  5
165
 10
66.641209
 20
87.636906
 30
0.0
  0
VERTEX
  8
1
  6
CONTINUOUS
 62
     2
  5
166
 10
66.628525
 20
87.623409
 30
0.0
  0
VERTEX
  8
1
  6
CONTINUOUS
 62
     2
  5
167
 10
66.608417
 20
87.6035
 30
0.0
  0
VERTEX
  8
1
  6
CONTINUOUS
 62
     2
  5
168
 10
66.565678
 20
87.565762
 30
0.0
  0
VERTEX
  8
1
  6
CONTINUOUS
 62
     2
  5
169
 10
66.543444
 20
87.548399
 30
0.0
  0
VERTEX
  8
1
  6
CONTINUOUS
 62
     2
  5
16A
 10
66.508987
 20
87.524695
 30
0.0
  0
VERTEX
  8
1
  6
CONTINUOUS
 62
     2
  5
16B
 10
66.473178
 20
87.504289
 30
0.0
  0
VERTEX
  8
1
  6
CONTINUOUS
 62
     2
  5
16C
 10
66.454758
 20
87.495494
 30
0.0
  0
VERTEX
  8
1
  6
CONTINUOUS
 62
     2
  5
16D
 10
66.429654
 20
87.485383
 30
0.0
  0
VERTEX
  8
1
  6
CONTINUOUS
 62
     2
  5
16E
 10
66.416868
 20
87.481066
 30
0.0
  0
VERTEX
  8
1
  6
CONTINUOUS
 62
     2
  5
16F
 10
66.397391
 20
87.47557
 30
0.0
  0
VERTEX
  8
1
  6
CONTINUOUS
 62
     2
  5
170
 10
66.3675
 20
87.469667
 30
0.0
  0
VERTEX
  8
1
  6
CONTINUOUS
 62
     2
  5
171
 10
66.224
 20
87.448667
 30
0.0
  0
SEQEND
  8
1
  6
CONTINUOUS
 62
     2
  5
172
  0
POLYLINE
  8
1
  6
CONTINUOUS
 62
     2
  5
173
 66
     1
 10
0.0
 20
0.0
 30
0.0
  0
VERTEX
  8
1
  6
CONTINUOUS
 62
     2
  5
174
 10
65.867917
 20
83.792667
 30
0.0
  0
VERTEX
  8
1
  6
CONTINUOUS
 62
     2
  5
175
 10
66.34425
 20
83.775667
 30
0.0
  0
VERTEX
  8
1
  6
CONTINUOUS
 62
     2
  5
176
 10
66.433449
 20
83.755797
 30
0.0
  0
VERTEX
  8
1
  6
CONTINUOUS
 62
     2
  5
177
 10
66.489363
 20
83.7281
 30
0.0
  0
VERTEX
  8
1
  6
CONTINUOUS
 62
     2
  5
178
 10
66.597
 20
83.655
 30
0.0
  0
VERTEX
  8
1
  6
CONTINUOUS
 62
     2
  5
179
 10
66.698385
 20
83.572407
 30
0.0
  0
VERTEX
  8
1
  6
CONTINUOUS
 62
     2
  5
17A
 10
66.741471
 20
83.526117
 30
0.0
  0
VERTEX
  8
1
  6
CONTINUOUS
 62
     2
  5
17B
 10
66.793833
 20
83.445583
 30
0.0
  0
VERTEX
  8
1
  6
CONTINUOUS
 62
     2
  5
17C
 10
66.816597
 20
83.393694
 30
0.0
  0
VERTEX
  8
1
  6
CONTINUOUS
 62
     2
  5
17D
 10
66.845583
 20
83.286833
 30
0.0
  0
VERTEX
  8
1
  6
CONTINUOUS
 62
     2
  5
17E
 10
66.877333
 20
83.0965
 30
0.0
  0
SEQEND
  8
1
  6
CONTINUOUS
 62
     2
  5
17F
  0
POLYLINE
  8
1
  6
CONTINUOUS
 62
     2
  5
180
 66
     1
 10
0.0
 20
0.0
 30
0.0
  0
VERTEX
  8
1
  6
CONTINUOUS
 62
     2
  5
181
 10
65.863167
 20
83.740833
 30
0.0
  0
VERTEX
  8
1
  6
CONTINUOUS
 62
     2
  5
182
 10
66.330167
 20
83.718167
 30
0.0
  0
VERTEX
  8
1
  6
CONTINUOUS
 62
     2
  5
183
 10
66.358248
 20
83.715019
 30
0.0
  0
VERTEX
  8
1
  6
CONTINUOUS
 62
     2
  5
184
 10
66.3765
 20
83.711089
 30
0.0
  0
VERTEX
  8
1
  6
CONTINUOUS
 62
     2
  5
185
 10
66.388478
 20
83.707726
 30
0.0
  0
VERTEX
  8
1
  6
CONTINUOUS
 62
     2
  5
186
 10
66.412023
 20
83.69938
 30
0.0
  0
VERTEX
  8
1
  6
CONTINUOUS
 62
     2
  5
187
 10
66.42936
 20
83.691846
 30
0.0
  0
VERTEX
  8
1
  6
CONTINUOUS
 62
     2
  5
188
 10
66.463348
 20
83.674026
 30
0.0
  0
VERTEX
  8
1
  6
CONTINUOUS
 62
     2
  5
189
 10
66.496638
 20
83.653351
 30
0.0
  0
VERTEX
  8
1
  6
CONTINUOUS
 62
     2
  5
18A
 10
66.562167
 20
83.607333
 30
0.0
  0
VERTEX
  8
1
  6
CONTINUOUS
 62
     2
  5
18B
 10
66.605469
 20
83.574708
 30
0.0
  0
VERTEX
  8
1
  6
CONTINUOUS
 62
     2
  5
18C
 10
66.625989
 20
83.5579
 30
0.0
  0
VERTEX
  8
1
  6
CONTINUOUS
 62
     2
  5
18D
 10
66.655133
 20
83.531687
 30
0.0
  0
VERTEX
  8
1
  6
CONTINUOUS
 62
     2
  5
18E
 10
66.682078
 20
83.503867
 30
0.0
  0
VERTEX
  8
1
  6
CONTINUOUS
 62
     2
  5
18F
 10
66.694643
 20
83.489211
 30
0.0
  0
VERTEX
  8
1
  6
CONTINUOUS
 62
     2
  5
190
 10
66.717791
 20
83.458121
 30
0.0
  0
VERTEX
  8
1
  6
CONTINUOUS
 62
     2
  5
191
 10
66.728307
 20
83.441572
 30
0.0
  0
VERTEX
  8
1
  6
CONTINUOUS
 62
     2
  5
192
 10
66.742667
 20
83.415333
 30
0.0
  0
VERTEX
  8
1
  6
CONTINUOUS
 62
     2
  5
193
 10
66.756843
 20
83.384387
 30
0.0
  0
VERTEX
  8
1
  6
CONTINUOUS
 62
     2
  5
194
 10
66.763086
 20
83.368811
 30
0.0
  0
VERTEX
  8
1
  6
CONTINUOUS
 62
     2
  5
195
 10
66.77391
 20
83.337382
 30
0.0
  0
VERTEX
  8
1
  6
CONTINUOUS
 62
     2
  5
196
 10
66.779916
 20
83.316176
 30
0.0
  0
VERTEX
  8
1
  6
CONTINUOUS
 62
     2
  5
197
 10
66.786444
 20
83.287517
 30
0.0
  0
VERTEX
  8
1
  6
CONTINUOUS
 62
     2
  5
198
 10
66.789083
 20
83.273
 30
0.0
  0
VERTEX
  8
1
  6
CONTINUOUS
 62
     2
  5
199
 10
66.813667
 20
83.125667
 30
0.0
  0
SEQEND
  8
1
  6
CONTINUOUS
 62
     2
  5
19A
  0
POLYLINE
  8
1
  6
CONTINUOUS
 62
     2
  5
19B
 66
     1
 10
0.0
 20
0.0
 30
0.0
  0
VERTEX
  8
1
  6
CONTINUOUS
 62
     2
  5
19C
 10
66.261167
 20
83.353833
 30
0.0
  0
VERTEX
  8
1
  6
CONTINUOUS
 62
     2
  5
19D
 10
66.348333
 20
83.332167
 30
0.0
  0
VERTEX
  8
1
  6
CONTINUOUS
 62
     2
  5
19E
 10
66.369423
 20
83.325124
 30
0.0
  0
VERTEX
  8
1
  6
CONTINUOUS
 62
     2
  5
19F
 10
66.379928
 20
83.320232
 30
0.0
  0
VERTEX
  8
1
  6
CONTINUOUS
 62
     2
  5
1A0
 10
66.394969
 20
83.311292
 30
0.0
  0
VERTEX
  8
1
  6
CONTINUOUS
 62
     2
  5
1A1
 10
66.408437
 20
83.300545
 30
0.0
  0
VERTEX
  8
1
  6
CONTINUOUS
 62
     2
  5
1A2
 10
66.414332
 20
83.294535
 30
0.0
  0
VERTEX
  8
1
  6
CONTINUOUS
 62
     2
  5
1A3
 10
66.423941
 20
83.281325
 30
0.0
  0
VERTEX
  8
1
  6
CONTINUOUS
 62
     2
  5
1A4
 10
66.427455
 20
83.274157
 30
0.0
  0
VERTEX
  8
1
  6
CONTINUOUS
 62
     2
  5
1A5
 10
66.430833
 20
83.26275
 30
0.0
  0
VERTEX
  8
1
  6
CONTINUOUS
 62
     2
  5
1A6
 10
66.4575
 20
83.116417
 30
0.0
  0
SEQEND
  8
1
  6
CONTINUOUS
 62
     2
  5
1A7
  0
LINE
  8
1
  6
CONTINUOUS
 62
     2
  5
1A8
 10
55.54175
 20
91.626583
 30
0.0
 11
59.270083
 21
89.30125
 31
0.0
  0
LINE
  8
1
  6
CONTINUOUS
 62
     2
  5
1A9
 10
59.270083
 20
89.30125
 30
0.0
 11
60.083583
 21
89.779167
 31
0.0
  0
LINE
  8
1
  6
CONTINUOUS
 62
     2
  5
1AA
 10
52.685
 20
90.198833
 30
0.0
 11
54.652
 21
88.959333
 31
0.0
  0
LINE
  8
1
  6
CONTINUOUS
 62
     2
  5
1AB
 10
54.652
 20
88.959333
 30
0.0
 11
56.077917
 21
88.047583
 31
0.0
  0
LINE
  8
1
  6
CONTINUOUS
 62
     2
  5
1AC
 10
56.077917
 20
88.047583
 30
0.0
 11
58.664583
 21
86.416833
 31
0.0
  0
LINE
  8
1
  6
CONTINUOUS
 62
     2
  5
1AD
 10
52.679
 20
90.414583
 30
0.0
 11
54.659583
 21
88.947167
 31
0.0
  0
LINE
  8
1
  6
CONTINUOUS
 62
     2
  5
1AE
 10
54.659583
 20
88.947167
 30
0.0
 11
56.0625
 21
88.053833
 31
0.0
  0
LINE
  8
1
  6
CONTINUOUS
 62
     2
  5
1AF
 10
56.0625
 20
88.053833
 30
0.0
 11
57.770917
 21
87.16875
 31
0.0
  0
LINE
  8
1
  6
CONTINUOUS
 62
     2
  5
1B0
 10
57.770917
 20
87.16875
 30
0.0
 11
58.7605
 21
86.564833
 31
0.0
  0
LINE
  8
1
  6
CONTINUOUS
 62
     2
  5
1B1
 10
52.782583
 20
90.556417
 30
0.0
 11
54.842333
 21
89.055583
 31
0.0
  0
LINE
  8
1
  6
CONTINUOUS
 62
     2
  5
1B2
 10
54.842333
 20
89.055583
 30
0.0
 11
56.241333
 21
88.164333
 31
0.0
  0
LINE
  8
1
  6
CONTINUOUS
 62
     2
  5
1B3
 10
56.241333
 20
88.164333
 30
0.0
 11
57.8305
 21
87.353333
 31
0.0
  0
LINE
  8
1
  6
CONTINUOUS
 62
     2
  5
1B4
 10
57.8305
 20
87.353333
 30
0.0
 11
58.789083
 21
86.758
 31
0.0
  0
LINE
  8
1
  6
CONTINUOUS
 62
     2
  5
1B5
 10
53.123083
 20
90.106667
 30
0.0
 11
53.303833
 21
90.211083
 31
0.0
  0
LINE
  8
1
  6
CONTINUOUS
 62
     2
  5
1B6
 10
53.303833
 20
90.211083
 30
0.0
 11
56.466083
 21
90.161167
 31
0.0
  0
LINE
  8
1
  6
CONTINUOUS
 62
     2
  5
1B7
 10
56.466083
 20
90.161167
 30
0.0
 11
54.67925
 21
88.95875
 31
0.0
  0
LINE
  8
1
  6
CONTINUOUS
 62
     2
  5
1B8
 10
56.45825
 20
90.161333
 30
0.0
 11
57.894333
 21
89.275417
 31
0.0
  0
LINE
  8
1
  6
CONTINUOUS
 62
     2
  5
1B9
 10
57.894333
 20
89.275417
 30
0.0
 11
56.074083
 21
88.049667
 31
0.0
  0
LINE
  8
1
  6
CONTINUOUS
 62
     2
  5
1BA
 10
57.8865
 20
89.2735
 30
0.0
 11
57.832167
 21
87.341333
 31
0.0
  0
LINE
  8
1
  6
CONTINUOUS
 62
     2
  5
1BB
 10
57.832167
 20
87.341333
 30
0.0
 11
57.774667
 21
87.162667
 31
0.0
  0
LINE
  8
1
  6
CONTINUOUS
 62
     2
  5
1BC
 10
54.599167
 20
87.116917
 30
0.0
 11
55.991833
 21
88.01925
 31
0.0
  0
LINE
  8
1
  6
CONTINUOUS
 62
     2
  5
1BD
 10
53.499083
 20
88.19625
 30
0.0
 11
54.5815
 21
88.932667
 31
0.0
  0
LINE
  8
1
  6
CONTINUOUS
 62
     2
  5
1BE
 10
52.76675
 20
72.736167
 30
0.0
 11
56.1985
 21
74.690333
 31
0.0
  0
LINE
  8
1
  6
CONTINUOUS
 62
     2
  5
1BF
 10
56.1985
 20
74.690333
 30
0.0
 11
57.842417
 21
75.611917
 31
0.0
  0
LINE
  8
1
  6
CONTINUOUS
 62
     2
  5
1C0
 10
57.842417
 20
75.611917
 30
0.0
 11
60.943083
 21
77.318667
 31
0.0
  0
LINE
  8
1
  6
CONTINUOUS
 62
     2
  5
1C1
 10
52.715333
 20
72.914917
 30
0.0
 11
54.527083
 21
73.983083
 31
0.0
  0
LINE
  8
1
  6
CONTINUOUS
 62
     2
  5
1C2
 10
54.527083
 20
73.983083
 30
0.0
 11
56.202333
 21
74.690333
 31
0.0
  0
LINE
  8
1
  6
CONTINUOUS
 62
     2
  5
1C3
 10
56.202333
 20
74.690333
 30
0.0
 11
57.825083
 21
75.624167
 31
0.0
  0
LINE
  8
1
  6
CONTINUOUS
 62
     2
  5
1C4
 10
57.825083
 20
75.624167
 30
0.0
 11
59.4175
 21
76.720417
 31
0.0
  0
LINE
  8
1
  6
CONTINUOUS
 62
     2
  5
1C5
 10
59.4175
 20
76.720417
 30
0.0
 11
60.84475
 21
77.486333
 31
0.0
  0
LINE
  8
1
  6
CONTINUOUS
 62
     2
  5
1C6
 10
52.605917
 20
73.004833
 30
0.0
 11
54.419417
 21
74.057
 31
0.0
  0
LINE
  8
1
  6
CONTINUOUS
 62
     2
  5
1C7
 10
54.419417
 20
74.057
 30
0.0
 11
56.0815
 21
74.792417
 31
0.0
  0
LINE
  8
1
  6
CONTINUOUS
 62
     2
  5
1C8
 10
56.0815
 20
74.792417
 30
0.0
 11
57.72925
 21
75.707917
 31
0.0
  0
LINE
  8
1
  6
CONTINUOUS
 62
     2
  5
1C9
 10
57.72925
 20
75.707917
 30
0.0
 11
59.308
 21
76.802417
 31
0.0
  0
LINE
  8
1
  6
CONTINUOUS
 62
     2
  5
1CA
 10
59.308
 20
76.802417
 30
0.0
 11
60.720083
 21
77.5905
 31
0.0
  0
LINE
  8
1
  6
CONTINUOUS
 62
     2
  5
1CB
 10
52.645667
 20
74.30825
 30
0.0
 11
53.407417
 21
74.71925
 31
0.0
  0
LINE
  8
1
  6
CONTINUOUS
 62
     2
  5
1CC
 10
53.407417
 20
74.71925
 30
0.0
 11
54.533
 21
73.990917
 31
0.0
  0
LINE
  8
1
  6
CONTINUOUS
 62
     2
  5
1CD
 10
53.407417
 20
74.71925
 30
0.0
 11
55.102083
 21
75.531917
 31
0.0
  0
LINE
  8
1
  6
CONTINUOUS
 62
     2
  5
1CE
 10
55.102083
 20
75.531917
 30
0.0
 11
56.198833
 21
74.714333
 31
0.0
  0
LINE
  8
1
  6
CONTINUOUS
 62
     2
  5
1CF
 10
55.102083
 20
75.531917
 30
0.0
 11
56.740417
 21
76.469583
 31
0.0
  0
LINE
  8
1
  6
CONTINUOUS
 62
     2
  5
1D0
 10
56.740417
 20
76.469583
 30
0.0
 11
57.834833
 21
75.624
 31
0.0
  0
LINE
  8
1
  6
CONTINUOUS
 62
     2
  5
1D1
 10
56.740417
 20
76.469583
 30
0.0
 11
58.276583
 21
77.463
 31
0.0
  0
LINE
  8
1
  6
CONTINUOUS
 62
     2
  5
1D2
 10
58.276583
 20
77.463
 30
0.0
 11
59.481167
 21
78.175167
 31
0.0
  0
LINE
  8
1
  6
CONTINUOUS
 62
     2
  5
1D3
 10
58.276583
 20
77.463
 30
0.0
 11
59.437083
 21
76.728083
 31
0.0
  0
LINE
  8
1
  6
DASHED
 62
     2
  5
1D4
 10
53.407417
 20
74.71925
 30
0.0
 11
58.276583
 21
77.463
 31
0.0
  0
LINE
  8
1
  6
CONTINUOUS
 62
     2
  5
1D5
 10
64.072
 20
75.205417
 30
0.0
 11
64.034
 21
75.256083
 31
0.0
  0
LINE
  8
1
  6
CONTINUOUS
 62
     2
  5
1D6
 10
64.034
 20
75.256083
 30
0.0
 11
64.148833
 21
75.37575
 31
0.0
  0
LINE
  8
1
  6
CONTINUOUS
 62
     2
  5
1D7
 10
64.148833
 20
75.37575
 30
0.0
 11
64.077833
 21
75.429
 31
0.0
  0
LINE
  8
1
  6
CONTINUOUS
 62
     2
  5
1D8
 10
64.077833
 20
75.429
 30
0.0
 11
64.079833
 21
75.664667
 31
0.0
  0
LINE
  8
1
  6
CONTINUOUS
 62
     2
  5
1D9
 10
64.079833
 20
75.664667
 30
0.0
 11
66.539333
 21
75.472333
 31
0.0
  0
LINE
  8
1
  6
CONTINUOUS
 62
     2
  5
1DA
 10
66.539333
 20
75.472333
 30
0.0
 11
66.665833
 21
75.93125
 31
0.0
  0
LINE
  8
1
  6
CONTINUOUS
 62
     2
  5
1DB
 10
64.071167
 20
75.037667
 30
0.0
 11
67.175167
 21
74.77125
 31
0.0
  0
LINE
  8
1
  6
CONTINUOUS
 62
     2
  5
1DC
 10
67.175167
 20
74.77125
 30
0.0
 11
67.185583
 21
75.042667
 31
0.0
  0
LINE
  8
1
  6
CONTINUOUS
 62
     2
  5
1DD
 10
67.185583
 20
75.042667
 30
0.0
 11
69.89575
 21
75.288917
 31
0.0
  0
LINE
  8
1
  6
CONTINUOUS
 62
     2
  5
1DE
 10
69.893833
 20
75.177167
 30
0.0
 11
69.950583
 21
75.423667
 31
0.0
  0
LINE
  8
1
  6
CONTINUOUS
 62
     2
  5
1DF
 10
69.950583
 20
75.423667
 30
0.0
 11
69.8995
 21
75.508583
 31
0.0
  0
LINE
  8
1
  6
CONTINUOUS
 62
     2
  5
1E0
 10
69.8995
 20
75.508583
 30
0.0
 11
70.088
 21
75.614833
 31
0.0
  0
LINE
  8
1
  6
CONTINUOUS
 62
     2
  5
1E1
 10
70.088
 20
75.614833
 30
0.0
 11
70.01475
 21
75.654167
 31
0.0
  0
LINE
  8
1
  6
CONTINUOUS
 62
     2
  5
1E2
 10
70.01475
 20
75.654167
 30
0.0
 11
70.090083
 21
76.076167
 31
0.0
  0
LINE
  8
1
  6
CONTINUOUS
 62
     2
  5
1E3
 10
70.090083
 20
76.076167
 30
0.0
 11
66.958583
 21
76.103417
 31
0.0
  0
LINE
  8
1
  6
CONTINUOUS
 62
     2
  5
1E4
 10
66.539333
 20
75.472333
 30
0.0
 11
70.018167
 21
75.738
 31
0.0
  0
LINE
  8
1
  6
CONTINUOUS
 62
     2
  5
1E5
 10
70.189583
 20
75.1815
 30
0.0
 11
70.2735
 21
75.427583
 31
0.0
  0
LINE
  8
1
  6
CONTINUOUS
 62
     2
  5
1E6
 10
70.2735
 20
75.427583
 30
0.0
 11
70.239583
 21
75.490167
 31
0.0
  0
LINE
  8
1
  6
CONTINUOUS
 62
     2
  5
1E7
 10
70.239583
 20
75.490167
 30
0.0
 11
70.3775
 21
75.593333
 31
0.0
  0
LINE
  8
1
  6
CONTINUOUS
 62
     2
  5
1E8
 10
70.3775
 20
75.593333
 30
0.0
 11
70.321917
 21
75.642333
 31
0.0
  0
LINE
  8
1
  6
CONTINUOUS
 62
     2
  5
1E9
 10
70.321917
 20
75.642333
 30
0.0
 11
70.403583
 21
76.098167
 31
0.0
  0
LINE
  8
1
  6
CONTINUOUS
 62
     2
  5
1EA
 10
70.403583
 20
76.098167
 30
0.0
 11
70.39725
 21
76.068333
 31
0.0
  0
LINE
  8
1
  6
CONTINUOUS
 62
     2
  5
1EB
 10
70.39725
 20
76.068333
 30
0.0
 11
73.95675
 21
76.044917
 31
0.0
  0
LINE
  8
1
  6
CONTINUOUS
 62
     2
  5
1EC
 10
73.95675
 20
76.044917
 30
0.0
 11
70.35325
 21
75.765583
 31
0.0
  0
LINE
  8
1
  6
CONTINUOUS
 62
     2
  5
1ED
 10
73.95675
 20
76.044917
 30
0.0
 11
73.95775
 21
75.647417
 31
0.0
  0
LINE
  8
1
  6
CONTINUOUS
 62
     2
  5
1EE
 10
73.95775
 20
75.647417
 30
0.0
 11
70.252417
 21
75.332083
 31
0.0
  0
LINE
  8
1
  6
CONTINUOUS
 62
     2
  5
1EF
 10
67.185583
 20
75.042667
 30
0.0
 11
67.207583
 21
76.10075
 31
0.0
  0
POLYLINE
  8
1
  6
CONTINUOUS
 62
     2
  5
1F0
 66
     1
 10
0.0
 20
0.0
 30
0.0
  0
VERTEX
  8
1
  6
CONTINUOUS
 62
     2
  5
1F1
 10
66.665833
 20
75.93125
 30
0.0
  0
VERTEX
  8
1
  6
CONTINUOUS
 62
     2
  5
1F2
 10
66.69275
 20
76.028583
 30
0.0
  0
VERTEX
  8
1
  6
CONTINUOUS
 62
     2
  5
1F3
 10
66.699745
 20
76.047618
 30
0.0
  0
VERTEX
  8
1
  6
CONTINUOUS
 62
     2
  5
1F4
 10
66.704646
 20
76.0567
 30
0.0
  0
VERTEX
  8
1
  6
CONTINUOUS
 62
     2
  5
1F5
 10
66.713923
 20
76.068879
 30
0.0
  0
VERTEX
  8
1
  6
CONTINUOUS
 62
     2
  5
1F6
 10
66.725696
 20
76.07836
 30
0.0
  0
VERTEX
  8
1
  6
CONTINUOUS
 62
     2
  5
1F7
 10
66.732583
 20
76.08175
 30
0.0
  0
VERTEX
  8
1
  6
CONTINUOUS
 62
     2
  5
1F8
 10
66.746319
 20
76.086602
 30
0.0
  0
VERTEX
  8
1
  6
CONTINUOUS
 62
     2
  5
1F9
 10
66.773892
 20
76.093196
 30
0.0
  0
VERTEX
  8
1
  6
CONTINUOUS
 62
     2
  5
1FA
 10
66.801592
 20
76.096685
 30
0.0
  0
VERTEX
  8
1
  6
CONTINUOUS
 62
     2
  5
1FB
 10
66.857333
 20
76.099333
 30
0.0
  0
VERTEX
  8
1
  6
CONTINUOUS
 62
     2
  5
1FC
 10
66.958583
 20
76.103417
 30
0.0
  0
SEQEND
  8
1
  6
CONTINUOUS
 62
     2
  5
1FD
  0
LINE
  8
1
  6
CONTINUOUS
 62
     2
  5
1FE
 10
69.946917
 20
75.732583
 30
0.0
 11
70.035917
 21
75.821667
 31
0.0
  0
LINE
  8
1
  6
CONTINUOUS
 62
     2
  5
1FF
 10
69.81925
 20
75.722833
 30
0.0
 11
70.06775
 21
75.971333
 31
0.0
  0
LINE
  8
1
  6
CONTINUOUS
 62
     2
  5
200
 10
69.691667
 20
75.713083
 30
0.0
 11
70.055
 21
76.076417
 31
0.0
  0
LINE
  8
1
  6
CONTINUOUS
 62
     2
  5
201
 10
69.4365
 20
75.693583
 30
0.0
 11
69.821
 21
76.078083
 31
0.0
  0
LINE
  8
1
  6
CONTINUOUS
 62
     2
  5
202
 10
68.543333
 20
75.625333
 30
0.0
 11
69.001833
 21
76.083917
 31
0.0
  0
LINE
  8
1
  6
CONTINUOUS
 62
     2
  5
203
 10
67.267417
 20
75.527917
 30
0.0
 11
67.831667
 21
76.09225
 31
0.0
  0
LINE
  8
1
  6
CONTINUOUS
 62
     2
  5
204
 10
67.13975
 20
75.518167
 30
0.0
 11
67.714667
 21
76.093083
 31
0.0
  0
LINE
  8
1
  6
CONTINUOUS
 62
     2
  5
205
 10
67.012167
 20
75.508417
 30
0.0
 11
67.597667
 21
76.093917
 31
0.0
  0
LINE
  8
1
  6
CONTINUOUS
 62
     2
  5
206
 10
66.884583
 20
75.498667
 30
0.0
 11
67.480583
 21
76.09475
 31
0.0
  0
LINE
  8
1
  6
CONTINUOUS
 62
     2
  5
207
 10
66.757
 20
75.488917
 30
0.0
 11
67.363583
 21
76.095583
 31
0.0
  0
LINE
  8
1
  6
CONTINUOUS
 62
     2
  5
208
 10
66.629417
 20
75.47925
 30
0.0
 11
67.246583
 21
76.096417
 31
0.0
  0
LINE
  8
1
  6
CONTINUOUS
 62
     2
  5
209
 10
66.5525
 20
75.520167
 30
0.0
 11
67.129583
 21
76.09725
 31
0.0
  0
LINE
  8
1
  6
CONTINUOUS
 62
     2
  5
20A
 10
66.597333
 20
75.682917
 30
0.0
 11
67.0125
 21
76.098083
 31
0.0
  0
LINE
  8
1
  6
CONTINUOUS
 62
     2
  5
20B
 10
66.64225
 20
75.845583
 30
0.0
 11
66.8955
 21
76.098833
 31
0.0
  0
LINE
  8
1
  6
CONTINUOUS
 62
     2
  5
20C
 10
66.695583
 20
76.01675
 30
0.0
 11
66.737833
 21
76.059083
 31
0.0
  0
LINE
  8
1
  6
CONTINUOUS
 62
     2
  5
20D
 10
73.840167
 20
76.035917
 30
0.0
 11
73.849917
 21
76.045583
 31
0.0
  0
LINE
  8
1
  6
CONTINUOUS
 62
     2
  5
20E
 10
73.712417
 20
76.026
 30
0.0
 11
73.732833
 21
76.046417
 31
0.0
  0
LINE
  8
1
  6
CONTINUOUS
 62
     2
  5
20F
 10
73.584667
 20
76.016083
 30
0.0
 11
73.61575
 21
76.047167
 31
0.0
  0
LINE
  8
1
  6
CONTINUOUS
 62
     2
  5
210
 10
73.456917
 20
76.006167
 30
0.0
 11
73.498667
 21
76.047917
 31
0.0
  0
LINE
  8
1
  6
CONTINUOUS
 62
     2
  5
211
 10
73.329167
 20
75.99625
 30
0.0
 11
73.381583
 21
76.048667
 31
0.0
  0
LINE
  8
1
  6
CONTINUOUS
 62
     2
  5
212
 10
73.201417
 20
75.986333
 30
0.0
 11
73.2645
 21
76.0495
 31
0.0
  0
LINE
  8
1
  6
CONTINUOUS
 62
     2
  5
213
 10
73.073667
 20
75.9765
 30
0.0
 11
73.147417
 21
76.05025
 31
0.0
  0
LINE
  8
1
  6
CONTINUOUS
 62
     2
  5
214
 10
72.945917
 20
75.966583
 30
0.0
 11
73.030333
 21
76.051
 31
0.0
  0
LINE
  8
1
  6
CONTINUOUS
 62
     2
  5
215
 10
72.818167
 20
75.956667
 30
0.0
 11
72.91325
 21
76.05175
 31
0.0
  0
LINE
  8
1
  6
CONTINUOUS
 62
     2
  5
216
 10
72.690417
 20
75.94675
 30
0.0
 11
72.796167
 21
76.052583
 31
0.0
  0
LINE
  8
1
  6
CONTINUOUS
 62
     2
  5
217
 10
72.562667
 20
75.936833
 30
0.0
 11
72.679083
 21
76.053333
 31
0.0
  0
LINE
  8
1
  6
CONTINUOUS
 62
     2
  5
218
 10
72.434917
 20
75.926917
 30
0.0
 11
72.562
 21
76.054083
 31
0.0
  0
LINE
  8
1
  6
CONTINUOUS
 62
     2
  5
219
 10
72.307167
 20
75.917083
 30
0.0
 11
72.444917
 21
76.054833
 31
0.0
  0
LINE
  8
1
  6
CONTINUOUS
 62
     2
  5
21A
 10
72.179417
 20
75.907167
 30
0.0
 11
72.327917
 21
76.055667
 31
0.0
  0
LINE
  8
1
  6
CONTINUOUS
 62
     2
  5
21B
 10
72.051667
 20
75.89725
 30
0.0
 11
72.210833
 21
76.056417
 31
0.0
  0
LINE
  8
1
  6
CONTINUOUS
 62
     2
  5
21C
 10
71.923917
 20
75.887333
 30
0.0
 11
72.09375
 21
76.057167
 31
0.0
  0
LINE
  8
1
  6
CONTINUOUS
 62
     2
  5
21D
 10
71.796083
 20
75.877417
 30
0.0
 11
71.976667
 21
76.057917
 31
0.0
  0
LINE
  8
1
  6
CONTINUOUS
 62
     2
  5
21E
 10
71.668333
 20
75.8675
 30
0.0
 11
71.859583
 21
76.05875
 31
0.0
  0
LINE
  8
1
  6
CONTINUOUS
 62
     2
  5
21F
 10
71.540583
 20
75.857583
 30
0.0
 11
71.7425
 21
76.0595
 31
0.0
  0
LINE
  8
1
  6
CONTINUOUS
 62
     2
  5
220
 10
71.412833
 20
75.84775
 30
0.0
 11
71.625417
 21
76.06025
 31
0.0
  0
LINE
  8
1
  6
CONTINUOUS
 62
     2
  5
221
 10
71.285083
 20
75.837833
 30
0.0
 11
71.508333
 21
76.061
 31
0.0
  0
LINE
  8
1
  6
CONTINUOUS
 62
     2
  5
222
 10
71.157333
 20
75.827917
 30
0.0
 11
71.39125
 21
76.061833
 31
0.0
  0
LINE
  8
1
  6
CONTINUOUS
 62
     2
  5
223
 10
71.029583
 20
75.818
 30
0.0
 11
71.274167
 21
76.062583
 31
0.0
  0
LINE
  8
1
  6
CONTINUOUS
 62
     2
  5
224
 10
70.901833
 20
75.808083
 30
0.0
 11
71.157083
 21
76.063333
 31
0.0
  0
LINE
  8
1
  6
CONTINUOUS
 62
     2
  5
225
 10
70.774083
 20
75.798167
 30
0.0
 11
71.04
 21
76.064083
 31
0.0
  0
LINE
  8
1
  6
CONTINUOUS
 62
     2
  5
226
 10
70.646333
 20
75.788333
 30
0.0
 11
70.922917
 21
76.064917
 31
0.0
  0
LINE
  8
1
  6
CONTINUOUS
 62
     2
  5
227
 10
70.518583
 20
75.778417
 30
0.0
 11
70.805833
 21
76.065667
 31
0.0
  0
LINE
  8
1
  6
CONTINUOUS
 62
     2
  5
228
 10
70.390833
 20
75.7685
 30
0.0
 11
70.68875
 21
76.066417
 31
0.0
  0
LINE
  8
1
  6
CONTINUOUS
 62
     2
  5
229
 10
70.367417
 20
75.862917
 30
0.0
 11
70.571667
 21
76.067167
 31
0.0
  0
LINE
  8
1
  6
CONTINUOUS
 62
     2
  5
22A
 10
70.387417
 20
76.000833
 30
0.0
 11
70.454583
 21
76.067917
 31
0.0
  0
LINE
  8
1
  6
CONTINUOUS
 62
     2
  5
22B
 10
55.580167
 20
74.570583
 30
0.0
 11
56.03075
 21
74.83075
 31
0.0
  0
LINE
  8
1
  6
CONTINUOUS
 62
     2
  5
22C
 10
54.234083
 20
74.178333
 30
0.0
 11
55.741833
 21
75.048833
 31
0.0
  0
LINE
  8
1
  6
CONTINUOUS
 62
     2
  5
22D
 10
54.155917
 20
74.229417
 30
0.0
 11
55.669667
 21
75.103417
 31
0.0
  0
LINE
  8
1
  6
CONTINUOUS
 62
     2
  5
22E
 10
54.077833
 20
74.280583
 30
0.0
 11
55.597417
 21
75.157917
 31
0.0
  0
LINE
  8
1
  6
CONTINUOUS
 62
     2
  5
22F
 10
53.999667
 20
74.331667
 30
0.0
 11
55.52525
 21
75.212417
 31
0.0
  0
LINE
  8
1
  6
CONTINUOUS
 62
     2
  5
230
 10
53.921583
 20
74.382833
 30
0.0
 11
55.453
 21
75.267
 31
0.0
  0
LINE
  8
1
  6
CONTINUOUS
 62
     2
  5
231
 10
53.843417
 20
74.433917
 30
0.0
 11
55.38075
 21
75.3215
 31
0.0
  0
LINE
  8
1
  6
CONTINUOUS
 62
     2
  5
232
 10
53.765333
 20
74.485
 30
0.0
 11
55.308583
 21
75.376
 31
0.0
  0
LINE
  8
1
  6
CONTINUOUS
 62
     2
  5
233
 10
53.687167
 20
74.536167
 30
0.0
 11
55.236333
 21
75.430583
 31
0.0
  0
LINE
  8
1
  6
CONTINUOUS
 62
     2
  5
234
 10
53.609083
 20
74.58725
 30
0.0
 11
55.164083
 21
75.485083
 31
0.0
  0
LINE
  8
1
  6
CONTINUOUS
 62
     2
  5
235
 10
53.531
 20
74.638417
 30
0.0
 11
54.96325
 21
75.465333
 31
0.0
  0
LINE
  8
1
  6
CONTINUOUS
 62
     2
  5
236
 10
53.452833
 20
74.6895
 30
0.0
 11
53.979417
 21
74.993583
 31
0.0
  0
LINE
  8
1
  6
CONTINUOUS
 62
     2
  5
237
 10
57.676083
 20
75.678333
 30
0.0
 11
57.60275
 21
75.805417
 31
0.0
  0
LINE
  8
1
  6
CONTINUOUS
 62
     2
  5
238
 10
57.603167
 20
75.637917
 30
0.0
 11
57.429417
 21
75.938833
 31
0.0
  0
LINE
  8
1
  6
CONTINUOUS
 62
     2
  5
239
 10
57.238917
 20
75.4355
 30
0.0
 11
56.666333
 21
76.427167
 31
0.0
  0
LINE
  8
1
  6
CONTINUOUS
 62
     2
  5
23A
 10
57.166083
 20
75.395
 30
0.0
 11
56.594
 21
76.385833
 31
0.0
  0
LINE
  8
1
  6
CONTINUOUS
 62
     2
  5
23B
 10
57.09325
 20
75.3545
 30
0.0
 11
56.52175
 21
76.344417
 31
0.0
  0
LINE
  8
1
  6
CONTINUOUS
 62
     2
  5
23C
 10
57.020333
 20
75.314083
 30
0.0
 11
56.449417
 21
76.303
 31
0.0
  0
LINE
  8
1
  6
CONTINUOUS
 62
     2
  5
23D
 10
56.9475
 20
75.273583
 30
0.0
 11
56.377083
 21
76.261583
 31
0.0
  0
LINE
  8
1
  6
CONTINUOUS
 62
     2
  5
23E
 10
56.874667
 20
75.233083
 30
0.0
 11
56.30475
 21
76.22025
 31
0.0
  0
LINE
  8
1
  6
CONTINUOUS
 62
     2
  5
23F
 10
56.801833
 20
75.192583
 30
0.0
 11
56.232417
 21
76.178833
 31
0.0
  0
LINE
  8
1
  6
CONTINUOUS
 62
     2
  5
240
 10
56.728917
 20
75.152167
 30
0.0
 11
56.160083
 21
76.137417
 31
0.0
  0
LINE
  8
1
  6
CONTINUOUS
 62
     2
  5
241
 10
56.656083
 20
75.111667
 30
0.0
 11
56.08775
 21
76.096083
 31
0.0
  0
LINE
  8
1
  6
CONTINUOUS
 62
     2
  5
242
 10
56.58325
 20
75.071167
 30
0.0
 11
56.015417
 21
76.054667
 31
0.0
  0
LINE
  8
1
  6
CONTINUOUS
 62
     2
  5
243
 10
56.510417
 20
75.030667
 30
0.0
 11
55.943083
 21
76.01325
 31
0.0
  0
LINE
  8
1
  6
CONTINUOUS
 62
     2
  5
244
 10
56.4375
 20
74.99025
 30
0.0
 11
55.87075
 21
75.971833
 31
0.0
  0
LINE
  8
1
  6
CONTINUOUS
 62
     2
  5
245
 10
56.364667
 20
74.94975
 30
0.0
 11
55.798417
 21
75.9305
 31
0.0
  0
LINE
  8
1
  6
CONTINUOUS
 62
     2
  5
246
 10
56.291833
 20
74.90925
 30
0.0
 11
55.726083
 21
75.889083
 31
0.0
  0
LINE
  8
1
  6
CONTINUOUS
 62
     2
  5
247
 10
56.219
 20
74.86875
 30
0.0
 11
55.653833
 21
75.847667
 31
0.0
  0
LINE
  8
1
  6
CONTINUOUS
 62
     2
  5
248
 10
56.146083
 20
74.828333
 30
0.0
 11
55.5815
 21
75.80625
 31
0.0
  0
LINE
  8
1
  6
CONTINUOUS
 62
     2
  5
249
 10
56.062167
 20
74.807
 30
0.0
 11
55.509167
 21
75.764917
 31
0.0
  0
LINE
  8
1
  6
CONTINUOUS
 62
     2
  5
24A
 10
55.891583
 20
74.935833
 30
0.0
 11
55.436833
 21
75.7235
 31
0.0
  0
LINE
  8
1
  6
CONTINUOUS
 62
     2
  5
24B
 10
55.721
 20
75.064583
 30
0.0
 11
55.3645
 21
75.682083
 31
0.0
  0
LINE
  8
1
  6
CONTINUOUS
 62
     2
  5
24C
 10
55.550417
 20
75.193417
 30
0.0
 11
55.292167
 21
75.640667
 31
0.0
  0
LINE
  8
1
  6
CONTINUOUS
 62
     2
  5
24D
 10
55.379833
 20
75.32225
 30
0.0
 11
55.219833
 21
75.599333
 31
0.0
  0
LINE
  8
1
  6
CONTINUOUS
 62
     2
  5
24E
 10
55.20925
 20
75.451
 30
0.0
 11
55.1475
 21
75.557917
 31
0.0
  0
LINE
  8
1
  6
CONTINUOUS
 62
     2
  5
24F
 10
59.086667
 20
76.649
 30
0.0
 11
59.266583
 21
76.828917
 31
0.0
  0
LINE
  8
1
  6
CONTINUOUS
 62
     2
  5
250
 10
58.702417
 20
76.382583
 30
0.0
 11
59.19475
 21
76.874917
 31
0.0
  0
LINE
  8
1
  6
CONTINUOUS
 62
     2
  5
251
 10
58.31825
 20
76.11625
 30
0.0
 11
59.122917
 21
76.920917
 31
0.0
  0
LINE
  8
1
  6
CONTINUOUS
 62
     2
  5
252
 10
57.631583
 20
75.783167
 30
0.0
 11
58.907417
 21
77.059
 31
0.0
  0
LINE
  8
1
  6
CONTINUOUS
 62
     2
  5
253
 10
57.565
 20
75.834417
 30
0.0
 11
58.835583
 21
77.105
 31
0.0
  0
LINE
  8
1
  6
CONTINUOUS
 62
     2
  5
254
 10
57.498417
 20
75.885667
 30
0.0
 11
58.76375
 21
77.151
 31
0.0
  0
LINE
  8
1
  6
CONTINUOUS
 62
     2
  5
255
 10
57.431833
 20
75.937
 30
0.0
 11
58.691917
 21
77.197
 31
0.0
  0
LINE
  8
1
  6
CONTINUOUS
 62
     2
  5
256
 10
57.365333
 20
75.98825
 30
0.0
 11
58.620083
 21
77.243
 31
0.0
  0
LINE
  8
1
  6
CONTINUOUS
 62
     2
  5
257
 10
57.29875
 20
76.0395
 30
0.0
 11
58.54825
 21
77.289
 31
0.0
  0
LINE
  8
1
  6
CONTINUOUS
 62
     2
  5
258
 10
57.232167
 20
76.090833
 30
0.0
 11
58.476333
 21
77.335083
 31
0.0
  0
LINE
  8
1
  6
CONTINUOUS
 62
     2
  5
259
 10
57.165583
 20
76.142083
 30
0.0
 11
58.4045
 21
77.381083
 31
0.0
  0
LINE
  8
1
  6
CONTINUOUS
 62
     2
  5
25A
 10
57.099
 20
76.193417
 30
0.0
 11
58.332667
 21
77.427083
 31
0.0
  0
LINE
  8
1
  6
CONTINUOUS
 62
     2
  5
25B
 10
57.032417
 20
76.244667
 30
0.0
 11
58.2035
 21
77.41575
 31
0.0
  0
LINE
  8
1
  6
CONTINUOUS
 62
     2
  5
25C
 10
56.965833
 20
76.295917
 30
0.0
 11
57.87
 21
77.200083
 31
0.0
  0
LINE
  8
1
  6
CONTINUOUS
 62
     2
  5
25D
 10
56.89925
 20
76.34725
 30
0.0
 11
57.536417
 21
76.984333
 31
0.0
  0
LINE
  8
1
  6
CONTINUOUS
 62
     2
  5
25E
 10
56.83275
 20
76.3985
 30
0.0
 11
57.202833
 21
76.768667
 31
0.0
  0
LINE
  8
1
  6
CONTINUOUS
 62
     2
  5
25F
 10
56.766167
 20
76.44975
 30
0.0
 11
56.869333
 21
76.552917
 31
0.0
  0
LINE
  8
1
  6
CONTINUOUS
 62
     2
  5
260
 10
65.318
 20
83.365667
 30
0.0
 11
65.318
 21
83.73
 31
0.0
  0
LINE
  8
1
  6
CONTINUOUS
 62
     2
  5
261
 10
65.234667
 20
83.367833
 30
0.0
 11
65.234667
 21
83.73
 31
0.0
  0
LINE
  8
1
  6
CONTINUOUS
 62
     2
  5
262
 10
65.151333
 20
83.369917
 30
0.0
 11
65.151333
 21
83.73
 31
0.0
  0
LINE
  8
1
  6
CONTINUOUS
 62
     2
  5
263
 10
65.068
 20
83.372083
 30
0.0
 11
65.068
 21
83.73
 31
0.0
  0
LINE
  8
1
  6
CONTINUOUS
 62
     2
  5
264
 10
64.430833
 20
83.367083
 30
0.0
 11
64.99175
 21
83.367083
 31
0.0
  0
LINE
  8
1
  6
CONTINUOUS
 62
     2
  5
265
 10
64.43175
 20
83.450417
 30
0.0
 11
64.99275
 21
83.450417
 31
0.0
  0
LINE
  8
1
  6
CONTINUOUS
 62
     2
  5
266
 10
64.43275
 20
83.53375
 30
0.0
 11
64.99375
 21
83.53375
 31
0.0
  0
LINE
  8
1
  6
CONTINUOUS
 62
     2
  5
267
 10
64.43375
 20
83.617083
 30
0.0
 11
64.99475
 21
83.617083
 31
0.0
  0
LINE
  8
1
  6
CONTINUOUS
 62
     2
  5
268
 10
64.43475
 20
83.700417
 30
0.0
 11
64.99575
 21
83.700417
 31
0.0
  0
LINE
  8
1
  6
CONTINUOUS
 62
     2
  5
269
 10
65.3425
 20
83.40025
 30
0.0
 11
65.866
 21
83.40025
 31
0.0
  0
LINE
  8
1
  6
CONTINUOUS
 62
     2
  5
26A
 10
65.341417
 20
83.483583
 30
0.0
 11
65.862917
 21
83.483583
 31
0.0
  0
LINE
  8
1
  6
CONTINUOUS
 62
     2
  5
26B
 10
65.340417
 20
83.566917
 30
0.0
 11
65.859833
 21
83.566917
 31
0.0
  0
LINE
  8
1
  6
CONTINUOUS
 62
     2
  5
26C
 10
65.339417
 20
83.65025
 30
0.0
 11
65.856833
 21
83.65025
 31
0.0
  0
LINE
  8
1
  6
CONTINUOUS
 62
     2
  5
26D
 10
65.338333
 20
83.733583
 30
0.0
 11
65.85375
 21
83.733583
 31
0.0
  0
LINE
  8
1
  6
CONTINUOUS
 62
     2
  5
26E
 10
66.43375
 20
81.787
 30
0.0
 11
66.791917
 21
81.787
 31
0.0
  0
LINE
  8
1
  6
CONTINUOUS
 62
     2
  5
26F
 10
66.437417
 20
81.870333
 30
0.0
 11
66.791917
 21
81.870333
 31
0.0
  0
LINE
  8
1
  6
CONTINUOUS
 62
     2
  5
270
 10
66.441
 20
81.953667
 30
0.0
 11
66.791917
 21
81.953667
 31
0.0
  0
LINE
  8
1
  6
CONTINUOUS
 62
     2
  5
271
 10
66.444667
 20
82.037
 30
0.0
 11
66.791917
 21
82.037
 31
0.0
  0
LINE
  8
1
  6
CONTINUOUS
 62
     2
  5
272
 10
66.803833
 20
82.5855
 30
0.0
 11
66.803833
 21
82.647167
 31
0.0
  0
LINE
  8
1
  6
CONTINUOUS
 62
     2
  5
273
 10
66.7205
 20
82.119083
 30
0.0
 11
66.7205
 21
82.65025
 31
0.0
  0
LINE
  8
1
  6
CONTINUOUS
 62
     2
  5
274
 10
66.637167
 20
82.120167
 30
0.0
 11
66.637167
 21
82.653333
 31
0.0
  0
LINE
  8
1
  6
CONTINUOUS
 62
     2
  5
275
 10
66.553833
 20
82.121167
 30
0.0
 11
66.553833
 21
82.656333
 31
0.0
  0
LINE
  8
1
  6
CONTINUOUS
 62
     2
  5
276
 10
66.4705
 20
82.12225
 30
0.0
 11
66.4705
 21
82.659417
 31
0.0
  0
LINE
  8
1
  6
CONTINUOUS
 62
     2
  5
277
 10
66.77375
 20
81.137417
 30
0.0
 11
66.77375
 21
81.717917
 31
0.0
  0
LINE
  8
1
  6
CONTINUOUS
 62
     2
  5
278
 10
66.690417
 20
81.135333
 30
0.0
 11
66.690417
 21
81.716917
 31
0.0
  0
LINE
  8
1
  6
CONTINUOUS
 62
     2
  5
279
 10
66.607083
 20
81.133333
 30
0.0
 11
66.607083
 21
81.715917
 31
0.0
  0
LINE
  8
1
  6
CONTINUOUS
 62
     2
  5
27A
 10
66.52375
 20
81.13125
 30
0.0
 11
66.52375
 21
81.714917
 31
0.0
  0
LINE
  8
1
  6
CONTINUOUS
 62
     2
  5
27B
 10
66.440417
 20
81.129167
 30
0.0
 11
66.440417
 21
81.713917
 31
0.0
  0
LINE
  8
1
  6
CONTINUOUS
 62
     2
  5
27C
 10
56.449583
 20
90.1465
 30
0.0
 11
56.449583
 21
90.151583
 31
0.0
  0
LINE
  8
1
  6
CONTINUOUS
 62
     2
  5
27D
 10
53.282917
 20
90.195167
 30
0.0
 11
53.282917
 21
90.198917
 31
0.0
  0
LINE
  8
1
  6
CONTINUOUS
 62
     2
  5
27E
 10
57.84825
 20
88.029
 30
0.0
 11
57.84825
 21
89.210333
 31
0.0
  0
LINE
  8
1
  6
CONTINUOUS
 62
     2
  5
27F
 10
57.764917
 20
87.389
 30
0.0
 11
57.764917
 21
89.155917
 31
0.0
  0
LINE
  8
1
  6
CONTINUOUS
 62
     2
  5
280
 10
57.681583
 20
87.431583
 30
0.0
 11
57.681583
 21
89.1015
 31
0.0
  0
LINE
  8
1
  6
CONTINUOUS
 62
     2
  5
281
 10
57.59825
 20
87.474167
 30
0.0
 11
57.59825
 21
89.047083
 31
0.0
  0
LINE
  8
1
  6
CONTINUOUS
 62
     2
  5
282
 10
57.514917
 20
87.51675
 30
0.0
 11
57.514917
 21
88.992667
 31
0.0
  0
LINE
  8
1
  6
CONTINUOUS
 62
     2
  5
283
 10
57.431583
 20
87.559333
 30
0.0
 11
57.431583
 21
88.93825
 31
0.0
  0
LINE
  8
1
  6
CONTINUOUS
 62
     2
  5
284
 10
57.34825
 20
87.601917
 30
0.0
 11
57.34825
 21
88.883833
 31
0.0
  0
LINE
  8
1
  6
CONTINUOUS
 62
     2
  5
285
 10
57.264917
 20
87.6445
 30
0.0
 11
57.264917
 21
88.829417
 31
0.0
  0
LINE
  8
1
  6
CONTINUOUS
 62
     2
  5
286
 10
56.34825
 20
88.112833
 30
0.0
 11
56.34825
 21
88.23075
 31
0.0
  0
LINE
  8
1
  6
CONTINUOUS
 62
     2
  5
287
 10
56.264917
 20
88.155417
 30
0.0
 11
56.264917
 21
88.176333
 31
0.0
  0
LINE
  8
1
  6
CONTINUOUS
 62
     2
  5
288
 10
56.234083
 20
88.177
 30
0.0
 11
56.271833
 21
88.177
 31
0.0
  0
LINE
  8
1
  6
CONTINUOUS
 62
     2
  5
289
 10
69.278
 20
75.237583
 30
0.0
 11
69.316833
 21
75.237417
 31
0.0
  0
LINE
  8
1
  6
CONTINUOUS
 62
     2
  5
28A
 10
69.278
 20
75.237583
 30
0.0
 11
69.316833
 21
75.237417
 31
0.0
  0
LINE
  8
1
  6
CONTINUOUS
 62
     2
  5
28B
 10
68.80675
 20
75.232083
 30
0.0
 11
68.80675
 21
75.245333
 31
0.0
  0
LINE
  8
1
  6
CONTINUOUS
 62
     2
  5
28C
 10
68.784
 20
75.245333
 30
0.0
 11
68.80675
 21
75.232083
 31
0.0
  0
LINE
  8
1
  6
CONTINUOUS
 62
     2
  5
28D
 10
69.316833
 20
75.237417
 30
0.0
 11
69.312333
 21
75.245333
 31
0.0
  0
LINE
  8
1
  6
CONTINUOUS
 62
     2
  5
28E
 10
69.2825
 20
75.245333
 30
0.0
 11
69.278
 21
75.237583
 31
0.0
  0
LINE
  8
1
  6
CONTINUOUS
 62
     2
  5
28F
 10
69.316833
 20
75.237417
 30
0.0
 11
69.312333
 21
75.245333
 31
0.0
  0
LINE
  8
1
  6
CONTINUOUS
 62
     2
  5
290
 10
69.2825
 20
75.245333
 30
0.0
 11
69.278
 21
75.237583
 31
0.0
  0
LINE
  8
1
  6
CONTINUOUS
 62
     2
  5
291
 10
68.294667
 20
75.237583
 30
0.0
 11
68.3335
 21
75.237417
 31
0.0
  0
LINE
  8
1
  6
CONTINUOUS
 62
     2
  5
292
 10
68.294667
 20
75.237583
 30
0.0
 11
68.3335
 21
75.237417
 31
0.0
  0
LINE
  8
1
  6
CONTINUOUS
 62
     2
  5
293
 10
67.823417
 20
75.232083
 30
0.0
 11
67.823417
 21
75.245333
 31
0.0
  0
LINE
  8
1
  6
CONTINUOUS
 62
     2
  5
294
 10
67.800667
 20
75.245333
 30
0.0
 11
67.823417
 21
75.232083
 31
0.0
  0
LINE
  8
1
  6
CONTINUOUS
 62
     2
  5
295
 10
68.3335
 20
75.237417
 30
0.0
 11
68.329
 21
75.245333
 31
0.0
  0
LINE
  8
1
  6
CONTINUOUS
 62
     2
  5
296
 10
68.299167
 20
75.245333
 30
0.0
 11
68.294667
 21
75.237583
 31
0.0
  0
LINE
  8
1
  6
CONTINUOUS
 62
     2
  5
297
 10
68.3335
 20
75.237417
 30
0.0
 11
68.329
 21
75.245333
 31
0.0
  0
LINE
  8
1
  6
CONTINUOUS
 62
     2
  5
298
 10
68.299167
 20
75.245333
 30
0.0
 11
68.294667
 21
75.237583
 31
0.0
  0
CIRCLE
  8
1
  6
CONTINUOUS
 62
     2
  5
299
 10
67.799833
 20
75.104708
 30
0.0
 40
0.002157
210
0.0
220
0.0
230
1.0
  0
CIRCLE
  8
1
  6
CONTINUOUS
 62
     2
  5
29A
 10
68.510083
 20
75.182858
 30
0.0
 40
0.002157
210
0.0
220
0.0
230
1.0
  0
CIRCLE
  8
1
  6
CONTINUOUS
 62
     2
  5
29B
 10
68.275858
 20
75.171683
 30
0.0
 40
0.002157
210
0.0
220
0.0
230
1.0
  0
CIRCLE
  8
1
  6
CONTINUOUS
 62
     2
  5
29C
 10
67.967158
 20
75.182858
 30
0.0
 40
0.002157
210
0.0
220
0.0
230
1.0
  0
CIRCLE
  8
1
  6
CONTINUOUS
 62
     2
  5
29D
 10
68.643958
 20
75.186533
 30
0.0
 40
0.002157
210
0.0
220
0.0
230
1.0
  0
CIRCLE
  8
1
  6
CONTINUOUS
 62
     2
  5
29E
 10
68.130808
 20
75.190283
 30
0.0
 40
0.002157
210
0.0
220
0.0
230
1.0
  0
LINE
  8
1
  6
CONTINUOUS
 62
     2
  5
29F
 10
67.311333
 20
75.237583
 30
0.0
 11
67.350167
 21
75.237417
 31
0.0
  0
LINE
  8
1
  6
CONTINUOUS
 62
     2
  5
2A0
 10
67.401917
 20
75.066
 30
0.0
 11
67.401917
 21
75.089333
 31
0.0
  0
LINE
  8
1
  6
CONTINUOUS
 62
     2
  5
2A1
 10
67.401917
 20
75.089333
 30
0.0
 11
67.368417
 21
75.07
 31
0.0
  0
LINE
  8
1
  6
CONTINUOUS
 62
     2
  5
2A2
 10
67.368417
 20
75.07
 30
0.0
 11
67.37875
 21
75.064
 31
0.0
  0
LINE
  8
1
  6
CONTINUOUS
 62
     2
  5
2A3
 10
67.594833
 20
75.0825
 30
0.0
 11
67.578
 21
75.11175
 31
0.0
  0
LINE
  8
1
  6
CONTINUOUS
 62
     2
  5
2A4
 10
67.578
 20
75.11175
 30
0.0
 11
67.55925
 21
75.0795
 31
0.0
  0
LINE
  8
1
  6
CONTINUOUS
 62
     2
  5
2A5
 10
67.311333
 20
75.237583
 30
0.0
 11
67.350167
 21
75.237417
 31
0.0
  0
LINE
  8
1
  6
CONTINUOUS
 62
     2
  5
2A6
 10
67.350167
 20
75.237417
 30
0.0
 11
67.345667
 21
75.245333
 31
0.0
  0
LINE
  8
1
  6
CONTINUOUS
 62
     2
  5
2A7
 10
67.315833
 20
75.245333
 30
0.0
 11
67.311333
 21
75.237583
 31
0.0
  0
LINE
  8
1
  6
CONTINUOUS
 62
     2
  5
2A8
 10
67.350167
 20
75.237417
 30
0.0
 11
67.345667
 21
75.245333
 31
0.0
  0
LINE
  8
1
  6
CONTINUOUS
 62
     2
  5
2A9
 10
67.315833
 20
75.245333
 30
0.0
 11
67.311333
 21
75.237583
 31
0.0
  0
CIRCLE
  8
1
  6
CONTINUOUS
 62
     2
  5
2AA
 10
67.52675
 20
75.182858
 30
0.0
 40
0.002157
210
0.0
220
0.0
230
1.0
  0
CIRCLE
  8
1
  6
CONTINUOUS
 62
     2
  5
2AB
 10
67.292525
 20
75.171683
 30
0.0
 40
0.002157
210
0.0
220
0.0
230
1.0
  0
CIRCLE
  8
1
  6
CONTINUOUS
 62
     2
  5
2AC
 10
67.2293
 20
75.063833
 30
0.0
 40
0.002157
210
0.0
220
0.0
230
1.0
  0
CIRCLE
  8
1
  6
CONTINUOUS
 62
     2
  5
2AD
 10
67.660625
 20
75.186533
 30
0.0
 40
0.002157
210
0.0
220
0.0
230
1.0
  0
LINE
  8
1
  6
CONTINUOUS
 62
     2
  5
2AE
 10
69.790083
 20
75.270917
 30
0.0
 11
69.789167
 21
75.270333
 31
0.0
  0
LINE
  8
1
  6
CONTINUOUS
 62
     2
  5
2AF
 10
69.75325
 20
75.4935
 30
0.0
 11
69.739833
 21
75.529917
 31
0.0
  0
LINE
  8
1
  6
CONTINUOUS
 62
     2
  5
2B0
 10
69.832
 20
75.619917
 30
0.0
 11
69.812583
 21
75.653583
 31
0.0
  0
LINE
  8
1
  6
CONTINUOUS
 62
     2
  5
2B1
 10
69.812583
 20
75.653583
 30
0.0
 11
69.793083
 21
75.620083
 31
0.0
  0
LINE
  8
1
  6
CONTINUOUS
 62
     2
  5
2B2
 10
69.793083
 20
75.620083
 30
0.0
 11
69.832
 21
75.619917
 31
0.0
  0
LINE
  8
1
  6
CONTINUOUS
 62
     2
  5
2B3
 10
69.739833
 20
75.529917
 30
0.0
 11
69.738
 21
75.527667
 31
0.0
  0
LINE
  8
1
  6
CONTINUOUS
 62
     2
  5
2B4
 10
69.738
 20
75.496167
 30
0.0
 11
69.75325
 21
75.4935
 31
0.0
  0
LINE
  8
1
  6
CONTINUOUS
 62
     2
  5
2B5
 10
69.790083
 20
75.270417
 30
0.0
 11
69.790083
 21
75.270917
 31
0.0
  0
CIRCLE
  8
1
  6
CONTINUOUS
 62
     2
  5
2B6
 10
69.848325
 20
75.379958
 30
0.0
 40
0.002157
210
0.0
220
0.0
230
1.0
  0
CIRCLE
  8
1
  6
CONTINUOUS
 62
     2
  5
2B7
 10
69.97845
 20
75.647708
 30
0.0
 40
0.002157
210
0.0
220
0.0
230
1.0
  0
CIRCLE
  8
1
  6
CONTINUOUS
 62
     2
  5
2B8
 10
69.796275
 20
75.569633
 30
0.0
 40
0.002157
210
0.0
220
0.0
230
1.0
  0
LINE
  8
1
  6
CONTINUOUS
 62
     2
  5
2B9
 10
68.80675
 20
75.270917
 30
0.0
 11
68.77325
 21
75.251583
 31
0.0
  0
LINE
  8
1
  6
CONTINUOUS
 62
     2
  5
2BA
 10
68.769917
 20
75.4935
 30
0.0
 11
68.7565
 21
75.529917
 31
0.0
  0
LINE
  8
1
  6
CONTINUOUS
 62
     2
  5
2BB
 10
68.848667
 20
75.619917
 30
0.0
 11
68.841583
 21
75.63225
 31
0.0
  0
LINE
  8
1
  6
CONTINUOUS
 62
     2
  5
2BC
 10
68.81575
 20
75.6305
 30
0.0
 11
68.80975
 21
75.620083
 31
0.0
  0
LINE
  8
1
  6
CONTINUOUS
 62
     2
  5
2BD
 10
68.80975
 20
75.620083
 30
0.0
 11
68.848667
 21
75.619917
 31
0.0
  0
LINE
  8
1
  6
CONTINUOUS
 62
     2
  5
2BE
 10
68.990417
 20
75.490167
 30
0.0
 11
68.95675
 21
75.509667
 31
0.0
  0
LINE
  8
1
  6
CONTINUOUS
 62
     2
  5
2BF
 10
68.95675
 20
75.509667
 30
0.0
 11
68.95675
 21
75.470833
 31
0.0
  0
LINE
  8
1
  6
CONTINUOUS
 62
     2
  5
2C0
 10
68.95675
 20
75.470833
 30
0.0
 11
68.990417
 21
75.490167
 31
0.0
  0
LINE
  8
1
  6
CONTINUOUS
 62
     2
  5
2C1
 10
69.059667
 20
75.277667
 30
0.0
 11
69.066417
 21
75.315833
 31
0.0
  0
LINE
  8
1
  6
CONTINUOUS
 62
     2
  5
2C2
 10
69.066417
 20
75.315833
 30
0.0
 11
69.03
 21
75.302667
 31
0.0
  0
LINE
  8
1
  6
CONTINUOUS
 62
     2
  5
2C3
 10
69.03
 20
75.302667
 30
0.0
 11
69.059667
 21
75.277667
 31
0.0
  0
LINE
  8
1
  6
CONTINUOUS
 62
     2
  5
2C4
 10
69.19325
 20
75.491667
 30
0.0
 11
69.159583
 21
75.511167
 31
0.0
  0
LINE
  8
1
  6
CONTINUOUS
 62
     2
  5
2C5
 10
69.159583
 20
75.511167
 30
0.0
 11
69.159583
 21
75.472333
 31
0.0
  0
LINE
  8
1
  6
CONTINUOUS
 62
     2
  5
2C6
 10
69.159583
 20
75.472333
 30
0.0
 11
69.19325
 21
75.491667
 31
0.0
  0
LINE
  8
1
  6
CONTINUOUS
 62
     2
  5
2C7
 10
69.119833
 20
75.648083
 30
0.0
 11
69.119833
 21
75.651667
 31
0.0
  0
LINE
  8
1
  6
CONTINUOUS
 62
     2
  5
2C8
 10
69.11425
 20
75.651333
 30
0.0
 11
69.119833
 21
75.648083
 31
0.0
  0
LINE
  8
1
  6
CONTINUOUS
 62
     2
  5
2C9
 10
69.564167
 20
75.658083
 30
0.0
 11
69.526583
 21
75.668083
 31
0.0
  0
LINE
  8
1
  6
CONTINUOUS
 62
     2
  5
2CA
 10
69.526583
 20
75.668083
 30
0.0
 11
69.536583
 21
75.630667
 31
0.0
  0
LINE
  8
1
  6
CONTINUOUS
 62
     2
  5
2CB
 10
69.536583
 20
75.630667
 30
0.0
 11
69.564167
 21
75.658083
 31
0.0
  0
LINE
  8
1
  6
CONTINUOUS
 62
     2
  5
2CC
 10
69.3695
 20
75.590833
 30
0.0
 11
69.356167
 21
75.627333
 31
0.0
  0
LINE
  8
1
  6
CONTINUOUS
 62
     2
  5
2CD
 10
69.356167
 20
75.627333
 30
0.0
 11
69.331333
 21
75.597667
 31
0.0
  0
LINE
  8
1
  6
CONTINUOUS
 62
     2
  5
2CE
 10
69.331333
 20
75.597667
 30
0.0
 11
69.3695
 21
75.590833
 31
0.0
  0
LINE
  8
1
  6
CONTINUOUS
 62
     2
  5
2CF
 10
69.457417
 20
75.42025
 30
0.0
 11
69.419833
 21
75.43025
 31
0.0
  0
LINE
  8
1
  6
CONTINUOUS
 62
     2
  5
2D0
 10
69.419833
 20
75.43025
 30
0.0
 11
69.429917
 21
75.392833
 31
0.0
  0
LINE
  8
1
  6
CONTINUOUS
 62
     2
  5
2D1
 10
69.429917
 20
75.392833
 30
0.0
 11
69.457417
 21
75.42025
 31
0.0
  0
LINE
  8
1
  6
CONTINUOUS
 62
     2
  5
2D2
 10
69.58675
 20
75.268917
 30
0.0
 11
69.58675
 21
75.30775
 31
0.0
  0
LINE
  8
1
  6
CONTINUOUS
 62
     2
  5
2D3
 10
69.58675
 20
75.30775
 30
0.0
 11
69.553167
 21
75.288417
 31
0.0
  0
LINE
  8
1
  6
CONTINUOUS
 62
     2
  5
2D4
 10
69.553167
 20
75.288417
 30
0.0
 11
69.58675
 21
75.268917
 31
0.0
  0
LINE
  8
1
  6
CONTINUOUS
 62
     2
  5
2D5
 10
68.7565
 20
75.529917
 30
0.0
 11
68.754667
 21
75.527667
 31
0.0
  0
LINE
  8
1
  6
CONTINUOUS
 62
     2
  5
2D6
 10
68.754667
 20
75.496167
 30
0.0
 11
68.769917
 21
75.4935
 31
0.0
  0
LINE
  8
1
  6
CONTINUOUS
 62
     2
  5
2D7
 10
69.654667
 20
75.527667
 30
0.0
 11
69.63175
 21
75.500333
 31
0.0
  0
LINE
  8
1
  6
CONTINUOUS
 62
     2
  5
2D8
 10
69.63175
 20
75.500333
 30
0.0
 11
69.654667
 21
75.496167
 31
0.0
  0
LINE
  8
1
  6
CONTINUOUS
 62
     2
  5
2D9
 10
69.654667
 20
75.527667
 30
0.0
 11
69.63175
 21
75.500333
 31
0.0
  0
LINE
  8
1
  6
CONTINUOUS
 62
     2
  5
2DA
 10
69.63175
 20
75.500333
 30
0.0
 11
69.654667
 21
75.496167
 31
0.0
  0
LINE
  8
1
  6
CONTINUOUS
 62
     2
  5
2DB
 10
68.80675
 20
75.245333
 30
0.0
 11
68.80675
 21
75.270917
 31
0.0
  0
LINE
  8
1
  6
CONTINUOUS
 62
     2
  5
2DC
 10
68.77325
 20
75.251583
 30
0.0
 11
68.784
 21
75.245333
 31
0.0
  0
LINE
  8
1
  6
CONTINUOUS
 62
     2
  5
2DD
 10
69.312333
 20
75.245333
 30
0.0
 11
69.297417
 21
75.271083
 31
0.0
  0
LINE
  8
1
  6
CONTINUOUS
 62
     2
  5
2DE
 10
69.297417
 20
75.271083
 30
0.0
 11
69.2825
 21
75.245333
 31
0.0
  0
CIRCLE
  8
1
  6
CONTINUOUS
 62
     2
  5
2DF
 10
68.864992
 20
75.379958
 30
0.0
 40
0.002157
210
0.0
220
0.0
230
1.0
  0
CIRCLE
  8
1
  6
CONTINUOUS
 62
     2
  5
2E0
 10
69.099292
 20
75.406058
 30
0.0
 40
0.002157
210
0.0
220
0.0
230
1.0
  0
CIRCLE
  8
1
  6
CONTINUOUS
 62
     2
  5
2E1
 10
69.333517
 20
75.372533
 30
0.0
 40
0.002157
210
0.0
220
0.0
230
1.0
  0
CIRCLE
  8
1
  6
CONTINUOUS
 62
     2
  5
2E2
 10
69.519517
 20
75.532433
 30
0.0
 40
0.002157
210
0.0
220
0.0
230
1.0
  0
CIRCLE
  8
1
  6
CONTINUOUS
 62
     2
  5
2E3
 10
69.601267
 20
75.376283
 30
0.0
 40
0.002157
210
0.0
220
0.0
230
1.0
  0
CIRCLE
  8
1
  6
CONTINUOUS
 62
     2
  5
2E4
 10
69.448792
 20
75.313058
 30
0.0
 40
0.002157
210
0.0
220
0.0
230
1.0
  0
CIRCLE
  8
1
  6
CONTINUOUS
 62
     2
  5
2E5
 10
69.240592
 20
75.562208
 30
0.0
 40
0.002157
210
0.0
220
0.0
230
1.0
  0
CIRCLE
  8
1
  6
CONTINUOUS
 62
     2
  5
2E6
 10
68.812942
 20
75.569633
 30
0.0
 40
0.002157
210
0.0
220
0.0
230
1.0
  0
CIRCLE
  8
1
  6
CONTINUOUS
 62
     2
  5
2E7
 10
69.210817
 20
75.342833
 30
0.0
 40
0.002157
210
0.0
220
0.0
230
1.0
  0
LINE
  8
1
  6
CONTINUOUS
 62
     2
  5
2E8
 10
67.823417
 20
75.270917
 30
0.0
 11
67.789917
 21
75.251583
 31
0.0
  0
LINE
  8
1
  6
CONTINUOUS
 62
     2
  5
2E9
 10
67.786583
 20
75.4935
 30
0.0
 11
67.773167
 21
75.529917
 31
0.0
  0
LINE
  8
1
  6
CONTINUOUS
 62
     2
  5
2EA
 10
68.007083
 20
75.490167
 30
0.0
 11
67.973417
 21
75.509667
 31
0.0
  0
LINE
  8
1
  6
CONTINUOUS
 62
     2
  5
2EB
 10
67.973417
 20
75.509667
 30
0.0
 11
67.973417
 21
75.470833
 31
0.0
  0
LINE
  8
1
  6
CONTINUOUS
 62
     2
  5
2EC
 10
67.973417
 20
75.470833
 30
0.0
 11
68.007083
 21
75.490167
 31
0.0
  0
LINE
  8
1
  6
CONTINUOUS
 62
     2
  5
2ED
 10
68.076333
 20
75.277667
 30
0.0
 11
68.083083
 21
75.315833
 31
0.0
  0
LINE
  8
1
  6
CONTINUOUS
 62
     2
  5
2EE
 10
68.083083
 20
75.315833
 30
0.0
 11
68.046667
 21
75.302667
 31
0.0
  0
LINE
  8
1
  6
CONTINUOUS
 62
     2
  5
2EF
 10
68.046667
 20
75.302667
 30
0.0
 11
68.076333
 21
75.277667
 31
0.0
  0
LINE
  8
1
  6
CONTINUOUS
 62
     2
  5
2F0
 10
68.209917
 20
75.491667
 30
0.0
 11
68.17625
 21
75.511167
 31
0.0
  0
LINE
  8
1
  6
CONTINUOUS
 62
     2
  5
2F1
 10
68.17625
 20
75.511167
 30
0.0
 11
68.17625
 21
75.472333
 31
0.0
  0
LINE
  8
1
  6
CONTINUOUS
 62
     2
  5
2F2
 10
68.17625
 20
75.472333
 30
0.0
 11
68.209917
 21
75.491667
 31
0.0
  0
LINE
  8
1
  6
CONTINUOUS
 62
     2
  5
2F3
 10
68.386167
 20
75.590833
 30
0.0
 11
68.38275
 21
75.600167
 31
0.0
  0
LINE
  8
1
  6
CONTINUOUS
 62
     2
  5
2F4
 10
68.348083
 20
75.59775
 30
0.0
 11
68.348
 21
75.597667
 31
0.0
  0
LINE
  8
1
  6
CONTINUOUS
 62
     2
  5
2F5
 10
68.348
 20
75.597667
 30
0.0
 11
68.386167
 21
75.590833
 31
0.0
  0
LINE
  8
1
  6
CONTINUOUS
 62
     2
  5
2F6
 10
68.474083
 20
75.42025
 30
0.0
 11
68.4365
 21
75.43025
 31
0.0
  0
LINE
  8
1
  6
CONTINUOUS
 62
     2
  5
2F7
 10
68.4365
 20
75.43025
 30
0.0
 11
68.446583
 21
75.392833
 31
0.0
  0
LINE
  8
1
  6
CONTINUOUS
 62
     2
  5
2F8
 10
68.446583
 20
75.392833
 30
0.0
 11
68.474083
 21
75.42025
 31
0.0
  0
LINE
  8
1
  6
CONTINUOUS
 62
     2
  5
2F9
 10
68.603417
 20
75.268917
 30
0.0
 11
68.603417
 21
75.30775
 31
0.0
  0
LINE
  8
1
  6
CONTINUOUS
 62
     2
  5
2FA
 10
68.603417
 20
75.30775
 30
0.0
 11
68.569833
 21
75.288417
 31
0.0
  0
LINE
  8
1
  6
CONTINUOUS
 62
     2
  5
2FB
 10
68.569833
 20
75.288417
 30
0.0
 11
68.603417
 21
75.268917
 31
0.0
  0
LINE
  8
1
  6
CONTINUOUS
 62
     2
  5
2FC
 10
67.773167
 20
75.529917
 30
0.0
 11
67.771333
 21
75.527667
 31
0.0
  0
LINE
  8
1
  6
CONTINUOUS
 62
     2
  5
2FD
 10
67.771333
 20
75.496167
 30
0.0
 11
67.786583
 21
75.4935
 31
0.0
  0
LINE
  8
1
  6
CONTINUOUS
 62
     2
  5
2FE
 10
68.671333
 20
75.527667
 30
0.0
 11
68.648417
 21
75.500333
 31
0.0
  0
LINE
  8
1
  6
CONTINUOUS
 62
     2
  5
2FF
 10
68.648417
 20
75.500333
 30
0.0
 11
68.671333
 21
75.496167
 31
0.0
  0
LINE
  8
1
  6
CONTINUOUS
 62
     2
  5
300
 10
68.671333
 20
75.527667
 30
0.0
 11
68.648417
 21
75.500333
 31
0.0
  0
LINE
  8
1
  6
CONTINUOUS
 62
     2
  5
301
 10
68.648417
 20
75.500333
 30
0.0
 11
68.671333
 21
75.496167
 31
0.0
  0
LINE
  8
1
  6
CONTINUOUS
 62
     2
  5
302
 10
67.823417
 20
75.245333
 30
0.0
 11
67.823417
 21
75.270917
 31
0.0
  0
LINE
  8
1
  6
CONTINUOUS
 62
     2
  5
303
 10
67.789917
 20
75.251583
 30
0.0
 11
67.800667
 21
75.245333
 31
0.0
  0
LINE
  8
1
  6
CONTINUOUS
 62
     2
  5
304
 10
68.329
 20
75.245333
 30
0.0
 11
68.314083
 21
75.271083
 31
0.0
  0
LINE
  8
1
  6
CONTINUOUS
 62
     2
  5
305
 10
68.314083
 20
75.271083
 30
0.0
 11
68.299167
 21
75.245333
 31
0.0
  0
CIRCLE
  8
1
  6
CONTINUOUS
 62
     2
  5
306
 10
67.881658
 20
75.379958
 30
0.0
 40
0.002157
210
0.0
220
0.0
230
1.0
  0
CIRCLE
  8
1
  6
CONTINUOUS
 62
     2
  5
307
 10
68.115958
 20
75.406058
 30
0.0
 40
0.002157
210
0.0
220
0.0
230
1.0
  0
CIRCLE
  8
1
  6
CONTINUOUS
 62
     2
  5
308
 10
68.350183
 20
75.372533
 30
0.0
 40
0.002157
210
0.0
220
0.0
230
1.0
  0
CIRCLE
  8
1
  6
CONTINUOUS
 62
     2
  5
309
 10
68.536183
 20
75.532433
 30
0.0
 40
0.002157
210
0.0
220
0.0
230
1.0
  0
CIRCLE
  8
1
  6
CONTINUOUS
 62
     2
  5
30A
 10
68.617933
 20
75.376283
 30
0.0
 40
0.002157
210
0.0
220
0.0
230
1.0
  0
CIRCLE
  8
1
  6
CONTINUOUS
 62
     2
  5
30B
 10
68.465458
 20
75.313058
 30
0.0
 40
0.002157
210
0.0
220
0.0
230
1.0
  0
CIRCLE
  8
1
  6
CONTINUOUS
 62
     2
  5
30C
 10
68.257258
 20
75.562208
 30
0.0
 40
0.002157
210
0.0
220
0.0
230
1.0
  0
CIRCLE
  8
1
  6
CONTINUOUS
 62
     2
  5
30D
 10
68.227483
 20
75.342833
 30
0.0
 40
0.002157
210
0.0
220
0.0
230
1.0
  0
LINE
  8
1
  6
CONTINUOUS
 62
     2
  5
30E
 10
67.226583
 20
75.491667
 30
0.0
 11
67.192917
 21
75.511167
 31
0.0
  0
LINE
  8
1
  6
CONTINUOUS
 62
     2
  5
30F
 10
67.192917
 20
75.511167
 30
0.0
 11
67.192917
 21
75.472333
 31
0.0
  0
LINE
  8
1
  6
CONTINUOUS
 62
     2
  5
310
 10
67.192917
 20
75.472333
 30
0.0
 11
67.226583
 21
75.491667
 31
0.0
  0
LINE
  8
1
  6
CONTINUOUS
 62
     2
  5
311
 10
67.49075
 20
75.42025
 30
0.0
 11
67.453167
 21
75.43025
 31
0.0
  0
LINE
  8
1
  6
CONTINUOUS
 62
     2
  5
312
 10
67.453167
 20
75.43025
 30
0.0
 11
67.46325
 21
75.392833
 31
0.0
  0
LINE
  8
1
  6
CONTINUOUS
 62
     2
  5
313
 10
67.46325
 20
75.392833
 30
0.0
 11
67.49075
 21
75.42025
 31
0.0
  0
LINE
  8
1
  6
CONTINUOUS
 62
     2
  5
314
 10
67.620083
 20
75.268917
 30
0.0
 11
67.620083
 21
75.30775
 31
0.0
  0
LINE
  8
1
  6
CONTINUOUS
 62
     2
  5
315
 10
67.620083
 20
75.30775
 30
0.0
 11
67.5865
 21
75.288417
 31
0.0
  0
LINE
  8
1
  6
CONTINUOUS
 62
     2
  5
316
 10
67.5865
 20
75.288417
 30
0.0
 11
67.620083
 21
75.268917
 31
0.0
  0
LINE
  8
1
  6
CONTINUOUS
 62
     2
  5
317
 10
67.688
 20
75.527667
 30
0.0
 11
67.665083
 21
75.500333
 31
0.0
  0
LINE
  8
1
  6
CONTINUOUS
 62
     2
  5
318
 10
67.665083
 20
75.500333
 30
0.0
 11
67.688
 21
75.496167
 31
0.0
  0
LINE
  8
1
  6
CONTINUOUS
 62
     2
  5
319
 10
67.688
 20
75.527667
 30
0.0
 11
67.665083
 21
75.500333
 31
0.0
  0
LINE
  8
1
  6
CONTINUOUS
 62
     2
  5
31A
 10
67.665083
 20
75.500333
 30
0.0
 11
67.688
 21
75.496167
 31
0.0
  0
LINE
  8
1
  6
CONTINUOUS
 62
     2
  5
31B
 10
67.345667
 20
75.245333
 30
0.0
 11
67.33075
 21
75.271083
 31
0.0
  0
LINE
  8
1
  6
CONTINUOUS
 62
     2
  5
31C
 10
67.33075
 20
75.271083
 30
0.0
 11
67.315833
 21
75.245333
 31
0.0
  0
CIRCLE
  8
1
  6
CONTINUOUS
 62
     2
  5
31D
 10
67.36685
 20
75.372533
 30
0.0
 40
0.002157
210
0.0
220
0.0
230
1.0
  0
CIRCLE
  8
1
  6
CONTINUOUS
 62
     2
  5
31E
 10
67.55285
 20
75.532433
 30
0.0
 40
0.002157
210
0.0
220
0.0
230
1.0
  0
CIRCLE
  8
1
  6
CONTINUOUS
 62
     2
  5
31F
 10
67.6346
 20
75.376283
 30
0.0
 40
0.002157
210
0.0
220
0.0
230
1.0
  0
CIRCLE
  8
1
  6
CONTINUOUS
 62
     2
  5
320
 10
67.482125
 20
75.313058
 30
0.0
 40
0.002157
210
0.0
220
0.0
230
1.0
  0
CIRCLE
  8
1
  6
CONTINUOUS
 62
     2
  5
321
 10
67.24415
 20
75.342833
 30
0.0
 40
0.002157
210
0.0
220
0.0
230
1.0
  0
LINE
  8
1
  6
CONTINUOUS
 62
     2
  5
322
 10
72.307083
 20
75.516
 30
0.0
 11
72.307083
 21
75.52925
 31
0.0
  0
LINE
  8
1
  6
CONTINUOUS
 62
     2
  5
323
 10
72.284333
 20
75.52925
 30
0.0
 11
72.307083
 21
75.516
 31
0.0
  0
LINE
  8
1
  6
CONTINUOUS
 62
     2
  5
324
 10
71.795
 20
75.5215
 30
0.0
 11
71.833833
 21
75.521333
 31
0.0
  0
LINE
  8
1
  6
CONTINUOUS
 62
     2
  5
325
 10
71.795
 20
75.5215
 30
0.0
 11
71.833833
 21
75.521333
 31
0.0
  0
LINE
  8
1
  6
CONTINUOUS
 62
     2
  5
326
 10
71.32375
 20
75.516
 30
0.0
 11
71.32375
 21
75.52925
 31
0.0
  0
LINE
  8
1
  6
CONTINUOUS
 62
     2
  5
327
 10
71.301
 20
75.52925
 30
0.0
 11
71.32375
 21
75.516
 31
0.0
  0
LINE
  8
1
  6
CONTINUOUS
 62
     2
  5
328
 10
71.833833
 20
75.521333
 30
0.0
 11
71.829333
 21
75.52925
 31
0.0
  0
LINE
  8
1
  6
CONTINUOUS
 62
     2
  5
329
 10
71.7995
 20
75.52925
 30
0.0
 11
71.795
 21
75.5215
 31
0.0
  0
LINE
  8
1
  6
CONTINUOUS
 62
     2
  5
32A
 10
71.833833
 20
75.521333
 30
0.0
 11
71.829333
 21
75.52925
 31
0.0
  0
LINE
  8
1
  6
CONTINUOUS
 62
     2
  5
32B
 10
71.7995
 20
75.52925
 30
0.0
 11
71.795
 21
75.5215
 31
0.0
  0
CIRCLE
  8
1
  6
CONTINUOUS
 62
     2
  5
32C
 10
71.467492
 20
75.466775
 30
0.0
 40
0.002157
210
0.0
220
0.0
230
1.0
  0
CIRCLE
  8
1
  6
CONTINUOUS
 62
     2
  5
32D
 10
71.631142
 20
75.4742
 30
0.0
 40
0.002157
210
0.0
220
0.0
230
1.0
  0
LINE
  8
1
  6
CONTINUOUS
 62
     2
  5
32E
 10
70.456667
 20
75.358417
 30
0.0
 11
70.437167
 21
75.392083
 31
0.0
  0
LINE
  8
1
  6
CONTINUOUS
 62
     2
  5
32F
 10
70.437167
 20
75.392083
 30
0.0
 11
70.41775
 21
75.358667
 31
0.0
  0
LINE
  8
1
  6
CONTINUOUS
 62
     2
  5
330
 10
70.41775
 20
75.358667
 30
0.0
 11
70.456667
 21
75.358417
 31
0.0
  0
LINE
  8
1
  6
CONTINUOUS
 62
     2
  5
331
 10
70.641917
 20
75.365833
 30
0.0
 11
70.64475
 21
75.38175
 31
0.0
  0
LINE
  8
1
  6
CONTINUOUS
 62
     2
  5
332
 10
70.64475
 20
75.38175
 30
0.0
 11
70.60825
 21
75.3685
 31
0.0
  0
LINE
  8
1
  6
CONTINUOUS
 62
     2
  5
333
 10
70.60825
 20
75.3685
 30
0.0
 11
70.614333
 21
75.363417
 31
0.0
  0
LINE
  8
1
  6
CONTINUOUS
 62
     2
  5
334
 10
70.811667
 20
75.5215
 30
0.0
 11
70.8505
 21
75.521333
 31
0.0
  0
LINE
  8
1
  6
CONTINUOUS
 62
     2
  5
335
 10
70.811667
 20
75.5215
 30
0.0
 11
70.8505
 21
75.521333
 31
0.0
  0
LINE
  8
1
  6
CONTINUOUS
 62
     2
  5
336
 10
70.340417
 20
75.516
 30
0.0
 11
70.340417
 21
75.52925
 31
0.0
  0
LINE
  8
1
  6
CONTINUOUS
 62
     2
  5
337
 10
70.317667
 20
75.52925
 30
0.0
 11
70.340417
 21
75.516
 31
0.0
  0
LINE
  8
1
  6
CONTINUOUS
 62
     2
  5
338
 10
70.8505
 20
75.521333
 30
0.0
 11
70.846
 21
75.52925
 31
0.0
  0
LINE
  8
1
  6
CONTINUOUS
 62
     2
  5
339
 10
70.816167
 20
75.52925
 30
0.0
 11
70.811667
 21
75.5215
 31
0.0
  0
LINE
  8
1
  6
CONTINUOUS
 62
     2
  5
33A
 10
70.8505
 20
75.521333
 30
0.0
 11
70.846
 21
75.52925
 31
0.0
  0
LINE
  8
1
  6
CONTINUOUS
 62
     2
  5
33B
 10
70.816167
 20
75.52925
 30
0.0
 11
70.811667
 21
75.5215
 31
0.0
  0
CIRCLE
  8
1
  6
CONTINUOUS
 62
     2
  5
33C
 10
70.316833
 20
75.388625
 30
0.0
 40
0.002157
210
0.0
220
0.0
230
1.0
  0
CIRCLE
  8
1
  6
CONTINUOUS
 62
     2
  5
33D
 10
71.027083
 20
75.466775
 30
0.0
 40
0.002157
210
0.0
220
0.0
230
1.0
  0
CIRCLE
  8
1
  6
CONTINUOUS
 62
     2
  5
33E
 10
70.792858
 20
75.4556
 30
0.0
 40
0.002157
210
0.0
220
0.0
230
1.0
  0
CIRCLE
  8
1
  6
CONTINUOUS
 62
     2
  5
33F
 10
70.484158
 20
75.466775
 30
0.0
 40
0.002157
210
0.0
220
0.0
230
1.0
  0
CIRCLE
  8
1
  6
CONTINUOUS
 62
     2
  5
340
 10
71.160958
 20
75.47045
 30
0.0
 40
0.002157
210
0.0
220
0.0
230
1.0
  0
CIRCLE
  8
1
  6
CONTINUOUS
 62
     2
  5
341
 10
70.647808
 20
75.4742
 30
0.0
 40
0.002157
210
0.0
220
0.0
230
1.0
  0
LINE
  8
1
  6
CONTINUOUS
 62
     2
  5
342
 10
73.253583
 20
75.777417
 30
0.0
 11
73.240167
 21
75.813833
 31
0.0
  0
LINE
  8
1
  6
CONTINUOUS
 62
     2
  5
343
 10
73.332333
 20
75.903833
 30
0.0
 11
73.312917
 21
75.9375
 31
0.0
  0
LINE
  8
1
  6
CONTINUOUS
 62
     2
  5
344
 10
73.312917
 20
75.9375
 30
0.0
 11
73.293417
 21
75.904
 31
0.0
  0
LINE
  8
1
  6
CONTINUOUS
 62
     2
  5
345
 10
73.293417
 20
75.904
 30
0.0
 11
73.332333
 21
75.903833
 31
0.0
  0
LINE
  8
1
  6
CONTINUOUS
 62
     2
  5
346
 10
73.474083
 20
75.774083
 30
0.0
 11
73.440417
 21
75.793583
 31
0.0
  0
LINE
  8
1
  6
CONTINUOUS
 62
     2
  5
347
 10
73.440417
 20
75.793583
 30
0.0
 11
73.440417
 21
75.75475
 31
0.0
  0
LINE
  8
1
  6
CONTINUOUS
 62
     2
  5
348
 10
73.440417
 20
75.75475
 30
0.0
 11
73.474083
 21
75.774083
 31
0.0
  0
LINE
  8
1
  6
CONTINUOUS
 62
     2
  5
349
 10
73.676917
 20
75.775583
 30
0.0
 11
73.64325
 21
75.795083
 31
0.0
  0
LINE
  8
1
  6
CONTINUOUS
 62
     2
  5
34A
 10
73.64325
 20
75.795083
 30
0.0
 11
73.64325
 21
75.75625
 31
0.0
  0
LINE
  8
1
  6
CONTINUOUS
 62
     2
  5
34B
 10
73.64325
 20
75.75625
 30
0.0
 11
73.676917
 21
75.775583
 31
0.0
  0
LINE
  8
1
  6
CONTINUOUS
 62
     2
  5
34C
 10
73.6035
 20
75.932
 30
0.0
 11
73.6035
 21
75.970833
 31
0.0
  0
LINE
  8
1
  6
CONTINUOUS
 62
     2
  5
34D
 10
73.6035
 20
75.970833
 30
0.0
 11
73.57
 21
75.9515
 31
0.0
  0
LINE
  8
1
  6
CONTINUOUS
 62
     2
  5
34E
 10
73.57
 20
75.9515
 30
0.0
 11
73.6035
 21
75.932
 31
0.0
  0
LINE
  8
1
  6
CONTINUOUS
 62
     2
  5
34F
 10
73.853167
 20
75.87475
 30
0.0
 11
73.839833
 21
75.91125
 31
0.0
  0
LINE
  8
1
  6
CONTINUOUS
 62
     2
  5
350
 10
73.839833
 20
75.91125
 30
0.0
 11
73.815
 21
75.881583
 31
0.0
  0
LINE
  8
1
  6
CONTINUOUS
 62
     2
  5
351
 10
73.815
 20
75.881583
 30
0.0
 11
73.853167
 21
75.87475
 31
0.0
  0
LINE
  8
1
  6
CONTINUOUS
 62
     2
  5
352
 10
73.941083
 20
75.704167
 30
0.0
 11
73.9035
 21
75.714167
 31
0.0
  0
LINE
  8
1
  6
CONTINUOUS
 62
     2
  5
353
 10
73.9035
 20
75.714167
 30
0.0
 11
73.913583
 21
75.67675
 31
0.0
  0
LINE
  8
1
  6
CONTINUOUS
 62
     2
  5
354
 10
73.913583
 20
75.67675
 30
0.0
 11
73.941083
 21
75.704167
 31
0.0
  0
LINE
  8
1
  6
CONTINUOUS
 62
     2
  5
355
 10
73.240167
 20
75.813833
 30
0.0
 11
73.238333
 21
75.811583
 31
0.0
  0
LINE
  8
1
  6
CONTINUOUS
 62
     2
  5
356
 10
73.238333
 20
75.780083
 30
0.0
 11
73.253583
 21
75.777417
 31
0.0
  0
CIRCLE
  8
1
  6
CONTINUOUS
 62
     2
  5
357
 10
73.348658
 20
75.663875
 30
0.0
 40
0.002157
210
0.0
220
0.0
230
1.0
  0
CIRCLE
  8
1
  6
CONTINUOUS
 62
     2
  5
358
 10
73.478783
 20
75.931625
 30
0.0
 40
0.002157
210
0.0
220
0.0
230
1.0
  0
CIRCLE
  8
1
  6
CONTINUOUS
 62
     2
  5
359
 10
73.582958
 20
75.689975
 30
0.0
 40
0.002157
210
0.0
220
0.0
230
1.0
  0
CIRCLE
  8
1
  6
CONTINUOUS
 62
     2
  5
35A
 10
73.817183
 20
75.65645
 30
0.0
 40
0.002157
210
0.0
220
0.0
230
1.0
  0
CIRCLE
  8
1
  6
CONTINUOUS
 62
     2
  5
35B
 10
73.858133
 20
75.98375
 30
0.0
 40
0.002157
210
0.0
220
0.0
230
1.0
  0
CIRCLE
  8
1
  6
CONTINUOUS
 62
     2
  5
35C
 10
73.724258
 20
75.846125
 30
0.0
 40
0.002157
210
0.0
220
0.0
230
1.0
  0
CIRCLE
  8
1
  6
CONTINUOUS
 62
     2
  5
35D
 10
73.296608
 20
75.85355
 30
0.0
 40
0.002157
210
0.0
220
0.0
230
1.0
  0
LINE
  8
1
  6
CONTINUOUS
 62
     2
  5
35E
 10
72.307083
 20
75.554833
 30
0.0
 11
72.273583
 21
75.5355
 31
0.0
  0
LINE
  8
1
  6
CONTINUOUS
 62
     2
  5
35F
 10
72.27025
 20
75.777417
 30
0.0
 11
72.256833
 21
75.813833
 31
0.0
  0
LINE
  8
1
  6
CONTINUOUS
 62
     2
  5
360
 10
72.349
 20
75.903833
 30
0.0
 11
72.335583
 21
75.927
 31
0.0
  0
LINE
  8
1
  6
CONTINUOUS
 62
     2
  5
361
 10
72.322917
 20
75.926
 30
0.0
 11
72.310083
 21
75.904
 31
0.0
  0
LINE
  8
1
  6
CONTINUOUS
 62
     2
  5
362
 10
72.310083
 20
75.904
 30
0.0
 11
72.349
 21
75.903833
 31
0.0
  0
LINE
  8
1
  6
CONTINUOUS
 62
     2
  5
363
 10
72.49075
 20
75.774083
 30
0.0
 11
72.457083
 21
75.793583
 31
0.0
  0
LINE
  8
1
  6
CONTINUOUS
 62
     2
  5
364
 10
72.457083
 20
75.793583
 30
0.0
 11
72.457083
 21
75.75475
 31
0.0
  0
LINE
  8
1
  6
CONTINUOUS
 62
     2
  5
365
 10
72.457083
 20
75.75475
 30
0.0
 11
72.49075
 21
75.774083
 31
0.0
  0
LINE
  8
1
  6
CONTINUOUS
 62
     2
  5
366
 10
72.56
 20
75.561583
 30
0.0
 11
72.56675
 21
75.59975
 31
0.0
  0
LINE
  8
1
  6
CONTINUOUS
 62
     2
  5
367
 10
72.56675
 20
75.59975
 30
0.0
 11
72.530333
 21
75.586583
 31
0.0
  0
LINE
  8
1
  6
CONTINUOUS
 62
     2
  5
368
 10
72.530333
 20
75.586583
 30
0.0
 11
72.56
 21
75.561583
 31
0.0
  0
LINE
  8
1
  6
CONTINUOUS
 62
     2
  5
369
 10
72.693583
 20
75.775583
 30
0.0
 11
72.659917
 21
75.795083
 31
0.0
  0
LINE
  8
1
  6
CONTINUOUS
 62
     2
  5
36A
 10
72.659917
 20
75.795083
 30
0.0
 11
72.659917
 21
75.75625
 31
0.0
  0
LINE
  8
1
  6
CONTINUOUS
 62
     2
  5
36B
 10
72.659917
 20
75.75625
 30
0.0
 11
72.693583
 21
75.775583
 31
0.0
  0
LINE
  8
1
  6
CONTINUOUS
 62
     2
  5
36C
 10
72.620167
 20
75.932
 30
0.0
 11
72.620167
 21
75.950417
 31
0.0
  0
LINE
  8
1
  6
CONTINUOUS
 62
     2
  5
36D
 10
72.592417
 20
75.948167
 30
0.0
 11
72.620167
 21
75.932
 31
0.0
  0
LINE
  8
1
  6
CONTINUOUS
 62
     2
  5
36E
 10
73.0645
 20
75.942
 30
0.0
 11
73.026917
 21
75.952
 31
0.0
  0
LINE
  8
1
  6
CONTINUOUS
 62
     2
  5
36F
 10
73.026917
 20
75.952
 30
0.0
 11
73.036917
 21
75.914583
 31
0.0
  0
LINE
  8
1
  6
CONTINUOUS
 62
     2
  5
370
 10
73.036917
 20
75.914583
 30
0.0
 11
73.0645
 21
75.942
 31
0.0
  0
LINE
  8
1
  6
CONTINUOUS
 62
     2
  5
371
 10
72.869833
 20
75.87475
 30
0.0
 11
72.8565
 21
75.91125
 31
0.0
  0
LINE
  8
1
  6
CONTINUOUS
 62
     2
  5
372
 10
72.8565
 20
75.91125
 30
0.0
 11
72.831667
 21
75.881583
 31
0.0
  0
LINE
  8
1
  6
CONTINUOUS
 62
     2
  5
373
 10
72.831667
 20
75.881583
 30
0.0
 11
72.869833
 21
75.87475
 31
0.0
  0
LINE
  8
1
  6
CONTINUOUS
 62
     2
  5
374
 10
72.95775
 20
75.704167
 30
0.0
 11
72.920167
 21
75.714167
 31
0.0
  0
LINE
  8
1
  6
CONTINUOUS
 62
     2
  5
375
 10
72.920167
 20
75.714167
 30
0.0
 11
72.93025
 21
75.67675
 31
0.0
  0
LINE
  8
1
  6
CONTINUOUS
 62
     2
  5
376
 10
72.93025
 20
75.67675
 30
0.0
 11
72.95775
 21
75.704167
 31
0.0
  0
LINE
  8
1
  6
CONTINUOUS
 62
     2
  5
377
 10
73.087083
 20
75.586
 30
0.0
 11
73.087083
 21
75.591667
 31
0.0
  0
LINE
  8
1
  6
CONTINUOUS
 62
     2
  5
378
 10
73.087083
 20
75.591667
 30
0.0
 11
73.075417
 21
75.585
 31
0.0
  0
LINE
  8
1
  6
CONTINUOUS
 62
     2
  5
379
 10
72.256833
 20
75.813833
 30
0.0
 11
72.255
 21
75.811583
 31
0.0
  0
LINE
  8
1
  6
CONTINUOUS
 62
     2
  5
37A
 10
72.255
 20
75.780083
 30
0.0
 11
72.27025
 21
75.777417
 31
0.0
  0
LINE
  8
1
  6
CONTINUOUS
 62
     2
  5
37B
 10
73.155
 20
75.811583
 30
0.0
 11
73.132083
 21
75.78425
 31
0.0
  0
LINE
  8
1
  6
CONTINUOUS
 62
     2
  5
37C
 10
73.132083
 20
75.78425
 30
0.0
 11
73.155
 21
75.780083
 31
0.0
  0
LINE
  8
1
  6
CONTINUOUS
 62
     2
  5
37D
 10
73.155
 20
75.811583
 30
0.0
 11
73.132083
 21
75.78425
 31
0.0
  0
LINE
  8
1
  6
CONTINUOUS
 62
     2
  5
37E
 10
73.132083
 20
75.78425
 30
0.0
 11
73.155
 21
75.780083
 31
0.0
  0
LINE
  8
1
  6
CONTINUOUS
 62
     2
  5
37F
 10
72.307083
 20
75.52925
 30
0.0
 11
72.307083
 21
75.554833
 31
0.0
  0
LINE
  8
1
  6
CONTINUOUS
 62
     2
  5
380
 10
72.273583
 20
75.5355
 30
0.0
 11
72.284333
 21
75.52925
 31
0.0
  0
CIRCLE
  8
1
  6
CONTINUOUS
 62
     2
  5
381
 10
72.365325
 20
75.663875
 30
0.0
 40
0.002157
210
0.0
220
0.0
230
1.0
  0
CIRCLE
  8
1
  6
CONTINUOUS
 62
     2
  5
382
 10
72.49545
 20
75.931625
 30
0.0
 40
0.002157
210
0.0
220
0.0
230
1.0
  0
CIRCLE
  8
1
  6
CONTINUOUS
 62
     2
  5
383
 10
72.599625
 20
75.689975
 30
0.0
 40
0.002157
210
0.0
220
0.0
230
1.0
  0
CIRCLE
  8
1
  6
CONTINUOUS
 62
     2
  5
384
 10
72.83385
 20
75.65645
 30
0.0
 40
0.002157
210
0.0
220
0.0
230
1.0
  0
CIRCLE
  8
1
  6
CONTINUOUS
 62
     2
  5
385
 10
73.01985
 20
75.81635
 30
0.0
 40
0.002157
210
0.0
220
0.0
230
1.0
  0
CIRCLE
  8
1
  6
CONTINUOUS
 62
     2
  5
386
 10
73.1016
 20
75.6602
 30
0.0
 40
0.002157
210
0.0
220
0.0
230
1.0
  0
CIRCLE
  8
1
  6
CONTINUOUS
 62
     2
  5
387
 10
72.949125
 20
75.596975
 30
0.0
 40
0.002157
210
0.0
220
0.0
230
1.0
  0
CIRCLE
  8
1
  6
CONTINUOUS
 62
     2
  5
388
 10
72.740925
 20
75.846125
 30
0.0
 40
0.002157
210
0.0
220
0.0
230
1.0
  0
CIRCLE
  8
1
  6
CONTINUOUS
 62
     2
  5
389
 10
72.313275
 20
75.85355
 30
0.0
 40
0.002157
210
0.0
220
0.0
230
1.0
  0
CIRCLE
  8
1
  6
CONTINUOUS
 62
     2
  5
38A
 10
72.71115
 20
75.62675
 30
0.0
 40
0.002157
210
0.0
220
0.0
230
1.0
  0
LINE
  8
1
  6
CONTINUOUS
 62
     2
  5
38B
 10
71.32375
 20
75.554833
 30
0.0
 11
71.29025
 21
75.5355
 31
0.0
  0
LINE
  8
1
  6
CONTINUOUS
 62
     2
  5
38C
 10
71.286917
 20
75.777417
 30
0.0
 11
71.2735
 21
75.813833
 31
0.0
  0
LINE
  8
1
  6
CONTINUOUS
 62
     2
  5
38D
 10
71.507417
 20
75.774083
 30
0.0
 11
71.47375
 21
75.793583
 31
0.0
  0
LINE
  8
1
  6
CONTINUOUS
 62
     2
  5
38E
 10
71.47375
 20
75.793583
 30
0.0
 11
71.47375
 21
75.75475
 31
0.0
  0
LINE
  8
1
  6
CONTINUOUS
 62
     2
  5
38F
 10
71.47375
 20
75.75475
 30
0.0
 11
71.507417
 21
75.774083
 31
0.0
  0
LINE
  8
1
  6
CONTINUOUS
 62
     2
  5
390
 10
71.576667
 20
75.561583
 30
0.0
 11
71.583417
 21
75.59975
 31
0.0
  0
LINE
  8
1
  6
CONTINUOUS
 62
     2
  5
391
 10
71.583417
 20
75.59975
 30
0.0
 11
71.547
 21
75.586583
 31
0.0
  0
LINE
  8
1
  6
CONTINUOUS
 62
     2
  5
392
 10
71.547
 20
75.586583
 30
0.0
 11
71.576667
 21
75.561583
 31
0.0
  0
LINE
  8
1
  6
CONTINUOUS
 62
     2
  5
393
 10
71.71025
 20
75.775583
 30
0.0
 11
71.676583
 21
75.795083
 31
0.0
  0
LINE
  8
1
  6
CONTINUOUS
 62
     2
  5
394
 10
71.676583
 20
75.795083
 30
0.0
 11
71.676583
 21
75.75625
 31
0.0
  0
LINE
  8
1
  6
CONTINUOUS
 62
     2
  5
395
 10
71.676583
 20
75.75625
 30
0.0
 11
71.71025
 21
75.775583
 31
0.0
  0
LINE
  8
1
  6
CONTINUOUS
 62
     2
  5
396
 10
71.8865
 20
75.87475
 30
0.0
 11
71.881083
 21
75.889667
 31
0.0
  0
LINE
  8
1
  6
CONTINUOUS
 62
     2
  5
397
 10
71.853167
 20
75.887417
 30
0.0
 11
71.848333
 21
75.881583
 31
0.0
  0
LINE
  8
1
  6
CONTINUOUS
 62
     2
  5
398
 10
71.848333
 20
75.881583
 30
0.0
 11
71.8865
 21
75.87475
 31
0.0
  0
LINE
  8
1
  6
CONTINUOUS
 62
     2
  5
399
 10
71.974417
 20
75.704167
 30
0.0
 11
71.936833
 21
75.714167
 31
0.0
  0
LINE
  8
1
  6
CONTINUOUS
 62
     2
  5
39A
 10
71.936833
 20
75.714167
 30
0.0
 11
71.946917
 21
75.67675
 31
0.0
  0
LINE
  8
1
  6
CONTINUOUS
 62
     2
  5
39B
 10
71.946917
 20
75.67675
 30
0.0
 11
71.974417
 21
75.704167
 31
0.0
  0
LINE
  8
1
  6
CONTINUOUS
 62
     2
  5
39C
 10
72.10375
 20
75.552833
 30
0.0
 11
72.10375
 21
75.591667
 31
0.0
  0
LINE
  8
1
  6
CONTINUOUS
 62
     2
  5
39D
 10
72.10375
 20
75.591667
 30
0.0
 11
72.070167
 21
75.572333
 31
0.0
  0
LINE
  8
1
  6
CONTINUOUS
 62
     2
  5
39E
 10
72.070167
 20
75.572333
 30
0.0
 11
72.10375
 21
75.552833
 31
0.0
  0
LINE
  8
1
  6
CONTINUOUS
 62
     2
  5
39F
 10
71.2735
 20
75.813833
 30
0.0
 11
71.271667
 21
75.811583
 31
0.0
  0
LINE
  8
1
  6
CONTINUOUS
 62
     2
  5
3A0
 10
71.271667
 20
75.780083
 30
0.0
 11
71.286917
 21
75.777417
 31
0.0
  0
LINE
  8
1
  6
CONTINUOUS
 62
     2
  5
3A1
 10
72.171667
 20
75.811583
 30
0.0
 11
72.14875
 21
75.78425
 31
0.0
  0
LINE
  8
1
  6
CONTINUOUS
 62
     2
  5
3A2
 10
72.14875
 20
75.78425
 30
0.0
 11
72.171667
 21
75.780083
 31
0.0
  0
LINE
  8
1
  6
CONTINUOUS
 62
     2
  5
3A3
 10
72.171667
 20
75.811583
 30
0.0
 11
72.14875
 21
75.78425
 31
0.0
  0
LINE
  8
1
  6
CONTINUOUS
 62
     2
  5
3A4
 10
72.14875
 20
75.78425
 30
0.0
 11
72.171667
 21
75.780083
 31
0.0
  0
LINE
  8
1
  6
CONTINUOUS
 62
     2
  5
3A5
 10
71.32375
 20
75.52925
 30
0.0
 11
71.32375
 21
75.554833
 31
0.0
  0
LINE
  8
1
  6
CONTINUOUS
 62
     2
  5
3A6
 10
71.29025
 20
75.5355
 30
0.0
 11
71.301
 21
75.52925
 31
0.0
  0
LINE
  8
1
  6
CONTINUOUS
 62
     2
  5
3A7
 10
71.829333
 20
75.52925
 30
0.0
 11
71.814417
 21
75.555
 31
0.0
  0
LINE
  8
1
  6
CONTINUOUS
 62
     2
  5
3A8
 10
71.814417
 20
75.555
 30
0.0
 11
71.7995
 21
75.52925
 31
0.0
  0
CIRCLE
  8
1
  6
CONTINUOUS
 62
     2
  5
3A9
 10
71.381992
 20
75.663875
 30
0.0
 40
0.002157
210
0.0
220
0.0
230
1.0
  0
CIRCLE
  8
1
  6
CONTINUOUS
 62
     2
  5
3AA
 10
71.616292
 20
75.689975
 30
0.0
 40
0.002157
210
0.0
220
0.0
230
1.0
  0
CIRCLE
  8
1
  6
CONTINUOUS
 62
     2
  5
3AB
 10
71.850517
 20
75.65645
 30
0.0
 40
0.002157
210
0.0
220
0.0
230
1.0
  0
CIRCLE
  8
1
  6
CONTINUOUS
 62
     2
  5
3AC
 10
72.036517
 20
75.81635
 30
0.0
 40
0.002157
210
0.0
220
0.0
230
1.0
  0
CIRCLE
  8
1
  6
CONTINUOUS
 62
     2
  5
3AD
 10
72.118267
 20
75.6602
 30
0.0
 40
0.002157
210
0.0
220
0.0
230
1.0
  0
CIRCLE
  8
1
  6
CONTINUOUS
 62
     2
  5
3AE
 10
71.965792
 20
75.596975
 30
0.0
 40
0.002157
210
0.0
220
0.0
230
1.0
  0
CIRCLE
  8
1
  6
CONTINUOUS
 62
     2
  5
3AF
 10
71.757592
 20
75.846125
 30
0.0
 40
0.002157
210
0.0
220
0.0
230
1.0
  0
CIRCLE
  8
1
  6
CONTINUOUS
 62
     2
  5
3B0
 10
71.727817
 20
75.62675
 30
0.0
 40
0.002157
210
0.0
220
0.0
230
1.0
  0
LINE
  8
1
  6
CONTINUOUS
 62
     2
  5
3B1
 10
70.340417
 20
75.554833
 30
0.0
 11
70.306917
 21
75.5355
 31
0.0
  0
LINE
  8
1
  6
CONTINUOUS
 62
     2
  5
3B2
 10
70.524083
 20
75.774083
 30
0.0
 11
70.518
 21
75.777583
 31
0.0
  0
LINE
  8
1
  6
CONTINUOUS
 62
     2
  5
3B3
 10
70.490417
 20
75.775333
 30
0.0
 11
70.490417
 21
75.75475
 31
0.0
  0
LINE
  8
1
  6
CONTINUOUS
 62
     2
  5
3B4
 10
70.490417
 20
75.75475
 30
0.0
 11
70.524083
 21
75.774083
 31
0.0
  0
LINE
  8
1
  6
CONTINUOUS
 62
     2
  5
3B5
 10
70.593333
 20
75.561583
 30
0.0
 11
70.600083
 21
75.59975
 31
0.0
  0
LINE
  8
1
  6
CONTINUOUS
 62
     2
  5
3B6
 10
70.600083
 20
75.59975
 30
0.0
 11
70.563667
 21
75.586583
 31
0.0
  0
LINE
  8
1
  6
CONTINUOUS
 62
     2
  5
3B7
 10
70.563667
 20
75.586583
 30
0.0
 11
70.593333
 21
75.561583
 31
0.0
  0
LINE
  8
1
  6
CONTINUOUS
 62
     2
  5
3B8
 10
70.726917
 20
75.775583
 30
0.0
 11
70.697917
 21
75.792417
 31
0.0
  0
LINE
  8
1
  6
CONTINUOUS
 62
     2
  5
3B9
 10
70.69325
 20
75.792
 30
0.0
 11
70.69325
 21
75.75625
 31
0.0
  0
LINE
  8
1
  6
CONTINUOUS
 62
     2
  5
3BA
 10
70.69325
 20
75.75625
 30
0.0
 11
70.726917
 21
75.775583
 31
0.0
  0
LINE
  8
1
  6
CONTINUOUS
 62
     2
  5
3BB
 10
70.991083
 20
75.704167
 30
0.0
 11
70.9535
 21
75.714167
 31
0.0
  0
LINE
  8
1
  6
CONTINUOUS
 62
     2
  5
3BC
 10
70.9535
 20
75.714167
 30
0.0
 11
70.963583
 21
75.67675
 31
0.0
  0
LINE
  8
1
  6
CONTINUOUS
 62
     2
  5
3BD
 10
70.963583
 20
75.67675
 30
0.0
 11
70.991083
 21
75.704167
 31
0.0
  0
LINE
  8
1
  6
CONTINUOUS
 62
     2
  5
3BE
 10
71.120417
 20
75.552833
 30
0.0
 11
71.120417
 21
75.591667
 31
0.0
  0
LINE
  8
1
  6
CONTINUOUS
 62
     2
  5
3BF
 10
71.120417
 20
75.591667
 30
0.0
 11
71.086833
 21
75.572333
 31
0.0
  0
LINE
  8
1
  6
CONTINUOUS
 62
     2
  5
3C0
 10
71.086833
 20
75.572333
 30
0.0
 11
71.120417
 21
75.552833
 31
0.0
  0
LINE
  8
1
  6
CONTINUOUS
 62
     2
  5
3C1
 10
71.188333
 20
75.811583
 30
0.0
 11
71.165417
 21
75.78425
 31
0.0
  0
LINE
  8
1
  6
CONTINUOUS
 62
     2
  5
3C2
 10
71.165417
 20
75.78425
 30
0.0
 11
71.188333
 21
75.780083
 31
0.0
  0
LINE
  8
1
  6
CONTINUOUS
 62
     2
  5
3C3
 10
71.188333
 20
75.811583
 30
0.0
 11
71.165417
 21
75.78425
 31
0.0
  0
LINE
  8
1
  6
CONTINUOUS
 62
     2
  5
3C4
 10
71.165417
 20
75.78425
 30
0.0
 11
71.188333
 21
75.780083
 31
0.0
  0
LINE
  8
1
  6
CONTINUOUS
 62
     2
  5
3C5
 10
70.340417
 20
75.52925
 30
0.0
 11
70.340417
 21
75.554833
 31
0.0
  0
LINE
  8
1
  6
CONTINUOUS
 62
     2
  5
3C6
 10
70.306917
 20
75.5355
 30
0.0
 11
70.317667
 21
75.52925
 31
0.0
  0
LINE
  8
1
  6
CONTINUOUS
 62
     2
  5
3C7
 10
70.846
 20
75.52925
 30
0.0
 11
70.831083
 21
75.555
 31
0.0
  0
LINE
  8
1
  6
CONTINUOUS
 62
     2
  5
3C8
 10
70.831083
 20
75.555
 30
0.0
 11
70.816167
 21
75.52925
 31
0.0
  0
CIRCLE
  8
1
  6
CONTINUOUS
 62
     2
  5
3C9
 10
70.398658
 20
75.663875
 30
0.0
 40
0.002157
210
0.0
220
0.0
230
1.0
  0
CIRCLE
  8
1
  6
CONTINUOUS
 62
     2
  5
3CA
 10
70.632958
 20
75.689975
 30
0.0
 40
0.002157
210
0.0
220
0.0
230
1.0
  0
CIRCLE
  8
1
  6
CONTINUOUS
 62
     2
  5
3CB
 10
70.867183
 20
75.65645
 30
0.0
 40
0.002157
210
0.0
220
0.0
230
1.0
  0
CIRCLE
  8
1
  6
CONTINUOUS
 62
     2
  5
3CC
 10
71.053183
 20
75.81635
 30
0.0
 40
0.002157
210
0.0
220
0.0
230
1.0
  0
CIRCLE
  8
1
  6
CONTINUOUS
 62
     2
  5
3CD
 10
71.134933
 20
75.6602
 30
0.0
 40
0.002157
210
0.0
220
0.0
230
1.0
  0
CIRCLE
  8
1
  6
CONTINUOUS
 62
     2
  5
3CE
 10
70.982458
 20
75.596975
 30
0.0
 40
0.002157
210
0.0
220
0.0
230
1.0
  0
CIRCLE
  8
1
  6
CONTINUOUS
 62
     2
  5
3CF
 10
70.744483
 20
75.62675
 30
0.0
 40
0.002157
210
0.0
220
0.0
230
1.0
  0
LINE
  8
1
  6
CONTINUOUS
 62
     2
  5
3D0
 10
71.320167
 20
83.047333
 30
0.0
 11
71.320167
 21
83.070917
 31
0.0
  0
LINE
  8
1
  6
CONTINUOUS
 62
     2
  5
3D1
 10
71.236833
 20
83.004833
 30
0.0
 11
71.236833
 21
83.164
 31
0.0
  0
LINE
  8
1
  6
CONTINUOUS
 62
     2
  5
3D2
 10
71.1535
 20
82.962417
 30
0.0
 11
71.1535
 21
83.257083
 31
0.0
  0
LINE
  8
1
  6
CONTINUOUS
 62
     2
  5
3D3
 10
71.070167
 20
82.919917
 30
0.0
 11
71.070167
 21
83.350167
 31
0.0
  0
LINE
  8
1
  6
CONTINUOUS
 62
     2
  5
3D4
 10
70.986833
 20
82.877417
 30
0.0
 11
70.986833
 21
83.320667
 31
0.0
  0
LINE
  8
1
  6
CONTINUOUS
 62
     2
  5
3D5
 10
70.9035
 20
82.834917
 30
0.0
 11
70.9035
 21
82.880333
 31
0.0
  0
LINE
  8
1
  6
CONTINUOUS
 62
     2
  5
3D6
 10
71.628917
 20
83.448833
 30
0.0
 11
71.628917
 21
83.696917
 31
0.0
  0
LINE
  8
1
  6
CONTINUOUS
 62
     2
  5
3D7
 10
71.545583
 20
83.338
 30
0.0
 11
71.545583
 21
83.6975
 31
0.0
  0
LINE
  8
1
  6
CONTINUOUS
 62
     2
  5
3D8
 10
71.46225
 20
83.420833
 30
0.0
 11
71.46225
 21
83.698083
 31
0.0
  0
LINE
  8
1
  6
CONTINUOUS
 62
     2
  5
3D9
 10
71.378917
 20
83.503667
 30
0.0
 11
71.378917
 21
83.685417
 31
0.0
  0
LINE
  8
1
  6
CONTINUOUS
 62
     2
  5
3DA
 10
71.295583
 20
83.5865
 30
0.0
 11
71.295583
 21
83.649417
 31
0.0
  0
LINE
  8
1
  6
CONTINUOUS
 62
     2
  5
3DB
 10
71.335083
 20
83.058917
 30
0.0
 11
71.576917
 21
83.300667
 31
0.0
  0
LINE
  8
1
  6
CONTINUOUS
 62
     2
  5
3DC
 10
71.278917
 20
83.120583
 30
0.0
 11
71.518333
 21
83.36
 31
0.0
  0
LINE
  8
1
  6
CONTINUOUS
 62
     2
  5
3DD
 10
71.222667
 20
83.182167
 30
0.0
 11
71.459833
 21
83.419333
 31
0.0
  0
LINE
  8
1
  6
CONTINUOUS
 62
     2
  5
3DE
 10
71.166417
 20
83.24375
 30
0.0
 11
71.40125
 21
83.478583
 31
0.0
  0
LINE
  8
1
  6
CONTINUOUS
 62
     2
  5
3DF
 10
71.110167
 20
83.305417
 30
0.0
 11
71.342667
 21
83.537917
 31
0.0
  0
LINE
  8
1
  6
CONTINUOUS
 62
     2
  5
3E0
 10
71.053917
 20
83.367
 30
0.0
 11
71.284167
 21
83.59725
 31
0.0
  0
LINE
  8
1
  6
CONTINUOUS
 62
     2
  5
3E1
 10
64.929583
 20
87.459833
 30
0.0
 11
64.996
 21
87.52625
 31
0.0
  0
LINE
  8
1
  6
CONTINUOUS
 62
     2
  5
3E2
 10
64.812167
 20
87.460167
 30
0.0
 11
64.996
 21
87.644083
 31
0.0
  0
LINE
  8
1
  6
CONTINUOUS
 62
     2
  5
3E3
 10
64.694667
 20
87.460583
 30
0.0
 11
64.996
 21
87.761917
 31
0.0
  0
LINE
  8
1
  6
CONTINUOUS
 62
     2
  5
3E4
 10
64.57725
 20
87.461
 30
0.0
 11
64.71125
 21
87.595083
 31
0.0
  0
LINE
  8
1
  6
CONTINUOUS
 62
     2
  5
3E5
 10
65.793417
 20
87.453917
 30
0.0
 11
65.823417
 21
87.483917
 31
0.0
  0
LINE
  8
1
  6
CONTINUOUS
 62
     2
  5
3E6
 10
65.67675
 20
87.455083
 30
0.0
 11
65.75475
 21
87.533083
 31
0.0
  0
LINE
  8
1
  6
CONTINUOUS
 62
     2
  5
3E7
 10
65.560083
 20
87.45625
 30
0.0
 11
65.686083
 21
87.58225
 31
0.0
  0
LINE
  8
1
  6
CONTINUOUS
 62
     2
  5
3E8
 10
65.443417
 20
87.457417
 30
0.0
 11
65.617417
 21
87.631417
 31
0.0
  0
LINE
  8
1
  6
CONTINUOUS
 62
     2
  5
3E9
 10
65.387583
 20
87.519417
 30
0.0
 11
65.54875
 21
87.680667
 31
0.0
  0
LINE
  8
1
  6
CONTINUOUS
 62
     2
  5
3EA
 10
65.389833
 20
87.639583
 30
0.0
 11
65.480083
 21
87.729833
 31
0.0
  0
LINE
  8
1
  6
CONTINUOUS
 62
     2
  5
3EB
 10
65.392167
 20
87.759667
 30
0.0
 11
65.4115
 21
87.779
 31
0.0
  0
LINE
  8
1
  6
CONTINUOUS
 62
     2
  5
3EC
 10
65.34025
 20
87.459417
 30
0.0
 11
65.34025
 21
87.793083
 31
0.0
  0
LINE
  8
1
  6
CONTINUOUS
 62
     2
  5
3ED
 10
65.256917
 20
87.459083
 30
0.0
 11
65.256917
 21
87.794083
 31
0.0
  0
LINE
  8
1
  6
CONTINUOUS
 62
     2
  5
3EE
 10
65.173583
 20
87.45875
 30
0.0
 11
65.173583
 21
87.795083
 31
0.0
  0
LINE
  8
1
  6
CONTINUOUS
 62
     2
  5
3EF
 10
65.09025
 20
87.458417
 30
0.0
 11
65.09025
 21
87.796167
 31
0.0
  0
LINE
  8
1
  6
CONTINUOUS
 62
     2
  5
3F0
 10
65.006917
 20
87.458083
 30
0.0
 11
65.006917
 21
87.797167
 31
0.0
  0
LINE
  8
1
  6
CONTINUOUS
 62
     2
  5
3F1
 10
66.76725
 20
88.596917
 30
0.0
 11
66.76725
 21
89.00575
 31
0.0
  0
LINE
  8
1
  6
CONTINUOUS
 62
     2
  5
3F2
 10
66.683917
 20
88.74375
 30
0.0
 11
66.683917
 21
89.008
 31
0.0
  0
LINE
  8
1
  6
CONTINUOUS
 62
     2
  5
3F3
 10
66.600583
 20
88.890583
 30
0.0
 11
66.600583
 21
89.01025
 31
0.0
  0
LINE
  8
1
  6
CONTINUOUS
 62
     2
  5
3F4
 10
66.791333
 20
89.385917
 30
0.0
 11
66.791333
 21
89.809417
 31
0.0
  0
LINE
  8
1
  6
CONTINUOUS
 62
     2
  5
3F5
 10
66.708
 20
89.388333
 30
0.0
 11
66.708
 21
89.66975
 31
0.0
  0
LINE
  8
1
  6
CONTINUOUS
 62
     2
  5
3F6
 10
66.624667
 20
89.390667
 30
0.0
 11
66.624667
 21
89.53
 31
0.0
  0
LINE
  8
1
  6
CONTINUOUS
 62
     2
  5
3F7
 10
66.74775
 20
89.007333
 30
0.0
 11
66.841833
 21
89.101417
 31
0.0
  0
LINE
  8
1
  6
CONTINUOUS
 62
     2
  5
3F8
 10
66.630917
 20
89.008417
 30
0.0
 11
66.841833
 21
89.219333
 31
0.0
  0
LINE
  8
1
  6
CONTINUOUS
 62
     2
  5
3F9
 10
66.529333
 20
89.024667
 30
0.0
 11
66.841833
 21
89.337167
 31
0.0
  0
LINE
  8
1
  6
CONTINUOUS
 62
     2
  5
3FA
 10
66.533917
 20
89.147083
 30
0.0
 11
66.769917
 21
89.383083
 31
0.0
  0
LINE
  8
1
  6
CONTINUOUS
 62
     2
  5
3FB
 10
66.5385
 20
89.2695
 30
0.0
 11
66.65425
 21
89.38525
 31
0.0
  0
LINE
  8
1
  6
CONTINUOUS
 62
     2
  5
3FC
 10
70.997583
 20
87.852333
 30
0.0
 11
71.305917
 21
88.160667
 31
0.0
  0
LINE
  8
1
  6
CONTINUOUS
 62
     2
  5
3FD
 10
70.973833
 20
87.946417
 30
0.0
 11
71.216333
 21
88.188917
 31
0.0
  0
LINE
  8
1
  6
CONTINUOUS
 62
     2
  5
3FE
 10
70.96925
 20
88.059667
 30
0.0
 11
71.12675
 21
88.21725
 31
0.0
  0
LINE
  8
1
  6
CONTINUOUS
 62
     2
  5
3FF
 10
70.96475
 20
88.173
 30
0.0
 11
71.03725
 21
88.2455
 31
0.0
  0
LINE
  8
1
  6
CONTINUOUS
 62
     2
  5
400
 10
71.686583
 20
87.420833
 30
0.0
 11
71.749417
 21
87.483667
 31
0.0
  0
LINE
  8
1
  6
CONTINUOUS
 62
     2
  5
401
 10
71.58025
 20
87.432333
 30
0.0
 11
71.718
 21
87.570167
 31
0.0
  0
LINE
  8
1
  6
CONTINUOUS
 62
     2
  5
402
 10
71.48
 20
87.449917
 30
0.0
 11
71.686583
 21
87.656583
 31
0.0
  0
LINE
  8
1
  6
CONTINUOUS
 62
     2
  5
403
 10
71.387333
 20
87.475167
 30
0.0
 11
71.655167
 21
87.743
 31
0.0
  0
LINE
  8
1
  6
CONTINUOUS
 62
     2
  5
404
 10
71.304917
 20
87.510583
 30
0.0
 11
71.62375
 21
87.829417
 31
0.0
  0
LINE
  8
1
  6
CONTINUOUS
 62
     2
  5
405
 10
71.582833
 20
87.853917
 30
0.0
 11
71.582833
 21
87.895333
 31
0.0
  0
LINE
  8
1
  6
CONTINUOUS
 62
     2
  5
406
 10
71.4995
 20
87.764833
 30
0.0
 11
71.4995
 21
87.983333
 31
0.0
  0
LINE
  8
1
  6
CONTINUOUS
 62
     2
  5
407
 10
71.416167
 20
87.67575
 30
0.0
 11
71.416167
 21
88.07125
 31
0.0
  0
LINE
  8
1
  6
CONTINUOUS
 62
     2
  5
408
 10
71.332833
 20
87.586667
 30
0.0
 11
71.332833
 21
88.152917
 31
0.0
  0
LINE
  8
1
  6
CONTINUOUS
 62
     2
  5
409
 10
71.2495
 20
87.545833
 30
0.0
 11
71.2495
 21
88.064417
 31
0.0
  0
LINE
  8
1
  6
CONTINUOUS
 62
     2
  5
40A
 10
71.166167
 20
87.604583
 30
0.0
 11
71.166167
 21
87.976
 31
0.0
  0
LINE
  8
1
  6
CONTINUOUS
 62
     2
  5
40B
 10
71.082833
 20
87.701583
 30
0.0
 11
71.082833
 21
87.8875
 31
0.0
  0
LINE
  8
1
  6
CONTINUOUS
 62
     2
  5
40C
 10
56.176583
 20
82.355417
 30
0.0
 11
56.176583
 21
82.54575
 31
0.0
  0
LINE
  8
1
  6
CONTINUOUS
 62
     2
  5
40D
 10
56.151083
 20
80.838333
 30
0.0
 11
56.20075
 21
80.888
 31
0.0
  0
LINE
  8
1
  6
CONTINUOUS
 62
     2
  5
40E
 10
55.34625
 20
81.094167
 30
0.0
 11
56.187917
 21
81.935833
 31
0.0
  0
LINE
  8
1
  6
CONTINUOUS
 62
     2
  5
40F
 10
55.266417
 20
81.13225
 30
0.0
 11
56.1865
 21
82.05225
 31
0.0
  0
LINE
  8
1
  6
CONTINUOUS
 62
     2
  5
410
 10
55.186667
 20
81.17025
 30
0.0
 11
56.185
 21
82.168667
 31
0.0
  0
LINE
  8
1
  6
CONTINUOUS
 62
     2
  5
411
 10
55.106833
 20
81.20825
 30
0.0
 11
56.183583
 21
82.285083
 31
0.0
  0
LINE
  8
1
  6
CONTINUOUS
 62
     2
  5
412
 10
55.027
 20
81.246333
 30
0.0
 11
56.182167
 21
82.4015
 31
0.0
  0
LINE
  8
1
  6
CONTINUOUS
 62
     2
  5
413
 10
54.947167
 20
81.284333
 30
0.0
 11
56.18075
 21
82.517917
 31
0.0
  0
LINE
  8
1
  6
CONTINUOUS
 62
     2
  5
414
 10
54.867333
 20
81.322333
 30
0.0
 11
55.937
 21
82.392
 31
0.0
  0
LINE
  8
1
  6
CONTINUOUS
 62
     2
  5
415
 10
54.7875
 20
81.360333
 30
0.0
 11
55.640417
 21
82.21325
 31
0.0
  0
LINE
  8
1
  6
CONTINUOUS
 62
     2
  5
416
 10
54.707667
 20
81.398417
 30
0.0
 11
55.343833
 21
82.0345
 31
0.0
  0
LINE
  8
1
  6
CONTINUOUS
 62
     2
  5
417
 10
54.627833
 20
81.436417
 30
0.0
 11
55.04725
 21
81.855833
 31
0.0
  0
LINE
  8
1
  6
CONTINUOUS
 62
     2
  5
418
 10
54.548
 20
81.474417
 30
0.0
 11
54.750667
 21
81.677083
 31
0.0
  0
LINE
  8
1
  6
CONTINUOUS
 62
     2
  5
419
 10
59.33375
 20
81.463583
 30
0.0
 11
59.339833
 21
81.469667
 31
0.0
  0
LINE
  8
1
  6
CONTINUOUS
 62
     2
  5
41A
 10
57.446083
 20
82.522167
 30
0.0
 11
57.465833
 21
82.541917
 31
0.0
  0
TEXT
  8
1
  6
CONTINUOUS
 62
     2
  5
41B
 10
56.891333
 20
73.4425
 30
0.0
 40
0.2
  1
Type III RAMP
  7
ROMANS
210
0.0
220
0.0
230
1.0
  0
TEXT
  8
1
  6
CONTINUOUS
 62
     2
  5
41C
 10
67.536083
 20
73.96275
 30
0.0
 40
0.2
  1
Typical Ramp Section
  7
ROMANS
210
0.0
220
0.0
230
1.0
  0
TEXT
  8
1
  6
CONTINUOUS
 62
     2
  5
41D
 10
66.999
 20
73.551917
 30
0.0
 40
0.2
  1
(TYPE I, II, III, IV AND V)
  7
ROMANS
210
0.0
220
0.0
230
1.0
  0
TEXT
  8
1
  6
CONTINUOUS
 62
     2
  5
41E
 10
56.037
 20
79.216167
 30
0.0
 40
0.2
  1
Type II RAMP
  7
ROMANS
210
0.0
220
0.0
230
1.0
  0
TEXT
  8
1
  6
CONTINUOUS
 62
     2
  5
41F
 10
64.45325
 20
88.61475
 30
0.0
 40
0.2
  1
Type I
  7
ROMANS
210
0.0
220
0.0
230
1.0
  0
TEXT
  8
1
  6
CONTINUOUS
 62
     2
  5
420
 10
72.60375
 20
88.677917
 30
0.0
 40
0.2
  1
Type II
  7
ROMANS
210
0.0
220
0.0
230
1.0
  0
TEXT
  8
1
  6
CONTINUOUS
 62
     2
  5
421
 10
64.2005
 20
82.4525
 30
0.0
 40
0.2
  1
Type III
  7
ROMANS
210
0.0
220
0.0
230
1.0
  0
TEXT
  8
1
  6
CONTINUOUS
 62
     2
  5
422
 10
72.508917
 20
82.104917
 30
0.0
 40
0.2
  1
Type II
  7
ROMANS
210
0.0
220
0.0
230
1.0
  0
TEXT
  8
1
  6
CONTINUOUS
 62
     2
  5
423
 10
67.94875
 20
79.610667
 30
0.0
 40
0.2
  1
INTERSECTIONS
  7
ROMANS
210
0.0
220
0.0
230
1.0
  0
TEXT
  8
1
  6
CONTINUOUS
 62
     2
  5
424
 10
54.458833
 20
86.146167
 30
0.0
 40
0.2
  1
Type I RAMP
  7
ROMANS
210
0.0
220
0.0
230
1.0
  0
TEXT
  8
1
  6
CONTINUOUS
 62
     2
  5
425
 10
80.31175
 20
90.93075
 30
0.0
 40
0.2
  1
NOTES
  7
ROMANS
210
0.0
220
0.0
230
1.0
  0
TEXT
  8
1
  6
CONTINUOUS
 62
     2
  5
426
 10
56.254167
 20
80.179083
 30
0.0
 40
0.12
  1
4'-0" Min.
  7
ROMANS
210
0.0
220
0.0
230
1.0
  0
TEXT
  8
1
  6
CONTINUOUS
 62
     2
  5
427
 10
55.437167
 20
81.11325
 30
0.0
 40
0.1
  1
12:1
 50
339.7827
  7
ROMANS
210
0.0
220
0.0
230
1.0
  0
TEXT
  8
1
  6
CONTINUOUS
 62
     2
  5
428
 10
58.352417
 20
81.087333
 30
0.0
 40
0.1
  1
12:1
 50
20.313667
  7
ROMANS
210
0.0
220
0.0
230
1.0
  0
TEXT
  8
1
  6
CONTINUOUS
 62
     2
  5
429
 10
58.2535
 20
76.16875
 30
0.0
 40
0.1
  1
12:1
 50
34.732408
  7
ROMANS
210
0.0
220
0.0
230
1.0
  0
TEXT
  8
1
  6
CONTINUOUS
 62
     2
  5
42A
 10
55.174417
 20
74.478583
 30
0.0
 40
0.1
  1
12:1
 50
23.867797
  7
ROMANS
210
0.0
220
0.0
230
1.0
  0
TEXT
  8
1
  6
CONTINUOUS
 62
     2
  5
42B
 10
56.831083
 20
87.953167
 30
0.0
 40
0.1
  1
12:1
 50
332.9634
  7
ROMANS
210
0.0
220
0.0
230
1.0
  0
TEXT
  8
1
  6
CONTINUOUS
 62
     2
  5
42C
 10
57.033583
 20
88.79225
 30
0.0
 40
0.1
  1
12:1
 50
33.956186
  7
ROMANS
210
0.0
220
0.0
230
1.0
  0
TEXT
  8
1
  6
CONTINUOUS
 62
     2
  5
42D
 10
53.922583
 20
89.82475
 30
0.0
 40
0.1
  1
12:1
 50
323.921111
  7
ROMANS
210
0.0
220
0.0
230
1.0
  0
TEXT
  8
1
  6
CONTINUOUS
 62
     2
  5
42E
 10
57.359
 20
81.68175
 30
0.0
 40
0.1
  1
12:1
 50
89.603986
  7
ROMANS
210
0.0
220
0.0
230
1.0
  0
TEXT
  8
1
  6
CONTINUOUS
 62
     2
  5
42F
 10
77.38275
 20
90.294167
 30
0.0
 40
0.133
  1
Ramp and flare slopes shall not be steeper than 12:1 unless
  7
MONOTXT
210
0.0
220
0.0
230
1.0
  0
TEXT
  8
1
  6
CONTINUOUS
 62
     2
  5
430
 10
77.405833
 20
90.033333
 30
0.0
 40
0.133
  1
otherwise shown or specified.
  7
MONOTXT
210
0.0
220
0.0
230
1.0
  0
TEXT
  8
1
  6
CONTINUOUS
 62
     2
  5
431
 10
80.147083
 20
89.279
 30
0.0
 40
0.133
  1
non-skid finish shall be provided.
  7
MONOTXT
210
0.0
220
0.0
230
1.0
  0
TEXT
  8
1
  6
CONTINUOUS
 62
     2
  5
432
 10
77.4135
 20
89.023167
 30
0.0
 40
0.133
  1
Normal gutter flow line and profile shall be maintained through
  7
MONOTXT
210
0.0
220
0.0
230
1.0
  0
TEXT
  8
1
  6
CONTINUOUS
 62
     2
  5
433
 10
77.387167
 20
88.799583
 30
0.0
 40
0.133
  1
the ramp area, unless otherwise shown or specified.
  7
MONOTXT
210
0.0
220
0.0
230
1.0
  0
TEXT
  8
1
  6
CONTINUOUS
 62
     2
  5
434
 10
77.414833
 20
86.298833
 30
0.0
 40
0.133
  1
Location of the ramp shall normally take precedence over
  7
MONOTXT
210
0.0
220
0.0
230
1.0
  0
TEXT
  8
1
  6
CONTINUOUS
 62
     2
  5
435
 10
77.413667
 20
86.034417
 30
0.0
 40
0.133
  1
location of the drainage structure, except where existing
  7
MONOTXT
210
0.0
220
0.0
230
1.0
  0
TEXT
  8
1
  6
CONTINUOUS
 62
     2
  5
436
 10
77.398417
 20
85.787333
 30
0.0
 40
0.133
  1
structures are being utilized in the new construction.
  7
MONOTXT
210
0.0
220
0.0
230
1.0
  0
TEXT
  8
1
  6
CONTINUOUS
 62
     2
  5
437
 10
77.387333
 20
85.5245
 30
0.0
 40
0.133
  1
Payment for the construction of sidewalk ramps shall be included
  7
MONOTXT
210
0.0
220
0.0
230
1.0
  0
TEXT
  8
1
  6
CONTINUOUS
 62
     2
  5
438
 10
77.397083
 20
85.266333
 30
0.0
 40
0.133
  1
in the cost of the sidewalk per square yard.
  7
MONOTXT
210
0.0
220
0.0
230
1.0
  0
TEXT
  8
1
  6
CONTINUOUS
 62
     2
  5
439
 10
77.381083
 20
84.770333
 30
0.0
 40
0.133
  1
The type of ramp to be used shall be as specified on the plans.
  7
MONOTXT
210
0.0
220
0.0
230
1.0
  0
TEXT
  8
1
  6
CONTINUOUS
 62
     2
  5
43A
 10
77.38775
 20
84.542083
 30
0.0
 40
0.133
  1
The following can be considered guidelines in selecting ramp
  7
MONOTXT
210
0.0
220
0.0
230
1.0
  0
TEXT
  8
1
  6
CONTINUOUS
 62
     2
  5
43B
 10
77.394083
 20
84.29275
 30
0.0
 40
0.133
  1
types, but are included here for information only.
  7
MONOTXT
210
0.0
220
0.0
230
1.0
  0
TEXT
  8
1
  6
CONTINUOUS
 62
     2
  5
43C
 10
80.48125
 20
82.925667
 30
0.0
 40
0.133
  1
NORMAL RAMPS
  7
MONOTXT
210
0.0
220
0.0
230
1.0
  0
TEXT
  8
1
  6
CONTINUOUS
 62
     2
  5
43D
 10
80.342667
 20
82.71975
 30
0.0
 40
0.133
  1
(For general use)
  7
MONOTXT
210
0.0
220
0.0
230
1.0
  0
TEXT
  8
1
  6
CONTINUOUS
 62
     2
  5
43E
 10
77.433
 20
82.416583
 30
0.0
 40
0.133
  1
TYPE I
  7
MONOTXT
210
0.0
220
0.0
230
1.0
  0
TEXT
  8
1
  6
CONTINUOUS
 62
     2
  5
43F
 10
79.202917
 20
82.162583
 30
0.0
 40
0.133
  1
Ramp is for general use at intersections or anywhere
  7
MONOTXT
210
0.0
220
0.0
230
1.0
  0
TEXT
  8
1
  6
CONTINUOUS
 62
     2
  5
440
 10
79.204083
 20
81.9085
 30
0.0
 40
0.133
  1
in the block where the sidewalk extends to the curb
  7
MONOTXT
210
0.0
220
0.0
230
1.0
  0
TEXT
  8
1
  6
CONTINUOUS
 62
     2
  5
441
 10
79.19425
 20
81.665333
 30
0.0
 40
0.133
  1
side.
  7
MONOTXT
210
0.0
220
0.0
230
1.0
  0
TEXT
  8
1
  6
CONTINUOUS
 62
     2
  5
442
 10
77.414167
 20
81.412083
 30
0.0
 40
0.133
  1
TYPE II
  7
MONOTXT
210
0.0
220
0.0
230
1.0
  0
TEXT
  8
1
  6
CONTINUOUS
 62
     2
  5
443
 10
79.193667
 20
81.161167
 30
0.0
 40
0.133
  1
Ramp is for general use at intersections, especially
  7
MONOTXT
210
0.0
220
0.0
230
1.0
  0
TEXT
  8
1
  6
CONTINUOUS
 62
     2
  5
444
 10
79.202833
 20
80.9145
 30
0.0
 40
0.133
  1
where pedestrians are allowed to cross diagonally.
  7
MONOTXT
210
0.0
220
0.0
230
1.0
  0
TEXT
  8
1
  6
CONTINUOUS
 62
     2
  5
445
 10
80.513167
 20
80.44
 30
0.0
 40
0.133
  1
SPECIALTY RAMPS
  7
MONOTXT
210
0.0
220
0.0
230
1.0
  0
TEXT
  8
1
  6
CONTINUOUS
 62
     2
  5
446
 10
79.1885
 20
80.17025
 30
0.0
 40
0.133
  1
(For occasional use where space is limited
  7
MONOTXT
210
0.0
220
0.0
230
1.0
  0
TEXT
  8
1
  6
CONTINUOUS
 62
     2
  5
447
 10
79.198083
 20
79.911833
 30
0.0
 40
0.133
  1
or obstructions unavoidably encountered)
  7
MONOTXT
210
0.0
220
0.0
230
1.0
  0
TEXT
  8
1
  6
CONTINUOUS
 62
     2
  5
448
 10
77.421667
 20
79.664667
 30
0.0
 40
0.133
  1
TYPE III
  7
MONOTXT
210
0.0
220
0.0
230
1.0
  0
TEXT
  8
1
  6
CONTINUOUS
 62
     2
  5
449
 10
79.193667
 20
79.411583
 30
0.0
 40
0.133
  1
Ramp is for use where a narrow width sidewalk exists
  7
MONOTXT
210
0.0
220
0.0
230
1.0
  0
TEXT
  8
1
  6
CONTINUOUS
 62
     2
  5
44A
 10
79.184417
 20
79.16775
 30
0.0
 40
0.133
  1
or is necessary, and widening of the sidewalk is 
  7
MONOTXT
210
0.0
220
0.0
230
1.0
  0
TEXT
  8
1
  6
CONTINUOUS
 62
     2
  5
44B
 10
77.429917
 20
78.653333
 30
0.0
 40
0.133
  1
TYPE IV
  7
MONOTXT
210
0.0
220
0.0
230
1.0
  0
TEXT
  8
1
  6
CONTINUOUS
 62
     2
  5
44C
 10
79.189
 20
78.41075
 30
0.0
 40
0.133
  1
Ramp is for use where wheelchair access can occur
  7
MONOTXT
210
0.0
220
0.0
230
1.0
  0
TEXT
  8
1
  6
CONTINUOUS
 62
     2
  5
44D
 10
79.18725
 20
78.162
 30
0.0
 40
0.133
  1
from only one side of the ramp.
  7
MONOTXT
210
0.0
220
0.0
230
1.0
  0
TEXT
  8
1
  6
CONTINUOUS
 62
     2
  5
44E
 10
77.4225
 20
77.68675
 30
0.0
 40
0.133
  1
TYPE V
  7
MONOTXT
210
0.0
220
0.0
230
1.0
  0
TEXT
  8
1
  6
CONTINUOUS
 62
     2
  5
44F
 10
79.20525
 20
77.418917
 30
0.0
 40
0.133
  1
Ramp is for use where features of Ramp Types III and
  7
MONOTXT
210
0.0
220
0.0
230
1.0
  0
TEXT
  8
1
  6
CONTINUOUS
 62
     2
  5
450
 10
79.189417
 20
77.167
 30
0.0
 40
0.133
  1
IV must be combined.
  7
MONOTXT
210
0.0
220
0.0
230
1.0
  0
TEXT
  8
1
  6
CONTINUOUS
 62
     2
  5
451
 10
77.429
 20
76.933833
 30
0.0
 40
0.133
  1
TYPE VI
  7
MONOTXT
210
0.0
220
0.0
230
1.0
  0
TEXT
  8
1
  6
CONTINUOUS
 62
     2
  5
452
 10
79.195917
 20
76.669667
 30
0.0
 40
0.133
  1
Ramp is for use in areas where the sidewalk is set
  7
MONOTXT
210
0.0
220
0.0
230
1.0
  0
TEXT
  8
1
  6
CONTINUOUS
 62
     2
  5
453
 10
79.2235
 20
76.418083
 30
0.0
 40
0.133
  1
back from the street, and wheelchair access from
  7
MONOTXT
210
0.0
220
0.0
230
1.0
  0
TEXT
  8
1
  6
CONTINUOUS
 62
     2
  5
454
 10
79.202833
 20
76.16625
 30
0.0
 40
0.133
  1
either side of the ramp is not likely to occur
  7
MONOTXT
210
0.0
220
0.0
230
1.0
  0
TEXT
  8
1
  6
CONTINUOUS
 62
     2
  5
455
 10
79.222833
 20
75.907833
 30
0.0
 40
0.133
  1
because the side approach area is unpaved; i.e.
  7
MONOTXT
210
0.0
220
0.0
230
1.0
  0
TEXT
  8
1
  6
CONTINUOUS
 62
     2
  5
456
 10
79.186167
 20
75.643833
 30
0.0
 40
0.133
  1
covered by grass, gravel, etc.  Also ramp is for
  7
MONOTXT
210
0.0
220
0.0
230
1.0
  0
TEXT
  8
1
  6
CONTINUOUS
 62
     2
  5
457
 10
79.186167
 20
75.42025
 30
0.0
 40
0.133
  1
use where area for providing ramp is very limited
  7
MONOTXT
210
0.0
220
0.0
230
1.0
  0
TEXT
  8
1
  6
CONTINUOUS
 62
     2
  5
458
 10
79.195917
 20
75.166333
 30
0.0
 40
0.133
  1
due to obstructions on both sides of the ramp.
  7
MONOTXT
210
0.0
220
0.0
230
1.0
  0
LINE
  8
1
  6
CONTINUOUS
 62
     2
  5
459
 10
77.429083
 20
76.885583
 30
0.0
 11
78.257
 21
76.885583
 31
0.0
  0
LINE
  8
1
  6
CONTINUOUS
 62
     2
  5
45A
 10
77.429167
 20
77.623417
 30
0.0
 11
78.230583
 21
77.623417
 31
0.0
  0
LINE
  8
1
  6
CONTINUOUS
 62
     2
  5
45B
 10
77.422583
 20
78.627
 30
0.0
 11
78.21425
 21
78.627
 31
0.0
  0
LINE
  8
1
  6
CONTINUOUS
 62
     2
  5
45C
 10
77.428333
 20
79.635333
 30
0.0
 11
78.2095
 21
79.635333
 31
0.0
  0
LINE
  8
1
  6
CONTINUOUS
 62
     2
  5
45D
 10
77.397083
 20
81.3765
 30
0.0
 11
78.191167
 21
81.3765
 31
0.0
  0
LINE
  8
1
  6
CONTINUOUS
 62
     2
  5
45E
 10
77.421417
 20
82.3645
 30
0.0
 11
78.224083
 21
82.3645
 31
0.0
  0
TEXT
  8
1
  6
CONTINUOUS
 62
     2
  5
45F
 10
72.939167
 20
83.10675
 30
0.0
 40
0.12
  1
Sidewalk
 50
359.940219
  7
ROMANS
210
0.0
220
0.0
230
1.0
  0
TEXT
  8
1
  6
CONTINUOUS
 62
     2
  5
460
 10
72.79275
 20
87.70825
 30
0.0
 40
0.12
  1
Sidewalk
 50
359.811186
  7
ROMANS
210
0.0
220
0.0
230
1.0
  0
TEXT
  8
1
  6
CONTINUOUS
 62
     2
  5
461
 10
63.668083
 20
87.70825
 30
0.0
 40
0.12
  1
Sidewalk
 50
359.707739
  7
ROMANS
210
0.0
220
0.0
230
1.0
  0
TEXT
  8
1
  6
CONTINUOUS
 62
     2
  5
462
 10
63.43875
 20
83.516583
 30
0.0
 40
0.12
  1
Sidewalk
 50
0.048953
  7
ROMANS
210
0.0
220
0.0
230
1.0
  0
TEXT
  8
1
  6
CONTINUOUS
 62
     2
  5
463
 10
53.777333
 20
91.364667
 30
0.0
 40
0.12
  1
Sidewalk
 50
328.048522
  7
ROMANS
210
0.0
220
0.0
230
1.0
  0
LINE
  8
1
  6
CONTINUOUS
 62
     2
  5
464
 10
55.426083
 20
81.056167
 30
0.0
 11
55.464333
 21
81.094333
 31
0.0
  0
LINE
  8
1
  6
CONTINUOUS
 62
     2
  5
465
 10
55.57825
 20
81.208333
 30
0.0
 11
56.189333
 21
81.819333
 31
0.0
  0
LINE
  8
1
  6
CONTINUOUS
 62
     2
  5
466
 10
55.506583
 20
81.01875
 30
0.0
 11
55.537917
 21
81.050083
 31
0.0
  0
LINE
  8
1
  6
CONTINUOUS
 62
     2
  5
467
 10
55.655583
 20
81.16775
 30
0.0
 11
56.19075
 21
81.702917
 31
0.0
  0
LINE
  8
1
  6
CONTINUOUS
 62
     2
  5
468
 10
55.598583
 20
80.993
 30
0.0
 11
55.63725
 21
81.031667
 31
0.0
  0
LINE
  8
1
  6
CONTINUOUS
 62
     2
  5
469
 10
55.74025
 20
81.134583
 30
0.0
 11
56.192167
 21
81.5865
 31
0.0
  0
LINE
  8
1
  6
CONTINUOUS
 62
     2
  5
46A
 10
55.690667
 20
80.967167
 30
0.0
 11
55.733
 21
81.0095
 31
0.0
  0
LINE
  8
1
  6
CONTINUOUS
 62
     2
  5
46B
 10
55.82125
 20
81.09775
 30
0.0
 11
56.193583
 21
81.470083
 31
0.0
  0
LINE
  8
1
  6
CONTINUOUS
 62
     2
  5
46C
 10
56.591417
 20
82.55475
 30
0.0
 11
57.445667
 21
82.55475
 31
0.0
  0
LINE
  8
1
  6
CONTINUOUS
 62
     2
  5
46D
 10
56.770333
 20
80.7435
 30
0.0
 11
57.000583
 21
80.7435
 31
0.0
  0
LINE
  8
1
  6
CONTINUOUS
 62
     2
  5
46E
 10
56.195417
 20
80.826833
 30
0.0
 11
57.431417
 21
80.826833
 31
0.0
  0
LINE
  8
1
  6
CONTINUOUS
 62
     2
  5
46F
 10
56.19475
 20
80.910167
 30
0.0
 11
57.432083
 21
80.910167
 31
0.0
  0
LINE
  8
1
  6
CONTINUOUS
 62
     2
  5
470
 10
56.188417
 20
81.660167
 30
0.0
 11
57.43825
 21
81.660167
 31
0.0
  0
LINE
  8
1
  6
CONTINUOUS
 62
     2
  5
471
 10
56.184917
 20
82.076833
 30
0.0
 11
57.441667
 21
82.076833
 31
0.0
  0
LINE
  8
1
  6
CONTINUOUS
 62
     2
  5
472
 10
56.184167
 20
82.160167
 30
0.0
 11
57.442417
 21
82.160167
 31
0.0
  0
LINE
  8
1
  6
CONTINUOUS
 62
     2
  5
473
 10
56.1835
 20
82.2435
 30
0.0
 11
57.443083
 21
82.2435
 31
0.0
  0
LINE
  8
1
  6
CONTINUOUS
 62
     2
  5
474
 10
56.18275
 20
82.326833
 30
0.0
 11
57.44375
 21
82.326833
 31
0.0
  0
LINE
  8
1
  6
CONTINUOUS
 62
     2
  5
475
 10
56.182083
 20
82.410167
 30
0.0
 11
57.444417
 21
82.410167
 31
0.0
  0
LINE
  8
1
  6
CONTINUOUS
 62
     2
  5
476
 10
56.181333
 20
82.4935
 30
0.0
 11
57.445083
 21
82.4935
 31
0.0
  0
LINE
  8
1
  6
CONTINUOUS
 62
     2
  5
477
 10
59.339417
 20
81.457167
 30
0.0
 11
59.3305
 21
81.466083
 31
0.0
  0
LINE
  8
1
  6
CONTINUOUS
 62
     2
  5
478
 10
59.2585
 20
81.42025
 30
0.0
 11
59.051417
 21
81.627333
 31
0.0
  0
LINE
  8
1
  6
CONTINUOUS
 62
     2
  5
479
 10
59.1775
 20
81.383333
 30
0.0
 11
58.772333
 21
81.788583
 31
0.0
  0
LINE
  8
1
  6
CONTINUOUS
 62
     2
  5
47A
 10
59.096583
 20
81.346417
 30
0.0
 11
58.49325
 21
81.94975
 31
0.0
  0
LINE
  8
1
  6
CONTINUOUS
 62
     2
  5
47B
 10
59.015667
 20
81.309583
 30
0.0
 11
58.21425
 21
82.111
 31
0.0
  0
LINE
  8
1
  6
CONTINUOUS
 62
     2
  5
47C
 10
58.934667
 20
81.272667
 30
0.0
 11
57.935167
 21
82.272167
 31
0.0
  0
LINE
  8
1
  6
CONTINUOUS
 62
     2
  5
47D
 10
58.85375
 20
81.23575
 30
0.0
 11
57.656083
 21
82.433417
 31
0.0
  0
LINE
  8
1
  6
CONTINUOUS
 62
     2
  5
47E
 10
58.772833
 20
81.198833
 30
0.0
 11
57.44575
 21
82.525917
 31
0.0
  0
LINE
  8
1
  6
CONTINUOUS
 62
     2
  5
47F
 10
57.618583
 20
80.821
 30
0.0
 11
57.44575
 21
80.993833
 31
0.0
  0
LINE
  8
1
  6
CONTINUOUS
 62
     2
  5
480
 10
57.522333
 20
80.799333
 30
0.0
 11
57.44575
 21
80.876
 31
0.0
  0
LINE
  8
1
  6
CONTINUOUS
 62
     2
  5
481
 10
58.449
 20
81.05125
 30
0.0
 11
58.409167
 21
81.091083
 31
0.0
  0
LINE
  8
1
  6
CONTINUOUS
 62
     2
  5
482
 10
58.2915
 20
81.20875
 30
0.0
 11
57.44575
 21
82.0545
 31
0.0
  0
LINE
  8
1
  6
CONTINUOUS
 62
     2
  5
483
 10
58.529917
 20
81.088167
 30
0.0
 11
58.501167
 21
81.116917
 31
0.0
  0
LINE
  8
1
  6
CONTINUOUS
 62
     2
  5
484
 10
58.390833
 20
81.22725
 30
0.0
 11
57.44575
 21
82.172333
 31
0.0
  0
LINE
  8
1
  6
CONTINUOUS
 62
     2
  5
485
 10
58.610917
 20
81.125
 30
0.0
 11
58.574833
 21
81.161167
 31
0.0
  0
LINE
  8
1
  6
CONTINUOUS
 62
     2
  5
486
 10
58.4755
 20
81.260417
 30
0.0
 11
57.44575
 21
82.290167
 31
0.0
  0
LINE
  8
1
  6
CONTINUOUS
 62
     2
  5
487
 10
58.691833
 20
81.161917
 30
0.0
 11
58.663167
 21
81.190667
 31
0.0
  0
LINE
  8
1
  6
CONTINUOUS
 62
     2
  5
488
 10
58.545417
 20
81.308333
 30
0.0
 11
57.44575
 21
82.408
 31
0.0
  0
LINE
  8
1
  6
CONTINUOUS
 62
     2
  5
489
 10
56.18775
 20
81.7435
 30
0.0
 11
57.217833
 21
81.7435
 31
0.0
  0
LINE
  8
1
  6
CONTINUOUS
 62
     2
  5
48A
 10
57.416333
 20
81.7435
 30
0.0
 11
57.438917
 21
81.7435
 31
0.0
  0
LINE
  8
1
  6
CONTINUOUS
 62
     2
  5
48B
 10
56.187
 20
81.826833
 30
0.0
 11
57.210417
 21
81.826833
 31
0.0
  0
LINE
  8
1
  6
CONTINUOUS
 62
     2
  5
48C
 10
57.394333
 20
81.826833
 30
0.0
 11
57.439667
 21
81.826833
 31
0.0
  0
LINE
  8
1
  6
CONTINUOUS
 62
     2
  5
48D
 10
56.186333
 20
81.910167
 30
0.0
 11
57.217833
 21
81.910167
 31
0.0
  0
LINE
  8
1
  6
CONTINUOUS
 62
     2
  5
48E
 10
57.386917
 20
81.910167
 30
0.0
 11
57.440333
 21
81.910167
 31
0.0
  0
LINE
  8
1
  6
CONTINUOUS
 62
     2
  5
48F
 10
56.185583
 20
81.9935
 30
0.0
 11
57.217833
 21
81.9935
 31
0.0
  0
LINE
  8
1
  6
CONTINUOUS
 62
     2
  5
490
 10
57.401667
 20
81.9935
 30
0.0
 11
57.441
 21
81.9935
 31
0.0
  0
POLYLINE
  8
1
  6
CONTINUOUS
 62
     2
  5
491
 66
     1
 10
0.0
 20
0.0
 30
0.0
 70
     1
  0
VERTEX
  8
1
  6
CONTINUOUS
 62
     2
  5
492
 10
53.273917
 20
90.196083
 30
0.0
  0
VERTEX
  8
1
  6
CONTINUOUS
 62
     2
  5
493
 10
54.838333
 20
89.068917
 30
0.0
  0
VERTEX
  8
1
  6
CONTINUOUS
 62
     2
  5
494
 10
56.462667
 20
90.160167
 30
0.0
  0
SEQEND
  8
1
  6
CONTINUOUS
 62
     2
  5
495
  0
POLYLINE
  8
1
  6
CONTINUOUS
 62
     2
  5
496
 66
     1
 10
0.0
 20
0.0
 30
0.0
 70
     1
  0
VERTEX
  8
1
  6
CONTINUOUS
 62
     2
  5
497
 10
54.842333
 20
89.055583
 30
0.0
  0
VERTEX
  8
1
  6
CONTINUOUS
 62
     2
  5
498
 10
56.241333
 20
88.164333
 30
0.0
  0
VERTEX
  8
1
  6
CONTINUOUS
 62
     2
  5
499
 10
57.894333
 20
89.275417
 30
0.0
  0
VERTEX
  8
1
  6
CONTINUOUS
 62
     2
  5
49A
 10
56.466083
 20
90.161167
 30
0.0
  0
SEQEND
  8
1
  6
CONTINUOUS
 62
     2
  5
49B
  0
LINE
  8
1
  6
CONTINUOUS
 62
     2
  5
49C
 10
56.45975
 20
90.15825
 30
0.0
 11
56.457833
 21
90.16025
 31
0.0
  0
LINE
  8
1
  6
CONTINUOUS
 62
     2
  5
49D
 10
53.334667
 20
90.152333
 30
0.0
 11
53.377333
 21
90.194917
 31
0.0
  0
LINE
  8
1
  6
CONTINUOUS
 62
     2
  5
49E
 10
57.843667
 20
89.241417
 30
0.0
 11
57.8715
 21
89.289583
 31
0.0
  0
LINE
  8
1
  6
CONTINUOUS
 62
     2
  5
49F
 10
54.847667
 20
89.052167
 30
0.0
 11
54.854417
 21
89.063833
 31
0.0
  0
LINE
  8
1
  6
CONTINUOUS
 62
     2
  5
4A0
 10
54.77125
 20
89.11725
 30
0.0
 11
55.002417
 21
89.179167
 31
0.0
  0
LINE
  8
1
  6
CONTINUOUS
 62
     2
  5
4A1
 10
53.723917
 20
89.871833
 30
0.0
 11
54.867
 21
90.178167
 31
0.0
  0
LINE
  8
1
  6
CONTINUOUS
 62
     2
  5
4A2
 10
53.636667
 20
89.93475
 30
0.0
 11
54.558
 21
90.181583
 31
0.0
  0
LINE
  8
1
  6
CONTINUOUS
 62
     2
  5
4A3
 10
53.549333
 20
89.997667
 30
0.0
 11
54.249
 21
90.185083
 31
0.0
  0
LINE
  8
1
  6
CONTINUOUS
 62
     2
  5
4A4
 10
53.462083
 20
90.0605
 30
0.0
 11
53.94
 21
90.188583
 31
0.0
  0
LINE
  8
1
  6
CONTINUOUS
 62
     2
  5
4A5
 10
53.374833
 20
90.123417
 30
0.0
 11
53.631
 21
90.192083
 31
0.0
  0
LINE
  8
1
  6
CONTINUOUS
 62
     2
  5
4A6
 10
53.2875
 20
90.18625
 30
0.0
 11
53.322083
 21
90.1955
 31
0.0
  0
LINE
  8
1
  6
CONTINUOUS
 62
     2
  5
4A7
 10
56.415083
 20
90.126417
 30
0.0
 11
56.522083
 21
90.126417
 31
0.0
  0
LINE
  8
1
  6
CONTINUOUS
 62
     2
  5
4A8
 10
57.855667
 20
89.249417
 30
0.0
 11
57.724167
 21
89.380917
 31
0.0
  0
LINE
  8
1
  6
CONTINUOUS
 62
     2
  5
4A9
 10
57.785167
 20
89.202083
 30
0.0
 11
57.413917
 21
89.573333
 31
0.0
  0
LINE
  8
1
  6
CONTINUOUS
 62
     2
  5
4AA
 10
57.71475
 20
89.154667
 30
0.0
 11
57.103583
 21
89.76575
 31
0.0
  0
LINE
  8
1
  6
CONTINUOUS
 62
     2
  5
4AB
 10
57.64425
 20
89.107333
 30
0.0
 11
56.793333
 21
89.958167
 31
0.0
  0
LINE
  8
1
  6
CONTINUOUS
 62
     2
  5
4AC
 10
57.57375
 20
89.059917
 30
0.0
 11
56.483083
 21
90.150583
 31
0.0
  0
LINE
  8
1
  6
CONTINUOUS
 62
     2
  5
4AD
 10
57.50325
 20
89.012583
 30
0.0
 11
56.399833
 21
90.116083
 31
0.0
  0
LINE
  8
1
  6
CONTINUOUS
 62
     2
  5
4AE
 10
57.432833
 20
88.965167
 30
0.0
 11
56.329667
 21
90.068333
 31
0.0
  0
LINE
  8
1
  6
CONTINUOUS
 62
     2
  5
4AF
 10
57.080417
 20
88.728333
 30
0.0
 11
55.979167
 21
89.829583
 31
0.0
  0
LINE
  8
1
  6
CONTINUOUS
 62
     2
  5
4B0
 10
56.375667
 20
88.254583
 30
0.0
 11
55.278
 21
89.35225
 31
0.0
  0
LINE
  8
1
  6
CONTINUOUS
 62
     2
  5
4B1
 10
56.305167
 20
88.20725
 30
0.0
 11
55.207917
 21
89.3045
 31
0.0
  0
LINE
  8
1
  6
CONTINUOUS
 62
     2
  5
4B2
 10
56.210667
 20
88.183833
 30
0.0
 11
55.13775
 21
89.25675
 31
0.0
  0
LINE
  8
1
  6
CONTINUOUS
 62
     2
  5
4B3
 10
55.885917
 20
88.39075
 30
0.0
 11
55.067667
 21
89.209
 31
0.0
  0
LINE
  8
1
  6
CONTINUOUS
 62
     2
  5
4B4
 10
55.56125
 20
88.597583
 30
0.0
 11
54.997583
 21
89.16125
 31
0.0
  0
LINE
  8
1
  6
CONTINUOUS
 62
     2
  5
4B5
 10
55.2365
 20
88.8045
 30
0.0
 11
54.927417
 21
89.1135
 31
0.0
  0
LINE
  8
1
  6
CONTINUOUS
 62
     2
  5
4B6
 10
54.911833
 20
89.011333
 30
0.0
 11
54.857333
 21
89.065833
 31
0.0
  0
LINE
  8
1
  6
CONTINUOUS
 62
     2
  5
4B7
 10
57.150917
 20
88.775667
 30
0.0
 11
57.11875
 21
88.807833
 31
0.0
  0
LINE
  8
1
  6
CONTINUOUS
 62
     2
  5
4B8
 10
56.977917
 20
88.94875
 30
0.0
 11
56.04925
 21
89.877333
 31
0.0
  0
LINE
  8
1
  6
CONTINUOUS
 62
     2
  5
4B9
 10
57.221333
 20
88.823083
 30
0.0
 11
57.192667
 21
88.85175
 31
0.0
  0
LINE
  8
1
  6
CONTINUOUS
 62
     2
  5
4BA
 10
57.057833
 20
88.986667
 30
0.0
 11
56.119333
 21
89.925083
 31
0.0
  0
LINE
  8
1
  6
CONTINUOUS
 62
     2
  5
4BB
 10
57.291833
 20
88.870417
 30
0.0
 11
57.263583
 21
88.898667
 31
0.0
  0
LINE
  8
1
  6
CONTINUOUS
 62
     2
  5
4BC
 10
57.140667
 20
89.021583
 30
0.0
 11
56.1895
 21
89.972833
 31
0.0
  0
LINE
  8
1
  6
CONTINUOUS
 62
     2
  5
4BD
 10
57.362333
 20
88.917833
 30
0.0
 11
57.3285
 21
88.951667
 31
0.0
  0
LINE
  8
1
  6
CONTINUOUS
 62
     2
  5
4BE
 10
57.202583
 20
89.077583
 30
0.0
 11
56.259583
 21
90.020583
 31
0.0
  0
LINE
  8
1
  6
CONTINUOUS
 62
     2
  5
4BF
 10
54.073
 20
89.620333
 30
0.0
 11
54.131667
 21
89.636083
 31
0.0
  0
LINE
  8
1
  6
CONTINUOUS
 62
     2
  5
4C0
 10
54.308417
 20
89.683417
 30
0.0
 11
56.102917
 21
90.16425
 31
0.0
  0
LINE
  8
1
  6
CONTINUOUS
 62
     2
  5
4C1
 10
53.98575
 20
89.683167
 30
0.0
 11
54.04675
 21
89.6995
 31
0.0
  0
LINE
  8
1
  6
CONTINUOUS
 62
     2
  5
4C2
 10
54.243333
 20
89.752167
 30
0.0
 11
55.793917
 21
90.167667
 31
0.0
  0
LINE
  8
1
  6
CONTINUOUS
 62
     2
  5
4C3
 10
53.8985
 20
89.746083
 30
0.0
 11
53.963417
 21
89.7635
 31
0.0
  0
LINE
  8
1
  6
CONTINUOUS
 62
     2
  5
4C4
 10
54.152917
 20
89.81425
 30
0.0
 11
55.484917
 21
90.171167
 31
0.0
  0
LINE
  8
1
  6
CONTINUOUS
 62
     2
  5
4C5
 10
53.811167
 20
89.809
 30
0.0
 11
53.898333
 21
89.832333
 31
0.0
  0
LINE
  8
1
  6
CONTINUOUS
 62
     2
  5
4C6
 10
54.083667
 20
89.882
 30
0.0
 11
55.176
 21
90.174667
 31
0.0
  0
LINE
  8
1
  6
CONTINUOUS
 62
     2
  5
4C7
 10
57.181583
 20
87.687083
 30
0.0
 11
57.181583
 21
87.83975
 31
0.0
  0
LINE
  8
1
  6
CONTINUOUS
 62
     2
  5
4C8
 10
57.181583
 20
87.941667
 30
0.0
 11
57.181583
 21
88.775
 31
0.0
  0
LINE
  8
1
  6
CONTINUOUS
 62
     2
  5
4C9
 10
57.09825
 20
87.729583
 30
0.0
 11
57.09825
 21
87.80375
 31
0.0
  0
LINE
  8
1
  6
CONTINUOUS
 62
     2
  5
4CA
 10
57.09825
 20
87.947667
 30
0.0
 11
57.09825
 21
88.720583
 31
0.0
  0
LINE
  8
1
  6
CONTINUOUS
 62
     2
  5
4CB
 10
57.014917
 20
87.772167
 30
0.0
 11
57.014917
 21
87.83975
 31
0.0
  0
LINE
  8
1
  6
CONTINUOUS
 62
     2
  5
4CC
 10
57.014917
 20
88.007583
 30
0.0
 11
57.014917
 21
88.666167
 31
0.0
  0
LINE
  8
1
  6
CONTINUOUS
 62
     2
  5
4CD
 10
56.931583
 20
87.81475
 30
0.0
 11
56.931583
 21
87.85775
 31
0.0
  0
LINE
  8
1
  6
CONTINUOUS
 62
     2
  5
4CE
 10
56.931583
 20
88.043583
 30
0.0
 11
56.931583
 21
88.61175
 31
0.0
  0
LINE
  8
1
  6
CONTINUOUS
 62
     2
  5
4CF
 10
56.84825
 20
87.857333
 30
0.0
 11
56.84825
 21
87.929667
 31
0.0
  0
LINE
  8
1
  6
CONTINUOUS
 62
     2
  5
4D0
 10
56.84825
 20
88.007583
 30
0.0
 11
56.84825
 21
88.557333
 31
0.0
  0
INSERT
  8
1
  6
CONTINUOUS
 62
     2
  5
4D5
  2
ARROW
 10
55.9585
 20
74.88525
 30
0.0
 41
1.000002
 42
1.000002
 50
30.002412
210
0.0
220
0.0
230
1.0
  0
LINE
  8
1
  6
CONTINUOUS
 62
     2
  5
4D6
 10
54.866833
 20
74.254917
 30
0.0
 11
55.193917
 21
74.443833
 31
0.0
  0
LINE
  8
1
  6
CONTINUOUS
 62
     2
  5
4D7
 10
55.520917
 20
74.632583
 30
0.0
 11
55.9585
 21
74.88525
 31
0.0
  0
LINE
  8
1
  6
CONTINUOUS
 62
     2
  5
4D8
 10
54.39025
 20
74.076083
 30
0.0
 11
55.14425
 21
74.511417
 31
0.0
  0
LINE
  8
1
  6
CONTINUOUS
 62
     2
  5
4D9
 10
55.467417
 20
74.698
 30
0.0
 11
55.886333
 21
74.939833
 31
0.0
  0
LINE
  8
1
  6
CONTINUOUS
 62
     2
  5
4DA
 10
54.312167
 20
74.127167
 30
0.0
 11
55.116417
 21
74.5915
 31
0.0
  0
LINE
  8
1
  6
CONTINUOUS
 62
     2
  5
4DB
 10
55.429917
 20
74.7725
 30
0.0
 11
55.814083
 21
74.994333
 31
0.0
  0
TEXT
  8
1
  6
CONTINUOUS
 62
     2
  5
4DC
 10
56.838667
 20
76.179417
 30
0.0
 40
0.12
  1
12:1
 50
322.309111
  7
ROMANS
210
0.0
220
0.0
230
1.0
  0
LINE
  8
1
  6
CONTINUOUS
 62
     2
  5
4DD
 10
57.384667
 20
75.516417
 30
0.0
 11
57.160917
 21
75.903917
 31
0.0
  0
LINE
  8
1
  6
CONTINUOUS
 62
     2
  5
4DE
 10
56.974417
 20
76.227
 30
0.0
 11
56.909583
 21
76.339333
 31
0.0
  0
LINE
  8
1
  6
CONTINUOUS
 62
     2
  5
4DF
 10
57.31175
 20
75.476
 30
0.0
 11
56.99975
 21
76.016417
 31
0.0
  0
LINE
  8
1
  6
CONTINUOUS
 62
     2
  5
4E0
 10
56.862583
 20
76.254
 30
0.0
 11
56.738667
 21
76.468583
 31
0.0
  0
LINE
  8
1
  6
CONTINUOUS
 62
     2
  5
4E1
 10
57.164
 20
76.06525
 30
0.0
 11
57.082833
 21
76.205833
 31
0.0
  0
LINE
  8
1
  6
CONTINUOUS
 62
     2
  5
4E2
 10
57.224417
 20
75.9385
 30
0.0
 11
57.491917
 21
75.724417
 31
0.0
  0
INSERT
  8
1
  6
CONTINUOUS
 62
     2
  5
4E3
  2
ARROW
 10
57.491917
 20
75.724417
 30
0.0
 41
1.000002
 42
1.000002
 50
321.329358
210
0.0
220
0.0
230
1.0
  0
LINE
  8
1
  6
CONTINUOUS
 62
     2
  5
4E4
 10
57.934
 20
75.849833
 30
0.0
 11
58.232833
 21
76.148667
 31
0.0
  0
LINE
  8
1
  6
CONTINUOUS
 62
     2
  5
4E5
 10
58.533
 20
76.448833
 30
0.0
 11
59.051083
 21
76.966917
 31
0.0
  0
LINE
  8
1
  6
CONTINUOUS
 62
     2
  5
4E6
 10
58.432417
 20
76.466167
 30
0.0
 11
58.97925
 21
77.013
 31
0.0
  0
LINE
  8
1
  6
CONTINUOUS
 62
     2
  5
4E7
 10
58.211083
 20
76.188167
 30
0.0
 11
57.8485
 21
75.890917
 31
0.0
  0
INSERT
  8
1
  6
CONTINUOUS
 62
     2
  5
4E8
  2
ARROW
 10
57.8485
 20
75.890917
 30
0.0
 41
1.000001
 42
1.000001
 50
219.345386
210
0.0
220
0.0
230
1.0
  0
LINE
  8
1
  6
CONTINUOUS
 62
     2
  5
4E9
 10
54.29925
 20
89.582333
 30
0.0
 11
54.8345
 21
89.227333
 31
0.0
  0
LINE
  8
1
  6
CONTINUOUS
 62
     2
  5
4EA
 10
56.981167
 20
88.79675
 30
0.0
 11
56.347083
 21
88.389333
 31
0.0
  0
LINE
  8
1
  6
CONTINUOUS
 62
     2
  5
4EB
 10
56.824083
 20
87.970333
 30
0.0
 11
56.416917
 21
88.16825
 31
0.0
  0
LINE
  8
1
  6
CONTINUOUS
 62
     2
  5
4EC
 10
56.728
 20
88.4915
 30
0.0
 11
56.684583
 21
88.535
 31
0.0
  0
LINE
  8
1
  6
CONTINUOUS
 62
     2
  5
4ED
 10
56.600167
 20
88.619333
 30
0.0
 11
55.628583
 21
89.590917
 31
0.0
  0
LINE
  8
1
  6
CONTINUOUS
 62
     2
  5
4EE
 10
56.7985
 20
88.538833
 30
0.0
 11
56.755083
 21
88.58225
 31
0.0
  0
LINE
  8
1
  6
CONTINUOUS
 62
     2
  5
4EF
 10
56.667833
 20
88.6695
 30
0.0
 11
55.698667
 21
89.638667
 31
0.0
  0
LINE
  8
1
  6
CONTINUOUS
 62
     2
  5
4F0
 10
56.869
 20
88.58625
 30
0.0
 11
56.814083
 21
88.641167
 31
0.0
  0
LINE
  8
1
  6
CONTINUOUS
 62
     2
  5
4F1
 10
56.74425
 20
88.711
 30
0.0
 11
55.768833
 21
89.686417
 31
0.0
  0
LINE
  8
1
  6
CONTINUOUS
 62
     2
  5
4F2
 10
56.9395
 20
88.633583
 30
0.0
 11
56.884667
 21
88.6885
 31
0.0
  0
LINE
  8
1
  6
CONTINUOUS
 62
     2
  5
4F3
 10
56.817667
 20
88.755417
 30
0.0
 11
55.838917
 21
89.734167
 31
0.0
  0
LINE
  8
1
  6
CONTINUOUS
 62
     2
  5
4F4
 10
57.009917
 20
88.681
 30
0.0
 11
56.960917
 21
88.729917
 31
0.0
  0
LINE
  8
1
  6
CONTINUOUS
 62
     2
  5
4F5
 10
56.882417
 20
88.8085
 30
0.0
 11
55.909
 21
89.781833
 31
0.0
  0
LINE
  8
1
  6
CONTINUOUS
 62
     2
  5
4F6
 10
56.657583
 20
88.444083
 30
0.0
 11
56.593667
 21
88.508
 31
0.0
  0
LINE
  8
1
  6
CONTINUOUS
 62
     2
  5
4F7
 10
56.523833
 20
88.577833
 30
0.0
 11
55.5585
 21
89.543167
 31
0.0
  0
LINE
  8
1
  6
CONTINUOUS
 62
     2
  5
4F8
 10
56.587083
 20
88.39675
 30
0.0
 11
56.523083
 21
88.460667
 31
0.0
  0
LINE
  8
1
  6
CONTINUOUS
 62
     2
  5
4F9
 10
56.456167
 20
88.527583
 30
0.0
 11
55.488333
 21
89.495417
 31
0.0
  0
LINE
  8
1
  6
CONTINUOUS
 62
     2
  5
4FA
 10
56.516583
 20
88.349333
 30
0.0
 11
56.449667
 21
88.416333
 31
0.0
  0
LINE
  8
1
  6
CONTINUOUS
 62
     2
  5
4FB
 10
56.38275
 20
88.48325
 30
0.0
 11
55.41825
 21
89.447667
 31
0.0
  0
LINE
  8
1
  6
CONTINUOUS
 62
     2
  5
4FC
 10
56.446083
 20
88.302
 30
0.0
 11
56.384917
 21
88.363167
 31
0.0
  0
LINE
  8
1
  6
CONTINUOUS
 62
     2
  5
4FD
 10
56.318
 20
88.430083
 30
0.0
 11
55.348083
 21
89.4
 31
0.0
  0
LINE
  8
1
  6
CONTINUOUS
 62
     2
  5
4FE
 10
54.59675
 20
89.243
 30
0.0
 11
54.696
 21
89.269583
 31
0.0
  0
LINE
  8
1
  6
CONTINUOUS
 62
     2
  5
4FF
 10
54.805
 20
89.298833
 30
0.0
 11
55.429667
 21
89.466167
 31
0.0
  0
LINE
  8
1
  6
CONTINUOUS
 62
     2
  5
500
 10
54.684
 20
89.180083
 30
0.0
 11
54.76925
 21
89.202917
 31
0.0
  0
LINE
  8
1
  6
CONTINUOUS
 62
     2
  5
501
 10
54.895917
 20
89.236917
 30
0.0
 11
55.216083
 21
89.322667
 31
0.0
  0
LINE
  8
1
  6
CONTINUOUS
 62
     2
  5
502
 10
54.509417
 20
89.305917
 30
0.0
 11
54.611583
 21
89.33325
 31
0.0
  0
LINE
  8
1
  6
CONTINUOUS
 62
     2
  5
503
 10
54.721917
 20
89.362833
 30
0.0
 11
55.64325
 21
89.609667
 31
0.0
  0
LINE
  8
1
  6
CONTINUOUS
 62
     2
  5
504
 10
54.422167
 20
89.36875
 30
0.0
 11
54.520583
 21
89.395167
 31
0.0
  0
LINE
  8
1
  6
CONTINUOUS
 62
     2
  5
505
 10
54.6295
 20
89.424333
 30
0.0
 11
55.856917
 21
89.753167
 31
0.0
  0
LINE
  8
1
  6
CONTINUOUS
 62
     2
  5
506
 10
54.334917
 20
89.431667
 30
0.0
 11
54.432167
 21
89.45775
 31
0.0
  0
LINE
  8
1
  6
CONTINUOUS
 62
     2
  5
507
 10
54.548
 20
89.48875
 30
0.0
 11
56.0705
 21
89.89675
 31
0.0
  0
LINE
  8
1
  6
CONTINUOUS
 62
     2
  5
508
 10
54.160333
 20
89.557417
 30
0.0
 11
54.25025
 21
89.5815
 31
0.0
  0
LINE
  8
1
  6
CONTINUOUS
 62
     2
  5
509
 10
54.345417
 20
89.607
 30
0.0
 11
56.411917
 21
90.16075
 31
0.0
  0
LINE
  8
1
  6
CONTINUOUS
 62
     2
  5
50A
 10
54.247583
 20
89.4945
 30
0.0
 11
54.33975
 21
89.519167
 31
0.0
  0
LINE
  8
1
  6
CONTINUOUS
 62
     2
  5
50B
 10
54.425583
 20
89.542167
 30
0.0
 11
56.284167
 21
90.04025
 31
0.0
  0
LINE
  8
1
  6
CONTINUOUS
 62
     2
  5
50C
 10
56.431583
 20
88.07025
 30
0.0
 11
56.431583
 21
88.133333
 31
0.0
  0
LINE
  8
1
  6
CONTINUOUS
 62
     2
  5
50D
 10
56.431583
 20
88.203167
 30
0.0
 11
56.431583
 21
88.285167
 31
0.0
  0
LINE
  8
1
  6
CONTINUOUS
 62
     2
  5
50E
 10
56.514917
 20
88.027667
 30
0.0
 11
56.514917
 21
88.098417
 31
0.0
  0
LINE
  8
1
  6
CONTINUOUS
 62
     2
  5
50F
 10
56.514917
 20
88.16825
 30
0.0
 11
56.514917
 21
88.339583
 31
0.0
  0
LINE
  8
1
  6
CONTINUOUS
 62
     2
  5
510
 10
56.59825
 20
87.985083
 30
0.0
 11
56.59825
 21
88.057667
 31
0.0
  0
LINE
  8
1
  6
CONTINUOUS
 62
     2
  5
511
 10
56.59825
 20
88.133333
 30
0.0
 11
56.59825
 21
88.394
 31
0.0
  0
LINE
  8
1
  6
CONTINUOUS
 62
     2
  5
512
 10
56.681583
 20
87.9425
 30
0.0
 11
56.681583
 21
88.00525
 31
0.0
  0
LINE
  8
1
  6
CONTINUOUS
 62
     2
  5
513
 10
56.681583
 20
88.092583
 30
0.0
 11
56.681583
 21
88.448417
 31
0.0
  0
LINE
  8
1
  6
CONTINUOUS
 62
     2
  5
514
 10
56.764917
 20
87.899917
 30
0.0
 11
56.764917
 21
87.970333
 31
0.0
  0
LINE
  8
1
  6
CONTINUOUS
 62
     2
  5
515
 10
56.764917
 20
88.046
 30
0.0
 11
56.764917
 21
88.502833
 31
0.0
  0
INSERT
  8
1
  6
CONTINUOUS
 62
     2
  5
516
  2
ARROW
 10
56.347083
 20
88.389333
 30
0.0
 41
0.999999
 42
0.999999
 50
212.722049
210
0.0
220
0.0
230
1.0
  0
INSERT
  8
1
  6
CONTINUOUS
 62
     2
  5
517
  2
ARROW
 10
56.416917
 20
88.16825
 30
0.0
 41
1.000002
 42
1.000002
 50
154.076418
210
0.0
220
0.0
230
1.0
  0
INSERT
  8
1
  6
CONTINUOUS
 62
     2
  5
518
  2
ARROW
 10
54.8345
 20
89.227333
 30
0.0
 41
1.000002
 42
1.000002
 50
326.446089
210
0.0
220
0.0
230
1.0
  0
LINE
  8
1
  6
CONTINUOUS
 62
     2
  5
519
 10
57.314667
 20
81.64
 30
0.0
 11
57.30925
 21
80.949917
 31
0.0
  0
LINE
  8
1
  6
CONTINUOUS
 62
     2
  5
51A
 10
55.827167
 20
81.00925
 30
0.0
 11
56.128917
 21
80.906833
 31
0.0
  0
LINE
  8
1
  6
CONTINUOUS
 62
     2
  5
51B
 10
58.3225
 20
81.117083
 30
0.0
 11
57.616417
 21
80.890667
 31
0.0
  0
INSERT
  8
1
  6
CONTINUOUS
 62
     2
  5
51C
  2
ARROW
 10
57.30925
 20
80.949917
 30
0.0
 41
0.999998
 42
0.999998
 50
269.550162
210
0.0
220
0.0
230
1.0
  0
INSERT
  8
1
  6
CONTINUOUS
 62
     2
  5
51D
  2
ARROW
 10
57.616417
 20
80.890667
 30
0.0
 41
1.000001
 42
1.000001
 50
197.779119
210
0.0
220
0.0
230
1.0
  0
INSERT
  8
1
  6
CONTINUOUS
 62
     2
  5
51E
  2
ARROW
 10
56.128917
 20
80.906833
 30
0.0
 41
0.999999
 42
0.999999
 50
341.25237
210
0.0
220
0.0
230
1.0
  0
LINE
  8
1
  6
CONTINUOUS
 62
     2
  5
51F
 10
57.810917
 20
80.864333
 30
0.0
 11
57.76525
 21
80.910083
 31
0.0
  0
LINE
  8
1
  6
CONTINUOUS
 62
     2
  5
520
 10
57.697833
 20
80.977417
 30
0.0
 11
57.44575
 21
81.2295
 31
0.0
  0
LINE
  8
1
  6
CONTINUOUS
 62
     2
  5
521
 10
57.71475
 20
80.842667
 30
0.0
 11
57.682083
 21
80.875417
 31
0.0
  0
LINE
  8
1
  6
CONTINUOUS
 62
     2
  5
522
 10
57.614667
 20
80.942833
 30
0.0
 11
57.44575
 21
81.111667
 31
0.0
  0
LINE
  8
1
  6
CONTINUOUS
 62
     2
  5
523
 10
57.907083
 20
80.886
 30
0.0
 11
57.85375
 21
80.939333
 31
0.0
  0
LINE
  8
1
  6
CONTINUOUS
 62
     2
  5
524
 10
57.802583
 20
80.990583
 30
0.0
 11
57.44575
 21
81.347417
 31
0.0
  0
LINE
  8
1
  6
CONTINUOUS
 62
     2
  5
525
 10
58.00325
 20
80.907667
 30
0.0
 11
57.947667
 21
80.96325
 31
0.0
  0
LINE
  8
1
  6
CONTINUOUS
 62
     2
  5
526
 10
57.891167
 20
81.019833
 30
0.0
 11
57.44575
 21
81.46525
 31
0.0
  0
LINE
  8
1
  6
CONTINUOUS
 62
     2
  5
527
 10
58.0995
 20
80.929333
 30
0.0
 11
58.025583
 21
81.003333
 31
0.0
  0
LINE
  8
1
  6
CONTINUOUS
 62
     2
  5
528
 10
57.9635
 20
81.065333
 30
0.0
 11
57.44575
 21
81.583083
 31
0.0
  0
LINE
  8
1
  6
CONTINUOUS
 62
     2
  5
529
 10
58.195667
 20
80.951
 30
0.0
 11
58.124833
 21
81.021833
 31
0.0
  0
LINE
  8
1
  6
CONTINUOUS
 62
     2
  5
52A
 10
58.06825
 20
81.078417
 30
0.0
 11
57.44575
 21
81.700917
 31
0.0
  0
LINE
  8
1
  6
CONTINUOUS
 62
     2
  5
52B
 10
58.287083
 20
80.977417
 30
0.0
 11
58.226833
 21
81.037667
 31
0.0
  0
LINE
  8
1
  6
CONTINUOUS
 62
     2
  5
52C
 10
58.156833
 20
81.10775
 30
0.0
 11
57.44575
 21
81.81875
 31
0.0
  0
LINE
  8
1
  6
CONTINUOUS
 62
     2
  5
52D
 10
58.368083
 20
81.014333
 30
0.0
 11
58.293917
 21
81.0885
 31
0.0
  0
LINE
  8
1
  6
CONTINUOUS
 62
     2
  5
52E
 10
58.248083
 20
81.134333
 30
0.0
 11
57.44575
 21
81.936667
 31
0.0
  0
LINE
  8
1
  6
CONTINUOUS
 62
     2
  5
52F
 10
56.193333
 20
81.076833
 30
0.0
 11
57.244583
 21
81.076833
 31
0.0
  0
LINE
  8
1
  6
CONTINUOUS
 62
     2
  5
530
 10
57.3685
 20
81.076833
 30
0.0
 11
57.433417
 21
81.076833
 31
0.0
  0
LINE
  8
1
  6
CONTINUOUS
 62
     2
  5
531
 10
56.194083
 20
80.9935
 30
0.0
 11
57.25
 21
80.9935
 31
0.0
  0
LINE
  8
1
  6
CONTINUOUS
 62
     2
  5
532
 10
57.363167
 20
80.9935
 30
0.0
 11
57.43275
 21
80.9935
 31
0.0
  0
LINE
  8
1
  6
CONTINUOUS
 62
     2
  5
533
 10
56.192667
 20
81.160167
 30
0.0
 11
57.266167
 21
81.160167
 31
0.0
  0
LINE
  8
1
  6
CONTINUOUS
 62
     2
  5
534
 10
57.347
 20
81.160167
 30
0.0
 11
57.434167
 21
81.160167
 31
0.0
  0
LINE
  8
1
  6
CONTINUOUS
 62
     2
  5
535
 10
56.191917
 20
81.2435
 30
0.0
 11
57.255333
 21
81.2435
 31
0.0
  0
LINE
  8
1
  6
CONTINUOUS
 62
     2
  5
536
 10
57.352333
 20
81.2435
 30
0.0
 11
57.434833
 21
81.2435
 31
0.0
  0
LINE
  8
1
  6
CONTINUOUS
 62
     2
  5
537
 10
56.189833
 20
81.4935
 30
0.0
 11
57.276917
 21
81.4935
 31
0.0
  0
LINE
  8
1
  6
CONTINUOUS
 62
     2
  5
538
 10
57.347
 20
81.4935
 30
0.0
 11
57.436917
 21
81.4935
 31
0.0
  0
LINE
  8
1
  6
CONTINUOUS
 62
     2
  5
539
 10
56.189083
 20
81.576833
 30
0.0
 11
57.2715
 21
81.576833
 31
0.0
  0
LINE
  8
1
  6
CONTINUOUS
 62
     2
  5
53A
 10
57.35775
 20
81.576833
 30
0.0
 11
57.437583
 21
81.576833
 31
0.0
  0
LINE
  8
1
  6
CONTINUOUS
 62
     2
  5
53B
 10
56.1905
 20
81.410167
 30
0.0
 11
57.287667
 21
81.410167
 31
0.0
  0
LINE
  8
1
  6
CONTINUOUS
 62
     2
  5
53C
 10
57.347
 20
81.410167
 30
0.0
 11
57.436167
 21
81.410167
 31
0.0
  0
LINE
  8
1
  6
CONTINUOUS
 62
     2
  5
53D
 10
56.19125
 20
81.326833
 30
0.0
 11
57.287667
 21
81.326833
 31
0.0
  0
LINE
  8
1
  6
CONTINUOUS
 62
     2
  5
53E
 10
57.341583
 20
81.326833
 30
0.0
 11
57.4355
 21
81.326833
 31
0.0
  0
LINE
  8
1
  6
CONTINUOUS
 62
     2
  5
53F
 10
55.78275
 20
80.941417
 30
0.0
 11
55.828083
 21
80.98675
 31
0.0
  0
LINE
  8
1
  6
CONTINUOUS
 62
     2
  5
540
 10
55.87125
 20
81.029917
 30
0.0
 11
56.195
 21
81.353667
 31
0.0
  0
LINE
  8
1
  6
CONTINUOUS
 62
     2
  5
541
 10
55.874833
 20
80.915667
 30
0.0
 11
55.916667
 21
80.9575
 31
0.0
  0
LINE
  8
1
  6
CONTINUOUS
 62
     2
  5
542
 10
55.95975
 20
81.000583
 30
0.0
 11
56.196417
 21
81.23725
 31
0.0
  0
LINE
  8
1
  6
CONTINUOUS
 62
     2
  5
543
 10
55.966917
 20
80.889833
 30
0.0
 11
55.997167
 21
80.920083
 31
0.0
  0
LINE
  8
1
  6
CONTINUOUS
 62
     2
  5
544
 10
56.056417
 20
80.979417
 30
0.0
 11
56.197833
 21
81.120833
 31
0.0
  0
LINE
  8
1
  6
CONTINUOUS
 62
     2
  5
545
 10
56.059
 20
80.864083
 30
0.0
 11
56.0965
 21
80.901583
 31
0.0
  0
LINE
  8
1
  6
CONTINUOUS
 62
     2
  5
546
 10
56.128833
 20
80.933917
 30
0.0
 11
56.199333
 21
81.004417
 31
0.0
  0
TEXT
  8
1
  6
CONTINUOUS
 62
     2
  5
547
 10
52.860167
 20
73.710667
 30
0.0
 40
0.12
  1
Sidewalk
 50
30.121692
  7
ROMANS
210
0.0
220
0.0
230
1.0
  0
TEXT
  8
1
  6
CONTINUOUS
 62
     2
  5
548
 10
59.191917
 20
77.221417
 30
0.0
 40
0.12
  1
Sidewalk
 50
29.165875
  7
ROMANS
210
0.0
220
0.0
230
1.0
  0
LINE
  8
1
  6
CONTINUOUS
 62
     2
  5
549
 10
55.102083
 20
75.531917
 30
0.0
 11
54.693917
 21
76.278333
 31
0.0
  0
LINE
  8
1
  6
CONTINUOUS
 62
     2
  5
54A
 10
56.740417
 20
76.469583
 30
0.0
 11
56.33225
 21
77.216
 31
0.0
  0
LINE
  8
1
  6
CONTINUOUS
 62
     2
  5
54B
 10
54.842583
 20
76.0635
 30
0.0
 11
56.436917
 21
76.955917
 31
0.0
  0
INSERT
  8
1
  6
CONTINUOUS
 62
     2
  5
54C
  2
ARROW
 10
56.436917
 20
76.955917
 30
0.0
 41
0.999998
 42
0.999998
 50
29.23769
210
0.0
220
0.0
230
1.0
  0
INSERT
  8
1
  6
CONTINUOUS
 62
     2
  5
54D
  2
ARROW
 10
54.842583
 20
76.0635
 30
0.0
 41
0.999998
 42
0.999998
 50
209.23769
210
0.0
220
0.0
230
1.0
  0
TEXT
  8
1
  6
CONTINUOUS
 62
     2
  5
54E
 10
55.105917
 20
76.27475
 30
0.0
 40
0.12
  1
5'-0" Min.
 50
29.237608
  7
ROMANS
210
0.0
220
0.0
230
1.0
  0
LINE
  8
1
  6
CONTINUOUS
 62
     2
  5
54F
 10
57.3785
 20
89.644417
 30
0.0
 11
57.90375
 21
90.118167
 31
0.0
  0
INSERT
  8
1
  6
CONTINUOUS
 62
     2
  5
550
  2
ARROW
 10
57.3785
 20
89.644417
 30
0.0
 41
1.000001
 42
1.000001
 50
222.049007
210
0.0
220
0.0
230
1.0
  0
INSERT
  8
1
  6
CONTINUOUS
 62
     2
  5
551
  2
ARROW
 10
57.90375
 20
90.118167
 30
0.0
 41
1.000001
 42
1.000001
 50
42.049007
210
0.0
220
0.0
230
1.0
  0
TEXT
  8
1
  6
CONTINUOUS
 62
     2
  5
552
 10
57.303083
 20
89.758333
 30
0.0
 40
0.12
  1
4'-0" Min.
 50
42.048925
  7
ROMANS
210
0.0
220
0.0
230
1.0
  0
LINE
  8
1
  6
CONTINUOUS
 62
     2
  5
553
 10
53.994333
 20
88.481583
 30
0.0
 11
55.07075
 21
87.4565
 31
0.0
  0
INSERT
  8
1
  6
CONTINUOUS
 62
     2
  5
554
  2
ARROW
 10
53.994333
 20
88.481583
 30
0.0
 41
1.0
 42
1.0
 50
136.399426
210
0.0
220
0.0
230
1.0
  0
INSERT
  8
1
  6
CONTINUOUS
 62
     2
  5
555
  2
ARROW
 10
55.07075
 20
87.4565
 30
0.0
 41
1.0
 42
1.0
 50
316.399426
210
0.0
220
0.0
230
1.0
  0
TEXT
  8
1
  6
CONTINUOUS
 62
     2
  5
556
 10
54.18225
 20
88.394583
 30
0.0
 40
0.12
  1
4'-0" Min.
 50
316.399286
  7
ROMANS
210
0.0
220
0.0
230
1.0
  0
TEXT
  8
1
  6
CONTINUOUS
 62
     2
  5
557
 10
55.640583
 20
82.99825
 30
0.0
 40
0.12
  1
Sidewalk
 50
359.707739
  7
ROMANS
210
0.0
220
0.0
230
1.0
  0
INSERT
  8
1
  6
CONTINUOUS
 62
     2
  5
558
  2
ARROW
 10
70.35325
 20
75.765583
 30
0.0
 41
1.000001
 42
1.000001
 50
184.432572
210
0.0
220
0.0
230
1.0
  0
INSERT
  8
1
  6
CONTINUOUS
 62
     2
  5
566
  2
*D1
 10
70.866333
 20
75.809083
 30
0.0
 70
     0
 71
     0
  0
INSERT
  8
1
  6
CONTINUOUS
 62
     2
  5
570
  2
*D2
 10
69.764167
 20
75.9105
 30
0.0
 70
     0
 71
     0
  0
LINE
  8
1
  6
CONTINUOUS
 62
     2
  5
571
 10
69.895833
 20
76.053167
 30
0.0
 11
69.617083
 21
75.7455
 31
0.0
  0
INSERT
  8
1
  6
CONTINUOUS
 62
     2
  5
572
  2
ARROW
 10
69.895833
 20
76.053167
 30
0.0
 41
1.0
 42
1.0
 50
47.822921
210
0.0
220
0.0
230
1.0
  0
INSERT
  8
1
  6
CONTINUOUS
 62
     2
  5
573
  2
ARROW
 10
69.617083
 20
75.7455
 30
0.0
 41
1.0
 42
1.0
 50
227.822921
210
0.0
220
0.0
230
1.0
  0
TEXT
  8
1
  6
CONTINUOUS
 62
     2
  5
574
 10
67.137083
 20
76.928167
 30
0.0
 40
0.12
  1
12:1 Slope (Max.)
  7
ROMANS
210
0.0
220
0.0
230
1.0
  0
TEXT
  8
1
  6
CONTINUOUS
 62
     2
  5
575
 10
67.353333
 20
76.7455
 30
0.0
 40
0.12
  1
Flare Slope
  7
ROMANS
210
0.0
220
0.0
230
1.0
  0
TEXT
  8
1
  6
CONTINUOUS
 62
     2
  5
576
 10
67.823333
 20
75.39575
 30
0.0
 40
0.12
  1
Ramp Slope
 50
4.367008
  7
ROMANS
 11
67.814196
 21
75.515402
 31
0.0
210
0.0
220
0.0
230
1.0
 73
     3
  0
TEXT
  8
1
  6
CONTINUOUS
 62
     2
  5
577
 10
67.4325
 20
75.573083
 30
0.0
 40
0.12
  1
12:1 Slope (Max.)
 50
4.367008
  7
ROMANS
210
0.0
220
0.0
230
1.0
  0
LINE
  8
1
  6
CONTINUOUS
 62
     2
  5
578
 10
67.395
 20
75.537667
 30
0.0
 11
67.451583
 21
75.594333
 31
0.0
  0
LINE
  8
1
  6
CONTINUOUS
 62
     2
  5
579
 10
67.583833
 20
75.7265
 30
0.0
 11
67.948667
 21
76.091417
 31
0.0
  0
LINE
  8
1
  6
CONTINUOUS
 62
     2
  5
57A
 10
67.522583
 20
75.547417
 30
0.0
 11
67.561
 21
75.585833
 31
0.0
  0
LINE
  8
1
  6
CONTINUOUS
 62
     2
  5
57B
 10
67.693167
 20
75.718083
 30
0.0
 11
68.065667
 21
76.090583
 31
0.0
  0
LINE
  8
1
  6
CONTINUOUS
 62
     2
  5
57C
 10
67.650167
 20
75.557167
 30
0.0
 11
67.6945
 21
75.6015
 31
0.0
  0
LINE
  8
1
  6
CONTINUOUS
 62
     2
  5
57D
 10
67.841083
 20
75.748083
 30
0.0
 11
68.18275
 21
76.08975
 31
0.0
  0
LINE
  8
1
  6
CONTINUOUS
 62
     2
  5
57E
 10
67.77775
 20
75.566917
 30
0.0
 11
67.811083
 21
75.60025
 31
0.0
  0
LINE
  8
1
  6
CONTINUOUS
 62
     2
  5
57F
 10
67.8615
 20
75.650667
 30
0.0
 11
68.29975
 21
76.088917
 31
0.0
  0
LINE
  8
1
  6
CONTINUOUS
 62
     2
  5
580
 10
67.905333
 20
75.576667
 30
0.0
 11
67.985333
 21
75.656667
 31
0.0
  0
LINE
  8
1
  6
CONTINUOUS
 62
     2
  5
581
 10
68.103083
 20
75.774417
 30
0.0
 11
68.41675
 21
76.088083
 31
0.0
  0
LINE
  8
1
  6
CONTINUOUS
 62
     2
  5
582
 10
68.032917
 20
75.586417
 30
0.0
 11
68.089917
 21
75.643417
 31
0.0
  0
LINE
  8
1
  6
CONTINUOUS
 62
     2
  5
583
 10
68.214833
 20
75.768333
 30
0.0
 11
68.53375
 21
76.08725
 31
0.0
  0
LINE
  8
1
  6
CONTINUOUS
 62
     2
  5
584
 10
68.160583
 20
75.596167
 30
0.0
 11
68.232917
 21
75.6685
 31
0.0
  0
LINE
  8
1
  6
CONTINUOUS
 62
     2
  5
585
 10
68.333917
 20
75.7695
 30
0.0
 11
68.650833
 21
76.086417
 31
0.0
  0
LINE
  8
1
  6
CONTINUOUS
 62
     2
  5
586
 10
68.288167
 20
75.605917
 30
0.0
 11
68.347167
 21
75.664917
 31
0.0
  0
LINE
  8
1
  6
CONTINUOUS
 62
     2
  5
587
 10
68.445667
 20
75.763417
 30
0.0
 11
68.767833
 21
76.085583
 31
0.0
  0
LINE
  8
1
  6
CONTINUOUS
 62
     2
  5
588
 10
68.41575
 20
75.615667
 30
0.0
 11
68.480583
 21
75.6805
 31
0.0
  0
LINE
  8
1
  6
CONTINUOUS
 62
     2
  5
589
 10
68.5695
 20
75.769417
 30
0.0
 11
68.884833
 21
76.08475
 31
0.0
  0
LINE
  8
1
  6
CONTINUOUS
 62
     2
  5
58A
 10
68.670917
 20
75.635083
 30
0.0
 11
68.733
 21
75.697167
 31
0.0
  0
LINE
  8
1
  6
CONTINUOUS
 62
     2
  5
58B
 10
68.853167
 20
75.817333
 30
0.0
 11
69.118917
 21
76.083083
 31
0.0
  0
LINE
  8
1
  6
CONTINUOUS
 62
     2
  5
58C
 10
68.7985
 20
75.644833
 30
0.0
 11
68.847167
 21
75.6935
 31
0.0
  0
LINE
  8
1
  6
CONTINUOUS
 62
     2
  5
58D
 10
68.967417
 20
75.81375
 30
0.0
 11
69.235917
 21
76.08225
 31
0.0
  0
LINE
  8
1
  6
CONTINUOUS
 62
     2
  5
58E
 10
68.926083
 20
75.654583
 30
0.0
 11
68.975833
 21
75.704333
 31
0.0
  0
LINE
  8
1
  6
CONTINUOUS
 62
     2
  5
58F
 10
69.081583
 20
75.810083
 30
0.0
 11
69.352917
 21
76.081417
 31
0.0
  0
LINE
  8
1
  6
CONTINUOUS
 62
     2
  5
590
 10
69.05375
 20
75.664333
 30
0.0
 11
69.099583
 21
75.71025
 31
0.0
  0
LINE
  8
1
  6
CONTINUOUS
 62
     2
  5
591
 10
69.202917
 20
75.813583
 30
0.0
 11
69.469917
 21
76.080583
 31
0.0
  0
LINE
  8
1
  6
CONTINUOUS
 62
     2
  5
592
 10
69.181333
 20
75.674083
 30
0.0
 11
69.218583
 21
75.711417
 31
0.0
  0
LINE
  8
1
  6
CONTINUOUS
 62
     2
  5
593
 10
69.293167
 20
75.785917
 30
0.0
 11
69.586917
 21
76.07975
 31
0.0
  0
LINE
  8
1
  6
CONTINUOUS
 62
     2
  5
594
 10
69.308917
 20
75.683833
 30
0.0
 11
69.349667
 21
75.724583
 31
0.0
  0
LINE
  8
1
  6
CONTINUOUS
 62
     2
  5
595
 10
69.426583
 20
75.8015
 30
0.0
 11
69.704
 21
76.078917
 31
0.0
  0
INSERT
  8
1
  6
CONTINUOUS
 62
     2
  5
5A1
  2
*D3
 10
67.074667
 20
75.207167
 30
0.0
 70
     0
 71
     0
  0
TEXT
  8
1
  6
CONTINUOUS
 62
     2
  5
5A2
 10
62.004083
 20
75.452333
 30
0.0
 40
0.12
  1
Pavement type
  7
ROMANS
210
0.0
220
0.0
230
1.0
  0
TEXT
  8
1
  6
CONTINUOUS
 62
     2
  5
5A3
 10
61.965583
 20
75.26
 30
0.0
 40
0.12
  1
& thickness as
  7
ROMANS
210
0.0
220
0.0
230
1.0
  0
TEXT
  8
1
  6
CONTINUOUS
 62
     2
  5
5A4
 10
62.02325
 20
75.106167
 30
0.0
 40
0.12
  1
shown on plans
  7
ROMANS
210
0.0
220
0.0
230
1.0
  0
LINE
  8
1
  6
CONTINUOUS
 62
     2
  5
5A5
 10
63.993833
 20
75.6645
 30
0.0
 11
63.542
 21
75.663833
 31
0.0
  0
LINE
  8
1
  6
CONTINUOUS
 62
     2
  5
5A6
 10
63.955333
 20
75.037917
 30
0.0
 11
63.494
 21
75.038833
 31
0.0
  0
LINE
  8
1
  6
CONTINUOUS
 62
     2
  5
5A7
 10
63.782333
 20
75.606167
 30
0.0
 11
63.782333
 21
75.106167
 31
0.0
  0
INSERT
  8
1
  6
CONTINUOUS
 62
     2
  5
5A8
  2
ARROW
 10
63.782333
 20
75.606167
 30
0.0
 50
90.0
210
0.0
220
0.0
230
1.0
  0
INSERT
  8
1
  6
CONTINUOUS
 62
     2
  5
5A9
  2
ARROW
 10
63.782333
 20
75.106167
 30
0.0
 50
270.0
210
0.0
220
0.0
230
1.0
  0
INSERT
  8
1
  6
CONTINUOUS
 62
     2
  5
5AA
  2
ARROW
 10
63.782333
 20
75.606167
 30
0.0
 50
90.0
210
0.0
220
0.0
230
1.0
  0
LINE
  8
1
  6
CONTINUOUS
 62
     2
  5
5AB
 10
64.071167
 20
75.037667
 30
0.0
 11
64.072
 21
75.205417
 31
0.0
  0
LINE
  8
1
  6
CONTINUOUS
 62
     2
  5
5AC
 10
66.539333
 20
75.472333
 30
0.0
 11
66.541083
 21
76.827333
 31
0.0
  0
INSERT
  8
1
  6
CONTINUOUS
 62
     2
  5
5B8
  2
*D4
 10
66.55075
 20
76.44275
 30
0.0
 70
     0
 71
     0
  0
INSERT
  8
1
  6
CONTINUOUS
 62
     2
  5
5C4
  2
*D5
 10
66.675667
 20
75.971583
 30
0.0
 70
     0
 71
     0
  0
LINE
  8
1
  6
CONTINUOUS
 62
     2
  5
5C5
 10
74.096417
 20
76.045667
 30
0.0
 11
74.47875
 21
76.04775
 31
0.0
  0
LINE
  8
1
  6
CONTINUOUS
 62
     2
  5
5C6
 10
74.096417
 20
75.646833
 30
0.0
 11
74.480917
 21
75.645333
 31
0.0
  0
LINE
  8
1
  6
CONTINUOUS
 62
     2
  5
5C7
 10
74.259833
 20
76.019667
 30
0.0
 11
74.259833
 21
75.683083
 31
0.0
  0
INSERT
  8
1
  6
CONTINUOUS
 62
     2
  5
5C8
  2
ARROW
 10
74.259833
 20
76.019667
 30
0.0
 50
90.0
210
0.0
220
0.0
230
1.0
  0
INSERT
  8
1
  6
CONTINUOUS
 62
     2
  5
5C9
  2
ARROW
 10
74.259833
 20
75.683083
 30
0.0
 50
270.0
210
0.0
220
0.0
230
1.0
  0
TEXT
  8
1
  6
CONTINUOUS
 62
     2
  5
5CA
 10
74.394417
 20
75.856167
 30
0.0
 40
0.12
  1
4" or as called
  7
ROMANS
210
0.0
220
0.0
230
1.0
  0
TEXT
  8
1
  6
CONTINUOUS
 62
     2
  5
5CB
 10
74.413667
 20
75.69275
 30
0.0
 40
0.12
  1
on plans
  7
ROMANS
210
0.0
220
0.0
230
1.0
  0
LINE
  8
1
  6
CONTINUOUS
 62
     2
  5
5CC
 10
56.195333
 20
80.565917
 30
0.0
 11
56.19675
 21
80.155833
 31
0.0
  0
LINE
  8
1
  6
CONTINUOUS
 62
     2
  5
5CD
 10
57.431583
 20
80.532333
 30
0.0
 11
57.430833
 21
80.148333
 31
0.0
  0
LINE
  8
1
  6
CONTINUOUS
 62
     2
  5
5CE
 10
56.226667
 20
80.409333
 30
0.0
 11
57.397
 21
80.409333
 31
0.0
  0
INSERT
  8
1
  6
CONTINUOUS
 62
     2
  5
5CF
  2
ARROW
 10
56.226667
 20
80.409333
 30
0.0
 50
180.0
210
0.0
220
0.0
230
1.0
  0
INSERT
  8
1
  6
CONTINUOUS
 62
     2
  5
5D0
  2
ARROW
 10
57.397
 20
80.409333
 30
0.0
210
0.0
220
0.0
230
1.0
  0
TEXT
  8
1
  6
CONTINUOUS
 62
     2
  5
5D1
 10
77.272333
 20
89.554083
 30
0.0
 40
0.133
  1
 specifications. A coarse broom
  7
MONOTXT
210
0.0
220
0.0
230
1.0
  0
TEXT
  8
1
  6
CONTINUOUS
 62
     2
  5
5D2
 10
77.38925
 20
89.788083
 30
0.0
 40
0.133
  1
Ramp concrete shall meet the requirements of Section 609 of the 
  7
MONOTXT
210
0.0
220
0.0
230
1.0
  0
TEXT
  8
1
  6
CONTINUOUS
 62
     2
  5
5D3
 10
77.4145
 20
89.28325
 30
0.0
 40
0.133
  1
and flare slopes, or equal 
  7
MONOTXT
210
0.0
220
0.0
230
1.0
  0
TEXT
  8
1
  6
CONTINUOUS
 62
     2
  5
5D4
 10
77.403667
 20
88.3
 30
0.0
 40
0.133
  1
Section 609 of the Specifications, shall be placed at all
  7
MONOTXT
210
0.0
220
0.0
230
1.0
  0
TEXT
  8
1
  6
CONTINUOUS
 62
     2
  5
5D5
 10
77.390333
 20
88.5575
 30
0.0
 40
0.133
  1
 1/4 " preformed expansion joint filler, meeting the requirements of 
  7
MONOTXT
210
0.0
220
0.0
230
1.0
  0
LINE
  8
1
  6
CONTINUOUS
 62
     2
  5
5D6
 10
85.07075
 20
92.395833
 30
0.0
 11
85.07075
 21
71.395833
 31
0.0
  0
TEXT
  8
1
  6
CONTINUOUS
 62
     2
  5
5D7
 10
80.69725
 20
89.532833
 30
0.0
 40
0.133
  1
finish, transverse to ramp slopes 
  7
MONOTXT
210
0.0
220
0.0
230
1.0
  0
TEXT
  8
1
  6
CONTINUOUS
 62
     2
  5
5D8
 10
77.401667
 20
88.039083
 30
0.0
 40
0.133
  1
locations where curb contacts the ramp, the gutter line between
  7
MONOTXT
210
0.0
220
0.0
230
1.0
  0
TEXT
  8
1
  6
CONTINUOUS
 62
     2
  5
5D9
 10
77.3825
 20
87.7785
 30
0.0
 40
0.133
  1
the sidewalk ramp and concrete pavement for Type VI  Ramps, and in 
  7
MONOTXT
210
0.0
220
0.0
230
1.0
  0
TEXT
  8
1
  6
CONTINUOUS
 62
     2
  5
5DA
 10
77.39525
 20
87.53875
 30
0.0
 40
0.133
  1
addition, when the ramp is poured separately from the side walk, the 
  7
MONOTXT
210
0.0
220
0.0
230
1.0
  0
TEXT
  8
1
  6
CONTINUOUS
 62
     2
  5
5DB
 10
77.416917
 20
87.27025
 30
0.0
 40
0.133
  1
expansion material shall be placed at all locations where the normal 
  7
MONOTXT
210
0.0
220
0.0
230
1.0
  0
TEXT
  8
1
  6
CONTINUOUS
 62
     2
  5
5DC
 10
77.287
 20
87.031167
 30
0.0
 40
0.133
  1
 sidewalk and the ramp abut.  Drainage structures shall not be placed
  7
MONOTXT
210
0.0
220
0.0
230
1.0
  0
TEXT
  8
1
  6
CONTINUOUS
 62
     2
  5
5DD
 10
77.273583
 20
86.78775
 30
0.0
 40
0.133
  1
 in line with ramps.
  7
MONOTXT
210
0.0
220
0.0
230
1.0
  0
TEXT
  8
1
  6
CONTINUOUS
 62
     2
  5
5DE
 10
79.193667
 20
78.914167
 30
0.0
 40
0.133
  1
not feasible.
  7
MONOTXT
210
0.0
220
0.0
230
1.0
  0
LINE
  8
1
  6
CONTINUOUS
 62
     2
  5
5DF
 10
80.373083
 20
80.399167
 30
0.0
 11
82.414333
 21
80.399167
 31
0.0
  0
LINE
  8
1
  6
CONTINUOUS
 62
     2
  5
5E0
 10
80.345417
 20
82.897583
 30
0.0
 11
82.12925
 21
82.897583
 31
0.0
  0
TEXT
  8
1
  6
CONTINUOUS
 62
     2
  5
5E1
 10
79.157333
 20
73.5645
 30
0.0
 40
0.083333
  1
  Prepared 7-1-99
  7
ROMANS
 72
     4
 11
79.848333
 21
73.606167
 31
0.0
210
0.0
220
0.0
230
1.0
  0
TEXT
  8
1
  6
CONTINUOUS
 62
     2
  5
5E2
 10
66.904
 20
79.931167
 30
0.0
 40
0.2
  1
TYPICAL RAMP LAYOUT AT
  7
ROMANS
210
0.0
220
0.0
230
1.0
  0
TEXT
  8
1
  6
CONTINUOUS
 62
     2
  5
5E3
 10
77.436583
 20
83.856917
 30
0.0
 40
0.133
  1
If the 12:1 slope cannot be obtained due to grade of the
  7
MONOTXT
210
0.0
220
0.0
230
1.0
  0
TEXT
  8
1
  6
CONTINUOUS
 62
     2
  5
5E4
 10
77.445583
 20
83.630417
 30
0.0
 40
0.133
  1
adjacent roadway the sloped portion of the ramp shall be
  7
MONOTXT
210
0.0
220
0.0
230
1.0
  0
TEXT
  8
1
  6
CONTINUOUS
 62
     2
  5
5E5
 10
77.436583
 20
83.403833
 30
0.0
 40
0.133
  1
extended to a maximum length of 8'-0".
  7
MONOTXT
210
0.0
220
0.0
230
1.0
  0
TEXT
  8
1
  6
CONTINUOUS
 62
     2
  5
5E6
 10
67.081083
 20
76.253417
 30
0.0
 40
0.12
  1
Slope 2%
  7
ROMANS
210
0.0
220
0.0
230
1.0
  0
SOLID
  8
1
  6
CONTINUOUS
 62
     2
  5
5E7
 10
68.829083
 20
76.200417
 30
0.0
 11
68.896167
 21
76.0965
 31
0.0
 12
68.788083
 22
76.156667
 32
0.0
 13
68.788083
 23
76.156667
 33
0.0
  0
TEXT
  8
1
  6
CONTINUOUS
 62
     2
  5
5E8
 10
66.893
 20
76.482833
 30
0.0
 40
0.12
  1
Sidewalk
  7
ROMANS
 11
66.893
 21
76.542833
 31
0.0
210
0.0
220
0.0
230
1.0
 73
     2
  0
LINE
  8
1
  6
CONTINUOUS
 62
     2
  5
5E9
 10
67.927833
 20
76.52975
 30
0.0
 11
68.43375
 21
76.52975
 31
0.0
  0
LINE
  8
1
  6
CONTINUOUS
 62
     2
  5
5EA
 10
68.896167
 20
76.0965
 30
0.0
 11
68.5165
 21
76.45225
 31
0.0
  0
LINE
  8
1
  6
CONTINUOUS
 62
     2
  5
5EB
 10
68.896167
 20
76.0965
 30
0.0
 11
68.43375
 21
76.52975
 31
0.0
  0
INSERT
  8
1
  6
CONTINUOUS
 62
     2
  5
5F5
  2
*D6
 10
66.9045
 20
76.2035
 30
0.0
 70
     0
 71
     0
  0
LINE
  8
1
  6
CONTINUOUS
 62
     2
  5
5F6
 10
56.760833
 20
83.5065
 30
0.0
 11
56.760833
 21
82.553
 31
0.0
  0
INSERT
  8
1
  6
CONTINUOUS
 62
     2
  5
600
  2
*D7
 10
56.760833
 20
83.5065
 30
0.0
 70
     0
 71
     0
  0
INSERT
  8
1
  6
CONTINUOUS
 62
     2
  5
60A
  2
*D8
 10
56.760833
 20
82.553
 30
0.0
 70
     0
 71
     0
  0
TEXT
  8
1
  6
CONTINUOUS
 62
     2
  5
60B
 10
57.001417
 20
82.738
 30
0.0
 40
0.12
  1
4'-0"
 50
90.0
  7
ROMANS
210
0.0
220
0.0
230
1.0
  0
ENDSEC
  0
EOF
