  0
SECTION
  2
HEADER
  9
$ACADVER
  1
AC1009
  9
$INSBASE
 10
0.0
 20
0.0
 30
0.0
  9
$EXTMIN
 10
-0.011917
 20
-0.001833
 30
0.0
  9
$EXTMAX
 10
667.67825
 20
429.537917
 30
0.0
  9
$LIMMIN
 10
0.0
 20
0.0
  9
$LIMMAX
 10
12.0
 20
9.0
  9
$ORTHOMODE
 70
     0
  9
$REGENMODE
 70
     1
  9
$FILLMODE
 70
     1
  9
$QTEXTMODE
 70
     0
  9
$MIRRTEXT
 70
     1
  9
$DRAGMODE
 70
     2
  9
$LTSCALE
 40
1.0
  9
$OSMODE
 70
     0
  9
$ATTMODE
 70
     1
  9
$TEXTSIZE
 40
0.2
  9
$TRACEWID
 40
0.05
  9
$TEXTSTYLE
  7
STANDARD
  9
$CLAYER
  8
0
  9
$CELTYPE
  6
CONTINUOUS
  9
$CECOLOR
 62
   256
  9
$DIMSCALE
 40
1.0
  9
$DIMASZ
 40
0.18
  9
$DIMEXO
 40
0.0625
  9
$DIMDLI
 40
0.38
  9
$DIMRND
 40
0.0
  9
$DIMDLE
 40
0.0
  9
$DIMEXE
 40
0.18
  9
$DIMTP
 40
0.0
  9
$DIMTM
 40
0.0
  9
$DIMTXT
 40
0.18
  9
$DIMCEN
 40
0.09
  9
$DIMTSZ
 40
0.0
  9
$DIMTOL
 70
     0
  9
$DIMLIM
 70
     0
  9
$DIMTIH
 70
     1
  9
$DIMTOH
 70
     1
  9
$DIMSE1
 70
     0
  9
$DIMSE2
 70
     0
  9
$DIMTAD
 70
     0
  9
$DIMZIN
 70
     0
  9
$DIMBLK
  1

  9
$DIMASO
 70
     1
  9
$DIMSHO
 70
     1
  9
$DIMPOST
  1

  9
$DIMAPOST
  1

  9
$DIMALT
 70
     0
  9
$DIMALTD
 70
     2
  9
$DIMALTF
 40
25.4
  9
$DIMLFAC
 40
1.0
  9
$DIMTOFL
 70
     0
  9
$DIMTVP
 40
0.0
  9
$DIMTIX
 70
     0
  9
$DIMSOXD
 70
     0
  9
$DIMSAH
 70
     0
  9
$DIMBLK1
  1

  9
$DIMBLK2
  1

  9
$DIMSTYLE
  2
STANDARD
  9
$DIMCLRD
 70
     0
  9
$DIMCLRE
 70
     0
  9
$DIMCLRT
 70
     0
  9
$DIMTFAC
 40
1.0
  9
$DIMGAP
 40
0.09
  9
$LUNITS
 70
     2
  9
$LUPREC
 70
     4
  9
$AXISMODE
 70
     0
  9
$AXISUNIT
 10
0.0
 20
0.0
  9
$SKETCHINC
 40
0.1
  9
$FILLETRAD
 40
0.0
  9
$AUNITS
 70
     0
  9
$AUPREC
 70
     0
  9
$MENU
  1
acad
  9
$ELEVATION
 40
0.0
  9
$PELEVATION
 40
0.0
  9
$THICKNESS
 40
0.0
  9
$LIMCHECK
 70
     0
  9
$BLIPMODE
 70
     1
  9
$CHAMFERA
 40
0.0
  9
$CHAMFERB
 40
0.0
  9
$SKPOLY
 70
     0
  9
$TDCREATE
 40
2451803.375613426
  9
$TDUPDATE
 40
2451803.375613426
  9
$TDINDWG
 40
0.0000000000
  9
$TDUSRTIMER
 40
0.0000000000
  9
$USRTIMER
 70
     1
  9
$ANGBASE
 50
0.0
  9
$ANGDIR
 70
     0
  9
$PDMODE
 70
     0
  9
$PDSIZE
 40
0.0
  9
$PLINEWID
 40
0.0
  9
$COORDS
 70
     0
  9
$SPLFRAME
 70
     0
  9
$SPLINETYPE
 70
     6
  9
$SPLINESEGS
 70
    10
  9
$ATTDIA
 70
     0
  9
$ATTREQ
 70
     1
  9
$HANDLING
 70
     1
  9
$HANDSEED
  5
5DA
  9
$SURFTAB1
 70
     6
  9
$SURFTAB2
 70
     6
  9
$SURFTYPE
 70
     6
  9
$SURFU
 70
     6
  9
$SURFV
 70
     6
  9
$UCSNAME
  2

  9
$UCSORG
 10
0.0
 20
0.0
 30
0.0
  9
$UCSXDIR
 10
1.0
 20
0.0
 30
0.0
  9
$UCSYDIR
 10
0.0
 20
1.0
 30
0.0
  9
$PUCSNAME
  2

  9
$PUCSORG
 10
0.0
 20
0.0
 30
0.0
  9
$PUCSXDIR
 10
1.0
 20
0.0
 30
0.0
  9
$PUCSYDIR
 10
0.0
 20
1.0
 30
0.0
  9
$USERI1
 70
     0
  9
$USERI2
 70
     0
  9
$USERI3
 70
     0
  9
$USERI4
 70
     0
  9
$USERI5
 70
     0
  9
$USERR1
 40
0.0
  9
$USERR2
 40
0.0
  9
$USERR3
 40
0.0
  9
$USERR4
 40
0.0
  9
$USERR5
 40
0.0
  9
$WORLDVIEW
 70
     1
  9
$SHADEDGE
 70
     3
  9
$SHADEDIF
 70
    70
  9
$TILEMODE
 70
     1
  9
$MAXACTVP
 70
    16
  9
$PINSBASE
 10
0.0
 20
0.0
 30
0.0
  9
$PLIMCHECK
 70
     0
  9
$PEXTMIN
 10
-1.000000E+20
 20
-1.000000E+20
 30
-1.000000E+20
  9
$PEXTMAX
 10
-1.000000E+20
 20
-1.000000E+20
 30
-1.000000E+20
  9
$PLIMMIN
 10
0.0
 20
0.0
  9
$PLIMMAX
 10
12.0
 20
9.0
  9
$UNITMODE
 70
     0
  9
$VISRETAIN
 70
     0
  9
$PLINEGEN
 70
     1
  9
$PSLTSCALE
 70
     0
  9
$TREEDEPTH
 70
  3020
  9
$DWGCODEPAGE
  3
ansi_1252
  0
ENDSEC
  0
SECTION
  2
TABLES
  0
TABLE
  2
VPORT
 70
     1
  0
VPORT
  2
*ACTIVE
 70
     0
 10
0.0
 20
0.0
 11
1.0
 21
1.0
 12
0.0
 22
0.0
 13
0.0
 23
0.0
 14
0.0
 24
0.0
 15
0.0
 25
0.0
 16
0.0
 26
0.0
 36
1.0
 17
292.83455
 27
219.517917
 37
0.0
 40
451.041
 41
1.795122
 42
50.0
 43
0.0
 44
0.0
 50
0.0
 51
0.0
 71
     0
 72
   100
 73
     1
 74
     0
 75
     0
 76
     0
 77
     0
 78
     0
  0
ENDTAB
  0
TABLE
  2
LTYPE
 70
     7
  0
LTYPE
  2
CONTINUOUS
 70
     0
  3
Solid line
 72
    65
 73
     0
 40
0.0
  0
LTYPE
  2
DOT
 70
    64
  3
. . . . . . . . . . . . . . . . . . . . . . . . . . . . . . . . .
 72
    65
 73
     2
 40
0.25
 49
0.0
 49
-0.25
  0
LTYPE
  2
HIDDEN
 70
    64
  3
__ __ __ __ __ __ __ __ __ __ __ __ __ __ __ __ __ __ __ __ __ 
 72
    65
 73
     2
 40
0.375
 49
0.25
 49
-0.125
  0
LTYPE
  2
DASHED
 70
    64
  3
__ __ __ __ __ __ __ __ __ __ __ __ __ __ __ __ __ __ __ __ __
 72
    65
 73
     2
 40
0.75
 49
0.5
 49
-0.25
  0
LTYPE
  2
DASHDOT
 70
    64
  3
__ . __ . __ . __ . __ . __ . __ . __ . __ . __ . __ . __ . _
 72
    65
 73
     4
 40
1.0
 49
0.5
 49
-0.25
 49
0.0
 49
-0.25
  0
LTYPE
  2
DIVIDE
 70
    64
  3
____ . . ____ . . ____ . . ____ . . ____ . . ____ . . ____ . .
 72
    65
 73
     6
 40
1.25
 49
0.5
 49
-0.25
 49
0.0
 49
-0.25
 49
0.0
 49
-0.25
  0
LTYPE
  2
CENTER
 70
    64
  3
____ _ ____ _ ____ _ ____ _ ____ _ ____ _ ____ _ ____ _ ____ _
 72
    65
 73
     4
 40
2.0
 49
1.25
 49
-0.25
 49
0.25
 49
-0.25
  0
ENDTAB
  0
TABLE
  2
LAYER
 70
     5
  0
LAYER
  2
0
 70
     0
 62
     7
  6
CONTINUOUS
  0
LAYER
  2
CONSTRUCTION_CLASS
 70
     0
 62
     7
  6
CONTINUOUS
  0
LAYER
  2
PATTERN_CLASS
 70
     0
 62
     7
  6
CONTINUOUS
  0
LAYER
  2
61
 70
    64
 62
     7
  6
CONTINUOUS
  0
LAYER
  2
1
 70
    64
 62
     7
  6
CONTINUOUS
  0
ENDTAB
  0
TABLE
  2
STYLE
 70
     4
  0
STYLE
  2
STANDARD
 70
     0
 40
0.0
 41
1.0
 50
0.0
 71
     0
 42
0.0
  3
txt
  4

  0
STYLE
  2
MONOTXT
 70
     0
 40
0.2
 41
1.0
 50
0.0
 71
     0
 42
0.2
  3
MONOTXT
  4

  0
STYLE
  2
ROMANT
 70
     0
 40
0.2
 41
1.0
 50
0.0
 71
     0
 42
0.2
  3
ROMANT
  4

  0
STYLE
  2
txt
 70
     0
 40
0.2
 41
1.0
 50
0.0
 71
     0
 42
0.2
  3
TXT
  4

  0
ENDTAB
  0
TABLE
  2
VIEW
 70
     0
  0
ENDTAB
  0
TABLE
  2
UCS
 70
     0
  0
ENDTAB
  0
TABLE
  2
APPID
 70
     1
  0
APPID
  2
ACAD
 70
     0
  0
ENDTAB
  0
TABLE
  2
DIMSTYLE
 70
     1
  0
DIMSTYLE
  2
STANDARD
 70
     0
  3

  4

  5

  6

  7

 40
1.0
 41
0.18
 42
0.0625
 43
0.38
 44
0.18
 45
0.0
 46
0.0
 47
0.0
 48
0.0
140
0.18
141
0.09
142
0.0
143
25.4
144
1.0
145
0.0
146
1.0
147
0.09
 71
     0
 72
     0
 73
     1
 74
     1
 75
     0
 76
     0
 77
     0
 78
     0
170
     0
171
     2
172
     0
173
     0
174
     0
175
     0
176
     0
177
     0
178
     0
  0
ENDTAB
  0
ENDSEC
  0
SECTION
  2
BLOCKS
  0
BLOCK
  8
1
  6
CONTINUOUS
 62
     1
  5
10A
  2
LDR
 70
     0
 10
0.0
 20
0.0
 30
0.0
  3
LNR
  0
POLYLINE
  8
1
  6
CONTINUOUS
 62
     1
  5
10B
 66
     1
 10
0.0
 20
0.0
 30
0.0
210
0.0
220
0.0
230
1.0
  0
VERTEX
  8
1
  6
CONTINUOUS
 62
     1
  5
10C
 10
-0.011987
 20
-0.001802
 30
0.0
 42
-0.265147
  0
VERTEX
  8
1
  6
CONTINUOUS
 62
     1
  5
10D
 10
-0.011849
 20
-0.001604
 30
0.0
 42
-0.064653
  0
VERTEX
  8
1
  6
CONTINUOUS
 62
     1
  5
10E
 10
-0.011407
 20
-0.001387
 30
0.0
 42
-0.025822
  0
VERTEX
  8
1
  6
CONTINUOUS
 62
     1
  5
10F
 10
-0.010681
 20
-0.00116
 30
0.0
 42
-0.014504
  0
VERTEX
  8
1
  6
CONTINUOUS
 62
     1
  5
110
 10
-0.0097
 20
-0.000933
 30
0.0
 42
-0.009896
  0
VERTEX
  8
1
  6
CONTINUOUS
 62
     1
  5
111
 10
-0.008505
 20
-0.000715
 30
0.0
 42
-0.007708
  0
VERTEX
  8
1
  6
CONTINUOUS
 62
     1
  5
112
 10
-0.007146
 20
-0.000515
 30
0.0
 42
-0.006655
  0
VERTEX
  8
1
  6
CONTINUOUS
 62
     1
  5
113
 10
-0.005679
 20
-0.000342
 30
0.0
 42
-0.006278
  0
VERTEX
  8
1
  6
CONTINUOUS
 62
     1
  5
114
 10
-0.004164
 20
-0.000202
 30
0.0
 42
-0.006439
  0
VERTEX
  8
1
  6
CONTINUOUS
 62
     1
  5
115
 10
-0.002666
 20
-0.000101
 30
0.0
 42
-0.007196
  0
VERTEX
  8
1
  6
CONTINUOUS
 62
     1
  5
116
 10
-0.001246
 20
-0.000044
 30
0.0
 42
-0.008852
  0
VERTEX
  8
1
  6
CONTINUOUS
 62
     1
  5
117
 10
0.000037
 20
-0.000034
 30
0.0
 42
-0.008852
  0
SEQEND
  8
1
  6
CONTINUOUS
 62
     1
  5
118
  0
POLYLINE
  8
1
  6
CONTINUOUS
 62
     1
  5
119
 66
     1
 10
0.0
 20
0.0
 30
0.0
210
0.0
220
0.0
230
1.0
  0
VERTEX
  8
1
  6
CONTINUOUS
 62
     1
  5
11A
 10
0.000039
 20
0.000014
 30
0.0
 42
-0.005019
  0
VERTEX
  8
1
  6
CONTINUOUS
 62
     1
  5
11B
 10
-0.001103
 20
0.000071
 30
0.0
 42
-0.004038
  0
VERTEX
  8
1
  6
CONTINUOUS
 62
     1
  5
11C
 10
-0.002373
 20
0.000158
 30
0.0
 42
-0.003548
  0
VERTEX
  8
1
  6
CONTINUOUS
 62
     1
  5
11D
 10
-0.003725
 20
0.00027
 30
0.0
 42
-0.003367
  0
VERTEX
  8
1
  6
CONTINUOUS
 62
     1
  5
11E
 10
-0.005111
 20
0.000405
 30
0.0
 42
-0.003436
  0
VERTEX
  8
1
  6
CONTINUOUS
 62
     1
  5
11F
 10
-0.006481
 20
0.000556
 30
0.0
 42
-0.003778
  0
VERTEX
  8
1
  6
CONTINUOUS
 62
     1
  5
120
 10
-0.007786
 20
0.00072
 30
0.0
 42
-0.00451
  0
VERTEX
  8
1
  6
CONTINUOUS
 62
     1
  5
121
 10
-0.008979
 20
0.000889
 30
0.0
 42
-0.00594
  0
VERTEX
  8
1
  6
CONTINUOUS
 62
     1
  5
122
 10
-0.010018
 20
0.001058
 30
0.0
 42
-0.008921
  0
VERTEX
  8
1
  6
CONTINUOUS
 62
     1
  5
123
 10
-0.010864
 20
0.00122
 30
0.0
 42
-0.016392
  0
VERTEX
  8
1
  6
CONTINUOUS
 62
     1
  5
124
 10
-0.011488
 20
0.001371
 30
0.0
 42
-0.04458
  0
VERTEX
  8
1
  6
CONTINUOUS
 62
     1
  5
125
 10
-0.011867
 20
0.001503
 30
0.0
 42
-0.317392
  0
VERTEX
  8
1
  6
CONTINUOUS
 62
     1
  5
126
 10
-0.011987
 20
0.001614
 30
0.0
 42
-0.317392
  0
SEQEND
  8
1
  6
CONTINUOUS
 62
     1
  5
127
  0
ENDBLK
  8
1
  6
CONTINUOUS
 62
     1
  5
128
  0
ENDSEC
  0
SECTION
  2
ENTITIES
  0
LINE
  8
61
  6
CONTINUOUS
 62
     1
  5
29
 10
667.65825
 20
429.537917
 30
0.0
 11
28.61825
 21
429.537917
 31
0.0
  0
LINE
  8
61
  6
CONTINUOUS
 62
     1
  5
2A
 10
28.61825
 20
429.537917
 30
0.0
 11
28.61825
 21
9.517917
 31
0.0
  0
LINE
  8
61
  6
CONTINUOUS
 62
     1
  5
2B
 10
667.67825
 20
9.497917
 30
0.0
 11
28.61825
 21
9.517917
 31
0.0
  0
LINE
  8
61
  6
CONTINUOUS
 62
     1
  5
2C
 10
667.65825
 20
429.537917
 30
0.0
 11
667.67825
 21
9.497917
 31
0.0
  0
LINE
  8
61
  6
CONTINUOUS
 62
     7
  5
2D
 10
661.55825
 20
424.797917
 30
0.0
 11
553.57825
 21
424.777917
 31
0.0
  0
LINE
  8
61
  6
CONTINUOUS
 62
     7
  5
2E
 10
553.57825
 20
424.777917
 30
0.0
 11
553.57825
 21
404.777917
 31
0.0
  0
LINE
  8
61
  6
CONTINUOUS
 62
     7
  5
2F
 10
661.55825
 20
424.797917
 30
0.0
 11
661.55825
 21
404.797917
 31
0.0
  0
LINE
  8
61
  6
CONTINUOUS
 62
     7
  5
30
 10
661.55825
 20
404.797917
 30
0.0
 11
553.57825
 21
404.777917
 31
0.0
  0
LINE
  8
61
  6
CONTINUOUS
 62
     7
  5
31
 10
661.57825
 20
414.757917
 30
0.0
 11
553.55825
 21
414.777917
 31
0.0
  0
LINE
  8
61
  6
CONTINUOUS
 62
     7
  5
32
 10
563.57825
 20
424.777917
 30
0.0
 11
563.57825
 21
404.777917
 31
0.0
  0
LINE
  8
61
  6
CONTINUOUS
 62
     7
  5
33
 10
573.57825
 20
424.777917
 30
0.0
 11
573.57825
 21
404.777917
 31
0.0
  0
LINE
  8
61
  6
CONTINUOUS
 62
     7
  5
34
 10
587.25825
 20
424.777917
 30
0.0
 11
587.25825
 21
404.777917
 31
0.0
  0
LINE
  8
61
  6
CONTINUOUS
 62
     7
  5
35
 10
651.55825
 20
424.797917
 30
0.0
 11
651.55825
 21
404.797917
 31
0.0
  0
LINE
  8
61
  6
CONTINUOUS
 62
     7
  5
36
 10
641.55825
 20
424.797917
 30
0.0
 11
641.55825
 21
404.797917
 31
0.0
  0
LINE
  8
61
  6
CONTINUOUS
 62
     7
  5
37
 10
619.57825
 20
424.777917
 30
0.0
 11
619.57825
 21
404.777917
 31
0.0
  0
LINE
  8
61
  6
CONTINUOUS
 62
     7
  5
38
 10
609.57825
 20
424.777917
 30
0.0
 11
609.57825
 21
404.777917
 31
0.0
  0
TEXT
  8
61
  6
CONTINUOUS
 62
     7
  5
3A
 10
555.61825
 20
421.757917
 30
0.0
 40
1.20075
  1
PUBLIC
 50
0.033272
 41
1.001804
  7
MONOTXT
210
0.0
220
0.0
230
1.0
  0
TEXT
  8
61
  6
CONTINUOUS
 62
     7
  5
3B
 10
555.69825
 20
419.237917
 30
0.0
 40
1.20075
  1
ROADS
 50
0.124322
 41
0.996877
  7
MONOTXT
210
0.0
220
0.0
230
1.0
  0
TEXT
  8
61
  6
CONTINUOUS
 62
     7
  5
3C
 10
556.89825
 20
416.737917
 30
0.0
 40
1.20075
  1
DIV.
 50
359.931522
 41
0.994864
  7
MONOTXT
210
0.0
220
0.0
230
1.0
  0
TEXT
  8
61
  6
CONTINUOUS
 62
     7
  5
3D
 10
565.77825
 20
421.817917
 30
0.0
 40
1.20075
  1
STATE
 50
0.058969
 41
0.998196
  7
MONOTXT
210
0.0
220
0.0
230
1.0
  0
TEXT
  8
61
  6
CONTINUOUS
 62
     7
  5
3E
 10
566.65825
 20
419.317917
 30
0.0
 40
1.20075
  1
DIST.
 50
0.055889
 41
0.999584
  7
MONOTXT
210
0.0
220
0.0
230
1.0
  0
TEXT
  8
61
  6
CONTINUOUS
 62
     7
  5
3F
 10
567.23825
 20
416.797917
 30
0.0
 40
1.20075
  1
NO.
 50
359.852072
 41
0.997779
  7
MONOTXT
210
0.0
220
0.0
230
1.0
  0
TEXT
  8
61
  6
CONTINUOUS
 62
     7
  5
40
 10
577.77825
 20
421.757917
 30
0.0
 40
1.20075
  1
STATE
 50
0.058969
 41
0.998196
  7
MONOTXT
210
0.0
220
0.0
230
1.0
  0
TEXT
  8
61
  6
CONTINUOUS
 62
     7
  5
41
 10
576.69825
 20
419.337917
 30
0.0
 40
1.20075
  1
PROJECT
 50
359.908431
 41
1.000069
  7
MONOTXT
210
0.0
220
0.0
230
1.0
  0
TEXT
  8
61
  6
CONTINUOUS
 62
     7
  5
42
 10
579.43825
 20
416.797917
 30
0.0
 40
1.20075
  1
NO.
 50
0.225453
 41
0.993546
  7
MONOTXT
210
0.0
220
0.0
230
1.0
  0
TEXT
  8
61
  6
CONTINUOUS
 62
     7
  5
43
 10
595.07825
 20
420.637917
 30
0.0
 40
1.20075
  1
FEDERAL
 50
0.006714
 41
0.998543
  7
MONOTXT
210
0.0
220
0.0
230
1.0
  0
TEXT
  8
61
  6
CONTINUOUS
 62
     7
  5
44
 10
593.53825
 20
417.977917
 30
0.0
 40
1.20075
  1
PROJECT NO.
 50
359.921531
 41
1.000694
  7
MONOTXT
210
0.0
220
0.0
230
1.0
  0
TEXT
  8
61
  6
CONTINUOUS
 62
     7
  5
45
 10
611.81825
 20
420.577917
 30
0.0
 40
1.20075
  1
FISCAL
 50
359.941939
 41
0.998959
  7
MONOTXT
210
0.0
220
0.0
230
1.0
  0
TEXT
  8
61
  6
CONTINUOUS
 62
     7
  5
46
 10
612.33825
 20
417.677917
 30
0.0
 40
1.20075
  1
YEAR
 50
0.104606
 41
0.993268
  7
MONOTXT
210
0.0
220
0.0
230
1.0
  0
TEXT
  8
61
  6
CONTINUOUS
 62
     7
  5
47
 10
626.43825
 20
419.037917
 30
0.0
 40
1.20075
  1
COUNTY
 50
0.068575
 41
1.001874
  7
MONOTXT
210
0.0
220
0.0
230
1.0
  0
TEXT
  8
61
  6
CONTINUOUS
 62
     7
  5
48
 10
644.07825
 20
420.697917
 30
0.0
 40
1.20075
  1
SHEET
 50
0.058969
 41
0.997571
  7
MONOTXT
210
0.0
220
0.0
230
1.0
  0
TEXT
  8
61
  6
CONTINUOUS
 62
     7
  5
49
 10
645.49825
 20
417.977917
 30
0.0
 40
1.20075
  1
NO.
 50
359.852072
 41
0.997779
  7
MONOTXT
210
0.0
220
0.0
230
1.0
  0
TEXT
  8
61
  6
CONTINUOUS
 62
     7
  5
4A
 10
653.81825
 20
420.557917
 30
0.0
 40
1.20075
  1
TOTAL
 50
359.926039
 41
0.998543
  7
MONOTXT
210
0.0
220
0.0
230
1.0
  0
TEXT
  8
61
  6
CONTINUOUS
 62
     7
  5
4B
 10
653.35825
 20
417.857917
 30
0.0
 40
1.20075
  1
SHEETS
 50
359.958675
  7
MONOTXT
210
0.0
220
0.0
230
1.0
  0
TEXT
  8
61
  6
CONTINUOUS
 62
     7
  5
4C
 10
566.17825
 20
408.977917
 30
0.0
 40
2.401333
  1
  
 50
0.029406
 41
0.996495
  7
MONOTXT
210
0.0
220
0.0
230
1.0
  0
TEXT
  8
61
  6
CONTINUOUS
 62
     7
  5
4D
 10
643.35825
 20
408.697917
 30
0.0
 40
2.401333
  1
   
 50
0.011508
 41
1.001006
  7
MONOTXT
210
0.0
220
0.0
230
1.0
  0
TEXT
  8
61
  6
CONTINUOUS
 62
     7
  5
4E
 10
653.23825
 20
408.677917
 30
0.0
 40
2.401333
  1
   
 50
359.922128
 41
1.000555
  7
MONOTXT
210
0.0
220
0.0
230
1.0
  0
TEXT
  8
61
  6
CONTINUOUS
 62
     7
  5
4F
 10
576.61825
 20
412.077917
 30
0.0
 40
2.00675
  1
    
 50
0.054383
 41
0.993729
  7
MONOTXT
210
0.0
220
0.0
230
1.0
  0
TEXT
  8
61
  6
CONTINUOUS
 62
     7
  5
50
 10
573.69825
 20
409.057917
 30
0.0
 40
1.989583
  1
       
 50
0.064678
 41
1.000963
  7
MONOTXT
210
0.0
220
0.0
230
1.0
  0
TEXT
  8
61
  6
CONTINUOUS
 62
     7
  5
51
 10
574.65825
 20
406.157917
 30
0.0
 40
1.989583
  1
      
 50
359.958053
 41
1.000293
  7
MONOTXT
210
0.0
220
0.0
230
1.0
  0
TEXT
  8
61
  6
CONTINUOUS
 62
     7
  5
52
 10
585.61825
 20
410.797917
 30
0.0
 40
2.401333
  1
           
 50
0.011508
 41
0.998751
  7
MONOTXT
210
0.0
220
0.0
230
1.0
  0
TEXT
  8
61
  6
CONTINUOUS
 62
     7
  5
53
 10
585.49825
 20
407.137917
 30
0.0
 40
2.401333
  1
           
 50
0.011508
 41
0.999584
  7
MONOTXT
210
0.0
220
0.0
230
1.0
  0
TEXT
  8
61
  6
CONTINUOUS
 62
     7
  5
54
 10
620.83825
 20
408.877917
 30
0.0
 40
2.00675
  1
          
 50
0.009222
 41
0.992774
  7
MONOTXT
210
0.0
220
0.0
230
1.0
  0
ARC
  8
61
  6
CONTINUOUS
 62
     3
  5
55
 10
10.316007
 20
340.779212
 30
0.0
 40
2.499998
 50
323.130094
 51
316.232156
210
0.0
220
0.0
230
1.0
  0
ARC
  8
61
  6
CONTINUOUS
 62
     3
  5
56
 10
10.316007
 20
285.779212
 30
0.0
 40
2.499998
 50
323.130094
 51
315.375767
210
0.0
220
0.0
230
1.0
  0
ARC
  8
61
  6
CONTINUOUS
 62
     3
  5
57
 10
10.036007
 20
137.339212
 30
0.0
 40
2.499998
 50
322.671753
 51
321.716147
210
0.0
220
0.0
230
1.0
  0
ARC
  8
61
  6
CONTINUOUS
 62
     3
  5
58
 10
10.036007
 20
82.339212
 30
0.0
 40
2.499998
 50
323.130094
 51
312.314392
210
0.0
220
0.0
230
1.0
  0
LINE
  8
61
  6
CONTINUOUS
 62
     2
  5
59
 10
12.33825
 20
340.777917
 30
0.0
 11
20.31825
 21
340.797917
 31
0.0
  0
LINE
  8
61
  6
CONTINUOUS
 62
     2
  5
5A
 10
12.31825
 20
285.777917
 30
0.0
 11
20.31825
 21
285.777917
 31
0.0
  0
LINE
  8
61
  6
CONTINUOUS
 62
     2
  5
5B
 10
12.03825
 20
137.357917
 30
0.0
 11
20.03825
 21
137.357917
 31
0.0
  0
LINE
  8
61
  6
CONTINUOUS
 62
     2
  5
5C
 10
12.05825
 20
82.337917
 30
0.0
 11
20.03825
 21
82.337917
 31
0.0
  0
TEXT
  8
61
  6
CONTINUOUS
 62
     7
  5
5D
 10
654.45825
 20
384.877917
 30
0.0
 40
2.401333
  1
     
 41
1.001388
  7
MONOTXT
210
0.0
220
0.0
230
1.0
  0
LINE
  8
1
  6
CONTINUOUS
 62
     7
  5
5F
 10
496.01825
 20
9.497917
 30
0.0
 11
496.01825
 21
101.077917
 31
0.0
  0
LINE
  8
1
  6
CONTINUOUS
 62
     7
  5
60
 10
496.01825
 20
101.077917
 30
0.0
 11
667.67825
 21
101.077917
 31
0.0
  0
LINE
  8
1
  6
CONTINUOUS
 62
     7
  5
61
 10
531.01825
 20
9.457917
 30
0.0
 11
531.01825
 21
54.417917
 31
0.0
  0
LINE
  8
1
  6
CONTINUOUS
 62
     7
  5
62
 10
531.01825
 20
54.417917
 30
0.0
 11
496.03825
 21
54.417917
 31
0.0
  0
LINE
  8
1
  6
CONTINUOUS
 62
     7
  5
63
 10
531.01825
 20
49.937917
 30
0.0
 11
496.03825
 21
49.937917
 31
0.0
  0
LINE
  8
1
  6
CONTINUOUS
 62
     7
  5
64
 10
531.01825
 20
45.437917
 30
0.0
 11
496.03825
 21
45.437917
 31
0.0
  0
LINE
  8
1
  6
CONTINUOUS
 62
     7
  5
65
 10
531.01825
 20
40.937917
 30
0.0
 11
496.03825
 21
40.937917
 31
0.0
  0
LINE
  8
1
  6
CONTINUOUS
 62
     7
  5
66
 10
531.01825
 20
36.417917
 30
0.0
 11
496.03825
 21
36.417917
 31
0.0
  0
LINE
  8
1
  6
CONTINUOUS
 62
     7
  5
67
 10
531.01825
 20
31.937917
 30
0.0
 11
496.03825
 21
31.937917
 31
0.0
  0
LINE
  8
1
  6
CONTINUOUS
 62
     7
  5
68
 10
531.01825
 20
27.457917
 30
0.0
 11
496.03825
 21
27.457917
 31
0.0
  0
LINE
  8
1
  6
CONTINUOUS
 62
     7
  5
69
 10
531.01825
 20
22.957917
 30
0.0
 11
496.03825
 21
22.957917
 31
0.0
  0
LINE
  8
1
  6
CONTINUOUS
 62
     7
  5
6A
 10
531.01825
 20
18.457917
 30
0.0
 11
496.03825
 21
18.457917
 31
0.0
  0
LINE
  8
1
  6
CONTINUOUS
 62
     7
  5
6B
 10
531.01825
 20
13.937917
 30
0.0
 11
496.03825
 21
13.937917
 31
0.0
  0
TEXT
  8
1
  6
CONTINUOUS
 62
     7
  5
6C
 10
506.29825
 20
51.417917
 30
0.0
 40
1.99775
  1
REVISIONS
  7
MONOTXT
210
0.0
220
0.0
230
1.0
  0
TEXT
  8
1
  6
CONTINUOUS
 62
     7
  5
6D
 10
497.97825
 20
55.417917
 30
0.0
 40
1.99775
  1
PREPARED: 09/18/74
  7
MONOTXT
210
0.0
220
0.0
230
1.0
  0
TEXT
  8
1
  6
CONTINUOUS
 62
     7
  5
6F
 10
528.63825
 20
92.477917
 30
0.0
 40
4.794833
  1
WEST VIRGINIA DIVISION OF HIGHWAYS
  7
ROMANT
 72
     1
 11
582.6085
 21
97.27275
 31
0.0
210
0.0
220
0.0
230
1.0
 73
     3
  0
TEXT
  8
1
  6
CONTINUOUS
 62
     7
  5
71
 10
539.39825
 20
81.317917
 30
0.0
 40
6.992667
  1
STANDARD DETAIL
  7
txt
 72
     1
 11
583.888333
 21
88.310583
 31
0.0
210
0.0
220
0.0
230
1.0
 73
     3
  0
TEXT
  8
1
  6
CONTINUOUS
 62
     7
  5
72
 10
534.85825
 20
13.537917
 30
0.0
 40
6.992667
  1
STANDARD SHEET TE10-2
  7
txt
210
0.0
220
0.0
230
1.0
  0
TEXT
  8
1
  6
CONTINUOUS
 62
     1
  5
73
 10
506.562333
 20
46.357917
 30
0.0
 40
2.0
  1
06-01-76
  7
MONOTXT
 72
     1
 11
513.326167
 21
48.357917
 31
0.0
210
0.0
220
0.0
230
1.0
 73
     3
  0
TEXT
  8
1
  6
CONTINUOUS
 62
     1
  5
74
 10
506.920333
 20
41.957917
 30
0.0
 40
2.0
  1
10-21-76
  7
MONOTXT
 72
     1
 11
513.30625
 21
43.957917
 31
0.0
210
0.0
220
0.0
230
1.0
 73
     3
  0
TEXT
  8
1
  6
CONTINUOUS
 62
     1
  5
75
 10
506.893083
 20
37.557917
 30
0.0
 40
2.0
  1
12-18-87
  7
MONOTXT
 72
     1
 11
513.318417
 21
39.557917
 31
0.0
210
0.0
220
0.0
230
1.0
 73
     3
  0
TEXT
  8
1
  6
CONTINUOUS
 62
     1
  5
76
 10
506.625333
 20
33.157917
 30
0.0
 40
2.0
  1
01-13-93
  7
MONOTXT
 72
     1
 11
512.9955
 21
35.157917
 31
0.0
210
0.0
220
0.0
230
1.0
 73
     3
  0
TEXT
  8
1
  6
CONTINUOUS
 62
     1
  5
77
 10
505.15825
 20
28.557917
 30
0.0
 40
2.0
  1
        
  7
MONOTXT
 72
     1
 11
512.825083
 21
30.557917
 31
0.0
210
0.0
220
0.0
230
1.0
 73
     3
  0
TEXT
  8
1
  6
CONTINUOUS
 62
     1
  5
78
 10
505.31825
 20
24.077917
 30
0.0
 40
2.0
  1
        
  7
MONOTXT
 72
     1
 11
512.985083
 21
26.077917
 31
0.0
210
0.0
220
0.0
230
1.0
 73
     3
  0
TEXT
  8
1
  6
CONTINUOUS
 62
     1
  5
79
 10
505.21825
 20
19.477917
 30
0.0
 40
2.0
  1
        
  7
MONOTXT
 72
     1
 11
512.885083
 21
21.477917
 31
0.0
210
0.0
220
0.0
230
1.0
 73
     3
  0
TEXT
  8
1
  6
CONTINUOUS
 62
     1
  5
7A
 10
505.31825
 20
14.897917
 30
0.0
 40
2.0
  1
        
  7
MONOTXT
 72
     1
 11
512.985083
 21
16.897917
 31
0.0
210
0.0
220
0.0
230
1.0
 73
     3
  0
TEXT
  8
1
  6
CONTINUOUS
 62
     1
  5
7B
 10
505.31825
 20
10.877917
 30
0.0
 40
2.0
  1
        
  7
MONOTXT
 72
     1
 11
512.985083
 21
12.877917
 31
0.0
210
0.0
220
0.0
230
1.0
 73
     3
  0
POLYLINE
  8
1
  6
CONTINUOUS
 62
     7
  5
7C
 66
     1
 10
0.0
 20
0.0
 30
0.0
  0
VERTEX
  8
1
  6
CONTINUOUS
 62
     7
  5
7D
 10
498.392583
 20
111.318583
 30
0.0
  0
VERTEX
  8
1
  6
CONTINUOUS
 62
     7
  5
7E
 10
496.392583
 20
107.8545
 30
0.0
  0
VERTEX
  8
1
  6
CONTINUOUS
 62
     7
  5
7F
 10
500.392583
 20
107.8545
 30
0.0
  0
VERTEX
  8
1
  6
CONTINUOUS
 62
     7
  5
80
 10
498.392583
 20
111.318583
 30
0.0
  0
SEQEND
  8
1
  6
CONTINUOUS
 62
     7
  5
81
  0
POLYLINE
  8
1
  6
CONTINUOUS
 62
     7
  5
82
 66
     1
 10
0.0
 20
0.0
 30
0.0
  0
VERTEX
  8
1
  6
CONTINUOUS
 62
     7
  5
83
 10
498.517667
 20
116.162083
 30
0.0
  0
VERTEX
  8
1
  6
CONTINUOUS
 62
     7
  5
84
 10
496.517667
 20
112.698
 30
0.0
  0
VERTEX
  8
1
  6
CONTINUOUS
 62
     7
  5
85
 10
500.517667
 20
112.698
 30
0.0
  0
VERTEX
  8
1
  6
CONTINUOUS
 62
     7
  5
86
 10
498.517667
 20
116.162083
 30
0.0
  0
SEQEND
  8
1
  6
CONTINUOUS
 62
     7
  5
87
  0
POLYLINE
  8
1
  6
CONTINUOUS
 62
     7
  5
88
 66
     1
 10
0.0
 20
0.0
 30
0.0
  0
VERTEX
  8
1
  6
CONTINUOUS
 62
     7
  5
89
 10
501.070083
 20
49.36575
 30
0.0
  0
VERTEX
  8
1
  6
CONTINUOUS
 62
     7
  5
8A
 10
499.070083
 20
45.901667
 30
0.0
  0
VERTEX
  8
1
  6
CONTINUOUS
 62
     7
  5
8B
 10
503.070083
 20
45.901667
 30
0.0
  0
VERTEX
  8
1
  6
CONTINUOUS
 62
     7
  5
8C
 10
501.070083
 20
49.36575
 30
0.0
  0
SEQEND
  8
1
  6
CONTINUOUS
 62
     7
  5
8D
  0
POLYLINE
  8
1
  6
CONTINUOUS
 62
     7
  5
8E
 66
     1
 10
0.0
 20
0.0
 30
0.0
  0
VERTEX
  8
1
  6
CONTINUOUS
 62
     7
  5
8F
 10
501.110667
 20
44.946333
 30
0.0
  0
VERTEX
  8
1
  6
CONTINUOUS
 62
     7
  5
90
 10
499.110667
 20
41.48225
 30
0.0
  0
VERTEX
  8
1
  6
CONTINUOUS
 62
     7
  5
91
 10
503.110667
 20
41.48225
 30
0.0
  0
VERTEX
  8
1
  6
CONTINUOUS
 62
     7
  5
92
 10
501.110667
 20
44.946333
 30
0.0
  0
SEQEND
  8
1
  6
CONTINUOUS
 62
     7
  5
93
  0
POLYLINE
  8
1
  6
CONTINUOUS
 62
     7
  5
94
 66
     1
 10
0.0
 20
0.0
 30
0.0
  0
VERTEX
  8
1
  6
CONTINUOUS
 62
     7
  5
95
 10
501.191917
 20
40.460167
 30
0.0
  0
VERTEX
  8
1
  6
CONTINUOUS
 62
     7
  5
96
 10
499.191917
 20
36.996083
 30
0.0
  0
VERTEX
  8
1
  6
CONTINUOUS
 62
     7
  5
97
 10
503.191917
 20
36.996083
 30
0.0
  0
VERTEX
  8
1
  6
CONTINUOUS
 62
     7
  5
98
 10
501.191917
 20
40.460167
 30
0.0
  0
SEQEND
  8
1
  6
CONTINUOUS
 62
     7
  5
99
  0
TEXT
  8
1
  6
CONTINUOUS
 62
     7
  5
9A
 10
498.202667
 20
113.176333
 30
0.0
 40
2.0
  1
1
  7
MONOTXT
210
0.0
220
0.0
230
1.0
  0
TEXT
  8
1
  6
CONTINUOUS
 62
     7
  5
9B
 10
497.675083
 20
108.12475
 30
0.0
 40
2.0
  1
2
  7
MONOTXT
210
0.0
220
0.0
230
1.0
  0
TEXT
  8
1
  6
CONTINUOUS
 62
     7
  5
9C
 10
501.443667
 20
113.704167
 30
0.0
 40
2.0
  1
DELETED SIGN PLACEMENT AND SHIM DETAIL
  7
MONOTXT
210
0.0
220
0.0
230
1.0
  0
TEXT
  8
1
  6
CONTINUOUS
 62
     7
  5
9D
 10
501.217583
 20
108.426333
 30
0.0
 40
2.0
  1
ADDED EXTRUDED RIB DETAIL
  7
MONOTXT
210
0.0
220
0.0
230
1.0
  0
TEXT
  8
1
  6
CONTINUOUS
 62
     7
  5
9E
 10
500.76375
 20
46.223667
 30
0.0
 40
2.0
  1
1
  7
MONOTXT
210
0.0
220
0.0
230
1.0
  0
TEXT
  8
1
  6
CONTINUOUS
 62
     7
  5
9F
 10
500.479333
 20
41.71225
 30
0.0
 40
2.0
  1
2
  7
MONOTXT
210
0.0
220
0.0
230
1.0
  0
TEXT
  8
1
  6
CONTINUOUS
 62
     7
  5
A0
 10
500.479333
 20
37.200833
 30
0.0
 40
2.0
  1
3
  7
MONOTXT
210
0.0
220
0.0
230
1.0
  0
TEXT
  8
1
  6
CONTINUOUS
 62
     7
  5
A1
 10
528.237
 20
71.587917
 30
0.0
 40
6.992667
  1
FLAT SHEET SIGNS ON
  7
txt
 72
     1
 11
583.579667
 21
78.580583
 31
0.0
210
0.0
220
0.0
230
1.0
 73
     3
  0
TEXT
  8
1
  6
CONTINUOUS
 62
     7
  5
A2
 10
527.435
 20
62.012333
 30
0.0
 40
6.992667
  1
BREAKAWAY SUPPORTS
  7
txt
 72
     1
 11
583.57975
 21
69.005
 31
0.0
210
0.0
220
0.0
230
1.0
 73
     3
  0
LINE
  8
1
  6
HIDDEN
 62
     3
  5
A3
 10
279.959833
 20
357.33375
 30
0.0
 11
281.959833
 21
357.33375
 31
0.0
  0
LINE
  8
1
  6
HIDDEN
 62
     3
  5
A4
 10
291.959833
 20
357.33375
 30
0.0
 11
293.959833
 21
357.33375
 31
0.0
  0
LINE
  8
1
  6
CONTINUOUS
 62
     3
  5
A5
 10
291.959833
 20
332.33475
 30
0.0
 11
293.959833
 21
332.33475
 31
0.0
  0
LINE
  8
1
  6
CONTINUOUS
 62
     3
  5
A6
 10
279.959833
 20
332.33475
 30
0.0
 11
281.959833
 21
332.33475
 31
0.0
  0
LINE
  8
1
  6
CONTINUOUS
 62
     3
  5
A7
 10
278.709833
 20
275.690833
 30
0.0
 11
283.209833
 21
275.690833
 31
0.0
  0
LINE
  8
1
  6
CONTINUOUS
 62
     3
  5
A8
 10
290.709833
 20
272.190833
 30
0.0
 11
295.209833
 21
272.190833
 31
0.0
  0
LINE
  8
1
  6
CONTINUOUS
 62
     3
  5
A9
 10
278.709833
 20
274.190833
 30
0.0
 11
283.209833
 21
274.190833
 31
0.0
  0
LINE
  8
1
  6
CONTINUOUS
 62
     3
  5
AA
 10
290.709833
 20
270.690833
 30
0.0
 11
295.209833
 21
270.690833
 31
0.0
  0
LINE
  8
1
  6
CONTINUOUS
 62
     3
  5
AB
 10
278.709833
 20
275.690833
 30
0.0
 11
278.709833
 21
274.190833
 31
0.0
  0
LINE
  8
1
  6
CONTINUOUS
 62
     3
  5
AC
 10
283.209833
 20
275.690833
 30
0.0
 11
283.209833
 21
274.190833
 31
0.0
  0
LINE
  8
1
  6
CONTINUOUS
 62
     3
  5
AD
 10
290.709833
 20
272.190833
 30
0.0
 11
290.709833
 21
270.690833
 31
0.0
  0
LINE
  8
1
  6
CONTINUOUS
 62
     3
  5
AE
 10
295.209833
 20
272.190833
 30
0.0
 11
295.209833
 21
270.690833
 31
0.0
  0
LINE
  8
1
  6
CONTINUOUS
 62
     3
  5
AF
 10
278.709833
 20
274.940833
 30
0.0
 11
283.209833
 21
274.940833
 31
0.0
  0
LINE
  8
1
  6
CONTINUOUS
 62
     3
  5
B0
 10
290.709833
 20
271.440833
 30
0.0
 11
295.209833
 21
271.440833
 31
0.0
  0
LINE
  8
1
  6
DASHED
 62
     3
  5
B1
 10
279.959833
 20
239.33375
 30
0.0
 11
281.959833
 21
239.33375
 31
0.0
  0
LINE
  8
1
  6
DASHED
 62
     3
  5
B2
 10
291.959833
 20
235.33375
 30
0.0
 11
293.959833
 21
235.33375
 31
0.0
  0
LINE
  8
1
  6
CONTINUOUS
 62
     3
  5
B3
 10
256.635083
 20
278.830917
 30
0.0
 11
304.432083
 21
263.46775
 31
0.0
  0
LINE
  8
1
  6
DASHED
 62
     3
  5
B4
 10
279.959833
 20
271.33375
 30
0.0
 11
279.959833
 21
239.33375
 31
0.0
  0
LINE
  8
1
  6
DASHED
 62
     3
  5
B5
 10
281.959833
 20
270.690833
 30
0.0
 11
281.959833
 21
239.33375
 31
0.0
  0
LINE
  8
1
  6
DASHED
 62
     3
  5
B6
 10
291.959833
 20
267.476583
 30
0.0
 11
291.959833
 21
235.33375
 31
0.0
  0
LINE
  8
1
  6
DASHED
 62
     3
  5
B7
 10
293.959833
 20
266.83375
 30
0.0
 11
293.959833
 21
235.33375
 31
0.0
  0
LINE
  8
1
  6
DASHED
 62
     3
  5
B8
 10
277.459833
 20
229.33375
 30
0.0
 11
284.459833
 21
229.33375
 31
0.0
  0
LINE
  8
1
  6
DASHED
 62
     3
  5
B9
 10
289.459833
 20
225.33375
 30
0.0
 11
296.459833
 21
225.33375
 31
0.0
  0
LINE
  8
1
  6
CONTINUOUS
 62
     3
  5
BA
 10
279.959833
 20
270.83375
 30
0.0
 11
275.459833
 21
270.83375
 31
0.0
  0
LINE
  8
1
  6
DASHED
 62
     3
  5
BB
 10
277.459833
 20
229.33375
 30
0.0
 11
277.459833
 21
270.83375
 31
0.0
  0
LINE
  8
1
  6
DASHED
 62
     3
  5
BC
 10
284.459833
 20
229.33375
 30
0.0
 11
284.459833
 21
269.887333
 31
0.0
  0
LINE
  8
1
  6
DASHED
 62
     3
  5
BD
 10
289.459833
 20
225.33375
 30
0.0
 11
289.459833
 21
268.28025
 31
0.0
  0
LINE
  8
1
  6
DASHED
 62
     3
  5
BE
 10
296.459833
 20
225.33375
 30
0.0
 11
296.459833
 21
266.03025
 31
0.0
  0
LINE
  8
1
  6
CONTINUOUS
 62
     3
  5
BF
 10
279.959833
 20
271.33375
 30
0.0
 11
279.959833
 21
274.190833
 31
0.0
  0
LINE
  8
1
  6
CONTINUOUS
 62
     3
  5
C0
 10
291.959833
 20
267.476583
 30
0.0
 11
291.959833
 21
270.690833
 31
0.0
  0
LINE
  8
1
  6
CONTINUOUS
 62
     3
  5
C1
 10
281.959833
 20
270.690833
 30
0.0
 11
281.959833
 21
274.190833
 31
0.0
  0
LINE
  8
1
  6
CONTINUOUS
 62
     3
  5
C2
 10
293.959833
 20
266.83375
 30
0.0
 11
293.959833
 21
270.690833
 31
0.0
  0
LINE
  8
1
  6
HIDDEN
 62
     3
  5
C3
 10
273.721667
 20
360.33375
 30
0.0
 11
300.157333
 21
360.33375
 31
0.0
  0
LINE
  8
1
  6
HIDDEN
 62
     3
  5
C4
 10
302.728833
 20
355.788667
 30
0.0
 11
289.511
 21
333.790417
 31
0.0
  0
LINE
  8
1
  6
HIDDEN
 62
     3
  5
C5
 10
271.150083
 20
355.788667
 30
0.0
 11
284.368
 21
333.790417
 31
0.0
  0
LINE
  8
1
  6
HIDDEN
 62
     3
  5
C6
 10
279.959833
 20
357.33375
 30
0.0
 11
279.959833
 21
341.126833
 31
0.0
  0
LINE
  8
1
  6
HIDDEN
 62
     3
  5
C7
 10
281.959833
 20
357.33375
 30
0.0
 11
281.959833
 21
337.798333
 31
0.0
  0
LINE
  8
1
  6
CONTINUOUS
 62
     3
  5
C8
 10
281.959833
 20
337.798333
 30
0.0
 11
281.959833
 21
275.690833
 31
0.0
  0
LINE
  8
1
  6
HIDDEN
 62
     3
  5
C9
 10
291.959833
 20
357.33375
 30
0.0
 11
291.959833
 21
337.866
 31
0.0
  0
LINE
  8
1
  6
CONTINUOUS
 62
     3
  5
CA
 10
291.959833
 20
337.866
 30
0.0
 11
291.959833
 21
272.190833
 31
0.0
  0
LINE
  8
1
  6
HIDDEN
 62
     3
  5
CB
 10
293.959833
 20
357.33375
 30
0.0
 11
293.959833
 21
341.194583
 31
0.0
  0
LINE
  8
1
  6
CONTINUOUS
 62
     3
  5
CC
 10
293.959833
 20
341.194583
 30
0.0
 11
293.959833
 21
272.190833
 31
0.0
  0
ARC
  8
1
  6
HIDDEN
 62
     3
  5
CD
 10
273.721626
 20
357.33375
 30
0.0
 40
3.0
 50
90.0
 51
210.999792
210
0.0
220
0.0
230
1.0
  0
ARC
  8
1
  6
HIDDEN
 62
     3
  5
CE
 10
300.157367
 20
357.33375
 30
0.0
 40
3.0
 50
329.000144
 51
90.0
210
0.0
220
0.0
230
1.0
  0
ARC
  8
1
  6
HIDDEN
 62
     3
  5
CF
 10
286.93954
 20
335.335534
 30
0.0
 40
3.0
 50
210.999769
 51
328.999436
210
0.0
220
0.0
230
1.0
  0
LINE
  8
1
  6
CONTINUOUS
 62
     3
  5
D0
 10
279.959833
 20
329.283583
 30
0.0
 11
281.959833
 21
329.283583
 31
0.0
  0
LINE
  8
1
  6
CONTINUOUS
 62
     3
  5
D1
 10
291.959833
 20
329.283583
 30
0.0
 11
293.959833
 21
329.283583
 31
0.0
  0
LINE
  8
1
  6
CONTINUOUS
 62
     7
  5
D2
 10
280.959833
 20
238.33375
 30
0.0
 11
280.959833
 21
294.83375
 31
0.0
  0
LINE
  8
1
  6
CONTINUOUS
 62
     7
  5
D3
 10
292.959833
 20
234.33375
 30
0.0
 11
292.959833
 21
294.83375
 31
0.0
  0
LINE
  8
1
  6
CONTINUOUS
 62
     7
  5
D4
 10
280.959833
 20
315.33375
 30
0.0
 11
280.959833
 21
298.83375
 31
0.0
  0
LINE
  8
1
  6
CONTINUOUS
 62
     7
  5
D5
 10
280.959833
 20
297.83375
 30
0.0
 11
280.959833
 21
295.83375
 31
0.0
  0
LINE
  8
1
  6
CONTINUOUS
 62
     7
  5
D6
 10
292.959833
 20
315.33375
 30
0.0
 11
292.959833
 21
298.83375
 31
0.0
  0
LINE
  8
1
  6
CONTINUOUS
 62
     7
  5
D7
 10
292.959833
 20
297.83375
 30
0.0
 11
292.959833
 21
295.83375
 31
0.0
  0
LINE
  8
1
  6
CONTINUOUS
 62
     3
  5
D8
 10
357.709833
 20
275.690833
 30
0.0
 11
362.209833
 21
275.690833
 31
0.0
  0
LINE
  8
1
  6
CONTINUOUS
 62
     3
  5
D9
 10
375.709833
 20
272.190833
 30
0.0
 11
380.209833
 21
272.190833
 31
0.0
  0
LINE
  8
1
  6
CONTINUOUS
 62
     3
  5
DA
 10
357.709833
 20
274.190833
 30
0.0
 11
362.209833
 21
274.190833
 31
0.0
  0
LINE
  8
1
  6
CONTINUOUS
 62
     3
  5
DB
 10
375.709833
 20
270.690833
 30
0.0
 11
380.209833
 21
270.690833
 31
0.0
  0
LINE
  8
1
  6
CONTINUOUS
 62
     3
  5
DC
 10
357.709833
 20
275.690833
 30
0.0
 11
357.709833
 21
274.190833
 31
0.0
  0
LINE
  8
1
  6
CONTINUOUS
 62
     3
  5
DD
 10
362.209833
 20
275.690833
 30
0.0
 11
362.209833
 21
274.190833
 31
0.0
  0
LINE
  8
1
  6
CONTINUOUS
 62
     3
  5
DE
 10
375.709833
 20
272.190833
 30
0.0
 11
375.709833
 21
270.690833
 31
0.0
  0
LINE
  8
1
  6
CONTINUOUS
 62
     3
  5
DF
 10
380.209833
 20
272.190833
 30
0.0
 11
380.209833
 21
270.690833
 31
0.0
  0
LINE
  8
1
  6
CONTINUOUS
 62
     3
  5
E0
 10
357.709833
 20
274.940833
 30
0.0
 11
362.209833
 21
274.940833
 31
0.0
  0
LINE
  8
1
  6
CONTINUOUS
 62
     3
  5
E1
 10
375.709833
 20
271.440833
 30
0.0
 11
380.209833
 21
271.440833
 31
0.0
  0
LINE
  8
1
  6
DASHED
 62
     3
  5
E2
 10
358.959833
 20
239.33375
 30
0.0
 11
360.959833
 21
239.33375
 31
0.0
  0
LINE
  8
1
  6
DASHED
 62
     3
  5
E3
 10
376.959833
 20
235.33375
 30
0.0
 11
378.959833
 21
235.33375
 31
0.0
  0
LINE
  8
1
  6
DASHED
 62
     3
  5
E4
 10
358.959833
 20
271.450167
 30
0.0
 11
358.959833
 21
239.33375
 31
0.0
  0
LINE
  8
1
  6
DASHED
 62
     3
  5
E5
 10
360.959833
 20
270.807333
 30
0.0
 11
360.959833
 21
239.33375
 31
0.0
  0
LINE
  8
1
  6
DASHED
 62
     3
  5
E6
 10
376.959833
 20
265.6645
 30
0.0
 11
376.959833
 21
235.33375
 31
0.0
  0
LINE
  8
1
  6
DASHED
 62
     3
  5
E7
 10
378.959833
 20
265.021667
 30
0.0
 11
378.959833
 21
235.33375
 31
0.0
  0
LINE
  8
1
  6
DASHED
 62
     3
  5
E8
 10
356.459833
 20
229.33375
 30
0.0
 11
363.459833
 21
229.33375
 31
0.0
  0
LINE
  8
1
  6
DASHED
 62
     3
  5
E9
 10
374.459833
 20
225.33375
 30
0.0
 11
381.459833
 21
225.33375
 31
0.0
  0
LINE
  8
1
  6
CONTINUOUS
 62
     3
  5
EA
 10
358.959833
 20
270.83375
 30
0.0
 11
354.459833
 21
270.83375
 31
0.0
  0
LINE
  8
1
  6
DASHED
 62
     3
  5
EB
 10
356.459833
 20
229.33375
 30
0.0
 11
356.459833
 21
270.83375
 31
0.0
  0
LINE
  8
1
  6
DASHED
 62
     3
  5
EC
 10
363.459833
 20
229.33375
 30
0.0
 11
363.459833
 21
270.00375
 31
0.0
  0
LINE
  8
1
  6
DASHED
 62
     3
  5
ED
 10
374.459833
 20
225.33375
 30
0.0
 11
374.459833
 21
266.468083
 31
0.0
  0
LINE
  8
1
  6
DASHED
 62
     3
  5
EE
 10
381.459833
 20
225.33375
 30
0.0
 11
381.459833
 21
264.218083
 31
0.0
  0
LINE
  8
1
  6
CONTINUOUS
 62
     3
  5
EF
 10
358.959833
 20
271.450167
 30
0.0
 11
358.959833
 21
274.190833
 31
0.0
  0
LINE
  8
1
  6
CONTINUOUS
 62
     3
  5
F0
 10
376.959833
 20
265.6645
 30
0.0
 11
376.959833
 21
270.690833
 31
0.0
  0
LINE
  8
1
  6
CONTINUOUS
 62
     3
  5
F1
 10
360.959833
 20
270.807333
 30
0.0
 11
360.959833
 21
274.190833
 31
0.0
  0
LINE
  8
1
  6
CONTINUOUS
 62
     3
  5
F2
 10
378.959833
 20
265.021667
 30
0.0
 11
378.959833
 21
270.690833
 31
0.0
  0
LINE
  8
1
  6
CONTINUOUS
 62
     7
  5
F3
 10
359.959833
 20
238.33375
 30
0.0
 11
359.959833
 21
294.83375
 31
0.0
  0
LINE
  8
1
  6
CONTINUOUS
 62
     7
  5
F4
 10
377.959833
 20
234.33375
 30
0.0
 11
377.959833
 21
294.83375
 31
0.0
  0
LINE
  8
1
  6
CONTINUOUS
 62
     7
  5
F5
 10
359.959833
 20
315.33375
 30
0.0
 11
359.959833
 21
298.83375
 31
0.0
  0
LINE
  8
1
  6
CONTINUOUS
 62
     7
  5
F6
 10
359.959833
 20
297.83375
 30
0.0
 11
359.959833
 21
295.83375
 31
0.0
  0
LINE
  8
1
  6
CONTINUOUS
 62
     7
  5
F7
 10
377.959833
 20
315.33375
 30
0.0
 11
377.959833
 21
298.83375
 31
0.0
  0
LINE
  8
1
  6
CONTINUOUS
 62
     7
  5
F8
 10
377.959833
 20
297.83375
 30
0.0
 11
377.959833
 21
295.83375
 31
0.0
  0
LINE
  8
1
  6
CONTINUOUS
 62
     3
  5
F9
 10
274.625167
 20
353.33375
 30
0.0
 11
299.25375
 21
353.33375
 31
0.0
  0
LINE
  8
1
  6
CONTINUOUS
 62
     3
  5
FA
 10
277.831167
 20
346.33375
 30
0.0
 11
296.04775
 21
346.33375
 31
0.0
  0
LINE
  8
1
  6
CONTINUOUS
 62
     7
  5
FB
 10
270.610583
 20
358.811
 30
0.0
 11
270.610583
 21
373.811
 31
0.0
  0
LINE
  8
1
  6
CONTINUOUS
 62
     7
  5
FC
 10
303.268417
 20
358.811
 30
0.0
 11
303.268417
 21
373.811
 31
0.0
  0
LINE
  8
1
  6
CONTINUOUS
 62
     7
  5
FD
 10
303.268417
 20
372.811
 30
0.0
 11
270.610583
 21
372.811
 31
0.0
  0
LINE
  8
1
  6
CONTINUOUS
 62
     7
  5
FE
 10
280.959833
 20
368.33375
 30
0.0
 11
280.959833
 21
361.33375
 31
0.0
  0
LINE
  8
1
  6
CONTINUOUS
 62
     7
  5
FF
 10
292.959833
 20
368.33375
 30
0.0
 11
292.959833
 21
361.33375
 31
0.0
  0
LINE
  8
1
  6
CONTINUOUS
 62
     7
  5
100
 10
280.959833
 20
367.33375
 30
0.0
 11
292.959833
 21
367.33375
 31
0.0
  0
LINE
  8
1
  6
CONTINUOUS
 62
     7
  5
101
 10
275.831167
 20
346.33375
 30
0.0
 11
262.331167
 21
346.33375
 31
0.0
  0
LINE
  8
1
  6
CONTINUOUS
 62
     7
  5
102
 10
271.625167
 20
353.33375
 30
0.0
 11
262.331167
 21
353.33375
 31
0.0
  0
LINE
  8
1
  6
CONTINUOUS
 62
     7
  5
103
 10
271.831167
 20
360.33375
 30
0.0
 11
262.331167
 21
360.33375
 31
0.0
  0
LINE
  8
1
  6
CONTINUOUS
 62
     7
  5
104
 10
263.331167
 20
360.33375
 30
0.0
 11
263.331167
 21
353.33375
 31
0.0
  0
LINE
  8
1
  6
CONTINUOUS
 62
     7
  5
105
 10
263.331167
 20
353.33375
 30
0.0
 11
263.331167
 21
346.33375
 31
0.0
  0
LINE
  8
1
  6
CONTINUOUS
 62
     7
  5
106
 10
299.25375
 20
353.33375
 30
0.0
 11
306.405
 21
343.857583
 31
0.0
  0
LINE
  8
1
  6
CONTINUOUS
 62
     7
  5
107
 10
306.405
 20
343.857583
 30
0.0
 11
296.04775
 21
346.33375
 31
0.0
  0
LINE
  8
1
  6
CONTINUOUS
 62
     7
  5
108
 10
306.405
 20
343.857583
 30
0.0
 11
310.199667
 21
343.857583
 31
0.0
  0
INSERT
  8
1
  6
CONTINUOUS
 62
     1
  5
129
  2
LDR
 10
270.610583
 20
372.811
 30
0.0
 41
240.0
 42
240.0
 50
180.0
210
0.0
220
0.0
230
1.0
  0
INSERT
  8
1
  6
CONTINUOUS
 62
     1
  5
12A
  2
LDR
 10
270.610583
 20
372.811
 30
0.0
 41
240.0
 42
240.0
 50
180.0
210
0.0
220
0.0
230
1.0
  0
INSERT
  8
1
  6
CONTINUOUS
 62
     1
  5
12B
  2
LDR
 10
303.268417
 20
372.811
 30
0.0
 41
240.0
 42
240.0
210
0.0
220
0.0
230
1.0
  0
INSERT
  8
1
  6
CONTINUOUS
 62
     1
  5
12C
  2
LDR
 10
303.268417
 20
372.811
 30
0.0
 41
240.0
 42
240.0
210
0.0
220
0.0
230
1.0
  0
INSERT
  8
1
  6
CONTINUOUS
 62
     1
  5
12D
  2
LDR
 10
280.959833
 20
367.33375
 30
0.0
 41
240.0
 42
240.0
 50
180.0
210
0.0
220
0.0
230
1.0
  0
INSERT
  8
1
  6
CONTINUOUS
 62
     1
  5
12E
  2
LDR
 10
280.959833
 20
367.33375
 30
0.0
 41
240.0
 42
240.0
 50
180.0
210
0.0
220
0.0
230
1.0
  0
INSERT
  8
1
  6
CONTINUOUS
 62
     1
  5
12F
  2
LDR
 10
292.959833
 20
367.33375
 30
0.0
 41
240.0
 42
240.0
210
0.0
220
0.0
230
1.0
  0
INSERT
  8
1
  6
CONTINUOUS
 62
     1
  5
130
  2
LDR
 10
292.959833
 20
367.33375
 30
0.0
 41
240.0
 42
240.0
210
0.0
220
0.0
230
1.0
  0
INSERT
  8
1
  6
CONTINUOUS
 62
     1
  5
131
  2
LDR
 10
263.331167
 20
360.33375
 30
0.0
 41
240.0
 42
240.0
 50
90.0
210
0.0
220
0.0
230
1.0
  0
INSERT
  8
1
  6
CONTINUOUS
 62
     1
  5
132
  2
LDR
 10
263.331167
 20
360.33375
 30
0.0
 41
240.0
 42
240.0
 50
90.0
210
0.0
220
0.0
230
1.0
  0
INSERT
  8
1
  6
CONTINUOUS
 62
     1
  5
133
  2
LDR
 10
263.331167
 20
353.33375
 30
0.0
 41
240.0
 42
240.0
 50
270.0
210
0.0
220
0.0
230
1.0
  0
INSERT
  8
1
  6
CONTINUOUS
 62
     1
  5
134
  2
LDR
 10
263.331167
 20
353.33375
 30
0.0
 41
240.0
 42
240.0
 50
270.0
210
0.0
220
0.0
230
1.0
  0
INSERT
  8
1
  6
CONTINUOUS
 62
     1
  5
135
  2
LDR
 10
263.331167
 20
353.33375
 30
0.0
 41
240.0
 42
240.0
 50
90.0
210
0.0
220
0.0
230
1.0
  0
INSERT
  8
1
  6
CONTINUOUS
 62
     1
  5
136
  2
LDR
 10
263.331167
 20
353.33375
 30
0.0
 41
240.0
 42
240.0
 50
90.0
210
0.0
220
0.0
230
1.0
  0
INSERT
  8
1
  6
CONTINUOUS
 62
     1
  5
137
  2
LDR
 10
263.331167
 20
346.33375
 30
0.0
 41
240.0
 42
240.0
 50
270.0
210
0.0
220
0.0
230
1.0
  0
INSERT
  8
1
  6
CONTINUOUS
 62
     1
  5
138
  2
LDR
 10
263.331167
 20
346.33375
 30
0.0
 41
240.0
 42
240.0
 50
270.0
210
0.0
220
0.0
230
1.0
  0
INSERT
  8
1
  6
CONTINUOUS
 62
     1
  5
139
  2
LDR
 10
296.04775
 20
346.33375
 30
0.0
 41
240.0
 42
240.0
 50
166.554352
210
0.0
220
0.0
230
1.0
  0
INSERT
  8
1
  6
CONTINUOUS
 62
     1
  5
13A
  2
LDR
 10
296.04775
 20
346.33375
 30
0.0
 41
240.0
 42
240.0
 50
166.554352
210
0.0
220
0.0
230
1.0
  0
INSERT
  8
1
  6
CONTINUOUS
 62
     1
  5
13B
  2
LDR
 10
299.25375
 20
353.33375
 30
0.0
 41
240.0
 42
240.0
 50
127.040263
210
0.0
220
0.0
230
1.0
  0
LINE
  8
1
  6
CONTINUOUS
 62
     7
  5
13C
 10
305.959833
 20
330.809167
 30
0.0
 11
294.959833
 21
330.809167
 31
0.0
  0
LINE
  8
1
  6
CONTINUOUS
 62
     3
  5
13D
 10
279.959833
 20
341.126833
 30
0.0
 11
279.959833
 21
281.690833
 31
0.0
  0
LINE
  8
1
  6
CONTINUOUS
 62
     3
  5
13E
 10
279.959833
 20
281.690833
 30
0.0
 11
279.959833
 21
275.690833
 31
0.0
  0
LINE
  8
1
  6
CONTINUOUS
 62
     3
  5
13F
 10
423.459833
 20
281.690833
 30
0.0
 11
335.637917
 21
281.690833
 31
0.0
  0
LINE
  8
1
  6
CONTINUOUS
 62
     3
  5
140
 10
335.637917
 20
281.690833
 30
0.0
 11
241.459833
 21
281.690833
 31
0.0
  0
LINE
  8
1
  6
HIDDEN
 62
     3
  5
141
 10
358.959833
 20
353.690833
 30
0.0
 11
378.959833
 21
353.690833
 31
0.0
  0
LINE
  8
1
  6
CONTINUOUS
 62
     3
  5
142
 10
340.87125
 20
277.26425
 30
0.0
 11
389.552083
 21
261.617083
 31
0.0
  0
LINE
  8
1
  6
HIDDEN
 62
     3
  5
143
 10
358.959833
 20
329.690833
 30
0.0
 11
378.959833
 21
329.690833
 31
0.0
  0
LINE
  8
1
  6
HIDDEN
 62
     3
  5
144
 10
356.959833
 20
351.690833
 30
0.0
 11
356.959833
 21
331.690833
 31
0.0
  0
LINE
  8
1
  6
HIDDEN
 62
     3
  5
145
 10
380.959833
 20
351.690833
 30
0.0
 11
380.959833
 21
331.690833
 31
0.0
  0
LINE
  8
1
  6
HIDDEN
 62
     3
  5
146
 10
358.959833
 20
350.690833
 30
0.0
 11
360.959833
 21
350.690833
 31
0.0
  0
LINE
  8
1
  6
HIDDEN
 62
     3
  5
147
 10
376.959833
 20
350.690833
 30
0.0
 11
378.959833
 21
350.690833
 31
0.0
  0
LINE
  8
1
  6
HIDDEN
 62
     3
  5
148
 10
358.959833
 20
350.690833
 30
0.0
 11
358.959833
 21
329.690833
 31
0.0
  0
LINE
  8
1
  6
CONTINUOUS
 62
     3
  5
149
 10
358.959833
 20
329.690833
 30
0.0
 11
358.959833
 21
275.690833
 31
0.0
  0
LINE
  8
1
  6
HIDDEN
 62
     3
  5
14A
 10
360.959833
 20
350.690833
 30
0.0
 11
360.959833
 21
329.690833
 31
0.0
  0
LINE
  8
1
  6
CONTINUOUS
 62
     3
  5
14B
 10
360.959833
 20
329.690833
 30
0.0
 11
360.959833
 21
275.690833
 31
0.0
  0
LINE
  8
1
  6
HIDDEN
 62
     3
  5
14C
 10
376.959833
 20
350.690833
 30
0.0
 11
376.959833
 21
329.690833
 31
0.0
  0
LINE
  8
1
  6
CONTINUOUS
 62
     3
  5
14D
 10
376.959833
 20
329.690833
 30
0.0
 11
376.959833
 21
272.190833
 31
0.0
  0
LINE
  8
1
  6
HIDDEN
 62
     3
  5
14E
 10
378.959833
 20
350.690833
 30
0.0
 11
378.959833
 21
329.690833
 31
0.0
  0
LINE
  8
1
  6
CONTINUOUS
 62
     3
  5
14F
 10
378.959833
 20
329.690833
 30
0.0
 11
378.959833
 21
272.190833
 31
0.0
  0
ARC
  8
1
  6
HIDDEN
 62
     3
  5
150
 10
358.959833
 20
351.690833
 30
0.0
 40
2.0
 50
90.0
 51
180.0
210
0.0
220
0.0
230
1.0
  0
ARC
  8
1
  6
HIDDEN
 62
     3
  5
151
 10
378.959833
 20
351.690833
 30
0.0
 40
2.0
 50
0.0
 51
90.0
210
0.0
220
0.0
230
1.0
  0
ARC
  8
1
  6
HIDDEN
 62
     3
  5
152
 10
378.959833
 20
331.690833
 30
0.0
 40
2.0
 50
270.0
 51
0.0
210
0.0
220
0.0
230
1.0
  0
ARC
  8
1
  6
HIDDEN
 62
     3
  5
153
 10
358.959833
 20
331.690833
 30
0.0
 40
2.0
 50
180.0
 51
270.0
210
0.0
220
0.0
230
1.0
  0
LINE
  8
1
  6
CONTINUOUS
 62
     3
  5
154
 10
357.959833
 20
347.690833
 30
0.0
 11
379.959833
 21
347.690833
 31
0.0
  0
LINE
  8
1
  6
CONTINUOUS
 62
     3
  5
155
 10
357.959833
 20
333.690833
 30
0.0
 11
379.959833
 21
333.690833
 31
0.0
  0
LINE
  8
1
  6
CONTINUOUS
 62
     3
  5
156
 10
358.959833
 20
329.238167
 30
0.0
 11
360.959833
 21
329.238167
 31
0.0
  0
LINE
  8
1
  6
CONTINUOUS
 62
     3
  5
157
 10
376.959833
 20
329.238167
 30
0.0
 11
378.959833
 21
329.238167
 31
0.0
  0
LINE
  8
1
  6
CONTINUOUS
 62
     3
  5
158
 10
358.959833
 20
327.238167
 30
0.0
 11
360.959833
 21
327.238167
 31
0.0
  0
LINE
  8
1
  6
CONTINUOUS
 62
     3
  5
159
 10
376.959833
 20
327.238167
 30
0.0
 11
378.959833
 21
327.238167
 31
0.0
  0
LINE
  8
1
  6
CONTINUOUS
 62
     7
  5
15A
 10
304.959833
 20
330.809167
 30
0.0
 11
304.959833
 21
281.690833
 31
0.0
  0
INSERT
  8
1
  6
CONTINUOUS
 62
     1
  5
15B
  2
LDR
 10
304.959833
 20
330.809167
 30
0.0
 41
240.0
 42
240.0
 50
90.0
210
0.0
220
0.0
230
1.0
  0
INSERT
  8
1
  6
CONTINUOUS
 62
     1
  5
15C
  2
LDR
 10
304.959833
 20
330.809167
 30
0.0
 41
240.0
 42
240.0
 50
90.0
210
0.0
220
0.0
230
1.0
  0
INSERT
  8
1
  6
CONTINUOUS
 62
     1
  5
15D
  2
LDR
 10
304.959833
 20
281.690833
 30
0.0
 41
240.0
 42
240.0
 50
270.0
210
0.0
220
0.0
230
1.0
  0
LINE
  8
1
  6
CONTINUOUS
 62
     3
  5
15E
 10
465.209833
 20
309.90525
 30
0.0
 11
460.709833
 21
309.90525
 31
0.0
  0
LINE
  8
1
  6
CONTINUOUS
 62
     3
  5
15F
 10
447.209833
 20
306.40525
 30
0.0
 11
442.709833
 21
306.40525
 31
0.0
  0
LINE
  8
1
  6
CONTINUOUS
 62
     3
  5
160
 10
465.209833
 20
308.40525
 30
0.0
 11
460.709833
 21
308.40525
 31
0.0
  0
LINE
  8
1
  6
CONTINUOUS
 62
     3
  5
161
 10
447.209833
 20
304.90525
 30
0.0
 11
442.709833
 21
304.90525
 31
0.0
  0
LINE
  8
1
  6
CONTINUOUS
 62
     3
  5
162
 10
465.209833
 20
309.90525
 30
0.0
 11
465.209833
 21
308.40525
 31
0.0
  0
LINE
  8
1
  6
CONTINUOUS
 62
     3
  5
163
 10
460.709833
 20
309.90525
 30
0.0
 11
460.709833
 21
308.40525
 31
0.0
  0
LINE
  8
1
  6
CONTINUOUS
 62
     3
  5
164
 10
447.209833
 20
306.40525
 30
0.0
 11
447.209833
 21
304.90525
 31
0.0
  0
LINE
  8
1
  6
CONTINUOUS
 62
     3
  5
165
 10
442.709833
 20
306.40525
 30
0.0
 11
442.709833
 21
304.90525
 31
0.0
  0
LINE
  8
1
  6
CONTINUOUS
 62
     3
  5
166
 10
465.209833
 20
309.15525
 30
0.0
 11
460.709833
 21
309.15525
 31
0.0
  0
LINE
  8
1
  6
CONTINUOUS
 62
     3
  5
167
 10
447.209833
 20
305.65525
 30
0.0
 11
442.709833
 21
305.65525
 31
0.0
  0
LINE
  8
1
  6
DASHED
 62
     3
  5
168
 10
463.959833
 20
273.548167
 30
0.0
 11
461.959833
 21
273.548167
 31
0.0
  0
LINE
  8
1
  6
DASHED
 62
     3
  5
169
 10
445.959833
 20
269.548167
 30
0.0
 11
443.959833
 21
269.548167
 31
0.0
  0
LINE
  8
1
  6
DASHED
 62
     3
  5
16A
 10
463.959833
 20
305.664583
 30
0.0
 11
463.959833
 21
273.548167
 31
0.0
  0
LINE
  8
1
  6
DASHED
 62
     3
  5
16B
 10
461.959833
 20
305.02175
 30
0.0
 11
461.959833
 21
273.548167
 31
0.0
  0
LINE
  8
1
  6
DASHED
 62
     3
  5
16C
 10
445.959833
 20
299.878917
 30
0.0
 11
445.959833
 21
269.548167
 31
0.0
  0
LINE
  8
1
  6
DASHED
 62
     3
  5
16D
 10
443.959833
 20
299.236083
 30
0.0
 11
443.959833
 21
269.548167
 31
0.0
  0
LINE
  8
1
  6
DASHED
 62
     3
  5
16E
 10
466.459833
 20
263.548167
 30
0.0
 11
459.459833
 21
263.548167
 31
0.0
  0
LINE
  8
1
  6
DASHED
 62
     3
  5
16F
 10
448.459833
 20
259.548167
 30
0.0
 11
441.459833
 21
259.548167
 31
0.0
  0
LINE
  8
1
  6
CONTINUOUS
 62
     3
  5
170
 10
463.959833
 20
305.048167
 30
0.0
 11
468.459833
 21
305.048167
 31
0.0
  0
LINE
  8
1
  6
DASHED
 62
     3
  5
171
 10
466.459833
 20
263.548167
 30
0.0
 11
466.459833
 21
305.048167
 31
0.0
  0
LINE
  8
1
  6
DASHED
 62
     3
  5
172
 10
459.459833
 20
263.548167
 30
0.0
 11
459.459833
 21
304.218167
 31
0.0
  0
LINE
  8
1
  6
DASHED
 62
     3
  5
173
 10
448.459833
 20
259.548167
 30
0.0
 11
448.459833
 21
300.6825
 31
0.0
  0
LINE
  8
1
  6
DASHED
 62
     3
  5
174
 10
441.459833
 20
259.548167
 30
0.0
 11
441.459833
 21
298.4325
 31
0.0
  0
LINE
  8
1
  6
CONTINUOUS
 62
     3
  5
175
 10
463.959833
 20
305.664583
 30
0.0
 11
463.959833
 21
308.40525
 31
0.0
  0
LINE
  8
1
  6
CONTINUOUS
 62
     3
  5
176
 10
445.959833
 20
299.878917
 30
0.0
 11
445.959833
 21
304.90525
 31
0.0
  0
LINE
  8
1
  6
CONTINUOUS
 62
     3
  5
177
 10
461.959833
 20
305.02175
 30
0.0
 11
461.959833
 21
308.40525
 31
0.0
  0
LINE
  8
1
  6
CONTINUOUS
 62
     3
  5
178
 10
443.959833
 20
299.236083
 30
0.0
 11
443.959833
 21
304.90525
 31
0.0
  0
LINE
  8
1
  6
CONTINUOUS
 62
     7
  5
179
 10
462.959833
 20
272.548167
 30
0.0
 11
462.959833
 21
329.048167
 31
0.0
  0
LINE
  8
1
  6
CONTINUOUS
 62
     7
  5
17A
 10
444.959833
 20
268.548167
 30
0.0
 11
444.959833
 21
329.048167
 31
0.0
  0
LINE
  8
1
  6
CONTINUOUS
 62
     7
  5
17B
 10
462.959833
 20
349.548167
 30
0.0
 11
462.959833
 21
333.048167
 31
0.0
  0
LINE
  8
1
  6
CONTINUOUS
 62
     7
  5
17C
 10
462.959833
 20
332.048167
 30
0.0
 11
462.959833
 21
330.048167
 31
0.0
  0
LINE
  8
1
  6
CONTINUOUS
 62
     7
  5
17D
 10
444.959833
 20
349.548167
 30
0.0
 11
444.959833
 21
333.048167
 31
0.0
  0
LINE
  8
1
  6
CONTINUOUS
 62
     7
  5
17E
 10
444.959833
 20
332.048167
 30
0.0
 11
444.959833
 21
330.048167
 31
0.0
  0
LINE
  8
1
  6
HIDDEN
 62
     3
  5
17F
 10
463.959833
 20
387.90525
 30
0.0
 11
443.959833
 21
387.90525
 31
0.0
  0
LINE
  8
1
  6
CONTINUOUS
 62
     3
  5
180
 10
482.048417
 20
311.478667
 30
0.0
 11
433.367583
 21
295.8315
 31
0.0
  0
LINE
  8
1
  6
HIDDEN
 62
     3
  5
181
 10
463.959833
 20
363.90525
 30
0.0
 11
443.959833
 21
363.90525
 31
0.0
  0
LINE
  8
1
  6
HIDDEN
 62
     3
  5
182
 10
465.959833
 20
385.90525
 30
0.0
 11
465.959833
 21
365.90525
 31
0.0
  0
LINE
  8
1
  6
HIDDEN
 62
     3
  5
183
 10
441.959833
 20
385.90525
 30
0.0
 11
441.959833
 21
365.90525
 31
0.0
  0
LINE
  8
1
  6
HIDDEN
 62
     3
  5
184
 10
463.959833
 20
384.90525
 30
0.0
 11
461.959833
 21
384.90525
 31
0.0
  0
LINE
  8
1
  6
HIDDEN
 62
     3
  5
185
 10
445.959833
 20
384.90525
 30
0.0
 11
443.959833
 21
384.90525
 31
0.0
  0
LINE
  8
1
  6
HIDDEN
 62
     3
  5
186
 10
463.959833
 20
384.90525
 30
0.0
 11
463.959833
 21
363.90525
 31
0.0
  0
LINE
  8
1
  6
CONTINUOUS
 62
     3
  5
187
 10
463.959833
 20
363.90525
 30
0.0
 11
463.959833
 21
309.90525
 31
0.0
  0
LINE
  8
1
  6
HIDDEN
 62
     3
  5
188
 10
461.959833
 20
384.90525
 30
0.0
 11
461.959833
 21
363.90525
 31
0.0
  0
LINE
  8
1
  6
CONTINUOUS
 62
     3
  5
189
 10
461.959833
 20
363.90525
 30
0.0
 11
461.959833
 21
309.90525
 31
0.0
  0
LINE
  8
1
  6
HIDDEN
 62
     3
  5
18A
 10
445.959833
 20
384.90525
 30
0.0
 11
445.959833
 21
363.90525
 31
0.0
  0
LINE
  8
1
  6
CONTINUOUS
 62
     3
  5
18B
 10
445.959833
 20
363.90525
 30
0.0
 11
445.959833
 21
306.40525
 31
0.0
  0
LINE
  8
1
  6
HIDDEN
 62
     3
  5
18C
 10
443.959833
 20
384.90525
 30
0.0
 11
443.959833
 21
363.90525
 31
0.0
  0
LINE
  8
1
  6
CONTINUOUS
 62
     3
  5
18D
 10
443.959833
 20
363.90525
 30
0.0
 11
443.959833
 21
306.40525
 31
0.0
  0
ARC
  8
1
  6
HIDDEN
 62
     3
  5
18E
 10
463.959833
 20
385.90525
 30
0.0
 40
2.0
 50
0.0
 51
90.0
210
0.0
220
0.0
230
1.0
  0
ARC
  8
1
  6
HIDDEN
 62
     3
  5
18F
 10
443.959833
 20
385.90525
 30
0.0
 40
2.0
 50
90.0
 51
180.0
210
0.0
220
0.0
230
1.0
  0
ARC
  8
1
  6
HIDDEN
 62
     3
  5
190
 10
443.959833
 20
365.90525
 30
0.0
 40
2.0
 50
180.0
 51
270.0
210
0.0
220
0.0
230
1.0
  0
ARC
  8
1
  6
HIDDEN
 62
     3
  5
191
 10
463.959833
 20
365.90525
 30
0.0
 40
2.0
 50
270.0
 51
0.0
210
0.0
220
0.0
230
1.0
  0
LINE
  8
1
  6
CONTINUOUS
 62
     3
  5
192
 10
464.959833
 20
381.90525
 30
0.0
 11
442.959833
 21
381.90525
 31
0.0
  0
LINE
  8
1
  6
CONTINUOUS
 62
     3
  5
193
 10
464.959833
 20
367.90525
 30
0.0
 11
442.959833
 21
367.90525
 31
0.0
  0
LINE
  8
1
  6
CONTINUOUS
 62
     3
  5
194
 10
463.959833
 20
363.452583
 30
0.0
 11
461.959833
 21
363.452583
 31
0.0
  0
LINE
  8
1
  6
CONTINUOUS
 62
     3
  5
195
 10
445.959833
 20
363.452583
 30
0.0
 11
443.959833
 21
363.452583
 31
0.0
  0
LINE
  8
1
  6
CONTINUOUS
 62
     3
  5
196
 10
463.959833
 20
361.452583
 30
0.0
 11
461.959833
 21
361.452583
 31
0.0
  0
LINE
  8
1
  6
CONTINUOUS
 62
     3
  5
197
 10
445.959833
 20
361.452583
 30
0.0
 11
443.959833
 21
361.452583
 31
0.0
  0
LINE
  8
1
  6
CONTINUOUS
 62
     3
  5
198
 10
423.459833
 20
281.690833
 30
0.0
 11
507.762583
 21
281.690833
 31
0.0
  0
LINE
  8
1
  6
CONTINUOUS
 62
     7
  5
199
 10
356.959833
 20
354.190833
 30
0.0
 11
356.959833
 21
371.690833
 31
0.0
  0
LINE
  8
1
  6
CONTINUOUS
 62
     7
  5
19A
 10
380.959833
 20
353.690833
 30
0.0
 11
380.959833
 21
371.690833
 31
0.0
  0
LINE
  8
1
  6
CONTINUOUS
 62
     7
  5
19B
 10
359.959833
 20
366.690833
 30
0.0
 11
359.959833
 21
354.690833
 31
0.0
  0
LINE
  8
1
  6
CONTINUOUS
 62
     7
  5
19C
 10
377.959833
 20
366.690833
 30
0.0
 11
377.959833
 21
354.690833
 31
0.0
  0
LINE
  8
1
  6
CONTINUOUS
 62
     7
  5
19D
 10
356.459833
 20
353.690833
 30
0.0
 11
345.959833
 21
353.690833
 31
0.0
  0
LINE
  8
1
  6
CONTINUOUS
 62
     7
  5
19E
 10
356.959833
 20
329.690833
 30
0.0
 11
345.959833
 21
329.690833
 31
0.0
  0
LINE
  8
1
  6
CONTINUOUS
 62
     7
  5
19F
 10
355.959833
 20
347.690833
 30
0.0
 11
349.959833
 21
347.690833
 31
0.0
  0
LINE
  8
1
  6
CONTINUOUS
 62
     7
  5
1A0
 10
355.959833
 20
333.690833
 30
0.0
 11
349.959833
 21
333.690833
 31
0.0
  0
LINE
  8
1
  6
CONTINUOUS
 62
     7
  5
1A1
 10
379.959833
 20
347.690833
 30
0.0
 11
393.767917
 21
352.781
 31
0.0
  0
LINE
  8
1
  6
CONTINUOUS
 62
     7
  5
1A2
 10
393.767917
 20
352.781
 30
0.0
 11
379.959833
 21
333.690833
 31
0.0
  0
LINE
  8
1
  6
CONTINUOUS
 62
     7
  5
1A3
 10
393.767917
 20
352.781
 30
0.0
 11
397.572083
 21
352.781
 31
0.0
  0
LINE
  8
1
  6
CONTINUOUS
 62
     7
  5
1A4
 10
403.959833
 20
328.238167
 30
0.0
 11
379.959833
 21
328.238167
 31
0.0
  0
LINE
  8
1
  6
CONTINUOUS
 62
     7
  5
1A5
 10
402.959833
 20
328.238167
 30
0.0
 11
402.959833
 21
281.690833
 31
0.0
  0
LINE
  8
1
  6
CONTINUOUS
 62
     7
  5
1A6
 10
384.60825
 20
281.620667
 30
0.0
 11
391.939583
 21
270.999583
 31
0.0
  0
LINE
  8
1
  6
CONTINUOUS
 62
     7
  5
1A7
 10
391.939583
 20
270.999583
 30
0.0
 11
397.73275
 21
270.999583
 31
0.0
  0
LINE
  8
1
  6
CONTINUOUS
 62
     7
  5
1A8
 10
356.959833
 20
370.690833
 30
0.0
 11
380.959833
 21
370.690833
 31
0.0
  0
LINE
  8
1
  6
CONTINUOUS
 62
     7
  5
1A9
 10
359.959833
 20
365.690833
 30
0.0
 11
377.959833
 21
365.690833
 31
0.0
  0
LINE
  8
1
  6
CONTINUOUS
 62
     7
  5
1AA
 10
346.959833
 20
353.690833
 30
0.0
 11
346.959833
 21
329.690833
 31
0.0
  0
LINE
  8
1
  6
CONTINUOUS
 62
     7
  5
1AB
 10
350.959833
 20
347.690833
 30
0.0
 11
350.959833
 21
333.690833
 31
0.0
  0
INSERT
  8
1
  6
CONTINUOUS
 62
     1
  5
1AC
  2
LDR
 10
356.959833
 20
370.690833
 30
0.0
 41
240.0
 42
240.0
 50
180.0
210
0.0
220
0.0
230
1.0
  0
INSERT
  8
1
  6
CONTINUOUS
 62
     1
  5
1AD
  2
LDR
 10
356.959833
 20
370.690833
 30
0.0
 41
240.0
 42
240.0
 50
180.0
210
0.0
220
0.0
230
1.0
  0
INSERT
  8
1
  6
CONTINUOUS
 62
     1
  5
1AE
  2
LDR
 10
380.959833
 20
370.690833
 30
0.0
 41
240.0
 42
240.0
210
0.0
220
0.0
230
1.0
  0
INSERT
  8
1
  6
CONTINUOUS
 62
     1
  5
1AF
  2
LDR
 10
380.959833
 20
370.690833
 30
0.0
 41
240.0
 42
240.0
210
0.0
220
0.0
230
1.0
  0
INSERT
  8
1
  6
CONTINUOUS
 62
     1
  5
1B0
  2
LDR
 10
359.959833
 20
365.690833
 30
0.0
 41
240.0
 42
240.0
 50
180.0
210
0.0
220
0.0
230
1.0
  0
INSERT
  8
1
  6
CONTINUOUS
 62
     1
  5
1B1
  2
LDR
 10
359.959833
 20
365.690833
 30
0.0
 41
240.0
 42
240.0
 50
180.0
210
0.0
220
0.0
230
1.0
  0
INSERT
  8
1
  6
CONTINUOUS
 62
     1
  5
1B2
  2
LDR
 10
377.959833
 20
365.690833
 30
0.0
 41
240.0
 42
240.0
210
0.0
220
0.0
230
1.0
  0
INSERT
  8
1
  6
CONTINUOUS
 62
     1
  5
1B3
  2
LDR
 10
377.959833
 20
365.690833
 30
0.0
 41
240.0
 42
240.0
210
0.0
220
0.0
230
1.0
  0
INSERT
  8
1
  6
CONTINUOUS
 62
     1
  5
1B4
  2
LDR
 10
346.959833
 20
353.690833
 30
0.0
 41
240.0
 42
240.0
 50
90.0
210
0.0
220
0.0
230
1.0
  0
INSERT
  8
1
  6
CONTINUOUS
 62
     1
  5
1B5
  2
LDR
 10
346.959833
 20
353.690833
 30
0.0
 41
240.0
 42
240.0
 50
90.0
210
0.0
220
0.0
230
1.0
  0
INSERT
  8
1
  6
CONTINUOUS
 62
     1
  5
1B6
  2
LDR
 10
350.959833
 20
347.690833
 30
0.0
 41
240.0
 42
240.0
 50
90.0
210
0.0
220
0.0
230
1.0
  0
INSERT
  8
1
  6
CONTINUOUS
 62
     1
  5
1B7
  2
LDR
 10
350.959833
 20
347.690833
 30
0.0
 41
240.0
 42
240.0
 50
90.0
210
0.0
220
0.0
230
1.0
  0
INSERT
  8
1
  6
CONTINUOUS
 62
     1
  5
1B8
  2
LDR
 10
350.959833
 20
333.690833
 30
0.0
 41
240.0
 42
240.0
 50
270.0
210
0.0
220
0.0
230
1.0
  0
INSERT
  8
1
  6
CONTINUOUS
 62
     1
  5
1B9
  2
LDR
 10
350.959833
 20
333.690833
 30
0.0
 41
240.0
 42
240.0
 50
270.0
210
0.0
220
0.0
230
1.0
  0
INSERT
  8
1
  6
CONTINUOUS
 62
     1
  5
1BA
  2
LDR
 10
346.959833
 20
329.690833
 30
0.0
 41
240.0
 42
240.0
 50
270.0
210
0.0
220
0.0
230
1.0
  0
INSERT
  8
1
  6
CONTINUOUS
 62
     1
  5
1BB
  2
LDR
 10
346.959833
 20
329.690833
 30
0.0
 41
240.0
 42
240.0
 50
270.0
210
0.0
220
0.0
230
1.0
  0
INSERT
  8
1
  6
CONTINUOUS
 62
     1
  5
1BC
  2
LDR
 10
379.959833
 20
347.690833
 30
0.0
 41
240.000001
 42
240.000001
 50
200.235739
210
0.0
220
0.0
230
1.0
  0
INSERT
  8
1
  6
CONTINUOUS
 62
     1
  5
1BD
  2
LDR
 10
379.959833
 20
347.690833
 30
0.0
 41
240.000001
 42
240.000001
 50
200.235739
210
0.0
220
0.0
230
1.0
  0
INSERT
  8
1
  6
CONTINUOUS
 62
     1
  5
1BE
  2
LDR
 10
379.959833
 20
333.690833
 30
0.0
 41
239.999997
 42
239.999997
 50
234.121458
210
0.0
220
0.0
230
1.0
  0
INSERT
  8
1
  6
CONTINUOUS
 62
     1
  5
1BF
  2
LDR
 10
379.959833
 20
333.690833
 30
0.0
 41
239.999997
 42
239.999997
 50
234.121458
210
0.0
220
0.0
230
1.0
  0
INSERT
  8
1
  6
CONTINUOUS
 62
     1
  5
1C0
  2
LDR
 10
402.959833
 20
328.238167
 30
0.0
 41
240.0
 42
240.0
 50
90.0
210
0.0
220
0.0
230
1.0
  0
INSERT
  8
1
  6
CONTINUOUS
 62
     1
  5
1C1
  2
LDR
 10
402.959833
 20
281.690833
 30
0.0
 41
240.0
 42
240.0
 50
270.0
210
0.0
220
0.0
230
1.0
  0
INSERT
  8
1
  6
CONTINUOUS
 62
     1
  5
1C2
  2
LDR
 10
402.959833
 20
281.690833
 30
0.0
 41
240.0
 42
240.0
 50
270.0
210
0.0
220
0.0
230
1.0
  0
INSERT
  8
1
  6
CONTINUOUS
 62
     1
  5
1C3
  2
LDR
 10
384.60825
 20
281.620667
 30
0.0
 41
240.000001
 42
240.000001
 50
124.615855
210
0.0
220
0.0
230
1.0
  0
LINE
  8
1
  6
CONTINUOUS
 62
     7
  5
1C4
 10
464.959833
 20
381.90525
 30
0.0
 11
478.767917
 21
386.995417
 31
0.0
  0
LINE
  8
1
  6
CONTINUOUS
 62
     7
  5
1C5
 10
441.959833
 20
388.40525
 30
0.0
 11
441.959833
 21
405.90525
 31
0.0
  0
LINE
  8
1
  6
CONTINUOUS
 62
     7
  5
1C6
 10
465.959833
 20
387.90525
 30
0.0
 11
465.959833
 21
405.90525
 31
0.0
  0
LINE
  8
1
  6
CONTINUOUS
 62
     7
  5
1C7
 10
444.959833
 20
400.90525
 30
0.0
 11
444.959833
 21
388.90525
 31
0.0
  0
LINE
  8
1
  6
CONTINUOUS
 62
     7
  5
1C8
 10
462.959833
 20
400.90525
 30
0.0
 11
462.959833
 21
388.90525
 31
0.0
  0
LINE
  8
1
  6
CONTINUOUS
 62
     7
  5
1C9
 10
441.459833
 20
387.90525
 30
0.0
 11
430.959833
 21
387.90525
 31
0.0
  0
LINE
  8
1
  6
CONTINUOUS
 62
     7
  5
1CA
 10
441.959833
 20
363.90525
 30
0.0
 11
430.959833
 21
363.90525
 31
0.0
  0
LINE
  8
1
  6
CONTINUOUS
 62
     7
  5
1CB
 10
440.959833
 20
381.90525
 30
0.0
 11
434.959833
 21
381.90525
 31
0.0
  0
LINE
  8
1
  6
CONTINUOUS
 62
     7
  5
1CC
 10
440.959833
 20
367.90525
 30
0.0
 11
434.959833
 21
367.90525
 31
0.0
  0
LINE
  8
1
  6
CONTINUOUS
 62
     7
  5
1CD
 10
478.767917
 20
386.995417
 30
0.0
 11
464.959833
 21
367.90525
 31
0.0
  0
LINE
  8
1
  6
CONTINUOUS
 62
     7
  5
1CE
 10
478.767917
 20
386.995417
 30
0.0
 11
482.572083
 21
386.995417
 31
0.0
  0
LINE
  8
1
  6
CONTINUOUS
 62
     7
  5
1CF
 10
488.959833
 20
362.452583
 30
0.0
 11
464.959833
 21
362.452583
 31
0.0
  0
LINE
  8
1
  6
CONTINUOUS
 62
     7
  5
1D0
 10
487.959833
 20
362.452583
 30
0.0
 11
487.959833
 21
305.048167
 31
0.0
  0
LINE
  8
1
  6
CONTINUOUS
 62
     7
  5
1D1
 10
441.959833
 20
404.90525
 30
0.0
 11
465.959833
 21
404.90525
 31
0.0
  0
LINE
  8
1
  6
CONTINUOUS
 62
     7
  5
1D2
 10
444.959833
 20
399.90525
 30
0.0
 11
462.959833
 21
399.90525
 31
0.0
  0
LINE
  8
1
  6
CONTINUOUS
 62
     7
  5
1D3
 10
431.959833
 20
387.90525
 30
0.0
 11
431.959833
 21
363.90525
 31
0.0
  0
LINE
  8
1
  6
CONTINUOUS
 62
     7
  5
1D4
 10
435.959833
 20
381.90525
 30
0.0
 11
435.959833
 21
367.90525
 31
0.0
  0
INSERT
  8
1
  6
CONTINUOUS
 62
     1
  5
1D5
  2
LDR
 10
441.959833
 20
404.90525
 30
0.0
 41
240.0
 42
240.0
 50
180.0
210
0.0
220
0.0
230
1.0
  0
INSERT
  8
1
  6
CONTINUOUS
 62
     1
  5
1D6
  2
LDR
 10
441.959833
 20
404.90525
 30
0.0
 41
240.0
 42
240.0
 50
180.0
210
0.0
220
0.0
230
1.0
  0
INSERT
  8
1
  6
CONTINUOUS
 62
     1
  5
1D7
  2
LDR
 10
465.959833
 20
404.90525
 30
0.0
 41
240.0
 42
240.0
210
0.0
220
0.0
230
1.0
  0
INSERT
  8
1
  6
CONTINUOUS
 62
     1
  5
1D8
  2
LDR
 10
465.959833
 20
404.90525
 30
0.0
 41
240.0
 42
240.0
210
0.0
220
0.0
230
1.0
  0
INSERT
  8
1
  6
CONTINUOUS
 62
     1
  5
1D9
  2
LDR
 10
444.959833
 20
399.90525
 30
0.0
 41
240.0
 42
240.0
 50
180.0
210
0.0
220
0.0
230
1.0
  0
INSERT
  8
1
  6
CONTINUOUS
 62
     1
  5
1DA
  2
LDR
 10
444.959833
 20
399.90525
 30
0.0
 41
240.0
 42
240.0
 50
180.0
210
0.0
220
0.0
230
1.0
  0
INSERT
  8
1
  6
CONTINUOUS
 62
     1
  5
1DB
  2
LDR
 10
462.959833
 20
399.90525
 30
0.0
 41
240.0
 42
240.0
210
0.0
220
0.0
230
1.0
  0
INSERT
  8
1
  6
CONTINUOUS
 62
     1
  5
1DC
  2
LDR
 10
462.959833
 20
399.90525
 30
0.0
 41
240.0
 42
240.0
210
0.0
220
0.0
230
1.0
  0
INSERT
  8
1
  6
CONTINUOUS
 62
     1
  5
1DD
  2
LDR
 10
431.959833
 20
387.90525
 30
0.0
 41
240.0
 42
240.0
 50
90.0
210
0.0
220
0.0
230
1.0
  0
INSERT
  8
1
  6
CONTINUOUS
 62
     1
  5
1DE
  2
LDR
 10
435.959833
 20
381.90525
 30
0.0
 41
240.0
 42
240.0
 50
90.0
210
0.0
220
0.0
230
1.0
  0
INSERT
  8
1
  6
CONTINUOUS
 62
     1
  5
1DF
  2
LDR
 10
435.959833
 20
381.90525
 30
0.0
 41
240.0
 42
240.0
 50
90.0
210
0.0
220
0.0
230
1.0
  0
INSERT
  8
1
  6
CONTINUOUS
 62
     1
  5
1E0
  2
LDR
 10
435.959833
 20
367.90525
 30
0.0
 41
240.0
 42
240.0
 50
270.0
210
0.0
220
0.0
230
1.0
  0
INSERT
  8
1
  6
CONTINUOUS
 62
     1
  5
1E1
  2
LDR
 10
435.959833
 20
367.90525
 30
0.0
 41
240.0
 42
240.0
 50
270.0
210
0.0
220
0.0
230
1.0
  0
INSERT
  8
1
  6
CONTINUOUS
 62
     1
  5
1E2
  2
LDR
 10
431.959833
 20
363.90525
 30
0.0
 41
240.0
 42
240.0
 50
270.0
210
0.0
220
0.0
230
1.0
  0
INSERT
  8
1
  6
CONTINUOUS
 62
     1
  5
1E3
  2
LDR
 10
431.959833
 20
363.90525
 30
0.0
 41
240.0
 42
240.0
 50
270.0
210
0.0
220
0.0
230
1.0
  0
INSERT
  8
1
  6
CONTINUOUS
 62
     1
  5
1E4
  2
LDR
 10
464.959833
 20
381.90525
 30
0.0
 41
240.000001
 42
240.000001
 50
200.235739
210
0.0
220
0.0
230
1.0
  0
INSERT
  8
1
  6
CONTINUOUS
 62
     1
  5
1E5
  2
LDR
 10
464.959833
 20
367.90525
 30
0.0
 41
239.999997
 42
239.999997
 50
234.121458
210
0.0
220
0.0
230
1.0
  0
INSERT
  8
1
  6
CONTINUOUS
 62
     1
  5
1E6
  2
LDR
 10
487.959833
 20
362.452583
 30
0.0
 41
240.0
 42
240.0
 50
90.0
210
0.0
220
0.0
230
1.0
  0
LINE
  8
1
  6
CONTINUOUS
 62
     7
  5
1E7
 10
469.459833
 20
305.048167
 30
0.0
 11
488.959833
 21
305.048167
 31
0.0
  0
INSERT
  8
1
  6
CONTINUOUS
 62
     1
  5
1E8
  2
LDR
 10
487.959833
 20
305.048167
 30
0.0
 41
240.0
 42
240.0
 50
270.0
210
0.0
220
0.0
230
1.0
  0
TEXT
  8
1
  6
CONTINUOUS
 62
     7
  5
1E9
 10
285.476083
 20
373.154417
 30
0.0
 40
2.5
  1
W
  7
MONOTXT
210
0.0
220
0.0
230
1.0
  0
TEXT
  8
1
  6
CONTINUOUS
 62
     7
  5
1EA
 10
286.008917
 20
367.7645
 30
0.0
 40
2.5
  1
P
  7
MONOTXT
210
0.0
220
0.0
230
1.0
  0
TEXT
  8
1
  6
CONTINUOUS
 62
     7
  5
1EB
 10
310.818333
 20
342.460833
 30
0.0
 40
2.5
  1
EXTRUDED RIBS
  7
MONOTXT
 11
310.818333
 21
344.960833
 31
0.0
210
0.0
220
0.0
230
1.0
 73
     3
  0
TEXT
  8
1
  6
CONTINUOUS
 62
     7
  5
1EC
 10
310.818333
 20
337.960833
 30
0.0
 40
2.5
  1
(SEE DETAIL)
  7
MONOTXT
 11
310.818333
 21
340.460833
 31
0.0
210
0.0
220
0.0
230
1.0
 73
     3
  0
TEXT
  8
1
  6
CONTINUOUS
 62
     7
  5
1ED
 10
262.4495
 20
348.812917
 30
0.0
 40
2.5
  1
d
 50
90.0
  7
MONOTXT
 72
     4
 11
261.1995
 21
349.521583
 31
0.0
210
0.0
220
0.0
230
1.0
  0
TEXT
  8
1
  6
CONTINUOUS
 62
     7
  5
1EE
 10
262.390333
 20
356.039
 30
0.0
 40
2.5
  1
c
 50
90.0
  7
MONOTXT
 72
     4
 11
261.140333
 21
356.7575
 31
0.0
210
0.0
220
0.0
230
1.0
  0
TEXT
  8
1
  6
CONTINUOUS
 62
     7
  5
1EF
 10
303.778917
 20
302.081833
 30
0.0
 40
2.5
  1
7'-0"
 50
90.0
  7
MONOTXT
 72
     4
 11
302.528917
 21
306.638833
 31
0.0
210
0.0
220
0.0
230
1.0
  0
TEXT
  8
1
  6
CONTINUOUS
 62
     7
  5
1F0
 10
308.278917
 20
303.45975
 30
0.0
 40
2.5
  1
MIN.
 50
90.0
  7
MONOTXT
 72
     4
 11
307.028917
 21
306.638917
 31
0.0
210
0.0
220
0.0
230
1.0
  0
TEXT
  8
1
  6
CONTINUOUS
 62
     7
  5
1F1
 10
401.832417
 20
299.712583
 30
0.0
 40
2.5
  1
7'-0"
 50
90.0
  7
MONOTXT
 72
     4
 11
400.582417
 21
304.269583
 31
0.0
210
0.0
220
0.0
230
1.0
  0
TEXT
  8
1
  6
CONTINUOUS
 62
     7
  5
1F2
 10
406.332417
 20
301.0905
 30
0.0
 40
2.5
  1
MIN.
 50
90.0
  7
MONOTXT
 72
     4
 11
405.082417
 21
304.269667
 31
0.0
210
0.0
220
0.0
230
1.0
  0
TEXT
  8
1
  6
CONTINUOUS
 62
     7
  5
1F3
 10
398.394417
 20
269.683667
 30
0.0
 40
2.5
  1
ELEVATION @ EDGE
  7
MONOTXT
 11
398.394417
 21
272.183667
 31
0.0
210
0.0
220
0.0
230
1.0
 73
     3
  0
TEXT
  8
1
  6
CONTINUOUS
 62
     7
  5
1F4
 10
398.394417
 20
265.183667
 30
0.0
 40
2.5
  1
OF PAVEMENT
  7
MONOTXT
 11
398.394417
 21
267.683667
 31
0.0
210
0.0
220
0.0
230
1.0
 73
     3
  0
TEXT
  8
1
  6
CONTINUOUS
 62
     7
  5
1F5
 10
398.912167
 20
351.722167
 30
0.0
 40
2.5
  1
EXTRUDED RIBS
  7
MONOTXT
 11
398.912167
 21
354.222167
 31
0.0
210
0.0
220
0.0
230
1.0
 73
     3
  0
TEXT
  8
1
  6
CONTINUOUS
 62
     7
  5
1F6
 10
398.912167
 20
347.222167
 30
0.0
 40
2.5
  1
(SEE DETAIL)
  7
MONOTXT
 11
398.912167
 21
349.722167
 31
0.0
210
0.0
220
0.0
230
1.0
 73
     3
  0
TEXT
  8
1
  6
CONTINUOUS
 62
     7
  5
1F7
 10
484.2005
 20
385.3995
 30
0.0
 40
2.5
  1
EXTRUDED RIBS
  7
MONOTXT
 11
484.2005
 21
387.8995
 31
0.0
210
0.0
220
0.0
230
1.0
 73
     3
  0
TEXT
  8
1
  6
CONTINUOUS
 62
     7
  5
1F8
 10
484.2005
 20
380.8995
 30
0.0
 40
2.5
  1
(SEE DETAIL)
  7
MONOTXT
 11
484.2005
 21
383.3995
 31
0.0
210
0.0
220
0.0
230
1.0
 73
     3
  0
LINE
  8
1
  6
CONTINUOUS
 62
     7
  5
1F9
 10
350.967917
 20
347.699833
 30
0.0
 11
350.967917
 21
353.690833
 31
0.0
  0
INSERT
  8
1
  6
CONTINUOUS
 62
     1
  5
1FA
  2
LDR
 10
350.967917
 20
353.690833
 30
0.0
 41
240.0
 42
240.0
 50
90.0
210
0.0
220
0.0
230
1.0
  0
INSERT
  8
1
  6
CONTINUOUS
 62
     1
  5
1FB
  2
LDR
 10
350.967917
 20
347.699833
 30
0.0
 41
240.0
 42
240.0
 50
270.0
210
0.0
220
0.0
230
1.0
  0
TEXT
  8
1
  6
CONTINUOUS
 62
     7
  5
1FC
 10
346.4965
 20
341.545
 30
0.0
 40
2.5
  1
H
 50
90.0
  7
MONOTXT
 72
     4
 11
345.2465
 21
342.381583
 31
0.0
210
0.0
220
0.0
230
1.0
  0
TEXT
  8
1
  6
CONTINUOUS
 62
     7
  5
1FD
 10
350.520583
 20
340.254167
 30
0.0
 40
2.5
  1
d
 50
90.0
  7
MONOTXT
 72
     4
 11
349.270583
 21
340.962833
 31
0.0
210
0.0
220
0.0
230
1.0
  0
TEXT
  8
1
  6
CONTINUOUS
 62
     7
  5
1FE
 10
350.18525
 20
349.780833
 30
0.0
 40
2.5
  1
c
 50
90.0
  7
MONOTXT
 72
     4
 11
348.93525
 21
350.499333
 31
0.0
210
0.0
220
0.0
230
1.0
  0
TEXT
  8
1
  6
CONTINUOUS
 62
     7
  5
1FF
 10
367.33775
 20
371.177667
 30
0.0
 40
2.5
  1
W
  7
MONOTXT
 72
     4
 11
368.528667
 21
372.427667
 31
0.0
210
0.0
220
0.0
230
1.0
  0
TEXT
  8
1
  6
CONTINUOUS
 62
     7
  5
200
 10
368.027417
 20
366.145917
 30
0.0
 40
2.5
  1
P
  7
MONOTXT
 72
     4
 11
368.864
 21
367.395917
 31
0.0
210
0.0
220
0.0
230
1.0
  0
LINE
  8
1
  6
CONTINUOUS
 62
     7
  5
201
 10
435.959833
 20
381.90525
 30
0.0
 11
435.959833
 21
387.90525
 31
0.0
  0
INSERT
  8
1
  6
CONTINUOUS
 62
     1
  5
202
  2
LDR
 10
435.959833
 20
387.90525
 30
0.0
 41
240.0
 42
240.0
 50
90.0
210
0.0
220
0.0
230
1.0
  0
INSERT
  8
1
  6
CONTINUOUS
 62
     1
  5
203
  2
LDR
 10
435.959833
 20
381.90525
 30
0.0
 41
240.0
 42
240.0
 50
270.0
210
0.0
220
0.0
230
1.0
  0
TEXT
  8
1
  6
CONTINUOUS
 62
     7
  5
204
 10
431.578417
 20
375.085667
 30
0.0
 40
2.5
  1
H
 50
90.0
  7
MONOTXT
 72
     4
 11
430.328417
 21
375.92225
 31
0.0
210
0.0
220
0.0
230
1.0
  0
TEXT
  8
1
  6
CONTINUOUS
 62
     7
  5
205
 10
435.6015
 20
374.113833
 30
0.0
 40
2.5
  1
d
 50
90.0
  7
MONOTXT
 72
     4
 11
434.3515
 21
374.8225
 31
0.0
210
0.0
220
0.0
230
1.0
  0
TEXT
  8
1
  6
CONTINUOUS
 62
     7
  5
206
 10
435.224333
 20
383.965167
 30
0.0
 40
2.5
  1
c
 50
90.0
  7
MONOTXT
 72
     4
 11
433.974333
 21
384.683667
 31
0.0
210
0.0
220
0.0
230
1.0
  0
TEXT
  8
1
  6
CONTINUOUS
 62
     7
  5
207
 10
452.321917
 20
405.3065
 30
0.0
 40
2.5
  1
W
  7
MONOTXT
 72
     4
 11
453.512833
 21
406.5565
 31
0.0
210
0.0
220
0.0
230
1.0
  0
TEXT
  8
1
  6
CONTINUOUS
 62
     7
  5
208
 10
452.5925
 20
400.359833
 30
0.0
 40
2.5
  1
P
  7
MONOTXT
 72
     4
 11
453.429083
 21
401.609833
 31
0.0
210
0.0
220
0.0
230
1.0
  0
TEXT
  8
1
  6
CONTINUOUS
 62
     7
  5
209
 10
486.987583
 20
330.063167
 30
0.0
 40
2.5
  1
7'-0"
 50
90.0
  7
MONOTXT
 72
     4
 11
485.737583
 21
334.620167
 31
0.0
210
0.0
220
0.0
230
1.0
  0
TEXT
  8
1
  6
CONTINUOUS
 62
     7
  5
20A
 10
491.487583
 20
331.441083
 30
0.0
 40
2.5
  1
MIN.
 50
90.0
  7
MONOTXT
 72
     4
 11
490.237583
 21
334.62025
 31
0.0
210
0.0
220
0.0
230
1.0
  0
TEXT
  8
1
  6
CONTINUOUS
 62
     7
  5
20B
 10
496.756583
 20
332.78125
 30
0.0
 40
5.0
  1
*
 50
90.0
  7
MONOTXT
 72
     4
 11
494.256583
 21
333.74575
 31
0.0
210
0.0
220
0.0
230
1.0
  0
TEXT
  8
1
  6
CONTINUOUS
 62
     7
  5
20C
 10
524.576
 20
355.622417
 30
0.0
 40
5.0
  1
*
  7
MONOTXT
 72
     4
 11
525.5405
 21
358.122417
 31
0.0
210
0.0
220
0.0
230
1.0
  0
TEXT
  8
1
  6
CONTINUOUS
 62
     7
  5
20D
 10
528.669
 20
356.94
 30
0.0
 40
2.5
  1
- NOTE - SAME CRITERIA APPLY FOR
  7
MONOTXT
 11
528.669
 21
359.44
 31
0.0
210
0.0
220
0.0
230
1.0
 73
     3
  0
TEXT
  8
1
  6
CONTINUOUS
 62
     7
  5
20E
 10
528.669
 20
352.44
 30
0.0
 40
2.5
  1
        TYPES A, B, G, AND F
  7
MONOTXT
 11
528.669
 21
354.94
 31
0.0
210
0.0
220
0.0
230
1.0
 73
     3
  0
TEXT
  8
1
  6
CONTINUOUS
 62
     7
  5
20F
 10
528.669
 20
347.94
 30
0.0
 40
2.5
  1
        FOR CUT SECTIONS
  7
MONOTXT
 11
528.669
 21
350.44
 31
0.0
210
0.0
220
0.0
230
1.0
 73
     3
  0
TEXT
  8
1
  6
CONTINUOUS
 62
     7
  5
210
 10
271.646083
 20
212.244667
 30
0.0
 40
4.0
  1
TYPE A, B
  7
MONOTXT
 72
     4
 11
286.811417
 21
214.244667
 31
0.0
210
0.0
220
0.0
230
1.0
  0
TEXT
  8
1
  6
CONTINUOUS
 62
     7
  5
211
 10
340.165917
 20
210.79925
 30
0.0
 40
4.0
  1
TYPE C, D, E (FILL)
  7
MONOTXT
 72
     4
 11
369.882417
 21
212.79925
 31
0.0
210
0.0
220
0.0
230
1.0
  0
TEXT
  8
1
  6
CONTINUOUS
 62
     7
  5
212
 10
424.792083
 20
245.008417
 30
0.0
 40
4.0
  1
TYPE C, D, E (CUT)
  7
MONOTXT
 72
     4
 11
454.414083
 21
247.008417
 31
0.0
210
0.0
220
0.0
230
1.0
  0
LINE
  8
1
  6
CONTINUOUS
 62
     7
  5
213
 10
269.45575
 20
210.631083
 30
0.0
 11
303.9965
 21
210.631083
 31
0.0
  0
LINE
  8
1
  6
CONTINUOUS
 62
     7
  5
214
 10
338.092667
 20
209.4265
 30
0.0
 11
401.213
 21
209.4265
 31
0.0
  0
LINE
  8
1
  6
CONTINUOUS
 62
     7
  5
215
 10
423.106167
 20
243.153833
 30
0.0
 11
485.531833
 21
243.153833
 31
0.0
  0
LINE
  8
1
  6
DASHED
 62
     1
  5
216
 10
91.30525
 20
153.530083
 30
0.0
 11
93.30525
 21
153.530083
 31
0.0
  0
LINE
  8
1
  6
DASHED
 62
     1
  5
217
 10
108.30525
 20
153.530083
 30
0.0
 11
110.30525
 21
153.530083
 31
0.0
  0
LINE
  8
1
  6
DASHED
 62
     1
  5
218
 10
86.80525
 20
144.530083
 30
0.0
 11
97.80525
 21
144.530083
 31
0.0
  0
LINE
  8
1
  6
DASHED
 62
     1
  5
219
 10
103.80525
 20
144.530083
 30
0.0
 11
114.80525
 21
144.530083
 31
0.0
  0
LINE
  8
1
  6
DASHED
 62
     1
  5
21A
 10
86.80525
 20
144.530083
 30
0.0
 11
86.80525
 21
190.166417
 31
0.0
  0
LINE
  8
1
  6
DASHED
 62
     1
  5
21B
 10
97.80525
 20
144.530083
 30
0.0
 11
97.80525
 21
189.166417
 31
0.0
  0
LINE
  8
1
  6
DASHED
 62
     1
  5
21C
 10
103.80525
 20
144.530083
 30
0.0
 11
103.80525
 21
187.530083
 31
0.0
  0
LINE
  8
1
  6
DASHED
 62
     1
  5
21D
 10
114.80525
 20
144.530083
 30
0.0
 11
114.80525
 21
184.530083
 31
0.0
  0
LINE
  8
1
  6
CONTINUOUS
 62
     1
  5
21E
 10
72.450417
 20
196.081417
 30
0.0
 11
119.629
 21
183.2145
 31
0.0
  0
LINE
  8
1
  6
CONTINUOUS
 62
     1
  5
21F
 10
85.80525
 20
190.166417
 30
0.0
 11
91.30525
 21
190.166417
 31
0.0
  0
LINE
  8
1
  6
DASHED
 62
     1
  5
220
 10
91.30525
 20
190.939167
 30
0.0
 11
91.30525
 21
153.530083
 31
0.0
  0
LINE
  8
1
  6
DASHED
 62
     1
  5
221
 10
93.30525
 20
190.39375
 30
0.0
 11
93.30525
 21
153.530083
 31
0.0
  0
LINE
  8
1
  6
DASHED
 62
     1
  5
222
 10
108.30525
 20
186.302833
 30
0.0
 11
108.30525
 21
153.530083
 31
0.0
  0
LINE
  8
1
  6
DASHED
 62
     1
  5
223
 10
110.30525
 20
185.757333
 30
0.0
 11
110.30525
 21
153.530083
 31
0.0
  0
LINE
  8
1
  6
CONTINUOUS
 62
     1
  5
224
 10
90.30525
 20
208.530083
 30
0.0
 11
94.30525
 21
208.530083
 31
0.0
  0
LINE
  8
1
  6
CONTINUOUS
 62
     1
  5
225
 10
107.30525
 20
208.530083
 30
0.0
 11
111.30525
 21
208.530083
 31
0.0
  0
LINE
  8
1
  6
CONTINUOUS
 62
     1
  5
226
 10
90.30525
 20
212.530083
 30
0.0
 11
94.30525
 21
212.530083
 31
0.0
  0
LINE
  8
1
  6
CONTINUOUS
 62
     1
  5
227
 10
107.30525
 20
212.530083
 30
0.0
 11
111.30525
 21
212.530083
 31
0.0
  0
LINE
  8
1
  6
CONTINUOUS
 62
     1
  5
228
 10
70.30525
 20
202.030083
 30
0.0
 11
220.30525
 21
202.030083
 31
0.0
  0
LINE
  8
1
  6
CONTINUOUS
 62
     1
  5
229
 10
90.05525
 20
197.530083
 30
0.0
 11
94.55525
 21
197.530083
 31
0.0
  0
LINE
  8
1
  6
CONTINUOUS
 62
     1
  5
22A
 10
107.05525
 20
192.530083
 30
0.0
 11
111.55525
 21
192.530083
 31
0.0
  0
LINE
  8
1
  6
CONTINUOUS
 62
     1
  5
22B
 10
90.05525
 20
196.030083
 30
0.0
 11
94.55525
 21
196.030083
 31
0.0
  0
LINE
  8
1
  6
CONTINUOUS
 62
     1
  5
22C
 10
107.05525
 20
191.030083
 30
0.0
 11
111.55525
 21
191.030083
 31
0.0
  0
LINE
  8
1
  6
CONTINUOUS
 62
     1
  5
22D
 10
90.05525
 20
197.530083
 30
0.0
 11
90.05525
 21
196.030083
 31
0.0
  0
LINE
  8
1
  6
CONTINUOUS
 62
     1
  5
22E
 10
94.55525
 20
197.530083
 30
0.0
 11
94.55525
 21
196.030083
 31
0.0
  0
LINE
  8
1
  6
CONTINUOUS
 62
     1
  5
22F
 10
107.05525
 20
192.530083
 30
0.0
 11
107.05525
 21
191.030083
 31
0.0
  0
LINE
  8
1
  6
CONTINUOUS
 62
     1
  5
230
 10
111.55525
 20
192.530083
 30
0.0
 11
111.55525
 21
191.030083
 31
0.0
  0
LINE
  8
1
  6
CONTINUOUS
 62
     1
  5
231
 10
91.30525
 20
208.530083
 30
0.0
 11
91.30525
 21
197.530083
 31
0.0
  0
LINE
  8
1
  6
CONTINUOUS
 62
     1
  5
232
 10
91.30525
 20
196.030083
 30
0.0
 11
91.30525
 21
190.939167
 31
0.0
  0
LINE
  8
1
  6
CONTINUOUS
 62
     1
  5
233
 10
93.30525
 20
208.530083
 30
0.0
 11
93.30525
 21
197.530083
 31
0.0
  0
LINE
  8
1
  6
CONTINUOUS
 62
     1
  5
234
 10
93.30525
 20
196.030083
 30
0.0
 11
93.30525
 21
190.39375
 31
0.0
  0
LINE
  8
1
  6
CONTINUOUS
 62
     1
  5
235
 10
108.30525
 20
208.530083
 30
0.0
 11
108.30525
 21
192.530083
 31
0.0
  0
LINE
  8
1
  6
CONTINUOUS
 62
     1
  5
236
 10
108.30525
 20
191.030083
 30
0.0
 11
108.30525
 21
186.302833
 31
0.0
  0
LINE
  8
1
  6
CONTINUOUS
 62
     1
  5
237
 10
110.30525
 20
208.530083
 30
0.0
 11
110.30525
 21
192.530083
 31
0.0
  0
LINE
  8
1
  6
CONTINUOUS
 62
     1
  5
238
 10
110.30525
 20
191.030083
 30
0.0
 11
110.30525
 21
185.757333
 31
0.0
  0
LINE
  8
1
  6
CONTINUOUS
 62
     1
  5
239
 10
90.05525
 20
196.780083
 30
0.0
 11
94.55525
 21
196.780083
 31
0.0
  0
LINE
  8
1
  6
CONTINUOUS
 62
     1
  5
23A
 10
107.05525
 20
191.780083
 30
0.0
 11
111.55525
 21
191.780083
 31
0.0
  0
LINE
  8
1
  6
CONTINUOUS
 62
     7
  5
23B
 10
92.30525
 20
221.530083
 30
0.0
 11
92.30525
 21
218.530083
 31
0.0
  0
LINE
  8
1
  6
CONTINUOUS
 62
     7
  5
23C
 10
92.30525
 20
217.530083
 30
0.0
 11
92.30525
 21
215.530083
 31
0.0
  0
LINE
  8
1
  6
CONTINUOUS
 62
     7
  5
23D
 10
92.30525
 20
214.530083
 30
0.0
 11
92.30525
 21
212.530083
 31
0.0
  0
LINE
  8
1
  6
CONTINUOUS
 62
     7
  5
23E
 10
109.30525
 20
221.530083
 30
0.0
 11
109.30525
 21
218.530083
 31
0.0
  0
LINE
  8
1
  6
CONTINUOUS
 62
     7
  5
23F
 10
109.30525
 20
217.530083
 30
0.0
 11
109.30525
 21
215.530083
 31
0.0
  0
LINE
  8
1
  6
CONTINUOUS
 62
     7
  5
240
 10
109.30525
 20
214.530083
 30
0.0
 11
109.30525
 21
212.530083
 31
0.0
  0
LINE
  8
1
  6
CONTINUOUS
 62
     7
  5
241
 10
92.30525
 20
173.530083
 30
0.0
 11
92.30525
 21
208.530083
 31
0.0
  0
LINE
  8
1
  6
CONTINUOUS
 62
     7
  5
242
 10
92.30525
 20
152.530083
 30
0.0
 11
92.30525
 21
169.530083
 31
0.0
  0
LINE
  8
1
  6
CONTINUOUS
 62
     7
  5
243
 10
92.30525
 20
170.530083
 30
0.0
 11
92.30525
 21
172.530083
 31
0.0
  0
LINE
  8
1
  6
CONTINUOUS
 62
     7
  5
244
 10
109.30525
 20
173.530083
 30
0.0
 11
109.30525
 21
208.530083
 31
0.0
  0
LINE
  8
1
  6
CONTINUOUS
 62
     7
  5
245
 10
109.30525
 20
152.530083
 30
0.0
 11
109.30525
 21
169.530083
 31
0.0
  0
LINE
  8
1
  6
CONTINUOUS
 62
     7
  5
246
 10
109.30525
 20
170.530083
 30
0.0
 11
109.30525
 21
172.530083
 31
0.0
  0
LINE
  8
1
  6
HIDDEN
 62
     1
  5
247
 10
91.30525
 20
277.030083
 30
0.0
 11
93.30525
 21
277.030083
 31
0.0
  0
LINE
  8
1
  6
HIDDEN
 62
     1
  5
248
 10
108.30525
 20
277.030083
 30
0.0
 11
110.30525
 21
277.030083
 31
0.0
  0
LINE
  8
1
  6
HIDDEN
 62
     1
  5
249
 10
91.30525
 20
280.530083
 30
0.0
 11
110.30525
 21
280.530083
 31
0.0
  0
LINE
  8
1
  6
HIDDEN
 62
     1
  5
24A
 10
91.30525
 20
251.530083
 30
0.0
 11
110.30525
 21
251.530083
 31
0.0
  0
LINE
  8
1
  6
HIDDEN
 62
     1
  5
24B
 10
91.30525
 20
222.530083
 30
0.0
 11
110.30525
 21
222.530083
 31
0.0
  0
LINE
  8
1
  6
HIDDEN
 62
     1
  5
24C
 10
89.30525
 20
278.530083
 30
0.0
 11
89.30525
 21
253.530083
 31
0.0
  0
LINE
  8
1
  6
HIDDEN
 62
     1
  5
24D
 10
89.30525
 20
249.530083
 30
0.0
 11
89.30525
 21
224.530083
 31
0.0
  0
LINE
  8
1
  6
HIDDEN
 62
     1
  5
24E
 10
112.30525
 20
278.530083
 30
0.0
 11
112.30525
 21
253.530083
 31
0.0
  0
LINE
  8
1
  6
HIDDEN
 62
     1
  5
24F
 10
112.30525
 20
249.530083
 30
0.0
 11
112.30525
 21
224.530083
 31
0.0
  0
ARC
  8
1
  6
HIDDEN
 62
     1
  5
250
 10
91.30525
 20
278.530083
 30
0.0
 40
2.0
 50
90.0
 51
180.0
210
0.0
220
0.0
230
1.0
  0
ARC
  8
1
  6
HIDDEN
 62
     1
  5
251
 10
110.30525
 20
278.530083
 30
0.0
 40
2.0
 50
0.0
 51
90.0
210
0.0
220
0.0
230
1.0
  0
ARC
  8
1
  6
HIDDEN
 62
     1
  5
252
 10
110.30525
 20
253.530083
 30
0.0
 40
2.0
 50
270.0
 51
0.0
210
0.0
220
0.0
230
1.0
  0
ARC
  8
1
  6
HIDDEN
 62
     1
  5
253
 10
91.30525
 20
253.530083
 30
0.0
 40
2.0
 50
180.0
 51
270.0
210
0.0
220
0.0
230
1.0
  0
ARC
  8
1
  6
HIDDEN
 62
     1
  5
254
 10
91.30525
 20
249.530083
 30
0.0
 40
2.0
 50
90.0
 51
180.0
210
0.0
220
0.0
230
1.0
  0
ARC
  8
1
  6
HIDDEN
 62
     1
  5
255
 10
110.30525
 20
249.530083
 30
0.0
 40
2.0
 50
0.0
 51
90.0
210
0.0
220
0.0
230
1.0
  0
ARC
  8
1
  6
HIDDEN
 62
     1
  5
256
 10
91.30525
 20
224.530083
 30
0.0
 40
2.0
 50
180.0
 51
270.0
210
0.0
220
0.0
230
1.0
  0
ARC
  8
1
  6
HIDDEN
 62
     1
  5
257
 10
110.30525
 20
224.530083
 30
0.0
 40
2.0
 50
270.0
 51
0.0
210
0.0
220
0.0
230
1.0
  0
LINE
  8
1
  6
HIDDEN
 62
     1
  5
258
 10
91.30525
 20
277.030083
 30
0.0
 11
91.30525
 21
222.530083
 31
0.0
  0
LINE
  8
1
  6
CONTINUOUS
 62
     1
  5
259
 10
91.30525
 20
222.530083
 30
0.0
 11
91.30525
 21
212.530083
 31
0.0
  0
LINE
  8
1
  6
HIDDEN
 62
     1
  5
25A
 10
93.30525
 20
277.030083
 30
0.0
 11
93.30525
 21
222.530083
 31
0.0
  0
LINE
  8
1
  6
CONTINUOUS
 62
     1
  5
25B
 10
93.30525
 20
222.530083
 30
0.0
 11
93.30525
 21
212.530083
 31
0.0
  0
LINE
  8
1
  6
HIDDEN
 62
     1
  5
25C
 10
108.30525
 20
277.030083
 30
0.0
 11
108.30525
 21
222.530083
 31
0.0
  0
LINE
  8
1
  6
CONTINUOUS
 62
     1
  5
25D
 10
108.30525
 20
222.530083
 30
0.0
 11
108.30525
 21
212.530083
 31
0.0
  0
LINE
  8
1
  6
HIDDEN
 62
     1
  5
25E
 10
110.30525
 20
277.030083
 30
0.0
 11
110.30525
 21
222.530083
 31
0.0
  0
LINE
  8
1
  6
CONTINUOUS
 62
     1
  5
25F
 10
90.30525
 20
272.530083
 30
0.0
 11
111.30525
 21
272.530083
 31
0.0
  0
LINE
  8
1
  6
CONTINUOUS
 62
     1
  5
260
 10
90.30525
 20
243.530083
 30
0.0
 11
111.30525
 21
243.530083
 31
0.0
  0
LINE
  8
1
  6
CONTINUOUS
 62
     1
  5
261
 10
90.30525
 20
258.530083
 30
0.0
 11
111.30525
 21
258.530083
 31
0.0
  0
LINE
  8
1
  6
CONTINUOUS
 62
     1
  5
262
 10
90.30525
 20
229.530083
 30
0.0
 11
111.30525
 21
229.530083
 31
0.0
  0
LINE
  8
1
  6
CONTINUOUS
 62
     7
  5
263
 10
89.30525
 20
281.030083
 30
0.0
 11
89.30525
 21
293.530083
 31
0.0
  0
LINE
  8
1
  6
CONTINUOUS
 62
     7
  5
264
 10
112.30525
 20
280.530083
 30
0.0
 11
112.30525
 21
293.530083
 31
0.0
  0
LINE
  8
1
  6
CONTINUOUS
 62
     7
  5
265
 10
112.30525
 20
292.530083
 30
0.0
 11
89.30525
 21
292.530083
 31
0.0
  0
LINE
  8
1
  6
CONTINUOUS
 62
     7
  5
266
 10
92.30525
 20
288.030083
 30
0.0
 11
92.30525
 21
281.530083
 31
0.0
  0
LINE
  8
1
  6
CONTINUOUS
 62
     7
  5
267
 10
109.30525
 20
288.030083
 30
0.0
 11
109.30525
 21
281.530083
 31
0.0
  0
LINE
  8
1
  6
CONTINUOUS
 62
     7
  5
268
 10
92.30525
 20
287.030083
 30
0.0
 11
109.30525
 21
287.030083
 31
0.0
  0
LINE
  8
1
  6
CONTINUOUS
 62
     7
  5
269
 10
88.80525
 20
280.530083
 30
0.0
 11
78.30525
 21
280.530083
 31
0.0
  0
LINE
  8
1
  6
CONTINUOUS
 62
     7
  5
26A
 10
88.80525
 20
251.530083
 30
0.0
 11
78.30525
 21
251.530083
 31
0.0
  0
LINE
  8
1
  6
CONTINUOUS
 62
     7
  5
26B
 10
88.80525
 20
222.530083
 30
0.0
 11
78.30525
 21
222.530083
 31
0.0
  0
LINE
  8
1
  6
CONTINUOUS
 62
     7
  5
26C
 10
88.30525
 20
272.530083
 30
0.0
 11
82.80525
 21
272.530083
 31
0.0
  0
LINE
  8
1
  6
CONTINUOUS
 62
     7
  5
26D
 10
88.30525
 20
258.530083
 30
0.0
 11
82.80525
 21
258.530083
 31
0.0
  0
LINE
  8
1
  6
CONTINUOUS
 62
     7
  5
26E
 10
88.30525
 20
243.530083
 30
0.0
 11
82.80525
 21
243.530083
 31
0.0
  0
LINE
  8
1
  6
CONTINUOUS
 62
     7
  5
26F
 10
88.30525
 20
229.530083
 30
0.0
 11
82.80525
 21
229.530083
 31
0.0
  0
LINE
  8
1
  6
CONTINUOUS
 62
     7
  5
270
 10
79.30525
 20
280.530083
 30
0.0
 11
79.30525
 21
251.530083
 31
0.0
  0
LINE
  8
1
  6
CONTINUOUS
 62
     7
  5
271
 10
79.30525
 20
251.530083
 30
0.0
 11
79.30525
 21
222.530083
 31
0.0
  0
LINE
  8
1
  6
CONTINUOUS
 62
     7
  5
272
 10
83.80525
 20
258.530083
 30
0.0
 11
83.80525
 21
272.530083
 31
0.0
  0
LINE
  8
1
  6
CONTINUOUS
 62
     7
  5
273
 10
83.80525
 20
229.530083
 30
0.0
 11
83.80525
 21
243.530083
 31
0.0
  0
LINE
  8
1
  6
CONTINUOUS
 62
     7
  5
274
 10
83.80525
 20
272.530083
 30
0.0
 11
83.80525
 21
280.530083
 31
0.0
  0
LINE
  8
1
  6
CONTINUOUS
 62
     7
  5
275
 10
83.80525
 20
243.530083
 30
0.0
 11
83.80525
 21
251.530083
 31
0.0
  0
LINE
  8
1
  6
CONTINUOUS
 62
     7
  5
276
 10
111.30525
 20
221.147417
 30
0.0
 11
129.30525
 21
221.147417
 31
0.0
  0
LINE
  8
1
  6
CONTINUOUS
 62
     7
  5
277
 10
128.30525
 20
221.147417
 30
0.0
 11
128.30525
 21
202.030083
 31
0.0
  0
INSERT
  8
1
  6
CONTINUOUS
 62
     1
  5
278
  2
LDR
 10
89.30525
 20
292.530083
 30
0.0
 41
240.0
 42
240.0
 50
180.0
210
0.0
220
0.0
230
1.0
  0
INSERT
  8
1
  6
CONTINUOUS
 62
     1
  5
279
  2
LDR
 10
89.30525
 20
292.530083
 30
0.0
 41
240.0
 42
240.0
 50
180.0
210
0.0
220
0.0
230
1.0
  0
INSERT
  8
1
  6
CONTINUOUS
 62
     1
  5
27A
  2
LDR
 10
112.30525
 20
292.530083
 30
0.0
 41
240.0
 42
240.0
210
0.0
220
0.0
230
1.0
  0
INSERT
  8
1
  6
CONTINUOUS
 62
     1
  5
27B
  2
LDR
 10
112.30525
 20
292.530083
 30
0.0
 41
240.0
 42
240.0
210
0.0
220
0.0
230
1.0
  0
INSERT
  8
1
  6
CONTINUOUS
 62
     1
  5
27C
  2
LDR
 10
92.30525
 20
287.030083
 30
0.0
 41
240.0
 42
240.0
 50
180.0
210
0.0
220
0.0
230
1.0
  0
INSERT
  8
1
  6
CONTINUOUS
 62
     1
  5
27D
  2
LDR
 10
92.30525
 20
287.030083
 30
0.0
 41
240.0
 42
240.0
 50
180.0
210
0.0
220
0.0
230
1.0
  0
INSERT
  8
1
  6
CONTINUOUS
 62
     1
  5
27E
  2
LDR
 10
109.30525
 20
287.030083
 30
0.0
 41
240.0
 42
240.0
210
0.0
220
0.0
230
1.0
  0
INSERT
  8
1
  6
CONTINUOUS
 62
     1
  5
27F
  2
LDR
 10
109.30525
 20
287.030083
 30
0.0
 41
240.0
 42
240.0
210
0.0
220
0.0
230
1.0
  0
INSERT
  8
1
  6
CONTINUOUS
 62
     1
  5
280
  2
LDR
 10
79.30525
 20
280.530083
 30
0.0
 41
240.0
 42
240.0
 50
90.0
210
0.0
220
0.0
230
1.0
  0
INSERT
  8
1
  6
CONTINUOUS
 62
     1
  5
281
  2
LDR
 10
79.30525
 20
280.530083
 30
0.0
 41
240.0
 42
240.0
 50
90.0
210
0.0
220
0.0
230
1.0
  0
INSERT
  8
1
  6
CONTINUOUS
 62
     1
  5
282
  2
LDR
 10
79.30525
 20
251.530083
 30
0.0
 41
240.0
 42
240.0
 50
270.0
210
0.0
220
0.0
230
1.0
  0
INSERT
  8
1
  6
CONTINUOUS
 62
     1
  5
283
  2
LDR
 10
79.30525
 20
251.530083
 30
0.0
 41
240.0
 42
240.0
 50
270.0
210
0.0
220
0.0
230
1.0
  0
INSERT
  8
1
  6
CONTINUOUS
 62
     1
  5
284
  2
LDR
 10
83.80525
 20
280.530083
 30
0.0
 41
240.0
 42
240.0
 50
90.0
210
0.0
220
0.0
230
1.0
  0
INSERT
  8
1
  6
CONTINUOUS
 62
     1
  5
285
  2
LDR
 10
83.80525
 20
280.530083
 30
0.0
 41
240.0
 42
240.0
 50
90.0
210
0.0
220
0.0
230
1.0
  0
INSERT
  8
1
  6
CONTINUOUS
 62
     1
  5
286
  2
LDR
 10
83.80525
 20
272.530083
 30
0.0
 41
240.0
 42
240.0
 50
270.0
210
0.0
220
0.0
230
1.0
  0
INSERT
  8
1
  6
CONTINUOUS
 62
     1
  5
287
  2
LDR
 10
83.80525
 20
272.530083
 30
0.0
 41
240.0
 42
240.0
 50
270.0
210
0.0
220
0.0
230
1.0
  0
INSERT
  8
1
  6
CONTINUOUS
 62
     1
  5
288
  2
LDR
 10
83.80525
 20
272.530083
 30
0.0
 41
240.0
 42
240.0
 50
90.0
210
0.0
220
0.0
230
1.0
  0
INSERT
  8
1
  6
CONTINUOUS
 62
     1
  5
289
  2
LDR
 10
83.80525
 20
272.530083
 30
0.0
 41
240.0
 42
240.0
 50
90.0
210
0.0
220
0.0
230
1.0
  0
INSERT
  8
1
  6
CONTINUOUS
 62
     1
  5
28A
  2
LDR
 10
83.80525
 20
258.530083
 30
0.0
 41
240.0
 42
240.0
 50
270.0
210
0.0
220
0.0
230
1.0
  0
INSERT
  8
1
  6
CONTINUOUS
 62
     1
  5
28B
  2
LDR
 10
83.80525
 20
258.530083
 30
0.0
 41
240.0
 42
240.0
 50
270.0
210
0.0
220
0.0
230
1.0
  0
INSERT
  8
1
  6
CONTINUOUS
 62
     1
  5
28C
  2
LDR
 10
79.30525
 20
251.530083
 30
0.0
 41
240.0
 42
240.0
 50
90.0
210
0.0
220
0.0
230
1.0
  0
INSERT
  8
1
  6
CONTINUOUS
 62
     1
  5
28D
  2
LDR
 10
79.30525
 20
251.530083
 30
0.0
 41
240.0
 42
240.0
 50
90.0
210
0.0
220
0.0
230
1.0
  0
INSERT
  8
1
  6
CONTINUOUS
 62
     1
  5
28E
  2
LDR
 10
79.30525
 20
222.530083
 30
0.0
 41
240.0
 42
240.0
 50
270.0
210
0.0
220
0.0
230
1.0
  0
INSERT
  8
1
  6
CONTINUOUS
 62
     1
  5
28F
  2
LDR
 10
79.30525
 20
222.530083
 30
0.0
 41
240.0
 42
240.0
 50
270.0
210
0.0
220
0.0
230
1.0
  0
INSERT
  8
1
  6
CONTINUOUS
 62
     1
  5
290
  2
LDR
 10
83.80525
 20
251.530083
 30
0.0
 41
240.0
 42
240.0
 50
90.0
210
0.0
220
0.0
230
1.0
  0
INSERT
  8
1
  6
CONTINUOUS
 62
     1
  5
291
  2
LDR
 10
83.80525
 20
251.530083
 30
0.0
 41
240.0
 42
240.0
 50
90.0
210
0.0
220
0.0
230
1.0
  0
INSERT
  8
1
  6
CONTINUOUS
 62
     1
  5
292
  2
LDR
 10
83.80525
 20
243.530083
 30
0.0
 41
240.0
 42
240.0
 50
270.0
210
0.0
220
0.0
230
1.0
  0
INSERT
  8
1
  6
CONTINUOUS
 62
     1
  5
293
  2
LDR
 10
83.80525
 20
243.530083
 30
0.0
 41
240.0
 42
240.0
 50
270.0
210
0.0
220
0.0
230
1.0
  0
INSERT
  8
1
  6
CONTINUOUS
 62
     1
  5
294
  2
LDR
 10
83.80525
 20
243.530083
 30
0.0
 41
240.0
 42
240.0
 50
90.0
210
0.0
220
0.0
230
1.0
  0
INSERT
  8
1
  6
CONTINUOUS
 62
     1
  5
295
  2
LDR
 10
83.80525
 20
243.530083
 30
0.0
 41
240.0
 42
240.0
 50
90.0
210
0.0
220
0.0
230
1.0
  0
INSERT
  8
1
  6
CONTINUOUS
 62
     1
  5
296
  2
LDR
 10
83.80525
 20
229.530083
 30
0.0
 41
240.0
 42
240.0
 50
270.0
210
0.0
220
0.0
230
1.0
  0
INSERT
  8
1
  6
CONTINUOUS
 62
     1
  5
297
  2
LDR
 10
83.80525
 20
229.530083
 30
0.0
 41
240.0
 42
240.0
 50
270.0
210
0.0
220
0.0
230
1.0
  0
INSERT
  8
1
  6
CONTINUOUS
 62
     1
  5
298
  2
LDR
 10
128.30525
 20
202.030083
 30
0.0
 41
240.0
 42
240.0
 50
270.0
210
0.0
220
0.0
230
1.0
  0
LINE
  8
1
  6
DASHED
 62
     1
  5
299
 10
158.30525
 20
153.530083
 30
0.0
 11
160.30525
 21
153.530083
 31
0.0
  0
LINE
  8
1
  6
DASHED
 62
     1
  5
29A
 10
175.30525
 20
153.530083
 30
0.0
 11
177.30525
 21
153.530083
 31
0.0
  0
LINE
  8
1
  6
DASHED
 62
     1
  5
29B
 10
155.30525
 20
144.530083
 30
0.0
 11
163.30525
 21
144.530083
 31
0.0
  0
LINE
  8
1
  6
DASHED
 62
     1
  5
29C
 10
172.30525
 20
144.530083
 30
0.0
 11
180.30525
 21
144.530083
 31
0.0
  0
LINE
  8
1
  6
DASHED
 62
     1
  5
29D
 10
155.30525
 20
144.530083
 30
0.0
 11
155.30525
 21
190.166417
 31
0.0
  0
LINE
  8
1
  6
DASHED
 62
     1
  5
29E
 10
163.30525
 20
144.530083
 30
0.0
 11
163.30525
 21
189.5755
 31
0.0
  0
LINE
  8
1
  6
DASHED
 62
     1
  5
29F
 10
172.30525
 20
144.530083
 30
0.0
 11
172.30525
 21
187.121
 31
0.0
  0
LINE
  8
1
  6
DASHED
 62
     1
  5
2A0
 10
180.30525
 20
144.530083
 30
0.0
 11
180.30525
 21
184.939167
 31
0.0
  0
LINE
  8
1
  6
CONTINUOUS
 62
     1
  5
2A1
 10
139.450417
 20
196.081417
 30
0.0
 11
186.629
 21
183.2145
 31
0.0
  0
LINE
  8
1
  6
CONTINUOUS
 62
     1
  5
2A2
 10
152.80525
 20
190.166417
 30
0.0
 11
158.30525
 21
190.166417
 31
0.0
  0
LINE
  8
1
  6
DASHED
 62
     1
  5
2A3
 10
158.30525
 20
190.939167
 30
0.0
 11
158.30525
 21
153.530083
 31
0.0
  0
LINE
  8
1
  6
DASHED
 62
     1
  5
2A4
 10
160.30525
 20
190.39375
 30
0.0
 11
160.30525
 21
153.530083
 31
0.0
  0
LINE
  8
1
  6
DASHED
 62
     1
  5
2A5
 10
175.30525
 20
186.302833
 30
0.0
 11
175.30525
 21
153.530083
 31
0.0
  0
LINE
  8
1
  6
DASHED
 62
     1
  5
2A6
 10
177.30525
 20
185.757333
 30
0.0
 11
177.30525
 21
153.530083
 31
0.0
  0
LINE
  8
1
  6
CONTINUOUS
 62
     1
  5
2A7
 10
157.05525
 20
197.530083
 30
0.0
 11
161.55525
 21
197.530083
 31
0.0
  0
LINE
  8
1
  6
CONTINUOUS
 62
     1
  5
2A8
 10
174.05525
 20
192.530083
 30
0.0
 11
178.55525
 21
192.530083
 31
0.0
  0
LINE
  8
1
  6
CONTINUOUS
 62
     1
  5
2A9
 10
157.05525
 20
196.030083
 30
0.0
 11
161.55525
 21
196.030083
 31
0.0
  0
LINE
  8
1
  6
CONTINUOUS
 62
     1
  5
2AA
 10
174.05525
 20
191.030083
 30
0.0
 11
178.55525
 21
191.030083
 31
0.0
  0
LINE
  8
1
  6
CONTINUOUS
 62
     1
  5
2AB
 10
157.05525
 20
197.530083
 30
0.0
 11
157.05525
 21
196.030083
 31
0.0
  0
LINE
  8
1
  6
CONTINUOUS
 62
     1
  5
2AC
 10
161.55525
 20
197.530083
 30
0.0
 11
161.55525
 21
196.030083
 31
0.0
  0
LINE
  8
1
  6
CONTINUOUS
 62
     1
  5
2AD
 10
174.05525
 20
192.530083
 30
0.0
 11
174.05525
 21
191.030083
 31
0.0
  0
LINE
  8
1
  6
CONTINUOUS
 62
     1
  5
2AE
 10
178.55525
 20
192.530083
 30
0.0
 11
178.55525
 21
191.030083
 31
0.0
  0
LINE
  8
1
  6
CONTINUOUS
 62
     1
  5
2AF
 10
158.30525
 20
196.030083
 30
0.0
 11
158.30525
 21
190.939167
 31
0.0
  0
LINE
  8
1
  6
CONTINUOUS
 62
     1
  5
2B0
 10
160.30525
 20
196.030083
 30
0.0
 11
160.30525
 21
190.39375
 31
0.0
  0
LINE
  8
1
  6
CONTINUOUS
 62
     1
  5
2B1
 10
175.30525
 20
191.030083
 30
0.0
 11
175.30525
 21
186.302833
 31
0.0
  0
LINE
  8
1
  6
CONTINUOUS
 62
     1
  5
2B2
 10
177.30525
 20
191.030083
 30
0.0
 11
177.30525
 21
185.757333
 31
0.0
  0
LINE
  8
1
  6
CONTINUOUS
 62
     1
  5
2B3
 10
157.05525
 20
196.780083
 30
0.0
 11
161.55525
 21
196.780083
 31
0.0
  0
LINE
  8
1
  6
CONTINUOUS
 62
     1
  5
2B4
 10
174.05525
 20
191.780083
 30
0.0
 11
178.55525
 21
191.780083
 31
0.0
  0
LINE
  8
1
  6
CONTINUOUS
 62
     7
  5
2B5
 10
159.30525
 20
152.530083
 30
0.0
 11
159.30525
 21
169.530083
 31
0.0
  0
LINE
  8
1
  6
CONTINUOUS
 62
     7
  5
2B6
 10
159.30525
 20
170.530083
 30
0.0
 11
159.30525
 21
172.530083
 31
0.0
  0
LINE
  8
1
  6
CONTINUOUS
 62
     7
  5
2B7
 10
176.30525
 20
152.530083
 30
0.0
 11
176.30525
 21
169.530083
 31
0.0
  0
LINE
  8
1
  6
CONTINUOUS
 62
     7
  5
2B8
 10
176.30525
 20
170.530083
 30
0.0
 11
176.30525
 21
172.530083
 31
0.0
  0
LINE
  8
1
  6
HIDDEN
 62
     1
  5
2B9
 10
158.30525
 20
267.030083
 30
0.0
 11
160.30525
 21
267.030083
 31
0.0
  0
LINE
  8
1
  6
HIDDEN
 62
     1
  5
2BA
 10
175.30525
 20
267.030083
 30
0.0
 11
177.30525
 21
267.030083
 31
0.0
  0
LINE
  8
1
  6
CONTINUOUS
 62
     1
  5
2BB
 10
157.30525
 20
266.030083
 30
0.0
 11
178.30525
 21
266.030083
 31
0.0
  0
LINE
  8
1
  6
HIDDEN
 62
     1
  5
2BC
 10
166.40125
 20
279.146167
 30
0.0
 11
151.75025
 21
264.704417
 31
0.0
  0
LINE
  8
1
  6
HIDDEN
 62
     1
  5
2BD
 10
151.75025
 20
261.85575
 30
0.0
 11
166.40125
 21
247.414083
 31
0.0
  0
LINE
  8
1
  6
HIDDEN
 62
     1
  5
2BE
 10
169.20925
 20
247.414083
 30
0.0
 11
183.860167
 21
261.85575
 31
0.0
  0
LINE
  8
1
  6
HIDDEN
 62
     1
  5
2BF
 10
183.86025
 20
264.7045
 30
0.0
 11
169.20925
 21
279.146167
 31
0.0
  0
ARC
  8
1
  6
HIDDEN
 62
     1
  5
2C0
 10
167.805267
 20
277.721794
 30
0.0
 40
2.0
 50
45.412683
 51
134.588008
210
0.0
220
0.0
230
1.0
  0
ARC
  8
1
  6
HIDDEN
 62
     1
  5
2C1
 10
182.456222
 20
263.280131
 30
0.0
 40
2.0
 50
314.586242
 51
45.411856
210
0.0
220
0.0
230
1.0
  0
ARC
  8
1
  6
HIDDEN
 62
     1
  5
2C2
 10
167.805248
 20
248.838419
 30
0.0
 40
2.0
 50
225.411422
 51
314.588667
210
0.0
220
0.0
230
1.0
  0
ARC
  8
1
  6
HIDDEN
 62
     1
  5
2C3
 10
153.154264
 20
263.280087
 30
0.0
 40
2.0
 50
134.587539
 51
225.412592
210
0.0
220
0.0
230
1.0
  0
LINE
  8
1
  6
CONTINUOUS
 62
     1
  5
2C4
 10
157.30525
 20
258.030083
 30
0.0
 11
178.30525
 21
258.030083
 31
0.0
  0
LINE
  8
1
  6
HIDDEN
 62
     1
  5
2C5
 10
158.30525
 20
267.030083
 30
0.0
 11
158.30525
 21
255.394417
 31
0.0
  0
LINE
  8
1
  6
CONTINUOUS
 62
     1
  5
2C6
 10
158.30525
 20
255.394417
 30
0.0
 11
158.30525
 21
197.530083
 31
0.0
  0
LINE
  8
1
  6
HIDDEN
 62
     1
  5
2C7
 10
160.30525
 20
267.030083
 30
0.0
 11
160.30525
 21
253.423
 31
0.0
  0
LINE
  8
1
  6
CONTINUOUS
 62
     1
  5
2C8
 10
160.30525
 20
253.423
 30
0.0
 11
160.30525
 21
197.530083
 31
0.0
  0
LINE
  8
1
  6
HIDDEN
 62
     1
  5
2C9
 10
175.30525
 20
267.030083
 30
0.0
 11
175.30525
 21
253.423
 31
0.0
  0
LINE
  8
1
  6
CONTINUOUS
 62
     1
  5
2CA
 10
175.30525
 20
253.423
 30
0.0
 11
175.30525
 21
192.530083
 31
0.0
  0
LINE
  8
1
  6
HIDDEN
 62
     1
  5
2CB
 10
177.30525
 20
267.030083
 30
0.0
 11
177.30525
 21
255.394417
 31
0.0
  0
LINE
  8
1
  6
CONTINUOUS
 62
     1
  5
2CC
 10
177.30525
 20
255.394417
 30
0.0
 11
177.30525
 21
192.530083
 31
0.0
  0
LINE
  8
1
  6
CONTINUOUS
 62
     1
  5
2CD
 10
91.30525
 20
222.147417
 30
0.0
 11
93.30525
 21
222.147417
 31
0.0
  0
LINE
  8
1
  6
CONTINUOUS
 62
     1
  5
2CE
 10
108.30525
 20
222.147417
 30
0.0
 11
110.30525
 21
222.147417
 31
0.0
  0
LINE
  8
1
  6
CONTINUOUS
 62
     1
  5
2CF
 10
91.30525
 20
220.147417
 30
0.0
 11
93.30525
 21
220.147417
 31
0.0
  0
LINE
  8
1
  6
CONTINUOUS
 62
     1
  5
2D0
 10
108.30525
 20
220.147417
 30
0.0
 11
110.30525
 21
220.147417
 31
0.0
  0
LINE
  8
1
  6
CONTINUOUS
 62
     1
  5
2D1
 10
110.30525
 20
222.530083
 30
0.0
 11
110.30525
 21
222.147417
 31
0.0
  0
LINE
  8
1
  6
CONTINUOUS
 62
     1
  5
2D2
 10
110.30525
 20
222.147417
 30
0.0
 11
110.30525
 21
220.147417
 31
0.0
  0
LINE
  8
1
  6
CONTINUOUS
 62
     1
  5
2D3
 10
110.30525
 20
220.147417
 30
0.0
 11
110.30525
 21
212.530083
 31
0.0
  0
INSERT
  8
1
  6
CONTINUOUS
 62
     1
  5
2D4
  2
LDR
 10
128.30525
 20
221.147417
 30
0.0
 41
240.0
 42
240.0
 50
90.0
210
0.0
220
0.0
230
1.0
  0
LINE
  8
1
  6
CONTINUOUS
 62
     1
  5
2D5
 10
158.30525
 20
245.838417
 30
0.0
 11
160.30525
 21
245.838417
 31
0.0
  0
LINE
  8
1
  6
CONTINUOUS
 62
     1
  5
2D6
 10
175.30525
 20
247.838417
 30
0.0
 11
177.30525
 21
247.838417
 31
0.0
  0
LINE
  8
1
  6
CONTINUOUS
 62
     1
  5
2D7
 10
158.30525
 20
247.838417
 30
0.0
 11
160.30525
 21
247.838417
 31
0.0
  0
LINE
  8
1
  6
CONTINUOUS
 62
     1
  5
2D8
 10
175.30525
 20
245.838417
 30
0.0
 11
177.30525
 21
245.838417
 31
0.0
  0
LINE
  8
1
  6
CONTINUOUS
 62
     7
  5
2D9
 10
159.30525
 20
229.838417
 30
0.0
 11
159.30525
 21
237.838417
 31
0.0
  0
LINE
  8
1
  6
CONTINUOUS
 62
     7
  5
2DA
 10
159.30525
 20
173.530083
 30
0.0
 11
159.30525
 21
225.838417
 31
0.0
  0
LINE
  8
1
  6
CONTINUOUS
 62
     7
  5
2DB
 10
159.30525
 20
226.838417
 30
0.0
 11
159.30525
 21
228.838417
 31
0.0
  0
LINE
  8
1
  6
CONTINUOUS
 62
     7
  5
2DC
 10
176.30525
 20
229.838417
 30
0.0
 11
176.30525
 21
237.838417
 31
0.0
  0
LINE
  8
1
  6
CONTINUOUS
 62
     7
  5
2DD
 10
176.30525
 20
173.530083
 30
0.0
 11
176.30525
 21
225.838417
 31
0.0
  0
LINE
  8
1
  6
CONTINUOUS
 62
     7
  5
2DE
 10
176.30525
 20
226.838417
 30
0.0
 11
176.30525
 21
228.838417
 31
0.0
  0
LINE
  8
1
  6
CONTINUOUS
 62
     7
  5
2DF
 10
159.30525
 20
288.530083
 30
0.0
 11
159.30525
 21
268.030083
 31
0.0
  0
LINE
  8
1
  6
CONTINUOUS
 62
     7
  5
2E0
 10
176.30525
 20
288.530083
 30
0.0
 11
176.30525
 21
268.030083
 31
0.0
  0
LINE
  8
1
  6
CONTINUOUS
 62
     7
  5
2E1
 10
159.30525
 20
287.530083
 30
0.0
 11
176.30525
 21
287.530083
 31
0.0
  0
LINE
  8
1
  6
CONTINUOUS
 62
     7
  5
2E2
 10
169.80525
 20
279.721833
 30
0.0
 11
199.30525
 21
279.721833
 31
0.0
  0
LINE
  8
1
  6
CONTINUOUS
 62
     7
  5
2E3
 10
183.515417
 20
266.030083
 30
0.0
 11
191.30525
 21
266.030083
 31
0.0
  0
LINE
  8
1
  6
CONTINUOUS
 62
     7
  5
2E4
 10
180.979083
 20
258.030083
 30
0.0
 11
191.30525
 21
258.030083
 31
0.0
  0
LINE
  8
1
  6
CONTINUOUS
 62
     7
  5
2E5
 10
198.30525
 20
279.721833
 30
0.0
 11
198.30525
 21
246.838417
 31
0.0
  0
LINE
  8
1
  6
CONTINUOUS
 62
     7
  5
2E6
 10
169.80525
 20
246.838417
 30
0.0
 11
174.30525
 21
246.838417
 31
0.0
  0
LINE
  8
1
  6
CONTINUOUS
 62
     7
  5
2E7
 10
178.30525
 20
246.838417
 30
0.0
 11
199.30525
 21
246.838417
 31
0.0
  0
LINE
  8
1
  6
CONTINUOUS
 62
     7
  5
2E8
 10
190.30525
 20
266.030083
 30
0.0
 11
190.30525
 21
279.721833
 31
0.0
  0
LINE
  8
1
  6
CONTINUOUS
 62
     7
  5
2E9
 10
190.30525
 20
258.030083
 30
0.0
 11
190.30525
 21
246.838417
 31
0.0
  0
LINE
  8
1
  6
CONTINUOUS
 62
     7
  5
2EA
 10
198.30525
 20
246.838417
 30
0.0
 11
198.30525
 21
202.030083
 31
0.0
  0
LINE
  8
1
  6
CONTINUOUS
 62
     7
  5
2EB
 10
150.335917
 20
263.290083
 30
0.0
 11
143.265
 21
256.219167
 31
0.0
  0
LINE
  8
1
  6
CONTINUOUS
 62
     7
  5
2EC
 10
167.794917
 20
245.99975
 30
0.0
 11
160.724
 21
238.928833
 31
0.0
  0
LINE
  8
1
  6
CONTINUOUS
 62
     7
  5
2ED
 10
143.975417
 20
256.92275
 30
0.0
 11
161.434417
 21
239.632417
 31
0.0
  0
INSERT
  8
1
  6
CONTINUOUS
 62
     1
  5
2EE
  2
LDR
 10
143.975417
 20
256.92275
 30
0.0
 41
240.000001
 42
240.000001
 50
135.278101
210
0.0
220
0.0
230
1.0
  0
INSERT
  8
1
  6
CONTINUOUS
 62
     1
  5
2EF
  2
LDR
 10
143.975417
 20
256.92275
 30
0.0
 41
240.000001
 42
240.000001
 50
135.278101
210
0.0
220
0.0
230
1.0
  0
INSERT
  8
1
  6
CONTINUOUS
 62
     1
  5
2F0
  2
LDR
 10
161.434417
 20
239.632417
 30
0.0
 41
240.000001
 42
240.000001
 50
315.278101
210
0.0
220
0.0
230
1.0
  0
INSERT
  8
1
  6
CONTINUOUS
 62
     1
  5
2F1
  2
LDR
 10
161.434417
 20
239.632417
 30
0.0
 41
240.000001
 42
240.000001
 50
315.278101
210
0.0
220
0.0
230
1.0
  0
INSERT
  8
1
  6
CONTINUOUS
 62
     1
  5
2F2
  2
LDR
 10
190.30525
 20
279.721833
 30
0.0
 41
240.0
 42
240.0
 50
90.0
210
0.0
220
0.0
230
1.0
  0
INSERT
  8
1
  6
CONTINUOUS
 62
     1
  5
2F3
  2
LDR
 10
190.30525
 20
279.721833
 30
0.0
 41
240.0
 42
240.0
 50
90.0
210
0.0
220
0.0
230
1.0
  0
INSERT
  8
1
  6
CONTINUOUS
 62
     1
  5
2F4
  2
LDR
 10
198.30525
 20
279.721833
 30
0.0
 41
240.0
 42
240.0
 50
90.0
210
0.0
220
0.0
230
1.0
  0
INSERT
  8
1
  6
CONTINUOUS
 62
     1
  5
2F5
  2
LDR
 10
198.30525
 20
279.721833
 30
0.0
 41
240.0
 42
240.0
 50
90.0
210
0.0
220
0.0
230
1.0
  0
INSERT
  8
1
  6
CONTINUOUS
 62
     1
  5
2F6
  2
LDR
 10
190.30525
 20
266.030083
 30
0.0
 41
240.0
 42
240.0
 50
270.0
210
0.0
220
0.0
230
1.0
  0
INSERT
  8
1
  6
CONTINUOUS
 62
     1
  5
2F7
  2
LDR
 10
190.30525
 20
266.030083
 30
0.0
 41
240.0
 42
240.0
 50
270.0
210
0.0
220
0.0
230
1.0
  0
INSERT
  8
1
  6
CONTINUOUS
 62
     1
  5
2F8
  2
LDR
 10
190.30525
 20
258.030083
 30
0.0
 41
240.0
 42
240.0
 50
90.0
210
0.0
220
0.0
230
1.0
  0
INSERT
  8
1
  6
CONTINUOUS
 62
     1
  5
2F9
  2
LDR
 10
190.30525
 20
258.030083
 30
0.0
 41
240.0
 42
240.0
 50
90.0
210
0.0
220
0.0
230
1.0
  0
INSERT
  8
1
  6
CONTINUOUS
 62
     1
  5
2FA
  2
LDR
 10
190.30525
 20
246.838417
 30
0.0
 41
240.0
 42
240.0
 50
270.0
210
0.0
220
0.0
230
1.0
  0
INSERT
  8
1
  6
CONTINUOUS
 62
     1
  5
2FB
  2
LDR
 10
190.30525
 20
246.838417
 30
0.0
 41
240.0
 42
240.0
 50
270.0
210
0.0
220
0.0
230
1.0
  0
INSERT
  8
1
  6
CONTINUOUS
 62
     1
  5
2FC
  2
LDR
 10
198.30525
 20
246.838417
 30
0.0
 41
240.0
 42
240.0
 50
270.0
210
0.0
220
0.0
230
1.0
  0
INSERT
  8
1
  6
CONTINUOUS
 62
     1
  5
2FD
  2
LDR
 10
198.30525
 20
246.838417
 30
0.0
 41
240.0
 42
240.0
 50
270.0
210
0.0
220
0.0
230
1.0
  0
INSERT
  8
1
  6
CONTINUOUS
 62
     1
  5
2FE
  2
LDR
 10
198.30525
 20
246.838417
 30
0.0
 41
240.0
 42
240.0
 50
90.0
210
0.0
220
0.0
230
1.0
  0
INSERT
  8
1
  6
CONTINUOUS
 62
     1
  5
2FF
  2
LDR
 10
159.30525
 20
287.530083
 30
0.0
 41
240.0
 42
240.0
 50
180.0
210
0.0
220
0.0
230
1.0
  0
INSERT
  8
1
  6
CONTINUOUS
 62
     1
  5
300
  2
LDR
 10
159.30525
 20
287.530083
 30
0.0
 41
240.0
 42
240.0
 50
180.0
210
0.0
220
0.0
230
1.0
  0
INSERT
  8
1
  6
CONTINUOUS
 62
     1
  5
301
  2
LDR
 10
176.30525
 20
287.530083
 30
0.0
 41
240.0
 42
240.0
210
0.0
220
0.0
230
1.0
  0
INSERT
  8
1
  6
CONTINUOUS
 62
     1
  5
302
  2
LDR
 10
198.30525
 20
202.030083
 30
0.0
 41
240.0
 42
240.0
 50
270.0
210
0.0
220
0.0
230
1.0
  0
LINE
  8
1
  6
CONTINUOUS
 62
     7
  5
303
 10
111.30525
 20
272.530083
 30
0.0
 11
124.821
 21
275.270417
 31
0.0
  0
LINE
  8
1
  6
CONTINUOUS
 62
     7
  5
304
 10
124.821
 20
275.270417
 30
0.0
 11
111.30525
 21
258.530083
 31
0.0
  0
LINE
  8
1
  6
CONTINUOUS
 62
     7
  5
305
 10
124.821
 20
275.270417
 30
0.0
 11
111.30525
 21
243.530083
 31
0.0
  0
LINE
  8
1
  6
CONTINUOUS
 62
     7
  5
306
 10
124.821
 20
275.270417
 30
0.0
 11
111.30525
 21
229.530083
 31
0.0
  0
LINE
  8
1
  6
CONTINUOUS
 62
     7
  5
307
 10
124.821
 20
275.270417
 30
0.0
 11
126.003667
 21
275.270417
 31
0.0
  0
TEXT
  8
1
  6
CONTINUOUS
 62
     7
  5
308
 10
126.632167
 20
273.7185
 30
0.0
 40
2.5
  1
EXTRUDED
  7
MONOTXT
 72
     4
 11
136.03175
 21
274.9685
 31
0.0
210
0.0
220
0.0
230
1.0
  0
TEXT
  8
1
  6
CONTINUOUS
 62
     7
  5
309
 10
132.301417
 20
269.2185
 30
0.0
 40
2.5
  1
RIBS
  7
MONOTXT
 72
     4
 11
136.03175
 21
270.4685
 31
0.0
210
0.0
220
0.0
230
1.0
  0
TEXT
  8
1
  6
CONTINUOUS
 62
     7
  5
30A
 10
123.748333
 20
264.7185
 30
0.0
 40
2.5
  1
(SEE DETAIL)
  7
MONOTXT
 72
     4
 11
136.021917
 21
265.9685
 31
0.0
210
0.0
220
0.0
230
1.0
  0
LINE
  8
1
  6
CONTINUOUS
 62
     7
  5
30B
 10
157.30525
 20
266.030083
 30
0.0
 11
152.231917
 21
275.270417
 31
0.0
  0
LINE
  8
1
  6
CONTINUOUS
 62
     7
  5
30C
 10
152.231917
 20
275.270417
 30
0.0
 11
157.30525
 21
258.030083
 31
0.0
  0
LINE
  8
1
  6
CONTINUOUS
 62
     7
  5
30D
 10
152.231917
 20
275.270417
 30
0.0
 11
146.245167
 21
275.270417
 31
0.0
  0
INSERT
  8
1
  6
CONTINUOUS
 62
     1
  5
30E
  2
LDR
 10
111.30525
 20
272.530083
 30
0.0
 41
240.0
 42
240.0
 50
191.461417
210
0.0
220
0.0
230
1.0
  0
INSERT
  8
1
  6
CONTINUOUS
 62
     1
  5
30F
  2
LDR
 10
111.30525
 20
272.530083
 30
0.0
 41
240.0
 42
240.0
 50
191.461417
210
0.0
220
0.0
230
1.0
  0
INSERT
  8
1
  6
CONTINUOUS
 62
     1
  5
310
  2
LDR
 10
111.30525
 20
258.530083
 30
0.0
 41
240.000003
 42
240.000003
 50
231.083412
210
0.0
220
0.0
230
1.0
  0
INSERT
  8
1
  6
CONTINUOUS
 62
     1
  5
311
  2
LDR
 10
111.30525
 20
258.530083
 30
0.0
 41
240.000003
 42
240.000003
 50
231.083412
210
0.0
220
0.0
230
1.0
  0
INSERT
  8
1
  6
CONTINUOUS
 62
     1
  5
312
  2
LDR
 10
111.30525
 20
243.530083
 30
0.0
 41
240.0
 42
240.0
 50
246.934601
210
0.0
220
0.0
230
1.0
  0
INSERT
  8
1
  6
CONTINUOUS
 62
     1
  5
313
  2
LDR
 10
111.30525
 20
243.530083
 30
0.0
 41
240.0
 42
240.0
 50
246.934601
210
0.0
220
0.0
230
1.0
  0
INSERT
  8
1
  6
CONTINUOUS
 62
     1
  5
314
  2
LDR
 10
111.30525
 20
229.530083
 30
0.0
 41
240.0
 42
240.0
 50
253.538187
210
0.0
220
0.0
230
1.0
  0
INSERT
  8
1
  6
CONTINUOUS
 62
     1
  5
315
  2
LDR
 10
111.30525
 20
229.530083
 30
0.0
 41
240.0
 42
240.0
 50
253.538187
210
0.0
220
0.0
230
1.0
  0
INSERT
  8
1
  6
CONTINUOUS
 62
     1
  5
316
  2
LDR
 10
157.30525
 20
258.030083
 30
0.0
 41
240.0
 42
240.0
 50
286.397637
210
0.0
220
0.0
230
1.0
  0
INSERT
  8
1
  6
CONTINUOUS
 62
     1
  5
317
  2
LDR
 10
157.30525
 20
258.030083
 30
0.0
 41
240.0
 42
240.0
 50
286.397637
210
0.0
220
0.0
230
1.0
  0
INSERT
  8
1
  6
CONTINUOUS
 62
     1
  5
318
  2
LDR
 10
157.30525
 20
266.030083
 30
0.0
 41
239.999999
 42
239.999999
 50
298.768646
210
0.0
220
0.0
230
1.0
  0
TEXT
  8
1
  6
CONTINUOUS
 62
     7
  5
319
 10
99.290083
 20
293.297917
 30
0.0
 40
2.5
  1
W
  7
MONOTXT
 72
     4
 11
100.481
 21
294.547917
 31
0.0
210
0.0
220
0.0
230
1.0
  0
TEXT
  8
1
  6
CONTINUOUS
 62
     7
  5
31A
 10
99.644417
 20
287.59125
 30
0.0
 40
2.5
  1
P
  7
MONOTXT
 72
     4
 11
100.481
 21
288.84125
 31
0.0
210
0.0
220
0.0
230
1.0
  0
TEXT
  8
1
  6
CONTINUOUS
 62
     7
  5
31B
 10
167.267417
 20
288.287167
 30
0.0
 40
2.5
  1
P
  7
MONOTXT
 72
     4
 11
168.104
 21
289.537167
 31
0.0
210
0.0
220
0.0
230
1.0
  0
TEXT
  8
1
  6
CONTINUOUS
 62
     7
  5
31C
 10
78.484417
 20
234.149
 30
0.0
 40
2.5
  1
H
 50
90.0
  7
MONOTXT
 72
     4
 11
77.234417
 21
234.985583
 31
0.0
210
0.0
220
0.0
230
1.0
  0
TEXT
  8
1
  6
CONTINUOUS
 62
     7
  5
31D
 10
78.34525
 20
262.96075
 30
0.0
 40
2.5
  1
H
 50
90.0
  7
MONOTXT
 72
     4
 11
77.09525
 21
263.797333
 31
0.0
210
0.0
220
0.0
230
1.0
  0
TEXT
  8
1
  6
CONTINUOUS
 62
     7
  5
31E
 10
197.450917
 20
261.429667
 30
0.0
 40
2.5
  1
H
 50
90.0
  7
MONOTXT
 72
     4
 11
196.200917
 21
262.26625
 31
0.0
210
0.0
220
0.0
230
1.0
  0
TEXT
  8
1
  6
CONTINUOUS
 62
     7
  5
31F
 10
83.076083
 20
234.545417
 30
0.0
 40
2.5
  1
d
 50
90.0
  7
MONOTXT
 72
     4
 11
81.826083
 21
235.254083
 31
0.0
210
0.0
220
0.0
230
1.0
  0
TEXT
  8
1
  6
CONTINUOUS
 62
     7
  5
320
 10
82.936917
 20
263.914
 30
0.0
 40
2.5
  1
d
 50
90.0
  7
MONOTXT
 72
     4
 11
81.686917
 21
264.622667
 31
0.0
210
0.0
220
0.0
230
1.0
  0
TEXT
  8
1
  6
CONTINUOUS
 62
     7
  5
321
 10
82.5195
 20
274.3975
 30
0.0
 40
2.5
  1
c
 50
90.0
  7
MONOTXT
 72
     4
 11
81.2695
 21
275.116
 31
0.0
210
0.0
220
0.0
230
1.0
  0
TEXT
  8
1
  6
CONTINUOUS
 62
     7
  5
322
 10
82.658667
 20
245.54125
 30
0.0
 40
2.5
  1
c
 50
90.0
  7
MONOTXT
 72
     4
 11
81.408667
 21
246.25975
 31
0.0
210
0.0
220
0.0
230
1.0
  0
TEXT
  8
1
  6
CONTINUOUS
 62
     7
  5
323
 10
189.519833
 20
272.265167
 30
0.0
 40
2.5
  1
c
 50
90.0
  7
MONOTXT
 72
     4
 11
188.269833
 21
272.983667
 31
0.0
210
0.0
220
0.0
230
1.0
  0
TEXT
  8
1
  6
CONTINUOUS
 62
     7
  5
324
 10
189.2415
 20
251.52625
 30
0.0
 40
2.5
  1
c
 50
90.0
  7
MONOTXT
 72
     4
 11
187.9915
 21
252.24475
 31
0.0
210
0.0
220
0.0
230
1.0
  0
TEXT
  8
1
  6
CONTINUOUS
 62
     7
  5
325
 10
152.240167
 20
250.167667
 30
0.0
 40
2.5
  1
W
 50
315.2781
  7
MONOTXT
 72
     1
 11
153.086349
 21
249.329659
 31
0.0
210
0.0
220
0.0
230
1.0
  0
LINE
  8
1
  6
CONTINUOUS
 62
     7
  5
326
 10
78.419167
 20
265.325083
 30
0.0
 11
75.730167
 21
265.325083
 31
0.0
  0
LINE
  8
1
  6
CONTINUOUS
 62
     7
  5
327
 10
75.730167
 20
265.325083
 30
0.0
 11
75.730167
 21
267.722583
 31
0.0
  0
LINE
  8
1
  6
CONTINUOUS
 62
     7
  5
328
 10
82.920333
 20
266.202333
 30
0.0
 11
81.2835
 21
266.202333
 31
0.0
  0
LINE
  8
1
  6
CONTINUOUS
 62
     7
  5
329
 10
81.2835
 20
266.202333
 30
0.0
 11
81.2835
 21
267.722667
 31
0.0
  0
POLYLINE
  8
1
  6
CONTINUOUS
 62
     7
  5
32A
 66
     1
 10
0.0
 20
0.0
 30
0.0
 70
     1
  0
VERTEX
  8
1
  6
CONTINUOUS
 62
     7
  5
32B
 10
78.419167
 20
265.325083
 30
0.0
  0
VERTEX
  8
1
  6
CONTINUOUS
 62
     7
  5
32C
 10
75.730167
 20
267.722583
 30
0.0
  0
VERTEX
  8
1
  6
CONTINUOUS
 62
     7
  5
32D
 10
78.419167
 20
267.722583
 30
0.0
  0
VERTEX
  8
1
  6
CONTINUOUS
 62
     7
  5
32E
 10
78.419167
 20
265.325083
 30
0.0
  0
SEQEND
  8
1
  6
CONTINUOUS
 62
     7
  5
32F
  0
LINE
  8
1
  6
CONTINUOUS
 62
     7
  5
330
 10
82.511167
 20
276.552417
 30
0.0
 11
80.874333
 21
276.552417
 31
0.0
  0
LINE
  8
1
  6
CONTINUOUS
 62
     7
  5
331
 10
80.874333
 20
276.552417
 30
0.0
 11
80.874333
 21
278.07275
 31
0.0
  0
POLYLINE
  8
1
  6
CONTINUOUS
 62
     7
  5
332
 66
     1
 10
0.0
 20
0.0
 30
0.0
 70
     1
  0
VERTEX
  8
1
  6
CONTINUOUS
 62
     7
  5
333
 10
82.511167
 20
276.552417
 30
0.0
  0
VERTEX
  8
1
  6
CONTINUOUS
 62
     7
  5
334
 10
80.874333
 20
278.07275
 30
0.0
  0
VERTEX
  8
1
  6
CONTINUOUS
 62
     7
  5
335
 10
82.511167
 20
278.07275
 30
0.0
  0
VERTEX
  8
1
  6
CONTINUOUS
 62
     7
  5
336
 10
82.511167
 20
276.552417
 30
0.0
  0
SEQEND
  8
1
  6
CONTINUOUS
 62
     7
  5
337
  0
POLYLINE
  8
1
  6
CONTINUOUS
 62
     7
  5
338
 66
     1
 10
0.0
 20
0.0
 30
0.0
 70
     1
  0
VERTEX
  8
1
  6
CONTINUOUS
 62
     7
  5
339
 10
82.920333
 20
266.202333
 30
0.0
  0
VERTEX
  8
1
  6
CONTINUOUS
 62
     7
  5
33A
 10
81.2835
 20
267.722667
 30
0.0
  0
VERTEX
  8
1
  6
CONTINUOUS
 62
     7
  5
33B
 10
82.920333
 20
267.722667
 30
0.0
  0
VERTEX
  8
1
  6
CONTINUOUS
 62
     7
  5
33C
 10
82.920333
 20
266.202333
 30
0.0
  0
SEQEND
  8
1
  6
CONTINUOUS
 62
     7
  5
33D
  0
POLYLINE
  8
1
  6
CONTINUOUS
 62
     7
  5
33E
 66
     1
 10
0.0
 20
0.0
 30
0.0
 70
     1
  0
VERTEX
  8
1
  6
CONTINUOUS
 62
     7
  5
33F
 10
75.792917
 20
237.996083
 30
0.0
  0
VERTEX
  8
1
  6
CONTINUOUS
 62
     7
  5
340
 10
78.3925
 20
239.496917
 30
0.0
  0
VERTEX
  8
1
  6
CONTINUOUS
 62
     7
  5
341
 10
78.3925
 20
236.496917
 30
0.0
  0
VERTEX
  8
1
  6
CONTINUOUS
 62
     7
  5
342
 10
75.792917
 20
237.996083
 30
0.0
  0
SEQEND
  8
1
  6
CONTINUOUS
 62
     7
  5
343
  0
POLYLINE
  8
1
  6
CONTINUOUS
 62
     7
  5
344
 66
     1
 10
0.0
 20
0.0
 30
0.0
 70
     1
  0
VERTEX
  8
1
  6
CONTINUOUS
 62
     7
  5
345
 10
80.864667
 20
248.414667
 30
0.0
  0
VERTEX
  8
1
  6
CONTINUOUS
 62
     7
  5
346
 10
82.59675
 20
249.414667
 30
0.0
  0
VERTEX
  8
1
  6
CONTINUOUS
 62
     7
  5
347
 10
82.59675
 20
247.414667
 30
0.0
  0
VERTEX
  8
1
  6
CONTINUOUS
 62
     7
  5
348
 10
80.859
 20
248.414667
 30
0.0
  0
VERTEX
  8
1
  6
CONTINUOUS
 62
     7
  5
349
 10
80.864667
 20
248.414667
 30
0.0
  0
SEQEND
  8
1
  6
CONTINUOUS
 62
     7
  5
34A
  0
POLYLINE
  8
1
  6
CONTINUOUS
 62
     7
  5
34B
 66
     1
 10
0.0
 20
0.0
 30
0.0
 70
     1
  0
VERTEX
  8
1
  6
CONTINUOUS
 62
     7
  5
34C
 10
81.296333
 20
237.434667
 30
0.0
  0
VERTEX
  8
1
  6
CONTINUOUS
 62
     7
  5
34D
 10
83.028417
 20
238.434667
 30
0.0
  0
VERTEX
  8
1
  6
CONTINUOUS
 62
     7
  5
34E
 10
83.028417
 20
236.434667
 30
0.0
  0
VERTEX
  8
1
  6
CONTINUOUS
 62
     7
  5
34F
 10
81.290667
 20
237.434667
 30
0.0
  0
VERTEX
  8
1
  6
CONTINUOUS
 62
     7
  5
350
 10
81.296333
 20
237.434667
 30
0.0
  0
SEQEND
  8
1
  6
CONTINUOUS
 62
     7
  5
351
  0
LINE
  8
1
  6
CONTINUOUS
 62
     7
  5
352
 10
87.20575
 20
128.45825
 30
0.0
 11
113.080833
 21
128.45825
 31
0.0
  0
LINE
  8
1
  6
CONTINUOUS
 62
     7
  5
353
 10
153.428417
 20
128.45825
 30
0.0
 11
178.974667
 21
128.45825
 31
0.0
  0
TEXT
  8
1
  6
CONTINUOUS
 62
     7
  5
354
 10
88.8945
 20
130.071833
 30
0.0
 40
4.0
  1
TYPE G
  7
MONOTXT
 72
     4
 11
100.248833
 21
132.071833
 31
0.0
210
0.0
220
0.0
230
1.0
  0
TEXT
  8
1
  6
CONTINUOUS
 62
     7
  5
355
 10
154.706667
 20
130.071833
 30
0.0
 40
4.0
  1
TYPE F
  7
MONOTXT
 72
     4
 11
165.872
 21
132.071833
 31
0.0
210
0.0
220
0.0
230
1.0
  0
LINE
  8
1
  6
CONTINUOUS
 62
     2
  5
356
 10
102.521583
 20
86.480667
 30
0.0
 11
102.521583
 21
105.980667
 31
0.0
  0
LINE
  8
1
  6
CONTINUOUS
 62
     2
  5
357
 10
102.521583
 20
80.480667
 30
0.0
 11
102.521583
 21
69.480667
 31
0.0
  0
LINE
  8
1
  6
CONTINUOUS
 62
     2
  5
358
 10
100.021583
 20
84.730667
 30
0.0
 11
101.521583
 21
84.730667
 31
0.0
  0
LINE
  8
1
  6
CONTINUOUS
 62
     2
  5
359
 10
100.021583
 20
84.730667
 30
0.0
 11
100.021583
 21
81.980667
 31
0.0
  0
LINE
  8
1
  6
CONTINUOUS
 62
     2
  5
35A
 10
100.021583
 20
81.980667
 30
0.0
 11
101.521583
 21
81.980667
 31
0.0
  0
LINE
  8
1
  6
CONTINUOUS
 62
     2
  5
35B
 10
103.521583
 20
80.480667
 30
0.0
 11
103.521583
 21
69.480667
 31
0.0
  0
LINE
  8
1
  6
DASHED
 62
     2
  5
35C
 10
103.521583
 20
85.480667
 30
0.0
 11
103.521583
 21
80.480667
 31
0.0
  0
LINE
  8
1
  6
CONTINUOUS
 62
     2
  5
35D
 10
103.521583
 20
85.480667
 30
0.0
 11
103.521583
 21
105.980667
 31
0.0
  0
LINE
  8
1
  6
CONTINUOUS
 62
     2
  5
35E
 10
105.771583
 20
84.980667
 30
0.0
 11
105.771583
 21
80.980667
 31
0.0
  0
LINE
  8
1
  6
CONTINUOUS
 62
     2
  5
35F
 10
102.521583
 20
80.480667
 30
0.0
 11
105.271583
 21
80.480667
 31
0.0
  0
LINE
  8
1
  6
CONTINUOUS
 62
     2
  5
360
 10
102.521583
 20
85.480667
 30
0.0
 11
105.271583
 21
85.480667
 31
0.0
  0
ARC
  8
1
  6
CONTINUOUS
 62
     2
  5
361
 10
105.271583
 20
84.980667
 30
0.0
 40
0.5
 50
0.0
 51
90.0
210
0.0
220
0.0
230
1.0
  0
ARC
  8
1
  6
CONTINUOUS
 62
     2
  5
362
 10
105.271583
 20
80.980667
 30
0.0
 40
0.5
 50
270.0
 51
0.0
210
0.0
220
0.0
230
1.0
  0
LINE
  8
1
  6
CONTINUOUS
 62
     2
  5
363
 10
105.771583
 20
82.980667
 30
0.0
 11
107.271583
 21
82.980667
 31
0.0
  0
LINE
  8
1
  6
CONTINUOUS
 62
     2
  5
364
 10
105.771583
 20
84.480667
 30
0.0
 11
107.271583
 21
84.480667
 31
0.0
  0
LINE
  8
1
  6
CONTINUOUS
 62
     2
  5
365
 10
105.771583
 20
81.480667
 30
0.0
 11
107.271583
 21
81.480667
 31
0.0
  0
LINE
  8
1
  6
CONTINUOUS
 62
     2
  5
366
 10
105.771583
 20
83.730667
 30
0.0
 11
108.521583
 21
83.730667
 31
0.0
  0
LINE
  8
1
  6
CONTINUOUS
 62
     2
  5
367
 10
105.771583
 20
82.230667
 30
0.0
 11
108.521583
 21
82.230667
 31
0.0
  0
LINE
  8
1
  6
CONTINUOUS
 62
     2
  5
368
 10
107.271583
 20
84.480667
 30
0.0
 11
107.271583
 21
81.480667
 31
0.0
  0
LINE
  8
1
  6
CONTINUOUS
 62
     2
  5
369
 10
108.771583
 20
83.480667
 30
0.0
 11
108.771583
 21
82.480667
 31
0.0
  0
ARC
  8
1
  6
CONTINUOUS
 62
     2
  5
36A
 10
108.521583
 20
83.480667
 30
0.0
 40
0.25
 50
0.0
 51
90.0
210
0.0
220
0.0
230
1.0
  0
ARC
  8
1
  6
CONTINUOUS
 62
     2
  5
36B
 10
108.521583
 20
82.480667
 30
0.0
 40
0.25
 50
270.0
 51
0.0
210
0.0
220
0.0
230
1.0
  0
LINE
  8
1
  6
CONTINUOUS
 62
     2
  5
36C
 10
107.771583
 20
83.730667
 30
0.0
 11
107.771583
 21
82.230667
 31
0.0
  0
LINE
  8
1
  6
CONTINUOUS
 62
     2
  5
36D
 10
108.271583
 20
83.230667
 30
0.0
 11
108.271583
 21
82.730667
 31
0.0
  0
LINE
  8
1
  6
HIDDEN
 62
     2
  5
36E
 10
105.771583
 20
83.730667
 30
0.0
 11
103.521583
 21
83.730667
 31
0.0
  0
LINE
  8
1
  6
HIDDEN
 62
     2
  5
36F
 10
105.771583
 20
82.230667
 30
0.0
 11
103.521583
 21
82.230667
 31
0.0
  0
LINE
  8
1
  6
CONTINUOUS
 62
     2
  5
370
 10
89.771583
 20
89.855667
 30
0.0
 11
88.521583
 21
89.855667
 31
0.0
  0
LINE
  8
1
  6
CONTINUOUS
 62
     2
  5
371
 10
89.771583
 20
89.105667
 30
0.0
 11
88.521583
 21
89.105667
 31
0.0
  0
LINE
  8
1
  6
CONTINUOUS
 62
     2
  5
372
 10
89.771583
 20
89.855667
 30
0.0
 11
89.771583
 21
89.105667
 31
0.0
  0
LINE
  8
1
  6
CONTINUOUS
 62
     2
  5
373
 10
89.146583
 20
90.355667
 30
0.0
 11
89.146583
 21
88.605667
 31
0.0
  0
LINE
  8
1
  6
CONTINUOUS
 62
     2
  5
374
 10
89.146583
 20
90.355667
 30
0.0
 11
88.521583
 21
90.355667
 31
0.0
  0
LINE
  8
1
  6
CONTINUOUS
 62
     2
  5
375
 10
89.146583
 20
88.605667
 30
0.0
 11
88.521583
 21
88.605667
 31
0.0
  0
LINE
  8
1
  6
HIDDEN
 62
     2
  5
376
 10
88.521583
 20
89.855667
 30
0.0
 11
86.021583
 21
89.855667
 31
0.0
  0
LINE
  8
1
  6
HIDDEN
 62
     2
  5
377
 10
88.521583
 20
89.105667
 30
0.0
 11
86.021583
 21
89.105667
 31
0.0
  0
POLYLINE
  8
1
  6
CONTINUOUS
 62
     2
  5
378
 66
     1
 10
0.0
 20
0.0
 30
0.0
210
0.0
220
0.0
230
1.0
  0
VERTEX
  8
1
  6
CONTINUOUS
 62
     2
  5
379
 10
86.021583
 20
89.480667
 30
0.0
 42
-0.018616
  0
VERTEX
  8
1
  6
CONTINUOUS
 62
     2
  5
37A
 10
85.924038
 20
89.484269
 30
0.0
 42
-0.019914
  0
VERTEX
  8
1
  6
CONTINUOUS
 62
     2
  5
37B
 10
85.830242
 20
89.494939
 30
0.0
 42
-0.022857
  0
VERTEX
  8
1
  6
CONTINUOUS
 62
     2
  5
37C
 10
85.743798
 20
89.512266
 30
0.0
 42
-0.028322
  0
VERTEX
  8
1
  6
CONTINUOUS
 62
     2
  5
37D
 10
85.66803
 20
89.535584
 30
0.0
 42
-0.038181
  0
VERTEX
  8
1
  6
CONTINUOUS
 62
     2
  5
37E
 10
85.605849
 20
89.563997
 30
0.0
 42
-0.056141
  0
VERTEX
  8
1
  6
CONTINUOUS
 62
     2
  5
37F
 10
85.559644
 20
89.596414
 30
0.0
 42
-0.087056
  0
VERTEX
  8
1
  6
CONTINUOUS
 62
     2
  5
380
 10
85.531191
 20
89.631587
 30
0.0
 42
-0.122532
  0
VERTEX
  8
1
  6
CONTINUOUS
 62
     2
  5
381
 10
85.521583
 20
89.668167
 30
0.0
 42
-0.122532
  0
VERTEX
  8
1
  6
CONTINUOUS
 62
     2
  5
382
 10
85.531191
 20
89.704746
 30
0.0
 42
-0.087056
  0
VERTEX
  8
1
  6
CONTINUOUS
 62
     2
  5
383
 10
85.559644
 20
89.73992
 30
0.0
 42
-0.056141
  0
VERTEX
  8
1
  6
CONTINUOUS
 62
     2
  5
384
 10
85.605849
 20
89.772336
 30
0.0
 42
-0.038181
  0
VERTEX
  8
1
  6
CONTINUOUS
 62
     2
  5
385
 10
85.66803
 20
89.800749
 30
0.0
 42
-0.028322
  0
VERTEX
  8
1
  6
CONTINUOUS
 62
     2
  5
386
 10
85.743798
 20
89.824067
 30
0.0
 42
-0.022857
  0
VERTEX
  8
1
  6
CONTINUOUS
 62
     2
  5
387
 10
85.830242
 20
89.841394
 30
0.0
 42
-0.019914
  0
VERTEX
  8
1
  6
CONTINUOUS
 62
     2
  5
388
 10
85.924038
 20
89.852064
 30
0.0
 42
-0.018616
  0
VERTEX
  8
1
  6
CONTINUOUS
 62
     2
  5
389
 10
86.021583
 20
89.855667
 30
0.0
 42
-0.018616
  0
SEQEND
  8
1
  6
CONTINUOUS
 62
     2
  5
38A
  0
POLYLINE
  8
1
  6
CONTINUOUS
 62
     2
  5
38B
 66
     1
 10
0.0
 20
0.0
 30
0.0
210
0.0
220
0.0
230
1.0
  0
VERTEX
  8
1
  6
CONTINUOUS
 62
     2
  5
38C
 10
86.021583
 20
89.105667
 30
0.0
 42
-0.018616
  0
VERTEX
  8
1
  6
CONTINUOUS
 62
     2
  5
38D
 10
85.924038
 20
89.109269
 30
0.0
 42
-0.019914
  0
VERTEX
  8
1
  6
CONTINUOUS
 62
     2
  5
38E
 10
85.830242
 20
89.119939
 30
0.0
 42
-0.022857
  0
VERTEX
  8
1
  6
CONTINUOUS
 62
     2
  5
38F
 10
85.743798
 20
89.137266
 30
0.0
 42
-0.028322
  0
VERTEX
  8
1
  6
CONTINUOUS
 62
     2
  5
390
 10
85.66803
 20
89.160584
 30
0.0
 42
-0.038181
  0
VERTEX
  8
1
  6
CONTINUOUS
 62
     2
  5
391
 10
85.605849
 20
89.188997
 30
0.0
 42
-0.056141
  0
VERTEX
  8
1
  6
CONTINUOUS
 62
     2
  5
392
 10
85.559644
 20
89.221414
 30
0.0
 42
-0.087056
  0
VERTEX
  8
1
  6
CONTINUOUS
 62
     2
  5
393
 10
85.531191
 20
89.256587
 30
0.0
 42
-0.122532
  0
VERTEX
  8
1
  6
CONTINUOUS
 62
     2
  5
394
 10
85.521583
 20
89.293167
 30
0.0
 42
-0.122532
  0
VERTEX
  8
1
  6
CONTINUOUS
 62
     2
  5
395
 10
85.531191
 20
89.329746
 30
0.0
 42
-0.087056
  0
VERTEX
  8
1
  6
CONTINUOUS
 62
     2
  5
396
 10
85.559644
 20
89.36492
 30
0.0
 42
-0.056141
  0
VERTEX
  8
1
  6
CONTINUOUS
 62
     2
  5
397
 10
85.605849
 20
89.397336
 30
0.0
 42
-0.038181
  0
VERTEX
  8
1
  6
CONTINUOUS
 62
     2
  5
398
 10
85.66803
 20
89.425749
 30
0.0
 42
-0.028322
  0
VERTEX
  8
1
  6
CONTINUOUS
 62
     2
  5
399
 10
85.743798
 20
89.449067
 30
0.0
 42
-0.022857
  0
VERTEX
  8
1
  6
CONTINUOUS
 62
     2
  5
39A
 10
85.830242
 20
89.466394
 30
0.0
 42
-0.019914
  0
VERTEX
  8
1
  6
CONTINUOUS
 62
     2
  5
39B
 10
85.924038
 20
89.477064
 30
0.0
 42
-0.018616
  0
VERTEX
  8
1
  6
CONTINUOUS
 62
     2
  5
39C
 10
86.021583
 20
89.480667
 30
0.0
 42
-0.018616
  0
SEQEND
  8
1
  6
CONTINUOUS
 62
     2
  5
39D
  0
LINE
  8
1
  6
CONTINUOUS
 62
     2
  5
39E
 10
102.521583
 20
105.980667
 30
0.0
 11
106.521583
 21
105.980667
 31
0.0
  0
LINE
  8
1
  6
CONTINUOUS
 62
     2
  5
39F
 10
102.521583
 20
69.480667
 30
0.0
 11
105.521583
 21
69.480667
 31
0.0
  0
LINE
  8
1
  6
CONTINUOUS
 62
     2
  5
3A0
 10
108.521583
 20
105.980667
 30
0.0
 11
112.021583
 21
105.980667
 31
0.0
  0
LINE
  8
1
  6
CONTINUOUS
 62
     2
  5
3A1
 10
107.521583
 20
69.480667
 30
0.0
 11
112.021583
 21
69.480667
 31
0.0
  0
LINE
  8
1
  6
CONTINUOUS
 62
     2
  5
3A2
 10
112.021583
 20
105.980667
 30
0.0
 11
112.021583
 21
102.480667
 31
0.0
  0
LINE
  8
1
  6
CONTINUOUS
 62
     2
  5
3A3
 10
112.021583
 20
69.480667
 30
0.0
 11
112.021583
 21
77.480667
 31
0.0
  0
LINE
  8
1
  6
CONTINUOUS
 62
     2
  5
3A4
 10
112.021583
 20
100.480667
 30
0.0
 11
112.021583
 21
79.480667
 31
0.0
  0
LINE
  8
1
  6
CONTINUOUS
 62
     2
  5
3A5
 10
107.021583
 20
106.980667
 30
0.0
 11
108.021583
 21
104.980667
 31
0.0
  0
LINE
  8
1
  6
CONTINUOUS
 62
     2
  5
3A6
 10
113.021583
 20
101.980667
 30
0.0
 11
111.021583
 21
100.980667
 31
0.0
  0
LINE
  8
1
  6
CONTINUOUS
 62
     2
  5
3A7
 10
107.021583
 20
106.980667
 30
0.0
 11
106.521583
 21
105.980667
 31
0.0
  0
LINE
  8
1
  6
CONTINUOUS
 62
     2
  5
3A8
 10
108.521583
 20
105.980667
 30
0.0
 11
108.021583
 21
104.980667
 31
0.0
  0
LINE
  8
1
  6
CONTINUOUS
 62
     2
  5
3A9
 10
113.021583
 20
101.980667
 30
0.0
 11
112.021583
 21
102.480667
 31
0.0
  0
LINE
  8
1
  6
CONTINUOUS
 62
     2
  5
3AA
 10
111.021583
 20
100.980667
 30
0.0
 11
112.021583
 21
100.480667
 31
0.0
  0
LINE
  8
1
  6
CONTINUOUS
 62
     2
  5
3AB
 10
113.021583
 20
78.980667
 30
0.0
 11
111.021583
 21
77.980667
 31
0.0
  0
LINE
  8
1
  6
CONTINUOUS
 62
     2
  5
3AC
 10
106.021583
 20
70.480667
 30
0.0
 11
107.021583
 21
68.480667
 31
0.0
  0
LINE
  8
1
  6
CONTINUOUS
 62
     2
  5
3AD
 10
106.021583
 20
70.480667
 30
0.0
 11
105.521583
 21
69.480667
 31
0.0
  0
LINE
  8
1
  6
CONTINUOUS
 62
     2
  5
3AE
 10
107.021583
 20
68.480667
 30
0.0
 11
107.521583
 21
69.480667
 31
0.0
  0
LINE
  8
1
  6
CONTINUOUS
 62
     2
  5
3AF
 10
112.021583
 20
79.480667
 30
0.0
 11
113.021583
 21
78.980667
 31
0.0
  0
LINE
  8
1
  6
CONTINUOUS
 62
     2
  5
3B0
 10
111.021583
 20
77.980667
 30
0.0
 11
112.021583
 21
77.480667
 31
0.0
  0
LINE
  8
1
  6
CONTINUOUS
 62
     2
  5
3B1
 10
85.021583
 20
107.230667
 30
0.0
 11
86.021583
 21
107.230667
 31
0.0
  0
LINE
  8
1
  6
CONTINUOUS
 62
     2
  5
3B2
 10
87.271583
 20
107.230667
 30
0.0
 11
88.271583
 21
107.230667
 31
0.0
  0
LINE
  8
1
  6
CONTINUOUS
 62
     2
  5
3B3
 10
85.021583
 20
73.230667
 30
0.0
 11
86.021583
 21
73.230667
 31
0.0
  0
LINE
  8
1
  6
CONTINUOUS
 62
     2
  5
3B4
 10
87.271583
 20
73.230667
 30
0.0
 11
88.271583
 21
73.230667
 31
0.0
  0
LINE
  8
1
  6
CONTINUOUS
 62
     2
  5
3B5
 10
86.021583
 20
107.230667
 30
0.0
 11
86.521583
 21
107.230667
 31
0.0
  0
LINE
  8
1
  6
CONTINUOUS
 62
     2
  5
3B6
 10
86.521583
 20
107.230667
 30
0.0
 11
86.646583
 21
107.980667
 31
0.0
  0
LINE
  8
1
  6
CONTINUOUS
 62
     2
  5
3B7
 10
86.646583
 20
107.980667
 30
0.0
 11
86.646583
 21
106.480667
 31
0.0
  0
LINE
  8
1
  6
CONTINUOUS
 62
     2
  5
3B8
 10
86.646583
 20
106.480667
 30
0.0
 11
86.771583
 21
107.230667
 31
0.0
  0
LINE
  8
1
  6
CONTINUOUS
 62
     2
  5
3B9
 10
86.771583
 20
107.230667
 30
0.0
 11
87.271583
 21
107.230667
 31
0.0
  0
LINE
  8
1
  6
CONTINUOUS
 62
     2
  5
3BA
 10
87.271583
 20
73.230667
 30
0.0
 11
86.771583
 21
73.230667
 31
0.0
  0
LINE
  8
1
  6
CONTINUOUS
 62
     2
  5
3BB
 10
86.646583
 20
73.980667
 30
0.0
 11
86.646583
 21
72.480667
 31
0.0
  0
LINE
  8
1
  6
CONTINUOUS
 62
     2
  5
3BC
 10
86.646583
 20
72.480667
 30
0.0
 11
86.771583
 21
73.230667
 31
0.0
  0
LINE
  8
1
  6
CONTINUOUS
 62
     2
  5
3BD
 10
86.521583
 20
73.230667
 30
0.0
 11
86.646583
 21
73.980667
 31
0.0
  0
LINE
  8
1
  6
CONTINUOUS
 62
     2
  5
3BE
 10
86.521583
 20
73.230667
 30
0.0
 11
86.021583
 21
73.230667
 31
0.0
  0
LINE
  8
1
  6
CONTINUOUS
 62
     2
  5
3BF
 10
86.021583
 20
73.230667
 30
0.0
 11
86.021583
 21
107.230667
 31
0.0
  0
LINE
  8
1
  6
CONTINUOUS
 62
     2
  5
3C0
 10
86.021583
 20
106.599167
 30
0.0
 11
86.646583
 21
107.224167
 31
0.0
  0
LINE
  8
1
  6
CONTINUOUS
 62
     2
  5
3C1
 10
86.021583
 20
105.185
 30
0.0
 11
87.271583
 21
106.435
 31
0.0
  0
LINE
  8
1
  6
CONTINUOUS
 62
     2
  5
3C2
 10
86.021583
 20
103.77075
 30
0.0
 11
87.271583
 21
105.02075
 31
0.0
  0
LINE
  8
1
  6
CONTINUOUS
 62
     2
  5
3C3
 10
86.021583
 20
102.3565
 30
0.0
 11
87.271583
 21
103.6065
 31
0.0
  0
LINE
  8
1
  6
CONTINUOUS
 62
     2
  5
3C4
 10
86.021583
 20
100.942333
 30
0.0
 11
87.271583
 21
102.192333
 31
0.0
  0
LINE
  8
1
  6
CONTINUOUS
 62
     2
  5
3C5
 10
86.021583
 20
99.528083
 30
0.0
 11
87.271583
 21
100.778083
 31
0.0
  0
LINE
  8
1
  6
CONTINUOUS
 62
     2
  5
3C6
 10
86.021583
 20
98.113917
 30
0.0
 11
87.271583
 21
99.363917
 31
0.0
  0
LINE
  8
1
  6
CONTINUOUS
 62
     2
  5
3C7
 10
86.021583
 20
96.699667
 30
0.0
 11
87.271583
 21
97.949667
 31
0.0
  0
LINE
  8
1
  6
CONTINUOUS
 62
     2
  5
3C8
 10
86.021583
 20
95.2855
 30
0.0
 11
87.271583
 21
96.5355
 31
0.0
  0
LINE
  8
1
  6
CONTINUOUS
 62
     2
  5
3C9
 10
86.021583
 20
93.87125
 30
0.0
 11
87.271583
 21
95.12125
 31
0.0
  0
LINE
  8
1
  6
CONTINUOUS
 62
     2
  5
3CA
 10
86.021583
 20
92.457083
 30
0.0
 11
87.271583
 21
93.707083
 31
0.0
  0
LINE
  8
1
  6
CONTINUOUS
 62
     2
  5
3CB
 10
86.021583
 20
91.042833
 30
0.0
 11
87.271583
 21
92.292833
 31
0.0
  0
LINE
  8
1
  6
CONTINUOUS
 62
     2
  5
3CC
 10
86.021583
 20
86.800167
 30
0.0
 11
87.271583
 21
88.050167
 31
0.0
  0
LINE
  8
1
  6
CONTINUOUS
 62
     2
  5
3CD
 10
86.021583
 20
85.386
 30
0.0
 11
87.271583
 21
86.636
 31
0.0
  0
LINE
  8
1
  6
CONTINUOUS
 62
     2
  5
3CE
 10
86.021583
 20
83.97175
 30
0.0
 11
87.271583
 21
85.22175
 31
0.0
  0
LINE
  8
1
  6
CONTINUOUS
 62
     2
  5
3CF
 10
86.021583
 20
82.557583
 30
0.0
 11
87.271583
 21
83.807583
 31
0.0
  0
LINE
  8
1
  6
CONTINUOUS
 62
     2
  5
3D0
 10
86.021583
 20
81.143333
 30
0.0
 11
87.271583
 21
82.393333
 31
0.0
  0
LINE
  8
1
  6
CONTINUOUS
 62
     2
  5
3D1
 10
86.021583
 20
79.729083
 30
0.0
 11
87.271583
 21
80.979083
 31
0.0
  0
LINE
  8
1
  6
CONTINUOUS
 62
     2
  5
3D2
 10
86.021583
 20
78.314917
 30
0.0
 11
87.271583
 21
79.564917
 31
0.0
  0
LINE
  8
1
  6
CONTINUOUS
 62
     2
  5
3D3
 10
86.021583
 20
76.900667
 30
0.0
 11
87.271583
 21
78.150667
 31
0.0
  0
LINE
  8
1
  6
CONTINUOUS
 62
     2
  5
3D4
 10
86.021583
 20
75.4865
 30
0.0
 11
87.271583
 21
76.7365
 31
0.0
  0
LINE
  8
1
  6
CONTINUOUS
 62
     2
  5
3D5
 10
86.021583
 20
74.07225
 30
0.0
 11
87.271583
 21
75.32225
 31
0.0
  0
LINE
  8
1
  6
CONTINUOUS
 62
     2
  5
3D6
 10
86.646583
 20
73.283083
 30
0.0
 11
87.271583
 21
73.908083
 31
0.0
  0
LINE
  8
1
  6
CONTINUOUS
 62
     2
  5
3D7
 10
87.271583
 20
107.230667
 30
0.0
 11
87.271583
 21
92.480667
 31
0.0
  0
LINE
  8
1
  6
CONTINUOUS
 62
     2
  5
3D8
 10
87.271583
 20
85.230667
 30
0.0
 11
87.271583
 21
73.230667
 31
0.0
  0
LINE
  8
1
  6
CONTINUOUS
 62
     2
  5
3D9
 10
87.271583
 20
92.480667
 30
0.0
 11
88.521583
 21
92.480667
 31
0.0
  0
LINE
  8
1
  6
CONTINUOUS
 62
     2
  5
3DA
 10
88.521583
 20
92.480667
 30
0.0
 11
88.521583
 21
86.480667
 31
0.0
  0
LINE
  8
1
  6
CONTINUOUS
 62
     2
  5
3DB
 10
88.521583
 20
86.480667
 30
0.0
 11
102.521583
 21
86.480667
 31
0.0
  0
LINE
  8
1
  6
CONTINUOUS
 62
     2
  5
3DC
 10
102.521583
 20
86.480667
 30
0.0
 11
102.521583
 21
80.480667
 31
0.0
  0
LINE
  8
1
  6
CONTINUOUS
 62
     2
  5
3DD
 10
102.521583
 20
80.480667
 30
0.0
 11
98.521583
 21
80.480667
 31
0.0
  0
LINE
  8
1
  6
CONTINUOUS
 62
     2
  5
3DE
 10
98.521583
 20
80.480667
 30
0.0
 11
98.521583
 21
85.230667
 31
0.0
  0
LINE
  8
1
  6
CONTINUOUS
 62
     2
  5
3DF
 10
98.521583
 20
85.230667
 30
0.0
 11
87.271583
 21
85.230667
 31
0.0
  0
LINE
  8
1
  6
CONTINUOUS
 62
     2
  5
3E0
 10
87.271583
 20
85.230667
 30
0.0
 11
87.271583
 21
92.480667
 31
0.0
  0
LINE
  8
1
  6
CONTINUOUS
 62
     2
  5
3E1
 10
99.521583
 20
81.480667
 30
0.0
 11
99.521583
 21
85.230667
 31
0.0
  0
LINE
  8
1
  6
CONTINUOUS
 62
     2
  5
3E2
 10
99.521583
 20
85.230667
 30
0.0
 11
101.521583
 21
85.230667
 31
0.0
  0
LINE
  8
1
  6
CONTINUOUS
 62
     2
  5
3E3
 10
101.521583
 20
85.230667
 30
0.0
 11
101.521583
 21
81.480667
 31
0.0
  0
LINE
  8
1
  6
CONTINUOUS
 62
     2
  5
3E4
 10
101.521583
 20
84.230667
 30
0.0
 11
102.521583
 21
84.230667
 31
0.0
  0
LINE
  8
1
  6
CONTINUOUS
 62
     2
  5
3E5
 10
102.521583
 20
86.480667
 30
0.0
 11
102.521583
 21
80.480667
 31
0.0
  0
LINE
  8
1
  6
CONTINUOUS
 62
     2
  5
3E6
 10
102.521583
 20
82.480667
 30
0.0
 11
101.521583
 21
82.480667
 31
0.0
  0
LINE
  8
1
  6
CONTINUOUS
 62
     2
  5
3E7
 10
101.521583
 20
81.480667
 30
0.0
 11
99.521583
 21
81.480667
 31
0.0
  0
LINE
  8
1
  6
CONTINUOUS
 62
     2
  5
3E8
 10
87.94975
 20
85.230667
 30
0.0
 11
87.271583
 21
85.908833
 31
0.0
  0
LINE
  8
1
  6
CONTINUOUS
 62
     2
  5
3E9
 10
89.363917
 20
85.230667
 30
0.0
 11
87.271583
 21
87.323
 31
0.0
  0
LINE
  8
1
  6
CONTINUOUS
 62
     2
  5
3EA
 10
90.778167
 20
85.230667
 30
0.0
 11
89.528167
 21
86.480667
 31
0.0
  0
LINE
  8
1
  6
CONTINUOUS
 62
     2
  5
3EB
 10
88.521583
 20
87.48725
 30
0.0
 11
87.271583
 21
88.73725
 31
0.0
  0
LINE
  8
1
  6
CONTINUOUS
 62
     2
  5
3EC
 10
92.192417
 20
85.230667
 30
0.0
 11
90.942417
 21
86.480667
 31
0.0
  0
LINE
  8
1
  6
CONTINUOUS
 62
     2
  5
3ED
 10
93.606583
 20
85.230667
 30
0.0
 11
92.356583
 21
86.480667
 31
0.0
  0
LINE
  8
1
  6
CONTINUOUS
 62
     2
  5
3EE
 10
88.521583
 20
90.315667
 30
0.0
 11
87.271583
 21
91.565667
 31
0.0
  0
LINE
  8
1
  6
CONTINUOUS
 62
     2
  5
3EF
 10
99.770833
 20
80.480667
 30
0.0
 11
98.521583
 21
81.729917
 31
0.0
  0
LINE
  8
1
  6
CONTINUOUS
 62
     2
  5
3F0
 10
95.020833
 20
85.230667
 30
0.0
 11
93.770833
 21
86.480667
 31
0.0
  0
LINE
  8
1
  6
CONTINUOUS
 62
     2
  5
3F1
 10
88.521583
 20
91.729917
 30
0.0
 11
87.770833
 21
92.480667
 31
0.0
  0
LINE
  8
1
  6
CONTINUOUS
 62
     2
  5
3F2
 10
101.185
 20
80.480667
 30
0.0
 11
100.185
 21
81.480667
 31
0.0
  0
LINE
  8
1
  6
CONTINUOUS
 62
     2
  5
3F3
 10
99.521583
 20
82.144083
 30
0.0
 11
98.521583
 21
83.144083
 31
0.0
  0
LINE
  8
1
  6
CONTINUOUS
 62
     2
  5
3F4
 10
96.435
 20
85.230667
 30
0.0
 11
95.185
 21
86.480667
 31
0.0
  0
POINT
  8
1
  6
CONTINUOUS
 62
     2
  5
3F5
 10
102.521583
 20
80.558333
 30
0.0
  0
POINT
  8
1
  6
CONTINUOUS
 62
     2
  5
3F6
 10
102.521583
 20
80.558333
 30
0.0
  0
LINE
  8
1
  6
CONTINUOUS
 62
     2
  5
3F7
 10
102.521583
 20
80.558333
 30
0.0
 11
101.521583
 21
81.558333
 31
0.0
  0
LINE
  8
1
  6
CONTINUOUS
 62
     2
  5
3F8
 10
99.521583
 20
83.558333
 30
0.0
 11
98.521583
 21
84.558333
 31
0.0
  0
LINE
  8
1
  6
CONTINUOUS
 62
     2
  5
3F9
 10
97.84925
 20
85.230667
 30
0.0
 11
96.59925
 21
86.480667
 31
0.0
  0
POINT
  8
1
  6
CONTINUOUS
 62
     2
  5
3FA
 10
102.521583
 20
81.9725
 30
0.0
  0
POINT
  8
1
  6
CONTINUOUS
 62
     2
  5
3FB
 10
102.521583
 20
81.9725
 30
0.0
  0
LINE
  8
1
  6
CONTINUOUS
 62
     2
  5
3FC
 10
102.521583
 20
81.9725
 30
0.0
 11
102.013417
 21
82.480667
 31
0.0
  0
LINE
  8
1
  6
CONTINUOUS
 62
     2
  5
3FD
 10
99.521583
 20
84.9725
 30
0.0
 11
98.013417
 21
86.480667
 31
0.0
  0
LINE
  8
1
  6
CONTINUOUS
 62
     2
  5
3FE
 10
101.677667
 20
84.230667
 30
0.0
 11
101.521583
 21
84.38675
 31
0.0
  0
LINE
  8
1
  6
CONTINUOUS
 62
     2
  5
3FF
 10
100.677667
 20
85.230667
 30
0.0
 11
99.427667
 21
86.480667
 31
0.0
  0
POINT
  8
1
  6
CONTINUOUS
 62
     2
  5
400
 10
102.521583
 20
84.801
 30
0.0
  0
POINT
  8
1
  6
CONTINUOUS
 62
     2
  5
401
 10
102.521583
 20
84.801
 30
0.0
  0
LINE
  8
1
  6
CONTINUOUS
 62
     2
  5
402
 10
102.521583
 20
84.801
 30
0.0
 11
100.841917
 21
86.480667
 31
0.0
  0
POINT
  8
1
  6
CONTINUOUS
 62
     2
  5
403
 10
102.521583
 20
86.215167
 30
0.0
  0
POINT
  8
1
  6
CONTINUOUS
 62
     2
  5
404
 10
102.521583
 20
86.215167
 30
0.0
  0
LINE
  8
1
  6
CONTINUOUS
 62
     2
  5
405
 10
102.521583
 20
86.215167
 30
0.0
 11
102.256083
 21
86.480667
 31
0.0
  0
LINE
  8
1
  6
CONTINUOUS
 62
     7
  5
406
 10
92.66375
 20
85.230667
 30
0.0
 11
83.464667
 21
76.107167
 31
0.0
  0
LINE
  8
1
  6
CONTINUOUS
 62
     7
  5
407
 10
83.464667
 20
76.107167
 30
0.0
 11
79.968917
 21
76.107167
 31
0.0
  0
LINE
  8
1
  6
CONTINUOUS
 62
     7
  5
408
 10
105.452167
 20
85.446917
 30
0.0
 11
114.53775
 21
93.12525
 31
0.0
  0
LINE
  8
1
  6
CONTINUOUS
 62
     7
  5
409
 10
114.53775
 20
93.12525
 30
0.0
 11
117.800417
 21
93.12525
 31
0.0
  0
INSERT
  8
1
  6
CONTINUOUS
 62
     1
  5
40A
  2
LDR
 10
92.66375
 20
85.230667
 30
0.0
 41
240.0
 42
240.0
 50
44.763648
210
0.0
220
0.0
230
1.0
  0
INSERT
  8
1
  6
CONTINUOUS
 62
     1
  5
40B
  2
LDR
 10
92.66375
 20
85.230667
 30
0.0
 41
240.0
 42
240.0
 50
44.763648
210
0.0
220
0.0
230
1.0
  0
INSERT
  8
1
  6
CONTINUOUS
 62
     1
  5
40C
  2
LDR
 10
105.452167
 20
85.446917
 30
0.0
 41
239.999998
 42
239.999998
 50
220.201546
210
0.0
220
0.0
230
1.0
  0
TEXT
  8
1
  6
CONTINUOUS
 62
     7
  5
40D
 10
118.655
 20
91.94625
 30
0.0
 40
2.5
  1
FOR POST CLIP
  7
MONOTXT
 11
118.655
 21
94.44625
 31
0.0
210
0.0
220
0.0
230
1.0
 73
     3
  0
TEXT
  8
1
  6
CONTINUOUS
 62
     7
  5
40E
 10
118.655
 20
87.44625
 30
0.0
 40
2.5
  1
DETAILS SEE
  7
MONOTXT
 11
118.655
 21
89.94625
 31
0.0
210
0.0
220
0.0
230
1.0
 73
     3
  0
TEXT
  8
1
  6
CONTINUOUS
 62
     7
  5
40F
 10
118.655
 20
82.94625
 30
0.0
 40
2.5
  1
TE7-1
  7
MONOTXT
 11
118.655
 21
85.44625
 31
0.0
210
0.0
220
0.0
230
1.0
 73
     3
  0
TEXT
  8
1
  6
CONTINUOUS
 62
     7
  5
410
 10
52.307
 20
74.70175
 30
0.0
 40
2.5
  1
EXTRUDED RIB
  7
MONOTXT
 72
     4
 11
65.840417
 21
75.95175
 31
0.0
210
0.0
220
0.0
230
1.0
  0
TEXT
  8
1
  6
CONTINUOUS
 62
     7
  5
411
 10
84.572667
 20
57.9195
 30
0.0
 40
3.5
  1
ELEVATION
  7
MONOTXT
 72
     4
 11
98.3935
 21
59.6695
 31
0.0
210
0.0
220
0.0
230
1.0
  0
TEXT
  8
1
  6
CONTINUOUS
 62
     7
  5
412
 10
68.450583
 20
51.4195
 30
0.0
 40
3.5
  1
TYPICAL WIDE FLANGE
  7
MONOTXT
 72
     4
 11
98.393417
 21
53.1695
 31
0.0
210
0.0
220
0.0
230
1.0
  0
TEXT
  8
1
  6
CONTINUOUS
 62
     7
  5
413
 10
97.19475
 20
44.9195
 30
0.0
 40
3.5
  1
&
  7
MONOTXT
 72
     4
 11
98.37975
 21
46.6695
 31
0.0
210
0.0
220
0.0
230
1.0
  0
TEXT
  8
1
  6
CONTINUOUS
 62
     7
  5
414
 10
79.281333
 20
38.4195
 30
0.0
 40
3.5
  1
RIB ASSEMBLY
  7
MONOTXT
 72
     4
 11
98.3935
 21
40.1695
 31
0.0
210
0.0
220
0.0
230
1.0
  0
LINE
  8
1
  6
CONTINUOUS
 62
     7
  5
415
 10
82.610167
 20
56.447
 30
0.0
 11
113.73925
 21
56.447
 31
0.0
  0
LINE
  8
1
  6
CONTINUOUS
 62
     7
  5
416
 10
67.384333
 20
49.919583
 30
0.0
 11
129.44525
 21
49.919583
 31
0.0
  0
LINE
  8
1
  6
CONTINUOUS
 62
     7
  5
417
 10
77.32775
 20
37.175417
 30
0.0
 11
118.027833
 21
37.175417
 31
0.0
  0
LINE
  8
1
  6
DASHED
 62
     6
  5
418
 10
465.008
 20
203.560417
 30
0.0
 11
465.008
 21
164.060417
 31
0.0
  0
LINE
  8
1
  6
DASHED
 62
     6
  5
419
 10
482.008
 20
198.560417
 30
0.0
 11
482.008
 21
164.060417
 31
0.0
  0
LINE
  8
1
  6
CONTINUOUS
 62
     6
  5
41A
 10
454.454917
 20
206.664167
 30
0.0
 11
486.325083
 21
197.29075
 31
0.0
  0
ARC
  8
1
  6
DASHED
 62
     6
  5
41B
 10
469.258
 20
170.671019
 30
0.0
 40
7.858916
 50
237.262767
 51
302.737233
210
0.0
220
0.0
230
1.0
  0
ARC
  8
1
  6
DASHED
 62
     6
  5
41C
 10
477.758
 20
170.671019
 30
0.0
 40
7.858916
 50
237.262767
 51
302.737233
210
0.0
220
0.0
230
1.0
  0
ARC
  8
1
  6
DASHED
 62
     6
  5
41D
 10
477.758
 20
157.433648
 30
0.0
 40
7.858916
 50
57.262767
 51
122.737233
210
0.0
220
0.0
230
1.0
  0
LINE
  8
1
  6
CONTINUOUS
 62
     6
  5
41E
 10
471.008
 20
201.060417
 30
0.0
 11
473.508
 21
201.060417
 31
0.0
  0
LINE
  8
1
  6
DASHED
 62
     6
  5
41F
 10
476.008
 20
165.09525
 30
0.0
 11
476.008
 21
198.060417
 31
0.0
  0
LINE
  8
1
  6
DASHED
 62
     6
  5
420
 10
471.008
 20
163.009417
 30
0.0
 11
471.008
 21
199.060417
 31
0.0
  0
LINE
  8
1
  6
CONTINUOUS
 62
     6
  5
421
 10
469.758
 20
213.560417
 30
0.0
 11
477.258
 21
213.560417
 31
0.0
  0
LINE
  8
1
  6
CONTINUOUS
 62
     6
  5
422
 10
469.008
 20
206.310417
 30
0.0
 11
478.008
 21
206.310417
 31
0.0
  0
LINE
  8
1
  6
CONTINUOUS
 62
     6
  5
423
 10
469.008
 20
204.810417
 30
0.0
 11
478.008
 21
204.810417
 31
0.0
  0
LINE
  8
1
  6
CONTINUOUS
 62
     6
  5
424
 10
469.008
 20
206.310417
 30
0.0
 11
469.008
 21
204.810417
 31
0.0
  0
LINE
  8
1
  6
CONTINUOUS
 62
     6
  5
425
 10
478.008
 20
206.310417
 30
0.0
 11
478.008
 21
204.810417
 31
0.0
  0
LINE
  8
1
  6
HIDDEN
 62
     6
  5
426
 10
473.008
 20
163.7645
 30
0.0
 11
473.008
 21
204.810417
 31
0.0
  0
LINE
  8
1
  6
HIDDEN
 62
     6
  5
427
 10
473.008
 20
206.310417
 30
0.0
 11
473.008
 21
213.560417
 31
0.0
  0
LINE
  8
1
  6
HIDDEN
 62
     6
  5
428
 10
474.008
 20
164.340167
 30
0.0
 11
474.008
 21
204.810417
 31
0.0
  0
LINE
  8
1
  6
HIDDEN
 62
     6
  5
429
 10
474.008
 20
206.310417
 30
0.0
 11
474.008
 21
213.560417
 31
0.0
  0
LINE
  8
1
  6
CONTINUOUS
 62
     6
  5
42A
 10
471.008
 20
201.060417
 30
0.0
 11
471.008
 21
204.810417
 31
0.0
  0
LINE
  8
1
  6
CONTINUOUS
 62
     6
  5
42B
 10
471.008
 20
206.310417
 30
0.0
 11
471.008
 21
213.560417
 31
0.0
  0
LINE
  8
1
  6
CONTINUOUS
 62
     6
  5
42C
 10
476.008
 20
200.325167
 30
0.0
 11
476.008
 21
204.810417
 31
0.0
  0
LINE
  8
1
  6
CONTINUOUS
 62
     6
  5
42D
 10
476.008
 20
206.310417
 30
0.0
 11
476.008
 21
213.560417
 31
0.0
  0
LINE
  8
1
  6
CONTINUOUS
 62
     7
  5
42E
 10
470.008
 20
201.060417
 30
0.0
 11
451.008
 21
201.060417
 31
0.0
  0
LINE
  8
1
  6
CONTINUOUS
 62
     7
  5
42F
 10
452.008
 20
201.060417
 30
0.0
 11
452.008
 21
180.560417
 31
0.0
  0
LINE
  8
1
  6
CONTINUOUS
 62
     7
  5
430
 10
457.508
 20
180.560417
 30
0.0
 11
451.008
 21
180.560417
 31
0.0
  0
LINE
  8
1
  6
CONTINUOUS
 62
     7
  5
431
 10
460.508
 20
180.560417
 30
0.0
 11
458.508
 21
180.560417
 31
0.0
  0
LINE
  8
1
  6
CONTINUOUS
 62
     7
  5
432
 10
469.508
 20
180.560417
 30
0.0
 11
461.508
 21
180.560417
 31
0.0
  0
LINE
  8
1
  6
CONTINUOUS
 62
     7
  5
433
 10
473.508
 20
180.560417
 30
0.0
 11
472.508
 21
180.560417
 31
0.0
  0
LINE
  8
1
  6
CONTINUOUS
 62
     7
  5
434
 10
471.508
 20
180.560417
 30
0.0
 11
470.508
 21
180.560417
 31
0.0
  0
LINE
  8
1
  6
CONTINUOUS
 62
     7
  5
435
 10
473.508
 20
180.560417
 30
0.0
 11
484.898667
 21
190.146583
 31
0.0
  0
LINE
  8
1
  6
CONTINUOUS
 62
     7
  5
436
 10
484.898667
 20
190.146583
 30
0.0
 11
497.898667
 21
190.146583
 31
0.0
  0
CIRCLE
  8
1
  6
CONTINUOUS
 62
     7
  5
437
 10
484.898667
 20
190.146583
 30
0.0
 40
1.0
210
0.0
220
0.0
230
1.0
  0
LINE
  8
1
  6
CONTINUOUS
 62
     7
  5
438
 10
492.898667
 20
190.146583
 30
0.0
 11
492.898667
 21
186.146583
 31
0.0
  0
LINE
  8
1
  6
CONTINUOUS
 62
     7
  5
439
 10
492.898667
 20
190.146583
 30
0.0
 11
496.781833
 21
187.191833
 31
0.0
  0
LINE
  8
1
  6
CONTINUOUS
 62
     7
  5
43A
 10
459.425083
 20
180.560417
 30
0.0
 11
457.168833
 21
175.200083
 31
0.0
  0
LINE
  8
1
  6
CONTINUOUS
 62
     7
  5
43B
 10
457.168833
 20
175.200083
 30
0.0
 11
454.481083
 21
175.200083
 31
0.0
  0
LINE
  8
1
  6
CONTINUOUS
 62
     7
  5
43C
 10
476.008
 20
210.568083
 30
0.0
 11
482.471333
 21
215.159417
 31
0.0
  0
LINE
  8
1
  6
CONTINUOUS
 62
     7
  5
43D
 10
482.471333
 20
215.159417
 30
0.0
 11
484.325
 21
215.159417
 31
0.0
  0
INSERT
  8
1
  6
CONTINUOUS
 62
     1
  5
43E
  2
LDR
 10
476.008
 20
210.568083
 30
0.0
 41
240.000001
 42
240.000001
 50
215.388698
210
0.0
220
0.0
230
1.0
  0
INSERT
  8
1
  6
CONTINUOUS
 62
     1
  5
43F
  2
LDR
 10
476.008
 20
210.568083
 30
0.0
 41
240.000001
 42
240.000001
 50
215.388698
210
0.0
220
0.0
230
1.0
  0
INSERT
  8
1
  6
CONTINUOUS
 62
     1
  5
440
  2
LDR
 10
452.008
 20
201.060417
 30
0.0
 41
240.0
 42
240.0
 50
90.0
210
0.0
220
0.0
230
1.0
  0
INSERT
  8
1
  6
CONTINUOUS
 62
     1
  5
441
  2
LDR
 10
452.008
 20
201.060417
 30
0.0
 41
240.0
 42
240.0
 50
90.0
210
0.0
220
0.0
230
1.0
  0
INSERT
  8
1
  6
CONTINUOUS
 62
     1
  5
442
  2
LDR
 10
452.008
 20
180.560417
 30
0.0
 41
240.0
 42
240.0
 50
270.0
210
0.0
220
0.0
230
1.0
  0
INSERT
  8
1
  6
CONTINUOUS
 62
     1
  5
443
  2
LDR
 10
452.008
 20
180.560417
 30
0.0
 41
240.0
 42
240.0
 50
270.0
210
0.0
220
0.0
230
1.0
  0
INSERT
  8
1
  6
CONTINUOUS
 62
     1
  5
444
  2
LDR
 10
459.425083
 20
180.560417
 30
0.0
 41
240.0
 42
240.0
 50
67.172996
210
0.0
220
0.0
230
1.0
  0
TEXT
  8
1
  6
CONTINUOUS
 62
     7
  5
445
 10
484.8555
 20
213.909417
 30
0.0
 40
2.5
  1
S BEAM POST
  7
MONOTXT
 72
     4
 11
498.329833
 21
215.159417
 31
0.0
210
0.0
220
0.0
230
1.0
  0
TEXT
  8
1
  6
CONTINUOUS
 62
     7
  5
446
 10
441.817917
 20
174.04275
 30
0.0
 40
2.5
  1
SPLICE
  7
MONOTXT
 72
     4
 11
447.910417
 21
175.29275
 31
0.0
210
0.0
220
0.0
230
1.0
  0
TEXT
  8
1
  6
CONTINUOUS
 62
     7
  5
447
 10
437.746417
 20
174.969917
 30
0.0
 40
2.5
  1
C
  7
MONOTXT
 72
     4
 11
438.642083
 21
176.219917
 31
0.0
210
0.0
220
0.0
230
1.0
  0
TEXT
  8
1
  6
CONTINUOUS
 62
     7
  5
448
 10
438.665083
 20
173.764667
 30
0.0
 40
2.5
  1
L
  7
MONOTXT
 72
     4
 11
439.383583
 21
175.014667
 31
0.0
210
0.0
220
0.0
230
1.0
  0
TEXT
  8
1
  6
CONTINUOUS
 62
     7
  5
449
 10
455.706417
 20
151.57475
 30
0.0
 40
4.0
  1
PERMISSIBLE
  7
MONOTXT
 72
     4
 11
474.052833
 21
153.57475
 31
0.0
210
0.0
220
0.0
230
1.0
  0
TEXT
  8
1
  6
CONTINUOUS
 62
     7
  5
44A
 10
454.194667
 20
144.57475
 30
0.0
 40
4.0
  1
SHOP SPLICE
  7
MONOTXT
 72
     4
 11
474.052833
 21
146.57475
 31
0.0
210
0.0
220
0.0
230
1.0
  0
LINE
  8
1
  6
CONTINUOUS
 62
     7
  5
44B
 10
454.57375
 20
150.353
 30
0.0
 11
493.659667
 21
150.353
 31
0.0
  0
LINE
  8
1
  6
CONTINUOUS
 62
     7
  5
44C
 10
453.090833
 20
143.121333
 30
0.0
 11
495.08875
 21
143.121333
 31
0.0
  0
POLYLINE
  8
1
  6
CONTINUOUS
 62
    30
  5
44D
 66
     1
 10
0.0
 20
0.0
 30
0.0
  0
VERTEX
  8
1
  6
CONTINUOUS
 62
    30
  5
44E
 10
571.843583
 20
189.119667
 30
0.0
  0
VERTEX
  8
1
  6
CONTINUOUS
 62
    30
  5
44F
 10
571.843583
 20
215.619667
 30
0.0
  0
VERTEX
  8
1
  6
CONTINUOUS
 62
    30
  5
450
 10
573.843583
 20
215.619667
 30
0.0
  0
VERTEX
  8
1
  6
CONTINUOUS
 62
    30
  5
451
 10
573.843583
 20
191.119667
 30
0.0
 42
0.414214
  0
VERTEX
  8
1
  6
CONTINUOUS
 62
    30
  5
452
 10
574.593583
 20
190.369667
 30
0.0
  0
VERTEX
  8
1
  6
CONTINUOUS
 62
    30
  5
453
 10
620.343583
 20
190.369667
 30
0.0
 42
-0.414214
  0
VERTEX
  8
1
  6
CONTINUOUS
 62
    30
  5
454
 10
621.343583
 20
189.369667
 30
0.0
  0
VERTEX
  8
1
  6
CONTINUOUS
 62
    30
  5
455
 10
621.343583
 20
184.869667
 30
0.0
  0
VERTEX
  8
1
  6
CONTINUOUS
 62
    30
  5
456
 10
617.343583
 20
184.869667
 30
0.0
  0
VERTEX
  8
1
  6
CONTINUOUS
 62
    30
  5
457
 10
617.343583
 20
188.369667
 30
0.0
  0
VERTEX
  8
1
  6
CONTINUOUS
 62
    30
  5
458
 10
611.093583
 20
188.369667
 30
0.0
 42
0.414214
  0
VERTEX
  8
1
  6
CONTINUOUS
 62
    30
  5
459
 10
610.343583
 20
187.619667
 30
0.0
  0
VERTEX
  8
1
  6
CONTINUOUS
 62
    30
  5
45A
 10
610.343583
 20
171.119667
 30
0.0
 42
0.414214
  0
VERTEX
  8
1
  6
CONTINUOUS
 62
    30
  5
45B
 10
611.093583
 20
170.369667
 30
0.0
  0
VERTEX
  8
1
  6
CONTINUOUS
 62
    30
  5
45C
 10
617.343583
 20
170.369667
 30
0.0
  0
VERTEX
  8
1
  6
CONTINUOUS
 62
    30
  5
45D
 10
617.343583
 20
173.869667
 30
0.0
  0
VERTEX
  8
1
  6
CONTINUOUS
 62
    30
  5
45E
 10
621.343583
 20
173.869667
 30
0.0
  0
VERTEX
  8
1
  6
CONTINUOUS
 62
    30
  5
45F
 10
621.343583
 20
168.869667
 30
0.0
 42
-0.414214
  0
VERTEX
  8
1
  6
CONTINUOUS
 62
    30
  5
460
 10
620.343583
 20
167.869667
 30
0.0
  0
VERTEX
  8
1
  6
CONTINUOUS
 62
    30
  5
461
 10
608.843583
 20
167.869667
 30
0.0
 42
-0.414214
  0
VERTEX
  8
1
  6
CONTINUOUS
 62
    30
  5
462
 10
607.843583
 20
168.869667
 30
0.0
  0
VERTEX
  8
1
  6
CONTINUOUS
 62
    30
  5
463
 10
607.843583
 20
187.619667
 30
0.0
 42
0.414214
  0
VERTEX
  8
1
  6
CONTINUOUS
 62
    30
  5
464
 10
607.093583
 20
188.369667
 30
0.0
  0
VERTEX
  8
1
  6
CONTINUOUS
 62
    30
  5
465
 10
572.593583
 20
188.369667
 30
0.0
 42
-0.414214
  0
VERTEX
  8
1
  6
CONTINUOUS
 62
    30
  5
466
 10
571.843583
 20
189.119667
 30
0.0
  0
SEQEND
  8
1
  6
CONTINUOUS
 62
    30
  5
467
  0
LINE
  8
1
  6
CONTINUOUS
 62
    30
  5
468
 10
571.843583
 20
211.912667
 30
0.0
 11
573.843583
 21
213.912667
 31
0.0
  0
LINE
  8
1
  6
CONTINUOUS
 62
    30
  5
469
 10
571.843583
 20
206.25575
 30
0.0
 11
573.843583
 21
208.25575
 31
0.0
  0
LINE
  8
1
  6
CONTINUOUS
 62
    30
  5
46A
 10
571.843583
 20
200.598917
 30
0.0
 11
573.843583
 21
202.598917
 31
0.0
  0
LINE
  8
1
  6
CONTINUOUS
 62
    30
  5
46B
 10
571.843583
 20
194.942083
 30
0.0
 11
573.843583
 21
196.942083
 31
0.0
  0
LINE
  8
1
  6
CONTINUOUS
 62
    30
  5
46C
 10
571.843583
 20
189.28525
 30
0.0
 11
573.843583
 21
191.28525
 31
0.0
  0
LINE
  8
1
  6
CONTINUOUS
 62
    30
  5
46D
 10
576.584917
 20
188.369667
 30
0.0
 11
578.584917
 21
190.369667
 31
0.0
  0
LINE
  8
1
  6
CONTINUOUS
 62
    30
  5
46E
 10
582.24175
 20
188.369667
 30
0.0
 11
584.24175
 21
190.369667
 31
0.0
  0
LINE
  8
1
  6
CONTINUOUS
 62
    30
  5
46F
 10
587.898583
 20
188.369667
 30
0.0
 11
589.898583
 21
190.369667
 31
0.0
  0
LINE
  8
1
  6
CONTINUOUS
 62
    30
  5
470
 10
593.555417
 20
188.369667
 30
0.0
 11
595.555417
 21
190.369667
 31
0.0
  0
LINE
  8
1
  6
CONTINUOUS
 62
    30
  5
471
 10
599.212333
 20
188.369667
 30
0.0
 11
601.212333
 21
190.369667
 31
0.0
  0
LINE
  8
1
  6
CONTINUOUS
 62
    30
  5
472
 10
604.869167
 20
188.369667
 30
0.0
 11
606.869167
 21
190.369667
 31
0.0
  0
LINE
  8
1
  6
CONTINUOUS
 62
    30
  5
473
 10
607.843583
 20
185.68725
 30
0.0
 11
612.526
 21
190.369667
 31
0.0
  0
LINE
  8
1
  6
CONTINUOUS
 62
    30
  5
474
 10
607.843583
 20
180.030333
 30
0.0
 11
610.343583
 21
182.530333
 31
0.0
  0
LINE
  8
1
  6
CONTINUOUS
 62
    30
  5
475
 10
616.182917
 20
188.369667
 30
0.0
 11
618.182917
 21
190.369667
 31
0.0
  0
LINE
  8
1
  6
CONTINUOUS
 62
    30
  5
476
 10
607.843583
 20
174.3735
 30
0.0
 11
610.343583
 21
176.8735
 31
0.0
  0
LINE
  8
1
  6
CONTINUOUS
 62
    30
  5
477
 10
618.33975
 20
184.869667
 30
0.0
 11
621.343583
 21
187.8735
 31
0.0
  0
LINE
  8
1
  6
CONTINUOUS
 62
    30
  5
478
 10
607.854917
 20
168.728
 30
0.0
 11
610.343583
 21
171.216667
 31
0.0
  0
LINE
  8
1
  6
CONTINUOUS
 62
    30
  5
479
 10
612.653417
 20
167.869667
 30
0.0
 11
615.153417
 21
170.369667
 31
0.0
  0
LINE
  8
1
  6
CONTINUOUS
 62
    30
  5
47A
 10
617.343583
 20
172.559833
 30
0.0
 11
618.653417
 21
173.869667
 31
0.0
  0
LINE
  8
1
  6
CONTINUOUS
 62
    30
  5
47B
 10
618.310333
 20
167.869667
 30
0.0
 11
621.343583
 21
170.902917
 31
0.0
  0
LINE
  8
1
  6
CONTINUOUS
 62
     7
  5
47C
 10
570.843583
 20
215.619667
 30
0.0
 11
559.843583
 21
215.619667
 31
0.0
  0
LINE
  8
1
  6
CONTINUOUS
 62
     7
  5
47D
 10
571.843583
 20
216.619667
 30
0.0
 11
571.843583
 21
227.619667
 31
0.0
  0
LINE
  8
1
  6
CONTINUOUS
 62
     7
  5
47E
 10
570.843583
 20
188.369667
 30
0.0
 11
559.843583
 21
188.369667
 31
0.0
  0
LINE
  8
1
  6
CONTINUOUS
 62
     7
  5
47F
 10
573.843583
 20
216.619667
 30
0.0
 11
573.843583
 21
220.619667
 31
0.0
  0
LINE
  8
1
  6
CONTINUOUS
 62
     7
  5
480
 10
621.343583
 20
191.369667
 30
0.0
 11
621.343583
 21
227.619667
 31
0.0
  0
LINE
  8
1
  6
CONTINUOUS
 62
     7
  5
481
 10
571.843583
 20
226.619667
 30
0.0
 11
621.343583
 21
226.619667
 31
0.0
  0
LINE
  8
1
  6
CONTINUOUS
 62
     7
  5
482
 10
573.843583
 20
219.619667
 30
0.0
 11
621.343583
 21
219.619667
 31
0.0
  0
LINE
  8
1
  6
CONTINUOUS
 62
     7
  5
483
 10
570.843583
 20
190.369667
 30
0.0
 11
566.593583
 21
190.369667
 31
0.0
  0
LINE
  8
1
  6
CONTINUOUS
 62
     7
  5
484
 10
560.843583
 20
215.619667
 30
0.0
 11
560.843583
 21
188.369667
 31
0.0
  0
LINE
  8
1
  6
CONTINUOUS
 62
     7
  5
485
 10
567.593583
 20
190.369667
 30
0.0
 11
567.593583
 21
215.619667
 31
0.0
  0
LINE
  8
1
  6
CONTINUOUS
 62
     7
  5
486
 10
622.343583
 20
188.369667
 30
0.0
 11
629.343583
 21
188.369667
 31
0.0
  0
LINE
  8
1
  6
CONTINUOUS
 62
     7
  5
487
 10
622.343583
 20
184.869667
 30
0.0
 11
636.343583
 21
184.869667
 31
0.0
  0
LINE
  8
1
  6
CONTINUOUS
 62
     7
  5
488
 10
622.343583
 20
173.869667
 30
0.0
 11
629.343583
 21
173.869667
 31
0.0
  0
LINE
  8
1
  6
CONTINUOUS
 62
     7
  5
489
 10
622.343583
 20
170.369667
 30
0.0
 11
629.343583
 21
170.369667
 31
0.0
  0
LINE
  8
1
  6
CONTINUOUS
 62
     7
  5
48A
 10
606.843583
 20
170.369667
 30
0.0
 11
601.093583
 21
170.369667
 31
0.0
  0
LINE
  8
1
  6
CONTINUOUS
 62
     7
  5
48B
 10
606.843583
 20
167.869667
 30
0.0
 11
591.843583
 21
167.869667
 31
0.0
  0
LINE
  8
1
  6
CONTINUOUS
 62
     7
  5
48C
 10
621.343583
 20
166.869667
 30
0.0
 11
621.343583
 21
155.869667
 31
0.0
  0
LINE
  8
1
  6
CONTINUOUS
 62
     7
  5
48D
 10
610.343583
 20
166.869667
 30
0.0
 11
610.343583
 21
162.619667
 31
0.0
  0
LINE
  8
1
  6
CONTINUOUS
 62
     7
  5
48E
 10
617.39925
 20
166.869667
 30
0.0
 11
617.39925
 21
162.619667
 31
0.0
  0
LINE
  8
1
  6
CONTINUOUS
 62
     7
  5
48F
 10
592.843583
 20
167.869667
 30
0.0
 11
592.843583
 21
188.369667
 31
0.0
  0
LINE
  8
1
  6
CONTINUOUS
 62
     7
  5
490
 10
602.093583
 20
170.369667
 30
0.0
 11
602.093583
 21
188.369667
 31
0.0
  0
LINE
  8
1
  6
CONTINUOUS
 62
     7
  5
491
 10
607.843583
 20
156.869667
 30
0.0
 11
621.343583
 21
156.869667
 31
0.0
  0
LINE
  8
1
  6
CONTINUOUS
 62
     7
  5
492
 10
628.343583
 20
173.869667
 30
0.0
 11
628.343583
 21
184.869667
 31
0.0
  0
LINE
  8
1
  6
CONTINUOUS
 62
     7
  5
493
 10
635.343583
 20
194.369667
 30
0.0
 11
635.343583
 21
190.369667
 31
0.0
  0
LINE
  8
1
  6
CONTINUOUS
 62
     7
  5
494
 10
635.343583
 20
184.869667
 30
0.0
 11
635.343583
 21
180.869667
 31
0.0
  0
LINE
  8
1
  6
CONTINUOUS
 62
     7
  5
495
 10
628.343583
 20
188.369667
 30
0.0
 11
628.343583
 21
199.320583
 31
0.0
  0
LINE
  8
1
  6
CONTINUOUS
 62
     7
  5
496
 10
622.343583
 20
190.369667
 30
0.0
 11
627.343583
 21
190.369667
 31
0.0
  0
LINE
  8
1
  6
CONTINUOUS
 62
     7
  5
497
 10
629.343583
 20
190.369667
 30
0.0
 11
636.343583
 21
190.369667
 31
0.0
  0
LINE
  8
1
  6
CONTINUOUS
 62
     7
  5
498
 10
628.343583
 20
170.369667
 30
0.0
 11
628.343583
 21
166.369667
 31
0.0
  0
INSERT
  8
1
  6
CONTINUOUS
 62
     1
  5
499
  2
LDR
 10
607.843583
 20
156.869667
 30
0.0
 41
240.0
 42
240.0
 50
180.0
210
0.0
220
0.0
230
1.0
  0
INSERT
  8
1
  6
CONTINUOUS
 62
     1
  5
49A
  2
LDR
 10
607.843583
 20
156.869667
 30
0.0
 41
240.0
 42
240.0
 50
180.0
210
0.0
220
0.0
230
1.0
  0
INSERT
  8
1
  6
CONTINUOUS
 62
     1
  5
49B
  2
LDR
 10
621.343583
 20
156.869667
 30
0.0
 41
240.0
 42
240.0
210
0.0
220
0.0
230
1.0
  0
INSERT
  8
1
  6
CONTINUOUS
 62
     1
  5
49C
  2
LDR
 10
621.343583
 20
156.869667
 30
0.0
 41
240.0
 42
240.0
210
0.0
220
0.0
230
1.0
  0
LINE
  8
1
  6
CONTINUOUS
 62
     7
  5
49D
 10
604.855167
 20
163.619667
 30
0.0
 11
610.343583
 21
163.619667
 31
0.0
  0
INSERT
  8
1
  6
CONTINUOUS
 62
     1
  5
49E
  2
LDR
 10
610.343583
 20
163.619667
 30
0.0
 41
240.0
 42
240.0
210
0.0
220
0.0
230
1.0
  0
LINE
  8
1
  6
CONTINUOUS
 62
     7
  5
49F
 10
607.843583
 20
166.869667
 30
0.0
 11
607.843583
 21
164.619667
 31
0.0
  0
LINE
  8
1
  6
CONTINUOUS
 62
     7
  5
4A0
 10
607.843583
 20
162.619667
 30
0.0
 11
607.843583
 21
155.869667
 31
0.0
  0
POLYLINE
  8
1
  6
CONTINUOUS
 62
     1
  5
4A1
 66
     1
 10
0.0
 20
0.0
 30
0.0
210
0.0
220
0.0
230
1.0
  0
VERTEX
  8
1
  6
CONTINUOUS
 62
     1
  5
4A2
 10
618.625567
 20
163.67904
 30
0.0
 42
-0.00564
  0
VERTEX
  8
1
  6
CONTINUOUS
 62
     1
  5
4A3
 10
618.298218
 20
163.6517
 30
0.0
 42
-0.005903
  0
VERTEX
  8
1
  6
CONTINUOUS
 62
     1
  5
4A4
 10
617.977634
 20
163.6323
 30
0.0
 42
-0.006628
  0
VERTEX
  8
1
  6
CONTINUOUS
 62
     1
  5
4A5
 10
617.674592
 20
163.621492
 30
0.0
 42
-0.008057
  0
VERTEX
  8
1
  6
CONTINUOUS
 62
     1
  5
4A6
 10
617.399277
 20
163.619638
 30
0.0
 42
-0.008057
  0
SEQEND
  8
1
  6
CONTINUOUS
 62
     1
  5
4A7
  0
POLYLINE
  8
1
  6
CONTINUOUS
 62
     1
  5
4A8
 66
     1
 10
0.0
 20
0.0
 30
0.0
210
0.0
220
0.0
230
1.0
  0
VERTEX
  8
1
  6
CONTINUOUS
 62
     1
  5
4A9
 10
619.1254
 20
163.8772
 30
0.0
 42
-0.259216
  0
VERTEX
  8
1
  6
CONTINUOUS
 62
     1
  5
4AA
 10
619.095457
 20
163.832031
 30
0.0
 42
-0.066569
  0
VERTEX
  8
1
  6
CONTINUOUS
 62
     1
  5
4AB
 10
618.999371
 20
163.782681
 30
0.0
 42
-0.026736
  0
VERTEX
  8
1
  6
CONTINUOUS
 62
     1
  5
4AC
 10
618.840762
 20
163.73101
 30
0.0
 42
-0.01494
  0
VERTEX
  8
1
  6
CONTINUOUS
 62
     1
  5
4AD
 10
618.625605
 20
163.678963
 30
0.0
 42
-0.01494
  0
SEQEND
  8
1
  6
CONTINUOUS
 62
     1
  5
4AE
  0
POLYLINE
  8
1
  6
CONTINUOUS
 62
     1
  5
4AF
 66
     1
 10
0.0
 20
0.0
 30
0.0
210
0.0
220
0.0
230
1.0
  0
VERTEX
  8
1
  6
CONTINUOUS
 62
     1
  5
4B0
 10
618.625567
 20
163.560293
 30
0.0
 42
0.00564
  0
VERTEX
  8
1
  6
CONTINUOUS
 62
     1
  5
4B1
 10
618.298218
 20
163.587633
 30
0.0
 42
0.005903
  0
VERTEX
  8
1
  6
CONTINUOUS
 62
     1
  5
4B2
 10
617.977634
 20
163.607033
 30
0.0
 42
0.006628
  0
VERTEX
  8
1
  6
CONTINUOUS
 62
     1
  5
4B3
 10
617.674592
 20
163.617842
 30
0.0
 42
0.008057
  0
VERTEX
  8
1
  6
CONTINUOUS
 62
     1
  5
4B4
 10
617.399277
 20
163.619695
 30
0.0
 42
0.008057
  0
SEQEND
  8
1
  6
CONTINUOUS
 62
     1
  5
4B5
  0
POLYLINE
  8
1
  6
CONTINUOUS
 62
     1
  5
4B6
 66
     1
 10
0.0
 20
0.0
 30
0.0
210
0.0
220
0.0
230
1.0
  0
VERTEX
  8
1
  6
CONTINUOUS
 62
     1
  5
4B7
 10
619.1254
 20
163.362133
 30
0.0
 42
0.259216
  0
VERTEX
  8
1
  6
CONTINUOUS
 62
     1
  5
4B8
 10
619.095457
 20
163.407302
 30
0.0
 42
0.066569
  0
VERTEX
  8
1
  6
CONTINUOUS
 62
     1
  5
4B9
 10
618.999371
 20
163.456652
 30
0.0
 42
0.026736
  0
VERTEX
  8
1
  6
CONTINUOUS
 62
     1
  5
4BA
 10
618.840762
 20
163.508324
 30
0.0
 42
0.01494
  0
VERTEX
  8
1
  6
CONTINUOUS
 62
     1
  5
4BB
 10
618.625605
 20
163.56037
 30
0.0
 42
0.01494
  0
SEQEND
  8
1
  6
CONTINUOUS
 62
     1
  5
4BC
  0
POLYLINE
  8
1
  6
CONTINUOUS
 62
     1
  5
4BD
 66
     1
 10
0.0
 20
0.0
 30
0.0
210
0.0
220
0.0
230
1.0
  0
VERTEX
  8
1
  6
CONTINUOUS
 62
     1
  5
4BE
 10
620.117266
 20
163.67904
 30
0.0
 42
0.00564
  0
VERTEX
  8
1
  6
CONTINUOUS
 62
     1
  5
4BF
 10
620.444615
 20
163.6517
 30
0.0
 42
0.005903
  0
VERTEX
  8
1
  6
CONTINUOUS
 62
     1
  5
4C0
 10
620.765199
 20
163.6323
 30
0.0
 42
0.006628
  0
VERTEX
  8
1
  6
CONTINUOUS
 62
     1
  5
4C1
 10
621.068242
 20
163.621492
 30
0.0
 42
0.008057
  0
VERTEX
  8
1
  6
CONTINUOUS
 62
     1
  5
4C2
 10
621.343556
 20
163.619638
 30
0.0
 42
0.008057
  0
SEQEND
  8
1
  6
CONTINUOUS
 62
     1
  5
4C3
  0
POLYLINE
  8
1
  6
CONTINUOUS
 62
     1
  5
4C4
 66
     1
 10
0.0
 20
0.0
 30
0.0
210
0.0
220
0.0
230
1.0
  0
VERTEX
  8
1
  6
CONTINUOUS
 62
     1
  5
4C5
 10
619.617433
 20
163.8772
 30
0.0
 42
0.259216
  0
VERTEX
  8
1
  6
CONTINUOUS
 62
     1
  5
4C6
 10
619.647376
 20
163.832031
 30
0.0
 42
0.066569
  0
VERTEX
  8
1
  6
CONTINUOUS
 62
     1
  5
4C7
 10
619.743462
 20
163.782681
 30
0.0
 42
0.026736
  0
VERTEX
  8
1
  6
CONTINUOUS
 62
     1
  5
4C8
 10
619.902071
 20
163.73101
 30
0.0
 42
0.01494
  0
VERTEX
  8
1
  6
CONTINUOUS
 62
     1
  5
4C9
 10
620.117229
 20
163.678963
 30
0.0
 42
0.01494
  0
SEQEND
  8
1
  6
CONTINUOUS
 62
     1
  5
4CA
  0
POLYLINE
  8
1
  6
CONTINUOUS
 62
     1
  5
4CB
 66
     1
 10
0.0
 20
0.0
 30
0.0
210
0.0
220
0.0
230
1.0
  0
VERTEX
  8
1
  6
CONTINUOUS
 62
     1
  5
4CC
 10
620.117266
 20
163.560293
 30
0.0
 42
-0.00564
  0
VERTEX
  8
1
  6
CONTINUOUS
 62
     1
  5
4CD
 10
620.444615
 20
163.587633
 30
0.0
 42
-0.005903
  0
VERTEX
  8
1
  6
CONTINUOUS
 62
     1
  5
4CE
 10
620.765199
 20
163.607033
 30
0.0
 42
-0.006628
  0
VERTEX
  8
1
  6
CONTINUOUS
 62
     1
  5
4CF
 10
621.068242
 20
163.617842
 30
0.0
 42
-0.008057
  0
VERTEX
  8
1
  6
CONTINUOUS
 62
     1
  5
4D0
 10
621.343556
 20
163.619695
 30
0.0
 42
-0.008057
  0
SEQEND
  8
1
  6
CONTINUOUS
 62
     1
  5
4D1
  0
POLYLINE
  8
1
  6
CONTINUOUS
 62
     1
  5
4D2
 66
     1
 10
0.0
 20
0.0
 30
0.0
210
0.0
220
0.0
230
1.0
  0
VERTEX
  8
1
  6
CONTINUOUS
 62
     1
  5
4D3
 10
619.617433
 20
163.362133
 30
0.0
 42
-0.259216
  0
VERTEX
  8
1
  6
CONTINUOUS
 62
     1
  5
4D4
 10
619.647376
 20
163.407302
 30
0.0
 42
-0.066569
  0
VERTEX
  8
1
  6
CONTINUOUS
 62
     1
  5
4D5
 10
619.743462
 20
163.456652
 30
0.0
 42
-0.026736
  0
VERTEX
  8
1
  6
CONTINUOUS
 62
     1
  5
4D6
 10
619.902071
 20
163.508324
 30
0.0
 42
-0.01494
  0
VERTEX
  8
1
  6
CONTINUOUS
 62
     1
  5
4D7
 10
620.117229
 20
163.56037
 30
0.0
 42
-0.01494
  0
SEQEND
  8
1
  6
CONTINUOUS
 62
     1
  5
4D8
  0
LINE
  8
1
  6
CONTINUOUS
 62
     7
  5
4D9
 10
621.343583
 20
163.619667
 30
0.0
 11
617.39925
 21
163.619667
 31
0.0
  0
LINE
  8
1
  6
CONTINUOUS
 62
     7
  5
4DA
 10
602.093583
 20
167.869667
 30
0.0
 11
602.093583
 21
163.869667
 31
0.0
  0
INSERT
  8
1
  6
CONTINUOUS
 62
     1
  5
4DB
  2
LDR
 10
592.843583
 20
188.369667
 30
0.0
 41
240.0
 42
240.0
 50
90.0
210
0.0
220
0.0
230
1.0
  0
INSERT
  8
1
  6
CONTINUOUS
 62
     1
  5
4DC
  2
LDR
 10
592.843583
 20
188.369667
 30
0.0
 41
240.0
 42
240.0
 50
90.0
210
0.0
220
0.0
230
1.0
  0
INSERT
  8
1
  6
CONTINUOUS
 62
     1
  5
4DD
  2
LDR
 10
602.093583
 20
188.369667
 30
0.0
 41
240.0
 42
240.0
 50
90.0
210
0.0
220
0.0
230
1.0
  0
INSERT
  8
1
  6
CONTINUOUS
 62
     1
  5
4DE
  2
LDR
 10
602.093583
 20
188.369667
 30
0.0
 41
240.0
 42
240.0
 50
90.0
210
0.0
220
0.0
230
1.0
  0
INSERT
  8
1
  6
CONTINUOUS
 62
     1
  5
4DF
  2
LDR
 10
602.093583
 20
170.369667
 30
0.0
 41
240.0
 42
240.0
 50
270.0
210
0.0
220
0.0
230
1.0
  0
INSERT
  8
1
  6
CONTINUOUS
 62
     1
  5
4E0
  2
LDR
 10
602.093583
 20
170.369667
 30
0.0
 41
240.0
 42
240.0
 50
270.0
210
0.0
220
0.0
230
1.0
  0
INSERT
  8
1
  6
CONTINUOUS
 62
     1
  5
4E1
  2
LDR
 10
592.843583
 20
167.869667
 30
0.0
 41
240.0
 42
240.0
 50
270.0
210
0.0
220
0.0
230
1.0
  0
INSERT
  8
1
  6
CONTINUOUS
 62
     1
  5
4E2
  2
LDR
 10
592.843583
 20
167.869667
 30
0.0
 41
240.0
 42
240.0
 50
270.0
210
0.0
220
0.0
230
1.0
  0
INSERT
  8
1
  6
CONTINUOUS
 62
     1
  5
4E3
  2
LDR
 10
602.093583
 20
167.869667
 30
0.0
 41
240.0
 42
240.0
 50
90.0
210
0.0
220
0.0
230
1.0
  0
INSERT
  8
1
  6
CONTINUOUS
 62
     1
  5
4E4
  2
LDR
 10
560.843583
 20
215.619667
 30
0.0
 41
240.0
 42
240.0
 50
90.0
210
0.0
220
0.0
230
1.0
  0
INSERT
  8
1
  6
CONTINUOUS
 62
     1
  5
4E5
  2
LDR
 10
560.843583
 20
215.619667
 30
0.0
 41
240.0
 42
240.0
 50
90.0
210
0.0
220
0.0
230
1.0
  0
INSERT
  8
1
  6
CONTINUOUS
 62
     1
  5
4E6
  2
LDR
 10
567.593583
 20
215.619667
 30
0.0
 41
240.0
 42
240.0
 50
90.0
210
0.0
220
0.0
230
1.0
  0
INSERT
  8
1
  6
CONTINUOUS
 62
     1
  5
4E7
  2
LDR
 10
567.593583
 20
215.619667
 30
0.0
 41
240.0
 42
240.0
 50
90.0
210
0.0
220
0.0
230
1.0
  0
INSERT
  8
1
  6
CONTINUOUS
 62
     1
  5
4E8
  2
LDR
 10
567.593583
 20
190.369667
 30
0.0
 41
240.0
 42
240.0
 50
270.0
210
0.0
220
0.0
230
1.0
  0
INSERT
  8
1
  6
CONTINUOUS
 62
     1
  5
4E9
  2
LDR
 10
567.593583
 20
190.369667
 30
0.0
 41
240.0
 42
240.0
 50
270.0
210
0.0
220
0.0
230
1.0
  0
INSERT
  8
1
  6
CONTINUOUS
 62
     1
  5
4EA
  2
LDR
 10
560.843583
 20
188.369667
 30
0.0
 41
240.0
 42
240.0
 50
270.0
210
0.0
220
0.0
230
1.0
  0
INSERT
  8
1
  6
CONTINUOUS
 62
     1
  5
4EB
  2
LDR
 10
560.843583
 20
188.369667
 30
0.0
 41
240.0
 42
240.0
 50
270.0
210
0.0
220
0.0
230
1.0
  0
INSERT
  8
1
  6
CONTINUOUS
 62
     1
  5
4EC
  2
LDR
 10
635.343583
 20
190.369667
 30
0.0
 41
240.0
 42
240.0
 50
270.0
210
0.0
220
0.0
230
1.0
  0
INSERT
  8
1
  6
CONTINUOUS
 62
     1
  5
4ED
  2
LDR
 10
635.343583
 20
190.369667
 30
0.0
 41
240.0
 42
240.0
 50
270.0
210
0.0
220
0.0
230
1.0
  0
INSERT
  8
1
  6
CONTINUOUS
 62
     1
  5
4EE
  2
LDR
 10
635.343583
 20
184.869667
 30
0.0
 41
240.0
 42
240.0
 50
90.0
210
0.0
220
0.0
230
1.0
  0
INSERT
  8
1
  6
CONTINUOUS
 62
     1
  5
4EF
  2
LDR
 10
635.343583
 20
184.869667
 30
0.0
 41
240.0
 42
240.0
 50
90.0
210
0.0
220
0.0
230
1.0
  0
INSERT
  8
1
  6
CONTINUOUS
 62
     1
  5
4F0
  2
LDR
 10
628.343583
 20
188.369667
 30
0.0
 41
240.0
 42
240.0
 50
270.0
210
0.0
220
0.0
230
1.0
  0
INSERT
  8
1
  6
CONTINUOUS
 62
     1
  5
4F1
  2
LDR
 10
628.343583
 20
184.869667
 30
0.0
 41
240.0
 42
240.0
 50
90.0
210
0.0
220
0.0
230
1.0
  0
INSERT
  8
1
  6
CONTINUOUS
 62
     1
  5
4F2
  2
LDR
 10
628.343583
 20
184.869667
 30
0.0
 41
240.0
 42
240.0
 50
90.0
210
0.0
220
0.0
230
1.0
  0
INSERT
  8
1
  6
CONTINUOUS
 62
     1
  5
4F3
  2
LDR
 10
628.343583
 20
173.869667
 30
0.0
 41
240.0
 42
240.0
 50
270.0
210
0.0
220
0.0
230
1.0
  0
INSERT
  8
1
  6
CONTINUOUS
 62
     1
  5
4F4
  2
LDR
 10
628.343583
 20
173.869667
 30
0.0
 41
240.0
 42
240.0
 50
270.0
210
0.0
220
0.0
230
1.0
  0
INSERT
  8
1
  6
CONTINUOUS
 62
     1
  5
4F5
  2
LDR
 10
628.343583
 20
170.369667
 30
0.0
 41
240.0
 42
240.0
 50
90.0
210
0.0
220
0.0
230
1.0
  0
LINE
  8
1
  6
CONTINUOUS
 62
     7
  5
4F6
 10
567.593583
 20
188.369667
 30
0.0
 11
567.593583
 21
184.369667
 31
0.0
  0
INSERT
  8
1
  6
CONTINUOUS
 62
     1
  5
4F7
  2
LDR
 10
567.593583
 20
188.369667
 30
0.0
 41
240.0
 42
240.0
 50
90.0
210
0.0
220
0.0
230
1.0
  0
LINE
  8
1
  6
CONTINUOUS
 62
     7
  5
4F8
 10
571.843583
 20
219.619667
 30
0.0
 11
567.843583
 21
219.619667
 31
0.0
  0
INSERT
  8
1
  6
CONTINUOUS
 62
     1
  5
4F9
  2
LDR
 10
571.843583
 20
226.619667
 30
0.0
 41
240.0
 42
240.0
 50
180.0
210
0.0
220
0.0
230
1.0
  0
INSERT
  8
1
  6
CONTINUOUS
 62
     1
  5
4FA
  2
LDR
 10
621.343583
 20
226.619667
 30
0.0
 41
240.0
 42
240.0
210
0.0
220
0.0
230
1.0
  0
INSERT
  8
1
  6
CONTINUOUS
 62
     1
  5
4FB
  2
LDR
 10
621.343583
 20
219.619667
 30
0.0
 41
240.0
 42
240.0
210
0.0
220
0.0
230
1.0
  0
INSERT
  8
1
  6
CONTINUOUS
 62
     1
  5
4FC
  2
LDR
 10
621.343583
 20
219.619667
 30
0.0
 41
240.0
 42
240.0
210
0.0
220
0.0
230
1.0
  0
INSERT
  8
1
  6
CONTINUOUS
 62
     1
  5
4FD
  2
LDR
 10
573.843583
 20
219.619667
 30
0.0
 41
240.0
 42
240.0
 50
180.0
210
0.0
220
0.0
230
1.0
  0
INSERT
  8
1
  6
CONTINUOUS
 62
     1
  5
4FE
  2
LDR
 10
573.843583
 20
219.619667
 30
0.0
 41
240.0
 42
240.0
 50
180.0
210
0.0
220
0.0
230
1.0
  0
INSERT
  8
1
  6
CONTINUOUS
 62
     1
  5
4FF
  2
LDR
 10
571.843583
 20
219.619667
 30
0.0
 41
240.0
 42
240.0
210
0.0
220
0.0
230
1.0
  0
TEXT
  8
1
  6
CONTINUOUS
 62
     7
  5
500
 10
591.125833
 20
227.588083
 30
0.0
 40
2.5
  1
1.998"
  7
MONOTXT
 72
     4
 11
596.588417
 21
228.838083
 31
0.0
210
0.0
220
0.0
230
1.0
  0
TEXT
  8
1
  6
CONTINUOUS
 62
     7
  5
501
 10
591.181583
 20
220.467167
 30
0.0
 40
2.5
  1
1.920"
  7
MONOTXT
 72
     4
 11
596.70325
 21
221.717167
 31
0.0
210
0.0
220
0.0
230
1.0
  0
TEXT
  8
1
  6
CONTINUOUS
 62
     7
  5
502
 10
557.481333
 20
218.859167
 30
0.0
 40
2.5
  1
.078"
  7
MONOTXT
 72
     4
 11
562.373
 21
220.109167
 31
0.0
210
0.0
220
0.0
230
1.0
  0
TEXT
  8
1
  6
CONTINUOUS
 62
     7
  5
503
 10
563.047333
 20
180.727667
 30
0.0
 40
2.5
  1
.078"
  7
MONOTXT
 72
     4
 11
567.939
 21
181.977667
 31
0.0
210
0.0
220
0.0
230
1.0
  0
TEXT
  8
1
  6
CONTINUOUS
 62
     7
  5
504
 10
632.666417
 20
186.470333
 30
0.0
 40
2.5
  1
0.217"
  7
MONOTXT
 72
     4
 11
638.26675
 21
187.720333
 31
0.0
210
0.0
220
0.0
230
1.0
  0
TEXT
  8
1
  6
CONTINUOUS
 62
     7
  5
505
 10
632.377917
 20
198.070583
 30
0.0
 40
2.5
  1
.139"
  7
MONOTXT
 72
     4
 11
636.659417
 21
199.320583
 31
0.0
210
0.0
220
0.0
230
1.0
  0
TEXT
  8
1
  6
CONTINUOUS
 62
     7
  5
506
 10
633.181583
 20
165.566917
 30
0.0
 40
2.5
  1
.139"
  7
MONOTXT
 72
     4
 11
637.463083
 21
166.816917
 31
0.0
210
0.0
220
0.0
230
1.0
  0
LINE
  8
1
  6
CONTINUOUS
 62
     7
  5
507
 10
628.343583
 20
166.369667
 30
0.0
 11
632.324333
 21
166.369667
 31
0.0
  0
LINE
  8
1
  6
CONTINUOUS
 62
     7
  5
508
 10
628.343583
 20
199.320583
 30
0.0
 11
632.324333
 21
199.320583
 31
0.0
  0
LINE
  8
1
  6
CONTINUOUS
 62
     7
  5
509
 10
602.093583
 20
163.869667
 30
0.0
 11
594.750917
 21
163.869667
 31
0.0
  0
LINE
  8
1
  6
CONTINUOUS
 62
     7
  5
50A
 10
604.855167
 20
163.619667
 30
0.0
 11
604.855167
 21
158.926333
 31
0.0
  0
LINE
  8
1
  6
CONTINUOUS
 62
     7
  5
50B
 10
604.855167
 20
158.926333
 30
0.0
 11
599.899833
 21
158.926333
 31
0.0
  0
TEXT
  8
1
  6
CONTINUOUS
 62
     7
  5
50C
 10
624.30525
 20
158.361
 30
0.0
 40
2.5
  1
.156"
  7
MONOTXT
 72
     4
 11
628.58675
 21
159.611
 31
0.0
210
0.0
220
0.0
230
1.0
  0
TEXT
  8
1
  6
CONTINUOUS
 62
     7
  5
50D
 10
589.767833
 20
157.87175
 30
0.0
 40
2.5
  1
.266"
  7
MONOTXT
 72
     4
 11
594.52175
 21
159.12175
 31
0.0
210
0.0
220
0.0
230
1.0
  0
TEXT
  8
1
  6
CONTINUOUS
 62
     7
  5
50E
 10
584.46325
 20
162.8105
 30
0.0
 40
2.5
  1
.078"
  7
MONOTXT
 72
     4
 11
589.354917
 21
164.0605
 31
0.0
210
0.0
220
0.0
230
1.0
  0
TEXT
  8
1
  6
CONTINUOUS
 62
     7
  5
50F
 10
609.398083
 20
153.047833
 30
0.0
 40
2.5
  1
.500"
  7
MONOTXT
 72
     4
 11
614.270083
 21
154.297833
 31
0.0
210
0.0
220
0.0
230
1.0
  0
TEXT
  8
1
  6
CONTINUOUS
 62
     7
  5
510
 10
560.06375
 20
198.01875
 30
0.0
 40
2.5
  1
1.118"
 50
90.0
  7
MONOTXT
 72
     4
 11
558.81375
 21
202.536417
 31
0.0
210
0.0
220
0.0
230
1.0
  0
TEXT
  8
1
  6
CONTINUOUS
 62
     7
  5
511
 10
566.837917
 20
198.826083
 30
0.0
 40
2.5
  1
1.04"
 50
90.0
  7
MONOTXT
 72
     4
 11
565.587917
 21
203.225667
 31
0.0
210
0.0
220
0.0
230
1.0
  0
TEXT
  8
1
  6
CONTINUOUS
 62
     7
  5
512
 10
591.98275
 20
172.114667
 30
0.0
 40
2.5
  1
0.765"
 50
90.0
  7
MONOTXT
 72
     4
 11
590.73275
 21
178.1875
 31
0.0
210
0.0
220
0.0
230
1.0
  0
TEXT
  8
1
  6
CONTINUOUS
 62
     7
  5
513
 10
601.39775
 20
174.847917
 30
0.0
 40
2.5
  1
.687"
 50
90.0
  7
MONOTXT
 72
     4
 11
600.14775
 21
179.680583
 31
0.0
210
0.0
220
0.0
230
1.0
  0
TEXT
  8
1
  6
CONTINUOUS
 62
     7
  5
514
 10
627.34625
 20
174.349083
 30
0.0
 40
2.5
  1
.409"
 50
90.0
  7
MONOTXT
 72
     4
 11
626.09625
 21
179.221083
 31
0.0
210
0.0
220
0.0
230
1.0
  0
TEXT
  8
1
  6
CONTINUOUS
 62
     7
  5
515
 10
568.711
 20
142.802333
 30
0.0
 40
4.0
  1
EXTRUDED RIB DETAIL
  7
MONOTXT
 72
     4
 11
602.5535
 21
144.802333
 31
0.0
210
0.0
220
0.0
230
1.0
  0
LINE
  8
1
  6
CONTINUOUS
 62
     7
  5
516
 10
567.195333
 20
141.429583
 30
0.0
 11
637.922417
 21
141.429583
 31
0.0
  0
LINE
  8
1
  6
CONTINUOUS
 62
     4
  5
517
 10
229.193917
 20
124.778833
 30
0.0
 11
229.193917
 21
74.778833
 31
0.0
  0
LINE
  8
1
  6
CONTINUOUS
 62
     4
  5
518
 10
267.193917
 20
124.778833
 30
0.0
 11
267.193917
 21
74.778833
 31
0.0
  0
LINE
  8
1
  6
CONTINUOUS
 62
     4
  5
519
 10
229.193917
 20
124.778833
 30
0.0
 11
267.193917
 21
124.778833
 31
0.0
  0
LINE
  8
1
  6
CONTINUOUS
 62
     4
  5
51A
 10
229.193917
 20
74.778833
 30
0.0
 11
267.193917
 21
74.778833
 31
0.0
  0
LINE
  8
1
  6
CONTINUOUS
 62
     4
  5
51B
 10
229.193917
 20
117.778833
 30
0.0
 11
267.193917
 21
117.778833
 31
0.0
  0
LINE
  8
1
  6
CONTINUOUS
 62
     4
  5
51C
 10
229.193917
 20
110.778833
 30
0.0
 11
267.193917
 21
110.778833
 31
0.0
  0
LINE
  8
1
  6
CONTINUOUS
 62
     4
  5
51D
 10
229.193917
 20
109.778833
 30
0.0
 11
267.193917
 21
109.778833
 31
0.0
  0
LINE
  8
1
  6
CONTINUOUS
 62
     4
  5
51E
 10
229.193917
 20
104.778833
 30
0.0
 11
267.193917
 21
104.778833
 31
0.0
  0
LINE
  8
1
  6
CONTINUOUS
 62
     4
  5
51F
 10
229.193917
 20
99.778833
 30
0.0
 11
267.193917
 21
99.778833
 31
0.0
  0
LINE
  8
1
  6
CONTINUOUS
 62
     4
  5
520
 10
229.193917
 20
94.778833
 30
0.0
 11
267.193917
 21
94.778833
 31
0.0
  0
LINE
  8
1
  6
CONTINUOUS
 62
     4
  5
521
 10
229.193917
 20
89.778833
 30
0.0
 11
267.193917
 21
89.778833
 31
0.0
  0
LINE
  8
1
  6
CONTINUOUS
 62
     4
  5
522
 10
229.193917
 20
84.778833
 30
0.0
 11
267.193917
 21
84.778833
 31
0.0
  0
LINE
  8
1
  6
CONTINUOUS
 62
     4
  5
523
 10
229.193917
 20
79.778833
 30
0.0
 11
267.193917
 21
79.778833
 31
0.0
  0
LINE
  8
1
  6
CONTINUOUS
 62
     4
  5
524
 10
247.193917
 20
117.778833
 30
0.0
 11
247.193917
 21
74.778833
 31
0.0
  0
TEXT
  8
1
  6
CONTINUOUS
 62
     7
  5
525
 10
231.4715
 20
119.582
 30
0.0
 40
3.0
  1
POST SPACING
  7
MONOTXT
 72
     4
 11
248.066
 21
121.082
 31
0.0
210
0.0
220
0.0
230
1.0
  0
TEXT
  8
1
  6
CONTINUOUS
 62
     7
  5
526
 10
256.266667
 20
112.515667
 30
0.0
 40
3.0
  1
P
  7
MONOTXT
 72
     4
 11
257.270583
 21
114.015667
 31
0.0
210
0.0
220
0.0
230
1.0
  0
TEXT
  8
1
  6
CONTINUOUS
 62
     7
  5
527
 10
233.601
 20
114.551167
 30
0.0
 40
2.5
  1
TYPE
  7
MONOTXT
 72
     4
 11
238.217083
 21
115.801167
 31
0.0
210
0.0
220
0.0
230
1.0
  0
TEXT
  8
1
  6
CONTINUOUS
 62
     7
  5
528
 10
234.427833
 20
111.551167
 30
0.0
 40
2.5
  1
SIGN
  7
MONOTXT
 72
     4
 11
238.217167
 21
112.801167
 31
0.0
210
0.0
220
0.0
230
1.0
  0
TEXT
  8
1
  6
CONTINUOUS
 62
     7
  5
529
 10
236.89575
 20
106.138417
 30
0.0
 40
2.5
  1
A
  7
MONOTXT
 72
     4
 11
237.86025
 21
107.388417
 31
0.0
210
0.0
220
0.0
230
1.0
  0
TEXT
  8
1
  6
CONTINUOUS
 62
     7
  5
52A
 10
237.02375
 20
101.138417
 30
0.0
 40
2.5
  1
B
  7
MONOTXT
 72
     4
 11
237.860333
 21
102.388417
 31
0.0
210
0.0
220
0.0
230
1.0
  0
TEXT
  8
1
  6
CONTINUOUS
 62
     7
  5
52B
 10
236.964667
 20
96.138417
 30
0.0
 40
2.5
  1
C
  7
MONOTXT
 72
     4
 11
237.860333
 21
97.388417
 31
0.0
210
0.0
220
0.0
230
1.0
  0
TEXT
  8
1
  6
CONTINUOUS
 62
     7
  5
52C
 10
237.02375
 20
91.138417
 30
0.0
 40
2.5
  1
D
  7
MONOTXT
 72
     4
 11
237.860333
 21
92.388417
 31
0.0
210
0.0
220
0.0
230
1.0
  0
TEXT
  8
1
  6
CONTINUOUS
 62
     7
  5
52D
 10
237.08275
 20
86.138417
 30
0.0
 40
2.5
  1
E
  7
MONOTXT
 72
     4
 11
237.86025
 21
87.388417
 31
0.0
210
0.0
220
0.0
230
1.0
  0
TEXT
  8
1
  6
CONTINUOUS
 62
     7
  5
52E
 10
237.08275
 20
81.138417
 30
0.0
 40
2.5
  1
F
  7
MONOTXT
 72
     4
 11
237.86025
 21
82.388417
 31
0.0
210
0.0
220
0.0
230
1.0
  0
TEXT
  8
1
  6
CONTINUOUS
 62
     7
  5
52F
 10
236.964667
 20
76.138417
 30
0.0
 40
2.5
  1
G
  7
MONOTXT
 72
     4
 11
237.860333
 21
77.388417
 31
0.0
210
0.0
220
0.0
230
1.0
  0
TEXT
  8
1
  6
CONTINUOUS
 62
     7
  5
530
 10
252.495083
 20
105.995667
 30
0.0
 40
2.5
  1
2'-6"
  7
MONOTXT
 72
     4
 11
256.973417
 21
107.245667
 31
0.0
210
0.0
220
0.0
230
1.0
  0
TEXT
  8
1
  6
CONTINUOUS
 62
     7
  5
531
 10
252.436
 20
100.995667
 30
0.0
 40
2.5
  1
2'-0"
  7
MONOTXT
 72
     4
 11
256.973333
 21
102.245667
 31
0.0
210
0.0
220
0.0
230
1.0
  0
TEXT
  8
1
  6
CONTINUOUS
 62
     7
  5
532
 10
252.495083
 20
95.995667
 30
0.0
 40
2.5
  1
2'-6"
  7
MONOTXT
 72
     4
 11
256.973417
 21
97.245667
 31
0.0
210
0.0
220
0.0
230
1.0
  0
TEXT
  8
1
  6
CONTINUOUS
 62
     7
  5
533
 10
252.495083
 20
90.995667
 30
0.0
 40
2.5
  1
2'-6"
  7
MONOTXT
 72
     4
 11
256.973417
 21
92.245667
 31
0.0
210
0.0
220
0.0
230
1.0
  0
TEXT
  8
1
  6
CONTINUOUS
 62
     7
  5
534
 10
252.495083
 20
85.995667
 30
0.0
 40
2.5
  1
2'-6"
  7
MONOTXT
 72
     4
 11
256.973417
 21
87.245667
 31
0.0
210
0.0
220
0.0
230
1.0
  0
TEXT
  8
1
  6
CONTINUOUS
 62
     7
  5
535
 10
252.495083
 20
80.995667
 30
0.0
 40
2.5
  1
2'-6"
  7
MONOTXT
 72
     4
 11
256.973417
 21
82.245667
 31
0.0
210
0.0
220
0.0
230
1.0
  0
TEXT
  8
1
  6
CONTINUOUS
 62
     7
  5
536
 10
252.495083
 20
75.995667
 30
0.0
 40
2.5
  1
2'-6"
  7
MONOTXT
 72
     4
 11
256.973417
 21
77.245667
 31
0.0
210
0.0
220
0.0
230
1.0
  0
LINE
  8
1
  6
CONTINUOUS
 62
     4
  5
537
 10
287.193917
 20
133.778833
 30
0.0
 11
408.193917
 21
133.778833
 31
0.0
  0
LINE
  8
1
  6
CONTINUOUS
 62
     4
  5
538
 10
287.193917
 20
74.778833
 30
0.0
 11
408.193917
 21
74.778833
 31
0.0
  0
LINE
  8
1
  6
CONTINUOUS
 62
     4
  5
539
 10
287.193917
 20
133.778833
 30
0.0
 11
287.193917
 21
74.778833
 31
0.0
  0
LINE
  8
1
  6
CONTINUOUS
 62
     4
  5
53A
 10
408.193917
 20
133.778833
 30
0.0
 11
408.193917
 21
74.778833
 31
0.0
  0
LINE
  8
1
  6
CONTINUOUS
 62
     4
  5
53B
 10
287.193917
 20
119.778833
 30
0.0
 11
408.193917
 21
119.778833
 31
0.0
  0
LINE
  8
1
  6
CONTINUOUS
 62
     4
  5
53C
 10
287.193917
 20
114.778833
 30
0.0
 11
408.193917
 21
114.778833
 31
0.0
  0
LINE
  8
1
  6
CONTINUOUS
 62
     4
  5
53D
 10
287.193917
 20
109.778833
 30
0.0
 11
408.193917
 21
109.778833
 31
0.0
  0
LINE
  8
1
  6
CONTINUOUS
 62
     4
  5
53E
 10
287.193917
 20
104.778833
 30
0.0
 11
408.193917
 21
104.778833
 31
0.0
  0
LINE
  8
1
  6
CONTINUOUS
 62
     4
  5
53F
 10
287.193917
 20
99.778833
 30
0.0
 11
408.193917
 21
99.778833
 31
0.0
  0
LINE
  8
1
  6
CONTINUOUS
 62
     4
  5
540
 10
287.193917
 20
94.778833
 30
0.0
 11
408.193917
 21
94.778833
 31
0.0
  0
LINE
  8
1
  6
CONTINUOUS
 62
     4
  5
541
 10
287.193917
 20
89.778833
 30
0.0
 11
408.193917
 21
89.778833
 31
0.0
  0
LINE
  8
1
  6
CONTINUOUS
 62
     4
  5
542
 10
287.193917
 20
84.778833
 30
0.0
 11
408.193917
 21
84.778833
 31
0.0
  0
LINE
  8
1
  6
CONTINUOUS
 62
     4
  5
543
 10
305.193917
 20
79.778833
 30
0.0
 11
355.193917
 21
79.778833
 31
0.0
  0
LINE
  8
1
  6
CONTINUOUS
 62
     4
  5
544
 10
305.193917
 20
133.778833
 30
0.0
 11
305.193917
 21
74.778833
 31
0.0
  0
LINE
  8
1
  6
CONTINUOUS
 62
     4
  5
545
 10
315.193917
 20
126.778833
 30
0.0
 11
315.193917
 21
74.778833
 31
0.0
  0
LINE
  8
1
  6
CONTINUOUS
 62
     4
  5
546
 10
325.193917
 20
126.778833
 30
0.0
 11
325.193917
 21
74.778833
 31
0.0
  0
LINE
  8
1
  6
CONTINUOUS
 62
     4
  5
547
 10
335.193917
 20
126.778833
 30
0.0
 11
335.193917
 21
74.778833
 31
0.0
  0
LINE
  8
1
  6
CONTINUOUS
 62
     4
  5
548
 10
345.193917
 20
126.778833
 30
0.0
 11
345.193917
 21
74.778833
 31
0.0
  0
LINE
  8
1
  6
CONTINUOUS
 62
     4
  5
549
 10
355.193917
 20
133.778833
 30
0.0
 11
355.193917
 21
74.778833
 31
0.0
  0
LINE
  8
1
  6
CONTINUOUS
 62
     4
  5
54A
 10
373.193917
 20
133.778833
 30
0.0
 11
373.193917
 21
74.778833
 31
0.0
  0
LINE
  8
1
  6
CONTINUOUS
 62
     4
  5
54B
 10
383.193917
 20
126.778833
 30
0.0
 11
383.193917
 21
74.778833
 31
0.0
  0
LINE
  8
1
  6
CONTINUOUS
 62
     4
  5
54C
 10
305.193917
 20
126.778833
 30
0.0
 11
355.193917
 21
126.778833
 31
0.0
  0
LINE
  8
1
  6
CONTINUOUS
 62
     4
  5
54D
 10
373.193917
 20
126.778833
 30
0.0
 11
408.193917
 21
126.778833
 31
0.0
  0
TEXT
  8
1
  6
CONTINUOUS
 62
     7
  5
54E
 10
316.93175
 20
128.716667
 30
0.0
 40
3.0
  1
SIGN PANEL
  7
MONOTXT
 72
     4
 11
330.124583
 21
130.216667
 31
0.0
210
0.0
220
0.0
230
1.0
  0
TEXT
  8
1
  6
CONTINUOUS
 62
     7
  5
54F
 10
292.4105
 20
128.717083
 30
0.0
 40
2.5
  1
SIGN
  7
MONOTXT
 72
     4
 11
296.199833
 21
129.967083
 31
0.0
210
0.0
220
0.0
230
1.0
  0
TEXT
  8
1
  6
CONTINUOUS
 62
     7
  5
550
 10
289.762833
 20
125.217083
 30
0.0
 40
2.5
  1
STRUC.
  7
MONOTXT
 72
     4
 11
296.19
 21
126.467083
 31
0.0
210
0.0
220
0.0
230
1.0
  0
TEXT
  8
1
  6
CONTINUOUS
 62
     7
  5
551
 10
291.583667
 20
121.717083
 30
0.0
 40
2.5
  1
TYPE
  7
MONOTXT
 72
     4
 11
296.19975
 21
122.967083
 31
0.0
210
0.0
220
0.0
230
1.0
  0
TEXT
  8
1
  6
CONTINUOUS
 62
     7
  5
552
 10
356.820667
 20
125.592083
 30
0.0
 40
2.5
  1
CLAMPS
  7
MONOTXT
 72
     4
 11
363.858
 21
126.842083
 31
0.0
210
0.0
220
0.0
230
1.0
  0
TEXT
  8
1
  6
CONTINUOUS
 62
     7
  5
553
 10
374.464833
 20
130.423167
 30
0.0
 40
2.5
  1
ZEE SECTION OR
  7
MONOTXT
 72
     4
 11
390.65575
 21
131.673167
 31
0.0
210
0.0
220
0.0
230
1.0
  0
TEXT
  8
1
  6
CONTINUOUS
 62
     7
  5
554
 10
377.122333
 20
127.423167
 30
0.0
 40
2.5
  1
EXTRUDED RIB
  7
MONOTXT
 72
     4
 11
390.65575
 21
128.673167
 31
0.0
210
0.0
220
0.0
230
1.0
  0
TEXT
  8
1
  6
CONTINUOUS
 62
     7
  5
555
 10
375.563583
 20
121.948583
 30
0.0
 40
2.5
  1
NO.
  7
MONOTXT
 72
     4
 11
378.32925
 21
123.198583
 31
0.0
210
0.0
220
0.0
230
1.0
  0
TEXT
  8
1
  6
CONTINUOUS
 62
     7
  5
556
 10
387.91275
 20
122.019417
 30
0.0
 40
2.5
  1
LENGTH
  7
MONOTXT
 72
     4
 11
394.832
 21
123.269417
 31
0.0
210
0.0
220
0.0
230
1.0
  0
TEXT
  8
1
  6
CONTINUOUS
 62
     7
  5
557
 10
309.145
 20
121.984
 30
0.0
 40
2.5
  1
W
  7
MONOTXT
 72
     4
 11
310.335917
 21
123.234
 31
0.0
210
0.0
220
0.0
230
1.0
  0
TEXT
  8
1
  6
CONTINUOUS
 62
     7
  5
558
 10
319.298583
 20
121.984
 30
0.0
 40
2.5
  1
H
  7
MONOTXT
 72
     4
 11
320.135167
 21
123.234
 31
0.0
210
0.0
220
0.0
230
1.0
  0
TEXT
  8
1
  6
CONTINUOUS
 62
     7
  5
559
 10
339.2485
 20
122.45075
 30
0.0
 40
2.5
  1
c
  7
MONOTXT
 72
     4
 11
339.967
 21
123.70075
 31
0.0
210
0.0
220
0.0
230
1.0
  0
TEXT
  8
1
  6
CONTINUOUS
 62
     7
  5
55A
 10
349.514417
 20
122.217333
 30
0.0
 40
2.5
  1
d
  7
MONOTXT
 72
     4
 11
350.223083
 21
123.467333
 31
0.0
210
0.0
220
0.0
230
1.0
  0
TEXT
  8
1
  6
CONTINUOUS
 62
     7
  5
55B
 10
294.73275
 20
115.940417
 30
0.0
 40
2.5
  1
A
  7
MONOTXT
 72
     4
 11
295.69725
 21
117.190417
 31
0.0
210
0.0
220
0.0
230
1.0
  0
TEXT
  8
1
  6
CONTINUOUS
 62
     7
  5
55C
 10
294.86075
 20
110.940417
 30
0.0
 40
2.5
  1
B
  7
MONOTXT
 72
     4
 11
295.697333
 21
112.190417
 31
0.0
210
0.0
220
0.0
230
1.0
  0
TEXT
  8
1
  6
CONTINUOUS
 62
     7
  5
55D
 10
294.801667
 20
105.940417
 30
0.0
 40
2.5
  1
C
  7
MONOTXT
 72
     4
 11
295.697333
 21
107.190417
 31
0.0
210
0.0
220
0.0
230
1.0
  0
TEXT
  8
1
  6
CONTINUOUS
 62
     7
  5
55E
 10
294.86075
 20
100.940417
 30
0.0
 40
2.5
  1
D
  7
MONOTXT
 72
     4
 11
295.697333
 21
102.190417
 31
0.0
210
0.0
220
0.0
230
1.0
  0
TEXT
  8
1
  6
CONTINUOUS
 62
     7
  5
55F
 10
294.91975
 20
95.940417
 30
0.0
 40
2.5
  1
E
  7
MONOTXT
 72
     4
 11
295.69725
 21
97.190417
 31
0.0
210
0.0
220
0.0
230
1.0
  0
TEXT
  8
1
  6
CONTINUOUS
 62
     7
  5
560
 10
295.155
 20
86.01625
 30
0.0
 40
2.5
  1
F
  7
MONOTXT
 72
     4
 11
295.9325
 21
87.26625
 31
0.0
210
0.0
220
0.0
230
1.0
  0
TEXT
  8
1
  6
CONTINUOUS
 62
     7
  5
561
 10
294.644833
 20
78.642667
 30
0.0
 40
2.5
  1
G
  7
MONOTXT
 72
     4
 11
295.5405
 21
79.892667
 31
0.0
210
0.0
220
0.0
230
1.0
  0
TEXT
  8
1
  6
CONTINUOUS
 62
     7
  5
562
 10
309.29725
 20
115.940417
 30
0.0
 40
2.5
  1
5'
  7
MONOTXT
 72
     4
 11
310.586583
 21
117.190417
 31
0.0
210
0.0
220
0.0
230
1.0
  0
TEXT
  8
1
  6
CONTINUOUS
 62
     7
  5
563
 10
309.238167
 20
110.940417
 30
0.0
 40
2.5
  1
4'
  7
MONOTXT
 72
     4
 11
310.586583
 21
112.190417
 31
0.0
210
0.0
220
0.0
230
1.0
  0
TEXT
  8
1
  6
CONTINUOUS
 62
     7
  5
564
 10
309.238167
 20
105.940417
 30
0.0
 40
2.5
  1
4'
  7
MONOTXT
 72
     4
 11
310.586583
 21
107.190417
 31
0.0
210
0.0
220
0.0
230
1.0
  0
TEXT
  8
1
  6
CONTINUOUS
 62
     7
  5
565
 10
309.238167
 20
100.940417
 30
0.0
 40
2.5
  1
4'
  7
MONOTXT
 72
     4
 11
310.586583
 21
102.190417
 31
0.0
210
0.0
220
0.0
230
1.0
  0
TEXT
  8
1
  6
CONTINUOUS
 62
     7
  5
566
 10
309.238167
 20
95.940417
 30
0.0
 40
2.5
  1
4'
  7
MONOTXT
 72
     4
 11
310.586583
 21
97.190417
 31
0.0
210
0.0
220
0.0
230
1.0
  0
TEXT
  8
1
  6
CONTINUOUS
 62
     7
  5
567
 10
309.238167
 20
86.074417
 30
0.0
 40
2.5
  1
4'
  7
MONOTXT
 72
     4
 11
310.586583
 21
87.324417
 31
0.0
210
0.0
220
0.0
230
1.0
  0
TEXT
  8
1
  6
CONTINUOUS
 62
     7
  5
568
 10
309.238167
 20
81.074417
 30
0.0
 40
2.5
  1
4'
  7
MONOTXT
 72
     4
 11
310.586583
 21
82.324417
 31
0.0
210
0.0
220
0.0
230
1.0
  0
TEXT
  8
1
  6
CONTINUOUS
 62
     7
  5
569
 10
309.238167
 20
76.074417
 30
0.0
 40
2.5
  1
4'
  7
MONOTXT
 72
     4
 11
310.586583
 21
77.324417
 31
0.0
210
0.0
220
0.0
230
1.0
  0
TEXT
  8
1
  6
CONTINUOUS
 62
     7
  5
56A
 10
319.04025
 20
106.077
 30
0.0
 40
2.5
  1
4'
  7
MONOTXT
 72
     4
 11
320.388667
 21
107.327
 31
0.0
210
0.0
220
0.0
230
1.0
  0
TEXT
  8
1
  6
CONTINUOUS
 62
     7
  5
56B
 10
319.099333
 20
101.077
 30
0.0
 40
2.5
  1
5'
  7
MONOTXT
 72
     4
 11
320.388667
 21
102.327
 31
0.0
210
0.0
220
0.0
230
1.0
  0
TEXT
  8
1
  6
CONTINUOUS
 62
     7
  5
56C
 10
319.099333
 20
96.077
 30
0.0
 40
2.5
  1
3'
  7
MONOTXT
 72
     4
 11
320.388667
 21
97.327
 31
0.0
210
0.0
220
0.0
230
1.0
  0
TEXT
  8
1
  6
CONTINUOUS
 62
     7
  5
56D
 10
319.17775
 20
80.907417
 30
0.0
 40
2.5
  1
5'
  7
MONOTXT
 72
     4
 11
320.467083
 21
82.157417
 31
0.0
210
0.0
220
0.0
230
1.0
  0
TEXT
  8
1
  6
CONTINUOUS
 62
     7
  5
56E
 10
319.118667
 20
75.907417
 30
0.0
 40
2.5
  1
4'
  7
MONOTXT
 72
     4
 11
320.467083
 21
77.157417
 31
0.0
210
0.0
220
0.0
230
1.0
  0
TEXT
  8
1
  6
CONTINUOUS
 62
     7
  5
56F
 10
338.2115
 20
115.862
 30
0.0
 40
2.5
  1
6"
  7
MONOTXT
 72
     4
 11
339.91425
 21
117.112
 31
0.0
210
0.0
220
0.0
230
1.0
  0
TEXT
  8
1
  6
CONTINUOUS
 62
     7
  5
570
 10
338.2115
 20
110.862
 30
0.0
 40
2.5
  1
6"
  7
MONOTXT
 72
     4
 11
339.91425
 21
112.112
 31
0.0
210
0.0
220
0.0
230
1.0
  0
TEXT
  8
1
  6
CONTINUOUS
 62
     7
  5
571
 10
337.38475
 20
105.862
 30
0.0
 40
2.5
  1
14"
  7
MONOTXT
 72
     4
 11
339.91425
 21
107.112
 31
0.0
210
0.0
220
0.0
230
1.0
  0
TEXT
  8
1
  6
CONTINUOUS
 62
     7
  5
572
 10
337.44375
 20
100.862
 30
0.0
 40
2.5
  1
15"
  7
MONOTXT
 72
     4
 11
339.91425
 21
102.112
 31
0.0
210
0.0
220
0.0
230
1.0
  0
TEXT
  8
1
  6
CONTINUOUS
 62
     7
  5
573
 10
337.44375
 20
95.862
 30
0.0
 40
2.5
  1
12"
  7
MONOTXT
 72
     4
 11
339.91425
 21
97.112
 31
0.0
210
0.0
220
0.0
230
1.0
  0
TEXT
  8
1
  6
CONTINUOUS
 62
     7
  5
574
 10
338.010083
 20
86.074417
 30
0.0
 40
2.5
  1
20"
  7
MONOTXT
 72
     4
 11
341.012083
 21
87.324417
 31
0.0
210
0.0
220
0.0
230
1.0
  0
TEXT
  8
1
  6
CONTINUOUS
 62
     7
  5
575
 10
338.541583
 20
81.074417
 30
0.0
 40
2.5
  1
15"
  7
MONOTXT
 72
     4
 11
341.012083
 21
82.324417
 31
0.0
210
0.0
220
0.0
230
1.0
  0
TEXT
  8
1
  6
CONTINUOUS
 62
     7
  5
576
 10
338.482583
 20
76.074417
 30
0.0
 40
2.5
  1
14"
  7
MONOTXT
 72
     4
 11
341.012083
 21
77.324417
 31
0.0
210
0.0
220
0.0
230
1.0
  0
TEXT
  8
1
  6
CONTINUOUS
 62
     7
  5
577
 10
347.637917
 20
115.940417
 30
0.0
 40
2.5
  1
13"
  7
MONOTXT
 72
     4
 11
350.108417
 21
117.190417
 31
0.0
210
0.0
220
0.0
230
1.0
  0
TEXT
  8
1
  6
CONTINUOUS
 62
     7
  5
578
 10
348.346583
 20
110.940417
 30
0.0
 40
2.5
  1
8"
  7
MONOTXT
 72
     4
 11
350.108417
 21
112.190417
 31
0.0
210
0.0
220
0.0
230
1.0
  0
TEXT
  8
1
  6
CONTINUOUS
 62
     7
  5
579
 10
347.106417
 20
105.940417
 30
0.0
 40
2.5
  1
20"
  7
MONOTXT
 72
     4
 11
350.108417
 21
107.190417
 31
0.0
210
0.0
220
0.0
230
1.0
  0
TEXT
  8
1
  6
CONTINUOUS
 62
     7
  5
57A
 10
347.106417
 20
100.940417
 30
0.0
 40
2.5
  1
30"
  7
MONOTXT
 72
     4
 11
350.108417
 21
102.190417
 31
0.0
210
0.0
220
0.0
230
1.0
  0
TEXT
  8
1
  6
CONTINUOUS
 62
     7
  5
57B
 10
347.637917
 20
95.940417
 30
0.0
 40
2.5
  1
12"
  7
MONOTXT
 72
     4
 11
350.108417
 21
97.190417
 31
0.0
210
0.0
220
0.0
230
1.0
  0
TEXT
  8
1
  6
CONTINUOUS
 62
     7
  5
57C
 10
348.282667
 20
80.985833
 30
0.0
 40
2.5
  1
30"
  7
MONOTXT
 72
     4
 11
351.284667
 21
82.235833
 31
0.0
210
0.0
220
0.0
230
1.0
  0
TEXT
  8
1
  6
CONTINUOUS
 62
     7
  5
57D
 10
348.282667
 20
75.985833
 30
0.0
 40
2.5
  1
20"
  7
MONOTXT
 72
     4
 11
351.284667
 21
77.235833
 31
0.0
210
0.0
220
0.0
230
1.0
  0
TEXT
  8
1
  6
CONTINUOUS
 62
     7
  5
57E
 10
363.259083
 20
116.018833
 30
0.0
 40
2.5
  1
4
  7
MONOTXT
 72
     4
 11
364.15475
 21
117.268833
 31
0.0
210
0.0
220
0.0
230
1.0
  0
TEXT
  8
1
  6
CONTINUOUS
 62
     7
  5
57F
 10
363.259083
 20
111.018833
 30
0.0
 40
2.5
  1
4
  7
MONOTXT
 72
     4
 11
364.15475
 21
112.268833
 31
0.0
210
0.0
220
0.0
230
1.0
  0
TEXT
  8
1
  6
CONTINUOUS
 62
     7
  5
580
 10
363.259083
 20
106.018833
 30
0.0
 40
2.5
  1
4
  7
MONOTXT
 72
     4
 11
364.15475
 21
107.268833
 31
0.0
210
0.0
220
0.0
230
1.0
  0
TEXT
  8
1
  6
CONTINUOUS
 62
     7
  5
581
 10
363.259083
 20
101.018833
 30
0.0
 40
2.5
  1
4
  7
MONOTXT
 72
     4
 11
364.15475
 21
102.268833
 31
0.0
210
0.0
220
0.0
230
1.0
  0
TEXT
  8
1
  6
CONTINUOUS
 62
     7
  5
582
 10
363.259083
 20
96.018833
 30
0.0
 40
2.5
  1
4
  7
MONOTXT
 72
     4
 11
364.15475
 21
97.268833
 31
0.0
210
0.0
220
0.0
230
1.0
  0
TEXT
  8
1
  6
CONTINUOUS
 62
     7
  5
583
 10
363.57275
 20
85.93775
 30
0.0
 40
2.5
  1
4
  7
MONOTXT
 72
     4
 11
364.468417
 21
87.18775
 31
0.0
210
0.0
220
0.0
230
1.0
  0
TEXT
  8
1
  6
CONTINUOUS
 62
     7
  5
584
 10
363.651167
 20
78.56425
 30
0.0
 40
2.5
  1
4
  7
MONOTXT
 72
     4
 11
364.546833
 21
79.81425
 31
0.0
210
0.0
220
0.0
230
1.0
  0
TEXT
  8
1
  6
CONTINUOUS
 62
     7
  5
585
 10
377.081917
 20
116.091333
 30
0.0
 40
2.5
  1
2
  7
MONOTXT
 72
     4
 11
377.9185
 21
117.341333
 31
0.0
210
0.0
220
0.0
230
1.0
  0
TEXT
  8
1
  6
CONTINUOUS
 62
     7
  5
586
 10
377.081917
 20
111.091333
 30
0.0
 40
2.5
  1
2
  7
MONOTXT
 72
     4
 11
377.9185
 21
112.341333
 31
0.0
210
0.0
220
0.0
230
1.0
  0
TEXT
  8
1
  6
CONTINUOUS
 62
     7
  5
587
 10
377.081917
 20
106.091333
 30
0.0
 40
2.5
  1
2
  7
MONOTXT
 72
     4
 11
377.9185
 21
107.341333
 31
0.0
210
0.0
220
0.0
230
1.0
  0
TEXT
  8
1
  6
CONTINUOUS
 62
     7
  5
588
 10
377.081917
 20
101.091333
 30
0.0
 40
2.5
  1
2
  7
MONOTXT
 72
     4
 11
377.9185
 21
102.341333
 31
0.0
210
0.0
220
0.0
230
1.0
  0
TEXT
  8
1
  6
CONTINUOUS
 62
     7
  5
589
 10
377.081917
 20
96.091333
 30
0.0
 40
2.5
  1
2
  7
MONOTXT
 72
     4
 11
377.9185
 21
97.341333
 31
0.0
210
0.0
220
0.0
230
1.0
  0
TEXT
  8
1
  6
CONTINUOUS
 62
     7
  5
58A
 10
377.236417
 20
86.0875
 30
0.0
 40
2.5
  1
2
  7
MONOTXT
 72
     4
 11
378.073
 21
87.3375
 31
0.0
210
0.0
220
0.0
230
1.0
  0
TEXT
  8
1
  6
CONTINUOUS
 62
     7
  5
58B
 10
377.159167
 20
78.827417
 30
0.0
 40
2.5
  1
2
  7
MONOTXT
 72
     4
 11
377.99575
 21
80.077417
 31
0.0
210
0.0
220
0.0
230
1.0
  0
TEXT
  8
1
  6
CONTINUOUS
 62
     7
  5
58C
 10
390.975167
 20
116.014083
 30
0.0
 40
2.5
  1
3'-2"
  7
MONOTXT
 72
     4
 11
395.5125
 21
117.264083
 31
0.0
210
0.0
220
0.0
230
1.0
  0
TEXT
  8
1
  6
CONTINUOUS
 62
     7
  5
58D
 10
390.975167
 20
111.014083
 30
0.0
 40
2.5
  1
2'-8"
  7
MONOTXT
 72
     4
 11
395.5125
 21
112.264083
 31
0.0
210
0.0
220
0.0
230
1.0
  0
TEXT
  8
1
  6
CONTINUOUS
 62
     7
  5
58E
 10
390.975167
 20
106.014083
 30
0.0
 40
2.5
  1
3'-2"
  7
MONOTXT
 72
     4
 11
395.5125
 21
107.264083
 31
0.0
210
0.0
220
0.0
230
1.0
  0
TEXT
  8
1
  6
CONTINUOUS
 62
     7
  5
58F
 10
390.975167
 20
101.014083
 30
0.0
 40
2.5
  1
3'-2"
  7
MONOTXT
 72
     4
 11
395.5125
 21
102.264083
 31
0.0
210
0.0
220
0.0
230
1.0
  0
TEXT
  8
1
  6
CONTINUOUS
 62
     7
  5
590
 10
390.975167
 20
96.014083
 30
0.0
 40
2.5
  1
3'-2"
  7
MONOTXT
 72
     4
 11
395.5125
 21
97.264083
 31
0.0
210
0.0
220
0.0
230
1.0
  0
TEXT
  8
1
  6
CONTINUOUS
 62
     7
  5
591
 10
390.975167
 20
85.933
 30
0.0
 40
2.5
  1
3'-2"
  7
MONOTXT
 72
     4
 11
395.5125
 21
87.183
 31
0.0
210
0.0
220
0.0
230
1.0
  0
TEXT
  8
1
  6
CONTINUOUS
 62
     7
  5
592
 10
390.975167
 20
78.518417
 30
0.0
 40
2.5
  1
3'-2"
  7
MONOTXT
 72
     4
 11
395.5125
 21
79.768417
 31
0.0
210
0.0
220
0.0
230
1.0
  0
LINE
  8
1
  6
CONTINUOUS
 62
     7
  5
593
 10
336.2165
 20
84.009917
 30
0.0
 11
337.736833
 21
84.009917
 31
0.0
  0
POLYLINE
  8
1
  6
CONTINUOUS
 62
     7
  5
594
 66
     1
 10
0.0
 20
0.0
 30
0.0
 70
     1
  0
VERTEX
  8
1
  6
CONTINUOUS
 62
     7
  5
595
 10
336.2165
 20
82.373083
 30
0.0
  0
VERTEX
  8
1
  6
CONTINUOUS
 62
     7
  5
596
 10
337.736833
 20
84.009917
 30
0.0
  0
VERTEX
  8
1
  6
CONTINUOUS
 62
     7
  5
597
 10
337.736833
 20
82.373083
 30
0.0
  0
VERTEX
  8
1
  6
CONTINUOUS
 62
     7
  5
598
 10
336.2165
 20
82.373083
 30
0.0
  0
SEQEND
  8
1
  6
CONTINUOUS
 62
     7
  5
599
  0
LINE
  8
1
  6
CONTINUOUS
 62
     7
  5
59A
 10
336.2165
 20
82.373083
 30
0.0
 11
336.2165
 21
84.009917
 31
0.0
  0
LINE
  8
1
  6
CONTINUOUS
 62
     7
  5
59B
 10
346.026833
 20
83.94875
 30
0.0
 11
347.547167
 21
83.94875
 31
0.0
  0
POLYLINE
  8
1
  6
CONTINUOUS
 62
     7
  5
59C
 66
     1
 10
0.0
 20
0.0
 30
0.0
 70
     1
  0
VERTEX
  8
1
  6
CONTINUOUS
 62
     7
  5
59D
 10
346.026833
 20
82.311917
 30
0.0
  0
VERTEX
  8
1
  6
CONTINUOUS
 62
     7
  5
59E
 10
347.547167
 20
83.94875
 30
0.0
  0
VERTEX
  8
1
  6
CONTINUOUS
 62
     7
  5
59F
 10
347.547167
 20
82.311917
 30
0.0
  0
VERTEX
  8
1
  6
CONTINUOUS
 62
     7
  5
5A0
 10
346.026833
 20
82.311917
 30
0.0
  0
SEQEND
  8
1
  6
CONTINUOUS
 62
     7
  5
5A1
  0
LINE
  8
1
  6
CONTINUOUS
 62
     7
  5
5A2
 10
346.026833
 20
82.311917
 30
0.0
 11
346.026833
 21
83.94875
 31
0.0
  0
POLYLINE
  8
1
  6
CONTINUOUS
 62
     7
  5
5A3
 66
     1
 10
0.0
 20
0.0
 30
0.0
 70
     1
  0
VERTEX
  8
1
  6
CONTINUOUS
 62
     7
  5
5A4
 10
336.871333
 20
79.252333
 30
0.0
  0
VERTEX
  8
1
  6
CONTINUOUS
 62
     7
  5
5A5
 10
337.871333
 20
77.52025
 30
0.0
  0
VERTEX
  8
1
  6
CONTINUOUS
 62
     7
  5
5A6
 10
335.871333
 20
77.52025
 30
0.0
  0
VERTEX
  8
1
  6
CONTINUOUS
 62
     7
  5
5A7
 10
336.871333
 20
79.258
 30
0.0
  0
VERTEX
  8
1
  6
CONTINUOUS
 62
     7
  5
5A8
 10
336.871333
 20
79.252333
 30
0.0
  0
SEQEND
  8
1
  6
CONTINUOUS
 62
     7
  5
5A9
  0
POLYLINE
  8
1
  6
CONTINUOUS
 62
     7
  5
5AA
 66
     1
 10
0.0
 20
0.0
 30
0.0
 70
     1
  0
VERTEX
  8
1
  6
CONTINUOUS
 62
     7
  5
5AB
 10
346.742833
 20
79.22175
 30
0.0
  0
VERTEX
  8
1
  6
CONTINUOUS
 62
     7
  5
5AC
 10
347.742833
 20
77.489667
 30
0.0
  0
VERTEX
  8
1
  6
CONTINUOUS
 62
     7
  5
5AD
 10
345.742833
 20
77.489667
 30
0.0
  0
VERTEX
  8
1
  6
CONTINUOUS
 62
     7
  5
5AE
 10
346.742833
 20
79.227417
 30
0.0
  0
VERTEX
  8
1
  6
CONTINUOUS
 62
     7
  5
5AF
 10
346.742833
 20
79.22175
 30
0.0
  0
SEQEND
  8
1
  6
CONTINUOUS
 62
     7
  5
5B0
  0
TEXT
  8
1
  6
CONTINUOUS
 62
     7
  5
5B1
 10
280.674833
 20
136.00375
 30
0.0
 40
2.5
  1
FOR SIGN PLACEMENT SEE CONTRACT PLANS OR TE1-3C OR TP3-1
  7
MONOTXT
 72
     4
 11
347.5055
 21
137.25375
 31
0.0
210
0.0
220
0.0
230
1.0
  0
TEXT
  8
1
  6
CONTINUOUS
 62
     7
  5
5B2
 10
127.246917
 20
208.032583
 30
0.0
 40
2.5
  1
7'-0"
 50
90.0
  7
MONOTXT
 72
     4
 11
125.996917
 21
212.589583
 31
0.0
210
0.0
220
0.0
230
1.0
  0
TEXT
  8
1
  6
CONTINUOUS
 62
     7
  5
5B3
 10
131.746917
 20
209.4105
 30
0.0
 40
2.5
  1
MIN.
 50
90.0
  7
MONOTXT
 72
     4
 11
130.496917
 21
212.589667
 31
0.0
210
0.0
220
0.0
230
1.0
  0
TEXT
  8
1
  6
CONTINUOUS
 62
     7
  5
5B4
 10
197.423667
 20
219.674167
 30
0.0
 40
2.5
  1
7'-0"
 50
90.0
  7
MONOTXT
 72
     4
 11
196.173667
 21
224.231167
 31
0.0
210
0.0
220
0.0
230
1.0
  0
TEXT
  8
1
  6
CONTINUOUS
 62
     7
  5
5B5
 10
201.923667
 20
221.052083
 30
0.0
 40
2.5
  1
MIN.
 50
90.0
  7
MONOTXT
 72
     4
 11
200.673667
 21
224.23125
 31
0.0
210
0.0
220
0.0
230
1.0
  0
TEXT
  8
1
  6
CONTINUOUS
 62
     7
  5
5B6
 10
451.137833
 20
186.941833
 30
0.0
 40
2.5
  1
1'-3"
 50
90.0
  7
MONOTXT
 72
     4
 11
449.887833
 21
190.947667
 31
0.0
210
0.0
220
0.0
230
1.0
  0
TEXT
  8
1
  6
CONTINUOUS
 62
     7
  5
5B7
 10
455.637833
 20
187.768583
 30
0.0
 40
2.5
  1
MIN.
 50
90.0
  7
MONOTXT
 72
     4
 11
454.387833
 21
190.94775
 31
0.0
210
0.0
220
0.0
230
1.0
  0
LINE
  8
1
  6
CONTINUOUS
 62
     7
  5
5B8
 10
619.371417
 20
163.619667
 30
0.0
 11
619.371417
 21
159.631083
 31
0.0
  0
LINE
  8
1
  6
CONTINUOUS
 62
     7
  5
5B9
 10
619.371417
 20
159.631083
 30
0.0
 11
624.114083
 21
159.631083
 31
0.0
  0
INSERT
  8
1
  6
CONTINUOUS
 62
     1
  5
5BA
  2
LDR
 10
619.371417
 20
163.619667
 30
0.0
 41
240.0
 42
240.0
 50
90.0
210
0.0
220
0.0
230
1.0
  0
POLYLINE
  8
1
  6
CONTINUOUS
 62
     7
  5
5BB
 66
     1
 10
0.0
 20
0.0
 30
0.0
  0
VERTEX
  8
1
  6
CONTINUOUS
 62
     7
  5
5BC
 10
498.553167
 20
106.7635
 30
0.0
  0
VERTEX
  8
1
  6
CONTINUOUS
 62
     7
  5
5BD
 10
496.553167
 20
103.299417
 30
0.0
  0
VERTEX
  8
1
  6
CONTINUOUS
 62
     7
  5
5BE
 10
500.553167
 20
103.299417
 30
0.0
  0
VERTEX
  8
1
  6
CONTINUOUS
 62
     7
  5
5BF
 10
498.553167
 20
106.7635
 30
0.0
  0
SEQEND
  8
1
  6
CONTINUOUS
 62
     7
  5
5C0
  0
TEXT
  8
1
  6
CONTINUOUS
 62
     7
  5
5C1
 10
497.835667
 20
103.569667
 30
0.0
 40
2.0
  1
4
  7
MONOTXT
210
0.0
220
0.0
230
1.0
  0
TEXT
  8
1
  6
CONTINUOUS
 62
     7
  5
5C2
 10
501.378167
 20
103.87125
 30
0.0
 40
2.0
  1
ADDED UPHILL RQMNTS, REVISED RIB
  7
MONOTXT
210
0.0
220
0.0
230
1.0
  0
POLYLINE
  8
1
  6
CONTINUOUS
 62
     7
  5
5C3
 66
     1
 10
0.0
 20
0.0
 30
0.0
  0
VERTEX
  8
1
  6
CONTINUOUS
 62
     7
  5
5C4
 10
501.121583
 20
35.923667
 30
0.0
  0
VERTEX
  8
1
  6
CONTINUOUS
 62
     7
  5
5C5
 10
499.121583
 20
32.459583
 30
0.0
  0
VERTEX
  8
1
  6
CONTINUOUS
 62
     7
  5
5C6
 10
503.121583
 20
32.459583
 30
0.0
  0
VERTEX
  8
1
  6
CONTINUOUS
 62
     7
  5
5C7
 10
501.121583
 20
35.923667
 30
0.0
  0
SEQEND
  8
1
  6
CONTINUOUS
 62
     7
  5
5C8
  0
TEXT
  8
1
  6
CONTINUOUS
 62
     7
  5
5C9
 10
500.409
 20
32.664333
 30
0.0
 40
2.0
  1
4
  7
MONOTXT
210
0.0
220
0.0
230
1.0
  0
TEXT
  8
1
  6
CONTINUOUS
 62
     7
  5
5CA
 10
98.775583
 20
136.288083
 30
0.0
 40
5.0
  1
*
  7
MONOTXT
 72
     4
 11
99.740083
 21
138.788083
 31
0.0
210
0.0
220
0.0
230
1.0
  0
TEXT
  8
1
  6
CONTINUOUS
 62
     7
  5
5CB
 10
101.665167
 20
136.220333
 30
0.0
 40
5.0
  1
*
  7
MONOTXT
 72
     4
 11
102.629667
 21
138.720333
 31
0.0
210
0.0
220
0.0
230
1.0
  0
TEXT
  8
1
  6
CONTINUOUS
 62
     7
  5
5CC
 10
168.890167
 20
137.158667
 30
0.0
 40
5.0
  1
*
  7
MONOTXT
 72
     4
 11
169.854667
 21
139.658667
 31
0.0
210
0.0
220
0.0
230
1.0
  0
TEXT
  8
1
  6
CONTINUOUS
 62
     7
  5
5CD
 10
166.000583
 20
137.226417
 30
0.0
 40
5.0
  1
*
  7
MONOTXT
 72
     4
 11
166.965083
 21
139.726417
 31
0.0
210
0.0
220
0.0
230
1.0
  0
TEXT
  8
1
  6
CONTINUOUS
 62
     7
  5
5CE
 10
282.811083
 20
218.39275
 30
0.0
 40
5.0
  1
*
  7
MONOTXT
 72
     4
 11
283.775583
 21
220.89275
 31
0.0
210
0.0
220
0.0
230
1.0
  0
TEXT
  8
1
  6
CONTINUOUS
 62
     7
  5
5CF
 10
285.700667
 20
218.325
 30
0.0
 40
5.0
  1
*
  7
MONOTXT
 72
     4
 11
286.665167
 21
220.825
 31
0.0
210
0.0
220
0.0
230
1.0
  0
TEXT
  8
1
  6
CONTINUOUS
 62
     7
  5
5D0
 10
365.854667
 20
218.39275
 30
0.0
 40
5.0
  1
*
  7
MONOTXT
 72
     4
 11
366.819167
 21
220.89275
 31
0.0
210
0.0
220
0.0
230
1.0
  0
TEXT
  8
1
  6
CONTINUOUS
 62
     7
  5
5D1
 10
368.74425
 20
218.325
 30
0.0
 40
5.0
  1
*
  7
MONOTXT
 72
     4
 11
369.70875
 21
220.825
 31
0.0
210
0.0
220
0.0
230
1.0
  0
TEXT
  8
1
  6
CONTINUOUS
 62
     7
  5
5D2
 10
454.17875
 20
252.692083
 30
0.0
 40
5.0
  1
*
  7
MONOTXT
 72
     4
 11
455.14325
 21
255.192083
 31
0.0
210
0.0
220
0.0
230
1.0
  0
TEXT
  8
1
  6
CONTINUOUS
 62
     7
  5
5D3
 10
457.068333
 20
252.624333
 30
0.0
 40
5.0
  1
*
  7
MONOTXT
 72
     4
 11
458.032833
 21
255.124333
 31
0.0
210
0.0
220
0.0
230
1.0
  0
TEXT
  8
1
  6
CONTINUOUS
 62
     7
  5
5D4
 10
524.471833
 20
337.632667
 30
0.0
 40
5.0
  1
*
  7
MONOTXT
 72
     4
 11
525.436333
 21
340.132667
 31
0.0
210
0.0
220
0.0
230
1.0
  0
TEXT
  8
1
  6
CONTINUOUS
 62
     7
  5
5D5
 10
527.361417
 20
337.564917
 30
0.0
 40
5.0
  1
*
  7
MONOTXT
 72
     4
 11
528.325917
 21
340.064917
 31
0.0
210
0.0
220
0.0
230
1.0
  0
TEXT
  8
1
  6
CONTINUOUS
 62
     7
  5
5D6
 10
531.908917
 20
338.879917
 30
0.0
 40
2.5
  1
- FOR FOOTING DETAILS SEE TE1-3C
  7
MONOTXT
 11
531.908917
 21
341.379917
 31
0.0
210
0.0
220
0.0
230
1.0
 73
     3
  0
ENDSEC
  0
EOF
