  0
SECTION
  2
HEADER
  9
$ACADVER
  1
AC1009
  9
$INSBASE
 10
0.0
 20
0.0
 30
0.0
  9
$EXTMIN
 10
-44.614333
 20
-362.410833
 30
0.0
  9
$EXTMAX
 10
615.717083
 20
60.729167
 30
0.0
  9
$LIMMIN
 10
0.0
 20
0.0
  9
$LIMMAX
 10
12.0
 20
9.0
  9
$ORTHOMODE
 70
     0
  9
$REGENMODE
 70
     1
  9
$FILLMODE
 70
     1
  9
$QTEXTMODE
 70
     0
  9
$MIRRTEXT
 70
     1
  9
$DRAGMODE
 70
     2
  9
$LTSCALE
 40
1.0
  9
$OSMODE
 70
     0
  9
$ATTMODE
 70
     1
  9
$TEXTSIZE
 40
0.2
  9
$TRACEWID
 40
0.05
  9
$TEXTSTYLE
  7
STANDARD
  9
$CLAYER
  8
0
  9
$CELTYPE
  6
CONTINUOUS
  9
$CECOLOR
 62
   256
  9
$DIMSCALE
 40
1.0
  9
$DIMASZ
 40
0.18
  9
$DIMEXO
 40
0.0625
  9
$DIMDLI
 40
0.38
  9
$DIMRND
 40
0.0
  9
$DIMDLE
 40
0.0
  9
$DIMEXE
 40
0.18
  9
$DIMTP
 40
0.0
  9
$DIMTM
 40
0.0
  9
$DIMTXT
 40
0.18
  9
$DIMCEN
 40
0.09
  9
$DIMTSZ
 40
0.0
  9
$DIMTOL
 70
     0
  9
$DIMLIM
 70
     0
  9
$DIMTIH
 70
     1
  9
$DIMTOH
 70
     1
  9
$DIMSE1
 70
     0
  9
$DIMSE2
 70
     0
  9
$DIMTAD
 70
     0
  9
$DIMZIN
 70
     0
  9
$DIMBLK
  1

  9
$DIMASO
 70
     1
  9
$DIMSHO
 70
     1
  9
$DIMPOST
  1

  9
$DIMAPOST
  1

  9
$DIMALT
 70
     0
  9
$DIMALTD
 70
     2
  9
$DIMALTF
 40
25.4
  9
$DIMLFAC
 40
1.0
  9
$DIMTOFL
 70
     0
  9
$DIMTVP
 40
0.0
  9
$DIMTIX
 70
     0
  9
$DIMSOXD
 70
     0
  9
$DIMSAH
 70
     0
  9
$DIMBLK1
  1

  9
$DIMBLK2
  1

  9
$DIMSTYLE
  2
STANDARD
  9
$DIMCLRD
 70
     0
  9
$DIMCLRE
 70
     0
  9
$DIMCLRT
 70
     0
  9
$DIMTFAC
 40
1.0
  9
$DIMGAP
 40
0.09
  9
$LUNITS
 70
     2
  9
$LUPREC
 70
     4
  9
$AXISMODE
 70
     0
  9
$AXISUNIT
 10
0.0
 20
0.0
  9
$SKETCHINC
 40
0.1
  9
$FILLETRAD
 40
0.0
  9
$AUNITS
 70
     0
  9
$AUPREC
 70
     0
  9
$MENU
  1
acad
  9
$ELEVATION
 40
0.0
  9
$PELEVATION
 40
0.0
  9
$THICKNESS
 40
0.0
  9
$LIMCHECK
 70
     0
  9
$BLIPMODE
 70
     1
  9
$CHAMFERA
 40
0.0
  9
$CHAMFERB
 40
0.0
  9
$SKPOLY
 70
     0
  9
$TDCREATE
 40
2451803.393865741
  9
$TDUPDATE
 40
2451803.393865741
  9
$TDINDWG
 40
0.0000000000
  9
$TDUSRTIMER
 40
0.0000000000
  9
$USRTIMER
 70
     1
  9
$ANGBASE
 50
0.0
  9
$ANGDIR
 70
     0
  9
$PDMODE
 70
     0
  9
$PDSIZE
 40
0.0
  9
$PLINEWID
 40
0.0
  9
$COORDS
 70
     0
  9
$SPLFRAME
 70
     0
  9
$SPLINETYPE
 70
     6
  9
$SPLINESEGS
 70
    10
  9
$ATTDIA
 70
     0
  9
$ATTREQ
 70
     1
  9
$HANDLING
 70
     1
  9
$HANDSEED
  5
79A
  9
$SURFTAB1
 70
     6
  9
$SURFTAB2
 70
     6
  9
$SURFTYPE
 70
     6
  9
$SURFU
 70
     6
  9
$SURFV
 70
     6
  9
$UCSNAME
  2

  9
$UCSORG
 10
0.0
 20
0.0
 30
0.0
  9
$UCSXDIR
 10
1.0
 20
0.0
 30
0.0
  9
$UCSYDIR
 10
0.0
 20
1.0
 30
0.0
  9
$PUCSNAME
  2

  9
$PUCSORG
 10
0.0
 20
0.0
 30
0.0
  9
$PUCSXDIR
 10
1.0
 20
0.0
 30
0.0
  9
$PUCSYDIR
 10
0.0
 20
1.0
 30
0.0
  9
$USERI1
 70
     0
  9
$USERI2
 70
     0
  9
$USERI3
 70
     0
  9
$USERI4
 70
     0
  9
$USERI5
 70
     0
  9
$USERR1
 40
0.0
  9
$USERR2
 40
0.0
  9
$USERR3
 40
0.0
  9
$USERR4
 40
0.0
  9
$USERR5
 40
0.0
  9
$WORLDVIEW
 70
     1
  9
$SHADEDGE
 70
     3
  9
$SHADEDIF
 70
    70
  9
$TILEMODE
 70
     1
  9
$MAXACTVP
 70
    16
  9
$PINSBASE
 10
0.0
 20
0.0
 30
0.0
  9
$PLIMCHECK
 70
     0
  9
$PEXTMIN
 10
-1.000000E+20
 20
-1.000000E+20
 30
-1.000000E+20
  9
$PEXTMAX
 10
-1.000000E+20
 20
-1.000000E+20
 30
-1.000000E+20
  9
$PLIMMIN
 10
0.0
 20
0.0
  9
$PLIMMAX
 10
12.0
 20
9.0
  9
$UNITMODE
 70
     0
  9
$VISRETAIN
 70
     0
  9
$PLINEGEN
 70
     1
  9
$PSLTSCALE
 70
     0
  9
$TREEDEPTH
 70
  3020
  9
$DWGCODEPAGE
  3
ansi_1252
  0
ENDSEC
  0
SECTION
  2
TABLES
  0
TABLE
  2
VPORT
 70
     1
  0
VPORT
  2
*ACTIVE
 70
     0
 10
0.0
 20
0.0
 11
1.0
 21
1.0
 12
0.0
 22
0.0
 13
0.0
 23
0.0
 14
0.0
 24
0.0
 15
0.0
 25
0.0
 16
0.0
 26
0.0
 36
1.0
 17
240.684133
 27
-149.290833
 37
0.0
 40
451.041
 41
1.795122
 42
50.0
 43
0.0
 44
0.0
 50
0.0
 51
0.0
 71
     0
 72
   100
 73
     1
 74
     0
 75
     0
 76
     0
 77
     0
 78
     0
  0
ENDTAB
  0
TABLE
  2
LTYPE
 70
     7
  0
LTYPE
  2
CONTINUOUS
 70
     0
  3
Solid line
 72
    65
 73
     0
 40
0.0
  0
LTYPE
  2
DOT
 70
    64
  3
. . . . . . . . . . . . . . . . . . . . . . . . . . . . . . . . .
 72
    65
 73
     2
 40
0.25
 49
0.0
 49
-0.25
  0
LTYPE
  2
HIDDEN
 70
    64
  3
__ __ __ __ __ __ __ __ __ __ __ __ __ __ __ __ __ __ __ __ __ 
 72
    65
 73
     2
 40
0.375
 49
0.25
 49
-0.125
  0
LTYPE
  2
DASHED
 70
    64
  3
__ __ __ __ __ __ __ __ __ __ __ __ __ __ __ __ __ __ __ __ __
 72
    65
 73
     2
 40
0.75
 49
0.5
 49
-0.25
  0
LTYPE
  2
DASHDOT
 70
    64
  3
__ . __ . __ . __ . __ . __ . __ . __ . __ . __ . __ . __ . _
 72
    65
 73
     4
 40
1.0
 49
0.5
 49
-0.25
 49
0.0
 49
-0.25
  0
LTYPE
  2
DIVIDE
 70
    64
  3
____ . . ____ . . ____ . . ____ . . ____ . . ____ . . ____ . .
 72
    65
 73
     6
 40
1.25
 49
0.5
 49
-0.25
 49
0.0
 49
-0.25
 49
0.0
 49
-0.25
  0
LTYPE
  2
CENTER
 70
    64
  3
____ _ ____ _ ____ _ ____ _ ____ _ ____ _ ____ _ ____ _ ____ _
 72
    65
 73
     4
 40
2.0
 49
1.25
 49
-0.25
 49
0.25
 49
-0.25
  0
ENDTAB
  0
TABLE
  2
LAYER
 70
     5
  0
LAYER
  2
0
 70
     0
 62
     7
  6
CONTINUOUS
  0
LAYER
  2
CONSTRUCTION_CLASS
 70
     0
 62
     7
  6
CONTINUOUS
  0
LAYER
  2
PATTERN_CLASS
 70
     0
 62
     7
  6
CONTINUOUS
  0
LAYER
  2
61
 70
    64
 62
     7
  6
CONTINUOUS
  0
LAYER
  2
1
 70
    64
 62
     7
  6
CONTINUOUS
  0
ENDTAB
  0
TABLE
  2
STYLE
 70
     4
  0
STYLE
  2
STANDARD
 70
     0
 40
0.0
 41
1.0
 50
0.0
 71
     0
 42
0.0
  3
txt
  4

  0
STYLE
  2
MONOTXT
 70
     0
 40
0.2
 41
1.0
 50
0.0
 71
     0
 42
0.2
  3
MONOTXT
  4

  0
STYLE
  2
txt
 70
     0
 40
0.2
 41
1.0
 50
0.0
 71
     0
 42
0.2
  3
TXT
  4

  0
STYLE
  2
ROMANT
 70
     0
 40
0.2
 41
1.0
 50
0.0
 71
     0
 42
0.2
  3
ROMANT
  4

  0
ENDTAB
  0
TABLE
  2
VIEW
 70
     0
  0
ENDTAB
  0
TABLE
  2
UCS
 70
     0
  0
ENDTAB
  0
TABLE
  2
APPID
 70
     1
  0
APPID
  2
ACAD
 70
     0
  0
ENDTAB
  0
TABLE
  2
DIMSTYLE
 70
     1
  0
DIMSTYLE
  2
STANDARD
 70
     0
  3

  4

  5

  6

  7

 40
1.0
 41
0.18
 42
0.0625
 43
0.38
 44
0.18
 45
0.0
 46
0.0
 47
0.0
 48
0.0
140
0.18
141
0.09
142
0.0
143
25.4
144
1.0
145
0.0
146
1.0
147
0.09
 71
     0
 72
     0
 73
     1
 74
     1
 75
     0
 76
     0
 77
     0
 78
     0
170
     0
171
     2
172
     0
173
     0
174
     0
175
     0
176
     0
177
     0
178
     0
  0
ENDTAB
  0
ENDSEC
  0
SECTION
  2
BLOCKS
  0
BLOCK
  8
1
  6
CONTINUOUS
 62
     1
  5
644
  2
LDR
 70
     0
 10
0.0
 20
0.0
 30
0.0
  3
LNR
  0
POLYLINE
  8
1
  6
CONTINUOUS
 62
     1
  5
645
 66
     1
 10
0.0
 20
0.0
 30
0.0
210
0.0
220
0.0
230
1.0
  0
VERTEX
  8
1
  6
CONTINUOUS
 62
     1
  5
646
 10
-0.011987
 20
-0.001802
 30
0.0
 42
-0.265147
  0
VERTEX
  8
1
  6
CONTINUOUS
 62
     1
  5
647
 10
-0.011849
 20
-0.001604
 30
0.0
 42
-0.064653
  0
VERTEX
  8
1
  6
CONTINUOUS
 62
     1
  5
648
 10
-0.011407
 20
-0.001387
 30
0.0
 42
-0.025822
  0
VERTEX
  8
1
  6
CONTINUOUS
 62
     1
  5
649
 10
-0.010681
 20
-0.00116
 30
0.0
 42
-0.014504
  0
VERTEX
  8
1
  6
CONTINUOUS
 62
     1
  5
64A
 10
-0.0097
 20
-0.000933
 30
0.0
 42
-0.009896
  0
VERTEX
  8
1
  6
CONTINUOUS
 62
     1
  5
64B
 10
-0.008505
 20
-0.000715
 30
0.0
 42
-0.007708
  0
VERTEX
  8
1
  6
CONTINUOUS
 62
     1
  5
64C
 10
-0.007146
 20
-0.000515
 30
0.0
 42
-0.006655
  0
VERTEX
  8
1
  6
CONTINUOUS
 62
     1
  5
64D
 10
-0.005679
 20
-0.000342
 30
0.0
 42
-0.006278
  0
VERTEX
  8
1
  6
CONTINUOUS
 62
     1
  5
64E
 10
-0.004164
 20
-0.000202
 30
0.0
 42
-0.006439
  0
VERTEX
  8
1
  6
CONTINUOUS
 62
     1
  5
64F
 10
-0.002666
 20
-0.000101
 30
0.0
 42
-0.007196
  0
VERTEX
  8
1
  6
CONTINUOUS
 62
     1
  5
650
 10
-0.001246
 20
-0.000044
 30
0.0
 42
-0.008852
  0
VERTEX
  8
1
  6
CONTINUOUS
 62
     1
  5
651
 10
0.000037
 20
-0.000034
 30
0.0
 42
-0.008852
  0
SEQEND
  8
1
  6
CONTINUOUS
 62
     1
  5
652
  0
POLYLINE
  8
1
  6
CONTINUOUS
 62
     1
  5
653
 66
     1
 10
0.0
 20
0.0
 30
0.0
210
0.0
220
0.0
230
1.0
  0
VERTEX
  8
1
  6
CONTINUOUS
 62
     1
  5
654
 10
0.000039
 20
0.000014
 30
0.0
 42
-0.005019
  0
VERTEX
  8
1
  6
CONTINUOUS
 62
     1
  5
655
 10
-0.001103
 20
0.000071
 30
0.0
 42
-0.004038
  0
VERTEX
  8
1
  6
CONTINUOUS
 62
     1
  5
656
 10
-0.002373
 20
0.000158
 30
0.0
 42
-0.003548
  0
VERTEX
  8
1
  6
CONTINUOUS
 62
     1
  5
657
 10
-0.003725
 20
0.00027
 30
0.0
 42
-0.003367
  0
VERTEX
  8
1
  6
CONTINUOUS
 62
     1
  5
658
 10
-0.005111
 20
0.000405
 30
0.0
 42
-0.003436
  0
VERTEX
  8
1
  6
CONTINUOUS
 62
     1
  5
659
 10
-0.006481
 20
0.000556
 30
0.0
 42
-0.003778
  0
VERTEX
  8
1
  6
CONTINUOUS
 62
     1
  5
65A
 10
-0.007786
 20
0.00072
 30
0.0
 42
-0.00451
  0
VERTEX
  8
1
  6
CONTINUOUS
 62
     1
  5
65B
 10
-0.008979
 20
0.000889
 30
0.0
 42
-0.00594
  0
VERTEX
  8
1
  6
CONTINUOUS
 62
     1
  5
65C
 10
-0.010018
 20
0.001058
 30
0.0
 42
-0.008921
  0
VERTEX
  8
1
  6
CONTINUOUS
 62
     1
  5
65D
 10
-0.010864
 20
0.00122
 30
0.0
 42
-0.016392
  0
VERTEX
  8
1
  6
CONTINUOUS
 62
     1
  5
65E
 10
-0.011488
 20
0.001371
 30
0.0
 42
-0.04458
  0
VERTEX
  8
1
  6
CONTINUOUS
 62
     1
  5
65F
 10
-0.011867
 20
0.001503
 30
0.0
 42
-0.317392
  0
VERTEX
  8
1
  6
CONTINUOUS
 62
     1
  5
660
 10
-0.011987
 20
0.001614
 30
0.0
 42
-0.317392
  0
SEQEND
  8
1
  6
CONTINUOUS
 62
     1
  5
661
  0
ENDBLK
  8
1
  6
CONTINUOUS
 62
     1
  5
662
  0
ENDSEC
  0
SECTION
  2
ENTITIES
  0
LINE
  8
61
  6
CONTINUOUS
 62
     1
  5
29
 10
615.507833
 20
60.729167
 30
0.0
 11
-23.532167
 21
60.729167
 31
0.0
  0
LINE
  8
61
  6
CONTINUOUS
 62
     1
  5
2A
 10
-23.532167
 20
60.729167
 30
0.0
 11
-23.532167
 21
-359.290833
 31
0.0
  0
LINE
  8
61
  6
CONTINUOUS
 62
     1
  5
2B
 10
615.527833
 20
-359.310833
 30
0.0
 11
-23.532167
 21
-359.290833
 31
0.0
  0
LINE
  8
61
  6
CONTINUOUS
 62
     1
  5
2C
 10
615.507833
 20
60.729167
 30
0.0
 11
615.527833
 21
-359.310833
 31
0.0
  0
LINE
  8
61
  6
CONTINUOUS
 62
     1
  5
2D
 10
609.407833
 20
55.989167
 30
0.0
 11
501.427833
 21
55.969167
 31
0.0
  0
LINE
  8
61
  6
CONTINUOUS
 62
     1
  5
2E
 10
501.427833
 20
55.969167
 30
0.0
 11
501.427833
 21
35.969167
 31
0.0
  0
LINE
  8
61
  6
CONTINUOUS
 62
     1
  5
2F
 10
609.407833
 20
55.989167
 30
0.0
 11
609.407833
 21
35.989167
 31
0.0
  0
LINE
  8
61
  6
CONTINUOUS
 62
     1
  5
30
 10
609.407833
 20
35.989167
 30
0.0
 11
501.427833
 21
35.969167
 31
0.0
  0
LINE
  8
61
  6
CONTINUOUS
 62
     1
  5
31
 10
609.427833
 20
45.949167
 30
0.0
 11
501.407833
 21
45.969167
 31
0.0
  0
LINE
  8
61
  6
CONTINUOUS
 62
     1
  5
32
 10
511.427833
 20
55.969167
 30
0.0
 11
511.427833
 21
35.969167
 31
0.0
  0
LINE
  8
61
  6
CONTINUOUS
 62
     1
  5
33
 10
521.427833
 20
55.969167
 30
0.0
 11
521.427833
 21
35.969167
 31
0.0
  0
LINE
  8
61
  6
CONTINUOUS
 62
     1
  5
34
 10
535.107833
 20
55.969167
 30
0.0
 11
535.107833
 21
35.969167
 31
0.0
  0
LINE
  8
61
  6
CONTINUOUS
 62
     1
  5
35
 10
599.407833
 20
55.989167
 30
0.0
 11
599.407833
 21
35.989167
 31
0.0
  0
LINE
  8
61
  6
CONTINUOUS
 62
     1
  5
36
 10
589.407833
 20
55.989167
 30
0.0
 11
589.407833
 21
35.989167
 31
0.0
  0
LINE
  8
61
  6
CONTINUOUS
 62
     1
  5
37
 10
567.427833
 20
55.969167
 30
0.0
 11
567.427833
 21
35.969167
 31
0.0
  0
LINE
  8
61
  6
CONTINUOUS
 62
     1
  5
38
 10
557.427833
 20
55.969167
 30
0.0
 11
557.427833
 21
35.969167
 31
0.0
  0
TEXT
  8
61
  6
CONTINUOUS
 62
     1
  5
3A
 10
503.467833
 20
52.949167
 30
0.0
 40
1.20075
  1
PUBLIC
 50
0.033272
 41
1.001804
  7
MONOTXT
210
0.0
220
0.0
230
1.0
  0
TEXT
  8
61
  6
CONTINUOUS
 62
     1
  5
3B
 10
503.547833
 20
50.429167
 30
0.0
 40
1.20075
  1
ROADS
 50
0.124322
 41
0.996877
  7
MONOTXT
210
0.0
220
0.0
230
1.0
  0
TEXT
  8
61
  6
CONTINUOUS
 62
     1
  5
3C
 10
504.747833
 20
47.929167
 30
0.0
 40
1.20075
  1
DIV.
 50
359.931522
 41
0.994864
  7
MONOTXT
210
0.0
220
0.0
230
1.0
  0
TEXT
  8
61
  6
CONTINUOUS
 62
     1
  5
3D
 10
513.627833
 20
53.009167
 30
0.0
 40
1.20075
  1
STATE
 50
0.058969
 41
0.998196
  7
MONOTXT
210
0.0
220
0.0
230
1.0
  0
TEXT
  8
61
  6
CONTINUOUS
 62
     1
  5
3E
 10
514.507833
 20
50.509167
 30
0.0
 40
1.20075
  1
DIST.
 50
0.055889
 41
0.999584
  7
MONOTXT
210
0.0
220
0.0
230
1.0
  0
TEXT
  8
61
  6
CONTINUOUS
 62
     1
  5
3F
 10
515.087833
 20
47.989167
 30
0.0
 40
1.20075
  1
NO.
 50
359.852072
 41
0.997779
  7
MONOTXT
210
0.0
220
0.0
230
1.0
  0
TEXT
  8
61
  6
CONTINUOUS
 62
     1
  5
40
 10
525.627833
 20
52.949167
 30
0.0
 40
1.20075
  1
STATE
 50
0.058969
 41
0.998196
  7
MONOTXT
210
0.0
220
0.0
230
1.0
  0
TEXT
  8
61
  6
CONTINUOUS
 62
     1
  5
41
 10
524.547833
 20
50.529167
 30
0.0
 40
1.20075
  1
PROJECT
 50
359.908431
 41
1.000069
  7
MONOTXT
210
0.0
220
0.0
230
1.0
  0
TEXT
  8
61
  6
CONTINUOUS
 62
     1
  5
42
 10
527.287833
 20
47.989167
 30
0.0
 40
1.20075
  1
NO.
 50
0.225453
 41
0.993546
  7
MONOTXT
210
0.0
220
0.0
230
1.0
  0
TEXT
  8
61
  6
CONTINUOUS
 62
     1
  5
43
 10
542.927833
 20
51.829167
 30
0.0
 40
1.20075
  1
FEDERAL
 50
0.006714
 41
0.998543
  7
MONOTXT
210
0.0
220
0.0
230
1.0
  0
TEXT
  8
61
  6
CONTINUOUS
 62
     1
  5
44
 10
541.387833
 20
49.169167
 30
0.0
 40
1.20075
  1
PROJECT NO.
 50
359.921531
 41
1.000694
  7
MONOTXT
210
0.0
220
0.0
230
1.0
  0
TEXT
  8
61
  6
CONTINUOUS
 62
     1
  5
45
 10
559.667833
 20
51.769167
 30
0.0
 40
1.20075
  1
FISCAL
 50
359.941939
 41
0.998959
  7
MONOTXT
210
0.0
220
0.0
230
1.0
  0
TEXT
  8
61
  6
CONTINUOUS
 62
     1
  5
46
 10
560.187833
 20
48.869167
 30
0.0
 40
1.20075
  1
YEAR
 50
0.104606
 41
0.993268
  7
MONOTXT
210
0.0
220
0.0
230
1.0
  0
TEXT
  8
61
  6
CONTINUOUS
 62
     1
  5
47
 10
574.287833
 20
50.229167
 30
0.0
 40
1.20075
  1
COUNTY
 50
0.068575
 41
1.001874
  7
MONOTXT
210
0.0
220
0.0
230
1.0
  0
TEXT
  8
61
  6
CONTINUOUS
 62
     1
  5
48
 10
591.927833
 20
51.889167
 30
0.0
 40
1.20075
  1
SHEET
 50
0.058969
 41
0.997571
  7
MONOTXT
210
0.0
220
0.0
230
1.0
  0
TEXT
  8
61
  6
CONTINUOUS
 62
     1
  5
49
 10
593.347833
 20
49.169167
 30
0.0
 40
1.20075
  1
NO.
 50
359.852072
 41
0.997779
  7
MONOTXT
210
0.0
220
0.0
230
1.0
  0
TEXT
  8
61
  6
CONTINUOUS
 62
     1
  5
4A
 10
601.667833
 20
51.749167
 30
0.0
 40
1.20075
  1
TOTAL
 50
359.926039
 41
0.998543
  7
MONOTXT
210
0.0
220
0.0
230
1.0
  0
TEXT
  8
61
  6
CONTINUOUS
 62
     1
  5
4B
 10
601.207833
 20
49.049167
 30
0.0
 40
1.20075
  1
SHEETS
 50
359.958675
  7
MONOTXT
210
0.0
220
0.0
230
1.0
  0
TEXT
  8
61
  6
CONTINUOUS
 62
     1
  5
4C
 10
514.027833
 20
40.169167
 30
0.0
 40
2.401333
  1
  
 50
0.029406
 41
0.996495
  7
MONOTXT
210
0.0
220
0.0
230
1.0
  0
TEXT
  8
61
  6
CONTINUOUS
 62
     1
  5
4D
 10
591.207833
 20
39.889167
 30
0.0
 40
2.401333
  1
   
 50
0.011508
 41
1.001006
  7
MONOTXT
210
0.0
220
0.0
230
1.0
  0
TEXT
  8
61
  6
CONTINUOUS
 62
     1
  5
4E
 10
601.087833
 20
39.869167
 30
0.0
 40
2.401333
  1
   
 50
359.922128
 41
1.000555
  7
MONOTXT
210
0.0
220
0.0
230
1.0
  0
TEXT
  8
61
  6
CONTINUOUS
 62
     1
  5
4F
 10
524.467833
 20
43.269167
 30
0.0
 40
2.00675
  1
    
 50
0.054383
 41
0.993729
  7
MONOTXT
210
0.0
220
0.0
230
1.0
  0
TEXT
  8
61
  6
CONTINUOUS
 62
     1
  5
50
 10
521.547833
 20
40.249167
 30
0.0
 40
1.989583
  1
       
 50
0.064678
 41
1.000963
  7
MONOTXT
210
0.0
220
0.0
230
1.0
  0
TEXT
  8
61
  6
CONTINUOUS
 62
     1
  5
51
 10
522.507833
 20
37.349167
 30
0.0
 40
1.989583
  1
      
 50
359.958053
 41
1.000293
  7
MONOTXT
210
0.0
220
0.0
230
1.0
  0
TEXT
  8
61
  6
CONTINUOUS
 62
     1
  5
52
 10
533.467833
 20
41.989167
 30
0.0
 40
2.401333
  1
           
 50
0.011508
 41
0.998751
  7
MONOTXT
210
0.0
220
0.0
230
1.0
  0
TEXT
  8
61
  6
CONTINUOUS
 62
     1
  5
53
 10
533.347833
 20
38.329167
 30
0.0
 40
2.401333
  1
           
 50
0.011508
 41
0.999584
  7
MONOTXT
210
0.0
220
0.0
230
1.0
  0
TEXT
  8
61
  6
CONTINUOUS
 62
     1
  5
54
 10
568.687833
 20
40.069167
 30
0.0
 40
2.00675
  1
          
 50
0.009222
 41
0.992774
  7
MONOTXT
210
0.0
220
0.0
230
1.0
  0
ARC
  8
61
  6
CONTINUOUS
 62
     1
  5
55
 10
-41.83441
 20
-28.029538
 30
0.0
 40
2.499998
 50
323.130094
 51
316.232156
210
0.0
220
0.0
230
1.0
  0
ARC
  8
61
  6
CONTINUOUS
 62
     1
  5
56
 10
-41.83441
 20
-83.029538
 30
0.0
 40
2.499998
 50
323.130094
 51
315.375767
210
0.0
220
0.0
230
1.0
  0
ARC
  8
61
  6
CONTINUOUS
 62
     1
  5
57
 10
-42.11441
 20
-231.469538
 30
0.0
 40
2.499998
 50
322.671753
 51
321.716147
210
0.0
220
0.0
230
1.0
  0
ARC
  8
61
  6
CONTINUOUS
 62
     1
  5
58
 10
-42.11441
 20
-286.469538
 30
0.0
 40
2.499998
 50
323.130094
 51
312.314392
210
0.0
220
0.0
230
1.0
  0
LINE
  8
61
  6
CONTINUOUS
 62
     1
  5
59
 10
-39.812167
 20
-28.030833
 30
0.0
 11
-31.832167
 21
-28.010833
 31
0.0
  0
LINE
  8
61
  6
CONTINUOUS
 62
     1
  5
5A
 10
-39.832167
 20
-83.030833
 30
0.0
 11
-31.832167
 21
-83.030833
 31
0.0
  0
LINE
  8
61
  6
CONTINUOUS
 62
     1
  5
5B
 10
-40.112167
 20
-231.450833
 30
0.0
 11
-32.112167
 21
-231.450833
 31
0.0
  0
LINE
  8
61
  6
CONTINUOUS
 62
     1
  5
5C
 10
-40.092167
 20
-286.470833
 30
0.0
 11
-32.112167
 21
-286.470833
 31
0.0
  0
TEXT
  8
61
  6
CONTINUOUS
 62
     1
  5
5D
 10
588.947833
 20
28.149167
 30
0.0
 40
2.401333
  1
     
 41
1.001388
  7
MONOTXT
210
0.0
220
0.0
230
1.0
  0
TEXT
  8
1
  6
CONTINUOUS
 62
     1
  5
60
 10
581.247833
 20
-361.810833
 30
0.0
 40
1.2
  1
TRAFFIC ENGINEERING DIVISION
  7
txt
210
0.0
220
0.0
230
1.0
  0
LINE
  8
1
  6
CONTINUOUS
 62
     1
  5
61
 10
443.867833
 20
-359.310833
 30
0.0
 11
443.867833
 21
-267.730833
 31
0.0
  0
LINE
  8
1
  6
CONTINUOUS
 62
     1
  5
62
 10
443.867833
 20
-267.730833
 30
0.0
 11
615.527833
 21
-267.730833
 31
0.0
  0
LINE
  8
1
  6
CONTINUOUS
 62
     1
  5
63
 10
478.867833
 20
-359.350833
 30
0.0
 11
478.867833
 21
-314.390833
 31
0.0
  0
LINE
  8
1
  6
CONTINUOUS
 62
     1
  5
64
 10
478.867833
 20
-314.390833
 30
0.0
 11
443.887833
 21
-314.390833
 31
0.0
  0
LINE
  8
1
  6
CONTINUOUS
 62
     1
  5
65
 10
478.867833
 20
-318.870833
 30
0.0
 11
443.887833
 21
-318.870833
 31
0.0
  0
LINE
  8
1
  6
CONTINUOUS
 62
     1
  5
66
 10
478.867833
 20
-323.370833
 30
0.0
 11
443.887833
 21
-323.370833
 31
0.0
  0
LINE
  8
1
  6
CONTINUOUS
 62
     1
  5
67
 10
478.867833
 20
-327.870833
 30
0.0
 11
443.887833
 21
-327.870833
 31
0.0
  0
LINE
  8
1
  6
CONTINUOUS
 62
     1
  5
68
 10
478.867833
 20
-332.390833
 30
0.0
 11
443.887833
 21
-332.390833
 31
0.0
  0
LINE
  8
1
  6
CONTINUOUS
 62
     1
  5
69
 10
478.867833
 20
-336.870833
 30
0.0
 11
443.887833
 21
-336.870833
 31
0.0
  0
LINE
  8
1
  6
CONTINUOUS
 62
     1
  5
6A
 10
478.867833
 20
-341.350833
 30
0.0
 11
443.887833
 21
-341.350833
 31
0.0
  0
LINE
  8
1
  6
CONTINUOUS
 62
     1
  5
6B
 10
478.867833
 20
-345.850833
 30
0.0
 11
443.887833
 21
-345.850833
 31
0.0
  0
LINE
  8
1
  6
CONTINUOUS
 62
     1
  5
6C
 10
478.867833
 20
-350.350833
 30
0.0
 11
443.887833
 21
-350.350833
 31
0.0
  0
LINE
  8
1
  6
CONTINUOUS
 62
     1
  5
6D
 10
478.867833
 20
-354.870833
 30
0.0
 11
443.887833
 21
-354.870833
 31
0.0
  0
TEXT
  8
1
  6
CONTINUOUS
 62
     1
  5
6E
 10
454.147833
 20
-317.390833
 30
0.0
 40
1.99775
  1
REVISIONS
  7
MONOTXT
210
0.0
220
0.0
230
1.0
  0
TEXT
  8
1
  6
CONTINUOUS
 62
     1
  5
6F
 10
445.827833
 20
-313.390833
 30
0.0
 40
1.99775
  1
PREPARED: 04/00/73
  7
MONOTXT
210
0.0
220
0.0
230
1.0
  0
TEXT
  8
1
  6
CONTINUOUS
 62
     1
  5
71
 10
476.487833
 20
-276.330833
 30
0.0
 40
4.794833
  1
WEST VIRGINIA DIVISION OF HIGHWAYS
  7
ROMANT
 72
     1
 11
530.458083
 21
-271.536
 31
0.0
210
0.0
220
0.0
230
1.0
 73
     3
  0
TEXT
  8
1
  6
CONTINUOUS
 62
     1
  5
72
 10
487.247833
 20
-287.490833
 30
0.0
 40
6.992667
  1
STANDARD DETAIL
  7
txt
 72
     1
 11
531.737917
 21
-280.498167
 31
0.0
210
0.0
220
0.0
230
1.0
 73
     3
  0
TEXT
  8
1
  6
CONTINUOUS
 62
     1
  5
73
 10
482.707833
 20
-355.270833
 30
0.0
 40
6.992667
  1
STANDARD SHEET TE16-1
  7
txt
210
0.0
220
0.0
230
1.0
  0
TEXT
  8
1
  6
CONTINUOUS
 62
     1
  5
74
 10
454.884333
 20
-322.450833
 30
0.0
 40
2.0
  1
11-15-76
  7
MONOTXT
 72
     1
 11
460.845
 21
-320.450833
 31
0.0
210
0.0
220
0.0
230
1.0
 73
     3
  0
TEXT
  8
1
  6
CONTINUOUS
 62
     1
  5
75
 10
454.077
 20
-326.850833
 30
0.0
 40
2.0
  1
09-21-93
  7
MONOTXT
 72
     1
 11
460.825167
 21
-324.850833
 31
0.0
210
0.0
220
0.0
230
1.0
 73
     3
  0
TEXT
  8
1
  6
CONTINUOUS
 62
     1
  5
76
 10
453.167833
 20
-331.250833
 30
0.0
 40
2.0
  1
        
  7
MONOTXT
 72
     1
 11
460.834667
 21
-329.250833
 31
0.0
210
0.0
220
0.0
230
1.0
 73
     3
  0
TEXT
  8
1
  6
CONTINUOUS
 62
     1
  5
77
 10
453.167833
 20
-335.650833
 30
0.0
 40
2.0
  1
        
  7
MONOTXT
 72
     1
 11
460.834667
 21
-333.650833
 31
0.0
210
0.0
220
0.0
230
1.0
 73
     3
  0
TEXT
  8
1
  6
CONTINUOUS
 62
     1
  5
78
 10
453.007833
 20
-340.250833
 30
0.0
 40
2.0
  1
        
  7
MONOTXT
 72
     1
 11
460.674667
 21
-338.250833
 31
0.0
210
0.0
220
0.0
230
1.0
 73
     3
  0
TEXT
  8
1
  6
CONTINUOUS
 62
     1
  5
79
 10
453.167833
 20
-344.730833
 30
0.0
 40
2.0
  1
        
  7
MONOTXT
 72
     1
 11
460.834667
 21
-342.730833
 31
0.0
210
0.0
220
0.0
230
1.0
 73
     3
  0
TEXT
  8
1
  6
CONTINUOUS
 62
     1
  5
7A
 10
453.067833
 20
-349.330833
 30
0.0
 40
2.0
  1
        
  7
MONOTXT
 72
     1
 11
460.734667
 21
-347.330833
 31
0.0
210
0.0
220
0.0
230
1.0
 73
     3
  0
TEXT
  8
1
  6
CONTINUOUS
 62
     1
  5
7B
 10
453.167833
 20
-353.910833
 30
0.0
 40
2.0
  1
        
  7
MONOTXT
 72
     1
 11
460.834667
 21
-351.910833
 31
0.0
210
0.0
220
0.0
230
1.0
 73
     3
  0
TEXT
  8
1
  6
CONTINUOUS
 62
     1
  5
7C
 10
453.167833
 20
-357.930833
 30
0.0
 40
2.0
  1
        
  7
MONOTXT
 72
     1
 11
460.834667
 21
-355.930833
 31
0.0
210
0.0
220
0.0
230
1.0
 73
     3
  0
TEXT
  8
1
  6
CONTINUOUS
 62
     1
  5
7D
 10
495.987833
 20
-361.710833
 30
0.0
 40
1.2
  1
CATALOG:dt standa  FILENAME:te161.dgn    DATE:03/11/93
  7
MONOTXT
210
0.0
220
0.0
230
1.0
  0
TEXT
  8
1
  6
CONTINUOUS
 62
     1
  5
7E
 10
488.689667
 20
-306.605583
 30
0.0
 40
6.992667
  1
SUPPORT DETAILS
  7
txt
 72
     1
 11
531.552583
 21
-299.612917
 31
0.0
210
0.0
220
0.0
230
1.0
 73
     3
  0
TEXT
  8
1
  6
CONTINUOUS
 62
     1
  5
7F
 10
490.7525
 20
-297.141
 30
0.0
 40
6.992667
  1
"ONE WAY" SIGN
  7
txt
 72
     1
 11
531.552583
 21
-290.148333
 31
0.0
210
0.0
220
0.0
230
1.0
 73
     3
  0
LINE
  8
1
  6
CONTINUOUS
 62
    92
  5
80
 10
-8.540833
 20
-6.2335
 30
0.0
 11
-8.540833
 21
-7.141
 31
0.0
  0
LINE
  8
1
  6
CONTINUOUS
 62
    92
  5
81
 10
-8.540833
 20
-16.821
 30
0.0
 11
-8.540833
 21
-17.7285
 31
0.0
  0
LINE
  8
1
  6
CONTINUOUS
 62
    92
  5
82
 10
100.359167
 20
-6.2335
 30
0.0
 11
100.359167
 21
-7.141
 31
0.0
  0
LINE
  8
1
  6
CONTINUOUS
 62
    92
  5
83
 10
100.359167
 20
-16.821
 30
0.0
 11
100.359167
 21
-17.7285
 31
0.0
  0
LINE
  8
1
  6
CONTINUOUS
 62
    92
  5
84
 10
43.942917
 20
-66.431
 30
0.0
 11
43.942917
 21
42.469
 31
0.0
  0
LINE
  8
1
  6
CONTINUOUS
 62
    92
  5
85
 10
47.875417
 20
-66.431
 30
0.0
 11
47.875417
 21
42.469
 31
0.0
  0
LINE
  8
1
  6
CONTINUOUS
 62
    92
  5
86
 10
43.035417
 20
-66.431
 30
0.0
 11
43.035417
 21
42.469
 31
0.0
  0
LINE
  8
1
  6
CONTINUOUS
 62
    92
  5
87
 10
48.782917
 20
-66.431
 30
0.0
 11
48.782917
 21
42.469
 31
0.0
  0
LINE
  8
1
  6
CONTINUOUS
 62
    92
  5
88
 10
43.035417
 20
42.469
 30
0.0
 11
43.942917
 21
42.469
 31
0.0
  0
LINE
  8
1
  6
CONTINUOUS
 62
    92
  5
89
 10
47.875417
 20
42.469
 30
0.0
 11
48.782917
 21
42.469
 31
0.0
  0
LINE
  8
1
  6
CONTINUOUS
 62
    92
  5
8A
 10
43.035417
 20
-66.431
 30
0.0
 11
43.942917
 21
-66.431
 31
0.0
  0
LINE
  8
1
  6
CONTINUOUS
 62
    92
  5
8B
 10
47.875417
 20
-66.431
 30
0.0
 11
48.782917
 21
-66.431
 31
0.0
  0
LINE
  8
1
  6
CONTINUOUS
 62
    92
  5
8C
 10
-8.540833
 20
-6.2335
 30
0.0
 11
43.035417
 21
-6.2335
 31
0.0
  0
LINE
  8
1
  6
CONTINUOUS
 62
    92
  5
8D
 10
43.942917
 20
-6.2335
 30
0.0
 11
47.875417
 21
-6.2335
 31
0.0
  0
LINE
  8
1
  6
CONTINUOUS
 62
    92
  5
8E
 10
48.782917
 20
-6.2335
 30
0.0
 11
100.359167
 21
-6.2335
 31
0.0
  0
LINE
  8
1
  6
CONTINUOUS
 62
    92
  5
8F
 10
-8.540833
 20
-7.141
 30
0.0
 11
43.035417
 21
-7.141
 31
0.0
  0
LINE
  8
1
  6
CONTINUOUS
 62
    92
  5
90
 10
43.942917
 20
-7.141
 30
0.0
 11
47.875417
 21
-7.141
 31
0.0
  0
LINE
  8
1
  6
CONTINUOUS
 62
    92
  5
91
 10
48.782917
 20
-7.141
 30
0.0
 11
100.359167
 21
-7.141
 31
0.0
  0
LINE
  8
1
  6
CONTINUOUS
 62
    92
  5
92
 10
-8.540833
 20
-16.821
 30
0.0
 11
43.035417
 21
-16.821
 31
0.0
  0
LINE
  8
1
  6
CONTINUOUS
 62
    92
  5
93
 10
43.942917
 20
-16.821
 30
0.0
 11
47.875417
 21
-16.821
 31
0.0
  0
LINE
  8
1
  6
CONTINUOUS
 62
    92
  5
94
 10
48.782917
 20
-16.821
 30
0.0
 11
100.359167
 21
-16.821
 31
0.0
  0
LINE
  8
1
  6
CONTINUOUS
 62
    92
  5
95
 10
-8.540833
 20
-17.7285
 30
0.0
 11
43.035417
 21
-17.7285
 31
0.0
  0
LINE
  8
1
  6
CONTINUOUS
 62
    92
  5
96
 10
43.942917
 20
-17.7285
 30
0.0
 11
47.875417
 21
-17.7285
 31
0.0
  0
LINE
  8
1
  6
CONTINUOUS
 62
    92
  5
97
 10
48.782917
 20
-17.7285
 30
0.0
 11
100.359167
 21
-17.7285
 31
0.0
  0
LINE
  8
1
  6
CONTINUOUS
 62
    92
  5
98
 10
44.699167
 20
-5.326
 30
0.0
 11
47.119167
 21
-5.326
 31
0.0
  0
LINE
  8
1
  6
CONTINUOUS
 62
    92
  5
99
 10
44.699167
 20
-5.326
 30
0.0
 11
44.699167
 21
-6.2335
 31
0.0
  0
LINE
  8
1
  6
CONTINUOUS
 62
    92
  5
9A
 10
47.119167
 20
-5.326
 30
0.0
 11
47.119167
 21
-6.2335
 31
0.0
  0
ARC
  8
1
  6
CONTINUOUS
 62
    92
  5
9B
 10
45.909106
 20
-5.804583
 30
0.0
 40
1.161874
 50
24.322303
 51
155.677694
210
0.0
220
0.0
230
1.0
  0
LINE
  8
1
  6
CONTINUOUS
 62
    92
  5
9C
 10
42.430417
 20
-8.0485
 30
0.0
 11
42.430417
 21
-7.141
 31
0.0
  0
LINE
  8
1
  6
CONTINUOUS
 62
    92
  5
9D
 10
49.387917
 20
-8.0485
 30
0.0
 11
49.387917
 21
-7.141
 31
0.0
  0
LINE
  8
1
  6
CONTINUOUS
 62
    92
  5
9E
 10
42.430417
 20
-8.0485
 30
0.0
 11
43.035417
 21
-8.0485
 31
0.0
  0
LINE
  8
1
  6
CONTINUOUS
 62
    92
  5
9F
 10
43.942917
 20
-8.0485
 30
0.0
 11
47.875417
 21
-8.0485
 31
0.0
  0
LINE
  8
1
  6
CONTINUOUS
 62
    92
  5
A0
 10
48.782917
 20
-8.0485
 30
0.0
 11
49.387917
 21
-8.0485
 31
0.0
  0
LINE
  8
1
  6
CONTINUOUS
 62
    92
  5
A1
 10
44.547917
 20
-11.376
 30
0.0
 11
47.270417
 21
-11.376
 31
0.0
  0
LINE
  8
1
  6
CONTINUOUS
 62
    92
  5
A2
 10
42.732917
 20
-8.0485
 30
0.0
 11
43.035417
 21
-8.60325
 31
0.0
  0
LINE
  8
1
  6
CONTINUOUS
 62
    92
  5
A3
 10
43.942917
 20
-10.26675
 30
0.0
 11
44.547917
 21
-11.376
 31
0.0
  0
LINE
  8
1
  6
CONTINUOUS
 62
    92
  5
A4
 10
49.085417
 20
-8.0485
 30
0.0
 11
48.782917
 21
-8.60325
 31
0.0
  0
LINE
  8
1
  6
CONTINUOUS
 62
    92
  5
A5
 10
47.875417
 20
-10.266833
 30
0.0
 11
47.270417
 21
-11.376
 31
0.0
  0
LINE
  8
1
  6
CONTINUOUS
 62
    92
  5
A6
 10
44.547917
 20
-11.981
 30
0.0
 11
47.270417
 21
-11.981
 31
0.0
  0
LINE
  8
1
  6
CONTINUOUS
 62
    92
  5
A7
 10
43.942917
 20
-13.191
 30
0.0
 11
47.875417
 21
-13.191
 31
0.0
  0
ARC
  8
1
  6
CONTINUOUS
 62
    92
  5
A8
 10
44.604078
 20
-12.175743
 30
0.0
 40
0.202656
 50
106.106561
 51
252.911756
210
0.0
220
0.0
230
1.0
  0
ARC
  8
1
  6
CONTINUOUS
 62
    92
  5
A9
 10
47.214134
 20
-12.175743
 30
0.0
 40
0.202656
 50
287.088244
 51
73.893439
210
0.0
220
0.0
230
1.0
  0
ARC
  8
1
  6
CONTINUOUS
 62
    92
  5
AA
 10
44.050987
 20
-12.806699
 30
0.0
 40
0.659369
 50
326.084492
 51
41.538897
210
0.0
220
0.0
230
1.0
  0
ARC
  8
1
  6
CONTINUOUS
 62
    92
  5
AB
 10
47.767225
 20
-12.806699
 30
0.0
 40
0.659369
 50
138.461103
 51
213.915508
210
0.0
220
0.0
230
1.0
  0
LINE
  8
1
  6
CONTINUOUS
 62
    92
  5
AC
 10
44.547917
 20
-13.796
 30
0.0
 11
47.270417
 21
-13.796
 31
0.0
  0
LINE
  8
1
  6
CONTINUOUS
 62
    92
  5
AD
 10
44.547917
 20
-16.216
 30
0.0
 11
47.270417
 21
-16.216
 31
0.0
  0
LINE
  8
1
  6
CONTINUOUS
 62
    92
  5
AE
 10
44.547917
 20
-13.796
 30
0.0
 11
44.547917
 21
-16.216
 31
0.0
  0
LINE
  8
1
  6
CONTINUOUS
 62
    92
  5
AF
 10
47.270417
 20
-13.796
 30
0.0
 11
47.270417
 21
-16.216
 31
0.0
  0
LINE
  8
1
  6
CONTINUOUS
 62
    92
  5
B0
 10
45.304167
 20
-8.0485
 30
0.0
 11
45.304167
 21
-11.376
 31
0.0
  0
LINE
  8
1
  6
CONTINUOUS
 62
    92
  5
B1
 10
46.514167
 20
-8.0485
 30
0.0
 11
46.514167
 21
-11.376
 31
0.0
  0
LINE
  8
1
  6
CONTINUOUS
 62
    92
  5
B2
 10
45.304167
 20
-13.796
 30
0.0
 11
45.304167
 21
-16.216
 31
0.0
  0
LINE
  8
1
  6
CONTINUOUS
 62
    92
  5
B3
 10
46.514167
 20
-13.796
 30
0.0
 11
46.514167
 21
-16.216
 31
0.0
  0
LINE
  8
1
  6
CONTINUOUS
 62
    92
  5
B4
 10
44.547917
 20
-14.60675
 30
0.0
 11
45.304167
 21
-14.60675
 31
0.0
  0
LINE
  8
1
  6
CONTINUOUS
 62
    92
  5
B5
 10
46.514167
 20
-14.60675
 30
0.0
 11
47.270417
 21
-14.60675
 31
0.0
  0
LINE
  8
1
  6
CONTINUOUS
 62
    92
  5
B6
 10
44.547917
 20
-15.405333
 30
0.0
 11
45.304167
 21
-15.405333
 31
0.0
  0
LINE
  8
1
  6
CONTINUOUS
 62
    92
  5
B7
 10
46.514167
 20
-15.405333
 30
0.0
 11
47.270417
 21
-15.405333
 31
0.0
  0
LINE
  8
1
  6
CONTINUOUS
 62
    92
  5
B8
 10
44.699167
 20
-18.636
 30
0.0
 11
47.119167
 21
-18.636
 31
0.0
  0
LINE
  8
1
  6
CONTINUOUS
 62
    92
  5
B9
 10
44.699167
 20
-18.636
 30
0.0
 11
44.699167
 21
-17.7285
 31
0.0
  0
LINE
  8
1
  6
CONTINUOUS
 62
    92
  5
BA
 10
47.119167
 20
-18.636
 30
0.0
 11
47.119167
 21
-17.7285
 31
0.0
  0
LINE
  8
1
  6
CONTINUOUS
 62
    92
  5
BB
 10
45.304167
 20
-18.636
 30
0.0
 11
45.304167
 21
-19.241
 31
0.0
  0
LINE
  8
1
  6
CONTINUOUS
 62
    92
  5
BC
 10
46.514167
 20
-18.636
 30
0.0
 11
46.514167
 21
-19.241
 31
0.0
  0
LINE
  8
1
  6
CONTINUOUS
 62
    92
  5
BD
 10
45.304167
 20
-19.241
 30
0.0
 11
46.514167
 21
-19.241
 31
0.0
  0
LINE
  8
1
  6
CONTINUOUS
 62
    92
  5
BE
 10
45.606667
 20
-18.9385
 30
0.0
 11
46.211667
 21
-18.9385
 31
0.0
  0
LINE
  8
1
  6
CONTINUOUS
 62
    92
  5
BF
 10
43.942917
 20
-12.369417
 30
0.0
 11
44.5445
 21
-12.369417
 31
0.0
  0
LINE
  8
1
  6
CONTINUOUS
 62
    92
  5
C0
 10
47.273667
 20
-12.369417
 30
0.0
 11
47.875417
 21
-12.369417
 31
0.0
  0
LINE
  8
1
  6
CONTINUOUS
 62
    92
  5
C1
 10
49.690417
 20
-13.796
 30
0.0
 11
49.690417
 21
-16.216
 31
0.0
  0
LINE
  8
1
  6
CONTINUOUS
 62
    92
  5
C2
 10
49.690417
 20
-13.796
 30
0.0
 11
48.782917
 21
-13.796
 31
0.0
  0
LINE
  8
1
  6
CONTINUOUS
 62
    92
  5
C3
 10
49.690417
 20
-16.216
 30
0.0
 11
48.782917
 21
-16.216
 31
0.0
  0
ARC
  8
1
  6
CONTINUOUS
 62
    92
  5
C4
 10
49.211816
 20
-15.006043
 30
0.0
 40
1.161874
 50
294.322303
 51
65.677694
210
0.0
220
0.0
230
1.0
  0
LINE
  8
1
  6
CONTINUOUS
 62
    92
  5
C5
 10
42.127917
 20
-13.796
 30
0.0
 11
42.127917
 21
-16.216
 31
0.0
  0
LINE
  8
1
  6
CONTINUOUS
 62
    92
  5
C6
 10
42.127917
 20
-13.796
 30
0.0
 11
43.035417
 21
-13.796
 31
0.0
  0
LINE
  8
1
  6
CONTINUOUS
 62
    92
  5
C7
 10
42.127917
 20
-16.216
 30
0.0
 11
43.035417
 21
-16.216
 31
0.0
  0
LINE
  8
1
  6
CONTINUOUS
 62
    92
  5
C8
 10
42.127917
 20
-14.401
 30
0.0
 11
41.522917
 21
-14.401
 31
0.0
  0
LINE
  8
1
  6
CONTINUOUS
 62
    92
  5
C9
 10
42.127917
 20
-15.611
 30
0.0
 11
41.522917
 21
-15.611
 31
0.0
  0
LINE
  8
1
  6
CONTINUOUS
 62
    92
  5
CA
 10
41.522917
 20
-14.401
 30
0.0
 11
41.522917
 21
-15.611
 31
0.0
  0
LINE
  8
1
  6
CONTINUOUS
 62
    92
  5
CB
 10
41.825417
 20
-14.7035
 30
0.0
 11
41.825417
 21
-15.3085
 31
0.0
  0
LINE
  8
1
  6
CONTINUOUS
 62
    92
  5
CC
 10
48.782917
 20
-63.1035
 30
0.0
 11
49.690417
 21
-63.1035
 31
0.0
  0
LINE
  8
1
  6
CONTINUOUS
 62
    92
  5
CD
 10
48.782917
 20
-60.381
 30
0.0
 11
49.690417
 21
-60.381
 31
0.0
  0
LINE
  8
1
  6
CONTINUOUS
 62
    92
  5
CE
 10
49.690417
 20
-60.381
 30
0.0
 11
49.690417
 21
-63.1035
 31
0.0
  0
LINE
  8
1
  6
CONTINUOUS
 62
    92
  5
CF
 10
50.597917
 20
-60.6835
 30
0.0
 11
50.597917
 21
-62.801
 31
0.0
  0
LINE
  8
1
  6
CONTINUOUS
 62
    92
  5
D0
 10
50.597917
 20
-60.6835
 30
0.0
 11
49.690417
 21
-60.6835
 31
0.0
  0
LINE
  8
1
  6
CONTINUOUS
 62
    92
  5
D1
 10
50.597917
 20
-62.801
 30
0.0
 11
49.690417
 21
-62.801
 31
0.0
  0
LINE
  8
1
  6
CONTINUOUS
 62
    92
  5
D2
 10
50.597917
 20
-61.2885
 30
0.0
 11
49.690417
 21
-61.2885
 31
0.0
  0
LINE
  8
1
  6
CONTINUOUS
 62
    92
  5
D3
 10
50.597917
 20
-62.196
 30
0.0
 11
49.690417
 21
-62.196
 31
0.0
  0
LINE
  8
1
  6
CONTINUOUS
 62
    92
  5
D4
 10
46.967917
 20
-60.6835
 30
0.0
 11
46.967917
 21
-62.801
 31
0.0
  0
LINE
  8
1
  6
CONTINUOUS
 62
    92
  5
D5
 10
46.967917
 20
-60.6835
 30
0.0
 11
47.875417
 21
-60.6835
 31
0.0
  0
LINE
  8
1
  6
CONTINUOUS
 62
    92
  5
D6
 10
46.967917
 20
-62.801
 30
0.0
 11
47.875417
 21
-62.801
 31
0.0
  0
LINE
  8
1
  6
CONTINUOUS
 62
    92
  5
D7
 10
44.850417
 20
-60.6835
 30
0.0
 11
44.850417
 21
-62.801
 31
0.0
  0
LINE
  8
1
  6
CONTINUOUS
 62
    92
  5
D8
 10
43.035417
 20
-63.1035
 30
0.0
 11
42.127917
 21
-63.1035
 31
0.0
  0
LINE
  8
1
  6
CONTINUOUS
 62
    92
  5
D9
 10
43.035417
 20
-60.381
 30
0.0
 11
42.127917
 21
-60.381
 31
0.0
  0
LINE
  8
1
  6
CONTINUOUS
 62
    92
  5
DA
 10
42.127917
 20
-60.381
 30
0.0
 11
42.127917
 21
-63.1035
 31
0.0
  0
LINE
  8
1
  6
CONTINUOUS
 62
    92
  5
DB
 10
41.220417
 20
-60.6835
 30
0.0
 11
41.220417
 21
-62.801
 31
0.0
  0
LINE
  8
1
  6
CONTINUOUS
 62
    92
  5
DC
 10
41.220417
 20
-60.6835
 30
0.0
 11
42.127917
 21
-60.6835
 31
0.0
  0
LINE
  8
1
  6
CONTINUOUS
 62
    92
  5
DD
 10
41.220417
 20
-62.801
 30
0.0
 11
42.127917
 21
-62.801
 31
0.0
  0
LINE
  8
1
  6
CONTINUOUS
 62
    92
  5
DE
 10
40.615417
 20
-61.2885
 30
0.0
 11
42.127917
 21
-61.2885
 31
0.0
  0
LINE
  8
1
  6
CONTINUOUS
 62
    92
  5
DF
 10
40.615417
 20
-62.196
 30
0.0
 11
42.127917
 21
-62.196
 31
0.0
  0
LINE
  8
1
  6
CONTINUOUS
 62
    92
  5
E0
 10
44.850417
 20
-60.6835
 30
0.0
 11
43.942917
 21
-60.6835
 31
0.0
  0
LINE
  8
1
  6
CONTINUOUS
 62
    92
  5
E1
 10
44.850417
 20
-62.801
 30
0.0
 11
43.942917
 21
-62.801
 31
0.0
  0
LINE
  8
1
  6
CONTINUOUS
 62
    92
  5
E2
 10
44.850417
 20
-61.2885
 30
0.0
 11
43.942917
 21
-61.2885
 31
0.0
  0
LINE
  8
1
  6
CONTINUOUS
 62
    92
  5
E3
 10
44.850417
 20
-62.196
 30
0.0
 11
43.942917
 21
-62.196
 31
0.0
  0
LINE
  8
1
  6
CONTINUOUS
 62
    92
  5
E4
 10
40.615417
 20
-61.2885
 30
0.0
 11
40.615417
 21
-62.196
 31
0.0
  0
LINE
  8
1
  6
CONTINUOUS
 62
    92
  5
E5
 10
40.917917
 20
-61.591
 30
0.0
 11
40.917917
 21
-61.8935
 31
0.0
  0
LINE
  8
1
  6
CONTINUOUS
 62
    92
  5
E6
 10
46.967917
 20
-61.2885
 30
0.0
 11
47.875417
 21
-61.2885
 31
0.0
  0
LINE
  8
1
  6
CONTINUOUS
 62
    92
  5
E7
 10
46.967917
 20
-62.196
 30
0.0
 11
47.875417
 21
-62.196
 31
0.0
  0
LINE
  8
1
  6
CONTINUOUS
 62
    92
  5
E8
 10
45.909167
 20
-61.2885
 30
0.0
 11
45.909167
 21
-62.196
 31
0.0
  0
LINE
  8
1
  6
CONTINUOUS
 62
    92
  5
E9
 10
44.850417
 20
-61.2885
 30
0.0
 11
45.909167
 21
-61.2885
 31
0.0
  0
LINE
  8
1
  6
CONTINUOUS
 62
    92
  5
EA
 10
45.909167
 20
-61.2885
 30
0.0
 11
46.967917
 21
-61.2885
 31
0.0
  0
LINE
  8
1
  6
CONTINUOUS
 62
    92
  5
EB
 10
44.850417
 20
-62.196
 30
0.0
 11
45.909167
 21
-62.196
 31
0.0
  0
LINE
  8
1
  6
CONTINUOUS
 62
    92
  5
EC
 10
45.909167
 20
-62.196
 30
0.0
 11
46.967917
 21
-62.196
 31
0.0
  0
LINE
  8
1
  6
CONTINUOUS
 62
    92
  5
ED
 10
45.37975
 20
-61.2885
 30
0.0
 11
45.37975
 21
-62.196
 31
0.0
  0
LINE
  8
1
  6
CONTINUOUS
 62
    92
  5
EE
 10
46.4385
 20
-61.2885
 30
0.0
 11
46.4385
 21
-62.196
 31
0.0
  0
LINE
  8
1
  6
CONTINUOUS
 62
    92
  5
EF
 10
45.909167
 20
37.3265
 30
0.0
 11
45.909167
 21
38.234
 31
0.0
  0
LINE
  8
1
  6
CONTINUOUS
 62
    92
  5
F0
 10
48.782917
 20
39.1415
 30
0.0
 11
49.690417
 21
39.1415
 31
0.0
  0
LINE
  8
1
  6
CONTINUOUS
 62
    92
  5
F1
 10
48.782917
 20
36.419
 30
0.0
 11
49.690417
 21
36.419
 31
0.0
  0
LINE
  8
1
  6
CONTINUOUS
 62
    92
  5
F2
 10
49.690417
 20
36.419
 30
0.0
 11
49.690417
 21
39.1415
 31
0.0
  0
LINE
  8
1
  6
CONTINUOUS
 62
    92
  5
F3
 10
50.597917
 20
36.7215
 30
0.0
 11
50.597917
 21
38.839
 31
0.0
  0
LINE
  8
1
  6
CONTINUOUS
 62
    92
  5
F4
 10
50.597917
 20
36.7215
 30
0.0
 11
49.690417
 21
36.7215
 31
0.0
  0
LINE
  8
1
  6
CONTINUOUS
 62
    92
  5
F5
 10
50.597917
 20
38.839
 30
0.0
 11
49.690417
 21
38.839
 31
0.0
  0
LINE
  8
1
  6
CONTINUOUS
 62
    92
  5
F6
 10
50.597917
 20
37.3265
 30
0.0
 11
49.690417
 21
37.3265
 31
0.0
  0
LINE
  8
1
  6
CONTINUOUS
 62
    92
  5
F7
 10
50.597917
 20
38.234
 30
0.0
 11
49.690417
 21
38.234
 31
0.0
  0
LINE
  8
1
  6
CONTINUOUS
 62
    92
  5
F8
 10
46.967917
 20
36.7215
 30
0.0
 11
46.967917
 21
38.839
 31
0.0
  0
LINE
  8
1
  6
CONTINUOUS
 62
    92
  5
F9
 10
46.967917
 20
36.7215
 30
0.0
 11
47.875417
 21
36.7215
 31
0.0
  0
LINE
  8
1
  6
CONTINUOUS
 62
    92
  5
FA
 10
46.967917
 20
38.839
 30
0.0
 11
47.875417
 21
38.839
 31
0.0
  0
LINE
  8
1
  6
CONTINUOUS
 62
    92
  5
FB
 10
44.850417
 20
36.7215
 30
0.0
 11
44.850417
 21
38.839
 31
0.0
  0
LINE
  8
1
  6
CONTINUOUS
 62
    92
  5
FC
 10
43.035417
 20
39.1415
 30
0.0
 11
42.127917
 21
39.1415
 31
0.0
  0
LINE
  8
1
  6
CONTINUOUS
 62
    92
  5
FD
 10
43.035417
 20
36.419
 30
0.0
 11
42.127917
 21
36.419
 31
0.0
  0
LINE
  8
1
  6
CONTINUOUS
 62
    92
  5
FE
 10
42.127917
 20
36.419
 30
0.0
 11
42.127917
 21
39.1415
 31
0.0
  0
LINE
  8
1
  6
CONTINUOUS
 62
    92
  5
FF
 10
41.220417
 20
36.7215
 30
0.0
 11
41.220417
 21
38.839
 31
0.0
  0
LINE
  8
1
  6
CONTINUOUS
 62
    92
  5
100
 10
41.220417
 20
36.7215
 30
0.0
 11
42.127917
 21
36.7215
 31
0.0
  0
LINE
  8
1
  6
CONTINUOUS
 62
    92
  5
101
 10
41.220417
 20
38.839
 30
0.0
 11
42.127917
 21
38.839
 31
0.0
  0
LINE
  8
1
  6
CONTINUOUS
 62
    92
  5
102
 10
40.615417
 20
37.3265
 30
0.0
 11
42.127917
 21
37.3265
 31
0.0
  0
LINE
  8
1
  6
CONTINUOUS
 62
    92
  5
103
 10
40.615417
 20
38.234
 30
0.0
 11
42.127917
 21
38.234
 31
0.0
  0
LINE
  8
1
  6
CONTINUOUS
 62
    92
  5
104
 10
44.850417
 20
36.7215
 30
0.0
 11
43.942917
 21
36.7215
 31
0.0
  0
LINE
  8
1
  6
CONTINUOUS
 62
    92
  5
105
 10
44.850417
 20
38.839
 30
0.0
 11
43.942917
 21
38.839
 31
0.0
  0
LINE
  8
1
  6
CONTINUOUS
 62
    92
  5
106
 10
44.850417
 20
37.3265
 30
0.0
 11
43.942917
 21
37.3265
 31
0.0
  0
LINE
  8
1
  6
CONTINUOUS
 62
    92
  5
107
 10
44.850417
 20
38.234
 30
0.0
 11
43.942917
 21
38.234
 31
0.0
  0
LINE
  8
1
  6
CONTINUOUS
 62
    92
  5
108
 10
40.615417
 20
37.3265
 30
0.0
 11
40.615417
 21
38.234
 31
0.0
  0
LINE
  8
1
  6
CONTINUOUS
 62
    92
  5
109
 10
40.917917
 20
37.629
 30
0.0
 11
40.917917
 21
37.9315
 31
0.0
  0
LINE
  8
1
  6
CONTINUOUS
 62
    92
  5
10A
 10
46.967917
 20
37.3265
 30
0.0
 11
47.875417
 21
37.3265
 31
0.0
  0
LINE
  8
1
  6
CONTINUOUS
 62
    92
  5
10B
 10
46.967917
 20
38.234
 30
0.0
 11
47.875417
 21
38.234
 31
0.0
  0
LINE
  8
1
  6
CONTINUOUS
 62
    92
  5
10C
 10
44.850417
 20
37.3265
 30
0.0
 11
45.909167
 21
37.3265
 31
0.0
  0
LINE
  8
1
  6
CONTINUOUS
 62
    92
  5
10D
 10
45.909167
 20
37.3265
 30
0.0
 11
46.967917
 21
37.3265
 31
0.0
  0
LINE
  8
1
  6
CONTINUOUS
 62
    92
  5
10E
 10
44.850417
 20
38.234
 30
0.0
 11
45.909167
 21
38.234
 31
0.0
  0
LINE
  8
1
  6
CONTINUOUS
 62
    92
  5
10F
 10
45.909167
 20
38.234
 30
0.0
 11
46.967917
 21
38.234
 31
0.0
  0
LINE
  8
1
  6
CONTINUOUS
 62
    92
  5
110
 10
45.37975
 20
37.3265
 30
0.0
 11
45.37975
 21
38.234
 31
0.0
  0
LINE
  8
1
  6
CONTINUOUS
 62
    92
  5
111
 10
46.4385
 20
37.3265
 30
0.0
 11
46.4385
 21
38.234
 31
0.0
  0
LINE
  8
1
  6
CONTINUOUS
 62
     7
  5
112
 10
45.909167
 20
39.444
 30
0.0
 11
45.909167
 21
43.679
 31
0.0
  0
LINE
  8
1
  6
CONTINUOUS
 62
     7
  5
113
 10
45.909167
 20
36.1165
 30
0.0
 11
45.909167
 21
19.366833
 31
0.0
  0
LINE
  8
1
  6
CONTINUOUS
 62
     7
  5
114
 10
45.909167
 20
13.316833
 30
0.0
 11
45.909167
 21
-3.432667
 31
0.0
  0
LINE
  8
1
  6
CONTINUOUS
 62
     7
  5
115
 10
45.909167
 20
16.341833
 30
0.0
 11
45.909167
 21
17.551833
 31
0.0
  0
LINE
  8
1
  6
CONTINUOUS
 62
     7
  5
116
 10
45.909167
 20
16.341833
 30
0.0
 11
45.909167
 21
15.131833
 31
0.0
  0
LINE
  8
1
  6
CONTINUOUS
 62
     7
  5
117
 10
45.909167
 20
-20.451
 30
0.0
 11
45.909167
 21
-60.0785
 31
0.0
  0
LINE
  8
1
  6
CONTINUOUS
 62
     7
  5
118
 10
45.909167
 20
-62.196
 30
0.0
 11
45.909167
 21
-66.431
 31
0.0
  0
LINE
  8
1
  6
CONTINUOUS
 62
     7
  5
119
 10
45.909167
 20
-69.456
 30
0.0
 11
45.909167
 21
-70.666
 31
0.0
  0
LINE
  8
1
  6
CONTINUOUS
 62
     7
  5
11A
 10
45.909167
 20
-69.456
 30
0.0
 11
45.909167
 21
-68.246
 31
0.0
  0
LINE
  8
1
  6
CONTINUOUS
 62
     7
  5
11B
 10
45.909167
 20
-72.481
 30
0.0
 11
45.909167
 21
-80.951
 31
0.0
  0
LINE
  8
1
  6
CONTINUOUS
 62
    92
  5
11C
 10
43.942917
 20
-82.161
 30
0.0
 11
43.942917
 21
-131.491
 31
0.0
  0
LINE
  8
1
  6
CONTINUOUS
 62
    92
  5
11D
 10
47.875417
 20
-82.161
 30
0.0
 11
47.875417
 21
-131.491
 31
0.0
  0
LINE
  8
1
  6
CONTINUOUS
 62
    92
  5
11E
 10
43.035417
 20
-82.161
 30
0.0
 11
48.782917
 21
-82.161
 31
0.0
  0
LINE
  8
1
  6
CONTINUOUS
 62
    92
  5
11F
 10
43.035417
 20
-82.161
 30
0.0
 11
43.035417
 21
-127.961
 31
0.0
  0
LINE
  8
1
  6
CONTINUOUS
 62
    92
  5
120
 10
48.782917
 20
-82.161
 30
0.0
 11
48.782917
 21
-127.961
 31
0.0
  0
LINE
  8
1
  6
CONTINUOUS
 62
    92
  5
121
 10
6.512917
 20
-131.491
 30
0.0
 11
86.512917
 21
-131.491
 31
0.0
  0
LINE
  8
1
  6
CONTINUOUS
 62
    92
  5
122
 10
1.512917
 20
-136.491
 30
0.0
 11
1.512917
 21
-216.491
 31
0.0
  0
LINE
  8
1
  6
CONTINUOUS
 62
    92
  5
123
 10
91.512917
 20
-136.491
 30
0.0
 11
91.512917
 21
-216.491
 31
0.0
  0
LINE
  8
1
  6
CONTINUOUS
 62
    92
  5
124
 10
43.035417
 20
-127.961
 30
0.0
 11
43.942917
 21
-127.961
 31
0.0
  0
LINE
  8
1
  6
CONTINUOUS
 62
    92
  5
125
 10
47.875417
 20
-127.961
 30
0.0
 11
48.782917
 21
-127.961
 31
0.0
  0
LINE
  8
1
  6
DASHED
 62
    92
  5
126
 10
43.942917
 20
-131.491
 30
0.0
 11
43.942917
 21
-221.491
 31
0.0
  0
LINE
  8
1
  6
DASHED
 62
    92
  5
127
 10
47.875417
 20
-131.491
 30
0.0
 11
47.875417
 21
-221.491
 31
0.0
  0
LINE
  8
1
  6
DASHED
 62
    92
  5
128
 10
42.430417
 20
-131.491
 30
0.0
 11
42.430417
 21
-221.491
 31
0.0
  0
LINE
  8
1
  6
CONTINUOUS
 62
    92
  5
129
 10
42.430417
 20
-221.491
 30
0.0
 11
42.430417
 21
-316.901
 31
0.0
  0
LINE
  8
1
  6
CONTINUOUS
 62
    92
  5
12A
 10
43.942917
 20
-221.491
 30
0.0
 11
43.942917
 21
-316.901
 31
0.0
  0
LINE
  8
1
  6
CONTINUOUS
 62
    92
  5
12B
 10
47.875417
 20
-221.491
 30
0.0
 11
47.875417
 21
-316.901
 31
0.0
  0
LINE
  8
1
  6
CONTINUOUS
 62
    92
  5
12C
 10
49.387917
 20
-221.491
 30
0.0
 11
49.387917
 21
-316.901
 31
0.0
  0
LINE
  8
1
  6
CONTINUOUS
 62
    92
  5
12D
 10
45.909167
 20
-312.666
 30
0.0
 11
45.909167
 21
-321.136
 31
0.0
  0
LINE
  8
1
  6
CONTINUOUS
 62
    92
  5
12E
 10
40.010417
 20
-316.901
 30
0.0
 11
44.699167
 21
-316.901
 31
0.0
  0
LINE
  8
1
  6
CONTINUOUS
 62
    92
  5
12F
 10
47.119167
 20
-316.901
 30
0.0
 11
51.807917
 21
-316.901
 31
0.0
  0
LINE
  8
1
  6
CONTINUOUS
 62
    92
  5
130
 10
45.909167
 20
-312.666
 30
0.0
 11
47.119167
 21
-316.901
 31
0.0
  0
LINE
  8
1
  6
CONTINUOUS
 62
    92
  5
131
 10
45.909167
 20
-321.136
 30
0.0
 11
44.699167
 21
-316.901
 31
0.0
  0
LINE
  8
1
  6
CONTINUOUS
 62
    92
  5
132
 10
6.512917
 20
-221.491
 30
0.0
 11
49.387917
 21
-221.491
 31
0.0
  0
LINE
  8
1
  6
CONTINUOUS
 62
    92
  5
133
 10
49.387917
 20
-221.491
 30
0.0
 11
86.512917
 21
-221.491
 31
0.0
  0
LINE
  8
1
  6
DASHED
 62
    92
  5
134
 10
49.387917
 20
-131.491
 30
0.0
 11
49.387917
 21
-221.491
 31
0.0
  0
ARC
  8
1
  6
CONTINUOUS
 62
    92
  5
135
 10
86.512917
 20
-136.491
 30
0.0
 40
5.0
 50
0.0
 51
90.0
210
0.0
220
0.0
230
1.0
  0
ARC
  8
1
  6
CONTINUOUS
 62
    92
  5
136
 10
86.512917
 20
-216.491
 30
0.0
 40
5.0
 50
270.0
 51
0.0
210
0.0
220
0.0
230
1.0
  0
ARC
  8
1
  6
CONTINUOUS
 62
    92
  5
137
 10
6.512917
 20
-216.491
 30
0.0
 40
5.0
 50
180.0
 51
270.0
210
0.0
220
0.0
230
1.0
  0
CIRCLE
  8
1
  6
CONTINUOUS
 62
    92
  5
138
 10
45.909167
 20
-84.661
 30
0.0
 40
0.75
210
0.0
220
0.0
230
1.0
  0
CIRCLE
  8
1
  6
CONTINUOUS
 62
    92
  5
139
 10
45.909167
 20
-87.661
 30
0.0
 40
0.75
210
0.0
220
0.0
230
1.0
  0
CIRCLE
  8
1
  6
CONTINUOUS
 62
    92
  5
13A
 10
45.909167
 20
-90.661
 30
0.0
 40
0.75
210
0.0
220
0.0
230
1.0
  0
CIRCLE
  8
1
  6
CONTINUOUS
 62
    92
  5
13B
 10
45.909167
 20
-93.661
 30
0.0
 40
0.75
210
0.0
220
0.0
230
1.0
  0
CIRCLE
  8
1
  6
CONTINUOUS
 62
    92
  5
13C
 10
45.909167
 20
-96.661
 30
0.0
 40
0.75
210
0.0
220
0.0
230
1.0
  0
CIRCLE
  8
1
  6
CONTINUOUS
 62
    92
  5
13D
 10
45.909167
 20
-99.661
 30
0.0
 40
0.75
210
0.0
220
0.0
230
1.0
  0
CIRCLE
  8
1
  6
CONTINUOUS
 62
    92
  5
13E
 10
45.909167
 20
-102.661
 30
0.0
 40
0.75
210
0.0
220
0.0
230
1.0
  0
CIRCLE
  8
1
  6
CONTINUOUS
 62
    92
  5
13F
 10
45.909167
 20
-105.661
 30
0.0
 40
0.75
210
0.0
220
0.0
230
1.0
  0
CIRCLE
  8
1
  6
CONTINUOUS
 62
    92
  5
140
 10
45.909167
 20
-108.661
 30
0.0
 40
0.75
210
0.0
220
0.0
230
1.0
  0
CIRCLE
  8
1
  6
CONTINUOUS
 62
    92
  5
141
 10
45.909167
 20
-111.661
 30
0.0
 40
0.75
210
0.0
220
0.0
230
1.0
  0
CIRCLE
  8
1
  6
CONTINUOUS
 62
    92
  5
142
 10
45.909167
 20
-114.661
 30
0.0
 40
0.75
210
0.0
220
0.0
230
1.0
  0
CIRCLE
  8
1
  6
CONTINUOUS
 62
    92
  5
143
 10
45.909167
 20
-117.661
 30
0.0
 40
0.75
210
0.0
220
0.0
230
1.0
  0
CIRCLE
  8
1
  6
CONTINUOUS
 62
    92
  5
144
 10
45.909167
 20
-120.661
 30
0.0
 40
0.75
210
0.0
220
0.0
230
1.0
  0
CIRCLE
  8
1
  6
CONTINUOUS
 62
    92
  5
145
 10
45.909167
 20
-123.661
 30
0.0
 40
0.75
210
0.0
220
0.0
230
1.0
  0
CIRCLE
  8
1
  6
CONTINUOUS
 62
    92
  5
146
 10
45.909167
 20
-126.661
 30
0.0
 40
0.75
210
0.0
220
0.0
230
1.0
  0
CIRCLE
  8
1
  6
CONTINUOUS
 62
    92
  5
147
 10
45.909167
 20
-129.661
 30
0.0
 40
0.75
210
0.0
220
0.0
230
1.0
  0
CIRCLE
  8
1
  6
HIDDEN
 62
    92
  5
148
 10
45.909167
 20
-132.661
 30
0.0
 40
0.75
210
0.0
220
0.0
230
1.0
  0
CIRCLE
  8
1
  6
HIDDEN
 62
    92
  5
149
 10
45.909167
 20
-135.661
 30
0.0
 40
1.0
210
0.0
220
0.0
230
1.0
  0
CIRCLE
  8
1
  6
CONTINUOUS
 62
    92
  5
14A
 10
45.909167
 20
-138.661
 30
0.0
 40
1.25
210
0.0
220
0.0
230
1.0
  0
POLYLINE
  8
1
  6
CONTINUOUS
 62
    92
  5
14B
 66
     1
 10
0.0
 20
0.0
 30
0.0
 70
     1
  0
VERTEX
  8
1
  6
CONTINUOUS
 62
    92
  5
14C
 10
47.014833
 20
-138.661
 30
0.0
  0
VERTEX
  8
1
  6
CONTINUOUS
 62
    92
  5
14D
 10
46.462
 20
-137.7035
 30
0.0
  0
VERTEX
  8
1
  6
CONTINUOUS
 62
    92
  5
14E
 10
45.356333
 20
-137.7035
 30
0.0
  0
VERTEX
  8
1
  6
CONTINUOUS
 62
    92
  5
14F
 10
44.8035
 20
-138.661
 30
0.0
  0
VERTEX
  8
1
  6
CONTINUOUS
 62
    92
  5
150
 10
45.356333
 20
-139.6185
 30
0.0
  0
VERTEX
  8
1
  6
CONTINUOUS
 62
    92
  5
151
 10
46.462
 20
-139.6185
 30
0.0
  0
SEQEND
  8
1
  6
CONTINUOUS
 62
    92
  5
152
  0
CIRCLE
  8
1
  6
HIDDEN
 62
    92
  5
153
 10
45.909167
 20
-141.161
 30
0.0
 40
0.75
210
0.0
220
0.0
230
1.0
  0
CIRCLE
  8
1
  6
HIDDEN
 62
    92
  5
154
 10
45.909167
 20
-143.661
 30
0.0
 40
1.0
210
0.0
220
0.0
230
1.0
  0
CIRCLE
  8
1
  6
HIDDEN
 62
    92
  5
155
 10
45.909167
 20
-146.161
 30
0.0
 40
0.75
210
0.0
220
0.0
230
1.0
  0
LINE
  8
1
  6
HIDDEN
 62
    92
  5
156
 10
43.942917
 20
-148.661
 30
0.0
 11
47.875417
 21
-148.661
 31
0.0
  0
LINE
  8
1
  6
HIDDEN
 62
    92
  5
157
 10
43.942917
 20
-149.161
 30
0.0
 11
47.875417
 21
-149.161
 31
0.0
  0
LINE
  8
1
  6
CONTINUOUS
 62
     7
  5
158
 10
45.909167
 20
-136.661
 30
0.0
 11
45.909167
 21
-142.270833
 31
0.0
  0
CIRCLE
  8
1
  6
HIDDEN
 62
    92
  5
159
 10
45.909167
 20
-158.661
 30
0.0
 40
1.0
210
0.0
220
0.0
230
1.0
  0
CIRCLE
  8
1
  6
HIDDEN
 62
    92
  5
15A
 10
45.909167
 20
-189.161
 30
0.0
 40
1.0
210
0.0
220
0.0
230
1.0
  0
CIRCLE
  8
1
  6
CONTINUOUS
 62
    92
  5
15B
 10
45.909167
 20
-215.161
 30
0.0
 40
1.25
210
0.0
220
0.0
230
1.0
  0
POLYLINE
  8
1
  6
CONTINUOUS
 62
    92
  5
15C
 66
     1
 10
0.0
 20
0.0
 30
0.0
 70
     1
  0
VERTEX
  8
1
  6
CONTINUOUS
 62
    92
  5
15D
 10
47.014833
 20
-215.161
 30
0.0
  0
VERTEX
  8
1
  6
CONTINUOUS
 62
    92
  5
15E
 10
46.462
 20
-214.2035
 30
0.0
  0
VERTEX
  8
1
  6
CONTINUOUS
 62
    92
  5
15F
 10
45.356333
 20
-214.2035
 30
0.0
  0
VERTEX
  8
1
  6
CONTINUOUS
 62
    92
  5
160
 10
44.8035
 20
-215.161
 30
0.0
  0
VERTEX
  8
1
  6
CONTINUOUS
 62
    92
  5
161
 10
45.356333
 20
-216.1185
 30
0.0
  0
VERTEX
  8
1
  6
CONTINUOUS
 62
    92
  5
162
 10
46.462
 20
-216.1185
 30
0.0
  0
SEQEND
  8
1
  6
CONTINUOUS
 62
    92
  5
163
  0
CIRCLE
  8
1
  6
CONTINUOUS
 62
    92
  5
164
 10
45.909167
 20
-243.161
 30
0.0
 40
1.0
210
0.0
220
0.0
230
1.0
  0
CIRCLE
  8
1
  6
CONTINUOUS
 62
    92
  5
165
 10
45.909167
 20
-296.331
 30
0.0
 40
1.0
210
0.0
220
0.0
230
1.0
  0
LINE
  8
1
  6
CONTINUOUS
 62
    92
  5
166
 10
44.909167
 20
-243.161
 30
0.0
 11
46.909167
 21
-243.161
 31
0.0
  0
LINE
  8
1
  6
CONTINUOUS
 62
    92
  5
167
 10
44.909167
 20
-296.331
 30
0.0
 11
46.909167
 21
-296.331
 31
0.0
  0
LINE
  8
1
  6
CONTINUOUS
 62
    92
  5
168
 10
44.659167
 20
-215.161
 30
0.0
 11
47.159167
 21
-215.161
 31
0.0
  0
LINE
  8
1
  6
CONTINUOUS
 62
    92
  5
169
 10
44.909167
 20
-135.661
 30
0.0
 11
46.909167
 21
-135.661
 31
0.0
  0
LINE
  8
1
  6
CONTINUOUS
 62
    92
  5
16A
 10
44.909167
 20
-143.661
 30
0.0
 11
46.909167
 21
-143.661
 31
0.0
  0
LINE
  8
1
  6
CONTINUOUS
 62
    92
  5
16B
 10
44.909167
 20
-158.661
 30
0.0
 11
46.909167
 21
-158.661
 31
0.0
  0
LINE
  8
1
  6
CONTINUOUS
 62
    92
  5
16C
 10
44.909167
 20
-189.161
 30
0.0
 11
46.909167
 21
-189.161
 31
0.0
  0
LINE
  8
1
  6
CONTINUOUS
 62
     7
  5
16D
 10
45.909167
 20
-296.331
 30
0.0
 11
45.909167
 21
-311.166
 31
0.0
  0
LINE
  8
1
  6
CONTINUOUS
 62
     7
  5
16E
 10
45.909167
 20
-285.9135
 30
0.0
 11
45.909167
 21
-290.91425
 31
0.0
  0
LINE
  8
1
  6
CONTINUOUS
 62
     7
  5
16F
 10
45.909167
 20
-280.03025
 30
0.0
 11
45.909167
 21
-284.834917
 31
0.0
  0
LINE
  8
1
  6
CONTINUOUS
 62
     7
  5
170
 10
45.909167
 20
-244.161
 30
0.0
 11
45.909167
 21
-279.147833
 31
0.0
  0
LINE
  8
1
  6
CONTINUOUS
 62
     7
  5
171
 10
45.909167
 20
-236.35525
 30
0.0
 11
45.909167
 21
-239.142
 31
0.0
  0
LINE
  8
1
  6
CONTINUOUS
 62
     7
  5
172
 10
45.909167
 20
-233.154833
 30
0.0
 11
45.909167
 21
-235.669417
 31
0.0
  0
LINE
  8
1
  6
CONTINUOUS
 62
     7
  5
173
 10
45.909167
 20
-220.53625
 30
0.0
 11
45.909167
 21
-232.651917
 31
0.0
  0
LINE
  8
1
  6
CONTINUOUS
 62
     7
  5
174
 10
45.909167
 20
-213.266833
 30
0.0
 11
45.909167
 21
-216.832917
 31
0.0
  0
LINE
  8
1
  6
CONTINUOUS
 62
     7
  5
175
 10
45.909167
 20
-205.8145
 30
0.0
 11
45.909167
 21
-208.649083
 31
0.0
  0
LINE
  8
1
  6
CONTINUOUS
 62
     7
  5
176
 10
45.909167
 20
-195.756167
 30
0.0
 11
45.909167
 21
-203.5285
 31
0.0
  0
LINE
  8
1
  6
CONTINUOUS
 62
     7
  5
177
 10
45.909167
 20
-190.161
 30
0.0
 11
45.909167
 21
-194.018833
 31
0.0
  0
LINE
  8
1
  6
CONTINUOUS
 62
     7
  5
178
 10
45.909167
 20
-145.018167
 30
0.0
 11
45.909167
 21
-163.845
 31
0.0
  0
LINE
  8
1
  6
CONTINUOUS
 62
     7
  5
179
 10
45.909167
 20
-165.372083
 30
0.0
 11
45.909167
 21
-183.59475
 31
0.0
  0
LINE
  8
1
  6
CONTINUOUS
 62
    92
  5
17A
 10
1.512917
 20
-156.491
 30
0.0
 11
26.512917
 21
-131.491
 31
0.0
  0
LINE
  8
1
  6
CONTINUOUS
 62
    92
  5
17B
 10
66.512917
 20
-131.491
 30
0.0
 11
91.512917
 21
-156.491
 31
0.0
  0
LINE
  8
1
  6
CONTINUOUS
 62
    92
  5
17C
 10
91.512917
 20
-196.491
 30
0.0
 11
66.512917
 21
-221.491
 31
0.0
  0
LINE
  8
1
  6
CONTINUOUS
 62
    92
  5
17D
 10
26.512917
 20
-221.491
 30
0.0
 11
1.512917
 21
-196.491
 31
0.0
  0
LINE
  8
1
  6
CONTINUOUS
 62
    92
  5
17E
 10
75.813667
 20
-51.008417
 30
0.0
 11
78.313667
 21
-51.008417
 31
0.0
  0
LINE
  8
1
  6
CONTINUOUS
 62
    92
  5
17F
 10
78.313667
 20
-56.008417
 30
0.0
 11
78.313667
 21
-46.008417
 31
0.0
  0
LINE
  8
1
  6
CONTINUOUS
 62
    92
  5
180
 10
78.313667
 20
-46.008417
 30
0.0
 11
79.813667
 21
-46.008417
 31
0.0
  0
LINE
  8
1
  6
CONTINUOUS
 62
    92
  5
181
 10
78.313667
 20
-56.008417
 30
0.0
 11
79.813667
 21
-56.008417
 31
0.0
  0
LINE
  8
1
  6
CONTINUOUS
 62
    92
  5
182
 10
79.063667
 20
-46.008417
 30
0.0
 11
79.063667
 21
-56.008417
 31
0.0
  0
LINE
  8
1
  6
CONTINUOUS
 62
    92
  5
183
 10
75.813667
 20
-48.008417
 30
0.0
 11
78.313667
 21
-48.008417
 31
0.0
  0
LINE
  8
1
  6
CONTINUOUS
 62
    92
  5
184
 10
75.813667
 20
-54.008417
 30
0.0
 11
78.313667
 21
-54.008417
 31
0.0
  0
ARC
  8
1
  6
CONTINUOUS
 62
    92
  5
185
 10
78.823947
 20
-49.508417
 30
0.0
 40
3.3633
 50
153.513272
 51
206.486728
210
0.0
220
0.0
230
1.0
  0
ARC
  8
1
  6
CONTINUOUS
 62
    92
  5
186
 10
78.823947
 20
-52.508417
 30
0.0
 40
3.3633
 50
153.513272
 51
206.486728
210
0.0
220
0.0
230
1.0
  0
LINE
  8
1
  6
CONTINUOUS
 62
    92
  5
187
 10
75.498
 20
-49.008417
 30
0.0
 11
75.498
 21
-53.008417
 31
0.0
  0
LINE
  8
1
  6
CONTINUOUS
 62
    92
  5
188
 10
74.748
 20
-49.008417
 30
0.0
 11
74.748
 21
-53.008417
 31
0.0
  0
LINE
  8
1
  6
CONTINUOUS
 62
    92
  5
189
 10
83.879333
 20
-49.008417
 30
0.0
 11
98.248
 21
-49.008417
 31
0.0
  0
LINE
  8
1
  6
CONTINUOUS
 62
    92
  5
18A
 10
83.879333
 20
-53.008417
 30
0.0
 11
98.248
 21
-53.008417
 31
0.0
  0
LINE
  8
1
  6
CONTINUOUS
 62
    92
  5
18B
 10
74.748
 20
-49.008417
 30
0.0
 11
75.498
 21
-49.008417
 31
0.0
  0
LINE
  8
1
  6
HIDDEN
 62
    92
  5
18C
 10
75.498
 20
-49.008417
 30
0.0
 11
78.313667
 21
-49.008417
 31
0.0
  0
LINE
  8
1
  6
CONTINUOUS
 62
    92
  5
18D
 10
74.748
 20
-53.008417
 30
0.0
 11
75.498
 21
-53.008417
 31
0.0
  0
LINE
  8
1
  6
HIDDEN
 62
    92
  5
18E
 10
75.498
 20
-53.008417
 30
0.0
 11
78.313667
 21
-53.008417
 31
0.0
  0
LINE
  8
1
  6
CONTINUOUS
 62
    92
  5
18F
 10
74.748
 20
-49.008417
 30
0.0
 11
75.460667
 21
-52.508417
 31
0.0
  0
LINE
  8
1
  6
CONTINUOUS
 62
    92
  5
190
 10
83.563667
 20
-51.008417
 30
0.0
 11
81.063667
 21
-51.008417
 31
0.0
  0
LINE
  8
1
  6
CONTINUOUS
 62
    92
  5
191
 10
83.563667
 20
-48.008417
 30
0.0
 11
81.063667
 21
-48.008417
 31
0.0
  0
LINE
  8
1
  6
CONTINUOUS
 62
    92
  5
192
 10
83.563667
 20
-54.008417
 30
0.0
 11
81.063667
 21
-54.008417
 31
0.0
  0
ARC
  8
1
  6
CONTINUOUS
 62
    92
  5
193
 10
80.553386
 20
-49.508417
 30
0.0
 40
3.3633
 50
333.513272
 51
26.486728
210
0.0
220
0.0
230
1.0
  0
ARC
  8
1
  6
CONTINUOUS
 62
    92
  5
194
 10
80.553386
 20
-52.508417
 30
0.0
 40
3.3633
 50
333.513272
 51
26.486728
210
0.0
220
0.0
230
1.0
  0
LINE
  8
1
  6
CONTINUOUS
 62
    92
  5
195
 10
83.879333
 20
-49.008417
 30
0.0
 11
83.879333
 21
-53.008417
 31
0.0
  0
LINE
  8
1
  6
HIDDEN
 62
    92
  5
196
 10
83.879333
 20
-49.008417
 30
0.0
 11
81.063667
 21
-49.008417
 31
0.0
  0
LINE
  8
1
  6
HIDDEN
 62
    92
  5
197
 10
83.879333
 20
-53.008417
 30
0.0
 11
81.063667
 21
-53.008417
 31
0.0
  0
LINE
  8
1
  6
CONTINUOUS
 62
    92
  5
198
 10
106.313667
 20
-51.008417
 30
0.0
 11
103.813667
 21
-51.008417
 31
0.0
  0
LINE
  8
1
  6
CONTINUOUS
 62
    92
  5
199
 10
103.813667
 20
-56.008417
 30
0.0
 11
103.813667
 21
-46.008417
 31
0.0
  0
LINE
  8
1
  6
CONTINUOUS
 62
    92
  5
19A
 10
103.813667
 20
-46.008417
 30
0.0
 11
102.313667
 21
-46.008417
 31
0.0
  0
LINE
  8
1
  6
CONTINUOUS
 62
    92
  5
19B
 10
103.813667
 20
-56.008417
 30
0.0
 11
102.313667
 21
-56.008417
 31
0.0
  0
LINE
  8
1
  6
CONTINUOUS
 62
    92
  5
19C
 10
103.063667
 20
-46.008417
 30
0.0
 11
103.063667
 21
-56.008417
 31
0.0
  0
LINE
  8
1
  6
CONTINUOUS
 62
    92
  5
19D
 10
106.313667
 20
-48.008417
 30
0.0
 11
103.813667
 21
-48.008417
 31
0.0
  0
LINE
  8
1
  6
CONTINUOUS
 62
    92
  5
19E
 10
106.313667
 20
-54.008417
 30
0.0
 11
103.813667
 21
-54.008417
 31
0.0
  0
ARC
  8
1
  6
CONTINUOUS
 62
    92
  5
19F
 10
103.303386
 20
-49.508417
 30
0.0
 40
3.3633
 50
333.513272
 51
26.486728
210
0.0
220
0.0
230
1.0
  0
ARC
  8
1
  6
CONTINUOUS
 62
    92
  5
1A0
 10
103.303386
 20
-52.508417
 30
0.0
 40
3.3633
 50
333.513272
 51
26.486728
210
0.0
220
0.0
230
1.0
  0
LINE
  8
1
  6
CONTINUOUS
 62
    92
  5
1A1
 10
106.629333
 20
-49.008417
 30
0.0
 11
106.629333
 21
-53.008417
 31
0.0
  0
LINE
  8
1
  6
HIDDEN
 62
    92
  5
1A2
 10
106.629333
 20
-49.008417
 30
0.0
 11
103.813667
 21
-49.008417
 31
0.0
  0
LINE
  8
1
  6
HIDDEN
 62
    92
  5
1A3
 10
106.629333
 20
-53.008417
 30
0.0
 11
103.813667
 21
-53.008417
 31
0.0
  0
LINE
  8
1
  6
CONTINUOUS
 62
    92
  5
1A4
 10
98.563667
 20
-51.008417
 30
0.0
 11
101.063667
 21
-51.008417
 31
0.0
  0
LINE
  8
1
  6
CONTINUOUS
 62
    92
  5
1A5
 10
98.563667
 20
-48.008417
 30
0.0
 11
101.063667
 21
-48.008417
 31
0.0
  0
LINE
  8
1
  6
CONTINUOUS
 62
    92
  5
1A6
 10
98.563667
 20
-54.008417
 30
0.0
 11
101.063667
 21
-54.008417
 31
0.0
  0
ARC
  8
1
  6
CONTINUOUS
 62
    92
  5
1A7
 10
101.573947
 20
-49.508417
 30
0.0
 40
3.3633
 50
153.513272
 51
206.486728
210
0.0
220
0.0
230
1.0
  0
ARC
  8
1
  6
CONTINUOUS
 62
    92
  5
1A8
 10
101.573947
 20
-52.508417
 30
0.0
 40
3.3633
 50
153.513272
 51
206.486728
210
0.0
220
0.0
230
1.0
  0
LINE
  8
1
  6
CONTINUOUS
 62
    92
  5
1A9
 10
98.248
 20
-49.008417
 30
0.0
 11
98.248
 21
-53.008417
 31
0.0
  0
LINE
  8
1
  6
HIDDEN
 62
    92
  5
1AA
 10
98.248
 20
-49.008417
 30
0.0
 11
101.063667
 21
-49.008417
 31
0.0
  0
LINE
  8
1
  6
HIDDEN
 62
    92
  5
1AB
 10
98.248
 20
-53.008417
 30
0.0
 11
101.063667
 21
-53.008417
 31
0.0
  0
LINE
  8
1
  6
CONTINUOUS
 62
    92
  5
1AC
 10
83.879333
 20
-49.008417
 30
0.0
 11
84.569667
 21
-53.008417
 31
0.0
  0
LINE
  8
1
  6
CONTINUOUS
 62
    92
  5
1AD
 10
84.640333
 20
-49.008417
 30
0.0
 11
85.330667
 21
-53.008417
 31
0.0
  0
LINE
  8
1
  6
CONTINUOUS
 62
    92
  5
1AE
 10
85.401417
 20
-49.008417
 30
0.0
 11
86.09175
 21
-53.008417
 31
0.0
  0
LINE
  8
1
  6
CONTINUOUS
 62
    92
  5
1AF
 10
86.162583
 20
-49.008417
 30
0.0
 11
86.852917
 21
-53.008417
 31
0.0
  0
LINE
  8
1
  6
CONTINUOUS
 62
    92
  5
1B0
 10
86.923667
 20
-49.008417
 30
0.0
 11
87.614
 21
-53.008417
 31
0.0
  0
LINE
  8
1
  6
CONTINUOUS
 62
    92
  5
1B1
 10
87.68475
 20
-49.008417
 30
0.0
 11
88.375083
 21
-53.008417
 31
0.0
  0
LINE
  8
1
  6
CONTINUOUS
 62
    92
  5
1B2
 10
88.445833
 20
-49.008417
 30
0.0
 11
89.136167
 21
-53.008417
 31
0.0
  0
LINE
  8
1
  6
CONTINUOUS
 62
    92
  5
1B3
 10
89.206917
 20
-49.008417
 30
0.0
 11
89.89725
 21
-53.008417
 31
0.0
  0
LINE
  8
1
  6
CONTINUOUS
 62
    92
  5
1B4
 10
89.968
 20
-49.008417
 30
0.0
 11
90.658333
 21
-53.008417
 31
0.0
  0
LINE
  8
1
  6
CONTINUOUS
 62
    92
  5
1B5
 10
90.729167
 20
-49.008417
 30
0.0
 11
91.4195
 21
-53.008417
 31
0.0
  0
LINE
  8
1
  6
CONTINUOUS
 62
    92
  5
1B6
 10
91.490167
 20
-49.008417
 30
0.0
 11
92.1805
 21
-53.008417
 31
0.0
  0
LINE
  8
1
  6
CONTINUOUS
 62
    92
  5
1B7
 10
92.25125
 20
-49.008417
 30
0.0
 11
92.941583
 21
-53.008417
 31
0.0
  0
LINE
  8
1
  6
CONTINUOUS
 62
    92
  5
1B8
 10
93.012333
 20
-49.008417
 30
0.0
 11
93.702667
 21
-53.008417
 31
0.0
  0
LINE
  8
1
  6
CONTINUOUS
 62
    92
  5
1B9
 10
93.773417
 20
-49.008417
 30
0.0
 11
94.46375
 21
-53.008417
 31
0.0
  0
LINE
  8
1
  6
CONTINUOUS
 62
    92
  5
1BA
 10
94.5345
 20
-49.008417
 30
0.0
 11
95.224833
 21
-53.008417
 31
0.0
  0
LINE
  8
1
  6
CONTINUOUS
 62
    92
  5
1BB
 10
95.295667
 20
-49.008417
 30
0.0
 11
95.986
 21
-53.008417
 31
0.0
  0
LINE
  8
1
  6
CONTINUOUS
 62
    92
  5
1BC
 10
96.056667
 20
-49.008417
 30
0.0
 11
96.747
 21
-53.008417
 31
0.0
  0
LINE
  8
1
  6
CONTINUOUS
 62
    92
  5
1BD
 10
96.81775
 20
-49.008417
 30
0.0
 11
97.508083
 21
-53.008417
 31
0.0
  0
LINE
  8
1
  6
CONTINUOUS
 62
    92
  5
1BE
 10
97.578917
 20
-49.008417
 30
0.0
 11
98.216167
 21
-52.701083
 31
0.0
  0
LINE
  8
1
  6
CONTINUOUS
 62
    92
  5
1BF
 10
79.813667
 20
-61.008417
 30
0.0
 11
79.813667
 21
-41.008417
 31
0.0
  0
LINE
  8
1
  6
CONTINUOUS
 62
    92
  5
1C0
 10
81.063667
 20
-41.008417
 30
0.0
 11
81.063667
 21
-61.008417
 31
0.0
  0
LINE
  8
1
  6
CONTINUOUS
 62
    92
  5
1C1
 10
101.063667
 20
-61.008417
 30
0.0
 11
101.063667
 21
-41.008417
 31
0.0
  0
LINE
  8
1
  6
CONTINUOUS
 62
    92
  5
1C2
 10
102.313667
 20
-41.008417
 30
0.0
 11
102.313667
 21
-61.008417
 31
0.0
  0
LINE
  8
1
  6
CONTINUOUS
 62
    92
  5
1C3
 10
81.063667
 20
-60.735917
 30
0.0
 11
79.813667
 21
-59.485917
 31
0.0
  0
LINE
  8
1
  6
CONTINUOUS
 62
    92
  5
1C4
 10
81.063667
 20
-58.968167
 30
0.0
 11
79.813667
 21
-57.718167
 31
0.0
  0
LINE
  8
1
  6
CONTINUOUS
 62
    92
  5
1C5
 10
81.063667
 20
-57.200333
 30
0.0
 11
79.813667
 21
-55.950333
 31
0.0
  0
LINE
  8
1
  6
CONTINUOUS
 62
    92
  5
1C6
 10
81.063667
 20
-55.432583
 30
0.0
 11
79.813667
 21
-54.182583
 31
0.0
  0
LINE
  8
1
  6
CONTINUOUS
 62
    92
  5
1C7
 10
81.063667
 20
-53.664833
 30
0.0
 11
79.813667
 21
-52.414833
 31
0.0
  0
LINE
  8
1
  6
CONTINUOUS
 62
    92
  5
1C8
 10
81.063667
 20
-51.897083
 30
0.0
 11
79.813667
 21
-50.647083
 31
0.0
  0
LINE
  8
1
  6
CONTINUOUS
 62
    92
  5
1C9
 10
81.063667
 20
-50.129333
 30
0.0
 11
79.813667
 21
-48.879333
 31
0.0
  0
LINE
  8
1
  6
CONTINUOUS
 62
    92
  5
1CA
 10
81.063667
 20
-48.3615
 30
0.0
 11
79.813667
 21
-47.1115
 31
0.0
  0
LINE
  8
1
  6
CONTINUOUS
 62
    92
  5
1CB
 10
81.063667
 20
-46.59375
 30
0.0
 11
79.813667
 21
-45.34375
 31
0.0
  0
LINE
  8
1
  6
CONTINUOUS
 62
    92
  5
1CC
 10
81.063667
 20
-44.826
 30
0.0
 11
79.813667
 21
-43.576
 31
0.0
  0
LINE
  8
1
  6
CONTINUOUS
 62
    92
  5
1CD
 10
81.063667
 20
-43.05825
 30
0.0
 11
79.813667
 21
-41.80825
 31
0.0
  0
LINE
  8
1
  6
CONTINUOUS
 62
    92
  5
1CE
 10
81.063667
 20
-41.2905
 30
0.0
 11
80.781583
 21
-41.008417
 31
0.0
  0
LINE
  8
1
  6
CONTINUOUS
 62
    92
  5
1CF
 10
102.313667
 20
-60.965667
 30
0.0
 11
101.063667
 21
-59.715667
 31
0.0
  0
LINE
  8
1
  6
CONTINUOUS
 62
    92
  5
1D0
 10
102.313667
 20
-59.197917
 30
0.0
 11
101.063667
 21
-57.947917
 31
0.0
  0
LINE
  8
1
  6
CONTINUOUS
 62
    92
  5
1D1
 10
102.313667
 20
-57.430167
 30
0.0
 11
101.063667
 21
-56.180167
 31
0.0
  0
LINE
  8
1
  6
CONTINUOUS
 62
    92
  5
1D2
 10
102.313667
 20
-55.662417
 30
0.0
 11
101.063667
 21
-54.412417
 31
0.0
  0
LINE
  8
1
  6
CONTINUOUS
 62
    92
  5
1D3
 10
102.313667
 20
-53.894667
 30
0.0
 11
101.063667
 21
-52.644667
 31
0.0
  0
LINE
  8
1
  6
CONTINUOUS
 62
    92
  5
1D4
 10
102.313667
 20
-52.126833
 30
0.0
 11
101.063667
 21
-50.876833
 31
0.0
  0
LINE
  8
1
  6
CONTINUOUS
 62
    92
  5
1D5
 10
102.313667
 20
-50.359083
 30
0.0
 11
101.063667
 21
-49.109083
 31
0.0
  0
LINE
  8
1
  6
CONTINUOUS
 62
    92
  5
1D6
 10
102.313667
 20
-48.591333
 30
0.0
 11
101.063667
 21
-47.341333
 31
0.0
  0
LINE
  8
1
  6
CONTINUOUS
 62
    92
  5
1D7
 10
102.313667
 20
-46.823583
 30
0.0
 11
101.063667
 21
-45.573583
 31
0.0
  0
LINE
  8
1
  6
CONTINUOUS
 62
    92
  5
1D8
 10
102.313667
 20
-45.055833
 30
0.0
 11
101.063667
 21
-43.805833
 31
0.0
  0
LINE
  8
1
  6
CONTINUOUS
 62
    92
  5
1D9
 10
102.313667
 20
-43.288
 30
0.0
 11
101.063667
 21
-42.038
 31
0.0
  0
LINE
  8
1
  6
CONTINUOUS
 62
    92
  5
1DA
 10
102.313667
 20
-41.52025
 30
0.0
 11
101.801833
 21
-41.008417
 31
0.0
  0
LINE
  8
1
  6
CONTINUOUS
 62
    92
  5
1DB
 10
202.207667
 20
-26.265333
 30
0.0
 11
202.207667
 21
-222.285333
 31
0.0
  0
LINE
  8
1
  6
DASHED
 62
    92
  5
1DC
 10
201.451417
 20
-46.230333
 30
0.0
 11
201.451417
 21
-223.925833
 31
0.0
  0
LINE
  8
1
  6
DASHED
 62
    92
  5
1DD
 10
202.963917
 20
-28.685333
 30
0.0
 11
202.963917
 21
-228.335333
 31
0.0
  0
LINE
  8
1
  6
CONTINUOUS
 62
    92
  5
1DE
 10
197.972667
 20
-26.265333
 30
0.0
 11
197.972667
 21
-228.335333
 31
0.0
  0
LINE
  8
1
  6
CONTINUOUS
 62
    92
  5
1DF
 10
206.442667
 20
-28.685333
 30
0.0
 11
206.442667
 21
-228.335333
 31
0.0
  0
LINE
  8
1
  6
CONTINUOUS
 62
    92
  5
1E0
 10
196.762667
 20
-28.685333
 30
0.0
 11
196.762667
 21
-228.335333
 31
0.0
  0
LINE
  8
1
  6
CONTINUOUS
 62
    92
  5
1E1
 10
207.652667
 20
-28.685333
 30
0.0
 11
207.652667
 21
-228.335333
 31
0.0
  0
LINE
  8
1
  6
CONTINUOUS
 62
    92
  5
1E2
 10
195.552667
 20
-28.685333
 30
0.0
 11
195.552667
 21
-138.795333
 31
0.0
  0
LINE
  8
1
  6
CONTINUOUS
 62
    92
  5
1E3
 10
208.862667
 20
-28.685333
 30
0.0
 11
208.862667
 21
-138.795333
 31
0.0
  0
LINE
  8
1
  6
CONTINUOUS
 62
    92
  5
1E4
 10
195.552667
 20
-28.685333
 30
0.0
 11
196.762667
 21
-28.685333
 31
0.0
  0
LINE
  8
1
  6
CONTINUOUS
 62
    92
  5
1E5
 10
208.862667
 20
-28.685333
 30
0.0
 11
202.207667
 21
-28.685333
 31
0.0
  0
LINE
  8
1
  6
CONTINUOUS
 62
    92
  5
1E6
 10
151.992667
 20
-26.265333
 30
0.0
 11
248.187667
 21
-26.265333
 31
0.0
  0
LINE
  8
1
  6
DASHED
 62
    92
  5
1E7
 10
197.972667
 20
-26.265333
 30
0.0
 11
197.972667
 21
10.034667
 31
0.0
  0
LINE
  8
1
  6
DASHED
 62
    92
  5
1E8
 10
202.207667
 20
-26.265333
 30
0.0
 11
202.207667
 21
10.034667
 31
0.0
  0
LINE
  8
1
  6
CONTINUOUS
 62
    92
  5
1E9
 10
151.992667
 20
10.034667
 30
0.0
 11
248.187667
 21
10.034667
 31
0.0
  0
LINE
  8
1
  6
CONTINUOUS
 62
    92
  5
1EA
 10
254.237667
 20
3.984667
 30
0.0
 11
254.237667
 21
-20.215333
 31
0.0
  0
LINE
  8
1
  6
CONTINUOUS
 62
    92
  5
1EB
 10
145.942667
 20
3.984667
 30
0.0
 11
145.942667
 21
-20.215333
 31
0.0
  0
LINE
  8
1
  6
HIDDEN
 62
    92
  5
1EC
 10
196.762667
 20
-31.105333
 30
0.0
 11
204.173917
 21
-31.105333
 31
0.0
  0
LINE
  8
1
  6
HIDDEN
 62
    92
  5
1ED
 10
196.762667
 20
-32.315333
 30
0.0
 11
204.173917
 21
-32.315333
 31
0.0
  0
LINE
  8
1
  6
CONTINUOUS
 62
    92
  5
1EE
 10
196.762667
 20
-32.920333
 30
0.0
 11
197.972667
 21
-32.920333
 31
0.0
  0
LINE
  8
1
  6
CONTINUOUS
 62
    92
  5
1EF
 10
202.963917
 20
-32.920333
 30
0.0
 11
204.173917
 21
-32.920333
 31
0.0
  0
LINE
  8
1
  6
CONTINUOUS
 62
    92
  5
1F0
 10
196.762667
 20
-30.500333
 30
0.0
 11
197.972667
 21
-30.500333
 31
0.0
  0
LINE
  8
1
  6
CONTINUOUS
 62
    92
  5
1F1
 10
202.963917
 20
-30.500333
 30
0.0
 11
204.173917
 21
-30.500333
 31
0.0
  0
LINE
  8
1
  6
CONTINUOUS
 62
    92
  5
1F2
 10
204.173917
 20
-30.500333
 30
0.0
 11
204.173917
 21
-32.920333
 31
0.0
  0
LINE
  8
1
  6
CONTINUOUS
 62
    92
  5
1F3
 10
196.762667
 20
-42.600333
 30
0.0
 11
197.972667
 21
-42.600333
 31
0.0
  0
LINE
  8
1
  6
CONTINUOUS
 62
    92
  5
1F4
 10
202.963917
 20
-42.600333
 30
0.0
 11
204.173917
 21
-42.600333
 31
0.0
  0
LINE
  8
1
  6
CONTINUOUS
 62
    92
  5
1F5
 10
196.762667
 20
-40.180333
 30
0.0
 11
197.972667
 21
-40.180333
 31
0.0
  0
LINE
  8
1
  6
CONTINUOUS
 62
    92
  5
1F6
 10
202.963917
 20
-40.180333
 30
0.0
 11
204.173917
 21
-40.180333
 31
0.0
  0
LINE
  8
1
  6
CONTINUOUS
 62
    92
  5
1F7
 10
204.173917
 20
-40.180333
 30
0.0
 11
204.173917
 21
-42.600333
 31
0.0
  0
LINE
  8
1
  6
HIDDEN
 62
    92
  5
1F8
 10
197.972667
 20
-34.735333
 30
0.0
 11
206.442667
 21
-34.735333
 31
0.0
  0
LINE
  8
1
  6
HIDDEN
 62
    92
  5
1F9
 10
197.972667
 20
-35.945333
 30
0.0
 11
206.442667
 21
-35.945333
 31
0.0
  0
LINE
  8
1
  6
CONTINUOUS
 62
    92
  5
1FA
 10
194.342667
 20
-34.735333
 30
0.0
 11
191.922667
 21
-34.735333
 31
0.0
  0
LINE
  8
1
  6
CONTINUOUS
 62
    92
  5
1FB
 10
194.342667
 20
-35.945333
 30
0.0
 11
191.922667
 21
-35.945333
 31
0.0
  0
LINE
  8
1
  6
CONTINUOUS
 62
    92
  5
1FC
 10
195.552667
 20
-33.525333
 30
0.0
 11
194.342667
 21
-33.525333
 31
0.0
  0
LINE
  8
1
  6
CONTINUOUS
 62
    92
  5
1FD
 10
195.552667
 20
-37.155333
 30
0.0
 11
194.342667
 21
-37.155333
 31
0.0
  0
LINE
  8
1
  6
CONTINUOUS
 62
    92
  5
1FE
 10
208.862667
 20
-33.525333
 30
0.0
 11
210.072667
 21
-33.525333
 31
0.0
  0
LINE
  8
1
  6
CONTINUOUS
 62
    92
  5
1FF
 10
208.862667
 20
-37.155333
 30
0.0
 11
210.072667
 21
-37.155333
 31
0.0
  0
LINE
  8
1
  6
CONTINUOUS
 62
    92
  5
200
 10
194.342667
 20
-33.525333
 30
0.0
 11
194.342667
 21
-37.155333
 31
0.0
  0
LINE
  8
1
  6
CONTINUOUS
 62
    92
  5
201
 10
210.072667
 20
-33.525333
 30
0.0
 11
210.072667
 21
-37.155333
 31
0.0
  0
LINE
  8
1
  6
CONTINUOUS
 62
    92
  5
202
 10
193.132667
 20
-34.130333
 30
0.0
 11
193.132667
 21
-36.550333
 31
0.0
  0
LINE
  8
1
  6
CONTINUOUS
 62
    92
  5
203
 10
191.922667
 20
-34.735333
 30
0.0
 11
191.922667
 21
-35.945333
 31
0.0
  0
LINE
  8
1
  6
CONTINUOUS
 62
    92
  5
204
 10
193.132667
 20
-34.130333
 30
0.0
 11
194.342667
 21
-34.130333
 31
0.0
  0
LINE
  8
1
  6
CONTINUOUS
 62
    92
  5
205
 10
193.132667
 20
-36.550333
 30
0.0
 11
194.342667
 21
-36.550333
 31
0.0
  0
LINE
  8
1
  6
CONTINUOUS
 62
    92
  5
206
 10
192.527667
 20
-35.037833
 30
0.0
 11
192.527667
 21
-35.642833
 31
0.0
  0
ARC
  8
1
  6
CONTINUOUS
 62
    92
  5
207
 10
209.599821
 20
-35.340263
 30
0.0
 40
1.299118
 50
291.345756
 51
68.65425
210
0.0
220
0.0
230
1.0
  0
LINE
  8
1
  6
CONTINUOUS
 62
    92
  5
208
 10
202.207667
 20
-46.230333
 30
0.0
 11
196.762667
 21
-46.230333
 31
0.0
  0
LINE
  8
1
  6
CONTINUOUS
 62
    92
  5
209
 10
202.207667
 20
-45.927833
 30
0.0
 11
197.972667
 21
-45.927833
 31
0.0
  0
LINE
  8
1
  6
HIDDEN
 62
    92
  5
20A
 10
197.972667
 20
-131.535333
 30
0.0
 11
206.442667
 21
-131.535333
 31
0.0
  0
LINE
  8
1
  6
HIDDEN
 62
    92
  5
20B
 10
197.972667
 20
-132.745333
 30
0.0
 11
206.442667
 21
-132.745333
 31
0.0
  0
LINE
  8
1
  6
CONTINUOUS
 62
    92
  5
20C
 10
194.342667
 20
-131.535333
 30
0.0
 11
191.922667
 21
-131.535333
 31
0.0
  0
LINE
  8
1
  6
CONTINUOUS
 62
    92
  5
20D
 10
194.342667
 20
-132.745333
 30
0.0
 11
191.922667
 21
-132.745333
 31
0.0
  0
LINE
  8
1
  6
CONTINUOUS
 62
    92
  5
20E
 10
195.552667
 20
-130.325333
 30
0.0
 11
194.342667
 21
-130.325333
 31
0.0
  0
LINE
  8
1
  6
CONTINUOUS
 62
    92
  5
20F
 10
195.552667
 20
-133.955333
 30
0.0
 11
194.342667
 21
-133.955333
 31
0.0
  0
LINE
  8
1
  6
CONTINUOUS
 62
    92
  5
210
 10
208.862667
 20
-130.325333
 30
0.0
 11
210.072667
 21
-130.325333
 31
0.0
  0
LINE
  8
1
  6
CONTINUOUS
 62
    92
  5
211
 10
208.862667
 20
-133.955333
 30
0.0
 11
210.072667
 21
-133.955333
 31
0.0
  0
LINE
  8
1
  6
CONTINUOUS
 62
    92
  5
212
 10
194.342667
 20
-130.325333
 30
0.0
 11
194.342667
 21
-133.955333
 31
0.0
  0
LINE
  8
1
  6
CONTINUOUS
 62
    92
  5
213
 10
210.072667
 20
-130.325333
 30
0.0
 11
210.072667
 21
-133.955333
 31
0.0
  0
LINE
  8
1
  6
CONTINUOUS
 62
    92
  5
214
 10
193.132667
 20
-130.930333
 30
0.0
 11
193.132667
 21
-133.350333
 31
0.0
  0
LINE
  8
1
  6
CONTINUOUS
 62
    92
  5
215
 10
191.922667
 20
-131.535333
 30
0.0
 11
191.922667
 21
-132.745333
 31
0.0
  0
LINE
  8
1
  6
CONTINUOUS
 62
    92
  5
216
 10
193.132667
 20
-130.930333
 30
0.0
 11
194.342667
 21
-130.930333
 31
0.0
  0
LINE
  8
1
  6
CONTINUOUS
 62
    92
  5
217
 10
193.132667
 20
-133.350333
 30
0.0
 11
194.342667
 21
-133.350333
 31
0.0
  0
LINE
  8
1
  6
CONTINUOUS
 62
    92
  5
218
 10
192.527667
 20
-131.837833
 30
0.0
 11
192.527667
 21
-132.442833
 31
0.0
  0
ARC
  8
1
  6
CONTINUOUS
 62
    92
  5
219
 10
209.599821
 20
-132.140263
 30
0.0
 40
1.299118
 50
291.345756
 51
68.65425
210
0.0
220
0.0
230
1.0
  0
LINE
  8
1
  6
CONTINUOUS
 62
    92
  5
21A
 10
195.552667
 20
-138.795333
 30
0.0
 11
196.762667
 21
-138.795333
 31
0.0
  0
LINE
  8
1
  6
CONTINUOUS
 62
    92
  5
21B
 10
207.652667
 20
-138.795333
 30
0.0
 11
208.862667
 21
-138.795333
 31
0.0
  0
LINE
  8
1
  6
HIDDEN
 62
    92
  5
21C
 10
201.451417
 20
-57.876583
 30
0.0
 11
202.963917
 21
-57.876583
 31
0.0
  0
LINE
  8
1
  6
HIDDEN
 62
    92
  5
21D
 10
201.451417
 20
-58.784083
 30
0.0
 11
202.963917
 21
-58.784083
 31
0.0
  0
LINE
  8
1
  6
HIDDEN
 62
    92
  5
21E
 10
196.762667
 20
-40.785333
 30
0.0
 11
202.963917
 21
-40.785333
 31
0.0
  0
LINE
  8
1
  6
HIDDEN
 62
    92
  5
21F
 10
202.963917
 20
-40.785333
 30
0.0
 11
204.173917
 21
-40.785333
 31
0.0
  0
LINE
  8
1
  6
HIDDEN
 62
    92
  5
220
 10
196.762667
 20
-41.995333
 30
0.0
 11
202.963917
 21
-41.995333
 31
0.0
  0
LINE
  8
1
  6
HIDDEN
 62
    92
  5
221
 10
202.963917
 20
-41.995333
 30
0.0
 11
204.173917
 21
-41.995333
 31
0.0
  0
LINE
  8
1
  6
HIDDEN
 62
    92
  5
222
 10
202.963917
 20
-57.876583
 30
0.0
 11
204.022667
 21
-57.876583
 31
0.0
  0
LINE
  8
1
  6
CONTINUOUS
 62
    92
  5
223
 10
202.963917
 20
-59.389083
 30
0.0
 11
204.022667
 21
-59.389083
 31
0.0
  0
LINE
  8
1
  6
CONTINUOUS
 62
    92
  5
224
 10
202.963917
 20
-57.271583
 30
0.0
 11
204.022667
 21
-57.271583
 31
0.0
  0
LINE
  8
1
  6
CONTINUOUS
 62
    92
  5
225
 10
204.022667
 20
-57.271583
 30
0.0
 11
204.022667
 21
-59.389083
 31
0.0
  0
LINE
  8
1
  6
HIDDEN
 62
    92
  5
226
 10
202.963917
 20
-58.784083
 30
0.0
 11
204.022667
 21
-58.784083
 31
0.0
  0
LINE
  8
1
  6
CONTINUOUS
 62
    92
  5
227
 10
200.392667
 20
-57.271583
 30
0.0
 11
200.392667
 21
-59.389083
 31
0.0
  0
LINE
  8
1
  6
HIDDEN
 62
    92
  5
228
 10
201.451417
 20
-57.876583
 30
0.0
 11
200.392667
 21
-57.876583
 31
0.0
  0
LINE
  8
1
  6
CONTINUOUS
 62
    92
  5
229
 10
201.451417
 20
-59.389083
 30
0.0
 11
200.392667
 21
-59.389083
 31
0.0
  0
LINE
  8
1
  6
CONTINUOUS
 62
    92
  5
22A
 10
201.451417
 20
-57.271583
 30
0.0
 11
200.392667
 21
-57.271583
 31
0.0
  0
LINE
  8
1
  6
HIDDEN
 62
    92
  5
22B
 10
201.451417
 20
-58.784083
 30
0.0
 11
200.392667
 21
-58.784083
 31
0.0
  0
LINE
  8
1
  6
CONTINUOUS
 62
    92
  5
22C
 10
201.451417
 20
-95.689083
 30
0.0
 11
200.392667
 21
-95.689083
 31
0.0
  0
LINE
  8
1
  6
HIDDEN
 62
    92
  5
22D
 10
201.451417
 20
-96.294083
 30
0.0
 11
202.963917
 21
-96.294083
 31
0.0
  0
LINE
  8
1
  6
HIDDEN
 62
    92
  5
22E
 10
201.451417
 20
-97.201583
 30
0.0
 11
202.963917
 21
-97.201583
 31
0.0
  0
LINE
  8
1
  6
HIDDEN
 62
    92
  5
22F
 10
202.963917
 20
-96.294083
 30
0.0
 11
204.022667
 21
-96.294083
 31
0.0
  0
LINE
  8
1
  6
CONTINUOUS
 62
    92
  5
230
 10
202.963917
 20
-97.806583
 30
0.0
 11
204.022667
 21
-97.806583
 31
0.0
  0
LINE
  8
1
  6
CONTINUOUS
 62
    92
  5
231
 10
202.963917
 20
-95.689083
 30
0.0
 11
204.022667
 21
-95.689083
 31
0.0
  0
LINE
  8
1
  6
CONTINUOUS
 62
    92
  5
232
 10
204.022667
 20
-95.689083
 30
0.0
 11
204.022667
 21
-97.806583
 31
0.0
  0
LINE
  8
1
  6
HIDDEN
 62
    92
  5
233
 10
202.963917
 20
-97.201583
 30
0.0
 11
204.022667
 21
-97.201583
 31
0.0
  0
LINE
  8
1
  6
CONTINUOUS
 62
    92
  5
234
 10
200.392667
 20
-95.689083
 30
0.0
 11
200.392667
 21
-97.806583
 31
0.0
  0
LINE
  8
1
  6
HIDDEN
 62
    92
  5
235
 10
201.451417
 20
-96.294083
 30
0.0
 11
200.392667
 21
-96.294083
 31
0.0
  0
LINE
  8
1
  6
CONTINUOUS
 62
    92
  5
236
 10
201.451417
 20
-97.806583
 30
0.0
 11
200.392667
 21
-97.806583
 31
0.0
  0
LINE
  8
1
  6
HIDDEN
 62
    92
  5
237
 10
201.451417
 20
-97.201583
 30
0.0
 11
200.392667
 21
-97.201583
 31
0.0
  0
LINE
  8
1
  6
CONTINUOUS
 62
    92
  5
238
 10
200.392667
 20
-204.589083
 30
0.0
 11
200.392667
 21
-206.706583
 31
0.0
  0
LINE
  8
1
  6
CONTINUOUS
 62
    92
  5
239
 10
201.451417
 20
-204.589083
 30
0.0
 11
200.392667
 21
-204.589083
 31
0.0
  0
LINE
  8
1
  6
HIDDEN
 62
    92
  5
23A
 10
201.451417
 20
-205.194083
 30
0.0
 11
202.963917
 21
-205.194083
 31
0.0
  0
LINE
  8
1
  6
HIDDEN
 62
    92
  5
23B
 10
201.451417
 20
-206.101583
 30
0.0
 11
202.963917
 21
-206.101583
 31
0.0
  0
LINE
  8
1
  6
HIDDEN
 62
    92
  5
23C
 10
202.963917
 20
-205.194083
 30
0.0
 11
204.022667
 21
-205.194083
 31
0.0
  0
LINE
  8
1
  6
CONTINUOUS
 62
    92
  5
23D
 10
202.963917
 20
-206.706583
 30
0.0
 11
204.022667
 21
-206.706583
 31
0.0
  0
LINE
  8
1
  6
CONTINUOUS
 62
    92
  5
23E
 10
202.963917
 20
-204.589083
 30
0.0
 11
204.022667
 21
-204.589083
 31
0.0
  0
LINE
  8
1
  6
CONTINUOUS
 62
    92
  5
23F
 10
204.022667
 20
-204.589083
 30
0.0
 11
204.022667
 21
-206.706583
 31
0.0
  0
LINE
  8
1
  6
HIDDEN
 62
    92
  5
240
 10
202.963917
 20
-206.101583
 30
0.0
 11
204.022667
 21
-206.101583
 31
0.0
  0
LINE
  8
1
  6
HIDDEN
 62
    92
  5
241
 10
201.451417
 20
-205.194083
 30
0.0
 11
200.392667
 21
-205.194083
 31
0.0
  0
LINE
  8
1
  6
CONTINUOUS
 62
    92
  5
242
 10
201.451417
 20
-206.706583
 30
0.0
 11
200.392667
 21
-206.706583
 31
0.0
  0
LINE
  8
1
  6
HIDDEN
 62
    92
  5
243
 10
201.451417
 20
-206.101583
 30
0.0
 11
200.392667
 21
-206.101583
 31
0.0
  0
LINE
  8
1
  6
CONTINUOUS
 62
    92
  5
244
 10
202.207667
 20
-223.495333
 30
0.0
 11
202.207667
 21
-233.175333
 31
0.0
  0
LINE
  8
1
  6
CONTINUOUS
 62
    92
  5
245
 10
193.132667
 20
-228.335333
 30
0.0
 11
200.997667
 21
-228.335333
 31
0.0
  0
LINE
  8
1
  6
CONTINUOUS
 62
    92
  5
246
 10
203.417667
 20
-228.335333
 30
0.0
 11
211.282667
 21
-228.335333
 31
0.0
  0
LINE
  8
1
  6
CONTINUOUS
 62
    92
  5
247
 10
202.207667
 20
-223.495333
 30
0.0
 11
200.997667
 21
-228.335333
 31
0.0
  0
LINE
  8
1
  6
CONTINUOUS
 62
    92
  5
248
 10
202.207667
 20
-233.175333
 30
0.0
 11
203.417667
 21
-228.335333
 31
0.0
  0
ARC
  8
1
  6
CONTINUOUS
 62
    92
  5
249
 10
6.512917
 20
-136.491
 30
0.0
 40
5.0
 50
90.0
 51
180.0
210
0.0
220
0.0
230
1.0
  0
ARC
  8
1
  6
CONTINUOUS
 62
    92
  5
24A
 10
151.992694
 20
3.984737
 30
0.0
 40
6.05
 50
90.0
 51
180.0
210
0.0
220
0.0
230
1.0
  0
ARC
  8
1
  6
CONTINUOUS
 62
    92
  5
24B
 10
248.187694
 20
3.984737
 30
0.0
 40
6.05
 50
0.0
 51
90.0
210
0.0
220
0.0
230
1.0
  0
ARC
  8
1
  6
CONTINUOUS
 62
    92
  5
24C
 10
248.187694
 20
-20.215263
 30
0.0
 40
6.05
 50
270.0
 51
0.0
210
0.0
220
0.0
230
1.0
  0
ARC
  8
1
  6
CONTINUOUS
 62
    92
  5
24D
 10
151.992694
 20
-20.215263
 30
0.0
 40
6.05
 50
180.0
 51
270.0
210
0.0
220
0.0
230
1.0
  0
CIRCLE
  8
1
  6
CONTINUOUS
 62
     3
  5
24E
 10
150.782694
 20
-8.115263
 30
0.0
 40
0.75625
210
0.0
220
0.0
230
1.0
  0
CIRCLE
  8
1
  6
CONTINUOUS
 62
     3
  5
24F
 10
249.397694
 20
-8.115263
 30
0.0
 40
0.75625
210
0.0
220
0.0
230
1.0
  0
LINE
  8
1
  6
CONTINUOUS
 62
     7
  5
250
 10
144.732667
 20
-8.115333
 30
0.0
 11
149.270167
 21
-8.115333
 31
0.0
  0
LINE
  8
1
  6
CONTINUOUS
 62
     7
  5
251
 10
152.295167
 20
-8.115333
 30
0.0
 11
156.832667
 21
-8.115333
 31
0.0
  0
LINE
  8
1
  6
CONTINUOUS
 62
     7
  5
252
 10
150.782667
 20
-2.065333
 30
0.0
 11
150.782667
 21
-6.602833
 31
0.0
  0
LINE
  8
1
  6
CONTINUOUS
 62
     7
  5
253
 10
150.782667
 20
-9.627833
 30
0.0
 11
150.782667
 21
-14.165333
 31
0.0
  0
LINE
  8
1
  6
CONTINUOUS
 62
     7
  5
254
 10
149.723917
 20
-8.115333
 30
0.0
 11
151.841417
 21
-8.115333
 31
0.0
  0
LINE
  8
1
  6
CONTINUOUS
 62
     7
  5
255
 10
150.782667
 20
-7.056583
 30
0.0
 11
150.782667
 21
-9.174083
 31
0.0
  0
LINE
  8
1
  6
CONTINUOUS
 62
     7
  5
256
 10
249.397667
 20
-2.065333
 30
0.0
 11
249.397667
 21
-6.602833
 31
0.0
  0
LINE
  8
1
  6
CONTINUOUS
 62
     7
  5
257
 10
249.397667
 20
-9.627833
 30
0.0
 11
249.397667
 21
-14.165333
 31
0.0
  0
LINE
  8
1
  6
CONTINUOUS
 62
     7
  5
258
 10
249.397667
 20
-7.056583
 30
0.0
 11
249.397667
 21
-9.174083
 31
0.0
  0
LINE
  8
1
  6
CONTINUOUS
 62
     7
  5
259
 10
243.498917
 20
-8.115333
 30
0.0
 11
247.885167
 21
-8.115333
 31
0.0
  0
LINE
  8
1
  6
CONTINUOUS
 62
     7
  5
25A
 10
248.338917
 20
-8.115333
 30
0.0
 11
249.548917
 21
-8.115333
 31
0.0
  0
LINE
  8
1
  6
CONTINUOUS
 62
     7
  5
25B
 10
249.246417
 20
-8.115333
 30
0.0
 11
250.456417
 21
-8.115333
 31
0.0
  0
LINE
  8
1
  6
CONTINUOUS
 62
     7
  5
25C
 10
250.910167
 20
-8.115333
 30
0.0
 11
255.447667
 21
-8.115333
 31
0.0
  0
CIRCLE
  8
1
  6
HIDDEN
 62
    92
  5
25D
 10
200.090194
 20
7.009737
 30
0.0
 40
0.9075
210
0.0
220
0.0
230
1.0
  0
CIRCLE
  8
1
  6
CONTINUOUS
 62
    92
  5
25E
 10
200.090194
 20
2.169737
 30
0.0
 40
1.5125
210
0.0
220
0.0
230
1.0
  0
POLYLINE
  8
1
  6
CONTINUOUS
 62
    92
  5
25F
 66
     1
 10
0.0
 20
0.0
 30
0.0
 70
     1
  0
VERTEX
  8
1
  6
CONTINUOUS
 62
    92
  5
260
 10
201.428083
 20
2.169667
 30
0.0
  0
VERTEX
  8
1
  6
CONTINUOUS
 62
    92
  5
261
 10
200.759167
 20
3.32825
 30
0.0
  0
VERTEX
  8
1
  6
CONTINUOUS
 62
    92
  5
262
 10
199.42125
 20
3.32825
 30
0.0
  0
VERTEX
  8
1
  6
CONTINUOUS
 62
    92
  5
263
 10
198.752417
 20
2.169667
 30
0.0
  0
VERTEX
  8
1
  6
CONTINUOUS
 62
    92
  5
264
 10
199.42125
 20
1.011167
 30
0.0
  0
VERTEX
  8
1
  6
CONTINUOUS
 62
    92
  5
265
 10
200.759167
 20
1.011167
 30
0.0
  0
SEQEND
  8
1
  6
CONTINUOUS
 62
    92
  5
266
  0
CIRCLE
  8
1
  6
HIDDEN
 62
    92
  5
267
 10
200.090194
 20
-2.670263
 30
0.0
 40
0.9075
210
0.0
220
0.0
230
1.0
  0
CIRCLE
  8
1
  6
HIDDEN
 62
    92
  5
268
 10
200.090194
 20
-23.240263
 30
0.0
 40
0.9075
210
0.0
220
0.0
230
1.0
  0
CIRCLE
  8
1
  6
HIDDEN
 62
    92
  5
269
 10
200.090194
 20
-13.560263
 30
0.0
 40
0.9075
210
0.0
220
0.0
230
1.0
  0
CIRCLE
  8
1
  6
CONTINUOUS
 62
    92
  5
26A
 10
200.090194
 20
-18.400263
 30
0.0
 40
1.5125
210
0.0
220
0.0
230
1.0
  0
POLYLINE
  8
1
  6
CONTINUOUS
 62
    92
  5
26B
 66
     1
 10
0.0
 20
0.0
 30
0.0
 70
     1
  0
VERTEX
  8
1
  6
CONTINUOUS
 62
    92
  5
26C
 10
201.428083
 20
-18.400333
 30
0.0
  0
VERTEX
  8
1
  6
CONTINUOUS
 62
    92
  5
26D
 10
200.759167
 20
-17.24175
 30
0.0
  0
VERTEX
  8
1
  6
CONTINUOUS
 62
    92
  5
26E
 10
199.42125
 20
-17.24175
 30
0.0
  0
VERTEX
  8
1
  6
CONTINUOUS
 62
    92
  5
26F
 10
198.752417
 20
-18.400333
 30
0.0
  0
VERTEX
  8
1
  6
CONTINUOUS
 62
    92
  5
270
 10
199.42125
 20
-19.558833
 30
0.0
  0
VERTEX
  8
1
  6
CONTINUOUS
 62
    92
  5
271
 10
200.759167
 20
-19.558833
 30
0.0
  0
SEQEND
  8
1
  6
CONTINUOUS
 62
    92
  5
272
  0
CIRCLE
  8
1
  6
HIDDEN
 62
    92
  5
273
 10
200.090194
 20
-8.115263
 30
0.0
 40
0.9075
210
0.0
220
0.0
230
1.0
  0
CIRCLE
  8
1
  6
CONTINUOUS
 62
    92
  5
274
 10
200.090194
 20
-28.080263
 30
0.0
 40
0.9075
210
0.0
220
0.0
230
1.0
  0
CIRCLE
  8
1
  6
CONTINUOUS
 62
    92
  5
275
 10
200.090194
 20
-32.920263
 30
0.0
 40
0.9075
210
0.0
220
0.0
230
1.0
  0
CIRCLE
  8
1
  6
CONTINUOUS
 62
    92
  5
276
 10
200.090194
 20
-37.760263
 30
0.0
 40
0.9075
210
0.0
220
0.0
230
1.0
  0
CIRCLE
  8
1
  6
CONTINUOUS
 62
    92
  5
277
 10
200.090194
 20
-42.600263
 30
0.0
 40
0.9075
210
0.0
220
0.0
230
1.0
  0
LINE
  8
1
  6
CONTINUOUS
 62
    92
  5
278
 10
530.607417
 20
-83.055
 30
0.0
 11
530.607417
 21
-234.55825
 31
0.0
  0
LINE
  8
1
  6
DASHED
 62
    92
  5
279
 10
529.851167
 20
-103.02
 30
0.0
 11
529.851167
 21
-234.55825
 31
0.0
  0
LINE
  8
1
  6
DASHED
 62
    92
  5
27A
 10
531.363667
 20
-85.475
 30
0.0
 11
531.363667
 21
-234.55825
 31
0.0
  0
LINE
  8
1
  6
CONTINUOUS
 62
    92
  5
27B
 10
526.372417
 20
-83.055
 30
0.0
 11
526.372417
 21
-234.413667
 31
0.0
  0
LINE
  8
1
  6
CONTINUOUS
 62
    92
  5
27C
 10
534.842417
 20
-85.475
 30
0.0
 11
534.842417
 21
-234.413667
 31
0.0
  0
LINE
  8
1
  6
CONTINUOUS
 62
    92
  5
27D
 10
525.162417
 20
-113.13075
 30
0.0
 11
525.162417
 21
-234.413667
 31
0.0
  0
LINE
  8
1
  6
CONTINUOUS
 62
    92
  5
27E
 10
536.052417
 20
-85.475
 30
0.0
 11
536.052417
 21
-234.413667
 31
0.0
  0
LINE
  8
1
  6
CONTINUOUS
 62
    92
  5
27F
 10
537.262417
 20
-85.475
 30
0.0
 11
537.262417
 21
-195.585
 31
0.0
  0
LINE
  8
1
  6
CONTINUOUS
 62
    92
  5
280
 10
537.262417
 20
-85.475
 30
0.0
 11
530.607417
 21
-85.475
 31
0.0
  0
LINE
  8
1
  6
CONTINUOUS
 62
    92
  5
281
 10
480.392417
 20
-83.055
 30
0.0
 11
576.587417
 21
-83.055
 31
0.0
  0
LINE
  8
1
  6
DASHED
 62
    92
  5
282
 10
526.372417
 20
-83.055
 30
0.0
 11
526.372417
 21
-46.755
 31
0.0
  0
LINE
  8
1
  6
DASHED
 62
    92
  5
283
 10
530.607417
 20
-83.055
 30
0.0
 11
530.607417
 21
-46.755
 31
0.0
  0
LINE
  8
1
  6
CONTINUOUS
 62
    92
  5
284
 10
480.392417
 20
-46.755
 30
0.0
 11
576.587417
 21
-46.755
 31
0.0
  0
LINE
  8
1
  6
CONTINUOUS
 62
    92
  5
285
 10
582.637417
 20
-52.805
 30
0.0
 11
582.637417
 21
-77.005
 31
0.0
  0
LINE
  8
1
  6
CONTINUOUS
 62
    92
  5
286
 10
474.342417
 20
-52.805
 30
0.0
 11
474.342417
 21
-77.005
 31
0.0
  0
LINE
  8
1
  6
HIDDEN
 62
    92
  5
287
 10
526.372417
 20
-87.895
 30
0.0
 11
532.573667
 21
-87.895
 31
0.0
  0
LINE
  8
1
  6
HIDDEN
 62
    92
  5
288
 10
526.372417
 20
-89.105
 30
0.0
 11
532.573667
 21
-89.105
 31
0.0
  0
LINE
  8
1
  6
CONTINUOUS
 62
    92
  5
289
 10
525.162417
 20
-89.71
 30
0.0
 11
526.372417
 21
-89.71
 31
0.0
  0
LINE
  8
1
  6
CONTINUOUS
 62
    92
  5
28A
 10
531.363667
 20
-89.71
 30
0.0
 11
533.783667
 21
-89.71
 31
0.0
  0
LINE
  8
1
  6
CONTINUOUS
 62
    92
  5
28B
 10
525.162417
 20
-87.29
 30
0.0
 11
526.372417
 21
-87.29
 31
0.0
  0
LINE
  8
1
  6
CONTINUOUS
 62
    92
  5
28C
 10
531.363667
 20
-87.29
 30
0.0
 11
533.783667
 21
-87.29
 31
0.0
  0
LINE
  8
1
  6
CONTINUOUS
 62
    92
  5
28D
 10
532.573667
 20
-87.29
 30
0.0
 11
532.573667
 21
-89.71
 31
0.0
  0
LINE
  8
1
  6
HIDDEN
 62
    92
  5
28E
 10
526.372417
 20
-91.525
 30
0.0
 11
534.842417
 21
-91.525
 31
0.0
  0
LINE
  8
1
  6
HIDDEN
 62
    92
  5
28F
 10
526.372417
 20
-92.735
 30
0.0
 11
534.842417
 21
-92.735
 31
0.0
  0
LINE
  8
1
  6
CONTINUOUS
 62
    92
  5
290
 10
537.262417
 20
-90.315
 30
0.0
 11
538.472417
 21
-90.315
 31
0.0
  0
LINE
  8
1
  6
CONTINUOUS
 62
    92
  5
291
 10
537.262417
 20
-93.945
 30
0.0
 11
538.472417
 21
-93.945
 31
0.0
  0
LINE
  8
1
  6
CONTINUOUS
 62
    92
  5
292
 10
538.472417
 20
-90.315
 30
0.0
 11
538.472417
 21
-93.945
 31
0.0
  0
ARC
  8
1
  6
CONTINUOUS
 62
    92
  5
293
 10
537.999561
 20
-92.130033
 30
0.0
 40
1.299118
 50
291.345756
 51
68.65425
210
0.0
220
0.0
230
1.0
  0
LINE
  8
1
  6
CONTINUOUS
 62
    92
  5
294
 10
530.607417
 20
-113.13075
 30
0.0
 11
525.162417
 21
-113.13075
 31
0.0
  0
LINE
  8
1
  6
CONTINUOUS
 62
    92
  5
295
 10
530.607417
 20
-112.82825
 30
0.0
 11
526.372417
 21
-112.82825
 31
0.0
  0
LINE
  8
1
  6
HIDDEN
 62
    92
  5
296
 10
528.641167
 20
-188.325
 30
0.0
 11
534.842417
 21
-188.325
 31
0.0
  0
LINE
  8
1
  6
HIDDEN
 62
    92
  5
297
 10
528.641167
 20
-189.535
 30
0.0
 11
534.842417
 21
-189.535
 31
0.0
  0
LINE
  8
1
  6
CONTINUOUS
 62
    92
  5
298
 10
528.641167
 20
-188.325
 30
0.0
 11
526.826167
 21
-188.325
 31
0.0
  0
LINE
  8
1
  6
CONTINUOUS
 62
    92
  5
299
 10
528.641167
 20
-189.535
 30
0.0
 11
526.826167
 21
-189.535
 31
0.0
  0
LINE
  8
1
  6
CONTINUOUS
 62
    92
  5
29A
 10
529.851167
 20
-187.115
 30
0.0
 11
528.943667
 21
-187.115
 31
0.0
  0
LINE
  8
1
  6
CONTINUOUS
 62
    92
  5
29B
 10
529.851167
 20
-190.745
 30
0.0
 11
528.943667
 21
-190.745
 31
0.0
  0
LINE
  8
1
  6
CONTINUOUS
 62
    92
  5
29C
 10
537.262417
 20
-187.115
 30
0.0
 11
538.169917
 21
-187.115
 31
0.0
  0
LINE
  8
1
  6
CONTINUOUS
 62
    92
  5
29D
 10
537.262417
 20
-190.745
 30
0.0
 11
538.169917
 21
-190.745
 31
0.0
  0
LINE
  8
1
  6
CONTINUOUS
 62
    92
  5
29E
 10
528.943667
 20
-187.115
 30
0.0
 11
528.943667
 21
-190.745
 31
0.0
  0
LINE
  8
1
  6
CONTINUOUS
 62
    92
  5
29F
 10
538.169917
 20
-187.115
 30
0.0
 11
538.169917
 21
-190.745
 31
0.0
  0
LINE
  8
1
  6
CONTINUOUS
 62
    92
  5
2A0
 10
527.733667
 20
-187.72
 30
0.0
 11
527.733667
 21
-190.14
 31
0.0
  0
LINE
  8
1
  6
CONTINUOUS
 62
    92
  5
2A1
 10
526.826167
 20
-188.325
 30
0.0
 11
526.826167
 21
-189.535
 31
0.0
  0
LINE
  8
1
  6
CONTINUOUS
 62
    92
  5
2A2
 10
527.733667
 20
-187.72
 30
0.0
 11
528.943667
 21
-187.72
 31
0.0
  0
LINE
  8
1
  6
CONTINUOUS
 62
    92
  5
2A3
 10
527.733667
 20
-190.14
 30
0.0
 11
528.943667
 21
-190.14
 31
0.0
  0
LINE
  8
1
  6
CONTINUOUS
 62
    92
  5
2A4
 10
527.279917
 20
-188.6275
 30
0.0
 11
527.279917
 21
-189.2325
 31
0.0
  0
ARC
  8
1
  6
CONTINUOUS
 62
    92
  5
2A5
 10
537.786299
 20
-188.887381
 30
0.0
 40
1.299118
 50
291.345756
 51
68.65425
210
0.0
220
0.0
230
1.0
  0
LINE
  8
1
  6
CONTINUOUS
 62
    92
  5
2A6
 10
536.052417
 20
-195.585
 30
0.0
 11
537.262417
 21
-195.585
 31
0.0
  0
LINE
  8
1
  6
HIDDEN
 62
    92
  5
2A7
 10
529.851167
 20
-114.66625
 30
0.0
 11
531.363667
 21
-114.66625
 31
0.0
  0
LINE
  8
1
  6
HIDDEN
 62
    92
  5
2A8
 10
529.851167
 20
-115.57375
 30
0.0
 11
531.363667
 21
-115.57375
 31
0.0
  0
LINE
  8
1
  6
HIDDEN
 62
    92
  5
2A9
 10
531.363667
 20
-114.66625
 30
0.0
 11
532.422417
 21
-114.66625
 31
0.0
  0
LINE
  8
1
  6
CONTINUOUS
 62
    92
  5
2AA
 10
531.363667
 20
-116.17875
 30
0.0
 11
532.422417
 21
-116.17875
 31
0.0
  0
LINE
  8
1
  6
CONTINUOUS
 62
    92
  5
2AB
 10
531.363667
 20
-114.06125
 30
0.0
 11
532.422417
 21
-114.06125
 31
0.0
  0
LINE
  8
1
  6
CONTINUOUS
 62
    92
  5
2AC
 10
532.422417
 20
-114.06125
 30
0.0
 11
532.422417
 21
-116.17875
 31
0.0
  0
LINE
  8
1
  6
HIDDEN
 62
    92
  5
2AD
 10
531.363667
 20
-115.57375
 30
0.0
 11
532.422417
 21
-115.57375
 31
0.0
  0
LINE
  8
1
  6
CONTINUOUS
 62
    92
  5
2AE
 10
528.792417
 20
-114.06125
 30
0.0
 11
528.792417
 21
-116.17875
 31
0.0
  0
LINE
  8
1
  6
HIDDEN
 62
    92
  5
2AF
 10
529.851167
 20
-114.66625
 30
0.0
 11
528.792417
 21
-114.66625
 31
0.0
  0
LINE
  8
1
  6
CONTINUOUS
 62
    92
  5
2B0
 10
529.851167
 20
-116.17875
 30
0.0
 11
528.792417
 21
-116.17875
 31
0.0
  0
LINE
  8
1
  6
CONTINUOUS
 62
    92
  5
2B1
 10
529.851167
 20
-114.06125
 30
0.0
 11
528.792417
 21
-114.06125
 31
0.0
  0
LINE
  8
1
  6
HIDDEN
 62
    92
  5
2B2
 10
529.851167
 20
-115.57375
 30
0.0
 11
528.792417
 21
-115.57375
 31
0.0
  0
LINE
  8
1
  6
CONTINUOUS
 62
    92
  5
2B3
 10
529.851167
 20
-152.47875
 30
0.0
 11
528.792417
 21
-152.47875
 31
0.0
  0
LINE
  8
1
  6
HIDDEN
 62
    92
  5
2B4
 10
529.851167
 20
-153.08375
 30
0.0
 11
531.363667
 21
-153.08375
 31
0.0
  0
LINE
  8
1
  6
HIDDEN
 62
    92
  5
2B5
 10
529.851167
 20
-153.99125
 30
0.0
 11
531.363667
 21
-153.99125
 31
0.0
  0
LINE
  8
1
  6
HIDDEN
 62
    92
  5
2B6
 10
531.363667
 20
-153.08375
 30
0.0
 11
532.422417
 21
-153.08375
 31
0.0
  0
LINE
  8
1
  6
CONTINUOUS
 62
    92
  5
2B7
 10
531.363667
 20
-154.59625
 30
0.0
 11
532.422417
 21
-154.59625
 31
0.0
  0
LINE
  8
1
  6
CONTINUOUS
 62
    92
  5
2B8
 10
531.363667
 20
-152.47875
 30
0.0
 11
532.422417
 21
-152.47875
 31
0.0
  0
LINE
  8
1
  6
CONTINUOUS
 62
    92
  5
2B9
 10
532.422417
 20
-152.47875
 30
0.0
 11
532.422417
 21
-154.59625
 31
0.0
  0
LINE
  8
1
  6
HIDDEN
 62
    92
  5
2BA
 10
531.363667
 20
-153.99125
 30
0.0
 11
532.422417
 21
-153.99125
 31
0.0
  0
LINE
  8
1
  6
CONTINUOUS
 62
    92
  5
2BB
 10
528.792417
 20
-152.47875
 30
0.0
 11
528.792417
 21
-154.59625
 31
0.0
  0
LINE
  8
1
  6
HIDDEN
 62
    92
  5
2BC
 10
529.851167
 20
-153.08375
 30
0.0
 11
528.792417
 21
-153.08375
 31
0.0
  0
LINE
  8
1
  6
CONTINUOUS
 62
    92
  5
2BD
 10
529.851167
 20
-154.59625
 30
0.0
 11
528.792417
 21
-154.59625
 31
0.0
  0
LINE
  8
1
  6
HIDDEN
 62
    92
  5
2BE
 10
529.851167
 20
-153.99125
 30
0.0
 11
528.792417
 21
-153.99125
 31
0.0
  0
LINE
  8
1
  6
CONTINUOUS
 62
    92
  5
2BF
 10
528.792417
 20
-225.23
 30
0.0
 11
528.792417
 21
-227.3475
 31
0.0
  0
LINE
  8
1
  6
CONTINUOUS
 62
    92
  5
2C0
 10
529.851167
 20
-225.23
 30
0.0
 11
528.792417
 21
-225.23
 31
0.0
  0
LINE
  8
1
  6
HIDDEN
 62
    92
  5
2C1
 10
529.851167
 20
-225.835
 30
0.0
 11
531.363667
 21
-225.835
 31
0.0
  0
LINE
  8
1
  6
HIDDEN
 62
    92
  5
2C2
 10
529.851167
 20
-226.7425
 30
0.0
 11
531.363667
 21
-226.7425
 31
0.0
  0
LINE
  8
1
  6
HIDDEN
 62
    92
  5
2C3
 10
531.363667
 20
-225.835
 30
0.0
 11
532.422417
 21
-225.835
 31
0.0
  0
LINE
  8
1
  6
CONTINUOUS
 62
    92
  5
2C4
 10
531.363667
 20
-227.3475
 30
0.0
 11
532.422417
 21
-227.3475
 31
0.0
  0
LINE
  8
1
  6
CONTINUOUS
 62
    92
  5
2C5
 10
531.363667
 20
-225.23
 30
0.0
 11
532.422417
 21
-225.23
 31
0.0
  0
LINE
  8
1
  6
CONTINUOUS
 62
    92
  5
2C6
 10
532.422417
 20
-225.23
 30
0.0
 11
532.422417
 21
-227.3475
 31
0.0
  0
LINE
  8
1
  6
HIDDEN
 62
    92
  5
2C7
 10
531.363667
 20
-226.7425
 30
0.0
 11
532.422417
 21
-226.7425
 31
0.0
  0
LINE
  8
1
  6
HIDDEN
 62
    92
  5
2C8
 10
529.851167
 20
-225.835
 30
0.0
 11
528.792417
 21
-225.835
 31
0.0
  0
LINE
  8
1
  6
CONTINUOUS
 62
    92
  5
2C9
 10
529.851167
 20
-227.3475
 30
0.0
 11
528.792417
 21
-227.3475
 31
0.0
  0
LINE
  8
1
  6
HIDDEN
 62
    92
  5
2CA
 10
529.851167
 20
-226.7425
 30
0.0
 11
528.792417
 21
-226.7425
 31
0.0
  0
LINE
  8
1
  6
CONTINUOUS
 62
    92
  5
2CB
 10
521.532417
 20
-234.413667
 30
0.0
 11
526.977417
 21
-234.413667
 31
0.0
  0
LINE
  8
1
  6
CONTINUOUS
 62
    92
  5
2CC
 10
534.237417
 20
-234.413667
 30
0.0
 11
539.682417
 21
-234.413667
 31
0.0
  0
ARC
  8
1
  6
CONTINUOUS
 62
    92
  5
2CD
 10
480.392434
 20
-52.805033
 30
0.0
 40
6.05
 50
90.0
 51
180.0
210
0.0
220
0.0
230
1.0
  0
ARC
  8
1
  6
CONTINUOUS
 62
    92
  5
2CE
 10
576.587434
 20
-52.805033
 30
0.0
 40
6.05
 50
0.0
 51
90.0
210
0.0
220
0.0
230
1.0
  0
ARC
  8
1
  6
CONTINUOUS
 62
    92
  5
2CF
 10
576.587434
 20
-77.005033
 30
0.0
 40
6.05
 50
270.0
 51
0.0
210
0.0
220
0.0
230
1.0
  0
ARC
  8
1
  6
CONTINUOUS
 62
    92
  5
2D0
 10
480.392434
 20
-77.005033
 30
0.0
 40
6.05
 50
180.0
 51
270.0
210
0.0
220
0.0
230
1.0
  0
CIRCLE
  8
1
  6
CONTINUOUS
 62
     3
  5
2D1
 10
479.182434
 20
-64.905033
 30
0.0
 40
0.75625
210
0.0
220
0.0
230
1.0
  0
CIRCLE
  8
1
  6
CONTINUOUS
 62
     3
  5
2D2
 10
577.797434
 20
-64.905033
 30
0.0
 40
0.75625
210
0.0
220
0.0
230
1.0
  0
CIRCLE
  8
1
  6
HIDDEN
 62
    92
  5
2D3
 10
528.489934
 20
-49.780033
 30
0.0
 40
0.9075
210
0.0
220
0.0
230
1.0
  0
CIRCLE
  8
1
  6
CONTINUOUS
 62
    92
  5
2D4
 10
528.489934
 20
-54.620033
 30
0.0
 40
1.5125
210
0.0
220
0.0
230
1.0
  0
POLYLINE
  8
1
  6
CONTINUOUS
 62
    92
  5
2D5
 66
     1
 10
0.0
 20
0.0
 30
0.0
 70
     1
  0
VERTEX
  8
1
  6
CONTINUOUS
 62
    92
  5
2D6
 10
529.827833
 20
-54.62
 30
0.0
  0
VERTEX
  8
1
  6
CONTINUOUS
 62
    92
  5
2D7
 10
529.158917
 20
-53.461417
 30
0.0
  0
VERTEX
  8
1
  6
CONTINUOUS
 62
    92
  5
2D8
 10
527.821
 20
-53.461417
 30
0.0
  0
VERTEX
  8
1
  6
CONTINUOUS
 62
    92
  5
2D9
 10
527.152083
 20
-54.62
 30
0.0
  0
VERTEX
  8
1
  6
CONTINUOUS
 62
    92
  5
2DA
 10
527.821
 20
-55.778583
 30
0.0
  0
VERTEX
  8
1
  6
CONTINUOUS
 62
    92
  5
2DB
 10
529.158917
 20
-55.778583
 30
0.0
  0
SEQEND
  8
1
  6
CONTINUOUS
 62
    92
  5
2DC
  0
CIRCLE
  8
1
  6
HIDDEN
 62
    92
  5
2DD
 10
528.489934
 20
-59.460033
 30
0.0
 40
0.9075
210
0.0
220
0.0
230
1.0
  0
CIRCLE
  8
1
  6
HIDDEN
 62
    92
  5
2DE
 10
528.489934
 20
-80.030033
 30
0.0
 40
0.9075
210
0.0
220
0.0
230
1.0
  0
CIRCLE
  8
1
  6
HIDDEN
 62
    92
  5
2DF
 10
528.489934
 20
-70.350033
 30
0.0
 40
0.9075
210
0.0
220
0.0
230
1.0
  0
CIRCLE
  8
1
  6
CONTINUOUS
 62
    92
  5
2E0
 10
528.489934
 20
-75.190033
 30
0.0
 40
1.5125
210
0.0
220
0.0
230
1.0
  0
POLYLINE
  8
1
  6
CONTINUOUS
 62
    92
  5
2E1
 66
     1
 10
0.0
 20
0.0
 30
0.0
 70
     1
  0
VERTEX
  8
1
  6
CONTINUOUS
 62
    92
  5
2E2
 10
529.827833
 20
-75.19
 30
0.0
  0
VERTEX
  8
1
  6
CONTINUOUS
 62
    92
  5
2E3
 10
529.158917
 20
-74.0315
 30
0.0
  0
VERTEX
  8
1
  6
CONTINUOUS
 62
    92
  5
2E4
 10
527.821
 20
-74.0315
 30
0.0
  0
VERTEX
  8
1
  6
CONTINUOUS
 62
    92
  5
2E5
 10
527.152083
 20
-75.19
 30
0.0
  0
VERTEX
  8
1
  6
CONTINUOUS
 62
    92
  5
2E6
 10
527.821
 20
-76.348583
 30
0.0
  0
VERTEX
  8
1
  6
CONTINUOUS
 62
    92
  5
2E7
 10
529.158917
 20
-76.348583
 30
0.0
  0
SEQEND
  8
1
  6
CONTINUOUS
 62
    92
  5
2E8
  0
CIRCLE
  8
1
  6
HIDDEN
 62
    92
  5
2E9
 10
528.489934
 20
-64.905033
 30
0.0
 40
0.9075
210
0.0
220
0.0
230
1.0
  0
CIRCLE
  8
1
  6
CONTINUOUS
 62
    92
  5
2EA
 10
528.489934
 20
-84.870033
 30
0.0
 40
0.9075
210
0.0
220
0.0
230
1.0
  0
CIRCLE
  8
1
  6
CONTINUOUS
 62
    92
  5
2EB
 10
528.489934
 20
-89.710033
 30
0.0
 40
0.9075
210
0.0
220
0.0
230
1.0
  0
CIRCLE
  8
1
  6
CONTINUOUS
 62
    92
  5
2EC
 10
528.489934
 20
-94.550033
 30
0.0
 40
0.9075
210
0.0
220
0.0
230
1.0
  0
CIRCLE
  8
1
  6
CONTINUOUS
 62
    92
  5
2ED
 10
528.489934
 20
-99.390033
 30
0.0
 40
0.9075
210
0.0
220
0.0
230
1.0
  0
LINE
  8
1
  6
CONTINUOUS
 62
    92
  5
2EE
 10
523.952417
 20
-87.29
 30
0.0
 11
525.162417
 21
-87.29
 31
0.0
  0
LINE
  8
1
  6
CONTINUOUS
 62
    92
  5
2EF
 10
526.372417
 20
-87.895
 30
0.0
 11
522.742417
 21
-87.895
 31
0.0
  0
LINE
  8
1
  6
CONTINUOUS
 62
    92
  5
2F0
 10
526.372417
 20
-89.105
 30
0.0
 11
522.742417
 21
-89.105
 31
0.0
  0
LINE
  8
1
  6
CONTINUOUS
 62
    92
  5
2F1
 10
523.952417
 20
-87.29
 30
0.0
 11
523.952417
 21
-89.71
 31
0.0
  0
LINE
  8
1
  6
CONTINUOUS
 62
    92
  5
2F2
 10
522.742417
 20
-87.895
 30
0.0
 11
522.742417
 21
-89.105
 31
0.0
  0
LINE
  8
1
  6
CONTINUOUS
 62
    92
  5
2F3
 10
523.952417
 20
-89.71
 30
0.0
 11
525.162417
 21
-89.71
 31
0.0
  0
LINE
  8
1
  6
CONTINUOUS
 62
    92
  5
2F4
 10
523.347417
 20
-88.1975
 30
0.0
 11
523.347417
 21
-88.8025
 31
0.0
  0
LINE
  8
1
  6
CONTINUOUS
 62
    92
  5
2F5
 10
525.162417
 20
-87.29
 30
0.0
 11
525.162417
 21
-89.71
 31
0.0
  0
LINE
  8
1
  6
CONTINUOUS
 62
    92
  5
2F6
 10
533.783667
 20
-87.29
 30
0.0
 11
533.783667
 21
-89.71
 31
0.0
  0
LINE
  8
1
  6
CONTINUOUS
 62
    92
  5
2F7
 10
526.372417
 20
-91.525
 30
0.0
 11
522.742417
 21
-91.525
 31
0.0
  0
LINE
  8
1
  6
CONTINUOUS
 62
    92
  5
2F8
 10
525.162417
 20
-90.92
 30
0.0
 11
526.372417
 21
-90.92
 31
0.0
  0
LINE
  8
1
  6
CONTINUOUS
 62
    92
  5
2F9
 10
525.162417
 20
-93.34
 30
0.0
 11
526.372417
 21
-93.34
 31
0.0
  0
LINE
  8
1
  6
CONTINUOUS
 62
    92
  5
2FA
 10
523.952417
 20
-90.92
 30
0.0
 11
525.162417
 21
-90.92
 31
0.0
  0
LINE
  8
1
  6
CONTINUOUS
 62
    92
  5
2FB
 10
526.372417
 20
-92.735
 30
0.0
 11
522.742417
 21
-92.735
 31
0.0
  0
LINE
  8
1
  6
CONTINUOUS
 62
    92
  5
2FC
 10
523.952417
 20
-90.92
 30
0.0
 11
523.952417
 21
-93.34
 31
0.0
  0
LINE
  8
1
  6
CONTINUOUS
 62
    92
  5
2FD
 10
522.742417
 20
-91.525
 30
0.0
 11
522.742417
 21
-92.735
 31
0.0
  0
LINE
  8
1
  6
CONTINUOUS
 62
    92
  5
2FE
 10
523.952417
 20
-93.34
 30
0.0
 11
525.162417
 21
-93.34
 31
0.0
  0
LINE
  8
1
  6
CONTINUOUS
 62
    92
  5
2FF
 10
523.347417
 20
-91.8275
 30
0.0
 11
523.347417
 21
-92.4325
 31
0.0
  0
LINE
  8
1
  6
CONTINUOUS
 62
    92
  5
300
 10
525.162417
 20
-90.92
 30
0.0
 11
525.162417
 21
-93.34
 31
0.0
  0
LINE
  8
1
  6
CONTINUOUS
 62
     3
  5
301
 10
532.573667
 20
-87.895
 30
0.0
 11
533.783667
 21
-87.895
 31
0.0
  0
LINE
  8
1
  6
CONTINUOUS
 62
     3
  5
302
 10
532.573667
 20
-89.105
 30
0.0
 11
533.783667
 21
-89.105
 31
0.0
  0
LINE
  8
1
  6
HIDDEN
 62
    92
  5
303
 10
526.372417
 20
-107.255
 30
0.0
 11
532.573667
 21
-107.255
 31
0.0
  0
LINE
  8
1
  6
HIDDEN
 62
    92
  5
304
 10
526.372417
 20
-108.465
 30
0.0
 11
532.573667
 21
-108.465
 31
0.0
  0
LINE
  8
1
  6
CONTINUOUS
 62
    92
  5
305
 10
525.162417
 20
-109.07
 30
0.0
 11
526.372417
 21
-109.07
 31
0.0
  0
LINE
  8
1
  6
CONTINUOUS
 62
    92
  5
306
 10
531.363667
 20
-109.07
 30
0.0
 11
533.783667
 21
-109.07
 31
0.0
  0
LINE
  8
1
  6
CONTINUOUS
 62
    92
  5
307
 10
525.162417
 20
-106.65
 30
0.0
 11
526.372417
 21
-106.65
 31
0.0
  0
LINE
  8
1
  6
CONTINUOUS
 62
    92
  5
308
 10
531.363667
 20
-106.65
 30
0.0
 11
533.783667
 21
-106.65
 31
0.0
  0
LINE
  8
1
  6
CONTINUOUS
 62
    92
  5
309
 10
532.573667
 20
-106.65
 30
0.0
 11
532.573667
 21
-109.07
 31
0.0
  0
LINE
  8
1
  6
CONTINUOUS
 62
    92
  5
30A
 10
523.952417
 20
-106.65
 30
0.0
 11
525.162417
 21
-106.65
 31
0.0
  0
LINE
  8
1
  6
CONTINUOUS
 62
    92
  5
30B
 10
526.372417
 20
-107.255
 30
0.0
 11
522.742417
 21
-107.255
 31
0.0
  0
LINE
  8
1
  6
CONTINUOUS
 62
    92
  5
30C
 10
526.372417
 20
-108.465
 30
0.0
 11
522.742417
 21
-108.465
 31
0.0
  0
LINE
  8
1
  6
CONTINUOUS
 62
    92
  5
30D
 10
523.952417
 20
-106.65
 30
0.0
 11
523.952417
 21
-109.07
 31
0.0
  0
LINE
  8
1
  6
CONTINUOUS
 62
    92
  5
30E
 10
522.742417
 20
-107.255
 30
0.0
 11
522.742417
 21
-108.465
 31
0.0
  0
LINE
  8
1
  6
CONTINUOUS
 62
    92
  5
30F
 10
523.952417
 20
-109.07
 30
0.0
 11
525.162417
 21
-109.07
 31
0.0
  0
LINE
  8
1
  6
CONTINUOUS
 62
    92
  5
310
 10
523.347417
 20
-107.5575
 30
0.0
 11
523.347417
 21
-108.1625
 31
0.0
  0
LINE
  8
1
  6
CONTINUOUS
 62
    92
  5
311
 10
525.162417
 20
-106.65
 30
0.0
 11
525.162417
 21
-109.07
 31
0.0
  0
LINE
  8
1
  6
CONTINUOUS
 62
    92
  5
312
 10
533.783667
 20
-106.65
 30
0.0
 11
533.783667
 21
-109.07
 31
0.0
  0
LINE
  8
1
  6
CONTINUOUS
 62
     3
  5
313
 10
532.573667
 20
-107.255
 30
0.0
 11
533.783667
 21
-107.255
 31
0.0
  0
LINE
  8
1
  6
CONTINUOUS
 62
     3
  5
314
 10
532.573667
 20
-108.465
 30
0.0
 11
533.783667
 21
-108.465
 31
0.0
  0
LINE
  8
1
  6
CONTINUOUS
 62
    92
  5
315
 10
526.372417
 20
-188.325
 30
0.0
 11
526.372417
 21
-189.535
 31
0.0
  0
LINE
  8
1
  6
CONTINUOUS
 62
    92
  5
316
 10
533.6145
 20
-231.92125
 30
0.0
 11
533.6145
 21
-236.76125
 31
0.0
  0
LINE
  8
1
  6
CONTINUOUS
 62
    92
  5
317
 10
533.6145
 20
-231.92125
 30
0.0
 11
534.237417
 21
-234.413667
 31
0.0
  0
LINE
  8
1
  6
CONTINUOUS
 62
    92
  5
318
 10
533.6145
 20
-236.76125
 30
0.0
 11
533.063667
 21
-234.55825
 31
0.0
  0
LINE
  8
1
  6
CONTINUOUS
 62
    92
  5
319
 10
527.600583
 20
-236.905833
 30
0.0
 11
526.977417
 21
-234.413667
 31
0.0
  0
LINE
  8
1
  6
CONTINUOUS
 62
    92
  5
31A
 10
527.600583
 20
-232.065833
 30
0.0
 11
527.600583
 21
-236.905833
 31
0.0
  0
LINE
  8
1
  6
CONTINUOUS
 62
    92
  5
31B
 10
527.600583
 20
-232.065833
 30
0.0
 11
528.223583
 21
-234.55825
 31
0.0
  0
LINE
  8
1
  6
CONTINUOUS
 62
     3
  5
31C
 10
528.223583
 20
-234.55825
 30
0.0
 11
533.063667
 21
-234.55825
 31
0.0
  0
CIRCLE
  8
1
  6
CONTINUOUS
 62
    92
  5
31D
 10
528.489934
 20
-104.230033
 30
0.0
 40
0.9075
210
0.0
220
0.0
230
1.0
  0
CIRCLE
  8
1
  6
CONTINUOUS
 62
    92
  5
31E
 10
528.489934
 20
-109.070033
 30
0.0
 40
0.9075
210
0.0
220
0.0
230
1.0
  0
LINE
  8
1
  6
CONTINUOUS
 62
     3
  5
31F
 10
320.439417
 20
14.77625
 30
0.0
 11
320.439417
 21
-37.72375
 31
0.0
  0
LINE
  8
1
  6
CONTINUOUS
 62
     3
  5
320
 10
320.439417
 20
14.77625
 30
0.0
 11
324.439417
 21
14.77625
 31
0.0
  0
LINE
  8
1
  6
CONTINUOUS
 62
     3
  5
321
 10
324.439417
 20
14.77625
 30
0.0
 11
324.439417
 21
10.77625
 31
0.0
  0
LINE
  8
1
  6
CONTINUOUS
 62
     3
  5
322
 10
319.439417
 20
11.77625
 30
0.0
 11
320.439417
 21
11.77625
 31
0.0
  0
ARC
  8
1
  6
CONTINUOUS
 62
     3
  5
323
 10
327.785497
 20
7.682833
 30
0.0
 40
4.556916
 50
137.246928
 51
239.013278
210
0.0
220
0.0
230
1.0
  0
ARC
  8
1
  6
CONTINUOUS
 62
     3
  5
324
 10
326.10084
 20
7.465767
 30
0.0
 40
5.747018
 50
192.249606
 51
258.917819
210
0.0
220
0.0
230
1.0
  0
LINE
  8
1
  6
CONTINUOUS
 62
     3
  5
325
 10
320.439417
 20
-37.72375
 30
0.0
 11
324.439417
 21
-37.72375
 31
0.0
  0
LINE
  8
1
  6
CONTINUOUS
 62
     3
  5
326
 10
324.439417
 20
-37.72375
 30
0.0
 11
324.439417
 21
-33.72375
 31
0.0
  0
ARC
  8
1
  6
CONTINUOUS
 62
     3
  5
327
 10
327.785497
 20
-30.630333
 30
0.0
 40
4.556916
 50
120.986722
 51
222.753072
210
0.0
220
0.0
230
1.0
  0
ARC
  8
1
  6
CONTINUOUS
 62
     3
  5
328
 10
326.10084
 20
-30.413267
 30
0.0
 40
5.747018
 50
101.082181
 51
167.750394
210
0.0
220
0.0
230
1.0
  0
ARC
  8
1
  6
CONTINUOUS
 62
     3
  5
329
 10
343.996167
 20
-5.568676
 30
0.0
 40
3.0
 50
0.0
 51
77.195517
210
0.0
220
0.0
230
1.0
  0
ARC
  8
1
  6
CONTINUOUS
 62
     3
  5
32A
 10
343.996167
 20
-17.378817
 30
0.0
 40
3.0
 50
282.804336
 51
0.0
210
0.0
220
0.0
230
1.0
  0
LINE
  8
1
  6
CONTINUOUS
 62
     3
  5
32B
 10
324.996167
 20
1.825917
 30
0.0
 11
328.471583
 21
1.036083
 31
0.0
  0
LINE
  8
1
  6
CONTINUOUS
 62
     3
  5
32C
 10
337.271583
 20
-0.963917
 30
0.0
 11
344.661
 21
-2.64325
 31
0.0
  0
LINE
  8
1
  6
CONTINUOUS
 62
     3
  5
32D
 10
325.439417
 20
3.77625
 30
0.0
 11
337.496417
 21
1.036083
 31
0.0
  0
LINE
  8
1
  6
CONTINUOUS
 62
     3
  5
32E
 10
346.296167
 20
-0.963917
 30
0.0
 11
348.496167
 21
-1.463917
 31
0.0
  0
LINE
  8
1
  6
CONTINUOUS
 62
     3
  5
32F
 10
324.996167
 20
-24.773417
 30
0.0
 11
328.471583
 21
-23.983583
 31
0.0
  0
LINE
  8
1
  6
CONTINUOUS
 62
     3
  5
330
 10
337.271833
 20
-21.983583
 30
0.0
 11
344.661
 21
-20.30425
 31
0.0
  0
LINE
  8
1
  6
CONTINUOUS
 62
     3
  5
331
 10
325.439417
 20
-26.72375
 30
0.0
 11
337.495917
 21
-23.983583
 31
0.0
  0
LINE
  8
1
  6
CONTINUOUS
 62
     3
  5
332
 10
346.296167
 20
-21.983583
 30
0.0
 11
348.496167
 21
-21.483583
 31
0.0
  0
LINE
  8
1
  6
CONTINUOUS
 62
     3
  5
333
 10
319.439417
 20
-34.72375
 30
0.0
 11
320.439417
 21
-34.72375
 31
0.0
  0
LINE
  8
1
  6
CONTINUOUS
 62
     3
  5
334
 10
378.439417
 20
11.77625
 30
0.0
 11
377.439417
 21
11.77625
 31
0.0
  0
LINE
  8
1
  6
CONTINUOUS
 62
     3
  5
335
 10
378.439417
 20
-34.72375
 30
0.0
 11
377.439417
 21
-34.72375
 31
0.0
  0
LINE
  8
1
  6
HIDDEN
 62
     3
  5
336
 10
349.496167
 20
-5.171667
 30
0.0
 11
349.496167
 21
-17.775833
 31
0.0
  0
ARC
  8
1
  6
HIDDEN
 62
     3
  5
337
 10
350.504775
 20
-5.100016
 30
0.0
 40
1.01115
 50
91.57875
 51
184.063417
210
0.0
220
0.0
230
1.0
  0
ARC
  8
1
  6
HIDDEN
 62
     3
  5
338
 10
350.504775
 20
-17.847484
 30
0.0
 40
1.01115
 50
175.936583
 51
268.42125
210
0.0
220
0.0
230
1.0
  0
LINE
  8
1
  6
HIDDEN
 62
     3
  5
339
 10
337.496417
 20
1.036083
 30
0.0
 11
346.296167
 21
-0.963917
 31
0.0
  0
LINE
  8
1
  6
HIDDEN
 62
     3
  5
33A
 10
328.471583
 20
1.036083
 30
0.0
 11
337.271583
 21
-0.963917
 31
0.0
  0
LINE
  8
1
  6
HIDDEN
 62
     3
  5
33B
 10
337.271833
 20
-21.983583
 30
0.0
 11
328.471583
 21
-23.983583
 31
0.0
  0
LINE
  8
1
  6
HIDDEN
 62
     3
  5
33C
 10
346.296167
 20
-21.983583
 30
0.0
 11
337.495917
 21
-23.983583
 31
0.0
  0
LINE
  8
1
  6
CONTINUOUS
 62
     3
  5
33D
 10
327.496167
 20
-9.47375
 30
0.0
 11
348.496167
 21
-9.47375
 31
0.0
  0
LINE
  8
1
  6
CONTINUOUS
 62
     3
  5
33E
 10
327.496167
 20
-13.47375
 30
0.0
 11
348.496167
 21
-13.47375
 31
0.0
  0
LINE
  8
1
  6
CONTINUOUS
 62
     3
  5
33F
 10
346.996167
 20
-5.568667
 30
0.0
 11
346.996167
 21
-9.47375
 31
0.0
  0
LINE
  8
1
  6
CONTINUOUS
 62
     3
  5
340
 10
346.996167
 20
-13.47375
 30
0.0
 11
346.996167
 21
-17.378833
 31
0.0
  0
LINE
  8
1
  6
HIDDEN
 62
     3
  5
341
 10
348.496167
 20
-9.47375
 30
0.0
 11
353.496167
 21
-9.47375
 31
0.0
  0
LINE
  8
1
  6
HIDDEN
 62
     3
  5
342
 10
348.496167
 20
-13.47375
 30
0.0
 11
353.496167
 21
-13.47375
 31
0.0
  0
LINE
  8
1
  6
CONTINUOUS
 62
     3
  5
343
 10
353.496167
 20
-9.47375
 30
0.0
 11
377.439417
 21
-9.47375
 31
0.0
  0
LINE
  8
1
  6
CONTINUOUS
 62
     3
  5
344
 10
353.496167
 20
-13.47375
 30
0.0
 11
377.439417
 21
-13.47375
 31
0.0
  0
LINE
  8
1
  6
HIDDEN
 62
     3
  5
345
 10
327.496167
 20
-9.47375
 30
0.0
 11
317.439417
 21
-9.47375
 31
0.0
  0
LINE
  8
1
  6
HIDDEN
 62
     3
  5
346
 10
327.496167
 20
-13.47375
 30
0.0
 11
317.439417
 21
-13.47375
 31
0.0
  0
LINE
  8
1
  6
CONTINUOUS
 62
     3
  5
347
 10
325.496167
 20
-6.47375
 30
0.0
 11
320.439417
 21
-6.47375
 31
0.0
  0
LINE
  8
1
  6
CONTINUOUS
 62
     3
  5
348
 10
325.496167
 20
-16.47375
 30
0.0
 11
320.439417
 21
-16.47375
 31
0.0
  0
LINE
  8
1
  6
CONTINUOUS
 62
     3
  5
349
 10
316.689417
 20
-1.97375
 30
0.0
 11
316.689417
 21
-20.97375
 31
0.0
  0
LINE
  8
1
  6
CONTINUOUS
 62
     3
  5
34A
 10
315.939417
 20
-1.97375
 30
0.0
 11
315.939417
 21
-20.97375
 31
0.0
  0
LINE
  8
1
  6
CONTINUOUS
 62
     3
  5
34B
 10
315.939417
 20
-1.97375
 30
0.0
 11
317.439417
 21
-1.97375
 31
0.0
  0
LINE
  8
1
  6
CONTINUOUS
 62
     3
  5
34C
 10
315.939417
 20
-20.97375
 30
0.0
 11
317.439417
 21
-20.97375
 31
0.0
  0
LINE
  8
1
  6
CONTINUOUS
 62
     3
  5
34D
 10
315.939417
 20
-6.47375
 30
0.0
 11
312.439417
 21
-6.47375
 31
0.0
  0
LINE
  8
1
  6
CONTINUOUS
 62
     3
  5
34E
 10
315.939417
 20
-16.47375
 30
0.0
 11
312.439417
 21
-16.47375
 31
0.0
  0
LINE
  8
1
  6
CONTINUOUS
 62
     3
  5
34F
 10
315.939417
 20
-9.47375
 30
0.0
 11
310.266583
 21
-9.47375
 31
0.0
  0
LINE
  8
1
  6
CONTINUOUS
 62
     3
  5
350
 10
315.939417
 20
-13.47375
 30
0.0
 11
310.266583
 21
-13.47375
 31
0.0
  0
LINE
  8
1
  6
CONTINUOUS
 62
     3
  5
351
 10
310.266583
 20
-9.47375
 30
0.0
 11
310.266583
 21
-13.47375
 31
0.0
  0
LINE
  8
1
  6
CONTINUOUS
 62
     3
  5
352
 10
311.266583
 20
-9.47375
 30
0.0
 11
311.266583
 21
-13.47375
 31
0.0
  0
LINE
  8
1
  6
CONTINUOUS
 62
     3
  5
353
 10
314.939417
 20
-6.47375
 30
0.0
 11
314.939417
 21
-16.47375
 31
0.0
  0
ARC
  8
1
  6
CONTINUOUS
 62
     3
  5
354
 10
313.775012
 20
-7.97375
 30
0.0
 40
2.008436
 50
131.681767
 51
180.154525
210
0.0
220
0.0
230
1.0
  0
ARC
  8
1
  6
CONTINUOUS
 62
     3
  5
355
 10
313.775012
 20
-14.97375
 30
0.0
 40
2.008436
 50
179.845475
 51
228.318233
210
0.0
220
0.0
230
1.0
  0
POLYLINE
  8
1
  6
CONTINUOUS
 62
     3
  5
356
 66
     1
 10
0.0
 20
0.0
 30
0.0
  0
VERTEX
  8
1
  6
CONTINUOUS
 62
     3
  5
357
 10
311.766583
 20
-7.979167
 30
0.0
  0
VERTEX
  8
1
  6
CONTINUOUS
 62
     3
  5
358
 10
311.766583
 20
-14.968333
 30
0.0
  0
VERTEX
  8
1
  6
CONTINUOUS
 62
     3
  5
359
 10
311.766583
 20
-14.968333
 30
0.0
 42
-0.213303
  0
VERTEX
  8
1
  6
CONTINUOUS
 62
     3
  5
35A
 10
312.439417
 20
-13.47375
 30
0.0
  0
VERTEX
  8
1
  6
CONTINUOUS
 62
     3
  5
35B
 10
312.439417
 20
-13.47375
 30
0.0
 42
-0.336417
  0
VERTEX
  8
1
  6
CONTINUOUS
 62
     3
  5
35C
 10
312.439417
 20
-9.47375
 30
0.0
  0
VERTEX
  8
1
  6
CONTINUOUS
 62
     3
  5
35D
 10
312.439417
 20
-9.47375
 30
0.0
 42
-0.213303
  0
VERTEX
  8
1
  6
CONTINUOUS
 62
     3
  5
35E
 10
311.766583
 20
-7.979167
 30
0.0
  0
SEQEND
  8
1
  6
CONTINUOUS
 62
     3
  5
35F
  0
ARC
  8
1
  6
CONTINUOUS
 62
     3
  5
360
 10
313.775012
 20
-7.984583
 30
0.0
 40
2.008436
 50
179.845475
 51
228.318233
210
0.0
220
0.0
230
1.0
  0
ARC
  8
1
  6
CONTINUOUS
 62
     3
  5
361
 10
313.775012
 20
-14.962917
 30
0.0
 40
2.008436
 50
131.681767
 51
180.154525
210
0.0
220
0.0
230
1.0
  0
ARC
  8
1
  6
CONTINUOUS
 62
     3
  5
362
 10
315.075504
 20
-11.47375
 30
0.0
 40
3.308921
 50
142.812406
 51
217.187594
210
0.0
220
0.0
230
1.0
  0
LINE
  8
1
  6
CONTINUOUS
 62
     3
  5
363
 10
381.189417
 20
-1.97375
 30
0.0
 11
381.189417
 21
-20.97375
 31
0.0
  0
LINE
  8
1
  6
CONTINUOUS
 62
     3
  5
364
 10
381.939417
 20
-1.97375
 30
0.0
 11
381.939417
 21
-20.97375
 31
0.0
  0
LINE
  8
1
  6
CONTINUOUS
 62
     3
  5
365
 10
381.939417
 20
-1.97375
 30
0.0
 11
380.439417
 21
-1.97375
 31
0.0
  0
LINE
  8
1
  6
CONTINUOUS
 62
     3
  5
366
 10
381.939417
 20
-20.97375
 30
0.0
 11
380.439417
 21
-20.97375
 31
0.0
  0
LINE
  8
1
  6
CONTINUOUS
 62
     3
  5
367
 10
383.939417
 20
-10.72375
 30
0.0
 11
383.939417
 21
-12.22375
 31
0.0
  0
LINE
  8
1
  6
CONTINUOUS
 62
     3
  5
368
 10
383.939417
 20
-10.72375
 30
0.0
 11
384.889583
 21
-10.72375
 31
0.0
  0
LINE
  8
1
  6
CONTINUOUS
 62
     3
  5
369
 10
383.939417
 20
-12.22375
 30
0.0
 11
384.889583
 21
-12.22375
 31
0.0
  0
ARC
  8
1
  6
CONTINUOUS
 62
     3
  5
36A
 10
379.27275
 20
-11.47375
 30
0.0
 40
5.666667
 50
7.605581
 51
61.927514
210
0.0
220
0.0
230
1.0
  0
ARC
  8
1
  6
CONTINUOUS
 62
     3
  5
36B
 10
379.27275
 20
-11.47375
 30
0.0
 40
5.666667
 50
298.072489
 51
352.394419
210
0.0
220
0.0
230
1.0
  0
LINE
  8
1
  6
CONTINUOUS
 62
     7
  5
36C
 10
304.266583
 20
-11.47375
 30
0.0
 11
314.939417
 21
-11.47375
 31
0.0
  0
LINE
  8
1
  6
CONTINUOUS
 62
     7
  5
36D
 10
317.939417
 20
-11.47375
 30
0.0
 11
318.939417
 21
-11.47375
 31
0.0
  0
LINE
  8
1
  6
CONTINUOUS
 62
     3
  5
36E
 10
328.996167
 20
-9.47375
 30
0.0
 11
328.996167
 21
-13.47375
 31
0.0
  0
LINE
  8
1
  6
CONTINUOUS
 62
     3
  5
36F
 10
328.246167
 20
-10.22375
 30
0.0
 11
328.246167
 21
-12.72375
 31
0.0
  0
LINE
  8
1
  6
CONTINUOUS
 62
     3
  5
370
 10
329.746167
 20
-10.22375
 30
0.0
 11
329.746167
 21
-12.72375
 31
0.0
  0
LINE
  8
1
  6
CONTINUOUS
 62
     3
  5
371
 10
330.496167
 20
-9.47375
 30
0.0
 11
330.496167
 21
-13.47375
 31
0.0
  0
LINE
  8
1
  6
CONTINUOUS
 62
     3
  5
372
 10
331.246167
 20
-10.22375
 30
0.0
 11
331.246167
 21
-12.72375
 31
0.0
  0
LINE
  8
1
  6
CONTINUOUS
 62
     3
  5
373
 10
331.996167
 20
-9.47375
 30
0.0
 11
331.996167
 21
-13.47375
 31
0.0
  0
LINE
  8
1
  6
CONTINUOUS
 62
     3
  5
374
 10
332.746167
 20
-10.22375
 30
0.0
 11
332.746167
 21
-12.72375
 31
0.0
  0
LINE
  8
1
  6
CONTINUOUS
 62
     3
  5
375
 10
333.496167
 20
-9.47375
 30
0.0
 11
333.496167
 21
-13.47375
 31
0.0
  0
LINE
  8
1
  6
CONTINUOUS
 62
     3
  5
376
 10
334.246167
 20
-10.22375
 30
0.0
 11
334.246167
 21
-12.72375
 31
0.0
  0
LINE
  8
1
  6
CONTINUOUS
 62
     3
  5
377
 10
334.996167
 20
-9.47375
 30
0.0
 11
334.996167
 21
-13.47375
 31
0.0
  0
LINE
  8
1
  6
CONTINUOUS
 62
     7
  5
378
 10
320.939417
 20
-11.47375
 30
0.0
 11
336.996167
 21
-11.47375
 31
0.0
  0
LINE
  8
1
  6
CONTINUOUS
 62
     7
  5
379
 10
337.996167
 20
-11.47375
 30
0.0
 11
340.496167
 21
-11.47375
 31
0.0
  0
LINE
  8
1
  6
CONTINUOUS
 62
     7
  5
37A
 10
341.496167
 20
-11.47375
 30
0.0
 11
347.496167
 21
-11.47375
 31
0.0
  0
LINE
  8
1
  6
CONTINUOUS
 62
     7
  5
37B
 10
348.496167
 20
-11.47375
 30
0.0
 11
354.496167
 21
-11.47375
 31
0.0
  0
LINE
  8
1
  6
CONTINUOUS
 62
     7
  5
37C
 10
355.496167
 20
-11.47375
 30
0.0
 11
357.996167
 21
-11.47375
 31
0.0
  0
LINE
  8
1
  6
CONTINUOUS
 62
     7
  5
37D
 10
358.996167
 20
-11.47375
 30
0.0
 11
370.939417
 21
-11.47375
 31
0.0
  0
LINE
  8
1
  6
CONTINUOUS
 62
     7
  5
37E
 10
374.439417
 20
-11.47375
 30
0.0
 11
371.939417
 21
-11.47375
 31
0.0
  0
LINE
  8
1
  6
CONTINUOUS
 62
     7
  5
37F
 10
375.439417
 20
-11.47375
 30
0.0
 11
381.189417
 21
-11.47375
 31
0.0
  0
LINE
  8
1
  6
CONTINUOUS
 62
     7
  5
380
 10
381.939417
 20
-11.47375
 30
0.0
 11
390.939417
 21
-11.47375
 31
0.0
  0
LINE
  8
1
  6
CONTINUOUS
 62
     3
  5
381
 10
316.439417
 20
31.77625
 30
0.0
 11
317.439417
 21
31.77625
 31
0.0
  0
LINE
  8
1
  6
CONTINUOUS
 62
     3
  5
382
 10
319.439417
 20
31.77625
 30
0.0
 11
320.439417
 21
31.77625
 31
0.0
  0
LINE
  8
1
  6
CONTINUOUS
 62
     3
  5
383
 10
316.439417
 20
-54.72375
 30
0.0
 11
317.439417
 21
-54.72375
 31
0.0
  0
LINE
  8
1
  6
CONTINUOUS
 62
     3
  5
384
 10
319.439417
 20
-54.72375
 30
0.0
 11
320.439417
 21
-54.72375
 31
0.0
  0
POLYLINE
  8
1
  6
CONTINUOUS
 62
     3
  5
385
 66
     1
 10
0.0
 20
0.0
 30
0.0
 70
     1
  0
VERTEX
  8
1
  6
CONTINUOUS
 62
     3
  5
386
 10
317.439417
 20
-54.72375
 30
0.0
  0
VERTEX
  8
1
  6
CONTINUOUS
 62
     3
  5
387
 10
317.439417
 20
31.77625
 30
0.0
  0
VERTEX
  8
1
  6
CONTINUOUS
 62
     3
  5
388
 10
317.939417
 20
31.77625
 30
0.0
  0
VERTEX
  8
1
  6
CONTINUOUS
 62
     3
  5
389
 10
318.439417
 20
32.77625
 30
0.0
  0
VERTEX
  8
1
  6
CONTINUOUS
 62
     3
  5
38A
 10
318.439417
 20
30.77625
 30
0.0
  0
VERTEX
  8
1
  6
CONTINUOUS
 62
     3
  5
38B
 10
318.939417
 20
31.77625
 30
0.0
  0
VERTEX
  8
1
  6
CONTINUOUS
 62
     3
  5
38C
 10
319.439417
 20
31.77625
 30
0.0
  0
VERTEX
  8
1
  6
CONTINUOUS
 62
     3
  5
38D
 10
319.439417
 20
-54.72375
 30
0.0
  0
VERTEX
  8
1
  6
CONTINUOUS
 62
     3
  5
38E
 10
318.939417
 20
-54.72375
 30
0.0
  0
VERTEX
  8
1
  6
CONTINUOUS
 62
     3
  5
38F
 10
318.439417
 20
-53.72375
 30
0.0
  0
VERTEX
  8
1
  6
CONTINUOUS
 62
     3
  5
390
 10
318.439417
 20
-55.72375
 30
0.0
  0
VERTEX
  8
1
  6
CONTINUOUS
 62
     3
  5
391
 10
317.939417
 20
-54.72375
 30
0.0
  0
VERTEX
  8
1
  6
CONTINUOUS
 62
     3
  5
392
 10
317.439417
 20
-54.72375
 30
0.0
  0
SEQEND
  8
1
  6
CONTINUOUS
 62
     3
  5
393
  0
LINE
  8
1
  6
CONTINUOUS
 62
     3
  5
394
 10
317.439417
 20
29.144583
 30
0.0
 11
319.439417
 21
31.144583
 31
0.0
  0
LINE
  8
1
  6
CONTINUOUS
 62
     3
  5
395
 10
317.439417
 20
26.316167
 30
0.0
 11
319.439417
 21
28.316167
 31
0.0
  0
LINE
  8
1
  6
CONTINUOUS
 62
     3
  5
396
 10
317.439417
 20
23.487667
 30
0.0
 11
319.439417
 21
25.487667
 31
0.0
  0
LINE
  8
1
  6
CONTINUOUS
 62
     3
  5
397
 10
317.439417
 20
20.65925
 30
0.0
 11
319.439417
 21
22.65925
 31
0.0
  0
LINE
  8
1
  6
CONTINUOUS
 62
     3
  5
398
 10
317.439417
 20
17.830833
 30
0.0
 11
319.439417
 21
19.830833
 31
0.0
  0
LINE
  8
1
  6
CONTINUOUS
 62
     3
  5
399
 10
317.439417
 20
15.002417
 30
0.0
 11
319.439417
 21
17.002417
 31
0.0
  0
LINE
  8
1
  6
CONTINUOUS
 62
     3
  5
39A
 10
317.439417
 20
12.174
 30
0.0
 11
319.439417
 21
14.174
 31
0.0
  0
LINE
  8
1
  6
CONTINUOUS
 62
     3
  5
39B
 10
317.439417
 20
9.345583
 30
0.0
 11
319.439417
 21
11.345583
 31
0.0
  0
LINE
  8
1
  6
CONTINUOUS
 62
     3
  5
39C
 10
317.439417
 20
6.517167
 30
0.0
 11
319.439417
 21
8.517167
 31
0.0
  0
LINE
  8
1
  6
CONTINUOUS
 62
     3
  5
39D
 10
317.439417
 20
3.68875
 30
0.0
 11
319.439417
 21
5.68875
 31
0.0
  0
LINE
  8
1
  6
CONTINUOUS
 62
     3
  5
39E
 10
317.439417
 20
0.86025
 30
0.0
 11
319.439417
 21
2.86025
 31
0.0
  0
LINE
  8
1
  6
CONTINUOUS
 62
     3
  5
39F
 10
317.439417
 20
-1.968167
 30
0.0
 11
319.439417
 21
0.031833
 31
0.0
  0
LINE
  8
1
  6
CONTINUOUS
 62
     3
  5
3A0
 10
317.439417
 20
-4.796583
 30
0.0
 11
319.439417
 21
-2.796583
 31
0.0
  0
LINE
  8
1
  6
CONTINUOUS
 62
     3
  5
3A1
 10
317.439417
 20
-7.625
 30
0.0
 11
319.439417
 21
-5.625
 31
0.0
  0
LINE
  8
1
  6
CONTINUOUS
 62
     3
  5
3A2
 10
317.439417
 20
-10.453417
 30
0.0
 11
319.439417
 21
-8.453417
 31
0.0
  0
LINE
  8
1
  6
CONTINUOUS
 62
     3
  5
3A3
 10
317.439417
 20
-13.281833
 30
0.0
 11
319.439417
 21
-11.281833
 31
0.0
  0
LINE
  8
1
  6
CONTINUOUS
 62
     3
  5
3A4
 10
317.439417
 20
-16.11025
 30
0.0
 11
319.439417
 21
-14.11025
 31
0.0
  0
LINE
  8
1
  6
CONTINUOUS
 62
     3
  5
3A5
 10
317.439417
 20
-18.938667
 30
0.0
 11
319.439417
 21
-16.938667
 31
0.0
  0
LINE
  8
1
  6
CONTINUOUS
 62
     3
  5
3A6
 10
317.439417
 20
-21.767167
 30
0.0
 11
319.439417
 21
-19.767167
 31
0.0
  0
LINE
  8
1
  6
CONTINUOUS
 62
     3
  5
3A7
 10
317.439417
 20
-24.595583
 30
0.0
 11
319.439417
 21
-22.595583
 31
0.0
  0
LINE
  8
1
  6
CONTINUOUS
 62
     3
  5
3A8
 10
317.439417
 20
-27.424
 30
0.0
 11
319.439417
 21
-25.424
 31
0.0
  0
LINE
  8
1
  6
CONTINUOUS
 62
     3
  5
3A9
 10
317.439417
 20
-30.252417
 30
0.0
 11
319.439417
 21
-28.252417
 31
0.0
  0
LINE
  8
1
  6
CONTINUOUS
 62
     3
  5
3AA
 10
317.439417
 20
-33.080833
 30
0.0
 11
319.439417
 21
-31.080833
 31
0.0
  0
LINE
  8
1
  6
CONTINUOUS
 62
     3
  5
3AB
 10
317.439417
 20
-35.90925
 30
0.0
 11
319.439417
 21
-33.90925
 31
0.0
  0
LINE
  8
1
  6
CONTINUOUS
 62
     3
  5
3AC
 10
317.439417
 20
-38.737667
 30
0.0
 11
319.439417
 21
-36.737667
 31
0.0
  0
LINE
  8
1
  6
CONTINUOUS
 62
     3
  5
3AD
 10
317.439417
 20
-41.566167
 30
0.0
 11
319.439417
 21
-39.566167
 31
0.0
  0
LINE
  8
1
  6
CONTINUOUS
 62
     3
  5
3AE
 10
317.439417
 20
-44.394583
 30
0.0
 11
319.439417
 21
-42.394583
 31
0.0
  0
LINE
  8
1
  6
CONTINUOUS
 62
     3
  5
3AF
 10
317.439417
 20
-47.223
 30
0.0
 11
319.439417
 21
-45.223
 31
0.0
  0
LINE
  8
1
  6
CONTINUOUS
 62
     3
  5
3B0
 10
317.439417
 20
-50.051417
 30
0.0
 11
319.439417
 21
-48.051417
 31
0.0
  0
LINE
  8
1
  6
CONTINUOUS
 62
     3
  5
3B1
 10
317.439417
 20
-52.879833
 30
0.0
 11
319.439417
 21
-50.879833
 31
0.0
  0
LINE
  8
1
  6
CONTINUOUS
 62
     3
  5
3B2
 10
318.100917
 20
-55.04675
 30
0.0
 11
318.439417
 21
-54.70825
 31
0.0
  0
LINE
  8
1
  6
CONTINUOUS
 62
     3
  5
3B3
 10
318.767583
 20
-54.380083
 30
0.0
 11
319.439417
 21
-53.70825
 31
0.0
  0
LINE
  8
1
  6
CONTINUOUS
 62
     3
  5
3B4
 10
318.439417
 20
-54.260917
 30
0.0
 11
317.439417
 21
-53.260917
 31
0.0
  0
LINE
  8
1
  6
CONTINUOUS
 62
     3
  5
3B5
 10
319.439417
 20
-52.4325
 30
0.0
 11
317.439417
 21
-50.4325
 31
0.0
  0
LINE
  8
1
  6
CONTINUOUS
 62
     3
  5
3B6
 10
319.439417
 20
-49.604083
 30
0.0
 11
317.439417
 21
-47.604083
 31
0.0
  0
LINE
  8
1
  6
CONTINUOUS
 62
     3
  5
3B7
 10
319.439417
 20
-46.775667
 30
0.0
 11
317.439417
 21
-44.775667
 31
0.0
  0
LINE
  8
1
  6
CONTINUOUS
 62
     3
  5
3B8
 10
319.439417
 20
-43.94725
 30
0.0
 11
317.439417
 21
-41.94725
 31
0.0
  0
LINE
  8
1
  6
CONTINUOUS
 62
     3
  5
3B9
 10
319.439417
 20
-41.118833
 30
0.0
 11
317.439417
 21
-39.118833
 31
0.0
  0
LINE
  8
1
  6
CONTINUOUS
 62
     3
  5
3BA
 10
319.439417
 20
-38.290333
 30
0.0
 11
317.439417
 21
-36.290333
 31
0.0
  0
LINE
  8
1
  6
CONTINUOUS
 62
     3
  5
3BB
 10
319.439417
 20
-35.461917
 30
0.0
 11
317.439417
 21
-33.461917
 31
0.0
  0
LINE
  8
1
  6
CONTINUOUS
 62
     3
  5
3BC
 10
319.439417
 20
-32.6335
 30
0.0
 11
317.439417
 21
-30.6335
 31
0.0
  0
LINE
  8
1
  6
CONTINUOUS
 62
     3
  5
3BD
 10
319.439417
 20
-29.805083
 30
0.0
 11
317.439417
 21
-27.805083
 31
0.0
  0
LINE
  8
1
  6
CONTINUOUS
 62
     3
  5
3BE
 10
319.439417
 20
-26.976667
 30
0.0
 11
317.439417
 21
-24.976667
 31
0.0
  0
LINE
  8
1
  6
CONTINUOUS
 62
     3
  5
3BF
 10
319.439417
 20
-24.14825
 30
0.0
 11
317.439417
 21
-22.14825
 31
0.0
  0
LINE
  8
1
  6
CONTINUOUS
 62
     3
  5
3C0
 10
319.439417
 20
-21.319833
 30
0.0
 11
317.439417
 21
-19.319833
 31
0.0
  0
LINE
  8
1
  6
CONTINUOUS
 62
     3
  5
3C1
 10
319.439417
 20
-18.491417
 30
0.0
 11
317.439417
 21
-16.491417
 31
0.0
  0
LINE
  8
1
  6
CONTINUOUS
 62
     3
  5
3C2
 10
319.439417
 20
-15.662917
 30
0.0
 11
317.439417
 21
-13.662917
 31
0.0
  0
LINE
  8
1
  6
CONTINUOUS
 62
     3
  5
3C3
 10
319.439417
 20
-12.8345
 30
0.0
 11
317.439417
 21
-10.8345
 31
0.0
  0
LINE
  8
1
  6
CONTINUOUS
 62
     3
  5
3C4
 10
319.439417
 20
-10.006083
 30
0.0
 11
317.439417
 21
-8.006083
 31
0.0
  0
LINE
  8
1
  6
CONTINUOUS
 62
     3
  5
3C5
 10
319.439417
 20
-7.177667
 30
0.0
 11
317.439417
 21
-5.177667
 31
0.0
  0
LINE
  8
1
  6
CONTINUOUS
 62
     3
  5
3C6
 10
319.439417
 20
-4.34925
 30
0.0
 11
317.439417
 21
-2.34925
 31
0.0
  0
LINE
  8
1
  6
CONTINUOUS
 62
     3
  5
3C7
 10
319.439417
 20
-1.520833
 30
0.0
 11
317.439417
 21
0.479167
 31
0.0
  0
LINE
  8
1
  6
CONTINUOUS
 62
     3
  5
3C8
 10
319.439417
 20
1.307583
 30
0.0
 11
317.439417
 21
3.307583
 31
0.0
  0
LINE
  8
1
  6
CONTINUOUS
 62
     3
  5
3C9
 10
319.439417
 20
4.136
 30
0.0
 11
317.439417
 21
6.136
 31
0.0
  0
LINE
  8
1
  6
CONTINUOUS
 62
     3
  5
3CA
 10
319.439417
 20
6.9645
 30
0.0
 11
317.439417
 21
8.9645
 31
0.0
  0
LINE
  8
1
  6
CONTINUOUS
 62
     3
  5
3CB
 10
319.439417
 20
9.792917
 30
0.0
 11
317.439417
 21
11.792917
 31
0.0
  0
LINE
  8
1
  6
CONTINUOUS
 62
     3
  5
3CC
 10
319.439417
 20
12.621333
 30
0.0
 11
317.439417
 21
14.621333
 31
0.0
  0
LINE
  8
1
  6
CONTINUOUS
 62
     3
  5
3CD
 10
319.439417
 20
15.44975
 30
0.0
 11
317.439417
 21
17.44975
 31
0.0
  0
LINE
  8
1
  6
CONTINUOUS
 62
     3
  5
3CE
 10
319.439417
 20
18.278167
 30
0.0
 11
317.439417
 21
20.278167
 31
0.0
  0
LINE
  8
1
  6
CONTINUOUS
 62
     3
  5
3CF
 10
319.439417
 20
21.106583
 30
0.0
 11
317.439417
 21
23.106583
 31
0.0
  0
LINE
  8
1
  6
CONTINUOUS
 62
     3
  5
3D0
 10
319.439417
 20
23.935
 30
0.0
 11
317.439417
 21
25.935
 31
0.0
  0
LINE
  8
1
  6
CONTINUOUS
 62
     3
  5
3D1
 10
319.439417
 20
26.763417
 30
0.0
 11
317.439417
 21
28.763417
 31
0.0
  0
LINE
  8
1
  6
CONTINUOUS
 62
     3
  5
3D2
 10
319.439417
 20
29.591917
 30
0.0
 11
317.439417
 21
31.591917
 31
0.0
  0
LINE
  8
1
  6
CONTINUOUS
 62
     3
  5
3D3
 10
378.439417
 20
31.77625
 30
0.0
 11
377.439417
 21
31.77625
 31
0.0
  0
LINE
  8
1
  6
CONTINUOUS
 62
     3
  5
3D4
 10
381.439417
 20
31.77625
 30
0.0
 11
380.439417
 21
31.77625
 31
0.0
  0
LINE
  8
1
  6
CONTINUOUS
 62
     3
  5
3D5
 10
378.439417
 20
-54.72375
 30
0.0
 11
377.439417
 21
-54.72375
 31
0.0
  0
POLYLINE
  8
1
  6
CONTINUOUS
 62
     3
  5
3D6
 66
     1
 10
0.0
 20
0.0
 30
0.0
 70
     1
  0
VERTEX
  8
1
  6
CONTINUOUS
 62
     3
  5
3D7
 10
378.439417
 20
-54.72375
 30
0.0
  0
VERTEX
  8
1
  6
CONTINUOUS
 62
     3
  5
3D8
 10
378.439417
 20
31.77625
 30
0.0
  0
VERTEX
  8
1
  6
CONTINUOUS
 62
     3
  5
3D9
 10
378.939417
 20
31.77625
 30
0.0
  0
VERTEX
  8
1
  6
CONTINUOUS
 62
     3
  5
3DA
 10
379.439417
 20
30.77625
 30
0.0
  0
VERTEX
  8
1
  6
CONTINUOUS
 62
     3
  5
3DB
 10
379.439417
 20
32.77625
 30
0.0
  0
VERTEX
  8
1
  6
CONTINUOUS
 62
     3
  5
3DC
 10
379.939417
 20
31.77625
 30
0.0
  0
VERTEX
  8
1
  6
CONTINUOUS
 62
     3
  5
3DD
 10
380.439417
 20
31.77625
 30
0.0
  0
VERTEX
  8
1
  6
CONTINUOUS
 62
     3
  5
3DE
 10
380.439417
 20
-54.72375
 30
0.0
  0
VERTEX
  8
1
  6
CONTINUOUS
 62
     3
  5
3DF
 10
381.439417
 20
-54.72375
 30
0.0
  0
VERTEX
  8
1
  6
CONTINUOUS
 62
     3
  5
3E0
 10
378.439417
 20
-54.72375
 30
0.0
  0
SEQEND
  8
1
  6
CONTINUOUS
 62
     3
  5
3E1
  0
POLYLINE
  8
1
  6
CONTINUOUS
 62
     3
  5
3E2
 66
     1
 10
0.0
 20
0.0
 30
0.0
 70
     1
  0
VERTEX
  8
1
  6
CONTINUOUS
 62
     3
  5
3E3
 10
378.439417
 20
-54.72375
 30
0.0
  0
VERTEX
  8
1
  6
CONTINUOUS
 62
     3
  5
3E4
 10
378.439417
 20
31.77625
 30
0.0
  0
VERTEX
  8
1
  6
CONTINUOUS
 62
     3
  5
3E5
 10
378.939417
 20
31.77625
 30
0.0
  0
VERTEX
  8
1
  6
CONTINUOUS
 62
     3
  5
3E6
 10
379.439417
 20
30.77625
 30
0.0
  0
VERTEX
  8
1
  6
CONTINUOUS
 62
     3
  5
3E7
 10
379.439417
 20
32.77625
 30
0.0
  0
VERTEX
  8
1
  6
CONTINUOUS
 62
     3
  5
3E8
 10
379.939417
 20
31.77625
 30
0.0
  0
VERTEX
  8
1
  6
CONTINUOUS
 62
     3
  5
3E9
 10
380.439417
 20
31.77625
 30
0.0
  0
VERTEX
  8
1
  6
CONTINUOUS
 62
     3
  5
3EA
 10
380.439417
 20
-54.72375
 30
0.0
  0
VERTEX
  8
1
  6
CONTINUOUS
 62
     3
  5
3EB
 10
379.939417
 20
-54.72375
 30
0.0
  0
VERTEX
  8
1
  6
CONTINUOUS
 62
     3
  5
3EC
 10
379.439417
 20
-55.72375
 30
0.0
  0
VERTEX
  8
1
  6
CONTINUOUS
 62
     3
  5
3ED
 10
379.439417
 20
-53.72375
 30
0.0
  0
VERTEX
  8
1
  6
CONTINUOUS
 62
     3
  5
3EE
 10
378.939417
 20
-54.72375
 30
0.0
  0
VERTEX
  8
1
  6
CONTINUOUS
 62
     3
  5
3EF
 10
378.439417
 20
-54.72375
 30
0.0
  0
SEQEND
  8
1
  6
CONTINUOUS
 62
     3
  5
3F0
  0
LINE
  8
1
  6
CONTINUOUS
 62
     3
  5
3F1
 10
378.439417
 20
31.606167
 30
0.0
 11
378.6095
 21
31.77625
 31
0.0
  0
LINE
  8
1
  6
CONTINUOUS
 62
     3
  5
3F2
 10
379.439417
 20
32.606167
 30
0.0
 11
379.496083
 21
32.662833
 31
0.0
  0
LINE
  8
1
  6
CONTINUOUS
 62
     3
  5
3F3
 10
378.439417
 20
28.77775
 30
0.0
 11
380.439417
 21
30.77775
 31
0.0
  0
LINE
  8
1
  6
CONTINUOUS
 62
     3
  5
3F4
 10
378.439417
 20
25.949333
 30
0.0
 11
380.439417
 21
27.949333
 31
0.0
  0
LINE
  8
1
  6
CONTINUOUS
 62
     3
  5
3F5
 10
378.439417
 20
23.120917
 30
0.0
 11
380.439417
 21
25.120917
 31
0.0
  0
LINE
  8
1
  6
CONTINUOUS
 62
     3
  5
3F6
 10
378.439417
 20
20.292417
 30
0.0
 11
380.439417
 21
22.292417
 31
0.0
  0
LINE
  8
1
  6
CONTINUOUS
 62
     3
  5
3F7
 10
378.439417
 20
17.464
 30
0.0
 11
380.439417
 21
19.464
 31
0.0
  0
LINE
  8
1
  6
CONTINUOUS
 62
     3
  5
3F8
 10
378.439417
 20
14.635583
 30
0.0
 11
380.439417
 21
16.635583
 31
0.0
  0
LINE
  8
1
  6
CONTINUOUS
 62
     3
  5
3F9
 10
378.439417
 20
11.807167
 30
0.0
 11
380.439417
 21
13.807167
 31
0.0
  0
LINE
  8
1
  6
CONTINUOUS
 62
     3
  5
3FA
 10
378.439417
 20
8.97875
 30
0.0
 11
380.439417
 21
10.97875
 31
0.0
  0
LINE
  8
1
  6
CONTINUOUS
 62
     3
  5
3FB
 10
378.439417
 20
6.150333
 30
0.0
 11
380.439417
 21
8.150333
 31
0.0
  0
LINE
  8
1
  6
CONTINUOUS
 62
     3
  5
3FC
 10
378.439417
 20
3.321917
 30
0.0
 11
380.439417
 21
5.321917
 31
0.0
  0
LINE
  8
1
  6
CONTINUOUS
 62
     3
  5
3FD
 10
378.439417
 20
0.4935
 30
0.0
 11
380.439417
 21
2.4935
 31
0.0
  0
LINE
  8
1
  6
CONTINUOUS
 62
     3
  5
3FE
 10
378.439417
 20
-2.335
 30
0.0
 11
380.439417
 21
-0.335
 31
0.0
  0
LINE
  8
1
  6
CONTINUOUS
 62
     3
  5
3FF
 10
378.439417
 20
-5.163417
 30
0.0
 11
380.439417
 21
-3.163417
 31
0.0
  0
LINE
  8
1
  6
CONTINUOUS
 62
     3
  5
400
 10
378.439417
 20
-7.991833
 30
0.0
 11
380.439417
 21
-5.991833
 31
0.0
  0
LINE
  8
1
  6
CONTINUOUS
 62
     3
  5
401
 10
378.439417
 20
-10.82025
 30
0.0
 11
380.439417
 21
-8.82025
 31
0.0
  0
LINE
  8
1
  6
CONTINUOUS
 62
     3
  5
402
 10
378.439417
 20
-13.648667
 30
0.0
 11
380.439417
 21
-11.648667
 31
0.0
  0
LINE
  8
1
  6
CONTINUOUS
 62
     3
  5
403
 10
378.439417
 20
-16.477083
 30
0.0
 11
380.439417
 21
-14.477083
 31
0.0
  0
LINE
  8
1
  6
CONTINUOUS
 62
     3
  5
404
 10
378.439417
 20
-19.3055
 30
0.0
 11
380.439417
 21
-17.3055
 31
0.0
  0
LINE
  8
1
  6
CONTINUOUS
 62
     3
  5
405
 10
378.439417
 20
-22.133917
 30
0.0
 11
380.439417
 21
-20.133917
 31
0.0
  0
LINE
  8
1
  6
CONTINUOUS
 62
     3
  5
406
 10
378.439417
 20
-24.962417
 30
0.0
 11
380.439417
 21
-22.962417
 31
0.0
  0
LINE
  8
1
  6
CONTINUOUS
 62
     3
  5
407
 10
378.439417
 20
-27.790833
 30
0.0
 11
380.439417
 21
-25.790833
 31
0.0
  0
LINE
  8
1
  6
CONTINUOUS
 62
     3
  5
408
 10
378.439417
 20
-30.61925
 30
0.0
 11
380.439417
 21
-28.61925
 31
0.0
  0
LINE
  8
1
  6
CONTINUOUS
 62
     3
  5
409
 10
378.439417
 20
-33.447667
 30
0.0
 11
380.439417
 21
-31.447667
 31
0.0
  0
LINE
  8
1
  6
CONTINUOUS
 62
     3
  5
40A
 10
378.439417
 20
-36.276083
 30
0.0
 11
380.439417
 21
-34.276083
 31
0.0
  0
LINE
  8
1
  6
CONTINUOUS
 62
     3
  5
40B
 10
378.439417
 20
-39.1045
 30
0.0
 11
380.439417
 21
-37.1045
 31
0.0
  0
LINE
  8
1
  6
CONTINUOUS
 62
     3
  5
40C
 10
378.439417
 20
-41.932917
 30
0.0
 11
380.439417
 21
-39.932917
 31
0.0
  0
LINE
  8
1
  6
CONTINUOUS
 62
     3
  5
40D
 10
378.439417
 20
-44.761417
 30
0.0
 11
380.439417
 21
-42.761417
 31
0.0
  0
LINE
  8
1
  6
CONTINUOUS
 62
     3
  5
40E
 10
378.439417
 20
-47.589833
 30
0.0
 11
380.439417
 21
-45.589833
 31
0.0
  0
LINE
  8
1
  6
CONTINUOUS
 62
     3
  5
40F
 10
378.439417
 20
-50.41825
 30
0.0
 11
380.439417
 21
-48.41825
 31
0.0
  0
LINE
  8
1
  6
CONTINUOUS
 62
     3
  5
410
 10
378.439417
 20
-53.246667
 30
0.0
 11
380.439417
 21
-51.246667
 31
0.0
  0
LINE
  8
1
  6
CONTINUOUS
 62
     3
  5
411
 10
379.79075
 20
-54.72375
 30
0.0
 11
380.439417
 21
-54.075083
 31
0.0
  0
LINE
  8
1
  6
CONTINUOUS
 62
     3
  5
412
 10
379.0225
 20
-54.72375
 30
0.0
 11
378.439417
 21
-54.140667
 31
0.0
  0
LINE
  8
1
  6
CONTINUOUS
 62
     3
  5
413
 10
380.439417
 20
-53.312167
 30
0.0
 11
378.439417
 21
-51.312167
 31
0.0
  0
LINE
  8
1
  6
CONTINUOUS
 62
     3
  5
414
 10
380.439417
 20
-50.48375
 30
0.0
 11
378.439417
 21
-48.48375
 31
0.0
  0
LINE
  8
1
  6
CONTINUOUS
 62
     3
  5
415
 10
380.439417
 20
-47.655333
 30
0.0
 11
378.439417
 21
-45.655333
 31
0.0
  0
LINE
  8
1
  6
CONTINUOUS
 62
     3
  5
416
 10
380.439417
 20
-44.826917
 30
0.0
 11
378.439417
 21
-42.826917
 31
0.0
  0
LINE
  8
1
  6
CONTINUOUS
 62
     3
  5
417
 10
380.439417
 20
-41.9985
 30
0.0
 11
378.439417
 21
-39.9985
 31
0.0
  0
LINE
  8
1
  6
CONTINUOUS
 62
     3
  5
418
 10
380.439417
 20
-39.170083
 30
0.0
 11
378.439417
 21
-37.170083
 31
0.0
  0
LINE
  8
1
  6
CONTINUOUS
 62
     3
  5
419
 10
380.439417
 20
-36.341667
 30
0.0
 11
378.439417
 21
-34.341667
 31
0.0
  0
LINE
  8
1
  6
CONTINUOUS
 62
     3
  5
41A
 10
380.439417
 20
-33.51325
 30
0.0
 11
378.439417
 21
-31.51325
 31
0.0
  0
LINE
  8
1
  6
CONTINUOUS
 62
     3
  5
41B
 10
380.439417
 20
-30.68475
 30
0.0
 11
378.439417
 21
-28.68475
 31
0.0
  0
LINE
  8
1
  6
CONTINUOUS
 62
     3
  5
41C
 10
380.439417
 20
-27.856333
 30
0.0
 11
378.439417
 21
-25.856333
 31
0.0
  0
LINE
  8
1
  6
CONTINUOUS
 62
     3
  5
41D
 10
380.439417
 20
-25.027917
 30
0.0
 11
378.439417
 21
-23.027917
 31
0.0
  0
LINE
  8
1
  6
CONTINUOUS
 62
     3
  5
41E
 10
380.439417
 20
-22.1995
 30
0.0
 11
378.439417
 21
-20.1995
 31
0.0
  0
LINE
  8
1
  6
CONTINUOUS
 62
     3
  5
41F
 10
380.439417
 20
-19.371083
 30
0.0
 11
378.439417
 21
-17.371083
 31
0.0
  0
LINE
  8
1
  6
CONTINUOUS
 62
     3
  5
420
 10
380.439417
 20
-16.542667
 30
0.0
 11
378.439417
 21
-14.542667
 31
0.0
  0
LINE
  8
1
  6
CONTINUOUS
 62
     3
  5
421
 10
380.439417
 20
-13.71425
 30
0.0
 11
378.439417
 21
-11.71425
 31
0.0
  0
LINE
  8
1
  6
CONTINUOUS
 62
     3
  5
422
 10
380.439417
 20
-10.88575
 30
0.0
 11
378.439417
 21
-8.88575
 31
0.0
  0
LINE
  8
1
  6
CONTINUOUS
 62
     3
  5
423
 10
380.439417
 20
-8.057333
 30
0.0
 11
378.439417
 21
-6.057333
 31
0.0
  0
LINE
  8
1
  6
CONTINUOUS
 62
     3
  5
424
 10
380.439417
 20
-5.228917
 30
0.0
 11
378.439417
 21
-3.228917
 31
0.0
  0
LINE
  8
1
  6
CONTINUOUS
 62
     3
  5
425
 10
380.439417
 20
-2.4005
 30
0.0
 11
378.439417
 21
-0.4005
 31
0.0
  0
LINE
  8
1
  6
CONTINUOUS
 62
     3
  5
426
 10
380.439417
 20
0.427917
 30
0.0
 11
378.439417
 21
2.427917
 31
0.0
  0
LINE
  8
1
  6
CONTINUOUS
 62
     3
  5
427
 10
380.439417
 20
3.256333
 30
0.0
 11
378.439417
 21
5.256333
 31
0.0
  0
LINE
  8
1
  6
CONTINUOUS
 62
     3
  5
428
 10
380.439417
 20
6.08475
 30
0.0
 11
378.439417
 21
8.08475
 31
0.0
  0
LINE
  8
1
  6
CONTINUOUS
 62
     3
  5
429
 10
380.439417
 20
8.913167
 30
0.0
 11
378.439417
 21
10.913167
 31
0.0
  0
LINE
  8
1
  6
CONTINUOUS
 62
     3
  5
42A
 10
380.439417
 20
11.741667
 30
0.0
 11
378.439417
 21
13.741667
 31
0.0
  0
LINE
  8
1
  6
CONTINUOUS
 62
     3
  5
42B
 10
380.439417
 20
14.570083
 30
0.0
 11
378.439417
 21
16.570083
 31
0.0
  0
LINE
  8
1
  6
CONTINUOUS
 62
     3
  5
42C
 10
380.439417
 20
17.3985
 30
0.0
 11
378.439417
 21
19.3985
 31
0.0
  0
LINE
  8
1
  6
CONTINUOUS
 62
     3
  5
42D
 10
380.439417
 20
20.226917
 30
0.0
 11
378.439417
 21
22.226917
 31
0.0
  0
LINE
  8
1
  6
CONTINUOUS
 62
     3
  5
42E
 10
380.439417
 20
23.055333
 30
0.0
 11
378.439417
 21
25.055333
 31
0.0
  0
LINE
  8
1
  6
CONTINUOUS
 62
     3
  5
42F
 10
380.439417
 20
25.88375
 30
0.0
 11
378.439417
 21
27.88375
 31
0.0
  0
LINE
  8
1
  6
CONTINUOUS
 62
     3
  5
430
 10
380.439417
 20
28.712167
 30
0.0
 11
378.439417
 21
30.712167
 31
0.0
  0
LINE
  8
1
  6
CONTINUOUS
 62
     3
  5
431
 10
380.439417
 20
31.540583
 30
0.0
 11
380.20375
 21
31.77625
 31
0.0
  0
LINE
  8
1
  6
CONTINUOUS
 62
     3
  5
432
 10
379.675083
 20
32.305
 30
0.0
 11
379.439417
 21
32.540583
 31
0.0
  0
POLYLINE
  8
1
  6
CONTINUOUS
 62
     3
  5
433
 66
     1
 10
0.0
 20
0.0
 30
0.0
 70
     1
  0
VERTEX
  8
1
  6
CONTINUOUS
 62
     3
  5
434
 10
327.496167
 20
-21.983583
 30
0.0
  0
VERTEX
  8
1
  6
CONTINUOUS
 62
     3
  5
435
 10
327.496167
 20
-0.963917
 30
0.0
  0
VERTEX
  8
1
  6
CONTINUOUS
 62
     3
  5
436
 10
348.496167
 20
-0.963917
 30
0.0
  0
VERTEX
  8
1
  6
CONTINUOUS
 62
     3
  5
437
 10
348.496167
 20
-21.983583
 30
0.0
  0
VERTEX
  8
1
  6
CONTINUOUS
 62
     3
  5
438
 10
327.496167
 20
-21.983583
 30
0.0
  0
SEQEND
  8
1
  6
CONTINUOUS
 62
     3
  5
439
  0
LINE
  8
1
  6
CONTINUOUS
 62
     3
  5
43A
 10
328.5205
 20
-23.983583
 30
0.0
 11
325.496167
 21
-20.95925
 31
0.0
  0
LINE
  8
1
  6
CONTINUOUS
 62
     3
  5
43B
 10
331.348917
 20
-23.983583
 30
0.0
 11
329.348917
 21
-21.983583
 31
0.0
  0
LINE
  8
1
  6
CONTINUOUS
 62
     3
  5
43C
 10
327.496167
 20
-20.130833
 30
0.0
 11
325.496167
 21
-18.130833
 31
0.0
  0
LINE
  8
1
  6
CONTINUOUS
 62
     3
  5
43D
 10
334.177333
 20
-23.983583
 30
0.0
 11
332.177333
 21
-21.983583
 31
0.0
  0
LINE
  8
1
  6
CONTINUOUS
 62
     3
  5
43E
 10
327.496167
 20
-17.302417
 30
0.0
 11
325.496167
 21
-15.302417
 31
0.0
  0
LINE
  8
1
  6
CONTINUOUS
 62
     3
  5
43F
 10
337.00575
 20
-23.983583
 30
0.0
 11
335.00575
 21
-21.983583
 31
0.0
  0
LINE
  8
1
  6
CONTINUOUS
 62
     3
  5
440
 10
327.496167
 20
-14.474
 30
0.0
 11
325.496167
 21
-12.474
 31
0.0
  0
LINE
  8
1
  6
CONTINUOUS
 62
     3
  5
441
 10
339.83425
 20
-23.983583
 30
0.0
 11
337.83425
 21
-21.983583
 31
0.0
  0
LINE
  8
1
  6
CONTINUOUS
 62
     3
  5
442
 10
327.496167
 20
-11.6455
 30
0.0
 11
325.496167
 21
-9.6455
 31
0.0
  0
LINE
  8
1
  6
CONTINUOUS
 62
     3
  5
443
 10
342.662667
 20
-23.983583
 30
0.0
 11
340.662667
 21
-21.983583
 31
0.0
  0
LINE
  8
1
  6
CONTINUOUS
 62
     3
  5
444
 10
327.496167
 20
-8.817083
 30
0.0
 11
325.496167
 21
-6.817083
 31
0.0
  0
LINE
  8
1
  6
CONTINUOUS
 62
     3
  5
445
 10
345.491083
 20
-23.983583
 30
0.0
 11
343.491083
 21
-21.983583
 31
0.0
  0
LINE
  8
1
  6
CONTINUOUS
 62
     3
  5
446
 10
327.496167
 20
-5.988667
 30
0.0
 11
325.496167
 21
-3.988667
 31
0.0
  0
LINE
  8
1
  6
CONTINUOUS
 62
     3
  5
447
 10
348.3195
 20
-23.983583
 30
0.0
 11
346.3195
 21
-21.983583
 31
0.0
  0
LINE
  8
1
  6
CONTINUOUS
 62
     3
  5
448
 10
327.496167
 20
-3.16025
 30
0.0
 11
325.496167
 21
-1.16025
 31
0.0
  0
LINE
  8
1
  6
CONTINUOUS
 62
     3
  5
449
 10
350.437417
 20
-23.273083
 30
0.0
 11
348.496167
 21
-21.331833
 31
0.0
  0
LINE
  8
1
  6
CONTINUOUS
 62
     3
  5
44A
 10
328.12825
 20
-0.963917
 30
0.0
 11
326.186083
 21
0.97825
 31
0.0
  0
LINE
  8
1
  6
CONTINUOUS
 62
     3
  5
44B
 10
350.496167
 20
-20.503417
 30
0.0
 11
348.496167
 21
-18.503417
 31
0.0
  0
LINE
  8
1
  6
CONTINUOUS
 62
     3
  5
44C
 10
330.956667
 20
-0.963917
 30
0.0
 11
328.956667
 21
1.036083
 31
0.0
  0
LINE
  8
1
  6
CONTINUOUS
 62
     3
  5
44D
 10
350.496167
 20
-17.675
 30
0.0
 11
348.496167
 21
-15.675
 31
0.0
  0
LINE
  8
1
  6
CONTINUOUS
 62
     3
  5
44E
 10
333.785083
 20
-0.963917
 30
0.0
 11
331.785083
 21
1.036083
 31
0.0
  0
LINE
  8
1
  6
CONTINUOUS
 62
     3
  5
44F
 10
350.496167
 20
-14.846583
 30
0.0
 11
348.496167
 21
-12.846583
 31
0.0
  0
LINE
  8
1
  6
CONTINUOUS
 62
     3
  5
450
 10
336.6135
 20
-0.963917
 30
0.0
 11
334.6135
 21
1.036083
 31
0.0
  0
LINE
  8
1
  6
CONTINUOUS
 62
     3
  5
451
 10
350.496167
 20
-12.018083
 30
0.0
 11
348.496167
 21
-10.018083
 31
0.0
  0
LINE
  8
1
  6
CONTINUOUS
 62
     3
  5
452
 10
339.442
 20
-0.963917
 30
0.0
 11
337.442
 21
1.036083
 31
0.0
  0
LINE
  8
1
  6
CONTINUOUS
 62
     3
  5
453
 10
350.496167
 20
-9.189667
 30
0.0
 11
348.496167
 21
-7.189667
 31
0.0
  0
LINE
  8
1
  6
CONTINUOUS
 62
     3
  5
454
 10
342.270417
 20
-0.963917
 30
0.0
 11
340.270417
 21
1.036083
 31
0.0
  0
LINE
  8
1
  6
CONTINUOUS
 62
     3
  5
455
 10
350.496167
 20
-6.36125
 30
0.0
 11
348.496167
 21
-4.36125
 31
0.0
  0
LINE
  8
1
  6
CONTINUOUS
 62
     3
  5
456
 10
345.098833
 20
-0.963917
 30
0.0
 11
343.098833
 21
1.036083
 31
0.0
  0
LINE
  8
1
  6
CONTINUOUS
 62
     3
  5
457
 10
350.496167
 20
-3.532833
 30
0.0
 11
348.496167
 21
-1.532833
 31
0.0
  0
LINE
  8
1
  6
CONTINUOUS
 62
     3
  5
458
 10
347.92725
 20
-0.963917
 30
0.0
 11
345.92725
 21
1.036083
 31
0.0
  0
LINE
  8
1
  6
CONTINUOUS
 62
     3
  5
459
 10
350.496167
 20
-0.704417
 30
0.0
 11
348.755667
 21
1.036083
 31
0.0
  0
LINE
  8
1
  6
CONTINUOUS
 62
     3
  5
45A
 10
350.496167
 20
-4.088917
 30
0.0
 11
350.496167
 21
-18.858583
 31
0.0
  0
LINE
  8
1
  6
CONTINUOUS
 62
     3
  5
45B
 10
350.496167
 20
-21.483583
 30
0.0
 11
350.496167
 21
-22.983583
 31
0.0
  0
ARC
  8
1
  6
CONTINUOUS
 62
     3
  5
45C
 10
349.496167
 20
-22.983583
 30
0.0
 40
1.0
 50
270.0
 51
0.0
210
0.0
220
0.0
230
1.0
  0
LINE
  8
1
  6
CONTINUOUS
 62
     3
  5
45D
 10
349.496167
 20
-23.983583
 30
0.0
 11
326.496167
 21
-23.983583
 31
0.0
  0
ARC
  8
1
  6
CONTINUOUS
 62
     3
  5
45E
 10
326.496167
 20
-22.983583
 30
0.0
 40
1.0
 50
180.0
 51
270.0
210
0.0
220
0.0
230
1.0
  0
LINE
  8
1
  6
CONTINUOUS
 62
     3
  5
45F
 10
325.496167
 20
-22.983583
 30
0.0
 11
325.496167
 21
0.036083
 31
0.0
  0
ARC
  8
1
  6
CONTINUOUS
 62
     3
  5
460
 10
326.496167
 20
0.036083
 30
0.0
 40
1.0
 50
90.0
 51
180.0
210
0.0
220
0.0
230
1.0
  0
LINE
  8
1
  6
CONTINUOUS
 62
     3
  5
461
 10
326.496167
 20
1.036083
 30
0.0
 11
349.496167
 21
1.036083
 31
0.0
  0
ARC
  8
1
  6
CONTINUOUS
 62
     3
  5
462
 10
349.496167
 20
0.036083
 30
0.0
 40
1.0
 50
0.0
 51
90.0
210
0.0
220
0.0
230
1.0
  0
LINE
  8
1
  6
CONTINUOUS
 62
     3
  5
463
 10
350.496167
 20
0.036083
 30
0.0
 11
350.496167
 21
-1.463917
 31
0.0
  0
LINE
  8
1
  6
CONTINUOUS
 62
     3
  5
464
 10
377.439417
 20
6.477583
 30
0.0
 11
377.439417
 21
-29.425083
 31
0.0
  0
POLYLINE
  8
1
  6
CONTINUOUS
 62
     3
  5
465
 66
     1
 10
0.0
 20
0.0
 30
0.0
  0
VERTEX
  8
1
  6
CONTINUOUS
 62
     3
  5
466
 10
372.439417
 20
3.77625
 30
0.0
  0
VERTEX
  8
1
  6
CONTINUOUS
 62
     3
  5
467
 10
350.496167
 20
-1.463917
 30
0.0
  0
VERTEX
  8
1
  6
CONTINUOUS
 62
     3
  5
468
 10
350.496167
 20
-4.088917
 30
0.0
  0
VERTEX
  8
1
  6
CONTINUOUS
 62
     3
  5
469
 10
350.515417
 20
-4.08925
 30
0.0
 42
-0.426973
  0
VERTEX
  8
1
  6
CONTINUOUS
 62
     3
  5
46A
 10
351.496167
 20
-5.171667
 30
0.0
  0
VERTEX
  8
1
  6
CONTINUOUS
 62
     3
  5
46B
 10
351.496167
 20
-5.171667
 30
0.0
  0
VERTEX
  8
1
  6
CONTINUOUS
 62
     3
  5
46C
 10
351.496167
 20
-17.775833
 30
0.0
  0
VERTEX
  8
1
  6
CONTINUOUS
 62
     3
  5
46D
 10
351.496167
 20
-17.775833
 30
0.0
 42
-0.426973
  0
VERTEX
  8
1
  6
CONTINUOUS
 62
     3
  5
46E
 10
350.515417
 20
-18.85825
 30
0.0
  0
VERTEX
  8
1
  6
CONTINUOUS
 62
     3
  5
46F
 10
350.496167
 20
-18.858583
 30
0.0
  0
VERTEX
  8
1
  6
CONTINUOUS
 62
     3
  5
470
 10
350.496167
 20
-21.483583
 30
0.0
  0
VERTEX
  8
1
  6
CONTINUOUS
 62
     3
  5
471
 10
372.439417
 20
-26.72375
 30
0.0
  0
VERTEX
  8
1
  6
CONTINUOUS
 62
     3
  5
472
 10
372.439417
 20
-26.72375
 30
0.0
 42
-0.475725
  0
VERTEX
  8
1
  6
CONTINUOUS
 62
     3
  5
473
 10
373.439417
 20
-33.72375
 30
0.0
  0
VERTEX
  8
1
  6
CONTINUOUS
 62
     3
  5
474
 10
373.439417
 20
-33.72375
 30
0.0
  0
VERTEX
  8
1
  6
CONTINUOUS
 62
     3
  5
475
 10
373.439417
 20
-37.72375
 30
0.0
  0
VERTEX
  8
1
  6
CONTINUOUS
 62
     3
  5
476
 10
377.439417
 20
-37.72375
 30
0.0
  0
VERTEX
  8
1
  6
CONTINUOUS
 62
     3
  5
477
 10
377.439417
 20
-29.425083
 30
0.0
  0
VERTEX
  8
1
  6
CONTINUOUS
 62
     3
  5
478
 10
377.439417
 20
-29.425085
 30
0.0
 42
0.288337
  0
VERTEX
  8
1
  6
CONTINUOUS
 62
     3
  5
479
 10
373.339134
 20
-24.882349
 30
0.0
  0
VERTEX
  8
1
  6
CONTINUOUS
 62
     3
  5
47A
 10
373.339167
 20
-24.882333
 30
0.0
  0
VERTEX
  8
1
  6
CONTINUOUS
 62
     3
  5
47B
 10
355.799333
 20
-20.69375
 30
0.0
  0
VERTEX
  8
1
  6
CONTINUOUS
 62
     3
  5
47C
 10
355.79936
 20
-20.69375
 30
0.0
 42
-0.347109
  0
VERTEX
  8
1
  6
CONTINUOUS
 62
     3
  5
47D
 10
353.496167
 20
-17.775796
 30
0.0
  0
VERTEX
  8
1
  6
CONTINUOUS
 62
     3
  5
47E
 10
353.496167
 20
-17.775833
 30
0.0
  0
VERTEX
  8
1
  6
CONTINUOUS
 62
     3
  5
47F
 10
353.496167
 20
-5.171667
 30
0.0
  0
VERTEX
  8
1
  6
CONTINUOUS
 62
     3
  5
480
 10
353.496167
 20
-5.171641
 30
0.0
 42
-0.34711
  0
VERTEX
  8
1
  6
CONTINUOUS
 62
     3
  5
481
 10
355.79937
 20
-2.253684
 30
0.0
  0
VERTEX
  8
1
  6
CONTINUOUS
 62
     3
  5
482
 10
355.799333
 20
-2.253667
 30
0.0
  0
VERTEX
  8
1
  6
CONTINUOUS
 62
     3
  5
483
 10
373.339083
 20
1.934833
 30
0.0
  0
VERTEX
  8
1
  6
CONTINUOUS
 62
     3
  5
484
 10
373.339085
 20
1.934835
 30
0.0
 42
0.288339
  0
VERTEX
  8
1
  6
CONTINUOUS
 62
     3
  5
485
 10
377.439417
 20
6.477585
 30
0.0
  0
VERTEX
  8
1
  6
CONTINUOUS
 62
     3
  5
486
 10
377.439417
 20
6.477583
 30
0.0
  0
VERTEX
  8
1
  6
CONTINUOUS
 62
     3
  5
487
 10
377.439417
 20
14.77625
 30
0.0
  0
VERTEX
  8
1
  6
CONTINUOUS
 62
     3
  5
488
 10
373.439417
 20
14.77625
 30
0.0
  0
VERTEX
  8
1
  6
CONTINUOUS
 62
     3
  5
489
 10
373.439417
 20
10.77625
 30
0.0
  0
VERTEX
  8
1
  6
CONTINUOUS
 62
     3
  5
48A
 10
373.439417
 20
10.77625
 30
0.0
 42
-0.475725
  0
VERTEX
  8
1
  6
CONTINUOUS
 62
     3
  5
48B
 10
372.439417
 20
3.77625
 30
0.0
  0
SEQEND
  8
1
  6
CONTINUOUS
 62
     3
  5
48C
  0
LINE
  8
1
  6
CONTINUOUS
 62
     3
  5
48D
 10
350.496167
 20
-1.924917
 30
0.0
 11
351.101833
 21
-1.31925
 31
0.0
  0
LINE
  8
1
  6
CONTINUOUS
 62
     3
  5
48E
 10
351.001167
 20
-4.248333
 30
0.0
 11
354.817583
 21
-0.431917
 31
0.0
  0
LINE
  8
1
  6
CONTINUOUS
 62
     3
  5
48F
 10
351.496167
 20
-6.581833
 30
0.0
 11
353.573583
 21
-4.504417
 31
0.0
  0
LINE
  8
1
  6
CONTINUOUS
 62
     3
  5
490
 10
355.832167
 20
-2.245833
 30
0.0
 11
358.533417
 21
0.455417
 31
0.0
  0
LINE
  8
1
  6
CONTINUOUS
 62
     3
  5
491
 10
351.496167
 20
-9.41025
 30
0.0
 11
353.496167
 21
-7.41025
 31
0.0
  0
LINE
  8
1
  6
CONTINUOUS
 62
     3
  5
492
 10
359.547917
 20
-1.3585
 30
0.0
 11
362.249167
 21
1.34275
 31
0.0
  0
LINE
  8
1
  6
CONTINUOUS
 62
     3
  5
493
 10
373.439417
 20
12.533
 30
0.0
 11
375.682667
 21
14.77625
 31
0.0
  0
LINE
  8
1
  6
CONTINUOUS
 62
     3
  5
494
 10
351.496167
 20
-12.238667
 30
0.0
 11
353.496167
 21
-10.238667
 31
0.0
  0
LINE
  8
1
  6
CONTINUOUS
 62
     3
  5
495
 10
363.263667
 20
-0.471167
 30
0.0
 11
365.964917
 21
2.230083
 31
0.0
  0
LINE
  8
1
  6
CONTINUOUS
 62
     3
  5
496
 10
373.903583
 20
10.16875
 30
0.0
 11
377.439417
 21
13.704583
 31
0.0
  0
LINE
  8
1
  6
CONTINUOUS
 62
     3
  5
497
 10
351.496167
 20
-15.067083
 30
0.0
 11
353.496167
 21
-13.067083
 31
0.0
  0
LINE
  8
1
  6
CONTINUOUS
 62
     3
  5
498
 10
366.979417
 20
0.416167
 30
0.0
 11
369.68075
 21
3.117417
 31
0.0
  0
LINE
  8
1
  6
CONTINUOUS
 62
     3
  5
499
 10
374.615333
 20
8.052083
 30
0.0
 11
377.439417
 21
10.876167
 31
0.0
  0
LINE
  8
1
  6
CONTINUOUS
 62
     3
  5
49A
 10
350.496167
 20
-18.8955
 30
0.0
 11
350.534167
 21
-18.857583
 31
0.0
  0
LINE
  8
1
  6
CONTINUOUS
 62
     3
  5
49B
 10
351.478417
 20
-17.91325
 30
0.0
 11
353.496167
 21
-15.8955
 31
0.0
  0
LINE
  8
1
  6
CONTINUOUS
 62
     3
  5
49C
 10
370.695167
 20
1.3035
 30
0.0
 11
377.439417
 21
8.04775
 31
0.0
  0
LINE
  8
1
  6
CONTINUOUS
 62
     3
  5
49D
 10
350.690167
 20
-21.529917
 30
0.0
 11
353.62925
 21
-18.590917
 31
0.0
  0
LINE
  8
1
  6
CONTINUOUS
 62
     3
  5
49E
 10
374.842917
 20
2.62275
 30
0.0
 11
376.611417
 21
4.391333
 31
0.0
  0
LINE
  8
1
  6
CONTINUOUS
 62
     3
  5
49F
 10
352.973417
 20
-22.075167
 30
0.0
 11
354.813
 21
-20.235583
 31
0.0
  0
LINE
  8
1
  6
CONTINUOUS
 62
     3
  5
4A0
 10
355.256583
 20
-22.620417
 30
0.0
 11
356.916417
 21
-20.9605
 31
0.0
  0
LINE
  8
1
  6
CONTINUOUS
 62
     3
  5
4A1
 10
357.53975
 20
-23.165667
 30
0.0
 11
359.199667
 21
-21.50575
 31
0.0
  0
LINE
  8
1
  6
CONTINUOUS
 62
     3
  5
4A2
 10
359.822917
 20
-23.710833
 30
0.0
 11
361.482833
 21
-22.051
 31
0.0
  0
LINE
  8
1
  6
CONTINUOUS
 62
     3
  5
4A3
 10
362.106167
 20
-24.256083
 30
0.0
 11
363.766
 21
-22.59625
 31
0.0
  0
LINE
  8
1
  6
CONTINUOUS
 62
     3
  5
4A4
 10
364.389333
 20
-24.801333
 30
0.0
 11
366.04925
 21
-23.1415
 31
0.0
  0
LINE
  8
1
  6
CONTINUOUS
 62
     3
  5
4A5
 10
366.6725
 20
-25.346583
 30
0.0
 11
368.332417
 21
-23.686667
 31
0.0
  0
LINE
  8
1
  6
CONTINUOUS
 62
     3
  5
4A6
 10
368.95575
 20
-25.891833
 30
0.0
 11
370.615583
 21
-24.231917
 31
0.0
  0
LINE
  8
1
  6
CONTINUOUS
 62
     3
  5
4A7
 10
371.238917
 20
-26.437083
 30
0.0
 11
372.89875
 21
-24.777167
 31
0.0
  0
LINE
  8
1
  6
CONTINUOUS
 62
     3
  5
4A8
 10
373.197917
 20
-27.306417
 30
0.0
 11
374.90575
 21
-25.598583
 31
0.0
  0
LINE
  8
1
  6
CONTINUOUS
 62
     3
  5
4A9
 10
374.328833
 20
-29.004
 30
0.0
 11
376.363917
 21
-26.968833
 31
0.0
  0
LINE
  8
1
  6
CONTINUOUS
 62
     3
  5
4AA
 10
374.519083
 20
-31.642167
 30
0.0
 11
377.293417
 21
-28.867833
 31
0.0
  0
LINE
  8
1
  6
CONTINUOUS
 62
     3
  5
4AB
 10
373.439417
 20
-35.55025
 30
0.0
 11
377.439417
 21
-31.55025
 31
0.0
  0
LINE
  8
1
  6
CONTINUOUS
 62
     3
  5
4AC
 10
374.094333
 20
-37.72375
 30
0.0
 11
377.439417
 21
-34.378667
 31
0.0
  0
LINE
  8
1
  6
CONTINUOUS
 62
     3
  5
4AD
 10
376.92275
 20
-37.72375
 30
0.0
 11
377.439417
 21
-37.207083
 31
0.0
  0
LINE
  8
1
  6
CONTINUOUS
 62
     3
  5
4AE
 10
315.18975
 20
-143.7465
 30
0.0
 11
315.18975
 21
-196.2465
 31
0.0
  0
LINE
  8
1
  6
CONTINUOUS
 62
     3
  5
4AF
 10
315.18975
 20
-143.7465
 30
0.0
 11
319.18975
 21
-143.7465
 31
0.0
  0
LINE
  8
1
  6
CONTINUOUS
 62
     3
  5
4B0
 10
319.18975
 20
-143.7465
 30
0.0
 11
319.18975
 21
-147.7465
 31
0.0
  0
LINE
  8
1
  6
CONTINUOUS
 62
     3
  5
4B1
 10
314.18975
 20
-146.7465
 30
0.0
 11
315.18975
 21
-146.7465
 31
0.0
  0
ARC
  8
1
  6
CONTINUOUS
 62
     3
  5
4B2
 10
322.53583
 20
-150.839917
 30
0.0
 40
4.556916
 50
137.246928
 51
239.013278
210
0.0
220
0.0
230
1.0
  0
ARC
  8
1
  6
CONTINUOUS
 62
     3
  5
4B3
 10
320.851173
 20
-151.056983
 30
0.0
 40
5.747018
 50
192.249606
 51
258.917819
210
0.0
220
0.0
230
1.0
  0
LINE
  8
1
  6
CONTINUOUS
 62
     3
  5
4B4
 10
315.18975
 20
-196.2465
 30
0.0
 11
319.18975
 21
-196.2465
 31
0.0
  0
LINE
  8
1
  6
CONTINUOUS
 62
     3
  5
4B5
 10
319.18975
 20
-196.2465
 30
0.0
 11
319.18975
 21
-192.2465
 31
0.0
  0
ARC
  8
1
  6
CONTINUOUS
 62
     3
  5
4B6
 10
322.53583
 20
-189.153083
 30
0.0
 40
4.556916
 50
120.986722
 51
222.753072
210
0.0
220
0.0
230
1.0
  0
ARC
  8
1
  6
CONTINUOUS
 62
     3
  5
4B7
 10
320.851173
 20
-188.936017
 30
0.0
 40
5.747018
 50
101.082181
 51
167.750394
210
0.0
220
0.0
230
1.0
  0
ARC
  8
1
  6
CONTINUOUS
 62
     3
  5
4B8
 10
338.7465
 20
-164.091426
 30
0.0
 40
3.0
 50
0.0
 51
77.195517
210
0.0
220
0.0
230
1.0
  0
ARC
  8
1
  6
CONTINUOUS
 62
     3
  5
4B9
 10
338.7465
 20
-175.901567
 30
0.0
 40
3.0
 50
282.804336
 51
0.0
210
0.0
220
0.0
230
1.0
  0
LINE
  8
1
  6
CONTINUOUS
 62
     3
  5
4BA
 10
319.7465
 20
-156.696833
 30
0.0
 11
323.221917
 21
-157.486667
 31
0.0
  0
LINE
  8
1
  6
CONTINUOUS
 62
     3
  5
4BB
 10
332.021917
 20
-159.486667
 30
0.0
 11
339.411333
 21
-161.166
 31
0.0
  0
LINE
  8
1
  6
CONTINUOUS
 62
     3
  5
4BC
 10
320.18975
 20
-154.7465
 30
0.0
 11
332.24675
 21
-157.486667
 31
0.0
  0
LINE
  8
1
  6
CONTINUOUS
 62
     3
  5
4BD
 10
341.0465
 20
-159.486667
 30
0.0
 11
343.2465
 21
-159.986667
 31
0.0
  0
LINE
  8
1
  6
CONTINUOUS
 62
     3
  5
4BE
 10
319.7465
 20
-183.296167
 30
0.0
 11
323.221917
 21
-182.506333
 31
0.0
  0
LINE
  8
1
  6
CONTINUOUS
 62
     3
  5
4BF
 10
332.022167
 20
-180.506333
 30
0.0
 11
339.411333
 21
-178.827
 31
0.0
  0
LINE
  8
1
  6
CONTINUOUS
 62
     3
  5
4C0
 10
320.18975
 20
-185.2465
 30
0.0
 11
332.24625
 21
-182.506333
 31
0.0
  0
LINE
  8
1
  6
CONTINUOUS
 62
     3
  5
4C1
 10
341.0465
 20
-180.506333
 30
0.0
 11
343.2465
 21
-180.006333
 31
0.0
  0
LINE
  8
1
  6
CONTINUOUS
 62
     3
  5
4C2
 10
314.18975
 20
-193.2465
 30
0.0
 11
315.18975
 21
-193.2465
 31
0.0
  0
LINE
  8
1
  6
CONTINUOUS
 62
     3
  5
4C3
 10
373.18975
 20
-146.7465
 30
0.0
 11
372.18975
 21
-146.7465
 31
0.0
  0
LINE
  8
1
  6
CONTINUOUS
 62
     3
  5
4C4
 10
373.18975
 20
-193.2465
 30
0.0
 11
372.18975
 21
-193.2465
 31
0.0
  0
LINE
  8
1
  6
HIDDEN
 62
     3
  5
4C5
 10
344.2465
 20
-163.694417
 30
0.0
 11
344.2465
 21
-176.298583
 31
0.0
  0
ARC
  8
1
  6
HIDDEN
 62
     3
  5
4C6
 10
345.255108
 20
-163.622766
 30
0.0
 40
1.01115
 50
91.57875
 51
184.063417
210
0.0
220
0.0
230
1.0
  0
ARC
  8
1
  6
HIDDEN
 62
     3
  5
4C7
 10
345.255108
 20
-176.370234
 30
0.0
 40
1.01115
 50
175.936583
 51
268.42125
210
0.0
220
0.0
230
1.0
  0
LINE
  8
1
  6
HIDDEN
 62
     3
  5
4C8
 10
332.24675
 20
-157.486667
 30
0.0
 11
341.0465
 21
-159.486667
 31
0.0
  0
LINE
  8
1
  6
HIDDEN
 62
     3
  5
4C9
 10
323.221917
 20
-157.486667
 30
0.0
 11
332.021917
 21
-159.486667
 31
0.0
  0
LINE
  8
1
  6
HIDDEN
 62
     3
  5
4CA
 10
332.022167
 20
-180.506333
 30
0.0
 11
323.221917
 21
-182.506333
 31
0.0
  0
LINE
  8
1
  6
HIDDEN
 62
     3
  5
4CB
 10
341.0465
 20
-180.506333
 30
0.0
 11
332.24625
 21
-182.506333
 31
0.0
  0
LINE
  8
1
  6
CONTINUOUS
 62
     3
  5
4CC
 10
322.2465
 20
-167.9965
 30
0.0
 11
343.2465
 21
-167.9965
 31
0.0
  0
LINE
  8
1
  6
CONTINUOUS
 62
     3
  5
4CD
 10
322.2465
 20
-171.9965
 30
0.0
 11
343.2465
 21
-171.9965
 31
0.0
  0
LINE
  8
1
  6
CONTINUOUS
 62
     3
  5
4CE
 10
341.7465
 20
-164.091417
 30
0.0
 11
341.7465
 21
-167.9965
 31
0.0
  0
LINE
  8
1
  6
CONTINUOUS
 62
     3
  5
4CF
 10
341.7465
 20
-171.9965
 30
0.0
 11
341.7465
 21
-175.901583
 31
0.0
  0
LINE
  8
1
  6
HIDDEN
 62
     3
  5
4D0
 10
343.2465
 20
-167.9965
 30
0.0
 11
348.2465
 21
-167.9965
 31
0.0
  0
LINE
  8
1
  6
HIDDEN
 62
     3
  5
4D1
 10
343.2465
 20
-171.9965
 30
0.0
 11
348.2465
 21
-171.9965
 31
0.0
  0
LINE
  8
1
  6
HIDDEN
 62
     3
  5
4D2
 10
322.2465
 20
-167.9965
 30
0.0
 11
320.2465
 21
-167.9965
 31
0.0
  0
LINE
  8
1
  6
HIDDEN
 62
     3
  5
4D3
 10
322.2465
 20
-171.9965
 30
0.0
 11
320.2465
 21
-171.9965
 31
0.0
  0
LINE
  8
1
  6
CONTINUOUS
 62
     7
  5
4D4
 10
299.016917
 20
-169.9965
 30
0.0
 11
311.68975
 21
-169.9965
 31
0.0
  0
LINE
  8
1
  6
CONTINUOUS
 62
     7
  5
4D5
 10
313.68975
 20
-169.9965
 30
0.0
 11
314.68975
 21
-169.9965
 31
0.0
  0
LINE
  8
1
  6
CONTINUOUS
 62
     3
  5
4D6
 10
323.7465
 20
-167.9965
 30
0.0
 11
323.7465
 21
-171.9965
 31
0.0
  0
LINE
  8
1
  6
CONTINUOUS
 62
     3
  5
4D7
 10
322.9965
 20
-168.7465
 30
0.0
 11
322.9965
 21
-171.2465
 31
0.0
  0
LINE
  8
1
  6
CONTINUOUS
 62
     3
  5
4D8
 10
324.4965
 20
-168.7465
 30
0.0
 11
324.4965
 21
-171.2465
 31
0.0
  0
LINE
  8
1
  6
CONTINUOUS
 62
     3
  5
4D9
 10
325.2465
 20
-167.9965
 30
0.0
 11
325.2465
 21
-171.9965
 31
0.0
  0
LINE
  8
1
  6
CONTINUOUS
 62
     3
  5
4DA
 10
325.9965
 20
-168.7465
 30
0.0
 11
325.9965
 21
-171.2465
 31
0.0
  0
LINE
  8
1
  6
CONTINUOUS
 62
     3
  5
4DB
 10
326.7465
 20
-167.9965
 30
0.0
 11
326.7465
 21
-171.9965
 31
0.0
  0
LINE
  8
1
  6
CONTINUOUS
 62
     3
  5
4DC
 10
327.4965
 20
-168.7465
 30
0.0
 11
327.4965
 21
-171.2465
 31
0.0
  0
LINE
  8
1
  6
CONTINUOUS
 62
     3
  5
4DD
 10
328.2465
 20
-167.9965
 30
0.0
 11
328.2465
 21
-171.9965
 31
0.0
  0
LINE
  8
1
  6
CONTINUOUS
 62
     3
  5
4DE
 10
328.9965
 20
-168.7465
 30
0.0
 11
328.9965
 21
-171.2465
 31
0.0
  0
LINE
  8
1
  6
CONTINUOUS
 62
     3
  5
4DF
 10
329.7465
 20
-167.9965
 30
0.0
 11
329.7465
 21
-171.9965
 31
0.0
  0
LINE
  8
1
  6
CONTINUOUS
 62
     7
  5
4E0
 10
316.983833
 20
-169.9965
 30
0.0
 11
331.7465
 21
-169.9965
 31
0.0
  0
LINE
  8
1
  6
CONTINUOUS
 62
     7
  5
4E1
 10
332.7465
 20
-169.9965
 30
0.0
 11
335.2465
 21
-169.9965
 31
0.0
  0
LINE
  8
1
  6
CONTINUOUS
 62
     7
  5
4E2
 10
336.2465
 20
-169.9965
 30
0.0
 11
342.2465
 21
-169.9965
 31
0.0
  0
LINE
  8
1
  6
CONTINUOUS
 62
     7
  5
4E3
 10
345.709583
 20
-169.9965
 30
0.0
 11
347.19825
 21
-169.9965
 31
0.0
  0
LINE
  8
1
  6
CONTINUOUS
 62
     3
  5
4E4
 10
311.18975
 20
-126.7465
 30
0.0
 11
312.18975
 21
-126.7465
 31
0.0
  0
LINE
  8
1
  6
CONTINUOUS
 62
     3
  5
4E5
 10
314.18975
 20
-126.7465
 30
0.0
 11
315.18975
 21
-126.7465
 31
0.0
  0
LINE
  8
1
  6
CONTINUOUS
 62
     3
  5
4E6
 10
311.18975
 20
-213.2465
 30
0.0
 11
312.18975
 21
-213.2465
 31
0.0
  0
LINE
  8
1
  6
CONTINUOUS
 62
     3
  5
4E7
 10
314.18975
 20
-213.2465
 30
0.0
 11
315.18975
 21
-213.2465
 31
0.0
  0
POLYLINE
  8
1
  6
CONTINUOUS
 62
     3
  5
4E8
 66
     1
 10
0.0
 20
0.0
 30
0.0
 70
     1
  0
VERTEX
  8
1
  6
CONTINUOUS
 62
     3
  5
4E9
 10
312.18975
 20
-213.2465
 30
0.0
  0
VERTEX
  8
1
  6
CONTINUOUS
 62
     3
  5
4EA
 10
312.18975
 20
-126.7465
 30
0.0
  0
VERTEX
  8
1
  6
CONTINUOUS
 62
     3
  5
4EB
 10
312.68975
 20
-126.7465
 30
0.0
  0
VERTEX
  8
1
  6
CONTINUOUS
 62
     3
  5
4EC
 10
313.18975
 20
-125.7465
 30
0.0
  0
VERTEX
  8
1
  6
CONTINUOUS
 62
     3
  5
4ED
 10
313.18975
 20
-127.7465
 30
0.0
  0
VERTEX
  8
1
  6
CONTINUOUS
 62
     3
  5
4EE
 10
313.68975
 20
-126.7465
 30
0.0
  0
VERTEX
  8
1
  6
CONTINUOUS
 62
     3
  5
4EF
 10
314.18975
 20
-126.7465
 30
0.0
  0
VERTEX
  8
1
  6
CONTINUOUS
 62
     3
  5
4F0
 10
314.18975
 20
-213.2465
 30
0.0
  0
VERTEX
  8
1
  6
CONTINUOUS
 62
     3
  5
4F1
 10
313.68975
 20
-213.2465
 30
0.0
  0
VERTEX
  8
1
  6
CONTINUOUS
 62
     3
  5
4F2
 10
313.18975
 20
-212.2465
 30
0.0
  0
VERTEX
  8
1
  6
CONTINUOUS
 62
     3
  5
4F3
 10
313.18975
 20
-214.2465
 30
0.0
  0
VERTEX
  8
1
  6
CONTINUOUS
 62
     3
  5
4F4
 10
312.68975
 20
-213.2465
 30
0.0
  0
VERTEX
  8
1
  6
CONTINUOUS
 62
     3
  5
4F5
 10
312.18975
 20
-213.2465
 30
0.0
  0
SEQEND
  8
1
  6
CONTINUOUS
 62
     3
  5
4F6
  0
LINE
  8
1
  6
CONTINUOUS
 62
     3
  5
4F7
 10
312.18975
 20
-129.378167
 30
0.0
 11
314.18975
 21
-127.378167
 31
0.0
  0
LINE
  8
1
  6
CONTINUOUS
 62
     3
  5
4F8
 10
312.18975
 20
-132.206583
 30
0.0
 11
314.18975
 21
-130.206583
 31
0.0
  0
LINE
  8
1
  6
CONTINUOUS
 62
     3
  5
4F9
 10
312.18975
 20
-135.035083
 30
0.0
 11
314.18975
 21
-133.035083
 31
0.0
  0
LINE
  8
1
  6
CONTINUOUS
 62
     3
  5
4FA
 10
312.18975
 20
-137.8635
 30
0.0
 11
314.18975
 21
-135.8635
 31
0.0
  0
LINE
  8
1
  6
CONTINUOUS
 62
     3
  5
4FB
 10
312.18975
 20
-140.691917
 30
0.0
 11
314.18975
 21
-138.691917
 31
0.0
  0
LINE
  8
1
  6
CONTINUOUS
 62
     3
  5
4FC
 10
312.18975
 20
-143.520333
 30
0.0
 11
314.18975
 21
-141.520333
 31
0.0
  0
LINE
  8
1
  6
CONTINUOUS
 62
     3
  5
4FD
 10
312.18975
 20
-146.34875
 30
0.0
 11
314.18975
 21
-144.34875
 31
0.0
  0
LINE
  8
1
  6
CONTINUOUS
 62
     3
  5
4FE
 10
312.18975
 20
-149.177167
 30
0.0
 11
314.18975
 21
-147.177167
 31
0.0
  0
LINE
  8
1
  6
CONTINUOUS
 62
     3
  5
4FF
 10
312.18975
 20
-152.005583
 30
0.0
 11
314.18975
 21
-150.005583
 31
0.0
  0
LINE
  8
1
  6
CONTINUOUS
 62
     3
  5
500
 10
312.18975
 20
-154.834
 30
0.0
 11
314.18975
 21
-152.834
 31
0.0
  0
LINE
  8
1
  6
CONTINUOUS
 62
     3
  5
501
 10
312.18975
 20
-157.6625
 30
0.0
 11
314.18975
 21
-155.6625
 31
0.0
  0
LINE
  8
1
  6
CONTINUOUS
 62
     3
  5
502
 10
312.18975
 20
-160.490917
 30
0.0
 11
314.18975
 21
-158.490917
 31
0.0
  0
LINE
  8
1
  6
CONTINUOUS
 62
     3
  5
503
 10
312.18975
 20
-163.319333
 30
0.0
 11
314.18975
 21
-161.319333
 31
0.0
  0
LINE
  8
1
  6
CONTINUOUS
 62
     3
  5
504
 10
312.18975
 20
-166.14775
 30
0.0
 11
314.18975
 21
-164.14775
 31
0.0
  0
LINE
  8
1
  6
CONTINUOUS
 62
     3
  5
505
 10
312.18975
 20
-168.976167
 30
0.0
 11
314.18975
 21
-166.976167
 31
0.0
  0
LINE
  8
1
  6
CONTINUOUS
 62
     3
  5
506
 10
312.18975
 20
-171.804583
 30
0.0
 11
314.18975
 21
-169.804583
 31
0.0
  0
LINE
  8
1
  6
CONTINUOUS
 62
     3
  5
507
 10
312.18975
 20
-174.633
 30
0.0
 11
314.18975
 21
-172.633
 31
0.0
  0
LINE
  8
1
  6
CONTINUOUS
 62
     3
  5
508
 10
312.18975
 20
-177.461417
 30
0.0
 11
314.18975
 21
-175.461417
 31
0.0
  0
LINE
  8
1
  6
CONTINUOUS
 62
     3
  5
509
 10
312.18975
 20
-180.289917
 30
0.0
 11
314.18975
 21
-178.289917
 31
0.0
  0
LINE
  8
1
  6
CONTINUOUS
 62
     3
  5
50A
 10
312.18975
 20
-183.118333
 30
0.0
 11
314.18975
 21
-181.118333
 31
0.0
  0
LINE
  8
1
  6
CONTINUOUS
 62
     3
  5
50B
 10
312.18975
 20
-185.94675
 30
0.0
 11
314.18975
 21
-183.94675
 31
0.0
  0
LINE
  8
1
  6
CONTINUOUS
 62
     3
  5
50C
 10
312.18975
 20
-188.775167
 30
0.0
 11
314.18975
 21
-186.775167
 31
0.0
  0
LINE
  8
1
  6
CONTINUOUS
 62
     3
  5
50D
 10
312.18975
 20
-191.603583
 30
0.0
 11
314.18975
 21
-189.603583
 31
0.0
  0
LINE
  8
1
  6
CONTINUOUS
 62
     3
  5
50E
 10
312.18975
 20
-194.432
 30
0.0
 11
314.18975
 21
-192.432
 31
0.0
  0
LINE
  8
1
  6
CONTINUOUS
 62
     3
  5
50F
 10
312.18975
 20
-197.260417
 30
0.0
 11
314.18975
 21
-195.260417
 31
0.0
  0
LINE
  8
1
  6
CONTINUOUS
 62
     3
  5
510
 10
312.18975
 20
-200.088917
 30
0.0
 11
314.18975
 21
-198.088917
 31
0.0
  0
LINE
  8
1
  6
CONTINUOUS
 62
     3
  5
511
 10
312.18975
 20
-202.917333
 30
0.0
 11
314.18975
 21
-200.917333
 31
0.0
  0
LINE
  8
1
  6
CONTINUOUS
 62
     3
  5
512
 10
312.18975
 20
-205.74575
 30
0.0
 11
314.18975
 21
-203.74575
 31
0.0
  0
LINE
  8
1
  6
CONTINUOUS
 62
     3
  5
513
 10
312.18975
 20
-208.574167
 30
0.0
 11
314.18975
 21
-206.574167
 31
0.0
  0
LINE
  8
1
  6
CONTINUOUS
 62
     3
  5
514
 10
312.18975
 20
-211.402583
 30
0.0
 11
314.18975
 21
-209.402583
 31
0.0
  0
LINE
  8
1
  6
CONTINUOUS
 62
     3
  5
515
 10
312.85125
 20
-213.5695
 30
0.0
 11
313.18975
 21
-213.231
 31
0.0
  0
LINE
  8
1
  6
CONTINUOUS
 62
     3
  5
516
 10
313.517917
 20
-212.902833
 30
0.0
 11
314.18975
 21
-212.231
 31
0.0
  0
LINE
  8
1
  6
CONTINUOUS
 62
     3
  5
517
 10
313.18975
 20
-212.783667
 30
0.0
 11
312.18975
 21
-211.783667
 31
0.0
  0
LINE
  8
1
  6
CONTINUOUS
 62
     3
  5
518
 10
314.18975
 20
-210.95525
 30
0.0
 11
312.18975
 21
-208.95525
 31
0.0
  0
LINE
  8
1
  6
CONTINUOUS
 62
     3
  5
519
 10
314.18975
 20
-208.126833
 30
0.0
 11
312.18975
 21
-206.126833
 31
0.0
  0
LINE
  8
1
  6
CONTINUOUS
 62
     3
  5
51A
 10
314.18975
 20
-205.298417
 30
0.0
 11
312.18975
 21
-203.298417
 31
0.0
  0
LINE
  8
1
  6
CONTINUOUS
 62
     3
  5
51B
 10
314.18975
 20
-202.47
 30
0.0
 11
312.18975
 21
-200.47
 31
0.0
  0
LINE
  8
1
  6
CONTINUOUS
 62
     3
  5
51C
 10
314.18975
 20
-199.641583
 30
0.0
 11
312.18975
 21
-197.641583
 31
0.0
  0
LINE
  8
1
  6
CONTINUOUS
 62
     3
  5
51D
 10
314.18975
 20
-196.813083
 30
0.0
 11
312.18975
 21
-194.813083
 31
0.0
  0
LINE
  8
1
  6
CONTINUOUS
 62
     3
  5
51E
 10
314.18975
 20
-193.984667
 30
0.0
 11
312.18975
 21
-191.984667
 31
0.0
  0
LINE
  8
1
  6
CONTINUOUS
 62
     3
  5
51F
 10
314.18975
 20
-191.15625
 30
0.0
 11
312.18975
 21
-189.15625
 31
0.0
  0
LINE
  8
1
  6
CONTINUOUS
 62
     3
  5
520
 10
314.18975
 20
-188.327833
 30
0.0
 11
312.18975
 21
-186.327833
 31
0.0
  0
LINE
  8
1
  6
CONTINUOUS
 62
     3
  5
521
 10
314.18975
 20
-185.499417
 30
0.0
 11
312.18975
 21
-183.499417
 31
0.0
  0
LINE
  8
1
  6
CONTINUOUS
 62
     3
  5
522
 10
314.18975
 20
-182.671
 30
0.0
 11
312.18975
 21
-180.671
 31
0.0
  0
LINE
  8
1
  6
CONTINUOUS
 62
     3
  5
523
 10
314.18975
 20
-179.842583
 30
0.0
 11
312.18975
 21
-177.842583
 31
0.0
  0
LINE
  8
1
  6
CONTINUOUS
 62
     3
  5
524
 10
314.18975
 20
-177.014167
 30
0.0
 11
312.18975
 21
-175.014167
 31
0.0
  0
LINE
  8
1
  6
CONTINUOUS
 62
     3
  5
525
 10
314.18975
 20
-174.185667
 30
0.0
 11
312.18975
 21
-172.185667
 31
0.0
  0
LINE
  8
1
  6
CONTINUOUS
 62
     3
  5
526
 10
314.18975
 20
-171.35725
 30
0.0
 11
312.18975
 21
-169.35725
 31
0.0
  0
LINE
  8
1
  6
CONTINUOUS
 62
     3
  5
527
 10
314.18975
 20
-168.528833
 30
0.0
 11
312.18975
 21
-166.528833
 31
0.0
  0
LINE
  8
1
  6
CONTINUOUS
 62
     3
  5
528
 10
314.18975
 20
-165.700417
 30
0.0
 11
312.18975
 21
-163.700417
 31
0.0
  0
LINE
  8
1
  6
CONTINUOUS
 62
     3
  5
529
 10
314.18975
 20
-162.872
 30
0.0
 11
312.18975
 21
-160.872
 31
0.0
  0
LINE
  8
1
  6
CONTINUOUS
 62
     3
  5
52A
 10
314.18975
 20
-160.043583
 30
0.0
 11
312.18975
 21
-158.043583
 31
0.0
  0
LINE
  8
1
  6
CONTINUOUS
 62
     3
  5
52B
 10
314.18975
 20
-157.215167
 30
0.0
 11
312.18975
 21
-155.215167
 31
0.0
  0
LINE
  8
1
  6
CONTINUOUS
 62
     3
  5
52C
 10
314.18975
 20
-154.38675
 30
0.0
 11
312.18975
 21
-152.38675
 31
0.0
  0
LINE
  8
1
  6
CONTINUOUS
 62
     3
  5
52D
 10
314.18975
 20
-151.55825
 30
0.0
 11
312.18975
 21
-149.55825
 31
0.0
  0
LINE
  8
1
  6
CONTINUOUS
 62
     3
  5
52E
 10
314.18975
 20
-148.729833
 30
0.0
 11
312.18975
 21
-146.729833
 31
0.0
  0
LINE
  8
1
  6
CONTINUOUS
 62
     3
  5
52F
 10
314.18975
 20
-145.901417
 30
0.0
 11
312.18975
 21
-143.901417
 31
0.0
  0
LINE
  8
1
  6
CONTINUOUS
 62
     3
  5
530
 10
314.18975
 20
-143.073
 30
0.0
 11
312.18975
 21
-141.073
 31
0.0
  0
LINE
  8
1
  6
CONTINUOUS
 62
     3
  5
531
 10
314.18975
 20
-140.244583
 30
0.0
 11
312.18975
 21
-138.244583
 31
0.0
  0
LINE
  8
1
  6
CONTINUOUS
 62
     3
  5
532
 10
314.18975
 20
-137.416167
 30
0.0
 11
312.18975
 21
-135.416167
 31
0.0
  0
LINE
  8
1
  6
CONTINUOUS
 62
     3
  5
533
 10
314.18975
 20
-134.58775
 30
0.0
 11
312.18975
 21
-132.58775
 31
0.0
  0
LINE
  8
1
  6
CONTINUOUS
 62
     3
  5
534
 10
314.18975
 20
-131.759333
 30
0.0
 11
312.18975
 21
-129.759333
 31
0.0
  0
LINE
  8
1
  6
CONTINUOUS
 62
     3
  5
535
 10
314.18975
 20
-128.930833
 30
0.0
 11
312.18975
 21
-126.930833
 31
0.0
  0
LINE
  8
1
  6
CONTINUOUS
 62
     3
  5
536
 10
373.18975
 20
-126.7465
 30
0.0
 11
372.18975
 21
-126.7465
 31
0.0
  0
LINE
  8
1
  6
CONTINUOUS
 62
     3
  5
537
 10
376.18975
 20
-126.7465
 30
0.0
 11
375.18975
 21
-126.7465
 31
0.0
  0
LINE
  8
1
  6
CONTINUOUS
 62
     3
  5
538
 10
373.18975
 20
-213.2465
 30
0.0
 11
372.18975
 21
-213.2465
 31
0.0
  0
POLYLINE
  8
1
  6
CONTINUOUS
 62
     3
  5
539
 66
     1
 10
0.0
 20
0.0
 30
0.0
 70
     1
  0
VERTEX
  8
1
  6
CONTINUOUS
 62
     3
  5
53A
 10
373.18975
 20
-213.2465
 30
0.0
  0
VERTEX
  8
1
  6
CONTINUOUS
 62
     3
  5
53B
 10
373.18975
 20
-126.7465
 30
0.0
  0
VERTEX
  8
1
  6
CONTINUOUS
 62
     3
  5
53C
 10
373.68975
 20
-126.7465
 30
0.0
  0
VERTEX
  8
1
  6
CONTINUOUS
 62
     3
  5
53D
 10
374.18975
 20
-127.7465
 30
0.0
  0
VERTEX
  8
1
  6
CONTINUOUS
 62
     3
  5
53E
 10
374.18975
 20
-125.7465
 30
0.0
  0
VERTEX
  8
1
  6
CONTINUOUS
 62
     3
  5
53F
 10
374.68975
 20
-126.7465
 30
0.0
  0
VERTEX
  8
1
  6
CONTINUOUS
 62
     3
  5
540
 10
375.18975
 20
-126.7465
 30
0.0
  0
VERTEX
  8
1
  6
CONTINUOUS
 62
     3
  5
541
 10
375.18975
 20
-213.2465
 30
0.0
  0
VERTEX
  8
1
  6
CONTINUOUS
 62
     3
  5
542
 10
376.18975
 20
-213.2465
 30
0.0
  0
VERTEX
  8
1
  6
CONTINUOUS
 62
     3
  5
543
 10
373.18975
 20
-213.2465
 30
0.0
  0
SEQEND
  8
1
  6
CONTINUOUS
 62
     3
  5
544
  0
POLYLINE
  8
1
  6
CONTINUOUS
 62
     3
  5
545
 66
     1
 10
0.0
 20
0.0
 30
0.0
 70
     1
  0
VERTEX
  8
1
  6
CONTINUOUS
 62
     3
  5
546
 10
373.18975
 20
-213.2465
 30
0.0
  0
VERTEX
  8
1
  6
CONTINUOUS
 62
     3
  5
547
 10
373.18975
 20
-126.7465
 30
0.0
  0
VERTEX
  8
1
  6
CONTINUOUS
 62
     3
  5
548
 10
373.68975
 20
-126.7465
 30
0.0
  0
VERTEX
  8
1
  6
CONTINUOUS
 62
     3
  5
549
 10
374.18975
 20
-127.7465
 30
0.0
  0
VERTEX
  8
1
  6
CONTINUOUS
 62
     3
  5
54A
 10
374.18975
 20
-125.7465
 30
0.0
  0
VERTEX
  8
1
  6
CONTINUOUS
 62
     3
  5
54B
 10
374.68975
 20
-126.7465
 30
0.0
  0
VERTEX
  8
1
  6
CONTINUOUS
 62
     3
  5
54C
 10
375.18975
 20
-126.7465
 30
0.0
  0
VERTEX
  8
1
  6
CONTINUOUS
 62
     3
  5
54D
 10
375.18975
 20
-213.2465
 30
0.0
  0
VERTEX
  8
1
  6
CONTINUOUS
 62
     3
  5
54E
 10
374.68975
 20
-213.2465
 30
0.0
  0
VERTEX
  8
1
  6
CONTINUOUS
 62
     3
  5
54F
 10
374.18975
 20
-214.2465
 30
0.0
  0
VERTEX
  8
1
  6
CONTINUOUS
 62
     3
  5
550
 10
374.18975
 20
-212.2465
 30
0.0
  0
VERTEX
  8
1
  6
CONTINUOUS
 62
     3
  5
551
 10
373.68975
 20
-213.2465
 30
0.0
  0
VERTEX
  8
1
  6
CONTINUOUS
 62
     3
  5
552
 10
373.18975
 20
-213.2465
 30
0.0
  0
SEQEND
  8
1
  6
CONTINUOUS
 62
     3
  5
553
  0
LINE
  8
1
  6
CONTINUOUS
 62
     3
  5
554
 10
373.18975
 20
-126.916583
 30
0.0
 11
373.359833
 21
-126.7465
 31
0.0
  0
LINE
  8
1
  6
CONTINUOUS
 62
     3
  5
555
 10
374.18975
 20
-125.916583
 30
0.0
 11
374.246417
 21
-125.859917
 31
0.0
  0
LINE
  8
1
  6
CONTINUOUS
 62
     3
  5
556
 10
373.18975
 20
-129.745
 30
0.0
 11
375.18975
 21
-127.745
 31
0.0
  0
LINE
  8
1
  6
CONTINUOUS
 62
     3
  5
557
 10
373.18975
 20
-132.573417
 30
0.0
 11
375.18975
 21
-130.573417
 31
0.0
  0
LINE
  8
1
  6
CONTINUOUS
 62
     3
  5
558
 10
373.18975
 20
-135.401833
 30
0.0
 11
375.18975
 21
-133.401833
 31
0.0
  0
LINE
  8
1
  6
CONTINUOUS
 62
     3
  5
559
 10
373.18975
 20
-138.230333
 30
0.0
 11
375.18975
 21
-136.230333
 31
0.0
  0
LINE
  8
1
  6
CONTINUOUS
 62
     3
  5
55A
 10
373.18975
 20
-141.05875
 30
0.0
 11
375.18975
 21
-139.05875
 31
0.0
  0
LINE
  8
1
  6
CONTINUOUS
 62
     3
  5
55B
 10
373.18975
 20
-143.887167
 30
0.0
 11
375.18975
 21
-141.887167
 31
0.0
  0
LINE
  8
1
  6
CONTINUOUS
 62
     3
  5
55C
 10
373.18975
 20
-146.715583
 30
0.0
 11
375.18975
 21
-144.715583
 31
0.0
  0
LINE
  8
1
  6
CONTINUOUS
 62
     3
  5
55D
 10
373.18975
 20
-149.544
 30
0.0
 11
375.18975
 21
-147.544
 31
0.0
  0
LINE
  8
1
  6
CONTINUOUS
 62
     3
  5
55E
 10
373.18975
 20
-152.372417
 30
0.0
 11
375.18975
 21
-150.372417
 31
0.0
  0
LINE
  8
1
  6
CONTINUOUS
 62
     3
  5
55F
 10
373.18975
 20
-155.200833
 30
0.0
 11
375.18975
 21
-153.200833
 31
0.0
  0
LINE
  8
1
  6
CONTINUOUS
 62
     3
  5
560
 10
373.18975
 20
-158.02925
 30
0.0
 11
375.18975
 21
-156.02925
 31
0.0
  0
LINE
  8
1
  6
CONTINUOUS
 62
     3
  5
561
 10
373.18975
 20
-160.85775
 30
0.0
 11
375.18975
 21
-158.85775
 31
0.0
  0
LINE
  8
1
  6
CONTINUOUS
 62
     3
  5
562
 10
373.18975
 20
-163.686167
 30
0.0
 11
375.18975
 21
-161.686167
 31
0.0
  0
LINE
  8
1
  6
CONTINUOUS
 62
     3
  5
563
 10
373.18975
 20
-166.514583
 30
0.0
 11
375.18975
 21
-164.514583
 31
0.0
  0
LINE
  8
1
  6
CONTINUOUS
 62
     3
  5
564
 10
373.18975
 20
-169.343
 30
0.0
 11
375.18975
 21
-167.343
 31
0.0
  0
LINE
  8
1
  6
CONTINUOUS
 62
     3
  5
565
 10
373.18975
 20
-172.171417
 30
0.0
 11
375.18975
 21
-170.171417
 31
0.0
  0
LINE
  8
1
  6
CONTINUOUS
 62
     3
  5
566
 10
373.18975
 20
-174.999833
 30
0.0
 11
375.18975
 21
-172.999833
 31
0.0
  0
LINE
  8
1
  6
CONTINUOUS
 62
     3
  5
567
 10
373.18975
 20
-177.82825
 30
0.0
 11
375.18975
 21
-175.82825
 31
0.0
  0
LINE
  8
1
  6
CONTINUOUS
 62
     3
  5
568
 10
373.18975
 20
-180.656667
 30
0.0
 11
375.18975
 21
-178.656667
 31
0.0
  0
LINE
  8
1
  6
CONTINUOUS
 62
     3
  5
569
 10
373.18975
 20
-183.485167
 30
0.0
 11
375.18975
 21
-181.485167
 31
0.0
  0
LINE
  8
1
  6
CONTINUOUS
 62
     3
  5
56A
 10
373.18975
 20
-186.313583
 30
0.0
 11
375.18975
 21
-184.313583
 31
0.0
  0
LINE
  8
1
  6
CONTINUOUS
 62
     3
  5
56B
 10
373.18975
 20
-189.142
 30
0.0
 11
375.18975
 21
-187.142
 31
0.0
  0
LINE
  8
1
  6
CONTINUOUS
 62
     3
  5
56C
 10
373.18975
 20
-191.970417
 30
0.0
 11
375.18975
 21
-189.970417
 31
0.0
  0
LINE
  8
1
  6
CONTINUOUS
 62
     3
  5
56D
 10
373.18975
 20
-194.798833
 30
0.0
 11
375.18975
 21
-192.798833
 31
0.0
  0
LINE
  8
1
  6
CONTINUOUS
 62
     3
  5
56E
 10
373.18975
 20
-197.62725
 30
0.0
 11
375.18975
 21
-195.62725
 31
0.0
  0
LINE
  8
1
  6
CONTINUOUS
 62
     3
  5
56F
 10
373.18975
 20
-200.455667
 30
0.0
 11
375.18975
 21
-198.455667
 31
0.0
  0
LINE
  8
1
  6
CONTINUOUS
 62
     3
  5
570
 10
373.18975
 20
-203.284167
 30
0.0
 11
375.18975
 21
-201.284167
 31
0.0
  0
LINE
  8
1
  6
CONTINUOUS
 62
     3
  5
571
 10
373.18975
 20
-206.112583
 30
0.0
 11
375.18975
 21
-204.112583
 31
0.0
  0
LINE
  8
1
  6
CONTINUOUS
 62
     3
  5
572
 10
373.18975
 20
-208.941
 30
0.0
 11
375.18975
 21
-206.941
 31
0.0
  0
LINE
  8
1
  6
CONTINUOUS
 62
     3
  5
573
 10
373.18975
 20
-211.769417
 30
0.0
 11
375.18975
 21
-209.769417
 31
0.0
  0
LINE
  8
1
  6
CONTINUOUS
 62
     3
  5
574
 10
374.541083
 20
-213.2465
 30
0.0
 11
375.18975
 21
-212.597833
 31
0.0
  0
LINE
  8
1
  6
CONTINUOUS
 62
     3
  5
575
 10
373.772833
 20
-213.2465
 30
0.0
 11
373.18975
 21
-212.663417
 31
0.0
  0
LINE
  8
1
  6
CONTINUOUS
 62
     3
  5
576
 10
375.18975
 20
-211.834917
 30
0.0
 11
373.18975
 21
-209.834917
 31
0.0
  0
LINE
  8
1
  6
CONTINUOUS
 62
     3
  5
577
 10
375.18975
 20
-209.0065
 30
0.0
 11
373.18975
 21
-207.0065
 31
0.0
  0
LINE
  8
1
  6
CONTINUOUS
 62
     3
  5
578
 10
375.18975
 20
-206.178083
 30
0.0
 11
373.18975
 21
-204.178083
 31
0.0
  0
LINE
  8
1
  6
CONTINUOUS
 62
     3
  5
579
 10
375.18975
 20
-203.349667
 30
0.0
 11
373.18975
 21
-201.349667
 31
0.0
  0
LINE
  8
1
  6
CONTINUOUS
 62
     3
  5
57A
 10
375.18975
 20
-200.52125
 30
0.0
 11
373.18975
 21
-198.52125
 31
0.0
  0
LINE
  8
1
  6
CONTINUOUS
 62
     3
  5
57B
 10
375.18975
 20
-197.692833
 30
0.0
 11
373.18975
 21
-195.692833
 31
0.0
  0
LINE
  8
1
  6
CONTINUOUS
 62
     3
  5
57C
 10
375.18975
 20
-194.864417
 30
0.0
 11
373.18975
 21
-192.864417
 31
0.0
  0
LINE
  8
1
  6
CONTINUOUS
 62
     3
  5
57D
 10
375.18975
 20
-192.036
 30
0.0
 11
373.18975
 21
-190.036
 31
0.0
  0
LINE
  8
1
  6
CONTINUOUS
 62
     3
  5
57E
 10
375.18975
 20
-189.2075
 30
0.0
 11
373.18975
 21
-187.2075
 31
0.0
  0
LINE
  8
1
  6
CONTINUOUS
 62
     3
  5
57F
 10
375.18975
 20
-186.379083
 30
0.0
 11
373.18975
 21
-184.379083
 31
0.0
  0
LINE
  8
1
  6
CONTINUOUS
 62
     3
  5
580
 10
375.18975
 20
-183.550667
 30
0.0
 11
373.18975
 21
-181.550667
 31
0.0
  0
LINE
  8
1
  6
CONTINUOUS
 62
     3
  5
581
 10
375.18975
 20
-180.72225
 30
0.0
 11
373.18975
 21
-178.72225
 31
0.0
  0
LINE
  8
1
  6
CONTINUOUS
 62
     3
  5
582
 10
375.18975
 20
-177.893833
 30
0.0
 11
373.18975
 21
-175.893833
 31
0.0
  0
LINE
  8
1
  6
CONTINUOUS
 62
     3
  5
583
 10
375.18975
 20
-175.065417
 30
0.0
 11
373.18975
 21
-173.065417
 31
0.0
  0
LINE
  8
1
  6
CONTINUOUS
 62
     3
  5
584
 10
375.18975
 20
-172.237
 30
0.0
 11
373.18975
 21
-170.237
 31
0.0
  0
LINE
  8
1
  6
CONTINUOUS
 62
     3
  5
585
 10
375.18975
 20
-169.4085
 30
0.0
 11
373.18975
 21
-167.4085
 31
0.0
  0
LINE
  8
1
  6
CONTINUOUS
 62
     3
  5
586
 10
375.18975
 20
-166.580083
 30
0.0
 11
373.18975
 21
-164.580083
 31
0.0
  0
LINE
  8
1
  6
CONTINUOUS
 62
     3
  5
587
 10
375.18975
 20
-163.751667
 30
0.0
 11
373.18975
 21
-161.751667
 31
0.0
  0
LINE
  8
1
  6
CONTINUOUS
 62
     3
  5
588
 10
375.18975
 20
-160.92325
 30
0.0
 11
373.18975
 21
-158.92325
 31
0.0
  0
LINE
  8
1
  6
CONTINUOUS
 62
     3
  5
589
 10
375.18975
 20
-158.094833
 30
0.0
 11
373.18975
 21
-156.094833
 31
0.0
  0
LINE
  8
1
  6
CONTINUOUS
 62
     3
  5
58A
 10
375.18975
 20
-155.266417
 30
0.0
 11
373.18975
 21
-153.266417
 31
0.0
  0
LINE
  8
1
  6
CONTINUOUS
 62
     3
  5
58B
 10
375.18975
 20
-152.438
 30
0.0
 11
373.18975
 21
-150.438
 31
0.0
  0
LINE
  8
1
  6
CONTINUOUS
 62
     3
  5
58C
 10
375.18975
 20
-149.609583
 30
0.0
 11
373.18975
 21
-147.609583
 31
0.0
  0
LINE
  8
1
  6
CONTINUOUS
 62
     3
  5
58D
 10
375.18975
 20
-146.781083
 30
0.0
 11
373.18975
 21
-144.781083
 31
0.0
  0
LINE
  8
1
  6
CONTINUOUS
 62
     3
  5
58E
 10
375.18975
 20
-143.952667
 30
0.0
 11
373.18975
 21
-141.952667
 31
0.0
  0
LINE
  8
1
  6
CONTINUOUS
 62
     3
  5
58F
 10
375.18975
 20
-141.12425
 30
0.0
 11
373.18975
 21
-139.12425
 31
0.0
  0
LINE
  8
1
  6
CONTINUOUS
 62
     3
  5
590
 10
375.18975
 20
-138.295833
 30
0.0
 11
373.18975
 21
-136.295833
 31
0.0
  0
LINE
  8
1
  6
CONTINUOUS
 62
     3
  5
591
 10
375.18975
 20
-135.467417
 30
0.0
 11
373.18975
 21
-133.467417
 31
0.0
  0
LINE
  8
1
  6
CONTINUOUS
 62
     3
  5
592
 10
375.18975
 20
-132.639
 30
0.0
 11
373.18975
 21
-130.639
 31
0.0
  0
LINE
  8
1
  6
CONTINUOUS
 62
     3
  5
593
 10
375.18975
 20
-129.810583
 30
0.0
 11
373.18975
 21
-127.810583
 31
0.0
  0
LINE
  8
1
  6
CONTINUOUS
 62
     3
  5
594
 10
375.18975
 20
-126.982167
 30
0.0
 11
374.954083
 21
-126.7465
 31
0.0
  0
LINE
  8
1
  6
CONTINUOUS
 62
     3
  5
595
 10
374.425417
 20
-126.21775
 30
0.0
 11
374.18975
 21
-125.982167
 31
0.0
  0
POLYLINE
  8
1
  6
CONTINUOUS
 62
     3
  5
596
 66
     1
 10
0.0
 20
0.0
 30
0.0
 70
     1
  0
VERTEX
  8
1
  6
CONTINUOUS
 62
     3
  5
597
 10
322.2465
 20
-180.506333
 30
0.0
  0
VERTEX
  8
1
  6
CONTINUOUS
 62
     3
  5
598
 10
322.2465
 20
-159.486667
 30
0.0
  0
VERTEX
  8
1
  6
CONTINUOUS
 62
     3
  5
599
 10
343.2465
 20
-159.486667
 30
0.0
  0
VERTEX
  8
1
  6
CONTINUOUS
 62
     3
  5
59A
 10
343.2465
 20
-180.506333
 30
0.0
  0
VERTEX
  8
1
  6
CONTINUOUS
 62
     3
  5
59B
 10
322.2465
 20
-180.506333
 30
0.0
  0
SEQEND
  8
1
  6
CONTINUOUS
 62
     3
  5
59C
  0
LINE
  8
1
  6
CONTINUOUS
 62
     3
  5
59D
 10
323.270833
 20
-182.506333
 30
0.0
 11
320.2465
 21
-179.482
 31
0.0
  0
LINE
  8
1
  6
CONTINUOUS
 62
     3
  5
59E
 10
326.09925
 20
-182.506333
 30
0.0
 11
324.09925
 21
-180.506333
 31
0.0
  0
LINE
  8
1
  6
CONTINUOUS
 62
     3
  5
59F
 10
322.2465
 20
-178.653583
 30
0.0
 11
320.2465
 21
-176.653583
 31
0.0
  0
LINE
  8
1
  6
CONTINUOUS
 62
     3
  5
5A0
 10
328.927667
 20
-182.506333
 30
0.0
 11
326.927667
 21
-180.506333
 31
0.0
  0
LINE
  8
1
  6
CONTINUOUS
 62
     3
  5
5A1
 10
322.2465
 20
-175.825167
 30
0.0
 11
320.2465
 21
-173.825167
 31
0.0
  0
LINE
  8
1
  6
CONTINUOUS
 62
     3
  5
5A2
 10
331.756083
 20
-182.506333
 30
0.0
 11
329.756083
 21
-180.506333
 31
0.0
  0
LINE
  8
1
  6
CONTINUOUS
 62
     3
  5
5A3
 10
322.2465
 20
-172.99675
 30
0.0
 11
320.2465
 21
-170.99675
 31
0.0
  0
LINE
  8
1
  6
CONTINUOUS
 62
     3
  5
5A4
 10
334.584583
 20
-182.506333
 30
0.0
 11
332.584583
 21
-180.506333
 31
0.0
  0
LINE
  8
1
  6
CONTINUOUS
 62
     3
  5
5A5
 10
322.2465
 20
-170.16825
 30
0.0
 11
320.2465
 21
-168.16825
 31
0.0
  0
LINE
  8
1
  6
CONTINUOUS
 62
     3
  5
5A6
 10
337.413
 20
-182.506333
 30
0.0
 11
335.413
 21
-180.506333
 31
0.0
  0
LINE
  8
1
  6
CONTINUOUS
 62
     3
  5
5A7
 10
322.2465
 20
-167.339833
 30
0.0
 11
320.2465
 21
-165.339833
 31
0.0
  0
LINE
  8
1
  6
CONTINUOUS
 62
     3
  5
5A8
 10
340.241417
 20
-182.506333
 30
0.0
 11
338.241417
 21
-180.506333
 31
0.0
  0
LINE
  8
1
  6
CONTINUOUS
 62
     3
  5
5A9
 10
322.2465
 20
-164.511417
 30
0.0
 11
320.2465
 21
-162.511417
 31
0.0
  0
LINE
  8
1
  6
CONTINUOUS
 62
     3
  5
5AA
 10
343.069833
 20
-182.506333
 30
0.0
 11
341.069833
 21
-180.506333
 31
0.0
  0
LINE
  8
1
  6
CONTINUOUS
 62
     3
  5
5AB
 10
322.2465
 20
-161.683
 30
0.0
 11
320.2465
 21
-159.683
 31
0.0
  0
LINE
  8
1
  6
CONTINUOUS
 62
     3
  5
5AC
 10
345.18775
 20
-181.795833
 30
0.0
 11
343.2465
 21
-179.854583
 31
0.0
  0
LINE
  8
1
  6
CONTINUOUS
 62
     3
  5
5AD
 10
322.878583
 20
-159.486667
 30
0.0
 11
320.936417
 21
-157.5445
 31
0.0
  0
LINE
  8
1
  6
CONTINUOUS
 62
     3
  5
5AE
 10
345.2465
 20
-179.026167
 30
0.0
 11
343.2465
 21
-177.026167
 31
0.0
  0
LINE
  8
1
  6
CONTINUOUS
 62
     3
  5
5AF
 10
325.707
 20
-159.486667
 30
0.0
 11
323.707
 21
-157.486667
 31
0.0
  0
LINE
  8
1
  6
CONTINUOUS
 62
     3
  5
5B0
 10
345.2465
 20
-176.19775
 30
0.0
 11
343.2465
 21
-174.19775
 31
0.0
  0
LINE
  8
1
  6
CONTINUOUS
 62
     3
  5
5B1
 10
328.535417
 20
-159.486667
 30
0.0
 11
326.535417
 21
-157.486667
 31
0.0
  0
LINE
  8
1
  6
CONTINUOUS
 62
     3
  5
5B2
 10
345.2465
 20
-173.369333
 30
0.0
 11
343.2465
 21
-171.369333
 31
0.0
  0
LINE
  8
1
  6
CONTINUOUS
 62
     3
  5
5B3
 10
331.363833
 20
-159.486667
 30
0.0
 11
329.363833
 21
-157.486667
 31
0.0
  0
LINE
  8
1
  6
CONTINUOUS
 62
     3
  5
5B4
 10
345.2465
 20
-170.540833
 30
0.0
 11
343.2465
 21
-168.540833
 31
0.0
  0
LINE
  8
1
  6
CONTINUOUS
 62
     3
  5
5B5
 10
334.192333
 20
-159.486667
 30
0.0
 11
332.192333
 21
-157.486667
 31
0.0
  0
LINE
  8
1
  6
CONTINUOUS
 62
     3
  5
5B6
 10
345.2465
 20
-167.712417
 30
0.0
 11
343.2465
 21
-165.712417
 31
0.0
  0
LINE
  8
1
  6
CONTINUOUS
 62
     3
  5
5B7
 10
337.02075
 20
-159.486667
 30
0.0
 11
335.02075
 21
-157.486667
 31
0.0
  0
LINE
  8
1
  6
CONTINUOUS
 62
     3
  5
5B8
 10
345.2465
 20
-164.884
 30
0.0
 11
343.2465
 21
-162.884
 31
0.0
  0
LINE
  8
1
  6
CONTINUOUS
 62
     3
  5
5B9
 10
339.849167
 20
-159.486667
 30
0.0
 11
337.849167
 21
-157.486667
 31
0.0
  0
LINE
  8
1
  6
CONTINUOUS
 62
     3
  5
5BA
 10
345.2465
 20
-162.055583
 30
0.0
 11
343.2465
 21
-160.055583
 31
0.0
  0
LINE
  8
1
  6
CONTINUOUS
 62
     3
  5
5BB
 10
342.677583
 20
-159.486667
 30
0.0
 11
340.677583
 21
-157.486667
 31
0.0
  0
LINE
  8
1
  6
CONTINUOUS
 62
     3
  5
5BC
 10
345.2465
 20
-159.227167
 30
0.0
 11
343.506
 21
-157.486667
 31
0.0
  0
LINE
  8
1
  6
CONTINUOUS
 62
     3
  5
5BD
 10
345.2465
 20
-162.611667
 30
0.0
 11
345.2465
 21
-177.381333
 31
0.0
  0
LINE
  8
1
  6
CONTINUOUS
 62
     3
  5
5BE
 10
345.2465
 20
-180.006333
 30
0.0
 11
345.2465
 21
-181.506333
 31
0.0
  0
ARC
  8
1
  6
CONTINUOUS
 62
     3
  5
5BF
 10
344.2465
 20
-181.506333
 30
0.0
 40
1.0
 50
270.0
 51
0.0
210
0.0
220
0.0
230
1.0
  0
LINE
  8
1
  6
CONTINUOUS
 62
     3
  5
5C0
 10
344.2465
 20
-182.506333
 30
0.0
 11
321.2465
 21
-182.506333
 31
0.0
  0
ARC
  8
1
  6
CONTINUOUS
 62
     3
  5
5C1
 10
321.2465
 20
-181.506333
 30
0.0
 40
1.0
 50
180.0
 51
270.0
210
0.0
220
0.0
230
1.0
  0
LINE
  8
1
  6
CONTINUOUS
 62
     3
  5
5C2
 10
320.2465
 20
-181.506333
 30
0.0
 11
320.2465
 21
-158.486667
 31
0.0
  0
ARC
  8
1
  6
CONTINUOUS
 62
     3
  5
5C3
 10
321.2465
 20
-158.486667
 30
0.0
 40
1.0
 50
90.0
 51
180.0
210
0.0
220
0.0
230
1.0
  0
LINE
  8
1
  6
CONTINUOUS
 62
     3
  5
5C4
 10
321.2465
 20
-157.486667
 30
0.0
 11
344.2465
 21
-157.486667
 31
0.0
  0
ARC
  8
1
  6
CONTINUOUS
 62
     3
  5
5C5
 10
344.2465
 20
-158.486667
 30
0.0
 40
1.0
 50
0.0
 51
90.0
210
0.0
220
0.0
230
1.0
  0
LINE
  8
1
  6
CONTINUOUS
 62
     3
  5
5C6
 10
345.2465
 20
-158.486667
 30
0.0
 11
345.2465
 21
-159.986667
 31
0.0
  0
LINE
  8
1
  6
CONTINUOUS
 62
     3
  5
5C7
 10
372.18975
 20
-152.045167
 30
0.0
 11
372.18975
 21
-187.947833
 31
0.0
  0
POLYLINE
  8
1
  6
CONTINUOUS
 62
     3
  5
5C8
 66
     1
 10
0.0
 20
0.0
 30
0.0
  0
VERTEX
  8
1
  6
CONTINUOUS
 62
     3
  5
5C9
 10
367.18975
 20
-154.7465
 30
0.0
  0
VERTEX
  8
1
  6
CONTINUOUS
 62
     3
  5
5CA
 10
345.2465
 20
-159.986667
 30
0.0
  0
VERTEX
  8
1
  6
CONTINUOUS
 62
     3
  5
5CB
 10
345.2465
 20
-162.611667
 30
0.0
  0
VERTEX
  8
1
  6
CONTINUOUS
 62
     3
  5
5CC
 10
345.26575
 20
-162.612
 30
0.0
 42
-0.426973
  0
VERTEX
  8
1
  6
CONTINUOUS
 62
     3
  5
5CD
 10
346.2465
 20
-163.694417
 30
0.0
  0
VERTEX
  8
1
  6
CONTINUOUS
 62
     3
  5
5CE
 10
346.2465
 20
-163.694417
 30
0.0
  0
VERTEX
  8
1
  6
CONTINUOUS
 62
     3
  5
5CF
 10
346.2465
 20
-176.298583
 30
0.0
  0
VERTEX
  8
1
  6
CONTINUOUS
 62
     3
  5
5D0
 10
346.2465
 20
-176.298583
 30
0.0
 42
-0.426973
  0
VERTEX
  8
1
  6
CONTINUOUS
 62
     3
  5
5D1
 10
345.26575
 20
-177.381
 30
0.0
  0
VERTEX
  8
1
  6
CONTINUOUS
 62
     3
  5
5D2
 10
345.2465
 20
-177.381333
 30
0.0
  0
VERTEX
  8
1
  6
CONTINUOUS
 62
     3
  5
5D3
 10
345.2465
 20
-180.006333
 30
0.0
  0
VERTEX
  8
1
  6
CONTINUOUS
 62
     3
  5
5D4
 10
367.18975
 20
-185.2465
 30
0.0
  0
VERTEX
  8
1
  6
CONTINUOUS
 62
     3
  5
5D5
 10
367.18975
 20
-185.2465
 30
0.0
 42
-0.475725
  0
VERTEX
  8
1
  6
CONTINUOUS
 62
     3
  5
5D6
 10
368.18975
 20
-192.2465
 30
0.0
  0
VERTEX
  8
1
  6
CONTINUOUS
 62
     3
  5
5D7
 10
368.18975
 20
-192.2465
 30
0.0
  0
VERTEX
  8
1
  6
CONTINUOUS
 62
     3
  5
5D8
 10
368.18975
 20
-196.2465
 30
0.0
  0
VERTEX
  8
1
  6
CONTINUOUS
 62
     3
  5
5D9
 10
372.18975
 20
-196.2465
 30
0.0
  0
VERTEX
  8
1
  6
CONTINUOUS
 62
     3
  5
5DA
 10
372.18975
 20
-187.947833
 30
0.0
  0
VERTEX
  8
1
  6
CONTINUOUS
 62
     3
  5
5DB
 10
372.18975
 20
-187.947835
 30
0.0
 42
0.288337
  0
VERTEX
  8
1
  6
CONTINUOUS
 62
     3
  5
5DC
 10
368.089467
 20
-183.405099
 30
0.0
  0
VERTEX
  8
1
  6
CONTINUOUS
 62
     3
  5
5DD
 10
368.0895
 20
-183.405083
 30
0.0
  0
VERTEX
  8
1
  6
CONTINUOUS
 62
     3
  5
5DE
 10
350.549667
 20
-179.2165
 30
0.0
  0
VERTEX
  8
1
  6
CONTINUOUS
 62
     3
  5
5DF
 10
350.549693
 20
-179.2165
 30
0.0
 42
-0.347109
  0
VERTEX
  8
1
  6
CONTINUOUS
 62
     3
  5
5E0
 10
348.2465
 20
-176.298546
 30
0.0
  0
VERTEX
  8
1
  6
CONTINUOUS
 62
     3
  5
5E1
 10
348.2465
 20
-176.298583
 30
0.0
  0
VERTEX
  8
1
  6
CONTINUOUS
 62
     3
  5
5E2
 10
348.2465
 20
-163.694417
 30
0.0
  0
VERTEX
  8
1
  6
CONTINUOUS
 62
     3
  5
5E3
 10
348.2465
 20
-163.694391
 30
0.0
 42
-0.34711
  0
VERTEX
  8
1
  6
CONTINUOUS
 62
     3
  5
5E4
 10
350.549704
 20
-160.776434
 30
0.0
  0
VERTEX
  8
1
  6
CONTINUOUS
 62
     3
  5
5E5
 10
350.549667
 20
-160.776417
 30
0.0
  0
VERTEX
  8
1
  6
CONTINUOUS
 62
     3
  5
5E6
 10
368.089417
 20
-156.587917
 30
0.0
  0
VERTEX
  8
1
  6
CONTINUOUS
 62
     3
  5
5E7
 10
368.089419
 20
-156.587915
 30
0.0
 42
0.288339
  0
VERTEX
  8
1
  6
CONTINUOUS
 62
     3
  5
5E8
 10
372.18975
 20
-152.045165
 30
0.0
  0
VERTEX
  8
1
  6
CONTINUOUS
 62
     3
  5
5E9
 10
372.18975
 20
-152.045167
 30
0.0
  0
VERTEX
  8
1
  6
CONTINUOUS
 62
     3
  5
5EA
 10
372.18975
 20
-143.7465
 30
0.0
  0
VERTEX
  8
1
  6
CONTINUOUS
 62
     3
  5
5EB
 10
368.18975
 20
-143.7465
 30
0.0
  0
VERTEX
  8
1
  6
CONTINUOUS
 62
     3
  5
5EC
 10
368.18975
 20
-147.7465
 30
0.0
  0
VERTEX
  8
1
  6
CONTINUOUS
 62
     3
  5
5ED
 10
368.18975
 20
-147.7465
 30
0.0
 42
-0.475725
  0
VERTEX
  8
1
  6
CONTINUOUS
 62
     3
  5
5EE
 10
367.18975
 20
-154.7465
 30
0.0
  0
SEQEND
  8
1
  6
CONTINUOUS
 62
     3
  5
5EF
  0
LINE
  8
1
  6
CONTINUOUS
 62
     3
  5
5F0
 10
345.2465
 20
-160.447667
 30
0.0
 11
345.852167
 21
-159.842
 31
0.0
  0
LINE
  8
1
  6
CONTINUOUS
 62
     3
  5
5F1
 10
345.7515
 20
-162.771083
 30
0.0
 11
349.567917
 21
-158.954667
 31
0.0
  0
LINE
  8
1
  6
CONTINUOUS
 62
     3
  5
5F2
 10
346.2465
 20
-165.104583
 30
0.0
 11
348.323917
 21
-163.027167
 31
0.0
  0
LINE
  8
1
  6
CONTINUOUS
 62
     3
  5
5F3
 10
350.5825
 20
-160.768583
 30
0.0
 11
353.28375
 21
-158.067333
 31
0.0
  0
LINE
  8
1
  6
CONTINUOUS
 62
     3
  5
5F4
 10
346.2465
 20
-167.933
 30
0.0
 11
348.2465
 21
-165.933
 31
0.0
  0
LINE
  8
1
  6
CONTINUOUS
 62
     3
  5
5F5
 10
354.29825
 20
-159.88125
 30
0.0
 11
356.9995
 21
-157.18
 31
0.0
  0
LINE
  8
1
  6
CONTINUOUS
 62
     3
  5
5F6
 10
368.18975
 20
-145.98975
 30
0.0
 11
370.433
 21
-143.7465
 31
0.0
  0
LINE
  8
1
  6
CONTINUOUS
 62
     3
  5
5F7
 10
346.2465
 20
-170.761417
 30
0.0
 11
348.2465
 21
-168.761417
 31
0.0
  0
LINE
  8
1
  6
CONTINUOUS
 62
     3
  5
5F8
 10
358.014
 20
-158.993917
 30
0.0
 11
360.71525
 21
-156.292667
 31
0.0
  0
LINE
  8
1
  6
CONTINUOUS
 62
     3
  5
5F9
 10
368.653917
 20
-148.354
 30
0.0
 11
372.18975
 21
-144.818167
 31
0.0
  0
LINE
  8
1
  6
CONTINUOUS
 62
     3
  5
5FA
 10
346.2465
 20
-173.589833
 30
0.0
 11
348.2465
 21
-171.589833
 31
0.0
  0
LINE
  8
1
  6
CONTINUOUS
 62
     3
  5
5FB
 10
361.72975
 20
-158.106583
 30
0.0
 11
364.431083
 21
-155.405333
 31
0.0
  0
LINE
  8
1
  6
CONTINUOUS
 62
     3
  5
5FC
 10
369.365667
 20
-150.470667
 30
0.0
 11
372.18975
 21
-147.646583
 31
0.0
  0
LINE
  8
1
  6
CONTINUOUS
 62
     3
  5
5FD
 10
345.2465
 20
-177.41825
 30
0.0
 11
345.2845
 21
-177.380333
 31
0.0
  0
LINE
  8
1
  6
CONTINUOUS
 62
     3
  5
5FE
 10
346.22875
 20
-176.436
 30
0.0
 11
348.2465
 21
-174.41825
 31
0.0
  0
LINE
  8
1
  6
CONTINUOUS
 62
     3
  5
5FF
 10
365.4455
 20
-157.21925
 30
0.0
 11
372.18975
 21
-150.475
 31
0.0
  0
LINE
  8
1
  6
CONTINUOUS
 62
     3
  5
600
 10
345.4405
 20
-180.052667
 30
0.0
 11
348.379583
 21
-177.113667
 31
0.0
  0
LINE
  8
1
  6
CONTINUOUS
 62
     3
  5
601
 10
369.59325
 20
-155.9
 30
0.0
 11
371.36175
 21
-154.131417
 31
0.0
  0
LINE
  8
1
  6
CONTINUOUS
 62
     3
  5
602
 10
347.72375
 20
-180.597917
 30
0.0
 11
349.563333
 21
-178.758333
 31
0.0
  0
LINE
  8
1
  6
CONTINUOUS
 62
     3
  5
603
 10
350.006917
 20
-181.143167
 30
0.0
 11
351.66675
 21
-179.48325
 31
0.0
  0
LINE
  8
1
  6
CONTINUOUS
 62
     3
  5
604
 10
352.290083
 20
-181.688417
 30
0.0
 11
353.95
 21
-180.0285
 31
0.0
  0
LINE
  8
1
  6
CONTINUOUS
 62
     3
  5
605
 10
354.57325
 20
-182.233583
 30
0.0
 11
356.233167
 21
-180.57375
 31
0.0
  0
LINE
  8
1
  6
CONTINUOUS
 62
     3
  5
606
 10
356.8565
 20
-182.778833
 30
0.0
 11
358.516333
 21
-181.119
 31
0.0
  0
LINE
  8
1
  6
CONTINUOUS
 62
     3
  5
607
 10
359.139667
 20
-183.324083
 30
0.0
 11
360.799583
 21
-181.66425
 31
0.0
  0
LINE
  8
1
  6
CONTINUOUS
 62
     3
  5
608
 10
361.422833
 20
-183.869333
 30
0.0
 11
363.08275
 21
-182.209417
 31
0.0
  0
LINE
  8
1
  6
CONTINUOUS
 62
     3
  5
609
 10
363.706083
 20
-184.414583
 30
0.0
 11
365.365917
 21
-182.754667
 31
0.0
  0
LINE
  8
1
  6
CONTINUOUS
 62
     3
  5
60A
 10
365.98925
 20
-184.959833
 30
0.0
 11
367.649083
 21
-183.299917
 31
0.0
  0
LINE
  8
1
  6
CONTINUOUS
 62
     3
  5
60B
 10
367.94825
 20
-185.829167
 30
0.0
 11
369.656083
 21
-184.121333
 31
0.0
  0
LINE
  8
1
  6
CONTINUOUS
 62
     3
  5
60C
 10
369.079167
 20
-187.52675
 30
0.0
 11
371.11425
 21
-185.491583
 31
0.0
  0
LINE
  8
1
  6
CONTINUOUS
 62
     3
  5
60D
 10
369.269417
 20
-190.164917
 30
0.0
 11
372.04375
 21
-187.390583
 31
0.0
  0
LINE
  8
1
  6
CONTINUOUS
 62
     3
  5
60E
 10
368.18975
 20
-194.073
 30
0.0
 11
372.18975
 21
-190.073
 31
0.0
  0
LINE
  8
1
  6
CONTINUOUS
 62
     3
  5
60F
 10
368.844667
 20
-196.2465
 30
0.0
 11
372.18975
 21
-192.901417
 31
0.0
  0
LINE
  8
1
  6
CONTINUOUS
 62
     3
  5
610
 10
371.673083
 20
-196.2465
 30
0.0
 11
372.18975
 21
-195.729833
 31
0.0
  0
LINE
  8
1
  6
CONTINUOUS
 62
     3
  5
611
 10
320.2465
 20
-164.9965
 30
0.0
 11
316.7465
 21
-164.9965
 31
0.0
  0
LINE
  8
1
  6
CONTINUOUS
 62
     3
  5
612
 10
320.2465
 20
-174.9965
 30
0.0
 11
316.7465
 21
-174.9965
 31
0.0
  0
LINE
  8
1
  6
CONTINUOUS
 62
     3
  5
613
 10
319.2465
 20
-167.9965
 30
0.0
 11
316.7465
 21
-167.9965
 31
0.0
  0
LINE
  8
1
  6
CONTINUOUS
 62
     3
  5
614
 10
319.2465
 20
-171.9965
 30
0.0
 11
316.7465
 21
-171.9965
 31
0.0
  0
LINE
  8
1
  6
CONTINUOUS
 62
     3
  5
615
 10
319.2465
 20
-164.9965
 30
0.0
 11
319.2465
 21
-174.9965
 31
0.0
  0
ARC
  8
1
  6
CONTINUOUS
 62
     3
  5
616
 10
318.082095
 20
-166.4965
 30
0.0
 40
2.008436
 50
131.681767
 51
180.154525
210
0.0
220
0.0
230
1.0
  0
ARC
  8
1
  6
CONTINUOUS
 62
     3
  5
617
 10
318.082095
 20
-173.4965
 30
0.0
 40
2.008436
 50
179.845475
 51
228.318233
210
0.0
220
0.0
230
1.0
  0
POLYLINE
  8
1
  6
CONTINUOUS
 62
     3
  5
618
 66
     1
 10
0.0
 20
0.0
 30
0.0
  0
VERTEX
  8
1
  6
CONTINUOUS
 62
     3
  5
619
 10
316.073667
 20
-166.501917
 30
0.0
  0
VERTEX
  8
1
  6
CONTINUOUS
 62
     3
  5
61A
 10
316.073667
 20
-173.491083
 30
0.0
  0
VERTEX
  8
1
  6
CONTINUOUS
 62
     3
  5
61B
 10
316.073667
 20
-173.491083
 30
0.0
 42
-0.213303
  0
VERTEX
  8
1
  6
CONTINUOUS
 62
     3
  5
61C
 10
316.7465
 20
-171.9965
 30
0.0
  0
VERTEX
  8
1
  6
CONTINUOUS
 62
     3
  5
61D
 10
316.7465
 20
-171.9965
 30
0.0
 42
-0.336417
  0
VERTEX
  8
1
  6
CONTINUOUS
 62
     3
  5
61E
 10
316.7465
 20
-167.9965
 30
0.0
  0
VERTEX
  8
1
  6
CONTINUOUS
 62
     3
  5
61F
 10
316.7465
 20
-167.9965
 30
0.0
 42
-0.213303
  0
VERTEX
  8
1
  6
CONTINUOUS
 62
     3
  5
620
 10
316.073667
 20
-166.501917
 30
0.0
  0
SEQEND
  8
1
  6
CONTINUOUS
 62
     3
  5
621
  0
ARC
  8
1
  6
CONTINUOUS
 62
     3
  5
622
 10
318.082095
 20
-166.507333
 30
0.0
 40
2.008436
 50
179.845475
 51
228.318233
210
0.0
220
0.0
230
1.0
  0
ARC
  8
1
  6
CONTINUOUS
 62
     3
  5
623
 10
318.082095
 20
-173.485667
 30
0.0
 40
2.008436
 50
131.681767
 51
180.154525
210
0.0
220
0.0
230
1.0
  0
ARC
  8
1
  6
CONTINUOUS
 62
     3
  5
624
 10
319.382588
 20
-169.9965
 30
0.0
 40
3.308921
 50
142.812406
 51
217.187594
210
0.0
220
0.0
230
1.0
  0
POLYLINE
  8
1
  6
CONTINUOUS
 62
     3
  5
625
 66
     1
 10
0.0
 20
0.0
 30
0.0
  0
VERTEX
  8
1
  6
CONTINUOUS
 62
     3
  5
626
 10
352.419333
 20
-166.501917
 30
0.0
  0
VERTEX
  8
1
  6
CONTINUOUS
 62
     3
  5
627
 10
352.419333
 20
-173.491083
 30
0.0
  0
VERTEX
  8
1
  6
CONTINUOUS
 62
     3
  5
628
 10
352.419333
 20
-173.491083
 30
0.0
 42
0.213303
  0
VERTEX
  8
1
  6
CONTINUOUS
 62
     3
  5
629
 10
351.7465
 20
-171.9965
 30
0.0
  0
VERTEX
  8
1
  6
CONTINUOUS
 62
     3
  5
62A
 10
351.7465
 20
-171.9965
 30
0.0
 42
0.336417
  0
VERTEX
  8
1
  6
CONTINUOUS
 62
     3
  5
62B
 10
351.7465
 20
-167.9965
 30
0.0
  0
VERTEX
  8
1
  6
CONTINUOUS
 62
     3
  5
62C
 10
351.7465
 20
-167.9965
 30
0.0
 42
0.213303
  0
VERTEX
  8
1
  6
CONTINUOUS
 62
     3
  5
62D
 10
352.419333
 20
-166.501917
 30
0.0
  0
SEQEND
  8
1
  6
CONTINUOUS
 62
     3
  5
62E
  0
LINE
  8
1
  6
CONTINUOUS
 62
     3
  5
62F
 10
348.2465
 20
-164.9965
 30
0.0
 11
351.7465
 21
-164.9965
 31
0.0
  0
LINE
  8
1
  6
CONTINUOUS
 62
     3
  5
630
 10
348.2465
 20
-174.9965
 30
0.0
 11
351.7465
 21
-174.9965
 31
0.0
  0
LINE
  8
1
  6
CONTINUOUS
 62
     3
  5
631
 10
349.2465
 20
-167.9965
 30
0.0
 11
351.7465
 21
-167.9965
 31
0.0
  0
LINE
  8
1
  6
CONTINUOUS
 62
     3
  5
632
 10
349.2465
 20
-171.9965
 30
0.0
 11
351.7465
 21
-171.9965
 31
0.0
  0
LINE
  8
1
  6
CONTINUOUS
 62
     3
  5
633
 10
349.2465
 20
-164.9965
 30
0.0
 11
349.2465
 21
-174.9965
 31
0.0
  0
ARC
  8
1
  6
CONTINUOUS
 62
     3
  5
634
 10
350.410905
 20
-166.4965
 30
0.0
 40
2.008436
 50
359.845475
 51
48.318233
210
0.0
220
0.0
230
1.0
  0
ARC
  8
1
  6
CONTINUOUS
 62
     3
  5
635
 10
350.410905
 20
-173.4965
 30
0.0
 40
2.008436
 50
311.681767
 51
0.154525
210
0.0
220
0.0
230
1.0
  0
ARC
  8
1
  6
CONTINUOUS
 62
     3
  5
636
 10
350.410905
 20
-166.507333
 30
0.0
 40
2.008436
 50
311.681767
 51
0.154525
210
0.0
220
0.0
230
1.0
  0
ARC
  8
1
  6
CONTINUOUS
 62
     3
  5
637
 10
350.410905
 20
-173.485667
 30
0.0
 40
2.008436
 50
359.845475
 51
48.318233
210
0.0
220
0.0
230
1.0
  0
ARC
  8
1
  6
CONTINUOUS
 62
     3
  5
638
 10
349.110412
 20
-169.9965
 30
0.0
 40
3.308921
 50
322.812406
 51
37.187594
210
0.0
220
0.0
230
1.0
  0
LINE
  8
1
  6
CONTINUOUS
 62
     7
  5
639
 10
74.748
 20
-51.008417
 30
0.0
 11
66.672083
 21
-51.022
 31
0.0
  0
LINE
  8
1
  6
CONTINUOUS
 62
     7
  5
63A
 10
66.672083
 20
-51.022
 30
0.0
 11
50.597917
 21
-61.74225
 31
0.0
  0
LINE
  8
1
  6
CONTINUOUS
 62
     7
  5
63B
 10
78.313667
 20
-56.008417
 30
0.0
 11
65.209333
 21
-73.063083
 31
0.0
  0
LINE
  8
1
  6
CONTINUOUS
 62
     7
  5
63C
 10
103.813667
 20
-56.008417
 30
0.0
 11
116.918
 21
-73.063083
 31
0.0
  0
LINE
  8
1
  6
CONTINUOUS
 62
     7
  5
63D
 10
91.063667
 20
-56.250167
 30
0.0
 11
91.063667
 21
-57.250167
 31
0.0
  0
LINE
  8
1
  6
CONTINUOUS
 62
     7
  5
63E
 10
83.563667
 20
-54.008417
 30
0.0
 11
91.063667
 21
-56.250167
 31
0.0
  0
LINE
  8
1
  6
CONTINUOUS
 62
     7
  5
63F
 10
98.563667
 20
-54.008417
 30
0.0
 11
91.063667
 21
-56.250167
 31
0.0
  0
LINE
  8
1
  6
CONTINUOUS
 62
     7
  5
640
 10
91.063667
 20
-49.008417
 30
0.0
 11
91.063667
 21
-38.492667
 31
0.0
  0
LINE
  8
1
  6
CONTINUOUS
 62
     7
  5
641
 10
75.813667
 20
-43.008417
 30
0.0
 11
79.813667
 21
-43.008417
 31
0.0
  0
LINE
  8
1
  6
CONTINUOUS
 62
     7
  5
642
 10
102.313667
 20
-43.008417
 30
0.0
 11
106.313667
 21
-43.008417
 31
0.0
  0
INSERT
  8
1
  6
CONTINUOUS
 62
     1
  5
663
  2
LDR
 10
79.813667
 20
-43.008417
 30
0.0
 41
240.0
 42
240.0
210
0.0
220
0.0
230
1.0
  0
INSERT
  8
1
  6
CONTINUOUS
 62
     1
  5
664
  2
LDR
 10
91.063667
 20
-49.008417
 30
0.0
 41
240.0
 42
240.0
 50
270.0
210
0.0
220
0.0
230
1.0
  0
INSERT
  8
1
  6
CONTINUOUS
 62
     1
  5
665
  2
LDR
 10
91.063667
 20
-49.008417
 30
0.0
 41
240.0
 42
240.0
 50
270.0
210
0.0
220
0.0
230
1.0
  0
INSERT
  8
1
  6
CONTINUOUS
 62
     1
  5
666
  2
LDR
 10
102.313667
 20
-43.008417
 30
0.0
 41
240.0
 42
240.0
 50
180.0
210
0.0
220
0.0
230
1.0
  0
INSERT
  8
1
  6
CONTINUOUS
 62
     1
  5
667
  2
LDR
 10
102.313667
 20
-43.008417
 30
0.0
 41
240.0
 42
240.0
 50
180.0
210
0.0
220
0.0
230
1.0
  0
INSERT
  8
1
  6
CONTINUOUS
 62
     1
  5
668
  2
LDR
 10
83.563667
 20
-54.008417
 30
0.0
 41
240.0
 42
240.0
 50
163.358594
210
0.0
220
0.0
230
1.0
  0
INSERT
  8
1
  6
CONTINUOUS
 62
     1
  5
669
  2
LDR
 10
83.563667
 20
-54.008417
 30
0.0
 41
240.0
 42
240.0
 50
163.358594
210
0.0
220
0.0
230
1.0
  0
INSERT
  8
1
  6
CONTINUOUS
 62
     1
  5
66A
  2
LDR
 10
98.563667
 20
-54.008417
 30
0.0
 41
240.0
 42
240.0
 50
16.641406
210
0.0
220
0.0
230
1.0
  0
INSERT
  8
1
  6
CONTINUOUS
 62
     1
  5
66B
  2
LDR
 10
98.563667
 20
-54.008417
 30
0.0
 41
240.0
 42
240.0
 50
16.641406
210
0.0
220
0.0
230
1.0
  0
INSERT
  8
1
  6
CONTINUOUS
 62
     1
  5
66C
  2
LDR
 10
50.597917
 20
-61.74225
 30
0.0
 41
239.999999
 42
239.999999
 50
213.70028
210
0.0
220
0.0
230
1.0
  0
INSERT
  8
1
  6
CONTINUOUS
 62
     1
  5
66D
  2
LDR
 10
50.597917
 20
-61.74225
 30
0.0
 41
239.999999
 42
239.999999
 50
213.70028
210
0.0
220
0.0
230
1.0
  0
INSERT
  8
1
  6
CONTINUOUS
 62
     1
  5
66E
  2
LDR
 10
78.313667
 20
-56.008417
 30
0.0
 41
240.0
 42
240.0
 50
52.462382
210
0.0
220
0.0
230
1.0
  0
INSERT
  8
1
  6
CONTINUOUS
 62
     1
  5
66F
  2
LDR
 10
78.313667
 20
-56.008417
 30
0.0
 41
240.0
 42
240.0
 50
52.462382
210
0.0
220
0.0
230
1.0
  0
INSERT
  8
1
  6
CONTINUOUS
 62
     1
  5
670
  2
LDR
 10
103.813667
 20
-56.008417
 30
0.0
 41
240.0
 42
240.0
 50
127.537618
210
0.0
220
0.0
230
1.0
  0
TEXT
  8
1
  6
CONTINUOUS
 62
     7
  5
671
 10
77.851417
 20
-33.14775
 30
0.0
 40
2.5
  1
 5/16 " DIAMETER
  7
MONOTXT
 72
     4
 11
90.95175
 21
-31.89775
 31
0.0
210
0.0
220
0.0
230
1.0
  0
TEXT
  8
1
  6
CONTINUOUS
 62
     7
  5
672
 10
76.945917
 20
-37.64775
 30
0.0
 40
2.5
  1
CADMIUM BOLT
  7
MONOTXT
 72
     4
 11
90.95175
 21
-36.39775
 31
0.0
210
0.0
220
0.0
230
1.0
  0
TEXT
  8
1
  6
CONTINUOUS
 62
     7
  5
673
 10
55.67975
 20
-44.465417
 30
0.0
 40
2.5
  1
SIGN FACE
  7
MONOTXT
 72
     4
 11
65.55175
 21
-43.215417
 31
0.0
210
0.0
220
0.0
230
1.0
  0
TEXT
  8
1
  6
CONTINUOUS
 62
     7
  5
674
 10
107.0465
 20
-44.087583
 30
0.0
 40
2.5
  1
SIGN FACE
  7
MONOTXT
 72
     4
 11
116.9185
 21
-42.837583
 31
0.0
210
0.0
220
0.0
230
1.0
  0
TEXT
  8
1
  6
CONTINUOUS
 62
     7
  5
675
 10
87.729333
 20
-60.522667
 30
0.0
 40
2.5
  1
NUT
  7
MONOTXT
 72
     4
 11
91.046167
 21
-59.272667
 31
0.0
210
0.0
220
0.0
230
1.0
  0
LINE
  8
1
  6
CONTINUOUS
 62
     7
  5
676
 10
65.209333
 20
-73.063083
 30
0.0
 11
70.640833
 21
-73.063083
 31
0.0
  0
LINE
  8
1
  6
CONTINUOUS
 62
     7
  5
677
 10
111.80975
 20
-73.063083
 30
0.0
 11
116.918
 21
-73.063083
 31
0.0
  0
LINE
  8
1
  6
CONTINUOUS
 62
     7
  5
678
 10
43.035417
 20
-82.161
 30
0.0
 11
13.512917
 21
-82.161
 31
0.0
  0
LINE
  8
1
  6
CONTINUOUS
 62
     7
  5
679
 10
14.512917
 20
-82.161
 30
0.0
 11
14.512917
 21
-131.491
 31
0.0
  0
INSERT
  8
1
  6
CONTINUOUS
 62
     1
  5
67A
  2
LDR
 10
14.512917
 20
-82.161
 30
0.0
 41
240.0
 42
240.0
 50
90.0
210
0.0
220
0.0
230
1.0
  0
INSERT
  8
1
  6
CONTINUOUS
 62
     1
  5
67B
  2
LDR
 10
14.512917
 20
-82.161
 30
0.0
 41
240.0
 42
240.0
 50
90.0
210
0.0
220
0.0
230
1.0
  0
INSERT
  8
1
  6
CONTINUOUS
 62
     1
  5
67C
  2
LDR
 10
14.512917
 20
-131.491
 30
0.0
 41
240.0
 42
240.0
 50
270.0
210
0.0
220
0.0
230
1.0
  0
TEXT
  8
1
  6
CONTINUOUS
 62
     7
  5
67D
 10
13.253417
 20
-113.101
 30
0.0
 40
2.5
  1
13" TYP.
 50
90.0
  7
MONOTXT
 72
     4
 11
12.003417
 21
-105.177833
 31
0.0
210
0.0
220
0.0
230
1.0
  0
LINE
  8
1
  6
CONTINUOUS
 62
     7
  5
67E
 10
47.159167
 20
-138.661
 30
0.0
 11
54.13075
 21
-138.661
 31
0.0
  0
LINE
  8
1
  6
CONTINUOUS
 62
     7
  5
67F
 10
53.13075
 20
-142.661
 30
0.0
 11
53.13075
 21
-138.661
 31
0.0
  0
LINE
  8
1
  6
CONTINUOUS
 62
     7
  5
680
 10
53.13075
 20
-131.491
 30
0.0
 11
53.13075
 21
-127.491
 31
0.0
  0
INSERT
  8
1
  6
CONTINUOUS
 62
     1
  5
681
  2
LDR
 10
53.13075
 20
-131.491
 30
0.0
 41
240.0
 42
240.0
 50
270.0
210
0.0
220
0.0
230
1.0
  0
INSERT
  8
1
  6
CONTINUOUS
 62
     1
  5
682
  2
LDR
 10
53.13075
 20
-131.491
 30
0.0
 41
240.0
 42
240.0
 50
270.0
210
0.0
220
0.0
230
1.0
  0
INSERT
  8
1
  6
CONTINUOUS
 62
     1
  5
683
  2
LDR
 10
53.13075
 20
-138.661
 30
0.0
 41
240.0
 42
240.0
 50
90.0
210
0.0
220
0.0
230
1.0
  0
LINE
  8
1
  6
CONTINUOUS
 62
     7
  5
684
 10
53.13075
 20
-127.491
 30
0.0
 11
58.2165
 21
-127.491
 31
0.0
  0
TEXT
  8
1
  6
CONTINUOUS
 62
     7
  5
685
 10
58.84625
 20
-128.462083
 30
0.0
 40
2.5
  1
1" TYP.
  7
MONOTXT
 72
     4
 11
65.52925
 21
-127.212083
 31
0.0
210
0.0
220
0.0
230
1.0
  0
LINE
  8
1
  6
CONTINUOUS
 62
     7
  5
686
 10
91.512917
 20
-141.491
 30
0.0
 11
95.512917
 21
-141.491
 31
0.0
  0
INSERT
  8
1
  6
CONTINUOUS
 62
     1
  5
687
  2
LDR
 10
91.512917
 20
-141.491
 30
0.0
 41
240.0
 42
240.0
 50
180.0
210
0.0
220
0.0
230
1.0
  0
TEXT
  8
1
  6
CONTINUOUS
 62
     7
  5
688
 10
96.254667
 20
-142.605667
 30
0.0
 40
2.5
  1
"DO NOT ENTER" SIGN
  7
MONOTXT
 72
     4
 11
118.114833
 21
-141.355667
 31
0.0
210
0.0
220
0.0
230
1.0
  0
LINE
  8
1
  6
CONTINUOUS
 62
     7
  5
689
 10
91.512917
 20
-176.491
 30
0.0
 11
95.512917
 21
-176.491
 31
0.0
  0
INSERT
  8
1
  6
CONTINUOUS
 62
     1
  5
68A
  2
LDR
 10
91.512917
 20
-176.491
 30
0.0
 41
240.0
 42
240.0
 50
180.0
210
0.0
220
0.0
230
1.0
  0
TEXT
  8
1
  6
CONTINUOUS
 62
     7
  5
68B
 10
96.221417
 20
-177.630167
 30
0.0
 40
2.5
  1
"STOP" SIGN
  7
MONOTXT
 72
     4
 11
108.04225
 21
-176.380167
 31
0.0
210
0.0
220
0.0
230
1.0
  0
LINE
  8
1
  6
CONTINUOUS
 62
     7
  5
68C
 10
143.522667
 20
-8.115333
 30
0.0
 11
123.156
 21
-8.115333
 31
0.0
  0
LINE
  8
1
  6
CONTINUOUS
 62
     7
  5
68D
 10
147.152667
 20
10.034667
 30
0.0
 11
123.156
 21
10.034667
 31
0.0
  0
LINE
  8
1
  6
CONTINUOUS
 62
     7
  5
68E
 10
124.366
 20
10.034667
 30
0.0
 11
124.366
 21
-8.115333
 31
0.0
  0
LINE
  8
1
  6
CONTINUOUS
 62
     7
  5
68F
 10
155.622667
 20
-12.955333
 30
0.0
 11
150.782667
 21
-12.955333
 31
0.0
  0
LINE
  8
1
  6
CONTINUOUS
 62
     7
  5
690
 10
145.942667
 20
-12.955333
 30
0.0
 11
141.102667
 21
-12.955333
 31
0.0
  0
LINE
  8
1
  6
CONTINUOUS
 62
     7
  5
691
 10
198.577667
 20
2.169667
 30
0.0
 11
186.919333
 21
2.169667
 31
0.0
  0
LINE
  8
1
  6
CONTINUOUS
 62
     7
  5
692
 10
188.129333
 20
-2.670333
 30
0.0
 11
188.129333
 21
2.169667
 31
0.0
  0
LINE
  8
1
  6
CONTINUOUS
 62
     7
  5
693
 10
188.129333
 20
10.034667
 30
0.0
 11
188.129333
 21
14.874667
 31
0.0
  0
LINE
  8
1
  6
CONTINUOUS
 62
     7
  5
694
 10
215.568
 20
10.034667
 30
0.0
 11
234.056
 21
33.81325
 31
0.0
  0
LINE
  8
1
  6
CONTINUOUS
 62
     7
  5
695
 10
225.823083
 20
33.81325
 30
0.0
 11
234.056
 21
33.81325
 31
0.0
  0
TEXT
  8
1
  6
CONTINUOUS
 62
     7
  5
696
 10
122.48125
 20
-6.444333
 30
0.0
 40
2.5
  1
6" TYP.
 50
90.0
  7
MONOTXT
 72
     4
 11
121.23125
 21
0.711167
 31
0.0
210
0.0
220
0.0
230
1.0
  0
TEXT
  8
1
  6
CONTINUOUS
 62
     7
  5
697
 10
156.637417
 20
-14.297
 30
0.0
 40
2.5
  1
TYP.
  7
MONOTXT
 72
     4
 11
160.64325
 21
-13.047
 31
0.0
210
0.0
220
0.0
230
1.0
  0
TEXT
  8
1
  6
CONTINUOUS
 62
     7
  5
698
 10
181.52125
 20
4.602417
 30
0.0
 40
2.5
  1
2" TYP.
  7
MONOTXT
 72
     4
 11
188.73575
 21
5.852417
 31
0.0
210
0.0
220
0.0
230
1.0
  0
TEXT
  8
1
  6
CONTINUOUS
 62
     7
  5
699
 10
190.535833
 20
32.596667
 30
0.0
 40
2.5
  1
"ONE WAY" SIGNS
  7
MONOTXT
 72
     4
 11
207.612583
 21
33.846667
 31
0.0
210
0.0
220
0.0
230
1.0
  0
LINE
  8
1
  6
CONTINUOUS
 62
     7
  5
69A
 10
210.072667
 20
-28.685333
 30
0.0
 11
217.74475
 21
-28.685333
 31
0.0
  0
LINE
  8
1
  6
CONTINUOUS
 62
     7
  5
69B
 10
216.53475
 20
-33.525333
 30
0.0
 11
216.53475
 21
-28.685333
 31
0.0
  0
LINE
  8
1
  6
CONTINUOUS
 62
     7
  5
69C
 10
216.53475
 20
-26.265333
 30
0.0
 11
216.53475
 21
-21.425333
 31
0.0
  0
TEXT
  8
1
  6
CONTINUOUS
 62
     7
  5
69D
 10
222.653
 20
-34.667583
 30
0.0
 40
2.5
  1
1" TYP.
  7
MONOTXT
 72
     4
 11
229.336
 21
-33.417583
 31
0.0
210
0.0
220
0.0
230
1.0
  0
LINE
  8
1
  6
CONTINUOUS
 62
     7
  5
69E
 10
216.53475
 20
-33.525333
 30
0.0
 11
221.8305
 21
-33.525333
 31
0.0
  0
LINE
  8
1
  6
CONTINUOUS
 62
     7
  5
69F
 10
189.502667
 20
-33.106417
 30
0.0
 11
214.912667
 21
-33.106417
 31
0.0
  0
LINE
  8
1
  6
CONTINUOUS
 62
     7
  5
6A0
 10
189.502667
 20
-33.106417
 30
0.0
 11
189.502667
 21
-37.946417
 31
0.0
  0
LINE
  8
1
  6
CONTINUOUS
 62
     7
  5
6A1
 10
214.912667
 20
-33.106417
 30
0.0
 11
214.912667
 21
-37.946417
 31
0.0
  0
INSERT
  8
1
  6
CONTINUOUS
 62
     1
  5
6A2
  2
LDR
 10
189.502667
 20
-37.946417
 30
0.0
 41
290.399999
 42
290.399999
 50
270.0
210
0.0
220
0.0
230
1.0
  0
INSERT
  8
1
  6
CONTINUOUS
 62
     1
  5
6A3
  2
LDR
 10
214.912667
 20
-37.946417
 30
0.0
 41
290.399999
 42
290.399999
 50
270.0
210
0.0
220
0.0
230
1.0
  0
LINE
  8
1
  6
CONTINUOUS
 62
     7
  5
6A4
 10
190.712667
 20
-39.722667
 30
0.0
 11
213.702667
 21
-39.722667
 31
0.0
  0
LINE
  8
1
  6
CONTINUOUS
 62
     7
  5
6A5
 10
190.712667
 20
-39.722667
 30
0.0
 11
190.712667
 21
-44.562667
 31
0.0
  0
LINE
  8
1
  6
CONTINUOUS
 62
     7
  5
6A6
 10
213.702667
 20
-39.722667
 30
0.0
 11
213.702667
 21
-44.562667
 31
0.0
  0
INSERT
  8
1
  6
CONTINUOUS
 62
     1
  5
6A7
  2
LDR
 10
190.712667
 20
-44.562667
 30
0.0
 41
290.399999
 42
290.399999
 50
270.0
210
0.0
220
0.0
230
1.0
  0
INSERT
  8
1
  6
CONTINUOUS
 62
     1
  5
6A8
  2
LDR
 10
213.702667
 20
-44.562667
 30
0.0
 41
290.399999
 42
290.399999
 50
270.0
210
0.0
220
0.0
230
1.0
  0
LINE
  8
1
  6
CONTINUOUS
 62
     7
  5
6A9
 10
191.922667
 20
-35.340333
 30
0.0
 11
182.771
 21
-35.340333
 31
0.0
  0
LINE
  8
1
  6
CONTINUOUS
 62
     7
  5
6AA
 10
199.787667
 20
-83.740333
 30
0.0
 11
182.771
 21
-83.740333
 31
0.0
  0
LINE
  8
1
  6
CONTINUOUS
 62
     7
  5
6AB
 10
200.997667
 20
-83.740333
 30
0.0
 11
203.417667
 21
-83.740333
 31
0.0
  0
LINE
  8
1
  6
CONTINUOUS
 62
     7
  5
6AC
 10
204.627667
 20
-83.740333
 30
0.0
 11
209.467667
 21
-83.740333
 31
0.0
  0
LINE
  8
1
  6
CONTINUOUS
 62
     7
  5
6AD
 10
183.981
 20
-35.340333
 30
0.0
 11
183.981
 21
-83.740333
 31
0.0
  0
LINE
  8
1
  6
CONTINUOUS
 62
     7
  5
6AE
 10
217.732083
 20
-77.539083
 30
0.0
 11
223.216333
 21
-77.539083
 31
0.0
  0
LINE
  8
1
  6
CONTINUOUS
 62
     7
  5
6AF
 10
202.207667
 20
-58.784083
 30
0.0
 11
217.732083
 21
-77.539083
 31
0.0
  0
LINE
  8
1
  6
CONTINUOUS
 62
     7
  5
6B0
 10
217.732083
 20
-77.539083
 30
0.0
 11
202.207667
 21
-96.294083
 31
0.0
  0
TEXT
  8
1
  6
CONTINUOUS
 62
     7
  5
6B1
 10
182.467417
 20
-66.95925
 30
0.0
 40
2.5
  1
16" TYP.
 50
90.0
  7
MONOTXT
 72
     4
 11
181.217417
 21
-59.095083
 31
0.0
210
0.0
220
0.0
230
1.0
  0
LINE
  8
1
  6
HIDDEN
 62
    92
  5
6B2
 10
201.451417
 20
-168.894083
 30
0.0
 11
202.963917
 21
-168.894083
 31
0.0
  0
LINE
  8
1
  6
HIDDEN
 62
    92
  5
6B3
 10
201.451417
 20
-168.894083
 30
0.0
 11
202.963917
 21
-168.894083
 31
0.0
  0
LINE
  8
1
  6
CONTINUOUS
 62
    92
  5
6B4
 10
200.392667
 20
-168.289083
 30
0.0
 11
200.392667
 21
-170.406583
 31
0.0
  0
LINE
  8
1
  6
CONTINUOUS
 62
    92
  5
6B5
 10
201.451417
 20
-168.289083
 30
0.0
 11
200.392667
 21
-168.289083
 31
0.0
  0
LINE
  8
1
  6
HIDDEN
 62
    92
  5
6B6
 10
201.451417
 20
-169.801583
 30
0.0
 11
202.963917
 21
-169.801583
 31
0.0
  0
LINE
  8
1
  6
HIDDEN
 62
    92
  5
6B7
 10
202.963917
 20
-168.894083
 30
0.0
 11
204.022667
 21
-168.894083
 31
0.0
  0
LINE
  8
1
  6
CONTINUOUS
 62
    92
  5
6B8
 10
202.963917
 20
-170.406583
 30
0.0
 11
204.022667
 21
-170.406583
 31
0.0
  0
LINE
  8
1
  6
CONTINUOUS
 62
    92
  5
6B9
 10
202.963917
 20
-168.289083
 30
0.0
 11
204.022667
 21
-168.289083
 31
0.0
  0
LINE
  8
1
  6
CONTINUOUS
 62
    92
  5
6BA
 10
204.022667
 20
-168.289083
 30
0.0
 11
204.022667
 21
-170.406583
 31
0.0
  0
LINE
  8
1
  6
HIDDEN
 62
    92
  5
6BB
 10
202.963917
 20
-169.801583
 30
0.0
 11
204.022667
 21
-169.801583
 31
0.0
  0
LINE
  8
1
  6
HIDDEN
 62
    92
  5
6BC
 10
201.451417
 20
-168.894083
 30
0.0
 11
200.392667
 21
-168.894083
 31
0.0
  0
LINE
  8
1
  6
CONTINUOUS
 62
    92
  5
6BD
 10
201.451417
 20
-170.406583
 30
0.0
 11
200.392667
 21
-170.406583
 31
0.0
  0
LINE
  8
1
  6
HIDDEN
 62
    92
  5
6BE
 10
201.451417
 20
-169.801583
 30
0.0
 11
200.392667
 21
-169.801583
 31
0.0
  0
LINE
  8
1
  6
CONTINUOUS
 62
     7
  5
6BF
 10
199.182667
 20
-169.347833
 30
0.0
 11
182.771
 21
-169.347833
 31
0.0
  0
LINE
  8
1
  6
CONTINUOUS
 62
     7
  5
6C0
 10
199.182667
 20
-205.647833
 30
0.0
 11
182.771
 21
-205.647833
 31
0.0
  0
LINE
  8
1
  6
CONTINUOUS
 62
     7
  5
6C1
 10
183.981
 20
-169.347833
 30
0.0
 11
183.981
 21
-205.647833
 31
0.0
  0
TEXT
  8
1
  6
CONTINUOUS
 62
     7
  5
6C2
 10
182.914
 20
-200.660917
 30
0.0
 40
2.5
  1
18" C/C TYP.
 50
90.0
  7
MONOTXT
 72
     4
 11
181.664
 21
-187.678667
 31
0.0
210
0.0
220
0.0
230
1.0
  0
LINE
  8
1
  6
CONTINUOUS
 62
     7
  5
6C3
 10
207.652667
 20
-187.497833
 30
0.0
 11
212.492667
 21
-187.497833
 31
0.0
  0
TEXT
  8
1
  6
CONTINUOUS
 62
     7
  5
6C4
 10
185.9145
 20
-39.2645
 30
0.0
 40
3.025
  1
A
  7
txt
 72
     4
 11
187.293667
 21
-37.752
 31
0.0
210
0.0
220
0.0
230
1.0
  0
TEXT
  8
1
  6
CONTINUOUS
 62
     7
  5
6C5
 10
215.903583
 20
-39.2645
 30
0.0
 40
3.025
  1
A
  7
txt
 72
     4
 11
217.28275
 21
-37.752
 31
0.0
210
0.0
220
0.0
230
1.0
  0
TEXT
  8
1
  6
CONTINUOUS
 62
     7
  5
6C6
 10
186.8455
 20
-46.082417
 30
0.0
 40
3.025
  1
B
  7
txt
 72
     4
 11
188.0725
 21
-44.569917
 31
0.0
210
0.0
220
0.0
230
1.0
  0
TEXT
  8
1
  6
CONTINUOUS
 62
     7
  5
6C7
 10
214.98475
 20
-45.985
 30
0.0
 40
3.025
  1
B
  7
txt
 72
     4
 11
216.21175
 21
-44.4725
 31
0.0
210
0.0
220
0.0
230
1.0
  0
LINE
  8
1
  6
CONTINUOUS
 62
     7
  5
6C8
 10
331.467917
 20
2.406167
 30
0.0
 11
320.3515
 21
41.223083
 31
0.0
  0
LINE
  8
1
  6
CONTINUOUS
 62
     7
  5
6C9
 10
320.3515
 20
41.223083
 30
0.0
 11
329.416333
 21
41.223083
 31
0.0
  0
INSERT
  8
1
  6
CONTINUOUS
 62
     1
  5
6CA
  2
LDR
 10
331.467917
 20
2.406167
 30
0.0
 41
240.000001
 42
240.000001
 50
285.980692
210
0.0
220
0.0
230
1.0
  0
LINE
  8
1
  6
CONTINUOUS
 62
     3
  5
6CB
 10
337.996167
 20
5.036083
 30
0.0
 11
337.996167
 21
-4.963917
 31
0.0
  0
LINE
  8
1
  6
CONTINUOUS
 62
     3
  5
6CC
 10
337.996167
 20
-17.983583
 30
0.0
 11
337.996167
 21
-27.983583
 31
0.0
  0
LINE
  8
1
  6
CONTINUOUS
 62
     7
  5
6CD
 10
337.996167
 20
1.036083
 30
0.0
 11
331.095417
 21
17.796333
 31
0.0
  0
LINE
  8
1
  6
CONTINUOUS
 62
     7
  5
6CE
 10
331.095417
 20
17.796333
 30
0.0
 11
334.856
 21
17.796333
 31
0.0
  0
INSERT
  8
1
  6
CONTINUOUS
 62
     1
  5
6CF
  2
LDR
 10
337.996167
 20
1.036083
 30
0.0
 41
239.999998
 42
239.999998
 50
292.378588
210
0.0
220
0.0
230
1.0
  0
LINE
  8
1
  6
CONTINUOUS
 62
     7
  5
6D0
 10
315.939417
 20
-18.439333
 30
0.0
 11
309.82375
 21
-28.171833
 31
0.0
  0
LINE
  8
1
  6
CONTINUOUS
 62
     7
  5
6D1
 10
309.82375
 20
-28.171833
 30
0.0
 11
305.865333
 21
-28.171833
 31
0.0
  0
INSERT
  8
1
  6
CONTINUOUS
 62
     1
  5
6D2
  2
LDR
 10
315.939417
 20
-18.439333
 30
0.0
 41
240.0
 42
240.0
 50
57.855743
210
0.0
220
0.0
230
1.0
  0
LINE
  8
1
  6
CONTINUOUS
 62
     7
  5
6D3
 10
383.927833
 20
-8.242417
 30
0.0
 11
390.444917
 21
0.4705
 31
0.0
  0
LINE
  8
1
  6
CONTINUOUS
 62
     7
  5
6D4
 10
390.444917
 20
0.4705
 30
0.0
 11
395.195083
 21
0.4705
 31
0.0
  0
LINE
  8
1
  6
CONTINUOUS
 62
     7
  5
6D5
 10
381.939417
 20
-20.97375
 30
0.0
 11
387.805917
 21
-30.01975
 31
0.0
  0
LINE
  8
1
  6
CONTINUOUS
 62
     7
  5
6D6
 10
387.805917
 20
-30.01975
 30
0.0
 11
392.424083
 21
-30.01975
 31
0.0
  0
INSERT
  8
1
  6
CONTINUOUS
 62
     1
  5
6D7
  2
LDR
 10
383.927833
 20
-8.242417
 30
0.0
 41
240.000002
 42
240.000002
 50
233.204263
210
0.0
220
0.0
230
1.0
  0
INSERT
  8
1
  6
CONTINUOUS
 62
     1
  5
6D8
  2
LDR
 10
383.927833
 20
-8.242417
 30
0.0
 41
240.000002
 42
240.000002
 50
233.204263
210
0.0
220
0.0
230
1.0
  0
INSERT
  8
1
  6
CONTINUOUS
 62
     1
  5
6D9
  2
LDR
 10
381.939417
 20
-20.97375
 30
0.0
 41
240.000002
 42
240.000002
 50
122.964163
210
0.0
220
0.0
230
1.0
  0
LINE
  8
1
  6
CONTINUOUS
 62
     7
  5
6DA
 10
319.939417
 20
-34.72375
 30
0.0
 11
320.264
 21
-49.36775
 31
0.0
  0
LINE
  8
1
  6
CONTINUOUS
 62
     7
  5
6DB
 10
377.939417
 20
-34.72375
 30
0.0
 11
377.614833
 21
-49.36775
 31
0.0
  0
INSERT
  8
1
  6
CONTINUOUS
 62
     1
  5
6DC
  2
LDR
 10
319.939417
 20
-34.72375
 30
0.0
 41
239.999998
 42
239.999998
 50
91.26975
210
0.0
220
0.0
230
1.0
  0
INSERT
  8
1
  6
CONTINUOUS
 62
     1
  5
6DD
  2
LDR
 10
377.939417
 20
-34.72375
 30
0.0
 41
239.999998
 42
239.999998
 50
88.73025
210
0.0
220
0.0
230
1.0
  0
TEXT
  8
1
  6
CONTINUOUS
 62
     7
  5
6DE
 10
327.118833
 20
-50.705667
 30
0.0
 40
2.5
  1
.125" ALUMINUM PLATE
  7
MONOTXT
 72
     4
 11
348.979
 21
-49.455667
 31
0.0
210
0.0
220
0.0
230
1.0
  0
LINE
  8
1
  6
CONTINUOUS
 62
     7
  5
6DF
 10
320.264
 20
-49.36775
 30
0.0
 11
326.73975
 21
-49.36775
 31
0.0
  0
LINE
  8
1
  6
CONTINUOUS
 62
     7
  5
6E0
 10
371.900667
 20
-49.36775
 30
0.0
 11
377.614833
 21
-49.36775
 31
0.0
  0
TEXT
  8
1
  6
CONTINUOUS
 62
     7
  5
6E1
 10
330.659083
 20
42.316083
 30
0.0
 40
2.5
  1
1-3/4"x1-3/4" 12 GA. SQUARE STEEL POST (6# POST)
  7
MONOTXT
 11
330.659083
 21
44.816083
 31
0.0
210
0.0
220
0.0
230
1.0
 73
     3
  0
TEXT
  8
1
  6
CONTINUOUS
 62
     7
  5
6E2
 10
330.659083
 20
37.816083
 30
0.0
 40
2.5
  1
1-1/2"x1-1/2" 12 GA. SQUARE STEEL POST (4# POST)
  7
MONOTXT
 11
330.659083
 21
40.316083
 31
0.0
210
0.0
220
0.0
230
1.0
 73
     3
  0
TEXT
  8
1
  6
CONTINUOUS
 62
     7
  5
6E3
 10
336.275
 20
19.377167
 30
0.0
 40
2.5
  1
 7/16 " DIA. HOLES,
  7
MONOTXT
 11
336.275
 21
21.877167
 31
0.0
210
0.0
220
0.0
230
1.0
 73
     3
  0
TEXT
  8
1
  6
CONTINUOUS
 62
     7
  5
6E4
 10
336.275
 20
14.877167
 30
0.0
 40
2.5
  1
1" C/C TYP.
  7
MONOTXT
 11
336.275
 21
17.377167
 31
0.0
210
0.0
220
0.0
230
1.0
 73
     3
  0
TEXT
  8
1
  6
CONTINUOUS
 62
     7
  5
6E5
 10
396.4115
 20
3.6945
 30
0.0
 40
2.5
  1
 5/16 " SLOTTED CADMIUM PLATED
  7
MONOTXT
 11
396.4115
 21
6.1945
 31
0.0
210
0.0
220
0.0
230
1.0
 73
     3
  0
TEXT
  8
1
  6
CONTINUOUS
 62
     7
  5
6E6
 10
396.4115
 20
-0.8055
 30
0.0
 40
2.5
  1
ROUND-HEAD BOLTS HEX. NUTS
  7
MONOTXT
 11
396.4115
 21
1.6945
 31
0.0
210
0.0
220
0.0
230
1.0
 73
     3
  0
TEXT
  8
1
  6
CONTINUOUS
 62
     7
  5
6E7
 10
396.4115
 20
-5.3055
 30
0.0
 40
2.5
  1
AND LOCKWASHERS
  7
MONOTXT
 11
396.4115
 21
-2.8055
 31
0.0
210
0.0
220
0.0
230
1.0
 73
     3
  0
TEXT
  8
1
  6
CONTINUOUS
 62
     7
  5
6E8
 10
393.603583
 20
-26.500583
 30
0.0
 40
2.5
  1
NYLON WASHER AND
  7
MONOTXT
 11
393.603583
 21
-24.000583
 31
0.0
210
0.0
220
0.0
230
1.0
 73
     3
  0
TEXT
  8
1
  6
CONTINUOUS
 62
     7
  5
6E9
 10
393.603583
 20
-31.000583
 30
0.0
 40
2.5
  1
CADMIUM PLATED OR
  7
MONOTXT
 11
393.603583
 21
-28.500583
 31
0.0
210
0.0
220
0.0
230
1.0
 73
     3
  0
TEXT
  8
1
  6
CONTINUOUS
 62
     7
  5
6EA
 10
393.603583
 20
-35.500583
 30
0.0
 40
2.5
  1
ZINC PLATED WASHER
  7
MONOTXT
 11
393.603583
 21
-33.000583
 31
0.0
210
0.0
220
0.0
230
1.0
 73
     3
  0
TEXT
  8
1
  6
CONTINUOUS
 62
     7
  5
6EB
 10
264.20475
 20
-25.096167
 30
0.0
 40
2.5
  1
NYLON WASHER AND
  7
MONOTXT
 11
264.20475
 21
-22.596167
 31
0.0
210
0.0
220
0.0
230
1.0
 73
     3
  0
TEXT
  8
1
  6
CONTINUOUS
 62
     7
  5
6EC
 10
264.20475
 20
-29.596167
 30
0.0
 40
2.5
  1
CADMIUM PLATED OR
  7
MONOTXT
 11
264.20475
 21
-27.096167
 31
0.0
210
0.0
220
0.0
230
1.0
 73
     3
  0
TEXT
  8
1
  6
CONTINUOUS
 62
     7
  5
6ED
 10
264.20475
 20
-34.096167
 30
0.0
 40
2.5
  1
ZINC PLATED WASHER
  7
MONOTXT
 11
264.20475
 21
-31.596167
 31
0.0
210
0.0
220
0.0
230
1.0
 73
     3
  0
TEXT
  8
1
  6
CONTINUOUS
 62
     7
  5
6EE
 10
322.220333
 20
-211.072917
 30
0.0
 40
2.5
  1
.125" ALUMINUM PLATE
  7
MONOTXT
 72
     4
 11
344.0805
 21
-209.822917
 31
0.0
210
0.0
220
0.0
230
1.0
  0
LINE
  8
1
  6
CONTINUOUS
 62
     7
  5
6EF
 10
326.21825
 20
-156.116583
 30
0.0
 11
315.101833
 21
-117.299667
 31
0.0
  0
LINE
  8
1
  6
CONTINUOUS
 62
     7
  5
6F0
 10
315.101833
 20
-117.299667
 30
0.0
 11
324.166667
 21
-117.299667
 31
0.0
  0
INSERT
  8
1
  6
CONTINUOUS
 62
     1
  5
6F1
  2
LDR
 10
326.21825
 20
-156.116583
 30
0.0
 41
240.000001
 42
240.000001
 50
285.980692
210
0.0
220
0.0
230
1.0
  0
LINE
  8
1
  6
CONTINUOUS
 62
     3
  5
6F2
 10
332.7465
 20
-153.486667
 30
0.0
 11
332.7465
 21
-163.486667
 31
0.0
  0
LINE
  8
1
  6
CONTINUOUS
 62
     3
  5
6F3
 10
332.7465
 20
-176.506333
 30
0.0
 11
332.7465
 21
-186.506333
 31
0.0
  0
LINE
  8
1
  6
CONTINUOUS
 62
     7
  5
6F4
 10
332.7465
 20
-157.486667
 30
0.0
 11
325.84575
 21
-140.726417
 31
0.0
  0
LINE
  8
1
  6
CONTINUOUS
 62
     7
  5
6F5
 10
325.84575
 20
-140.726417
 30
0.0
 11
329.606333
 21
-140.726417
 31
0.0
  0
INSERT
  8
1
  6
CONTINUOUS
 62
     1
  5
6F6
  2
LDR
 10
332.7465
 20
-157.486667
 30
0.0
 41
239.999998
 42
239.999998
 50
292.378588
210
0.0
220
0.0
230
1.0
  0
LINE
  8
1
  6
CONTINUOUS
 62
     7
  5
6F7
 10
314.68975
 20
-193.2465
 30
0.0
 11
315.058583
 21
-209.89
 31
0.0
  0
LINE
  8
1
  6
CONTINUOUS
 62
     7
  5
6F8
 10
372.68975
 20
-193.2465
 30
0.0
 11
372.320833
 21
-209.89
 31
0.0
  0
INSERT
  8
1
  6
CONTINUOUS
 62
     1
  5
6F9
  2
LDR
 10
314.68975
 20
-193.2465
 30
0.0
 41
239.999998
 42
239.999998
 50
91.26975
210
0.0
220
0.0
230
1.0
  0
INSERT
  8
1
  6
CONTINUOUS
 62
     1
  5
6FA
  2
LDR
 10
372.68975
 20
-193.2465
 30
0.0
 41
239.999998
 42
239.999998
 50
88.73025
210
0.0
220
0.0
230
1.0
  0
LINE
  8
1
  6
CONTINUOUS
 62
     7
  5
6FB
 10
315.014333
 20
-209.861167
 30
0.0
 11
321.490083
 21
-209.861167
 31
0.0
  0
LINE
  8
1
  6
CONTINUOUS
 62
     7
  5
6FC
 10
366.651
 20
-209.89
 30
0.0
 11
372.365167
 21
-209.89
 31
0.0
  0
TEXT
  8
1
  6
CONTINUOUS
 62
     7
  5
6FD
 10
325.409417
 20
-116.206667
 30
0.0
 40
2.5
  1
1-3/4"x1-3/4" 12 GA. SQUARE STEEL POST (6# POST)
  7
MONOTXT
 11
325.409417
 21
-113.706667
 31
0.0
210
0.0
220
0.0
230
1.0
 73
     3
  0
TEXT
  8
1
  6
CONTINUOUS
 62
     7
  5
6FE
 10
325.409417
 20
-120.706667
 30
0.0
 40
2.5
  1
1-1/2"x1-1/2" 12 GA. SQUARE STEEL POST (4# POST)
  7
MONOTXT
 11
325.409417
 21
-118.206667
 31
0.0
210
0.0
220
0.0
230
1.0
 73
     3
  0
TEXT
  8
1
  6
CONTINUOUS
 62
     7
  5
6FF
 10
331.025333
 20
-139.145583
 30
0.0
 40
2.5
  1
 7/16 " DIA. HOLES,
  7
MONOTXT
 11
331.025333
 21
-136.645583
 31
0.0
210
0.0
220
0.0
230
1.0
 73
     3
  0
TEXT
  8
1
  6
CONTINUOUS
 62
     7
  5
700
 10
331.025333
 20
-143.645583
 30
0.0
 40
2.5
  1
1" C/C TYP.
  7
MONOTXT
 11
331.025333
 21
-141.145583
 31
0.0
210
0.0
220
0.0
230
1.0
 73
     3
  0
LINE
  8
1
  6
CONTINUOUS
 62
     7
  5
701
 10
322.2465
 20
-171.9965
 30
0.0
 11
324.622667
 21
-188.3415
 31
0.0
  0
LINE
  8
1
  6
CONTINUOUS
 62
     7
  5
702
 10
324.622667
 20
-188.3415
 30
0.0
 11
327.713417
 21
-188.3415
 31
0.0
  0
INSERT
  8
1
  6
CONTINUOUS
 62
     1
  5
703
  2
LDR
 10
322.2465
 20
-171.9965
 30
0.0
 41
239.999999
 42
239.999999
 50
98.271441
210
0.0
220
0.0
230
1.0
  0
TEXT
  8
1
  6
CONTINUOUS
 62
     7
  5
704
 10
329.0305
 20
-189.875333
 30
0.0
 40
2.5
  1
 5/16 " STEEL HEX.
  7
MONOTXT
 11
329.0305
 21
-187.375333
 31
0.0
210
0.0
220
0.0
230
1.0
 73
     3
  0
TEXT
  8
1
  6
CONTINUOUS
 62
     7
  5
705
 10
329.0305
 20
-194.375333
 30
0.0
 40
2.5
  1
HEAD BOLTS WITH
  7
MONOTXT
 11
329.0305
 21
-191.875333
 31
0.0
210
0.0
220
0.0
230
1.0
 73
     3
  0
TEXT
  8
1
  6
CONTINUOUS
 62
     7
  5
706
 10
329.0305
 20
-198.875333
 30
0.0
 40
2.5
  1
HEX. NUTS AND
  7
MONOTXT
 11
329.0305
 21
-196.375333
 31
0.0
210
0.0
220
0.0
230
1.0
 73
     3
  0
TEXT
  8
1
  6
CONTINUOUS
 62
     7
  5
707
 10
329.0305
 20
-203.375333
 30
0.0
 40
2.5
  1
LOCKWASHERS
  7
MONOTXT
 11
329.0305
 21
-200.875333
 31
0.0
210
0.0
220
0.0
230
1.0
 73
     3
  0
TEXT
  8
1
  6
CONTINUOUS
 62
     7
  5
708
 10
213.515167
 20
-188.75925
 30
0.0
 40
2.5
  1
STRUCTURAL SUPPORT
  7
MONOTXT
 72
     4
 11
235.316333
 21
-187.50925
 31
0.0
210
0.0
220
0.0
230
1.0
  0
TEXT
  8
1
  6
CONTINUOUS
 62
     7
  5
709
 10
218.623417
 20
-193.25925
 30
0.0
 40
2.5
  1
(4# OR 6# POST)
  7
MONOTXT
 72
     4
 11
235.306417
 21
-192.00925
 31
0.0
210
0.0
220
0.0
230
1.0
  0
LINE
  8
1
  6
CONTINUOUS
 62
     7
  5
70A
 10
542.941417
 20
-46.755
 30
0.0
 11
556.511583
 21
-30.691917
 31
0.0
  0
LINE
  8
1
  6
CONTINUOUS
 62
     7
  5
70B
 10
556.511583
 20
-30.691917
 30
0.0
 11
546.749833
 21
-30.691917
 31
0.0
  0
LINE
  8
1
  6
CONTINUOUS
 62
     7
  5
70C
 10
526.977417
 20
-54.62
 30
0.0
 11
516.766
 21
-54.62
 31
0.0
  0
LINE
  8
1
  6
CONTINUOUS
 62
     7
  5
70D
 10
517.976
 20
-59.46
 30
0.0
 11
517.976
 21
-54.62
 31
0.0
  0
LINE
  8
1
  6
CONTINUOUS
 62
     7
  5
70E
 10
517.976
 20
-46.755
 30
0.0
 11
517.976
 21
-41.915
 31
0.0
  0
LINE
  8
1
  6
CONTINUOUS
 62
     7
  5
70F
 10
475.552417
 20
-46.755
 30
0.0
 11
456.96175
 21
-46.755
 31
0.0
  0
LINE
  8
1
  6
CONTINUOUS
 62
     7
  5
710
 10
523.952417
 20
-113.13075
 30
0.0
 11
456.96175
 21
-113.13075
 31
0.0
  0
LINE
  8
1
  6
CONTINUOUS
 62
     7
  5
711
 10
458.17175
 20
-46.755
 30
0.0
 11
458.17175
 21
-113.13075
 31
0.0
  0
LINE
  8
1
  6
CONTINUOUS
 62
     7
  5
712
 10
525.162417
 20
-85.475
 30
0.0
 11
507.75125
 21
-85.475
 31
0.0
  0
LINE
  8
1
  6
CONTINUOUS
 62
     7
  5
713
 10
508.96125
 20
-85.475
 30
0.0
 11
508.96125
 21
-113.13075
 31
0.0
  0
LINE
  8
1
  6
CONTINUOUS
 62
     7
  5
714
 10
537.262417
 20
-85.475
 30
0.0
 11
546.2835
 21
-85.475
 31
0.0
  0
LINE
  8
1
  6
CONTINUOUS
 62
     7
  5
715
 10
545.0735
 20
-90.315
 30
0.0
 11
545.0735
 21
-85.475
 31
0.0
  0
LINE
  8
1
  6
CONTINUOUS
 62
     7
  5
716
 10
545.0735
 20
-83.055
 30
0.0
 11
545.0735
 21
-78.215
 31
0.0
  0
LINE
  8
1
  6
CONTINUOUS
 62
     7
  5
717
 10
545.0735
 20
-90.315
 30
0.0
 11
549.698917
 21
-90.315
 31
0.0
  0
TEXT
  8
1
  6
CONTINUOUS
 62
     7
  5
718
 10
510.880083
 20
-32.088333
 30
0.0
 40
2.5
  1
"ONE WAY" SIGNS
  7
MONOTXT
 72
     4
 11
527.956833
 21
-30.838333
 31
0.0
210
0.0
220
0.0
230
1.0
  0
TEXT
  8
1
  6
CONTINUOUS
 62
     7
  5
719
 10
509.498167
 20
-51.998333
 30
0.0
 40
2.5
  1
2" TYP.
  7
MONOTXT
 72
     4
 11
516.712667
 21
-50.748333
 31
0.0
210
0.0
220
0.0
230
1.0
  0
TEXT
  8
1
  6
CONTINUOUS
 62
     7
  5
71A
 10
551.350417
 20
-91.14175
 30
0.0
 40
2.5
  1
1" TYP.
  7
MONOTXT
 72
     4
 11
558.033417
 21
-89.89175
 31
0.0
210
0.0
220
0.0
230
1.0
  0
TEXT
  8
1
  6
CONTINUOUS
 62
     7
  5
71B
 10
456.101667
 20
-86.281917
 30
0.0
 40
2.5
  1
22" TYP.
 50
90.0
  7
MONOTXT
 72
     4
 11
454.851667
 21
-77.82725
 31
0.0
210
0.0
220
0.0
230
1.0
  0
TEXT
  8
1
  6
CONTINUOUS
 62
     7
  5
71C
 10
506.811417
 20
-106.408583
 30
0.0
 40
2.5
  1
9" TYP.
 50
90.0
  7
MONOTXT
 72
     4
 11
505.561417
 21
-99.253083
 31
0.0
210
0.0
220
0.0
230
1.0
  0
LINE
  8
1
  6
CONTINUOUS
 62
     7
  5
71D
 10
537.262417
 20
-140.53
 30
0.0
 11
542.102417
 21
-140.53
 31
0.0
  0
TEXT
  8
1
  6
CONTINUOUS
 62
     7
  5
71E
 10
543.238667
 20
-140.63325
 30
0.0
 40
2.5
  1
"DO NOT ENTER" SIGN
  7
MONOTXT
 72
     4
 11
565.098833
 21
-139.38325
 31
0.0
210
0.0
220
0.0
230
1.0
  0
POLYLINE
  8
1
  6
CONTINUOUS
 62
     7
  5
71F
 66
     1
 10
0.0
 20
0.0
 30
0.0
  0
VERTEX
  8
1
  6
CONTINUOUS
 62
     7
  5
720
 10
446.033417
 20
-262.3775
 30
0.0
  0
VERTEX
  8
1
  6
CONTINUOUS
 62
     7
  5
721
 10
444.033417
 20
-265.841583
 30
0.0
  0
VERTEX
  8
1
  6
CONTINUOUS
 62
     7
  5
722
 10
448.033417
 20
-265.841583
 30
0.0
  0
VERTEX
  8
1
  6
CONTINUOUS
 62
     7
  5
723
 10
446.033417
 20
-262.3775
 30
0.0
  0
SEQEND
  8
1
  6
CONTINUOUS
 62
     7
  5
724
  0
POLYLINE
  8
1
  6
CONTINUOUS
 62
     7
  5
725
 66
     1
 10
0.0
 20
0.0
 30
0.0
  0
VERTEX
  8
1
  6
CONTINUOUS
 62
     7
  5
726
 10
449.597
 20
-319.284833
 30
0.0
  0
VERTEX
  8
1
  6
CONTINUOUS
 62
     7
  5
727
 10
447.597
 20
-322.748917
 30
0.0
  0
VERTEX
  8
1
  6
CONTINUOUS
 62
     7
  5
728
 10
451.597
 20
-322.748917
 30
0.0
  0
VERTEX
  8
1
  6
CONTINUOUS
 62
     7
  5
729
 10
449.597
 20
-319.284833
 30
0.0
  0
SEQEND
  8
1
  6
CONTINUOUS
 62
     7
  5
72A
  0
TEXT
  8
1
  6
CONTINUOUS
 62
     7
  5
72B
 10
445.53725
 20
-265.312417
 30
0.0
 40
1.5
  1
2
  7
MONOTXT
 72
     4
 11
446.039167
 21
-264.562417
 31
0.0
210
0.0
220
0.0
230
1.0
  0
TEXT
  8
1
  6
CONTINUOUS
 62
     7
  5
72C
 10
449.419833
 20
-322.119
 30
0.0
 40
1.5
  1
1
  7
MONOTXT
 72
     4
 11
449.597
 21
-321.369
 31
0.0
210
0.0
220
0.0
230
1.0
  0
TEXT
  8
1
  6
CONTINUOUS
 62
     7
  5
72D
 10
74.966833
 20
-301.135917
 30
0.0
 40
4.0
  1
"ONE WAY", "STOP", "DO NOT ENTER",
  7
MONOTXT
 72
     4
 11
135.581
 21
-299.135917
 31
0.0
210
0.0
220
0.0
230
1.0
  0
TEXT
  8
1
  6
CONTINUOUS
 62
     7
  5
72E
 10
106.762083
 20
-308.135917
 30
0.0
 40
4.0
  1
SIGN INSTALLATION
  7
MONOTXT
 72
     4
 11
135.59675
 21
-306.135917
 31
0.0
210
0.0
220
0.0
230
1.0
  0
TEXT
  8
1
  6
CONTINUOUS
 62
     7
  5
72F
 10
330.0955
 20
-71.429917
 30
0.0
 40
4.0
  1
SECTION A-A
  7
MONOTXT
 72
     4
 11
349.9065
 21
-69.429917
 31
0.0
210
0.0
220
0.0
230
1.0
  0
TEXT
  8
1
  6
CONTINUOUS
 62
     7
  5
730
 10
322.920583
 20
-229.32975
 30
0.0
 40
4.0
  1
SECTION B-B
  7
MONOTXT
 72
     4
 11
342.621333
 21
-227.32975
 31
0.0
210
0.0
220
0.0
230
1.0
  0
TEXT
  8
1
  6
CONTINUOUS
 62
     7
  5
731
 10
485.423417
 20
-247.92275
 30
0.0
 40
4.0
  1
"ONE WAY", "DO NOT ENTER"
  7
MONOTXT
 72
     4
 11
531.738417
 21
-245.92275
 31
0.0
210
0.0
220
0.0
230
1.0
  0
TEXT
  8
1
  6
CONTINUOUS
 62
     7
  5
732
 10
502.9195
 20
-254.92275
 30
0.0
 40
4.0
  1
SIGN INSTALLATION
  7
MONOTXT
 72
     4
 11
531.754167
 21
-252.92275
 31
0.0
210
0.0
220
0.0
230
1.0
  0
LINE
  8
1
  6
CONTINUOUS
 62
     7
  5
733
 10
328.90875
 20
-72.598917
 30
0.0
 11
370.976583
 21
-72.598917
 31
0.0
  0
LINE
  8
1
  6
CONTINUOUS
 62
     7
  5
734
 10
321.53075
 20
-231.93275
 30
0.0
 11
363.598583
 21
-231.93275
 31
0.0
  0
LINE
  8
1
  6
CONTINUOUS
 62
     7
  5
735
 10
484.66925
 20
-249.335333
 30
0.0
 11
579.894667
 21
-249.335333
 31
0.0
  0
LINE
  8
1
  6
CONTINUOUS
 62
     7
  5
736
 10
501.832583
 20
-256.22125
 30
0.0
 11
562.5925
 21
-256.22125
 31
0.0
  0
LINE
  8
1
  6
CONTINUOUS
 62
     7
  5
737
 10
73.158167
 20
-302.680167
 30
0.0
 11
199.221333
 21
-302.680167
 31
0.0
  0
LINE
  8
1
  6
CONTINUOUS
 62
     7
  5
738
 10
105.168167
 20
-309.6535
 30
0.0
 11
166.6275
 21
-309.6535
 31
0.0
  0
LINE
  8
1
  6
CONTINUOUS
 62
     7
  5
739
 10
485.561167
 20
21.943
 30
0.0
 11
500.766417
 21
21.943
 31
0.0
  0
LINE
  8
1
  6
CONTINUOUS
 62
     7
  5
73A
 10
485.98675
 20
13.214917
 30
0.0
 11
507.420667
 21
13.214917
 31
0.0
  0
LINE
  8
1
  6
CONTINUOUS
 62
     7
  5
73B
 10
222.123083
 20
-253.2765
 30
0.0
 11
262.404833
 21
-253.2765
 31
0.0
  0
INSERT
  8
1
  6
CONTINUOUS
 62
     1
  5
73C
  2
LDR
 10
215.568
 20
10.034667
 30
0.0
 41
239.999997
 42
239.999997
 50
232.134707
210
0.0
220
0.0
230
1.0
  0
INSERT
  8
1
  6
CONTINUOUS
 62
     1
  5
73D
  2
LDR
 10
215.568
 20
10.034667
 30
0.0
 41
239.999997
 42
239.999997
 50
232.134707
210
0.0
220
0.0
230
1.0
  0
INSERT
  8
1
  6
CONTINUOUS
 62
     1
  5
73E
  2
LDR
 10
188.129333
 20
10.034667
 30
0.0
 41
240.0
 42
240.0
 50
270.0
210
0.0
220
0.0
230
1.0
  0
INSERT
  8
1
  6
CONTINUOUS
 62
     1
  5
73F
  2
LDR
 10
188.129333
 20
10.034667
 30
0.0
 41
240.0
 42
240.0
 50
270.0
210
0.0
220
0.0
230
1.0
  0
INSERT
  8
1
  6
CONTINUOUS
 62
     1
  5
740
  2
LDR
 10
188.129333
 20
2.169667
 30
0.0
 41
240.0
 42
240.0
 50
90.0
210
0.0
220
0.0
230
1.0
  0
INSERT
  8
1
  6
CONTINUOUS
 62
     1
  5
741
  2
LDR
 10
188.129333
 20
2.169667
 30
0.0
 41
240.0
 42
240.0
 50
90.0
210
0.0
220
0.0
230
1.0
  0
INSERT
  8
1
  6
CONTINUOUS
 62
     1
  5
742
  2
LDR
 10
124.366
 20
10.034667
 30
0.0
 41
240.0
 42
240.0
 50
90.0
210
0.0
220
0.0
230
1.0
  0
INSERT
  8
1
  6
CONTINUOUS
 62
     1
  5
743
  2
LDR
 10
124.366
 20
-8.115333
 30
0.0
 41
240.0
 42
240.0
 50
270.0
210
0.0
220
0.0
230
1.0
  0
INSERT
  8
1
  6
CONTINUOUS
 62
     1
  5
744
  2
LDR
 10
150.782667
 20
-12.955333
 30
0.0
 41
240.0
 42
240.0
 50
180.0
210
0.0
220
0.0
230
1.0
  0
INSERT
  8
1
  6
CONTINUOUS
 62
     1
  5
745
  2
LDR
 10
150.782667
 20
-12.955333
 30
0.0
 41
240.0
 42
240.0
 50
180.0
210
0.0
220
0.0
230
1.0
  0
INSERT
  8
1
  6
CONTINUOUS
 62
     1
  5
746
  2
LDR
 10
145.942667
 20
-12.955333
 30
0.0
 41
240.0
 42
240.0
210
0.0
220
0.0
230
1.0
  0
INSERT
  8
1
  6
CONTINUOUS
 62
     1
  5
747
  2
LDR
 10
145.942667
 20
-12.955333
 30
0.0
 41
240.0
 42
240.0
210
0.0
220
0.0
230
1.0
  0
INSERT
  8
1
  6
CONTINUOUS
 62
     1
  5
748
  2
LDR
 10
216.53475
 20
-26.265333
 30
0.0
 41
240.0
 42
240.0
 50
270.0
210
0.0
220
0.0
230
1.0
  0
INSERT
  8
1
  6
CONTINUOUS
 62
     1
  5
749
  2
LDR
 10
216.53475
 20
-26.265333
 30
0.0
 41
240.0
 42
240.0
 50
270.0
210
0.0
220
0.0
230
1.0
  0
INSERT
  8
1
  6
CONTINUOUS
 62
     1
  5
74A
  2
LDR
 10
216.53475
 20
-28.685333
 30
0.0
 41
240.0
 42
240.0
 50
90.0
210
0.0
220
0.0
230
1.0
  0
INSERT
  8
1
  6
CONTINUOUS
 62
     1
  5
74B
  2
LDR
 10
183.981
 20
-35.340333
 30
0.0
 41
240.0
 42
240.0
 50
90.0
210
0.0
220
0.0
230
1.0
  0
INSERT
  8
1
  6
CONTINUOUS
 62
     1
  5
74C
  2
LDR
 10
183.981
 20
-35.340333
 30
0.0
 41
240.0
 42
240.0
 50
90.0
210
0.0
220
0.0
230
1.0
  0
INSERT
  8
1
  6
CONTINUOUS
 62
     1
  5
74D
  2
LDR
 10
183.981
 20
-83.740333
 30
0.0
 41
240.0
 42
240.0
 50
270.0
210
0.0
220
0.0
230
1.0
  0
INSERT
  8
1
  6
CONTINUOUS
 62
     1
  5
74E
  2
LDR
 10
183.981
 20
-83.740333
 30
0.0
 41
240.0
 42
240.0
 50
270.0
210
0.0
220
0.0
230
1.0
  0
INSERT
  8
1
  6
CONTINUOUS
 62
     1
  5
74F
  2
LDR
 10
202.207667
 20
-58.784083
 30
0.0
 41
240.0
 42
240.0
 50
129.616195
210
0.0
220
0.0
230
1.0
  0
INSERT
  8
1
  6
CONTINUOUS
 62
     1
  5
750
  2
LDR
 10
202.207667
 20
-58.784083
 30
0.0
 41
240.0
 42
240.0
 50
129.616195
210
0.0
220
0.0
230
1.0
  0
INSERT
  8
1
  6
CONTINUOUS
 62
     1
  5
751
  2
LDR
 10
202.207667
 20
-96.294083
 30
0.0
 41
240.0
 42
240.0
 50
230.383805
210
0.0
220
0.0
230
1.0
  0
INSERT
  8
1
  6
CONTINUOUS
 62
     1
  5
752
  2
LDR
 10
183.981
 20
-169.347833
 30
0.0
 41
240.0
 42
240.0
 50
90.0
210
0.0
220
0.0
230
1.0
  0
INSERT
  8
1
  6
CONTINUOUS
 62
     1
  5
753
  2
LDR
 10
183.981
 20
-169.347833
 30
0.0
 41
240.0
 42
240.0
 50
90.0
210
0.0
220
0.0
230
1.0
  0
INSERT
  8
1
  6
CONTINUOUS
 62
     1
  5
754
  2
LDR
 10
183.981
 20
-205.647833
 30
0.0
 41
240.0
 42
240.0
 50
270.0
210
0.0
220
0.0
230
1.0
  0
INSERT
  8
1
  6
CONTINUOUS
 62
     1
  5
755
  2
LDR
 10
183.981
 20
-205.647833
 30
0.0
 41
240.0
 42
240.0
 50
270.0
210
0.0
220
0.0
230
1.0
  0
INSERT
  8
1
  6
CONTINUOUS
 62
     1
  5
756
  2
LDR
 10
207.652667
 20
-187.497833
 30
0.0
 41
240.0
 42
240.0
 50
180.0
210
0.0
220
0.0
230
1.0
  0
INSERT
  8
1
  6
CONTINUOUS
 62
     1
  5
757
  2
LDR
 10
542.941417
 20
-46.755
 30
0.0
 41
240.000001
 42
240.000001
 50
229.808723
210
0.0
220
0.0
230
1.0
  0
INSERT
  8
1
  6
CONTINUOUS
 62
     1
  5
758
  2
LDR
 10
542.941417
 20
-46.755
 30
0.0
 41
240.000001
 42
240.000001
 50
229.808723
210
0.0
220
0.0
230
1.0
  0
INSERT
  8
1
  6
CONTINUOUS
 62
     1
  5
759
  2
LDR
 10
517.976
 20
-46.755
 30
0.0
 41
240.0
 42
240.0
 50
270.0
210
0.0
220
0.0
230
1.0
  0
INSERT
  8
1
  6
CONTINUOUS
 62
     1
  5
75A
  2
LDR
 10
458.17175
 20
-46.755
 30
0.0
 41
240.0
 42
240.0
 50
90.0
210
0.0
220
0.0
230
1.0
  0
INSERT
  8
1
  6
CONTINUOUS
 62
     1
  5
75B
  2
LDR
 10
458.17175
 20
-46.755
 30
0.0
 41
240.0
 42
240.0
 50
90.0
210
0.0
220
0.0
230
1.0
  0
INSERT
  8
1
  6
CONTINUOUS
 62
     1
  5
75C
  2
LDR
 10
517.976
 20
-54.62
 30
0.0
 41
240.0
 42
240.0
 50
90.0
210
0.0
220
0.0
230
1.0
  0
INSERT
  8
1
  6
CONTINUOUS
 62
     1
  5
75D
  2
LDR
 10
458.17175
 20
-113.13075
 30
0.0
 41
240.0
 42
240.0
 50
270.0
210
0.0
220
0.0
230
1.0
  0
INSERT
  8
1
  6
CONTINUOUS
 62
     1
  5
75E
  2
LDR
 10
458.17175
 20
-113.13075
 30
0.0
 41
240.0
 42
240.0
 50
270.0
210
0.0
220
0.0
230
1.0
  0
INSERT
  8
1
  6
CONTINUOUS
 62
     1
  5
75F
  2
LDR
 10
508.96125
 20
-85.475
 30
0.0
 41
240.0
 42
240.0
 50
90.0
210
0.0
220
0.0
230
1.0
  0
INSERT
  8
1
  6
CONTINUOUS
 62
     1
  5
760
  2
LDR
 10
508.96125
 20
-85.475
 30
0.0
 41
240.0
 42
240.0
 50
90.0
210
0.0
220
0.0
230
1.0
  0
INSERT
  8
1
  6
CONTINUOUS
 62
     1
  5
761
  2
LDR
 10
508.96125
 20
-113.13075
 30
0.0
 41
240.0
 42
240.0
 50
270.0
210
0.0
220
0.0
230
1.0
  0
INSERT
  8
1
  6
CONTINUOUS
 62
     1
  5
762
  2
LDR
 10
508.96125
 20
-113.13075
 30
0.0
 41
240.0
 42
240.0
 50
270.0
210
0.0
220
0.0
230
1.0
  0
INSERT
  8
1
  6
CONTINUOUS
 62
     1
  5
763
  2
LDR
 10
545.0735
 20
-83.055
 30
0.0
 41
240.0
 42
240.0
 50
270.0
210
0.0
220
0.0
230
1.0
  0
INSERT
  8
1
  6
CONTINUOUS
 62
     1
  5
764
  2
LDR
 10
545.0735
 20
-90.315
 30
0.0
 41
240.0
 42
240.0
 50
270.0
210
0.0
220
0.0
230
1.0
  0
INSERT
  8
1
  6
CONTINUOUS
 62
     1
  5
765
  2
LDR
 10
537.262417
 20
-140.53
 30
0.0
 41
240.0
 42
240.0
 50
180.0
210
0.0
220
0.0
230
1.0
  0
POLYLINE
  8
1
  6
CONTINUOUS
 62
     7
  5
766
 66
     1
 10
0.0
 20
0.0
 30
0.0
  0
VERTEX
  8
1
  6
CONTINUOUS
 62
     7
  5
767
 10
445.971417
 20
-258.097167
 30
0.0
  0
VERTEX
  8
1
  6
CONTINUOUS
 62
     7
  5
768
 10
443.971417
 20
-261.56125
 30
0.0
  0
VERTEX
  8
1
  6
CONTINUOUS
 62
     7
  5
769
 10
447.971417
 20
-261.56125
 30
0.0
  0
VERTEX
  8
1
  6
CONTINUOUS
 62
     7
  5
76A
 10
445.971417
 20
-258.097167
 30
0.0
  0
SEQEND
  8
1
  6
CONTINUOUS
 62
     7
  5
76B
  0
TEXT
  8
1
  6
CONTINUOUS
 62
     7
  5
76C
 10
445.794167
 20
-261.032083
 30
0.0
 40
1.5
  1
1
  7
MONOTXT
 72
     4
 11
445.971333
 21
-260.282083
 31
0.0
210
0.0
220
0.0
230
1.0
  0
TEXT
  8
1
  6
CONTINUOUS
 62
     7
  5
76D
 10
449.144833
 20
-260.572083
 30
0.0
 40
1.5
  1
DELETED 8# BB
  7
MONOTXT
 72
     4
 11
458.1625
 21
-259.822083
 31
0.0
210
0.0
220
0.0
230
1.0
  0
TEXT
  8
1
  6
CONTINUOUS
 62
     7
  5
76E
 10
449.397917
 20
-265.162583
 30
0.0
 40
1.5
  1
DELETED GALV. BOLT, GAVE CADMIUM PLATED SPEC.
  7
MONOTXT
 72
     4
 11
480.1715
 21
-264.412583
 31
0.0
210
0.0
220
0.0
230
1.0
  0
POLYLINE
  8
1
  6
CONTINUOUS
 62
     7
  5
76F
 66
     1
 10
0.0
 20
0.0
 30
0.0
  0
VERTEX
  8
1
  6
CONTINUOUS
 62
     7
  5
770
 10
449.633917
 20
-323.872833
 30
0.0
  0
VERTEX
  8
1
  6
CONTINUOUS
 62
     7
  5
771
 10
447.633917
 20
-327.336917
 30
0.0
  0
VERTEX
  8
1
  6
CONTINUOUS
 62
     7
  5
772
 10
451.633917
 20
-327.336917
 30
0.0
  0
VERTEX
  8
1
  6
CONTINUOUS
 62
     7
  5
773
 10
449.633917
 20
-323.872833
 30
0.0
  0
SEQEND
  8
1
  6
CONTINUOUS
 62
     7
  5
774
  0
TEXT
  8
1
  6
CONTINUOUS
 62
     7
  5
775
 10
449.137833
 20
-326.707
 30
0.0
 40
1.5
  1
2
  7
MONOTXT
 72
     4
 11
449.63975
 21
-325.957
 31
0.0
210
0.0
220
0.0
230
1.0
  0
TEXT
  8
1
  6
CONTINUOUS
 62
     7
  5
776
 10
71.595333
 20
-72.063083
 30
0.0
 40
2.5
  1
NYLON WASHER AND
  7
MONOTXT
 72
     4
 11
91.3295
 21
-70.813083
 31
0.0
210
0.0
220
0.0
230
1.0
  0
TEXT
  8
1
  6
CONTINUOUS
 62
     7
  5
777
 10
66.16225
 20
-76.563083
 30
0.0
 40
2.5
  1
CADMIUM PLATED WASHER
  7
MONOTXT
 72
     4
 11
91.329583
 21
-75.313083
 31
0.0
210
0.0
220
0.0
230
1.0
  0
TEXT
  8
1
  6
CONTINUOUS
 62
     7
  5
778
 10
224.291167
 20
-76.473083
 30
0.0
 40
2.5
  1
 5/16 " CADMIUM PLATED HEX. NUTS
  7
MONOTXT
 11
224.291167
 21
-73.973083
 31
0.0
210
0.0
220
0.0
230
1.0
 73
     3
  0
TEXT
  8
1
  6
CONTINUOUS
 62
     7
  5
779
 10
224.291167
 20
-80.973083
 30
0.0
 40
2.5
  1
AND LOCKWASHERS TYP.
  7
MONOTXT
 11
224.291167
 21
-78.473083
 31
0.0
210
0.0
220
0.0
230
1.0
 73
     3
  0
TEXT
  8
1
  6
CONTINUOUS
 62
     7
  5
77A
 10
222.788083
 20
-252.458167
 30
0.0
 40
2.5
  1
TUBULAR SUPPORTS
  7
MONOTXT
 11
222.788083
 21
-249.958167
 31
0.0
210
0.0
220
0.0
230
1.0
 73
     3
  0
TEXT
  8
1
  6
CONTINUOUS
 62
     7
  5
77B
 10
222.788083
 20
-256.958167
 30
0.0
 40
2.5
  1
 
  7
MONOTXT
 11
222.788083
 21
-254.458167
 31
0.0
210
0.0
220
0.0
230
1.0
 73
     3
  0
TEXT
  8
1
  6
CONTINUOUS
 62
     7
  5
77C
 10
222.788083
 20
-261.458167
 30
0.0
 40
2.5
  1
TUBULAR SUPPORTS SHALL BE FABRICATED FROM COLD ROLLED
  7
MONOTXT
 11
222.788083
 21
-258.958167
 31
0.0
210
0.0
220
0.0
230
1.0
 73
     3
  0
TEXT
  8
1
  6
CONTINUOUS
 62
     7
  5
77D
 10
222.788083
 20
-265.958167
 30
0.0
 40
2.5
  1
STEEL CONFORMING TO C-1010. THE CROSS SECTION OF THE 
  7
MONOTXT
 11
222.788083
 21
-263.458167
 31
0.0
210
0.0
220
0.0
230
1.0
 73
     3
  0
TEXT
  8
1
  6
CONTINUOUS
 62
     7
  5
77E
 10
222.788083
 20
-270.458167
 30
0.0
 40
2.5
  1
POST SHALL BE A SQUARE TUBE FORMED OF 12 GAUGE STEEL
  7
MONOTXT
 11
222.788083
 21
-267.958167
 31
0.0
210
0.0
220
0.0
230
1.0
 73
     3
  0
TEXT
  8
1
  6
CONTINUOUS
 62
     7
  5
77F
 10
222.788083
 20
-274.958167
 30
0.0
 40
2.5
  1
ROLLED TO SIZE AND WELDED IN THE CORNER. THE MEMBERS
  7
MONOTXT
 11
222.788083
 21
-272.458167
 31
0.0
210
0.0
220
0.0
230
1.0
 73
     3
  0
TEXT
  8
1
  6
CONTINUOUS
 62
     7
  5
780
 10
222.788083
 20
-279.458167
 30
0.0
 40
2.5
  1
SHALL BE STRAIGHT AND HAVE A SMOOTH UNIFORM FINISH.
  7
MONOTXT
 11
222.788083
 21
-276.958167
 31
0.0
210
0.0
220
0.0
230
1.0
 73
     3
  0
TEXT
  8
1
  6
CONTINUOUS
 62
     7
  5
781
 10
222.788083
 20
-283.958167
 30
0.0
 40
2.5
  1
NOMINAL SIZE OF TUBE SHALL BE 1-3/4"x1-3/4". TUBES SHALL
  7
MONOTXT
 11
222.788083
 21
-281.458167
 31
0.0
210
0.0
220
0.0
230
1.0
 73
     3
  0
TEXT
  8
1
  6
CONTINUOUS
 62
     7
  5
782
 10
222.788083
 20
-288.458167
 30
0.0
 40
2.5
  1
BE GALVANIZED IN ACCORDANCE WITH ASTM A-525 COATING
  7
MONOTXT
 11
222.788083
 21
-285.958167
 31
0.0
210
0.0
220
0.0
230
1.0
 73
     3
  0
TEXT
  8
1
  6
CONTINUOUS
 62
     7
  5
783
 10
222.788083
 20
-292.958167
 30
0.0
 40
2.5
  1
DESIGNATION G90.
  7
MONOTXT
 11
222.788083
 21
-290.458167
 31
0.0
210
0.0
220
0.0
230
1.0
 73
     3
  0
TEXT
  8
1
  6
CONTINUOUS
 62
     7
  5
784
 10
222.788083
 20
-297.458167
 30
0.0
 40
2.5
  1
 
  7
MONOTXT
 11
222.788083
 21
-294.958167
 31
0.0
210
0.0
220
0.0
230
1.0
 73
     3
  0
TEXT
  8
1
  6
CONTINUOUS
 62
     7
  5
785
 10
222.788083
 20
-301.958167
 30
0.0
 40
2.5
  1
CADIUM PLATED BOLTS SHALL MEET THE REQUIREMENTS OF
  7
MONOTXT
 11
222.788083
 21
-299.458167
 31
0.0
210
0.0
220
0.0
230
1.0
 73
     3
  0
TEXT
  8
1
  6
CONTINUOUS
 62
     7
  5
786
 10
222.788083
 20
-306.458167
 30
0.0
 40
2.5
  1
ASTM B766, CLASS 8, TYPE 2.
  7
MONOTXT
 11
222.788083
 21
-303.958167
 31
0.0
210
0.0
220
0.0
230
1.0
 73
     3
  0
TEXT
  8
1
  6
CONTINUOUS
 62
     7
  5
787
 10
222.788083
 20
-310.958167
 30
0.0
 40
2.5
  1
 
  7
MONOTXT
 11
222.788083
 21
-308.458167
 31
0.0
210
0.0
220
0.0
230
1.0
 73
     3
  0
TEXT
  8
1
  6
CONTINUOUS
 62
     7
  5
788
 10
222.788083
 20
-315.458167
 30
0.0
 40
2.5
  1
BRACKETS (T, L, AND SQUARE) SHALL BE FABRICATED FROM STEEL
  7
MONOTXT
 11
222.788083
 21
-312.958167
 31
0.0
210
0.0
220
0.0
230
1.0
 73
     3
  0
TEXT
  8
1
  6
CONTINUOUS
 62
     7
  5
789
 10
222.788083
 20
-319.958167
 30
0.0
 40
2.5
  1
CONFORMING TO C-1010. GALVANIZATION SHALL BE IN ACCORDANCE
  7
MONOTXT
 11
222.788083
 21
-317.458167
 31
0.0
210
0.0
220
0.0
230
1.0
 73
     3
  0
TEXT
  8
1
  6
CONTINUOUS
 62
     7
  5
78A
 10
222.788083
 20
-324.458167
 30
0.0
 40
2.5
  1
WITH ASTM A-525 COATING DESIGNATION G90.
  7
MONOTXT
 11
222.788083
 21
-321.958167
 31
0.0
210
0.0
220
0.0
230
1.0
 73
     3
  0
TEXT
  8
1
  6
CONTINUOUS
 62
     7
  5
78B
 10
222.788083
 20
-328.958167
 30
0.0
 40
2.5
  1
 
  7
MONOTXT
 11
222.788083
 21
-326.458167
 31
0.0
210
0.0
220
0.0
230
1.0
 73
     3
  0
TEXT
  8
1
  6
CONTINUOUS
 62
     7
  5
78C
 10
222.788083
 20
-333.458167
 30
0.0
 40
2.5
  1
PAYMENT FOR TUBULAR SUPPORTS SHALL BE INCIDENTAL TO THE
  7
MONOTXT
 11
222.788083
 21
-330.958167
 31
0.0
210
0.0
220
0.0
230
1.0
 73
     3
  0
TEXT
  8
1
  6
CONTINUOUS
 62
     7
  5
78D
 10
222.788083
 20
-337.958167
 30
0.0
 40
2.5
  1
AMOUNT BID FOR CHANNEL POSTS.
  7
MONOTXT
 11
222.788083
 21
-335.458167
 31
0.0
210
0.0
220
0.0
230
1.0
 73
     3
  0
TEXT
  8
1
  6
CONTINUOUS
 62
     7
  5
78E
 10
487.050833
 20
23.061917
 30
0.0
 40
2.5
  1
NOTES:
  7
MONOTXT
 11
487.050833
 21
25.561917
 31
0.0
210
0.0
220
0.0
230
1.0
 73
     3
  0
TEXT
  8
1
  6
CONTINUOUS
 62
     7
  5
78F
 10
487.050833
 20
18.561917
 30
0.0
 40
2.5
  1
 
  7
MONOTXT
 11
487.050833
 21
21.061917
 31
0.0
210
0.0
220
0.0
230
1.0
 73
     3
  0
TEXT
  8
1
  6
CONTINUOUS
 62
     7
  5
790
 10
487.050833
 20
14.061917
 30
0.0
 40
2.5
  1
MATERIALS
  7
MONOTXT
 11
487.050833
 21
16.561917
 31
0.0
210
0.0
220
0.0
230
1.0
 73
     3
  0
TEXT
  8
1
  6
CONTINUOUS
 62
     7
  5
791
 10
487.050833
 20
9.561917
 30
0.0
 40
2.5
  1
ALL SIGN MATERIALS SHALL BE IN ACCORDANCE WITH
  7
MONOTXT
 11
487.050833
 21
12.061917
 31
0.0
210
0.0
220
0.0
230
1.0
 73
     3
  0
TEXT
  8
1
  6
CONTINUOUS
 62
     7
  5
792
 10
487.050833
 20
5.061917
 30
0.0
 40
2.5
  1
SECTION 661.
  7
MONOTXT
 11
487.050833
 21
7.561917
 31
0.0
210
0.0
220
0.0
230
1.0
 73
     3
  0
TEXT
  8
1
  6
CONTINUOUS
 62
     7
  5
793
 10
487.050833
 20
0.561917
 30
0.0
 40
2.5
  1
 
  7
MONOTXT
 11
487.050833
 21
3.061917
 31
0.0
210
0.0
220
0.0
230
1.0
 73
     3
  0
TEXT
  8
1
  6
CONTINUOUS
 62
     7
  5
794
 10
487.050833
 20
-3.938083
 30
0.0
 40
2.5
  1
ALL STRUCTURAL MATERIALS SHALL BE IN ACCORDANCE
  7
MONOTXT
 11
487.050833
 21
-1.438083
 31
0.0
210
0.0
220
0.0
230
1.0
 73
     3
  0
TEXT
  8
1
  6
CONTINUOUS
 62
     7
  5
795
 10
487.050833
 20
-8.438083
 30
0.0
 40
2.5
  1
WITH SPECIAL PROVISIONS SECTION 657, EXCEPT SQUARE
  7
MONOTXT
 11
487.050833
 21
-5.938083
 31
0.0
210
0.0
220
0.0
230
1.0
 73
     3
  0
TEXT
  8
1
  6
CONTINUOUS
 62
     7
  5
796
 10
487.050833
 20
-12.938083
 30
0.0
 40
2.5
  1
TUBULAR SUPPORTS WHICH SHALL BE AS NOTED BELOW.
  7
MONOTXT
 11
487.050833
 21
-10.438083
 31
0.0
210
0.0
220
0.0
230
1.0
 73
     3
  0
ENDSEC
  0
EOF
