  0
SECTION
  2
HEADER
  9
$ACADVER
  1
AC1009
  9
$INSBASE
 10
0.0
 20
0.0
 30
0.0
  9
$EXTMIN
 10
-0.012
 20
-0.001833
 30
0.0
  9
$EXTMAX
 10
667.862167
 20
429.758333
 30
0.0
  9
$LIMMIN
 10
0.0
 20
0.0
  9
$LIMMAX
 10
12.0
 20
9.0
  9
$ORTHOMODE
 70
     0
  9
$REGENMODE
 70
     1
  9
$FILLMODE
 70
     1
  9
$QTEXTMODE
 70
     0
  9
$MIRRTEXT
 70
     1
  9
$DRAGMODE
 70
     2
  9
$LTSCALE
 40
1.0
  9
$OSMODE
 70
     0
  9
$ATTMODE
 70
     1
  9
$TEXTSIZE
 40
0.2
  9
$TRACEWID
 40
0.05
  9
$TEXTSTYLE
  7
STANDARD
  9
$CLAYER
  8
0
  9
$CELTYPE
  6
CONTINUOUS
  9
$CECOLOR
 62
   256
  9
$DIMSCALE
 40
1.0
  9
$DIMASZ
 40
0.18
  9
$DIMEXO
 40
0.0625
  9
$DIMDLI
 40
0.38
  9
$DIMRND
 40
0.0
  9
$DIMDLE
 40
0.0
  9
$DIMEXE
 40
0.18
  9
$DIMTP
 40
0.0
  9
$DIMTM
 40
0.0
  9
$DIMTXT
 40
0.18
  9
$DIMCEN
 40
0.09
  9
$DIMTSZ
 40
0.0
  9
$DIMTOL
 70
     0
  9
$DIMLIM
 70
     0
  9
$DIMTIH
 70
     1
  9
$DIMTOH
 70
     1
  9
$DIMSE1
 70
     0
  9
$DIMSE2
 70
     0
  9
$DIMTAD
 70
     0
  9
$DIMZIN
 70
     0
  9
$DIMBLK
  1

  9
$DIMASO
 70
     1
  9
$DIMSHO
 70
     1
  9
$DIMPOST
  1

  9
$DIMAPOST
  1

  9
$DIMALT
 70
     0
  9
$DIMALTD
 70
     2
  9
$DIMALTF
 40
25.4
  9
$DIMLFAC
 40
1.0
  9
$DIMTOFL
 70
     0
  9
$DIMTVP
 40
0.0
  9
$DIMTIX
 70
     0
  9
$DIMSOXD
 70
     0
  9
$DIMSAH
 70
     0
  9
$DIMBLK1
  1

  9
$DIMBLK2
  1

  9
$DIMSTYLE
  2
STANDARD
  9
$DIMCLRD
 70
     0
  9
$DIMCLRE
 70
     0
  9
$DIMCLRT
 70
     0
  9
$DIMTFAC
 40
1.0
  9
$DIMGAP
 40
0.09
  9
$LUNITS
 70
     2
  9
$LUPREC
 70
     4
  9
$AXISMODE
 70
     0
  9
$AXISUNIT
 10
0.0
 20
0.0
  9
$SKETCHINC
 40
0.1
  9
$FILLETRAD
 40
0.0
  9
$AUNITS
 70
     0
  9
$AUPREC
 70
     0
  9
$MENU
  1
acad
  9
$ELEVATION
 40
0.0
  9
$PELEVATION
 40
0.0
  9
$THICKNESS
 40
0.0
  9
$LIMCHECK
 70
     0
  9
$BLIPMODE
 70
     1
  9
$CHAMFERA
 40
0.0
  9
$CHAMFERB
 40
0.0
  9
$SKPOLY
 70
     0
  9
$TDCREATE
 40
2451803.395312500
  9
$TDUPDATE
 40
2451803.395312500
  9
$TDINDWG
 40
0.0000000000
  9
$TDUSRTIMER
 40
0.0000000000
  9
$USRTIMER
 70
     1
  9
$ANGBASE
 50
0.0
  9
$ANGDIR
 70
     0
  9
$PDMODE
 70
     0
  9
$PDSIZE
 40
0.0
  9
$PLINEWID
 40
0.0
  9
$COORDS
 70
     0
  9
$SPLFRAME
 70
     0
  9
$SPLINETYPE
 70
     6
  9
$SPLINESEGS
 70
    10
  9
$ATTDIA
 70
     0
  9
$ATTREQ
 70
     1
  9
$HANDLING
 70
     1
  9
$HANDSEED
  5
2F8
  9
$SURFTAB1
 70
     6
  9
$SURFTAB2
 70
     6
  9
$SURFTYPE
 70
     6
  9
$SURFU
 70
     6
  9
$SURFV
 70
     6
  9
$UCSNAME
  2

  9
$UCSORG
 10
0.0
 20
0.0
 30
0.0
  9
$UCSXDIR
 10
1.0
 20
0.0
 30
0.0
  9
$UCSYDIR
 10
0.0
 20
1.0
 30
0.0
  9
$PUCSNAME
  2

  9
$PUCSORG
 10
0.0
 20
0.0
 30
0.0
  9
$PUCSXDIR
 10
1.0
 20
0.0
 30
0.0
  9
$PUCSYDIR
 10
0.0
 20
1.0
 30
0.0
  9
$USERI1
 70
     0
  9
$USERI2
 70
     0
  9
$USERI3
 70
     0
  9
$USERI4
 70
     0
  9
$USERI5
 70
     0
  9
$USERR1
 40
0.0
  9
$USERR2
 40
0.0
  9
$USERR3
 40
0.0
  9
$USERR4
 40
0.0
  9
$USERR5
 40
0.0
  9
$WORLDVIEW
 70
     1
  9
$SHADEDGE
 70
     3
  9
$SHADEDIF
 70
    70
  9
$TILEMODE
 70
     1
  9
$MAXACTVP
 70
    16
  9
$PINSBASE
 10
0.0
 20
0.0
 30
0.0
  9
$PLIMCHECK
 70
     0
  9
$PEXTMIN
 10
-1.000000E+20
 20
-1.000000E+20
 30
-1.000000E+20
  9
$PEXTMAX
 10
-1.000000E+20
 20
-1.000000E+20
 30
-1.000000E+20
  9
$PLIMMIN
 10
0.0
 20
0.0
  9
$PLIMMAX
 10
12.0
 20
9.0
  9
$UNITMODE
 70
     0
  9
$VISRETAIN
 70
     0
  9
$PLINEGEN
 70
     1
  9
$PSLTSCALE
 70
     0
  9
$TREEDEPTH
 70
  3020
  9
$DWGCODEPAGE
  3
ansi_1252
  0
ENDSEC
  0
SECTION
  2
TABLES
  0
TABLE
  2
VPORT
 70
     1
  0
VPORT
  2
*ACTIVE
 70
     0
 10
0.0
 20
0.0
 11
1.0
 21
1.0
 12
0.0
 22
0.0
 13
0.0
 23
0.0
 14
0.0
 24
0.0
 15
0.0
 25
0.0
 16
0.0
 26
0.0
 36
1.0
 17
292.829217
 27
219.738333
 37
0.0
 40
451.041
 41
1.795122
 42
50.0
 43
0.0
 44
0.0
 50
0.0
 51
0.0
 71
     0
 72
   100
 73
     1
 74
     0
 75
     0
 76
     0
 77
     0
 78
     0
  0
ENDTAB
  0
TABLE
  2
LTYPE
 70
     7
  0
LTYPE
  2
CONTINUOUS
 70
     0
  3
Solid line
 72
    65
 73
     0
 40
0.0
  0
LTYPE
  2
DOT
 70
    64
  3
. . . . . . . . . . . . . . . . . . . . . . . . . . . . . . . . .
 72
    65
 73
     2
 40
0.25
 49
0.0
 49
-0.25
  0
LTYPE
  2
HIDDEN
 70
    64
  3
__ __ __ __ __ __ __ __ __ __ __ __ __ __ __ __ __ __ __ __ __ 
 72
    65
 73
     2
 40
0.375
 49
0.25
 49
-0.125
  0
LTYPE
  2
DASHED
 70
    64
  3
__ __ __ __ __ __ __ __ __ __ __ __ __ __ __ __ __ __ __ __ __
 72
    65
 73
     2
 40
0.75
 49
0.5
 49
-0.25
  0
LTYPE
  2
DASHDOT
 70
    64
  3
__ . __ . __ . __ . __ . __ . __ . __ . __ . __ . __ . __ . _
 72
    65
 73
     4
 40
1.0
 49
0.5
 49
-0.25
 49
0.0
 49
-0.25
  0
LTYPE
  2
DIVIDE
 70
    64
  3
____ . . ____ . . ____ . . ____ . . ____ . . ____ . . ____ . .
 72
    65
 73
     6
 40
1.25
 49
0.5
 49
-0.25
 49
0.0
 49
-0.25
 49
0.0
 49
-0.25
  0
LTYPE
  2
CENTER
 70
    64
  3
____ _ ____ _ ____ _ ____ _ ____ _ ____ _ ____ _ ____ _ ____ _
 72
    65
 73
     4
 40
2.0
 49
1.25
 49
-0.25
 49
0.25
 49
-0.25
  0
ENDTAB
  0
TABLE
  2
LAYER
 70
     5
  0
LAYER
  2
0
 70
     0
 62
     7
  6
CONTINUOUS
  0
LAYER
  2
CONSTRUCTION_CLASS
 70
     0
 62
     7
  6
CONTINUOUS
  0
LAYER
  2
PATTERN_CLASS
 70
     0
 62
     7
  6
CONTINUOUS
  0
LAYER
  2
61
 70
    64
 62
     7
  6
CONTINUOUS
  0
LAYER
  2
1
 70
    64
 62
     7
  6
CONTINUOUS
  0
ENDTAB
  0
TABLE
  2
STYLE
 70
     4
  0
STYLE
  2
STANDARD
 70
     0
 40
0.0
 41
1.0
 50
0.0
 71
     0
 42
0.0
  3
txt
  4

  0
STYLE
  2
MONOTXT
 70
     0
 40
0.2
 41
1.0
 50
0.0
 71
     0
 42
0.2
  3
MONOTXT
  4

  0
STYLE
  2
txt
 70
     0
 40
0.2
 41
1.0
 50
0.0
 71
     0
 42
0.2
  3
TXT
  4

  0
STYLE
  2
ROMANT
 70
     0
 40
0.2
 41
1.0
 50
0.0
 71
     0
 42
0.2
  3
ROMANT
  4

  0
ENDTAB
  0
TABLE
  2
VIEW
 70
     0
  0
ENDTAB
  0
TABLE
  2
UCS
 70
     0
  0
ENDTAB
  0
TABLE
  2
APPID
 70
     1
  0
APPID
  2
ACAD
 70
     0
  0
ENDTAB
  0
TABLE
  2
DIMSTYLE
 70
     1
  0
DIMSTYLE
  2
STANDARD
 70
     0
  3

  4

  5

  6

  7

 40
1.0
 41
0.18
 42
0.0625
 43
0.38
 44
0.18
 45
0.0
 46
0.0
 47
0.0
 48
0.0
140
0.18
141
0.09
142
0.0
143
25.4
144
1.0
145
0.0
146
1.0
147
0.09
 71
     0
 72
     0
 73
     1
 74
     1
 75
     0
 76
     0
 77
     0
 78
     0
170
     0
171
     2
172
     0
173
     0
174
     0
175
     0
176
     0
177
     0
178
     0
  0
ENDTAB
  0
ENDSEC
  0
SECTION
  2
BLOCKS
  0
BLOCK
  8
1
  6
CONTINUOUS
 62
     1
  5
273
  2
LDR
 70
     0
 10
0.0
 20
0.0
 30
0.0
  3
LNR
  0
POLYLINE
  8
1
  6
CONTINUOUS
 62
     1
  5
274
 66
     1
 10
0.0
 20
0.0
 30
0.0
210
0.0
220
0.0
230
1.0
  0
VERTEX
  8
1
  6
CONTINUOUS
 62
     1
  5
275
 10
-0.011987
 20
-0.001802
 30
0.0
 42
-0.265147
  0
VERTEX
  8
1
  6
CONTINUOUS
 62
     1
  5
276
 10
-0.011849
 20
-0.001604
 30
0.0
 42
-0.064653
  0
VERTEX
  8
1
  6
CONTINUOUS
 62
     1
  5
277
 10
-0.011407
 20
-0.001387
 30
0.0
 42
-0.025822
  0
VERTEX
  8
1
  6
CONTINUOUS
 62
     1
  5
278
 10
-0.010681
 20
-0.00116
 30
0.0
 42
-0.014504
  0
VERTEX
  8
1
  6
CONTINUOUS
 62
     1
  5
279
 10
-0.0097
 20
-0.000933
 30
0.0
 42
-0.009896
  0
VERTEX
  8
1
  6
CONTINUOUS
 62
     1
  5
27A
 10
-0.008505
 20
-0.000715
 30
0.0
 42
-0.007708
  0
VERTEX
  8
1
  6
CONTINUOUS
 62
     1
  5
27B
 10
-0.007146
 20
-0.000515
 30
0.0
 42
-0.006655
  0
VERTEX
  8
1
  6
CONTINUOUS
 62
     1
  5
27C
 10
-0.005679
 20
-0.000342
 30
0.0
 42
-0.006278
  0
VERTEX
  8
1
  6
CONTINUOUS
 62
     1
  5
27D
 10
-0.004164
 20
-0.000202
 30
0.0
 42
-0.006439
  0
VERTEX
  8
1
  6
CONTINUOUS
 62
     1
  5
27E
 10
-0.002666
 20
-0.000101
 30
0.0
 42
-0.007196
  0
VERTEX
  8
1
  6
CONTINUOUS
 62
     1
  5
27F
 10
-0.001246
 20
-0.000044
 30
0.0
 42
-0.008852
  0
VERTEX
  8
1
  6
CONTINUOUS
 62
     1
  5
280
 10
0.000037
 20
-0.000034
 30
0.0
 42
-0.008852
  0
SEQEND
  8
1
  6
CONTINUOUS
 62
     1
  5
281
  0
POLYLINE
  8
1
  6
CONTINUOUS
 62
     1
  5
282
 66
     1
 10
0.0
 20
0.0
 30
0.0
210
0.0
220
0.0
230
1.0
  0
VERTEX
  8
1
  6
CONTINUOUS
 62
     1
  5
283
 10
0.000039
 20
0.000014
 30
0.0
 42
-0.005019
  0
VERTEX
  8
1
  6
CONTINUOUS
 62
     1
  5
284
 10
-0.001103
 20
0.000071
 30
0.0
 42
-0.004038
  0
VERTEX
  8
1
  6
CONTINUOUS
 62
     1
  5
285
 10
-0.002373
 20
0.000158
 30
0.0
 42
-0.003548
  0
VERTEX
  8
1
  6
CONTINUOUS
 62
     1
  5
286
 10
-0.003725
 20
0.00027
 30
0.0
 42
-0.003367
  0
VERTEX
  8
1
  6
CONTINUOUS
 62
     1
  5
287
 10
-0.005111
 20
0.000405
 30
0.0
 42
-0.003436
  0
VERTEX
  8
1
  6
CONTINUOUS
 62
     1
  5
288
 10
-0.006481
 20
0.000556
 30
0.0
 42
-0.003778
  0
VERTEX
  8
1
  6
CONTINUOUS
 62
     1
  5
289
 10
-0.007786
 20
0.00072
 30
0.0
 42
-0.00451
  0
VERTEX
  8
1
  6
CONTINUOUS
 62
     1
  5
28A
 10
-0.008979
 20
0.000889
 30
0.0
 42
-0.00594
  0
VERTEX
  8
1
  6
CONTINUOUS
 62
     1
  5
28B
 10
-0.010018
 20
0.001058
 30
0.0
 42
-0.008921
  0
VERTEX
  8
1
  6
CONTINUOUS
 62
     1
  5
28C
 10
-0.010864
 20
0.00122
 30
0.0
 42
-0.016392
  0
VERTEX
  8
1
  6
CONTINUOUS
 62
     1
  5
28D
 10
-0.011488
 20
0.001371
 30
0.0
 42
-0.04458
  0
VERTEX
  8
1
  6
CONTINUOUS
 62
     1
  5
28E
 10
-0.011867
 20
0.001503
 30
0.0
 42
-0.317392
  0
VERTEX
  8
1
  6
CONTINUOUS
 62
     1
  5
28F
 10
-0.011987
 20
0.001614
 30
0.0
 42
-0.317392
  0
SEQEND
  8
1
  6
CONTINUOUS
 62
     1
  5
290
  0
ENDBLK
  8
1
  6
CONTINUOUS
 62
     1
  5
291
  0
ENDSEC
  0
SECTION
  2
ENTITIES
  0
LINE
  8
61
  6
CONTINUOUS
 62
     1
  5
29
 10
667.652917
 20
429.758333
 30
0.0
 11
28.612917
 21
429.758333
 31
0.0
  0
LINE
  8
61
  6
CONTINUOUS
 62
     1
  5
2A
 10
28.612917
 20
429.758333
 30
0.0
 11
28.612917
 21
9.738333
 31
0.0
  0
LINE
  8
61
  6
CONTINUOUS
 62
     1
  5
2B
 10
667.672917
 20
9.718333
 30
0.0
 11
28.612917
 21
9.738333
 31
0.0
  0
LINE
  8
61
  6
CONTINUOUS
 62
     1
  5
2C
 10
667.652917
 20
429.758333
 30
0.0
 11
667.672917
 21
9.718333
 31
0.0
  0
LINE
  8
61
  6
CONTINUOUS
 62
     7
  5
2D
 10
661.552917
 20
425.018333
 30
0.0
 11
553.572917
 21
424.998333
 31
0.0
  0
LINE
  8
61
  6
CONTINUOUS
 62
     7
  5
2E
 10
553.572917
 20
424.998333
 30
0.0
 11
553.572917
 21
404.998333
 31
0.0
  0
LINE
  8
61
  6
CONTINUOUS
 62
     7
  5
2F
 10
661.552917
 20
425.018333
 30
0.0
 11
661.552917
 21
405.018333
 31
0.0
  0
LINE
  8
61
  6
CONTINUOUS
 62
     7
  5
30
 10
661.552917
 20
405.018333
 30
0.0
 11
553.572917
 21
404.998333
 31
0.0
  0
LINE
  8
61
  6
CONTINUOUS
 62
     7
  5
31
 10
661.572917
 20
414.978333
 30
0.0
 11
553.552917
 21
414.998333
 31
0.0
  0
LINE
  8
61
  6
CONTINUOUS
 62
     7
  5
32
 10
563.572917
 20
424.998333
 30
0.0
 11
563.572917
 21
404.998333
 31
0.0
  0
LINE
  8
61
  6
CONTINUOUS
 62
     7
  5
33
 10
573.572917
 20
424.998333
 30
0.0
 11
573.572917
 21
404.998333
 31
0.0
  0
LINE
  8
61
  6
CONTINUOUS
 62
     7
  5
34
 10
587.252917
 20
424.998333
 30
0.0
 11
587.252917
 21
404.998333
 31
0.0
  0
LINE
  8
61
  6
CONTINUOUS
 62
     7
  5
35
 10
651.552917
 20
425.018333
 30
0.0
 11
651.552917
 21
405.018333
 31
0.0
  0
LINE
  8
61
  6
CONTINUOUS
 62
     7
  5
36
 10
641.552917
 20
425.018333
 30
0.0
 11
641.552917
 21
405.018333
 31
0.0
  0
LINE
  8
61
  6
CONTINUOUS
 62
     7
  5
37
 10
619.572917
 20
424.998333
 30
0.0
 11
619.572917
 21
404.998333
 31
0.0
  0
LINE
  8
61
  6
CONTINUOUS
 62
     7
  5
38
 10
609.572917
 20
424.998333
 30
0.0
 11
609.572917
 21
404.998333
 31
0.0
  0
TEXT
  8
61
  6
CONTINUOUS
 62
     7
  5
3A
 10
555.612917
 20
421.978333
 30
0.0
 40
1.20075
  1
PUBLIC
 50
0.033272
 41
1.001804
  7
MONOTXT
210
0.0
220
0.0
230
1.0
  0
TEXT
  8
61
  6
CONTINUOUS
 62
     7
  5
3B
 10
555.692917
 20
419.458333
 30
0.0
 40
1.20075
  1
ROADS
 50
0.124322
 41
0.996877
  7
MONOTXT
210
0.0
220
0.0
230
1.0
  0
TEXT
  8
61
  6
CONTINUOUS
 62
     7
  5
3C
 10
556.892917
 20
416.958333
 30
0.0
 40
1.20075
  1
DIV.
 50
359.931522
 41
0.994864
  7
MONOTXT
210
0.0
220
0.0
230
1.0
  0
TEXT
  8
61
  6
CONTINUOUS
 62
     7
  5
3D
 10
565.772917
 20
422.038333
 30
0.0
 40
1.20075
  1
STATE
 50
0.058969
 41
0.998196
  7
MONOTXT
210
0.0
220
0.0
230
1.0
  0
TEXT
  8
61
  6
CONTINUOUS
 62
     7
  5
3E
 10
566.652917
 20
419.538333
 30
0.0
 40
1.20075
  1
DIST.
 50
0.055889
 41
0.999584
  7
MONOTXT
210
0.0
220
0.0
230
1.0
  0
TEXT
  8
61
  6
CONTINUOUS
 62
     7
  5
3F
 10
567.232917
 20
417.018333
 30
0.0
 40
1.20075
  1
NO.
 50
359.852072
 41
0.997779
  7
MONOTXT
210
0.0
220
0.0
230
1.0
  0
TEXT
  8
61
  6
CONTINUOUS
 62
     7
  5
40
 10
577.772917
 20
421.978333
 30
0.0
 40
1.20075
  1
STATE
 50
0.058969
 41
0.998196
  7
MONOTXT
210
0.0
220
0.0
230
1.0
  0
TEXT
  8
61
  6
CONTINUOUS
 62
     7
  5
41
 10
576.692917
 20
419.558333
 30
0.0
 40
1.20075
  1
PROJECT
 50
359.908431
 41
1.000069
  7
MONOTXT
210
0.0
220
0.0
230
1.0
  0
TEXT
  8
61
  6
CONTINUOUS
 62
     7
  5
42
 10
579.432917
 20
417.018333
 30
0.0
 40
1.20075
  1
NO.
 50
0.225453
 41
0.993546
  7
MONOTXT
210
0.0
220
0.0
230
1.0
  0
TEXT
  8
61
  6
CONTINUOUS
 62
     7
  5
43
 10
595.072917
 20
420.858333
 30
0.0
 40
1.20075
  1
FEDERAL
 50
0.006714
 41
0.998543
  7
MONOTXT
210
0.0
220
0.0
230
1.0
  0
TEXT
  8
61
  6
CONTINUOUS
 62
     7
  5
44
 10
593.532917
 20
418.198333
 30
0.0
 40
1.20075
  1
PROJECT NO.
 50
359.921531
 41
1.000694
  7
MONOTXT
210
0.0
220
0.0
230
1.0
  0
TEXT
  8
61
  6
CONTINUOUS
 62
     7
  5
45
 10
611.812917
 20
420.798333
 30
0.0
 40
1.20075
  1
FISCAL
 50
359.941939
 41
0.998959
  7
MONOTXT
210
0.0
220
0.0
230
1.0
  0
TEXT
  8
61
  6
CONTINUOUS
 62
     7
  5
46
 10
612.332917
 20
417.898333
 30
0.0
 40
1.20075
  1
YEAR
 50
0.104606
 41
0.993268
  7
MONOTXT
210
0.0
220
0.0
230
1.0
  0
TEXT
  8
61
  6
CONTINUOUS
 62
     7
  5
47
 10
626.432917
 20
419.258333
 30
0.0
 40
1.20075
  1
COUNTY
 50
0.068575
 41
1.001874
  7
MONOTXT
210
0.0
220
0.0
230
1.0
  0
TEXT
  8
61
  6
CONTINUOUS
 62
     7
  5
48
 10
644.072917
 20
420.918333
 30
0.0
 40
1.20075
  1
SHEET
 50
0.058969
 41
0.997571
  7
MONOTXT
210
0.0
220
0.0
230
1.0
  0
TEXT
  8
61
  6
CONTINUOUS
 62
     7
  5
49
 10
645.492917
 20
418.198333
 30
0.0
 40
1.20075
  1
NO.
 50
359.852072
 41
0.997779
  7
MONOTXT
210
0.0
220
0.0
230
1.0
  0
TEXT
  8
61
  6
CONTINUOUS
 62
     7
  5
4A
 10
653.812917
 20
420.778333
 30
0.0
 40
1.20075
  1
TOTAL
 50
359.926039
 41
0.998543
  7
MONOTXT
210
0.0
220
0.0
230
1.0
  0
TEXT
  8
61
  6
CONTINUOUS
 62
     7
  5
4B
 10
653.352917
 20
418.078333
 30
0.0
 40
1.20075
  1
SHEETS
 50
359.958675
  7
MONOTXT
210
0.0
220
0.0
230
1.0
  0
TEXT
  8
61
  6
CONTINUOUS
 62
     7
  5
4C
 10
566.172917
 20
409.198333
 30
0.0
 40
2.401333
  1
  
 50
0.029406
 41
0.996495
  7
MONOTXT
210
0.0
220
0.0
230
1.0
  0
TEXT
  8
61
  6
CONTINUOUS
 62
     7
  5
4D
 10
643.352917
 20
408.918333
 30
0.0
 40
2.401333
  1
   
 50
0.011508
 41
1.001006
  7
MONOTXT
210
0.0
220
0.0
230
1.0
  0
TEXT
  8
61
  6
CONTINUOUS
 62
     7
  5
4E
 10
653.232917
 20
408.898333
 30
0.0
 40
2.401333
  1
   
 50
359.922128
 41
1.000555
  7
MONOTXT
210
0.0
220
0.0
230
1.0
  0
TEXT
  8
61
  6
CONTINUOUS
 62
     7
  5
4F
 10
576.612917
 20
412.298333
 30
0.0
 40
2.00675
  1
    
 50
0.054383
 41
0.993729
  7
MONOTXT
210
0.0
220
0.0
230
1.0
  0
TEXT
  8
61
  6
CONTINUOUS
 62
     7
  5
50
 10
573.692917
 20
409.278333
 30
0.0
 40
1.989583
  1
       
 50
0.064678
 41
1.000963
  7
MONOTXT
210
0.0
220
0.0
230
1.0
  0
TEXT
  8
61
  6
CONTINUOUS
 62
     7
  5
51
 10
574.652917
 20
406.378333
 30
0.0
 40
1.989583
  1
      
 50
359.958053
 41
1.000293
  7
MONOTXT
210
0.0
220
0.0
230
1.0
  0
TEXT
  8
61
  6
CONTINUOUS
 62
     7
  5
52
 10
585.612917
 20
411.018333
 30
0.0
 40
2.401333
  1
           
 50
0.011508
 41
0.998751
  7
MONOTXT
210
0.0
220
0.0
230
1.0
  0
TEXT
  8
61
  6
CONTINUOUS
 62
     7
  5
53
 10
585.492917
 20
407.358333
 30
0.0
 40
2.401333
  1
           
 50
0.011508
 41
0.999584
  7
MONOTXT
210
0.0
220
0.0
230
1.0
  0
TEXT
  8
61
  6
CONTINUOUS
 62
     7
  5
54
 10
620.832917
 20
409.098333
 30
0.0
 40
2.00675
  1
          
 50
0.009222
 41
0.992774
  7
MONOTXT
210
0.0
220
0.0
230
1.0
  0
ARC
  8
61
  6
CONTINUOUS
 62
     3
  5
55
 10
10.310673
 20
340.999628
 30
0.0
 40
2.499998
 50
323.130094
 51
316.232156
210
0.0
220
0.0
230
1.0
  0
ARC
  8
61
  6
CONTINUOUS
 62
     3
  5
56
 10
10.310673
 20
285.999628
 30
0.0
 40
2.499998
 50
323.130094
 51
315.375767
210
0.0
220
0.0
230
1.0
  0
ARC
  8
61
  6
CONTINUOUS
 62
     3
  5
57
 10
10.030673
 20
137.559628
 30
0.0
 40
2.499998
 50
322.671753
 51
321.716147
210
0.0
220
0.0
230
1.0
  0
ARC
  8
61
  6
CONTINUOUS
 62
     3
  5
58
 10
10.030673
 20
82.559628
 30
0.0
 40
2.499998
 50
323.130094
 51
312.314392
210
0.0
220
0.0
230
1.0
  0
LINE
  8
61
  6
CONTINUOUS
 62
     2
  5
59
 10
12.332917
 20
340.998333
 30
0.0
 11
20.312917
 21
341.018333
 31
0.0
  0
LINE
  8
61
  6
CONTINUOUS
 62
     2
  5
5A
 10
12.312917
 20
285.998333
 30
0.0
 11
20.312917
 21
285.998333
 31
0.0
  0
LINE
  8
61
  6
CONTINUOUS
 62
     2
  5
5B
 10
12.032917
 20
137.578333
 30
0.0
 11
20.032917
 21
137.578333
 31
0.0
  0
LINE
  8
61
  6
CONTINUOUS
 62
     2
  5
5C
 10
12.052917
 20
82.558333
 30
0.0
 11
20.032917
 21
82.558333
 31
0.0
  0
TEXT
  8
61
  6
CONTINUOUS
 62
     7
  5
5D
 10
654.452917
 20
385.098333
 30
0.0
 40
2.401333
  1
     
 41
1.001388
  7
MONOTXT
210
0.0
220
0.0
230
1.0
  0
TEXT
  8
1
  6
CONTINUOUS
 62
     1
  5
60
 10
633.392917
 20
7.218333
 30
0.0
 40
1.2
  1
TRAFFIC ENGINEERING DIVISION
  7
txt
210
0.0
220
0.0
230
1.0
  0
LINE
  8
1
  6
CONTINUOUS
 62
     7
  5
61
 10
496.012917
 20
9.718333
 30
0.0
 11
496.012917
 21
101.298333
 31
0.0
  0
LINE
  8
1
  6
CONTINUOUS
 62
     7
  5
62
 10
496.012917
 20
101.298333
 30
0.0
 11
667.672917
 21
101.298333
 31
0.0
  0
LINE
  8
1
  6
CONTINUOUS
 62
     7
  5
63
 10
531.012917
 20
9.678333
 30
0.0
 11
531.012917
 21
54.638333
 31
0.0
  0
LINE
  8
1
  6
CONTINUOUS
 62
     7
  5
64
 10
531.012917
 20
54.638333
 30
0.0
 11
496.032917
 21
54.638333
 31
0.0
  0
LINE
  8
1
  6
CONTINUOUS
 62
     7
  5
65
 10
531.012917
 20
50.158333
 30
0.0
 11
496.032917
 21
50.158333
 31
0.0
  0
LINE
  8
1
  6
CONTINUOUS
 62
     7
  5
66
 10
531.012917
 20
45.658333
 30
0.0
 11
496.032917
 21
45.658333
 31
0.0
  0
LINE
  8
1
  6
CONTINUOUS
 62
     7
  5
67
 10
531.012917
 20
41.158333
 30
0.0
 11
496.032917
 21
41.158333
 31
0.0
  0
LINE
  8
1
  6
CONTINUOUS
 62
     7
  5
68
 10
531.012917
 20
36.638333
 30
0.0
 11
496.032917
 21
36.638333
 31
0.0
  0
LINE
  8
1
  6
CONTINUOUS
 62
     7
  5
69
 10
531.012917
 20
32.158333
 30
0.0
 11
496.032917
 21
32.158333
 31
0.0
  0
LINE
  8
1
  6
CONTINUOUS
 62
     7
  5
6A
 10
531.012917
 20
27.678333
 30
0.0
 11
496.032917
 21
27.678333
 31
0.0
  0
LINE
  8
1
  6
CONTINUOUS
 62
     7
  5
6B
 10
531.012917
 20
23.178333
 30
0.0
 11
496.032917
 21
23.178333
 31
0.0
  0
LINE
  8
1
  6
CONTINUOUS
 62
     7
  5
6C
 10
531.012917
 20
18.678333
 30
0.0
 11
496.032917
 21
18.678333
 31
0.0
  0
LINE
  8
1
  6
CONTINUOUS
 62
     7
  5
6D
 10
531.012917
 20
14.158333
 30
0.0
 11
496.032917
 21
14.158333
 31
0.0
  0
TEXT
  8
1
  6
CONTINUOUS
 62
     7
  5
6E
 10
506.292917
 20
51.638333
 30
0.0
 40
1.99775
  1
REVISIONS
  7
MONOTXT
210
0.0
220
0.0
230
1.0
  0
TEXT
  8
1
  6
CONTINUOUS
 62
     7
  5
6F
 10
497.972917
 20
55.638333
 30
0.0
 40
1.99775
  1
PREPARED:   /  /  
  7
MONOTXT
210
0.0
220
0.0
230
1.0
  0
TEXT
  8
1
  6
CONTINUOUS
 62
     7
  5
71
 10
528.632917
 20
92.698333
 30
0.0
 40
4.794833
  1
WEST VIRGINIA DIVISION OF HIGHWAYS
  7
ROMANT
 72
     1
 11
582.603167
 21
97.493167
 31
0.0
210
0.0
220
0.0
230
1.0
 73
     3
  0
TEXT
  8
1
  6
CONTINUOUS
 62
     7
  5
72
 10
539.392917
 20
81.538333
 30
0.0
 40
6.992667
  1
STANDARD DETAIL
  7
txt
 72
     1
 11
583.883
 21
88.531
 31
0.0
210
0.0
220
0.0
230
1.0
 73
     3
  0
TEXT
  8
1
  6
CONTINUOUS
 62
     7
  5
73
 10
534.852917
 20
13.758333
 30
0.0
 40
6.992667
  1
STANDARD SHEET TE1-7B
  7
txt
210
0.0
220
0.0
230
1.0
  0
TEXT
  8
1
  6
CONTINUOUS
 62
     1
  5
74
 10
506.997917
 20
46.578333
 30
0.0
 40
2.0
  1
01-21-69
  7
MONOTXT
 72
     1
 11
513.320833
 21
48.578333
 31
0.0
210
0.0
220
0.0
230
1.0
 73
     3
  0
TEXT
  8
1
  6
CONTINUOUS
 62
     1
  5
75
 10
506.86775
 20
42.178333
 30
0.0
 40
2.0
  1
11-25-70
  7
MONOTXT
 72
     1
 11
513.293083
 21
44.178333
 31
0.0
210
0.0
220
0.0
230
1.0
 73
     3
  0
TEXT
  8
1
  6
CONTINUOUS
 62
     1
  5
76
 10
506.8405
 20
37.778333
 30
0.0
 40
2.0
  1
01-04-71
  7
MONOTXT
 72
     1
 11
513.313
 21
39.778333
 31
0.0
210
0.0
220
0.0
230
1.0
 73
     3
  0
TEXT
  8
1
  6
CONTINUOUS
 62
     1
  5
77
 10
506.8405
 20
33.378333
 30
0.0
 40
2.0
  1
04-01-71
  7
MONOTXT
 72
     1
 11
513.313
 21
35.378333
 31
0.0
210
0.0
220
0.0
230
1.0
 73
     3
  0
TEXT
  8
1
  6
CONTINUOUS
 62
     1
  5
78
 10
507.200167
 20
28.778333
 30
0.0
 40
2.0
  1
11-19-73
  7
MONOTXT
 72
     1
 11
513.160833
 21
30.778333
 31
0.0
210
0.0
220
0.0
230
1.0
 73
     3
  0
TEXT
  8
1
  6
CONTINUOUS
 62
     1
  5
79
 10
506.982167
 20
24.298333
 30
0.0
 40
2.0
  1
11-09-76
  7
MONOTXT
 72
     1
 11
513.320833
 21
26.298333
 31
0.0
210
0.0
220
0.0
230
1.0
 73
     3
  0
TEXT
  8
1
  6
CONTINUOUS
 62
     1
  5
7A
 10
506.31525
 20
19.698333
 30
0.0
 40
2.0
  1
10-24-78
  7
MONOTXT
 72
     1
 11
513.220917
 21
21.698333
 31
0.0
210
0.0
220
0.0
230
1.0
 73
     3
  0
TEXT
  8
1
  6
CONTINUOUS
 62
     1
  5
7B
 10
506.85625
 20
15.118333
 30
0.0
 40
2.0
  1
11-30-84
  7
MONOTXT
 72
     1
 11
513.320917
 21
17.118333
 31
0.0
210
0.0
220
0.0
230
1.0
 73
     3
  0
TEXT
  8
1
  6
CONTINUOUS
 62
     1
  5
7C
 10
506.242083
 20
11.098333
 30
0.0
 40
2.0
  1
09-13-93
  7
MONOTXT
 72
     1
 11
512.99025
 21
13.098333
 31
0.0
210
0.0
220
0.0
230
1.0
 73
     3
  0
POLYLINE
  8
1
  6
CONTINUOUS
 62
     7
  5
7D
 66
     1
 10
0.0
 20
0.0
 30
0.0
  0
VERTEX
  8
1
  6
CONTINUOUS
 62
     7
  5
7E
 10
501.144417
 20
49.704583
 30
0.0
  0
VERTEX
  8
1
  6
CONTINUOUS
 62
     7
  5
7F
 10
499.144417
 20
46.2405
 30
0.0
  0
VERTEX
  8
1
  6
CONTINUOUS
 62
     7
  5
80
 10
503.144417
 20
46.2405
 30
0.0
  0
VERTEX
  8
1
  6
CONTINUOUS
 62
     7
  5
81
 10
501.144417
 20
49.704583
 30
0.0
  0
SEQEND
  8
1
  6
CONTINUOUS
 62
     7
  5
82
  0
POLYLINE
  8
1
  6
CONTINUOUS
 62
     7
  5
83
 66
     1
 10
0.0
 20
0.0
 30
0.0
  0
VERTEX
  8
1
  6
CONTINUOUS
 62
     7
  5
84
 10
501.144417
 20
45.238583
 30
0.0
  0
VERTEX
  8
1
  6
CONTINUOUS
 62
     7
  5
85
 10
499.144417
 20
41.7745
 30
0.0
  0
VERTEX
  8
1
  6
CONTINUOUS
 62
     7
  5
86
 10
503.144417
 20
41.7745
 30
0.0
  0
VERTEX
  8
1
  6
CONTINUOUS
 62
     7
  5
87
 10
501.144417
 20
45.238583
 30
0.0
  0
SEQEND
  8
1
  6
CONTINUOUS
 62
     7
  5
88
  0
POLYLINE
  8
1
  6
CONTINUOUS
 62
     7
  5
89
 66
     1
 10
0.0
 20
0.0
 30
0.0
  0
VERTEX
  8
1
  6
CONTINUOUS
 62
     7
  5
8A
 10
500.978917
 20
40.722083
 30
0.0
  0
VERTEX
  8
1
  6
CONTINUOUS
 62
     7
  5
8B
 10
498.978917
 20
37.258
 30
0.0
  0
VERTEX
  8
1
  6
CONTINUOUS
 62
     7
  5
8C
 10
502.978917
 20
37.258
 30
0.0
  0
VERTEX
  8
1
  6
CONTINUOUS
 62
     7
  5
8D
 10
500.978917
 20
40.722083
 30
0.0
  0
SEQEND
  8
1
  6
CONTINUOUS
 62
     7
  5
8E
  0
POLYLINE
  8
1
  6
CONTINUOUS
 62
     7
  5
8F
 66
     1
 10
0.0
 20
0.0
 30
0.0
  0
VERTEX
  8
1
  6
CONTINUOUS
 62
     7
  5
90
 10
500.921417
 20
36.198583
 30
0.0
  0
VERTEX
  8
1
  6
CONTINUOUS
 62
     7
  5
91
 10
498.921417
 20
32.7345
 30
0.0
  0
VERTEX
  8
1
  6
CONTINUOUS
 62
     7
  5
92
 10
502.921417
 20
32.7345
 30
0.0
  0
VERTEX
  8
1
  6
CONTINUOUS
 62
     7
  5
93
 10
500.921417
 20
36.198583
 30
0.0
  0
SEQEND
  8
1
  6
CONTINUOUS
 62
     7
  5
94
  0
POLYLINE
  8
1
  6
CONTINUOUS
 62
     7
  5
95
 66
     1
 10
0.0
 20
0.0
 30
0.0
  0
VERTEX
  8
1
  6
CONTINUOUS
 62
     7
  5
96
 10
501.036417
 20
31.678417
 30
0.0
  0
VERTEX
  8
1
  6
CONTINUOUS
 62
     7
  5
97
 10
499.036417
 20
28.214333
 30
0.0
  0
VERTEX
  8
1
  6
CONTINUOUS
 62
     7
  5
98
 10
503.036417
 20
28.214333
 30
0.0
  0
VERTEX
  8
1
  6
CONTINUOUS
 62
     7
  5
99
 10
501.036417
 20
31.678417
 30
0.0
  0
SEQEND
  8
1
  6
CONTINUOUS
 62
     7
  5
9A
  0
POLYLINE
  8
1
  6
CONTINUOUS
 62
     7
  5
9B
 66
     1
 10
0.0
 20
0.0
 30
0.0
  0
VERTEX
  8
1
  6
CONTINUOUS
 62
     7
  5
9C
 10
501.032917
 20
27.216
 30
0.0
  0
VERTEX
  8
1
  6
CONTINUOUS
 62
     7
  5
9D
 10
499.032917
 20
23.751917
 30
0.0
  0
VERTEX
  8
1
  6
CONTINUOUS
 62
     7
  5
9E
 10
503.032917
 20
23.751917
 30
0.0
  0
VERTEX
  8
1
  6
CONTINUOUS
 62
     7
  5
9F
 10
501.032917
 20
27.216
 30
0.0
  0
SEQEND
  8
1
  6
CONTINUOUS
 62
     7
  5
A0
  0
POLYLINE
  8
1
  6
CONTINUOUS
 62
     7
  5
A1
 66
     1
 10
0.0
 20
0.0
 30
0.0
  0
VERTEX
  8
1
  6
CONTINUOUS
 62
     7
  5
A2
 10
501.036417
 20
22.692417
 30
0.0
  0
VERTEX
  8
1
  6
CONTINUOUS
 62
     7
  5
A3
 10
499.036417
 20
19.228333
 30
0.0
  0
VERTEX
  8
1
  6
CONTINUOUS
 62
     7
  5
A4
 10
503.036417
 20
19.228333
 30
0.0
  0
VERTEX
  8
1
  6
CONTINUOUS
 62
     7
  5
A5
 10
501.036417
 20
22.692417
 30
0.0
  0
SEQEND
  8
1
  6
CONTINUOUS
 62
     7
  5
A6
  0
POLYLINE
  8
1
  6
CONTINUOUS
 62
     7
  5
A7
 66
     1
 10
0.0
 20
0.0
 30
0.0
  0
VERTEX
  8
1
  6
CONTINUOUS
 62
     7
  5
A8
 10
501.032917
 20
18.168833
 30
0.0
  0
VERTEX
  8
1
  6
CONTINUOUS
 62
     7
  5
A9
 10
499.032917
 20
14.70475
 30
0.0
  0
VERTEX
  8
1
  6
CONTINUOUS
 62
     7
  5
AA
 10
503.032917
 20
14.70475
 30
0.0
  0
VERTEX
  8
1
  6
CONTINUOUS
 62
     7
  5
AB
 10
501.032917
 20
18.168833
 30
0.0
  0
SEQEND
  8
1
  6
CONTINUOUS
 62
     7
  5
AC
  0
POLYLINE
  8
1
  6
CONTINUOUS
 62
     7
  5
AD
 66
     1
 10
0.0
 20
0.0
 30
0.0
  0
VERTEX
  8
1
  6
CONTINUOUS
 62
     7
  5
AE
 10
498.117333
 20
110.702
 30
0.0
  0
VERTEX
  8
1
  6
CONTINUOUS
 62
     7
  5
AF
 10
496.117333
 20
107.237917
 30
0.0
  0
VERTEX
  8
1
  6
CONTINUOUS
 62
     7
  5
B0
 10
500.117333
 20
107.237917
 30
0.0
  0
VERTEX
  8
1
  6
CONTINUOUS
 62
     7
  5
B1
 10
498.117333
 20
110.702
 30
0.0
  0
SEQEND
  8
1
  6
CONTINUOUS
 62
     7
  5
B2
  0
POLYLINE
  8
1
  6
CONTINUOUS
 62
     7
  5
B3
 66
     1
 10
0.0
 20
0.0
 30
0.0
  0
VERTEX
  8
1
  6
CONTINUOUS
 62
     7
  5
B4
 10
498.060667
 20
115.317667
 30
0.0
  0
VERTEX
  8
1
  6
CONTINUOUS
 62
     7
  5
B5
 10
496.060667
 20
111.853583
 30
0.0
  0
VERTEX
  8
1
  6
CONTINUOUS
 62
     7
  5
B6
 10
500.060667
 20
111.853583
 30
0.0
  0
VERTEX
  8
1
  6
CONTINUOUS
 62
     7
  5
B7
 10
498.060667
 20
115.317667
 30
0.0
  0
SEQEND
  8
1
  6
CONTINUOUS
 62
     7
  5
B8
  0
POLYLINE
  8
1
  6
CONTINUOUS
 62
     7
  5
B9
 66
     1
 10
0.0
 20
0.0
 30
0.0
  0
VERTEX
  8
1
  6
CONTINUOUS
 62
     7
  5
BA
 10
498.02075
 20
119.882083
 30
0.0
  0
VERTEX
  8
1
  6
CONTINUOUS
 62
     7
  5
BB
 10
496.02075
 20
116.418
 30
0.0
  0
VERTEX
  8
1
  6
CONTINUOUS
 62
     7
  5
BC
 10
500.02075
 20
116.418
 30
0.0
  0
VERTEX
  8
1
  6
CONTINUOUS
 62
     7
  5
BD
 10
498.02075
 20
119.882083
 30
0.0
  0
SEQEND
  8
1
  6
CONTINUOUS
 62
     7
  5
BE
  0
POLYLINE
  8
1
  6
CONTINUOUS
 62
     7
  5
BF
 66
     1
 10
0.0
 20
0.0
 30
0.0
  0
VERTEX
  8
1
  6
CONTINUOUS
 62
     7
  5
C0
 10
497.9695
 20
124.418083
 30
0.0
  0
VERTEX
  8
1
  6
CONTINUOUS
 62
     7
  5
C1
 10
495.9695
 20
120.954
 30
0.0
  0
VERTEX
  8
1
  6
CONTINUOUS
 62
     7
  5
C2
 10
499.9695
 20
120.954
 30
0.0
  0
VERTEX
  8
1
  6
CONTINUOUS
 62
     7
  5
C3
 10
497.9695
 20
124.418083
 30
0.0
  0
SEQEND
  8
1
  6
CONTINUOUS
 62
     7
  5
C4
  0
POLYLINE
  8
1
  6
CONTINUOUS
 62
     7
  5
C5
 66
     1
 10
0.0
 20
0.0
 30
0.0
  0
VERTEX
  8
1
  6
CONTINUOUS
 62
     7
  5
C6
 10
498.0775
 20
129.022333
 30
0.0
  0
VERTEX
  8
1
  6
CONTINUOUS
 62
     7
  5
C7
 10
496.0775
 20
125.55825
 30
0.0
  0
VERTEX
  8
1
  6
CONTINUOUS
 62
     7
  5
C8
 10
500.0775
 20
125.55825
 30
0.0
  0
VERTEX
  8
1
  6
CONTINUOUS
 62
     7
  5
C9
 10
498.0775
 20
129.022333
 30
0.0
  0
SEQEND
  8
1
  6
CONTINUOUS
 62
     7
  5
CA
  0
POLYLINE
  8
1
  6
CONTINUOUS
 62
     7
  5
CB
 66
     1
 10
0.0
 20
0.0
 30
0.0
  0
VERTEX
  8
1
  6
CONTINUOUS
 62
     7
  5
CC
 10
498.049167
 20
133.64325
 30
0.0
  0
VERTEX
  8
1
  6
CONTINUOUS
 62
     7
  5
CD
 10
496.049167
 20
130.179167
 30
0.0
  0
VERTEX
  8
1
  6
CONTINUOUS
 62
     7
  5
CE
 10
500.049167
 20
130.179167
 30
0.0
  0
VERTEX
  8
1
  6
CONTINUOUS
 62
     7
  5
CF
 10
498.049167
 20
133.64325
 30
0.0
  0
SEQEND
  8
1
  6
CONTINUOUS
 62
     7
  5
D0
  0
POLYLINE
  8
1
  6
CONTINUOUS
 62
     7
  5
D1
 66
     1
 10
0.0
 20
0.0
 30
0.0
  0
VERTEX
  8
1
  6
CONTINUOUS
 62
     7
  5
D2
 10
498.089
 20
138.156167
 30
0.0
  0
VERTEX
  8
1
  6
CONTINUOUS
 62
     7
  5
D3
 10
496.089
 20
134.692083
 30
0.0
  0
VERTEX
  8
1
  6
CONTINUOUS
 62
     7
  5
D4
 10
500.089
 20
134.692083
 30
0.0
  0
VERTEX
  8
1
  6
CONTINUOUS
 62
     7
  5
D5
 10
498.089
 20
138.156167
 30
0.0
  0
SEQEND
  8
1
  6
CONTINUOUS
 62
     7
  5
D6
  0
POLYLINE
  8
1
  6
CONTINUOUS
 62
     7
  5
D7
 66
     1
 10
0.0
 20
0.0
 30
0.0
  0
VERTEX
  8
1
  6
CONTINUOUS
 62
     7
  5
D8
 10
498.128833
 20
142.720583
 30
0.0
  0
VERTEX
  8
1
  6
CONTINUOUS
 62
     7
  5
D9
 10
496.128833
 20
139.2565
 30
0.0
  0
VERTEX
  8
1
  6
CONTINUOUS
 62
     7
  5
DA
 10
500.128833
 20
139.2565
 30
0.0
  0
VERTEX
  8
1
  6
CONTINUOUS
 62
     7
  5
DB
 10
498.128833
 20
142.720583
 30
0.0
  0
SEQEND
  8
1
  6
CONTINUOUS
 62
     7
  5
DC
  0
TEXT
  8
1
  6
CONTINUOUS
 62
     7
  5
DD
 10
521.290083
 20
70.9665
 30
0.0
 40
6.992667
  1
ROADSIDE SIGN SUPPORT
  7
txt
 72
     1
 11
583.707083
 21
77.959167
 31
0.0
210
0.0
220
0.0
230
1.0
 73
     3
  0
TEXT
  8
1
  6
CONTINUOUS
 62
     7
  5
DE
 10
556.00125
 20
60.570833
 30
0.0
 40
6.992667
  1
U-CHANNEL
  7
txt
 72
     1
 11
583.707
 21
67.5635
 31
0.0
210
0.0
220
0.0
230
1.0
 73
     3
  0
TEXT
  8
1
  6
CONTINUOUS
 62
     7
  5
DF
 10
500.902583
 20
46.698833
 30
0.0
 40
1.75
  1
1
  7
MONOTXT
210
0.0
220
0.0
230
1.0
  0
TEXT
  8
1
  6
CONTINUOUS
 62
     7
  5
E0
 10
500.557417
 20
42.152333
 30
0.0
 40
1.75
  1
2
  7
MONOTXT
210
0.0
220
0.0
230
1.0
  0
TEXT
  8
1
  6
CONTINUOUS
 62
     7
  5
E1
 10
500.32725
 20
37.54825
 30
0.0
 40
1.75
  1
3
  7
MONOTXT
210
0.0
220
0.0
230
1.0
  0
TEXT
  8
1
  6
CONTINUOUS
 62
     7
  5
E2
 10
500.154667
 20
33.232
 30
0.0
 40
1.75
  1
4
  7
MONOTXT
210
0.0
220
0.0
230
1.0
  0
TEXT
  8
1
  6
CONTINUOUS
 62
     7
  5
E3
 10
500.442333
 20
28.512833
 30
0.0
 40
1.75
  1
5
  7
MONOTXT
210
0.0
220
0.0
230
1.0
  0
TEXT
  8
1
  6
CONTINUOUS
 62
     7
  5
E4
 10
500.442333
 20
24.138917
 30
0.0
 40
1.75
  1
6
  7
MONOTXT
210
0.0
220
0.0
230
1.0
  0
TEXT
  8
1
  6
CONTINUOUS
 62
     7
  5
E5
 10
500.442333
 20
19.477333
 30
0.0
 40
1.75
  1
7
  7
MONOTXT
210
0.0
220
0.0
230
1.0
  0
TEXT
  8
1
  6
CONTINUOUS
 62
     7
  5
E6
 10
500.442333
 20
15.1035
 30
0.0
 40
1.75
  1
8
  7
MONOTXT
210
0.0
220
0.0
230
1.0
  0
TEXT
  8
1
  6
CONTINUOUS
 62
     7
  5
E7
 10
497.816333
 20
139.691917
 30
0.0
 40
1.75
  1
1
  7
MONOTXT
210
0.0
220
0.0
230
1.0
  0
TEXT
  8
1
  6
CONTINUOUS
 62
     7
  5
E8
 10
497.475583
 20
135.056167
 30
0.0
 40
1.75
  1
2
  7
MONOTXT
210
0.0
220
0.0
230
1.0
  0
TEXT
  8
1
  6
CONTINUOUS
 62
     7
  5
E9
 10
497.407417
 20
130.488667
 30
0.0
 40
1.75
  1
3
  7
MONOTXT
210
0.0
220
0.0
230
1.0
  0
TEXT
  8
1
  6
CONTINUOUS
 62
     7
  5
EA
 10
497.33925
 20
126.057583
 30
0.0
 40
1.75
  1
4
  7
MONOTXT
210
0.0
220
0.0
230
1.0
  0
TEXT
  8
1
  6
CONTINUOUS
 62
     7
  5
EB
 10
497.33925
 20
121.2855
 30
0.0
 40
1.75
  1
5
  7
MONOTXT
210
0.0
220
0.0
230
1.0
  0
TEXT
  8
1
  6
CONTINUOUS
 62
     7
  5
EC
 10
497.475583
 20
116.854333
 30
0.0
 40
1.75
  1
6
  7
MONOTXT
210
0.0
220
0.0
230
1.0
  0
TEXT
  8
1
  6
CONTINUOUS
 62
     7
  5
ED
 10
497.475583
 20
112.1505
 30
0.0
 40
1.75
  1
7
  7
MONOTXT
210
0.0
220
0.0
230
1.0
  0
TEXT
  8
1
  6
CONTINUOUS
 62
     7
  5
EE
 10
497.475583
 20
107.583
 30
0.0
 40
1.75
  1
8
  7
MONOTXT
210
0.0
220
0.0
230
1.0
  0
TEXT
  8
1
  6
CONTINUOUS
 62
     7
  5
EF
 10
501.291917
 20
140.169083
 30
0.0
 40
1.75
  1
REVISION OF NOTES
  7
MONOTXT
210
0.0
220
0.0
230
1.0
  0
TEXT
  8
1
  6
CONTINUOUS
 62
     7
  5
F0
 10
501.0875
 20
135.533417
 30
0.0
 40
1.75
  1
WIND PRESSURE REDUCTIONS
  7
MONOTXT
210
0.0
220
0.0
230
1.0
  0
TEXT
  8
1
  6
CONTINUOUS
 62
     7
  5
F1
 10
501.155667
 20
130.965917
 30
0.0
 40
1.75
  1
GENERAL NOTES
  7
MONOTXT
210
0.0
220
0.0
230
1.0
  0
TEXT
  8
1
  6
CONTINUOUS
 62
     7
  5
F2
 10
501.360083
 20
126.466583
 30
0.0
 40
1.75
  1
EMBEDMENT
  7
MONOTXT
210
0.0
220
0.0
230
1.0
  0
TEXT
  8
1
  6
CONTINUOUS
 62
     7
  5
F3
 10
501.291917
 20
122.035417
 30
0.0
 40
1.75
  1
POST SECTION
  7
MONOTXT
210
0.0
220
0.0
230
1.0
  0
TEXT
  8
1
  6
CONTINUOUS
 62
     7
  5
F4
 10
501.155667
 20
117.39975
 30
0.0
 40
1.75
  1
DEPTH, CONC., NOTES
  7
MONOTXT
210
0.0
220
0.0
230
1.0
  0
TEXT
  8
1
  6
CONTINUOUS
 62
     7
  5
F5
 10
501.0875
 20
112.900417
 30
0.0
 40
1.75
  1
REV. OF SEC. MOD.
  7
MONOTXT
210
0.0
220
0.0
230
1.0
  0
TEXT
  8
1
  6
CONTINUOUS
 62
     7
  5
F6
 10
500.883083
 20
108.128417
 30
0.0
 40
1.75
  1
CHANGED 4.0  RQMTS. & NOTE
  7
MONOTXT
210
0.0
220
0.0
230
1.0
  0
TEXT
  8
1
  6
CONTINUOUS
 62
     7
  5
F7
 10
519.21525
 20
106.901333
 30
0.0
 40
3.5
  1
#
  7
MONOTXT
210
0.0
220
0.0
230
1.0
  0
LINE
  8
1
  6
CONTINUOUS
 62
     3
  5
F8
 10
35.948583
 20
396.161083
 30
0.0
 11
575.948583
 21
396.161083
 31
0.0
  0
LINE
  8
1
  6
CONTINUOUS
 62
     3
  5
F9
 10
575.948583
 20
396.161083
 30
0.0
 11
575.948583
 21
183.161083
 31
0.0
  0
LINE
  8
1
  6
CONTINUOUS
 62
     3
  5
FA
 10
35.948583
 20
396.161083
 30
0.0
 11
35.948583
 21
183.161083
 31
0.0
  0
LINE
  8
1
  6
CONTINUOUS
 62
     3
  5
FB
 10
35.948583
 20
183.161083
 30
0.0
 11
575.948583
 21
183.161083
 31
0.0
  0
LINE
  8
1
  6
CONTINUOUS
 62
     3
  5
FC
 10
36.948583
 20
395.161083
 30
0.0
 11
36.948583
 21
184.161083
 31
0.0
  0
LINE
  8
1
  6
CONTINUOUS
 62
     3
  5
FD
 10
36.948583
 20
395.161083
 30
0.0
 11
574.948583
 21
395.161083
 31
0.0
  0
LINE
  8
1
  6
CONTINUOUS
 62
     3
  5
FE
 10
574.948583
 20
395.161083
 30
0.0
 11
574.948583
 21
184.161083
 31
0.0
  0
LINE
  8
1
  6
CONTINUOUS
 62
     3
  5
FF
 10
36.948583
 20
184.161083
 30
0.0
 11
574.948583
 21
184.161083
 31
0.0
  0
LINE
  8
1
  6
CONTINUOUS
 62
     3
  5
100
 10
64.448583
 20
385.161083
 30
0.0
 11
64.448583
 21
184.161083
 31
0.0
  0
LINE
  8
1
  6
CONTINUOUS
 62
     3
  5
101
 10
65.448583
 20
385.161083
 30
0.0
 11
65.448583
 21
184.161083
 31
0.0
  0
LINE
  8
1
  6
CONTINUOUS
 62
     3
  5
102
 10
547.448583
 20
385.161083
 30
0.0
 11
547.448583
 21
184.161083
 31
0.0
  0
LINE
  8
1
  6
CONTINUOUS
 62
     3
  5
103
 10
546.448583
 20
385.161083
 30
0.0
 11
546.448583
 21
184.161083
 31
0.0
  0
LINE
  8
1
  6
CONTINUOUS
 62
     3
  5
104
 10
36.948583
 20
375.161083
 30
0.0
 11
574.948583
 21
375.161083
 31
0.0
  0
LINE
  8
1
  6
CONTINUOUS
 62
     3
  5
105
 10
36.948583
 20
374.161083
 30
0.0
 11
574.948583
 21
374.161083
 31
0.0
  0
LINE
  8
1
  6
CONTINUOUS
 62
     3
  5
106
 10
78.448583
 20
385.161083
 30
0.0
 11
78.448583
 21
184.161083
 31
0.0
  0
LINE
  8
1
  6
CONTINUOUS
 62
     3
  5
107
 10
234.448583
 20
385.161083
 30
0.0
 11
234.448583
 21
184.161083
 31
0.0
  0
LINE
  8
1
  6
CONTINUOUS
 62
     3
  5
108
 10
273.448583
 20
385.161083
 30
0.0
 11
273.448583
 21
184.161083
 31
0.0
  0
LINE
  8
1
  6
CONTINUOUS
 62
     3
  5
109
 10
299.448583
 20
385.161083
 30
0.0
 11
299.448583
 21
184.161083
 31
0.0
  0
LINE
  8
1
  6
CONTINUOUS
 62
     3
  5
10A
 10
312.448583
 20
385.161083
 30
0.0
 11
312.448583
 21
184.161083
 31
0.0
  0
LINE
  8
1
  6
CONTINUOUS
 62
     3
  5
10B
 10
325.448583
 20
385.161083
 30
0.0
 11
325.448583
 21
184.161083
 31
0.0
  0
LINE
  8
1
  6
CONTINUOUS
 62
     3
  5
10C
 10
338.448583
 20
385.161083
 30
0.0
 11
338.448583
 21
184.161083
 31
0.0
  0
LINE
  8
1
  6
CONTINUOUS
 62
     3
  5
10D
 10
351.448583
 20
385.161083
 30
0.0
 11
351.448583
 21
184.161083
 31
0.0
  0
LINE
  8
1
  6
CONTINUOUS
 62
     3
  5
10E
 10
364.448583
 20
385.161083
 30
0.0
 11
364.448583
 21
184.161083
 31
0.0
  0
LINE
  8
1
  6
CONTINUOUS
 62
     3
  5
10F
 10
377.448583
 20
385.161083
 30
0.0
 11
377.448583
 21
184.161083
 31
0.0
  0
LINE
  8
1
  6
CONTINUOUS
 62
     3
  5
110
 10
390.448583
 20
385.161083
 30
0.0
 11
390.448583
 21
184.161083
 31
0.0
  0
LINE
  8
1
  6
CONTINUOUS
 62
     3
  5
111
 10
403.448583
 20
385.161083
 30
0.0
 11
403.448583
 21
184.161083
 31
0.0
  0
LINE
  8
1
  6
CONTINUOUS
 62
     3
  5
112
 10
416.448583
 20
385.161083
 30
0.0
 11
416.448583
 21
184.161083
 31
0.0
  0
LINE
  8
1
  6
CONTINUOUS
 62
     3
  5
113
 10
429.448583
 20
385.161083
 30
0.0
 11
429.448583
 21
184.161083
 31
0.0
  0
LINE
  8
1
  6
CONTINUOUS
 62
     3
  5
114
 10
442.448583
 20
385.161083
 30
0.0
 11
442.448583
 21
184.161083
 31
0.0
  0
LINE
  8
1
  6
CONTINUOUS
 62
     3
  5
115
 10
455.448583
 20
385.161083
 30
0.0
 11
455.448583
 21
184.161083
 31
0.0
  0
LINE
  8
1
  6
CONTINUOUS
 62
     3
  5
116
 10
468.448583
 20
385.161083
 30
0.0
 11
468.448583
 21
184.161083
 31
0.0
  0
LINE
  8
1
  6
CONTINUOUS
 62
     3
  5
117
 10
481.448583
 20
385.161083
 30
0.0
 11
481.448583
 21
184.161083
 31
0.0
  0
LINE
  8
1
  6
CONTINUOUS
 62
     3
  5
118
 10
494.448583
 20
385.161083
 30
0.0
 11
494.448583
 21
184.161083
 31
0.0
  0
LINE
  8
1
  6
CONTINUOUS
 62
     3
  5
119
 10
507.448583
 20
385.161083
 30
0.0
 11
507.448583
 21
184.161083
 31
0.0
  0
LINE
  8
1
  6
CONTINUOUS
 62
     3
  5
11A
 10
520.448583
 20
385.161083
 30
0.0
 11
520.448583
 21
184.161083
 31
0.0
  0
LINE
  8
1
  6
CONTINUOUS
 62
     3
  5
11B
 10
533.448583
 20
385.161083
 30
0.0
 11
533.448583
 21
184.161083
 31
0.0
  0
LINE
  8
1
  6
CONTINUOUS
 62
     3
  5
11C
 10
50.698583
 20
364.161083
 30
0.0
 11
64.448583
 21
364.161083
 31
0.0
  0
LINE
  8
1
  6
CONTINUOUS
 62
     3
  5
11D
 10
547.448583
 20
364.161083
 30
0.0
 11
561.198583
 21
364.161083
 31
0.0
  0
TEXT
  8
1
  6
CONTINUOUS
 62
     7
  5
11E
 10
71.06275
 20
378.911083
 30
0.0
 40
2.5
  1
4
  7
MONOTXT
 72
     4
 11
71.958417
 21
380.161083
 31
0.0
210
0.0
220
0.0
230
1.0
  0
TEXT
  8
1
  6
CONTINUOUS
 62
     7
  5
11F
 10
84.121833
 20
378.911083
 30
0.0
 40
2.5
  1
5
  7
MONOTXT
 72
     4
 11
84.958417
 21
380.161083
 31
0.0
210
0.0
220
0.0
230
1.0
  0
TEXT
  8
1
  6
CONTINUOUS
 62
     7
  5
120
 10
97.180833
 20
378.911083
 30
0.0
 40
2.5
  1
6
  7
MONOTXT
 72
     4
 11
97.958333
 21
380.161083
 31
0.0
210
0.0
220
0.0
230
1.0
  0
TEXT
  8
1
  6
CONTINUOUS
 62
     7
  5
121
 10
110.102167
 20
378.911083
 30
0.0
 40
2.5
  1
7
  7
MONOTXT
 72
     4
 11
110.948583
 21
380.161083
 31
0.0
210
0.0
220
0.0
230
1.0
  0
TEXT
  8
1
  6
CONTINUOUS
 62
     7
  5
122
 10
123.121833
 20
378.911083
 30
0.0
 40
2.5
  1
8
  7
MONOTXT
 72
     4
 11
123.958417
 21
380.161083
 31
0.0
210
0.0
220
0.0
230
1.0
  0
TEXT
  8
1
  6
CONTINUOUS
 62
     7
  5
123
 10
136.180833
 20
378.911083
 30
0.0
 40
2.5
  1
9
  7
MONOTXT
 72
     4
 11
136.958333
 21
380.161083
 31
0.0
210
0.0
220
0.0
230
1.0
  0
TEXT
  8
1
  6
CONTINUOUS
 62
     7
  5
124
 10
148.413167
 20
378.911083
 30
0.0
 40
2.5
  1
10
  7
MONOTXT
 72
     4
 11
149.948583
 21
380.161083
 31
0.0
210
0.0
220
0.0
230
1.0
  0
TEXT
  8
1
  6
CONTINUOUS
 62
     7
  5
125
 10
161.944667
 20
378.911083
 30
0.0
 40
2.5
  1
11
  7
MONOTXT
 72
     4
 11
162.948583
 21
380.161083
 31
0.0
210
0.0
220
0.0
230
1.0
  0
TEXT
  8
1
  6
CONTINUOUS
 62
     7
  5
126
 10
174.413167
 20
378.911083
 30
0.0
 40
2.5
  1
12
  7
MONOTXT
 72
     4
 11
175.958417
 21
380.161083
 31
0.0
210
0.0
220
0.0
230
1.0
  0
TEXT
  8
1
  6
CONTINUOUS
 62
     7
  5
127
 10
187.413167
 20
378.911083
 30
0.0
 40
2.5
  1
13
  7
MONOTXT
 72
     4
 11
188.958417
 21
380.161083
 31
0.0
210
0.0
220
0.0
230
1.0
  0
TEXT
  8
1
  6
CONTINUOUS
 62
     7
  5
128
 10
200.354083
 20
378.911083
 30
0.0
 40
2.5
  1
14
  7
MONOTXT
 72
     4
 11
201.958417
 21
380.161083
 31
0.0
210
0.0
220
0.0
230
1.0
  0
TEXT
  8
1
  6
CONTINUOUS
 62
     7
  5
129
 10
213.413167
 20
378.911083
 30
0.0
 40
2.5
  1
15
  7
MONOTXT
 72
     4
 11
214.958417
 21
380.161083
 31
0.0
210
0.0
220
0.0
230
1.0
  0
TEXT
  8
1
  6
CONTINUOUS
 62
     7
  5
12A
 10
226.472167
 20
378.911083
 30
0.0
 40
2.5
  1
16
  7
MONOTXT
 72
     4
 11
227.958333
 21
380.161083
 31
0.0
210
0.0
220
0.0
230
1.0
  0
TEXT
  8
1
  6
CONTINUOUS
 62
     7
  5
12B
 10
239.3935
 20
378.911083
 30
0.0
 40
2.5
  1
17
  7
MONOTXT
 72
     4
 11
240.948583
 21
380.161083
 31
0.0
210
0.0
220
0.0
230
1.0
  0
TEXT
  8
1
  6
CONTINUOUS
 62
     7
  5
12C
 10
252.413167
 20
378.911083
 30
0.0
 40
2.5
  1
18
  7
MONOTXT
 72
     4
 11
253.958417
 21
380.161083
 31
0.0
210
0.0
220
0.0
230
1.0
  0
TEXT
  8
1
  6
CONTINUOUS
 62
     7
  5
12D
 10
265.472167
 20
378.911083
 30
0.0
 40
2.5
  1
19
  7
MONOTXT
 72
     4
 11
266.958333
 21
380.161083
 31
0.0
210
0.0
220
0.0
230
1.0
  0
TEXT
  8
1
  6
CONTINUOUS
 62
     7
  5
12E
 10
277.881667
 20
378.911083
 30
0.0
 40
2.5
  1
20
  7
MONOTXT
 72
     4
 11
279.948583
 21
380.161083
 31
0.0
210
0.0
220
0.0
230
1.0
  0
TEXT
  8
1
  6
CONTINUOUS
 62
     7
  5
12F
 10
291.413167
 20
378.911083
 30
0.0
 40
2.5
  1
21
  7
MONOTXT
 72
     4
 11
292.948583
 21
380.161083
 31
0.0
210
0.0
220
0.0
230
1.0
  0
TEXT
  8
1
  6
CONTINUOUS
 62
     7
  5
130
 10
303.881667
 20
378.911083
 30
0.0
 40
2.5
  1
22
  7
MONOTXT
 72
     4
 11
305.958417
 21
380.161083
 31
0.0
210
0.0
220
0.0
230
1.0
  0
TEXT
  8
1
  6
CONTINUOUS
 62
     7
  5
131
 10
316.881667
 20
378.911083
 30
0.0
 40
2.5
  1
23
  7
MONOTXT
 72
     4
 11
318.958417
 21
380.161083
 31
0.0
210
0.0
220
0.0
230
1.0
  0
TEXT
  8
1
  6
CONTINUOUS
 62
     7
  5
132
 10
329.822583
 20
378.911083
 30
0.0
 40
2.5
  1
24
  7
MONOTXT
 72
     4
 11
331.958417
 21
380.161083
 31
0.0
210
0.0
220
0.0
230
1.0
  0
TEXT
  8
1
  6
CONTINUOUS
 62
     7
  5
133
 10
342.881667
 20
378.911083
 30
0.0
 40
2.5
  1
25
  7
MONOTXT
 72
     4
 11
344.958417
 21
380.161083
 31
0.0
210
0.0
220
0.0
230
1.0
  0
TEXT
  8
1
  6
CONTINUOUS
 62
     7
  5
134
 10
355.94075
 20
378.911083
 30
0.0
 40
2.5
  1
26
  7
MONOTXT
 72
     4
 11
357.958417
 21
380.161083
 31
0.0
210
0.0
220
0.0
230
1.0
  0
TEXT
  8
1
  6
CONTINUOUS
 62
     7
  5
135
 10
368.862
 20
378.911083
 30
0.0
 40
2.5
  1
27
  7
MONOTXT
 72
     4
 11
370.948583
 21
380.161083
 31
0.0
210
0.0
220
0.0
230
1.0
  0
TEXT
  8
1
  6
CONTINUOUS
 62
     7
  5
136
 10
381.881667
 20
378.911083
 30
0.0
 40
2.5
  1
28
  7
MONOTXT
 72
     4
 11
383.958417
 21
380.161083
 31
0.0
210
0.0
220
0.0
230
1.0
  0
TEXT
  8
1
  6
CONTINUOUS
 62
     7
  5
137
 10
394.94075
 20
378.911083
 30
0.0
 40
2.5
  1
29
  7
MONOTXT
 72
     4
 11
396.958417
 21
380.161083
 31
0.0
210
0.0
220
0.0
230
1.0
  0
TEXT
  8
1
  6
CONTINUOUS
 62
     7
  5
138
 10
407.881667
 20
378.911083
 30
0.0
 40
2.5
  1
30
  7
MONOTXT
 72
     4
 11
409.948583
 21
380.161083
 31
0.0
210
0.0
220
0.0
230
1.0
  0
TEXT
  8
1
  6
CONTINUOUS
 62
     7
  5
139
 10
421.413167
 20
378.911083
 30
0.0
 40
2.5
  1
31
  7
MONOTXT
 72
     4
 11
422.948583
 21
380.161083
 31
0.0
210
0.0
220
0.0
230
1.0
  0
TEXT
  8
1
  6
CONTINUOUS
 62
     7
  5
13A
 10
433.881667
 20
378.911083
 30
0.0
 40
2.5
  1
32
  7
MONOTXT
 72
     4
 11
435.958417
 21
380.161083
 31
0.0
210
0.0
220
0.0
230
1.0
  0
TEXT
  8
1
  6
CONTINUOUS
 62
     7
  5
13B
 10
446.881667
 20
378.911083
 30
0.0
 40
2.5
  1
33
  7
MONOTXT
 72
     4
 11
448.958417
 21
380.161083
 31
0.0
210
0.0
220
0.0
230
1.0
  0
TEXT
  8
1
  6
CONTINUOUS
 62
     7
  5
13C
 10
459.822583
 20
378.911083
 30
0.0
 40
2.5
  1
34
  7
MONOTXT
 72
     4
 11
461.958417
 21
380.161083
 31
0.0
210
0.0
220
0.0
230
1.0
  0
TEXT
  8
1
  6
CONTINUOUS
 62
     7
  5
13D
 10
472.881667
 20
378.911083
 30
0.0
 40
2.5
  1
35
  7
MONOTXT
 72
     4
 11
474.958417
 21
380.161083
 31
0.0
210
0.0
220
0.0
230
1.0
  0
TEXT
  8
1
  6
CONTINUOUS
 62
     7
  5
13E
 10
485.94075
 20
378.911083
 30
0.0
 40
2.5
  1
36
  7
MONOTXT
 72
     4
 11
487.958417
 21
380.161083
 31
0.0
210
0.0
220
0.0
230
1.0
  0
TEXT
  8
1
  6
CONTINUOUS
 62
     7
  5
13F
 10
498.862
 20
378.911083
 30
0.0
 40
2.5
  1
37
  7
MONOTXT
 72
     4
 11
500.948583
 21
380.161083
 31
0.0
210
0.0
220
0.0
230
1.0
  0
TEXT
  8
1
  6
CONTINUOUS
 62
     7
  5
140
 10
511.881667
 20
378.911083
 30
0.0
 40
2.5
  1
38
  7
MONOTXT
 72
     4
 11
513.958417
 21
380.161083
 31
0.0
210
0.0
220
0.0
230
1.0
  0
TEXT
  8
1
  6
CONTINUOUS
 62
     7
  5
141
 10
524.94075
 20
378.911083
 30
0.0
 40
2.5
  1
39
  7
MONOTXT
 72
     4
 11
526.958417
 21
380.161083
 31
0.0
210
0.0
220
0.0
230
1.0
  0
TEXT
  8
1
  6
CONTINUOUS
 62
     7
  5
142
 10
537.822583
 20
378.911083
 30
0.0
 40
2.5
  1
40
  7
MONOTXT
 72
     4
 11
539.948583
 21
380.161083
 31
0.0
210
0.0
220
0.0
230
1.0
  0
TEXT
  8
1
  6
CONTINUOUS
 62
     7
  5
143
 10
54.93575
 20
367.911083
 30
0.0
 40
2.5
  1
6.0
  7
MONOTXT
 72
     4
 11
57.5735
 21
369.161083
 31
0.0
210
0.0
220
0.0
230
1.0
  0
TEXT
  8
1
  6
CONTINUOUS
 62
     7
  5
144
 10
54.93575
 20
357.911083
 30
0.0
 40
2.5
  1
6.5
  7
MONOTXT
 72
     4
 11
57.583333
 21
359.161083
 31
0.0
210
0.0
220
0.0
230
1.0
  0
TEXT
  8
1
  6
CONTINUOUS
 62
     7
  5
145
 10
54.857083
 20
347.911083
 30
0.0
 40
2.5
  1
7.0
  7
MONOTXT
 72
     4
 11
57.573583
 21
349.161083
 31
0.0
210
0.0
220
0.0
230
1.0
  0
TEXT
  8
1
  6
CONTINUOUS
 62
     7
  5
146
 10
54.857083
 20
337.911083
 30
0.0
 40
2.5
  1
7.5
  7
MONOTXT
 72
     4
 11
57.583417
 21
339.161083
 31
0.0
210
0.0
220
0.0
230
1.0
  0
TEXT
  8
1
  6
CONTINUOUS
 62
     7
  5
147
 10
54.87675
 20
327.911083
 30
0.0
 40
2.5
  1
8.0
  7
MONOTXT
 72
     4
 11
57.573583
 21
329.161083
 31
0.0
210
0.0
220
0.0
230
1.0
  0
TEXT
  8
1
  6
CONTINUOUS
 62
     7
  5
148
 10
54.87675
 20
317.911083
 30
0.0
 40
2.5
  1
8.5
  7
MONOTXT
 72
     4
 11
57.583417
 21
319.161083
 31
0.0
210
0.0
220
0.0
230
1.0
  0
TEXT
  8
1
  6
CONTINUOUS
 62
     7
  5
149
 10
54.93575
 20
307.911083
 30
0.0
 40
2.5
  1
9.0
  7
MONOTXT
 72
     4
 11
57.5735
 21
309.161083
 31
0.0
210
0.0
220
0.0
230
1.0
  0
TEXT
  8
1
  6
CONTINUOUS
 62
     7
  5
14A
 10
54.93575
 20
297.911083
 30
0.0
 40
2.5
  1
9.5
  7
MONOTXT
 72
     4
 11
57.583333
 21
299.161083
 31
0.0
210
0.0
220
0.0
230
1.0
  0
TEXT
  8
1
  6
CONTINUOUS
 62
     7
  5
14B
 10
54.168083
 20
277.911083
 30
0.0
 40
2.5
  1
10.5
  7
MONOTXT
 72
     4
 11
57.583417
 21
279.161083
 31
0.0
210
0.0
220
0.0
230
1.0
  0
TEXT
  8
1
  6
CONTINUOUS
 62
     7
  5
14C
 10
54.168083
 20
287.911083
 30
0.0
 40
2.5
  1
10.0
  7
MONOTXT
 72
     4
 11
57.573583
 21
289.161083
 31
0.0
210
0.0
220
0.0
230
1.0
  0
TEXT
  8
1
  6
CONTINUOUS
 62
     7
  5
14D
 10
54.699583
 20
267.911083
 30
0.0
 40
2.5
  1
11.0
  7
MONOTXT
 72
     4
 11
57.573583
 21
269.161083
 31
0.0
210
0.0
220
0.0
230
1.0
  0
TEXT
  8
1
  6
CONTINUOUS
 62
     7
  5
14E
 10
54.699583
 20
257.911083
 30
0.0
 40
2.5
  1
11.5
  7
MONOTXT
 72
     4
 11
57.583417
 21
259.161083
 31
0.0
210
0.0
220
0.0
230
1.0
  0
TEXT
  8
1
  6
CONTINUOUS
 62
     7
  5
14F
 10
54.168083
 20
247.911083
 30
0.0
 40
2.5
  1
12.0
  7
MONOTXT
 72
     4
 11
57.573583
 21
249.161083
 31
0.0
210
0.0
220
0.0
230
1.0
  0
TEXT
  8
1
  6
CONTINUOUS
 62
     7
  5
150
 10
54.168083
 20
237.911083
 30
0.0
 40
2.5
  1
12.5
  7
MONOTXT
 72
     4
 11
57.583417
 21
239.161083
 31
0.0
210
0.0
220
0.0
230
1.0
  0
TEXT
  8
1
  6
CONTINUOUS
 62
     7
  5
151
 10
54.168083
 20
227.911083
 30
0.0
 40
2.5
  1
13.0
  7
MONOTXT
 72
     4
 11
57.573583
 21
229.161083
 31
0.0
210
0.0
220
0.0
230
1.0
  0
TEXT
  8
1
  6
CONTINUOUS
 62
     7
  5
152
 10
54.168083
 20
217.911083
 30
0.0
 40
2.5
  1
13.5
  7
MONOTXT
 72
     4
 11
57.583417
 21
219.161083
 31
0.0
210
0.0
220
0.0
230
1.0
  0
TEXT
  8
1
  6
CONTINUOUS
 62
     7
  5
153
 10
54.109
 20
207.911083
 30
0.0
 40
2.5
  1
14.0
  7
MONOTXT
 72
     4
 11
57.5735
 21
209.161083
 31
0.0
210
0.0
220
0.0
230
1.0
  0
TEXT
  8
1
  6
CONTINUOUS
 62
     7
  5
154
 10
54.109
 20
197.911083
 30
0.0
 40
2.5
  1
14.5
  7
MONOTXT
 72
     4
 11
57.583333
 21
199.161083
 31
0.0
210
0.0
220
0.0
230
1.0
  0
TEXT
  8
1
  6
CONTINUOUS
 62
     7
  5
155
 10
54.168083
 20
187.911083
 30
0.0
 40
2.5
  1
15.0
  7
MONOTXT
 72
     4
 11
57.573583
 21
189.161083
 31
0.0
210
0.0
220
0.0
230
1.0
  0
TEXT
  8
1
  6
CONTINUOUS
 62
     7
  5
156
 10
551.68575
 20
297.911083
 30
0.0
 40
2.5
  1
9.5
  7
MONOTXT
 72
     4
 11
554.333333
 21
299.161083
 31
0.0
210
0.0
220
0.0
230
1.0
  0
TEXT
  8
1
  6
CONTINUOUS
 62
     7
  5
157
 10
551.68575
 20
367.911083
 30
0.0
 40
2.5
  1
6.0
  7
MONOTXT
 72
     4
 11
554.3235
 21
369.161083
 31
0.0
210
0.0
220
0.0
230
1.0
  0
TEXT
  8
1
  6
CONTINUOUS
 62
     7
  5
158
 10
551.68575
 20
357.911083
 30
0.0
 40
2.5
  1
6.5
  7
MONOTXT
 72
     4
 11
554.333333
 21
359.161083
 31
0.0
210
0.0
220
0.0
230
1.0
  0
TEXT
  8
1
  6
CONTINUOUS
 62
     7
  5
159
 10
551.607083
 20
347.911083
 30
0.0
 40
2.5
  1
7.0
  7
MONOTXT
 72
     4
 11
554.323583
 21
349.161083
 31
0.0
210
0.0
220
0.0
230
1.0
  0
TEXT
  8
1
  6
CONTINUOUS
 62
     7
  5
15A
 10
551.607083
 20
337.911083
 30
0.0
 40
2.5
  1
7.5
  7
MONOTXT
 72
     4
 11
554.333417
 21
339.161083
 31
0.0
210
0.0
220
0.0
230
1.0
  0
TEXT
  8
1
  6
CONTINUOUS
 62
     7
  5
15B
 10
551.62675
 20
327.911083
 30
0.0
 40
2.5
  1
8.0
  7
MONOTXT
 72
     4
 11
554.323583
 21
329.161083
 31
0.0
210
0.0
220
0.0
230
1.0
  0
TEXT
  8
1
  6
CONTINUOUS
 62
     7
  5
15C
 10
551.62675
 20
317.911083
 30
0.0
 40
2.5
  1
8.5
  7
MONOTXT
 72
     4
 11
554.333417
 21
319.161083
 31
0.0
210
0.0
220
0.0
230
1.0
  0
TEXT
  8
1
  6
CONTINUOUS
 62
     7
  5
15D
 10
551.68575
 20
307.911083
 30
0.0
 40
2.5
  1
9.0
  7
MONOTXT
 72
     4
 11
554.3235
 21
309.161083
 31
0.0
210
0.0
220
0.0
230
1.0
  0
TEXT
  8
1
  6
CONTINUOUS
 62
     7
  5
15E
 10
550.918083
 20
277.911083
 30
0.0
 40
2.5
  1
10.5
  7
MONOTXT
 72
     4
 11
554.333417
 21
279.161083
 31
0.0
210
0.0
220
0.0
230
1.0
  0
TEXT
  8
1
  6
CONTINUOUS
 62
     7
  5
15F
 10
550.918083
 20
287.911083
 30
0.0
 40
2.5
  1
10.0
  7
MONOTXT
 72
     4
 11
554.323583
 21
289.161083
 31
0.0
210
0.0
220
0.0
230
1.0
  0
TEXT
  8
1
  6
CONTINUOUS
 62
     7
  5
160
 10
551.449583
 20
267.911083
 30
0.0
 40
2.5
  1
11.0
  7
MONOTXT
 72
     4
 11
554.323583
 21
269.161083
 31
0.0
210
0.0
220
0.0
230
1.0
  0
TEXT
  8
1
  6
CONTINUOUS
 62
     7
  5
161
 10
551.449583
 20
257.911083
 30
0.0
 40
2.5
  1
11.5
  7
MONOTXT
 72
     4
 11
554.333417
 21
259.161083
 31
0.0
210
0.0
220
0.0
230
1.0
  0
TEXT
  8
1
  6
CONTINUOUS
 62
     7
  5
162
 10
550.918083
 20
247.911083
 30
0.0
 40
2.5
  1
12.0
  7
MONOTXT
 72
     4
 11
554.323583
 21
249.161083
 31
0.0
210
0.0
220
0.0
230
1.0
  0
TEXT
  8
1
  6
CONTINUOUS
 62
     7
  5
163
 10
550.918083
 20
237.911083
 30
0.0
 40
2.5
  1
12.5
  7
MONOTXT
 72
     4
 11
554.333417
 21
239.161083
 31
0.0
210
0.0
220
0.0
230
1.0
  0
TEXT
  8
1
  6
CONTINUOUS
 62
     7
  5
164
 10
550.918083
 20
227.911083
 30
0.0
 40
2.5
  1
13.0
  7
MONOTXT
 72
     4
 11
554.323583
 21
229.161083
 31
0.0
210
0.0
220
0.0
230
1.0
  0
TEXT
  8
1
  6
CONTINUOUS
 62
     7
  5
165
 10
550.918083
 20
217.911083
 30
0.0
 40
2.5
  1
13.5
  7
MONOTXT
 72
     4
 11
554.333417
 21
219.161083
 31
0.0
210
0.0
220
0.0
230
1.0
  0
TEXT
  8
1
  6
CONTINUOUS
 62
     7
  5
166
 10
550.859
 20
207.911083
 30
0.0
 40
2.5
  1
14.0
  7
MONOTXT
 72
     4
 11
554.3235
 21
209.161083
 31
0.0
210
0.0
220
0.0
230
1.0
  0
TEXT
  8
1
  6
CONTINUOUS
 62
     7
  5
167
 10
550.859
 20
197.911083
 30
0.0
 40
2.5
  1
14.5
  7
MONOTXT
 72
     4
 11
554.333333
 21
199.161083
 31
0.0
210
0.0
220
0.0
230
1.0
  0
TEXT
  8
1
  6
CONTINUOUS
 62
     7
  5
168
 10
550.918083
 20
187.911083
 30
0.0
 40
2.5
  1
15.0
  7
MONOTXT
 72
     4
 11
554.323583
 21
189.161083
 31
0.0
210
0.0
220
0.0
230
1.0
  0
TEXT
  8
1
  6
CONTINUOUS
 62
     7
  5
169
 10
43.12125
 20
234.351833
 30
0.0
 40
3.0
  1
DIMENSION FROM GROUND TO CENTER
 50
90.0
  7
MONOTXT
 72
     4
 11
41.62125
 21
279.009333
 31
0.0
210
0.0
220
0.0
230
1.0
  0
TEXT
  8
1
  6
CONTINUOUS
 62
     7
  5
16A
 10
48.12125
 20
232.332167
 30
0.0
 40
3.0
  1
OF PRESSURE ON SIGN ("CP" IN FEET.)
 50
90.0
  7
MONOTXT
 72
     4
 11
46.62125
 21
278.9975
 31
0.0
210
0.0
220
0.0
230
1.0
  0
TEXT
  8
1
  6
CONTINUOUS
 62
     7
  5
16B
 10
566.347083
 20
234.39125
 30
0.0
 40
3.0
  1
DIMENSION FROM GROUND TO CENTER
 50
90.0
  7
MONOTXT
 72
     4
 11
564.847083
 21
279.04875
 31
0.0
210
0.0
220
0.0
230
1.0
  0
TEXT
  8
1
  6
CONTINUOUS
 62
     7
  5
16C
 10
571.347083
 20
232.371583
 30
0.0
 40
3.0
  1
OF PRESSURE ON SIGN ("CP" IN FEET.)
 50
90.0
  7
MONOTXT
 72
     4
 11
569.847083
 21
279.036917
 31
0.0
210
0.0
220
0.0
230
1.0
  0
TEXT
  8
1
  6
CONTINUOUS
 62
     7
  5
16D
 10
238.592833
 20
405.75325
 30
0.0
 40
3.5
  1
SIGN POST SECTION REQUIRED (TWO SUPPORTS)
  7
MONOTXT
 72
     4
 11
305.7955
 21
407.50325
 31
0.0
210
0.0
220
0.0
230
1.0
  0
LINE
  8
1
  6
CONTINUOUS
 62
     7
  5
16E
 10
237.69325
 20
404.452583
 30
0.0
 11
373.945917
 21
404.452583
 31
0.0
  0
TEXT
  8
1
  6
CONTINUOUS
 62
     7
  5
16F
 10
263.223583
 20
388.32875
 30
0.0
 40
3.0
  1
TOTAL SQUARE FEET OF SIGN AREA
  7
MONOTXT
 72
     4
 11
305.979417
 21
389.82875
 31
0.0
210
0.0
220
0.0
230
1.0
  0
LINE
  8
1
  6
CONTINUOUS
 62
     3
  5
170
 10
91.448583
 20
385.161083
 30
0.0
 11
91.448583
 21
194.161083
 31
0.0
  0
LINE
  8
1
  6
CONTINUOUS
 62
     1
  5
171
 10
91.448583
 20
194.161083
 30
0.0
 11
91.448583
 21
184.161083
 31
0.0
  0
LINE
  8
1
  6
CONTINUOUS
 62
     3
  5
172
 10
50.698583
 20
194.161083
 30
0.0
 11
91.448583
 21
194.161083
 31
0.0
  0
LINE
  8
1
  6
CONTINUOUS
 62
     1
  5
173
 10
91.448583
 20
194.161083
 30
0.0
 11
104.448583
 21
194.161083
 31
0.0
  0
LINE
  8
1
  6
CONTINUOUS
 62
     3
  5
174
 10
104.448583
 20
385.161083
 30
0.0
 11
104.448583
 21
214.161083
 31
0.0
  0
LINE
  8
1
  6
CONTINUOUS
 62
     1
  5
175
 10
104.448583
 20
214.161083
 30
0.0
 11
104.448583
 21
194.161083
 31
0.0
  0
LINE
  8
1
  6
CONTINUOUS
 62
     3
  5
176
 10
104.448583
 20
194.161083
 30
0.0
 11
104.448583
 21
184.161083
 31
0.0
  0
LINE
  8
1
  6
CONTINUOUS
 62
     3
  5
177
 10
50.698583
 20
214.161083
 30
0.0
 11
104.448583
 21
214.161083
 31
0.0
  0
LINE
  8
1
  6
CONTINUOUS
 62
     1
  5
178
 10
104.448583
 20
214.161083
 30
0.0
 11
117.448583
 21
214.161083
 31
0.0
  0
LINE
  8
1
  6
CONTINUOUS
 62
     3
  5
179
 10
117.448583
 20
385.161083
 30
0.0
 11
117.448583
 21
234.161083
 31
0.0
  0
LINE
  8
1
  6
CONTINUOUS
 62
     1
  5
17A
 10
117.448583
 20
234.161083
 30
0.0
 11
117.448583
 21
214.161083
 31
0.0
  0
LINE
  8
1
  6
CONTINUOUS
 62
     3
  5
17B
 10
117.448583
 20
214.161083
 30
0.0
 11
117.448583
 21
184.161083
 31
0.0
  0
LINE
  8
1
  6
CONTINUOUS
 62
     3
  5
17C
 10
50.698583
 20
234.161083
 30
0.0
 11
117.448583
 21
234.161083
 31
0.0
  0
LINE
  8
1
  6
CONTINUOUS
 62
     1
  5
17D
 10
117.448583
 20
234.161083
 30
0.0
 11
130.448583
 21
234.161083
 31
0.0
  0
LINE
  8
1
  6
CONTINUOUS
 62
     3
  5
17E
 10
130.448583
 20
385.161083
 30
0.0
 11
130.448583
 21
254.161083
 31
0.0
  0
LINE
  8
1
  6
CONTINUOUS
 62
     1
  5
17F
 10
130.448583
 20
254.161083
 30
0.0
 11
130.448583
 21
234.161083
 31
0.0
  0
LINE
  8
1
  6
CONTINUOUS
 62
     3
  5
180
 10
130.448583
 20
234.161083
 30
0.0
 11
130.448583
 21
184.161083
 31
0.0
  0
LINE
  8
1
  6
CONTINUOUS
 62
     3
  5
181
 10
50.698583
 20
254.161083
 30
0.0
 11
130.448583
 21
254.161083
 31
0.0
  0
LINE
  8
1
  6
CONTINUOUS
 62
     1
  5
182
 10
130.448583
 20
254.161083
 30
0.0
 11
143.448583
 21
254.161083
 31
0.0
  0
LINE
  8
1
  6
CONTINUOUS
 62
     3
  5
183
 10
143.448583
 20
385.161083
 30
0.0
 11
143.448583
 21
274.161083
 31
0.0
  0
LINE
  8
1
  6
CONTINUOUS
 62
     1
  5
184
 10
143.448583
 20
274.161083
 30
0.0
 11
143.448583
 21
254.161083
 31
0.0
  0
LINE
  8
1
  6
CONTINUOUS
 62
     3
  5
185
 10
143.448583
 20
254.161083
 30
0.0
 11
143.448583
 21
184.161083
 31
0.0
  0
LINE
  8
1
  6
CONTINUOUS
 62
     3
  5
186
 10
50.698583
 20
274.161083
 30
0.0
 11
143.448583
 21
274.161083
 31
0.0
  0
LINE
  8
1
  6
CONTINUOUS
 62
     1
  5
187
 10
143.448583
 20
274.161083
 30
0.0
 11
156.448583
 21
274.161083
 31
0.0
  0
LINE
  8
1
  6
CONTINUOUS
 62
     3
  5
188
 10
156.448583
 20
385.161083
 30
0.0
 11
156.448583
 21
284.161083
 31
0.0
  0
LINE
  8
1
  6
CONTINUOUS
 62
     1
  5
189
 10
156.448583
 20
284.161083
 30
0.0
 11
156.448583
 21
274.161083
 31
0.0
  0
LINE
  8
1
  6
CONTINUOUS
 62
     3
  5
18A
 10
156.448583
 20
274.161083
 30
0.0
 11
156.448583
 21
184.161083
 31
0.0
  0
LINE
  8
1
  6
CONTINUOUS
 62
     3
  5
18B
 10
50.698583
 20
284.161083
 30
0.0
 11
156.448583
 21
284.161083
 31
0.0
  0
LINE
  8
1
  6
CONTINUOUS
 62
     1
  5
18C
 10
156.448583
 20
284.161083
 30
0.0
 11
169.448583
 21
284.161083
 31
0.0
  0
LINE
  8
1
  6
CONTINUOUS
 62
     3
  5
18D
 10
169.448583
 20
385.161083
 30
0.0
 11
169.448583
 21
294.161083
 31
0.0
  0
LINE
  8
1
  6
CONTINUOUS
 62
     1
  5
18E
 10
169.448583
 20
294.161083
 30
0.0
 11
169.448583
 21
284.161083
 31
0.0
  0
LINE
  8
1
  6
CONTINUOUS
 62
     3
  5
18F
 10
169.448583
 20
284.161083
 30
0.0
 11
169.448583
 21
184.161083
 31
0.0
  0
LINE
  8
1
  6
CONTINUOUS
 62
     3
  5
190
 10
50.698583
 20
294.161083
 30
0.0
 11
169.448583
 21
294.161083
 31
0.0
  0
LINE
  8
1
  6
CONTINUOUS
 62
     1
  5
191
 10
169.448583
 20
294.161083
 30
0.0
 11
182.448583
 21
294.161083
 31
0.0
  0
LINE
  8
1
  6
CONTINUOUS
 62
     3
  5
192
 10
182.448583
 20
385.161083
 30
0.0
 11
182.448583
 21
314.161083
 31
0.0
  0
LINE
  8
1
  6
CONTINUOUS
 62
     1
  5
193
 10
182.448583
 20
314.161083
 30
0.0
 11
182.448583
 21
294.161083
 31
0.0
  0
LINE
  8
1
  6
CONTINUOUS
 62
     3
  5
194
 10
182.448583
 20
294.161083
 30
0.0
 11
182.448583
 21
184.161083
 31
0.0
  0
LINE
  8
1
  6
CONTINUOUS
 62
     3
  5
195
 10
50.698583
 20
314.161083
 30
0.0
 11
182.448583
 21
314.161083
 31
0.0
  0
LINE
  8
1
  6
CONTINUOUS
 62
     1
  5
196
 10
182.448583
 20
314.161083
 30
0.0
 11
195.448583
 21
314.161083
 31
0.0
  0
LINE
  8
1
  6
CONTINUOUS
 62
     3
  5
197
 10
195.448583
 20
385.161083
 30
0.0
 11
195.448583
 21
324.161083
 31
0.0
  0
LINE
  8
1
  6
CONTINUOUS
 62
     1
  5
198
 10
195.448583
 20
324.161083
 30
0.0
 11
195.448583
 21
314.161083
 31
0.0
  0
LINE
  8
1
  6
CONTINUOUS
 62
     3
  5
199
 10
195.448583
 20
314.161083
 30
0.0
 11
195.448583
 21
184.161083
 31
0.0
  0
LINE
  8
1
  6
CONTINUOUS
 62
     3
  5
19A
 10
50.698583
 20
324.161083
 30
0.0
 11
195.448583
 21
324.161083
 31
0.0
  0
LINE
  8
1
  6
CONTINUOUS
 62
     1
  5
19B
 10
195.448583
 20
324.161083
 30
0.0
 11
208.448583
 21
324.161083
 31
0.0
  0
LINE
  8
1
  6
CONTINUOUS
 62
     3
  5
19C
 10
208.448583
 20
385.161083
 30
0.0
 11
208.448583
 21
334.161083
 31
0.0
  0
LINE
  8
1
  6
CONTINUOUS
 62
     1
  5
19D
 10
208.448583
 20
334.161083
 30
0.0
 11
208.448583
 21
324.161083
 31
0.0
  0
LINE
  8
1
  6
CONTINUOUS
 62
     3
  5
19E
 10
208.448583
 20
324.161083
 30
0.0
 11
208.448583
 21
184.161083
 31
0.0
  0
LINE
  8
1
  6
CONTINUOUS
 62
     3
  5
19F
 10
50.698583
 20
334.161083
 30
0.0
 11
208.448583
 21
334.161083
 31
0.0
  0
LINE
  8
1
  6
CONTINUOUS
 62
     1
  5
1A0
 10
208.448583
 20
334.161083
 30
0.0
 11
221.448583
 21
334.161083
 31
0.0
  0
LINE
  8
1
  6
CONTINUOUS
 62
     3
  5
1A1
 10
221.448583
 20
385.161083
 30
0.0
 11
221.448583
 21
344.161083
 31
0.0
  0
LINE
  8
1
  6
CONTINUOUS
 62
     1
  5
1A2
 10
221.448583
 20
344.161083
 30
0.0
 11
221.448583
 21
334.161083
 31
0.0
  0
LINE
  8
1
  6
CONTINUOUS
 62
     3
  5
1A3
 10
221.448583
 20
334.161083
 30
0.0
 11
221.448583
 21
184.161083
 31
0.0
  0
LINE
  8
1
  6
CONTINUOUS
 62
     3
  5
1A4
 10
50.698583
 20
344.161083
 30
0.0
 11
221.448583
 21
344.161083
 31
0.0
  0
LINE
  8
1
  6
CONTINUOUS
 62
     1
  5
1A5
 10
221.448583
 20
344.161083
 30
0.0
 11
247.448583
 21
344.161083
 31
0.0
  0
LINE
  8
1
  6
CONTINUOUS
 62
     3
  5
1A6
 10
247.448583
 20
385.161083
 30
0.0
 11
247.448583
 21
354.161083
 31
0.0
  0
LINE
  8
1
  6
CONTINUOUS
 62
     1
  5
1A7
 10
247.448583
 20
354.161083
 30
0.0
 11
247.448583
 21
344.161083
 31
0.0
  0
LINE
  8
1
  6
CONTINUOUS
 62
     3
  5
1A8
 10
247.448583
 20
344.161083
 30
0.0
 11
247.448583
 21
184.161083
 31
0.0
  0
LINE
  8
1
  6
CONTINUOUS
 62
     3
  5
1A9
 10
50.698583
 20
354.161083
 30
0.0
 11
247.448583
 21
354.161083
 31
0.0
  0
LINE
  8
1
  6
CONTINUOUS
 62
     1
  5
1AA
 10
247.448583
 20
354.161083
 30
0.0
 11
260.448583
 21
354.161083
 31
0.0
  0
LINE
  8
1
  6
CONTINUOUS
 62
     3
  5
1AB
 10
260.448583
 20
385.161083
 30
0.0
 11
260.448583
 21
364.161083
 31
0.0
  0
LINE
  8
1
  6
CONTINUOUS
 62
     1
  5
1AC
 10
260.448583
 20
364.161083
 30
0.0
 11
260.448583
 21
354.161083
 31
0.0
  0
LINE
  8
1
  6
CONTINUOUS
 62
     3
  5
1AD
 10
260.448583
 20
354.161083
 30
0.0
 11
260.448583
 21
184.161083
 31
0.0
  0
LINE
  8
1
  6
CONTINUOUS
 62
     3
  5
1AE
 10
64.448583
 20
364.161083
 30
0.0
 11
260.448583
 21
364.161083
 31
0.0
  0
LINE
  8
1
  6
CONTINUOUS
 62
     1
  5
1AF
 10
260.448583
 20
364.161083
 30
0.0
 11
286.448583
 21
364.161083
 31
0.0
  0
LINE
  8
1
  6
CONTINUOUS
 62
     3
  5
1B0
 10
286.448583
 20
385.161083
 30
0.0
 11
286.448583
 21
374.161083
 31
0.0
  0
LINE
  8
1
  6
CONTINUOUS
 62
     1
  5
1B1
 10
286.448583
 20
374.161083
 30
0.0
 11
286.448583
 21
364.161083
 31
0.0
  0
LINE
  8
1
  6
CONTINUOUS
 62
     3
  5
1B2
 10
286.448583
 20
364.161083
 30
0.0
 11
286.448583
 21
184.161083
 31
0.0
  0
LINE
  8
1
  6
CONTINUOUS
 62
     1
  5
1B3
 10
195.448583
 20
194.161083
 30
0.0
 11
195.448583
 21
184.161083
 31
0.0
  0
LINE
  8
1
  6
CONTINUOUS
 62
     1
  5
1B4
 10
208.448583
 20
214.161083
 30
0.0
 11
208.448583
 21
194.161083
 31
0.0
  0
LINE
  8
1
  6
CONTINUOUS
 62
     1
  5
1B5
 10
221.448583
 20
224.161083
 30
0.0
 11
221.448583
 21
214.161083
 31
0.0
  0
LINE
  8
1
  6
CONTINUOUS
 62
     1
  5
1B6
 10
234.448583
 20
234.161083
 30
0.0
 11
234.448583
 21
224.161083
 31
0.0
  0
LINE
  8
1
  6
CONTINUOUS
 62
     1
  5
1B7
 10
247.448583
 20
254.161083
 30
0.0
 11
247.448583
 21
234.161083
 31
0.0
  0
LINE
  8
1
  6
CONTINUOUS
 62
     1
  5
1B8
 10
260.448583
 20
264.161083
 30
0.0
 11
260.448583
 21
254.161083
 31
0.0
  0
LINE
  8
1
  6
CONTINUOUS
 62
     1
  5
1B9
 10
273.448583
 20
274.161083
 30
0.0
 11
273.448583
 21
264.161083
 31
0.0
  0
LINE
  8
1
  6
CONTINUOUS
 62
     1
  5
1BA
 10
286.448583
 20
284.161083
 30
0.0
 11
286.448583
 21
274.161083
 31
0.0
  0
LINE
  8
1
  6
CONTINUOUS
 62
     1
  5
1BB
 10
312.448583
 20
294.161083
 30
0.0
 11
312.448583
 21
284.161083
 31
0.0
  0
LINE
  8
1
  6
CONTINUOUS
 62
     1
  5
1BC
 10
338.448583
 20
304.161083
 30
0.0
 11
338.448583
 21
294.161083
 31
0.0
  0
LINE
  8
1
  6
CONTINUOUS
 62
     1
  5
1BD
 10
351.448583
 20
314.161083
 30
0.0
 11
351.448583
 21
304.161083
 31
0.0
  0
LINE
  8
1
  6
CONTINUOUS
 62
     1
  5
1BE
 10
377.448583
 20
324.161083
 30
0.0
 11
377.448583
 21
314.161083
 31
0.0
  0
LINE
  8
1
  6
CONTINUOUS
 62
     1
  5
1BF
 10
390.448583
 20
334.161083
 30
0.0
 11
390.448583
 21
324.161083
 31
0.0
  0
LINE
  8
1
  6
CONTINUOUS
 62
     1
  5
1C0
 10
429.448583
 20
344.161083
 30
0.0
 11
429.448583
 21
334.161083
 31
0.0
  0
LINE
  8
1
  6
CONTINUOUS
 62
     1
  5
1C1
 10
468.448583
 20
354.161083
 30
0.0
 11
468.448583
 21
344.161083
 31
0.0
  0
LINE
  8
1
  6
CONTINUOUS
 62
     1
  5
1C2
 10
494.448583
 20
364.161083
 30
0.0
 11
494.448583
 21
354.161083
 31
0.0
  0
LINE
  8
1
  6
CONTINUOUS
 62
     1
  5
1C3
 10
533.448583
 20
374.161083
 30
0.0
 11
533.448583
 21
364.161083
 31
0.0
  0
LINE
  8
1
  6
CONTINUOUS
 62
     3
  5
1C4
 10
104.448583
 20
194.161083
 30
0.0
 11
195.448583
 21
194.161083
 31
0.0
  0
LINE
  8
1
  6
CONTINUOUS
 62
     1
  5
1C5
 10
195.448583
 20
194.161083
 30
0.0
 11
208.448583
 21
194.161083
 31
0.0
  0
LINE
  8
1
  6
CONTINUOUS
 62
     3
  5
1C6
 10
117.448583
 20
214.161083
 30
0.0
 11
208.448583
 21
214.161083
 31
0.0
  0
LINE
  8
1
  6
CONTINUOUS
 62
     1
  5
1C7
 10
208.448583
 20
214.161083
 30
0.0
 11
221.448583
 21
214.161083
 31
0.0
  0
LINE
  8
1
  6
CONTINUOUS
 62
     3
  5
1C8
 10
50.698583
 20
224.161083
 30
0.0
 11
221.448583
 21
224.161083
 31
0.0
  0
LINE
  8
1
  6
CONTINUOUS
 62
     1
  5
1C9
 10
221.448583
 20
224.161083
 30
0.0
 11
234.448583
 21
224.161083
 31
0.0
  0
LINE
  8
1
  6
CONTINUOUS
 62
     3
  5
1CA
 10
130.448583
 20
234.161083
 30
0.0
 11
234.448583
 21
234.161083
 31
0.0
  0
LINE
  8
1
  6
CONTINUOUS
 62
     1
  5
1CB
 10
234.448583
 20
234.161083
 30
0.0
 11
247.448583
 21
234.161083
 31
0.0
  0
LINE
  8
1
  6
CONTINUOUS
 62
     3
  5
1CC
 10
143.448583
 20
254.161083
 30
0.0
 11
247.448583
 21
254.161083
 31
0.0
  0
LINE
  8
1
  6
CONTINUOUS
 62
     1
  5
1CD
 10
247.448583
 20
254.161083
 30
0.0
 11
260.448583
 21
254.161083
 31
0.0
  0
LINE
  8
1
  6
CONTINUOUS
 62
     3
  5
1CE
 10
50.698583
 20
264.161083
 30
0.0
 11
260.448583
 21
264.161083
 31
0.0
  0
LINE
  8
1
  6
CONTINUOUS
 62
     1
  5
1CF
 10
260.448583
 20
264.161083
 30
0.0
 11
273.448583
 21
264.161083
 31
0.0
  0
LINE
  8
1
  6
CONTINUOUS
 62
     3
  5
1D0
 10
156.448583
 20
274.161083
 30
0.0
 11
273.448583
 21
274.161083
 31
0.0
  0
LINE
  8
1
  6
CONTINUOUS
 62
     1
  5
1D1
 10
273.448583
 20
274.161083
 30
0.0
 11
286.448583
 21
274.161083
 31
0.0
  0
LINE
  8
1
  6
CONTINUOUS
 62
     3
  5
1D2
 10
169.448583
 20
284.161083
 30
0.0
 11
286.448583
 21
284.161083
 31
0.0
  0
LINE
  8
1
  6
CONTINUOUS
 62
     1
  5
1D3
 10
286.448583
 20
284.161083
 30
0.0
 11
312.448583
 21
284.161083
 31
0.0
  0
LINE
  8
1
  6
CONTINUOUS
 62
     3
  5
1D4
 10
182.448583
 20
294.161083
 30
0.0
 11
312.448583
 21
294.161083
 31
0.0
  0
LINE
  8
1
  6
CONTINUOUS
 62
     1
  5
1D5
 10
312.448583
 20
294.161083
 30
0.0
 11
338.448583
 21
294.161083
 31
0.0
  0
LINE
  8
1
  6
CONTINUOUS
 62
     3
  5
1D6
 10
50.698583
 20
304.161083
 30
0.0
 11
338.448583
 21
304.161083
 31
0.0
  0
LINE
  8
1
  6
CONTINUOUS
 62
     1
  5
1D7
 10
338.448583
 20
304.161083
 30
0.0
 11
351.448583
 21
304.161083
 31
0.0
  0
LINE
  8
1
  6
CONTINUOUS
 62
     3
  5
1D8
 10
195.448583
 20
314.161083
 30
0.0
 11
351.448583
 21
314.161083
 31
0.0
  0
LINE
  8
1
  6
CONTINUOUS
 62
     1
  5
1D9
 10
351.448583
 20
314.161083
 30
0.0
 11
377.448583
 21
314.161083
 31
0.0
  0
LINE
  8
1
  6
CONTINUOUS
 62
     3
  5
1DA
 10
377.448583
 20
314.161083
 30
0.0
 11
561.198583
 21
314.161083
 31
0.0
  0
LINE
  8
1
  6
CONTINUOUS
 62
     3
  5
1DB
 10
208.448583
 20
324.161083
 30
0.0
 11
377.448583
 21
324.161083
 31
0.0
  0
LINE
  8
1
  6
CONTINUOUS
 62
     1
  5
1DC
 10
377.448583
 20
324.161083
 30
0.0
 11
390.448583
 21
324.161083
 31
0.0
  0
LINE
  8
1
  6
CONTINUOUS
 62
     3
  5
1DD
 10
390.448583
 20
324.161083
 30
0.0
 11
561.198583
 21
324.161083
 31
0.0
  0
LINE
  8
1
  6
CONTINUOUS
 62
     3
  5
1DE
 10
221.448583
 20
334.161083
 30
0.0
 11
390.448583
 21
334.161083
 31
0.0
  0
LINE
  8
1
  6
CONTINUOUS
 62
     1
  5
1DF
 10
390.448583
 20
334.161083
 30
0.0
 11
429.448583
 21
334.161083
 31
0.0
  0
LINE
  8
1
  6
CONTINUOUS
 62
     3
  5
1E0
 10
429.448583
 20
334.161083
 30
0.0
 11
561.198583
 21
334.161083
 31
0.0
  0
LINE
  8
1
  6
CONTINUOUS
 62
     3
  5
1E1
 10
247.448583
 20
344.161083
 30
0.0
 11
429.448583
 21
344.161083
 31
0.0
  0
LINE
  8
1
  6
CONTINUOUS
 62
     1
  5
1E2
 10
429.448583
 20
344.161083
 30
0.0
 11
468.448583
 21
344.161083
 31
0.0
  0
LINE
  8
1
  6
CONTINUOUS
 62
     3
  5
1E3
 10
468.448583
 20
344.161083
 30
0.0
 11
561.198583
 21
344.161083
 31
0.0
  0
LINE
  8
1
  6
CONTINUOUS
 62
     3
  5
1E4
 10
260.448583
 20
354.161083
 30
0.0
 11
468.448583
 21
354.161083
 31
0.0
  0
LINE
  8
1
  6
CONTINUOUS
 62
     1
  5
1E5
 10
468.448583
 20
354.161083
 30
0.0
 11
494.448583
 21
354.161083
 31
0.0
  0
LINE
  8
1
  6
CONTINUOUS
 62
     3
  5
1E6
 10
494.448583
 20
354.161083
 30
0.0
 11
561.198583
 21
354.161083
 31
0.0
  0
LINE
  8
1
  6
CONTINUOUS
 62
     3
  5
1E7
 10
286.448583
 20
364.161083
 30
0.0
 11
494.448583
 21
364.161083
 31
0.0
  0
LINE
  8
1
  6
CONTINUOUS
 62
     1
  5
1E8
 10
494.448583
 20
364.161083
 30
0.0
 11
533.448583
 21
364.161083
 31
0.0
  0
LINE
  8
1
  6
CONTINUOUS
 62
     3
  5
1E9
 10
533.448583
 20
364.161083
 30
0.0
 11
547.448583
 21
364.161083
 31
0.0
  0
LINE
  8
1
  6
CONTINUOUS
 62
     1
  5
1EA
 10
338.448583
 20
194.161083
 30
0.0
 11
338.448583
 21
184.161083
 31
0.0
  0
LINE
  8
1
  6
CONTINUOUS
 62
     1
  5
1EB
 10
351.448583
 20
204.161083
 30
0.0
 11
351.448583
 21
194.161083
 31
0.0
  0
LINE
  8
1
  6
CONTINUOUS
 62
     1
  5
1EC
 10
364.448583
 20
214.161083
 30
0.0
 11
364.448583
 21
204.161083
 31
0.0
  0
LINE
  8
1
  6
CONTINUOUS
 62
     1
  5
1ED
 10
377.448583
 20
224.161083
 30
0.0
 11
377.448583
 21
214.161083
 31
0.0
  0
LINE
  8
1
  6
CONTINUOUS
 62
     1
  5
1EE
 10
390.448583
 20
234.161083
 30
0.0
 11
390.448583
 21
224.161083
 31
0.0
  0
LINE
  8
1
  6
CONTINUOUS
 62
     1
  5
1EF
 10
403.448583
 20
244.161083
 30
0.0
 11
403.448583
 21
234.161083
 31
0.0
  0
LINE
  8
1
  6
CONTINUOUS
 62
     1
  5
1F0
 10
429.448583
 20
254.161083
 30
0.0
 11
429.448583
 21
244.161083
 31
0.0
  0
LINE
  8
1
  6
CONTINUOUS
 62
     1
  5
1F1
 10
442.448583
 20
264.161083
 30
0.0
 11
442.448583
 21
254.161083
 31
0.0
  0
LINE
  8
1
  6
CONTINUOUS
 62
     1
  5
1F2
 10
468.448583
 20
274.161083
 30
0.0
 11
468.448583
 21
264.161083
 31
0.0
  0
LINE
  8
1
  6
CONTINUOUS
 62
     1
  5
1F3
 10
494.448583
 20
284.161083
 30
0.0
 11
494.448583
 21
274.161083
 31
0.0
  0
LINE
  8
1
  6
CONTINUOUS
 62
     1
  5
1F4
 10
520.448583
 20
294.161083
 30
0.0
 11
520.448583
 21
284.161083
 31
0.0
  0
LINE
  8
1
  6
CONTINUOUS
 62
     1
  5
1F5
 10
533.448583
 20
304.161083
 30
0.0
 11
533.448583
 21
294.161083
 31
0.0
  0
LINE
  8
1
  6
CONTINUOUS
 62
     3
  5
1F6
 10
208.448583
 20
194.161083
 30
0.0
 11
338.448583
 21
194.161083
 31
0.0
  0
LINE
  8
1
  6
CONTINUOUS
 62
     1
  5
1F7
 10
338.448583
 20
194.161083
 30
0.0
 11
351.448583
 21
194.161083
 31
0.0
  0
LINE
  8
1
  6
CONTINUOUS
 62
     3
  5
1F8
 10
351.448583
 20
194.161083
 30
0.0
 11
561.198583
 21
194.161083
 31
0.0
  0
LINE
  8
1
  6
CONTINUOUS
 62
     3
  5
1F9
 10
50.698583
 20
204.161083
 30
0.0
 11
351.448583
 21
204.161083
 31
0.0
  0
LINE
  8
1
  6
CONTINUOUS
 62
     1
  5
1FA
 10
351.448583
 20
204.161083
 30
0.0
 11
364.448583
 21
204.161083
 31
0.0
  0
LINE
  8
1
  6
CONTINUOUS
 62
     3
  5
1FB
 10
364.448583
 20
204.161083
 30
0.0
 11
561.198583
 21
204.161083
 31
0.0
  0
LINE
  8
1
  6
CONTINUOUS
 62
     3
  5
1FC
 10
221.448583
 20
214.161083
 30
0.0
 11
364.448583
 21
214.161083
 31
0.0
  0
LINE
  8
1
  6
CONTINUOUS
 62
     1
  5
1FD
 10
364.448583
 20
214.161083
 30
0.0
 11
377.448583
 21
214.161083
 31
0.0
  0
LINE
  8
1
  6
CONTINUOUS
 62
     3
  5
1FE
 10
377.448583
 20
214.161083
 30
0.0
 11
561.198583
 21
214.161083
 31
0.0
  0
LINE
  8
1
  6
CONTINUOUS
 62
     3
  5
1FF
 10
234.448583
 20
224.161083
 30
0.0
 11
377.448583
 21
224.161083
 31
0.0
  0
LINE
  8
1
  6
CONTINUOUS
 62
     1
  5
200
 10
377.448583
 20
224.161083
 30
0.0
 11
390.448583
 21
224.161083
 31
0.0
  0
LINE
  8
1
  6
CONTINUOUS
 62
     3
  5
201
 10
390.448583
 20
224.161083
 30
0.0
 11
561.198583
 21
224.161083
 31
0.0
  0
LINE
  8
1
  6
CONTINUOUS
 62
     3
  5
202
 10
247.448583
 20
234.161083
 30
0.0
 11
390.448583
 21
234.161083
 31
0.0
  0
LINE
  8
1
  6
CONTINUOUS
 62
     1
  5
203
 10
390.448583
 20
234.161083
 30
0.0
 11
403.448583
 21
234.161083
 31
0.0
  0
LINE
  8
1
  6
CONTINUOUS
 62
     3
  5
204
 10
403.448583
 20
234.161083
 30
0.0
 11
561.198583
 21
234.161083
 31
0.0
  0
LINE
  8
1
  6
CONTINUOUS
 62
     3
  5
205
 10
50.698583
 20
244.161083
 30
0.0
 11
403.448583
 21
244.161083
 31
0.0
  0
LINE
  8
1
  6
CONTINUOUS
 62
     1
  5
206
 10
403.448583
 20
244.161083
 30
0.0
 11
429.448583
 21
244.161083
 31
0.0
  0
LINE
  8
1
  6
CONTINUOUS
 62
     3
  5
207
 10
429.448583
 20
244.161083
 30
0.0
 11
561.198583
 21
244.161083
 31
0.0
  0
LINE
  8
1
  6
CONTINUOUS
 62
     3
  5
208
 10
260.448583
 20
254.161083
 30
0.0
 11
429.448583
 21
254.161083
 31
0.0
  0
LINE
  8
1
  6
CONTINUOUS
 62
     1
  5
209
 10
429.448583
 20
254.161083
 30
0.0
 11
442.448583
 21
254.161083
 31
0.0
  0
LINE
  8
1
  6
CONTINUOUS
 62
     3
  5
20A
 10
442.448583
 20
254.161083
 30
0.0
 11
561.198583
 21
254.161083
 31
0.0
  0
LINE
  8
1
  6
CONTINUOUS
 62
     3
  5
20B
 10
273.448583
 20
264.161083
 30
0.0
 11
442.448583
 21
264.161083
 31
0.0
  0
LINE
  8
1
  6
CONTINUOUS
 62
     1
  5
20C
 10
442.448583
 20
264.161083
 30
0.0
 11
468.448583
 21
264.161083
 31
0.0
  0
LINE
  8
1
  6
CONTINUOUS
 62
     3
  5
20D
 10
468.448583
 20
264.161083
 30
0.0
 11
561.198583
 21
264.161083
 31
0.0
  0
LINE
  8
1
  6
CONTINUOUS
 62
     3
  5
20E
 10
286.448583
 20
274.161083
 30
0.0
 11
468.448583
 21
274.161083
 31
0.0
  0
LINE
  8
1
  6
CONTINUOUS
 62
     1
  5
20F
 10
468.448583
 20
274.161083
 30
0.0
 11
494.448583
 21
274.161083
 31
0.0
  0
LINE
  8
1
  6
CONTINUOUS
 62
     3
  5
210
 10
494.448583
 20
274.161083
 30
0.0
 11
561.198583
 21
274.161083
 31
0.0
  0
LINE
  8
1
  6
CONTINUOUS
 62
     3
  5
211
 10
312.448583
 20
284.161083
 30
0.0
 11
494.448583
 21
284.161083
 31
0.0
  0
LINE
  8
1
  6
CONTINUOUS
 62
     1
  5
212
 10
494.448583
 20
284.161083
 30
0.0
 11
520.448583
 21
284.161083
 31
0.0
  0
LINE
  8
1
  6
CONTINUOUS
 62
     3
  5
213
 10
520.448583
 20
284.161083
 30
0.0
 11
561.198583
 21
284.161083
 31
0.0
  0
LINE
  8
1
  6
CONTINUOUS
 62
     3
  5
214
 10
338.448583
 20
294.161083
 30
0.0
 11
520.448583
 21
294.161083
 31
0.0
  0
LINE
  8
1
  6
CONTINUOUS
 62
     1
  5
215
 10
520.448583
 20
294.161083
 30
0.0
 11
533.448583
 21
294.161083
 31
0.0
  0
LINE
  8
1
  6
CONTINUOUS
 62
     3
  5
216
 10
533.448583
 20
294.161083
 30
0.0
 11
561.198583
 21
294.161083
 31
0.0
  0
LINE
  8
1
  6
CONTINUOUS
 62
     3
  5
217
 10
351.448583
 20
304.161083
 30
0.0
 11
533.448583
 21
304.161083
 31
0.0
  0
LINE
  8
1
  6
CONTINUOUS
 62
     1
  5
218
 10
533.448583
 20
304.161083
 30
0.0
 11
546.448583
 21
304.161083
 31
0.0
  0
LINE
  8
1
  6
CONTINUOUS
 62
     3
  5
219
 10
546.448583
 20
304.161083
 30
0.0
 11
561.198583
 21
304.161083
 31
0.0
  0
LINE
  8
1
  6
DASHED
 62
     2
  5
21A
 10
90.794333
 20
126.898667
 30
0.0
 11
75.294333
 21
111.398667
 31
0.0
  0
LINE
  8
1
  6
DASHED
 62
     2
  5
21B
 10
75.294333
 20
111.398667
 30
0.0
 11
90.794333
 21
95.898667
 31
0.0
  0
LINE
  8
1
  6
DASHED
 62
     2
  5
21C
 10
90.794333
 20
95.898667
 30
0.0
 11
106.294333
 21
111.398667
 31
0.0
  0
LINE
  8
1
  6
DASHED
 62
     2
  5
21D
 10
106.294333
 20
111.398667
 30
0.0
 11
90.794333
 21
126.898667
 31
0.0
  0
LINE
  8
1
  6
CONTINUOUS
 62
     2
  5
21E
 10
75.294333
 20
119.398667
 30
0.0
 11
75.294333
 21
103.398667
 31
0.0
  0
LINE
  8
1
  6
CONTINUOUS
 62
     2
  5
21F
 10
106.294333
 20
119.398667
 30
0.0
 11
106.294333
 21
103.398667
 31
0.0
  0
LINE
  8
1
  6
CONTINUOUS
 62
     2
  5
220
 10
75.294333
 20
119.398667
 30
0.0
 11
106.294333
 21
119.398667
 31
0.0
  0
LINE
  8
1
  6
CONTINUOUS
 62
     2
  5
221
 10
75.294333
 20
103.398667
 30
0.0
 11
106.294333
 21
103.398667
 31
0.0
  0
LINE
  8
1
  6
DASHED
 62
     2
  5
222
 10
97.294333
 20
119.398667
 30
0.0
 11
97.294333
 21
103.398667
 31
0.0
  0
LINE
  8
1
  6
DASHED
 62
     2
  5
223
 10
84.294333
 20
119.398667
 30
0.0
 11
84.294333
 21
103.398667
 31
0.0
  0
LINE
  8
1
  6
DASHED
 62
     2
  5
224
 10
83.294333
 20
119.398667
 30
0.0
 11
83.294333
 21
103.398667
 31
0.0
  0
LINE
  8
1
  6
DASHED
 62
     2
  5
225
 10
98.294333
 20
119.398667
 30
0.0
 11
98.294333
 21
103.398667
 31
0.0
  0
LINE
  8
1
  6
CONTINUOUS
 62
     2
  5
226
 10
83.294333
 20
103.398667
 30
0.0
 11
83.294333
 21
68.398667
 31
0.0
  0
LINE
  8
1
  6
CONTINUOUS
 62
     2
  5
227
 10
84.294333
 20
103.398667
 30
0.0
 11
84.294333
 21
68.398667
 31
0.0
  0
LINE
  8
1
  6
CONTINUOUS
 62
     2
  5
228
 10
97.294333
 20
103.398667
 30
0.0
 11
97.294333
 21
68.398667
 31
0.0
  0
LINE
  8
1
  6
CONTINUOUS
 62
     2
  5
229
 10
98.294333
 20
103.398667
 30
0.0
 11
98.294333
 21
68.398667
 31
0.0
  0
POLYLINE
  8
1
  6
CONTINUOUS
 62
     2
  5
22A
 66
     1
 10
0.0
 20
0.0
 30
0.0
  0
VERTEX
  8
1
  6
CONTINUOUS
 62
     2
  5
22B
 10
68.294333
 20
68.398667
 30
0.0
  0
VERTEX
  8
1
  6
CONTINUOUS
 62
     2
  5
22C
 10
70.02475
 20
68.524417
 30
0.0
  0
VERTEX
  8
1
  6
CONTINUOUS
 62
     2
  5
22D
 10
71.33825
 20
68.461917
 30
0.0
  0
VERTEX
  8
1
  6
CONTINUOUS
 62
     2
  5
22E
 10
72.589167
 20
68.461917
 30
0.0
  0
VERTEX
  8
1
  6
CONTINUOUS
 62
     2
  5
22F
 10
73.840083
 20
68.461917
 30
0.0
  0
VERTEX
  8
1
  6
CONTINUOUS
 62
     2
  5
230
 10
74.903417
 20
68.399333
 30
0.0
  0
VERTEX
  8
1
  6
CONTINUOUS
 62
     2
  5
231
 10
76.154333
 20
68.399333
 30
0.0
  0
VERTEX
  8
1
  6
CONTINUOUS
 62
     2
  5
232
 10
77.405333
 20
68.33675
 30
0.0
  0
VERTEX
  8
1
  6
CONTINUOUS
 62
     2
  5
233
 10
78.718833
 20
68.399333
 30
0.0
  0
VERTEX
  8
1
  6
CONTINUOUS
 62
     2
  5
234
 10
79.782083
 20
68.399333
 30
0.0
  0
VERTEX
  8
1
  6
CONTINUOUS
 62
     2
  5
235
 10
80.9705
 20
68.524417
 30
0.0
  0
VERTEX
  8
1
  6
CONTINUOUS
 62
     2
  5
236
 10
81.846167
 20
68.399333
 30
0.0
  0
VERTEX
  8
1
  6
CONTINUOUS
 62
     2
  5
237
 10
82.972
 20
68.399333
 30
0.0
  0
VERTEX
  8
1
  6
CONTINUOUS
 62
     2
  5
238
 10
83.534917
 20
68.274167
 30
0.0
  0
VERTEX
  8
1
  6
CONTINUOUS
 62
     2
  5
239
 10
84.59825
 20
68.33675
 30
0.0
  0
VERTEX
  8
1
  6
CONTINUOUS
 62
     2
  5
23A
 10
85.473917
 20
68.274167
 30
0.0
  0
VERTEX
  8
1
  6
CONTINUOUS
 62
     2
  5
23B
 10
86.787417
 20
68.274167
 30
0.0
  0
VERTEX
  8
1
  6
CONTINUOUS
 62
     2
  5
23C
 10
87.850667
 20
68.274167
 30
0.0
  0
VERTEX
  8
1
  6
CONTINUOUS
 62
     2
  5
23D
 10
89.22675
 20
68.274167
 30
0.0
  0
VERTEX
  8
1
  6
CONTINUOUS
 62
     2
  5
23E
 10
89.727083
 20
68.399333
 30
0.0
  0
VERTEX
  8
1
  6
CONTINUOUS
 62
     2
  5
23F
 10
91.415917
 20
68.461917
 30
0.0
  0
VERTEX
  8
1
  6
CONTINUOUS
 62
     2
  5
240
 10
92.166417
 20
68.399333
 30
0.0
  0
VERTEX
  8
1
  6
CONTINUOUS
 62
     2
  5
241
 10
93.167167
 20
68.33675
 30
0.0
  0
VERTEX
  8
1
  6
CONTINUOUS
 62
     2
  5
242
 10
94.167917
 20
68.399333
 30
0.0
  0
VERTEX
  8
1
  6
CONTINUOUS
 62
     2
  5
243
 10
95.23125
 20
68.274167
 30
0.0
  0
VERTEX
  8
1
  6
CONTINUOUS
 62
     2
  5
244
 10
96.044333
 20
68.211583
 30
0.0
  0
VERTEX
  8
1
  6
CONTINUOUS
 62
     2
  5
245
 10
97.23275
 20
68.33675
 30
0.0
  0
VERTEX
  8
1
  6
CONTINUOUS
 62
     2
  5
246
 10
97.983333
 20
68.33675
 30
0.0
  0
VERTEX
  8
1
  6
CONTINUOUS
 62
     2
  5
247
 10
98.296083
 20
68.33675
 30
0.0
  0
VERTEX
  8
1
  6
CONTINUOUS
 62
     2
  5
248
 10
99.421917
 20
68.149083
 30
0.0
  0
VERTEX
  8
1
  6
CONTINUOUS
 62
     2
  5
249
 10
100.735417
 20
68.149083
 30
0.0
  0
VERTEX
  8
1
  6
CONTINUOUS
 62
     2
  5
24A
 10
101.736167
 20
68.0865
 30
0.0
  0
VERTEX
  8
1
  6
CONTINUOUS
 62
     2
  5
24B
 10
102.424167
 20
68.211583
 30
0.0
  0
VERTEX
  8
1
  6
CONTINUOUS
 62
     2
  5
24C
 10
103.237333
 20
68.33675
 30
0.0
  0
VERTEX
  8
1
  6
CONTINUOUS
 62
     2
  5
24D
 10
103.80025
 20
68.399333
 30
0.0
  0
VERTEX
  8
1
  6
CONTINUOUS
 62
     2
  5
24E
 10
104.113
 20
68.461917
 30
0.0
  0
VERTEX
  8
1
  6
CONTINUOUS
 62
     2
  5
24F
 10
105.489
 20
68.461917
 30
0.0
  0
VERTEX
  8
1
  6
CONTINUOUS
 62
     2
  5
250
 10
106.48975
 20
68.524417
 30
0.0
  0
VERTEX
  8
1
  6
CONTINUOUS
 62
     2
  5
251
 10
107.80325
 20
68.461917
 30
0.0
  0
VERTEX
  8
1
  6
CONTINUOUS
 62
     2
  5
252
 10
109.492
 20
68.399333
 30
0.0
  0
VERTEX
  8
1
  6
CONTINUOUS
 62
     2
  5
253
 10
110.680417
 20
68.33675
 30
0.0
  0
VERTEX
  8
1
  6
CONTINUOUS
 62
     2
  5
254
 10
111.993917
 20
68.274167
 30
0.0
  0
VERTEX
  8
1
  6
CONTINUOUS
 62
     2
  5
255
 10
113.294333
 20
68.398667
 30
0.0
  0
SEQEND
  8
1
  6
CONTINUOUS
 62
     2
  5
256
  0
LINE
  8
1
  6
DASHED
 62
     2
  5
257
 10
83.294333
 20
68.398667
 30
0.0
 11
83.294333
 21
60.398667
 31
0.0
  0
LINE
  8
1
  6
DASHED
 62
     2
  5
258
 10
84.294333
 20
68.398667
 30
0.0
 11
84.294333
 21
60.398667
 31
0.0
  0
LINE
  8
1
  6
DASHED
 62
     2
  5
259
 10
97.294333
 20
68.398667
 30
0.0
 11
97.294333
 21
60.398667
 31
0.0
  0
LINE
  8
1
  6
DASHED
 62
     2
  5
25A
 10
98.294333
 20
68.398667
 30
0.0
 11
98.294333
 21
60.398667
 31
0.0
  0
LINE
  8
1
  6
DASHED
 62
     2
  5
25B
 10
83.294333
 20
60.398667
 30
0.0
 11
84.294333
 21
60.398667
 31
0.0
  0
LINE
  8
1
  6
DASHED
 62
     2
  5
25C
 10
97.294333
 20
60.398667
 30
0.0
 11
98.294333
 21
60.398667
 31
0.0
  0
LINE
  8
1
  6
DASHED
 62
     2
  5
25D
 10
83.294333
 20
59.398667
 30
0.0
 11
84.294333
 21
59.398667
 31
0.0
  0
LINE
  8
1
  6
DASHED
 62
     2
  5
25E
 10
97.294333
 20
59.398667
 30
0.0
 11
98.294333
 21
59.398667
 31
0.0
  0
LINE
  8
1
  6
DASHED
 62
     2
  5
25F
 10
83.294333
 20
59.398667
 30
0.0
 11
83.794333
 21
55.398667
 31
0.0
  0
LINE
  8
1
  6
DASHED
 62
     2
  5
260
 10
83.794333
 20
55.398667
 30
0.0
 11
84.294333
 21
59.398667
 31
0.0
  0
LINE
  8
1
  6
DASHED
 62
     2
  5
261
 10
97.294333
 20
59.398667
 30
0.0
 11
97.794333
 21
55.398667
 31
0.0
  0
LINE
  8
1
  6
DASHED
 62
     2
  5
262
 10
97.794333
 20
55.398667
 30
0.0
 11
98.294333
 21
59.398667
 31
0.0
  0
TEXT
  8
1
  6
DASHED
 62
     2
  5
263
 10
68.294333
 20
66.228333
 30
0.0
 40
2.0
  1
X X X X  X X X  X X X X 
  7
MONOTXT
 11
68.294333
 21
68.228333
 31
0.0
210
0.0
220
0.0
230
1.0
 73
     3
  0
LINE
  8
1
  6
CONTINUOUS
 62
     7
  5
264
 10
75.294333
 20
121.398667
 30
0.0
 11
75.294333
 21
137.398667
 31
0.0
  0
LINE
  8
1
  6
CONTINUOUS
 62
     7
  5
265
 10
106.294333
 20
121.398667
 30
0.0
 11
106.294333
 21
137.398667
 31
0.0
  0
LINE
  8
1
  6
CONTINUOUS
 62
     7
  5
266
 10
108.294333
 20
119.398667
 30
0.0
 11
118.294333
 21
119.398667
 31
0.0
  0
LINE
  8
1
  6
CONTINUOUS
 62
     7
  5
267
 10
108.294333
 20
103.398667
 30
0.0
 11
118.294333
 21
103.398667
 31
0.0
  0
LINE
  8
1
  6
CONTINUOUS
 62
     7
  5
268
 10
115.294333
 20
68.398667
 30
0.0
 11
126.294333
 21
68.398667
 31
0.0
  0
LINE
  8
1
  6
CONTINUOUS
 62
     7
  5
269
 10
125.294333
 20
111.398667
 30
0.0
 11
125.294333
 21
68.398667
 31
0.0
  0
LINE
  8
1
  6
CONTINUOUS
 62
     7
  5
26A
 10
117.294333
 20
119.398667
 30
0.0
 11
117.294333
 21
103.398667
 31
0.0
  0
LINE
  8
1
  6
CONTINUOUS
 62
     7
  5
26B
 10
111.92925
 20
111.398667
 30
0.0
 11
111.92925
 21
103.398667
 31
0.0
  0
LINE
  8
1
  6
CONTINUOUS
 62
     7
  5
26C
 10
121.201833
 20
111.398667
 30
0.0
 11
126.294333
 21
111.398667
 31
0.0
  0
LINE
  8
1
  6
CONTINUOUS
 62
     7
  5
26D
 10
108.294333
 20
111.398667
 30
0.0
 11
116.471667
 21
111.398667
 31
0.0
  0
LINE
  8
1
  6
CONTINUOUS
 62
     7
  5
26E
 10
89.380083
 20
128.312833
 30
0.0
 11
85.1375
 21
132.5555
 31
0.0
  0
LINE
  8
1
  6
CONTINUOUS
 62
     7
  5
26F
 10
73.880083
 20
112.812833
 30
0.0
 11
69.6375
 21
117.0555
 31
0.0
  0
LINE
  8
1
  6
CONTINUOUS
 62
     7
  5
270
 10
85.844583
 20
131.848333
 30
0.0
 11
70.344583
 21
116.348333
 31
0.0
  0
LINE
  8
1
  6
CONTINUOUS
 62
     7
  5
271
 10
75.294333
 20
136.398667
 30
0.0
 11
106.294333
 21
136.398667
 31
0.0
  0
INSERT
  8
1
  6
CONTINUOUS
 62
     1
  5
292
  2
LDR
 10
75.294333
 20
136.398667
 30
0.0
 41
240.0
 42
240.0
 50
180.0
210
0.0
220
0.0
230
1.0
  0
INSERT
  8
1
  6
CONTINUOUS
 62
     1
  5
293
  2
LDR
 10
75.294333
 20
136.398667
 30
0.0
 41
240.0
 42
240.0
 50
180.0
210
0.0
220
0.0
230
1.0
  0
INSERT
  8
1
  6
CONTINUOUS
 62
     1
  5
294
  2
LDR
 10
106.294333
 20
136.398667
 30
0.0
 41
240.0
 42
240.0
210
0.0
220
0.0
230
1.0
  0
INSERT
  8
1
  6
CONTINUOUS
 62
     1
  5
295
  2
LDR
 10
106.294333
 20
136.398667
 30
0.0
 41
240.0
 42
240.0
210
0.0
220
0.0
230
1.0
  0
INSERT
  8
1
  6
CONTINUOUS
 62
     1
  5
296
  2
LDR
 10
85.844583
 20
131.848333
 30
0.0
 41
239.999999
 42
239.999999
 50
45.0
210
0.0
220
0.0
230
1.0
  0
INSERT
  8
1
  6
CONTINUOUS
 62
     1
  5
297
  2
LDR
 10
85.844583
 20
131.848333
 30
0.0
 41
239.999999
 42
239.999999
 50
45.0
210
0.0
220
0.0
230
1.0
  0
INSERT
  8
1
  6
CONTINUOUS
 62
     1
  5
298
  2
LDR
 10
70.344583
 20
116.348333
 30
0.0
 41
239.999999
 42
239.999999
 50
225.0
210
0.0
220
0.0
230
1.0
  0
INSERT
  8
1
  6
CONTINUOUS
 62
     1
  5
299
  2
LDR
 10
70.344583
 20
116.348333
 30
0.0
 41
239.999999
 42
239.999999
 50
225.0
210
0.0
220
0.0
230
1.0
  0
INSERT
  8
1
  6
CONTINUOUS
 62
     1
  5
29A
  2
LDR
 10
117.294333
 20
119.398667
 30
0.0
 41
240.0
 42
240.0
 50
90.0
210
0.0
220
0.0
230
1.0
  0
INSERT
  8
1
  6
CONTINUOUS
 62
     1
  5
29B
  2
LDR
 10
117.294333
 20
119.398667
 30
0.0
 41
240.0
 42
240.0
 50
90.0
210
0.0
220
0.0
230
1.0
  0
INSERT
  8
1
  6
CONTINUOUS
 62
     1
  5
29C
  2
LDR
 10
117.294333
 20
103.398667
 30
0.0
 41
240.0
 42
240.0
 50
270.0
210
0.0
220
0.0
230
1.0
  0
INSERT
  8
1
  6
CONTINUOUS
 62
     1
  5
29D
  2
LDR
 10
117.294333
 20
103.398667
 30
0.0
 41
240.0
 42
240.0
 50
270.0
210
0.0
220
0.0
230
1.0
  0
INSERT
  8
1
  6
CONTINUOUS
 62
     1
  5
29E
  2
LDR
 10
111.92925
 20
111.398667
 30
0.0
 41
240.0
 42
240.0
 50
90.0
210
0.0
220
0.0
230
1.0
  0
INSERT
  8
1
  6
CONTINUOUS
 62
     1
  5
29F
  2
LDR
 10
111.92925
 20
111.398667
 30
0.0
 41
240.0
 42
240.0
 50
90.0
210
0.0
220
0.0
230
1.0
  0
INSERT
  8
1
  6
CONTINUOUS
 62
     1
  5
2A0
  2
LDR
 10
111.92925
 20
103.398667
 30
0.0
 41
240.0
 42
240.0
 50
270.0
210
0.0
220
0.0
230
1.0
  0
INSERT
  8
1
  6
CONTINUOUS
 62
     1
  5
2A1
  2
LDR
 10
111.92925
 20
103.398667
 30
0.0
 41
240.0
 42
240.0
 50
270.0
210
0.0
220
0.0
230
1.0
  0
INSERT
  8
1
  6
CONTINUOUS
 62
     1
  5
2A2
  2
LDR
 10
125.294333
 20
111.398667
 30
0.0
 41
240.0
 42
240.0
 50
90.0
210
0.0
220
0.0
230
1.0
  0
INSERT
  8
1
  6
CONTINUOUS
 62
     1
  5
2A3
  2
LDR
 10
125.294333
 20
111.398667
 30
0.0
 41
240.0
 42
240.0
 50
90.0
210
0.0
220
0.0
230
1.0
  0
INSERT
  8
1
  6
CONTINUOUS
 62
     1
  5
2A4
  2
LDR
 10
125.294333
 20
68.398667
 30
0.0
 41
240.0
 42
240.0
 50
270.0
210
0.0
220
0.0
230
1.0
  0
TEXT
  8
1
  6
CONTINUOUS
 62
     7
  5
2A5
 10
89.28875
 20
136.914917
 30
0.0
 40
2.5
  1
W
  7
MONOTXT
 11
89.28875
 21
139.414917
 31
0.0
210
0.0
220
0.0
230
1.0
 73
     3
  0
TEXT
  8
1
  6
CONTINUOUS
 62
     7
  5
2A6
 10
115.250583
 20
104.084667
 30
0.0
 40
2.5
  1
D/2
 50
90.0
  7
MONOTXT
 11
112.750583
 21
104.084667
 31
0.0
210
0.0
220
0.0
230
1.0
 73
     3
  0
TEXT
  8
1
  6
CONTINUOUS
 62
     7
  5
2A7
 10
120.359167
 20
110.709083
 30
0.0
 40
2.5
  1
D
 50
90.0
  7
MONOTXT
 11
117.859167
 21
110.709083
 31
0.0
210
0.0
220
0.0
230
1.0
 73
     3
  0
TEXT
  8
1
  6
CONTINUOUS
 62
     7
  5
2A8
 10
128.495083
 20
86.671833
 30
0.0
 40
2.5
  1
"CP"
 50
90.0
  7
MONOTXT
 11
125.995083
 21
86.671833
 31
0.0
210
0.0
220
0.0
230
1.0
 73
     3
  0
TEXT
  8
1
  6
CONTINUOUS
 62
     7
  5
2A9
 10
77.50875
 20
124.322083
 30
0.0
 40
2.5
  1
W
 50
45.0
  7
MONOTXT
210
0.0
220
0.0
230
1.0
  0
LINE
  8
1
  6
CONTINUOUS
 62
     7
  5
2AA
 10
98.294333
 20
63.99775
 30
0.0
 11
107.809083
 21
60.04425
 31
0.0
  0
INSERT
  8
1
  6
CONTINUOUS
 62
     1
  5
2AB
  2
LDR
 10
98.294333
 20
63.99775
 30
0.0
 41
240.000001
 42
240.000001
 50
157.436493
210
0.0
220
0.0
230
1.0
  0
TEXT
  8
1
  6
CONTINUOUS
 62
     7
  5
2AC
 10
108.09925
 20
58.705333
 30
0.0
 40
2.5
  1
SEE CHART FOR DEPTH
  7
MONOTXT
 11
108.09925
 21
61.205333
 31
0.0
210
0.0
220
0.0
230
1.0
 73
     3
  0
TEXT
  8
1
  6
CONTINUOUS
 62
     7
  5
2AD
 10
59.640333
 20
45.788417
 30
0.0
 40
2.5
  1
SEE TP3-1  FOR TYPICAL INSTALLATIONS
  7
MONOTXT
 11
59.640333
 21
48.288417
 31
0.0
210
0.0
220
0.0
230
1.0
 73
     3
  0
TEXT
  8
1
  6
CONTINUOUS
 62
     7
  5
2AE
 10
108.2875
 20
311.654083
 30
0.0
 40
7.0
  1
2.00#/ FT.
 50
45.0
  7
txt
 11
103.337753
 21
316.603831
 31
0.0
210
0.0
220
0.0
230
1.0
 73
     3
  0
TEXT
  8
1
  6
CONTINUOUS
 62
     7
  5
2AF
 10
228.093
 20
277.8685
 30
0.0
 40
7.0
  1
3.00#/ FT.
 50
45.0
  7
txt
 11
223.143253
 21
282.818247
 31
0.0
210
0.0
220
0.0
230
1.0
 73
     3
  0
CIRCLE
  8
1
  6
CONTINUOUS
 62
     7
  5
2B0
 10
361.920917
 20
280.940417
 30
0.0
 40
2.198153
210
0.0
220
0.0
230
1.0
  0
LINE
  8
1
  6
CONTINUOUS
 62
     6
  5
2B1
 10
393.468083
 20
119.699833
 30
0.0
 11
443.468083
 21
119.699833
 31
0.0
  0
LINE
  8
1
  6
CONTINUOUS
 62
     6
  5
2B2
 10
443.468083
 20
119.699833
 30
0.0
 11
443.468083
 21
59.699833
 31
0.0
  0
LINE
  8
1
  6
CONTINUOUS
 62
     6
  5
2B3
 10
443.468083
 20
59.699833
 30
0.0
 11
393.468083
 21
59.699833
 31
0.0
  0
LINE
  8
1
  6
CONTINUOUS
 62
     6
  5
2B4
 10
393.468083
 20
59.699833
 30
0.0
 11
393.468083
 21
119.699833
 31
0.0
  0
LINE
  8
1
  6
CONTINUOUS
 62
     6
  5
2B5
 10
393.468083
 20
99.699833
 30
0.0
 11
443.468083
 21
99.699833
 31
0.0
  0
LINE
  8
1
  6
CONTINUOUS
 62
     6
  5
2B6
 10
393.468083
 20
89.699833
 30
0.0
 11
443.468083
 21
89.699833
 31
0.0
  0
LINE
  8
1
  6
CONTINUOUS
 62
     6
  5
2B7
 10
393.468083
 20
79.699833
 30
0.0
 11
443.468083
 21
79.699833
 31
0.0
  0
LINE
  8
1
  6
CONTINUOUS
 62
     6
  5
2B8
 10
393.468083
 20
69.699833
 30
0.0
 11
443.468083
 21
69.699833
 31
0.0
  0
LINE
  8
1
  6
CONTINUOUS
 62
     6
  5
2B9
 10
423.468083
 20
59.699833
 30
0.0
 11
423.468083
 21
119.699833
 31
0.0
  0
TEXT
  8
1
  6
CONTINUOUS
 62
     7
  5
2BA
 10
403.556
 20
110.424167
 30
0.0
 40
2.5
  1
POST
  7
MONOTXT
 72
     4
 11
408.231167
 21
111.674167
 31
0.0
210
0.0
220
0.0
230
1.0
  0
TEXT
  8
1
  6
CONTINUOUS
 62
     7
  5
2BB
 10
400.66225
 20
105.924167
 30
0.0
 40
2.5
  1
SECTION
  7
MONOTXT
 72
     4
 11
408.231083
 21
107.174167
 31
0.0
210
0.0
220
0.0
230
1.0
  0
TEXT
  8
1
  6
CONTINUOUS
 62
     7
  5
2BC
 10
427.4765
 20
110.50275
 30
0.0
 40
2.5
  1
DEPTH
  7
MONOTXT
 72
     4
 11
433.214667
 21
111.75275
 31
0.0
210
0.0
220
0.0
230
1.0
  0
TEXT
  8
1
  6
CONTINUOUS
 62
     7
  5
2BD
 10
426.945
 20
106.00275
 30
0.0
 40
2.5
  1
DRIVEN
  7
MONOTXT
 72
     4
 11
433.214667
 21
107.25275
 31
0.0
210
0.0
220
0.0
230
1.0
  0
TEXT
  8
1
  6
CONTINUOUS
 62
     7
  5
2BE
 10
396.672333
 20
73.209083
 30
0.0
 40
2.5
  1
4.00 BB/FT.
  7
MONOTXT
 11
396.672333
 21
75.709083
 31
0.0
210
0.0
220
0.0
230
1.0
 73
     3
  0
TEXT
  8
1
  6
CONTINUOUS
 62
     7
  5
2BF
 10
398.008
 20
63.149583
 30
0.0
 40
2.5
  1
6.0 BB/FT.
  7
MONOTXT
 11
398.008
 21
65.649583
 31
0.0
210
0.0
220
0.0
230
1.0
 73
     3
  0
TEXT
  8
1
  6
CONTINUOUS
 62
     7
  5
2C0
 10
429.8265
 20
93.2495
 30
0.0
 40
2.5
  1
3.0'
  7
MONOTXT
 11
429.8265
 21
95.7495
 31
0.0
210
0.0
220
0.0
230
1.0
 73
     3
  0
TEXT
  8
1
  6
CONTINUOUS
 62
     7
  5
2C1
 10
429.983667
 20
83.425833
 30
0.0
 40
2.5
  1
3.5'
  7
MONOTXT
 11
429.983667
 21
85.925833
 31
0.0
210
0.0
220
0.0
230
1.0
 73
     3
  0
TEXT
  8
1
  6
CONTINUOUS
 62
     7
  5
2C2
 10
430.140833
 20
73.444917
 30
0.0
 40
2.5
  1
3.5'
  7
MONOTXT
 11
430.140833
 21
75.944917
 31
0.0
210
0.0
220
0.0
230
1.0
 73
     3
  0
TEXT
  8
1
  6
CONTINUOUS
 62
     7
  5
2C3
 10
430.219333
 20
63.385333
 30
0.0
 40
2.5
  1
3.5'
  7
MONOTXT
 11
430.219333
 21
65.885333
 31
0.0
210
0.0
220
0.0
230
1.0
 73
     3
  0
CIRCLE
  8
1
  6
CONTINUOUS
 62
     7
  5
2C4
 10
193.464916
 20
81.476779
 30
0.0
 40
2.198153
210
0.0
220
0.0
230
1.0
  0
TEXT
  8
1
  6
CONTINUOUS
 62
     7
  5
2C5
 10
190.904417
 20
76.801333
 30
0.0
 40
7.0
  1
*
  7
txt
 11
190.904417
 21
83.801333
 31
0.0
210
0.0
220
0.0
230
1.0
 73
     3
  0
TEXT
  8
1
  6
CONTINUOUS
 62
     7
  5
2C6
 10
399.186417
 20
93.40675
 30
0.0
 40
2.5
  1
2.00 FT.
  7
MONOTXT
 11
399.186417
 21
95.90675
 31
0.0
210
0.0
220
0.0
230
1.0
 73
     3
  0
TEXT
  8
1
  6
CONTINUOUS
 62
     7
  5
2C7
 10
399.500667
 20
83.347167
 30
0.0
 40
2.5
  1
3.00 FT.
  7
MONOTXT
 11
399.500667
 21
85.847167
 31
0.0
210
0.0
220
0.0
230
1.0
 73
     3
  0
TEXT
  8
1
  6
CONTINUOUS
 62
     7
  5
2C8
 10
407.383667
 20
91.54425
 30
0.0
 40
5.0
  1
#
  7
MONOTXT
 11
407.383667
 21
96.54425
 31
0.0
210
0.0
220
0.0
230
1.0
 73
     3
  0
TEXT
  8
1
  6
CONTINUOUS
 62
     7
  5
2C9
 10
407.709167
 20
81.452083
 30
0.0
 40
5.0
  1
#
  7
MONOTXT
 11
407.709167
 21
86.452083
 31
0.0
210
0.0
220
0.0
230
1.0
 73
     3
  0
TEXT
  8
1
  6
CONTINUOUS
 62
     7
  5
2CA
 10
404.942833
 20
71.359833
 30
0.0
 40
5.0
  1
#
  7
MONOTXT
 11
404.942833
 21
76.359833
 31
0.0
210
0.0
220
0.0
230
1.0
 73
     3
  0
TEXT
  8
1
  6
CONTINUOUS
 62
     7
  5
2CB
 10
403.641
 20
61.267667
 30
0.0
 40
5.0
  1
#
  7
MONOTXT
 11
403.641
 21
66.267667
 31
0.0
210
0.0
220
0.0
230
1.0
 73
     3
  0
TEXT
  8
1
  6
CONTINUOUS
 62
     7
  5
2CC
 10
343.63675
 20
251.234583
 30
0.0
 40
7.0
  1
4.0#BB
 50
45.0
  7
txt
 11
338.687003
 21
256.184331
 31
0.0
210
0.0
220
0.0
230
1.0
 73
     3
  0
TEXT
  8
1
  6
CONTINUOUS
 62
     7
  5
2CD
 10
438.5835
 20
203.997
 30
0.0
 40
7.0
  1
6.0#BB
 50
45.0
  7
txt
 11
433.633753
 21
208.946747
 31
0.0
210
0.0
220
0.0
230
1.0
 73
     3
  0
TEXT
  8
1
  6
CONTINUOUS
 62
     7
  5
2CE
 10
363.57975
 20
275.842583
 30
0.0
 40
7.0
  1
*
 50
45.0
  7
txt
 11
358.630003
 21
280.792331
 31
0.0
210
0.0
220
0.0
230
1.0
 73
     3
  0
CIRCLE
  8
1
  6
CONTINUOUS
 62
     7
  5
2CF
 10
457.33575
 20
234.085167
 30
0.0
 40
2.198153
210
0.0
220
0.0
230
1.0
  0
TEXT
  8
1
  6
CONTINUOUS
 62
     7
  5
2D0
 10
458.994583
 20
228.987333
 30
0.0
 40
7.0
  1
*
 50
45.0
  7
txt
 11
454.044836
 21
233.937081
 31
0.0
210
0.0
220
0.0
230
1.0
 73
     3
  0
POLYLINE
  8
1
  6
CONTINUOUS
 62
     7
  5
2D1
 66
     1
 10
0.0
 20
0.0
 30
0.0
  0
VERTEX
  8
1
  6
CONTINUOUS
 62
     7
  5
2D2
 10
498.0685
 20
106.195917
 30
0.0
  0
VERTEX
  8
1
  6
CONTINUOUS
 62
     7
  5
2D3
 10
496.0685
 20
102.731833
 30
0.0
  0
VERTEX
  8
1
  6
CONTINUOUS
 62
     7
  5
2D4
 10
500.0685
 20
102.731833
 30
0.0
  0
VERTEX
  8
1
  6
CONTINUOUS
 62
     7
  5
2D5
 10
498.0685
 20
106.195917
 30
0.0
  0
SEQEND
  8
1
  6
CONTINUOUS
 62
     7
  5
2D6
  0
TEXT
  8
1
  6
CONTINUOUS
 62
     7
  5
2D7
 10
497.42675
 20
103.076917
 30
0.0
 40
1.75
  1
9
  7
MONOTXT
210
0.0
220
0.0
230
1.0
  0
TEXT
  8
1
  6
CONTINUOUS
 62
     7
  5
2D8
 10
500.83425
 20
103.622333
 30
0.0
 40
1.75
  1
REVISED CLEAR. NOTE
  7
MONOTXT
210
0.0
220
0.0
230
1.0
  0
POLYLINE
  8
1
  6
CONTINUOUS
 62
     7
  5
2D9
 66
     1
 10
0.0
 20
0.0
 30
0.0
  0
VERTEX
  8
1
  6
CONTINUOUS
 62
     7
  5
2DA
 10
501.00675
 20
13.846833
 30
0.0
  0
VERTEX
  8
1
  6
CONTINUOUS
 62
     7
  5
2DB
 10
499.00675
 20
10.38275
 30
0.0
  0
VERTEX
  8
1
  6
CONTINUOUS
 62
     7
  5
2DC
 10
503.00675
 20
10.38275
 30
0.0
  0
VERTEX
  8
1
  6
CONTINUOUS
 62
     7
  5
2DD
 10
501.00675
 20
13.846833
 30
0.0
  0
SEQEND
  8
1
  6
CONTINUOUS
 62
     7
  5
2DE
  0
TEXT
  8
1
  6
CONTINUOUS
 62
     7
  5
2DF
 10
500.365
 20
10.727833
 30
0.0
 40
1.75
  1
9
  7
MONOTXT
210
0.0
220
0.0
230
1.0
  0
POLYLINE
  8
1
  6
CONTINUOUS
 62
     7
  5
2E0
 66
     1
 10
0.0
 20
0.0
 30
0.0
  0
VERTEX
  8
1
  6
CONTINUOUS
 62
     7
  5
2E1
 10
359.58775
 20
86.167333
 30
0.0
  0
VERTEX
  8
1
  6
CONTINUOUS
 62
     7
  5
2E2
 10
357.58775
 20
82.70325
 30
0.0
  0
VERTEX
  8
1
  6
CONTINUOUS
 62
     7
  5
2E3
 10
361.58775
 20
82.70325
 30
0.0
  0
VERTEX
  8
1
  6
CONTINUOUS
 62
     7
  5
2E4
 10
359.58775
 20
86.167333
 30
0.0
  0
SEQEND
  8
1
  6
CONTINUOUS
 62
     7
  5
2E5
  0
TEXT
  8
1
  6
CONTINUOUS
 62
     7
  5
2E6
 10
358.946
 20
83.048333
 30
0.0
 40
1.75
  1
9
  7
MONOTXT
210
0.0
220
0.0
230
1.0
  0
TEXT
  8
1
  6
CONTINUOUS
 62
     7
  5
2E7
 10
197.964667
 20
125.621917
 30
0.0
 40
2.5
  1
NOTES:
  7
MONOTXT
 11
197.964667
 21
128.121917
 31
0.0
210
0.0
220
0.0
230
1.0
 73
     3
  0
TEXT
  8
1
  6
CONTINUOUS
 62
     7
  5
2E8
 10
197.964667
 20
121.121917
 30
0.0
 40
2.5
  1
 
  7
MONOTXT
 11
197.964667
 21
123.621917
 31
0.0
210
0.0
220
0.0
230
1.0
 73
     3
  0
TEXT
  8
1
  6
CONTINUOUS
 62
     7
  5
2E9
 10
197.964667
 20
116.621917
 30
0.0
 40
2.5
  1
SEE SHEET TE1-7A FOR U-CHANNEL SECTIONS.
  7
MONOTXT
 11
197.964667
 21
119.121917
 31
0.0
210
0.0
220
0.0
230
1.0
 73
     3
  0
TEXT
  8
1
  6
CONTINUOUS
 62
     7
  5
2EA
 10
197.964667
 20
112.121917
 30
0.0
 40
2.5
  1
ALL SUPPORTS SHALL BE GALVANIZED IN ACCORDANCE WITH A.S.T.M. A-123.
  7
MONOTXT
 11
197.964667
 21
114.621917
 31
0.0
210
0.0
220
0.0
230
1.0
 73
     3
  0
TEXT
  8
1
  6
CONTINUOUS
 62
     7
  5
2EB
 10
197.964667
 20
107.621917
 30
0.0
 40
2.5
  1
 
  7
MONOTXT
 11
197.964667
 21
110.121917
 31
0.0
210
0.0
220
0.0
230
1.0
 73
     3
  0
TEXT
  8
1
  6
CONTINUOUS
 62
     7
  5
2EC
 10
197.964667
 20
103.121917
 30
0.0
 40
2.5
  1
DEPTHS DRIVEN ARE BASED ON AVERAGE SOIL CONDITIONS. DEPENDING UPON
  7
MONOTXT
 11
197.964667
 21
105.621917
 31
0.0
210
0.0
220
0.0
230
1.0
 73
     3
  0
TEXT
  8
1
  6
CONTINUOUS
 62
     7
  5
2ED
 10
197.964667
 20
98.621917
 30
0.0
 40
2.5
  1
ACTUAL SOIL BEARING IN THE FIELD, THE ENGINEER MAY REQUIRE THAT THE
  7
MONOTXT
 11
197.964667
 21
101.121917
 31
0.0
210
0.0
220
0.0
230
1.0
 73
     3
  0
TEXT
  8
1
  6
CONTINUOUS
 62
     7
  5
2EE
 10
197.964667
 20
94.121917
 30
0.0
 40
2.5
  1
DEPTH DRIVEN BE INCREASED TO 5 FEET. WHEN THE POST(S) ARE BEHIND
  7
MONOTXT
 11
197.964667
 21
96.621917
 31
0.0
210
0.0
220
0.0
230
1.0
 73
     3
  0
TEXT
  8
1
  6
CONTINUOUS
 62
     7
  5
2EF
 10
197.964667
 20
89.621917
 30
0.0
 40
2.5
  1
GUARDRAIL, THE DEPTH DRIVEN MAY BE INCREASED UP TO 5 FEET.
  7
MONOTXT
 11
197.964667
 21
92.121917
 31
0.0
210
0.0
220
0.0
230
1.0
 73
     3
  0
TEXT
  8
1
  6
CONTINUOUS
 62
     7
  5
2F0
 10
197.964667
 20
85.121917
 30
0.0
 40
2.5
  1
 
  7
MONOTXT
 11
197.964667
 21
87.621917
 31
0.0
210
0.0
220
0.0
230
1.0
 73
     3
  0
TEXT
  8
1
  6
CONTINUOUS
 62
     7
  5
2F1
 10
197.964667
 20
80.621917
 30
0.0
 40
2.5
  1
CAN BE USED IF THE SUPPORTS ARE LOCATED OUTSIDE OF THE CLEAR ZONE
  7
MONOTXT
 11
197.964667
 21
83.121917
 31
0.0
210
0.0
220
0.0
230
1.0
 73
     3
  0
TEXT
  8
1
  6
CONTINUOUS
 62
     7
  5
2F2
 10
197.964667
 20
76.121917
 30
0.0
 40
2.5
  1
AS DEFINED IN TABLES 3.1 AND 3.2 OF THE "ROADSIDE DESIGN GUIDE". IF
  7
MONOTXT
 11
197.964667
 21
78.621917
 31
0.0
210
0.0
220
0.0
230
1.0
 73
     3
  0
TEXT
  8
1
  6
CONTINUOUS
 62
     7
  5
2F3
 10
197.964667
 20
71.621917
 30
0.0
 40
2.5
  1
USED INSIDE OF THE CLEAR ZONE, THE SUPPORTS MUST BE EITHER BEHIND
  7
MONOTXT
 11
197.964667
 21
74.121917
 31
0.0
210
0.0
220
0.0
230
1.0
 73
     3
  0
TEXT
  8
1
  6
CONTINUOUS
 62
     7
  5
2F4
 10
197.964667
 20
67.121917
 30
0.0
 40
2.5
  1
GUARDRAIL, CURB, OR THE OPERATING SPEED MUST BE LESS THAN 35 MPH.
  7
MONOTXT
 11
197.964667
 21
69.621917
 31
0.0
210
0.0
220
0.0
230
1.0
 73
     3
  0
ENDSEC
  0
EOF
