  0
SECTION
  2
HEADER
  9
$ACADVER
  1
AC1009
  9
$INSBASE
 10
0.0
 20
0.0
 30
0.0
  9
$EXTMIN
 10
-66.872833
 20
-365.197417
 30
0.0
  9
$EXTMAX
 10
613.207167
 20
74.842583
 30
0.0
  9
$LIMMIN
 10
0.0
 20
0.0
  9
$LIMMAX
 10
12.0
 20
9.0
  9
$ORTHOMODE
 70
     0
  9
$REGENMODE
 70
     1
  9
$FILLMODE
 70
     1
  9
$QTEXTMODE
 70
     0
  9
$MIRRTEXT
 70
     1
  9
$DRAGMODE
 70
     2
  9
$LTSCALE
 40
1.0
  9
$OSMODE
 70
     0
  9
$ATTMODE
 70
     1
  9
$TEXTSIZE
 40
0.2
  9
$TRACEWID
 40
0.05
  9
$TEXTSTYLE
  7
STANDARD
  9
$CLAYER
  8
0
  9
$CELTYPE
  6
CONTINUOUS
  9
$CECOLOR
 62
   256
  9
$DIMSCALE
 40
1.0
  9
$DIMASZ
 40
0.18
  9
$DIMEXO
 40
0.0625
  9
$DIMDLI
 40
0.38
  9
$DIMRND
 40
0.0
  9
$DIMDLE
 40
0.0
  9
$DIMEXE
 40
0.18
  9
$DIMTP
 40
0.0
  9
$DIMTM
 40
0.0
  9
$DIMTXT
 40
0.18
  9
$DIMCEN
 40
0.09
  9
$DIMTSZ
 40
0.0
  9
$DIMTOL
 70
     0
  9
$DIMLIM
 70
     0
  9
$DIMTIH
 70
     1
  9
$DIMTOH
 70
     1
  9
$DIMSE1
 70
     0
  9
$DIMSE2
 70
     0
  9
$DIMTAD
 70
     0
  9
$DIMZIN
 70
     0
  9
$DIMBLK
  1

  9
$DIMASO
 70
     1
  9
$DIMSHO
 70
     1
  9
$DIMPOST
  1

  9
$DIMAPOST
  1

  9
$DIMALT
 70
     0
  9
$DIMALTD
 70
     2
  9
$DIMALTF
 40
25.4
  9
$DIMLFAC
 40
1.0
  9
$DIMTOFL
 70
     0
  9
$DIMTVP
 40
0.0
  9
$DIMTIX
 70
     0
  9
$DIMSOXD
 70
     0
  9
$DIMSAH
 70
     0
  9
$DIMBLK1
  1

  9
$DIMBLK2
  1

  9
$DIMSTYLE
  2
STANDARD
  9
$DIMCLRD
 70
     0
  9
$DIMCLRE
 70
     0
  9
$DIMCLRT
 70
     0
  9
$DIMTFAC
 40
1.0
  9
$DIMGAP
 40
0.09
  9
$LUNITS
 70
     2
  9
$LUPREC
 70
     4
  9
$AXISMODE
 70
     0
  9
$AXISUNIT
 10
0.0
 20
0.0
  9
$SKETCHINC
 40
0.1
  9
$FILLETRAD
 40
0.0
  9
$AUNITS
 70
     0
  9
$AUPREC
 70
     0
  9
$MENU
  1
acad
  9
$ELEVATION
 40
0.0
  9
$PELEVATION
 40
0.0
  9
$THICKNESS
 40
0.0
  9
$LIMCHECK
 70
     0
  9
$BLIPMODE
 70
     1
  9
$CHAMFERA
 40
0.0
  9
$CHAMFERB
 40
0.0
  9
$SKPOLY
 70
     0
  9
$TDCREATE
 40
2451803.396747685
  9
$TDUPDATE
 40
2451803.396747685
  9
$TDINDWG
 40
0.0000000000
  9
$TDUSRTIMER
 40
0.0000000000
  9
$USRTIMER
 70
     1
  9
$ANGBASE
 50
0.0
  9
$ANGDIR
 70
     0
  9
$PDMODE
 70
     0
  9
$PDSIZE
 40
0.0
  9
$PLINEWID
 40
0.0
  9
$COORDS
 70
     0
  9
$SPLFRAME
 70
     0
  9
$SPLINETYPE
 70
     6
  9
$SPLINESEGS
 70
    10
  9
$ATTDIA
 70
     0
  9
$ATTREQ
 70
     1
  9
$HANDLING
 70
     1
  9
$HANDSEED
  5
18E
  9
$SURFTAB1
 70
     6
  9
$SURFTAB2
 70
     6
  9
$SURFTYPE
 70
     6
  9
$SURFU
 70
     6
  9
$SURFV
 70
     6
  9
$UCSNAME
  2

  9
$UCSORG
 10
0.0
 20
0.0
 30
0.0
  9
$UCSXDIR
 10
1.0
 20
0.0
 30
0.0
  9
$UCSYDIR
 10
0.0
 20
1.0
 30
0.0
  9
$PUCSNAME
  2

  9
$PUCSORG
 10
0.0
 20
0.0
 30
0.0
  9
$PUCSXDIR
 10
1.0
 20
0.0
 30
0.0
  9
$PUCSYDIR
 10
0.0
 20
1.0
 30
0.0
  9
$USERI1
 70
     0
  9
$USERI2
 70
     0
  9
$USERI3
 70
     0
  9
$USERI4
 70
     0
  9
$USERI5
 70
     0
  9
$USERR1
 40
0.0
  9
$USERR2
 40
0.0
  9
$USERR3
 40
0.0
  9
$USERR4
 40
0.0
  9
$USERR5
 40
0.0
  9
$WORLDVIEW
 70
     1
  9
$SHADEDGE
 70
     3
  9
$SHADEDIF
 70
    70
  9
$TILEMODE
 70
     1
  9
$MAXACTVP
 70
    16
  9
$PINSBASE
 10
0.0
 20
0.0
 30
0.0
  9
$PLIMCHECK
 70
     0
  9
$PEXTMIN
 10
-1.000000E+20
 20
-1.000000E+20
 30
-1.000000E+20
  9
$PEXTMAX
 10
-1.000000E+20
 20
-1.000000E+20
 30
-1.000000E+20
  9
$PLIMMIN
 10
0.0
 20
0.0
  9
$PLIMMAX
 10
12.0
 20
9.0
  9
$UNITMODE
 70
     0
  9
$VISRETAIN
 70
     0
  9
$PLINEGEN
 70
     1
  9
$PSLTSCALE
 70
     0
  9
$TREEDEPTH
 70
  3020
  9
$DWGCODEPAGE
  3
ansi_1252
  0
ENDSEC
  0
SECTION
  2
TABLES
  0
TABLE
  2
VPORT
 70
     1
  0
VPORT
  2
*ACTIVE
 70
     0
 10
0.0
 20
0.0
 11
1.0
 21
1.0
 12
0.0
 22
0.0
 13
0.0
 23
0.0
 14
0.0
 24
0.0
 15
0.0
 25
0.0
 16
0.0
 26
0.0
 36
1.0
 17
227.403467
 27
-145.177417
 37
0.0
 40
451.041
 41
1.795122
 42
50.0
 43
0.0
 44
0.0
 50
0.0
 51
0.0
 71
     0
 72
   100
 73
     1
 74
     0
 75
     0
 76
     0
 77
     0
 78
     0
  0
ENDTAB
  0
TABLE
  2
LTYPE
 70
     7
  0
LTYPE
  2
CONTINUOUS
 70
     0
  3
Solid line
 72
    65
 73
     0
 40
0.0
  0
LTYPE
  2
DOT
 70
    64
  3
. . . . . . . . . . . . . . . . . . . . . . . . . . . . . . . . .
 72
    65
 73
     2
 40
0.25
 49
0.0
 49
-0.25
  0
LTYPE
  2
HIDDEN
 70
    64
  3
__ __ __ __ __ __ __ __ __ __ __ __ __ __ __ __ __ __ __ __ __ 
 72
    65
 73
     2
 40
0.375
 49
0.25
 49
-0.125
  0
LTYPE
  2
DASHED
 70
    64
  3
__ __ __ __ __ __ __ __ __ __ __ __ __ __ __ __ __ __ __ __ __
 72
    65
 73
     2
 40
0.75
 49
0.5
 49
-0.25
  0
LTYPE
  2
DASHDOT
 70
    64
  3
__ . __ . __ . __ . __ . __ . __ . __ . __ . __ . __ . __ . _
 72
    65
 73
     4
 40
1.0
 49
0.5
 49
-0.25
 49
0.0
 49
-0.25
  0
LTYPE
  2
DIVIDE
 70
    64
  3
____ . . ____ . . ____ . . ____ . . ____ . . ____ . . ____ . .
 72
    65
 73
     6
 40
1.25
 49
0.5
 49
-0.25
 49
0.0
 49
-0.25
 49
0.0
 49
-0.25
  0
LTYPE
  2
CENTER
 70
    64
  3
____ _ ____ _ ____ _ ____ _ ____ _ ____ _ ____ _ ____ _ ____ _
 72
    65
 73
     4
 40
2.0
 49
1.25
 49
-0.25
 49
0.25
 49
-0.25
  0
ENDTAB
  0
TABLE
  2
LAYER
 70
     5
  0
LAYER
  2
0
 70
     0
 62
     7
  6
CONTINUOUS
  0
LAYER
  2
CONSTRUCTION_CLASS
 70
     0
 62
     7
  6
CONTINUOUS
  0
LAYER
  2
PATTERN_CLASS
 70
    64
 62
     7
  6
CONTINUOUS
  0
LAYER
  2
61
 70
    64
 62
     7
  6
CONTINUOUS
  0
LAYER
  2
1
 70
    64
 62
     7
  6
CONTINUOUS
  0
ENDTAB
  0
TABLE
  2
STYLE
 70
     4
  0
STYLE
  2
STANDARD
 70
     0
 40
0.0
 41
1.0
 50
0.0
 71
     0
 42
0.0
  3
txt
  4

  0
STYLE
  2
MONOTXT
 70
     0
 40
0.2
 41
1.0
 50
0.0
 71
     0
 42
0.2
  3
MONOTXT
  4

  0
STYLE
  2
txt
 70
     0
 40
0.2
 41
1.0
 50
0.0
 71
     0
 42
0.2
  3
TXT
  4

  0
STYLE
  2
ROMANT
 70
     0
 40
0.2
 41
1.0
 50
0.0
 71
     0
 42
0.2
  3
ROMANT
  4

  0
ENDTAB
  0
TABLE
  2
VIEW
 70
     0
  0
ENDTAB
  0
TABLE
  2
UCS
 70
     0
  0
ENDTAB
  0
TABLE
  2
APPID
 70
     1
  0
APPID
  2
ACAD
 70
     0
  0
ENDTAB
  0
TABLE
  2
DIMSTYLE
 70
     1
  0
DIMSTYLE
  2
STANDARD
 70
     0
  3

  4

  5

  6

  7

 40
1.0
 41
0.18
 42
0.0625
 43
0.38
 44
0.18
 45
0.0
 46
0.0
 47
0.0
 48
0.0
140
0.18
141
0.09
142
0.0
143
25.4
144
1.0
145
0.0
146
1.0
147
0.09
 71
     0
 72
     0
 73
     1
 74
     1
 75
     0
 76
     0
 77
     0
 78
     0
170
     0
171
     2
172
     0
173
     0
174
     0
175
     0
176
     0
177
     0
178
     0
  0
ENDTAB
  0
ENDSEC
  0
SECTION
  2
BLOCKS
  0
BLOCK
  8
1
  6
CONTINUOUS
 62
     1
  5
FD
  2
LDR
 70
     0
 10
0.0
 20
0.0
 30
0.0
  3
LNR
  0
POLYLINE
  8
1
  6
CONTINUOUS
 62
     1
  5
FE
 66
     1
 10
0.0
 20
0.0
 30
0.0
210
0.0
220
0.0
230
1.0
  0
VERTEX
  8
1
  6
CONTINUOUS
 62
     1
  5
FF
 10
-0.011987
 20
-0.001802
 30
0.0
 42
-0.265147
  0
VERTEX
  8
1
  6
CONTINUOUS
 62
     1
  5
100
 10
-0.011849
 20
-0.001604
 30
0.0
 42
-0.064653
  0
VERTEX
  8
1
  6
CONTINUOUS
 62
     1
  5
101
 10
-0.011407
 20
-0.001387
 30
0.0
 42
-0.025822
  0
VERTEX
  8
1
  6
CONTINUOUS
 62
     1
  5
102
 10
-0.010681
 20
-0.00116
 30
0.0
 42
-0.014504
  0
VERTEX
  8
1
  6
CONTINUOUS
 62
     1
  5
103
 10
-0.0097
 20
-0.000933
 30
0.0
 42
-0.009896
  0
VERTEX
  8
1
  6
CONTINUOUS
 62
     1
  5
104
 10
-0.008505
 20
-0.000715
 30
0.0
 42
-0.007708
  0
VERTEX
  8
1
  6
CONTINUOUS
 62
     1
  5
105
 10
-0.007146
 20
-0.000515
 30
0.0
 42
-0.006655
  0
VERTEX
  8
1
  6
CONTINUOUS
 62
     1
  5
106
 10
-0.005679
 20
-0.000342
 30
0.0
 42
-0.006278
  0
VERTEX
  8
1
  6
CONTINUOUS
 62
     1
  5
107
 10
-0.004164
 20
-0.000202
 30
0.0
 42
-0.006439
  0
VERTEX
  8
1
  6
CONTINUOUS
 62
     1
  5
108
 10
-0.002666
 20
-0.000101
 30
0.0
 42
-0.007196
  0
VERTEX
  8
1
  6
CONTINUOUS
 62
     1
  5
109
 10
-0.001246
 20
-0.000044
 30
0.0
 42
-0.008852
  0
VERTEX
  8
1
  6
CONTINUOUS
 62
     1
  5
10A
 10
0.000037
 20
-0.000034
 30
0.0
 42
-0.008852
  0
SEQEND
  8
1
  6
CONTINUOUS
 62
     1
  5
10B
  0
POLYLINE
  8
1
  6
CONTINUOUS
 62
     1
  5
10C
 66
     1
 10
0.0
 20
0.0
 30
0.0
210
0.0
220
0.0
230
1.0
  0
VERTEX
  8
1
  6
CONTINUOUS
 62
     1
  5
10D
 10
0.000039
 20
0.000014
 30
0.0
 42
-0.005019
  0
VERTEX
  8
1
  6
CONTINUOUS
 62
     1
  5
10E
 10
-0.001103
 20
0.000071
 30
0.0
 42
-0.004038
  0
VERTEX
  8
1
  6
CONTINUOUS
 62
     1
  5
10F
 10
-0.002373
 20
0.000158
 30
0.0
 42
-0.003548
  0
VERTEX
  8
1
  6
CONTINUOUS
 62
     1
  5
110
 10
-0.003725
 20
0.00027
 30
0.0
 42
-0.003367
  0
VERTEX
  8
1
  6
CONTINUOUS
 62
     1
  5
111
 10
-0.005111
 20
0.000405
 30
0.0
 42
-0.003436
  0
VERTEX
  8
1
  6
CONTINUOUS
 62
     1
  5
112
 10
-0.006481
 20
0.000556
 30
0.0
 42
-0.003778
  0
VERTEX
  8
1
  6
CONTINUOUS
 62
     1
  5
113
 10
-0.007786
 20
0.00072
 30
0.0
 42
-0.00451
  0
VERTEX
  8
1
  6
CONTINUOUS
 62
     1
  5
114
 10
-0.008979
 20
0.000889
 30
0.0
 42
-0.00594
  0
VERTEX
  8
1
  6
CONTINUOUS
 62
     1
  5
115
 10
-0.010018
 20
0.001058
 30
0.0
 42
-0.008921
  0
VERTEX
  8
1
  6
CONTINUOUS
 62
     1
  5
116
 10
-0.010864
 20
0.00122
 30
0.0
 42
-0.016392
  0
VERTEX
  8
1
  6
CONTINUOUS
 62
     1
  5
117
 10
-0.011488
 20
0.001371
 30
0.0
 42
-0.04458
  0
VERTEX
  8
1
  6
CONTINUOUS
 62
     1
  5
118
 10
-0.011867
 20
0.001503
 30
0.0
 42
-0.317392
  0
VERTEX
  8
1
  6
CONTINUOUS
 62
     1
  5
119
 10
-0.011987
 20
0.001614
 30
0.0
 42
-0.317392
  0
SEQEND
  8
1
  6
CONTINUOUS
 62
     1
  5
11A
  0
ENDBLK
  8
1
  6
CONTINUOUS
 62
     1
  5
11B
  0
ENDSEC
  0
SECTION
  2
ENTITIES
  0
LINE
  8
61
  6
CONTINUOUS
 62
     1
  5
29
 10
602.227167
 20
64.842583
 30
0.0
 11
-36.812833
 21
64.842583
 31
0.0
  0
LINE
  8
61
  6
CONTINUOUS
 62
     1
  5
2A
 10
-36.812833
 20
64.842583
 30
0.0
 11
-36.812833
 21
-355.177417
 31
0.0
  0
LINE
  8
61
  6
CONTINUOUS
 62
     1
  5
2B
 10
602.247167
 20
-355.197417
 30
0.0
 11
-36.812833
 21
-355.177417
 31
0.0
  0
LINE
  8
61
  6
CONTINUOUS
 62
     1
  5
2C
 10
602.227167
 20
64.842583
 30
0.0
 11
602.247167
 21
-355.197417
 31
0.0
  0
LINE
  8
61
  6
CONTINUOUS
 62
     1
  5
2D
 10
596.127167
 20
60.102583
 30
0.0
 11
488.147167
 21
60.082583
 31
0.0
  0
LINE
  8
61
  6
CONTINUOUS
 62
     1
  5
2E
 10
488.147167
 20
60.082583
 30
0.0
 11
488.147167
 21
40.082583
 31
0.0
  0
LINE
  8
61
  6
CONTINUOUS
 62
     1
  5
2F
 10
596.127167
 20
60.102583
 30
0.0
 11
596.127167
 21
40.102583
 31
0.0
  0
LINE
  8
61
  6
CONTINUOUS
 62
     1
  5
30
 10
596.127167
 20
40.102583
 30
0.0
 11
488.147167
 21
40.082583
 31
0.0
  0
LINE
  8
61
  6
CONTINUOUS
 62
     1
  5
31
 10
596.147167
 20
50.062583
 30
0.0
 11
488.127167
 21
50.082583
 31
0.0
  0
LINE
  8
61
  6
CONTINUOUS
 62
     1
  5
32
 10
498.147167
 20
60.082583
 30
0.0
 11
498.147167
 21
40.082583
 31
0.0
  0
LINE
  8
61
  6
CONTINUOUS
 62
     1
  5
33
 10
508.147167
 20
60.082583
 30
0.0
 11
508.147167
 21
40.082583
 31
0.0
  0
LINE
  8
61
  6
CONTINUOUS
 62
     1
  5
34
 10
521.827167
 20
60.082583
 30
0.0
 11
521.827167
 21
40.082583
 31
0.0
  0
LINE
  8
61
  6
CONTINUOUS
 62
     1
  5
35
 10
586.127167
 20
60.102583
 30
0.0
 11
586.127167
 21
40.102583
 31
0.0
  0
LINE
  8
61
  6
CONTINUOUS
 62
     1
  5
36
 10
576.127167
 20
60.102583
 30
0.0
 11
576.127167
 21
40.102583
 31
0.0
  0
LINE
  8
61
  6
CONTINUOUS
 62
     1
  5
37
 10
554.147167
 20
60.082583
 30
0.0
 11
554.147167
 21
40.082583
 31
0.0
  0
LINE
  8
61
  6
CONTINUOUS
 62
     1
  5
38
 10
544.147167
 20
60.082583
 30
0.0
 11
544.147167
 21
40.082583
 31
0.0
  0
TEXT
  8
61
  6
CONTINUOUS
 62
     1
  5
3A
 10
490.187167
 20
57.062583
 30
0.0
 40
1.20075
  1
PUBLIC
 50
0.033272
 41
1.001804
  7
MONOTXT
210
0.0
220
0.0
230
1.0
  0
TEXT
  8
61
  6
CONTINUOUS
 62
     1
  5
3B
 10
490.267167
 20
54.542583
 30
0.0
 40
1.20075
  1
ROADS
 50
0.124322
 41
0.996877
  7
MONOTXT
210
0.0
220
0.0
230
1.0
  0
TEXT
  8
61
  6
CONTINUOUS
 62
     1
  5
3C
 10
491.467167
 20
52.042583
 30
0.0
 40
1.20075
  1
DIV.
 50
359.931522
 41
0.994864
  7
MONOTXT
210
0.0
220
0.0
230
1.0
  0
TEXT
  8
61
  6
CONTINUOUS
 62
     1
  5
3D
 10
500.347167
 20
57.122583
 30
0.0
 40
1.20075
  1
STATE
 50
0.058969
 41
0.998196
  7
MONOTXT
210
0.0
220
0.0
230
1.0
  0
TEXT
  8
61
  6
CONTINUOUS
 62
     1
  5
3E
 10
501.227167
 20
54.622583
 30
0.0
 40
1.20075
  1
DIST.
 50
0.055889
 41
0.999584
  7
MONOTXT
210
0.0
220
0.0
230
1.0
  0
TEXT
  8
61
  6
CONTINUOUS
 62
     1
  5
3F
 10
501.807167
 20
52.102583
 30
0.0
 40
1.20075
  1
NO.
 50
359.852072
 41
0.997779
  7
MONOTXT
210
0.0
220
0.0
230
1.0
  0
TEXT
  8
61
  6
CONTINUOUS
 62
     1
  5
40
 10
512.347167
 20
57.062583
 30
0.0
 40
1.20075
  1
STATE
 50
0.058969
 41
0.998196
  7
MONOTXT
210
0.0
220
0.0
230
1.0
  0
TEXT
  8
61
  6
CONTINUOUS
 62
     1
  5
41
 10
511.267167
 20
54.642583
 30
0.0
 40
1.20075
  1
PROJECT
 50
359.908431
 41
1.000069
  7
MONOTXT
210
0.0
220
0.0
230
1.0
  0
TEXT
  8
61
  6
CONTINUOUS
 62
     1
  5
42
 10
514.007167
 20
52.102583
 30
0.0
 40
1.20075
  1
NO.
 50
0.225453
 41
0.993546
  7
MONOTXT
210
0.0
220
0.0
230
1.0
  0
TEXT
  8
61
  6
CONTINUOUS
 62
     1
  5
43
 10
529.647167
 20
55.942583
 30
0.0
 40
1.20075
  1
FEDERAL
 50
0.006714
 41
0.998543
  7
MONOTXT
210
0.0
220
0.0
230
1.0
  0
TEXT
  8
61
  6
CONTINUOUS
 62
     1
  5
44
 10
528.107167
 20
53.282583
 30
0.0
 40
1.20075
  1
PROJECT NO.
 50
359.921531
 41
1.000694
  7
MONOTXT
210
0.0
220
0.0
230
1.0
  0
TEXT
  8
61
  6
CONTINUOUS
 62
     1
  5
45
 10
546.387167
 20
55.882583
 30
0.0
 40
1.20075
  1
FISCAL
 50
359.941939
 41
0.998959
  7
MONOTXT
210
0.0
220
0.0
230
1.0
  0
TEXT
  8
61
  6
CONTINUOUS
 62
     1
  5
46
 10
546.907167
 20
52.982583
 30
0.0
 40
1.20075
  1
YEAR
 50
0.104606
 41
0.993268
  7
MONOTXT
210
0.0
220
0.0
230
1.0
  0
TEXT
  8
61
  6
CONTINUOUS
 62
     1
  5
47
 10
561.007167
 20
54.342583
 30
0.0
 40
1.20075
  1
COUNTY
 50
0.068575
 41
1.001874
  7
MONOTXT
210
0.0
220
0.0
230
1.0
  0
TEXT
  8
61
  6
CONTINUOUS
 62
     1
  5
48
 10
578.647167
 20
56.002583
 30
0.0
 40
1.20075
  1
SHEET
 50
0.058969
 41
0.997571
  7
MONOTXT
210
0.0
220
0.0
230
1.0
  0
TEXT
  8
61
  6
CONTINUOUS
 62
     1
  5
49
 10
580.067167
 20
53.282583
 30
0.0
 40
1.20075
  1
NO.
 50
359.852072
 41
0.997779
  7
MONOTXT
210
0.0
220
0.0
230
1.0
  0
TEXT
  8
61
  6
CONTINUOUS
 62
     1
  5
4A
 10
588.387167
 20
55.862583
 30
0.0
 40
1.20075
  1
TOTAL
 50
359.926039
 41
0.998543
  7
MONOTXT
210
0.0
220
0.0
230
1.0
  0
TEXT
  8
61
  6
CONTINUOUS
 62
     1
  5
4B
 10
587.927167
 20
53.162583
 30
0.0
 40
1.20075
  1
SHEETS
 50
359.958675
  7
MONOTXT
210
0.0
220
0.0
230
1.0
  0
TEXT
  8
61
  6
CONTINUOUS
 62
     1
  5
4C
 10
500.747167
 20
44.282583
 30
0.0
 40
2.401333
  1
  
 50
0.029406
 41
0.996495
  7
MONOTXT
210
0.0
220
0.0
230
1.0
  0
TEXT
  8
61
  6
CONTINUOUS
 62
     1
  5
4D
 10
577.927167
 20
44.002583
 30
0.0
 40
2.401333
  1
   
 50
0.011508
 41
1.001006
  7
MONOTXT
210
0.0
220
0.0
230
1.0
  0
TEXT
  8
61
  6
CONTINUOUS
 62
     1
  5
4E
 10
587.807167
 20
43.982583
 30
0.0
 40
2.401333
  1
   
 50
359.922128
 41
1.000555
  7
MONOTXT
210
0.0
220
0.0
230
1.0
  0
TEXT
  8
61
  6
CONTINUOUS
 62
     1
  5
4F
 10
511.187167
 20
47.382583
 30
0.0
 40
2.00675
  1
    
 50
0.054383
 41
0.993729
  7
MONOTXT
210
0.0
220
0.0
230
1.0
  0
TEXT
  8
61
  6
CONTINUOUS
 62
     1
  5
50
 10
508.267167
 20
44.362583
 30
0.0
 40
1.989583
  1
       
 50
0.064678
 41
1.000963
  7
MONOTXT
210
0.0
220
0.0
230
1.0
  0
TEXT
  8
61
  6
CONTINUOUS
 62
     1
  5
51
 10
509.227167
 20
41.462583
 30
0.0
 40
1.989583
  1
      
 50
359.958053
 41
1.000293
  7
MONOTXT
210
0.0
220
0.0
230
1.0
  0
TEXT
  8
61
  6
CONTINUOUS
 62
     1
  5
52
 10
520.187167
 20
46.102583
 30
0.0
 40
2.401333
  1
           
 50
0.011508
 41
0.998751
  7
MONOTXT
210
0.0
220
0.0
230
1.0
  0
TEXT
  8
61
  6
CONTINUOUS
 62
     1
  5
53
 10
520.067167
 20
42.442583
 30
0.0
 40
2.401333
  1
           
 50
0.011508
 41
0.999584
  7
MONOTXT
210
0.0
220
0.0
230
1.0
  0
TEXT
  8
61
  6
CONTINUOUS
 62
     1
  5
54
 10
555.407167
 20
44.182583
 30
0.0
 40
2.00675
  1
          
 50
0.009222
 41
0.992774
  7
MONOTXT
210
0.0
220
0.0
230
1.0
  0
ARC
  8
61
  6
CONTINUOUS
 62
     1
  5
55
 10
-55.598493
 20
-24.195955
 30
0.0
 40
2.499998
 50
323.130094
 51
316.232156
210
0.0
220
0.0
230
1.0
  0
ARC
  8
61
  6
CONTINUOUS
 62
     1
  5
56
 10
-55.115077
 20
-78.916122
 30
0.0
 40
2.499998
 50
323.130094
 51
315.375767
210
0.0
220
0.0
230
1.0
  0
ARC
  8
61
  6
CONTINUOUS
 62
     1
  5
57
 10
-55.395077
 20
-227.356122
 30
0.0
 40
2.499998
 50
322.671753
 51
321.716147
210
0.0
220
0.0
230
1.0
  0
ARC
  8
61
  6
CONTINUOUS
 62
     1
  5
58
 10
-55.395077
 20
-282.356122
 30
0.0
 40
2.499998
 50
323.130094
 51
312.314392
210
0.0
220
0.0
230
1.0
  0
LINE
  8
61
  6
CONTINUOUS
 62
     1
  5
59
 10
-53.092833
 20
-23.917417
 30
0.0
 11
-45.112833
 21
-23.897417
 31
0.0
  0
LINE
  8
61
  6
CONTINUOUS
 62
     1
  5
5A
 10
-53.112833
 20
-78.917417
 30
0.0
 11
-45.112833
 21
-78.917417
 31
0.0
  0
LINE
  8
61
  6
CONTINUOUS
 62
     1
  5
5B
 10
-53.392833
 20
-227.337417
 30
0.0
 11
-45.392833
 21
-227.337417
 31
0.0
  0
LINE
  8
61
  6
CONTINUOUS
 62
     1
  5
5C
 10
-53.372833
 20
-282.357417
 30
0.0
 11
-45.392833
 21
-282.357417
 31
0.0
  0
LINE
  8
61
  6
DASHED
 62
     1
  5
5D
 10
-66.812833
 20
74.842583
 30
0.0
 11
613.207167
 21
74.842583
 31
0.0
  0
LINE
  8
61
  6
DASHED
 62
     1
  5
5E
 10
613.187167
 20
-365.177417
 30
0.0
 11
-66.872833
 21
-365.197417
 31
0.0
  0
TEXT
  8
61
  6
CONTINUOUS
 62
     1
  5
5F
 10
575.667167
 20
32.262583
 30
0.0
 40
2.401333
  1
     
 41
1.001388
  7
MONOTXT
210
0.0
220
0.0
230
1.0
  0
LINE
  8
1
  6
HIDDEN
 62
     1
  5
61
 10
613.207167
 20
74.842583
 30
0.0
 11
613.187167
 21
-365.177417
 31
0.0
  0
LINE
  8
1
  6
HIDDEN
 62
     1
  5
62
 10
-66.812833
 20
74.842583
 30
0.0
 11
-66.872833
 21
-365.197417
 31
0.0
  0
TEXT
  8
1
  6
CONTINUOUS
 62
     1
  5
64
 10
567.967167
 20
-357.697417
 30
0.0
 40
1.2
  1
TRAFFIC ENGINEERING DIVISION
  7
txt
210
0.0
220
0.0
230
1.0
  0
LINE
  8
1
  6
CONTINUOUS
 62
     1
  5
65
 10
430.587167
 20
-355.197417
 30
0.0
 11
430.587167
 21
-263.617417
 31
0.0
  0
LINE
  8
1
  6
CONTINUOUS
 62
     1
  5
66
 10
430.587167
 20
-263.617417
 30
0.0
 11
602.247167
 21
-263.617417
 31
0.0
  0
LINE
  8
1
  6
CONTINUOUS
 62
     1
  5
67
 10
465.587167
 20
-355.237417
 30
0.0
 11
465.587167
 21
-310.277417
 31
0.0
  0
LINE
  8
1
  6
CONTINUOUS
 62
     1
  5
68
 10
465.587167
 20
-310.277417
 30
0.0
 11
430.607167
 21
-310.277417
 31
0.0
  0
LINE
  8
1
  6
CONTINUOUS
 62
     1
  5
69
 10
465.587167
 20
-314.757417
 30
0.0
 11
430.607167
 21
-314.757417
 31
0.0
  0
LINE
  8
1
  6
CONTINUOUS
 62
     1
  5
6A
 10
465.587167
 20
-319.257417
 30
0.0
 11
430.607167
 21
-319.257417
 31
0.0
  0
LINE
  8
1
  6
CONTINUOUS
 62
     1
  5
6B
 10
465.587167
 20
-323.757417
 30
0.0
 11
430.607167
 21
-323.757417
 31
0.0
  0
LINE
  8
1
  6
CONTINUOUS
 62
     1
  5
6C
 10
465.587167
 20
-328.277417
 30
0.0
 11
430.607167
 21
-328.277417
 31
0.0
  0
LINE
  8
1
  6
CONTINUOUS
 62
     1
  5
6D
 10
465.587167
 20
-332.757417
 30
0.0
 11
430.607167
 21
-332.757417
 31
0.0
  0
LINE
  8
1
  6
CONTINUOUS
 62
     1
  5
6E
 10
465.587167
 20
-337.237417
 30
0.0
 11
430.607167
 21
-337.237417
 31
0.0
  0
LINE
  8
1
  6
CONTINUOUS
 62
     1
  5
6F
 10
465.587167
 20
-341.737417
 30
0.0
 11
430.607167
 21
-341.737417
 31
0.0
  0
LINE
  8
1
  6
CONTINUOUS
 62
     1
  5
70
 10
465.587167
 20
-346.237417
 30
0.0
 11
430.607167
 21
-346.237417
 31
0.0
  0
LINE
  8
1
  6
CONTINUOUS
 62
     1
  5
71
 10
465.587167
 20
-350.757417
 30
0.0
 11
430.607167
 21
-350.757417
 31
0.0
  0
TEXT
  8
1
  6
CONTINUOUS
 62
     1
  5
72
 10
440.867167
 20
-313.277417
 30
0.0
 40
1.99775
  1
REVISIONS
  7
MONOTXT
210
0.0
220
0.0
230
1.0
  0
TEXT
  8
1
  6
CONTINUOUS
 62
     1
  5
73
 10
432.547167
 20
-309.277417
 30
0.0
 40
1.99775
  1
PREPARED: 09/20/93
  7
MONOTXT
210
0.0
220
0.0
230
1.0
  0
TEXT
  8
1
  6
CONTINUOUS
 62
     1
  5
75
 10
463.207167
 20
-272.217417
 30
0.0
 40
4.794833
  1
WEST VIRGINIA DIVISION OF HIGHWAYS
  7
ROMANT
 72
     1
 11
517.177417
 21
-267.422583
 31
0.0
210
0.0
220
0.0
230
1.0
 73
     3
  0
TEXT
  8
1
  6
CONTINUOUS
 62
     1
  5
76
 10
473.967167
 20
-283.377417
 30
0.0
 40
6.992667
  1
STANDARD DETAIL
  7
txt
 72
     1
 11
518.45725
 21
-276.38475
 31
0.0
210
0.0
220
0.0
230
1.0
 73
     3
  0
TEXT
  8
1
  6
CONTINUOUS
 62
     1
  5
77
 10
469.427167
 20
-351.157417
 30
0.0
 40
6.992667
  1
STANDARD SHEET TE1-9 
  7
txt
210
0.0
220
0.0
230
1.0
  0
TEXT
  8
1
  6
CONTINUOUS
 62
     1
  5
78
 10
439.887167
 20
-318.337417
 30
0.0
 40
2.0
  1
        
  7
MONOTXT
 72
     1
 11
447.554
 21
-316.337417
 31
0.0
210
0.0
220
0.0
230
1.0
 73
     3
  0
TEXT
  8
1
  6
CONTINUOUS
 62
     1
  5
79
 10
439.867167
 20
-322.737417
 30
0.0
 40
2.0
  1
        
  7
MONOTXT
 72
     1
 11
447.534
 21
-320.737417
 31
0.0
210
0.0
220
0.0
230
1.0
 73
     3
  0
TEXT
  8
1
  6
CONTINUOUS
 62
     1
  5
7A
 10
439.887167
 20
-327.137417
 30
0.0
 40
2.0
  1
        
  7
MONOTXT
 72
     1
 11
447.554
 21
-325.137417
 31
0.0
210
0.0
220
0.0
230
1.0
 73
     3
  0
TEXT
  8
1
  6
CONTINUOUS
 62
     1
  5
7B
 10
439.887167
 20
-331.537417
 30
0.0
 40
2.0
  1
        
  7
MONOTXT
 72
     1
 11
447.554
 21
-329.537417
 31
0.0
210
0.0
220
0.0
230
1.0
 73
     3
  0
TEXT
  8
1
  6
CONTINUOUS
 62
     1
  5
7C
 10
439.727167
 20
-336.137417
 30
0.0
 40
2.0
  1
        
  7
MONOTXT
 72
     1
 11
447.394
 21
-334.137417
 31
0.0
210
0.0
220
0.0
230
1.0
 73
     3
  0
TEXT
  8
1
  6
CONTINUOUS
 62
     1
  5
7D
 10
439.887167
 20
-340.617417
 30
0.0
 40
2.0
  1
        
  7
MONOTXT
 72
     1
 11
447.554
 21
-338.617417
 31
0.0
210
0.0
220
0.0
230
1.0
 73
     3
  0
TEXT
  8
1
  6
CONTINUOUS
 62
     1
  5
7E
 10
439.787167
 20
-345.217417
 30
0.0
 40
2.0
  1
        
  7
MONOTXT
 72
     1
 11
447.454
 21
-343.217417
 31
0.0
210
0.0
220
0.0
230
1.0
 73
     3
  0
TEXT
  8
1
  6
CONTINUOUS
 62
     1
  5
7F
 10
439.887167
 20
-349.797417
 30
0.0
 40
2.0
  1
        
  7
MONOTXT
 72
     1
 11
447.554
 21
-347.797417
 31
0.0
210
0.0
220
0.0
230
1.0
 73
     3
  0
TEXT
  8
1
  6
CONTINUOUS
 62
     1
  5
80
 10
439.887167
 20
-353.817417
 30
0.0
 40
2.0
  1
        
  7
MONOTXT
 72
     1
 11
447.554
 21
-351.817417
 31
0.0
210
0.0
220
0.0
230
1.0
 73
     3
  0
TEXT
  8
1
  6
CONTINUOUS
 62
     1
  5
81
 10
482.707167
 20
-357.597417
 30
0.0
 40
1.2
  1
CATALOG:DT STANDA  FILENAME:TE19.DGN     DATE:09/20/93
  7
MONOTXT
210
0.0
220
0.0
230
1.0
  0
TEXT
  8
1
  6
CONTINUOUS
 62
     1
  5
82
 10
438.61075
 20
-294.7625
 30
0.0
 40
6.992667
  1
CANTILEVER MAILBOX SUPPORT
  7
txt
 72
     1
 11
515.830917
 21
-287.769833
 31
0.0
210
0.0
220
0.0
230
1.0
 73
     3
  0
LINE
  8
1
  6
CONTINUOUS
 62
     4
  5
83
 10
190.389833
 20
-36.951417
 30
0.0
 11
190.389833
 21
-81.951417
 31
0.0
  0
LINE
  8
1
  6
CONTINUOUS
 62
     4
  5
84
 10
185.139833
 20
15.548667
 30
0.0
 11
185.139833
 21
-81.951417
 31
0.0
  0
LINE
  8
1
  6
CONTINUOUS
 62
     4
  5
85
 10
174.639833
 20
-36.951417
 30
0.0
 11
174.639833
 21
-81.951417
 31
0.0
  0
LINE
  8
1
  6
CONTINUOUS
 62
     4
  5
86
 10
174.639833
 20
-81.951417
 30
0.0
 11
190.389833
 21
-81.951417
 31
0.0
  0
LINE
  8
1
  6
CONTINUOUS
 62
     4
  5
87
 10
185.139833
 20
15.548667
 30
0.0
 11
120.639833
 21
15.548667
 31
0.0
  0
LINE
  8
1
  6
CONTINUOUS
 62
     4
  5
88
 10
160.389833
 20
15.548667
 30
0.0
 11
185.139833
 21
-9.201333
 31
0.0
  0
LINE
  8
1
  6
CONTINUOUS
 62
     4
  5
89
 10
170.996333
 20
15.548667
 30
0.0
 11
185.139833
 21
1.40525
 31
0.0
  0
LINE
  8
1
  6
CONTINUOUS
 62
     4
  5
8A
 10
163.389833
 20
12.548667
 30
0.0
 11
120.639833
 21
12.548667
 31
0.0
  0
LINE
  8
1
  6
CONTINUOUS
 62
     4
  5
8B
 10
185.139833
 20
12.548667
 30
0.0
 11
173.996333
 21
12.548667
 31
0.0
  0
LINE
  8
1
  6
HIDDEN
 62
     4
  5
8C
 10
173.996333
 20
12.548667
 30
0.0
 11
163.389833
 21
12.548667
 31
0.0
  0
LINE
  8
1
  6
CONTINUOUS
 62
     4
  5
8D
 10
179.889833
 20
12.548667
 30
0.0
 11
179.889833
 21
6.65525
 31
0.0
  0
LINE
  8
1
  6
HIDDEN
 62
     4
  5
8E
 10
179.889833
 20
6.65525
 30
0.0
 11
179.889833
 21
-3.951333
 31
0.0
  0
LINE
  8
1
  6
CONTINUOUS
 62
     4
  5
8F
 10
179.889833
 20
-3.951333
 30
0.0
 11
179.889833
 21
-81.951417
 31
0.0
  0
LINE
  8
1
  6
CONTINUOUS
 62
     4
  5
90
 10
181.389833
 20
15.548667
 30
0.0
 11
181.389833
 21
14.798667
 31
0.0
  0
LINE
  8
1
  6
CONTINUOUS
 62
     4
  5
91
 10
183.639833
 20
15.548667
 30
0.0
 11
183.639833
 21
14.798667
 31
0.0
  0
LINE
  8
1
  6
CONTINUOUS
 62
     4
  5
92
 10
181.389833
 20
12.548667
 30
0.0
 11
181.389833
 21
11.048667
 31
0.0
  0
LINE
  8
1
  6
CONTINUOUS
 62
     4
  5
93
 10
183.639833
 20
12.548667
 30
0.0
 11
183.639833
 21
11.048667
 31
0.0
  0
CIRCLE
  8
1
  6
CONTINUOUS
 62
     4
  5
94
 10
163.389833
 20
14.048625
 30
0.0
 40
0.1875
210
0.0
220
0.0
230
1.0
  0
CIRCLE
  8
1
  6
CONTINUOUS
 62
     4
  5
95
 10
166.014833
 20
14.048625
 30
0.0
 40
0.1875
210
0.0
220
0.0
230
1.0
  0
CIRCLE
  8
1
  6
CONTINUOUS
 62
     4
  5
96
 10
168.371333
 20
14.048625
 30
0.0
 40
0.1875
210
0.0
220
0.0
230
1.0
  0
CIRCLE
  8
1
  6
CONTINUOUS
 62
     4
  5
97
 10
170.996333
 20
14.048625
 30
0.0
 40
0.1875
210
0.0
220
0.0
230
1.0
  0
CIRCLE
  8
1
  6
CONTINUOUS
 62
     4
  5
98
 10
181.014833
 20
3.939125
 30
0.0
 40
0.1875
210
0.0
220
0.0
230
1.0
  0
CIRCLE
  8
1
  6
CONTINUOUS
 62
     4
  5
99
 10
184.014833
 20
0.93925
 30
0.0
 40
0.1875
210
0.0
220
0.0
230
1.0
  0
CIRCLE
  8
1
  6
CONTINUOUS
 62
     4
  5
9A
 10
184.014833
 20
-6.485375
 30
0.0
 40
0.1875
210
0.0
220
0.0
230
1.0
  0
CIRCLE
  8
1
  6
CONTINUOUS
 62
     4
  5
9B
 10
181.014833
 20
-3.485375
 30
0.0
 40
0.1875
210
0.0
220
0.0
230
1.0
  0
LINE
  8
1
  6
CONTINUOUS
 62
     4
  5
9C
 10
120.639833
 20
15.548667
 30
0.0
 11
120.639833
 21
12.548667
 31
0.0
  0
LINE
  8
1
  6
CONTINUOUS
 62
     4
  5
9D
 10
134.889833
 20
-36.951417
 30
0.0
 11
134.889833
 21
-3.951333
 31
0.0
  0
LINE
  8
1
  6
CONTINUOUS
 62
     4
  5
9E
 10
127.389833
 20
-36.951417
 30
0.0
 11
127.389833
 21
-3.951333
 31
0.0
  0
LINE
  8
1
  6
CONTINUOUS
 62
     4
  5
9F
 10
134.889833
 20
-3.951333
 30
0.0
 11
127.389833
 21
-3.951333
 31
0.0
  0
LINE
  8
1
  6
CONTINUOUS
 62
     4
  5
A0
 10
127.389833
 20
-3.951333
 30
0.0
 11
122.139833
 21
-3.951333
 31
0.0
  0
LINE
  8
1
  6
CONTINUOUS
 62
     4
  5
A1
 10
127.389833
 20
-12.201333
 30
0.0
 11
122.139833
 21
-12.201333
 31
0.0
  0
LINE
  8
1
  6
CONTINUOUS
 62
     4
  5
A2
 10
122.139833
 20
-3.951333
 30
0.0
 11
122.139833
 21
-12.201333
 31
0.0
  0
ARC
  8
1
  6
CONTINUOUS
 62
     4
  5
A3
 10
122.807802
 20
-6.013875
 30
0.0
 40
2.167969
 50
107.945253
 51
252.054747
210
0.0
220
0.0
230
1.0
  0
ARC
  8
1
  6
CONTINUOUS
 62
     4
  5
A4
 10
122.807802
 20
-10.138875
 30
0.0
 40
2.167969
 50
107.945253
 51
252.054747
210
0.0
220
0.0
230
1.0
  0
LINE
  8
1
  6
HIDDEN
 62
     4
  5
A5
 10
174.639833
 20
-36.951417
 30
0.0
 11
152.139833
 21
-54.951417
 31
0.0
  0
LINE
  8
1
  6
HIDDEN
 62
     4
  5
A6
 10
121.389833
 20
-36.951417
 30
0.0
 11
152.139833
 21
-54.951417
 31
0.0
  0
LINE
  8
1
  6
HIDDEN
 62
     4
  5
A7
 10
146.139833
 20
17.048667
 30
0.0
 11
119.889833
 21
17.048667
 31
0.0
  0
LINE
  8
1
  6
HIDDEN
 62
     4
  5
A8
 10
146.139833
 20
18.548667
 30
0.0
 11
119.889833
 21
18.548667
 31
0.0
  0
LINE
  8
1
  6
HIDDEN
 62
     4
  5
A9
 10
146.139833
 20
31.673667
 30
0.0
 11
119.889833
 21
31.673667
 31
0.0
  0
LINE
  8
1
  6
HIDDEN
 62
     4
  5
AA
 10
119.889833
 20
31.673667
 30
0.0
 11
119.889833
 21
18.548667
 31
0.0
  0
LINE
  8
1
  6
HIDDEN
 62
     4
  5
AB
 10
146.139833
 20
31.673667
 30
0.0
 11
146.139833
 21
18.548667
 31
0.0
  0
LINE
  8
1
  6
HIDDEN
 62
     4
  5
AC
 10
119.889833
 20
17.048667
 30
0.0
 11
119.889833
 21
15.548667
 31
0.0
  0
LINE
  8
1
  6
HIDDEN
 62
     4
  5
AD
 10
31.389833
 20
-36.951417
 30
0.0
 11
31.389833
 21
-45.951417
 31
0.0
  0
LINE
  8
1
  6
HIDDEN
 62
     4
  5
AE
 10
31.389833
 20
-45.951417
 30
0.0
 11
-9.860167
 21
-45.951417
 31
0.0
  0
LINE
  8
1
  6
HIDDEN
 62
     4
  5
AF
 10
29.889833
 20
-39.951417
 30
0.0
 11
-9.860167
 21
-39.951417
 31
0.0
  0
ARC
  8
1
  6
CONTINUOUS
 62
     4
  5
B0
 10
-8.141928
 20
-38.497609
 30
0.0
 40
1.82437
 50
122.054442
 51
201.601528
210
0.0
220
0.0
230
1.0
  0
ARC
  8
1
  6
HIDDEN
 62
     4
  5
B1
 10
-12.928984
 20
-42.951375
 30
0.0
 40
4.291578
 50
315.649681
 51
44.350317
210
0.0
220
0.0
230
1.0
  0
LINE
  8
1
  6
CONTINUOUS
 62
     7
  5
B2
 10
119.889833
 20
33.173667
 30
0.0
 11
119.889833
 21
39.173667
 31
0.0
  0
LINE
  8
1
  6
CONTINUOUS
 62
     7
  5
B3
 10
31.389833
 20
-35.451417
 30
0.0
 11
31.389833
 21
39.173667
 31
0.0
  0
LINE
  8
1
  6
CONTINUOUS
 62
     7
  5
B4
 10
31.389833
 20
37.673667
 30
0.0
 11
119.889833
 21
37.673667
 31
0.0
  0
LINE
  8
1
  6
CONTINUOUS
 62
     7
  5
B5
 10
118.389833
 20
15.548667
 30
0.0
 11
102.639833
 21
15.548667
 31
0.0
  0
LINE
  8
1
  6
CONTINUOUS
 62
     7
  5
B6
 10
120.546083
 20
11.048667
 30
0.0
 11
120.546083
 21
-17.451333
 31
0.0
  0
LINE
  8
1
  6
CONTINUOUS
 62
     7
  5
B7
 10
104.139833
 20
15.548667
 30
0.0
 11
104.139833
 21
-36.951417
 31
0.0
  0
LINE
  8
1
  6
CONTINUOUS
 62
     7
  5
B8
 10
120.546083
 20
-15.951333
 30
0.0
 11
125.889833
 21
-15.951333
 31
0.0
  0
LINE
  8
1
  6
CONTINUOUS
 62
     7
  5
B9
 10
128.889833
 20
-15.951333
 30
0.0
 11
133.389833
 21
-15.951333
 31
0.0
  0
LINE
  8
1
  6
CONTINUOUS
 62
     7
  5
BA
 10
136.389833
 20
-15.951333
 30
0.0
 11
179.889833
 21
-15.951333
 31
0.0
  0
LINE
  8
1
  6
CONTINUOUS
 62
     7
  5
BB
 10
160.389833
 20
17.048667
 30
0.0
 11
160.389833
 21
23.048667
 31
0.0
  0
LINE
  8
1
  6
CONTINUOUS
 62
     7
  5
BC
 10
185.139833
 20
17.048667
 30
0.0
 11
185.139833
 21
23.048667
 31
0.0
  0
LINE
  8
1
  6
CONTINUOUS
 62
     7
  5
BD
 10
186.639833
 20
15.548667
 30
0.0
 11
192.639833
 21
15.548667
 31
0.0
  0
LINE
  8
1
  6
CONTINUOUS
 62
     7
  5
BE
 10
186.639833
 20
-9.201333
 30
0.0
 11
192.639833
 21
-9.201333
 31
0.0
  0
LINE
  8
1
  6
CONTINUOUS
 62
     7
  5
BF
 10
160.389833
 20
21.548667
 30
0.0
 11
185.139833
 21
21.548667
 31
0.0
  0
LINE
  8
1
  6
CONTINUOUS
 62
     7
  5
C0
 10
191.139833
 20
15.548667
 30
0.0
 11
191.139833
 21
-9.201333
 31
0.0
  0
LINE
  8
1
  6
CONTINUOUS
 62
     7
  5
C1
 10
191.889833
 20
-81.951417
 30
0.0
 11
200.889833
 21
-81.951417
 31
0.0
  0
LINE
  8
1
  6
CONTINUOUS
 62
     7
  5
C2
 10
199.389833
 20
-81.951417
 30
0.0
 11
199.389833
 21
-36.951417
 31
0.0
  0
LINE
  8
1
  6
CONTINUOUS
 62
     7
  5
C3
 10
174.639833
 20
-83.451417
 30
0.0
 11
174.639833
 21
-93.201417
 31
0.0
  0
LINE
  8
1
  6
CONTINUOUS
 62
     7
  5
C4
 10
190.389833
 20
-83.451417
 30
0.0
 11
190.389833
 21
-93.201417
 31
0.0
  0
LINE
  8
1
  6
CONTINUOUS
 62
     7
  5
C5
 10
174.639833
 20
-91.701417
 30
0.0
 11
190.389833
 21
-91.701417
 31
0.0
  0
CIRCLE
  8
1
  6
CONTINUOUS
 62
     7
  5
C6
 10
132.747583
 20
24.968125
 30
0.0
 40
0.75
210
0.0
220
0.0
230
1.0
  0
CIRCLE
  8
1
  6
CONTINUOUS
 62
     7
  5
C7
 10
145.353833
 20
13.96275
 30
0.0
 40
0.75
210
0.0
220
0.0
230
1.0
  0
CIRCLE
  8
1
  6
CONTINUOUS
 62
     7
  5
C8
 10
174.233708
 20
5.708625
 30
0.0
 40
0.75
210
0.0
220
0.0
230
1.0
  0
CIRCLE
  8
1
  6
CONTINUOUS
 62
     7
  5
C9
 10
182.714333
 20
-22.722
 30
0.0
 40
0.75
210
0.0
220
0.0
230
1.0
  0
CIRCLE
  8
1
  6
CONTINUOUS
 62
     7
  5
CA
 10
177.213458
 20
-69.953625
 30
0.0
 40
0.75
210
0.0
220
0.0
230
1.0
  0
LINE
  8
1
  6
CONTINUOUS
 62
     7
  5
CB
 10
132.747583
 20
24.968167
 30
0.0
 11
141.996583
 21
37.673667
 31
0.0
  0
LINE
  8
1
  6
CONTINUOUS
 62
     7
  5
CC
 10
141.996583
 20
37.673667
 30
0.0
 11
144.996583
 21
37.673667
 31
0.0
  0
LINE
  8
1
  6
HIDDEN
 62
     4
  5
CD
 10
146.139833
 20
17.048667
 30
0.0
 11
146.139833
 21
15.548667
 31
0.0
  0
LINE
  8
1
  6
CONTINUOUS
 62
     7
  5
CE
 10
139.634833
 20
16.3505
 30
0.0
 11
150.374083
 21
30.4915
 31
0.0
  0
LINE
  8
1
  6
CONTINUOUS
 62
     7
  5
CF
 10
150.374083
 20
30.4915
 30
0.0
 11
189.89
 21
30.4915
 31
0.0
  0
LINE
  8
1
  6
CONTINUOUS
 62
     7
  5
D0
 10
183.639833
 20
14.798667
 30
0.0
 11
191.327583
 21
21.419667
 31
0.0
  0
LINE
  8
1
  6
CONTINUOUS
 62
     7
  5
D1
 10
191.327583
 20
21.419667
 30
0.0
 11
194.327583
 21
21.419667
 31
0.0
  0
LINE
  8
1
  6
CONTINUOUS
 62
     7
  5
D2
 10
145.353833
 20
13.96275
 30
0.0
 11
143.282333
 21
7.834667
 31
0.0
  0
LINE
  8
1
  6
CONTINUOUS
 62
     7
  5
D3
 10
143.282333
 20
7.834667
 30
0.0
 11
140.282333
 21
7.834667
 31
0.0
  0
LINE
  8
1
  6
CONTINUOUS
 62
     7
  5
D4
 10
166.014833
 20
13.861167
 30
0.0
 11
158.290333
 21
2.880417
 31
0.0
  0
LINE
  8
1
  6
CONTINUOUS
 62
     7
  5
D5
 10
158.290333
 20
2.880417
 30
0.0
 11
155.290333
 21
2.880417
 31
0.0
  0
LINE
  8
1
  6
CONTINUOUS
 62
     7
  5
D6
 10
174.23375
 20
5.708667
 30
0.0
 11
168.49575
 21
-2.374083
 31
0.0
  0
LINE
  8
1
  6
CONTINUOUS
 62
     7
  5
D7
 10
168.49575
 20
-2.374083
 30
0.0
 11
165.49575
 21
-2.374083
 31
0.0
  0
LINE
  8
1
  6
CONTINUOUS
 62
     7
  5
D8
 10
177.2135
 20
-69.953667
 30
0.0
 11
161.9745
 21
-69.953667
 31
0.0
  0
TEXT
  8
1
  6
CONTINUOUS
 62
     7
  5
D9
 10
62.675083
 20
39.291667
 30
0.0
 40
2.0
  1
8' MIN. DESIRABLE
  7
MONOTXT
210
0.0
220
0.0
230
1.0
  0
TEXT
  8
1
  6
CONTINUOUS
 62
     7
  5
DA
 10
29.635083
 20
-13.253333
 30
0.0
 40
2.0
  1
EDGE OF PAVEMENT
 50
90.0
  7
MONOTXT
210
0.0
220
0.0
230
1.0
  0
TEXT
  8
1
  6
CONTINUOUS
 62
     7
  5
DB
 10
97.267083
 20
-9.72475
 30
0.0
 40
2.0
  1
42"
  7
MONOTXT
210
0.0
220
0.0
230
1.0
  0
TEXT
  8
1
  6
CONTINUOUS
 62
     7
  5
DC
 10
146.171833
 20
38.9845
 30
0.0
 40
2.0
  1
EXISTING MAILBOX
  7
MONOTXT
 11
146.171833
 21
40.9845
 31
0.0
210
0.0
220
0.0
230
1.0
 73
     3
  0
TEXT
  8
1
  6
CONTINUOUS
 62
     7
  5
DD
 10
146.171833
 20
34.9845
 30
0.0
 40
2.0
  1
(RELOCATED)
  7
MONOTXT
 11
146.171833
 21
36.9845
 31
0.0
210
0.0
220
0.0
230
1.0
 73
     3
  0
TEXT
  8
1
  6
CONTINUOUS
 62
     7
  5
DE
 10
191.131667
 20
31.556417
 30
0.0
 40
2.0
  1
SPACER BOARD, NAILED
  7
MONOTXT
 11
191.131667
 21
33.556417
 31
0.0
210
0.0
220
0.0
230
1.0
 73
     3
  0
TEXT
  8
1
  6
CONTINUOUS
 62
     7
  5
DF
 10
191.131667
 20
27.556417
 30
0.0
 40
2.0
  1
(IF REQUIRED)
  7
MONOTXT
 11
191.131667
 21
29.556417
 31
0.0
210
0.0
220
0.0
230
1.0
 73
     3
  0
TEXT
  8
1
  6
CONTINUOUS
 62
     7
  5
E0
 10
171.355917
 20
22.98175
 30
0.0
 40
2.0
  1
18"
  7
MONOTXT
210
0.0
220
0.0
230
1.0
  0
TEXT
  8
1
  6
CONTINUOUS
 62
     7
  5
E1
 10
192.444833
 20
2.58275
 30
0.0
 40
2.0
  1
18"
  7
MONOTXT
210
0.0
220
0.0
230
1.0
  0
TEXT
  8
1
  6
CONTINUOUS
 62
     7
  5
E2
 10
195.548667
 20
20.623
 30
0.0
 40
2.0
  1
2-10d NAILS
  7
MONOTXT
210
0.0
220
0.0
230
1.0
  0
TEXT
  8
1
  6
CONTINUOUS
 62
     7
  5
E3
 10
130.74525
 20
7.352583
 30
0.0
 40
2.0
  1
2"X4"
  7
MONOTXT
210
0.0
220
0.0
230
1.0
  0
TEXT
  8
1
  6
CONTINUOUS
 62
     7
  5
E4
 10
136.362
 20
1.956333
 30
0.0
 40
2.0
  1
4-5d NAILS
  7
MONOTXT
210
0.0
220
0.0
230
1.0
  0
TEXT
  8
1
  6
CONTINUOUS
 62
     7
  5
E5
 10
153.156417
 20
-3.4605
 30
0.0
 40
2.0
  1
2-1"X6"
  7
MONOTXT
210
0.0
220
0.0
230
1.0
  0
LINE
  8
1
  6
CONTINUOUS
 62
     7
  5
E6
 10
181.014833
 20
-3.485333
 30
0.0
 11
172.787833
 21
-7.094
 31
0.0
  0
LINE
  8
1
  6
CONTINUOUS
 62
     7
  5
E7
 10
172.787833
 20
-7.094
 30
0.0
 11
169.787833
 21
-7.094
 31
0.0
  0
TEXT
  8
1
  6
CONTINUOUS
 62
     7
  5
E8
 10
151.145167
 20
-8.19925
 30
0.0
 40
2.0
  1
4-5d NAILS
  7
MONOTXT
210
0.0
220
0.0
230
1.0
  0
TEXT
  8
1
  6
CONTINUOUS
 62
     7
  5
E9
 10
146.131333
 20
-14.868917
 30
0.0
 40
2.0
  1
24" WITH G.R.
  7
MONOTXT
 11
146.131333
 21
-12.868917
 31
0.0
210
0.0
220
0.0
230
1.0
 73
     3
  0
TEXT
  8
1
  6
CONTINUOUS
 62
     7
  5
EA
 10
146.131333
 20
-18.868917
 30
0.0
 40
2.0
  1
48" W/O G.R.
  7
MONOTXT
 11
146.131333
 21
-16.868917
 31
0.0
210
0.0
220
0.0
230
1.0
 73
     3
  0
TEXT
  8
1
  6
CONTINUOUS
 62
     7
  5
EB
 10
200.16625
 20
-23.2035
 30
0.0
 40
2.0
  1
4"X4" WOOD POST
  7
MONOTXT
210
0.0
220
0.0
230
1.0
  0
TEXT
  8
1
  6
CONTINUOUS
 62
     7
  5
EC
 10
135.295167
 20
-70.989083
 30
0.0
 40
2.0
  1
CRUSHED STONE
  7
MONOTXT
210
0.0
220
0.0
230
1.0
  0
TEXT
  8
1
  6
CONTINUOUS
 62
     7
  5
ED
 10
200.74
 20
-60.22375
 30
0.0
 40
2.0
  1
36"
  7
MONOTXT
210
0.0
220
0.0
230
1.0
  0
TEXT
  8
1
  6
CONTINUOUS
 62
     7
  5
EE
 10
181.050583
 20
-90.54075
 30
0.0
 40
2.0
  1
12"
  7
MONOTXT
 72
     4
 11
183.026917
 21
-89.54075
 31
0.0
210
0.0
220
0.0
230
1.0
  0
TEXT
  8
1
  6
CONTINUOUS
 62
     7
  5
EF
 10
180.625417
 20
-94.54075
 30
0.0
 40
2.0
  1
DIA.
  7
MONOTXT
 72
     4
 11
183.027
 21
-93.54075
 31
0.0
210
0.0
220
0.0
230
1.0
  0
LINE
  8
1
  6
CONTINUOUS
 62
     7
  5
F0
 10
91.883333
 20
7.48825
 30
0.0
 11
84.117833
 21
7.48825
 31
0.0
  0
TEXT
  8
1
  6
CONTINUOUS
 62
     7
  5
F1
 10
53.581917
 20
8.239833
 30
0.0
 40
2.0
  1
BOX TO BE FLUSH
  7
MONOTXT
 11
53.581917
 21
10.239833
 31
0.0
210
0.0
220
0.0
230
1.0
 73
     3
  0
TEXT
  8
1
  6
CONTINUOUS
 62
     7
  5
F2
 10
53.581917
 20
4.239833
 30
0.0
 40
2.0
  1
WITH FACE OF G.R.
  7
MONOTXT
 11
53.581917
 21
6.239833
 31
0.0
210
0.0
220
0.0
230
1.0
 73
     3
  0
LINE
  8
1
  6
CONTINUOUS
 62
     7
  5
F3
 10
120.53175
 20
-8.04775
 30
0.0
 11
105.458333
 21
0.126667
 31
0.0
  0
LINE
  8
1
  6
CONTINUOUS
 62
     7
  5
F4
 10
102.82125
 20
1.556667
 30
0.0
 11
91.883333
 21
7.48825
 31
0.0
  0
TEXT
  8
1
  6
CONTINUOUS
 62
     7
  5
F5
 10
-3.9095
 20
-69.3725
 30
0.0
 40
2.0
  1
NOTES:
  7
MONOTXT
 11
-3.9095
 21
-67.3725
 31
0.0
210
0.0
220
0.0
230
1.0
 73
     3
  0
TEXT
  8
1
  6
CONTINUOUS
 62
     7
  5
F6
 10
-3.9095
 20
-73.3725
 30
0.0
 40
2.0
  1
ALL WOOD IS TO BE PRESSURE TREATED PINE.
  7
MONOTXT
 11
-3.9095
 21
-71.3725
 31
0.0
210
0.0
220
0.0
230
1.0
 73
     3
  0
TEXT
  8
1
  6
CONTINUOUS
 62
     7
  5
F7
 10
-3.9095
 20
-77.3725
 30
0.0
 40
2.0
  1
TESTING OF THE MATERIALS WILL NOT BE REQUIRED.
  7
MONOTXT
 11
-3.9095
 21
-75.3725
 31
0.0
210
0.0
220
0.0
230
1.0
 73
     3
  0
TEXT
  8
1
  6
CONTINUOUS
 62
     7
  5
F8
 10
-3.9095
 20
-81.3725
 30
0.0
 40
2.0
  1
THE COST OF ALL WORK AND MATERIALS SHALL INCLUDE
  7
MONOTXT
 11
-3.9095
 21
-79.3725
 31
0.0
210
0.0
220
0.0
230
1.0
 73
     3
  0
TEXT
  8
1
  6
CONTINUOUS
 62
     7
  5
F9
 10
-3.9095
 20
-85.3725
 30
0.0
 40
2.0
  1
THE MAILBOX SUPPORT, REMOVING EXISTING MAILBOX SUPPORT(S),
  7
MONOTXT
 11
-3.9095
 21
-83.3725
 31
0.0
210
0.0
220
0.0
230
1.0
 73
     3
  0
TEXT
  8
1
  6
CONTINUOUS
 62
     7
  5
FA
 10
-3.9095
 20
-89.3725
 30
0.0
 40
2.0
  1
AND RELOCATING EXISTING MAILBOX(ES) ONTO NEW SUPPORTS.
  7
MONOTXT
 11
-3.9095
 21
-87.3725
 31
0.0
210
0.0
220
0.0
230
1.0
 73
     3
  0
LINE
  8
1
  6
CONTINUOUS
 62
     7
  5
FB
 10
-4.260417
 20
-69.957167
 30
0.0
 11
6.52575
 21
-69.957167
 31
0.0
  0
INSERT
  8
1
  6
CONTINUOUS
 62
     1
  5
11C
  2
LDR
 10
31.389833
 20
37.673667
 30
0.0
 41
240.0
 42
240.0
 50
180.0
210
0.0
220
0.0
230
1.0
  0
INSERT
  8
1
  6
CONTINUOUS
 62
     1
  5
11D
  2
LDR
 10
31.389833
 20
37.673667
 30
0.0
 41
240.0
 42
240.0
 50
180.0
210
0.0
220
0.0
230
1.0
  0
INSERT
  8
1
  6
CONTINUOUS
 62
     1
  5
11E
  2
LDR
 10
119.889833
 20
37.673667
 30
0.0
 41
240.0
 42
240.0
210
0.0
220
0.0
230
1.0
  0
INSERT
  8
1
  6
CONTINUOUS
 62
     1
  5
11F
  2
LDR
 10
119.889833
 20
37.673667
 30
0.0
 41
240.0
 42
240.0
210
0.0
220
0.0
230
1.0
  0
INSERT
  8
1
  6
CONTINUOUS
 62
     1
  5
120
  2
LDR
 10
104.139833
 20
15.548667
 30
0.0
 41
240.0
 42
240.0
 50
90.0
210
0.0
220
0.0
230
1.0
  0
INSERT
  8
1
  6
CONTINUOUS
 62
     1
  5
121
  2
LDR
 10
104.139833
 20
15.548667
 30
0.0
 41
240.0
 42
240.0
 50
90.0
210
0.0
220
0.0
230
1.0
  0
INSERT
  8
1
  6
CONTINUOUS
 62
     1
  5
122
  2
LDR
 10
104.139833
 20
-36.951417
 30
0.0
 41
240.0
 42
240.0
 50
270.0
210
0.0
220
0.0
230
1.0
  0
INSERT
  8
1
  6
CONTINUOUS
 62
     1
  5
123
  2
LDR
 10
104.139833
 20
-36.951417
 30
0.0
 41
240.0
 42
240.0
 50
270.0
210
0.0
220
0.0
230
1.0
  0
INSERT
  8
1
  6
CONTINUOUS
 62
     1
  5
124
  2
LDR
 10
120.53175
 20
-8.04775
 30
0.0
 41
240.0
 42
240.0
 50
331.528721
210
0.0
220
0.0
230
1.0
  0
INSERT
  8
1
  6
CONTINUOUS
 62
     1
  5
125
  2
LDR
 10
120.53175
 20
-8.04775
 30
0.0
 41
240.0
 42
240.0
 50
331.528721
210
0.0
220
0.0
230
1.0
  0
INSERT
  8
1
  6
CONTINUOUS
 62
     1
  5
126
  2
LDR
 10
120.546083
 20
-15.951333
 30
0.0
 41
240.0
 42
240.0
 50
180.0
210
0.0
220
0.0
230
1.0
  0
INSERT
  8
1
  6
CONTINUOUS
 62
     1
  5
127
  2
LDR
 10
179.889833
 20
-15.951333
 30
0.0
 41
240.0
 42
240.0
210
0.0
220
0.0
230
1.0
  0
INSERT
  8
1
  6
CONTINUOUS
 62
     1
  5
128
  2
LDR
 10
179.889833
 20
-15.951333
 30
0.0
 41
240.0
 42
240.0
210
0.0
220
0.0
230
1.0
  0
INSERT
  8
1
  6
CONTINUOUS
 62
     1
  5
129
  2
LDR
 10
139.634833
 20
16.3505
 30
0.0
 41
239.999999
 42
239.999999
 50
232.785487
210
0.0
220
0.0
230
1.0
  0
INSERT
  8
1
  6
CONTINUOUS
 62
     1
  5
12A
  2
LDR
 10
139.634833
 20
16.3505
 30
0.0
 41
239.999999
 42
239.999999
 50
232.785487
210
0.0
220
0.0
230
1.0
  0
INSERT
  8
1
  6
CONTINUOUS
 62
     1
  5
12B
  2
LDR
 10
160.389833
 20
21.548667
 30
0.0
 41
240.0
 42
240.0
 50
180.0
210
0.0
220
0.0
230
1.0
  0
INSERT
  8
1
  6
CONTINUOUS
 62
     1
  5
12C
  2
LDR
 10
160.389833
 20
21.548667
 30
0.0
 41
240.0
 42
240.0
 50
180.0
210
0.0
220
0.0
230
1.0
  0
INSERT
  8
1
  6
CONTINUOUS
 62
     1
  5
12D
  2
LDR
 10
185.139833
 20
21.548667
 30
0.0
 41
240.0
 42
240.0
210
0.0
220
0.0
230
1.0
  0
INSERT
  8
1
  6
CONTINUOUS
 62
     1
  5
12E
  2
LDR
 10
185.139833
 20
21.548667
 30
0.0
 41
240.0
 42
240.0
210
0.0
220
0.0
230
1.0
  0
INSERT
  8
1
  6
CONTINUOUS
 62
     1
  5
12F
  2
LDR
 10
183.639833
 20
14.798667
 30
0.0
 41
240.000001
 42
240.000001
 50
220.736356
210
0.0
220
0.0
230
1.0
  0
INSERT
  8
1
  6
CONTINUOUS
 62
     1
  5
130
  2
LDR
 10
183.639833
 20
14.798667
 30
0.0
 41
240.000001
 42
240.000001
 50
220.736356
210
0.0
220
0.0
230
1.0
  0
INSERT
  8
1
  6
CONTINUOUS
 62
     1
  5
131
  2
LDR
 10
166.014833
 20
13.861167
 30
0.0
 41
240.000001
 42
240.000001
 50
54.875211
210
0.0
220
0.0
230
1.0
  0
INSERT
  8
1
  6
CONTINUOUS
 62
     1
  5
132
  2
LDR
 10
166.014833
 20
13.861167
 30
0.0
 41
240.000001
 42
240.000001
 50
54.875211
210
0.0
220
0.0
230
1.0
  0
INSERT
  8
1
  6
CONTINUOUS
 62
     1
  5
133
  2
LDR
 10
181.014833
 20
-3.485333
 30
0.0
 41
239.999998
 42
239.999998
 50
23.684034
210
0.0
220
0.0
230
1.0
  0
INSERT
  8
1
  6
CONTINUOUS
 62
     1
  5
134
  2
LDR
 10
181.014833
 20
-3.485333
 30
0.0
 41
239.999998
 42
239.999998
 50
23.684034
210
0.0
220
0.0
230
1.0
  0
INSERT
  8
1
  6
CONTINUOUS
 62
     1
  5
135
  2
LDR
 10
191.139833
 20
15.548667
 30
0.0
 41
240.0
 42
240.0
 50
90.0
210
0.0
220
0.0
230
1.0
  0
INSERT
  8
1
  6
CONTINUOUS
 62
     1
  5
136
  2
LDR
 10
191.139833
 20
15.548667
 30
0.0
 41
240.0
 42
240.0
 50
90.0
210
0.0
220
0.0
230
1.0
  0
INSERT
  8
1
  6
CONTINUOUS
 62
     1
  5
137
  2
LDR
 10
191.139833
 20
-9.201333
 30
0.0
 41
240.0
 42
240.0
 50
270.0
210
0.0
220
0.0
230
1.0
  0
INSERT
  8
1
  6
CONTINUOUS
 62
     1
  5
138
  2
LDR
 10
191.139833
 20
-9.201333
 30
0.0
 41
240.0
 42
240.0
 50
270.0
210
0.0
220
0.0
230
1.0
  0
INSERT
  8
1
  6
CONTINUOUS
 62
     1
  5
139
  2
LDR
 10
199.389833
 20
-36.951417
 30
0.0
 41
240.0
 42
240.0
 50
90.0
210
0.0
220
0.0
230
1.0
  0
INSERT
  8
1
  6
CONTINUOUS
 62
     1
  5
13A
  2
LDR
 10
199.389833
 20
-36.951417
 30
0.0
 41
240.0
 42
240.0
 50
90.0
210
0.0
220
0.0
230
1.0
  0
INSERT
  8
1
  6
CONTINUOUS
 62
     1
  5
13B
  2
LDR
 10
199.389833
 20
-81.951417
 30
0.0
 41
240.0
 42
240.0
 50
270.0
210
0.0
220
0.0
230
1.0
  0
INSERT
  8
1
  6
CONTINUOUS
 62
     1
  5
13C
  2
LDR
 10
199.389833
 20
-81.951417
 30
0.0
 41
240.0
 42
240.0
 50
270.0
210
0.0
220
0.0
230
1.0
  0
INSERT
  8
1
  6
CONTINUOUS
 62
     1
  5
13D
  2
LDR
 10
190.389833
 20
-91.701417
 30
0.0
 41
240.0
 42
240.0
210
0.0
220
0.0
230
1.0
  0
INSERT
  8
1
  6
CONTINUOUS
 62
     1
  5
13E
  2
LDR
 10
190.389833
 20
-91.701417
 30
0.0
 41
240.0
 42
240.0
210
0.0
220
0.0
230
1.0
  0
INSERT
  8
1
  6
CONTINUOUS
 62
     1
  5
13F
  2
LDR
 10
174.639833
 20
-91.701417
 30
0.0
 41
240.0
 42
240.0
 50
180.0
210
0.0
220
0.0
230
1.0
  0
LINE
  8
1
  6
CONTINUOUS
 62
     7
  5
140
 10
182.714333
 20
-22.722
 30
0.0
 11
198.921583
 21
-22.722
 31
0.0
  0
LINE
  8
1
  6
HIDDEN
 62
     4
  5
141
 10
127.389833
 20
-36.951417
 30
0.0
 11
127.389833
 21
-56.414917
 31
0.0
  0
LINE
  8
1
  6
HIDDEN
 62
     4
  5
142
 10
134.889833
 20
-36.951417
 30
0.0
 11
134.889833
 21
-56.414917
 31
0.0
  0
LINE
  8
1
  6
CONTINUOUS
 62
     4
  5
143
 10
124.524667
 20
-56.915667
 30
0.0
 11
132.224917
 21
-55.569583
 31
0.0
  0
LINE
  8
1
  6
CONTINUOUS
 62
     4
  5
144
 10
130.0545
 20
-57.26
 30
0.0
 11
137.754917
 21
-55.914083
 31
0.0
  0
LINE
  8
1
  6
CONTINUOUS
 62
     4
  5
145
 10
132.224917
 20
-55.569583
 30
0.0
 11
130.0545
 21
-57.26
 31
0.0
  0
TEXT
  8
1
  6
CONTINUOUS
 62
     7
  5
146
 10
148.838833
 20
-57.656083
 30
0.0
 40
2.0
  1
DITCH
  7
MONOTXT
 72
     4
 11
152.862417
 21
-56.656083
 31
0.0
210
0.0
220
0.0
230
1.0
  0
TEXT
  8
1
  6
CONTINUOUS
 62
     7
  5
147
 10
140.059333
 20
-61.656083
 30
0.0
 40
2.0
  1
(AS APPLICABLE)
  7
MONOTXT
 72
     4
 11
152.854667
 21
-60.656083
 31
0.0
210
0.0
220
0.0
230
1.0
  0
LINE
  8
1
  6
CONTINUOUS
 62
     4
  5
148
 10
-9.110167
 20
-36.951417
 30
0.0
 11
147.275833
 21
-36.951417
 31
0.0
  0
LINE
  8
1
  6
CONTINUOUS
 62
     4
  5
149
 10
174.639833
 20
-36.951417
 30
0.0
 11
179.889833
 21
-36.951417
 31
0.0
  0
LINE
  8
PATTERN_CLASS
  6
CONTINUOUS
 62
     4
  5
14A
 10
136.170417
 20
-36.951417
 30
0.0
 11
147.275833
 21
-36.951417
 31
0.0
  0
LINE
  8
1
  6
CONTINUOUS
 62
     4
  5
14B
 10
147.275833
 20
-36.951417
 30
0.0
 11
174.639833
 21
-36.951417
 31
0.0
  0
LINE
  8
PATTERN_CLASS
  6
CONTINUOUS
 62
     4
  5
14C
 10
159.2675
 20
-36.951417
 30
0.0
 11
174.639833
 21
-36.951417
 31
0.0
  0
LINE
  8
1
  6
CONTINUOUS
 62
     7
  5
14D
 10
137.490417
 20
-36.991417
 30
0.0
 11
136.170417
 21
-38.311417
 31
0.0
  0
LINE
  8
1
  6
CONTINUOUS
 62
     7
  5
14E
 10
138.910417
 20
-36.991417
 30
0.0
 11
136.290417
 21
-39.611417
 31
0.0
  0
LINE
  8
1
  6
CONTINUOUS
 62
     7
  5
14F
 10
138.810417
 20
-36.991417
 30
0.0
 11
141.010417
 21
-39.191417
 31
0.0
  0
LINE
  8
1
  6
CONTINUOUS
 62
     7
  5
150
 10
138.330417
 20
-37.951417
 30
0.0
 11
140.190417
 21
-39.791417
 31
0.0
  0
LINE
  8
1
  6
CONTINUOUS
 62
     7
  5
151
 10
137.870417
 20
-38.911417
 30
0.0
 11
139.150417
 21
-40.191417
 31
0.0
  0
LINE
  8
1
  6
CONTINUOUS
 62
     7
  5
152
 10
137.370417
 20
-39.831417
 30
0.0
 11
138.230417
 21
-40.671417
 31
0.0
  0
LINE
  8
1
  6
CONTINUOUS
 62
     7
  5
153
 10
143.190417
 20
-36.991417
 30
0.0
 11
141.010417
 21
-39.191417
 31
0.0
  0
LINE
  8
1
  6
CONTINUOUS
 62
     7
  5
154
 10
141.770417
 20
-36.991417
 30
0.0
 11
140.390417
 21
-38.371417
 31
0.0
  0
LINE
  8
1
  6
CONTINUOUS
 62
     7
  5
155
 10
140.330417
 20
-36.991417
 30
0.0
 11
139.770417
 21
-37.571417
 31
0.0
  0
LINE
  8
1
  6
CONTINUOUS
 62
     7
  5
156
 10
143.190417
 20
-36.991417
 30
0.0
 11
145.330417
 21
-39.131417
 31
0.0
  0
LINE
  8
1
  6
CONTINUOUS
 62
     7
  5
157
 10
142.670417
 20
-37.891417
 30
0.0
 11
144.510417
 21
-39.731417
 31
0.0
  0
LINE
  8
1
  6
CONTINUOUS
 62
     7
  5
158
 10
142.210417
 20
-38.851417
 30
0.0
 11
143.490417
 21
-40.131417
 31
0.0
  0
LINE
  8
1
  6
CONTINUOUS
 62
     7
  5
159
 10
141.690417
 20
-39.771417
 30
0.0
 11
142.550417
 21
-40.631417
 31
0.0
  0
LINE
  8
1
  6
CONTINUOUS
 62
     7
  5
15A
 10
147.470417
 20
-36.991417
 30
0.0
 11
145.330417
 21
-39.131417
 31
0.0
  0
LINE
  8
1
  6
CONTINUOUS
 62
     7
  5
15B
 10
146.050417
 20
-36.991417
 30
0.0
 11
144.730417
 21
-38.311417
 31
0.0
  0
LINE
  8
1
  6
CONTINUOUS
 62
     7
  5
15C
 10
144.610417
 20
-36.991417
 30
0.0
 11
144.090417
 21
-37.511417
 31
0.0
  0
LINE
  8
1
  6
CONTINUOUS
 62
     7
  5
15D
 10
160.5875
 20
-36.991417
 30
0.0
 11
159.2675
 21
-38.311417
 31
0.0
  0
LINE
  8
1
  6
CONTINUOUS
 62
     7
  5
15E
 10
162.0075
 20
-36.991417
 30
0.0
 11
159.3875
 21
-39.611417
 31
0.0
  0
LINE
  8
1
  6
CONTINUOUS
 62
     7
  5
15F
 10
161.9075
 20
-36.991417
 30
0.0
 11
164.1075
 21
-39.191417
 31
0.0
  0
LINE
  8
1
  6
CONTINUOUS
 62
     7
  5
160
 10
161.4275
 20
-37.951417
 30
0.0
 11
163.2875
 21
-39.791417
 31
0.0
  0
LINE
  8
1
  6
CONTINUOUS
 62
     7
  5
161
 10
160.9675
 20
-38.911417
 30
0.0
 11
162.2475
 21
-40.191417
 31
0.0
  0
LINE
  8
1
  6
CONTINUOUS
 62
     7
  5
162
 10
160.4675
 20
-39.831417
 30
0.0
 11
161.3275
 21
-40.671417
 31
0.0
  0
LINE
  8
1
  6
CONTINUOUS
 62
     7
  5
163
 10
166.2875
 20
-36.991417
 30
0.0
 11
164.1075
 21
-39.191417
 31
0.0
  0
LINE
  8
1
  6
CONTINUOUS
 62
     7
  5
164
 10
164.8675
 20
-36.991417
 30
0.0
 11
163.4875
 21
-38.371417
 31
0.0
  0
LINE
  8
1
  6
CONTINUOUS
 62
     7
  5
165
 10
163.4275
 20
-36.991417
 30
0.0
 11
162.8675
 21
-37.571417
 31
0.0
  0
LINE
  8
1
  6
CONTINUOUS
 62
     7
  5
166
 10
166.2875
 20
-36.991417
 30
0.0
 11
168.4275
 21
-39.131417
 31
0.0
  0
LINE
  8
1
  6
CONTINUOUS
 62
     7
  5
167
 10
165.7675
 20
-37.891417
 30
0.0
 11
167.6075
 21
-39.731417
 31
0.0
  0
LINE
  8
1
  6
CONTINUOUS
 62
     7
  5
168
 10
165.3075
 20
-38.851417
 30
0.0
 11
166.5875
 21
-40.131417
 31
0.0
  0
LINE
  8
1
  6
CONTINUOUS
 62
     7
  5
169
 10
164.7875
 20
-39.771417
 30
0.0
 11
165.6475
 21
-40.631417
 31
0.0
  0
LINE
  8
1
  6
CONTINUOUS
 62
     7
  5
16A
 10
170.5675
 20
-36.991417
 30
0.0
 11
168.4275
 21
-39.131417
 31
0.0
  0
LINE
  8
1
  6
CONTINUOUS
 62
     7
  5
16B
 10
169.1475
 20
-36.991417
 30
0.0
 11
167.8275
 21
-38.311417
 31
0.0
  0
LINE
  8
1
  6
CONTINUOUS
 62
     7
  5
16C
 10
167.7075
 20
-36.991417
 30
0.0
 11
167.1875
 21
-37.511417
 31
0.0
  0
LINE
  8
1
  6
CONTINUOUS
 62
     7
  5
16D
 10
171.8875
 20
-36.991417
 30
0.0
 11
170.5675
 21
-38.311417
 31
0.0
  0
LINE
  8
1
  6
CONTINUOUS
 62
     7
  5
16E
 10
173.3075
 20
-36.991417
 30
0.0
 11
170.6875
 21
-39.611417
 31
0.0
  0
LINE
  8
1
  6
CONTINUOUS
 62
     4
  5
16F
 10
190.389833
 20
-36.951417
 30
0.0
 11
224.889833
 21
-36.951417
 31
0.0
  0
LINE
  8
1
  6
CONTINUOUS
 62
     4
  5
170
 10
185.139833
 20
-36.951417
 30
0.0
 11
190.389833
 21
-36.951417
 31
0.0
  0
LINE
  8
PATTERN_CLASS
  6
CONTINUOUS
 62
     4
  5
171
 10
190.389833
 20
-36.951417
 30
0.0
 11
208.372833
 21
-36.951417
 31
0.0
  0
LINE
  8
1
  6
CONTINUOUS
 62
     7
  5
172
 10
191.709833
 20
-36.991417
 30
0.0
 11
190.389833
 21
-38.311417
 31
0.0
  0
LINE
  8
1
  6
CONTINUOUS
 62
     7
  5
173
 10
193.129833
 20
-36.991417
 30
0.0
 11
190.509833
 21
-39.611417
 31
0.0
  0
LINE
  8
1
  6
CONTINUOUS
 62
     7
  5
174
 10
193.029833
 20
-36.991417
 30
0.0
 11
195.229833
 21
-39.191417
 31
0.0
  0
LINE
  8
1
  6
CONTINUOUS
 62
     7
  5
175
 10
192.549833
 20
-37.951417
 30
0.0
 11
194.409833
 21
-39.791417
 31
0.0
  0
LINE
  8
1
  6
CONTINUOUS
 62
     7
  5
176
 10
192.089833
 20
-38.911417
 30
0.0
 11
193.369833
 21
-40.191417
 31
0.0
  0
LINE
  8
1
  6
CONTINUOUS
 62
     7
  5
177
 10
191.589833
 20
-39.831417
 30
0.0
 11
192.449833
 21
-40.671417
 31
0.0
  0
LINE
  8
1
  6
CONTINUOUS
 62
     7
  5
178
 10
197.409833
 20
-36.991417
 30
0.0
 11
195.229833
 21
-39.191417
 31
0.0
  0
LINE
  8
1
  6
CONTINUOUS
 62
     7
  5
179
 10
195.989833
 20
-36.991417
 30
0.0
 11
194.609833
 21
-38.371417
 31
0.0
  0
LINE
  8
1
  6
CONTINUOUS
 62
     7
  5
17A
 10
194.549833
 20
-36.991417
 30
0.0
 11
193.989833
 21
-37.571417
 31
0.0
  0
LINE
  8
1
  6
CONTINUOUS
 62
     7
  5
17B
 10
196.429833
 20
-38.851417
 30
0.0
 11
197.709833
 21
-40.131417
 31
0.0
  0
LINE
  8
1
  6
CONTINUOUS
 62
     7
  5
17C
 10
195.909833
 20
-39.771417
 30
0.0
 11
196.769833
 21
-40.631417
 31
0.0
  0
LINE
  8
1
  6
CONTINUOUS
 62
     7
  5
17D
 10
203.009833
 20
-36.991417
 30
0.0
 11
201.689833
 21
-38.311417
 31
0.0
  0
LINE
  8
1
  6
CONTINUOUS
 62
     7
  5
17E
 10
204.429833
 20
-36.991417
 30
0.0
 11
201.809833
 21
-39.611417
 31
0.0
  0
LINE
  8
1
  6
CONTINUOUS
 62
     7
  5
17F
 10
204.329833
 20
-36.991417
 30
0.0
 11
206.529833
 21
-39.191417
 31
0.0
  0
LINE
  8
1
  6
CONTINUOUS
 62
     7
  5
180
 10
203.849833
 20
-37.951417
 30
0.0
 11
205.709833
 21
-39.791417
 31
0.0
  0
LINE
  8
1
  6
CONTINUOUS
 62
     7
  5
181
 10
203.389833
 20
-38.911417
 30
0.0
 11
204.669833
 21
-40.191417
 31
0.0
  0
LINE
  8
1
  6
CONTINUOUS
 62
     7
  5
182
 10
202.889833
 20
-39.831417
 30
0.0
 11
203.749833
 21
-40.671417
 31
0.0
  0
LINE
  8
1
  6
CONTINUOUS
 62
     7
  5
183
 10
208.709833
 20
-36.991417
 30
0.0
 11
206.529833
 21
-39.191417
 31
0.0
  0
LINE
  8
1
  6
CONTINUOUS
 62
     7
  5
184
 10
207.289833
 20
-36.991417
 30
0.0
 11
205.909833
 21
-38.371417
 31
0.0
  0
LINE
  8
1
  6
CONTINUOUS
 62
     7
  5
185
 10
205.849833
 20
-36.991417
 30
0.0
 11
205.289833
 21
-37.571417
 31
0.0
  0
LINE
  8
1
  6
CONTINUOUS
 62
     7
  5
186
 10
207.729833
 20
-38.851417
 30
0.0
 11
209.009833
 21
-40.131417
 31
0.0
  0
LINE
  8
1
  6
CONTINUOUS
 62
     7
  5
187
 10
207.209833
 20
-39.771417
 30
0.0
 11
208.069833
 21
-40.631417
 31
0.0
  0
LINE
  8
1
  6
CONTINUOUS
 62
     7
  5
188
 10
158.226
 20
-56.663417
 30
0.0
 11
164.343583
 21
-56.663417
 31
0.0
  0
LINE
  8
1
  6
CONTINUOUS
 62
     7
  5
189
 10
164.343583
 20
-56.663417
 30
0.0
 11
163.389833
 21
-45.951417
 31
0.0
  0
INSERT
  8
1
  6
CONTINUOUS
 62
     1
  5
18A
  2
LDR
 10
163.389833
 20
-45.951417
 30
0.0
 41
240.000001
 42
240.000001
 50
95.087951
210
0.0
220
0.0
230
1.0
  0
ENDSEC
  0
EOF
