  0
SECTION
  2
HEADER
  9
$ACADVER
  1
AC1009
  9
$INSBASE
 10
0.0
 20
0.0
 30
0.0
  9
$EXTMIN
 10
-67.018833
 20
-55.48025
 30
0.0
  9
$EXTMAX
 10
613.061167
 20
384.55975
 30
0.0
  9
$LIMMIN
 10
0.0
 20
0.0
  9
$LIMMAX
 10
12.0
 20
9.0
  9
$ORTHOMODE
 70
     0
  9
$REGENMODE
 70
     1
  9
$FILLMODE
 70
     1
  9
$QTEXTMODE
 70
     0
  9
$MIRRTEXT
 70
     1
  9
$DRAGMODE
 70
     2
  9
$LTSCALE
 40
1.0
  9
$OSMODE
 70
     0
  9
$ATTMODE
 70
     1
  9
$TEXTSIZE
 40
0.2
  9
$TRACEWID
 40
0.05
  9
$TEXTSTYLE
  7
STANDARD
  9
$CLAYER
  8
0
  9
$CELTYPE
  6
CONTINUOUS
  9
$CECOLOR
 62
   256
  9
$DIMSCALE
 40
1.0
  9
$DIMASZ
 40
0.18
  9
$DIMEXO
 40
0.0625
  9
$DIMDLI
 40
0.38
  9
$DIMRND
 40
0.0
  9
$DIMDLE
 40
0.0
  9
$DIMEXE
 40
0.18
  9
$DIMTP
 40
0.0
  9
$DIMTM
 40
0.0
  9
$DIMTXT
 40
0.18
  9
$DIMCEN
 40
0.09
  9
$DIMTSZ
 40
0.0
  9
$DIMTOL
 70
     0
  9
$DIMLIM
 70
     0
  9
$DIMTIH
 70
     1
  9
$DIMTOH
 70
     1
  9
$DIMSE1
 70
     0
  9
$DIMSE2
 70
     0
  9
$DIMTAD
 70
     0
  9
$DIMZIN
 70
     0
  9
$DIMBLK
  1

  9
$DIMASO
 70
     1
  9
$DIMSHO
 70
     1
  9
$DIMPOST
  1

  9
$DIMAPOST
  1

  9
$DIMALT
 70
     0
  9
$DIMALTD
 70
     2
  9
$DIMALTF
 40
25.4
  9
$DIMLFAC
 40
1.0
  9
$DIMTOFL
 70
     0
  9
$DIMTVP
 40
0.0
  9
$DIMTIX
 70
     0
  9
$DIMSOXD
 70
     0
  9
$DIMSAH
 70
     0
  9
$DIMBLK1
  1

  9
$DIMBLK2
  1

  9
$DIMSTYLE
  2
STANDARD
  9
$DIMCLRD
 70
     0
  9
$DIMCLRE
 70
     0
  9
$DIMCLRT
 70
     0
  9
$DIMTFAC
 40
1.0
  9
$DIMGAP
 40
0.09
  9
$LUNITS
 70
     2
  9
$LUPREC
 70
     4
  9
$AXISMODE
 70
     0
  9
$AXISUNIT
 10
0.0
 20
0.0
  9
$SKETCHINC
 40
0.1
  9
$FILLETRAD
 40
0.0
  9
$AUNITS
 70
     0
  9
$AUPREC
 70
     0
  9
$MENU
  1
acad
  9
$ELEVATION
 40
0.0
  9
$PELEVATION
 40
0.0
  9
$THICKNESS
 40
0.0
  9
$LIMCHECK
 70
     0
  9
$BLIPMODE
 70
     1
  9
$CHAMFERA
 40
0.0
  9
$CHAMFERB
 40
0.0
  9
$SKPOLY
 70
     0
  9
$TDCREATE
 40
2451803.402152778
  9
$TDUPDATE
 40
2451803.402152778
  9
$TDINDWG
 40
0.0000000000
  9
$TDUSRTIMER
 40
0.0000000000
  9
$USRTIMER
 70
     1
  9
$ANGBASE
 50
0.0
  9
$ANGDIR
 70
     0
  9
$PDMODE
 70
     0
  9
$PDSIZE
 40
0.0
  9
$PLINEWID
 40
0.0
  9
$COORDS
 70
     0
  9
$SPLFRAME
 70
     0
  9
$SPLINETYPE
 70
     6
  9
$SPLINESEGS
 70
    10
  9
$ATTDIA
 70
     0
  9
$ATTREQ
 70
     1
  9
$HANDLING
 70
     1
  9
$HANDSEED
  5
52E
  9
$SURFTAB1
 70
     6
  9
$SURFTAB2
 70
     6
  9
$SURFTYPE
 70
     6
  9
$SURFU
 70
     6
  9
$SURFV
 70
     6
  9
$UCSNAME
  2

  9
$UCSORG
 10
0.0
 20
0.0
 30
0.0
  9
$UCSXDIR
 10
1.0
 20
0.0
 30
0.0
  9
$UCSYDIR
 10
0.0
 20
1.0
 30
0.0
  9
$PUCSNAME
  2

  9
$PUCSORG
 10
0.0
 20
0.0
 30
0.0
  9
$PUCSXDIR
 10
1.0
 20
0.0
 30
0.0
  9
$PUCSYDIR
 10
0.0
 20
1.0
 30
0.0
  9
$USERI1
 70
     0
  9
$USERI2
 70
     0
  9
$USERI3
 70
     0
  9
$USERI4
 70
     0
  9
$USERI5
 70
     0
  9
$USERR1
 40
0.0
  9
$USERR2
 40
0.0
  9
$USERR3
 40
0.0
  9
$USERR4
 40
0.0
  9
$USERR5
 40
0.0
  9
$WORLDVIEW
 70
     1
  9
$SHADEDGE
 70
     3
  9
$SHADEDIF
 70
    70
  9
$TILEMODE
 70
     1
  9
$MAXACTVP
 70
    16
  9
$PINSBASE
 10
0.0
 20
0.0
 30
0.0
  9
$PLIMCHECK
 70
     0
  9
$PEXTMIN
 10
-1.000000E+20
 20
-1.000000E+20
 30
-1.000000E+20
  9
$PEXTMAX
 10
-1.000000E+20
 20
-1.000000E+20
 30
-1.000000E+20
  9
$PLIMMIN
 10
0.0
 20
0.0
  9
$PLIMMAX
 10
12.0
 20
9.0
  9
$UNITMODE
 70
     0
  9
$VISRETAIN
 70
     0
  9
$PLINEGEN
 70
     1
  9
$PSLTSCALE
 70
     0
  9
$TREEDEPTH
 70
  3020
  9
$DWGCODEPAGE
  3
ansi_1252
  0
ENDSEC
  0
SECTION
  2
TABLES
  0
TABLE
  2
VPORT
 70
     1
  0
VPORT
  2
*ACTIVE
 70
     0
 10
0.0
 20
0.0
 11
1.0
 21
1.0
 12
0.0
 22
0.0
 13
0.0
 23
0.0
 14
0.0
 24
0.0
 15
0.0
 25
0.0
 16
0.0
 26
0.0
 36
1.0
 17
227.257467
 27
164.53975
 37
0.0
 40
451.041
 41
1.795122
 42
50.0
 43
0.0
 44
0.0
 50
0.0
 51
0.0
 71
     0
 72
   100
 73
     1
 74
     0
 75
     0
 76
     0
 77
     0
 78
     0
  0
ENDTAB
  0
TABLE
  2
LTYPE
 70
     7
  0
LTYPE
  2
CONTINUOUS
 70
     0
  3
Solid line
 72
    65
 73
     0
 40
0.0
  0
LTYPE
  2
DOT
 70
    64
  3
. . . . . . . . . . . . . . . . . . . . . . . . . . . . . . . . .
 72
    65
 73
     2
 40
0.25
 49
0.0
 49
-0.25
  0
LTYPE
  2
HIDDEN
 70
    64
  3
__ __ __ __ __ __ __ __ __ __ __ __ __ __ __ __ __ __ __ __ __ 
 72
    65
 73
     2
 40
0.375
 49
0.25
 49
-0.125
  0
LTYPE
  2
DASHED
 70
    64
  3
__ __ __ __ __ __ __ __ __ __ __ __ __ __ __ __ __ __ __ __ __
 72
    65
 73
     2
 40
0.75
 49
0.5
 49
-0.25
  0
LTYPE
  2
DASHDOT
 70
    64
  3
__ . __ . __ . __ . __ . __ . __ . __ . __ . __ . __ . __ . _
 72
    65
 73
     4
 40
1.0
 49
0.5
 49
-0.25
 49
0.0
 49
-0.25
  0
LTYPE
  2
DIVIDE
 70
    64
  3
____ . . ____ . . ____ . . ____ . . ____ . . ____ . . ____ . .
 72
    65
 73
     6
 40
1.25
 49
0.5
 49
-0.25
 49
0.0
 49
-0.25
 49
0.0
 49
-0.25
  0
LTYPE
  2
CENTER
 70
    64
  3
____ _ ____ _ ____ _ ____ _ ____ _ ____ _ ____ _ ____ _ ____ _
 72
    65
 73
     4
 40
2.0
 49
1.25
 49
-0.25
 49
0.25
 49
-0.25
  0
ENDTAB
  0
TABLE
  2
LAYER
 70
     5
  0
LAYER
  2
0
 70
     0
 62
     7
  6
CONTINUOUS
  0
LAYER
  2
CONSTRUCTION_CLASS
 70
     0
 62
     7
  6
CONTINUOUS
  0
LAYER
  2
PATTERN_CLASS
 70
     0
 62
     7
  6
CONTINUOUS
  0
LAYER
  2
61
 70
    64
 62
     7
  6
CONTINUOUS
  0
LAYER
  2
1
 70
    64
 62
     7
  6
CONTINUOUS
  0
ENDTAB
  0
TABLE
  2
STYLE
 70
     4
  0
STYLE
  2
STANDARD
 70
     0
 40
0.0
 41
1.0
 50
0.0
 71
     0
 42
0.0
  3
txt
  4

  0
STYLE
  2
MONOTXT
 70
     0
 40
0.2
 41
1.0
 50
0.0
 71
     0
 42
0.2
  3
MONOTXT
  4

  0
STYLE
  2
txt
 70
     0
 40
0.2
 41
1.0
 50
0.0
 71
     0
 42
0.2
  3
TXT
  4

  0
STYLE
  2
ROMANT
 70
     0
 40
0.2
 41
1.0
 50
0.0
 71
     0
 42
0.2
  3
ROMANT
  4

  0
ENDTAB
  0
TABLE
  2
VIEW
 70
     0
  0
ENDTAB
  0
TABLE
  2
UCS
 70
     0
  0
ENDTAB
  0
TABLE
  2
APPID
 70
     1
  0
APPID
  2
ACAD
 70
     0
  0
ENDTAB
  0
TABLE
  2
DIMSTYLE
 70
     1
  0
DIMSTYLE
  2
STANDARD
 70
     0
  3

  4

  5

  6

  7

 40
1.0
 41
0.18
 42
0.0625
 43
0.38
 44
0.18
 45
0.0
 46
0.0
 47
0.0
 48
0.0
140
0.18
141
0.09
142
0.0
143
25.4
144
1.0
145
0.0
146
1.0
147
0.09
 71
     0
 72
     0
 73
     1
 74
     1
 75
     0
 76
     0
 77
     0
 78
     0
170
     0
171
     2
172
     0
173
     0
174
     0
175
     0
176
     0
177
     0
178
     0
  0
ENDTAB
  0
ENDSEC
  0
SECTION
  2
BLOCKS
  0
BLOCK
  8
1
  6
CONTINUOUS
 62
     1
  5
D8
  2
LDR
 70
     0
 10
0.0
 20
0.0
 30
0.0
  3
LNR
  0
POLYLINE
  8
1
  6
CONTINUOUS
 62
     1
  5
D9
 66
     1
 10
0.0
 20
0.0
 30
0.0
210
0.0
220
0.0
230
1.0
  0
VERTEX
  8
1
  6
CONTINUOUS
 62
     1
  5
DA
 10
-0.011987
 20
-0.001802
 30
0.0
 42
-0.265147
  0
VERTEX
  8
1
  6
CONTINUOUS
 62
     1
  5
DB
 10
-0.011849
 20
-0.001604
 30
0.0
 42
-0.064653
  0
VERTEX
  8
1
  6
CONTINUOUS
 62
     1
  5
DC
 10
-0.011407
 20
-0.001387
 30
0.0
 42
-0.025822
  0
VERTEX
  8
1
  6
CONTINUOUS
 62
     1
  5
DD
 10
-0.010681
 20
-0.00116
 30
0.0
 42
-0.014504
  0
VERTEX
  8
1
  6
CONTINUOUS
 62
     1
  5
DE
 10
-0.0097
 20
-0.000933
 30
0.0
 42
-0.009896
  0
VERTEX
  8
1
  6
CONTINUOUS
 62
     1
  5
DF
 10
-0.008505
 20
-0.000715
 30
0.0
 42
-0.007708
  0
VERTEX
  8
1
  6
CONTINUOUS
 62
     1
  5
E0
 10
-0.007146
 20
-0.000515
 30
0.0
 42
-0.006655
  0
VERTEX
  8
1
  6
CONTINUOUS
 62
     1
  5
E1
 10
-0.005679
 20
-0.000342
 30
0.0
 42
-0.006278
  0
VERTEX
  8
1
  6
CONTINUOUS
 62
     1
  5
E2
 10
-0.004164
 20
-0.000202
 30
0.0
 42
-0.006439
  0
VERTEX
  8
1
  6
CONTINUOUS
 62
     1
  5
E3
 10
-0.002666
 20
-0.000101
 30
0.0
 42
-0.007196
  0
VERTEX
  8
1
  6
CONTINUOUS
 62
     1
  5
E4
 10
-0.001246
 20
-0.000044
 30
0.0
 42
-0.008852
  0
VERTEX
  8
1
  6
CONTINUOUS
 62
     1
  5
E5
 10
0.000037
 20
-0.000034
 30
0.0
 42
-0.008852
  0
SEQEND
  8
1
  6
CONTINUOUS
 62
     1
  5
E6
  0
POLYLINE
  8
1
  6
CONTINUOUS
 62
     1
  5
E7
 66
     1
 10
0.0
 20
0.0
 30
0.0
210
0.0
220
0.0
230
1.0
  0
VERTEX
  8
1
  6
CONTINUOUS
 62
     1
  5
E8
 10
0.000039
 20
0.000014
 30
0.0
 42
-0.005019
  0
VERTEX
  8
1
  6
CONTINUOUS
 62
     1
  5
E9
 10
-0.001103
 20
0.000071
 30
0.0
 42
-0.004038
  0
VERTEX
  8
1
  6
CONTINUOUS
 62
     1
  5
EA
 10
-0.002373
 20
0.000158
 30
0.0
 42
-0.003548
  0
VERTEX
  8
1
  6
CONTINUOUS
 62
     1
  5
EB
 10
-0.003725
 20
0.00027
 30
0.0
 42
-0.003367
  0
VERTEX
  8
1
  6
CONTINUOUS
 62
     1
  5
EC
 10
-0.005111
 20
0.000405
 30
0.0
 42
-0.003436
  0
VERTEX
  8
1
  6
CONTINUOUS
 62
     1
  5
ED
 10
-0.006481
 20
0.000556
 30
0.0
 42
-0.003778
  0
VERTEX
  8
1
  6
CONTINUOUS
 62
     1
  5
EE
 10
-0.007786
 20
0.00072
 30
0.0
 42
-0.00451
  0
VERTEX
  8
1
  6
CONTINUOUS
 62
     1
  5
EF
 10
-0.008979
 20
0.000889
 30
0.0
 42
-0.00594
  0
VERTEX
  8
1
  6
CONTINUOUS
 62
     1
  5
F0
 10
-0.010018
 20
0.001058
 30
0.0
 42
-0.008921
  0
VERTEX
  8
1
  6
CONTINUOUS
 62
     1
  5
F1
 10
-0.010864
 20
0.00122
 30
0.0
 42
-0.016392
  0
VERTEX
  8
1
  6
CONTINUOUS
 62
     1
  5
F2
 10
-0.011488
 20
0.001371
 30
0.0
 42
-0.04458
  0
VERTEX
  8
1
  6
CONTINUOUS
 62
     1
  5
F3
 10
-0.011867
 20
0.001503
 30
0.0
 42
-0.317392
  0
VERTEX
  8
1
  6
CONTINUOUS
 62
     1
  5
F4
 10
-0.011987
 20
0.001614
 30
0.0
 42
-0.317392
  0
SEQEND
  8
1
  6
CONTINUOUS
 62
     1
  5
F5
  0
ENDBLK
  8
1
  6
CONTINUOUS
 62
     1
  5
F6
  0
ENDSEC
  0
SECTION
  2
ENTITIES
  0
LINE
  8
61
  6
CONTINUOUS
 62
     1
  5
29
 10
602.081167
 20
374.55975
 30
0.0
 11
-36.958833
 21
374.55975
 31
0.0
  0
LINE
  8
61
  6
CONTINUOUS
 62
     1
  5
2A
 10
-36.958833
 20
374.55975
 30
0.0
 11
-36.958833
 21
-45.46025
 31
0.0
  0
LINE
  8
61
  6
CONTINUOUS
 62
     1
  5
2B
 10
602.101167
 20
-45.48025
 30
0.0
 11
-36.958833
 21
-45.46025
 31
0.0
  0
LINE
  8
61
  6
CONTINUOUS
 62
     1
  5
2C
 10
602.081167
 20
374.55975
 30
0.0
 11
602.101167
 21
-45.48025
 31
0.0
  0
LINE
  8
61
  6
CONTINUOUS
 62
     7
  5
2D
 10
595.981167
 20
369.81975
 30
0.0
 11
488.001167
 21
369.79975
 31
0.0
  0
LINE
  8
61
  6
CONTINUOUS
 62
     7
  5
2E
 10
488.001167
 20
369.79975
 30
0.0
 11
488.001167
 21
349.79975
 31
0.0
  0
LINE
  8
61
  6
CONTINUOUS
 62
     7
  5
2F
 10
595.981167
 20
369.81975
 30
0.0
 11
595.981167
 21
349.81975
 31
0.0
  0
LINE
  8
61
  6
CONTINUOUS
 62
     7
  5
30
 10
595.981167
 20
349.81975
 30
0.0
 11
488.001167
 21
349.79975
 31
0.0
  0
LINE
  8
61
  6
CONTINUOUS
 62
     7
  5
31
 10
596.001167
 20
359.77975
 30
0.0
 11
487.981167
 21
359.79975
 31
0.0
  0
LINE
  8
61
  6
CONTINUOUS
 62
     7
  5
32
 10
498.001167
 20
369.79975
 30
0.0
 11
498.001167
 21
349.79975
 31
0.0
  0
LINE
  8
61
  6
CONTINUOUS
 62
     7
  5
33
 10
508.001167
 20
369.79975
 30
0.0
 11
508.001167
 21
349.79975
 31
0.0
  0
LINE
  8
61
  6
CONTINUOUS
 62
     7
  5
34
 10
521.681167
 20
369.79975
 30
0.0
 11
521.681167
 21
349.79975
 31
0.0
  0
LINE
  8
61
  6
CONTINUOUS
 62
     7
  5
35
 10
585.981167
 20
369.81975
 30
0.0
 11
585.981167
 21
349.81975
 31
0.0
  0
LINE
  8
61
  6
CONTINUOUS
 62
     7
  5
36
 10
575.981167
 20
369.81975
 30
0.0
 11
575.981167
 21
349.81975
 31
0.0
  0
LINE
  8
61
  6
CONTINUOUS
 62
     7
  5
37
 10
554.001167
 20
369.79975
 30
0.0
 11
554.001167
 21
349.79975
 31
0.0
  0
LINE
  8
61
  6
CONTINUOUS
 62
     7
  5
38
 10
544.001167
 20
369.79975
 30
0.0
 11
544.001167
 21
349.79975
 31
0.0
  0
TEXT
  8
61
  6
CONTINUOUS
 62
     7
  5
3A
 10
490.041167
 20
366.77975
 30
0.0
 40
1.20075
  1
PUBLIC
 50
0.033272
 41
1.001804
  7
MONOTXT
210
0.0
220
0.0
230
1.0
  0
TEXT
  8
61
  6
CONTINUOUS
 62
     7
  5
3B
 10
490.121167
 20
364.25975
 30
0.0
 40
1.20075
  1
ROADS
 50
0.124322
 41
0.996877
  7
MONOTXT
210
0.0
220
0.0
230
1.0
  0
TEXT
  8
61
  6
CONTINUOUS
 62
     7
  5
3C
 10
491.321167
 20
361.75975
 30
0.0
 40
1.20075
  1
DIV.
 50
359.931522
 41
0.994864
  7
MONOTXT
210
0.0
220
0.0
230
1.0
  0
TEXT
  8
61
  6
CONTINUOUS
 62
     7
  5
3D
 10
500.201167
 20
366.83975
 30
0.0
 40
1.20075
  1
STATE
 50
0.058969
 41
0.998196
  7
MONOTXT
210
0.0
220
0.0
230
1.0
  0
TEXT
  8
61
  6
CONTINUOUS
 62
     7
  5
3E
 10
501.081167
 20
364.33975
 30
0.0
 40
1.20075
  1
DIST.
 50
0.055889
 41
0.999584
  7
MONOTXT
210
0.0
220
0.0
230
1.0
  0
TEXT
  8
61
  6
CONTINUOUS
 62
     7
  5
3F
 10
501.661167
 20
361.81975
 30
0.0
 40
1.20075
  1
NO.
 50
359.852072
 41
0.997779
  7
MONOTXT
210
0.0
220
0.0
230
1.0
  0
TEXT
  8
61
  6
CONTINUOUS
 62
     7
  5
40
 10
512.201167
 20
366.77975
 30
0.0
 40
1.20075
  1
STATE
 50
0.058969
 41
0.998196
  7
MONOTXT
210
0.0
220
0.0
230
1.0
  0
TEXT
  8
61
  6
CONTINUOUS
 62
     7
  5
41
 10
511.121167
 20
364.35975
 30
0.0
 40
1.20075
  1
PROJECT
 50
359.908431
 41
1.000069
  7
MONOTXT
210
0.0
220
0.0
230
1.0
  0
TEXT
  8
61
  6
CONTINUOUS
 62
     7
  5
42
 10
513.861167
 20
361.81975
 30
0.0
 40
1.20075
  1
NO.
 50
0.225453
 41
0.993546
  7
MONOTXT
210
0.0
220
0.0
230
1.0
  0
TEXT
  8
61
  6
CONTINUOUS
 62
     7
  5
43
 10
529.501167
 20
365.65975
 30
0.0
 40
1.20075
  1
FEDERAL
 50
0.006714
 41
0.998543
  7
MONOTXT
210
0.0
220
0.0
230
1.0
  0
TEXT
  8
61
  6
CONTINUOUS
 62
     7
  5
44
 10
527.961167
 20
362.99975
 30
0.0
 40
1.20075
  1
PROJECT NO.
 50
359.921531
 41
1.000694
  7
MONOTXT
210
0.0
220
0.0
230
1.0
  0
TEXT
  8
61
  6
CONTINUOUS
 62
     7
  5
45
 10
546.241167
 20
365.59975
 30
0.0
 40
1.20075
  1
FISCAL
 50
359.941939
 41
0.998959
  7
MONOTXT
210
0.0
220
0.0
230
1.0
  0
TEXT
  8
61
  6
CONTINUOUS
 62
     7
  5
46
 10
546.761167
 20
362.69975
 30
0.0
 40
1.20075
  1
YEAR
 50
0.104606
 41
0.993268
  7
MONOTXT
210
0.0
220
0.0
230
1.0
  0
TEXT
  8
61
  6
CONTINUOUS
 62
     7
  5
47
 10
560.861167
 20
364.05975
 30
0.0
 40
1.20075
  1
COUNTY
 50
0.068575
 41
1.001874
  7
MONOTXT
210
0.0
220
0.0
230
1.0
  0
TEXT
  8
61
  6
CONTINUOUS
 62
     7
  5
48
 10
578.501167
 20
365.71975
 30
0.0
 40
1.20075
  1
SHEET
 50
0.058969
 41
0.997571
  7
MONOTXT
210
0.0
220
0.0
230
1.0
  0
TEXT
  8
61
  6
CONTINUOUS
 62
     7
  5
49
 10
579.921167
 20
362.99975
 30
0.0
 40
1.20075
  1
NO.
 50
359.852072
 41
0.997779
  7
MONOTXT
210
0.0
220
0.0
230
1.0
  0
TEXT
  8
61
  6
CONTINUOUS
 62
     7
  5
4A
 10
588.241167
 20
365.57975
 30
0.0
 40
1.20075
  1
TOTAL
 50
359.926039
 41
0.998543
  7
MONOTXT
210
0.0
220
0.0
230
1.0
  0
TEXT
  8
61
  6
CONTINUOUS
 62
     7
  5
4B
 10
587.781167
 20
362.87975
 30
0.0
 40
1.20075
  1
SHEETS
 50
359.958675
  7
MONOTXT
210
0.0
220
0.0
230
1.0
  0
TEXT
  8
61
  6
CONTINUOUS
 62
     7
  5
4C
 10
500.601167
 20
353.99975
 30
0.0
 40
2.401333
  1
  
 50
0.029406
 41
0.996495
  7
MONOTXT
210
0.0
220
0.0
230
1.0
  0
TEXT
  8
61
  6
CONTINUOUS
 62
     7
  5
4D
 10
577.781167
 20
353.71975
 30
0.0
 40
2.401333
  1
   
 50
0.011508
 41
1.001006
  7
MONOTXT
210
0.0
220
0.0
230
1.0
  0
TEXT
  8
61
  6
CONTINUOUS
 62
     7
  5
4E
 10
587.661167
 20
353.69975
 30
0.0
 40
2.401333
  1
   
 50
359.922128
 41
1.000555
  7
MONOTXT
210
0.0
220
0.0
230
1.0
  0
TEXT
  8
61
  6
CONTINUOUS
 62
     7
  5
4F
 10
511.041167
 20
357.09975
 30
0.0
 40
2.00675
  1
    
 50
0.054383
 41
0.993729
  7
MONOTXT
210
0.0
220
0.0
230
1.0
  0
TEXT
  8
61
  6
CONTINUOUS
 62
     7
  5
50
 10
508.121167
 20
354.07975
 30
0.0
 40
1.989583
  1
       
 50
0.064678
 41
1.000963
  7
MONOTXT
210
0.0
220
0.0
230
1.0
  0
TEXT
  8
61
  6
CONTINUOUS
 62
     7
  5
51
 10
509.081167
 20
351.17975
 30
0.0
 40
1.989583
  1
      
 50
359.958053
 41
1.000293
  7
MONOTXT
210
0.0
220
0.0
230
1.0
  0
TEXT
  8
61
  6
CONTINUOUS
 62
     7
  5
52
 10
520.041167
 20
355.81975
 30
0.0
 40
2.401333
  1
           
 50
0.011508
 41
0.998751
  7
MONOTXT
210
0.0
220
0.0
230
1.0
  0
TEXT
  8
61
  6
CONTINUOUS
 62
     7
  5
53
 10
519.921167
 20
352.15975
 30
0.0
 40
2.401333
  1
           
 50
0.011508
 41
0.999584
  7
MONOTXT
210
0.0
220
0.0
230
1.0
  0
TEXT
  8
61
  6
CONTINUOUS
 62
     7
  5
54
 10
555.261167
 20
353.89975
 30
0.0
 40
2.00675
  1
          
 50
0.009222
 41
0.992774
  7
MONOTXT
210
0.0
220
0.0
230
1.0
  0
ARC
  8
61
  6
CONTINUOUS
 62
     3
  5
55
 10
-55.261077
 20
285.801045
 30
0.0
 40
2.499998
 50
323.130094
 51
316.232156
210
0.0
220
0.0
230
1.0
  0
ARC
  8
61
  6
CONTINUOUS
 62
     3
  5
56
 10
-55.261077
 20
230.801045
 30
0.0
 40
2.499998
 50
323.130094
 51
315.375767
210
0.0
220
0.0
230
1.0
  0
ARC
  8
61
  6
CONTINUOUS
 62
     3
  5
57
 10
-55.541077
 20
82.361045
 30
0.0
 40
2.499998
 50
322.671753
 51
321.716147
210
0.0
220
0.0
230
1.0
  0
ARC
  8
61
  6
CONTINUOUS
 62
     3
  5
58
 10
-55.541077
 20
27.361045
 30
0.0
 40
2.499998
 50
323.130094
 51
312.314392
210
0.0
220
0.0
230
1.0
  0
LINE
  8
61
  6
CONTINUOUS
 62
     2
  5
59
 10
-53.238833
 20
285.79975
 30
0.0
 11
-45.258833
 21
285.81975
 31
0.0
  0
LINE
  8
61
  6
CONTINUOUS
 62
     2
  5
5A
 10
-53.258833
 20
230.79975
 30
0.0
 11
-45.258833
 21
230.79975
 31
0.0
  0
LINE
  8
61
  6
CONTINUOUS
 62
     2
  5
5B
 10
-53.538833
 20
82.37975
 30
0.0
 11
-45.538833
 21
82.37975
 31
0.0
  0
LINE
  8
61
  6
CONTINUOUS
 62
     2
  5
5C
 10
-53.518833
 20
27.35975
 30
0.0
 11
-45.538833
 21
27.35975
 31
0.0
  0
LINE
  8
61
  6
DASHED
 62
     1
  5
5D
 10
-66.958833
 20
384.55975
 30
0.0
 11
613.061167
 21
384.55975
 31
0.0
  0
LINE
  8
61
  6
DASHED
 62
     1
  5
5E
 10
613.041167
 20
-55.46025
 30
0.0
 11
-67.018833
 21
-55.48025
 31
0.0
  0
TEXT
  8
61
  6
CONTINUOUS
 62
     7
  5
5F
 10
588.881167
 20
329.89975
 30
0.0
 40
2.401333
  1
     
 41
1.001388
  7
MONOTXT
210
0.0
220
0.0
230
1.0
  0
LINE
  8
1
  6
HIDDEN
 62
     1
  5
61
 10
613.061167
 20
384.55975
 30
0.0
 11
613.041167
 21
-55.46025
 31
0.0
  0
LINE
  8
1
  6
HIDDEN
 62
     1
  5
62
 10
-66.958833
 20
384.55975
 30
0.0
 11
-67.018833
 21
-55.48025
 31
0.0
  0
TEXT
  8
1
  6
CONTINUOUS
 62
     1
  5
64
 10
567.821167
 20
-47.98025
 30
0.0
 40
1.2
  1
TRAFFIC ENGINEERING DIVISION
  7
txt
210
0.0
220
0.0
230
1.0
  0
LINE
  8
1
  6
CONTINUOUS
 62
     7
  5
65
 10
430.441167
 20
-45.48025
 30
0.0
 11
430.441167
 21
46.09975
 31
0.0
  0
LINE
  8
1
  6
CONTINUOUS
 62
     7
  5
66
 10
430.441167
 20
46.09975
 30
0.0
 11
602.101167
 21
46.09975
 31
0.0
  0
LINE
  8
1
  6
CONTINUOUS
 62
     7
  5
67
 10
465.441167
 20
-45.52025
 30
0.0
 11
465.441167
 21
-0.56025
 31
0.0
  0
LINE
  8
1
  6
CONTINUOUS
 62
     7
  5
68
 10
465.441167
 20
-0.56025
 30
0.0
 11
430.461167
 21
-0.56025
 31
0.0
  0
LINE
  8
1
  6
CONTINUOUS
 62
     7
  5
69
 10
465.441167
 20
-5.04025
 30
0.0
 11
430.461167
 21
-5.04025
 31
0.0
  0
LINE
  8
1
  6
CONTINUOUS
 62
     7
  5
6A
 10
465.441167
 20
-9.54025
 30
0.0
 11
430.461167
 21
-9.54025
 31
0.0
  0
LINE
  8
1
  6
CONTINUOUS
 62
     7
  5
6B
 10
465.441167
 20
-14.04025
 30
0.0
 11
430.461167
 21
-14.04025
 31
0.0
  0
LINE
  8
1
  6
CONTINUOUS
 62
     7
  5
6C
 10
465.441167
 20
-18.56025
 30
0.0
 11
430.461167
 21
-18.56025
 31
0.0
  0
LINE
  8
1
  6
CONTINUOUS
 62
     7
  5
6D
 10
465.441167
 20
-23.04025
 30
0.0
 11
430.461167
 21
-23.04025
 31
0.0
  0
LINE
  8
1
  6
CONTINUOUS
 62
     7
  5
6E
 10
465.441167
 20
-27.52025
 30
0.0
 11
430.461167
 21
-27.52025
 31
0.0
  0
LINE
  8
1
  6
CONTINUOUS
 62
     7
  5
6F
 10
465.441167
 20
-32.02025
 30
0.0
 11
430.461167
 21
-32.02025
 31
0.0
  0
LINE
  8
1
  6
CONTINUOUS
 62
     7
  5
70
 10
465.441167
 20
-36.52025
 30
0.0
 11
430.461167
 21
-36.52025
 31
0.0
  0
LINE
  8
1
  6
CONTINUOUS
 62
     7
  5
71
 10
465.441167
 20
-41.04025
 30
0.0
 11
430.461167
 21
-41.04025
 31
0.0
  0
TEXT
  8
1
  6
CONTINUOUS
 62
     7
  5
72
 10
440.721167
 20
-3.56025
 30
0.0
 40
1.99775
  1
REVISIONS
  7
MONOTXT
210
0.0
220
0.0
230
1.0
  0
TEXT
  8
1
  6
CONTINUOUS
 62
     7
  5
73
 10
432.401167
 20
0.43975
 30
0.0
 40
1.99775
  1
PREPARED: 04/00/73
  7
MONOTXT
210
0.0
220
0.0
230
1.0
  0
TEXT
  8
1
  6
CONTINUOUS
 62
     7
  5
75
 10
463.061167
 20
37.49975
 30
0.0
 40
4.794833
  1
WEST VIRGINIA DIVISION OF HIGHWAYS
  7
ROMANT
 72
     1
 11
517.031417
 21
42.294583
 31
0.0
210
0.0
220
0.0
230
1.0
 73
     3
  0
TEXT
  8
1
  6
CONTINUOUS
 62
     7
  5
76
 10
473.821167
 20
26.33975
 30
0.0
 40
6.992667
  1
STANDARD DETAIL
  7
txt
 72
     1
 11
518.31125
 21
33.332417
 31
0.0
210
0.0
220
0.0
230
1.0
 73
     3
  0
TEXT
  8
1
  6
CONTINUOUS
 62
     7
  5
77
 10
469.281167
 20
-41.44025
 30
0.0
 40
6.992667
  1
STANDARD SHEET TE6-3C
  7
txt
210
0.0
220
0.0
230
1.0
  0
TEXT
  8
1
  6
CONTINUOUS
 62
     1
  5
78
 10
440.512833
 20
-8.62025
 30
0.0
 40
2.0
  1
01-00-74
  7
MONOTXT
 72
     1
 11
447.4185
 21
-6.62025
 31
0.0
210
0.0
220
0.0
230
1.0
 73
     3
  0
TEXT
  8
1
  6
CONTINUOUS
 62
     1
  5
79
 10
440.540083
 20
-13.02025
 30
0.0
 40
2.0
  1
01-00-75
  7
MONOTXT
 72
     1
 11
447.398417
 21
-11.02025
 31
0.0
210
0.0
220
0.0
230
1.0
 73
     3
  0
TEXT
  8
1
  6
CONTINUOUS
 62
     1
  5
7A
 10
440.166333
 20
-17.42025
 30
0.0
 40
2.0
  1
07-22-76
  7
MONOTXT
 72
     1
 11
447.418417
 21
-15.42025
 31
0.0
210
0.0
220
0.0
230
1.0
 73
     3
  0
TEXT
  8
1
  6
CONTINUOUS
 62
     1
  5
7B
 10
440.544333
 20
-21.82025
 30
0.0
 40
2.0
  1
02-15-77
  7
MONOTXT
 72
     1
 11
447.410583
 21
-19.82025
 31
0.0
210
0.0
220
0.0
230
1.0
 73
     3
  0
TEXT
  8
1
  6
CONTINUOUS
 62
     1
  5
7C
 10
440.037833
 20
-26.42025
 30
0.0
 40
2.0
  1
02-22-93
  7
MONOTXT
 72
     1
 11
447.25825
 21
-24.42025
 31
0.0
210
0.0
220
0.0
230
1.0
 73
     3
  0
TEXT
  8
1
  6
CONTINUOUS
 62
     1
  5
7D
 10
439.741167
 20
-30.90025
 30
0.0
 40
2.0
  1
        
  7
MONOTXT
 72
     1
 11
447.408
 21
-28.90025
 31
0.0
210
0.0
220
0.0
230
1.0
 73
     3
  0
TEXT
  8
1
  6
CONTINUOUS
 62
     1
  5
7E
 10
439.641167
 20
-35.50025
 30
0.0
 40
2.0
  1
        
  7
MONOTXT
 72
     1
 11
447.308
 21
-33.50025
 31
0.0
210
0.0
220
0.0
230
1.0
 73
     3
  0
TEXT
  8
1
  6
CONTINUOUS
 62
     1
  5
7F
 10
439.741167
 20
-40.08025
 30
0.0
 40
2.0
  1
        
  7
MONOTXT
 72
     1
 11
447.408
 21
-38.08025
 31
0.0
210
0.0
220
0.0
230
1.0
 73
     3
  0
TEXT
  8
1
  6
CONTINUOUS
 62
     1
  5
80
 10
439.741167
 20
-44.10025
 30
0.0
 40
2.0
  1
        
  7
MONOTXT
 72
     1
 11
447.408
 21
-42.10025
 31
0.0
210
0.0
220
0.0
230
1.0
 73
     3
  0
TEXT
  8
1
  6
CONTINUOUS
 62
     7
  5
81
 10
454.515083
 20
16.543583
 30
0.0
 40
6.992667
  1
SIGN LIGHTING - FIXTURE
  7
txt
 72
     1
 11
518.3115
 21
23.53625
 31
0.0
210
0.0
220
0.0
230
1.0
 73
     3
  0
TEXT
  8
1
  6
CONTINUOUS
 62
     7
  5
82
 10
502.326667
 20
6.747417
 30
0.0
 40
6.992667
  1
TYPE 3
  7
txt
 72
     1
 11
518.649167
 21
13.740083
 31
0.0
210
0.0
220
0.0
230
1.0
 73
     3
  0
POLYLINE
  8
1
  6
CONTINUOUS
 62
     7
  5
83
 66
     1
 10
0.0
 20
0.0
 30
0.0
  0
VERTEX
  8
1
  6
CONTINUOUS
 62
     7
  5
84
 10
434.394083
 20
-14.481333
 30
0.0
  0
VERTEX
  8
1
  6
CONTINUOUS
 62
     7
  5
85
 10
432.394083
 20
-17.945417
 30
0.0
  0
VERTEX
  8
1
  6
CONTINUOUS
 62
     7
  5
86
 10
436.394083
 20
-17.945417
 30
0.0
  0
VERTEX
  8
1
  6
CONTINUOUS
 62
     7
  5
87
 10
434.394083
 20
-14.481333
 30
0.0
  0
SEQEND
  8
1
  6
CONTINUOUS
 62
     7
  5
88
  0
POLYLINE
  8
1
  6
CONTINUOUS
 62
     7
  5
89
 66
     1
 10
0.0
 20
0.0
 30
0.0
  0
VERTEX
  8
1
  6
CONTINUOUS
 62
     7
  5
8A
 10
434.432
 20
-19.058583
 30
0.0
  0
VERTEX
  8
1
  6
CONTINUOUS
 62
     7
  5
8B
 10
432.432
 20
-22.522667
 30
0.0
  0
VERTEX
  8
1
  6
CONTINUOUS
 62
     7
  5
8C
 10
436.432
 20
-22.522667
 30
0.0
  0
VERTEX
  8
1
  6
CONTINUOUS
 62
     7
  5
8D
 10
434.432
 20
-19.058583
 30
0.0
  0
SEQEND
  8
1
  6
CONTINUOUS
 62
     7
  5
8E
  0
POLYLINE
  8
1
  6
CONTINUOUS
 62
     7
  5
8F
 66
     1
 10
0.0
 20
0.0
 30
0.0
  0
VERTEX
  8
1
  6
CONTINUOUS
 62
     7
  5
90
 10
432.35825
 20
55.671
 30
0.0
  0
VERTEX
  8
1
  6
CONTINUOUS
 62
     7
  5
91
 10
430.35825
 20
52.206917
 30
0.0
  0
VERTEX
  8
1
  6
CONTINUOUS
 62
     7
  5
92
 10
434.35825
 20
52.206917
 30
0.0
  0
VERTEX
  8
1
  6
CONTINUOUS
 62
     7
  5
93
 10
432.35825
 20
55.671
 30
0.0
  0
SEQEND
  8
1
  6
CONTINUOUS
 62
     7
  5
94
  0
POLYLINE
  8
1
  6
CONTINUOUS
 62
     7
  5
95
 66
     1
 10
0.0
 20
0.0
 30
0.0
  0
VERTEX
  8
1
  6
CONTINUOUS
 62
     7
  5
96
 10
432.301583
 20
60.0385
 30
0.0
  0
VERTEX
  8
1
  6
CONTINUOUS
 62
     7
  5
97
 10
430.301583
 20
56.574417
 30
0.0
  0
VERTEX
  8
1
  6
CONTINUOUS
 62
     7
  5
98
 10
434.301583
 20
56.574417
 30
0.0
  0
VERTEX
  8
1
  6
CONTINUOUS
 62
     7
  5
99
 10
432.301583
 20
60.0385
 30
0.0
  0
SEQEND
  8
1
  6
CONTINUOUS
 62
     7
  5
9A
  0
TEXT
  8
1
  6
CONTINUOUS
 62
     7
  5
9B
 10
434.060333
 20
-17.533583
 30
0.0
 40
2.0
  1
1
  7
MONOTXT
210
0.0
220
0.0
230
1.0
  0
TEXT
  8
1
  6
CONTINUOUS
 62
     7
  5
9C
 10
433.7945
 20
-22.20475
 30
0.0
 40
2.0
  1
2
  7
MONOTXT
210
0.0
220
0.0
230
1.0
  0
TEXT
  8
1
  6
CONTINUOUS
 62
     7
  5
9D
 10
432.018083
 20
56.9715
 30
0.0
 40
2.0
  1
1
  7
MONOTXT
210
0.0
220
0.0
230
1.0
  0
TEXT
  8
1
  6
CONTINUOUS
 62
     7
  5
9E
 10
431.677833
 20
52.43375
 30
0.0
 40
2.0
  1
2
  7
MONOTXT
210
0.0
220
0.0
230
1.0
  0
TEXT
  8
1
  6
CONTINUOUS
 62
     7
  5
9F
 10
435.250167
 20
57.538667
 30
0.0
 40
2.0
  1
ADDED 100W AND 175W LAMPS
  7
MONOTXT
210
0.0
220
0.0
230
1.0
  0
TEXT
  8
1
  6
CONTINUOUS
 62
     7
  5
A0
 10
435.250167
 20
53.001
 30
0.0
 40
2.0
  1
SPELLING OF BALLASTS
  7
MONOTXT
210
0.0
220
0.0
230
1.0
  0
LINE
  8
1
  6
CONTINUOUS
 62
     7
  5
A1
 10
387.586417
 20
331.87875
 30
0.0
 11
421.120667
 21
331.87875
 31
0.0
  0
LINE
  8
1
  6
CONTINUOUS
 62
     7
  5
A2
 10
387.586417
 20
322.863333
 30
0.0
 11
424.831333
 21
322.863333
 31
0.0
  0
LINE
  8
1
  6
CONTINUOUS
 62
     7
  5
A3
 10
387.868
 20
282.5755
 30
0.0
 11
401.68
 21
282.5755
 31
0.0
  0
LINE
  8
1
  6
CONTINUOUS
 62
     7
  5
A4
 10
387.868
 20
255.810833
 30
0.0
 11
416.926333
 21
255.810833
 31
0.0
  0
LINE
  8
1
  6
CONTINUOUS
 62
     7
  5
A5
 10
387.304667
 20
192.70275
 30
0.0
 11
423.130083
 21
192.70275
 31
0.0
  0
LINE
  8
1
  6
CONTINUOUS
 62
     1
  5
A6
 10
5.051833
 20
334.269833
 30
0.0
 11
61.051833
 21
334.269833
 31
0.0
  0
LINE
  8
1
  6
CONTINUOUS
 62
     1
  5
A7
 10
66.051833
 20
329.269833
 30
0.0
 11
66.051833
 21
273.269833
 31
0.0
  0
LINE
  8
1
  6
CONTINUOUS
 62
     1
  5
A8
 10
61.051833
 20
268.269833
 30
0.0
 11
5.051833
 21
268.269833
 31
0.0
  0
LINE
  8
1
  6
CONTINUOUS
 62
     1
  5
A9
 10
0.051833
 20
273.269833
 30
0.0
 11
0.051833
 21
329.269833
 31
0.0
  0
ARC
  8
1
  6
CONTINUOUS
 62
     1
  5
AA
 10
5.051833
 20
329.269833
 30
0.0
 40
5.0
 50
90.0
 51
180.0
210
0.0
220
0.0
230
1.0
  0
ARC
  8
1
  6
CONTINUOUS
 62
     1
  5
AB
 10
61.051833
 20
329.269833
 30
0.0
 40
5.0
 50
0.0
 51
90.0
210
0.0
220
0.0
230
1.0
  0
ARC
  8
1
  6
CONTINUOUS
 62
     1
  5
AC
 10
61.051833
 20
273.269833
 30
0.0
 40
5.0
 50
270.0
 51
0.0
210
0.0
220
0.0
230
1.0
  0
ARC
  8
1
  6
CONTINUOUS
 62
     1
  5
AD
 10
5.051833
 20
273.269833
 30
0.0
 40
5.0
 50
180.0
 51
270.0
210
0.0
220
0.0
230
1.0
  0
CIRCLE
  8
1
  6
CONTINUOUS
 62
     1
  5
AE
 10
19.051833
 20
324.269833
 30
0.0
 40
0.75
210
0.0
220
0.0
230
1.0
  0
CIRCLE
  8
1
  6
CONTINUOUS
 62
     1
  5
AF
 10
47.051833
 20
324.269833
 30
0.0
 40
0.75
210
0.0
220
0.0
230
1.0
  0
CIRCLE
  8
1
  6
CONTINUOUS
 62
     1
  5
B0
 10
33.051833
 20
278.269833
 30
0.0
 40
0.75
210
0.0
220
0.0
230
1.0
  0
CIRCLE
  8
1
  6
CONTINUOUS
 62
     1
  5
B1
 10
19.051833
 20
278.269833
 30
0.0
 40
0.75
210
0.0
220
0.0
230
1.0
  0
CIRCLE
  8
1
  6
CONTINUOUS
 62
     1
  5
B2
 10
47.051833
 20
278.269833
 30
0.0
 40
0.75
210
0.0
220
0.0
230
1.0
  0
LINE
  8
1
  6
CONTINUOUS
 62
     7
  5
B3
 10
14.051833
 20
324.269833
 30
0.0
 11
17.801833
 21
324.269833
 31
0.0
  0
LINE
  8
1
  6
CONTINUOUS
 62
     7
  5
B4
 10
18.801833
 20
324.269833
 30
0.0
 11
19.301833
 21
324.269833
 31
0.0
  0
LINE
  8
1
  6
CONTINUOUS
 62
     7
  5
B5
 10
19.051833
 20
325.519833
 30
0.0
 11
19.051833
 21
329.269833
 31
0.0
  0
LINE
  8
1
  6
CONTINUOUS
 62
     7
  5
B6
 10
19.051833
 20
324.019833
 30
0.0
 11
19.051833
 21
324.519833
 31
0.0
  0
LINE
  8
1
  6
CONTINUOUS
 62
     7
  5
B7
 10
20.301833
 20
324.269833
 30
0.0
 11
45.801833
 21
324.269833
 31
0.0
  0
LINE
  8
1
  6
CONTINUOUS
 62
     7
  5
B8
 10
47.051833
 20
329.269833
 30
0.0
 11
47.051833
 21
325.519833
 31
0.0
  0
LINE
  8
1
  6
CONTINUOUS
 62
     7
  5
B9
 10
46.801833
 20
324.269833
 30
0.0
 11
47.301833
 21
324.269833
 31
0.0
  0
LINE
  8
1
  6
CONTINUOUS
 62
     7
  5
BA
 10
48.301833
 20
324.269833
 30
0.0
 11
72.551833
 21
324.269833
 31
0.0
  0
LINE
  8
1
  6
CONTINUOUS
 62
     7
  5
BB
 10
47.051833
 20
324.519833
 30
0.0
 11
47.051833
 21
324.019833
 31
0.0
  0
LINE
  8
1
  6
CONTINUOUS
 62
     7
  5
BC
 10
17.801833
 20
278.269833
 30
0.0
 11
14.051833
 21
278.269833
 31
0.0
  0
LINE
  8
1
  6
CONTINUOUS
 62
     7
  5
BD
 10
19.051833
 20
279.519833
 30
0.0
 11
19.051833
 21
323.019833
 31
0.0
  0
LINE
  8
1
  6
CONTINUOUS
 62
     7
  5
BE
 10
19.301833
 20
278.269833
 30
0.0
 11
18.801833
 21
278.269833
 31
0.0
  0
LINE
  8
1
  6
CONTINUOUS
 62
     7
  5
BF
 10
19.051833
 20
261.769833
 30
0.0
 11
19.051833
 21
277.019833
 31
0.0
  0
LINE
  8
1
  6
CONTINUOUS
 62
     7
  5
C0
 10
19.051833
 20
278.019833
 30
0.0
 11
19.051833
 21
278.519833
 31
0.0
  0
LINE
  8
1
  6
CONTINUOUS
 62
     7
  5
C1
 10
31.801833
 20
278.269833
 30
0.0
 11
20.301833
 21
278.269833
 31
0.0
  0
LINE
  8
1
  6
CONTINUOUS
 62
     7
  5
C2
 10
33.051833
 20
282.019833
 30
0.0
 11
33.051833
 21
279.519833
 31
0.0
  0
LINE
  8
1
  6
CONTINUOUS
 62
     7
  5
C3
 10
33.301833
 20
278.269833
 30
0.0
 11
32.801833
 21
278.269833
 31
0.0
  0
LINE
  8
1
  6
CONTINUOUS
 62
     7
  5
C4
 10
33.051833
 20
278.519833
 30
0.0
 11
33.051833
 21
278.019833
 31
0.0
  0
LINE
  8
1
  6
CONTINUOUS
 62
     7
  5
C5
 10
33.051833
 20
277.019833
 30
0.0
 11
33.051833
 21
274.519833
 31
0.0
  0
LINE
  8
1
  6
CONTINUOUS
 62
     7
  5
C6
 10
45.801833
 20
278.269833
 30
0.0
 11
34.301833
 21
278.269833
 31
0.0
  0
LINE
  8
1
  6
CONTINUOUS
 62
     7
  5
C7
 10
47.051833
 20
323.019833
 30
0.0
 11
47.051833
 21
279.519833
 31
0.0
  0
LINE
  8
1
  6
CONTINUOUS
 62
     7
  5
C8
 10
72.551833
 20
278.269833
 30
0.0
 11
48.301833
 21
278.269833
 31
0.0
  0
LINE
  8
1
  6
CONTINUOUS
 62
     7
  5
C9
 10
47.301833
 20
278.269833
 30
0.0
 11
46.801833
 21
278.269833
 31
0.0
  0
LINE
  8
1
  6
CONTINUOUS
 62
     7
  5
CA
 10
47.051833
 20
278.519833
 30
0.0
 11
47.051833
 21
278.019833
 31
0.0
  0
LINE
  8
1
  6
CONTINUOUS
 62
     7
  5
CB
 10
47.051833
 20
277.019833
 30
0.0
 11
47.051833
 21
261.769833
 31
0.0
  0
LINE
  8
1
  6
CONTINUOUS
 62
     7
  5
CC
 10
65.551833
 20
334.269833
 30
0.0
 11
77.051833
 21
334.269833
 31
0.0
  0
LINE
  8
1
  6
CONTINUOUS
 62
     7
  5
CD
 10
65.551833
 20
268.269833
 30
0.0
 11
77.051833
 21
268.269833
 31
0.0
  0
LINE
  8
1
  6
CONTINUOUS
 62
     7
  5
CE
 10
66.051833
 20
268.769833
 30
0.0
 11
66.051833
 21
261.769833
 31
0.0
  0
LINE
  8
1
  6
CONTINUOUS
 62
     7
  5
CF
 10
0.051833
 20
268.769833
 30
0.0
 11
0.051833
 21
261.769833
 31
0.0
  0
LINE
  8
1
  6
CONTINUOUS
 62
     7
  5
D0
 10
76.051833
 20
334.269833
 30
0.0
 11
76.051833
 21
268.269833
 31
0.0
  0
LINE
  8
1
  6
CONTINUOUS
 62
     7
  5
D1
 10
71.551833
 20
324.269833
 30
0.0
 11
71.551833
 21
278.269833
 31
0.0
  0
LINE
  8
1
  6
CONTINUOUS
 62
     7
  5
D2
 10
19.051833
 20
262.769833
 30
0.0
 11
47.051833
 21
262.769833
 31
0.0
  0
LINE
  8
1
  6
CONTINUOUS
 62
     7
  5
D3
 10
47.051833
 20
262.769833
 30
0.0
 11
66.051833
 21
262.769833
 31
0.0
  0
LINE
  8
1
  6
CONTINUOUS
 62
     7
  5
D4
 10
19.051833
 20
262.769833
 30
0.0
 11
0.051833
 21
262.769833
 31
0.0
  0
LINE
  8
1
  6
CONTINUOUS
 62
     7
  5
D5
 10
71.551833
 20
324.269833
 30
0.0
 11
71.551833
 21
334.269833
 31
0.0
  0
LINE
  8
1
  6
CONTINUOUS
 62
     7
  5
D6
 10
71.551833
 20
278.269833
 30
0.0
 11
71.551833
 21
268.269833
 31
0.0
  0
INSERT
  8
1
  6
CONTINUOUS
 62
     1
  5
F7
  2
LDR
 10
71.551833
 20
334.269833
 30
0.0
 41
240.0
 42
240.0
 50
90.0
210
0.0
220
0.0
230
1.0
  0
INSERT
  8
1
  6
CONTINUOUS
 62
     1
  5
F8
  2
LDR
 10
71.551833
 20
334.269833
 30
0.0
 41
240.0
 42
240.0
 50
90.0
210
0.0
220
0.0
230
1.0
  0
INSERT
  8
1
  6
CONTINUOUS
 62
     1
  5
F9
  2
LDR
 10
76.051833
 20
334.269833
 30
0.0
 41
240.0
 42
240.0
 50
90.0
210
0.0
220
0.0
230
1.0
  0
INSERT
  8
1
  6
CONTINUOUS
 62
     1
  5
FA
  2
LDR
 10
76.051833
 20
334.269833
 30
0.0
 41
240.0
 42
240.0
 50
90.0
210
0.0
220
0.0
230
1.0
  0
INSERT
  8
1
  6
CONTINUOUS
 62
     1
  5
FB
  2
LDR
 10
71.551833
 20
324.269833
 30
0.0
 41
240.0
 42
240.0
 50
270.0
210
0.0
220
0.0
230
1.0
  0
INSERT
  8
1
  6
CONTINUOUS
 62
     1
  5
FC
  2
LDR
 10
71.551833
 20
324.269833
 30
0.0
 41
240.0
 42
240.0
 50
270.0
210
0.0
220
0.0
230
1.0
  0
INSERT
  8
1
  6
CONTINUOUS
 62
     1
  5
FD
  2
LDR
 10
71.551833
 20
324.269833
 30
0.0
 41
240.0
 42
240.0
 50
90.0
210
0.0
220
0.0
230
1.0
  0
INSERT
  8
1
  6
CONTINUOUS
 62
     1
  5
FE
  2
LDR
 10
71.551833
 20
324.269833
 30
0.0
 41
240.0
 42
240.0
 50
90.0
210
0.0
220
0.0
230
1.0
  0
INSERT
  8
1
  6
CONTINUOUS
 62
     1
  5
FF
  2
LDR
 10
71.551833
 20
278.269833
 30
0.0
 41
240.0
 42
240.0
 50
270.0
210
0.0
220
0.0
230
1.0
  0
INSERT
  8
1
  6
CONTINUOUS
 62
     1
  5
100
  2
LDR
 10
71.551833
 20
278.269833
 30
0.0
 41
240.0
 42
240.0
 50
270.0
210
0.0
220
0.0
230
1.0
  0
INSERT
  8
1
  6
CONTINUOUS
 62
     1
  5
101
  2
LDR
 10
71.551833
 20
278.269833
 30
0.0
 41
240.0
 42
240.0
 50
90.0
210
0.0
220
0.0
230
1.0
  0
INSERT
  8
1
  6
CONTINUOUS
 62
     1
  5
102
  2
LDR
 10
71.551833
 20
278.269833
 30
0.0
 41
240.0
 42
240.0
 50
90.0
210
0.0
220
0.0
230
1.0
  0
INSERT
  8
1
  6
CONTINUOUS
 62
     1
  5
103
  2
LDR
 10
71.551833
 20
268.269833
 30
0.0
 41
240.0
 42
240.0
 50
270.0
210
0.0
220
0.0
230
1.0
  0
INSERT
  8
1
  6
CONTINUOUS
 62
     1
  5
104
  2
LDR
 10
71.551833
 20
268.269833
 30
0.0
 41
240.0
 42
240.0
 50
270.0
210
0.0
220
0.0
230
1.0
  0
INSERT
  8
1
  6
CONTINUOUS
 62
     1
  5
105
  2
LDR
 10
76.051833
 20
268.269833
 30
0.0
 41
240.0
 42
240.0
 50
270.0
210
0.0
220
0.0
230
1.0
  0
INSERT
  8
1
  6
CONTINUOUS
 62
     1
  5
106
  2
LDR
 10
76.051833
 20
268.269833
 30
0.0
 41
240.0
 42
240.0
 50
270.0
210
0.0
220
0.0
230
1.0
  0
INSERT
  8
1
  6
CONTINUOUS
 62
     1
  5
107
  2
LDR
 10
66.051833
 20
262.769833
 30
0.0
 41
240.0
 42
240.0
210
0.0
220
0.0
230
1.0
  0
INSERT
  8
1
  6
CONTINUOUS
 62
     1
  5
108
  2
LDR
 10
66.051833
 20
262.769833
 30
0.0
 41
240.0
 42
240.0
210
0.0
220
0.0
230
1.0
  0
INSERT
  8
1
  6
CONTINUOUS
 62
     1
  5
109
  2
LDR
 10
47.051833
 20
262.769833
 30
0.0
 41
240.0
 42
240.0
 50
180.0
210
0.0
220
0.0
230
1.0
  0
INSERT
  8
1
  6
CONTINUOUS
 62
     1
  5
10A
  2
LDR
 10
47.051833
 20
262.769833
 30
0.0
 41
240.0
 42
240.0
 50
180.0
210
0.0
220
0.0
230
1.0
  0
INSERT
  8
1
  6
CONTINUOUS
 62
     1
  5
10B
  2
LDR
 10
47.051833
 20
262.769833
 30
0.0
 41
240.0
 42
240.0
210
0.0
220
0.0
230
1.0
  0
INSERT
  8
1
  6
CONTINUOUS
 62
     1
  5
10C
  2
LDR
 10
47.051833
 20
262.769833
 30
0.0
 41
240.0
 42
240.0
210
0.0
220
0.0
230
1.0
  0
INSERT
  8
1
  6
CONTINUOUS
 62
     1
  5
10D
  2
LDR
 10
19.051833
 20
262.769833
 30
0.0
 41
240.0
 42
240.0
 50
180.0
210
0.0
220
0.0
230
1.0
  0
INSERT
  8
1
  6
CONTINUOUS
 62
     1
  5
10E
  2
LDR
 10
19.051833
 20
262.769833
 30
0.0
 41
240.0
 42
240.0
 50
180.0
210
0.0
220
0.0
230
1.0
  0
INSERT
  8
1
  6
CONTINUOUS
 62
     1
  5
10F
  2
LDR
 10
19.051833
 20
262.769833
 30
0.0
 41
240.0
 42
240.0
210
0.0
220
0.0
230
1.0
  0
INSERT
  8
1
  6
CONTINUOUS
 62
     1
  5
110
  2
LDR
 10
19.051833
 20
262.769833
 30
0.0
 41
240.0
 42
240.0
210
0.0
220
0.0
230
1.0
  0
INSERT
  8
1
  6
CONTINUOUS
 62
     1
  5
111
  2
LDR
 10
0.051833
 20
262.769833
 30
0.0
 41
240.0
 42
240.0
 50
180.0
210
0.0
220
0.0
230
1.0
  0
LINE
  8
1
  6
CONTINUOUS
 62
     7
  5
112
 10
19.582167
 20
324.800167
 30
0.0
 11
29.235083
 21
344.332083
 31
0.0
  0
LINE
  8
1
  6
CONTINUOUS
 62
     7
  5
113
 10
29.235083
 20
344.332083
 30
0.0
 11
34.543833
 21
344.332083
 31
0.0
  0
INSERT
  8
1
  6
CONTINUOUS
 62
     1
  5
114
  2
LDR
 10
19.582167
 20
324.800167
 30
0.0
 41
240.000002
 42
240.000002
 50
243.700844
210
0.0
220
0.0
230
1.0
  0
TEXT
  8
1
  6
CONTINUOUS
 62
     7
  5
115
 10
35.3145
 20
343.218583
 30
0.0
 40
2.5
  1
 5/16 " 0 HOLES
  7
MONOTXT
210
0.0
220
0.0
230
1.0
  0
TEXT
  8
1
  6
CONTINUOUS
 62
     7
  5
116
 10
44.39075
 20
343.218583
 30
0.0
 40
2.5
  1
/
  7
MONOTXT
210
0.0
220
0.0
230
1.0
  0
TEXT
  8
1
  6
CONTINUOUS
 62
     7
  5
117
 10
75.0445
 20
296.366583
 30
0.0
 40
2.5
  1
4-1/2"
 50
90.0
  7
MONOTXT
210
0.0
220
0.0
230
1.0
  0
TEXT
  8
1
  6
CONTINUOUS
 62
     7
  5
118
 10
80.01075
 20
299.964
 30
0.0
 40
2.5
  1
7"
 50
90.0
  7
MONOTXT
210
0.0
220
0.0
230
1.0
  0
TEXT
  8
1
  6
CONTINUOUS
 62
     7
  5
119
 10
69.907
 20
325.831167
 30
0.0
 40
2.5
  1
1 1/4 "
 50
90.0
  7
MONOTXT
210
0.0
220
0.0
230
1.0
  0
TEXT
  8
1
  6
CONTINUOUS
 62
     7
  5
11A
 10
70.07825
 20
269.81425
 30
0.0
 40
2.5
  1
1 1/4 "
 50
90.0
  7
MONOTXT
210
0.0
220
0.0
230
1.0
  0
TEXT
  8
1
  6
CONTINUOUS
 62
     7
  5
11B
 10
6.886917
 20
258.679333
 30
0.0
 40
2.5
  1
1 1/4 "
  7
MONOTXT
210
0.0
220
0.0
230
1.0
  0
TEXT
  8
1
  6
CONTINUOUS
 62
     7
  5
11C
 10
53.8095
 20
258.508083
 30
0.0
 40
2.5
  1
1 1/4 "
  7
MONOTXT
210
0.0
220
0.0
230
1.0
  0
TEXT
  8
1
  6
CONTINUOUS
 62
     7
  5
11D
 10
29.491917
 20
258.679333
 30
0.0
 40
2.5
  1
4 1/2 "
  7
MONOTXT
210
0.0
220
0.0
230
1.0
  0
TEXT
  8
1
  6
CONTINUOUS
 62
     7
  5
11E
 10
-2.53175
 20
245.488917
 30
0.0
 40
4.0
  1
LUMINAIRE MOUNTING PLATE
  7
MONOTXT
210
0.0
220
0.0
230
1.0
  0
LINE
  8
1
  6
CONTINUOUS
 62
     7
  5
11F
 10
-4.92925
 20
243.43325
 30
0.0
 11
85.863833
 21
243.43325
 31
0.0
  0
LINE
  8
1
  6
CONTINUOUS
 62
   132
  5
120
 10
146.291583
 20
62.41875
 30
0.0
 11
223.291583
 21
62.41875
 31
0.0
  0
LINE
  8
1
  6
CONTINUOUS
 62
   132
  5
121
 10
223.291583
 20
62.41875
 30
0.0
 11
223.291583
 21
-15.58125
 31
0.0
  0
LINE
  8
1
  6
CONTINUOUS
 62
   132
  5
122
 10
146.291583
 20
-15.58125
 30
0.0
 11
146.291583
 21
62.41875
 31
0.0
  0
LINE
  8
1
  6
CONTINUOUS
 62
   132
  5
123
 10
146.291583
 20
52.41875
 30
0.0
 11
223.291583
 21
52.41875
 31
0.0
  0
LINE
  8
1
  6
CONTINUOUS
 62
   132
  5
124
 10
149.791583
 20
48.91875
 30
0.0
 11
219.791583
 21
48.91875
 31
0.0
  0
LINE
  8
1
  6
CONTINUOUS
 62
   132
  5
125
 10
149.791583
 20
-10.58125
 30
0.0
 11
149.791583
 21
48.91875
 31
0.0
  0
LINE
  8
1
  6
CONTINUOUS
 62
   132
  5
126
 10
219.791583
 20
-10.58125
 30
0.0
 11
149.791583
 21
-10.58125
 31
0.0
  0
LINE
  8
1
  6
CONTINUOUS
 62
   132
  5
127
 10
219.791583
 20
48.91875
 30
0.0
 11
219.791583
 21
-10.58125
 31
0.0
  0
LINE
  8
1
  6
CONTINUOUS
 62
   132
  5
128
 10
160.791583
 20
-2.58125
 30
0.0
 11
160.791583
 21
36.91875
 31
0.0
  0
LINE
  8
1
  6
CONTINUOUS
 62
   132
  5
129
 10
208.791583
 20
36.91875
 30
0.0
 11
208.791583
 21
-2.58125
 31
0.0
  0
LINE
  8
1
  6
CONTINUOUS
 62
   132
  5
12A
 10
160.791583
 20
36.91875
 30
0.0
 11
208.791583
 21
36.91875
 31
0.0
  0
LINE
  8
1
  6
CONTINUOUS
 62
   132
  5
12B
 10
208.791583
 20
-2.58125
 30
0.0
 11
160.791583
 21
-2.58125
 31
0.0
  0
LINE
  8
1
  6
CONTINUOUS
 62
   132
  5
12C
 10
160.791583
 20
36.91875
 30
0.0
 11
149.791583
 21
48.91875
 31
0.0
  0
LINE
  8
1
  6
CONTINUOUS
 62
   132
  5
12D
 10
208.791583
 20
36.91875
 30
0.0
 11
219.791583
 21
48.91875
 31
0.0
  0
LINE
  8
1
  6
CONTINUOUS
 62
   132
  5
12E
 10
208.791583
 20
-2.58125
 30
0.0
 11
219.791583
 21
-10.58125
 31
0.0
  0
LINE
  8
1
  6
CONTINUOUS
 62
   132
  5
12F
 10
160.791583
 20
-2.58125
 30
0.0
 11
149.791583
 21
-10.58125
 31
0.0
  0
LINE
  8
1
  6
CONTINUOUS
 62
   132
  5
130
 10
183.791583
 20
62.91875
 30
0.0
 11
185.791583
 21
62.91875
 31
0.0
  0
LINE
  8
1
  6
CONTINUOUS
 62
   132
  5
131
 10
183.791583
 20
62.91875
 30
0.0
 11
183.791583
 21
60.91875
 31
0.0
  0
LINE
  8
1
  6
CONTINUOUS
 62
   132
  5
132
 10
185.791583
 20
62.91875
 30
0.0
 11
185.791583
 21
60.91875
 31
0.0
  0
ARC
  8
1
  6
CONTINUOUS
 62
   132
  5
133
 10
184.791583
 20
60.934985
 30
0.0
 40
1.000132
 50
180.930106
 51
359.069894
210
0.0
220
0.0
230
1.0
  0
LINE
  8
1
  6
CONTINUOUS
 62
   132
  5
134
 10
184.791583
 20
-13.58125
 30
0.0
 11
184.791583
 21
-16.08125
 31
0.0
  0
LINE
  8
1
  6
CONTINUOUS
 62
   132
  5
135
 10
186.791583
 20
-13.58125
 30
0.0
 11
186.791583
 21
-16.08125
 31
0.0
  0
LINE
  8
1
  6
CONTINUOUS
 62
   132
  5
136
 10
184.791583
 20
-13.58125
 30
0.0
 11
186.791583
 21
-13.58125
 31
0.0
  0
LINE
  8
1
  6
CONTINUOUS
 62
   132
  5
137
 10
184.791583
 20
-16.08125
 30
0.0
 11
186.791583
 21
-16.08125
 31
0.0
  0
LINE
  8
1
  6
CONTINUOUS
 62
   132
  5
138
 10
184.791583
 20
-14.83125
 30
0.0
 11
186.791583
 21
-14.83125
 31
0.0
  0
LINE
  8
1
  6
CONTINUOUS
 62
   132
  5
139
 10
184.791583
 20
-14.08125
 30
0.0
 11
146.291583
 21
-14.08125
 31
0.0
  0
LINE
  8
1
  6
CONTINUOUS
 62
   132
  5
13A
 10
223.291583
 20
-14.08125
 30
0.0
 11
186.791583
 21
-14.08125
 31
0.0
  0
LINE
  8
1
  6
CONTINUOUS
 62
   132
  5
13B
 10
186.791583
 20
-14.227833
 30
0.0
 11
184.791583
 21
-14.227833
 31
0.0
  0
LINE
  8
1
  6
CONTINUOUS
 62
   132
  5
13C
 10
184.791583
 20
-15.58125
 30
0.0
 11
146.291583
 21
-15.58125
 31
0.0
  0
LINE
  8
1
  6
CONTINUOUS
 62
   132
  5
13D
 10
223.291583
 20
-15.58125
 30
0.0
 11
186.791583
 21
-15.58125
 31
0.0
  0
LINE
  8
1
  6
CONTINUOUS
 62
   132
  5
13E
 10
186.791583
 20
-15.45375
 30
0.0
 11
184.791583
 21
-15.45375
 31
0.0
  0
LINE
  8
1
  6
CONTINUOUS
 62
   132
  5
13F
 10
137.291583
 20
31.41875
 30
0.0
 11
137.291583
 21
34.16875
 31
0.0
  0
LINE
  8
1
  6
CONTINUOUS
 62
   132
  5
140
 10
137.291583
 20
36.16875
 30
0.0
 11
137.291583
 21
38.91875
 31
0.0
  0
LINE
  8
1
  6
CONTINUOUS
 62
   132
  5
141
 10
137.291583
 20
36.16875
 30
0.0
 11
136.291583
 21
35.16875
 31
0.0
  0
LINE
  8
1
  6
CONTINUOUS
 62
   132
  5
142
 10
136.291583
 20
35.16875
 30
0.0
 11
137.291583
 21
34.16875
 31
0.0
  0
LINE
  8
1
  6
DASHED
 62
   132
  5
143
 10
146.291583
 20
36.91875
 30
0.0
 11
137.291583
 21
36.91875
 31
0.0
  0
LINE
  8
1
  6
DASHED
 62
   132
  5
144
 10
146.291583
 20
33.41875
 30
0.0
 11
137.291583
 21
33.41875
 31
0.0
  0
TEXT
  8
1
  6
CONTINUOUS
 62
     7
  5
145
 10
174.24325
 20
-31.242083
 30
0.0
 40
4.0
  1
TOP VIEW
  7
MONOTXT
210
0.0
220
0.0
230
1.0
  0
LINE
  8
1
  6
CONTINUOUS
 62
     7
  5
146
 10
173.475
 20
-32.238083
 30
0.0
 11
204.966417
 21
-32.238083
 31
0.0
  0
LINE
  8
1
  6
CONTINUOUS
 62
    32
  5
147
 10
294.771917
 20
14.854583
 30
0.0
 11
341.771917
 21
14.854583
 31
0.0
  0
LINE
  8
1
  6
CONTINUOUS
 62
    32
  5
148
 10
342.271917
 20
14.104583
 30
0.0
 11
356.55025
 21
42.7425
 31
0.0
  0
LINE
  8
1
  6
CONTINUOUS
 62
    32
  5
149
 10
341.771917
 20
14.854583
 30
0.0
 11
355.487083
 21
42.363083
 31
0.0
  0
LINE
  8
1
  6
CONTINUOUS
 62
    32
  5
14A
 10
356.55025
 20
42.7425
 30
0.0
 11
338.006583
 21
50.234667
 31
0.0
  0
LINE
  8
1
  6
CONTINUOUS
 62
    32
  5
14B
 10
355.487083
 20
42.363083
 30
0.0
 11
338.0065
 21
49.42575
 31
0.0
  0
LINE
  8
1
  6
CONTINUOUS
 62
    32
  5
14C
 10
338.006583
 20
50.234667
 30
0.0
 11
331.516333
 21
47.612417
 31
0.0
  0
LINE
  8
1
  6
CONTINUOUS
 62
    32
  5
14D
 10
338.0065
 20
49.42575
 30
0.0
 11
331.79725
 21
46.917
 31
0.0
  0
LINE
  8
1
  6
CONTINUOUS
 62
    32
  5
14E
 10
281.448417
 20
27.383667
 30
0.0
 11
276.8125
 21
25.510667
 31
0.0
  0
LINE
  8
1
  6
CONTINUOUS
 62
    32
  5
14F
 10
281.729333
 20
26.68825
 30
0.0
 11
277.353417
 21
24.920333
 31
0.0
  0
LINE
  8
1
  6
CONTINUOUS
 62
    32
  5
150
 10
276.8125
 20
25.510667
 30
0.0
 11
274.134333
 21
20.254583
 31
0.0
  0
LINE
  8
1
  6
CONTINUOUS
 62
    32
  5
151
 10
277.353417
 20
24.920333
 30
0.0
 11
275.210833
 21
20.715167
 31
0.0
  0
LINE
  8
1
  6
CONTINUOUS
 62
    32
  5
152
 10
275.210833
 20
20.715167
 30
0.0
 11
294.771917
 21
14.854583
 31
0.0
  0
LINE
  8
1
  6
CONTINUOUS
 62
    32
  5
153
 10
274.134333
 20
20.254583
 30
0.0
 11
294.66175
 21
14.104583
 31
0.0
  0
LINE
  8
1
  6
CONTINUOUS
 62
    32
  5
154
 10
331.516333
 20
47.612417
 30
0.0
 11
331.79725
 21
46.917
 31
0.0
  0
LINE
  8
1
  6
CONTINUOUS
 62
    32
  5
155
 10
281.448417
 20
27.383667
 30
0.0
 11
281.729333
 21
26.68825
 31
0.0
  0
LINE
  8
1
  6
CONTINUOUS
 62
    32
  5
156
 10
282.269333
 20
26.0975
 30
0.0
 11
279.488667
 21
24.974083
 31
0.0
  0
LINE
  8
1
  6
CONTINUOUS
 62
    32
  5
157
 10
335.04225
 20
47.419167
 30
0.0
 11
331.81925
 21
46.117
 31
0.0
  0
LINE
  8
1
  6
CONTINUOUS
 62
    32
  5
158
 10
279.20775
 20
25.6695
 30
0.0
 11
279.488667
 21
24.974083
 31
0.0
  0
LINE
  8
1
  6
CONTINUOUS
 62
    32
  5
159
 10
334.761333
 20
48.114583
 30
0.0
 11
335.04225
 21
47.419167
 31
0.0
  0
ARC
  8
1
  6
CONTINUOUS
 62
    32
  5
15A
 10
336.818171
 20
-37.585693
 30
0.0
 40
85.362916
 50
93.560897
 51
130.4391
210
0.0
220
0.0
230
1.0
  0
ARC
  8
1
  6
CONTINUOUS
 62
    32
  5
15B
 10
337.390807
 20
-39.003015
 30
0.0
 40
85.302142
 50
93.744961
 51
130.255042
210
0.0
220
0.0
230
1.0
  0
LINE
  8
1
  6
CONTINUOUS
 62
    32
  5
15C
 10
278.445083
 20
18.963083
 30
0.0
 11
271.750917
 21
16.9165
 31
0.0
  0
LINE
  8
1
  6
CONTINUOUS
 62
    32
  5
15D
 10
271.750917
 20
16.9165
 30
0.0
 11
271.507167
 21
18.901583
 31
0.0
  0
ARC
  8
1
  6
CONTINUOUS
 62
    32
  5
15E
 10
270.868152
 20
23.369512
 30
0.0
 40
4.513394
 50
278.139406
 51
316.357847
210
0.0
220
0.0
230
1.0
  0
LINE
  8
1
  6
CONTINUOUS
 62
    32
  5
15F
 10
344.949083
 20
19.474167
 30
0.0
 11
354.949083
 21
19.474167
 31
0.0
  0
LINE
  8
1
  6
CONTINUOUS
 62
    32
  5
160
 10
354.949083
 20
19.474167
 30
0.0
 11
354.949083
 21
39.531083
 31
0.0
  0
LINE
  8
1
  6
CONTINUOUS
 62
    32
  5
161
 10
355.949083
 20
18.474167
 30
0.0
 11
355.949083
 21
41.53675
 31
0.0
  0
LINE
  8
1
  6
CONTINUOUS
 62
    32
  5
162
 10
344.4505
 20
18.474167
 30
0.0
 11
355.949083
 21
18.474167
 31
0.0
  0
LINE
  8
1
  6
CONTINUOUS
 62
    32
  5
163
 10
334.021917
 20
14.854583
 30
0.0
 11
334.021917
 21
23.354583
 31
0.0
  0
LINE
  8
1
  6
CONTINUOUS
 62
    32
  5
164
 10
334.021917
 20
23.354583
 30
0.0
 11
346.009833
 21
23.354583
 31
0.0
  0
CIRCLE
  8
1
  6
CONTINUOUS
 62
    32
  5
165
 10
338.521917
 20
19.104583
 30
0.0
 40
2.0
210
0.0
220
0.0
230
1.0
  0
LINE
  8
1
  6
CONTINUOUS
 62
     7
  5
166
 10
333.021917
 20
19.104583
 30
0.0
 11
337.021917
 21
19.104583
 31
0.0
  0
LINE
  8
1
  6
CONTINUOUS
 62
     7
  5
167
 10
338.521917
 20
20.604583
 30
0.0
 11
338.521917
 21
24.354583
 31
0.0
  0
LINE
  8
1
  6
CONTINUOUS
 62
     7
  5
168
 10
337.521917
 20
19.104583
 30
0.0
 11
339.521917
 21
19.104583
 31
0.0
  0
LINE
  8
1
  6
CONTINUOUS
 62
     7
  5
169
 10
340.021917
 20
19.104583
 30
0.0
 11
342.71125
 21
19.104583
 31
0.0
  0
LINE
  8
1
  6
CONTINUOUS
 62
     7
  5
16A
 10
338.521917
 20
14.487417
 30
0.0
 11
338.521917
 21
17.604583
 31
0.0
  0
LINE
  8
1
  6
CONTINUOUS
 62
     7
  5
16B
 10
338.521917
 20
18.104583
 30
0.0
 11
338.521917
 21
20.104583
 31
0.0
  0
ARC
  8
1
  6
CONTINUOUS
 62
    32
  5
16C
 10
303.791862
 20
44.157281
 30
0.0
 40
28.095817
 50
220.000367
 51
3.9997
210
0.0
220
0.0
230
1.0
  0
LINE
  8
1
  6
CONTINUOUS
 62
    32
  5
16D
 10
301.16175
 20
14.104583
 30
0.0
 11
301.16175
 21
13.104583
 31
0.0
  0
LINE
  8
1
  6
CONTINUOUS
 62
    32
  5
16E
 10
304.66175
 20
14.104583
 30
0.0
 11
304.66175
 21
13.104583
 31
0.0
  0
LINE
  8
1
  6
CONTINUOUS
 62
    32
  5
16F
 10
321.66175
 20
14.104583
 30
0.0
 11
321.66175
 21
13.104583
 31
0.0
  0
LINE
  8
1
  6
CONTINUOUS
 62
    32
  5
170
 10
325.16175
 20
14.104583
 30
0.0
 11
325.16175
 21
13.104583
 31
0.0
  0
LINE
  8
1
  6
CONTINUOUS
 62
    32
  5
171
 10
301.16175
 20
13.104583
 30
0.0
 11
304.66175
 21
13.104583
 31
0.0
  0
LINE
  8
1
  6
CONTINUOUS
 62
    32
  5
172
 10
321.66175
 20
13.104583
 30
0.0
 11
325.16175
 21
13.104583
 31
0.0
  0
LINE
  8
1
  6
CONTINUOUS
 62
    32
  5
173
 10
302.41175
 20
14.104583
 30
0.0
 11
302.41175
 21
13.104583
 31
0.0
  0
LINE
  8
1
  6
CONTINUOUS
 62
    32
  5
174
 10
303.41175
 20
14.104583
 30
0.0
 11
303.41175
 21
13.104583
 31
0.0
  0
LINE
  8
1
  6
CONTINUOUS
 62
    32
  5
175
 10
322.91175
 20
14.104583
 30
0.0
 11
322.91175
 21
13.104583
 31
0.0
  0
LINE
  8
1
  6
CONTINUOUS
 62
    32
  5
176
 10
323.91175
 20
14.104583
 30
0.0
 11
323.91175
 21
13.104583
 31
0.0
  0
LINE
  8
1
  6
CONTINUOUS
 62
    32
  5
177
 10
294.66175
 20
14.104583
 30
0.0
 11
304.66175
 21
14.104583
 31
0.0
  0
LINE
  8
1
  6
CONTINUOUS
 62
    32
  5
178
 10
304.66175
 20
14.104583
 30
0.0
 11
321.66175
 21
14.104583
 31
0.0
  0
LINE
  8
1
  6
CONTINUOUS
 62
    32
  5
179
 10
321.66175
 20
14.104583
 30
0.0
 11
342.271917
 21
14.104583
 31
0.0
  0
CIRCLE
  8
1
  6
CONTINUOUS
 62
    32
  5
17A
 10
313.16175
 20
26.604583
 30
0.0
 40
7.5
210
0.0
220
0.0
230
1.0
  0
LINE
  8
1
  6
CONTINUOUS
 62
     7
  5
17B
 10
303.16175
 20
26.604583
 30
0.0
 11
311.16175
 21
26.604583
 31
0.0
  0
LINE
  8
1
  6
CONTINUOUS
 62
     7
  5
17C
 10
313.16175
 20
28.604583
 30
0.0
 11
313.16175
 21
36.03925
 31
0.0
  0
LINE
  8
1
  6
CONTINUOUS
 62
     7
  5
17D
 10
312.16175
 20
26.604583
 30
0.0
 11
314.16175
 21
26.604583
 31
0.0
  0
LINE
  8
1
  6
CONTINUOUS
 62
     7
  5
17E
 10
315.16175
 20
26.604583
 30
0.0
 11
323.16175
 21
26.604583
 31
0.0
  0
LINE
  8
1
  6
CONTINUOUS
 62
     7
  5
17F
 10
313.16175
 20
17.169917
 30
0.0
 11
313.16175
 21
24.604583
 31
0.0
  0
LINE
  8
1
  6
CONTINUOUS
 62
     7
  5
180
 10
313.16175
 20
25.604583
 30
0.0
 11
313.16175
 21
27.604583
 31
0.0
  0
LINE
  8
1
  6
CONTINUOUS
 62
     7
  5
181
 10
302.91175
 20
14.604583
 30
0.0
 11
302.91175
 21
12.604583
 31
0.0
  0
LINE
  8
1
  6
CONTINUOUS
 62
     7
  5
182
 10
323.41175
 20
14.604583
 30
0.0
 11
323.41175
 21
12.604583
 31
0.0
  0
LINE
  8
1
  6
CONTINUOUS
 62
     7
  5
183
 10
302.91175
 20
15.604583
 30
0.0
 11
302.91175
 21
17.604583
 31
0.0
  0
LINE
  8
1
  6
CONTINUOUS
 62
     7
  5
184
 10
323.41175
 20
15.604583
 30
0.0
 11
323.41175
 21
17.604583
 31
0.0
  0
LINE
  8
1
  6
CONTINUOUS
 62
     7
  5
185
 10
302.91175
 20
11.604583
 30
0.0
 11
302.91175
 21
2.604583
 31
0.0
  0
LINE
  8
1
  6
CONTINUOUS
 62
     7
  5
186
 10
323.41175
 20
11.604583
 30
0.0
 11
323.41175
 21
2.604583
 31
0.0
  0
LINE
  8
1
  6
CONTINUOUS
 62
     7
  5
187
 10
302.91175
 20
3.604583
 30
0.0
 11
323.41175
 21
3.604583
 31
0.0
  0
INSERT
  8
1
  6
CONTINUOUS
 62
     1
  5
188
  2
LDR
 10
302.91175
 20
3.604583
 30
0.0
 41
240.0
 42
240.0
 50
180.0
210
0.0
220
0.0
230
1.0
  0
INSERT
  8
1
  6
CONTINUOUS
 62
     1
  5
189
  2
LDR
 10
302.91175
 20
3.604583
 30
0.0
 41
240.0
 42
240.0
 50
180.0
210
0.0
220
0.0
230
1.0
  0
INSERT
  8
1
  6
CONTINUOUS
 62
     1
  5
18A
  2
LDR
 10
323.41175
 20
3.604583
 30
0.0
 41
240.0
 42
240.0
210
0.0
220
0.0
230
1.0
  0
LINE
  8
1
  6
CONTINUOUS
 62
     7
  5
18B
 10
341.006583
 20
50.234667
 30
0.0
 11
386.006583
 21
50.234667
 31
0.0
  0
LINE
  8
1
  6
CONTINUOUS
 62
     7
  5
18C
 10
344.271917
 20
14.104583
 30
0.0
 11
386.006583
 21
14.104583
 31
0.0
  0
LINE
  8
1
  6
CONTINUOUS
 62
     7
  5
18D
 10
385.006583
 20
50.234667
 30
0.0
 11
385.006583
 21
14.104583
 31
0.0
  0
INSERT
  8
1
  6
CONTINUOUS
 62
     1
  5
18E
  2
LDR
 10
385.006583
 20
50.234667
 30
0.0
 41
240.0
 42
240.0
 50
90.0
210
0.0
220
0.0
230
1.0
  0
INSERT
  8
1
  6
CONTINUOUS
 62
     1
  5
18F
  2
LDR
 10
385.006583
 20
50.234667
 30
0.0
 41
240.0
 42
240.0
 50
90.0
210
0.0
220
0.0
230
1.0
  0
INSERT
  8
1
  6
CONTINUOUS
 62
     1
  5
190
  2
LDR
 10
385.006583
 20
14.104583
 30
0.0
 41
240.0
 42
240.0
 50
270.0
210
0.0
220
0.0
230
1.0
  0
LINE
  8
1
  6
CONTINUOUS
 62
     7
  5
191
 10
309.392167
 20
16.780083
 30
0.0
 11
289.228667
 21
37.812167
 31
0.0
  0
LINE
  8
1
  6
CONTINUOUS
 62
     7
  5
192
 10
289.228667
 20
37.812167
 30
0.0
 11
283.196833
 21
37.812167
 31
0.0
  0
INSERT
  8
1
  6
CONTINUOUS
 62
     1
  5
193
  2
LDR
 10
309.392167
 20
16.780083
 30
0.0
 41
239.999999
 42
239.999999
 50
313.792133
210
0.0
220
0.0
230
1.0
  0
LINE
  8
1
  6
CONTINUOUS
 62
     7
  5
194
 10
271.507167
 20
18.901583
 30
0.0
 11
265.446
 21
23.675833
 31
0.0
  0
LINE
  8
1
  6
CONTINUOUS
 62
     7
  5
195
 10
265.446
 20
23.675833
 30
0.0
 11
261.654583
 21
23.675833
 31
0.0
  0
INSERT
  8
1
  6
CONTINUOUS
 62
     1
  5
196
  2
LDR
 10
271.507167
 20
18.901583
 30
0.0
 41
240.000001
 42
240.000001
 50
321.77326
210
0.0
220
0.0
230
1.0
  0
INSERT
  8
1
  6
CONTINUOUS
 62
     1
  5
197
  2
LDR
 10
271.507167
 20
18.901583
 30
0.0
 41
240.000001
 42
240.000001
 50
321.77326
210
0.0
220
0.0
230
1.0
  0
LINE
  8
1
  6
CONTINUOUS
 62
     7
  5
198
 10
315.251667
 20
45.225083
 30
0.0
 11
313.355917
 21
58.844167
 31
0.0
  0
LINE
  8
1
  6
CONTINUOUS
 62
     7
  5
199
 10
313.355917
 20
58.844167
 30
0.0
 11
308.5305
 21
58.844167
 31
0.0
  0
INSERT
  8
1
  6
CONTINUOUS
 62
     1
  5
19A
  2
LDR
 10
315.251667
 20
45.225083
 30
0.0
 41
239.999998
 42
239.999998
 50
277.924541
210
0.0
220
0.0
230
1.0
  0
LINE
  8
1
  6
CONTINUOUS
 62
     7
  5
19B
 10
339.936167
 20
17.690333
 30
0.0
 11
348.68525
 21
5.057333
 31
0.0
  0
LINE
  8
1
  6
CONTINUOUS
 62
     7
  5
19C
 10
348.68525
 20
5.057333
 30
0.0
 11
353.21875
 21
5.057333
 31
0.0
  0
INSERT
  8
1
  6
CONTINUOUS
 62
     1
  5
19D
  2
LDR
 10
339.936167
 20
17.690333
 30
0.0
 41
240.000001
 42
240.000001
 50
124.704842
210
0.0
220
0.0
230
1.0
  0
TEXT
  8
1
  6
CONTINUOUS
 62
     7
  5
19E
 10
270.960833
 20
57.723333
 30
0.0
 40
2.5
  1
PRISMATIC LENS IN
  7
MONOTXT
 11
270.960833
 21
60.223333
 31
0.0
210
0.0
220
0.0
230
1.0
 73
     3
  0
TEXT
  8
1
  6
CONTINUOUS
 62
     7
  5
19F
 10
270.960833
 20
53.223333
 30
0.0
 40
2.5
  1
HINGED CAST FRAME
  7
MONOTXT
 11
270.960833
 21
55.723333
 31
0.0
210
0.0
220
0.0
230
1.0
 73
     3
  0
TEXT
  8
1
  6
CONTINUOUS
 62
     7
  5
1A0
 10
240.284667
 20
41.173583
 30
0.0
 40
2.5
  1
ASSYMETRIC POLISHED
  7
MONOTXT
 11
240.284667
 21
43.673583
 31
0.0
210
0.0
220
0.0
230
1.0
 73
     3
  0
TEXT
  8
1
  6
CONTINUOUS
 62
     7
  5
1A1
 10
240.284667
 20
36.673583
 30
0.0
 40
2.5
  1
ALUMINUM REFLECTOR
  7
MONOTXT
 11
240.284667
 21
39.173583
 31
0.0
210
0.0
220
0.0
230
1.0
 73
     3
  0
TEXT
  8
1
  6
CONTINUOUS
 62
     7
  5
1A2
 10
240.284667
 20
32.173583
 30
0.0
 40
2.5
  1
OR APPROVED EQUAL
  7
MONOTXT
 11
240.284667
 21
34.673583
 31
0.0
210
0.0
220
0.0
230
1.0
 73
     3
  0
TEXT
  8
1
  6
CONTINUOUS
 62
     7
  5
1A3
 10
249.073917
 20
22.382667
 30
0.0
 40
2.5
  1
LATCH
  7
MONOTXT
 11
249.073917
 21
24.882667
 31
0.0
210
0.0
220
0.0
230
1.0
 73
     3
  0
TEXT
  8
1
  6
CONTINUOUS
 62
     7
  5
1A4
 10
249.073917
 20
17.882667
 30
0.0
 40
2.5
  1
(TYP.)
  7
MONOTXT
 11
249.073917
 21
20.382667
 31
0.0
210
0.0
220
0.0
230
1.0
 73
     3
  0
TEXT
  8
1
  6
CONTINUOUS
 62
     7
  5
1A5
 10
306.63475
 20
0.057917
 30
0.0
 40
2.5
  1
4-1/2"
  7
MONOTXT
210
0.0
220
0.0
230
1.0
  0
TEXT
  8
1
  6
CONTINUOUS
 62
     7
  5
1A6
 10
354.200083
 20
3.246917
 30
0.0
 40
2.5
  1
 3/4 " CONDUIT ENTRY HOLE
  7
MONOTXT
 11
354.200083
 21
5.746917
 31
0.0
210
0.0
220
0.0
230
1.0
 73
     3
  0
TEXT
  8
1
  6
CONTINUOUS
 62
     7
  5
1A7
 10
354.200083
 20
-1.253083
 30
0.0
 40
2.5
  1
EACH END AS NEEDED
  7
MONOTXT
 11
354.200083
 21
1.246917
 31
0.0
210
0.0
220
0.0
230
1.0
 73
     3
  0
TEXT
  8
1
  6
CONTINUOUS
 62
     7
  5
1A8
 10
389.184667
 20
19.538417
 30
0.0
 40
2.5
  1
8" TO 10 11/16 "
 50
90.0
  7
MONOTXT
210
0.0
220
0.0
230
1.0
  0
TEXT
  8
1
  6
CONTINUOUS
 62
     7
  5
1A9
 10
297.500917
 20
-11.492417
 30
0.0
 40
4.0
  1
SECTIONAL END VIEW
  7
MONOTXT
210
0.0
220
0.0
230
1.0
  0
LINE
  8
1
  6
CONTINUOUS
 62
     7
  5
1AA
 10
296.639167
 20
-12.871583
 30
0.0
 11
364.03125
 21
-12.871583
 31
0.0
  0
LINE
  8
1
  6
CONTINUOUS
 62
     2
  5
1AB
 10
186.642083
 20
129.77525
 30
0.0
 11
234.142083
 21
129.77525
 31
0.0
  0
LINE
  8
1
  6
CONTINUOUS
 62
     2
  5
1AC
 10
234.142083
 20
129.77525
 30
0.0
 11
248.66975
 21
158.2875
 31
0.0
  0
LINE
  8
1
  6
CONTINUOUS
 62
     2
  5
1AD
 10
248.66975
 20
158.2875
 30
0.0
 11
230.589667
 21
165.592333
 31
0.0
  0
LINE
  8
1
  6
CONTINUOUS
 62
     2
  5
1AE
 10
230.58975
 20
165.592333
 30
0.0
 11
168.973333
 21
141.940083
 31
0.0
  0
LINE
  8
1
  6
CONTINUOUS
 62
     2
  5
1AF
 10
168.973333
 20
141.940083
 30
0.0
 11
166.626
 21
137.525333
 31
0.0
  0
LINE
  8
1
  6
CONTINUOUS
 62
     2
  5
1B0
 10
166.626
 20
137.525333
 30
0.0
 11
186.642083
 21
129.77525
 31
0.0
  0
LINE
  8
1
  6
CONTINUOUS
 62
     2
  5
1B1
 10
166.626
 20
137.525333
 30
0.0
 11
248.66975
 21
158.2875
 31
0.0
  0
LINE
  8
1
  6
CONTINUOUS
 62
     2
  5
1B2
 10
170.391833
 20
136.06725
 30
0.0
 11
164.242583
 21
134.18725
 31
0.0
  0
LINE
  8
1
  6
CONTINUOUS
 62
     2
  5
1B3
 10
164.242583
 20
134.18725
 30
0.0
 11
163.998833
 21
136.172333
 31
0.0
  0
ARC
  8
1
  6
CONTINUOUS
 62
     2
  5
1B4
 10
163.359818
 20
140.640262
 30
0.0
 40
4.513394
 50
278.139406
 51
316.357847
210
0.0
220
0.0
230
1.0
  0
CIRCLE
  8
1
  6
CONTINUOUS
 62
     2
  5
1B5
 10
231.56625
 20
133.26925
 30
0.0
 40
2.0
210
0.0
220
0.0
230
1.0
  0
LINE
  8
1
  6
CONTINUOUS
 62
     2
  5
1B6
 10
230.339917
 20
134.849083
 30
0.0
 11
233.146083
 21
132.042917
 31
0.0
  0
LINE
  8
1
  6
CONTINUOUS
 62
     2
  5
1B7
 10
229.986333
 20
134.4955
 30
0.0
 11
232.7925
 21
131.689333
 31
0.0
  0
LINE
  8
1
  6
CONTINUOUS
 62
     2
  5
1B8
 10
227.114333
 20
176.040833
 30
0.0
 11
163.164083
 21
151.492667
 31
0.0
  0
LINE
  8
1
  6
CONTINUOUS
 62
     2
  5
1B9
 10
227.383083
 20
175.340583
 30
0.0
 11
163.432833
 21
150.792417
 31
0.0
  0
LINE
  8
1
  6
CONTINUOUS
 62
     2
  5
1BA
 10
230.518833
 20
167.17175
 30
0.0
 11
227.114333
 21
176.040833
 31
0.0
  0
LINE
  8
1
  6
CONTINUOUS
 62
     2
  5
1BB
 10
166.792583
 20
142.040083
 30
0.0
 11
163.164083
 21
151.492667
 31
0.0
  0
LINE
  8
1
  6
CONTINUOUS
 62
     2
  5
1BC
 10
230.518833
 20
167.17175
 30
0.0
 11
230.383167
 21
165.513083
 31
0.0
  0
LINE
  8
1
  6
CONTINUOUS
 62
     2
  5
1BD
 10
166.568583
 20
142.623583
 30
0.0
 11
168.973333
 21
141.940083
 31
0.0
  0
LINE
  8
1
  6
CONTINUOUS
 62
     2
  5
1BE
 10
166.792583
 20
142.040083
 30
0.0
 11
168.836583
 21
141.459083
 31
0.0
  0
ARC
  8
1
  6
CONTINUOUS
 62
     2
  5
1BF
 10
223.119848
 20
91.572068
 30
0.0
 40
71.894296
 50
88.510886
 51
133.488919
210
0.0
220
0.0
230
1.0
  0
LINE
  8
1
  6
CONTINUOUS
 62
     2
  5
1C0
 10
192.642083
 20
129.77525
 30
0.0
 11
192.642083
 21
128.77525
 31
0.0
  0
LINE
  8
1
  6
CONTINUOUS
 62
     2
  5
1C1
 10
196.142083
 20
129.77525
 30
0.0
 11
196.142083
 21
128.77525
 31
0.0
  0
LINE
  8
1
  6
CONTINUOUS
 62
     2
  5
1C2
 10
213.142083
 20
129.77525
 30
0.0
 11
213.142083
 21
128.77525
 31
0.0
  0
LINE
  8
1
  6
CONTINUOUS
 62
     2
  5
1C3
 10
216.642083
 20
129.77525
 30
0.0
 11
216.642083
 21
128.77525
 31
0.0
  0
LINE
  8
1
  6
CONTINUOUS
 62
     2
  5
1C4
 10
192.642083
 20
128.77525
 30
0.0
 11
196.142083
 21
128.77525
 31
0.0
  0
LINE
  8
1
  6
CONTINUOUS
 62
     2
  5
1C5
 10
213.142083
 20
128.77525
 30
0.0
 11
216.642083
 21
128.77525
 31
0.0
  0
LINE
  8
1
  6
CONTINUOUS
 62
     2
  5
1C6
 10
198.871917
 20
153.952583
 30
0.0
 11
174.619833
 21
144.643083
 31
0.0
  0
LINE
  8
1
  6
CONTINUOUS
 62
     2
  5
1C7
 10
201.627
 20
155.54575
 30
0.0
 11
175.66525
 21
145.579917
 31
0.0
  0
LINE
  8
1
  6
CONTINUOUS
 62
     2
  5
1C8
 10
201.535333
 20
156.046083
 30
0.0
 11
176.788667
 21
146.546667
 31
0.0
  0
LINE
  8
1
  6
CONTINUOUS
 62
     2
  5
1C9
 10
199.199583
 20
155.685
 30
0.0
 11
178.005
 21
147.54925
 31
0.0
  0
LINE
  8
1
  6
CONTINUOUS
 62
     2
  5
1CA
 10
198.758583
 20
156.051333
 30
0.0
 11
179.334333
 21
148.595
 31
0.0
  0
LINE
  8
1
  6
CONTINUOUS
 62
     2
  5
1CB
 10
199.704
 20
156.949833
 30
0.0
 11
180.806417
 21
149.69575
 31
0.0
  0
LINE
  8
1
  6
CONTINUOUS
 62
     2
  5
1CC
 10
199.650833
 20
157.464917
 30
0.0
 11
182.46575
 21
150.86825
 31
0.0
  0
LINE
  8
1
  6
CONTINUOUS
 62
     2
  5
1CD
 10
198.697583
 20
157.634667
 30
0.0
 11
184.389583
 21
152.142333
 31
0.0
  0
LINE
  8
1
  6
CONTINUOUS
 62
     2
  5
1CE
 10
174.681583
 20
144.13125
 30
0.0
 11
174.520083
 21
144.551833
 31
0.0
  0
LINE
  8
1
  6
CONTINUOUS
 62
     2
  5
1CF
 10
175.148333
 20
144.310417
 30
0.0
 11
174.916917
 21
144.913083
 31
0.0
  0
LINE
  8
1
  6
CONTINUOUS
 62
     2
  5
1D0
 10
175.615083
 20
144.489667
 30
0.0
 11
175.31525
 21
145.270417
 31
0.0
  0
LINE
  8
1
  6
CONTINUOUS
 62
     2
  5
1D1
 10
176.081833
 20
144.668917
 30
0.0
 11
175.715167
 21
145.62375
 31
0.0
  0
LINE
  8
1
  6
CONTINUOUS
 62
     2
  5
1D2
 10
176.548583
 20
144.848167
 30
0.0
 11
176.116583
 21
145.973167
 31
0.0
  0
LINE
  8
1
  6
CONTINUOUS
 62
     2
  5
1D3
 10
177.015417
 20
145.027417
 30
0.0
 11
176.519583
 21
146.31875
 31
0.0
  0
LINE
  8
1
  6
CONTINUOUS
 62
     2
  5
1D4
 10
177.482167
 20
145.206583
 30
0.0
 11
176.923917
 21
146.660417
 31
0.0
  0
LINE
  8
1
  6
CONTINUOUS
 62
     2
  5
1D5
 10
177.948917
 20
145.385833
 30
0.0
 11
177.32975
 21
146.99825
 31
0.0
  0
LINE
  8
1
  6
CONTINUOUS
 62
     2
  5
1D6
 10
178.415667
 20
145.565083
 30
0.0
 11
177.737083
 21
147.33225
 31
0.0
  0
LINE
  8
1
  6
CONTINUOUS
 62
     2
  5
1D7
 10
178.8825
 20
145.744333
 30
0.0
 11
178.145917
 21
147.6625
 31
0.0
  0
LINE
  8
1
  6
CONTINUOUS
 62
     2
  5
1D8
 10
179.34925
 20
145.923583
 30
0.0
 11
178.556167
 21
147.989
 31
0.0
  0
LINE
  8
1
  6
CONTINUOUS
 62
     2
  5
1D9
 10
179.816
 20
146.102833
 30
0.0
 11
178.967833
 21
148.31175
 31
0.0
  0
LINE
  8
1
  6
CONTINUOUS
 62
     2
  5
1DA
 10
180.28275
 20
146.282
 30
0.0
 11
179.380833
 21
148.63075
 31
0.0
  0
LINE
  8
1
  6
CONTINUOUS
 62
     2
  5
1DB
 10
180.749583
 20
146.46125
 30
0.0
 11
179.795417
 21
148.946167
 31
0.0
  0
LINE
  8
1
  6
CONTINUOUS
 62
     2
  5
1DC
 10
181.216333
 20
146.6405
 30
0.0
 11
180.211333
 21
149.257833
 31
0.0
  0
LINE
  8
1
  6
CONTINUOUS
 62
     2
  5
1DD
 10
181.683083
 20
146.81975
 30
0.0
 11
180.628583
 21
149.565917
 31
0.0
  0
LINE
  8
1
  6
CONTINUOUS
 62
     2
  5
1DE
 10
182.149833
 20
146.999
 30
0.0
 11
181.04725
 21
149.870333
 31
0.0
  0
LINE
  8
1
  6
CONTINUOUS
 62
     2
  5
1DF
 10
182.616667
 20
147.17825
 30
0.0
 11
181.467417
 21
150.17125
 31
0.0
  0
LINE
  8
1
  6
CONTINUOUS
 62
     2
  5
1E0
 10
183.083417
 20
147.357417
 30
0.0
 11
181.88875
 21
150.4685
 31
0.0
  0
LINE
  8
1
  6
CONTINUOUS
 62
     2
  5
1E1
 10
183.550167
 20
147.536667
 30
0.0
 11
182.311583
 21
150.76225
 31
0.0
  0
LINE
  8
1
  6
CONTINUOUS
 62
     2
  5
1E2
 10
184.016917
 20
147.715917
 30
0.0
 11
182.73575
 21
151.052417
 31
0.0
  0
LINE
  8
1
  6
CONTINUOUS
 62
     2
  5
1E3
 10
184.48375
 20
147.895167
 30
0.0
 11
183.161333
 21
151.339167
 31
0.0
  0
LINE
  8
1
  6
CONTINUOUS
 62
     2
  5
1E4
 10
184.9505
 20
148.074417
 30
0.0
 11
183.588167
 21
151.622333
 31
0.0
  0
LINE
  8
1
  6
CONTINUOUS
 62
     2
  5
1E5
 10
185.41725
 20
148.253583
 30
0.0
 11
184.01625
 21
151.902
 31
0.0
  0
LINE
  8
1
  6
CONTINUOUS
 62
     2
  5
1E6
 10
185.884
 20
148.432833
 30
0.0
 11
184.445833
 21
152.17825
 31
0.0
  0
LINE
  8
1
  6
CONTINUOUS
 62
     2
  5
1E7
 10
186.350833
 20
148.612083
 30
0.0
 11
184.876667
 21
152.451083
 31
0.0
  0
LINE
  8
1
  6
CONTINUOUS
 62
     2
  5
1E8
 10
186.817583
 20
148.791333
 30
0.0
 11
185.308833
 21
152.720417
 31
0.0
  0
LINE
  8
1
  6
CONTINUOUS
 62
     2
  5
1E9
 10
187.284333
 20
148.970583
 30
0.0
 11
185.742333
 21
152.986333
 31
0.0
  0
LINE
  8
1
  6
CONTINUOUS
 62
     2
  5
1EA
 10
187.751083
 20
149.149833
 30
0.0
 11
186.177083
 21
153.248833
 31
0.0
  0
LINE
  8
1
  6
CONTINUOUS
 62
     2
  5
1EB
 10
188.217917
 20
149.329
 30
0.0
 11
186.61325
 21
153.508
 31
0.0
  0
LINE
  8
1
  6
CONTINUOUS
 62
     2
  5
1EC
 10
188.684667
 20
149.50825
 30
0.0
 11
187.050583
 21
153.763667
 31
0.0
  0
LINE
  8
1
  6
CONTINUOUS
 62
     2
  5
1ED
 10
189.151417
 20
149.6875
 30
0.0
 11
187.48925
 21
154.016083
 31
0.0
  0
LINE
  8
1
  6
CONTINUOUS
 62
     2
  5
1EE
 10
189.618167
 20
149.86675
 30
0.0
 11
187.92925
 21
154.265083
 31
0.0
  0
LINE
  8
1
  6
CONTINUOUS
 62
     2
  5
1EF
 10
190.085
 20
150.046
 30
0.0
 11
188.370583
 21
154.51075
 31
0.0
  0
LINE
  8
1
  6
CONTINUOUS
 62
     2
  5
1F0
 10
190.55175
 20
150.22525
 30
0.0
 11
188.813083
 21
154.753083
 31
0.0
  0
LINE
  8
1
  6
CONTINUOUS
 62
     2
  5
1F1
 10
191.0185
 20
150.404417
 30
0.0
 11
189.372417
 21
154.691083
 31
0.0
  0
LINE
  8
1
  6
CONTINUOUS
 62
     2
  5
1F2
 10
191.48525
 20
150.583667
 30
0.0
 11
189.749167
 21
155.104833
 31
0.0
  0
LINE
  8
1
  6
CONTINUOUS
 62
     2
  5
1F3
 10
191.952083
 20
150.762917
 30
0.0
 11
190.220667
 21
155.272
 31
0.0
  0
LINE
  8
1
  6
CONTINUOUS
 62
     2
  5
1F4
 10
192.418833
 20
150.942167
 30
0.0
 11
190.77875
 21
155.213417
 31
0.0
  0
LINE
  8
1
  6
CONTINUOUS
 62
     2
  5
1F5
 10
192.885583
 20
151.121417
 30
0.0
 11
191.284667
 21
155.2905
 31
0.0
  0
LINE
  8
1
  6
CONTINUOUS
 62
     2
  5
1F6
 10
193.352333
 20
151.300667
 30
0.0
 11
191.655083
 21
155.720833
 31
0.0
  0
LINE
  8
1
  6
CONTINUOUS
 62
     2
  5
1F7
 10
193.819167
 20
151.479833
 30
0.0
 11
192.144333
 21
155.841417
 31
0.0
  0
LINE
  8
1
  6
CONTINUOUS
 62
     2
  5
1F8
 10
194.285917
 20
151.659083
 30
0.0
 11
192.51825
 21
156.262583
 31
0.0
  0
LINE
  8
1
  6
CONTINUOUS
 62
     2
  5
1F9
 10
194.752667
 20
151.838333
 30
0.0
 11
193.020667
 21
156.348833
 31
0.0
  0
LINE
  8
1
  6
CONTINUOUS
 62
     2
  5
1FA
 10
195.219417
 20
152.017583
 30
0.0
 11
193.444417
 21
156.640083
 31
0.0
  0
LINE
  8
1
  6
CONTINUOUS
 62
     2
  5
1FB
 10
195.68625
 20
152.196833
 30
0.0
 11
193.911833
 21
156.817833
 31
0.0
  0
LINE
  8
1
  6
CONTINUOUS
 62
     2
  5
1FC
 10
194.561917
 20
156.519583
 30
0.0
 11
196.153917
 21
152.373667
 31
0.0
  0
LINE
  8
1
  6
CONTINUOUS
 62
     2
  5
1FD
 10
196.61975
 20
152.55525
 30
0.0
 11
194.927417
 21
156.9625
 31
0.0
  0
LINE
  8
1
  6
CONTINUOUS
 62
     2
  5
1FE
 10
197.0865
 20
152.7345
 30
0.0
 11
195.436917
 21
157.030333
 31
0.0
  0
LINE
  8
1
  6
CONTINUOUS
 62
     2
  5
1FF
 10
197.553333
 20
152.91375
 30
0.0
 11
195.88075
 21
157.2695
 31
0.0
  0
LINE
  8
1
  6
CONTINUOUS
 62
     2
  5
200
 10
198.020083
 20
153.093
 30
0.0
 11
196.417583
 21
157.266167
 31
0.0
  0
LINE
  8
1
  6
CONTINUOUS
 62
     2
  5
201
 10
198.486833
 20
153.27225
 30
0.0
 11
196.80225
 21
157.659333
 31
0.0
  0
LINE
  8
1
  6
CONTINUOUS
 62
     2
  5
202
 10
198.953583
 20
153.451417
 30
0.0
 11
197.162167
 21
158.11675
 31
0.0
  0
LINE
  8
1
  6
CONTINUOUS
 62
     2
  5
203
 10
230.518833
 20
167.17175
 30
0.0
 11
229.948333
 21
165.346083
 31
0.0
  0
LINE
  8
1
  6
CONTINUOUS
 62
    92
  5
204
 10
352.193833
 20
151.992917
 30
0.0
 11
269.193833
 21
151.992917
 31
0.0
  0
LINE
  8
1
  6
CONTINUOUS
 62
    92
  5
205
 10
352.193833
 20
151.242917
 30
0.0
 11
269.193833
 21
151.242917
 31
0.0
  0
LINE
  8
1
  6
CONTINUOUS
 62
    92
  5
206
 10
352.00125
 20
150.492917
 30
0.0
 11
269.193833
 21
150.492917
 31
0.0
  0
LINE
  8
1
  6
CONTINUOUS
 62
    92
  5
207
 10
351.693833
 20
154.992917
 30
0.0
 11
270.193833
 21
154.992917
 31
0.0
  0
LINE
  8
1
  6
CONTINUOUS
 62
    92
  5
208
 10
352.193833
 20
151.992917
 30
0.0
 11
352.193833
 21
154.492917
 31
0.0
  0
LINE
  8
1
  6
CONTINUOUS
 62
    92
  5
209
 10
269.193833
 20
151.992917
 30
0.0
 11
269.193833
 21
153.992917
 31
0.0
  0
ARC
  8
1
  6
CONTINUOUS
 62
    92
  5
20A
 10
270.193833
 20
153.992917
 30
0.0
 40
1.0
 50
90.0
 51
180.0
210
0.0
220
0.0
230
1.0
  0
ARC
  8
1
  6
CONTINUOUS
 62
    92
  5
20B
 10
351.693833
 20
154.492917
 30
0.0
 40
0.5
 50
0.0
 51
90.0
210
0.0
220
0.0
230
1.0
  0
ARC
  8
1
  6
CONTINUOUS
 62
    92
  5
20C
 10
351.679925
 20
150.975151
 30
0.0
 40
0.579483
 50
303.676514
 51
27.521183
210
0.0
220
0.0
230
1.0
  0
LINE
  8
1
  6
CONTINUOUS
 62
    92
  5
20D
 10
269.193833
 20
151.242917
 30
0.0
 11
269.193833
 21
150.242917
 31
0.0
  0
LINE
  8
1
  6
CONTINUOUS
 62
    92
  5
20E
 10
269.693833
 20
149.742917
 30
0.0
 11
273.193833
 21
149.742917
 31
0.0
  0
ARC
  8
1
  6
CONTINUOUS
 62
    92
  5
20F
 10
269.693833
 20
150.242917
 30
0.0
 40
0.5
 50
180.0
 51
270.0
210
0.0
220
0.0
230
1.0
  0
ARC
  8
1
  6
CONTINUOUS
 62
    92
  5
210
 10
271.585033
 20
148.49025
 30
0.0
 40
2.066321
 50
352.480211
 51
78.089147
210
0.0
220
0.0
230
1.0
  0
LINE
  8
1
  6
CONTINUOUS
 62
    92
  5
211
 10
273.633583
 20
148.219833
 30
0.0
 11
274.05475
 21
136.1585
 31
0.0
  0
ARC
  8
1
  6
CONTINUOUS
 62
    92
  5
212
 10
276.053536
 20
136.228333
 30
0.0
 40
2.0
 50
182.000239
 51
270.0
210
0.0
220
0.0
230
1.0
  0
LINE
  8
1
  6
CONTINUOUS
 62
    92
  5
213
 10
273.0535
 20
134.228333
 30
0.0
 11
307.0535
 21
134.228333
 31
0.0
  0
ARC
  8
1
  6
CONTINUOUS
 62
    92
  5
214
 10
248.295537
 20
381.541653
 30
0.0
 40
252.269168
 50
281.3757
 51
292.093078
210
0.0
220
0.0
230
1.0
  0
ARC
  8
1
  6
CONTINUOUS
 62
    92
  5
215
 10
352.486215
 20
134.224906
 30
0.0
 40
16.456707
 50
98.684892
 51
124.449111
210
0.0
220
0.0
230
1.0
  0
LINE
  8
1
  6
CONTINUOUS
 62
    92
  5
216
 10
343.177083
 20
147.795583
 30
0.0
 11
357.177083
 21
147.795583
 31
0.0
  0
LINE
  8
1
  6
CONTINUOUS
 62
    92
  5
217
 10
357.177083
 20
147.795583
 30
0.0
 11
357.177083
 21
149.295583
 31
0.0
  0
LINE
  8
1
  6
CONTINUOUS
 62
    92
  5
218
 10
357.177083
 20
149.295583
 30
0.0
 11
356.677083
 21
149.295583
 31
0.0
  0
ARC
  8
1
  6
CONTINUOUS
 62
    92
  5
219
 10
351.060599
 20
149.411049
 30
0.0
 40
5.617671
 50
358.822256
 51
83.527756
210
0.0
220
0.0
230
1.0
  0
ARC
  8
1
  6
CONTINUOUS
 62
    92
  5
21A
 10
355.093121
 20
149.412465
 30
0.0
 40
1.588269
 50
181.505403
 51
355.779769
210
0.0
220
0.0
230
1.0
  0
ARC
  8
1
  6
CONTINUOUS
 62
    92
  5
21B
 10
349.011989
 20
148.762284
 30
0.0
 40
4.534437
 50
7.711661
 51
45.435925
210
0.0
220
0.0
230
1.0
  0
CIRCLE
  8
1
  6
CONTINUOUS
 62
    92
  5
21C
 10
355.181417
 20
149.183167
 30
0.0
 40
0.75
210
0.0
220
0.0
230
1.0
  0
ARC
  8
1
  6
CONTINUOUS
 62
    92
  5
21D
 10
304.986616
 20
134.903996
 30
0.0
 40
2.174519
 50
341.897464
 51
34.760464
210
0.0
220
0.0
230
1.0
  0
LINE
  8
1
  6
CONTINUOUS
 62
    92
  5
21E
 10
273.0535
 20
134.228333
 30
0.0
 11
273.0535
 21
129.228333
 31
0.0
  0
LINE
  8
1
  6
CONTINUOUS
 62
    92
  5
21F
 10
278.0535
 20
134.228333
 30
0.0
 11
278.0535
 21
129.228333
 31
0.0
  0
LINE
  8
1
  6
CONTINUOUS
 62
    92
  5
220
 10
326.435167
 20
139.968667
 30
0.0
 11
326.435167
 21
129.342583
 31
0.0
  0
LINE
  8
1
  6
CONTINUOUS
 62
    92
  5
221
 10
321.435167
 20
139.968667
 30
0.0
 11
321.435167
 21
129.342583
 31
0.0
  0
LINE
  8
1
  6
CONTINUOUS
 62
    92
  5
222
 10
326.435167
 20
129.342583
 30
0.0
 11
321.435167
 21
129.342583
 31
0.0
  0
LINE
  8
1
  6
CONTINUOUS
 62
    92
  5
223
 10
278.0535
 20
129.228333
 30
0.0
 11
273.0535
 21
129.228333
 31
0.0
  0
LINE
  8
1
  6
CONTINUOUS
 62
    92
  5
224
 10
326.435167
 20
130.842583
 30
0.0
 11
321.435167
 21
130.842583
 31
0.0
  0
LINE
  8
1
  6
CONTINUOUS
 62
    92
  5
225
 10
278.0535
 20
130.728333
 30
0.0
 11
273.0535
 21
130.728333
 31
0.0
  0
LINE
  8
1
  6
CONTINUOUS
 62
    92
  5
226
 10
320.93275
 20
139.956083
 30
0.0
 11
326.93275
 21
139.956083
 31
0.0
  0
ARC
  8
1
  6
CONTINUOUS
 62
    92
  5
227
 10
326.770804
 20
141.504253
 30
0.0
 40
1.556617
 50
275.971692
 51
28.288089
210
0.0
220
0.0
230
1.0
  0
LINE
  8
1
  6
CONTINUOUS
 62
    92
  5
228
 10
347.414
 20
156.071833
 30
0.0
 11
344.982917
 21
169.859167
 31
0.0
  0
ARC
  8
1
  6
CONTINUOUS
 62
    92
  5
229
 10
349.378909
 20
157.275646
 30
0.0
 40
2.304351
 50
211.493961
 51
277.854925
210
0.0
220
0.0
230
1.0
  0
ARC
  8
1
  6
CONTINUOUS
 62
    92
  5
22A
 10
311.212177
 20
183.068189
 30
0.0
 40
29.055052
 50
284.921731
 51
342.798728
210
0.0
220
0.0
230
1.0
  0
ARC
  8
1
  6
CONTINUOUS
 62
    92
  5
22B
 10
340.191372
 20
169.843072
 30
0.0
 40
4.791572
 50
0.192461
 51
104.796514
210
0.0
220
0.0
230
1.0
  0
LINE
  8
1
  6
CONTINUOUS
 62
    92
  5
22C
 10
281.193833
 20
155.992917
 30
0.0
 11
273.693833
 21
155.992917
 31
0.0
  0
ARC
  8
1
  6
CONTINUOUS
 62
    92
  5
22D
 10
357.619083
 20
-127.300382
 30
0.0
 40
300.550093
 50
93.676292
 51
104.844661
210
0.0
220
0.0
230
1.0
  0
LINE
  8
1
  6
CONTINUOUS
 62
    92
  5
22E
 10
281.693833
 20
155.492917
 30
0.0
 11
281.693833
 21
154.992917
 31
0.0
  0
LINE
  8
1
  6
CONTINUOUS
 62
    92
  5
22F
 10
273.193833
 20
155.492917
 30
0.0
 11
273.193833
 21
154.992917
 31
0.0
  0
ARC
  8
1
  6
CONTINUOUS
 62
    92
  5
230
 10
281.193833
 20
155.492917
 30
0.0
 40
0.5
 50
0.0
 51
90.0
210
0.0
220
0.0
230
1.0
  0
ARC
  8
1
  6
CONTINUOUS
 62
    92
  5
231
 10
273.693833
 20
155.492917
 30
0.0
 40
0.5
 50
90.0
 51
180.0
210
0.0
220
0.0
230
1.0
  0
LINE
  8
1
  6
CONTINUOUS
 62
    92
  5
232
 10
272.193833
 20
155.492917
 30
0.0
 11
272.193833
 21
154.992917
 31
0.0
  0
LINE
  8
1
  6
CONTINUOUS
 62
    92
  5
233
 10
270.193833
 20
155.492917
 30
0.0
 11
270.193833
 21
154.992917
 31
0.0
  0
LINE
  8
1
  6
CONTINUOUS
 62
    92
  5
234
 10
272.193833
 20
155.492917
 30
0.0
 11
270.193833
 21
155.492917
 31
0.0
  0
LINE
  8
1
  6
CONTINUOUS
 62
    92
  5
235
 10
271.693833
 20
155.492917
 30
0.0
 11
271.693833
 21
154.992917
 31
0.0
  0
LINE
  8
1
  6
CONTINUOUS
 62
    92
  5
236
 10
270.693833
 20
155.492917
 30
0.0
 11
270.693833
 21
154.992917
 31
0.0
  0
ARC
  8
1
  6
CONTINUOUS
 62
    92
  5
237
 10
295.326304
 20
147.509571
 30
0.0
 40
22.2791
 50
140.992475
 51
157.610131
210
0.0
220
0.0
230
1.0
  0
ARC
  8
1
  6
CONTINUOUS
 62
    92
  5
238
 10
281.89935
 20
158.385424
 30
0.0
 40
5.0
 50
104.844661
 51
140.992475
210
0.0
220
0.0
230
1.0
  0
LINE
  8
1
  6
CONTINUOUS
 62
     7
  5
239
 10
195.13925
 20
163.76675
 30
0.0
 11
192.234333
 21
172.02425
 31
0.0
  0
LINE
  8
1
  6
CONTINUOUS
 62
     7
  5
23A
 10
192.234333
 20
172.02425
 30
0.0
 11
186.802583
 21
172.02425
 31
0.0
  0
INSERT
  8
1
  6
CONTINUOUS
 62
     1
  5
23B
  2
LDR
 10
195.13925
 20
163.76675
 30
0.0
 41
239.999998
 42
239.999998
 50
289.381428
210
0.0
220
0.0
230
1.0
  0
INSERT
  8
1
  6
CONTINUOUS
 62
     1
  5
23C
  2
LDR
 10
195.13925
 20
163.76675
 30
0.0
 41
239.999998
 42
239.999998
 50
289.381428
210
0.0
220
0.0
230
1.0
  0
TEXT
  8
1
  6
CONTINUOUS
 62
     7
  5
23D
 10
159.191333
 20
170.429833
 30
0.0
 40
2.5
  1
CLEAR SHIELD
  7
MONOTXT
 11
159.191333
 21
172.929833
 31
0.0
210
0.0
220
0.0
230
1.0
 73
     3
  0
TEXT
  8
1
  6
CONTINUOUS
 62
     7
  5
23E
 10
159.191333
 20
165.929833
 30
0.0
 40
2.5
  1
(IF APPLICABLE)
  7
MONOTXT
 11
159.191333
 21
168.429833
 31
0.0
210
0.0
220
0.0
230
1.0
 73
     3
  0
TEXT
  8
1
  6
CONTINUOUS
 62
     7
  5
23F
 10
204.866417
 20
106.824167
 30
0.0
 40
4.0
  1
END VIEW WITH IMPACT SHIELD
  7
MONOTXT
 72
     4
 11
254.110417
 21
108.824167
 31
0.0
210
0.0
220
0.0
230
1.0
  0
TEXT
  8
1
  6
CONTINUOUS
 62
     7
  5
240
 10
231.90575
 20
98.824167
 30
0.0
 40
4.0
  1
(AS REQUIRED)
  7
MONOTXT
 72
     4
 11
254.09475
 21
100.824167
 31
0.0
210
0.0
220
0.0
230
1.0
  0
LINE
  8
1
  6
CONTINUOUS
 62
     7
  5
241
 10
203.17225
 20
105.503333
 30
0.0
 11
304.9695
 21
105.503333
 31
0.0
  0
LINE
  8
1
  6
CONTINUOUS
 62
     7
  5
242
 10
230.783583
 20
97.126667
 30
0.0
 11
277.700583
 21
97.126667
 31
0.0
  0
LINE
  8
1
  6
CONTINUOUS
 62
    52
  5
243
 10
151.024
 20
265.728667
 30
0.0
 11
214.859917
 21
308.7865
 31
0.0
  0
LINE
  8
1
  6
CONTINUOUS
 62
    52
  5
244
 10
151.024
 20
265.728667
 30
0.0
 11
163.49325
 21
268.607417
 31
0.0
  0
LINE
  8
1
  6
CONTINUOUS
 62
    52
  5
245
 10
164.7925
 20
269.106167
 30
0.0
 11
196.560667
 21
286.7155
 31
0.0
  0
LINE
  8
1
  6
CONTINUOUS
 62
    52
  5
246
 10
214.859917
 20
308.7865
 30
0.0
 11
198.026167
 21
287.94675
 31
0.0
  0
ARC
  8
1
  6
CONTINUOUS
 62
    52
  5
247
 10
162.368421
 20
273.479258
 30
0.0
 40
5.0
 50
283.000608
 51
299.000531
210
0.0
220
0.0
230
1.0
  0
ARC
  8
1
  6
CONTINUOUS
 62
    52
  5
248
 10
194.136638
 20
291.088622
 30
0.0
 40
5.0
 50
299.000192
 51
321.069789
210
0.0
220
0.0
230
1.0
  0
LINE
  8
1
  6
CONTINUOUS
 62
    52
  5
249
 10
152.63475
 20
271.332583
 30
0.0
 11
120.47
 21
305.825083
 31
0.0
  0
LINE
  8
1
  6
CONTINUOUS
 62
    52
  5
24A
 10
152.63475
 20
271.332583
 30
0.0
 11
197.065333
 21
308.61425
 31
0.0
  0
LINE
  8
1
  6
CONTINUOUS
 62
    52
  5
24B
 10
197.065333
 20
308.61425
 30
0.0
 11
214.859917
 21
308.7865
 31
0.0
  0
LINE
  8
1
  6
CONTINUOUS
 62
    52
  5
24C
 10
197.065333
 20
308.61425
 30
0.0
 11
165.693417
 21
342.256583
 31
0.0
  0
LINE
  8
1
  6
CONTINUOUS
 62
    52
  5
24D
 10
214.859917
 20
308.7865
 30
0.0
 11
182.369083
 21
343.628583
 31
0.0
  0
LINE
  8
1
  6
CONTINUOUS
 62
    52
  5
24E
 10
164.707
 20
341.463
 30
0.0
 11
121.69575
 21
306.85875
 31
0.0
  0
ARC
  8
1
  6
CONTINUOUS
 62
    52
  5
24F
 10
128.914115
 20
297.055626
 30
0.0
 40
12.17399
 50
126.365447
 51
158.259064
210
0.0
220
0.0
230
1.0
  0
ARC
  8
1
  6
CONTINUOUS
 62
    52
  5
250
 10
156.068082
 20
267.318704
 30
0.0
 40
5.28876
 50
124.210581
 51
197.496325
210
0.0
220
0.0
230
1.0
  0
ARC
  8
1
  6
CONTINUOUS
 62
    52
  5
251
 10
167.841254
 20
337.567289
 30
0.0
 40
5.0
 50
100.400803
 51
128.817589
210
0.0
220
0.0
230
1.0
  0
LINE
  8
1
  6
CONTINUOUS
 62
    52
  5
252
 10
164.57075
 20
339.428167
 30
0.0
 11
123.814
 21
306.63775
 31
0.0
  0
LINE
  8
1
  6
CONTINUOUS
 62
    52
  5
253
 10
153.228667
 20
275.094417
 30
0.0
 11
193.2485
 21
308.675
 31
0.0
  0
LINE
  8
1
  6
CONTINUOUS
 62
    52
  5
254
 10
153.228667
 20
275.094417
 30
0.0
 11
123.814
 21
306.63775
 31
0.0
  0
LINE
  8
1
  6
CONTINUOUS
 62
    52
  5
255
 10
193.2485
 20
308.675
 30
0.0
 11
164.57075
 21
339.428167
 31
0.0
  0
LINE
  8
1
  6
CONTINUOUS
 62
    52
  5
256
 10
161.056167
 20
331.46675
 30
0.0
 11
133.970833
 21
309.6755
 31
0.0
  0
LINE
  8
1
  6
CONTINUOUS
 62
    52
  5
257
 10
153.686667
 20
288.532833
 30
0.0
 11
180.282333
 21
310.849167
 31
0.0
  0
LINE
  8
1
  6
CONTINUOUS
 62
    52
  5
258
 10
153.686667
 20
288.532833
 30
0.0
 11
133.970833
 21
309.6755
 31
0.0
  0
LINE
  8
1
  6
CONTINUOUS
 62
    52
  5
259
 10
180.282333
 20
310.849167
 30
0.0
 11
161.056167
 21
331.46675
 31
0.0
  0
LINE
  8
1
  6
CONTINUOUS
 62
    52
  5
25A
 10
164.57075
 20
339.428167
 30
0.0
 11
161.056167
 21
331.46675
 31
0.0
  0
LINE
  8
1
  6
CONTINUOUS
 62
    52
  5
25B
 10
123.814
 20
306.63775
 30
0.0
 11
133.970833
 21
309.6755
 31
0.0
  0
LINE
  8
1
  6
CONTINUOUS
 62
    52
  5
25C
 10
193.2485
 20
308.675
 30
0.0
 11
180.282333
 21
310.849167
 31
0.0
  0
LINE
  8
1
  6
CONTINUOUS
 62
    52
  5
25D
 10
153.228667
 20
275.094417
 30
0.0
 11
153.686667
 21
288.532833
 31
0.0
  0
LINE
  8
1
  6
CONTINUOUS
 62
    52
  5
25E
 10
125.083583
 20
307.0175
 30
0.0
 11
124.155917
 21
306.271083
 31
0.0
  0
LINE
  8
1
  6
CONTINUOUS
 62
    52
  5
25F
 10
126.35325
 20
307.397167
 30
0.0
 11
124.497833
 21
305.904417
 31
0.0
  0
LINE
  8
1
  6
CONTINUOUS
 62
    52
  5
260
 10
127.622833
 20
307.776917
 30
0.0
 11
124.83975
 21
305.53775
 31
0.0
  0
LINE
  8
1
  6
CONTINUOUS
 62
    52
  5
261
 10
128.892667
 20
308.156667
 30
0.0
 11
125.181667
 21
305.171083
 31
0.0
  0
LINE
  8
1
  6
CONTINUOUS
 62
    52
  5
262
 10
130.162167
 20
308.536417
 30
0.0
 11
125.523583
 21
304.8045
 31
0.0
  0
LINE
  8
1
  6
CONTINUOUS
 62
    52
  5
263
 10
131.43175
 20
308.916083
 30
0.0
 11
125.8655
 21
304.437833
 31
0.0
  0
LINE
  8
1
  6
CONTINUOUS
 62
    52
  5
264
 10
132.701333
 20
309.295833
 30
0.0
 11
126.207333
 21
304.071167
 31
0.0
  0
LINE
  8
1
  6
CONTINUOUS
 62
    52
  5
265
 10
133.970833
 20
309.6755
 30
0.0
 11
126.54925
 21
303.7045
 31
0.0
  0
LINE
  8
1
  6
CONTINUOUS
 62
    52
  5
266
 10
134.28425
 20
309.285917
 30
0.0
 11
126.891167
 21
303.337917
 31
0.0
  0
LINE
  8
1
  6
CONTINUOUS
 62
    52
  5
267
 10
134.597667
 20
308.896333
 30
0.0
 11
127.233083
 21
302.97125
 31
0.0
  0
LINE
  8
1
  6
CONTINUOUS
 62
    52
  5
268
 10
134.996583
 20
308.5755
 30
0.0
 11
127.575
 21
302.604583
 31
0.0
  0
LINE
  8
1
  6
CONTINUOUS
 62
    52
  5
269
 10
135.3385
 20
308.208833
 30
0.0
 11
127.916917
 21
302.237917
 31
0.0
  0
LINE
  8
1
  6
CONTINUOUS
 62
    52
  5
26A
 10
135.680417
 20
307.84225
 30
0.0
 11
128.258833
 21
301.87125
 31
0.0
  0
LINE
  8
1
  6
CONTINUOUS
 62
    52
  5
26B
 10
136.022333
 20
307.475583
 30
0.0
 11
128.60075
 21
301.504583
 31
0.0
  0
LINE
  8
1
  6
CONTINUOUS
 62
    52
  5
26C
 10
136.364167
 20
307.108917
 30
0.0
 11
128.942583
 21
301.138
 31
0.0
  0
LINE
  8
1
  6
CONTINUOUS
 62
    52
  5
26D
 10
136.706083
 20
306.742333
 30
0.0
 11
129.2845
 21
300.771333
 31
0.0
  0
LINE
  8
1
  6
CONTINUOUS
 62
    52
  5
26E
 10
137.048
 20
306.375667
 30
0.0
 11
129.626417
 21
300.404667
 31
0.0
  0
LINE
  8
1
  6
CONTINUOUS
 62
    52
  5
26F
 10
137.389917
 20
306.008917
 30
0.0
 11
129.968417
 21
300.038
 31
0.0
  0
LINE
  8
1
  6
CONTINUOUS
 62
    52
  5
270
 10
137.731833
 20
305.64225
 30
0.0
 11
130.310333
 21
299.671333
 31
0.0
  0
LINE
  8
1
  6
CONTINUOUS
 62
    52
  5
271
 10
138.07375
 20
305.275667
 30
0.0
 11
130.65225
 21
299.304667
 31
0.0
  0
LINE
  8
1
  6
CONTINUOUS
 62
    52
  5
272
 10
138.415667
 20
304.909
 30
0.0
 11
130.994083
 21
298.938083
 31
0.0
  0
LINE
  8
1
  6
CONTINUOUS
 62
    52
  5
273
 10
138.757583
 20
304.542333
 30
0.0
 11
131.336
 21
298.571417
 31
0.0
  0
LINE
  8
1
  6
CONTINUOUS
 62
    52
  5
274
 10
139.0995
 20
304.175667
 30
0.0
 11
131.677917
 21
298.20475
 31
0.0
  0
LINE
  8
1
  6
CONTINUOUS
 62
    52
  5
275
 10
139.441417
 20
303.809083
 30
0.0
 11
132.019833
 21
297.838083
 31
0.0
  0
LINE
  8
1
  6
CONTINUOUS
 62
    52
  5
276
 10
139.783333
 20
303.442417
 30
0.0
 11
132.36175
 21
297.471417
 31
0.0
  0
LINE
  8
1
  6
CONTINUOUS
 62
    52
  5
277
 10
140.12525
 20
303.07575
 30
0.0
 11
132.703667
 21
297.10475
 31
0.0
  0
LINE
  8
1
  6
CONTINUOUS
 62
    52
  5
278
 10
140.467083
 20
302.709083
 30
0.0
 11
133.045583
 21
296.738083
 31
0.0
  0
LINE
  8
1
  6
CONTINUOUS
 62
    52
  5
279
 10
140.809
 20
302.342417
 30
0.0
 11
133.3875
 21
296.3715
 31
0.0
  0
LINE
  8
1
  6
CONTINUOUS
 62
    52
  5
27A
 10
141.150917
 20
301.97575
 30
0.0
 11
133.729417
 21
296.004833
 31
0.0
  0
LINE
  8
1
  6
CONTINUOUS
 62
    52
  5
27B
 10
141.492833
 20
301.609083
 30
0.0
 11
134.071333
 21
295.638167
 31
0.0
  0
LINE
  8
1
  6
CONTINUOUS
 62
    52
  5
27C
 10
141.83475
 20
301.242417
 30
0.0
 11
134.41325
 21
295.2715
 31
0.0
  0
LINE
  8
1
  6
CONTINUOUS
 62
    52
  5
27D
 10
142.176667
 20
300.875833
 30
0.0
 11
134.755167
 21
294.904833
 31
0.0
  0
LINE
  8
1
  6
CONTINUOUS
 62
    52
  5
27E
 10
143.892667
 20
298.302333
 30
0.0
 11
133.580167
 21
309.361167
 31
0.0
  0
LINE
  8
1
  6
CONTINUOUS
 62
    52
  5
27F
 10
143.526917
 20
297.961333
 30
0.0
 11
133.1895
 21
309.046917
 31
0.0
  0
LINE
  8
1
  6
CONTINUOUS
 62
    52
  5
280
 10
142.3835
 20
298.454417
 30
0.0
 11
132.798917
 21
308.732667
 31
0.0
  0
LINE
  8
1
  6
CONTINUOUS
 62
    52
  5
281
 10
141.65075
 20
298.507083
 30
0.0
 11
132.408333
 21
308.418417
 31
0.0
  0
LINE
  8
1
  6
CONTINUOUS
 62
    52
  5
282
 10
141.419833
 20
298.0215
 30
0.0
 11
132.01775
 21
308.104167
 31
0.0
  0
LINE
  8
1
  6
CONTINUOUS
 62
    52
  5
283
 10
141.513583
 20
297.187833
 30
0.0
 11
131.627083
 21
307.789833
 31
0.0
  0
LINE
  8
1
  6
CONTINUOUS
 62
    52
  5
284
 10
140.78775
 20
297.233083
 30
0.0
 11
131.2365
 21
307.475583
 31
0.0
  0
LINE
  8
1
  6
CONTINUOUS
 62
    52
  5
285
 10
140.526417
 20
296.78025
 30
0.0
 11
130.845917
 21
307.161333
 31
0.0
  0
LINE
  8
1
  6
CONTINUOUS
 62
    52
  5
286
 10
140.0595
 20
296.54775
 30
0.0
 11
130.45525
 21
306.847083
 31
0.0
  0
LINE
  8
1
  6
CONTINUOUS
 62
    52
  5
287
 10
140.0315
 20
295.844583
 30
0.0
 11
130.064667
 21
306.532833
 31
0.0
  0
LINE
  8
1
  6
CONTINUOUS
 62
    52
  5
288
 10
139.287417
 20
295.909417
 30
0.0
 11
129.674083
 21
306.218583
 31
0.0
  0
LINE
  8
1
  6
CONTINUOUS
 62
    52
  5
289
 10
139.211417
 20
295.25775
 30
0.0
 11
129.283417
 21
305.90425
 31
0.0
  0
LINE
  8
1
  6
CONTINUOUS
 62
    52
  5
28A
 10
139.163417
 20
294.576083
 30
0.0
 11
128.892833
 21
305.59
 31
0.0
  0
LINE
  8
1
  6
CONTINUOUS
 62
    52
  5
28B
 10
137.872667
 20
295.227167
 30
0.0
 11
128.50225
 21
305.27575
 31
0.0
  0
LINE
  8
1
  6
CONTINUOUS
 62
    52
  5
28C
 10
137.443333
 20
294.954417
 30
0.0
 11
128.111667
 21
304.9615
 31
0.0
  0
LINE
  8
1
  6
CONTINUOUS
 62
    52
  5
28D
 10
136.904833
 20
294.79875
 30
0.0
 11
127.721
 21
304.64725
 31
0.0
  0
LINE
  8
1
  6
CONTINUOUS
 62
    52
  5
28E
 10
135.8545
 20
295.191833
 30
0.0
 11
127.330417
 21
304.332917
 31
0.0
  0
LINE
  8
1
  6
CONTINUOUS
 62
    52
  5
28F
 10
135.985
 20
294.31875
 30
0.0
 11
126.93975
 21
304.018667
 31
0.0
  0
LINE
  8
1
  6
CONTINUOUS
 62
    52
  5
290
 10
133.587167
 20
313.858833
 30
0.0
 11
125.53425
 21
307.38
 31
0.0
  0
LINE
  8
1
  6
CONTINUOUS
 62
    52
  5
291
 10
134.198083
 20
313.708667
 30
0.0
 11
126.893333
 21
307.831667
 31
0.0
  0
LINE
  8
1
  6
CONTINUOUS
 62
    52
  5
292
 10
136.627167
 20
315.662917
 30
0.0
 11
135.540917
 21
314.789
 31
0.0
  0
LINE
  8
1
  6
CONTINUOUS
 62
    52
  5
293
 10
142.800667
 20
312.28725
 30
0.0
 11
136.914583
 21
307.551667
 31
0.0
  0
LINE
  8
1
  6
CONTINUOUS
 62
    52
  5
294
 10
143.196667
 20
311.964167
 30
0.0
 11
137.88375
 21
307.68975
 31
0.0
  0
LINE
  8
1
  6
CONTINUOUS
 62
    52
  5
295
 10
143.358167
 20
311.452417
 30
0.0
 11
137.67275
 21
306.87825
 31
0.0
  0
LINE
  8
1
  6
CONTINUOUS
 62
    52
  5
296
 10
143.385167
 20
310.832333
 30
0.0
 11
136.87775
 21
305.596917
 31
0.0
  0
LINE
  8
1
  6
CONTINUOUS
 62
    52
  5
297
 10
143.949417
 20
310.644583
 30
0.0
 11
137.191167
 21
305.207333
 31
0.0
  0
LINE
  8
1
  6
CONTINUOUS
 62
    52
  5
298
 10
143.968167
 20
310.017917
 30
0.0
 11
137.504667
 21
304.81775
 31
0.0
  0
LINE
  8
1
  6
CONTINUOUS
 62
    52
  5
299
 10
144.431583
 20
309.749
 30
0.0
 11
137.818083
 21
304.428167
 31
0.0
  0
LINE
  8
1
  6
CONTINUOUS
 62
    52
  5
29A
 10
145.20475
 20
309.729417
 30
0.0
 11
138.1315
 21
304.038667
 31
0.0
  0
LINE
  8
1
  6
CONTINUOUS
 62
    52
  5
29B
 10
153.686667
 20
288.532833
 30
0.0
 11
147.553
 21
281.180833
 31
0.0
  0
LINE
  8
1
  6
CONTINUOUS
 62
    52
  5
29C
 10
153.658917
 20
287.719083
 30
0.0
 11
147.936917
 21
280.8605
 31
0.0
  0
LINE
  8
1
  6
CONTINUOUS
 62
    52
  5
29D
 10
153.631167
 20
286.905333
 30
0.0
 11
148.240333
 21
280.44375
 31
0.0
  0
LINE
  8
1
  6
CONTINUOUS
 62
    52
  5
29E
 10
153.6035
 20
286.091583
 30
0.0
 11
148.584083
 21
280.075167
 31
0.0
  0
LINE
  8
1
  6
CONTINUOUS
 62
    52
  5
29F
 10
153.57575
 20
285.277917
 30
0.0
 11
148.927667
 21
279.706667
 31
0.0
  0
LINE
  8
1
  6
CONTINUOUS
 62
    52
  5
2A0
 10
153.548
 20
284.464167
 30
0.0
 11
149.271417
 21
279.338083
 31
0.0
  0
LINE
  8
1
  6
CONTINUOUS
 62
    52
  5
2A1
 10
153.52025
 20
283.650333
 30
0.0
 11
149.615083
 21
278.9695
 31
0.0
  0
LINE
  8
1
  6
CONTINUOUS
 62
    52
  5
2A2
 10
153.4925
 20
282.836667
 30
0.0
 11
149.95875
 21
278.601
 31
0.0
  0
LINE
  8
1
  6
CONTINUOUS
 62
    52
  5
2A3
 10
153.464833
 20
282.022917
 30
0.0
 11
150.302417
 21
278.232417
 31
0.0
  0
LINE
  8
1
  6
CONTINUOUS
 62
    52
  5
2A4
 10
153.437083
 20
281.209083
 30
0.0
 11
150.646167
 21
277.863833
 31
0.0
  0
LINE
  8
1
  6
CONTINUOUS
 62
    52
  5
2A5
 10
153.409333
 20
280.3955
 30
0.0
 11
150.98975
 21
277.495333
 31
0.0
  0
LINE
  8
1
  6
CONTINUOUS
 62
    52
  5
2A6
 10
153.381583
 20
279.581667
 30
0.0
 11
151.3335
 21
277.12675
 31
0.0
  0
LINE
  8
1
  6
CONTINUOUS
 62
    52
  5
2A7
 10
153.353833
 20
278.767917
 30
0.0
 11
151.677167
 21
276.758167
 31
0.0
  0
LINE
  8
1
  6
CONTINUOUS
 62
    52
  5
2A8
 10
153.326167
 20
277.954167
 30
0.0
 11
152.020833
 21
276.389583
 31
0.0
  0
LINE
  8
1
  6
CONTINUOUS
 62
    52
  5
2A9
 10
153.298417
 20
277.1405
 30
0.0
 11
152.3645
 21
276.021083
 31
0.0
  0
LINE
  8
1
  6
CONTINUOUS
 62
    52
  5
2AA
 10
153.270667
 20
276.326833
 30
0.0
 11
152.708167
 21
275.652583
 31
0.0
  0
LINE
  8
1
  6
CONTINUOUS
 62
    52
  5
2AB
 10
153.25275
 20
275.801583
 30
0.0
 11
147.87575
 21
281.56775
 31
0.0
  0
LINE
  8
1
  6
CONTINUOUS
 62
    52
  5
2AC
 10
153.276833
 20
276.50875
 30
0.0
 11
148.241417
 21
281.908667
 31
0.0
  0
LINE
  8
1
  6
CONTINUOUS
 62
    52
  5
2AD
 10
153.301
 20
277.216083
 30
0.0
 11
148.521417
 21
282.341583
 31
0.0
  0
LINE
  8
1
  6
CONTINUOUS
 62
    52
  5
2AE
 10
153.325083
 20
277.923333
 30
0.0
 11
148.844167
 21
282.7285
 31
0.0
  0
LINE
  8
1
  6
CONTINUOUS
 62
    52
  5
2AF
 10
153.349167
 20
278.630583
 30
0.0
 11
149.167
 21
283.115417
 31
0.0
  0
LINE
  8
1
  6
CONTINUOUS
 62
    52
  5
2B0
 10
153.37325
 20
279.337917
 30
0.0
 11
149.489833
 21
283.502417
 31
0.0
  0
LINE
  8
1
  6
CONTINUOUS
 62
    52
  5
2B1
 10
153.397417
 20
280.045167
 30
0.0
 11
149.812667
 21
283.889333
 31
0.0
  0
LINE
  8
1
  6
CONTINUOUS
 62
    52
  5
2B2
 10
153.4215
 20
280.7525
 30
0.0
 11
150.1355
 21
284.276333
 31
0.0
  0
LINE
  8
1
  6
CONTINUOUS
 62
    52
  5
2B3
 10
153.445583
 20
281.459833
 30
0.0
 11
150.458333
 21
284.66325
 31
0.0
  0
LINE
  8
1
  6
CONTINUOUS
 62
    52
  5
2B4
 10
153.46975
 20
282.167083
 30
0.0
 11
150.781167
 21
285.05025
 31
0.0
  0
LINE
  8
1
  6
CONTINUOUS
 62
    52
  5
2B5
 10
153.493833
 20
282.874417
 30
0.0
 11
151.104
 21
285.437167
 31
0.0
  0
LINE
  8
1
  6
CONTINUOUS
 62
    52
  5
2B6
 10
153.517917
 20
283.581667
 30
0.0
 11
151.426833
 21
285.824083
 31
0.0
  0
LINE
  8
1
  6
CONTINUOUS
 62
    52
  5
2B7
 10
153.542
 20
284.289
 30
0.0
 11
151.749667
 21
286.211083
 31
0.0
  0
LINE
  8
1
  6
CONTINUOUS
 62
    52
  5
2B8
 10
153.566167
 20
284.99625
 30
0.0
 11
152.0725
 21
286.598
 31
0.0
  0
LINE
  8
1
  6
CONTINUOUS
 62
    52
  5
2B9
 10
153.59025
 20
285.7035
 30
0.0
 11
152.395333
 21
286.984917
 31
0.0
  0
LINE
  8
1
  6
CONTINUOUS
 62
    52
  5
2BA
 10
153.614333
 20
286.410917
 30
0.0
 11
152.718167
 21
287.371917
 31
0.0
  0
LINE
  8
1
  6
CONTINUOUS
 62
    52
  5
2BB
 10
153.638417
 20
287.11825
 30
0.0
 11
153.041
 21
287.758917
 31
0.0
  0
LINE
  8
1
  6
CONTINUOUS
 62
    52
  5
2BC
 10
153.662583
 20
287.8255
 30
0.0
 11
153.363833
 21
288.145833
 31
0.0
  0
LINE
  8
1
  6
CONTINUOUS
 62
    52
  5
2BD
 10
154.329333
 20
287.766667
 30
0.0
 11
181.387333
 21
310.470917
 31
0.0
  0
LINE
  8
1
  6
CONTINUOUS
 62
    52
  5
2BE
 10
155.136583
 20
287.791333
 30
0.0
 11
182.131417
 21
310.442583
 31
0.0
  0
LINE
  8
1
  6
CONTINUOUS
 62
    52
  5
2BF
 10
153.986
 20
286.173167
 30
0.0
 11
182.77975
 21
310.333917
 31
0.0
  0
LINE
  8
1
  6
CONTINUOUS
 62
    52
  5
2C0
 10
154.265083
 20
285.754667
 30
0.0
 11
183.428083
 21
310.225167
 31
0.0
  0
LINE
  8
1
  6
CONTINUOUS
 62
    52
  5
2C1
 10
156.877833
 20
287.29425
 30
0.0
 11
184.076417
 21
310.1165
 31
0.0
  0
LINE
  8
1
  6
CONTINUOUS
 62
    52
  5
2C2
 10
155.799667
 20
285.736917
 30
0.0
 11
184.724667
 21
310.00775
 31
0.0
  0
LINE
  8
1
  6
CONTINUOUS
 62
    52
  5
2C3
 10
156.87775
 20
285.988833
 30
0.0
 11
185.373
 21
309.899083
 31
0.0
  0
LINE
  8
1
  6
CONTINUOUS
 62
    52
  5
2C4
 10
157.393667
 20
285.769
 30
0.0
 11
186.021333
 21
309.790333
 31
0.0
  0
LINE
  8
1
  6
CONTINUOUS
 62
    52
  5
2C5
 10
153.750167
 20
282.059083
 30
0.0
 11
186.669583
 21
309.681667
 31
0.0
  0
LINE
  8
1
  6
CONTINUOUS
 62
    52
  5
2C6
 10
153.742667
 20
281.400083
 30
0.0
 11
187.317917
 21
309.572917
 31
0.0
  0
LINE
  8
1
  6
CONTINUOUS
 62
    52
  5
2C7
 10
156.525667
 20
283.0825
 30
0.0
 11
187.96625
 21
309.46425
 31
0.0
  0
LINE
  8
1
  6
CONTINUOUS
 62
    52
  5
2C8
 10
156.1135
 20
282.084
 30
0.0
 11
188.51875
 21
309.275083
 31
0.0
  0
LINE
  8
1
  6
CONTINUOUS
 62
    52
  5
2C9
 10
153.83775
 20
279.52175
 30
0.0
 11
189.262833
 21
309.246833
 31
0.0
  0
LINE
  8
1
  6
CONTINUOUS
 62
    52
  5
2CA
 10
155.964083
 20
280.65325
 30
0.0
 11
189.815333
 21
309.057667
 31
0.0
  0
LINE
  8
1
  6
CONTINUOUS
 62
    52
  5
2CB
 10
153.816333
 20
278.198333
 30
0.0
 11
190.463667
 21
308.949
 31
0.0
  0
LINE
  8
1
  6
CONTINUOUS
 62
    52
  5
2CC
 10
153.904167
 20
277.619333
 30
0.0
 11
191.20775
 21
308.920667
 31
0.0
  0
LINE
  8
1
  6
CONTINUOUS
 62
    52
  5
2CD
 10
155.290083
 20
278.129583
 30
0.0
 11
191.856083
 21
308.812
 31
0.0
  0
LINE
  8
1
  6
CONTINUOUS
 62
    52
  5
2CE
 10
154.008
 20
288.14975
 30
0.0
 11
180.834833
 21
310.660083
 31
0.0
  0
LINE
  8
1
  6
CONTINUOUS
 62
    52
  5
2CF
 10
181.057333
 20
310.71925
 30
0.0
 11
187.742833
 21
314.579167
 31
0.0
  0
LINE
  8
1
  6
CONTINUOUS
 62
    52
  5
2D0
 10
180.282333
 20
310.849167
 30
0.0
 11
187.392833
 21
314.954417
 31
0.0
  0
LINE
  8
1
  6
CONTINUOUS
 62
    52
  5
2D1
 10
181.832167
 20
310.58925
 30
0.0
 11
188.09275
 21
314.203833
 31
0.0
  0
LINE
  8
1
  6
CONTINUOUS
 62
    52
  5
2D2
 10
182.607167
 20
310.459333
 30
0.0
 11
188.44275
 21
313.8285
 31
0.0
  0
LINE
  8
1
  6
CONTINUOUS
 62
    52
  5
2D3
 10
183.382
 20
310.329417
 30
0.0
 11
188.792667
 21
313.45325
 31
0.0
  0
LINE
  8
1
  6
CONTINUOUS
 62
    52
  5
2D4
 10
184.156833
 20
310.1995
 30
0.0
 11
189.142667
 21
313.078
 31
0.0
  0
LINE
  8
1
  6
CONTINUOUS
 62
    52
  5
2D5
 10
184.931917
 20
310.0695
 30
0.0
 11
189.492667
 21
312.702667
 31
0.0
  0
LINE
  8
1
  6
CONTINUOUS
 62
    52
  5
2D6
 10
185.706833
 20
309.939583
 30
0.0
 11
189.842583
 21
312.327417
 31
0.0
  0
LINE
  8
1
  6
CONTINUOUS
 62
    52
  5
2D7
 10
186.48175
 20
309.809667
 30
0.0
 11
190.1925
 21
311.952167
 31
0.0
  0
LINE
  8
1
  6
CONTINUOUS
 62
    52
  5
2D8
 10
187.256667
 20
309.67975
 30
0.0
 11
190.5425
 21
311.576833
 31
0.0
  0
LINE
  8
1
  6
CONTINUOUS
 62
    52
  5
2D9
 10
188.031667
 20
309.54975
 30
0.0
 11
190.8925
 21
311.2015
 31
0.0
  0
LINE
  8
1
  6
CONTINUOUS
 62
    52
  5
2DA
 10
188.806667
 20
309.419833
 30
0.0
 11
191.2425
 21
310.826167
 31
0.0
  0
LINE
  8
1
  6
CONTINUOUS
 62
    52
  5
2DB
 10
189.581583
 20
309.289833
 30
0.0
 11
191.5925
 21
310.450833
 31
0.0
  0
LINE
  8
1
  6
CONTINUOUS
 62
    52
  5
2DC
 10
190.356333
 20
309.16
 30
0.0
 11
191.942333
 21
310.075667
 31
0.0
  0
LINE
  8
1
  6
CONTINUOUS
 62
    52
  5
2DD
 10
191.131333
 20
309.03
 30
0.0
 11
192.292417
 21
309.700333
 31
0.0
  0
LINE
  8
1
  6
CONTINUOUS
 62
    52
  5
2DE
 10
191.90625
 20
308.900083
 30
0.0
 11
192.642333
 21
309.325083
 31
0.0
  0
LINE
  8
1
  6
CONTINUOUS
 62
    52
  5
2DF
 10
192.681333
 20
308.770083
 30
0.0
 11
192.992333
 21
308.949667
 31
0.0
  0
LINE
  8
1
  6
CONTINUOUS
 62
    52
  5
2E0
 10
154.420167
 20
276.7465
 30
0.0
 11
192.449917
 21
308.657583
 31
0.0
  0
LINE
  8
1
  6
CONTINUOUS
 62
    52
  5
2E1
 10
187.037167
 20
303.463
 30
0.0
 11
192.867167
 21
308.355
 31
0.0
  0
LINE
  8
1
  6
CONTINUOUS
 62
    52
  5
2E2
 10
168.699
 20
335.001083
 30
0.0
 11
161.056167
 21
331.46675
 31
0.0
  0
LINE
  8
1
  6
CONTINUOUS
 62
    52
  5
2E3
 10
168.340167
 20
335.385917
 30
0.0
 11
161.36175
 21
332.158917
 31
0.0
  0
LINE
  8
1
  6
CONTINUOUS
 62
    52
  5
2E4
 10
167.98125
 20
335.770833
 30
0.0
 11
161.667333
 21
332.851083
 31
0.0
  0
LINE
  8
1
  6
CONTINUOUS
 62
    52
  5
2E5
 10
167.622333
 20
336.15575
 30
0.0
 11
161.972833
 21
333.543167
 31
0.0
  0
LINE
  8
1
  6
CONTINUOUS
 62
    52
  5
2E6
 10
167.263417
 20
336.540667
 30
0.0
 11
162.278417
 21
334.235583
 31
0.0
  0
LINE
  8
1
  6
CONTINUOUS
 62
    52
  5
2E7
 10
166.9045
 20
336.925583
 30
0.0
 11
162.584
 21
334.927667
 31
0.0
  0
LINE
  8
1
  6
CONTINUOUS
 62
    52
  5
2E8
 10
166.545583
 20
337.310417
 30
0.0
 11
162.8895
 21
335.61975
 31
0.0
  0
LINE
  8
1
  6
CONTINUOUS
 62
    52
  5
2E9
 10
166.186583
 20
337.695417
 30
0.0
 11
163.195167
 21
336.312083
 31
0.0
  0
LINE
  8
1
  6
CONTINUOUS
 62
    52
  5
2EA
 10
165.82775
 20
338.080167
 30
0.0
 11
163.500667
 21
337.004167
 31
0.0
  0
LINE
  8
1
  6
CONTINUOUS
 62
    52
  5
2EB
 10
170.679167
 20
332.877667
 30
0.0
 11
163.449583
 21
328.900167
 31
0.0
  0
LINE
  8
1
  6
CONTINUOUS
 62
    52
  5
2EC
 10
163.449583
 20
328.900167
 30
0.0
 11
144.971417
 21
314.033667
 31
0.0
  0
LINE
  8
1
  6
CONTINUOUS
 62
    52
  5
2ED
 10
171.030833
 20
332.5005
 30
0.0
 11
163.801167
 21
328.523083
 31
0.0
  0
LINE
  8
1
  6
CONTINUOUS
 62
    52
  5
2EE
 10
163.791417
 20
328.5335
 30
0.0
 11
145.056333
 21
313.460417
 31
0.0
  0
LINE
  8
1
  6
CONTINUOUS
 62
    52
  5
2EF
 10
171.382667
 20
332.123333
 30
0.0
 11
164.152917
 21
328.145917
 31
0.0
  0
LINE
  8
1
  6
CONTINUOUS
 62
    52
  5
2F0
 10
164.133417
 20
328.166833
 30
0.0
 11
145.6115
 21
313.265333
 31
0.0
  0
LINE
  8
1
  6
CONTINUOUS
 62
    52
  5
2F1
 10
171.734333
 20
331.746167
 30
0.0
 11
164.504583
 21
327.76875
 31
0.0
  0
LINE
  8
1
  6
CONTINUOUS
 62
    52
  5
2F2
 10
164.47525
 20
327.80025
 30
0.0
 11
145.554833
 21
312.578
 31
0.0
  0
LINE
  8
1
  6
CONTINUOUS
 62
    52
  5
2F3
 10
172.086
 20
331.369
 30
0.0
 11
164.856417
 21
327.3915
 31
0.0
  0
LINE
  8
1
  6
CONTINUOUS
 62
    52
  5
2F4
 10
164.817167
 20
327.433583
 30
0.0
 11
146.529
 21
312.72
 31
0.0
  0
LINE
  8
1
  6
CONTINUOUS
 62
    52
  5
2F5
 10
172.43775
 20
330.991833
 30
0.0
 11
165.208167
 21
327.014333
 31
0.0
  0
LINE
  8
1
  6
CONTINUOUS
 62
    52
  5
2F6
 10
165.159083
 20
327.066833
 30
0.0
 11
146.656917
 21
312.181083
 31
0.0
  0
LINE
  8
1
  6
CONTINUOUS
 62
    52
  5
2F7
 10
172.7895
 20
330.614667
 30
0.0
 11
165.559833
 21
326.637083
 31
0.0
  0
LINE
  8
1
  6
CONTINUOUS
 62
    52
  5
2F8
 10
165.501083
 20
326.700167
 30
0.0
 11
146.86125
 21
311.70375
 31
0.0
  0
LINE
  8
1
  6
CONTINUOUS
 62
    52
  5
2F9
 10
173.141167
 20
330.2375
 30
0.0
 11
165.911583
 21
326.259917
 31
0.0
  0
LINE
  8
1
  6
CONTINUOUS
 62
    52
  5
2FA
 10
165.842917
 20
326.333583
 30
0.0
 11
147.592667
 21
311.650583
 31
0.0
  0
LINE
  8
1
  6
CONTINUOUS
 62
    52
  5
2FB
 10
173.492917
 20
329.86025
 30
0.0
 11
166.26325
 21
325.882833
 31
0.0
  0
LINE
  8
1
  6
CONTINUOUS
 62
    52
  5
2FC
 10
165.468833
 20
338.465083
 30
0.0
 11
163.806167
 21
337.69625
 31
0.0
  0
LINE
  8
1
  6
CONTINUOUS
 62
    52
  5
2FD
 10
165.109917
 20
338.85
 30
0.0
 11
164.11175
 21
338.388417
 31
0.0
  0
LINE
  8
1
  6
CONTINUOUS
 62
    52
  5
2FE
 10
164.751
 20
339.234833
 30
0.0
 11
164.417333
 21
339.080583
 31
0.0
  0
ARC
  8
1
  6
CONTINUOUS
 62
    52
  5
2FF
 10
167.841318
 20
337.56734
 30
0.0
 40
5.0
 50
100.400839
 51
128.818575
210
0.0
220
0.0
230
1.0
  0
LINE
  8
1
  6
CONTINUOUS
 62
    52
  5
300
 10
166.938583
 20
342.485167
 30
0.0
 11
182.36925
 21
343.628583
 31
0.0
  0
LINE
  8
1
  6
CONTINUOUS
 62
    52
  5
301
 10
163.546917
 20
337.962667
 30
0.0
 11
157.813083
 21
333.349583
 31
0.0
  0
LINE
  8
1
  6
CONTINUOUS
 62
    52
  5
302
 10
156.5375
 20
332.323333
 30
0.0
 11
135.164417
 21
315.127917
 31
0.0
  0
LINE
  8
1
  6
CONTINUOUS
 62
    52
  5
303
 10
162.717833
 20
336.653917
 30
0.0
 11
158.228167
 21
333.04175
 31
0.0
  0
LINE
  8
1
  6
CONTINUOUS
 62
    52
  5
304
 10
156.83575
 20
331.921583
 30
0.0
 11
137.93475
 21
316.714917
 31
0.0
  0
LINE
  8
1
  6
CONTINUOUS
 62
    52
  5
305
 10
162.863083
 20
336.129
 30
0.0
 11
158.792583
 21
332.854083
 31
0.0
  0
LINE
  8
1
  6
CONTINUOUS
 62
    52
  5
306
 10
157.037
 20
331.441667
 30
0.0
 11
135.6335
 21
314.22175
 31
0.0
  0
LINE
  8
1
  6
CONTINUOUS
 62
    52
  5
307
 10
162.034
 20
334.82025
 30
0.0
 11
159.100583
 21
332.460167
 31
0.0
  0
LINE
  8
1
  6
CONTINUOUS
 62
    52
  5
308
 10
157.522833
 20
331.190833
 30
0.0
 11
137.36475
 21
314.972833
 31
0.0
  0
LINE
  8
1
  6
CONTINUOUS
 62
    52
  5
309
 10
161.984417
 20
334.138667
 30
0.0
 11
159.116167
 21
331.831083
 31
0.0
  0
LINE
  8
1
  6
CONTINUOUS
 62
    52
  5
30A
 10
157.550417
 20
330.571333
 30
0.0
 11
137.241833
 21
314.232333
 31
0.0
  0
LINE
  8
1
  6
CONTINUOUS
 62
    52
  5
30B
 10
161.35025
 20
332.986667
 30
0.0
 11
159.236417
 21
331.286
 31
0.0
  0
LINE
  8
1
  6
CONTINUOUS
 62
    52
  5
30C
 10
157.546167
 20
329.926167
 30
0.0
 11
138.414917
 21
314.534333
 31
0.0
  0
LINE
  8
1
  6
CONTINUOUS
 62
    52
  5
30D
 10
192.642667
 20
332.6115
 30
0.0
 11
188.705083
 21
331.907083
 31
0.0
  0
LINE
  8
1
  6
CONTINUOUS
 62
    52
  5
30E
 10
193.860583
 20
331.3055
 30
0.0
 11
188.969167
 21
330.4305
 31
0.0
  0
ARC
  8
1
  6
CONTINUOUS
 62
    52
  5
30F
 10
188.76522
 20
331.155932
 30
0.0
 40
0.753555
 50
94.577292
 51
285.702711
210
0.0
220
0.0
230
1.0
  0
LINE
  8
1
  6
CONTINUOUS
 62
    52
  5
310
 10
192.642667
 20
332.6115
 30
0.0
 11
192.642667
 21
333.478083
 31
0.0
  0
LINE
  8
1
  6
CONTINUOUS
 62
    52
  5
311
 10
193.860583
 20
331.3055
 30
0.0
 11
193.860583
 21
332.172083
 31
0.0
  0
LINE
  8
1
  6
CONTINUOUS
 62
    52
  5
312
 10
192.642667
 20
333.1115
 30
0.0
 11
193.860583
 21
331.8055
 31
0.0
  0
LINE
  8
1
  6
CONTINUOUS
 62
    52
  5
313
 10
192.642667
 20
333.478083
 30
0.0
 11
193.860583
 21
332.172083
 31
0.0
  0
ARC
  8
1
  6
CONTINUOUS
 62
    52
  5
314
 10
193.602918
 20
331.32712
 30
0.0
 40
0.543358
 50
329.793853
 51
61.692203
210
0.0
220
0.0
230
1.0
  0
LINE
  8
1
  6
CONTINUOUS
 62
    52
  5
315
 10
134.136333
 20
288.39
 30
0.0
 11
131.684083
 21
286.012417
 31
0.0
  0
ARC
  8
1
  6
CONTINUOUS
 62
    52
  5
316
 10
132.774041
 20
290.603384
 30
0.0
 40
2.599021
 50
301.611436
 51
335.479747
210
0.0
220
0.0
230
1.0
  0
LINE
  8
1
  6
CONTINUOUS
 62
    52
  5
317
 10
135.180417
 20
287.313
 30
0.0
 11
132.744667
 21
284.951417
 31
0.0
  0
ARC
  8
1
  6
CONTINUOUS
 62
    52
  5
318
 10
133.97522
 20
289.387621
 30
0.0
 40
2.399281
 50
300.153325
 51
336.937856
210
0.0
220
0.0
230
1.0
  0
ARC
  8
1
  6
CONTINUOUS
 62
    52
  5
319
 10
135.220521
 20
288.559516
 30
0.0
 40
0.968699
 50
353.374608
 51
94.847211
210
0.0
220
0.0
230
1.0
  0
ARC
  8
1
  6
CONTINUOUS
 62
    52
  5
31A
 10
135.218915
 20
288.196204
 30
0.0
 40
1.249972
 50
356.049319
 51
56.104456
210
0.0
220
0.0
230
1.0
  0
LINE
  8
1
  6
CONTINUOUS
 62
    52
  5
31B
 10
136.465917
 20
288.110083
 30
0.0
 11
133.18125
 21
284.291083
 31
0.0
  0
ARC
  8
1
  6
CONTINUOUS
 62
    52
  5
31C
 10
133.115329
 20
284.788314
 30
0.0
 40
0.501581
 50
193.010783
 51
277.552033
210
0.0
220
0.0
230
1.0
  0
LINE
  8
1
  6
CONTINUOUS
 62
    52
  5
31D
 10
132.744667
 20
284.951417
 30
0.0
 11
131.684083
 21
286.012417
 31
0.0
  0
LINE
  8
1
  6
CONTINUOUS
 62
    52
  5
31E
 10
132.433083
 20
284.609333
 30
0.0
 11
131.3325
 21
285.710333
 31
0.0
  0
ARC
  8
1
  6
CONTINUOUS
 62
    52
  5
31F
 10
132.434872
 20
284.920647
 30
0.0
 40
0.311319
 50
269.670739
 51
5.672211
210
0.0
220
0.0
230
1.0
  0
ARC
  8
1
  6
CONTINUOUS
 62
    52
  5
320
 10
131.645443
 20
285.70175
 30
0.0
 40
0.313061
 50
82.910075
 51
178.428822
210
0.0
220
0.0
230
1.0
  0
LINE
  8
1
  6
CONTINUOUS
 62
    52
  5
321
 10
135.138667
 20
289.52475
 30
0.0
 11
136.18275
 21
288.44775
 31
0.0
  0
LINE
  8
1
  6
CONTINUOUS
 62
    52
  5
322
 10
134.136333
 20
288.39
 30
0.0
 11
135.180417
 21
287.313
 31
0.0
  0
LINE
  8
1
  6
CONTINUOUS
 62
    52
  5
323
 10
133.18125
 20
284.291083
 30
0.0
 11
132.085333
 21
283.874167
 31
0.0
  0
LINE
  8
1
  6
CONTINUOUS
 62
    52
  5
324
 10
133.766917
 20
284.234583
 30
0.0
 11
131.996083
 21
283.560917
 31
0.0
  0
ARC
  8
1
  6
CONTINUOUS
 62
    52
  5
325
 10
132.231282
 20
283.663244
 30
0.0
 40
0.256494
 50
124.681431
 51
203.512347
210
0.0
220
0.0
230
1.0
  0
LINE
  8
1
  6
CONTINUOUS
 62
    52
  5
326
 10
131.996083
 20
283.560917
 30
0.0
 11
130.731417
 21
284.7185
 31
0.0
  0
ARC
  8
1
  6
CONTINUOUS
 62
    52
  5
327
 10
131.964112
 20
284.375224
 30
0.0
 40
1.2796
 50
111.868008
 51
164.438772
210
0.0
220
0.0
230
1.0
  0
LINE
  8
1
  6
CONTINUOUS
 62
    52
  5
328
 10
132.315167
 20
283.961583
 30
0.0
 11
130.975583
 21
285.18775
 31
0.0
  0
LINE
  8
1
  6
CONTINUOUS
 62
    52
  5
329
 10
151.024
 20
265.728667
 30
0.0
 11
133.437
 21
284.588417
 31
0.0
  0
LINE
  8
1
  6
CONTINUOUS
 62
    52
  5
32A
 10
131.907333
 20
286.228833
 30
0.0
 11
117.606083
 21
301.565
 31
0.0
  0
LINE
  8
1
  6
CONTINUOUS
 62
    52
  5
32B
 10
186.672583
 20
289.773917
 30
0.0
 11
186.62475
 21
286.395333
 31
0.0
  0
LINE
  8
1
  6
CONTINUOUS
 62
    52
  5
32C
 10
174.555667
 20
281.600917
 30
0.0
 11
174.494833
 21
277.304583
 31
0.0
  0
LINE
  8
1
  6
CONTINUOUS
 62
    52
  5
32D
 10
186.62475
 20
286.395333
 30
0.0
 11
174.494833
 21
277.304583
 31
0.0
  0
LINE
  8
1
  6
CONTINUOUS
 62
    52
  5
32E
 10
174.555667
 20
281.600917
 30
0.0
 11
172.933667
 21
277.688917
 31
0.0
  0
LINE
  8
1
  6
CONTINUOUS
 62
    52
  5
32F
 10
172.933667
 20
277.688917
 30
0.0
 11
174.494833
 21
277.304583
 31
0.0
  0
POLYLINE
  8
1
  6
CONTINUOUS
 62
    52
  5
330
 66
     1
 10
0.0
 20
0.0
 30
0.0
 70
     1
210
0.0
220
0.0
230
1.0
  0
VERTEX
  8
1
  6
CONTINUOUS
 62
    52
  5
331
 10
197.114182
 20
289.026353
 30
0.0
 42
0.087635
  0
VERTEX
  8
1
  6
CONTINUOUS
 62
    52
  5
332
 10
197.01804
 20
289.119527
 30
0.0
 42
0.075085
  0
VERTEX
  8
1
  6
CONTINUOUS
 62
    52
  5
333
 10
196.88694
 20
289.181384
 30
0.0
 42
0.059242
  0
VERTEX
  8
1
  6
CONTINUOUS
 62
    52
  5
334
 10
196.725921
 20
289.209545
 30
0.0
 42
0.046354
  0
VERTEX
  8
1
  6
CONTINUOUS
 62
    52
  5
335
 10
196.541171
 20
289.202928
 30
0.0
 42
0.037482
  0
VERTEX
  8
1
  6
CONTINUOUS
 62
    52
  5
336
 10
196.339789
 20
289.161789
 30
0.0
 42
0.031838
  0
VERTEX
  8
1
  6
CONTINUOUS
 62
    52
  5
337
 10
196.129514
 20
289.087707
 30
0.0
 42
0.028543
  0
VERTEX
  8
1
  6
CONTINUOUS
 62
    52
  5
338
 10
195.918427
 20
288.98353
 30
0.0
 42
0.027029
  0
VERTEX
  8
1
  6
CONTINUOUS
 62
    52
  5
339
 10
195.71464
 20
288.853261
 30
0.0
 42
0.027029
  0
VERTEX
  8
1
  6
CONTINUOUS
 62
    52
  5
33A
 10
195.525985
 20
288.701907
 30
0.0
 42
0.028543
  0
VERTEX
  8
1
  6
CONTINUOUS
 62
    52
  5
33B
 10
195.35971
 20
288.535283
 30
0.0
 42
0.031838
  0
VERTEX
  8
1
  6
CONTINUOUS
 62
    52
  5
33C
 10
195.222207
 20
288.359793
 30
0.0
 42
0.037482
  0
VERTEX
  8
1
  6
CONTINUOUS
 62
    52
  5
33D
 10
195.11876
 20
288.182182
 30
0.0
 42
0.046354
  0
VERTEX
  8
1
  6
CONTINUOUS
 62
    52
  5
33E
 10
195.053343
 20
288.009274
 30
0.0
 42
0.059242
  0
VERTEX
  8
1
  6
CONTINUOUS
 62
    52
  5
33F
 10
195.028471
 20
287.847714
 30
0.0
 42
0.075085
  0
VERTEX
  8
1
  6
CONTINUOUS
 62
    52
  5
340
 10
195.045099
 20
287.703712
 30
0.0
 42
0.087635
  0
VERTEX
  8
1
  6
CONTINUOUS
 62
    52
  5
341
 10
195.102589
 20
287.5828
 30
0.0
 42
0.087635
  0
VERTEX
  8
1
  6
CONTINUOUS
 62
    52
  5
342
 10
195.198731
 20
287.489625
 30
0.0
 42
0.075085
  0
VERTEX
  8
1
  6
CONTINUOUS
 62
    52
  5
343
 10
195.329831
 20
287.427769
 30
0.0
 42
0.059242
  0
VERTEX
  8
1
  6
CONTINUOUS
 62
    52
  5
344
 10
195.49085
 20
287.399608
 30
0.0
 42
0.046354
  0
VERTEX
  8
1
  6
CONTINUOUS
 62
    52
  5
345
 10
195.6756
 20
287.406225
 30
0.0
 42
0.037482
  0
VERTEX
  8
1
  6
CONTINUOUS
 62
    52
  5
346
 10
195.876982
 20
287.447364
 30
0.0
 42
0.031838
  0
VERTEX
  8
1
  6
CONTINUOUS
 62
    52
  5
347
 10
196.087257
 20
287.521446
 30
0.0
 42
0.028543
  0
VERTEX
  8
1
  6
CONTINUOUS
 62
    52
  5
348
 10
196.298344
 20
287.625623
 30
0.0
 42
0.027029
  0
VERTEX
  8
1
  6
CONTINUOUS
 62
    52
  5
349
 10
196.502131
 20
287.755892
 30
0.0
 42
0.027029
  0
VERTEX
  8
1
  6
CONTINUOUS
 62
    52
  5
34A
 10
196.690786
 20
287.907246
 30
0.0
 42
0.028543
  0
VERTEX
  8
1
  6
CONTINUOUS
 62
    52
  5
34B
 10
196.857061
 20
288.07387
 30
0.0
 42
0.031838
  0
VERTEX
  8
1
  6
CONTINUOUS
 62
    52
  5
34C
 10
196.994563
 20
288.249359
 30
0.0
 42
0.037482
  0
VERTEX
  8
1
  6
CONTINUOUS
 62
    52
  5
34D
 10
197.098011
 20
288.426971
 30
0.0
 42
0.046354
  0
VERTEX
  8
1
  6
CONTINUOUS
 62
    52
  5
34E
 10
197.163428
 20
288.599879
 30
0.0
 42
0.059242
  0
VERTEX
  8
1
  6
CONTINUOUS
 62
    52
  5
34F
 10
197.1883
 20
288.761439
 30
0.0
 42
0.075085
  0
VERTEX
  8
1
  6
CONTINUOUS
 62
    52
  5
350
 10
197.171672
 20
288.905441
 30
0.0
 42
0.087635
  0
SEQEND
  8
1
  6
CONTINUOUS
 62
    52
  5
351
  0
LINE
  8
1
  6
CONTINUOUS
 62
    52
  5
352
 10
195.047083
 20
287.696917
 30
0.0
 11
197.023917
 21
289.115417
 31
0.0
  0
LINE
  8
1
  6
CONTINUOUS
 62
    52
  5
353
 10
195.192833
 20
287.493667
 30
0.0
 11
197.169667
 21
288.91225
 31
0.0
  0
TEXT
  8
1
  6
CONTINUOUS
 62
     7
  5
354
 10
168.457833
 20
242.23875
 30
0.0
 40
4.0
  1
 3/4  FRONT VIEW (TILTED FORWARD)
  7
MONOTXT
210
0.0
220
0.0
230
1.0
  0
LINE
  8
1
  6
CONTINUOUS
 62
     7
  5
355
 10
167.143167
 20
240.134583
 30
0.0
 11
284.12175
 21
240.134583
 31
0.0
  0
LINE
  8
1
  6
CONTINUOUS
 62
    92
  5
356
 10
243.028333
 20
311.151417
 30
0.0
 11
294.807583
 21
273.124
 31
0.0
  0
LINE
  8
1
  6
CONTINUOUS
 62
    92
  5
357
 10
301.283667
 20
273.599417
 30
0.0
 11
348.185333
 21
319.997833
 31
0.0
  0
LINE
  8
1
  6
CONTINUOUS
 62
    92
  5
358
 10
294.834167
 20
261.693667
 30
0.0
 11
245.00325
 21
296.898167
 31
0.0
  0
LINE
  8
1
  6
CONTINUOUS
 62
    92
  5
359
 10
341.542083
 20
313.425917
 30
0.0
 11
315.90575
 21
276.668417
 31
0.0
  0
LINE
  8
1
  6
CONTINUOUS
 62
    92
  5
35A
 10
315.90575
 20
276.668417
 30
0.0
 11
301.227417
 21
262.214667
 31
0.0
  0
ARC
  8
1
  6
CONTINUOUS
 62
    92
  5
35B
 10
297.882484
 20
277.163758
 30
0.0
 40
5.0
 50
233.705636
 51
314.69135
210
0.0
220
0.0
230
1.0
  0
ARC
  8
1
  6
CONTINUOUS
 62
    92
  5
35C
 10
297.842473
 20
265.788972
 30
0.0
 40
5.0
 50
234.759658
 51
314.557994
210
0.0
220
0.0
230
1.0
  0
ARC
  8
1
  6
CONTINUOUS
 62
    92
  5
35D
 10
297.882497
 20
283.762971
 30
0.0
 40
5.0
 50
233.705933
 51
314.690881
210
0.0
220
0.0
230
1.0
  0
ARC
  8
1
  6
CONTINUOUS
 62
    92
  5
35E
 10
322.146796
 20
327.466304
 30
0.0
 40
18.568403
 50
320.7657
 51
15.073122
210
0.0
220
0.0
230
1.0
  0
LINE
  8
1
  6
CONTINUOUS
 62
    92
  5
35F
 10
343.5585
 20
326.638417
 30
0.0
 11
341.350667
 21
333.36525
 31
0.0
  0
ARC
  8
1
  6
CONTINUOUS
 62
    92
  5
360
 10
341.264584
 20
321.85958
 30
0.0
 40
7.16679
 50
344.943342
 51
75.454614
210
0.0
220
0.0
230
1.0
  0
LINE
  8
1
  6
CONTINUOUS
 62
    92
  5
361
 10
338.855167
 20
336.268583
 30
0.0
 11
288.7545
 21
361.587917
 31
0.0
  0
ARC
  8
1
  6
CONTINUOUS
 62
    92
  5
362
 10
336.599977
 20
331.806064
 30
0.0
 40
5.0
 50
18.170128
 51
63.189583
210
0.0
220
0.0
230
1.0
  0
ARC
  8
1
  6
CONTINUOUS
 62
    92
  5
363
 10
338.807842
 20
325.079216
 30
0.0
 40
5.0
 50
314.691181
 51
18.170569
210
0.0
220
0.0
230
1.0
  0
LINE
  8
1
  6
CONTINUOUS
 62
    92
  5
364
 10
248.26275
 20
320.484917
 30
0.0
 11
246.398833
 21
314.394167
 31
0.0
  0
LINE
  8
1
  6
CONTINUOUS
 62
    92
  5
365
 10
337.503583
 20
335.457333
 30
0.0
 11
288.0895
 21
360.429667
 31
0.0
  0
LINE
  8
1
  6
CONTINUOUS
 62
    92
  5
366
 10
292.626667
 20
300.152917
 30
0.0
 11
263.600917
 21
320.535333
 31
0.0
  0
LINE
  8
1
  6
CONTINUOUS
 62
    92
  5
367
 10
293.479
 20
298.943417
 30
0.0
 11
261.884333
 21
321.129583
 31
0.0
  0
LINE
  8
1
  6
CONTINUOUS
 62
    92
  5
368
 10
293.163583
 20
298.553917
 30
0.0
 11
262.440833
 21
320.127917
 31
0.0
  0
LINE
  8
1
  6
CONTINUOUS
 62
    92
  5
369
 10
308.926417
 20
295.460167
 30
0.0
 11
313.868417
 21
293.555667
 31
0.0
  0
LINE
  8
1
  6
CONTINUOUS
 62
    92
  5
36A
 10
308.634333
 20
295.036833
 30
0.0
 11
313.606333
 21
293.120833
 31
0.0
  0
LINE
  8
1
  6
CONTINUOUS
 62
    92
  5
36B
 10
307.97275
 20
294.755833
 30
0.0
 11
313.587583
 21
292.592083
 31
0.0
  0
LINE
  8
1
  6
CONTINUOUS
 62
    92
  5
36C
 10
307.786417
 20
294.291833
 30
0.0
 11
313.015417
 21
292.27675
 31
0.0
  0
LINE
  8
1
  6
CONTINUOUS
 62
    92
  5
36D
 10
307.388667
 20
293.909333
 30
0.0
 11
312.300917
 21
292.01625
 31
0.0
  0
LINE
  8
1
  6
CONTINUOUS
 62
    92
  5
36E
 10
307.149583
 20
293.465583
 30
0.0
 11
311.889583
 21
291.639
 31
0.0
  0
LINE
  8
1
  6
CONTINUOUS
 62
    92
  5
36F
 10
307.022667
 20
292.978667
 30
0.0
 11
311.6985
 21
291.17675
 31
0.0
  0
LINE
  8
1
  6
CONTINUOUS
 62
    92
  5
370
 10
306.742833
 20
292.550667
 30
0.0
 11
311.519167
 21
290.710083
 31
0.0
  0
LINE
  8
1
  6
CONTINUOUS
 62
    92
  5
371
 10
303.672167
 20
288.911417
 30
0.0
 11
307.988917
 21
287.247917
 31
0.0
  0
LINE
  8
1
  6
CONTINUOUS
 62
    92
  5
372
 10
303.412833
 20
288.4755
 30
0.0
 11
307.5775
 21
286.870583
 31
0.0
  0
LINE
  8
1
  6
CONTINUOUS
 62
    92
  5
373
 10
302.9775
 20
288.107417
 30
0.0
 11
307.338333
 21
286.426833
 31
0.0
  0
LINE
  8
1
  6
CONTINUOUS
 62
    92
  5
374
 10
302.665
 20
287.692
 30
0.0
 11
306.95
 21
286.04075
 31
0.0
  0
LINE
  8
1
  6
CONTINUOUS
 62
    92
  5
375
 10
302.342167
 20
287.280583
 30
0.0
 11
306.253833
 21
285.773167
 31
0.0
  0
LINE
  8
1
  6
CONTINUOUS
 62
    92
  5
376
 10
301.986667
 20
286.88175
 30
0.0
 11
306.186917
 21
285.263083
 31
0.0
  0
LINE
  8
1
  6
CONTINUOUS
 62
    92
  5
377
 10
301.711
 20
286.452083
 30
0.0
 11
305.5735
 21
284.963667
 31
0.0
  0
LINE
  8
1
  6
CONTINUOUS
 62
    92
  5
378
 10
301.28175
 20
286.081667
 30
0.0
 11
305.364167
 21
284.5085
 31
0.0
  0
LINE
  8
1
  6
CONTINUOUS
 62
    92
  5
379
 10
300.825833
 20
285.7215
 30
0.0
 11
304.769
 21
284.201917
 31
0.0
  0
LINE
  8
1
  6
CONTINUOUS
 62
    92
  5
37A
 10
300.29025
 20
285.392167
 30
0.0
 11
304.63775
 21
283.71675
 31
0.0
  0
LINE
  8
1
  6
CONTINUOUS
 62
    92
  5
37B
 10
299.633667
 20
285.10925
 30
0.0
 11
304.143667
 21
283.37125
 31
0.0
  0
LINE
  8
1
  6
CONTINUOUS
 62
    92
  5
37C
 10
298.91775
 20
284.84925
 30
0.0
 11
303.505083
 21
283.0815
 31
0.0
  0
LINE
  8
1
  6
CONTINUOUS
 62
    92
  5
37D
 10
298.7195
 20
284.389917
 30
0.0
 11
303.438167
 21
282.5715
 31
0.0
  0
LINE
  8
1
  6
CONTINUOUS
 62
    92
  5
37E
 10
298.927583
 20
283.773917
 30
0.0
 11
302.962417
 21
282.219
 31
0.0
  0
LINE
  8
1
  6
CONTINUOUS
 62
    92
  5
37F
 10
298.683667
 20
283.331917
 30
0.0
 11
302.443083
 21
281.88325
 31
0.0
  0
LINE
  8
1
  6
CONTINUOUS
 62
    92
  5
380
 10
298.69275
 20
282.79275
 30
0.0
 11
302.1925
 21
281.444083
 31
0.0
  0
LINE
  8
1
  6
CONTINUOUS
 62
    92
  5
381
 10
299.83775
 20
281.8155
 30
0.0
 11
301.66175
 21
281.112667
 31
0.0
  0
LINE
  8
1
  6
CONTINUOUS
 62
    92
  5
382
 10
299.03425
 20
281.589417
 30
0.0
 11
301.328333
 21
280.705333
 31
0.0
  0
LINE
  8
1
  6
CONTINUOUS
 62
    92
  5
383
 10
298.919167
 20
281.097833
 30
0.0
 11
300.910083
 21
280.330583
 31
0.0
  0
LINE
  8
1
  6
CONTINUOUS
 62
    92
  5
384
 10
299.061083
 20
280.50725
 30
0.0
 11
300.3265
 21
280.019667
 31
0.0
  0
LINE
  8
1
  6
CONTINUOUS
 62
    92
  5
385
 10
299.219333
 20
279.910417
 30
0.0
 11
299.820917
 21
279.678583
 31
0.0
  0
LINE
  8
1
  6
CONTINUOUS
 62
    92
  5
386
 10
298.760417
 20
279.5515
 30
0.0
 11
299.591083
 21
279.231417
 31
0.0
  0
LINE
  8
1
  6
CONTINUOUS
 62
    92
  5
387
 10
289.12025
 20
291.006917
 30
0.0
 11
275.385
 21
300.652
 31
0.0
  0
LINE
  8
1
  6
CONTINUOUS
 62
    92
  5
388
 10
289.605333
 20
293.110083
 30
0.0
 11
276.648417
 21
302.208583
 31
0.0
  0
LINE
  8
1
  6
CONTINUOUS
 62
    92
  5
389
 10
292.801583
 20
296.364333
 30
0.0
 11
278.882333
 21
306.1385
 31
0.0
  0
LINE
  8
1
  6
CONTINUOUS
 62
    92
  5
38A
 10
275.969
 20
308.184333
 30
0.0
 11
260.445
 21
319.085417
 31
0.0
  0
LINE
  8
1
  6
CONTINUOUS
 62
    92
  5
38B
 10
292.088583
 20
298.087
 30
0.0
 11
277.787
 21
308.129667
 31
0.0
  0
LINE
  8
1
  6
CONTINUOUS
 62
    92
  5
38C
 10
277.787
 20
308.129667
 30
0.0
 11
262.496083
 21
318.867333
 31
0.0
  0
LINE
  8
1
  6
CONTINUOUS
 62
    92
  5
38D
 10
271.994333
 20
308.531667
 30
0.0
 11
259.01625
 21
317.645
 31
0.0
  0
LINE
  8
1
  6
CONTINUOUS
 62
    92
  5
38E
 10
268.34525
 20
307.42825
 30
0.0
 11
258.720417
 21
314.186917
 31
0.0
  0
LINE
  8
1
  6
CONTINUOUS
 62
    92
  5
38F
 10
268.298
 20
309.90525
 30
0.0
 11
258.043833
 21
317.105833
 31
0.0
  0
LINE
  8
1
  6
CONTINUOUS
 62
    92
  5
390
 10
268.49425
 20
312.211333
 30
0.0
 11
262.1785
 21
316.646333
 31
0.0
  0
ARC
  8
1
  6
CONTINUOUS
 62
    92
  5
391
 10
297.653049
 20
290.011232
 30
0.0
 40
5.0
 50
233.705347
 51
319.976217
210
0.0
220
0.0
230
1.0
  0
LINE
  8
1
  6
CONTINUOUS
 62
    92
  5
392
 10
290.623333
 20
293.006333
 30
0.0
 11
276.824917
 21
302.695583
 31
0.0
  0
LINE
  8
1
  6
CONTINUOUS
 62
    92
  5
393
 10
289.371833
 20
294.495917
 30
0.0
 11
276.865333
 21
303.278167
 31
0.0
  0
LINE
  8
1
  6
CONTINUOUS
 62
    92
  5
394
 10
279.28975
 20
302.797583
 30
0.0
 11
277.443917
 21
304.09375
 31
0.0
  0
LINE
  8
1
  6
CONTINUOUS
 62
    92
  5
395
 10
291.316333
 20
293.7415
 30
0.0
 11
277.407417
 21
303.5085
 31
0.0
  0
LINE
  8
1
  6
CONTINUOUS
 62
    92
  5
396
 10
291.037917
 20
296.991833
 30
0.0
 11
279.828
 21
304.863583
 31
0.0
  0
LINE
  8
1
  6
CONTINUOUS
 62
    92
  5
397
 10
289.689833
 20
291.828917
 30
0.0
 11
275.910083
 21
301.505167
 31
0.0
  0
LINE
  8
1
  6
CONTINUOUS
 62
    92
  5
398
 10
288.077
 20
292.350333
 30
0.0
 11
275.614833
 21
301.101417
 31
0.0
  0
LINE
  8
1
  6
CONTINUOUS
 62
    92
  5
399
 10
290.047917
 20
295.243167
 30
0.0
 11
279.28975
 21
302.797583
 31
0.0
  0
LINE
  8
1
  6
CONTINUOUS
 62
    92
  5
39A
 10
291.041
 20
295.15675
 30
0.0
 11
280.266833
 21
302.7225
 31
0.0
  0
LINE
  8
1
  6
CONTINUOUS
 62
    92
  5
39B
 10
280.266833
 20
302.722583
 30
0.0
 11
277.879333
 21
304.399
 31
0.0
  0
LINE
  8
1
  6
CONTINUOUS
 62
    92
  5
39C
 10
291.40375
 20
295.513
 30
0.0
 11
282.138583
 21
302.01925
 31
0.0
  0
LINE
  8
1
  6
CONTINUOUS
 62
    92
  5
39D
 10
282.138583
 20
302.01925
 30
0.0
 11
278.039167
 21
304.897667
 31
0.0
  0
LINE
  8
1
  6
CONTINUOUS
 62
    92
  5
39E
 10
273.273
 20
304.578833
 30
0.0
 11
268.997
 21
307.581417
 31
0.0
  0
LINE
  8
1
  6
CONTINUOUS
 62
    92
  5
39F
 10
269.087083
 20
309.962083
 30
0.0
 11
259.172083
 21
316.9245
 31
0.0
  0
LINE
  8
1
  6
CONTINUOUS
 62
    92
  5
3A0
 10
268.896333
 20
311.318
 30
0.0
 11
259.664833
 21
317.800417
 31
0.0
  0
LINE
  8
1
  6
CONTINUOUS
 62
    92
  5
3A1
 10
273.559583
 20
308.65425
 30
0.0
 11
268.49425
 21
312.211333
 31
0.0
  0
LINE
  8
1
  6
CONTINUOUS
 62
    92
  5
3A2
 10
274.647417
 20
306.668583
 30
0.0
 11
271.994333
 21
308.531667
 31
0.0
  0
LINE
  8
1
  6
CONTINUOUS
 62
    92
  5
3A3
 10
274.679083
 20
307.25725
 30
0.0
 11
272.482
 21
308.800083
 31
0.0
  0
LINE
  8
1
  6
CONTINUOUS
 62
    92
  5
3A4
 10
272.482
 20
308.800083
 30
0.0
 11
268.896333
 21
311.318083
 31
0.0
  0
LINE
  8
1
  6
CONTINUOUS
 62
    92
  5
3A5
 10
269.47925
 20
307.853833
 30
0.0
 11
257.920167
 21
315.97075
 31
0.0
  0
LINE
  8
1
  6
CONTINUOUS
 62
    92
  5
3A6
 10
268.997
 20
307.5815
 30
0.0
 11
257.756333
 21
315.475
 31
0.0
  0
LINE
  8
1
  6
CONTINUOUS
 62
    92
  5
3A7
 10
275.384917
 20
300.651833
 30
0.0
 11
268.528583
 21
305.466667
 31
0.0
  0
LINE
  8
1
  6
CONTINUOUS
 62
    92
  5
3A8
 10
268.528583
 20
305.466667
 30
0.0
 11
256.068917
 21
314.216083
 31
0.0
  0
LINE
  8
1
  6
CONTINUOUS
 62
    92
  5
3A9
 10
278.244083
 20
308.419583
 30
0.0
 11
260.966583
 21
320.552083
 31
0.0
  0
LINE
  8
1
  6
CONTINUOUS
 62
    92
  5
3AA
 10
293.97125
 20
297.37575
 30
0.0
 11
278.244167
 21
308.419667
 31
0.0
  0
LINE
  8
1
  6
CONTINUOUS
 62
    92
  5
3AB
 10
290.201917
 20
292.080083
 30
0.0
 11
276.034417
 21
302.02875
 31
0.0
  0
LINE
  8
1
  6
CONTINUOUS
 62
    92
  5
3AC
 10
273.574167
 20
303.756333
 30
0.0
 11
268.34525
 21
307.428167
 31
0.0
  0
LINE
  8
1
  6
CONTINUOUS
 62
    92
  5
3AD
 10
275.910083
 20
301.505167
 30
0.0
 11
256.494083
 21
315.139417
 31
0.0
  0
LINE
  8
1
  6
CONTINUOUS
 62
    92
  5
3AE
 10
275.67225
 20
301.061083
 30
0.0
 11
256.959167
 21
314.20175
 31
0.0
  0
LINE
  8
1
  6
CONTINUOUS
 62
    92
  5
3AF
 10
273.714833
 20
304.879583
 30
0.0
 11
269.47925
 21
307.853833
 31
0.0
  0
LINE
  8
1
  6
CONTINUOUS
 62
    92
  5
3B0
 10
274.09575
 20
305.223
 30
0.0
 11
259.998
 21
315.12275
 31
0.0
  0
LINE
  8
1
  6
CONTINUOUS
 62
    92
  5
3B1
 10
273.932083
 20
305.948917
 30
0.0
 11
268.298
 21
309.90525
 31
0.0
  0
LINE
  8
1
  6
CONTINUOUS
 62
    92
  5
3B2
 10
273.95175
 20
306.546083
 30
0.0
 11
269.087083
 21
309.962083
 31
0.0
  0
LINE
  8
1
  6
CONTINUOUS
 62
    92
  5
3B3
 10
290.788917
 20
296.55575
 30
0.0
 11
278.76775
 21
304.997083
 31
0.0
  0
LINE
  8
1
  6
CONTINUOUS
 62
    92
  5
3B4
 10
275.164083
 20
307.527667
 30
0.0
 11
273.559583
 21
308.654333
 31
0.0
  0
LINE
  8
1
  6
CONTINUOUS
 62
    92
  5
3B5
 10
278.7025
 20
302.082417
 30
0.0
 11
279.041667
 21
301.833333
 31
0.0
  0
LINE
  8
1
  6
CONTINUOUS
 62
    92
  5
3B6
 10
275.57575
 20
307.849583
 30
0.0
 11
260.136917
 21
318.690917
 31
0.0
  0
LINE
  8
1
  6
CONTINUOUS
 62
    92
  5
3B7
 10
292.668333
 20
297.068833
 30
0.0
 11
279.424833
 21
306.368583
 31
0.0
  0
LINE
  8
1
  6
CONTINUOUS
 62
    92
  5
3B8
 10
275.597667
 20
309.056
 30
0.0
 11
262.138167
 21
318.5075
 31
0.0
  0
LINE
  8
1
  6
CONTINUOUS
 62
    92
  5
3B9
 10
306.165667
 20
292.23725
 30
0.0
 11
307.38025
 21
291.769167
 31
0.0
  0
LINE
  8
1
  6
CONTINUOUS
 62
    92
  5
3BA
 10
309.534
 20
290.939167
 30
0.0
 11
311.066333
 21
290.348667
 31
0.0
  0
LINE
  8
1
  6
CONTINUOUS
 62
    92
  5
3BB
 10
306.046167
 20
291.747417
 30
0.0
 11
307.066
 21
291.354417
 31
0.0
  0
LINE
  8
1
  6
CONTINUOUS
 62
    92
  5
3BC
 10
309.468083
 20
290.42875
 30
0.0
 11
310.537833
 21
290.0165
 31
0.0
  0
LINE
  8
1
  6
CONTINUOUS
 62
    92
  5
3BD
 10
305.40725
 20
291.457833
 30
0.0
 11
306.769583
 21
290.932833
 31
0.0
  0
LINE
  8
1
  6
CONTINUOUS
 62
    92
  5
3BE
 10
309.25325
 20
289.97575
 30
0.0
 11
310.08975
 21
289.653417
 31
0.0
  0
LINE
  8
1
  6
CONTINUOUS
 62
    92
  5
3BF
 10
305.257333
 20
290.97975
 30
0.0
 11
306.593667
 21
290.464833
 31
0.0
  0
LINE
  8
1
  6
CONTINUOUS
 62
    92
  5
3C0
 10
309.077333
 20
289.507667
 30
0.0
 11
309.712833
 21
289.26275
 31
0.0
  0
LINE
  8
1
  6
CONTINUOUS
 62
    92
  5
3C1
 10
305.065583
 20
290.51775
 30
0.0
 11
306.222667
 21
290.071833
 31
0.0
  0
LINE
  8
1
  6
CONTINUOUS
 62
    92
  5
3C2
 10
308.361917
 20
289.247417
 30
0.0
 11
309.64125
 21
288.754417
 31
0.0
  0
LINE
  8
1
  6
CONTINUOUS
 62
    92
  5
3C3
 10
304.648583
 20
290.142667
 30
0.0
 11
305.727333
 21
289.726917
 31
0.0
  0
LINE
  8
1
  6
CONTINUOUS
 62
    92
  5
3C4
 10
307.966083
 20
288.864167
 30
0.0
 11
309.301083
 21
288.34975
 31
0.0
  0
LINE
  8
1
  6
CONTINUOUS
 62
    92
  5
3C5
 10
304.270667
 20
289.7525
 30
0.0
 11
305.625917
 21
289.230167
 31
0.0
  0
LINE
  8
1
  6
CONTINUOUS
 62
    92
  5
3C6
 10
307.524083
 20
288.498667
 30
0.0
 11
308.859833
 21
287.983917
 31
0.0
  0
LINE
  8
1
  6
CONTINUOUS
 62
    92
  5
3C7
 10
303.9805
 20
289.328417
 30
0.0
 11
305.329417
 21
288.808583
 31
0.0
  0
LINE
  8
1
  6
CONTINUOUS
 62
    92
  5
3C8
 10
307.0715
 20
288.13725
 30
0.0
 11
308.46
 21
287.602167
 31
0.0
  0
LINE
  8
1
  6
CONTINUOUS
 62
    92
  5
3C9
 10
248.83125
 20
318.87575
 30
0.0
 11
247.376083
 21
314.1205
 31
0.0
  0
LINE
  8
1
  6
CONTINUOUS
 62
    92
  5
3CA
 10
249.060667
 20
317.916833
 30
0.0
 11
247.7035
 21
313.481667
 31
0.0
  0
LINE
  8
1
  6
CONTINUOUS
 62
    92
  5
3CB
 10
249.441667
 20
317.453167
 30
0.0
 11
248.2075
 21
313.42025
 31
0.0
  0
LINE
  8
1
  6
CONTINUOUS
 62
    92
  5
3CC
 10
249.755583
 20
316.770083
 30
0.0
 11
248.591917
 21
312.967417
 31
0.0
  0
LINE
  8
1
  6
CONTINUOUS
 62
    92
  5
3CD
 10
250.150083
 20
316.350833
 30
0.0
 11
249.0255
 21
312.67575
 31
0.0
  0
LINE
  8
1
  6
CONTINUOUS
 62
    92
  5
3CE
 10
250.531083
 20
315.887167
 30
0.0
 11
249.423417
 21
312.267417
 31
0.0
  0
LINE
  8
1
  6
CONTINUOUS
 62
    92
  5
3CF
 10
250.94875
 20
315.543083
 30
0.0
 11
249.798667
 21
311.784917
 31
0.0
  0
LINE
  8
1
  6
CONTINUOUS
 62
    92
  5
3D0
 10
251.39225
 20
315.283917
 30
0.0
 11
250.250417
 21
311.5525
 31
0.0
  0
LINE
  8
1
  6
CONTINUOUS
 62
    92
  5
3D1
 10
251.852
 20
315.07725
 30
0.0
 11
250.72125
 21
311.382333
 31
0.0
  0
LINE
  8
1
  6
CONTINUOUS
 62
    92
  5
3D2
 10
247.682083
 20
322.471583
 30
0.0
 11
245.953333
 21
316.822583
 31
0.0
  0
LINE
  8
1
  6
CONTINUOUS
 62
    92
  5
3D3
 10
247.203917
 20
322.617833
 30
0.0
 11
245.475167
 21
316.968833
 31
0.0
  0
LINE
  8
1
  6
CONTINUOUS
 62
    92
  5
3D4
 10
246.136083
 20
320.836917
 30
0.0
 11
245.512583
 21
318.799667
 31
0.0
  0
LINE
  8
1
  6
CONTINUOUS
 62
    92
  5
3D5
 10
248.29275
 20
317.792
 30
0.0
 11
255.595417
 21
312.42875
 31
0.0
  0
LINE
  8
1
  6
CONTINUOUS
 62
    92
  5
3D6
 10
295.600917
 20
299.286167
 30
0.0
 11
265.30925
 21
320.557333
 31
0.0
  0
LINE
  8
1
  6
CONTINUOUS
 62
    92
  5
3D7
 10
295.3
 20
298.8865
 30
0.0
 11
265.021917
 21
320.148167
 31
0.0
  0
LINE
  8
1
  6
CONTINUOUS
 62
    92
  5
3D8
 10
293.449417
 20
299.57525
 30
0.0
 11
264.734667
 21
319.739083
 31
0.0
  0
LINE
  8
1
  6
CONTINUOUS
 62
    92
  5
3D9
 10
247.99675
 20
317.389
 30
0.0
 11
256.441
 21
311.187417
 31
0.0
  0
LINE
  8
1
  6
CONTINUOUS
 62
    92
  5
3DA
 10
247.70075
 20
316.986
 30
0.0
 11
257.820083
 21
309.55425
 31
0.0
  0
LINE
  8
1
  6
CONTINUOUS
 62
    92
  5
3DB
 10
247.404833
 20
316.583
 30
0.0
 11
259.090333
 21
308.001
 31
0.0
  0
LINE
  8
1
  6
CONTINUOUS
 62
    92
  5
3DC
 10
247.7455
 20
315.712417
 30
0.0
 11
258.006667
 21
308.176417
 31
0.0
  0
LINE
  8
1
  6
CONTINUOUS
 62
    92
  5
3DD
 10
247.575917
 20
315.216583
 30
0.0
 11
257.53875
 21
307.89975
 31
0.0
  0
LINE
  8
1
  6
CONTINUOUS
 62
    92
  5
3DE
 10
247.420333
 20
314.7105
 30
0.0
 11
255.958667
 21
308.439833
 31
0.0
  0
LINE
  8
1
  6
CONTINUOUS
 62
    92
  5
3DF
 10
247.299167
 20
314.179083
 30
0.0
 11
254.528917
 21
308.8695
 31
0.0
  0
LINE
  8
1
  6
CONTINUOUS
 62
    92
  5
3E0
 10
252.330083
 20
314.930917
 30
0.0
 11
251.132167
 21
311.016667
 31
0.0
  0
LINE
  8
1
  6
CONTINUOUS
 62
    92
  5
3E1
 10
252.808167
 20
314.784583
 30
0.0
 11
251.53825
 21
310.635
 31
0.0
  0
LINE
  8
1
  6
CONTINUOUS
 62
    92
  5
3E2
 10
253.286333
 20
314.63825
 30
0.0
 11
251.974083
 21
310.350167
 31
0.0
  0
LINE
  8
1
  6
CONTINUOUS
 62
    92
  5
3E3
 10
253.764417
 20
314.491917
 30
0.0
 11
252.43825
 21
310.158333
 31
0.0
  0
LINE
  8
1
  6
CONTINUOUS
 62
    92
  5
3E4
 10
253.95075
 20
313.392333
 30
0.0
 11
252.834
 21
309.743
 31
0.0
  0
LINE
  8
1
  6
CONTINUOUS
 62
    92
  5
3E5
 10
254.42525
 20
313.234083
 30
0.0
 11
253.24675
 21
309.383
 31
0.0
  0
LINE
  8
1
  6
CONTINUOUS
 62
    92
  5
3E6
 10
331.522583
 20
324.823917
 30
0.0
 11
336.504333
 21
315.767167
 31
0.0
  0
LINE
  8
1
  6
CONTINUOUS
 62
    92
  5
3E7
 10
331.867333
 20
325.234417
 30
0.0
 11
336.866083
 21
316.146917
 31
0.0
  0
LINE
  8
1
  6
CONTINUOUS
 62
    92
  5
3E8
 10
332.212167
 20
325.645
 30
0.0
 11
337.1945
 21
316.587333
 31
0.0
  0
LINE
  8
1
  6
CONTINUOUS
 62
    92
  5
3E9
 10
332.557
 20
326.055583
 30
0.0
 11
337.514083
 21
317.043667
 31
0.0
  0
LINE
  8
1
  6
CONTINUOUS
 62
    92
  5
3EA
 10
332.90175
 20
326.466167
 30
0.0
 11
337.8245
 21
317.51675
 31
0.0
  0
LINE
  8
1
  6
CONTINUOUS
 62
    92
  5
3EB
 10
333.2465
 20
326.87675
 30
0.0
 11
338.125333
 21
318.00725
 31
0.0
  0
LINE
  8
1
  6
CONTINUOUS
 62
    92
  5
3EC
 10
333.591333
 20
327.287333
 30
0.0
 11
338.415917
 21
318.516417
 31
0.0
  0
LINE
  8
1
  6
CONTINUOUS
 62
    92
  5
3ED
 10
333.936167
 20
327.698
 30
0.0
 11
338.695833
 21
319.045167
 31
0.0
  0
LINE
  8
1
  6
CONTINUOUS
 62
    92
  5
3EE
 10
334.281
 20
328.108583
 30
0.0
 11
338.964167
 21
319.594667
 31
0.0
  0
LINE
  8
1
  6
CONTINUOUS
 62
    92
  5
3EF
 10
334.62575
 20
328.519083
 30
0.0
 11
339.220167
 21
320.166583
 31
0.0
  0
LINE
  8
1
  6
CONTINUOUS
 62
    92
  5
3F0
 10
334.970583
 20
328.929667
 30
0.0
 11
339.462917
 21
320.76275
 31
0.0
  0
LINE
  8
1
  6
CONTINUOUS
 62
    92
  5
3F1
 10
335.315333
 20
329.34025
 30
0.0
 11
339.691167
 21
321.385167
 31
0.0
  0
LINE
  8
1
  6
CONTINUOUS
 62
    92
  5
3F2
 10
335.660167
 20
329.750833
 30
0.0
 11
339.903583
 21
322.0365
 31
0.0
  0
LINE
  8
1
  6
CONTINUOUS
 62
    92
  5
3F3
 10
336.005
 20
330.1615
 30
0.0
 11
340.098333
 21
322.719917
 31
0.0
  0
LINE
  8
1
  6
CONTINUOUS
 62
    92
  5
3F4
 10
336.34975
 20
330.572083
 30
0.0
 11
340.27325
 21
323.43925
 31
0.0
  0
LINE
  8
1
  6
CONTINUOUS
 62
    92
  5
3F5
 10
336.694583
 20
330.982667
 30
0.0
 11
340.425583
 21
324.19975
 31
0.0
  0
LINE
  8
1
  6
CONTINUOUS
 62
    92
  5
3F6
 10
337.039417
 20
331.39325
 30
0.0
 11
340.55175
 21
325.007917
 31
0.0
  0
LINE
  8
1
  6
CONTINUOUS
 62
    92
  5
3F7
 10
337.4775
 20
331.634167
 30
0.0
 11
340.646667
 21
325.872667
 31
0.0
  0
LINE
  8
1
  6
CONTINUOUS
 62
    92
  5
3F8
 10
337.729
 20
332.214417
 30
0.0
 11
340.7035
 21
326.806833
 31
0.0
  0
LINE
  8
1
  6
CONTINUOUS
 62
    92
  5
3F9
 10
338.07375
 20
332.625
 30
0.0
 11
340.711667
 21
327.829417
 31
0.0
  0
LINE
  8
1
  6
CONTINUOUS
 62
    92
  5
3FA
 10
338.418583
 20
333.035583
 30
0.0
 11
340.654083
 21
328.9715
 31
0.0
  0
LINE
  8
1
  6
CONTINUOUS
 62
    92
  5
3FB
 10
338.763333
 20
333.446083
 30
0.0
 11
340.499167
 21
330.290417
 31
0.0
  0
LINE
  8
1
  6
CONTINUOUS
 62
    92
  5
3FC
 10
339.108167
 20
333.856667
 30
0.0
 11
340.172917
 21
331.920917
 31
0.0
  0
LINE
  8
1
  6
CONTINUOUS
 62
    92
  5
3FD
 10
330.830833
 20
323.222833
 30
0.0
 11
339.387583
 21
333.412
 31
0.0
  0
LINE
  8
1
  6
CONTINUOUS
 62
    92
  5
3FE
 10
330.777417
 20
322.381667
 30
0.0
 11
339.770417
 21
333.090417
 31
0.0
  0
LINE
  8
1
  6
CONTINUOUS
 62
    92
  5
3FF
 10
331.025083
 20
321.899083
 30
0.0
 11
339.753167
 21
332.292333
 31
0.0
  0
LINE
  8
1
  6
CONTINUOUS
 62
    92
  5
400
 10
331.448
 20
321.625083
 30
0.0
 11
339.859667
 21
331.641667
 31
0.0
  0
LINE
  8
1
  6
CONTINUOUS
 62
    92
  5
401
 10
331.749083
 20
321.206333
 30
0.0
 11
339.920583
 21
330.93675
 31
0.0
  0
LINE
  8
1
  6
CONTINUOUS
 62
    92
  5
402
 10
332.08025
 20
320.823167
 30
0.0
 11
340.09
 21
330.361083
 31
0.0
  0
LINE
  8
1
  6
CONTINUOUS
 62
    92
  5
403
 10
331.901
 20
319.832167
 30
0.0
 11
339.889917
 21
329.345167
 31
0.0
  0
LINE
  8
1
  6
CONTINUOUS
 62
    92
  5
404
 10
333.074333
 20
319.674333
 30
0.0
 11
339.940333
 21
327.85025
 31
0.0
  0
LINE
  8
1
  6
CONTINUOUS
 62
    92
  5
405
 10
333.775333
 20
319.7315
 30
0.0
 11
340.068917
 21
327.225833
 31
0.0
  0
LINE
  8
1
  6
CONTINUOUS
 62
    92
  5
406
 10
333.756
 20
318.931
 30
0.0
 11
340.086917
 21
326.46975
 31
0.0
  0
LINE
  8
1
  6
CONTINUOUS
 62
    92
  5
407
 10
333.611417
 20
317.981417
 30
0.0
 11
339.989667
 21
325.576583
 31
0.0
  0
LINE
  8
1
  6
CONTINUOUS
 62
    92
  5
408
 10
333.39975
 20
316.951917
 30
0.0
 11
339.533333
 21
324.25575
 31
0.0
  0
LINE
  8
1
  6
CONTINUOUS
 62
    92
  5
409
 10
333.687417
 20
316.516917
 30
0.0
 11
339.924833
 21
323.944333
 31
0.0
  0
LINE
  8
1
  6
CONTINUOUS
 62
    92
  5
40A
 10
334.175
 20
316.320083
 30
0.0
 11
339.405667
 21
322.548667
 31
0.0
  0
LINE
  8
1
  6
CONTINUOUS
 62
    92
  5
40B
 10
334.415
 20
315.828333
 30
0.0
 11
339.49425
 21
321.876667
 31
0.0
  0
LINE
  8
1
  6
CONTINUOUS
 62
    92
  5
40C
 10
334.712583
 20
315.40525
 30
0.0
 11
338.8075
 21
320.281333
 31
0.0
  0
LINE
  8
1
  6
CONTINUOUS
 62
    92
  5
40D
 10
335.475417
 20
315.536083
 30
0.0
 11
337.874
 21
318.392333
 31
0.0
  0
LINE
  8
1
  6
CONTINUOUS
 62
    92
  5
40E
 10
332.96775
 20
320.324917
 30
0.0
 11
339.970833
 21
328.664083
 31
0.0
  0
LINE
  8
1
  6
CONTINUOUS
 62
    92
  5
40F
 10
292.217833
 20
346.824833
 30
0.0
 11
299.032583
 21
353.730917
 31
0.0
  0
LINE
  8
1
  6
CONTINUOUS
 62
    92
  5
410
 10
292.42325
 20
346.32125
 30
0.0
 11
299.388417
 21
353.379667
 31
0.0
  0
LINE
  8
1
  6
CONTINUOUS
 62
    92
  5
411
 10
292.603417
 20
345.791917
 30
0.0
 11
299.744333
 21
353.0285
 31
0.0
  0
LINE
  8
1
  6
CONTINUOUS
 62
    92
  5
412
 10
293.079333
 20
345.562333
 30
0.0
 11
300.4735
 21
353.055667
 31
0.0
  0
LINE
  8
1
  6
CONTINUOUS
 62
    92
  5
413
 10
293.530583
 20
345.307667
 30
0.0
 11
300.78175
 21
352.656083
 31
0.0
  0
LINE
  8
1
  6
CONTINUOUS
 62
    92
  5
414
 10
293.610667
 20
344.677083
 30
0.0
 11
301.710667
 21
352.885583
 31
0.0
  0
LINE
  8
1
  6
CONTINUOUS
 62
    92
  5
415
 10
294.513667
 20
344.880333
 30
0.0
 11
302.15675
 21
352.625833
 31
0.0
  0
LINE
  8
1
  6
CONTINUOUS
 62
    92
  5
416
 10
295.263583
 20
344.928333
 30
0.0
 11
302.319917
 21
352.079167
 31
0.0
  0
LINE
  8
1
  6
CONTINUOUS
 62
    92
  5
417
 10
295.170417
 20
344.122083
 30
0.0
 11
303.009083
 21
352.065833
 31
0.0
  0
LINE
  8
1
  6
CONTINUOUS
 62
    92
  5
418
 10
295.92025
 20
344.17025
 30
0.0
 11
303.41325
 21
351.763667
 31
0.0
  0
LINE
  8
1
  6
CONTINUOUS
 62
    92
  5
419
 10
295.878083
 20
343.415583
 30
0.0
 11
304.34225
 21
351.993083
 31
0.0
  0
LINE
  8
1
  6
CONTINUOUS
 62
    92
  5
41A
 10
296.749667
 20
343.586917
 30
0.0
 11
304.309333
 21
351.247917
 31
0.0
  0
LINE
  8
1
  6
CONTINUOUS
 62
    92
  5
41B
 10
296.483083
 20
342.604917
 30
0.0
 11
304.858
 21
351.092083
 31
0.0
  0
LINE
  8
1
  6
CONTINUOUS
 62
    92
  5
41C
 10
301.143417
 20
339.497167
 30
0.0
 11
310.25925
 21
348.735083
 31
0.0
  0
LINE
  8
1
  6
CONTINUOUS
 62
    92
  5
41D
 10
302.018417
 20
339.672083
 30
0.0
 11
310.860167
 21
348.63225
 31
0.0
  0
LINE
  8
1
  6
CONTINUOUS
 62
    92
  5
41E
 10
302.2485
 20
339.1935
 30
0.0
 11
311.41025
 21
348.477917
 31
0.0
  0
LINE
  8
1
  6
CONTINUOUS
 62
    92
  5
41F
 10
302.677083
 20
338.915833
 30
0.0
 11
311.8875
 21
348.249667
 31
0.0
  0
LINE
  8
1
  6
CONTINUOUS
 62
    92
  5
420
 10
302.705917
 20
338.23325
 30
0.0
 11
312.142
 21
347.79575
 31
0.0
  0
LINE
  8
1
  6
CONTINUOUS
 62
    92
  5
421
 10
302.990083
 20
337.809333
 30
0.0
 11
312.64525
 21
347.593833
 31
0.0
  0
LINE
  8
1
  6
CONTINUOUS
 62
    92
  5
422
 10
304.00675
 20
338.127667
 30
0.0
 11
313.073833
 21
347.31625
 31
0.0
  0
LINE
  8
1
  6
CONTINUOUS
 62
    92
  5
423
 10
304.114917
 20
337.5255
 30
0.0
 11
313.673667
 21
347.212333
 31
0.0
  0
LINE
  8
1
  6
CONTINUOUS
 62
    92
  5
424
 10
304.243667
 20
336.944167
 30
0.0
 11
314.102917
 21
346.9355
 31
0.0
  0
LINE
  8
1
  6
CONTINUOUS
 62
    92
  5
425
 10
304.37525
 20
336.365583
 30
0.0
 11
314.533167
 21
346.659583
 31
0.0
  0
LINE
  8
1
  6
CONTINUOUS
 62
    92
  5
426
 10
305.422917
 20
336.715417
 30
0.0
 11
315.15775
 21
346.580583
 31
0.0
  0
LINE
  8
1
  6
CONTINUOUS
 62
    92
  5
427
 10
304.834167
 20
335.407
 30
0.0
 11
315.635833
 21
346.353417
 31
0.0
  0
LINE
  8
1
  6
CONTINUOUS
 62
    92
  5
428
 10
305.607833
 20
335.479083
 30
0.0
 11
315.987417
 21
345.99775
 31
0.0
  0
LINE
  8
1
  6
CONTINUOUS
 62
    92
  5
429
 10
308.36025
 20
332.573583
 30
0.0
 11
319.7335
 21
344.099167
 31
0.0
  0
LINE
  8
1
  6
CONTINUOUS
 62
    92
  5
42A
 10
309.037833
 20
332.548417
 30
0.0
 11
320.384
 21
344.046583
 31
0.0
  0
LINE
  8
1
  6
CONTINUOUS
 62
    92
  5
42B
 10
309.5645
 20
332.370167
 30
0.0
 11
320.76425
 21
343.72
 31
0.0
  0
LINE
  8
1
  6
CONTINUOUS
 62
    92
  5
42C
 10
309.920667
 20
332.019333
 30
0.0
 11
321.266833
 21
343.5175
 31
0.0
  0
LINE
  8
1
  6
CONTINUOUS
 62
    92
  5
42D
 10
310.07275
 20
331.461667
 30
0.0
 11
321.49625
 21
343.038167
 31
0.0
  0
LINE
  8
1
  6
CONTINUOUS
 62
    92
  5
42E
 10
310.401333
 20
331.082667
 30
0.0
 11
322.124583
 21
342.963
 31
0.0
  0
LINE
  8
1
  6
CONTINUOUS
 62
    92
  5
42F
 10
311.204667
 20
331.184917
 30
0.0
 11
322.627167
 21
342.760417
 31
0.0
  0
LINE
  8
1
  6
CONTINUOUS
 62
    92
  5
430
 10
311.730167
 20
331.005583
 30
0.0
 11
322.981
 21
342.407167
 31
0.0
  0
LINE
  8
1
  6
CONTINUOUS
 62
    92
  5
431
 10
311.659333
 20
330.221917
 30
0.0
 11
323.485333
 21
342.20625
 31
0.0
  0
LINE
  8
1
  6
CONTINUOUS
 62
    92
  5
432
 10
312.238833
 20
330.097417
 30
0.0
 11
323.765417
 21
341.778417
 31
0.0
  0
LINE
  8
1
  6
CONTINUOUS
 62
    92
  5
433
 10
313.013417
 20
330.1705
 30
0.0
 11
324.268333
 21
341.576167
 31
0.0
  0
LINE
  8
1
  6
CONTINUOUS
 62
    92
  5
434
 10
313.517417
 20
329.96925
 30
0.0
 11
324.86925
 21
341.47325
 31
0.0
  0
LINE
  8
1
  6
CONTINUOUS
 62
    92
  5
435
 10
280.46275
 20
337.377917
 30
0.0
 11
305.996333
 21
320.15375
 31
0.0
  0
LINE
  8
1
  6
CONTINUOUS
 62
    92
  5
436
 10
280.292167
 20
338.096
 30
0.0
 11
307.32725
 21
319.858917
 31
0.0
  0
LINE
  8
1
  6
CONTINUOUS
 62
    92
  5
437
 10
280.794167
 20
338.3605
 30
0.0
 11
307.896
 21
320.0785
 31
0.0
  0
LINE
  8
1
  6
CONTINUOUS
 62
    92
  5
438
 10
281.492417
 20
338.492583
 30
0.0
 11
308.130667
 21
320.52325
 31
0.0
  0
LINE
  8
1
  6
CONTINUOUS
 62
    92
  5
439
 10
283.66675
 20
342.454
 30
0.0
 11
311.085
 21
323.9585
 31
0.0
  0
LINE
  8
1
  6
CONTINUOUS
 62
    92
  5
43A
 10
284.512333
 20
342.48675
 30
0.0
 11
310.081417
 21
325.238667
 31
0.0
  0
LINE
  8
1
  6
CONTINUOUS
 62
    92
  5
43B
 10
285.01425
 20
342.75125
 30
0.0
 11
311.648333
 21
324.78475
 31
0.0
  0
LINE
  8
1
  6
CONTINUOUS
 62
    92
  5
43C
 10
285.347167
 20
343.129833
 30
0.0
 11
311.21475
 21
325.680417
 31
0.0
  0
LINE
  8
1
  6
CONTINUOUS
 62
    92
  5
43D
 10
285.518917
 20
343.617167
 30
0.0
 11
312.942667
 21
325.117917
 31
0.0
  0
LINE
  8
1
  6
CONTINUOUS
 62
    92
  5
43E
 10
281.62475
 20
339.0065
 30
0.0
 11
291.16375
 21
332.571833
 31
0.0
  0
LINE
  8
1
  6
CONTINUOUS
 62
    92
  5
43F
 10
293.33475
 20
331.107333
 30
0.0
 11
308.098
 21
321.1485
 31
0.0
  0
LINE
  8
1
  6
CONTINUOUS
 62
    92
  5
440
 10
281.957583
 20
339.385
 30
0.0
 11
292.343333
 21
332.379083
 31
0.0
  0
LINE
  8
1
  6
CONTINUOUS
 62
    92
  5
441
 10
293.551583
 20
331.564083
 30
0.0
 11
308.10075
 21
321.749667
 31
0.0
  0
LINE
  8
1
  6
CONTINUOUS
 62
    92
  5
442
 10
282.14725
 20
339.860333
 30
0.0
 11
292.363917
 21
332.968417
 31
0.0
  0
LINE
  8
1
  6
CONTINUOUS
 62
    92
  5
443
 10
293.656667
 20
332.096333
 30
0.0
 11
307.114917
 21
323.017833
 31
0.0
  0
LINE
  8
1
  6
CONTINUOUS
 62
    92
  5
444
 10
282.580917
 20
340.773917
 30
0.0
 11
292.298583
 21
334.218667
 31
0.0
  0
LINE
  8
1
  6
CONTINUOUS
 62
    92
  5
445
 10
294.304667
 20
332.8655
 30
0.0
 11
309.54925
 21
322.582
 31
0.0
  0
LINE
  8
1
  6
CONTINUOUS
 62
    92
  5
446
 10
282.315
 20
340.350167
 30
0.0
 11
292.398083
 21
333.5485
 31
0.0
  0
LINE
  8
1
  6
CONTINUOUS
 62
    92
  5
447
 10
294.185833
 20
332.3425
 30
0.0
 11
307.950917
 21
323.057
 31
0.0
  0
LINE
  8
1
  6
CONTINUOUS
 62
    92
  5
448
 10
282.797917
 20
341.23075
 30
0.0
 11
293.313333
 21
334.137417
 31
0.0
  0
LINE
  8
1
  6
CONTINUOUS
 62
    92
  5
449
 10
295.737917
 20
332.501833
 30
0.0
 11
309.017417
 21
323.543917
 31
0.0
  0
LINE
  8
1
  6
CONTINUOUS
 62
    92
  5
44A
 10
283.12125
 20
341.61575
 30
0.0
 11
292.84825
 21
335.054167
 31
0.0
  0
LINE
  8
1
  6
CONTINUOUS
 62
    92
  5
44B
 10
294.011583
 20
334.2695
 30
0.0
 11
310.45625
 21
323.176417
 31
0.0
  0
LINE
  8
1
  6
CONTINUOUS
 62
    92
  5
44C
 10
283.76625
 20
341.78375
 30
0.0
 11
294.326667
 21
334.660083
 31
0.0
  0
LINE
  8
1
  6
CONTINUOUS
 62
    92
  5
44D
 10
295.28525
 20
334.013333
 30
0.0
 11
311.176333
 21
323.29375
 31
0.0
  0
LINE
  8
1
  6
CONTINUOUS
 62
    92
  5
44E
 10
323.749083
 20
330.24475
 30
0.0
 11
330.805417
 21
337.395583
 31
0.0
  0
LINE
  8
1
  6
CONTINUOUS
 62
    92
  5
44F
 10
320.90875
 20
331.637667
 30
0.0
 11
327.873917
 21
338.696083
 31
0.0
  0
LINE
  8
1
  6
CONTINUOUS
 62
    92
  5
450
 10
321.088917
 20
331.108333
 30
0.0
 11
328.229833
 21
338.344917
 31
0.0
  0
LINE
  8
1
  6
CONTINUOUS
 62
    92
  5
451
 10
321.564833
 20
330.87875
 30
0.0
 11
328.959
 21
338.372083
 31
0.0
  0
LINE
  8
1
  6
CONTINUOUS
 62
    92
  5
452
 10
322.016083
 20
330.624083
 30
0.0
 11
329.26725
 21
337.9725
 31
0.0
  0
LINE
  8
1
  6
CONTINUOUS
 62
    92
  5
453
 10
322.096167
 20
329.9935
 30
0.0
 11
330.196167
 21
338.202
 31
0.0
  0
LINE
  8
1
  6
CONTINUOUS
 62
    92
  5
454
 10
322.999167
 20
330.19675
 30
0.0
 11
330.64225
 21
337.94225
 31
0.0
  0
LINE
  8
1
  6
CONTINUOUS
 62
    92
  5
455
 10
323.655917
 20
329.4385
 30
0.0
 11
331.494583
 21
337.38225
 31
0.0
  0
LINE
  8
1
  6
CONTINUOUS
 62
    92
  5
456
 10
324.40575
 20
329.486667
 30
0.0
 11
331.89875
 21
337.080083
 31
0.0
  0
LINE
  8
1
  6
CONTINUOUS
 62
    92
  5
457
 10
324.363583
 20
328.732
 30
0.0
 11
332.82775
 21
337.3095
 31
0.0
  0
LINE
  8
1
  6
CONTINUOUS
 62
    92
  5
458
 10
325.235167
 20
328.903333
 30
0.0
 11
332.794833
 21
336.564333
 31
0.0
  0
LINE
  8
1
  6
CONTINUOUS
 62
    92
  5
459
 10
324.968583
 20
327.921333
 30
0.0
 11
333.3435
 21
336.4085
 31
0.0
  0
LINE
  8
1
  6
CONTINUOUS
 62
    92
  5
45A
 10
298.248583
 20
285.046833
 30
0.0
 11
298.248583
 21
278.776417
 31
0.0
  0
LINE
  8
1
  6
CONTINUOUS
 62
    92
  5
45B
 10
298.248583
 20
272.177167
 30
0.0
 11
298.248583
 21
260.8055
 31
0.0
  0
LINE
  8
1
  6
CONTINUOUS
 62
    92
  5
45C
 10
250.5945
 20
316.630583
 30
0.0
 11
294.693333
 21
285.981333
 31
0.0
  0
LINE
  8
1
  6
CONTINUOUS
 62
    92
  5
45D
 10
247.91625
 20
312.964333
 30
0.0
 11
294.922833
 21
279.733
 31
0.0
  0
LINE
  8
1
  6
CONTINUOUS
 62
    92
  5
45E
 10
301.398917
 20
280.208417
 30
0.0
 11
342.32425
 21
321.524667
 31
0.0
  0
LINE
  8
1
  6
CONTINUOUS
 62
    92
  5
45F
 10
301.481917
 20
286.795667
 30
0.0
 11
339.241417
 21
334.004
 31
0.0
  0
LINE
  8
1
  6
CONTINUOUS
 62
    92
  5
460
 10
276.26475
 20
323.198833
 30
0.0
 11
291.681167
 21
311.876833
 31
0.0
  0
LINE
  8
1
  6
CONTINUOUS
 62
    92
  5
461
 10
276.217167
 20
323.854083
 30
0.0
 11
293.38325
 21
311.247
 31
0.0
  0
LINE
  8
1
  6
CONTINUOUS
 62
    92
  5
462
 10
276.993917
 20
323.904083
 30
0.0
 11
294.923917
 21
310.736
 31
0.0
  0
LINE
  8
1
  6
CONTINUOUS
 62
    92
  5
463
 10
277.432083
 20
324.2025
 30
0.0
 11
294.854583
 21
311.407167
 31
0.0
  0
LINE
  8
1
  6
CONTINUOUS
 62
    92
  5
464
 10
277.933167
 20
324.454917
 30
0.0
 11
295.544083
 21
311.521167
 31
0.0
  0
LINE
  8
1
  6
CONTINUOUS
 62
    92
  5
465
 10
278.447083
 20
324.697833
 30
0.0
 11
294.947917
 21
312.579417
 31
0.0
  0
LINE
  8
1
  6
CONTINUOUS
 62
    92
  5
466
 10
278.948083
 20
324.950167
 30
0.0
 11
294.743917
 21
313.3495
 31
0.0
  0
LINE
  8
1
  6
CONTINUOUS
 62
    92
  5
467
 10
278.93775
 20
325.57825
 30
0.0
 11
294.60025
 21
314.075417
 31
0.0
  0
LINE
  8
1
  6
CONTINUOUS
 62
    92
  5
468
 10
279.451583
 20
325.821167
 30
0.0
 11
295.444833
 21
314.0755
 31
0.0
  0
LINE
  8
1
  6
CONTINUOUS
 62
    92
  5
469
 10
280.027083
 20
326.018917
 30
0.0
 11
295.015333
 21
315.011333
 31
0.0
  0
LINE
  8
1
  6
CONTINUOUS
 62
    92
  5
46A
 10
280.347417
 20
326.404
 30
0.0
 11
296.098333
 21
314.836333
 31
0.0
  0
LINE
  8
1
  6
CONTINUOUS
 62
    92
  5
46B
 10
280.543417
 20
326.880417
 30
0.0
 11
295.841833
 21
315.645
 31
0.0
  0
LINE
  8
1
  6
CONTINUOUS
 62
    92
  5
46C
 10
280.503583
 20
327.530083
 30
0.0
 11
296.723667
 21
315.617833
 31
0.0
  0
LINE
  8
1
  6
CONTINUOUS
 62
    92
  5
46D
 10
281.45325
 20
327.453
 30
0.0
 11
298.116833
 21
315.215
 31
0.0
  0
LINE
  8
1
  6
CONTINUOUS
 62
    92
  5
46E
 10
281.254417
 20
328.21925
 30
0.0
 11
296.65675
 21
316.907583
 31
0.0
  0
LINE
  8
1
  6
CONTINUOUS
 62
    92
  5
46F
 10
280.607
 20
329.315083
 30
0.0
 11
297.63075
 21
316.812583
 31
0.0
  0
LINE
  8
1
  6
CONTINUOUS
 62
    92
  5
470
 10
297.748583
 20
284.41
 30
0.0
 11
297.748583
 21
279.426833
 31
0.0
  0
LINE
  8
1
  6
CONTINUOUS
 62
    92
  5
471
 10
297.248583
 20
284.50175
 30
0.0
 11
297.248583
 21
279.426833
 31
0.0
  0
LINE
  8
1
  6
CONTINUOUS
 62
    92
  5
472
 10
296.748583
 20
284.532333
 30
0.0
 11
296.748583
 21
279.5185
 31
0.0
  0
LINE
  8
1
  6
CONTINUOUS
 62
    92
  5
473
 10
296.248583
 20
285.046833
 30
0.0
 11
296.248583
 21
279.549083
 31
0.0
  0
LINE
  8
1
  6
CONTINUOUS
 62
    92
  5
474
 10
295.748583
 20
285.046833
 30
0.0
 11
295.748583
 21
279.793667
 31
0.0
  0
LINE
  8
1
  6
CONTINUOUS
 62
    92
  5
475
 10
295.248583
 20
285.046833
 30
0.0
 11
295.248583
 21
280.007667
 31
0.0
  0
LINE
  8
1
  6
CONTINUOUS
 62
    92
  5
476
 10
294.748583
 20
285.046833
 30
0.0
 11
294.748583
 21
280.46625
 31
0.0
  0
TEXT
  8
1
  6
CONTINUOUS
 62
     7
  5
477
 10
493.534667
 20
170.55275
 30
0.0
 40
4.0
  1
-
  7
MONOTXT
210
0.0
220
0.0
230
1.0
  0
TEXT
  8
1
  6
CONTINUOUS
 62
     7
  5
478
 10
516.118083
 20
170.513333
 30
0.0
 40
4.0
  1
+
  7
MONOTXT
210
0.0
220
0.0
230
1.0
  0
CIRCLE
  8
1
  6
CONTINUOUS
 62
   132
  5
479
 10
501.246167
 20
174.00475
 30
0.0
 40
0.567895
210
0.0
220
0.0
230
1.0
  0
CIRCLE
  8
1
  6
CONTINUOUS
 62
   132
  5
47A
 10
525.659583
 20
174.00475
 30
0.0
 40
0.567895
210
0.0
220
0.0
230
1.0
  0
ARC
  8
1
  6
CONTINUOUS
 62
    92
  5
47B
 10
335.248375
 20
330.994788
 30
0.0
 40
5.0
 50
15.073122
 51
63.189267
210
0.0
220
0.0
230
1.0
  0
LINE
  8
1
  6
CONTINUOUS
 62
    92
  5
47C
 10
243.028333
 20
311.151417
 30
0.0
 11
242.88875
 21
301.050917
 31
0.0
  0
LINE
  8
1
  6
CONTINUOUS
 62
    92
  5
47D
 10
242.429
 20
318.693333
 30
0.0
 11
284.721667
 21
361.552667
 31
0.0
  0
ARC
  8
1
  6
CONTINUOUS
 62
    92
  5
47E
 10
245.987994
 20
315.181405
 30
0.0
 40
5.0
 50
135.381364
 51
233.705928
210
0.0
220
0.0
230
1.0
  0
ARC
  8
1
  6
CONTINUOUS
 62
    92
  5
47F
 10
252.078121
 20
318.90125
 30
0.0
 40
7.250389
 50
157.678969
 51
234.968947
210
0.0
220
0.0
230
1.0
  0
ARC
  8
1
  6
CONTINUOUS
 62
    92
  5
480
 10
255.445116
 20
322.197522
 30
0.0
 40
7.383717
 50
157.889156
 51
228.933531
210
0.0
220
0.0
230
1.0
  0
ARC
  8
1
  6
CONTINUOUS
 62
    92
  5
481
 10
285.10025
 20
356.088248
 30
0.0
 40
5.271009
 50
55.45095
 51
174.186381
210
0.0
220
0.0
230
1.0
  0
ARC
  8
1
  6
CONTINUOUS
 62
    92
  5
482
 10
286.768351
 20
358.107517
 30
0.0
 40
4.00724
 50
60.288025
 51
120.713567
210
0.0
220
0.0
230
1.0
  0
ARC
  8
1
  6
CONTINUOUS
 62
    92
  5
483
 10
247.888272
 20
300.981878
 30
0.0
 40
5.0
 50
179.208508
 51
234.759428
210
0.0
220
0.0
230
1.0
  0
LINE
  8
1
  6
CONTINUOUS
 62
    92
  5
484
 10
286.1275
 20
347.68125
 30
0.0
 11
294.502417
 21
356.168417
 31
0.0
  0
LINE
  8
1
  6
CONTINUOUS
 62
    92
  5
485
 10
284.908
 20
350.004667
 30
0.0
 11
291.964333
 21
357.1555
 31
0.0
  0
LINE
  8
1
  6
CONTINUOUS
 62
    92
  5
486
 10
282.067667
 20
351.397583
 30
0.0
 11
289.032833
 21
358.456
 31
0.0
  0
LINE
  8
1
  6
CONTINUOUS
 62
    92
  5
487
 10
282.247833
 20
350.86825
 30
0.0
 11
289.38875
 21
358.104833
 31
0.0
  0
LINE
  8
1
  6
CONTINUOUS
 62
    92
  5
488
 10
282.72375
 20
350.638667
 30
0.0
 11
290.117917
 21
358.132
 31
0.0
  0
LINE
  8
1
  6
CONTINUOUS
 62
    92
  5
489
 10
283.175
 20
350.384
 30
0.0
 11
290.426167
 21
357.732417
 31
0.0
  0
LINE
  8
1
  6
CONTINUOUS
 62
    92
  5
48A
 10
283.255083
 20
349.753417
 30
0.0
 11
291.355083
 21
357.961917
 31
0.0
  0
LINE
  8
1
  6
CONTINUOUS
 62
    92
  5
48B
 10
284.158083
 20
349.956667
 30
0.0
 11
291.801167
 21
357.702167
 31
0.0
  0
LINE
  8
1
  6
CONTINUOUS
 62
    92
  5
48C
 10
284.814833
 20
349.198417
 30
0.0
 11
292.6535
 21
357.142167
 31
0.0
  0
LINE
  8
1
  6
CONTINUOUS
 62
    92
  5
48D
 10
285.564667
 20
349.246583
 30
0.0
 11
293.057667
 21
356.84
 31
0.0
  0
LINE
  8
1
  6
CONTINUOUS
 62
    92
  5
48E
 10
285.5225
 20
348.491917
 30
0.0
 11
293.986667
 21
357.069417
 31
0.0
  0
LINE
  8
1
  6
CONTINUOUS
 62
    92
  5
48F
 10
286.394083
 20
348.66325
 30
0.0
 11
293.95375
 21
356.32425
 31
0.0
  0
LINE
  8
1
  6
CONTINUOUS
 62
     1
  5
490
 10
-0.255417
 20
224.582583
 30
0.0
 11
86.542917
 21
224.582583
 31
0.0
  0
LINE
  8
1
  6
CONTINUOUS
 62
     1
  5
491
 10
91.542917
 20
219.582583
 30
0.0
 11
91.542917
 21
148.220667
 31
0.0
  0
LINE
  8
1
  6
CONTINUOUS
 62
     1
  5
492
 10
86.542917
 20
143.220667
 30
0.0
 11
-0.255417
 21
143.220667
 31
0.0
  0
LINE
  8
1
  6
CONTINUOUS
 62
     1
  5
493
 10
-5.255417
 20
148.220667
 30
0.0
 11
-5.255417
 21
219.582583
 31
0.0
  0
LINE
  8
1
  6
CONTINUOUS
 62
     7
  5
494
 10
-7.4295
 20
99.306417
 30
0.0
 11
105.358333
 21
99.306417
 31
0.0
  0
ARC
  8
1
  6
CONTINUOUS
 62
   212
  5
495
 10
86.542917
 20
219.582583
 30
0.0
 40
5.0
 50
0.0
 51
90.0
210
0.0
220
0.0
230
1.0
  0
ARC
  8
1
  6
CONTINUOUS
 62
   212
  5
496
 10
86.542917
 20
148.220667
 30
0.0
 40
5.0
 50
270.0
 51
0.0
210
0.0
220
0.0
230
1.0
  0
LINE
  8
1
  6
CONTINUOUS
 62
     7
  5
497
 10
92.542917
 20
216.582583
 30
0.0
 11
106.344
 21
216.582583
 31
0.0
  0
LINE
  8
1
  6
CONTINUOUS
 62
     7
  5
498
 10
90.542917
 20
224.582583
 30
0.0
 11
119.084667
 21
224.582583
 31
0.0
  0
LINE
  8
1
  6
CONTINUOUS
 62
     7
  5
499
 10
90.542917
 20
143.220667
 30
0.0
 11
119.084667
 21
143.220667
 31
0.0
  0
LINE
  8
1
  6
CONTINUOUS
 62
     7
  5
49A
 10
118.084667
 20
224.582583
 30
0.0
 11
118.084667
 21
143.220667
 31
0.0
  0
LINE
  8
1
  6
CONTINUOUS
 62
     7
  5
49B
 10
105.344
 20
216.582583
 30
0.0
 11
105.344
 21
151.220667
 31
0.0
  0
ARC
  8
1
  6
CONTINUOUS
 62
   212
  5
49C
 10
-0.255417
 20
219.582583
 30
0.0
 40
5.0
 50
90.0
 51
180.0
210
0.0
220
0.0
230
1.0
  0
ARC
  8
1
  6
CONTINUOUS
 62
   212
  5
49D
 10
-0.255417
 20
148.220667
 30
0.0
 40
5.0
 50
180.0
 51
270.0
210
0.0
220
0.0
230
1.0
  0
CIRCLE
  8
1
  6
CONTINUOUS
 62
   212
  5
49E
 10
83.542917
 20
216.582583
 30
0.0
 40
1.5
210
0.0
220
0.0
230
1.0
  0
CIRCLE
  8
1
  6
CONTINUOUS
 62
   212
  5
49F
 10
83.542917
 20
151.220667
 30
0.0
 40
1.5
210
0.0
220
0.0
230
1.0
  0
CIRCLE
  8
1
  6
CONTINUOUS
 62
   212
  5
4A0
 10
2.744583
 20
216.582583
 30
0.0
 40
1.5
210
0.0
220
0.0
230
1.0
  0
CIRCLE
  8
1
  6
CONTINUOUS
 62
   212
  5
4A1
 10
2.744583
 20
151.220667
 30
0.0
 40
1.5
210
0.0
220
0.0
230
1.0
  0
CIRCLE
  8
1
  6
CONTINUOUS
 62
   212
  5
4A2
 10
28.744583
 20
216.582583
 30
0.0
 40
1.5
210
0.0
220
0.0
230
1.0
  0
CIRCLE
  8
1
  6
CONTINUOUS
 62
   212
  5
4A3
 10
57.542917
 20
216.582583
 30
0.0
 40
1.5
210
0.0
220
0.0
230
1.0
  0
CIRCLE
  8
1
  6
CONTINUOUS
 62
   212
  5
4A4
 10
28.744583
 20
151.220667
 30
0.0
 40
1.5
210
0.0
220
0.0
230
1.0
  0
CIRCLE
  8
1
  6
CONTINUOUS
 62
   212
  5
4A5
 10
57.542917
 20
151.220667
 30
0.0
 40
1.5
210
0.0
220
0.0
230
1.0
  0
LINE
  8
1
  6
CONTINUOUS
 62
     7
  5
4A6
 10
92.542917
 20
151.220667
 30
0.0
 11
106.344
 21
151.220667
 31
0.0
  0
LINE
  8
1
  6
CONTINUOUS
 62
     7
  5
4A7
 10
-5.255417
 20
144.220667
 30
0.0
 11
-5.255417
 21
111.868833
 31
0.0
  0
LINE
  8
1
  6
CONTINUOUS
 62
     7
  5
4A8
 10
91.542917
 20
144.220667
 30
0.0
 11
91.542917
 21
111.868833
 31
0.0
  0
LINE
  8
1
  6
CONTINUOUS
 62
     7
  5
4A9
 10
2.744583
 20
142.220667
 30
0.0
 11
2.744583
 21
122.899667
 31
0.0
  0
LINE
  8
1
  6
CONTINUOUS
 62
     7
  5
4AA
 10
83.542917
 20
142.220667
 30
0.0
 11
83.542917
 21
122.899667
 31
0.0
  0
LINE
  8
1
  6
CONTINUOUS
 62
     7
  5
4AB
 10
28.744583
 20
142.220667
 30
0.0
 11
28.744583
 21
133.587917
 31
0.0
  0
LINE
  8
1
  6
CONTINUOUS
 62
     7
  5
4AC
 10
57.542917
 20
142.220667
 30
0.0
 11
57.542917
 21
133.587917
 31
0.0
  0
LINE
  8
1
  6
CONTINUOUS
 62
     7
  5
4AD
 10
28.744583
 20
134.587917
 30
0.0
 11
57.542917
 21
134.587917
 31
0.0
  0
LINE
  8
1
  6
CONTINUOUS
 62
     7
  5
4AE
 10
2.744583
 20
123.899667
 30
0.0
 11
83.542917
 21
123.899667
 31
0.0
  0
LINE
  8
1
  6
CONTINUOUS
 62
     7
  5
4AF
 10
-5.255417
 20
112.868833
 30
0.0
 11
91.542917
 21
112.868833
 31
0.0
  0
INSERT
  8
1
  6
CONTINUOUS
 62
     1
  5
4B0
  2
LDR
 10
118.084667
 20
224.582583
 30
0.0
 41
240.0
 42
240.0
 50
90.0
210
0.0
220
0.0
230
1.0
  0
INSERT
  8
1
  6
CONTINUOUS
 62
     1
  5
4B1
  2
LDR
 10
118.084667
 20
224.582583
 30
0.0
 41
240.0
 42
240.0
 50
90.0
210
0.0
220
0.0
230
1.0
  0
INSERT
  8
1
  6
CONTINUOUS
 62
     1
  5
4B2
  2
LDR
 10
118.084667
 20
143.220667
 30
0.0
 41
240.0
 42
240.0
 50
270.0
210
0.0
220
0.0
230
1.0
  0
INSERT
  8
1
  6
CONTINUOUS
 62
     1
  5
4B3
  2
LDR
 10
118.084667
 20
143.220667
 30
0.0
 41
240.0
 42
240.0
 50
270.0
210
0.0
220
0.0
230
1.0
  0
INSERT
  8
1
  6
CONTINUOUS
 62
     1
  5
4B4
  2
LDR
 10
105.344
 20
216.582583
 30
0.0
 41
240.0
 42
240.0
 50
90.0
210
0.0
220
0.0
230
1.0
  0
INSERT
  8
1
  6
CONTINUOUS
 62
     1
  5
4B5
  2
LDR
 10
105.344
 20
216.582583
 30
0.0
 41
240.0
 42
240.0
 50
90.0
210
0.0
220
0.0
230
1.0
  0
INSERT
  8
1
  6
CONTINUOUS
 62
     1
  5
4B6
  2
LDR
 10
105.344
 20
151.220667
 30
0.0
 41
240.0
 42
240.0
 50
270.0
210
0.0
220
0.0
230
1.0
  0
INSERT
  8
1
  6
CONTINUOUS
 62
     1
  5
4B7
  2
LDR
 10
105.344
 20
151.220667
 30
0.0
 41
240.0
 42
240.0
 50
270.0
210
0.0
220
0.0
230
1.0
  0
INSERT
  8
1
  6
CONTINUOUS
 62
     1
  5
4B8
  2
LDR
 10
57.542917
 20
134.587917
 30
0.0
 41
240.0
 42
240.0
210
0.0
220
0.0
230
1.0
  0
INSERT
  8
1
  6
CONTINUOUS
 62
     1
  5
4B9
  2
LDR
 10
57.542917
 20
134.587917
 30
0.0
 41
240.0
 42
240.0
210
0.0
220
0.0
230
1.0
  0
INSERT
  8
1
  6
CONTINUOUS
 62
     1
  5
4BA
  2
LDR
 10
28.744583
 20
134.587917
 30
0.0
 41
240.0
 42
240.0
 50
180.0
210
0.0
220
0.0
230
1.0
  0
INSERT
  8
1
  6
CONTINUOUS
 62
     1
  5
4BB
  2
LDR
 10
28.744583
 20
134.587917
 30
0.0
 41
240.0
 42
240.0
 50
180.0
210
0.0
220
0.0
230
1.0
  0
INSERT
  8
1
  6
CONTINUOUS
 62
     1
  5
4BC
  2
LDR
 10
2.744583
 20
123.899667
 30
0.0
 41
240.0
 42
240.0
 50
180.0
210
0.0
220
0.0
230
1.0
  0
INSERT
  8
1
  6
CONTINUOUS
 62
     1
  5
4BD
  2
LDR
 10
2.744583
 20
123.899667
 30
0.0
 41
240.0
 42
240.0
 50
180.0
210
0.0
220
0.0
230
1.0
  0
INSERT
  8
1
  6
CONTINUOUS
 62
     1
  5
4BE
  2
LDR
 10
83.542917
 20
123.899667
 30
0.0
 41
240.0
 42
240.0
210
0.0
220
0.0
230
1.0
  0
INSERT
  8
1
  6
CONTINUOUS
 62
     1
  5
4BF
  2
LDR
 10
83.542917
 20
123.899667
 30
0.0
 41
240.0
 42
240.0
210
0.0
220
0.0
230
1.0
  0
INSERT
  8
1
  6
CONTINUOUS
 62
     1
  5
4C0
  2
LDR
 10
91.542917
 20
112.868833
 30
0.0
 41
240.0
 42
240.0
210
0.0
220
0.0
230
1.0
  0
INSERT
  8
1
  6
CONTINUOUS
 62
     1
  5
4C1
  2
LDR
 10
91.542917
 20
112.868833
 30
0.0
 41
240.0
 42
240.0
210
0.0
220
0.0
230
1.0
  0
INSERT
  8
1
  6
CONTINUOUS
 62
     1
  5
4C2
  2
LDR
 10
-5.255417
 20
112.868833
 30
0.0
 41
240.0
 42
240.0
 50
180.0
210
0.0
220
0.0
230
1.0
  0
INSERT
  8
1
  6
CONTINUOUS
 62
     1
  5
4C3
  2
LDR
 10
-5.255417
 20
112.868833
 30
0.0
 41
240.0
 42
240.0
 50
180.0
210
0.0
220
0.0
230
1.0
  0
INSERT
  8
1
  6
CONTINUOUS
 62
     1
  5
4C4
  2
LDR
 10
-5.255417
 20
112.868833
 30
0.0
 41
240.0
 42
240.0
 50
180.0
210
0.0
220
0.0
230
1.0
  0
TEXT
  8
1
  6
CONTINUOUS
 62
     7
  5
4C5
 10
-27.652583
 20
228.043
 30
0.0
 40
2.5
  1
 3/8 " DIA.
  7
MONOTXT
 72
     4
 11
-20.634917
 21
229.293
 31
0.0
210
0.0
220
0.0
230
1.0
  0
TEXT
  8
1
  6
CONTINUOUS
 62
     7
  5
4C6
 10
-26.363167
 20
223.543
 30
0.0
 40
2.5
  1
HOLES
  7
MONOTXT
 72
     4
 11
-20.625
 21
224.793
 31
0.0
210
0.0
220
0.0
230
1.0
  0
TEXT
  8
1
  6
CONTINUOUS
 62
     7
  5
4C7
 10
39.381083
 20
130.665
 30
0.0
 40
2.5
  1
4 1/2 "
  7
MONOTXT
210
0.0
220
0.0
230
1.0
  0
TEXT
  8
1
  6
CONTINUOUS
 62
     7
  5
4C8
 10
41.23675
 20
120.1465
 30
0.0
 40
2.5
  1
12"
  7
MONOTXT
210
0.0
220
0.0
230
1.0
  0
TEXT
  8
1
  6
CONTINUOUS
 62
     7
  5
4C9
 10
41.85525
 20
109.2155
 30
0.0
 40
2.5
  1
14"
  7
MONOTXT
210
0.0
220
0.0
230
1.0
  0
TEXT
  8
1
  6
CONTINUOUS
 62
     7
  5
4CA
 10
109.0695
 20
183.257667
 30
0.0
 40
2.5
  1
10"
 50
90.0
  7
MONOTXT
210
0.0
220
0.0
230
1.0
  0
TEXT
  8
1
  6
CONTINUOUS
 62
     7
  5
4CB
 10
121.8525
 20
183.463917
 30
0.0
 40
2.5
  1
12"
 50
90.0
  7
MONOTXT
210
0.0
220
0.0
230
1.0
  0
TEXT
  8
1
  6
CONTINUOUS
 62
     7
  5
4CC
 10
-5.032083
 20
100.949583
 30
0.0
 40
4.0
  1
LUMINAIRE MOUNTING PLATE (ALT.)
  7
MONOTXT
210
0.0
220
0.0
230
1.0
  0
LINE
  8
1
  6
CONTINUOUS
 62
     7
  5
4CD
 10
-7.04225
 20
229.637583
 30
0.0
 11
-13.12625
 21
229.637583
 31
0.0
  0
LINE
  8
1
  6
CONTINUOUS
 62
     7
  5
4CE
 10
1.683917
 20
217.64325
 30
0.0
 11
-7.04225
 21
229.637583
 31
0.0
  0
LINE
  8
1
  6
CONTINUOUS
 62
     7
  5
4CF
 10
2.244583
 20
216.582583
 30
0.0
 11
3.244583
 21
216.582583
 31
0.0
  0
LINE
  8
1
  6
CONTINUOUS
 62
     7
  5
4D0
 10
3.744583
 20
216.582583
 30
0.0
 11
27.744583
 21
216.582583
 31
0.0
  0
LINE
  8
1
  6
CONTINUOUS
 62
     7
  5
4D1
 10
28.244583
 20
216.582583
 30
0.0
 11
29.244583
 21
216.582583
 31
0.0
  0
LINE
  8
1
  6
CONTINUOUS
 62
     7
  5
4D2
 10
29.744583
 20
216.582583
 30
0.0
 11
56.542917
 21
216.582583
 31
0.0
  0
LINE
  8
1
  6
CONTINUOUS
 62
     7
  5
4D3
 10
57.042917
 20
216.582583
 30
0.0
 11
58.042917
 21
216.582583
 31
0.0
  0
LINE
  8
1
  6
CONTINUOUS
 62
     7
  5
4D4
 10
58.542917
 20
216.582583
 30
0.0
 11
82.542917
 21
216.582583
 31
0.0
  0
LINE
  8
1
  6
CONTINUOUS
 62
     7
  5
4D5
 10
83.042917
 20
216.582583
 30
0.0
 11
84.042917
 21
216.582583
 31
0.0
  0
LINE
  8
1
  6
CONTINUOUS
 62
     7
  5
4D6
 10
2.744583
 20
216.082583
 30
0.0
 11
2.744583
 21
217.082583
 31
0.0
  0
LINE
  8
1
  6
CONTINUOUS
 62
     7
  5
4D7
 10
2.744583
 20
150.720667
 30
0.0
 11
2.744583
 21
151.720667
 31
0.0
  0
LINE
  8
1
  6
CONTINUOUS
 62
     7
  5
4D8
 10
2.744583
 20
152.220667
 30
0.0
 11
2.744583
 21
215.582583
 31
0.0
  0
LINE
  8
1
  6
CONTINUOUS
 62
     7
  5
4D9
 10
3.244583
 20
151.220667
 30
0.0
 11
2.244583
 21
151.220667
 31
0.0
  0
LINE
  8
1
  6
CONTINUOUS
 62
     7
  5
4DA
 10
27.744583
 20
151.220667
 30
0.0
 11
3.744583
 21
151.220667
 31
0.0
  0
LINE
  8
1
  6
CONTINUOUS
 62
     7
  5
4DB
 10
29.244583
 20
151.220667
 30
0.0
 11
28.244583
 21
151.220667
 31
0.0
  0
LINE
  8
1
  6
CONTINUOUS
 62
     7
  5
4DC
 10
56.542917
 20
151.220667
 30
0.0
 11
29.744583
 21
151.220667
 31
0.0
  0
LINE
  8
1
  6
CONTINUOUS
 62
     7
  5
4DD
 10
58.042917
 20
151.220667
 30
0.0
 11
57.042917
 21
151.220667
 31
0.0
  0
LINE
  8
1
  6
CONTINUOUS
 62
     7
  5
4DE
 10
84.042917
 20
151.220667
 30
0.0
 11
83.042917
 21
151.220667
 31
0.0
  0
LINE
  8
1
  6
CONTINUOUS
 62
     7
  5
4DF
 10
82.542917
 20
151.220667
 30
0.0
 11
58.542917
 21
151.220667
 31
0.0
  0
LINE
  8
1
  6
CONTINUOUS
 62
     7
  5
4E0
 10
83.542917
 20
151.720667
 30
0.0
 11
83.542917
 21
150.720667
 31
0.0
  0
LINE
  8
1
  6
CONTINUOUS
 62
     7
  5
4E1
 10
83.542917
 20
217.082583
 30
0.0
 11
83.542917
 21
216.082583
 31
0.0
  0
LINE
  8
1
  6
CONTINUOUS
 62
     7
  5
4E2
 10
83.542917
 20
215.582583
 30
0.0
 11
83.542917
 21
152.220667
 31
0.0
  0
LINE
  8
1
  6
CONTINUOUS
 62
     7
  5
4E3
 10
57.542917
 20
217.082583
 30
0.0
 11
57.542917
 21
216.082583
 31
0.0
  0
LINE
  8
1
  6
CONTINUOUS
 62
     7
  5
4E4
 10
57.542917
 20
215.582583
 30
0.0
 11
57.542917
 21
152.220667
 31
0.0
  0
LINE
  8
1
  6
CONTINUOUS
 62
     7
  5
4E5
 10
57.542917
 20
151.720667
 30
0.0
 11
57.542917
 21
150.720667
 31
0.0
  0
LINE
  8
1
  6
CONTINUOUS
 62
     7
  5
4E6
 10
28.744583
 20
151.720667
 30
0.0
 11
28.744583
 21
150.720667
 31
0.0
  0
LINE
  8
1
  6
CONTINUOUS
 62
     7
  5
4E7
 10
28.744583
 20
217.082583
 30
0.0
 11
28.744583
 21
216.082583
 31
0.0
  0
LINE
  8
1
  6
CONTINUOUS
 62
     7
  5
4E8
 10
28.744583
 20
215.582583
 30
0.0
 11
28.744583
 21
152.220667
 31
0.0
  0
LINE
  8
1
  6
CONTINUOUS
 62
     7
  5
4E9
 10
2.744583
 20
217.582583
 30
0.0
 11
2.744583
 21
219.082583
 31
0.0
  0
LINE
  8
1
  6
CONTINUOUS
 62
     7
  5
4EA
 10
1.744583
 20
216.582583
 30
0.0
 11
0.244583
 21
216.582583
 31
0.0
  0
LINE
  8
1
  6
CONTINUOUS
 62
     7
  5
4EB
 10
28.744583
 20
217.582583
 30
0.0
 11
28.744583
 21
219.082583
 31
0.0
  0
LINE
  8
1
  6
CONTINUOUS
 62
     7
  5
4EC
 10
57.542917
 20
217.582583
 30
0.0
 11
57.542917
 21
219.082583
 31
0.0
  0
LINE
  8
1
  6
CONTINUOUS
 62
     7
  5
4ED
 10
83.542917
 20
217.582583
 30
0.0
 11
83.542917
 21
219.082583
 31
0.0
  0
LINE
  8
1
  6
CONTINUOUS
 62
     7
  5
4EE
 10
84.542917
 20
216.582583
 30
0.0
 11
86.042917
 21
216.582583
 31
0.0
  0
LINE
  8
1
  6
CONTINUOUS
 62
     7
  5
4EF
 10
1.744583
 20
151.220667
 30
0.0
 11
0.244583
 21
151.220667
 31
0.0
  0
LINE
  8
1
  6
CONTINUOUS
 62
     7
  5
4F0
 10
2.744583
 20
150.220667
 30
0.0
 11
2.744583
 21
148.720667
 31
0.0
  0
LINE
  8
1
  6
CONTINUOUS
 62
     7
  5
4F1
 10
28.744583
 20
150.220667
 30
0.0
 11
28.744583
 21
148.720667
 31
0.0
  0
LINE
  8
1
  6
CONTINUOUS
 62
     7
  5
4F2
 10
57.542917
 20
150.220667
 30
0.0
 11
57.542917
 21
148.720667
 31
0.0
  0
LINE
  8
1
  6
CONTINUOUS
 62
     7
  5
4F3
 10
83.542917
 20
150.220667
 30
0.0
 11
83.542917
 21
148.720667
 31
0.0
  0
LINE
  8
1
  6
CONTINUOUS
 62
     7
  5
4F4
 10
84.542917
 20
151.220667
 30
0.0
 11
86.042917
 21
151.220667
 31
0.0
  0
POLYLINE
  8
1
  6
CONTINUOUS
 62
     7
  5
4F5
 66
     1
 10
0.0
 20
0.0
 30
0.0
  0
VERTEX
  8
1
  6
CONTINUOUS
 62
     7
  5
4F6
 10
432.35825
 20
51.452667
 30
0.0
  0
VERTEX
  8
1
  6
CONTINUOUS
 62
     7
  5
4F7
 10
430.35825
 20
47.988583
 30
0.0
  0
VERTEX
  8
1
  6
CONTINUOUS
 62
     7
  5
4F8
 10
434.35825
 20
47.988583
 30
0.0
  0
VERTEX
  8
1
  6
CONTINUOUS
 62
     7
  5
4F9
 10
432.35825
 20
51.452667
 30
0.0
  0
SEQEND
  8
1
  6
CONTINUOUS
 62
     7
  5
4FA
  0
TEXT
  8
1
  6
CONTINUOUS
 62
     7
  5
4FB
 10
431.677833
 20
48.215417
 30
0.0
 40
2.0
  1
3
  7
MONOTXT
210
0.0
220
0.0
230
1.0
  0
POLYLINE
  8
1
  6
CONTINUOUS
 62
     7
  5
4FC
 66
     1
 10
0.0
 20
0.0
 30
0.0
  0
VERTEX
  8
1
  6
CONTINUOUS
 62
     7
  5
4FD
 10
434.468583
 20
-23.45475
 30
0.0
  0
VERTEX
  8
1
  6
CONTINUOUS
 62
     7
  5
4FE
 10
432.468583
 20
-26.918833
 30
0.0
  0
VERTEX
  8
1
  6
CONTINUOUS
 62
     7
  5
4FF
 10
436.468583
 20
-26.918833
 30
0.0
  0
VERTEX
  8
1
  6
CONTINUOUS
 62
     7
  5
500
 10
434.468583
 20
-23.45475
 30
0.0
  0
SEQEND
  8
1
  6
CONTINUOUS
 62
     7
  5
501
  0
TEXT
  8
1
  6
CONTINUOUS
 62
     7
  5
502
 10
433.831083
 20
-26.600917
 30
0.0
 40
2.0
  1
3
  7
MONOTXT
210
0.0
220
0.0
230
1.0
  0
TEXT
  8
1
  6
CONTINUOUS
 62
     7
  5
503
 10
302.873083
 20
119.038
 30
0.0
 40
4.0
  1
(ALT.)
  7
MONOTXT
210
0.0
220
0.0
230
1.0
  0
TEXT
  8
1
  6
CONTINUOUS
 62
     7
  5
504
 10
435.250167
 20
48.782667
 30
0.0
 40
2.0
  1
ADDED ALT LUM. AND PLATE, REVISED TO REMOTE BALLAST, UPDATED LUMINAIRE NOMENCLATURE
  7
MONOTXT
210
0.0
220
0.0
230
1.0
  0
TEXT
  8
1
  6
CONTINUOUS
 62
     7
  5
505
 10
388.994583
 20
333.323
 30
0.0
 40
2.5
  1
GENERAL NOTES
  7
MONOTXT
 11
388.994583
 21
335.823
 31
0.0
210
0.0
220
0.0
230
1.0
 73
     3
  0
TEXT
  8
1
  6
CONTINUOUS
 62
     7
  5
506
 10
388.994583
 20
328.823
 30
0.0
 40
2.5
  1
 
  7
MONOTXT
 11
388.994583
 21
331.323
 31
0.0
210
0.0
220
0.0
230
1.0
 73
     3
  0
TEXT
  8
1
  6
CONTINUOUS
 62
     7
  5
507
 10
388.994583
 20
324.323
 30
0.0
 40
2.5
  1
SIGN ILLUMINATION
  7
MONOTXT
 11
388.994583
 21
326.823
 31
0.0
210
0.0
220
0.0
230
1.0
 73
     3
  0
TEXT
  8
1
  6
CONTINUOUS
 62
     7
  5
508
 10
388.994583
 20
319.823
 30
0.0
 40
2.5
  1
 
  7
MONOTXT
 11
388.994583
 21
322.323
 31
0.0
210
0.0
220
0.0
230
1.0
 73
     3
  0
TEXT
  8
1
  6
CONTINUOUS
 62
     7
  5
509
 10
388.994583
 20
315.323
 30
0.0
 40
2.5
  1
SIGN ILLUMINATION SHALL BE BY ATTACHED EXTERNAL MERCURY VAPOR FIXTURES AS SHOWN ON
  7
MONOTXT
 11
388.994583
 21
317.823
 31
0.0
210
0.0
220
0.0
230
1.0
 73
     3
  0
TEXT
  8
1
  6
CONTINUOUS
 62
     7
  5
50A
 10
388.994583
 20
310.823
 30
0.0
 40
2.5
  1
SIGN ILLUMINATION DETAIL SHEET TE6-3D.
  7
MONOTXT
 11
388.994583
 21
313.323
 31
0.0
210
0.0
220
0.0
230
1.0
 73
     3
  0
TEXT
  8
1
  6
CONTINUOUS
 62
     7
  5
50B
 10
388.994583
 20
306.323
 30
0.0
 40
2.5
  1
 
  7
MONOTXT
 11
388.994583
 21
308.823
 31
0.0
210
0.0
220
0.0
230
1.0
 73
     3
  0
TEXT
  8
1
  6
CONTINUOUS
 62
     7
  5
50C
 10
388.994583
 20
301.823
 30
0.0
 40
2.5
  1
GENERALLY, THE LUMINAIRE SHALL BE OF THE INTEGRAL BALLAST TYPE, COMPLETE WITH HOUSING,
  7
MONOTXT
 11
388.994583
 21
304.323
 31
0.0
210
0.0
220
0.0
230
1.0
 73
     3
  0
TEXT
  8
1
  6
CONTINUOUS
 62
     7
  5
50D
 10
388.994583
 20
297.323
 30
0.0
 40
2.5
  1
MOUNTING BRACKET REFLECTOR, LENSE REFRACTOR, FUSE HOLDER, FUSE, LAMP SOCKET, BALLAST
  7
MONOTXT
 11
388.994583
 21
299.823
 31
0.0
210
0.0
220
0.0
230
1.0
 73
     3
  0
TEXT
  8
1
  6
CONTINUOUS
 62
     7
  5
50E
 10
388.994583
 20
292.823
 30
0.0
 40
2.5
  1
AND LAMP.
  7
MONOTXT
 11
388.994583
 21
295.323
 31
0.0
210
0.0
220
0.0
230
1.0
 73
     3
  0
TEXT
  8
1
  6
CONTINUOUS
 62
     7
  5
50F
 10
388.994583
 20
288.323
 30
0.0
 40
2.5
  1
 
  7
MONOTXT
 11
388.994583
 21
290.823
 31
0.0
210
0.0
220
0.0
230
1.0
 73
     3
  0
TEXT
  8
1
  6
CONTINUOUS
 62
     7
  5
510
 10
388.994583
 20
283.823
 30
0.0
 40
2.5
  1
LAMPS
  7
MONOTXT
 11
388.994583
 21
286.323
 31
0.0
210
0.0
220
0.0
230
1.0
 73
     3
  0
TEXT
  8
1
  6
CONTINUOUS
 62
     7
  5
511
 10
388.994583
 20
279.323
 30
0.0
 40
2.5
  1
 
  7
MONOTXT
 11
388.994583
 21
281.823
 31
0.0
210
0.0
220
0.0
230
1.0
 73
     3
  0
TEXT
  8
1
  6
CONTINUOUS
 62
     7
  5
512
 10
388.994583
 20
274.823
 30
0.0
 40
2.5
  1
LAMPS SHALL BE 100, 175 OR 250 WATT DELUXE WHITE MERCURY VAPOR (AS INDICATED ON THE
  7
MONOTXT
 11
388.994583
 21
277.323
 31
0.0
210
0.0
220
0.0
230
1.0
 73
     3
  0
TEXT
  8
1
  6
CONTINUOUS
 62
     7
  5
513
 10
388.994583
 20
270.323
 30
0.0
 40
2.5
  1
PLANS) HEAVY GLASS TYPE WITH RATED LIFE OF 24,000 HOURS MINIMUM A.N.S.I. CODE H38T-100,
  7
MONOTXT
 11
388.994583
 21
272.823
 31
0.0
210
0.0
220
0.0
230
1.0
 73
     3
  0
TEXT
  8
1
  6
CONTINUOUS
 62
     7
  5
514
 10
388.994583
 20
265.823
 30
0.0
 40
2.5
  1
H39KB-175, OR H37KB-250.
  7
MONOTXT
 11
388.994583
 21
268.323
 31
0.0
210
0.0
220
0.0
230
1.0
 73
     3
  0
TEXT
  8
1
  6
CONTINUOUS
 62
     7
  5
515
 10
388.994583
 20
261.323
 30
0.0
 40
2.5
  1
 
  7
MONOTXT
 11
388.994583
 21
263.823
 31
0.0
210
0.0
220
0.0
230
1.0
 73
     3
  0
TEXT
  8
1
  6
CONTINUOUS
 62
     7
  5
516
 10
388.994583
 20
256.823
 30
0.0
 40
2.5
  1
LAMP FIXTURE
  7
MONOTXT
 11
388.994583
 21
259.323
 31
0.0
210
0.0
220
0.0
230
1.0
 73
     3
  0
TEXT
  8
1
  6
CONTINUOUS
 62
     7
  5
517
 10
388.994583
 20
252.323
 30
0.0
 40
2.5
  1
 
  7
MONOTXT
 11
388.994583
 21
254.823
 31
0.0
210
0.0
220
0.0
230
1.0
 73
     3
  0
TEXT
  8
1
  6
CONTINUOUS
 62
     7
  5
518
 10
388.994583
 20
247.823
 30
0.0
 40
2.5
  1
LUMINAIRE HOUSING SHALL BE CAST ALUMINUM WITH CAPTIVE CLOSED CELL NEOPRONE GASKET.
  7
MONOTXT
 11
388.994583
 21
250.323
 31
0.0
210
0.0
220
0.0
230
1.0
 73
     3
  0
TEXT
  8
1
  6
CONTINUOUS
 62
     7
  5
519
 10
388.994583
 20
243.323
 30
0.0
 40
2.5
  1
CLOSURE SHALL BE POSITIVE BY THE USE OF STAINLESS STEEL PRESSURE LATHES AND STAINLESS
  7
MONOTXT
 11
388.994583
 21
245.823
 31
0.0
210
0.0
220
0.0
230
1.0
 73
     3
  0
TEXT
  8
1
  6
CONTINUOUS
 62
     7
  5
51A
 10
388.994583
 20
238.823
 30
0.0
 40
2.5
  1
STEEL HINGES.
  7
MONOTXT
 11
388.994583
 21
241.323
 31
0.0
210
0.0
220
0.0
230
1.0
 73
     3
  0
TEXT
  8
1
  6
CONTINUOUS
 62
     7
  5
51B
 10
388.994583
 20
234.323
 30
0.0
 40
2.5
  1
 
  7
MONOTXT
 11
388.994583
 21
236.823
 31
0.0
210
0.0
220
0.0
230
1.0
 73
     3
  0
TEXT
  8
1
  6
CONTINUOUS
 62
     7
  5
51C
 10
388.994583
 20
229.823
 30
0.0
 40
2.5
  1
LENSE REFRACTOR SHALL BE MOLDED PRISMATIC THERMAL SHOCK RESISTANT BOROSILICATE GLASS.
  7
MONOTXT
 11
388.994583
 21
232.323
 31
0.0
210
0.0
220
0.0
230
1.0
 73
     3
  0
TEXT
  8
1
  6
CONTINUOUS
 62
     7
  5
51D
 10
388.994583
 20
225.323
 30
0.0
 40
2.5
  1
 
  7
MONOTXT
 11
388.994583
 21
227.823
 31
0.0
210
0.0
220
0.0
230
1.0
 73
     3
  0
TEXT
  8
1
  6
CONTINUOUS
 62
     7
  5
51E
 10
388.994583
 20
220.823
 30
0.0
 40
2.5
  1
LAMP SOCKET SHALL BE OF A HEAVY DUTY MOGUL TYPE AND BE PROVIDED WITH ADJUSTABLE
  7
MONOTXT
 11
388.994583
 21
223.323
 31
0.0
210
0.0
220
0.0
230
1.0
 73
     3
  0
TEXT
  8
1
  6
CONTINUOUS
 62
     7
  5
51F
 10
388.994583
 20
216.323
 30
0.0
 40
2.5
  1
SETTINGS OR POSITIONS FOR VARYING THE BEAM PATTERN.
  7
MONOTXT
 11
388.994583
 21
218.823
 31
0.0
210
0.0
220
0.0
230
1.0
 73
     3
  0
TEXT
  8
1
  6
CONTINUOUS
 62
     7
  5
520
 10
388.994583
 20
211.823
 30
0.0
 40
2.5
  1
 
  7
MONOTXT
 11
388.994583
 21
214.323
 31
0.0
210
0.0
220
0.0
230
1.0
 73
     3
  0
TEXT
  8
1
  6
CONTINUOUS
 62
     7
  5
521
 10
388.994583
 20
207.323
 30
0.0
 40
2.5
  1
FINAL FIELD AIMING (ADJUSTING AIMING ANGLE) OF FIXTURE SHALLL BE DONE AT NIGHT ACCORDING
  7
MONOTXT
 11
388.994583
 21
209.823
 31
0.0
210
0.0
220
0.0
230
1.0
 73
     3
  0
TEXT
  8
1
  6
CONTINUOUS
 62
     7
  5
522
 10
388.994583
 20
202.823
 30
0.0
 40
2.5
  1
TO THE MANUFACTURER'S RECOMMENDATIONNS.
  7
MONOTXT
 11
388.994583
 21
205.323
 31
0.0
210
0.0
220
0.0
230
1.0
 73
     3
  0
TEXT
  8
1
  6
CONTINUOUS
 62
     7
  5
523
 10
388.994583
 20
198.323
 30
0.0
 40
2.5
  1
 
  7
MONOTXT
 11
388.994583
 21
200.823
 31
0.0
210
0.0
220
0.0
230
1.0
 73
     3
  0
TEXT
  8
1
  6
CONTINUOUS
 62
     7
  5
524
 10
388.994583
 20
193.823
 30
0.0
 40
2.5
  1
REMOTE BALLAST
  7
MONOTXT
 11
388.994583
 21
196.323
 31
0.0
210
0.0
220
0.0
230
1.0
 73
     3
  0
TEXT
  8
1
  6
CONTINUOUS
 62
     7
  5
525
 10
388.994583
 20
189.323
 30
0.0
 40
2.5
  1
 
  7
MONOTXT
 11
388.994583
 21
191.823
 31
0.0
210
0.0
220
0.0
230
1.0
 73
     3
  0
TEXT
  8
1
  6
CONTINUOUS
 62
     7
  5
526
 10
388.994583
 20
184.823
 30
0.0
 40
2.5
  1
BALLASTS FOR LUMINAIRES SHALL BE 250 WATT (UNLESS OTHERWISE INDICATED), HIGH
  7
MONOTXT
 11
388.994583
 21
187.323
 31
0.0
210
0.0
220
0.0
230
1.0
 73
     3
  0
TEXT
  8
1
  6
CONTINUOUS
 62
     7
  5
527
 10
388.994583
 20
180.323
 30
0.0
 40
2.5
  1
POWER FACTOR CONSTANT WATTAGE, AUTO TRANSFORMER TYPE FOR USE WITH APPROPRIATE
  7
MONOTXT
 11
388.994583
 21
182.823
 31
0.0
210
0.0
220
0.0
230
1.0
 73
     3
  0
TEXT
  8
1
  6
CONTINUOUS
 62
     7
  5
528
 10
388.994583
 20
175.823
 30
0.0
 40
2.5
  1
LINE VOLTAGE, 60 HERTZ, OUTDOOR ENCLOSED SYSTEM AND SHALL PROVIDE FOR LAMP OPERATION
  7
MONOTXT
 11
388.994583
 21
178.323
 31
0.0
210
0.0
220
0.0
230
1.0
 73
     3
  0
TEXT
  8
1
  6
CONTINUOUS
 62
     7
  5
529
 10
388.994583
 20
171.323
 30
0.0
 40
2.5
  1
THROUGHOUT AN AMBIENT TEMPERATURE RANGE OF  20 F TO  150 F. BALLASTS SHALL BE MOUNTED.
  7
MONOTXT
 11
388.994583
 21
173.823
 31
0.0
210
0.0
220
0.0
230
1.0
 73
     3
  0
TEXT
  8
1
  6
CONTINUOUS
 62
     7
  5
52A
 10
388.994583
 20
166.823
 30
0.0
 40
2.5
  1
REMOTE AS SHOWN ON STANDARD DETAILS.
  7
MONOTXT
 11
388.994583
 21
169.323
 31
0.0
210
0.0
220
0.0
230
1.0
 73
     3
  0
ENDSEC
  0
EOF
