  0
SECTION
  2
HEADER
  9
$ACADVER
  1
AC1009
  9
$INSBASE
 10
0.0
 20
0.0
 30
0.0
  9
$EXTMIN
 10
-1.5385
 20
-0.641833
 30
0.0
  9
$EXTMAX
 10
678.5415
 20
439.398167
 30
0.0
  9
$LIMMIN
 10
0.0
 20
0.0
  9
$LIMMAX
 10
12.0
 20
9.0
  9
$ORTHOMODE
 70
     0
  9
$REGENMODE
 70
     1
  9
$FILLMODE
 70
     1
  9
$QTEXTMODE
 70
     0
  9
$MIRRTEXT
 70
     1
  9
$DRAGMODE
 70
     2
  9
$LTSCALE
 40
1.0
  9
$OSMODE
 70
     0
  9
$ATTMODE
 70
     1
  9
$TEXTSIZE
 40
0.2
  9
$TRACEWID
 40
0.05
  9
$TEXTSTYLE
  7
STANDARD
  9
$CLAYER
  8
0
  9
$CELTYPE
  6
CONTINUOUS
  9
$CECOLOR
 62
   256
  9
$DIMSCALE
 40
1.0
  9
$DIMASZ
 40
0.18
  9
$DIMEXO
 40
0.0625
  9
$DIMDLI
 40
0.38
  9
$DIMRND
 40
0.0
  9
$DIMDLE
 40
0.0
  9
$DIMEXE
 40
0.18
  9
$DIMTP
 40
0.0
  9
$DIMTM
 40
0.0
  9
$DIMTXT
 40
0.18
  9
$DIMCEN
 40
0.09
  9
$DIMTSZ
 40
0.0
  9
$DIMTOL
 70
     0
  9
$DIMLIM
 70
     0
  9
$DIMTIH
 70
     1
  9
$DIMTOH
 70
     1
  9
$DIMSE1
 70
     0
  9
$DIMSE2
 70
     0
  9
$DIMTAD
 70
     0
  9
$DIMZIN
 70
     0
  9
$DIMBLK
  1

  9
$DIMASO
 70
     1
  9
$DIMSHO
 70
     1
  9
$DIMPOST
  1

  9
$DIMAPOST
  1

  9
$DIMALT
 70
     0
  9
$DIMALTD
 70
     2
  9
$DIMALTF
 40
25.4
  9
$DIMLFAC
 40
1.0
  9
$DIMTOFL
 70
     0
  9
$DIMTVP
 40
0.0
  9
$DIMTIX
 70
     0
  9
$DIMSOXD
 70
     0
  9
$DIMSAH
 70
     0
  9
$DIMBLK1
  1

  9
$DIMBLK2
  1

  9
$DIMSTYLE
  2
STANDARD
  9
$DIMCLRD
 70
     0
  9
$DIMCLRE
 70
     0
  9
$DIMCLRT
 70
     0
  9
$DIMTFAC
 40
1.0
  9
$DIMGAP
 40
0.09
  9
$LUNITS
 70
     2
  9
$LUPREC
 70
     4
  9
$AXISMODE
 70
     0
  9
$AXISUNIT
 10
0.0
 20
0.0
  9
$SKETCHINC
 40
0.1
  9
$FILLETRAD
 40
0.0
  9
$AUNITS
 70
     0
  9
$AUPREC
 70
     0
  9
$MENU
  1
acad
  9
$ELEVATION
 40
0.0
  9
$PELEVATION
 40
0.0
  9
$THICKNESS
 40
0.0
  9
$LIMCHECK
 70
     0
  9
$BLIPMODE
 70
     1
  9
$CHAMFERA
 40
0.0
  9
$CHAMFERB
 40
0.0
  9
$SKPOLY
 70
     0
  9
$TDCREATE
 40
2451803.403356481
  9
$TDUPDATE
 40
2451803.403356481
  9
$TDINDWG
 40
0.0000000000
  9
$TDUSRTIMER
 40
0.0000000000
  9
$USRTIMER
 70
     1
  9
$ANGBASE
 50
0.0
  9
$ANGDIR
 70
     0
  9
$PDMODE
 70
     0
  9
$PDSIZE
 40
0.0
  9
$PLINEWID
 40
0.0
  9
$COORDS
 70
     0
  9
$SPLFRAME
 70
     0
  9
$SPLINETYPE
 70
     6
  9
$SPLINESEGS
 70
    10
  9
$ATTDIA
 70
     0
  9
$ATTREQ
 70
     1
  9
$HANDLING
 70
     1
  9
$HANDSEED
  5
A21
  9
$SURFTAB1
 70
     6
  9
$SURFTAB2
 70
     6
  9
$SURFTYPE
 70
     6
  9
$SURFU
 70
     6
  9
$SURFV
 70
     6
  9
$UCSNAME
  2

  9
$UCSORG
 10
0.0
 20
0.0
 30
0.0
  9
$UCSXDIR
 10
1.0
 20
0.0
 30
0.0
  9
$UCSYDIR
 10
0.0
 20
1.0
 30
0.0
  9
$PUCSNAME
  2

  9
$PUCSORG
 10
0.0
 20
0.0
 30
0.0
  9
$PUCSXDIR
 10
1.0
 20
0.0
 30
0.0
  9
$PUCSYDIR
 10
0.0
 20
1.0
 30
0.0
  9
$USERI1
 70
     0
  9
$USERI2
 70
     0
  9
$USERI3
 70
     0
  9
$USERI4
 70
     0
  9
$USERI5
 70
     0
  9
$USERR1
 40
0.0
  9
$USERR2
 40
0.0
  9
$USERR3
 40
0.0
  9
$USERR4
 40
0.0
  9
$USERR5
 40
0.0
  9
$WORLDVIEW
 70
     1
  9
$SHADEDGE
 70
     3
  9
$SHADEDIF
 70
    70
  9
$TILEMODE
 70
     1
  9
$MAXACTVP
 70
    16
  9
$PINSBASE
 10
0.0
 20
0.0
 30
0.0
  9
$PLIMCHECK
 70
     0
  9
$PEXTMIN
 10
-1.000000E+20
 20
-1.000000E+20
 30
-1.000000E+20
  9
$PEXTMAX
 10
-1.000000E+20
 20
-1.000000E+20
 30
-1.000000E+20
  9
$PLIMMIN
 10
0.0
 20
0.0
  9
$PLIMMAX
 10
12.0
 20
9.0
  9
$UNITMODE
 70
     0
  9
$VISRETAIN
 70
     0
  9
$PLINEGEN
 70
     1
  9
$PSLTSCALE
 70
     0
  9
$TREEDEPTH
 70
  3020
  9
$DWGCODEPAGE
  3
ansi_1252
  0
ENDSEC
  0
SECTION
  2
TABLES
  0
TABLE
  2
VPORT
 70
     1
  0
VPORT
  2
*ACTIVE
 70
     0
 10
0.0
 20
0.0
 11
1.0
 21
1.0
 12
0.0
 22
0.0
 13
0.0
 23
0.0
 14
0.0
 24
0.0
 15
0.0
 25
0.0
 16
0.0
 26
0.0
 36
1.0
 17
211.952391
 27
169.000208
 37
0.0
 40
708.904083
 41
1.795122
 42
50.0
 43
0.084167
 44
0.0
 50
0.0
 51
0.0
 71
     0
 72
   100
 73
     1
 74
     0
 75
     0
 76
     0
 77
     0
 78
     0
  0
ENDTAB
  0
TABLE
  2
LTYPE
 70
     7
  0
LTYPE
  2
CONTINUOUS
 70
     0
  3
Solid line
 72
    65
 73
     0
 40
0.0
  0
LTYPE
  2
DOT
 70
    64
  3
. . . . . . . . . . . . . . . . . . . . . . . . . . . . . . . . .
 72
    65
 73
     2
 40
0.25
 49
0.0
 49
-0.25
  0
LTYPE
  2
HIDDEN
 70
    64
  3
__ __ __ __ __ __ __ __ __ __ __ __ __ __ __ __ __ __ __ __ __ 
 72
    65
 73
     2
 40
0.375
 49
0.25
 49
-0.125
  0
LTYPE
  2
DASHED
 70
    64
  3
__ __ __ __ __ __ __ __ __ __ __ __ __ __ __ __ __ __ __ __ __
 72
    65
 73
     2
 40
0.75
 49
0.5
 49
-0.25
  0
LTYPE
  2
DASHDOT
 70
    64
  3
__ . __ . __ . __ . __ . __ . __ . __ . __ . __ . __ . __ . _
 72
    65
 73
     4
 40
1.0
 49
0.5
 49
-0.25
 49
0.0
 49
-0.25
  0
LTYPE
  2
DIVIDE
 70
    64
  3
____ . . ____ . . ____ . . ____ . . ____ . . ____ . . ____ . .
 72
    65
 73
     6
 40
1.25
 49
0.5
 49
-0.25
 49
0.0
 49
-0.25
 49
0.0
 49
-0.25
  0
LTYPE
  2
CENTER
 70
    64
  3
____ _ ____ _ ____ _ ____ _ ____ _ ____ _ ____ _ ____ _ ____ _
 72
    65
 73
     4
 40
2.0
 49
1.25
 49
-0.25
 49
0.25
 49
-0.25
  0
ENDTAB
  0
TABLE
  2
LAYER
 70
     5
  0
LAYER
  2
0
 70
     0
 62
     7
  6
CONTINUOUS
  0
LAYER
  2
CONSTRUCTION_CLASS
 70
     0
 62
     7
  6
CONTINUOUS
  0
LAYER
  2
PATTERN_CLASS
 70
     0
 62
     7
  6
CONTINUOUS
  0
LAYER
  2
61
 70
    64
 62
     7
  6
CONTINUOUS
  0
LAYER
  2
1
 70
    64
 62
     7
  6
CONTINUOUS
  0
ENDTAB
  0
TABLE
  2
STYLE
 70
     4
  0
STYLE
  2
STANDARD
 70
     0
 40
0.0
 41
1.0
 50
0.0
 71
     0
 42
0.0
  3
txt
  4

  0
STYLE
  2
MONOTXT
 70
     0
 40
0.2
 41
1.0
 50
0.0
 71
     0
 42
0.2
  3
MONOTXT
  4

  0
STYLE
  2
txt
 70
     0
 40
0.2
 41
1.0
 50
0.0
 71
     0
 42
0.2
  3
TXT
  4

  0
STYLE
  2
ROMANT
 70
     0
 40
0.2
 41
1.0
 50
0.0
 71
     0
 42
0.2
  3
ROMANT
  4

  0
ENDTAB
  0
TABLE
  2
VIEW
 70
     0
  0
ENDTAB
  0
TABLE
  2
UCS
 70
     0
  0
ENDTAB
  0
TABLE
  2
APPID
 70
     1
  0
APPID
  2
ACAD
 70
     0
  0
ENDTAB
  0
TABLE
  2
DIMSTYLE
 70
     1
  0
DIMSTYLE
  2
STANDARD
 70
     0
  3

  4

  5

  6

  7

 40
1.0
 41
0.18
 42
0.0625
 43
0.38
 44
0.18
 45
0.0
 46
0.0
 47
0.0
 48
0.0
140
0.18
141
0.09
142
0.0
143
25.4
144
1.0
145
0.0
146
1.0
147
0.09
 71
     0
 72
     0
 73
     1
 74
     1
 75
     0
 76
     0
 77
     0
 78
     0
170
     0
171
     2
172
     0
173
     0
174
     0
175
     0
176
     0
177
     0
178
     0
  0
ENDTAB
  0
ENDSEC
  0
SECTION
  2
BLOCKS
  0
BLOCK
  8
1
  6
CONTINUOUS
 62
     1
  5
17D
  2
LDR
 70
     0
 10
0.0
 20
0.0
 30
0.0
  3
LNR
  0
POLYLINE
  8
1
  6
CONTINUOUS
 62
     1
  5
17E
 66
     1
 10
0.0
 20
0.0
 30
0.0
210
0.0
220
0.0
230
1.0
  0
VERTEX
  8
1
  6
CONTINUOUS
 62
     1
  5
17F
 10
-0.011987
 20
-0.001802
 30
0.0
 42
-0.265147
  0
VERTEX
  8
1
  6
CONTINUOUS
 62
     1
  5
180
 10
-0.011849
 20
-0.001604
 30
0.0
 42
-0.064653
  0
VERTEX
  8
1
  6
CONTINUOUS
 62
     1
  5
181
 10
-0.011407
 20
-0.001387
 30
0.0
 42
-0.025822
  0
VERTEX
  8
1
  6
CONTINUOUS
 62
     1
  5
182
 10
-0.010681
 20
-0.00116
 30
0.0
 42
-0.014504
  0
VERTEX
  8
1
  6
CONTINUOUS
 62
     1
  5
183
 10
-0.0097
 20
-0.000933
 30
0.0
 42
-0.009896
  0
VERTEX
  8
1
  6
CONTINUOUS
 62
     1
  5
184
 10
-0.008505
 20
-0.000715
 30
0.0
 42
-0.007708
  0
VERTEX
  8
1
  6
CONTINUOUS
 62
     1
  5
185
 10
-0.007146
 20
-0.000515
 30
0.0
 42
-0.006655
  0
VERTEX
  8
1
  6
CONTINUOUS
 62
     1
  5
186
 10
-0.005679
 20
-0.000342
 30
0.0
 42
-0.006278
  0
VERTEX
  8
1
  6
CONTINUOUS
 62
     1
  5
187
 10
-0.004164
 20
-0.000202
 30
0.0
 42
-0.006439
  0
VERTEX
  8
1
  6
CONTINUOUS
 62
     1
  5
188
 10
-0.002666
 20
-0.000101
 30
0.0
 42
-0.007196
  0
VERTEX
  8
1
  6
CONTINUOUS
 62
     1
  5
189
 10
-0.001246
 20
-0.000044
 30
0.0
 42
-0.008852
  0
VERTEX
  8
1
  6
CONTINUOUS
 62
     1
  5
18A
 10
0.000037
 20
-0.000034
 30
0.0
 42
-0.008852
  0
SEQEND
  8
1
  6
CONTINUOUS
 62
     1
  5
18B
  0
POLYLINE
  8
1
  6
CONTINUOUS
 62
     1
  5
18C
 66
     1
 10
0.0
 20
0.0
 30
0.0
210
0.0
220
0.0
230
1.0
  0
VERTEX
  8
1
  6
CONTINUOUS
 62
     1
  5
18D
 10
0.000039
 20
0.000014
 30
0.0
 42
-0.005019
  0
VERTEX
  8
1
  6
CONTINUOUS
 62
     1
  5
18E
 10
-0.001103
 20
0.000071
 30
0.0
 42
-0.004038
  0
VERTEX
  8
1
  6
CONTINUOUS
 62
     1
  5
18F
 10
-0.002373
 20
0.000158
 30
0.0
 42
-0.003548
  0
VERTEX
  8
1
  6
CONTINUOUS
 62
     1
  5
190
 10
-0.003725
 20
0.00027
 30
0.0
 42
-0.003367
  0
VERTEX
  8
1
  6
CONTINUOUS
 62
     1
  5
191
 10
-0.005111
 20
0.000405
 30
0.0
 42
-0.003436
  0
VERTEX
  8
1
  6
CONTINUOUS
 62
     1
  5
192
 10
-0.006481
 20
0.000556
 30
0.0
 42
-0.003778
  0
VERTEX
  8
1
  6
CONTINUOUS
 62
     1
  5
193
 10
-0.007786
 20
0.00072
 30
0.0
 42
-0.00451
  0
VERTEX
  8
1
  6
CONTINUOUS
 62
     1
  5
194
 10
-0.008979
 20
0.000889
 30
0.0
 42
-0.00594
  0
VERTEX
  8
1
  6
CONTINUOUS
 62
     1
  5
195
 10
-0.010018
 20
0.001058
 30
0.0
 42
-0.008921
  0
VERTEX
  8
1
  6
CONTINUOUS
 62
     1
  5
196
 10
-0.010864
 20
0.00122
 30
0.0
 42
-0.016392
  0
VERTEX
  8
1
  6
CONTINUOUS
 62
     1
  5
197
 10
-0.011488
 20
0.001371
 30
0.0
 42
-0.04458
  0
VERTEX
  8
1
  6
CONTINUOUS
 62
     1
  5
198
 10
-0.011867
 20
0.001503
 30
0.0
 42
-0.317392
  0
VERTEX
  8
1
  6
CONTINUOUS
 62
     1
  5
199
 10
-0.011987
 20
0.001614
 30
0.0
 42
-0.317392
  0
SEQEND
  8
1
  6
CONTINUOUS
 62
     1
  5
19A
  0
ENDBLK
  8
1
  6
CONTINUOUS
 62
     1
  5
19B
  0
ENDSEC
  0
SECTION
  2
ENTITIES
  0
LINE
  8
61
  6
CONTINUOUS
 62
     1
  5
29
 10
667.5615
 20
429.398167
 30
0.0
 11
28.5215
 21
429.398167
 31
0.0
  0
LINE
  8
61
  6
CONTINUOUS
 62
     1
  5
2A
 10
28.5215
 20
429.398167
 30
0.0
 11
28.5215
 21
9.378167
 31
0.0
  0
LINE
  8
61
  6
CONTINUOUS
 62
     1
  5
2B
 10
667.5815
 20
9.358167
 30
0.0
 11
28.5215
 21
9.378167
 31
0.0
  0
LINE
  8
61
  6
CONTINUOUS
 62
     1
  5
2C
 10
667.5615
 20
429.398167
 30
0.0
 11
667.5815
 21
9.358167
 31
0.0
  0
LINE
  8
61
  6
CONTINUOUS
 62
     7
  5
2D
 10
661.4615
 20
424.658167
 30
0.0
 11
553.4815
 21
424.638167
 31
0.0
  0
LINE
  8
61
  6
CONTINUOUS
 62
     7
  5
2E
 10
553.4815
 20
424.638167
 30
0.0
 11
553.4815
 21
404.638167
 31
0.0
  0
LINE
  8
61
  6
CONTINUOUS
 62
     7
  5
2F
 10
661.4615
 20
424.658167
 30
0.0
 11
661.4615
 21
404.658167
 31
0.0
  0
LINE
  8
61
  6
CONTINUOUS
 62
     7
  5
30
 10
661.4615
 20
404.658167
 30
0.0
 11
553.4815
 21
404.638167
 31
0.0
  0
LINE
  8
61
  6
CONTINUOUS
 62
     7
  5
31
 10
661.4815
 20
414.618167
 30
0.0
 11
553.4615
 21
414.638167
 31
0.0
  0
LINE
  8
61
  6
CONTINUOUS
 62
     7
  5
32
 10
563.4815
 20
424.638167
 30
0.0
 11
563.4815
 21
404.638167
 31
0.0
  0
LINE
  8
61
  6
CONTINUOUS
 62
     7
  5
33
 10
573.4815
 20
424.638167
 30
0.0
 11
573.4815
 21
404.638167
 31
0.0
  0
LINE
  8
61
  6
CONTINUOUS
 62
     7
  5
34
 10
587.1615
 20
424.638167
 30
0.0
 11
587.1615
 21
404.638167
 31
0.0
  0
LINE
  8
61
  6
CONTINUOUS
 62
     7
  5
35
 10
651.4615
 20
424.658167
 30
0.0
 11
651.4615
 21
404.658167
 31
0.0
  0
LINE
  8
61
  6
CONTINUOUS
 62
     7
  5
36
 10
641.4615
 20
424.658167
 30
0.0
 11
641.4615
 21
404.658167
 31
0.0
  0
LINE
  8
61
  6
CONTINUOUS
 62
     7
  5
37
 10
619.4815
 20
424.638167
 30
0.0
 11
619.4815
 21
404.638167
 31
0.0
  0
LINE
  8
61
  6
CONTINUOUS
 62
     7
  5
38
 10
609.4815
 20
424.638167
 30
0.0
 11
609.4815
 21
404.638167
 31
0.0
  0
TEXT
  8
61
  6
CONTINUOUS
 62
     7
  5
3A
 10
555.5215
 20
421.618167
 30
0.0
 40
1.20075
  1
PUBLIC
 50
0.033272
 41
1.001804
  7
MONOTXT
210
0.0
220
0.0
230
1.0
  0
TEXT
  8
61
  6
CONTINUOUS
 62
     7
  5
3B
 10
555.6015
 20
419.098167
 30
0.0
 40
1.20075
  1
ROADS
 50
0.124322
 41
0.996877
  7
MONOTXT
210
0.0
220
0.0
230
1.0
  0
TEXT
  8
61
  6
CONTINUOUS
 62
     7
  5
3C
 10
556.8015
 20
416.598167
 30
0.0
 40
1.20075
  1
DIV.
 50
359.931522
 41
0.994864
  7
MONOTXT
210
0.0
220
0.0
230
1.0
  0
TEXT
  8
61
  6
CONTINUOUS
 62
     7
  5
3D
 10
565.6815
 20
421.678167
 30
0.0
 40
1.20075
  1
STATE
 50
0.058969
 41
0.998196
  7
MONOTXT
210
0.0
220
0.0
230
1.0
  0
TEXT
  8
61
  6
CONTINUOUS
 62
     7
  5
3E
 10
566.5615
 20
419.178167
 30
0.0
 40
1.20075
  1
DIST.
 50
0.055889
 41
0.999584
  7
MONOTXT
210
0.0
220
0.0
230
1.0
  0
TEXT
  8
61
  6
CONTINUOUS
 62
     7
  5
3F
 10
567.1415
 20
416.658167
 30
0.0
 40
1.20075
  1
NO.
 50
359.852072
 41
0.997779
  7
MONOTXT
210
0.0
220
0.0
230
1.0
  0
TEXT
  8
61
  6
CONTINUOUS
 62
     7
  5
40
 10
577.6815
 20
421.618167
 30
0.0
 40
1.20075
  1
STATE
 50
0.058969
 41
0.998196
  7
MONOTXT
210
0.0
220
0.0
230
1.0
  0
TEXT
  8
61
  6
CONTINUOUS
 62
     7
  5
41
 10
576.6015
 20
419.198167
 30
0.0
 40
1.20075
  1
PROJECT
 50
359.908431
 41
1.000069
  7
MONOTXT
210
0.0
220
0.0
230
1.0
  0
TEXT
  8
61
  6
CONTINUOUS
 62
     7
  5
42
 10
579.3415
 20
416.658167
 30
0.0
 40
1.20075
  1
NO.
 50
0.225453
 41
0.993546
  7
MONOTXT
210
0.0
220
0.0
230
1.0
  0
TEXT
  8
61
  6
CONTINUOUS
 62
     7
  5
43
 10
594.9815
 20
420.498167
 30
0.0
 40
1.20075
  1
FEDERAL
 50
0.006714
 41
0.998543
  7
MONOTXT
210
0.0
220
0.0
230
1.0
  0
TEXT
  8
61
  6
CONTINUOUS
 62
     7
  5
44
 10
593.4415
 20
417.838167
 30
0.0
 40
1.20075
  1
PROJECT NO.
 50
359.921531
 41
1.000694
  7
MONOTXT
210
0.0
220
0.0
230
1.0
  0
TEXT
  8
61
  6
CONTINUOUS
 62
     7
  5
45
 10
611.7215
 20
420.438167
 30
0.0
 40
1.20075
  1
FISCAL
 50
359.941939
 41
0.998959
  7
MONOTXT
210
0.0
220
0.0
230
1.0
  0
TEXT
  8
61
  6
CONTINUOUS
 62
     7
  5
46
 10
612.2415
 20
417.538167
 30
0.0
 40
1.20075
  1
YEAR
 50
0.104606
 41
0.993268
  7
MONOTXT
210
0.0
220
0.0
230
1.0
  0
TEXT
  8
61
  6
CONTINUOUS
 62
     7
  5
47
 10
626.3415
 20
418.898167
 30
0.0
 40
1.20075
  1
COUNTY
 50
0.068575
 41
1.001874
  7
MONOTXT
210
0.0
220
0.0
230
1.0
  0
TEXT
  8
61
  6
CONTINUOUS
 62
     7
  5
48
 10
643.9815
 20
420.558167
 30
0.0
 40
1.20075
  1
SHEET
 50
0.058969
 41
0.997571
  7
MONOTXT
210
0.0
220
0.0
230
1.0
  0
TEXT
  8
61
  6
CONTINUOUS
 62
     7
  5
49
 10
645.4015
 20
417.838167
 30
0.0
 40
1.20075
  1
NO.
 50
359.852072
 41
0.997779
  7
MONOTXT
210
0.0
220
0.0
230
1.0
  0
TEXT
  8
61
  6
CONTINUOUS
 62
     7
  5
4A
 10
653.7215
 20
420.418167
 30
0.0
 40
1.20075
  1
TOTAL
 50
359.926039
 41
0.998543
  7
MONOTXT
210
0.0
220
0.0
230
1.0
  0
TEXT
  8
61
  6
CONTINUOUS
 62
     7
  5
4B
 10
653.2615
 20
417.718167
 30
0.0
 40
1.20075
  1
SHEETS
 50
359.958675
  7
MONOTXT
210
0.0
220
0.0
230
1.0
  0
TEXT
  8
61
  6
CONTINUOUS
 62
     7
  5
4C
 10
566.0815
 20
408.838167
 30
0.0
 40
2.401333
  1
  
 50
0.029406
 41
0.996495
  7
MONOTXT
210
0.0
220
0.0
230
1.0
  0
TEXT
  8
61
  6
CONTINUOUS
 62
     7
  5
4D
 10
643.2615
 20
408.558167
 30
0.0
 40
2.401333
  1
   
 50
0.011508
 41
1.001006
  7
MONOTXT
210
0.0
220
0.0
230
1.0
  0
TEXT
  8
61
  6
CONTINUOUS
 62
     7
  5
4E
 10
653.1415
 20
408.538167
 30
0.0
 40
2.401333
  1
   
 50
359.922128
 41
1.000555
  7
MONOTXT
210
0.0
220
0.0
230
1.0
  0
TEXT
  8
61
  6
CONTINUOUS
 62
     7
  5
4F
 10
576.5215
 20
411.938167
 30
0.0
 40
2.00675
  1
    
 50
0.054383
 41
0.993729
  7
MONOTXT
210
0.0
220
0.0
230
1.0
  0
TEXT
  8
61
  6
CONTINUOUS
 62
     7
  5
50
 10
573.6015
 20
408.918167
 30
0.0
 40
1.989583
  1
       
 50
0.064678
 41
1.000963
  7
MONOTXT
210
0.0
220
0.0
230
1.0
  0
TEXT
  8
61
  6
CONTINUOUS
 62
     7
  5
51
 10
574.5615
 20
406.018167
 30
0.0
 40
1.989583
  1
      
 50
359.958053
 41
1.000293
  7
MONOTXT
210
0.0
220
0.0
230
1.0
  0
TEXT
  8
61
  6
CONTINUOUS
 62
     7
  5
52
 10
585.5215
 20
410.658167
 30
0.0
 40
2.401333
  1
           
 50
0.011508
 41
0.998751
  7
MONOTXT
210
0.0
220
0.0
230
1.0
  0
TEXT
  8
61
  6
CONTINUOUS
 62
     7
  5
53
 10
585.4015
 20
406.998167
 30
0.0
 40
2.401333
  1
           
 50
0.011508
 41
0.999584
  7
MONOTXT
210
0.0
220
0.0
230
1.0
  0
TEXT
  8
61
  6
CONTINUOUS
 62
     7
  5
54
 10
620.7415
 20
408.738167
 30
0.0
 40
2.00675
  1
          
 50
0.009222
 41
0.992774
  7
MONOTXT
210
0.0
220
0.0
230
1.0
  0
ARC
  8
61
  6
CONTINUOUS
 62
     3
  5
55
 10
10.219257
 20
340.639462
 30
0.0
 40
2.499998
 50
323.130094
 51
316.232156
210
0.0
220
0.0
230
1.0
  0
ARC
  8
61
  6
CONTINUOUS
 62
     3
  5
56
 10
10.219257
 20
285.639462
 30
0.0
 40
2.499998
 50
323.130094
 51
315.375767
210
0.0
220
0.0
230
1.0
  0
ARC
  8
61
  6
CONTINUOUS
 62
     3
  5
57
 10
9.939257
 20
137.199462
 30
0.0
 40
2.499998
 50
322.671753
 51
321.716147
210
0.0
220
0.0
230
1.0
  0
ARC
  8
61
  6
CONTINUOUS
 62
     3
  5
58
 10
9.939257
 20
82.199462
 30
0.0
 40
2.499998
 50
323.130094
 51
312.314392
210
0.0
220
0.0
230
1.0
  0
LINE
  8
61
  6
CONTINUOUS
 62
     2
  5
59
 10
12.2415
 20
340.638167
 30
0.0
 11
20.2215
 21
340.658167
 31
0.0
  0
LINE
  8
61
  6
CONTINUOUS
 62
     2
  5
5A
 10
12.2215
 20
285.638167
 30
0.0
 11
20.2215
 21
285.638167
 31
0.0
  0
LINE
  8
61
  6
CONTINUOUS
 62
     2
  5
5B
 10
11.9415
 20
137.218167
 30
0.0
 11
19.9415
 21
137.218167
 31
0.0
  0
LINE
  8
61
  6
CONTINUOUS
 62
     2
  5
5C
 10
11.9615
 20
82.198167
 30
0.0
 11
19.9415
 21
82.198167
 31
0.0
  0
LINE
  8
61
  6
DASHED
 62
     1
  5
5D
 10
-1.4785
 20
439.398167
 30
0.0
 11
678.5415
 21
439.398167
 31
0.0
  0
LINE
  8
61
  6
DASHED
 62
     1
  5
5E
 10
678.5215
 20
-0.621833
 30
0.0
 11
-1.5385
 21
-0.641833
 31
0.0
  0
TEXT
  8
61
  6
CONTINUOUS
 62
     7
  5
5F
 10
654.3615
 20
384.738167
 30
0.0
 40
2.401333
  1
     
 41
1.001388
  7
MONOTXT
210
0.0
220
0.0
230
1.0
  0
LINE
  8
1
  6
HIDDEN
 62
     1
  5
61
 10
678.5415
 20
439.398167
 30
0.0
 11
678.5215
 21
-0.621833
 31
0.0
  0
LINE
  8
1
  6
HIDDEN
 62
     1
  5
62
 10
-1.4785
 20
439.398167
 30
0.0
 11
-1.5385
 21
-0.641833
 31
0.0
  0
TEXT
  8
1
  6
CONTINUOUS
 62
     1
  5
64
 10
633.3015
 20
6.858167
 30
0.0
 40
1.2
  1
TRAFFIC ENGINEERING DIVISION
  7
txt
210
0.0
220
0.0
230
1.0
  0
LINE
  8
1
  6
CONTINUOUS
 62
     7
  5
65
 10
495.9215
 20
9.358167
 30
0.0
 11
495.9215
 21
100.938167
 31
0.0
  0
LINE
  8
1
  6
CONTINUOUS
 62
     7
  5
66
 10
495.9215
 20
100.938167
 30
0.0
 11
667.5815
 21
100.938167
 31
0.0
  0
LINE
  8
1
  6
CONTINUOUS
 62
     7
  5
67
 10
530.9215
 20
9.318167
 30
0.0
 11
530.9215
 21
54.278167
 31
0.0
  0
LINE
  8
1
  6
CONTINUOUS
 62
     7
  5
68
 10
530.9215
 20
54.278167
 30
0.0
 11
495.9415
 21
54.278167
 31
0.0
  0
LINE
  8
1
  6
CONTINUOUS
 62
     7
  5
69
 10
530.9215
 20
49.798167
 30
0.0
 11
495.9415
 21
49.798167
 31
0.0
  0
LINE
  8
1
  6
CONTINUOUS
 62
     7
  5
6A
 10
530.9215
 20
45.298167
 30
0.0
 11
495.9415
 21
45.298167
 31
0.0
  0
LINE
  8
1
  6
CONTINUOUS
 62
     7
  5
6B
 10
530.9215
 20
40.798167
 30
0.0
 11
495.9415
 21
40.798167
 31
0.0
  0
LINE
  8
1
  6
CONTINUOUS
 62
     7
  5
6C
 10
530.9215
 20
36.278167
 30
0.0
 11
495.9415
 21
36.278167
 31
0.0
  0
LINE
  8
1
  6
CONTINUOUS
 62
     7
  5
6D
 10
530.9215
 20
31.798167
 30
0.0
 11
495.9415
 21
31.798167
 31
0.0
  0
LINE
  8
1
  6
CONTINUOUS
 62
     7
  5
6E
 10
530.9215
 20
27.318167
 30
0.0
 11
495.9415
 21
27.318167
 31
0.0
  0
LINE
  8
1
  6
CONTINUOUS
 62
     7
  5
6F
 10
530.9215
 20
22.818167
 30
0.0
 11
495.9415
 21
22.818167
 31
0.0
  0
LINE
  8
1
  6
CONTINUOUS
 62
     7
  5
70
 10
530.9215
 20
18.318167
 30
0.0
 11
495.9415
 21
18.318167
 31
0.0
  0
LINE
  8
1
  6
CONTINUOUS
 62
     7
  5
71
 10
530.9215
 20
13.798167
 30
0.0
 11
495.9415
 21
13.798167
 31
0.0
  0
TEXT
  8
1
  6
CONTINUOUS
 62
     7
  5
72
 10
506.2015
 20
51.278167
 30
0.0
 40
1.99775
  1
REVISIONS
  7
MONOTXT
210
0.0
220
0.0
230
1.0
  0
TEXT
  8
1
  6
CONTINUOUS
 62
     7
  5
73
 10
497.8815
 20
55.278167
 30
0.0
 40
1.99775
  1
PREPARED: 03/20/67
  7
MONOTXT
210
0.0
220
0.0
230
1.0
  0
TEXT
  8
1
  6
CONTINUOUS
 62
     7
  5
75
 10
528.5415
 20
92.338167
 30
0.0
 40
4.794833
  1
WEST VIRGINIA DIVISION OF HIGHWAYS
  7
ROMANT
 72
     1
 11
582.51175
 21
97.133
 31
0.0
210
0.0
220
0.0
230
1.0
 73
     3
  0
TEXT
  8
1
  6
CONTINUOUS
 62
     7
  5
76
 10
539.3015
 20
81.178167
 30
0.0
 40
6.992667
  1
STANDARD DETAIL
  7
txt
 72
     1
 11
583.791583
 21
88.170833
 31
0.0
210
0.0
220
0.0
230
1.0
 73
     3
  0
TEXT
  8
1
  6
CONTINUOUS
 62
     7
  5
77
 10
534.7615
 20
13.398167
 30
0.0
 40
6.992667
  1
STANDARD SHEET TE7-1 
  7
txt
210
0.0
220
0.0
230
1.0
  0
TEXT
  8
1
  6
CONTINUOUS
 62
     1
  5
78
 10
506.056167
 20
46.218167
 30
0.0
 40
2.0
  1
03-06-68
  7
MONOTXT
 72
     1
 11
513.2295
 21
48.218167
 31
0.0
210
0.0
220
0.0
230
1.0
 73
     3
  0
TEXT
  8
1
  6
CONTINUOUS
 62
     1
  5
79
 10
505.988917
 20
41.818167
 30
0.0
 40
2.0
  1
05-22-68
  7
MONOTXT
 72
     1
 11
513.2095
 21
43.818167
 31
0.0
210
0.0
220
0.0
230
1.0
 73
     3
  0
TEXT
  8
1
  6
CONTINUOUS
 62
     1
  5
7A
 10
506.843583
 20
37.418167
 30
0.0
 40
2.0
  1
10-21-76
  7
MONOTXT
 72
     1
 11
513.2295
 21
39.418167
 31
0.0
210
0.0
220
0.0
230
1.0
 73
     3
  0
TEXT
  8
1
  6
CONTINUOUS
 62
     1
  5
7B
 10
506.465583
 20
33.018167
 30
0.0
 40
2.0
  1
09-16-87
  7
MONOTXT
 72
     1
 11
513.221583
 21
35.018167
 31
0.0
210
0.0
220
0.0
230
1.0
 73
     3
  0
TEXT
  8
1
  6
CONTINUOUS
 62
     1
  5
7C
 10
505.0615
 20
28.418167
 30
0.0
 40
2.0
  1
        
  7
MONOTXT
 72
     1
 11
512.728333
 21
30.418167
 31
0.0
210
0.0
220
0.0
230
1.0
 73
     3
  0
TEXT
  8
1
  6
CONTINUOUS
 62
     1
  5
7D
 10
505.2215
 20
23.938167
 30
0.0
 40
2.0
  1
        
  7
MONOTXT
 72
     1
 11
512.888333
 21
25.938167
 31
0.0
210
0.0
220
0.0
230
1.0
 73
     3
  0
TEXT
  8
1
  6
CONTINUOUS
 62
     1
  5
7E
 10
505.1215
 20
19.338167
 30
0.0
 40
2.0
  1
        
  7
MONOTXT
 72
     1
 11
512.788333
 21
21.338167
 31
0.0
210
0.0
220
0.0
230
1.0
 73
     3
  0
TEXT
  8
1
  6
CONTINUOUS
 62
     1
  5
7F
 10
505.2215
 20
14.758167
 30
0.0
 40
2.0
  1
        
  7
MONOTXT
 72
     1
 11
512.888333
 21
16.758167
 31
0.0
210
0.0
220
0.0
230
1.0
 73
     3
  0
TEXT
  8
1
  6
CONTINUOUS
 62
     1
  5
80
 10
505.2215
 20
10.738167
 30
0.0
 40
2.0
  1
        
  7
MONOTXT
 72
     1
 11
512.888333
 21
12.738167
 31
0.0
210
0.0
220
0.0
230
1.0
 73
     3
  0
TEXT
  8
1
  6
CONTINUOUS
 62
     7
  5
81
 10
526.251667
 20
71.702083
 30
0.0
 40
6.992667
  1
EXTRUDED SIGN PANEL
  7
txt
 72
     1
 11
583.79175
 21
78.69475
 31
0.0
210
0.0
220
0.0
230
1.0
 73
     3
  0
TEXT
  8
1
  6
CONTINUOUS
 62
     7
  5
82
 10
558.015333
 20
62.070667
 30
0.0
 40
6.992667
  1
ALUMINUM
  7
txt
 72
     1
 11
583.79175
 21
69.063333
 31
0.0
210
0.0
220
0.0
230
1.0
 73
     3
  0
POLYLINE
  8
1
  6
CONTINUOUS
 62
     7
  5
83
 66
     1
 10
0.0
 20
0.0
 30
0.0
  0
VERTEX
  8
1
  6
CONTINUOUS
 62
     7
  5
84
 10
500.563667
 20
49.36425
 30
0.0
  0
VERTEX
  8
1
  6
CONTINUOUS
 62
     7
  5
85
 10
498.563667
 20
45.900167
 30
0.0
  0
VERTEX
  8
1
  6
CONTINUOUS
 62
     7
  5
86
 10
502.563667
 20
45.900167
 30
0.0
  0
VERTEX
  8
1
  6
CONTINUOUS
 62
     7
  5
87
 10
500.563667
 20
49.36425
 30
0.0
  0
SEQEND
  8
1
  6
CONTINUOUS
 62
     7
  5
88
  0
POLYLINE
  8
1
  6
CONTINUOUS
 62
     7
  5
89
 66
     1
 10
0.0
 20
0.0
 30
0.0
  0
VERTEX
  8
1
  6
CONTINUOUS
 62
     7
  5
8A
 10
500.563667
 20
44.85925
 30
0.0
  0
VERTEX
  8
1
  6
CONTINUOUS
 62
     7
  5
8B
 10
498.563667
 20
41.395167
 30
0.0
  0
VERTEX
  8
1
  6
CONTINUOUS
 62
     7
  5
8C
 10
502.563667
 20
41.395167
 30
0.0
  0
VERTEX
  8
1
  6
CONTINUOUS
 62
     7
  5
8D
 10
500.563667
 20
44.85925
 30
0.0
  0
SEQEND
  8
1
  6
CONTINUOUS
 62
     7
  5
8E
  0
POLYLINE
  8
1
  6
CONTINUOUS
 62
     7
  5
8F
 66
     1
 10
0.0
 20
0.0
 30
0.0
  0
VERTEX
  8
1
  6
CONTINUOUS
 62
     7
  5
90
 10
500.563667
 20
40.354167
 30
0.0
  0
VERTEX
  8
1
  6
CONTINUOUS
 62
     7
  5
91
 10
498.563667
 20
36.890083
 30
0.0
  0
VERTEX
  8
1
  6
CONTINUOUS
 62
     7
  5
92
 10
502.563667
 20
36.890083
 30
0.0
  0
VERTEX
  8
1
  6
CONTINUOUS
 62
     7
  5
93
 10
500.563667
 20
40.354167
 30
0.0
  0
SEQEND
  8
1
  6
CONTINUOUS
 62
     7
  5
94
  0
POLYLINE
  8
1
  6
CONTINUOUS
 62
     7
  5
95
 66
     1
 10
0.0
 20
0.0
 30
0.0
  0
VERTEX
  8
1
  6
CONTINUOUS
 62
     7
  5
96
 10
500.563667
 20
35.849167
 30
0.0
  0
VERTEX
  8
1
  6
CONTINUOUS
 62
     7
  5
97
 10
498.563667
 20
32.385083
 30
0.0
  0
VERTEX
  8
1
  6
CONTINUOUS
 62
     7
  5
98
 10
502.563667
 20
32.385083
 30
0.0
  0
VERTEX
  8
1
  6
CONTINUOUS
 62
     7
  5
99
 10
500.563667
 20
35.849167
 30
0.0
  0
SEQEND
  8
1
  6
CONTINUOUS
 62
     7
  5
9A
  0
POLYLINE
  8
1
  6
CONTINUOUS
 62
     7
  5
9B
 66
     1
 10
0.0
 20
0.0
 30
0.0
  0
VERTEX
  8
1
  6
CONTINUOUS
 62
     7
  5
9C
 10
498.078917
 20
106.68675
 30
0.0
  0
VERTEX
  8
1
  6
CONTINUOUS
 62
     7
  5
9D
 10
496.078917
 20
103.222667
 30
0.0
  0
VERTEX
  8
1
  6
CONTINUOUS
 62
     7
  5
9E
 10
500.078917
 20
103.222667
 30
0.0
  0
VERTEX
  8
1
  6
CONTINUOUS
 62
     7
  5
9F
 10
498.078917
 20
106.68675
 30
0.0
  0
SEQEND
  8
1
  6
CONTINUOUS
 62
     7
  5
A0
  0
POLYLINE
  8
1
  6
CONTINUOUS
 62
     7
  5
A1
 66
     1
 10
0.0
 20
0.0
 30
0.0
  0
VERTEX
  8
1
  6
CONTINUOUS
 62
     7
  5
A2
 10
498.078917
 20
111.19175
 30
0.0
  0
VERTEX
  8
1
  6
CONTINUOUS
 62
     7
  5
A3
 10
496.078917
 20
107.727667
 30
0.0
  0
VERTEX
  8
1
  6
CONTINUOUS
 62
     7
  5
A4
 10
500.078917
 20
107.727667
 30
0.0
  0
VERTEX
  8
1
  6
CONTINUOUS
 62
     7
  5
A5
 10
498.078917
 20
111.19175
 30
0.0
  0
SEQEND
  8
1
  6
CONTINUOUS
 62
     7
  5
A6
  0
POLYLINE
  8
1
  6
CONTINUOUS
 62
     7
  5
A7
 66
     1
 10
0.0
 20
0.0
 30
0.0
  0
VERTEX
  8
1
  6
CONTINUOUS
 62
     7
  5
A8
 10
498.23425
 20
116.007417
 30
0.0
  0
VERTEX
  8
1
  6
CONTINUOUS
 62
     7
  5
A9
 10
496.23425
 20
112.543333
 30
0.0
  0
VERTEX
  8
1
  6
CONTINUOUS
 62
     7
  5
AA
 10
500.23425
 20
112.543333
 30
0.0
  0
VERTEX
  8
1
  6
CONTINUOUS
 62
     7
  5
AB
 10
498.23425
 20
116.007417
 30
0.0
  0
SEQEND
  8
1
  6
CONTINUOUS
 62
     7
  5
AC
  0
POLYLINE
  8
1
  6
CONTINUOUS
 62
     7
  5
AD
 66
     1
 10
0.0
 20
0.0
 30
0.0
  0
VERTEX
  8
1
  6
CONTINUOUS
 62
     7
  5
AE
 10
498.23425
 20
120.357083
 30
0.0
  0
VERTEX
  8
1
  6
CONTINUOUS
 62
     7
  5
AF
 10
496.23425
 20
116.893
 30
0.0
  0
VERTEX
  8
1
  6
CONTINUOUS
 62
     7
  5
B0
 10
500.23425
 20
116.893
 30
0.0
  0
VERTEX
  8
1
  6
CONTINUOUS
 62
     7
  5
B1
 10
498.23425
 20
120.357083
 30
0.0
  0
SEQEND
  8
1
  6
CONTINUOUS
 62
     7
  5
B2
  0
TEXT
  8
1
  6
CONTINUOUS
 62
     7
  5
B3
 10
497.97075
 20
117.475917
 30
0.0
 40
1.5
  1
1
  7
MONOTXT
210
0.0
220
0.0
230
1.0
  0
TEXT
  8
1
  6
CONTINUOUS
 62
     7
  5
B4
 10
497.781
 20
113.045833
 30
0.0
 40
1.5
  1
2
  7
MONOTXT
210
0.0
220
0.0
230
1.0
  0
TEXT
  8
1
  6
CONTINUOUS
 62
     7
  5
B5
 10
497.527917
 20
108.299333
 30
0.0
 40
1.5
  1
3
  7
MONOTXT
210
0.0
220
0.0
230
1.0
  0
TEXT
  8
1
  6
CONTINUOUS
 62
     7
  5
B6
 10
497.401417
 20
103.86925
 30
0.0
 40
1.5
  1
4
  7
MONOTXT
210
0.0
220
0.0
230
1.0
  0
TEXT
  8
1
  6
CONTINUOUS
 62
     7
  5
B7
 10
501.197333
 20
117.53925
 30
0.0
 40
2.0
  1
STITCH BOLT DETAIL ADDED
  7
MONOTXT
210
0.0
220
0.0
230
1.0
  0
TEXT
  8
1
  6
CONTINUOUS
 62
     7
  5
B8
 10
501.323917
 20
113.36225
 30
0.0
 40
2.0
  1
EXTRUSION REVISED TO INCLUDE REFLECTIVE SHEETING OVERLAP
  7
MONOTXT
210
0.0
220
0.0
230
1.0
  0
TEXT
  8
1
  6
CONTINUOUS
 62
     7
  5
B9
 10
501.197333
 20
108.742333
 30
0.0
 40
2.0
  1
HEX. LOCK NUT AND SIGNATURE BLOCK
  7
MONOTXT
210
0.0
220
0.0
230
1.0
  0
TEXT
  8
1
  6
CONTINUOUS
 62
     7
  5
BA
 10
501.007583
 20
103.742667
 30
0.0
 40
2.0
  1
ADDED EXTRUSION C, REVISED EXTRUSION B, POST CLIP AND BOLT
  7
MONOTXT
210
0.0
220
0.0
230
1.0
  0
TEXT
  8
1
  6
CONTINUOUS
 62
     7
  5
BB
 10
500.310167
 20
46.42
 30
0.0
 40
1.5
  1
1
  7
MONOTXT
210
0.0
220
0.0
230
1.0
  0
TEXT
  8
1
  6
CONTINUOUS
 62
     7
  5
BC
 10
500.0945
 20
41.92425
 30
0.0
 40
1.5
  1
2
  7
MONOTXT
210
0.0
220
0.0
230
1.0
  0
TEXT
  8
1
  6
CONTINUOUS
 62
     7
  5
BD
 10
500.059667
 20
37.334083
 30
0.0
 40
1.5
  1
3
  7
MONOTXT
210
0.0
220
0.0
230
1.0
  0
TEXT
  8
1
  6
CONTINUOUS
 62
     7
  5
BE
 10
500.024917
 20
32.917667
 30
0.0
 40
1.5
  1
4
  7
MONOTXT
210
0.0
220
0.0
230
1.0
  0
LINE
  8
1
  6
CONTINUOUS
 62
     4
  5
BF
 10
126.85375
 20
408.49625
 30
0.0
 11
77.60375
 21
408.49625
 31
0.0
  0
LINE
  8
1
  6
CONTINUOUS
 62
     4
  5
C0
 10
70.85375
 20
409.49625
 30
0.0
 11
76.60375
 21
409.49625
 31
0.0
  0
LINE
  8
1
  6
CONTINUOUS
 62
     4
  5
C1
 10
70.85375
 20
401.49625
 30
0.0
 11
76.60375
 21
401.49625
 31
0.0
  0
LINE
  8
1
  6
CONTINUOUS
 62
     4
  5
C2
 10
77.60375
 20
408.49625
 30
0.0
 11
77.60375
 21
402.49625
 31
0.0
  0
ARC
  8
1
  6
CONTINUOUS
 62
     4
  5
C3
 10
76.60375
 20
408.49625
 30
0.0
 40
1.0
 50
0.0
 51
90.0
210
0.0
220
0.0
230
1.0
  0
ARC
  8
1
  6
CONTINUOUS
 62
     4
  5
C4
 10
76.60375
 20
402.49625
 30
0.0
 40
1.0
 50
270.0
 51
0.0
210
0.0
220
0.0
230
1.0
  0
LINE
  8
1
  6
CONTINUOUS
 62
     4
  5
C5
 10
78.35375
 20
408.49625
 30
0.0
 11
78.35375
 21
402.49625
 31
0.0
  0
LINE
  8
1
  6
CONTINUOUS
 62
     4
  5
C6
 10
77.60375
 20
402.49625
 30
0.0
 11
78.35375
 21
402.49625
 31
0.0
  0
LINE
  8
1
  6
CONTINUOUS
 62
     4
  5
C7
 10
78.35375
 20
407.99625
 30
0.0
 11
79.35375
 21
407.99625
 31
0.0
  0
LINE
  8
1
  6
CONTINUOUS
 62
     4
  5
C8
 10
78.35375
 20
402.99625
 30
0.0
 11
79.35375
 21
402.99625
 31
0.0
  0
LINE
  8
1
  6
CONTINUOUS
 62
     4
  5
C9
 10
78.35375
 20
406.74625
 30
0.0
 11
79.35375
 21
406.74625
 31
0.0
  0
LINE
  8
1
  6
CONTINUOUS
 62
     4
  5
CA
 10
78.35375
 20
404.24625
 30
0.0
 11
79.35375
 21
404.24625
 31
0.0
  0
ARC
  8
1
  6
CONTINUOUS
 62
     4
  5
CB
 10
79.328162
 20
407.37125
 30
0.0
 40
0.625524
 50
272.344417
 51
87.655583
210
0.0
220
0.0
230
1.0
  0
ARC
  8
1
  6
CONTINUOUS
 62
     4
  5
CC
 10
79.328162
 20
403.62125
 30
0.0
 40
0.625524
 50
272.344417
 51
87.655583
210
0.0
220
0.0
230
1.0
  0
ARC
  8
1
  6
CONTINUOUS
 62
     4
  5
CD
 10
78.351444
 20
405.49625
 30
0.0
 40
1.602223
 50
308.724197
 51
51.275803
210
0.0
220
0.0
230
1.0
  0
LINE
  8
1
  6
CONTINUOUS
 62
     4
  5
CE
 10
80.953667
 20
406.99625
 30
0.0
 11
80.953667
 21
403.99625
 31
0.0
  0
LINE
  8
1
  6
CONTINUOUS
 62
     4
  5
CF
 10
79.953667
 20
407.37125
 30
0.0
 11
80.953667
 21
406.99625
 31
0.0
  0
LINE
  8
1
  6
CONTINUOUS
 62
     4
  5
D0
 10
80.953667
 20
403.99625
 30
0.0
 11
79.953667
 21
403.62125
 31
0.0
  0
LINE
  8
1
  6
CONTINUOUS
 62
     4
  5
D1
 10
80.953667
 20
406.49625
 30
0.0
 11
82.203667
 21
406.49625
 31
0.0
  0
LINE
  8
1
  6
CONTINUOUS
 62
     4
  5
D2
 10
80.953667
 20
404.49625
 30
0.0
 11
82.203667
 21
404.49625
 31
0.0
  0
LINE
  8
1
  6
CONTINUOUS
 62
     4
  5
D3
 10
82.203667
 20
406.49625
 30
0.0
 11
82.203667
 21
404.49625
 31
0.0
  0
LINE
  8
1
  6
CONTINUOUS
 62
     4
  5
D4
 10
81.578667
 20
405.99625
 30
0.0
 11
81.578667
 21
404.99625
 31
0.0
  0
LINE
  8
1
  6
CONTINUOUS
 62
     4
  5
D5
 10
70.85375
 20
406.49625
 30
0.0
 11
69.10375
 21
406.49625
 31
0.0
  0
LINE
  8
1
  6
CONTINUOUS
 62
     4
  5
D6
 10
70.85375
 20
404.49625
 30
0.0
 11
69.10375
 21
404.49625
 31
0.0
  0
LINE
  8
1
  6
CONTINUOUS
 62
     4
  5
D7
 10
69.10375
 20
405.49625
 30
0.0
 11
68.10375
 21
405.49625
 31
0.0
  0
POLYLINE
  8
1
  6
CONTINUOUS
 62
     4
  5
D8
 66
     1
 10
0.0
 20
0.0
 30
0.0
  0
VERTEX
  8
1
  6
CONTINUOUS
 62
     4
  5
D9
 10
69.10375
 20
407.74625
 30
0.0
  0
VERTEX
  8
1
  6
CONTINUOUS
 62
     4
  5
DA
 10
69.10375
 20
407.99625
 30
0.0
  0
VERTEX
  8
1
  6
CONTINUOUS
 62
     4
  5
DB
 10
67.60375
 20
407.99625
 30
0.0
  0
VERTEX
  8
1
  6
CONTINUOUS
 62
     4
  5
DC
 10
67.60375
 20
402.99625
 30
0.0
  0
VERTEX
  8
1
  6
CONTINUOUS
 62
     4
  5
DD
 10
69.10375
 20
402.99625
 30
0.0
  0
VERTEX
  8
1
  6
CONTINUOUS
 62
     4
  5
DE
 10
69.10375
 20
403.24625
 30
0.0
  0
VERTEX
  8
1
  6
CONTINUOUS
 62
     4
  5
DF
 10
68.10375
 20
403.24625
 30
0.0
  0
VERTEX
  8
1
  6
CONTINUOUS
 62
     4
  5
E0
 10
68.10375
 20
403.24625
 30
0.0
 42
-0.241975
  0
VERTEX
  8
1
  6
CONTINUOUS
 62
     4
  5
E1
 10
68.10375
 20
405.49625
 30
0.0
  0
VERTEX
  8
1
  6
CONTINUOUS
 62
     4
  5
E2
 10
68.10375
 20
405.49625
 30
0.0
 42
-0.241975
  0
VERTEX
  8
1
  6
CONTINUOUS
 62
     4
  5
E3
 10
68.10375
 20
407.74625
 30
0.0
  0
VERTEX
  8
1
  6
CONTINUOUS
 62
     4
  5
E4
 10
68.10375
 20
407.74625
 30
0.0
  0
VERTEX
  8
1
  6
CONTINUOUS
 62
     4
  5
E5
 10
69.10375
 20
407.74625
 30
0.0
  0
SEQEND
  8
1
  6
CONTINUOUS
 62
     4
  5
E6
  0
LINE
  8
1
  6
CONTINUOUS
 62
     7
  5
E7
 10
70.85375
 20
324.24625
 30
0.0
 11
56.10375
 21
324.24625
 31
0.0
  0
LINE
  8
1
  6
CONTINUOUS
 62
     4
  5
E8
 10
60.35375
 20
324.99625
 30
0.0
 11
60.35375
 21
325.99625
 31
0.0
  0
LINE
  8
1
  6
CONTINUOUS
 62
     4
  5
E9
 10
60.10375
 20
323.49625
 30
0.0
 11
60.10375
 21
322.49625
 31
0.0
  0
LINE
  8
1
  6
CONTINUOUS
 62
     4
  5
EA
 10
64.10375
 20
322.49625
 30
0.0
 11
64.10375
 21
323.49625
 31
0.0
  0
LINE
  8
1
  6
CONTINUOUS
 62
     4
  5
EB
 10
63.85375
 20
324.99625
 30
0.0
 11
63.85375
 21
325.99625
 31
0.0
  0
LINE
  8
1
  6
CONTINUOUS
 62
     4
  5
EC
 10
61.35375
 20
324.99625
 30
0.0
 11
61.35375
 21
326.24625
 31
0.0
  0
LINE
  8
1
  6
CONTINUOUS
 62
     4
  5
ED
 10
62.85375
 20
324.99625
 30
0.0
 11
62.85375
 21
326.24625
 31
0.0
  0
ARC
  8
1
  6
CONTINUOUS
 62
     4
  5
EE
 10
60.902105
 20
325.927829
 30
0.0
 40
0.552607
 50
35.184794
 51
172.887689
210
0.0
220
0.0
230
1.0
  0
ARC
  8
1
  6
CONTINUOUS
 62
     4
  5
EF
 10
63.305395
 20
325.927829
 30
0.0
 40
0.552607
 50
7.112311
 51
144.815206
210
0.0
220
0.0
230
1.0
  0
ARC
  8
1
  6
CONTINUOUS
 62
     4
  5
F0
 10
62.10375
 20
325.06297
 30
0.0
 40
1.400947
 50
57.632192
 51
122.367806
210
0.0
220
0.0
230
1.0
  0
LINE
  8
1
  6
CONTINUOUS
 62
     4
  5
F1
 10
60.95025
 20
326.475
 30
0.0
 11
63.194417
 21
326.468
 31
0.0
  0
ARC
  8
1
  6
CONTINUOUS
 62
     4
  5
F2
 10
60.652105
 20
322.564671
 30
0.0
 40
0.552607
 50
187.112311
 51
324.815206
210
0.0
220
0.0
230
1.0
  0
ARC
  8
1
  6
CONTINUOUS
 62
     4
  5
F3
 10
63.555395
 20
322.564671
 30
0.0
 40
0.552607
 50
215.184794
 51
352.887689
210
0.0
220
0.0
230
1.0
  0
ARC
  8
1
  6
CONTINUOUS
 62
     4
  5
F4
 10
62.10375
 20
324.440135
 30
0.0
 40
2.411044
 50
245.495914
 51
294.504089
210
0.0
220
0.0
230
1.0
  0
LINE
  8
1
  6
CONTINUOUS
 62
     4
  5
F5
 10
60.73875
 20
322.013083
 30
0.0
 11
63.363417
 21
322.046167
 31
0.0
  0
LINE
  8
1
  6
CONTINUOUS
 62
     4
  5
F6
 10
61.10375
 20
323.49625
 30
0.0
 11
61.10375
 21
322.24625
 31
0.0
  0
LINE
  8
1
  6
CONTINUOUS
 62
     4
  5
F7
 10
61.10375
 20
322.017667
 30
0.0
 11
61.10375
 21
320.517667
 31
0.0
  0
LINE
  8
1
  6
CONTINUOUS
 62
     4
  5
F8
 10
63.10375
 20
320.517667
 30
0.0
 11
63.10375
 21
322.042917
 31
0.0
  0
LINE
  8
1
  6
CONTINUOUS
 62
     4
  5
F9
 10
63.10375
 20
322.24625
 30
0.0
 11
63.10375
 21
323.49625
 31
0.0
  0
LINE
  8
1
  6
CONTINUOUS
 62
     4
  5
FA
 10
61.10375
 20
320.517667
 30
0.0
 11
63.10375
 21
320.517667
 31
0.0
  0
LINE
  8
1
  6
CONTINUOUS
 62
     7
  5
FB
 10
70.85375
 20
239.99625
 30
0.0
 11
56.10375
 21
239.99625
 31
0.0
  0
LINE
  8
1
  6
CONTINUOUS
 62
     4
  5
FC
 10
60.35375
 20
240.74625
 30
0.0
 11
60.35375
 21
241.74625
 31
0.0
  0
LINE
  8
1
  6
CONTINUOUS
 62
     4
  5
FD
 10
60.10375
 20
239.24625
 30
0.0
 11
60.10375
 21
238.24625
 31
0.0
  0
LINE
  8
1
  6
CONTINUOUS
 62
     4
  5
FE
 10
64.10375
 20
238.24625
 30
0.0
 11
64.10375
 21
239.24625
 31
0.0
  0
LINE
  8
1
  6
CONTINUOUS
 62
     4
  5
FF
 10
63.85375
 20
240.74625
 30
0.0
 11
63.85375
 21
241.74625
 31
0.0
  0
LINE
  8
1
  6
CONTINUOUS
 62
     4
  5
100
 10
61.35375
 20
240.74625
 30
0.0
 11
61.35375
 21
241.99625
 31
0.0
  0
LINE
  8
1
  6
CONTINUOUS
 62
     4
  5
101
 10
62.85375
 20
240.74625
 30
0.0
 11
62.85375
 21
241.99625
 31
0.0
  0
ARC
  8
1
  6
CONTINUOUS
 62
     4
  5
102
 10
60.902105
 20
241.677829
 30
0.0
 40
0.552607
 50
35.184794
 51
172.887689
210
0.0
220
0.0
230
1.0
  0
ARC
  8
1
  6
CONTINUOUS
 62
     4
  5
103
 10
63.305395
 20
241.677829
 30
0.0
 40
0.552607
 50
7.112311
 51
144.815206
210
0.0
220
0.0
230
1.0
  0
ARC
  8
1
  6
CONTINUOUS
 62
     4
  5
104
 10
62.10375
 20
240.81297
 30
0.0
 40
1.400947
 50
57.632192
 51
122.367806
210
0.0
220
0.0
230
1.0
  0
LINE
  8
1
  6
CONTINUOUS
 62
     4
  5
105
 10
60.95025
 20
242.225
 30
0.0
 11
63.194417
 21
242.218
 31
0.0
  0
ARC
  8
1
  6
CONTINUOUS
 62
     4
  5
106
 10
60.652105
 20
238.314671
 30
0.0
 40
0.552607
 50
187.112311
 51
324.815206
210
0.0
220
0.0
230
1.0
  0
ARC
  8
1
  6
CONTINUOUS
 62
     4
  5
107
 10
63.555395
 20
238.314671
 30
0.0
 40
0.552607
 50
215.184794
 51
352.887689
210
0.0
220
0.0
230
1.0
  0
ARC
  8
1
  6
CONTINUOUS
 62
     4
  5
108
 10
62.10375
 20
240.190135
 30
0.0
 40
2.411044
 50
245.495914
 51
294.504089
210
0.0
220
0.0
230
1.0
  0
LINE
  8
1
  6
CONTINUOUS
 62
     4
  5
109
 10
60.73875
 20
237.763083
 30
0.0
 11
63.363417
 21
237.796167
 31
0.0
  0
LINE
  8
1
  6
CONTINUOUS
 62
     4
  5
10A
 10
61.10375
 20
239.24625
 30
0.0
 11
61.10375
 21
237.99625
 31
0.0
  0
LINE
  8
1
  6
CONTINUOUS
 62
     4
  5
10B
 10
61.10375
 20
237.767667
 30
0.0
 11
61.10375
 21
236.267667
 31
0.0
  0
LINE
  8
1
  6
CONTINUOUS
 62
     4
  5
10C
 10
63.10375
 20
236.267667
 30
0.0
 11
63.10375
 21
237.792917
 31
0.0
  0
LINE
  8
1
  6
CONTINUOUS
 62
     4
  5
10D
 10
63.10375
 20
237.99625
 30
0.0
 11
63.10375
 21
239.24625
 31
0.0
  0
LINE
  8
1
  6
CONTINUOUS
 62
     4
  5
10E
 10
61.10375
 20
236.267667
 30
0.0
 11
63.10375
 21
236.267667
 31
0.0
  0
LINE
  8
1
  6
CONTINUOUS
 62
     4
  5
10F
 10
78.59725
 20
234.4975
 30
0.0
 11
79.59725
 21
234.4975
 31
0.0
  0
LINE
  8
1
  6
CONTINUOUS
 62
     4
  5
110
 10
70.85375
 20
240.9975
 30
0.0
 11
76.84725
 21
240.9975
 31
0.0
  0
LINE
  8
1
  6
CONTINUOUS
 62
     4
  5
111
 10
70.85375
 20
232.9975
 30
0.0
 11
76.84725
 21
232.9975
 31
0.0
  0
LINE
  8
1
  6
CONTINUOUS
 62
     4
  5
112
 10
77.84725
 20
239.9975
 30
0.0
 11
77.84725
 21
233.9975
 31
0.0
  0
ARC
  8
1
  6
CONTINUOUS
 62
     4
  5
113
 10
76.84725
 20
239.9975
 30
0.0
 40
1.0
 50
0.0
 51
90.0
210
0.0
220
0.0
230
1.0
  0
ARC
  8
1
  6
CONTINUOUS
 62
     4
  5
114
 10
76.84725
 20
233.9975
 30
0.0
 40
1.0
 50
270.0
 51
0.0
210
0.0
220
0.0
230
1.0
  0
LINE
  8
1
  6
CONTINUOUS
 62
     4
  5
115
 10
78.59725
 20
239.9975
 30
0.0
 11
78.59725
 21
233.9975
 31
0.0
  0
LINE
  8
1
  6
CONTINUOUS
 62
     4
  5
116
 10
77.84725
 20
233.9975
 30
0.0
 11
78.59725
 21
233.9975
 31
0.0
  0
LINE
  8
1
  6
CONTINUOUS
 62
     4
  5
117
 10
78.59725
 20
239.4975
 30
0.0
 11
79.59725
 21
239.4975
 31
0.0
  0
LINE
  8
1
  6
CONTINUOUS
 62
     4
  5
118
 10
78.59725
 20
238.2475
 30
0.0
 11
79.59725
 21
238.2475
 31
0.0
  0
LINE
  8
1
  6
CONTINUOUS
 62
     4
  5
119
 10
78.59725
 20
235.7475
 30
0.0
 11
79.59725
 21
235.7475
 31
0.0
  0
ARC
  8
1
  6
CONTINUOUS
 62
     4
  5
11A
 10
79.571662
 20
238.8725
 30
0.0
 40
0.625524
 50
272.344417
 51
87.655583
210
0.0
220
0.0
230
1.0
  0
ARC
  8
1
  6
CONTINUOUS
 62
     4
  5
11B
 10
79.571662
 20
235.1225
 30
0.0
 40
0.625524
 50
272.344417
 51
87.655583
210
0.0
220
0.0
230
1.0
  0
ARC
  8
1
  6
CONTINUOUS
 62
     4
  5
11C
 10
78.594944
 20
236.9975
 30
0.0
 40
1.602223
 50
308.724197
 51
51.275803
210
0.0
220
0.0
230
1.0
  0
LINE
  8
1
  6
CONTINUOUS
 62
     4
  5
11D
 10
81.197167
 20
238.4975
 30
0.0
 11
81.197167
 21
235.4975
 31
0.0
  0
LINE
  8
1
  6
CONTINUOUS
 62
     4
  5
11E
 10
80.197167
 20
238.8725
 30
0.0
 11
81.197167
 21
238.4975
 31
0.0
  0
LINE
  8
1
  6
CONTINUOUS
 62
     4
  5
11F
 10
81.197167
 20
235.4975
 30
0.0
 11
80.197167
 21
235.1225
 31
0.0
  0
LINE
  8
1
  6
CONTINUOUS
 62
     4
  5
120
 10
81.197167
 20
237.9975
 30
0.0
 11
82.447167
 21
237.9975
 31
0.0
  0
LINE
  8
1
  6
CONTINUOUS
 62
     4
  5
121
 10
81.197167
 20
235.9975
 30
0.0
 11
82.447167
 21
235.9975
 31
0.0
  0
LINE
  8
1
  6
CONTINUOUS
 62
     4
  5
122
 10
82.447167
 20
237.9975
 30
0.0
 11
82.447167
 21
235.9975
 31
0.0
  0
LINE
  8
1
  6
CONTINUOUS
 62
     4
  5
123
 10
81.822167
 20
237.4975
 30
0.0
 11
81.822167
 21
236.4975
 31
0.0
  0
LINE
  8
1
  6
CONTINUOUS
 62
     4
  5
124
 10
70.85375
 20
237.9975
 30
0.0
 11
69.34725
 21
237.9975
 31
0.0
  0
LINE
  8
1
  6
CONTINUOUS
 62
     4
  5
125
 10
70.85375
 20
235.9975
 30
0.0
 11
69.34725
 21
235.9975
 31
0.0
  0
LINE
  8
1
  6
CONTINUOUS
 62
     4
  5
126
 10
69.34725
 20
236.9975
 30
0.0
 11
68.34725
 21
236.9975
 31
0.0
  0
POLYLINE
  8
1
  6
CONTINUOUS
 62
     4
  5
127
 66
     1
 10
0.0
 20
0.0
 30
0.0
  0
VERTEX
  8
1
  6
CONTINUOUS
 62
     4
  5
128
 10
69.34725
 20
239.2475
 30
0.0
  0
VERTEX
  8
1
  6
CONTINUOUS
 62
     4
  5
129
 10
69.34725
 20
239.4975
 30
0.0
  0
VERTEX
  8
1
  6
CONTINUOUS
 62
     4
  5
12A
 10
67.84725
 20
239.4975
 30
0.0
  0
VERTEX
  8
1
  6
CONTINUOUS
 62
     4
  5
12B
 10
67.84725
 20
234.4975
 30
0.0
  0
VERTEX
  8
1
  6
CONTINUOUS
 62
     4
  5
12C
 10
69.34725
 20
234.4975
 30
0.0
  0
VERTEX
  8
1
  6
CONTINUOUS
 62
     4
  5
12D
 10
69.34725
 20
234.7475
 30
0.0
  0
VERTEX
  8
1
  6
CONTINUOUS
 62
     4
  5
12E
 10
68.34725
 20
234.7475
 30
0.0
  0
VERTEX
  8
1
  6
CONTINUOUS
 62
     4
  5
12F
 10
68.34725
 20
234.7475
 30
0.0
 42
-0.241975
  0
VERTEX
  8
1
  6
CONTINUOUS
 62
     4
  5
130
 10
68.34725
 20
236.9975
 30
0.0
  0
VERTEX
  8
1
  6
CONTINUOUS
 62
     4
  5
131
 10
68.34725
 20
236.9975
 30
0.0
 42
-0.241975
  0
VERTEX
  8
1
  6
CONTINUOUS
 62
     4
  5
132
 10
68.34725
 20
239.2475
 30
0.0
  0
VERTEX
  8
1
  6
CONTINUOUS
 62
     4
  5
133
 10
68.34725
 20
239.2475
 30
0.0
  0
VERTEX
  8
1
  6
CONTINUOUS
 62
     4
  5
134
 10
69.34725
 20
239.2475
 30
0.0
  0
SEQEND
  8
1
  6
CONTINUOUS
 62
     4
  5
135
  0
LINE
  8
1
  6
CONTINUOUS
 62
     4
  5
136
 10
73.35375
 20
401.49625
 30
0.0
 11
73.35375
 21
240.9975
 31
0.0
  0
LINE
  8
1
  6
CONTINUOUS
 62
     4
  5
137
 10
77.84725
 20
239.9975
 30
0.0
 11
78.59725
 21
239.9975
 31
0.0
  0
LINE
  8
1
  6
CONTINUOUS
 62
     4
  5
138
 10
87.85375
 20
144.49625
 30
0.0
 11
103.85375
 21
144.49625
 31
0.0
  0
LINE
  8
1
  6
CONTINUOUS
 62
     4
  5
139
 10
73.35375
 20
232.9975
 30
0.0
 11
73.35375
 21
189.74625
 31
0.0
  0
LINE
  8
1
  6
CONTINUOUS
 62
     4
  5
13A
 10
124.35375
 20
408.49625
 30
0.0
 11
124.35375
 21
189.74625
 31
0.0
  0
LINE
  8
1
  6
CONTINUOUS
 62
     4
  5
13B
 10
124.35375
 20
186.99625
 30
0.0
 11
124.35375
 21
144.49625
 31
0.0
  0
LINE
  8
1
  6
CONTINUOUS
 62
     4
  5
13C
 10
126.85375
 20
408.49625
 30
0.0
 11
126.85375
 21
189.74625
 31
0.0
  0
LINE
  8
1
  6
CONTINUOUS
 62
     4
  5
13D
 10
126.85375
 20
186.99625
 30
0.0
 11
126.85375
 21
144.49625
 31
0.0
  0
LINE
  8
1
  6
CONTINUOUS
 62
     4
  5
13E
 10
70.85375
 20
152.49625
 30
0.0
 11
76.60375
 21
152.49625
 31
0.0
  0
LINE
  8
1
  6
CONTINUOUS
 62
     4
  5
13F
 10
70.85375
 20
160.49625
 30
0.0
 11
76.60375
 21
160.49625
 31
0.0
  0
LINE
  8
1
  6
CONTINUOUS
 62
     4
  5
140
 10
77.60375
 20
153.49625
 30
0.0
 11
77.60375
 21
159.49625
 31
0.0
  0
ARC
  8
1
  6
CONTINUOUS
 62
     4
  5
141
 10
76.60375
 20
153.49625
 30
0.0
 40
1.0
 50
270.0
 51
360.0
210
0.0
220
0.0
230
1.0
  0
ARC
  8
1
  6
CONTINUOUS
 62
     4
  5
142
 10
76.60375
 20
159.49625
 30
0.0
 40
1.0
 50
0.0
 51
90.0
210
0.0
220
0.0
230
1.0
  0
LINE
  8
1
  6
CONTINUOUS
 62
     4
  5
143
 10
78.35375
 20
153.49625
 30
0.0
 11
78.35375
 21
159.49625
 31
0.0
  0
LINE
  8
1
  6
CONTINUOUS
 62
     4
  5
144
 10
77.60375
 20
159.49625
 30
0.0
 11
78.35375
 21
159.49625
 31
0.0
  0
LINE
  8
1
  6
CONTINUOUS
 62
     4
  5
145
 10
78.35375
 20
153.99625
 30
0.0
 11
79.35375
 21
153.99625
 31
0.0
  0
LINE
  8
1
  6
CONTINUOUS
 62
     4
  5
146
 10
78.35375
 20
158.99625
 30
0.0
 11
79.35375
 21
158.99625
 31
0.0
  0
LINE
  8
1
  6
CONTINUOUS
 62
     4
  5
147
 10
78.35375
 20
155.24625
 30
0.0
 11
79.35375
 21
155.24625
 31
0.0
  0
LINE
  8
1
  6
CONTINUOUS
 62
     4
  5
148
 10
78.35375
 20
157.74625
 30
0.0
 11
79.35375
 21
157.74625
 31
0.0
  0
ARC
  8
1
  6
CONTINUOUS
 62
     4
  5
149
 10
79.328162
 20
154.62125
 30
0.0
 40
0.625524
 50
272.344417
 51
87.655583
210
0.0
220
0.0
230
1.0
  0
ARC
  8
1
  6
CONTINUOUS
 62
     4
  5
14A
 10
79.328162
 20
158.37125
 30
0.0
 40
0.625524
 50
272.344417
 51
87.655583
210
0.0
220
0.0
230
1.0
  0
ARC
  8
1
  6
CONTINUOUS
 62
     4
  5
14B
 10
78.351444
 20
156.49625
 30
0.0
 40
1.602223
 50
308.724197
 51
51.275803
210
0.0
220
0.0
230
1.0
  0
LINE
  8
1
  6
CONTINUOUS
 62
     4
  5
14C
 10
80.953667
 20
154.99625
 30
0.0
 11
80.953667
 21
157.99625
 31
0.0
  0
LINE
  8
1
  6
CONTINUOUS
 62
     4
  5
14D
 10
79.953667
 20
154.62125
 30
0.0
 11
80.953667
 21
154.99625
 31
0.0
  0
LINE
  8
1
  6
CONTINUOUS
 62
     4
  5
14E
 10
80.953667
 20
157.99625
 30
0.0
 11
79.953667
 21
158.37125
 31
0.0
  0
LINE
  8
1
  6
CONTINUOUS
 62
     4
  5
14F
 10
80.953667
 20
155.49625
 30
0.0
 11
82.203667
 21
155.49625
 31
0.0
  0
LINE
  8
1
  6
CONTINUOUS
 62
     4
  5
150
 10
80.953667
 20
157.49625
 30
0.0
 11
82.203667
 21
157.49625
 31
0.0
  0
LINE
  8
1
  6
CONTINUOUS
 62
     4
  5
151
 10
82.203667
 20
155.49625
 30
0.0
 11
82.203667
 21
157.49625
 31
0.0
  0
LINE
  8
1
  6
CONTINUOUS
 62
     4
  5
152
 10
81.578667
 20
155.99625
 30
0.0
 11
81.578667
 21
156.99625
 31
0.0
  0
LINE
  8
1
  6
CONTINUOUS
 62
     4
  5
153
 10
70.85375
 20
155.49625
 30
0.0
 11
69.10375
 21
155.49625
 31
0.0
  0
LINE
  8
1
  6
CONTINUOUS
 62
     4
  5
154
 10
70.85375
 20
157.49625
 30
0.0
 11
69.10375
 21
157.49625
 31
0.0
  0
LINE
  8
1
  6
CONTINUOUS
 62
     4
  5
155
 10
69.10375
 20
156.49625
 30
0.0
 11
68.10375
 21
156.49625
 31
0.0
  0
POLYLINE
  8
1
  6
CONTINUOUS
 62
     4
  5
156
 66
     1
 10
0.0
 20
0.0
 30
0.0
  0
VERTEX
  8
1
  6
CONTINUOUS
 62
     4
  5
157
 10
69.10375
 20
154.24625
 30
0.0
  0
VERTEX
  8
1
  6
CONTINUOUS
 62
     4
  5
158
 10
69.10375
 20
153.99625
 30
0.0
  0
VERTEX
  8
1
  6
CONTINUOUS
 62
     4
  5
159
 10
67.60375
 20
153.99625
 30
0.0
  0
VERTEX
  8
1
  6
CONTINUOUS
 62
     4
  5
15A
 10
67.60375
 20
158.99625
 30
0.0
  0
VERTEX
  8
1
  6
CONTINUOUS
 62
     4
  5
15B
 10
69.10375
 20
158.99625
 30
0.0
  0
VERTEX
  8
1
  6
CONTINUOUS
 62
     4
  5
15C
 10
69.10375
 20
158.74625
 30
0.0
  0
VERTEX
  8
1
  6
CONTINUOUS
 62
     4
  5
15D
 10
68.10375
 20
158.74625
 30
0.0
  0
VERTEX
  8
1
  6
CONTINUOUS
 62
     4
  5
15E
 10
68.10375
 20
158.74625
 30
0.0
 42
0.241975
  0
VERTEX
  8
1
  6
CONTINUOUS
 62
     4
  5
15F
 10
68.10375
 20
156.49625
 30
0.0
  0
VERTEX
  8
1
  6
CONTINUOUS
 62
     4
  5
160
 10
68.10375
 20
156.49625
 30
0.0
 42
0.241975
  0
VERTEX
  8
1
  6
CONTINUOUS
 62
     4
  5
161
 10
68.10375
 20
154.24625
 30
0.0
  0
VERTEX
  8
1
  6
CONTINUOUS
 62
     4
  5
162
 10
68.10375
 20
154.24625
 30
0.0
  0
VERTEX
  8
1
  6
CONTINUOUS
 62
     4
  5
163
 10
69.10375
 20
154.24625
 30
0.0
  0
SEQEND
  8
1
  6
CONTINUOUS
 62
     4
  5
164
  0
LINE
  8
1
  6
CONTINUOUS
 62
     4
  5
165
 10
73.35375
 20
186.99625
 30
0.0
 11
73.35375
 21
160.49625
 31
0.0
  0
LINE
  8
1
  6
CONTINUOUS
 62
     4
  5
166
 10
73.35375
 20
152.49625
 30
0.0
 11
73.35375
 21
144.49625
 31
0.0
  0
LINE
  8
1
  6
CONTINUOUS
 62
     4
  5
167
 10
77.60375
 20
153.49625
 30
0.0
 11
78.35375
 21
153.49625
 31
0.0
  0
LINE
  8
1
  6
CONTINUOUS
 62
     7
  5
168
 10
117.85375
 20
415.49625
 30
0.0
 11
111.85375
 21
415.49625
 31
0.0
  0
LINE
  8
1
  6
CONTINUOUS
 62
     7
  5
169
 10
117.85375
 20
137.49625
 30
0.0
 11
111.85375
 21
137.49625
 31
0.0
  0
LINE
  8
1
  6
CONTINUOUS
 62
     7
  5
16A
 10
117.85375
 20
415.49625
 30
0.0
 11
117.85375
 21
375.49625
 31
0.0
  0
LINE
  8
1
  6
CONTINUOUS
 62
     7
  5
16B
 10
117.85375
 20
374.49625
 30
0.0
 11
117.85375
 21
372.49625
 31
0.0
  0
LINE
  8
1
  6
CONTINUOUS
 62
     7
  5
16C
 10
117.85375
 20
371.49625
 30
0.0
 11
117.85375
 21
369.49625
 31
0.0
  0
LINE
  8
1
  6
CONTINUOUS
 62
     7
  5
16D
 10
117.85375
 20
368.49625
 30
0.0
 11
117.85375
 21
341.49625
 31
0.0
  0
LINE
  8
1
  6
CONTINUOUS
 62
     7
  5
16E
 10
117.85375
 20
340.49625
 30
0.0
 11
117.85375
 21
338.49625
 31
0.0
  0
LINE
  8
1
  6
CONTINUOUS
 62
     7
  5
16F
 10
117.85375
 20
337.49625
 30
0.0
 11
117.85375
 21
335.49625
 31
0.0
  0
LINE
  8
1
  6
CONTINUOUS
 62
     7
  5
170
 10
117.85375
 20
334.49625
 30
0.0
 11
117.85375
 21
288.49625
 31
0.0
  0
LINE
  8
1
  6
CONTINUOUS
 62
     7
  5
171
 10
117.85375
 20
287.49625
 30
0.0
 11
117.85375
 21
285.49625
 31
0.0
  0
LINE
  8
1
  6
CONTINUOUS
 62
     7
  5
172
 10
117.85375
 20
284.49625
 30
0.0
 11
117.85375
 21
282.49625
 31
0.0
  0
LINE
  8
1
  6
CONTINUOUS
 62
     7
  5
173
 10
117.85375
 20
281.49625
 30
0.0
 11
117.85375
 21
223.49625
 31
0.0
  0
LINE
  8
1
  6
CONTINUOUS
 62
     7
  5
174
 10
117.85375
 20
222.49625
 30
0.0
 11
117.85375
 21
220.49625
 31
0.0
  0
LINE
  8
1
  6
CONTINUOUS
 62
     7
  5
175
 10
117.85375
 20
219.49625
 30
0.0
 11
117.85375
 21
217.49625
 31
0.0
  0
LINE
  8
1
  6
CONTINUOUS
 62
     7
  5
176
 10
117.85375
 20
216.49625
 30
0.0
 11
117.85375
 21
178.49625
 31
0.0
  0
LINE
  8
1
  6
CONTINUOUS
 62
     7
  5
177
 10
117.85375
 20
177.49625
 30
0.0
 11
117.85375
 21
175.49625
 31
0.0
  0
LINE
  8
1
  6
CONTINUOUS
 62
     7
  5
178
 10
117.85375
 20
174.49625
 30
0.0
 11
117.85375
 21
172.49625
 31
0.0
  0
LINE
  8
1
  6
CONTINUOUS
 62
     7
  5
179
 10
117.85375
 20
171.49625
 30
0.0
 11
117.85375
 21
137.49625
 31
0.0
  0
LINE
  8
1
  6
CONTINUOUS
 62
     7
  5
17A
 10
116.85375
 20
414.49625
 30
0.0
 11
114.35375
 21
414.49625
 31
0.0
  0
LINE
  8
1
  6
CONTINUOUS
 62
     7
  5
17B
 10
116.85375
 20
414.49625
 30
0.0
 11
116.85375
 21
411.99625
 31
0.0
  0
INSERT
  8
1
  6
CONTINUOUS
 62
     1
  5
19C
  2
LDR
 10
111.85375
 20
415.49625
 30
0.0
 41
240.0
 42
240.0
 50
180.0
210
0.0
220
0.0
230
1.0
  0
LINE
  8
1
  6
CONTINUOUS
 62
     7
  5
19D
 10
116.85375
 20
138.49625
 30
0.0
 11
114.35375
 21
138.49625
 31
0.0
  0
LINE
  8
1
  6
CONTINUOUS
 62
     7
  5
19E
 10
116.85375
 20
140.99625
 30
0.0
 11
116.85375
 21
138.49625
 31
0.0
  0
INSERT
  8
1
  6
CONTINUOUS
 62
     1
  5
19F
  2
LDR
 10
111.85375
 20
137.49625
 30
0.0
 41
240.0
 42
240.0
 50
180.0
210
0.0
220
0.0
230
1.0
  0
LINE
  8
1
  6
CONTINUOUS
 62
     7
  5
1A0
 10
50.10375
 20
260.74625
 30
0.0
 11
50.10375
 21
253.74625
 31
0.0
  0
LINE
  8
1
  6
CONTINUOUS
 62
     7
  5
1A1
 10
132.85375
 20
260.74625
 30
0.0
 11
132.85375
 21
253.74625
 31
0.0
  0
LINE
  8
1
  6
CONTINUOUS
 62
     7
  5
1A2
 10
50.10375
 20
260.74625
 30
0.0
 11
78.10375
 21
260.74625
 31
0.0
  0
LINE
  8
1
  6
CONTINUOUS
 62
     7
  5
1A3
 10
79.10375
 20
260.74625
 30
0.0
 11
81.10375
 21
260.74625
 31
0.0
  0
LINE
  8
1
  6
CONTINUOUS
 62
     7
  5
1A4
 10
82.10375
 20
260.74625
 30
0.0
 11
84.10375
 21
260.74625
 31
0.0
  0
LINE
  8
1
  6
CONTINUOUS
 62
     7
  5
1A5
 10
85.10375
 20
260.74625
 30
0.0
 11
100.85375
 21
260.74625
 31
0.0
  0
LINE
  8
1
  6
CONTINUOUS
 62
     7
  5
1A6
 10
101.85375
 20
260.74625
 30
0.0
 11
103.85375
 21
260.74625
 31
0.0
  0
LINE
  8
1
  6
CONTINUOUS
 62
     7
  5
1A7
 10
104.85375
 20
260.74625
 30
0.0
 11
106.85375
 21
260.74625
 31
0.0
  0
LINE
  8
1
  6
CONTINUOUS
 62
     7
  5
1A8
 10
107.85375
 20
260.74625
 30
0.0
 11
132.85375
 21
260.74625
 31
0.0
  0
INSERT
  8
1
  6
CONTINUOUS
 62
     1
  5
1A9
  2
LDR
 10
50.10375
 20
253.74625
 30
0.0
 41
240.0
 42
240.0
 50
270.0
210
0.0
220
0.0
230
1.0
  0
INSERT
  8
1
  6
CONTINUOUS
 62
     1
  5
1AA
  2
LDR
 10
50.10375
 20
253.74625
 30
0.0
 41
240.0
 42
240.0
 50
270.0
210
0.0
220
0.0
230
1.0
  0
INSERT
  8
1
  6
CONTINUOUS
 62
     1
  5
1AB
  2
LDR
 10
132.85375
 20
253.74625
 30
0.0
 41
240.0
 42
240.0
 50
270.0
210
0.0
220
0.0
230
1.0
  0
LINE
  8
1
  6
CONTINUOUS
 62
     4
  5
1AC
 10
84.85375
 20
144.49625
 30
0.0
 11
85.879833
 21
147.315333
 31
0.0
  0
LINE
  8
1
  6
CONTINUOUS
 62
     4
  5
1AD
 10
86.827667
 20
141.677167
 30
0.0
 11
87.85375
 21
144.49625
 31
0.0
  0
LINE
  8
1
  6
CONTINUOUS
 62
     4
  5
1AE
 10
85.879833
 20
147.315333
 30
0.0
 11
86.827667
 21
141.677167
 31
0.0
  0
LINE
  8
1
  6
CONTINUOUS
 62
     4
  5
1AF
 10
70.85375
 20
144.49625
 30
0.0
 11
84.85375
 21
144.49625
 31
0.0
  0
LINE
  8
1
  6
CONTINUOUS
 62
     4
  5
1B0
 10
103.85375
 20
144.49625
 30
0.0
 11
104.879833
 21
147.315333
 31
0.0
  0
LINE
  8
1
  6
CONTINUOUS
 62
     4
  5
1B1
 10
105.827667
 20
141.677167
 30
0.0
 11
106.85375
 21
144.49625
 31
0.0
  0
LINE
  8
1
  6
CONTINUOUS
 62
     4
  5
1B2
 10
104.879833
 20
147.315333
 30
0.0
 11
105.827667
 21
141.677167
 31
0.0
  0
LINE
  8
1
  6
CONTINUOUS
 62
     4
  5
1B3
 10
106.85375
 20
144.49625
 30
0.0
 11
126.85375
 21
144.49625
 31
0.0
  0
LINE
  8
1
  6
CONTINUOUS
 62
     4
  5
1B4
 10
84.85375
 20
189.74625
 30
0.0
 11
101.85375
 21
189.74625
 31
0.0
  0
LINE
  8
1
  6
CONTINUOUS
 62
     4
  5
1B5
 10
84.35375
 20
186.99625
 30
0.0
 11
101.35375
 21
186.99625
 31
0.0
  0
LINE
  8
1
  6
CONTINUOUS
 62
     4
  5
1B6
 10
82.85375
 20
189.74625
 30
0.0
 11
83.53775
 21
191.625667
 31
0.0
  0
LINE
  8
1
  6
CONTINUOUS
 62
     4
  5
1B7
 10
84.16975
 20
187.866833
 30
0.0
 11
84.85375
 21
189.74625
 31
0.0
  0
LINE
  8
1
  6
CONTINUOUS
 62
     4
  5
1B8
 10
83.53775
 20
191.625667
 30
0.0
 11
84.16975
 21
187.866833
 31
0.0
  0
LINE
  8
1
  6
CONTINUOUS
 62
     4
  5
1B9
 10
70.85375
 20
189.74625
 30
0.0
 11
82.85375
 21
189.74625
 31
0.0
  0
LINE
  8
1
  6
CONTINUOUS
 62
     4
  5
1BA
 10
83.66975
 20
185.116833
 30
0.0
 11
84.35375
 21
186.99625
 31
0.0
  0
LINE
  8
1
  6
CONTINUOUS
 62
     4
  5
1BB
 10
82.35375
 20
186.99625
 30
0.0
 11
83.03775
 21
188.875667
 31
0.0
  0
LINE
  8
1
  6
CONTINUOUS
 62
     4
  5
1BC
 10
83.03775
 20
188.875667
 30
0.0
 11
83.66975
 21
185.116833
 31
0.0
  0
LINE
  8
1
  6
CONTINUOUS
 62
     4
  5
1BD
 10
70.85375
 20
186.99625
 30
0.0
 11
82.35375
 21
186.99625
 31
0.0
  0
LINE
  8
1
  6
CONTINUOUS
 62
     4
  5
1BE
 10
103.16975
 20
187.866833
 30
0.0
 11
103.85375
 21
189.74625
 31
0.0
  0
LINE
  8
1
  6
CONTINUOUS
 62
     4
  5
1BF
 10
101.85375
 20
189.74625
 30
0.0
 11
102.53775
 21
191.625667
 31
0.0
  0
LINE
  8
1
  6
CONTINUOUS
 62
     4
  5
1C0
 10
102.53775
 20
191.625667
 30
0.0
 11
103.16975
 21
187.866833
 31
0.0
  0
LINE
  8
1
  6
CONTINUOUS
 62
     4
  5
1C1
 10
102.66975
 20
185.116833
 30
0.0
 11
103.35375
 21
186.99625
 31
0.0
  0
LINE
  8
1
  6
CONTINUOUS
 62
     4
  5
1C2
 10
101.35375
 20
186.99625
 30
0.0
 11
102.03775
 21
188.875667
 31
0.0
  0
LINE
  8
1
  6
CONTINUOUS
 62
     4
  5
1C3
 10
102.03775
 20
188.875667
 30
0.0
 11
102.66975
 21
185.116833
 31
0.0
  0
LINE
  8
1
  6
CONTINUOUS
 62
     4
  5
1C4
 10
103.85375
 20
189.74625
 30
0.0
 11
126.85375
 21
189.74625
 31
0.0
  0
LINE
  8
1
  6
CONTINUOUS
 62
     4
  5
1C5
 10
103.35375
 20
186.99625
 30
0.0
 11
126.85375
 21
186.99625
 31
0.0
  0
LINE
  8
1
  6
CONTINUOUS
 62
     7
  5
1C6
 10
55.10375
 20
408.49625
 30
0.0
 11
47.10375
 21
408.49625
 31
0.0
  0
LINE
  8
1
  6
CONTINUOUS
 62
     7
  5
1C7
 10
55.10375
 20
324.24625
 30
0.0
 11
47.10375
 21
324.24625
 31
0.0
  0
LINE
  8
1
  6
CONTINUOUS
 62
     7
  5
1C8
 10
48.10375
 20
408.49625
 30
0.0
 11
48.10375
 21
324.24625
 31
0.0
  0
LINE
  8
1
  6
CONTINUOUS
 62
     7
  5
1C9
 10
57.10375
 20
356.155833
 30
0.0
 11
76.700083
 21
341.886167
 31
0.0
  0
LINE
  8
1
  6
CONTINUOUS
 62
     7
  5
1CA
 10
76.700083
 20
341.886167
 30
0.0
 11
80.695417
 21
341.886167
 31
0.0
  0
INSERT
  8
1
  6
CONTINUOUS
 62
     1
  5
1CB
  2
LDR
 10
48.10375
 20
408.49625
 30
0.0
 41
240.0
 42
240.0
 50
90.0
210
0.0
220
0.0
230
1.0
  0
INSERT
  8
1
  6
CONTINUOUS
 62
     1
  5
1CC
  2
LDR
 10
48.10375
 20
408.49625
 30
0.0
 41
240.0
 42
240.0
 50
90.0
210
0.0
220
0.0
230
1.0
  0
INSERT
  8
1
  6
CONTINUOUS
 62
     1
  5
1CD
  2
LDR
 10
48.10375
 20
324.24625
 30
0.0
 41
240.0
 42
240.0
 50
270.0
210
0.0
220
0.0
230
1.0
  0
INSERT
  8
1
  6
CONTINUOUS
 62
     1
  5
1CE
  2
LDR
 10
48.10375
 20
324.24625
 30
0.0
 41
240.0
 42
240.0
 50
270.0
210
0.0
220
0.0
230
1.0
  0
INSERT
  8
1
  6
CONTINUOUS
 62
     1
  5
1CF
  2
LDR
 10
57.10375
 20
356.155833
 30
0.0
 41
240.0
 42
240.0
 50
143.938626
210
0.0
220
0.0
230
1.0
  0
LINE
  8
1
  6
CONTINUOUS
 62
     4
  5
1D0
 10
70.85375
 20
409.49625
 30
0.0
 11
70.85375
 21
408.49625
 31
0.0
  0
LINE
  8
1
  6
CONTINUOUS
 62
     4
  5
1D1
 10
70.85375
 20
406.74625
 30
0.0
 11
70.85375
 21
404.24625
 31
0.0
  0
LINE
  8
1
  6
CONTINUOUS
 62
     4
  5
1D2
 10
70.85375
 20
402.49625
 30
0.0
 11
70.85375
 21
401.49625
 31
0.0
  0
LINE
  8
1
  6
CONTINUOUS
 62
     4
  5
1D3
 10
70.85375
 20
401.49625
 30
0.0
 11
70.85375
 21
330.24625
 31
0.0
  0
LINE
  8
1
  6
CONTINUOUS
 62
     4
  5
1D4
 10
70.85375
 20
318.24625
 30
0.0
 11
70.85375
 21
245.99625
 31
0.0
  0
LINE
  8
1
  6
CONTINUOUS
 62
     4
  5
1D5
 10
70.85375
 20
233.99625
 30
0.0
 11
70.85375
 21
232.9975
 31
0.0
  0
LINE
  8
1
  6
CONTINUOUS
 62
     4
  5
1D6
 10
70.85375
 20
232.9975
 30
0.0
 11
70.85375
 21
189.74625
 31
0.0
  0
LINE
  8
1
  6
CONTINUOUS
 62
     4
  5
1D7
 10
70.85375
 20
238.2475
 30
0.0
 11
70.85375
 21
235.7475
 31
0.0
  0
LINE
  8
1
  6
CONTINUOUS
 62
     4
  5
1D8
 10
55.10375
 20
189.74625
 30
0.0
 11
56.10375
 21
189.74625
 31
0.0
  0
LINE
  8
1
  6
CONTINUOUS
 62
     4
  5
1D9
 10
56.97875
 20
189.74625
 30
0.0
 11
57.10375
 21
189.74625
 31
0.0
  0
LINE
  8
1
  6
CONTINUOUS
 62
     4
  5
1DA
 10
57.10375
 20
189.74625
 30
0.0
 11
58.10375
 21
189.74625
 31
0.0
  0
LINE
  8
1
  6
CONTINUOUS
 62
     4
  5
1DB
 10
55.10375
 20
186.99625
 30
0.0
 11
56.10375
 21
186.99625
 31
0.0
  0
LINE
  8
1
  6
CONTINUOUS
 62
     4
  5
1DC
 10
56.10375
 20
186.99625
 30
0.0
 11
56.22875
 21
186.99625
 31
0.0
  0
LINE
  8
1
  6
CONTINUOUS
 62
     4
  5
1DD
 10
56.97875
 20
186.99625
 30
0.0
 11
57.10375
 21
186.99625
 31
0.0
  0
LINE
  8
1
  6
CONTINUOUS
 62
     4
  5
1DE
 10
57.10375
 20
186.99625
 30
0.0
 11
58.10375
 21
186.99625
 31
0.0
  0
LINE
  8
1
  6
CONTINUOUS
 62
     4
  5
1DF
 10
70.85375
 20
186.99625
 30
0.0
 11
70.85375
 21
159.49625
 31
0.0
  0
LINE
  8
1
  6
CONTINUOUS
 62
     4
  5
1E0
 10
70.85375
 20
157.74625
 30
0.0
 11
70.85375
 21
155.24625
 31
0.0
  0
LINE
  8
1
  6
CONTINUOUS
 62
     4
  5
1E1
 10
70.85375
 20
153.49625
 30
0.0
 11
70.85375
 21
144.49625
 31
0.0
  0
LINE
  8
1
  6
CONTINUOUS
 62
     4
  5
1E2
 10
69.10375
 20
406.74625
 30
0.0
 11
69.10375
 21
404.49625
 31
0.0
  0
LINE
  8
1
  6
CONTINUOUS
 62
     4
  5
1E3
 10
69.34725
 20
238.2475
 30
0.0
 11
69.34725
 21
235.7475
 31
0.0
  0
LINE
  8
1
  6
CONTINUOUS
 62
     4
  5
1E4
 10
70.85375
 20
406.74625
 30
0.0
 11
70.85375
 21
408.49625
 31
0.0
  0
LINE
  8
1
  6
CONTINUOUS
 62
     4
  5
1E5
 10
70.85375
 20
408.49625
 30
0.0
 11
56.10375
 21
408.49625
 31
0.0
  0
ARC
  8
1
  6
CONTINUOUS
 62
     4
  5
1E6
 10
60.10375
 20
362.99625
 30
0.0
 40
3.0
 50
90.0
 51
180.0
210
0.0
220
0.0
230
1.0
  0
LINE
  8
1
  6
CONTINUOUS
 62
     4
  5
1E7
 10
60.10375
 20
365.99625
 30
0.0
 11
69.35375
 21
365.99625
 31
0.0
  0
LINE
  8
1
  6
CONTINUOUS
 62
     4
  5
1E8
 10
69.35375
 20
366.74625
 30
0.0
 11
60.10375
 21
366.74625
 31
0.0
  0
ARC
  8
1
  6
CONTINUOUS
 62
     4
  5
1E9
 10
60.10375
 20
369.74625
 30
0.0
 40
3.0
 50
180.0
 51
270.0
210
0.0
220
0.0
230
1.0
  0
LINE
  8
1
  6
CONTINUOUS
 62
     4
  5
1EA
 10
57.10375
 20
369.74625
 30
0.0
 11
57.10375
 21
404.74625
 31
0.0
  0
ARC
  8
1
  6
CONTINUOUS
 62
     4
  5
1EB
 10
60.10375
 20
404.74625
 30
0.0
 40
3.0
 50
90.0
 51
180.0
210
0.0
220
0.0
230
1.0
  0
LINE
  8
1
  6
CONTINUOUS
 62
     4
  5
1EC
 10
60.10375
 20
407.74625
 30
0.0
 11
64.85375
 21
407.74625
 31
0.0
  0
ARC
  8
1
  6
CONTINUOUS
 62
     4
  5
1ED
 10
64.85375
 20
405.74625
 30
0.0
 40
2.0
 50
0.0
 51
90.0
210
0.0
220
0.0
230
1.0
  0
LINE
  8
1
  6
CONTINUOUS
 62
     4
  5
1EE
 10
66.85375
 20
405.74625
 30
0.0
 11
66.85375
 21
402.49625
 31
0.0
  0
LINE
  8
1
  6
CONTINUOUS
 62
     4
  5
1EF
 10
66.85375
 20
402.49625
 30
0.0
 11
70.85375
 21
402.49625
 31
0.0
  0
LINE
  8
1
  6
CONTINUOUS
 62
     4
  5
1F0
 10
70.85375
 20
402.49625
 30
0.0
 11
70.85375
 21
404.24625
 31
0.0
  0
LINE
  8
1
  6
CONTINUOUS
 62
     4
  5
1F1
 10
70.85375
 20
404.24625
 30
0.0
 11
69.10375
 21
404.24625
 31
0.0
  0
LINE
  8
1
  6
CONTINUOUS
 62
     4
  5
1F2
 10
69.10375
 20
404.49625
 30
0.0
 11
69.10375
 21
402.99625
 31
0.0
  0
LINE
  8
1
  6
CONTINUOUS
 62
     4
  5
1F3
 10
69.10375
 20
402.99625
 30
0.0
 11
67.60375
 21
402.99625
 31
0.0
  0
LINE
  8
1
  6
CONTINUOUS
 62
     4
  5
1F4
 10
67.60375
 20
402.99625
 30
0.0
 11
67.60375
 21
407.99625
 31
0.0
  0
LINE
  8
1
  6
CONTINUOUS
 62
     4
  5
1F5
 10
67.60375
 20
407.99625
 30
0.0
 11
69.10375
 21
407.99625
 31
0.0
  0
LINE
  8
1
  6
CONTINUOUS
 62
     4
  5
1F6
 10
69.10375
 20
407.74625
 30
0.0
 11
68.10375
 21
407.74625
 31
0.0
  0
LINE
  8
1
  6
CONTINUOUS
 62
     4
  5
1F7
 10
69.10375
 20
407.74625
 30
0.0
 11
69.10375
 21
407.99625
 31
0.0
  0
LINE
  8
1
  6
CONTINUOUS
 62
     4
  5
1F8
 10
69.10375
 20
407.99625
 30
0.0
 11
69.10375
 21
406.74625
 31
0.0
  0
LINE
  8
1
  6
CONTINUOUS
 62
     4
  5
1F9
 10
69.10375
 20
406.74625
 30
0.0
 11
70.85375
 21
406.74625
 31
0.0
  0
LINE
  8
1
  6
CONTINUOUS
 62
     4
  5
1FA
 10
56.10375
 20
407.386917
 30
0.0
 11
57.213083
 21
408.49625
 31
0.0
  0
LINE
  8
1
  6
CONTINUOUS
 62
     4
  5
1FB
 10
56.10375
 20
405.97275
 30
0.0
 11
58.62725
 21
408.49625
 31
0.0
  0
LINE
  8
1
  6
CONTINUOUS
 62
     4
  5
1FC
 10
56.10375
 20
404.5585
 30
0.0
 11
57.270583
 21
405.725333
 31
0.0
  0
LINE
  8
1
  6
CONTINUOUS
 62
     4
  5
1FD
 10
59.124667
 20
407.579417
 30
0.0
 11
60.0415
 21
408.49625
 31
0.0
  0
LINE
  8
1
  6
CONTINUOUS
 62
     4
  5
1FE
 10
56.10375
 20
403.144333
 30
0.0
 11
57.10375
 21
404.144333
 31
0.0
  0
LINE
  8
1
  6
CONTINUOUS
 62
     4
  5
1FF
 10
60.705667
 20
407.74625
 30
0.0
 11
61.455667
 21
408.49625
 31
0.0
  0
LINE
  8
1
  6
CONTINUOUS
 62
     4
  5
200
 10
56.10375
 20
401.730083
 30
0.0
 11
57.10375
 21
402.730083
 31
0.0
  0
LINE
  8
1
  6
CONTINUOUS
 62
     4
  5
201
 10
62.119917
 20
407.74625
 30
0.0
 11
62.869917
 21
408.49625
 31
0.0
  0
LINE
  8
1
  6
CONTINUOUS
 62
     4
  5
202
 10
56.10375
 20
400.315833
 30
0.0
 11
57.10375
 21
401.315833
 31
0.0
  0
LINE
  8
1
  6
CONTINUOUS
 62
     4
  5
203
 10
63.534167
 20
407.74625
 30
0.0
 11
64.284167
 21
408.49625
 31
0.0
  0
LINE
  8
1
  6
CONTINUOUS
 62
     4
  5
204
 10
56.10375
 20
398.901667
 30
0.0
 11
57.10375
 21
399.901667
 31
0.0
  0
LINE
  8
1
  6
CONTINUOUS
 62
     4
  5
205
 10
64.943667
 20
407.7415
 30
0.0
 11
65.698333
 21
408.49625
 31
0.0
  0
LINE
  8
1
  6
CONTINUOUS
 62
     4
  5
206
 10
56.10375
 20
397.487417
 30
0.0
 11
57.10375
 21
398.487417
 31
0.0
  0
LINE
  8
1
  6
CONTINUOUS
 62
     4
  5
207
 10
65.99975
 20
407.3835
 30
0.0
 11
67.112583
 21
408.49625
 31
0.0
  0
LINE
  8
1
  6
CONTINUOUS
 62
     4
  5
208
 10
56.10375
 20
396.07325
 30
0.0
 11
57.10375
 21
397.07325
 31
0.0
  0
LINE
  8
1
  6
CONTINUOUS
 62
     4
  5
209
 10
66.65025
 20
406.61975
 30
0.0
 11
67.60375
 21
407.57325
 31
0.0
  0
LINE
  8
1
  6
CONTINUOUS
 62
     4
  5
20A
 10
68.02675
 20
407.99625
 30
0.0
 11
68.52675
 21
408.49625
 31
0.0
  0
LINE
  8
1
  6
CONTINUOUS
 62
     4
  5
20B
 10
56.10375
 20
394.659
 30
0.0
 11
57.10375
 21
395.659
 31
0.0
  0
LINE
  8
1
  6
CONTINUOUS
 62
     4
  5
20C
 10
66.85375
 20
405.409
 30
0.0
 11
67.60375
 21
406.159
 31
0.0
  0
LINE
  8
1
  6
CONTINUOUS
 62
     4
  5
20D
 10
69.10375
 20
407.659
 30
0.0
 11
69.941
 21
408.49625
 31
0.0
  0
LINE
  8
1
  6
CONTINUOUS
 62
     4
  5
20E
 10
56.10375
 20
393.244833
 30
0.0
 11
57.10375
 21
394.244833
 31
0.0
  0
LINE
  8
1
  6
CONTINUOUS
 62
     4
  5
20F
 10
66.85375
 20
403.994833
 30
0.0
 11
67.60375
 21
404.744833
 31
0.0
  0
LINE
  8
1
  6
CONTINUOUS
 62
     4
  5
210
 10
69.605167
 20
406.74625
 30
0.0
 11
70.85375
 21
407.994833
 31
0.0
  0
LINE
  8
1
  6
CONTINUOUS
 62
     4
  5
211
 10
56.10375
 20
391.830583
 30
0.0
 11
57.10375
 21
392.830583
 31
0.0
  0
LINE
  8
1
  6
CONTINUOUS
 62
     4
  5
212
 10
66.85375
 20
402.580583
 30
0.0
 11
67.60375
 21
403.330583
 31
0.0
  0
LINE
  8
1
  6
CONTINUOUS
 62
     4
  5
213
 10
56.10375
 20
390.416417
 30
0.0
 11
57.10375
 21
391.416417
 31
0.0
  0
LINE
  8
1
  6
CONTINUOUS
 62
     4
  5
214
 10
68.183583
 20
402.49625
 30
0.0
 11
68.683583
 21
402.99625
 31
0.0
  0
LINE
  8
1
  6
CONTINUOUS
 62
     4
  5
215
 10
69.10375
 20
403.416417
 30
0.0
 11
69.933583
 21
404.24625
 31
0.0
  0
LINE
  8
1
  6
CONTINUOUS
 62
     4
  5
216
 10
56.10375
 20
389.002167
 30
0.0
 11
57.10375
 21
390.002167
 31
0.0
  0
LINE
  8
1
  6
CONTINUOUS
 62
     4
  5
217
 10
69.597833
 20
402.49625
 30
0.0
 11
70.85375
 21
403.752167
 31
0.0
  0
LINE
  8
1
  6
CONTINUOUS
 62
     4
  5
218
 10
56.10375
 20
387.587917
 30
0.0
 11
57.10375
 21
388.587917
 31
0.0
  0
LINE
  8
1
  6
CONTINUOUS
 62
     4
  5
219
 10
56.10375
 20
386.17375
 30
0.0
 11
57.10375
 21
387.17375
 31
0.0
  0
LINE
  8
1
  6
CONTINUOUS
 62
     4
  5
21A
 10
56.10375
 20
384.7595
 30
0.0
 11
57.10375
 21
385.7595
 31
0.0
  0
LINE
  8
1
  6
CONTINUOUS
 62
     4
  5
21B
 10
56.10375
 20
383.345333
 30
0.0
 11
57.10375
 21
384.345333
 31
0.0
  0
LINE
  8
1
  6
CONTINUOUS
 62
     4
  5
21C
 10
56.10375
 20
381.931083
 30
0.0
 11
57.10375
 21
382.931083
 31
0.0
  0
LINE
  8
1
  6
CONTINUOUS
 62
     4
  5
21D
 10
56.10375
 20
380.516917
 30
0.0
 11
57.10375
 21
381.516917
 31
0.0
  0
LINE
  8
1
  6
CONTINUOUS
 62
     4
  5
21E
 10
56.10375
 20
379.102667
 30
0.0
 11
57.10375
 21
380.102667
 31
0.0
  0
LINE
  8
1
  6
CONTINUOUS
 62
     4
  5
21F
 10
56.10375
 20
377.688417
 30
0.0
 11
57.10375
 21
378.688417
 31
0.0
  0
LINE
  8
1
  6
CONTINUOUS
 62
     4
  5
220
 10
56.10375
 20
376.27425
 30
0.0
 11
57.10375
 21
377.27425
 31
0.0
  0
LINE
  8
1
  6
CONTINUOUS
 62
     4
  5
221
 10
56.10375
 20
374.86
 30
0.0
 11
57.10375
 21
375.86
 31
0.0
  0
LINE
  8
1
  6
CONTINUOUS
 62
     4
  5
222
 10
56.10375
 20
373.445833
 30
0.0
 11
57.10375
 21
374.445833
 31
0.0
  0
LINE
  8
1
  6
CONTINUOUS
 62
     4
  5
223
 10
56.10375
 20
372.031583
 30
0.0
 11
57.10375
 21
373.031583
 31
0.0
  0
LINE
  8
1
  6
CONTINUOUS
 62
     4
  5
224
 10
56.10375
 20
370.617417
 30
0.0
 11
57.10375
 21
371.617417
 31
0.0
  0
LINE
  8
1
  6
CONTINUOUS
 62
     4
  5
225
 10
56.10375
 20
369.203167
 30
0.0
 11
57.10375
 21
370.203167
 31
0.0
  0
LINE
  8
1
  6
CONTINUOUS
 62
     4
  5
226
 10
56.10375
 20
367.789
 30
0.0
 11
57.225917
 21
368.911167
 31
0.0
  0
LINE
  8
1
  6
CONTINUOUS
 62
     4
  5
227
 10
56.10375
 20
366.37475
 30
0.0
 11
57.692417
 21
367.963417
 31
0.0
  0
LINE
  8
1
  6
CONTINUOUS
 62
     4
  5
228
 10
56.10375
 20
364.9605
 30
0.0
 11
58.414333
 21
367.271167
 31
0.0
  0
LINE
  8
1
  6
CONTINUOUS
 62
     4
  5
229
 10
56.10375
 20
363.546333
 30
0.0
 11
59.392667
 21
366.83525
 31
0.0
  0
LINE
  8
1
  6
CONTINUOUS
 62
     4
  5
22A
 10
59.960417
 20
365.98875
 30
0.0
 11
60.717917
 21
366.74625
 31
0.0
  0
LINE
  8
1
  6
CONTINUOUS
 62
     4
  5
22B
 10
61.382083
 20
365.99625
 30
0.0
 11
62.132083
 21
366.74625
 31
0.0
  0
LINE
  8
1
  6
CONTINUOUS
 62
     4
  5
22C
 10
62.796333
 20
365.99625
 30
0.0
 11
63.546333
 21
366.74625
 31
0.0
  0
LINE
  8
1
  6
CONTINUOUS
 62
     4
  5
22D
 10
64.2105
 20
365.99625
 30
0.0
 11
64.9605
 21
366.74625
 31
0.0
  0
LINE
  8
1
  6
CONTINUOUS
 62
     4
  5
22E
 10
65.62475
 20
365.99625
 30
0.0
 11
66.37475
 21
366.74625
 31
0.0
  0
LINE
  8
1
  6
CONTINUOUS
 62
     4
  5
22F
 10
67.039
 20
365.99625
 30
0.0
 11
67.789
 21
366.74625
 31
0.0
  0
LINE
  8
1
  6
CONTINUOUS
 62
     4
  5
230
 10
68.453167
 20
365.99625
 30
0.0
 11
69.203167
 21
366.74625
 31
0.0
  0
LINE
  8
1
  6
CONTINUOUS
 62
     4
  5
231
 10
56.10375
 20
408.49625
 30
0.0
 11
56.10375
 21
362.99625
 31
0.0
  0
LINE
  8
1
  6
CONTINUOUS
 62
     4
  5
232
 10
56.10375
 20
362.99625
 30
0.0
 11
56.10375
 21
320.49625
 31
0.0
  0
ARC
  8
1
  6
CONTINUOUS
 62
     4
  5
233
 10
60.10375
 20
320.49625
 30
0.0
 40
3.0
 50
90.0
 51
180.0
210
0.0
220
0.0
230
1.0
  0
LINE
  8
1
  6
CONTINUOUS
 62
     4
  5
234
 10
60.10375
 20
323.49625
 30
0.0
 11
65.10375
 21
323.49625
 31
0.0
  0
ARC
  8
1
  6
CONTINUOUS
 62
     4
  5
235
 10
65.10375
 20
321.49625
 30
0.0
 40
2.0
 50
0.0
 51
90.0
210
0.0
220
0.0
230
1.0
  0
LINE
  8
1
  6
CONTINUOUS
 62
     4
  5
236
 10
67.10375
 20
321.49625
 30
0.0
 11
67.10375
 21
318.24625
 31
0.0
  0
LINE
  8
1
  6
CONTINUOUS
 62
     4
  5
237
 10
67.10375
 20
318.24625
 30
0.0
 11
70.85375
 21
318.24625
 31
0.0
  0
LINE
  8
1
  6
CONTINUOUS
 62
     4
  5
238
 10
70.85375
 20
318.24625
 30
0.0
 11
70.85375
 21
319.74625
 31
0.0
  0
LINE
  8
1
  6
CONTINUOUS
 62
     4
  5
239
 10
70.85375
 20
319.74625
 30
0.0
 11
69.35375
 21
319.74625
 31
0.0
  0
LINE
  8
1
  6
CONTINUOUS
 62
     4
  5
23A
 10
69.35375
 20
319.74625
 30
0.0
 11
69.35375
 21
318.99625
 31
0.0
  0
LINE
  8
1
  6
CONTINUOUS
 62
     4
  5
23B
 10
69.35375
 20
318.99625
 30
0.0
 11
67.85375
 21
318.99625
 31
0.0
  0
LINE
  8
1
  6
CONTINUOUS
 62
     4
  5
23C
 10
67.85375
 20
318.99625
 30
0.0
 11
67.85375
 21
323.49625
 31
0.0
  0
LINE
  8
1
  6
CONTINUOUS
 62
     4
  5
23D
 10
67.85375
 20
323.49625
 30
0.0
 11
69.35375
 21
323.49625
 31
0.0
  0
LINE
  8
1
  6
CONTINUOUS
 62
     4
  5
23E
 10
69.35375
 20
323.49625
 30
0.0
 11
69.35375
 21
322.74625
 31
0.0
  0
LINE
  8
1
  6
CONTINUOUS
 62
     4
  5
23F
 10
69.35375
 20
322.74625
 30
0.0
 11
70.85375
 21
322.74625
 31
0.0
  0
LINE
  8
1
  6
CONTINUOUS
 62
     4
  5
240
 10
70.85375
 20
319.74625
 30
0.0
 11
70.85375
 21
328.74625
 31
0.0
  0
LINE
  8
1
  6
CONTINUOUS
 62
     4
  5
241
 10
70.85375
 20
325.74625
 30
0.0
 11
69.35375
 21
325.74625
 31
0.0
  0
LINE
  8
1
  6
CONTINUOUS
 62
     4
  5
242
 10
69.35375
 20
325.74625
 30
0.0
 11
69.35375
 21
324.99625
 31
0.0
  0
LINE
  8
1
  6
CONTINUOUS
 62
     4
  5
243
 10
69.35375
 20
324.99625
 30
0.0
 11
67.85375
 21
324.99625
 31
0.0
  0
LINE
  8
1
  6
CONTINUOUS
 62
     4
  5
244
 10
67.85375
 20
324.99625
 30
0.0
 11
67.85375
 21
329.49625
 31
0.0
  0
LINE
  8
1
  6
CONTINUOUS
 62
     4
  5
245
 10
67.85375
 20
329.49625
 30
0.0
 11
69.35375
 21
329.49625
 31
0.0
  0
LINE
  8
1
  6
CONTINUOUS
 62
     4
  5
246
 10
69.35375
 20
329.49625
 30
0.0
 11
69.35375
 21
328.74625
 31
0.0
  0
LINE
  8
1
  6
CONTINUOUS
 62
     4
  5
247
 10
69.35375
 20
328.74625
 30
0.0
 11
70.85375
 21
328.74625
 31
0.0
  0
LINE
  8
1
  6
CONTINUOUS
 62
     4
  5
248
 10
70.85375
 20
328.74625
 30
0.0
 11
70.85375
 21
330.24625
 31
0.0
  0
LINE
  8
1
  6
CONTINUOUS
 62
     4
  5
249
 10
70.85375
 20
330.24625
 30
0.0
 11
67.10375
 21
330.24625
 31
0.0
  0
LINE
  8
1
  6
CONTINUOUS
 62
     4
  5
24A
 10
67.10375
 20
330.24625
 30
0.0
 11
67.10375
 21
326.99625
 31
0.0
  0
ARC
  8
1
  6
CONTINUOUS
 62
     4
  5
24B
 10
65.10375
 20
326.99625
 30
0.0
 40
2.0
 50
270.0
 51
0.0
210
0.0
220
0.0
230
1.0
  0
LINE
  8
1
  6
CONTINUOUS
 62
     4
  5
24C
 10
65.10375
 20
324.99625
 30
0.0
 11
60.10375
 21
324.99625
 31
0.0
  0
ARC
  8
1
  6
CONTINUOUS
 62
     4
  5
24D
 10
60.10375
 20
327.99625
 30
0.0
 40
3.0
 50
180.0
 51
270.0
210
0.0
220
0.0
230
1.0
  0
LINE
  8
1
  6
CONTINUOUS
 62
     4
  5
24E
 10
57.10375
 20
327.99625
 30
0.0
 11
57.10375
 21
362.99625
 31
0.0
  0
LINE
  8
1
  6
CONTINUOUS
 62
     4
  5
24F
 10
56.10375
 20
362.35475
 30
0.0
 11
57.128333
 21
363.379333
 31
0.0
  0
LINE
  8
1
  6
CONTINUOUS
 62
     4
  5
250
 10
56.10375
 20
360.940583
 30
0.0
 11
57.10375
 21
361.940583
 31
0.0
  0
LINE
  8
1
  6
CONTINUOUS
 62
     4
  5
251
 10
56.10375
 20
359.526333
 30
0.0
 11
57.10375
 21
360.526333
 31
0.0
  0
LINE
  8
1
  6
CONTINUOUS
 62
     4
  5
252
 10
56.10375
 20
358.112167
 30
0.0
 11
57.10375
 21
359.112167
 31
0.0
  0
LINE
  8
1
  6
CONTINUOUS
 62
     4
  5
253
 10
56.10375
 20
356.697917
 30
0.0
 11
57.10375
 21
357.697917
 31
0.0
  0
LINE
  8
1
  6
CONTINUOUS
 62
     4
  5
254
 10
56.10375
 20
355.28375
 30
0.0
 11
57.10375
 21
356.28375
 31
0.0
  0
LINE
  8
1
  6
CONTINUOUS
 62
     4
  5
255
 10
56.10375
 20
353.8695
 30
0.0
 11
57.10375
 21
354.8695
 31
0.0
  0
LINE
  8
1
  6
CONTINUOUS
 62
     4
  5
256
 10
56.10375
 20
352.455333
 30
0.0
 11
57.10375
 21
353.455333
 31
0.0
  0
LINE
  8
1
  6
CONTINUOUS
 62
     4
  5
257
 10
56.10375
 20
351.041083
 30
0.0
 11
57.10375
 21
352.041083
 31
0.0
  0
LINE
  8
1
  6
CONTINUOUS
 62
     4
  5
258
 10
56.10375
 20
349.626833
 30
0.0
 11
57.10375
 21
350.626833
 31
0.0
  0
LINE
  8
1
  6
CONTINUOUS
 62
     4
  5
259
 10
56.10375
 20
348.212667
 30
0.0
 11
57.10375
 21
349.212667
 31
0.0
  0
LINE
  8
1
  6
CONTINUOUS
 62
     4
  5
25A
 10
56.10375
 20
346.798417
 30
0.0
 11
57.10375
 21
347.798417
 31
0.0
  0
LINE
  8
1
  6
CONTINUOUS
 62
     4
  5
25B
 10
56.10375
 20
345.38425
 30
0.0
 11
57.10375
 21
346.38425
 31
0.0
  0
LINE
  8
1
  6
CONTINUOUS
 62
     4
  5
25C
 10
56.10375
 20
343.97
 30
0.0
 11
57.10375
 21
344.97
 31
0.0
  0
LINE
  8
1
  6
CONTINUOUS
 62
     4
  5
25D
 10
56.10375
 20
342.555833
 30
0.0
 11
57.10375
 21
343.555833
 31
0.0
  0
LINE
  8
1
  6
CONTINUOUS
 62
     4
  5
25E
 10
56.10375
 20
341.141583
 30
0.0
 11
57.10375
 21
342.141583
 31
0.0
  0
LINE
  8
1
  6
CONTINUOUS
 62
     4
  5
25F
 10
56.10375
 20
339.727333
 30
0.0
 11
57.10375
 21
340.727333
 31
0.0
  0
LINE
  8
1
  6
CONTINUOUS
 62
     4
  5
260
 10
56.10375
 20
338.313167
 30
0.0
 11
57.10375
 21
339.313167
 31
0.0
  0
LINE
  8
1
  6
CONTINUOUS
 62
     4
  5
261
 10
56.10375
 20
336.898917
 30
0.0
 11
57.10375
 21
337.898917
 31
0.0
  0
LINE
  8
1
  6
CONTINUOUS
 62
     4
  5
262
 10
56.10375
 20
335.48475
 30
0.0
 11
57.10375
 21
336.48475
 31
0.0
  0
LINE
  8
1
  6
CONTINUOUS
 62
     4
  5
263
 10
56.10375
 20
334.0705
 30
0.0
 11
57.10375
 21
335.0705
 31
0.0
  0
LINE
  8
1
  6
CONTINUOUS
 62
     4
  5
264
 10
56.10375
 20
332.656333
 30
0.0
 11
57.10375
 21
333.656333
 31
0.0
  0
LINE
  8
1
  6
CONTINUOUS
 62
     4
  5
265
 10
56.10375
 20
331.242083
 30
0.0
 11
57.10375
 21
332.242083
 31
0.0
  0
LINE
  8
1
  6
CONTINUOUS
 62
     4
  5
266
 10
56.10375
 20
329.827917
 30
0.0
 11
57.10375
 21
330.827917
 31
0.0
  0
LINE
  8
1
  6
CONTINUOUS
 62
     4
  5
267
 10
56.10375
 20
328.413667
 30
0.0
 11
57.10375
 21
329.413667
 31
0.0
  0
LINE
  8
1
  6
CONTINUOUS
 62
     4
  5
268
 10
56.10375
 20
326.999417
 30
0.0
 11
57.10375
 21
327.999417
 31
0.0
  0
LINE
  8
1
  6
CONTINUOUS
 62
     4
  5
269
 10
56.10375
 20
325.58525
 30
0.0
 11
57.344083
 21
326.825583
 31
0.0
  0
LINE
  8
1
  6
CONTINUOUS
 62
     4
  5
26A
 10
56.10375
 20
324.171
 30
0.0
 11
57.897917
 21
325.96525
 31
0.0
  0
LINE
  8
1
  6
CONTINUOUS
 62
     4
  5
26B
 10
56.10375
 20
322.756833
 30
0.0
 11
58.697417
 21
325.350417
 31
0.0
  0
LINE
  8
1
  6
CONTINUOUS
 62
     4
  5
26C
 10
56.10375
 20
321.342583
 30
0.0
 11
59.776083
 21
325.014917
 31
0.0
  0
LINE
  8
1
  6
CONTINUOUS
 62
     4
  5
26D
 10
59.62975
 20
323.454417
 30
0.0
 11
61.171583
 21
324.99625
 31
0.0
  0
LINE
  8
1
  6
CONTINUOUS
 62
     4
  5
26E
 10
61.085833
 20
323.49625
 30
0.0
 11
62.585833
 21
324.99625
 31
0.0
  0
LINE
  8
1
  6
CONTINUOUS
 62
     4
  5
26F
 10
67.10375
 20
329.514167
 30
0.0
 11
67.835833
 21
330.24625
 31
0.0
  0
LINE
  8
1
  6
CONTINUOUS
 62
     4
  5
270
 10
62.500083
 20
323.49625
 30
0.0
 11
64.000083
 21
324.99625
 31
0.0
  0
LINE
  8
1
  6
CONTINUOUS
 62
     4
  5
271
 10
67.10375
 20
328.099917
 30
0.0
 11
67.85375
 21
328.849917
 31
0.0
  0
LINE
  8
1
  6
CONTINUOUS
 62
     4
  5
272
 10
68.500083
 20
329.49625
 30
0.0
 11
69.250083
 21
330.24625
 31
0.0
  0
LINE
  8
1
  6
CONTINUOUS
 62
     4
  5
273
 10
63.91425
 20
323.49625
 30
0.0
 11
65.446333
 21
325.028333
 31
0.0
  0
LINE
  8
1
  6
CONTINUOUS
 62
     4
  5
274
 10
67.071667
 20
326.653667
 30
0.0
 11
67.85375
 21
327.43575
 31
0.0
  0
LINE
  8
1
  6
CONTINUOUS
 62
     4
  5
275
 10
69.35375
 20
328.93575
 30
0.0
 11
70.66425
 21
330.24625
 31
0.0
  0
LINE
  8
1
  6
CONTINUOUS
 62
     4
  5
276
 10
65.316833
 20
323.484667
 30
0.0
 11
67.85375
 21
326.0215
 31
0.0
  0
LINE
  8
1
  6
CONTINUOUS
 62
     4
  5
277
 10
70.5785
 20
328.74625
 30
0.0
 11
70.85375
 21
329.0215
 31
0.0
  0
LINE
  8
1
  6
CONTINUOUS
 62
     4
  5
278
 10
66.324333
 20
323.077833
 30
0.0
 11
68.242667
 21
324.99625
 31
0.0
  0
LINE
  8
1
  6
CONTINUOUS
 62
     4
  5
279
 10
66.941833
 20
322.281167
 30
0.0
 11
67.85375
 21
323.193083
 31
0.0
  0
LINE
  8
1
  6
CONTINUOUS
 62
     4
  5
27A
 10
68.156917
 20
323.49625
 30
0.0
 11
70.406917
 21
325.74625
 31
0.0
  0
LINE
  8
1
  6
CONTINUOUS
 62
     4
  5
27B
 10
67.10375
 20
321.028917
 30
0.0
 11
67.85375
 21
321.778917
 31
0.0
  0
LINE
  8
1
  6
CONTINUOUS
 62
     4
  5
27C
 10
69.35375
 20
323.278917
 30
0.0
 11
70.85375
 21
324.778917
 31
0.0
  0
LINE
  8
1
  6
CONTINUOUS
 62
     4
  5
27D
 10
67.10375
 20
319.614667
 30
0.0
 11
67.85375
 21
320.364667
 31
0.0
  0
LINE
  8
1
  6
CONTINUOUS
 62
     4
  5
27E
 10
70.235333
 20
322.74625
 30
0.0
 11
70.85375
 21
323.364667
 31
0.0
  0
LINE
  8
1
  6
CONTINUOUS
 62
     4
  5
27F
 10
67.149583
 20
318.24625
 30
0.0
 11
67.899583
 21
318.99625
 31
0.0
  0
LINE
  8
1
  6
CONTINUOUS
 62
     4
  5
280
 10
68.56375
 20
318.24625
 30
0.0
 11
69.31375
 21
318.99625
 31
0.0
  0
LINE
  8
1
  6
CONTINUOUS
 62
     4
  5
281
 10
69.35375
 20
319.03625
 30
0.0
 11
70.06375
 21
319.74625
 31
0.0
  0
LINE
  8
1
  6
CONTINUOUS
 62
     4
  5
282
 10
69.978
 20
318.24625
 30
0.0
 11
70.85375
 21
319.122
 31
0.0
  0
ARC
  8
1
  6
CONTINUOUS
 62
     4
  5
283
 10
60.10375
 20
278.74625
 30
0.0
 40
3.0
 50
90.0
 51
180.0
210
0.0
220
0.0
230
1.0
  0
LINE
  8
1
  6
CONTINUOUS
 62
     4
  5
284
 10
60.10375
 20
281.74625
 30
0.0
 11
69.35375
 21
281.74625
 31
0.0
  0
LINE
  8
1
  6
CONTINUOUS
 62
     4
  5
285
 10
69.35375
 20
282.49625
 30
0.0
 11
60.10375
 21
282.49625
 31
0.0
  0
ARC
  8
1
  6
CONTINUOUS
 62
     4
  5
286
 10
60.10375
 20
285.49625
 30
0.0
 40
3.0
 50
180.0
 51
270.0
210
0.0
220
0.0
230
1.0
  0
LINE
  8
1
  6
CONTINUOUS
 62
     4
  5
287
 10
57.10375
 20
285.49625
 30
0.0
 11
57.10375
 21
320.49625
 31
0.0
  0
LINE
  8
1
  6
CONTINUOUS
 62
     4
  5
288
 10
56.10375
 20
319.150417
 30
0.0
 11
57.10375
 21
320.150417
 31
0.0
  0
LINE
  8
1
  6
CONTINUOUS
 62
     4
  5
289
 10
56.10375
 20
317.73625
 30
0.0
 11
57.10375
 21
318.73625
 31
0.0
  0
LINE
  8
1
  6
CONTINUOUS
 62
     4
  5
28A
 10
56.10375
 20
316.322
 30
0.0
 11
57.10375
 21
317.322
 31
0.0
  0
LINE
  8
1
  6
CONTINUOUS
 62
     4
  5
28B
 10
56.10375
 20
314.907833
 30
0.0
 11
57.10375
 21
315.907833
 31
0.0
  0
LINE
  8
1
  6
CONTINUOUS
 62
     4
  5
28C
 10
56.10375
 20
313.493583
 30
0.0
 11
57.10375
 21
314.493583
 31
0.0
  0
LINE
  8
1
  6
CONTINUOUS
 62
     4
  5
28D
 10
56.10375
 20
312.079417
 30
0.0
 11
57.10375
 21
313.079417
 31
0.0
  0
LINE
  8
1
  6
CONTINUOUS
 62
     4
  5
28E
 10
56.10375
 20
310.665167
 30
0.0
 11
57.10375
 21
311.665167
 31
0.0
  0
LINE
  8
1
  6
CONTINUOUS
 62
     4
  5
28F
 10
56.10375
 20
309.251
 30
0.0
 11
57.10375
 21
310.251
 31
0.0
  0
LINE
  8
1
  6
CONTINUOUS
 62
     4
  5
290
 10
56.10375
 20
307.83675
 30
0.0
 11
57.10375
 21
308.83675
 31
0.0
  0
LINE
  8
1
  6
CONTINUOUS
 62
     4
  5
291
 10
56.10375
 20
306.4225
 30
0.0
 11
57.10375
 21
307.4225
 31
0.0
  0
LINE
  8
1
  6
CONTINUOUS
 62
     4
  5
292
 10
56.10375
 20
305.008333
 30
0.0
 11
57.10375
 21
306.008333
 31
0.0
  0
LINE
  8
1
  6
CONTINUOUS
 62
     4
  5
293
 10
56.10375
 20
303.594083
 30
0.0
 11
57.10375
 21
304.594083
 31
0.0
  0
LINE
  8
1
  6
CONTINUOUS
 62
     4
  5
294
 10
56.10375
 20
302.179917
 30
0.0
 11
57.10375
 21
303.179917
 31
0.0
  0
LINE
  8
1
  6
CONTINUOUS
 62
     4
  5
295
 10
56.10375
 20
300.765667
 30
0.0
 11
57.10375
 21
301.765667
 31
0.0
  0
LINE
  8
1
  6
CONTINUOUS
 62
     4
  5
296
 10
56.10375
 20
299.3515
 30
0.0
 11
57.10375
 21
300.3515
 31
0.0
  0
LINE
  8
1
  6
CONTINUOUS
 62
     4
  5
297
 10
56.10375
 20
297.93725
 30
0.0
 11
57.10375
 21
298.93725
 31
0.0
  0
LINE
  8
1
  6
CONTINUOUS
 62
     4
  5
298
 10
56.10375
 20
296.523
 30
0.0
 11
57.10375
 21
297.523
 31
0.0
  0
LINE
  8
1
  6
CONTINUOUS
 62
     4
  5
299
 10
56.10375
 20
295.108833
 30
0.0
 11
57.10375
 21
296.108833
 31
0.0
  0
LINE
  8
1
  6
CONTINUOUS
 62
     4
  5
29A
 10
56.10375
 20
293.694583
 30
0.0
 11
57.10375
 21
294.694583
 31
0.0
  0
LINE
  8
1
  6
CONTINUOUS
 62
     4
  5
29B
 10
56.10375
 20
292.280417
 30
0.0
 11
57.10375
 21
293.280417
 31
0.0
  0
LINE
  8
1
  6
CONTINUOUS
 62
     4
  5
29C
 10
56.10375
 20
290.866167
 30
0.0
 11
57.10375
 21
291.866167
 31
0.0
  0
LINE
  8
1
  6
CONTINUOUS
 62
     4
  5
29D
 10
56.10375
 20
289.452
 30
0.0
 11
57.10375
 21
290.452
 31
0.0
  0
LINE
  8
1
  6
CONTINUOUS
 62
     4
  5
29E
 10
56.10375
 20
288.03775
 30
0.0
 11
57.10375
 21
289.03775
 31
0.0
  0
LINE
  8
1
  6
CONTINUOUS
 62
     4
  5
29F
 10
56.10375
 20
286.623583
 30
0.0
 11
57.10375
 21
287.623583
 31
0.0
  0
LINE
  8
1
  6
CONTINUOUS
 62
     4
  5
2A0
 10
56.10375
 20
285.209333
 30
0.0
 11
57.10375
 21
286.209333
 31
0.0
  0
LINE
  8
1
  6
CONTINUOUS
 62
     4
  5
2A1
 10
56.10375
 20
283.795083
 30
0.0
 11
57.171833
 21
284.863167
 31
0.0
  0
LINE
  8
1
  6
CONTINUOUS
 62
     4
  5
2A2
 10
56.10375
 20
282.380917
 30
0.0
 11
57.589667
 21
283.866833
 31
0.0
  0
LINE
  8
1
  6
CONTINUOUS
 62
     4
  5
2A3
 10
56.10375
 20
280.966667
 30
0.0
 11
58.26625
 21
283.12925
 31
0.0
  0
LINE
  8
1
  6
CONTINUOUS
 62
     4
  5
2A4
 10
56.10375
 20
279.5525
 30
0.0
 11
59.190667
 21
282.639333
 31
0.0
  0
LINE
  8
1
  6
CONTINUOUS
 62
     4
  5
2A5
 10
59.677417
 20
281.712
 30
0.0
 11
60.46175
 21
282.49625
 31
0.0
  0
LINE
  8
1
  6
CONTINUOUS
 62
     4
  5
2A6
 10
61.125917
 20
281.74625
 30
0.0
 11
61.875917
 21
282.49625
 31
0.0
  0
LINE
  8
1
  6
CONTINUOUS
 62
     4
  5
2A7
 10
62.540167
 20
281.74625
 30
0.0
 11
63.290167
 21
282.49625
 31
0.0
  0
LINE
  8
1
  6
CONTINUOUS
 62
     4
  5
2A8
 10
63.954417
 20
281.74625
 30
0.0
 11
64.704417
 21
282.49625
 31
0.0
  0
LINE
  8
1
  6
CONTINUOUS
 62
     4
  5
2A9
 10
65.368583
 20
281.74625
 30
0.0
 11
66.118583
 21
282.49625
 31
0.0
  0
LINE
  8
1
  6
CONTINUOUS
 62
     4
  5
2AA
 10
66.782833
 20
281.74625
 30
0.0
 11
67.532833
 21
282.49625
 31
0.0
  0
LINE
  8
1
  6
CONTINUOUS
 62
     4
  5
2AB
 10
68.197
 20
281.74625
 30
0.0
 11
68.947
 21
282.49625
 31
0.0
  0
LINE
  8
1
  6
CONTINUOUS
 62
     4
  5
2AC
 10
56.10375
 20
320.23725
 30
0.0
 11
57.232667
 21
321.366167
 31
0.0
  0
LINE
  8
1
  6
CONTINUOUS
 62
     4
  5
2AD
 10
56.10375
 20
320.49625
 30
0.0
 11
56.10375
 21
278.74625
 31
0.0
  0
LINE
  8
1
  6
CONTINUOUS
 62
     4
  5
2AE
 10
56.10375
 20
278.74625
 30
0.0
 11
56.10375
 21
236.24625
 31
0.0
  0
ARC
  8
1
  6
CONTINUOUS
 62
     4
  5
2AF
 10
60.10375
 20
236.24625
 30
0.0
 40
3.0
 50
90.0
 51
180.0
210
0.0
220
0.0
230
1.0
  0
LINE
  8
1
  6
CONTINUOUS
 62
     4
  5
2B0
 10
60.10375
 20
239.24625
 30
0.0
 11
65.10375
 21
239.24625
 31
0.0
  0
ARC
  8
1
  6
CONTINUOUS
 62
     4
  5
2B1
 10
65.10375
 20
237.24625
 30
0.0
 40
2.0
 50
0.0
 51
90.0
210
0.0
220
0.0
230
1.0
  0
LINE
  8
1
  6
CONTINUOUS
 62
     4
  5
2B2
 10
67.10375
 20
237.24625
 30
0.0
 11
67.10375
 21
233.99625
 31
0.0
  0
LINE
  8
1
  6
CONTINUOUS
 62
     4
  5
2B3
 10
67.10375
 20
233.99625
 30
0.0
 11
70.85375
 21
233.99625
 31
0.0
  0
LINE
  8
1
  6
CONTINUOUS
 62
     4
  5
2B4
 10
70.85375
 20
233.99625
 30
0.0
 11
70.85375
 21
235.7475
 31
0.0
  0
LINE
  8
1
  6
CONTINUOUS
 62
     4
  5
2B5
 10
70.85375
 20
235.7475
 30
0.0
 11
69.34725
 21
235.7475
 31
0.0
  0
LINE
  8
1
  6
CONTINUOUS
 62
     4
  5
2B6
 10
69.34725
 20
235.7475
 30
0.0
 11
69.34725
 21
234.4975
 31
0.0
  0
LINE
  8
1
  6
CONTINUOUS
 62
     4
  5
2B7
 10
69.34725
 20
234.4975
 30
0.0
 11
67.84725
 21
234.4975
 31
0.0
  0
LINE
  8
1
  6
CONTINUOUS
 62
     4
  5
2B8
 10
67.84725
 20
234.4975
 30
0.0
 11
67.84725
 21
239.4975
 31
0.0
  0
LINE
  8
1
  6
CONTINUOUS
 62
     4
  5
2B9
 10
67.84725
 20
239.4975
 30
0.0
 11
69.34725
 21
239.4975
 31
0.0
  0
LINE
  8
1
  6
CONTINUOUS
 62
     4
  5
2BA
 10
69.34725
 20
239.4975
 30
0.0
 11
69.34725
 21
239.2475
 31
0.0
  0
LINE
  8
1
  6
CONTINUOUS
 62
     4
  5
2BB
 10
69.34725
 20
239.2475
 30
0.0
 11
68.34725
 21
239.2475
 31
0.0
  0
LINE
  8
1
  6
CONTINUOUS
 62
     4
  5
2BC
 10
69.34725
 20
239.4975
 30
0.0
 11
69.34725
 21
238.2475
 31
0.0
  0
LINE
  8
1
  6
CONTINUOUS
 62
     4
  5
2BD
 10
69.34725
 20
238.2475
 30
0.0
 11
70.85375
 21
238.2475
 31
0.0
  0
LINE
  8
1
  6
CONTINUOUS
 62
     4
  5
2BE
 10
70.85375
 20
238.2475
 30
0.0
 11
70.85375
 21
240.9975
 31
0.0
  0
LINE
  8
1
  6
CONTINUOUS
 62
     4
  5
2BF
 10
70.85375
 20
240.9975
 30
0.0
 11
70.85375
 21
244.49625
 31
0.0
  0
LINE
  8
1
  6
CONTINUOUS
 62
     4
  5
2C0
 10
70.85375
 20
241.49625
 30
0.0
 11
69.35375
 21
241.49625
 31
0.0
  0
LINE
  8
1
  6
CONTINUOUS
 62
     4
  5
2C1
 10
69.35375
 20
241.49625
 30
0.0
 11
69.35375
 21
240.74625
 31
0.0
  0
LINE
  8
1
  6
CONTINUOUS
 62
     4
  5
2C2
 10
69.35375
 20
240.74625
 30
0.0
 11
67.85375
 21
240.74625
 31
0.0
  0
LINE
  8
1
  6
CONTINUOUS
 62
     4
  5
2C3
 10
67.85375
 20
240.74625
 30
0.0
 11
67.85375
 21
245.24625
 31
0.0
  0
LINE
  8
1
  6
CONTINUOUS
 62
     4
  5
2C4
 10
67.85375
 20
245.24625
 30
0.0
 11
69.35375
 21
245.24625
 31
0.0
  0
LINE
  8
1
  6
CONTINUOUS
 62
     4
  5
2C5
 10
69.35375
 20
245.24625
 30
0.0
 11
69.35375
 21
244.49625
 31
0.0
  0
LINE
  8
1
  6
CONTINUOUS
 62
     4
  5
2C6
 10
69.35375
 20
244.49625
 30
0.0
 11
70.85375
 21
244.49625
 31
0.0
  0
LINE
  8
1
  6
CONTINUOUS
 62
     4
  5
2C7
 10
70.85375
 20
244.49625
 30
0.0
 11
70.85375
 21
245.99625
 31
0.0
  0
LINE
  8
1
  6
CONTINUOUS
 62
     4
  5
2C8
 10
70.85375
 20
245.99625
 30
0.0
 11
67.10375
 21
245.99625
 31
0.0
  0
LINE
  8
1
  6
CONTINUOUS
 62
     4
  5
2C9
 10
67.10375
 20
245.99625
 30
0.0
 11
67.10375
 21
242.74625
 31
0.0
  0
ARC
  8
1
  6
CONTINUOUS
 62
     4
  5
2CA
 10
65.10375
 20
242.74625
 30
0.0
 40
2.0
 50
270.0
 51
0.0
210
0.0
220
0.0
230
1.0
  0
LINE
  8
1
  6
CONTINUOUS
 62
     4
  5
2CB
 10
65.10375
 20
240.74625
 30
0.0
 11
60.10375
 21
240.74625
 31
0.0
  0
ARC
  8
1
  6
CONTINUOUS
 62
     4
  5
2CC
 10
60.10375
 20
243.74625
 30
0.0
 40
3.0
 50
180.0
 51
270.0
210
0.0
220
0.0
230
1.0
  0
LINE
  8
1
  6
CONTINUOUS
 62
     4
  5
2CD
 10
57.10375
 20
243.74625
 30
0.0
 11
57.10375
 21
278.74625
 31
0.0
  0
LINE
  8
1
  6
CONTINUOUS
 62
     4
  5
2CE
 10
56.10375
 20
278.057167
 30
0.0
 11
57.121833
 21
279.07525
 31
0.0
  0
LINE
  8
1
  6
CONTINUOUS
 62
     4
  5
2CF
 10
56.10375
 20
276.643
 30
0.0
 11
57.10375
 21
277.643
 31
0.0
  0
LINE
  8
1
  6
CONTINUOUS
 62
     4
  5
2D0
 10
56.10375
 20
275.22875
 30
0.0
 11
57.10375
 21
276.22875
 31
0.0
  0
LINE
  8
1
  6
CONTINUOUS
 62
     4
  5
2D1
 10
56.10375
 20
273.814583
 30
0.0
 11
57.10375
 21
274.814583
 31
0.0
  0
LINE
  8
1
  6
CONTINUOUS
 62
     4
  5
2D2
 10
56.10375
 20
272.400333
 30
0.0
 11
57.10375
 21
273.400333
 31
0.0
  0
LINE
  8
1
  6
CONTINUOUS
 62
     4
  5
2D3
 10
56.10375
 20
270.986167
 30
0.0
 11
57.10375
 21
271.986167
 31
0.0
  0
LINE
  8
1
  6
CONTINUOUS
 62
     4
  5
2D4
 10
56.10375
 20
269.571917
 30
0.0
 11
57.10375
 21
270.571917
 31
0.0
  0
LINE
  8
1
  6
CONTINUOUS
 62
     4
  5
2D5
 10
56.10375
 20
268.15775
 30
0.0
 11
57.10375
 21
269.15775
 31
0.0
  0
LINE
  8
1
  6
CONTINUOUS
 62
     4
  5
2D6
 10
56.10375
 20
266.7435
 30
0.0
 11
57.10375
 21
267.7435
 31
0.0
  0
LINE
  8
1
  6
CONTINUOUS
 62
     4
  5
2D7
 10
56.10375
 20
265.32925
 30
0.0
 11
57.10375
 21
266.32925
 31
0.0
  0
LINE
  8
1
  6
CONTINUOUS
 62
     4
  5
2D8
 10
56.10375
 20
263.915083
 30
0.0
 11
57.10375
 21
264.915083
 31
0.0
  0
LINE
  8
1
  6
CONTINUOUS
 62
     4
  5
2D9
 10
56.10375
 20
262.500833
 30
0.0
 11
57.10375
 21
263.500833
 31
0.0
  0
LINE
  8
1
  6
CONTINUOUS
 62
     4
  5
2DA
 10
56.10375
 20
261.086667
 30
0.0
 11
57.10375
 21
262.086667
 31
0.0
  0
LINE
  8
1
  6
CONTINUOUS
 62
     4
  5
2DB
 10
56.10375
 20
259.672417
 30
0.0
 11
57.10375
 21
260.672417
 31
0.0
  0
LINE
  8
1
  6
CONTINUOUS
 62
     4
  5
2DC
 10
56.10375
 20
258.25825
 30
0.0
 11
57.10375
 21
259.25825
 31
0.0
  0
LINE
  8
1
  6
CONTINUOUS
 62
     4
  5
2DD
 10
56.10375
 20
256.844
 30
0.0
 11
57.10375
 21
257.844
 31
0.0
  0
LINE
  8
1
  6
CONTINUOUS
 62
     4
  5
2DE
 10
56.10375
 20
255.42975
 30
0.0
 11
57.10375
 21
256.42975
 31
0.0
  0
LINE
  8
1
  6
CONTINUOUS
 62
     4
  5
2DF
 10
56.10375
 20
254.015583
 30
0.0
 11
57.10375
 21
255.015583
 31
0.0
  0
LINE
  8
1
  6
CONTINUOUS
 62
     4
  5
2E0
 10
56.10375
 20
252.601333
 30
0.0
 11
57.10375
 21
253.601333
 31
0.0
  0
LINE
  8
1
  6
CONTINUOUS
 62
     4
  5
2E1
 10
56.10375
 20
251.187167
 30
0.0
 11
57.10375
 21
252.187167
 31
0.0
  0
LINE
  8
1
  6
CONTINUOUS
 62
     4
  5
2E2
 10
56.10375
 20
249.772917
 30
0.0
 11
57.10375
 21
250.772917
 31
0.0
  0
LINE
  8
1
  6
CONTINUOUS
 62
     4
  5
2E3
 10
56.10375
 20
248.35875
 30
0.0
 11
57.10375
 21
249.35875
 31
0.0
  0
LINE
  8
1
  6
CONTINUOUS
 62
     4
  5
2E4
 10
56.10375
 20
246.9445
 30
0.0
 11
57.10375
 21
247.9445
 31
0.0
  0
LINE
  8
1
  6
CONTINUOUS
 62
     4
  5
2E5
 10
56.10375
 20
245.530333
 30
0.0
 11
57.10375
 21
246.530333
 31
0.0
  0
LINE
  8
1
  6
CONTINUOUS
 62
     4
  5
2E6
 10
56.10375
 20
244.116083
 30
0.0
 11
57.10375
 21
245.116083
 31
0.0
  0
LINE
  8
1
  6
CONTINUOUS
 62
     4
  5
2E7
 10
56.10375
 20
242.701833
 30
0.0
 11
57.106
 21
243.704083
 31
0.0
  0
LINE
  8
1
  6
CONTINUOUS
 62
     4
  5
2E8
 10
56.10375
 20
241.287667
 30
0.0
 11
57.357333
 21
242.541167
 31
0.0
  0
LINE
  8
1
  6
CONTINUOUS
 62
     4
  5
2E9
 10
56.10375
 20
239.873417
 30
0.0
 11
57.92175
 21
241.691417
 31
0.0
  0
LINE
  8
1
  6
CONTINUOUS
 62
     4
  5
2EA
 10
56.10375
 20
238.45925
 30
0.0
 11
58.728917
 21
241.084417
 31
0.0
  0
LINE
  8
1
  6
CONTINUOUS
 62
     4
  5
2EB
 10
56.10375
 20
237.045
 30
0.0
 11
59.819833
 21
240.761167
 31
0.0
  0
LINE
  8
1
  6
CONTINUOUS
 62
     4
  5
2EC
 10
59.686333
 20
239.213333
 30
0.0
 11
61.219167
 21
240.74625
 31
0.0
  0
LINE
  8
1
  6
CONTINUOUS
 62
     4
  5
2ED
 10
61.133417
 20
239.24625
 30
0.0
 11
62.633417
 21
240.74625
 31
0.0
  0
LINE
  8
1
  6
CONTINUOUS
 62
     4
  5
2EE
 10
67.10375
 20
245.216583
 30
0.0
 11
67.883417
 21
245.99625
 31
0.0
  0
LINE
  8
1
  6
CONTINUOUS
 62
     4
  5
2EF
 10
62.547667
 20
239.24625
 30
0.0
 11
64.047667
 21
240.74625
 31
0.0
  0
LINE
  8
1
  6
CONTINUOUS
 62
     4
  5
2F0
 10
67.10375
 20
243.802333
 30
0.0
 11
67.85375
 21
244.552333
 31
0.0
  0
LINE
  8
1
  6
CONTINUOUS
 62
     4
  5
2F1
 10
68.547667
 20
245.24625
 30
0.0
 11
69.297667
 21
245.99625
 31
0.0
  0
LINE
  8
1
  6
CONTINUOUS
 62
     4
  5
2F2
 10
63.961833
 20
239.24625
 30
0.0
 11
65.502917
 21
240.787333
 31
0.0
  0
LINE
  8
1
  6
CONTINUOUS
 62
     4
  5
2F3
 10
67.062667
 20
242.347083
 30
0.0
 11
67.85375
 21
243.138167
 31
0.0
  0
LINE
  8
1
  6
CONTINUOUS
 62
     4
  5
2F4
 10
69.35375
 20
244.638167
 30
0.0
 11
70.711833
 21
245.99625
 31
0.0
  0
LINE
  8
1
  6
CONTINUOUS
 62
     4
  5
2F5
 10
65.357917
 20
239.228167
 30
0.0
 11
67.85375
 21
241.723917
 31
0.0
  0
LINE
  8
1
  6
CONTINUOUS
 62
     4
  5
2F6
 10
70.626083
 20
244.49625
 30
0.0
 11
70.85375
 21
244.723917
 31
0.0
  0
LINE
  8
1
  6
CONTINUOUS
 62
     4
  5
2F7
 10
66.350583
 20
238.806583
 30
0.0
 11
68.29025
 21
240.74625
 31
0.0
  0
LINE
  8
1
  6
CONTINUOUS
 62
     4
  5
2F8
 10
66.955
 20
237.99675
 30
0.0
 11
67.84725
 21
238.889
 31
0.0
  0
LINE
  8
1
  6
CONTINUOUS
 62
     4
  5
2F9
 10
68.45575
 20
239.4975
 30
0.0
 11
70.4545
 21
241.49625
 31
0.0
  0
LINE
  8
1
  6
CONTINUOUS
 62
     4
  5
2FA
 10
67.10375
 20
236.731333
 30
0.0
 11
67.84725
 21
237.474833
 31
0.0
  0
LINE
  8
1
  6
CONTINUOUS
 62
     4
  5
2FB
 10
69.34725
 20
238.974833
 30
0.0
 11
70.85375
 21
240.481333
 31
0.0
  0
LINE
  8
1
  6
CONTINUOUS
 62
     4
  5
2FC
 10
67.10375
 20
235.317083
 30
0.0
 11
67.84725
 21
236.060583
 31
0.0
  0
LINE
  8
1
  6
CONTINUOUS
 62
     4
  5
2FD
 10
70.034167
 20
238.2475
 30
0.0
 11
70.85375
 21
239.067083
 31
0.0
  0
LINE
  8
1
  6
CONTINUOUS
 62
     4
  5
2FE
 10
67.197167
 20
233.99625
 30
0.0
 11
67.84725
 21
234.646333
 31
0.0
  0
LINE
  8
1
  6
CONTINUOUS
 62
     4
  5
2FF
 10
68.611333
 20
233.99625
 30
0.0
 11
69.112583
 21
234.4975
 31
0.0
  0
LINE
  8
1
  6
CONTINUOUS
 62
     4
  5
300
 10
69.34725
 20
234.732167
 30
0.0
 11
70.362583
 21
235.7475
 31
0.0
  0
LINE
  8
1
  6
CONTINUOUS
 62
     4
  5
301
 10
70.025583
 20
233.99625
 30
0.0
 11
70.85375
 21
234.824417
 31
0.0
  0
LINE
  8
1
  6
CONTINUOUS
 62
     4
  5
302
 10
56.10375
 20
236.24625
 30
0.0
 11
56.10375
 21
189.74625
 31
0.0
  0
LINE
  8
1
  6
CONTINUOUS
 62
     4
  5
303
 10
56.10375
 20
189.74625
 30
0.0
 11
56.22875
 21
189.74625
 31
0.0
  0
LINE
  8
1
  6
CONTINUOUS
 62
     4
  5
304
 10
56.22875
 20
189.74625
 30
0.0
 11
56.39975
 21
190.216083
 31
0.0
  0
LINE
  8
1
  6
CONTINUOUS
 62
     4
  5
305
 10
56.39975
 20
190.216083
 30
0.0
 11
56.80775
 21
189.276417
 31
0.0
  0
LINE
  8
1
  6
CONTINUOUS
 62
     4
  5
306
 10
56.80775
 20
189.276417
 30
0.0
 11
56.97875
 21
189.74625
 31
0.0
  0
LINE
  8
1
  6
CONTINUOUS
 62
     4
  5
307
 10
57.10375
 20
189.74625
 30
0.0
 11
57.10375
 21
194.49625
 31
0.0
  0
ARC
  8
1
  6
CONTINUOUS
 62
     4
  5
308
 10
60.10375
 20
194.49625
 30
0.0
 40
3.0
 50
90.0
 51
180.0
210
0.0
220
0.0
230
1.0
  0
LINE
  8
1
  6
CONTINUOUS
 62
     4
  5
309
 10
60.10375
 20
197.49625
 30
0.0
 11
69.35375
 21
197.49625
 31
0.0
  0
LINE
  8
1
  6
CONTINUOUS
 62
     4
  5
30A
 10
69.35375
 20
198.24625
 30
0.0
 11
60.10375
 21
198.24625
 31
0.0
  0
ARC
  8
1
  6
CONTINUOUS
 62
     4
  5
30B
 10
60.10375
 20
201.24625
 30
0.0
 40
3.0
 50
180.0
 51
270.0
210
0.0
220
0.0
230
1.0
  0
LINE
  8
1
  6
CONTINUOUS
 62
     4
  5
30C
 10
57.10375
 20
201.24625
 30
0.0
 11
57.10375
 21
236.24625
 31
0.0
  0
LINE
  8
1
  6
CONTINUOUS
 62
     4
  5
30D
 10
56.10375
 20
235.525667
 30
0.0
 11
57.118167
 21
236.540083
 31
0.0
  0
LINE
  8
1
  6
CONTINUOUS
 62
     4
  5
30E
 10
56.10375
 20
234.111417
 30
0.0
 11
57.10375
 21
235.111417
 31
0.0
  0
LINE
  8
1
  6
CONTINUOUS
 62
     4
  5
30F
 10
56.10375
 20
232.69725
 30
0.0
 11
57.10375
 21
233.69725
 31
0.0
  0
LINE
  8
1
  6
CONTINUOUS
 62
     4
  5
310
 10
56.10375
 20
231.283
 30
0.0
 11
57.10375
 21
232.283
 31
0.0
  0
LINE
  8
1
  6
CONTINUOUS
 62
     4
  5
311
 10
56.10375
 20
229.868833
 30
0.0
 11
57.10375
 21
230.868833
 31
0.0
  0
LINE
  8
1
  6
CONTINUOUS
 62
     4
  5
312
 10
56.10375
 20
228.454583
 30
0.0
 11
57.10375
 21
229.454583
 31
0.0
  0
LINE
  8
1
  6
CONTINUOUS
 62
     4
  5
313
 10
56.10375
 20
227.040417
 30
0.0
 11
57.10375
 21
228.040417
 31
0.0
  0
LINE
  8
1
  6
CONTINUOUS
 62
     4
  5
314
 10
56.10375
 20
225.626167
 30
0.0
 11
57.10375
 21
226.626167
 31
0.0
  0
LINE
  8
1
  6
CONTINUOUS
 62
     4
  5
315
 10
56.10375
 20
224.212
 30
0.0
 11
57.10375
 21
225.212
 31
0.0
  0
LINE
  8
1
  6
CONTINUOUS
 62
     4
  5
316
 10
56.10375
 20
222.79775
 30
0.0
 11
57.10375
 21
223.79775
 31
0.0
  0
LINE
  8
1
  6
CONTINUOUS
 62
     4
  5
317
 10
56.10375
 20
221.3835
 30
0.0
 11
57.10375
 21
222.3835
 31
0.0
  0
LINE
  8
1
  6
CONTINUOUS
 62
     4
  5
318
 10
56.10375
 20
219.969333
 30
0.0
 11
57.10375
 21
220.969333
 31
0.0
  0
LINE
  8
1
  6
CONTINUOUS
 62
     4
  5
319
 10
56.10375
 20
218.555083
 30
0.0
 11
57.10375
 21
219.555083
 31
0.0
  0
LINE
  8
1
  6
CONTINUOUS
 62
     4
  5
31A
 10
56.10375
 20
217.140917
 30
0.0
 11
57.10375
 21
218.140917
 31
0.0
  0
LINE
  8
1
  6
CONTINUOUS
 62
     4
  5
31B
 10
56.10375
 20
215.726667
 30
0.0
 11
57.10375
 21
216.726667
 31
0.0
  0
LINE
  8
1
  6
CONTINUOUS
 62
     4
  5
31C
 10
56.10375
 20
214.3125
 30
0.0
 11
57.10375
 21
215.3125
 31
0.0
  0
LINE
  8
1
  6
CONTINUOUS
 62
     4
  5
31D
 10
56.10375
 20
212.89825
 30
0.0
 11
57.10375
 21
213.89825
 31
0.0
  0
LINE
  8
1
  6
CONTINUOUS
 62
     4
  5
31E
 10
56.10375
 20
211.484
 30
0.0
 11
57.10375
 21
212.484
 31
0.0
  0
LINE
  8
1
  6
CONTINUOUS
 62
     4
  5
31F
 10
56.10375
 20
210.069833
 30
0.0
 11
57.10375
 21
211.069833
 31
0.0
  0
LINE
  8
1
  6
CONTINUOUS
 62
     4
  5
320
 10
56.10375
 20
208.655583
 30
0.0
 11
57.10375
 21
209.655583
 31
0.0
  0
LINE
  8
1
  6
CONTINUOUS
 62
     4
  5
321
 10
56.10375
 20
207.241417
 30
0.0
 11
57.10375
 21
208.241417
 31
0.0
  0
LINE
  8
1
  6
CONTINUOUS
 62
     4
  5
322
 10
56.10375
 20
205.827167
 30
0.0
 11
57.10375
 21
206.827167
 31
0.0
  0
LINE
  8
1
  6
CONTINUOUS
 62
     4
  5
323
 10
56.10375
 20
204.413
 30
0.0
 11
57.10375
 21
205.413
 31
0.0
  0
LINE
  8
1
  6
CONTINUOUS
 62
     4
  5
324
 10
56.10375
 20
202.99875
 30
0.0
 11
57.10375
 21
203.99875
 31
0.0
  0
LINE
  8
1
  6
CONTINUOUS
 62
     4
  5
325
 10
56.10375
 20
201.584583
 30
0.0
 11
57.10375
 21
202.584583
 31
0.0
  0
LINE
  8
1
  6
CONTINUOUS
 62
     4
  5
326
 10
56.10375
 20
200.170333
 30
0.0
 11
57.1075
 21
201.174083
 31
0.0
  0
LINE
  8
1
  6
CONTINUOUS
 62
     4
  5
327
 10
56.10375
 20
198.756083
 30
0.0
 11
57.366667
 21
200.019083
 31
0.0
  0
LINE
  8
1
  6
CONTINUOUS
 62
     4
  5
328
 10
56.10375
 20
197.341917
 30
0.0
 11
57.9375
 21
199.175667
 31
0.0
  0
LINE
  8
1
  6
CONTINUOUS
 62
     4
  5
329
 10
56.10375
 20
195.927667
 30
0.0
 11
58.749833
 21
198.57375
 31
0.0
  0
LINE
  8
1
  6
CONTINUOUS
 62
     4
  5
32A
 10
56.10375
 20
194.5135
 30
0.0
 11
57.421667
 21
195.831417
 31
0.0
  0
LINE
  8
1
  6
CONTINUOUS
 62
     4
  5
32B
 10
58.768583
 20
197.178333
 30
0.0
 11
59.849833
 21
198.259583
 31
0.0
  0
LINE
  8
1
  6
CONTINUOUS
 62
     4
  5
32C
 10
56.10375
 20
193.09925
 30
0.0
 11
57.10375
 21
194.09925
 31
0.0
  0
LINE
  8
1
  6
CONTINUOUS
 62
     4
  5
32D
 10
60.50075
 20
197.49625
 30
0.0
 11
61.25075
 21
198.24625
 31
0.0
  0
LINE
  8
1
  6
CONTINUOUS
 62
     4
  5
32E
 10
56.10375
 20
191.685083
 30
0.0
 11
57.10375
 21
192.685083
 31
0.0
  0
LINE
  8
1
  6
CONTINUOUS
 62
     4
  5
32F
 10
61.914917
 20
197.49625
 30
0.0
 11
62.664917
 21
198.24625
 31
0.0
  0
LINE
  8
1
  6
CONTINUOUS
 62
     4
  5
330
 10
56.10375
 20
190.270833
 30
0.0
 11
57.10375
 21
191.270833
 31
0.0
  0
LINE
  8
1
  6
CONTINUOUS
 62
     4
  5
331
 10
63.329167
 20
197.49625
 30
0.0
 11
64.079167
 21
198.24625
 31
0.0
  0
LINE
  8
1
  6
CONTINUOUS
 62
     4
  5
332
 10
56.72175
 20
189.474583
 30
0.0
 11
56.970417
 21
189.72325
 31
0.0
  0
LINE
  8
1
  6
CONTINUOUS
 62
     4
  5
333
 10
56.993417
 20
189.74625
 30
0.0
 11
57.10375
 21
189.856583
 31
0.0
  0
LINE
  8
1
  6
CONTINUOUS
 62
     4
  5
334
 10
64.743417
 20
197.49625
 30
0.0
 11
65.493417
 21
198.24625
 31
0.0
  0
LINE
  8
1
  6
CONTINUOUS
 62
     4
  5
335
 10
66.157583
 20
197.49625
 30
0.0
 11
66.907583
 21
198.24625
 31
0.0
  0
LINE
  8
1
  6
CONTINUOUS
 62
     4
  5
336
 10
67.571833
 20
197.49625
 30
0.0
 11
68.321833
 21
198.24625
 31
0.0
  0
LINE
  8
1
  6
CONTINUOUS
 62
     4
  5
337
 10
68.986
 20
197.49625
 30
0.0
 11
69.35375
 21
197.864
 31
0.0
  0
POLYLINE
  8
1
  6
CONTINUOUS
 62
     4
  5
338
 66
     1
 10
0.0
 20
0.0
 30
0.0
  0
VERTEX
  8
1
  6
CONTINUOUS
 62
     4
  5
339
 10
56.22875
 20
186.99625
 30
0.0
  0
VERTEX
  8
1
  6
CONTINUOUS
 62
     4
  5
33A
 10
56.39975
 20
187.466083
 30
0.0
  0
VERTEX
  8
1
  6
CONTINUOUS
 62
     4
  5
33B
 10
56.80775
 20
186.526417
 30
0.0
  0
VERTEX
  8
1
  6
CONTINUOUS
 62
     4
  5
33C
 10
56.97875
 20
186.99625
 30
0.0
  0
VERTEX
  8
1
  6
CONTINUOUS
 62
     4
  5
33D
 10
57.10375
 20
186.99625
 30
0.0
  0
VERTEX
  8
1
  6
CONTINUOUS
 62
     4
  5
33E
 10
57.10375
 20
157.24625
 30
0.0
 42
0.414214
  0
VERTEX
  8
1
  6
CONTINUOUS
 62
     4
  5
33F
 10
60.10375
 20
154.24625
 30
0.0
  0
VERTEX
  8
1
  6
CONTINUOUS
 62
     4
  5
340
 10
64.85375
 20
154.24625
 30
0.0
 42
0.414214
  0
VERTEX
  8
1
  6
CONTINUOUS
 62
     4
  5
341
 10
66.85375
 20
156.24625
 30
0.0
  0
VERTEX
  8
1
  6
CONTINUOUS
 62
     4
  5
342
 10
66.85375
 20
159.49625
 30
0.0
  0
VERTEX
  8
1
  6
CONTINUOUS
 62
     4
  5
343
 10
70.85375
 20
159.49625
 30
0.0
  0
VERTEX
  8
1
  6
CONTINUOUS
 62
     4
  5
344
 10
70.85375
 20
157.74625
 30
0.0
  0
VERTEX
  8
1
  6
CONTINUOUS
 62
     4
  5
345
 10
69.10375
 20
157.74625
 30
0.0
  0
VERTEX
  8
1
  6
CONTINUOUS
 62
     4
  5
346
 10
69.10375
 20
158.99625
 30
0.0
  0
VERTEX
  8
1
  6
CONTINUOUS
 62
     4
  5
347
 10
69.10375
 20
153.99625
 30
0.0
  0
VERTEX
  8
1
  6
CONTINUOUS
 62
     4
  5
348
 10
69.10375
 20
158.74625
 30
0.0
  0
VERTEX
  8
1
  6
CONTINUOUS
 62
     4
  5
349
 10
69.10375
 20
158.99625
 30
0.0
  0
VERTEX
  8
1
  6
CONTINUOUS
 62
     4
  5
34A
 10
67.60375
 20
158.99625
 30
0.0
  0
VERTEX
  8
1
  6
CONTINUOUS
 62
     4
  5
34B
 10
67.60375
 20
153.99625
 30
0.0
  0
VERTEX
  8
1
  6
CONTINUOUS
 62
     4
  5
34C
 10
69.10375
 20
153.99625
 30
0.0
  0
VERTEX
  8
1
  6
CONTINUOUS
 62
     4
  5
34D
 10
69.10375
 20
154.24625
 30
0.0
  0
VERTEX
  8
1
  6
CONTINUOUS
 62
     4
  5
34E
 10
69.10375
 20
155.24625
 30
0.0
  0
VERTEX
  8
1
  6
CONTINUOUS
 62
     4
  5
34F
 10
70.85375
 20
155.24625
 30
0.0
  0
VERTEX
  8
1
  6
CONTINUOUS
 62
     4
  5
350
 10
70.85375
 20
153.49625
 30
0.0
  0
VERTEX
  8
1
  6
CONTINUOUS
 62
     4
  5
351
 10
56.10375
 20
153.49625
 30
0.0
  0
VERTEX
  8
1
  6
CONTINUOUS
 62
     4
  5
352
 10
56.10375
 20
186.99625
 30
0.0
  0
VERTEX
  8
1
  6
CONTINUOUS
 62
     4
  5
353
 10
56.22875
 20
186.99625
 30
0.0
  0
SEQEND
  8
1
  6
CONTINUOUS
 62
     4
  5
354
  0
LINE
  8
1
  6
CONTINUOUS
 62
     4
  5
355
 10
56.10375
 20
186.57925
 30
0.0
 11
56.578583
 21
187.054167
 31
0.0
  0
LINE
  8
1
  6
CONTINUOUS
 62
     4
  5
356
 10
56.10375
 20
185.165083
 30
0.0
 11
57.10375
 21
186.165083
 31
0.0
  0
LINE
  8
1
  6
CONTINUOUS
 62
     4
  5
357
 10
56.10375
 20
183.750833
 30
0.0
 11
57.10375
 21
184.750833
 31
0.0
  0
LINE
  8
1
  6
CONTINUOUS
 62
     4
  5
358
 10
56.10375
 20
182.336667
 30
0.0
 11
57.10375
 21
183.336667
 31
0.0
  0
LINE
  8
1
  6
CONTINUOUS
 62
     4
  5
359
 10
56.10375
 20
180.922417
 30
0.0
 11
57.10375
 21
181.922417
 31
0.0
  0
LINE
  8
1
  6
CONTINUOUS
 62
     4
  5
35A
 10
56.10375
 20
179.508167
 30
0.0
 11
57.10375
 21
180.508167
 31
0.0
  0
LINE
  8
1
  6
CONTINUOUS
 62
     4
  5
35B
 10
56.10375
 20
178.094
 30
0.0
 11
57.10375
 21
179.094
 31
0.0
  0
LINE
  8
1
  6
CONTINUOUS
 62
     4
  5
35C
 10
56.10375
 20
176.67975
 30
0.0
 11
57.10375
 21
177.67975
 31
0.0
  0
LINE
  8
1
  6
CONTINUOUS
 62
     4
  5
35D
 10
56.10375
 20
175.265583
 30
0.0
 11
57.10375
 21
176.265583
 31
0.0
  0
LINE
  8
1
  6
CONTINUOUS
 62
     4
  5
35E
 10
56.10375
 20
173.851333
 30
0.0
 11
57.10375
 21
174.851333
 31
0.0
  0
LINE
  8
1
  6
CONTINUOUS
 62
     4
  5
35F
 10
56.10375
 20
172.437167
 30
0.0
 11
57.10375
 21
173.437167
 31
0.0
  0
LINE
  8
1
  6
CONTINUOUS
 62
     4
  5
360
 10
56.10375
 20
171.022917
 30
0.0
 11
57.10375
 21
172.022917
 31
0.0
  0
LINE
  8
1
  6
CONTINUOUS
 62
     4
  5
361
 10
56.10375
 20
169.608667
 30
0.0
 11
57.10375
 21
170.608667
 31
0.0
  0
LINE
  8
1
  6
CONTINUOUS
 62
     4
  5
362
 10
56.10375
 20
168.1945
 30
0.0
 11
57.10375
 21
169.1945
 31
0.0
  0
LINE
  8
1
  6
CONTINUOUS
 62
     4
  5
363
 10
56.10375
 20
166.78025
 30
0.0
 11
57.10375
 21
167.78025
 31
0.0
  0
LINE
  8
1
  6
CONTINUOUS
 62
     4
  5
364
 10
56.10375
 20
165.366083
 30
0.0
 11
57.10375
 21
166.366083
 31
0.0
  0
LINE
  8
1
  6
CONTINUOUS
 62
     4
  5
365
 10
56.10375
 20
163.951833
 30
0.0
 11
57.10375
 21
164.951833
 31
0.0
  0
LINE
  8
1
  6
CONTINUOUS
 62
     4
  5
366
 10
56.10375
 20
162.537667
 30
0.0
 11
57.10375
 21
163.537667
 31
0.0
  0
LINE
  8
1
  6
CONTINUOUS
 62
     4
  5
367
 10
56.10375
 20
161.123417
 30
0.0
 11
57.10375
 21
162.123417
 31
0.0
  0
LINE
  8
1
  6
CONTINUOUS
 62
     4
  5
368
 10
56.10375
 20
159.70925
 30
0.0
 11
57.10375
 21
160.70925
 31
0.0
  0
LINE
  8
1
  6
CONTINUOUS
 62
     4
  5
369
 10
56.10375
 20
158.295
 30
0.0
 11
57.10375
 21
159.295
 31
0.0
  0
LINE
  8
1
  6
CONTINUOUS
 62
     4
  5
36A
 10
56.10375
 20
156.88075
 30
0.0
 11
57.10375
 21
157.88075
 31
0.0
  0
LINE
  8
1
  6
CONTINUOUS
 62
     4
  5
36B
 10
56.10375
 20
155.466583
 30
0.0
 11
57.188417
 21
156.55125
 31
0.0
  0
LINE
  8
1
  6
CONTINUOUS
 62
     4
  5
36C
 10
56.10375
 20
154.052333
 30
0.0
 11
57.620667
 21
155.56925
 31
0.0
  0
LINE
  8
1
  6
CONTINUOUS
 62
     4
  5
36D
 10
56.961833
 20
153.49625
 30
0.0
 11
58.309667
 21
154.844083
 31
0.0
  0
LINE
  8
1
  6
CONTINUOUS
 62
     4
  5
36E
 10
58.376083
 20
153.49625
 30
0.0
 11
59.252583
 21
154.37275
 31
0.0
  0
LINE
  8
1
  6
CONTINUOUS
 62
     4
  5
36F
 10
59.79025
 20
153.49625
 30
0.0
 11
60.54025
 21
154.24625
 31
0.0
  0
LINE
  8
1
  6
CONTINUOUS
 62
     4
  5
370
 10
61.2045
 20
153.49625
 30
0.0
 11
61.9545
 21
154.24625
 31
0.0
  0
LINE
  8
1
  6
CONTINUOUS
 62
     4
  5
371
 10
66.85375
 20
159.1455
 30
0.0
 11
67.2045
 21
159.49625
 31
0.0
  0
LINE
  8
1
  6
CONTINUOUS
 62
     4
  5
372
 10
62.61875
 20
153.49625
 30
0.0
 11
63.36875
 21
154.24625
 31
0.0
  0
LINE
  8
1
  6
CONTINUOUS
 62
     4
  5
373
 10
66.85375
 20
157.73125
 30
0.0
 11
67.60375
 21
158.48125
 31
0.0
  0
LINE
  8
1
  6
CONTINUOUS
 62
     4
  5
374
 10
68.11875
 20
158.99625
 30
0.0
 11
68.61875
 21
159.49625
 31
0.0
  0
LINE
  8
1
  6
CONTINUOUS
 62
     4
  5
375
 10
64.032917
 20
153.49625
 30
0.0
 11
64.782917
 21
154.24625
 31
0.0
  0
LINE
  8
1
  6
CONTINUOUS
 62
     4
  5
376
 10
66.85375
 20
156.317083
 30
0.0
 11
67.60375
 21
157.067083
 31
0.0
  0
LINE
  8
1
  6
CONTINUOUS
 62
     4
  5
377
 10
69.10375
 20
158.567083
 30
0.0
 11
70.032917
 21
159.49625
 31
0.0
  0
LINE
  8
1
  6
CONTINUOUS
 62
     4
  5
378
 10
65.447167
 20
153.49625
 30
0.0
 11
67.60375
 21
155.652833
 31
0.0
  0
LINE
  8
1
  6
CONTINUOUS
 62
     4
  5
379
 10
69.697167
 20
157.74625
 30
0.0
 11
70.85375
 21
158.902833
 31
0.0
  0
LINE
  8
1
  6
CONTINUOUS
 62
     4
  5
37A
 10
66.861333
 20
153.49625
 30
0.0
 11
67.60375
 21
154.238667
 31
0.0
  0
LINE
  8
1
  6
CONTINUOUS
 62
     4
  5
37B
 10
68.275583
 20
153.49625
 30
0.0
 11
68.775583
 21
153.99625
 31
0.0
  0
LINE
  8
1
  6
CONTINUOUS
 62
     4
  5
37C
 10
69.10375
 20
154.324417
 30
0.0
 11
70.025583
 21
155.24625
 31
0.0
  0
LINE
  8
1
  6
CONTINUOUS
 62
     4
  5
37D
 10
69.68975
 20
153.49625
 30
0.0
 11
70.85375
 21
154.66025
 31
0.0
  0
LINE
  8
1
  6
CONTINUOUS
 62
     7
  5
37E
 10
76.84725
 20
232.9975
 30
0.0
 11
82.24175
 21
224.860083
 31
0.0
  0
LINE
  8
1
  6
CONTINUOUS
 62
     7
  5
37F
 10
82.24175
 20
224.860083
 30
0.0
 11
86.189083
 21
224.860083
 31
0.0
  0
INSERT
  8
1
  6
CONTINUOUS
 62
     1
  5
380
  2
LDR
 10
76.84725
 20
232.9975
 30
0.0
 41
239.999998
 42
239.999998
 50
123.541408
210
0.0
220
0.0
230
1.0
  0
TEXT
  8
1
  6
CONTINUOUS
 62
     7
  5
381
 10
109.090083
 20
413.918417
 30
0.0
 40
2.5
  1
B
  7
MONOTXT
210
0.0
220
0.0
230
1.0
  0
TEXT
  8
1
  6
CONTINUOUS
 62
     7
  5
382
 10
81.565167
 20
340.71
 30
0.0
 40
2.5
  1
EXTRUSION "A"
  7
MONOTXT
 11
81.565167
 21
343.21
 31
0.0
210
0.0
220
0.0
230
1.0
 73
     3
  0
TEXT
  8
1
  6
CONTINUOUS
 62
     7
  5
383
 10
81.565167
 20
336.21
 30
0.0
 40
2.5
  1
USE EXTRUSION
  7
MONOTXT
 11
81.565167
 21
338.71
 31
0.0
210
0.0
220
0.0
230
1.0
 73
     3
  0
TEXT
  8
1
  6
CONTINUOUS
 62
     7
  5
384
 10
81.565167
 20
331.71
 30
0.0
 40
2.5
  1
"B" WHEN
  7
MONOTXT
 11
81.565167
 21
334.21
 31
0.0
210
0.0
220
0.0
230
1.0
 73
     3
  0
TEXT
  8
1
  6
CONTINUOUS
 62
     7
  5
385
 10
81.565167
 20
327.21
 30
0.0
 40
2.5
  1
SPECIFIED
  7
MONOTXT
 11
81.565167
 21
329.71
 31
0.0
210
0.0
220
0.0
230
1.0
 73
     3
  0
TEXT
  8
1
  6
CONTINUOUS
 62
     7
  5
386
 10
87.754167
 20
224.113417
 30
0.0
 40
2.5
  1
POST CLIP
  7
MONOTXT
210
0.0
220
0.0
230
1.0
  0
TEXT
  8
1
  6
CONTINUOUS
 62
     7
  5
387
 10
49.316917
 20
250.516583
 30
0.0
 40
2.5
  1
C
  7
MONOTXT
210
0.0
220
0.0
230
1.0
  0
TEXT
  8
1
  6
CONTINUOUS
 62
     7
  5
388
 10
132.05475
 20
250.516583
 30
0.0
 40
2.5
  1
C
  7
MONOTXT
210
0.0
220
0.0
230
1.0
  0
TEXT
  8
1
  6
CONTINUOUS
 62
     7
  5
389
 10
41.499167
 20
366.182
 30
0.0
 40
2.5
  1
12"
  7
MONOTXT
210
0.0
220
0.0
230
1.0
  0
TEXT
  8
1
  6
CONTINUOUS
 62
     7
  5
38A
 10
109.499667
 20
136.202667
 30
0.0
 40
2.5
  1
B
  7
MONOTXT
210
0.0
220
0.0
230
1.0
  0
TEXT
  8
1
  6
CONTINUOUS
 62
     7
  5
38B
 10
83.21175
 20
126.1565
 30
0.0
 40
3.0
  1
SECTION A-A
  7
MONOTXT
210
0.0
220
0.0
230
1.0
  0
LINE
  8
1
  6
CONTINUOUS
 62
     7
  5
38C
 10
82.560333
 20
125.67125
 30
0.0
 11
114.011
 21
125.67125
 31
0.0
  0
LINE
  8
1
  6
CONTINUOUS
 62
    30
  5
38D
 10
188.337583
 20
408.8635
 30
0.0
 11
188.337583
 21
403.129083
 31
0.0
  0
LINE
  8
1
  6
CONTINUOUS
 62
    30
  5
38E
 10
174.337583
 20
409.74625
 30
0.0
 11
174.337583
 21
402.24625
 31
0.0
  0
LINE
  8
1
  6
CONTINUOUS
 62
    30
  5
38F
 10
153.337583
 20
408.49625
 30
0.0
 11
174.337583
 21
408.49625
 31
0.0
  0
LINE
  8
1
  6
CONTINUOUS
 62
    30
  5
390
 10
175.337583
 20
410.74625
 30
0.0
 11
180.337583
 21
410.74625
 31
0.0
  0
LINE
  8
1
  6
CONTINUOUS
 62
    30
  5
391
 10
175.337583
 20
401.24625
 30
0.0
 11
180.337583
 21
401.24625
 31
0.0
  0
LINE
  8
1
  6
CONTINUOUS
 62
    30
  5
392
 10
180.337583
 20
410.74625
 30
0.0
 11
187.461583
 21
409.85575
 31
0.0
  0
LINE
  8
1
  6
CONTINUOUS
 62
    30
  5
393
 10
180.337583
 20
401.24625
 30
0.0
 11
187.461583
 21
402.13675
 31
0.0
  0
ARC
  8
1
  6
CONTINUOUS
 62
    30
  5
394
 10
187.337583
 20
408.863462
 30
0.0
 40
1.0
 50
0.0
 51
82.875325
210
0.0
220
0.0
230
1.0
  0
ARC
  8
1
  6
CONTINUOUS
 62
    30
  5
395
 10
187.337583
 20
403.12906
 30
0.0
 40
1.0
 50
277.123233
 51
0.0
210
0.0
220
0.0
230
1.0
  0
ARC
  8
1
  6
CONTINUOUS
 62
    30
  5
396
 10
175.337583
 20
409.74625
 30
0.0
 40
1.0
 50
90.0
 51
180.0
210
0.0
220
0.0
230
1.0
  0
ARC
  8
1
  6
CONTINUOUS
 62
    30
  5
397
 10
175.337583
 20
402.24625
 30
0.0
 40
1.0
 50
180.0
 51
270.0
210
0.0
220
0.0
230
1.0
  0
LINE
  8
1
  6
CONTINUOUS
 62
    30
  5
398
 10
153.337583
 20
407.24625
 30
0.0
 11
174.337583
 21
407.24625
 31
0.0
  0
LINE
  8
1
  6
CONTINUOUS
 62
    30
  5
399
 10
152.837583
 20
403.49625
 30
0.0
 11
174.337583
 21
403.49625
 31
0.0
  0
LINE
  8
1
  6
CONTINUOUS
 62
    30
  5
39A
 10
153.087583
 20
404.74625
 30
0.0
 11
174.337583
 21
404.74625
 31
0.0
  0
LINE
  8
1
  6
CONTINUOUS
 62
    30
  5
39B
 10
172.837583
 20
406.74625
 30
0.0
 11
174.337583
 21
406.74625
 31
0.0
  0
LINE
  8
1
  6
CONTINUOUS
 62
    30
  5
39C
 10
172.837583
 20
405.24625
 30
0.0
 11
174.337583
 21
405.24625
 31
0.0
  0
LINE
  8
1
  6
CONTINUOUS
 62
    30
  5
39D
 10
172.837583
 20
406.74625
 30
0.0
 11
172.837583
 21
405.24625
 31
0.0
  0
CIRCLE
  8
1
  6
CONTINUOUS
 62
    30
  5
39E
 10
178.337583
 20
405.99625
 30
0.0
 40
2.0
210
0.0
220
0.0
230
1.0
  0
CIRCLE
  8
1
  6
CONTINUOUS
 62
    30
  5
39F
 10
178.337583
 20
405.99625
 30
0.0
 40
0.75
210
0.0
220
0.0
230
1.0
  0
POLYLINE
  8
1
  6
CONTINUOUS
 62
    30
  5
3A0
 66
     1
 10
0.0
 20
0.0
 30
0.0
 70
     1
  0
VERTEX
  8
1
  6
CONTINUOUS
 62
    30
  5
3A1
 10
179.587583
 20
405.274583
 30
0.0
  0
VERTEX
  8
1
  6
CONTINUOUS
 62
    30
  5
3A2
 10
179.587583
 20
406.717917
 30
0.0
  0
VERTEX
  8
1
  6
CONTINUOUS
 62
    30
  5
3A3
 10
178.337583
 20
407.439667
 30
0.0
  0
VERTEX
  8
1
  6
CONTINUOUS
 62
    30
  5
3A4
 10
177.087583
 20
406.717917
 30
0.0
  0
VERTEX
  8
1
  6
CONTINUOUS
 62
    30
  5
3A5
 10
177.087583
 20
405.274583
 30
0.0
  0
VERTEX
  8
1
  6
CONTINUOUS
 62
    30
  5
3A6
 10
178.337583
 20
404.552833
 30
0.0
  0
SEQEND
  8
1
  6
CONTINUOUS
 62
    30
  5
3A7
  0
LINE
  8
1
  6
CONTINUOUS
 62
    30
  5
3A8
 10
217.337583
 20
408.8635
 30
0.0
 11
217.337583
 21
403.129083
 31
0.0
  0
LINE
  8
1
  6
CONTINUOUS
 62
    30
  5
3A9
 10
231.337583
 20
409.74625
 30
0.0
 11
231.337583
 21
402.24625
 31
0.0
  0
LINE
  8
1
  6
CONTINUOUS
 62
    30
  5
3AA
 10
248.337583
 20
408.49625
 30
0.0
 11
231.337583
 21
408.49625
 31
0.0
  0
LINE
  8
1
  6
CONTINUOUS
 62
    30
  5
3AB
 10
230.337583
 20
410.74625
 30
0.0
 11
225.337583
 21
410.74625
 31
0.0
  0
LINE
  8
1
  6
CONTINUOUS
 62
    30
  5
3AC
 10
230.337583
 20
401.24625
 30
0.0
 11
225.337583
 21
401.24625
 31
0.0
  0
LINE
  8
1
  6
CONTINUOUS
 62
    30
  5
3AD
 10
225.337583
 20
410.74625
 30
0.0
 11
218.213583
 21
409.85575
 31
0.0
  0
LINE
  8
1
  6
CONTINUOUS
 62
    30
  5
3AE
 10
225.337583
 20
401.24625
 30
0.0
 11
218.213583
 21
402.13675
 31
0.0
  0
ARC
  8
1
  6
CONTINUOUS
 62
    30
  5
3AF
 10
218.337583
 20
408.863462
 30
0.0
 40
1.0
 50
97.124675
 51
180.0
210
0.0
220
0.0
230
1.0
  0
ARC
  8
1
  6
CONTINUOUS
 62
    30
  5
3B0
 10
218.337583
 20
403.12906
 30
0.0
 40
1.0
 50
180.0
 51
262.876767
210
0.0
220
0.0
230
1.0
  0
ARC
  8
1
  6
CONTINUOUS
 62
    30
  5
3B1
 10
230.337583
 20
409.74625
 30
0.0
 40
1.0
 50
0.0
 51
90.0
210
0.0
220
0.0
230
1.0
  0
ARC
  8
1
  6
CONTINUOUS
 62
    30
  5
3B2
 10
230.337583
 20
402.24625
 30
0.0
 40
1.0
 50
270.0
 51
0.0
210
0.0
220
0.0
230
1.0
  0
LINE
  8
1
  6
CONTINUOUS
 62
    30
  5
3B3
 10
247.837583
 20
407.24625
 30
0.0
 11
231.337583
 21
407.24625
 31
0.0
  0
LINE
  8
1
  6
CONTINUOUS
 62
    30
  5
3B4
 10
247.837583
 20
403.49625
 30
0.0
 11
231.337583
 21
403.49625
 31
0.0
  0
LINE
  8
1
  6
CONTINUOUS
 62
    30
  5
3B5
 10
247.337583
 20
404.74625
 30
0.0
 11
231.337583
 21
404.74625
 31
0.0
  0
LINE
  8
1
  6
CONTINUOUS
 62
    30
  5
3B6
 10
232.837583
 20
406.74625
 30
0.0
 11
231.337583
 21
406.74625
 31
0.0
  0
LINE
  8
1
  6
CONTINUOUS
 62
    30
  5
3B7
 10
232.837583
 20
405.24625
 30
0.0
 11
231.337583
 21
405.24625
 31
0.0
  0
LINE
  8
1
  6
CONTINUOUS
 62
    30
  5
3B8
 10
232.837583
 20
406.74625
 30
0.0
 11
232.837583
 21
405.24625
 31
0.0
  0
CIRCLE
  8
1
  6
CONTINUOUS
 62
    30
  5
3B9
 10
227.337583
 20
405.99625
 30
0.0
 40
2.0
210
0.0
220
0.0
230
1.0
  0
CIRCLE
  8
1
  6
CONTINUOUS
 62
    30
  5
3BA
 10
227.337583
 20
405.99625
 30
0.0
 40
0.75
210
0.0
220
0.0
230
1.0
  0
POLYLINE
  8
1
  6
CONTINUOUS
 62
    30
  5
3BB
 66
     1
 10
0.0
 20
0.0
 30
0.0
 70
     1
  0
VERTEX
  8
1
  6
CONTINUOUS
 62
    30
  5
3BC
 10
226.087583
 20
405.274583
 30
0.0
  0
VERTEX
  8
1
  6
CONTINUOUS
 62
    30
  5
3BD
 10
226.087583
 20
406.717917
 30
0.0
  0
VERTEX
  8
1
  6
CONTINUOUS
 62
    30
  5
3BE
 10
227.337583
 20
407.439667
 30
0.0
  0
VERTEX
  8
1
  6
CONTINUOUS
 62
    30
  5
3BF
 10
228.587583
 20
406.717917
 30
0.0
  0
VERTEX
  8
1
  6
CONTINUOUS
 62
    30
  5
3C0
 10
228.587583
 20
405.274583
 30
0.0
  0
VERTEX
  8
1
  6
CONTINUOUS
 62
    30
  5
3C1
 10
227.337583
 20
404.552833
 30
0.0
  0
SEQEND
  8
1
  6
CONTINUOUS
 62
    30
  5
3C2
  0
LINE
  8
1
  6
CONTINUOUS
 62
    30
  5
3C3
 10
152.337583
 20
242.74625
 30
0.0
 11
180.337583
 21
242.74625
 31
0.0
  0
LINE
  8
1
  6
CONTINUOUS
 62
    30
  5
3C4
 10
188.337583
 20
240.8635
 30
0.0
 11
188.337583
 21
235.129083
 31
0.0
  0
LINE
  8
1
  6
CONTINUOUS
 62
    30
  5
3C5
 10
174.337583
 20
241.74625
 30
0.0
 11
174.337583
 21
234.24625
 31
0.0
  0
LINE
  8
1
  6
CONTINUOUS
 62
    30
  5
3C6
 10
152.587583
 20
240.49625
 30
0.0
 11
174.337583
 21
240.49625
 31
0.0
  0
LINE
  8
1
  6
CONTINUOUS
 62
    30
  5
3C7
 10
175.337583
 20
233.24625
 30
0.0
 11
180.337583
 21
233.24625
 31
0.0
  0
LINE
  8
1
  6
CONTINUOUS
 62
    30
  5
3C8
 10
180.337583
 20
242.74625
 30
0.0
 11
187.461583
 21
241.85575
 31
0.0
  0
LINE
  8
1
  6
CONTINUOUS
 62
    30
  5
3C9
 10
180.337583
 20
233.24625
 30
0.0
 11
187.461583
 21
234.13675
 31
0.0
  0
ARC
  8
1
  6
CONTINUOUS
 62
    30
  5
3CA
 10
187.337583
 20
240.863462
 30
0.0
 40
1.0
 50
0.0
 51
82.875325
210
0.0
220
0.0
230
1.0
  0
ARC
  8
1
  6
CONTINUOUS
 62
    30
  5
3CB
 10
187.337583
 20
235.12906
 30
0.0
 40
1.0
 50
277.123233
 51
0.0
210
0.0
220
0.0
230
1.0
  0
ARC
  8
1
  6
CONTINUOUS
 62
    30
  5
3CC
 10
175.337583
 20
241.74625
 30
0.0
 40
1.0
 50
90.0
 51
180.0
210
0.0
220
0.0
230
1.0
  0
ARC
  8
1
  6
CONTINUOUS
 62
    30
  5
3CD
 10
175.337583
 20
234.24625
 30
0.0
 40
1.0
 50
180.0
 51
270.0
210
0.0
220
0.0
230
1.0
  0
LINE
  8
1
  6
CONTINUOUS
 62
    30
  5
3CE
 10
152.337583
 20
239.24625
 30
0.0
 11
174.337583
 21
239.24625
 31
0.0
  0
LINE
  8
1
  6
CONTINUOUS
 62
    30
  5
3CF
 10
151.087583
 20
235.49625
 30
0.0
 11
174.337583
 21
235.49625
 31
0.0
  0
LINE
  8
1
  6
CONTINUOUS
 62
    30
  5
3D0
 10
151.337583
 20
236.74625
 30
0.0
 11
174.337583
 21
236.74625
 31
0.0
  0
LINE
  8
1
  6
CONTINUOUS
 62
    30
  5
3D1
 10
172.837583
 20
238.74625
 30
0.0
 11
174.337583
 21
238.74625
 31
0.0
  0
LINE
  8
1
  6
CONTINUOUS
 62
    30
  5
3D2
 10
172.837583
 20
237.24625
 30
0.0
 11
174.337583
 21
237.24625
 31
0.0
  0
LINE
  8
1
  6
CONTINUOUS
 62
    30
  5
3D3
 10
172.837583
 20
238.74625
 30
0.0
 11
172.837583
 21
237.24625
 31
0.0
  0
CIRCLE
  8
1
  6
CONTINUOUS
 62
    30
  5
3D4
 10
178.337583
 20
237.99625
 30
0.0
 40
2.0
210
0.0
220
0.0
230
1.0
  0
CIRCLE
  8
1
  6
CONTINUOUS
 62
    30
  5
3D5
 10
178.337583
 20
237.99625
 30
0.0
 40
0.75
210
0.0
220
0.0
230
1.0
  0
POLYLINE
  8
1
  6
CONTINUOUS
 62
    30
  5
3D6
 66
     1
 10
0.0
 20
0.0
 30
0.0
 70
     1
  0
VERTEX
  8
1
  6
CONTINUOUS
 62
    30
  5
3D7
 10
179.587583
 20
237.274583
 30
0.0
  0
VERTEX
  8
1
  6
CONTINUOUS
 62
    30
  5
3D8
 10
179.587583
 20
238.717917
 30
0.0
  0
VERTEX
  8
1
  6
CONTINUOUS
 62
    30
  5
3D9
 10
178.337583
 20
239.439667
 30
0.0
  0
VERTEX
  8
1
  6
CONTINUOUS
 62
    30
  5
3DA
 10
177.087583
 20
238.717917
 30
0.0
  0
VERTEX
  8
1
  6
CONTINUOUS
 62
    30
  5
3DB
 10
177.087583
 20
237.274583
 30
0.0
  0
VERTEX
  8
1
  6
CONTINUOUS
 62
    30
  5
3DC
 10
178.337583
 20
236.552833
 30
0.0
  0
SEQEND
  8
1
  6
CONTINUOUS
 62
    30
  5
3DD
  0
LINE
  8
1
  6
CONTINUOUS
 62
    30
  5
3DE
 10
249.087583
 20
327.24625
 30
0.0
 11
225.337583
 21
327.24625
 31
0.0
  0
LINE
  8
1
  6
CONTINUOUS
 62
    30
  5
3DF
 10
217.337583
 20
325.3635
 30
0.0
 11
217.337583
 21
319.629083
 31
0.0
  0
LINE
  8
1
  6
CONTINUOUS
 62
    30
  5
3E0
 10
231.337583
 20
326.24625
 30
0.0
 11
231.337583
 21
318.74625
 31
0.0
  0
LINE
  8
1
  6
CONTINUOUS
 62
    30
  5
3E1
 10
249.337583
 20
324.99625
 30
0.0
 11
231.337583
 21
324.99625
 31
0.0
  0
LINE
  8
1
  6
CONTINUOUS
 62
    30
  5
3E2
 10
230.337583
 20
317.74625
 30
0.0
 11
225.337583
 21
317.74625
 31
0.0
  0
LINE
  8
1
  6
CONTINUOUS
 62
    30
  5
3E3
 10
225.337583
 20
327.24625
 30
0.0
 11
218.213583
 21
326.35575
 31
0.0
  0
LINE
  8
1
  6
CONTINUOUS
 62
    30
  5
3E4
 10
225.337583
 20
317.74625
 30
0.0
 11
218.213583
 21
318.63675
 31
0.0
  0
ARC
  8
1
  6
CONTINUOUS
 62
    30
  5
3E5
 10
218.337583
 20
325.363462
 30
0.0
 40
1.0
 50
97.124675
 51
180.0
210
0.0
220
0.0
230
1.0
  0
ARC
  8
1
  6
CONTINUOUS
 62
    30
  5
3E6
 10
218.337583
 20
319.62906
 30
0.0
 40
1.0
 50
180.0
 51
262.876767
210
0.0
220
0.0
230
1.0
  0
ARC
  8
1
  6
CONTINUOUS
 62
    30
  5
3E7
 10
230.337583
 20
326.24625
 30
0.0
 40
1.0
 50
0.0
 51
90.0
210
0.0
220
0.0
230
1.0
  0
ARC
  8
1
  6
CONTINUOUS
 62
    30
  5
3E8
 10
230.337583
 20
318.74625
 30
0.0
 40
1.0
 50
270.0
 51
0.0
210
0.0
220
0.0
230
1.0
  0
LINE
  8
1
  6
CONTINUOUS
 62
    30
  5
3E9
 10
249.337583
 20
323.74625
 30
0.0
 11
231.337583
 21
323.74625
 31
0.0
  0
LINE
  8
1
  6
CONTINUOUS
 62
    30
  5
3EA
 10
249.337583
 20
319.99625
 30
0.0
 11
231.337583
 21
319.99625
 31
0.0
  0
LINE
  8
1
  6
CONTINUOUS
 62
    30
  5
3EB
 10
249.337583
 20
321.24625
 30
0.0
 11
231.337583
 21
321.24625
 31
0.0
  0
LINE
  8
1
  6
CONTINUOUS
 62
    30
  5
3EC
 10
232.837583
 20
323.24625
 30
0.0
 11
231.337583
 21
323.24625
 31
0.0
  0
LINE
  8
1
  6
CONTINUOUS
 62
    30
  5
3ED
 10
232.837583
 20
321.74625
 30
0.0
 11
231.337583
 21
321.74625
 31
0.0
  0
LINE
  8
1
  6
CONTINUOUS
 62
    30
  5
3EE
 10
232.837583
 20
323.24625
 30
0.0
 11
232.837583
 21
321.74625
 31
0.0
  0
CIRCLE
  8
1
  6
CONTINUOUS
 62
    30
  5
3EF
 10
227.337583
 20
322.49625
 30
0.0
 40
2.0
210
0.0
220
0.0
230
1.0
  0
CIRCLE
  8
1
  6
CONTINUOUS
 62
    30
  5
3F0
 10
227.337583
 20
322.49625
 30
0.0
 40
0.75
210
0.0
220
0.0
230
1.0
  0
POLYLINE
  8
1
  6
CONTINUOUS
 62
    30
  5
3F1
 66
     1
 10
0.0
 20
0.0
 30
0.0
 70
     1
  0
VERTEX
  8
1
  6
CONTINUOUS
 62
    30
  5
3F2
 10
226.087583
 20
321.774583
 30
0.0
  0
VERTEX
  8
1
  6
CONTINUOUS
 62
    30
  5
3F3
 10
226.087583
 20
323.217917
 30
0.0
  0
VERTEX
  8
1
  6
CONTINUOUS
 62
    30
  5
3F4
 10
227.337583
 20
323.939667
 30
0.0
  0
VERTEX
  8
1
  6
CONTINUOUS
 62
    30
  5
3F5
 10
228.587583
 20
323.217917
 30
0.0
  0
VERTEX
  8
1
  6
CONTINUOUS
 62
    30
  5
3F6
 10
228.587583
 20
321.774583
 30
0.0
  0
VERTEX
  8
1
  6
CONTINUOUS
 62
    30
  5
3F7
 10
227.337583
 20
321.052833
 30
0.0
  0
SEQEND
  8
1
  6
CONTINUOUS
 62
    30
  5
3F8
  0
LINE
  8
1
  6
CONTINUOUS
 62
    30
  5
3F9
 10
253.837583
 20
155.99625
 30
0.0
 11
231.337583
 21
155.99625
 31
0.0
  0
LINE
  8
1
  6
CONTINUOUS
 62
    30
  5
3FA
 10
188.337583
 20
155.629
 30
0.0
 11
188.337583
 21
161.363417
 31
0.0
  0
LINE
  8
1
  6
CONTINUOUS
 62
    30
  5
3FB
 10
174.337583
 20
154.74625
 30
0.0
 11
174.337583
 21
162.24625
 31
0.0
  0
LINE
  8
1
  6
CONTINUOUS
 62
    30
  5
3FC
 10
154.837583
 20
155.99625
 30
0.0
 11
174.337583
 21
155.99625
 31
0.0
  0
LINE
  8
1
  6
CONTINUOUS
 62
    30
  5
3FD
 10
175.337583
 20
153.74625
 30
0.0
 11
180.337583
 21
153.74625
 31
0.0
  0
LINE
  8
1
  6
CONTINUOUS
 62
    30
  5
3FE
 10
175.337583
 20
163.24625
 30
0.0
 11
180.337583
 21
163.24625
 31
0.0
  0
LINE
  8
1
  6
CONTINUOUS
 62
    30
  5
3FF
 10
180.337583
 20
153.74625
 30
0.0
 11
187.461583
 21
154.63675
 31
0.0
  0
LINE
  8
1
  6
CONTINUOUS
 62
    30
  5
400
 10
180.337583
 20
163.24625
 30
0.0
 11
187.461583
 21
162.35575
 31
0.0
  0
ARC
  8
1
  6
CONTINUOUS
 62
    30
  5
401
 10
187.337583
 20
155.629038
 30
0.0
 40
1.0
 50
277.124675
 51
360.0
210
0.0
220
0.0
230
1.0
  0
ARC
  8
1
  6
CONTINUOUS
 62
    30
  5
402
 10
187.337583
 20
161.36344
 30
0.0
 40
1.0
 50
0.0
 51
82.876767
210
0.0
220
0.0
230
1.0
  0
ARC
  8
1
  6
CONTINUOUS
 62
    30
  5
403
 10
175.337583
 20
154.74625
 30
0.0
 40
1.0
 50
180.0
 51
270.0
210
0.0
220
0.0
230
1.0
  0
ARC
  8
1
  6
CONTINUOUS
 62
    30
  5
404
 10
175.337583
 20
162.24625
 30
0.0
 40
1.0
 50
90.0
 51
180.0
210
0.0
220
0.0
230
1.0
  0
LINE
  8
1
  6
CONTINUOUS
 62
    30
  5
405
 10
154.587583
 20
157.24625
 30
0.0
 11
174.337583
 21
157.24625
 31
0.0
  0
LINE
  8
1
  6
CONTINUOUS
 62
    30
  5
406
 10
154.837583
 20
160.99625
 30
0.0
 11
174.337583
 21
160.99625
 31
0.0
  0
LINE
  8
1
  6
CONTINUOUS
 62
    30
  5
407
 10
154.837583
 20
159.74625
 30
0.0
 11
174.337583
 21
159.74625
 31
0.0
  0
LINE
  8
1
  6
CONTINUOUS
 62
    30
  5
408
 10
172.837583
 20
157.74625
 30
0.0
 11
174.337583
 21
157.74625
 31
0.0
  0
LINE
  8
1
  6
CONTINUOUS
 62
    30
  5
409
 10
172.837583
 20
159.24625
 30
0.0
 11
174.337583
 21
159.24625
 31
0.0
  0
LINE
  8
1
  6
CONTINUOUS
 62
    30
  5
40A
 10
172.837583
 20
157.74625
 30
0.0
 11
172.837583
 21
159.24625
 31
0.0
  0
CIRCLE
  8
1
  6
CONTINUOUS
 62
    30
  5
40B
 10
178.337583
 20
158.49625
 30
0.0
 40
2.0
210
0.0
220
0.0
230
1.0
  0
CIRCLE
  8
1
  6
CONTINUOUS
 62
    30
  5
40C
 10
178.337583
 20
158.49625
 30
0.0
 40
0.75
210
0.0
220
0.0
230
1.0
  0
POLYLINE
  8
1
  6
CONTINUOUS
 62
    30
  5
40D
 66
     1
 10
0.0
 20
0.0
 30
0.0
 70
     1
  0
VERTEX
  8
1
  6
CONTINUOUS
 62
    30
  5
40E
 10
179.587583
 20
159.217917
 30
0.0
  0
VERTEX
  8
1
  6
CONTINUOUS
 62
    30
  5
40F
 10
179.587583
 20
157.774583
 30
0.0
  0
VERTEX
  8
1
  6
CONTINUOUS
 62
    30
  5
410
 10
178.337583
 20
157.052833
 30
0.0
  0
VERTEX
  8
1
  6
CONTINUOUS
 62
    30
  5
411
 10
177.087583
 20
157.774583
 30
0.0
  0
VERTEX
  8
1
  6
CONTINUOUS
 62
    30
  5
412
 10
177.087583
 20
159.217917
 30
0.0
  0
VERTEX
  8
1
  6
CONTINUOUS
 62
    30
  5
413
 10
178.337583
 20
159.939667
 30
0.0
  0
SEQEND
  8
1
  6
CONTINUOUS
 62
    30
  5
414
  0
LINE
  8
1
  6
CONTINUOUS
 62
    30
  5
415
 10
217.337583
 20
155.629
 30
0.0
 11
217.337583
 21
161.363417
 31
0.0
  0
LINE
  8
1
  6
CONTINUOUS
 62
    30
  5
416
 10
231.337583
 20
154.74625
 30
0.0
 11
231.337583
 21
162.24625
 31
0.0
  0
LINE
  8
1
  6
CONTINUOUS
 62
    30
  5
417
 10
230.337583
 20
153.74625
 30
0.0
 11
225.337583
 21
153.74625
 31
0.0
  0
LINE
  8
1
  6
CONTINUOUS
 62
    30
  5
418
 10
230.337583
 20
163.24625
 30
0.0
 11
225.337583
 21
163.24625
 31
0.0
  0
LINE
  8
1
  6
CONTINUOUS
 62
    30
  5
419
 10
225.337583
 20
153.74625
 30
0.0
 11
218.213583
 21
154.63675
 31
0.0
  0
LINE
  8
1
  6
CONTINUOUS
 62
    30
  5
41A
 10
225.337583
 20
163.24625
 30
0.0
 11
218.213583
 21
162.35575
 31
0.0
  0
ARC
  8
1
  6
CONTINUOUS
 62
    30
  5
41B
 10
218.337583
 20
155.629038
 30
0.0
 40
1.0
 50
180.0
 51
262.875325
210
0.0
220
0.0
230
1.0
  0
ARC
  8
1
  6
CONTINUOUS
 62
    30
  5
41C
 10
218.337583
 20
161.36344
 30
0.0
 40
1.0
 50
97.123233
 51
180.0
210
0.0
220
0.0
230
1.0
  0
ARC
  8
1
  6
CONTINUOUS
 62
    30
  5
41D
 10
230.337583
 20
154.74625
 30
0.0
 40
1.0
 50
270.0
 51
0.0
210
0.0
220
0.0
230
1.0
  0
ARC
  8
1
  6
CONTINUOUS
 62
    30
  5
41E
 10
230.337583
 20
162.24625
 30
0.0
 40
1.0
 50
0.0
 51
90.0
210
0.0
220
0.0
230
1.0
  0
LINE
  8
1
  6
CONTINUOUS
 62
    30
  5
41F
 10
253.837583
 20
157.24625
 30
0.0
 11
231.337583
 21
157.24625
 31
0.0
  0
LINE
  8
1
  6
CONTINUOUS
 62
    30
  5
420
 10
254.587583
 20
160.99625
 30
0.0
 11
231.337583
 21
160.99625
 31
0.0
  0
LINE
  8
1
  6
CONTINUOUS
 62
    30
  5
421
 10
254.087583
 20
159.74625
 30
0.0
 11
231.337583
 21
159.74625
 31
0.0
  0
LINE
  8
1
  6
CONTINUOUS
 62
    30
  5
422
 10
232.837583
 20
157.74625
 30
0.0
 11
231.337583
 21
157.74625
 31
0.0
  0
LINE
  8
1
  6
CONTINUOUS
 62
    30
  5
423
 10
232.837583
 20
159.24625
 30
0.0
 11
231.337583
 21
159.24625
 31
0.0
  0
LINE
  8
1
  6
CONTINUOUS
 62
    30
  5
424
 10
232.837583
 20
157.74625
 30
0.0
 11
232.837583
 21
159.24625
 31
0.0
  0
CIRCLE
  8
1
  6
CONTINUOUS
 62
    30
  5
425
 10
227.337583
 20
158.49625
 30
0.0
 40
2.0
210
0.0
220
0.0
230
1.0
  0
CIRCLE
  8
1
  6
CONTINUOUS
 62
    30
  5
426
 10
227.337583
 20
158.49625
 30
0.0
 40
0.75
210
0.0
220
0.0
230
1.0
  0
POLYLINE
  8
1
  6
CONTINUOUS
 62
    30
  5
427
 66
     1
 10
0.0
 20
0.0
 30
0.0
 70
     1
  0
VERTEX
  8
1
  6
CONTINUOUS
 62
    30
  5
428
 10
226.087583
 20
159.217917
 30
0.0
  0
VERTEX
  8
1
  6
CONTINUOUS
 62
    30
  5
429
 10
226.087583
 20
157.774583
 30
0.0
  0
VERTEX
  8
1
  6
CONTINUOUS
 62
    30
  5
42A
 10
227.337583
 20
157.052833
 30
0.0
  0
VERTEX
  8
1
  6
CONTINUOUS
 62
    30
  5
42B
 10
228.587583
 20
157.774583
 30
0.0
  0
VERTEX
  8
1
  6
CONTINUOUS
 62
    30
  5
42C
 10
228.587583
 20
159.217917
 30
0.0
  0
VERTEX
  8
1
  6
CONTINUOUS
 62
    30
  5
42D
 10
227.337583
 20
159.939667
 30
0.0
  0
SEQEND
  8
1
  6
CONTINUOUS
 62
    30
  5
42E
  0
LINE
  8
1
  6
CONTINUOUS
 62
    30
  5
42F
 10
180.337583
 20
401.24625
 30
0.0
 11
180.337583
 21
242.74625
 31
0.0
  0
LINE
  8
1
  6
CONTINUOUS
 62
    30
  5
430
 10
225.337583
 20
401.24625
 30
0.0
 11
225.337583
 21
327.24625
 31
0.0
  0
LINE
  8
1
  6
CONTINUOUS
 62
    30
  5
431
 10
180.337583
 20
153.74625
 30
0.0
 11
180.337583
 21
144.49625
 31
0.0
  0
LINE
  8
1
  6
CONTINUOUS
 62
    30
  5
432
 10
225.337583
 20
153.74625
 30
0.0
 11
225.337583
 21
144.49625
 31
0.0
  0
LINE
  8
1
  6
CONTINUOUS
 62
    30
  5
433
 10
180.337583
 20
233.24625
 30
0.0
 11
180.337583
 21
189.24625
 31
0.0
  0
LINE
  8
1
  6
CONTINUOUS
 62
    30
  5
434
 10
180.337583
 20
186.74625
 30
0.0
 11
180.337583
 21
163.24625
 31
0.0
  0
LINE
  8
1
  6
CONTINUOUS
 62
    30
  5
435
 10
225.337583
 20
317.74625
 30
0.0
 11
225.337583
 21
189.24625
 31
0.0
  0
LINE
  8
1
  6
CONTINUOUS
 62
    30
  5
436
 10
225.337583
 20
186.74625
 30
0.0
 11
225.337583
 21
163.24625
 31
0.0
  0
LINE
  8
1
  6
CONTINUOUS
 62
    30
  5
437
 10
249.087583
 20
329.99625
 30
0.0
 11
225.337583
 21
329.99625
 31
0.0
  0
LINE
  8
1
  6
CONTINUOUS
 62
    30
  5
438
 10
249.087583
 20
331.24625
 30
0.0
 11
225.337583
 21
331.24625
 31
0.0
  0
LINE
  8
1
  6
CONTINUOUS
 62
    30
  5
439
 10
180.337583
 20
331.24625
 30
0.0
 11
151.837583
 21
331.24625
 31
0.0
  0
LINE
  8
1
  6
CONTINUOUS
 62
    30
  5
43A
 10
180.337583
 20
329.99625
 30
0.0
 11
151.337583
 21
329.99625
 31
0.0
  0
LINE
  8
1
  6
CONTINUOUS
 62
    30
  5
43B
 10
180.337583
 20
327.24625
 30
0.0
 11
150.837583
 21
327.24625
 31
0.0
  0
LINE
  8
1
  6
CONTINUOUS
 62
    30
  5
43C
 10
180.337583
 20
324.99625
 30
0.0
 11
150.337583
 21
324.99625
 31
0.0
  0
LINE
  8
1
  6
CONTINUOUS
 62
    30
  5
43D
 10
180.337583
 20
323.74625
 30
0.0
 11
149.837583
 21
323.74625
 31
0.0
  0
LINE
  8
1
  6
CONTINUOUS
 62
    30
  5
43E
 10
180.337583
 20
321.24625
 30
0.0
 11
149.337583
 21
321.24625
 31
0.0
  0
LINE
  8
1
  6
CONTINUOUS
 62
    30
  5
43F
 10
180.337583
 20
319.99625
 30
0.0
 11
149.087583
 21
319.99625
 31
0.0
  0
LINE
  8
1
  6
CONTINUOUS
 62
    30
  5
440
 10
152.837583
 20
245.24625
 30
0.0
 11
180.337583
 21
245.24625
 31
0.0
  0
LINE
  8
1
  6
CONTINUOUS
 62
    30
  5
441
 10
153.587583
 20
246.49625
 30
0.0
 11
180.337583
 21
246.49625
 31
0.0
  0
LINE
  8
1
  6
CONTINUOUS
 62
    30
  5
442
 10
225.337583
 20
246.49625
 30
0.0
 11
251.337583
 21
246.49625
 31
0.0
  0
LINE
  8
1
  6
CONTINUOUS
 62
    30
  5
443
 10
225.337583
 20
245.24625
 30
0.0
 11
251.337583
 21
245.24625
 31
0.0
  0
LINE
  8
1
  6
CONTINUOUS
 62
    30
  5
444
 10
225.337583
 20
242.74625
 30
0.0
 11
251.587583
 21
242.74625
 31
0.0
  0
LINE
  8
1
  6
CONTINUOUS
 62
    30
  5
445
 10
225.337583
 20
240.49625
 30
0.0
 11
251.837583
 21
240.49625
 31
0.0
  0
LINE
  8
1
  6
CONTINUOUS
 62
    30
  5
446
 10
225.337583
 20
239.24625
 30
0.0
 11
252.337583
 21
239.24625
 31
0.0
  0
LINE
  8
1
  6
CONTINUOUS
 62
    30
  5
447
 10
225.337583
 20
236.74625
 30
0.0
 11
252.587583
 21
236.74625
 31
0.0
  0
LINE
  8
1
  6
CONTINUOUS
 62
    30
  5
448
 10
225.337583
 20
235.49625
 30
0.0
 11
252.837583
 21
235.49625
 31
0.0
  0
LINE
  8
1
  6
CONTINUOUS
 62
    30
  5
449
 10
151.337583
 20
367.49625
 30
0.0
 11
180.337583
 21
367.49625
 31
0.0
  0
LINE
  8
1
  6
CONTINUOUS
 62
    30
  5
44A
 10
225.337583
 20
367.49625
 30
0.0
 11
247.337583
 21
367.49625
 31
0.0
  0
LINE
  8
1
  6
CONTINUOUS
 62
    30
  5
44B
 10
151.337583
 20
366.74625
 30
0.0
 11
180.337583
 21
366.74625
 31
0.0
  0
LINE
  8
1
  6
CONTINUOUS
 62
    30
  5
44C
 10
225.337583
 20
366.74625
 30
0.0
 11
247.337583
 21
366.74625
 31
0.0
  0
LINE
  8
1
  6
CONTINUOUS
 62
    30
  5
44D
 10
150.337583
 20
283.74625
 30
0.0
 11
180.337583
 21
283.74625
 31
0.0
  0
LINE
  8
1
  6
CONTINUOUS
 62
    30
  5
44E
 10
225.337583
 20
283.74625
 30
0.0
 11
249.337583
 21
283.74625
 31
0.0
  0
LINE
  8
1
  6
CONTINUOUS
 62
    30
  5
44F
 10
150.337583
 20
282.99625
 30
0.0
 11
180.337583
 21
282.99625
 31
0.0
  0
LINE
  8
1
  6
CONTINUOUS
 62
    30
  5
450
 10
225.337583
 20
282.99625
 30
0.0
 11
249.337583
 21
282.99625
 31
0.0
  0
LINE
  8
1
  6
CONTINUOUS
 62
    30
  5
451
 10
153.837583
 20
199.49625
 30
0.0
 11
180.337583
 21
199.49625
 31
0.0
  0
LINE
  8
1
  6
CONTINUOUS
 62
    30
  5
452
 10
225.337583
 20
199.49625
 30
0.0
 11
253.337583
 21
199.49625
 31
0.0
  0
LINE
  8
1
  6
CONTINUOUS
 62
    30
  5
453
 10
153.837583
 20
198.74625
 30
0.0
 11
180.337583
 21
198.74625
 31
0.0
  0
LINE
  8
1
  6
CONTINUOUS
 62
    30
  5
454
 10
225.337583
 20
198.74625
 30
0.0
 11
253.337583
 21
198.74625
 31
0.0
  0
LINE
  8
1
  6
CONTINUOUS
 62
    30
  5
455
 10
201.837583
 20
144.49625
 30
0.0
 11
201.837583
 21
186.74625
 31
0.0
  0
LINE
  8
1
  6
CONTINUOUS
 62
    30
  5
456
 10
203.837583
 20
144.49625
 30
0.0
 11
203.837583
 21
186.74625
 31
0.0
  0
LINE
  8
1
  6
CONTINUOUS
 62
    30
  5
457
 10
202.837583
 20
144.49625
 30
0.0
 11
192.837583
 21
144.49625
 31
0.0
  0
LINE
  8
1
  6
CONTINUOUS
 62
    30
  5
458
 10
190.337583
 20
144.49625
 30
0.0
 11
180.337583
 21
144.49625
 31
0.0
  0
LINE
  8
1
  6
CONTINUOUS
 62
    30
  5
459
 10
225.337583
 20
144.49625
 30
0.0
 11
215.337583
 21
144.49625
 31
0.0
  0
LINE
  8
1
  6
CONTINUOUS
 62
    30
  5
45A
 10
212.837583
 20
144.49625
 30
0.0
 11
202.837583
 21
144.49625
 31
0.0
  0
LINE
  8
1
  6
CONTINUOUS
 62
    30
  5
45B
 10
190.337583
 20
144.49625
 30
0.0
 11
191.192667
 21
146.8455
 31
0.0
  0
LINE
  8
1
  6
CONTINUOUS
 62
    30
  5
45C
 10
191.9825
 20
142.147
 30
0.0
 11
192.837583
 21
144.49625
 31
0.0
  0
LINE
  8
1
  6
CONTINUOUS
 62
    30
  5
45D
 10
214.4825
 20
142.147
 30
0.0
 11
215.337583
 21
144.49625
 31
0.0
  0
LINE
  8
1
  6
CONTINUOUS
 62
    30
  5
45E
 10
212.837583
 20
144.49625
 30
0.0
 11
213.692667
 21
146.8455
 31
0.0
  0
LINE
  8
1
  6
CONTINUOUS
 62
    30
  5
45F
 10
191.192667
 20
146.8455
 30
0.0
 11
191.9825
 21
142.147
 31
0.0
  0
LINE
  8
1
  6
CONTINUOUS
 62
    30
  5
460
 10
213.692667
 20
146.8455
 30
0.0
 11
214.4825
 21
142.147
 31
0.0
  0
LINE
  8
1
  6
CONTINUOUS
 62
    30
  5
461
 10
168.837583
 20
189.24625
 30
0.0
 11
169.521583
 21
191.125667
 31
0.0
  0
LINE
  8
1
  6
CONTINUOUS
 62
    30
  5
462
 10
170.653583
 20
187.366833
 30
0.0
 11
171.337583
 21
189.24625
 31
0.0
  0
LINE
  8
1
  6
CONTINUOUS
 62
    30
  5
463
 10
169.521583
 20
191.125667
 30
0.0
 11
170.653583
 21
187.366833
 31
0.0
  0
LINE
  8
1
  6
CONTINUOUS
 62
    30
  5
464
 10
170.653583
 20
184.866833
 30
0.0
 11
171.337583
 21
186.74625
 31
0.0
  0
LINE
  8
1
  6
CONTINUOUS
 62
    30
  5
465
 10
168.837583
 20
186.74625
 30
0.0
 11
169.521583
 21
188.625667
 31
0.0
  0
LINE
  8
1
  6
CONTINUOUS
 62
    30
  5
466
 10
169.521583
 20
188.625667
 30
0.0
 11
170.653583
 21
184.866833
 31
0.0
  0
LINE
  8
1
  6
CONTINUOUS
 62
    30
  5
467
 10
238.337583
 20
189.24625
 30
0.0
 11
239.021583
 21
191.125667
 31
0.0
  0
LINE
  8
1
  6
CONTINUOUS
 62
    30
  5
468
 10
240.153583
 20
187.366833
 30
0.0
 11
240.837583
 21
189.24625
 31
0.0
  0
LINE
  8
1
  6
CONTINUOUS
 62
    30
  5
469
 10
239.021583
 20
191.125667
 30
0.0
 11
240.153583
 21
187.366833
 31
0.0
  0
LINE
  8
1
  6
CONTINUOUS
 62
    30
  5
46A
 10
238.337583
 20
186.74625
 30
0.0
 11
239.021583
 21
188.625667
 31
0.0
  0
LINE
  8
1
  6
CONTINUOUS
 62
    30
  5
46B
 10
240.153583
 20
184.866833
 30
0.0
 11
240.837583
 21
186.74625
 31
0.0
  0
LINE
  8
1
  6
CONTINUOUS
 62
    30
  5
46C
 10
239.021583
 20
188.625667
 30
0.0
 11
240.153583
 21
184.866833
 31
0.0
  0
LINE
  8
1
  6
CONTINUOUS
 62
    30
  5
46D
 10
171.337583
 20
189.24625
 30
0.0
 11
180.337583
 21
189.24625
 31
0.0
  0
LINE
  8
1
  6
CONTINUOUS
 62
    30
  5
46E
 10
171.337583
 20
186.74625
 30
0.0
 11
180.337583
 21
186.74625
 31
0.0
  0
LINE
  8
1
  6
CONTINUOUS
 62
    30
  5
46F
 10
225.337583
 20
189.24625
 30
0.0
 11
238.337583
 21
189.24625
 31
0.0
  0
LINE
  8
1
  6
CONTINUOUS
 62
    30
  5
470
 10
225.337583
 20
186.74625
 30
0.0
 11
238.337583
 21
186.74625
 31
0.0
  0
LINE
  8
1
  6
CONTINUOUS
 62
    30
  5
471
 10
180.337583
 20
189.24625
 30
0.0
 11
190.337583
 21
189.24625
 31
0.0
  0
LINE
  8
1
  6
CONTINUOUS
 62
    30
  5
472
 10
180.337583
 20
186.74625
 30
0.0
 11
190.337583
 21
186.74625
 31
0.0
  0
LINE
  8
1
  6
CONTINUOUS
 62
    30
  5
473
 10
192.837583
 20
186.74625
 30
0.0
 11
202.837583
 21
186.74625
 31
0.0
  0
LINE
  8
1
  6
CONTINUOUS
 62
    30
  5
474
 10
215.337583
 20
189.24625
 30
0.0
 11
225.337583
 21
189.24625
 31
0.0
  0
LINE
  8
1
  6
CONTINUOUS
 62
    30
  5
475
 10
202.837583
 20
186.74625
 30
0.0
 11
212.837583
 21
186.74625
 31
0.0
  0
LINE
  8
1
  6
CONTINUOUS
 62
    30
  5
476
 10
215.337583
 20
186.74625
 30
0.0
 11
225.337583
 21
186.74625
 31
0.0
  0
LINE
  8
1
  6
CONTINUOUS
 62
    30
  5
477
 10
190.337583
 20
189.24625
 30
0.0
 11
191.021583
 21
191.125667
 31
0.0
  0
LINE
  8
1
  6
CONTINUOUS
 62
    30
  5
478
 10
192.153583
 20
187.366833
 30
0.0
 11
192.837583
 21
189.24625
 31
0.0
  0
LINE
  8
1
  6
CONTINUOUS
 62
    30
  5
479
 10
191.021583
 20
191.125667
 30
0.0
 11
192.153583
 21
187.366833
 31
0.0
  0
LINE
  8
1
  6
CONTINUOUS
 62
    30
  5
47A
 10
190.337583
 20
186.74625
 30
0.0
 11
191.021583
 21
188.625667
 31
0.0
  0
LINE
  8
1
  6
CONTINUOUS
 62
    30
  5
47B
 10
192.153583
 20
184.866833
 30
0.0
 11
192.837583
 21
186.74625
 31
0.0
  0
LINE
  8
1
  6
CONTINUOUS
 62
    30
  5
47C
 10
191.021583
 20
188.625667
 30
0.0
 11
192.153583
 21
184.866833
 31
0.0
  0
LINE
  8
1
  6
CONTINUOUS
 62
    30
  5
47D
 10
214.653583
 20
187.366833
 30
0.0
 11
215.337583
 21
189.24625
 31
0.0
  0
LINE
  8
1
  6
CONTINUOUS
 62
    30
  5
47E
 10
212.837583
 20
189.24625
 30
0.0
 11
213.521583
 21
191.125667
 31
0.0
  0
LINE
  8
1
  6
CONTINUOUS
 62
    30
  5
47F
 10
213.521583
 20
191.125667
 30
0.0
 11
214.653583
 21
187.366833
 31
0.0
  0
LINE
  8
1
  6
CONTINUOUS
 62
    30
  5
480
 10
212.837583
 20
186.74625
 30
0.0
 11
213.521583
 21
188.625667
 31
0.0
  0
LINE
  8
1
  6
CONTINUOUS
 62
    30
  5
481
 10
214.653583
 20
184.866833
 30
0.0
 11
215.337583
 21
186.74625
 31
0.0
  0
LINE
  8
1
  6
CONTINUOUS
 62
    30
  5
482
 10
213.521583
 20
188.625667
 30
0.0
 11
214.653583
 21
184.866833
 31
0.0
  0
LINE
  8
1
  6
CONTINUOUS
 62
    30
  5
483
 10
168.837583
 20
189.24625
 30
0.0
 11
154.837583
 21
189.24625
 31
0.0
  0
LINE
  8
1
  6
CONTINUOUS
 62
    30
  5
484
 10
168.837583
 20
186.74625
 30
0.0
 11
154.837583
 21
186.74625
 31
0.0
  0
LINE
  8
1
  6
CONTINUOUS
 62
    30
  5
485
 10
240.837583
 20
189.24625
 30
0.0
 11
255.837583
 21
189.24625
 31
0.0
  0
LINE
  8
1
  6
CONTINUOUS
 62
    30
  5
486
 10
240.837583
 20
186.74625
 30
0.0
 11
255.837583
 21
186.74625
 31
0.0
  0
LINE
  8
1
  6
CONTINUOUS
 62
    30
  5
487
 10
188.337583
 20
408.49625
 30
0.0
 11
201.837583
 21
408.49625
 31
0.0
  0
LINE
  8
1
  6
CONTINUOUS
 62
    30
  5
488
 10
203.837583
 20
408.49625
 30
0.0
 11
217.337583
 21
408.49625
 31
0.0
  0
LINE
  8
1
  6
CONTINUOUS
 62
    30
  5
489
 10
192.837583
 20
189.24625
 30
0.0
 11
201.837583
 21
189.24625
 31
0.0
  0
LINE
  8
1
  6
CONTINUOUS
 62
    30
  5
48A
 10
203.837583
 20
189.24625
 30
0.0
 11
212.837583
 21
189.24625
 31
0.0
  0
POLYLINE
  8
1
  6
CONTINUOUS
 62
    30
  5
48B
 66
     1
 10
0.0
 20
0.0
 30
0.0
 70
     1
  0
VERTEX
  8
1
  6
CONTINUOUS
 62
    30
  5
48C
 10
203.837583
 20
408.49625
 30
0.0
  0
VERTEX
  8
1
  6
CONTINUOUS
 62
    30
  5
48D
 10
203.837583
 20
189.24625
 30
0.0
  0
VERTEX
  8
1
  6
CONTINUOUS
 62
    30
  5
48E
 10
201.837583
 20
189.24625
 30
0.0
  0
VERTEX
  8
1
  6
CONTINUOUS
 62
    30
  5
48F
 10
201.837583
 20
408.49625
 30
0.0
  0
VERTEX
  8
1
  6
CONTINUOUS
 62
    30
  5
490
 10
203.837583
 20
408.49625
 30
0.0
  0
SEQEND
  8
1
  6
CONTINUOUS
 62
    30
  5
491
  0
LINE
  8
1
  6
CONTINUOUS
 62
    30
  5
492
 10
201.837583
 20
408.212
 30
0.0
 11
202.121833
 21
408.49625
 31
0.0
  0
LINE
  8
1
  6
CONTINUOUS
 62
    30
  5
493
 10
201.837583
 20
405.383583
 30
0.0
 11
203.837583
 21
407.383583
 31
0.0
  0
LINE
  8
1
  6
CONTINUOUS
 62
    30
  5
494
 10
201.837583
 20
402.555167
 30
0.0
 11
203.837583
 21
404.555167
 31
0.0
  0
LINE
  8
1
  6
CONTINUOUS
 62
    30
  5
495
 10
201.837583
 20
399.72675
 30
0.0
 11
203.837583
 21
401.72675
 31
0.0
  0
LINE
  8
1
  6
CONTINUOUS
 62
    30
  5
496
 10
201.837583
 20
396.898333
 30
0.0
 11
203.837583
 21
398.898333
 31
0.0
  0
LINE
  8
1
  6
CONTINUOUS
 62
    30
  5
497
 10
201.837583
 20
394.069917
 30
0.0
 11
203.837583
 21
396.069917
 31
0.0
  0
LINE
  8
1
  6
CONTINUOUS
 62
    30
  5
498
 10
201.837583
 20
391.2415
 30
0.0
 11
203.837583
 21
393.2415
 31
0.0
  0
LINE
  8
1
  6
CONTINUOUS
 62
    30
  5
499
 10
201.837583
 20
388.413
 30
0.0
 11
203.837583
 21
390.413
 31
0.0
  0
LINE
  8
1
  6
CONTINUOUS
 62
    30
  5
49A
 10
201.837583
 20
385.584583
 30
0.0
 11
203.837583
 21
387.584583
 31
0.0
  0
LINE
  8
1
  6
CONTINUOUS
 62
    30
  5
49B
 10
201.837583
 20
382.756167
 30
0.0
 11
203.837583
 21
384.756167
 31
0.0
  0
LINE
  8
1
  6
CONTINUOUS
 62
    30
  5
49C
 10
201.837583
 20
379.92775
 30
0.0
 11
203.837583
 21
381.92775
 31
0.0
  0
LINE
  8
1
  6
CONTINUOUS
 62
    30
  5
49D
 10
201.837583
 20
377.099333
 30
0.0
 11
203.837583
 21
379.099333
 31
0.0
  0
LINE
  8
1
  6
CONTINUOUS
 62
    30
  5
49E
 10
201.837583
 20
374.270917
 30
0.0
 11
203.837583
 21
376.270917
 31
0.0
  0
LINE
  8
1
  6
CONTINUOUS
 62
    30
  5
49F
 10
201.837583
 20
371.4425
 30
0.0
 11
203.837583
 21
373.4425
 31
0.0
  0
LINE
  8
1
  6
CONTINUOUS
 62
    30
  5
4A0
 10
201.837583
 20
368.614083
 30
0.0
 11
203.837583
 21
370.614083
 31
0.0
  0
LINE
  8
1
  6
CONTINUOUS
 62
    30
  5
4A1
 10
201.837583
 20
365.785583
 30
0.0
 11
203.837583
 21
367.785583
 31
0.0
  0
LINE
  8
1
  6
CONTINUOUS
 62
    30
  5
4A2
 10
201.837583
 20
362.957167
 30
0.0
 11
203.837583
 21
364.957167
 31
0.0
  0
LINE
  8
1
  6
CONTINUOUS
 62
    30
  5
4A3
 10
201.837583
 20
360.12875
 30
0.0
 11
203.837583
 21
362.12875
 31
0.0
  0
LINE
  8
1
  6
CONTINUOUS
 62
    30
  5
4A4
 10
201.837583
 20
357.300333
 30
0.0
 11
203.837583
 21
359.300333
 31
0.0
  0
LINE
  8
1
  6
CONTINUOUS
 62
    30
  5
4A5
 10
201.837583
 20
354.471917
 30
0.0
 11
203.837583
 21
356.471917
 31
0.0
  0
LINE
  8
1
  6
CONTINUOUS
 62
    30
  5
4A6
 10
201.837583
 20
351.6435
 30
0.0
 11
203.837583
 21
353.6435
 31
0.0
  0
LINE
  8
1
  6
CONTINUOUS
 62
    30
  5
4A7
 10
201.837583
 20
348.815083
 30
0.0
 11
203.837583
 21
350.815083
 31
0.0
  0
LINE
  8
1
  6
CONTINUOUS
 62
    30
  5
4A8
 10
201.837583
 20
345.986667
 30
0.0
 11
203.837583
 21
347.986667
 31
0.0
  0
LINE
  8
1
  6
CONTINUOUS
 62
    30
  5
4A9
 10
201.837583
 20
343.158167
 30
0.0
 11
203.837583
 21
345.158167
 31
0.0
  0
LINE
  8
1
  6
CONTINUOUS
 62
    30
  5
4AA
 10
201.837583
 20
340.32975
 30
0.0
 11
203.837583
 21
342.32975
 31
0.0
  0
LINE
  8
1
  6
CONTINUOUS
 62
    30
  5
4AB
 10
201.837583
 20
337.501333
 30
0.0
 11
203.837583
 21
339.501333
 31
0.0
  0
LINE
  8
1
  6
CONTINUOUS
 62
    30
  5
4AC
 10
201.837583
 20
334.672917
 30
0.0
 11
203.837583
 21
336.672917
 31
0.0
  0
LINE
  8
1
  6
CONTINUOUS
 62
    30
  5
4AD
 10
201.837583
 20
331.8445
 30
0.0
 11
203.837583
 21
333.8445
 31
0.0
  0
LINE
  8
1
  6
CONTINUOUS
 62
    30
  5
4AE
 10
201.837583
 20
329.016083
 30
0.0
 11
203.837583
 21
331.016083
 31
0.0
  0
LINE
  8
1
  6
CONTINUOUS
 62
    30
  5
4AF
 10
201.837583
 20
326.187667
 30
0.0
 11
203.837583
 21
328.187667
 31
0.0
  0
LINE
  8
1
  6
CONTINUOUS
 62
    30
  5
4B0
 10
201.837583
 20
323.35925
 30
0.0
 11
203.837583
 21
325.35925
 31
0.0
  0
LINE
  8
1
  6
CONTINUOUS
 62
    30
  5
4B1
 10
201.837583
 20
320.53075
 30
0.0
 11
203.837583
 21
322.53075
 31
0.0
  0
LINE
  8
1
  6
CONTINUOUS
 62
    30
  5
4B2
 10
201.837583
 20
317.702333
 30
0.0
 11
203.837583
 21
319.702333
 31
0.0
  0
LINE
  8
1
  6
CONTINUOUS
 62
    30
  5
4B3
 10
201.837583
 20
314.873917
 30
0.0
 11
203.837583
 21
316.873917
 31
0.0
  0
LINE
  8
1
  6
CONTINUOUS
 62
    30
  5
4B4
 10
201.837583
 20
312.0455
 30
0.0
 11
203.837583
 21
314.0455
 31
0.0
  0
LINE
  8
1
  6
CONTINUOUS
 62
    30
  5
4B5
 10
201.837583
 20
309.217083
 30
0.0
 11
203.837583
 21
311.217083
 31
0.0
  0
LINE
  8
1
  6
CONTINUOUS
 62
    30
  5
4B6
 10
201.837583
 20
306.388667
 30
0.0
 11
203.837583
 21
308.388667
 31
0.0
  0
LINE
  8
1
  6
CONTINUOUS
 62
    30
  5
4B7
 10
201.837583
 20
303.56025
 30
0.0
 11
203.837583
 21
305.56025
 31
0.0
  0
LINE
  8
1
  6
CONTINUOUS
 62
    30
  5
4B8
 10
201.837583
 20
300.731833
 30
0.0
 11
203.837583
 21
302.731833
 31
0.0
  0
LINE
  8
1
  6
CONTINUOUS
 62
    30
  5
4B9
 10
201.837583
 20
297.903333
 30
0.0
 11
203.837583
 21
299.903333
 31
0.0
  0
LINE
  8
1
  6
CONTINUOUS
 62
    30
  5
4BA
 10
201.837583
 20
295.074917
 30
0.0
 11
203.837583
 21
297.074917
 31
0.0
  0
LINE
  8
1
  6
CONTINUOUS
 62
    30
  5
4BB
 10
201.837583
 20
292.2465
 30
0.0
 11
203.837583
 21
294.2465
 31
0.0
  0
LINE
  8
1
  6
CONTINUOUS
 62
    30
  5
4BC
 10
201.837583
 20
289.418083
 30
0.0
 11
203.837583
 21
291.418083
 31
0.0
  0
LINE
  8
1
  6
CONTINUOUS
 62
    30
  5
4BD
 10
201.837583
 20
286.589667
 30
0.0
 11
203.837583
 21
288.589667
 31
0.0
  0
LINE
  8
1
  6
CONTINUOUS
 62
    30
  5
4BE
 10
201.837583
 20
283.76125
 30
0.0
 11
203.837583
 21
285.76125
 31
0.0
  0
LINE
  8
1
  6
CONTINUOUS
 62
    30
  5
4BF
 10
201.837583
 20
280.932833
 30
0.0
 11
203.837583
 21
282.932833
 31
0.0
  0
LINE
  8
1
  6
CONTINUOUS
 62
    30
  5
4C0
 10
201.837583
 20
278.104417
 30
0.0
 11
203.837583
 21
280.104417
 31
0.0
  0
LINE
  8
1
  6
CONTINUOUS
 62
    30
  5
4C1
 10
201.837583
 20
275.275917
 30
0.0
 11
203.837583
 21
277.275917
 31
0.0
  0
LINE
  8
1
  6
CONTINUOUS
 62
    30
  5
4C2
 10
201.837583
 20
272.4475
 30
0.0
 11
203.837583
 21
274.4475
 31
0.0
  0
LINE
  8
1
  6
CONTINUOUS
 62
    30
  5
4C3
 10
201.837583
 20
269.619083
 30
0.0
 11
203.837583
 21
271.619083
 31
0.0
  0
LINE
  8
1
  6
CONTINUOUS
 62
    30
  5
4C4
 10
201.837583
 20
266.790667
 30
0.0
 11
203.837583
 21
268.790667
 31
0.0
  0
LINE
  8
1
  6
CONTINUOUS
 62
    30
  5
4C5
 10
201.837583
 20
263.96225
 30
0.0
 11
203.837583
 21
265.96225
 31
0.0
  0
LINE
  8
1
  6
CONTINUOUS
 62
    30
  5
4C6
 10
201.837583
 20
261.133833
 30
0.0
 11
203.837583
 21
263.133833
 31
0.0
  0
LINE
  8
1
  6
CONTINUOUS
 62
    30
  5
4C7
 10
201.837583
 20
258.305417
 30
0.0
 11
203.837583
 21
260.305417
 31
0.0
  0
LINE
  8
1
  6
CONTINUOUS
 62
    30
  5
4C8
 10
201.837583
 20
255.477
 30
0.0
 11
203.837583
 21
257.477
 31
0.0
  0
LINE
  8
1
  6
CONTINUOUS
 62
    30
  5
4C9
 10
201.837583
 20
252.6485
 30
0.0
 11
203.837583
 21
254.6485
 31
0.0
  0
LINE
  8
1
  6
CONTINUOUS
 62
    30
  5
4CA
 10
201.837583
 20
249.820083
 30
0.0
 11
203.837583
 21
251.820083
 31
0.0
  0
LINE
  8
1
  6
CONTINUOUS
 62
    30
  5
4CB
 10
201.837583
 20
246.991667
 30
0.0
 11
203.837583
 21
248.991667
 31
0.0
  0
LINE
  8
1
  6
CONTINUOUS
 62
    30
  5
4CC
 10
201.837583
 20
244.16325
 30
0.0
 11
203.837583
 21
246.16325
 31
0.0
  0
LINE
  8
1
  6
CONTINUOUS
 62
    30
  5
4CD
 10
201.837583
 20
241.334833
 30
0.0
 11
203.837583
 21
243.334833
 31
0.0
  0
LINE
  8
1
  6
CONTINUOUS
 62
    30
  5
4CE
 10
201.837583
 20
238.506417
 30
0.0
 11
203.837583
 21
240.506417
 31
0.0
  0
LINE
  8
1
  6
CONTINUOUS
 62
    30
  5
4CF
 10
201.837583
 20
235.678
 30
0.0
 11
203.837583
 21
237.678
 31
0.0
  0
LINE
  8
1
  6
CONTINUOUS
 62
    30
  5
4D0
 10
201.837583
 20
232.849583
 30
0.0
 11
203.837583
 21
234.849583
 31
0.0
  0
LINE
  8
1
  6
CONTINUOUS
 62
    30
  5
4D1
 10
201.837583
 20
230.021083
 30
0.0
 11
203.837583
 21
232.021083
 31
0.0
  0
LINE
  8
1
  6
CONTINUOUS
 62
    30
  5
4D2
 10
201.837583
 20
227.192667
 30
0.0
 11
203.837583
 21
229.192667
 31
0.0
  0
LINE
  8
1
  6
CONTINUOUS
 62
    30
  5
4D3
 10
201.837583
 20
224.36425
 30
0.0
 11
203.837583
 21
226.36425
 31
0.0
  0
LINE
  8
1
  6
CONTINUOUS
 62
    30
  5
4D4
 10
201.837583
 20
221.535833
 30
0.0
 11
203.837583
 21
223.535833
 31
0.0
  0
LINE
  8
1
  6
CONTINUOUS
 62
    30
  5
4D5
 10
201.837583
 20
218.707417
 30
0.0
 11
203.837583
 21
220.707417
 31
0.0
  0
LINE
  8
1
  6
CONTINUOUS
 62
    30
  5
4D6
 10
201.837583
 20
215.879
 30
0.0
 11
203.837583
 21
217.879
 31
0.0
  0
LINE
  8
1
  6
CONTINUOUS
 62
    30
  5
4D7
 10
201.837583
 20
213.050583
 30
0.0
 11
203.837583
 21
215.050583
 31
0.0
  0
LINE
  8
1
  6
CONTINUOUS
 62
    30
  5
4D8
 10
201.837583
 20
210.222167
 30
0.0
 11
203.837583
 21
212.222167
 31
0.0
  0
LINE
  8
1
  6
CONTINUOUS
 62
    30
  5
4D9
 10
201.837583
 20
207.393667
 30
0.0
 11
203.837583
 21
209.393667
 31
0.0
  0
LINE
  8
1
  6
CONTINUOUS
 62
    30
  5
4DA
 10
201.837583
 20
204.56525
 30
0.0
 11
203.837583
 21
206.56525
 31
0.0
  0
LINE
  8
1
  6
CONTINUOUS
 62
    30
  5
4DB
 10
201.837583
 20
201.736833
 30
0.0
 11
203.837583
 21
203.736833
 31
0.0
  0
LINE
  8
1
  6
CONTINUOUS
 62
    30
  5
4DC
 10
201.837583
 20
198.908417
 30
0.0
 11
203.837583
 21
200.908417
 31
0.0
  0
LINE
  8
1
  6
CONTINUOUS
 62
    30
  5
4DD
 10
201.837583
 20
196.08
 30
0.0
 11
203.837583
 21
198.08
 31
0.0
  0
LINE
  8
1
  6
CONTINUOUS
 62
    30
  5
4DE
 10
201.837583
 20
193.251583
 30
0.0
 11
203.837583
 21
195.251583
 31
0.0
  0
LINE
  8
1
  6
CONTINUOUS
 62
    30
  5
4DF
 10
201.837583
 20
190.423167
 30
0.0
 11
203.837583
 21
192.423167
 31
0.0
  0
LINE
  8
1
  6
CONTINUOUS
 62
    30
  5
4E0
 10
203.489167
 20
189.24625
 30
0.0
 11
203.837583
 21
189.594667
 31
0.0
  0
LINE
  8
1
  6
CONTINUOUS
 62
     7
  5
4E1
 10
188.619167
 20
125.744
 30
0.0
 11
220.069833
 21
125.744
 31
0.0
  0
TEXT
  8
1
  6
CONTINUOUS
 62
     7
  5
4E2
 10
189.270583
 20
126.22925
 30
0.0
 40
3.0
  1
SECTION B-B
  7
MONOTXT
210
0.0
220
0.0
230
1.0
  0
LINE
  8
1
  6
CONTINUOUS
 62
     6
  5
4E3
 10
305.337583
 20
408.49625
 30
0.0
 11
305.337583
 21
144.49625
 31
0.0
  0
LINE
  8
1
  6
CONTINUOUS
 62
     6
  5
4E4
 10
306.337583
 20
408.49625
 30
0.0
 11
306.337583
 21
144.49625
 31
0.0
  0
LINE
  8
1
  6
CONTINUOUS
 62
     6
  5
4E5
 10
316.337583
 20
408.49625
 30
0.0
 11
316.337583
 21
144.49625
 31
0.0
  0
LINE
  8
1
  6
DASHED
 62
     6
  5
4E6
 10
317.087583
 20
408.49625
 30
0.0
 11
317.087583
 21
144.49625
 31
0.0
  0
LINE
  8
1
  6
DASHED
 62
     6
  5
4E7
 10
318.587583
 20
408.49625
 30
0.0
 11
318.587583
 21
144.49625
 31
0.0
  0
LINE
  8
1
  6
CONTINUOUS
 62
     6
  5
4E8
 10
305.337583
 20
144.49625
 30
0.0
 11
319.337583
 21
144.49625
 31
0.0
  0
LINE
  8
1
  6
CONTINUOUS
 62
     6
  5
4E9
 10
305.337583
 20
408.49625
 30
0.0
 11
311.337583
 21
408.49625
 31
0.0
  0
LINE
  8
1
  6
CONTINUOUS
 62
     6
  5
4EA
 10
313.337583
 20
408.49625
 30
0.0
 11
319.337583
 21
408.49625
 31
0.0
  0
LINE
  8
1
  6
CONTINUOUS
 62
     6
  5
4EB
 10
311.337583
 20
408.49625
 30
0.0
 11
312.021583
 21
410.375667
 31
0.0
  0
LINE
  8
1
  6
CONTINUOUS
 62
     6
  5
4EC
 10
312.653583
 20
406.616833
 30
0.0
 11
313.337583
 21
408.49625
 31
0.0
  0
LINE
  8
1
  6
CONTINUOUS
 62
     6
  5
4ED
 10
312.021583
 20
410.375667
 30
0.0
 11
312.653583
 21
406.616833
 31
0.0
  0
LINE
  8
1
  6
CONTINUOUS
 62
     7
  5
4EE
 10
311.337583
 20
277.99625
 30
0.0
 11
311.337583
 21
274.99625
 31
0.0
  0
LINE
  8
1
  6
CONTINUOUS
 62
     6
  5
4EF
 10
309.837583
 20
277.99625
 30
0.0
 11
309.837583
 21
274.99625
 31
0.0
  0
LINE
  8
1
  6
CONTINUOUS
 62
     6
  5
4F0
 10
312.837583
 20
277.99625
 30
0.0
 11
312.837583
 21
274.99625
 31
0.0
  0
ARC
  8
1
  6
CONTINUOUS
 62
     6
  5
4F1
 10
311.337583
 20
277.99625
 30
0.0
 40
1.5
 50
0.0
 51
180.0
210
0.0
220
0.0
230
1.0
  0
ARC
  8
1
  6
CONTINUOUS
 62
     6
  5
4F2
 10
311.337583
 20
274.99625
 30
0.0
 40
1.5
 50
180.0
 51
360.0
210
0.0
220
0.0
230
1.0
  0
LINE
  8
1
  6
CONTINUOUS
 62
     7
  5
4F3
 10
311.337583
 20
278.99625
 30
0.0
 11
311.337583
 21
280.99625
 31
0.0
  0
LINE
  8
1
  6
CONTINUOUS
 62
     7
  5
4F4
 10
311.337583
 20
273.99625
 30
0.0
 11
311.337583
 21
271.99625
 31
0.0
  0
LINE
  8
1
  6
CONTINUOUS
 62
     7
  5
4F5
 10
311.337583
 20
277.99625
 30
0.0
 11
311.587583
 21
277.99625
 31
0.0
  0
LINE
  8
1
  6
CONTINUOUS
 62
     7
  5
4F6
 10
311.087583
 20
277.99625
 30
0.0
 11
311.337583
 21
277.99625
 31
0.0
  0
LINE
  8
1
  6
CONTINUOUS
 62
     7
  5
4F7
 10
311.087583
 20
274.99625
 30
0.0
 11
311.337583
 21
274.99625
 31
0.0
  0
LINE
  8
1
  6
CONTINUOUS
 62
     7
  5
4F8
 10
311.337583
 20
274.99625
 30
0.0
 11
311.587583
 21
274.99625
 31
0.0
  0
LINE
  8
1
  6
CONTINUOUS
 62
     7
  5
4F9
 10
312.337583
 20
277.99625
 30
0.0
 11
314.337583
 21
277.99625
 31
0.0
  0
LINE
  8
1
  6
CONTINUOUS
 62
     7
  5
4FA
 10
312.337583
 20
274.99625
 30
0.0
 11
314.337583
 21
274.99625
 31
0.0
  0
LINE
  8
1
  6
CONTINUOUS
 62
     7
  5
4FB
 10
310.337583
 20
277.99625
 30
0.0
 11
308.337583
 21
277.99625
 31
0.0
  0
LINE
  8
1
  6
CONTINUOUS
 62
     7
  5
4FC
 10
310.337583
 20
274.99625
 30
0.0
 11
308.337583
 21
274.99625
 31
0.0
  0
LINE
  8
1
  6
CONTINUOUS
 62
     7
  5
4FD
 10
311.837583
 20
276.49625
 30
0.0
 11
297.337583
 21
276.49625
 31
0.0
  0
ARC
  8
1
  6
CONTINUOUS
 62
     6
  5
4FE
 10
311.337583
 20
361.99625
 30
0.0
 40
1.5
 50
0.0
 51
180.0
210
0.0
220
0.0
230
1.0
  0
ARC
  8
1
  6
CONTINUOUS
 62
     6
  5
4FF
 10
311.337583
 20
358.99625
 30
0.0
 40
1.5
 50
180.0
 51
360.0
210
0.0
220
0.0
230
1.0
  0
POLYLINE
  8
1
  6
CONTINUOUS
 62
     6
  5
500
 66
     1
 10
0.0
 20
0.0
 30
0.0
 70
     1
  0
VERTEX
  8
1
  6
CONTINUOUS
 62
     6
  5
501
 10
313.337583
 20
359.341583
 30
0.0
  0
VERTEX
  8
1
  6
CONTINUOUS
 62
     6
  5
502
 10
313.337583
 20
361.650917
 30
0.0
  0
VERTEX
  8
1
  6
CONTINUOUS
 62
     6
  5
503
 10
311.337583
 20
362.805667
 30
0.0
  0
VERTEX
  8
1
  6
CONTINUOUS
 62
     6
  5
504
 10
309.337583
 20
361.650917
 30
0.0
  0
VERTEX
  8
1
  6
CONTINUOUS
 62
     6
  5
505
 10
309.337583
 20
359.341583
 30
0.0
  0
VERTEX
  8
1
  6
CONTINUOUS
 62
     6
  5
506
 10
311.337583
 20
358.186833
 30
0.0
  0
SEQEND
  8
1
  6
CONTINUOUS
 62
     6
  5
507
  0
LINE
  8
1
  6
CONTINUOUS
 62
     7
  5
508
 10
314.837583
 20
360.49625
 30
0.0
 11
312.837583
 21
360.49625
 31
0.0
  0
LINE
  8
1
  6
CONTINUOUS
 62
     7
  5
509
 10
309.837583
 20
360.49625
 30
0.0
 11
290.337583
 21
360.49625
 31
0.0
  0
LINE
  8
1
  6
CONTINUOUS
 62
     7
  5
50A
 10
311.337583
 20
364.305667
 30
0.0
 11
311.337583
 21
361.99625
 31
0.0
  0
LINE
  8
1
  6
CONTINUOUS
 62
     7
  5
50B
 10
311.337583
 20
358.99625
 30
0.0
 11
311.337583
 21
356.686833
 31
0.0
  0
LINE
  8
1
  6
CONTINUOUS
 62
     7
  5
50C
 10
311.337583
 20
360.99625
 30
0.0
 11
311.337583
 21
359.99625
 31
0.0
  0
LINE
  8
1
  6
CONTINUOUS
 62
     7
  5
50D
 10
310.837583
 20
360.49625
 30
0.0
 11
311.837583
 21
360.49625
 31
0.0
  0
LINE
  8
1
  6
CONTINUOUS
 62
     7
  5
50E
 10
309.837583
 20
192.49625
 30
0.0
 11
290.337583
 21
192.49625
 31
0.0
  0
ARC
  8
1
  6
CONTINUOUS
 62
     6
  5
50F
 10
311.337583
 20
193.99625
 30
0.0
 40
1.5
 50
0.0
 51
180.0
210
0.0
220
0.0
230
1.0
  0
ARC
  8
1
  6
CONTINUOUS
 62
     6
  5
510
 10
311.337583
 20
190.99625
 30
0.0
 40
1.5
 50
180.0
 51
360.0
210
0.0
220
0.0
230
1.0
  0
POLYLINE
  8
1
  6
CONTINUOUS
 62
     6
  5
511
 66
     1
 10
0.0
 20
0.0
 30
0.0
 70
     1
  0
VERTEX
  8
1
  6
CONTINUOUS
 62
     6
  5
512
 10
313.337583
 20
191.341583
 30
0.0
  0
VERTEX
  8
1
  6
CONTINUOUS
 62
     6
  5
513
 10
313.337583
 20
193.650917
 30
0.0
  0
VERTEX
  8
1
  6
CONTINUOUS
 62
     6
  5
514
 10
311.337583
 20
194.805667
 30
0.0
  0
VERTEX
  8
1
  6
CONTINUOUS
 62
     6
  5
515
 10
309.337583
 20
193.650917
 30
0.0
  0
VERTEX
  8
1
  6
CONTINUOUS
 62
     6
  5
516
 10
309.337583
 20
191.341583
 30
0.0
  0
VERTEX
  8
1
  6
CONTINUOUS
 62
     6
  5
517
 10
311.337583
 20
190.186833
 30
0.0
  0
SEQEND
  8
1
  6
CONTINUOUS
 62
     6
  5
518
  0
LINE
  8
1
  6
CONTINUOUS
 62
     7
  5
519
 10
314.837583
 20
192.49625
 30
0.0
 11
312.837583
 21
192.49625
 31
0.0
  0
LINE
  8
1
  6
CONTINUOUS
 62
     7
  5
51A
 10
311.337583
 20
205.49625
 30
0.0
 11
311.337583
 21
193.99625
 31
0.0
  0
LINE
  8
1
  6
CONTINUOUS
 62
     7
  5
51B
 10
311.337583
 20
190.99625
 30
0.0
 11
311.337583
 21
188.686833
 31
0.0
  0
LINE
  8
1
  6
CONTINUOUS
 62
     7
  5
51C
 10
311.337583
 20
192.99625
 30
0.0
 11
311.337583
 21
191.99625
 31
0.0
  0
LINE
  8
1
  6
CONTINUOUS
 62
     7
  5
51D
 10
310.837583
 20
192.49625
 30
0.0
 11
311.837583
 21
192.49625
 31
0.0
  0
LINE
  8
1
  6
CONTINUOUS
 62
     7
  5
51E
 10
311.337583
 20
204.49625
 30
0.0
 11
315.337583
 21
204.49625
 31
0.0
  0
LINE
  8
1
  6
CONTINUOUS
 62
     7
  5
51F
 10
305.337583
 20
204.49625
 30
0.0
 11
301.337583
 21
204.49625
 31
0.0
  0
INSERT
  8
1
  6
CONTINUOUS
 62
     1
  5
520
  2
LDR
 10
311.337583
 20
204.49625
 30
0.0
 41
240.0
 42
240.0
 50
180.0
210
0.0
220
0.0
230
1.0
  0
INSERT
  8
1
  6
CONTINUOUS
 62
     1
  5
521
  2
LDR
 10
311.337583
 20
204.49625
 30
0.0
 41
240.0
 42
240.0
 50
180.0
210
0.0
220
0.0
230
1.0
  0
INSERT
  8
1
  6
CONTINUOUS
 62
     1
  5
522
  2
LDR
 10
305.337583
 20
204.49625
 30
0.0
 41
240.0
 42
240.0
210
0.0
220
0.0
230
1.0
  0
LINE
  8
1
  6
CONTINUOUS
 62
     7
  5
523
 10
304.337583
 20
144.49625
 30
0.0
 11
297.337583
 21
144.49625
 31
0.0
  0
LINE
  8
1
  6
CONTINUOUS
 62
     7
  5
524
 10
291.337583
 20
360.49625
 30
0.0
 11
291.337583
 21
192.49625
 31
0.0
  0
INSERT
  8
1
  6
CONTINUOUS
 62
     1
  5
525
  2
LDR
 10
291.337583
 20
360.49625
 30
0.0
 41
240.0
 42
240.0
 50
90.0
210
0.0
220
0.0
230
1.0
  0
INSERT
  8
1
  6
CONTINUOUS
 62
     1
  5
526
  2
LDR
 10
291.337583
 20
360.49625
 30
0.0
 41
240.0
 42
240.0
 50
90.0
210
0.0
220
0.0
230
1.0
  0
INSERT
  8
1
  6
CONTINUOUS
 62
     1
  5
527
  2
LDR
 10
298.337583
 20
276.49625
 30
0.0
 41
240.0
 42
240.0
 50
90.0
210
0.0
220
0.0
230
1.0
  0
INSERT
  8
1
  6
CONTINUOUS
 62
     1
  5
528
  2
LDR
 10
298.337583
 20
276.49625
 30
0.0
 41
240.0
 42
240.0
 50
90.0
210
0.0
220
0.0
230
1.0
  0
INSERT
  8
1
  6
CONTINUOUS
 62
     1
  5
529
  2
LDR
 10
291.337583
 20
192.49625
 30
0.0
 41
240.0
 42
240.0
 50
270.0
210
0.0
220
0.0
230
1.0
  0
LINE
  8
1
  6
CONTINUOUS
 62
     7
  5
52A
 10
298.337583
 20
276.49625
 30
0.0
 11
298.337583
 21
192.49625
 31
0.0
  0
LINE
  8
1
  6
CONTINUOUS
 62
     7
  5
52B
 10
298.337583
 20
192.49625
 30
0.0
 11
298.337583
 21
144.49625
 31
0.0
  0
INSERT
  8
1
  6
CONTINUOUS
 62
     1
  5
52C
  2
LDR
 10
298.337583
 20
192.49625
 30
0.0
 41
240.0
 42
240.0
 50
270.0
210
0.0
220
0.0
230
1.0
  0
INSERT
  8
1
  6
CONTINUOUS
 62
     1
  5
52D
  2
LDR
 10
298.337583
 20
192.49625
 30
0.0
 41
240.0
 42
240.0
 50
270.0
210
0.0
220
0.0
230
1.0
  0
INSERT
  8
1
  6
CONTINUOUS
 62
     1
  5
52E
  2
LDR
 10
298.337583
 20
192.49625
 30
0.0
 41
240.0
 42
240.0
 50
90.0
210
0.0
220
0.0
230
1.0
  0
INSERT
  8
1
  6
CONTINUOUS
 62
     1
  5
52F
  2
LDR
 10
298.337583
 20
192.49625
 30
0.0
 41
240.0
 42
240.0
 50
90.0
210
0.0
220
0.0
230
1.0
  0
INSERT
  8
1
  6
CONTINUOUS
 62
     1
  5
530
  2
LDR
 10
298.337583
 20
144.49625
 30
0.0
 41
240.0
 42
240.0
 50
270.0
210
0.0
220
0.0
230
1.0
  0
LINE
  8
1
  6
CONTINUOUS
 62
     6
  5
531
 10
321.837583
 20
295.74625
 30
0.0
 11
319.337583
 21
295.74625
 31
0.0
  0
LINE
  8
1
  6
CONTINUOUS
 62
     6
  5
532
 10
326.337583
 20
344.62125
 30
0.0
 11
326.337583
 21
340.12125
 31
0.0
  0
LINE
  8
1
  6
CONTINUOUS
 62
     6
  5
533
 10
326.837583
 20
344.62125
 30
0.0
 11
326.837583
 21
340.12125
 31
0.0
  0
LINE
  8
1
  6
CONTINUOUS
 62
     6
  5
534
 10
326.337583
 20
344.62125
 30
0.0
 11
326.837583
 21
344.62125
 31
0.0
  0
LINE
  8
1
  6
CONTINUOUS
 62
     6
  5
535
 10
326.837583
 20
340.12125
 30
0.0
 11
326.337583
 21
340.12125
 31
0.0
  0
LINE
  8
1
  6
CONTINUOUS
 62
     6
  5
536
 10
326.837583
 20
344.37125
 30
0.0
 11
327.837583
 21
344.37125
 31
0.0
  0
LINE
  8
1
  6
CONTINUOUS
 62
     6
  5
537
 10
326.837583
 20
340.37125
 30
0.0
 11
327.837583
 21
340.37125
 31
0.0
  0
LINE
  8
1
  6
CONTINUOUS
 62
     6
  5
538
 10
326.837583
 20
343.37125
 30
0.0
 11
328.087583
 21
343.37125
 31
0.0
  0
LINE
  8
1
  6
CONTINUOUS
 62
     6
  5
539
 10
326.837583
 20
341.37125
 30
0.0
 11
328.087583
 21
341.37125
 31
0.0
  0
ARC
  8
1
  6
CONTINUOUS
 62
     6
  5
53A
 10
327.711894
 20
343.808578
 30
0.0
 40
0.57654
 50
310.664442
 51
77.408044
210
0.0
220
0.0
230
1.0
  0
ARC
  8
1
  6
CONTINUOUS
 62
     6
  5
53B
 10
327.711894
 20
340.933922
 30
0.0
 40
0.57654
 50
282.591956
 51
49.335558
210
0.0
220
0.0
230
1.0
  0
ARC
  8
1
  6
CONTINUOUS
 62
     6
  5
53C
 10
326.63043
 20
342.37125
 30
0.0
 40
1.767285
 50
325.539378
 51
34.460622
210
0.0
220
0.0
230
1.0
  0
LINE
  8
1
  6
CONTINUOUS
 62
     6
  5
53D
 10
329.337583
 20
343.37125
 30
0.0
 11
329.337583
 21
341.37125
 31
0.0
  0
ARC
  8
1
  6
CONTINUOUS
 62
     6
  5
53E
 10
326.419117
 20
340.61855
 30
0.0
 40
4.011833
 50
43.325736
 51
69.294128
210
0.0
220
0.0
230
1.0
  0
ARC
  8
1
  6
CONTINUOUS
 62
     6
  5
53F
 10
326.419117
 20
344.12395
 30
0.0
 40
4.011833
 50
290.705872
 51
316.674264
210
0.0
220
0.0
230
1.0
  0
LINE
  8
1
  6
CONTINUOUS
 62
     6
  5
540
 10
330.337583
 20
343.37125
 30
0.0
 11
330.337583
 21
341.37125
 31
0.0
  0
LINE
  8
1
  6
CONTINUOUS
 62
     6
  5
541
 10
329.337583
 20
343.37125
 30
0.0
 11
330.337583
 21
343.37125
 31
0.0
  0
LINE
  8
1
  6
CONTINUOUS
 62
     6
  5
542
 10
329.337583
 20
341.37125
 30
0.0
 11
330.337583
 21
341.37125
 31
0.0
  0
LINE
  8
1
  6
CONTINUOUS
 62
     6
  5
543
 10
329.837583
 20
342.87125
 30
0.0
 11
329.837583
 21
341.87125
 31
0.0
  0
LINE
  8
1
  6
HIDDEN
 62
     6
  5
544
 10
319.337583
 20
343.99625
 30
0.0
 11
317.087583
 21
343.99625
 31
0.0
  0
LINE
  8
1
  6
HIDDEN
 62
     6
  5
545
 10
319.337583
 20
340.74625
 30
0.0
 11
317.087583
 21
340.74625
 31
0.0
  0
LINE
  8
1
  6
DASHED
 62
     6
  5
546
 10
320.837583
 20
343.49625
 30
0.0
 11
325.592833
 21
345.041333
 31
0.0
  0
ARC
  8
1
  6
CONTINUOUS
 62
     6
  5
547
 10
321.053821
 20
345.109618
 30
0.0
 40
1.627795
 50
75.632225
 51
262.366219
210
0.0
220
0.0
230
1.0
  0
ARC
  8
1
  6
CONTINUOUS
 62
     6
  5
548
 10
320.341128
 20
337.860605
 30
0.0
 40
8.89625
 50
53.819714
 51
82.789442
210
0.0
220
0.0
230
1.0
  0
ARC
  8
1
  6
CONTINUOUS
 62
     6
  5
549
 10
321.425284
 20
342.613712
 30
0.0
 40
4.82305
 50
338.796875
 51
30.221044
210
0.0
220
0.0
230
1.0
  0
ARC
  8
1
  6
CONTINUOUS
 62
     6
  5
54A
 10
320.596875
 20
340.986022
 30
0.0
 40
2.521743
 50
357.347811
 51
84.522597
210
0.0
220
0.0
230
1.0
  0
LINE
  8
1
  6
CONTINUOUS
 62
     6
  5
54B
 10
325.921833
 20
340.869333
 30
0.0
 11
324.446917
 21
335.399667
 31
0.0
  0
LINE
  8
1
  6
CONTINUOUS
 62
     6
  5
54C
 10
323.115917
 20
340.869333
 30
0.0
 11
322.720167
 21
335.903417
 31
0.0
  0
ARC
  8
1
  6
CONTINUOUS
 62
     6
  5
54D
 10
323.201864
 20
335.208493
 30
0.0
 40
0.845548
 50
124.728369
 51
209.828172
210
0.0
220
0.0
230
1.0
  0
ARC
  8
1
  6
CONTINUOUS
 62
     6
  5
54E
 10
323.370023
 20
335.377123
 30
0.0
 40
1.07713
 50
213.162503
 51
1.199233
210
0.0
220
0.0
230
1.0
  0
LINE
  8
1
  6
DASHED
 62
     6
  5
54F
 10
323.059833
 20
340.165833
 30
0.0
 11
325.98875
 21
341.1175
 31
0.0
  0
LINE
  8
1
  6
HIDDEN
 62
     6
  5
550
 10
326.337583
 20
343.49625
 30
0.0
 11
320.837583
 21
343.49625
 31
0.0
  0
LINE
  8
1
  6
CONTINUOUS
 62
     6
  5
551
 10
320.837583
 20
343.49625
 30
0.0
 11
319.337583
 21
343.49625
 31
0.0
  0
LINE
  8
1
  6
HIDDEN
 62
     6
  5
552
 10
326.337583
 20
341.24625
 30
0.0
 11
323.105167
 21
341.24625
 31
0.0
  0
LINE
  8
1
  6
CONTINUOUS
 62
     6
  5
553
 10
323.105167
 20
341.24625
 30
0.0
 11
319.337583
 21
341.24625
 31
0.0
  0
LINE
  8
1
  6
CONTINUOUS
 62
     6
  5
554
 10
321.45775
 20
346.6865
 30
0.0
 11
319.337583
 21
347.960417
 31
0.0
  0
ARC
  8
1
  6
DASHED
 62
     6
  5
555
 10
318.09923
 20
347.350011
 30
0.0
 40
0.92862
 50
57.134222
 51
243.082256
210
0.0
220
0.0
230
1.0
  0
LINE
  8
1
  6
DASHED
 62
     6
  5
556
 10
317.678833
 20
346.522
 30
0.0
 11
318.4625
 21
345.97925
 31
0.0
  0
LINE
  8
1
  6
CONTINUOUS
 62
     6
  5
557
 10
326.837583
 20
293.62125
 30
0.0
 11
328.087583
 21
293.62125
 31
0.0
  0
LINE
  8
1
  6
CONTINUOUS
 62
     6
  5
558
 10
326.337583
 20
292.37125
 30
0.0
 11
326.337583
 21
296.87125
 31
0.0
  0
LINE
  8
1
  6
CONTINUOUS
 62
     6
  5
559
 10
326.837583
 20
292.37125
 30
0.0
 11
326.837583
 21
296.87125
 31
0.0
  0
LINE
  8
1
  6
CONTINUOUS
 62
     6
  5
55A
 10
326.337583
 20
292.37125
 30
0.0
 11
326.837583
 21
292.37125
 31
0.0
  0
LINE
  8
1
  6
CONTINUOUS
 62
     6
  5
55B
 10
326.837583
 20
296.87125
 30
0.0
 11
326.337583
 21
296.87125
 31
0.0
  0
LINE
  8
1
  6
CONTINUOUS
 62
     6
  5
55C
 10
326.837583
 20
292.62125
 30
0.0
 11
327.837583
 21
292.62125
 31
0.0
  0
LINE
  8
1
  6
CONTINUOUS
 62
     6
  5
55D
 10
326.837583
 20
296.62125
 30
0.0
 11
327.837583
 21
296.62125
 31
0.0
  0
LINE
  8
1
  6
CONTINUOUS
 62
     6
  5
55E
 10
326.837583
 20
295.62125
 30
0.0
 11
328.087583
 21
295.62125
 31
0.0
  0
ARC
  8
1
  6
CONTINUOUS
 62
     6
  5
55F
 10
327.711894
 20
293.183922
 30
0.0
 40
0.57654
 50
282.591956
 51
49.335558
210
0.0
220
0.0
230
1.0
  0
ARC
  8
1
  6
CONTINUOUS
 62
     6
  5
560
 10
327.711894
 20
296.058578
 30
0.0
 40
0.57654
 50
310.664442
 51
77.408044
210
0.0
220
0.0
230
1.0
  0
ARC
  8
1
  6
CONTINUOUS
 62
     6
  5
561
 10
326.63043
 20
294.62125
 30
0.0
 40
1.767285
 50
325.539378
 51
34.460622
210
0.0
220
0.0
230
1.0
  0
LINE
  8
1
  6
CONTINUOUS
 62
     6
  5
562
 10
329.337583
 20
293.62125
 30
0.0
 11
329.337583
 21
295.62125
 31
0.0
  0
ARC
  8
1
  6
CONTINUOUS
 62
     6
  5
563
 10
326.419117
 20
296.37395
 30
0.0
 40
4.011833
 50
290.705872
 51
316.674264
210
0.0
220
0.0
230
1.0
  0
ARC
  8
1
  6
CONTINUOUS
 62
     6
  5
564
 10
326.419117
 20
292.86855
 30
0.0
 40
4.011833
 50
43.325736
 51
69.294128
210
0.0
220
0.0
230
1.0
  0
LINE
  8
1
  6
CONTINUOUS
 62
     6
  5
565
 10
330.337583
 20
293.62125
 30
0.0
 11
330.337583
 21
295.62125
 31
0.0
  0
LINE
  8
1
  6
CONTINUOUS
 62
     6
  5
566
 10
329.337583
 20
293.62125
 30
0.0
 11
330.337583
 21
293.62125
 31
0.0
  0
LINE
  8
1
  6
CONTINUOUS
 62
     6
  5
567
 10
329.337583
 20
295.62125
 30
0.0
 11
330.337583
 21
295.62125
 31
0.0
  0
LINE
  8
1
  6
CONTINUOUS
 62
     6
  5
568
 10
329.837583
 20
294.12125
 30
0.0
 11
329.837583
 21
295.12125
 31
0.0
  0
LINE
  8
1
  6
HIDDEN
 62
     6
  5
569
 10
319.337583
 20
292.99625
 30
0.0
 11
317.087583
 21
292.99625
 31
0.0
  0
LINE
  8
1
  6
HIDDEN
 62
     6
  5
56A
 10
319.337583
 20
296.24625
 30
0.0
 11
317.087583
 21
296.24625
 31
0.0
  0
LINE
  8
1
  6
DASHED
 62
     6
  5
56B
 10
320.837583
 20
293.49625
 30
0.0
 11
325.592833
 21
291.951167
 31
0.0
  0
ARC
  8
1
  6
CONTINUOUS
 62
     6
  5
56C
 10
321.053821
 20
291.882882
 30
0.0
 40
1.627795
 50
97.633781
 51
284.367775
210
0.0
220
0.0
230
1.0
  0
ARC
  8
1
  6
CONTINUOUS
 62
     6
  5
56D
 10
320.341128
 20
299.131895
 30
0.0
 40
8.89625
 50
277.210558
 51
306.180286
210
0.0
220
0.0
230
1.0
  0
ARC
  8
1
  6
CONTINUOUS
 62
     6
  5
56E
 10
321.425284
 20
294.378788
 30
0.0
 40
4.82305
 50
329.778956
 51
21.203125
210
0.0
220
0.0
230
1.0
  0
ARC
  8
1
  6
CONTINUOUS
 62
     6
  5
56F
 10
320.596875
 20
296.006478
 30
0.0
 40
2.521743
 50
275.477403
 51
2.652189
210
0.0
220
0.0
230
1.0
  0
LINE
  8
1
  6
CONTINUOUS
 62
     6
  5
570
 10
325.921833
 20
296.123167
 30
0.0
 11
324.446917
 21
301.592833
 31
0.0
  0
LINE
  8
1
  6
CONTINUOUS
 62
     6
  5
571
 10
323.115917
 20
296.123167
 30
0.0
 11
322.720167
 21
301.089083
 31
0.0
  0
ARC
  8
1
  6
CONTINUOUS
 62
     6
  5
572
 10
323.201864
 20
301.784007
 30
0.0
 40
0.845548
 50
150.171828
 51
235.271631
210
0.0
220
0.0
230
1.0
  0
ARC
  8
1
  6
CONTINUOUS
 62
     6
  5
573
 10
323.370023
 20
301.615377
 30
0.0
 40
1.07713
 50
358.800767
 51
146.837497
210
0.0
220
0.0
230
1.0
  0
LINE
  8
1
  6
DASHED
 62
     6
  5
574
 10
323.059833
 20
296.826667
 30
0.0
 11
325.98875
 21
295.875
 31
0.0
  0
LINE
  8
1
  6
HIDDEN
 62
     6
  5
575
 10
326.337583
 20
293.49625
 30
0.0
 11
320.837583
 21
293.49625
 31
0.0
  0
LINE
  8
1
  6
CONTINUOUS
 62
     6
  5
576
 10
320.837583
 20
293.49625
 30
0.0
 11
319.337583
 21
293.49625
 31
0.0
  0
LINE
  8
1
  6
HIDDEN
 62
     6
  5
577
 10
326.337583
 20
295.74625
 30
0.0
 11
323.105167
 21
295.74625
 31
0.0
  0
LINE
  8
1
  6
CONTINUOUS
 62
     6
  5
578
 10
323.105167
 20
295.74625
 30
0.0
 11
319.337583
 21
295.74625
 31
0.0
  0
LINE
  8
1
  6
CONTINUOUS
 62
     6
  5
579
 10
321.45775
 20
290.306
 30
0.0
 11
319.337583
 21
289.032083
 31
0.0
  0
ARC
  8
1
  6
DASHED
 62
     6
  5
57A
 10
318.09923
 20
289.642489
 30
0.0
 40
0.92862
 50
116.917744
 51
302.865778
210
0.0
220
0.0
230
1.0
  0
LINE
  8
1
  6
DASHED
 62
     6
  5
57B
 10
317.678833
 20
290.4705
 30
0.0
 11
318.4625
 21
291.01325
 31
0.0
  0
LINE
  8
1
  6
CONTINUOUS
 62
     6
  5
57C
 10
319.337583
 20
408.49625
 30
0.0
 11
319.337583
 21
340.99625
 31
0.0
  0
LINE
  8
1
  6
CONTINUOUS
 62
     6
  5
57D
 10
319.337583
 20
295.99625
 30
0.0
 11
319.337583
 21
144.49625
 31
0.0
  0
POLYLINE
  8
1
  6
CONTINUOUS
 62
     6
  5
57E
 66
     1
 10
0.0
 20
0.0
 30
0.0
  0
VERTEX
  8
1
  6
CONTINUOUS
 62
     6
  5
57F
 10
319.337583
 20
340.99625
 30
0.0
  0
VERTEX
  8
1
  6
CONTINUOUS
 62
     6
  5
580
 10
321.837583
 20
340.99625
 30
0.0
  0
VERTEX
  8
1
  6
CONTINUOUS
 62
     6
  5
581
 10
321.837583
 20
323.49625
 30
0.0
 42
0.414214
  0
VERTEX
  8
1
  6
CONTINUOUS
 62
     6
  5
582
 10
325.837583
 20
319.49625
 30
0.0
  0
VERTEX
  8
1
  6
CONTINUOUS
 62
     6
  5
583
 10
368.337583
 20
319.49625
 30
0.0
 42
0.414214
  0
VERTEX
  8
1
  6
CONTINUOUS
 62
     6
  5
584
 10
372.337583
 20
323.49625
 30
0.0
  0
VERTEX
  8
1
  6
CONTINUOUS
 62
     6
  5
585
 10
372.337583
 20
340.99625
 30
0.0
  0
VERTEX
  8
1
  6
CONTINUOUS
 62
     6
  5
586
 10
374.837583
 20
340.99625
 30
0.0
  0
VERTEX
  8
1
  6
CONTINUOUS
 62
     6
  5
587
 10
374.837583
 20
295.99625
 30
0.0
  0
VERTEX
  8
1
  6
CONTINUOUS
 62
     6
  5
588
 10
372.337583
 20
295.99625
 30
0.0
  0
VERTEX
  8
1
  6
CONTINUOUS
 62
     6
  5
589
 10
372.337583
 20
313.49625
 30
0.0
 42
0.414214
  0
VERTEX
  8
1
  6
CONTINUOUS
 62
     6
  5
58A
 10
368.337583
 20
317.49625
 30
0.0
  0
VERTEX
  8
1
  6
CONTINUOUS
 62
     6
  5
58B
 10
325.837583
 20
317.49625
 30
0.0
 42
0.414214
  0
VERTEX
  8
1
  6
CONTINUOUS
 62
     6
  5
58C
 10
321.837583
 20
313.49625
 30
0.0
  0
VERTEX
  8
1
  6
CONTINUOUS
 62
     6
  5
58D
 10
321.837583
 20
295.99625
 30
0.0
  0
VERTEX
  8
1
  6
CONTINUOUS
 62
     6
  5
58E
 10
319.337583
 20
295.99625
 30
0.0
  0
VERTEX
  8
1
  6
CONTINUOUS
 62
     6
  5
58F
 10
319.337583
 20
340.99625
 30
0.0
  0
SEQEND
  8
1
  6
CONTINUOUS
 62
     6
  5
590
  0
LINE
  8
1
  6
CONTINUOUS
 62
     6
  5
591
 10
319.337583
 20
338.314917
 30
0.0
 11
321.837583
 21
340.814917
 31
0.0
  0
LINE
  8
1
  6
CONTINUOUS
 62
     6
  5
592
 10
319.337583
 20
335.4865
 30
0.0
 11
321.837583
 21
337.9865
 31
0.0
  0
LINE
  8
1
  6
CONTINUOUS
 62
     6
  5
593
 10
319.337583
 20
332.658083
 30
0.0
 11
321.837583
 21
335.158083
 31
0.0
  0
LINE
  8
1
  6
CONTINUOUS
 62
     6
  5
594
 10
319.337583
 20
329.829667
 30
0.0
 11
321.837583
 21
332.329667
 31
0.0
  0
LINE
  8
1
  6
CONTINUOUS
 62
     6
  5
595
 10
319.337583
 20
327.00125
 30
0.0
 11
321.837583
 21
329.50125
 31
0.0
  0
LINE
  8
1
  6
CONTINUOUS
 62
     6
  5
596
 10
319.337583
 20
324.172833
 30
0.0
 11
321.837583
 21
326.672833
 31
0.0
  0
LINE
  8
1
  6
CONTINUOUS
 62
     6
  5
597
 10
319.337583
 20
321.344417
 30
0.0
 11
321.837583
 21
323.844417
 31
0.0
  0
LINE
  8
1
  6
CONTINUOUS
 62
     6
  5
598
 10
319.337583
 20
318.515917
 30
0.0
 11
322.35475
 21
321.533083
 31
0.0
  0
LINE
  8
1
  6
CONTINUOUS
 62
     6
  5
599
 10
319.337583
 20
315.6875
 30
0.0
 11
323.743417
 21
320.093333
 31
0.0
  0
LINE
  8
1
  6
CONTINUOUS
 62
     6
  5
59A
 10
319.337583
 20
312.859083
 30
0.0
 11
325.97475
 21
319.49625
 31
0.0
  0
LINE
  8
1
  6
CONTINUOUS
 62
     6
  5
59B
 10
319.337583
 20
310.030667
 30
0.0
 11
321.837583
 21
312.530667
 31
0.0
  0
LINE
  8
1
  6
CONTINUOUS
 62
     6
  5
59C
 10
326.803167
 20
317.49625
 30
0.0
 11
328.803167
 21
319.49625
 31
0.0
  0
LINE
  8
1
  6
CONTINUOUS
 62
     6
  5
59D
 10
319.337583
 20
307.20225
 30
0.0
 11
321.837583
 21
309.70225
 31
0.0
  0
LINE
  8
1
  6
CONTINUOUS
 62
     6
  5
59E
 10
329.631583
 20
317.49625
 30
0.0
 11
331.631583
 21
319.49625
 31
0.0
  0
LINE
  8
1
  6
CONTINUOUS
 62
     6
  5
59F
 10
319.337583
 20
304.373833
 30
0.0
 11
321.837583
 21
306.873833
 31
0.0
  0
LINE
  8
1
  6
CONTINUOUS
 62
     6
  5
5A0
 10
332.46
 20
317.49625
 30
0.0
 11
334.46
 21
319.49625
 31
0.0
  0
LINE
  8
1
  6
CONTINUOUS
 62
     6
  5
5A1
 10
319.337583
 20
301.545417
 30
0.0
 11
321.837583
 21
304.045417
 31
0.0
  0
LINE
  8
1
  6
CONTINUOUS
 62
     6
  5
5A2
 10
335.288417
 20
317.49625
 30
0.0
 11
337.288417
 21
319.49625
 31
0.0
  0
LINE
  8
1
  6
CONTINUOUS
 62
     6
  5
5A3
 10
319.337583
 20
298.717
 30
0.0
 11
321.837583
 21
301.217
 31
0.0
  0
LINE
  8
1
  6
CONTINUOUS
 62
     6
  5
5A4
 10
338.116833
 20
317.49625
 30
0.0
 11
340.116833
 21
319.49625
 31
0.0
  0
LINE
  8
1
  6
CONTINUOUS
 62
     6
  5
5A5
 10
319.445333
 20
295.99625
 30
0.0
 11
321.837583
 21
298.3885
 31
0.0
  0
LINE
  8
1
  6
CONTINUOUS
 62
     6
  5
5A6
 10
340.945333
 20
317.49625
 30
0.0
 11
342.945333
 21
319.49625
 31
0.0
  0
LINE
  8
1
  6
CONTINUOUS
 62
     6
  5
5A7
 10
343.77375
 20
317.49625
 30
0.0
 11
345.77375
 21
319.49625
 31
0.0
  0
LINE
  8
1
  6
CONTINUOUS
 62
     6
  5
5A8
 10
346.602167
 20
317.49625
 30
0.0
 11
348.602167
 21
319.49625
 31
0.0
  0
LINE
  8
1
  6
CONTINUOUS
 62
     6
  5
5A9
 10
349.430583
 20
317.49625
 30
0.0
 11
351.430583
 21
319.49625
 31
0.0
  0
LINE
  8
1
  6
CONTINUOUS
 62
     6
  5
5AA
 10
372.337583
 20
340.40325
 30
0.0
 11
372.930583
 21
340.99625
 31
0.0
  0
LINE
  8
1
  6
CONTINUOUS
 62
     6
  5
5AB
 10
352.259
 20
317.49625
 30
0.0
 11
354.259
 21
319.49625
 31
0.0
  0
LINE
  8
1
  6
CONTINUOUS
 62
     6
  5
5AC
 10
372.337583
 20
337.574833
 30
0.0
 11
374.837583
 21
340.074833
 31
0.0
  0
LINE
  8
1
  6
CONTINUOUS
 62
     6
  5
5AD
 10
355.087417
 20
317.49625
 30
0.0
 11
357.087417
 21
319.49625
 31
0.0
  0
LINE
  8
1
  6
CONTINUOUS
 62
     6
  5
5AE
 10
372.337583
 20
334.746417
 30
0.0
 11
374.837583
 21
337.246417
 31
0.0
  0
LINE
  8
1
  6
CONTINUOUS
 62
     6
  5
5AF
 10
357.915833
 20
317.49625
 30
0.0
 11
359.915833
 21
319.49625
 31
0.0
  0
LINE
  8
1
  6
CONTINUOUS
 62
     6
  5
5B0
 10
372.337583
 20
331.918
 30
0.0
 11
374.837583
 21
334.418
 31
0.0
  0
LINE
  8
1
  6
CONTINUOUS
 62
     6
  5
5B1
 10
360.744333
 20
317.49625
 30
0.0
 11
362.744333
 21
319.49625
 31
0.0
  0
LINE
  8
1
  6
CONTINUOUS
 62
     6
  5
5B2
 10
372.337583
 20
329.0895
 30
0.0
 11
374.837583
 21
331.5895
 31
0.0
  0
LINE
  8
1
  6
CONTINUOUS
 62
     6
  5
5B3
 10
363.57275
 20
317.49625
 30
0.0
 11
365.57275
 21
319.49625
 31
0.0
  0
LINE
  8
1
  6
CONTINUOUS
 62
     6
  5
5B4
 10
372.337583
 20
326.261083
 30
0.0
 11
374.837583
 21
328.761083
 31
0.0
  0
LINE
  8
1
  6
CONTINUOUS
 62
     6
  5
5B5
 10
366.401167
 20
317.49625
 30
0.0
 11
368.404667
 21
319.49975
 31
0.0
  0
LINE
  8
1
  6
CONTINUOUS
 62
     6
  5
5B6
 10
372.334083
 20
323.429167
 30
0.0
 11
374.837583
 21
325.932667
 31
0.0
  0
LINE
  8
1
  6
CONTINUOUS
 62
     6
  5
5B7
 10
369.145833
 20
317.412583
 30
0.0
 11
374.837583
 21
323.10425
 31
0.0
  0
LINE
  8
1
  6
CONTINUOUS
 62
     6
  5
5B8
 10
371.022333
 20
316.460583
 30
0.0
 11
374.837583
 21
320.275833
 31
0.0
  0
LINE
  8
1
  6
CONTINUOUS
 62
     6
  5
5B9
 10
372.136417
 20
314.74625
 30
0.0
 11
374.837583
 21
317.447417
 31
0.0
  0
LINE
  8
1
  6
CONTINUOUS
 62
     6
  5
5BA
 10
372.337583
 20
312.119
 30
0.0
 11
374.837583
 21
314.619
 31
0.0
  0
LINE
  8
1
  6
CONTINUOUS
 62
     6
  5
5BB
 10
372.337583
 20
309.290583
 30
0.0
 11
374.837583
 21
311.790583
 31
0.0
  0
LINE
  8
1
  6
CONTINUOUS
 62
     6
  5
5BC
 10
372.337583
 20
306.462083
 30
0.0
 11
374.837583
 21
308.962083
 31
0.0
  0
LINE
  8
1
  6
CONTINUOUS
 62
     6
  5
5BD
 10
372.337583
 20
303.633667
 30
0.0
 11
374.837583
 21
306.133667
 31
0.0
  0
LINE
  8
1
  6
CONTINUOUS
 62
     6
  5
5BE
 10
372.337583
 20
300.80525
 30
0.0
 11
374.837583
 21
303.30525
 31
0.0
  0
LINE
  8
1
  6
CONTINUOUS
 62
     6
  5
5BF
 10
372.337583
 20
297.976833
 30
0.0
 11
374.837583
 21
300.476833
 31
0.0
  0
LINE
  8
1
  6
CONTINUOUS
 62
     6
  5
5C0
 10
373.185417
 20
295.99625
 30
0.0
 11
374.837583
 21
297.648417
 31
0.0
  0
LINE
  8
1
  6
CONTINUOUS
 62
     7
  5
5C1
 10
312.44875
 20
363.003833
 30
0.0
 11
328.544167
 21
387.906
 31
0.0
  0
LINE
  8
1
  6
CONTINUOUS
 62
     7
  5
5C2
 10
328.544167
 20
387.906
 30
0.0
 11
331.900667
 21
387.906
 31
0.0
  0
INSERT
  8
1
  6
CONTINUOUS
 62
     1
  5
5C3
  2
LDR
 10
312.44875
 20
363.003833
 30
0.0
 41
239.999998
 42
239.999998
 50
237.123553
210
0.0
220
0.0
230
1.0
  0
LINE
  8
1
  6
CONTINUOUS
 62
     7
  5
5C4
 10
323.629833
 20
346.126667
 30
0.0
 11
328.233
 21
353.744083
 31
0.0
  0
LINE
  8
1
  6
CONTINUOUS
 62
     7
  5
5C5
 10
328.233
 20
353.744083
 30
0.0
 11
332.5335
 21
353.744083
 31
0.0
  0
INSERT
  8
1
  6
CONTINUOUS
 62
     1
  5
5C6
  2
LDR
 10
323.629833
 20
346.126667
 30
0.0
 41
240.0
 42
240.0
 50
238.855642
210
0.0
220
0.0
230
1.0
  0
LINE
  8
1
  6
CONTINUOUS
 62
     7
  5
5C7
 10
328.6445
 20
293.035917
 30
0.0
 11
331.8075
 21
284.01925
 31
0.0
  0
LINE
  8
1
  6
CONTINUOUS
 62
     7
  5
5C8
 10
331.8075
 20
284.01925
 30
0.0
 11
335.5835
 21
284.01925
 31
0.0
  0
INSERT
  8
1
  6
CONTINUOUS
 62
     1
  5
5C9
  2
LDR
 10
328.6445
 20
293.035917
 30
0.0
 41
240.000002
 42
240.000002
 50
109.330606
210
0.0
220
0.0
230
1.0
  0
TEXT
  8
1
  6
CONTINUOUS
 62
     7
  5
5CA
 10
332.691583
 20
387.26525
 30
0.0
 40
2.5
  1
 7/16 " x  7/8 " SLOTTED HOLES FOR  3/8 " x  3/4 " LG.
  7
MONOTXT
 11
332.691583
 21
389.76525
 31
0.0
210
0.0
220
0.0
230
1.0
 73
     3
  0
TEXT
  8
1
  6
CONTINUOUS
 62
     7
  5
5CB
 10
332.691583
 20
382.76525
 30
0.0
 40
2.5
  1
ECONOMY BOLT & HEX. NUT
  7
MONOTXT
 11
332.691583
 21
385.26525
 31
0.0
210
0.0
220
0.0
230
1.0
 73
     3
  0
TEXT
  8
1
  6
CONTINUOUS
 62
     7
  5
5CC
 10
333.59025
 20
352.906333
 30
0.0
 40
2.5
  1
POST CLIP
  7
MONOTXT
210
0.0
220
0.0
230
1.0
  0
TEXT
  8
1
  6
CONTINUOUS
 62
     7
  5
5CD
 10
336.645917
 20
283.16125
 30
0.0
 40
2.5
  1
SPECIAL  3/8 "-16 U.N.C.-2A
  7
MONOTXT
 11
336.645917
 21
285.66125
 31
0.0
210
0.0
220
0.0
230
1.0
 73
     3
  0
TEXT
  8
1
  6
CONTINUOUS
 62
     7
  5
5CE
 10
336.645917
 20
278.66125
 30
0.0
 40
2.5
  1
SQ. HD. BOLT & HEX LOCK NUT
  7
MONOTXT
 11
336.645917
 21
281.16125
 31
0.0
210
0.0
220
0.0
230
1.0
 73
     3
  0
TEXT
  8
1
  6
CONTINUOUS
 62
     7
  5
5CF
 10
336.645917
 20
274.16125
 30
0.0
 40
2.5
  1
& WASHER
  7
MONOTXT
 11
336.645917
 21
276.66125
 31
0.0
210
0.0
220
0.0
230
1.0
 73
     3
  0
TEXT
  8
1
  6
CONTINUOUS
 62
     7
  5
5D0
 10
290.337583
 20
273.43525
 30
0.0
 40
2.5
  1
24"
 50
90.0
  7
MONOTXT
 72
     4
 11
289.087583
 21
276.49625
 31
0.0
210
0.0
220
0.0
230
1.0
  0
TEXT
  8
1
  6
CONTINUOUS
 62
     7
  5
5D1
 10
294.837583
 20
257.697
 30
0.0
 40
2.5
  1
TYP. BOLT SPACING
 50
90.0
  7
MONOTXT
 72
     4
 11
293.587583
 21
276.506
 31
0.0
210
0.0
220
0.0
230
1.0
  0
TEXT
  8
1
  6
CONTINUOUS
 62
     7
  5
5D2
 10
297.337583
 20
232.02575
 30
0.0
 40
2.5
  1
12"
 50
90.0
  7
MONOTXT
 72
     4
 11
296.087583
 21
234.49625
 31
0.0
210
0.0
220
0.0
230
1.0
  0
TEXT
  8
1
  6
CONTINUOUS
 62
     7
  5
5D3
 10
301.837583
 20
215.815167
 30
0.0
 40
2.5
  1
TYP. HOLE SPACING
 50
90.0
  7
MONOTXT
 72
     4
 11
300.587583
 21
234.506083
 31
0.0
210
0.0
220
0.0
230
1.0
  0
TEXT
  8
1
  6
CONTINUOUS
 62
     7
  5
5D4
 10
297.25925
 20
166.973333
 30
0.0
 40
2.5
  1
6"
 50
90.0
  7
MONOTXT
 72
     1
 11
297.25925
 21
168.676083
 31
0.0
210
0.0
220
0.0
230
1.0
  0
LINE
  8
1
  6
CONTINUOUS
 62
     7
  5
5D5
 10
297.51925
 20
125.743917
 30
0.0
 11
328.969917
 21
125.743917
 31
0.0
  0
TEXT
  8
1
  6
CONTINUOUS
 62
     7
  5
5D6
 10
298.170667
 20
126.229167
 30
0.0
 40
3.0
  1
SECTION C-C
  7
MONOTXT
210
0.0
220
0.0
230
1.0
  0
LINE
  8
1
  6
CONTINUOUS
 62
     2
  5
5D7
 10
443.398833
 20
373.421417
 30
0.0
 11
548.398833
 21
373.421417
 31
0.0
  0
LINE
  8
1
  6
CONTINUOUS
 62
     2
  5
5D8
 10
548.398833
 20
373.421417
 30
0.0
 11
548.398833
 21
331.421417
 31
0.0
  0
LINE
  8
1
  6
CONTINUOUS
 62
     2
  5
5D9
 10
548.398833
 20
331.421417
 30
0.0
 11
443.398833
 21
331.421417
 31
0.0
  0
LINE
  8
1
  6
CONTINUOUS
 62
     2
  5
5DA
 10
443.398833
 20
331.421417
 30
0.0
 11
443.398833
 21
373.421417
 31
0.0
  0
LINE
  8
1
  6
CONTINUOUS
 62
     2
  5
5DB
 10
443.398833
 20
366.421417
 30
0.0
 11
548.398833
 21
366.421417
 31
0.0
  0
LINE
  8
1
  6
CONTINUOUS
 62
     2
  5
5DC
 10
443.398833
 20
359.421417
 30
0.0
 11
548.398833
 21
359.421417
 31
0.0
  0
LINE
  8
1
  6
CONTINUOUS
 62
     2
  5
5DD
 10
443.398833
 20
352.421417
 30
0.0
 11
548.398833
 21
352.421417
 31
0.0
  0
LINE
  8
1
  6
CONTINUOUS
 62
     2
  5
5DE
 10
443.398833
 20
345.421417
 30
0.0
 11
548.398833
 21
345.421417
 31
0.0
  0
LINE
  8
1
  6
CONTINUOUS
 62
     2
  5
5DF
 10
443.398833
 20
338.421417
 30
0.0
 11
548.398833
 21
338.421417
 31
0.0
  0
LINE
  8
1
  6
CONTINUOUS
 62
     2
  5
5E0
 10
455.398833
 20
331.421417
 30
0.0
 11
455.398833
 21
296.421417
 31
0.0
  0
LINE
  8
1
  6
CONTINUOUS
 62
     2
  5
5E1
 10
536.398833
 20
331.421417
 30
0.0
 11
536.398833
 21
296.421417
 31
0.0
  0
LINE
  8
1
  6
CONTINUOUS
 62
     2
  5
5E2
 10
458.898833
 20
331.421417
 30
0.0
 11
458.898833
 21
296.421417
 31
0.0
  0
LINE
  8
1
  6
CONTINUOUS
 62
     2
  5
5E3
 10
532.898833
 20
331.421417
 30
0.0
 11
532.898833
 21
296.421417
 31
0.0
  0
LINE
  8
1
  6
CONTINUOUS
 62
     2
  5
5E4
 10
444.398833
 20
296.421417
 30
0.0
 11
547.398833
 21
296.421417
 31
0.0
  0
LINE
  8
1
  6
CONTINUOUS
 62
     7
  5
5E5
 10
538.398833
 20
377.421417
 30
0.0
 11
529.398833
 21
377.421417
 31
0.0
  0
LINE
  8
1
  6
CONTINUOUS
 62
     7
  5
5E6
 10
538.398833
 20
327.421417
 30
0.0
 11
529.398833
 21
327.421417
 31
0.0
  0
INSERT
  8
1
  6
CONTINUOUS
 62
     1
  5
5E7
  2
LDR
 10
529.398833
 20
377.421417
 30
0.0
 41
240.0
 42
240.0
 50
180.0
210
0.0
220
0.0
230
1.0
  0
INSERT
  8
1
  6
CONTINUOUS
 62
     1
  5
5E8
  2
LDR
 10
529.398833
 20
377.421417
 30
0.0
 41
240.0
 42
240.0
 50
180.0
210
0.0
220
0.0
230
1.0
  0
INSERT
  8
1
  6
CONTINUOUS
 62
     1
  5
5E9
  2
LDR
 10
529.398833
 20
327.421417
 30
0.0
 41
240.0
 42
240.0
 50
180.0
210
0.0
220
0.0
230
1.0
  0
LINE
  8
1
  6
CONTINUOUS
 62
     7
  5
5EA
 10
538.398833
 20
377.421417
 30
0.0
 11
538.398833
 21
354.921417
 31
0.0
  0
LINE
  8
1
  6
CONTINUOUS
 62
     7
  5
5EB
 10
538.398833
 20
353.921417
 30
0.0
 11
538.398833
 21
352.921417
 31
0.0
  0
LINE
  8
1
  6
CONTINUOUS
 62
     7
  5
5EC
 10
538.398833
 20
351.921417
 30
0.0
 11
538.398833
 21
350.921417
 31
0.0
  0
LINE
  8
1
  6
CONTINUOUS
 62
     7
  5
5ED
 10
538.398833
 20
349.921417
 30
0.0
 11
538.398833
 21
327.421417
 31
0.0
  0
LINE
  8
1
  6
CONTINUOUS
 62
     7
  5
5EE
 10
537.398833
 20
376.421417
 30
0.0
 11
535.398833
 21
376.421417
 31
0.0
  0
LINE
  8
1
  6
CONTINUOUS
 62
     7
  5
5EF
 10
537.398833
 20
376.421417
 30
0.0
 11
537.398833
 21
374.421417
 31
0.0
  0
LINE
  8
1
  6
CONTINUOUS
 62
     7
  5
5F0
 10
537.398833
 20
330.421417
 30
0.0
 11
537.398833
 21
328.421417
 31
0.0
  0
LINE
  8
1
  6
CONTINUOUS
 62
     7
  5
5F1
 10
537.398833
 20
328.421417
 30
0.0
 11
535.398833
 21
328.421417
 31
0.0
  0
LINE
  8
1
  6
CONTINUOUS
 62
     7
  5
5F2
 10
548.398833
 20
374.421417
 30
0.0
 11
548.398833
 21
384.421417
 31
0.0
  0
LINE
  8
1
  6
CONTINUOUS
 62
     7
  5
5F3
 10
443.398833
 20
374.421417
 30
0.0
 11
443.398833
 21
384.421417
 31
0.0
  0
LINE
  8
1
  6
CONTINUOUS
 62
     7
  5
5F4
 10
442.398833
 20
373.421417
 30
0.0
 11
432.398833
 21
373.421417
 31
0.0
  0
LINE
  8
1
  6
CONTINUOUS
 62
     7
  5
5F5
 10
442.398833
 20
331.421417
 30
0.0
 11
432.398833
 21
331.421417
 31
0.0
  0
LINE
  8
1
  6
CONTINUOUS
 62
     7
  5
5F6
 10
443.398833
 20
383.421417
 30
0.0
 11
548.398833
 21
383.421417
 31
0.0
  0
LINE
  8
1
  6
CONTINUOUS
 62
     7
  5
5F7
 10
433.398833
 20
373.421417
 30
0.0
 11
433.398833
 21
331.421417
 31
0.0
  0
INSERT
  8
1
  6
CONTINUOUS
 62
     1
  5
5F8
  2
LDR
 10
443.398833
 20
383.421417
 30
0.0
 41
240.0
 42
240.0
 50
180.0
210
0.0
220
0.0
230
1.0
  0
INSERT
  8
1
  6
CONTINUOUS
 62
     1
  5
5F9
  2
LDR
 10
443.398833
 20
383.421417
 30
0.0
 41
240.0
 42
240.0
 50
180.0
210
0.0
220
0.0
230
1.0
  0
INSERT
  8
1
  6
CONTINUOUS
 62
     1
  5
5FA
  2
LDR
 10
548.398833
 20
383.421417
 30
0.0
 41
240.0
 42
240.0
210
0.0
220
0.0
230
1.0
  0
INSERT
  8
1
  6
CONTINUOUS
 62
     1
  5
5FB
  2
LDR
 10
548.398833
 20
383.421417
 30
0.0
 41
240.0
 42
240.0
210
0.0
220
0.0
230
1.0
  0
INSERT
  8
1
  6
CONTINUOUS
 62
     1
  5
5FC
  2
LDR
 10
433.398833
 20
373.421417
 30
0.0
 41
240.0
 42
240.0
 50
90.0
210
0.0
220
0.0
230
1.0
  0
INSERT
  8
1
  6
CONTINUOUS
 62
     1
  5
5FD
  2
LDR
 10
433.398833
 20
373.421417
 30
0.0
 41
240.0
 42
240.0
 50
90.0
210
0.0
220
0.0
230
1.0
  0
INSERT
  8
1
  6
CONTINUOUS
 62
     1
  5
5FE
  2
LDR
 10
433.398833
 20
331.421417
 30
0.0
 41
240.0
 42
240.0
 50
270.0
210
0.0
220
0.0
230
1.0
  0
TEXT
  8
1
  6
CONTINUOUS
 62
     7
  5
5FF
 10
464.4815
 20
384.419167
 30
0.0
 40
2.5
  1
LENGTH AS INDICATED IN PLANS
  7
MONOTXT
 72
     1
 11
495.908667
 21
384.419167
 31
0.0
210
0.0
220
0.0
230
1.0
  0
TEXT
  8
1
  6
CONTINUOUS
 62
     7
  5
600
 10
525.99275
 20
376.407917
 30
0.0
 40
2.5
  1
A
  7
MONOTXT
 72
     1
 11
526.95725
 21
376.407917
 31
0.0
210
0.0
220
0.0
230
1.0
  0
TEXT
  8
1
  6
CONTINUOUS
 62
     7
  5
601
 10
526.39175
 20
326.319167
 30
0.0
 40
2.5
  1
A
  7
MONOTXT
 72
     1
 11
527.35625
 21
326.319167
 31
0.0
210
0.0
220
0.0
230
1.0
  0
TEXT
  8
1
  6
CONTINUOUS
 62
     7
  5
602
 10
432.398833
 20
331.87025
 30
0.0
 40
2.5
  1
HEIGHT AS INDICATED
 50
90.0
  7
MONOTXT
 72
     4
 11
431.148833
 21
352.43125
 31
0.0
210
0.0
220
0.0
230
1.0
  0
TEXT
  8
1
  6
CONTINUOUS
 62
     7
  5
603
 10
436.898833
 20
343.9175
 30
0.0
 40
2.5
  1
IN PLANS
 50
90.0
  7
MONOTXT
 72
     4
 11
435.648833
 21
352.43125
 31
0.0
210
0.0
220
0.0
230
1.0
  0
LINE
  8
1
  6
CONTINUOUS
 62
     1
  5
604
 10
446.398833
 20
249.816417
 30
0.0
 11
407.648833
 21
249.816417
 31
0.0
  0
LINE
  8
1
  6
CONTINUOUS
 62
     1
  5
605
 10
406.148833
 20
251.316417
 30
0.0
 11
406.148833
 21
253.316417
 31
0.0
  0
LINE
  8
1
  6
CONTINUOUS
 62
     1
  5
606
 10
406.148833
 20
248.316417
 30
0.0
 11
406.148833
 21
246.316417
 31
0.0
  0
LINE
  8
1
  6
CONTINUOUS
 62
     1
  5
607
 10
406.648833
 20
253.816417
 30
0.0
 11
407.398833
 21
253.816417
 31
0.0
  0
LINE
  8
1
  6
CONTINUOUS
 62
     1
  5
608
 10
406.648833
 20
245.816417
 30
0.0
 11
407.398833
 21
245.816417
 31
0.0
  0
LINE
  8
1
  6
CONTINUOUS
 62
     1
  5
609
 10
407.898833
 20
253.316417
 30
0.0
 11
407.898833
 21
252.066417
 31
0.0
  0
LINE
  8
1
  6
CONTINUOUS
 62
     1
  5
60A
 10
407.898833
 20
246.316417
 30
0.0
 11
407.898833
 21
247.566417
 31
0.0
  0
LINE
  8
1
  6
CONTINUOUS
 62
     1
  5
60B
 10
411.898833
 20
262.566417
 30
0.0
 11
411.898833
 21
252.066417
 31
0.0
  0
LINE
  8
1
  6
CONTINUOUS
 62
     1
  5
60C
 10
411.898833
 20
237.066417
 30
0.0
 11
411.898833
 21
247.566417
 31
0.0
  0
LINE
  8
1
  6
CONTINUOUS
 62
     1
  5
60D
 10
442.148833
 20
251.566417
 30
0.0
 11
417.648833
 21
251.566417
 31
0.0
  0
LINE
  8
1
  6
CONTINUOUS
 62
     1
  5
60E
 10
411.398833
 20
251.566417
 30
0.0
 11
408.398833
 21
251.566417
 31
0.0
  0
LINE
  8
1
  6
CONTINUOUS
 62
     1
  5
60F
 10
442.148833
 20
248.066417
 30
0.0
 11
417.648833
 21
248.066417
 31
0.0
  0
LINE
  8
1
  6
CONTINUOUS
 62
     1
  5
610
 10
411.398833
 20
248.066417
 30
0.0
 11
408.398833
 21
248.066417
 31
0.0
  0
LINE
  8
1
  6
CONTINUOUS
 62
     1
  5
611
 10
411.398833
 20
263.066417
 30
0.0
 11
408.398833
 21
263.066417
 31
0.0
  0
LINE
  8
1
  6
CONTINUOUS
 62
     1
  5
612
 10
411.398833
 20
236.566417
 30
0.0
 11
408.398833
 21
236.566417
 31
0.0
  0
LINE
  8
1
  6
CONTINUOUS
 62
     1
  5
613
 10
407.898833
 20
262.566417
 30
0.0
 11
407.898833
 21
261.316417
 31
0.0
  0
LINE
  8
1
  6
CONTINUOUS
 62
     1
  5
614
 10
407.898833
 20
237.066417
 30
0.0
 11
407.898833
 21
238.316417
 31
0.0
  0
LINE
  8
1
  6
CONTINUOUS
 62
     1
  5
615
 10
406.648833
 20
260.816417
 30
0.0
 11
407.398833
 21
260.816417
 31
0.0
  0
LINE
  8
1
  6
CONTINUOUS
 62
     1
  5
616
 10
406.648833
 20
238.816417
 30
0.0
 11
407.398833
 21
238.816417
 31
0.0
  0
LINE
  8
1
  6
CONTINUOUS
 62
     1
  5
617
 10
412.148833
 20
264.816417
 30
0.0
 11
407.648833
 21
264.816417
 31
0.0
  0
LINE
  8
1
  6
CONTINUOUS
 62
     1
  5
618
 10
412.148833
 20
234.816417
 30
0.0
 11
407.648833
 21
234.816417
 31
0.0
  0
LINE
  8
1
  6
CONTINUOUS
 62
     1
  5
619
 10
406.148833
 20
261.316417
 30
0.0
 11
406.148833
 21
263.316417
 31
0.0
  0
LINE
  8
1
  6
CONTINUOUS
 62
     1
  5
61A
 10
406.148833
 20
238.316417
 30
0.0
 11
406.148833
 21
236.316417
 31
0.0
  0
LINE
  8
1
  6
CONTINUOUS
 62
     1
  5
61B
 10
413.648833
 20
263.316417
 30
0.0
 11
413.648833
 21
255.566417
 31
0.0
  0
LINE
  8
1
  6
CONTINUOUS
 62
     1
  5
61C
 10
413.648833
 20
236.316417
 30
0.0
 11
413.648833
 21
244.066417
 31
0.0
  0
ARC
  8
1
  6
CONTINUOUS
 62
     1
  5
61D
 10
407.648833
 20
251.316417
 30
0.0
 40
1.5
 50
180.0
 51
270.0
210
0.0
220
0.0
230
1.0
  0
ARC
  8
1
  6
CONTINUOUS
 62
     1
  5
61E
 10
407.648833
 20
248.316417
 30
0.0
 40
1.5
 50
90.0
 51
180.0
210
0.0
220
0.0
230
1.0
  0
ARC
  8
1
  6
CONTINUOUS
 62
     1
  5
61F
 10
406.648833
 20
253.316417
 30
0.0
 40
0.5
 50
90.0
 51
180.0
210
0.0
220
0.0
230
1.0
  0
ARC
  8
1
  6
CONTINUOUS
 62
     1
  5
620
 10
407.398833
 20
253.316417
 30
0.0
 40
0.5
 50
0.0
 51
90.0
210
0.0
220
0.0
230
1.0
  0
ARC
  8
1
  6
CONTINUOUS
 62
     1
  5
621
 10
408.398833
 20
252.066417
 30
0.0
 40
0.5
 50
180.0
 51
270.0
210
0.0
220
0.0
230
1.0
  0
ARC
  8
1
  6
CONTINUOUS
 62
     1
  5
622
 10
411.398833
 20
252.066417
 30
0.0
 40
0.5
 50
270.0
 51
0.0
210
0.0
220
0.0
230
1.0
  0
ARC
  8
1
  6
CONTINUOUS
 62
     1
  5
623
 10
411.398833
 20
247.566417
 30
0.0
 40
0.5
 50
0.0
 51
90.0
210
0.0
220
0.0
230
1.0
  0
ARC
  8
1
  6
CONTINUOUS
 62
     1
  5
624
 10
408.398833
 20
247.566417
 30
0.0
 40
0.5
 50
90.0
 51
180.0
210
0.0
220
0.0
230
1.0
  0
ARC
  8
1
  6
CONTINUOUS
 62
     1
  5
625
 10
407.398833
 20
246.316417
 30
0.0
 40
0.5
 50
270.0
 51
0.0
210
0.0
220
0.0
230
1.0
  0
ARC
  8
1
  6
CONTINUOUS
 62
     1
  5
626
 10
406.648833
 20
246.316417
 30
0.0
 40
0.5
 50
180.0
 51
270.0
210
0.0
220
0.0
230
1.0
  0
ARC
  8
1
  6
CONTINUOUS
 62
     1
  5
627
 10
417.648833
 20
255.566417
 30
0.0
 40
4.0
 50
180.0
 51
270.0
210
0.0
220
0.0
230
1.0
  0
ARC
  8
1
  6
CONTINUOUS
 62
     1
  5
628
 10
417.648833
 20
244.066417
 30
0.0
 40
4.0
 50
90.0
 51
180.0
210
0.0
220
0.0
230
1.0
  0
ARC
  8
1
  6
CONTINUOUS
 62
     1
  5
629
 10
408.398833
 20
262.566417
 30
0.0
 40
0.5
 50
90.0
 51
180.0
210
0.0
220
0.0
230
1.0
  0
ARC
  8
1
  6
CONTINUOUS
 62
     1
  5
62A
 10
411.398833
 20
262.566417
 30
0.0
 40
0.5
 50
0.0
 51
90.0
210
0.0
220
0.0
230
1.0
  0
ARC
  8
1
  6
CONTINUOUS
 62
     1
  5
62B
 10
408.398833
 20
237.066417
 30
0.0
 40
0.5
 50
180.0
 51
270.0
210
0.0
220
0.0
230
1.0
  0
ARC
  8
1
  6
CONTINUOUS
 62
     1
  5
62C
 10
406.648833
 20
238.316417
 30
0.0
 40
0.5
 50
90.0
 51
180.0
210
0.0
220
0.0
230
1.0
  0
ARC
  8
1
  6
CONTINUOUS
 62
     1
  5
62D
 10
407.398833
 20
238.316417
 30
0.0
 40
0.5
 50
0.0
 51
90.0
210
0.0
220
0.0
230
1.0
  0
ARC
  8
1
  6
CONTINUOUS
 62
     1
  5
62E
 10
406.648833
 20
261.316417
 30
0.0
 40
0.5
 50
180.0
 51
270.0
210
0.0
220
0.0
230
1.0
  0
ARC
  8
1
  6
CONTINUOUS
 62
     1
  5
62F
 10
407.398833
 20
261.316417
 30
0.0
 40
0.5
 50
270.0
 51
360.0
210
0.0
220
0.0
230
1.0
  0
ARC
  8
1
  6
CONTINUOUS
 62
     1
  5
630
 10
412.148833
 20
263.316417
 30
0.0
 40
1.5
 50
0.0
 51
90.0
210
0.0
220
0.0
230
1.0
  0
ARC
  8
1
  6
CONTINUOUS
 62
     1
  5
631
 10
412.148833
 20
236.316417
 30
0.0
 40
1.5
 50
270.0
 51
0.0
210
0.0
220
0.0
230
1.0
  0
ARC
  8
1
  6
CONTINUOUS
 62
     1
  5
632
 10
411.398833
 20
237.066417
 30
0.0
 40
0.5
 50
270.0
 51
0.0
210
0.0
220
0.0
230
1.0
  0
LINE
  8
1
  6
CONTINUOUS
 62
     1
  5
633
 10
447.148833
 20
276.316417
 30
0.0
 11
447.148833
 21
256.566417
 31
0.0
  0
LINE
  8
1
  6
CONTINUOUS
 62
     1
  5
634
 10
447.148833
 20
243.066417
 30
0.0
 11
447.148833
 21
223.316417
 31
0.0
  0
ARC
  8
1
  6
CONTINUOUS
 62
     1
  5
635
 10
442.148833
 20
256.566417
 30
0.0
 40
5.0
 50
270.0
 51
360.0
210
0.0
220
0.0
230
1.0
  0
ARC
  8
1
  6
CONTINUOUS
 62
     1
  5
636
 10
442.148833
 20
243.066417
 30
0.0
 40
5.0
 50
0.0
 51
90.0
210
0.0
220
0.0
230
1.0
  0
LINE
  8
1
  6
CONTINUOUS
 62
     1
  5
637
 10
449.398833
 20
276.316417
 30
0.0
 11
449.398833
 21
252.816417
 31
0.0
  0
LINE
  8
1
  6
CONTINUOUS
 62
     1
  5
638
 10
449.398833
 20
246.816417
 30
0.0
 11
449.398833
 21
223.316417
 31
0.0
  0
ARC
  8
1
  6
CONTINUOUS
 62
     1
  5
639
 10
446.398833
 20
252.816417
 30
0.0
 40
3.0
 50
270.0
 51
360.0
210
0.0
220
0.0
230
1.0
  0
ARC
  8
1
  6
CONTINUOUS
 62
     1
  5
63A
 10
446.398833
 20
246.816417
 30
0.0
 40
3.0
 50
0.0
 51
90.0
210
0.0
220
0.0
230
1.0
  0
LINE
  8
1
  6
CONTINUOUS
 62
     1
  5
63B
 10
449.398833
 20
251.316417
 30
0.0
 11
449.398833
 21
248.316417
 31
0.0
  0
ARC
  8
1
  6
CONTINUOUS
 62
     1
  5
63C
 10
407.648833
 20
263.316417
 30
0.0
 40
1.5
 50
90.0
 51
180.0
210
0.0
220
0.0
230
1.0
  0
ARC
  8
1
  6
CONTINUOUS
 62
     1
  5
63D
 10
407.648833
 20
236.316417
 30
0.0
 40
1.5
 50
180.0
 51
270.0
210
0.0
220
0.0
230
1.0
  0
LINE
  8
1
  6
CONTINUOUS
 62
     7
  5
63E
 10
435.398833
 20
259.566417
 30
0.0
 11
435.398833
 21
251.316417
 31
0.0
  0
LINE
  8
1
  6
CONTINUOUS
 62
     7
  5
63F
 10
435.398833
 20
248.316417
 30
0.0
 11
435.398833
 21
240.066417
 31
0.0
  0
LINE
  8
1
  6
CONTINUOUS
 62
     7
  5
640
 10
435.398833
 20
250.316417
 30
0.0
 11
435.398833
 21
249.316417
 31
0.0
  0
LINE
  8
1
  6
HIDDEN
 62
     1
  5
641
 10
431.898833
 20
251.566417
 30
0.0
 11
431.898833
 21
248.066417
 31
0.0
  0
LINE
  8
1
  6
HIDDEN
 62
     1
  5
642
 10
438.898833
 20
251.566417
 30
0.0
 11
438.898833
 21
248.066417
 31
0.0
  0
LINE
  8
1
  6
CONTINUOUS
 62
     1
  5
643
 10
432.398833
 20
256.576167
 30
0.0
 11
432.398833
 21
252.576167
 31
0.0
  0
LINE
  8
1
  6
CONTINUOUS
 62
     1
  5
644
 10
438.398833
 20
256.576167
 30
0.0
 11
438.398833
 21
252.576167
 31
0.0
  0
LINE
  8
1
  6
CONTINUOUS
 62
     1
  5
645
 10
430.148833
 20
256.576167
 30
0.0
 11
430.148833
 21
252.576167
 31
0.0
  0
LINE
  8
1
  6
CONTINUOUS
 62
     1
  5
646
 10
440.648833
 20
256.576167
 30
0.0
 11
440.648833
 21
252.576167
 31
0.0
  0
ARC
  8
1
  6
CONTINUOUS
 62
     1
  5
647
 10
431.273833
 20
256.429917
 30
0.0
 40
1.134466
 50
7.406919
 51
172.593083
210
0.0
220
0.0
230
1.0
  0
ARC
  8
1
  6
CONTINUOUS
 62
     1
  5
648
 10
439.523833
 20
256.429917
 30
0.0
 40
1.134466
 50
7.406919
 51
172.593083
210
0.0
220
0.0
230
1.0
  0
ARC
  8
1
  6
CONTINUOUS
 62
     1
  5
649
 10
435.398833
 20
252.184861
 30
0.0
 40
5.31823
 50
55.660356
 51
124.339642
210
0.0
220
0.0
230
1.0
  0
LINE
  8
1
  6
CONTINUOUS
 62
     1
  5
64A
 10
431.273833
 20
257.564417
 30
0.0
 11
439.523833
 21
257.564417
 31
0.0
  0
LINE
  8
1
  6
CONTINUOUS
 62
     1
  5
64B
 10
442.148833
 20
247.066417
 30
0.0
 11
428.648833
 21
247.066417
 31
0.0
  0
LINE
  8
1
  6
CONTINUOUS
 62
     1
  5
64C
 10
442.148833
 20
247.066417
 30
0.0
 11
442.148833
 21
248.066417
 31
0.0
  0
LINE
  8
1
  6
CONTINUOUS
 62
     1
  5
64D
 10
428.648833
 20
247.066417
 30
0.0
 11
428.648833
 21
248.066417
 31
0.0
  0
LINE
  8
1
  6
CONTINUOUS
 62
     1
  5
64E
 10
431.273833
 20
242.078167
 30
0.0
 11
439.523833
 21
242.078167
 31
0.0
  0
LINE
  8
1
  6
CONTINUOUS
 62
     1
  5
64F
 10
432.398833
 20
243.066417
 30
0.0
 11
432.398833
 21
247.066417
 31
0.0
  0
LINE
  8
1
  6
CONTINUOUS
 62
     1
  5
650
 10
438.398833
 20
243.066417
 30
0.0
 11
438.398833
 21
247.066417
 31
0.0
  0
LINE
  8
1
  6
CONTINUOUS
 62
     1
  5
651
 10
430.148833
 20
243.066417
 30
0.0
 11
430.148833
 21
247.066417
 31
0.0
  0
LINE
  8
1
  6
CONTINUOUS
 62
     1
  5
652
 10
440.648833
 20
243.066417
 30
0.0
 11
440.648833
 21
247.066417
 31
0.0
  0
ARC
  8
1
  6
CONTINUOUS
 62
     1
  5
653
 10
431.273833
 20
243.212667
 30
0.0
 40
1.134466
 50
187.406917
 51
352.593081
210
0.0
220
0.0
230
1.0
  0
ARC
  8
1
  6
CONTINUOUS
 62
     1
  5
654
 10
439.523833
 20
243.212667
 30
0.0
 40
1.134466
 50
187.406917
 51
352.593081
210
0.0
220
0.0
230
1.0
  0
ARC
  8
1
  6
CONTINUOUS
 62
     1
  5
655
 10
435.398833
 20
247.457723
 30
0.0
 40
5.31823
 50
235.660358
 51
304.339644
210
0.0
220
0.0
230
1.0
  0
LINE
  8
1
  6
CONTINUOUS
 62
     1
  5
656
 10
431.898833
 20
237.078167
 30
0.0
 11
431.898833
 21
242.078167
 31
0.0
  0
LINE
  8
1
  6
CONTINUOUS
 62
     1
  5
657
 10
438.898833
 20
237.078167
 30
0.0
 11
438.898833
 21
242.078167
 31
0.0
  0
LINE
  8
1
  6
CONTINUOUS
 62
     1
  5
658
 10
431.898833
 20
237.078167
 30
0.0
 11
438.898833
 21
237.078167
 31
0.0
  0
LINE
  8
1
  6
CONTINUOUS
 62
     1
  5
659
 10
431.898833
 20
238.078167
 30
0.0
 11
438.898833
 21
238.078167
 31
0.0
  0
LINE
  8
1
  6
CONTINUOUS
 62
     1
  5
65A
 10
431.898833
 20
239.078167
 30
0.0
 11
438.898833
 21
239.078167
 31
0.0
  0
LINE
  8
1
  6
CONTINUOUS
 62
     1
  5
65B
 10
431.898833
 20
240.078167
 30
0.0
 11
438.898833
 21
240.078167
 31
0.0
  0
LINE
  8
1
  6
CONTINUOUS
 62
     1
  5
65C
 10
431.898833
 20
241.078167
 30
0.0
 11
438.898833
 21
241.078167
 31
0.0
  0
LINE
  8
1
  6
CONTINUOUS
 62
     1
  5
65D
 10
432.898833
 20
237.578167
 30
0.0
 11
437.898833
 21
237.578167
 31
0.0
  0
LINE
  8
1
  6
CONTINUOUS
 62
     1
  5
65E
 10
432.898833
 20
238.578167
 30
0.0
 11
437.898833
 21
238.578167
 31
0.0
  0
LINE
  8
1
  6
CONTINUOUS
 62
     1
  5
65F
 10
432.898833
 20
239.578167
 30
0.0
 11
437.898833
 21
239.578167
 31
0.0
  0
LINE
  8
1
  6
CONTINUOUS
 62
     1
  5
660
 10
432.898833
 20
240.578167
 30
0.0
 11
437.898833
 21
240.578167
 31
0.0
  0
LINE
  8
1
  6
CONTINUOUS
 62
     1
  5
661
 10
432.898833
 20
241.578167
 30
0.0
 11
437.898833
 21
241.578167
 31
0.0
  0
LINE
  8
1
  6
CONTINUOUS
 62
     1
  5
662
 10
432.898833
 20
236.328167
 30
0.0
 11
437.898833
 21
236.328167
 31
0.0
  0
LINE
  8
1
  6
CONTINUOUS
 62
     1
  5
663
 10
431.898833
 20
237.078167
 30
0.0
 11
432.898833
 21
236.328167
 31
0.0
  0
LINE
  8
1
  6
CONTINUOUS
 62
     1
  5
664
 10
438.898833
 20
237.078167
 30
0.0
 11
437.898833
 21
236.328167
 31
0.0
  0
LINE
  8
1
  6
CONTINUOUS
 62
     7
  5
665
 10
437.518583
 20
257.564417
 30
0.0
 11
434.92875
 21
270.5965
 31
0.0
  0
LINE
  8
1
  6
CONTINUOUS
 62
     7
  5
666
 10
434.92875
 20
270.5965
 30
0.0
 11
432.746167
 21
270.5965
 31
0.0
  0
LINE
  8
1
  6
CONTINUOUS
 62
     7
  5
667
 10
449.398833
 20
249.816417
 30
0.0
 11
457.762333
 21
249.816417
 31
0.0
  0
LINE
  8
1
  6
CONTINUOUS
 62
     7
  5
668
 10
435.398833
 20
235.328167
 30
0.0
 11
435.398833
 21
230.828167
 31
0.0
  0
LINE
  8
1
  6
CONTINUOUS
 62
     7
  5
669
 10
435.398833
 20
231.828167
 30
0.0
 11
449.398833
 21
231.828167
 31
0.0
  0
LINE
  8
1
  6
CONTINUOUS
 62
     7
  5
66A
 10
449.398833
 20
235.66325
 30
0.0
 11
457.762333
 21
235.66325
 31
0.0
  0
INSERT
  8
1
  6
CONTINUOUS
 62
     1
  5
66B
  2
LDR
 10
437.52475
 20
257.57475
 30
0.0
 41
239.999999
 42
239.999999
 50
281.239963
210
0.0
220
0.0
230
1.0
  0
INSERT
  8
1
  6
CONTINUOUS
 62
     1
  5
66C
  2
LDR
 10
437.699
 20
256.65675
 30
0.0
 41
239.999999
 42
239.999999
 50
281.239963
210
0.0
220
0.0
230
1.0
  0
INSERT
  8
1
  6
CONTINUOUS
 62
     1
  5
66D
  2
LDR
 10
449.398833
 20
249.816417
 30
0.0
 41
240.0
 42
240.0
 50
180.0
210
0.0
220
0.0
230
1.0
  0
INSERT
  8
1
  6
CONTINUOUS
 62
     1
  5
66E
  2
LDR
 10
449.398833
 20
249.816417
 30
0.0
 41
240.0
 42
240.0
 50
180.0
210
0.0
220
0.0
230
1.0
  0
INSERT
  8
1
  6
CONTINUOUS
 62
     1
  5
66F
  2
LDR
 10
449.398833
 20
235.66325
 30
0.0
 41
240.0
 42
240.0
 50
180.0
210
0.0
220
0.0
230
1.0
  0
INSERT
  8
1
  6
CONTINUOUS
 62
     1
  5
670
  2
LDR
 10
449.398833
 20
235.66325
 30
0.0
 41
240.0
 42
240.0
 50
180.0
210
0.0
220
0.0
230
1.0
  0
INSERT
  8
1
  6
CONTINUOUS
 62
     1
  5
671
  2
LDR
 10
449.398833
 20
231.828167
 30
0.0
 41
240.0
 42
240.0
210
0.0
220
0.0
230
1.0
  0
INSERT
  8
1
  6
CONTINUOUS
 62
     1
  5
672
  2
LDR
 10
449.398833
 20
231.828167
 30
0.0
 41
240.0
 42
240.0
210
0.0
220
0.0
230
1.0
  0
INSERT
  8
1
  6
CONTINUOUS
 62
     1
  5
673
  2
LDR
 10
435.398833
 20
231.828167
 30
0.0
 41
240.0
 42
240.0
 50
180.0
210
0.0
220
0.0
230
1.0
  0
TEXT
  8
1
  6
CONTINUOUS
 62
     7
  5
674
 10
407.441583
 20
269.336917
 30
0.0
 40
2.5
  1
STITCH BOLT
  7
MONOTXT
 72
     1
 11
419.912
 21
269.336917
 31
0.0
210
0.0
220
0.0
230
1.0
  0
TEXT
  8
1
  6
CONTINUOUS
 62
     7
  5
675
 10
458.937583
 20
253.065
 30
0.0
 40
2.5
  1
FACE OF ADJACENT
  7
MONOTXT
 11
458.937583
 21
255.565
 31
0.0
210
0.0
220
0.0
230
1.0
 73
     3
  0
TEXT
  8
1
  6
CONTINUOUS
 62
     7
  5
676
 10
458.937583
 20
248.565
 30
0.0
 40
2.5
  1
CHANNELS TO BE
  7
MONOTXT
 11
458.937583
 21
251.065
 31
0.0
210
0.0
220
0.0
230
1.0
 73
     3
  0
TEXT
  8
1
  6
CONTINUOUS
 62
     7
  5
677
 10
458.937583
 20
244.065
 30
0.0
 40
2.5
  1
IN SAME PLANE.
  7
MONOTXT
 11
458.937583
 21
246.565
 31
0.0
210
0.0
220
0.0
230
1.0
 73
     3
  0
TEXT
  8
1
  6
CONTINUOUS
 62
     7
  5
678
 10
458.349917
 20
234.254917
 30
0.0
 40
2.5
  1
EXTRUDED ALUMINUM
  7
MONOTXT
 11
458.349917
 21
236.754917
 31
0.0
210
0.0
220
0.0
230
1.0
 73
     3
  0
TEXT
  8
1
  6
CONTINUOUS
 62
     7
  5
679
 10
458.349917
 20
229.754917
 30
0.0
 40
2.5
  1
CHANNEL
  7
MONOTXT
 11
458.349917
 21
232.254917
 31
0.0
210
0.0
220
0.0
230
1.0
 73
     3
  0
LINE
  8
1
  6
CONTINUOUS
 62
     1
  5
67A
 10
519.52225
 20
245.441417
 30
0.0
 11
519.52225
 21
254.316417
 31
0.0
  0
LINE
  8
1
  6
CONTINUOUS
 62
     1
  5
67B
 10
524.52225
 20
255.316417
 30
0.0
 11
520.77225
 21
255.316417
 31
0.0
  0
LINE
  8
1
  6
CONTINUOUS
 62
     1
  5
67C
 10
524.52225
 20
244.316417
 30
0.0
 11
520.77225
 21
244.316417
 31
0.0
  0
LINE
  8
1
  6
CONTINUOUS
 62
     1
  5
67D
 10
524.52225
 20
246.566417
 30
0.0
 11
520.77225
 21
246.566417
 31
0.0
  0
LINE
  8
1
  6
CONTINUOUS
 62
     1
  5
67E
 10
524.52225
 20
253.066417
 30
0.0
 11
520.77225
 21
253.066417
 31
0.0
  0
ARC
  8
1
  6
CONTINUOUS
 62
     1
  5
67F
 10
520.64725
 20
254.191417
 30
0.0
 40
1.131923
 50
83.659808
 51
276.340192
210
0.0
220
0.0
230
1.0
  0
ARC
  8
1
  6
CONTINUOUS
 62
     1
  5
680
 10
520.64725
 20
245.441417
 30
0.0
 40
1.131923
 50
83.659808
 51
276.340192
210
0.0
220
0.0
230
1.0
  0
ARC
  8
1
  6
CONTINUOUS
 62
     1
  5
681
 10
524.37225
 20
249.816417
 30
0.0
 40
4.85
 50
137.924978
 51
222.075022
210
0.0
220
0.0
230
1.0
  0
LINE
  8
1
  6
CONTINUOUS
 62
     1
  5
682
 10
531.52225
 20
242.566417
 30
0.0
 11
531.52225
 21
257.066417
 31
0.0
  0
LINE
  8
1
  6
CONTINUOUS
 62
     1
  5
683
 10
532.77225
 20
242.566417
 30
0.0
 11
532.77225
 21
257.066417
 31
0.0
  0
LINE
  8
1
  6
CONTINUOUS
 62
     1
  5
684
 10
531.52225
 20
257.066417
 30
0.0
 11
532.77225
 21
257.066417
 31
0.0
  0
LINE
  8
1
  6
CONTINUOUS
 62
     1
  5
685
 10
531.52225
 20
242.566417
 30
0.0
 11
532.77225
 21
242.566417
 31
0.0
  0
LINE
  8
1
  6
CONTINUOUS
 62
     1
  5
686
 10
533.77225
 20
244.316417
 30
0.0
 11
533.77225
 21
255.316417
 31
0.0
  0
LINE
  8
1
  6
CONTINUOUS
 62
     1
  5
687
 10
538.52225
 20
245.566417
 30
0.0
 11
538.52225
 21
254.066417
 31
0.0
  0
LINE
  8
1
  6
CONTINUOUS
 62
     1
  5
688
 10
533.77225
 20
255.316417
 30
0.0
 11
536.77225
 21
255.316417
 31
0.0
  0
LINE
  8
1
  6
CONTINUOUS
 62
     1
  5
689
 10
533.77225
 20
244.316417
 30
0.0
 11
536.77225
 21
244.316417
 31
0.0
  0
LINE
  8
1
  6
CONTINUOUS
 62
     1
  5
68A
 10
533.77225
 20
253.066417
 30
0.0
 11
536.77225
 21
253.066417
 31
0.0
  0
LINE
  8
1
  6
CONTINUOUS
 62
     1
  5
68B
 10
533.77225
 20
246.566417
 30
0.0
 11
536.77225
 21
246.566417
 31
0.0
  0
ARC
  8
1
  6
CONTINUOUS
 62
     1
  5
68C
 10
536.57549
 20
254.191417
 30
0.0
 40
1.142077
 50
279.920547
 51
80.079453
210
0.0
220
0.0
230
1.0
  0
ARC
  8
1
  6
CONTINUOUS
 62
     1
  5
68D
 10
536.57549
 20
245.441417
 30
0.0
 40
1.142077
 50
279.920547
 51
80.079453
210
0.0
220
0.0
230
1.0
  0
ARC
  8
1
  6
CONTINUOUS
 62
     1
  5
68E
 10
531.311609
 20
249.816417
 30
0.0
 40
6.354612
 50
329.240236
 51
30.759767
210
0.0
220
0.0
230
1.0
  0
ARC
  8
1
  6
CONTINUOUS
 62
     1
  5
68F
 10
536.923661
 20
253.678392
 30
0.0
 40
1.645008
 50
13.643517
 51
95.281125
210
0.0
220
0.0
230
1.0
  0
ARC
  8
1
  6
CONTINUOUS
 62
     1
  5
690
 10
536.923661
 20
245.954442
 30
0.0
 40
1.645008
 50
264.718875
 51
346.356483
210
0.0
220
0.0
230
1.0
  0
LINE
  8
1
  6
CONTINUOUS
 62
     1
  5
691
 10
525.77225
 20
246.316417
 30
0.0
 11
525.77225
 21
253.316417
 31
0.0
  0
LINE
  8
1
  6
CONTINUOUS
 62
     1
  5
692
 10
524.52225
 20
253.066417
 30
0.0
 11
524.52225
 21
255.316417
 31
0.0
  0
LINE
  8
1
  6
CONTINUOUS
 62
     1
  5
693
 10
524.52225
 20
244.316417
 30
0.0
 11
524.52225
 21
246.566417
 31
0.0
  0
LINE
  8
1
  6
CONTINUOUS
 62
     1
  5
694
 10
524.52225
 20
246.566417
 30
0.0
 11
524.52225
 21
253.066417
 31
0.0
  0
ARC
  8
1
  6
CONTINUOUS
 62
     1
  5
695
 10
526.149548
 20
255.185771
 30
0.0
 40
1.90705
 50
211.426858
 51
258.5891
210
0.0
220
0.0
230
1.0
  0
ARC
  8
1
  6
CONTINUOUS
 62
     1
  5
696
 10
526.149548
 20
244.447062
 30
0.0
 40
1.90705
 50
101.4109
 51
148.573142
210
0.0
220
0.0
230
1.0
  0
LINE
  8
1
  6
CONTINUOUS
 62
     1
  5
697
 10
525.77225
 20
253.316417
 30
0.0
 11
533.77225
 21
253.316417
 31
0.0
  0
LINE
  8
1
  6
CONTINUOUS
 62
     1
  5
698
 10
525.77225
 20
246.316417
 30
0.0
 11
533.77225
 21
246.316417
 31
0.0
  0
LINE
  8
1
  6
CONTINUOUS
 62
     1
  5
699
 10
526.77225
 20
246.316417
 30
0.0
 11
526.77225
 21
253.316417
 31
0.0
  0
LINE
  8
1
  6
CONTINUOUS
 62
     1
  5
69A
 10
527.77225
 20
246.316417
 30
0.0
 11
527.77225
 21
253.316417
 31
0.0
  0
LINE
  8
1
  6
CONTINUOUS
 62
     1
  5
69B
 10
528.77225
 20
246.316417
 30
0.0
 11
528.77225
 21
253.316417
 31
0.0
  0
LINE
  8
1
  6
CONTINUOUS
 62
     1
  5
69C
 10
529.77225
 20
246.316417
 30
0.0
 11
529.77225
 21
253.316417
 31
0.0
  0
LINE
  8
1
  6
CONTINUOUS
 62
     1
  5
69D
 10
530.77225
 20
246.316417
 30
0.0
 11
530.77225
 21
253.316417
 31
0.0
  0
LINE
  8
1
  6
CONTINUOUS
 62
     1
  5
69E
 10
526.27225
 20
247.316417
 30
0.0
 11
526.27225
 21
252.316417
 31
0.0
  0
LINE
  8
1
  6
CONTINUOUS
 62
     1
  5
69F
 10
527.27225
 20
247.316417
 30
0.0
 11
527.27225
 21
252.316417
 31
0.0
  0
LINE
  8
1
  6
CONTINUOUS
 62
     1
  5
6A0
 10
528.27225
 20
247.316417
 30
0.0
 11
528.27225
 21
252.316417
 31
0.0
  0
LINE
  8
1
  6
CONTINUOUS
 62
     1
  5
6A1
 10
529.27225
 20
247.316417
 30
0.0
 11
529.27225
 21
252.316417
 31
0.0
  0
LINE
  8
1
  6
CONTINUOUS
 62
     1
  5
6A2
 10
530.27225
 20
247.316417
 30
0.0
 11
530.27225
 21
252.316417
 31
0.0
  0
LINE
  8
1
  6
CONTINUOUS
 62
     1
  5
6A3
 10
531.136417
 20
247.316417
 30
0.0
 11
531.136417
 21
252.316417
 31
0.0
  0
LINE
  8
1
  6
CONTINUOUS
 62
     1
  5
6A4
 10
533.27225
 20
247.316417
 30
0.0
 11
533.27225
 21
252.316417
 31
0.0
  0
LINE
  8
1
  6
CONTINUOUS
 62
     1
  5
6A5
 10
538.52225
 20
253.316417
 30
0.0
 11
540.52225
 21
253.316417
 31
0.0
  0
LINE
  8
1
  6
CONTINUOUS
 62
     1
  5
6A6
 10
538.52225
 20
246.316417
 30
0.0
 11
540.52225
 21
246.316417
 31
0.0
  0
LINE
  8
1
  6
CONTINUOUS
 62
     1
  5
6A7
 10
541.27225
 20
252.316417
 30
0.0
 11
541.27225
 21
247.316417
 31
0.0
  0
LINE
  8
1
  6
CONTINUOUS
 62
     1
  5
6A8
 10
540.52225
 20
253.316417
 30
0.0
 11
540.52225
 21
246.316417
 31
0.0
  0
LINE
  8
1
  6
CONTINUOUS
 62
     1
  5
6A9
 10
539.52225
 20
252.316417
 30
0.0
 11
539.52225
 21
247.316417
 31
0.0
  0
LINE
  8
1
  6
CONTINUOUS
 62
     1
  5
6AA
 10
540.52225
 20
253.316417
 30
0.0
 11
541.27225
 21
252.316417
 31
0.0
  0
LINE
  8
1
  6
CONTINUOUS
 62
     1
  5
6AB
 10
541.27225
 20
247.316417
 30
0.0
 11
540.52225
 21
246.316417
 31
0.0
  0
LINE
  8
1
  6
CONTINUOUS
 62
     7
  5
6AC
 10
519.52225
 20
255.816417
 30
0.0
 11
519.52225
 21
261.316417
 31
0.0
  0
LINE
  8
1
  6
CONTINUOUS
 62
     7
  5
6AD
 10
524.52225
 20
256.316417
 30
0.0
 11
524.52225
 21
261.316417
 31
0.0
  0
LINE
  8
1
  6
CONTINUOUS
 62
     7
  5
6AE
 10
541.27225
 20
253.316417
 30
0.0
 11
541.27225
 21
261.316417
 31
0.0
  0
LINE
  8
1
  6
CONTINUOUS
 62
     7
  5
6AF
 10
515.52225
 20
260.316417
 30
0.0
 11
519.52225
 21
260.316417
 31
0.0
  0
LINE
  8
1
  6
CONTINUOUS
 62
     7
  5
6B0
 10
524.52225
 20
260.316417
 30
0.0
 11
541.27225
 21
260.316417
 31
0.0
  0
LINE
  8
1
  6
CONTINUOUS
 62
     7
  5
6B1
 10
541.27225
 20
249.816417
 30
0.0
 11
549.27225
 21
249.816417
 31
0.0
  0
LINE
  8
1
  6
CONTINUOUS
 62
     7
  5
6B2
 10
536.77225
 20
244.316417
 30
0.0
 11
542.098833
 21
233.89225
 31
0.0
  0
LINE
  8
1
  6
CONTINUOUS
 62
     7
  5
6B3
 10
542.098833
 20
233.89225
 30
0.0
 11
545.654667
 21
233.89225
 31
0.0
  0
LINE
  8
1
  6
CONTINUOUS
 62
     7
  5
6B4
 10
531.52225
 20
242.566417
 30
0.0
 11
512.0475
 21
228.829833
 31
0.0
  0
LINE
  8
1
  6
CONTINUOUS
 62
     7
  5
6B5
 10
512.0475
 20
228.829833
 30
0.0
 11
515.603333
 21
228.829833
 31
0.0
  0
INSERT
  8
1
  6
CONTINUOUS
 62
     1
  5
6B6
  2
LDR
 10
519.52225
 20
260.316417
 30
0.0
 41
240.0
 42
240.0
210
0.0
220
0.0
230
1.0
  0
INSERT
  8
1
  6
CONTINUOUS
 62
     1
  5
6B7
  2
LDR
 10
524.52225
 20
260.316417
 30
0.0
 41
240.0
 42
240.0
 50
180.0
210
0.0
220
0.0
230
1.0
  0
INSERT
  8
1
  6
CONTINUOUS
 62
     1
  5
6B8
  2
LDR
 10
524.52225
 20
260.316417
 30
0.0
 41
240.0
 42
240.0
 50
180.0
210
0.0
220
0.0
230
1.0
  0
INSERT
  8
1
  6
CONTINUOUS
 62
     1
  5
6B9
  2
LDR
 10
541.27225
 20
260.316417
 30
0.0
 41
240.0
 42
240.0
210
0.0
220
0.0
230
1.0
  0
INSERT
  8
1
  6
CONTINUOUS
 62
     1
  5
6BA
  2
LDR
 10
541.27225
 20
249.816417
 30
0.0
 41
240.0
 42
240.0
 50
180.0
210
0.0
220
0.0
230
1.0
  0
INSERT
  8
1
  6
CONTINUOUS
 62
     1
  5
6BB
  2
LDR
 10
541.27225
 20
249.816417
 30
0.0
 41
240.0
 42
240.0
 50
180.0
210
0.0
220
0.0
230
1.0
  0
INSERT
  8
1
  6
CONTINUOUS
 62
     1
  5
6BC
  2
LDR
 10
536.77225
 20
244.316417
 30
0.0
 41
239.999998
 42
239.999998
 50
117.066309
210
0.0
220
0.0
230
1.0
  0
INSERT
  8
1
  6
CONTINUOUS
 62
     1
  5
6BD
  2
LDR
 10
536.77225
 20
244.316417
 30
0.0
 41
239.999998
 42
239.999998
 50
117.066309
210
0.0
220
0.0
230
1.0
  0
INSERT
  8
1
  6
CONTINUOUS
 62
     1
  5
6BE
  2
LDR
 10
531.52225
 20
242.566417
 30
0.0
 41
239.999999
 42
239.999999
 50
35.197407
210
0.0
220
0.0
230
1.0
  0
TEXT
  8
1
  6
CONTINUOUS
 62
     7
  5
6BF
 10
510.371583
 20
259.414
 30
0.0
 40
2.5
  1
 1/4 "
  7
MONOTXT
 72
     1
 11
512.940417
 21
259.414
 31
0.0
210
0.0
220
0.0
230
1.0
  0
TEXT
  8
1
  6
CONTINUOUS
 62
     7
  5
6C0
 10
531.084667
 20
261.726083
 30
0.0
 40
2.5
  1
 3/4 "
  7
MONOTXT
 72
     1
 11
533.6535
 21
261.726083
 31
0.0
210
0.0
220
0.0
230
1.0
  0
TEXT
  8
1
  6
CONTINUOUS
 62
     7
  5
6C1
 10
550.478833
 20
248.29825
 30
0.0
 40
2.5
  1
 3/8 "-16 U.N.C. THD. 2A
  7
MONOTXT
 72
     1
 11
571.089083
 21
248.29825
 31
0.0
210
0.0
220
0.0
230
1.0
  0
TEXT
  8
1
  6
CONTINUOUS
 62
     7
  5
6C2
 10
546.456833
 20
232.73625
 30
0.0
 40
2.5
  1
HEX. LOCK NUT
  7
MONOTXT
 72
     1
 11
560.954833
 21
232.73625
 31
0.0
210
0.0
220
0.0
230
1.0
  0
TEXT
  8
1
  6
CONTINUOUS
 62
     7
  5
6C3
 10
516.331583
 20
227.5785
 30
0.0
 40
2.5
  1
FLATWASHER
  7
MONOTXT
 72
     1
 11
528.329583
 21
227.5785
 31
0.0
210
0.0
220
0.0
230
1.0
  0
TEXT
  8
1
  6
CONTINUOUS
 62
     7
  5
6C4
 10
474.380417
 20
215.430583
 30
0.0
 40
3.0
  1
STITCH BOLT DETAIL
  7
MONOTXT
 72
     1
 11
498.486667
 21
215.430583
 31
0.0
210
0.0
220
0.0
230
1.0
  0
LINE
  8
1
  6
CONTINUOUS
 62
     7
  5
6C5
 10
472.999333
 20
214.172833
 30
0.0
 11
523.848
 21
214.172833
 31
0.0
  0
LINE
  8
1
  6
CONTINUOUS
 62
     3
  5
6C6
 10
410.675833
 20
150.2915
 30
0.0
 11
398.369083
 21
146.973
 31
0.0
  0
ARC
  8
1
  6
CONTINUOUS
 62
     3
  5
6C7
 10
420.216474
 20
139.338472
 30
0.0
 40
3.662538
 50
187.633781
 51
14.367775
210
0.0
220
0.0
230
1.0
  0
ARC
  8
1
  6
CONTINUOUS
 62
     3
  5
6C8
 10
403.906194
 20
137.734913
 30
0.0
 40
20.016563
 50
7.210558
 51
36.180286
210
0.0
220
0.0
230
1.0
  0
ARC
  8
1
  6
CONTINUOUS
 62
     3
  5
6C9
 10
414.600685
 20
140.174264
 30
0.0
 40
10.851863
 50
59.778956
 51
111.203125
210
0.0
220
0.0
230
1.0
  0
ARC
  8
1
  6
CONTINUOUS
 62
     3
  5
6CA
 10
410.938382
 20
138.310344
 30
0.0
 40
5.673921
 50
5.477403
 51
92.652189
210
0.0
220
0.0
230
1.0
  0
LINE
  8
1
  6
CONTINUOUS
 62
     3
  5
6CB
 10
410.675833
 20
143.97825
 30
0.0
 11
399.502583
 21
143.08775
 31
0.0
  0
ARC
  8
1
  6
CONTINUOUS
 62
     3
  5
6CC
 10
397.938942
 20
144.171569
 30
0.0
 40
1.902483
 50
240.171828
 51
325.271631
210
0.0
220
0.0
230
1.0
  0
ARC
  8
1
  6
CONTINUOUS
 62
     3
  5
6CD
 10
398.318361
 20
144.549926
 30
0.0
 40
2.423542
 50
88.800767
 51
236.837497
210
0.0
220
0.0
230
1.0
  0
LINE
  8
1
  6
DASHED
 62
     3
  5
6CE
 10
409.093
 20
143.852
 30
0.0
 11
411.23425
 21
150.442167
 31
0.0
  0
ARC
  8
1
  6
CONTINUOUS
 62
     3
  5
6CF
 10
420.48523
 20
133.58683
 30
0.0
 40
2.198894
 50
359.650492
 51
78.720231
210
0.0
220
0.0
230
1.0
  0
ARC
  8
1
  6
CONTINUOUS
 62
     3
  5
6D0
 10
424.017893
 20
133.149083
 30
0.0
 40
1.399681
 50
162.352242
 51
238.084031
210
0.0
220
0.0
230
1.0
  0
LINE
  8
1
  6
CONTINUOUS
 62
     3
  5
6D1
 10
423.764417
 20
140.247333
 30
0.0
 11
428.74975
 21
134.59175
 31
0.0
  0
LINE
  8
1
  6
CONTINUOUS
 62
     3
  5
6D2
 10
423.277917
 20
131.961
 30
0.0
 11
425.992667
 21
130.412333
 31
0.0
  0
ARC
  8
1
  6
CONTINUOUS
 62
     3
  5
6D3
 10
426.823586
 20
132.863298
 30
0.0
 40
2.587983
 50
251.272453
 51
41.903367
210
0.0
220
0.0
230
1.0
  0
LINE
  8
1
  6
CONTINUOUS
 62
     3
  5
6D4
 10
396.003
 20
175.905417
 30
0.0
 11
396.003
 21
186.62625
 31
0.0
  0
LINE
  8
1
  6
CONTINUOUS
 62
     3
  5
6D5
 10
423.003
 20
173.265833
 30
0.0
 11
423.003
 21
189.265833
 31
0.0
  0
LINE
  8
1
  6
CONTINUOUS
 62
     3
  5
6D6
 10
421.003
 20
191.265833
 30
0.0
 11
411.003
 21
191.265833
 31
0.0
  0
LINE
  8
1
  6
CONTINUOUS
 62
     3
  5
6D7
 10
421.003
 20
171.265833
 30
0.0
 11
411.003
 21
171.265833
 31
0.0
  0
LINE
  8
1
  6
CONTINUOUS
 62
     3
  5
6D8
 10
397.61075
 20
188.587417
 30
0.0
 11
411.003
 21
191.265833
 31
0.0
  0
LINE
  8
1
  6
CONTINUOUS
 62
     3
  5
6D9
 10
397.61075
 20
173.94425
 30
0.0
 11
411.003
 21
171.265833
 31
0.0
  0
ARC
  8
1
  6
CONTINUOUS
 62
     3
  5
6DA
 10
421.003
 20
189.265833
 30
0.0
 40
2.0
 50
0.0
 51
90.0
210
0.0
220
0.0
230
1.0
  0
ARC
  8
1
  6
CONTINUOUS
 62
     3
  5
6DB
 10
421.003
 20
173.265833
 30
0.0
 40
2.0
 50
270.0
 51
0.0
210
0.0
220
0.0
230
1.0
  0
ARC
  8
1
  6
CONTINUOUS
 62
     3
  5
6DC
 10
398.003
 20
186.626241
 30
0.0
 40
2.0
 50
101.310478
 51
180.0
210
0.0
220
0.0
230
1.0
  0
ARC
  8
1
  6
CONTINUOUS
 62
     3
  5
6DD
 10
398.003
 20
175.905425
 30
0.0
 40
2.0
 50
180.0
 51
258.689522
210
0.0
220
0.0
230
1.0
  0
LINE
  8
1
  6
HIDDEN
 62
     3
  5
6DE
 10
400.503
 20
175.905417
 30
0.0
 11
400.503
 21
186.62625
 31
0.0
  0
ARC
  8
1
  6
HIDDEN
 62
     3
  5
6DF
 10
397.93236
 20
186.273874
 30
0.0
 40
2.594679
 50
7.805294
 51
75.289281
210
0.0
220
0.0
230
1.0
  0
ARC
  8
1
  6
HIDDEN
 62
     3
  5
6E0
 10
397.93236
 20
176.257793
 30
0.0
 40
2.594679
 50
284.710719
 51
352.194706
210
0.0
220
0.0
230
1.0
  0
ARC
  8
1
  6
HIDDEN
 62
     3
  5
6E1
 10
418.503
 20
189.265833
 30
0.0
 40
2.0
 50
90.0
 51
180.0
210
0.0
220
0.0
230
1.0
  0
ARC
  8
1
  6
HIDDEN
 62
     3
  5
6E2
 10
418.503
 20
173.265833
 30
0.0
 40
2.0
 50
180.0
 51
270.0
210
0.0
220
0.0
230
1.0
  0
CIRCLE
  8
1
  6
CONTINUOUS
 62
     3
  5
6E3
 10
414.003
 20
181.265833
 30
0.0
 40
3.0
210
0.0
220
0.0
230
1.0
  0
LINE
  8
1
  6
HIDDEN
 62
     3
  5
6E4
 10
416.503
 20
173.265833
 30
0.0
 11
416.503
 21
178.265833
 31
0.0
  0
LINE
  8
1
  6
HIDDEN
 62
     3
  5
6E5
 10
416.503
 20
184.265833
 30
0.0
 11
416.503
 21
189.265833
 31
0.0
  0
LINE
  8
1
  6
CONTINUOUS
 62
     3
  5
6E6
 10
426.503
 20
184.265833
 30
0.0
 11
426.503
 21
178.265833
 31
0.0
  0
ARC
  8
1
  6
CONTINUOUS
 62
     3
  5
6E7
 10
417.503
 20
181.265833
 30
0.0
 40
3.0
 50
270.0
 51
90.0
210
0.0
220
0.0
230
1.0
  0
LINE
  8
1
  6
CONTINUOUS
 62
     3
  5
6E8
 10
414.003
 20
184.265833
 30
0.0
 11
417.503
 21
184.265833
 31
0.0
  0
LINE
  8
1
  6
CONTINUOUS
 62
     3
  5
6E9
 10
414.003
 20
178.265833
 30
0.0
 11
417.503
 21
178.265833
 31
0.0
  0
LINE
  8
1
  6
HIDDEN
 62
     3
  5
6EA
 10
417.503
 20
184.265833
 30
0.0
 11
423.003
 21
184.265833
 31
0.0
  0
LINE
  8
1
  6
CONTINUOUS
 62
     3
  5
6EB
 10
423.003
 20
184.265833
 30
0.0
 11
426.503
 21
184.265833
 31
0.0
  0
LINE
  8
1
  6
HIDDEN
 62
     3
  5
6EC
 10
417.503
 20
178.265833
 30
0.0
 11
423.003
 21
178.265833
 31
0.0
  0
LINE
  8
1
  6
CONTINUOUS
 62
     3
  5
6ED
 10
423.003
 20
178.265833
 30
0.0
 11
426.503
 21
178.265833
 31
0.0
  0
LINE
  8
1
  6
CONTINUOUS
 62
     7
  5
6EE
 10
414.003
 20
181.265833
 30
0.0
 11
414.003
 21
181.765833
 31
0.0
  0
LINE
  8
1
  6
CONTINUOUS
 62
     7
  5
6EF
 10
414.003
 20
181.265833
 30
0.0
 11
414.003
 21
180.765833
 31
0.0
  0
LINE
  8
1
  6
CONTINUOUS
 62
     7
  5
6F0
 10
428.003
 20
181.265833
 30
0.0
 11
415.503
 21
181.265833
 31
0.0
  0
LINE
  8
1
  6
CONTINUOUS
 62
     7
  5
6F1
 10
414.503
 20
181.265833
 30
0.0
 11
413.503
 21
181.265833
 31
0.0
  0
LINE
  8
1
  6
CONTINUOUS
 62
     7
  5
6F2
 10
412.503
 20
181.265833
 30
0.0
 11
409.503
 21
181.265833
 31
0.0
  0
LINE
  8
1
  6
CONTINUOUS
 62
     7
  5
6F3
 10
414.003
 20
182.765833
 30
0.0
 11
414.003
 21
192.765833
 31
0.0
  0
LINE
  8
1
  6
CONTINUOUS
 62
     7
  5
6F4
 10
414.003
 20
179.765833
 30
0.0
 11
414.003
 21
169.765833
 31
0.0
  0
LINE
  8
1
  6
CONTINUOUS
 62
     7
  5
6F5
 10
395.456333
 20
187.89425
 30
0.0
 11
386.456333
 21
187.89425
 31
0.0
  0
LINE
  8
1
  6
CONTINUOUS
 62
     7
  5
6F6
 10
395.456333
 20
174.637417
 30
0.0
 11
386.456333
 21
174.637417
 31
0.0
  0
LINE
  8
1
  6
CONTINUOUS
 62
     7
  5
6F7
 10
396.456333
 20
173.637417
 30
0.0
 11
396.456333
 21
155.637417
 31
0.0
  0
LINE
  8
1
  6
CONTINUOUS
 62
     7
  5
6F8
 10
426.503
 20
177.265833
 30
0.0
 11
426.503
 21
155.637417
 31
0.0
  0
LINE
  8
1
  6
CONTINUOUS
 62
     7
  5
6F9
 10
387.456333
 20
187.89425
 30
0.0
 11
387.456333
 21
174.637417
 31
0.0
  0
LINE
  8
1
  6
CONTINUOUS
 62
     7
  5
6FA
 10
396.456333
 20
156.637417
 30
0.0
 11
426.503
 21
156.637417
 31
0.0
  0
LINE
  8
1
  6
CONTINUOUS
 62
     7
  5
6FB
 10
412.003
 20
184.265833
 30
0.0
 11
401.503
 21
184.265833
 31
0.0
  0
LINE
  8
1
  6
CONTINUOUS
 62
     7
  5
6FC
 10
412.003
 20
178.265833
 30
0.0
 11
401.503
 21
178.265833
 31
0.0
  0
LINE
  8
1
  6
CONTINUOUS
 62
     7
  5
6FD
 10
402.503
 20
184.265833
 30
0.0
 11
402.503
 21
188.265833
 31
0.0
  0
LINE
  8
1
  6
CONTINUOUS
 62
     7
  5
6FE
 10
402.503
 20
178.265833
 30
0.0
 11
402.503
 21
174.265833
 31
0.0
  0
LINE
  8
1
  6
CONTINUOUS
 62
     7
  5
6FF
 10
427.503
 20
184.265833
 30
0.0
 11
432.503
 21
184.265833
 31
0.0
  0
LINE
  8
1
  6
CONTINUOUS
 62
     7
  5
700
 10
427.503
 20
178.265833
 30
0.0
 11
432.503
 21
178.265833
 31
0.0
  0
LINE
  8
1
  6
CONTINUOUS
 62
     7
  5
701
 10
423.003
 20
191.265833
 30
0.0
 11
453.003
 21
191.265833
 31
0.0
  0
LINE
  8
1
  6
CONTINUOUS
 62
     7
  5
702
 10
423.003
 20
171.265833
 30
0.0
 11
453.003
 21
171.265833
 31
0.0
  0
LINE
  8
1
  6
CONTINUOUS
 62
     3
  5
703
 10
453.003
 20
173.265833
 30
0.0
 11
453.003
 21
189.265833
 31
0.0
  0
ARC
  8
1
  6
CONTINUOUS
 62
     3
  5
704
 10
455.003
 20
189.265833
 30
0.0
 40
2.0
 50
90.0
 51
180.0
210
0.0
220
0.0
230
1.0
  0
ARC
  8
1
  6
CONTINUOUS
 62
     3
  5
705
 10
455.003
 20
173.265833
 30
0.0
 40
2.0
 50
180.0
 51
270.0
210
0.0
220
0.0
230
1.0
  0
LINE
  8
1
  6
CONTINUOUS
 62
     7
  5
706
 10
431.503
 20
184.265833
 30
0.0
 11
431.503
 21
188.265833
 31
0.0
  0
LINE
  8
1
  6
CONTINUOUS
 62
     7
  5
707
 10
431.503
 20
178.265833
 30
0.0
 11
431.503
 21
174.265833
 31
0.0
  0
LINE
  8
1
  6
CONTINUOUS
 62
     7
  5
708
 10
441.503
 20
171.265833
 30
0.0
 11
441.503
 21
191.265833
 31
0.0
  0
LINE
  8
1
  6
CONTINUOUS
 62
     3
  5
709
 10
455.003
 20
191.265833
 30
0.0
 11
467.003
 21
191.265833
 31
0.0
  0
LINE
  8
1
  6
CONTINUOUS
 62
     3
  5
70A
 10
455.003
 20
171.265833
 30
0.0
 11
467.003
 21
171.265833
 31
0.0
  0
LINE
  8
1
  6
CONTINUOUS
 62
     3
  5
70B
 10
467.003
 20
191.265833
 30
0.0
 11
468.003
 21
190.265833
 31
0.0
  0
LINE
  8
1
  6
CONTINUOUS
 62
     3
  5
70C
 10
468.003
 20
172.265833
 30
0.0
 11
467.003
 21
171.265833
 31
0.0
  0
LINE
  8
1
  6
CONTINUOUS
 62
     3
  5
70D
 10
463.661333
 20
183.765833
 30
0.0
 11
474.003
 21
183.765833
 31
0.0
  0
LINE
  8
1
  6
CONTINUOUS
 62
     3
  5
70E
 10
463.661333
 20
178.765833
 30
0.0
 11
474.003
 21
178.765833
 31
0.0
  0
LINE
  8
1
  6
CONTINUOUS
 62
     3
  5
70F
 10
474.003
 20
183.765833
 30
0.0
 11
474.003
 21
178.765833
 31
0.0
  0
LINE
  8
1
  6
CONTINUOUS
 62
     3
  5
710
 10
467.003
 20
171.265833
 30
0.0
 11
467.003
 21
178.765833
 31
0.0
  0
LINE
  8
1
  6
CONTINUOUS
 62
     3
  5
711
 10
467.003
 20
183.765833
 30
0.0
 11
467.003
 21
191.265833
 31
0.0
  0
LINE
  8
1
  6
CONTINUOUS
 62
     3
  5
712
 10
467.503
 20
171.765833
 30
0.0
 11
467.503
 21
178.765833
 31
0.0
  0
LINE
  8
1
  6
CONTINUOUS
 62
     3
  5
713
 10
467.503
 20
183.765833
 30
0.0
 11
467.503
 21
190.765833
 31
0.0
  0
LINE
  8
1
  6
CONTINUOUS
 62
     3
  5
714
 10
468.003
 20
172.265833
 30
0.0
 11
468.003
 21
178.765833
 31
0.0
  0
LINE
  8
1
  6
CONTINUOUS
 62
     3
  5
715
 10
468.003
 20
183.765833
 30
0.0
 11
468.003
 21
190.265833
 31
0.0
  0
CIRCLE
  8
1
  6
HIDDEN
 62
     3
  5
716
 10
462.003
 20
181.265833
 30
0.0
 40
3.0
210
0.0
220
0.0
230
1.0
  0
LINE
  8
1
  6
DASHED
 62
     3
  5
717
 10
458.753
 20
186.765833
 30
0.0
 11
458.753
 21
175.765833
 31
0.0
  0
ARC
  8
1
  6
DASHED
 62
     3
  5
718
 10
455.878
 20
186.400265
 30
0.0
 40
2.898149
 50
7.246503
 51
172.753497
210
0.0
220
0.0
230
1.0
  0
ARC
  8
1
  6
DASHED
 62
     3
  5
719
 10
455.878
 20
176.131401
 30
0.0
 40
2.898149
 50
187.246503
 51
352.753497
210
0.0
220
0.0
230
1.0
  0
LINE
  8
1
  6
CONTINUOUS
 62
     7
  5
71A
 10
451.003
 20
181.265833
 30
0.0
 11
460.503
 21
181.265833
 31
0.0
  0
LINE
  8
1
  6
CONTINUOUS
 62
     7
  5
71B
 10
461.503
 20
181.265833
 30
0.0
 11
462.503
 21
181.265833
 31
0.0
  0
LINE
  8
1
  6
CONTINUOUS
 62
     7
  5
71C
 10
463.503
 20
181.265833
 30
0.0
 11
476.003
 21
181.265833
 31
0.0
  0
LINE
  8
1
  6
CONTINUOUS
 62
     7
  5
71D
 10
391.62375
 20
131.799833
 30
0.0
 11
395.072417
 21
142.414
 31
0.0
  0
LINE
  8
1
  6
CONTINUOUS
 62
     7
  5
71E
 10
412.130333
 20
125.137
 30
0.0
 11
415.968417
 21
136.94975
 31
0.0
  0
LINE
  8
1
  6
DASHED
 62
     3
  5
71F
 10
416.586417
 20
138.851667
 30
0.0
 11
420.062833
 21
149.55125
 31
0.0
  0
LINE
  8
1
  6
CONTINUOUS
 62
     7
  5
720
 10
416.586417
 20
138.851667
 30
0.0
 11
416.586417
 21
121.265833
 31
0.0
  0
LINE
  8
1
  6
CONTINUOUS
 62
     7
  5
721
 10
391.93275
 20
132.750833
 30
0.0
 11
412.439333
 21
126.088
 31
0.0
  0
LINE
  8
1
  6
CONTINUOUS
 62
     7
  5
722
 10
396.003
 20
122.265833
 30
0.0
 11
416.586417
 21
122.265833
 31
0.0
  0
LINE
  8
1
  6
CONTINUOUS
 62
     7
  5
723
 10
396.003
 20
141.265833
 30
0.0
 11
396.003
 21
132.428333
 31
0.0
  0
LINE
  8
1
  6
CONTINUOUS
 62
     7
  5
724
 10
396.003
 20
130.428333
 30
0.0
 11
396.003
 21
121.265833
 31
0.0
  0
INSERT
  8
1
  6
CONTINUOUS
 62
     1
  5
725
  2
LDR
 10
391.93275
 20
132.750833
 30
0.0
 41
239.999999
 42
239.999999
 50
162.000403
210
0.0
220
0.0
230
1.0
  0
INSERT
  8
1
  6
CONTINUOUS
 62
     1
  5
726
  2
LDR
 10
412.439333
 20
126.088
 30
0.0
 41
239.999999
 42
239.999999
 50
342.000403
210
0.0
220
0.0
230
1.0
  0
INSERT
  8
1
  6
CONTINUOUS
 62
     1
  5
727
  2
LDR
 10
396.003
 20
122.265833
 30
0.0
 41
240.0
 42
240.0
 50
180.0
210
0.0
220
0.0
230
1.0
  0
INSERT
  8
1
  6
CONTINUOUS
 62
     1
  5
728
  2
LDR
 10
416.586417
 20
122.265833
 30
0.0
 41
240.0
 42
240.0
210
0.0
220
0.0
230
1.0
  0
INSERT
  8
1
  6
CONTINUOUS
 62
     1
  5
729
  2
LDR
 10
387.456333
 20
187.89425
 30
0.0
 41
240.0
 42
240.0
 50
90.0
210
0.0
220
0.0
230
1.0
  0
INSERT
  8
1
  6
CONTINUOUS
 62
     1
  5
72A
  2
LDR
 10
387.456333
 20
187.89425
 30
0.0
 41
240.0
 42
240.0
 50
90.0
210
0.0
220
0.0
230
1.0
  0
INSERT
  8
1
  6
CONTINUOUS
 62
     1
  5
72B
  2
LDR
 10
387.456333
 20
174.637417
 30
0.0
 41
240.0
 42
240.0
 50
270.0
210
0.0
220
0.0
230
1.0
  0
INSERT
  8
1
  6
CONTINUOUS
 62
     1
  5
72C
  2
LDR
 10
387.456333
 20
174.637417
 30
0.0
 41
240.0
 42
240.0
 50
270.0
210
0.0
220
0.0
230
1.0
  0
INSERT
  8
1
  6
CONTINUOUS
 62
     1
  5
72D
  2
LDR
 10
402.503
 20
184.265833
 30
0.0
 41
240.0
 42
240.0
 50
270.0
210
0.0
220
0.0
230
1.0
  0
INSERT
  8
1
  6
CONTINUOUS
 62
     1
  5
72E
  2
LDR
 10
402.503
 20
178.265833
 30
0.0
 41
240.0
 42
240.0
 50
90.0
210
0.0
220
0.0
230
1.0
  0
INSERT
  8
1
  6
CONTINUOUS
 62
     1
  5
72F
  2
LDR
 10
402.503
 20
178.265833
 30
0.0
 41
240.0
 42
240.0
 50
90.0
210
0.0
220
0.0
230
1.0
  0
INSERT
  8
1
  6
CONTINUOUS
 62
     1
  5
730
  2
LDR
 10
431.503
 20
184.265833
 30
0.0
 41
240.0
 42
240.0
 50
270.0
210
0.0
220
0.0
230
1.0
  0
INSERT
  8
1
  6
CONTINUOUS
 62
     1
  5
731
  2
LDR
 10
431.503
 20
184.265833
 30
0.0
 41
240.0
 42
240.0
 50
270.0
210
0.0
220
0.0
230
1.0
  0
INSERT
  8
1
  6
CONTINUOUS
 62
     1
  5
732
  2
LDR
 10
431.503
 20
178.265833
 30
0.0
 41
240.0
 42
240.0
 50
90.0
210
0.0
220
0.0
230
1.0
  0
INSERT
  8
1
  6
CONTINUOUS
 62
     1
  5
733
  2
LDR
 10
431.503
 20
178.265833
 30
0.0
 41
240.0
 42
240.0
 50
90.0
210
0.0
220
0.0
230
1.0
  0
INSERT
  8
1
  6
CONTINUOUS
 62
     1
  5
734
  2
LDR
 10
441.503
 20
191.265833
 30
0.0
 41
240.0
 42
240.0
 50
90.0
210
0.0
220
0.0
230
1.0
  0
INSERT
  8
1
  6
CONTINUOUS
 62
     1
  5
735
  2
LDR
 10
441.503
 20
191.265833
 30
0.0
 41
240.0
 42
240.0
 50
90.0
210
0.0
220
0.0
230
1.0
  0
INSERT
  8
1
  6
CONTINUOUS
 62
     1
  5
736
  2
LDR
 10
441.503
 20
171.265833
 30
0.0
 41
240.0
 42
240.0
 50
270.0
210
0.0
220
0.0
230
1.0
  0
INSERT
  8
1
  6
CONTINUOUS
 62
     1
  5
737
  2
LDR
 10
441.503
 20
171.265833
 30
0.0
 41
240.0
 42
240.0
 50
270.0
210
0.0
220
0.0
230
1.0
  0
INSERT
  8
1
  6
CONTINUOUS
 62
     1
  5
738
  2
LDR
 10
396.456333
 20
156.637417
 30
0.0
 41
240.0
 42
240.0
 50
180.0
210
0.0
220
0.0
230
1.0
  0
INSERT
  8
1
  6
CONTINUOUS
 62
     1
  5
739
  2
LDR
 10
396.456333
 20
156.637417
 30
0.0
 41
240.0
 42
240.0
 50
180.0
210
0.0
220
0.0
230
1.0
  0
INSERT
  8
1
  6
CONTINUOUS
 62
     1
  5
73A
  2
LDR
 10
426.503
 20
156.637417
 30
0.0
 41
240.0
 42
240.0
210
0.0
220
0.0
230
1.0
  0
TEXT
  8
1
  6
CONTINUOUS
 62
     7
  5
73B
 10
384.2145
 20
179.845
 30
0.0
 40
2.5
  1
1"
  7
MONOTXT
 72
     1
 11
385.444833
 21
179.845
 31
0.0
210
0.0
220
0.0
230
1.0
  0
TEXT
  8
1
  6
CONTINUOUS
 62
     7
  5
73C
 10
401.717917
 20
180.038
 30
0.0
 40
2.5
  1
 7/16 "
  7
MONOTXT
 72
     1
 11
404.739583
 21
180.038
 31
0.0
210
0.0
220
0.0
230
1.0
  0
TEXT
  8
1
  6
CONTINUOUS
 62
     7
  5
73D
 10
428.386417
 20
180.1345
 30
0.0
 40
2.5
  1
.360"
  7
MONOTXT
 72
     1
 11
433.199417
 21
180.1345
 31
0.0
210
0.0
220
0.0
230
1.0
  0
TEXT
  8
1
  6
CONTINUOUS
 62
     7
  5
73E
 10
442.174083
 20
180.424
 30
0.0
 40
2.5
  1
1 3/8 "
  7
MONOTXT
 72
     1
 11
445.451583
 21
180.424
 31
0.0
210
0.0
220
0.0
230
1.0
  0
TEXT
  8
1
  6
CONTINUOUS
 62
     7
  5
73F
 10
416.461083
 20
112.472917
 30
0.0
 40
3.0
  1
POST CLIP
  7
MONOTXT
 72
     1
 11
428.44925
 21
112.472917
 31
0.0
210
0.0
220
0.0
230
1.0
  0
LINE
  8
1
  6
CONTINUOUS
 62
     7
  5
740
 10
415.124083
 20
111.700833
 30
0.0
 11
442.220667
 21
111.700833
 31
0.0
  0
LINE
  8
1
  6
HIDDEN
 62
     4
  5
741
 10
492.003
 20
179.015833
 30
0.0
 11
492.003
 21
183.515833
 31
0.0
  0
LINE
  8
1
  6
HIDDEN
 62
     4
  5
742
 10
511.503
 20
179.015833
 30
0.0
 11
511.503
 21
183.515833
 31
0.0
  0
LINE
  8
1
  6
HIDDEN
 62
     4
  5
743
 10
493.003
 20
179.015833
 30
0.0
 11
493.003
 21
183.515833
 31
0.0
  0
LINE
  8
1
  6
HIDDEN
 62
     4
  5
744
 10
510.503
 20
179.015833
 30
0.0
 11
510.503
 21
183.515833
 31
0.0
  0
ARC
  8
1
  6
HIDDEN
 62
     4
  5
745
 10
494.003
 20
183.515833
 30
0.0
 40
2.0
 50
90.0
 51
180.0
210
0.0
220
0.0
230
1.0
  0
ARC
  8
1
  6
HIDDEN
 62
     4
  5
746
 10
509.503
 20
183.515833
 30
0.0
 40
2.0
 50
0.0
 51
90.0
210
0.0
220
0.0
230
1.0
  0
ARC
  8
1
  6
HIDDEN
 62
     4
  5
747
 10
509.503
 20
179.015833
 30
0.0
 40
2.0
 50
270.0
 51
0.0
210
0.0
220
0.0
230
1.0
  0
ARC
  8
1
  6
HIDDEN
 62
     4
  5
748
 10
494.003
 20
179.015833
 30
0.0
 40
2.0
 50
180.0
 51
270.0
210
0.0
220
0.0
230
1.0
  0
ARC
  8
1
  6
HIDDEN
 62
     4
  5
749
 10
494.003
 20
183.515833
 30
0.0
 40
1.0
 50
90.0
 51
180.0
210
0.0
220
0.0
230
1.0
  0
ARC
  8
1
  6
HIDDEN
 62
     4
  5
74A
 10
509.503
 20
183.515833
 30
0.0
 40
1.0
 50
0.0
 51
90.0
210
0.0
220
0.0
230
1.0
  0
ARC
  8
1
  6
HIDDEN
 62
     4
  5
74B
 10
509.503
 20
179.015833
 30
0.0
 40
1.0
 50
270.0
 51
0.0
210
0.0
220
0.0
230
1.0
  0
ARC
  8
1
  6
HIDDEN
 62
     4
  5
74C
 10
494.003
 20
179.015833
 30
0.0
 40
1.0
 50
180.0
 51
270.0
210
0.0
220
0.0
230
1.0
  0
LINE
  8
1
  6
CONTINUOUS
 62
     4
  5
74D
 10
497.503
 20
179.015833
 30
0.0
 11
497.503
 21
183.515833
 31
0.0
  0
LINE
  8
1
  6
CONTINUOUS
 62
     4
  5
74E
 10
506.003
 20
179.015833
 30
0.0
 11
506.003
 21
183.515833
 31
0.0
  0
LINE
  8
1
  6
HIDDEN
 62
     4
  5
74F
 10
494.003
 20
185.515833
 30
0.0
 11
499.503
 21
185.515833
 31
0.0
  0
LINE
  8
1
  6
HIDDEN
 62
     4
  5
750
 10
504.003
 20
185.515833
 30
0.0
 11
509.503
 21
185.515833
 31
0.0
  0
LINE
  8
1
  6
HIDDEN
 62
     4
  5
751
 10
494.003
 20
177.015833
 30
0.0
 11
499.503
 21
177.015833
 31
0.0
  0
LINE
  8
1
  6
HIDDEN
 62
     4
  5
752
 10
504.003
 20
177.015833
 30
0.0
 11
509.503
 21
177.015833
 31
0.0
  0
LINE
  8
1
  6
CONTINUOUS
 62
     4
  5
753
 10
499.503
 20
185.515833
 30
0.0
 11
504.003
 21
185.515833
 31
0.0
  0
LINE
  8
1
  6
CONTINUOUS
 62
     4
  5
754
 10
499.503
 20
177.015833
 30
0.0
 11
504.003
 21
177.015833
 31
0.0
  0
LINE
  8
1
  6
CONTINUOUS
 62
     4
  5
755
 10
499.503
 20
184.515833
 30
0.0
 11
504.003
 21
184.515833
 31
0.0
  0
LINE
  8
1
  6
CONTINUOUS
 62
     4
  5
756
 10
499.503
 20
178.015833
 30
0.0
 11
504.003
 21
178.015833
 31
0.0
  0
LINE
  8
1
  6
CONTINUOUS
 62
     4
  5
757
 10
498.503
 20
179.015833
 30
0.0
 11
498.503
 21
183.515833
 31
0.0
  0
LINE
  8
1
  6
CONTINUOUS
 62
     4
  5
758
 10
505.003
 20
179.015833
 30
0.0
 11
505.003
 21
183.515833
 31
0.0
  0
LINE
  8
1
  6
HIDDEN
 62
     4
  5
759
 10
494.003
 20
184.515833
 30
0.0
 11
497.770917
 21
184.515833
 31
0.0
  0
LINE
  8
1
  6
HIDDEN
 62
     4
  5
75A
 10
505.735083
 20
184.515833
 30
0.0
 11
509.503
 21
184.515833
 31
0.0
  0
LINE
  8
1
  6
HIDDEN
 62
     4
  5
75B
 10
494.003
 20
178.015833
 30
0.0
 11
497.770917
 21
178.015833
 31
0.0
  0
LINE
  8
1
  6
HIDDEN
 62
     4
  5
75C
 10
505.735083
 20
178.015833
 30
0.0
 11
509.503
 21
178.015833
 31
0.0
  0
ARC
  8
1
  6
CONTINUOUS
 62
     4
  5
75D
 10
499.503
 20
183.515833
 30
0.0
 40
1.0
 50
90.0
 51
180.0
210
0.0
220
0.0
230
1.0
  0
ARC
  8
1
  6
CONTINUOUS
 62
     4
  5
75E
 10
504.003
 20
183.515833
 30
0.0
 40
1.0
 50
0.0
 51
90.0
210
0.0
220
0.0
230
1.0
  0
ARC
  8
1
  6
CONTINUOUS
 62
     4
  5
75F
 10
504.003
 20
179.015833
 30
0.0
 40
1.0
 50
270.0
 51
0.0
210
0.0
220
0.0
230
1.0
  0
ARC
  8
1
  6
CONTINUOUS
 62
     4
  5
760
 10
499.503
 20
179.015833
 30
0.0
 40
1.0
 50
180.0
 51
270.0
210
0.0
220
0.0
230
1.0
  0
ARC
  8
1
  6
CONTINUOUS
 62
     4
  5
761
 10
499.503
 20
183.515833
 30
0.0
 40
2.0
 50
90.0
 51
180.0
210
0.0
220
0.0
230
1.0
  0
ARC
  8
1
  6
CONTINUOUS
 62
     4
  5
762
 10
504.003
 20
183.515833
 30
0.0
 40
2.0
 50
0.0
 51
90.0
210
0.0
220
0.0
230
1.0
  0
ARC
  8
1
  6
CONTINUOUS
 62
     4
  5
763
 10
504.003
 20
179.015833
 30
0.0
 40
2.0
 50
270.0
 51
0.0
210
0.0
220
0.0
230
1.0
  0
ARC
  8
1
  6
CONTINUOUS
 62
     4
  5
764
 10
499.503
 20
179.015833
 30
0.0
 40
2.0
 50
180.0
 51
270.0
210
0.0
220
0.0
230
1.0
  0
LINE
  8
1
  6
CONTINUOUS
 62
     7
  5
765
 10
501.753
 20
187.015833
 30
0.0
 11
501.753
 21
182.765833
 31
0.0
  0
LINE
  8
1
  6
CONTINUOUS
 62
     7
  5
766
 10
501.753
 20
179.765833
 30
0.0
 11
501.753
 21
175.515833
 31
0.0
  0
LINE
  8
1
  6
CONTINUOUS
 62
     7
  5
767
 10
496.003
 20
181.265833
 30
0.0
 11
500.253
 21
181.265833
 31
0.0
  0
LINE
  8
1
  6
CONTINUOUS
 62
     7
  5
768
 10
503.253
 20
181.265833
 30
0.0
 11
507.503
 21
181.265833
 31
0.0
  0
LINE
  8
1
  6
CONTINUOUS
 62
     7
  5
769
 10
501.753
 20
181.765833
 30
0.0
 11
501.753
 21
180.765833
 31
0.0
  0
LINE
  8
1
  6
CONTINUOUS
 62
     7
  5
76A
 10
501.253
 20
181.265833
 30
0.0
 11
502.253
 21
181.265833
 31
0.0
  0
CIRCLE
  8
1
  6
DASHED
 62
     4
  5
76B
 10
501.753
 20
181.265833
 30
0.0
 40
2.5
210
0.0
220
0.0
230
1.0
  0
CIRCLE
  8
1
  6
HIDDEN
 62
     4
  5
76C
 10
501.753
 20
181.265833
 30
0.0
 40
1.75
210
0.0
220
0.0
230
1.0
  0
LINE
  8
1
  6
CONTINUOUS
 62
     7
  5
76D
 10
492.003
 20
177.015833
 30
0.0
 11
492.003
 21
169.015833
 31
0.0
  0
LINE
  8
1
  6
CONTINUOUS
 62
     7
  5
76E
 10
511.503
 20
177.015833
 30
0.0
 11
511.503
 21
169.015833
 31
0.0
  0
LINE
  8
1
  6
CONTINUOUS
 62
     7
  5
76F
 10
492.003
 20
170.015833
 30
0.0
 11
511.503
 21
170.015833
 31
0.0
  0
INSERT
  8
1
  6
CONTINUOUS
 62
     1
  5
770
  2
LDR
 10
492.003
 20
170.015833
 30
0.0
 41
240.0
 42
240.0
 50
180.0
210
0.0
220
0.0
230
1.0
  0
INSERT
  8
1
  6
CONTINUOUS
 62
     1
  5
771
  2
LDR
 10
492.003
 20
170.015833
 30
0.0
 41
240.0
 42
240.0
 50
180.0
210
0.0
220
0.0
230
1.0
  0
INSERT
  8
1
  6
CONTINUOUS
 62
     1
  5
772
  2
LDR
 10
511.503
 20
170.015833
 30
0.0
 41
240.0
 42
240.0
210
0.0
220
0.0
230
1.0
  0
LINE
  8
1
  6
CONTINUOUS
 62
     4
  5
773
 10
532.503
 20
177.015833
 30
0.0
 11
532.503
 21
185.515833
 31
0.0
  0
LINE
  8
1
  6
CONTINUOUS
 62
     4
  5
774
 10
534.753
 20
177.015833
 30
0.0
 11
534.753
 21
185.515833
 31
0.0
  0
LINE
  8
1
  6
CONTINUOUS
 62
     4
  5
775
 10
532.503
 20
185.515833
 30
0.0
 11
534.753
 21
185.515833
 31
0.0
  0
LINE
  8
1
  6
CONTINUOUS
 62
     4
  5
776
 10
532.503
 20
177.015833
 30
0.0
 11
534.753
 21
177.015833
 31
0.0
  0
LINE
  8
1
  6
HIDDEN
 62
     4
  5
777
 10
532.753
 20
177.015833
 30
0.0
 11
532.753
 21
185.515833
 31
0.0
  0
LINE
  8
1
  6
CONTINUOUS
 62
     7
  5
778
 10
530.503
 20
181.265833
 30
0.0
 11
560.253
 21
181.265833
 31
0.0
  0
LINE
  8
1
  6
CONTINUOUS
 62
     4
  5
779
 10
562.253
 20
176.515833
 30
0.0
 11
562.253
 21
186.015833
 31
0.0
  0
LINE
  8
1
  6
CONTINUOUS
 62
     4
  5
77A
 10
563.003
 20
176.515833
 30
0.0
 11
563.003
 21
186.015833
 31
0.0
  0
LINE
  8
1
  6
CONTINUOUS
 62
     4
  5
77B
 10
562.253
 20
186.015833
 30
0.0
 11
563.003
 21
186.015833
 31
0.0
  0
LINE
  8
1
  6
CONTINUOUS
 62
     4
  5
77C
 10
562.253
 20
176.515833
 30
0.0
 11
563.003
 21
176.515833
 31
0.0
  0
LINE
  8
1
  6
CONTINUOUS
 62
     4
  5
77D
 10
565.503
 20
177.015833
 30
0.0
 11
565.503
 21
185.515833
 31
0.0
  0
LINE
  8
1
  6
CONTINUOUS
 62
     4
  5
77E
 10
572.003
 20
179.015833
 30
0.0
 11
572.003
 21
183.515833
 31
0.0
  0
LINE
  8
1
  6
CONTINUOUS
 62
     4
  5
77F
 10
565.503
 20
185.515833
 30
0.0
 11
570.003
 21
185.515833
 31
0.0
  0
LINE
  8
1
  6
CONTINUOUS
 62
     4
  5
780
 10
565.503
 20
177.015833
 30
0.0
 11
570.003
 21
177.015833
 31
0.0
  0
ARC
  8
1
  6
CONTINUOUS
 62
     4
  5
781
 10
570.003
 20
183.515833
 30
0.0
 40
2.0
 50
0.0
 51
90.0
210
0.0
220
0.0
230
1.0
  0
ARC
  8
1
  6
CONTINUOUS
 62
     4
  5
782
 10
570.003
 20
179.015833
 30
0.0
 40
2.0
 50
270.0
 51
360.0
210
0.0
220
0.0
230
1.0
  0
LINE
  8
1
  6
CONTINUOUS
 62
     4
  5
783
 10
565.503
 20
183.515833
 30
0.0
 11
570.003
 21
183.515833
 31
0.0
  0
LINE
  8
1
  6
CONTINUOUS
 62
     4
  5
784
 10
565.503
 20
179.015833
 30
0.0
 11
570.003
 21
179.015833
 31
0.0
  0
ARC
  8
1
  6
CONTINUOUS
 62
     4
  5
785
 10
569.977607
 20
184.515833
 30
0.0
 40
1.000322
 50
271.454572
 51
88.545428
210
0.0
220
0.0
230
1.0
  0
ARC
  8
1
  6
CONTINUOUS
 62
     4
  5
786
 10
569.977607
 20
178.015833
 30
0.0
 40
1.000322
 50
271.454572
 51
88.545428
210
0.0
220
0.0
230
1.0
  0
ARC
  8
1
  6
CONTINUOUS
 62
     4
  5
787
 10
567.781409
 20
181.265833
 30
0.0
 40
3.161956
 50
314.635997
 51
45.364003
210
0.0
220
0.0
230
1.0
  0
LINE
  8
1
  6
CONTINUOUS
 62
     7
  5
788
 10
561.253
 20
181.265833
 30
0.0
 11
573.503
 21
181.265833
 31
0.0
  0
LINE
  8
1
  6
CONTINUOUS
 62
     7
  5
789
 10
513.503
 20
185.515833
 30
0.0
 11
530.503
 21
185.515833
 31
0.0
  0
LINE
  8
1
  6
CONTINUOUS
 62
     7
  5
78A
 10
513.503
 20
177.015833
 30
0.0
 11
530.503
 21
177.015833
 31
0.0
  0
LINE
  8
1
  6
CONTINUOUS
 62
     7
  5
78B
 10
522.003
 20
189.515833
 30
0.0
 11
522.003
 21
185.515833
 31
0.0
  0
LINE
  8
1
  6
CONTINUOUS
 62
     7
  5
78C
 10
522.003
 20
177.015833
 30
0.0
 11
522.003
 21
173.015833
 31
0.0
  0
LINE
  8
1
  6
CONTINUOUS
 62
     7
  5
78D
 10
532.503
 20
176.015833
 30
0.0
 11
532.503
 21
169.015833
 31
0.0
  0
LINE
  8
1
  6
CONTINUOUS
 62
     7
  5
78E
 10
534.753
 20
176.015833
 30
0.0
 11
534.753
 21
169.015833
 31
0.0
  0
LINE
  8
1
  6
CONTINUOUS
 62
     7
  5
78F
 10
562.628
 20
176.515833
 30
0.0
 11
562.628
 21
169.015833
 31
0.0
  0
LINE
  8
1
  6
CONTINUOUS
 62
     7
  5
790
 10
562.628
 20
169.015833
 30
0.0
 11
565.128
 21
169.015833
 31
0.0
  0
INSERT
  8
1
  6
CONTINUOUS
 62
     1
  5
791
  2
LDR
 10
562.628
 20
176.515833
 30
0.0
 41
240.0
 42
240.0
 50
90.0
210
0.0
220
0.0
230
1.0
  0
LINE
  8
1
  6
CONTINUOUS
 62
     4
  5
792
 10
557.253
 20
179.765833
 30
0.0
 11
557.253
 21
182.765833
 31
0.0
  0
LINE
  8
1
  6
CONTINUOUS
 62
     4
  5
793
 10
534.753
 20
183.515833
 30
0.0
 11
556.503
 21
183.515833
 31
0.0
  0
LINE
  8
1
  6
CONTINUOUS
 62
     4
  5
794
 10
534.753
 20
179.015833
 30
0.0
 11
556.503
 21
179.015833
 31
0.0
  0
LINE
  8
1
  6
CONTINUOUS
 62
     4
  5
795
 10
556.503
 20
179.015833
 30
0.0
 11
556.503
 21
183.515833
 31
0.0
  0
LINE
  8
1
  6
CONTINUOUS
 62
     4
  5
796
 10
555.753
 20
179.015833
 30
0.0
 11
555.753
 21
183.515833
 31
0.0
  0
LINE
  8
1
  6
CONTINUOUS
 62
     4
  5
797
 10
555.003
 20
179.015833
 30
0.0
 11
555.003
 21
183.515833
 31
0.0
  0
LINE
  8
1
  6
CONTINUOUS
 62
     4
  5
798
 10
554.253
 20
179.015833
 30
0.0
 11
554.253
 21
183.515833
 31
0.0
  0
LINE
  8
1
  6
CONTINUOUS
 62
     4
  5
799
 10
553.503
 20
179.015833
 30
0.0
 11
553.503
 21
183.515833
 31
0.0
  0
LINE
  8
1
  6
CONTINUOUS
 62
     4
  5
79A
 10
552.753
 20
179.015833
 30
0.0
 11
552.753
 21
183.515833
 31
0.0
  0
LINE
  8
1
  6
CONTINUOUS
 62
     4
  5
79B
 10
552.003
 20
179.015833
 30
0.0
 11
552.003
 21
183.515833
 31
0.0
  0
LINE
  8
1
  6
CONTINUOUS
 62
     4
  5
79C
 10
551.253
 20
179.015833
 30
0.0
 11
551.253
 21
183.515833
 31
0.0
  0
LINE
  8
1
  6
CONTINUOUS
 62
     4
  5
79D
 10
550.503
 20
179.015833
 30
0.0
 11
550.503
 21
183.515833
 31
0.0
  0
LINE
  8
1
  6
CONTINUOUS
 62
     4
  5
79E
 10
549.753
 20
179.015833
 30
0.0
 11
549.753
 21
183.515833
 31
0.0
  0
LINE
  8
1
  6
CONTINUOUS
 62
     4
  5
79F
 10
549.003
 20
179.015833
 30
0.0
 11
549.003
 21
183.515833
 31
0.0
  0
LINE
  8
1
  6
CONTINUOUS
 62
     4
  5
7A0
 10
548.253
 20
179.015833
 30
0.0
 11
548.253
 21
183.515833
 31
0.0
  0
LINE
  8
1
  6
CONTINUOUS
 62
     4
  5
7A1
 10
542.253
 20
179.015833
 30
0.0
 11
542.253
 21
183.515833
 31
0.0
  0
LINE
  8
1
  6
CONTINUOUS
 62
     4
  5
7A2
 10
547.503
 20
179.015833
 30
0.0
 11
547.503
 21
183.515833
 31
0.0
  0
LINE
  8
1
  6
CONTINUOUS
 62
     4
  5
7A3
 10
546.753
 20
179.015833
 30
0.0
 11
546.753
 21
183.515833
 31
0.0
  0
LINE
  8
1
  6
CONTINUOUS
 62
     4
  5
7A4
 10
546.003
 20
179.015833
 30
0.0
 11
546.003
 21
183.515833
 31
0.0
  0
LINE
  8
1
  6
CONTINUOUS
 62
     4
  5
7A5
 10
545.253
 20
179.015833
 30
0.0
 11
545.253
 21
183.515833
 31
0.0
  0
LINE
  8
1
  6
CONTINUOUS
 62
     4
  5
7A6
 10
544.503
 20
179.015833
 30
0.0
 11
544.503
 21
183.515833
 31
0.0
  0
LINE
  8
1
  6
CONTINUOUS
 62
     4
  5
7A7
 10
543.753
 20
179.015833
 30
0.0
 11
543.753
 21
183.515833
 31
0.0
  0
LINE
  8
1
  6
CONTINUOUS
 62
     4
  5
7A8
 10
543.003
 20
179.015833
 30
0.0
 11
543.003
 21
183.515833
 31
0.0
  0
LINE
  8
1
  6
CONTINUOUS
 62
     4
  5
7A9
 10
556.503
 20
183.515833
 30
0.0
 11
557.253
 21
182.765833
 31
0.0
  0
LINE
  8
1
  6
CONTINUOUS
 62
     4
  5
7AA
 10
557.253
 20
179.765833
 30
0.0
 11
556.503
 21
179.015833
 31
0.0
  0
LINE
  8
1
  6
CONTINUOUS
 62
     4
  5
7AB
 10
542.628
 20
180.015833
 30
0.0
 11
542.628
 21
182.515833
 31
0.0
  0
LINE
  8
1
  6
CONTINUOUS
 62
     4
  5
7AC
 10
543.378
 20
180.015833
 30
0.0
 11
543.378
 21
182.515833
 31
0.0
  0
LINE
  8
1
  6
CONTINUOUS
 62
     4
  5
7AD
 10
544.128
 20
180.015833
 30
0.0
 11
544.128
 21
182.515833
 31
0.0
  0
LINE
  8
1
  6
CONTINUOUS
 62
     4
  5
7AE
 10
544.878
 20
180.015833
 30
0.0
 11
544.878
 21
182.515833
 31
0.0
  0
LINE
  8
1
  6
CONTINUOUS
 62
     4
  5
7AF
 10
545.628
 20
180.015833
 30
0.0
 11
545.628
 21
182.515833
 31
0.0
  0
LINE
  8
1
  6
CONTINUOUS
 62
     4
  5
7B0
 10
546.378
 20
180.015833
 30
0.0
 11
546.378
 21
182.515833
 31
0.0
  0
LINE
  8
1
  6
CONTINUOUS
 62
     4
  5
7B1
 10
547.128
 20
180.015833
 30
0.0
 11
547.128
 21
182.515833
 31
0.0
  0
LINE
  8
1
  6
CONTINUOUS
 62
     4
  5
7B2
 10
547.878
 20
180.015833
 30
0.0
 11
547.878
 21
182.515833
 31
0.0
  0
LINE
  8
1
  6
CONTINUOUS
 62
     4
  5
7B3
 10
548.628
 20
180.015833
 30
0.0
 11
548.628
 21
182.515833
 31
0.0
  0
LINE
  8
1
  6
CONTINUOUS
 62
     4
  5
7B4
 10
549.378
 20
180.015833
 30
0.0
 11
549.378
 21
182.515833
 31
0.0
  0
LINE
  8
1
  6
CONTINUOUS
 62
     4
  5
7B5
 10
550.128
 20
180.015833
 30
0.0
 11
550.128
 21
182.515833
 31
0.0
  0
LINE
  8
1
  6
CONTINUOUS
 62
     4
  5
7B6
 10
550.878
 20
180.015833
 30
0.0
 11
550.878
 21
182.515833
 31
0.0
  0
LINE
  8
1
  6
CONTINUOUS
 62
     4
  5
7B7
 10
551.628
 20
180.015833
 30
0.0
 11
551.628
 21
182.515833
 31
0.0
  0
LINE
  8
1
  6
CONTINUOUS
 62
     4
  5
7B8
 10
552.378
 20
180.015833
 30
0.0
 11
552.378
 21
182.515833
 31
0.0
  0
LINE
  8
1
  6
CONTINUOUS
 62
     4
  5
7B9
 10
553.128
 20
180.015833
 30
0.0
 11
553.128
 21
182.515833
 31
0.0
  0
LINE
  8
1
  6
CONTINUOUS
 62
     4
  5
7BA
 10
553.878
 20
180.015833
 30
0.0
 11
553.878
 21
182.515833
 31
0.0
  0
LINE
  8
1
  6
CONTINUOUS
 62
     4
  5
7BB
 10
554.628
 20
180.015833
 30
0.0
 11
554.628
 21
182.515833
 31
0.0
  0
LINE
  8
1
  6
CONTINUOUS
 62
     4
  5
7BC
 10
555.378
 20
180.015833
 30
0.0
 11
555.378
 21
182.515833
 31
0.0
  0
LINE
  8
1
  6
CONTINUOUS
 62
     4
  5
7BD
 10
556.128
 20
180.015833
 30
0.0
 11
556.128
 21
182.515833
 31
0.0
  0
LINE
  8
1
  6
CONTINUOUS
 62
     7
  5
7BE
 10
557.253
 20
177.765833
 30
0.0
 11
557.253
 21
169.015833
 31
0.0
  0
INSERT
  8
1
  6
CONTINUOUS
 62
     1
  5
7BF
  2
LDR
 10
522.003
 20
185.515833
 30
0.0
 41
240.0
 42
240.0
 50
270.0
210
0.0
220
0.0
230
1.0
  0
INSERT
  8
1
  6
CONTINUOUS
 62
     1
  5
7C0
  2
LDR
 10
522.003
 20
185.515833
 30
0.0
 41
240.0
 42
240.0
 50
270.0
210
0.0
220
0.0
230
1.0
  0
INSERT
  8
1
  6
CONTINUOUS
 62
     1
  5
7C1
  2
LDR
 10
522.003
 20
177.015833
 30
0.0
 41
240.0
 42
240.0
 50
90.0
210
0.0
220
0.0
230
1.0
  0
LINE
  8
1
  6
CONTINUOUS
 62
     7
  5
7C2
 10
534.753
 20
170.015833
 30
0.0
 11
557.253
 21
170.015833
 31
0.0
  0
LINE
  8
1
  6
CONTINUOUS
 62
     7
  5
7C3
 10
532.503
 20
170.015833
 30
0.0
 11
528.503
 21
170.015833
 31
0.0
  0
INSERT
  8
1
  6
CONTINUOUS
 62
     1
  5
7C4
  2
LDR
 10
532.503
 20
170.015833
 30
0.0
 41
240.0
 42
240.0
210
0.0
220
0.0
230
1.0
  0
INSERT
  8
1
  6
CONTINUOUS
 62
     1
  5
7C5
  2
LDR
 10
532.503
 20
170.015833
 30
0.0
 41
240.0
 42
240.0
210
0.0
220
0.0
230
1.0
  0
INSERT
  8
1
  6
CONTINUOUS
 62
     1
  5
7C6
  2
LDR
 10
534.753
 20
170.015833
 30
0.0
 41
240.0
 42
240.0
 50
180.0
210
0.0
220
0.0
230
1.0
  0
INSERT
  8
1
  6
CONTINUOUS
 62
     1
  5
7C7
  2
LDR
 10
534.753
 20
170.015833
 30
0.0
 41
240.0
 42
240.0
 50
180.0
210
0.0
220
0.0
230
1.0
  0
INSERT
  8
1
  6
CONTINUOUS
 62
     1
  5
7C8
  2
LDR
 10
557.253
 20
170.015833
 30
0.0
 41
240.0
 42
240.0
210
0.0
220
0.0
230
1.0
  0
LINE
  8
1
  6
CONTINUOUS
 62
     7
  5
7C9
 10
545.628
 20
183.515833
 30
0.0
 11
537.954833
 21
197.6165
 31
0.0
  0
LINE
  8
1
  6
CONTINUOUS
 62
     7
  5
7CA
 10
537.954833
 20
197.6165
 30
0.0
 11
534.583583
 21
197.6165
 31
0.0
  0
INSERT
  8
1
  6
CONTINUOUS
 62
     1
  5
7CB
  2
LDR
 10
545.628
 20
183.515833
 30
0.0
 41
240.0
 42
240.0
 50
298.553728
210
0.0
220
0.0
230
1.0
  0
TEXT
  8
1
  6
CONTINUOUS
 62
     7
  5
7CC
 10
493.182833
 20
196.0295
 30
0.0
 40
2.5
  1
 3/8 " 16 U.N.C. 2A THD.
  7
MONOTXT
 72
     1
 11
514.058833
 21
196.0295
 31
0.0
210
0.0
220
0.0
230
1.0
  0
TEXT
  8
1
  6
CONTINUOUS
 62
     7
  5
7CD
 10
517.253917
 20
180.259
 30
0.0
 40
2.5
  1
.641"
  7
MONOTXT
 72
     1
 11
521.594417
 21
180.259
 31
0.0
210
0.0
220
0.0
230
1.0
  0
TEXT
  8
1
  6
CONTINUOUS
 62
     7
  5
7CE
 10
500.236
 20
166.869
 30
0.0
 40
2.5
  1
1"
  7
MONOTXT
 72
     1
 11
501.466333
 21
166.869
 31
0.0
210
0.0
220
0.0
230
1.0
  0
TEXT
  8
1
  6
CONTINUOUS
 62
     7
  5
7CF
 10
523.203583
 20
169.547
 30
0.0
 40
2.5
  1
 3/16 "
  7
MONOTXT
 72
     1
 11
526.22525
 21
169.547
 31
0.0
210
0.0
220
0.0
230
1.0
  0
TEXT
  8
1
  6
CONTINUOUS
 62
     7
  5
7D0
 10
544.195917
 20
166.0755
 30
0.0
 40
2.5
  1
1 3/4 "
  7
MONOTXT
 72
     1
 11
547.473417
 21
166.0755
 31
0.0
210
0.0
220
0.0
230
1.0
  0
TEXT
  8
1
  6
CONTINUOUS
 62
     7
  5
7D1
 10
514.02425
 20
158.835
 30
0.0
 40
3.0
  1
POST CLIP BOLT, NUT AND WASHER
  7
MONOTXT
 72
     1
 11
556.012417
 21
158.835
 31
0.0
210
0.0
220
0.0
230
1.0
  0
LINE
  8
1
  6
CONTINUOUS
 62
     7
  5
7D2
 10
512.5715
 20
158.0415
 30
0.0
 11
600.2695
 21
158.0415
 31
0.0
  0
LINE
  8
1
  6
CONTINUOUS
 62
    30
  5
7D3
 10
60.14925
 20
75.294417
 30
0.0
 11
60.14925
 21
59.294417
 31
0.0
  0
LINE
  8
1
  6
CONTINUOUS
 62
    30
  5
7D4
 10
61.14925
 20
69.294417
 30
0.0
 11
61.14925
 21
60.044417
 31
0.0
  0
LINE
  8
1
  6
CONTINUOUS
 62
    30
  5
7D5
 10
60.14925
 20
59.294417
 30
0.0
 11
60.64925
 21
59.294417
 31
0.0
  0
LINE
  8
1
  6
CONTINUOUS
 62
    30
  5
7D6
 10
60.64925
 20
59.294417
 30
0.0
 11
60.64925
 21
55.794417
 31
0.0
  0
LINE
  8
1
  6
CONTINUOUS
 62
    30
  5
7D7
 10
60.14925
 20
75.294417
 30
0.0
 11
62.14925
 21
75.294417
 31
0.0
  0
LINE
  8
1
  6
CONTINUOUS
 62
    30
  5
7D8
 10
62.14925
 20
75.294417
 30
0.0
 11
62.14925
 21
74.294417
 31
0.0
  0
LINE
  8
1
  6
CONTINUOUS
 62
    30
  5
7D9
 10
62.14925
 20
74.294417
 30
0.0
 11
61.14925
 21
74.294417
 31
0.0
  0
LINE
  8
1
  6
CONTINUOUS
 62
    30
  5
7DA
 10
61.14925
 20
74.294417
 30
0.0
 11
61.14925
 21
71.794417
 31
0.0
  0
LINE
  8
1
  6
CONTINUOUS
 62
    30
  5
7DB
 10
61.14925
 20
71.794417
 30
0.0
 11
67.89925
 21
71.794417
 31
0.0
  0
LINE
  8
1
  6
CONTINUOUS
 62
    30
  5
7DC
 10
67.89925
 20
71.794417
 30
0.0
 11
67.89925
 21
74.294417
 31
0.0
  0
LINE
  8
1
  6
CONTINUOUS
 62
    30
  5
7DD
 10
67.89925
 20
74.294417
 30
0.0
 11
66.89925
 21
74.294417
 31
0.0
  0
LINE
  8
1
  6
CONTINUOUS
 62
    30
  5
7DE
 10
66.89925
 20
74.294417
 30
0.0
 11
66.89925
 21
75.294417
 31
0.0
  0
LINE
  8
1
  6
CONTINUOUS
 62
    30
  5
7DF
 10
66.89925
 20
75.294417
 30
0.0
 11
68.89925
 21
75.294417
 31
0.0
  0
LINE
  8
1
  6
CONTINUOUS
 62
    30
  5
7E0
 10
68.89925
 20
75.294417
 30
0.0
 11
68.89925
 21
70.794417
 31
0.0
  0
LINE
  8
1
  6
CONTINUOUS
 62
    30
  5
7E1
 10
68.89925
 20
70.794417
 30
0.0
 11
62.64925
 21
70.794417
 31
0.0
  0
ARC
  8
1
  6
CONTINUOUS
 62
    30
  5
7E2
 10
62.64925
 20
69.294417
 30
0.0
 40
1.5
 50
90.0
 51
180.0
210
0.0
220
0.0
230
1.0
  0
LINE
  8
1
  6
CONTINUOUS
 62
    30
  5
7E3
 10
119.14925
 20
75.294417
 30
0.0
 11
119.14925
 21
60.044417
 31
0.0
  0
LINE
  8
1
  6
CONTINUOUS
 62
    30
  5
7E4
 10
60.64925
 20
55.794417
 30
0.0
 11
119.77425
 21
55.794417
 31
0.0
  0
LINE
  8
1
  6
CONTINUOUS
 62
    30
  5
7E5
 10
64.14925
 20
57.044417
 30
0.0
 11
116.14925
 21
57.044417
 31
0.0
  0
ARC
  8
1
  6
CONTINUOUS
 62
    30
  5
7E6
 10
64.14925
 20
60.044417
 30
0.0
 40
3.0
 50
180.0
 51
270.0
210
0.0
220
0.0
230
1.0
  0
ARC
  8
1
  6
CONTINUOUS
 62
    30
  5
7E7
 10
116.14925
 20
60.044417
 30
0.0
 40
3.0
 50
270.0
 51
360.0
210
0.0
220
0.0
230
1.0
  0
LINE
  8
1
  6
CONTINUOUS
 62
    30
  5
7E8
 10
120.39925
 20
75.294417
 30
0.0
 11
120.39925
 21
60.044417
 31
0.0
  0
LINE
  8
1
  6
CONTINUOUS
 62
    30
  5
7E9
 10
179.39925
 20
75.294417
 30
0.0
 11
179.39925
 21
59.294417
 31
0.0
  0
LINE
  8
1
  6
CONTINUOUS
 62
    30
  5
7EA
 10
178.39925
 20
69.294417
 30
0.0
 11
178.39925
 21
60.044417
 31
0.0
  0
LINE
  8
1
  6
CONTINUOUS
 62
    30
  5
7EB
 10
179.39925
 20
59.294417
 30
0.0
 11
178.89925
 21
59.294417
 31
0.0
  0
LINE
  8
1
  6
CONTINUOUS
 62
    30
  5
7EC
 10
178.89925
 20
59.294417
 30
0.0
 11
178.89925
 21
55.794417
 31
0.0
  0
LINE
  8
1
  6
CONTINUOUS
 62
    30
  5
7ED
 10
179.39925
 20
75.294417
 30
0.0
 11
177.39925
 21
75.294417
 31
0.0
  0
LINE
  8
1
  6
CONTINUOUS
 62
    30
  5
7EE
 10
177.39925
 20
75.294417
 30
0.0
 11
177.39925
 21
74.294417
 31
0.0
  0
LINE
  8
1
  6
CONTINUOUS
 62
    30
  5
7EF
 10
177.39925
 20
74.294417
 30
0.0
 11
178.39925
 21
74.294417
 31
0.0
  0
LINE
  8
1
  6
CONTINUOUS
 62
    30
  5
7F0
 10
178.39925
 20
74.294417
 30
0.0
 11
178.39925
 21
71.794417
 31
0.0
  0
LINE
  8
1
  6
CONTINUOUS
 62
    30
  5
7F1
 10
178.39925
 20
71.794417
 30
0.0
 11
171.64925
 21
71.794417
 31
0.0
  0
LINE
  8
1
  6
CONTINUOUS
 62
    30
  5
7F2
 10
171.64925
 20
71.794417
 30
0.0
 11
171.64925
 21
74.294417
 31
0.0
  0
LINE
  8
1
  6
CONTINUOUS
 62
    30
  5
7F3
 10
171.64925
 20
74.294417
 30
0.0
 11
172.64925
 21
74.294417
 31
0.0
  0
LINE
  8
1
  6
CONTINUOUS
 62
    30
  5
7F4
 10
172.64925
 20
74.294417
 30
0.0
 11
172.64925
 21
75.294417
 31
0.0
  0
LINE
  8
1
  6
CONTINUOUS
 62
    30
  5
7F5
 10
172.64925
 20
75.294417
 30
0.0
 11
170.64925
 21
75.294417
 31
0.0
  0
LINE
  8
1
  6
CONTINUOUS
 62
    30
  5
7F6
 10
170.64925
 20
75.294417
 30
0.0
 11
170.64925
 21
70.794417
 31
0.0
  0
LINE
  8
1
  6
CONTINUOUS
 62
    30
  5
7F7
 10
170.64925
 20
70.794417
 30
0.0
 11
176.89925
 21
70.794417
 31
0.0
  0
ARC
  8
1
  6
CONTINUOUS
 62
    30
  5
7F8
 10
176.89925
 20
69.294417
 30
0.0
 40
1.5
 50
0.0
 51
90.0
210
0.0
220
0.0
230
1.0
  0
LINE
  8
1
  6
CONTINUOUS
 62
    30
  5
7F9
 10
178.89925
 20
55.794417
 30
0.0
 11
119.77425
 21
55.794417
 31
0.0
  0
LINE
  8
1
  6
CONTINUOUS
 62
    30
  5
7FA
 10
175.39925
 20
57.044417
 30
0.0
 11
123.39925
 21
57.044417
 31
0.0
  0
ARC
  8
1
  6
CONTINUOUS
 62
    30
  5
7FB
 10
175.39925
 20
60.044417
 30
0.0
 40
3.0
 50
270.0
 51
0.0
210
0.0
220
0.0
230
1.0
  0
ARC
  8
1
  6
CONTINUOUS
 62
    30
  5
7FC
 10
123.39925
 20
60.044417
 30
0.0
 40
3.0
 50
180.0
 51
270.0
210
0.0
220
0.0
230
1.0
  0
ARC
  8
1
  6
CONTINUOUS
 62
    30
  5
7FD
 10
119.77425
 20
75.298082
 30
0.0
 40
0.625011
 50
359.663994
 51
180.336006
210
0.0
220
0.0
230
1.0
  0
LINE
  8
1
  6
CONTINUOUS
 62
     7
  5
7FE
 10
59.14925
 20
59.294417
 30
0.0
 11
53.14925
 21
59.294417
 31
0.0
  0
LINE
  8
1
  6
CONTINUOUS
 62
     7
  5
7FF
 10
59.64925
 20
55.794417
 30
0.0
 11
53.14925
 21
55.794417
 31
0.0
  0
LINE
  8
1
  6
CONTINUOUS
 62
     7
  5
800
 10
60.14925
 20
58.294417
 30
0.0
 11
60.14925
 21
35.294417
 31
0.0
  0
LINE
  8
1
  6
CONTINUOUS
 62
     7
  5
801
 10
60.64925
 20
54.794417
 30
0.0
 11
60.64925
 21
48.794417
 31
0.0
  0
LINE
  8
1
  6
CONTINUOUS
 62
     7
  5
802
 10
50.916083
 20
46.064917
 30
0.0
 11
47.908083
 21
46.064917
 31
0.0
  0
LINE
  8
1
  6
CONTINUOUS
 62
     7
  5
803
 10
119.77425
 20
76.923083
 30
0.0
 11
119.77425
 21
87.923083
 31
0.0
  0
LINE
  8
1
  6
CONTINUOUS
 62
     7
  5
804
 10
179.39925
 20
76.294417
 30
0.0
 11
179.39925
 21
87.923083
 31
0.0
  0
LINE
  8
1
  6
CONTINUOUS
 62
     7
  5
805
 10
172.64925
 20
75.294417
 30
0.0
 11
172.64925
 21
82.294417
 31
0.0
  0
LINE
  8
1
  6
CONTINUOUS
 62
     7
  5
806
 10
177.39925
 20
75.294417
 30
0.0
 11
177.39925
 21
82.294417
 31
0.0
  0
LINE
  8
1
  6
CONTINUOUS
 62
     7
  5
807
 10
177.39925
 20
81.294417
 30
0.0
 11
193.417417
 21
81.294417
 31
0.0
  0
LINE
  8
1
  6
CONTINUOUS
 62
     7
  5
808
 10
172.64925
 20
81.294417
 30
0.0
 11
168.64925
 21
81.294417
 31
0.0
  0
LINE
  8
1
  6
CONTINUOUS
 62
     7
  5
809
 10
173.39925
 20
78.794417
 30
0.0
 11
177.39925
 21
78.794417
 31
0.0
  0
LINE
  8
1
  6
CONTINUOUS
 62
     7
  5
80A
 10
179.39925
 20
78.794417
 30
0.0
 11
183.39925
 21
78.794417
 31
0.0
  0
INSERT
  8
1
  6
CONTINUOUS
 62
     1
  5
80B
  2
LDR
 10
172.64925
 20
81.294417
 30
0.0
 41
240.0
 42
240.0
210
0.0
220
0.0
230
1.0
  0
INSERT
  8
1
  6
CONTINUOUS
 62
     1
  5
80C
  2
LDR
 10
172.64925
 20
81.294417
 30
0.0
 41
240.0
 42
240.0
210
0.0
220
0.0
230
1.0
  0
INSERT
  8
1
  6
CONTINUOUS
 62
     1
  5
80D
  2
LDR
 10
177.39925
 20
81.294417
 30
0.0
 41
240.0
 42
240.0
 50
180.0
210
0.0
220
0.0
230
1.0
  0
INSERT
  8
1
  6
CONTINUOUS
 62
     1
  5
80E
  2
LDR
 10
177.39925
 20
81.294417
 30
0.0
 41
240.0
 42
240.0
 50
180.0
210
0.0
220
0.0
230
1.0
  0
INSERT
  8
1
  6
CONTINUOUS
 62
     1
  5
80F
  2
LDR
 10
177.39925
 20
78.794417
 30
0.0
 41
240.0
 42
240.0
210
0.0
220
0.0
230
1.0
  0
INSERT
  8
1
  6
CONTINUOUS
 62
     1
  5
810
  2
LDR
 10
177.39925
 20
78.794417
 30
0.0
 41
240.0
 42
240.0
210
0.0
220
0.0
230
1.0
  0
INSERT
  8
1
  6
CONTINUOUS
 62
     1
  5
811
  2
LDR
 10
179.39925
 20
78.794417
 30
0.0
 41
240.0
 42
240.0
 50
180.0
210
0.0
220
0.0
230
1.0
  0
LINE
  8
1
  6
CONTINUOUS
 62
     7
  5
812
 10
169.64925
 20
75.294417
 30
0.0
 11
164.64925
 21
75.294417
 31
0.0
  0
LINE
  8
1
  6
CONTINUOUS
 62
     7
  5
813
 10
180.39925
 20
75.294417
 30
0.0
 11
201.39925
 21
75.294417
 31
0.0
  0
LINE
  8
1
  6
CONTINUOUS
 62
     7
  5
814
 10
169.64925
 20
74.294417
 30
0.0
 11
160.64925
 21
74.294417
 31
0.0
  0
LINE
  8
1
  6
CONTINUOUS
 62
     7
  5
815
 10
169.64925
 20
71.794417
 30
0.0
 11
160.64925
 21
71.794417
 31
0.0
  0
LINE
  8
1
  6
CONTINUOUS
 62
     7
  5
816
 10
161.64925
 20
74.294417
 30
0.0
 11
161.64925
 21
78.294417
 31
0.0
  0
LINE
  8
1
  6
CONTINUOUS
 62
     7
  5
817
 10
161.64925
 20
71.794417
 30
0.0
 11
161.64925
 21
67.794417
 31
0.0
  0
LINE
  8
1
  6
CONTINUOUS
 62
     7
  5
818
 10
165.64925
 20
75.294417
 30
0.0
 11
165.64925
 21
79.294417
 31
0.0
  0
LINE
  8
1
  6
CONTINUOUS
 62
     7
  5
819
 10
165.64925
 20
74.294417
 30
0.0
 11
165.64925
 21
70.294417
 31
0.0
  0
INSERT
  8
1
  6
CONTINUOUS
 62
     1
  5
81A
  2
LDR
 10
161.64925
 20
74.294417
 30
0.0
 41
240.0
 42
240.0
 50
270.0
210
0.0
220
0.0
230
1.0
  0
INSERT
  8
1
  6
CONTINUOUS
 62
     1
  5
81B
  2
LDR
 10
161.64925
 20
74.294417
 30
0.0
 41
240.0
 42
240.0
 50
270.0
210
0.0
220
0.0
230
1.0
  0
INSERT
  8
1
  6
CONTINUOUS
 62
     1
  5
81C
  2
LDR
 10
165.64925
 20
75.294417
 30
0.0
 41
240.0
 42
240.0
 50
270.0
210
0.0
220
0.0
230
1.0
  0
INSERT
  8
1
  6
CONTINUOUS
 62
     1
  5
81D
  2
LDR
 10
165.64925
 20
75.294417
 30
0.0
 41
240.0
 42
240.0
 50
270.0
210
0.0
220
0.0
230
1.0
  0
INSERT
  8
1
  6
CONTINUOUS
 62
     1
  5
81E
  2
LDR
 10
165.64925
 20
74.294417
 30
0.0
 41
240.0
 42
240.0
 50
90.0
210
0.0
220
0.0
230
1.0
  0
INSERT
  8
1
  6
CONTINUOUS
 62
     1
  5
81F
  2
LDR
 10
165.64925
 20
74.294417
 30
0.0
 41
240.0
 42
240.0
 50
90.0
210
0.0
220
0.0
230
1.0
  0
INSERT
  8
1
  6
CONTINUOUS
 62
     1
  5
820
  2
LDR
 10
161.64925
 20
71.794417
 30
0.0
 41
240.0
 42
240.0
 50
90.0
210
0.0
220
0.0
230
1.0
  0
LINE
  8
1
  6
CONTINUOUS
 62
     7
  5
821
 10
170.64925
 20
69.794417
 30
0.0
 11
170.64925
 21
63.794417
 31
0.0
  0
LINE
  8
1
  6
CONTINUOUS
 62
     7
  5
822
 10
170.64925
 20
64.794417
 30
0.0
 11
166.64925
 21
64.794417
 31
0.0
  0
LINE
  8
1
  6
CONTINUOUS
 62
     7
  5
823
 10
178.39925
 20
64.794417
 30
0.0
 11
182.39925
 21
64.794417
 31
0.0
  0
INSERT
  8
1
  6
CONTINUOUS
 62
     1
  5
824
  2
LDR
 10
170.64925
 20
64.794417
 30
0.0
 41
240.0
 42
240.0
210
0.0
220
0.0
230
1.0
  0
INSERT
  8
1
  6
CONTINUOUS
 62
     1
  5
825
  2
LDR
 10
170.64925
 20
64.794417
 30
0.0
 41
240.0
 42
240.0
210
0.0
220
0.0
230
1.0
  0
INSERT
  8
1
  6
CONTINUOUS
 62
     1
  5
826
  2
LDR
 10
178.39925
 20
64.794417
 30
0.0
 41
240.0
 42
240.0
 50
180.0
210
0.0
220
0.0
230
1.0
  0
LINE
  8
1
  6
CONTINUOUS
 62
     7
  5
827
 10
161.361417
 20
63.789417
 30
0.0
 11
157.902083
 21
63.789417
 31
0.0
  0
INSERT
  8
1
  6
CONTINUOUS
 62
     1
  5
828
  2
LDR
 10
177.959917
 20
70.355083
 30
0.0
 41
240.000002
 42
240.000002
 50
21.581662
210
0.0
220
0.0
230
1.0
  0
LINE
  8
1
  6
CONTINUOUS
 62
     7
  5
829
 10
177.959917
 20
70.355083
 30
0.0
 11
171.579083
 21
67.831
 31
0.0
  0
LINE
  8
1
  6
CONTINUOUS
 62
     7
  5
82A
 10
169.719333
 20
67.095417
 30
0.0
 11
161.361417
 21
63.789417
 31
0.0
  0
LINE
  8
1
  6
CONTINUOUS
 62
     7
  5
82B
 10
179.89925
 20
55.794417
 30
0.0
 11
201.39925
 21
55.794417
 31
0.0
  0
LINE
  8
1
  6
CONTINUOUS
 62
     7
  5
82C
 10
180.39925
 20
59.294417
 30
0.0
 11
185.39925
 21
59.294417
 31
0.0
  0
LINE
  8
1
  6
CONTINUOUS
 62
     7
  5
82D
 10
200.39925
 20
75.294417
 30
0.0
 11
200.39925
 21
55.794417
 31
0.0
  0
LINE
  8
1
  6
CONTINUOUS
 62
     7
  5
82E
 10
184.39925
 20
59.294417
 30
0.0
 11
184.39925
 21
63.294417
 31
0.0
  0
LINE
  8
1
  6
CONTINUOUS
 62
     7
  5
82F
 10
184.39925
 20
55.794417
 30
0.0
 11
184.39925
 21
51.794417
 31
0.0
  0
INSERT
  8
1
  6
CONTINUOUS
 62
     1
  5
830
  2
LDR
 10
200.39925
 20
75.294417
 30
0.0
 41
240.0
 42
240.0
 50
90.0
210
0.0
220
0.0
230
1.0
  0
INSERT
  8
1
  6
CONTINUOUS
 62
     1
  5
831
  2
LDR
 10
200.39925
 20
75.294417
 30
0.0
 41
240.0
 42
240.0
 50
90.0
210
0.0
220
0.0
230
1.0
  0
INSERT
  8
1
  6
CONTINUOUS
 62
     1
  5
832
  2
LDR
 10
200.39925
 20
55.794417
 30
0.0
 41
240.0
 42
240.0
 50
270.0
210
0.0
220
0.0
230
1.0
  0
INSERT
  8
1
  6
CONTINUOUS
 62
     1
  5
833
  2
LDR
 10
200.39925
 20
55.794417
 30
0.0
 41
240.0
 42
240.0
 50
270.0
210
0.0
220
0.0
230
1.0
  0
INSERT
  8
1
  6
CONTINUOUS
 62
     1
  5
834
  2
LDR
 10
184.39925
 20
59.294417
 30
0.0
 41
240.0
 42
240.0
 50
270.0
210
0.0
220
0.0
230
1.0
  0
INSERT
  8
1
  6
CONTINUOUS
 62
     1
  5
835
  2
LDR
 10
184.39925
 20
59.294417
 30
0.0
 41
240.0
 42
240.0
 50
270.0
210
0.0
220
0.0
230
1.0
  0
INSERT
  8
1
  6
CONTINUOUS
 62
     1
  5
836
  2
LDR
 10
184.39925
 20
55.794417
 30
0.0
 41
240.0
 42
240.0
 50
90.0
210
0.0
220
0.0
230
1.0
  0
LINE
  8
1
  6
CONTINUOUS
 62
     7
  5
837
 10
177.520583
 20
57.923083
 30
0.0
 11
175.4965
 21
60.626583
 31
0.0
  0
LINE
  8
1
  6
CONTINUOUS
 62
     7
  5
838
 10
175.4965
 20
60.626583
 30
0.0
 11
172.223083
 21
60.626583
 31
0.0
  0
INSERT
  8
1
  6
CONTINUOUS
 62
     1
  5
839
  2
LDR
 10
177.520583
 20
57.923083
 30
0.0
 41
240.000001
 42
240.000001
 50
306.821829
210
0.0
220
0.0
230
1.0
  0
LINE
  8
1
  6
CONTINUOUS
 62
     7
  5
83A
 10
143.283583
 20
61.044417
 30
0.0
 11
143.283583
 21
57.044417
 31
0.0
  0
LINE
  8
1
  6
CONTINUOUS
 62
     7
  5
83B
 10
143.283583
 20
55.794417
 30
0.0
 11
143.283583
 21
51.794417
 31
0.0
  0
INSERT
  8
1
  6
CONTINUOUS
 62
     1
  5
83C
  2
LDR
 10
143.283583
 20
57.044417
 30
0.0
 41
240.0
 42
240.0
 50
270.0
210
0.0
220
0.0
230
1.0
  0
INSERT
  8
1
  6
CONTINUOUS
 62
     1
  5
83D
  2
LDR
 10
143.283583
 20
55.794417
 30
0.0
 41
240.0
 42
240.0
 50
90.0
210
0.0
220
0.0
230
1.0
  0
LINE
  8
1
  6
CONTINUOUS
 62
     7
  5
83E
 10
143.283583
 20
61.044417
 30
0.0
 11
140.084583
 21
61.073083
 31
0.0
  0
LINE
  8
1
  6
CONTINUOUS
 62
     7
  5
83F
 10
179.39925
 20
58.294417
 30
0.0
 11
179.39925
 21
35.294417
 31
0.0
  0
LINE
  8
1
  6
CONTINUOUS
 62
     7
  5
840
 10
178.89925
 20
54.794417
 30
0.0
 11
178.89925
 21
48.794417
 31
0.0
  0
LINE
  8
1
  6
CONTINUOUS
 62
     7
  5
841
 10
178.89925
 20
49.794417
 30
0.0
 11
174.89925
 21
49.794417
 31
0.0
  0
LINE
  8
1
  6
CONTINUOUS
 62
     7
  5
842
 10
179.39925
 20
49.794417
 30
0.0
 11
183.39925
 21
49.794417
 31
0.0
  0
INSERT
  8
1
  6
CONTINUOUS
 62
     1
  5
843
  2
LDR
 10
178.89925
 20
49.794417
 30
0.0
 41
240.0
 42
240.0
210
0.0
220
0.0
230
1.0
  0
INSERT
  8
1
  6
CONTINUOUS
 62
     1
  5
844
  2
LDR
 10
178.89925
 20
49.794417
 30
0.0
 41
240.0
 42
240.0
210
0.0
220
0.0
230
1.0
  0
INSERT
  8
1
  6
CONTINUOUS
 62
     1
  5
845
  2
LDR
 10
179.39925
 20
49.794417
 30
0.0
 41
240.0
 42
240.0
 50
180.0
210
0.0
220
0.0
230
1.0
  0
LINE
  8
1
  6
CONTINUOUS
 62
     7
  5
846
 10
178.89925
 20
55.794417
 30
0.0
 11
189.806
 21
44.820583
 31
0.0
  0
LINE
  8
1
  6
CONTINUOUS
 62
     7
  5
847
 10
189.806
 20
44.820583
 30
0.0
 11
192.768667
 21
44.820583
 31
0.0
  0
INSERT
  8
1
  6
CONTINUOUS
 62
     1
  5
848
  2
LDR
 10
178.89925
 20
55.794417
 30
0.0
 41
239.999998
 42
239.999998
 50
134.824338
210
0.0
220
0.0
230
1.0
  0
LINE
  8
1
  6
CONTINUOUS
 62
     7
  5
849
 10
184.39925
 20
63.294417
 30
0.0
 11
187.038167
 21
63.304583
 31
0.0
  0
TEXT
  8
1
  6
CONTINUOUS
 62
     7
  5
84A
 10
144.468667
 20
87.635417
 30
0.0
 40
2.5
  1
6.000
  7
MONOTXT
 72
     1
 11
149.58675
 21
87.635417
 31
0.0
210
0.0
220
0.0
230
1.0
  0
LINE
  8
1
  6
CONTINUOUS
 62
     7
  5
84B
 10
119.77425
 20
75.923083
 30
0.0
 11
114.377917
 21
84.044167
 31
0.0
  0
LINE
  8
1
  6
CONTINUOUS
 62
     7
  5
84C
 10
114.377917
 20
84.044167
 30
0.0
 11
110.53275
 21
84.044167
 31
0.0
  0
INSERT
  8
1
  6
CONTINUOUS
 62
     1
  5
84D
  2
LDR
 10
119.77425
 20
75.923083
 30
0.0
 41
239.999999
 42
239.999999
 50
303.603419
210
0.0
220
0.0
230
1.0
  0
TEXT
  8
1
  6
CONTINUOUS
 62
     7
  5
84E
 10
97.25525
 20
82.762083
 30
0.0
 40
2.5
  1
.039 R
  7
MONOTXT
 72
     1
 11
103.56425
 21
82.762083
 31
0.0
210
0.0
220
0.0
230
1.0
  0
LINE
  8
1
  6
CONTINUOUS
 62
     7
  5
84F
 10
54.14925
 20
63.294417
 30
0.0
 11
49.864667
 21
63.245083
 31
0.0
  0
TEXT
  8
1
  6
CONTINUOUS
 62
     7
  5
850
 10
40.9235
 20
61.535583
 30
0.0
 40
2.5
  1
.375
  7
MONOTXT
 72
     1
 11
44.89
 21
61.535583
 31
0.0
210
0.0
220
0.0
230
1.0
  0
TEXT
  8
1
  6
CONTINUOUS
 62
     7
  5
851
 10
34.27375
 20
44.836417
 30
0.0
 40
2.5
  1
.040 R
  7
MONOTXT
 72
     1
 11
40.759917
 21
44.836417
 31
0.0
210
0.0
220
0.0
230
1.0
  0
TEXT
  8
1
  6
CONTINUOUS
 62
     7
  5
852
 10
64.849
 20
48.42925
 30
0.0
 40
2.5
  1
.007
  7
MONOTXT
 72
     1
 11
68.805667
 21
48.42925
 31
0.0
210
0.0
220
0.0
230
1.0
  0
TEXT
  8
1
  6
CONTINUOUS
 62
     7
  5
853
 10
166.38975
 20
48.57175
 30
0.0
 40
2.5
  1
.007
  7
MONOTXT
 72
     1
 11
170.346417
 21
48.57175
 31
0.0
210
0.0
220
0.0
230
1.0
  0
TEXT
  8
1
  6
CONTINUOUS
 62
     7
  5
854
 10
113.746
 20
37.291667
 30
0.0
 40
2.5
  1
12.000
  7
MONOTXT
 72
     1
 11
119.631833
 21
37.291667
 31
0.0
210
0.0
220
0.0
230
1.0
  0
TEXT
  8
1
  6
CONTINUOUS
 62
     7
  5
855
 10
192.779917
 20
43.728083
 30
0.0
 40
2.5
  1
.040 R
  7
MONOTXT
 72
     1
 11
199.266083
 21
43.728083
 31
0.0
210
0.0
220
0.0
230
1.0
  0
TEXT
  8
1
  6
CONTINUOUS
 62
     7
  5
856
 10
132.334417
 20
59.541167
 30
0.0
 40
2.5
  1
.125
  7
MONOTXT
 72
     1
 11
135.74975
 21
59.541167
 31
0.0
210
0.0
220
0.0
230
1.0
  0
TEXT
  8
1
  6
CONTINUOUS
 62
     7
  5
857
 10
145.23475
 20
62.67525
 30
0.0
 40
2.5
  1
.125 R
  7
MONOTXT
 72
     1
 11
151.130417
 21
62.67525
 31
0.0
210
0.0
220
0.0
230
1.0
  0
TEXT
  8
1
  6
CONTINUOUS
 62
     7
  5
858
 10
158.517333
 20
59.25625
 30
0.0
 40
2.5
  1
.250 R
  7
MONOTXT
 72
     1
 11
164.9445
 21
59.25625
 31
0.0
210
0.0
220
0.0
230
1.0
  0
TEXT
  8
1
  6
CONTINUOUS
 62
     7
  5
859
 10
170.1515
 20
62.960167
 30
0.0
 40
2.5
  1
.687
  7
MONOTXT
 72
     1
 11
174.049167
 21
62.960167
 31
0.0
210
0.0
220
0.0
230
1.0
  0
TEXT
  8
1
  6
CONTINUOUS
 62
     7
  5
85A
 10
186.754833
 20
61.8205
 30
0.0
 40
2.5
  1
.375
  7
MONOTXT
 72
     1
 11
190.721333
 21
61.8205
 31
0.0
210
0.0
220
0.0
230
1.0
  0
TEXT
  8
1
  6
CONTINUOUS
 62
     7
  5
85B
 10
193.513167
 20
80.19775
 30
0.0
 40
2.5
  1
.410
  7
MONOTXT
 72
     1
 11
196.977667
 21
80.19775
 31
0.0
210
0.0
220
0.0
230
1.0
  0
TEXT
  8
1
  6
CONTINUOUS
 62
     7
  5
85C
 10
183.09275
 20
76.636333
 30
0.0
 40
2.5
  1
.216
  7
MONOTXT
 72
     1
 11
186.449
 21
76.636333
 31
0.0
210
0.0
220
0.0
230
1.0
  0
LINE
  8
1
  6
CONTINUOUS
 62
     7
  5
85D
 10
165.64925
 20
79.294417
 30
0.0
 11
156.817167
 21
79.343
 31
0.0
  0
LINE
  8
1
  6
CONTINUOUS
 62
     7
  5
85E
 10
161.64925
 20
67.794417
 30
0.0
 11
157.529167
 21
67.803833
 31
0.0
  0
TEXT
  8
1
  6
CONTINUOUS
 62
     7
  5
85F
 10
149.13925
 20
77.6335
 30
0.0
 40
2.5
  1
.125
  7
MONOTXT
 72
     1
 11
152.554583
 21
77.6335
 31
0.0
210
0.0
220
0.0
230
1.0
  0
TEXT
  8
1
  6
CONTINUOUS
 62
     7
  5
860
 10
149.035
 20
66.521667
 30
0.0
 40
2.5
  1
.250
  7
MONOTXT
 72
     1
 11
152.972
 21
66.521667
 31
0.0
210
0.0
220
0.0
230
1.0
  0
TEXT
  8
1
  6
CONTINUOUS
 62
     7
  5
861
 10
203.959583
 20
60.509667
 30
0.0
 40
2.5
  1
2.000
 50
90.0
  7
MONOTXT
 72
     1
 11
203.959583
 21
65.686833
 31
0.0
210
0.0
220
0.0
230
1.0
  0
TEXT
  8
1
  6
CONTINUOUS
 62
     7
  5
862
 10
104.313583
 20
25.065917
 30
0.0
 40
3.0
  1
EXTRUSION "A"
  7
MONOTXT
 72
     1
 11
121.498583
 21
25.065917
 31
0.0
210
0.0
220
0.0
230
1.0
  0
LINE
  8
1
  6
CONTINUOUS
 62
     7
  5
863
 10
103.5545
 20
24.496083
 30
0.0
 11
140.194667
 21
24.496083
 31
0.0
  0
LINE
  8
1
  6
CONTINUOUS
 62
    30
  5
864
 10
243.89925
 20
75.294417
 30
0.0
 11
243.89925
 21
55.794417
 31
0.0
  0
LINE
  8
1
  6
CONTINUOUS
 62
    30
  5
865
 10
244.89925
 20
69.294417
 30
0.0
 11
244.89925
 21
60.044417
 31
0.0
  0
LINE
  8
1
  6
CONTINUOUS
 62
    30
  5
866
 10
243.89925
 20
75.294417
 30
0.0
 11
245.89925
 21
75.294417
 31
0.0
  0
LINE
  8
1
  6
CONTINUOUS
 62
    30
  5
867
 10
245.89925
 20
75.294417
 30
0.0
 11
245.89925
 21
74.294417
 31
0.0
  0
LINE
  8
1
  6
CONTINUOUS
 62
    30
  5
868
 10
245.89925
 20
74.294417
 30
0.0
 11
244.89925
 21
74.294417
 31
0.0
  0
LINE
  8
1
  6
CONTINUOUS
 62
    30
  5
869
 10
244.89925
 20
74.294417
 30
0.0
 11
244.89925
 21
71.794417
 31
0.0
  0
LINE
  8
1
  6
CONTINUOUS
 62
    30
  5
86A
 10
244.89925
 20
71.794417
 30
0.0
 11
251.64925
 21
71.794417
 31
0.0
  0
LINE
  8
1
  6
CONTINUOUS
 62
    30
  5
86B
 10
251.64925
 20
71.794417
 30
0.0
 11
251.64925
 21
74.294417
 31
0.0
  0
LINE
  8
1
  6
CONTINUOUS
 62
    30
  5
86C
 10
251.64925
 20
74.294417
 30
0.0
 11
250.64925
 21
74.294417
 31
0.0
  0
LINE
  8
1
  6
CONTINUOUS
 62
    30
  5
86D
 10
250.64925
 20
74.294417
 30
0.0
 11
250.64925
 21
75.294417
 31
0.0
  0
LINE
  8
1
  6
CONTINUOUS
 62
    30
  5
86E
 10
250.64925
 20
75.294417
 30
0.0
 11
252.64925
 21
75.294417
 31
0.0
  0
LINE
  8
1
  6
CONTINUOUS
 62
    30
  5
86F
 10
252.64925
 20
75.294417
 30
0.0
 11
252.64925
 21
70.794417
 31
0.0
  0
LINE
  8
1
  6
CONTINUOUS
 62
    30
  5
870
 10
252.64925
 20
70.794417
 30
0.0
 11
246.39925
 21
70.794417
 31
0.0
  0
ARC
  8
1
  6
CONTINUOUS
 62
    30
  5
871
 10
246.39925
 20
69.294417
 30
0.0
 40
1.5
 50
90.0
 51
180.0
210
0.0
220
0.0
230
1.0
  0
LINE
  8
1
  6
CONTINUOUS
 62
    30
  5
872
 10
302.89925
 20
75.294417
 30
0.0
 11
302.89925
 21
60.044417
 31
0.0
  0
LINE
  8
1
  6
CONTINUOUS
 62
    30
  5
873
 10
243.89925
 20
55.794417
 30
0.0
 11
303.64925
 21
55.794417
 31
0.0
  0
LINE
  8
1
  6
CONTINUOUS
 62
    30
  5
874
 10
247.89925
 20
57.044417
 30
0.0
 11
299.89925
 21
57.044417
 31
0.0
  0
ARC
  8
1
  6
CONTINUOUS
 62
    30
  5
875
 10
247.89925
 20
60.044417
 30
0.0
 40
3.0
 50
180.0
 51
270.0
210
0.0
220
0.0
230
1.0
  0
ARC
  8
1
  6
CONTINUOUS
 62
    30
  5
876
 10
299.89925
 20
60.044417
 30
0.0
 40
3.0
 50
270.0
 51
360.0
210
0.0
220
0.0
230
1.0
  0
LINE
  8
1
  6
CONTINUOUS
 62
    30
  5
877
 10
304.14925
 20
75.294417
 30
0.0
 11
304.14925
 21
60.044417
 31
0.0
  0
LINE
  8
1
  6
CONTINUOUS
 62
    30
  5
878
 10
299.722917
 20
55.794417
 30
0.0
 11
303.52425
 21
55.794417
 31
0.0
  0
ARC
  8
1
  6
CONTINUOUS
 62
    30
  5
879
 10
303.52425
 20
75.298082
 30
0.0
 40
0.625011
 50
359.663994
 51
180.336006
210
0.0
220
0.0
230
1.0
  0
LINE
  8
1
  6
CONTINUOUS
 62
     7
  5
87A
 10
303.52425
 20
75.923083
 30
0.0
 11
298.127917
 21
84.044167
 31
0.0
  0
LINE
  8
1
  6
CONTINUOUS
 62
     7
  5
87B
 10
298.127917
 20
84.044167
 30
0.0
 11
294.28275
 21
84.044167
 31
0.0
  0
INSERT
  8
1
  6
CONTINUOUS
 62
     1
  5
87C
  2
LDR
 10
303.52425
 20
75.923083
 30
0.0
 41
239.999999
 42
239.999999
 50
303.603419
210
0.0
220
0.0
230
1.0
  0
TEXT
  8
1
  6
CONTINUOUS
 62
     7
  5
87D
 10
281.00525
 20
82.762083
 30
0.0
 40
2.5
  1
.039 R
  7
MONOTXT
 72
     1
 11
287.31425
 21
82.762083
 31
0.0
210
0.0
220
0.0
230
1.0
  0
LINE
  8
1
  6
CONTINUOUS
 62
    30
  5
87E
 10
304.14925
 20
60.044417
 30
0.0
 11
303.64925
 21
60.044417
 31
0.0
  0
LINE
  8
1
  6
CONTINUOUS
 62
    30
  5
87F
 10
303.64925
 20
60.044417
 30
0.0
 11
303.64925
 21
55.794417
 31
0.0
  0
LINE
  8
1
  6
CONTINUOUS
 62
     7
  5
880
 10
250.64925
 20
76.294417
 30
0.0
 11
250.64925
 21
87.294417
 31
0.0
  0
LINE
  8
1
  6
CONTINUOUS
 62
     7
  5
881
 10
245.89925
 20
76.294417
 30
0.0
 11
245.89925
 21
87.294417
 31
0.0
  0
LINE
  8
1
  6
CONTINUOUS
 62
     7
  5
882
 10
243.89925
 20
76.294417
 30
0.0
 11
243.89925
 21
80.294417
 31
0.0
  0
LINE
  8
1
  6
CONTINUOUS
 62
     7
  5
883
 10
241.89925
 20
86.294417
 30
0.0
 11
245.89925
 21
86.294417
 31
0.0
  0
LINE
  8
1
  6
CONTINUOUS
 62
     7
  5
884
 10
250.64925
 20
86.294417
 30
0.0
 11
254.64925
 21
86.294417
 31
0.0
  0
LINE
  8
1
  6
CONTINUOUS
 62
     7
  5
885
 10
243.89925
 20
79.294417
 30
0.0
 11
239.89925
 21
79.294417
 31
0.0
  0
LINE
  8
1
  6
CONTINUOUS
 62
     7
  5
886
 10
245.89925
 20
79.294417
 30
0.0
 11
249.89925
 21
79.294417
 31
0.0
  0
INSERT
  8
1
  6
CONTINUOUS
 62
     1
  5
887
  2
LDR
 10
245.89925
 20
86.294417
 30
0.0
 41
240.0
 42
240.0
210
0.0
220
0.0
230
1.0
  0
INSERT
  8
1
  6
CONTINUOUS
 62
     1
  5
888
  2
LDR
 10
245.89925
 20
86.294417
 30
0.0
 41
240.0
 42
240.0
210
0.0
220
0.0
230
1.0
  0
INSERT
  8
1
  6
CONTINUOUS
 62
     1
  5
889
  2
LDR
 10
250.64925
 20
86.294417
 30
0.0
 41
240.0
 42
240.0
 50
180.0
210
0.0
220
0.0
230
1.0
  0
INSERT
  8
1
  6
CONTINUOUS
 62
     1
  5
88A
  2
LDR
 10
250.64925
 20
86.294417
 30
0.0
 41
240.0
 42
240.0
 50
180.0
210
0.0
220
0.0
230
1.0
  0
INSERT
  8
1
  6
CONTINUOUS
 62
     1
  5
88B
  2
LDR
 10
243.89925
 20
79.294417
 30
0.0
 41
240.0
 42
240.0
210
0.0
220
0.0
230
1.0
  0
INSERT
  8
1
  6
CONTINUOUS
 62
     1
  5
88C
  2
LDR
 10
243.89925
 20
79.294417
 30
0.0
 41
240.0
 42
240.0
210
0.0
220
0.0
230
1.0
  0
INSERT
  8
1
  6
CONTINUOUS
 62
     1
  5
88D
  2
LDR
 10
245.89925
 20
79.294417
 30
0.0
 41
240.0
 42
240.0
 50
180.0
210
0.0
220
0.0
230
1.0
  0
LINE
  8
1
  6
CONTINUOUS
 62
     7
  5
88E
 10
251.64925
 20
69.794417
 30
0.0
 11
251.64925
 21
61.794417
 31
0.0
  0
LINE
  8
1
  6
CONTINUOUS
 62
     7
  5
88F
 10
251.64925
 20
62.794417
 30
0.0
 11
255.64925
 21
62.794417
 31
0.0
  0
LINE
  8
1
  6
CONTINUOUS
 62
     7
  5
890
 10
240.89925
 20
62.794417
 30
0.0
 11
244.89925
 21
62.794417
 31
0.0
  0
INSERT
  8
1
  6
CONTINUOUS
 62
     1
  5
891
  2
LDR
 10
244.89925
 20
62.794417
 30
0.0
 41
240.0
 42
240.0
210
0.0
220
0.0
230
1.0
  0
INSERT
  8
1
  6
CONTINUOUS
 62
     1
  5
892
  2
LDR
 10
251.64925
 20
62.794417
 30
0.0
 41
240.0
 42
240.0
 50
180.0
210
0.0
220
0.0
230
1.0
  0
LINE
  8
1
  6
CONTINUOUS
 62
     7
  5
893
 10
242.89925
 20
75.294417
 30
0.0
 11
221.39925
 21
75.294417
 31
0.0
  0
LINE
  8
1
  6
CONTINUOUS
 62
     7
  5
894
 10
242.89925
 20
74.294417
 30
0.0
 11
225.89925
 21
74.294417
 31
0.0
  0
LINE
  8
1
  6
CONTINUOUS
 62
     7
  5
895
 10
242.89925
 20
71.794417
 30
0.0
 11
230.89925
 21
71.794417
 31
0.0
  0
LINE
  8
1
  6
CONTINUOUS
 62
     7
  5
896
 10
242.89925
 20
55.794417
 30
0.0
 11
221.39925
 21
55.794417
 31
0.0
  0
LINE
  8
1
  6
CONTINUOUS
 62
     7
  5
897
 10
222.39925
 20
75.294417
 30
0.0
 11
222.39925
 21
55.794417
 31
0.0
  0
LINE
  8
1
  6
CONTINUOUS
 62
     7
  5
898
 10
226.89925
 20
74.294417
 30
0.0
 11
226.89925
 21
70.294417
 31
0.0
  0
LINE
  8
1
  6
CONTINUOUS
 62
     7
  5
899
 10
231.89925
 20
71.794417
 30
0.0
 11
231.89925
 21
67.794417
 31
0.0
  0
LINE
  8
1
  6
CONTINUOUS
 62
     7
  5
89A
 10
226.89925
 20
75.294417
 30
0.0
 11
226.89925
 21
79.294417
 31
0.0
  0
LINE
  8
1
  6
CONTINUOUS
 62
     7
  5
89B
 10
231.89925
 20
74.294417
 30
0.0
 11
231.89925
 21
87.87375
 31
0.0
  0
INSERT
  8
1
  6
CONTINUOUS
 62
     1
  5
89C
  2
LDR
 10
222.39925
 20
75.294417
 30
0.0
 41
240.0
 42
240.0
 50
90.0
210
0.0
220
0.0
230
1.0
  0
INSERT
  8
1
  6
CONTINUOUS
 62
     1
  5
89D
  2
LDR
 10
222.39925
 20
75.294417
 30
0.0
 41
240.0
 42
240.0
 50
90.0
210
0.0
220
0.0
230
1.0
  0
INSERT
  8
1
  6
CONTINUOUS
 62
     1
  5
89E
  2
LDR
 10
222.39925
 20
55.794417
 30
0.0
 41
240.0
 42
240.0
 50
270.0
210
0.0
220
0.0
230
1.0
  0
INSERT
  8
1
  6
CONTINUOUS
 62
     1
  5
89F
  2
LDR
 10
222.39925
 20
55.794417
 30
0.0
 41
240.0
 42
240.0
 50
270.0
210
0.0
220
0.0
230
1.0
  0
INSERT
  8
1
  6
CONTINUOUS
 62
     1
  5
8A0
  2
LDR
 10
226.89925
 20
75.294417
 30
0.0
 41
240.0
 42
240.0
 50
270.0
210
0.0
220
0.0
230
1.0
  0
INSERT
  8
1
  6
CONTINUOUS
 62
     1
  5
8A1
  2
LDR
 10
226.89925
 20
75.294417
 30
0.0
 41
240.0
 42
240.0
 50
270.0
210
0.0
220
0.0
230
1.0
  0
INSERT
  8
1
  6
CONTINUOUS
 62
     1
  5
8A2
  2
LDR
 10
226.89925
 20
74.294417
 30
0.0
 41
240.0
 42
240.0
 50
90.0
210
0.0
220
0.0
230
1.0
  0
INSERT
  8
1
  6
CONTINUOUS
 62
     1
  5
8A3
  2
LDR
 10
226.89925
 20
74.294417
 30
0.0
 41
240.0
 42
240.0
 50
90.0
210
0.0
220
0.0
230
1.0
  0
INSERT
  8
1
  6
CONTINUOUS
 62
     1
  5
8A4
  2
LDR
 10
231.89925
 20
74.294417
 30
0.0
 41
240.0
 42
240.0
 50
270.0
210
0.0
220
0.0
230
1.0
  0
INSERT
  8
1
  6
CONTINUOUS
 62
     1
  5
8A5
  2
LDR
 10
231.89925
 20
74.294417
 30
0.0
 41
240.0
 42
240.0
 50
270.0
210
0.0
220
0.0
230
1.0
  0
INSERT
  8
1
  6
CONTINUOUS
 62
     1
  5
8A6
  2
LDR
 10
231.89925
 20
71.794417
 30
0.0
 41
240.0
 42
240.0
 50
90.0
210
0.0
220
0.0
230
1.0
  0
LINE
  8
1
  6
CONTINUOUS
 62
     7
  5
8A7
 10
243.89925
 20
54.794417
 30
0.0
 11
243.89925
 21
39.794417
 31
0.0
  0
LINE
  8
1
  6
CONTINUOUS
 62
     7
  5
8A8
 10
243.89925
 20
55.794417
 30
0.0
 11
237.100167
 21
46.90675
 31
0.0
  0
LINE
  8
1
  6
CONTINUOUS
 62
     7
  5
8A9
 10
237.100167
 20
46.90675
 30
0.0
 11
233.814167
 21
46.90675
 31
0.0
  0
INSERT
  8
1
  6
CONTINUOUS
 62
     1
  5
8AA
  2
LDR
 10
243.89925
 20
55.794417
 30
0.0
 41
239.999999
 42
239.999999
 50
52.583936
210
0.0
220
0.0
230
1.0
  0
INSERT
  8
1
  6
CONTINUOUS
 62
     1
  5
8AB
  2
LDR
 10
243.89925
 20
55.794417
 30
0.0
 41
239.999999
 42
239.999999
 50
52.583936
210
0.0
220
0.0
230
1.0
  0
LINE
  8
1
  6
CONTINUOUS
 62
     7
  5
8AC
 10
253.226083
 20
65.838
 30
0.0
 11
255.781833
 21
65.838
 31
0.0
  0
INSERT
  8
1
  6
CONTINUOUS
 62
     1
  5
8AD
  2
LDR
 10
245.338583
 20
70.355083
 30
0.0
 41
239.999999
 42
239.999999
 50
150.200714
210
0.0
220
0.0
230
1.0
  0
LINE
  8
1
  6
CONTINUOUS
 62
     7
  5
8AE
 10
245.338583
 20
70.355083
 30
0.0
 11
250.7815
 21
67.238
 31
0.0
  0
LINE
  8
1
  6
CONTINUOUS
 62
     7
  5
8AF
 10
252.517
 20
66.244083
 30
0.0
 11
253.226083
 21
65.838
 31
0.0
  0
LINE
  8
1
  6
CONTINUOUS
 62
     7
  5
8B0
 10
231.89925
 20
87.87375
 30
0.0
 11
228.39825
 21
87.87375
 31
0.0
  0
LINE
  8
1
  6
CONTINUOUS
 62
     7
  5
8B1
 10
226.89925
 20
79.294417
 30
0.0
 11
224.138583
 21
79.29075
 31
0.0
  0
LINE
  8
1
  6
CONTINUOUS
 62
     7
  5
8B2
 10
267.830583
 20
51.794417
 30
0.0
 11
267.830583
 21
55.794417
 31
0.0
  0
LINE
  8
1
  6
CONTINUOUS
 62
     7
  5
8B3
 10
267.830583
 20
57.044417
 30
0.0
 11
267.830583
 21
61.044417
 31
0.0
  0
LINE
  8
1
  6
CONTINUOUS
 62
     7
  5
8B4
 10
267.830583
 20
51.794417
 30
0.0
 11
271.482
 21
51.794417
 31
0.0
  0
INSERT
  8
1
  6
CONTINUOUS
 62
     1
  5
8B5
  2
LDR
 10
267.830583
 20
55.794417
 30
0.0
 41
240.0
 42
240.0
 50
90.0
210
0.0
220
0.0
230
1.0
  0
INSERT
  8
1
  6
CONTINUOUS
 62
     1
  5
8B6
  2
LDR
 10
267.830583
 20
55.794417
 30
0.0
 41
240.0
 42
240.0
 50
90.0
210
0.0
220
0.0
230
1.0
  0
INSERT
  8
1
  6
CONTINUOUS
 62
     1
  5
8B7
  2
LDR
 10
267.830583
 20
57.044417
 30
0.0
 41
240.0
 42
240.0
 50
270.0
210
0.0
220
0.0
230
1.0
  0
LINE
  8
1
  6
CONTINUOUS
 62
     7
  5
8B8
 10
302.020583
 20
57.923083
 30
0.0
 11
296.43125
 21
63.7075
 31
0.0
  0
LINE
  8
1
  6
CONTINUOUS
 62
     7
  5
8B9
 10
296.43125
 20
63.7075
 30
0.0
 11
293.023583
 21
63.7075
 31
0.0
  0
INSERT
  8
1
  6
CONTINUOUS
 62
     1
  5
8BA
  2
LDR
 10
302.020583
 20
57.923083
 30
0.0
 41
240.0
 42
240.0
 50
314.017355
210
0.0
220
0.0
230
1.0
  0
LINE
  8
1
  6
CONTINUOUS
 62
     7
  5
8BB
 10
304.14925
 20
59.044417
 30
0.0
 11
304.14925
 21
39.794417
 31
0.0
  0
LINE
  8
1
  6
CONTINUOUS
 62
     7
  5
8BC
 10
243.89925
 20
40.794417
 30
0.0
 11
304.14925
 21
40.794417
 31
0.0
  0
LINE
  8
1
  6
CONTINUOUS
 62
     7
  5
8BD
 10
303.64925
 20
54.794417
 30
0.0
 11
303.64925
 21
47.794417
 31
0.0
  0
LINE
  8
1
  6
CONTINUOUS
 62
     7
  5
8BE
 10
303.64925
 20
48.794417
 30
0.0
 11
299.64925
 21
48.794417
 31
0.0
  0
LINE
  8
1
  6
CONTINUOUS
 62
     7
  5
8BF
 10
304.14925
 20
48.794417
 30
0.0
 11
308.14925
 21
48.794417
 31
0.0
  0
INSERT
  8
1
  6
CONTINUOUS
 62
     1
  5
8C0
  2
LDR
 10
303.64925
 20
48.794417
 30
0.0
 41
240.0
 42
240.0
210
0.0
220
0.0
230
1.0
  0
INSERT
  8
1
  6
CONTINUOUS
 62
     1
  5
8C1
  2
LDR
 10
303.64925
 20
48.794417
 30
0.0
 41
240.0
 42
240.0
210
0.0
220
0.0
230
1.0
  0
INSERT
  8
1
  6
CONTINUOUS
 62
     1
  5
8C2
  2
LDR
 10
304.14925
 20
48.794417
 30
0.0
 41
240.0
 42
240.0
 50
180.0
210
0.0
220
0.0
230
1.0
  0
INSERT
  8
1
  6
CONTINUOUS
 62
     1
  5
8C3
  2
LDR
 10
304.14925
 20
40.794417
 30
0.0
 41
240.0
 42
240.0
210
0.0
220
0.0
230
1.0
  0
INSERT
  8
1
  6
CONTINUOUS
 62
     1
  5
8C4
  2
LDR
 10
243.89925
 20
40.794417
 30
0.0
 41
240.0
 42
240.0
 50
180.0
210
0.0
220
0.0
230
1.0
  0
LINE
  8
1
  6
CONTINUOUS
 62
     7
  5
8C5
 10
303.64925
 20
55.794417
 30
0.0
 11
311.6285
 21
48.398083
 31
0.0
  0
LINE
  8
1
  6
CONTINUOUS
 62
     7
  5
8C6
 10
311.6285
 20
48.398083
 30
0.0
 11
315.161583
 21
48.398083
 31
0.0
  0
INSERT
  8
1
  6
CONTINUOUS
 62
     1
  5
8C7
  2
LDR
 10
303.64925
 20
55.794417
 30
0.0
 41
240.000002
 42
240.000002
 50
137.171148
210
0.0
220
0.0
230
1.0
  0
LINE
  8
1
  6
CONTINUOUS
 62
     7
  5
8C8
 10
304.64925
 20
55.794417
 30
0.0
 11
313.64925
 21
55.794417
 31
0.0
  0
LINE
  8
1
  6
CONTINUOUS
 62
     7
  5
8C9
 10
305.14925
 20
60.044417
 30
0.0
 11
313.64925
 21
60.044417
 31
0.0
  0
LINE
  8
1
  6
CONTINUOUS
 62
     7
  5
8CA
 10
312.64925
 20
64.044417
 30
0.0
 11
312.64925
 21
60.044417
 31
0.0
  0
LINE
  8
1
  6
CONTINUOUS
 62
     7
  5
8CB
 10
312.64925
 20
55.794417
 30
0.0
 11
312.64925
 21
51.794417
 31
0.0
  0
INSERT
  8
1
  6
CONTINUOUS
 62
     1
  5
8CC
  2
LDR
 10
312.64925
 20
60.044417
 30
0.0
 41
240.0
 42
240.0
 50
270.0
210
0.0
220
0.0
230
1.0
  0
INSERT
  8
1
  6
CONTINUOUS
 62
     1
  5
8CD
  2
LDR
 10
312.64925
 20
60.044417
 30
0.0
 41
240.0
 42
240.0
 50
270.0
210
0.0
220
0.0
230
1.0
  0
INSERT
  8
1
  6
CONTINUOUS
 62
     1
  5
8CE
  2
LDR
 10
312.64925
 20
55.794417
 30
0.0
 41
240.0
 42
240.0
 50
90.0
210
0.0
220
0.0
230
1.0
  0
TEXT
  8
1
  6
CONTINUOUS
 62
     7
  5
8CF
 10
255.56
 20
85.31125
 30
0.0
 40
2.5
  1
.410
  7
MONOTXT
 72
     1
 11
259.0245
 21
85.31125
 31
0.0
210
0.0
220
0.0
230
1.0
  0
TEXT
  8
1
  6
CONTINUOUS
 62
     7
  5
8D0
 10
233.040167
 20
77.850083
 30
0.0
 40
2.5
  1
.216
  7
MONOTXT
 72
     1
 11
236.396417
 21
77.850083
 31
0.0
210
0.0
220
0.0
230
1.0
  0
TEXT
  8
1
  6
CONTINUOUS
 62
     7
  5
8D1
 10
219.62575
 20
86.751167
 30
0.0
 40
2.5
  1
.250
  7
MONOTXT
 72
     1
 11
223.56275
 21
86.751167
 31
0.0
210
0.0
220
0.0
230
1.0
  0
TEXT
  8
1
  6
CONTINUOUS
 62
     7
  5
8D2
 10
216.814083
 20
78.111917
 30
0.0
 40
2.5
  1
.156
  7
MONOTXT
 72
     1
 11
220.170333
 21
78.111917
 31
0.0
210
0.0
220
0.0
230
1.0
  0
TEXT
  8
1
  6
CONTINUOUS
 62
     7
  5
8D3
 10
232.8815
 20
61.61875
 30
0.0
 40
2.5
  1
.687
  7
MONOTXT
 72
     1
 11
236.779167
 21
61.61875
 31
0.0
210
0.0
220
0.0
230
1.0
  0
TEXT
  8
1
  6
CONTINUOUS
 62
     7
  5
8D4
 10
255.88675
 20
64.629417
 30
0.0
 40
2.5
  1
.125 R
  7
MONOTXT
 72
     1
 11
261.782417
 21
64.629417
 31
0.0
210
0.0
220
0.0
230
1.0
  0
TEXT
  8
1
  6
CONTINUOUS
 62
     7
  5
8D5
 10
220.096
 20
45.780083
 30
0.0
 40
2.5
  1
.040 R
  7
MONOTXT
 72
     1
 11
226.582167
 21
45.780083
 31
0.0
210
0.0
220
0.0
230
1.0
  0
TEXT
  8
1
  6
CONTINUOUS
 62
     7
  5
8D6
 10
271.686583
 20
50.623333
 30
0.0
 40
2.5
  1
.078
  7
MONOTXT
 72
     1
 11
275.653083
 21
50.623333
 31
0.0
210
0.0
220
0.0
230
1.0
  0
TEXT
  8
1
  6
CONTINUOUS
 62
     7
  5
8D7
 10
291.314917
 20
47.612667
 30
0.0
 40
2.5
  1
.007
  7
MONOTXT
 72
     1
 11
295.271583
 21
47.612667
 31
0.0
210
0.0
220
0.0
230
1.0
  0
TEXT
  8
1
  6
CONTINUOUS
 62
     7
  5
8D8
 10
315.751417
 20
46.958167
 30
0.0
 40
2.5
  1
.040 R
  7
MONOTXT
 72
     1
 11
322.237583
 21
46.958167
 31
0.0
210
0.0
220
0.0
230
1.0
  0
TEXT
  8
1
  6
CONTINUOUS
 62
     7
  5
8D9
 10
308.980417
 20
56.7755
 30
0.0
 40
2.5
  1
.375
  7
MONOTXT
 72
     1
 11
312.946917
 21
56.7755
 31
0.0
210
0.0
220
0.0
230
1.0
  0
TEXT
  8
1
  6
CONTINUOUS
 62
     7
  5
8DA
 10
279.301833
 20
62.27325
 30
0.0
 40
2.5
  1
.250 R
  7
MONOTXT
 72
     1
 11
285.729
 21
62.27325
 31
0.0
210
0.0
220
0.0
230
1.0
  0
TEXT
  8
1
  6
CONTINUOUS
 62
     7
  5
8DB
 10
268.906167
 20
41.448917
 30
0.0
 40
2.5
  1
6.000
  7
MONOTXT
 72
     1
 11
274.02425
 21
41.448917
 31
0.0
210
0.0
220
0.0
230
1.0
  0
TEXT
  8
1
  6
CONTINUOUS
 62
     7
  5
8DC
 10
221.745
 20
60.36725
 30
0.0
 40
2.5
  1
2.000
 50
90.0
  7
MONOTXT
 72
     1
 11
221.745
 21
65.544417
 31
0.0
210
0.0
220
0.0
230
1.0
  0
LINE
  8
1
  6
CONTINUOUS
 62
     7
  5
8DD
 10
259.270583
 20
24.464083
 30
0.0
 11
295.91075
 21
24.464083
 31
0.0
  0
TEXT
  8
1
  6
CONTINUOUS
 62
     7
  5
8DE
 10
259.958833
 20
25.033917
 30
0.0
 40
3.0
  1
EXTRUSION "B"
  7
MONOTXT
 72
     1
 11
277.21475
 21
25.033917
 31
0.0
210
0.0
220
0.0
230
1.0
  0
LINE
  8
1
  6
CONTINUOUS
 62
     1
  5
8DF
 10
470.14925
 20
55.794417
 30
0.0
 11
470.14925
 21
60.794417
 31
0.0
  0
LINE
  8
1
  6
CONTINUOUS
 62
     1
  5
8E0
 10
470.14925
 20
60.794417
 30
0.0
 11
470.39925
 21
60.794417
 31
0.0
  0
LINE
  8
1
  6
CONTINUOUS
 62
     1
  5
8E1
 10
470.39925
 20
60.794417
 30
0.0
 11
470.39925
 21
75.294417
 31
0.0
  0
LINE
  8
1
  6
CONTINUOUS
 62
     1
  5
8E2
 10
470.39925
 20
61.294417
 30
0.0
 11
469.14925
 21
61.294417
 31
0.0
  0
LINE
  8
1
  6
CONTINUOUS
 62
     1
  5
8E3
 10
469.14925
 20
61.294417
 30
0.0
 11
469.14925
 21
60.044417
 31
0.0
  0
LINE
  8
1
  6
CONTINUOUS
 62
     1
  5
8E4
 10
470.39925
 20
75.294417
 30
0.0
 11
467.89925
 21
75.294417
 31
0.0
  0
LINE
  8
1
  6
CONTINUOUS
 62
     1
  5
8E5
 10
467.89925
 20
75.294417
 30
0.0
 11
467.89925
 21
73.544417
 31
0.0
  0
LINE
  8
1
  6
CONTINUOUS
 62
     1
  5
8E6
 10
467.89925
 20
73.544417
 30
0.0
 11
468.89925
 21
73.544417
 31
0.0
  0
LINE
  8
1
  6
CONTINUOUS
 62
     1
  5
8E7
 10
468.89925
 20
73.544417
 30
0.0
 11
468.89925
 21
71.044417
 31
0.0
  0
LINE
  8
1
  6
CONTINUOUS
 62
     1
  5
8E8
 10
468.89925
 20
71.044417
 30
0.0
 11
462.89925
 21
71.044417
 31
0.0
  0
LINE
  8
1
  6
CONTINUOUS
 62
     1
  5
8E9
 10
462.89925
 20
71.044417
 30
0.0
 11
462.89925
 21
73.544417
 31
0.0
  0
LINE
  8
1
  6
CONTINUOUS
 62
     1
  5
8EA
 10
462.89925
 20
73.544417
 30
0.0
 11
463.89925
 21
73.544417
 31
0.0
  0
LINE
  8
1
  6
CONTINUOUS
 62
     1
  5
8EB
 10
463.89925
 20
75.294417
 30
0.0
 11
463.89925
 21
73.544417
 31
0.0
  0
LINE
  8
1
  6
CONTINUOUS
 62
     1
  5
8EC
 10
463.89925
 20
75.294417
 30
0.0
 11
461.39925
 21
75.294417
 31
0.0
  0
LINE
  8
1
  6
CONTINUOUS
 62
     1
  5
8ED
 10
461.39925
 20
75.294417
 30
0.0
 11
461.39925
 21
73.544417
 31
0.0
  0
LINE
  8
1
  6
CONTINUOUS
 62
     1
  5
8EE
 10
469.39925
 20
61.419417
 30
0.0
 11
469.39925
 21
68.425167
 31
0.0
  0
LINE
  8
1
  6
CONTINUOUS
 62
     1
  5
8EF
 10
468.538417
 20
69.415417
 30
0.0
 11
461.477083
 21
70.407833
 31
0.0
  0
LINE
  8
1
  6
CONTINUOUS
 62
     1
  5
8F0
 10
461.39925
 20
73.544417
 30
0.0
 11
461.477083
 21
70.407833
 31
0.0
  0
LINE
  8
1
  6
CONTINUOUS
 62
     1
  5
8F1
 10
470.14925
 20
55.794417
 30
0.0
 11
411.64925
 21
55.794417
 31
0.0
  0
LINE
  8
1
  6
CONTINUOUS
 62
     1
  5
8F2
 10
466.14925
 20
57.044417
 30
0.0
 11
415.39925
 21
57.044417
 31
0.0
  0
LINE
  8
1
  6
CONTINUOUS
 62
     7
  5
8F3
 10
411.64925
 20
52.794417
 30
0.0
 11
411.64925
 21
77.929583
 31
0.0
  0
LINE
  8
1
  6
CONTINUOUS
 62
     1
  5
8F4
 10
412.39925
 20
60.044417
 30
0.0
 11
412.39925
 21
75.044417
 31
0.0
  0
ARC
  8
1
  6
CONTINUOUS
 62
     1
  5
8F5
 10
415.39925
 20
60.044417
 30
0.0
 40
3.0
 50
180.0
 51
270.0
210
0.0
220
0.0
230
1.0
  0
ARC
  8
1
  6
CONTINUOUS
 62
     1
  5
8F6
 10
466.14925
 20
60.044417
 30
0.0
 40
3.0
 50
270.0
 51
0.0
210
0.0
220
0.0
230
1.0
  0
LINE
  8
1
  6
CONTINUOUS
 62
     1
  5
8F7
 10
410.89925
 20
60.044417
 30
0.0
 11
410.89925
 21
75.044417
 31
0.0
  0
LINE
  8
1
  6
CONTINUOUS
 62
     1
  5
8F8
 10
353.14925
 20
55.794417
 30
0.0
 11
353.14925
 21
60.794417
 31
0.0
  0
LINE
  8
1
  6
CONTINUOUS
 62
     1
  5
8F9
 10
353.14925
 20
60.794417
 30
0.0
 11
352.89925
 21
60.794417
 31
0.0
  0
LINE
  8
1
  6
CONTINUOUS
 62
     1
  5
8FA
 10
352.89925
 20
60.794417
 30
0.0
 11
352.89925
 21
75.294417
 31
0.0
  0
LINE
  8
1
  6
CONTINUOUS
 62
     1
  5
8FB
 10
352.89925
 20
61.294417
 30
0.0
 11
354.14925
 21
61.294417
 31
0.0
  0
LINE
  8
1
  6
CONTINUOUS
 62
     1
  5
8FC
 10
354.14925
 20
61.294417
 30
0.0
 11
354.14925
 21
60.044417
 31
0.0
  0
LINE
  8
1
  6
CONTINUOUS
 62
     1
  5
8FD
 10
352.89925
 20
75.294417
 30
0.0
 11
355.39925
 21
75.294417
 31
0.0
  0
LINE
  8
1
  6
CONTINUOUS
 62
     1
  5
8FE
 10
355.39925
 20
75.294417
 30
0.0
 11
355.39925
 21
73.544417
 31
0.0
  0
LINE
  8
1
  6
CONTINUOUS
 62
     1
  5
8FF
 10
355.39925
 20
73.544417
 30
0.0
 11
354.39925
 21
73.544417
 31
0.0
  0
LINE
  8
1
  6
CONTINUOUS
 62
     1
  5
900
 10
354.39925
 20
73.544417
 30
0.0
 11
354.39925
 21
71.044417
 31
0.0
  0
LINE
  8
1
  6
CONTINUOUS
 62
     1
  5
901
 10
354.39925
 20
71.044417
 30
0.0
 11
360.39925
 21
71.044417
 31
0.0
  0
LINE
  8
1
  6
CONTINUOUS
 62
     1
  5
902
 10
360.39925
 20
71.044417
 30
0.0
 11
360.39925
 21
73.544417
 31
0.0
  0
LINE
  8
1
  6
CONTINUOUS
 62
     1
  5
903
 10
360.39925
 20
73.544417
 30
0.0
 11
359.39925
 21
73.544417
 31
0.0
  0
LINE
  8
1
  6
CONTINUOUS
 62
     1
  5
904
 10
359.39925
 20
75.294417
 30
0.0
 11
359.39925
 21
73.544417
 31
0.0
  0
LINE
  8
1
  6
CONTINUOUS
 62
     1
  5
905
 10
359.39925
 20
75.294417
 30
0.0
 11
361.89925
 21
75.294417
 31
0.0
  0
LINE
  8
1
  6
CONTINUOUS
 62
     1
  5
906
 10
361.89925
 20
75.294417
 30
0.0
 11
361.89925
 21
73.544417
 31
0.0
  0
LINE
  8
1
  6
CONTINUOUS
 62
     1
  5
907
 10
353.89925
 20
61.294417
 30
0.0
 11
353.89925
 21
67.555833
 31
0.0
  0
LINE
  8
1
  6
CONTINUOUS
 62
     1
  5
908
 10
355.620833
 20
69.536417
 30
0.0
 11
361.821417
 21
70.407833
 31
0.0
  0
LINE
  8
1
  6
CONTINUOUS
 62
     1
  5
909
 10
361.89925
 20
73.544417
 30
0.0
 11
361.821417
 21
70.407833
 31
0.0
  0
LINE
  8
1
  6
CONTINUOUS
 62
     1
  5
90A
 10
353.14925
 20
55.794417
 30
0.0
 11
411.64925
 21
55.794417
 31
0.0
  0
LINE
  8
1
  6
CONTINUOUS
 62
     1
  5
90B
 10
357.14925
 20
57.044417
 30
0.0
 11
407.89925
 21
57.044417
 31
0.0
  0
ARC
  8
1
  6
CONTINUOUS
 62
     1
  5
90C
 10
407.89925
 20
60.044417
 30
0.0
 40
3.0
 50
270.0
 51
0.0
210
0.0
220
0.0
230
1.0
  0
ARC
  8
1
  6
CONTINUOUS
 62
     1
  5
90D
 10
357.14925
 20
60.044417
 30
0.0
 40
3.0
 50
180.0
 51
270.0
210
0.0
220
0.0
230
1.0
  0
ARC
  8
1
  6
CONTINUOUS
 62
     1
  5
90E
 10
469.282314
 20
61.434588
 30
0.0
 40
0.117916
 50
188.414086
 51
352.607931
210
0.0
220
0.0
230
1.0
  0
ARC
  8
1
  6
CONTINUOUS
 62
     1
  5
90F
 10
470.597079
 20
60.963166
 30
0.0
 40
0.260024
 50
220.464461
 51
269.211442
210
0.0
220
0.0
230
1.0
  0
ARC
  8
1
  6
CONTINUOUS
 62
     1
  5
910
 10
352.701421
 20
60.963166
 30
0.0
 40
0.260024
 50
270.788558
 51
319.535539
210
0.0
220
0.0
230
1.0
  0
ARC
  8
1
  6
CONTINUOUS
 62
     1
  5
911
 10
354.016186
 20
61.434588
 30
0.0
 40
0.117916
 50
187.392069
 51
351.585914
210
0.0
220
0.0
230
1.0
  0
ARC
  8
1
  6
CONTINUOUS
 62
     1
  5
912
 10
411.64925
 20
74.972338
 30
0.0
 40
0.753456
 50
5.489539
 51
174.510458
210
0.0
220
0.0
230
1.0
  0
LINE
  8
1
  6
CONTINUOUS
 62
     7
  5
913
 10
352.89925
 20
76.294417
 30
0.0
 11
352.89925
 21
85.294417
 31
0.0
  0
LINE
  8
1
  6
CONTINUOUS
 62
     7
  5
914
 10
353.89925
 20
69.555833
 30
0.0
 11
353.89925
 21
74.294417
 31
0.0
  0
LINE
  8
1
  6
CONTINUOUS
 62
     7
  5
915
 10
353.89925
 20
76.294417
 30
0.0
 11
353.89925
 21
80.794417
 31
0.0
  0
LINE
  8
1
  6
CONTINUOUS
 62
     7
  5
916
 10
352.14925
 20
55.794417
 30
0.0
 11
336.14925
 21
55.794417
 31
0.0
  0
LINE
  8
1
  6
CONTINUOUS
 62
     7
  5
917
 10
351.705
 20
60.703167
 30
0.0
 11
342.705
 21
60.703167
 31
0.0
  0
LINE
  8
1
  6
CONTINUOUS
 62
     7
  5
918
 10
351.89925
 20
61.294417
 30
0.0
 11
346.89925
 21
61.294417
 31
0.0
  0
LINE
  8
1
  6
CONTINUOUS
 62
     7
  5
919
 10
351.89925
 20
75.294417
 30
0.0
 11
336.14925
 21
75.294417
 31
0.0
  0
LINE
  8
1
  6
CONTINUOUS
 62
     7
  5
91A
 10
361.89925
 20
76.294417
 30
0.0
 11
361.89925
 21
85.294417
 31
0.0
  0
ARC
  8
1
  6
CONTINUOUS
 62
     1
  5
91B
 10
355.89925
 20
67.555873
 30
0.0
 40
2.0
 50
98.000958
 51
180.0
210
0.0
220
0.0
230
1.0
  0
LINE
  8
1
  6
CONTINUOUS
 62
     7
  5
91C
 10
354.389833
 20
68.868
 30
0.0
 11
356.139083
 21
66.079583
 31
0.0
  0
LINE
  8
1
  6
CONTINUOUS
 62
     7
  5
91D
 10
356.139083
 20
66.079583
 30
0.0
 11
360.84375
 21
66.079583
 31
0.0
  0
INSERT
  8
1
  6
CONTINUOUS
 62
     1
  5
91E
  2
LDR
 10
354.389833
 20
68.868
 30
0.0
 41
240.000001
 42
240.000001
 50
122.101172
210
0.0
220
0.0
230
1.0
  0
LINE
  8
1
  6
CONTINUOUS
 62
     7
  5
91F
 10
355.027917
 20
57.923083
 30
0.0
 11
358.562667
 21
60.279917
 31
0.0
  0
LINE
  8
1
  6
CONTINUOUS
 62
     7
  5
920
 10
358.562667
 20
60.279917
 30
0.0
 11
360.84375
 21
60.279917
 31
0.0
  0
INSERT
  8
1
  6
CONTINUOUS
 62
     1
  5
921
  2
LDR
 10
355.027917
 20
57.923083
 30
0.0
 41
239.999998
 42
239.999998
 50
213.693808
210
0.0
220
0.0
230
1.0
  0
LINE
  8
1
  6
CONTINUOUS
 62
     7
  5
922
 10
348.89925
 20
84.294417
 30
0.0
 11
352.89925
 21
84.294417
 31
0.0
  0
LINE
  8
1
  6
CONTINUOUS
 62
     7
  5
923
 10
361.89925
 20
84.294417
 30
0.0
 11
365.89925
 21
84.294417
 31
0.0
  0
LINE
  8
1
  6
CONTINUOUS
 62
     7
  5
924
 10
353.89925
 20
79.794417
 30
0.0
 11
357.89925
 21
79.794417
 31
0.0
  0
LINE
  8
1
  6
CONTINUOUS
 62
     7
  5
925
 10
352.89925
 20
79.794417
 30
0.0
 11
348.89925
 21
79.794417
 31
0.0
  0
LINE
  8
1
  6
CONTINUOUS
 62
     7
  5
926
 10
343.705
 20
60.703167
 30
0.0
 11
343.705
 21
64.703167
 31
0.0
  0
LINE
  8
1
  6
CONTINUOUS
 62
     7
  5
927
 10
347.89925
 20
61.294417
 30
0.0
 11
347.89925
 21
65.294417
 31
0.0
  0
LINE
  8
1
  6
CONTINUOUS
 62
     7
  5
928
 10
380.14925
 20
57.044417
 30
0.0
 11
380.14925
 21
62.544417
 31
0.0
  0
LINE
  8
1
  6
CONTINUOUS
 62
     7
  5
929
 10
343.705
 20
55.794417
 30
0.0
 11
343.705
 21
51.794417
 31
0.0
  0
LINE
  8
1
  6
CONTINUOUS
 62
     7
  5
92A
 10
347.89925
 20
60.703167
 30
0.0
 11
347.89925
 21
56.703167
 31
0.0
  0
LINE
  8
1
  6
CONTINUOUS
 62
     7
  5
92B
 10
380.14925
 20
55.794417
 30
0.0
 11
380.14925
 21
50.294417
 31
0.0
  0
INSERT
  8
1
  6
CONTINUOUS
 62
     1
  5
92C
  2
LDR
 10
337.14925
 20
75.294417
 30
0.0
 41
240.0
 42
240.0
 50
90.0
210
0.0
220
0.0
230
1.0
  0
INSERT
  8
1
  6
CONTINUOUS
 62
     1
  5
92D
  2
LDR
 10
337.14925
 20
75.294417
 30
0.0
 41
240.0
 42
240.0
 50
90.0
210
0.0
220
0.0
230
1.0
  0
INSERT
  8
1
  6
CONTINUOUS
 62
     1
  5
92E
  2
LDR
 10
337.14925
 20
55.794417
 30
0.0
 41
240.0
 42
240.0
 50
270.0
210
0.0
220
0.0
230
1.0
  0
INSERT
  8
1
  6
CONTINUOUS
 62
     1
  5
92F
  2
LDR
 10
343.705
 20
60.703167
 30
0.0
 41
240.0
 42
240.0
 50
270.0
210
0.0
220
0.0
230
1.0
  0
INSERT
  8
1
  6
CONTINUOUS
 62
     1
  5
930
  2
LDR
 10
343.705
 20
60.703167
 30
0.0
 41
240.0
 42
240.0
 50
270.0
210
0.0
220
0.0
230
1.0
  0
INSERT
  8
1
  6
CONTINUOUS
 62
     1
  5
931
  2
LDR
 10
343.705
 20
55.794417
 30
0.0
 41
240.0
 42
240.0
 50
90.0
210
0.0
220
0.0
230
1.0
  0
INSERT
  8
1
  6
CONTINUOUS
 62
     1
  5
932
  2
LDR
 10
343.705
 20
55.794417
 30
0.0
 41
240.0
 42
240.0
 50
90.0
210
0.0
220
0.0
230
1.0
  0
INSERT
  8
1
  6
CONTINUOUS
 62
     1
  5
933
  2
LDR
 10
347.89925
 20
60.703167
 30
0.0
 41
240.0
 42
240.0
 50
90.0
210
0.0
220
0.0
230
1.0
  0
INSERT
  8
1
  6
CONTINUOUS
 62
     1
  5
934
  2
LDR
 10
347.89925
 20
60.703167
 30
0.0
 41
240.0
 42
240.0
 50
90.0
210
0.0
220
0.0
230
1.0
  0
INSERT
  8
1
  6
CONTINUOUS
 62
     1
  5
935
  2
LDR
 10
347.89925
 20
61.294417
 30
0.0
 41
240.0
 42
240.0
 50
270.0
210
0.0
220
0.0
230
1.0
  0
INSERT
  8
1
  6
CONTINUOUS
 62
     1
  5
936
  2
LDR
 10
347.89925
 20
61.294417
 30
0.0
 41
240.0
 42
240.0
 50
270.0
210
0.0
220
0.0
230
1.0
  0
INSERT
  8
1
  6
CONTINUOUS
 62
     1
  5
937
  2
LDR
 10
352.89925
 20
84.294417
 30
0.0
 41
240.0
 42
240.0
210
0.0
220
0.0
230
1.0
  0
INSERT
  8
1
  6
CONTINUOUS
 62
     1
  5
938
  2
LDR
 10
352.89925
 20
84.294417
 30
0.0
 41
240.0
 42
240.0
210
0.0
220
0.0
230
1.0
  0
INSERT
  8
1
  6
CONTINUOUS
 62
     1
  5
939
  2
LDR
 10
361.89925
 20
84.294417
 30
0.0
 41
240.0
 42
240.0
 50
180.0
210
0.0
220
0.0
230
1.0
  0
INSERT
  8
1
  6
CONTINUOUS
 62
     1
  5
93A
  2
LDR
 10
361.89925
 20
84.294417
 30
0.0
 41
240.0
 42
240.0
 50
180.0
210
0.0
220
0.0
230
1.0
  0
INSERT
  8
1
  6
CONTINUOUS
 62
     1
  5
93B
  2
LDR
 10
353.89925
 20
79.794417
 30
0.0
 41
240.0
 42
240.0
 50
180.0
210
0.0
220
0.0
230
1.0
  0
INSERT
  8
1
  6
CONTINUOUS
 62
     1
  5
93C
  2
LDR
 10
353.89925
 20
79.794417
 30
0.0
 41
240.0
 42
240.0
 50
180.0
210
0.0
220
0.0
230
1.0
  0
INSERT
  8
1
  6
CONTINUOUS
 62
     1
  5
93D
  2
LDR
 10
352.89925
 20
79.794417
 30
0.0
 41
240.0
 42
240.0
210
0.0
220
0.0
230
1.0
  0
LINE
  8
1
  6
CONTINUOUS
 62
     7
  5
93E
 10
356.39925
 20
75.294417
 30
0.0
 11
358.39925
 21
75.294417
 31
0.0
  0
LINE
  8
1
  6
CONTINUOUS
 62
     7
  5
93F
 10
352.705
 20
59.703167
 30
0.0
 11
352.705
 21
36.794417
 31
0.0
  0
LINE
  8
1
  6
CONTINUOUS
 62
     7
  5
940
 10
353.14925
 20
54.794417
 30
0.0
 11
353.14925
 21
47.794417
 31
0.0
  0
LINE
  8
1
  6
CONTINUOUS
 62
     7
  5
941
 10
410.89925
 20
78.044417
 30
0.0
 11
410.89925
 21
85.044417
 31
0.0
  0
LINE
  8
1
  6
CONTINUOUS
 62
     7
  5
942
 10
412.39925
 20
76.044417
 30
0.0
 11
412.39925
 21
85.044417
 31
0.0
  0
LINE
  8
1
  6
CONTINUOUS
 62
     7
  5
943
 10
412.39925
 20
84.044417
 30
0.0
 11
416.39925
 21
84.044417
 31
0.0
  0
LINE
  8
1
  6
CONTINUOUS
 62
     7
  5
944
 10
410.89925
 20
84.044417
 30
0.0
 11
406.89925
 21
84.044417
 31
0.0
  0
LINE
  8
1
  6
CONTINUOUS
 62
     7
  5
945
 10
411.64925
 20
75.725833
 30
0.0
 11
409.311917
 21
79.40875
 31
0.0
  0
LINE
  8
1
  6
CONTINUOUS
 62
     7
  5
946
 10
409.311917
 20
79.40875
 30
0.0
 11
405.227
 21
79.40875
 31
0.0
  0
LINE
  8
1
  6
CONTINUOUS
 62
     7
  5
947
 10
410.020583
 20
57.923083
 30
0.0
 11
405.227
 21
63.956667
 31
0.0
  0
LINE
  8
1
  6
CONTINUOUS
 62
     7
  5
948
 10
405.227
 20
63.956667
 30
0.0
 11
399.968833
 21
63.956667
 31
0.0
  0
LINE
  8
1
  6
CONTINUOUS
 62
     7
  5
949
 10
470.14925
 20
55.794417
 30
0.0
 11
470.14925
 21
36.794417
 31
0.0
  0
LINE
  8
1
  6
CONTINUOUS
 62
     7
  5
94A
 10
469.14925
 20
58.044417
 30
0.0
 11
469.14925
 21
56.794417
 31
0.0
  0
LINE
  8
1
  6
CONTINUOUS
 62
     7
  5
94B
 10
469.14925
 20
55.794417
 30
0.0
 11
469.14925
 21
47.794417
 31
0.0
  0
LINE
  8
1
  6
CONTINUOUS
 62
     7
  5
94C
 10
353.14925
 20
48.794417
 30
0.0
 11
357.14925
 21
48.794417
 31
0.0
  0
LINE
  8
1
  6
CONTINUOUS
 62
     7
  5
94D
 10
352.705
 20
48.794417
 30
0.0
 11
348.705
 21
48.794417
 31
0.0
  0
LINE
  8
1
  6
CONTINUOUS
 62
     7
  5
94E
 10
469.14925
 20
48.794417
 30
0.0
 11
465.14925
 21
48.794417
 31
0.0
  0
LINE
  8
1
  6
CONTINUOUS
 62
     7
  5
94F
 10
470.14925
 20
48.794417
 30
0.0
 11
474.14925
 21
48.794417
 31
0.0
  0
LINE
  8
1
  6
CONTINUOUS
 62
     7
  5
950
 10
352.705
 20
37.794417
 30
0.0
 11
470.14925
 21
37.794417
 31
0.0
  0
LINE
  8
1
  6
CONTINUOUS
 62
     7
  5
951
 10
463.89925
 20
76.294417
 30
0.0
 11
463.89925
 21
87.294417
 31
0.0
  0
LINE
  8
1
  6
CONTINUOUS
 62
     7
  5
952
 10
462.89925
 20
74.044417
 30
0.0
 11
462.89925
 21
74.794417
 31
0.0
  0
LINE
  8
1
  6
CONTINUOUS
 62
     7
  5
953
 10
462.89925
 20
76.294417
 30
0.0
 11
462.89925
 21
90.544417
 31
0.0
  0
LINE
  8
1
  6
CONTINUOUS
 62
     7
  5
954
 10
467.89925
 20
76.294417
 30
0.0
 11
467.89925
 21
87.294417
 31
0.0
  0
LINE
  8
1
  6
CONTINUOUS
 62
     7
  5
955
 10
468.89925
 20
76.294417
 30
0.0
 11
468.89925
 21
90.544417
 31
0.0
  0
LINE
  8
1
  6
CONTINUOUS
 62
     7
  5
956
 10
468.89925
 20
74.044417
 30
0.0
 11
468.89925
 21
74.794417
 31
0.0
  0
LINE
  8
1
  6
CONTINUOUS
 62
     7
  5
957
 10
470.39925
 20
76.294417
 30
0.0
 11
470.39925
 21
85.294417
 31
0.0
  0
LINE
  8
1
  6
CONTINUOUS
 62
     7
  5
958
 10
464.89925
 20
75.294417
 30
0.0
 11
466.89925
 21
75.294417
 31
0.0
  0
LINE
  8
1
  6
CONTINUOUS
 62
     7
  5
959
 10
464.89925
 20
73.544417
 30
0.0
 11
466.89925
 21
73.544417
 31
0.0
  0
LINE
  8
1
  6
CONTINUOUS
 62
     7
  5
95A
 10
462.39925
 20
73.544417
 30
0.0
 11
461.89925
 21
73.544417
 31
0.0
  0
LINE
  8
1
  6
CONTINUOUS
 62
     7
  5
95B
 10
460.39925
 20
73.544417
 30
0.0
 11
445.89925
 21
73.544417
 31
0.0
  0
LINE
  8
1
  6
CONTINUOUS
 62
     7
  5
95C
 10
462.39925
 20
71.044417
 30
0.0
 11
461.96125
 21
71.044417
 31
0.0
  0
LINE
  8
1
  6
CONTINUOUS
 62
     7
  5
95D
 10
460.46125
 20
71.044417
 30
0.0
 11
445.89925
 21
71.044417
 31
0.0
  0
LINE
  8
1
  6
CONTINUOUS
 62
     7
  5
95E
 10
460.477083
 20
70.407833
 30
0.0
 11
451.477083
 21
70.407833
 31
0.0
  0
LINE
  8
1
  6
CONTINUOUS
 62
     7
  5
95F
 10
460.39925
 20
75.294417
 30
0.0
 11
413.330417
 21
75.294417
 31
0.0
  0
LINE
  8
1
  6
CONTINUOUS
 62
     7
  5
960
 10
362.89925
 20
75.294417
 30
0.0
 11
409.89925
 21
75.294417
 31
0.0
  0
LINE
  8
1
  6
CONTINUOUS
 62
     7
  5
961
 10
470.39925
 20
75.294417
 30
0.0
 11
485.39925
 21
75.294417
 31
0.0
  0
LINE
  8
1
  6
CONTINUOUS
 62
     7
  5
962
 10
468.89925
 20
73.544417
 30
0.0
 11
477.89925
 21
73.544417
 31
0.0
  0
LINE
  8
1
  6
CONTINUOUS
 62
     7
  5
963
 10
469.64925
 20
78.712
 30
0.0
 11
470.14925
 21
78.712
 31
0.0
  0
LINE
  8
1
  6
CONTINUOUS
 62
     7
  5
964
 10
471.39925
 20
78.712
 30
0.0
 11
485.39925
 21
78.712
 31
0.0
  0
ARC
  8
1
  6
CONTINUOUS
 62
     1
  5
965
 10
468.39925
 20
68.425157
 30
0.0
 40
1.0
 50
0.0
 51
81.998258
210
0.0
220
0.0
230
1.0
  0
LINE
  8
1
  6
CONTINUOUS
 62
     7
  5
966
 10
461.477083
 20
69.407833
 30
0.0
 11
461.477083
 21
65.407833
 31
0.0
  0
LINE
  8
1
  6
CONTINUOUS
 62
     7
  5
967
 10
462.89925
 20
70.794417
 30
0.0
 11
462.89925
 21
70.458
 31
0.0
  0
LINE
  8
1
  6
CONTINUOUS
 62
     7
  5
968
 10
462.89925
 20
69.208
 30
0.0
 11
462.89925
 21
65.407833
 31
0.0
  0
LINE
  8
1
  6
CONTINUOUS
 62
     7
  5
969
 10
468.89925
 20
89.544417
 30
0.0
 11
472.89925
 21
89.544417
 31
0.0
  0
LINE
  8
1
  6
CONTINUOUS
 62
     7
  5
96A
 10
462.89925
 20
89.544417
 30
0.0
 11
458.89925
 21
89.544417
 31
0.0
  0
LINE
  8
1
  6
CONTINUOUS
 62
     7
  5
96B
 10
467.89925
 20
86.294417
 30
0.0
 11
471.89925
 21
86.294417
 31
0.0
  0
LINE
  8
1
  6
CONTINUOUS
 62
     7
  5
96C
 10
463.89925
 20
86.294417
 30
0.0
 11
459.89925
 21
86.294417
 31
0.0
  0
LINE
  8
1
  6
CONTINUOUS
 62
     7
  5
96D
 10
470.39925
 20
84.294417
 30
0.0
 11
474.39925
 21
84.294417
 31
0.0
  0
LINE
  8
1
  6
CONTINUOUS
 62
     7
  5
96E
 10
467.89925
 20
84.294417
 30
0.0
 11
464.39925
 21
84.294417
 31
0.0
  0
LINE
  8
1
  6
CONTINUOUS
 62
     7
  5
96F
 10
470.39925
 20
80.294417
 30
0.0
 11
474.39925
 21
80.294417
 31
0.0
  0
LINE
  8
1
  6
CONTINUOUS
 62
     7
  5
970
 10
468.89925
 20
80.294417
 30
0.0
 11
464.89925
 21
80.294417
 31
0.0
  0
LINE
  8
1
  6
CONTINUOUS
 62
     7
  5
971
 10
484.39925
 20
75.294417
 30
0.0
 11
484.39925
 21
79.294417
 31
0.0
  0
LINE
  8
1
  6
CONTINUOUS
 62
     7
  5
972
 10
484.39925
 20
69.294417
 30
0.0
 11
484.39925
 21
65.294417
 31
0.0
  0
LINE
  8
1
  6
CONTINUOUS
 62
     7
  5
973
 10
476.89925
 20
73.544417
 30
0.0
 11
476.89925
 21
69.544417
 31
0.0
  0
LINE
  8
1
  6
CONTINUOUS
 62
     7
  5
974
 10
476.89925
 20
75.294417
 30
0.0
 11
476.89925
 21
79.294417
 31
0.0
  0
LINE
  8
1
  6
CONTINUOUS
 62
     7
  5
975
 10
446.89925
 20
73.544417
 30
0.0
 11
446.89925
 21
77.544417
 31
0.0
  0
LINE
  8
1
  6
CONTINUOUS
 62
     7
  5
976
 10
446.89925
 20
71.044417
 30
0.0
 11
446.89925
 21
67.044417
 31
0.0
  0
LINE
  8
1
  6
CONTINUOUS
 62
     7
  5
977
 10
452.477083
 20
70.407833
 30
0.0
 11
452.477083
 21
66.407833
 31
0.0
  0
LINE
  8
1
  6
CONTINUOUS
 62
     7
  5
978
 10
452.477083
 20
71.044417
 30
0.0
 11
452.477083
 21
75.044417
 31
0.0
  0
LINE
  8
1
  6
CONTINUOUS
 62
     7
  5
979
 10
462.89925
 20
66.407833
 30
0.0
 11
466.89925
 21
66.407833
 31
0.0
  0
LINE
  8
1
  6
CONTINUOUS
 62
     7
  5
97A
 10
461.477083
 20
66.407833
 30
0.0
 11
457.477083
 21
66.407833
 31
0.0
  0
ARC
  8
1
  6
CONTINUOUS
 62
     7
  5
97B
 10
469.975591
 20
57.5151
 30
0.0
 40
5.531028
 50
105.734989
 51
173.597253
210
0.0
220
0.0
230
1.0
  0
LINE
  8
1
  6
CONTINUOUS
 62
     7
  5
97C
 10
470.39925
 20
63.017417
 30
0.0
 11
475.548583
 21
63.017417
 31
0.0
  0
INSERT
  8
1
  6
CONTINUOUS
 62
     1
  5
97D
  2
LDR
 10
462.89925
 20
89.544417
 30
0.0
 41
240.0
 42
240.0
210
0.0
220
0.0
230
1.0
  0
INSERT
  8
1
  6
CONTINUOUS
 62
     1
  5
97E
  2
LDR
 10
462.89925
 20
89.544417
 30
0.0
 41
240.0
 42
240.0
210
0.0
220
0.0
230
1.0
  0
INSERT
  8
1
  6
CONTINUOUS
 62
     1
  5
97F
  2
LDR
 10
468.89925
 20
89.544417
 30
0.0
 41
240.0
 42
240.0
 50
180.0
210
0.0
220
0.0
230
1.0
  0
INSERT
  8
1
  6
CONTINUOUS
 62
     1
  5
980
  2
LDR
 10
468.89925
 20
89.544417
 30
0.0
 41
240.0
 42
240.0
 50
180.0
210
0.0
220
0.0
230
1.0
  0
INSERT
  8
1
  6
CONTINUOUS
 62
     1
  5
981
  2
LDR
 10
463.89925
 20
86.294417
 30
0.0
 41
240.0
 42
240.0
210
0.0
220
0.0
230
1.0
  0
INSERT
  8
1
  6
CONTINUOUS
 62
     1
  5
982
  2
LDR
 10
467.89925
 20
86.294417
 30
0.0
 41
240.0
 42
240.0
 50
180.0
210
0.0
220
0.0
230
1.0
  0
INSERT
  8
1
  6
CONTINUOUS
 62
     1
  5
983
  2
LDR
 10
467.89925
 20
84.294417
 30
0.0
 41
240.0
 42
240.0
210
0.0
220
0.0
230
1.0
  0
INSERT
  8
1
  6
CONTINUOUS
 62
     1
  5
984
  2
LDR
 10
467.89925
 20
84.294417
 30
0.0
 41
240.0
 42
240.0
210
0.0
220
0.0
230
1.0
  0
INSERT
  8
1
  6
CONTINUOUS
 62
     1
  5
985
  2
LDR
 10
470.39925
 20
84.294417
 30
0.0
 41
240.0
 42
240.0
 50
180.0
210
0.0
220
0.0
230
1.0
  0
INSERT
  8
1
  6
CONTINUOUS
 62
     1
  5
986
  2
LDR
 10
470.39925
 20
84.294417
 30
0.0
 41
240.0
 42
240.0
 50
180.0
210
0.0
220
0.0
230
1.0
  0
INSERT
  8
1
  6
CONTINUOUS
 62
     1
  5
987
  2
LDR
 10
476.89925
 20
75.294417
 30
0.0
 41
240.0
 42
240.0
 50
270.0
210
0.0
220
0.0
230
1.0
  0
INSERT
  8
1
  6
CONTINUOUS
 62
     1
  5
988
  2
LDR
 10
476.89925
 20
75.294417
 30
0.0
 41
240.0
 42
240.0
 50
270.0
210
0.0
220
0.0
230
1.0
  0
INSERT
  8
1
  6
CONTINUOUS
 62
     1
  5
989
  2
LDR
 10
484.39925
 20
75.294417
 30
0.0
 41
240.0
 42
240.0
 50
270.0
210
0.0
220
0.0
230
1.0
  0
INSERT
  8
1
  6
CONTINUOUS
 62
     1
  5
98A
  2
LDR
 10
484.39925
 20
75.294417
 30
0.0
 41
240.0
 42
240.0
 50
270.0
210
0.0
220
0.0
230
1.0
  0
INSERT
  8
1
  6
CONTINUOUS
 62
     1
  5
98B
  2
LDR
 10
476.89925
 20
73.544417
 30
0.0
 41
240.0
 42
240.0
 50
90.0
210
0.0
220
0.0
230
1.0
  0
INSERT
  8
1
  6
CONTINUOUS
 62
     1
  5
98C
  2
LDR
 10
476.89925
 20
73.544417
 30
0.0
 41
240.0
 42
240.0
 50
90.0
210
0.0
220
0.0
230
1.0
  0
INSERT
  8
1
  6
CONTINUOUS
 62
     1
  5
98D
  2
LDR
 10
484.39925
 20
69.294417
 30
0.0
 41
240.0
 42
240.0
 50
90.0
210
0.0
220
0.0
230
1.0
  0
INSERT
  8
1
  6
CONTINUOUS
 62
     1
  5
98E
  2
LDR
 10
484.39925
 20
69.294417
 30
0.0
 41
240.0
 42
240.0
 50
90.0
210
0.0
220
0.0
230
1.0
  0
INSERT
  8
1
  6
CONTINUOUS
 62
     1
  5
98F
  2
LDR
 10
446.89925
 20
73.544417
 30
0.0
 41
240.0
 42
240.0
 50
270.0
210
0.0
220
0.0
230
1.0
  0
INSERT
  8
1
  6
CONTINUOUS
 62
     1
  5
990
  2
LDR
 10
446.89925
 20
71.044417
 30
0.0
 41
240.0
 42
240.0
 50
90.0
210
0.0
220
0.0
230
1.0
  0
INSERT
  8
1
  6
CONTINUOUS
 62
     1
  5
991
  2
LDR
 10
446.89925
 20
71.044417
 30
0.0
 41
240.0
 42
240.0
 50
90.0
210
0.0
220
0.0
230
1.0
  0
INSERT
  8
1
  6
CONTINUOUS
 62
     1
  5
992
  2
LDR
 10
452.477083
 20
71.044417
 30
0.0
 41
240.0
 42
240.0
 50
270.0
210
0.0
220
0.0
230
1.0
  0
INSERT
  8
1
  6
CONTINUOUS
 62
     1
  5
993
  2
LDR
 10
452.477083
 20
71.044417
 30
0.0
 41
240.0
 42
240.0
 50
270.0
210
0.0
220
0.0
230
1.0
  0
INSERT
  8
1
  6
CONTINUOUS
 62
     1
  5
994
  2
LDR
 10
452.477083
 20
70.407833
 30
0.0
 41
240.0
 42
240.0
 50
90.0
210
0.0
220
0.0
230
1.0
  0
INSERT
  8
1
  6
CONTINUOUS
 62
     1
  5
995
  2
LDR
 10
452.477083
 20
70.407833
 30
0.0
 41
240.0
 42
240.0
 50
90.0
210
0.0
220
0.0
230
1.0
  0
INSERT
  8
1
  6
CONTINUOUS
 62
     1
  5
996
  2
LDR
 10
461.477083
 20
66.407833
 30
0.0
 41
240.0
 42
240.0
210
0.0
220
0.0
230
1.0
  0
INSERT
  8
1
  6
CONTINUOUS
 62
     1
  5
997
  2
LDR
 10
461.477083
 20
66.407833
 30
0.0
 41
240.0
 42
240.0
210
0.0
220
0.0
230
1.0
  0
INSERT
  8
1
  6
CONTINUOUS
 62
     1
  5
998
  2
LDR
 10
462.89925
 20
66.407833
 30
0.0
 41
240.0
 42
240.0
 50
180.0
210
0.0
220
0.0
230
1.0
  0
INSERT
  8
1
  6
CONTINUOUS
 62
     1
  5
999
  2
LDR
 10
462.89925
 20
66.407833
 30
0.0
 41
240.0
 42
240.0
 50
180.0
210
0.0
220
0.0
230
1.0
  0
INSERT
  8
1
  6
CONTINUOUS
 62
     1
  5
99A
  2
LDR
 10
469.462917
 20
63.214167
 30
0.0
 41
239.999995
 42
239.999995
 50
22.713185
210
0.0
220
0.0
230
1.0
  0
INSERT
  8
1
  6
CONTINUOUS
 62
     1
  5
99B
  2
LDR
 10
464.268833
 20
57.095833
 30
0.0
 41
240.000001
 42
240.000001
 50
259.515267
210
0.0
220
0.0
230
1.0
  0
INSERT
  8
1
  6
CONTINUOUS
 62
     1
  5
99C
  2
LDR
 10
470.39925
 20
63.017417
 30
0.0
 41
240.0
 42
240.0
 50
180.0
210
0.0
220
0.0
230
1.0
  0
INSERT
  8
1
  6
CONTINUOUS
 62
     1
  5
99D
  2
LDR
 10
470.39925
 20
63.017417
 30
0.0
 41
240.0
 42
240.0
 50
180.0
210
0.0
220
0.0
230
1.0
  0
INSERT
  8
1
  6
CONTINUOUS
 62
     1
  5
99E
  2
LDR
 10
469.14925
 20
48.794417
 30
0.0
 41
240.0
 42
240.0
210
0.0
220
0.0
230
1.0
  0
INSERT
  8
1
  6
CONTINUOUS
 62
     1
  5
99F
  2
LDR
 10
469.14925
 20
48.794417
 30
0.0
 41
240.0
 42
240.0
210
0.0
220
0.0
230
1.0
  0
INSERT
  8
1
  6
CONTINUOUS
 62
     1
  5
9A0
  2
LDR
 10
469.14925
 20
48.794417
 30
0.0
 41
240.0
 42
240.0
210
0.0
220
0.0
230
1.0
  0
INSERT
  8
1
  6
CONTINUOUS
 62
     1
  5
9A1
  2
LDR
 10
470.14925
 20
48.794417
 30
0.0
 41
240.0
 42
240.0
 50
180.0
210
0.0
220
0.0
230
1.0
  0
INSERT
  8
1
  6
CONTINUOUS
 62
     1
  5
9A2
  2
LDR
 10
470.14925
 20
37.794417
 30
0.0
 41
240.0
 42
240.0
210
0.0
220
0.0
230
1.0
  0
POLYLINE
  8
1
  6
CONTINUOUS
 62
     7
  5
9A3
 66
     1
 10
0.0
 20
0.0
 30
0.0
210
0.0
220
0.0
230
1.0
  0
VERTEX
  8
1
  6
CONTINUOUS
 62
     7
  5
9A4
 10
465.759333
 20
61.095
 30
0.0
 42
0.039823
  0
VERTEX
  8
1
  6
CONTINUOUS
 62
     7
  5
9A5
 10
462.033837
 20
59.858809
 30
0.0
 42
0.041545
  0
VERTEX
  8
1
  6
CONTINUOUS
 62
     7
  5
9A6
 10
458.628796
 20
58.076758
 30
0.0
 42
0.045084
  0
VERTEX
  8
1
  6
CONTINUOUS
 62
     7
  5
9A7
 10
455.70153
 20
55.831182
 30
0.0
 42
0.050527
  0
VERTEX
  8
1
  6
CONTINUOUS
 62
     7
  5
9A8
 10
453.387287
 20
53.225832
 30
0.0
 42
0.050527
  0
SEQEND
  8
1
  6
CONTINUOUS
 62
     7
  5
9A9
  0
INSERT
  8
1
  6
CONTINUOUS
 62
     1
  5
9AA
  2
LDR
 10
410.89925
 20
84.044417
 30
0.0
 41
240.0
 42
240.0
210
0.0
220
0.0
230
1.0
  0
INSERT
  8
1
  6
CONTINUOUS
 62
     1
  5
9AB
  2
LDR
 10
410.89925
 20
84.044417
 30
0.0
 41
240.0
 42
240.0
210
0.0
220
0.0
230
1.0
  0
INSERT
  8
1
  6
CONTINUOUS
 62
     1
  5
9AC
  2
LDR
 10
412.39925
 20
84.044417
 30
0.0
 41
240.0
 42
240.0
 50
180.0
210
0.0
220
0.0
230
1.0
  0
INSERT
  8
1
  6
CONTINUOUS
 62
     1
  5
9AD
  2
LDR
 10
412.39925
 20
84.044417
 30
0.0
 41
240.0
 42
240.0
 50
180.0
210
0.0
220
0.0
230
1.0
  0
INSERT
  8
1
  6
CONTINUOUS
 62
     1
  5
9AE
  2
LDR
 10
411.64925
 20
75.725833
 30
0.0
 41
239.999999
 42
239.999999
 50
302.400925
210
0.0
220
0.0
230
1.0
  0
INSERT
  8
1
  6
CONTINUOUS
 62
     1
  5
9AF
  2
LDR
 10
410.020583
 20
57.923083
 30
0.0
 41
239.999999
 42
239.999999
 50
308.466567
210
0.0
220
0.0
230
1.0
  0
INSERT
  8
1
  6
CONTINUOUS
 62
     1
  5
9B0
  2
LDR
 10
352.705
 20
48.794417
 30
0.0
 41
240.0
 42
240.0
210
0.0
220
0.0
230
1.0
  0
INSERT
  8
1
  6
CONTINUOUS
 62
     1
  5
9B1
  2
LDR
 10
352.705
 20
48.794417
 30
0.0
 41
240.0
 42
240.0
210
0.0
220
0.0
230
1.0
  0
INSERT
  8
1
  6
CONTINUOUS
 62
     1
  5
9B2
  2
LDR
 10
353.14925
 20
48.794417
 30
0.0
 41
240.0
 42
240.0
 50
180.0
210
0.0
220
0.0
230
1.0
  0
INSERT
  8
1
  6
CONTINUOUS
 62
     1
  5
9B3
  2
LDR
 10
353.14925
 20
48.794417
 30
0.0
 41
240.0
 42
240.0
 50
180.0
210
0.0
220
0.0
230
1.0
  0
INSERT
  8
1
  6
CONTINUOUS
 62
     1
  5
9B4
  2
LDR
 10
352.705
 20
37.794417
 30
0.0
 41
240.0
 42
240.0
 50
180.0
210
0.0
220
0.0
230
1.0
  0
TEXT
  8
1
  6
CONTINUOUS
 62
     7
  5
9B5
 10
353.40075
 20
83.266333
 30
0.0
 40
2.5
  1
.986
  7
MONOTXT
 72
     1
 11
357.229417
 21
83.266333
 31
0.0
210
0.0
220
0.0
230
1.0
  0
TEXT
  8
1
  6
CONTINUOUS
 62
     7
  5
9B6
 10
341.431417
 20
78.712333
 30
0.0
 40
2.5
  1
.081
  7
MONOTXT
 72
     1
 11
344.836917
 21
78.712333
 31
0.0
210
0.0
220
0.0
230
1.0
  0
TEXT
  8
1
  6
CONTINUOUS
 62
     7
  5
9B7
 10
345.164417
 20
65.688
 30
0.0
 40
2.5
  1
.081
  7
MONOTXT
 72
     1
 11
348.569917
 21
65.688
 31
0.0
210
0.0
220
0.0
230
1.0
  0
TEXT
  8
1
  6
CONTINUOUS
 62
     7
  5
9B8
 10
338.532583
 20
57.1265
 30
0.0
 40
2.5
  1
.500
  7
MONOTXT
 72
     1
 11
342.469583
 21
57.1265
 31
0.0
210
0.0
220
0.0
230
1.0
  0
TEXT
  8
1
  6
CONTINUOUS
 62
     7
  5
9B9
 10
385.122167
 20
49.013667
 30
0.0
 40
2.5
  1
.081
  7
MONOTXT
 72
     1
 11
388.527667
 21
49.013667
 31
0.0
210
0.0
220
0.0
230
1.0
  0
TEXT
  8
1
  6
CONTINUOUS
 62
     7
  5
9BA
 10
356.540833
 20
47.198833
 30
0.0
 40
2.5
  1
.007
  7
MONOTXT
 72
     1
 11
360.4975
 21
47.198833
 31
0.0
210
0.0
220
0.0
230
1.0
  0
TEXT
  8
1
  6
CONTINUOUS
 62
     7
  5
9BB
 10
360.419083
 20
58.948083
 30
0.0
 40
2.5
  1
.220R
  7
MONOTXT
 72
     1
 11
365.606083
 21
58.948083
 31
0.0
210
0.0
220
0.0
230
1.0
  0
TEXT
  8
1
  6
CONTINUOUS
 62
     7
  5
9BC
 10
360.404333
 20
64.86825
 30
0.0
 40
2.5
  1
.125R
  7
MONOTXT
 72
     1
 11
365.059833
 21
64.86825
 31
0.0
210
0.0
220
0.0
230
1.0
  0
TEXT
  8
1
  6
CONTINUOUS
 62
     7
  5
9BD
 10
337.64425
 20
70.424083
 30
0.0
 40
2.5
  1
+.016
  7
MONOTXT
 72
     1
 11
342.024083
 21
70.424083
 31
0.0
210
0.0
220
0.0
230
1.0
  0
TEXT
  8
1
  6
CONTINUOUS
 62
     7
  5
9BE
 10
337.72025
 20
69.331167
 30
0.0
 40
2.5
  1
-
  7
MONOTXT
 72
     1
 11
338.28125
 21
69.331167
 31
0.0
210
0.0
220
0.0
230
1.0
  0
TEXT
  8
1
  6
CONTINUOUS
 62
     7
  5
9BF
 10
331.46525
 20
66.507667
 30
0.0
 40
2.5
  1
2.000
  7
MONOTXT
 72
     1
 11
336.642417
 21
66.507667
 31
0.0
210
0.0
220
0.0
230
1.0
  0
LINE
  8
1
  6
CONTINUOUS
 62
     7
  5
9C0
 10
337.14925
 20
75.294417
 30
0.0
 11
337.14925
 21
69.331167
 31
0.0
  0
LINE
  8
1
  6
CONTINUOUS
 62
     7
  5
9C1
 10
337.14925
 20
66.05225
 30
0.0
 11
337.14925
 21
55.794417
 31
0.0
  0
TEXT
  8
1
  6
CONTINUOUS
 62
     7
  5
9C2
 10
416.092417
 20
82.719833
 30
0.0
 40
2.5
  1
.125
  7
MONOTXT
 72
     1
 11
419.50775
 21
82.719833
 31
0.0
210
0.0
220
0.0
230
1.0
  0
TEXT
  8
1
  6
CONTINUOUS
 62
     7
  5
9C3
 10
394.621917
 20
78.348
 30
0.0
 40
2.5
  1
.062R
  7
MONOTXT
 72
     1
 11
399.749833
 21
78.348
 31
0.0
210
0.0
220
0.0
230
1.0
  0
TEXT
  8
1
  6
CONTINUOUS
 62
     7
  5
9C4
 10
389.099833
 20
62.773417
 30
0.0
 40
2.5
  1
.250R
  7
MONOTXT
 72
     1
 11
394.286833
 21
62.773417
 31
0.0
210
0.0
220
0.0
230
1.0
  0
TEXT
  8
1
  6
CONTINUOUS
 62
     7
  5
9C5
 10
408.240083
 20
38.54625
 30
0.0
 40
2.5
  1
12.000
  7
MONOTXT
 72
     1
 11
414.125917
 21
38.54625
 31
0.0
210
0.0
220
0.0
230
1.0
  0
TEXT
  8
1
  6
CONTINUOUS
 62
     7
  5
9C6
 10
472.300583
 20
88.284083
 30
0.0
 40
2.5
  1
.687
  7
MONOTXT
 72
     1
 11
476.19825
 21
88.284083
 31
0.0
210
0.0
220
0.0
230
1.0
  0
TEXT
  8
1
  6
CONTINUOUS
 62
     7
  5
9C7
 10
481.345583
 20
90.503667
 30
0.0
 40
2.5
  1
+.050
  7
MONOTXT
 72
     1
 11
486.306167
 21
90.503667
 31
0.0
210
0.0
220
0.0
230
1.0
  0
TEXT
  8
1
  6
CONTINUOUS
 62
     7
  5
9C8
 10
481.468833
 20
86.74275
 30
0.0
 40
2.5
  1
-.000
  7
MONOTXT
 72
     1
 11
486.429417
 21
86.74275
 31
0.0
210
0.0
220
0.0
230
1.0
  0
TEXT
  8
1
  6
CONTINUOUS
 62
     7
  5
9C9
 10
452.579417
 20
84.954833
 30
0.0
 40
2.5
  1
.410
  7
MONOTXT
 72
     1
 11
456.043917
 21
84.954833
 31
0.0
210
0.0
220
0.0
230
1.0
  0
TEXT
  8
1
  6
CONTINUOUS
 62
     7
  5
9CA
 10
474.726667
 20
84.153333
 30
0.0
 40
2.5
  1
.264
  7
MONOTXT
 72
     1
 11
478.6735
 21
84.153333
 31
0.0
210
0.0
220
0.0
230
1.0
  0
INSERT
  8
1
  6
CONTINUOUS
 62
     1
  5
9CB
  2
LDR
 10
470.39925
 20
80.294417
 30
0.0
 41
240.0
 42
240.0
 50
180.0
210
0.0
220
0.0
230
1.0
  0
INSERT
  8
1
  6
CONTINUOUS
 62
     1
  5
9CC
  2
LDR
 10
470.39925
 20
80.294417
 30
0.0
 41
240.0
 42
240.0
 50
180.0
210
0.0
220
0.0
230
1.0
  0
INSERT
  8
1
  6
CONTINUOUS
 62
     1
  5
9CD
  2
LDR
 10
468.89925
 20
80.294417
 30
0.0
 41
240.0
 42
240.0
210
0.0
220
0.0
230
1.0
  0
TEXT
  8
1
  6
CONTINUOUS
 62
     7
  5
9CE
 10
474.703417
 20
80.084167
 30
0.0
 40
2.5
  1
.125
  7
MONOTXT
 72
     1
 11
478.11875
 21
80.084167
 31
0.0
210
0.0
220
0.0
230
1.0
  0
TEXT
  8
1
  6
CONTINUOUS
 62
     7
  5
9CF
 10
472.6695
 20
66.273667
 30
0.0
 40
2.5
  1
.188
  7
MONOTXT
 72
     1
 11
476.084833
 21
66.273667
 31
0.0
210
0.0
220
0.0
230
1.0
  0
TEXT
  8
1
  6
CONTINUOUS
 62
     7
  5
9D0
 10
481.008083
 20
71.021
 30
0.0
 40
2.5
  1
.626
  7
MONOTXT
 72
     1
 11
484.83675
 21
71.021
 31
0.0
210
0.0
220
0.0
230
1.0
  0
TEXT
  8
1
  6
CONTINUOUS
 62
     7
  5
9D1
 10
487.491917
 20
74.350333
 30
0.0
 40
2.5
  1
P.I.
  7
MONOTXT
 72
     1
 11
489.942667
 21
74.350333
 31
0.0
210
0.0
220
0.0
230
1.0
  0
TEXT
  8
1
  6
CONTINUOUS
 62
     7
  5
9D2
 10
476.075
 20
61.739083
 30
0.0
 40
2.5
  1
MUST BE
  7
MONOTXT
 11
476.075
 21
64.239083
 31
0.0
210
0.0
220
0.0
230
1.0
 73
     3
  0
TEXT
  8
1
  6
CONTINUOUS
 62
     7
  5
9D3
 10
476.075
 20
57.239083
 30
0.0
 40
2.5
  1
FLAT OR
  7
MONOTXT
 11
476.075
 21
59.739083
 31
0.0
210
0.0
220
0.0
230
1.0
 73
     3
  0
TEXT
  8
1
  6
CONTINUOUS
 62
     7
  5
9D4
 10
476.075
 20
52.739083
 30
0.0
 40
2.5
  1
CONCAVE
  7
MONOTXT
 11
476.075
 21
55.239083
 31
0.0
210
0.0
220
0.0
230
1.0
 73
     3
  0
TEXT
  8
1
  6
CONTINUOUS
 62
     7
  5
9D5
 10
476.075
 20
48.239083
 30
0.0
 40
2.5
  1
(BOTH
  7
MONOTXT
 11
476.075
 21
50.739083
 31
0.0
210
0.0
220
0.0
230
1.0
 73
     3
  0
TEXT
  8
1
  6
CONTINUOUS
 62
     7
  5
9D6
 10
476.075
 20
43.739083
 30
0.0
 40
2.5
  1
SIDES)
  7
MONOTXT
 11
476.075
 21
46.239083
 31
0.0
210
0.0
220
0.0
230
1.0
 73
     3
  0
TEXT
  8
1
  6
CONTINUOUS
 62
     7
  5
9D7
 10
455.496833
 20
62.3895
 30
0.0
 40
2.5
  1
.094
  7
MONOTXT
 72
     1
 11
459.443667
 21
62.3895
 31
0.0
210
0.0
220
0.0
230
1.0
  0
TEXT
  8
1
  6
CONTINUOUS
 62
     7
  5
9D8
 10
446.868083
 20
63.622583
 30
0.0
 40
2.5
  1
.094
  7
MONOTXT
 72
     1
 11
450.814917
 21
63.622583
 31
0.0
210
0.0
220
0.0
230
1.0
  0
TEXT
  8
1
  6
CONTINUOUS
 62
     7
  5
9D9
 10
463.762833
 20
63.191
 30
0.0
 40
2.5
  1
P.I.
  7
MONOTXT
 72
     1
 11
466.213583
 21
63.191
 31
0.0
210
0.0
220
0.0
230
1.0
  0
TEXT
  8
1
  6
CONTINUOUS
 62
     7
  5
9DA
 10
453.531583
 20
66.951917
 30
0.0
 40
2.5
  1
P.I.
  7
MONOTXT
 72
     1
 11
455.982333
 21
66.951917
 31
0.0
210
0.0
220
0.0
230
1.0
  0
TEXT
  8
1
  6
CONTINUOUS
 62
     7
  5
9DB
 10
444.765
 20
49.593167
 30
0.0
 40
2.5
  1
90+1
  7
MONOTXT
 11
444.765
 21
52.093167
 31
0.0
210
0.0
220
0.0
230
1.0
 73
     3
  0
TEXT
  8
1
  6
CONTINUOUS
 62
     7
  5
9DC
 10
444.765
 20
45.093167
 30
0.0
 40
2.5
  1
  -2
  7
MONOTXT
 11
444.765
 21
47.593167
 31
0.0
210
0.0
220
0.0
230
1.0
 73
     3
  0
CIRCLE
  8
1
  6
CONTINUOUS
 62
     7
  5
9DD
 10
449.26425
 20
52.27825
 30
0.0
 40
0.359532
210
0.0
220
0.0
230
1.0
  0
CIRCLE
  8
1
  6
CONTINUOUS
 62
     7
  5
9DE
 10
453.147167
 20
52.401583
 30
0.0
 40
0.359532
210
0.0
220
0.0
230
1.0
  0
CIRCLE
  8
1
  6
CONTINUOUS
 62
     7
  5
9DF
 10
454.195
 20
47.715917
 30
0.0
 40
0.359532
210
0.0
220
0.0
230
1.0
  0
TEXT
  8
1
  6
CONTINUOUS
 62
     7
  5
9E0
 10
460.58925
 20
49.565417
 30
0.0
 40
2.5
  1
.081
  7
MONOTXT
 72
     1
 11
463.99475
 21
49.565417
 31
0.0
210
0.0
220
0.0
230
1.0
  0
TEXT
  8
1
  6
CONTINUOUS
 62
     7
  5
9E1
 10
434.518833
 20
80.405333
 30
0.0
 40
2.5
  1
+.040
  7
MONOTXT
 11
434.518833
 21
82.905333
 31
0.0
210
0.0
220
0.0
230
1.0
 73
     3
  0
TEXT
  8
1
  6
CONTINUOUS
 62
     7
  5
9E2
 10
434.518833
 20
75.905333
 30
0.0
 40
2.5
  1
-.000
  7
MONOTXT
 11
434.518833
 21
78.405333
 31
0.0
210
0.0
220
0.0
230
1.0
 73
     3
  0
TEXT
  8
1
  6
CONTINUOUS
 62
     7
  5
9E3
 10
445.156833
 20
78.65125
 30
0.0
 40
2.5
  1
.250
  7
MONOTXT
 72
     1
 11
449.093833
 21
78.65125
 31
0.0
210
0.0
220
0.0
230
1.0
  0
TEXT
  8
1
  6
CONTINUOUS
 62
     7
  5
9E4
 10
449.452167
 20
30.1555
 30
0.0
 40
2.5
  1
NOTE:
  7
MONOTXT
 11
449.452167
 21
32.6555
 31
0.0
210
0.0
220
0.0
230
1.0
 73
     3
  0
TEXT
  8
1
  6
CONTINUOUS
 62
     7
  5
9E5
 10
449.452167
 20
25.6555
 30
0.0
 40
2.5
  1
.031R ON ALL
  7
MONOTXT
 11
449.452167
 21
28.1555
 31
0.0
210
0.0
220
0.0
230
1.0
 73
     3
  0
TEXT
  8
1
  6
CONTINUOUS
 62
     7
  5
9E6
 10
449.452167
 20
21.1555
 30
0.0
 40
2.5
  1
INSIDE & OUTSIDE
  7
MONOTXT
 11
449.452167
 21
23.6555
 31
0.0
210
0.0
220
0.0
230
1.0
 73
     3
  0
TEXT
  8
1
  6
CONTINUOUS
 62
     7
  5
9E7
 10
449.452167
 20
16.6555
 30
0.0
 40
2.5
  1
CORNERS UNLESS
  7
MONOTXT
 11
449.452167
 21
19.1555
 31
0.0
210
0.0
220
0.0
230
1.0
 73
     3
  0
TEXT
  8
1
  6
CONTINUOUS
 62
     7
  5
9E8
 10
449.452167
 20
12.1555
 30
0.0
 40
2.5
  1
SPECIFIED OTHERWISE.
  7
MONOTXT
 11
449.452167
 21
14.6555
 31
0.0
210
0.0
220
0.0
230
1.0
 73
     3
  0
TEXT
  8
1
  6
CONTINUOUS
 62
     7
  5
9E9
 10
396.48975
 20
23.212
 30
0.0
 40
3.0
  1
EXTRUSION "C"
  7
MONOTXT
 72
     1
 11
413.8165
 21
23.212
 31
0.0
210
0.0
220
0.0
230
1.0
  0
LINE
  8
1
  6
CONTINUOUS
 62
     7
  5
9EA
 10
395.872333
 20
22.642167
 30
0.0
 11
432.5125
 21
22.642167
 31
0.0
  0
LINE
  8
1
  6
CONTINUOUS
 62
     7
  5
9EB
 10
54.14925
 20
63.294417
 30
0.0
 11
54.14925
 21
59.294417
 31
0.0
  0
LINE
  8
1
  6
CONTINUOUS
 62
     7
  5
9EC
 10
54.14925
 20
55.794417
 30
0.0
 11
54.14925
 21
51.794417
 31
0.0
  0
LINE
  8
1
  6
CONTINUOUS
 62
     7
  5
9ED
 10
60.64925
 20
55.794417
 30
0.0
 11
50.916083
 21
46.064917
 31
0.0
  0
LINE
  8
1
  6
CONTINUOUS
 62
     7
  5
9EE
 10
60.64925
 20
49.794417
 30
0.0
 11
64.64925
 21
49.794417
 31
0.0
  0
LINE
  8
1
  6
CONTINUOUS
 62
     7
  5
9EF
 10
60.14925
 20
49.794417
 30
0.0
 11
56.14925
 21
49.794417
 31
0.0
  0
INSERT
  8
1
  6
CONTINUOUS
 62
     1
  5
9F0
  2
LDR
 10
54.14925
 20
59.294417
 30
0.0
 41
240.0
 42
240.0
 50
270.0
210
0.0
220
0.0
230
1.0
  0
INSERT
  8
1
  6
CONTINUOUS
 62
     1
  5
9F1
  2
LDR
 10
54.14925
 20
59.294417
 30
0.0
 41
240.0
 42
240.0
 50
270.0
210
0.0
220
0.0
230
1.0
  0
INSERT
  8
1
  6
CONTINUOUS
 62
     1
  5
9F2
  2
LDR
 10
54.14925
 20
55.794417
 30
0.0
 41
240.0
 42
240.0
 50
90.0
210
0.0
220
0.0
230
1.0
  0
INSERT
  8
1
  6
CONTINUOUS
 62
     1
  5
9F3
  2
LDR
 10
54.14925
 20
55.794417
 30
0.0
 41
240.0
 42
240.0
 50
90.0
210
0.0
220
0.0
230
1.0
  0
INSERT
  8
1
  6
CONTINUOUS
 62
     1
  5
9F4
  2
LDR
 10
60.64925
 20
55.794417
 30
0.0
 41
240.0
 42
240.0
 50
44.989206
210
0.0
220
0.0
230
1.0
  0
INSERT
  8
1
  6
CONTINUOUS
 62
     1
  5
9F5
  2
LDR
 10
60.64925
 20
55.794417
 30
0.0
 41
240.0
 42
240.0
 50
44.989206
210
0.0
220
0.0
230
1.0
  0
INSERT
  8
1
  6
CONTINUOUS
 62
     1
  5
9F6
  2
LDR
 10
60.14925
 20
49.794417
 30
0.0
 41
240.0
 42
240.0
210
0.0
220
0.0
230
1.0
  0
INSERT
  8
1
  6
CONTINUOUS
 62
     1
  5
9F7
  2
LDR
 10
60.14925
 20
49.794417
 30
0.0
 41
240.0
 42
240.0
210
0.0
220
0.0
230
1.0
  0
INSERT
  8
1
  6
CONTINUOUS
 62
     1
  5
9F8
  2
LDR
 10
60.64925
 20
49.794417
 30
0.0
 41
240.0
 42
240.0
 50
180.0
210
0.0
220
0.0
230
1.0
  0
LINE
  8
1
  6
CONTINUOUS
 62
     7
  5
9F9
 10
60.14925
 20
36.294417
 30
0.0
 11
179.39925
 21
36.294417
 31
0.0
  0
INSERT
  8
1
  6
CONTINUOUS
 62
     1
  5
9FA
  2
LDR
 10
60.14925
 20
36.294417
 30
0.0
 41
240.0
 42
240.0
 50
180.0
210
0.0
220
0.0
230
1.0
  0
INSERT
  8
1
  6
CONTINUOUS
 62
     1
  5
9FB
  2
LDR
 10
60.14925
 20
36.294417
 30
0.0
 41
240.0
 42
240.0
 50
180.0
210
0.0
220
0.0
230
1.0
  0
INSERT
  8
1
  6
CONTINUOUS
 62
     1
  5
9FC
  2
LDR
 10
179.39925
 20
36.294417
 30
0.0
 41
240.0
 42
240.0
210
0.0
220
0.0
230
1.0
  0
LINE
  8
1
  6
CONTINUOUS
 62
     7
  5
9FD
 10
119.77425
 20
86.923083
 30
0.0
 11
179.39925
 21
86.923083
 31
0.0
  0
INSERT
  8
1
  6
CONTINUOUS
 62
     1
  5
9FE
  2
LDR
 10
119.77425
 20
86.923083
 30
0.0
 41
240.0
 42
240.0
 50
180.0
210
0.0
220
0.0
230
1.0
  0
INSERT
  8
1
  6
CONTINUOUS
 62
     1
  5
9FF
  2
LDR
 10
119.77425
 20
86.923083
 30
0.0
 41
240.0
 42
240.0
 50
180.0
210
0.0
220
0.0
230
1.0
  0
INSERT
  8
1
  6
CONTINUOUS
 62
     1
  5
A00
  2
LDR
 10
179.39925
 20
86.923083
 30
0.0
 41
240.0
 42
240.0
210
0.0
220
0.0
230
1.0
  0
TEXT
  8
1
  6
CONTINUOUS
 62
     7
  5
A01
 10
559.899917
 20
278.49275
 30
0.0
 40
2.5
  1
FOR SIGNS UP TO 24' LONG, CLIP ARRANGEMENT
  7
MONOTXT
 11
559.899917
 21
280.99275
 31
0.0
210
0.0
220
0.0
230
1.0
 73
     3
  0
TEXT
  8
1
  6
CONTINUOUS
 62
     7
  5
A02
 10
559.899917
 20
273.99275
 30
0.0
 40
2.5
  1
SHOWN IN SECTION B-B SHALL BE USED. FOR
  7
MONOTXT
 11
559.899917
 21
276.49275
 31
0.0
210
0.0
220
0.0
230
1.0
 73
     3
  0
TEXT
  8
1
  6
CONTINUOUS
 62
     7
  5
A03
 10
559.899917
 20
269.49275
 30
0.0
 40
2.5
  1
SIGNS OVER 24' LONG USE DOUBLE CLIPS AT
  7
MONOTXT
 11
559.899917
 21
271.99275
 31
0.0
210
0.0
220
0.0
230
1.0
 73
     3
  0
TEXT
  8
1
  6
CONTINUOUS
 62
     7
  5
A04
 10
559.899917
 20
264.99275
 30
0.0
 40
2.5
  1
ALL LOCATIONS INDICATED.
  7
MONOTXT
 11
559.899917
 21
267.49275
 31
0.0
210
0.0
220
0.0
230
1.0
 73
     3
  0
LINE
  8
1
  6
CONTINUOUS
 62
     7
  5
A05
 10
590.420083
 20
285.173
 30
0.0
 11
606.744833
 21
285.173
 31
0.0
  0
TEXT
  8
1
  6
CONTINUOUS
 62
     7
  5
A06
 10
591.536917
 20
286.43075
 30
0.0
 40
3.0
  1
NOTES
  7
MONOTXT
 72
     1
 11
598.564417
 21
286.43075
 31
0.0
210
0.0
220
0.0
230
1.0
  0
TEXT
  8
1
  6
CONTINUOUS
 62
     7
  5
A07
 10
310.979583
 20
205.98775
 30
0.0
 40
3.0
  1
 13/16 
 50
90.0
  7
MONOTXT
 72
     1
 11
310.979583
 21
208.26725
 31
0.0
210
0.0
220
0.0
230
1.0
  0
TEXT
  8
1
  6
CONTINUOUS
 62
     7
  5
A08
 10
310.308917
 20
211.427167
 30
0.0
 40
3.0
  1
"
 50
90.0
  7
MONOTXT
 72
     1
 11
310.308917
 21
212.053167
 31
0.0
210
0.0
220
0.0
230
1.0
  0
TEXT
  8
1
  6
CONTINUOUS
 62
     7
  5
A09
 10
439.00525
 20
227.287333
 30
0.0
 40
3.0
  1
 13/16 
  7
MONOTXT
 72
     1
 11
441.28475
 21
227.287333
 31
0.0
210
0.0
220
0.0
230
1.0
  0
TEXT
  8
1
  6
CONTINUOUS
 62
     7
  5
A0A
 10
443.578667
 20
228.1535
 30
0.0
 40
3.0
  1
"
  7
MONOTXT
 72
     1
 11
444.204667
 21
228.1535
 31
0.0
210
0.0
220
0.0
230
1.0
  0
TEXT
  8
1
  6
CONTINUOUS
 62
     7
  5
A0B
 10
552.250083
 20
167.907417
 30
0.0
 40
2.5
  1
         I.D. x  3/4 " O.D. x .091"
  7
MONOTXT
 72
     1
 11
584.08075
 21
167.907417
 31
0.0
210
0.0
220
0.0
230
1.0
  0
TEXT
  8
1
  6
CONTINUOUS
 62
     7
  5
A0C
 10
565.782667
 20
167.592417
 30
0.0
 40
3.0
  1
 25/64 
  7
MONOTXT
 72
     1
 11
568.109417
 21
167.592417
 31
0.0
210
0.0
220
0.0
230
1.0
  0
TEXT
  8
1
  6
CONTINUOUS
 62
     7
  5
A0D
 10
570.7325
 20
168.385083
 30
0.0
 40
3.0
  1
"
  7
MONOTXT
 72
     1
 11
571.3585
 21
168.385083
 31
0.0
210
0.0
220
0.0
230
1.0
  0
TEXT
  8
1
  6
CONTINUOUS
 62
     7
  5
A0E
 10
406.699
 20
157.992417
 30
0.0
 40
2.5
  1
2
  7
MONOTXT
 72
     1
 11
407.535583
 21
157.992417
 31
0.0
210
0.0
220
0.0
230
1.0
  0
TEXT
  8
1
  6
CONTINUOUS
 62
     7
  5
A0F
 10
409.596667
 20
158.214083
 30
0.0
 40
3.0
  1
 11/64 
  7
MONOTXT
 72
     1
 11
411.876167
 21
158.214083
 31
0.0
210
0.0
220
0.0
230
1.0
  0
TEXT
  8
1
  6
CONTINUOUS
 62
     7
  5
A10
 10
414.936667
 20
159.255167
 30
0.0
 40
3.0
  1
"
  7
MONOTXT
 72
     1
 11
415.562667
 21
159.255167
 31
0.0
210
0.0
220
0.0
230
1.0
  0
TEXT
  8
1
  6
CONTINUOUS
 62
     7
  5
A11
 10
397.004
 20
126.5875
 30
0.0
 40
2.5
  1
1
 50
342.000403
  7
MONOTXT
 72
     1
 11
398.057326
 21
128.873911
 31
0.0
210
0.0
220
0.0
230
1.0
 73
     3
  0
TEXT
  8
1
  6
CONTINUOUS
 62
     7
  5
A12
 10
399.118083
 20
125.797833
 30
0.0
 40
3.0
  1
 19/32 
 50
342.000403
  7
MONOTXT
 72
     1
 11
402.25799
 21
127.93202
 31
0.0
210
0.0
220
0.0
230
1.0
 73
     3
  0
TEXT
  8
1
  6
CONTINUOUS
 62
     7
  5
A13
 10
404.515917
 20
124.840167
 30
0.0
 40
3.0
  1
"
 50
342.000403
  7
MONOTXT
 72
     1
 11
406.03831
 21
127.499902
 31
0.0
210
0.0
220
0.0
230
1.0
 73
     3
  0
TEXT
  8
1
  6
CONTINUOUS
 62
     7
  5
A14
 10
403.254667
 20
117.81575
 30
0.0
 40
2.5
  1
1 
  7
MONOTXT
 72
     1
 11
404.43575
 21
117.81575
 31
0.0
210
0.0
220
0.0
230
1.0
  0
TEXT
  8
1
  6
CONTINUOUS
 62
     7
  5
A15
 10
405.350667
 20
117.539
 30
0.0
 40
3.0
  1
 31/64 
  7
MONOTXT
 72
     1
 11
407.677417
 21
117.539
 31
0.0
210
0.0
220
0.0
230
1.0
  0
TEXT
  8
1
  6
CONTINUOUS
 62
     7
  5
A16
 10
410.495833
 20
118.649583
 30
0.0
 40
3.0
  1
"
  7
MONOTXT
 72
     1
 11
411.121833
 21
118.649583
 31
0.0
210
0.0
220
0.0
230
1.0
  0
LINE
  8
1
  6
CONTINUOUS
 62
     7
  5
A17
 10
380.14925
 20
50.294417
 30
0.0
 11
384.14925
 21
50.294417
 31
0.0
  0
INSERT
  8
1
  6
CONTINUOUS
 62
     1
  5
A18
  2
LDR
 10
380.14925
 20
57.044417
 30
0.0
 41
240.0
 42
240.0
 50
270.0
210
0.0
220
0.0
230
1.0
  0
INSERT
  8
1
  6
CONTINUOUS
 62
     1
  5
A19
  2
LDR
 10
380.14925
 20
57.044417
 30
0.0
 41
240.0
 42
240.0
 50
270.0
210
0.0
220
0.0
230
1.0
  0
INSERT
  8
1
  6
CONTINUOUS
 62
     1
  5
A1A
  2
LDR
 10
380.14925
 20
55.794417
 30
0.0
 41
240.0
 42
240.0
 50
90.0
210
0.0
220
0.0
230
1.0
  0
LINE
  8
1
  6
CONTINUOUS
 62
     1
  5
A1B
 10
442.148833
 20
252.566417
 30
0.0
 11
428.648833
 21
252.566417
 31
0.0
  0
LINE
  8
1
  6
CONTINUOUS
 62
     1
  5
A1C
 10
442.148833
 20
252.566417
 30
0.0
 11
442.148833
 21
251.566417
 31
0.0
  0
LINE
  8
1
  6
CONTINUOUS
 62
     1
  5
A1D
 10
428.648833
 20
252.566417
 30
0.0
 11
428.648833
 21
251.566417
 31
0.0
  0
ENDSEC
  0
EOF
