  0
SECTION
  2
HEADER
  9
$ACADVER
  1
AC1009
  9
$INSBASE
 10
0.0
 20
0.0
 30
0.0
  9
$EXTMIN
 10
-1.0925
 20
-0.346167
 30
0.0
  9
$EXTMAX
 10
678.9875
 20
439.693833
 30
0.0
  9
$LIMMIN
 10
0.0
 20
0.0
  9
$LIMMAX
 10
12.0
 20
9.0
  9
$ORTHOMODE
 70
     0
  9
$REGENMODE
 70
     1
  9
$FILLMODE
 70
     1
  9
$QTEXTMODE
 70
     0
  9
$MIRRTEXT
 70
     1
  9
$DRAGMODE
 70
     2
  9
$LTSCALE
 40
1.0
  9
$OSMODE
 70
     0
  9
$ATTMODE
 70
     1
  9
$TEXTSIZE
 40
0.2
  9
$TRACEWID
 40
0.05
  9
$TEXTSTYLE
  7
STANDARD
  9
$CLAYER
  8
0
  9
$CELTYPE
  6
CONTINUOUS
  9
$CECOLOR
 62
   256
  9
$DIMSCALE
 40
1.0
  9
$DIMASZ
 40
0.18
  9
$DIMEXO
 40
0.0625
  9
$DIMDLI
 40
0.38
  9
$DIMRND
 40
0.0
  9
$DIMDLE
 40
0.0
  9
$DIMEXE
 40
0.18
  9
$DIMTP
 40
0.0
  9
$DIMTM
 40
0.0
  9
$DIMTXT
 40
0.18
  9
$DIMCEN
 40
0.09
  9
$DIMTSZ
 40
0.0
  9
$DIMTOL
 70
     0
  9
$DIMLIM
 70
     0
  9
$DIMTIH
 70
     1
  9
$DIMTOH
 70
     1
  9
$DIMSE1
 70
     0
  9
$DIMSE2
 70
     0
  9
$DIMTAD
 70
     0
  9
$DIMZIN
 70
     0
  9
$DIMBLK
  1

  9
$DIMASO
 70
     1
  9
$DIMSHO
 70
     1
  9
$DIMPOST
  1

  9
$DIMAPOST
  1

  9
$DIMALT
 70
     0
  9
$DIMALTD
 70
     2
  9
$DIMALTF
 40
25.4
  9
$DIMLFAC
 40
1.0
  9
$DIMTOFL
 70
     0
  9
$DIMTVP
 40
0.0
  9
$DIMTIX
 70
     0
  9
$DIMSOXD
 70
     0
  9
$DIMSAH
 70
     0
  9
$DIMBLK1
  1

  9
$DIMBLK2
  1

  9
$DIMSTYLE
  2
STANDARD
  9
$DIMCLRD
 70
     0
  9
$DIMCLRE
 70
     0
  9
$DIMCLRT
 70
     0
  9
$DIMTFAC
 40
1.0
  9
$DIMGAP
 40
0.09
  9
$LUNITS
 70
     2
  9
$LUPREC
 70
     4
  9
$AXISMODE
 70
     0
  9
$AXISUNIT
 10
0.0
 20
0.0
  9
$SKETCHINC
 40
0.1
  9
$FILLETRAD
 40
0.0
  9
$AUNITS
 70
     0
  9
$AUPREC
 70
     0
  9
$MENU
  1
acad
  9
$ELEVATION
 40
0.0
  9
$PELEVATION
 40
0.0
  9
$THICKNESS
 40
0.0
  9
$LIMCHECK
 70
     0
  9
$BLIPMODE
 70
     1
  9
$CHAMFERA
 40
0.0
  9
$CHAMFERB
 40
0.0
  9
$SKPOLY
 70
     0
  9
$TDCREATE
 40
2451803.409942130
  9
$TDUPDATE
 40
2451803.409942130
  9
$TDINDWG
 40
0.0000000000
  9
$TDUSRTIMER
 40
0.0000000000
  9
$USRTIMER
 70
     1
  9
$ANGBASE
 50
0.0
  9
$ANGDIR
 70
     0
  9
$PDMODE
 70
     0
  9
$PDSIZE
 40
0.0
  9
$PLINEWID
 40
0.0
  9
$COORDS
 70
     0
  9
$SPLFRAME
 70
     0
  9
$SPLINETYPE
 70
     6
  9
$SPLINESEGS
 70
    10
  9
$ATTDIA
 70
     0
  9
$ATTREQ
 70
     1
  9
$HANDLING
 70
     1
  9
$HANDSEED
  5
6E3
  9
$SURFTAB1
 70
     6
  9
$SURFTAB2
 70
     6
  9
$SURFTYPE
 70
     6
  9
$SURFU
 70
     6
  9
$SURFV
 70
     6
  9
$UCSNAME
  2

  9
$UCSORG
 10
0.0
 20
0.0
 30
0.0
  9
$UCSXDIR
 10
1.0
 20
0.0
 30
0.0
  9
$UCSYDIR
 10
0.0
 20
1.0
 30
0.0
  9
$PUCSNAME
  2

  9
$PUCSORG
 10
0.0
 20
0.0
 30
0.0
  9
$PUCSXDIR
 10
1.0
 20
0.0
 30
0.0
  9
$PUCSYDIR
 10
0.0
 20
1.0
 30
0.0
  9
$USERI1
 70
     0
  9
$USERI2
 70
     0
  9
$USERI3
 70
     0
  9
$USERI4
 70
     0
  9
$USERI5
 70
     0
  9
$USERR1
 40
0.0
  9
$USERR2
 40
0.0
  9
$USERR3
 40
0.0
  9
$USERR4
 40
0.0
  9
$USERR5
 40
0.0
  9
$WORLDVIEW
 70
     1
  9
$SHADEDGE
 70
     3
  9
$SHADEDIF
 70
    70
  9
$TILEMODE
 70
     1
  9
$MAXACTVP
 70
    16
  9
$PINSBASE
 10
0.0
 20
0.0
 30
0.0
  9
$PLIMCHECK
 70
     0
  9
$PEXTMIN
 10
-1.000000E+20
 20
-1.000000E+20
 30
-1.000000E+20
  9
$PEXTMAX
 10
-1.000000E+20
 20
-1.000000E+20
 30
-1.000000E+20
  9
$PLIMMIN
 10
0.0
 20
0.0
  9
$PLIMMAX
 10
12.0
 20
9.0
  9
$UNITMODE
 70
     0
  9
$VISRETAIN
 70
     0
  9
$PLINEGEN
 70
     1
  9
$PSLTSCALE
 70
     0
  9
$TREEDEPTH
 70
  3020
  9
$DWGCODEPAGE
  3
ansi_1252
  0
ENDSEC
  0
SECTION
  2
TABLES
  0
TABLE
  2
VPORT
 70
     1
  0
VPORT
  2
*ACTIVE
 70
     0
 10
0.0
 20
0.0
 11
1.0
 21
1.0
 12
0.0
 22
0.0
 13
0.0
 23
0.0
 14
0.0
 24
0.0
 15
0.0
 25
0.0
 16
0.0
 26
0.0
 36
1.0
 17
293.111069
 27
219.324333
 37
0.0
 40
451.7575
 41
1.795122
 42
50.0
 43
0.0
 44
0.0
 50
0.0
 51
0.0
 71
     0
 72
   100
 73
     1
 74
     0
 75
     0
 76
     0
 77
     0
 78
     0
  0
ENDTAB
  0
TABLE
  2
LTYPE
 70
     7
  0
LTYPE
  2
CONTINUOUS
 70
     0
  3
Solid line
 72
    65
 73
     0
 40
0.0
  0
LTYPE
  2
DOT
 70
    64
  3
. . . . . . . . . . . . . . . . . . . . . . . . . . . . . . . . .
 72
    65
 73
     2
 40
0.25
 49
0.0
 49
-0.25
  0
LTYPE
  2
HIDDEN
 70
    64
  3
__ __ __ __ __ __ __ __ __ __ __ __ __ __ __ __ __ __ __ __ __ 
 72
    65
 73
     2
 40
0.375
 49
0.25
 49
-0.125
  0
LTYPE
  2
DASHED
 70
    64
  3
__ __ __ __ __ __ __ __ __ __ __ __ __ __ __ __ __ __ __ __ __
 72
    65
 73
     2
 40
0.75
 49
0.5
 49
-0.25
  0
LTYPE
  2
DASHDOT
 70
    64
  3
__ . __ . __ . __ . __ . __ . __ . __ . __ . __ . __ . __ . _
 72
    65
 73
     4
 40
1.0
 49
0.5
 49
-0.25
 49
0.0
 49
-0.25
  0
LTYPE
  2
DIVIDE
 70
    64
  3
____ . . ____ . . ____ . . ____ . . ____ . . ____ . . ____ . .
 72
    65
 73
     6
 40
1.25
 49
0.5
 49
-0.25
 49
0.0
 49
-0.25
 49
0.0
 49
-0.25
  0
LTYPE
  2
CENTER
 70
    64
  3
____ _ ____ _ ____ _ ____ _ ____ _ ____ _ ____ _ ____ _ ____ _
 72
    65
 73
     4
 40
2.0
 49
1.25
 49
-0.25
 49
0.25
 49
-0.25
  0
ENDTAB
  0
TABLE
  2
LAYER
 70
     5
  0
LAYER
  2
0
 70
     0
 62
     7
  6
CONTINUOUS
  0
LAYER
  2
CONSTRUCTION_CLASS
 70
     0
 62
     7
  6
CONTINUOUS
  0
LAYER
  2
PATTERN_CLASS
 70
     0
 62
     7
  6
CONTINUOUS
  0
LAYER
  2
61
 70
    64
 62
     7
  6
CONTINUOUS
  0
LAYER
  2
1
 70
    64
 62
     7
  6
CONTINUOUS
  0
ENDTAB
  0
TABLE
  2
STYLE
 70
     4
  0
STYLE
  2
STANDARD
 70
     0
 40
0.0
 41
1.0
 50
0.0
 71
     0
 42
0.0
  3
txt
  4

  0
STYLE
  2
MONOTXT
 70
     0
 40
0.2
 41
1.0
 50
0.0
 71
     0
 42
0.2
  3
MONOTXT
  4

  0
STYLE
  2
txt
 70
     0
 40
0.2
 41
1.0
 50
0.0
 71
     0
 42
0.2
  3
TXT
  4

  0
STYLE
  2
ROMANT
 70
     0
 40
0.2
 41
1.0
 50
0.0
 71
     0
 42
0.2
  3
ROMANT
  4

  0
ENDTAB
  0
TABLE
  2
VIEW
 70
     0
  0
ENDTAB
  0
TABLE
  2
UCS
 70
     0
  0
ENDTAB
  0
TABLE
  2
APPID
 70
     1
  0
APPID
  2
ACAD
 70
     0
  0
ENDTAB
  0
TABLE
  2
DIMSTYLE
 70
     1
  0
DIMSTYLE
  2
STANDARD
 70
     0
  3

  4

  5

  6

  7

 40
1.0
 41
0.18
 42
0.0625
 43
0.38
 44
0.18
 45
0.0
 46
0.0
 47
0.0
 48
0.0
140
0.18
141
0.09
142
0.0
143
25.4
144
1.0
145
0.0
146
1.0
147
0.09
 71
     0
 72
     0
 73
     1
 74
     1
 75
     0
 76
     0
 77
     0
 78
     0
170
     0
171
     2
172
     0
173
     0
174
     0
175
     0
176
     0
177
     0
178
     0
  0
ENDTAB
  0
ENDSEC
  0
SECTION
  2
BLOCKS
  0
BLOCK
  8
1
  6
CONTINUOUS
 62
     1
  5
236
  2
LDR
 70
     0
 10
0.0
 20
0.0
 30
0.0
  3
LNR
  0
POLYLINE
  8
1
  6
CONTINUOUS
 62
     1
  5
237
 66
     1
 10
0.0
 20
0.0
 30
0.0
210
0.0
220
0.0
230
1.0
  0
VERTEX
  8
1
  6
CONTINUOUS
 62
     1
  5
238
 10
-0.011987
 20
-0.001802
 30
0.0
 42
-0.265147
  0
VERTEX
  8
1
  6
CONTINUOUS
 62
     1
  5
239
 10
-0.011849
 20
-0.001604
 30
0.0
 42
-0.064653
  0
VERTEX
  8
1
  6
CONTINUOUS
 62
     1
  5
23A
 10
-0.011407
 20
-0.001387
 30
0.0
 42
-0.025822
  0
VERTEX
  8
1
  6
CONTINUOUS
 62
     1
  5
23B
 10
-0.010681
 20
-0.00116
 30
0.0
 42
-0.014504
  0
VERTEX
  8
1
  6
CONTINUOUS
 62
     1
  5
23C
 10
-0.0097
 20
-0.000933
 30
0.0
 42
-0.009896
  0
VERTEX
  8
1
  6
CONTINUOUS
 62
     1
  5
23D
 10
-0.008505
 20
-0.000715
 30
0.0
 42
-0.007708
  0
VERTEX
  8
1
  6
CONTINUOUS
 62
     1
  5
23E
 10
-0.007146
 20
-0.000515
 30
0.0
 42
-0.006655
  0
VERTEX
  8
1
  6
CONTINUOUS
 62
     1
  5
23F
 10
-0.005679
 20
-0.000342
 30
0.0
 42
-0.006278
  0
VERTEX
  8
1
  6
CONTINUOUS
 62
     1
  5
240
 10
-0.004164
 20
-0.000202
 30
0.0
 42
-0.006439
  0
VERTEX
  8
1
  6
CONTINUOUS
 62
     1
  5
241
 10
-0.002666
 20
-0.000101
 30
0.0
 42
-0.007196
  0
VERTEX
  8
1
  6
CONTINUOUS
 62
     1
  5
242
 10
-0.001246
 20
-0.000044
 30
0.0
 42
-0.008852
  0
VERTEX
  8
1
  6
CONTINUOUS
 62
     1
  5
243
 10
0.000037
 20
-0.000034
 30
0.0
 42
-0.008852
  0
SEQEND
  8
1
  6
CONTINUOUS
 62
     1
  5
244
  0
POLYLINE
  8
1
  6
CONTINUOUS
 62
     1
  5
245
 66
     1
 10
0.0
 20
0.0
 30
0.0
210
0.0
220
0.0
230
1.0
  0
VERTEX
  8
1
  6
CONTINUOUS
 62
     1
  5
246
 10
0.000039
 20
0.000014
 30
0.0
 42
-0.005019
  0
VERTEX
  8
1
  6
CONTINUOUS
 62
     1
  5
247
 10
-0.001103
 20
0.000071
 30
0.0
 42
-0.004038
  0
VERTEX
  8
1
  6
CONTINUOUS
 62
     1
  5
248
 10
-0.002373
 20
0.000158
 30
0.0
 42
-0.003548
  0
VERTEX
  8
1
  6
CONTINUOUS
 62
     1
  5
249
 10
-0.003725
 20
0.00027
 30
0.0
 42
-0.003367
  0
VERTEX
  8
1
  6
CONTINUOUS
 62
     1
  5
24A
 10
-0.005111
 20
0.000405
 30
0.0
 42
-0.003436
  0
VERTEX
  8
1
  6
CONTINUOUS
 62
     1
  5
24B
 10
-0.006481
 20
0.000556
 30
0.0
 42
-0.003778
  0
VERTEX
  8
1
  6
CONTINUOUS
 62
     1
  5
24C
 10
-0.007786
 20
0.00072
 30
0.0
 42
-0.00451
  0
VERTEX
  8
1
  6
CONTINUOUS
 62
     1
  5
24D
 10
-0.008979
 20
0.000889
 30
0.0
 42
-0.00594
  0
VERTEX
  8
1
  6
CONTINUOUS
 62
     1
  5
24E
 10
-0.010018
 20
0.001058
 30
0.0
 42
-0.008921
  0
VERTEX
  8
1
  6
CONTINUOUS
 62
     1
  5
24F
 10
-0.010864
 20
0.00122
 30
0.0
 42
-0.016392
  0
VERTEX
  8
1
  6
CONTINUOUS
 62
     1
  5
250
 10
-0.011488
 20
0.001371
 30
0.0
 42
-0.04458
  0
VERTEX
  8
1
  6
CONTINUOUS
 62
     1
  5
251
 10
-0.011867
 20
0.001503
 30
0.0
 42
-0.317392
  0
VERTEX
  8
1
  6
CONTINUOUS
 62
     1
  5
252
 10
-0.011987
 20
0.001614
 30
0.0
 42
-0.317392
  0
SEQEND
  8
1
  6
CONTINUOUS
 62
     1
  5
253
  0
ENDBLK
  8
1
  6
CONTINUOUS
 62
     1
  5
254
  0
ENDSEC
  0
SECTION
  2
ENTITIES
  0
LINE
  8
61
  6
CONTINUOUS
 62
     1
  5
29
 10
668.0075
 20
429.693833
 30
0.0
 11
28.9675
 21
429.693833
 31
0.0
  0
LINE
  8
61
  6
CONTINUOUS
 62
     1
  5
2A
 10
28.9675
 20
429.693833
 30
0.0
 11
28.9675
 21
9.673833
 31
0.0
  0
LINE
  8
61
  6
CONTINUOUS
 62
     1
  5
2B
 10
668.0275
 20
9.653833
 30
0.0
 11
28.9675
 21
9.673833
 31
0.0
  0
LINE
  8
61
  6
CONTINUOUS
 62
     1
  5
2C
 10
668.0075
 20
429.693833
 30
0.0
 11
668.0275
 21
9.653833
 31
0.0
  0
LINE
  8
61
  6
CONTINUOUS
 62
     7
  5
2D
 10
661.9075
 20
424.953833
 30
0.0
 11
553.9275
 21
424.933833
 31
0.0
  0
LINE
  8
61
  6
CONTINUOUS
 62
     7
  5
2E
 10
553.9275
 20
424.933833
 30
0.0
 11
553.9275
 21
404.933833
 31
0.0
  0
LINE
  8
61
  6
CONTINUOUS
 62
     7
  5
2F
 10
661.9075
 20
424.953833
 30
0.0
 11
661.9075
 21
404.953833
 31
0.0
  0
LINE
  8
61
  6
CONTINUOUS
 62
     7
  5
30
 10
661.9075
 20
404.953833
 30
0.0
 11
553.9275
 21
404.933833
 31
0.0
  0
LINE
  8
61
  6
CONTINUOUS
 62
     7
  5
31
 10
661.9275
 20
414.913833
 30
0.0
 11
553.9075
 21
414.933833
 31
0.0
  0
LINE
  8
61
  6
CONTINUOUS
 62
     7
  5
32
 10
563.9275
 20
424.933833
 30
0.0
 11
563.9275
 21
404.933833
 31
0.0
  0
LINE
  8
61
  6
CONTINUOUS
 62
     7
  5
33
 10
573.9275
 20
424.933833
 30
0.0
 11
573.9275
 21
404.933833
 31
0.0
  0
LINE
  8
61
  6
CONTINUOUS
 62
     7
  5
34
 10
587.6075
 20
424.933833
 30
0.0
 11
587.6075
 21
404.933833
 31
0.0
  0
LINE
  8
61
  6
CONTINUOUS
 62
     7
  5
35
 10
651.9075
 20
424.953833
 30
0.0
 11
651.9075
 21
404.953833
 31
0.0
  0
LINE
  8
61
  6
CONTINUOUS
 62
     7
  5
36
 10
641.9075
 20
424.953833
 30
0.0
 11
641.9075
 21
404.953833
 31
0.0
  0
LINE
  8
61
  6
CONTINUOUS
 62
     7
  5
37
 10
619.9275
 20
424.933833
 30
0.0
 11
619.9275
 21
404.933833
 31
0.0
  0
LINE
  8
61
  6
CONTINUOUS
 62
     7
  5
38
 10
609.9275
 20
424.933833
 30
0.0
 11
609.9275
 21
404.933833
 31
0.0
  0
TEXT
  8
61
  6
CONTINUOUS
 62
     7
  5
3A
 10
555.9675
 20
421.913833
 30
0.0
 40
1.20075
  1
PUBLIC
 50
0.033272
 41
1.001804
  7
MONOTXT
210
0.0
220
0.0
230
1.0
  0
TEXT
  8
61
  6
CONTINUOUS
 62
     7
  5
3B
 10
556.0475
 20
419.393833
 30
0.0
 40
1.20075
  1
ROADS
 50
0.124322
 41
0.996877
  7
MONOTXT
210
0.0
220
0.0
230
1.0
  0
TEXT
  8
61
  6
CONTINUOUS
 62
     7
  5
3C
 10
557.2475
 20
416.893833
 30
0.0
 40
1.20075
  1
DIV.
 50
359.931522
 41
0.994864
  7
MONOTXT
210
0.0
220
0.0
230
1.0
  0
TEXT
  8
61
  6
CONTINUOUS
 62
     7
  5
3D
 10
566.1275
 20
421.973833
 30
0.0
 40
1.20075
  1
STATE
 50
0.058969
 41
0.998196
  7
MONOTXT
210
0.0
220
0.0
230
1.0
  0
TEXT
  8
61
  6
CONTINUOUS
 62
     7
  5
3E
 10
567.0075
 20
419.473833
 30
0.0
 40
1.20075
  1
DIST.
 50
0.055889
 41
0.999584
  7
MONOTXT
210
0.0
220
0.0
230
1.0
  0
TEXT
  8
61
  6
CONTINUOUS
 62
     7
  5
3F
 10
567.5875
 20
416.953833
 30
0.0
 40
1.20075
  1
NO.
 50
359.852072
 41
0.997779
  7
MONOTXT
210
0.0
220
0.0
230
1.0
  0
TEXT
  8
61
  6
CONTINUOUS
 62
     7
  5
40
 10
578.1275
 20
421.913833
 30
0.0
 40
1.20075
  1
STATE
 50
0.058969
 41
0.998196
  7
MONOTXT
210
0.0
220
0.0
230
1.0
  0
TEXT
  8
61
  6
CONTINUOUS
 62
     7
  5
41
 10
577.0475
 20
419.493833
 30
0.0
 40
1.20075
  1
PROJECT
 50
359.908431
 41
1.000069
  7
MONOTXT
210
0.0
220
0.0
230
1.0
  0
TEXT
  8
61
  6
CONTINUOUS
 62
     7
  5
42
 10
579.7875
 20
416.953833
 30
0.0
 40
1.20075
  1
NO.
 50
0.225453
 41
0.993546
  7
MONOTXT
210
0.0
220
0.0
230
1.0
  0
TEXT
  8
61
  6
CONTINUOUS
 62
     7
  5
43
 10
595.4275
 20
420.793833
 30
0.0
 40
1.20075
  1
FEDERAL
 50
0.006714
 41
0.998543
  7
MONOTXT
210
0.0
220
0.0
230
1.0
  0
TEXT
  8
61
  6
CONTINUOUS
 62
     7
  5
44
 10
593.8875
 20
418.133833
 30
0.0
 40
1.20075
  1
PROJECT NO.
 50
359.921531
 41
1.000694
  7
MONOTXT
210
0.0
220
0.0
230
1.0
  0
TEXT
  8
61
  6
CONTINUOUS
 62
     7
  5
45
 10
612.1675
 20
420.733833
 30
0.0
 40
1.20075
  1
FISCAL
 50
359.941939
 41
0.998959
  7
MONOTXT
210
0.0
220
0.0
230
1.0
  0
TEXT
  8
61
  6
CONTINUOUS
 62
     7
  5
46
 10
612.6875
 20
417.833833
 30
0.0
 40
1.20075
  1
YEAR
 50
0.104606
 41
0.993268
  7
MONOTXT
210
0.0
220
0.0
230
1.0
  0
TEXT
  8
61
  6
CONTINUOUS
 62
     7
  5
47
 10
626.7875
 20
419.193833
 30
0.0
 40
1.20075
  1
COUNTY
 50
0.068575
 41
1.001874
  7
MONOTXT
210
0.0
220
0.0
230
1.0
  0
TEXT
  8
61
  6
CONTINUOUS
 62
     7
  5
48
 10
644.4275
 20
420.853833
 30
0.0
 40
1.20075
  1
SHEET
 50
0.058969
 41
0.997571
  7
MONOTXT
210
0.0
220
0.0
230
1.0
  0
TEXT
  8
61
  6
CONTINUOUS
 62
     7
  5
49
 10
645.8475
 20
418.133833
 30
0.0
 40
1.20075
  1
NO.
 50
359.852072
 41
0.997779
  7
MONOTXT
210
0.0
220
0.0
230
1.0
  0
TEXT
  8
61
  6
CONTINUOUS
 62
     7
  5
4A
 10
654.1675
 20
420.713833
 30
0.0
 40
1.20075
  1
TOTAL
 50
359.926039
 41
0.998543
  7
MONOTXT
210
0.0
220
0.0
230
1.0
  0
TEXT
  8
61
  6
CONTINUOUS
 62
     7
  5
4B
 10
653.7075
 20
418.013833
 30
0.0
 40
1.20075
  1
SHEETS
 50
359.958675
  7
MONOTXT
210
0.0
220
0.0
230
1.0
  0
TEXT
  8
61
  6
CONTINUOUS
 62
     7
  5
4C
 10
566.5275
 20
409.133833
 30
0.0
 40
2.401333
  1
  
 50
0.029406
 41
0.996495
  7
MONOTXT
210
0.0
220
0.0
230
1.0
  0
TEXT
  8
61
  6
CONTINUOUS
 62
     7
  5
4D
 10
643.7075
 20
408.853833
 30
0.0
 40
2.401333
  1
   
 50
0.011508
 41
1.001006
  7
MONOTXT
210
0.0
220
0.0
230
1.0
  0
TEXT
  8
61
  6
CONTINUOUS
 62
     7
  5
4E
 10
653.5875
 20
408.833833
 30
0.0
 40
2.401333
  1
   
 50
359.922128
 41
1.000555
  7
MONOTXT
210
0.0
220
0.0
230
1.0
  0
TEXT
  8
61
  6
CONTINUOUS
 62
     7
  5
4F
 10
576.9675
 20
412.233833
 30
0.0
 40
2.00675
  1
    
 50
0.054383
 41
0.993729
  7
MONOTXT
210
0.0
220
0.0
230
1.0
  0
TEXT
  8
61
  6
CONTINUOUS
 62
     7
  5
50
 10
574.0475
 20
409.213833
 30
0.0
 40
1.989583
  1
       
 50
0.064678
 41
1.000963
  7
MONOTXT
210
0.0
220
0.0
230
1.0
  0
TEXT
  8
61
  6
CONTINUOUS
 62
     7
  5
51
 10
575.0075
 20
406.313833
 30
0.0
 40
1.989583
  1
      
 50
359.958053
 41
1.000293
  7
MONOTXT
210
0.0
220
0.0
230
1.0
  0
TEXT
  8
61
  6
CONTINUOUS
 62
     7
  5
52
 10
585.9675
 20
410.953833
 30
0.0
 40
2.401333
  1
           
 50
0.011508
 41
0.998751
  7
MONOTXT
210
0.0
220
0.0
230
1.0
  0
TEXT
  8
61
  6
CONTINUOUS
 62
     7
  5
53
 10
585.8475
 20
407.293833
 30
0.0
 40
2.401333
  1
           
 50
0.011508
 41
0.999584
  7
MONOTXT
210
0.0
220
0.0
230
1.0
  0
TEXT
  8
61
  6
CONTINUOUS
 62
     7
  5
54
 10
621.1875
 20
409.033833
 30
0.0
 40
2.00675
  1
          
 50
0.009222
 41
0.992774
  7
MONOTXT
210
0.0
220
0.0
230
1.0
  0
ARC
  8
61
  6
CONTINUOUS
 62
     3
  5
55
 10
10.665257
 20
340.935128
 30
0.0
 40
2.499998
 50
323.130094
 51
316.232156
210
0.0
220
0.0
230
1.0
  0
ARC
  8
61
  6
CONTINUOUS
 62
     3
  5
56
 10
10.665257
 20
285.935128
 30
0.0
 40
2.499998
 50
323.130094
 51
315.375767
210
0.0
220
0.0
230
1.0
  0
ARC
  8
61
  6
CONTINUOUS
 62
     3
  5
57
 10
10.385257
 20
137.495128
 30
0.0
 40
2.499998
 50
322.671753
 51
321.716147
210
0.0
220
0.0
230
1.0
  0
ARC
  8
61
  6
CONTINUOUS
 62
     3
  5
58
 10
10.385257
 20
82.495128
 30
0.0
 40
2.499998
 50
323.130094
 51
312.314392
210
0.0
220
0.0
230
1.0
  0
LINE
  8
61
  6
CONTINUOUS
 62
     2
  5
59
 10
12.6875
 20
340.933833
 30
0.0
 11
20.6675
 21
340.953833
 31
0.0
  0
LINE
  8
61
  6
CONTINUOUS
 62
     2
  5
5A
 10
12.6675
 20
285.933833
 30
0.0
 11
20.6675
 21
285.933833
 31
0.0
  0
LINE
  8
61
  6
CONTINUOUS
 62
     2
  5
5B
 10
12.3875
 20
137.513833
 30
0.0
 11
20.3875
 21
137.513833
 31
0.0
  0
LINE
  8
61
  6
CONTINUOUS
 62
     2
  5
5C
 10
12.4075
 20
82.493833
 30
0.0
 11
20.3875
 21
82.493833
 31
0.0
  0
LINE
  8
61
  6
DASHED
 62
     1
  5
5D
 10
-1.0325
 20
439.693833
 30
0.0
 11
678.9875
 21
439.693833
 31
0.0
  0
LINE
  8
61
  6
DASHED
 62
     1
  5
5E
 10
678.9675
 20
-0.326167
 30
0.0
 11
-1.0925
 21
-0.346167
 31
0.0
  0
TEXT
  8
61
  6
CONTINUOUS
 62
     7
  5
5F
 10
654.8075
 20
385.033833
 30
0.0
 40
2.401333
  1
     
 41
1.001388
  7
MONOTXT
210
0.0
220
0.0
230
1.0
  0
LINE
  8
1
  6
HIDDEN
 62
     1
  5
61
 10
678.9875
 20
439.693833
 30
0.0
 11
678.9675
 21
-0.326167
 31
0.0
  0
LINE
  8
1
  6
HIDDEN
 62
     1
  5
62
 10
-1.0325
 20
439.693833
 30
0.0
 11
-1.0925
 21
-0.346167
 31
0.0
  0
TEXT
  8
1
  6
CONTINUOUS
 62
     1
  5
64
 10
633.7475
 20
7.153833
 30
0.0
 40
1.2
  1
TRAFFIC ENGINEERING DIVISION
  7
txt
210
0.0
220
0.0
230
1.0
  0
LINE
  8
1
  6
CONTINUOUS
 62
     7
  5
65
 10
496.3675
 20
9.653833
 30
0.0
 11
496.3675
 21
101.233833
 31
0.0
  0
LINE
  8
1
  6
CONTINUOUS
 62
     7
  5
66
 10
496.3675
 20
101.233833
 30
0.0
 11
668.0275
 21
101.233833
 31
0.0
  0
LINE
  8
1
  6
CONTINUOUS
 62
     7
  5
67
 10
531.3675
 20
9.613833
 30
0.0
 11
531.3675
 21
54.573833
 31
0.0
  0
LINE
  8
1
  6
CONTINUOUS
 62
     7
  5
68
 10
531.3675
 20
54.573833
 30
0.0
 11
496.3875
 21
54.573833
 31
0.0
  0
LINE
  8
1
  6
CONTINUOUS
 62
     7
  5
69
 10
531.3675
 20
50.093833
 30
0.0
 11
496.3875
 21
50.093833
 31
0.0
  0
LINE
  8
1
  6
CONTINUOUS
 62
     7
  5
6A
 10
531.3675
 20
45.593833
 30
0.0
 11
496.3875
 21
45.593833
 31
0.0
  0
LINE
  8
1
  6
CONTINUOUS
 62
     7
  5
6B
 10
531.3675
 20
41.093833
 30
0.0
 11
496.3875
 21
41.093833
 31
0.0
  0
LINE
  8
1
  6
CONTINUOUS
 62
     7
  5
6C
 10
531.3675
 20
36.573833
 30
0.0
 11
496.3875
 21
36.573833
 31
0.0
  0
LINE
  8
1
  6
CONTINUOUS
 62
     7
  5
6D
 10
531.3675
 20
32.093833
 30
0.0
 11
496.3875
 21
32.093833
 31
0.0
  0
LINE
  8
1
  6
CONTINUOUS
 62
     7
  5
6E
 10
531.3675
 20
27.613833
 30
0.0
 11
496.3875
 21
27.613833
 31
0.0
  0
LINE
  8
1
  6
CONTINUOUS
 62
     7
  5
6F
 10
531.3675
 20
23.113833
 30
0.0
 11
496.3875
 21
23.113833
 31
0.0
  0
LINE
  8
1
  6
CONTINUOUS
 62
     7
  5
70
 10
531.3675
 20
18.613833
 30
0.0
 11
496.3875
 21
18.613833
 31
0.0
  0
LINE
  8
1
  6
CONTINUOUS
 62
     7
  5
71
 10
531.3675
 20
14.093833
 30
0.0
 11
496.3875
 21
14.093833
 31
0.0
  0
TEXT
  8
1
  6
CONTINUOUS
 62
     7
  5
72
 10
506.6475
 20
51.573833
 30
0.0
 40
1.99775
  1
REVISIONS
  7
MONOTXT
210
0.0
220
0.0
230
1.0
  0
TEXT
  8
1
  6
CONTINUOUS
 62
     7
  5
73
 10
498.3275
 20
55.573833
 30
0.0
 40
1.99775
  1
PREPARED: 01/20/75
  7
MONOTXT
210
0.0
220
0.0
230
1.0
  0
TEXT
  8
1
  6
CONTINUOUS
 62
     7
  5
75
 10
528.9875
 20
92.633833
 30
0.0
 40
4.794833
  1
WEST VIRGINIA DIVISION OF HIGHWAYS
  7
ROMANT
 72
     1
 11
582.95775
 21
97.428667
 31
0.0
210
0.0
220
0.0
230
1.0
 73
     3
  0
TEXT
  8
1
  6
CONTINUOUS
 62
     7
  5
76
 10
539.7475
 20
81.473833
 30
0.0
 40
6.992667
  1
STANDARD DETAIL
  7
txt
 72
     1
 11
584.237583
 21
88.4665
 31
0.0
210
0.0
220
0.0
230
1.0
 73
     3
  0
TEXT
  8
1
  6
CONTINUOUS
 62
     7
  5
77
 10
535.2075
 20
13.693833
 30
0.0
 40
6.992667
  1
STANDARD SHEET TEL-06
  7
txt
210
0.0
220
0.0
230
1.0
  0
TEXT
  8
1
  6
CONTINUOUS
 62
     1
  5
78
 10
506.423417
 20
46.513833
 30
0.0
 40
2.0
  1
07-22-76
  7
MONOTXT
 72
     1
 11
513.6755
 21
48.513833
 31
0.0
210
0.0
220
0.0
230
1.0
 73
     3
  0
TEXT
  8
1
  6
CONTINUOUS
 62
     1
  5
79
 10
507.269583
 20
42.113833
 30
0.0
 40
2.0
  1
12-10-76
  7
MONOTXT
 72
     1
 11
513.6555
 21
44.113833
 31
0.0
210
0.0
220
0.0
230
1.0
 73
     3
  0
TEXT
  8
1
  6
CONTINUOUS
 62
     1
  5
7A
 10
505.6675
 20
37.713833
 30
0.0
 40
2.0
  1
        
  7
MONOTXT
 72
     1
 11
513.334333
 21
39.713833
 31
0.0
210
0.0
220
0.0
230
1.0
 73
     3
  0
TEXT
  8
1
  6
CONTINUOUS
 62
     1
  5
7B
 10
505.6675
 20
33.313833
 30
0.0
 40
2.0
  1
        
  7
MONOTXT
 72
     1
 11
513.334333
 21
35.313833
 31
0.0
210
0.0
220
0.0
230
1.0
 73
     3
  0
TEXT
  8
1
  6
CONTINUOUS
 62
     1
  5
7C
 10
505.5075
 20
28.713833
 30
0.0
 40
2.0
  1
        
  7
MONOTXT
 72
     1
 11
513.174333
 21
30.713833
 31
0.0
210
0.0
220
0.0
230
1.0
 73
     3
  0
TEXT
  8
1
  6
CONTINUOUS
 62
     1
  5
7D
 10
505.6675
 20
24.233833
 30
0.0
 40
2.0
  1
        
  7
MONOTXT
 72
     1
 11
513.334333
 21
26.233833
 31
0.0
210
0.0
220
0.0
230
1.0
 73
     3
  0
TEXT
  8
1
  6
CONTINUOUS
 62
     1
  5
7E
 10
505.5675
 20
19.633833
 30
0.0
 40
2.0
  1
        
  7
MONOTXT
 72
     1
 11
513.234333
 21
21.633833
 31
0.0
210
0.0
220
0.0
230
1.0
 73
     3
  0
TEXT
  8
1
  6
CONTINUOUS
 62
     1
  5
7F
 10
505.6675
 20
15.053833
 30
0.0
 40
2.0
  1
        
  7
MONOTXT
 72
     1
 11
513.334333
 21
17.053833
 31
0.0
210
0.0
220
0.0
230
1.0
 73
     3
  0
TEXT
  8
1
  6
CONTINUOUS
 62
     1
  5
80
 10
505.6675
 20
11.033833
 30
0.0
 40
2.0
  1
        
  7
MONOTXT
 72
     1
 11
513.334333
 21
13.033833
 31
0.0
210
0.0
220
0.0
230
1.0
 73
     3
  0
TEXT
  8
1
  6
CONTINUOUS
 62
     1
  5
81
 10
106.120833
 20
392.452667
 30
0.0
 40
10.0
  1
SIGN LIGHTING CONTROL CABINET WIRING DIAGRAMS
  7
txt
210
0.0
220
0.0
230
1.0
  0
TEXT
  8
1
  6
CONTINUOUS
 62
     1
  5
82
 10
161.367833
 20
372.411583
 30
0.0
 40
7.0
  1
(FOR USE WITH ROADWAY LIGHTING POWER SOURCE)
  7
txt
210
0.0
220
0.0
230
1.0
  0
TEXT
  8
1
  6
CONTINUOUS
 62
     1
  5
83
 10
223.900167
 20
358.98
 30
0.0
 40
2.5
  1
GENERAL
  7
MONOTXT
 11
223.900167
 21
361.48
 31
0.0
210
0.0
220
0.0
230
1.0
 73
     3
  0
TEXT
  8
1
  6
CONTINUOUS
 62
     1
  5
84
 10
223.900167
 20
354.48
 30
0.0
 40
2.5
  1
DETAIL OF THIS SHEET SHALL APPLY TO EACH OVERHEAD SIGN STRUCTURE
  7
MONOTXT
 11
223.900167
 21
356.98
 31
0.0
210
0.0
220
0.0
230
1.0
 73
     3
  0
TEXT
  8
1
  6
CONTINUOUS
 62
     1
  5
85
 10
223.900167
 20
349.98
 30
0.0
 40
2.5
  1
THAT SUPPORTS EXTERNALLY ILLUMINATED SIGNS POWERED FROM A ROADWAY
  7
MONOTXT
 11
223.900167
 21
352.48
 31
0.0
210
0.0
220
0.0
230
1.0
 73
     3
  0
TEXT
  8
1
  6
CONTINUOUS
 62
     1
  5
86
 10
223.900167
 20
345.48
 30
0.0
 40
2.5
  1
LIGHTING CIRCUIT.
  7
MONOTXT
 11
223.900167
 21
347.98
 31
0.0
210
0.0
220
0.0
230
1.0
 73
     3
  0
TEXT
  8
1
  6
CONTINUOUS
 62
     1
  5
87
 10
223.900167
 20
340.98
 30
0.0
 40
2.5
  1
ADDITIONAL NOTES APPLICABLE TO THIS SHEET MAY BE FOUND ON STANDARD
  7
MONOTXT
 11
223.900167
 21
343.48
 31
0.0
210
0.0
220
0.0
230
1.0
 73
     3
  0
TEXT
  8
1
  6
CONTINUOUS
 62
     1
  5
88
 10
223.900167
 20
336.48
 30
0.0
 40
2.5
  1
SHEETS TE6-3B, TE6-3C, AND TE6-3D.
  7
MONOTXT
 11
223.900167
 21
338.98
 31
0.0
210
0.0
220
0.0
230
1.0
 73
     3
  0
LINE
  8
1
  6
CONTINUOUS
 62
     1
  5
89
 10
223.009
 20
358.138583
 30
0.0
 11
240.269583
 21
358.138583
 31
0.0
  0
LINE
  8
1
  6
CONTINUOUS
 62
     5
  5
8A
 10
72.40175
 20
291.242167
 30
0.0
 11
154.15175
 21
291.242167
 31
0.0
  0
LINE
  8
1
  6
CONTINUOUS
 62
     5
  5
8B
 10
154.15175
 20
291.242167
 30
0.0
 11
154.15175
 21
234.992167
 31
0.0
  0
LINE
  8
1
  6
CONTINUOUS
 62
     5
  5
8C
 10
154.15175
 20
234.992167
 30
0.0
 11
72.40175
 21
234.992167
 31
0.0
  0
LINE
  8
1
  6
CONTINUOUS
 62
     5
  5
8D
 10
72.40175
 20
234.992167
 30
0.0
 11
72.40175
 21
291.242167
 31
0.0
  0
LINE
  8
1
  6
CONTINUOUS
 62
     5
  5
8E
 10
72.40175
 20
243.992167
 30
0.0
 11
61.90175
 21
243.992167
 31
0.0
  0
LINE
  8
1
  6
CONTINUOUS
 62
     5
  5
8F
 10
72.40175
 20
247.367167
 30
0.0
 11
61.90175
 21
247.367167
 31
0.0
  0
LINE
  8
1
  6
CONTINUOUS
 62
     5
  5
90
 10
77.97725
 20
251.306167
 30
0.0
 11
82.576083
 21
248.678167
 31
0.0
  0
LINE
  8
1
  6
CONTINUOUS
 62
     5
  5
91
 10
78.535333
 20
252.282917
 30
0.0
 11
77.97725
 21
251.306167
 31
0.0
  0
LINE
  8
1
  6
CONTINUOUS
 62
     5
  5
92
 10
83.13425
 20
249.654917
 30
0.0
 11
82.576083
 21
248.678167
 31
0.0
  0
ARC
  8
1
  6
CONTINUOUS
 62
     5
  5
93
 10
72.587002
 20
254.262108
 30
0.0
 40
6.89743
 50
268.460614
 51
331.149475
210
0.0
220
0.0
230
1.0
  0
ARC
  8
1
  6
CONTINUOUS
 62
     5
  5
94
 10
73.13975
 20
254.096498
 30
0.0
 40
10.131249
 50
265.822414
 51
330.125094
210
0.0
220
0.0
230
1.0
  0
ARC
  8
1
  6
CONTINUOUS
 62
     5
  5
95
 10
153.398167
 20
254.096498
 30
0.0
 40
10.131249
 50
209.874906
 51
274.177586
210
0.0
220
0.0
230
1.0
  0
LINE
  8
1
  6
CONTINUOUS
 62
     5
  5
96
 10
154.13625
 20
243.992167
 30
0.0
 11
164.63625
 21
243.992167
 31
0.0
  0
LINE
  8
1
  6
CONTINUOUS
 62
     5
  5
97
 10
154.13625
 20
247.367167
 30
0.0
 11
164.63625
 21
247.367167
 31
0.0
  0
LINE
  8
1
  6
CONTINUOUS
 62
     5
  5
98
 10
148.56075
 20
251.306167
 30
0.0
 11
143.961833
 21
248.678167
 31
0.0
  0
LINE
  8
1
  6
CONTINUOUS
 62
     5
  5
99
 10
148.002583
 20
252.282917
 30
0.0
 11
148.56075
 21
251.306167
 31
0.0
  0
LINE
  8
1
  6
CONTINUOUS
 62
     5
  5
9A
 10
143.40375
 20
249.654917
 30
0.0
 11
143.961833
 21
248.678167
 31
0.0
  0
ARC
  8
1
  6
CONTINUOUS
 62
     5
  5
9B
 10
153.950915
 20
254.262108
 30
0.0
 40
6.89743
 50
208.850525
 51
271.539386
210
0.0
220
0.0
230
1.0
  0
LINE
  8
1
  6
CONTINUOUS
 62
     5
  5
9C
 10
78.535333
 20
252.282917
 30
0.0
 11
77.97725
 21
251.306167
 31
0.0
  0
LINE
  8
1
  6
CONTINUOUS
 62
     5
  5
9D
 10
103.50325
 20
245.549167
 30
0.0
 11
103.50325
 21
248.549167
 31
0.0
  0
LINE
  8
1
  6
CONTINUOUS
 62
     5
  5
9E
 10
107.25325
 20
245.549167
 30
0.0
 11
107.25325
 21
248.549167
 31
0.0
  0
ARC
  8
1
  6
CONTINUOUS
 62
     5
  5
9F
 10
105.378208
 20
246.037892
 30
0.0
 40
1.937647
 50
194.609281
 51
345.390719
210
0.0
220
0.0
230
1.0
  0
POLYLINE
  8
1
  6
CONTINUOUS
 62
     5
  5
A0
 66
     1
 10
0.0
 20
0.0
 30
0.0
 70
     1
210
0.0
220
0.0
230
1.0
  0
VERTEX
  8
1
  6
CONTINUOUS
 62
     5
  5
A1
 10
108.588583
 20
250.424917
 30
0.0
 42
0.094075
  0
VERTEX
  8
1
  6
CONTINUOUS
 62
     5
  5
A2
 10
108.538279
 20
250.745639
 30
0.0
 42
0.078087
  0
VERTEX
  8
1
  6
CONTINUOUS
 62
     5
  5
A3
 10
108.365713
 20
251.058636
 30
0.0
 42
0.059232
  0
VERTEX
  8
1
  6
CONTINUOUS
 62
     5
  5
A4
 10
108.077518
 20
251.351878
 30
0.0
 42
0.04492
  0
VERTEX
  8
1
  6
CONTINUOUS
 62
     5
  5
A5
 10
107.684769
 20
251.614098
 30
0.0
 42
0.035569
  0
VERTEX
  8
1
  6
CONTINUOUS
 62
     5
  5
A6
 10
107.202558
 20
251.835218
 30
0.0
 42
0.029818
  0
VERTEX
  8
1
  6
CONTINUOUS
 62
     5
  5
A7
 10
106.649417
 20
252.00674
 30
0.0
 42
0.026531
  0
VERTEX
  8
1
  6
CONTINUOUS
 62
     5
  5
A8
 10
106.046603
 20
252.122072
 30
0.0
 42
0.025036
  0
VERTEX
  8
1
  6
CONTINUOUS
 62
     5
  5
A9
 10
105.417281
 20
252.176784
 30
0.0
 42
0.025036
  0
VERTEX
  8
1
  6
CONTINUOUS
 62
     5
  5
AA
 10
104.785636
 20
252.168772
 30
0.0
 42
0.026531
  0
VERTEX
  8
1
  6
CONTINUOUS
 62
     5
  5
AB
 10
104.175942
 20
252.098344
 30
0.0
 42
0.029818
  0
VERTEX
  8
1
  6
CONTINUOUS
 62
     5
  5
AC
 10
103.61163
 20
251.968207
 30
0.0
 42
0.035569
  0
VERTEX
  8
1
  6
CONTINUOUS
 62
     5
  5
AD
 10
103.114384
 20
251.783362
 30
0.0
 42
0.04492
  0
VERTEX
  8
1
  6
CONTINUOUS
 62
     5
  5
AE
 10
102.703314
 20
251.550911
 30
0.0
 42
0.059232
  0
VERTEX
  8
1
  6
CONTINUOUS
 62
     5
  5
AF
 10
102.394218
 20
251.279789
 30
0.0
 42
0.078087
  0
VERTEX
  8
1
  6
CONTINUOUS
 62
     5
  5
B0
 10
102.198973
 20
250.980414
 30
0.0
 42
0.094075
  0
VERTEX
  8
1
  6
CONTINUOUS
 62
     5
  5
B1
 10
102.125083
 20
250.664292
 30
0.0
 42
0.094075
  0
VERTEX
  8
1
  6
CONTINUOUS
 62
     5
  5
B2
 10
102.175388
 20
250.343569
 30
0.0
 42
0.078087
  0
VERTEX
  8
1
  6
CONTINUOUS
 62
     5
  5
B3
 10
102.347953
 20
250.030573
 30
0.0
 42
0.059232
  0
VERTEX
  8
1
  6
CONTINUOUS
 62
     5
  5
B4
 10
102.636149
 20
249.73733
 30
0.0
 42
0.04492
  0
VERTEX
  8
1
  6
CONTINUOUS
 62
     5
  5
B5
 10
103.028898
 20
249.47511
 30
0.0
 42
0.035569
  0
VERTEX
  8
1
  6
CONTINUOUS
 62
     5
  5
B6
 10
103.511109
 20
249.253991
 30
0.0
 42
0.029818
  0
VERTEX
  8
1
  6
CONTINUOUS
 62
     5
  5
B7
 10
104.06425
 20
249.082469
 30
0.0
 42
0.026531
  0
VERTEX
  8
1
  6
CONTINUOUS
 62
     5
  5
B8
 10
104.667064
 20
248.967136
 30
0.0
 42
0.025036
  0
VERTEX
  8
1
  6
CONTINUOUS
 62
     5
  5
B9
 10
105.296386
 20
248.912424
 30
0.0
 42
0.025036
  0
VERTEX
  8
1
  6
CONTINUOUS
 62
     5
  5
BA
 10
105.92803
 20
248.920436
 30
0.0
 42
0.026531
  0
VERTEX
  8
1
  6
CONTINUOUS
 62
     5
  5
BB
 10
106.537724
 20
248.990864
 30
0.0
 42
0.029818
  0
VERTEX
  8
1
  6
CONTINUOUS
 62
     5
  5
BC
 10
107.102037
 20
249.121001
 30
0.0
 42
0.035569
  0
VERTEX
  8
1
  6
CONTINUOUS
 62
     5
  5
BD
 10
107.599283
 20
249.305847
 30
0.0
 42
0.04492
  0
VERTEX
  8
1
  6
CONTINUOUS
 62
     5
  5
BE
 10
108.010352
 20
249.538297
 30
0.0
 42
0.059232
  0
VERTEX
  8
1
  6
CONTINUOUS
 62
     5
  5
BF
 10
108.319449
 20
249.809419
 30
0.0
 42
0.078087
  0
VERTEX
  8
1
  6
CONTINUOUS
 62
     5
  5
C0
 10
108.514693
 20
250.108794
 30
0.0
 42
0.094075
  0
SEQEND
  8
1
  6
CONTINUOUS
 62
     5
  5
C1
  0
POLYLINE
  8
1
  6
CONTINUOUS
 62
     5
  5
C2
 66
     1
 10
0.0
 20
0.0
 30
0.0
210
0.0
220
0.0
230
1.0
  0
VERTEX
  8
1
  6
CONTINUOUS
 62
     5
  5
C3
 10
108.588583
 20
250.424917
 30
0.0
 42
-0.064306
  0
VERTEX
  8
1
  6
CONTINUOUS
 62
     5
  5
C4
 10
108.508804
 20
249.949779
 30
0.0
 42
-0.06099
  0
VERTEX
  8
1
  6
CONTINUOUS
 62
     5
  5
C5
 10
108.307897
 20
249.497501
 30
0.0
 42
-0.055672
  0
VERTEX
  8
1
  6
CONTINUOUS
 62
     5
  5
C6
 10
107.993582
 20
249.085462
 30
0.0
 42
-0.049961
  0
VERTEX
  8
1
  6
CONTINUOUS
 62
     5
  5
C7
 10
107.577938
 20
248.729497
 30
0.0
 42
-0.044957
  0
VERTEX
  8
1
  6
CONTINUOUS
 62
     5
  5
C8
 10
107.076938
 20
248.443285
 30
0.0
 42
-0.041142
  0
VERTEX
  8
1
  6
CONTINUOUS
 62
     5
  5
C9
 10
106.509836
 20
248.237826
 30
0.0
 42
-0.03863
  0
VERTEX
  8
1
  6
CONTINUOUS
 62
     5
  5
CA
 10
105.898424
 20
248.121016
 30
0.0
 42
-0.037393
  0
VERTEX
  8
1
  6
CONTINUOUS
 62
     5
  5
CB
 10
105.266199
 20
248.097342
 30
0.0
 42
-0.037393
  0
VERTEX
  8
1
  6
CONTINUOUS
 62
     5
  5
CC
 10
104.637458
 20
248.167715
 30
0.0
 42
-0.03863
  0
VERTEX
  8
1
  6
CONTINUOUS
 62
     5
  5
CD
 10
104.036361
 20
248.329431
 30
0.0
 42
-0.041142
  0
VERTEX
  8
1
  6
CONTINUOUS
 62
     5
  5
CE
 10
103.48601
 20
248.576275
 30
0.0
 42
-0.044957
  0
VERTEX
  8
1
  6
CONTINUOUS
 62
     5
  5
CF
 10
103.007553
 20
248.89876
 30
0.0
 42
-0.049961
  0
VERTEX
  8
1
  6
CONTINUOUS
 62
     5
  5
D0
 10
102.619378
 20
249.284495
 30
0.0
 42
-0.055672
  0
VERTEX
  8
1
  6
CONTINUOUS
 62
     5
  5
D1
 10
102.336402
 20
249.718654
 30
0.0
 42
-0.06099
  0
VERTEX
  8
1
  6
CONTINUOUS
 62
     5
  5
D2
 10
102.169499
 20
250.184555
 30
0.0
 42
-0.064306
  0
VERTEX
  8
1
  6
CONTINUOUS
 62
     5
  5
D3
 10
102.125083
 20
250.664292
 30
0.0
 42
-0.064306
  0
SEQEND
  8
1
  6
CONTINUOUS
 62
     5
  5
D4
  0
ARC
  8
1
  6
CONTINUOUS
 62
     5
  5
D5
 10
101.483298
 20
264.47472
 30
0.0
 40
9.719862
 50
93.430353
 51
137.218106
210
0.0
220
0.0
230
1.0
  0
ARC
  8
1
  6
CONTINUOUS
 62
     5
  5
D6
 10
102.37991
 20
263.861463
 30
0.0
 40
7.699609
 50
89.837789
 51
133.686386
210
0.0
220
0.0
230
1.0
  0
LINE
  8
1
  6
CONTINUOUS
 62
     5
  5
D7
 10
94.3495
 20
271.076583
 30
0.0
 11
79.122083
 21
251.947583
 31
0.0
  0
LINE
  8
1
  6
CONTINUOUS
 62
     5
  5
D8
 10
97.06175
 20
269.429333
 30
0.0
 11
81.887583
 21
250.367333
 31
0.0
  0
ARC
  8
1
  6
CONTINUOUS
 62
     5
  5
D9
 10
128.070118
 20
264.47472
 30
0.0
 40
9.719862
 50
35.718697
 51
86.569647
210
0.0
220
0.0
230
1.0
  0
ARC
  8
1
  6
CONTINUOUS
 62
     5
  5
DA
 10
127.173507
 20
263.861463
 30
0.0
 40
7.699609
 50
38.390536
 51
90.162211
210
0.0
220
0.0
230
1.0
  0
LINE
  8
1
  6
CONTINUOUS
 62
     5
  5
DB
 10
133.2085
 20
268.643083
 30
0.0
 11
145.49475
 21
250.849833
 31
0.0
  0
LINE
  8
1
  6
CONTINUOUS
 62
     5
  5
DC
 10
135.961583
 20
270.149333
 30
0.0
 11
147.028
 21
251.725917
 31
0.0
  0
LINE
  8
1
  6
CONTINUOUS
 62
     5
  5
DD
 10
118.15175
 20
284.278333
 30
0.0
 11
124.15175
 21
284.278333
 31
0.0
  0
LINE
  8
1
  6
CONTINUOUS
 62
     5
  5
DE
 10
118.15175
 20
279.178833
 30
0.0
 11
124.15175
 21
279.178833
 31
0.0
  0
LINE
  8
1
  6
CONTINUOUS
 62
     5
  5
DF
 10
124.15175
 20
284.278333
 30
0.0
 11
124.15175
 21
279.178833
 31
0.0
  0
LINE
  8
1
  6
CONTINUOUS
 62
     5
  5
E0
 10
118.095333
 20
269.530667
 30
0.0
 11
124.095333
 21
269.530667
 31
0.0
  0
LINE
  8
1
  6
CONTINUOUS
 62
     5
  5
E1
 10
118.095333
 20
274.630167
 30
0.0
 11
124.095333
 21
274.630167
 31
0.0
  0
LINE
  8
1
  6
CONTINUOUS
 62
     5
  5
E2
 10
118.095333
 20
274.630167
 30
0.0
 11
118.095333
 21
269.530667
 31
0.0
  0
LINE
  8
1
  6
CONTINUOUS
 62
     5
  5
E3
 10
124.095333
 20
274.630167
 30
0.0
 11
124.095333
 21
269.530667
 31
0.0
  0
LINE
  8
1
  6
CONTINUOUS
 62
     5
  5
E4
 10
118.15775
 20
259.566833
 30
0.0
 11
124.15775
 21
259.566833
 31
0.0
  0
LINE
  8
1
  6
CONTINUOUS
 62
     5
  5
E5
 10
118.15775
 20
264.666333
 30
0.0
 11
124.15775
 21
264.666333
 31
0.0
  0
LINE
  8
1
  6
CONTINUOUS
 62
     5
  5
E6
 10
112.549
 20
269.835833
 30
0.0
 11
118.095333
 21
269.835833
 31
0.0
  0
ARC
  8
1
  6
CONTINUOUS
 62
     5
  5
E7
 10
112.912292
 20
266.90842
 30
0.0
 40
4.680629
 50
99.317692
 51
173.136306
210
0.0
220
0.0
230
1.0
  0
ARC
  8
1
  6
CONTINUOUS
 62
     5
  5
E8
 10
112.663494
 20
267.237999
 30
0.0
 40
2.600316
 50
92.524506
 51
169.510961
210
0.0
220
0.0
230
1.0
  0
LINE
  8
1
  6
CONTINUOUS
 62
     5
  5
E9
 10
110.106583
 20
267.711417
 30
0.0
 11
105.816083
 21
248.852083
 31
0.0
  0
POLYLINE
  8
1
  6
CONTINUOUS
 62
     5
  5
EA
 66
     1
 10
0.0
 20
0.0
 30
0.0
  0
VERTEX
  8
1
  6
CONTINUOUS
 62
     5
  5
EB
 10
79.15675
 20
251.927917
 30
0.0
  0
VERTEX
  8
1
  6
CONTINUOUS
 62
     5
  5
EC
 10
87.225833
 20
272.212333
 30
0.0
  0
VERTEX
  8
1
  6
CONTINUOUS
 62
     5
  5
ED
 10
87.225833
 20
272.212291
 30
0.0
 42
-0.279845
  0
VERTEX
  8
1
  6
CONTINUOUS
 62
     5
  5
EE
 10
106.901708
 20
283.742167
 30
0.0
  0
VERTEX
  8
1
  6
CONTINUOUS
 62
     5
  5
EF
 10
106.90175
 20
283.742167
 30
0.0
  0
VERTEX
  8
1
  6
CONTINUOUS
 62
     5
  5
F0
 10
118.15175
 20
283.742167
 30
0.0
  0
VERTEX
  8
1
  6
CONTINUOUS
 62
     5
  5
F1
 10
118.15175
 20
284.278333
 30
0.0
  0
VERTEX
  8
1
  6
CONTINUOUS
 62
     5
  5
F2
 10
118.15175
 20
279.178833
 30
0.0
  0
VERTEX
  8
1
  6
CONTINUOUS
 62
     5
  5
F3
 10
118.15175
 20
280.742167
 30
0.0
  0
VERTEX
  8
1
  6
CONTINUOUS
 62
     5
  5
F4
 10
108.77675
 20
280.742167
 30
0.0
  0
VERTEX
  8
1
  6
CONTINUOUS
 62
     5
  5
F5
 10
108.776709
 20
280.742167
 30
0.0
 42
0.265
  0
VERTEX
  8
1
  6
CONTINUOUS
 62
     5
  5
F6
 10
90.585959
 20
270.875417
 30
0.0
  0
VERTEX
  8
1
  6
CONTINUOUS
 62
     5
  5
F7
 10
90.586
 20
270.875417
 30
0.0
  0
VERTEX
  8
1
  6
CONTINUOUS
 62
     5
  5
F8
 10
82.32775
 20
250.115833
 30
0.0
  0
VERTEX
  8
1
  6
CONTINUOUS
 62
     5
  5
F9
 10
83.13425
 20
249.654917
 30
0.0
  0
VERTEX
  8
1
  6
CONTINUOUS
 62
     5
  5
FA
 10
78.535333
 20
252.282917
 30
0.0
  0
VERTEX
  8
1
  6
CONTINUOUS
 62
     5
  5
FB
 10
79.15675
 20
251.927917
 30
0.0
  0
SEQEND
  8
1
  6
CONTINUOUS
 62
     5
  5
FC
  0
LINE
  8
1
  6
CONTINUOUS
 62
     5
  5
FD
 10
78.535333
 20
252.282917
 30
0.0
 11
83.13425
 21
249.654917
 31
0.0
  0
LINE
  8
1
  6
CONTINUOUS
 62
     5
  5
FE
 10
78.535333
 20
252.282917
 30
0.0
 11
83.13425
 21
249.654917
 31
0.0
  0
LINE
  8
1
  6
CONTINUOUS
 62
     5
  5
FF
 10
128.65175
 20
274.177167
 30
0.0
 11
124.095333
 21
274.177167
 31
0.0
  0
LINE
  8
1
  6
CONTINUOUS
 62
     5
  5
100
 10
127.15175
 20
271.561083
 30
0.0
 11
124.095333
 21
271.561083
 31
0.0
  0
POLYLINE
  8
1
  6
CONTINUOUS
 62
     5
  5
101
 66
     1
 10
0.0
 20
0.0
 30
0.0
  0
VERTEX
  8
1
  6
CONTINUOUS
 62
     5
  5
102
 10
80.054
 20
251.415083
 30
0.0
  0
VERTEX
  8
1
  6
CONTINUOUS
 62
     5
  5
103
 10
92.218083
 20
261.571083
 30
0.0
  0
VERTEX
  8
1
  6
CONTINUOUS
 62
     5
  5
104
 10
92.218083
 20
261.571041
 30
0.0
 42
-0.123637
  0
VERTEX
  8
1
  6
CONTINUOUS
 62
     5
  5
105
 10
99.401708
 20
264.242167
 30
0.0
  0
VERTEX
  8
1
  6
CONTINUOUS
 62
     5
  5
106
 10
99.40175
 20
264.242167
 30
0.0
  0
VERTEX
  8
1
  6
CONTINUOUS
 62
     5
  5
107
 10
118.15775
 20
264.242167
 30
0.0
  0
VERTEX
  8
1
  6
CONTINUOUS
 62
     5
  5
108
 10
118.15775
 20
264.666333
 30
0.0
  0
VERTEX
  8
1
  6
CONTINUOUS
 62
     5
  5
109
 10
118.15775
 20
259.566833
 30
0.0
  0
VERTEX
  8
1
  6
CONTINUOUS
 62
     5
  5
10A
 10
118.15775
 20
261.326583
 30
0.0
  0
VERTEX
  8
1
  6
CONTINUOUS
 62
     5
  5
10B
 10
99.40175
 20
261.326583
 30
0.0
  0
VERTEX
  8
1
  6
CONTINUOUS
 62
     5
  5
10C
 10
99.401711
 20
261.326543
 30
0.0
 42
0.141058
  0
VERTEX
  8
1
  6
CONTINUOUS
 62
     5
  5
10D
 10
93.660839
 20
258.780669
 30
0.0
  0
VERTEX
  8
1
  6
CONTINUOUS
 62
     5
  5
10E
 10
93.660833
 20
258.780667
 30
0.0
  0
VERTEX
  8
1
  6
CONTINUOUS
 62
     5
  5
10F
 10
81.612583
 20
250.524417
 30
0.0
  0
VERTEX
  8
1
  6
CONTINUOUS
 62
     5
  5
110
 10
80.054
 20
251.415083
 30
0.0
  0
SEQEND
  8
1
  6
CONTINUOUS
 62
     5
  5
111
  0
POLYLINE
  8
1
  6
CONTINUOUS
 62
     5
  5
112
 66
     1
 10
0.0
 20
0.0
 30
0.0
  0
VERTEX
  8
1
  6
CONTINUOUS
 62
     5
  5
113
 10
124.15175
 20
283.742167
 30
0.0
  0
VERTEX
  8
1
  6
CONTINUOUS
 62
     5
  5
114
 10
132.40175
 20
283.742167
 30
0.0
  0
VERTEX
  8
1
  6
CONTINUOUS
 62
     5
  5
115
 10
132.401708
 20
283.742167
 30
0.0
 42
-0.301513
  0
VERTEX
  8
1
  6
CONTINUOUS
 62
     5
  5
116
 10
142.991083
 20
273.229167
 30
0.0
  0
VERTEX
  8
1
  6
CONTINUOUS
 62
     5
  5
117
 10
142.991083
 20
273.229167
 30
0.0
  0
VERTEX
  8
1
  6
CONTINUOUS
 62
     5
  5
118
 10
147.25825
 20
251.857583
 30
0.0
  0
VERTEX
  8
1
  6
CONTINUOUS
 62
     5
  5
119
 10
148.002583
 20
252.282917
 30
0.0
  0
VERTEX
  8
1
  6
CONTINUOUS
 62
     5
  5
11A
 10
143.40375
 20
249.654917
 30
0.0
  0
VERTEX
  8
1
  6
CONTINUOUS
 62
     5
  5
11B
 10
144.247833
 20
250.137333
 30
0.0
  0
VERTEX
  8
1
  6
CONTINUOUS
 62
     5
  5
11C
 10
139.765833
 20
272.584917
 30
0.0
  0
VERTEX
  8
1
  6
CONTINUOUS
 62
     5
  5
11D
 10
139.765833
 20
272.584917
 30
0.0
 42
0.36062
  0
VERTEX
  8
1
  6
CONTINUOUS
 62
     5
  5
11E
 10
130.526708
 20
280.742167
 30
0.0
  0
VERTEX
  8
1
  6
CONTINUOUS
 62
     5
  5
11F
 10
130.52675
 20
280.742167
 30
0.0
  0
VERTEX
  8
1
  6
CONTINUOUS
 62
     5
  5
120
 10
124.15175
 20
280.742167
 30
0.0
  0
VERTEX
  8
1
  6
CONTINUOUS
 62
     5
  5
121
 10
124.15175
 20
283.742167
 30
0.0
  0
SEQEND
  8
1
  6
CONTINUOUS
 62
     5
  5
122
  0
LINE
  8
1
  6
CONTINUOUS
 62
     5
  5
123
 10
148.002583
 20
252.282917
 30
0.0
 11
143.40375
 21
249.654917
 31
0.0
  0
POLYLINE
  8
1
  6
CONTINUOUS
 62
     5
  5
124
 66
     1
 10
0.0
 20
0.0
 30
0.0
  0
VERTEX
  8
1
  6
CONTINUOUS
 62
     5
  5
125
 10
127.151708
 20
264.242167
 30
0.0
 42
-0.16726
  0
VERTEX
  8
1
  6
CONTINUOUS
 62
     5
  5
126
 10
134.756998
 20
261.031561
 30
0.0
  0
VERTEX
  8
1
  6
CONTINUOUS
 62
     5
  5
127
 10
134.757
 20
261.031583
 30
0.0
  0
VERTEX
  8
1
  6
CONTINUOUS
 62
     5
  5
128
 10
146.531583
 20
251.442333
 30
0.0
  0
VERTEX
  8
1
  6
CONTINUOUS
 62
     5
  5
129
 10
148.002583
 20
252.282917
 30
0.0
  0
VERTEX
  8
1
  6
CONTINUOUS
 62
     5
  5
12A
 10
143.40375
 20
249.654917
 30
0.0
  0
VERTEX
  8
1
  6
CONTINUOUS
 62
     5
  5
12B
 10
144.247833
 20
250.137333
 30
0.0
  0
VERTEX
  8
1
  6
CONTINUOUS
 62
     5
  5
12C
 10
133.012333
 20
259.089917
 30
0.0
  0
VERTEX
  8
1
  6
CONTINUOUS
 62
     5
  5
12D
 10
133.012341
 20
259.089955
 30
0.0
 42
0.130731
  0
VERTEX
  8
1
  6
CONTINUOUS
 62
     5
  5
12E
 10
127.151708
 20
261.326542
 30
0.0
  0
VERTEX
  8
1
  6
CONTINUOUS
 62
     5
  5
12F
 10
127.15175
 20
261.326583
 30
0.0
  0
VERTEX
  8
1
  6
CONTINUOUS
 62
     5
  5
130
 10
124.15775
 20
261.326583
 30
0.0
  0
VERTEX
  8
1
  6
CONTINUOUS
 62
     5
  5
131
 10
124.15775
 20
259.566833
 30
0.0
  0
VERTEX
  8
1
  6
CONTINUOUS
 62
     5
  5
132
 10
124.15775
 20
264.666333
 30
0.0
  0
VERTEX
  8
1
  6
CONTINUOUS
 62
     5
  5
133
 10
127.15175
 20
264.242167
 30
0.0
  0
SEQEND
  8
1
  6
CONTINUOUS
 62
     5
  5
134
  0
LINE
  8
1
  6
CONTINUOUS
 62
     5
  5
135
 10
124.15775
 20
264.666333
 30
0.0
 11
124.15775
 21
259.566833
 31
0.0
  0
LINE
  8
1
  6
CONTINUOUS
 62
     5
  5
136
 10
108.26525
 20
267.467833
 30
0.0
 11
105.946583
 21
254.982917
 31
0.0
  0
ARC
  8
1
  6
CONTINUOUS
 62
     5
  5
137
 10
113.516432
 20
272.080468
 30
0.0
 40
8.76198
 50
175.661875
 51
175.867108
210
0.0
220
0.0
230
1.0
  0
LINE
  8
1
  6
CONTINUOUS
 62
     5
  5
138
 10
108.77675
 20
280.742167
 30
0.0
 11
118.15175
 21
280.742167
 31
0.0
  0
LINE
  8
1
  6
CONTINUOUS
 62
     5
  5
139
 10
118.15175
 20
284.278333
 30
0.0
 11
118.15175
 21
279.178833
 31
0.0
  0
LINE
  8
1
  6
CONTINUOUS
 62
     5
  5
13A
 10
118.15175
 20
274.177167
 30
0.0
 11
100.90175
 21
274.177167
 31
0.0
  0
LINE
  8
1
  6
CONTINUOUS
 62
     5
  5
13B
 10
118.15175
 20
284.278333
 30
0.0
 11
118.15175
 21
279.178833
 31
0.0
  0
POLYLINE
  8
1
  6
CONTINUOUS
 62
     5
  5
13C
 66
     1
 10
0.0
 20
0.0
 30
0.0
 70
     1
  0
VERTEX
  8
1
  6
CONTINUOUS
 62
     5
  5
13D
 10
103.32425
 20
249.591917
 30
0.0
  0
VERTEX
  8
1
  6
CONTINUOUS
 62
     5
  5
13E
 10
104.705833
 20
271.561083
 30
0.0
  0
VERTEX
  8
1
  6
CONTINUOUS
 62
     5
  5
13F
 10
102.40175
 20
271.561083
 30
0.0
  0
VERTEX
  8
1
  6
CONTINUOUS
 62
     5
  5
140
 10
118.095333
 20
271.561083
 30
0.0
  0
VERTEX
  8
1
  6
CONTINUOUS
 62
     5
  5
141
 10
107.048333
 20
271.561083
 30
0.0
  0
VERTEX
  8
1
  6
CONTINUOUS
 62
     5
  5
142
 10
105.5295
 20
248.940083
 30
0.0
  0
VERTEX
  8
1
  6
CONTINUOUS
 62
     5
  5
143
 10
103.32425
 20
249.591917
 30
0.0
  0
SEQEND
  8
1
  6
CONTINUOUS
 62
     5
  5
144
  0
LINE
  8
1
  6
CONTINUOUS
 62
     5
  5
145
 10
102.40175
 20
271.561083
 30
0.0
 11
118.095333
 21
271.561083
 31
0.0
  0
POLYLINE
  8
1
  6
CONTINUOUS
 62
     5
  5
146
 66
     1
 10
0.0
 20
0.0
 30
0.0
  0
VERTEX
  8
1
  6
CONTINUOUS
 62
     5
  5
147
 10
105.009014
 20
274.177167
 30
0.0
 42
-0.300111
  0
VERTEX
  8
1
  6
CONTINUOUS
 62
     5
  5
148
 10
112.095208
 20
280.726417
 30
0.0
  0
VERTEX
  8
1
  6
CONTINUOUS
 62
     5
  5
149
 10
108.77675
 20
280.742167
 30
0.0
  0
VERTEX
  8
1
  6
CONTINUOUS
 62
     5
  5
14A
 10
118.15175
 20
280.742167
 30
0.0
  0
VERTEX
  8
1
  6
CONTINUOUS
 62
     5
  5
14B
 10
118.15175
 20
279.178833
 30
0.0
  0
VERTEX
  8
1
  6
CONTINUOUS
 62
     5
  5
14C
 10
118.15175
 20
284.278333
 30
0.0
  0
VERTEX
  8
1
  6
CONTINUOUS
 62
     5
  5
14D
 10
118.15175
 20
279.178833
 30
0.0
  0
VERTEX
  8
1
  6
CONTINUOUS
 62
     5
  5
14E
 10
118.36025
 20
279.372833
 30
0.0
  0
VERTEX
  8
1
  6
CONTINUOUS
 62
     5
  5
14F
 10
114.35075
 20
279.372833
 30
0.0
  0
VERTEX
  8
1
  6
CONTINUOUS
 62
     5
  5
150
 10
114.350708
 20
279.372792
 30
0.0
 42
0.256175
  0
VERTEX
  8
1
  6
CONTINUOUS
 62
     5
  5
151
 10
107.717892
 20
274.177167
 30
0.0
  0
VERTEX
  8
1
  6
CONTINUOUS
 62
     5
  5
152
 10
100.90175
 20
274.177167
 30
0.0
  0
VERTEX
  8
1
  6
CONTINUOUS
 62
     5
  5
153
 10
118.15175
 20
274.177167
 30
0.0
  0
VERTEX
  8
1
  6
CONTINUOUS
 62
     5
  5
154
 10
105.009
 20
274.177167
 30
0.0
  0
SEQEND
  8
1
  6
CONTINUOUS
 62
     5
  5
155
  0
POLYLINE
  8
1
  6
CONTINUOUS
 62
     5
  5
156
 66
     1
 10
0.0
 20
0.0
 30
0.0
  0
VERTEX
  8
1
  6
CONTINUOUS
 62
     5
  5
157
 10
104.6775
 20
249.090583
 30
0.0
  0
VERTEX
  8
1
  6
CONTINUOUS
 62
     5
  5
158
 10
106.507583
 20
257.752083
 30
0.0
  0
VERTEX
  8
1
  6
CONTINUOUS
 62
     5
  5
159
 10
106.507545
 20
257.75209
 30
0.0
 42
-0.375523
  0
VERTEX
  8
1
  6
CONTINUOUS
 62
     5
  5
15A
 10
112.496208
 20
261.474292
 30
0.0
  0
VERTEX
  8
1
  6
CONTINUOUS
 62
     5
  5
15B
 10
117.456083
 20
261.477083
 30
0.0
  0
VERTEX
  8
1
  6
CONTINUOUS
 62
     5
  5
15C
 10
98.700083
 20
261.477083
 30
0.0
  0
VERTEX
  8
1
  6
CONTINUOUS
 62
     5
  5
15D
 10
117.456083
 20
261.477083
 30
0.0
  0
VERTEX
  8
1
  6
CONTINUOUS
 62
     5
  5
15E
 10
117.456083
 20
259.717333
 30
0.0
  0
VERTEX
  8
1
  6
CONTINUOUS
 62
     5
  5
15F
 10
117.456083
 20
264.816833
 30
0.0
  0
VERTEX
  8
1
  6
CONTINUOUS
 62
     5
  5
160
 10
117.456083
 20
259.717333
 30
0.0
  0
VERTEX
  8
1
  6
CONTINUOUS
 62
     5
  5
161
 10
117.357833
 20
260.020333
 30
0.0
  0
VERTEX
  8
1
  6
CONTINUOUS
 62
     5
  5
162
 10
112.140083
 20
259.997667
 30
0.0
  0
VERTEX
  8
1
  6
CONTINUOUS
 62
     5
  5
163
 10
112.140134
 20
259.997696
 30
0.0
 42
0.27889
  0
VERTEX
  8
1
  6
CONTINUOUS
 62
     5
  5
164
 10
108.01117
 20
256.29809
 30
0.0
  0
VERTEX
  8
1
  6
CONTINUOUS
 62
     5
  5
165
 10
108.01125
 20
256.298083
 30
0.0
  0
VERTEX
  8
1
  6
CONTINUOUS
 62
     5
  5
166
 10
106.64425
 20
249.171667
 30
0.0
  0
VERTEX
  8
1
  6
CONTINUOUS
 62
     5
  5
167
 10
104.6775
 20
249.090583
 30
0.0
  0
SEQEND
  8
1
  6
CONTINUOUS
 62
     5
  5
168
  0
ARC
  8
1
  6
CONTINUOUS
 62
     5
  5
169
 10
113.134069
 20
254.734532
 30
0.0
 40
5.356193
 50
100.694214
 51
163.027303
210
0.0
220
0.0
230
1.0
  0
LINE
  8
1
  6
CONTINUOUS
 62
     5
  5
16A
 10
111.16325
 20
259.714917
 30
0.0
 11
118.158833
 21
259.745333
 31
0.0
  0
LINE
  8
1
  6
CONTINUOUS
 62
     5
  5
16B
 10
117.456083
 20
261.794333
 30
0.0
 11
117.456083
 21
261.979417
 31
0.0
  0
LINE
  8
1
  6
CONTINUOUS
 62
     5
  5
16C
 10
118.15775
 20
261.326583
 30
0.0
 11
99.40175
 21
261.326583
 31
0.0
  0
LINE
  8
1
  6
CONTINUOUS
 62
     5
  5
16D
 10
118.15775
 20
261.326583
 30
0.0
 11
99.40175
 21
261.326583
 31
0.0
  0
LINE
  8
1
  6
CONTINUOUS
 62
     5
  5
16E
 10
118.15775
 20
264.666333
 30
0.0
 11
118.15775
 21
259.566833
 31
0.0
  0
ARC
  8
1
  6
CONTINUOUS
 62
     5
  5
16F
 10
113.134069
 20
254.734532
 30
0.0
 40
5.356193
 50
100.694214
 51
163.027303
210
0.0
220
0.0
230
1.0
  0
LINE
  8
1
  6
CONTINUOUS
 62
     5
  5
170
 10
112.140083
 20
259.997667
 30
0.0
 11
117.357833
 21
260.020333
 31
0.0
  0
LINE
  8
1
  6
CONTINUOUS
 62
     5
  5
171
 10
112.140083
 20
259.997667
 30
0.0
 11
117.357833
 21
260.020333
 31
0.0
  0
LINE
  8
1
  6
CONTINUOUS
 62
     5
  5
172
 10
117.456083
 20
259.717333
 30
0.0
 11
117.456083
 21
261.326583
 31
0.0
  0
LINE
  8
1
  6
CONTINUOUS
 62
     5
  5
173
 10
118.15775
 20
261.326583
 30
0.0
 11
99.40175
 21
261.326583
 31
0.0
  0
LINE
  8
1
  6
CONTINUOUS
 62
     5
  5
174
 10
111.163
 20
259.769417
 30
0.0
 11
118.158583
 21
259.799833
 31
0.0
  0
LINE
  8
1
  6
CONTINUOUS
 62
     5
  5
175
 10
111.162833
 20
259.783667
 30
0.0
 11
118.1585
 21
259.814083
 31
0.0
  0
LINE
  8
1
  6
CONTINUOUS
 62
     5
  5
176
 10
111.16275
 20
259.826417
 30
0.0
 11
118.158333
 21
259.856833
 31
0.0
  0
LINE
  8
1
  6
CONTINUOUS
 62
     5
  5
177
 10
111.1625
 20
259.869167
 30
0.0
 11
118.158083
 21
259.899583
 31
0.0
  0
LINE
  8
1
  6
CONTINUOUS
 62
     5
  5
178
 10
111.1625
 20
259.883417
 30
0.0
 11
118.158083
 21
259.913833
 31
0.0
  0
LINE
  8
1
  6
CONTINUOUS
 62
     5
  5
179
 10
111.162333
 20
259.911833
 30
0.0
 11
118.158
 21
259.942167
 31
0.0
  0
LINE
  8
1
  6
CONTINUOUS
 62
     5
  5
17A
 10
111.162083
 20
259.954583
 30
0.0
 11
118.15775
 21
259.984917
 31
0.0
  0
LINE
  8
1
  6
CONTINUOUS
 62
     5
  5
17B
 10
111.162
 20
259.983083
 30
0.0
 11
118.157583
 21
260.013417
 31
0.0
  0
LINE
  8
1
  6
CONTINUOUS
 62
     5
  5
17C
 10
111.162
 20
259.997333
 30
0.0
 11
118.157583
 21
260.027667
 31
0.0
  0
LINE
  8
1
  6
CONTINUOUS
 62
     5
  5
17D
 10
111.161333
 20
260.139583
 30
0.0
 11
118.157
 21
260.169917
 31
0.0
  0
LINE
  8
1
  6
CONTINUOUS
 62
     5
  5
17E
 10
111.16125
 20
260.168083
 30
0.0
 11
118.156833
 21
260.198417
 31
0.0
  0
LINE
  8
1
  6
CONTINUOUS
 62
     5
  5
17F
 10
111.160833
 20
260.239167
 30
0.0
 11
118.1565
 21
260.269583
 31
0.0
  0
LINE
  8
1
  6
CONTINUOUS
 62
     5
  5
180
 10
111.1605
 20
260.324583
 30
0.0
 11
118.156083
 21
260.354917
 31
0.0
  0
LINE
  8
1
  6
CONTINUOUS
 62
     5
  5
181
 10
111.16025
 20
260.381417
 30
0.0
 11
118.155833
 21
260.411833
 31
0.0
  0
LINE
  8
1
  6
CONTINUOUS
 62
     5
  5
182
 10
111.159833
 20
260.481083
 30
0.0
 11
118.1555
 21
260.511417
 31
0.0
  0
LINE
  8
1
  6
CONTINUOUS
 62
     5
  5
183
 10
111.159583
 20
260.523667
 30
0.0
 11
118.15525
 21
260.554083
 31
0.0
  0
LINE
  8
1
  6
CONTINUOUS
 62
     5
  5
184
 10
111.15925
 20
260.623333
 30
0.0
 11
118.154833
 21
260.653667
 31
0.0
  0
LINE
  8
1
  6
CONTINUOUS
 62
     5
  5
185
 10
111.158833
 20
260.708667
 30
0.0
 11
118.1545
 21
260.739083
 31
0.0
  0
LINE
  8
1
  6
CONTINUOUS
 62
     5
  5
186
 10
111.158583
 20
260.765583
 30
0.0
 11
118.15425
 21
260.795917
 31
0.0
  0
LINE
  8
1
  6
CONTINUOUS
 62
     5
  5
187
 10
111.157833
 20
260.950667
 30
0.0
 11
118.1535
 21
260.981083
 31
0.0
  0
LINE
  8
1
  6
CONTINUOUS
 62
     5
  5
188
 10
111.15725
 20
261.078833
 30
0.0
 11
118.152833
 21
261.109167
 31
0.0
  0
LINE
  8
1
  6
CONTINUOUS
 62
     5
  5
189
 10
111.156833
 20
261.178417
 30
0.0
 11
118.1525
 21
261.208833
 31
0.0
  0
LINE
  8
1
  6
CONTINUOUS
 62
     5
  5
18A
 10
111.156583
 20
261.235417
 30
0.0
 11
118.15225
 21
261.265833
 31
0.0
  0
LINE
  8
1
  6
CONTINUOUS
 62
     5
  5
18B
 10
111.156583
 20
261.235417
 30
0.0
 11
118.15225
 21
261.265833
 31
0.0
  0
LINE
  8
1
  6
CONTINUOUS
 62
     5
  5
18C
 10
111.157083
 20
261.107333
 30
0.0
 11
118.15275
 21
261.137667
 31
0.0
  0
LINE
  8
1
  6
CONTINUOUS
 62
     5
  5
18D
 10
111.158083
 20
260.879667
 30
0.0
 11
118.15375
 21
260.910083
 31
0.0
  0
LINE
  8
1
  6
CONTINUOUS
 62
     5
  5
18E
 10
111.158583
 20
260.751583
 30
0.0
 11
118.15425
 21
260.781917
 31
0.0
  0
LINE
  8
1
  6
CONTINUOUS
 62
     5
  5
18F
 10
111.15925
 20
260.623333
 30
0.0
 11
118.154833
 21
260.653667
 31
0.0
  0
LINE
  8
1
  6
CONTINUOUS
 62
     5
  5
190
 10
111.159833
 20
260.481083
 30
0.0
 11
118.1555
 21
260.511417
 31
0.0
  0
LINE
  8
1
  6
CONTINUOUS
 62
     5
  5
191
 10
111.16025
 20
260.395667
 30
0.0
 11
118.155833
 21
260.426083
 31
0.0
  0
LINE
  8
1
  6
CONTINUOUS
 62
     5
  5
192
 10
111.16075
 20
260.267417
 30
0.0
 11
118.156333
 21
260.297833
 31
0.0
  0
LINE
  8
1
  6
CONTINUOUS
 62
     5
  5
193
 10
111.16125
 20
260.167667
 30
0.0
 11
118.156833
 21
260.198083
 31
0.0
  0
LINE
  8
1
  6
CONTINUOUS
 62
     5
  5
194
 10
111.1615
 20
260.110667
 30
0.0
 11
118.157083
 21
260.141083
 31
0.0
  0
LINE
  8
1
  6
CONTINUOUS
 62
     5
  5
195
 10
111.161833
 20
260.011083
 30
0.0
 11
118.1575
 21
260.041417
 31
0.0
  0
LINE
  8
1
  6
CONTINUOUS
 62
     5
  5
196
 10
111.162083
 20
259.968167
 30
0.0
 11
118.15775
 21
259.998583
 31
0.0
  0
LINE
  8
1
  6
CONTINUOUS
 62
     5
  5
197
 10
111.161833
 20
260.025083
 30
0.0
 11
118.1575
 21
260.055417
 31
0.0
  0
LINE
  8
1
  6
CONTINUOUS
 62
     5
  5
198
 10
111.161583
 20
260.067667
 30
0.0
 11
118.15725
 21
260.098083
 31
0.0
  0
LINE
  8
1
  6
CONTINUOUS
 62
     5
  5
199
 10
111.161333
 20
260.139083
 30
0.0
 11
118.157
 21
260.169417
 31
0.0
  0
LINE
  8
1
  6
CONTINUOUS
 62
     5
  5
19A
 10
111.16075
 20
260.281417
 30
0.0
 11
118.156333
 21
260.311833
 31
0.0
  0
LINE
  8
1
  6
CONTINUOUS
 62
     5
  5
19B
 10
111.16025
 20
260.395417
 30
0.0
 11
118.155833
 21
260.425833
 31
0.0
  0
LINE
  8
1
  6
CONTINUOUS
 62
     5
  5
19C
 10
111.16
 20
260.452167
 30
0.0
 11
118.155583
 21
260.482583
 31
0.0
  0
LINE
  8
1
  6
CONTINUOUS
 62
     5
  5
19D
 10
111.159583
 20
260.537583
 30
0.0
 11
118.15525
 21
260.567917
 31
0.0
  0
LINE
  8
1
  6
CONTINUOUS
 62
     5
  5
19E
 10
111.159333
 20
260.580333
 30
0.0
 11
118.155
 21
260.610667
 31
0.0
  0
LINE
  8
1
  6
CONTINUOUS
 62
     5
  5
19F
 10
111.159083
 20
260.637167
 30
0.0
 11
118.15475
 21
260.667583
 31
0.0
  0
LINE
  8
1
  6
CONTINUOUS
 62
     5
  5
1A0
 10
111.158583
 20
260.779583
 30
0.0
 11
118.15425
 21
260.809917
 31
0.0
  0
LINE
  8
1
  6
CONTINUOUS
 62
     5
  5
1A1
 10
111.157833
 20
260.950583
 30
0.0
 11
118.1535
 21
260.980917
 31
0.0
  0
LINE
  8
1
  6
CONTINUOUS
 62
     5
  5
1A2
 10
111.15775
 20
260.979083
 30
0.0
 11
118.153333
 21
261.009417
 31
0.0
  0
LINE
  8
1
  6
CONTINUOUS
 62
     5
  5
1A3
 10
111.1575
 20
261.036083
 30
0.0
 11
118.153083
 21
261.066417
 31
0.0
  0
LINE
  8
1
  6
CONTINUOUS
 62
     5
  5
1A4
 10
111.157083
 20
261.107333
 30
0.0
 11
118.15275
 21
261.137667
 31
0.0
  0
LINE
  8
1
  6
CONTINUOUS
 62
     5
  5
1A5
 10
111.157083
 20
261.121583
 30
0.0
 11
118.15275
 21
261.151917
 31
0.0
  0
LINE
  8
1
  6
CONTINUOUS
 62
     5
  5
1A6
 10
111.159083
 20
260.651667
 30
0.0
 11
118.15475
 21
260.682083
 31
0.0
  0
LINE
  8
1
  6
CONTINUOUS
 62
     5
  5
1A7
 10
111.15925
 20
260.623167
 30
0.0
 11
118.154833
 21
260.653583
 31
0.0
  0
LINE
  8
1
  6
CONTINUOUS
 62
     5
  5
1A8
 10
111.158583
 20
260.779833
 30
0.0
 11
118.15425
 21
260.810167
 31
0.0
  0
LINE
  8
1
  6
CONTINUOUS
 62
     5
  5
1A9
 10
111.158333
 20
260.822583
 30
0.0
 11
118.154
 21
260.852917
 31
0.0
  0
LINE
  8
1
  6
CONTINUOUS
 62
     5
  5
1AA
 10
111.157333
 20
261.064917
 30
0.0
 11
118.153
 21
261.095333
 31
0.0
  0
LINE
  8
1
  6
CONTINUOUS
 62
     5
  5
1AB
 10
111.157083
 20
261.122083
 30
0.0
 11
118.15275
 21
261.152417
 31
0.0
  0
LINE
  8
1
  6
CONTINUOUS
 62
     5
  5
1AC
 10
81.152583
 20
251.281917
 30
0.0
 11
98.94175
 21
262.084083
 31
0.0
  0
LINE
  8
1
  6
CONTINUOUS
 62
     5
  5
1AD
 10
80.947833
 20
251.619083
 30
0.0
 11
98.737
 21
262.421167
 31
0.0
  0
LINE
  8
1
  6
CONTINUOUS
 62
     5
  5
1AE
 10
80.871
 20
251.745583
 30
0.0
 11
98.660083
 21
262.547667
 31
0.0
  0
LINE
  8
1
  6
CONTINUOUS
 62
     5
  5
1AF
 10
80.91125
 20
251.679333
 30
0.0
 11
98.700333
 21
262.481417
 31
0.0
  0
ARC
  8
1
  6
CONTINUOUS
 62
     5
  5
1B0
 10
102.19622
 20
244.463985
 30
0.0
 40
17.092546
 50
99.409697
 51
120.649944
210
0.0
220
0.0
230
1.0
  0
LINE
  8
1
  6
CONTINUOUS
 62
     5
  5
1B1
 10
81.612583
 20
250.524417
 30
0.0
 11
93.660833
 21
258.780667
 31
0.0
  0
LINE
  8
1
  6
CONTINUOUS
 62
     5
  5
1B2
 10
82.753583
 20
250.109583
 30
0.0
 11
94.751583
 21
259.399583
 31
0.0
  0
LINE
  8
1
  6
CONTINUOUS
 62
     5
  5
1B3
 10
82.654
 20
250.238083
 30
0.0
 11
94.652
 21
259.528083
 31
0.0
  0
LINE
  8
1
  6
CONTINUOUS
 62
     5
  5
1B4
 10
82.471083
 20
250.474333
 30
0.0
 11
94.469083
 21
259.764333
 31
0.0
  0
LINE
  8
1
  6
CONTINUOUS
 62
     5
  5
1B5
 10
82.471083
 20
250.474333
 30
0.0
 11
94.469083
 21
259.764333
 31
0.0
  0
LINE
  8
1
  6
CONTINUOUS
 62
     5
  5
1B6
 10
82.41525
 20
250.546417
 30
0.0
 11
94.41325
 21
259.836417
 31
0.0
  0
LINE
  8
1
  6
CONTINUOUS
 62
     5
  5
1B7
 10
82.387333
 20
250.582417
 30
0.0
 11
94.385333
 21
259.872417
 31
0.0
  0
LINE
  8
1
  6
CONTINUOUS
 62
     5
  5
1B8
 10
82.226083
 20
250.790667
 30
0.0
 11
94.224083
 21
260.080667
 31
0.0
  0
LINE
  8
1
  6
CONTINUOUS
 62
     5
  5
1B9
 10
82.127
 20
250.918667
 30
0.0
 11
94.125
 21
260.208667
 31
0.0
  0
LINE
  8
1
  6
CONTINUOUS
 62
     5
  5
1BA
 10
82.669333
 20
250.218167
 30
0.0
 11
94.667333
 21
259.508167
 31
0.0
  0
LINE
  8
1
  6
CONTINUOUS
 62
     5
  5
1BB
 10
82.635083
 20
250.262417
 30
0.0
 11
94.633083
 21
259.552417
 31
0.0
  0
LINE
  8
1
  6
CONTINUOUS
 62
     5
  5
1BC
 10
82.57925
 20
250.334583
 30
0.0
 11
94.57725
 21
259.624583
 31
0.0
  0
LINE
  8
1
  6
CONTINUOUS
 62
     5
  5
1BD
 10
82.551333
 20
250.370667
 30
0.0
 11
94.549333
 21
259.660667
 31
0.0
  0
LINE
  8
1
  6
CONTINUOUS
 62
     5
  5
1BE
 10
82.396333
 20
250.570833
 30
0.0
 11
94.394333
 21
259.860833
 31
0.0
  0
LINE
  8
1
  6
CONTINUOUS
 62
     5
  5
1BF
 10
82.269333
 20
250.734833
 30
0.0
 11
94.267333
 21
260.024833
 31
0.0
  0
LINE
  8
1
  6
CONTINUOUS
 62
     5
  5
1C0
 10
82.269333
 20
250.734833
 30
0.0
 11
94.267333
 21
260.024833
 31
0.0
  0
LINE
  8
1
  6
CONTINUOUS
 62
     5
  5
1C1
 10
82.0585
 20
251.007167
 30
0.0
 11
94.0565
 21
260.297167
 31
0.0
  0
LINE
  8
1
  6
CONTINUOUS
 62
     5
  5
1C2
 10
82.260333
 20
250.746583
 30
0.0
 11
94.258333
 21
260.036583
 31
0.0
  0
LINE
  8
1
  6
CONTINUOUS
 62
     5
  5
1C3
 10
83.408
 20
257.331583
 30
0.0
 11
88.062333
 21
258.124167
 31
0.0
  0
LINE
  8
1
  6
CONTINUOUS
 62
     5
  5
1C4
 10
86.210333
 20
260.851917
 30
0.0
 11
90.86475
 21
261.644417
 31
0.0
  0
LINE
  8
1
  6
CONTINUOUS
 62
     5
  5
1C5
 10
89.012583
 20
264.372333
 30
0.0
 11
93.667
 21
265.164833
 31
0.0
  0
LINE
  8
1
  6
CONTINUOUS
 62
     5
  5
1C6
 10
91.815
 20
267.892667
 30
0.0
 11
96.469333
 21
268.685167
 31
0.0
  0
LINE
  8
1
  6
CONTINUOUS
 62
     5
  5
1C7
 10
97.2575
 20
269.627583
 30
0.0
 11
95.03575
 21
271.595917
 31
0.0
  0
LINE
  8
1
  6
CONTINUOUS
 62
     5
  5
1C8
 10
100.017833
 20
271.189833
 30
0.0
 11
97.559833
 21
273.367583
 31
0.0
  0
LINE
  8
1
  6
CONTINUOUS
 62
     5
  5
1C9
 10
104.122833
 20
271.561083
 30
0.0
 11
101.1565
 21
274.189083
 31
0.0
  0
LINE
  8
1
  6
CONTINUOUS
 62
     5
  5
1CA
 10
108.646833
 20
271.561083
 30
0.0
 11
105.693833
 21
274.177167
 31
0.0
  0
LINE
  8
1
  6
CONTINUOUS
 62
     5
  5
1CB
 10
113.170833
 20
271.561083
 30
0.0
 11
110.217833
 21
274.177167
 31
0.0
  0
LINE
  8
1
  6
CONTINUOUS
 62
     5
  5
1CC
 10
117.694833
 20
271.561083
 30
0.0
 11
114.741833
 21
274.177167
 31
0.0
  0
LINE
  8
1
  6
CONTINUOUS
 62
     5
  5
1CD
 10
112.080333
 20
280.543083
 30
0.0
 11
109.114
 21
283.171083
 31
0.0
  0
LINE
  8
1
  6
CONTINUOUS
 62
     5
  5
1CE
 10
124.7785
 20
271.561083
 30
0.0
 11
127.7315
 21
274.177167
 31
0.0
  0
LINE
  8
1
  6
CONTINUOUS
 62
     5
  5
1CF
 10
129.042583
 20
271.330833
 30
0.0
 11
131.548583
 21
273.550917
 31
0.0
  0
LINE
  8
1
  6
CONTINUOUS
 62
     5
  5
1D0
 10
131.951083
 20
269.899583
 30
0.0
 11
134.273833
 21
271.957333
 31
0.0
  0
LINE
  8
1
  6
CONTINUOUS
 62
     5
  5
1D1
 10
143.2765
 20
257.971417
 30
0.0
 11
140.2175
 21
258.492417
 31
0.0
  0
LINE
  8
1
  6
CONTINUOUS
 62
     5
  5
1D2
 10
141.24025
 20
261.361417
 30
0.0
 11
137.836083
 21
261.941167
 31
0.0
  0
LINE
  8
1
  6
CONTINUOUS
 62
     5
  5
1D3
 10
139.204
 20
264.751417
 30
0.0
 11
135.45475
 21
265.389917
 31
0.0
  0
LINE
  8
1
  6
CONTINUOUS
 62
     5
  5
1D4
 10
137.16775
 20
268.141333
 30
0.0
 11
133.073333
 21
268.838667
 31
0.0
  0
LINE
  8
1
  6
CONTINUOUS
 62
     5
  5
1D5
 10
118.166833
 20
271.561083
 30
0.0
 11
116.2195
 21
269.835833
 31
0.0
  0
LINE
  8
1
  6
CONTINUOUS
 62
     5
  5
1D6
 10
114.4485
 20
271.561083
 30
0.0
 11
112.501083
 21
269.835833
 31
0.0
  0
LINE
  8
1
  6
CONTINUOUS
 62
     5
  5
1D7
 10
111.842583
 20
269.705333
 30
0.0
 11
110.483333
 21
270.909583
 31
0.0
  0
LINE
  8
1
  6
CONTINUOUS
 62
     5
  5
1D8
 10
110.0165
 20
267.315083
 30
0.0
 11
108.55275
 21
268.611917
 31
0.0
  0
LINE
  8
1
  6
CONTINUOUS
 62
     5
  5
1D9
 10
109.257583
 20
263.979417
 30
0.0
 11
107.849083
 21
265.227333
 31
0.0
  0
LINE
  8
1
  6
CONTINUOUS
 62
     5
  5
1DA
 10
107.680083
 20
259.805667
 30
0.0
 11
106.960583
 21
260.443083
 31
0.0
  0
LINE
  8
1
  6
CONTINUOUS
 62
     5
  5
1DB
 10
214.263333
 20
292.566583
 30
0.0
 11
214.263333
 21
225.260333
 31
0.0
  0
LINE
  8
1
  6
CONTINUOUS
 62
     5
  5
1DC
 10
279.300833
 20
292.566583
 30
0.0
 11
279.300833
 21
225.260333
 31
0.0
  0
LINE
  8
1
  6
CONTINUOUS
 62
     5
  5
1DD
 10
214.263333
 20
292.566583
 30
0.0
 11
279.300833
 21
292.566583
 31
0.0
  0
LINE
  8
1
  6
CONTINUOUS
 62
     5
  5
1DE
 10
214.263333
 20
225.260333
 30
0.0
 11
279.300833
 21
225.260333
 31
0.0
  0
LINE
  8
1
  6
CONTINUOUS
 62
     5
  5
1DF
 10
230.144583
 20
279.710333
 30
0.0
 11
230.144583
 21
238.116583
 31
0.0
  0
LINE
  8
1
  6
CONTINUOUS
 62
     5
  5
1E0
 10
263.419583
 20
279.710333
 30
0.0
 11
263.419583
 21
238.116583
 31
0.0
  0
LINE
  8
1
  6
CONTINUOUS
 62
     5
  5
1E1
 10
230.144583
 20
279.710333
 30
0.0
 11
263.419583
 21
279.710333
 31
0.0
  0
LINE
  8
1
  6
CONTINUOUS
 62
     5
  5
1E2
 10
230.144583
 20
238.116583
 30
0.0
 11
263.419583
 21
238.116583
 31
0.0
  0
LINE
  8
1
  6
CONTINUOUS
 62
     5
  5
1E3
 10
236.194583
 20
274.416583
 30
0.0
 11
236.194583
 21
243.410333
 31
0.0
  0
LINE
  8
1
  6
CONTINUOUS
 62
     5
  5
1E4
 10
257.369583
 20
274.416583
 30
0.0
 11
257.369583
 21
243.410333
 31
0.0
  0
LINE
  8
1
  6
CONTINUOUS
 62
     5
  5
1E5
 10
236.194583
 20
274.416583
 30
0.0
 11
257.369583
 21
274.416583
 31
0.0
  0
LINE
  8
1
  6
CONTINUOUS
 62
     5
  5
1E6
 10
236.194583
 20
243.410333
 30
0.0
 11
257.369583
 21
243.410333
 31
0.0
  0
LINE
  8
1
  6
CONTINUOUS
 62
     5
  5
1E7
 10
274.763333
 20
239.629083
 30
0.0
 11
274.763333
 21
228.285333
 31
0.0
  0
LINE
  8
1
  6
CONTINUOUS
 62
     5
  5
1E8
 10
272.494583
 20
239.629083
 30
0.0
 11
272.494583
 21
228.285333
 31
0.0
  0
LINE
  8
1
  6
CONTINUOUS
 62
     5
  5
1E9
 10
272.494583
 20
239.629083
 30
0.0
 11
274.763333
 21
239.629083
 31
0.0
  0
LINE
  8
1
  6
CONTINUOUS
 62
     5
  5
1EA
 10
272.494583
 20
228.285333
 30
0.0
 11
274.763333
 21
228.285333
 31
0.0
  0
LINE
  8
1
  6
CONTINUOUS
 62
     5
  5
1EB
 10
72.40175
 20
234.992167
 30
0.0
 11
154.15175
 21
234.992167
 31
0.0
  0
POLYLINE
  8
1
  6
CONTINUOUS
 62
     5
  5
1EC
 66
     1
 10
0.0
 20
0.0
 30
0.0
  0
VERTEX
  8
1
  6
CONTINUOUS
 62
     5
  5
1ED
 10
72.674
 20
251.312167
 30
0.0
  0
VERTEX
  8
1
  6
CONTINUOUS
 62
     5
  5
1EE
 10
75.889
 20
251.495917
 30
0.0
  0
VERTEX
  8
1
  6
CONTINUOUS
 62
     5
  5
1EF
 10
77.155225
 20
252.603851
 30
0.0
  0
VERTEX
  8
1
  6
CONTINUOUS
 62
     5
  5
1F0
 10
77.4505
 20
257.284833
 30
0.0
  0
VERTEX
  8
1
  6
CONTINUOUS
 62
     5
  5
1F1
 10
77.726083
 20
262.981667
 30
0.0
  0
VERTEX
  8
1
  6
CONTINUOUS
 62
     5
  5
1F2
 10
78.27725
 20
269.781333
 30
0.0
  0
VERTEX
  8
1
  6
CONTINUOUS
 62
     5
  5
1F3
 10
79.012083
 20
274.375667
 30
0.0
  0
VERTEX
  8
1
  6
CONTINUOUS
 62
     5
  5
1F4
 10
80.20625
 20
277.407917
 30
0.0
  0
VERTEX
  8
1
  6
CONTINUOUS
 62
     5
  5
1F5
 10
81.3085
 20
281.818583
 30
0.0
  0
VERTEX
  8
1
  6
CONTINUOUS
 62
     5
  5
1F6
 10
82.77825
 20
283.748167
 30
0.0
  0
VERTEX
  8
1
  6
CONTINUOUS
 62
     5
  5
1F7
 10
86.26875
 20
285.402083
 30
0.0
  0
VERTEX
  8
1
  6
CONTINUOUS
 62
     5
  5
1F8
 10
90.3105
 20
286.412833
 30
0.0
  0
VERTEX
  8
1
  6
CONTINUOUS
 62
     5
  5
1F9
 10
95.27075
 20
288.250583
 30
0.0
  0
VERTEX
  8
1
  6
CONTINUOUS
 62
     5
  5
1FA
 10
97.934583
 20
289.077583
 30
0.0
  0
VERTEX
  8
1
  6
CONTINUOUS
 62
     5
  5
1FB
 10
100.874083
 20
289.536917
 30
0.0
  0
VERTEX
  8
1
  6
CONTINUOUS
 62
     5
  5
1FC
 10
104.64025
 20
289.445083
 30
0.0
  0
VERTEX
  8
1
  6
CONTINUOUS
 62
     5
  5
1FD
 10
112.448
 20
288.985667
 30
0.0
  0
VERTEX
  8
1
  6
CONTINUOUS
 62
     5
  5
1FE
 10
115.295583
 20
289.261333
 30
0.0
  0
VERTEX
  8
1
  6
CONTINUOUS
 62
     5
  5
1FF
 10
120.5315
 20
289.536917
 30
0.0
  0
VERTEX
  8
1
  6
CONTINUOUS
 62
     5
  5
200
 10
125.0325
 20
289.904583
 30
0.0
  0
VERTEX
  8
1
  6
CONTINUOUS
 62
     5
  5
201
 10
127.88
 20
289.996417
 30
0.0
  0
VERTEX
  8
1
  6
CONTINUOUS
 62
     5
  5
202
 10
132.19725
 20
288.985667
 30
0.0
  0
VERTEX
  8
1
  6
CONTINUOUS
 62
     5
  5
203
 10
135.871583
 20
288.158667
 30
0.0
  0
VERTEX
  8
1
  6
CONTINUOUS
 62
     5
  5
204
 10
140.372583
 20
287.331667
 30
0.0
  0
VERTEX
  8
1
  6
CONTINUOUS
 62
     5
  5
205
 10
143.679333
 20
285.953417
 30
0.0
  0
VERTEX
  8
1
  6
CONTINUOUS
 62
     5
  5
206
 10
147.078083
 20
282.737417
 30
0.0
  0
VERTEX
  8
1
  6
CONTINUOUS
 62
     5
  5
207
 10
149.466333
 20
279.888917
 30
0.0
  0
VERTEX
  8
1
  6
CONTINUOUS
 62
     5
  5
208
 10
151.119833
 20
274.559417
 30
0.0
  0
VERTEX
  8
1
  6
CONTINUOUS
 62
     5
  5
209
 10
150.0175
 20
270.792083
 30
0.0
  0
VERTEX
  8
1
  6
CONTINUOUS
 62
     5
  5
20A
 10
149.466333
 20
264.268167
 30
0.0
  0
VERTEX
  8
1
  6
CONTINUOUS
 62
     5
  5
20B
 10
149.55825
 20
261.879083
 30
0.0
  0
VERTEX
  8
1
  6
CONTINUOUS
 62
     5
  5
20C
 10
149.55825
 20
258.571167
 30
0.0
  0
VERTEX
  8
1
  6
CONTINUOUS
 62
     5
  5
20D
 10
149.3745
 20
254.987583
 30
0.0
  0
VERTEX
  8
1
  6
CONTINUOUS
 62
     5
  5
20E
 10
150.293083
 20
252.322917
 30
0.0
  0
VERTEX
  8
1
  6
CONTINUOUS
 62
     5
  5
20F
 10
152.222083
 20
250.760833
 30
0.0
  0
VERTEX
  8
1
  6
CONTINUOUS
 62
     5
  5
210
 10
154.334833
 20
249.841917
 30
0.0
  0
SEQEND
  8
1
  6
CONTINUOUS
 62
     5
  5
211
  0
POLYLINE
  8
1
  6
CONTINUOUS
 62
     5
  5
212
 66
     1
 10
0.0
 20
0.0
 30
0.0
  0
VERTEX
  8
1
  6
CONTINUOUS
 62
     5
  5
213
 10
72.582083
 20
242.123417
 30
0.0
  0
VERTEX
  8
1
  6
CONTINUOUS
 62
     5
  5
214
 10
77.358583
 20
241.755917
 30
0.0
  0
VERTEX
  8
1
  6
CONTINUOUS
 62
     5
  5
215
 10
81.216583
 20
241.296417
 30
0.0
  0
VERTEX
  8
1
  6
CONTINUOUS
 62
     5
  5
216
 10
85.901333
 20
240.469417
 30
0.0
  0
VERTEX
  8
1
  6
CONTINUOUS
 62
     5
  5
217
 10
90.678
 20
239.826333
 30
0.0
  0
VERTEX
  8
1
  6
CONTINUOUS
 62
     5
  5
218
 10
96.55675
 20
239.183083
 30
0.0
  0
VERTEX
  8
1
  6
CONTINUOUS
 62
     5
  5
219
 10
100.965833
 20
238.264167
 30
0.0
  0
VERTEX
  8
1
  6
CONTINUOUS
 62
     5
  5
21A
 10
107.21225
 20
237.529167
 30
0.0
  0
VERTEX
  8
1
  6
CONTINUOUS
 62
     5
  5
21B
 10
111.98875
 20
237.621083
 30
0.0
  0
VERTEX
  8
1
  6
CONTINUOUS
 62
     5
  5
21C
 10
117.3165
 20
238.080417
 30
0.0
  0
VERTEX
  8
1
  6
CONTINUOUS
 62
     5
  5
21D
 10
125.0325
 20
237.804833
 30
0.0
  0
VERTEX
  8
1
  6
CONTINUOUS
 62
     5
  5
21E
 10
131.186833
 20
237.069667
 30
0.0
  0
VERTEX
  8
1
  6
CONTINUOUS
 62
     5
  5
21F
 10
134.953
 20
236.794083
 30
0.0
  0
VERTEX
  8
1
  6
CONTINUOUS
 62
     5
  5
220
 10
137.98425
 20
236.885917
 30
0.0
  0
VERTEX
  8
1
  6
CONTINUOUS
 62
     5
  5
221
 10
142.577083
 20
237.069667
 30
0.0
  0
VERTEX
  8
1
  6
CONTINUOUS
 62
     5
  5
222
 10
145.975833
 20
237.804833
 30
0.0
  0
VERTEX
  8
1
  6
CONTINUOUS
 62
     5
  5
223
 10
147.537333
 20
239.274917
 30
0.0
  0
VERTEX
  8
1
  6
CONTINUOUS
 62
     5
  5
224
 10
148.27225
 20
240.469417
 30
0.0
  0
VERTEX
  8
1
  6
CONTINUOUS
 62
     5
  5
225
 10
150.0175
 20
241.572167
 30
0.0
  0
VERTEX
  8
1
  6
CONTINUOUS
 62
     5
  5
226
 10
151.671
 20
241.296417
 30
0.0
  0
VERTEX
  8
1
  6
CONTINUOUS
 62
     5
  5
227
 10
153.967333
 20
241.204583
 30
0.0
  0
VERTEX
  8
1
  6
CONTINUOUS
 62
     5
  5
228
 10
154.203
 20
241.094583
 30
0.0
  0
SEQEND
  8
1
  6
CONTINUOUS
 62
     5
  5
229
  0
LINE
  8
1
  6
CONTINUOUS
 62
     7
  5
22A
 10
157.197
 20
247.32925
 30
0.0
 11
161.745333
 21
257.54475
 31
0.0
  0
LINE
  8
1
  6
CONTINUOUS
 62
     7
  5
22B
 10
161.745333
 20
257.54475
 30
0.0
 11
166.8085
 21
257.54475
 31
0.0
  0
LINE
  8
1
  6
CONTINUOUS
 62
     7
  5
22C
 10
67.947917
 20
247.858
 30
0.0
 11
69.554167
 21
270.675333
 31
0.0
  0
LINE
  8
1
  6
CONTINUOUS
 62
     7
  5
22D
 10
107.832417
 20
245.4585
 30
0.0
 11
116.838583
 21
230.855
 31
0.0
  0
LINE
  8
1
  6
CONTINUOUS
 62
     7
  5
22E
 10
116.838583
 20
230.855
 30
0.0
 11
122.285917
 21
230.855
 31
0.0
  0
TEXT
  8
1
  6
CONTINUOUS
 62
     7
  5
22F
 10
114.315083
 20
284.195667
 30
0.0
 40
3.75
  1
0
  7
MONOTXT
210
0.0
220
0.0
230
1.0
  0
TEXT
  8
1
  6
CONTINUOUS
 62
     7
  5
230
 10
113.334583
 20
264.797083
 30
0.0
 40
3.75
  1
0
  7
MONOTXT
210
0.0
220
0.0
230
1.0
  0
TEXT
  8
1
  6
CONTINUOUS
 62
     7
  5
231
 10
113.4435
 20
274.823333
 30
0.0
 40
3.75
  1
N
  7
MONOTXT
210
0.0
220
0.0
230
1.0
  0
TEXT
  8
1
  6
CONTINUOUS
 62
     7
  5
232
 10
114.533083
 20
284.305083
 30
0.0
 40
3.75
  1
/
  7
MONOTXT
210
0.0
220
0.0
230
1.0
  0
TEXT
  8
1
  6
CONTINUOUS
 62
     7
  5
233
 10
113.552583
 20
264.797083
 30
0.0
 40
3.75
  1
/
  7
MONOTXT
210
0.0
220
0.0
230
1.0
  0
TEXT
  8
1
  6
CONTINUOUS
 62
     7
  5
234
 10
122.285917
 20
229.765167
 30
0.0
 40
2.5
  1
TO CONTROL CABINET
  7
MONOTXT
210
0.0
220
0.0
230
1.0
  0
INSERT
  8
1
  6
CONTINUOUS
 62
     1
  5
255
  2
LDR
 10
107.832417
 20
245.4585
 30
0.0
 41
240.0
 42
240.0
 50
121.66267
210
0.0
220
0.0
230
1.0
  0
INSERT
  8
1
  6
CONTINUOUS
 62
     1
  5
256
  2
LDR
 10
107.832417
 20
245.4585
 30
0.0
 41
240.0
 42
240.0
 50
121.66267
210
0.0
220
0.0
230
1.0
  0
INSERT
  8
1
  6
CONTINUOUS
 62
     1
  5
257
  2
LDR
 10
67.947917
 20
247.858
 30
0.0
 41
240.000001
 42
240.000001
 50
265.972879
210
0.0
220
0.0
230
1.0
  0
INSERT
  8
1
  6
CONTINUOUS
 62
     1
  5
258
  2
LDR
 10
157.197
 20
247.32925
 30
0.0
 41
240.000002
 42
240.000002
 50
245.999533
210
0.0
220
0.0
230
1.0
  0
TEXT
  8
1
  6
CONTINUOUS
 62
     7
  5
259
 10
145.657917
 20
304.622417
 30
0.0
 40
2.5
  1
SPLICE KITS
  7
MONOTXT
 11
145.657917
 21
307.122417
 31
0.0
210
0.0
220
0.0
230
1.0
 73
     3
  0
TEXT
  8
1
  6
CONTINUOUS
 62
     7
  5
25A
 10
145.657917
 20
300.122417
 30
0.0
 40
2.5
  1
(NO FUSES)
  7
MONOTXT
 11
145.657917
 21
302.622417
 31
0.0
210
0.0
220
0.0
230
1.0
 73
     3
  0
TEXT
  8
1
  6
CONTINUOUS
 62
     7
  5
25B
 10
167.501083
 20
256.381667
 30
0.0
 40
2.5
  1
TYPICAL ROADWAY
  7
MONOTXT
 11
167.501083
 21
258.881667
 31
0.0
210
0.0
220
0.0
230
1.0
 73
     3
  0
TEXT
  8
1
  6
CONTINUOUS
 62
     7
  5
25C
 10
167.501083
 20
251.881667
 30
0.0
 40
2.5
  1
LIGHTING CIRCUIT
  7
MONOTXT
 11
167.501083
 21
254.381667
 31
0.0
210
0.0
220
0.0
230
1.0
 73
     3
  0
TEXT
  8
1
  6
CONTINUOUS
 62
     7
  5
25D
 10
31.703167
 20
274.238
 30
0.0
 40
2.5
  1
TYPICAL ROADWAY
  7
MONOTXT
 11
31.703167
 21
276.738
 31
0.0
210
0.0
220
0.0
230
1.0
 73
     3
  0
TEXT
  8
1
  6
CONTINUOUS
 62
     7
  5
25E
 10
31.703167
 20
269.738
 30
0.0
 40
2.5
  1
LIGHTING CIRCUIT
  7
MONOTXT
 11
31.703167
 21
272.238
 31
0.0
210
0.0
220
0.0
230
1.0
 73
     3
  0
TEXT
  8
1
  6
CONTINUOUS
 62
     7
  5
25F
 10
65.078417
 20
208.855583
 30
0.0
 40
3.5
  1
120/240 VOLT JUNCTION BOX DETAIL
  7
MONOTXT
210
0.0
220
0.0
230
1.0
  0
LINE
  8
1
  6
CONTINUOUS
 62
     7
  5
260
 10
63.625833
 20
206.966583
 30
0.0
 11
170.602167
 21
206.966583
 31
0.0
  0
LINE
  8
1
  6
CONTINUOUS
 62
     5
  5
261
 10
313.351667
 20
293.353833
 30
0.0
 11
313.351667
 21
226.047583
 31
0.0
  0
LINE
  8
1
  6
CONTINUOUS
 62
     5
  5
262
 10
381.414167
 20
293.353833
 30
0.0
 11
381.414167
 21
226.047583
 31
0.0
  0
LINE
  8
1
  6
CONTINUOUS
 62
     5
  5
263
 10
313.351667
 20
293.353833
 30
0.0
 11
381.414167
 21
293.353833
 31
0.0
  0
LINE
  8
1
  6
CONTINUOUS
 62
     5
  5
264
 10
313.351667
 20
226.047583
 30
0.0
 11
381.414167
 21
226.047583
 31
0.0
  0
LINE
  8
1
  6
CONTINUOUS
 62
     5
  5
265
 10
318.645417
 20
288.060083
 30
0.0
 11
318.645417
 21
236.635083
 31
0.0
  0
LINE
  8
1
  6
CONTINUOUS
 62
     5
  5
266
 10
318.645417
 20
288.060083
 30
0.0
 11
368.591167
 21
288.060083
 31
0.0
  0
LINE
  8
1
  6
CONTINUOUS
 62
     5
  5
267
 10
320.914167
 20
285.791333
 30
0.0
 11
320.914167
 21
239.294583
 31
0.0
  0
LINE
  8
1
  6
CONTINUOUS
 62
     5
  5
268
 10
323.939167
 20
283.522583
 30
0.0
 11
323.939167
 21
241.928833
 31
0.0
  0
LINE
  8
1
  6
CONTINUOUS
 62
     5
  5
269
 10
320.914167
 20
285.791333
 30
0.0
 11
342.965833
 21
285.791333
 31
0.0
  0
LINE
  8
1
  6
CONTINUOUS
 62
     5
  5
26A
 10
318.645417
 20
236.635083
 30
0.0
 11
334.245917
 21
236.635083
 31
0.0
  0
LINE
  8
1
  6
CONTINUOUS
 62
     5
  5
26B
 10
320.914167
 20
239.294583
 30
0.0
 11
334.245917
 21
239.294583
 31
0.0
  0
LINE
  8
1
  6
CONTINUOUS
 62
     5
  5
26C
 10
323.939167
 20
241.928833
 30
0.0
 11
334.245917
 21
241.928833
 31
0.0
  0
LINE
  8
1
  6
CONTINUOUS
 62
     5
  5
26D
 10
323.939167
 20
283.522583
 30
0.0
 11
335.550083
 21
283.522583
 31
0.0
  0
LINE
  8
1
  6
CONTINUOUS
 62
     5
  5
26E
 10
341.332917
 20
239.660083
 30
0.0
 11
360.239167
 21
239.660083
 31
0.0
  0
LINE
  8
1
  6
CONTINUOUS
 62
     5
  5
26F
 10
360.239167
 20
239.660083
 30
0.0
 11
360.239167
 21
245.710083
 31
0.0
  0
LINE
  8
1
  6
CONTINUOUS
 62
     5
  5
270
 10
360.239167
 20
249.491333
 30
0.0
 11
360.239167
 21
261.591333
 31
0.0
  0
ARC
  8
1
  6
CONTINUOUS
 62
     5
  5
271
 10
360.707634
 20
247.60065
 30
0.0
 40
1.947789
 50
103.915428
 51
256.084572
210
0.0
220
0.0
230
1.0
  0
LINE
  8
1
  6
CONTINUOUS
 62
     5
  5
272
 10
360.239167
 20
261.591333
 30
0.0
 11
368.591167
 21
261.591333
 31
0.0
  0
LINE
  8
1
  6
CONTINUOUS
 62
     5
  5
273
 10
340.609917
 20
247.6235
 30
0.0
 11
368.591167
 21
247.6235
 31
0.0
  0
LINE
  8
1
  6
CONTINUOUS
 62
     5
  5
274
 10
340.609917
 20
247.6235
 30
0.0
 11
340.609917
 21
243.086
 31
0.0
  0
LINE
  8
1
  6
CONTINUOUS
 62
     5
  5
275
 10
368.591167
 20
247.6235
 30
0.0
 11
368.591167
 21
256.6985
 31
0.0
  0
LINE
  8
1
  6
CONTINUOUS
 62
     5
  5
276
 10
337.877833
 20
249.89225
 30
0.0
 11
337.877833
 21
243.086
 31
0.0
  0
LINE
  8
1
  6
CONTINUOUS
 62
     5
  5
277
 10
335.278417
 20
256.6985
 30
0.0
 11
335.278417
 21
243.086
 31
0.0
  0
LINE
  8
1
  6
CONTINUOUS
 62
     5
  5
278
 10
337.877833
 20
249.89225
 30
0.0
 11
342.9765
 21
249.89225
 31
0.0
  0
LINE
  8
1
  6
CONTINUOUS
 62
     5
  5
279
 10
342.9765
 20
249.89225
 30
0.0
 11
342.9765
 21
256.6985
 31
0.0
  0
LINE
  8
1
  6
CONTINUOUS
 62
     5
  5
27A
 10
368.591167
 20
288.060083
 30
0.0
 11
368.591167
 21
274.447583
 31
0.0
  0
LINE
  8
1
  6
CONTINUOUS
 62
     5
  5
27B
 10
342.965833
 20
285.791333
 30
0.0
 11
342.965833
 21
274.447583
 31
0.0
  0
LINE
  8
1
  6
CONTINUOUS
 62
     5
  5
27C
 10
335.550083
 20
283.522583
 30
0.0
 11
335.550083
 21
274.447583
 31
0.0
  0
LINE
  8
1
  6
CONTINUOUS
 62
     5
  5
27D
 10
331.501667
 20
279.741333
 30
0.0
 11
331.501667
 21
252.516333
 31
0.0
  0
LINE
  8
1
  6
CONTINUOUS
 62
     5
  5
27E
 10
339.064167
 20
279.741333
 30
0.0
 11
339.064167
 21
252.516333
 31
0.0
  0
LINE
  8
1
  6
CONTINUOUS
 62
     5
  5
27F
 10
346.626667
 20
279.741333
 30
0.0
 11
346.626667
 21
252.516333
 31
0.0
  0
LINE
  8
1
  6
CONTINUOUS
 62
     5
  5
280
 10
354.189167
 20
279.741333
 30
0.0
 11
354.189167
 21
252.516333
 31
0.0
  0
LINE
  8
1
  6
CONTINUOUS
 62
     5
  5
281
 10
331.501667
 20
279.741333
 30
0.0
 11
354.189167
 21
279.741333
 31
0.0
  0
LINE
  8
1
  6
CONTINUOUS
 62
     5
  5
282
 10
354.189167
 20
252.516333
 30
0.0
 11
331.501667
 21
252.516333
 31
0.0
  0
LINE
  8
1
  6
CONTINUOUS
 62
     5
  5
283
 10
346.626667
 20
265.372583
 30
0.0
 11
331.501667
 21
265.372583
 31
0.0
  0
LINE
  8
1
  6
CONTINUOUS
 62
     5
  5
284
 10
331.501667
 20
266.885083
 30
0.0
 11
346.626667
 21
266.885083
 31
0.0
  0
CIRCLE
  8
1
  6
CONTINUOUS
 62
     5
  5
285
 10
337.877781
 20
239.434284
 30
0.0
 40
6.428125
210
0.0
220
0.0
230
1.0
  0
CIRCLE
  8
1
  6
CONTINUOUS
 62
     5
  5
286
 10
347.375525
 20
232.933685
 30
0.0
 40
2.26875
210
0.0
220
0.0
230
1.0
  0
CIRCLE
  8
1
  6
CONTINUOUS
 62
     5
  5
287
 10
350.474763
 20
266.036386
 30
0.0
 40
2.26875
210
0.0
220
0.0
230
1.0
  0
CIRCLE
  8
1
  6
CONTINUOUS
 62
     5
  5
288
 10
335.478452
 20
261.935999
 30
0.0
 40
2.26875
210
0.0
220
0.0
230
1.0
  0
CIRCLE
  8
1
  6
CONTINUOUS
 62
     5
  5
289
 10
342.976544
 20
261.736097
 30
0.0
 40
2.26875
210
0.0
220
0.0
230
1.0
  0
LINE
  8
1
  6
CONTINUOUS
 62
     5
  5
28A
 10
364.809917
 20
252.91725
 30
0.0
 11
364.809917
 21
280.8985
 31
0.0
  0
LINE
  8
1
  6
CONTINUOUS
 62
     5
  5
28B
 10
372.372417
 20
252.91725
 30
0.0
 11
372.372417
 21
280.8985
 31
0.0
  0
LINE
  8
1
  6
CONTINUOUS
 62
     5
  5
28C
 10
364.809917
 20
252.91725
 30
0.0
 11
372.372417
 21
252.91725
 31
0.0
  0
LINE
  8
1
  6
CONTINUOUS
 62
     5
  5
28D
 10
364.809917
 20
280.8985
 30
0.0
 11
372.372417
 21
280.8985
 31
0.0
  0
CIRCLE
  8
1
  6
CONTINUOUS
 62
     5
  5
28E
 10
376.468336
 20
267.33638
 30
0.0
 40
2.26875
210
0.0
220
0.0
230
1.0
  0
CIRCLE
  8
1
  6
CONTINUOUS
 62
     5
  5
28F
 10
333.521529
 20
239.271564
 30
0.0
 40
0.75625
210
0.0
220
0.0
230
1.0
  0
CIRCLE
  8
1
  6
CONTINUOUS
 62
     5
  5
290
 10
335.581932
 20
275.174155
 30
0.0
 40
0.75625
210
0.0
220
0.0
230
1.0
  0
CIRCLE
  8
1
  6
CONTINUOUS
 62
     5
  5
291
 10
342.980074
 20
275.15903
 30
0.0
 40
0.75625
210
0.0
220
0.0
230
1.0
  0
CIRCLE
  8
1
  6
CONTINUOUS
 62
     5
  5
292
 10
335.325563
 20
256.06044
 30
0.0
 40
0.75625
210
0.0
220
0.0
230
1.0
  0
CIRCLE
  8
1
  6
CONTINUOUS
 62
     5
  5
293
 10
342.943774
 20
255.995529
 30
0.0
 40
0.75625
210
0.0
220
0.0
230
1.0
  0
CIRCLE
  8
1
  6
CONTINUOUS
 62
     5
  5
294
 10
335.287877
 20
243.829609
 30
0.0
 40
0.75625
210
0.0
220
0.0
230
1.0
  0
CIRCLE
  8
1
  6
CONTINUOUS
 62
     5
  5
295
 10
337.877277
 20
243.829609
 30
0.0
 40
0.75625
210
0.0
220
0.0
230
1.0
  0
CIRCLE
  8
1
  6
CONTINUOUS
 62
     5
  5
296
 10
340.627254
 20
243.829609
 30
0.0
 40
0.75625
210
0.0
220
0.0
230
1.0
  0
CIRCLE
  8
1
  6
CONTINUOUS
 62
     5
  5
297
 10
333.501488
 20
241.902054
 30
0.0
 40
0.75625
210
0.0
220
0.0
230
1.0
  0
CIRCLE
  8
1
  6
CONTINUOUS
 62
     5
  5
298
 10
333.501488
 20
236.661368
 30
0.0
 40
0.75625
210
0.0
220
0.0
230
1.0
  0
CIRCLE
  8
1
  6
CONTINUOUS
 62
     5
  5
299
 10
342.0122
 20
239.713466
 30
0.0
 40
0.75625
210
0.0
220
0.0
230
1.0
  0
CIRCLE
  8
1
  6
CONTINUOUS
 62
     5
  5
29A
 10
368.588463
 20
275.151215
 30
0.0
 40
0.75625
210
0.0
220
0.0
230
1.0
  0
CIRCLE
  8
1
  6
CONTINUOUS
 62
     5
  5
29B
 10
367.87658
 20
261.61245
 30
0.0
 40
0.75625
210
0.0
220
0.0
230
1.0
  0
CIRCLE
  8
1
  6
CONTINUOUS
 62
     5
  5
29C
 10
368.600185
 20
256.028174
 30
0.0
 40
0.75625
210
0.0
220
0.0
230
1.0
  0
TEXT
  8
1
  6
CONTINUOUS
 62
     7
  5
29D
 10
334.512
 20
270.657833
 30
0.0
 40
2.5
  1
A
  7
MONOTXT
210
0.0
220
0.0
230
1.0
  0
TEXT
  8
1
  6
CONTINUOUS
 62
     7
  5
29E
 10
341.983
 20
270.594083
 30
0.0
 40
2.5
  1
A
  7
MONOTXT
210
0.0
220
0.0
230
1.0
  0
TEXT
  8
1
  6
CONTINUOUS
 62
     7
  5
29F
 10
367.537167
 20
269.335917
 30
0.0
 40
2.5
  1
A
  7
MONOTXT
210
0.0
220
0.0
230
1.0
  0
TEXT
  8
1
  6
CONTINUOUS
 62
     7
  5
2A0
 10
334.882333
 20
260.356
 30
0.0
 40
2.5
  1
1
  7
MONOTXT
210
0.0
220
0.0
230
1.0
  0
TEXT
  8
1
  6
CONTINUOUS
 62
     7
  5
2A1
 10
342.391583
 20
260.074333
 30
0.0
 40
2.5
  1
1
  7
MONOTXT
210
0.0
220
0.0
230
1.0
  0
TEXT
  8
1
  6
CONTINUOUS
 62
     7
  5
2A2
 10
336.571917
 20
253.736333
 30
0.0
 40
2.5
  1
B
  7
MONOTXT
210
0.0
220
0.0
230
1.0
  0
TEXT
  8
1
  6
CONTINUOUS
 62
     7
  5
2A3
 10
344.175167
 20
253.736333
 30
0.0
 40
2.5
  1
B
  7
MONOTXT
210
0.0
220
0.0
230
1.0
  0
TEXT
  8
1
  6
CONTINUOUS
 62
     7
  5
2A4
 10
349.819167
 20
264.80825
 30
0.0
 40
2.5
  1
2
  7
MONOTXT
210
0.0
220
0.0
230
1.0
  0
TEXT
  8
1
  6
CONTINUOUS
 62
     7
  5
2A5
 10
375.73975
 20
265.758833
 30
0.0
 40
2.5
  1
3
  7
MONOTXT
210
0.0
220
0.0
230
1.0
  0
TEXT
  8
1
  6
CONTINUOUS
 62
     7
  5
2A6
 10
375.588583
 20
260.154167
 30
0.0
 40
2.5
  1
B
  7
MONOTXT
210
0.0
220
0.0
230
1.0
  0
TEXT
  8
1
  6
CONTINUOUS
 62
     7
  5
2A7
 10
375.209917
 20
254.710417
 30
0.0
 40
2.5
  1
C
  7
MONOTXT
210
0.0
220
0.0
230
1.0
  0
TEXT
  8
1
  6
CONTINUOUS
 62
     7
  5
2A8
 10
346.594
 20
231.466417
 30
0.0
 40
2.5
  1
4
  7
MONOTXT
210
0.0
220
0.0
230
1.0
  0
TEXT
  8
1
  6
CONTINUOUS
 62
     7
  5
2A9
 10
399.745417
 20
273.107083
 30
0.0
 40
2.5
  1
1.   CIRCUIT BREAKER, SEE NOTE 1.
  7
MONOTXT
 11
399.745417
 21
275.607083
 31
0.0
210
0.0
220
0.0
230
1.0
 73
     3
  0
TEXT
  8
1
  6
CONTINUOUS
 62
     7
  5
2AA
 10
399.745417
 20
268.607083
 30
0.0
 40
2.5
  1
 
  7
MONOTXT
 11
399.745417
 21
271.107083
 31
0.0
210
0.0
220
0.0
230
1.0
 73
     3
  0
TEXT
  8
1
  6
CONTINUOUS
 62
     7
  5
2AB
 10
399.745417
 20
264.107083
 30
0.0
 40
2.5
  1
2.   SPACE FOR FUTURE BREAKER
  7
MONOTXT
 11
399.745417
 21
266.607083
 31
0.0
210
0.0
220
0.0
230
1.0
 73
     3
  0
TEXT
  8
1
  6
CONTINUOUS
 62
     7
  5
2AC
 10
399.745417
 20
259.607083
 30
0.0
 40
2.5
  1
 
  7
MONOTXT
 11
399.745417
 21
262.107083
 31
0.0
210
0.0
220
0.0
230
1.0
 73
     3
  0
TEXT
  8
1
  6
CONTINUOUS
 62
     7
  5
2AD
 10
399.745417
 20
255.107083
 30
0.0
 40
2.5
  1
3.   SOLID NEUTRAL GROUND BAR
  7
MONOTXT
 11
399.745417
 21
257.607083
 31
0.0
210
0.0
220
0.0
230
1.0
 73
     3
  0
TEXT
  8
1
  6
CONTINUOUS
 62
     7
  5
2AE
 10
399.745417
 20
250.607083
 30
0.0
 40
2.5
  1
 
  7
MONOTXT
 11
399.745417
 21
253.107083
 31
0.0
210
0.0
220
0.0
230
1.0
 73
     3
  0
TEXT
  8
1
  6
CONTINUOUS
 62
     7
  5
2AF
 10
399.745417
 20
246.107083
 30
0.0
 40
2.5
  1
4.   CONDUIT HUB (POLE TYPE)
  7
MONOTXT
 11
399.745417
 21
248.607083
 31
0.0
210
0.0
220
0.0
230
1.0
 73
     3
  0
TEXT
  8
1
  6
CONTINUOUS
 62
     7
  5
2B0
 10
399.745417
 20
241.607083
 30
0.0
 40
2.5
  1
   (2" CHASE NIPPLE)
  7
MONOTXT
 11
399.745417
 21
244.107083
 31
0.0
210
0.0
220
0.0
230
1.0
 73
     3
  0
TEXT
  8
1
  6
CONTINUOUS
 62
     7
  5
2B1
 10
490.313667
 20
273.778167
 30
0.0
 40
2.5
  1
1A - LINE SERVICE
  7
MONOTXT
 11
490.313667
 21
276.278167
 31
0.0
210
0.0
220
0.0
230
1.0
 73
     3
  0
TEXT
  8
1
  6
CONTINUOUS
 62
     7
  5
2B2
 10
490.313667
 20
269.278167
 30
0.0
 40
2.5
  1
 
  7
MONOTXT
 11
490.313667
 21
271.778167
 31
0.0
210
0.0
220
0.0
230
1.0
 73
     3
  0
TEXT
  8
1
  6
CONTINUOUS
 62
     7
  5
2B3
 10
490.313667
 20
264.778167
 30
0.0
 40
2.5
  1
3A - LINE NEUTRAL
  7
MONOTXT
 11
490.313667
 21
267.278167
 31
0.0
210
0.0
220
0.0
230
1.0
 73
     3
  0
TEXT
  8
1
  6
CONTINUOUS
 62
     7
  5
2B4
 10
490.313667
 20
260.278167
 30
0.0
 40
2.5
  1
 
  7
MONOTXT
 11
490.313667
 21
262.778167
 31
0.0
210
0.0
220
0.0
230
1.0
 73
     3
  0
TEXT
  8
1
  6
CONTINUOUS
 62
     7
  5
2B5
 10
490.313667
 20
255.778167
 30
0.0
 40
2.5
  1
1B - TO APPLIANCE
  7
MONOTXT
 11
490.313667
 21
258.278167
 31
0.0
210
0.0
220
0.0
230
1.0
 73
     3
  0
TEXT
  8
1
  6
CONTINUOUS
 62
     7
  5
2B6
 10
490.313667
 20
251.278167
 30
0.0
 40
2.5
  1
 
  7
MONOTXT
 11
490.313667
 21
253.778167
 31
0.0
210
0.0
220
0.0
230
1.0
 73
     3
  0
TEXT
  8
1
  6
CONTINUOUS
 62
     7
  5
2B7
 10
490.313667
 20
246.778167
 30
0.0
 40
2.5
  1
3B - APPLIANCE GROUND
  7
MONOTXT
 11
490.313667
 21
249.278167
 31
0.0
210
0.0
220
0.0
230
1.0
 73
     3
  0
TEXT
  8
1
  6
CONTINUOUS
 62
     7
  5
2B8
 10
490.313667
 20
242.278167
 30
0.0
 40
2.5
  1
 
  7
MONOTXT
 11
490.313667
 21
244.778167
 31
0.0
210
0.0
220
0.0
230
1.0
 73
     3
  0
TEXT
  8
1
  6
CONTINUOUS
 62
     7
  5
2B9
 10
490.313667
 20
237.778167
 30
0.0
 40
2.5
  1
3C - LINE TO GROUND
  7
MONOTXT
 11
490.313667
 21
240.278167
 31
0.0
210
0.0
220
0.0
230
1.0
 73
     3
  0
TEXT
  8
1
  6
CONTINUOUS
 62
     7
  5
2BA
 10
422.778833
 20
282.09425
 30
0.0
 40
3.0
  1
LEGEND
  7
MONOTXT
210
0.0
220
0.0
230
1.0
  0
TEXT
  8
1
  6
CONTINUOUS
 62
     7
  5
2BB
 10
501.494917
 20
282.318
 30
0.0
 40
3.0
  1
WIRING
  7
MONOTXT
210
0.0
220
0.0
230
1.0
  0
LINE
  8
1
  6
CONTINUOUS
 62
     7
  5
2BC
 10
421.660667
 20
280.528417
 30
0.0
 11
440.270083
 21
280.528417
 31
0.0
  0
LINE
  8
1
  6
CONTINUOUS
 62
     7
  5
2BD
 10
499.929583
 20
280.975833
 30
0.0
 11
516.7015
 21
280.975833
 31
0.0
  0
POLYLINE
  8
1
  6
CONTINUOUS
 62
     3
  5
2BE
 66
     1
 10
0.0
 20
0.0
 30
0.0
 70
     1
210
0.0
220
0.0
230
1.0
  0
VERTEX
  8
1
  6
CONTINUOUS
 62
     3
  5
2BF
 10
565.16075
 20
341.53075
 30
0.0
 42
0.124871
  0
VERTEX
  8
1
  6
CONTINUOUS
 62
     3
  5
2C0
 10
565.141535
 20
341.602308
 30
0.0
 42
0.087504
  0
VERTEX
  8
1
  6
CONTINUOUS
 62
     3
  5
2C1
 10
565.08463
 20
341.671116
 30
0.0
 42
0.055738
  0
VERTEX
  8
1
  6
CONTINUOUS
 62
     3
  5
2C2
 10
564.99222
 20
341.734529
 30
0.0
 42
0.037637
  0
VERTEX
  8
1
  6
CONTINUOUS
 62
     3
  5
2C3
 10
564.867857
 20
341.790112
 30
0.0
 42
0.02781
  0
VERTEX
  8
1
  6
CONTINUOUS
 62
     3
  5
2C4
 10
564.71632
 20
341.835727
 30
0.0
 42
0.022396
  0
VERTEX
  8
1
  6
CONTINUOUS
 62
     3
  5
2C5
 10
564.543433
 20
341.869622
 30
0.0
 42
0.019489
  0
VERTEX
  8
1
  6
CONTINUOUS
 62
     3
  5
2C6
 10
564.35584
 20
341.890495
 30
0.0
 42
0.01821
  0
VERTEX
  8
1
  6
CONTINUOUS
 62
     3
  5
2C7
 10
564.16075
 20
341.897543
 30
0.0
 42
0.01821
  0
VERTEX
  8
1
  6
CONTINUOUS
 62
     3
  5
2C8
 10
563.96566
 20
341.890495
 30
0.0
 42
0.019489
  0
VERTEX
  8
1
  6
CONTINUOUS
 62
     3
  5
2C9
 10
563.778067
 20
341.869622
 30
0.0
 42
0.022396
  0
VERTEX
  8
1
  6
CONTINUOUS
 62
     3
  5
2CA
 10
563.60518
 20
341.835727
 30
0.0
 42
0.02781
  0
VERTEX
  8
1
  6
CONTINUOUS
 62
     3
  5
2CB
 10
563.453643
 20
341.790112
 30
0.0
 42
0.037637
  0
VERTEX
  8
1
  6
CONTINUOUS
 62
     3
  5
2CC
 10
563.32928
 20
341.734529
 30
0.0
 42
0.055738
  0
VERTEX
  8
1
  6
CONTINUOUS
 62
     3
  5
2CD
 10
563.23687
 20
341.671116
 30
0.0
 42
0.087504
  0
VERTEX
  8
1
  6
CONTINUOUS
 62
     3
  5
2CE
 10
563.179965
 20
341.602308
 30
0.0
 42
0.124871
  0
VERTEX
  8
1
  6
CONTINUOUS
 62
     3
  5
2CF
 10
563.16075
 20
341.53075
 30
0.0
 42
0.124871
  0
VERTEX
  8
1
  6
CONTINUOUS
 62
     3
  5
2D0
 10
563.179965
 20
341.459192
 30
0.0
 42
0.087504
  0
VERTEX
  8
1
  6
CONTINUOUS
 62
     3
  5
2D1
 10
563.23687
 20
341.390384
 30
0.0
 42
0.055738
  0
VERTEX
  8
1
  6
CONTINUOUS
 62
     3
  5
2D2
 10
563.32928
 20
341.326971
 30
0.0
 42
0.037637
  0
VERTEX
  8
1
  6
CONTINUOUS
 62
     3
  5
2D3
 10
563.453643
 20
341.271388
 30
0.0
 42
0.02781
  0
VERTEX
  8
1
  6
CONTINUOUS
 62
     3
  5
2D4
 10
563.60518
 20
341.225773
 30
0.0
 42
0.022396
  0
VERTEX
  8
1
  6
CONTINUOUS
 62
     3
  5
2D5
 10
563.778067
 20
341.191878
 30
0.0
 42
0.019489
  0
VERTEX
  8
1
  6
CONTINUOUS
 62
     3
  5
2D6
 10
563.96566
 20
341.171005
 30
0.0
 42
0.01821
  0
VERTEX
  8
1
  6
CONTINUOUS
 62
     3
  5
2D7
 10
564.16075
 20
341.163957
 30
0.0
 42
0.01821
  0
VERTEX
  8
1
  6
CONTINUOUS
 62
     3
  5
2D8
 10
564.35584
 20
341.171005
 30
0.0
 42
0.019489
  0
VERTEX
  8
1
  6
CONTINUOUS
 62
     3
  5
2D9
 10
564.543433
 20
341.191878
 30
0.0
 42
0.022396
  0
VERTEX
  8
1
  6
CONTINUOUS
 62
     3
  5
2DA
 10
564.71632
 20
341.225773
 30
0.0
 42
0.02781
  0
VERTEX
  8
1
  6
CONTINUOUS
 62
     3
  5
2DB
 10
564.867857
 20
341.271388
 30
0.0
 42
0.037637
  0
VERTEX
  8
1
  6
CONTINUOUS
 62
     3
  5
2DC
 10
564.99222
 20
341.326971
 30
0.0
 42
0.055738
  0
VERTEX
  8
1
  6
CONTINUOUS
 62
     3
  5
2DD
 10
565.08463
 20
341.390384
 30
0.0
 42
0.087504
  0
VERTEX
  8
1
  6
CONTINUOUS
 62
     3
  5
2DE
 10
565.141535
 20
341.459192
 30
0.0
 42
0.124871
  0
SEQEND
  8
1
  6
CONTINUOUS
 62
     3
  5
2DF
  0
ARC
  8
1
  6
CONTINUOUS
 62
     3
  5
2E0
 10
564.411649
 20
234.033331
 30
0.0
 40
1.804957
 50
213.742414
 51
303.654047
210
0.0
220
0.0
230
1.0
  0
LINE
  8
1
  6
CONTINUOUS
 62
     3
  5
2E1
 10
564.5775
 20
341.134417
 30
0.0
 11
576.318917
 21
333.5095
 31
0.0
  0
ARC
  8
1
  6
CONTINUOUS
 62
     3
  5
2E2
 10
577.547281
 20
215.624651
 30
0.0
 40
2.056892
 50
212.830364
 51
308.260986
210
0.0
220
0.0
230
1.0
  0
POLYLINE
  8
1
  6
CONTINUOUS
 62
     3
  5
2E3
 66
     1
 10
0.0
 20
0.0
 30
0.0
 70
     1
210
0.0
220
0.0
230
1.0
  0
VERTEX
  8
1
  6
CONTINUOUS
 62
     3
  5
2E4
 10
578.324333
 20
333.544167
 30
0.0
 42
0.124871
  0
VERTEX
  8
1
  6
CONTINUOUS
 62
     3
  5
2E5
 10
578.305119
 20
333.615724
 30
0.0
 42
0.087504
  0
VERTEX
  8
1
  6
CONTINUOUS
 62
     3
  5
2E6
 10
578.248213
 20
333.684532
 30
0.0
 42
0.055738
  0
VERTEX
  8
1
  6
CONTINUOUS
 62
     3
  5
2E7
 10
578.155803
 20
333.747946
 30
0.0
 42
0.037637
  0
VERTEX
  8
1
  6
CONTINUOUS
 62
     3
  5
2E8
 10
578.03144
 20
333.803528
 30
0.0
 42
0.02781
  0
VERTEX
  8
1
  6
CONTINUOUS
 62
     3
  5
2E9
 10
577.879904
 20
333.849144
 30
0.0
 42
0.022396
  0
VERTEX
  8
1
  6
CONTINUOUS
 62
     3
  5
2EA
 10
577.707017
 20
333.883039
 30
0.0
 42
0.019489
  0
VERTEX
  8
1
  6
CONTINUOUS
 62
     3
  5
2EB
 10
577.519424
 20
333.903912
 30
0.0
 42
0.01821
  0
VERTEX
  8
1
  6
CONTINUOUS
 62
     3
  5
2EC
 10
577.324333
 20
333.910959
 30
0.0
 42
0.01821
  0
VERTEX
  8
1
  6
CONTINUOUS
 62
     3
  5
2ED
 10
577.129243
 20
333.903912
 30
0.0
 42
0.019489
  0
VERTEX
  8
1
  6
CONTINUOUS
 62
     3
  5
2EE
 10
576.94165
 20
333.883039
 30
0.0
 42
0.022396
  0
VERTEX
  8
1
  6
CONTINUOUS
 62
     3
  5
2EF
 10
576.768763
 20
333.849144
 30
0.0
 42
0.02781
  0
VERTEX
  8
1
  6
CONTINUOUS
 62
     3
  5
2F0
 10
576.617227
 20
333.803528
 30
0.0
 42
0.037637
  0
VERTEX
  8
1
  6
CONTINUOUS
 62
     3
  5
2F1
 10
576.492864
 20
333.747946
 30
0.0
 42
0.055738
  0
VERTEX
  8
1
  6
CONTINUOUS
 62
     3
  5
2F2
 10
576.400454
 20
333.684532
 30
0.0
 42
0.087504
  0
VERTEX
  8
1
  6
CONTINUOUS
 62
     3
  5
2F3
 10
576.343548
 20
333.615724
 30
0.0
 42
0.124871
  0
VERTEX
  8
1
  6
CONTINUOUS
 62
     3
  5
2F4
 10
576.324333
 20
333.544167
 30
0.0
 42
0.124871
  0
VERTEX
  8
1
  6
CONTINUOUS
 62
     3
  5
2F5
 10
576.343548
 20
333.472609
 30
0.0
 42
0.087504
  0
VERTEX
  8
1
  6
CONTINUOUS
 62
     3
  5
2F6
 10
576.400454
 20
333.403801
 30
0.0
 42
0.055738
  0
VERTEX
  8
1
  6
CONTINUOUS
 62
     3
  5
2F7
 10
576.492864
 20
333.340388
 30
0.0
 42
0.037637
  0
VERTEX
  8
1
  6
CONTINUOUS
 62
     3
  5
2F8
 10
576.617227
 20
333.284805
 30
0.0
 42
0.02781
  0
VERTEX
  8
1
  6
CONTINUOUS
 62
     3
  5
2F9
 10
576.768763
 20
333.23919
 30
0.0
 42
0.022396
  0
VERTEX
  8
1
  6
CONTINUOUS
 62
     3
  5
2FA
 10
576.94165
 20
333.205294
 30
0.0
 42
0.019489
  0
VERTEX
  8
1
  6
CONTINUOUS
 62
     3
  5
2FB
 10
577.129243
 20
333.184422
 30
0.0
 42
0.01821
  0
VERTEX
  8
1
  6
CONTINUOUS
 62
     3
  5
2FC
 10
577.324333
 20
333.177374
 30
0.0
 42
0.01821
  0
VERTEX
  8
1
  6
CONTINUOUS
 62
     3
  5
2FD
 10
577.519424
 20
333.184422
 30
0.0
 42
0.019489
  0
VERTEX
  8
1
  6
CONTINUOUS
 62
     3
  5
2FE
 10
577.707017
 20
333.205294
 30
0.0
 42
0.022396
  0
VERTEX
  8
1
  6
CONTINUOUS
 62
     3
  5
2FF
 10
577.879904
 20
333.23919
 30
0.0
 42
0.02781
  0
VERTEX
  8
1
  6
CONTINUOUS
 62
     3
  5
300
 10
578.03144
 20
333.284805
 30
0.0
 42
0.037637
  0
VERTEX
  8
1
  6
CONTINUOUS
 62
     3
  5
301
 10
578.155803
 20
333.340388
 30
0.0
 42
0.055738
  0
VERTEX
  8
1
  6
CONTINUOUS
 62
     3
  5
302
 10
578.248213
 20
333.403801
 30
0.0
 42
0.087504
  0
VERTEX
  8
1
  6
CONTINUOUS
 62
     3
  5
303
 10
578.305119
 20
333.472609
 30
0.0
 42
0.124871
  0
SEQEND
  8
1
  6
CONTINUOUS
 62
     3
  5
304
  0
LINE
  8
1
  6
CONTINUOUS
 62
     3
  5
305
 10
564.5775
 20
341.134417
 30
0.0
 11
564.5775
 21
339.634417
 31
0.0
  0
LINE
  8
1
  6
CONTINUOUS
 62
     3
  5
306
 10
564.5775
 20
339.634417
 30
0.0
 11
576.318917
 21
332.0095
 31
0.0
  0
LINE
  8
1
  6
CONTINUOUS
 62
     3
  5
307
 10
563.15575
 20
339.36525
 30
0.0
 11
576.307667
 21
330.824333
 31
0.0
  0
LINE
  8
1
  6
CONTINUOUS
 62
     3
  5
308
 10
563.15575
 20
339.36525
 30
0.0
 11
564.5775
 21
339.634417
 31
0.0
  0
LINE
  8
1
  6
CONTINUOUS
 62
     3
  5
309
 10
565.16075
 20
341.53075
 30
0.0
 11
565.1625
 21
340.7545
 31
0.0
  0
POLYLINE
  8
1
  6
CONTINUOUS
 62
     3
  5
30A
 66
     1
 10
0.0
 20
0.0
 30
0.0
 70
     1
210
0.0
220
0.0
230
1.0
  0
VERTEX
  8
1
  6
CONTINUOUS
 62
     3
  5
30B
 10
562.789167
 20
336.496917
 30
0.0
 42
0.092094
  0
VERTEX
  8
1
  6
CONTINUOUS
 62
     3
  5
30C
 10
562.884677
 20
336.534557
 30
0.0
 42
0.077204
  0
VERTEX
  8
1
  6
CONTINUOUS
 62
     3
  5
30D
 10
562.969368
 20
336.60851
 30
0.0
 42
0.059271
  0
VERTEX
  8
1
  6
CONTINUOUS
 62
     3
  5
30E
 10
563.039984
 20
336.715933
 30
0.0
 42
0.045371
  0
VERTEX
  8
1
  6
CONTINUOUS
 62
     3
  5
30F
 10
563.093812
 20
336.852698
 30
0.0
 42
0.036147
  0
VERTEX
  8
1
  6
CONTINUOUS
 62
     3
  5
310
 10
563.128783
 20
337.013549
 30
0.0
 42
0.030418
  0
VERTEX
  8
1
  6
CONTINUOUS
 62
     3
  5
311
 10
563.143553
 20
337.192304
 30
0.0
 42
0.027124
  0
VERTEX
  8
1
  6
CONTINUOUS
 62
     3
  5
312
 10
563.137555
 20
337.382095
 30
0.0
 42
0.025621
  0
VERTEX
  8
1
  6
CONTINUOUS
 62
     3
  5
313
 10
563.111019
 20
337.575627
 30
0.0
 42
0.025621
  0
VERTEX
  8
1
  6
CONTINUOUS
 62
     3
  5
314
 10
563.064965
 20
337.765463
 30
0.0
 42
0.027124
  0
VERTEX
  8
1
  6
CONTINUOUS
 62
     3
  5
315
 10
563.001163
 20
337.944309
 30
0.0
 42
0.030418
  0
VERTEX
  8
1
  6
CONTINUOUS
 62
     3
  5
316
 10
562.922064
 20
338.10529
 30
0.0
 42
0.036147
  0
VERTEX
  8
1
  6
CONTINUOUS
 62
     3
  5
317
 10
562.830709
 20
338.242222
 30
0.0
 42
0.045371
  0
VERTEX
  8
1
  6
CONTINUOUS
 62
     3
  5
318
 10
562.730608
 20
338.34984
 30
0.0
 42
0.059271
  0
VERTEX
  8
1
  6
CONTINUOUS
 62
     3
  5
319
 10
562.625608
 20
338.424011
 30
0.0
 42
0.077204
  0
VERTEX
  8
1
  6
CONTINUOUS
 62
     3
  5
31A
 10
562.519743
 20
338.461882
 30
0.0
 42
0.092094
  0
VERTEX
  8
1
  6
CONTINUOUS
 62
     3
  5
31B
 10
562.417083
 20
338.462
 30
0.0
 42
0.092094
  0
VERTEX
  8
1
  6
CONTINUOUS
 62
     3
  5
31C
 10
562.321573
 20
338.424359
 30
0.0
 42
0.077204
  0
VERTEX
  8
1
  6
CONTINUOUS
 62
     3
  5
31D
 10
562.236882
 20
338.350406
 30
0.0
 42
0.059271
  0
VERTEX
  8
1
  6
CONTINUOUS
 62
     3
  5
31E
 10
562.166266
 20
338.242984
 30
0.0
 42
0.045371
  0
VERTEX
  8
1
  6
CONTINUOUS
 62
     3
  5
31F
 10
562.112438
 20
338.106219
 30
0.0
 42
0.036147
  0
VERTEX
  8
1
  6
CONTINUOUS
 62
     3
  5
320
 10
562.077467
 20
337.945368
 30
0.0
 42
0.030418
  0
VERTEX
  8
1
  6
CONTINUOUS
 62
     3
  5
321
 10
562.062697
 20
337.766613
 30
0.0
 42
0.027124
  0
VERTEX
  8
1
  6
CONTINUOUS
 62
     3
  5
322
 10
562.068695
 20
337.576822
 30
0.0
 42
0.025621
  0
VERTEX
  8
1
  6
CONTINUOUS
 62
     3
  5
323
 10
562.095231
 20
337.38329
 30
0.0
 42
0.025621
  0
VERTEX
  8
1
  6
CONTINUOUS
 62
     3
  5
324
 10
562.141285
 20
337.193453
 30
0.0
 42
0.027124
  0
VERTEX
  8
1
  6
CONTINUOUS
 62
     3
  5
325
 10
562.205087
 20
337.014608
 30
0.0
 42
0.030418
  0
VERTEX
  8
1
  6
CONTINUOUS
 62
     3
  5
326
 10
562.284186
 20
336.853626
 30
0.0
 42
0.036147
  0
VERTEX
  8
1
  6
CONTINUOUS
 62
     3
  5
327
 10
562.375541
 20
336.716695
 30
0.0
 42
0.045371
  0
VERTEX
  8
1
  6
CONTINUOUS
 62
     3
  5
328
 10
562.475642
 20
336.609077
 30
0.0
 42
0.059271
  0
VERTEX
  8
1
  6
CONTINUOUS
 62
     3
  5
329
 10
562.580642
 20
336.534906
 30
0.0
 42
0.077204
  0
VERTEX
  8
1
  6
CONTINUOUS
 62
     3
  5
32A
 10
562.686507
 20
336.497034
 30
0.0
 42
0.092094
  0
SEQEND
  8
1
  6
CONTINUOUS
 62
     3
  5
32B
  0
LINE
  8
1
  6
CONTINUOUS
 62
     3
  5
32C
 10
563.16075
 20
341.53075
 30
0.0
 11
563.154083
 21
338.601583
 31
0.0
  0
LINE
  8
1
  6
CONTINUOUS
 62
     3
  5
32D
 10
564.183667
 20
337.50525
 30
0.0
 11
576.302667
 21
329.635167
 31
0.0
  0
LINE
  8
1
  6
DASHED
 62
     3
  5
32E
 10
564.456
 20
337.924583
 30
0.0
 11
576.305167
 21
330.229667
 31
0.0
  0
LINE
  8
1
  6
CONTINUOUS
 62
     3
  5
32F
 10
562.417083
 20
338.462
 30
0.0
 11
563.464333
 21
338.660333
 31
0.0
  0
LINE
  8
1
  6
CONTINUOUS
 62
     3
  5
330
 10
567.275667
 20
339.38225
 30
0.0
 11
587.717417
 21
343.253667
 31
0.0
  0
LINE
  8
1
  6
CONTINUOUS
 62
     3
  5
331
 10
562.789167
 20
336.496917
 30
0.0
 11
565.070917
 21
336.929083
 31
0.0
  0
LINE
  8
1
  6
CONTINUOUS
 62
     3
  5
332
 10
575.141333
 20
329.1675
 30
0.0
 11
576.301583
 21
329.387167
 31
0.0
  0
LINE
  8
1
  6
CONTINUOUS
 62
     3
  5
333
 10
578.3345
 20
329.77225
 30
0.0
 11
589.436917
 21
331.875083
 31
0.0
  0
LINE
  8
1
  6
CONTINUOUS
 62
     3
  5
334
 10
575.641167
 20
327.226667
 30
0.0
 11
576.293
 21
327.350167
 31
0.0
  0
LINE
  8
1
  6
CONTINUOUS
 62
     3
  5
335
 10
578.343083
 20
327.738333
 30
0.0
 11
589.809083
 21
329.91
 31
0.0
  0
POLYLINE
  8
1
  6
CONTINUOUS
 62
     3
  5
336
 66
     1
 10
0.0
 20
0.0
 30
0.0
 70
     1
210
0.0
220
0.0
230
1.0
  0
VERTEX
  8
1
  6
CONTINUOUS
 62
     3
  5
337
 10
575.641167
 20
327.226667
 30
0.0
 42
0.127502
  0
VERTEX
  8
1
  6
CONTINUOUS
 62
     3
  5
338
 10
575.704122
 20
327.262763
 30
0.0
 42
0.08796
  0
VERTEX
  8
1
  6
CONTINUOUS
 62
     3
  5
339
 10
575.755053
 20
327.334764
 30
0.0
 42
0.055267
  0
VERTEX
  8
1
  6
CONTINUOUS
 62
     3
  5
33A
 10
575.792003
 20
327.439904
 30
0.0
 42
0.03703
  0
VERTEX
  8
1
  6
CONTINUOUS
 62
     3
  5
33B
 10
575.813553
 20
327.574142
 30
0.0
 42
0.027247
  0
VERTEX
  8
1
  6
CONTINUOUS
 62
     3
  5
33C
 10
575.818874
 20
327.732319
 30
0.0
 42
0.021893
  0
VERTEX
  8
1
  6
CONTINUOUS
 62
     3
  5
33D
 10
575.807762
 20
327.908357
 30
0.0
 42
0.019028
  0
VERTEX
  8
1
  6
CONTINUOUS
 62
     3
  5
33E
 10
575.780643
 20
328.095491
 30
0.0
 42
0.017769
  0
VERTEX
  8
1
  6
CONTINUOUS
 62
     3
  5
33F
 10
575.73856
 20
328.286528
 30
0.0
 42
0.017769
  0
VERTEX
  8
1
  6
CONTINUOUS
 62
     3
  5
340
 10
575.683131
 20
328.474128
 30
0.0
 42
0.019028
  0
VERTEX
  8
1
  6
CONTINUOUS
 62
     3
  5
341
 10
575.616484
 20
328.651082
 30
0.0
 42
0.021893
  0
VERTEX
  8
1
  6
CONTINUOUS
 62
     3
  5
342
 10
575.541182
 20
328.810589
 30
0.0
 42
0.027247
  0
VERTEX
  8
1
  6
CONTINUOUS
 62
     3
  5
343
 10
575.460118
 20
328.946519
 30
0.0
 42
0.03703
  0
VERTEX
  8
1
  6
CONTINUOUS
 62
     3
  5
344
 10
575.376407
 20
329.053648
 30
0.0
 42
0.055267
  0
VERTEX
  8
1
  6
CONTINUOUS
 62
     3
  5
345
 10
575.293267
 20
329.12786
 30
0.0
 42
0.08796
  0
VERTEX
  8
1
  6
CONTINUOUS
 62
     3
  5
346
 10
575.213892
 20
329.166304
 30
0.0
 42
0.127502
  0
VERTEX
  8
1
  6
CONTINUOUS
 62
     3
  5
347
 10
575.141333
 20
329.1675
 30
0.0
 42
0.127502
  0
VERTEX
  8
1
  6
CONTINUOUS
 62
     3
  5
348
 10
575.078378
 20
329.131404
 30
0.0
 42
0.08796
  0
VERTEX
  8
1
  6
CONTINUOUS
 62
     3
  5
349
 10
575.027447
 20
329.059402
 30
0.0
 42
0.055267
  0
VERTEX
  8
1
  6
CONTINUOUS
 62
     3
  5
34A
 10
574.990497
 20
328.954262
 30
0.0
 42
0.03703
  0
VERTEX
  8
1
  6
CONTINUOUS
 62
     3
  5
34B
 10
574.968947
 20
328.820025
 30
0.0
 42
0.027247
  0
VERTEX
  8
1
  6
CONTINUOUS
 62
     3
  5
34C
 10
574.963626
 20
328.661847
 30
0.0
 42
0.021893
  0
VERTEX
  8
1
  6
CONTINUOUS
 62
     3
  5
34D
 10
574.974738
 20
328.48581
 30
0.0
 42
0.019028
  0
VERTEX
  8
1
  6
CONTINUOUS
 62
     3
  5
34E
 10
575.001857
 20
328.298676
 30
0.0
 42
0.017769
  0
VERTEX
  8
1
  6
CONTINUOUS
 62
     3
  5
34F
 10
575.04394
 20
328.107639
 30
0.0
 42
0.017769
  0
VERTEX
  8
1
  6
CONTINUOUS
 62
     3
  5
350
 10
575.099369
 20
327.920038
 30
0.0
 42
0.019028
  0
VERTEX
  8
1
  6
CONTINUOUS
 62
     3
  5
351
 10
575.166016
 20
327.743085
 30
0.0
 42
0.021893
  0
VERTEX
  8
1
  6
CONTINUOUS
 62
     3
  5
352
 10
575.241318
 20
327.583578
 30
0.0
 42
0.027247
  0
VERTEX
  8
1
  6
CONTINUOUS
 62
     3
  5
353
 10
575.322382
 20
327.447648
 30
0.0
 42
0.03703
  0
VERTEX
  8
1
  6
CONTINUOUS
 62
     3
  5
354
 10
575.406093
 20
327.340519
 30
0.0
 42
0.055267
  0
VERTEX
  8
1
  6
CONTINUOUS
 62
     3
  5
355
 10
575.489233
 20
327.266306
 30
0.0
 42
0.08796
  0
VERTEX
  8
1
  6
CONTINUOUS
 62
     3
  5
356
 10
575.568608
 20
327.227863
 30
0.0
 42
0.127502
  0
SEQEND
  8
1
  6
CONTINUOUS
 62
     3
  5
357
  0
LINE
  8
1
  6
DASHED
 62
     3
  5
358
 10
568.489083
 20
338.59425
 30
0.0
 11
586.184
 21
341.9455
 31
0.0
  0
LINE
  8
1
  6
DASHED
 62
     3
  5
359
 10
578.338917
 20
328.755333
 30
0.0
 11
589.623
 21
330.8925
 31
0.0
  0
LINE
  8
1
  6
CONTINUOUS
 62
     3
  5
35A
 10
563.109417
 20
319.255333
 30
0.0
 11
576.2695
 21
321.74775
 31
0.0
  0
POLYLINE
  8
1
  6
CONTINUOUS
 62
     3
  5
35B
 66
     1
 10
0.0
 20
0.0
 30
0.0
 70
     1
210
0.0
220
0.0
230
1.0
  0
VERTEX
  8
1
  6
CONTINUOUS
 62
     3
  5
35C
 10
563.481583
 20
317.29025
 30
0.0
 42
0.091977
  0
VERTEX
  8
1
  6
CONTINUOUS
 62
     3
  5
35D
 10
563.57723
 20
317.327921
 30
0.0
 42
0.07715
  0
VERTEX
  8
1
  6
CONTINUOUS
 62
     3
  5
35E
 10
563.662051
 20
317.401903
 30
0.0
 42
0.059272
  0
VERTEX
  8
1
  6
CONTINUOUS
 62
     3
  5
35F
 10
563.732785
 20
317.509353
 30
0.0
 42
0.045397
  0
VERTEX
  8
1
  6
CONTINUOUS
 62
     3
  5
360
 10
563.786714
 20
317.646141
 30
0.0
 42
0.036181
  0
VERTEX
  8
1
  6
CONTINUOUS
 62
     3
  5
361
 10
563.821767
 20
317.807011
 30
0.0
 42
0.030454
  0
VERTEX
  8
1
  6
CONTINUOUS
 62
     3
  5
362
 10
563.836595
 20
317.98578
 30
0.0
 42
0.027159
  0
VERTEX
  8
1
  6
CONTINUOUS
 62
     3
  5
363
 10
563.830629
 20
318.17558
 30
0.0
 42
0.025656
  0
VERTEX
  8
1
  6
CONTINUOUS
 62
     3
  5
364
 10
563.804098
 20
318.369115
 30
0.0
 42
0.025656
  0
VERTEX
  8
1
  6
CONTINUOUS
 62
     3
  5
365
 10
563.758023
 20
318.558949
 30
0.0
 42
0.027159
  0
VERTEX
  8
1
  6
CONTINUOUS
 62
     3
  5
366
 10
563.694173
 20
318.737785
 30
0.0
 42
0.030454
  0
VERTEX
  8
1
  6
CONTINUOUS
 62
     3
  5
367
 10
563.615002
 20
318.898753
 30
0.0
 42
0.036181
  0
VERTEX
  8
1
  6
CONTINUOUS
 62
     3
  5
368
 10
563.523553
 20
319.035664
 30
0.0
 42
0.045397
  0
VERTEX
  8
1
  6
CONTINUOUS
 62
     3
  5
369
 10
563.42334
 20
319.14326
 30
0.0
 42
0.059272
  0
VERTEX
  8
1
  6
CONTINUOUS
 62
     3
  5
36A
 10
563.318214
 20
319.217403
 30
0.0
 42
0.07715
  0
VERTEX
  8
1
  6
CONTINUOUS
 62
     3
  5
36B
 10
563.212215
 20
319.255246
 30
0.0
 42
0.091977
  0
VERTEX
  8
1
  6
CONTINUOUS
 62
     3
  5
36C
 10
563.109417
 20
319.255333
 30
0.0
 42
0.091977
  0
VERTEX
  8
1
  6
CONTINUOUS
 62
     3
  5
36D
 10
563.01377
 20
319.217662
 30
0.0
 42
0.07715
  0
VERTEX
  8
1
  6
CONTINUOUS
 62
     3
  5
36E
 10
562.928949
 20
319.14368
 30
0.0
 42
0.059272
  0
VERTEX
  8
1
  6
CONTINUOUS
 62
     3
  5
36F
 10
562.858215
 20
319.036231
 30
0.0
 42
0.045397
  0
VERTEX
  8
1
  6
CONTINUOUS
 62
     3
  5
370
 10
562.804286
 20
318.899443
 30
0.0
 42
0.036181
  0
VERTEX
  8
1
  6
CONTINUOUS
 62
     3
  5
371
 10
562.769233
 20
318.738573
 30
0.0
 42
0.030454
  0
VERTEX
  8
1
  6
CONTINUOUS
 62
     3
  5
372
 10
562.754405
 20
318.559803
 30
0.0
 42
0.027159
  0
VERTEX
  8
1
  6
CONTINUOUS
 62
     3
  5
373
 10
562.760371
 20
318.370004
 30
0.0
 42
0.025656
  0
VERTEX
  8
1
  6
CONTINUOUS
 62
     3
  5
374
 10
562.786902
 20
318.176468
 30
0.0
 42
0.025656
  0
VERTEX
  8
1
  6
CONTINUOUS
 62
     3
  5
375
 10
562.832977
 20
317.986635
 30
0.0
 42
0.027159
  0
VERTEX
  8
1
  6
CONTINUOUS
 62
     3
  5
376
 10
562.896827
 20
317.807798
 30
0.0
 42
0.030454
  0
VERTEX
  8
1
  6
CONTINUOUS
 62
     3
  5
377
 10
562.975998
 20
317.646831
 30
0.0
 42
0.036181
  0
VERTEX
  8
1
  6
CONTINUOUS
 62
     3
  5
378
 10
563.067447
 20
317.509919
 30
0.0
 42
0.045397
  0
VERTEX
  8
1
  6
CONTINUOUS
 62
     3
  5
379
 10
563.16766
 20
317.402324
 30
0.0
 42
0.059272
  0
VERTEX
  8
1
  6
CONTINUOUS
 62
     3
  5
37A
 10
563.272786
 20
317.32818
 30
0.0
 42
0.07715
  0
VERTEX
  8
1
  6
CONTINUOUS
 62
     3
  5
37B
 10
563.378785
 20
317.290338
 30
0.0
 42
0.091977
  0
SEQEND
  8
1
  6
CONTINUOUS
 62
     3
  5
37C
  0
LINE
  8
1
  6
CONTINUOUS
 62
     3
  5
37D
 10
563.14925
 20
336.565083
 30
0.0
 11
563.109333
 21
319.255333
 31
0.0
  0
LINE
  8
1
  6
CONTINUOUS
 62
     3
  5
37E
 10
563.10525
 20
317.464667
 30
0.0
 11
562.91075
 21
233.03075
 31
0.0
  0
LINE
  8
1
  6
CONTINUOUS
 62
     3
  5
37F
 10
565.1715
 20
336.86375
 30
0.0
 11
565.211167
 21
319.653417
 31
0.0
  0
POLYLINE
  8
1
  6
CONTINUOUS
 62
     3
  5
380
 66
     1
 10
0.0
 20
0.0
 30
0.0
 70
     1
210
0.0
220
0.0
230
1.0
  0
VERTEX
  8
1
  6
CONTINUOUS
 62
     3
  5
381
 10
574.965583
 20
304.669417
 30
0.0
 42
0.091977
  0
VERTEX
  8
1
  6
CONTINUOUS
 62
     3
  5
382
 10
575.06123
 20
304.707088
 30
0.0
 42
0.07715
  0
VERTEX
  8
1
  6
CONTINUOUS
 62
     3
  5
383
 10
575.146051
 20
304.78107
 30
0.0
 42
0.059272
  0
VERTEX
  8
1
  6
CONTINUOUS
 62
     3
  5
384
 10
575.216785
 20
304.888519
 30
0.0
 42
0.045397
  0
VERTEX
  8
1
  6
CONTINUOUS
 62
     3
  5
385
 10
575.270714
 20
305.025307
 30
0.0
 42
0.036181
  0
VERTEX
  8
1
  6
CONTINUOUS
 62
     3
  5
386
 10
575.305767
 20
305.186177
 30
0.0
 42
0.030454
  0
VERTEX
  8
1
  6
CONTINUOUS
 62
     3
  5
387
 10
575.320595
 20
305.364947
 30
0.0
 42
0.027159
  0
VERTEX
  8
1
  6
CONTINUOUS
 62
     3
  5
388
 10
575.314629
 20
305.554746
 30
0.0
 42
0.025656
  0
VERTEX
  8
1
  6
CONTINUOUS
 62
     3
  5
389
 10
575.288098
 20
305.748282
 30
0.0
 42
0.025656
  0
VERTEX
  8
1
  6
CONTINUOUS
 62
     3
  5
38A
 10
575.242023
 20
305.938115
 30
0.0
 42
0.027159
  0
VERTEX
  8
1
  6
CONTINUOUS
 62
     3
  5
38B
 10
575.178173
 20
306.116952
 30
0.0
 42
0.030454
  0
VERTEX
  8
1
  6
CONTINUOUS
 62
     3
  5
38C
 10
575.099002
 20
306.277919
 30
0.0
 42
0.036181
  0
VERTEX
  8
1
  6
CONTINUOUS
 62
     3
  5
38D
 10
575.007553
 20
306.414831
 30
0.0
 42
0.045397
  0
VERTEX
  8
1
  6
CONTINUOUS
 62
     3
  5
38E
 10
574.90734
 20
306.522426
 30
0.0
 42
0.059272
  0
VERTEX
  8
1
  6
CONTINUOUS
 62
     3
  5
38F
 10
574.802214
 20
306.59657
 30
0.0
 42
0.07715
  0
VERTEX
  8
1
  6
CONTINUOUS
 62
     3
  5
390
 10
574.696215
 20
306.634412
 30
0.0
 42
0.091977
  0
VERTEX
  8
1
  6
CONTINUOUS
 62
     3
  5
391
 10
574.593417
 20
306.6345
 30
0.0
 42
0.091977
  0
VERTEX
  8
1
  6
CONTINUOUS
 62
     3
  5
392
 10
574.49777
 20
306.596829
 30
0.0
 42
0.07715
  0
VERTEX
  8
1
  6
CONTINUOUS
 62
     3
  5
393
 10
574.412949
 20
306.522847
 30
0.0
 42
0.059272
  0
VERTEX
  8
1
  6
CONTINUOUS
 62
     3
  5
394
 10
574.342215
 20
306.415397
 30
0.0
 42
0.045397
  0
VERTEX
  8
1
  6
CONTINUOUS
 62
     3
  5
395
 10
574.288286
 20
306.278609
 30
0.0
 42
0.036181
  0
VERTEX
  8
1
  6
CONTINUOUS
 62
     3
  5
396
 10
574.253233
 20
306.117739
 30
0.0
 42
0.030454
  0
VERTEX
  8
1
  6
CONTINUOUS
 62
     3
  5
397
 10
574.238405
 20
305.93897
 30
0.0
 42
0.027159
  0
VERTEX
  8
1
  6
CONTINUOUS
 62
     3
  5
398
 10
574.244371
 20
305.74917
 30
0.0
 42
0.025656
  0
VERTEX
  8
1
  6
CONTINUOUS
 62
     3
  5
399
 10
574.270902
 20
305.555635
 30
0.0
 42
0.025656
  0
VERTEX
  8
1
  6
CONTINUOUS
 62
     3
  5
39A
 10
574.316977
 20
305.365801
 30
0.0
 42
0.027159
  0
VERTEX
  8
1
  6
CONTINUOUS
 62
     3
  5
39B
 10
574.380827
 20
305.186965
 30
0.0
 42
0.030454
  0
VERTEX
  8
1
  6
CONTINUOUS
 62
     3
  5
39C
 10
574.459998
 20
305.025997
 30
0.0
 42
0.036181
  0
VERTEX
  8
1
  6
CONTINUOUS
 62
     3
  5
39D
 10
574.551447
 20
304.889086
 30
0.0
 42
0.045397
  0
VERTEX
  8
1
  6
CONTINUOUS
 62
     3
  5
39E
 10
574.65166
 20
304.78149
 30
0.0
 42
0.059272
  0
VERTEX
  8
1
  6
CONTINUOUS
 62
     3
  5
39F
 10
574.756786
 20
304.707347
 30
0.0
 42
0.07715
  0
VERTEX
  8
1
  6
CONTINUOUS
 62
     3
  5
3A0
 10
574.862785
 20
304.669504
 30
0.0
 42
0.091977
  0
SEQEND
  8
1
  6
CONTINUOUS
 62
     3
  5
3A1
  0
LINE
  8
1
  6
CONTINUOUS
 62
     3
  5
3A2
 10
574.4985
 20
306.622
 30
0.0
 11
576.207333
 21
306.94575
 31
0.0
  0
LINE
  8
1
  6
CONTINUOUS
 62
     3
  5
3A3
 10
574.998417
 20
304.681333
 30
0.0
 11
576.19875
 21
304.908667
 31
0.0
  0
LINE
  8
1
  6
CONTINUOUS
 62
     3
  5
3A4
 10
578.437333
 20
305.332667
 30
0.0
 11
592.925333
 21
308.076583
 31
0.0
  0
LINE
  8
1
  6
CONTINUOUS
 62
     3
  5
3A5
 10
565.107083
 20
318.0295
 30
0.0
 11
575.481083
 21
306.808167
 31
0.0
  0
LINE
  8
1
  6
CONTINUOUS
 62
     3
  5
3A6
 10
566.024917
 20
318.878
 30
0.0
 11
576.211167
 21
307.85975
 31
0.0
  0
LINE
  8
1
  6
CONTINUOUS
 62
     3
  5
3A7
 10
563.4815
 20
317.290167
 30
0.0
 11
565.4465
 21
317.662333
 31
0.0
  0
LINE
  8
1
  6
CONTINUOUS
 62
     3
  5
3A8
 10
565.555833
 20
315.334167
 30
0.0
 11
574.2385
 21
305.9425
 31
0.0
  0
LINE
  8
1
  6
CONTINUOUS
 62
     3
  5
3A9
 10
564.288917
 20
313.1175
 30
0.0
 11
566.237333
 21
313.4865
 31
0.0
  0
LINE
  8
1
  6
CONTINUOUS
 62
     3
  5
3AA
 10
564.278917
 20
317.441167
 30
0.0
 11
564.288917
 21
313.1175
 31
0.0
  0
LINE
  8
1
  6
CONTINUOUS
 62
     3
  5
3AB
 10
566.23475
 20
314.599917
 30
0.0
 11
566.237333
 21
313.4865
 31
0.0
  0
LINE
  8
1
  6
CONTINUOUS
 62
     3
  5
3AC
 10
565.555833
 20
315.334167
 30
0.0
 11
565.653333
 21
317.386
 31
0.0
  0
LINE
  8
1
  6
CONTINUOUS
 62
     3
  5
3AD
 10
564.284083
 20
286.628167
 30
0.0
 11
565.28725
 21
286.628167
 31
0.0
  0
LINE
  8
1
  6
CONTINUOUS
 62
     3
  5
3AE
 10
564.29675
 20
292.128167
 30
0.0
 11
564.284083
 21
286.628167
 31
0.0
  0
LINE
  8
1
  6
CONTINUOUS
 62
     3
  5
3AF
 10
565.542
 20
290.12525
 30
0.0
 11
565.538
 21
288.39175
 31
0.0
  0
LINE
  8
1
  6
CONTINUOUS
 62
     3
  5
3B0
 10
565.225833
 20
313.294917
 30
0.0
 11
565.273667
 21
292.534333
 31
0.0
  0
LINE
  8
1
  6
CONTINUOUS
 62
     3
  5
3B1
 10
564.29675
 20
292.128167
 30
0.0
 11
565.273667
 21
292.534333
 31
0.0
  0
LINE
  8
1
  6
CONTINUOUS
 62
     3
  5
3B2
 10
576.318917
 20
333.5095
 30
0.0
 11
576.198667
 21
304.908667
 31
0.0
  0
LINE
  8
1
  6
CONTINUOUS
 62
     3
  5
3B3
 10
565.542
 20
290.12525
 30
0.0
 11
576.18925
 21
302.658667
 31
0.0
  0
LINE
  8
1
  6
CONTINUOUS
 62
     3
  5
3B4
 10
565.490667
 20
291.609417
 30
0.0
 11
576.19575
 21
304.210917
 31
0.0
  0
LINE
  8
1
  6
CONTINUOUS
 62
     3
  5
3B5
 10
564.29675
 20
292.128167
 30
0.0
 11
565.490667
 21
291.609417
 31
0.0
  0
LINE
  8
1
  6
CONTINUOUS
 62
     3
  5
3B6
 10
565.28725
 20
286.628167
 30
0.0
 11
576.029583
 21
264.659
 31
0.0
  0
LINE
  8
1
  6
CONTINUOUS
 62
     3
  5
3B7
 10
565.538
 20
288.39175
 30
0.0
 11
576.039083
 21
266.916
 31
0.0
  0
LINE
  8
1
  6
CONTINUOUS
 62
     3
  5
3B8
 10
565.273667
 20
292.534333
 30
0.0
 11
565.711
 21
291.868833
 31
0.0
  0
LINE
  8
1
  6
CONTINUOUS
 62
     3
  5
3B9
 10
564.38225
 20
255.03075
 30
0.0
 11
564.369583
 21
249.53075
 31
0.0
  0
LINE
  8
1
  6
CONTINUOUS
 62
     3
  5
3BA
 10
564.369583
 20
249.53075
 30
0.0
 11
565.37275
 21
249.53075
 31
0.0
  0
LINE
  8
1
  6
CONTINUOUS
 62
     3
  5
3BB
 10
565.628333
 20
253.382167
 30
0.0
 11
565.6235
 21
251.294333
 31
0.0
  0
LINE
  8
1
  6
CONTINUOUS
 62
     3
  5
3BC
 10
564.38225
 20
255.03075
 30
0.0
 11
565.359167
 21
255.436917
 31
0.0
  0
LINE
  8
1
  6
CONTINUOUS
 62
     3
  5
3BD
 10
564.38225
 20
255.03075
 30
0.0
 11
565.576167
 21
254.512
 31
0.0
  0
LINE
  8
1
  6
CONTINUOUS
 62
     3
  5
3BE
 10
565.37275
 20
249.53075
 30
0.0
 11
575.875833
 21
228.050917
 31
0.0
  0
LINE
  8
1
  6
CONTINUOUS
 62
     3
  5
3BF
 10
565.6235
 20
251.294333
 30
0.0
 11
575.88525
 21
230.308
 31
0.0
  0
LINE
  8
1
  6
CONTINUOUS
 62
     3
  5
3C0
 10
565.359167
 20
255.436917
 30
0.0
 11
565.857917
 21
254.677917
 31
0.0
  0
LINE
  8
1
  6
CONTINUOUS
 62
     3
  5
3C1
 10
565.28725
 20
286.628167
 30
0.0
 11
565.359167
 21
255.436917
 31
0.0
  0
LINE
  8
1
  6
CONTINUOUS
 62
     3
  5
3C2
 10
565.37275
 20
249.53075
 30
0.0
 11
565.411917
 21
232.530917
 31
0.0
  0
LINE
  8
1
  6
CONTINUOUS
 62
     3
  5
3C3
 10
576.198667
 20
304.908667
 30
0.0
 11
576.029583
 21
264.659
 31
0.0
  0
LINE
  8
1
  6
CONTINUOUS
 62
     3
  5
3C4
 10
565.576167
 20
254.512
 30
0.0
 11
576.01275
 21
260.659
 31
0.0
  0
LINE
  8
1
  6
CONTINUOUS
 62
     3
  5
3C5
 10
565.628333
 20
253.382167
 30
0.0
 11
576.007917
 21
259.495583
 31
0.0
  0
LINE
  8
1
  6
CONTINUOUS
 62
     3
  5
3C6
 10
583.739
 20
340.464833
 30
0.0
 11
580.299583
 21
330.1445
 31
0.0
  0
LINE
  8
1
  6
CONTINUOUS
 62
     3
  5
3C7
 10
584.864083
 20
340.677917
 30
0.0
 11
581.424667
 21
330.3575
 31
0.0
  0
LINE
  8
1
  6
CONTINUOUS
 62
     3
  5
3C8
 10
569.702333
 20
337.806333
 30
0.0
 11
583.739
 21
340.464833
 31
0.0
  0
LINE
  8
1
  6
CONTINUOUS
 62
     3
  5
3C9
 10
584.864083
 20
340.677917
 30
0.0
 11
587.669083
 21
341.209167
 31
0.0
  0
LINE
  8
1
  6
CONTINUOUS
 62
     3
  5
3CA
 10
580.062583
 20
328.064
 30
0.0
 11
584.99875
 21
323.401083
 31
0.0
  0
LINE
  8
1
  6
CONTINUOUS
 62
     3
  5
3CB
 10
581.275583
 20
328.29375
 30
0.0
 11
586.211833
 21
323.63075
 31
0.0
  0
LINE
  8
1
  6
CONTINUOUS
 62
     3
  5
3CC
 10
578.366583
 20
322.144917
 30
0.0
 11
584.99875
 21
323.401083
 31
0.0
  0
LINE
  8
1
  6
CONTINUOUS
 62
     3
  5
3CD
 10
587.439917
 20
323.863333
 30
0.0
 11
588.826583
 21
329.723917
 31
0.0
  0
LINE
  8
1
  6
CONTINUOUS
 62
     3
  5
3CE
 10
588.73525
 20
324.99475
 30
0.0
 11
589.902417
 21
329.927667
 31
0.0
  0
LINE
  8
1
  6
CONTINUOUS
 62
     3
  5
3CF
 10
586.21175
 20
323.630667
 30
0.0
 11
587.439917
 21
323.863333
 31
0.0
  0
LINE
  8
1
  6
CONTINUOUS
 62
     3
  5
3D0
 10
579.9025
 20
307.645583
 30
0.0
 11
592.266417
 21
327.392167
 31
0.0
  0
LINE
  8
1
  6
CONTINUOUS
 62
     3
  5
3D1
 10
581.241083
 20
307.899083
 30
0.0
 11
592.6765
 21
326.16275
 31
0.0
  0
LINE
  8
1
  6
CONTINUOUS
 62
     3
  5
3D2
 10
588.444
 20
324.05325
 30
0.0
 11
590.409083
 21
324.42575
 31
0.0
  0
LINE
  8
1
  6
CONTINUOUS
 62
     3
  5
3D3
 10
591.74775
 20
324.679583
 30
0.0
 11
593.193583
 21
324.953583
 31
0.0
  0
LINE
  8
1
  6
CONTINUOUS
 62
     3
  5
3D4
 10
578.37525
 20
320.111083
 30
0.0
 11
588.963167
 21
322.116417
 31
0.0
  0
LINE
  8
1
  6
CONTINUOUS
 62
     3
  5
3D5
 10
590.301667
 20
322.369917
 30
0.0
 11
592.4165
 21
322.770417
 31
0.0
  0
LINE
  8
1
  6
CONTINUOUS
 62
     3
  5
3D6
 10
578.428667
 20
307.366417
 30
0.0
 11
579.9025
 21
307.645583
 31
0.0
  0
LINE
  8
1
  6
CONTINUOUS
 62
     3
  5
3D7
 10
593.706
 20
310.259917
 30
0.0
 11
579.926917
 21
307.65075
 31
0.0
  0
LINE
  8
1
  6
CONTINUOUS
 62
     3
  5
3D8
 10
588.444
 20
324.05325
 30
0.0
 11
593.0195
 21
328.05
 31
0.0
  0
LINE
  8
1
  6
CONTINUOUS
 62
     3
  5
3D9
 10
587.439917
 20
323.863333
 30
0.0
 11
593.139417
 21
328.841917
 31
0.0
  0
LINE
  8
1
  6
CONTINUOUS
 62
     3
  5
3DA
 10
566.895083
 20
317.936667
 30
0.0
 11
570.825417
 21
318.681
 31
0.0
  0
LINE
  8
1
  6
CONTINUOUS
 62
     3
  5
3DB
 10
572.57
 20
319.0115
 30
0.0
 11
576.260917
 21
319.710583
 31
0.0
  0
LINE
  8
1
  6
CONTINUOUS
 62
     3
  5
3DC
 10
572.57
 20
319.0115
 30
0.0
 11
576.25125
 21
317.40725
 31
0.0
  0
LINE
  8
1
  6
CONTINUOUS
 62
     3
  5
3DD
 10
570.825417
 20
318.681
 30
0.0
 11
576.246667
 21
316.318417
 31
0.0
  0
LINE
  8
1
  6
CONTINUOUS
 62
     3
  5
3DE
 10
578.3905
 20
316.474917
 30
0.0
 11
583.921583
 21
314.0645
 31
0.0
  0
LINE
  8
1
  6
CONTINUOUS
 62
     3
  5
3DF
 10
584.8485
 20
313.6605
 30
0.0
 11
592.970833
 21
310.12075
 31
0.0
  0
LINE
  8
1
  6
CONTINUOUS
 62
     3
  5
3E0
 10
578.395083
 20
315.382167
 30
0.0
 11
583.385
 21
313.2075
 31
0.0
  0
LINE
  8
1
  6
CONTINUOUS
 62
     3
  5
3E1
 10
584.311917
 20
312.803583
 30
0.0
 11
591.226083
 21
309.790333
 31
0.0
  0
LINE
  8
1
  6
CONTINUOUS
 62
     3
  5
3E2
 10
565.37275
 20
249.53075
 30
0.0
 11
565.41075
 21
233.0365
 31
0.0
  0
LINE
  8
1
  6
CONTINUOUS
 62
     3
  5
3E3
 10
564.254917
 20
230.016
 30
0.0
 11
564.254917
 21
227.016
 31
0.0
  0
LINE
  8
1
  6
CONTINUOUS
 62
     3
  5
3E4
 10
571.254917
 20
233.016
 30
0.0
 11
571.254917
 21
230.016
 31
0.0
  0
LINE
  8
1
  6
CONTINUOUS
 62
     3
  5
3E5
 10
557.254917
 20
233.016
 30
0.0
 11
557.254917
 21
230.016
 31
0.0
  0
LINE
  8
1
  6
CONTINUOUS
 62
     3
  5
3E6
 10
557.254917
 20
233.016
 30
0.0
 11
564.254917
 21
230.016
 31
0.0
  0
LINE
  8
1
  6
CONTINUOUS
 62
     3
  5
3E7
 10
571.254917
 20
233.016
 30
0.0
 11
564.254917
 21
230.016
 31
0.0
  0
LINE
  8
1
  6
CONTINUOUS
 62
     3
  5
3E8
 10
563.000083
 20
235.47825
 30
0.0
 11
557.254917
 21
233.016
 31
0.0
  0
LINE
  8
1
  6
CONTINUOUS
 62
     3
  5
3E9
 10
565.492417
 20
235.485667
 30
0.0
 11
571.254917
 21
233.016
 31
0.0
  0
LINE
  8
1
  6
CONTINUOUS
 62
     3
  5
3EA
 10
562.997583
 20
234.389167
 30
0.0
 11
560.86575
 21
233.475583
 31
0.0
  0
LINE
  8
1
  6
CONTINUOUS
 62
     3
  5
3EB
 10
560.865667
 20
232.556417
 30
0.0
 11
563.861083
 21
231.27275
 31
0.0
  0
LINE
  8
1
  6
CONTINUOUS
 62
     3
  5
3EC
 10
567.644
 20
232.5565
 30
0.0
 11
564.648917
 21
231.27275
 31
0.0
  0
LINE
  8
1
  6
CONTINUOUS
 62
     3
  5
3ED
 10
565.494917
 20
234.396583
 30
0.0
 11
567.644
 21
233.475583
 31
0.0
  0
ARC
  8
1
  6
CONTINUOUS
 62
     3
  5
3EE
 10
561.062671
 20
233.015969
 30
0.0
 40
0.5
 50
113.197989
 51
246.799217
210
0.0
220
0.0
230
1.0
  0
ARC
  8
1
  6
CONTINUOUS
 62
     3
  5
3EF
 10
567.447029
 20
233.016041
 30
0.0
 40
0.5
 50
293.196586
 51
66.799739
210
0.0
220
0.0
230
1.0
  0
ARC
  8
1
  6
CONTINUOUS
 62
     3
  5
3F0
 10
564.254916
 20
231.647919
 30
0.0
 40
0.5
 50
246.803572
 51
293.198864
210
0.0
220
0.0
230
1.0
  0
ARC
  8
1
  6
CONTINUOUS
 62
     3
  5
3F1
 10
564.25492
 20
232.191889
 30
0.0
 40
1.0
 50
246.804067
 51
293.201397
210
0.0
220
0.0
230
1.0
  0
POLYLINE
  8
1
  6
CONTINUOUS
 62
     3
  5
3F2
 66
     1
 10
0.0
 20
0.0
 30
0.0
  0
VERTEX
  8
1
  6
CONTINUOUS
 62
     3
  5
3F3
 10
557.254917
 20
230.016
 30
0.0
  0
VERTEX
  8
1
  6
CONTINUOUS
 62
     3
  5
3F4
 10
557.446833
 20
230.122833
 30
0.0
  0
VERTEX
  8
1
  6
CONTINUOUS
 62
     3
  5
3F5
 10
557.723083
 20
229.925417
 30
0.0
  0
VERTEX
  8
1
  6
CONTINUOUS
 62
     3
  5
3F6
 10
558.078167
 20
229.609667
 30
0.0
  0
VERTEX
  8
1
  6
CONTINUOUS
 62
     3
  5
3F7
 10
558.47275
 20
229.649167
 30
0.0
  0
VERTEX
  8
1
  6
CONTINUOUS
 62
     3
  5
3F8
 10
558.670083
 20
229.609667
 30
0.0
  0
VERTEX
  8
1
  6
CONTINUOUS
 62
     3
  5
3F9
 10
559.064667
 20
229.412333
 30
0.0
  0
VERTEX
  8
1
  6
CONTINUOUS
 62
     3
  5
3FA
 10
559.656583
 20
228.978083
 30
0.0
  0
VERTEX
  8
1
  6
CONTINUOUS
 62
     3
  5
3FB
 10
559.7355
 20
228.938583
 30
0.0
  0
VERTEX
  8
1
  6
CONTINUOUS
 62
     3
  5
3FC
 10
560.209
 20
228.899167
 30
0.0
  0
VERTEX
  8
1
  6
CONTINUOUS
 62
     3
  5
3FD
 10
560.800917
 20
228.583333
 30
0.0
  0
VERTEX
  8
1
  6
CONTINUOUS
 62
     3
  5
3FE
 10
561.037667
 20
228.543917
 30
0.0
  0
VERTEX
  8
1
  6
CONTINUOUS
 62
     3
  5
3FF
 10
561.116583
 20
228.464917
 30
0.0
  0
VERTEX
  8
1
  6
CONTINUOUS
 62
     3
  5
400
 10
561.353333
 20
228.228083
 30
0.0
  0
VERTEX
  8
1
  6
CONTINUOUS
 62
     3
  5
401
 10
561.392833
 20
228.188667
 30
0.0
  0
VERTEX
  8
1
  6
CONTINUOUS
 62
     3
  5
402
 10
561.511167
 20
228.07025
 30
0.0
  0
VERTEX
  8
1
  6
CONTINUOUS
 62
     3
  5
403
 10
561.905833
 20
227.833417
 30
0.0
  0
VERTEX
  8
1
  6
CONTINUOUS
 62
     3
  5
404
 10
562.2215
 20
227.754417
 30
0.0
  0
VERTEX
  8
1
  6
CONTINUOUS
 62
     3
  5
405
 10
562.537167
 20
227.754417
 30
0.0
  0
VERTEX
  8
1
  6
CONTINUOUS
 62
     3
  5
406
 10
562.97125
 20
227.636
 30
0.0
  0
VERTEX
  8
1
  6
CONTINUOUS
 62
     3
  5
407
 10
563.326333
 20
227.557083
 30
0.0
  0
VERTEX
  8
1
  6
CONTINUOUS
 62
     3
  5
408
 10
563.642
 20
227.478167
 30
0.0
  0
VERTEX
  8
1
  6
CONTINUOUS
 62
     3
  5
409
 10
563.799917
 20
227.35975
 30
0.0
  0
VERTEX
  8
1
  6
CONTINUOUS
 62
     3
  5
40A
 10
563.95775
 20
227.241333
 30
0.0
  0
VERTEX
  8
1
  6
CONTINUOUS
 62
     3
  5
40B
 10
564.352333
 20
226.807083
 30
0.0
  0
VERTEX
  8
1
  6
CONTINUOUS
 62
     3
  5
40C
 10
564.470667
 20
226.807083
 30
0.0
  0
VERTEX
  8
1
  6
CONTINUOUS
 62
     3
  5
40D
 10
564.470667
 20
226.886
 30
0.0
  0
VERTEX
  8
1
  6
CONTINUOUS
 62
     3
  5
40E
 10
564.254917
 20
227.016
 30
0.0
  0
SEQEND
  8
1
  6
CONTINUOUS
 62
     3
  5
40F
  0
POLYLINE
  8
1
  6
CONTINUOUS
 62
     3
  5
410
 66
     1
 10
0.0
 20
0.0
 30
0.0
  0
VERTEX
  8
1
  6
CONTINUOUS
 62
     3
  5
411
 10
564.273583
 20
227.00475
 30
0.0
  0
VERTEX
  8
1
  6
CONTINUOUS
 62
     3
  5
412
 10
564.983667
 20
227.043917
 30
0.0
  0
VERTEX
  8
1
  6
CONTINUOUS
 62
     3
  5
413
 10
565.772833
 20
227.399167
 30
0.0
  0
VERTEX
  8
1
  6
CONTINUOUS
 62
     3
  5
414
 10
566.1675
 20
227.596583
 30
0.0
  0
VERTEX
  8
1
  6
CONTINUOUS
 62
     3
  5
415
 10
566.483167
 20
227.793917
 30
0.0
  0
VERTEX
  8
1
  6
CONTINUOUS
 62
     3
  5
416
 10
566.996167
 20
227.99125
 30
0.0
  0
VERTEX
  8
1
  6
CONTINUOUS
 62
     3
  5
417
 10
567.39075
 20
228.149167
 30
0.0
  0
VERTEX
  8
1
  6
CONTINUOUS
 62
     3
  5
418
 10
567.90375
 20
228.464917
 30
0.0
  0
VERTEX
  8
1
  6
CONTINUOUS
 62
     3
  5
419
 10
568.456167
 20
228.662333
 30
0.0
  0
VERTEX
  8
1
  6
CONTINUOUS
 62
     3
  5
41A
 10
569.561
 20
229.175417
 30
0.0
  0
VERTEX
  8
1
  6
CONTINUOUS
 62
     3
  5
41B
 10
569.639917
 20
229.254417
 30
0.0
  0
VERTEX
  8
1
  6
CONTINUOUS
 62
     3
  5
41C
 10
569.79775
 20
229.649167
 30
0.0
  0
VERTEX
  8
1
  6
CONTINUOUS
 62
     3
  5
41D
 10
569.83725
 20
229.649167
 30
0.0
  0
VERTEX
  8
1
  6
CONTINUOUS
 62
     3
  5
41E
 10
570.1135
 20
229.807
 30
0.0
  0
VERTEX
  8
1
  6
CONTINUOUS
 62
     3
  5
41F
 10
570.35025
 20
229.925417
 30
0.0
  0
VERTEX
  8
1
  6
CONTINUOUS
 62
     3
  5
420
 10
570.82375
 20
230.122833
 30
0.0
  0
VERTEX
  8
1
  6
CONTINUOUS
 62
     3
  5
421
 10
570.863167
 20
230.16225
 30
0.0
  0
VERTEX
  8
1
  6
CONTINUOUS
 62
     3
  5
422
 10
571.254917
 20
230.016
 30
0.0
  0
SEQEND
  8
1
  6
CONTINUOUS
 62
     3
  5
423
  0
LINE
  8
1
  6
CONTINUOUS
 62
     3
  5
424
 10
577.34425
 20
211.4025
 30
0.0
 11
577.34425
 21
207.265583
 31
0.0
  0
LINE
  8
1
  6
CONTINUOUS
 62
     3
  5
425
 10
584.34425
 20
214.4025
 30
0.0
 11
584.34425
 21
210.4025
 31
0.0
  0
LINE
  8
1
  6
CONTINUOUS
 62
     3
  5
426
 10
570.34425
 20
214.4025
 30
0.0
 11
570.34425
 21
210.4025
 31
0.0
  0
LINE
  8
1
  6
CONTINUOUS
 62
     3
  5
427
 10
570.34425
 20
214.4025
 30
0.0
 11
577.34425
 21
211.4025
 31
0.0
  0
LINE
  8
1
  6
CONTINUOUS
 62
     3
  5
428
 10
584.34425
 20
214.4025
 30
0.0
 11
577.34425
 21
211.4025
 31
0.0
  0
LINE
  8
1
  6
CONTINUOUS
 62
     3
  5
429
 10
575.828333
 20
216.752833
 30
0.0
 11
570.34425
 21
214.4025
 31
0.0
  0
LINE
  8
1
  6
CONTINUOUS
 62
     3
  5
42A
 10
578.809417
 20
216.774583
 30
0.0
 11
584.34425
 21
214.4025
 31
0.0
  0
LINE
  8
1
  6
CONTINUOUS
 62
     3
  5
42B
 10
575.82375
 20
215.662917
 30
0.0
 11
573.955083
 21
214.862083
 31
0.0
  0
LINE
  8
1
  6
CONTINUOUS
 62
     3
  5
42C
 10
573.955
 20
213.942917
 30
0.0
 11
576.950417
 21
212.65925
 31
0.0
  0
LINE
  8
1
  6
CONTINUOUS
 62
     3
  5
42D
 10
580.733333
 20
213.943
 30
0.0
 11
577.73825
 21
212.65925
 31
0.0
  0
LINE
  8
1
  6
CONTINUOUS
 62
     3
  5
42E
 10
578.814
 20
215.684667
 30
0.0
 11
580.733333
 21
214.862083
 31
0.0
  0
ARC
  8
1
  6
CONTINUOUS
 62
     3
  5
42F
 10
574.152004
 20
214.402469
 30
0.0
 40
0.5
 50
113.197989
 51
246.799217
210
0.0
220
0.0
230
1.0
  0
ARC
  8
1
  6
CONTINUOUS
 62
     3
  5
430
 10
580.536363
 20
214.402541
 30
0.0
 40
0.5
 50
293.196586
 51
66.799739
210
0.0
220
0.0
230
1.0
  0
ARC
  8
1
  6
CONTINUOUS
 62
     3
  5
431
 10
577.34425
 20
213.034419
 30
0.0
 40
0.5
 50
246.803572
 51
293.198864
210
0.0
220
0.0
230
1.0
  0
ARC
  8
1
  6
CONTINUOUS
 62
     3
  5
432
 10
577.344253
 20
213.578389
 30
0.0
 40
1.0
 50
246.804067
 51
293.201397
210
0.0
220
0.0
230
1.0
  0
POLYLINE
  8
1
  6
CONTINUOUS
 62
     3
  5
433
 66
     1
 10
0.0
 20
0.0
 30
0.0
  0
VERTEX
  8
1
  6
CONTINUOUS
 62
     3
  5
434
 10
570.226083
 20
210.33675
 30
0.0
  0
VERTEX
  8
1
  6
CONTINUOUS
 62
     3
  5
435
 10
570.418
 20
210.443583
 30
0.0
  0
VERTEX
  8
1
  6
CONTINUOUS
 62
     3
  5
436
 10
570.69425
 20
210.246167
 30
0.0
  0
VERTEX
  8
1
  6
CONTINUOUS
 62
     3
  5
437
 10
571.049333
 20
209.930417
 30
0.0
  0
VERTEX
  8
1
  6
CONTINUOUS
 62
     3
  5
438
 10
571.443917
 20
209.969917
 30
0.0
  0
VERTEX
  8
1
  6
CONTINUOUS
 62
     3
  5
439
 10
571.64125
 20
209.930417
 30
0.0
  0
VERTEX
  8
1
  6
CONTINUOUS
 62
     3
  5
43A
 10
572.035833
 20
209.733083
 30
0.0
  0
VERTEX
  8
1
  6
CONTINUOUS
 62
     3
  5
43B
 10
572.62775
 20
209.298833
 30
0.0
  0
VERTEX
  8
1
  6
CONTINUOUS
 62
     3
  5
43C
 10
572.706667
 20
209.259333
 30
0.0
  0
VERTEX
  8
1
  6
CONTINUOUS
 62
     3
  5
43D
 10
573.180167
 20
209.219917
 30
0.0
  0
VERTEX
  8
1
  6
CONTINUOUS
 62
     3
  5
43E
 10
573.772083
 20
208.904083
 30
0.0
  0
VERTEX
  8
1
  6
CONTINUOUS
 62
     3
  5
43F
 10
574.008833
 20
208.864667
 30
0.0
  0
VERTEX
  8
1
  6
CONTINUOUS
 62
     3
  5
440
 10
574.08775
 20
208.785667
 30
0.0
  0
VERTEX
  8
1
  6
CONTINUOUS
 62
     3
  5
441
 10
574.3245
 20
208.548833
 30
0.0
  0
VERTEX
  8
1
  6
CONTINUOUS
 62
     3
  5
442
 10
574.364
 20
208.509417
 30
0.0
  0
VERTEX
  8
1
  6
CONTINUOUS
 62
     3
  5
443
 10
574.482333
 20
208.391
 30
0.0
  0
VERTEX
  8
1
  6
CONTINUOUS
 62
     3
  5
444
 10
574.877
 20
208.154167
 30
0.0
  0
VERTEX
  8
1
  6
CONTINUOUS
 62
     3
  5
445
 10
575.192667
 20
208.075167
 30
0.0
  0
VERTEX
  8
1
  6
CONTINUOUS
 62
     3
  5
446
 10
575.508333
 20
208.075167
 30
0.0
  0
VERTEX
  8
1
  6
CONTINUOUS
 62
     3
  5
447
 10
575.942417
 20
207.95675
 30
0.0
  0
VERTEX
  8
1
  6
CONTINUOUS
 62
     3
  5
448
 10
576.2975
 20
207.877833
 30
0.0
  0
VERTEX
  8
1
  6
CONTINUOUS
 62
     3
  5
449
 10
576.613167
 20
207.798917
 30
0.0
  0
VERTEX
  8
1
  6
CONTINUOUS
 62
     3
  5
44A
 10
576.771083
 20
207.6805
 30
0.0
  0
VERTEX
  8
1
  6
CONTINUOUS
 62
     3
  5
44B
 10
576.928917
 20
207.562083
 30
0.0
  0
VERTEX
  8
1
  6
CONTINUOUS
 62
     3
  5
44C
 10
577.3235
 20
207.127833
 30
0.0
  0
VERTEX
  8
1
  6
CONTINUOUS
 62
     3
  5
44D
 10
577.441833
 20
207.127833
 30
0.0
  0
VERTEX
  8
1
  6
CONTINUOUS
 62
     3
  5
44E
 10
577.441833
 20
207.20675
 30
0.0
  0
VERTEX
  8
1
  6
CONTINUOUS
 62
     3
  5
44F
 10
577.226083
 20
207.33675
 30
0.0
  0
SEQEND
  8
1
  6
CONTINUOUS
 62
     3
  5
450
  0
POLYLINE
  8
1
  6
CONTINUOUS
 62
     3
  5
451
 66
     1
 10
0.0
 20
0.0
 30
0.0
  0
VERTEX
  8
1
  6
CONTINUOUS
 62
     3
  5
452
 10
577.4045
 20
207.37575
 30
0.0
  0
VERTEX
  8
1
  6
CONTINUOUS
 62
     3
  5
453
 10
578.114583
 20
207.414917
 30
0.0
  0
VERTEX
  8
1
  6
CONTINUOUS
 62
     3
  5
454
 10
578.90375
 20
207.770167
 30
0.0
  0
VERTEX
  8
1
  6
CONTINUOUS
 62
     3
  5
455
 10
579.298417
 20
207.967583
 30
0.0
  0
VERTEX
  8
1
  6
CONTINUOUS
 62
     3
  5
456
 10
579.614083
 20
208.164917
 30
0.0
  0
VERTEX
  8
1
  6
CONTINUOUS
 62
     3
  5
457
 10
580.127083
 20
208.36225
 30
0.0
  0
VERTEX
  8
1
  6
CONTINUOUS
 62
     3
  5
458
 10
580.521667
 20
208.520167
 30
0.0
  0
VERTEX
  8
1
  6
CONTINUOUS
 62
     3
  5
459
 10
581.034667
 20
208.835917
 30
0.0
  0
VERTEX
  8
1
  6
CONTINUOUS
 62
     3
  5
45A
 10
581.587083
 20
209.033333
 30
0.0
  0
VERTEX
  8
1
  6
CONTINUOUS
 62
     3
  5
45B
 10
582.691917
 20
209.546417
 30
0.0
  0
VERTEX
  8
1
  6
CONTINUOUS
 62
     3
  5
45C
 10
582.770833
 20
209.625417
 30
0.0
  0
VERTEX
  8
1
  6
CONTINUOUS
 62
     3
  5
45D
 10
582.928667
 20
210.020167
 30
0.0
  0
VERTEX
  8
1
  6
CONTINUOUS
 62
     3
  5
45E
 10
582.968167
 20
210.020167
 30
0.0
  0
VERTEX
  8
1
  6
CONTINUOUS
 62
     3
  5
45F
 10
583.244417
 20
210.178
 30
0.0
  0
VERTEX
  8
1
  6
CONTINUOUS
 62
     3
  5
460
 10
583.481167
 20
210.296417
 30
0.0
  0
VERTEX
  8
1
  6
CONTINUOUS
 62
     3
  5
461
 10
583.954667
 20
210.493833
 30
0.0
  0
VERTEX
  8
1
  6
CONTINUOUS
 62
     3
  5
462
 10
583.994083
 20
210.53325
 30
0.0
  0
VERTEX
  8
1
  6
CONTINUOUS
 62
     3
  5
463
 10
584.385833
 20
210.387
 30
0.0
  0
SEQEND
  8
1
  6
CONTINUOUS
 62
     3
  5
464
  0
LINE
  8
1
  6
CONTINUOUS
 62
     3
  5
465
 10
576.029583
 20
264.659083
 30
0.0
 11
576.007833
 21
259.4955
 31
0.0
  0
LINE
  8
1
  6
CONTINUOUS
 62
     3
  5
466
 10
578.318917
 20
333.5095
 30
0.0
 11
578.437333
 21
305.332667
 31
0.0
  0
LINE
  8
1
  6
CONTINUOUS
 62
     3
  5
467
 10
573.563333
 20
245.761833
 30
0.0
 11
579.158917
 21
247.479917
 31
0.0
  0
LINE
  8
1
  6
CONTINUOUS
 62
     3
  5
468
 10
576.007833
 20
259.495583
 30
0.0
 11
575.95325
 21
246.495667
 31
0.0
  0
LINE
  8
1
  6
CONTINUOUS
 62
     3
  5
469
 10
575.9095
 20
236.0835
 30
0.0
 11
575.818917
 21
214.5095
 31
0.0
  0
LINE
  8
1
  6
CONTINUOUS
 62
     3
  5
46A
 10
578.437333
 20
305.332667
 30
0.0
 11
578.681
 21
247.333167
 31
0.0
  0
LINE
  8
1
  6
CONTINUOUS
 62
     3
  5
46B
 10
578.724583
 20
236.947833
 30
0.0
 11
578.821
 21
214.009583
 31
0.0
  0
LINE
  8
1
  6
CONTINUOUS
 62
     3
  5
46C
 10
574.403
 20
244.9735
 30
0.0
 11
579.998583
 21
246.691583
 31
0.0
  0
LINE
  8
1
  6
CONTINUOUS
 62
     3
  5
46D
 10
575.03275
 20
244.382333
 30
0.0
 11
580.628333
 21
246.100417
 31
0.0
  0
LINE
  8
1
  6
CONTINUOUS
 62
     3
  5
46E
 10
573.563333
 20
245.761833
 30
0.0
 11
575.03275
 21
244.382333
 31
0.0
  0
LINE
  8
1
  6
CONTINUOUS
 62
     3
  5
46F
 10
579.158917
 20
247.479917
 30
0.0
 11
580.628333
 21
246.100417
 31
0.0
  0
LINE
  8
1
  6
CONTINUOUS
 62
     3
  5
470
 10
573.563333
 20
245.761833
 30
0.0
 11
573.563333
 21
237.215333
 31
0.0
  0
LINE
  8
1
  6
CONTINUOUS
 62
     3
  5
471
 10
574.403
 20
244.9735
 30
0.0
 11
574.403
 21
236.427
 31
0.0
  0
LINE
  8
1
  6
CONTINUOUS
 62
     3
  5
472
 10
575.03275
 20
244.382333
 30
0.0
 11
575.03275
 21
235.835833
 31
0.0
  0
LINE
  8
1
  6
CONTINUOUS
 62
     3
  5
473
 10
573.563333
 20
237.215333
 30
0.0
 11
575.03275
 21
235.835833
 31
0.0
  0
LINE
  8
1
  6
CONTINUOUS
 62
     3
  5
474
 10
575.03275
 20
235.835833
 30
0.0
 11
580.628333
 21
237.553917
 31
0.0
  0
LINE
  8
1
  6
CONTINUOUS
 62
     3
  5
475
 10
580.628333
 20
246.100417
 30
0.0
 11
580.628333
 21
237.553917
 31
0.0
  0
LINE
  8
1
  6
CONTINUOUS
 62
     3
  5
476
 10
575.597833
 20
242.656583
 30
0.0
 11
578.943417
 21
243.683833
 31
0.0
  0
LINE
  8
1
  6
CONTINUOUS
 62
     3
  5
477
 10
575.597833
 20
242.656583
 30
0.0
 11
575.597833
 21
238.294333
 31
0.0
  0
LINE
  8
1
  6
CONTINUOUS
 62
     3
  5
478
 10
576.097833
 20
242.287083
 30
0.0
 11
576.097833
 21
237.924833
 31
0.0
  0
LINE
  8
1
  6
CONTINUOUS
 62
     3
  5
479
 10
576.097833
 20
242.287083
 30
0.0
 11
579.443417
 21
243.314333
 31
0.0
  0
LINE
  8
1
  6
CONTINUOUS
 62
     3
  5
47A
 10
575.597833
 20
242.656583
 30
0.0
 11
576.097833
 21
242.287083
 31
0.0
  0
LINE
  8
1
  6
CONTINUOUS
 62
     3
  5
47B
 10
578.943417
 20
243.683833
 30
0.0
 11
579.443417
 21
243.314333
 31
0.0
  0
LINE
  8
1
  6
CONTINUOUS
 62
     3
  5
47C
 10
579.443417
 20
243.314333
 30
0.0
 11
579.443417
 21
239.111083
 31
0.0
  0
LINE
  8
1
  6
CONTINUOUS
 62
     3
  5
47D
 10
575.597833
 20
238.294333
 30
0.0
 11
576.097833
 21
237.924833
 31
0.0
  0
LINE
  8
1
  6
CONTINUOUS
 62
     3
  5
47E
 10
576.097833
 20
237.924833
 30
0.0
 11
579.443417
 21
239.111083
 31
0.0
  0
LINE
  8
1
  6
CONTINUOUS
 62
     3
  5
47F
 10
579.997917
 20
242.376417
 30
0.0
 11
580.6365
 21
242.5725
 31
0.0
  0
LINE
  8
1
  6
CONTINUOUS
 62
     3
  5
480
 10
579.997917
 20
240.6445
 30
0.0
 11
580.60425
 21
240.830583
 31
0.0
  0
LINE
  8
1
  6
CONTINUOUS
 62
     3
  5
481
 10
579.997917
 20
242.376417
 30
0.0
 11
579.997917
 21
240.6445
 31
0.0
  0
LINE
  8
1
  6
CONTINUOUS
 62
     3
  5
482
 10
580.30425
 20
242.082833
 30
0.0
 11
580.949167
 21
241.76025
 31
0.0
  0
LINE
  8
1
  6
CONTINUOUS
 62
     3
  5
483
 10
580.30425
 20
241.050667
 30
0.0
 11
580.949167
 21
241.37325
 31
0.0
  0
POLYLINE
  8
1
  6
CONTINUOUS
 62
     3
  5
484
 66
     1
 10
0.0
 20
0.0
 30
0.0
210
0.0
220
0.0
230
1.0
  0
VERTEX
  8
1
  6
CONTINUOUS
 62
     3
  5
485
 10
580.949167
 20
241.37325
 30
0.0
 42
0.070429
  0
VERTEX
  8
1
  6
CONTINUOUS
 62
     3
  5
486
 10
580.975157
 20
241.376968
 30
0.0
 42
0.065182
  0
VERTEX
  8
1
  6
CONTINUOUS
 62
     3
  5
487
 10
581.000149
 20
241.387979
 30
0.0
 42
0.057266
  0
VERTEX
  8
1
  6
CONTINUOUS
 62
     3
  5
488
 10
581.023181
 20
241.405861
 30
0.0
 42
0.049392
  0
VERTEX
  8
1
  6
CONTINUOUS
 62
     3
  5
489
 10
581.04337
 20
241.429925
 30
0.0
 42
0.042975
  0
VERTEX
  8
1
  6
CONTINUOUS
 62
     3
  5
48A
 10
581.059938
 20
241.459247
 30
0.0
 42
0.038359
  0
VERTEX
  8
1
  6
CONTINUOUS
 62
     3
  5
48B
 10
581.072249
 20
241.492701
 30
0.0
 42
0.035441
  0
VERTEX
  8
1
  6
CONTINUOUS
 62
     3
  5
48C
 10
581.07983
 20
241.529
 30
0.0
 42
0.034039
  0
VERTEX
  8
1
  6
CONTINUOUS
 62
     3
  5
48D
 10
581.08239
 20
241.56675
 30
0.0
 42
0.034039
  0
VERTEX
  8
1
  6
CONTINUOUS
 62
     3
  5
48E
 10
581.07983
 20
241.6045
 30
0.0
 42
0.035441
  0
VERTEX
  8
1
  6
CONTINUOUS
 62
     3
  5
48F
 10
581.072249
 20
241.640799
 30
0.0
 42
0.038359
  0
VERTEX
  8
1
  6
CONTINUOUS
 62
     3
  5
490
 10
581.059938
 20
241.674253
 30
0.0
 42
0.042975
  0
VERTEX
  8
1
  6
CONTINUOUS
 62
     3
  5
491
 10
581.04337
 20
241.703575
 30
0.0
 42
0.049392
  0
VERTEX
  8
1
  6
CONTINUOUS
 62
     3
  5
492
 10
581.023181
 20
241.727639
 30
0.0
 42
0.057266
  0
VERTEX
  8
1
  6
CONTINUOUS
 62
     3
  5
493
 10
581.000149
 20
241.745521
 30
0.0
 42
0.065182
  0
VERTEX
  8
1
  6
CONTINUOUS
 62
     3
  5
494
 10
580.975157
 20
241.756532
 30
0.0
 42
0.070429
  0
VERTEX
  8
1
  6
CONTINUOUS
 62
     3
  5
495
 10
580.949167
 20
241.76025
 30
0.0
 42
0.070429
  0
SEQEND
  8
1
  6
CONTINUOUS
 62
     3
  5
496
  0
POLYLINE
  8
1
  6
CONTINUOUS
 62
     3
  5
497
 66
     1
 10
0.0
 20
0.0
 30
0.0
210
0.0
220
0.0
230
1.0
  0
VERTEX
  8
1
  6
CONTINUOUS
 62
     3
  5
498
 10
581.447706
 20
241.246609
 30
0.0
 42
0.030398
  0
VERTEX
  8
1
  6
CONTINUOUS
 62
     3
  5
499
 10
581.395016
 20
241.332656
 30
0.0
 42
0.031851
  0
VERTEX
  8
1
  6
CONTINUOUS
 62
     3
  5
49A
 10
581.333557
 20
241.409729
 30
0.0
 42
0.034893
  0
VERTEX
  8
1
  6
CONTINUOUS
 62
     3
  5
49B
 10
581.265609
 20
241.474968
 30
0.0
 42
0.039853
  0
VERTEX
  8
1
  6
CONTINUOUS
 62
     3
  5
49C
 10
581.193696
 20
241.52595
 30
0.0
 42
0.047114
  0
VERTEX
  8
1
  6
CONTINUOUS
 62
     3
  5
49D
 10
581.120486
 20
241.560783
 30
0.0
 42
0.056712
  0
VERTEX
  8
1
  6
CONTINUOUS
 62
     3
  5
49E
 10
581.048699
 20
241.578173
 30
0.0
 42
0.067363
  0
VERTEX
  8
1
  6
CONTINUOUS
 62
     3
  5
49F
 10
580.980999
 20
241.577474
 30
0.0
 42
0.075412
  0
VERTEX
  8
1
  6
CONTINUOUS
 62
     3
  5
4A0
 10
580.9199
 20
241.558713
 30
0.0
 42
0.076359
  0
VERTEX
  8
1
  6
CONTINUOUS
 62
     3
  5
4A1
 10
580.86767
 20
241.522586
 30
0.0
 42
0.069574
  0
VERTEX
  8
1
  6
CONTINUOUS
 62
     3
  5
4A2
 10
580.826248
 20
241.470434
 30
0.0
 42
0.059104
  0
VERTEX
  8
1
  6
CONTINUOUS
 62
     3
  5
4A3
 10
580.797172
 20
241.404194
 30
0.0
 42
0.049083
  0
VERTEX
  8
1
  6
CONTINUOUS
 62
     3
  5
4A4
 10
580.781522
 20
241.326325
 30
0.0
 42
0.041273
  0
VERTEX
  8
1
  6
CONTINUOUS
 62
     3
  5
4A5
 10
580.779879
 20
241.239717
 30
0.0
 42
0.035826
  0
VERTEX
  8
1
  6
CONTINUOUS
 62
     3
  5
4A6
 10
580.792302
 20
241.147586
 30
0.0
 42
0.032386
  0
VERTEX
  8
1
  6
CONTINUOUS
 62
     3
  5
4A7
 10
580.818333
 20
241.053354
 30
0.0
 42
0.032386
  0
SEQEND
  8
1
  6
CONTINUOUS
 62
     3
  5
4A8
  0
LINE
  8
1
  6
CONTINUOUS
 62
     3
  5
4A9
 10
580.581167
 20
240.9805
 30
0.0
 11
581.697667
 21
241.323333
 31
0.0
  0
LINE
  8
1
  6
CONTINUOUS
 62
     3
  5
4AA
 10
580.881667
 20
240.00175
 30
0.0
 11
581.998167
 21
240.344583
 31
0.0
  0
LINE
  8
1
  6
CONTINUOUS
 62
     3
  5
4AB
 10
581.697667
 20
241.323333
 30
0.0
 11
581.998167
 21
240.344583
 31
0.0
  0
LINE
  8
1
  6
CONTINUOUS
 62
     3
  5
4AC
 10
580.581167
 20
240.9805
 30
0.0
 11
580.881667
 21
240.00175
 31
0.0
  0
LINE
  8
1
  6
CONTINUOUS
 62
     3
  5
4AD
 10
556.800667
 20
200.192167
 30
0.0
 11
563.625167
 21
193.828167
 31
0.0
  0
LINE
  8
1
  6
CONTINUOUS
 62
     3
  5
4AE
 10
556.800667
 20
200.192167
 30
0.0
 11
550.436667
 21
193.828167
 31
0.0
  0
LINE
  8
1
  6
CONTINUOUS
 62
     3
  5
4AF
 10
556.800667
 20
187.464167
 30
0.0
 11
550.436667
 21
193.828167
 31
0.0
  0
LINE
  8
1
  6
CONTINUOUS
 62
     3
  5
4B0
 10
556.800667
 20
187.464167
 30
0.0
 11
563.625167
 21
193.828167
 31
0.0
  0
LINE
  8
1
  6
CONTINUOUS
 62
     3
  5
4B1
 10
556.812667
 20
199.497083
 30
0.0
 11
551.14375
 21
193.828167
 31
0.0
  0
LINE
  8
1
  6
CONTINUOUS
 62
     3
  5
4B2
 10
556.812667
 20
199.497083
 30
0.0
 11
562.891917
 21
193.828083
 31
0.0
  0
LINE
  8
1
  6
CONTINUOUS
 62
     3
  5
4B3
 10
556.812667
 20
188.159167
 30
0.0
 11
562.891917
 21
193.828083
 31
0.0
  0
LINE
  8
1
  6
CONTINUOUS
 62
     3
  5
4B4
 10
556.812667
 20
188.159167
 30
0.0
 11
551.14375
 21
193.828167
 31
0.0
  0
LINE
  8
1
  6
CONTINUOUS
 62
     3
  5
4B5
 10
550.436667
 20
193.828167
 30
0.0
 11
550.436667
 21
192.828167
 31
0.0
  0
LINE
  8
1
  6
CONTINUOUS
 62
     3
  5
4B6
 10
556.800667
 20
187.464167
 30
0.0
 11
556.800667
 21
186.464167
 31
0.0
  0
LINE
  8
1
  6
CONTINUOUS
 62
     3
  5
4B7
 10
563.625167
 20
193.828167
 30
0.0
 11
563.625167
 21
192.828167
 31
0.0
  0
POLYLINE
  8
1
  6
CONTINUOUS
 62
     3
  5
4B8
 66
     1
 10
0.0
 20
0.0
 30
0.0
  0
VERTEX
  8
1
  6
CONTINUOUS
 62
     3
  5
4B9
 10
550.436667
 20
192.828167
 30
0.0
  0
VERTEX
  8
1
  6
CONTINUOUS
 62
     3
  5
4BA
 10
551.008583
 20
192.341333
 30
0.0
  0
VERTEX
  8
1
  6
CONTINUOUS
 62
     3
  5
4BB
 10
551.653833
 20
191.81325
 30
0.0
  0
VERTEX
  8
1
  6
CONTINUOUS
 62
     3
  5
4BC
 10
551.9765
 20
191.5785
 30
0.0
  0
VERTEX
  8
1
  6
CONTINUOUS
 62
     3
  5
4BD
 10
552.299167
 20
191.197083
 30
0.0
  0
VERTEX
  8
1
  6
CONTINUOUS
 62
     3
  5
4BE
 10
552.504417
 20
190.874333
 30
0.0
  0
VERTEX
  8
1
  6
CONTINUOUS
 62
     3
  5
4BF
 10
552.70975
 20
190.668917
 30
0.0
  0
VERTEX
  8
1
  6
CONTINUOUS
 62
     3
  5
4C0
 10
553.003083
 20
190.170083
 30
0.0
  0
VERTEX
  8
1
  6
CONTINUOUS
 62
     3
  5
4C1
 10
553.472417
 20
190.111417
 30
0.0
  0
VERTEX
  8
1
  6
CONTINUOUS
 62
     3
  5
4C2
 10
553.736417
 20
189.642
 30
0.0
  0
VERTEX
  8
1
  6
CONTINUOUS
 62
     3
  5
4C3
 10
554.029667
 20
189.31925
 30
0.0
  0
VERTEX
  8
1
  6
CONTINUOUS
 62
     3
  5
4C4
 10
554.293667
 20
188.967167
 30
0.0
  0
VERTEX
  8
1
  6
CONTINUOUS
 62
     3
  5
4C5
 10
554.792333
 20
188.644417
 30
0.0
  0
VERTEX
  8
1
  6
CONTINUOUS
 62
     3
  5
4C6
 10
554.997667
 20
188.585667
 30
0.0
  0
VERTEX
  8
1
  6
CONTINUOUS
 62
     3
  5
4C7
 10
555.290917
 20
188.086917
 30
0.0
  0
VERTEX
  8
1
  6
CONTINUOUS
 62
     3
  5
4C8
 10
555.349583
 20
187.940167
 30
0.0
  0
VERTEX
  8
1
  6
CONTINUOUS
 62
     3
  5
4C9
 10
555.84825
 20
187.529417
 30
0.0
  0
VERTEX
  8
1
  6
CONTINUOUS
 62
     3
  5
4CA
 10
555.906917
 20
187.500083
 30
0.0
  0
VERTEX
  8
1
  6
CONTINUOUS
 62
     3
  5
4CB
 10
556.20025
 20
187.118667
 30
0.0
  0
VERTEX
  8
1
  6
CONTINUOUS
 62
     3
  5
4CC
 10
556.55225
 20
186.942583
 30
0.0
  0
VERTEX
  8
1
  6
CONTINUOUS
 62
     3
  5
4CD
 10
556.800667
 20
186.464167
 30
0.0
  0
VERTEX
  8
1
  6
CONTINUOUS
 62
     3
  5
4CE
 10
557.3735
 20
187.089333
 30
0.0
  0
VERTEX
  8
1
  6
CONTINUOUS
 62
     3
  5
4CF
 10
557.930833
 20
187.412083
 30
0.0
  0
VERTEX
  8
1
  6
CONTINUOUS
 62
     3
  5
4D0
 10
558.28275
 20
187.822833
 30
0.0
  0
VERTEX
  8
1
  6
CONTINUOUS
 62
     3
  5
4D1
 10
558.54675
 20
188.057583
 30
0.0
  0
VERTEX
  8
1
  6
CONTINUOUS
 62
     3
  5
4D2
 10
558.928083
 20
188.321667
 30
0.0
  0
VERTEX
  8
1
  6
CONTINUOUS
 62
     3
  5
4D3
 10
559.25075
 20
188.615
 30
0.0
  0
VERTEX
  8
1
  6
CONTINUOUS
 62
     3
  5
4D4
 10
559.368
 20
188.820417
 30
0.0
  0
VERTEX
  8
1
  6
CONTINUOUS
 62
     3
  5
4D5
 10
559.632
 20
189.1725
 30
0.0
  0
VERTEX
  8
1
  6
CONTINUOUS
 62
     3
  5
4D6
 10
559.896
 20
189.40725
 30
0.0
  0
VERTEX
  8
1
  6
CONTINUOUS
 62
     3
  5
4D7
 10
560.101333
 20
189.847333
 30
0.0
  0
VERTEX
  8
1
  6
CONTINUOUS
 62
     3
  5
4D8
 10
560.365333
 20
190.111417
 30
0.0
  0
VERTEX
  8
1
  6
CONTINUOUS
 62
     3
  5
4D9
 10
560.570667
 20
190.228833
 30
0.0
  0
VERTEX
  8
1
  6
CONTINUOUS
 62
     3
  5
4DA
 10
561.098583
 20
190.316833
 30
0.0
  0
VERTEX
  8
1
  6
CONTINUOUS
 62
     3
  5
4DB
 10
561.362583
 20
190.346167
 30
0.0
  0
VERTEX
  8
1
  6
CONTINUOUS
 62
     3
  5
4DC
 10
561.831917
 20
191.197083
 30
0.0
  0
VERTEX
  8
1
  6
CONTINUOUS
 62
     3
  5
4DD
 10
561.86125
 20
191.226417
 30
0.0
  0
VERTEX
  8
1
  6
CONTINUOUS
 62
     3
  5
4DE
 10
561.919917
 20
191.402417
 30
0.0
  0
VERTEX
  8
1
  6
CONTINUOUS
 62
     3
  5
4DF
 10
562.0665
 20
191.637167
 30
0.0
  0
VERTEX
  8
1
  6
CONTINUOUS
 62
     3
  5
4E0
 10
562.2425
 20
191.930583
 30
0.0
  0
VERTEX
  8
1
  6
CONTINUOUS
 62
     3
  5
4E1
 10
562.447833
 20
192.077333
 30
0.0
  0
VERTEX
  8
1
  6
CONTINUOUS
 62
     3
  5
4E2
 10
562.741167
 20
192.341333
 30
0.0
  0
VERTEX
  8
1
  6
CONTINUOUS
 62
     3
  5
4E3
 10
562.7705
 20
192.370667
 30
0.0
  0
VERTEX
  8
1
  6
CONTINUOUS
 62
     3
  5
4E4
 10
562.9465
 20
192.400083
 30
0.0
  0
VERTEX
  8
1
  6
CONTINUOUS
 62
     3
  5
4E5
 10
563.0345
 20
192.400083
 30
0.0
  0
VERTEX
  8
1
  6
CONTINUOUS
 62
     3
  5
4E6
 10
563.327833
 20
192.45875
 30
0.0
  0
VERTEX
  8
1
  6
CONTINUOUS
 62
     3
  5
4E7
 10
563.625167
 20
192.828167
 30
0.0
  0
SEQEND
  8
1
  6
CONTINUOUS
 62
     3
  5
4E8
  0
LINE
  8
1
  6
HIDDEN
 62
     3
  5
4E9
 10
560.1665
 20
197.01925
 30
0.0
 11
572.027333
 21
209.73825
 31
0.0
  0
LINE
  8
1
  6
HIDDEN
 62
     3
  5
4EA
 10
560.897833
 20
196.337167
 30
0.0
 11
572.758667
 21
209.056167
 31
0.0
  0
LINE
  8
1
  6
HIDDEN
 62
     3
  5
4EB
 10
537.708667
 20
213.627083
 30
0.0
 11
553.972167
 21
197.363667
 31
0.0
  0
LINE
  8
1
  6
HIDDEN
 62
     3
  5
4EC
 10
561.029
 20
190.306833
 30
0.0
 11
576.265417
 21
175.070417
 31
0.0
  0
LINE
  8
1
  6
HIDDEN
 62
     3
  5
4ED
 10
537.0015
 20
212.919917
 30
0.0
 11
553.265
 21
196.6565
 31
0.0
  0
LINE
  8
1
  6
HIDDEN
 62
     3
  5
4EE
 10
560.090083
 20
189.831333
 30
0.0
 11
575.55825
 21
174.36325
 31
0.0
  0
LINE
  8
1
  6
HIDDEN
 62
     3
  5
4EF
 10
577.318917
 20
328.677417
 30
0.0
 11
577.318917
 21
246.914917
 31
0.0
  0
CIRCLE
  8
1
  6
CONTINUOUS
 62
     3
  5
4F0
 10
577.318833
 20
329.221
 30
0.0
 40
0.5
210
0.0
220
0.0
230
1.0
  0
POLYLINE
  8
1
  6
CONTINUOUS
 62
     3
  5
4F1
 66
     1
 10
0.0
 20
0.0
 30
0.0
  0
VERTEX
  8
1
  6
CONTINUOUS
 62
     3
  5
4F2
 10
577.293583
 20
328.792583
 30
0.0
  0
VERTEX
  8
1
  6
CONTINUOUS
 62
     3
  5
4F3
 10
577.205417
 20
328.616167
 30
0.0
  0
VERTEX
  8
1
  6
CONTINUOUS
 62
     3
  5
4F4
 10
577.18025
 20
328.553167
 30
0.0
  0
VERTEX
  8
1
  6
CONTINUOUS
 62
     3
  5
4F5
 10
576.9535
 20
328.162583
 30
0.0
  0
VERTEX
  8
1
  6
CONTINUOUS
 62
     3
  5
4F6
 10
576.85275
 20
327.847583
 30
0.0
  0
VERTEX
  8
1
  6
CONTINUOUS
 62
     3
  5
4F7
 10
576.739333
 20
327.482167
 30
0.0
  0
VERTEX
  8
1
  6
CONTINUOUS
 62
     3
  5
4F8
 10
576.689
 20
327.2805
 30
0.0
  0
VERTEX
  8
1
  6
CONTINUOUS
 62
     3
  5
4F9
 10
576.651167
 20
327.1545
 30
0.0
  0
VERTEX
  8
1
  6
CONTINUOUS
 62
     3
  5
4FA
 10
576.52525
 20
326.940333
 30
0.0
  0
VERTEX
  8
1
  6
CONTINUOUS
 62
     3
  5
4FB
 10
576.374083
 20
326.814333
 30
0.0
  0
VERTEX
  8
1
  6
CONTINUOUS
 62
     3
  5
4FC
 10
576.147333
 20
326.600083
 30
0.0
  0
VERTEX
  8
1
  6
CONTINUOUS
 62
     3
  5
4FD
 10
575.870167
 20
326.511917
 30
0.0
  0
VERTEX
  8
1
  6
CONTINUOUS
 62
     3
  5
4FE
 10
575.668667
 20
326.511917
 30
0.0
  0
VERTEX
  8
1
  6
CONTINUOUS
 62
     3
  5
4FF
 10
575.404083
 20
326.612667
 30
0.0
  0
VERTEX
  8
1
  6
CONTINUOUS
 62
     3
  5
500
 10
575.22775
 20
326.751333
 30
0.0
  0
VERTEX
  8
1
  6
CONTINUOUS
 62
     3
  5
501
 10
575.076583
 20
326.9655
 30
0.0
  0
VERTEX
  8
1
  6
CONTINUOUS
 62
     3
  5
502
 10
575.001
 20
327.066333
 30
0.0
  0
VERTEX
  8
1
  6
CONTINUOUS
 62
     3
  5
503
 10
574.950667
 20
327.330917
 30
0.0
  0
VERTEX
  8
1
  6
CONTINUOUS
 62
     3
  5
504
 10
574.950667
 20
327.55775
 30
0.0
  0
VERTEX
  8
1
  6
CONTINUOUS
 62
     3
  5
505
 10
575.177417
 20
327.74675
 30
0.0
  0
VERTEX
  8
1
  6
CONTINUOUS
 62
     3
  5
506
 10
575.41675
 20
327.80975
 30
0.0
  0
VERTEX
  8
1
  6
CONTINUOUS
 62
     3
  5
507
 10
575.542667
 20
327.80975
 30
0.0
  0
SEQEND
  8
1
  6
CONTINUOUS
 62
     3
  5
508
  0
LINE
  8
1
  6
CONTINUOUS
 62
     3
  5
509
 10
577.524833
 20
219.28575
 30
0.0
 11
577.524833
 21
215.78575
 31
0.0
  0
LINE
  8
1
  6
CONTINUOUS
 62
     3
  5
50A
 10
578.524833
 20
219.28575
 30
0.0
 11
578.524833
 21
215.78575
 31
0.0
  0
ARC
  8
1
  6
CONTINUOUS
 62
     3
  5
50B
 10
578.024833
 20
219.379786
 30
0.0
 40
0.508766
 50
349.34865
 51
190.651353
210
0.0
220
0.0
230
1.0
  0
ARC
  8
1
  6
CONTINUOUS
 62
     3
  5
50C
 10
578.024833
 20
215.699547
 30
0.0
 40
0.508766
 50
169.348647
 51
10.65135
210
0.0
220
0.0
230
1.0
  0
LINE
  8
1
  6
CONTINUOUS
 62
     7
  5
50D
 10
575.04275
 20
328.906667
 30
0.0
 11
577.6475
 21
355.070583
 31
0.0
  0
LINE
  8
1
  6
CONTINUOUS
 62
     7
  5
50E
 10
577.6475
 20
355.070583
 30
0.0
 11
577.321833
 21
329.666583
 31
0.0
  0
LINE
  8
1
  6
CONTINUOUS
 62
     7
  5
50F
 10
577.6475
 20
355.070583
 30
0.0
 11
584.37625
 21
355.070583
 31
0.0
  0
LINE
  8
1
  6
CONTINUOUS
 62
     7
  5
510
 10
561.585167
 20
321.09
 30
0.0
 11
556.15875
 21
321.09
 31
0.0
  0
LINE
  8
1
  6
CONTINUOUS
 62
     7
  5
511
 10
561.585167
 20
321.09
 30
0.0
 11
575.041583
 21
326.885583
 31
0.0
  0
INSERT
  8
1
  6
CONTINUOUS
 62
     1
  5
512
  2
LDR
 10
577.321833
 20
329.666583
 30
0.0
 41
240.000002
 42
240.000002
 50
269.265537
210
0.0
220
0.0
230
1.0
  0
INSERT
  8
1
  6
CONTINUOUS
 62
     1
  5
513
  2
LDR
 10
577.321833
 20
329.666583
 30
0.0
 41
240.000002
 42
240.000002
 50
269.265537
210
0.0
220
0.0
230
1.0
  0
INSERT
  8
1
  6
CONTINUOUS
 62
     1
  5
514
  2
LDR
 10
575.04275
 20
328.906667
 30
0.0
 41
240.000002
 42
240.000002
 50
264.314649
210
0.0
220
0.0
230
1.0
  0
INSERT
  8
1
  6
CONTINUOUS
 62
     1
  5
515
  2
LDR
 10
575.04275
 20
328.906667
 30
0.0
 41
240.000002
 42
240.000002
 50
264.314649
210
0.0
220
0.0
230
1.0
  0
INSERT
  8
1
  6
CONTINUOUS
 62
     1
  5
516
  2
LDR
 10
575.041583
 20
326.885583
 30
0.0
 41
240.000001
 42
240.000001
 50
23.301203
210
0.0
220
0.0
230
1.0
  0
INSERT
  8
1
  6
CONTINUOUS
 62
     1
  5
517
  2
LDR
 10
575.041583
 20
326.885583
 30
0.0
 41
240.000001
 42
240.000001
 50
23.301203
210
0.0
220
0.0
230
1.0
  0
LINE
  8
1
  6
CONTINUOUS
 62
     7
  5
518
 10
579.819667
 20
247.1635
 30
0.0
 11
588.783667
 21
261.112167
 31
0.0
  0
INSERT
  8
1
  6
CONTINUOUS
 62
     1
  5
519
  2
LDR
 10
579.819667
 20
247.1635
 30
0.0
 41
239.999999
 42
239.999999
 50
237.27356
210
0.0
220
0.0
230
1.0
  0
INSERT
  8
1
  6
CONTINUOUS
 62
     1
  5
51A
  2
LDR
 10
579.819667
 20
247.1635
 30
0.0
 41
239.999999
 42
239.999999
 50
237.27356
210
0.0
220
0.0
230
1.0
  0
LINE
  8
1
  6
CONTINUOUS
 62
     7
  5
51B
 10
582.05075
 20
240.111167
 30
0.0
 11
584.28175
 21
235.112083
 31
0.0
  0
LINE
  8
1
  6
CONTINUOUS
 62
     7
  5
51C
 10
584.28175
 20
235.112083
 30
0.0
 11
588.297583
 21
235.112083
 31
0.0
  0
LINE
  8
1
  6
CONTINUOUS
 62
     7
  5
51D
 10
579.819667
 20
236.98675
 30
0.0
 11
582.496917
 21
226.89925
 31
0.0
  0
LINE
  8
1
  6
CONTINUOUS
 62
     7
  5
51E
 10
582.496917
 20
226.89925
 30
0.0
 11
587.04825
 21
226.89925
 31
0.0
  0
INSERT
  8
1
  6
CONTINUOUS
 62
     1
  5
51F
  2
LDR
 10
582.05075
 20
240.111167
 30
0.0
 41
240.0
 42
240.0
 50
114.050338
210
0.0
220
0.0
230
1.0
  0
INSERT
  8
1
  6
CONTINUOUS
 62
     1
  5
520
  2
LDR
 10
579.819667
 20
236.98675
 30
0.0
 41
240.000001
 42
240.000001
 50
104.863785
210
0.0
220
0.0
230
1.0
  0
LINE
  8
1
  6
CONTINUOUS
 62
     7
  5
521
 10
562.869667
 20
194.563083
 30
0.0
 11
570.41125
 21
199.808917
 31
0.0
  0
LINE
  8
1
  6
CONTINUOUS
 62
     7
  5
522
 10
570.41125
 20
199.808917
 30
0.0
 11
575.255833
 21
199.808917
 31
0.0
  0
INSERT
  8
1
  6
CONTINUOUS
 62
     1
  5
523
  2
LDR
 10
562.869667
 20
194.563083
 30
0.0
 41
240.0
 42
240.0
 50
214.822003
210
0.0
220
0.0
230
1.0
  0
TEXT
  8
1
  6
CONTINUOUS
 62
     7
  5
524
 10
575.106
 20
198.46
 30
0.0
 40
2.5
  1
TYPE "H" JUNCTION BOX
  7
MONOTXT
210
0.0
220
0.0
230
1.0
  0
TEXT
  8
1
  6
CONTINUOUS
 62
     7
  5
525
 10
589.739667
 20
233.932083
 30
0.0
 40
2.5
  1
PADLOCK
  7
MONOTXT
210
0.0
220
0.0
230
1.0
  0
TEXT
  8
1
  6
CONTINUOUS
 62
     7
  5
526
 10
588.1415
 20
226.03625
 30
0.0
 40
2.5
  1
SEE CIRCUIT BREAKER
  7
MONOTXT
 11
588.1415
 21
228.53625
 31
0.0
210
0.0
220
0.0
230
1.0
 73
     3
  0
TEXT
  8
1
  6
CONTINUOUS
 62
     7
  5
527
 10
588.1415
 20
221.53625
 30
0.0
 40
2.5
  1
DETAIL ON THIS SHEET.
  7
MONOTXT
 11
588.1415
 21
224.03625
 31
0.0
210
0.0
220
0.0
230
1.0
 73
     3
  0
TEXT
  8
1
  6
CONTINUOUS
 62
     7
  5
528
 10
595.133667
 20
268.402917
 30
0.0
 40
2.5
  1
FACING AWAY FROM TRAFFIC
  7
MONOTXT
 11
595.133667
 21
270.902917
 31
0.0
210
0.0
220
0.0
230
1.0
 73
     3
  0
TEXT
  8
1
  6
CONTINUOUS
 62
     7
  5
529
 10
595.133667
 20
263.902917
 30
0.0
 40
2.5
  1
MOUNTING HEIGHT (GROUND
  7
MONOTXT
 11
595.133667
 21
266.402917
 31
0.0
210
0.0
220
0.0
230
1.0
 73
     3
  0
TEXT
  8
1
  6
CONTINUOUS
 62
     7
  5
52A
 10
595.133667
 20
259.402917
 30
0.0
 40
2.5
  1
TO BOTTOM OF CABINET)
  7
MONOTXT
 11
595.133667
 21
261.902917
 31
0.0
210
0.0
220
0.0
230
1.0
 73
     3
  0
TEXT
  8
1
  6
CONTINUOUS
 62
     7
  5
52B
 10
595.133667
 20
254.902917
 30
0.0
 40
2.5
  1
4' RURAL AREA
  7
MONOTXT
 11
595.133667
 21
257.402917
 31
0.0
210
0.0
220
0.0
230
1.0
 73
     3
  0
TEXT
  8
1
  6
CONTINUOUS
 62
     7
  5
52C
 10
595.133667
 20
250.402917
 30
0.0
 40
2.5
  1
7' URBAN AREA
  7
MONOTXT
 11
595.133667
 21
252.902917
 31
0.0
210
0.0
220
0.0
230
1.0
 73
     3
  0
LINE
  8
1
  6
CONTINUOUS
 62
     7
  5
52D
 10
588.783667
 20
261.112167
 30
0.0
 11
593.73525
 21
261.110583
 31
0.0
  0
TEXT
  8
1
  6
CONTINUOUS
 62
     7
  5
52E
 10
585.396083
 20
353.8075
 30
0.0
 40
2.5
  1
COUPLING WIRE OUTLETS
  7
MONOTXT
210
0.0
220
0.0
230
1.0
  0
TEXT
  8
1
  6
CONTINUOUS
 62
     7
  5
52F
 10
520.9185
 20
319.9115
 30
0.0
 40
2.5
  1
FLEXIBLE CONDUIT
  7
MONOTXT
210
0.0
220
0.0
230
1.0
  0
TEXT
  8
1
  6
CONTINUOUS
 62
     7
  5
530
 10
539.438667
 20
385.340833
 30
0.0
 40
2.5
  1
NOTE
  7
MONOTXT
 11
539.438667
 21
387.840833
 31
0.0
210
0.0
220
0.0
230
1.0
 73
     3
  0
TEXT
  8
1
  6
CONTINUOUS
 62
     7
  5
531
 10
539.438667
 20
380.840833
 30
0.0
 40
2.5
  1
1.   COMPONENTS SHALL BE SIZED AS REQUIRED ACCORDING
  7
MONOTXT
 11
539.438667
 21
383.340833
 31
0.0
210
0.0
220
0.0
230
1.0
 73
     3
  0
TEXT
  8
1
  6
CONTINUOUS
 62
     7
  5
532
 10
539.438667
 20
376.340833
 30
0.0
 40
2.5
  1
   TO LOAD.
  7
MONOTXT
 11
539.438667
 21
378.840833
 31
0.0
210
0.0
220
0.0
230
1.0
 73
     3
  0
LINE
  8
1
  6
CONTINUOUS
 62
     7
  5
533
 10
538.478333
 20
384.82175
 30
0.0
 11
549.2105
 21
384.82175
 31
0.0
  0
TEXT
  8
1
  6
CONTINUOUS
 62
     7
  5
534
 10
322.354083
 20
209.7575
 30
0.0
 40
3.5
  1
120 or 240 VOLT CONTROL CABINET
  7
MONOTXT
210
0.0
220
0.0
230
1.0
  0
LINE
  8
1
  6
CONTINUOUS
 62
     7
  5
535
 10
321.613083
 20
207.8685
 30
0.0
 11
424.302833
 21
207.8685
 31
0.0
  0
LINE
  8
1
  6
CONTINUOUS
 62
     7
  5
536
 10
558.575083
 20
154.287167
 30
0.0
 11
621.02675
 21
154.287167
 31
0.0
  0
TEXT
  8
1
  6
CONTINUOUS
 62
     7
  5
537
 10
559.306417
 20
156.176167
 30
0.0
 40
3.5
  1
TYPICAL INSTALLATION
  7
MONOTXT
210
0.0
220
0.0
230
1.0
  0
LINE
  8
1
  6
CONTINUOUS
 62
     5
  5
538
 10
74.2725
 20
136.366333
 30
0.0
 11
156.0225
 21
136.366333
 31
0.0
  0
LINE
  8
1
  6
CONTINUOUS
 62
     5
  5
539
 10
156.0225
 20
136.366333
 30
0.0
 11
156.0225
 21
80.116333
 31
0.0
  0
LINE
  8
1
  6
CONTINUOUS
 62
     5
  5
53A
 10
156.0225
 20
80.116333
 30
0.0
 11
74.2725
 21
80.116333
 31
0.0
  0
LINE
  8
1
  6
CONTINUOUS
 62
     5
  5
53B
 10
74.2725
 20
80.116333
 30
0.0
 11
74.2725
 21
136.366333
 31
0.0
  0
LINE
  8
1
  6
CONTINUOUS
 62
     5
  5
53C
 10
76.836167
 20
90.312667
 30
0.0
 11
66.336167
 21
90.312667
 31
0.0
  0
LINE
  8
1
  6
CONTINUOUS
 62
     5
  5
53D
 10
76.836167
 20
93.687667
 30
0.0
 11
66.336167
 21
93.687667
 31
0.0
  0
LINE
  8
1
  6
CONTINUOUS
 62
     5
  5
53E
 10
82.411667
 20
97.626667
 30
0.0
 11
87.0105
 21
94.998667
 31
0.0
  0
LINE
  8
1
  6
CONTINUOUS
 62
     5
  5
53F
 10
82.96975
 20
98.603417
 30
0.0
 11
82.411667
 21
97.626667
 31
0.0
  0
LINE
  8
1
  6
CONTINUOUS
 62
     5
  5
540
 10
87.568667
 20
95.975417
 30
0.0
 11
87.0105
 21
94.998667
 31
0.0
  0
ARC
  8
1
  6
CONTINUOUS
 62
     5
  5
541
 10
77.021418
 20
100.582608
 30
0.0
 40
6.89743
 50
268.460614
 51
331.149475
210
0.0
220
0.0
230
1.0
  0
ARC
  8
1
  6
CONTINUOUS
 62
     5
  5
542
 10
77.574166
 20
100.416998
 30
0.0
 40
10.131249
 50
265.822414
 51
330.125094
210
0.0
220
0.0
230
1.0
  0
LINE
  8
1
  6
CONTINUOUS
 62
     5
  5
543
 10
105.78175
 20
97.886083
 30
0.0
 11
105.78175
 21
100.886083
 31
0.0
  0
LINE
  8
1
  6
CONTINUOUS
 62
     5
  5
544
 10
109.53175
 20
97.886083
 30
0.0
 11
109.53175
 21
100.886083
 31
0.0
  0
ARC
  8
1
  6
CONTINUOUS
 62
     5
  5
545
 10
107.65675
 20
98.374767
 30
0.0
 40
1.937647
 50
194.609281
 51
345.390719
210
0.0
220
0.0
230
1.0
  0
POLYLINE
  8
1
  6
CONTINUOUS
 62
     5
  5
546
 66
     1
 10
0.0
 20
0.0
 30
0.0
 70
     1
210
0.0
220
0.0
230
1.0
  0
VERTEX
  8
1
  6
CONTINUOUS
 62
     5
  5
547
 10
110.867125
 20
102.761792
 30
0.0
 42
0.094075
  0
VERTEX
  8
1
  6
CONTINUOUS
 62
     5
  5
548
 10
110.816821
 20
103.082514
 30
0.0
 42
0.078087
  0
VERTEX
  8
1
  6
CONTINUOUS
 62
     5
  5
549
 10
110.644255
 20
103.395511
 30
0.0
 42
0.059232
  0
VERTEX
  8
1
  6
CONTINUOUS
 62
     5
  5
54A
 10
110.35606
 20
103.688753
 30
0.0
 42
0.04492
  0
VERTEX
  8
1
  6
CONTINUOUS
 62
     5
  5
54B
 10
109.96331
 20
103.950973
 30
0.0
 42
0.035569
  0
VERTEX
  8
1
  6
CONTINUOUS
 62
     5
  5
54C
 10
109.481099
 20
104.172093
 30
0.0
 42
0.029818
  0
VERTEX
  8
1
  6
CONTINUOUS
 62
     5
  5
54D
 10
108.927958
 20
104.343615
 30
0.0
 42
0.026531
  0
VERTEX
  8
1
  6
CONTINUOUS
 62
     5
  5
54E
 10
108.325144
 20
104.458947
 30
0.0
 42
0.025036
  0
VERTEX
  8
1
  6
CONTINUOUS
 62
     5
  5
54F
 10
107.695823
 20
104.513659
 30
0.0
 42
0.025036
  0
VERTEX
  8
1
  6
CONTINUOUS
 62
     5
  5
550
 10
107.064178
 20
104.505647
 30
0.0
 42
0.026531
  0
VERTEX
  8
1
  6
CONTINUOUS
 62
     5
  5
551
 10
106.454484
 20
104.435219
 30
0.0
 42
0.029818
  0
VERTEX
  8
1
  6
CONTINUOUS
 62
     5
  5
552
 10
105.890171
 20
104.305082
 30
0.0
 42
0.035569
  0
VERTEX
  8
1
  6
CONTINUOUS
 62
     5
  5
553
 10
105.392926
 20
104.120237
 30
0.0
 42
0.04492
  0
VERTEX
  8
1
  6
CONTINUOUS
 62
     5
  5
554
 10
104.981856
 20
103.887786
 30
0.0
 42
0.059232
  0
VERTEX
  8
1
  6
CONTINUOUS
 62
     5
  5
555
 10
104.67276
 20
103.616664
 30
0.0
 42
0.078087
  0
VERTEX
  8
1
  6
CONTINUOUS
 62
     5
  5
556
 10
104.477515
 20
103.317289
 30
0.0
 42
0.094075
  0
VERTEX
  8
1
  6
CONTINUOUS
 62
     5
  5
557
 10
104.403625
 20
103.001167
 30
0.0
 42
0.094075
  0
VERTEX
  8
1
  6
CONTINUOUS
 62
     5
  5
558
 10
104.453929
 20
102.680444
 30
0.0
 42
0.078087
  0
VERTEX
  8
1
  6
CONTINUOUS
 62
     5
  5
559
 10
104.626495
 20
102.367448
 30
0.0
 42
0.059232
  0
VERTEX
  8
1
  6
CONTINUOUS
 62
     5
  5
55A
 10
104.91469
 20
102.074205
 30
0.0
 42
0.04492
  0
VERTEX
  8
1
  6
CONTINUOUS
 62
     5
  5
55B
 10
105.30744
 20
101.811985
 30
0.0
 42
0.035569
  0
VERTEX
  8
1
  6
CONTINUOUS
 62
     5
  5
55C
 10
105.789651
 20
101.590866
 30
0.0
 42
0.029818
  0
VERTEX
  8
1
  6
CONTINUOUS
 62
     5
  5
55D
 10
106.342792
 20
101.419344
 30
0.0
 42
0.026531
  0
VERTEX
  8
1
  6
CONTINUOUS
 62
     5
  5
55E
 10
106.945606
 20
101.304011
 30
0.0
 42
0.025036
  0
VERTEX
  8
1
  6
CONTINUOUS
 62
     5
  5
55F
 10
107.574927
 20
101.249299
 30
0.0
 42
0.025036
  0
VERTEX
  8
1
  6
CONTINUOUS
 62
     5
  5
560
 10
108.206572
 20
101.257311
 30
0.0
 42
0.026531
  0
VERTEX
  8
1
  6
CONTINUOUS
 62
     5
  5
561
 10
108.816266
 20
101.327739
 30
0.0
 42
0.029818
  0
VERTEX
  8
1
  6
CONTINUOUS
 62
     5
  5
562
 10
109.380579
 20
101.457876
 30
0.0
 42
0.035569
  0
VERTEX
  8
1
  6
CONTINUOUS
 62
     5
  5
563
 10
109.877824
 20
101.642722
 30
0.0
 42
0.04492
  0
VERTEX
  8
1
  6
CONTINUOUS
 62
     5
  5
564
 10
110.288894
 20
101.875172
 30
0.0
 42
0.059232
  0
VERTEX
  8
1
  6
CONTINUOUS
 62
     5
  5
565
 10
110.59799
 20
102.146294
 30
0.0
 42
0.078087
  0
VERTEX
  8
1
  6
CONTINUOUS
 62
     5
  5
566
 10
110.793235
 20
102.445669
 30
0.0
 42
0.094075
  0
SEQEND
  8
1
  6
CONTINUOUS
 62
     5
  5
567
  0
POLYLINE
  8
1
  6
CONTINUOUS
 62
     5
  5
568
 66
     1
 10
0.0
 20
0.0
 30
0.0
210
0.0
220
0.0
230
1.0
  0
VERTEX
  8
1
  6
CONTINUOUS
 62
     5
  5
569
 10
110.867125
 20
102.761792
 30
0.0
 42
-0.064306
  0
VERTEX
  8
1
  6
CONTINUOUS
 62
     5
  5
56A
 10
110.787346
 20
102.286654
 30
0.0
 42
-0.06099
  0
VERTEX
  8
1
  6
CONTINUOUS
 62
     5
  5
56B
 10
110.586439
 20
101.834376
 30
0.0
 42
-0.055672
  0
VERTEX
  8
1
  6
CONTINUOUS
 62
     5
  5
56C
 10
110.272123
 20
101.422337
 30
0.0
 42
-0.049961
  0
VERTEX
  8
1
  6
CONTINUOUS
 62
     5
  5
56D
 10
109.856479
 20
101.066372
 30
0.0
 42
-0.044957
  0
VERTEX
  8
1
  6
CONTINUOUS
 62
     5
  5
56E
 10
109.35548
 20
100.78016
 30
0.0
 42
-0.041142
  0
VERTEX
  8
1
  6
CONTINUOUS
 62
     5
  5
56F
 10
108.788377
 20
100.574701
 30
0.0
 42
-0.03863
  0
VERTEX
  8
1
  6
CONTINUOUS
 62
     5
  5
570
 10
108.176966
 20
100.457891
 30
0.0
 42
-0.037393
  0
VERTEX
  8
1
  6
CONTINUOUS
 62
     5
  5
571
 10
107.544741
 20
100.434217
 30
0.0
 42
-0.037393
  0
VERTEX
  8
1
  6
CONTINUOUS
 62
     5
  5
572
 10
106.915999
 20
100.50459
 30
0.0
 42
-0.03863
  0
VERTEX
  8
1
  6
CONTINUOUS
 62
     5
  5
573
 10
106.314903
 20
100.666306
 30
0.0
 42
-0.041142
  0
VERTEX
  8
1
  6
CONTINUOUS
 62
     5
  5
574
 10
105.764551
 20
100.91315
 30
0.0
 42
-0.044957
  0
VERTEX
  8
1
  6
CONTINUOUS
 62
     5
  5
575
 10
105.286095
 20
101.235635
 30
0.0
 42
-0.049961
  0
VERTEX
  8
1
  6
CONTINUOUS
 62
     5
  5
576
 10
104.89792
 20
101.62137
 30
0.0
 42
-0.055672
  0
VERTEX
  8
1
  6
CONTINUOUS
 62
     5
  5
577
 10
104.614943
 20
102.055529
 30
0.0
 42
-0.06099
  0
VERTEX
  8
1
  6
CONTINUOUS
 62
     5
  5
578
 10
104.44804
 20
102.52143
 30
0.0
 42
-0.064306
  0
VERTEX
  8
1
  6
CONTINUOUS
 62
     5
  5
579
 10
104.403625
 20
103.001167
 30
0.0
 42
-0.064306
  0
SEQEND
  8
1
  6
CONTINUOUS
 62
     5
  5
57A
  0
ARC
  8
1
  6
CONTINUOUS
 62
     5
  5
57B
 10
102.39084
 20
104.01047
 30
0.0
 40
9.719862
 50
93.430353
 51
148.606397
210
0.0
220
0.0
230
1.0
  0
ARC
  8
1
  6
CONTINUOUS
 62
     5
  5
57C
 10
103.287452
 20
103.397213
 30
0.0
 40
7.699609
 50
89.837789
 51
132.894633
210
0.0
220
0.0
230
1.0
  0
ARC
  8
1
  6
CONTINUOUS
 62
     5
  5
57D
 10
128.97766
 20
104.01047
 30
0.0
 40
9.719862
 50
35.718697
 51
86.569647
210
0.0
220
0.0
230
1.0
  0
ARC
  8
1
  6
CONTINUOUS
 62
     5
  5
57E
 10
128.081048
 20
103.397213
 30
0.0
 40
7.699609
 50
38.390536
 51
90.162211
210
0.0
220
0.0
230
1.0
  0
LINE
  8
1
  6
CONTINUOUS
 62
     5
  5
57F
 10
119.05925
 20
123.814083
 30
0.0
 11
125.05925
 21
123.814083
 31
0.0
  0
LINE
  8
1
  6
CONTINUOUS
 62
     5
  5
580
 10
119.05925
 20
118.714583
 30
0.0
 11
125.05925
 21
118.714583
 31
0.0
  0
LINE
  8
1
  6
CONTINUOUS
 62
     5
  5
581
 10
119.002917
 20
109.066417
 30
0.0
 11
125.002917
 21
109.066417
 31
0.0
  0
LINE
  8
1
  6
CONTINUOUS
 62
     5
  5
582
 10
119.002917
 20
114.165917
 30
0.0
 11
125.002917
 21
114.165917
 31
0.0
  0
LINE
  8
1
  6
CONTINUOUS
 62
     5
  5
583
 10
119.002917
 20
114.165917
 30
0.0
 11
119.002917
 21
109.066417
 31
0.0
  0
LINE
  8
1
  6
CONTINUOUS
 62
     5
  5
584
 10
125.002917
 20
114.165917
 30
0.0
 11
125.002917
 21
109.066417
 31
0.0
  0
LINE
  8
1
  6
CONTINUOUS
 62
     5
  5
585
 10
113.4565
 20
109.371583
 30
0.0
 11
119.002917
 21
109.371583
 31
0.0
  0
ARC
  8
1
  6
CONTINUOUS
 62
     5
  5
586
 10
115.947066
 20
104.840526
 30
0.0
 40
5.170399
 50
118.796303
 51
152.578094
210
0.0
220
0.0
230
1.0
  0
LINE
  8
1
  6
CONTINUOUS
 62
     5
  5
587
 10
129.55925
 20
113.712917
 30
0.0
 11
125.002917
 21
113.712917
 31
0.0
  0
LINE
  8
1
  6
CONTINUOUS
 62
     5
  5
588
 10
128.05925
 20
111.096833
 30
0.0
 11
125.002917
 21
111.096833
 31
0.0
  0
LINE
  8
1
  6
CONTINUOUS
 62
     5
  5
589
 10
119.05925
 20
113.712917
 30
0.0
 11
101.80925
 21
113.712917
 31
0.0
  0
LINE
  8
1
  6
CONTINUOUS
 62
     5
  5
58A
 10
119.05925
 20
123.814083
 30
0.0
 11
119.05925
 21
118.714583
 31
0.0
  0
POLYLINE
  8
1
  6
CONTINUOUS
 62
     5
  5
58B
 66
     1
 10
0.0
 20
0.0
 30
0.0
  0
VERTEX
  8
1
  6
CONTINUOUS
 62
     5
  5
58C
 10
105.916556
 20
113.712917
 30
0.0
 42
-0.300111
  0
VERTEX
  8
1
  6
CONTINUOUS
 62
     5
  5
58D
 10
113.00275
 20
120.262167
 30
0.0
  0
VERTEX
  8
1
  6
CONTINUOUS
 62
     5
  5
58E
 10
109.68425
 20
120.277917
 30
0.0
  0
VERTEX
  8
1
  6
CONTINUOUS
 62
     5
  5
58F
 10
119.05925
 20
120.277917
 30
0.0
  0
VERTEX
  8
1
  6
CONTINUOUS
 62
     5
  5
590
 10
119.05925
 20
118.714583
 30
0.0
  0
VERTEX
  8
1
  6
CONTINUOUS
 62
     5
  5
591
 10
119.05925
 20
123.814083
 30
0.0
  0
VERTEX
  8
1
  6
CONTINUOUS
 62
     5
  5
592
 10
119.05925
 20
118.714583
 30
0.0
  0
VERTEX
  8
1
  6
CONTINUOUS
 62
     5
  5
593
 10
119.26775
 20
118.908583
 30
0.0
  0
VERTEX
  8
1
  6
CONTINUOUS
 62
     5
  5
594
 10
115.25825
 20
118.908583
 30
0.0
  0
VERTEX
  8
1
  6
CONTINUOUS
 62
     5
  5
595
 10
115.25825
 20
118.908542
 30
0.0
 42
0.256175
  0
VERTEX
  8
1
  6
CONTINUOUS
 62
     5
  5
596
 10
108.625433
 20
113.712917
 30
0.0
  0
VERTEX
  8
1
  6
CONTINUOUS
 62
     5
  5
597
 10
101.80925
 20
113.712917
 30
0.0
  0
VERTEX
  8
1
  6
CONTINUOUS
 62
     5
  5
598
 10
119.05925
 20
113.712917
 30
0.0
  0
VERTEX
  8
1
  6
CONTINUOUS
 62
     5
  5
599
 10
105.9165
 20
113.712917
 30
0.0
  0
SEQEND
  8
1
  6
CONTINUOUS
 62
     5
  5
59A
  0
LINE
  8
1
  6
CONTINUOUS
 62
     5
  5
59B
 10
98.162917
 20
109.165167
 30
0.0
 11
95.85775
 21
111.207417
 31
0.0
  0
LINE
  8
1
  6
CONTINUOUS
 62
     5
  5
59C
 10
100.925417
 20
110.725583
 30
0.0
 11
98.467417
 21
112.903333
 31
0.0
  0
LINE
  8
1
  6
CONTINUOUS
 62
     5
  5
59D
 10
105.030417
 20
111.096833
 30
0.0
 11
102.064
 21
113.724833
 31
0.0
  0
LINE
  8
1
  6
CONTINUOUS
 62
     5
  5
59E
 10
109.554417
 20
111.096833
 30
0.0
 11
106.601417
 21
113.712917
 31
0.0
  0
LINE
  8
1
  6
CONTINUOUS
 62
     5
  5
59F
 10
114.078417
 20
111.096833
 30
0.0
 11
111.125417
 21
113.712917
 31
0.0
  0
LINE
  8
1
  6
CONTINUOUS
 62
     5
  5
5A0
 10
118.602417
 20
111.096833
 30
0.0
 11
115.649417
 21
113.712917
 31
0.0
  0
LINE
  8
1
  6
CONTINUOUS
 62
     5
  5
5A1
 10
125.686
 20
111.096833
 30
0.0
 11
128.639
 21
113.712917
 31
0.0
  0
LINE
  8
1
  6
CONTINUOUS
 62
     5
  5
5A2
 10
129.950167
 20
110.866583
 30
0.0
 11
132.456167
 21
113.086667
 31
0.0
  0
LINE
  8
1
  6
CONTINUOUS
 62
     5
  5
5A3
 10
132.858667
 20
109.435333
 30
0.0
 11
135.181417
 21
111.493083
 31
0.0
  0
LINE
  8
1
  6
CONTINUOUS
 62
     5
  5
5A4
 10
142.14775
 20
100.897167
 30
0.0
 11
138.743667
 21
101.476917
 31
0.0
  0
LINE
  8
1
  6
CONTINUOUS
 62
     5
  5
5A5
 10
140.1115
 20
104.287167
 30
0.0
 11
136.36225
 21
104.925667
 31
0.0
  0
LINE
  8
1
  6
CONTINUOUS
 62
     5
  5
5A6
 10
138.07525
 20
107.677083
 30
0.0
 11
133.980917
 21
108.374417
 31
0.0
  0
LINE
  8
1
  6
CONTINUOUS
 62
     5
  5
5A7
 10
119.074417
 20
111.096833
 30
0.0
 11
117.127
 21
109.371583
 31
0.0
  0
LINE
  8
1
  6
CONTINUOUS
 62
     5
  5
5A8
 10
115.356
 20
111.096833
 30
0.0
 11
113.408667
 21
109.371583
 31
0.0
  0
LINE
  8
1
  6
CONTINUOUS
 62
     5
  5
5A9
 10
112.9565
 20
109.058333
 30
0.0
 11
111.05175
 21
110.745667
 31
0.0
  0
LINE
  8
1
  6
CONTINUOUS
 62
     5
  5
5AA
 10
111.17225
 20
106.630833
 30
0.0
 11
108.6195
 21
108.892583
 31
0.0
  0
LINE
  8
1
  6
CONTINUOUS
 62
     5
  5
5AB
 10
195.111333
 20
140.582417
 30
0.0
 11
195.111333
 21
73.276167
 31
0.0
  0
LINE
  8
1
  6
CONTINUOUS
 62
     5
  5
5AC
 10
260.148833
 20
140.582417
 30
0.0
 11
260.148833
 21
73.276167
 31
0.0
  0
LINE
  8
1
  6
CONTINUOUS
 62
     5
  5
5AD
 10
195.111333
 20
140.582417
 30
0.0
 11
260.148833
 21
140.582417
 31
0.0
  0
LINE
  8
1
  6
CONTINUOUS
 62
     5
  5
5AE
 10
195.111333
 20
73.276167
 30
0.0
 11
260.148833
 21
73.276167
 31
0.0
  0
LINE
  8
1
  6
CONTINUOUS
 62
     5
  5
5AF
 10
210.992583
 20
127.726167
 30
0.0
 11
210.992583
 21
86.132417
 31
0.0
  0
LINE
  8
1
  6
CONTINUOUS
 62
     5
  5
5B0
 10
244.267583
 20
127.726167
 30
0.0
 11
244.267583
 21
86.132417
 31
0.0
  0
LINE
  8
1
  6
CONTINUOUS
 62
     5
  5
5B1
 10
210.992583
 20
127.726167
 30
0.0
 11
244.267583
 21
127.726167
 31
0.0
  0
LINE
  8
1
  6
CONTINUOUS
 62
     5
  5
5B2
 10
210.992583
 20
86.132417
 30
0.0
 11
244.267583
 21
86.132417
 31
0.0
  0
LINE
  8
1
  6
CONTINUOUS
 62
     5
  5
5B3
 10
217.042583
 20
122.432417
 30
0.0
 11
217.042583
 21
91.426167
 31
0.0
  0
LINE
  8
1
  6
CONTINUOUS
 62
     5
  5
5B4
 10
238.217583
 20
122.432417
 30
0.0
 11
238.217583
 21
91.426167
 31
0.0
  0
LINE
  8
1
  6
CONTINUOUS
 62
     5
  5
5B5
 10
217.042583
 20
122.432417
 30
0.0
 11
238.217583
 21
122.432417
 31
0.0
  0
LINE
  8
1
  6
CONTINUOUS
 62
     5
  5
5B6
 10
217.042583
 20
91.426167
 30
0.0
 11
238.217583
 21
91.426167
 31
0.0
  0
LINE
  8
1
  6
CONTINUOUS
 62
     5
  5
5B7
 10
255.611333
 20
87.644917
 30
0.0
 11
255.611333
 21
76.301167
 31
0.0
  0
LINE
  8
1
  6
CONTINUOUS
 62
     5
  5
5B8
 10
253.342583
 20
87.644917
 30
0.0
 11
253.342583
 21
76.301167
 31
0.0
  0
LINE
  8
1
  6
CONTINUOUS
 62
     5
  5
5B9
 10
253.342583
 20
87.644917
 30
0.0
 11
255.611333
 21
87.644917
 31
0.0
  0
LINE
  8
1
  6
CONTINUOUS
 62
     5
  5
5BA
 10
253.342583
 20
76.301167
 30
0.0
 11
255.611333
 21
76.301167
 31
0.0
  0
POLYLINE
  8
1
  6
CONTINUOUS
 62
     5
  5
5BB
 66
     1
 10
0.0
 20
0.0
 30
0.0
  0
VERTEX
  8
1
  6
CONTINUOUS
 62
     5
  5
5BC
 10
74.54475
 20
96.436333
 30
0.0
  0
VERTEX
  8
1
  6
CONTINUOUS
 62
     5
  5
5BD
 10
77.75975
 20
96.620083
 30
0.0
  0
VERTEX
  8
1
  6
CONTINUOUS
 62
     5
  5
5BE
 10
79.02596
 20
97.728001
 30
0.0
  0
VERTEX
  8
1
  6
CONTINUOUS
 62
     5
  5
5BF
 10
79.32125
 20
102.408917
 30
0.0
  0
VERTEX
  8
1
  6
CONTINUOUS
 62
     5
  5
5C0
 10
79.596917
 20
108.105833
 30
0.0
  0
VERTEX
  8
1
  6
CONTINUOUS
 62
     5
  5
5C1
 10
80.148
 20
114.905417
 30
0.0
  0
VERTEX
  8
1
  6
CONTINUOUS
 62
     5
  5
5C2
 10
80.882917
 20
119.499833
 30
0.0
  0
VERTEX
  8
1
  6
CONTINUOUS
 62
     5
  5
5C3
 10
82.077
 20
122.532083
 30
0.0
  0
VERTEX
  8
1
  6
CONTINUOUS
 62
     5
  5
5C4
 10
83.17925
 20
126.942667
 30
0.0
  0
VERTEX
  8
1
  6
CONTINUOUS
 62
     5
  5
5C5
 10
84.649
 20
128.872333
 30
0.0
  0
VERTEX
  8
1
  6
CONTINUOUS
 62
     5
  5
5C6
 10
88.1395
 20
130.526167
 30
0.0
  0
VERTEX
  8
1
  6
CONTINUOUS
 62
     5
  5
5C7
 10
92.18125
 20
131.536917
 30
0.0
  0
VERTEX
  8
1
  6
CONTINUOUS
 62
     5
  5
5C8
 10
97.1415
 20
133.374667
 30
0.0
  0
VERTEX
  8
1
  6
CONTINUOUS
 62
     5
  5
5C9
 10
99.805417
 20
134.201667
 30
0.0
  0
VERTEX
  8
1
  6
CONTINUOUS
 62
     5
  5
5CA
 10
102.744917
 20
134.661083
 30
0.0
  0
VERTEX
  8
1
  6
CONTINUOUS
 62
     5
  5
5CB
 10
106.511
 20
134.569167
 30
0.0
  0
VERTEX
  8
1
  6
CONTINUOUS
 62
     5
  5
5CC
 10
114.31875
 20
134.109833
 30
0.0
  0
VERTEX
  8
1
  6
CONTINUOUS
 62
     5
  5
5CD
 10
117.18225
 20
132.782083
 30
0.0
  0
VERTEX
  8
1
  6
CONTINUOUS
 62
     5
  5
5CE
 10
122.40225
 20
134.661083
 30
0.0
  0
VERTEX
  8
1
  6
CONTINUOUS
 62
     5
  5
5CF
 10
126.90325
 20
135.028667
 30
0.0
  0
VERTEX
  8
1
  6
CONTINUOUS
 62
     5
  5
5D0
 10
129.75075
 20
135.120583
 30
0.0
  0
VERTEX
  8
1
  6
CONTINUOUS
 62
     5
  5
5D1
 10
134.068
 20
134.109833
 30
0.0
  0
VERTEX
  8
1
  6
CONTINUOUS
 62
     5
  5
5D2
 10
137.742417
 20
133.282833
 30
0.0
  0
VERTEX
  8
1
  6
CONTINUOUS
 62
     5
  5
5D3
 10
142.243417
 20
132.455833
 30
0.0
  0
VERTEX
  8
1
  6
CONTINUOUS
 62
     5
  5
5D4
 10
145.550167
 20
131.077583
 30
0.0
  0
VERTEX
  8
1
  6
CONTINUOUS
 62
     5
  5
5D5
 10
148.948917
 20
127.861583
 30
0.0
  0
VERTEX
  8
1
  6
CONTINUOUS
 62
     5
  5
5D6
 10
151.337167
 20
125.013083
 30
0.0
  0
VERTEX
  8
1
  6
CONTINUOUS
 62
     5
  5
5D7
 10
152.990667
 20
119.683583
 30
0.0
  0
VERTEX
  8
1
  6
CONTINUOUS
 62
     5
  5
5D8
 10
151.88825
 20
115.916167
 30
0.0
  0
VERTEX
  8
1
  6
CONTINUOUS
 62
     5
  5
5D9
 10
151.337167
 20
109.392333
 30
0.0
  0
VERTEX
  8
1
  6
CONTINUOUS
 62
     5
  5
5DA
 10
151.429
 20
107.003167
 30
0.0
  0
VERTEX
  8
1
  6
CONTINUOUS
 62
     5
  5
5DB
 10
151.429
 20
103.695333
 30
0.0
  0
VERTEX
  8
1
  6
CONTINUOUS
 62
     5
  5
5DC
 10
151.24525
 20
100.111667
 30
0.0
  0
VERTEX
  8
1
  6
CONTINUOUS
 62
     5
  5
5DD
 10
152.163917
 20
97.447083
 30
0.0
  0
VERTEX
  8
1
  6
CONTINUOUS
 62
     5
  5
5DE
 10
154.092917
 20
95.884917
 30
0.0
  0
VERTEX
  8
1
  6
CONTINUOUS
 62
     5
  5
5DF
 10
156.205667
 20
94.966083
 30
0.0
  0
SEQEND
  8
1
  6
CONTINUOUS
 62
     5
  5
5E0
  0
POLYLINE
  8
1
  6
CONTINUOUS
 62
     5
  5
5E1
 66
     1
 10
0.0
 20
0.0
 30
0.0
  0
VERTEX
  8
1
  6
CONTINUOUS
 62
     5
  5
5E2
 10
74.452917
 20
87.247583
 30
0.0
  0
VERTEX
  8
1
  6
CONTINUOUS
 62
     5
  5
5E3
 10
79.229417
 20
86.880083
 30
0.0
  0
VERTEX
  8
1
  6
CONTINUOUS
 62
     5
  5
5E4
 10
83.087417
 20
86.420583
 30
0.0
  0
VERTEX
  8
1
  6
CONTINUOUS
 62
     5
  5
5E5
 10
87.772167
 20
85.593583
 30
0.0
  0
VERTEX
  8
1
  6
CONTINUOUS
 62
     5
  5
5E6
 10
92.54875
 20
84.950417
 30
0.0
  0
VERTEX
  8
1
  6
CONTINUOUS
 62
     5
  5
5E7
 10
98.4275
 20
84.307167
 30
0.0
  0
VERTEX
  8
1
  6
CONTINUOUS
 62
     5
  5
5E8
 10
102.836667
 20
83.388333
 30
0.0
  0
VERTEX
  8
1
  6
CONTINUOUS
 62
     5
  5
5E9
 10
109.083
 20
82.653333
 30
0.0
  0
VERTEX
  8
1
  6
CONTINUOUS
 62
     5
  5
5EA
 10
113.8595
 20
82.745167
 30
0.0
  0
VERTEX
  8
1
  6
CONTINUOUS
 62
     5
  5
5EB
 10
119.18725
 20
83.204583
 30
0.0
  0
VERTEX
  8
1
  6
CONTINUOUS
 62
     5
  5
5EC
 10
126.90325
 20
82.928917
 30
0.0
  0
VERTEX
  8
1
  6
CONTINUOUS
 62
     5
  5
5ED
 10
133.057667
 20
82.193833
 30
0.0
  0
VERTEX
  8
1
  6
CONTINUOUS
 62
     5
  5
5EE
 10
136.82375
 20
81.918167
 30
0.0
  0
VERTEX
  8
1
  6
CONTINUOUS
 62
     5
  5
5EF
 10
139.855
 20
82.010083
 30
0.0
  0
VERTEX
  8
1
  6
CONTINUOUS
 62
     5
  5
5F0
 10
144.447917
 20
82.193833
 30
0.0
  0
VERTEX
  8
1
  6
CONTINUOUS
 62
     5
  5
5F1
 10
147.846667
 20
82.928917
 30
0.0
  0
VERTEX
  8
1
  6
CONTINUOUS
 62
     5
  5
5F2
 10
149.408167
 20
84.399083
 30
0.0
  0
VERTEX
  8
1
  6
CONTINUOUS
 62
     5
  5
5F3
 10
150.143
 20
85.593583
 30
0.0
  0
VERTEX
  8
1
  6
CONTINUOUS
 62
     5
  5
5F4
 10
151.88825
 20
86.696333
 30
0.0
  0
VERTEX
  8
1
  6
CONTINUOUS
 62
     5
  5
5F5
 10
153.54175
 20
86.420583
 30
0.0
  0
VERTEX
  8
1
  6
CONTINUOUS
 62
     5
  5
5F6
 10
155.838167
 20
86.328667
 30
0.0
  0
VERTEX
  8
1
  6
CONTINUOUS
 62
     5
  5
5F7
 10
156.07375
 20
86.218667
 30
0.0
  0
SEQEND
  8
1
  6
CONTINUOUS
 62
     5
  5
5F8
  0
TEXT
  8
1
  6
CONTINUOUS
 62
     7
  5
5F9
 10
102.404417
 20
123.503833
 30
0.0
 40
3.75
  1
0
  7
MONOTXT
210
0.0
220
0.0
230
1.0
  0
TEXT
  8
1
  6
CONTINUOUS
 62
     7
  5
5FA
 10
102.6375
 20
114.347917
 30
0.0
 40
3.75
  1
0
  7
MONOTXT
210
0.0
220
0.0
230
1.0
  0
TEXT
  8
1
  6
CONTINUOUS
 62
     7
  5
5FB
 10
102.622417
 20
123.613167
 30
0.0
 40
3.75
  1
/
  7
MONOTXT
210
0.0
220
0.0
230
1.0
  0
TEXT
  8
1
  6
CONTINUOUS
 62
     7
  5
5FC
 10
102.8555
 20
114.347917
 30
0.0
 40
3.75
  1
/
  7
MONOTXT
210
0.0
220
0.0
230
1.0
  0
LINE
  8
1
  6
CONTINUOUS
 62
     7
  5
5FD
 10
78.815417
 20
52.366667
 30
0.0
 11
173.19975
 21
52.366667
 31
0.0
  0
LINE
  8
1
  6
CONTINUOUS
 62
     5
  5
5FE
 10
275.695583
 20
140.762333
 30
0.0
 11
275.695583
 21
73.456083
 31
0.0
  0
LINE
  8
1
  6
CONTINUOUS
 62
     5
  5
5FF
 10
343.758083
 20
140.762333
 30
0.0
 11
343.758083
 21
73.456083
 31
0.0
  0
LINE
  8
1
  6
CONTINUOUS
 62
     5
  5
600
 10
275.695583
 20
140.762333
 30
0.0
 11
343.758083
 21
140.762333
 31
0.0
  0
LINE
  8
1
  6
CONTINUOUS
 62
     5
  5
601
 10
275.695583
 20
73.456083
 30
0.0
 11
343.758083
 21
73.456083
 31
0.0
  0
LINE
  8
1
  6
CONTINUOUS
 62
     5
  5
602
 10
280.989333
 20
135.468583
 30
0.0
 11
280.989333
 21
84.043583
 31
0.0
  0
LINE
  8
1
  6
CONTINUOUS
 62
     5
  5
603
 10
280.989333
 20
135.468583
 30
0.0
 11
330.935083
 21
135.468583
 31
0.0
  0
LINE
  8
1
  6
CONTINUOUS
 62
     5
  5
604
 10
286.283083
 20
130.931083
 30
0.0
 11
286.283083
 21
87.210833
 31
0.0
  0
LINE
  8
1
  6
CONTINUOUS
 62
     5
  5
605
 10
280.989333
 20
84.043583
 30
0.0
 11
301.358917
 21
84.043583
 31
0.0
  0
LINE
  8
1
  6
CONTINUOUS
 62
     5
  5
606
 10
286.283083
 20
130.931083
 30
0.0
 11
297.894083
 21
130.931083
 31
0.0
  0
LINE
  8
1
  6
CONTINUOUS
 62
     5
  5
607
 10
330.935083
 20
135.468583
 30
0.0
 11
330.935083
 21
121.856083
 31
0.0
  0
LINE
  8
1
  6
CONTINUOUS
 62
     5
  5
608
 10
305.309583
 20
135.468583
 30
0.0
 11
305.309583
 21
121.856083
 31
0.0
  0
LINE
  8
1
  6
CONTINUOUS
 62
     5
  5
609
 10
297.894083
 20
130.931083
 30
0.0
 11
297.894083
 21
121.856083
 31
0.0
  0
LINE
  8
1
  6
CONTINUOUS
 62
     5
  5
60A
 10
293.845583
 20
127.149833
 30
0.0
 11
293.845583
 21
99.924833
 31
0.0
  0
LINE
  8
1
  6
CONTINUOUS
 62
     5
  5
60B
 10
301.408083
 20
127.149833
 30
0.0
 11
301.408083
 21
99.924833
 31
0.0
  0
LINE
  8
1
  6
CONTINUOUS
 62
     5
  5
60C
 10
308.970583
 20
127.149833
 30
0.0
 11
308.970583
 21
99.924833
 31
0.0
  0
LINE
  8
1
  6
CONTINUOUS
 62
     5
  5
60D
 10
293.845583
 20
127.149833
 30
0.0
 11
308.970583
 21
127.149833
 31
0.0
  0
LINE
  8
1
  6
CONTINUOUS
 62
     5
  5
60E
 10
308.970583
 20
99.924833
 30
0.0
 11
293.845583
 21
99.924833
 31
0.0
  0
LINE
  8
1
  6
CONTINUOUS
 62
     5
  5
60F
 10
301.408083
 20
112.781083
 30
0.0
 11
293.845583
 21
112.781083
 31
0.0
  0
LINE
  8
1
  6
CONTINUOUS
 62
     5
  5
610
 10
293.845583
 20
114.293583
 30
0.0
 11
301.408083
 21
114.293583
 31
0.0
  0
CIRCLE
  8
1
  6
CONTINUOUS
 62
     5
  5
611
 10
314.650825
 20
80.124655
 30
0.0
 40
2.26875
210
0.0
220
0.0
230
1.0
  0
CIRCLE
  8
1
  6
CONTINUOUS
 62
     5
  5
612
 10
305.256058
 20
113.189921
 30
0.0
 40
2.26875
210
0.0
220
0.0
230
1.0
  0
CIRCLE
  8
1
  6
CONTINUOUS
 62
     5
  5
613
 10
297.822246
 20
109.344516
 30
0.0
 40
2.26875
210
0.0
220
0.0
230
1.0
  0
LINE
  8
1
  6
CONTINUOUS
 62
     5
  5
614
 10
327.153833
 20
100.32575
 30
0.0
 11
327.153833
 21
128.307
 31
0.0
  0
LINE
  8
1
  6
CONTINUOUS
 62
     5
  5
615
 10
334.716333
 20
100.32575
 30
0.0
 11
334.716333
 21
128.307
 31
0.0
  0
LINE
  8
1
  6
CONTINUOUS
 62
     5
  5
616
 10
327.153833
 20
100.32575
 30
0.0
 11
334.716333
 21
100.32575
 31
0.0
  0
LINE
  8
1
  6
CONTINUOUS
 62
     5
  5
617
 10
327.153833
 20
128.307
 30
0.0
 11
334.716333
 21
128.307
 31
0.0
  0
CIRCLE
  8
1
  6
CONTINUOUS
 62
     5
  5
618
 10
331.297893
 20
113.712241
 30
0.0
 40
2.26875
210
0.0
220
0.0
230
1.0
  0
CIRCLE
  8
1
  6
CONTINUOUS
 62
     5
  5
619
 10
297.925726
 20
122.582673
 30
0.0
 40
0.75625
210
0.0
220
0.0
230
1.0
  0
CIRCLE
  8
1
  6
CONTINUOUS
 62
     5
  5
61A
 10
305.323868
 20
122.567548
 30
0.0
 40
0.75625
210
0.0
220
0.0
230
1.0
  0
CIRCLE
  8
1
  6
CONTINUOUS
 62
     5
  5
61B
 10
297.669357
 20
103.468958
 30
0.0
 40
0.75625
210
0.0
220
0.0
230
1.0
  0
CIRCLE
  8
1
  6
CONTINUOUS
 62
     5
  5
61C
 10
305.287568
 20
103.404046
 30
0.0
 40
0.75625
210
0.0
220
0.0
230
1.0
  0
CIRCLE
  8
1
  6
CONTINUOUS
 62
     5
  5
61D
 10
330.932257
 20
122.559733
 30
0.0
 40
0.75625
210
0.0
220
0.0
230
1.0
  0
CIRCLE
  8
1
  6
CONTINUOUS
 62
     5
  5
61E
 10
330.645261
 20
108.765985
 30
0.0
 40
0.75625
210
0.0
220
0.0
230
1.0
  0
CIRCLE
  8
1
  6
CONTINUOUS
 62
     5
  5
61F
 10
330.943979
 20
103.436691
 30
0.0
 40
0.75625
210
0.0
220
0.0
230
1.0
  0
TEXT
  8
1
  6
CONTINUOUS
 62
     7
  5
620
 10
296.85575
 20
118.066417
 30
0.0
 40
2.5
  1
A
  7
MONOTXT
210
0.0
220
0.0
230
1.0
  0
TEXT
  8
1
  6
CONTINUOUS
 62
     7
  5
621
 10
304.32675
 20
118.002667
 30
0.0
 40
2.5
  1
A
  7
MONOTXT
210
0.0
220
0.0
230
1.0
  0
TEXT
  8
1
  6
CONTINUOUS
 62
     7
  5
622
 10
329.880917
 20
116.744417
 30
0.0
 40
2.5
  1
A
  7
MONOTXT
210
0.0
220
0.0
230
1.0
  0
TEXT
  8
1
  6
CONTINUOUS
 62
     7
  5
623
 10
297.226083
 20
107.7645
 30
0.0
 40
2.5
  1
1
  7
MONOTXT
210
0.0
220
0.0
230
1.0
  0
TEXT
  8
1
  6
CONTINUOUS
 62
     7
  5
624
 10
298.915667
 20
101.144833
 30
0.0
 40
2.5
  1
B
  7
MONOTXT
210
0.0
220
0.0
230
1.0
  0
TEXT
  8
1
  6
CONTINUOUS
 62
     7
  5
625
 10
304.479583
 20
105.139833
 30
0.0
 40
2.5
  1
B
  7
MONOTXT
210
0.0
220
0.0
230
1.0
  0
TEXT
  8
1
  6
CONTINUOUS
 62
     7
  5
626
 10
304.478
 20
111.953167
 30
0.0
 40
2.5
  1
2
  7
MONOTXT
210
0.0
220
0.0
230
1.0
  0
TEXT
  8
1
  6
CONTINUOUS
 62
     7
  5
627
 10
330.556083
 20
112.239417
 30
0.0
 40
2.5
  1
3
  7
MONOTXT
210
0.0
220
0.0
230
1.0
  0
TEXT
  8
1
  6
CONTINUOUS
 62
     7
  5
628
 10
337.932417
 20
107.562667
 30
0.0
 40
2.5
  1
B
  7
MONOTXT
210
0.0
220
0.0
230
1.0
  0
TEXT
  8
1
  6
CONTINUOUS
 62
     7
  5
629
 10
337.553833
 20
102.118917
 30
0.0
 40
2.5
  1
C
  7
MONOTXT
210
0.0
220
0.0
230
1.0
  0
TEXT
  8
1
  6
CONTINUOUS
 62
     7
  5
62A
 10
313.965083
 20
78.87575
 30
0.0
 40
2.5
  1
4
  7
MONOTXT
210
0.0
220
0.0
230
1.0
  0
TEXT
  8
1
  6
CONTINUOUS
 62
     7
  5
62B
 10
358.535833
 20
115.694417
 30
0.0
 40
2.5
  1
1.   CIRCUIT BREAKER, SEE NOTE 1.
  7
MONOTXT
 11
358.535833
 21
118.194417
 31
0.0
210
0.0
220
0.0
230
1.0
 73
     3
  0
TEXT
  8
1
  6
CONTINUOUS
 62
     7
  5
62C
 10
358.535833
 20
111.194417
 30
0.0
 40
2.5
  1
 
  7
MONOTXT
 11
358.535833
 21
113.694417
 31
0.0
210
0.0
220
0.0
230
1.0
 73
     3
  0
TEXT
  8
1
  6
CONTINUOUS
 62
     7
  5
62D
 10
358.535833
 20
106.694417
 30
0.0
 40
2.5
  1
2.   SPACE FOR FUTURE BREAKER
  7
MONOTXT
 11
358.535833
 21
109.194417
 31
0.0
210
0.0
220
0.0
230
1.0
 73
     3
  0
TEXT
  8
1
  6
CONTINUOUS
 62
     7
  5
62E
 10
358.535833
 20
102.194417
 30
0.0
 40
2.5
  1
 
  7
MONOTXT
 11
358.535833
 21
104.694417
 31
0.0
210
0.0
220
0.0
230
1.0
 73
     3
  0
TEXT
  8
1
  6
CONTINUOUS
 62
     7
  5
62F
 10
358.535833
 20
97.694417
 30
0.0
 40
2.5
  1
3.   SOLID NEUTRAL GROUND BAR
  7
MONOTXT
 11
358.535833
 21
100.194417
 31
0.0
210
0.0
220
0.0
230
1.0
 73
     3
  0
TEXT
  8
1
  6
CONTINUOUS
 62
     7
  5
630
 10
358.535833
 20
93.194417
 30
0.0
 40
2.5
  1
 
  7
MONOTXT
 11
358.535833
 21
95.694417
 31
0.0
210
0.0
220
0.0
230
1.0
 73
     3
  0
TEXT
  8
1
  6
CONTINUOUS
 62
     7
  5
631
 10
358.535833
 20
88.694417
 30
0.0
 40
2.5
  1
4.   CONDUIT HUB (POLE TYPE)
  7
MONOTXT
 11
358.535833
 21
91.194417
 31
0.0
210
0.0
220
0.0
230
1.0
 73
     3
  0
TEXT
  8
1
  6
CONTINUOUS
 62
     7
  5
632
 10
358.535833
 20
84.194417
 30
0.0
 40
2.5
  1
   (2" CHASE NIPPLE)
  7
MONOTXT
 11
358.535833
 21
86.694417
 31
0.0
210
0.0
220
0.0
230
1.0
 73
     3
  0
TEXT
  8
1
  6
CONTINUOUS
 62
     7
  5
633
 10
383.490917
 20
124.561333
 30
0.0
 40
3.0
  1
LEGEND
  7
MONOTXT
210
0.0
220
0.0
230
1.0
  0
LINE
  8
1
  6
CONTINUOUS
 62
     7
  5
634
 10
382.012417
 20
123.115667
 30
0.0
 11
400.621833
 21
123.115667
 31
0.0
  0
LINE
  8
1
  6
CONTINUOUS
 62
     7
  5
635
 10
304.006833
 20
51.18325
 30
0.0
 11
387.139917
 21
51.18325
 31
0.0
  0
TEXT
  8
1
  6
CONTINUOUS
 62
     7
  5
636
 10
439.923417
 20
117.70025
 30
0.0
 40
2.5
  1
1A - LINE SERVICE
  7
MONOTXT
 11
439.923417
 21
120.20025
 31
0.0
210
0.0
220
0.0
230
1.0
 73
     3
  0
TEXT
  8
1
  6
CONTINUOUS
 62
     7
  5
637
 10
439.923417
 20
113.20025
 30
0.0
 40
2.5
  1
 
  7
MONOTXT
 11
439.923417
 21
115.70025
 31
0.0
210
0.0
220
0.0
230
1.0
 73
     3
  0
TEXT
  8
1
  6
CONTINUOUS
 62
     7
  5
638
 10
439.923417
 20
108.70025
 30
0.0
 40
2.5
  1
3A - LINE NEUTRAL
  7
MONOTXT
 11
439.923417
 21
111.20025
 31
0.0
210
0.0
220
0.0
230
1.0
 73
     3
  0
TEXT
  8
1
  6
CONTINUOUS
 62
     7
  5
639
 10
439.923417
 20
104.20025
 30
0.0
 40
2.5
  1
 
  7
MONOTXT
 11
439.923417
 21
106.70025
 31
0.0
210
0.0
220
0.0
230
1.0
 73
     3
  0
TEXT
  8
1
  6
CONTINUOUS
 62
     7
  5
63A
 10
439.923417
 20
99.70025
 30
0.0
 40
2.5
  1
1B - TO APPLIANCE
  7
MONOTXT
 11
439.923417
 21
102.20025
 31
0.0
210
0.0
220
0.0
230
1.0
 73
     3
  0
TEXT
  8
1
  6
CONTINUOUS
 62
     7
  5
63B
 10
439.923417
 20
95.20025
 30
0.0
 40
2.5
  1
 
  7
MONOTXT
 11
439.923417
 21
97.70025
 31
0.0
210
0.0
220
0.0
230
1.0
 73
     3
  0
TEXT
  8
1
  6
CONTINUOUS
 62
     7
  5
63C
 10
439.923417
 20
90.70025
 30
0.0
 40
2.5
  1
3B - APPLIANCE GROUND
  7
MONOTXT
 11
439.923417
 21
93.20025
 31
0.0
210
0.0
220
0.0
230
1.0
 73
     3
  0
TEXT
  8
1
  6
CONTINUOUS
 62
     7
  5
63D
 10
439.923417
 20
86.20025
 30
0.0
 40
2.5
  1
 
  7
MONOTXT
 11
439.923417
 21
88.70025
 31
0.0
210
0.0
220
0.0
230
1.0
 73
     3
  0
TEXT
  8
1
  6
CONTINUOUS
 62
     7
  5
63E
 10
439.923417
 20
81.70025
 30
0.0
 40
2.5
  1
3C - LINE TO GROUND
  7
MONOTXT
 11
439.923417
 21
84.20025
 31
0.0
210
0.0
220
0.0
230
1.0
 73
     3
  0
TEXT
  8
1
  6
CONTINUOUS
 62
     7
  5
63F
 10
451.104667
 20
126.240083
 30
0.0
 40
3.0
  1
WIRING
  7
MONOTXT
210
0.0
220
0.0
230
1.0
  0
LINE
  8
1
  6
CONTINUOUS
 62
     7
  5
640
 10
449.539333
 20
124.897917
 30
0.0
 11
466.31125
 21
124.897917
 31
0.0
  0
ARC
  8
1
  6
CONTINUOUS
 62
     5
  5
641
 10
112.785844
 20
105.947032
 30
0.0
 40
5.102398
 50
84.955444
 51
184.272347
210
0.0
220
0.0
230
1.0
  0
LINE
  8
1
  6
CONTINUOUS
 62
     5
  5
642
 10
110.187917
 20
103.494667
 30
0.0
 11
107.599417
 21
105.788083
 31
0.0
  0
LINE
  8
1
  6
CONTINUOUS
 62
     5
  5
643
 10
103.30925
 20
111.096833
 30
0.0
 11
119.002917
 21
111.096833
 31
0.0
  0
LINE
  8
1
  6
CONTINUOUS
 62
     5
  5
644
 10
108.19025
 20
101.256333
 30
0.0
 11
107.345417
 21
102.004917
 31
0.0
  0
POLYLINE
  8
1
  6
CONTINUOUS
 62
     5
  5
645
 66
     1
 10
0.0
 20
0.0
 30
0.0
 70
     1
  0
VERTEX
  8
1
  6
CONTINUOUS
 62
     5
  5
646
 10
105.04
 20
101.979083
 30
0.0
  0
VERTEX
  8
1
  6
CONTINUOUS
 62
     5
  5
647
 10
105.613417
 20
111.096833
 30
0.0
  0
VERTEX
  8
1
  6
CONTINUOUS
 62
     5
  5
648
 10
103.30925
 20
111.096833
 30
0.0
  0
VERTEX
  8
1
  6
CONTINUOUS
 62
     5
  5
649
 10
119.002917
 20
111.096833
 30
0.0
  0
VERTEX
  8
1
  6
CONTINUOUS
 62
     5
  5
64A
 10
107.955917
 20
111.096833
 30
0.0
  0
VERTEX
  8
1
  6
CONTINUOUS
 62
     5
  5
64B
 10
107.29575
 20
101.265833
 30
0.0
  0
VERTEX
  8
1
  6
CONTINUOUS
 62
     5
  5
64C
 10
105.04
 20
101.979083
 30
0.0
  0
SEQEND
  8
1
  6
CONTINUOUS
 62
     5
  5
64D
  0
LINE
  8
1
  6
CONTINUOUS
 62
     5
  5
64E
 10
111.357667
 20
107.221667
 30
0.0
 11
109.591
 21
101.592833
 31
0.0
  0
LINE
  8
1
  6
CONTINUOUS
 62
     5
  5
64F
 10
119.05925
 20
123.814083
 30
0.0
 11
119.05925
 21
118.714583
 31
0.0
  0
LINE
  8
1
  6
CONTINUOUS
 62
     5
  5
650
 10
119.05925
 20
120.277917
 30
0.0
 11
109.68425
 21
120.277917
 31
0.0
  0
LINE
  8
1
  6
CONTINUOUS
 62
     5
  5
651
 10
134.116
 20
108.178833
 30
0.0
 11
142.124167
 21
96.581333
 31
0.0
  0
LINE
  8
1
  6
CONTINUOUS
 62
     5
  5
652
 10
136.869167
 20
109.685083
 30
0.0
 11
144.071667
 21
97.694167
 31
0.0
  0
LINE
  8
1
  6
CONTINUOUS
 62
     5
  5
653
 10
125.05925
 20
120.277917
 30
0.0
 11
125.05925
 21
123.277917
 31
0.0
  0
LINE
  8
1
  6
CONTINUOUS
 62
     5
  5
654
 10
94.093917
 20
109.073667
 30
0.0
 11
84.83475
 21
97.454167
 31
0.0
  0
LINE
  8
1
  6
CONTINUOUS
 62
     5
  5
655
 10
98.04675
 20
109.038083
 30
0.0
 11
86.553
 21
96.459083
 31
0.0
  0
LINE
  8
1
  6
CONTINUOUS
 62
     5
  5
656
 10
96.139
 20
106.950167
 30
0.0
 11
93.94825
 21
108.891083
 31
0.0
  0
LINE
  8
1
  6
CONTINUOUS
 62
     5
  5
657
 10
94.115167
 20
104.735167
 30
0.0
 11
92.076167
 21
106.541667
 31
0.0
  0
LINE
  8
1
  6
CONTINUOUS
 62
     5
  5
658
 10
92.09125
 20
102.520333
 30
0.0
 11
90.204
 21
104.192333
 31
0.0
  0
LINE
  8
1
  6
CONTINUOUS
 62
     5
  5
659
 10
90.067417
 20
100.305333
 30
0.0
 11
88.331917
 21
101.842833
 31
0.0
  0
LINE
  8
1
  6
CONTINUOUS
 62
     5
  5
65A
 10
88.0435
 20
98.090333
 30
0.0
 11
86.45975
 21
99.493417
 31
0.0
  0
LINE
  8
1
  6
CONTINUOUS
 62
     5
  5
65B
 10
146.220917
 20
97.626667
 30
0.0
 11
141.622
 21
94.998667
 31
0.0
  0
LINE
  8
1
  6
CONTINUOUS
 62
     5
  5
65C
 10
151.796417
 20
90.312667
 30
0.0
 11
162.296417
 21
90.312667
 31
0.0
  0
LINE
  8
1
  6
CONTINUOUS
 62
     5
  5
65D
 10
151.796417
 20
93.687667
 30
0.0
 11
162.296417
 21
93.687667
 31
0.0
  0
LINE
  8
1
  6
CONTINUOUS
 62
     5
  5
65E
 10
145.66275
 20
98.603417
 30
0.0
 11
146.220917
 21
97.626667
 31
0.0
  0
LINE
  8
1
  6
CONTINUOUS
 62
     5
  5
65F
 10
141.063917
 20
95.975417
 30
0.0
 11
141.622
 21
94.998667
 31
0.0
  0
ARC
  8
1
  6
CONTINUOUS
 62
     5
  5
660
 10
151.611082
 20
100.582608
 30
0.0
 40
6.89743
 50
208.850525
 51
271.539386
210
0.0
220
0.0
230
1.0
  0
ARC
  8
1
  6
CONTINUOUS
 62
     5
  5
661
 10
151.058334
 20
100.416998
 30
0.0
 40
10.131249
 50
209.874906
 51
274.177586
210
0.0
220
0.0
230
1.0
  0
LINE
  8
1
  6
CONTINUOUS
 62
     5
  5
662
 10
125.05925
 20
118.714583
 30
0.0
 11
125.05925
 21
123.814083
 31
0.0
  0
POLYLINE
  8
1
  6
CONTINUOUS
 62
     5
  5
663
 66
     1
 10
0.0
 20
0.0
 30
0.0
  0
VERTEX
  8
1
  6
CONTINUOUS
 62
     5
  5
664
 10
125.05925
 20
120.277917
 30
0.0
  0
VERTEX
  8
1
  6
CONTINUOUS
 62
     5
  5
665
 10
131.43425
 20
120.277917
 30
0.0
  0
VERTEX
  8
1
  6
CONTINUOUS
 62
     5
  5
666
 10
131.43425
 20
120.277917
 30
0.0
 42
-0.418325
  0
VERTEX
  8
1
  6
CONTINUOUS
 62
     5
  5
667
 10
140.779758
 20
110.19193
 30
0.0
  0
VERTEX
  8
1
  6
CONTINUOUS
 62
     5
  5
668
 10
140.77975
 20
110.191917
 30
0.0
  0
VERTEX
  8
1
  6
CONTINUOUS
 62
     5
  5
669
 10
142.490417
 20
96.790667
 30
0.0
  0
VERTEX
  8
1
  6
CONTINUOUS
 62
     5
  5
66A
 10
141.063917
 20
95.975417
 30
0.0
  0
VERTEX
  8
1
  6
CONTINUOUS
 62
     5
  5
66B
 10
145.66275
 20
98.603417
 30
0.0
  0
VERTEX
  8
1
  6
CONTINUOUS
 62
     5
  5
66C
 10
145.01875
 20
98.095417
 30
0.0
  0
VERTEX
  8
1
  6
CONTINUOUS
 62
     5
  5
66D
 10
144.17375
 20
110.322417
 30
0.0
  0
VERTEX
  8
1
  6
CONTINUOUS
 62
     5
  5
66E
 10
144.1737
 20
110.3224
 30
0.0
 42
0.351977
  0
VERTEX
  8
1
  6
CONTINUOUS
 62
     5
  5
66F
 10
133.30925
 20
123.277917
 30
0.0
  0
VERTEX
  8
1
  6
CONTINUOUS
 62
     5
  5
670
 10
133.30925
 20
123.277917
 30
0.0
  0
VERTEX
  8
1
  6
CONTINUOUS
 62
     5
  5
671
 10
125.05925
 20
123.277917
 30
0.0
  0
VERTEX
  8
1
  6
CONTINUOUS
 62
     5
  5
672
 10
125.05925
 20
120.277917
 30
0.0
  0
SEQEND
  8
1
  6
CONTINUOUS
 62
     5
  5
673
  0
LINE
  8
1
  6
CONTINUOUS
 62
     5
  5
674
 10
141.063917
 20
95.975417
 30
0.0
 11
145.66275
 21
98.603417
 31
0.0
  0
POLYLINE
  8
1
  6
CONTINUOUS
 62
     5
  5
675
 66
     1
 10
0.0
 20
0.0
 30
0.0
  0
VERTEX
  8
1
  6
CONTINUOUS
 62
     5
  5
676
 10
119.05925
 20
118.714583
 30
0.0
  0
VERTEX
  8
1
  6
CONTINUOUS
 62
     5
  5
677
 10
119.05925
 20
123.814083
 30
0.0
  0
VERTEX
  8
1
  6
CONTINUOUS
 62
     5
  5
678
 10
119.05925
 20
123.277917
 30
0.0
  0
VERTEX
  8
1
  6
CONTINUOUS
 62
     5
  5
679
 10
107.80925
 20
123.277917
 30
0.0
  0
VERTEX
  8
1
  6
CONTINUOUS
 62
     5
  5
67A
 10
107.80925
 20
123.277917
 30
0.0
 42
0.351714
  0
VERTEX
  8
1
  6
CONTINUOUS
 62
     5
  5
67B
 10
86.093347
 20
106.398764
 30
0.0
  0
VERTEX
  8
1
  6
CONTINUOUS
 62
     5
  5
67C
 10
86.093417
 20
106.398833
 30
0.0
  0
VERTEX
  8
1
  6
CONTINUOUS
 62
     5
  5
67D
 10
83.749667
 20
97.996917
 30
0.0
  0
VERTEX
  8
1
  6
CONTINUOUS
 62
     5
  5
67E
 10
82.96975
 20
98.603417
 30
0.0
  0
VERTEX
  8
1
  6
CONTINUOUS
 62
     5
  5
67F
 10
87.568667
 20
95.975417
 30
0.0
  0
VERTEX
  8
1
  6
CONTINUOUS
 62
     5
  5
680
 10
86.28175
 20
96.820917
 30
0.0
  0
VERTEX
  8
1
  6
CONTINUOUS
 62
     5
  5
681
 10
89.213
 20
105.333333
 30
0.0
  0
VERTEX
  8
1
  6
CONTINUOUS
 62
     5
  5
682
 10
89.213007
 20
105.333281
 30
0.0
 42
-0.337892
  0
VERTEX
  8
1
  6
CONTINUOUS
 62
     5
  5
683
 10
109.68425
 20
120.277917
 30
0.0
  0
VERTEX
  8
1
  6
CONTINUOUS
 62
     5
  5
684
 10
109.68425
 20
120.277917
 30
0.0
  0
VERTEX
  8
1
  6
CONTINUOUS
 62
     5
  5
685
 10
119.05925
 20
120.277917
 30
0.0
  0
VERTEX
  8
1
  6
CONTINUOUS
 62
     5
  5
686
 10
119.05925
 20
118.714583
 30
0.0
  0
SEQEND
  8
1
  6
CONTINUOUS
 62
     5
  5
687
  0
LINE
  8
1
  6
CONTINUOUS
 62
     5
  5
688
 10
82.96975
 20
98.603417
 30
0.0
 11
87.568667
 21
95.975417
 31
0.0
  0
TEXT
  8
1
  6
CONTINUOUS
 62
     7
  5
689
 10
80.268
 20
53.748417
 30
0.0
 40
3.5
  1
480 VOLT JUNCTION BOX DETAIL
  7
MONOTXT
210
0.0
220
0.0
230
1.0
  0
LINE
  8
1
  6
CONTINUOUS
 62
     7
  5
68A
 10
103.4
 20
42.355167
 30
0.0
 11
128.86125
 21
42.355167
 31
0.0
  0
TEXT
  8
1
  6
CONTINUOUS
 62
     7
  5
68B
 10
304.747833
 20
53.07225
 30
0.0
 40
3.5
  1
480 VOLT CONTROL CABINET
  7
MONOTXT
210
0.0
220
0.0
230
1.0
  0
LINE
  8
1
  6
CONTINUOUS
 62
     7
  5
68C
 10
299.988583
 20
42.340917
 30
0.0
 11
325.388417
 21
42.340917
 31
0.0
  0
CIRCLE
  8
1
  6
CONTINUOUS
 62
     5
  5
68D
 10
305.108211
 20
87.11001
 30
0.0
 40
6.428125
210
0.0
220
0.0
230
1.0
  0
LINE
  8
1
  6
CONTINUOUS
 62
     5
  5
68E
 10
297.759917
 20
103.382417
 30
0.0
 11
297.759917
 21
90.372333
 31
0.0
  0
LINE
  8
1
  6
CONTINUOUS
 62
     5
  5
68F
 10
305.285333
 20
103.300583
 30
0.0
 11
305.285333
 21
90.385667
 31
0.0
  0
LINE
  8
1
  6
CONTINUOUS
 62
     5
  5
690
 10
330.64275
 20
108.61925
 30
0.0
 11
318.863833
 21
108.61925
 31
0.0
  0
LINE
  8
1
  6
CONTINUOUS
 62
     5
  5
691
 10
331.05175
 20
103.382417
 30
0.0
 11
321.888833
 21
103.382417
 31
0.0
  0
LINE
  8
1
  6
CONTINUOUS
 62
     5
  5
692
 10
297.759917
 20
90.372333
 30
0.0
 11
301.358917
 21
90.372333
 31
0.0
  0
LINE
  8
1
  6
CONTINUOUS
 62
     5
  5
693
 10
308.31175
 20
90.372333
 30
0.0
 11
318.863833
 21
90.372333
 31
0.0
  0
LINE
  8
1
  6
CONTINUOUS
 62
     5
  5
694
 10
286.283083
 20
87.210833
 30
0.0
 11
301.358917
 21
87.210833
 31
0.0
  0
LINE
  8
1
  6
CONTINUOUS
 62
     5
  5
695
 10
308.31175
 20
87.210833
 30
0.0
 11
321.888833
 21
87.210833
 31
0.0
  0
LINE
  8
1
  6
CONTINUOUS
 62
     5
  5
696
 10
318.863833
 20
90.372333
 30
0.0
 11
318.863833
 21
108.61925
 31
0.0
  0
LINE
  8
1
  6
CONTINUOUS
 62
     5
  5
697
 10
321.888833
 20
87.210833
 30
0.0
 11
321.888833
 21
103.382417
 31
0.0
  0
CIRCLE
  8
1
  6
CONTINUOUS
 62
     5
  5
698
 10
301.759284
 20
90.295209
 30
0.0
 40
0.75625
210
0.0
220
0.0
230
1.0
  0
CIRCLE
  8
1
  6
CONTINUOUS
 62
     5
  5
699
 10
301.677483
 20
87.185887
 30
0.0
 40
0.75625
210
0.0
220
0.0
230
1.0
  0
CIRCLE
  8
1
  6
CONTINUOUS
 62
     5
  5
69A
 10
301.759284
 20
83.912837
 30
0.0
 40
0.75625
210
0.0
220
0.0
230
1.0
  0
CIRCLE
  8
1
  6
CONTINUOUS
 62
     5
  5
69B
 10
305.358403
 20
90.458811
 30
0.0
 40
0.75625
210
0.0
220
0.0
230
1.0
  0
CIRCLE
  8
1
  6
CONTINUOUS
 62
     5
  5
69C
 10
308.221314
 20
90.295209
 30
0.0
 40
0.75625
210
0.0
220
0.0
230
1.0
  0
CIRCLE
  8
1
  6
CONTINUOUS
 62
     5
  5
69D
 10
308.466717
 20
87.267688
 30
0.0
 40
0.75625
210
0.0
220
0.0
230
1.0
  0
TEXT
  8
1
  6
CONTINUOUS
 62
     7
  5
69E
 10
532.030917
 20
71.49475
 30
0.0
 40
6.992667
  1
SIGN LIGHTING WITH
  7
txt
 72
     1
 11
583.935583
 21
78.487417
 31
0.0
210
0.0
220
0.0
230
1.0
 73
     3
  0
TEXT
  8
1
  6
CONTINUOUS
 62
     7
  5
69F
 10
535.469
 20
62.502083
 30
0.0
 40
6.992667
  1
ROADWAY LIGHTING
  7
txt
 72
     1
 11
583.935583
 21
69.49475
 31
0.0
210
0.0
220
0.0
230
1.0
 73
     3
  0
LINE
  8
1
  6
CONTINUOUS
 62
     7
  5
6A0
 10
497.948333
 20
46.019167
 30
0.0
 11
501.948333
 21
46.019167
 31
0.0
  0
LINE
  8
1
  6
CONTINUOUS
 62
     7
  5
6A1
 10
499.948333
 20
49.48325
 30
0.0
 11
497.948333
 21
46.019167
 31
0.0
  0
LINE
  8
1
  6
CONTINUOUS
 62
     7
  5
6A2
 10
501.948333
 20
46.019167
 30
0.0
 11
499.948333
 21
49.48325
 31
0.0
  0
LINE
  8
1
  6
CONTINUOUS
 62
     7
  5
6A3
 10
497.736917
 20
41.507167
 30
0.0
 11
501.736917
 21
41.507167
 31
0.0
  0
LINE
  8
1
  6
CONTINUOUS
 62
     7
  5
6A4
 10
499.736917
 20
44.97125
 30
0.0
 11
497.736917
 21
41.507167
 31
0.0
  0
LINE
  8
1
  6
CONTINUOUS
 62
     7
  5
6A5
 10
501.736917
 20
41.507167
 30
0.0
 11
499.736917
 21
44.97125
 31
0.0
  0
TEXT
  8
1
  6
CONTINUOUS
 62
     7
  5
6A6
 10
499.666333
 20
46.381333
 30
0.0
 40
2.0
  1
1
  7
MONOTXT
210
0.0
220
0.0
230
1.0
  0
TEXT
  8
1
  6
CONTINUOUS
 62
     7
  5
6A7
 10
499.102583
 20
41.798833
 30
0.0
 40
2.0
  1
2
  7
MONOTXT
210
0.0
220
0.0
230
1.0
  0
LINE
  8
1
  6
CONTINUOUS
 62
     7
  5
6A8
 10
500.82075
 20
46.724167
 30
0.0
 11
498.82075
 21
50.18825
 31
0.0
  0
LINE
  8
1
  6
CONTINUOUS
 62
     7
  5
6A9
 10
496.82075
 20
46.724167
 30
0.0
 11
500.82075
 21
46.724167
 31
0.0
  0
LINE
  8
1
  6
CONTINUOUS
 62
     7
  5
6AA
 10
498.82075
 20
50.18825
 30
0.0
 11
496.82075
 21
46.724167
 31
0.0
  0
LINE
  8
1
  6
CONTINUOUS
 62
     7
  5
6AB
 10
496.609333
 20
42.212167
 30
0.0
 11
500.609333
 21
42.212167
 31
0.0
  0
LINE
  8
1
  6
CONTINUOUS
 62
     7
  5
6AC
 10
498.609333
 20
45.67625
 30
0.0
 11
496.609333
 21
42.212167
 31
0.0
  0
LINE
  8
1
  6
CONTINUOUS
 62
     7
  5
6AD
 10
500.609333
 20
42.212167
 30
0.0
 11
498.609333
 21
45.67625
 31
0.0
  0
TEXT
  8
1
  6
CONTINUOUS
 62
     7
  5
6AE
 10
498.53875
 20
47.086333
 30
0.0
 40
2.0
  1
1
  7
MONOTXT
210
0.0
220
0.0
230
1.0
  0
TEXT
  8
1
  6
CONTINUOUS
 62
     7
  5
6AF
 10
497.975
 20
42.503833
 30
0.0
 40
2.0
  1
2
  7
MONOTXT
210
0.0
220
0.0
230
1.0
  0
LINE
  8
1
  6
CONTINUOUS
 62
     7
  5
6B0
 10
500.925667
 20
107.846833
 30
0.0
 11
498.925667
 21
111.310917
 31
0.0
  0
LINE
  8
1
  6
CONTINUOUS
 62
     7
  5
6B1
 10
496.925667
 20
107.846833
 30
0.0
 11
500.925667
 21
107.846833
 31
0.0
  0
LINE
  8
1
  6
CONTINUOUS
 62
     7
  5
6B2
 10
498.925667
 20
111.310917
 30
0.0
 11
496.925667
 21
107.846833
 31
0.0
  0
LINE
  8
1
  6
CONTINUOUS
 62
     7
  5
6B3
 10
496.71425
 20
103.334833
 30
0.0
 11
500.71425
 21
103.334833
 31
0.0
  0
LINE
  8
1
  6
CONTINUOUS
 62
     7
  5
6B4
 10
498.71425
 20
106.798917
 30
0.0
 11
496.71425
 21
103.334833
 31
0.0
  0
LINE
  8
1
  6
CONTINUOUS
 62
     7
  5
6B5
 10
500.71425
 20
103.334833
 30
0.0
 11
498.71425
 21
106.798917
 31
0.0
  0
TEXT
  8
1
  6
CONTINUOUS
 62
     7
  5
6B6
 10
498.643667
 20
108.209
 30
0.0
 40
2.0
  1
1
  7
MONOTXT
210
0.0
220
0.0
230
1.0
  0
TEXT
  8
1
  6
CONTINUOUS
 62
     7
  5
6B7
 10
498.079917
 20
103.6265
 30
0.0
 40
2.0
  1
2
  7
MONOTXT
210
0.0
220
0.0
230
1.0
  0
TEXT
  8
1
  6
CONTINUOUS
 62
     7
  5
6B8
 10
502.42475
 20
108.49825
 30
0.0
 40
2.5
  1
DELETED UNIVERSAL QUICK DISCONNECT
  7
MONOTXT
210
0.0
220
0.0
230
1.0
  0
TEXT
  8
1
  6
CONTINUOUS
 62
     7
  5
6B9
 10
502.183333
 20
103.74875
 30
0.0
 40
2.5
  1
CHANGED TO WIRING AT TOP
  7
MONOTXT
210
0.0
220
0.0
230
1.0
  0
TEXT
  8
1
  6
CONTINUOUS
 62
     7
  5
6BA
 10
109.8215
 20
55.7105
 30
0.0
 40
8.0
  1
*
  7
MONOTXT
210
0.0
220
0.0
230
1.0
  0
TEXT
  8
1
  6
CONTINUOUS
 62
     7
  5
6BB
 10
65.733667
 20
41.51225
 30
0.0
 40
6.0
  1
*
  7
MONOTXT
210
0.0
220
0.0
230
1.0
  0
TEXT
  8
1
  6
CONTINUOUS
 62
     7
  5
6BC
 10
64.232
 20
43.186083
 30
0.0
 40
2.5
  1
(  ) FOR 480 VOLT UNGROUNDED SYSTEM BOTH WIRES ARE
  7
MONOTXT
 72
     4
 11
123.690667
 21
44.436083
 31
0.0
210
0.0
220
0.0
230
1.0
  0
TEXT
  8
1
  6
CONTINUOUS
 62
     7
  5
6BD
 10
80.6395
 20
38.686083
 30
0.0
 40
2.5
  1
PHASE WIRES WITHOUT ANY NEUTRAL WIRE.
  7
MONOTXT
 72
     4
 11
123.680833
 21
39.936083
 31
0.0
210
0.0
220
0.0
230
1.0
  0
TEXT
  8
1
  6
CONTINUOUS
 62
     7
  5
6BE
 10
333.479833
 20
54.972
 30
0.0
 40
8.0
  1
*
  7
MONOTXT
210
0.0
220
0.0
230
1.0
  0
TEXT
  8
1
  6
CONTINUOUS
 62
     7
  5
6BF
 10
262.709
 20
41.246167
 30
0.0
 40
6.0
  1
*
  7
MONOTXT
210
0.0
220
0.0
230
1.0
  0
TEXT
  8
1
  6
CONTINUOUS
 62
     7
  5
6C0
 10
261.079833
 20
43.048833
 30
0.0
 40
2.5
  1
(  ) FOR 480 VOLT UNGROUNDED SYSTEMS, THE SECOND BREAKER IS INSTALLED AND
  7
MONOTXT
 72
     4
 11
346.010833
 21
44.298833
 31
0.0
210
0.0
220
0.0
230
1.0
  0
TEXT
  8
1
  6
CONTINUOUS
 62
     7
  5
6C1
 10
271.306167
 20
38.548833
 30
0.0
 40
2.5
  1
WIRE LEAD 3A BECOMES 2A (A PHASE WIRE), WIRE 2B PARALLELS WIRE 1B.
  7
MONOTXT
 72
     4
 11
346.001
 21
39.798833
 31
0.0
210
0.0
220
0.0
230
1.0
  0
LINE
  8
1
  6
CONTINUOUS
 62
     7
  5
6C2
 10
69.554167
 20
270.675333
 30
0.0
 11
64.411
 21
270.67925
 31
0.0
  0
LINE
  8
1
  6
CONTINUOUS
 62
     7
  5
6C3
 10
124.15175
 20
284.278333
 30
0.0
 11
139.78025
 21
305.309833
 31
0.0
  0
LINE
  8
1
  6
CONTINUOUS
 62
     7
  5
6C4
 10
139.78025
 20
305.309833
 30
0.0
 11
124.095333
 21
274.630167
 31
0.0
  0
LINE
  8
1
  6
CONTINUOUS
 62
     7
  5
6C5
 10
139.78025
 20
305.309833
 30
0.0
 11
124.15775
 21
264.666333
 31
0.0
  0
LINE
  8
1
  6
CONTINUOUS
 62
     7
  5
6C6
 10
139.78025
 20
305.309833
 30
0.0
 11
145.009167
 21
305.309833
 31
0.0
  0
INSERT
  8
1
  6
CONTINUOUS
 62
     1
  5
6C7
  2
LDR
 10
124.15175
 20
284.278333
 30
0.0
 41
240.000001
 42
240.000001
 50
233.383973
210
0.0
220
0.0
230
1.0
  0
INSERT
  8
1
  6
CONTINUOUS
 62
     1
  5
6C8
  2
LDR
 10
124.095333
 20
274.630167
 30
0.0
 41
239.999999
 42
239.999999
 50
242.921704
210
0.0
220
0.0
230
1.0
  0
INSERT
  8
1
  6
CONTINUOUS
 62
     1
  5
6C9
  2
LDR
 10
124.15775
 20
264.666333
 30
0.0
 41
240.0
 42
240.0
 50
248.974299
210
0.0
220
0.0
230
1.0
  0
TEXT
  8
1
  6
CONTINUOUS
 62
     7
  5
6CA
 10
33.730333
 20
120.122667
 30
0.0
 40
2.5
  1
TYPICAL ROADWAY
  7
MONOTXT
 11
33.730333
 21
122.622667
 31
0.0
210
0.0
220
0.0
230
1.0
 73
     3
  0
TEXT
  8
1
  6
CONTINUOUS
 62
     7
  5
6CB
 10
33.730333
 20
115.622667
 30
0.0
 40
2.5
  1
LIGHTING CIRCUIT
  7
MONOTXT
 11
33.730333
 21
118.122667
 31
0.0
210
0.0
220
0.0
230
1.0
 73
     3
  0
LINE
  8
1
  6
CONTINUOUS
 62
     7
  5
6CC
 10
69.975083
 20
93.742667
 30
0.0
 11
71.581333
 21
116.56
 31
0.0
  0
INSERT
  8
1
  6
CONTINUOUS
 62
     1
  5
6CD
  2
LDR
 10
69.975083
 20
93.742667
 30
0.0
 41
240.000001
 42
240.000001
 50
265.972879
210
0.0
220
0.0
230
1.0
  0
LINE
  8
1
  6
CONTINUOUS
 62
     7
  5
6CE
 10
71.581333
 20
116.56
 30
0.0
 11
66.438167
 21
116.563917
 31
0.0
  0
TEXT
  8
1
  6
CONTINUOUS
 62
     7
  5
6CF
 10
146.621833
 20
153.806333
 30
0.0
 40
2.5
  1
SPLICE KITS
  7
MONOTXT
 11
146.621833
 21
156.306333
 31
0.0
210
0.0
220
0.0
230
1.0
 73
     3
  0
TEXT
  8
1
  6
CONTINUOUS
 62
     7
  5
6D0
 10
146.621833
 20
149.306333
 30
0.0
 40
2.5
  1
(NO FUSES)
  7
MONOTXT
 11
146.621833
 21
151.806333
 31
0.0
210
0.0
220
0.0
230
1.0
 73
     3
  0
LINE
  8
1
  6
CONTINUOUS
 62
     7
  5
6D1
 10
140.744167
 20
154.49375
 30
0.0
 11
125.05925
 21
123.814083
 31
0.0
  0
LINE
  8
1
  6
CONTINUOUS
 62
     7
  5
6D2
 10
140.744167
 20
154.49375
 30
0.0
 11
125.121667
 21
113.85025
 31
0.0
  0
LINE
  8
1
  6
CONTINUOUS
 62
     7
  5
6D3
 10
140.744167
 20
154.49375
 30
0.0
 11
145.973083
 21
154.49375
 31
0.0
  0
INSERT
  8
1
  6
CONTINUOUS
 62
     1
  5
6D4
  2
LDR
 10
125.05925
 20
123.814083
 30
0.0
 41
239.999999
 42
239.999999
 50
242.921704
210
0.0
220
0.0
230
1.0
  0
INSERT
  8
1
  6
CONTINUOUS
 62
     1
  5
6D5
  2
LDR
 10
125.121667
 20
113.85025
 30
0.0
 41
240.0
 42
240.0
 50
248.974299
210
0.0
220
0.0
230
1.0
  0
TEXT
  8
1
  6
CONTINUOUS
 62
     7
  5
6D6
 10
158.222333
 20
114.043667
 30
0.0
 40
2.5
  1
TYPICAL ROADWAY
  7
MONOTXT
 11
158.222333
 21
116.543667
 31
0.0
210
0.0
220
0.0
230
1.0
 73
     3
  0
TEXT
  8
1
  6
CONTINUOUS
 62
     7
  5
6D7
 10
158.222333
 20
109.543667
 30
0.0
 40
2.5
  1
LIGHTING CIRCUIT
  7
MONOTXT
 11
158.222333
 21
112.043667
 31
0.0
210
0.0
220
0.0
230
1.0
 73
     3
  0
TEXT
  8
1
  6
CONTINUOUS
 62
     7
  5
6D8
 10
127.62825
 20
72.841917
 30
0.0
 40
2.5
  1
TO CONTROL CABINET
  7
MONOTXT
210
0.0
220
0.0
230
1.0
  0
LINE
  8
1
  6
CONTINUOUS
 62
     7
  5
6D9
 10
108.607333
 20
95.941333
 30
0.0
 11
122.180917
 21
73.93175
 31
0.0
  0
LINE
  8
1
  6
CONTINUOUS
 62
     7
  5
6DA
 10
122.180917
 20
73.93175
 30
0.0
 11
127.62825
 21
73.93175
 31
0.0
  0
INSERT
  8
1
  6
CONTINUOUS
 62
     1
  5
6DB
  2
LDR
 10
113.17475
 20
88.53525
 30
0.0
 41
240.0
 42
240.0
 50
121.66267
210
0.0
220
0.0
230
1.0
  0
INSERT
  8
1
  6
CONTINUOUS
 62
     1
  5
6DC
  2
LDR
 10
108.607333
 20
95.941333
 30
0.0
 41
239.999999
 42
239.999999
 50
121.662651
210
0.0
220
0.0
230
1.0
  0
INSERT
  8
1
  6
CONTINUOUS
 62
     1
  5
6DD
  2
LDR
 10
108.607333
 20
95.941333
 30
0.0
 41
239.999999
 42
239.999999
 50
121.662651
210
0.0
220
0.0
230
1.0
  0
LINE
  8
1
  6
CONTINUOUS
 62
     7
  5
6DE
 10
159.518333
 20
93.747
 30
0.0
 11
175.78125
 21
109.732333
 31
0.0
  0
INSERT
  8
1
  6
CONTINUOUS
 62
     1
  5
6DF
  2
LDR
 10
159.518333
 20
93.747
 30
0.0
 41
240.0
 42
240.0
 50
224.506827
210
0.0
220
0.0
230
1.0
  0
ENDSEC
  0
EOF
