  0
SECTION
  2
HEADER
  9
$ACADVER
  1
AC1009
  9
$INSBASE
 10
0.0
 20
0.0
 30
0.0
  9
$EXTMIN
 10
-1.0065
 20
-0.00175
 30
0.0
  9
$EXTMAX
 10
679.0735
 20
440.301167
 30
0.0
  9
$LIMMIN
 10
0.0
 20
0.0
  9
$LIMMAX
 10
12.0
 20
9.0
  9
$ORTHOMODE
 70
     0
  9
$REGENMODE
 70
     1
  9
$FILLMODE
 70
     1
  9
$QTEXTMODE
 70
     0
  9
$MIRRTEXT
 70
     1
  9
$DRAGMODE
 70
     2
  9
$LTSCALE
 40
1.0
  9
$OSMODE
 70
     0
  9
$ATTMODE
 70
     1
  9
$TEXTSIZE
 40
0.2
  9
$TRACEWID
 40
0.05
  9
$TEXTSTYLE
  7
STANDARD
  9
$CLAYER
  8
0
  9
$CELTYPE
  6
CONTINUOUS
  9
$CECOLOR
 62
   256
  9
$DIMSCALE
 40
1.0
  9
$DIMASZ
 40
0.18
  9
$DIMEXO
 40
0.0625
  9
$DIMDLI
 40
0.38
  9
$DIMRND
 40
0.0
  9
$DIMDLE
 40
0.0
  9
$DIMEXE
 40
0.18
  9
$DIMTP
 40
0.0
  9
$DIMTM
 40
0.0
  9
$DIMTXT
 40
0.18
  9
$DIMCEN
 40
0.09
  9
$DIMTSZ
 40
0.0
  9
$DIMTOL
 70
     0
  9
$DIMLIM
 70
     0
  9
$DIMTIH
 70
     1
  9
$DIMTOH
 70
     1
  9
$DIMSE1
 70
     0
  9
$DIMSE2
 70
     0
  9
$DIMTAD
 70
     0
  9
$DIMZIN
 70
     0
  9
$DIMBLK
  1

  9
$DIMASO
 70
     1
  9
$DIMSHO
 70
     1
  9
$DIMPOST
  1

  9
$DIMAPOST
  1

  9
$DIMALT
 70
     0
  9
$DIMALTD
 70
     2
  9
$DIMALTF
 40
25.4
  9
$DIMLFAC
 40
1.0
  9
$DIMTOFL
 70
     0
  9
$DIMTVP
 40
0.0
  9
$DIMTIX
 70
     0
  9
$DIMSOXD
 70
     0
  9
$DIMSAH
 70
     0
  9
$DIMBLK1
  1

  9
$DIMBLK2
  1

  9
$DIMSTYLE
  2
STANDARD
  9
$DIMCLRD
 70
     0
  9
$DIMCLRE
 70
     0
  9
$DIMCLRT
 70
     0
  9
$DIMTFAC
 40
1.0
  9
$DIMGAP
 40
0.09
  9
$LUNITS
 70
     2
  9
$LUPREC
 70
     4
  9
$AXISMODE
 70
     0
  9
$AXISUNIT
 10
0.0
 20
0.0
  9
$SKETCHINC
 40
0.1
  9
$FILLETRAD
 40
0.0
  9
$AUNITS
 70
     0
  9
$AUPREC
 70
     0
  9
$MENU
  1
acad
  9
$ELEVATION
 40
0.0
  9
$PELEVATION
 40
0.0
  9
$THICKNESS
 40
0.0
  9
$LIMCHECK
 70
     0
  9
$BLIPMODE
 70
     1
  9
$CHAMFERA
 40
0.0
  9
$CHAMFERB
 40
0.0
  9
$SKPOLY
 70
     0
  9
$TDCREATE
 40
2451803.418333334
  9
$TDUPDATE
 40
2451803.418333334
  9
$TDINDWG
 40
0.0000000000
  9
$TDUSRTIMER
 40
0.0000000000
  9
$USRTIMER
 70
     1
  9
$ANGBASE
 50
0.0
  9
$ANGDIR
 70
     0
  9
$PDMODE
 70
     0
  9
$PDSIZE
 40
0.0
  9
$PLINEWID
 40
0.0
  9
$COORDS
 70
     0
  9
$SPLFRAME
 70
     0
  9
$SPLINETYPE
 70
     6
  9
$SPLINESEGS
 70
    10
  9
$ATTDIA
 70
     0
  9
$ATTREQ
 70
     1
  9
$HANDLING
 70
     1
  9
$HANDSEED
  5
734
  9
$SURFTAB1
 70
     6
  9
$SURFTAB2
 70
     6
  9
$SURFTYPE
 70
     6
  9
$SURFU
 70
     6
  9
$SURFV
 70
     6
  9
$UCSNAME
  2

  9
$UCSORG
 10
0.0
 20
0.0
 30
0.0
  9
$UCSXDIR
 10
1.0
 20
0.0
 30
0.0
  9
$UCSYDIR
 10
0.0
 20
1.0
 30
0.0
  9
$PUCSNAME
  2

  9
$PUCSORG
 10
0.0
 20
0.0
 30
0.0
  9
$PUCSXDIR
 10
1.0
 20
0.0
 30
0.0
  9
$PUCSYDIR
 10
0.0
 20
1.0
 30
0.0
  9
$USERI1
 70
     0
  9
$USERI2
 70
     0
  9
$USERI3
 70
     0
  9
$USERI4
 70
     0
  9
$USERI5
 70
     0
  9
$USERR1
 40
0.0
  9
$USERR2
 40
0.0
  9
$USERR3
 40
0.0
  9
$USERR4
 40
0.0
  9
$USERR5
 40
0.0
  9
$WORLDVIEW
 70
     1
  9
$SHADEDGE
 70
     3
  9
$SHADEDIF
 70
    70
  9
$TILEMODE
 70
     1
  9
$MAXACTVP
 70
    16
  9
$PINSBASE
 10
0.0
 20
0.0
 30
0.0
  9
$PLIMCHECK
 70
     0
  9
$PEXTMIN
 10
-1.000000E+20
 20
-1.000000E+20
 30
-1.000000E+20
  9
$PEXTMAX
 10
-1.000000E+20
 20
-1.000000E+20
 30
-1.000000E+20
  9
$PLIMMIN
 10
0.0
 20
0.0
  9
$PLIMMAX
 10
12.0
 20
9.0
  9
$UNITMODE
 70
     0
  9
$VISRETAIN
 70
     0
  9
$PLINEGEN
 70
     1
  9
$PSLTSCALE
 70
     0
  9
$TREEDEPTH
 70
  3020
  9
$DWGCODEPAGE
  3
ansi_1252
  0
ENDSEC
  0
SECTION
  2
TABLES
  0
TABLE
  2
VPORT
 70
     1
  0
VPORT
  2
*ACTIVE
 70
     0
 10
0.0
 20
0.0
 11
1.0
 21
1.0
 12
0.0
 22
0.0
 13
0.0
 23
0.0
 14
0.0
 24
0.0
 15
0.0
 25
0.0
 16
0.0
 26
0.0
 36
1.0
 17
254.982141
 27
111.577458
 37
0.0
 40
708.904083
 41
1.795122
 42
50.0
 43
0.084167
 44
0.0
 50
0.0
 51
0.0
 71
     0
 72
   100
 73
     1
 74
     0
 75
     0
 76
     0
 77
     0
 78
     0
  0
ENDTAB
  0
TABLE
  2
LTYPE
 70
     7
  0
LTYPE
  2
CONTINUOUS
 70
     0
  3
Solid line
 72
    65
 73
     0
 40
0.0
  0
LTYPE
  2
DOT
 70
    64
  3
. . . . . . . . . . . . . . . . . . . . . . . . . . . . . . . . .
 72
    65
 73
     2
 40
0.25
 49
0.0
 49
-0.25
  0
LTYPE
  2
HIDDEN
 70
    64
  3
__ __ __ __ __ __ __ __ __ __ __ __ __ __ __ __ __ __ __ __ __ 
 72
    65
 73
     2
 40
0.375
 49
0.25
 49
-0.125
  0
LTYPE
  2
DASHED
 70
    64
  3
__ __ __ __ __ __ __ __ __ __ __ __ __ __ __ __ __ __ __ __ __
 72
    65
 73
     2
 40
0.75
 49
0.5
 49
-0.25
  0
LTYPE
  2
DASHDOT
 70
    64
  3
__ . __ . __ . __ . __ . __ . __ . __ . __ . __ . __ . __ . _
 72
    65
 73
     4
 40
1.0
 49
0.5
 49
-0.25
 49
0.0
 49
-0.25
  0
LTYPE
  2
DIVIDE
 70
    64
  3
____ . . ____ . . ____ . . ____ . . ____ . . ____ . . ____ . .
 72
    65
 73
     6
 40
1.25
 49
0.5
 49
-0.25
 49
0.0
 49
-0.25
 49
0.0
 49
-0.25
  0
LTYPE
  2
CENTER
 70
    64
  3
____ _ ____ _ ____ _ ____ _ ____ _ ____ _ ____ _ ____ _ ____ _
 72
    65
 73
     4
 40
2.0
 49
1.25
 49
-0.25
 49
0.25
 49
-0.25
  0
ENDTAB
  0
TABLE
  2
LAYER
 70
     5
  0
LAYER
  2
0
 70
     0
 62
     7
  6
CONTINUOUS
  0
LAYER
  2
CONSTRUCTION_CLASS
 70
     0
 62
     7
  6
CONTINUOUS
  0
LAYER
  2
PATTERN_CLASS
 70
     0
 62
     7
  6
CONTINUOUS
  0
LAYER
  2
61
 70
    64
 62
     7
  6
CONTINUOUS
  0
LAYER
  2
1
 70
    64
 62
     7
  6
CONTINUOUS
  0
ENDTAB
  0
TABLE
  2
STYLE
 70
     4
  0
STYLE
  2
STANDARD
 70
     0
 40
0.0
 41
1.0
 50
0.0
 71
     0
 42
0.0
  3
txt
  4

  0
STYLE
  2
MONOTXT
 70
     0
 40
0.2
 41
1.0
 50
0.0
 71
     0
 42
0.2
  3
MONOTXT
  4

  0
STYLE
  2
txt
 70
     0
 40
0.2
 41
1.0
 50
0.0
 71
     0
 42
0.2
  3
TXT
  4

  0
STYLE
  2
ROMANT
 70
     0
 40
0.2
 41
1.0
 50
0.0
 71
     0
 42
0.2
  3
ROMANT
  4

  0
ENDTAB
  0
TABLE
  2
VIEW
 70
     0
  0
ENDTAB
  0
TABLE
  2
UCS
 70
     0
  0
ENDTAB
  0
TABLE
  2
APPID
 70
     1
  0
APPID
  2
ACAD
 70
     0
  0
ENDTAB
  0
TABLE
  2
DIMSTYLE
 70
     1
  0
DIMSTYLE
  2
STANDARD
 70
     0
  3

  4

  5

  6

  7

 40
1.0
 41
0.18
 42
0.0625
 43
0.38
 44
0.18
 45
0.0
 46
0.0
 47
0.0
 48
0.0
140
0.18
141
0.09
142
0.0
143
25.4
144
1.0
145
0.0
146
1.0
147
0.09
 71
     0
 72
     0
 73
     1
 74
     1
 75
     0
 76
     0
 77
     0
 78
     0
170
     0
171
     2
172
     0
173
     0
174
     0
175
     0
176
     0
177
     0
178
     0
  0
ENDTAB
  0
ENDSEC
  0
SECTION
  2
BLOCKS
  0
BLOCK
  8
1
  6
CONTINUOUS
 62
     1
  5
D4
  2
LDR
 70
     0
 10
0.0
 20
0.0
 30
0.0
  3
LNR
  0
POLYLINE
  8
1
  6
CONTINUOUS
 62
     1
  5
D5
 66
     1
 10
0.0
 20
0.0
 30
0.0
210
0.0
220
0.0
230
1.0
  0
VERTEX
  8
1
  6
CONTINUOUS
 62
     1
  5
D6
 10
-0.011987
 20
-0.001802
 30
0.0
 42
-0.265147
  0
VERTEX
  8
1
  6
CONTINUOUS
 62
     1
  5
D7
 10
-0.011849
 20
-0.001604
 30
0.0
 42
-0.064653
  0
VERTEX
  8
1
  6
CONTINUOUS
 62
     1
  5
D8
 10
-0.011407
 20
-0.001387
 30
0.0
 42
-0.025822
  0
VERTEX
  8
1
  6
CONTINUOUS
 62
     1
  5
D9
 10
-0.010681
 20
-0.00116
 30
0.0
 42
-0.014504
  0
VERTEX
  8
1
  6
CONTINUOUS
 62
     1
  5
DA
 10
-0.0097
 20
-0.000933
 30
0.0
 42
-0.009896
  0
VERTEX
  8
1
  6
CONTINUOUS
 62
     1
  5
DB
 10
-0.008505
 20
-0.000715
 30
0.0
 42
-0.007708
  0
VERTEX
  8
1
  6
CONTINUOUS
 62
     1
  5
DC
 10
-0.007146
 20
-0.000515
 30
0.0
 42
-0.006655
  0
VERTEX
  8
1
  6
CONTINUOUS
 62
     1
  5
DD
 10
-0.005679
 20
-0.000342
 30
0.0
 42
-0.006278
  0
VERTEX
  8
1
  6
CONTINUOUS
 62
     1
  5
DE
 10
-0.004164
 20
-0.000202
 30
0.0
 42
-0.006439
  0
VERTEX
  8
1
  6
CONTINUOUS
 62
     1
  5
DF
 10
-0.002666
 20
-0.000101
 30
0.0
 42
-0.007196
  0
VERTEX
  8
1
  6
CONTINUOUS
 62
     1
  5
E0
 10
-0.001246
 20
-0.000044
 30
0.0
 42
-0.008852
  0
VERTEX
  8
1
  6
CONTINUOUS
 62
     1
  5
E1
 10
0.000037
 20
-0.000034
 30
0.0
 42
-0.008852
  0
SEQEND
  8
1
  6
CONTINUOUS
 62
     1
  5
E2
  0
POLYLINE
  8
1
  6
CONTINUOUS
 62
     1
  5
E3
 66
     1
 10
0.0
 20
0.0
 30
0.0
210
0.0
220
0.0
230
1.0
  0
VERTEX
  8
1
  6
CONTINUOUS
 62
     1
  5
E4
 10
0.000039
 20
0.000014
 30
0.0
 42
-0.005019
  0
VERTEX
  8
1
  6
CONTINUOUS
 62
     1
  5
E5
 10
-0.001103
 20
0.000071
 30
0.0
 42
-0.004038
  0
VERTEX
  8
1
  6
CONTINUOUS
 62
     1
  5
E6
 10
-0.002373
 20
0.000158
 30
0.0
 42
-0.003548
  0
VERTEX
  8
1
  6
CONTINUOUS
 62
     1
  5
E7
 10
-0.003725
 20
0.00027
 30
0.0
 42
-0.003367
  0
VERTEX
  8
1
  6
CONTINUOUS
 62
     1
  5
E8
 10
-0.005111
 20
0.000405
 30
0.0
 42
-0.003436
  0
VERTEX
  8
1
  6
CONTINUOUS
 62
     1
  5
E9
 10
-0.006481
 20
0.000556
 30
0.0
 42
-0.003778
  0
VERTEX
  8
1
  6
CONTINUOUS
 62
     1
  5
EA
 10
-0.007786
 20
0.00072
 30
0.0
 42
-0.00451
  0
VERTEX
  8
1
  6
CONTINUOUS
 62
     1
  5
EB
 10
-0.008979
 20
0.000889
 30
0.0
 42
-0.00594
  0
VERTEX
  8
1
  6
CONTINUOUS
 62
     1
  5
EC
 10
-0.010018
 20
0.001058
 30
0.0
 42
-0.008921
  0
VERTEX
  8
1
  6
CONTINUOUS
 62
     1
  5
ED
 10
-0.010864
 20
0.00122
 30
0.0
 42
-0.016392
  0
VERTEX
  8
1
  6
CONTINUOUS
 62
     1
  5
EE
 10
-0.011488
 20
0.001371
 30
0.0
 42
-0.04458
  0
VERTEX
  8
1
  6
CONTINUOUS
 62
     1
  5
EF
 10
-0.011867
 20
0.001503
 30
0.0
 42
-0.317392
  0
VERTEX
  8
1
  6
CONTINUOUS
 62
     1
  5
F0
 10
-0.011987
 20
0.001614
 30
0.0
 42
-0.317392
  0
SEQEND
  8
1
  6
CONTINUOUS
 62
     1
  5
F1
  0
ENDBLK
  8
1
  6
CONTINUOUS
 62
     1
  5
F2
  0
ENDSEC
  0
SECTION
  2
ENTITIES
  0
LINE
  8
61
  6
CONTINUOUS
 62
     1
  5
29
 10
668.0935
 20
430.301167
 30
0.0
 11
29.0535
 21
430.301167
 31
0.0
  0
LINE
  8
61
  6
CONTINUOUS
 62
     1
  5
2A
 10
29.0535
 20
430.301167
 30
0.0
 11
29.0535
 21
10.281167
 31
0.0
  0
LINE
  8
61
  6
CONTINUOUS
 62
     1
  5
2B
 10
668.1135
 20
10.261167
 30
0.0
 11
29.0535
 21
10.281167
 31
0.0
  0
LINE
  8
61
  6
CONTINUOUS
 62
     1
  5
2C
 10
668.0935
 20
430.301167
 30
0.0
 11
668.1135
 21
10.261167
 31
0.0
  0
LINE
  8
61
  6
CONTINUOUS
 62
     7
  5
2D
 10
661.9935
 20
425.561167
 30
0.0
 11
554.0135
 21
425.541167
 31
0.0
  0
LINE
  8
61
  6
CONTINUOUS
 62
     7
  5
2E
 10
554.0135
 20
425.541167
 30
0.0
 11
554.0135
 21
405.541167
 31
0.0
  0
LINE
  8
61
  6
CONTINUOUS
 62
     7
  5
2F
 10
661.9935
 20
425.561167
 30
0.0
 11
661.9935
 21
405.561167
 31
0.0
  0
LINE
  8
61
  6
CONTINUOUS
 62
     7
  5
30
 10
661.9935
 20
405.561167
 30
0.0
 11
554.0135
 21
405.541167
 31
0.0
  0
LINE
  8
61
  6
CONTINUOUS
 62
     7
  5
31
 10
662.0135
 20
415.521167
 30
0.0
 11
553.9935
 21
415.541167
 31
0.0
  0
LINE
  8
61
  6
CONTINUOUS
 62
     7
  5
32
 10
564.0135
 20
425.541167
 30
0.0
 11
564.0135
 21
405.541167
 31
0.0
  0
LINE
  8
61
  6
CONTINUOUS
 62
     7
  5
33
 10
574.0135
 20
425.541167
 30
0.0
 11
574.0135
 21
405.541167
 31
0.0
  0
LINE
  8
61
  6
CONTINUOUS
 62
     7
  5
34
 10
587.6935
 20
425.541167
 30
0.0
 11
587.6935
 21
405.541167
 31
0.0
  0
LINE
  8
61
  6
CONTINUOUS
 62
     7
  5
35
 10
651.9935
 20
425.561167
 30
0.0
 11
651.9935
 21
405.561167
 31
0.0
  0
LINE
  8
61
  6
CONTINUOUS
 62
     7
  5
36
 10
641.9935
 20
425.561167
 30
0.0
 11
641.9935
 21
405.561167
 31
0.0
  0
LINE
  8
61
  6
CONTINUOUS
 62
     7
  5
37
 10
620.0135
 20
425.541167
 30
0.0
 11
620.0135
 21
405.541167
 31
0.0
  0
LINE
  8
61
  6
CONTINUOUS
 62
     7
  5
38
 10
610.0135
 20
425.541167
 30
0.0
 11
610.0135
 21
405.541167
 31
0.0
  0
TEXT
  8
61
  6
CONTINUOUS
 62
     7
  5
3A
 10
556.0535
 20
422.521167
 30
0.0
 40
1.20075
  1
PUBLIC
 50
0.033272
 41
1.001804
  7
MONOTXT
210
0.0
220
0.0
230
1.0
  0
TEXT
  8
61
  6
CONTINUOUS
 62
     7
  5
3B
 10
556.1335
 20
420.001167
 30
0.0
 40
1.20075
  1
ROADS
 50
0.124322
 41
0.996877
  7
MONOTXT
210
0.0
220
0.0
230
1.0
  0
TEXT
  8
61
  6
CONTINUOUS
 62
     7
  5
3C
 10
557.3335
 20
417.501167
 30
0.0
 40
1.20075
  1
DIV.
 50
359.931522
 41
0.994864
  7
MONOTXT
210
0.0
220
0.0
230
1.0
  0
TEXT
  8
61
  6
CONTINUOUS
 62
     7
  5
3D
 10
566.2135
 20
422.581167
 30
0.0
 40
1.20075
  1
STATE
 50
0.058969
 41
0.998196
  7
MONOTXT
210
0.0
220
0.0
230
1.0
  0
TEXT
  8
61
  6
CONTINUOUS
 62
     7
  5
3E
 10
567.0935
 20
420.081167
 30
0.0
 40
1.20075
  1
DIST.
 50
0.055889
 41
0.999584
  7
MONOTXT
210
0.0
220
0.0
230
1.0
  0
TEXT
  8
61
  6
CONTINUOUS
 62
     7
  5
3F
 10
567.6735
 20
417.561167
 30
0.0
 40
1.20075
  1
NO.
 50
359.852072
 41
0.997779
  7
MONOTXT
210
0.0
220
0.0
230
1.0
  0
TEXT
  8
61
  6
CONTINUOUS
 62
     7
  5
40
 10
578.2135
 20
422.521167
 30
0.0
 40
1.20075
  1
STATE
 50
0.058969
 41
0.998196
  7
MONOTXT
210
0.0
220
0.0
230
1.0
  0
TEXT
  8
61
  6
CONTINUOUS
 62
     7
  5
41
 10
577.1335
 20
420.101167
 30
0.0
 40
1.20075
  1
PROJECT
 50
359.908431
 41
1.000069
  7
MONOTXT
210
0.0
220
0.0
230
1.0
  0
TEXT
  8
61
  6
CONTINUOUS
 62
     7
  5
42
 10
579.8735
 20
417.561167
 30
0.0
 40
1.20075
  1
NO.
 50
0.225453
 41
0.993546
  7
MONOTXT
210
0.0
220
0.0
230
1.0
  0
TEXT
  8
61
  6
CONTINUOUS
 62
     7
  5
43
 10
595.5135
 20
421.401167
 30
0.0
 40
1.20075
  1
FEDERAL
 50
0.006714
 41
0.998543
  7
MONOTXT
210
0.0
220
0.0
230
1.0
  0
TEXT
  8
61
  6
CONTINUOUS
 62
     7
  5
44
 10
593.9735
 20
418.741167
 30
0.0
 40
1.20075
  1
PROJECT NO.
 50
359.921531
 41
1.000694
  7
MONOTXT
210
0.0
220
0.0
230
1.0
  0
TEXT
  8
61
  6
CONTINUOUS
 62
     7
  5
45
 10
612.2535
 20
421.341167
 30
0.0
 40
1.20075
  1
FISCAL
 50
359.941939
 41
0.998959
  7
MONOTXT
210
0.0
220
0.0
230
1.0
  0
TEXT
  8
61
  6
CONTINUOUS
 62
     7
  5
46
 10
612.7735
 20
418.441167
 30
0.0
 40
1.20075
  1
YEAR
 50
0.104606
 41
0.993268
  7
MONOTXT
210
0.0
220
0.0
230
1.0
  0
TEXT
  8
61
  6
CONTINUOUS
 62
     7
  5
47
 10
626.8735
 20
419.801167
 30
0.0
 40
1.20075
  1
COUNTY
 50
0.068575
 41
1.001874
  7
MONOTXT
210
0.0
220
0.0
230
1.0
  0
TEXT
  8
61
  6
CONTINUOUS
 62
     7
  5
48
 10
644.5135
 20
421.461167
 30
0.0
 40
1.20075
  1
SHEET
 50
0.058969
 41
0.997571
  7
MONOTXT
210
0.0
220
0.0
230
1.0
  0
TEXT
  8
61
  6
CONTINUOUS
 62
     7
  5
49
 10
645.9335
 20
418.741167
 30
0.0
 40
1.20075
  1
NO.
 50
359.852072
 41
0.997779
  7
MONOTXT
210
0.0
220
0.0
230
1.0
  0
TEXT
  8
61
  6
CONTINUOUS
 62
     7
  5
4A
 10
654.2535
 20
421.321167
 30
0.0
 40
1.20075
  1
TOTAL
 50
359.926039
 41
0.998543
  7
MONOTXT
210
0.0
220
0.0
230
1.0
  0
TEXT
  8
61
  6
CONTINUOUS
 62
     7
  5
4B
 10
653.7935
 20
418.621167
 30
0.0
 40
1.20075
  1
SHEETS
 50
359.958675
  7
MONOTXT
210
0.0
220
0.0
230
1.0
  0
TEXT
  8
61
  6
CONTINUOUS
 62
     7
  5
4C
 10
566.6135
 20
409.741167
 30
0.0
 40
2.401333
  1
  
 50
0.029406
 41
0.996495
  7
MONOTXT
210
0.0
220
0.0
230
1.0
  0
TEXT
  8
61
  6
CONTINUOUS
 62
     7
  5
4D
 10
643.7935
 20
409.461167
 30
0.0
 40
2.401333
  1
   
 50
0.011508
 41
1.001006
  7
MONOTXT
210
0.0
220
0.0
230
1.0
  0
TEXT
  8
61
  6
CONTINUOUS
 62
     7
  5
4E
 10
653.6735
 20
409.441167
 30
0.0
 40
2.401333
  1
   
 50
359.922128
 41
1.000555
  7
MONOTXT
210
0.0
220
0.0
230
1.0
  0
TEXT
  8
61
  6
CONTINUOUS
 62
     7
  5
4F
 10
577.0535
 20
412.841167
 30
0.0
 40
2.00675
  1
    
 50
0.054383
 41
0.993729
  7
MONOTXT
210
0.0
220
0.0
230
1.0
  0
TEXT
  8
61
  6
CONTINUOUS
 62
     7
  5
50
 10
574.1335
 20
409.821167
 30
0.0
 40
1.989583
  1
       
 50
0.064678
 41
1.000963
  7
MONOTXT
210
0.0
220
0.0
230
1.0
  0
TEXT
  8
61
  6
CONTINUOUS
 62
     7
  5
51
 10
575.0935
 20
406.921167
 30
0.0
 40
1.989583
  1
      
 50
359.958053
 41
1.000293
  7
MONOTXT
210
0.0
220
0.0
230
1.0
  0
TEXT
  8
61
  6
CONTINUOUS
 62
     7
  5
52
 10
586.0535
 20
411.561167
 30
0.0
 40
2.401333
  1
           
 50
0.011508
 41
0.998751
  7
MONOTXT
210
0.0
220
0.0
230
1.0
  0
TEXT
  8
61
  6
CONTINUOUS
 62
     7
  5
53
 10
585.9335
 20
407.901167
 30
0.0
 40
2.401333
  1
           
 50
0.011508
 41
0.999584
  7
MONOTXT
210
0.0
220
0.0
230
1.0
  0
TEXT
  8
61
  6
CONTINUOUS
 62
     7
  5
54
 10
621.2735
 20
409.641167
 30
0.0
 40
2.00675
  1
          
 50
0.009222
 41
0.992774
  7
MONOTXT
210
0.0
220
0.0
230
1.0
  0
ARC
  8
61
  6
CONTINUOUS
 62
     3
  5
55
 10
10.751257
 20
341.542462
 30
0.0
 40
2.499998
 50
323.130094
 51
316.232156
210
0.0
220
0.0
230
1.0
  0
ARC
  8
61
  6
CONTINUOUS
 62
     3
  5
56
 10
10.751257
 20
286.542462
 30
0.0
 40
2.499998
 50
323.130094
 51
315.375767
210
0.0
220
0.0
230
1.0
  0
ARC
  8
61
  6
CONTINUOUS
 62
     3
  5
57
 10
10.471257
 20
138.102462
 30
0.0
 40
2.499998
 50
322.671753
 51
321.716147
210
0.0
220
0.0
230
1.0
  0
ARC
  8
61
  6
CONTINUOUS
 62
     3
  5
58
 10
10.471257
 20
83.102462
 30
0.0
 40
2.499998
 50
323.130094
 51
312.314392
210
0.0
220
0.0
230
1.0
  0
LINE
  8
61
  6
CONTINUOUS
 62
     2
  5
59
 10
12.7735
 20
341.541167
 30
0.0
 11
20.7535
 21
341.561167
 31
0.0
  0
LINE
  8
61
  6
CONTINUOUS
 62
     2
  5
5A
 10
12.7535
 20
286.541167
 30
0.0
 11
20.7535
 21
286.541167
 31
0.0
  0
LINE
  8
61
  6
CONTINUOUS
 62
     2
  5
5B
 10
12.4735
 20
138.121167
 30
0.0
 11
20.4735
 21
138.121167
 31
0.0
  0
LINE
  8
61
  6
CONTINUOUS
 62
     2
  5
5C
 10
12.4935
 20
83.101167
 30
0.0
 11
20.4735
 21
83.101167
 31
0.0
  0
LINE
  8
61
  6
DASHED
 62
     1
  5
5D
 10
-0.9465
 20
440.301167
 30
0.0
 11
679.0735
 21
440.301167
 31
0.0
  0
LINE
  8
61
  6
DASHED
 62
     1
  5
5E
 10
679.0535
 20
0.281167
 30
0.0
 11
-1.0065
 21
0.261167
 31
0.0
  0
TEXT
  8
61
  6
CONTINUOUS
 62
     7
  5
5F
 10
654.8935
 20
385.641167
 30
0.0
 40
2.401333
  1
     
 41
1.001388
  7
MONOTXT
210
0.0
220
0.0
230
1.0
  0
LINE
  8
1
  6
HIDDEN
 62
     1
  5
61
 10
679.0735
 20
440.301167
 30
0.0
 11
679.0535
 21
0.281167
 31
0.0
  0
LINE
  8
1
  6
HIDDEN
 62
     1
  5
62
 10
-0.9465
 20
440.301167
 30
0.0
 11
-1.0065
 21
0.261167
 31
0.0
  0
TEXT
  8
1
  6
CONTINUOUS
 62
     1
  5
64
 10
633.8335
 20
7.761167
 30
0.0
 40
1.2
  1
TRAFFIC ENGINEERING DIVISION
  7
txt
210
0.0
220
0.0
230
1.0
  0
LINE
  8
1
  6
CONTINUOUS
 62
     7
  5
65
 10
496.4535
 20
10.261167
 30
0.0
 11
496.4535
 21
101.841167
 31
0.0
  0
LINE
  8
1
  6
CONTINUOUS
 62
     7
  5
66
 10
496.4535
 20
101.841167
 30
0.0
 11
668.1135
 21
101.841167
 31
0.0
  0
LINE
  8
1
  6
CONTINUOUS
 62
     7
  5
67
 10
531.4535
 20
10.221167
 30
0.0
 11
531.4535
 21
55.181167
 31
0.0
  0
LINE
  8
1
  6
CONTINUOUS
 62
     7
  5
68
 10
531.4535
 20
55.181167
 30
0.0
 11
496.4735
 21
55.181167
 31
0.0
  0
LINE
  8
1
  6
CONTINUOUS
 62
     7
  5
69
 10
531.4535
 20
50.701167
 30
0.0
 11
496.4735
 21
50.701167
 31
0.0
  0
LINE
  8
1
  6
CONTINUOUS
 62
     7
  5
6A
 10
531.4535
 20
46.201167
 30
0.0
 11
496.4735
 21
46.201167
 31
0.0
  0
LINE
  8
1
  6
CONTINUOUS
 62
     7
  5
6B
 10
531.4535
 20
41.701167
 30
0.0
 11
496.4735
 21
41.701167
 31
0.0
  0
LINE
  8
1
  6
CONTINUOUS
 62
     7
  5
6C
 10
531.4535
 20
37.181167
 30
0.0
 11
496.4735
 21
37.181167
 31
0.0
  0
LINE
  8
1
  6
CONTINUOUS
 62
     7
  5
6D
 10
531.4535
 20
32.701167
 30
0.0
 11
496.4735
 21
32.701167
 31
0.0
  0
LINE
  8
1
  6
CONTINUOUS
 62
     7
  5
6E
 10
531.4535
 20
28.221167
 30
0.0
 11
496.4735
 21
28.221167
 31
0.0
  0
LINE
  8
1
  6
CONTINUOUS
 62
     7
  5
6F
 10
531.4535
 20
23.721167
 30
0.0
 11
496.4735
 21
23.721167
 31
0.0
  0
LINE
  8
1
  6
CONTINUOUS
 62
     7
  5
70
 10
531.4535
 20
19.221167
 30
0.0
 11
496.4735
 21
19.221167
 31
0.0
  0
LINE
  8
1
  6
CONTINUOUS
 62
     7
  5
71
 10
531.4535
 20
14.701167
 30
0.0
 11
496.4735
 21
14.701167
 31
0.0
  0
TEXT
  8
1
  6
CONTINUOUS
 62
     7
  5
72
 10
506.7335
 20
52.181167
 30
0.0
 40
1.99775
  1
REVISIONS
  7
MONOTXT
210
0.0
220
0.0
230
1.0
  0
TEXT
  8
1
  6
CONTINUOUS
 62
     7
  5
73
 10
498.4135
 20
56.181167
 30
0.0
 40
1.99775
  1
PREPARED: 05/01/77
  7
MONOTXT
210
0.0
220
0.0
230
1.0
  0
TEXT
  8
1
  6
CONTINUOUS
 62
     7
  5
75
 10
529.0735
 20
93.241167
 30
0.0
 40
4.794833
  1
WEST VIRGINIA DIVISION OF HIGHWAYS
  7
ROMANT
 72
     1
 11
583.04375
 21
98.036
 31
0.0
210
0.0
220
0.0
230
1.0
 73
     3
  0
TEXT
  8
1
  6
CONTINUOUS
 62
     7
  5
76
 10
539.8335
 20
82.081167
 30
0.0
 40
6.992667
  1
STANDARD DETAIL
  7
txt
 72
     1
 11
584.323583
 21
89.073833
 31
0.0
210
0.0
220
0.0
230
1.0
 73
     3
  0
TEXT
  8
1
  6
CONTINUOUS
 62
     1
  5
77
 10
506.840083
 20
47.121167
 30
0.0
 40
2.0
  1
10-24-77
  7
MONOTXT
 72
     1
 11
513.753583
 21
49.121167
 31
0.0
210
0.0
220
0.0
230
1.0
 73
     3
  0
TEXT
  8
1
  6
CONTINUOUS
 62
     1
  5
78
 10
506.473667
 20
42.721167
 30
0.0
 40
2.0
  1
05-23-80
  7
MONOTXT
 72
     1
 11
513.733667
 21
44.721167
 31
0.0
210
0.0
220
0.0
230
1.0
 73
     3
  0
TEXT
  8
1
  6
CONTINUOUS
 62
     1
  5
79
 10
506.918833
 20
38.321167
 30
0.0
 40
2.0
  1
09-15-84
  7
MONOTXT
 72
     1
 11
513.7615
 21
40.321167
 31
0.0
210
0.0
220
0.0
230
1.0
 73
     3
  0
TEXT
  8
1
  6
CONTINUOUS
 62
     1
  5
7A
 10
505.7535
 20
33.921167
 30
0.0
 40
2.0
  1
        
  7
MONOTXT
 72
     1
 11
513.420333
 21
35.921167
 31
0.0
210
0.0
220
0.0
230
1.0
 73
     3
  0
TEXT
  8
1
  6
CONTINUOUS
 62
     1
  5
7B
 10
505.5935
 20
29.321167
 30
0.0
 40
2.0
  1
        
  7
MONOTXT
 72
     1
 11
513.260333
 21
31.321167
 31
0.0
210
0.0
220
0.0
230
1.0
 73
     3
  0
TEXT
  8
1
  6
CONTINUOUS
 62
     1
  5
7C
 10
505.7535
 20
24.841167
 30
0.0
 40
2.0
  1
        
  7
MONOTXT
 72
     1
 11
513.420333
 21
26.841167
 31
0.0
210
0.0
220
0.0
230
1.0
 73
     3
  0
TEXT
  8
1
  6
CONTINUOUS
 62
     1
  5
7D
 10
505.6535
 20
20.241167
 30
0.0
 40
2.0
  1
        
  7
MONOTXT
 72
     1
 11
513.320333
 21
22.241167
 31
0.0
210
0.0
220
0.0
230
1.0
 73
     3
  0
TEXT
  8
1
  6
CONTINUOUS
 62
     1
  5
7E
 10
505.7535
 20
15.661167
 30
0.0
 40
2.0
  1
        
  7
MONOTXT
 72
     1
 11
513.420333
 21
17.661167
 31
0.0
210
0.0
220
0.0
230
1.0
 73
     3
  0
TEXT
  8
1
  6
CONTINUOUS
 62
     1
  5
7F
 10
505.7535
 20
11.641167
 30
0.0
 40
2.0
  1
        
  7
MONOTXT
 72
     1
 11
513.420333
 21
13.641167
 31
0.0
210
0.0
220
0.0
230
1.0
 73
     3
  0
LINE
  8
1
  6
CONTINUOUS
 62
     4
  5
80
 10
106.386833
 20
105.751083
 30
0.0
 11
156.706833
 21
105.751083
 31
0.0
  0
LINE
  8
1
  6
DASHED
 62
     4
  5
81
 10
156.566833
 20
105.751083
 30
0.0
 11
156.566833
 21
50.291083
 31
0.0
  0
LINE
  8
1
  6
CONTINUOUS
 62
     4
  5
82
 10
156.706833
 20
105.751083
 30
0.0
 11
205.386833
 21
92.691083
 31
0.0
  0
LINE
  8
1
  6
CONTINUOUS
 62
     4
  5
83
 10
205.386833
 20
92.691083
 30
0.0
 11
132.386833
 21
105.751083
 31
0.0
  0
LINE
  8
1
  6
CONTINUOUS
 62
     4
  5
84
 10
144.466833
 20
90.591083
 30
0.0
 11
144.466833
 21
95.351083
 31
0.0
  0
LINE
  8
1
  6
CONTINUOUS
 62
     4
  5
85
 10
144.466833
 20
36.431083
 30
0.0
 11
144.466833
 21
58.091083
 31
0.0
  0
LINE
  8
1
  6
CONTINUOUS
 62
     4
  5
86
 10
144.466833
 20
96.291083
 30
0.0
 11
144.466833
 21
129.731083
 31
0.0
  0
LINE
  8
1
  6
CONTINUOUS
 62
     4
  5
87
 10
144.466833
 20
64.551083
 30
0.0
 11
144.466833
 21
89.451083
 31
0.0
  0
LINE
  8
1
  6
CONTINUOUS
 62
     4
  5
88
 10
144.466833
 20
59.231083
 30
0.0
 11
144.466833
 21
63.611083
 31
0.0
  0
LINE
  8
1
  6
CONTINUOUS
 62
     4
  5
89
 10
137.466833
 20
50.411083
 30
0.0
 11
137.806833
 21
49.451083
 31
0.0
  0
LINE
  8
1
  6
CONTINUOUS
 62
     4
  5
8A
 10
137.806833
 20
49.451083
 30
0.0
 11
139.586833
 21
51.231083
 31
0.0
  0
LINE
  8
1
  6
CONTINUOUS
 62
     4
  5
8B
 10
139.586833
 20
51.231083
 30
0.0
 11
139.886833
 21
50.411083
 31
0.0
  0
LINE
  8
1
  6
CONTINUOUS
 62
     4
  5
8C
 10
132.386833
 20
50.411083
 30
0.0
 11
137.466833
 21
50.411083
 31
0.0
  0
LINE
  8
1
  6
CONTINUOUS
 62
     4
  5
8D
 10
139.886833
 20
50.411083
 30
0.0
 11
147.946833
 21
50.411083
 31
0.0
  0
LINE
  8
1
  6
CONTINUOUS
 62
     4
  5
8E
 10
147.946833
 20
50.411083
 30
0.0
 11
148.306833
 21
49.451083
 31
0.0
  0
LINE
  8
1
  6
CONTINUOUS
 62
     4
  5
8F
 10
148.306833
 20
49.451083
 30
0.0
 11
150.086833
 21
51.231083
 31
0.0
  0
LINE
  8
1
  6
CONTINUOUS
 62
     4
  5
90
 10
150.086833
 20
51.231083
 30
0.0
 11
150.426833
 21
50.291083
 31
0.0
  0
LINE
  8
1
  6
CONTINUOUS
 62
     4
  5
91
 10
150.426833
 20
50.291083
 30
0.0
 11
156.566833
 21
50.291083
 31
0.0
  0
LINE
  8
1
  6
CONTINUOUS
 62
     4
  5
92
 10
137.026833
 20
49.131083
 30
0.0
 11
137.386833
 21
48.171083
 31
0.0
  0
LINE
  8
1
  6
CONTINUOUS
 62
     4
  5
93
 10
137.386833
 20
48.171083
 30
0.0
 11
139.166833
 21
49.951083
 31
0.0
  0
LINE
  8
1
  6
CONTINUOUS
 62
     4
  5
94
 10
139.166833
 20
49.951083
 30
0.0
 11
139.466833
 21
49.131083
 31
0.0
  0
LINE
  8
1
  6
CONTINUOUS
 62
     4
  5
95
 10
132.366833
 20
49.131083
 30
0.0
 11
137.026833
 21
49.131083
 31
0.0
  0
LINE
  8
1
  6
CONTINUOUS
 62
     4
  5
96
 10
139.466833
 20
49.131083
 30
0.0
 11
147.526833
 21
49.131083
 31
0.0
  0
LINE
  8
1
  6
CONTINUOUS
 62
     4
  5
97
 10
147.526833
 20
49.131083
 30
0.0
 11
147.866833
 21
48.171083
 31
0.0
  0
LINE
  8
1
  6
CONTINUOUS
 62
     4
  5
98
 10
147.866833
 20
48.171083
 30
0.0
 11
149.646833
 21
49.951083
 31
0.0
  0
LINE
  8
1
  6
CONTINUOUS
 62
     4
  5
99
 10
149.646833
 20
49.951083
 30
0.0
 11
150.006833
 21
49.011083
 31
0.0
  0
LINE
  8
1
  6
CONTINUOUS
 62
     4
  5
9A
 10
150.006833
 20
49.011083
 30
0.0
 11
156.546833
 21
49.011083
 31
0.0
  0
LINE
  8
1
  6
DASHED
 62
     4
  5
9B
 10
132.366833
 20
49.131083
 30
0.0
 11
132.366833
 21
47.571083
 31
0.0
  0
LINE
  8
1
  6
DASHED
 62
     4
  5
9C
 10
132.386833
 20
105.751083
 30
0.0
 11
132.386833
 21
50.411083
 31
0.0
  0
LINE
  8
1
  6
DASHED
 62
     4
  5
9D
 10
156.546833
 20
49.011083
 30
0.0
 11
156.546833
 21
47.571083
 31
0.0
  0
LINE
  8
1
  6
DASHED
 62
     4
  5
9E
 10
132.366833
 20
47.571083
 30
0.0
 11
156.546833
 21
47.571083
 31
0.0
  0
LINE
  8
1
  6
CONTINUOUS
 62
     4
  5
9F
 10
118.906833
 20
100.931083
 30
0.0
 11
154.706833
 21
100.931083
 31
0.0
  0
LINE
  8
1
  6
CONTINUOUS
 62
     4
  5
A0
 10
131.006833
 20
47.551083
 30
0.0
 11
118.906833
 21
47.551083
 31
0.0
  0
LINE
  8
1
  6
CONTINUOUS
 62
     4
  5
A1
 10
131.966833
 20
106.451083
 30
0.0
 11
127.206833
 21
114.231083
 31
0.0
  0
LINE
  8
1
  6
CONTINUOUS
 62
     4
  5
A2
 10
127.206833
 20
114.231083
 30
0.0
 11
120.566833
 21
114.231083
 31
0.0
  0
LINE
  8
1
  6
CONTINUOUS
 62
     4
  5
A3
 10
116.586833
 20
105.611083
 30
0.0
 11
111.586833
 21
90.411083
 31
0.0
  0
LINE
  8
1
  6
CONTINUOUS
 62
     4
  5
A4
 10
156.666833
 20
106.071083
 30
0.0
 11
163.126833
 21
116.331083
 31
0.0
  0
LINE
  8
1
  6
CONTINUOUS
 62
     4
  5
A5
 10
163.126833
 20
116.331083
 30
0.0
 11
171.186833
 21
116.331083
 31
0.0
  0
LINE
  8
1
  6
CONTINUOUS
 62
     4
  5
A6
 10
173.386833
 20
101.891083
 30
0.0
 11
177.186833
 21
105.491083
 31
0.0
  0
LINE
  8
1
  6
CONTINUOUS
 62
     4
  5
A7
 10
177.186833
 20
105.491083
 30
0.0
 11
182.226833
 21
105.491083
 31
0.0
  0
LINE
  8
1
  6
CONTINUOUS
 62
     4
  5
A8
 10
121.506833
 20
100.751083
 30
0.0
 11
121.506833
 21
47.351083
 31
0.0
  0
LINE
  8
1
  6
CONTINUOUS
 62
     4
  5
A9
 10
137.186833
 20
104.891083
 30
0.0
 11
138.046833
 21
105.751083
 31
0.0
  0
LINE
  8
1
  6
CONTINUOUS
 62
     4
  5
AA
 10
139.606833
 20
104.451083
 30
0.0
 11
140.906833
 21
105.751083
 31
0.0
  0
LINE
  8
1
  6
CONTINUOUS
 62
     4
  5
AB
 10
144.446833
 20
103.591083
 30
0.0
 11
146.606833
 21
105.751083
 31
0.0
  0
LINE
  8
1
  6
CONTINUOUS
 62
     4
  5
AC
 10
142.026833
 20
104.011083
 30
0.0
 11
143.746833
 21
105.751083
 31
0.0
  0
LINE
  8
1
  6
CONTINUOUS
 62
     4
  5
AD
 10
149.286833
 20
102.731083
 30
0.0
 11
152.306833
 21
105.751083
 31
0.0
  0
LINE
  8
1
  6
CONTINUOUS
 62
     4
  5
AE
 10
146.866833
 20
103.151083
 30
0.0
 11
149.446833
 21
105.751083
 31
0.0
  0
LINE
  8
1
  6
CONTINUOUS
 62
     4
  5
AF
 10
151.706833
 20
102.291083
 30
0.0
 11
155.146833
 21
105.751083
 31
0.0
  0
LINE
  8
1
  6
CONTINUOUS
 62
     4
  5
B0
 10
154.126833
 20
101.851083
 30
0.0
 11
157.726833
 21
105.471083
 31
0.0
  0
LINE
  8
1
  6
CONTINUOUS
 62
     4
  5
B1
 10
166.206833
 20
99.691083
 30
0.0
 11
168.966833
 21
102.451083
 31
0.0
  0
LINE
  8
1
  6
CONTINUOUS
 62
     4
  5
B2
 10
175.886833
 20
97.971083
 30
0.0
 11
177.966833
 21
100.051083
 31
0.0
  0
LINE
  8
1
  6
CONTINUOUS
 62
     4
  5
B3
 10
178.306833
 20
97.531083
 30
0.0
 11
180.206833
 21
99.451083
 31
0.0
  0
LINE
  8
1
  6
CONTINUOUS
 62
     4
  5
B4
 10
180.726833
 20
97.111083
 30
0.0
 11
182.466833
 21
98.851083
 31
0.0
  0
LINE
  8
1
  6
CONTINUOUS
 62
     4
  5
B5
 10
183.146833
 20
96.671083
 30
0.0
 11
184.706833
 21
98.231083
 31
0.0
  0
LINE
  8
1
  6
CONTINUOUS
 62
     4
  5
B6
 10
187.986833
 20
95.811083
 30
0.0
 11
189.206833
 21
97.031083
 31
0.0
  0
LINE
  8
1
  6
CONTINUOUS
 62
     4
  5
B7
 10
190.406833
 20
95.371083
 30
0.0
 11
191.466833
 21
96.431083
 31
0.0
  0
LINE
  8
1
  6
CONTINUOUS
 62
     4
  5
B8
 10
185.566833
 20
96.251083
 30
0.0
 11
186.966833
 21
97.631083
 31
0.0
  0
LINE
  8
1
  6
CONTINUOUS
 62
     4
  5
B9
 10
192.826833
 20
94.951083
 30
0.0
 11
193.706833
 21
95.831083
 31
0.0
  0
LINE
  8
1
  6
CONTINUOUS
 62
     4
  5
BA
 10
195.246833
 20
94.511083
 30
0.0
 11
195.946833
 21
95.231083
 31
0.0
  0
LINE
  8
1
  6
CONTINUOUS
 62
     4
  5
BB
 10
197.666833
 20
94.071083
 30
0.0
 11
198.206833
 21
94.631083
 31
0.0
  0
TEXT
  8
1
  6
CONTINUOUS
 62
     4
  5
BC
 10
144.306833
 20
131.351083
 30
0.0
 40
2.016
  1
L POLE FDN.
  7
MONOTXT
 11
144.306833
 21
132.359083
 31
0.0
210
0.0
220
0.0
230
1.0
 73
     2
  0
TEXT
  8
1
  6
CONTINUOUS
 62
     4
  5
BD
 10
143.546833
 20
132.391083
 30
0.0
 40
2.016
  1
C
  7
MONOTXT
 11
143.546833
 21
133.399083
 31
0.0
210
0.0
220
0.0
230
1.0
 73
     2
  0
TEXT
  8
1
  6
CONTINUOUS
 62
     4
  5
BE
 10
172.626833
 20
115.211083
 30
0.0
 40
2.016
  1
CONC. POLE FDN.
  7
MONOTXT
 11
172.626833
 21
116.219083
 31
0.0
210
0.0
220
0.0
230
1.0
 73
     2
  0
TEXT
  8
1
  6
CONTINUOUS
 62
     4
  5
BF
 10
110.366833
 20
113.111083
 30
0.0
 40
2.016
  1
FLUSH
  7
MONOTXT
 72
     2
 11
119.430833
 21
114.119083
 31
0.0
210
0.0
220
0.0
230
1.0
 73
     2
  0
TEXT
  8
1
  6
CONTINUOUS
 62
     4
  5
C0
 10
86.706833
 20
89.431083
 30
0.0
 40
2.016
  1
SHOULDER OR
  7
MONOTXT
 11
86.706833
 21
90.439083
 31
0.0
210
0.0
220
0.0
230
1.0
 73
     2
  0
TEXT
  8
1
  6
CONTINUOUS
 62
     4
  5
C1
 10
86.706833
 20
86.411083
 30
0.0
 40
2.016
  1
FINISHED GRADE
  7
MONOTXT
 11
86.706833
 21
87.419083
 31
0.0
210
0.0
220
0.0
230
1.0
 73
     2
  0
TEXT
  8
1
  6
CONTINUOUS
 62
     4
  5
C2
 10
120.226833
 20
71.111083
 30
0.0
 40
2.016
  1
DEPTH
 50
90.0
  7
MONOTXT
 72
     4
 11
119.218833
 21
75.738333
 31
0.0
210
0.0
220
0.0
230
1.0
  0
TEXT
  8
1
  6
CONTINUOUS
 62
     4
  5
C3
 10
157.626833
 20
98.511083
 30
0.0
 40
2.016
  1
SLOPE VARIES
 50
350.0
  7
MONOTXT
 72
     4
 11
168.549406
 21
97.608689
 31
0.0
210
0.0
220
0.0
230
1.0
  0
LINE
  8
1
  6
CONTINUOUS
 62
     4
  5
C4
 10
156.546833
 20
101.431083
 30
0.0
 11
157.726833
 21
102.631083
 31
0.0
  0
LINE
  8
1
  6
CONTINUOUS
 62
     4
  5
C5
 10
158.886833
 20
103.771083
 30
0.0
 11
159.986833
 21
104.871083
 31
0.0
  0
LINE
  8
1
  6
CONTINUOUS
 62
     4
  5
C6
 10
158.966833
 20
100.991083
 30
0.0
 11
159.386833
 21
101.431083
 31
0.0
  0
LINE
  8
1
  6
CONTINUOUS
 62
     4
  5
C7
 10
160.126833
 20
102.151083
 30
0.0
 11
162.226833
 21
104.271083
 31
0.0
  0
LINE
  8
1
  6
CONTINUOUS
 62
     4
  5
C8
 10
161.386833
 20
100.571083
 30
0.0
 11
161.546833
 21
100.731083
 31
0.0
  0
LINE
  8
1
  6
CONTINUOUS
 62
     4
  5
C9
 10
163.166833
 20
102.351083
 30
0.0
 11
164.466833
 21
103.671083
 31
0.0
  0
LINE
  8
1
  6
CONTINUOUS
 62
     4
  5
CA
 10
163.786833
 20
100.131083
 30
0.0
 11
164.886833
 21
101.211083
 31
0.0
  0
LINE
  8
1
  6
CONTINUOUS
 62
     4
  5
CB
 10
166.046833
 20
102.391083
 30
0.0
 11
166.726833
 21
103.051083
 31
0.0
  0
LINE
  8
1
  6
CONTINUOUS
 62
     4
  5
CC
 10
168.626833
 20
99.271083
 30
0.0
 11
168.806833
 21
99.451083
 31
0.0
  0
LINE
  8
1
  6
CONTINUOUS
 62
     4
  5
CD
 10
171.046833
 20
98.831083
 30
0.0
 11
171.466833
 21
99.251083
 31
0.0
  0
LINE
  8
1
  6
CONTINUOUS
 62
     4
  5
CE
 10
173.226833
 20
101.011083
 30
0.0
 11
173.466833
 21
101.251083
 31
0.0
  0
LINE
  8
1
  6
CONTINUOUS
 62
     4
  5
CF
 10
173.466833
 20
98.411083
 30
0.0
 11
174.766833
 21
99.691083
 31
0.0
  0
LINE
  8
1
  6
CONTINUOUS
 62
     4
  5
D0
 10
174.526833
 20
99.451083
 30
0.0
 11
175.726833
 21
100.651083
 31
0.0
  0
TEXT
  8
1
  6
CONTINUOUS
 62
     4
  5
D1
 10
157.866833
 20
101.671083
 30
0.0
 40
1.81425
  1
SLOPE LINE
 50
350.0
  7
MONOTXT
 72
     4
 11
165.797285
 21
101.193892
 31
0.0
210
0.0
220
0.0
230
1.0
  0
LINE
  8
1
  6
CONTINUOUS
 62
     4
  5
D2
 10
170.746833
 20
101.391083
 30
0.0
 11
171.226833
 21
101.851083
 31
0.0
  0
INSERT
  8
1
  6
CONTINUOUS
 62
     1
  5
F3
  2
LDR
 10
116.586833
 20
105.611083
 30
0.0
 41
241.919346
 42
241.919346
 50
71.802179
210
0.0
220
0.0
230
1.0
  0
INSERT
  8
1
  6
CONTINUOUS
 62
     1
  5
F4
  2
LDR
 10
131.966833
 20
106.451083
 30
0.0
 41
241.91987
 42
241.91987
 50
301.373027
210
0.0
220
0.0
230
1.0
  0
INSERT
  8
1
  6
CONTINUOUS
 62
     1
  5
F5
  2
LDR
 10
131.966833
 20
106.451083
 30
0.0
 41
241.91987
 42
241.91987
 50
301.373027
210
0.0
220
0.0
230
1.0
  0
INSERT
  8
1
  6
CONTINUOUS
 62
     1
  5
F6
  2
LDR
 10
156.666833
 20
106.071083
 30
0.0
 41
241.919974
 42
241.919974
 50
237.804307
210
0.0
220
0.0
230
1.0
  0
INSERT
  8
1
  6
CONTINUOUS
 62
     1
  5
F7
  2
LDR
 10
173.386833
 20
101.891083
 30
0.0
 41
241.919868
 42
241.919868
 50
223.531928
210
0.0
220
0.0
230
1.0
  0
INSERT
  8
1
  6
CONTINUOUS
 62
     1
  5
F8
  2
LDR
 10
121.506833
 20
100.751083
 30
0.0
 41
241.919608
 42
241.919608
 50
90.0
210
0.0
220
0.0
230
1.0
  0
INSERT
  8
1
  6
CONTINUOUS
 62
     1
  5
F9
  2
LDR
 10
121.506833
 20
47.351083
 30
0.0
 41
241.919608
 42
241.919608
 50
270.0
210
0.0
220
0.0
230
1.0
  0
TEXT
  8
1
  6
CONTINUOUS
 62
     4
  5
FA
 10
115.386833
 20
30.331083
 30
0.0
 40
4.032
  1
FOOTER IN SLOPE
  7
MONOTXT
 72
     4
 11
143.499667
 21
32.347083
 31
0.0
210
0.0
220
0.0
230
1.0
  0
LINE
  8
1
  6
CONTINUOUS
 62
     4
  5
FB
 10
112.766833
 20
28.391083
 30
0.0
 11
174.626833
 21
28.391083
 31
0.0
  0
LINE
  8
1
  6
CONTINUOUS
 62
     5
  5
FC
 10
111.586833
 20
90.411083
 30
0.0
 11
109.066833
 21
90.431083
 31
0.0
  0
LINE
  8
1
  6
CONTINUOUS
 62
     4
  5
FD
 10
331.55175
 20
186.83625
 30
0.0
 11
331.55175
 21
150.55625
 31
0.0
  0
LINE
  8
1
  6
CONTINUOUS
 62
     4
  5
FE
 10
367.83175
 20
186.83625
 30
0.0
 11
367.83175
 21
150.55625
 31
0.0
  0
LINE
  8
1
  6
CONTINUOUS
 62
     4
  5
FF
 10
331.55175
 20
186.83625
 30
0.0
 11
367.83175
 21
186.83625
 31
0.0
  0
LINE
  8
1
  6
CONTINUOUS
 62
     4
  5
100
 10
331.55175
 20
150.55625
 30
0.0
 11
367.83175
 21
150.55625
 31
0.0
  0
ARC
  8
1
  6
HIDDEN
 62
     4
  5
101
 10
349.760474
 20
168.851562
 30
0.0
 40
17.64
 50
144.727969
 51
134.599747
210
0.0
220
0.0
230
1.0
  0
ARC
  8
1
  6
HIDDEN
 62
     4
  5
102
 10
344.333249
 20
173.460038
 30
0.0
 40
10.566579
 50
131.189658
 51
148.137789
210
0.0
220
0.0
230
1.0
  0
ARC
  8
1
  6
CONTINUOUS
 62
     4
  5
103
 10
350.21399
 20
169.040814
 30
0.0
 40
7.56
 50
61.93145
 51
122.730561
210
0.0
220
0.0
230
1.0
  0
ARC
  8
1
  6
CONTINUOUS
 62
     4
  5
104
 10
350.21399
 20
169.040814
 30
0.0
 40
7.56
 50
150.003069
 51
209.996931
210
0.0
220
0.0
230
1.0
  0
ARC
  8
1
  6
CONTINUOUS
 62
     4
  5
105
 10
350.21399
 20
169.040814
 30
0.0
 40
7.56
 50
237.9532
 51
298.033622
210
0.0
220
0.0
230
1.0
  0
ARC
  8
1
  6
CONTINUOUS
 62
     4
  5
106
 10
350.21399
 20
169.040814
 30
0.0
 40
7.56
 50
328.650811
 51
32.730644
210
0.0
220
0.0
230
1.0
  0
CIRCLE
  8
1
  6
CONTINUOUS
 62
     4
  5
107
 10
344.644958
 20
174.398334
 30
0.0
 40
1.008
210
0.0
220
0.0
230
1.0
  0
CIRCLE
  8
1
  6
CONTINUOUS
 62
     4
  5
108
 10
355.313798
 20
174.49443
 30
0.0
 40
1.008
210
0.0
220
0.0
230
1.0
  0
CIRCLE
  8
1
  6
CONTINUOUS
 62
     4
  5
109
 10
355.409894
 20
163.24893
 30
0.0
 40
1.008
210
0.0
220
0.0
230
1.0
  0
CIRCLE
  8
1
  6
CONTINUOUS
 62
     4
  5
10A
 10
344.644958
 20
163.537302
 30
0.0
 40
1.008
210
0.0
220
0.0
230
1.0
  0
LINE
  8
1
  6
HIDDEN
 62
     4
  5
10B
 10
331.55175
 20
169.71625
 30
0.0
 11
367.83175
 21
169.71625
 31
0.0
  0
LINE
  8
1
  6
HIDDEN
 62
     4
  5
10C
 10
331.55175
 20
168.19625
 30
0.0
 11
367.83175
 21
168.19625
 31
0.0
  0
LINE
  8
1
  6
CONTINUOUS
 62
     4
  5
10D
 10
329.51175
 20
168.19625
 30
0.0
 11
331.53175
 21
168.19625
 31
0.0
  0
LINE
  8
1
  6
CONTINUOUS
 62
     4
  5
10E
 10
329.51175
 20
169.71625
 30
0.0
 11
331.53175
 21
169.71625
 31
0.0
  0
LINE
  8
1
  6
CONTINUOUS
 62
     4
  5
10F
 10
367.75175
 20
169.69625
 30
0.0
 11
370.77175
 21
169.69625
 31
0.0
  0
LINE
  8
1
  6
CONTINUOUS
 62
     4
  5
110
 10
367.75175
 20
168.19625
 30
0.0
 11
370.79175
 21
168.19625
 31
0.0
  0
CIRCLE
  8
1
  6
CONTINUOUS
 62
     4
  5
111
 10
329.440034
 20
168.960426
 30
0.0
 40
0.756
210
0.0
220
0.0
230
1.0
  0
LINE
  8
1
  6
CONTINUOUS
 62
     4
  5
112
 10
340.91175
 20
178.07625
 30
0.0
 11
343.27175
 21
175.71625
 31
0.0
  0
LINE
  8
1
  6
CONTINUOUS
 62
     4
  5
113
 10
356.73175
 20
175.67625
 30
0.0
 11
359.45175
 21
178.39625
 31
0.0
  0
LINE
  8
1
  6
CONTINUOUS
 62
     4
  5
114
 10
356.89175
 20
162.09625
 30
0.0
 11
359.45175
 21
159.53625
 31
0.0
  0
LINE
  8
1
  6
CONTINUOUS
 62
     4
  5
115
 10
340.91175
 20
159.85625
 30
0.0
 11
343.31175
 21
162.25625
 31
0.0
  0
LINE
  8
1
  6
CONTINUOUS
 62
     4
  5
116
 10
344.29175
 20
174.69625
 30
0.0
 11
344.71175
 21
174.27625
 31
0.0
  0
LINE
  8
1
  6
CONTINUOUS
 62
     4
  5
117
 10
344.47175
 20
163.41625
 30
0.0
 11
344.81175
 21
163.75625
 31
0.0
  0
LINE
  8
1
  6
CONTINUOUS
 62
     4
  5
118
 10
355.45175
 20
163.53625
 30
0.0
 11
355.75175
 21
163.23625
 31
0.0
  0
LINE
  8
1
  6
CONTINUOUS
 62
     4
  5
119
 10
344.25175
 20
174.27625
 30
0.0
 11
344.67175
 21
174.69625
 31
0.0
  0
LINE
  8
1
  6
CONTINUOUS
 62
     4
  5
11A
 10
355.25175
 20
174.41625
 30
0.0
 11
355.59175
 21
174.75625
 31
0.0
  0
CIRCLE
  8
1
  6
HIDDEN
 62
     4
  5
11B
 10
349.977782
 20
168.90045
 30
0.0
 40
14.616
210
0.0
220
0.0
230
1.0
  0
CIRCLE
  8
1
  6
HIDDEN
 62
     4
  5
11C
 10
349.977782
 20
168.82485
 30
0.0
 40
15.624
210
0.0
220
0.0
230
1.0
  0
LINE
  8
1
  6
CONTINUOUS
 62
     4
  5
11D
 10
355.37175
 20
163.15625
 30
0.0
 11
355.77175
 21
163.57625
 31
0.0
  0
LINE
  8
1
  6
CONTINUOUS
 62
     4
  5
11E
 10
355.19175
 20
174.83625
 30
0.0
 11
355.59175
 21
174.43625
 31
0.0
  0
LINE
  8
1
  6
CONTINUOUS
 62
     4
  5
11F
 10
344.45175
 20
163.79625
 30
0.0
 11
344.87175
 21
163.39625
 31
0.0
  0
POLYLINE
  8
1
  6
CONTINUOUS
 62
     4
  5
120
 66
     1
 10
0.0
 20
0.0
 30
0.0
210
0.0
220
0.0
230
1.0
  0
VERTEX
  8
1
  6
CONTINUOUS
 62
     4
  5
121
 10
370.775762
 20
169.702146
 30
0.0
 42
-0.056004
  0
VERTEX
  8
1
  6
CONTINUOUS
 62
     4
  5
122
 10
370.84537
 20
169.615114
 30
0.0
 42
-0.054963
  0
VERTEX
  8
1
  6
CONTINUOUS
 62
     4
  5
123
 10
370.894552
 20
169.51393
 30
0.0
 42
-0.053143
  0
VERTEX
  8
1
  6
CONTINUOUS
 62
     4
  5
124
 10
370.921323
 20
169.402677
 30
0.0
 42
-0.050953
  0
VERTEX
  8
1
  6
CONTINUOUS
 62
     4
  5
125
 10
370.924603
 20
169.285847
 30
0.0
 42
-0.048801
  0
VERTEX
  8
1
  6
CONTINUOUS
 62
     4
  5
126
 10
370.904259
 20
169.168155
 30
0.0
 42
-0.047003
  0
VERTEX
  8
1
  6
CONTINUOUS
 62
     4
  5
127
 10
370.861111
 20
169.054352
 30
0.0
 42
-0.045763
  0
VERTEX
  8
1
  6
CONTINUOUS
 62
     4
  5
128
 10
370.796903
 20
168.94903
 30
0.0
 42
-0.045191
  0
VERTEX
  8
1
  6
CONTINUOUS
 62
     4
  5
129
 10
370.714225
 20
168.856442
 30
0.0
 42
-0.045191
  0
SEQEND
  8
1
  6
CONTINUOUS
 62
     4
  5
12A
  0
POLYLINE
  8
1
  6
CONTINUOUS
 62
     4
  5
12B
 66
     1
 10
0.0
 20
0.0
 30
0.0
210
0.0
220
0.0
230
1.0
  0
VERTEX
  8
1
  6
CONTINUOUS
 62
     4
  5
12C
 10
370.835659
 20
169.010111
 30
0.0
 42
0.042984
  0
VERTEX
  8
1
  6
CONTINUOUS
 62
     4
  5
12D
 10
370.755053
 20
168.914626
 30
0.0
 42
0.043992
  0
VERTEX
  8
1
  6
CONTINUOUS
 62
     4
  5
12E
 10
370.69285
 20
168.807916
 30
0.0
 42
0.045974
  0
VERTEX
  8
1
  6
CONTINUOUS
 62
     4
  5
12F
 10
370.651601
 20
168.694354
 30
0.0
 42
0.048814
  0
VERTEX
  8
1
  6
CONTINUOUS
 62
     4
  5
130
 10
370.632996
 20
168.578597
 30
0.0
 42
0.052245
  0
VERTEX
  8
1
  6
CONTINUOUS
 62
     4
  5
131
 10
370.637797
 20
168.465389
 30
0.0
 42
0.05576
  0
VERTEX
  8
1
  6
CONTINUOUS
 62
     4
  5
132
 10
370.665809
 20
168.359372
 30
0.0
 42
0.058612
  0
VERTEX
  8
1
  6
CONTINUOUS
 62
     4
  5
133
 10
370.715883
 20
168.264891
 30
0.0
 42
0.060015
  0
VERTEX
  8
1
  6
CONTINUOUS
 62
     4
  5
134
 10
370.785965
 20
168.18582
 30
0.0
 42
0.060015
  0
SEQEND
  8
1
  6
CONTINUOUS
 62
     4
  5
135
  0
POLYLINE
  8
1
  6
CONTINUOUS
 62
     4
  5
136
 66
     1
 10
0.0
 20
0.0
 30
0.0
210
0.0
220
0.0
230
1.0
  0
VERTEX
  8
1
  6
CONTINUOUS
 62
     4
  5
137
 10
370.846658
 20
169.035942
 30
0.0
 42
-0.056004
  0
VERTEX
  8
1
  6
CONTINUOUS
 62
     4
  5
138
 10
370.916266
 20
168.94891
 30
0.0
 42
-0.054963
  0
VERTEX
  8
1
  6
CONTINUOUS
 62
     4
  5
139
 10
370.965448
 20
168.847726
 30
0.0
 42
-0.053143
  0
VERTEX
  8
1
  6
CONTINUOUS
 62
     4
  5
13A
 10
370.992219
 20
168.736473
 30
0.0
 42
-0.050953
  0
VERTEX
  8
1
  6
CONTINUOUS
 62
     4
  5
13B
 10
370.995499
 20
168.619643
 30
0.0
 42
-0.048801
  0
VERTEX
  8
1
  6
CONTINUOUS
 62
     4
  5
13C
 10
370.975155
 20
168.501951
 30
0.0
 42
-0.047003
  0
VERTEX
  8
1
  6
CONTINUOUS
 62
     4
  5
13D
 10
370.932007
 20
168.388148
 30
0.0
 42
-0.045763
  0
VERTEX
  8
1
  6
CONTINUOUS
 62
     4
  5
13E
 10
370.867799
 20
168.282826
 30
0.0
 42
-0.045191
  0
VERTEX
  8
1
  6
CONTINUOUS
 62
     4
  5
13F
 10
370.785121
 20
168.190238
 30
0.0
 42
-0.045191
  0
SEQEND
  8
1
  6
CONTINUOUS
 62
     4
  5
140
  0
LINE
  8
1
  6
CONTINUOUS
 62
     4
  5
141
 10
345.99175
 20
164.93625
 30
0.0
 11
348.29175
 21
167.23625
 31
0.0
  0
LINE
  8
1
  6
CONTINUOUS
 62
     4
  5
142
 10
351.99175
 20
170.93625
 30
0.0
 11
354.13175
 21
173.05625
 31
0.0
  0
LINE
  8
1
  6
CONTINUOUS
 62
     4
  5
143
 10
345.85175
 20
173.13625
 30
0.0
 11
347.79175
 21
171.19625
 31
0.0
  0
LINE
  8
1
  6
CONTINUOUS
 62
     4
  5
144
 10
352.21175
 20
166.77625
 30
0.0
 11
354.27175
 21
164.71625
 31
0.0
  0
CIRCLE
  8
1
  6
CONTINUOUS
 62
     4
  5
145
 10
349.01951
 20
169.036026
 30
0.0
 40
0.756
210
0.0
220
0.0
230
1.0
  0
CIRCLE
  8
1
  6
CONTINUOUS
 62
     4
  5
146
 10
351.438626
 20
169.036026
 30
0.0
 40
0.756
210
0.0
220
0.0
230
1.0
  0
CIRCLE
  8
1
  6
CONTINUOUS
 62
     4
  5
147
 10
356.677538
 20
157.640334
 30
0.0
 40
0.4032
210
0.0
220
0.0
230
1.0
  0
CIRCLE
  8
1
  6
CONTINUOUS
 62
     4
  5
148
 10
343.599326
 20
157.262334
 30
0.0
 40
0.4032
210
0.0
220
0.0
230
1.0
  0
CIRCLE
  8
1
  6
CONTINUOUS
 62
     4
  5
149
 10
342.99461
 20
180.470526
 30
0.0
 40
0.4032
210
0.0
220
0.0
230
1.0
  0
CIRCLE
  8
1
  6
CONTINUOUS
 62
     4
  5
14A
 10
355.846022
 20
180.999642
 30
0.0
 40
0.4032
210
0.0
220
0.0
230
1.0
  0
CIRCLE
  8
1
  6
CONTINUOUS
 62
     4
  5
14B
 10
336.644462
 20
166.938714
 30
0.0
 40
0.4032
210
0.0
220
0.0
230
1.0
  0
CIRCLE
  8
1
  6
CONTINUOUS
 62
     4
  5
14C
 10
363.254486
 20
170.869746
 30
0.0
 40
0.4032
210
0.0
220
0.0
230
1.0
  0
LINE
  8
1
  6
CONTINUOUS
 62
     4
  5
14D
 10
350.25175
 20
176.91625
 30
0.0
 11
359.03175
 21
190.81625
 31
0.0
  0
LINE
  8
1
  6
CONTINUOUS
 62
     4
  5
14E
 10
359.03175
 20
190.81625
 30
0.0
 11
362.65175
 21
190.81625
 31
0.0
  0
LINE
  8
1
  6
CONTINUOUS
 62
     4
  5
14F
 10
328.79175
 20
168.29625
 30
0.0
 11
325.31175
 21
165.65625
 31
0.0
  0
LINE
  8
1
  6
CONTINUOUS
 62
     4
  5
150
 10
325.31175
 20
165.65625
 30
0.0
 11
321.91175
 21
165.65625
 31
0.0
  0
LINE
  8
1
  6
CONTINUOUS
 62
     4
  5
151
 10
370.29175
 20
169.81625
 30
0.0
 11
372.47175
 21
173.59625
 31
0.0
  0
LINE
  8
1
  6
CONTINUOUS
 62
     4
  5
152
 10
372.47175
 20
173.59625
 30
0.0
 11
376.19175
 21
173.59625
 31
0.0
  0
LINE
  8
1
  6
CONTINUOUS
 62
     4
  5
153
 10
368.93175
 20
126.05625
 30
0.0
 11
368.93175
 21
54.69625
 31
0.0
  0
LINE
  8
1
  6
CONTINUOUS
 62
     4
  5
154
 10
331.43175
 20
125.21625
 30
0.0
 11
331.43175
 21
54.69625
 31
0.0
  0
LINE
  8
1
  6
CONTINUOUS
 62
     4
  5
155
 10
331.43175
 20
54.69625
 30
0.0
 11
368.93175
 21
54.69625
 31
0.0
  0
LINE
  8
1
  6
CONTINUOUS
 62
     4
  5
156
 10
302.83175
 20
128.23625
 30
0.0
 11
337.21175
 21
128.23625
 31
0.0
  0
LINE
  8
1
  6
CONTINUOUS
 62
     4
  5
157
 10
334.45175
 20
128.23625
 30
0.0
 11
391.89175
 21
128.23625
 31
0.0
  0
LINE
  8
1
  6
CONTINUOUS
 62
     4
  5
158
 10
383.27175
 20
128.23625
 30
0.0
 11
399.59175
 21
128.23625
 31
0.0
  0
ARC
  8
1
  6
CONTINUOUS
 62
     4
  5
159
 10
334.45223
 20
125.211714
 30
0.0
 40
3.024
 50
90.0
 51
180.0
210
0.0
220
0.0
230
1.0
  0
ARC
  8
1
  6
CONTINUOUS
 62
     4
  5
15A
 10
365.90015
 20
125.211714
 30
0.0
 40
3.024
 50
0.0
 51
90.0
210
0.0
220
0.0
230
1.0
  0
LINE
  8
1
  6
HIDDEN
 62
     4
  5
15B
 10
334.95175
 20
125.55625
 30
0.0
 11
334.95175
 21
54.69625
 31
0.0
  0
LINE
  8
1
  6
DASHED
 62
     4
  5
15C
 10
343.01175
 20
128.23625
 30
0.0
 11
343.01175
 21
78.87625
 31
0.0
  0
LINE
  8
1
  6
DASHED
 62
     4
  5
15D
 10
345.03175
 20
128.23625
 30
0.0
 11
345.03175
 21
79.89625
 31
0.0
  0
LINE
  8
1
  6
DASHED
 62
     4
  5
15E
 10
354.61175
 20
128.23625
 30
0.0
 11
354.61175
 21
79.89625
 31
0.0
  0
LINE
  8
1
  6
DASHED
 62
     4
  5
15F
 10
356.63175
 20
128.31625
 30
0.0
 11
356.63175
 21
78.87625
 31
0.0
  0
LINE
  8
1
  6
HIDDEN
 62
     4
  5
160
 10
365.19175
 20
125.55625
 30
0.0
 11
365.19175
 21
54.69625
 31
0.0
  0
LINE
  8
1
  6
HIDDEN
 62
     4
  5
161
 10
366.21175
 20
125.55625
 30
0.0
 11
366.21175
 21
54.69625
 31
0.0
  0
LINE
  8
1
  6
HIDDEN
 62
     4
  5
162
 10
333.95175
 20
125.55625
 30
0.0
 11
333.95175
 21
54.69625
 31
0.0
  0
LINE
  8
1
  6
HIDDEN
 62
     4
  5
163
 10
334.95175
 20
57.71625
 30
0.0
 11
365.19175
 21
57.71625
 31
0.0
  0
LINE
  8
1
  6
HIDDEN
 62
     4
  5
164
 10
334.95175
 20
58.71625
 30
0.0
 11
365.19175
 21
58.71625
 31
0.0
  0
LINE
  8
1
  6
HIDDEN
 62
     4
  5
165
 10
334.95175
 20
70.31625
 30
0.0
 11
365.19175
 21
70.31625
 31
0.0
  0
LINE
  8
1
  6
HIDDEN
 62
     4
  5
166
 10
334.95175
 20
71.31625
 30
0.0
 11
365.19175
 21
71.31625
 31
0.0
  0
LINE
  8
1
  6
HIDDEN
 62
     4
  5
167
 10
334.95175
 20
82.91625
 30
0.0
 11
365.19175
 21
82.91625
 31
0.0
  0
LINE
  8
1
  6
HIDDEN
 62
     4
  5
168
 10
334.95175
 20
83.91625
 30
0.0
 11
365.19175
 21
83.91625
 31
0.0
  0
LINE
  8
1
  6
HIDDEN
 62
     4
  5
169
 10
334.95175
 20
95.51625
 30
0.0
 11
365.19175
 21
95.51625
 31
0.0
  0
LINE
  8
1
  6
HIDDEN
 62
     4
  5
16A
 10
334.95175
 20
96.51625
 30
0.0
 11
365.19175
 21
96.51625
 31
0.0
  0
LINE
  8
1
  6
HIDDEN
 62
     4
  5
16B
 10
334.95175
 20
108.11625
 30
0.0
 11
365.19175
 21
108.11625
 31
0.0
  0
LINE
  8
1
  6
HIDDEN
 62
     4
  5
16C
 10
334.95175
 20
109.11625
 30
0.0
 11
365.19175
 21
109.11625
 31
0.0
  0
LINE
  8
1
  6
HIDDEN
 62
     4
  5
16D
 10
334.95175
 20
120.71625
 30
0.0
 11
365.19175
 21
120.71625
 31
0.0
  0
LINE
  8
1
  6
HIDDEN
 62
     4
  5
16E
 10
334.95175
 20
121.71625
 30
0.0
 11
365.19175
 21
121.71625
 31
0.0
  0
LINE
  8
1
  6
DASHED
 62
     4
  5
16F
 10
331.43175
 20
104.19625
 30
0.0
 11
341.59175
 21
105.07625
 31
0.0
  0
LINE
  8
1
  6
HIDDEN
 62
     4
  5
170
 10
350.57175
 20
109.67625
 30
0.0
 11
350.57175
 21
54.69625
 31
0.0
  0
LINE
  8
1
  6
DASHED
 62
     4
  5
171
 10
349.55175
 20
128.23625
 30
0.0
 11
349.55175
 21
111.63625
 31
0.0
  0
LINE
  8
1
  6
DASHED
 62
     4
  5
172
 10
350.53175
 20
128.23625
 30
0.0
 11
350.53175
 21
111.69625
 31
0.0
  0
LINE
  8
1
  6
DASHED
 62
     4
  5
173
 10
348.03175
 20
128.23625
 30
0.0
 11
348.03175
 21
112.09625
 31
0.0
  0
LINE
  8
1
  6
DASHED
 62
     4
  5
174
 10
352.05175
 20
128.23625
 30
0.0
 11
352.05175
 21
112.15625
 31
0.0
  0
LINE
  8
1
  6
DASHED
 62
     4
  5
175
 10
331.43175
 20
102.67625
 30
0.0
 11
342.19175
 21
103.61625
 31
0.0
  0
LINE
  8
1
  6
DASHED
 62
     4
  5
176
 10
369.03175
 20
104.21625
 30
0.0
 11
358.49175
 21
105.13625
 31
0.0
  0
LINE
  8
1
  6
DASHED
 62
     4
  5
177
 10
368.91175
 20
102.69625
 30
0.0
 11
357.89175
 21
103.65625
 31
0.0
  0
ARC
  8
1
  6
DASHED
 62
     4
  5
178
 10
340.983986
 20
112.105979
 30
0.0
 40
7.056
 50
275.000406
 51
360.0
210
0.0
220
0.0
230
1.0
  0
ARC
  8
1
  6
DASHED
 62
     4
  5
179
 10
341.487986
 20
111.644081
 30
0.0
 40
8.064
 50
275.000133
 51
0.0
210
0.0
220
0.0
230
1.0
  0
ARC
  8
1
  6
DASHED
 62
     4
  5
17A
 10
358.598786
 20
111.696985
 30
0.0
 40
8.064
 50
180.0
 51
264.999903
210
0.0
220
0.0
230
1.0
  0
ARC
  8
1
  6
DASHED
 62
     4
  5
17B
 10
359.102786
 20
112.158858
 30
0.0
 40
7.056
 50
180.0
 51
264.999903
210
0.0
220
0.0
230
1.0
  0
LINE
  8
1
  6
HIDDEN
 62
     4
  5
17C
 10
349.57175
 20
109.67625
 30
0.0
 11
349.57175
 21
54.69625
 31
0.0
  0
LINE
  8
1
  6
HIDDEN
 62
     4
  5
17D
 10
333.95175
 20
125.55625
 30
0.0
 11
334.95175
 21
125.55625
 31
0.0
  0
LINE
  8
1
  6
HIDDEN
 62
     4
  5
17E
 10
365.19175
 20
125.55625
 30
0.0
 11
366.21175
 21
125.55625
 31
0.0
  0
ARC
  8
1
  6
DASHED
 62
     4
  5
17F
 10
346.04423
 20
78.879666
 30
0.0
 40
3.024
 50
180.0
 51
270.0
210
0.0
220
0.0
230
1.0
  0
ARC
  8
1
  6
DASHED
 62
     4
  5
180
 10
353.60423
 20
78.879666
 30
0.0
 40
3.024
 50
270.0
 51
0.0
210
0.0
220
0.0
230
1.0
  0
ARC
  8
1
  6
DASHED
 62
     4
  5
181
 10
347.05223
 20
79.887666
 30
0.0
 40
2.016
 50
180.0
 51
270.0
210
0.0
220
0.0
230
1.0
  0
ARC
  8
1
  6
DASHED
 62
     4
  5
182
 10
352.59623
 20
79.887666
 30
0.0
 40
2.016
 50
270.0
 51
0.0
210
0.0
220
0.0
230
1.0
  0
LINE
  8
1
  6
DASHED
 62
     4
  5
183
 10
347.05175
 20
77.87625
 30
0.0
 11
347.97175
 21
77.87625
 31
0.0
  0
LINE
  8
1
  6
DASHED
 62
     4
  5
184
 10
351.85175
 20
77.87625
 30
0.0
 11
352.59175
 21
77.87625
 31
0.0
  0
LINE
  8
1
  6
DASHED
 62
     4
  5
185
 10
346.05175
 20
75.85625
 30
0.0
 11
347.97175
 21
75.85625
 31
0.0
  0
LINE
  8
1
  6
DASHED
 62
     4
  5
186
 10
351.85175
 20
75.85625
 30
0.0
 11
353.61175
 21
75.85625
 31
0.0
  0
LINE
  8
1
  6
DASHED
 62
     4
  5
187
 10
347.97175
 20
77.87625
 30
0.0
 11
347.97175
 21
75.85625
 31
0.0
  0
LINE
  8
1
  6
DASHED
 62
     4
  5
188
 10
351.85175
 20
77.87625
 30
0.0
 11
351.85175
 21
75.85625
 31
0.0
  0
LINE
  8
1
  6
CONTINUOUS
 62
     4
  5
189
 10
328.39175
 20
103.91625
 30
0.0
 11
331.41175
 21
104.17625
 31
0.0
  0
LINE
  8
1
  6
CONTINUOUS
 62
     4
  5
18A
 10
328.53175
 20
102.41625
 30
0.0
 11
331.43175
 21
102.65625
 31
0.0
  0
LINE
  8
1
  6
CONTINUOUS
 62
     4
  5
18B
 10
371.93175
 20
103.95625
 30
0.0
 11
368.91175
 21
104.21625
 31
0.0
  0
LINE
  8
1
  6
CONTINUOUS
 62
     4
  5
18C
 10
371.79175
 20
102.45625
 30
0.0
 11
368.91175
 21
102.69625
 31
0.0
  0
POLYLINE
  8
1
  6
CONTINUOUS
 62
     4
  5
18D
 66
     1
 10
0.0
 20
0.0
 30
0.0
210
0.0
220
0.0
230
1.0
  0
VERTEX
  8
1
  6
CONTINUOUS
 62
     4
  5
18E
 10
328.401038
 20
103.918302
 30
0.0
 42
0.042842
  0
VERTEX
  8
1
  6
CONTINUOUS
 62
     4
  5
18F
 10
328.346756
 20
103.877173
 30
0.0
 42
0.043525
  0
VERTEX
  8
1
  6
CONTINUOUS
 62
     4
  5
190
 10
328.300695
 20
103.827741
 30
0.0
 42
0.044849
  0
VERTEX
  8
1
  6
CONTINUOUS
 62
     4
  5
191
 10
328.264566
 20
103.77184
 30
0.0
 42
0.046713
  0
VERTEX
  8
1
  6
CONTINUOUS
 62
     4
  5
192
 10
328.239711
 20
103.711549
 30
0.0
 42
0.048931
  0
VERTEX
  8
1
  6
CONTINUOUS
 62
     4
  5
193
 10
328.227054
 20
103.649107
 30
0.0
 42
0.051204
  0
VERTEX
  8
1
  6
CONTINUOUS
 62
     4
  5
194
 10
328.227066
 20
103.586833
 30
0.0
 42
0.05314
  0
VERTEX
  8
1
  6
CONTINUOUS
 62
     4
  5
195
 10
328.239745
 20
103.527041
 30
0.0
 42
0.054327
  0
VERTEX
  8
1
  6
CONTINUOUS
 62
     4
  5
196
 10
328.26462
 20
103.471953
 30
0.0
 42
0.054479
  0
VERTEX
  8
1
  6
CONTINUOUS
 62
     4
  5
197
 10
328.300768
 20
103.423615
 30
0.0
 42
0.053555
  0
VERTEX
  8
1
  6
CONTINUOUS
 62
     4
  5
198
 10
328.346845
 20
103.383822
 30
0.0
 42
0.051786
  0
VERTEX
  8
1
  6
CONTINUOUS
 62
     4
  5
199
 10
328.40114
 20
103.354053
 30
0.0
 42
0.049563
  0
VERTEX
  8
1
  6
CONTINUOUS
 62
     4
  5
19A
 10
328.461636
 20
103.335415
 30
0.0
 42
0.049563
  0
SEQEND
  8
1
  6
CONTINUOUS
 62
     4
  5
19B
  0
ARC
  8
1
  6
CONTINUOUS
 62
     4
  5
19C
 10
328.763624
 20
102.894314
 30
0.0
 40
0.5346
 50
124.398842
 51
244.424081
210
0.0
220
0.0
230
1.0
  0
POLYLINE
  8
1
  6
CONTINUOUS
 62
     4
  5
19D
 66
     1
 10
0.0
 20
0.0
 30
0.0
210
0.0
220
0.0
230
1.0
  0
VERTEX
  8
1
  6
CONTINUOUS
 62
     4
  5
19E
 10
328.449276
 20
103.333006
 30
0.0
 42
-0.047089
  0
VERTEX
  8
1
  6
CONTINUOUS
 62
     4
  5
19F
 10
328.537757
 20
103.282345
 30
0.0
 42
-0.047189
  0
VERTEX
  8
1
  6
CONTINUOUS
 62
     4
  5
1A0
 10
328.615104
 20
103.216082
 30
0.0
 42
-0.047375
  0
VERTEX
  8
1
  6
CONTINUOUS
 62
     4
  5
1A1
 10
328.678503
 20
103.136627
 30
0.0
 42
-0.047623
  0
VERTEX
  8
1
  6
CONTINUOUS
 62
     4
  5
1A2
 10
328.725647
 20
103.046872
 30
0.0
 42
-0.047897
  0
VERTEX
  8
1
  6
CONTINUOUS
 62
     4
  5
1A3
 10
328.754821
 20
102.950082
 30
0.0
 42
-0.048159
  0
VERTEX
  8
1
  6
CONTINUOUS
 62
     4
  5
1A4
 10
328.764963
 20
102.849779
 30
0.0
 42
-0.048369
  0
VERTEX
  8
1
  6
CONTINUOUS
 62
     4
  5
1A5
 10
328.755704
 20
102.749612
 30
0.0
 42
-0.048496
  0
VERTEX
  8
1
  6
CONTINUOUS
 62
     4
  5
1A6
 10
328.727382
 20
102.653225
 30
0.0
 42
-0.04852
  0
VERTEX
  8
1
  6
CONTINUOUS
 62
     4
  5
1A7
 10
328.681026
 20
102.564126
 30
0.0
 42
-0.048438
  0
VERTEX
  8
1
  6
CONTINUOUS
 62
     4
  5
1A8
 10
328.618323
 20
102.485556
 30
0.0
 42
-0.048261
  0
VERTEX
  8
1
  6
CONTINUOUS
 62
     4
  5
1A9
 10
328.541555
 20
102.420374
 30
0.0
 42
-0.048261
  0
SEQEND
  8
1
  6
CONTINUOUS
 62
     4
  5
1AA
  0
POLYLINE
  8
1
  6
CONTINUOUS
 62
     4
  5
1AB
 66
     1
 10
0.0
 20
0.0
 30
0.0
210
0.0
220
0.0
230
1.0
  0
VERTEX
  8
1
  6
CONTINUOUS
 62
     4
  5
1AC
 10
371.912786
 20
103.956102
 30
0.0
 42
-0.042842
  0
VERTEX
  8
1
  6
CONTINUOUS
 62
     4
  5
1AD
 10
371.967068
 20
103.914973
 30
0.0
 42
-0.043525
  0
VERTEX
  8
1
  6
CONTINUOUS
 62
     4
  5
1AE
 10
372.013129
 20
103.865541
 30
0.0
 42
-0.044849
  0
VERTEX
  8
1
  6
CONTINUOUS
 62
     4
  5
1AF
 10
372.049258
 20
103.80964
 30
0.0
 42
-0.046713
  0
VERTEX
  8
1
  6
CONTINUOUS
 62
     4
  5
1B0
 10
372.074113
 20
103.749349
 30
0.0
 42
-0.048931
  0
VERTEX
  8
1
  6
CONTINUOUS
 62
     4
  5
1B1
 10
372.08677
 20
103.686907
 30
0.0
 42
-0.051204
  0
VERTEX
  8
1
  6
CONTINUOUS
 62
     4
  5
1B2
 10
372.086758
 20
103.624633
 30
0.0
 42
-0.05314
  0
VERTEX
  8
1
  6
CONTINUOUS
 62
     4
  5
1B3
 10
372.074079
 20
103.564841
 30
0.0
 42
-0.054327
  0
VERTEX
  8
1
  6
CONTINUOUS
 62
     4
  5
1B4
 10
372.049204
 20
103.509753
 30
0.0
 42
-0.054479
  0
VERTEX
  8
1
  6
CONTINUOUS
 62
     4
  5
1B5
 10
372.013056
 20
103.461415
 30
0.0
 42
-0.053555
  0
VERTEX
  8
1
  6
CONTINUOUS
 62
     4
  5
1B6
 10
371.966979
 20
103.421622
 30
0.0
 42
-0.051786
  0
VERTEX
  8
1
  6
CONTINUOUS
 62
     4
  5
1B7
 10
371.912684
 20
103.391853
 30
0.0
 42
-0.049563
  0
VERTEX
  8
1
  6
CONTINUOUS
 62
     4
  5
1B8
 10
371.852188
 20
103.373215
 30
0.0
 42
-0.049563
  0
SEQEND
  8
1
  6
CONTINUOUS
 62
     4
  5
1B9
  0
ARC
  8
1
  6
CONTINUOUS
 62
     4
  5
1BA
 10
371.5502
 20
102.932114
 30
0.0
 40
0.5346
 50
295.575919
 51
55.601158
210
0.0
220
0.0
230
1.0
  0
POLYLINE
  8
1
  6
CONTINUOUS
 62
     4
  5
1BB
 66
     1
 10
0.0
 20
0.0
 30
0.0
210
0.0
220
0.0
230
1.0
  0
VERTEX
  8
1
  6
CONTINUOUS
 62
     4
  5
1BC
 10
371.864548
 20
103.370806
 30
0.0
 42
0.047089
  0
VERTEX
  8
1
  6
CONTINUOUS
 62
     4
  5
1BD
 10
371.776067
 20
103.320145
 30
0.0
 42
0.047189
  0
VERTEX
  8
1
  6
CONTINUOUS
 62
     4
  5
1BE
 10
371.69872
 20
103.253882
 30
0.0
 42
0.047375
  0
VERTEX
  8
1
  6
CONTINUOUS
 62
     4
  5
1BF
 10
371.635321
 20
103.174427
 30
0.0
 42
0.047623
  0
VERTEX
  8
1
  6
CONTINUOUS
 62
     4
  5
1C0
 10
371.588177
 20
103.084672
 30
0.0
 42
0.047897
  0
VERTEX
  8
1
  6
CONTINUOUS
 62
     4
  5
1C1
 10
371.559003
 20
102.987882
 30
0.0
 42
0.048159
  0
VERTEX
  8
1
  6
CONTINUOUS
 62
     4
  5
1C2
 10
371.548861
 20
102.887579
 30
0.0
 42
0.048369
  0
VERTEX
  8
1
  6
CONTINUOUS
 62
     4
  5
1C3
 10
371.55812
 20
102.787412
 30
0.0
 42
0.048496
  0
VERTEX
  8
1
  6
CONTINUOUS
 62
     4
  5
1C4
 10
371.586442
 20
102.691025
 30
0.0
 42
0.04852
  0
VERTEX
  8
1
  6
CONTINUOUS
 62
     4
  5
1C5
 10
371.632798
 20
102.601926
 30
0.0
 42
0.048438
  0
VERTEX
  8
1
  6
CONTINUOUS
 62
     4
  5
1C6
 10
371.695501
 20
102.523356
 30
0.0
 42
0.048261
  0
VERTEX
  8
1
  6
CONTINUOUS
 62
     4
  5
1C7
 10
371.772269
 20
102.458174
 30
0.0
 42
0.048261
  0
SEQEND
  8
1
  6
CONTINUOUS
 62
     4
  5
1C8
  0
LINE
  8
1
  6
CONTINUOUS
 62
     4
  5
1C9
 10
343.01175
 20
134.33625
 30
0.0
 11
343.01175
 21
128.23625
 31
0.0
  0
LINE
  8
1
  6
CONTINUOUS
 62
     4
  5
1CA
 10
345.01175
 20
134.33625
 30
0.0
 11
345.01175
 21
128.23625
 31
0.0
  0
LINE
  8
1
  6
CONTINUOUS
 62
     4
  5
1CB
 10
354.63175
 20
134.33625
 30
0.0
 11
354.63175
 21
128.27625
 31
0.0
  0
LINE
  8
1
  6
CONTINUOUS
 62
     4
  5
1CC
 10
356.65175
 20
134.33625
 30
0.0
 11
356.65175
 21
128.27625
 31
0.0
  0
LINE
  8
1
  6
CONTINUOUS
 62
     4
  5
1CD
 10
348.05175
 20
135.27625
 30
0.0
 11
348.05175
 21
128.21625
 31
0.0
  0
LINE
  8
1
  6
CONTINUOUS
 62
     4
  5
1CE
 10
349.55175
 20
135.27625
 30
0.0
 11
349.55175
 21
128.21625
 31
0.0
  0
LINE
  8
1
  6
CONTINUOUS
 62
     4
  5
1CF
 10
350.57175
 20
135.27625
 30
0.0
 11
350.57175
 21
128.21625
 31
0.0
  0
LINE
  8
1
  6
CONTINUOUS
 62
     4
  5
1D0
 10
352.07175
 20
135.27625
 30
0.0
 11
352.07175
 21
128.21625
 31
0.0
  0
LINE
  8
1
  6
CONTINUOUS
 62
     4
  5
1D1
 10
348.05175
 20
135.27625
 30
0.0
 11
349.55175
 21
135.27625
 31
0.0
  0
LINE
  8
1
  6
CONTINUOUS
 62
     4
  5
1D2
 10
350.57175
 20
135.27625
 30
0.0
 11
352.07175
 21
135.27625
 31
0.0
  0
ARC
  8
1
  6
CONTINUOUS
 62
     4
  5
1D3
 10
344.01101
 20
132.861533
 30
0.0
 40
1.7783
 50
55.470286
 51
124.529711
210
0.0
220
0.0
230
1.0
  0
ARC
  8
1
  6
CONTINUOUS
 62
     4
  5
1D4
 10
355.634678
 20
132.861533
 30
0.0
 40
1.7783
 50
55.470286
 51
124.529711
210
0.0
220
0.0
230
1.0
  0
LINE
  8
1
  6
CONTINUOUS
 62
     4
  5
1D5
 10
318.99175
 20
103.13625
 30
0.0
 11
320.99175
 21
103.13625
 31
0.0
  0
LINE
  8
1
  6
CONTINUOUS
 62
     4
  5
1D6
 10
318.99175
 20
104.05625
 30
0.0
 11
320.99175
 21
104.05625
 31
0.0
  0
LINE
  8
1
  6
CONTINUOUS
 62
     4
  5
1D7
 10
318.99175
 20
104.05625
 30
0.0
 11
318.99175
 21
103.13625
 31
0.0
  0
LINE
  8
1
  6
CONTINUOUS
 62
     4
  5
1D8
 10
320.99175
 20
104.05625
 30
0.0
 11
320.99175
 21
103.13625
 31
0.0
  0
LINE
  8
1
  6
CONTINUOUS
 62
     4
  5
1D9
 10
319.07175
 20
104.05625
 30
0.0
 11
319.07175
 21
103.13625
 31
0.0
  0
LINE
  8
1
  6
CONTINUOUS
 62
     4
  5
1DA
 10
319.09175
 20
104.05625
 30
0.0
 11
319.09175
 21
103.13625
 31
0.0
  0
LINE
  8
1
  6
CONTINUOUS
 62
     4
  5
1DB
 10
319.15175
 20
104.05625
 30
0.0
 11
319.15175
 21
103.13625
 31
0.0
  0
LINE
  8
1
  6
CONTINUOUS
 62
     4
  5
1DC
 10
319.05175
 20
104.05625
 30
0.0
 11
319.05175
 21
103.13625
 31
0.0
  0
LINE
  8
1
  6
CONTINUOUS
 62
     4
  5
1DD
 10
319.03175
 20
104.05625
 30
0.0
 11
319.03175
 21
103.13625
 31
0.0
  0
LINE
  8
1
  6
CONTINUOUS
 62
     4
  5
1DE
 10
319.03175
 20
104.05625
 30
0.0
 11
319.03175
 21
103.13625
 31
0.0
  0
LINE
  8
1
  6
CONTINUOUS
 62
     4
  5
1DF
 10
319.19175
 20
104.05625
 30
0.0
 11
319.19175
 21
103.13625
 31
0.0
  0
LINE
  8
1
  6
CONTINUOUS
 62
     4
  5
1E0
 10
319.23175
 20
104.05625
 30
0.0
 11
319.23175
 21
103.13625
 31
0.0
  0
LINE
  8
1
  6
CONTINUOUS
 62
     4
  5
1E1
 10
319.25175
 20
104.05625
 30
0.0
 11
319.25175
 21
103.13625
 31
0.0
  0
LINE
  8
1
  6
CONTINUOUS
 62
     4
  5
1E2
 10
319.29175
 20
104.05625
 30
0.0
 11
319.29175
 21
103.13625
 31
0.0
  0
LINE
  8
1
  6
CONTINUOUS
 62
     4
  5
1E3
 10
319.37175
 20
104.05625
 30
0.0
 11
319.37175
 21
103.13625
 31
0.0
  0
LINE
  8
1
  6
CONTINUOUS
 62
     4
  5
1E4
 10
319.37175
 20
104.05625
 30
0.0
 11
319.37175
 21
103.13625
 31
0.0
  0
LINE
  8
1
  6
CONTINUOUS
 62
     4
  5
1E5
 10
319.39175
 20
104.05625
 30
0.0
 11
319.39175
 21
103.13625
 31
0.0
  0
LINE
  8
1
  6
CONTINUOUS
 62
     4
  5
1E6
 10
319.33175
 20
104.05625
 30
0.0
 11
319.33175
 21
103.13625
 31
0.0
  0
LINE
  8
1
  6
CONTINUOUS
 62
     4
  5
1E7
 10
319.31175
 20
104.05625
 30
0.0
 11
319.31175
 21
103.13625
 31
0.0
  0
LINE
  8
1
  6
CONTINUOUS
 62
     4
  5
1E8
 10
319.37175
 20
104.05625
 30
0.0
 11
319.37175
 21
103.13625
 31
0.0
  0
LINE
  8
1
  6
CONTINUOUS
 62
     4
  5
1E9
 10
319.41175
 20
104.05625
 30
0.0
 11
319.41175
 21
103.13625
 31
0.0
  0
LINE
  8
1
  6
CONTINUOUS
 62
     4
  5
1EA
 10
319.47175
 20
104.05625
 30
0.0
 11
319.47175
 21
103.13625
 31
0.0
  0
LINE
  8
1
  6
CONTINUOUS
 62
     4
  5
1EB
 10
319.47175
 20
104.05625
 30
0.0
 11
319.47175
 21
103.13625
 31
0.0
  0
LINE
  8
1
  6
CONTINUOUS
 62
     4
  5
1EC
 10
319.47175
 20
104.05625
 30
0.0
 11
319.47175
 21
103.13625
 31
0.0
  0
LINE
  8
1
  6
CONTINUOUS
 62
     4
  5
1ED
 10
319.43175
 20
104.05625
 30
0.0
 11
319.43175
 21
103.13625
 31
0.0
  0
LINE
  8
1
  6
CONTINUOUS
 62
     4
  5
1EE
 10
319.53175
 20
104.05625
 30
0.0
 11
319.53175
 21
103.13625
 31
0.0
  0
LINE
  8
1
  6
CONTINUOUS
 62
     4
  5
1EF
 10
319.57175
 20
104.05625
 30
0.0
 11
319.57175
 21
103.13625
 31
0.0
  0
LINE
  8
1
  6
CONTINUOUS
 62
     4
  5
1F0
 10
319.57175
 20
104.05625
 30
0.0
 11
319.57175
 21
103.13625
 31
0.0
  0
LINE
  8
1
  6
CONTINUOUS
 62
     4
  5
1F1
 10
319.53175
 20
104.05625
 30
0.0
 11
319.53175
 21
103.13625
 31
0.0
  0
LINE
  8
1
  6
CONTINUOUS
 62
     4
  5
1F2
 10
319.51175
 20
104.05625
 30
0.0
 11
319.51175
 21
103.13625
 31
0.0
  0
LINE
  8
1
  6
CONTINUOUS
 62
     4
  5
1F3
 10
319.43175
 20
104.05625
 30
0.0
 11
319.43175
 21
103.13625
 31
0.0
  0
LINE
  8
1
  6
CONTINUOUS
 62
     4
  5
1F4
 10
319.59175
 20
104.05625
 30
0.0
 11
319.59175
 21
103.13625
 31
0.0
  0
LINE
  8
1
  6
CONTINUOUS
 62
     4
  5
1F5
 10
319.65175
 20
104.05625
 30
0.0
 11
319.65175
 21
103.13625
 31
0.0
  0
LINE
  8
1
  6
CONTINUOUS
 62
     4
  5
1F6
 10
319.67175
 20
104.05625
 30
0.0
 11
319.67175
 21
103.13625
 31
0.0
  0
LINE
  8
1
  6
CONTINUOUS
 62
     4
  5
1F7
 10
319.69175
 20
104.05625
 30
0.0
 11
319.69175
 21
103.13625
 31
0.0
  0
LINE
  8
1
  6
CONTINUOUS
 62
     4
  5
1F8
 10
319.63175
 20
104.05625
 30
0.0
 11
319.63175
 21
103.13625
 31
0.0
  0
LINE
  8
1
  6
CONTINUOUS
 62
     4
  5
1F9
 10
319.63175
 20
104.05625
 30
0.0
 11
319.63175
 21
103.13625
 31
0.0
  0
LINE
  8
1
  6
CONTINUOUS
 62
     4
  5
1FA
 10
319.73175
 20
104.05625
 30
0.0
 11
319.73175
 21
103.13625
 31
0.0
  0
LINE
  8
1
  6
CONTINUOUS
 62
     4
  5
1FB
 10
319.73175
 20
104.05625
 30
0.0
 11
319.73175
 21
103.13625
 31
0.0
  0
LINE
  8
1
  6
CONTINUOUS
 62
     4
  5
1FC
 10
319.77175
 20
104.05625
 30
0.0
 11
319.77175
 21
103.13625
 31
0.0
  0
LINE
  8
1
  6
CONTINUOUS
 62
     4
  5
1FD
 10
319.79175
 20
104.05625
 30
0.0
 11
319.79175
 21
103.13625
 31
0.0
  0
LINE
  8
1
  6
CONTINUOUS
 62
     4
  5
1FE
 10
319.81175
 20
104.05625
 30
0.0
 11
319.81175
 21
103.13625
 31
0.0
  0
LINE
  8
1
  6
CONTINUOUS
 62
     4
  5
1FF
 10
319.81175
 20
104.05625
 30
0.0
 11
319.81175
 21
103.13625
 31
0.0
  0
LINE
  8
1
  6
CONTINUOUS
 62
     4
  5
200
 10
319.83175
 20
104.05625
 30
0.0
 11
319.83175
 21
103.13625
 31
0.0
  0
LINE
  8
1
  6
CONTINUOUS
 62
     4
  5
201
 10
319.85175
 20
104.05625
 30
0.0
 11
319.85175
 21
103.13625
 31
0.0
  0
LINE
  8
1
  6
CONTINUOUS
 62
     4
  5
202
 10
319.87175
 20
104.05625
 30
0.0
 11
319.87175
 21
103.13625
 31
0.0
  0
LINE
  8
1
  6
CONTINUOUS
 62
     4
  5
203
 10
319.89175
 20
104.05625
 30
0.0
 11
319.89175
 21
103.13625
 31
0.0
  0
LINE
  8
1
  6
CONTINUOUS
 62
     4
  5
204
 10
319.89175
 20
104.05625
 30
0.0
 11
319.89175
 21
103.13625
 31
0.0
  0
LINE
  8
1
  6
CONTINUOUS
 62
     4
  5
205
 10
319.89175
 20
104.05625
 30
0.0
 11
319.89175
 21
103.13625
 31
0.0
  0
LINE
  8
1
  6
CONTINUOUS
 62
     4
  5
206
 10
319.91175
 20
104.05625
 30
0.0
 11
319.91175
 21
103.13625
 31
0.0
  0
LINE
  8
1
  6
CONTINUOUS
 62
     4
  5
207
 10
319.91175
 20
104.05625
 30
0.0
 11
319.91175
 21
103.13625
 31
0.0
  0
LINE
  8
1
  6
CONTINUOUS
 62
     4
  5
208
 10
319.91175
 20
104.05625
 30
0.0
 11
319.91175
 21
103.13625
 31
0.0
  0
LINE
  8
1
  6
CONTINUOUS
 62
     4
  5
209
 10
319.95175
 20
104.05625
 30
0.0
 11
319.95175
 21
103.13625
 31
0.0
  0
LINE
  8
1
  6
CONTINUOUS
 62
     4
  5
20A
 10
319.95175
 20
104.05625
 30
0.0
 11
319.95175
 21
103.13625
 31
0.0
  0
LINE
  8
1
  6
CONTINUOUS
 62
     4
  5
20B
 10
319.97175
 20
104.05625
 30
0.0
 11
319.97175
 21
103.13625
 31
0.0
  0
LINE
  8
1
  6
CONTINUOUS
 62
     4
  5
20C
 10
319.97175
 20
104.05625
 30
0.0
 11
319.97175
 21
103.13625
 31
0.0
  0
LINE
  8
1
  6
CONTINUOUS
 62
     4
  5
20D
 10
319.99175
 20
104.05625
 30
0.0
 11
319.99175
 21
103.13625
 31
0.0
  0
LINE
  8
1
  6
CONTINUOUS
 62
     4
  5
20E
 10
320.01175
 20
104.05625
 30
0.0
 11
320.01175
 21
103.13625
 31
0.0
  0
LINE
  8
1
  6
CONTINUOUS
 62
     4
  5
20F
 10
320.05175
 20
104.05625
 30
0.0
 11
320.05175
 21
103.13625
 31
0.0
  0
LINE
  8
1
  6
CONTINUOUS
 62
     4
  5
210
 10
320.05175
 20
104.05625
 30
0.0
 11
320.05175
 21
103.13625
 31
0.0
  0
LINE
  8
1
  6
CONTINUOUS
 62
     4
  5
211
 10
320.05175
 20
104.05625
 30
0.0
 11
320.05175
 21
103.13625
 31
0.0
  0
LINE
  8
1
  6
CONTINUOUS
 62
     4
  5
212
 10
320.07175
 20
104.05625
 30
0.0
 11
320.07175
 21
103.13625
 31
0.0
  0
LINE
  8
1
  6
CONTINUOUS
 62
     4
  5
213
 10
320.09175
 20
104.05625
 30
0.0
 11
320.09175
 21
103.13625
 31
0.0
  0
LINE
  8
1
  6
CONTINUOUS
 62
     4
  5
214
 10
320.11175
 20
104.05625
 30
0.0
 11
320.11175
 21
103.13625
 31
0.0
  0
LINE
  8
1
  6
CONTINUOUS
 62
     4
  5
215
 10
320.11175
 20
104.05625
 30
0.0
 11
320.11175
 21
103.13625
 31
0.0
  0
LINE
  8
1
  6
CONTINUOUS
 62
     4
  5
216
 10
320.13175
 20
104.05625
 30
0.0
 11
320.13175
 21
103.13625
 31
0.0
  0
LINE
  8
1
  6
CONTINUOUS
 62
     4
  5
217
 10
320.13175
 20
104.05625
 30
0.0
 11
320.13175
 21
103.13625
 31
0.0
  0
LINE
  8
1
  6
CONTINUOUS
 62
     4
  5
218
 10
320.17175
 20
104.05625
 30
0.0
 11
320.17175
 21
103.13625
 31
0.0
  0
LINE
  8
1
  6
CONTINUOUS
 62
     4
  5
219
 10
320.19175
 20
104.05625
 30
0.0
 11
320.19175
 21
103.13625
 31
0.0
  0
LINE
  8
1
  6
CONTINUOUS
 62
     4
  5
21A
 10
320.19175
 20
104.05625
 30
0.0
 11
320.19175
 21
103.13625
 31
0.0
  0
LINE
  8
1
  6
CONTINUOUS
 62
     4
  5
21B
 10
320.21175
 20
104.05625
 30
0.0
 11
320.21175
 21
103.13625
 31
0.0
  0
LINE
  8
1
  6
CONTINUOUS
 62
     4
  5
21C
 10
320.25175
 20
104.05625
 30
0.0
 11
320.25175
 21
103.13625
 31
0.0
  0
LINE
  8
1
  6
CONTINUOUS
 62
     4
  5
21D
 10
320.25175
 20
104.05625
 30
0.0
 11
320.25175
 21
103.13625
 31
0.0
  0
LINE
  8
1
  6
CONTINUOUS
 62
     4
  5
21E
 10
320.25175
 20
104.05625
 30
0.0
 11
320.25175
 21
103.13625
 31
0.0
  0
LINE
  8
1
  6
CONTINUOUS
 62
     4
  5
21F
 10
320.27175
 20
104.05625
 30
0.0
 11
320.27175
 21
103.13625
 31
0.0
  0
LINE
  8
1
  6
CONTINUOUS
 62
     4
  5
220
 10
320.27175
 20
104.05625
 30
0.0
 11
320.27175
 21
103.13625
 31
0.0
  0
LINE
  8
1
  6
CONTINUOUS
 62
     4
  5
221
 10
320.29175
 20
104.05625
 30
0.0
 11
320.29175
 21
103.13625
 31
0.0
  0
LINE
  8
1
  6
CONTINUOUS
 62
     4
  5
222
 10
320.29175
 20
104.05625
 30
0.0
 11
320.29175
 21
103.13625
 31
0.0
  0
LINE
  8
1
  6
CONTINUOUS
 62
     4
  5
223
 10
320.31175
 20
104.05625
 30
0.0
 11
320.31175
 21
103.13625
 31
0.0
  0
LINE
  8
1
  6
CONTINUOUS
 62
     4
  5
224
 10
320.33175
 20
104.05625
 30
0.0
 11
320.33175
 21
103.13625
 31
0.0
  0
LINE
  8
1
  6
CONTINUOUS
 62
     4
  5
225
 10
320.33175
 20
104.05625
 30
0.0
 11
320.33175
 21
103.13625
 31
0.0
  0
LINE
  8
1
  6
CONTINUOUS
 62
     4
  5
226
 10
320.33175
 20
104.05625
 30
0.0
 11
320.33175
 21
103.13625
 31
0.0
  0
LINE
  8
1
  6
CONTINUOUS
 62
     4
  5
227
 10
320.35175
 20
104.05625
 30
0.0
 11
320.35175
 21
103.13625
 31
0.0
  0
LINE
  8
1
  6
CONTINUOUS
 62
     4
  5
228
 10
320.37175
 20
104.05625
 30
0.0
 11
320.37175
 21
103.13625
 31
0.0
  0
LINE
  8
1
  6
CONTINUOUS
 62
     4
  5
229
 10
320.39175
 20
104.05625
 30
0.0
 11
320.39175
 21
103.13625
 31
0.0
  0
LINE
  8
1
  6
CONTINUOUS
 62
     4
  5
22A
 10
320.41175
 20
104.05625
 30
0.0
 11
320.41175
 21
103.13625
 31
0.0
  0
LINE
  8
1
  6
CONTINUOUS
 62
     4
  5
22B
 10
320.41175
 20
104.05625
 30
0.0
 11
320.41175
 21
103.13625
 31
0.0
  0
LINE
  8
1
  6
CONTINUOUS
 62
     4
  5
22C
 10
320.41175
 20
104.05625
 30
0.0
 11
320.41175
 21
103.13625
 31
0.0
  0
LINE
  8
1
  6
CONTINUOUS
 62
     4
  5
22D
 10
320.45175
 20
104.05625
 30
0.0
 11
320.45175
 21
103.13625
 31
0.0
  0
LINE
  8
1
  6
CONTINUOUS
 62
     4
  5
22E
 10
320.47175
 20
104.05625
 30
0.0
 11
320.47175
 21
103.13625
 31
0.0
  0
LINE
  8
1
  6
CONTINUOUS
 62
     4
  5
22F
 10
320.49175
 20
104.05625
 30
0.0
 11
320.49175
 21
103.13625
 31
0.0
  0
LINE
  8
1
  6
CONTINUOUS
 62
     4
  5
230
 10
320.49175
 20
104.05625
 30
0.0
 11
320.49175
 21
103.13625
 31
0.0
  0
LINE
  8
1
  6
CONTINUOUS
 62
     4
  5
231
 10
320.51175
 20
104.05625
 30
0.0
 11
320.51175
 21
103.13625
 31
0.0
  0
LINE
  8
1
  6
CONTINUOUS
 62
     4
  5
232
 10
320.53175
 20
104.05625
 30
0.0
 11
320.53175
 21
103.13625
 31
0.0
  0
LINE
  8
1
  6
CONTINUOUS
 62
     4
  5
233
 10
320.53175
 20
104.05625
 30
0.0
 11
320.53175
 21
103.13625
 31
0.0
  0
LINE
  8
1
  6
CONTINUOUS
 62
     4
  5
234
 10
320.57175
 20
104.05625
 30
0.0
 11
320.57175
 21
103.13625
 31
0.0
  0
LINE
  8
1
  6
CONTINUOUS
 62
     4
  5
235
 10
320.59175
 20
104.05625
 30
0.0
 11
320.59175
 21
103.13625
 31
0.0
  0
LINE
  8
1
  6
CONTINUOUS
 62
     4
  5
236
 10
320.61175
 20
104.05625
 30
0.0
 11
320.61175
 21
103.13625
 31
0.0
  0
LINE
  8
1
  6
CONTINUOUS
 62
     4
  5
237
 10
320.61175
 20
104.05625
 30
0.0
 11
320.61175
 21
103.13625
 31
0.0
  0
LINE
  8
1
  6
CONTINUOUS
 62
     4
  5
238
 10
320.61175
 20
104.05625
 30
0.0
 11
320.61175
 21
103.13625
 31
0.0
  0
LINE
  8
1
  6
CONTINUOUS
 62
     4
  5
239
 10
320.61175
 20
104.05625
 30
0.0
 11
320.61175
 21
103.13625
 31
0.0
  0
LINE
  8
1
  6
CONTINUOUS
 62
     4
  5
23A
 10
320.65175
 20
104.05625
 30
0.0
 11
320.65175
 21
103.13625
 31
0.0
  0
LINE
  8
1
  6
CONTINUOUS
 62
     4
  5
23B
 10
320.65175
 20
104.05625
 30
0.0
 11
320.65175
 21
103.13625
 31
0.0
  0
LINE
  8
1
  6
CONTINUOUS
 62
     4
  5
23C
 10
320.67175
 20
104.05625
 30
0.0
 11
320.67175
 21
103.13625
 31
0.0
  0
LINE
  8
1
  6
CONTINUOUS
 62
     4
  5
23D
 10
320.65175
 20
104.05625
 30
0.0
 11
320.65175
 21
103.13625
 31
0.0
  0
LINE
  8
1
  6
CONTINUOUS
 62
     4
  5
23E
 10
320.69175
 20
104.05625
 30
0.0
 11
320.69175
 21
103.13625
 31
0.0
  0
LINE
  8
1
  6
CONTINUOUS
 62
     4
  5
23F
 10
320.69175
 20
104.05625
 30
0.0
 11
320.69175
 21
103.13625
 31
0.0
  0
LINE
  8
1
  6
CONTINUOUS
 62
     4
  5
240
 10
320.71175
 20
104.05625
 30
0.0
 11
320.71175
 21
103.13625
 31
0.0
  0
LINE
  8
1
  6
CONTINUOUS
 62
     4
  5
241
 10
320.73175
 20
104.05625
 30
0.0
 11
320.73175
 21
103.13625
 31
0.0
  0
LINE
  8
1
  6
CONTINUOUS
 62
     4
  5
242
 10
320.75175
 20
104.05625
 30
0.0
 11
320.75175
 21
103.13625
 31
0.0
  0
LINE
  8
1
  6
CONTINUOUS
 62
     4
  5
243
 10
320.75175
 20
104.05625
 30
0.0
 11
320.75175
 21
103.13625
 31
0.0
  0
LINE
  8
1
  6
CONTINUOUS
 62
     4
  5
244
 10
320.75175
 20
104.05625
 30
0.0
 11
320.75175
 21
103.13625
 31
0.0
  0
LINE
  8
1
  6
CONTINUOUS
 62
     4
  5
245
 10
320.81175
 20
104.05625
 30
0.0
 11
320.81175
 21
103.13625
 31
0.0
  0
LINE
  8
1
  6
CONTINUOUS
 62
     4
  5
246
 10
320.81175
 20
104.05625
 30
0.0
 11
320.81175
 21
103.13625
 31
0.0
  0
LINE
  8
1
  6
CONTINUOUS
 62
     4
  5
247
 10
320.81175
 20
104.05625
 30
0.0
 11
320.81175
 21
103.13625
 31
0.0
  0
LINE
  8
1
  6
CONTINUOUS
 62
     4
  5
248
 10
320.81175
 20
104.05625
 30
0.0
 11
320.81175
 21
103.13625
 31
0.0
  0
LINE
  8
1
  6
CONTINUOUS
 62
     4
  5
249
 10
320.79175
 20
104.05625
 30
0.0
 11
320.79175
 21
103.13625
 31
0.0
  0
LINE
  8
1
  6
CONTINUOUS
 62
     4
  5
24A
 10
320.75175
 20
104.05625
 30
0.0
 11
320.75175
 21
103.13625
 31
0.0
  0
LINE
  8
1
  6
CONTINUOUS
 62
     4
  5
24B
 10
320.85175
 20
104.05625
 30
0.0
 11
320.85175
 21
103.13625
 31
0.0
  0
LINE
  8
1
  6
CONTINUOUS
 62
     4
  5
24C
 10
320.85175
 20
104.05625
 30
0.0
 11
320.85175
 21
103.13625
 31
0.0
  0
LINE
  8
1
  6
CONTINUOUS
 62
     4
  5
24D
 10
320.85175
 20
104.05625
 30
0.0
 11
320.85175
 21
103.13625
 31
0.0
  0
LINE
  8
1
  6
CONTINUOUS
 62
     4
  5
24E
 10
320.87175
 20
104.05625
 30
0.0
 11
320.87175
 21
103.13625
 31
0.0
  0
LINE
  8
1
  6
CONTINUOUS
 62
     4
  5
24F
 10
320.87175
 20
104.05625
 30
0.0
 11
320.87175
 21
103.13625
 31
0.0
  0
LINE
  8
1
  6
CONTINUOUS
 62
     4
  5
250
 10
320.87175
 20
104.05625
 30
0.0
 11
320.87175
 21
103.13625
 31
0.0
  0
LINE
  8
1
  6
CONTINUOUS
 62
     4
  5
251
 10
320.89175
 20
104.05625
 30
0.0
 11
320.89175
 21
103.13625
 31
0.0
  0
LINE
  8
1
  6
CONTINUOUS
 62
     4
  5
252
 10
320.89175
 20
104.05625
 30
0.0
 11
320.89175
 21
103.13625
 31
0.0
  0
LINE
  8
1
  6
CONTINUOUS
 62
     4
  5
253
 10
320.93175
 20
104.05625
 30
0.0
 11
320.93175
 21
103.13625
 31
0.0
  0
LINE
  8
1
  6
CONTINUOUS
 62
     4
  5
254
 10
320.93175
 20
104.05625
 30
0.0
 11
320.93175
 21
103.13625
 31
0.0
  0
LINE
  8
1
  6
CONTINUOUS
 62
     4
  5
255
 10
320.93175
 20
104.05625
 30
0.0
 11
320.93175
 21
103.13625
 31
0.0
  0
LINE
  8
1
  6
CONTINUOUS
 62
     4
  5
256
 10
320.95175
 20
104.05625
 30
0.0
 11
320.95175
 21
103.13625
 31
0.0
  0
LINE
  8
1
  6
CONTINUOUS
 62
     4
  5
257
 10
320.95175
 20
104.05625
 30
0.0
 11
320.95175
 21
103.13625
 31
0.0
  0
LINE
  8
1
  6
CONTINUOUS
 62
     4
  5
258
 10
320.97175
 20
104.05625
 30
0.0
 11
320.97175
 21
103.13625
 31
0.0
  0
LINE
  8
1
  6
CONTINUOUS
 62
     4
  5
259
 10
320.97175
 20
104.05625
 30
0.0
 11
320.97175
 21
103.13625
 31
0.0
  0
LINE
  8
1
  6
CONTINUOUS
 62
     4
  5
25A
 10
320.99175
 20
104.05625
 30
0.0
 11
320.99175
 21
103.13625
 31
0.0
  0
ARC
  8
1
  6
CONTINUOUS
 62
     4
  5
25B
 10
320.063373
 20
43.993346
 30
0.0
 40
0.559618
 50
191.118106
 51
254.886
210
0.0
220
0.0
230
1.0
  0
ARC
  8
1
  6
CONTINUOUS
 62
     4
  5
25C
 10
319.772047
 20
43.993262
 30
0.0
 40
0.559618
 50
285.114
 51
348.881894
210
0.0
220
0.0
230
1.0
  0
LINE
  8
1
  6
CONTINUOUS
 62
     4
  5
25D
 10
319.91175
 20
43.45625
 30
0.0
 11
319.91175
 21
43.35625
 31
0.0
  0
LINE
  8
1
  6
CONTINUOUS
 62
     4
  5
25E
 10
343.01175
 20
134.33625
 30
0.0
 11
345.01175
 21
134.33625
 31
0.0
  0
LINE
  8
1
  6
CONTINUOUS
 62
     4
  5
25F
 10
343.01175
 20
132.31625
 30
0.0
 11
345.01175
 21
132.31625
 31
0.0
  0
LINE
  8
1
  6
CONTINUOUS
 62
     4
  5
260
 10
343.01175
 20
130.29625
 30
0.0
 11
345.01175
 21
130.29625
 31
0.0
  0
LINE
  8
1
  6
CONTINUOUS
 62
     4
  5
261
 10
343.01175
 20
133.31625
 30
0.0
 11
345.01175
 21
133.31625
 31
0.0
  0
LINE
  8
1
  6
CONTINUOUS
 62
     4
  5
262
 10
343.01175
 20
131.29625
 30
0.0
 11
345.01175
 21
131.29625
 31
0.0
  0
LINE
  8
1
  6
CONTINUOUS
 62
     4
  5
263
 10
343.01175
 20
129.29625
 30
0.0
 11
345.01175
 21
129.29625
 31
0.0
  0
LINE
  8
1
  6
CONTINUOUS
 62
     4
  5
264
 10
343.55175
 20
133.83625
 30
0.0
 11
344.55175
 21
133.83625
 31
0.0
  0
LINE
  8
1
  6
CONTINUOUS
 62
     4
  5
265
 10
343.47175
 20
132.85625
 30
0.0
 11
344.47175
 21
132.85625
 31
0.0
  0
LINE
  8
1
  6
CONTINUOUS
 62
     4
  5
266
 10
343.49175
 20
131.85625
 30
0.0
 11
344.49175
 21
131.85625
 31
0.0
  0
LINE
  8
1
  6
CONTINUOUS
 62
     4
  5
267
 10
343.45175
 20
130.87625
 30
0.0
 11
344.45175
 21
130.87625
 31
0.0
  0
LINE
  8
1
  6
CONTINUOUS
 62
     4
  5
268
 10
343.47175
 20
129.83625
 30
0.0
 11
344.47175
 21
129.83625
 31
0.0
  0
LINE
  8
1
  6
CONTINUOUS
 62
     4
  5
269
 10
343.47175
 20
128.83625
 30
0.0
 11
344.47175
 21
128.83625
 31
0.0
  0
LINE
  8
1
  6
CONTINUOUS
 62
     4
  5
26A
 10
354.63175
 20
134.33625
 30
0.0
 11
356.65175
 21
134.33625
 31
0.0
  0
LINE
  8
1
  6
CONTINUOUS
 62
     4
  5
26B
 10
354.63175
 20
133.31625
 30
0.0
 11
356.65175
 21
133.31625
 31
0.0
  0
LINE
  8
1
  6
CONTINUOUS
 62
     4
  5
26C
 10
354.63175
 20
132.31625
 30
0.0
 11
356.65175
 21
132.31625
 31
0.0
  0
LINE
  8
1
  6
CONTINUOUS
 62
     4
  5
26D
 10
354.63175
 20
131.29625
 30
0.0
 11
356.65175
 21
131.29625
 31
0.0
  0
LINE
  8
1
  6
CONTINUOUS
 62
     4
  5
26E
 10
354.63175
 20
130.29625
 30
0.0
 11
356.65175
 21
130.29625
 31
0.0
  0
LINE
  8
1
  6
CONTINUOUS
 62
     4
  5
26F
 10
354.63175
 20
129.29625
 30
0.0
 11
356.65175
 21
129.29625
 31
0.0
  0
LINE
  8
1
  6
CONTINUOUS
 62
     4
  5
270
 10
355.13175
 20
133.85625
 30
0.0
 11
356.13175
 21
133.85625
 31
0.0
  0
LINE
  8
1
  6
CONTINUOUS
 62
     4
  5
271
 10
355.11175
 20
132.85625
 30
0.0
 11
356.13175
 21
132.85625
 31
0.0
  0
LINE
  8
1
  6
CONTINUOUS
 62
     4
  5
272
 10
355.15175
 20
131.83625
 30
0.0
 11
356.15175
 21
131.83625
 31
0.0
  0
LINE
  8
1
  6
CONTINUOUS
 62
     4
  5
273
 10
355.07175
 20
130.79625
 30
0.0
 11
356.09175
 21
130.79625
 31
0.0
  0
LINE
  8
1
  6
CONTINUOUS
 62
     4
  5
274
 10
355.09175
 20
129.83625
 30
0.0
 11
356.11175
 21
129.83625
 31
0.0
  0
LINE
  8
1
  6
CONTINUOUS
 62
     4
  5
275
 10
355.07175
 20
128.83625
 30
0.0
 11
356.09175
 21
128.83625
 31
0.0
  0
LINE
  8
1
  6
CONTINUOUS
 62
     4
  5
276
 10
371.25175
 20
54.63625
 30
0.0
 11
393.43175
 21
54.63625
 31
0.0
  0
LINE
  8
1
  6
CONTINUOUS
 62
     4
  5
277
 10
371.25175
 20
57.63625
 30
0.0
 11
382.85175
 21
57.63625
 31
0.0
  0
LINE
  8
1
  6
CONTINUOUS
 62
     4
  5
278
 10
322.23175
 20
102.41625
 30
0.0
 11
327.27175
 21
102.41625
 31
0.0
  0
LINE
  8
1
  6
CONTINUOUS
 62
     4
  5
279
 10
312.89175
 20
102.37625
 30
0.0
 11
317.93175
 21
102.37625
 31
0.0
  0
LINE
  8
1
  6
CONTINUOUS
 62
     4
  5
27A
 10
319.51175
 20
102.05625
 30
0.0
 11
319.51175
 21
43.87625
 31
0.0
  0
LINE
  8
1
  6
CONTINUOUS
 62
     4
  5
27B
 10
320.31175
 20
102.05625
 30
0.0
 11
320.31175
 21
43.87625
 31
0.0
  0
LINE
  8
1
  6
CONTINUOUS
 62
     4
  5
27C
 10
319.51175
 20
104.17625
 30
0.0
 11
319.51175
 21
101.81625
 31
0.0
  0
LINE
  8
1
  6
CONTINUOUS
 62
     4
  5
27D
 10
320.31175
 20
104.17625
 30
0.0
 11
320.31175
 21
101.85625
 31
0.0
  0
LINE
  8
1
  6
CONTINUOUS
 62
     4
  5
27E
 10
319.59175
 20
104.05625
 30
0.0
 11
319.59175
 21
103.69625
 31
0.0
  0
LINE
  8
1
  6
CONTINUOUS
 62
     4
  5
27F
 10
320.39175
 20
104.05625
 30
0.0
 11
320.39175
 21
103.69625
 31
0.0
  0
LINE
  8
1
  6
CONTINUOUS
 62
     4
  5
280
 10
319.51175
 20
104.91625
 30
0.0
 11
320.31175
 21
104.91625
 31
0.0
  0
LINE
  8
1
  6
CONTINUOUS
 62
     4
  5
281
 10
319.51175
 20
104.91625
 30
0.0
 11
319.51175
 21
104.13625
 31
0.0
  0
LINE
  8
1
  6
CONTINUOUS
 62
     4
  5
282
 10
320.31175
 20
104.89625
 30
0.0
 11
320.31175
 21
104.57625
 31
0.0
  0
LINE
  8
1
  6
CONTINUOUS
 62
     4
  5
283
 10
320.31175
 20
104.89625
 30
0.0
 11
320.31175
 21
104.13625
 31
0.0
  0
POLYLINE
  8
1
  6
CONTINUOUS
 62
     4
  5
284
 66
     1
 10
0.0
 20
0.0
 30
0.0
  0
VERTEX
  8
1
  6
CONTINUOUS
 62
     4
  5
285
 10
320.47175
 20
104.05625
 30
0.0
  0
VERTEX
  8
1
  6
CONTINUOUS
 62
     4
  5
286
 10
320.75175
 20
104.19625
 30
0.0
  0
VERTEX
  8
1
  6
CONTINUOUS
 62
     4
  5
287
 10
321.15175
 20
104.31625
 30
0.0
  0
VERTEX
  8
1
  6
CONTINUOUS
 62
     4
  5
288
 10
321.25175
 20
104.23625
 30
0.0
  0
VERTEX
  8
1
  6
CONTINUOUS
 62
     4
  5
289
 10
321.55175
 20
104.31625
 30
0.0
  0
VERTEX
  8
1
  6
CONTINUOUS
 62
     4
  5
28A
 10
321.67175
 20
104.25625
 30
0.0
  0
VERTEX
  8
1
  6
CONTINUOUS
 62
     4
  5
28B
 10
321.79175
 20
104.33625
 30
0.0
  0
VERTEX
  8
1
  6
CONTINUOUS
 62
     4
  5
28C
 10
321.99175
 20
104.19625
 30
0.0
  0
VERTEX
  8
1
  6
CONTINUOUS
 62
     4
  5
28D
 10
322.13175
 20
104.21625
 30
0.0
  0
VERTEX
  8
1
  6
CONTINUOUS
 62
     4
  5
28E
 10
322.29175
 20
104.21625
 30
0.0
  0
VERTEX
  8
1
  6
CONTINUOUS
 62
     4
  5
28F
 10
322.43175
 20
104.23625
 30
0.0
  0
VERTEX
  8
1
  6
CONTINUOUS
 62
     4
  5
290
 10
322.49175
 20
104.21625
 30
0.0
  0
VERTEX
  8
1
  6
CONTINUOUS
 62
     4
  5
291
 10
322.63175
 20
104.29625
 30
0.0
  0
VERTEX
  8
1
  6
CONTINUOUS
 62
     4
  5
292
 10
322.69175
 20
104.25625
 30
0.0
  0
VERTEX
  8
1
  6
CONTINUOUS
 62
     4
  5
293
 10
322.89175
 20
104.23625
 30
0.0
  0
VERTEX
  8
1
  6
CONTINUOUS
 62
     4
  5
294
 10
323.03175
 20
104.21625
 30
0.0
  0
VERTEX
  8
1
  6
CONTINUOUS
 62
     4
  5
295
 10
323.21175
 20
104.23625
 30
0.0
  0
VERTEX
  8
1
  6
CONTINUOUS
 62
     4
  5
296
 10
323.27175
 20
104.17625
 30
0.0
  0
VERTEX
  8
1
  6
CONTINUOUS
 62
     4
  5
297
 10
323.41175
 20
104.19625
 30
0.0
  0
VERTEX
  8
1
  6
CONTINUOUS
 62
     4
  5
298
 10
323.61175
 20
104.23625
 30
0.0
  0
VERTEX
  8
1
  6
CONTINUOUS
 62
     4
  5
299
 10
323.85175
 20
104.19625
 30
0.0
  0
VERTEX
  8
1
  6
CONTINUOUS
 62
     4
  5
29A
 10
323.93175
 20
104.15625
 30
0.0
  0
VERTEX
  8
1
  6
CONTINUOUS
 62
     4
  5
29B
 10
324.09175
 20
104.13625
 30
0.0
  0
VERTEX
  8
1
  6
CONTINUOUS
 62
     4
  5
29C
 10
324.19175
 20
104.09625
 30
0.0
  0
VERTEX
  8
1
  6
CONTINUOUS
 62
     4
  5
29D
 10
324.43175
 20
104.15625
 30
0.0
  0
VERTEX
  8
1
  6
CONTINUOUS
 62
     4
  5
29E
 10
324.69175
 20
104.01625
 30
0.0
  0
VERTEX
  8
1
  6
CONTINUOUS
 62
     4
  5
29F
 10
324.79175
 20
104.09625
 30
0.0
  0
VERTEX
  8
1
  6
CONTINUOUS
 62
     4
  5
2A0
 10
325.15175
 20
104.01625
 30
0.0
  0
VERTEX
  8
1
  6
CONTINUOUS
 62
     4
  5
2A1
 10
325.37175
 20
104.03625
 30
0.0
  0
VERTEX
  8
1
  6
CONTINUOUS
 62
     4
  5
2A2
 10
325.51175
 20
103.91625
 30
0.0
  0
VERTEX
  8
1
  6
CONTINUOUS
 62
     4
  5
2A3
 10
325.75175
 20
103.95625
 30
0.0
  0
VERTEX
  8
1
  6
CONTINUOUS
 62
     4
  5
2A4
 10
326.01175
 20
103.95625
 30
0.0
  0
VERTEX
  8
1
  6
CONTINUOUS
 62
     4
  5
2A5
 10
326.23175
 20
103.83625
 30
0.0
  0
VERTEX
  8
1
  6
CONTINUOUS
 62
     4
  5
2A6
 10
326.43175
 20
103.81625
 30
0.0
  0
VERTEX
  8
1
  6
CONTINUOUS
 62
     4
  5
2A7
 10
326.53175
 20
103.85625
 30
0.0
  0
VERTEX
  8
1
  6
CONTINUOUS
 62
     4
  5
2A8
 10
326.75175
 20
103.85625
 30
0.0
  0
VERTEX
  8
1
  6
CONTINUOUS
 62
     4
  5
2A9
 10
326.85175
 20
103.77625
 30
0.0
  0
VERTEX
  8
1
  6
CONTINUOUS
 62
     4
  5
2AA
 10
326.93175
 20
103.77625
 30
0.0
  0
VERTEX
  8
1
  6
CONTINUOUS
 62
     4
  5
2AB
 10
327.17175
 20
103.65625
 30
0.0
  0
VERTEX
  8
1
  6
CONTINUOUS
 62
     4
  5
2AC
 10
327.23175
 20
103.57625
 30
0.0
  0
VERTEX
  8
1
  6
CONTINUOUS
 62
     4
  5
2AD
 10
327.23175
 20
103.59625
 30
0.0
  0
VERTEX
  8
1
  6
CONTINUOUS
 62
     4
  5
2AE
 10
327.47175
 20
103.53625
 30
0.0
  0
VERTEX
  8
1
  6
CONTINUOUS
 62
     4
  5
2AF
 10
327.61175
 20
103.57625
 30
0.0
  0
VERTEX
  8
1
  6
CONTINUOUS
 62
     4
  5
2B0
 10
327.89175
 20
103.67625
 30
0.0
  0
VERTEX
  8
1
  6
CONTINUOUS
 62
     4
  5
2B1
 10
328.01175
 20
103.65625
 30
0.0
  0
VERTEX
  8
1
  6
CONTINUOUS
 62
     4
  5
2B2
 10
328.05175
 20
103.59625
 30
0.0
  0
VERTEX
  8
1
  6
CONTINUOUS
 62
     4
  5
2B3
 10
328.09175
 20
103.55625
 30
0.0
  0
VERTEX
  8
1
  6
CONTINUOUS
 62
     4
  5
2B4
 10
328.15175
 20
103.55625
 30
0.0
  0
VERTEX
  8
1
  6
CONTINUOUS
 62
     4
  5
2B5
 10
328.33175
 20
103.51625
 30
0.0
  0
SEQEND
  8
1
  6
CONTINUOUS
 62
     4
  5
2B6
  0
LINE
  8
1
  6
CONTINUOUS
 62
     4
  5
2B7
 10
313.97175
 20
102.29625
 30
0.0
 11
313.97175
 21
128.31625
 31
0.0
  0
LINE
  8
1
  6
CONTINUOUS
 62
     4
  5
2B8
 10
391.01175
 20
54.43625
 30
0.0
 11
391.01175
 21
128.23625
 31
0.0
  0
LINE
  8
1
  6
CONTINUOUS
 62
     4
  5
2B9
 10
380.89175
 20
60.93625
 30
0.0
 11
380.89175
 21
57.63625
 31
0.0
  0
LINE
  8
1
  6
CONTINUOUS
 62
     4
  5
2BA
 10
381.03175
 20
54.63625
 30
0.0
 11
381.03175
 21
51.25625
 31
0.0
  0
LINE
  8
1
  6
CONTINUOUS
 62
     4
  5
2BB
 10
352.79175
 20
128.93625
 30
0.0
 11
359.93175
 21
136.07625
 31
0.0
  0
LINE
  8
1
  6
CONTINUOUS
 62
     4
  5
2BC
 10
352.57175
 20
135.55625
 30
0.0
 11
356.13175
 21
139.11625
 31
0.0
  0
LINE
  8
1
  6
CONTINUOUS
 62
     4
  5
2BD
 10
368.97175
 20
129.61625
 30
0.0
 11
368.97175
 21
134.65625
 31
0.0
  0
LINE
  8
1
  6
CONTINUOUS
 62
     4
  5
2BE
 10
365.95175
 20
129.61625
 30
0.0
 11
365.95175
 21
134.65625
 31
0.0
  0
LINE
  8
1
  6
CONTINUOUS
 62
     4
  5
2BF
 10
362.93175
 20
133.69625
 30
0.0
 11
365.95175
 21
133.69625
 31
0.0
  0
LINE
  8
1
  6
CONTINUOUS
 62
     4
  5
2C0
 10
369.01175
 20
133.77625
 30
0.0
 11
372.45175
 21
133.77625
 31
0.0
  0
LINE
  8
1
  6
CONTINUOUS
 62
     4
  5
2C1
 10
353.95175
 20
140.31625
 30
0.0
 11
355.63175
 21
138.63625
 31
0.0
  0
LINE
  8
1
  6
CONTINUOUS
 62
     4
  5
2C2
 10
359.05175
 20
135.19625
 30
0.0
 11
360.81175
 21
133.45625
 31
0.0
  0
LINE
  8
1
  6
CONTINUOUS
 62
     4
  5
2C3
 10
318.47175
 20
125.73625
 30
0.0
 11
320.21175
 21
128.21625
 31
0.0
  0
LINE
  8
1
  6
CONTINUOUS
 62
     4
  5
2C4
 10
319.07175
 20
125.77625
 30
0.0
 11
320.81175
 21
128.25625
 31
0.0
  0
LINE
  8
1
  6
CONTINUOUS
 62
     4
  5
2C5
 10
319.83175
 20
125.81625
 30
0.0
 11
321.57175
 21
128.29625
 31
0.0
  0
LINE
  8
1
  6
CONTINUOUS
 62
     4
  5
2C6
 10
321.61175
 20
128.27625
 30
0.0
 11
324.09175
 21
126.53625
 31
0.0
  0
LINE
  8
1
  6
CONTINUOUS
 62
     4
  5
2C7
 10
321.27175
 20
127.81625
 30
0.0
 11
323.75175
 21
126.09625
 31
0.0
  0
LINE
  8
1
  6
CONTINUOUS
 62
     4
  5
2C8
 10
320.97175
 20
127.33625
 30
0.0
 11
323.45175
 21
125.59625
 31
0.0
  0
LINE
  8
1
  6
CONTINUOUS
 62
     4
  5
2C9
 10
320.63175
 20
126.87625
 30
0.0
 11
323.11175
 21
125.13625
 31
0.0
  0
LINE
  8
1
  6
CONTINUOUS
 62
     4
  5
2CA
 10
320.29175
 20
126.35625
 30
0.0
 11
322.77175
 21
124.61625
 31
0.0
  0
LINE
  8
1
  6
CONTINUOUS
 62
     4
  5
2CB
 10
317.89175
 20
125.93625
 30
0.0
 11
319.63175
 21
128.41625
 31
0.0
  0
LINE
  8
1
  6
CONTINUOUS
 62
     4
  5
2CC
 10
323.61175
 20
125.77625
 30
0.0
 11
325.35175
 21
128.25625
 31
0.0
  0
LINE
  8
1
  6
CONTINUOUS
 62
     4
  5
2CD
 10
324.07175
 20
125.89625
 30
0.0
 11
325.79175
 21
128.37625
 31
0.0
  0
LINE
  8
1
  6
CONTINUOUS
 62
     4
  5
2CE
 10
324.41175
 20
125.73625
 30
0.0
 11
326.13175
 21
128.21625
 31
0.0
  0
LINE
  8
1
  6
CONTINUOUS
 62
     4
  5
2CF
 10
324.89175
 20
125.77625
 30
0.0
 11
326.63175
 21
128.25625
 31
0.0
  0
LINE
  8
1
  6
CONTINUOUS
 62
     4
  5
2D0
 10
326.53175
 20
128.09625
 30
0.0
 11
329.01175
 21
126.35625
 31
0.0
  0
LINE
  8
1
  6
CONTINUOUS
 62
     4
  5
2D1
 10
326.19175
 20
127.51625
 30
0.0
 11
328.67175
 21
125.79625
 31
0.0
  0
LINE
  8
1
  6
CONTINUOUS
 62
     4
  5
2D2
 10
325.85175
 20
127.03625
 30
0.0
 11
328.33175
 21
125.29625
 31
0.0
  0
LINE
  8
1
  6
CONTINUOUS
 62
     4
  5
2D3
 10
325.51175
 20
126.57625
 30
0.0
 11
327.99175
 21
124.83625
 31
0.0
  0
LINE
  8
1
  6
CONTINUOUS
 62
     4
  5
2D4
 10
328.53175
 20
125.73625
 30
0.0
 11
330.25175
 21
128.21625
 31
0.0
  0
LINE
  8
1
  6
CONTINUOUS
 62
     4
  5
2D5
 10
329.01175
 20
125.67625
 30
0.0
 11
330.75175
 21
128.15625
 31
0.0
  0
LINE
  8
1
  6
CONTINUOUS
 62
     4
  5
2D6
 10
329.65175
 20
125.71625
 30
0.0
 11
331.39175
 21
128.17625
 31
0.0
  0
LINE
  8
1
  6
CONTINUOUS
 62
     4
  5
2D7
 10
330.33175
 20
125.85625
 30
0.0
 11
332.07175
 21
128.33625
 31
0.0
  0
ARC
  8
1
  6
CONTINUOUS
 62
     4
  5
2D8
 10
334.45223
 20
125.211714
 30
0.0
 40
3.024
 50
90.0
 51
180.0
210
0.0
220
0.0
230
1.0
  0
LINE
  8
1
  6
CONTINUOUS
 62
     4
  5
2D9
 10
328.99175
 20
125.59625
 30
0.0
 11
331.47175
 21
123.85625
 31
0.0
  0
LINE
  8
1
  6
CONTINUOUS
 62
     4
  5
2DA
 10
328.99175
 20
125.13625
 30
0.0
 11
331.47175
 21
123.39625
 31
0.0
  0
LINE
  8
1
  6
CONTINUOUS
 62
     4
  5
2DB
 10
328.91175
 20
124.45625
 30
0.0
 11
331.39175
 21
122.71625
 31
0.0
  0
LINE
  8
1
  6
CONTINUOUS
 62
     4
  5
2DC
 10
328.83175
 20
123.77625
 30
0.0
 11
331.31175
 21
122.03625
 31
0.0
  0
LINE
  8
1
  6
CONTINUOUS
 62
     4
  5
2DD
 10
329.51175
 20
119.51625
 30
0.0
 11
331.25175
 21
121.97625
 31
0.0
  0
LINE
  8
1
  6
CONTINUOUS
 62
     4
  5
2DE
 10
328.91175
 20
119.95625
 30
0.0
 11
330.63175
 21
122.43625
 31
0.0
  0
LINE
  8
1
  6
CONTINUOUS
 62
     4
  5
2DF
 10
328.25175
 20
120.41625
 30
0.0
 11
329.99175
 21
122.89625
 31
0.0
  0
LINE
  8
1
  6
CONTINUOUS
 62
     4
  5
2E0
 10
327.61175
 20
120.91625
 30
0.0
 11
329.35175
 21
123.37625
 31
0.0
  0
LINE
  8
1
  6
CONTINUOUS
 62
     4
  5
2E1
 10
328.83175
 20
120.19625
 30
0.0
 11
331.31175
 21
118.45625
 31
0.0
  0
LINE
  8
1
  6
CONTINUOUS
 62
     4
  5
2E2
 10
328.83175
 20
119.51625
 30
0.0
 11
331.31175
 21
117.77625
 31
0.0
  0
LINE
  8
1
  6
CONTINUOUS
 62
     4
  5
2E3
 10
328.83175
 20
118.89625
 30
0.0
 11
331.31175
 21
117.17625
 31
0.0
  0
LINE
  8
1
  6
CONTINUOUS
 62
     4
  5
2E4
 10
328.91175
 20
118.13625
 30
0.0
 11
331.39175
 21
116.41625
 31
0.0
  0
LINE
  8
1
  6
CONTINUOUS
 62
     4
  5
2E5
 10
329.59175
 20
113.79625
 30
0.0
 11
331.31175
 21
116.27625
 31
0.0
  0
LINE
  8
1
  6
CONTINUOUS
 62
     4
  5
2E6
 10
328.97175
 20
114.29625
 30
0.0
 11
330.71175
 21
116.77625
 31
0.0
  0
LINE
  8
1
  6
CONTINUOUS
 62
     4
  5
2E7
 10
328.29175
 20
114.85625
 30
0.0
 11
330.03175
 21
117.33625
 31
0.0
  0
LINE
  8
1
  6
CONTINUOUS
 62
     4
  5
2E8
 10
327.55175
 20
115.41625
 30
0.0
 11
329.27175
 21
117.89625
 31
0.0
  0
LINE
  8
1
  6
CONTINUOUS
 62
     4
  5
2E9
 10
329.03175
 20
114.05625
 30
0.0
 11
331.51175
 21
112.33625
 31
0.0
  0
LINE
  8
1
  6
CONTINUOUS
 62
     4
  5
2EA
 10
329.03175
 20
113.29625
 30
0.0
 11
331.51175
 21
111.57625
 31
0.0
  0
LINE
  8
1
  6
CONTINUOUS
 62
     4
  5
2EB
 10
329.03175
 20
112.61625
 30
0.0
 11
331.51175
 21
110.89625
 31
0.0
  0
LINE
  8
1
  6
CONTINUOUS
 62
     4
  5
2EC
 10
329.03175
 20
111.83625
 30
0.0
 11
331.51175
 21
110.09625
 31
0.0
  0
LINE
  8
1
  6
CONTINUOUS
 62
     4
  5
2ED
 10
329.51175
 20
107.59625
 30
0.0
 11
331.25175
 21
110.07625
 31
0.0
  0
LINE
  8
1
  6
CONTINUOUS
 62
     4
  5
2EE
 10
328.83175
 20
108.19625
 30
0.0
 11
330.57175
 21
110.67625
 31
0.0
  0
LINE
  8
1
  6
CONTINUOUS
 62
     4
  5
2EF
 10
328.15175
 20
108.95625
 30
0.0
 11
329.89175
 21
111.43625
 31
0.0
  0
LINE
  8
1
  6
CONTINUOUS
 62
     4
  5
2F0
 10
328.73175
 20
108.35625
 30
0.0
 11
331.19175
 21
106.61625
 31
0.0
  0
LINE
  8
1
  6
CONTINUOUS
 62
     4
  5
2F1
 10
328.73175
 20
107.37625
 30
0.0
 11
331.19175
 21
105.63625
 31
0.0
  0
LINE
  8
1
  6
CONTINUOUS
 62
     4
  5
2F2
 10
328.65175
 20
106.61625
 30
0.0
 11
331.13175
 21
104.87625
 31
0.0
  0
LINE
  8
1
  6
CONTINUOUS
 62
     4
  5
2F3
 10
328.43175
 20
106.15625
 30
0.0
 11
330.89175
 21
104.41625
 31
0.0
  0
LINE
  8
1
  6
CONTINUOUS
 62
     4
  5
2F4
 10
327.47175
 20
99.95625
 30
0.0
 11
329.19175
 21
102.43625
 31
0.0
  0
LINE
  8
1
  6
CONTINUOUS
 62
     4
  5
2F5
 10
328.29175
 20
100.03625
 30
0.0
 11
330.03175
 21
102.51625
 31
0.0
  0
LINE
  8
1
  6
CONTINUOUS
 62
     4
  5
2F6
 10
329.27175
 20
100.03625
 30
0.0
 11
331.01175
 21
102.51625
 31
0.0
  0
LINE
  8
1
  6
CONTINUOUS
 62
     4
  5
2F7
 10
328.87175
 20
100.17625
 30
0.0
 11
331.35175
 21
98.45625
 31
0.0
  0
LINE
  8
1
  6
CONTINUOUS
 62
     4
  5
2F8
 10
328.87175
 20
99.19625
 30
0.0
 11
331.35175
 21
97.47625
 31
0.0
  0
LINE
  8
1
  6
CONTINUOUS
 62
     4
  5
2F9
 10
328.79175
 20
98.21625
 30
0.0
 11
331.27175
 21
96.47625
 31
0.0
  0
LINE
  8
1
  6
CONTINUOUS
 62
     4
  5
2FA
 10
329.51175
 20
93.83625
 30
0.0
 11
331.25175
 21
96.31625
 31
0.0
  0
LINE
  8
1
  6
CONTINUOUS
 62
     4
  5
2FB
 10
328.83175
 20
94.35625
 30
0.0
 11
330.57175
 21
96.83625
 31
0.0
  0
LINE
  8
1
  6
CONTINUOUS
 62
     4
  5
2FC
 10
328.23175
 20
94.97625
 30
0.0
 11
329.95175
 21
97.43625
 31
0.0
  0
LINE
  8
1
  6
CONTINUOUS
 62
     4
  5
2FD
 10
327.47175
 20
95.57625
 30
0.0
 11
329.19175
 21
98.05625
 31
0.0
  0
LINE
  8
1
  6
CONTINUOUS
 62
     4
  5
2FE
 10
328.87175
 20
94.59625
 30
0.0
 11
331.35175
 21
92.85625
 31
0.0
  0
LINE
  8
1
  6
CONTINUOUS
 62
     4
  5
2FF
 10
328.95175
 20
93.59625
 30
0.0
 11
331.43175
 21
91.87625
 31
0.0
  0
LINE
  8
1
  6
CONTINUOUS
 62
     4
  5
300
 10
328.73175
 20
92.23625
 30
0.0
 11
331.19175
 21
90.51625
 31
0.0
  0
LINE
  8
1
  6
CONTINUOUS
 62
     4
  5
301
 10
328.57175
 20
91.03625
 30
0.0
 11
331.05175
 21
89.29625
 31
0.0
  0
LINE
  8
1
  6
CONTINUOUS
 62
     4
  5
302
 10
329.35175
 20
86.95625
 30
0.0
 11
331.09175
 21
89.43625
 31
0.0
  0
LINE
  8
1
  6
CONTINUOUS
 62
     4
  5
303
 10
328.53175
 20
87.33625
 30
0.0
 11
330.25175
 21
89.81625
 31
0.0
  0
LINE
  8
1
  6
CONTINUOUS
 62
     4
  5
304
 10
327.85175
 20
87.71625
 30
0.0
 11
329.57175
 21
90.17625
 31
0.0
  0
LINE
  8
1
  6
CONTINUOUS
 62
     4
  5
305
 10
327.23175
 20
88.31625
 30
0.0
 11
328.97175
 21
90.79625
 31
0.0
  0
LINE
  8
1
  6
CONTINUOUS
 62
     4
  5
306
 10
328.73175
 20
87.25625
 30
0.0
 11
331.19175
 21
85.51625
 31
0.0
  0
LINE
  8
1
  6
CONTINUOUS
 62
     4
  5
307
 10
328.87175
 20
86.27625
 30
0.0
 11
331.35175
 21
84.53625
 31
0.0
  0
LINE
  8
1
  6
CONTINUOUS
 62
     4
  5
308
 10
329.03175
 20
85.65625
 30
0.0
 11
331.51175
 21
83.93625
 31
0.0
  0
LINE
  8
1
  6
CONTINUOUS
 62
     4
  5
309
 10
329.11175
 20
84.83625
 30
0.0
 11
331.57175
 21
83.09625
 31
0.0
  0
LINE
  8
1
  6
CONTINUOUS
 62
     4
  5
30A
 10
327.39175
 20
81.95625
 30
0.0
 11
329.13175
 21
84.43625
 31
0.0
  0
LINE
  8
1
  6
CONTINUOUS
 62
     4
  5
30B
 10
327.99175
 20
81.65625
 30
0.0
 11
329.73175
 21
84.13625
 31
0.0
  0
LINE
  8
1
  6
CONTINUOUS
 62
     4
  5
30C
 10
328.75175
 20
81.19625
 30
0.0
 11
330.49175
 21
83.67625
 31
0.0
  0
LINE
  8
1
  6
CONTINUOUS
 62
     4
  5
30D
 10
329.59175
 20
80.83625
 30
0.0
 11
331.31175
 21
83.29625
 31
0.0
  0
LINE
  8
1
  6
CONTINUOUS
 62
     4
  5
30E
 10
328.65175
 20
81.27625
 30
0.0
 11
331.13175
 21
79.53625
 31
0.0
  0
LINE
  8
1
  6
CONTINUOUS
 62
     4
  5
30F
 10
328.65175
 20
80.37625
 30
0.0
 11
331.13175
 21
78.63625
 31
0.0
  0
LINE
  8
1
  6
CONTINUOUS
 62
     4
  5
310
 10
328.79175
 20
79.61625
 30
0.0
 11
331.27175
 21
77.87625
 31
0.0
  0
LINE
  8
1
  6
CONTINUOUS
 62
     4
  5
311
 10
328.87175
 20
78.63625
 30
0.0
 11
331.35175
 21
76.89625
 31
0.0
  0
LINE
  8
1
  6
CONTINUOUS
 62
     4
  5
312
 10
327.23175
 20
75.91625
 30
0.0
 11
328.97175
 21
78.39625
 31
0.0
  0
LINE
  8
1
  6
CONTINUOUS
 62
     4
  5
313
 10
327.91175
 20
75.67625
 30
0.0
 11
329.65175
 21
78.15625
 31
0.0
  0
LINE
  8
1
  6
CONTINUOUS
 62
     4
  5
314
 10
328.45175
 20
74.99625
 30
0.0
 11
330.19175
 21
77.47625
 31
0.0
  0
LINE
  8
1
  6
CONTINUOUS
 62
     4
  5
315
 10
329.51175
 20
74.47625
 30
0.0
 11
331.25175
 21
76.95625
 31
0.0
  0
LINE
  8
1
  6
CONTINUOUS
 62
     4
  5
316
 10
328.87175
 20
74.69625
 30
0.0
 11
331.35175
 21
72.97625
 31
0.0
  0
LINE
  8
1
  6
CONTINUOUS
 62
     4
  5
317
 10
328.79175
 20
73.93625
 30
0.0
 11
331.27175
 21
72.21625
 31
0.0
  0
LINE
  8
1
  6
CONTINUOUS
 62
     4
  5
318
 10
328.87175
 20
73.11625
 30
0.0
 11
331.35175
 21
71.37625
 31
0.0
  0
LINE
  8
1
  6
CONTINUOUS
 62
     4
  5
319
 10
328.87175
 20
72.35625
 30
0.0
 11
331.35175
 21
70.61625
 31
0.0
  0
LINE
  8
1
  6
CONTINUOUS
 62
     4
  5
31A
 10
327.23175
 20
69.93625
 30
0.0
 11
328.97175
 21
72.41625
 31
0.0
  0
LINE
  8
1
  6
CONTINUOUS
 62
     4
  5
31B
 10
327.77175
 20
69.55625
 30
0.0
 11
329.51175
 21
72.03625
 31
0.0
  0
LINE
  8
1
  6
CONTINUOUS
 62
     4
  5
31C
 10
328.23175
 20
69.09625
 30
0.0
 11
329.95175
 21
71.57625
 31
0.0
  0
LINE
  8
1
  6
CONTINUOUS
 62
     4
  5
31D
 10
328.75175
 20
68.73625
 30
0.0
 11
330.49175
 21
71.19625
 31
0.0
  0
LINE
  8
1
  6
CONTINUOUS
 62
     4
  5
31E
 10
329.43175
 20
68.11625
 30
0.0
 11
331.17175
 21
70.59625
 31
0.0
  0
LINE
  8
1
  6
CONTINUOUS
 62
     4
  5
31F
 10
328.95175
 20
68.49625
 30
0.0
 11
331.43175
 21
66.75625
 31
0.0
  0
LINE
  8
1
  6
CONTINUOUS
 62
     4
  5
320
 10
328.95175
 20
67.81625
 30
0.0
 11
331.43175
 21
66.07625
 31
0.0
  0
LINE
  8
1
  6
CONTINUOUS
 62
     4
  5
321
 10
328.95175
 20
66.91625
 30
0.0
 11
331.43175
 21
65.17625
 31
0.0
  0
LINE
  8
1
  6
CONTINUOUS
 62
     4
  5
322
 10
328.73175
 20
65.99625
 30
0.0
 11
331.19175
 21
64.27625
 31
0.0
  0
LINE
  8
1
  6
CONTINUOUS
 62
     4
  5
323
 10
327.31175
 20
63.43625
 30
0.0
 11
329.05175
 21
65.91625
 31
0.0
  0
LINE
  8
1
  6
CONTINUOUS
 62
     4
  5
324
 10
327.91175
 20
63.05625
 30
0.0
 11
329.65175
 21
65.53625
 31
0.0
  0
LINE
  8
1
  6
CONTINUOUS
 62
     4
  5
325
 10
328.59175
 20
62.67625
 30
0.0
 11
330.33175
 21
65.15625
 31
0.0
  0
LINE
  8
1
  6
CONTINUOUS
 62
     4
  5
326
 10
329.27175
 20
61.91625
 30
0.0
 11
331.01175
 21
64.39625
 31
0.0
  0
LINE
  8
1
  6
CONTINUOUS
 62
     4
  5
327
 10
328.65175
 20
62.37625
 30
0.0
 11
331.13175
 21
60.63625
 31
0.0
  0
LINE
  8
1
  6
CONTINUOUS
 62
     4
  5
328
 10
328.73175
 20
61.61625
 30
0.0
 11
331.19175
 21
59.87625
 31
0.0
  0
LINE
  8
1
  6
CONTINUOUS
 62
     4
  5
329
 10
328.65175
 20
60.63625
 30
0.0
 11
331.13175
 21
58.89625
 31
0.0
  0
LINE
  8
1
  6
CONTINUOUS
 62
     4
  5
32A
 10
328.73175
 20
59.95625
 30
0.0
 11
331.19175
 21
58.21625
 31
0.0
  0
LINE
  8
1
  6
CONTINUOUS
 62
     4
  5
32B
 10
327.23175
 20
57.15625
 30
0.0
 11
328.97175
 21
59.63625
 31
0.0
  0
LINE
  8
1
  6
CONTINUOUS
 62
     4
  5
32C
 10
328.07175
 20
56.77625
 30
0.0
 11
329.81175
 21
59.25625
 31
0.0
  0
LINE
  8
1
  6
CONTINUOUS
 62
     4
  5
32D
 10
328.75175
 20
56.17625
 30
0.0
 11
330.49175
 21
58.65625
 31
0.0
  0
LINE
  8
1
  6
CONTINUOUS
 62
     4
  5
32E
 10
329.59175
 20
55.71625
 30
0.0
 11
331.31175
 21
58.19625
 31
0.0
  0
LINE
  8
1
  6
CONTINUOUS
 62
     4
  5
32F
 10
328.79175
 20
56.31625
 30
0.0
 11
331.27175
 21
54.59625
 31
0.0
  0
LINE
  8
1
  6
CONTINUOUS
 62
     4
  5
330
 10
328.65175
 20
55.71625
 30
0.0
 11
331.13175
 21
53.97625
 31
0.0
  0
LINE
  8
1
  6
CONTINUOUS
 62
     4
  5
331
 10
328.35175
 20
55.03625
 30
0.0
 11
330.83175
 21
53.29625
 31
0.0
  0
LINE
  8
1
  6
CONTINUOUS
 62
     4
  5
332
 10
328.11175
 20
54.35625
 30
0.0
 11
330.59175
 21
52.61625
 31
0.0
  0
LINE
  8
1
  6
CONTINUOUS
 62
     4
  5
333
 10
330.03175
 20
52.01625
 30
0.0
 11
331.77175
 21
54.49625
 31
0.0
  0
LINE
  8
1
  6
CONTINUOUS
 62
     4
  5
334
 10
330.95175
 20
52.01625
 30
0.0
 11
332.67175
 21
54.49625
 31
0.0
  0
LINE
  8
1
  6
CONTINUOUS
 62
     4
  5
335
 10
331.93175
 20
52.09625
 30
0.0
 11
333.67175
 21
54.57625
 31
0.0
  0
LINE
  8
1
  6
CONTINUOUS
 62
     4
  5
336
 10
332.75175
 20
52.09625
 30
0.0
 11
334.49175
 21
54.57625
 31
0.0
  0
LINE
  8
1
  6
CONTINUOUS
 62
     4
  5
337
 10
334.55175
 20
54.65625
 30
0.0
 11
337.03175
 21
52.93625
 31
0.0
  0
LINE
  8
1
  6
CONTINUOUS
 62
     4
  5
338
 10
334.17175
 20
54.21625
 30
0.0
 11
336.65175
 21
52.47625
 31
0.0
  0
LINE
  8
1
  6
CONTINUOUS
 62
     4
  5
339
 10
333.71175
 20
53.45625
 30
0.0
 11
336.19175
 21
51.71625
 31
0.0
  0
LINE
  8
1
  6
CONTINUOUS
 62
     4
  5
33A
 10
333.27175
 20
52.77625
 30
0.0
 11
335.73175
 21
51.03625
 31
0.0
  0
LINE
  8
1
  6
CONTINUOUS
 62
     4
  5
33B
 10
336.61175
 20
52.31625
 30
0.0
 11
338.35175
 21
54.79625
 31
0.0
  0
LINE
  8
1
  6
CONTINUOUS
 62
     4
  5
33C
 10
337.45175
 20
52.39625
 30
0.0
 11
339.19175
 21
54.87625
 31
0.0
  0
LINE
  8
1
  6
CONTINUOUS
 62
     4
  5
33D
 10
338.27175
 20
52.31625
 30
0.0
 11
340.01175
 21
54.79625
 31
0.0
  0
LINE
  8
1
  6
CONTINUOUS
 62
     4
  5
33E
 10
339.03175
 20
52.17625
 30
0.0
 11
340.77175
 21
54.63625
 31
0.0
  0
LINE
  8
1
  6
CONTINUOUS
 62
     4
  5
33F
 10
340.75175
 20
54.57625
 30
0.0
 11
343.23175
 21
52.85625
 31
0.0
  0
LINE
  8
1
  6
CONTINUOUS
 62
     4
  5
340
 10
340.37175
 20
54.05625
 30
0.0
 11
342.85175
 21
52.31625
 31
0.0
  0
LINE
  8
1
  6
CONTINUOUS
 62
     4
  5
341
 10
339.91175
 20
53.59625
 30
0.0
 11
342.39175
 21
51.87625
 31
0.0
  0
LINE
  8
1
  6
CONTINUOUS
 62
     4
  5
342
 10
339.61175
 20
53.07625
 30
0.0
 11
342.09175
 21
51.33625
 31
0.0
  0
LINE
  8
1
  6
CONTINUOUS
 62
     4
  5
343
 10
342.67175
 20
52.31625
 30
0.0
 11
344.39175
 21
54.79625
 31
0.0
  0
LINE
  8
1
  6
CONTINUOUS
 62
     4
  5
344
 10
343.27175
 20
52.17625
 30
0.0
 11
345.01175
 21
54.63625
 31
0.0
  0
LINE
  8
1
  6
CONTINUOUS
 62
     4
  5
345
 10
344.11175
 20
52.17625
 30
0.0
 11
345.83175
 21
54.63625
 31
0.0
  0
LINE
  8
1
  6
CONTINUOUS
 62
     4
  5
346
 10
347.17175
 20
53.15625
 30
0.0
 11
349.65175
 21
51.41625
 31
0.0
  0
LINE
  8
1
  6
CONTINUOUS
 62
     4
  5
347
 10
347.17175
 20
53.89625
 30
0.0
 11
349.65175
 21
52.17625
 31
0.0
  0
LINE
  8
1
  6
CONTINUOUS
 62
     4
  5
348
 10
347.77175
 20
54.73625
 30
0.0
 11
350.25175
 21
52.99625
 31
0.0
  0
LINE
  8
1
  6
CONTINUOUS
 62
     4
  5
349
 10
349.69175
 20
52.17625
 30
0.0
 11
351.43175
 21
54.63625
 31
0.0
  0
LINE
  8
1
  6
CONTINUOUS
 62
     4
  5
34A
 10
350.69175
 20
52.39625
 30
0.0
 11
352.41175
 21
54.87625
 31
0.0
  0
LINE
  8
1
  6
CONTINUOUS
 62
     4
  5
34B
 10
351.59175
 20
52.17625
 30
0.0
 11
353.33175
 21
54.63625
 31
0.0
  0
LINE
  8
1
  6
CONTINUOUS
 62
     4
  5
34C
 10
353.37175
 20
54.65625
 30
0.0
 11
355.85175
 21
52.93625
 31
0.0
  0
LINE
  8
1
  6
CONTINUOUS
 62
     4
  5
34D
 10
352.85175
 20
53.89625
 30
0.0
 11
355.33175
 21
52.17625
 31
0.0
  0
LINE
  8
1
  6
CONTINUOUS
 62
     4
  5
34E
 10
352.47175
 20
53.45625
 30
0.0
 11
354.95175
 21
51.71625
 31
0.0
  0
LINE
  8
1
  6
CONTINUOUS
 62
     4
  5
34F
 10
351.93175
 20
52.61625
 30
0.0
 11
354.41175
 21
50.87625
 31
0.0
  0
LINE
  8
1
  6
CONTINUOUS
 62
     4
  5
350
 10
355.37175
 20
52.23625
 30
0.0
 11
357.11175
 21
54.71625
 31
0.0
  0
LINE
  8
1
  6
CONTINUOUS
 62
     4
  5
351
 10
356.21175
 20
52.31625
 30
0.0
 11
357.93175
 21
54.79625
 31
0.0
  0
LINE
  8
1
  6
CONTINUOUS
 62
     4
  5
352
 10
357.11175
 20
52.17625
 30
0.0
 11
358.85175
 21
54.63625
 31
0.0
  0
LINE
  8
1
  6
CONTINUOUS
 62
     4
  5
353
 10
358.17175
 20
52.23625
 30
0.0
 11
359.91175
 21
54.71625
 31
0.0
  0
LINE
  8
1
  6
CONTINUOUS
 62
     4
  5
354
 10
360.03175
 20
54.65625
 30
0.0
 11
362.51175
 21
52.93625
 31
0.0
  0
LINE
  8
1
  6
CONTINUOUS
 62
     4
  5
355
 10
359.51175
 20
54.13625
 30
0.0
 11
361.97175
 21
52.39625
 31
0.0
  0
LINE
  8
1
  6
CONTINUOUS
 62
     4
  5
356
 10
359.05175
 20
53.45625
 30
0.0
 11
361.53175
 21
51.71625
 31
0.0
  0
LINE
  8
1
  6
CONTINUOUS
 62
     4
  5
357
 10
358.59175
 20
52.85625
 30
0.0
 11
361.07175
 21
51.11625
 31
0.0
  0
LINE
  8
1
  6
CONTINUOUS
 62
     4
  5
358
 10
361.73175
 20
52.31625
 30
0.0
 11
363.45175
 21
54.79625
 31
0.0
  0
LINE
  8
1
  6
CONTINUOUS
 62
     4
  5
359
 10
362.25175
 20
52.09625
 30
0.0
 11
363.99175
 21
54.57625
 31
0.0
  0
LINE
  8
1
  6
CONTINUOUS
 62
     4
  5
35A
 10
363.31175
 20
52.31625
 30
0.0
 11
365.05175
 21
54.79625
 31
0.0
  0
LINE
  8
1
  6
CONTINUOUS
 62
     4
  5
35B
 10
363.91175
 20
52.09625
 30
0.0
 11
365.65175
 21
54.57625
 31
0.0
  0
LINE
  8
1
  6
CONTINUOUS
 62
     4
  5
35C
 10
365.63175
 20
54.73625
 30
0.0
 11
368.11175
 21
52.99625
 31
0.0
  0
LINE
  8
1
  6
CONTINUOUS
 62
     4
  5
35D
 10
365.17175
 20
53.97625
 30
0.0
 11
367.65175
 21
52.25625
 31
0.0
  0
LINE
  8
1
  6
CONTINUOUS
 62
     4
  5
35E
 10
364.79175
 20
53.15625
 30
0.0
 11
367.27175
 21
51.41625
 31
0.0
  0
LINE
  8
1
  6
CONTINUOUS
 62
     4
  5
35F
 10
364.19175
 20
52.39625
 30
0.0
 11
366.67175
 21
50.65625
 31
0.0
  0
LINE
  8
1
  6
CONTINUOUS
 62
     4
  5
360
 10
367.25175
 20
52.23625
 30
0.0
 11
368.97175
 21
54.71625
 31
0.0
  0
LINE
  8
1
  6
CONTINUOUS
 62
     4
  5
361
 10
367.99175
 20
52.09625
 30
0.0
 11
369.73175
 21
54.57625
 31
0.0
  0
LINE
  8
1
  6
CONTINUOUS
 62
     4
  5
362
 10
368.45175
 20
51.71625
 30
0.0
 11
370.19175
 21
54.19625
 31
0.0
  0
LINE
  8
1
  6
CONTINUOUS
 62
     4
  5
363
 10
369.11175
 20
55.33625
 30
0.0
 11
371.59175
 21
53.61625
 31
0.0
  0
LINE
  8
1
  6
CONTINUOUS
 62
     4
  5
364
 10
369.11175
 20
56.55625
 30
0.0
 11
371.59175
 21
54.81625
 31
0.0
  0
LINE
  8
1
  6
CONTINUOUS
 62
     4
  5
365
 10
369.17175
 20
57.61625
 30
0.0
 11
371.65175
 21
55.87625
 31
0.0
  0
LINE
  8
1
  6
CONTINUOUS
 62
     4
  5
366
 10
368.91175
 20
57.83625
 30
0.0
 11
370.63175
 21
60.31625
 31
0.0
  0
LINE
  8
1
  6
CONTINUOUS
 62
     4
  5
367
 10
369.21175
 20
57.37625
 30
0.0
 11
370.95175
 21
59.85625
 31
0.0
  0
LINE
  8
1
  6
CONTINUOUS
 62
     4
  5
368
 10
369.89175
 20
57.23625
 30
0.0
 11
371.63175
 21
59.71625
 31
0.0
  0
LINE
  8
1
  6
CONTINUOUS
 62
     4
  5
369
 10
369.03175
 20
61.83625
 30
0.0
 11
371.51175
 21
60.11625
 31
0.0
  0
LINE
  8
1
  6
CONTINUOUS
 62
     4
  5
36A
 10
369.03175
 20
62.83625
 30
0.0
 11
371.51175
 21
61.09625
 31
0.0
  0
LINE
  8
1
  6
CONTINUOUS
 62
     4
  5
36B
 10
369.03175
 20
63.51625
 30
0.0
 11
371.51175
 21
61.77625
 31
0.0
  0
LINE
  8
1
  6
CONTINUOUS
 62
     4
  5
36C
 10
368.95175
 20
64.57625
 30
0.0
 11
371.43175
 21
62.83625
 31
0.0
  0
LINE
  8
1
  6
CONTINUOUS
 62
     4
  5
36D
 10
369.05175
 20
64.71625
 30
0.0
 11
370.79175
 21
67.19625
 31
0.0
  0
LINE
  8
1
  6
CONTINUOUS
 62
     4
  5
36E
 10
369.43175
 20
64.27625
 30
0.0
 11
371.17175
 21
66.73625
 31
0.0
  0
LINE
  8
1
  6
CONTINUOUS
 62
     4
  5
36F
 10
370.03175
 20
63.65625
 30
0.0
 11
371.77175
 21
66.13625
 31
0.0
  0
LINE
  8
1
  6
CONTINUOUS
 62
     4
  5
370
 10
370.79175
 20
62.97625
 30
0.0
 11
372.53175
 21
65.45625
 31
0.0
  0
LINE
  8
1
  6
CONTINUOUS
 62
     4
  5
371
 10
368.95175
 20
68.79625
 30
0.0
 11
371.43175
 21
67.07625
 31
0.0
  0
LINE
  8
1
  6
CONTINUOUS
 62
     4
  5
372
 10
369.11175
 20
69.55625
 30
0.0
 11
371.59175
 21
67.81625
 31
0.0
  0
LINE
  8
1
  6
CONTINUOUS
 62
     4
  5
373
 10
369.11175
 20
70.53625
 30
0.0
 11
371.59175
 21
68.81625
 31
0.0
  0
LINE
  8
1
  6
CONTINUOUS
 62
     4
  5
374
 10
369.03175
 20
71.67625
 30
0.0
 11
371.51175
 21
69.93625
 31
0.0
  0
LINE
  8
1
  6
CONTINUOUS
 62
     4
  5
375
 10
369.05175
 20
71.97625
 30
0.0
 11
370.79175
 21
74.45625
 31
0.0
  0
LINE
  8
1
  6
CONTINUOUS
 62
     4
  5
376
 10
369.59175
 20
71.59625
 30
0.0
 11
371.33175
 21
74.07625
 31
0.0
  0
LINE
  8
1
  6
CONTINUOUS
 62
     4
  5
377
 10
370.11175
 20
71.07625
 30
0.0
 11
371.85175
 21
73.55625
 31
0.0
  0
LINE
  8
1
  6
CONTINUOUS
 62
     4
  5
378
 10
370.87175
 20
70.31625
 30
0.0
 11
372.61175
 21
72.79625
 31
0.0
  0
LINE
  8
1
  6
CONTINUOUS
 62
     4
  5
379
 10
368.81175
 20
76.05625
 30
0.0
 11
371.27175
 21
74.33625
 31
0.0
  0
LINE
  8
1
  6
CONTINUOUS
 62
     4
  5
37A
 10
368.87175
 20
76.73625
 30
0.0
 11
371.35175
 21
75.01625
 31
0.0
  0
LINE
  8
1
  6
CONTINUOUS
 62
     4
  5
37B
 10
368.81175
 20
77.79625
 30
0.0
 11
371.27175
 21
76.07625
 31
0.0
  0
LINE
  8
1
  6
CONTINUOUS
 62
     4
  5
37C
 10
368.87175
 20
78.63625
 30
0.0
 11
371.35175
 21
76.89625
 31
0.0
  0
LINE
  8
1
  6
CONTINUOUS
 62
     4
  5
37D
 10
368.99175
 20
78.63625
 30
0.0
 11
370.71175
 21
81.11625
 31
0.0
  0
LINE
  8
1
  6
CONTINUOUS
 62
     4
  5
37E
 10
369.51175
 20
78.17625
 30
0.0
 11
371.25175
 21
80.65625
 31
0.0
  0
LINE
  8
1
  6
CONTINUOUS
 62
     4
  5
37F
 10
370.27175
 20
77.65625
 30
0.0
 11
372.01175
 21
80.13625
 31
0.0
  0
LINE
  8
1
  6
CONTINUOUS
 62
     4
  5
380
 10
371.03175
 20
77.05625
 30
0.0
 11
372.75175
 21
79.51625
 31
0.0
  0
LINE
  8
1
  6
CONTINUOUS
 62
     4
  5
381
 10
368.95175
 20
82.63625
 30
0.0
 11
371.43175
 21
80.91625
 31
0.0
  0
LINE
  8
1
  6
CONTINUOUS
 62
     4
  5
382
 10
369.03175
 20
83.55625
 30
0.0
 11
371.51175
 21
81.81625
 31
0.0
  0
LINE
  8
1
  6
CONTINUOUS
 62
     4
  5
383
 10
368.95175
 20
84.45625
 30
0.0
 11
371.43175
 21
82.71625
 31
0.0
  0
LINE
  8
1
  6
CONTINUOUS
 62
     4
  5
384
 10
368.95175
 20
85.13625
 30
0.0
 11
371.43175
 21
83.39625
 31
0.0
  0
LINE
  8
1
  6
CONTINUOUS
 62
     4
  5
385
 10
368.91175
 20
85.29625
 30
0.0
 11
370.63175
 21
87.75625
 31
0.0
  0
LINE
  8
1
  6
CONTINUOUS
 62
     4
  5
386
 10
369.51175
 20
84.91625
 30
0.0
 11
371.25175
 21
87.39625
 31
0.0
  0
LINE
  8
1
  6
CONTINUOUS
 62
     4
  5
387
 10
370.03175
 20
84.45625
 30
0.0
 11
371.77175
 21
86.93625
 31
0.0
  0
LINE
  8
1
  6
CONTINUOUS
 62
     4
  5
388
 10
370.73175
 20
83.85625
 30
0.0
 11
372.45175
 21
86.33625
 31
0.0
  0
LINE
  8
1
  6
CONTINUOUS
 62
     4
  5
389
 10
369.11175
 20
89.07625
 30
0.0
 11
371.59175
 21
87.33625
 31
0.0
  0
LINE
  8
1
  6
CONTINUOUS
 62
     4
  5
38A
 10
369.11175
 20
90.05625
 30
0.0
 11
371.59175
 21
88.31625
 31
0.0
  0
LINE
  8
1
  6
CONTINUOUS
 62
     4
  5
38B
 10
369.11175
 20
90.81625
 30
0.0
 11
371.59175
 21
89.07625
 31
0.0
  0
LINE
  8
1
  6
CONTINUOUS
 62
     4
  5
38C
 10
369.03175
 20
92.17625
 30
0.0
 11
371.51175
 21
90.43625
 31
0.0
  0
LINE
  8
1
  6
CONTINUOUS
 62
     4
  5
38D
 10
369.05175
 20
92.39625
 30
0.0
 11
370.79175
 21
94.87625
 31
0.0
  0
LINE
  8
1
  6
CONTINUOUS
 62
     4
  5
38E
 10
369.35175
 20
91.87625
 30
0.0
 11
371.09175
 21
94.33625
 31
0.0
  0
LINE
  8
1
  6
CONTINUOUS
 62
     4
  5
38F
 10
370.11175
 20
91.41625
 30
0.0
 11
371.85175
 21
93.89625
 31
0.0
  0
LINE
  8
1
  6
CONTINUOUS
 62
     4
  5
390
 10
370.87175
 20
90.73625
 30
0.0
 11
372.61175
 21
93.21625
 31
0.0
  0
LINE
  8
1
  6
CONTINUOUS
 62
     4
  5
391
 10
368.73175
 20
96.47625
 30
0.0
 11
371.21175
 21
94.73625
 31
0.0
  0
LINE
  8
1
  6
CONTINUOUS
 62
     4
  5
392
 10
369.03175
 20
97.07625
 30
0.0
 11
371.51175
 21
95.35625
 31
0.0
  0
LINE
  8
1
  6
CONTINUOUS
 62
     4
  5
393
 10
369.03175
 20
97.53625
 30
0.0
 11
371.51175
 21
95.79625
 31
0.0
  0
LINE
  8
1
  6
CONTINUOUS
 62
     4
  5
394
 10
368.81175
 20
98.43625
 30
0.0
 11
371.27175
 21
96.71625
 31
0.0
  0
LINE
  8
1
  6
CONTINUOUS
 62
     4
  5
395
 10
368.83175
 20
97.91625
 30
0.0
 11
370.57175
 21
100.39625
 31
0.0
  0
LINE
  8
1
  6
CONTINUOUS
 62
     4
  5
396
 10
369.43175
 20
97.61625
 30
0.0
 11
371.17175
 21
100.09625
 31
0.0
  0
LINE
  8
1
  6
CONTINUOUS
 62
     4
  5
397
 10
370.19175
 20
97.23625
 30
0.0
 11
371.93175
 21
99.71625
 31
0.0
  0
LINE
  8
1
  6
CONTINUOUS
 62
     4
  5
398
 10
371.03175
 20
97.01625
 30
0.0
 11
372.75175
 21
99.49625
 31
0.0
  0
LINE
  8
1
  6
CONTINUOUS
 62
     4
  5
399
 10
369.03175
 20
101.31625
 30
0.0
 11
371.51175
 21
99.57625
 31
0.0
  0
LINE
  8
1
  6
CONTINUOUS
 62
     4
  5
39A
 10
369.11175
 20
101.99625
 30
0.0
 11
371.59175
 21
100.25625
 31
0.0
  0
LINE
  8
1
  6
CONTINUOUS
 62
     4
  5
39B
 10
369.41175
 20
102.59625
 30
0.0
 11
371.89175
 21
100.87625
 31
0.0
  0
LINE
  8
1
  6
CONTINUOUS
 62
     4
  5
39C
 10
370.39175
 20
102.67625
 30
0.0
 11
372.87175
 21
100.93625
 31
0.0
  0
LINE
  8
1
  6
CONTINUOUS
 62
     4
  5
39D
 10
369.05175
 20
104.57625
 30
0.0
 11
370.79175
 21
107.05625
 31
0.0
  0
LINE
  8
1
  6
CONTINUOUS
 62
     4
  5
39E
 10
369.73175
 20
104.33625
 30
0.0
 11
371.47175
 21
106.81625
 31
0.0
  0
LINE
  8
1
  6
CONTINUOUS
 62
     4
  5
39F
 10
370.65175
 20
104.19625
 30
0.0
 11
372.37175
 21
106.67625
 31
0.0
  0
LINE
  8
1
  6
CONTINUOUS
 62
     4
  5
3A0
 10
371.41175
 20
104.27625
 30
0.0
 11
373.13175
 21
106.75625
 31
0.0
  0
LINE
  8
1
  6
CONTINUOUS
 62
     4
  5
3A1
 10
368.95175
 20
108.65625
 30
0.0
 11
371.43175
 21
106.91625
 31
0.0
  0
LINE
  8
1
  6
CONTINUOUS
 62
     4
  5
3A2
 10
368.95175
 20
109.41625
 30
0.0
 11
371.43175
 21
107.67625
 31
0.0
  0
LINE
  8
1
  6
CONTINUOUS
 62
     4
  5
3A3
 10
368.87175
 20
110.23625
 30
0.0
 11
371.35175
 21
108.51625
 31
0.0
  0
LINE
  8
1
  6
CONTINUOUS
 62
     4
  5
3A4
 10
368.65175
 20
111.15625
 30
0.0
 11
371.13175
 21
109.41625
 31
0.0
  0
LINE
  8
1
  6
CONTINUOUS
 62
     4
  5
3A5
 10
368.99175
 20
111.07625
 30
0.0
 11
370.71175
 21
113.55625
 31
0.0
  0
LINE
  8
1
  6
CONTINUOUS
 62
     4
  5
3A6
 10
369.67175
 20
110.85625
 30
0.0
 11
371.39175
 21
113.31625
 31
0.0
  0
LINE
  8
1
  6
CONTINUOUS
 62
     4
  5
3A7
 10
370.03175
 20
110.55625
 30
0.0
 11
371.77175
 21
113.01625
 31
0.0
  0
LINE
  8
1
  6
CONTINUOUS
 62
     4
  5
3A8
 10
370.79175
 20
109.79625
 30
0.0
 11
372.53175
 21
112.27625
 31
0.0
  0
LINE
  8
1
  6
CONTINUOUS
 62
     4
  5
3A9
 10
368.95175
 20
114.93625
 30
0.0
 11
371.43175
 21
113.19625
 31
0.0
  0
LINE
  8
1
  6
CONTINUOUS
 62
     4
  5
3AA
 10
368.95175
 20
115.91625
 30
0.0
 11
371.43175
 21
114.17625
 31
0.0
  0
LINE
  8
1
  6
CONTINUOUS
 62
     4
  5
3AB
 10
368.95175
 20
116.73625
 30
0.0
 11
371.43175
 21
115.01625
 31
0.0
  0
LINE
  8
1
  6
CONTINUOUS
 62
     4
  5
3AC
 10
368.81175
 20
117.73625
 30
0.0
 11
371.27175
 21
115.99625
 31
0.0
  0
LINE
  8
1
  6
CONTINUOUS
 62
     4
  5
3AD
 10
368.99175
 20
117.79625
 30
0.0
 11
370.71175
 21
120.27625
 31
0.0
  0
LINE
  8
1
  6
CONTINUOUS
 62
     4
  5
3AE
 10
369.51175
 20
117.35625
 30
0.0
 11
371.25175
 21
119.83625
 31
0.0
  0
LINE
  8
1
  6
CONTINUOUS
 62
     4
  5
3AF
 10
370.11175
 20
116.97625
 30
0.0
 11
371.85175
 21
119.45625
 31
0.0
  0
LINE
  8
1
  6
CONTINUOUS
 62
     4
  5
3B0
 10
370.79175
 20
116.51625
 30
0.0
 11
372.53175
 21
118.99625
 31
0.0
  0
LINE
  8
1
  6
CONTINUOUS
 62
     4
  5
3B1
 10
368.87175
 20
121.89625
 30
0.0
 11
371.35175
 21
120.15625
 31
0.0
  0
LINE
  8
1
  6
CONTINUOUS
 62
     4
  5
3B2
 10
368.95175
 20
123.17625
 30
0.0
 11
371.43175
 21
121.43625
 31
0.0
  0
LINE
  8
1
  6
CONTINUOUS
 62
     4
  5
3B3
 10
368.95175
 20
122.63625
 30
0.0
 11
371.43175
 21
120.91625
 31
0.0
  0
LINE
  8
1
  6
CONTINUOUS
 62
     4
  5
3B4
 10
369.03175
 20
123.85625
 30
0.0
 11
371.51175
 21
122.11625
 31
0.0
  0
LINE
  8
1
  6
CONTINUOUS
 62
     4
  5
3B5
 10
369.05175
 20
123.93625
 30
0.0
 11
370.79175
 21
126.41625
 31
0.0
  0
LINE
  8
1
  6
CONTINUOUS
 62
     4
  5
3B6
 10
369.67175
 20
123.47625
 30
0.0
 11
371.39175
 21
125.95625
 31
0.0
  0
LINE
  8
1
  6
CONTINUOUS
 62
     4
  5
3B7
 10
370.19175
 20
123.17625
 30
0.0
 11
371.93175
 21
125.65625
 31
0.0
  0
LINE
  8
1
  6
CONTINUOUS
 62
     4
  5
3B8
 10
371.09175
 20
122.57625
 30
0.0
 11
372.83175
 21
125.05625
 31
0.0
  0
LINE
  8
1
  6
CONTINUOUS
 62
     4
  5
3B9
 10
367.89175
 20
127.71625
 30
0.0
 11
370.37175
 21
125.97625
 31
0.0
  0
LINE
  8
1
  6
CONTINUOUS
 62
     4
  5
3BA
 10
368.57175
 20
128.15625
 30
0.0
 11
371.05175
 21
126.43625
 31
0.0
  0
LINE
  8
1
  6
CONTINUOUS
 62
     4
  5
3BB
 10
370.17175
 20
128.39625
 30
0.0
 11
372.65175
 21
126.65625
 31
0.0
  0
LINE
  8
1
  6
CONTINUOUS
 62
     4
  5
3BC
 10
372.23175
 20
126.05625
 30
0.0
 11
373.97175
 21
128.51625
 31
0.0
  0
LINE
  8
1
  6
CONTINUOUS
 62
     4
  5
3BD
 10
373.07175
 20
125.89625
 30
0.0
 11
374.79175
 21
128.37625
 31
0.0
  0
LINE
  8
1
  6
CONTINUOUS
 62
     4
  5
3BE
 10
373.97175
 20
125.81625
 30
0.0
 11
375.71175
 21
128.29625
 31
0.0
  0
LINE
  8
1
  6
CONTINUOUS
 62
     4
  5
3BF
 10
374.81175
 20
125.81625
 30
0.0
 11
376.53175
 21
128.29625
 31
0.0
  0
LINE
  8
1
  6
CONTINUOUS
 62
     4
  5
3C0
 10
376.51175
 20
128.31625
 30
0.0
 11
378.99175
 21
126.57625
 31
0.0
  0
LINE
  8
1
  6
CONTINUOUS
 62
     4
  5
3C1
 10
375.99175
 20
127.55625
 30
0.0
 11
378.47175
 21
125.81625
 31
0.0
  0
LINE
  8
1
  6
CONTINUOUS
 62
     4
  5
3C2
 10
375.69175
 20
127.09625
 30
0.0
 11
378.17175
 21
125.37625
 31
0.0
  0
LINE
  8
1
  6
CONTINUOUS
 62
     4
  5
3C3
 10
375.31175
 20
126.49625
 30
0.0
 11
377.79175
 21
124.77625
 31
0.0
  0
LINE
  8
1
  6
CONTINUOUS
 62
     4
  5
3C4
 10
378.35175
 20
125.89625
 30
0.0
 11
380.09175
 21
128.37625
 31
0.0
  0
LINE
  8
1
  6
CONTINUOUS
 62
     4
  5
3C5
 10
379.19175
 20
125.81625
 30
0.0
 11
380.93175
 21
128.29625
 31
0.0
  0
LINE
  8
1
  6
CONTINUOUS
 62
     4
  5
3C6
 10
379.87175
 20
125.81625
 30
0.0
 11
381.61175
 21
128.29625
 31
0.0
  0
LINE
  8
1
  6
CONTINUOUS
 62
     4
  5
3C7
 10
380.39175
 20
125.81625
 30
0.0
 11
382.13175
 21
128.29625
 31
0.0
  0
LINE
  8
1
  6
CONTINUOUS
 62
     4
  5
3C8
 10
382.03175
 20
128.39625
 30
0.0
 11
384.51175
 21
126.65625
 31
0.0
  0
LINE
  8
1
  6
CONTINUOUS
 62
     4
  5
3C9
 10
381.51175
 20
127.55625
 30
0.0
 11
383.99175
 21
125.81625
 31
0.0
  0
LINE
  8
1
  6
CONTINUOUS
 62
     4
  5
3CA
 10
381.05175
 20
126.79625
 30
0.0
 11
383.53175
 21
125.07625
 31
0.0
  0
LINE
  8
1
  6
CONTINUOUS
 62
     4
  5
3CB
 10
380.67175
 20
126.11625
 30
0.0
 11
383.15175
 21
124.39625
 31
0.0
  0
LINE
  8
1
  6
CONTINUOUS
 62
     4
  5
3CC
 10
318.83175
 20
103.09625
 30
0.0
 11
316.05175
 21
98.39625
 31
0.0
  0
LINE
  8
1
  6
CONTINUOUS
 62
     4
  5
3CD
 10
316.05175
 20
98.39625
 30
0.0
 11
311.49175
 21
98.39625
 31
0.0
  0
LINE
  8
1
  6
CONTINUOUS
 62
     4
  5
3CE
 10
328.45175
 20
102.49625
 30
0.0
 11
315.97175
 21
89.17625
 31
0.0
  0
LINE
  8
1
  6
CONTINUOUS
 62
     4
  5
3CF
 10
315.97175
 20
89.17625
 30
0.0
 11
306.57175
 21
89.17625
 31
0.0
  0
LINE
  8
1
  6
CONTINUOUS
 62
     4
  5
3D0
 10
319.37175
 20
83.73625
 30
0.0
 11
314.67175
 21
79.41625
 31
0.0
  0
LINE
  8
1
  6
CONTINUOUS
 62
     4
  5
3D1
 10
314.67175
 20
79.41625
 30
0.0
 11
294.15175
 21
79.41625
 31
0.0
  0
CIRCLE
  8
1
  6
CONTINUOUS
 62
     4
  5
3D2
 10
358.768046
 20
138.56091
 30
0.0
 40
0.079237
210
0.0
220
0.0
230
1.0
  0
POLYLINE
  8
1
  6
CONTINUOUS
 62
     4
  5
3D3
 66
     1
 10
0.0
 20
0.0
 30
0.0
  0
VERTEX
  8
1
  6
CONTINUOUS
 62
     4
  5
3D4
 10
358.75175
 20
138.59625
 30
0.0
  0
VERTEX
  8
1
  6
CONTINUOUS
 62
     4
  5
3D5
 10
358.75175
 20
138.57625
 30
0.0
  0
VERTEX
  8
1
  6
CONTINUOUS
 62
     4
  5
3D6
 10
358.75175
 20
138.55625
 30
0.0
  0
VERTEX
  8
1
  6
CONTINUOUS
 62
     4
  5
3D7
 10
358.77175
 20
138.53625
 30
0.0
  0
VERTEX
  8
1
  6
CONTINUOUS
 62
     4
  5
3D8
 10
358.79175
 20
138.53625
 30
0.0
  0
VERTEX
  8
1
  6
CONTINUOUS
 62
     4
  5
3D9
 10
358.81175
 20
138.53625
 30
0.0
  0
VERTEX
  8
1
  6
CONTINUOUS
 62
     4
  5
3DA
 10
358.79175
 20
138.57625
 30
0.0
  0
VERTEX
  8
1
  6
CONTINUOUS
 62
     4
  5
3DB
 10
358.77175
 20
138.57625
 30
0.0
  0
VERTEX
  8
1
  6
CONTINUOUS
 62
     4
  5
3DC
 10
358.73175
 20
138.57625
 30
0.0
  0
VERTEX
  8
1
  6
CONTINUOUS
 62
     4
  5
3DD
 10
358.73175
 20
138.53625
 30
0.0
  0
VERTEX
  8
1
  6
CONTINUOUS
 62
     4
  5
3DE
 10
358.77175
 20
138.59625
 30
0.0
  0
VERTEX
  8
1
  6
CONTINUOUS
 62
     4
  5
3DF
 10
358.77175
 20
138.57625
 30
0.0
  0
VERTEX
  8
1
  6
CONTINUOUS
 62
     4
  5
3E0
 10
358.77175
 20
138.53625
 30
0.0
  0
VERTEX
  8
1
  6
CONTINUOUS
 62
     4
  5
3E1
 10
358.75175
 20
138.51625
 30
0.0
  0
VERTEX
  8
1
  6
CONTINUOUS
 62
     4
  5
3E2
 10
358.75175
 20
138.57625
 30
0.0
  0
VERTEX
  8
1
  6
CONTINUOUS
 62
     4
  5
3E3
 10
358.77175
 20
138.57625
 30
0.0
  0
VERTEX
  8
1
  6
CONTINUOUS
 62
     4
  5
3E4
 10
358.81175
 20
138.57625
 30
0.0
  0
VERTEX
  8
1
  6
CONTINUOUS
 62
     4
  5
3E5
 10
358.77175
 20
138.59625
 30
0.0
  0
VERTEX
  8
1
  6
CONTINUOUS
 62
     4
  5
3E6
 10
358.73175
 20
138.57625
 30
0.0
  0
VERTEX
  8
1
  6
CONTINUOUS
 62
     4
  5
3E7
 10
358.77175
 20
138.51625
 30
0.0
  0
VERTEX
  8
1
  6
CONTINUOUS
 62
     4
  5
3E8
 10
358.77175
 20
138.59625
 30
0.0
  0
VERTEX
  8
1
  6
CONTINUOUS
 62
     4
  5
3E9
 10
358.77175
 20
138.57625
 30
0.0
  0
VERTEX
  8
1
  6
CONTINUOUS
 62
     4
  5
3EA
 10
358.75175
 20
138.57625
 30
0.0
  0
VERTEX
  8
1
  6
CONTINUOUS
 62
     4
  5
3EB
 10
358.75175
 20
138.61625
 30
0.0
  0
VERTEX
  8
1
  6
CONTINUOUS
 62
     4
  5
3EC
 10
358.77175
 20
138.57625
 30
0.0
  0
VERTEX
  8
1
  6
CONTINUOUS
 62
     4
  5
3ED
 10
358.75175
 20
138.57625
 30
0.0
  0
VERTEX
  8
1
  6
CONTINUOUS
 62
     4
  5
3EE
 10
358.73175
 20
138.57625
 30
0.0
  0
VERTEX
  8
1
  6
CONTINUOUS
 62
     4
  5
3EF
 10
358.77175
 20
138.55625
 30
0.0
  0
SEQEND
  8
1
  6
CONTINUOUS
 62
     4
  5
3F0
  0
LINE
  8
1
  6
CONTINUOUS
 62
     4
  5
3F1
 10
358.75175
 20
138.57625
 30
0.0
 11
362.47175
 21
140.39625
 31
0.0
  0
POLYLINE
  8
1
  6
CONTINUOUS
 62
     1
  5
3F2
 66
     1
 10
0.0
 20
0.0
 30
0.0
210
0.0
220
0.0
230
1.0
  0
VERTEX
  8
1
  6
CONTINUOUS
 62
     1
  5
3F3
 10
391.45626
 20
125.335799
 30
0.0
 42
-0.265147
  0
VERTEX
  8
1
  6
CONTINUOUS
 62
     1
  5
3F4
 10
391.408329
 20
125.369259
 30
0.0
 42
-0.064653
  0
VERTEX
  8
1
  6
CONTINUOUS
 62
     1
  5
3F5
 10
391.355853
 20
125.47606
 30
0.0
 42
-0.025822
  0
VERTEX
  8
1
  6
CONTINUOUS
 62
     1
  5
3F6
 10
391.301011
 20
125.65177
 30
0.0
 42
-0.014504
  0
VERTEX
  8
1
  6
CONTINUOUS
 62
     1
  5
3F7
 10
391.24608
 20
125.889092
 30
0.0
 42
-0.009896
  0
VERTEX
  8
1
  6
CONTINUOUS
 62
     1
  5
3F8
 10
391.19334
 20
126.178173
 30
0.0
 42
-0.007708
  0
VERTEX
  8
1
  6
CONTINUOUS
 62
     1
  5
3F9
 10
391.144981
 20
126.507013
 30
0.0
 42
-0.006655
  0
VERTEX
  8
1
  6
CONTINUOUS
 62
     1
  5
3FA
 10
391.103011
 20
126.861957
 30
0.0
 42
-0.006278
  0
VERTEX
  8
1
  6
CONTINUOUS
 62
     1
  5
3FB
 10
391.069172
 20
127.22827
 30
0.0
 42
-0.006439
  0
VERTEX
  8
1
  6
CONTINUOUS
 62
     1
  5
3FC
 10
391.044869
 20
127.590743
 30
0.0
 42
-0.007196
  0
VERTEX
  8
1
  6
CONTINUOUS
 62
     1
  5
3FD
 10
391.031111
 20
127.934327
 30
0.0
 42
-0.008852
  0
VERTEX
  8
1
  6
CONTINUOUS
 62
     1
  5
3FE
 10
391.028469
 20
128.244758
 30
0.0
 42
-0.008852
  0
SEQEND
  8
1
  6
CONTINUOUS
 62
     1
  5
3FF
  0
POLYLINE
  8
1
  6
CONTINUOUS
 62
     1
  5
400
 66
     1
 10
0.0
 20
0.0
 30
0.0
210
0.0
220
0.0
230
1.0
  0
VERTEX
  8
1
  6
CONTINUOUS
 62
     1
  5
401
 10
391.017074
 20
128.245048
 30
0.0
 42
-0.005019
  0
VERTEX
  8
1
  6
CONTINUOUS
 62
     1
  5
402
 10
391.003181
 20
127.968851
 30
0.0
 42
-0.004038
  0
VERTEX
  8
1
  6
CONTINUOUS
 62
     1
  5
403
 10
390.982245
 20
127.661678
 30
0.0
 42
-0.003548
  0
VERTEX
  8
1
  6
CONTINUOUS
 62
     1
  5
404
 10
390.955018
 20
127.33456
 30
0.0
 42
-0.003367
  0
VERTEX
  8
1
  6
CONTINUOUS
 62
     1
  5
405
 10
390.922478
 20
126.999243
 30
0.0
 42
-0.003436
  0
VERTEX
  8
1
  6
CONTINUOUS
 62
     1
  5
406
 10
390.885793
 20
126.667769
 30
0.0
 42
-0.003778
  0
VERTEX
  8
1
  6
CONTINUOUS
 62
     1
  5
407
 10
390.846281
 20
126.352041
 30
0.0
 42
-0.00451
  0
VERTEX
  8
1
  6
CONTINUOUS
 62
     1
  5
408
 10
390.80536
 20
126.063396
 30
0.0
 42
-0.00594
  0
VERTEX
  8
1
  6
CONTINUOUS
 62
     1
  5
409
 10
390.7645
 20
125.812199
 30
0.0
 42
-0.008921
  0
VERTEX
  8
1
  6
CONTINUOUS
 62
     1
  5
40A
 10
390.725169
 20
125.607471
 30
0.0
 42
-0.016392
  0
VERTEX
  8
1
  6
CONTINUOUS
 62
     1
  5
40B
 10
390.688778
 20
125.456564
 30
0.0
 42
-0.04458
  0
VERTEX
  8
1
  6
CONTINUOUS
 62
     1
  5
40C
 10
390.656634
 20
125.364896
 30
0.0
 42
-0.317392
  0
VERTEX
  8
1
  6
CONTINUOUS
 62
     1
  5
40D
 10
390.629892
 20
125.33576
 30
0.0
 42
-0.317392
  0
SEQEND
  8
1
  6
CONTINUOUS
 62
     1
  5
40E
  0
POLYLINE
  8
1
  6
CONTINUOUS
 62
     1
  5
40F
 66
     1
 10
0.0
 20
0.0
 30
0.0
210
0.0
220
0.0
230
1.0
  0
VERTEX
  8
1
  6
CONTINUOUS
 62
     1
  5
410
 10
390.58444
 20
57.336925
 30
0.0
 42
-0.265147
  0
VERTEX
  8
1
  6
CONTINUOUS
 62
     1
  5
411
 10
390.632371
 20
57.303465
 30
0.0
 42
-0.064653
  0
VERTEX
  8
1
  6
CONTINUOUS
 62
     1
  5
412
 10
390.684847
 20
57.196664
 30
0.0
 42
-0.025822
  0
VERTEX
  8
1
  6
CONTINUOUS
 62
     1
  5
413
 10
390.739689
 20
57.020954
 30
0.0
 42
-0.014504
  0
VERTEX
  8
1
  6
CONTINUOUS
 62
     1
  5
414
 10
390.79462
 20
56.783632
 30
0.0
 42
-0.009896
  0
VERTEX
  8
1
  6
CONTINUOUS
 62
     1
  5
415
 10
390.84736
 20
56.494551
 30
0.0
 42
-0.007708
  0
VERTEX
  8
1
  6
CONTINUOUS
 62
     1
  5
416
 10
390.895719
 20
56.165711
 30
0.0
 42
-0.006655
  0
VERTEX
  8
1
  6
CONTINUOUS
 62
     1
  5
417
 10
390.937689
 20
55.810767
 30
0.0
 42
-0.006278
  0
VERTEX
  8
1
  6
CONTINUOUS
 62
     1
  5
418
 10
390.971528
 20
55.444454
 30
0.0
 42
-0.006439
  0
VERTEX
  8
1
  6
CONTINUOUS
 62
     1
  5
419
 10
390.995831
 20
55.081981
 30
0.0
 42
-0.007196
  0
VERTEX
  8
1
  6
CONTINUOUS
 62
     1
  5
41A
 10
391.009589
 20
54.738397
 30
0.0
 42
-0.008852
  0
VERTEX
  8
1
  6
CONTINUOUS
 62
     1
  5
41B
 10
391.012231
 20
54.427966
 30
0.0
 42
-0.008852
  0
SEQEND
  8
1
  6
CONTINUOUS
 62
     1
  5
41C
  0
POLYLINE
  8
1
  6
CONTINUOUS
 62
     1
  5
41D
 66
     1
 10
0.0
 20
0.0
 30
0.0
210
0.0
220
0.0
230
1.0
  0
VERTEX
  8
1
  6
CONTINUOUS
 62
     1
  5
41E
 10
391.023626
 20
54.427676
 30
0.0
 42
-0.005019
  0
VERTEX
  8
1
  6
CONTINUOUS
 62
     1
  5
41F
 10
391.037519
 20
54.703873
 30
0.0
 42
-0.004038
  0
VERTEX
  8
1
  6
CONTINUOUS
 62
     1
  5
420
 10
391.058455
 20
55.011046
 30
0.0
 42
-0.003548
  0
VERTEX
  8
1
  6
CONTINUOUS
 62
     1
  5
421
 10
391.085682
 20
55.338164
 30
0.0
 42
-0.003367
  0
VERTEX
  8
1
  6
CONTINUOUS
 62
     1
  5
422
 10
391.118222
 20
55.673481
 30
0.0
 42
-0.003436
  0
VERTEX
  8
1
  6
CONTINUOUS
 62
     1
  5
423
 10
391.154907
 20
56.004955
 30
0.0
 42
-0.003778
  0
VERTEX
  8
1
  6
CONTINUOUS
 62
     1
  5
424
 10
391.194419
 20
56.320683
 30
0.0
 42
-0.00451
  0
VERTEX
  8
1
  6
CONTINUOUS
 62
     1
  5
425
 10
391.23534
 20
56.609328
 30
0.0
 42
-0.00594
  0
VERTEX
  8
1
  6
CONTINUOUS
 62
     1
  5
426
 10
391.2762
 20
56.860525
 30
0.0
 42
-0.008921
  0
VERTEX
  8
1
  6
CONTINUOUS
 62
     1
  5
427
 10
391.315531
 20
57.065253
 30
0.0
 42
-0.016392
  0
VERTEX
  8
1
  6
CONTINUOUS
 62
     1
  5
428
 10
391.351922
 20
57.21616
 30
0.0
 42
-0.04458
  0
VERTEX
  8
1
  6
CONTINUOUS
 62
     1
  5
429
 10
391.384066
 20
57.307828
 30
0.0
 42
-0.317392
  0
VERTEX
  8
1
  6
CONTINUOUS
 62
     1
  5
42A
 10
391.410808
 20
57.336964
 30
0.0
 42
-0.317392
  0
SEQEND
  8
1
  6
CONTINUOUS
 62
     1
  5
42B
  0
POLYLINE
  8
1
  6
CONTINUOUS
 62
     1
  5
42C
 66
     1
 10
0.0
 20
0.0
 30
0.0
210
0.0
220
0.0
230
1.0
  0
VERTEX
  8
1
  6
CONTINUOUS
 62
     1
  5
42D
 10
380.451352
 20
60.534889
 30
0.0
 42
-0.265147
  0
VERTEX
  8
1
  6
CONTINUOUS
 62
     1
  5
42E
 10
380.499283
 20
60.501429
 30
0.0
 42
-0.064653
  0
VERTEX
  8
1
  6
CONTINUOUS
 62
     1
  5
42F
 10
380.551759
 20
60.394628
 30
0.0
 42
-0.025822
  0
VERTEX
  8
1
  6
CONTINUOUS
 62
     1
  5
430
 10
380.606601
 20
60.218918
 30
0.0
 42
-0.014504
  0
VERTEX
  8
1
  6
CONTINUOUS
 62
     1
  5
431
 10
380.661532
 20
59.981596
 30
0.0
 42
-0.009896
  0
VERTEX
  8
1
  6
CONTINUOUS
 62
     1
  5
432
 10
380.714272
 20
59.692515
 30
0.0
 42
-0.007708
  0
VERTEX
  8
1
  6
CONTINUOUS
 62
     1
  5
433
 10
380.762631
 20
59.363675
 30
0.0
 42
-0.006655
  0
VERTEX
  8
1
  6
CONTINUOUS
 62
     1
  5
434
 10
380.804601
 20
59.008731
 30
0.0
 42
-0.006278
  0
VERTEX
  8
1
  6
CONTINUOUS
 62
     1
  5
435
 10
380.83844
 20
58.642418
 30
0.0
 42
-0.006439
  0
VERTEX
  8
1
  6
CONTINUOUS
 62
     1
  5
436
 10
380.862743
 20
58.279945
 30
0.0
 42
-0.007196
  0
VERTEX
  8
1
  6
CONTINUOUS
 62
     1
  5
437
 10
380.876501
 20
57.936361
 30
0.0
 42
-0.008852
  0
VERTEX
  8
1
  6
CONTINUOUS
 62
     1
  5
438
 10
380.879143
 20
57.62593
 30
0.0
 42
-0.008852
  0
SEQEND
  8
1
  6
CONTINUOUS
 62
     1
  5
439
  0
POLYLINE
  8
1
  6
CONTINUOUS
 62
     1
  5
43A
 66
     1
 10
0.0
 20
0.0
 30
0.0
210
0.0
220
0.0
230
1.0
  0
VERTEX
  8
1
  6
CONTINUOUS
 62
     1
  5
43B
 10
380.890538
 20
57.62564
 30
0.0
 42
-0.005019
  0
VERTEX
  8
1
  6
CONTINUOUS
 62
     1
  5
43C
 10
380.904431
 20
57.901837
 30
0.0
 42
-0.004038
  0
VERTEX
  8
1
  6
CONTINUOUS
 62
     1
  5
43D
 10
380.925367
 20
58.20901
 30
0.0
 42
-0.003548
  0
VERTEX
  8
1
  6
CONTINUOUS
 62
     1
  5
43E
 10
380.952594
 20
58.536128
 30
0.0
 42
-0.003367
  0
VERTEX
  8
1
  6
CONTINUOUS
 62
     1
  5
43F
 10
380.985134
 20
58.871445
 30
0.0
 42
-0.003436
  0
VERTEX
  8
1
  6
CONTINUOUS
 62
     1
  5
440
 10
381.021819
 20
59.202919
 30
0.0
 42
-0.003778
  0
VERTEX
  8
1
  6
CONTINUOUS
 62
     1
  5
441
 10
381.061331
 20
59.518647
 30
0.0
 42
-0.00451
  0
VERTEX
  8
1
  6
CONTINUOUS
 62
     1
  5
442
 10
381.102252
 20
59.807292
 30
0.0
 42
-0.00594
  0
VERTEX
  8
1
  6
CONTINUOUS
 62
     1
  5
443
 10
381.143112
 20
60.058489
 30
0.0
 42
-0.008921
  0
VERTEX
  8
1
  6
CONTINUOUS
 62
     1
  5
444
 10
381.182443
 20
60.263217
 30
0.0
 42
-0.016392
  0
VERTEX
  8
1
  6
CONTINUOUS
 62
     1
  5
445
 10
381.218834
 20
60.414124
 30
0.0
 42
-0.04458
  0
VERTEX
  8
1
  6
CONTINUOUS
 62
     1
  5
446
 10
381.250978
 20
60.505792
 30
0.0
 42
-0.317392
  0
VERTEX
  8
1
  6
CONTINUOUS
 62
     1
  5
447
 10
381.27772
 20
60.534928
 30
0.0
 42
-0.317392
  0
SEQEND
  8
1
  6
CONTINUOUS
 62
     1
  5
448
  0
POLYLINE
  8
1
  6
CONTINUOUS
 62
     1
  5
449
 66
     1
 10
0.0
 20
0.0
 30
0.0
210
0.0
220
0.0
230
1.0
  0
VERTEX
  8
1
  6
CONTINUOUS
 62
     1
  5
44A
 10
381.474456
 20
51.729455
 30
0.0
 42
-0.265147
  0
VERTEX
  8
1
  6
CONTINUOUS
 62
     1
  5
44B
 10
381.426525
 20
51.762915
 30
0.0
 42
-0.064653
  0
VERTEX
  8
1
  6
CONTINUOUS
 62
     1
  5
44C
 10
381.374049
 20
51.869716
 30
0.0
 42
-0.025822
  0
VERTEX
  8
1
  6
CONTINUOUS
 62
     1
  5
44D
 10
381.319207
 20
52.045426
 30
0.0
 42
-0.014504
  0
VERTEX
  8
1
  6
CONTINUOUS
 62
     1
  5
44E
 10
381.264276
 20
52.282748
 30
0.0
 42
-0.009896
  0
VERTEX
  8
1
  6
CONTINUOUS
 62
     1
  5
44F
 10
381.211536
 20
52.571829
 30
0.0
 42
-0.007708
  0
VERTEX
  8
1
  6
CONTINUOUS
 62
     1
  5
450
 10
381.163177
 20
52.900669
 30
0.0
 42
-0.006655
  0
VERTEX
  8
1
  6
CONTINUOUS
 62
     1
  5
451
 10
381.121207
 20
53.255613
 30
0.0
 42
-0.006278
  0
VERTEX
  8
1
  6
CONTINUOUS
 62
     1
  5
452
 10
381.087368
 20
53.621926
 30
0.0
 42
-0.006439
  0
VERTEX
  8
1
  6
CONTINUOUS
 62
     1
  5
453
 10
381.063065
 20
53.984399
 30
0.0
 42
-0.007196
  0
VERTEX
  8
1
  6
CONTINUOUS
 62
     1
  5
454
 10
381.049307
 20
54.327983
 30
0.0
 42
-0.008852
  0
VERTEX
  8
1
  6
CONTINUOUS
 62
     1
  5
455
 10
381.046665
 20
54.638414
 30
0.0
 42
-0.008852
  0
SEQEND
  8
1
  6
CONTINUOUS
 62
     1
  5
456
  0
POLYLINE
  8
1
  6
CONTINUOUS
 62
     1
  5
457
 66
     1
 10
0.0
 20
0.0
 30
0.0
210
0.0
220
0.0
230
1.0
  0
VERTEX
  8
1
  6
CONTINUOUS
 62
     1
  5
458
 10
381.03527
 20
54.638704
 30
0.0
 42
-0.005019
  0
VERTEX
  8
1
  6
CONTINUOUS
 62
     1
  5
459
 10
381.021377
 20
54.362507
 30
0.0
 42
-0.004038
  0
VERTEX
  8
1
  6
CONTINUOUS
 62
     1
  5
45A
 10
381.000441
 20
54.055334
 30
0.0
 42
-0.003548
  0
VERTEX
  8
1
  6
CONTINUOUS
 62
     1
  5
45B
 10
380.973214
 20
53.728216
 30
0.0
 42
-0.003367
  0
VERTEX
  8
1
  6
CONTINUOUS
 62
     1
  5
45C
 10
380.940674
 20
53.392899
 30
0.0
 42
-0.003436
  0
VERTEX
  8
1
  6
CONTINUOUS
 62
     1
  5
45D
 10
380.903989
 20
53.061425
 30
0.0
 42
-0.003778
  0
VERTEX
  8
1
  6
CONTINUOUS
 62
     1
  5
45E
 10
380.864477
 20
52.745697
 30
0.0
 42
-0.00451
  0
VERTEX
  8
1
  6
CONTINUOUS
 62
     1
  5
45F
 10
380.823556
 20
52.457052
 30
0.0
 42
-0.00594
  0
VERTEX
  8
1
  6
CONTINUOUS
 62
     1
  5
460
 10
380.782696
 20
52.205855
 30
0.0
 42
-0.008921
  0
VERTEX
  8
1
  6
CONTINUOUS
 62
     1
  5
461
 10
380.743365
 20
52.001127
 30
0.0
 42
-0.016392
  0
VERTEX
  8
1
  6
CONTINUOUS
 62
     1
  5
462
 10
380.706974
 20
51.85022
 30
0.0
 42
-0.04458
  0
VERTEX
  8
1
  6
CONTINUOUS
 62
     1
  5
463
 10
380.67483
 20
51.758552
 30
0.0
 42
-0.317392
  0
VERTEX
  8
1
  6
CONTINUOUS
 62
     1
  5
464
 10
380.648088
 20
51.729416
 30
0.0
 42
-0.317392
  0
SEQEND
  8
1
  6
CONTINUOUS
 62
     1
  5
465
  0
POLYLINE
  8
1
  6
CONTINUOUS
 62
     1
  5
466
 66
     1
 10
0.0
 20
0.0
 30
0.0
210
0.0
220
0.0
230
1.0
  0
VERTEX
  8
1
  6
CONTINUOUS
 62
     1
  5
467
 10
353.276398
 20
140.368829
 30
0.0
 42
-0.265147
  0
VERTEX
  8
1
  6
CONTINUOUS
 62
     1
  5
468
 10
353.33395
 20
140.379062
 30
0.0
 42
-0.064653
  0
VERTEX
  8
1
  6
CONTINUOUS
 62
     1
  5
469
 10
353.446576
 20
140.340647
 30
0.0
 42
-0.025822
  0
VERTEX
  8
1
  6
CONTINUOUS
 62
     1
  5
46A
 10
353.6096
 20
140.255181
 30
0.0
 42
-0.014504
  0
VERTEX
  8
1
  6
CONTINUOUS
 62
     1
  5
46B
 10
353.816254
 20
140.126211
 30
0.0
 42
-0.009896
  0
VERTEX
  8
1
  6
CONTINUOUS
 62
     1
  5
46C
 10
354.057959
 20
139.959093
 30
0.0
 42
-0.007708
  0
VERTEX
  8
1
  6
CONTINUOUS
 62
     1
  5
46D
 10
354.324678
 20
139.760763
 30
0.0
 42
-0.006655
  0
VERTEX
  8
1
  6
CONTINUOUS
 62
     1
  5
46E
 10
354.605339
 20
139.539457
 30
0.0
 42
-0.006278
  0
VERTEX
  8
1
  6
CONTINUOUS
 62
     1
  5
46F
 10
354.888289
 20
139.304363
 30
0.0
 42
-0.006439
  0
VERTEX
  8
1
  6
CONTINUOUS
 62
     1
  5
470
 10
355.161781
 20
139.06524
 30
0.0
 42
-0.007196
  0
VERTEX
  8
1
  6
CONTINUOUS
 62
     1
  5
471
 10
355.41446
 20
138.832017
 30
0.0
 42
-0.008852
  0
VERTEX
  8
1
  6
CONTINUOUS
 62
     1
  5
472
 10
355.635836
 20
138.614377
 30
0.0
 42
-0.008852
  0
SEQEND
  8
1
  6
CONTINUOUS
 62
     1
  5
473
  0
POLYLINE
  8
1
  6
CONTINUOUS
 62
     1
  5
474
 66
     1
 10
0.0
 20
0.0
 30
0.0
210
0.0
220
0.0
230
1.0
  0
VERTEX
  8
1
  6
CONTINUOUS
 62
     1
  5
475
 10
355.644099
 20
138.62223
 30
0.0
 42
-0.005019
  0
VERTEX
  8
1
  6
CONTINUOUS
 62
     1
  5
476
 10
355.458622
 20
138.827355
 30
0.0
 42
-0.004038
  0
VERTEX
  8
1
  6
CONTINUOUS
 62
     1
  5
477
 10
355.256222
 20
139.059363
 30
0.0
 42
-0.003548
  0
VERTEX
  8
1
  6
CONTINUOUS
 62
     1
  5
478
 10
355.044167
 20
139.309923
 30
0.0
 42
-0.003367
  0
VERTEX
  8
1
  6
CONTINUOUS
 62
     1
  5
479
 10
354.830071
 20
139.570037
 30
0.0
 42
-0.003436
  0
VERTEX
  8
1
  6
CONTINUOUS
 62
     1
  5
47A
 10
354.621624
 20
139.830364
 30
0.0
 42
-0.003778
  0
VERTEX
  8
1
  6
CONTINUOUS
 62
     1
  5
47B
 10
354.426309
 20
140.081557
 30
0.0
 42
-0.00451
  0
VERTEX
  8
1
  6
CONTINUOUS
 62
     1
  5
47C
 10
354.251142
 20
140.314596
 30
0.0
 42
-0.00594
  0
VERTEX
  8
1
  6
CONTINUOUS
 62
     1
  5
47D
 10
354.102411
 20
140.521111
 30
0.0
 42
-0.008921
  0
VERTEX
  8
1
  6
CONTINUOUS
 62
     1
  5
47E
 10
353.985458
 20
140.693687
 30
0.0
 42
-0.016392
  0
VERTEX
  8
1
  6
CONTINUOUS
 62
     1
  5
47F
 10
353.904483
 20
140.826127
 30
0.0
 42
-0.04458
  0
VERTEX
  8
1
  6
CONTINUOUS
 62
     1
  5
480
 10
353.862393
 20
140.913674
 30
0.0
 42
-0.317392
  0
VERTEX
  8
1
  6
CONTINUOUS
 62
     1
  5
481
 10
353.8607
 20
140.953187
 30
0.0
 42
-0.317392
  0
SEQEND
  8
1
  6
CONTINUOUS
 62
     1
  5
482
  0
INSERT
  8
1
  6
CONTINUOUS
 62
     1
  5
483
  2
LDR
 10
355.63175
 20
138.63625
 30
0.0
 41
241.920279
 42
241.920279
 50
315.0
210
0.0
220
0.0
230
1.0
  0
POLYLINE
  8
1
  6
CONTINUOUS
 62
     1
  5
484
 66
     1
 10
0.0
 20
0.0
 30
0.0
210
0.0
220
0.0
230
1.0
  0
VERTEX
  8
1
  6
CONTINUOUS
 62
     1
  5
485
 10
361.415622
 20
133.462543
 30
0.0
 42
-0.265147
  0
VERTEX
  8
1
  6
CONTINUOUS
 62
     1
  5
486
 10
361.35807
 20
133.45231
 30
0.0
 42
-0.064653
  0
VERTEX
  8
1
  6
CONTINUOUS
 62
     1
  5
487
 10
361.245444
 20
133.490725
 30
0.0
 42
-0.025822
  0
VERTEX
  8
1
  6
CONTINUOUS
 62
     1
  5
488
 10
361.08242
 20
133.576191
 30
0.0
 42
-0.014504
  0
VERTEX
  8
1
  6
CONTINUOUS
 62
     1
  5
489
 10
360.875766
 20
133.705161
 30
0.0
 42
-0.009896
  0
VERTEX
  8
1
  6
CONTINUOUS
 62
     1
  5
48A
 10
360.634061
 20
133.872279
 30
0.0
 42
-0.007708
  0
VERTEX
  8
1
  6
CONTINUOUS
 62
     1
  5
48B
 10
360.367342
 20
134.070609
 30
0.0
 42
-0.006655
  0
VERTEX
  8
1
  6
CONTINUOUS
 62
     1
  5
48C
 10
360.086681
 20
134.291915
 30
0.0
 42
-0.006278
  0
VERTEX
  8
1
  6
CONTINUOUS
 62
     1
  5
48D
 10
359.803731
 20
134.527009
 30
0.0
 42
-0.006439
  0
VERTEX
  8
1
  6
CONTINUOUS
 62
     1
  5
48E
 10
359.530239
 20
134.766132
 30
0.0
 42
-0.007196
  0
VERTEX
  8
1
  6
CONTINUOUS
 62
     1
  5
48F
 10
359.27756
 20
134.999355
 30
0.0
 42
-0.008852
  0
VERTEX
  8
1
  6
CONTINUOUS
 62
     1
  5
490
 10
359.056184
 20
135.216995
 30
0.0
 42
-0.008852
  0
SEQEND
  8
1
  6
CONTINUOUS
 62
     1
  5
491
  0
POLYLINE
  8
1
  6
CONTINUOUS
 62
     1
  5
492
 66
     1
 10
0.0
 20
0.0
 30
0.0
210
0.0
220
0.0
230
1.0
  0
VERTEX
  8
1
  6
CONTINUOUS
 62
     1
  5
493
 10
359.047921
 20
135.209142
 30
0.0
 42
-0.005019
  0
VERTEX
  8
1
  6
CONTINUOUS
 62
     1
  5
494
 10
359.233398
 20
135.004017
 30
0.0
 42
-0.004038
  0
VERTEX
  8
1
  6
CONTINUOUS
 62
     1
  5
495
 10
359.435798
 20
134.772009
 30
0.0
 42
-0.003548
  0
VERTEX
  8
1
  6
CONTINUOUS
 62
     1
  5
496
 10
359.647853
 20
134.521449
 30
0.0
 42
-0.003367
  0
VERTEX
  8
1
  6
CONTINUOUS
 62
     1
  5
497
 10
359.861949
 20
134.261335
 30
0.0
 42
-0.003436
  0
VERTEX
  8
1
  6
CONTINUOUS
 62
     1
  5
498
 10
360.070396
 20
134.001008
 30
0.0
 42
-0.003778
  0
VERTEX
  8
1
  6
CONTINUOUS
 62
     1
  5
499
 10
360.265711
 20
133.749815
 30
0.0
 42
-0.00451
  0
VERTEX
  8
1
  6
CONTINUOUS
 62
     1
  5
49A
 10
360.440878
 20
133.516776
 30
0.0
 42
-0.00594
  0
VERTEX
  8
1
  6
CONTINUOUS
 62
     1
  5
49B
 10
360.589609
 20
133.310261
 30
0.0
 42
-0.008921
  0
VERTEX
  8
1
  6
CONTINUOUS
 62
     1
  5
49C
 10
360.706562
 20
133.137685
 30
0.0
 42
-0.016392
  0
VERTEX
  8
1
  6
CONTINUOUS
 62
     1
  5
49D
 10
360.787537
 20
133.005245
 30
0.0
 42
-0.04458
  0
VERTEX
  8
1
  6
CONTINUOUS
 62
     1
  5
49E
 10
360.829627
 20
132.917698
 30
0.0
 42
-0.317392
  0
VERTEX
  8
1
  6
CONTINUOUS
 62
     1
  5
49F
 10
360.83132
 20
132.878185
 30
0.0
 42
-0.317392
  0
SEQEND
  8
1
  6
CONTINUOUS
 62
     1
  5
4A0
  0
INSERT
  8
1
  6
CONTINUOUS
 62
     1
  5
4A1
  2
LDR
 10
359.05175
 20
135.19625
 30
0.0
 41
241.920279
 42
241.920279
 50
135.0
210
0.0
220
0.0
230
1.0
  0
POLYLINE
  8
1
  6
CONTINUOUS
 62
     1
  5
4A2
 66
     1
 10
0.0
 20
0.0
 30
0.0
210
0.0
220
0.0
230
1.0
  0
VERTEX
  8
1
  6
CONTINUOUS
 62
     1
  5
4A3
 10
363.051643
 20
133.261652
 30
0.0
 42
-0.265147
  0
VERTEX
  8
1
  6
CONTINUOUS
 62
     1
  5
4A4
 10
363.085103
 20
133.309583
 30
0.0
 42
-0.064653
  0
VERTEX
  8
1
  6
CONTINUOUS
 62
     1
  5
4A5
 10
363.191904
 20
133.362059
 30
0.0
 42
-0.025822
  0
VERTEX
  8
1
  6
CONTINUOUS
 62
     1
  5
4A6
 10
363.367614
 20
133.416901
 30
0.0
 42
-0.014504
  0
VERTEX
  8
1
  6
CONTINUOUS
 62
     1
  5
4A7
 10
363.604936
 20
133.471832
 30
0.0
 42
-0.009896
  0
VERTEX
  8
1
  6
CONTINUOUS
 62
     1
  5
4A8
 10
363.894017
 20
133.524572
 30
0.0
 42
-0.007708
  0
VERTEX
  8
1
  6
CONTINUOUS
 62
     1
  5
4A9
 10
364.222857
 20
133.572931
 30
0.0
 42
-0.006655
  0
VERTEX
  8
1
  6
CONTINUOUS
 62
     1
  5
4AA
 10
364.577801
 20
133.614901
 30
0.0
 42
-0.006278
  0
VERTEX
  8
1
  6
CONTINUOUS
 62
     1
  5
4AB
 10
364.944114
 20
133.64874
 30
0.0
 42
-0.006439
  0
VERTEX
  8
1
  6
CONTINUOUS
 62
     1
  5
4AC
 10
365.306587
 20
133.673043
 30
0.0
 42
-0.007196
  0
VERTEX
  8
1
  6
CONTINUOUS
 62
     1
  5
4AD
 10
365.650171
 20
133.686801
 30
0.0
 42
-0.008852
  0
VERTEX
  8
1
  6
CONTINUOUS
 62
     1
  5
4AE
 10
365.960602
 20
133.689443
 30
0.0
 42
-0.008852
  0
SEQEND
  8
1
  6
CONTINUOUS
 62
     1
  5
4AF
  0
POLYLINE
  8
1
  6
CONTINUOUS
 62
     1
  5
4B0
 66
     1
 10
0.0
 20
0.0
 30
0.0
210
0.0
220
0.0
230
1.0
  0
VERTEX
  8
1
  6
CONTINUOUS
 62
     1
  5
4B1
 10
365.960892
 20
133.700838
 30
0.0
 42
-0.005019
  0
VERTEX
  8
1
  6
CONTINUOUS
 62
     1
  5
4B2
 10
365.684695
 20
133.714731
 30
0.0
 42
-0.004038
  0
VERTEX
  8
1
  6
CONTINUOUS
 62
     1
  5
4B3
 10
365.377522
 20
133.735667
 30
0.0
 42
-0.003548
  0
VERTEX
  8
1
  6
CONTINUOUS
 62
     1
  5
4B4
 10
365.050404
 20
133.762894
 30
0.0
 42
-0.003367
  0
VERTEX
  8
1
  6
CONTINUOUS
 62
     1
  5
4B5
 10
364.715087
 20
133.795434
 30
0.0
 42
-0.003436
  0
VERTEX
  8
1
  6
CONTINUOUS
 62
     1
  5
4B6
 10
364.383613
 20
133.832119
 30
0.0
 42
-0.003778
  0
VERTEX
  8
1
  6
CONTINUOUS
 62
     1
  5
4B7
 10
364.067885
 20
133.871631
 30
0.0
 42
-0.00451
  0
VERTEX
  8
1
  6
CONTINUOUS
 62
     1
  5
4B8
 10
363.77924
 20
133.912552
 30
0.0
 42
-0.00594
  0
VERTEX
  8
1
  6
CONTINUOUS
 62
     1
  5
4B9
 10
363.528043
 20
133.953412
 30
0.0
 42
-0.008921
  0
VERTEX
  8
1
  6
CONTINUOUS
 62
     1
  5
4BA
 10
363.323315
 20
133.992743
 30
0.0
 42
-0.016392
  0
VERTEX
  8
1
  6
CONTINUOUS
 62
     1
  5
4BB
 10
363.172408
 20
134.029134
 30
0.0
 42
-0.04458
  0
VERTEX
  8
1
  6
CONTINUOUS
 62
     1
  5
4BC
 10
363.08074
 20
134.061278
 30
0.0
 42
-0.317392
  0
VERTEX
  8
1
  6
CONTINUOUS
 62
     1
  5
4BD
 10
363.051604
 20
134.08802
 30
0.0
 42
-0.317392
  0
SEQEND
  8
1
  6
CONTINUOUS
 62
     1
  5
4BE
  0
POLYLINE
  8
1
  6
CONTINUOUS
 62
     1
  5
4BF
 66
     1
 10
0.0
 20
0.0
 30
0.0
210
0.0
220
0.0
230
1.0
  0
VERTEX
  8
1
  6
CONTINUOUS
 62
     1
  5
4C0
 10
371.914701
 20
134.209072
 30
0.0
 42
-0.265147
  0
VERTEX
  8
1
  6
CONTINUOUS
 62
     1
  5
4C1
 10
371.881241
 20
134.161141
 30
0.0
 42
-0.064653
  0
VERTEX
  8
1
  6
CONTINUOUS
 62
     1
  5
4C2
 10
371.77444
 20
134.108665
 30
0.0
 42
-0.025822
  0
VERTEX
  8
1
  6
CONTINUOUS
 62
     1
  5
4C3
 10
371.59873
 20
134.053823
 30
0.0
 42
-0.014504
  0
VERTEX
  8
1
  6
CONTINUOUS
 62
     1
  5
4C4
 10
371.361408
 20
133.998892
 30
0.0
 42
-0.009896
  0
VERTEX
  8
1
  6
CONTINUOUS
 62
     1
  5
4C5
 10
371.072327
 20
133.946152
 30
0.0
 42
-0.007708
  0
VERTEX
  8
1
  6
CONTINUOUS
 62
     1
  5
4C6
 10
370.743487
 20
133.897793
 30
0.0
 42
-0.006655
  0
VERTEX
  8
1
  6
CONTINUOUS
 62
     1
  5
4C7
 10
370.388543
 20
133.855823
 30
0.0
 42
-0.006278
  0
VERTEX
  8
1
  6
CONTINUOUS
 62
     1
  5
4C8
 10
370.02223
 20
133.821984
 30
0.0
 42
-0.006439
  0
VERTEX
  8
1
  6
CONTINUOUS
 62
     1
  5
4C9
 10
369.659757
 20
133.797681
 30
0.0
 42
-0.007196
  0
VERTEX
  8
1
  6
CONTINUOUS
 62
     1
  5
4CA
 10
369.316173
 20
133.783923
 30
0.0
 42
-0.008852
  0
VERTEX
  8
1
  6
CONTINUOUS
 62
     1
  5
4CB
 10
369.005742
 20
133.781281
 30
0.0
 42
-0.008852
  0
SEQEND
  8
1
  6
CONTINUOUS
 62
     1
  5
4CC
  0
POLYLINE
  8
1
  6
CONTINUOUS
 62
     1
  5
4CD
 66
     1
 10
0.0
 20
0.0
 30
0.0
210
0.0
220
0.0
230
1.0
  0
VERTEX
  8
1
  6
CONTINUOUS
 62
     1
  5
4CE
 10
369.005452
 20
133.769886
 30
0.0
 42
-0.005019
  0
VERTEX
  8
1
  6
CONTINUOUS
 62
     1
  5
4CF
 10
369.281649
 20
133.755993
 30
0.0
 42
-0.004038
  0
VERTEX
  8
1
  6
CONTINUOUS
 62
     1
  5
4D0
 10
369.588822
 20
133.735057
 30
0.0
 42
-0.003548
  0
VERTEX
  8
1
  6
CONTINUOUS
 62
     1
  5
4D1
 10
369.91594
 20
133.70783
 30
0.0
 42
-0.003367
  0
VERTEX
  8
1
  6
CONTINUOUS
 62
     1
  5
4D2
 10
370.251257
 20
133.67529
 30
0.0
 42
-0.003436
  0
VERTEX
  8
1
  6
CONTINUOUS
 62
     1
  5
4D3
 10
370.582731
 20
133.638605
 30
0.0
 42
-0.003778
  0
VERTEX
  8
1
  6
CONTINUOUS
 62
     1
  5
4D4
 10
370.898459
 20
133.599093
 30
0.0
 42
-0.00451
  0
VERTEX
  8
1
  6
CONTINUOUS
 62
     1
  5
4D5
 10
371.187104
 20
133.558172
 30
0.0
 42
-0.00594
  0
VERTEX
  8
1
  6
CONTINUOUS
 62
     1
  5
4D6
 10
371.438301
 20
133.517312
 30
0.0
 42
-0.008921
  0
VERTEX
  8
1
  6
CONTINUOUS
 62
     1
  5
4D7
 10
371.643029
 20
133.477981
 30
0.0
 42
-0.016392
  0
VERTEX
  8
1
  6
CONTINUOUS
 62
     1
  5
4D8
 10
371.793936
 20
133.44159
 30
0.0
 42
-0.04458
  0
VERTEX
  8
1
  6
CONTINUOUS
 62
     1
  5
4D9
 10
371.885604
 20
133.409446
 30
0.0
 42
-0.317392
  0
VERTEX
  8
1
  6
CONTINUOUS
 62
     1
  5
4DA
 10
371.91474
 20
133.382704
 30
0.0
 42
-0.317392
  0
SEQEND
  8
1
  6
CONTINUOUS
 62
     1
  5
4DB
  0
POLYLINE
  8
1
  6
CONTINUOUS
 62
     1
  5
4DC
 66
     1
 10
0.0
 20
0.0
 30
0.0
210
0.0
220
0.0
230
1.0
  0
VERTEX
  8
1
  6
CONTINUOUS
 62
     1
  5
4DD
 10
351.431219
 20
179.602307
 30
0.0
 42
-0.265147
  0
VERTEX
  8
1
  6
CONTINUOUS
 62
     1
  5
4DE
 10
351.453889
 20
179.548428
 30
0.0
 42
-0.064653
  0
VERTEX
  8
1
  6
CONTINUOUS
 62
     1
  5
4DF
 10
351.441253
 20
179.430103
 30
0.0
 42
-0.025822
  0
VERTEX
  8
1
  6
CONTINUOUS
 62
     1
  5
4E0
 10
351.393836
 20
179.252247
 30
0.0
 42
-0.014504
  0
VERTEX
  8
1
  6
CONTINUOUS
 62
     1
  5
4E1
 10
351.313606
 20
179.022242
 30
0.0
 42
-0.009896
  0
VERTEX
  8
1
  6
CONTINUOUS
 62
     1
  5
4E2
 10
351.203893
 20
178.749638
 30
0.0
 42
-0.007708
  0
VERTEX
  8
1
  6
CONTINUOUS
 62
     1
  5
4E3
 10
351.069254
 20
178.445753
 30
0.0
 42
-0.006655
  0
VERTEX
  8
1
  6
CONTINUOUS
 62
     1
  5
4E4
 10
350.915278
 20
178.123203
 30
0.0
 42
-0.006278
  0
VERTEX
  8
1
  6
CONTINUOUS
 62
     1
  5
4E5
 10
350.748357
 20
177.79538
 30
0.0
 42
-0.006439
  0
VERTEX
  8
1
  6
CONTINUOUS
 62
     1
  5
4E6
 10
350.575422
 20
177.475895
 30
0.0
 42
-0.007196
  0
VERTEX
  8
1
  6
CONTINUOUS
 62
     1
  5
4E7
 10
350.403653
 20
177.178011
 30
0.0
 42
-0.008852
  0
VERTEX
  8
1
  6
CONTINUOUS
 62
     1
  5
4E8
 10
350.24018
 20
176.914096
 30
0.0
 42
-0.008852
  0
SEQEND
  8
1
  6
CONTINUOUS
 62
     1
  5
4E9
  0
POLYLINE
  8
1
  6
CONTINUOUS
 62
     1
  5
4EA
 66
     1
 10
0.0
 20
0.0
 30
0.0
210
0.0
220
0.0
230
1.0
  0
VERTEX
  8
1
  6
CONTINUOUS
 62
     1
  5
4EB
 10
350.249661
 20
176.907768
 30
0.0
 42
-0.005019
  0
VERTEX
  8
1
  6
CONTINUOUS
 62
     1
  5
4EC
 10
350.408842
 20
177.133908
 30
0.0
 42
-0.004038
  0
VERTEX
  8
1
  6
CONTINUOUS
 62
     1
  5
4ED
 10
350.590513
 20
177.382483
 30
0.0
 42
-0.003548
  0
VERTEX
  8
1
  6
CONTINUOUS
 62
     1
  5
4EE
 10
350.78815
 20
177.644565
 30
0.0
 42
-0.003367
  0
VERTEX
  8
1
  6
CONTINUOUS
 62
     1
  5
4EF
 10
350.994656
 20
177.910744
 30
0.0
 42
-0.003436
  0
VERTEX
  8
1
  6
CONTINUOUS
 62
     1
  5
4F0
 10
351.202616
 20
178.171462
 30
0.0
 42
-0.003778
  0
VERTEX
  8
1
  6
CONTINUOUS
 62
     1
  5
4F1
 10
351.404562
 20
178.417355
 30
0.0
 42
-0.00451
  0
VERTEX
  8
1
  6
CONTINUOUS
 62
     1
  5
4F2
 10
351.593242
 20
178.639594
 30
0.0
 42
-0.00594
  0
VERTEX
  8
1
  6
CONTINUOUS
 62
     1
  5
4F3
 10
351.761881
 20
178.830199
 30
0.0
 42
-0.008921
  0
VERTEX
  8
1
  6
CONTINUOUS
 62
     1
  5
4F4
 10
351.904423
 20
178.982325
 30
0.0
 42
-0.016392
  0
VERTEX
  8
1
  6
CONTINUOUS
 62
     1
  5
4F5
 10
352.015749
 20
179.090509
 30
0.0
 42
-0.04458
  0
VERTEX
  8
1
  6
CONTINUOUS
 62
     1
  5
4F6
 10
352.091861
 20
179.150867
 30
0.0
 42
-0.317392
  0
VERTEX
  8
1
  6
CONTINUOUS
 62
     1
  5
4F7
 10
352.130028
 20
179.16123
 30
0.0
 42
-0.317392
  0
SEQEND
  8
1
  6
CONTINUOUS
 62
     1
  5
4F8
  0
POLYLINE
  8
1
  6
CONTINUOUS
 62
     1
  5
4F9
 66
     1
 10
0.0
 20
0.0
 30
0.0
210
0.0
220
0.0
230
1.0
  0
VERTEX
  8
1
  6
CONTINUOUS
 62
     1
  5
4FA
 10
371.362822
 20
172.538564
 30
0.0
 42
-0.265147
  0
VERTEX
  8
1
  6
CONTINUOUS
 62
     1
  5
4FB
 10
371.387496
 20
172.485572
 30
0.0
 42
-0.064653
  0
VERTEX
  8
1
  6
CONTINUOUS
 62
     1
  5
4FC
 10
371.379304
 20
172.366857
 30
0.0
 42
-0.025822
  0
VERTEX
  8
1
  6
CONTINUOUS
 62
     1
  5
4FD
 10
371.338587
 20
172.187348
 30
0.0
 42
-0.014504
  0
VERTEX
  8
1
  6
CONTINUOUS
 62
     1
  5
4FE
 10
371.267035
 20
171.954498
 30
0.0
 42
-0.009896
  0
VERTEX
  8
1
  6
CONTINUOUS
 62
     1
  5
4FF
 10
371.167619
 20
171.677973
 30
0.0
 42
-0.007708
  0
VERTEX
  8
1
  6
CONTINUOUS
 62
     1
  5
500
 10
371.044465
 20
171.369254
 30
0.0
 42
-0.006655
  0
VERTEX
  8
1
  6
CONTINUOUS
 62
     1
  5
501
 10
370.902688
 20
171.041159
 30
0.0
 42
-0.006278
  0
VERTEX
  8
1
  6
CONTINUOUS
 62
     1
  5
502
 10
370.748173
 20
170.70731
 30
0.0
 42
-0.006439
  0
VERTEX
  8
1
  6
CONTINUOUS
 62
     1
  5
503
 10
370.587336
 20
170.381567
 30
0.0
 42
-0.007196
  0
VERTEX
  8
1
  6
CONTINUOUS
 62
     1
  5
504
 10
370.426853
 20
170.077453
 30
0.0
 42
-0.008852
  0
VERTEX
  8
1
  6
CONTINUOUS
 62
     1
  5
505
 10
370.273389
 20
169.807596
 30
0.0
 42
-0.008852
  0
SEQEND
  8
1
  6
CONTINUOUS
 62
     1
  5
506
  0
POLYLINE
  8
1
  6
CONTINUOUS
 62
     1
  5
507
 66
     1
 10
0.0
 20
0.0
 30
0.0
210
0.0
220
0.0
230
1.0
  0
VERTEX
  8
1
  6
CONTINUOUS
 62
     1
  5
508
 10
370.2831
 20
169.801628
 30
0.0
 42
-0.005019
  0
VERTEX
  8
1
  6
CONTINUOUS
 62
     1
  5
509
 10
370.433692
 20
170.033576
 30
0.0
 42
-0.004038
  0
VERTEX
  8
1
  6
CONTINUOUS
 62
     1
  5
50A
 10
370.605917
 20
170.288786
 30
0.0
 42
-0.003548
  0
VERTEX
  8
1
  6
CONTINUOUS
 62
     1
  5
50B
 10
370.793591
 20
170.558093
 30
0.0
 42
-0.003367
  0
VERTEX
  8
1
  6
CONTINUOUS
 62
     1
  5
50C
 10
370.989975
 20
170.831826
 30
0.0
 42
-0.003436
  0
VERTEX
  8
1
  6
CONTINUOUS
 62
     1
  5
50D
 10
371.188016
 20
171.100155
 30
0.0
 42
-0.003778
  0
VERTEX
  8
1
  6
CONTINUOUS
 62
     1
  5
50E
 10
371.380602
 20
171.353445
 30
0.0
 42
-0.00451
  0
VERTEX
  8
1
  6
CONTINUOUS
 62
     1
  5
50F
 10
371.560819
 20
171.582601
 30
0.0
 42
-0.00594
  0
VERTEX
  8
1
  6
CONTINUOUS
 62
     1
  5
510
 10
371.722194
 20
171.779394
 30
0.0
 42
-0.008921
  0
VERTEX
  8
1
  6
CONTINUOUS
 62
     1
  5
511
 10
371.858933
 20
171.936756
 30
0.0
 42
-0.016392
  0
VERTEX
  8
1
  6
CONTINUOUS
 62
     1
  5
512
 10
371.966126
 20
172.049037
 30
0.0
 42
-0.04458
  0
VERTEX
  8
1
  6
CONTINUOUS
 62
     1
  5
513
 10
372.039923
 20
172.112205
 30
0.0
 42
-0.317392
  0
VERTEX
  8
1
  6
CONTINUOUS
 62
     1
  5
514
 10
372.077674
 20
172.123992
 30
0.0
 42
-0.317392
  0
SEQEND
  8
1
  6
CONTINUOUS
 62
     1
  5
515
  0
POLYLINE
  8
1
  6
CONTINUOUS
 62
     1
  5
516
 66
     1
 10
0.0
 20
0.0
 30
0.0
210
0.0
220
0.0
230
1.0
  0
VERTEX
  8
1
  6
CONTINUOUS
 62
     1
  5
517
 10
326.7385
 20
166.196574
 30
0.0
 42
-0.265147
  0
VERTEX
  8
1
  6
CONTINUOUS
 62
     1
  5
518
 10
326.736105
 20
166.254979
 30
0.0
 42
-0.064653
  0
VERTEX
  8
1
  6
CONTINUOUS
 62
     1
  5
519
 10
326.789327
 20
166.361411
 30
0.0
 42
-0.025822
  0
VERTEX
  8
1
  6
CONTINUOUS
 62
     1
  5
51A
 10
326.895954
 20
166.511451
 30
0.0
 42
-0.014504
  0
VERTEX
  8
1
  6
CONTINUOUS
 62
     1
  5
51B
 10
327.051561
 20
166.698869
 30
0.0
 42
-0.009896
  0
VERTEX
  8
1
  6
CONTINUOUS
 62
     1
  5
51C
 10
327.249687
 20
166.915885
 30
0.0
 42
-0.007708
  0
VERTEX
  8
1
  6
CONTINUOUS
 62
     1
  5
51D
 10
327.482106
 20
167.153488
 30
0.0
 42
-0.006655
  0
VERTEX
  8
1
  6
CONTINUOUS
 62
     1
  5
51E
 10
327.739169
 20
167.401814
 30
0.0
 42
-0.006278
  0
VERTEX
  8
1
  6
CONTINUOUS
 62
     1
  5
51F
 10
328.010203
 20
167.650553
 30
0.0
 42
-0.006439
  0
VERTEX
  8
1
  6
CONTINUOUS
 62
     1
  5
520
 10
328.283955
 20
167.889377
 30
0.0
 42
-0.007196
  0
VERTEX
  8
1
  6
CONTINUOUS
 62
     1
  5
521
 10
328.54906
 20
168.108372
 30
0.0
 42
-0.008852
  0
VERTEX
  8
1
  6
CONTINUOUS
 62
     1
  5
522
 10
328.794512
 20
168.298445
 30
0.0
 42
-0.008852
  0
SEQEND
  8
1
  6
CONTINUOUS
 62
     1
  5
523
  0
POLYLINE
  8
1
  6
CONTINUOUS
 62
     1
  5
524
 66
     1
 10
0.0
 20
0.0
 30
0.0
210
0.0
220
0.0
230
1.0
  0
VERTEX
  8
1
  6
CONTINUOUS
 62
     1
  5
525
 10
328.787843
 20
168.307689
 30
0.0
 42
-0.005019
  0
VERTEX
  8
1
  6
CONTINUOUS
 62
     1
  5
526
 10
328.559624
 20
168.151504
 30
0.0
 42
-0.004038
  0
VERTEX
  8
1
  6
CONTINUOUS
 62
     1
  5
527
 10
328.302488
 20
167.982167
 30
0.0
 42
-0.003548
  0
VERTEX
  8
1
  6
CONTINUOUS
 62
     1
  5
528
 10
328.02567
 20
167.80576
 30
0.0
 42
-0.003367
  0
VERTEX
  8
1
  6
CONTINUOUS
 62
     1
  5
529
 10
327.739111
 20
167.628617
 30
0.0
 42
-0.003436
  0
VERTEX
  8
1
  6
CONTINUOUS
 62
     1
  5
52A
 10
327.453099
 20
167.457099
 30
0.0
 42
-0.003778
  0
VERTEX
  8
1
  6
CONTINUOUS
 62
     1
  5
52B
 10
327.177907
 20
167.297366
 30
0.0
 42
-0.00451
  0
VERTEX
  8
1
  6
CONTINUOUS
 62
     1
  5
52C
 10
326.923416
 20
167.155153
 30
0.0
 42
-0.00594
  0
VERTEX
  8
1
  6
CONTINUOUS
 62
     1
  5
52D
 10
326.698764
 20
167.035567
 30
0.0
 42
-0.008921
  0
VERTEX
  8
1
  6
CONTINUOUS
 62
     1
  5
52E
 10
326.512019
 20
166.942902
 30
0.0
 42
-0.016392
  0
VERTEX
  8
1
  6
CONTINUOUS
 62
     1
  5
52F
 10
326.369886
 20
166.880486
 30
0.0
 42
-0.04458
  0
VERTEX
  8
1
  6
CONTINUOUS
 62
     1
  5
530
 10
326.277471
 20
166.850561
 30
0.0
 42
-0.317392
  0
VERTEX
  8
1
  6
CONTINUOUS
 62
     1
  5
531
 10
326.23809
 20
166.854201
 30
0.0
 42
-0.317392
  0
SEQEND
  8
1
  6
CONTINUOUS
 62
     1
  5
532
  0
POLYLINE
  8
1
  6
CONTINUOUS
 62
     1
  5
533
 66
     1
 10
0.0
 20
0.0
 30
0.0
210
0.0
220
0.0
230
1.0
  0
VERTEX
  8
1
  6
CONTINUOUS
 62
     1
  5
534
 10
317.728562
 20
100.380264
 30
0.0
 42
-0.265147
  0
VERTEX
  8
1
  6
CONTINUOUS
 62
     1
  5
535
 10
317.70455
 20
100.433559
 30
0.0
 42
-0.064653
  0
VERTEX
  8
1
  6
CONTINUOUS
 62
     1
  5
536
 10
317.71422
 20
100.552162
 30
0.0
 42
-0.025822
  0
VERTEX
  8
1
  6
CONTINUOUS
 62
     1
  5
537
 10
317.75717
 20
100.73115
 30
0.0
 42
-0.014504
  0
VERTEX
  8
1
  6
CONTINUOUS
 62
     1
  5
538
 10
317.831617
 20
100.963092
 30
0.0
 42
-0.009896
  0
VERTEX
  8
1
  6
CONTINUOUS
 62
     1
  5
539
 10
317.934471
 20
101.238357
 30
0.0
 42
-0.007708
  0
VERTEX
  8
1
  6
CONTINUOUS
 62
     1
  5
53A
 10
318.061461
 20
101.545517
 30
0.0
 42
-0.006655
  0
VERTEX
  8
1
  6
CONTINUOUS
 62
     1
  5
53B
 10
318.207315
 20
101.87182
 30
0.0
 42
-0.006278
  0
VERTEX
  8
1
  6
CONTINUOUS
 62
     1
  5
53C
 10
318.365977
 20
102.203718
 30
0.0
 42
-0.006439
  0
VERTEX
  8
1
  6
CONTINUOUS
 62
     1
  5
53D
 10
318.53086
 20
102.527433
 30
0.0
 42
-0.007196
  0
VERTEX
  8
1
  6
CONTINUOUS
 62
     1
  5
53E
 10
318.695119
 20
102.829523
 30
0.0
 42
-0.008852
  0
VERTEX
  8
1
  6
CONTINUOUS
 62
     1
  5
53F
 10
318.851933
 20
103.097448
 30
0.0
 42
-0.008852
  0
SEQEND
  8
1
  6
CONTINUOUS
 62
     1
  5
540
  0
POLYLINE
  8
1
  6
CONTINUOUS
 62
     1
  5
541
 66
     1
 10
0.0
 20
0.0
 30
0.0
210
0.0
220
0.0
230
1.0
  0
VERTEX
  8
1
  6
CONTINUOUS
 62
     1
  5
542
 10
318.842297
 20
103.103536
 30
0.0
 42
-0.005019
  0
VERTEX
  8
1
  6
CONTINUOUS
 62
     1
  5
543
 10
318.688827
 20
102.873482
 30
0.0
 42
-0.004038
  0
VERTEX
  8
1
  6
CONTINUOUS
 62
     1
  5
544
 10
318.513435
 20
102.620438
 30
0.0
 42
-0.003548
  0
VERTEX
  8
1
  6
CONTINUOUS
 62
     1
  5
545
 10
318.322421
 20
102.35349
 30
0.0
 42
-0.003367
  0
VERTEX
  8
1
  6
CONTINUOUS
 62
     1
  5
546
 10
318.122643
 20
102.082225
 30
0.0
 42
-0.003436
  0
VERTEX
  8
1
  6
CONTINUOUS
 62
     1
  5
547
 10
317.921274
 20
101.816383
 30
0.0
 42
-0.003778
  0
VERTEX
  8
1
  6
CONTINUOUS
 62
     1
  5
548
 10
317.725547
 20
101.565512
 30
0.0
 42
-0.00451
  0
VERTEX
  8
1
  6
CONTINUOUS
 62
     1
  5
549
 10
317.54249
 20
101.338619
 30
0.0
 42
-0.00594
  0
VERTEX
  8
1
  6
CONTINUOUS
 62
     1
  5
54A
 10
317.378675
 20
101.143852
 30
0.0
 42
-0.008921
  0
VERTEX
  8
1
  6
CONTINUOUS
 62
     1
  5
54B
 10
317.239986
 20
100.988206
 30
0.0
 42
-0.016392
  0
VERTEX
  8
1
  6
CONTINUOUS
 62
     1
  5
54C
 10
317.131403
 20
100.877269
 30
0.0
 42
-0.04458
  0
VERTEX
  8
1
  6
CONTINUOUS
 62
     1
  5
54D
 10
317.056825
 20
100.815025
 30
0.0
 42
-0.317392
  0
VERTEX
  8
1
  6
CONTINUOUS
 62
     1
  5
54E
 10
317.01893
 20
100.803709
 30
0.0
 42
-0.317392
  0
SEQEND
  8
1
  6
CONTINUOUS
 62
     1
  5
54F
  0
POLYLINE
  8
1
  6
CONTINUOUS
 62
     1
  5
550
 66
     1
 10
0.0
 20
0.0
 30
0.0
210
0.0
220
0.0
230
1.0
  0
VERTEX
  8
1
  6
CONTINUOUS
 62
     1
  5
551
 10
326.778849
 20
100.075145
 30
0.0
 42
-0.265147
  0
VERTEX
  8
1
  6
CONTINUOUS
 62
     1
  5
552
 10
326.766767
 20
100.132337
 30
0.0
 42
-0.064653
  0
VERTEX
  8
1
  6
CONTINUOUS
 62
     1
  5
553
 10
326.80153
 20
100.246143
 30
0.0
 42
-0.025822
  0
VERTEX
  8
1
  6
CONTINUOUS
 62
     1
  5
554
 10
326.881696
 20
100.411838
 30
0.0
 42
-0.014504
  0
VERTEX
  8
1
  6
CONTINUOUS
 62
     1
  5
555
 10
327.003936
 20
100.622543
 30
0.0
 42
-0.009896
  0
VERTEX
  8
1
  6
CONTINUOUS
 62
     1
  5
556
 10
327.163176
 20
100.86951
 30
0.0
 42
-0.007708
  0
VERTEX
  8
1
  6
CONTINUOUS
 62
     1
  5
557
 10
327.352804
 20
101.142484
 30
0.0
 42
-0.006655
  0
VERTEX
  8
1
  6
CONTINUOUS
 62
     1
  5
558
 10
327.564947
 20
101.430134
 30
0.0
 42
-0.006278
  0
VERTEX
  8
1
  6
CONTINUOUS
 62
     1
  5
559
 10
327.790797
 20
101.720516
 30
0.0
 42
-0.006439
  0
VERTEX
  8
1
  6
CONTINUOUS
 62
     1
  5
55A
 10
328.020978
 20
102.001575
 30
0.0
 42
-0.007196
  0
VERTEX
  8
1
  6
CONTINUOUS
 62
     1
  5
55B
 10
328.245933
 20
102.261642
 30
0.0
 42
-0.008852
  0
VERTEX
  8
1
  6
CONTINUOUS
 62
     1
  5
55C
 10
328.456323
 20
102.489919
 30
0.0
 42
-0.008852
  0
SEQEND
  8
1
  6
CONTINUOUS
 62
     1
  5
55D
  0
POLYLINE
  8
1
  6
CONTINUOUS
 62
     1
  5
55E
 66
     1
 10
0.0
 20
0.0
 30
0.0
210
0.0
220
0.0
230
1.0
  0
VERTEX
  8
1
  6
CONTINUOUS
 62
     1
  5
55F
 10
328.448208
 20
102.497924
 30
0.0
 42
-0.005019
  0
VERTEX
  8
1
  6
CONTINUOUS
 62
     1
  5
560
 10
328.24917
 20
102.305931
 30
0.0
 42
-0.004038
  0
VERTEX
  8
1
  6
CONTINUOUS
 62
     1
  5
561
 10
328.023807
 20
102.096156
 30
0.0
 42
-0.003548
  0
VERTEX
  8
1
  6
CONTINUOUS
 62
     1
  5
562
 10
327.780214
 20
101.876133
 30
0.0
 42
-0.003367
  0
VERTEX
  8
1
  6
CONTINUOUS
 62
     1
  5
563
 10
327.527138
 20
101.653764
 30
0.0
 42
-0.003436
  0
VERTEX
  8
1
  6
CONTINUOUS
 62
     1
  5
564
 10
327.273666
 20
101.437032
 30
0.0
 42
-0.003778
  0
VERTEX
  8
1
  6
CONTINUOUS
 62
     1
  5
565
 10
327.0289
 20
101.233721
 30
0.0
 42
-0.00451
  0
VERTEX
  8
1
  6
CONTINUOUS
 62
     1
  5
566
 10
326.80163
 20
101.051131
 30
0.0
 42
-0.00594
  0
VERTEX
  8
1
  6
CONTINUOUS
 62
     1
  5
567
 10
326.600017
 20
100.89582
 30
0.0
 42
-0.008921
  0
VERTEX
  8
1
  6
CONTINUOUS
 62
     1
  5
568
 10
326.431301
 20
100.773364
 30
0.0
 42
-0.016392
  0
VERTEX
  8
1
  6
CONTINUOUS
 62
     1
  5
569
 10
326.301541
 20
100.688162
 30
0.0
 42
-0.04458
  0
VERTEX
  8
1
  6
CONTINUOUS
 62
     1
  5
56A
 10
326.215395
 20
100.643271
 30
0.0
 42
-0.317392
  0
VERTEX
  8
1
  6
CONTINUOUS
 62
     1
  5
56B
 10
326.175958
 20
100.640305
 30
0.0
 42
-0.317392
  0
SEQEND
  8
1
  6
CONTINUOUS
 62
     1
  5
56C
  0
POLYLINE
  8
1
  6
CONTINUOUS
 62
     1
  5
56D
 66
     1
 10
0.0
 20
0.0
 30
0.0
210
0.0
220
0.0
230
1.0
  0
VERTEX
  8
1
  6
CONTINUOUS
 62
     1
  5
56E
 10
317.52992
 20
81.451365
 30
0.0
 42
-0.265147
  0
VERTEX
  8
1
  6
CONTINUOUS
 62
     1
  5
56F
 10
317.522112
 20
81.509296
 30
0.0
 42
-0.064653
  0
VERTEX
  8
1
  6
CONTINUOUS
 62
     1
  5
570
 10
317.565219
 20
81.620211
 30
0.0
 42
-0.025822
  0
VERTEX
  8
1
  6
CONTINUOUS
 62
     1
  5
571
 10
317.657452
 20
81.779505
 30
0.0
 42
-0.014504
  0
VERTEX
  8
1
  6
CONTINUOUS
 62
     1
  5
572
 10
317.794981
 20
81.980564
 30
0.0
 42
-0.009896
  0
VERTEX
  8
1
  6
CONTINUOUS
 62
     1
  5
573
 10
317.972096
 20
82.215042
 30
0.0
 42
-0.007708
  0
VERTEX
  8
1
  6
CONTINUOUS
 62
     1
  5
574
 10
318.181445
 20
82.473203
 30
0.0
 42
-0.006655
  0
VERTEX
  8
1
  6
CONTINUOUS
 62
     1
  5
575
 10
318.414335
 20
82.744329
 30
0.0
 42
-0.006278
  0
VERTEX
  8
1
  6
CONTINUOUS
 62
     1
  5
576
 10
318.661097
 20
83.017163
 30
0.0
 42
-0.006439
  0
VERTEX
  8
1
  6
CONTINUOUS
 62
     1
  5
577
 10
318.911487
 20
83.280379
 30
0.0
 42
-0.007196
  0
VERTEX
  8
1
  6
CONTINUOUS
 62
     1
  5
578
 10
319.155108
 20
83.523048
 30
0.0
 42
-0.008852
  0
VERTEX
  8
1
  6
CONTINUOUS
 62
     1
  5
579
 10
319.381847
 20
83.735094
 30
0.0
 42
-0.008852
  0
SEQEND
  8
1
  6
CONTINUOUS
 62
     1
  5
57A
  0
POLYLINE
  8
1
  6
CONTINUOUS
 62
     1
  5
57B
 66
     1
 10
0.0
 20
0.0
 30
0.0
210
0.0
220
0.0
230
1.0
  0
VERTEX
  8
1
  6
CONTINUOUS
 62
     1
  5
57C
 10
319.374349
 20
83.743679
 30
0.0
 42
-0.005019
  0
VERTEX
  8
1
  6
CONTINUOUS
 62
     1
  5
57D
 10
319.16162
 20
83.566974
 30
0.0
 42
-0.004038
  0
VERTEX
  8
1
  6
CONTINUOUS
 62
     1
  5
57E
 10
318.921322
 20
83.374489
 30
0.0
 42
-0.003548
  0
VERTEX
  8
1
  6
CONTINUOUS
 62
     1
  5
57F
 10
318.662084
 20
83.173137
 30
0.0
 42
-0.003367
  0
VERTEX
  8
1
  6
CONTINUOUS
 62
     1
  5
580
 10
318.393214
 20
82.970146
 30
0.0
 42
-0.003436
  0
VERTEX
  8
1
  6
CONTINUOUS
 62
     1
  5
581
 10
318.124367
 20
82.772808
 30
0.0
 42
-0.003778
  0
VERTEX
  8
1
  6
CONTINUOUS
 62
     1
  5
582
 10
317.865199
 20
82.588208
 30
0.0
 42
-0.00451
  0
VERTEX
  8
1
  6
CONTINUOUS
 62
     1
  5
583
 10
317.625014
 20
82.422975
 30
0.0
 42
-0.00594
  0
VERTEX
  8
1
  6
CONTINUOUS
 62
     1
  5
584
 10
317.412439
 20
82.283042
 30
0.0
 42
-0.008921
  0
VERTEX
  8
1
  6
CONTINUOUS
 62
     1
  5
585
 10
317.235107
 20
82.173435
 30
0.0
 42
-0.016392
  0
VERTEX
  8
1
  6
CONTINUOUS
 62
     1
  5
586
 10
317.099385
 20
82.098089
 30
0.0
 42
-0.04458
  0
VERTEX
  8
1
  6
CONTINUOUS
 62
     1
  5
587
 10
317.010148
 20
82.059711
 30
0.0
 42
-0.317392
  0
VERTEX
  8
1
  6
CONTINUOUS
 62
     1
  5
588
 10
316.9706
 20
82.059677
 30
0.0
 42
-0.317392
  0
SEQEND
  8
1
  6
CONTINUOUS
 62
     1
  5
589
  0
POLYLINE
  8
1
  6
CONTINUOUS
 62
     1
  5
58A
 66
     1
 10
0.0
 20
0.0
 30
0.0
210
0.0
220
0.0
230
1.0
  0
VERTEX
  8
1
  6
CONTINUOUS
 62
     1
  5
58B
 10
313.527964
 20
105.204157
 30
0.0
 42
-0.265147
  0
VERTEX
  8
1
  6
CONTINUOUS
 62
     1
  5
58C
 10
313.575895
 20
105.170697
 30
0.0
 42
-0.064653
  0
VERTEX
  8
1
  6
CONTINUOUS
 62
     1
  5
58D
 10
313.628371
 20
105.063896
 30
0.0
 42
-0.025822
  0
VERTEX
  8
1
  6
CONTINUOUS
 62
     1
  5
58E
 10
313.683213
 20
104.888186
 30
0.0
 42
-0.014504
  0
VERTEX
  8
1
  6
CONTINUOUS
 62
     1
  5
58F
 10
313.738144
 20
104.650864
 30
0.0
 42
-0.009896
  0
VERTEX
  8
1
  6
CONTINUOUS
 62
     1
  5
590
 10
313.790884
 20
104.361783
 30
0.0
 42
-0.007708
  0
VERTEX
  8
1
  6
CONTINUOUS
 62
     1
  5
591
 10
313.839243
 20
104.032943
 30
0.0
 42
-0.006655
  0
VERTEX
  8
1
  6
CONTINUOUS
 62
     1
  5
592
 10
313.881213
 20
103.677999
 30
0.0
 42
-0.006278
  0
VERTEX
  8
1
  6
CONTINUOUS
 62
     1
  5
593
 10
313.915052
 20
103.311686
 30
0.0
 42
-0.006439
  0
VERTEX
  8
1
  6
CONTINUOUS
 62
     1
  5
594
 10
313.939355
 20
102.949213
 30
0.0
 42
-0.007196
  0
VERTEX
  8
1
  6
CONTINUOUS
 62
     1
  5
595
 10
313.953113
 20
102.605629
 30
0.0
 42
-0.008852
  0
VERTEX
  8
1
  6
CONTINUOUS
 62
     1
  5
596
 10
313.955755
 20
102.295198
 30
0.0
 42
-0.008852
  0
SEQEND
  8
1
  6
CONTINUOUS
 62
     1
  5
597
  0
POLYLINE
  8
1
  6
CONTINUOUS
 62
     1
  5
598
 66
     1
 10
0.0
 20
0.0
 30
0.0
210
0.0
220
0.0
230
1.0
  0
VERTEX
  8
1
  6
CONTINUOUS
 62
     1
  5
599
 10
313.96715
 20
102.294908
 30
0.0
 42
-0.005019
  0
VERTEX
  8
1
  6
CONTINUOUS
 62
     1
  5
59A
 10
313.981043
 20
102.571105
 30
0.0
 42
-0.004038
  0
VERTEX
  8
1
  6
CONTINUOUS
 62
     1
  5
59B
 10
314.001979
 20
102.878278
 30
0.0
 42
-0.003548
  0
VERTEX
  8
1
  6
CONTINUOUS
 62
     1
  5
59C
 10
314.029206
 20
103.205396
 30
0.0
 42
-0.003367
  0
VERTEX
  8
1
  6
CONTINUOUS
 62
     1
  5
59D
 10
314.061746
 20
103.540713
 30
0.0
 42
-0.003436
  0
VERTEX
  8
1
  6
CONTINUOUS
 62
     1
  5
59E
 10
314.098431
 20
103.872187
 30
0.0
 42
-0.003778
  0
VERTEX
  8
1
  6
CONTINUOUS
 62
     1
  5
59F
 10
314.137943
 20
104.187915
 30
0.0
 42
-0.00451
  0
VERTEX
  8
1
  6
CONTINUOUS
 62
     1
  5
5A0
 10
314.178864
 20
104.47656
 30
0.0
 42
-0.00594
  0
VERTEX
  8
1
  6
CONTINUOUS
 62
     1
  5
5A1
 10
314.219724
 20
104.727757
 30
0.0
 42
-0.008921
  0
VERTEX
  8
1
  6
CONTINUOUS
 62
     1
  5
5A2
 10
314.259055
 20
104.932485
 30
0.0
 42
-0.016392
  0
VERTEX
  8
1
  6
CONTINUOUS
 62
     1
  5
5A3
 10
314.295446
 20
105.083392
 30
0.0
 42
-0.04458
  0
VERTEX
  8
1
  6
CONTINUOUS
 62
     1
  5
5A4
 10
314.32759
 20
105.17506
 30
0.0
 42
-0.317392
  0
VERTEX
  8
1
  6
CONTINUOUS
 62
     1
  5
5A5
 10
314.354332
 20
105.204196
 30
0.0
 42
-0.317392
  0
SEQEND
  8
1
  6
CONTINUOUS
 62
     1
  5
5A6
  0
POLYLINE
  8
1
  6
CONTINUOUS
 62
     1
  5
5A7
 66
     1
 10
0.0
 20
0.0
 30
0.0
210
0.0
220
0.0
230
1.0
  0
VERTEX
  8
1
  6
CONTINUOUS
 62
     1
  5
5A8
 10
314.399784
 20
125.422907
 30
0.0
 42
-0.265147
  0
VERTEX
  8
1
  6
CONTINUOUS
 62
     1
  5
5A9
 10
314.351853
 20
125.456367
 30
0.0
 42
-0.064653
  0
VERTEX
  8
1
  6
CONTINUOUS
 62
     1
  5
5AA
 10
314.299377
 20
125.563168
 30
0.0
 42
-0.025822
  0
VERTEX
  8
1
  6
CONTINUOUS
 62
     1
  5
5AB
 10
314.244535
 20
125.738878
 30
0.0
 42
-0.014504
  0
VERTEX
  8
1
  6
CONTINUOUS
 62
     1
  5
5AC
 10
314.189604
 20
125.9762
 30
0.0
 42
-0.009896
  0
VERTEX
  8
1
  6
CONTINUOUS
 62
     1
  5
5AD
 10
314.136864
 20
126.265281
 30
0.0
 42
-0.007708
  0
VERTEX
  8
1
  6
CONTINUOUS
 62
     1
  5
5AE
 10
314.088505
 20
126.594121
 30
0.0
 42
-0.006655
  0
VERTEX
  8
1
  6
CONTINUOUS
 62
     1
  5
5AF
 10
314.046535
 20
126.949065
 30
0.0
 42
-0.006278
  0
VERTEX
  8
1
  6
CONTINUOUS
 62
     1
  5
5B0
 10
314.012696
 20
127.315378
 30
0.0
 42
-0.006439
  0
VERTEX
  8
1
  6
CONTINUOUS
 62
     1
  5
5B1
 10
313.988393
 20
127.677851
 30
0.0
 42
-0.007196
  0
VERTEX
  8
1
  6
CONTINUOUS
 62
     1
  5
5B2
 10
313.974635
 20
128.021435
 30
0.0
 42
-0.008852
  0
VERTEX
  8
1
  6
CONTINUOUS
 62
     1
  5
5B3
 10
313.971993
 20
128.331866
 30
0.0
 42
-0.008852
  0
SEQEND
  8
1
  6
CONTINUOUS
 62
     1
  5
5B4
  0
POLYLINE
  8
1
  6
CONTINUOUS
 62
     1
  5
5B5
 66
     1
 10
0.0
 20
0.0
 30
0.0
210
0.0
220
0.0
230
1.0
  0
VERTEX
  8
1
  6
CONTINUOUS
 62
     1
  5
5B6
 10
313.960598
 20
128.332156
 30
0.0
 42
-0.005019
  0
VERTEX
  8
1
  6
CONTINUOUS
 62
     1
  5
5B7
 10
313.946705
 20
128.055959
 30
0.0
 42
-0.004038
  0
VERTEX
  8
1
  6
CONTINUOUS
 62
     1
  5
5B8
 10
313.925769
 20
127.748786
 30
0.0
 42
-0.003548
  0
VERTEX
  8
1
  6
CONTINUOUS
 62
     1
  5
5B9
 10
313.898542
 20
127.421668
 30
0.0
 42
-0.003367
  0
VERTEX
  8
1
  6
CONTINUOUS
 62
     1
  5
5BA
 10
313.866002
 20
127.086351
 30
0.0
 42
-0.003436
  0
VERTEX
  8
1
  6
CONTINUOUS
 62
     1
  5
5BB
 10
313.829317
 20
126.754877
 30
0.0
 42
-0.003778
  0
VERTEX
  8
1
  6
CONTINUOUS
 62
     1
  5
5BC
 10
313.789805
 20
126.439149
 30
0.0
 42
-0.00451
  0
VERTEX
  8
1
  6
CONTINUOUS
 62
     1
  5
5BD
 10
313.748884
 20
126.150504
 30
0.0
 42
-0.00594
  0
VERTEX
  8
1
  6
CONTINUOUS
 62
     1
  5
5BE
 10
313.708024
 20
125.899307
 30
0.0
 42
-0.008921
  0
VERTEX
  8
1
  6
CONTINUOUS
 62
     1
  5
5BF
 10
313.668693
 20
125.694579
 30
0.0
 42
-0.016392
  0
VERTEX
  8
1
  6
CONTINUOUS
 62
     1
  5
5C0
 10
313.632302
 20
125.543672
 30
0.0
 42
-0.04458
  0
VERTEX
  8
1
  6
CONTINUOUS
 62
     1
  5
5C1
 10
313.600158
 20
125.452004
 30
0.0
 42
-0.317392
  0
VERTEX
  8
1
  6
CONTINUOUS
 62
     1
  5
5C2
 10
313.573416
 20
125.422868
 30
0.0
 42
-0.317392
  0
SEQEND
  8
1
  6
CONTINUOUS
 62
     1
  5
5C3
  0
LINE
  8
1
  6
CONTINUOUS
 62
     4
  5
5C4
 10
354.39175
 20
107.01625
 30
0.0
 11
361.51175
 21
114.13625
 31
0.0
  0
LINE
  8
1
  6
CONTINUOUS
 62
     4
  5
5C5
 10
345.13175
 20
106.47625
 30
0.0
 11
338.01175
 21
113.61625
 31
0.0
  0
POLYLINE
  8
1
  6
CONTINUOUS
 62
     1
  5
5C6
 66
     1
 10
0.0
 20
0.0
 30
0.0
210
0.0
220
0.0
230
1.0
  0
VERTEX
  8
1
  6
CONTINUOUS
 62
     1
  5
5C7
 10
356.124889
 20
109.369546
 30
0.0
 42
-0.265147
  0
VERTEX
  8
1
  6
CONTINUOUS
 62
     1
  5
5C8
 10
356.135122
 20
109.311994
 30
0.0
 42
-0.064653
  0
VERTEX
  8
1
  6
CONTINUOUS
 62
     1
  5
5C9
 10
356.096707
 20
109.199368
 30
0.0
 42
-0.025822
  0
VERTEX
  8
1
  6
CONTINUOUS
 62
     1
  5
5CA
 10
356.011241
 20
109.036344
 30
0.0
 42
-0.014504
  0
VERTEX
  8
1
  6
CONTINUOUS
 62
     1
  5
5CB
 10
355.882271
 20
108.82969
 30
0.0
 42
-0.009896
  0
VERTEX
  8
1
  6
CONTINUOUS
 62
     1
  5
5CC
 10
355.715153
 20
108.587985
 30
0.0
 42
-0.007708
  0
VERTEX
  8
1
  6
CONTINUOUS
 62
     1
  5
5CD
 10
355.516823
 20
108.321266
 30
0.0
 42
-0.006655
  0
VERTEX
  8
1
  6
CONTINUOUS
 62
     1
  5
5CE
 10
355.295517
 20
108.040605
 30
0.0
 42
-0.006278
  0
VERTEX
  8
1
  6
CONTINUOUS
 62
     1
  5
5CF
 10
355.060423
 20
107.757655
 30
0.0
 42
-0.006439
  0
VERTEX
  8
1
  6
CONTINUOUS
 62
     1
  5
5D0
 10
354.8213
 20
107.484163
 30
0.0
 42
-0.007196
  0
VERTEX
  8
1
  6
CONTINUOUS
 62
     1
  5
5D1
 10
354.588077
 20
107.231484
 30
0.0
 42
-0.008852
  0
VERTEX
  8
1
  6
CONTINUOUS
 62
     1
  5
5D2
 10
354.370437
 20
107.010108
 30
0.0
 42
-0.008852
  0
SEQEND
  8
1
  6
CONTINUOUS
 62
     1
  5
5D3
  0
POLYLINE
  8
1
  6
CONTINUOUS
 62
     1
  5
5D4
 66
     1
 10
0.0
 20
0.0
 30
0.0
210
0.0
220
0.0
230
1.0
  0
VERTEX
  8
1
  6
CONTINUOUS
 62
     1
  5
5D5
 10
354.37829
 20
107.001845
 30
0.0
 42
-0.005019
  0
VERTEX
  8
1
  6
CONTINUOUS
 62
     1
  5
5D6
 10
354.583415
 20
107.187322
 30
0.0
 42
-0.004038
  0
VERTEX
  8
1
  6
CONTINUOUS
 62
     1
  5
5D7
 10
354.815423
 20
107.389722
 30
0.0
 42
-0.003548
  0
VERTEX
  8
1
  6
CONTINUOUS
 62
     1
  5
5D8
 10
355.065983
 20
107.601777
 30
0.0
 42
-0.003367
  0
VERTEX
  8
1
  6
CONTINUOUS
 62
     1
  5
5D9
 10
355.326097
 20
107.815873
 30
0.0
 42
-0.003436
  0
VERTEX
  8
1
  6
CONTINUOUS
 62
     1
  5
5DA
 10
355.586424
 20
108.02432
 30
0.0
 42
-0.003778
  0
VERTEX
  8
1
  6
CONTINUOUS
 62
     1
  5
5DB
 10
355.837617
 20
108.219635
 30
0.0
 42
-0.00451
  0
VERTEX
  8
1
  6
CONTINUOUS
 62
     1
  5
5DC
 10
356.070656
 20
108.394802
 30
0.0
 42
-0.00594
  0
VERTEX
  8
1
  6
CONTINUOUS
 62
     1
  5
5DD
 10
356.277171
 20
108.543533
 30
0.0
 42
-0.008921
  0
VERTEX
  8
1
  6
CONTINUOUS
 62
     1
  5
5DE
 10
356.449747
 20
108.660486
 30
0.0
 42
-0.016392
  0
VERTEX
  8
1
  6
CONTINUOUS
 62
     1
  5
5DF
 10
356.582187
 20
108.741461
 30
0.0
 42
-0.04458
  0
VERTEX
  8
1
  6
CONTINUOUS
 62
     1
  5
5E0
 10
356.669734
 20
108.783551
 30
0.0
 42
-0.317392
  0
VERTEX
  8
1
  6
CONTINUOUS
 62
     1
  5
5E1
 10
356.709247
 20
108.785244
 30
0.0
 42
-0.317392
  0
SEQEND
  8
1
  6
CONTINUOUS
 62
     1
  5
5E2
  0
POLYLINE
  8
1
  6
CONTINUOUS
 62
     1
  5
5E3
 66
     1
 10
0.0
 20
0.0
 30
0.0
210
0.0
220
0.0
230
1.0
  0
VERTEX
  8
1
  6
CONTINUOUS
 62
     1
  5
5E4
 10
342.773962
 20
108.223709
 30
0.0
 42
-0.265147
  0
VERTEX
  8
1
  6
CONTINUOUS
 62
     1
  5
5E5
 10
342.831514
 20
108.233942
 30
0.0
 42
-0.064653
  0
VERTEX
  8
1
  6
CONTINUOUS
 62
     1
  5
5E6
 10
342.94414
 20
108.195527
 30
0.0
 42
-0.025822
  0
VERTEX
  8
1
  6
CONTINUOUS
 62
     1
  5
5E7
 10
343.107164
 20
108.110061
 30
0.0
 42
-0.014504
  0
VERTEX
  8
1
  6
CONTINUOUS
 62
     1
  5
5E8
 10
343.313818
 20
107.981091
 30
0.0
 42
-0.009896
  0
VERTEX
  8
1
  6
CONTINUOUS
 62
     1
  5
5E9
 10
343.555523
 20
107.813973
 30
0.0
 42
-0.007708
  0
VERTEX
  8
1
  6
CONTINUOUS
 62
     1
  5
5EA
 10
343.822242
 20
107.615643
 30
0.0
 42
-0.006655
  0
VERTEX
  8
1
  6
CONTINUOUS
 62
     1
  5
5EB
 10
344.102903
 20
107.394337
 30
0.0
 42
-0.006278
  0
VERTEX
  8
1
  6
CONTINUOUS
 62
     1
  5
5EC
 10
344.385853
 20
107.159243
 30
0.0
 42
-0.006439
  0
VERTEX
  8
1
  6
CONTINUOUS
 62
     1
  5
5ED
 10
344.659345
 20
106.92012
 30
0.0
 42
-0.007196
  0
VERTEX
  8
1
  6
CONTINUOUS
 62
     1
  5
5EE
 10
344.912024
 20
106.686897
 30
0.0
 42
-0.008852
  0
VERTEX
  8
1
  6
CONTINUOUS
 62
     1
  5
5EF
 10
345.1334
 20
106.469257
 30
0.0
 42
-0.008852
  0
SEQEND
  8
1
  6
CONTINUOUS
 62
     1
  5
5F0
  0
POLYLINE
  8
1
  6
CONTINUOUS
 62
     1
  5
5F1
 66
     1
 10
0.0
 20
0.0
 30
0.0
210
0.0
220
0.0
230
1.0
  0
VERTEX
  8
1
  6
CONTINUOUS
 62
     1
  5
5F2
 10
345.141663
 20
106.47711
 30
0.0
 42
-0.005019
  0
VERTEX
  8
1
  6
CONTINUOUS
 62
     1
  5
5F3
 10
344.956186
 20
106.682235
 30
0.0
 42
-0.004038
  0
VERTEX
  8
1
  6
CONTINUOUS
 62
     1
  5
5F4
 10
344.753786
 20
106.914243
 30
0.0
 42
-0.003548
  0
VERTEX
  8
1
  6
CONTINUOUS
 62
     1
  5
5F5
 10
344.541731
 20
107.164803
 30
0.0
 42
-0.003367
  0
VERTEX
  8
1
  6
CONTINUOUS
 62
     1
  5
5F6
 10
344.327635
 20
107.424917
 30
0.0
 42
-0.003436
  0
VERTEX
  8
1
  6
CONTINUOUS
 62
     1
  5
5F7
 10
344.119188
 20
107.685244
 30
0.0
 42
-0.003778
  0
VERTEX
  8
1
  6
CONTINUOUS
 62
     1
  5
5F8
 10
343.923873
 20
107.936437
 30
0.0
 42
-0.00451
  0
VERTEX
  8
1
  6
CONTINUOUS
 62
     1
  5
5F9
 10
343.748706
 20
108.169476
 30
0.0
 42
-0.00594
  0
VERTEX
  8
1
  6
CONTINUOUS
 62
     1
  5
5FA
 10
343.599975
 20
108.375991
 30
0.0
 42
-0.008921
  0
VERTEX
  8
1
  6
CONTINUOUS
 62
     1
  5
5FB
 10
343.483022
 20
108.548567
 30
0.0
 42
-0.016392
  0
VERTEX
  8
1
  6
CONTINUOUS
 62
     1
  5
5FC
 10
343.402047
 20
108.681007
 30
0.0
 42
-0.04458
  0
VERTEX
  8
1
  6
CONTINUOUS
 62
     1
  5
5FD
 10
343.359957
 20
108.768554
 30
0.0
 42
-0.317392
  0
VERTEX
  8
1
  6
CONTINUOUS
 62
     1
  5
5FE
 10
343.358264
 20
108.808067
 30
0.0
 42
-0.317392
  0
SEQEND
  8
1
  6
CONTINUOUS
 62
     1
  5
5FF
  0
TEXT
  8
1
  6
CONTINUOUS
 62
     4
  5
600
 10
361.09175
 20
113.19625
 30
0.0
 40
2.016
  1
+
  7
MONOTXT
 11
361.09175
 21
114.20425
 31
0.0
210
0.0
220
0.0
230
1.0
 73
     2
  0
TEXT
  8
1
  6
CONTINUOUS
 62
     4
  5
601
 10
337.49175
 20
112.63625
 30
0.0
 40
2.016
  1
+
  7
MONOTXT
 11
337.49175
 21
113.64425
 31
0.0
210
0.0
220
0.0
230
1.0
 73
     2
  0
LINE
  8
1
  6
CONTINUOUS
 62
     4
  5
602
 10
337.71175
 20
113.77625
 30
0.0
 11
326.05175
 21
137.07625
 31
0.0
  0
POINT
  8
1
  6
CONTINUOUS
 62
     4
  5
603
 10
326.05175
 20
137.07625
 30
0.0
  0
LINE
  8
1
  6
CONTINUOUS
 62
     4
  5
604
 10
326.05175
 20
137.07625
 30
0.0
 11
321.37175
 21
137.07625
 31
0.0
  0
POLYLINE
  8
1
  6
CONTINUOUS
 62
     1
  5
605
 66
     1
 10
0.0
 20
0.0
 30
0.0
210
0.0
220
0.0
230
1.0
  0
VERTEX
  8
1
  6
CONTINUOUS
 62
     1
  5
606
 10
336.017771
 20
116.172168
 30
0.0
 42
-0.265147
  0
VERTEX
  8
1
  6
CONTINUOUS
 62
     1
  5
607
 10
336.075606
 20
116.163676
 30
0.0
 42
-0.064653
  0
VERTEX
  8
1
  6
CONTINUOUS
 62
     1
  5
608
 10
336.170304
 20
116.091618
 30
0.0
 42
-0.025822
  0
VERTEX
  8
1
  6
CONTINUOUS
 62
     1
  5
609
 10
336.297936
 20
115.958985
 30
0.0
 42
-0.014504
  0
VERTEX
  8
1
  6
CONTINUOUS
 62
     1
  5
60A
 10
336.453202
 20
115.771283
 30
0.0
 42
-0.009896
  0
VERTEX
  8
1
  6
CONTINUOUS
 62
     1
  5
60B
 10
336.629655
 20
115.536307
 30
0.0
 42
-0.007708
  0
VERTEX
  8
1
  6
CONTINUOUS
 62
     1
  5
60C
 10
336.81997
 20
115.263811
 30
0.0
 42
-0.006655
  0
VERTEX
  8
1
  6
CONTINUOUS
 62
     1
  5
60D
 10
337.016245
 20
114.965109
 30
0.0
 42
-0.006278
  0
VERTEX
  8
1
  6
CONTINUOUS
 62
     1
  5
60E
 10
337.210332
 20
114.652602
 30
0.0
 42
-0.006439
  0
VERTEX
  8
1
  6
CONTINUOUS
 62
     1
  5
60F
 10
337.394172
 20
114.339264
 30
0.0
 42
-0.007196
  0
VERTEX
  8
1
  6
CONTINUOUS
 62
     1
  5
610
 10
337.560133
 20
114.038106
 30
0.0
 42
-0.008852
  0
VERTEX
  8
1
  6
CONTINUOUS
 62
     1
  5
611
 10
337.701325
 20
113.761629
 30
0.0
 42
-0.008852
  0
SEQEND
  8
1
  6
CONTINUOUS
 62
     1
  5
612
  0
POLYLINE
  8
1
  6
CONTINUOUS
 62
     1
  5
613
 66
     1
 10
0.0
 20
0.0
 30
0.0
210
0.0
220
0.0
230
1.0
  0
VERTEX
  8
1
  6
CONTINUOUS
 62
     1
  5
614
 10
337.711646
 20
113.766466
 30
0.0
 42
-0.005019
  0
VERTEX
  8
1
  6
CONTINUOUS
 62
     1
  5
615
 10
337.600554
 20
114.019718
 30
0.0
 42
-0.004038
  0
VERTEX
  8
1
  6
CONTINUOUS
 62
     1
  5
616
 10
337.481908
 20
114.303824
 30
0.0
 42
-0.003548
  0
VERTEX
  8
1
  6
CONTINUOUS
 62
     1
  5
617
 10
337.359968
 20
114.608584
 30
0.0
 42
-0.003367
  0
VERTEX
  8
1
  6
CONTINUOUS
 62
     1
  5
618
 10
337.239115
 20
114.923053
 30
0.0
 42
-0.003436
  0
VERTEX
  8
1
  6
CONTINUOUS
 62
     1
  5
619
 10
337.123687
 20
115.235938
 30
0.0
 42
-0.003778
  0
VERTEX
  8
1
  6
CONTINUOUS
 62
     1
  5
61A
 10
337.01783
 20
115.536004
 30
0.0
 42
-0.00451
  0
VERTEX
  8
1
  6
CONTINUOUS
 62
     1
  5
61B
 10
336.925345
 20
115.812477
 30
0.0
 42
-0.00594
  0
VERTEX
  8
1
  6
CONTINUOUS
 62
     1
  5
61C
 10
336.849552
 20
116.055427
 30
0.0
 42
-0.008921
  0
VERTEX
  8
1
  6
CONTINUOUS
 62
     1
  5
61D
 10
336.793174
 20
116.256131
 30
0.0
 42
-0.016392
  0
VERTEX
  8
1
  6
CONTINUOUS
 62
     1
  5
61E
 10
336.758236
 20
116.407381
 30
0.0
 42
-0.04458
  0
VERTEX
  8
1
  6
CONTINUOUS
 62
     1
  5
61F
 10
336.745991
 20
116.503746
 30
0.0
 42
-0.317392
  0
VERTEX
  8
1
  6
CONTINUOUS
 62
     1
  5
620
 10
336.756879
 20
116.541766
 30
0.0
 42
-0.317392
  0
SEQEND
  8
1
  6
CONTINUOUS
 62
     1
  5
621
  0
TEXT
  8
1
  6
CONTINUOUS
 62
     4
  5
622
 10
376.87175
 20
172.61625
 30
0.0
 40
2.016
  1
CONDUIT
  7
MONOTXT
 11
376.87175
 21
173.62425
 31
0.0
210
0.0
220
0.0
230
1.0
 73
     2
  0
TEXT
  8
1
  6
CONTINUOUS
 62
     4
  5
623
 10
293.39175
 20
164.83625
 30
0.0
 40
2.016
  1
TRAFFIC LIGHTING
  7
MONOTXT
 11
293.39175
 21
165.84425
 31
0.0
210
0.0
220
0.0
230
1.0
 73
     2
  0
TEXT
  8
1
  6
CONTINUOUS
 62
     4
  5
624
 10
293.39175
 20
161.81625
 30
0.0
 40
2.016
  1
GROUND ROD
  7
MONOTXT
 11
293.39175
 21
162.82425
 31
0.0
210
0.0
220
0.0
230
1.0
 73
     2
  0
TEXT
  8
1
  6
CONTINUOUS
 62
     4
  5
625
 10
372.95175
 20
132.65625
 30
0.0
 40
2.016
  1
3"
  7
MONOTXT
 11
372.95175
 21
133.66425
 31
0.0
210
0.0
220
0.0
230
1.0
 73
     2
  0
TEXT
  8
1
  6
CONTINUOUS
 62
     4
  5
626
 10
339.63175
 20
112.91625
 30
0.0
 40
2.015917
  1
R
 50
315.0
  7
MONOTXT
 11
340.344514
 21
113.629014
 31
0.0
210
0.0
220
0.0
230
1.0
 73
     2
  0
TEXT
  8
1
  6
CONTINUOUS
 62
     4
  5
627
 10
359.09175
 20
112.65625
 30
0.0
 40
2.016
  1
R
 50
45.0
  7
MONOTXT
 11
358.378986
 21
113.369014
 31
0.0
210
0.0
220
0.0
230
1.0
 73
     2
  0
TEXT
  8
1
  6
CONTINUOUS
 62
     4
  5
628
 10
356.95175
 20
134.75625
 30
0.0
 40
2.016
  1
4"
 50
45.0
  7
MONOTXT
 11
356.238986
 21
135.469014
 31
0.0
210
0.0
220
0.0
230
1.0
 73
     2
  0
TEXT
  8
1
  6
CONTINUOUS
 62
     4
  5
629
 10
301.41175
 20
135.87625
 30
0.0
 40
2.016
  1
SEE NOTE 5
  7
MONOTXT
 11
301.41175
 21
136.88425
 31
0.0
210
0.0
220
0.0
230
1.0
 73
     2
  0
TEXT
  8
1
  6
CONTINUOUS
 62
     4
  5
62A
 10
308.19175
 20
116.51625
 30
0.0
 40
2.016
  1
18"
  7
MONOTXT
 72
     4
 11
310.183917
 21
117.52425
 31
0.0
210
0.0
220
0.0
230
1.0
  0
TEXT
  8
1
  6
CONTINUOUS
 62
     4
  5
62B
 10
307.61175
 20
113.47625
 30
0.0
 40
2.016
  1
MIN.
  7
MONOTXT
 72
     4
 11
310.175417
 21
114.48425
 31
0.0
210
0.0
220
0.0
230
1.0
  0
TEXT
  8
1
  6
CONTINUOUS
 62
     4
  5
62C
 10
277.65175
 20
97.59625
 30
0.0
 40
2.016
  1
GROUND WIRE CLAMP
  7
MONOTXT
 11
277.65175
 21
98.60425
 31
0.0
210
0.0
220
0.0
230
1.0
 73
     2
  0
TEXT
  8
1
  6
CONTINUOUS
 62
     4
  5
62D
 10
284.31175
 20
88.15625
 30
0.0
 40
2.016
  1
1/2" CONDUIT
  7
MONOTXT
 11
284.31175
 21
89.16425
 31
0.0
210
0.0
220
0.0
230
1.0
 73
     2
  0
TEXT
  8
1
  6
CONTINUOUS
 62
     4
  5
62E
 10
263.77175
 20
78.13625
 30
0.0
 40
2.016
  1
TRAFFIC LIGHTING
  7
MONOTXT
 11
263.77175
 21
79.14425
 31
0.0
210
0.0
220
0.0
230
1.0
 73
     2
  0
TEXT
  8
1
  6
CONTINUOUS
 62
     4
  5
62F
 10
263.77175
 20
75.11625
 30
0.0
 40
2.016
  1
GROUND ROD (3/4" X 8'-0")
  7
MONOTXT
 11
263.77175
 21
76.12425
 31
0.0
210
0.0
220
0.0
230
1.0
 73
     2
  0
TEXT
  8
1
  6
CONTINUOUS
 62
     4
  5
630
 10
379.79175
 20
62.37625
 30
0.0
 40
2.016
  1
3"
  7
MONOTXT
 11
379.79175
 21
63.38425
 31
0.0
210
0.0
220
0.0
230
1.0
 73
     2
  0
TEXT
  8
1
  6
CONTINUOUS
 62
     4
  5
631
 10
392.95175
 20
90.89625
 30
0.0
 40
2.016
  1
DEPTH
  7
MONOTXT
 11
392.95175
 21
91.90425
 31
0.0
210
0.0
220
0.0
230
1.0
 73
     2
  0
TEXT
  8
1
  6
CONTINUOUS
 62
     4
  5
632
 10
320.19175
 20
32.268583
 30
0.0
 40
4.032
  1
FOUNDATION DETAILS
  7
MONOTXT
 11
320.19175
 21
34.284583
 31
0.0
210
0.0
220
0.0
230
1.0
 73
     2
  0
LINE
  8
1
  6
CONTINUOUS
 62
     4
  5
633
 10
317.77175
 20
29.428583
 30
0.0
 11
387.97175
 21
29.428583
 31
0.0
  0
TEXT
  8
1
  6
CONTINUOUS
 62
     4
  5
634
 10
183.826833
 20
106.251083
 30
0.0
 40
2.016
  1
SITE GRADE AS REQUIRED
  7
MONOTXT
 11
183.826833
 21
107.259083
 31
0.0
210
0.0
220
0.0
230
1.0
 73
     2
  0
TEXT
  8
1
  6
CONTINUOUS
 62
     4
  5
635
 10
183.826833
 20
103.235083
 30
0.0
 40
2.016
  1
WITH EXCAVATED MATERIAL
  7
MONOTXT
 11
183.826833
 21
104.243083
 31
0.0
210
0.0
220
0.0
230
1.0
 73
     2
  0
TEXT
  8
1
  6
CONTINUOUS
 62
     4
  5
636
 10
364.21175
 20
191.42425
 30
0.0
 40
2.0
  1
B.C.  (NOTE - 3 ANCHOR BOLTS MAY BE
  7
MONOTXT
 11
364.21175
 21
193.42425
 31
0.0
210
0.0
220
0.0
230
1.0
 73
     3
  0
TEXT
  8
1
  6
CONTINUOUS
 62
     4
  5
637
 10
364.21175
 20
187.42425
 30
0.0
 40
2.0
  1
     USED ON SOME TYPE VII  POLES)
  7
MONOTXT
 11
364.21175
 21
189.42425
 31
0.0
210
0.0
220
0.0
230
1.0
 73
     3
  0
TEXT
  8
1
  6
CONTINUOUS
 62
     4
  5
638
 10
363.11175
 20
140.97625
 30
0.0
 40
2.016
  1
EXCEPT USE 3" WHEN USING
  7
MONOTXT
 11
363.11175
 21
141.98425
 31
0.0
210
0.0
220
0.0
230
1.0
 73
     2
  0
TEXT
  8
1
  6
CONTINUOUS
 62
     4
  5
639
 10
363.11175
 20
137.96025
 30
0.0
 40
2.016
  1
TRANSFORMER BASES
  7
MONOTXT
 11
363.11175
 21
138.96825
 31
0.0
210
0.0
220
0.0
230
1.0
 73
     2
  0
LINE
  8
1
  6
CONTINUOUS
 62
     7
  5
63A
 10
500.70675
 20
104.258583
 30
0.0
 11
496.70675
 21
104.258583
 31
0.0
  0
LINE
  8
1
  6
CONTINUOUS
 62
     7
  5
63B
 10
498.70675
 20
107.722667
 30
0.0
 11
496.70675
 21
104.258583
 31
0.0
  0
LINE
  8
1
  6
CONTINUOUS
 62
     7
  5
63C
 10
498.70675
 20
107.722667
 30
0.0
 11
500.70675
 21
104.258583
 31
0.0
  0
LINE
  8
1
  6
CONTINUOUS
 62
     7
  5
63D
 10
500.86775
 20
109.57425
 30
0.0
 11
496.86775
 21
109.57425
 31
0.0
  0
LINE
  8
1
  6
CONTINUOUS
 62
     7
  5
63E
 10
498.86775
 20
113.038333
 30
0.0
 11
496.86775
 21
109.57425
 31
0.0
  0
LINE
  8
1
  6
CONTINUOUS
 62
     7
  5
63F
 10
498.86775
 20
113.038333
 30
0.0
 11
500.86775
 21
109.57425
 31
0.0
  0
LINE
  8
1
  6
CONTINUOUS
 62
     7
  5
640
 10
502.478083
 20
42.2885
 30
0.0
 11
498.478083
 21
42.2885
 31
0.0
  0
LINE
  8
1
  6
CONTINUOUS
 62
     7
  5
641
 10
500.478083
 20
45.752583
 30
0.0
 11
498.478083
 21
42.2885
 31
0.0
  0
LINE
  8
1
  6
CONTINUOUS
 62
     7
  5
642
 10
500.478083
 20
45.752583
 30
0.0
 11
502.478083
 21
42.2885
 31
0.0
  0
LINE
  8
1
  6
CONTINUOUS
 62
     7
  5
643
 10
502.431667
 20
37.709083
 30
0.0
 11
498.431667
 21
37.709083
 31
0.0
  0
LINE
  8
1
  6
CONTINUOUS
 62
     7
  5
644
 10
500.431667
 20
41.173167
 30
0.0
 11
498.431667
 21
37.709083
 31
0.0
  0
LINE
  8
1
  6
CONTINUOUS
 62
     7
  5
645
 10
500.431667
 20
41.173167
 30
0.0
 11
502.431667
 21
37.709083
 31
0.0
  0
TEXT
  8
1
  6
CONTINUOUS
 62
     7
  5
646
 10
498.47625
 20
109.95575
 30
0.0
 40
2.0
  1
1
  7
MONOTXT
210
0.0
220
0.0
230
1.0
  0
TEXT
  8
1
  6
CONTINUOUS
 62
     7
  5
647
 10
497.993083
 20
104.523
 30
0.0
 40
2.0
  1
2
  7
MONOTXT
210
0.0
220
0.0
230
1.0
  0
TEXT
  8
1
  6
CONTINUOUS
 62
     7
  5
648
 10
502.101917
 20
110.161417
 30
0.0
 40
2.0
  1
DELETED ALLOY
  7
MONOTXT
210
0.0
220
0.0
230
1.0
  0
TEXT
  8
1
  6
CONTINUOUS
 62
     7
  5
649
 10
501.754333
 20
105.084417
 30
0.0
 40
2.0
  1
CHANGED GROUND ROD
  7
MONOTXT
210
0.0
220
0.0
230
1.0
  0
TEXT
  8
1
  6
CONTINUOUS
 62
     7
  5
64A
 10
500.181083
 20
42.617
 30
0.0
 40
2.0
  1
1
  7
MONOTXT
210
0.0
220
0.0
230
1.0
  0
TEXT
  8
1
  6
CONTINUOUS
 62
     7
  5
64B
 10
499.766417
 20
37.984917
 30
0.0
 40
2.0
  1
2
  7
MONOTXT
210
0.0
220
0.0
230
1.0
  0
TEXT
  8
1
  6
CONTINUOUS
 62
     7
  5
64C
 10
504.425167
 20
71.727417
 30
0.0
 40
6.992667
  1
ALUMINUM POLE FOUNDATIONS
  7
txt
 72
     1
 11
582.779
 21
78.720083
 31
0.0
210
0.0
220
0.0
230
1.0
 73
     3
  0
TEXT
  8
1
  6
CONTINUOUS
 62
    30
  5
64D
 10
511.59825
 20
377.872667
 30
0.0
 40
2.0
  1
FOUNDATION NOTE:
  7
MONOTXT
 11
511.59825
 21
379.872667
 31
0.0
210
0.0
220
0.0
230
1.0
 73
     3
  0
TEXT
  8
1
  6
CONTINUOUS
 62
    30
  5
64E
 10
511.59825
 20
373.872667
 30
0.0
 40
2.0
  1
 
  7
MONOTXT
 11
511.59825
 21
375.872667
 31
0.0
210
0.0
220
0.0
230
1.0
 73
     3
  0
TEXT
  8
1
  6
CONTINUOUS
 62
    30
  5
64F
 10
511.59825
 20
369.872667
 30
0.0
 40
2.0
  1
1.   CONCRETE:
  7
MONOTXT
 11
511.59825
 21
371.872667
 31
0.0
210
0.0
220
0.0
230
1.0
 73
     3
  0
TEXT
  8
1
  6
CONTINUOUS
 62
    30
  5
650
 10
511.59825
 20
365.872667
 30
0.0
 40
2.0
  1
     A.   ALL EXPOSED CONCRETE SHALL HAVE A NORMAL FINISH.
  7
MONOTXT
 11
511.59825
 21
367.872667
 31
0.0
210
0.0
220
0.0
230
1.0
 73
     3
  0
TEXT
  8
1
  6
CONTINUOUS
 62
    30
  5
651
 10
511.59825
 20
361.872667
 30
0.0
 40
2.0
  1
     B.   ALL OUTSIDE CONCRETE CORNERS AND EDGES SHALL HAVE A  3/4 " CHAMFER.
  7
MONOTXT
 11
511.59825
 21
363.872667
 31
0.0
210
0.0
220
0.0
230
1.0
 73
     3
  0
TEXT
  8
1
  6
CONTINUOUS
 62
    30
  5
652
 10
511.59825
 20
357.872667
 30
0.0
 40
2.0
  1
     C.   CONCRETE TO BE RODDED OR VIBRATED WHILE POURING.
  7
MONOTXT
 11
511.59825
 21
359.872667
 31
0.0
210
0.0
220
0.0
230
1.0
 73
     3
  0
TEXT
  8
1
  6
CONTINUOUS
 62
    30
  5
653
 10
511.59825
 20
353.872667
 30
0.0
 40
2.0
  1
     D.   ALL CONCRETE SHALL BE CLASS "B".
  7
MONOTXT
 11
511.59825
 21
355.872667
 31
0.0
210
0.0
220
0.0
230
1.0
 73
     3
  0
TEXT
  8
1
  6
CONTINUOUS
 62
    30
  5
654
 10
511.59825
 20
349.872667
 30
0.0
 40
2.0
  1
 
  7
MONOTXT
 11
511.59825
 21
351.872667
 31
0.0
210
0.0
220
0.0
230
1.0
 73
     3
  0
TEXT
  8
1
  6
CONTINUOUS
 62
    30
  5
655
 10
511.59825
 20
345.872667
 30
0.0
 40
2.0
  1
2.   STEEL:
  7
MONOTXT
 11
511.59825
 21
347.872667
 31
0.0
210
0.0
220
0.0
230
1.0
 73
     3
  0
TEXT
  8
1
  6
CONTINUOUS
 62
    30
  5
656
 10
511.59825
 20
341.872667
 30
0.0
 40
2.0
  1
     A.   REINFORCING STEEL SHALL NOT BE CLOSER THAN 3" TO THE OUTSIDE
  7
MONOTXT
 11
511.59825
 21
343.872667
 31
0.0
210
0.0
220
0.0
230
1.0
 73
     3
  0
TEXT
  8
1
  6
CONTINUOUS
 62
    30
  5
657
 10
511.59825
 20
337.872667
 30
0.0
 40
2.0
  1
        SURFACE OF THE FOOTING AND SHALL BE TIED OR WELDED.
  7
MONOTXT
 11
511.59825
 21
339.872667
 31
0.0
210
0.0
220
0.0
230
1.0
 73
     3
  0
TEXT
  8
1
  6
CONTINUOUS
 62
    30
  5
658
 10
511.59825
 20
333.872667
 30
0.0
 40
2.0
  1
     B.   VERTICAL BARS SHALL BE TIED WITH #4 HOOP BARS AT 1'-0" ON CENTER.
  7
MONOTXT
 11
511.59825
 21
335.872667
 31
0.0
210
0.0
220
0.0
230
1.0
 73
     3
  0
TEXT
  8
1
  6
CONTINUOUS
 62
    30
  5
659
 10
511.59825
 20
329.872667
 30
0.0
 40
2.0
  1
        THE #4 HOOP BARS SHALL HAVE A 1'-0" MINIMUM LAP.
  7
MONOTXT
 11
511.59825
 21
331.872667
 31
0.0
210
0.0
220
0.0
230
1.0
 73
     3
  0
TEXT
  8
1
  6
CONTINUOUS
 62
    30
  5
65A
 10
511.59825
 20
325.872667
 30
0.0
 40
2.0
  1
 
  7
MONOTXT
 11
511.59825
 21
327.872667
 31
0.0
210
0.0
220
0.0
230
1.0
 73
     3
  0
TEXT
  8
1
  6
CONTINUOUS
 62
    30
  5
65B
 10
511.59825
 20
321.872667
 30
0.0
 40
2.0
  1
3.   FOOTINGS:
  7
MONOTXT
 11
511.59825
 21
323.872667
 31
0.0
210
0.0
220
0.0
230
1.0
 73
     3
  0
TEXT
  8
1
  6
CONTINUOUS
 62
    30
  5
65C
 10
511.59825
 20
317.872667
 30
0.0
 40
2.0
  1
     A.   ALL FOOTING IN SIDEWALKS SHALL BE FINISHED FLUSH WITH THE EXISTING
  7
MONOTXT
 11
511.59825
 21
319.872667
 31
0.0
210
0.0
220
0.0
230
1.0
 73
     3
  0
TEXT
  8
1
  6
CONTINUOUS
 62
    30
  5
65D
 10
511.59825
 20
313.872667
 30
0.0
 40
2.0
  1
        SIDEWALKS, UNLESS OTHERWISE SPECIFIED BY THE PROJECT ENGINEER.
  7
MONOTXT
 11
511.59825
 21
315.872667
 31
0.0
210
0.0
220
0.0
230
1.0
 73
     3
  0
TEXT
  8
1
  6
CONTINUOUS
 62
    30
  5
65E
 10
511.59825
 20
309.872667
 30
0.0
 40
2.0
  1
     B.   FOOTINGS MAY BE EITHER CIRCULAR OR SQUARE IN CROSS-SECTION.
  7
MONOTXT
 11
511.59825
 21
311.872667
 31
0.0
210
0.0
220
0.0
230
1.0
 73
     3
  0
TEXT
  8
1
  6
CONTINUOUS
 62
    30
  5
65F
 10
511.59825
 20
305.872667
 30
0.0
 40
2.0
  1
        CIRCULAR FOOTINGS SHALL BE SQUARE FOR THE TOP 12".
  7
MONOTXT
 11
511.59825
 21
307.872667
 31
0.0
210
0.0
220
0.0
230
1.0
 73
     3
  0
TEXT
  8
1
  6
CONTINUOUS
 62
    30
  5
660
 10
511.59825
 20
301.872667
 30
0.0
 40
2.0
  1
     C.   WITH PERMISSION OF THE PROJECT ENGINEER, THE DEPTH OF THE FOOTING
  7
MONOTXT
 11
511.59825
 21
303.872667
 31
0.0
210
0.0
220
0.0
230
1.0
 73
     3
  0
TEXT
  8
1
  6
CONTINUOUS
 62
    30
  5
661
 10
511.59825
 20
297.872667
 30
0.0
 40
2.0
  1
        MAY BE REDUCED ONE (1) FOOT WHEN THE FOOTING IS PLACED IN A CONCRETE
  7
MONOTXT
 11
511.59825
 21
299.872667
 31
0.0
210
0.0
220
0.0
230
1.0
 73
     3
  0
TEXT
  8
1
  6
CONTINUOUS
 62
    30
  5
662
 10
511.59825
 20
293.872667
 30
0.0
 40
2.0
  1
        OR ASPHALTIC CONCRETE SIDEWALK OR PAVED SURFACE. THE FOOTINGS MAY BE
  7
MONOTXT
 11
511.59825
 21
295.872667
 31
0.0
210
0.0
220
0.0
230
1.0
 73
     3
  0
TEXT
  8
1
  6
CONTINUOUS
 62
    30
  5
663
 10
511.59825
 20
289.872667
 30
0.0
 40
2.0
  1
        REDUCED BY ONE (1) FOOT WHEN THE FOOTING IS IN ROCK.
  7
MONOTXT
 11
511.59825
 21
291.872667
 31
0.0
210
0.0
220
0.0
230
1.0
 73
     3
  0
TEXT
  8
1
  6
CONTINUOUS
 62
    30
  5
664
 10
511.59825
 20
285.872667
 30
0.0
 40
2.0
  1
 
  7
MONOTXT
 11
511.59825
 21
287.872667
 31
0.0
210
0.0
220
0.0
230
1.0
 73
     3
  0
TEXT
  8
1
  6
CONTINUOUS
 62
    30
  5
665
 10
511.59825
 20
281.872667
 30
0.0
 40
2.0
  1
4.   FORMS:
  7
MONOTXT
 11
511.59825
 21
283.872667
 31
0.0
210
0.0
220
0.0
230
1.0
 73
     3
  0
TEXT
  8
1
  6
CONTINUOUS
 62
    30
  5
666
 10
511.59825
 20
277.872667
 30
0.0
 40
2.0
  1
     A.   NO FORMS MAY EXTEND TO A DEPTH GREATER THAN 12" UNLESS APPROVAL
  7
MONOTXT
 11
511.59825
 21
279.872667
 31
0.0
210
0.0
220
0.0
230
1.0
 73
     3
  0
TEXT
  8
1
  6
CONTINUOUS
 62
    30
  5
667
 10
511.59825
 20
273.872667
 30
0.0
 40
2.0
  1
        IS GRANTED BY THE PROJECT ENGINEER.
  7
MONOTXT
 11
511.59825
 21
275.872667
 31
0.0
210
0.0
220
0.0
230
1.0
 73
     3
  0
TEXT
  8
1
  6
CONTINUOUS
 62
    30
  5
668
 10
511.59825
 20
269.872667
 30
0.0
 40
2.0
  1
 
  7
MONOTXT
 11
511.59825
 21
271.872667
 31
0.0
210
0.0
220
0.0
230
1.0
 73
     3
  0
TEXT
  8
1
  6
CONTINUOUS
 62
    30
  5
669
 10
511.59825
 20
265.872667
 30
0.0
 40
2.0
  1
5.   CONDUIT:
  7
MONOTXT
 11
511.59825
 21
267.872667
 31
0.0
210
0.0
220
0.0
230
1.0
 73
     3
  0
TEXT
  8
1
  6
CONTINUOUS
 62
    30
  5
66A
 10
511.59825
 20
261.872667
 30
0.0
 40
2.0
  1
     A.   THE RADIUS (R) OF THE CURVE OF THE INNER EDGE OF ANY BEND SHALL NOT
  7
MONOTXT
 11
511.59825
 21
263.872667
 31
0.0
210
0.0
220
0.0
230
1.0
 73
     3
  0
TEXT
  8
1
  6
CONTINUOUS
 62
    30
  5
66B
 10
511.59825
 20
257.872667
 30
0.0
 40
2.0
  1
        BE LESS THAN THE SIZE SPECIFIED IN THE N.E.C.
  7
MONOTXT
 11
511.59825
 21
259.872667
 31
0.0
210
0.0
220
0.0
230
1.0
 73
     3
  0
LINE
  8
1
  6
CONTINUOUS
 62
    30
  5
66C
 10
183.16725
 20
383.648417
 30
0.0
 11
378.16725
 21
383.648417
 31
0.0
  0
LINE
  8
1
  6
CONTINUOUS
 62
    30
  5
66D
 10
183.16725
 20
382.648417
 30
0.0
 11
378.16725
 21
382.648417
 31
0.0
  0
LINE
  8
1
  6
CONTINUOUS
 62
    30
  5
66E
 10
183.16725
 20
376.648417
 30
0.0
 11
378.16725
 21
376.648417
 31
0.0
  0
LINE
  8
1
  6
CONTINUOUS
 62
    30
  5
66F
 10
183.16725
 20
375.648417
 30
0.0
 11
378.16725
 21
375.648417
 31
0.0
  0
LINE
  8
1
  6
CONTINUOUS
 62
    30
  5
670
 10
183.16725
 20
368.648417
 30
0.0
 11
378.16725
 21
368.648417
 31
0.0
  0
LINE
  8
1
  6
CONTINUOUS
 62
    30
  5
671
 10
183.16725
 20
361.648417
 30
0.0
 11
378.16725
 21
361.648417
 31
0.0
  0
LINE
  8
1
  6
CONTINUOUS
 62
    30
  5
672
 10
183.16725
 20
354.648417
 30
0.0
 11
378.16725
 21
354.648417
 31
0.0
  0
LINE
  8
1
  6
CONTINUOUS
 62
    30
  5
673
 10
183.16725
 20
347.648417
 30
0.0
 11
378.16725
 21
347.648417
 31
0.0
  0
LINE
  8
1
  6
CONTINUOUS
 62
    30
  5
674
 10
183.16725
 20
340.648417
 30
0.0
 11
378.16725
 21
340.648417
 31
0.0
  0
LINE
  8
1
  6
CONTINUOUS
 62
    30
  5
675
 10
183.16725
 20
333.648417
 30
0.0
 11
378.16725
 21
333.648417
 31
0.0
  0
LINE
  8
1
  6
CONTINUOUS
 62
    30
  5
676
 10
183.16725
 20
326.648417
 30
0.0
 11
378.16725
 21
326.648417
 31
0.0
  0
LINE
  8
1
  6
CONTINUOUS
 62
    30
  5
677
 10
183.16725
 20
319.648417
 30
0.0
 11
378.16725
 21
319.648417
 31
0.0
  0
LINE
  8
1
  6
CONTINUOUS
 62
    30
  5
678
 10
183.16725
 20
312.648417
 30
0.0
 11
378.16725
 21
312.648417
 31
0.0
  0
LINE
  8
1
  6
CONTINUOUS
 62
    30
  5
679
 10
183.16725
 20
305.648417
 30
0.0
 11
378.16725
 21
305.648417
 31
0.0
  0
LINE
  8
1
  6
CONTINUOUS
 62
    30
  5
67A
 10
183.16725
 20
298.648417
 30
0.0
 11
378.16725
 21
298.648417
 31
0.0
  0
LINE
  8
1
  6
CONTINUOUS
 62
    30
  5
67B
 10
183.16725
 20
291.648417
 30
0.0
 11
378.16725
 21
291.648417
 31
0.0
  0
LINE
  8
1
  6
CONTINUOUS
 62
    30
  5
67C
 10
183.16725
 20
284.648417
 30
0.0
 11
378.16725
 21
284.648417
 31
0.0
  0
LINE
  8
1
  6
CONTINUOUS
 62
    30
  5
67D
 10
183.16725
 20
277.648417
 30
0.0
 11
378.16725
 21
277.648417
 31
0.0
  0
LINE
  8
1
  6
CONTINUOUS
 62
    30
  5
67E
 10
183.16725
 20
270.648417
 30
0.0
 11
378.16725
 21
270.648417
 31
0.0
  0
LINE
  8
1
  6
CONTINUOUS
 62
    30
  5
67F
 10
183.16725
 20
263.648417
 30
0.0
 11
378.16725
 21
263.648417
 31
0.0
  0
LINE
  8
1
  6
CONTINUOUS
 62
    30
  5
680
 10
378.16725
 20
397.648417
 30
0.0
 11
378.16725
 21
263.648417
 31
0.0
  0
LINE
  8
1
  6
CONTINUOUS
 62
    30
  5
681
 10
197.16725
 20
382.648417
 30
0.0
 11
197.16725
 21
263.648417
 31
0.0
  0
LINE
  8
1
  6
CONTINUOUS
 62
    30
  5
682
 10
211.16725
 20
382.648417
 30
0.0
 11
211.16725
 21
263.648417
 31
0.0
  0
LINE
  8
1
  6
CONTINUOUS
 62
    30
  5
683
 10
225.16725
 20
382.648417
 30
0.0
 11
225.16725
 21
263.648417
 31
0.0
  0
LINE
  8
1
  6
CONTINUOUS
 62
    30
  5
684
 10
239.16725
 20
382.648417
 30
0.0
 11
239.16725
 21
263.648417
 31
0.0
  0
LINE
  8
1
  6
CONTINUOUS
 62
    30
  5
685
 10
253.16725
 20
382.648417
 30
0.0
 11
253.16725
 21
263.648417
 31
0.0
  0
LINE
  8
1
  6
CONTINUOUS
 62
    30
  5
686
 10
267.16725
 20
382.648417
 30
0.0
 11
267.16725
 21
263.648417
 31
0.0
  0
LINE
  8
1
  6
CONTINUOUS
 62
    30
  5
687
 10
281.16725
 20
397.648417
 30
0.0
 11
281.16725
 21
263.648417
 31
0.0
  0
LINE
  8
1
  6
CONTINUOUS
 62
    30
  5
688
 10
296.16725
 20
382.648417
 30
0.0
 11
296.16725
 21
263.648417
 31
0.0
  0
LINE
  8
1
  6
CONTINUOUS
 62
    30
  5
689
 10
311.16725
 20
382.648417
 30
0.0
 11
311.16725
 21
263.648417
 31
0.0
  0
LINE
  8
1
  6
CONTINUOUS
 62
    30
  5
68A
 10
326.16725
 20
397.648417
 30
0.0
 11
326.16725
 21
263.648417
 31
0.0
  0
LINE
  8
1
  6
CONTINUOUS
 62
    30
  5
68B
 10
338.16725
 20
382.648417
 30
0.0
 11
338.16725
 21
263.648417
 31
0.0
  0
LINE
  8
1
  6
CONTINUOUS
 62
    30
  5
68C
 10
350.16725
 20
397.648417
 30
0.0
 11
350.16725
 21
263.648417
 31
0.0
  0
LINE
  8
1
  6
CONTINUOUS
 62
    30
  5
68D
 10
364.16725
 20
382.648417
 30
0.0
 11
364.16725
 21
263.648417
 31
0.0
  0
LINE
  8
1
  6
CONTINUOUS
 62
    30
  5
68E
 10
183.16725
 20
397.648417
 30
0.0
 11
281.16725
 21
397.648417
 31
0.0
  0
LINE
  8
1
  6
CONTINUOUS
 62
    30
  5
68F
 10
281.16725
 20
397.648417
 30
0.0
 11
326.16725
 21
397.648417
 31
0.0
  0
LINE
  8
1
  6
CONTINUOUS
 62
    30
  5
690
 10
326.16725
 20
397.648417
 30
0.0
 11
350.16725
 21
397.648417
 31
0.0
  0
LINE
  8
1
  6
CONTINUOUS
 62
    30
  5
691
 10
350.16725
 20
397.648417
 30
0.0
 11
378.16725
 21
397.648417
 31
0.0
  0
LINE
  8
1
  6
CONTINUOUS
 62
    30
  5
692
 10
183.16725
 20
397.648417
 30
0.0
 11
183.16725
 21
383.648417
 31
0.0
  0
LINE
  8
1
  6
CONTINUOUS
 62
    30
  5
693
 10
183.16725
 20
383.648417
 30
0.0
 11
183.16725
 21
263.648417
 31
0.0
  0
TEXT
  8
1
  6
CONTINUOUS
 62
     6
  5
694
 10
221.865167
 20
391.440667
 30
0.0
 40
2.5
  1
POLE SIZE
  7
MONOTXT
210
0.0
220
0.0
230
1.0
  0
TEXT
  8
1
  6
CONTINUOUS
 62
     6
  5
695
 10
292.721917
 20
389.54825
 30
0.0
 40
2.5
  1
FOUNDATION
  7
MONOTXT
210
0.0
220
0.0
230
1.0
  0
TEXT
  8
1
  6
CONTINUOUS
 62
     6
  5
696
 10
327.290333
 20
389.54825
 30
0.0
 40
2.5
  1
ANCHORAGE
  7
MONOTXT
210
0.0
220
0.0
230
1.0
  0
TEXT
  8
1
  6
CONTINUOUS
 62
     6
  5
697
 10
352.057833
 20
391.908417
 30
0.0
 40
2.5
  1
REINFORCING
  7
MONOTXT
 72
     4
 11
363.7605
 21
393.158417
 31
0.0
210
0.0
220
0.0
230
1.0
  0
TEXT
  8
1
  6
CONTINUOUS
 62
     6
  5
698
 10
358.199583
 20
386.408417
 30
0.0
 40
2.5
  1
STEEL
  7
MONOTXT
 72
     4
 11
363.760583
 21
387.658417
 31
0.0
210
0.0
220
0.0
230
1.0
  0
TEXT
  8
1
  6
CONTINUOUS
 62
     6
  5
699
 10
217.7375
 20
386.967667
 30
0.0
 40
2.0
  1
BASE O.D. (INCHES)
  7
MONOTXT
210
0.0
220
0.0
230
1.0
  0
TEXT
  8
1
  6
CONTINUOUS
 62
     6
  5
69A
 10
186.952667
 20
378.709833
 30
0.0
 40
1.75
  1
.125
  7
MONOTXT
210
0.0
220
0.0
230
1.0
  0
TEXT
  8
1
  6
CONTINUOUS
 62
     6
  5
69B
 10
201.227167
 20
378.53775
 30
0.0
 40
1.75
  1
.135
  7
MONOTXT
210
0.0
220
0.0
230
1.0
  0
TEXT
  8
1
  6
CONTINUOUS
 62
     6
  5
69C
 10
214.985833
 20
378.709833
 30
0.0
 40
1.75
  1
.156
  7
MONOTXT
210
0.0
220
0.0
230
1.0
  0
TEXT
  8
1
  6
CONTINUOUS
 62
     6
  5
69D
 10
229.088417
 20
378.53775
 30
0.0
 40
1.75
  1
.188
  7
MONOTXT
210
0.0
220
0.0
230
1.0
  0
TEXT
  8
1
  6
CONTINUOUS
 62
     6
  5
69E
 10
243.362917
 20
378.53775
 30
0.0
 40
1.75
  1
.219
  7
MONOTXT
210
0.0
220
0.0
230
1.0
  0
TEXT
  8
1
  6
CONTINUOUS
 62
     6
  5
69F
 10
256.949583
 20
378.709833
 30
0.0
 40
1.75
  1
.250
  7
MONOTXT
210
0.0
220
0.0
230
1.0
  0
TEXT
  8
1
  6
CONTINUOUS
 62
     6
  5
6A0
 10
270.708167
 20
378.881833
 30
0.0
 40
1.75
  1
.270
  7
MONOTXT
210
0.0
220
0.0
230
1.0
  0
TEXT
  8
1
  6
CONTINUOUS
 62
     6
  5
6A1
 10
282.574917
 20
380.086083
 30
0.0
 40
1.75
  1
DIAMETER
  7
MONOTXT
210
0.0
220
0.0
230
1.0
  0
TEXT
  8
1
  6
CONTINUOUS
 62
     6
  5
6A2
 10
281.410083
 20
377.469083
 30
0.0
 40
1.75
  1
OR
  7
MONOTXT
210
0.0
220
0.0
230
1.0
  0
TEXT
  8
1
  6
CONTINUOUS
 62
     6
  5
6A3
 10
292.676833
 20
377.469083
 30
0.0
 40
1.75
  1
FT
  7
MONOTXT
210
0.0
220
0.0
230
1.0
  0
TEXT
  8
1
  6
CONTINUOUS
 62
     6
  5
6A4
 10
295.206417
 20
377.469083
 30
0.0
 40
1.75
  1
.
  7
MONOTXT
210
0.0
220
0.0
230
1.0
  0
TEXT
  8
1
  6
CONTINUOUS
 62
     6
  5
6A5
 10
292.06025
 20
377.490417
 30
0.0
 40
1.75
  1
(
  7
MONOTXT
210
0.0
220
0.0
230
1.0
  0
TEXT
  8
1
  6
CONTINUOUS
 62
     6
  5
6A6
 10
295.567833
 20
377.511583
 30
0.0
 40
1.75
  1
)
  7
MONOTXT
210
0.0
220
0.0
230
1.0
  0
TEXT
  8
1
  6
CONTINUOUS
 62
     6
  5
6A7
 10
285.916667
 20
377.490333
 30
0.0
 40
1.75
  1
SIDE
  7
MONOTXT
210
0.0
220
0.0
230
1.0
  0
TEXT
  8
1
  6
CONTINUOUS
 62
     6
  5
6A8
 10
288.19925
 20
386.225
 30
0.0
 40
1.75
  1
DEPTH
  7
MONOTXT
 72
     4
 11
292.215917
 21
387.1
 31
0.0
210
0.0
220
0.0
230
1.0
  0
TEXT
  8
1
  6
CONTINUOUS
 62
     6
  5
6A9
 10
288.082083
 20
383.975
 30
0.0
 40
1.75
  1
(FEET)
  7
MONOTXT
 72
     4
 11
292.209083
 21
384.85
 31
0.0
210
0.0
220
0.0
230
1.0
  0
TEXT
  8
1
  6
CONTINUOUS
 62
     6
  5
6AA
 10
299.351833
 20
380.2335
 30
0.0
 40
1.75
  1
DEPTH
  7
MONOTXT
210
0.0
220
0.0
230
1.0
  0
TEXT
  8
1
  6
CONTINUOUS
 62
     6
  5
6AB
 10
299.351833
 20
377.511667
 30
0.0
 40
1.75
  1
(FEET)
  7
MONOTXT
210
0.0
220
0.0
230
1.0
  0
TEXT
  8
1
  6
CONTINUOUS
 62
     6
  5
6AC
 10
313.365083
 20
380.344083
 30
0.0
 40
1.75
  1
VOLUME
  7
MONOTXT
210
0.0
220
0.0
230
1.0
  0
TEXT
  8
1
  6
CONTINUOUS
 62
     6
  5
6AD
 10
314.810583
 20
377.367
 30
0.0
 40
1.75
  1
(YD )
  7
MONOTXT
210
0.0
220
0.0
230
1.0
  0
TEXT
  8
1
  6
CONTINUOUS
 62
     6
  5
6AE
 10
319.640417
 20
378.0305
 30
0.0
 40
1.75
  1
3
  7
MONOTXT
210
0.0
220
0.0
230
1.0
  0
TEXT
  8
1
  6
CONTINUOUS
 62
     6
  5
6AF
 10
326.701333
 20
378.673833
 30
0.0
 40
1.75
  1
B.C.
  7
MONOTXT
210
0.0
220
0.0
230
1.0
  0
TEXT
  8
1
  6
CONTINUOUS
 62
     6
  5
6B0
 10
340.0925
 20
378.4575
 30
0.0
 40
1.75
  1
A.B.
  7
MONOTXT
210
0.0
220
0.0
230
1.0
  0
TEXT
  8
1
  6
CONTINUOUS
 62
     6
  5
6B1
 10
351.11925
 20
378.711
 30
0.0
 40
1.75
  1
NO BARS
  7
MONOTXT
210
0.0
220
0.0
230
1.0
  0
TEXT
  8
1
  6
CONTINUOUS
 62
     6
  5
6B2
 10
368.151333
 20
378.724917
 30
0.0
 40
1.75
  1
SIZE
  7
MONOTXT
210
0.0
220
0.0
230
1.0
  0
TEXT
  8
1
  6
CONTINUOUS
 62
     6
  5
6B3
 10
188.935833
 20
371.251583
 30
0.0
 40
1.75
  1
4
  7
MONOTXT
210
0.0
220
0.0
230
1.0
  0
TEXT
  8
1
  6
CONTINUOUS
 62
     6
  5
6B4
 10
188.935833
 20
364.475083
 30
0.0
 40
1.75
  1
5
  7
MONOTXT
210
0.0
220
0.0
230
1.0
  0
TEXT
  8
1
  6
CONTINUOUS
 62
     6
  5
6B5
 10
199.988583
 20
343.218417
 30
0.0
 40
1.75
  1
8 & 9
  7
MONOTXT
210
0.0
220
0.0
230
1.0
  0
TEXT
  8
1
  6
CONTINUOUS
 62
     6
  5
6B6
 10
227.87
 20
343.432417
 30
0.0
 40
1.75
  1
8 & 9
  7
MONOTXT
210
0.0
220
0.0
230
1.0
  0
TEXT
  8
1
  6
CONTINUOUS
 62
     6
  5
6B7
 10
241.846417
 20
343.361083
 30
0.0
 40
1.75
  1
8 & 9
  7
MONOTXT
210
0.0
220
0.0
230
1.0
  0
TEXT
  8
1
  6
CONTINUOUS
 62
     6
  5
6B8
 10
217.38775
 20
357.342
 30
0.0
 40
1.75
  1
6
  7
MONOTXT
210
0.0
220
0.0
230
1.0
  0
TEXT
  8
1
  6
CONTINUOUS
 62
     6
  5
6B9
 10
217.245083
 20
350.1375
 30
0.0
 40
1.75
  1
7
  7
MONOTXT
210
0.0
220
0.0
230
1.0
  0
TEXT
  8
1
  6
CONTINUOUS
 62
     6
  5
6BA
 10
217.031167
 20
343.07575
 30
0.0
 40
1.75
  1
8
  7
MONOTXT
210
0.0
220
0.0
230
1.0
  0
TEXT
  8
1
  6
CONTINUOUS
 62
     6
  5
6BB
 10
231.2215
 20
350.280167
 30
0.0
 40
1.75
  1
7
  7
MONOTXT
210
0.0
220
0.0
230
1.0
  0
TEXT
  8
1
  6
CONTINUOUS
 62
     6
  5
6BC
 10
230.437083
 20
329.2375
 30
0.0
 40
1.75
  1
10
  7
MONOTXT
210
0.0
220
0.0
230
1.0
  0
TEXT
  8
1
  6
CONTINUOUS
 62
     6
  5
6BD
 10
201.703333
 20
308.143167
 30
0.0
 40
1.75
  1
11.5
  7
MONOTXT
210
0.0
220
0.0
230
1.0
  0
TEXT
  8
1
  6
CONTINUOUS
 62
     6
  5
6BE
 10
202.469667
 20
301.167333
 30
0.0
 40
1.75
  1
12
  7
MONOTXT
210
0.0
220
0.0
230
1.0
  0
TEXT
  8
1
  6
CONTINUOUS
 62
     6
  5
6BF
 10
244.311333
 20
322.171583
 30
0.0
 40
1.75
  1
10
  7
MONOTXT
210
0.0
220
0.0
230
1.0
  0
TEXT
  8
1
  6
CONTINUOUS
 62
     6
  5
6C0
 10
258.740917
 20
321.944167
 30
0.0
 40
1.75
  1
10
  7
MONOTXT
210
0.0
220
0.0
230
1.0
  0
TEXT
  8
1
  6
CONTINUOUS
 62
     6
  5
6C1
 10
244.6945
 20
315.272417
 30
0.0
 40
1.75
  1
11
  7
MONOTXT
210
0.0
220
0.0
230
1.0
  0
TEXT
  8
1
  6
CONTINUOUS
 62
     6
  5
6C2
 10
197.745417
 20
287.18425
 30
0.0
 40
1.75
  1
13 & 13.5
  7
MONOTXT
210
0.0
220
0.0
230
1.0
  0
TEXT
  8
1
  6
CONTINUOUS
 62
     6
  5
6C3
 10
244.633833
 20
294.348
 30
0.0
 40
1.75
  1
12
  7
MONOTXT
210
0.0
220
0.0
230
1.0
  0
TEXT
  8
1
  6
CONTINUOUS
 62
     6
  5
6C4
 10
259.032083
 20
343.21225
 30
0.0
 40
1.75
  1
8
  7
MONOTXT
210
0.0
220
0.0
230
1.0
  0
TEXT
  8
1
  6
CONTINUOUS
 62
     6
  5
6C5
 10
258.881333
 20
336.27475
 30
0.0
 40
1.75
  1
9
  7
MONOTXT
210
0.0
220
0.0
230
1.0
  0
TEXT
  8
1
  6
CONTINUOUS
 62
     6
  5
6C6
 10
273.204167
 20
280.322083
 30
0.0
 40
1.75
  1
9
  7
MONOTXT
210
0.0
220
0.0
230
1.0
  0
TEXT
  8
1
  6
CONTINUOUS
 62
     6
  5
6C7
 10
286.6185
 20
371.070333
 30
0.0
 40
1.75
  1
1.5
  7
MONOTXT
210
0.0
220
0.0
230
1.0
  0
TEXT
  8
1
  6
CONTINUOUS
 62
     6
  5
6C8
 10
286.40325
 20
364.396167
 30
0.0
 40
1.75
  1
1.5
  7
MONOTXT
210
0.0
220
0.0
230
1.0
  0
TEXT
  8
1
  6
CONTINUOUS
 62
     6
  5
6C9
 10
285.901083
 20
357.506667
 30
0.0
 40
1.75
  1
2.0
  7
MONOTXT
210
0.0
220
0.0
230
1.0
  0
TEXT
  8
1
  6
CONTINUOUS
 62
     6
  5
6CA
 10
285.829333
 20
350.473667
 30
0.0
 40
1.75
  1
2.0
  7
MONOTXT
210
0.0
220
0.0
230
1.0
  0
TEXT
  8
1
  6
CONTINUOUS
 62
     6
  5
6CB
 10
285.685833
 20
343.368917
 30
0.0
 40
1.75
  1
2.0
  7
MONOTXT
210
0.0
220
0.0
230
1.0
  0
TEXT
  8
1
  6
CONTINUOUS
 62
     6
  5
6CC
 10
285.398833
 20
336.479417
 30
0.0
 40
1.75
  1
2.0
  7
MONOTXT
210
0.0
220
0.0
230
1.0
  0
TEXT
  8
1
  6
CONTINUOUS
 62
     6
  5
6CD
 10
285.614083
 20
329.231083
 30
0.0
 40
1.75
  1
2.0
  7
MONOTXT
210
0.0
220
0.0
230
1.0
  0
TEXT
  8
1
  6
CONTINUOUS
 62
     6
  5
6CE
 10
300.895167
 20
371.213917
 30
0.0
 40
1.75
  1
4.0
  7
MONOTXT
210
0.0
220
0.0
230
1.0
  0
TEXT
  8
1
  6
CONTINUOUS
 62
     6
  5
6CF
 10
301.325583
 20
364.252667
 30
0.0
 40
1.75
  1
4.0
  7
MONOTXT
210
0.0
220
0.0
230
1.0
  0
TEXT
  8
1
  6
CONTINUOUS
 62
     6
  5
6D0
 10
301.110417
 20
357.291417
 30
0.0
 40
1.75
  1
4.0
  7
MONOTXT
210
0.0
220
0.0
230
1.0
  0
TEXT
  8
1
  6
CONTINUOUS
 62
     6
  5
6D1
 10
300.966917
 20
350.401917
 30
0.0
 40
1.75
  1
4.0
  7
MONOTXT
210
0.0
220
0.0
230
1.0
  0
TEXT
  8
1
  6
CONTINUOUS
 62
     6
  5
6D2
 10
301.038667
 20
343.297083
 30
0.0
 40
1.75
  1
4.0
  7
MONOTXT
210
0.0
220
0.0
230
1.0
  0
TEXT
  8
1
  6
CONTINUOUS
 62
     6
  5
6D3
 10
301.110417
 20
336.048833
 30
0.0
 40
1.75
  1
4.5
  7
MONOTXT
210
0.0
220
0.0
230
1.0
  0
TEXT
  8
1
  6
CONTINUOUS
 62
     6
  5
6D4
 10
301.253833
 20
329.231083
 30
0.0
 40
1.75
  1
4.0
  7
MONOTXT
210
0.0
220
0.0
230
1.0
  0
TEXT
  8
1
  6
CONTINUOUS
 62
     6
  5
6D5
 10
314.669667
 20
371.213917
 30
0.0
 40
1.75
  1
0.333
  7
MONOTXT
210
0.0
220
0.0
230
1.0
  0
TEXT
  8
1
  6
CONTINUOUS
 62
     6
  5
6D6
 10
314.454417
 20
364.180917
 30
0.0
 40
1.75
  1
0.333
  7
MONOTXT
210
0.0
220
0.0
230
1.0
  0
TEXT
  8
1
  6
CONTINUOUS
 62
     6
  5
6D7
 10
314.741417
 20
357.291417
 30
0.0
 40
1.75
  1
0.592
  7
MONOTXT
210
0.0
220
0.0
230
1.0
  0
TEXT
  8
1
  6
CONTINUOUS
 62
     6
  5
6D8
 10
314.597917
 20
350.401917
 30
0.0
 40
1.75
  1
0.592
  7
MONOTXT
210
0.0
220
0.0
230
1.0
  0
TEXT
  8
1
  6
CONTINUOUS
 62
     6
  5
6D9
 10
314.669667
 20
343.368917
 30
0.0
 40
1.75
  1
0.592
  7
MONOTXT
210
0.0
220
0.0
230
1.0
  0
TEXT
  8
1
  6
CONTINUOUS
 62
     6
  5
6DA
 10
314.741417
 20
336.192333
 30
0.0
 40
1.75
  1
0.667
  7
MONOTXT
210
0.0
220
0.0
230
1.0
  0
TEXT
  8
1
  6
CONTINUOUS
 62
     6
  5
6DB
 10
314.813167
 20
329.302833
 30
0.0
 40
1.75
  1
0.592
  7
MONOTXT
210
0.0
220
0.0
230
1.0
  0
TEXT
  8
1
  6
CONTINUOUS
 62
     6
  5
6DC
 10
331.098583
 20
371.285667
 30
0.0
 40
1.75
  1
7
  7
MONOTXT
210
0.0
220
0.0
230
1.0
  0
TEXT
  8
1
  6
CONTINUOUS
 62
     6
  5
6DD
 10
331.242083
 20
364.252667
 30
0.0
 40
1.75
  1
8
  7
MONOTXT
210
0.0
220
0.0
230
1.0
  0
TEXT
  8
1
  6
CONTINUOUS
 62
     6
  5
6DE
 10
330.668167
 20
357.291417
 30
0.0
 40
1.75
  1
10
  7
MONOTXT
210
0.0
220
0.0
230
1.0
  0
TEXT
  8
1
  6
CONTINUOUS
 62
     6
  5
6DF
 10
330.739917
 20
350.186583
 30
0.0
 40
1.75
  1
11
  7
MONOTXT
210
0.0
220
0.0
230
1.0
  0
TEXT
  8
1
  6
CONTINUOUS
 62
     6
  5
6E0
 10
330.596417
 20
343.297083
 30
0.0
 40
1.75
  1
12
  7
MONOTXT
210
0.0
220
0.0
230
1.0
  0
TEXT
  8
1
  6
CONTINUOUS
 62
     6
  5
6E1
 10
330.811583
 20
336.264083
 30
0.0
 40
1.75
  1
12
  7
MONOTXT
210
0.0
220
0.0
230
1.0
  0
TEXT
  8
1
  6
CONTINUOUS
 62
     6
  5
6E2
 10
330.668167
 20
329.087583
 30
0.0
 40
1.75
  1
15
  7
MONOTXT
210
0.0
220
0.0
230
1.0
  0
TEXT
  8
1
  6
CONTINUOUS
 62
     6
  5
6E3
 10
342.433833
 20
371.142167
 30
0.0
 40
1.75
  1
 3/4 
  7
MONOTXT
210
0.0
220
0.0
230
1.0
  0
TEXT
  8
1
  6
CONTINUOUS
 62
     6
  5
6E4
 10
342.792583
 20
364.037333
 30
0.0
 40
1.75
  1
 3/4 
  7
MONOTXT
210
0.0
220
0.0
230
1.0
  0
TEXT
  8
1
  6
CONTINUOUS
 62
     6
  5
6E5
 10
343.58175
 20
357.578417
 30
0.0
 40
1.75
  1
1
  7
MONOTXT
210
0.0
220
0.0
230
1.0
  0
TEXT
  8
1
  6
CONTINUOUS
 62
     6
  5
6E6
 10
343.43825
 20
350.258333
 30
0.0
 40
1.75
  1
1
  7
MONOTXT
210
0.0
220
0.0
230
1.0
  0
TEXT
  8
1
  6
CONTINUOUS
 62
     6
  5
6E7
 10
343.51
 20
343.297083
 30
0.0
 40
1.75
  1
1
  7
MONOTXT
210
0.0
220
0.0
230
1.0
  0
TEXT
  8
1
  6
CONTINUOUS
 62
     6
  5
6E8
 10
343.3665
 20
336.479417
 30
0.0
 40
1.75
  1
1
  7
MONOTXT
210
0.0
220
0.0
230
1.0
  0
TEXT
  8
1
  6
CONTINUOUS
 62
     6
  5
6E9
 10
343.3665
 20
329.302833
 30
0.0
 40
1.75
  1
1
  7
MONOTXT
210
0.0
220
0.0
230
1.0
  0
TEXT
  8
1
  6
CONTINUOUS
 62
     6
  5
6EA
 10
285.8235
 20
322.333083
 30
0.0
 40
1.75
  1
2.0
  7
MONOTXT
210
0.0
220
0.0
230
1.0
  0
TEXT
  8
1
  6
CONTINUOUS
 62
     6
  5
6EB
 10
285.95625
 20
315.161167
 30
0.0
 40
1.75
  1
2.5
  7
MONOTXT
210
0.0
220
0.0
230
1.0
  0
TEXT
  8
1
  6
CONTINUOUS
 62
     6
  5
6EC
 10
285.95625
 20
308.254917
 30
0.0
 40
1.75
  1
2.5
  7
MONOTXT
210
0.0
220
0.0
230
1.0
  0
TEXT
  8
1
  6
CONTINUOUS
 62
     6
  5
6ED
 10
286.089083
 20
301.34875
 30
0.0
 40
1.75
  1
2.5
  7
MONOTXT
210
0.0
220
0.0
230
1.0
  0
TEXT
  8
1
  6
CONTINUOUS
 62
     6
  5
6EE
 10
286.022667
 20
294.309667
 30
0.0
 40
1.75
  1
2.5
  7
MONOTXT
210
0.0
220
0.0
230
1.0
  0
TEXT
  8
1
  6
CONTINUOUS
 62
     6
  5
6EF
 10
286.155417
 20
286.872167
 30
0.0
 40
1.75
  1
2.5
  7
MONOTXT
210
0.0
220
0.0
230
1.0
  0
TEXT
  8
1
  6
CONTINUOUS
 62
     6
  5
6F0
 10
300.826417
 20
322.133833
 30
0.0
 40
1.75
  1
4.5
  7
MONOTXT
210
0.0
220
0.0
230
1.0
  0
TEXT
  8
1
  6
CONTINUOUS
 62
     6
  5
6F1
 10
301.092
 20
315.294
 30
0.0
 40
1.75
  1
4.5
  7
MONOTXT
210
0.0
220
0.0
230
1.0
  0
TEXT
  8
1
  6
CONTINUOUS
 62
     6
  5
6F2
 10
300.959167
 20
308.188583
 30
0.0
 40
1.75
  1
4.5
  7
MONOTXT
210
0.0
220
0.0
230
1.0
  0
TEXT
  8
1
  6
CONTINUOUS
 62
     6
  5
6F3
 10
300.892833
 20
301.215917
 30
0.0
 40
1.75
  1
4.5
  7
MONOTXT
210
0.0
220
0.0
230
1.0
  0
TEXT
  8
1
  6
CONTINUOUS
 62
     6
  5
6F4
 10
301.22475
 20
294.309667
 30
0.0
 40
1.75
  1
5.0
  7
MONOTXT
210
0.0
220
0.0
230
1.0
  0
TEXT
  8
1
  6
CONTINUOUS
 62
     6
  5
6F5
 10
301.291083
 20
286.606583
 30
0.0
 40
1.75
  1
5.0
  7
MONOTXT
210
0.0
220
0.0
230
1.0
  0
TEXT
  8
1
  6
CONTINUOUS
 62
     6
  5
6F6
 10
314.767167
 20
322.001
 30
0.0
 40
1.75
  1
0.667
  7
MONOTXT
210
0.0
220
0.0
230
1.0
  0
TEXT
  8
1
  6
CONTINUOUS
 62
     6
  5
6F7
 10
314.767167
 20
315.09475
 30
0.0
 40
1.75
  1
1.042
  7
MONOTXT
210
0.0
220
0.0
230
1.0
  0
TEXT
  8
1
  6
CONTINUOUS
 62
     6
  5
6F8
 10
314.966333
 20
308.254917
 30
0.0
 40
1.75
  1
1.042
  7
MONOTXT
210
0.0
220
0.0
230
1.0
  0
TEXT
  8
1
  6
CONTINUOUS
 62
     6
  5
6F9
 10
314.966333
 20
301.4815
 30
0.0
 40
1.75
  1
1.042
  7
MONOTXT
210
0.0
220
0.0
230
1.0
  0
TEXT
  8
1
  6
CONTINUOUS
 62
     6
  5
6FA
 10
315.364667
 20
294.110417
 30
0.0
 40
1.75
  1
1.157
  7
MONOTXT
210
0.0
220
0.0
230
1.0
  0
TEXT
  8
1
  6
CONTINUOUS
 62
     6
  5
6FB
 10
315.431083
 20
287.071417
 30
0.0
 40
1.75
  1
1.157
  7
MONOTXT
210
0.0
220
0.0
230
1.0
  0
TEXT
  8
1
  6
CONTINUOUS
 62
     6
  5
6FC
 10
330.500333
 20
322.266667
 30
0.0
 40
1.75
  1
15
  7
MONOTXT
210
0.0
220
0.0
230
1.0
  0
TEXT
  8
1
  6
CONTINUOUS
 62
     6
  5
6FD
 10
330.633167
 20
315.161167
 30
0.0
 40
1.75
  1
15
  7
MONOTXT
210
0.0
220
0.0
230
1.0
  0
TEXT
  8
1
  6
CONTINUOUS
 62
     6
  5
6FE
 10
330.500333
 20
308.188583
 30
0.0
 40
1.75
  1
15
  7
MONOTXT
210
0.0
220
0.0
230
1.0
  0
TEXT
  8
1
  6
CONTINUOUS
 62
     6
  5
6FF
 10
330.500333
 20
301.282333
 30
0.0
 40
1.75
  1
16
  7
MONOTXT
210
0.0
220
0.0
230
1.0
  0
TEXT
  8
1
  6
CONTINUOUS
 62
     6
  5
700
 10
329.039917
 20
294.309667
 30
0.0
 40
1.75
  1
16.5
  7
MONOTXT
210
0.0
220
0.0
230
1.0
  0
TEXT
  8
1
  6
CONTINUOUS
 62
     6
  5
701
 10
330.633167
 20
286.872167
 30
0.0
 40
1.75
  1
16
  7
MONOTXT
210
0.0
220
0.0
230
1.0
  0
TEXT
  8
1
  6
CONTINUOUS
 62
     6
  5
702
 10
343.312583
 20
322.266667
 30
0.0
 40
1.75
  1
1
  7
MONOTXT
210
0.0
220
0.0
230
1.0
  0
TEXT
  8
1
  6
CONTINUOUS
 62
     6
  5
703
 10
343.445333
 20
315.161167
 30
0.0
 40
1.75
  1
1
  7
MONOTXT
210
0.0
220
0.0
230
1.0
  0
TEXT
  8
1
  6
CONTINUOUS
 62
     6
  5
704
 10
342.316833
 20
308.254917
 30
0.0
 40
1.75
  1
1 1/4 
  7
MONOTXT
210
0.0
220
0.0
230
1.0
  0
TEXT
  8
1
  6
CONTINUOUS
 62
     6
  5
705
 10
342.383167
 20
301.1495
 30
0.0
 40
1.75
  1
1 1/4 
  7
MONOTXT
210
0.0
220
0.0
230
1.0
  0
TEXT
  8
1
  6
CONTINUOUS
 62
     6
  5
706
 10
342.715167
 20
287.005
 30
0.0
 40
1.75
  1
1 1/4 
  7
MONOTXT
210
0.0
220
0.0
230
1.0
  0
TEXT
  8
1
  6
CONTINUOUS
 62
     6
  5
707
 10
343.910083
 20
294.4425
 30
0.0
 40
1.75
  1
1
  7
MONOTXT
210
0.0
220
0.0
230
1.0
  0
TEXT
  8
1
  6
CONTINUOUS
 62
     6
  5
708
 10
286.05
 20
280.2125
 30
0.0
 40
1.75
  1
2.0
  7
MONOTXT
210
0.0
220
0.0
230
1.0
  0
TEXT
  8
1
  6
CONTINUOUS
 62
     6
  5
709
 10
301.186833
 20
280.2125
 30
0.0
 40
1.75
  1
5.0
  7
MONOTXT
210
0.0
220
0.0
230
1.0
  0
TEXT
  8
1
  6
CONTINUOUS
 62
     6
  5
70A
 10
314.671167
 20
280.2125
 30
0.0
 40
1.75
  1
0.741
  7
MONOTXT
210
0.0
220
0.0
230
1.0
  0
TEXT
  8
1
  6
CONTINUOUS
 62
     6
  5
70B
 10
330.535083
 20
280.410833
 30
0.0
 40
1.75
  1
12
  7
MONOTXT
210
0.0
220
0.0
230
1.0
  0
TEXT
  8
1
  6
CONTINUOUS
 62
     6
  5
70C
 10
342.56525
 20
280.2125
 30
0.0
 40
1.75
  1
1 1/4 
  7
MONOTXT
210
0.0
220
0.0
230
1.0
  0
TEXT
  8
1
  6
CONTINUOUS
 62
     6
  5
70D
 10
356.097
 20
356.998333
 30
0.0
 40
1.75
  1
6
  7
MONOTXT
210
0.0
220
0.0
230
1.0
  0
TEXT
  8
1
  6
CONTINUOUS
 62
     6
  5
70E
 10
355.974333
 20
349.881917
 30
0.0
 40
1.75
  1
6
  7
MONOTXT
210
0.0
220
0.0
230
1.0
  0
TEXT
  8
1
  6
CONTINUOUS
 62
     6
  5
70F
 10
355.974333
 20
343.256417
 30
0.0
 40
1.75
  1
6
  7
MONOTXT
210
0.0
220
0.0
230
1.0
  0
TEXT
  8
1
  6
CONTINUOUS
 62
     6
  5
710
 10
356.097
 20
336.508083
 30
0.0
 40
1.75
  1
6
  7
MONOTXT
210
0.0
220
0.0
230
1.0
  0
TEXT
  8
1
  6
CONTINUOUS
 62
     6
  5
711
 10
355.974333
 20
328.77825
 30
0.0
 40
1.75
  1
6
  7
MONOTXT
210
0.0
220
0.0
230
1.0
  0
TEXT
  8
1
  6
CONTINUOUS
 62
     6
  5
712
 10
355.974333
 20
322.152667
 30
0.0
 40
1.75
  1
6
  7
MONOTXT
210
0.0
220
0.0
230
1.0
  0
TEXT
  8
1
  6
CONTINUOUS
 62
     6
  5
713
 10
356.097
 20
315.404417
 30
0.0
 40
1.75
  1
6
  7
MONOTXT
210
0.0
220
0.0
230
1.0
  0
TEXT
  8
1
  6
CONTINUOUS
 62
     6
  5
714
 10
356.219667
 20
308.288083
 30
0.0
 40
1.75
  1
6
  7
MONOTXT
210
0.0
220
0.0
230
1.0
  0
TEXT
  8
1
  6
CONTINUOUS
 62
     6
  5
715
 10
356.219667
 20
301.049
 30
0.0
 40
1.75
  1
6
  7
MONOTXT
210
0.0
220
0.0
230
1.0
  0
TEXT
  8
1
  6
CONTINUOUS
 62
     6
  5
716
 10
356.097
 20
294.055333
 30
0.0
 40
1.75
  1
6
  7
MONOTXT
210
0.0
220
0.0
230
1.0
  0
TEXT
  8
1
  6
CONTINUOUS
 62
     6
  5
717
 10
356.097
 20
287.061667
 30
0.0
 40
1.75
  1
6
  7
MONOTXT
210
0.0
220
0.0
230
1.0
  0
TEXT
  8
1
  6
CONTINUOUS
 62
     6
  5
718
 10
356.219667
 20
280.19075
 30
0.0
 40
1.75
  1
6
  7
MONOTXT
210
0.0
220
0.0
230
1.0
  0
TEXT
  8
1
  6
CONTINUOUS
 62
     6
  5
719
 10
370.325083
 20
357.243667
 30
0.0
 40
1.75
  1
4
  7
MONOTXT
210
0.0
220
0.0
230
1.0
  0
TEXT
  8
1
  6
CONTINUOUS
 62
     6
  5
71A
 10
370.079833
 20
350.127333
 30
0.0
 40
1.75
  1
4
  7
MONOTXT
210
0.0
220
0.0
230
1.0
  0
TEXT
  8
1
  6
CONTINUOUS
 62
     6
  5
71B
 10
369.957167
 20
343.379083
 30
0.0
 40
1.75
  1
4
  7
MONOTXT
210
0.0
220
0.0
230
1.0
  0
TEXT
  8
1
  6
CONTINUOUS
 62
     6
  5
71C
 10
370.2025
 20
329.269083
 30
0.0
 40
1.75
  1
4
  7
MONOTXT
210
0.0
220
0.0
230
1.0
  0
TEXT
  8
1
  6
CONTINUOUS
 62
     6
  5
71D
 10
370.079833
 20
307.92
 30
0.0
 40
1.75
  1
4
  7
MONOTXT
210
0.0
220
0.0
230
1.0
  0
TEXT
  8
1
  6
CONTINUOUS
 62
     6
  5
71E
 10
369.8345
 20
336.508083
 30
0.0
 40
1.75
  1
5
  7
MONOTXT
210
0.0
220
0.0
230
1.0
  0
TEXT
  8
1
  6
CONTINUOUS
 62
     6
  5
71F
 10
369.8345
 20
322.152667
 30
0.0
 40
1.75
  1
5
  7
MONOTXT
210
0.0
220
0.0
230
1.0
  0
TEXT
  8
1
  6
CONTINUOUS
 62
     6
  5
720
 10
369.957167
 20
314.913667
 30
0.0
 40
1.75
  1
5
  7
MONOTXT
210
0.0
220
0.0
230
1.0
  0
TEXT
  8
1
  6
CONTINUOUS
 62
     6
  5
721
 10
370.079833
 20
300.926333
 30
0.0
 40
1.75
  1
5
  7
MONOTXT
210
0.0
220
0.0
230
1.0
  0
TEXT
  8
1
  6
CONTINUOUS
 62
     6
  5
722
 10
370.079833
 20
293.932667
 30
0.0
 40
1.75
  1
5
  7
MONOTXT
210
0.0
220
0.0
230
1.0
  0
TEXT
  8
1
  6
CONTINUOUS
 62
     6
  5
723
 10
370.2025
 20
286.939
 30
0.0
 40
1.75
  1
5
  7
MONOTXT
210
0.0
220
0.0
230
1.0
  0
TEXT
  8
1
  6
CONTINUOUS
 62
     6
  5
724
 10
370.44775
 20
280.068
 30
0.0
 40
1.75
  1
5
  7
MONOTXT
210
0.0
220
0.0
230
1.0
  0
LINE
  8
1
  6
CONTINUOUS
 62
     6
  5
725
 10
355.0295
 20
372.2235
 30
0.0
 11
357.5295
 21
372.2235
 31
0.0
  0
LINE
  8
1
  6
CONTINUOUS
 62
     6
  5
726
 10
369.742667
 20
372.2235
 30
0.0
 11
372.242667
 21
372.2235
 31
0.0
  0
LINE
  8
1
  6
CONTINUOUS
 62
     6
  5
727
 10
355.084583
 20
365.167667
 30
0.0
 11
357.584583
 21
365.167667
 31
0.0
  0
LINE
  8
1
  6
CONTINUOUS
 62
     6
  5
728
 10
369.742667
 20
365.167667
 30
0.0
 11
372.242667
 21
365.167667
 31
0.0
  0
TEXT
  8
1
  6
CONTINUOUS
 62
     6
  5
729
 10
345.775167
 20
376.878
 30
0.0
 40
5.0
  1
*
  7
MONOTXT
210
0.0
220
0.0
230
1.0
  0
TEXT
  8
1
  6
CONTINUOUS
 62
     6
  5
72A
 10
331.979917
 20
376.989333
 30
0.0
 40
5.0
  1
**
  7
MONOTXT
210
0.0
220
0.0
230
1.0
  0
TEXT
  8
1
  6
CONTINUOUS
 62
     6
  5
72B
 10
186.459917
 20
256.72525
 30
0.0
 40
5.0
  1
*
  7
MONOTXT
210
0.0
220
0.0
230
1.0
  0
TEXT
  8
1
  6
CONTINUOUS
 62
     6
  5
72C
 10
182.61425
 20
253.01975
 30
0.0
 40
5.0
  1
**
  7
MONOTXT
210
0.0
220
0.0
230
1.0
  0
TEXT
  8
1
  6
CONTINUOUS
 62
     6
  5
72D
 10
190.818917
 20
258.456667
 30
0.0
 40
2.0
  1
MINIMUM SIZES  3/4 " x 26" x 4", 1" x 36" x 4" & 1 1/4 " x 42" x 6"
  7
MONOTXT
210
0.0
220
0.0
230
1.0
  0
TEXT
  8
1
  6
CONTINUOUS
 62
     6
  5
72E
 10
190.732083
 20
254.546667
 30
0.0
 40
2.0
  1
WHEN USING TRANSFORMER BASE(S), SEE TEL-18
  7
MONOTXT
 11
190.732083
 21
256.546667
 31
0.0
210
0.0
220
0.0
230
1.0
 73
     3
  0
TEXT
  8
1
  6
CONTINUOUS
 62
     6
  5
72F
 10
190.732083
 20
250.546667
 30
0.0
 40
2.0
  1
FOR ANCHOR BOLT-BOLT CIRCLE IN FOUNDATION.
  7
MONOTXT
 11
190.732083
 21
252.546667
 31
0.0
210
0.0
220
0.0
230
1.0
 73
     3
  0
TEXT
  8
1
  6
CONTINUOUS
 62
     7
  5
730
 10
535.2935
 20
14.301167
 30
0.0
 40
6.992667
  1
STANDARD SHEET TEL-15B
  7
txt
210
0.0
220
0.0
230
1.0
  0
ENDSEC
  0
EOF
