  0
SECTION
  2
HEADER
  9
$ACADVER
  1
AC1009
  9
$INSBASE
 10
0.0
 20
0.0
 30
0.0
  9
$EXTMIN
 10
-1.436417
 20
-0.410667
 30
0.0
  9
$EXTMAX
 10
678.643583
 20
439.629333
 30
0.0
  9
$LIMMIN
 10
0.0
 20
0.0
  9
$LIMMAX
 10
12.0
 20
9.0
  9
$ORTHOMODE
 70
     0
  9
$REGENMODE
 70
     1
  9
$FILLMODE
 70
     1
  9
$QTEXTMODE
 70
     0
  9
$MIRRTEXT
 70
     1
  9
$DRAGMODE
 70
     2
  9
$LTSCALE
 40
1.0
  9
$OSMODE
 70
     0
  9
$ATTMODE
 70
     1
  9
$TEXTSIZE
 40
0.2
  9
$TRACEWID
 40
0.05
  9
$TEXTSTYLE
  7
STANDARD
  9
$CLAYER
  8
0
  9
$CELTYPE
  6
CONTINUOUS
  9
$CECOLOR
 62
   256
  9
$DIMSCALE
 40
1.0
  9
$DIMASZ
 40
0.18
  9
$DIMEXO
 40
0.0625
  9
$DIMDLI
 40
0.38
  9
$DIMRND
 40
0.0
  9
$DIMDLE
 40
0.0
  9
$DIMEXE
 40
0.18
  9
$DIMTP
 40
0.0
  9
$DIMTM
 40
0.0
  9
$DIMTXT
 40
0.18
  9
$DIMCEN
 40
0.09
  9
$DIMTSZ
 40
0.0
  9
$DIMTOL
 70
     0
  9
$DIMLIM
 70
     0
  9
$DIMTIH
 70
     1
  9
$DIMTOH
 70
     1
  9
$DIMSE1
 70
     0
  9
$DIMSE2
 70
     0
  9
$DIMTAD
 70
     0
  9
$DIMZIN
 70
     0
  9
$DIMBLK
  1

  9
$DIMASO
 70
     1
  9
$DIMSHO
 70
     1
  9
$DIMPOST
  1

  9
$DIMAPOST
  1

  9
$DIMALT
 70
     0
  9
$DIMALTD
 70
     2
  9
$DIMALTF
 40
25.4
  9
$DIMLFAC
 40
1.0
  9
$DIMTOFL
 70
     0
  9
$DIMTVP
 40
0.0
  9
$DIMTIX
 70
     0
  9
$DIMSOXD
 70
     0
  9
$DIMSAH
 70
     0
  9
$DIMBLK1
  1

  9
$DIMBLK2
  1

  9
$DIMSTYLE
  2
STANDARD
  9
$DIMCLRD
 70
     0
  9
$DIMCLRE
 70
     0
  9
$DIMCLRT
 70
     0
  9
$DIMTFAC
 40
1.0
  9
$DIMGAP
 40
0.09
  9
$LUNITS
 70
     2
  9
$LUPREC
 70
     4
  9
$AXISMODE
 70
     0
  9
$AXISUNIT
 10
0.0
 20
0.0
  9
$SKETCHINC
 40
0.1
  9
$FILLETRAD
 40
0.0
  9
$AUNITS
 70
     0
  9
$AUPREC
 70
     0
  9
$MENU
  1
acad
  9
$ELEVATION
 40
0.0
  9
$PELEVATION
 40
0.0
  9
$THICKNESS
 40
0.0
  9
$LIMCHECK
 70
     0
  9
$BLIPMODE
 70
     1
  9
$CHAMFERA
 40
0.0
  9
$CHAMFERB
 40
0.0
  9
$SKPOLY
 70
     0
  9
$TDCREATE
 40
2451803.420543981
  9
$TDUPDATE
 40
2451803.420543981
  9
$TDINDWG
 40
0.0000000000
  9
$TDUSRTIMER
 40
0.0000000000
  9
$USRTIMER
 70
     1
  9
$ANGBASE
 50
0.0
  9
$ANGDIR
 70
     0
  9
$PDMODE
 70
     0
  9
$PDSIZE
 40
0.0
  9
$PLINEWID
 40
0.0
  9
$COORDS
 70
     0
  9
$SPLFRAME
 70
     0
  9
$SPLINETYPE
 70
     6
  9
$SPLINESEGS
 70
    10
  9
$ATTDIA
 70
     0
  9
$ATTREQ
 70
     1
  9
$HANDLING
 70
     1
  9
$HANDSEED
  5
75E
  9
$SURFTAB1
 70
     6
  9
$SURFTAB2
 70
     6
  9
$SURFTYPE
 70
     6
  9
$SURFU
 70
     6
  9
$SURFV
 70
     6
  9
$UCSNAME
  2

  9
$UCSORG
 10
0.0
 20
0.0
 30
0.0
  9
$UCSXDIR
 10
1.0
 20
0.0
 30
0.0
  9
$UCSYDIR
 10
0.0
 20
1.0
 30
0.0
  9
$PUCSNAME
  2

  9
$PUCSORG
 10
0.0
 20
0.0
 30
0.0
  9
$PUCSXDIR
 10
1.0
 20
0.0
 30
0.0
  9
$PUCSYDIR
 10
0.0
 20
1.0
 30
0.0
  9
$USERI1
 70
     0
  9
$USERI2
 70
     0
  9
$USERI3
 70
     0
  9
$USERI4
 70
     0
  9
$USERI5
 70
     0
  9
$USERR1
 40
0.0
  9
$USERR2
 40
0.0
  9
$USERR3
 40
0.0
  9
$USERR4
 40
0.0
  9
$USERR5
 40
0.0
  9
$WORLDVIEW
 70
     1
  9
$SHADEDGE
 70
     3
  9
$SHADEDIF
 70
    70
  9
$TILEMODE
 70
     1
  9
$MAXACTVP
 70
    16
  9
$PINSBASE
 10
0.0
 20
0.0
 30
0.0
  9
$PLIMCHECK
 70
     0
  9
$PEXTMIN
 10
-1.000000E+20
 20
-1.000000E+20
 30
-1.000000E+20
  9
$PEXTMAX
 10
-1.000000E+20
 20
-1.000000E+20
 30
-1.000000E+20
  9
$PLIMMIN
 10
0.0
 20
0.0
  9
$PLIMMAX
 10
12.0
 20
9.0
  9
$UNITMODE
 70
     0
  9
$VISRETAIN
 70
     0
  9
$PLINEGEN
 70
     1
  9
$PSLTSCALE
 70
     0
  9
$TREEDEPTH
 70
  3020
  9
$DWGCODEPAGE
  3
ansi_1252
  0
ENDSEC
  0
SECTION
  2
TABLES
  0
TABLE
  2
VPORT
 70
     1
  0
VPORT
  2
*ACTIVE
 70
     0
 10
0.0
 20
0.0
 11
1.0
 21
1.0
 12
0.0
 22
0.0
 13
0.0
 23
0.0
 14
0.0
 24
0.0
 15
0.0
 25
0.0
 16
0.0
 26
0.0
 36
1.0
 17
292.839883
 27
219.609333
 37
0.0
 40
451.041
 41
1.795122
 42
50.0
 43
0.0
 44
0.0
 50
0.0
 51
0.0
 71
     0
 72
   100
 73
     1
 74
     0
 75
     0
 76
     0
 77
     0
 78
     0
  0
ENDTAB
  0
TABLE
  2
LTYPE
 70
     7
  0
LTYPE
  2
CONTINUOUS
 70
     0
  3
Solid line
 72
    65
 73
     0
 40
0.0
  0
LTYPE
  2
DOT
 70
    64
  3
. . . . . . . . . . . . . . . . . . . . . . . . . . . . . . . . .
 72
    65
 73
     2
 40
0.25
 49
0.0
 49
-0.25
  0
LTYPE
  2
HIDDEN
 70
    64
  3
__ __ __ __ __ __ __ __ __ __ __ __ __ __ __ __ __ __ __ __ __ 
 72
    65
 73
     2
 40
0.375
 49
0.25
 49
-0.125
  0
LTYPE
  2
DASHED
 70
    64
  3
__ __ __ __ __ __ __ __ __ __ __ __ __ __ __ __ __ __ __ __ __
 72
    65
 73
     2
 40
0.75
 49
0.5
 49
-0.25
  0
LTYPE
  2
DASHDOT
 70
    64
  3
__ . __ . __ . __ . __ . __ . __ . __ . __ . __ . __ . __ . _
 72
    65
 73
     4
 40
1.0
 49
0.5
 49
-0.25
 49
0.0
 49
-0.25
  0
LTYPE
  2
DIVIDE
 70
    64
  3
____ . . ____ . . ____ . . ____ . . ____ . . ____ . . ____ . .
 72
    65
 73
     6
 40
1.25
 49
0.5
 49
-0.25
 49
0.0
 49
-0.25
 49
0.0
 49
-0.25
  0
LTYPE
  2
CENTER
 70
    64
  3
____ _ ____ _ ____ _ ____ _ ____ _ ____ _ ____ _ ____ _ ____ _
 72
    65
 73
     4
 40
2.0
 49
1.25
 49
-0.25
 49
0.25
 49
-0.25
  0
ENDTAB
  0
TABLE
  2
LAYER
 70
     5
  0
LAYER
  2
0
 70
     0
 62
     7
  6
CONTINUOUS
  0
LAYER
  2
CONSTRUCTION_CLASS
 70
     0
 62
     7
  6
CONTINUOUS
  0
LAYER
  2
PATTERN_CLASS
 70
     0
 62
     7
  6
CONTINUOUS
  0
LAYER
  2
61
 70
    64
 62
     7
  6
CONTINUOUS
  0
LAYER
  2
1
 70
    64
 62
     7
  6
CONTINUOUS
  0
ENDTAB
  0
TABLE
  2
STYLE
 70
     4
  0
STYLE
  2
STANDARD
 70
     0
 40
0.0
 41
1.0
 50
0.0
 71
     0
 42
0.0
  3
txt
  4

  0
STYLE
  2
MONOTXT
 70
     0
 40
0.2
 41
1.0
 50
0.0
 71
     0
 42
0.2
  3
MONOTXT
  4

  0
STYLE
  2
txt
 70
     0
 40
0.2
 41
1.0
 50
0.0
 71
     0
 42
0.2
  3
TXT
  4

  0
STYLE
  2
ROMANT
 70
     0
 40
0.2
 41
1.0
 50
0.0
 71
     0
 42
0.2
  3
ROMANT
  4

  0
ENDTAB
  0
TABLE
  2
VIEW
 70
     0
  0
ENDTAB
  0
TABLE
  2
UCS
 70
     0
  0
ENDTAB
  0
TABLE
  2
APPID
 70
     1
  0
APPID
  2
ACAD
 70
     0
  0
ENDTAB
  0
TABLE
  2
DIMSTYLE
 70
     1
  0
DIMSTYLE
  2
STANDARD
 70
     0
  3

  4

  5

  6

  7

 40
1.0
 41
0.18
 42
0.0625
 43
0.38
 44
0.18
 45
0.0
 46
0.0
 47
0.0
 48
0.0
140
0.18
141
0.09
142
0.0
143
25.4
144
1.0
145
0.0
146
1.0
147
0.09
 71
     0
 72
     0
 73
     1
 74
     1
 75
     0
 76
     0
 77
     0
 78
     0
170
     0
171
     2
172
     0
173
     0
174
     0
175
     0
176
     0
177
     0
178
     0
  0
ENDTAB
  0
ENDSEC
  0
SECTION
  2
BLOCKS
  0
BLOCK
  8
1
  6
CONTINUOUS
 62
     1
  5
10E
  2
LDR
 70
     0
 10
0.0
 20
0.0
 30
0.0
  3
LNR
  0
POLYLINE
  8
1
  6
CONTINUOUS
 62
     1
  5
10F
 66
     1
 10
0.0
 20
0.0
 30
0.0
210
0.0
220
0.0
230
1.0
  0
VERTEX
  8
1
  6
CONTINUOUS
 62
     1
  5
110
 10
-0.011987
 20
-0.001802
 30
0.0
 42
-0.265147
  0
VERTEX
  8
1
  6
CONTINUOUS
 62
     1
  5
111
 10
-0.011849
 20
-0.001604
 30
0.0
 42
-0.064653
  0
VERTEX
  8
1
  6
CONTINUOUS
 62
     1
  5
112
 10
-0.011407
 20
-0.001387
 30
0.0
 42
-0.025822
  0
VERTEX
  8
1
  6
CONTINUOUS
 62
     1
  5
113
 10
-0.010681
 20
-0.00116
 30
0.0
 42
-0.014504
  0
VERTEX
  8
1
  6
CONTINUOUS
 62
     1
  5
114
 10
-0.0097
 20
-0.000933
 30
0.0
 42
-0.009896
  0
VERTEX
  8
1
  6
CONTINUOUS
 62
     1
  5
115
 10
-0.008505
 20
-0.000715
 30
0.0
 42
-0.007708
  0
VERTEX
  8
1
  6
CONTINUOUS
 62
     1
  5
116
 10
-0.007146
 20
-0.000515
 30
0.0
 42
-0.006655
  0
VERTEX
  8
1
  6
CONTINUOUS
 62
     1
  5
117
 10
-0.005679
 20
-0.000342
 30
0.0
 42
-0.006278
  0
VERTEX
  8
1
  6
CONTINUOUS
 62
     1
  5
118
 10
-0.004164
 20
-0.000202
 30
0.0
 42
-0.006439
  0
VERTEX
  8
1
  6
CONTINUOUS
 62
     1
  5
119
 10
-0.002666
 20
-0.000101
 30
0.0
 42
-0.007196
  0
VERTEX
  8
1
  6
CONTINUOUS
 62
     1
  5
11A
 10
-0.001246
 20
-0.000044
 30
0.0
 42
-0.008852
  0
VERTEX
  8
1
  6
CONTINUOUS
 62
     1
  5
11B
 10
0.000037
 20
-0.000034
 30
0.0
 42
-0.008852
  0
SEQEND
  8
1
  6
CONTINUOUS
 62
     1
  5
11C
  0
POLYLINE
  8
1
  6
CONTINUOUS
 62
     1
  5
11D
 66
     1
 10
0.0
 20
0.0
 30
0.0
210
0.0
220
0.0
230
1.0
  0
VERTEX
  8
1
  6
CONTINUOUS
 62
     1
  5
11E
 10
0.000039
 20
0.000014
 30
0.0
 42
-0.005019
  0
VERTEX
  8
1
  6
CONTINUOUS
 62
     1
  5
11F
 10
-0.001103
 20
0.000071
 30
0.0
 42
-0.004038
  0
VERTEX
  8
1
  6
CONTINUOUS
 62
     1
  5
120
 10
-0.002373
 20
0.000158
 30
0.0
 42
-0.003548
  0
VERTEX
  8
1
  6
CONTINUOUS
 62
     1
  5
121
 10
-0.003725
 20
0.00027
 30
0.0
 42
-0.003367
  0
VERTEX
  8
1
  6
CONTINUOUS
 62
     1
  5
122
 10
-0.005111
 20
0.000405
 30
0.0
 42
-0.003436
  0
VERTEX
  8
1
  6
CONTINUOUS
 62
     1
  5
123
 10
-0.006481
 20
0.000556
 30
0.0
 42
-0.003778
  0
VERTEX
  8
1
  6
CONTINUOUS
 62
     1
  5
124
 10
-0.007786
 20
0.00072
 30
0.0
 42
-0.00451
  0
VERTEX
  8
1
  6
CONTINUOUS
 62
     1
  5
125
 10
-0.008979
 20
0.000889
 30
0.0
 42
-0.00594
  0
VERTEX
  8
1
  6
CONTINUOUS
 62
     1
  5
126
 10
-0.010018
 20
0.001058
 30
0.0
 42
-0.008921
  0
VERTEX
  8
1
  6
CONTINUOUS
 62
     1
  5
127
 10
-0.010864
 20
0.00122
 30
0.0
 42
-0.016392
  0
VERTEX
  8
1
  6
CONTINUOUS
 62
     1
  5
128
 10
-0.011488
 20
0.001371
 30
0.0
 42
-0.04458
  0
VERTEX
  8
1
  6
CONTINUOUS
 62
     1
  5
129
 10
-0.011867
 20
0.001503
 30
0.0
 42
-0.317392
  0
VERTEX
  8
1
  6
CONTINUOUS
 62
     1
  5
12A
 10
-0.011987
 20
0.001614
 30
0.0
 42
-0.317392
  0
SEQEND
  8
1
  6
CONTINUOUS
 62
     1
  5
12B
  0
ENDBLK
  8
1
  6
CONTINUOUS
 62
     1
  5
12C
  0
ENDSEC
  0
SECTION
  2
ENTITIES
  0
LINE
  8
61
  6
CONTINUOUS
 62
     1
  5
29
 10
667.663583
 20
429.629333
 30
0.0
 11
28.623583
 21
429.629333
 31
0.0
  0
LINE
  8
61
  6
CONTINUOUS
 62
     1
  5
2A
 10
28.623583
 20
429.629333
 30
0.0
 11
28.623583
 21
9.609333
 31
0.0
  0
LINE
  8
61
  6
CONTINUOUS
 62
     1
  5
2B
 10
667.683583
 20
9.589333
 30
0.0
 11
28.623583
 21
9.609333
 31
0.0
  0
LINE
  8
61
  6
CONTINUOUS
 62
     1
  5
2C
 10
667.663583
 20
429.629333
 30
0.0
 11
667.683583
 21
9.589333
 31
0.0
  0
LINE
  8
61
  6
CONTINUOUS
 62
     7
  5
2D
 10
661.563583
 20
424.889333
 30
0.0
 11
553.583583
 21
424.869333
 31
0.0
  0
LINE
  8
61
  6
CONTINUOUS
 62
     7
  5
2E
 10
553.583583
 20
424.869333
 30
0.0
 11
553.583583
 21
404.869333
 31
0.0
  0
LINE
  8
61
  6
CONTINUOUS
 62
     7
  5
2F
 10
661.563583
 20
424.889333
 30
0.0
 11
661.563583
 21
404.889333
 31
0.0
  0
LINE
  8
61
  6
CONTINUOUS
 62
     7
  5
30
 10
661.563583
 20
404.889333
 30
0.0
 11
553.583583
 21
404.869333
 31
0.0
  0
LINE
  8
61
  6
CONTINUOUS
 62
     7
  5
31
 10
661.583583
 20
414.849333
 30
0.0
 11
553.563583
 21
414.869333
 31
0.0
  0
LINE
  8
61
  6
CONTINUOUS
 62
     7
  5
32
 10
563.583583
 20
424.869333
 30
0.0
 11
563.583583
 21
404.869333
 31
0.0
  0
LINE
  8
61
  6
CONTINUOUS
 62
     7
  5
33
 10
573.583583
 20
424.869333
 30
0.0
 11
573.583583
 21
404.869333
 31
0.0
  0
LINE
  8
61
  6
CONTINUOUS
 62
     7
  5
34
 10
587.263583
 20
424.869333
 30
0.0
 11
587.263583
 21
404.869333
 31
0.0
  0
LINE
  8
61
  6
CONTINUOUS
 62
     7
  5
35
 10
651.563583
 20
424.889333
 30
0.0
 11
651.563583
 21
404.889333
 31
0.0
  0
LINE
  8
61
  6
CONTINUOUS
 62
     7
  5
36
 10
641.563583
 20
424.889333
 30
0.0
 11
641.563583
 21
404.889333
 31
0.0
  0
LINE
  8
61
  6
CONTINUOUS
 62
     7
  5
37
 10
619.583583
 20
424.869333
 30
0.0
 11
619.583583
 21
404.869333
 31
0.0
  0
LINE
  8
61
  6
CONTINUOUS
 62
     7
  5
38
 10
609.583583
 20
424.869333
 30
0.0
 11
609.583583
 21
404.869333
 31
0.0
  0
TEXT
  8
61
  6
CONTINUOUS
 62
     7
  5
3A
 10
555.623583
 20
421.849333
 30
0.0
 40
1.20075
  1
PUBLIC
 50
0.033272
 41
1.001804
  7
MONOTXT
210
0.0
220
0.0
230
1.0
  0
TEXT
  8
61
  6
CONTINUOUS
 62
     7
  5
3B
 10
555.703583
 20
419.329333
 30
0.0
 40
1.20075
  1
ROADS
 50
0.124322
 41
0.996877
  7
MONOTXT
210
0.0
220
0.0
230
1.0
  0
TEXT
  8
61
  6
CONTINUOUS
 62
     7
  5
3C
 10
556.903583
 20
416.829333
 30
0.0
 40
1.20075
  1
DIV.
 50
359.931522
 41
0.994864
  7
MONOTXT
210
0.0
220
0.0
230
1.0
  0
TEXT
  8
61
  6
CONTINUOUS
 62
     7
  5
3D
 10
565.783583
 20
421.909333
 30
0.0
 40
1.20075
  1
STATE
 50
0.058969
 41
0.998196
  7
MONOTXT
210
0.0
220
0.0
230
1.0
  0
TEXT
  8
61
  6
CONTINUOUS
 62
     7
  5
3E
 10
566.663583
 20
419.409333
 30
0.0
 40
1.20075
  1
DIST.
 50
0.055889
 41
0.999584
  7
MONOTXT
210
0.0
220
0.0
230
1.0
  0
TEXT
  8
61
  6
CONTINUOUS
 62
     7
  5
3F
 10
567.243583
 20
416.889333
 30
0.0
 40
1.20075
  1
NO.
 50
359.852072
 41
0.997779
  7
MONOTXT
210
0.0
220
0.0
230
1.0
  0
TEXT
  8
61
  6
CONTINUOUS
 62
     7
  5
40
 10
577.783583
 20
421.849333
 30
0.0
 40
1.20075
  1
STATE
 50
0.058969
 41
0.998196
  7
MONOTXT
210
0.0
220
0.0
230
1.0
  0
TEXT
  8
61
  6
CONTINUOUS
 62
     7
  5
41
 10
576.703583
 20
419.429333
 30
0.0
 40
1.20075
  1
PROJECT
 50
359.908431
 41
1.000069
  7
MONOTXT
210
0.0
220
0.0
230
1.0
  0
TEXT
  8
61
  6
CONTINUOUS
 62
     7
  5
42
 10
579.443583
 20
416.889333
 30
0.0
 40
1.20075
  1
NO.
 50
0.225453
 41
0.993546
  7
MONOTXT
210
0.0
220
0.0
230
1.0
  0
TEXT
  8
61
  6
CONTINUOUS
 62
     7
  5
43
 10
595.083583
 20
420.729333
 30
0.0
 40
1.20075
  1
FEDERAL
 50
0.006714
 41
0.998543
  7
MONOTXT
210
0.0
220
0.0
230
1.0
  0
TEXT
  8
61
  6
CONTINUOUS
 62
     7
  5
44
 10
593.543583
 20
418.069333
 30
0.0
 40
1.20075
  1
PROJECT NO.
 50
359.921531
 41
1.000694
  7
MONOTXT
210
0.0
220
0.0
230
1.0
  0
TEXT
  8
61
  6
CONTINUOUS
 62
     7
  5
45
 10
611.823583
 20
420.669333
 30
0.0
 40
1.20075
  1
FISCAL
 50
359.941939
 41
0.998959
  7
MONOTXT
210
0.0
220
0.0
230
1.0
  0
TEXT
  8
61
  6
CONTINUOUS
 62
     7
  5
46
 10
612.343583
 20
417.769333
 30
0.0
 40
1.20075
  1
YEAR
 50
0.104606
 41
0.993268
  7
MONOTXT
210
0.0
220
0.0
230
1.0
  0
TEXT
  8
61
  6
CONTINUOUS
 62
     7
  5
47
 10
626.443583
 20
419.129333
 30
0.0
 40
1.20075
  1
COUNTY
 50
0.068575
 41
1.001874
  7
MONOTXT
210
0.0
220
0.0
230
1.0
  0
TEXT
  8
61
  6
CONTINUOUS
 62
     7
  5
48
 10
644.083583
 20
420.789333
 30
0.0
 40
1.20075
  1
SHEET
 50
0.058969
 41
0.997571
  7
MONOTXT
210
0.0
220
0.0
230
1.0
  0
TEXT
  8
61
  6
CONTINUOUS
 62
     7
  5
49
 10
645.503583
 20
418.069333
 30
0.0
 40
1.20075
  1
NO.
 50
359.852072
 41
0.997779
  7
MONOTXT
210
0.0
220
0.0
230
1.0
  0
TEXT
  8
61
  6
CONTINUOUS
 62
     7
  5
4A
 10
653.823583
 20
420.649333
 30
0.0
 40
1.20075
  1
TOTAL
 50
359.926039
 41
0.998543
  7
MONOTXT
210
0.0
220
0.0
230
1.0
  0
TEXT
  8
61
  6
CONTINUOUS
 62
     7
  5
4B
 10
653.363583
 20
417.949333
 30
0.0
 40
1.20075
  1
SHEETS
 50
359.958675
  7
MONOTXT
210
0.0
220
0.0
230
1.0
  0
TEXT
  8
61
  6
CONTINUOUS
 62
     7
  5
4C
 10
566.183583
 20
409.069333
 30
0.0
 40
2.401333
  1
  
 50
0.029406
 41
0.996495
  7
MONOTXT
210
0.0
220
0.0
230
1.0
  0
TEXT
  8
61
  6
CONTINUOUS
 62
     7
  5
4D
 10
643.363583
 20
408.789333
 30
0.0
 40
2.401333
  1
   
 50
0.011508
 41
1.001006
  7
MONOTXT
210
0.0
220
0.0
230
1.0
  0
TEXT
  8
61
  6
CONTINUOUS
 62
     7
  5
4E
 10
653.243583
 20
408.769333
 30
0.0
 40
2.401333
  1
   
 50
359.922128
 41
1.000555
  7
MONOTXT
210
0.0
220
0.0
230
1.0
  0
TEXT
  8
61
  6
CONTINUOUS
 62
     7
  5
4F
 10
576.623583
 20
412.169333
 30
0.0
 40
2.00675
  1
    
 50
0.054383
 41
0.993729
  7
MONOTXT
210
0.0
220
0.0
230
1.0
  0
TEXT
  8
61
  6
CONTINUOUS
 62
     7
  5
50
 10
573.703583
 20
409.149333
 30
0.0
 40
1.989583
  1
       
 50
0.064678
 41
1.000963
  7
MONOTXT
210
0.0
220
0.0
230
1.0
  0
TEXT
  8
61
  6
CONTINUOUS
 62
     7
  5
51
 10
574.663583
 20
406.249333
 30
0.0
 40
1.989583
  1
      
 50
359.958053
 41
1.000293
  7
MONOTXT
210
0.0
220
0.0
230
1.0
  0
TEXT
  8
61
  6
CONTINUOUS
 62
     7
  5
52
 10
585.623583
 20
410.889333
 30
0.0
 40
2.401333
  1
           
 50
0.011508
 41
0.998751
  7
MONOTXT
210
0.0
220
0.0
230
1.0
  0
TEXT
  8
61
  6
CONTINUOUS
 62
     7
  5
53
 10
585.503583
 20
407.229333
 30
0.0
 40
2.401333
  1
           
 50
0.011508
 41
0.999584
  7
MONOTXT
210
0.0
220
0.0
230
1.0
  0
TEXT
  8
61
  6
CONTINUOUS
 62
     7
  5
54
 10
620.843583
 20
408.969333
 30
0.0
 40
2.00675
  1
          
 50
0.009222
 41
0.992774
  7
MONOTXT
210
0.0
220
0.0
230
1.0
  0
ARC
  8
61
  6
CONTINUOUS
 62
     3
  5
55
 10
10.32134
 20
340.870628
 30
0.0
 40
2.499998
 50
323.130094
 51
316.232156
210
0.0
220
0.0
230
1.0
  0
ARC
  8
61
  6
CONTINUOUS
 62
     3
  5
56
 10
10.32134
 20
285.870628
 30
0.0
 40
2.499998
 50
323.130094
 51
315.375767
210
0.0
220
0.0
230
1.0
  0
ARC
  8
61
  6
CONTINUOUS
 62
     3
  5
57
 10
10.04134
 20
137.430628
 30
0.0
 40
2.499998
 50
322.671753
 51
321.716147
210
0.0
220
0.0
230
1.0
  0
ARC
  8
61
  6
CONTINUOUS
 62
     3
  5
58
 10
10.04134
 20
82.430628
 30
0.0
 40
2.499998
 50
323.130094
 51
312.314392
210
0.0
220
0.0
230
1.0
  0
LINE
  8
61
  6
CONTINUOUS
 62
     2
  5
59
 10
12.343583
 20
340.869333
 30
0.0
 11
20.323583
 21
340.889333
 31
0.0
  0
LINE
  8
61
  6
CONTINUOUS
 62
     2
  5
5A
 10
12.323583
 20
285.869333
 30
0.0
 11
20.323583
 21
285.869333
 31
0.0
  0
LINE
  8
61
  6
CONTINUOUS
 62
     2
  5
5B
 10
12.043583
 20
137.449333
 30
0.0
 11
20.043583
 21
137.449333
 31
0.0
  0
LINE
  8
61
  6
CONTINUOUS
 62
     2
  5
5C
 10
12.063583
 20
82.429333
 30
0.0
 11
20.043583
 21
82.429333
 31
0.0
  0
LINE
  8
61
  6
DASHED
 62
     1
  5
5D
 10
-1.376417
 20
439.629333
 30
0.0
 11
678.643583
 21
439.629333
 31
0.0
  0
LINE
  8
61
  6
DASHED
 62
     1
  5
5E
 10
678.623583
 20
-0.390667
 30
0.0
 11
-1.436417
 21
-0.410667
 31
0.0
  0
TEXT
  8
61
  6
CONTINUOUS
 62
     7
  5
5F
 10
654.463583
 20
384.969333
 30
0.0
 40
2.401333
  1
     
 41
1.001388
  7
MONOTXT
210
0.0
220
0.0
230
1.0
  0
LINE
  8
1
  6
HIDDEN
 62
     1
  5
61
 10
678.643583
 20
439.629333
 30
0.0
 11
678.623583
 21
-0.390667
 31
0.0
  0
LINE
  8
1
  6
HIDDEN
 62
     1
  5
62
 10
-1.376417
 20
439.629333
 30
0.0
 11
-1.436417
 21
-0.410667
 31
0.0
  0
TEXT
  8
1
  6
CONTINUOUS
 62
     1
  5
64
 10
633.403583
 20
7.089333
 30
0.0
 40
1.2
  1
TRAFFIC ENGINEERING DIVISION
  7
txt
210
0.0
220
0.0
230
1.0
  0
LINE
  8
1
  6
CONTINUOUS
 62
     7
  5
65
 10
496.023583
 20
9.589333
 30
0.0
 11
496.023583
 21
101.169333
 31
0.0
  0
LINE
  8
1
  6
CONTINUOUS
 62
     7
  5
66
 10
496.023583
 20
101.169333
 30
0.0
 11
667.683583
 21
101.169333
 31
0.0
  0
LINE
  8
1
  6
CONTINUOUS
 62
     7
  5
67
 10
531.023583
 20
9.549333
 30
0.0
 11
531.023583
 21
54.509333
 31
0.0
  0
LINE
  8
1
  6
CONTINUOUS
 62
     7
  5
68
 10
531.023583
 20
54.509333
 30
0.0
 11
496.043583
 21
54.509333
 31
0.0
  0
LINE
  8
1
  6
CONTINUOUS
 62
     7
  5
69
 10
531.023583
 20
50.029333
 30
0.0
 11
496.043583
 21
50.029333
 31
0.0
  0
LINE
  8
1
  6
CONTINUOUS
 62
     7
  5
6A
 10
531.023583
 20
45.529333
 30
0.0
 11
496.043583
 21
45.529333
 31
0.0
  0
LINE
  8
1
  6
CONTINUOUS
 62
     7
  5
6B
 10
531.023583
 20
41.029333
 30
0.0
 11
496.043583
 21
41.029333
 31
0.0
  0
LINE
  8
1
  6
CONTINUOUS
 62
     7
  5
6C
 10
531.023583
 20
36.509333
 30
0.0
 11
496.043583
 21
36.509333
 31
0.0
  0
LINE
  8
1
  6
CONTINUOUS
 62
     7
  5
6D
 10
531.023583
 20
32.029333
 30
0.0
 11
496.043583
 21
32.029333
 31
0.0
  0
LINE
  8
1
  6
CONTINUOUS
 62
     7
  5
6E
 10
531.023583
 20
27.549333
 30
0.0
 11
496.043583
 21
27.549333
 31
0.0
  0
LINE
  8
1
  6
CONTINUOUS
 62
     7
  5
6F
 10
531.023583
 20
23.049333
 30
0.0
 11
496.043583
 21
23.049333
 31
0.0
  0
LINE
  8
1
  6
CONTINUOUS
 62
     7
  5
70
 10
531.023583
 20
18.549333
 30
0.0
 11
496.043583
 21
18.549333
 31
0.0
  0
LINE
  8
1
  6
CONTINUOUS
 62
     7
  5
71
 10
531.023583
 20
14.029333
 30
0.0
 11
496.043583
 21
14.029333
 31
0.0
  0
TEXT
  8
1
  6
CONTINUOUS
 62
     7
  5
72
 10
506.303583
 20
51.509333
 30
0.0
 40
1.99775
  1
REVISIONS
  7
MONOTXT
210
0.0
220
0.0
230
1.0
  0
TEXT
  8
1
  6
CONTINUOUS
 62
     7
  5
73
 10
497.983583
 20
55.509333
 30
0.0
 40
1.99775
  1
PREPARED: 07/18/75
  7
MONOTXT
210
0.0
220
0.0
230
1.0
  0
TEXT
  8
1
  6
CONTINUOUS
 62
     7
  5
75
 10
528.643583
 20
92.569333
 30
0.0
 40
4.794833
  1
WEST VIRGINIA DIVISION OF HIGHWAYS
  7
ROMANT
 72
     1
 11
582.613833
 21
97.364167
 31
0.0
210
0.0
220
0.0
230
1.0
 73
     3
  0
TEXT
  8
1
  6
CONTINUOUS
 62
     7
  5
76
 10
539.403583
 20
81.409333
 30
0.0
 40
6.992667
  1
STANDARD DETAIL
  7
txt
 72
     1
 11
583.893667
 21
88.402
 31
0.0
210
0.0
220
0.0
230
1.0
 73
     3
  0
TEXT
  8
1
  6
CONTINUOUS
 62
     1
  5
77
 10
506.0795
 20
46.449333
 30
0.0
 40
2.0
  1
07-22-76
  7
MONOTXT
 72
     1
 11
513.331583
 21
48.449333
 31
0.0
210
0.0
220
0.0
230
1.0
 73
     3
  0
TEXT
  8
1
  6
CONTINUOUS
 62
     1
  5
78
 10
506.862667
 20
42.049333
 30
0.0
 40
2.0
  1
08-11-77
  7
MONOTXT
 72
     1
 11
513.303667
 21
44.049333
 31
0.0
210
0.0
220
0.0
230
1.0
 73
     3
  0
TEXT
  8
1
  6
CONTINUOUS
 62
     1
  5
79
 10
506.2055
 20
37.649333
 30
0.0
 40
2.0
  1
09-14-93
  7
MONOTXT
 72
     1
 11
513.000833
 21
39.649333
 31
0.0
210
0.0
220
0.0
230
1.0
 73
     3
  0
TEXT
  8
1
  6
CONTINUOUS
 62
     1
  5
7A
 10
505.323583
 20
33.249333
 30
0.0
 40
2.0
  1
        
  7
MONOTXT
 72
     1
 11
512.990417
 21
35.249333
 31
0.0
210
0.0
220
0.0
230
1.0
 73
     3
  0
TEXT
  8
1
  6
CONTINUOUS
 62
     1
  5
7B
 10
505.163583
 20
28.649333
 30
0.0
 40
2.0
  1
        
  7
MONOTXT
 72
     1
 11
512.830417
 21
30.649333
 31
0.0
210
0.0
220
0.0
230
1.0
 73
     3
  0
TEXT
  8
1
  6
CONTINUOUS
 62
     1
  5
7C
 10
505.323583
 20
24.169333
 30
0.0
 40
2.0
  1
        
  7
MONOTXT
 72
     1
 11
512.990417
 21
26.169333
 31
0.0
210
0.0
220
0.0
230
1.0
 73
     3
  0
TEXT
  8
1
  6
CONTINUOUS
 62
     1
  5
7D
 10
505.223583
 20
19.569333
 30
0.0
 40
2.0
  1
        
  7
MONOTXT
 72
     1
 11
512.890417
 21
21.569333
 31
0.0
210
0.0
220
0.0
230
1.0
 73
     3
  0
TEXT
  8
1
  6
CONTINUOUS
 62
     1
  5
7E
 10
505.323583
 20
14.989333
 30
0.0
 40
2.0
  1
        
  7
MONOTXT
 72
     1
 11
512.990417
 21
16.989333
 31
0.0
210
0.0
220
0.0
230
1.0
 73
     3
  0
TEXT
  8
1
  6
CONTINUOUS
 62
     1
  5
7F
 10
505.323583
 20
10.969333
 30
0.0
 40
2.0
  1
        
  7
MONOTXT
 72
     1
 11
512.990417
 21
12.969333
 31
0.0
210
0.0
220
0.0
230
1.0
 73
     3
  0
LINE
  8
1
  6
CONTINUOUS
 62
     7
  5
80
 10
500.12775
 20
107.095333
 30
0.0
 11
496.12775
 21
107.095333
 31
0.0
  0
LINE
  8
1
  6
CONTINUOUS
 62
     7
  5
81
 10
498.12775
 20
110.559417
 30
0.0
 11
496.12775
 21
107.095333
 31
0.0
  0
LINE
  8
1
  6
CONTINUOUS
 62
     7
  5
82
 10
498.12775
 20
110.559417
 30
0.0
 11
500.12775
 21
107.095333
 31
0.0
  0
LINE
  8
1
  6
CONTINUOUS
 62
     7
  5
83
 10
500.212667
 20
111.895833
 30
0.0
 11
496.212667
 21
111.895833
 31
0.0
  0
LINE
  8
1
  6
CONTINUOUS
 62
     7
  5
84
 10
498.212667
 20
115.359917
 30
0.0
 11
496.212667
 21
111.895833
 31
0.0
  0
LINE
  8
1
  6
CONTINUOUS
 62
     7
  5
85
 10
498.212667
 20
115.359917
 30
0.0
 11
500.212667
 21
111.895833
 31
0.0
  0
LINE
  8
1
  6
CONTINUOUS
 62
     7
  5
86
 10
501.098417
 20
46.00775
 30
0.0
 11
497.098417
 21
46.00775
 31
0.0
  0
LINE
  8
1
  6
CONTINUOUS
 62
     7
  5
87
 10
499.098417
 20
49.471833
 30
0.0
 11
497.098417
 21
46.00775
 31
0.0
  0
LINE
  8
1
  6
CONTINUOUS
 62
     7
  5
88
 10
499.098417
 20
49.471833
 30
0.0
 11
501.098417
 21
46.00775
 31
0.0
  0
LINE
  8
1
  6
CONTINUOUS
 62
     7
  5
89
 10
501.092667
 20
41.423667
 30
0.0
 11
497.092667
 21
41.423667
 31
0.0
  0
LINE
  8
1
  6
CONTINUOUS
 62
     7
  5
8A
 10
499.092667
 20
44.88775
 30
0.0
 11
497.092667
 21
41.423667
 31
0.0
  0
LINE
  8
1
  6
CONTINUOUS
 62
     7
  5
8B
 10
499.092667
 20
44.88775
 30
0.0
 11
501.092667
 21
41.423667
 31
0.0
  0
TEXT
  8
1
  6
CONTINUOUS
 62
     7
  5
8C
 10
546.493583
 20
71.951
 30
0.0
 40
6.992667
  1
LIGHTING POLE
  7
txt
 72
     1
 11
583.38725
 21
78.943667
 31
0.0
210
0.0
220
0.0
230
1.0
 73
     3
  0
TEXT
  8
1
  6
CONTINUOUS
 62
     7
  5
8D
 10
523.360167
 20
62.492667
 30
0.0
 40
6.992667
  1
SUPPORT BASE - TYPE F
  7
txt
 72
     1
 11
583.218417
 21
69.485333
 31
0.0
210
0.0
220
0.0
230
1.0
 73
     3
  0
TEXT
  8
1
  6
CONTINUOUS
 62
     7
  5
8E
 10
534.863583
 20
13.629333
 30
0.0
 40
6.992667
  1
STANDARD SHEET TEL-17C
  7
txt
210
0.0
220
0.0
230
1.0
  0
TEXT
  8
1
  6
CONTINUOUS
 62
     7
  5
8F
 10
497.855417
 20
112.3305
 30
0.0
 40
2.0
  1
1
  7
MONOTXT
210
0.0
220
0.0
230
1.0
  0
TEXT
  8
1
  6
CONTINUOUS
 62
     7
  5
90
 10
497.363417
 20
107.4085
 30
0.0
 40
2.0
  1
2
  7
MONOTXT
210
0.0
220
0.0
230
1.0
  0
TEXT
  8
1
  6
CONTINUOUS
 62
     7
  5
91
 10
501.693333
 20
112.527417
 30
0.0
 40
2.0
  1
DELETED WELDS AND ADDED HEX. HEADS FOR ANCHOR PLATE
  7
MONOTXT
210
0.0
220
0.0
230
1.0
  0
TEXT
  8
1
  6
CONTINUOUS
 62
     7
  5
92
 10
501.29975
 20
107.90075
 30
0.0
 40
2.0
  1
CHANGED ALL DIMENSIONS
  7
MONOTXT
210
0.0
220
0.0
230
1.0
  0
TEXT
  8
1
  6
CONTINUOUS
 62
     7
  5
93
 10
498.702333
 20
46.354167
 30
0.0
 40
2.0
  1
1
  7
MONOTXT
210
0.0
220
0.0
230
1.0
  0
TEXT
  8
1
  6
CONTINUOUS
 62
     7
  5
94
 10
498.50975
 20
41.691917
 30
0.0
 40
2.0
  1
2
  7
MONOTXT
210
0.0
220
0.0
230
1.0
  0
LINE
  8
1
  6
CONTINUOUS
 62
     3
  5
95
 10
70.691083
 20
383.171083
 30
0.0
 11
130.691083
 21
383.171083
 31
0.0
  0
LINE
  8
1
  6
CONTINUOUS
 62
     3
  5
96
 10
130.691083
 20
309.171083
 30
0.0
 11
70.691083
 21
309.171083
 31
0.0
  0
LINE
  8
1
  6
CONTINUOUS
 62
     3
  5
97
 10
70.691083
 20
378.171083
 30
0.0
 11
130.691083
 21
378.171083
 31
0.0
  0
LINE
  8
1
  6
CONTINUOUS
 62
     3
  5
98
 10
130.691083
 20
314.171083
 30
0.0
 11
70.691083
 21
314.171083
 31
0.0
  0
LINE
  8
1
  6
HIDDEN
 62
     3
  5
99
 10
73.191083
 20
314.171083
 30
0.0
 11
73.191083
 21
378.171083
 31
0.0
  0
LINE
  8
1
  6
HIDDEN
 62
     3
  5
9A
 10
128.191083
 20
378.171083
 30
0.0
 11
128.191083
 21
314.171083
 31
0.0
  0
LINE
  8
1
  6
CONTINUOUS
 62
     3
  5
9B
 10
80.691083
 20
315.421083
 30
0.0
 11
80.691083
 21
374.171083
 31
0.0
  0
LINE
  8
1
  6
CONTINUOUS
 62
     3
  5
9C
 10
120.691083
 20
374.171083
 30
0.0
 11
120.691083
 21
315.421083
 31
0.0
  0
LINE
  8
1
  6
CONTINUOUS
 62
     3
  5
9D
 10
80.691083
 20
374.171083
 30
0.0
 11
120.691083
 21
374.171083
 31
0.0
  0
LINE
  8
1
  6
CONTINUOUS
 62
     3
  5
9E
 10
120.691083
 20
315.421083
 30
0.0
 11
80.691083
 21
315.421083
 31
0.0
  0
LINE
  8
1
  6
CONTINUOUS
 62
     3
  5
9F
 10
119.441083
 20
316.671083
 30
0.0
 11
81.941083
 21
316.671083
 31
0.0
  0
LINE
  8
1
  6
CONTINUOUS
 62
     3
  5
A0
 10
81.941083
 20
316.671083
 30
0.0
 11
81.941083
 21
372.921083
 31
0.0
  0
LINE
  8
1
  6
CONTINUOUS
 62
     3
  5
A1
 10
119.441083
 20
372.921083
 30
0.0
 11
119.441083
 21
316.671083
 31
0.0
  0
LINE
  8
1
  6
CONTINUOUS
 62
     3
  5
A2
 10
81.941083
 20
372.921083
 30
0.0
 11
119.441083
 21
372.921083
 31
0.0
  0
LINE
  8
1
  6
HIDDEN
 62
     3
  5
A3
 10
85.691083
 20
321.671083
 30
0.0
 11
85.691083
 21
367.921083
 31
0.0
  0
LINE
  8
1
  6
HIDDEN
 62
     3
  5
A4
 10
115.691083
 20
367.921083
 30
0.0
 11
115.691083
 21
321.671083
 31
0.0
  0
LINE
  8
1
  6
HIDDEN
 62
     3
  5
A5
 10
115.691083
 20
321.671083
 30
0.0
 11
85.691083
 21
321.671083
 31
0.0
  0
LINE
  8
1
  6
HIDDEN
 62
     3
  5
A6
 10
85.691083
 20
367.921083
 30
0.0
 11
115.691083
 21
367.921083
 31
0.0
  0
LINE
  8
1
  6
CONTINUOUS
 62
     3
  5
A7
 10
70.691083
 20
378.171083
 30
0.0
 11
70.691083
 21
383.171083
 31
0.0
  0
POLYLINE
  8
1
  6
CONTINUOUS
 62
     3
  5
A8
 66
     1
 10
0.0
 20
0.0
 30
0.0
 70
     1
  0
VERTEX
  8
1
  6
CONTINUOUS
 62
     3
  5
A9
 10
70.691083
 20
378.171083
 30
0.0
  0
VERTEX
  8
1
  6
CONTINUOUS
 62
     3
  5
AA
 10
73.191083
 20
378.171083
 30
0.0
  0
VERTEX
  8
1
  6
CONTINUOUS
 62
     3
  5
AB
 10
70.691083
 20
375.671083
 30
0.0
  0
VERTEX
  8
1
  6
CONTINUOUS
 62
     3
  5
AC
 10
70.691083
 20
378.171083
 30
0.0
  0
SEQEND
  8
1
  6
CONTINUOUS
 62
     3
  5
AD
  0
LINE
  8
1
  6
CONTINUOUS
 62
     3
  5
AE
 10
130.691083
 20
383.171083
 30
0.0
 11
130.691083
 21
378.171083
 31
0.0
  0
POLYLINE
  8
1
  6
CONTINUOUS
 62
     3
  5
AF
 66
     1
 10
0.0
 20
0.0
 30
0.0
 70
     1
  0
VERTEX
  8
1
  6
CONTINUOUS
 62
     3
  5
B0
 10
128.191083
 20
378.171083
 30
0.0
  0
VERTEX
  8
1
  6
CONTINUOUS
 62
     3
  5
B1
 10
130.691083
 20
378.171083
 30
0.0
  0
VERTEX
  8
1
  6
CONTINUOUS
 62
     3
  5
B2
 10
130.691083
 20
375.671083
 30
0.0
  0
VERTEX
  8
1
  6
CONTINUOUS
 62
     3
  5
B3
 10
128.191083
 20
378.171083
 30
0.0
  0
SEQEND
  8
1
  6
CONTINUOUS
 62
     3
  5
B4
  0
LINE
  8
1
  6
CONTINUOUS
 62
     3
  5
B5
 10
70.691083
 20
309.171083
 30
0.0
 11
70.691083
 21
316.671083
 31
0.0
  0
POLYLINE
  8
1
  6
CONTINUOUS
 62
     3
  5
B6
 66
     1
 10
0.0
 20
0.0
 30
0.0
 70
     1
  0
VERTEX
  8
1
  6
CONTINUOUS
 62
     3
  5
B7
 10
70.691083
 20
314.171083
 30
0.0
  0
VERTEX
  8
1
  6
CONTINUOUS
 62
     3
  5
B8
 10
70.691083
 20
316.671083
 30
0.0
  0
VERTEX
  8
1
  6
CONTINUOUS
 62
     3
  5
B9
 10
73.191083
 20
314.171083
 30
0.0
  0
VERTEX
  8
1
  6
CONTINUOUS
 62
     3
  5
BA
 10
70.691083
 20
314.171083
 30
0.0
  0
SEQEND
  8
1
  6
CONTINUOUS
 62
     3
  5
BB
  0
LINE
  8
1
  6
CONTINUOUS
 62
     3
  5
BC
 10
130.691083
 20
378.171083
 30
0.0
 11
130.691083
 21
316.671083
 31
0.0
  0
LINE
  8
1
  6
CONTINUOUS
 62
     3
  5
BD
 10
130.691083
 20
316.671083
 30
0.0
 11
130.691083
 21
309.171083
 31
0.0
  0
POLYLINE
  8
1
  6
CONTINUOUS
 62
     3
  5
BE
 66
     1
 10
0.0
 20
0.0
 30
0.0
 70
     1
  0
VERTEX
  8
1
  6
CONTINUOUS
 62
     3
  5
BF
 10
130.691083
 20
314.171083
 30
0.0
  0
VERTEX
  8
1
  6
CONTINUOUS
 62
     3
  5
C0
 10
128.191083
 20
314.171083
 30
0.0
  0
VERTEX
  8
1
  6
CONTINUOUS
 62
     3
  5
C1
 10
130.691083
 20
316.671083
 30
0.0
  0
VERTEX
  8
1
  6
CONTINUOUS
 62
     3
  5
C2
 10
130.691083
 20
314.171083
 30
0.0
  0
SEQEND
  8
1
  6
CONTINUOUS
 62
     3
  5
C3
  0
LINE
  8
1
  6
CONTINUOUS
 62
     7
  5
C4
 10
84.941083
 20
319.171083
 30
0.0
 11
83.941083
 21
319.171083
 31
0.0
  0
LINE
  8
1
  6
CONTINUOUS
 62
     7
  5
C5
 10
116.941083
 20
370.921083
 30
0.0
 11
116.941083
 21
369.921083
 31
0.0
  0
CIRCLE
  8
1
  6
CONTINUOUS
 62
     3
  5
C6
 10
84.441083
 20
370.421083
 30
0.0
 40
1.25
210
0.0
220
0.0
230
1.0
  0
CIRCLE
  8
1
  6
CONTINUOUS
 62
     3
  5
C7
 10
116.941083
 20
370.421083
 30
0.0
 40
1.25
210
0.0
220
0.0
230
1.0
  0
CIRCLE
  8
1
  6
CONTINUOUS
 62
     3
  5
C8
 10
116.941083
 20
319.171083
 30
0.0
 40
1.25
210
0.0
220
0.0
230
1.0
  0
CIRCLE
  8
1
  6
CONTINUOUS
 62
     3
  5
C9
 10
84.441083
 20
319.171083
 30
0.0
 40
1.25
210
0.0
220
0.0
230
1.0
  0
LINE
  8
1
  6
CONTINUOUS
 62
     7
  5
CA
 10
83.941083
 20
370.421083
 30
0.0
 11
84.941083
 21
370.421083
 31
0.0
  0
LINE
  8
1
  6
CONTINUOUS
 62
     7
  5
CB
 10
116.441083
 20
370.421083
 30
0.0
 11
117.441083
 21
370.421083
 31
0.0
  0
LINE
  8
1
  6
CONTINUOUS
 62
     7
  5
CC
 10
84.441083
 20
318.671083
 30
0.0
 11
84.441083
 21
319.671083
 31
0.0
  0
LINE
  8
1
  6
CONTINUOUS
 62
     7
  5
CD
 10
84.441083
 20
369.921083
 30
0.0
 11
84.441083
 21
370.921083
 31
0.0
  0
LINE
  8
1
  6
CONTINUOUS
 62
     7
  5
CE
 10
84.441083
 20
371.421083
 30
0.0
 11
84.441083
 21
372.421083
 31
0.0
  0
LINE
  8
1
  6
CONTINUOUS
 62
     7
  5
CF
 10
85.441083
 20
370.421083
 30
0.0
 11
86.441083
 21
370.421083
 31
0.0
  0
LINE
  8
1
  6
CONTINUOUS
 62
     7
  5
D0
 10
84.441083
 20
369.421083
 30
0.0
 11
84.441083
 21
368.421083
 31
0.0
  0
LINE
  8
1
  6
CONTINUOUS
 62
     7
  5
D1
 10
83.441083
 20
370.421083
 30
0.0
 11
82.441083
 21
370.421083
 31
0.0
  0
LINE
  8
1
  6
CONTINUOUS
 62
     7
  5
D2
 10
115.941083
 20
370.421083
 30
0.0
 11
114.941083
 21
370.421083
 31
0.0
  0
LINE
  8
1
  6
CONTINUOUS
 62
     7
  5
D3
 10
116.941083
 20
371.421083
 30
0.0
 11
116.941083
 21
372.421083
 31
0.0
  0
LINE
  8
1
  6
CONTINUOUS
 62
     7
  5
D4
 10
117.941083
 20
370.421083
 30
0.0
 11
118.941083
 21
370.421083
 31
0.0
  0
LINE
  8
1
  6
CONTINUOUS
 62
     7
  5
D5
 10
116.941083
 20
369.421083
 30
0.0
 11
116.941083
 21
368.421083
 31
0.0
  0
LINE
  8
1
  6
CONTINUOUS
 62
     7
  5
D6
 10
84.441083
 20
318.171083
 30
0.0
 11
84.441083
 21
317.171083
 31
0.0
  0
LINE
  8
1
  6
CONTINUOUS
 62
     7
  5
D7
 10
83.441083
 20
319.171083
 30
0.0
 11
82.441083
 21
319.171083
 31
0.0
  0
LINE
  8
1
  6
CONTINUOUS
 62
     7
  5
D8
 10
84.441083
 20
320.171083
 30
0.0
 11
84.441083
 21
321.171083
 31
0.0
  0
LINE
  8
1
  6
CONTINUOUS
 62
     7
  5
D9
 10
85.441083
 20
319.171083
 30
0.0
 11
86.441083
 21
319.171083
 31
0.0
  0
LINE
  8
1
  6
CONTINUOUS
 62
     7
  5
DA
 10
116.441083
 20
319.171083
 30
0.0
 11
117.441083
 21
319.171083
 31
0.0
  0
LINE
  8
1
  6
CONTINUOUS
 62
     7
  5
DB
 10
116.941083
 20
319.671083
 30
0.0
 11
116.941083
 21
318.671083
 31
0.0
  0
LINE
  8
1
  6
CONTINUOUS
 62
     7
  5
DC
 10
116.941083
 20
318.171083
 30
0.0
 11
116.941083
 21
317.171083
 31
0.0
  0
LINE
  8
1
  6
CONTINUOUS
 62
     7
  5
DD
 10
115.941083
 20
319.171083
 30
0.0
 11
114.941083
 21
319.171083
 31
0.0
  0
LINE
  8
1
  6
CONTINUOUS
 62
     7
  5
DE
 10
116.941083
 20
320.171083
 30
0.0
 11
116.941083
 21
321.171083
 31
0.0
  0
LINE
  8
1
  6
CONTINUOUS
 62
     7
  5
DF
 10
117.941083
 20
319.171083
 30
0.0
 11
118.941083
 21
319.171083
 31
0.0
  0
LINE
  8
1
  6
CONTINUOUS
 62
     3
  5
E0
 10
83.343333
 20
369.823333
 30
0.0
 11
85.038833
 21
371.518833
 31
0.0
  0
LINE
  8
1
  6
CONTINUOUS
 62
     3
  5
E1
 10
85.538833
 20
371.018833
 30
0.0
 11
83.843333
 21
369.323333
 31
0.0
  0
LINE
  8
1
  6
CONTINUOUS
 62
     3
  5
E2
 10
115.843333
 20
369.823333
 30
0.0
 11
117.538833
 21
371.518833
 31
0.0
  0
LINE
  8
1
  6
CONTINUOUS
 62
     3
  5
E3
 10
118.038833
 20
371.018833
 30
0.0
 11
116.343333
 21
369.323333
 31
0.0
  0
LINE
  8
1
  6
CONTINUOUS
 62
     3
  5
E4
 10
83.343333
 20
318.573333
 30
0.0
 11
85.038833
 21
320.268833
 31
0.0
  0
LINE
  8
1
  6
CONTINUOUS
 62
     3
  5
E5
 10
85.538833
 20
319.768833
 30
0.0
 11
83.843333
 21
318.073333
 31
0.0
  0
LINE
  8
1
  6
CONTINUOUS
 62
     3
  5
E6
 10
115.843333
 20
318.573333
 30
0.0
 11
117.538833
 21
320.268833
 31
0.0
  0
LINE
  8
1
  6
CONTINUOUS
 62
     3
  5
E7
 10
116.343333
 20
318.073333
 30
0.0
 11
118.038833
 21
319.768833
 31
0.0
  0
LINE
  8
1
  6
CONTINUOUS
 62
     7
  5
E8
 10
100.691083
 20
321.671083
 30
0.0
 11
100.691083
 21
367.921083
 31
0.0
  0
LINE
  8
1
  6
CONTINUOUS
 62
     3
  5
E9
 10
62.691083
 20
351.671083
 30
0.0
 11
70.670583
 21
351.671083
 31
0.0
  0
LINE
  8
1
  6
CONTINUOUS
 62
     3
  5
EA
 10
62.691083
 20
340.671083
 30
0.0
 11
70.691083
 21
340.671083
 31
0.0
  0
LINE
  8
1
  6
CONTINUOUS
 62
     3
  5
EB
 10
63.691083
 20
350.671083
 30
0.0
 11
63.691083
 21
341.671083
 31
0.0
  0
LINE
  8
1
  6
CONTINUOUS
 62
     3
  5
EC
 10
62.691083
 20
351.671083
 30
0.0
 11
62.691083
 21
340.671083
 31
0.0
  0
LINE
  8
1
  6
CONTINUOUS
 62
     3
  5
ED
 10
64.691083
 20
351.671083
 30
0.0
 11
64.691083
 21
340.671083
 31
0.0
  0
LINE
  8
1
  6
CONTINUOUS
 62
     3
  5
EE
 10
65.691083
 20
350.671083
 30
0.0
 11
65.691083
 21
341.671083
 31
0.0
  0
LINE
  8
1
  6
CONTINUOUS
 62
     3
  5
EF
 10
66.691083
 20
351.671083
 30
0.0
 11
66.691083
 21
340.671083
 31
0.0
  0
LINE
  8
1
  6
CONTINUOUS
 62
     3
  5
F0
 10
67.691083
 20
350.671083
 30
0.0
 11
67.691083
 21
341.671083
 31
0.0
  0
LINE
  8
1
  6
CONTINUOUS
 62
     3
  5
F1
 10
68.691083
 20
351.671083
 30
0.0
 11
68.691083
 21
340.671083
 31
0.0
  0
LINE
  8
1
  6
CONTINUOUS
 62
     3
  5
F2
 10
69.691083
 20
350.671083
 30
0.0
 11
69.691083
 21
341.671083
 31
0.0
  0
LINE
  8
1
  6
CONTINUOUS
 62
     3
  5
F3
 10
61.691083
 20
350.921083
 30
0.0
 11
61.691083
 21
341.421083
 31
0.0
  0
LINE
  8
1
  6
CONTINUOUS
 62
     3
  5
F4
 10
61.691083
 20
350.921083
 30
0.0
 11
62.691083
 21
351.671083
 31
0.0
  0
LINE
  8
1
  6
CONTINUOUS
 62
     3
  5
F5
 10
61.691083
 20
341.421083
 30
0.0
 11
62.691083
 21
340.671083
 31
0.0
  0
LINE
  8
1
  6
CONTINUOUS
 62
     3
  5
F6
 10
139.691083
 20
350.921083
 30
0.0
 11
139.691083
 21
341.421083
 31
0.0
  0
LINE
  8
1
  6
CONTINUOUS
 62
     3
  5
F7
 10
138.691083
 20
351.671083
 30
0.0
 11
130.691083
 21
351.671083
 31
0.0
  0
LINE
  8
1
  6
CONTINUOUS
 62
     3
  5
F8
 10
138.691083
 20
340.671083
 30
0.0
 11
130.691083
 21
340.671083
 31
0.0
  0
LINE
  8
1
  6
CONTINUOUS
 62
     3
  5
F9
 10
137.691083
 20
350.671083
 30
0.0
 11
137.691083
 21
341.671083
 31
0.0
  0
LINE
  8
1
  6
CONTINUOUS
 62
     3
  5
FA
 10
138.691083
 20
351.671083
 30
0.0
 11
138.691083
 21
340.671083
 31
0.0
  0
LINE
  8
1
  6
CONTINUOUS
 62
     3
  5
FB
 10
136.691083
 20
351.671083
 30
0.0
 11
136.691083
 21
340.671083
 31
0.0
  0
LINE
  8
1
  6
CONTINUOUS
 62
     3
  5
FC
 10
135.691083
 20
350.671083
 30
0.0
 11
135.691083
 21
341.671083
 31
0.0
  0
LINE
  8
1
  6
CONTINUOUS
 62
     3
  5
FD
 10
134.691083
 20
351.671083
 30
0.0
 11
134.691083
 21
340.671083
 31
0.0
  0
LINE
  8
1
  6
CONTINUOUS
 62
     3
  5
FE
 10
133.691083
 20
350.671083
 30
0.0
 11
133.691083
 21
341.671083
 31
0.0
  0
LINE
  8
1
  6
CONTINUOUS
 62
     3
  5
FF
 10
132.691083
 20
351.671083
 30
0.0
 11
132.691083
 21
340.671083
 31
0.0
  0
LINE
  8
1
  6
CONTINUOUS
 62
     3
  5
100
 10
131.691083
 20
350.671083
 30
0.0
 11
131.691083
 21
341.671083
 31
0.0
  0
LINE
  8
1
  6
CONTINUOUS
 62
     3
  5
101
 10
139.691083
 20
350.921083
 30
0.0
 11
138.691083
 21
351.671083
 31
0.0
  0
LINE
  8
1
  6
CONTINUOUS
 62
     3
  5
102
 10
139.691083
 20
341.421083
 30
0.0
 11
138.691083
 21
340.671083
 31
0.0
  0
LINE
  8
1
  6
HIDDEN
 62
     3
  5
103
 10
70.691083
 20
351.671083
 30
0.0
 11
76.191083
 21
351.671083
 31
0.0
  0
LINE
  8
1
  6
HIDDEN
 62
     3
  5
104
 10
70.691083
 20
340.671083
 30
0.0
 11
76.191083
 21
340.671083
 31
0.0
  0
LINE
  8
1
  6
HIDDEN
 62
     3
  5
105
 10
77.191083
 20
350.921083
 30
0.0
 11
77.191083
 21
341.421083
 31
0.0
  0
LINE
  8
1
  6
HIDDEN
 62
     3
  5
106
 10
77.191083
 20
350.921083
 30
0.0
 11
76.191083
 21
351.671083
 31
0.0
  0
LINE
  8
1
  6
HIDDEN
 62
     3
  5
107
 10
77.191083
 20
341.421083
 30
0.0
 11
76.191083
 21
340.671083
 31
0.0
  0
LINE
  8
1
  6
HIDDEN
 62
     3
  5
108
 10
124.191083
 20
350.921083
 30
0.0
 11
124.191083
 21
341.421083
 31
0.0
  0
LINE
  8
1
  6
HIDDEN
 62
     3
  5
109
 10
130.691083
 20
351.671083
 30
0.0
 11
125.191083
 21
351.671083
 31
0.0
  0
LINE
  8
1
  6
HIDDEN
 62
     3
  5
10A
 10
130.691083
 20
340.671083
 30
0.0
 11
125.191083
 21
340.671083
 31
0.0
  0
LINE
  8
1
  6
HIDDEN
 62
     3
  5
10B
 10
124.191083
 20
350.921083
 30
0.0
 11
125.191083
 21
351.671083
 31
0.0
  0
LINE
  8
1
  6
HIDDEN
 62
     3
  5
10C
 10
124.191083
 20
341.421083
 30
0.0
 11
125.191083
 21
340.671083
 31
0.0
  0
INSERT
  8
1
  6
CONTINUOUS
 62
     1
  5
12D
  2
LDR
 10
100.691083
 20
367.921083
 30
0.0
 41
240.0
 42
240.0
 50
90.0
210
0.0
220
0.0
230
1.0
  0
INSERT
  8
1
  6
CONTINUOUS
 62
     1
  5
12E
  2
LDR
 10
100.691083
 20
367.921083
 30
0.0
 41
240.0
 42
240.0
 50
90.0
210
0.0
220
0.0
230
1.0
  0
INSERT
  8
1
  6
CONTINUOUS
 62
     1
  5
12F
  2
LDR
 10
100.691083
 20
321.671083
 30
0.0
 41
240.0
 42
240.0
 50
270.0
210
0.0
220
0.0
230
1.0
  0
LINE
  8
1
  6
CONTINUOUS
 62
     3
  5
130
 10
70.691083
 20
316.671083
 30
0.0
 11
70.691083
 21
351.671083
 31
0.0
  0
LINE
  8
1
  6
CONTINUOUS
 62
     3
  5
131
 10
70.691083
 20
351.675667
 30
0.0
 11
70.691083
 21
378.171083
 31
0.0
  0
POLYLINE
  8
1
  6
CONTINUOUS
 62
     3
  5
132
 66
     1
 10
0.0
 20
0.0
 30
0.0
  0
VERTEX
  8
1
  6
CONTINUOUS
 62
     3
  5
133
 10
68.691083
 20
351.671083
 30
0.0
 42
0.168643
  0
VERTEX
  8
1
  6
CONTINUOUS
 62
     3
  5
134
 10
70.691083
 20
353.671083
 30
0.0
  0
VERTEX
  8
1
  6
CONTINUOUS
 62
     3
  5
135
 10
70.691083
 20
353.671083
 30
0.0
  0
VERTEX
  8
1
  6
CONTINUOUS
 62
     3
  5
136
 10
70.691083
 20
351.671083
 30
0.0
  0
VERTEX
  8
1
  6
CONTINUOUS
 62
     3
  5
137
 10
68.691083
 20
351.671083
 30
0.0
  0
SEQEND
  8
1
  6
CONTINUOUS
 62
     3
  5
138
  0
POLYLINE
  8
1
  6
CONTINUOUS
 62
     3
  5
139
 66
     1
 10
0.0
 20
0.0
 30
0.0
  0
VERTEX
  8
1
  6
CONTINUOUS
 62
     3
  5
13A
 10
68.691083
 20
340.671083
 30
0.0
 42
-0.168643
  0
VERTEX
  8
1
  6
CONTINUOUS
 62
     3
  5
13B
 10
70.691083
 20
338.671083
 30
0.0
  0
VERTEX
  8
1
  6
CONTINUOUS
 62
     3
  5
13C
 10
70.691083
 20
338.671083
 30
0.0
  0
VERTEX
  8
1
  6
CONTINUOUS
 62
     3
  5
13D
 10
70.691083
 20
340.671083
 30
0.0
  0
VERTEX
  8
1
  6
CONTINUOUS
 62
     3
  5
13E
 10
68.691083
 20
340.671083
 30
0.0
  0
SEQEND
  8
1
  6
CONTINUOUS
 62
     3
  5
13F
  0
POLYLINE
  8
1
  6
CONTINUOUS
 62
     3
  5
140
 66
     1
 10
0.0
 20
0.0
 30
0.0
  0
VERTEX
  8
1
  6
CONTINUOUS
 62
     3
  5
141
 10
132.691083
 20
351.671083
 30
0.0
 42
-0.168643
  0
VERTEX
  8
1
  6
CONTINUOUS
 62
     3
  5
142
 10
130.691083
 20
353.671083
 30
0.0
  0
VERTEX
  8
1
  6
CONTINUOUS
 62
     3
  5
143
 10
130.691083
 20
353.671083
 30
0.0
  0
VERTEX
  8
1
  6
CONTINUOUS
 62
     3
  5
144
 10
130.691083
 20
351.671083
 30
0.0
  0
VERTEX
  8
1
  6
CONTINUOUS
 62
     3
  5
145
 10
132.691083
 20
351.671083
 30
0.0
  0
SEQEND
  8
1
  6
CONTINUOUS
 62
     3
  5
146
  0
POLYLINE
  8
1
  6
CONTINUOUS
 62
     3
  5
147
 66
     1
 10
0.0
 20
0.0
 30
0.0
  0
VERTEX
  8
1
  6
CONTINUOUS
 62
     3
  5
148
 10
132.691083
 20
340.671083
 30
0.0
 42
0.168643
  0
VERTEX
  8
1
  6
CONTINUOUS
 62
     3
  5
149
 10
130.691083
 20
338.671083
 30
0.0
  0
VERTEX
  8
1
  6
CONTINUOUS
 62
     3
  5
14A
 10
130.691083
 20
338.671083
 30
0.0
  0
VERTEX
  8
1
  6
CONTINUOUS
 62
     3
  5
14B
 10
130.691083
 20
340.671083
 30
0.0
  0
VERTEX
  8
1
  6
CONTINUOUS
 62
     3
  5
14C
 10
132.691083
 20
340.671083
 30
0.0
  0
SEQEND
  8
1
  6
CONTINUOUS
 62
     3
  5
14D
  0
LINE
  8
1
  6
CONTINUOUS
 62
     7
  5
14E
 10
80.691083
 20
384.171083
 30
0.0
 11
80.691083
 21
400.171083
 31
0.0
  0
LINE
  8
1
  6
CONTINUOUS
 62
     7
  5
14F
 10
81.941083
 20
384.171083
 30
0.0
 11
81.941083
 21
400.171083
 31
0.0
  0
LINE
  8
1
  6
CONTINUOUS
 62
     7
  5
150
 10
120.691083
 20
384.171083
 30
0.0
 11
120.691083
 21
400.171083
 31
0.0
  0
LINE
  8
1
  6
CONTINUOUS
 62
     7
  5
151
 10
119.441083
 20
384.171083
 30
0.0
 11
119.441083
 21
400.171083
 31
0.0
  0
LINE
  8
1
  6
CONTINUOUS
 62
     7
  5
152
 10
84.441083
 20
384.171083
 30
0.0
 11
84.441083
 21
391.671083
 31
0.0
  0
LINE
  8
1
  6
CONTINUOUS
 62
     7
  5
153
 10
116.941083
 20
384.171083
 30
0.0
 11
116.941083
 21
391.671083
 31
0.0
  0
LINE
  8
1
  6
CONTINUOUS
 62
     7
  5
154
 10
84.441083
 20
390.671083
 30
0.0
 11
116.941083
 21
390.671083
 31
0.0
  0
LINE
  8
1
  6
CONTINUOUS
 62
     7
  5
155
 10
81.941083
 20
399.171083
 30
0.0
 11
119.441083
 21
399.171083
 31
0.0
  0
LINE
  8
1
  6
CONTINUOUS
 62
     7
  5
156
 10
84.441083
 20
392.671083
 30
0.0
 11
84.441083
 21
394.671083
 31
0.0
  0
LINE
  8
1
  6
CONTINUOUS
 62
     7
  5
157
 10
84.441083
 20
395.671083
 30
0.0
 11
84.441083
 21
415.671083
 31
0.0
  0
LINE
  8
1
  6
CONTINUOUS
 62
     7
  5
158
 10
80.691083
 20
399.171083
 30
0.0
 11
75.691083
 21
399.171083
 31
0.0
  0
LINE
  8
1
  6
CONTINUOUS
 62
     7
  5
159
 10
120.691083
 20
399.171083
 30
0.0
 11
125.691083
 21
399.171083
 31
0.0
  0
INSERT
  8
1
  6
CONTINUOUS
 62
     1
  5
15A
  2
LDR
 10
80.691083
 20
399.171083
 30
0.0
 41
240.0
 42
240.0
210
0.0
220
0.0
230
1.0
  0
INSERT
  8
1
  6
CONTINUOUS
 62
     1
  5
15B
  2
LDR
 10
81.941083
 20
399.171083
 30
0.0
 41
240.0
 42
240.0
 50
180.0
210
0.0
220
0.0
230
1.0
  0
INSERT
  8
1
  6
CONTINUOUS
 62
     1
  5
15C
  2
LDR
 10
81.941083
 20
399.171083
 30
0.0
 41
240.0
 42
240.0
 50
180.0
210
0.0
220
0.0
230
1.0
  0
INSERT
  8
1
  6
CONTINUOUS
 62
     1
  5
15D
  2
LDR
 10
119.441083
 20
399.171083
 30
0.0
 41
240.0
 42
240.0
210
0.0
220
0.0
230
1.0
  0
INSERT
  8
1
  6
CONTINUOUS
 62
     1
  5
15E
  2
LDR
 10
120.691083
 20
399.171083
 30
0.0
 41
240.0
 42
240.0
 50
180.0
210
0.0
220
0.0
230
1.0
  0
INSERT
  8
1
  6
CONTINUOUS
 62
     1
  5
15F
  2
LDR
 10
84.441083
 20
390.671083
 30
0.0
 41
240.0
 42
240.0
 50
180.0
210
0.0
220
0.0
230
1.0
  0
INSERT
  8
1
  6
CONTINUOUS
 62
     1
  5
160
  2
LDR
 10
116.941083
 20
390.671083
 30
0.0
 41
240.0
 42
240.0
210
0.0
220
0.0
230
1.0
  0
INSERT
  8
1
  6
CONTINUOUS
 62
     1
  5
161
  2
LDR
 10
116.941083
 20
390.671083
 30
0.0
 41
240.0
 42
240.0
210
0.0
220
0.0
230
1.0
  0
LINE
  8
1
  6
CONTINUOUS
 62
     7
  5
162
 10
70.691083
 20
378.171083
 30
0.0
 11
48.691083
 21
378.171083
 31
0.0
  0
LINE
  8
1
  6
CONTINUOUS
 62
     7
  5
163
 10
82.441083
 20
370.421083
 30
0.0
 11
58.691083
 21
370.421083
 31
0.0
  0
LINE
  8
1
  6
CONTINUOUS
 62
     7
  5
164
 10
82.441083
 20
319.171083
 30
0.0
 11
58.691083
 21
319.171083
 31
0.0
  0
LINE
  8
1
  6
CONTINUOUS
 62
     7
  5
165
 10
81.941083
 20
316.671083
 30
0.0
 11
45.691083
 21
316.671083
 31
0.0
  0
LINE
  8
1
  6
CONTINUOUS
 62
     7
  5
166
 10
80.691083
 20
315.421083
 30
0.0
 11
45.691083
 21
315.421083
 31
0.0
  0
LINE
  8
1
  6
CONTINUOUS
 62
     7
  5
167
 10
46.691083
 20
379.171083
 30
0.0
 11
46.691083
 21
374.171083
 31
0.0
  0
LINE
  8
1
  6
CONTINUOUS
 62
     7
  5
168
 10
46.691083
 20
372.921083
 30
0.0
 11
46.691083
 21
367.921083
 31
0.0
  0
LINE
  8
1
  6
CONTINUOUS
 62
     7
  5
169
 10
46.691083
 20
321.671083
 30
0.0
 11
46.691083
 21
316.671083
 31
0.0
  0
LINE
  8
1
  6
CONTINUOUS
 62
     7
  5
16A
 10
46.691083
 20
315.421083
 30
0.0
 11
46.691083
 21
310.421083
 31
0.0
  0
LINE
  8
1
  6
CONTINUOUS
 62
     7
  5
16B
 10
49.691083
 20
378.171083
 30
0.0
 11
49.691083
 21
374.171083
 31
0.0
  0
LINE
  8
1
  6
CONTINUOUS
 62
     7
  5
16C
 10
49.691083
 20
372.921083
 30
0.0
 11
49.691083
 21
316.671083
 31
0.0
  0
LINE
  8
1
  6
CONTINUOUS
 62
     7
  5
16D
 10
59.691083
 20
378.171083
 30
0.0
 11
59.691083
 21
370.421083
 31
0.0
  0
LINE
  8
1
  6
CONTINUOUS
 62
     7
  5
16E
 10
59.691083
 20
370.421083
 30
0.0
 11
59.691083
 21
319.171083
 31
0.0
  0
LINE
  8
1
  6
CONTINUOUS
 62
     7
  5
16F
 10
80.691083
 20
374.171083
 30
0.0
 11
61.0025
 21
374.171083
 31
0.0
  0
LINE
  8
1
  6
CONTINUOUS
 62
     7
  5
170
 10
54.25125
 20
374.171083
 30
0.0
 11
45.691083
 21
374.171083
 31
0.0
  0
LINE
  8
1
  6
CONTINUOUS
 62
     7
  5
171
 10
81.941083
 20
372.921083
 30
0.0
 11
61.0025
 21
372.921083
 31
0.0
  0
LINE
  8
1
  6
CONTINUOUS
 62
     7
  5
172
 10
54.25125
 20
372.921083
 30
0.0
 11
45.691083
 21
372.921083
 31
0.0
  0
INSERT
  8
1
  6
CONTINUOUS
 62
     1
  5
173
  2
LDR
 10
46.691083
 20
374.171083
 30
0.0
 41
240.0
 42
240.0
 50
270.0
210
0.0
220
0.0
230
1.0
  0
INSERT
  8
1
  6
CONTINUOUS
 62
     1
  5
174
  2
LDR
 10
46.691083
 20
372.921083
 30
0.0
 41
240.0
 42
240.0
 50
90.0
210
0.0
220
0.0
230
1.0
  0
INSERT
  8
1
  6
CONTINUOUS
 62
     1
  5
175
  2
LDR
 10
46.691083
 20
316.671083
 30
0.0
 41
240.0
 42
240.0
 50
270.0
210
0.0
220
0.0
230
1.0
  0
INSERT
  8
1
  6
CONTINUOUS
 62
     1
  5
176
  2
LDR
 10
46.691083
 20
315.421083
 30
0.0
 41
240.0
 42
240.0
 50
90.0
210
0.0
220
0.0
230
1.0
  0
INSERT
  8
1
  6
CONTINUOUS
 62
     1
  5
177
  2
LDR
 10
49.691083
 20
372.921083
 30
0.0
 41
240.0
 42
240.0
 50
90.0
210
0.0
220
0.0
230
1.0
  0
INSERT
  8
1
  6
CONTINUOUS
 62
     1
  5
178
  2
LDR
 10
49.691083
 20
316.671083
 30
0.0
 41
240.0
 42
240.0
 50
270.0
210
0.0
220
0.0
230
1.0
  0
INSERT
  8
1
  6
CONTINUOUS
 62
     1
  5
179
  2
LDR
 10
59.691083
 20
378.171083
 30
0.0
 41
240.0
 42
240.0
 50
90.0
210
0.0
220
0.0
230
1.0
  0
INSERT
  8
1
  6
CONTINUOUS
 62
     1
  5
17A
  2
LDR
 10
59.691083
 20
370.421083
 30
0.0
 41
240.0
 42
240.0
 50
270.0
210
0.0
220
0.0
230
1.0
  0
INSERT
  8
1
  6
CONTINUOUS
 62
     1
  5
17B
  2
LDR
 10
59.691083
 20
370.421083
 30
0.0
 41
240.0
 42
240.0
 50
90.0
210
0.0
220
0.0
230
1.0
  0
INSERT
  8
1
  6
CONTINUOUS
 62
     1
  5
17C
  2
LDR
 10
59.691083
 20
319.171083
 30
0.0
 41
240.0
 42
240.0
 50
270.0
210
0.0
220
0.0
230
1.0
  0
POLYLINE
  8
1
  6
CONTINUOUS
 62
     1
  5
17D
 66
     1
 10
0.0
 20
0.0
 30
0.0
210
0.0
220
0.0
230
1.0
  0
VERTEX
  8
1
  6
CONTINUOUS
 62
     1
  5
17E
 10
49.745775
 20
374.93125
 30
0.0
 42
-0.005869
  0
VERTEX
  8
1
  6
CONTINUOUS
 62
     1
  5
17F
 10
49.787454
 20
375.191954
 30
0.0
 42
-0.008767
  0
VERTEX
  8
1
  6
CONTINUOUS
 62
     1
  5
180
 10
49.827695
 20
375.405031
 30
0.0
 42
-0.016054
  0
VERTEX
  8
1
  6
CONTINUOUS
 62
     1
  5
181
 10
49.864978
 20
375.562425
 30
0.0
 42
-0.043653
  0
VERTEX
  8
1
  6
CONTINUOUS
 62
     1
  5
182
 10
49.897891
 20
375.658184
 30
0.0
 42
-0.31975
  0
VERTEX
  8
1
  6
CONTINUOUS
 62
     1
  5
183
 10
49.925192
 20
375.688689
 30
0.0
 42
-0.31975
  0
SEQEND
  8
1
  6
CONTINUOUS
 62
     1
  5
184
  0
POLYLINE
  8
1
  6
CONTINUOUS
 62
     1
  5
185
 66
     1
 10
0.0
 20
0.0
 30
0.0
210
0.0
220
0.0
230
1.0
  0
VERTEX
  8
1
  6
CONTINUOUS
 62
     1
  5
186
 10
49.397217
 20
375.68865
 30
0.0
 42
-0.258697
  0
VERTEX
  8
1
  6
CONTINUOUS
 62
     1
  5
187
 10
49.442185
 20
375.658974
 30
0.0
 42
-0.066734
  0
VERTEX
  8
1
  6
CONTINUOUS
 62
     1
  5
188
 10
49.491307
 20
375.5637
 30
0.0
 42
-0.026817
  0
VERTEX
  8
1
  6
CONTINUOUS
 62
     1
  5
189
 10
49.542746
 20
375.406388
 30
0.0
 42
-0.01498
  0
VERTEX
  8
1
  6
CONTINUOUS
 62
     1
  5
18A
 10
49.594583
 20
375.192913
 30
0.0
 42
-0.01011
  0
VERTEX
  8
1
  6
CONTINUOUS
 62
     1
  5
18B
 10
49.64488
 20
374.93125
 30
0.0
 42
-0.01011
  0
SEQEND
  8
1
  6
CONTINUOUS
 62
     1
  5
18C
  0
POLYLINE
  8
1
  6
CONTINUOUS
 62
     1
  5
18D
 66
     1
 10
0.0
 20
0.0
 30
0.0
210
0.0
220
0.0
230
1.0
  0
VERTEX
  8
1
  6
CONTINUOUS
 62
     1
  5
18E
 10
49.644906
 20
374.93125
 30
0.0
 42
-0.006804
  0
VERTEX
  8
1
  6
CONTINUOUS
 62
     1
  5
18F
 10
49.673879
 20
374.542547
 30
0.0
 42
-0.007484
  0
VERTEX
  8
1
  6
CONTINUOUS
 62
     1
  5
190
 10
49.691057
 20
374.17107
 30
0.0
 42
-0.007484
  0
SEQEND
  8
1
  6
CONTINUOUS
 62
     1
  5
191
  0
POLYLINE
  8
1
  6
CONTINUOUS
 62
     1
  5
192
 66
     1
 10
0.0
 20
0.0
 30
0.0
210
0.0
220
0.0
230
1.0
  0
VERTEX
  8
1
  6
CONTINUOUS
 62
     1
  5
193
 10
49.74576
 20
374.93125
 30
0.0
 42
0.006814
  0
VERTEX
  8
1
  6
CONTINUOUS
 62
     1
  5
194
 10
49.716754
 20
374.541993
 30
0.0
 42
0.007497
  0
VERTEX
  8
1
  6
CONTINUOUS
 62
     1
  5
195
 10
49.699578
 20
374.170037
 30
0.0
 42
0.007497
  0
SEQEND
  8
1
  6
CONTINUOUS
 62
     1
  5
196
  0
POLYLINE
  8
1
  6
CONTINUOUS
 62
     1
  5
197
 66
     1
 10
0.0
 20
0.0
 30
0.0
210
0.0
220
0.0
230
1.0
  0
VERTEX
  8
1
  6
CONTINUOUS
 62
     1
  5
198
 10
49.636392
 20
377.410917
 30
0.0
 42
-0.005869
  0
VERTEX
  8
1
  6
CONTINUOUS
 62
     1
  5
199
 10
49.594713
 20
377.150213
 30
0.0
 42
-0.008767
  0
VERTEX
  8
1
  6
CONTINUOUS
 62
     1
  5
19A
 10
49.554472
 20
376.937136
 30
0.0
 42
-0.016054
  0
VERTEX
  8
1
  6
CONTINUOUS
 62
     1
  5
19B
 10
49.517189
 20
376.779742
 30
0.0
 42
-0.043653
  0
VERTEX
  8
1
  6
CONTINUOUS
 62
     1
  5
19C
 10
49.484275
 20
376.683983
 30
0.0
 42
-0.31975
  0
VERTEX
  8
1
  6
CONTINUOUS
 62
     1
  5
19D
 10
49.456974
 20
376.653478
 30
0.0
 42
-0.31975
  0
SEQEND
  8
1
  6
CONTINUOUS
 62
     1
  5
19E
  0
POLYLINE
  8
1
  6
CONTINUOUS
 62
     1
  5
19F
 66
     1
 10
0.0
 20
0.0
 30
0.0
210
0.0
220
0.0
230
1.0
  0
VERTEX
  8
1
  6
CONTINUOUS
 62
     1
  5
1A0
 10
49.98495
 20
376.653517
 30
0.0
 42
-0.258697
  0
VERTEX
  8
1
  6
CONTINUOUS
 62
     1
  5
1A1
 10
49.939982
 20
376.683193
 30
0.0
 42
-0.066734
  0
VERTEX
  8
1
  6
CONTINUOUS
 62
     1
  5
1A2
 10
49.89086
 20
376.778466
 30
0.0
 42
-0.026817
  0
VERTEX
  8
1
  6
CONTINUOUS
 62
     1
  5
1A3
 10
49.83942
 20
376.935779
 30
0.0
 42
-0.01498
  0
VERTEX
  8
1
  6
CONTINUOUS
 62
     1
  5
1A4
 10
49.787584
 20
377.149254
 30
0.0
 42
-0.01011
  0
VERTEX
  8
1
  6
CONTINUOUS
 62
     1
  5
1A5
 10
49.737287
 20
377.410917
 30
0.0
 42
-0.01011
  0
SEQEND
  8
1
  6
CONTINUOUS
 62
     1
  5
1A6
  0
POLYLINE
  8
1
  6
CONTINUOUS
 62
     1
  5
1A7
 66
     1
 10
0.0
 20
0.0
 30
0.0
210
0.0
220
0.0
230
1.0
  0
VERTEX
  8
1
  6
CONTINUOUS
 62
     1
  5
1A8
 10
49.73726
 20
377.410917
 30
0.0
 42
-0.006804
  0
VERTEX
  8
1
  6
CONTINUOUS
 62
     1
  5
1A9
 10
49.708288
 20
377.79962
 30
0.0
 42
-0.007484
  0
VERTEX
  8
1
  6
CONTINUOUS
 62
     1
  5
1AA
 10
49.69111
 20
378.171097
 30
0.0
 42
-0.007484
  0
SEQEND
  8
1
  6
CONTINUOUS
 62
     1
  5
1AB
  0
POLYLINE
  8
1
  6
CONTINUOUS
 62
     1
  5
1AC
 66
     1
 10
0.0
 20
0.0
 30
0.0
210
0.0
220
0.0
230
1.0
  0
VERTEX
  8
1
  6
CONTINUOUS
 62
     1
  5
1AD
 10
49.636406
 20
377.410917
 30
0.0
 42
0.006814
  0
VERTEX
  8
1
  6
CONTINUOUS
 62
     1
  5
1AE
 10
49.665412
 20
377.800174
 30
0.0
 42
0.007497
  0
VERTEX
  8
1
  6
CONTINUOUS
 62
     1
  5
1AF
 10
49.682589
 20
378.17213
 30
0.0
 42
0.007497
  0
SEQEND
  8
1
  6
CONTINUOUS
 62
     1
  5
1B0
  0
LINE
  8
1
  6
CONTINUOUS
 62
     7
  5
1B1
 10
131.691083
 20
378.171083
 30
0.0
 11
151.691083
 21
378.171083
 31
0.0
  0
LINE
  8
1
  6
CONTINUOUS
 62
     7
  5
1B2
 10
131.691083
 20
314.171083
 30
0.0
 11
151.691083
 21
314.171083
 31
0.0
  0
LINE
  8
1
  6
CONTINUOUS
 62
     7
  5
1B3
 10
150.691083
 20
378.171083
 30
0.0
 11
150.691083
 21
314.171083
 31
0.0
  0
INSERT
  8
1
  6
CONTINUOUS
 62
     1
  5
1B4
  2
LDR
 10
150.691083
 20
378.171083
 30
0.0
 41
240.0
 42
240.0
 50
90.0
210
0.0
220
0.0
230
1.0
  0
INSERT
  8
1
  6
CONTINUOUS
 62
     1
  5
1B5
  2
LDR
 10
150.691083
 20
378.171083
 30
0.0
 41
240.0
 42
240.0
 50
90.0
210
0.0
220
0.0
230
1.0
  0
INSERT
  8
1
  6
CONTINUOUS
 62
     1
  5
1B6
  2
LDR
 10
150.691083
 20
314.171083
 30
0.0
 41
240.0
 42
240.0
 50
270.0
210
0.0
220
0.0
230
1.0
  0
INSERT
  8
1
  6
CONTINUOUS
 62
     1
  5
1B7
  2
LDR
 10
150.691083
 20
314.171083
 30
0.0
 41
240.0
 42
240.0
 50
270.0
210
0.0
220
0.0
230
1.0
  0
LINE
  8
1
  6
CONTINUOUS
 62
     7
  5
1B8
 10
70.691083
 20
308.171083
 30
0.0
 11
70.691083
 21
299.171083
 31
0.0
  0
LINE
  8
1
  6
CONTINUOUS
 62
     7
  5
1B9
 10
130.691083
 20
308.171083
 30
0.0
 11
130.691083
 21
299.171083
 31
0.0
  0
LINE
  8
1
  6
CONTINUOUS
 62
     7
  5
1BA
 10
70.691083
 20
300.171083
 30
0.0
 11
130.691083
 21
300.171083
 31
0.0
  0
INSERT
  8
1
  6
CONTINUOUS
 62
     1
  5
1BB
  2
LDR
 10
70.691083
 20
300.171083
 30
0.0
 41
240.0
 42
240.0
 50
180.0
210
0.0
220
0.0
230
1.0
  0
INSERT
  8
1
  6
CONTINUOUS
 62
     1
  5
1BC
  2
LDR
 10
70.691083
 20
300.171083
 30
0.0
 41
240.0
 42
240.0
 50
180.0
210
0.0
220
0.0
230
1.0
  0
INSERT
  8
1
  6
CONTINUOUS
 62
     1
  5
1BD
  2
LDR
 10
130.691083
 20
300.171083
 30
0.0
 41
240.0
 42
240.0
210
0.0
220
0.0
230
1.0
  0
TEXT
  8
1
  6
CONTINUOUS
 62
     7
  5
1BE
 10
86.698667
 20
413.09775
 30
0.0
 40
2.5
  1
DRILL AND TAP FOR  1/4 " - 20NC x  1/2 " LG. S.S.
  7
MONOTXT
 11
86.698667
 21
415.59775
 31
0.0
210
0.0
220
0.0
230
1.0
 73
     3
  0
TEXT
  8
1
  6
CONTINUOUS
 62
     7
  5
1BF
 10
86.698667
 20
408.59775
 30
0.0
 40
2.5
  1
FLAT HEAD MACHINE SCREW - 4 REQ'D.
  7
MONOTXT
 11
86.698667
 21
411.09775
 31
0.0
210
0.0
220
0.0
230
1.0
 73
     3
  0
TEXT
  8
1
  6
CONTINUOUS
 62
     7
  5
1C0
 10
69.274917
 20
398.480583
 30
0.0
 40
2.5
  1
 1/4 "
  7
MONOTXT
 72
     4
 11
71.84375
 21
399.730583
 31
0.0
210
0.0
220
0.0
230
1.0
  0
TEXT
  8
1
  6
CONTINUOUS
 62
     7
  5
1C1
 10
127.4355
 20
398.22875
 30
0.0
 40
2.5
  1
 1/4 "
  7
MONOTXT
 72
     4
 11
130.004333
 21
399.47875
 31
0.0
210
0.0
220
0.0
230
1.0
  0
TEXT
  8
1
  6
CONTINUOUS
 62
     7
  5
1C2
 10
98.228333
 20
401.251083
 30
0.0
 40
2.5
  1
7 1/2 "
  7
MONOTXT
 72
     4
 11
102.057
 21
402.501083
 31
0.0
210
0.0
220
0.0
230
1.0
  0
TEXT
  8
1
  6
CONTINUOUS
 62
     7
  5
1C3
 10
97.55175
 20
392.687833
 30
0.0
 40
2.5
  1
6 1/2 "
  7
MONOTXT
 72
     4
 11
101.30175
 21
393.937833
 31
0.0
210
0.0
220
0.0
230
1.0
  0
TEXT
  8
1
  6
CONTINUOUS
 62
     7
  5
1C4
 10
99.083
 20
301.76675
 30
0.0
 40
2.5
  1
12"
  7
MONOTXT
 72
     4
 11
101.5535
 21
303.01675
 31
0.0
210
0.0
220
0.0
230
1.0
  0
TEXT
  8
1
  6
CONTINUOUS
 62
     7
  5
1C5
 10
47.16075
 20
304.225667
 30
0.0
 40
2.5
  1
 1/4 "
 50
90.0
  7
MONOTXT
 72
     4
 11
45.91075
 21
306.7945
 31
0.0
210
0.0
220
0.0
230
1.0
  0
TEXT
  8
1
  6
CONTINUOUS
 62
     7
  5
1C6
 10
48.671417
 20
380.287167
 30
0.0
 40
2.5
  1
 1/4 "
 50
90.0
  7
MONOTXT
 72
     4
 11
47.421417
 21
382.856
 31
0.0
210
0.0
220
0.0
230
1.0
  0
TEXT
  8
1
  6
CONTINUOUS
 62
     7
  5
1C7
 10
48.419583
 20
343.89375
 30
0.0
 40
2.5
  1
11"
 50
90.0
  7
MONOTXT
 72
     4
 11
47.169583
 21
345.83275
 31
0.0
210
0.0
220
0.0
230
1.0
  0
TEXT
  8
1
  6
CONTINUOUS
 62
     7
  5
1C8
 10
58.49075
 20
343.614167
 30
0.0
 40
2.5
  1
10"
 50
90.0
  7
MONOTXT
 72
     4
 11
57.24075
 21
346.084667
 31
0.0
210
0.0
220
0.0
230
1.0
  0
TEXT
  8
1
  6
CONTINUOUS
 62
     7
  5
1C9
 10
58.378833
 20
370.672667
 30
0.0
 40
2.5
  1
1 1/2 "
 50
90.0
  7
MONOTXT
 72
     4
 11
57.128833
 21
373.950167
 31
0.0
210
0.0
220
0.0
230
1.0
  0
TEXT
  8
1
  6
CONTINUOUS
 62
     7
  5
1CA
 10
54.3365
 20
386.389917
 30
0.0
 40
2.5
  1
 3/4 "
 50
90.0
  7
MONOTXT
 72
     4
 11
53.0865
 21
388.95875
 31
0.0
210
0.0
220
0.0
230
1.0
  0
LINE
  8
1
  6
CONTINUOUS
 62
     7
  5
1CB
 10
49.7455
 20
376.133417
 30
0.0
 11
53.231667
 21
376.133417
 31
0.0
  0
LINE
  8
1
  6
CONTINUOUS
 62
     7
  5
1CC
 10
53.231667
 20
376.133417
 30
0.0
 11
53.231667
 21
385.9365
 31
0.0
  0
INSERT
  8
1
  6
CONTINUOUS
 62
     1
  5
1CD
  2
LDR
 10
49.7455
 20
376.133417
 30
0.0
 41
240.0
 42
240.0
 50
180.0
210
0.0
220
0.0
230
1.0
  0
TEXT
  8
1
  6
CONTINUOUS
 62
     7
  5
1CE
 10
99.753833
 20
342.0575
 30
0.0
 40
2.5
  1
9"
 50
90.0
  7
MONOTXT
 72
     4
 11
98.503833
 21
343.76025
 31
0.0
210
0.0
220
0.0
230
1.0
  0
TEXT
  8
1
  6
CONTINUOUS
 62
     7
  5
1CF
 10
149.18175
 20
342.905
 30
0.0
 40
2.5
  1
12 3/4 "
 50
90.0
  7
MONOTXT
 72
     4
 11
147.93175
 21
347.422667
 31
0.0
210
0.0
220
0.0
230
1.0
  0
TEXT
  8
1
  6
CONTINUOUS
 62
     7
  5
1D0
 10
65.301667
 20
283.719167
 30
0.0
 40
4.0
  1
TYPE "F" FRONT VIEW
  7
MONOTXT
 72
     4
 11
100.467
 21
285.719167
 31
0.0
210
0.0
220
0.0
230
1.0
  0
LINE
  8
1
  6
CONTINUOUS
 62
     7
  5
1D1
 10
63.568083
 20
281.786167
 30
0.0
 11
137.36925
 21
281.786167
 31
0.0
  0
LINE
  8
1
  6
CONTINUOUS
 62
     1
  5
1D2
 10
207.337167
 20
309.171083
 30
0.0
 11
275.837167
 21
309.171083
 31
0.0
  0
LINE
  8
1
  6
CONTINUOUS
 62
     1
  5
1D3
 10
207.337167
 20
383.171083
 30
0.0
 11
267.837167
 21
383.171083
 31
0.0
  0
LINE
  8
1
  6
HIDDEN
 62
     1
  5
1D4
 10
268.821667
 20
361.2695
 30
0.0
 11
273.069667
 21
321.976833
 31
0.0
  0
LINE
  8
1
  6
CONTINUOUS
 62
     1
  5
1D5
 10
266.084167
 20
364.494
 30
0.0
 11
268.445583
 21
364.74925
 31
0.0
  0
LINE
  8
1
  6
CONTINUOUS
 62
     1
  5
1D6
 10
267.908167
 20
369.72025
 30
0.0
 11
269.275333
 21
369.868
 31
0.0
  0
LINE
  8
1
  6
CONTINUOUS
 62
     1
  5
1D7
 10
267.908167
 20
369.72025
 30
0.0
 11
268.821917
 21
361.2695
 31
0.0
  0
LINE
  8
1
  6
CONTINUOUS
 62
     1
  5
1D8
 10
268.445583
 20
364.74925
 30
0.0
 11
269.759
 21
365.394083
 31
0.0
  0
LINE
  8
1
  6
CONTINUOUS
 62
     1
  5
1D9
 10
268.60675
 20
363.257917
 30
0.0
 11
270.027667
 21
362.9085
 31
0.0
  0
LINE
  8
1
  6
CONTINUOUS
 62
     1
  5
1DA
 10
268.069417
 20
368.229
 30
0.0
 11
269.436583
 21
368.37675
 31
0.0
  0
LINE
  8
1
  6
CONTINUOUS
 62
     1
  5
1DB
 10
266.245333
 20
363.002667
 30
0.0
 11
268.60675
 21
363.257917
 31
0.0
  0
LINE
  8
1
  6
CONTINUOUS
 62
     1
  5
1DC
 10
266.084167
 20
364.494
 30
0.0
 11
266.245333
 21
363.002667
 31
0.0
  0
POLYLINE
  8
1
  6
CONTINUOUS
 62
     1
  5
1DD
 66
     1
 10
0.0
 20
0.0
 30
0.0
  0
VERTEX
  8
1
  6
CONTINUOUS
 62
     1
  5
1DE
 10
249.377667
 20
378.171083
 30
0.0
  0
VERTEX
  8
1
  6
CONTINUOUS
 62
     1
  5
1DF
 10
249.265667
 20
375.403
 30
0.0
  0
VERTEX
  8
1
  6
CONTINUOUS
 62
     1
  5
1E0
 10
249.89925
 20
373.257833
 30
0.0
  0
VERTEX
  8
1
  6
CONTINUOUS
 62
     1
  5
1E1
 10
250.240417
 20
370.820167
 30
0.0
  0
VERTEX
  8
1
  6
CONTINUOUS
 62
     1
  5
1E2
 10
251.069
 20
369.747667
 30
0.0
  0
VERTEX
  8
1
  6
CONTINUOUS
 62
     1
  5
1E3
 10
252.336167
 20
368.528833
 30
0.0
  0
VERTEX
  8
1
  6
CONTINUOUS
 62
     1
  5
1E4
 10
253.505833
 20
367.017417
 30
0.0
  0
VERTEX
  8
1
  6
CONTINUOUS
 62
     1
  5
1E5
 10
255.455333
 20
364.969833
 30
0.0
  0
VERTEX
  8
1
  6
CONTINUOUS
 62
     1
  5
1E6
 10
258.184667
 20
363.50725
 30
0.0
  0
VERTEX
  8
1
  6
CONTINUOUS
 62
     1
  5
1E7
 10
259.793
 20
362.093333
 30
0.0
  0
VERTEX
  8
1
  6
CONTINUOUS
 62
     1
  5
1E8
 10
261.645
 20
361.215833
 30
0.0
  0
VERTEX
  8
1
  6
CONTINUOUS
 62
     1
  5
1E9
 10
263.5945
 20
360.8745
 30
0.0
  0
VERTEX
  8
1
  6
CONTINUOUS
 62
     1
  5
1EA
 10
265.202833
 20
360.53325
 30
0.0
  0
VERTEX
  8
1
  6
CONTINUOUS
 62
     1
  5
1EB
 10
266.47
 20
360.43575
 30
0.0
  0
VERTEX
  8
1
  6
CONTINUOUS
 62
     1
  5
1EC
 10
268.127083
 20
360.72825
 30
0.0
  0
VERTEX
  8
1
  6
CONTINUOUS
 62
     1
  5
1ED
 10
268.821667
 20
361.2695
 30
0.0
  0
VERTEX
  8
1
  6
CONTINUOUS
 62
     1
  5
1EE
 10
269.589167
 20
361.264583
 30
0.0
  0
VERTEX
  8
1
  6
CONTINUOUS
 62
     1
  5
1EF
 10
270.125333
 20
360.972
 30
0.0
  0
SEQEND
  8
1
  6
CONTINUOUS
 62
     1
  5
1F0
  0
LINE
  8
1
  6
CONTINUOUS
 62
     7
  5
1F1
 10
265.1705
 20
363.640833
 30
0.0
 11
271.88175
 21
364.366083
 31
0.0
  0
LINE
  8
1
  6
CONTINUOUS
 62
     1
  5
1F2
 10
266.58125
 20
364.547667
 30
0.0
 11
266.742417
 21
363.056333
 31
0.0
  0
LINE
  8
1
  6
CONTINUOUS
 62
     1
  5
1F3
 10
267.575417
 20
364.655083
 30
0.0
 11
267.736583
 21
363.16375
 31
0.0
  0
LINE
  8
1
  6
CONTINUOUS
 62
     1
  5
1F4
 10
268.0725
 20
364.70875
 30
0.0
 11
268.233667
 21
363.217417
 31
0.0
  0
LINE
  8
1
  6
CONTINUOUS
 62
     1
  5
1F5
 10
266.3595
 20
364.272167
 30
0.0
 11
266.467
 21
363.277917
 31
0.0
  0
LINE
  8
1
  6
CONTINUOUS
 62
     1
  5
1F6
 10
266.856583
 20
364.325917
 30
0.0
 11
266.964083
 21
363.331667
 31
0.0
  0
LINE
  8
1
  6
CONTINUOUS
 62
     1
  5
1F7
 10
267.353667
 20
364.379583
 30
0.0
 11
267.461167
 21
363.385333
 31
0.0
  0
LINE
  8
1
  6
CONTINUOUS
 62
     1
  5
1F8
 10
267.85075
 20
364.433333
 30
0.0
 11
267.95825
 21
363.439083
 31
0.0
  0
LINE
  8
1
  6
CONTINUOUS
 62
     1
  5
1F9
 10
268.284917
 20
364.480167
 30
0.0
 11
268.392417
 21
363.485917
 31
0.0
  0
LINE
  8
1
  6
CONTINUOUS
 62
     1
  5
1FA
 10
269.4365
 20
368.37675
 30
0.0
 11
274.866667
 21
318.147833
 31
0.0
  0
LINE
  8
1
  6
CONTINUOUS
 62
     1
  5
1FB
 10
273.069417
 20
321.976833
 30
0.0
 11
273.66075
 21
316.508833
 31
0.0
  0
LINE
  8
1
  6
CONTINUOUS
 62
     1
  5
1FC
 10
271.702667
 20
321.829167
 30
0.0
 11
273.069417
 21
321.976833
 31
0.0
  0
LINE
  8
1
  6
CONTINUOUS
 62
     1
  5
1FD
 10
273.66075
 20
316.508833
 30
0.0
 11
275.027917
 21
316.656583
 31
0.0
  0
LINE
  8
1
  6
CONTINUOUS
 62
     1
  5
1FE
 10
273.499917
 20
318.000167
 30
0.0
 11
274.866667
 21
318.147833
 31
0.0
  0
LINE
  8
1
  6
HIDDEN
 62
     1
  5
1FF
 10
273.4185
 20
318.78775
 30
0.0
 11
274.839417
 21
318.438333
 31
0.0
  0
LINE
  8
1
  6
HIDDEN
 62
     1
  5
200
 10
270.895917
 20
320.023833
 30
0.0
 11
273.257333
 21
320.279083
 31
0.0
  0
LINE
  8
1
  6
HIDDEN
 62
     1
  5
201
 10
273.257333
 20
320.279083
 30
0.0
 11
274.57075
 21
320.923917
 31
0.0
  0
LINE
  8
1
  6
HIDDEN
 62
     1
  5
202
 10
271.057083
 20
318.5325
 30
0.0
 11
273.4185
 21
318.78775
 31
0.0
  0
LINE
  8
1
  6
HIDDEN
 62
     1
  5
203
 10
270.895917
 20
320.023833
 30
0.0
 11
271.057083
 21
318.5325
 31
0.0
  0
LINE
  8
1
  6
CONTINUOUS
 62
     7
  5
204
 10
269.98225
 20
319.170667
 30
0.0
 11
276.6935
 21
319.895917
 31
0.0
  0
LINE
  8
1
  6
HIDDEN
 62
     1
  5
205
 10
220.837167
 20
314.171083
 30
0.0
 11
220.837167
 21
334.171083
 31
0.0
  0
LINE
  8
1
  6
HIDDEN
 62
     1
  5
206
 10
207.337167
 20
332.671083
 30
0.0
 11
214.38575
 21
329.616833
 31
0.0
  0
ARC
  8
1
  6
HIDDEN
 62
     1
  5
207
 10
209.634614
 20
323.851066
 30
0.0
 40
7.471102
 50
355.961628
 51
50.510631
210
0.0
220
0.0
230
1.0
  0
LINE
  8
1
  6
HIDDEN
 62
     1
  5
208
 10
217.087167
 20
316.171083
 30
0.0
 11
217.087167
 21
323.324917
 31
0.0
  0
LINE
  8
1
  6
CONTINUOUS
 62
     7
  5
209
 10
237.587167
 20
347.171083
 30
0.0
 11
237.587167
 21
345.171083
 31
0.0
  0
LINE
  8
1
  6
HIDDEN
 62
     1
  5
20A
 10
237.587167
 20
314.171083
 30
0.0
 11
237.587167
 21
309.171083
 31
0.0
  0
LINE
  8
1
  6
HIDDEN
 62
     1
  5
20B
 10
252.587167
 20
314.171083
 30
0.0
 11
252.587167
 21
309.171083
 31
0.0
  0
LINE
  8
1
  6
HIDDEN
 62
     1
  5
20C
 10
227.587167
 20
314.171083
 30
0.0
 11
227.587167
 21
309.171083
 31
0.0
  0
LINE
  8
1
  6
HIDDEN
 62
     1
  5
20D
 10
222.337167
 20
314.171083
 30
0.0
 11
222.337167
 21
309.171083
 31
0.0
  0
LINE
  8
1
  6
HIDDEN
 62
     1
  5
20E
 10
260.587167
 20
314.171083
 30
0.0
 11
260.587167
 21
309.171083
 31
0.0
  0
LINE
  8
1
  6
HIDDEN
 62
     1
  5
20F
 10
266.587167
 20
314.171083
 30
0.0
 11
266.587167
 21
309.171083
 31
0.0
  0
LINE
  8
1
  6
HIDDEN
 62
     1
  5
210
 10
230.087167
 20
383.171083
 30
0.0
 11
230.087167
 21
378.171083
 31
0.0
  0
LINE
  8
1
  6
HIDDEN
 62
     1
  5
211
 10
245.087167
 20
383.171083
 30
0.0
 11
245.087167
 21
378.171083
 31
0.0
  0
LINE
  8
1
  6
HIDDEN
 62
     1
  5
212
 10
217.087167
 20
383.171083
 30
0.0
 11
217.087167
 21
374.671083
 31
0.0
  0
LINE
  8
1
  6
HIDDEN
 62
     1
  5
213
 10
212.087167
 20
383.171083
 30
0.0
 11
212.087167
 21
374.671083
 31
0.0
  0
LINE
  8
1
  6
CONTINUOUS
 62
     1
  5
214
 10
212.087167
 20
383.171083
 30
0.0
 11
212.087167
 21
398.171083
 31
0.0
  0
LINE
  8
1
  6
CONTINUOUS
 62
     1
  5
215
 10
217.087167
 20
383.171083
 30
0.0
 11
217.087167
 21
398.171083
 31
0.0
  0
LINE
  8
1
  6
CONTINUOUS
 62
     1
  5
216
 10
256.087167
 20
383.171083
 30
0.0
 11
256.087167
 21
398.171083
 31
0.0
  0
LINE
  8
1
  6
CONTINUOUS
 62
     1
  5
217
 10
261.087167
 20
383.171083
 30
0.0
 11
261.087167
 21
398.171083
 31
0.0
  0
LINE
  8
1
  6
CONTINUOUS
 62
     1
  5
218
 10
261.087167
 20
398.171083
 30
0.0
 11
256.087167
 21
398.171083
 31
0.0
  0
LINE
  8
1
  6
CONTINUOUS
 62
     1
  5
219
 10
212.087167
 20
398.171083
 30
0.0
 11
217.087167
 21
398.171083
 31
0.0
  0
LINE
  8
1
  6
HIDDEN
 62
     1
  5
21A
 10
218.587167
 20
378.171083
 30
0.0
 11
218.587167
 21
374.671083
 31
0.0
  0
LINE
  8
1
  6
HIDDEN
 62
     1
  5
21B
 10
210.587167
 20
378.171083
 30
0.0
 11
210.587167
 21
374.671083
 31
0.0
  0
LINE
  8
1
  6
HIDDEN
 62
     1
  5
21C
 10
210.587167
 20
374.671083
 30
0.0
 11
218.587167
 21
374.671083
 31
0.0
  0
LINE
  8
1
  6
CONTINUOUS
 62
     1
  5
21D
 10
262.587167
 20
378.171083
 30
0.0
 11
262.587167
 21
374.671083
 31
0.0
  0
LINE
  8
1
  6
CONTINUOUS
 62
     1
  5
21E
 10
254.587167
 20
378.171083
 30
0.0
 11
254.587167
 21
374.671083
 31
0.0
  0
LINE
  8
1
  6
CONTINUOUS
 62
     1
  5
21F
 10
254.587167
 20
374.671083
 30
0.0
 11
262.587167
 21
374.671083
 31
0.0
  0
LINE
  8
1
  6
HIDDEN
 62
     1
  5
220
 10
256.087167
 20
383.171083
 30
0.0
 11
256.087167
 21
378.171083
 31
0.0
  0
LINE
  8
1
  6
CONTINUOUS
 62
     1
  5
221
 10
256.087167
 20
378.171083
 30
0.0
 11
256.087167
 21
374.671083
 31
0.0
  0
LINE
  8
1
  6
HIDDEN
 62
     1
  5
222
 10
261.087167
 20
383.171083
 30
0.0
 11
261.087167
 21
378.171083
 31
0.0
  0
LINE
  8
1
  6
CONTINUOUS
 62
     1
  5
223
 10
261.087167
 20
378.171083
 30
0.0
 11
261.087167
 21
374.671083
 31
0.0
  0
LINE
  8
1
  6
CONTINUOUS
 62
     1
  5
224
 10
212.087167
 20
397.171083
 30
0.0
 11
217.087167
 21
397.171083
 31
0.0
  0
LINE
  8
1
  6
CONTINUOUS
 62
     1
  5
225
 10
213.587167
 20
396.171083
 30
0.0
 11
215.587167
 21
396.171083
 31
0.0
  0
LINE
  8
1
  6
CONTINUOUS
 62
     1
  5
226
 10
212.087167
 20
395.171083
 30
0.0
 11
217.087167
 21
395.171083
 31
0.0
  0
LINE
  8
1
  6
CONTINUOUS
 62
     1
  5
227
 10
213.587167
 20
394.171083
 30
0.0
 11
215.587167
 21
394.171083
 31
0.0
  0
LINE
  8
1
  6
CONTINUOUS
 62
     1
  5
228
 10
212.087167
 20
393.171083
 30
0.0
 11
217.087167
 21
393.171083
 31
0.0
  0
LINE
  8
1
  6
CONTINUOUS
 62
     1
  5
229
 10
213.587167
 20
392.171083
 30
0.0
 11
215.587167
 21
392.171083
 31
0.0
  0
LINE
  8
1
  6
CONTINUOUS
 62
     1
  5
22A
 10
212.087167
 20
391.171083
 30
0.0
 11
217.087167
 21
391.171083
 31
0.0
  0
LINE
  8
1
  6
CONTINUOUS
 62
     1
  5
22B
 10
213.587167
 20
390.171083
 30
0.0
 11
215.587167
 21
390.171083
 31
0.0
  0
LINE
  8
1
  6
CONTINUOUS
 62
     1
  5
22C
 10
212.087167
 20
389.171083
 30
0.0
 11
217.087167
 21
389.171083
 31
0.0
  0
LINE
  8
1
  6
CONTINUOUS
 62
     1
  5
22D
 10
213.587167
 20
388.171083
 30
0.0
 11
215.587167
 21
388.171083
 31
0.0
  0
LINE
  8
1
  6
CONTINUOUS
 62
     1
  5
22E
 10
212.087167
 20
387.171083
 30
0.0
 11
217.087167
 21
387.171083
 31
0.0
  0
LINE
  8
1
  6
CONTINUOUS
 62
     1
  5
22F
 10
213.587167
 20
386.171083
 30
0.0
 11
215.587167
 21
386.171083
 31
0.0
  0
LINE
  8
1
  6
CONTINUOUS
 62
     1
  5
230
 10
212.087167
 20
385.171083
 30
0.0
 11
217.087167
 21
385.171083
 31
0.0
  0
LINE
  8
1
  6
CONTINUOUS
 62
     1
  5
231
 10
213.587167
 20
384.171083
 30
0.0
 11
215.587167
 21
384.171083
 31
0.0
  0
LINE
  8
1
  6
CONTINUOUS
 62
     1
  5
232
 10
261.087167
 20
397.171083
 30
0.0
 11
256.087167
 21
397.171083
 31
0.0
  0
LINE
  8
1
  6
CONTINUOUS
 62
     1
  5
233
 10
259.587167
 20
396.171083
 30
0.0
 11
257.587167
 21
396.171083
 31
0.0
  0
LINE
  8
1
  6
CONTINUOUS
 62
     1
  5
234
 10
261.087167
 20
395.171083
 30
0.0
 11
256.087167
 21
395.171083
 31
0.0
  0
LINE
  8
1
  6
CONTINUOUS
 62
     1
  5
235
 10
259.587167
 20
394.171083
 30
0.0
 11
257.587167
 21
394.171083
 31
0.0
  0
LINE
  8
1
  6
CONTINUOUS
 62
     1
  5
236
 10
261.087167
 20
393.171083
 30
0.0
 11
256.087167
 21
393.171083
 31
0.0
  0
LINE
  8
1
  6
CONTINUOUS
 62
     1
  5
237
 10
259.587167
 20
392.171083
 30
0.0
 11
257.587167
 21
392.171083
 31
0.0
  0
LINE
  8
1
  6
CONTINUOUS
 62
     1
  5
238
 10
261.087167
 20
391.171083
 30
0.0
 11
256.087167
 21
391.171083
 31
0.0
  0
LINE
  8
1
  6
CONTINUOUS
 62
     1
  5
239
 10
259.587167
 20
390.171083
 30
0.0
 11
257.587167
 21
390.171083
 31
0.0
  0
LINE
  8
1
  6
CONTINUOUS
 62
     1
  5
23A
 10
261.087167
 20
389.171083
 30
0.0
 11
256.087167
 21
389.171083
 31
0.0
  0
LINE
  8
1
  6
CONTINUOUS
 62
     1
  5
23B
 10
259.587167
 20
388.171083
 30
0.0
 11
257.587167
 21
388.171083
 31
0.0
  0
LINE
  8
1
  6
CONTINUOUS
 62
     1
  5
23C
 10
261.087167
 20
387.171083
 30
0.0
 11
256.087167
 21
387.171083
 31
0.0
  0
LINE
  8
1
  6
CONTINUOUS
 62
     1
  5
23D
 10
259.587167
 20
386.171083
 30
0.0
 11
257.587167
 21
386.171083
 31
0.0
  0
LINE
  8
1
  6
CONTINUOUS
 62
     1
  5
23E
 10
261.087167
 20
385.171083
 30
0.0
 11
256.087167
 21
385.171083
 31
0.0
  0
LINE
  8
1
  6
CONTINUOUS
 62
     1
  5
23F
 10
259.587167
 20
384.171083
 30
0.0
 11
257.587167
 21
384.171083
 31
0.0
  0
LINE
  8
1
  6
CONTINUOUS
 62
     1
  5
240
 10
213.587167
 20
382.171083
 30
0.0
 11
215.587167
 21
382.171083
 31
0.0
  0
LINE
  8
1
  6
CONTINUOUS
 62
     1
  5
241
 10
212.587167
 20
381.171083
 30
0.0
 11
216.587167
 21
381.171083
 31
0.0
  0
LINE
  8
1
  6
CONTINUOUS
 62
     1
  5
242
 10
213.587167
 20
380.171083
 30
0.0
 11
215.587167
 21
380.171083
 31
0.0
  0
LINE
  8
1
  6
CONTINUOUS
 62
     1
  5
243
 10
212.587167
 20
379.171083
 30
0.0
 11
216.587167
 21
379.171083
 31
0.0
  0
LINE
  8
1
  6
CONTINUOUS
 62
     1
  5
244
 10
259.587167
 20
382.171083
 30
0.0
 11
257.587167
 21
382.171083
 31
0.0
  0
LINE
  8
1
  6
CONTINUOUS
 62
     1
  5
245
 10
260.587167
 20
381.171083
 30
0.0
 11
256.587167
 21
381.171083
 31
0.0
  0
LINE
  8
1
  6
CONTINUOUS
 62
     1
  5
246
 10
259.587167
 20
380.171083
 30
0.0
 11
257.587167
 21
380.171083
 31
0.0
  0
LINE
  8
1
  6
CONTINUOUS
 62
     1
  5
247
 10
260.587167
 20
379.171083
 30
0.0
 11
256.587167
 21
379.171083
 31
0.0
  0
LINE
  8
1
  6
CONTINUOUS
 62
     1
  5
248
 10
267.837167
 20
383.171083
 30
0.0
 11
268.377667
 21
378.171083
 31
0.0
  0
LINE
  8
1
  6
CONTINUOUS
 62
     1
  5
249
 10
268.377667
 20
378.171083
 30
0.0
 11
269.275333
 21
369.868
 31
0.0
  0
POLYLINE
  8
1
  6
CONTINUOUS
 62
     1
  5
24A
 66
     1
 10
0.0
 20
0.0
 30
0.0
 70
     1
  0
VERTEX
  8
1
  6
CONTINUOUS
 62
     1
  5
24B
 10
268.538917
 20
376.67975
 30
0.0
  0
VERTEX
  8
1
  6
CONTINUOUS
 62
     1
  5
24C
 10
265.611667
 20
378.171083
 30
0.0
  0
VERTEX
  8
1
  6
CONTINUOUS
 62
     1
  5
24D
 10
268.37775
 20
378.171083
 30
0.0
  0
VERTEX
  8
1
  6
CONTINUOUS
 62
     1
  5
24E
 10
268.377667
 20
378.171083
 30
0.0
  0
VERTEX
  8
1
  6
CONTINUOUS
 62
     1
  5
24F
 10
268.538917
 20
376.67975
 30
0.0
  0
SEQEND
  8
1
  6
CONTINUOUS
 62
     1
  5
250
  0
LINE
  8
1
  6
CONTINUOUS
 62
     1
  5
251
 10
267.078667
 20
364.6015
 30
0.0
 11
268.274
 21
366.337167
 31
0.0
  0
LINE
  8
1
  6
CONTINUOUS
 62
     1
  5
252
 10
265.611667
 20
378.171083
 30
0.0
 11
267.078667
 21
364.6015
 31
0.0
  0
LINE
  8
1
  6
CONTINUOUS
 62
     1
  5
253
 10
267.078667
 20
364.6015
 30
0.0
 11
272.530583
 21
314.171083
 31
0.0
  0
LINE
  8
1
  6
CONTINUOUS
 62
     1
  5
254
 10
266.955083
 20
365.744417
 30
0.0
 11
268.150417
 21
367.48
 31
0.0
  0
LINE
  8
1
  6
CONTINUOUS
 62
     1
  5
255
 10
266.666833
 20
368.411167
 30
0.0
 11
269.057583
 21
371.8825
 31
0.0
  0
LINE
  8
1
  6
CONTINUOUS
 62
     1
  5
256
 10
266.54325
 20
369.554
 30
0.0
 11
268.934
 21
373.025333
 31
0.0
  0
LINE
  8
1
  6
CONTINUOUS
 62
     1
  5
257
 10
266.254917
 20
372.22075
 30
0.0
 11
268.645667
 21
375.692083
 31
0.0
  0
LINE
  8
1
  6
CONTINUOUS
 62
     1
  5
258
 10
266.131417
 20
373.363667
 30
0.0
 11
268.447333
 21
376.726417
 31
0.0
  0
LINE
  8
1
  6
CONTINUOUS
 62
     1
  5
259
 10
265.843083
 20
376.030417
 30
0.0
 11
266.874333
 21
377.527833
 31
0.0
  0
LINE
  8
1
  6
CONTINUOUS
 62
     1
  5
25A
 10
265.7195
 20
377.173333
 30
0.0
 11
266.200167
 21
377.87125
 31
0.0
  0
LINE
  8
1
  6
CONTINUOUS
 62
     1
  5
25B
 10
267.586417
 20
360.577083
 30
0.0
 11
268.719
 21
362.221583
 31
0.0
  0
LINE
  8
1
  6
CONTINUOUS
 62
     1
  5
25C
 10
267.4
 20
361.628833
 30
0.0
 11
268.515167
 21
363.248
 31
0.0
  0
LINE
  8
1
  6
CONTINUOUS
 62
     1
  5
25D
 10
270.189833
 20
361.408333
 30
0.0
 11
268.979083
 21
363.166333
 31
0.0
  0
LINE
  8
1
  6
CONTINUOUS
 62
     1
  5
25E
 10
269.326583
 20
361.339417
 30
0.0
 11
268.718917
 21
362.22175
 31
0.0
  0
LINE
  8
1
  6
CONTINUOUS
 62
     1
  5
25F
 10
270.069417
 20
361.0025
 30
0.0
 11
270.125333
 21
360.972
 31
0.0
  0
LINE
  8
1
  6
CONTINUOUS
 62
     1
  5
260
 10
270.125333
 20
360.972
 30
0.0
 11
270.243167
 21
360.903833
 31
0.0
  0
LINE
  8
1
  6
CONTINUOUS
 62
     1
  5
261
 10
269.744917
 20
365.52375
 30
0.0
 11
268.104333
 21
367.905833
 31
0.0
  0
LINE
  8
1
  6
CONTINUOUS
 62
     1
  5
262
 10
269.575417
 20
367.092083
 30
0.0
 11
268.74225
 21
368.30175
 31
0.0
  0
LINE
  8
1
  6
CONTINUOUS
 62
     1
  5
263
 10
207.337167
 20
383.171083
 30
0.0
 11
207.337167
 21
378.171083
 31
0.0
  0
LINE
  8
1
  6
CONTINUOUS
 62
     1
  5
264
 10
207.337167
 20
378.171083
 30
0.0
 11
268.377667
 21
378.171083
 31
0.0
  0
POLYLINE
  8
1
  6
CONTINUOUS
 62
     1
  5
265
 66
     1
 10
0.0
 20
0.0
 30
0.0
 70
     1
  0
VERTEX
  8
1
  6
CONTINUOUS
 62
     1
  5
266
 10
207.337167
 20
378.171083
 30
0.0
  0
VERTEX
  8
1
  6
CONTINUOUS
 62
     1
  5
267
 10
209.837167
 20
378.171083
 30
0.0
  0
VERTEX
  8
1
  6
CONTINUOUS
 62
     1
  5
268
 10
207.337167
 20
376.671083
 30
0.0
  0
VERTEX
  8
1
  6
CONTINUOUS
 62
     1
  5
269
 10
207.337167
 20
378.171083
 30
0.0
  0
SEQEND
  8
1
  6
CONTINUOUS
 62
     1
  5
26A
  0
LINE
  8
1
  6
CONTINUOUS
 62
     1
  5
26B
 10
275.296583
 20
314.171083
 30
0.0
 11
275.837167
 21
309.171083
 31
0.0
  0
LINE
  8
1
  6
CONTINUOUS
 62
     1
  5
26C
 10
272.530583
 20
314.171083
 30
0.0
 11
275.296583
 21
314.171083
 31
0.0
  0
LINE
  8
1
  6
CONTINUOUS
 62
     1
  5
26D
 10
275.027917
 20
316.656583
 30
0.0
 11
275.296417
 21
314.171083
 31
0.0
  0
POLYLINE
  8
1
  6
CONTINUOUS
 62
     1
  5
26E
 66
     1
 10
0.0
 20
0.0
 30
0.0
 70
     1
  0
VERTEX
  8
1
  6
CONTINUOUS
 62
     1
  5
26F
 10
273.530583
 20
314.171083
 30
0.0
  0
VERTEX
  8
1
  6
CONTINUOUS
 62
     1
  5
270
 10
275.135333
 20
315.662333
 30
0.0
  0
VERTEX
  8
1
  6
CONTINUOUS
 62
     1
  5
271
 10
275.2965
 20
314.171083
 30
0.0
  0
VERTEX
  8
1
  6
CONTINUOUS
 62
     1
  5
272
 10
273.530583
 20
314.171083
 30
0.0
  0
SEQEND
  8
1
  6
CONTINUOUS
 62
     1
  5
273
  0
LINE
  8
1
  6
HIDDEN
 62
     1
  5
274
 10
209.837167
 20
378.171083
 30
0.0
 11
209.837167
 21
334.171083
 31
0.0
  0
LINE
  8
1
  6
HIDDEN
 62
     1
  5
275
 10
209.837167
 20
334.171083
 30
0.0
 11
209.837167
 21
314.171083
 31
0.0
  0
LINE
  8
1
  6
CONTINUOUS
 62
     1
  5
276
 10
207.337167
 20
378.171083
 30
0.0
 11
207.337167
 21
334.171083
 31
0.0
  0
POLYLINE
  8
1
  6
CONTINUOUS
 62
     1
  5
277
 66
     1
 10
0.0
 20
0.0
 30
0.0
  0
VERTEX
  8
1
  6
CONTINUOUS
 62
     1
  5
278
 10
207.337167
 20
336.171083
 30
0.0
 42
0.143486
  0
VERTEX
  8
1
  6
CONTINUOUS
 62
     1
  5
279
 10
209.837167
 20
334.171083
 30
0.0
  0
VERTEX
  8
1
  6
CONTINUOUS
 62
     1
  5
27A
 10
209.837167
 20
334.171083
 30
0.0
  0
VERTEX
  8
1
  6
CONTINUOUS
 62
     1
  5
27B
 10
207.337167
 20
334.171083
 30
0.0
  0
VERTEX
  8
1
  6
CONTINUOUS
 62
     1
  5
27C
 10
207.337167
 20
336.171083
 30
0.0
  0
SEQEND
  8
1
  6
CONTINUOUS
 62
     1
  5
27D
  0
LINE
  8
1
  6
HIDDEN
 62
     1
  5
27E
 10
220.837167
 20
334.171083
 30
0.0
 11
209.837167
 21
334.171083
 31
0.0
  0
LINE
  8
1
  6
CONTINUOUS
 62
     1
  5
27F
 10
209.837167
 20
334.171083
 30
0.0
 11
207.337167
 21
334.171083
 31
0.0
  0
LINE
  8
1
  6
CONTINUOUS
 62
     1
  5
280
 10
221.315583
 20
314.171083
 30
0.0
 11
272.530583
 21
314.171083
 31
0.0
  0
POLYLINE
  8
1
  6
CONTINUOUS
 62
     1
  5
281
 66
     1
 10
0.0
 20
0.0
 30
0.0
  0
VERTEX
  8
1
  6
CONTINUOUS
 62
     1
  5
282
 10
217.087167
 20
314.171083
 30
0.0
  0
VERTEX
  8
1
  6
CONTINUOUS
 62
     1
  5
283
 10
217.087167
 20
316.171083
 30
0.0
  0
VERTEX
  8
1
  6
CONTINUOUS
 62
     1
  5
284
 10
217.087167
 20
316.171083
 30
0.0
 42
0.108006
  0
VERTEX
  8
1
  6
CONTINUOUS
 62
     1
  5
285
 10
221.315585
 20
314.171083
 30
0.0
  0
VERTEX
  8
1
  6
CONTINUOUS
 62
     1
  5
286
 10
221.315583
 20
314.171083
 30
0.0
  0
VERTEX
  8
1
  6
CONTINUOUS
 62
     1
  5
287
 10
217.087167
 20
314.171083
 30
0.0
  0
SEQEND
  8
1
  6
CONTINUOUS
 62
     1
  5
288
  0
LINE
  8
1
  6
CONTINUOUS
 62
     1
  5
289
 10
217.087167
 20
316.171083
 30
0.0
 11
217.087167
 21
314.171083
 31
0.0
  0
LINE
  8
1
  6
CONTINUOUS
 62
     1
  5
28A
 10
207.337167
 20
334.171083
 30
0.0
 11
207.337167
 21
314.171083
 31
0.0
  0
LINE
  8
1
  6
CONTINUOUS
 62
     1
  5
28B
 10
207.337167
 20
314.171083
 30
0.0
 11
207.337167
 21
309.171083
 31
0.0
  0
LINE
  8
1
  6
CONTINUOUS
 62
     1
  5
28C
 10
207.337167
 20
314.171083
 30
0.0
 11
221.315583
 21
314.171083
 31
0.0
  0
POLYLINE
  8
1
  6
CONTINUOUS
 62
     1
  5
28D
 66
     1
 10
0.0
 20
0.0
 30
0.0
  0
VERTEX
  8
1
  6
CONTINUOUS
 62
     1
  5
28E
 10
207.337167
 20
314.171083
 30
0.0
  0
VERTEX
  8
1
  6
CONTINUOUS
 62
     1
  5
28F
 10
207.337167
 20
316.671083
 30
0.0
  0
VERTEX
  8
1
  6
CONTINUOUS
 62
     1
  5
290
 10
207.337167
 20
316.671083
 30
0.0
 42
0.124536
  0
VERTEX
  8
1
  6
CONTINUOUS
 62
     1
  5
291
 10
209.837167
 20
314.171083
 30
0.0
  0
VERTEX
  8
1
  6
CONTINUOUS
 62
     1
  5
292
 10
209.837167
 20
314.171083
 30
0.0
  0
VERTEX
  8
1
  6
CONTINUOUS
 62
     1
  5
293
 10
207.337167
 20
314.171083
 30
0.0
  0
SEQEND
  8
1
  6
CONTINUOUS
 62
     1
  5
294
  0
LINE
  8
1
  6
CONTINUOUS
 62
     7
  5
295
 10
238.587167
 20
346.171083
 30
0.0
 11
236.587167
 21
346.171083
 31
0.0
  0
CIRCLE
  8
1
  6
CONTINUOUS
 62
     1
  5
296
 10
237.587167
 20
346.171083
 30
0.0
 40
5.0
210
0.0
220
0.0
230
1.0
  0
CIRCLE
  8
1
  6
CONTINUOUS
 62
     1
  5
297
 10
237.587167
 20
346.171083
 30
0.0
 40
5.75
210
0.0
220
0.0
230
1.0
  0
LINE
  8
1
  6
CONTINUOUS
 62
     7
  5
298
 10
237.587167
 20
349.171083
 30
0.0
 11
237.587167
 21
359.171083
 31
0.0
  0
LINE
  8
1
  6
CONTINUOUS
 62
     7
  5
299
 10
234.587167
 20
346.171083
 30
0.0
 11
224.587167
 21
346.171083
 31
0.0
  0
LINE
  8
1
  6
CONTINUOUS
 62
     7
  5
29A
 10
237.587167
 20
343.171083
 30
0.0
 11
237.587167
 21
333.171083
 31
0.0
  0
LINE
  8
1
  6
CONTINUOUS
 62
     7
  5
29B
 10
240.587167
 20
346.171083
 30
0.0
 11
286.837083
 21
346.171083
 31
0.0
  0
LINE
  8
1
  6
CONTINUOUS
 62
     7
  5
29C
 10
276.837167
 20
309.171083
 30
0.0
 11
286.837083
 21
309.171083
 31
0.0
  0
LINE
  8
1
  6
CONTINUOUS
 62
     7
  5
29D
 10
285.837083
 20
346.171083
 30
0.0
 11
285.837083
 21
309.171083
 31
0.0
  0
INSERT
  8
1
  6
CONTINUOUS
 62
     1
  5
29E
  2
LDR
 10
285.837083
 20
346.171083
 30
0.0
 41
240.0
 42
240.0
 50
90.0
210
0.0
220
0.0
230
1.0
  0
INSERT
  8
1
  6
CONTINUOUS
 62
     1
  5
29F
  2
LDR
 10
285.837083
 20
309.171083
 30
0.0
 41
240.0
 42
240.0
 50
270.0
210
0.0
220
0.0
230
1.0
  0
LINE
  8
1
  6
CONTINUOUS
 62
     7
  5
2A0
 10
275.837167
 20
311.171083
 30
0.0
 11
275.837167
 21
412.171083
 31
0.0
  0
LINE
  8
1
  6
CONTINUOUS
 62
     7
  5
2A1
 10
207.337167
 20
384.171083
 30
0.0
 11
207.337167
 21
412.171083
 31
0.0
  0
LINE
  8
1
  6
CONTINUOUS
 62
     7
  5
2A2
 10
267.837167
 20
384.171083
 30
0.0
 11
267.837167
 21
412.171083
 31
0.0
  0
LINE
  8
1
  6
CONTINUOUS
 62
     7
  5
2A3
 10
207.337167
 20
411.171083
 30
0.0
 11
267.837167
 21
411.171083
 31
0.0
  0
LINE
  8
1
  6
CONTINUOUS
 62
     7
  5
2A4
 10
267.837167
 20
411.171083
 30
0.0
 11
275.837167
 21
411.171083
 31
0.0
  0
LINE
  8
1
  6
CONTINUOUS
 62
     7
  5
2A5
 10
237.587167
 20
403.171083
 30
0.0
 11
207.337167
 21
403.171083
 31
0.0
  0
LINE
  8
1
  6
CONTINUOUS
 62
     7
  5
2A6
 10
237.587167
 20
404.171083
 30
0.0
 11
237.587167
 21
381.671083
 31
0.0
  0
LINE
  8
1
  6
CONTINUOUS
 62
     7
  5
2A7
 10
237.587167
 20
381.171083
 30
0.0
 11
237.587167
 21
380.171083
 31
0.0
  0
LINE
  8
1
  6
CONTINUOUS
 62
     7
  5
2A8
 10
237.587167
 20
379.671083
 30
0.0
 11
237.587167
 21
374.171083
 31
0.0
  0
LINE
  8
1
  6
CONTINUOUS
 62
     7
  5
2A9
 10
206.337167
 20
383.171083
 30
0.0
 11
195.337167
 21
383.171083
 31
0.0
  0
LINE
  8
1
  6
CONTINUOUS
 62
     7
  5
2AA
 10
211.087167
 20
398.171083
 30
0.0
 11
195.337167
 21
398.171083
 31
0.0
  0
LINE
  8
1
  6
CONTINUOUS
 62
     7
  5
2AB
 10
196.337167
 20
398.171083
 30
0.0
 11
196.337167
 21
383.171083
 31
0.0
  0
INSERT
  8
1
  6
CONTINUOUS
 62
     1
  5
2AC
  2
LDR
 10
196.337167
 20
398.171083
 30
0.0
 41
240.0
 42
240.0
 50
90.0
210
0.0
220
0.0
230
1.0
  0
INSERT
  8
1
  6
CONTINUOUS
 62
     1
  5
2AD
  2
LDR
 10
196.337167
 20
383.171083
 30
0.0
 41
240.0
 42
240.0
 50
270.0
210
0.0
220
0.0
230
1.0
  0
LINE
  8
1
  6
CONTINUOUS
 62
     7
  5
2AE
 10
206.337167
 20
378.171083
 30
0.0
 11
185.337167
 21
378.171083
 31
0.0
  0
LINE
  8
1
  6
CONTINUOUS
 62
     7
  5
2AF
 10
207.337167
 20
314.171083
 30
0.0
 11
185.337167
 21
314.171083
 31
0.0
  0
LINE
  8
1
  6
CONTINUOUS
 62
     7
  5
2B0
 10
186.337167
 20
378.171083
 30
0.0
 11
186.337167
 21
314.171083
 31
0.0
  0
INSERT
  8
1
  6
CONTINUOUS
 62
     1
  5
2B1
  2
LDR
 10
186.337167
 20
378.171083
 30
0.0
 41
240.0
 42
240.0
 50
90.0
210
0.0
220
0.0
230
1.0
  0
INSERT
  8
1
  6
CONTINUOUS
 62
     1
  5
2B2
  2
LDR
 10
186.337167
 20
378.171083
 30
0.0
 41
240.0
 42
240.0
 50
90.0
210
0.0
220
0.0
230
1.0
  0
INSERT
  8
1
  6
CONTINUOUS
 62
     1
  5
2B3
  2
LDR
 10
186.337167
 20
314.171083
 30
0.0
 41
240.0
 42
240.0
 50
270.0
210
0.0
220
0.0
230
1.0
  0
LINE
  8
1
  6
CONTINUOUS
 62
     7
  5
2B4
 10
206.337167
 20
334.171083
 30
0.0
 11
194.337167
 21
334.171083
 31
0.0
  0
LINE
  8
1
  6
CONTINUOUS
 62
     7
  5
2B5
 10
195.337167
 20
334.171083
 30
0.0
 11
195.337167
 21
378.171083
 31
0.0
  0
LINE
  8
1
  6
CONTINUOUS
 62
     7
  5
2B6
 10
195.337167
 20
334.171083
 30
0.0
 11
195.337167
 21
314.171083
 31
0.0
  0
INSERT
  8
1
  6
CONTINUOUS
 62
     1
  5
2B7
  2
LDR
 10
195.337167
 20
378.171083
 30
0.0
 41
240.0
 42
240.0
 50
90.0
210
0.0
220
0.0
230
1.0
  0
INSERT
  8
1
  6
CONTINUOUS
 62
     1
  5
2B8
  2
LDR
 10
195.337167
 20
334.171083
 30
0.0
 41
240.0
 42
240.0
 50
270.0
210
0.0
220
0.0
230
1.0
  0
INSERT
  8
1
  6
CONTINUOUS
 62
     1
  5
2B9
  2
LDR
 10
195.337167
 20
334.171083
 30
0.0
 41
240.0
 42
240.0
 50
90.0
210
0.0
220
0.0
230
1.0
  0
INSERT
  8
1
  6
CONTINUOUS
 62
     1
  5
2BA
  2
LDR
 10
195.337167
 20
314.171083
 30
0.0
 41
240.0
 42
240.0
 50
270.0
210
0.0
220
0.0
230
1.0
  0
LINE
  8
1
  6
CONTINUOUS
 62
     7
  5
2BB
 10
206.337167
 20
309.171083
 30
0.0
 11
194.337167
 21
309.171083
 31
0.0
  0
LINE
  8
1
  6
CONTINUOUS
 62
     7
  5
2BC
 10
195.337167
 20
309.171083
 30
0.0
 11
195.337167
 21
304.171083
 31
0.0
  0
INSERT
  8
1
  6
CONTINUOUS
 62
     1
  5
2BD
  2
LDR
 10
195.337167
 20
309.171083
 30
0.0
 41
240.0
 42
240.0
 50
90.0
210
0.0
220
0.0
230
1.0
  0
LINE
  8
1
  6
CONTINUOUS
 62
     7
  5
2BE
 10
202.337167
 20
356.171083
 30
0.0
 11
207.337167
 21
356.171083
 31
0.0
  0
LINE
  8
1
  6
CONTINUOUS
 62
     7
  5
2BF
 10
209.837167
 20
356.171083
 30
0.0
 11
214.837167
 21
356.171083
 31
0.0
  0
INSERT
  8
1
  6
CONTINUOUS
 62
     1
  5
2C0
  2
LDR
 10
207.337167
 20
356.171083
 30
0.0
 41
240.0
 42
240.0
210
0.0
220
0.0
230
1.0
  0
INSERT
  8
1
  6
CONTINUOUS
 62
     1
  5
2C1
  2
LDR
 10
209.837167
 20
356.171083
 30
0.0
 41
240.0
 42
240.0
 50
180.0
210
0.0
220
0.0
230
1.0
  0
LINE
  8
1
  6
CONTINUOUS
 62
     7
  5
2C2
 10
207.337167
 20
308.171083
 30
0.0
 11
207.337167
 21
280.171083
 31
0.0
  0
LINE
  8
1
  6
CONTINUOUS
 62
     7
  5
2C3
 10
207.337167
 20
281.171083
 30
0.0
 11
245.087167
 21
281.171083
 31
0.0
  0
INSERT
  8
1
  6
CONTINUOUS
 62
     1
  5
2C4
  2
LDR
 10
207.337167
 20
281.171083
 30
0.0
 41
240.0
 42
240.0
 50
180.0
210
0.0
220
0.0
230
1.0
  0
INSERT
  8
1
  6
CONTINUOUS
 62
     1
  5
2C5
  2
LDR
 10
245.087167
 20
281.171083
 30
0.0
 41
240.0
 42
240.0
210
0.0
220
0.0
230
1.0
  0
LINE
  8
1
  6
CONTINUOUS
 62
     7
  5
2C6
 10
207.337167
 20
290.171083
 30
0.0
 11
224.962167
 21
290.171083
 31
0.0
  0
LINE
  8
1
  6
CONTINUOUS
 62
     7
  5
2C7
 10
224.962167
 20
290.171083
 30
0.0
 11
263.587167
 21
290.171083
 31
0.0
  0
INSERT
  8
1
  6
CONTINUOUS
 62
     1
  5
2C8
  2
LDR
 10
207.337167
 20
290.171083
 30
0.0
 41
240.0
 42
240.0
 50
180.0
210
0.0
220
0.0
230
1.0
  0
INSERT
  8
1
  6
CONTINUOUS
 62
     1
  5
2C9
  2
LDR
 10
207.337167
 20
290.171083
 30
0.0
 41
240.0
 42
240.0
 50
180.0
210
0.0
220
0.0
230
1.0
  0
INSERT
  8
1
  6
CONTINUOUS
 62
     1
  5
2CA
  2
LDR
 10
224.962167
 20
290.171083
 30
0.0
 41
240.0
 42
240.0
210
0.0
220
0.0
230
1.0
  0
INSERT
  8
1
  6
CONTINUOUS
 62
     1
  5
2CB
  2
LDR
 10
224.962167
 20
290.171083
 30
0.0
 41
240.0
 42
240.0
210
0.0
220
0.0
230
1.0
  0
INSERT
  8
1
  6
CONTINUOUS
 62
     1
  5
2CC
  2
LDR
 10
224.962167
 20
290.171083
 30
0.0
 41
240.0
 42
240.0
 50
180.0
210
0.0
220
0.0
230
1.0
  0
INSERT
  8
1
  6
CONTINUOUS
 62
     1
  5
2CD
  2
LDR
 10
224.962167
 20
290.171083
 30
0.0
 41
240.0
 42
240.0
 50
180.0
210
0.0
220
0.0
230
1.0
  0
INSERT
  8
1
  6
CONTINUOUS
 62
     1
  5
2CE
  2
LDR
 10
263.587167
 20
290.171083
 30
0.0
 41
240.0
 42
240.0
210
0.0
220
0.0
230
1.0
  0
LINE
  8
1
  6
CONTINUOUS
 62
     7
  5
2CF
 10
245.087167
 20
289.603917
 30
0.0
 11
245.087167
 21
280.171083
 31
0.0
  0
LINE
  8
1
  6
CONTINUOUS
 62
     7
  5
2D0
 10
224.962167
 20
317.171083
 30
0.0
 11
224.962167
 21
312.671083
 31
0.0
  0
LINE
  8
1
  6
CONTINUOUS
 62
     7
  5
2D1
 10
224.962167
 20
312.171083
 30
0.0
 11
224.962167
 21
311.171083
 31
0.0
  0
LINE
  8
1
  6
CONTINUOUS
 62
     7
  5
2D2
 10
224.962167
 20
310.671083
 30
0.0
 11
224.962167
 21
289.171083
 31
0.0
  0
LINE
  8
1
  6
CONTINUOUS
 62
     7
  5
2D3
 10
245.087167
 20
319.171083
 30
0.0
 11
245.087167
 21
312.671083
 31
0.0
  0
LINE
  8
1
  6
CONTINUOUS
 62
     7
  5
2D4
 10
245.087167
 20
312.171083
 30
0.0
 11
245.087167
 21
311.171083
 31
0.0
  0
LINE
  8
1
  6
CONTINUOUS
 62
     7
  5
2D5
 10
245.087167
 20
310.671083
 30
0.0
 11
245.087167
 21
295.073083
 31
0.0
  0
LINE
  8
1
  6
CONTINUOUS
 62
     7
  5
2D6
 10
263.587167
 20
317.171083
 30
0.0
 11
263.587167
 21
312.671083
 31
0.0
  0
LINE
  8
1
  6
CONTINUOUS
 62
     7
  5
2D7
 10
263.587167
 20
312.171083
 30
0.0
 11
263.587167
 21
311.171083
 31
0.0
  0
LINE
  8
1
  6
CONTINUOUS
 62
     7
  5
2D8
 10
263.587167
 20
310.671083
 30
0.0
 11
263.587167
 21
289.171083
 31
0.0
  0
LINE
  8
1
  6
CONTINUOUS
 62
     7
  5
2D9
 10
275.222417
 20
314.85625
 30
0.0
 11
285.332917
 21
306.121667
 31
0.0
  0
LINE
  8
1
  6
CONTINUOUS
 62
     7
  5
2DA
 10
285.332917
 20
306.121667
 30
0.0
 11
287.655
 21
306.121667
 31
0.0
  0
INSERT
  8
1
  6
CONTINUOUS
 62
     1
  5
2DB
  2
LDR
 10
275.222417
 20
314.85625
 30
0.0
 41
240.0
 42
240.0
 50
139.175868
210
0.0
220
0.0
230
1.0
  0
LINE
  8
1
  6
CONTINUOUS
 62
     7
  5
2DC
 10
220.837167
 20
329.013
 30
0.0
 11
199.255667
 21
289.269
 31
0.0
  0
LINE
  8
1
  6
CONTINUOUS
 62
     7
  5
2DD
 10
207.337167
 20
325.713833
 30
0.0
 11
199.255667
 21
289.269
 31
0.0
  0
INSERT
  8
1
  6
CONTINUOUS
 62
     1
  5
2DE
  2
LDR
 10
207.337167
 20
325.713833
 30
0.0
 41
240.000002
 42
240.000002
 50
77.497191
210
0.0
220
0.0
230
1.0
  0
INSERT
  8
1
  6
CONTINUOUS
 62
     1
  5
2DF
  2
LDR
 10
207.337167
 20
325.713833
 30
0.0
 41
240.000002
 42
240.000002
 50
77.497191
210
0.0
220
0.0
230
1.0
  0
INSERT
  8
1
  6
CONTINUOUS
 62
     1
  5
2E0
  2
LDR
 10
220.837167
 20
329.013
 30
0.0
 41
240.0
 42
240.0
 50
61.497474
210
0.0
220
0.0
230
1.0
  0
LINE
  8
1
  6
CONTINUOUS
 62
     7
  5
2E1
 10
199.255667
 20
289.269
 30
0.0
 11
191.684583
 21
289.269
 31
0.0
  0
LINE
  8
1
  6
CONTINUOUS
 62
     7
  5
2E2
 10
262.950417
 20
356.268167
 30
0.0
 11
269.288333
 21
356.953333
 31
0.0
  0
LINE
  8
1
  6
CONTINUOUS
 62
     7
  5
2E3
 10
270.6555
 20
357.101083
 30
0.0
 11
275.6265
 21
357.63825
 31
0.0
  0
LINE
  8
1
  6
CONTINUOUS
 62
     7
  5
2E4
 10
263.573417
 20
350.505333
 30
0.0
 11
268.5445
 21
351.04275
 31
0.0
  0
LINE
  8
1
  6
CONTINUOUS
 62
     7
  5
2E5
 10
271.2785
 20
351.338167
 30
0.0
 11
275.6605
 21
351.811667
 31
0.0
  0
INSERT
  8
1
  6
CONTINUOUS
 62
     1
  5
2E6
  2
LDR
 10
269.288333
 20
356.953333
 30
0.0
 41
240.000002
 42
240.000002
 50
6.170055
210
0.0
220
0.0
230
1.0
  0
INSERT
  8
1
  6
CONTINUOUS
 62
     1
  5
2E7
  2
LDR
 10
269.288333
 20
356.953333
 30
0.0
 41
240.000002
 42
240.000002
 50
6.170055
210
0.0
220
0.0
230
1.0
  0
INSERT
  8
1
  6
CONTINUOUS
 62
     1
  5
2E8
  2
LDR
 10
270.6555
 20
357.101083
 30
0.0
 41
240.0
 42
240.0
 50
186.167455
210
0.0
220
0.0
230
1.0
  0
INSERT
  8
1
  6
CONTINUOUS
 62
     1
  5
2E9
  2
LDR
 10
270.6555
 20
357.101083
 30
0.0
 41
240.0
 42
240.0
 50
186.167455
210
0.0
220
0.0
230
1.0
  0
INSERT
  8
1
  6
CONTINUOUS
 62
     1
  5
2EA
  2
LDR
 10
271.2785
 20
351.338167
 30
0.0
 41
240.0
 42
240.0
 50
186.167455
210
0.0
220
0.0
230
1.0
  0
INSERT
  8
1
  6
CONTINUOUS
 62
     1
  5
2EB
  2
LDR
 10
271.2785
 20
351.338167
 30
0.0
 41
240.0
 42
240.0
 50
186.167455
210
0.0
220
0.0
230
1.0
  0
INSERT
  8
1
  6
CONTINUOUS
 62
     1
  5
2EC
  2
LDR
 10
268.5445
 20
351.04275
 30
0.0
 41
240.000002
 42
240.000002
 50
6.170201
210
0.0
220
0.0
230
1.0
  0
INSERT
  8
1
  6
CONTINUOUS
 62
     1
  5
2ED
  2
LDR
 10
268.5445
 20
351.04275
 30
0.0
 41
240.000002
 42
240.000002
 50
6.170201
210
0.0
220
0.0
230
1.0
  0
INSERT
  8
1
  6
CONTINUOUS
 62
     1
  5
2EE
  2
LDR
 10
207.337167
 20
411.171083
 30
0.0
 41
240.0
 42
240.0
 50
180.0
210
0.0
220
0.0
230
1.0
  0
INSERT
  8
1
  6
CONTINUOUS
 62
     1
  5
2EF
  2
LDR
 10
207.337167
 20
411.171083
 30
0.0
 41
240.0
 42
240.0
 50
180.0
210
0.0
220
0.0
230
1.0
  0
INSERT
  8
1
  6
CONTINUOUS
 62
     1
  5
2F0
  2
LDR
 10
207.337167
 20
403.171083
 30
0.0
 41
240.0
 42
240.0
 50
180.0
210
0.0
220
0.0
230
1.0
  0
INSERT
  8
1
  6
CONTINUOUS
 62
     1
  5
2F1
  2
LDR
 10
207.337167
 20
403.171083
 30
0.0
 41
240.0
 42
240.0
 50
180.0
210
0.0
220
0.0
230
1.0
  0
INSERT
  8
1
  6
CONTINUOUS
 62
     1
  5
2F2
  2
LDR
 10
237.587167
 20
403.171083
 30
0.0
 41
240.0
 42
240.0
210
0.0
220
0.0
230
1.0
  0
INSERT
  8
1
  6
CONTINUOUS
 62
     1
  5
2F3
  2
LDR
 10
237.587167
 20
403.171083
 30
0.0
 41
240.0
 42
240.0
210
0.0
220
0.0
230
1.0
  0
INSERT
  8
1
  6
CONTINUOUS
 62
     1
  5
2F4
  2
LDR
 10
267.837167
 20
411.171083
 30
0.0
 41
240.0
 42
240.0
210
0.0
220
0.0
230
1.0
  0
INSERT
  8
1
  6
CONTINUOUS
 62
     1
  5
2F5
  2
LDR
 10
267.837167
 20
411.171083
 30
0.0
 41
240.0
 42
240.0
210
0.0
220
0.0
230
1.0
  0
INSERT
  8
1
  6
CONTINUOUS
 62
     1
  5
2F6
  2
LDR
 10
267.837167
 20
411.171083
 30
0.0
 41
240.0
 42
240.0
 50
180.0
210
0.0
220
0.0
230
1.0
  0
INSERT
  8
1
  6
CONTINUOUS
 62
     1
  5
2F7
  2
LDR
 10
267.837167
 20
411.171083
 30
0.0
 41
240.0
 42
240.0
 50
180.0
210
0.0
220
0.0
230
1.0
  0
INSERT
  8
1
  6
CONTINUOUS
 62
     1
  5
2F8
  2
LDR
 10
275.837167
 20
411.171083
 30
0.0
 41
240.0
 42
240.0
210
0.0
220
0.0
230
1.0
  0
TEXT
  8
1
  6
CONTINUOUS
 62
     7
  5
2F9
 10
234.079
 20
411.847083
 30
0.0
 40
2.5
  1
1'-0"
  7
MONOTXT
 72
     4
 11
238.084833
 21
413.097083
 31
0.0
210
0.0
220
0.0
230
1.0
  0
TEXT
  8
1
  6
CONTINUOUS
 62
     7
  5
2FA
 10
268.584
 20
412.773917
 30
0.0
 40
2.5
  1
1 1/2 "
  7
MONOTXT
 72
     4
 11
271.8615
 21
414.023917
 31
0.0
210
0.0
220
0.0
230
1.0
  0
TEXT
  8
1
  6
CONTINUOUS
 62
     7
  5
2FB
 10
221.64175
 20
403.75825
 30
0.0
 40
2.5
  1
6"
  7
MONOTXT
 72
     4
 11
223.3445
 21
405.00825
 31
0.0
210
0.0
220
0.0
230
1.0
  0
TEXT
  8
1
  6
CONTINUOUS
 62
     7
  5
2FC
 10
276.84925
 20
356.269
 30
0.0
 40
2.5
  1
 1/4 " OR 11 GA.
 50
6.0
  7
MONOTXT
 72
     4
 11
289.277329
 21
358.832129
 31
0.0
210
0.0
220
0.0
230
1.0
  0
TEXT
  8
1
  6
CONTINUOUS
 62
     7
  5
2FD
 10
276.764667
 20
350.16075
 30
0.0
 40
2.5
  1
 1/2 "
 50
6.0
  7
MONOTXT
 72
     4
 11
279.188767
 21
351.672419
 31
0.0
210
0.0
220
0.0
230
1.0
  0
LINE
  8
1
  6
CONTINUOUS
 62
     7
  5
2FE
 10
236.268417
 20
340.574333
 30
0.0
 11
232.235083
 21
326.07975
 31
0.0
  0
LINE
  8
1
  6
CONTINUOUS
 62
     7
  5
2FF
 10
232.235083
 20
326.07975
 30
0.0
 11
237.795917
 21
326.07975
 31
0.0
  0
INSERT
  8
1
  6
CONTINUOUS
 62
     1
  5
300
  2
LDR
 10
236.268417
 20
340.574333
 30
0.0
 41
240.000002
 42
240.000002
 50
74.449983
210
0.0
220
0.0
230
1.0
  0
TEXT
  8
1
  6
CONTINUOUS
 62
     7
  5
301
 10
238.820333
 20
327.239333
 30
0.0
 40
2.5
  1
2" CONDUIT
  7
MONOTXT
 11
238.820333
 21
329.739333
 31
0.0
210
0.0
220
0.0
230
1.0
 73
     3
  0
TEXT
  8
1
  6
CONTINUOUS
 62
     7
  5
302
 10
238.820333
 20
322.739333
 30
0.0
 40
2.5
  1
HUB (TYP.)
  7
MONOTXT
 11
238.820333
 21
325.239333
 31
0.0
210
0.0
220
0.0
230
1.0
 73
     3
  0
TEXT
  8
1
  6
CONTINUOUS
 62
     7
  5
303
 10
215.764083
 20
355.277917
 30
0.0
 40
2.5
  1
 1/2 "
  7
MONOTXT
 72
     4
 11
218.332917
 21
356.527917
 31
0.0
210
0.0
220
0.0
230
1.0
  0
TEXT
  8
1
  6
CONTINUOUS
 62
     7
  5
304
 10
288.721667
 20
304.549583
 30
0.0
 40
2.5
  1
 1/2 " DRAIN OPENING
  7
MONOTXT
 11
288.721667
 21
307.049583
 31
0.0
210
0.0
220
0.0
230
1.0
 73
     3
  0
TEXT
  8
1
  6
CONTINUOUS
 62
     7
  5
305
 10
288.721667
 20
300.049583
 30
0.0
 40
2.5
  1
AT CENTER OF PLATE
  7
MONOTXT
 11
288.721667
 21
302.549583
 31
0.0
210
0.0
220
0.0
230
1.0
 73
     3
  0
LINE
  8
1
  6
CONTINUOUS
 62
     7
  5
306
 10
217.087167
 20
308.171083
 30
0.0
 11
217.087167
 21
297.4165
 31
0.0
  0
LINE
  8
1
  6
CONTINUOUS
 62
     7
  5
307
 10
217.087167
 20
298.4165
 30
0.0
 11
207.337167
 21
298.4165
 31
0.0
  0
INSERT
  8
1
  6
CONTINUOUS
 62
     1
  5
308
  2
LDR
 10
207.337167
 20
298.4165
 30
0.0
 41
240.0
 42
240.0
 50
180.0
210
0.0
220
0.0
230
1.0
  0
INSERT
  8
1
  6
CONTINUOUS
 62
     1
  5
309
  2
LDR
 10
207.337167
 20
298.4165
 30
0.0
 41
240.0
 42
240.0
 50
180.0
210
0.0
220
0.0
230
1.0
  0
INSERT
  8
1
  6
CONTINUOUS
 62
     1
  5
30A
  2
LDR
 10
217.087167
 20
298.4165
 30
0.0
 41
240.0
 42
240.0
210
0.0
220
0.0
230
1.0
  0
TEXT
  8
1
  6
CONTINUOUS
 62
     7
  5
30B
 10
210.472417
 20
303.858917
 30
0.0
 40
2.5
  1
2"
  7
MONOTXT
 72
     4
 11
212.23425
 21
305.108917
 31
0.0
210
0.0
220
0.0
230
1.0
  0
TEXT
  8
1
  6
CONTINUOUS
 62
     7
  5
30C
 10
208.228333
 20
299.358917
 30
0.0
 40
2.5
  1
TYP.
  7
MONOTXT
 72
     4
 11
212.234167
 21
300.608917
 31
0.0
210
0.0
220
0.0
230
1.0
  0
TEXT
  8
1
  6
CONTINUOUS
 62
     7
  5
30D
 10
212.629333
 20
291.46625
 30
0.0
 40
2.5
  1
3 5/8 "
  7
MONOTXT
 72
     4
 11
216.438333
 21
292.71625
 31
0.0
210
0.0
220
0.0
230
1.0
  0
TEXT
  8
1
  6
CONTINUOUS
 62
     7
  5
30E
 10
241.239167
 20
291.14675
 30
0.0
 40
2.5
  1
7 3/4 "
  7
MONOTXT
 72
     4
 11
245.067833
 21
292.39675
 31
0.0
210
0.0
220
0.0
230
1.0
  0
TEXT
  8
1
  6
CONTINUOUS
 62
     7
  5
30F
 10
223.15025
 20
282.361167
 30
0.0
 40
2.5
  1
7 1/2 "
  7
MONOTXT
 72
     4
 11
226.978917
 21
283.611167
 31
0.0
210
0.0
220
0.0
230
1.0
  0
TEXT
  8
1
  6
CONTINUOUS
 62
     7
  5
310
 10
160.565833
 20
288.393083
 30
0.0
 40
2.5
  1
VARIES AS PER
  7
MONOTXT
 72
     4
 11
175.339417
 21
289.643083
 31
0.0
210
0.0
220
0.0
230
1.0
  0
TEXT
  8
1
  6
CONTINUOUS
 62
     7
  5
311
 10
163.22325
 20
283.893083
 30
0.0
 40
2.5
  1
WALL DETAIL
  7
MONOTXT
 72
     4
 11
175.339333
 21
285.143083
 31
0.0
210
0.0
220
0.0
230
1.0
  0
TEXT
  8
1
  6
CONTINUOUS
 62
     7
  5
312
 10
184.879917
 20
342.46325
 30
0.0
 40
2.5
  1
12 3/4 "
 50
90.0
  7
MONOTXT
 72
     4
 11
183.629917
 21
346.980917
 31
0.0
210
0.0
220
0.0
230
1.0
  0
TEXT
  8
1
  6
CONTINUOUS
 62
     7
  5
313
 10
193.884917
 20
351.527083
 30
0.0
 40
2.5
  1
8 3/4 "
 50
90.0
  7
MONOTXT
 72
     4
 11
192.634917
 21
355.336083
 31
0.0
210
0.0
220
0.0
230
1.0
  0
TEXT
  8
1
  6
CONTINUOUS
 62
     7
  5
314
 10
194.537417
 20
322.575083
 30
0.0
 40
2.5
  1
4"
 50
90.0
  7
MONOTXT
 72
     4
 11
193.287417
 21
324.395917
 31
0.0
210
0.0
220
0.0
230
1.0
  0
TEXT
  8
1
  6
CONTINUOUS
 62
     7
  5
315
 10
196.886583
 20
310.241167
 30
0.0
 40
2.5
  1
1"
 50
90.0
  7
MONOTXT
 72
     4
 11
195.636583
 21
311.4715
 31
0.0
210
0.0
220
0.0
230
1.0
  0
TEXT
  8
1
  6
CONTINUOUS
 62
     7
  5
316
 10
198.061167
 20
379.301917
 30
0.0
 40
2.5
  1
1"
 50
90.0
  7
MONOTXT
 72
     4
 11
196.811167
 21
380.53225
 31
0.0
210
0.0
220
0.0
230
1.0
  0
TEXT
  8
1
  6
CONTINUOUS
 62
     7
  5
317
 10
195.451
 20
388.561667
 30
0.0
 40
2.5
  1
3"
 50
90.0
  7
MONOTXT
 72
     4
 11
194.201
 21
390.3235
 31
0.0
210
0.0
220
0.0
230
1.0
  0
TEXT
  8
1
  6
CONTINUOUS
 62
     7
  5
318
 10
289.532667
 20
323.708083
 30
0.0
 40
2.5
  1
7 1/2 "
 50
90.0
  7
MONOTXT
 72
     4
 11
288.282667
 21
327.53675
 31
0.0
210
0.0
220
0.0
230
1.0
  0
LINE
  8
1
  6
CONTINUOUS
 62
     7
  5
319
 10
214.485833
 20
263.928833
 30
0.0
 11
278.560083
 21
263.928833
 31
0.0
  0
TEXT
  8
1
  6
CONTINUOUS
 62
     7
  5
31A
 10
215.11475
 20
265.861833
 30
0.0
 40
4.0
  1
TYPE "F" SIDE VIEW
  7
MONOTXT
 72
     4
 11
246.6895
 21
267.861833
 31
0.0
210
0.0
220
0.0
230
1.0
  0
LINE
  8
1
  6
CONTINUOUS
 62
     2
  5
31B
 10
342.387667
 20
383.171083
 30
0.0
 11
342.387667
 21
323.171083
 31
0.0
  0
LINE
  8
1
  6
CONTINUOUS
 62
     2
  5
31C
 10
342.387667
 20
323.171083
 30
0.0
 11
402.387667
 21
323.171083
 31
0.0
  0
LINE
  8
1
  6
CONTINUOUS
 62
     2
  5
31D
 10
402.387667
 20
323.171083
 30
0.0
 11
402.387667
 21
383.171083
 31
0.0
  0
LINE
  8
1
  6
CONTINUOUS
 62
     2
  5
31E
 10
402.387667
 20
383.171083
 30
0.0
 11
342.387667
 21
383.171083
 31
0.0
  0
LINE
  8
1
  6
HIDDEN
 62
     2
  5
31F
 10
344.887667
 20
380.671083
 30
0.0
 11
344.887667
 21
325.671083
 31
0.0
  0
LINE
  8
1
  6
HIDDEN
 62
     2
  5
320
 10
399.887667
 20
380.671083
 30
0.0
 11
344.887667
 21
380.671083
 31
0.0
  0
LINE
  8
1
  6
HIDDEN
 62
     2
  5
321
 10
399.887667
 20
325.671083
 30
0.0
 11
399.887667
 21
380.671083
 31
0.0
  0
LINE
  8
1
  6
HIDDEN
 62
     2
  5
322
 10
344.887667
 20
325.671083
 30
0.0
 11
399.887667
 21
325.671083
 31
0.0
  0
LINE
  8
1
  6
CONTINUOUS
 62
     2
  5
323
 10
352.387667
 20
374.171083
 30
0.0
 11
352.387667
 21
372.171083
 31
0.0
  0
LINE
  8
1
  6
CONTINUOUS
 62
     2
  5
324
 10
352.387667
 20
334.171083
 30
0.0
 11
352.387667
 21
332.171083
 31
0.0
  0
LINE
  8
1
  6
CONTINUOUS
 62
     2
  5
325
 10
393.387667
 20
373.171083
 30
0.0
 11
391.387667
 21
373.171083
 31
0.0
  0
LINE
  8
1
  6
CONTINUOUS
 62
     2
  5
326
 10
353.387667
 20
373.171083
 30
0.0
 11
351.387667
 21
373.171083
 31
0.0
  0
LINE
  8
1
  6
CONTINUOUS
 62
     2
  5
327
 10
392.387667
 20
332.171083
 30
0.0
 11
392.387667
 21
334.171083
 31
0.0
  0
LINE
  8
1
  6
CONTINUOUS
 62
     2
  5
328
 10
392.387667
 20
372.171083
 30
0.0
 11
392.387667
 21
374.171083
 31
0.0
  0
LINE
  8
1
  6
CONTINUOUS
 62
     2
  5
329
 10
351.387667
 20
333.171083
 30
0.0
 11
353.387667
 21
333.171083
 31
0.0
  0
LINE
  8
1
  6
CONTINUOUS
 62
     2
  5
32A
 10
391.387667
 20
333.171083
 30
0.0
 11
393.387667
 21
333.171083
 31
0.0
  0
LINE
  8
1
  6
CONTINUOUS
 62
     7
  5
32B
 10
352.387667
 20
375.171083
 30
0.0
 11
352.387667
 21
380.171083
 31
0.0
  0
LINE
  8
1
  6
CONTINUOUS
 62
     7
  5
32C
 10
354.387667
 20
373.171083
 30
0.0
 11
359.387667
 21
373.171083
 31
0.0
  0
LINE
  8
1
  6
CONTINUOUS
 62
     7
  5
32D
 10
352.387667
 20
371.171083
 30
0.0
 11
352.387667
 21
366.171083
 31
0.0
  0
LINE
  8
1
  6
CONTINUOUS
 62
     7
  5
32E
 10
350.387667
 20
373.171083
 30
0.0
 11
345.387667
 21
373.171083
 31
0.0
  0
LINE
  8
1
  6
CONTINUOUS
 62
     7
  5
32F
 10
392.387667
 20
375.171083
 30
0.0
 11
392.387667
 21
380.171083
 31
0.0
  0
LINE
  8
1
  6
CONTINUOUS
 62
     7
  5
330
 10
394.387667
 20
373.171083
 30
0.0
 11
399.387667
 21
373.171083
 31
0.0
  0
LINE
  8
1
  6
CONTINUOUS
 62
     7
  5
331
 10
392.387667
 20
371.171083
 30
0.0
 11
392.387667
 21
366.171083
 31
0.0
  0
LINE
  8
1
  6
CONTINUOUS
 62
     7
  5
332
 10
390.387667
 20
373.171083
 30
0.0
 11
385.387667
 21
373.171083
 31
0.0
  0
LINE
  8
1
  6
CONTINUOUS
 62
     7
  5
333
 10
352.387667
 20
335.171083
 30
0.0
 11
352.387667
 21
340.171083
 31
0.0
  0
LINE
  8
1
  6
CONTINUOUS
 62
     7
  5
334
 10
354.387667
 20
333.171083
 30
0.0
 11
359.387667
 21
333.171083
 31
0.0
  0
LINE
  8
1
  6
CONTINUOUS
 62
     7
  5
335
 10
352.387667
 20
331.171083
 30
0.0
 11
352.387667
 21
326.171083
 31
0.0
  0
LINE
  8
1
  6
CONTINUOUS
 62
     7
  5
336
 10
350.387667
 20
333.171083
 30
0.0
 11
345.387667
 21
333.171083
 31
0.0
  0
LINE
  8
1
  6
CONTINUOUS
 62
     7
  5
337
 10
392.387667
 20
335.171083
 30
0.0
 11
392.387667
 21
340.171083
 31
0.0
  0
LINE
  8
1
  6
CONTINUOUS
 62
     7
  5
338
 10
394.387667
 20
333.171083
 30
0.0
 11
399.387667
 21
333.171083
 31
0.0
  0
LINE
  8
1
  6
CONTINUOUS
 62
     7
  5
339
 10
392.387667
 20
331.171083
 30
0.0
 11
392.387667
 21
326.171083
 31
0.0
  0
LINE
  8
1
  6
CONTINUOUS
 62
     7
  5
33A
 10
390.387667
 20
333.171083
 30
0.0
 11
385.387667
 21
333.171083
 31
0.0
  0
CIRCLE
  8
1
  6
CONTINUOUS
 62
     2
  5
33B
 10
352.387667
 20
373.171083
 30
0.0
 40
2.25
210
0.0
220
0.0
230
1.0
  0
CIRCLE
  8
1
  6
CONTINUOUS
 62
     2
  5
33C
 10
392.387667
 20
373.171083
 30
0.0
 40
2.25
210
0.0
220
0.0
230
1.0
  0
CIRCLE
  8
1
  6
CONTINUOUS
 62
     2
  5
33D
 10
352.387667
 20
333.171083
 30
0.0
 40
2.25
210
0.0
220
0.0
230
1.0
  0
CIRCLE
  8
1
  6
CONTINUOUS
 62
     2
  5
33E
 10
392.387667
 20
333.171083
 30
0.0
 40
2.25
210
0.0
220
0.0
230
1.0
  0
ARC
  8
1
  6
CONTINUOUS
 62
     7
  5
33F
 10
372.387667
 20
353.171083
 30
0.0
 40
28.5
 50
118.694414
 51
151.305586
210
0.0
220
0.0
230
1.0
  0
ARC
  8
1
  6
CONTINUOUS
 62
     7
  5
340
 10
372.387667
 20
353.171083
 30
0.0
 40
28.5
 50
28.694414
 51
61.305586
210
0.0
220
0.0
230
1.0
  0
ARC
  8
1
  6
CONTINUOUS
 62
     7
  5
341
 10
372.387667
 20
353.171083
 30
0.0
 40
28.5
 50
208.694414
 51
241.305586
210
0.0
220
0.0
230
1.0
  0
ARC
  8
1
  6
CONTINUOUS
 62
     7
  5
342
 10
372.387667
 20
353.171083
 30
0.0
 40
28.5
 50
298.694414
 51
331.305586
210
0.0
220
0.0
230
1.0
  0
INSERT
  8
1
  6
CONTINUOUS
 62
     1
  5
343
  2
LDR
 10
348.887667
 20
337.046583
 30
0.0
 41
240.000001
 42
240.000001
 50
214.455925
210
0.0
220
0.0
230
1.0
  0
INSERT
  8
1
  6
CONTINUOUS
 62
     1
  5
344
  2
LDR
 10
395.887667
 20
369.295583
 30
0.0
 41
240.000001
 42
240.000001
 50
34.455925
210
0.0
220
0.0
230
1.0
  0
LINE
  8
1
  6
CONTINUOUS
 62
     2
  5
345
 10
364.887667
 20
360.671083
 30
0.0
 11
364.887667
 21
345.671083
 31
0.0
  0
LINE
  8
1
  6
CONTINUOUS
 62
     2
  5
346
 10
379.887667
 20
345.671083
 30
0.0
 11
379.887667
 21
360.671083
 31
0.0
  0
LINE
  8
1
  6
CONTINUOUS
 62
     2
  5
347
 10
379.887667
 20
360.671083
 30
0.0
 11
364.887667
 21
360.671083
 31
0.0
  0
LINE
  8
1
  6
CONTINUOUS
 62
     2
  5
348
 10
364.887667
 20
345.671083
 30
0.0
 11
379.887667
 21
345.671083
 31
0.0
  0
LINE
  8
1
  6
CONTINUOUS
 62
     7
  5
349
 10
348.887667
 20
337.046583
 30
0.0
 11
366.203333
 21
348.927667
 31
0.0
  0
LINE
  8
1
  6
CONTINUOUS
 62
     7
  5
34A
 10
367.8525
 20
350.059333
 30
0.0
 11
376.92275
 21
356.282833
 31
0.0
  0
LINE
  8
1
  6
CONTINUOUS
 62
     7
  5
34B
 10
378.57175
 20
357.41425
 30
0.0
 11
395.887667
 21
369.295583
 31
0.0
  0
LINE
  8
1
  6
CONTINUOUS
 62
     7
  5
34C
 10
364.887667
 20
344.671083
 30
0.0
 11
364.887667
 21
335.671083
 31
0.0
  0
LINE
  8
1
  6
CONTINUOUS
 62
     7
  5
34D
 10
379.887667
 20
344.671083
 30
0.0
 11
379.887667
 21
335.671083
 31
0.0
  0
LINE
  8
1
  6
CONTINUOUS
 62
     7
  5
34E
 10
364.887667
 20
336.671083
 30
0.0
 11
379.887667
 21
336.671083
 31
0.0
  0
INSERT
  8
1
  6
CONTINUOUS
 62
     1
  5
34F
  2
LDR
 10
364.887667
 20
336.671083
 30
0.0
 41
240.0
 42
240.0
 50
180.0
210
0.0
220
0.0
230
1.0
  0
INSERT
  8
1
  6
CONTINUOUS
 62
     1
  5
350
  2
LDR
 10
364.887667
 20
336.671083
 30
0.0
 41
240.0
 42
240.0
 50
180.0
210
0.0
220
0.0
230
1.0
  0
INSERT
  8
1
  6
CONTINUOUS
 62
     1
  5
351
  2
LDR
 10
379.887667
 20
336.671083
 30
0.0
 41
240.0
 42
240.0
210
0.0
220
0.0
230
1.0
  0
LINE
  8
1
  6
CONTINUOUS
 62
     7
  5
352
 10
403.387667
 20
383.171083
 30
0.0
 11
426.387667
 21
383.171083
 31
0.0
  0
LINE
  8
1
  6
CONTINUOUS
 62
     7
  5
353
 10
403.387667
 20
323.171083
 30
0.0
 11
426.387667
 21
323.171083
 31
0.0
  0
LINE
  8
1
  6
CONTINUOUS
 62
     7
  5
354
 10
403.387667
 20
333.171083
 30
0.0
 11
417.387667
 21
333.171083
 31
0.0
  0
LINE
  8
1
  6
CONTINUOUS
 62
     7
  5
355
 10
403.387667
 20
373.171083
 30
0.0
 11
417.387667
 21
373.171083
 31
0.0
  0
LINE
  8
1
  6
CONTINUOUS
 62
     7
  5
356
 10
425.387667
 20
383.171083
 30
0.0
 11
425.387667
 21
323.171083
 31
0.0
  0
LINE
  8
1
  6
CONTINUOUS
 62
     7
  5
357
 10
416.387667
 20
373.171083
 30
0.0
 11
416.387667
 21
333.171083
 31
0.0
  0
INSERT
  8
1
  6
CONTINUOUS
 62
     1
  5
358
  2
LDR
 10
425.387667
 20
383.171083
 30
0.0
 41
240.0
 42
240.0
 50
90.0
210
0.0
220
0.0
230
1.0
  0
INSERT
  8
1
  6
CONTINUOUS
 62
     1
  5
359
  2
LDR
 10
425.387667
 20
383.171083
 30
0.0
 41
240.0
 42
240.0
 50
90.0
210
0.0
220
0.0
230
1.0
  0
INSERT
  8
1
  6
CONTINUOUS
 62
     1
  5
35A
  2
LDR
 10
416.387667
 20
373.171083
 30
0.0
 41
240.0
 42
240.0
 50
90.0
210
0.0
220
0.0
230
1.0
  0
INSERT
  8
1
  6
CONTINUOUS
 62
     1
  5
35B
  2
LDR
 10
416.387667
 20
373.171083
 30
0.0
 41
240.0
 42
240.0
 50
90.0
210
0.0
220
0.0
230
1.0
  0
INSERT
  8
1
  6
CONTINUOUS
 62
     1
  5
35C
  2
LDR
 10
416.387667
 20
333.171083
 30
0.0
 41
240.0
 42
240.0
 50
270.0
210
0.0
220
0.0
230
1.0
  0
INSERT
  8
1
  6
CONTINUOUS
 62
     1
  5
35D
  2
LDR
 10
416.387667
 20
333.171083
 30
0.0
 41
240.0
 42
240.0
 50
270.0
210
0.0
220
0.0
230
1.0
  0
INSERT
  8
1
  6
CONTINUOUS
 62
     1
  5
35E
  2
LDR
 10
425.387667
 20
323.171083
 30
0.0
 41
240.0
 42
240.0
 50
270.0
210
0.0
220
0.0
230
1.0
  0
LINE
  8
1
  6
CONTINUOUS
 62
     7
  5
35F
 10
342.387667
 20
322.171083
 30
0.0
 11
342.387667
 21
299.171083
 31
0.0
  0
LINE
  8
1
  6
CONTINUOUS
 62
     7
  5
360
 10
402.387667
 20
322.171083
 30
0.0
 11
402.387667
 21
299.171083
 31
0.0
  0
LINE
  8
1
  6
CONTINUOUS
 62
     7
  5
361
 10
352.387667
 20
322.171083
 30
0.0
 11
352.387667
 21
308.171083
 31
0.0
  0
LINE
  8
1
  6
CONTINUOUS
 62
     7
  5
362
 10
392.387667
 20
322.171083
 30
0.0
 11
392.387667
 21
308.171083
 31
0.0
  0
LINE
  8
1
  6
CONTINUOUS
 62
     7
  5
363
 10
352.387667
 20
309.171083
 30
0.0
 11
392.387667
 21
309.171083
 31
0.0
  0
LINE
  8
1
  6
CONTINUOUS
 62
     7
  5
364
 10
342.387667
 20
300.171083
 30
0.0
 11
402.387667
 21
300.171083
 31
0.0
  0
INSERT
  8
1
  6
CONTINUOUS
 62
     1
  5
365
  2
LDR
 10
352.387667
 20
309.171083
 30
0.0
 41
240.0
 42
240.0
 50
180.0
210
0.0
220
0.0
230
1.0
  0
INSERT
  8
1
  6
CONTINUOUS
 62
     1
  5
366
  2
LDR
 10
352.387667
 20
309.171083
 30
0.0
 41
240.0
 42
240.0
 50
180.0
210
0.0
220
0.0
230
1.0
  0
INSERT
  8
1
  6
CONTINUOUS
 62
     1
  5
367
  2
LDR
 10
392.387667
 20
309.171083
 30
0.0
 41
240.0
 42
240.0
210
0.0
220
0.0
230
1.0
  0
INSERT
  8
1
  6
CONTINUOUS
 62
     1
  5
368
  2
LDR
 10
392.387667
 20
309.171083
 30
0.0
 41
240.0
 42
240.0
210
0.0
220
0.0
230
1.0
  0
INSERT
  8
1
  6
CONTINUOUS
 62
     1
  5
369
  2
LDR
 10
402.387667
 20
300.171083
 30
0.0
 41
240.0
 42
240.0
210
0.0
220
0.0
230
1.0
  0
INSERT
  8
1
  6
CONTINUOUS
 62
     1
  5
36A
  2
LDR
 10
402.387667
 20
300.171083
 30
0.0
 41
240.0
 42
240.0
210
0.0
220
0.0
230
1.0
  0
INSERT
  8
1
  6
CONTINUOUS
 62
     1
  5
36B
  2
LDR
 10
342.387667
 20
300.171083
 30
0.0
 41
240.0
 42
240.0
 50
180.0
210
0.0
220
0.0
230
1.0
  0
LINE
  8
1
  6
CONTINUOUS
 62
     7
  5
36C
 10
353.265
 20
375.243
 30
0.0
 11
363.529917
 21
394.0035
 31
0.0
  0
LINE
  8
1
  6
CONTINUOUS
 62
     7
  5
36D
 10
363.529917
 20
394.0035
 30
0.0
 11
356.103833
 21
394.0035
 31
0.0
  0
INSERT
  8
1
  6
CONTINUOUS
 62
     1
  5
36E
  2
LDR
 10
353.265
 20
375.243
 30
0.0
 41
239.999999
 42
239.999999
 50
241.314469
210
0.0
220
0.0
230
1.0
  0
TEXT
  8
1
  6
CONTINUOUS
 62
     7
  5
36F
 10
370.626417
 20
342.22
 30
0.0
 40
2.5
  1
3"
  7
MONOTXT
 72
     4
 11
372.38825
 21
343.47
 31
0.0
210
0.0
220
0.0
230
1.0
  0
TEXT
  8
1
  6
CONTINUOUS
 62
     7
  5
370
 10
365.360667
 20
337.72
 30
0.0
 40
2.5
  1
SQUARE
  7
MONOTXT
 72
     4
 11
372.398
 21
338.97
 31
0.0
210
0.0
220
0.0
230
1.0
  0
TEXT
  8
1
  6
CONTINUOUS
 62
     7
  5
371
 10
370.20325
 20
333.22
 30
0.0
 40
2.5
  1
OR
  7
MONOTXT
 72
     4
 11
372.398083
 21
334.47
 31
0.0
210
0.0
220
0.0
230
1.0
  0
TEXT
  8
1
  6
CONTINUOUS
 62
     7
  5
372
 10
366.48275
 20
328.72
 30
0.0
 40
2.5
  1
ROUND
  7
MONOTXT
 72
     4
 11
372.398083
 21
329.97
 31
0.0
210
0.0
220
0.0
230
1.0
  0
TEXT
  8
1
  6
CONTINUOUS
 62
     7
  5
373
 10
365.669417
 20
309.899417
 30
0.0
 40
2.5
  1
VARIES
  7
MONOTXT
 72
     4
 11
371.88
 21
311.149417
 31
0.0
210
0.0
220
0.0
230
1.0
  0
TEXT
  8
1
  6
CONTINUOUS
 62
     7
  5
374
 10
370.356667
 20
300.80475
 30
0.0
 40
2.5
  1
12"
  7
MONOTXT
 72
     4
 11
372.827167
 21
302.05475
 31
0.0
210
0.0
220
0.0
230
1.0
  0
TEXT
  8
1
  6
CONTINUOUS
 62
     7
  5
375
 10
415.707417
 20
346.113667
 30
0.0
 40
2.5
  1
VARIES
 50
90.0
  7
MONOTXT
 72
     4
 11
414.457417
 21
352.32425
 31
0.0
210
0.0
220
0.0
230
1.0
  0
TEXT
  8
1
  6
CONTINUOUS
 62
     7
  5
376
 10
424.679417
 20
351.279917
 30
0.0
 40
2.5
  1
12"
 50
90.0
  7
MONOTXT
 72
     4
 11
423.429417
 21
353.750417
 31
0.0
210
0.0
220
0.0
230
1.0
  0
TEXT
  8
1
  6
CONTINUOUS
 62
     7
  5
377
 10
347.843833
 20
344.213417
 30
0.0
 40
2.5
  1
9 1/2 " TO
 50
34.455828
  7
MONOTXT
 72
     1
 11
353.938725
 21
348.395405
 31
0.0
210
0.0
220
0.0
230
1.0
  0
TEXT
  8
1
  6
CONTINUOUS
 62
     7
  5
378
 10
348.807167
 20
339.416917
 30
0.0
 40
2.5
  1
12 1/2 " B.C.
 50
34.455828
  7
MONOTXT
 72
     1
 11
356.476561
 21
344.679244
 31
0.0
210
0.0
220
0.0
230
1.0
  0
TEXT
  8
1
  6
CONTINUOUS
 62
     7
  5
379
 10
342.4015
 20
281.236833
 30
0.0
 40
4.0
  1
TYPE "F" TOP VIEW
  7
MONOTXT
 72
     4
 11
373.692833
 21
283.236833
 31
0.0
210
0.0
220
0.0
230
1.0
  0
LINE
  8
1
  6
CONTINUOUS
 62
     7
  5
37A
 10
341.489167
 20
279.303833
 30
0.0
 11
405.563417
 21
279.303833
 31
0.0
  0
LINE
  8
1
  6
CONTINUOUS
 62
     6
  5
37B
 10
467.343583
 20
323.171083
 30
0.0
 11
467.343583
 21
383.171083
 31
0.0
  0
LINE
  8
1
  6
CONTINUOUS
 62
     6
  5
37C
 10
467.343583
 20
383.171083
 30
0.0
 11
534.843583
 21
383.171083
 31
0.0
  0
LINE
  8
1
  6
CONTINUOUS
 62
     6
  5
37D
 10
534.843583
 20
383.171083
 30
0.0
 11
534.843583
 21
323.171083
 31
0.0
  0
LINE
  8
1
  6
CONTINUOUS
 62
     6
  5
37E
 10
534.843583
 20
323.171083
 30
0.0
 11
467.343583
 21
323.171083
 31
0.0
  0
LINE
  8
1
  6
HIDDEN
 62
     6
  5
37F
 10
469.843583
 20
380.671083
 30
0.0
 11
531.843583
 21
380.671083
 31
0.0
  0
LINE
  8
1
  6
HIDDEN
 62
     6
  5
380
 10
469.843583
 20
323.171083
 30
0.0
 11
469.843583
 21
380.671083
 31
0.0
  0
LINE
  8
1
  6
HIDDEN
 62
     6
  5
381
 10
531.843583
 20
325.671083
 30
0.0
 11
467.343583
 21
325.671083
 31
0.0
  0
LINE
  8
1
  6
HIDDEN
 62
     6
  5
382
 10
531.843583
 20
383.171083
 30
0.0
 11
531.843583
 21
323.171083
 31
0.0
  0
LINE
  8
1
  6
HIDDEN
 62
     6
  5
383
 10
533.843583
 20
383.171083
 30
0.0
 11
533.843583
 21
323.171083
 31
0.0
  0
LINE
  8
1
  6
CONTINUOUS
 62
     7
  5
384
 10
504.843583
 20
351.171083
 30
0.0
 11
504.843583
 21
355.171083
 31
0.0
  0
LINE
  8
1
  6
HIDDEN
 62
     6
  5
385
 10
522.843583
 20
323.171083
 30
0.0
 11
522.843583
 21
383.171083
 31
0.0
  0
LINE
  8
1
  6
HIDDEN
 62
     6
  5
386
 10
525.843583
 20
323.171083
 30
0.0
 11
525.843583
 21
383.171083
 31
0.0
  0
LINE
  8
1
  6
CONTINUOUS
 62
     7
  5
387
 10
502.843583
 20
353.171083
 30
0.0
 11
506.843583
 21
353.171083
 31
0.0
  0
CIRCLE
  8
1
  6
CONTINUOUS
 62
     6
  5
388
 10
484.843583
 20
372.171083
 30
0.0
 40
3.25
210
0.0
220
0.0
230
1.0
  0
CIRCLE
  8
1
  6
CONTINUOUS
 62
     6
  5
389
 10
524.843583
 20
372.171083
 30
0.0
 40
3.25
210
0.0
220
0.0
230
1.0
  0
CIRCLE
  8
1
  6
CONTINUOUS
 62
     6
  5
38A
 10
484.843583
 20
334.171083
 30
0.0
 40
3.25
210
0.0
220
0.0
230
1.0
  0
CIRCLE
  8
1
  6
CONTINUOUS
 62
     6
  5
38B
 10
524.843583
 20
334.171083
 30
0.0
 40
3.25
210
0.0
220
0.0
230
1.0
  0
CIRCLE
  8
1
  6
CONTINUOUS
 62
     6
  5
38C
 10
504.843583
 20
353.171083
 30
0.0
 40
7.5
210
0.0
220
0.0
230
1.0
  0
LINE
  8
1
  6
CONTINUOUS
 62
     7
  5
38D
 10
483.843583
 20
372.171083
 30
0.0
 11
485.843583
 21
372.171083
 31
0.0
  0
LINE
  8
1
  6
CONTINUOUS
 62
     7
  5
38E
 10
523.843583
 20
372.171083
 30
0.0
 11
525.843583
 21
372.171083
 31
0.0
  0
LINE
  8
1
  6
CONTINUOUS
 62
     7
  5
38F
 10
483.843583
 20
334.171083
 30
0.0
 11
485.843583
 21
334.171083
 31
0.0
  0
LINE
  8
1
  6
CONTINUOUS
 62
     7
  5
390
 10
523.843583
 20
334.171083
 30
0.0
 11
525.843583
 21
334.171083
 31
0.0
  0
LINE
  8
1
  6
CONTINUOUS
 62
     7
  5
391
 10
524.843583
 20
333.171083
 30
0.0
 11
524.843583
 21
335.171083
 31
0.0
  0
LINE
  8
1
  6
CONTINUOUS
 62
     7
  5
392
 10
524.843583
 20
371.171083
 30
0.0
 11
524.843583
 21
373.171083
 31
0.0
  0
LINE
  8
1
  6
CONTINUOUS
 62
     7
  5
393
 10
484.843583
 20
333.171083
 30
0.0
 11
484.843583
 21
335.171083
 31
0.0
  0
LINE
  8
1
  6
CONTINUOUS
 62
     7
  5
394
 10
484.843583
 20
371.171083
 30
0.0
 11
484.843583
 21
373.171083
 31
0.0
  0
LINE
  8
1
  6
CONTINUOUS
 62
     7
  5
395
 10
496.92125
 20
345.24875
 30
0.0
 11
510.146917
 21
358.474417
 31
0.0
  0
INSERT
  8
1
  6
CONTINUOUS
 62
     1
  5
396
  2
LDR
 10
510.146917
 20
358.474417
 30
0.0
 41
239.999999
 42
239.999999
 50
45.0
210
0.0
220
0.0
230
1.0
  0
INSERT
  8
1
  6
CONTINUOUS
 62
     1
  5
397
  2
LDR
 10
510.146917
 20
358.474417
 30
0.0
 41
239.999999
 42
239.999999
 50
45.0
210
0.0
220
0.0
230
1.0
  0
INSERT
  8
1
  6
CONTINUOUS
 62
     1
  5
398
  2
LDR
 10
499.54025
 20
347.86775
 30
0.0
 41
239.999999
 42
239.999999
 50
225.0
210
0.0
220
0.0
230
1.0
  0
LINE
  8
1
  6
CONTINUOUS
 62
     7
  5
399
 10
504.843583
 20
359.171083
 30
0.0
 11
504.843583
 21
371.171083
 31
0.0
  0
LINE
  8
1
  6
CONTINUOUS
 62
     7
  5
39A
 10
504.843583
 20
347.171083
 30
0.0
 11
504.843583
 21
335.171083
 31
0.0
  0
LINE
  8
1
  6
CONTINUOUS
 62
     7
  5
39B
 10
498.843583
 20
353.171083
 30
0.0
 11
486.843583
 21
353.171083
 31
0.0
  0
LINE
  8
1
  6
CONTINUOUS
 62
     7
  5
39C
 10
504.843583
 20
372.171083
 30
0.0
 11
504.843583
 21
373.171083
 31
0.0
  0
LINE
  8
1
  6
CONTINUOUS
 62
     7
  5
39D
 10
504.843583
 20
374.171083
 30
0.0
 11
504.843583
 21
397.171083
 31
0.0
  0
LINE
  8
1
  6
CONTINUOUS
 62
     7
  5
39E
 10
487.593583
 20
372.171083
 30
0.0
 11
503.593583
 21
372.171083
 31
0.0
  0
LINE
  8
1
  6
CONTINUOUS
 62
     7
  5
39F
 10
522.093583
 20
372.171083
 30
0.0
 11
508.093583
 21
372.171083
 31
0.0
  0
LINE
  8
1
  6
CONTINUOUS
 62
     7
  5
3A0
 10
507.093583
 20
372.171083
 30
0.0
 11
506.093583
 21
372.171083
 31
0.0
  0
LINE
  8
1
  6
CONTINUOUS
 62
     7
  5
3A1
 10
527.593583
 20
372.171083
 30
0.0
 11
558.593583
 21
372.171083
 31
0.0
  0
LINE
  8
1
  6
CONTINUOUS
 62
     7
  5
3A2
 10
527.593583
 20
334.171083
 30
0.0
 11
558.593583
 21
334.171083
 31
0.0
  0
LINE
  8
1
  6
CONTINUOUS
 62
     7
  5
3A3
 10
535.843583
 20
383.171083
 30
0.0
 11
570.843583
 21
383.171083
 31
0.0
  0
LINE
  8
1
  6
CONTINUOUS
 62
     7
  5
3A4
 10
569.843583
 20
383.171083
 30
0.0
 11
569.843583
 21
323.171083
 31
0.0
  0
LINE
  8
1
  6
CONTINUOUS
 62
     7
  5
3A5
 10
557.593583
 20
372.171083
 30
0.0
 11
557.593583
 21
334.171083
 31
0.0
  0
LINE
  8
1
  6
CONTINUOUS
 62
     7
  5
3A6
 10
535.843583
 20
323.171083
 30
0.0
 11
570.843583
 21
323.171083
 31
0.0
  0
LINE
  8
1
  6
CONTINUOUS
 62
     7
  5
3A7
 10
563.718583
 20
323.171083
 30
0.0
 11
563.718583
 21
353.171083
 31
0.0
  0
LINE
  8
1
  6
CONTINUOUS
 62
     7
  5
3A8
 10
510.843583
 20
353.171083
 30
0.0
 11
551.4785
 21
353.171083
 31
0.0
  0
LINE
  8
1
  6
CONTINUOUS
 62
     7
  5
3A9
 10
558.593583
 20
353.171083
 30
0.0
 11
564.718583
 21
353.171083
 31
0.0
  0
INSERT
  8
1
  6
CONTINUOUS
 62
     1
  5
3AA
  2
LDR
 10
569.843583
 20
383.171083
 30
0.0
 41
240.0
 42
240.0
 50
90.0
210
0.0
220
0.0
230
1.0
  0
INSERT
  8
1
  6
CONTINUOUS
 62
     1
  5
3AB
  2
LDR
 10
569.843583
 20
383.171083
 30
0.0
 41
240.0
 42
240.0
 50
90.0
210
0.0
220
0.0
230
1.0
  0
INSERT
  8
1
  6
CONTINUOUS
 62
     1
  5
3AC
  2
LDR
 10
557.593583
 20
372.171083
 30
0.0
 41
240.0
 42
240.0
 50
90.0
210
0.0
220
0.0
230
1.0
  0
INSERT
  8
1
  6
CONTINUOUS
 62
     1
  5
3AD
  2
LDR
 10
557.593583
 20
372.171083
 30
0.0
 41
240.0
 42
240.0
 50
90.0
210
0.0
220
0.0
230
1.0
  0
INSERT
  8
1
  6
CONTINUOUS
 62
     1
  5
3AE
  2
LDR
 10
557.593583
 20
334.171083
 30
0.0
 41
240.0
 42
240.0
 50
270.0
210
0.0
220
0.0
230
1.0
  0
INSERT
  8
1
  6
CONTINUOUS
 62
     1
  5
3AF
  2
LDR
 10
557.593583
 20
334.171083
 30
0.0
 41
240.0
 42
240.0
 50
270.0
210
0.0
220
0.0
230
1.0
  0
INSERT
  8
1
  6
CONTINUOUS
 62
     1
  5
3B0
  2
LDR
 10
563.718583
 20
353.171083
 30
0.0
 41
240.0
 42
240.0
 50
90.0
210
0.0
220
0.0
230
1.0
  0
INSERT
  8
1
  6
CONTINUOUS
 62
     1
  5
3B1
  2
LDR
 10
563.718583
 20
353.171083
 30
0.0
 41
240.0
 42
240.0
 50
90.0
210
0.0
220
0.0
230
1.0
  0
INSERT
  8
1
  6
CONTINUOUS
 62
     1
  5
3B2
  2
LDR
 10
563.718583
 20
323.171083
 30
0.0
 41
240.0
 42
240.0
 50
270.0
210
0.0
220
0.0
230
1.0
  0
INSERT
  8
1
  6
CONTINUOUS
 62
     1
  5
3B3
  2
LDR
 10
563.718583
 20
323.171083
 30
0.0
 41
240.0
 42
240.0
 50
270.0
210
0.0
220
0.0
230
1.0
  0
INSERT
  8
1
  6
CONTINUOUS
 62
     1
  5
3B4
  2
LDR
 10
569.843583
 20
323.171083
 30
0.0
 41
240.0
 42
240.0
 50
270.0
210
0.0
220
0.0
230
1.0
  0
LINE
  8
1
  6
CONTINUOUS
 62
     7
  5
3B5
 10
466.343583
 20
383.171083
 30
0.0
 11
456.343583
 21
383.171083
 31
0.0
  0
LINE
  8
1
  6
CONTINUOUS
 62
     7
  5
3B6
 10
466.343583
 20
380.671083
 30
0.0
 11
456.343583
 21
380.671083
 31
0.0
  0
LINE
  8
1
  6
CONTINUOUS
 62
     7
  5
3B7
 10
466.343583
 20
323.171083
 30
0.0
 11
456.343583
 21
323.171083
 31
0.0
  0
LINE
  8
1
  6
CONTINUOUS
 62
     7
  5
3B8
 10
466.343583
 20
325.671083
 30
0.0
 11
456.343583
 21
325.671083
 31
0.0
  0
LINE
  8
1
  6
CONTINUOUS
 62
     7
  5
3B9
 10
457.343583
 20
383.171083
 30
0.0
 11
457.343583
 21
388.171083
 31
0.0
  0
LINE
  8
1
  6
CONTINUOUS
 62
     7
  5
3BA
 10
457.343583
 20
380.671083
 30
0.0
 11
457.343583
 21
375.671083
 31
0.0
  0
LINE
  8
1
  6
CONTINUOUS
 62
     7
  5
3BB
 10
457.343583
 20
325.671083
 30
0.0
 11
457.343583
 21
330.671083
 31
0.0
  0
LINE
  8
1
  6
CONTINUOUS
 62
     7
  5
3BC
 10
457.343583
 20
323.171083
 30
0.0
 11
457.343583
 21
318.171083
 31
0.0
  0
INSERT
  8
1
  6
CONTINUOUS
 62
     1
  5
3BD
  2
LDR
 10
457.343583
 20
383.171083
 30
0.0
 41
240.0
 42
240.0
 50
270.0
210
0.0
220
0.0
230
1.0
  0
INSERT
  8
1
  6
CONTINUOUS
 62
     1
  5
3BE
  2
LDR
 10
457.343583
 20
383.171083
 30
0.0
 41
240.0
 42
240.0
 50
270.0
210
0.0
220
0.0
230
1.0
  0
INSERT
  8
1
  6
CONTINUOUS
 62
     1
  5
3BF
  2
LDR
 10
457.343583
 20
380.671083
 30
0.0
 41
240.0
 42
240.0
 50
90.0
210
0.0
220
0.0
230
1.0
  0
INSERT
  8
1
  6
CONTINUOUS
 62
     1
  5
3C0
  2
LDR
 10
457.343583
 20
380.671083
 30
0.0
 41
240.0
 42
240.0
 50
90.0
210
0.0
220
0.0
230
1.0
  0
INSERT
  8
1
  6
CONTINUOUS
 62
     1
  5
3C1
  2
LDR
 10
457.343583
 20
325.671083
 30
0.0
 41
240.0
 42
240.0
 50
270.0
210
0.0
220
0.0
230
1.0
  0
INSERT
  8
1
  6
CONTINUOUS
 62
     1
  5
3C2
  2
LDR
 10
457.343583
 20
325.671083
 30
0.0
 41
240.0
 42
240.0
 50
270.0
210
0.0
220
0.0
230
1.0
  0
INSERT
  8
1
  6
CONTINUOUS
 62
     1
  5
3C3
  2
LDR
 10
457.343583
 20
323.171083
 30
0.0
 41
240.0
 42
240.0
 50
90.0
210
0.0
220
0.0
230
1.0
  0
LINE
  8
1
  6
CONTINUOUS
 62
     7
  5
3C4
 10
482.093583
 20
372.171083
 30
0.0
 11
463.093583
 21
372.171083
 31
0.0
  0
LINE
  8
1
  6
CONTINUOUS
 62
     7
  5
3C5
 10
467.343583
 20
384.171083
 30
0.0
 11
467.343583
 21
405.171083
 31
0.0
  0
LINE
  8
1
  6
CONTINUOUS
 62
     7
  5
3C6
 10
534.843583
 20
384.171083
 30
0.0
 11
534.843583
 21
405.171083
 31
0.0
  0
LINE
  8
1
  6
CONTINUOUS
 62
     7
  5
3C7
 10
467.343583
 20
404.171083
 30
0.0
 11
534.843583
 21
404.171083
 31
0.0
  0
INSERT
  8
1
  6
CONTINUOUS
 62
     1
  5
3C8
  2
LDR
 10
467.343583
 20
404.171083
 30
0.0
 41
240.0
 42
240.0
 50
180.0
210
0.0
220
0.0
230
1.0
  0
INSERT
  8
1
  6
CONTINUOUS
 62
     1
  5
3C9
  2
LDR
 10
534.843583
 20
404.171083
 30
0.0
 41
240.0
 42
240.0
210
0.0
220
0.0
230
1.0
  0
LINE
  8
1
  6
CONTINUOUS
 62
     7
  5
3CA
 10
504.843583
 20
396.171083
 30
0.0
 11
467.343583
 21
396.171083
 31
0.0
  0
INSERT
  8
1
  6
CONTINUOUS
 62
     1
  5
3CB
  2
LDR
 10
467.343583
 20
396.171083
 30
0.0
 41
240.0
 42
240.0
 50
180.0
210
0.0
220
0.0
230
1.0
  0
INSERT
  8
1
  6
CONTINUOUS
 62
     1
  5
3CC
  2
LDR
 10
467.343583
 20
396.171083
 30
0.0
 41
240.0
 42
240.0
 50
180.0
210
0.0
220
0.0
230
1.0
  0
INSERT
  8
1
  6
CONTINUOUS
 62
     1
  5
3CD
  2
LDR
 10
504.843583
 20
396.171083
 30
0.0
 41
240.0
 42
240.0
210
0.0
220
0.0
230
1.0
  0
LINE
  8
1
  6
CONTINUOUS
 62
     7
  5
3CE
 10
484.843583
 20
331.421083
 30
0.0
 11
484.843583
 21
310.421083
 31
0.0
  0
LINE
  8
1
  6
CONTINUOUS
 62
     7
  5
3CF
 10
524.843583
 20
331.421083
 30
0.0
 11
524.843583
 21
310.421083
 31
0.0
  0
LINE
  8
1
  6
CONTINUOUS
 62
     7
  5
3D0
 10
484.843583
 20
311.421083
 30
0.0
 11
524.843583
 21
311.421083
 31
0.0
  0
INSERT
  8
1
  6
CONTINUOUS
 62
     1
  5
3D1
  2
LDR
 10
484.843583
 20
311.421083
 30
0.0
 41
240.0
 42
240.0
 50
180.0
210
0.0
220
0.0
230
1.0
  0
INSERT
  8
1
  6
CONTINUOUS
 62
     1
  5
3D2
  2
LDR
 10
484.843583
 20
311.421083
 30
0.0
 41
240.0
 42
240.0
 50
180.0
210
0.0
220
0.0
230
1.0
  0
INSERT
  8
1
  6
CONTINUOUS
 62
     1
  5
3D3
  2
LDR
 10
524.843583
 20
311.421083
 30
0.0
 41
240.0
 42
240.0
210
0.0
220
0.0
230
1.0
  0
LINE
  8
1
  6
CONTINUOUS
 62
     7
  5
3D4
 10
484.843583
 20
374.921083
 30
0.0
 11
484.843583
 21
381.921083
 31
0.0
  0
LINE
  8
1
  6
CONTINUOUS
 62
     7
  5
3D5
 10
524.843583
 20
374.921083
 30
0.0
 11
524.843583
 21
381.921083
 31
0.0
  0
LINE
  8
1
  6
CONTINUOUS
 62
     7
  5
3D6
 10
484.843583
 20
369.421083
 30
0.0
 11
484.843583
 21
355.171083
 31
0.0
  0
LINE
  8
1
  6
CONTINUOUS
 62
     7
  5
3D7
 10
484.843583
 20
354.171083
 30
0.0
 11
484.843583
 21
352.171083
 31
0.0
  0
LINE
  8
1
  6
CONTINUOUS
 62
     7
  5
3D8
 10
484.843583
 20
351.171083
 30
0.0
 11
484.843583
 21
336.921083
 31
0.0
  0
LINE
  8
1
  6
CONTINUOUS
 62
     7
  5
3D9
 10
524.843583
 20
369.421083
 30
0.0
 11
524.843583
 21
359.157333
 31
0.0
  0
LINE
  8
1
  6
CONTINUOUS
 62
     7
  5
3DA
 10
524.843583
 20
358.157333
 30
0.0
 11
524.843583
 21
356.157333
 31
0.0
  0
LINE
  8
1
  6
CONTINUOUS
 62
     7
  5
3DB
 10
524.843583
 20
355.157333
 30
0.0
 11
524.843583
 21
336.921083
 31
0.0
  0
LINE
  8
1
  6
CONTINUOUS
 62
     7
  5
3DC
 10
482.093583
 20
334.171083
 30
0.0
 11
477.093583
 21
334.171083
 31
0.0
  0
LINE
  8
1
  6
CONTINUOUS
 62
     7
  5
3DD
 10
504.343583
 20
334.171083
 30
0.0
 11
505.343583
 21
334.171083
 31
0.0
  0
LINE
  8
1
  6
CONTINUOUS
 62
     7
  5
3DE
 10
506.343583
 20
334.171083
 30
0.0
 11
522.093583
 21
334.171083
 31
0.0
  0
LINE
  8
1
  6
CONTINUOUS
 62
     7
  5
3DF
 10
487.593583
 20
334.171083
 30
0.0
 11
503.343583
 21
334.171083
 31
0.0
  0
TEXT
  8
1
  6
CONTINUOUS
 62
     7
  5
3E0
 10
497.060667
 20
406.143417
 30
0.0
 40
2.5
  1
13 1/2 "
  7
MONOTXT
 72
     4
 11
501.578333
 21
407.393417
 31
0.0
210
0.0
220
0.0
230
1.0
  0
TEXT
  8
1
  6
CONTINUOUS
 62
     7
  5
3E1
 10
482.32275
 20
397.59325
 30
0.0
 40
2.5
  1
7 1/2 "
  7
MONOTXT
 72
     4
 11
486.151417
 21
398.84325
 31
0.0
210
0.0
220
0.0
230
1.0
  0
TEXT
  8
1
  6
CONTINUOUS
 62
     7
  5
3E2
 10
500.668333
 20
312.926167
 30
0.0
 40
2.5
  1
7 3/4 "
  7
MONOTXT
 72
     4
 11
504.497
 21
314.176167
 31
0.0
210
0.0
220
0.0
230
1.0
  0
TEXT
  8
1
  6
CONTINUOUS
 62
     7
  5
3E3
 10
447.566917
 20
361.869667
 30
0.0
 40
2.5
  1
/
  7
MONOTXT
 72
     4
 11
448.26575
 21
363.119667
 31
0.0
210
0.0
220
0.0
230
1.0
  0
TEXT
  8
1
  6
CONTINUOUS
 62
     7
  5
3E4
 10
459.434417
 20
388.866
 30
0.0
 40
2.5
  1
 1/2 "
 50
90.0
  7
MONOTXT
 72
     4
 11
458.184417
 21
391.434833
 31
0.0
210
0.0
220
0.0
230
1.0
  0
TEXT
  8
1
  6
CONTINUOUS
 62
     7
  5
3E5
 10
458.372583
 20
312.082
 30
0.0
 40
2.5
  1
 1/2 "
 50
90.0
  7
MONOTXT
 72
     4
 11
457.122583
 21
314.650833
 31
0.0
210
0.0
220
0.0
230
1.0
  0
TEXT
  8
1
  6
CONTINUOUS
 62
     7
  5
3E6
 10
556.217583
 20
349.365917
 30
0.0
 40
2.5
  1
7 3/4 "
 50
90.0
  7
MONOTXT
 72
     4
 11
554.967583
 21
353.194583
 31
0.0
210
0.0
220
0.0
230
1.0
  0
TEXT
  8
1
  6
CONTINUOUS
 62
     7
  5
3E7
 10
563.195667
 20
337.379417
 30
0.0
 40
2.5
  1
6"
 50
90.0
  7
MONOTXT
 72
     4
 11
561.945667
 21
339.082167
 31
0.0
210
0.0
220
0.0
230
1.0
  0
TEXT
  8
1
  6
CONTINUOUS
 62
     7
  5
3E8
 10
568.8085
 20
353.000417
 30
0.0
 40
2.5
  1
12"
 50
90.0
  7
MONOTXT
 72
     4
 11
567.5585
 21
355.470917
 31
0.0
210
0.0
220
0.0
230
1.0
  0
TEXT
  8
1
  6
CONTINUOUS
 62
     7
  5
3E9
 10
492.721417
 20
339.206
 30
0.0
 40
2.5
  1
3"0
 50
45.0
  7
MONOTXT
 72
     1
 11
494.878917
 21
341.363501
 31
0.0
210
0.0
220
0.0
230
1.0
  0
TEXT
  8
1
  6
CONTINUOUS
 62
     7
  5
3EA
 10
495.914
 20
342.443917
 30
0.0
 40
2.5
  1
/
 50
45.0
  7
MONOTXT
 72
     1
 11
496.40815
 21
342.938066
 31
0.0
210
0.0
220
0.0
230
1.0
  0
LINE
  8
1
  6
CONTINUOUS
 62
     7
  5
3EB
 10
463.648417
 20
294.3715
 30
0.0
 11
542.661833
 21
294.3715
 31
0.0
  0
TEXT
  8
1
  6
CONTINUOUS
 62
     7
  5
3EC
 10
465.368667
 20
296.3045
 30
0.0
 40
4.0
  1
TYPE "F" BOTTOM VIEW
  7
MONOTXT
 72
     4
 11
503.179667
 21
298.3045
 31
0.0
210
0.0
220
0.0
230
1.0
  0
LINE
  8
1
  6
CONTINUOUS
 62
    30
  5
3ED
 10
60.223
 20
152.40075
 30
0.0
 11
79.223
 21
152.40075
 31
0.0
  0
LINE
  8
1
  6
CONTINUOUS
 62
    30
  5
3EE
 10
79.223
 20
152.40075
 30
0.0
 11
79.223
 21
191.40075
 31
0.0
  0
LINE
  8
1
  6
CONTINUOUS
 62
    30
  5
3EF
 10
79.223
 20
191.40075
 30
0.0
 11
95.223
 21
191.40075
 31
0.0
  0
LINE
  8
1
  6
CONTINUOUS
 62
    30
  5
3F0
 10
79.223
 20
190.40075
 30
0.0
 11
95.448833
 21
190.40075
 31
0.0
  0
LINE
  8
1
  6
CONTINUOUS
 62
    30
  5
3F1
 10
79.223
 20
177.40075
 30
0.0
 11
98.38425
 21
177.40075
 31
0.0
  0
LINE
  8
1
  6
CONTINUOUS
 62
    30
  5
3F2
 10
79.223
 20
175.90075
 30
0.0
 11
98.723
 21
175.90075
 31
0.0
  0
LINE
  8
1
  6
CONTINUOUS
 62
    30
  5
3F3
 10
95.223
 20
191.40075
 30
0.0
 11
99.273583
 21
173.462167
 31
0.0
  0
LINE
  8
1
  6
CONTINUOUS
 62
    30
  5
3F4
 10
110.223
 20
152.40075
 30
0.0
 11
110.223
 21
156.90075
 31
0.0
  0
LINE
  8
1
  6
CONTINUOUS
 62
    30
  5
3F5
 10
99.273583
 20
173.462167
 30
0.0
 11
110.223
 21
156.90075
 31
0.0
  0
LINE
  8
1
  6
CONTINUOUS
 62
    30
  5
3F6
 10
110.223
 20
152.40075
 30
0.0
 11
158.19375
 21
154.075917
 31
0.0
  0
LINE
  8
1
  6
CONTINUOUS
 62
    30
  5
3F7
 10
110.223
 20
153.901667
 30
0.0
 11
158.19375
 21
155.576833
 31
0.0
  0
LINE
  8
1
  6
CONTINUOUS
 62
    30
  5
3F8
 10
60.223
 20
142.90075
 30
0.0
 11
109.223
 21
142.90075
 31
0.0
  0
LINE
  8
1
  6
CONTINUOUS
 62
    30
  5
3F9
 10
134.539833
 20
143.744083
 30
0.0
 11
158.19375
 21
144.570083
 31
0.0
  0
LINE
  8
1
  6
CONTINUOUS
 62
    30
  5
3FA
 10
114.223
 20
137.90075
 30
0.0
 11
114.223
 21
120.90075
 31
0.0
  0
LINE
  8
1
  6
CONTINUOUS
 62
    30
  5
3FB
 10
129.71725
 20
138.572583
 30
0.0
 11
129.71725
 21
120.90075
 31
0.0
  0
LINE
  8
1
  6
CONTINUOUS
 62
    30
  5
3FC
 10
109.223
 20
142.90075
 30
0.0
 11
114.223
 21
137.90075
 31
0.0
  0
LINE
  8
1
  6
CONTINUOUS
 62
    30
  5
3FD
 10
134.539833
 20
143.744083
 30
0.0
 11
129.71725
 21
138.572583
 31
0.0
  0
POLYLINE
  8
1
  6
CONTINUOUS
 62
    30
  5
3FE
 66
     1
 10
0.0
 20
0.0
 30
0.0
  0
VERTEX
  8
1
  6
CONTINUOUS
 62
    30
  5
3FF
 10
79.223
 20
152.40075
 30
0.0
  0
VERTEX
  8
1
  6
CONTINUOUS
 62
    30
  5
400
 10
80.349417
 20
152.343417
 30
0.0
  0
VERTEX
  8
1
  6
CONTINUOUS
 62
    30
  5
401
 10
81.070083
 20
152.212333
 30
0.0
  0
VERTEX
  8
1
  6
CONTINUOUS
 62
    30
  5
402
 10
81.65975
 20
152.14675
 30
0.0
  0
VERTEX
  8
1
  6
CONTINUOUS
 62
    30
  5
403
 10
82.282167
 20
152.179583
 30
0.0
  0
VERTEX
  8
1
  6
CONTINUOUS
 62
    30
  5
404
 10
82.511417
 20
152.212333
 30
0.0
  0
VERTEX
  8
1
  6
CONTINUOUS
 62
    30
  5
405
 10
83.068333
 20
152.376167
 30
0.0
  0
VERTEX
  8
1
  6
CONTINUOUS
 62
    30
  5
406
 10
83.82175
 20
152.408917
 30
0.0
  0
VERTEX
  8
1
  6
CONTINUOUS
 62
    30
  5
407
 10
84.444167
 20
152.310667
 30
0.0
  0
VERTEX
  8
1
  6
CONTINUOUS
 62
    30
  5
408
 10
85.197583
 20
152.212333
 30
0.0
  0
VERTEX
  8
1
  6
CONTINUOUS
 62
    30
  5
409
 10
85.951083
 20
152.245083
 30
0.0
  0
VERTEX
  8
1
  6
CONTINUOUS
 62
    30
  5
40A
 10
86.639
 20
152.245083
 30
0.0
  0
VERTEX
  8
1
  6
CONTINUOUS
 62
    30
  5
40B
 10
87.294167
 20
152.310667
 30
0.0
  0
VERTEX
  8
1
  6
CONTINUOUS
 62
    30
  5
40C
 10
87.851
 20
152.310667
 30
0.0
  0
VERTEX
  8
1
  6
CONTINUOUS
 62
    30
  5
40D
 10
88.604417
 20
152.343417
 30
0.0
  0
VERTEX
  8
1
  6
CONTINUOUS
 62
    30
  5
40E
 10
89.65275
 20
152.212333
 30
0.0
  0
VERTEX
  8
1
  6
CONTINUOUS
 62
    30
  5
40F
 10
90.66825
 20
152.179583
 30
0.0
  0
VERTEX
  8
1
  6
CONTINUOUS
 62
    30
  5
410
 10
91.454417
 20
152.179583
 30
0.0
  0
VERTEX
  8
1
  6
CONTINUOUS
 62
    30
  5
411
 10
92.175083
 20
152.212333
 30
0.0
  0
VERTEX
  8
1
  6
CONTINUOUS
 62
    30
  5
412
 10
93.256083
 20
152.245083
 30
0.0
  0
VERTEX
  8
1
  6
CONTINUOUS
 62
    30
  5
413
 10
93.91125
 20
152.277833
 30
0.0
  0
VERTEX
  8
1
  6
CONTINUOUS
 62
    30
  5
414
 10
94.79575
 20
152.343417
 30
0.0
  0
VERTEX
  8
1
  6
CONTINUOUS
 62
    30
  5
415
 10
95.9095
 20
152.179583
 30
0.0
  0
VERTEX
  8
1
  6
CONTINUOUS
 62
    30
  5
416
 10
97.187083
 20
152.0485
 30
0.0
  0
VERTEX
  8
1
  6
CONTINUOUS
 62
    30
  5
417
 10
98.202583
 20
152.0485
 30
0.0
  0
VERTEX
  8
1
  6
CONTINUOUS
 62
    30
  5
418
 10
99.8405
 20
152.277833
 30
0.0
  0
VERTEX
  8
1
  6
CONTINUOUS
 62
    30
  5
419
 10
100.331833
 20
152.212333
 30
0.0
  0
VERTEX
  8
1
  6
CONTINUOUS
 62
    30
  5
41A
 10
101.150833
 20
152.14675
 30
0.0
  0
VERTEX
  8
1
  6
CONTINUOUS
 62
    30
  5
41B
 10
102.264583
 20
152.343417
 30
0.0
  0
VERTEX
  8
1
  6
CONTINUOUS
 62
    30
  5
41C
 10
102.9525
 20
152.245083
 30
0.0
  0
VERTEX
  8
1
  6
CONTINUOUS
 62
    30
  5
41D
 10
103.837
 20
152.212333
 30
0.0
  0
VERTEX
  8
1
  6
CONTINUOUS
 62
    30
  5
41E
 10
104.918
 20
152.277833
 30
0.0
  0
VERTEX
  8
1
  6
CONTINUOUS
 62
    30
  5
41F
 10
105.96625
 20
152.376167
 30
0.0
  0
VERTEX
  8
1
  6
CONTINUOUS
 62
    30
  5
420
 10
106.949
 20
152.4745
 30
0.0
  0
VERTEX
  8
1
  6
CONTINUOUS
 62
    30
  5
421
 10
107.866167
 20
152.44175
 30
0.0
  0
VERTEX
  8
1
  6
CONTINUOUS
 62
    30
  5
422
 10
108.488583
 20
152.376167
 30
0.0
  0
VERTEX
  8
1
  6
CONTINUOUS
 62
    30
  5
423
 10
109.405833
 20
152.212333
 30
0.0
  0
VERTEX
  8
1
  6
CONTINUOUS
 62
    30
  5
424
 10
110.223
 20
152.40075
 30
0.0
  0
SEQEND
  8
1
  6
CONTINUOUS
 62
    30
  5
425
  0
LINE
  8
1
  6
CONTINUOUS
 62
    30
  5
426
 10
79.723
 20
193.15075
 30
0.0
 11
94.723
 21
193.15075
 31
0.0
  0
LINE
  8
1
  6
CONTINUOUS
 62
    30
  5
427
 10
79.723
 20
193.15075
 30
0.0
 11
79.723
 21
191.40075
 31
0.0
  0
LINE
  8
1
  6
CONTINUOUS
 62
    30
  5
428
 10
94.723
 20
193.15075
 30
0.0
 11
94.723
 21
191.40075
 31
0.0
  0
LINE
  8
1
  6
CONTINUOUS
 62
    30
  5
429
 10
81.223
 20
193.90075
 30
0.0
 11
81.223
 21
189.15075
 31
0.0
  0
LINE
  8
1
  6
CONTINUOUS
 62
    30
  5
42A
 10
92.723
 20
193.90075
 30
0.0
 11
92.723
 21
189.15075
 31
0.0
  0
LINE
  8
1
  6
HIDDEN
 62
    30
  5
42B
 10
85.223
 20
193.15075
 30
0.0
 11
85.223
 21
191.40075
 31
0.0
  0
LINE
  8
1
  6
CONTINUOUS
 62
    30
  5
42C
 10
85.223
 20
191.40075
 30
0.0
 11
85.223
 21
190.40075
 31
0.0
  0
LINE
  8
1
  6
HIDDEN
 62
    30
  5
42D
 10
88.723
 20
193.15075
 30
0.0
 11
88.723
 21
191.40075
 31
0.0
  0
LINE
  8
1
  6
CONTINUOUS
 62
    30
  5
42E
 10
88.723
 20
191.40075
 30
0.0
 11
88.723
 21
190.40075
 31
0.0
  0
LINE
  8
1
  6
HIDDEN
 62
    30
  5
42F
 10
79.973
 20
177.40075
 30
0.0
 11
79.973
 21
190.40075
 31
0.0
  0
LINE
  8
1
  6
CONTINUOUS
 62
    30
  5
430
 10
94.679917
 20
190.40075
 30
0.0
 11
97.615333
 21
177.40075
 31
0.0
  0
LINE
  8
1
  6
CONTINUOUS
 62
    30
  5
431
 10
81.973
 20
221.15075
 30
0.0
 11
81.973
 21
193.15075
 31
0.0
  0
LINE
  8
1
  6
CONTINUOUS
 62
    30
  5
432
 10
91.723
 20
221.15075
 30
0.0
 11
91.723
 21
193.15075
 31
0.0
  0
LINE
  8
1
  6
CONTINUOUS
 62
     7
  5
433
 10
86.848
 20
184.40075
 30
0.0
 11
86.848
 21
183.40075
 31
0.0
  0
ARC
  8
1
  6
CONTINUOUS
 62
    30
  5
434
 10
89.2855
 20
219.524575
 30
0.0
 40
2.930162
 50
33.709189
 51
146.290814
210
0.0
220
0.0
230
1.0
  0
ARC
  8
1
  6
CONTINUOUS
 62
    30
  5
435
 10
84.4105
 20
219.60949
 30
0.0
 40
2.883902
 50
32.30565
 51
147.69435
210
0.0
220
0.0
230
1.0
  0
ARC
  8
1
  6
CONTINUOUS
 62
    30
  5
436
 10
84.4105
 20
222.547581
 30
0.0
 40
2.817106
 50
210.088761
 51
329.911236
210
0.0
220
0.0
230
1.0
  0
LINE
  8
1
  6
CONTINUOUS
 62
     7
  5
437
 10
86.348
 20
183.90075
 30
0.0
 11
87.348
 21
183.90075
 31
0.0
  0
CIRCLE
  8
1
  6
CONTINUOUS
 62
    30
  5
438
 10
86.848
 20
183.90075
 30
0.0
 40
1.75
210
0.0
220
0.0
230
1.0
  0
LINE
  8
1
  6
CONTINUOUS
 62
     7
  5
439
 10
85.598
 20
183.90075
 30
0.0
 11
83.598
 21
183.90075
 31
0.0
  0
LINE
  8
1
  6
CONTINUOUS
 62
     7
  5
43A
 10
86.848
 20
185.15075
 30
0.0
 11
86.848
 21
197.15075
 31
0.0
  0
LINE
  8
1
  6
CONTINUOUS
 62
     7
  5
43B
 10
86.848
 20
198.15075
 30
0.0
 11
86.848
 21
200.15075
 31
0.0
  0
LINE
  8
1
  6
CONTINUOUS
 62
     7
  5
43C
 10
86.848
 20
201.15075
 30
0.0
 11
86.848
 21
213.15075
 31
0.0
  0
CIRCLE
  8
1
  6
HIDDEN
 62
    30
  5
43D
 10
99.6285
 20
162.617083
 30
0.0
 40
1.75
210
0.0
220
0.0
230
1.0
  0
LINE
  8
1
  6
CONTINUOUS
 62
     7
  5
43E
 10
86.848
 20
182.65075
 30
0.0
 11
86.848
 21
182.15075
 31
0.0
  0
LINE
  8
1
  6
CONTINUOUS
 62
     7
  5
43F
 10
86.848
 20
182.15075
 30
0.0
 11
86.848
 21
178.65075
 31
0.0
  0
LINE
  8
1
  6
CONTINUOUS
 62
     7
  5
440
 10
88.098
 20
183.90075
 30
0.0
 11
88.598
 21
183.90075
 31
0.0
  0
LINE
  8
1
  6
CONTINUOUS
 62
     7
  5
441
 10
88.598
 20
183.90075
 30
0.0
 11
90.098
 21
183.90075
 31
0.0
  0
LINE
  8
1
  6
CONTINUOUS
 62
     7
  5
442
 10
95.6285
 20
162.617083
 30
0.0
 11
97.8785
 21
162.617083
 31
0.0
  0
LINE
  8
1
  6
CONTINUOUS
 62
     7
  5
443
 10
97.8785
 20
162.617083
 30
0.0
 11
104.1285
 21
162.617083
 31
0.0
  0
LINE
  8
1
  6
CONTINUOUS
 62
     7
  5
444
 10
99.6285
 20
158.117083
 30
0.0
 11
99.6285
 21
164.367083
 31
0.0
  0
LINE
  8
1
  6
CONTINUOUS
 62
     7
  5
445
 10
99.6285
 20
164.367083
 30
0.0
 11
99.6285
 21
167.117083
 31
0.0
  0
LINE
  8
1
  6
HIDDEN
 62
    30
  5
446
 10
86.848
 20
182.15075
 30
0.0
 11
97.919417
 21
162.993417
 31
0.0
  0
LINE
  8
1
  6
HIDDEN
 62
    30
  5
447
 10
88.598
 20
183.90075
 30
0.0
 11
99.899167
 21
164.346
 31
0.0
  0
LINE
  8
1
  6
HIDDEN
 62
    30
  5
448
 10
84.223
 20
140.40075
 30
0.0
 11
84.223
 21
177.90075
 31
0.0
  0
LINE
  8
1
  6
HIDDEN
 62
    30
  5
449
 10
85.723
 20
140.40075
 30
0.0
 11
85.723
 21
177.90075
 31
0.0
  0
LINE
  8
1
  6
HIDDEN
 62
    30
  5
44A
 10
94.223
 20
140.40075
 30
0.0
 11
94.223
 21
177.90075
 31
0.0
  0
LINE
  8
1
  6
HIDDEN
 62
    30
  5
44B
 10
95.723
 20
140.40075
 30
0.0
 11
95.723
 21
177.90075
 31
0.0
  0
LINE
  8
1
  6
HIDDEN
 62
    30
  5
44C
 10
84.223
 20
177.90075
 30
0.0
 11
85.723
 21
177.90075
 31
0.0
  0
LINE
  8
1
  6
HIDDEN
 62
    30
  5
44D
 10
94.223
 20
177.90075
 30
0.0
 11
95.723
 21
177.90075
 31
0.0
  0
LINE
  8
1
  6
CONTINUOUS
 62
    30
  5
44E
 10
84.473
 20
176.90075
 30
0.0
 11
85.473
 21
176.90075
 31
0.0
  0
LINE
  8
1
  6
CONTINUOUS
 62
    30
  5
44F
 10
84.473
 20
176.40075
 30
0.0
 11
85.473
 21
176.40075
 31
0.0
  0
LINE
  8
1
  6
CONTINUOUS
 62
    30
  5
450
 10
84.473
 20
175.40075
 30
0.0
 11
85.473
 21
175.40075
 31
0.0
  0
LINE
  8
1
  6
CONTINUOUS
 62
    30
  5
451
 10
84.223
 20
174.90075
 30
0.0
 11
85.723
 21
174.90075
 31
0.0
  0
LINE
  8
1
  6
CONTINUOUS
 62
    30
  5
452
 10
84.723
 20
177.15075
 30
0.0
 11
85.223
 21
177.15075
 31
0.0
  0
LINE
  8
1
  6
CONTINUOUS
 62
    30
  5
453
 10
84.723
 20
176.65075
 30
0.0
 11
85.223
 21
176.65075
 31
0.0
  0
LINE
  8
1
  6
CONTINUOUS
 62
    30
  5
454
 10
84.723
 20
176.15075
 30
0.0
 11
85.223
 21
176.15075
 31
0.0
  0
LINE
  8
1
  6
CONTINUOUS
 62
    30
  5
455
 10
84.723
 20
175.65075
 30
0.0
 11
85.223
 21
175.65075
 31
0.0
  0
LINE
  8
1
  6
CONTINUOUS
 62
    30
  5
456
 10
84.723
 20
175.15075
 30
0.0
 11
85.223
 21
175.15075
 31
0.0
  0
LINE
  8
1
  6
CONTINUOUS
 62
    30
  5
457
 10
84.723
 20
177.65075
 30
0.0
 11
85.223
 21
177.65075
 31
0.0
  0
LINE
  8
1
  6
CONTINUOUS
 62
    30
  5
458
 10
94.723
 20
177.65075
 30
0.0
 11
95.223
 21
177.65075
 31
0.0
  0
LINE
  8
1
  6
HIDDEN
 62
    30
  5
459
 10
94.223
 20
177.40075
 30
0.0
 11
95.723
 21
177.40075
 31
0.0
  0
LINE
  8
1
  6
CONTINUOUS
 62
    30
  5
45A
 10
94.723
 20
177.15075
 30
0.0
 11
95.223
 21
177.15075
 31
0.0
  0
LINE
  8
1
  6
CONTINUOUS
 62
    30
  5
45B
 10
94.473
 20
176.90075
 30
0.0
 11
95.473
 21
176.90075
 31
0.0
  0
LINE
  8
1
  6
CONTINUOUS
 62
    30
  5
45C
 10
94.723
 20
176.65075
 30
0.0
 11
95.223
 21
176.65075
 31
0.0
  0
LINE
  8
1
  6
CONTINUOUS
 62
    30
  5
45D
 10
94.473
 20
176.40075
 30
0.0
 11
95.473
 21
176.40075
 31
0.0
  0
LINE
  8
1
  6
CONTINUOUS
 62
    30
  5
45E
 10
94.723
 20
176.15075
 30
0.0
 11
95.223
 21
176.15075
 31
0.0
  0
LINE
  8
1
  6
HIDDEN
 62
    30
  5
45F
 10
94.223
 20
175.90075
 30
0.0
 11
95.723
 21
175.90075
 31
0.0
  0
LINE
  8
1
  6
CONTINUOUS
 62
    30
  5
460
 10
94.723
 20
175.65075
 30
0.0
 11
95.223
 21
175.65075
 31
0.0
  0
LINE
  8
1
  6
CONTINUOUS
 62
    30
  5
461
 10
94.473
 20
175.40075
 30
0.0
 11
95.473
 21
175.40075
 31
0.0
  0
LINE
  8
1
  6
CONTINUOUS
 62
    30
  5
462
 10
94.723
 20
175.15075
 30
0.0
 11
95.223
 21
175.15075
 31
0.0
  0
LINE
  8
1
  6
CONTINUOUS
 62
    30
  5
463
 10
94.223
 20
174.90075
 30
0.0
 11
95.723
 21
174.90075
 31
0.0
  0
LINE
  8
1
  6
HIDDEN
 62
    30
  5
464
 10
82.223
 20
145.65075
 30
0.0
 11
97.723
 21
145.65075
 31
0.0
  0
LINE
  8
1
  6
HIDDEN
 62
    30
  5
465
 10
82.223
 20
147.40075
 30
0.0
 11
97.723
 21
147.40075
 31
0.0
  0
LINE
  8
1
  6
HIDDEN
 62
    30
  5
466
 10
82.223
 20
147.40075
 30
0.0
 11
82.223
 21
145.65075
 31
0.0
  0
LINE
  8
1
  6
HIDDEN
 62
    30
  5
467
 10
97.723
 20
147.40075
 30
0.0
 11
97.723
 21
145.65075
 31
0.0
  0
LINE
  8
1
  6
CONTINUOUS
 62
    30
  5
468
 10
82.223
 20
146.128333
 30
0.0
 11
83.495417
 21
147.40075
 31
0.0
  0
LINE
  8
1
  6
CONTINUOUS
 62
    30
  5
469
 10
84.573833
 20
145.65075
 30
0.0
 11
86.323833
 21
147.40075
 31
0.0
  0
LINE
  8
1
  6
CONTINUOUS
 62
    30
  5
46A
 10
90.230667
 20
145.65075
 30
0.0
 11
91.980667
 21
147.40075
 31
0.0
  0
LINE
  8
1
  6
CONTINUOUS
 62
    30
  5
46B
 10
93.059083
 20
145.65075
 30
0.0
 11
94.809083
 21
147.40075
 31
0.0
  0
LINE
  8
1
  6
CONTINUOUS
 62
    30
  5
46C
 10
95.887583
 20
145.65075
 30
0.0
 11
97.637583
 21
147.40075
 31
0.0
  0
LINE
  8
1
  6
HIDDEN
 62
    30
  5
46D
 10
83.723
 20
144.65075
 30
0.0
 11
86.223
 21
144.65075
 31
0.0
  0
LINE
  8
1
  6
HIDDEN
 62
    30
  5
46E
 10
93.723
 20
144.65075
 30
0.0
 11
96.223
 21
144.65075
 31
0.0
  0
LINE
  8
1
  6
HIDDEN
 62
    30
  5
46F
 10
83.723
 20
144.65075
 30
0.0
 11
83.723
 21
145.65075
 31
0.0
  0
LINE
  8
1
  6
HIDDEN
 62
    30
  5
470
 10
86.223
 20
144.65075
 30
0.0
 11
86.223
 21
145.65075
 31
0.0
  0
LINE
  8
1
  6
HIDDEN
 62
    30
  5
471
 10
93.723
 20
144.65075
 30
0.0
 11
93.723
 21
145.65075
 31
0.0
  0
LINE
  8
1
  6
HIDDEN
 62
    30
  5
472
 10
96.223
 20
144.65075
 30
0.0
 11
96.223
 21
145.65075
 31
0.0
  0
LINE
  8
1
  6
CONTINUOUS
 62
    30
  5
473
 10
82.223
 20
140.40075
 30
0.0
 11
97.723
 21
140.40075
 31
0.0
  0
LINE
  8
1
  6
CONTINUOUS
 62
    30
  5
474
 10
82.223
 20
142.90075
 30
0.0
 11
82.223
 21
140.40075
 31
0.0
  0
LINE
  8
1
  6
CONTINUOUS
 62
    30
  5
475
 10
97.723
 20
142.90075
 30
0.0
 11
97.723
 21
140.40075
 31
0.0
  0
LINE
  8
1
  6
CONTINUOUS
 62
    30
  5
476
 10
82.223
 20
140.471417
 30
0.0
 11
84.652333
 21
142.90075
 31
0.0
  0
LINE
  8
1
  6
CONTINUOUS
 62
    30
  5
477
 10
87.402333
 20
145.65075
 30
0.0
 11
89.152333
 21
147.40075
 31
0.0
  0
LINE
  8
1
  6
CONTINUOUS
 62
    30
  5
478
 10
84.98075
 20
140.40075
 30
0.0
 11
87.48075
 21
142.90075
 31
0.0
  0
LINE
  8
1
  6
CONTINUOUS
 62
    30
  5
479
 10
87.80925
 20
140.40075
 30
0.0
 11
90.30925
 21
142.90075
 31
0.0
  0
LINE
  8
1
  6
CONTINUOUS
 62
    30
  5
47A
 10
90.637583
 20
140.40075
 30
0.0
 11
93.137583
 21
142.90075
 31
0.0
  0
LINE
  8
1
  6
CONTINUOUS
 62
    30
  5
47B
 10
93.466083
 20
140.40075
 30
0.0
 11
95.966083
 21
142.90075
 31
0.0
  0
LINE
  8
1
  6
CONTINUOUS
 62
    30
  5
47C
 10
96.294417
 20
140.40075
 30
0.0
 11
97.723
 21
141.829333
 31
0.0
  0
LINE
  8
1
  6
CONTINUOUS
 62
    30
  5
47D
 10
84.223
 20
140.40075
 30
0.0
 11
84.223
 21
139.40075
 31
0.0
  0
LINE
  8
1
  6
CONTINUOUS
 62
    30
  5
47E
 10
85.723
 20
140.40075
 30
0.0
 11
85.723
 21
139.40075
 31
0.0
  0
LINE
  8
1
  6
CONTINUOUS
 62
    30
  5
47F
 10
94.223
 20
140.40075
 30
0.0
 11
94.223
 21
139.40075
 31
0.0
  0
LINE
  8
1
  6
CONTINUOUS
 62
    30
  5
480
 10
95.723
 20
140.40075
 30
0.0
 11
95.723
 21
139.40075
 31
0.0
  0
LINE
  8
1
  6
CONTINUOUS
 62
    30
  5
481
 10
83.723
 20
139.40075
 30
0.0
 11
86.223
 21
139.40075
 31
0.0
  0
LINE
  8
1
  6
CONTINUOUS
 62
    30
  5
482
 10
93.723
 20
139.40075
 30
0.0
 11
96.223
 21
139.40075
 31
0.0
  0
LINE
  8
1
  6
CONTINUOUS
 62
    30
  5
483
 10
83.723
 20
140.40075
 30
0.0
 11
83.723
 21
139.40075
 31
0.0
  0
LINE
  8
1
  6
CONTINUOUS
 62
    30
  5
484
 10
86.223
 20
140.40075
 30
0.0
 11
86.223
 21
139.40075
 31
0.0
  0
LINE
  8
1
  6
CONTINUOUS
 62
    30
  5
485
 10
93.723
 20
140.40075
 30
0.0
 11
93.723
 21
139.40075
 31
0.0
  0
LINE
  8
1
  6
CONTINUOUS
 62
    30
  5
486
 10
96.223
 20
140.40075
 30
0.0
 11
96.223
 21
139.40075
 31
0.0
  0
LINE
  8
1
  6
CONTINUOUS
 62
     7
  5
487
 10
121.970167
 20
136.90075
 30
0.0
 11
121.970167
 21
145.90075
 31
0.0
  0
LINE
  8
1
  6
CONTINUOUS
 62
     7
  5
488
 10
121.970167
 20
118.90075
 30
0.0
 11
121.970167
 21
132.90075
 31
0.0
  0
LINE
  8
1
  6
CONTINUOUS
 62
     7
  5
489
 10
121.970167
 20
133.90075
 30
0.0
 11
121.970167
 21
135.90075
 31
0.0
  0
LINE
  8
1
  6
CONTINUOUS
 62
    30
  5
48A
 10
119.970167
 20
120.90075
 30
0.0
 11
119.970167
 21
118.90075
 31
0.0
  0
LINE
  8
1
  6
CONTINUOUS
 62
    30
  5
48B
 10
125.970167
 20
120.90075
 30
0.0
 11
125.970167
 21
122.90075
 31
0.0
  0
LINE
  8
1
  6
CONTINUOUS
 62
    30
  5
48C
 10
117.970167
 20
122.90075
 30
0.0
 11
117.970167
 21
120.90075
 31
0.0
  0
LINE
  8
1
  6
CONTINUOUS
 62
    30
  5
48D
 10
127.970167
 20
118.90075
 30
0.0
 11
127.970167
 21
120.90075
 31
0.0
  0
LINE
  8
1
  6
CONTINUOUS
 62
    30
  5
48E
 10
112.223
 20
120.90075
 30
0.0
 11
117.970167
 21
120.90075
 31
0.0
  0
LINE
  8
1
  6
CONTINUOUS
 62
    30
  5
48F
 10
119.970167
 20
120.90075
 30
0.0
 11
121.970167
 21
120.90075
 31
0.0
  0
LINE
  8
1
  6
CONTINUOUS
 62
    30
  5
490
 10
121.970167
 20
120.90075
 30
0.0
 11
125.970167
 21
120.90075
 31
0.0
  0
LINE
  8
1
  6
CONTINUOUS
 62
    30
  5
491
 10
127.970167
 20
120.90075
 30
0.0
 11
131.71725
 21
120.90075
 31
0.0
  0
LINE
  8
1
  6
CONTINUOUS
 62
    30
  5
492
 10
117.970167
 20
122.90075
 30
0.0
 11
119.970167
 21
118.90075
 31
0.0
  0
LINE
  8
1
  6
CONTINUOUS
 62
    30
  5
493
 10
125.970167
 20
122.90075
 30
0.0
 11
127.970167
 21
118.90075
 31
0.0
  0
LINE
  8
1
  6
CONTINUOUS
 62
    30
  5
494
 10
160.19375
 20
150.323
 30
0.0
 11
158.19375
 21
150.323
 31
0.0
  0
LINE
  8
1
  6
CONTINUOUS
 62
    30
  5
495
 10
158.19375
 20
148.323
 30
0.0
 11
156.19375
 21
148.323
 31
0.0
  0
LINE
  8
1
  6
CONTINUOUS
 62
    30
  5
496
 10
156.19375
 20
148.323
 30
0.0
 11
160.19375
 21
150.323
 31
0.0
  0
LINE
  8
1
  6
CONTINUOUS
 62
    30
  5
497
 10
58.223
 20
146.65075
 30
0.0
 11
62.223
 21
148.65075
 31
0.0
  0
LINE
  8
1
  6
CONTINUOUS
 62
    30
  5
498
 10
60.223
 20
146.65075
 30
0.0
 11
58.223
 21
146.65075
 31
0.0
  0
LINE
  8
1
  6
CONTINUOUS
 62
    30
  5
499
 10
62.223
 20
148.65075
 30
0.0
 11
60.223
 21
148.65075
 31
0.0
  0
LINE
  8
1
  6
CONTINUOUS
 62
    30
  5
49A
 10
158.19375
 20
154.075917
 30
0.0
 11
158.19375
 21
157.576833
 31
0.0
  0
LINE
  8
1
  6
CONTINUOUS
 62
    30
  5
49B
 10
158.19375
 20
142.570083
 30
0.0
 11
158.19375
 21
144.570083
 31
0.0
  0
LINE
  8
1
  6
CONTINUOUS
 62
    30
  5
49C
 10
158.19375
 20
144.570083
 30
0.0
 11
158.19375
 21
148.323
 31
0.0
  0
LINE
  8
1
  6
CONTINUOUS
 62
    30
  5
49D
 10
158.19375
 20
150.323
 30
0.0
 11
158.19375
 21
154.075917
 31
0.0
  0
LINE
  8
1
  6
CONTINUOUS
 62
    30
  5
49E
 10
60.223
 20
154.40075
 30
0.0
 11
60.223
 21
148.65075
 31
0.0
  0
LINE
  8
1
  6
CONTINUOUS
 62
    30
  5
49F
 10
60.223
 20
146.65075
 30
0.0
 11
60.223
 21
140.90075
 31
0.0
  0
CIRCLE
  8
1
  6
CONTINUOUS
 62
     7
  5
4A0
 10
83.046667
 20
184.111333
 30
0.0
 40
0.25
210
0.0
220
0.0
230
1.0
  0
CIRCLE
  8
1
  6
CONTINUOUS
 62
     7
  5
4A1
 10
89.743917
 20
179.963083
 30
0.0
 40
0.25
210
0.0
220
0.0
230
1.0
  0
LINE
  8
1
  6
CONTINUOUS
 62
    30
  5
4A2
 10
91.723
 20
211.15075
 30
0.0
 11
92.723
 21
211.15075
 31
0.0
  0
LINE
  8
1
  6
CONTINUOUS
 62
    30
  5
4A3
 10
91.723
 20
205.15075
 30
0.0
 11
92.723
 21
205.15075
 31
0.0
  0
LINE
  8
1
  6
CONTINUOUS
 62
    30
  5
4A4
 10
92.723
 20
211.15075
 30
0.0
 11
92.723
 21
205.15075
 31
0.0
  0
ARC
  8
1
  6
CONTINUOUS
 62
    30
  5
4A5
 10
81.223
 20
208.15075
 30
0.0
 40
1.25
 50
306.869897
 51
53.130103
210
0.0
220
0.0
230
1.0
  0
LINE
  8
1
  6
CONTINUOUS
 62
     7
  5
4A6
 10
81.973
 20
208.11625
 30
0.0
 11
78.025333
 21
211.595083
 31
0.0
  0
LINE
  8
1
  6
CONTINUOUS
 62
     7
  5
4A7
 10
78.025333
 20
211.595083
 30
0.0
 11
76.035083
 21
211.595083
 31
0.0
  0
LINE
  8
1
  6
CONTINUOUS
 62
     7
  5
4A8
 10
92.723
 20
208.106417
 30
0.0
 11
97.604417
 21
211.78025
 31
0.0
  0
LINE
  8
1
  6
CONTINUOUS
 62
     7
  5
4A9
 10
97.604417
 20
211.78025
 30
0.0
 11
99.455833
 21
211.78025
 31
0.0
  0
INSERT
  8
1
  6
CONTINUOUS
 62
     1
  5
4AA
  2
LDR
 10
81.973
 20
208.11625
 30
0.0
 41
240.000002
 42
240.000002
 50
318.612277
210
0.0
220
0.0
230
1.0
  0
INSERT
  8
1
  6
CONTINUOUS
 62
     1
  5
4AB
  2
LDR
 10
92.723
 20
208.106417
 30
0.0
 41
239.999998
 42
239.999998
 50
216.965712
210
0.0
220
0.0
230
1.0
  0
LINE
  8
1
  6
CONTINUOUS
 62
     7
  5
4AC
 10
83.046667
 20
184.111333
 30
0.0
 11
76.463333
 21
184.102417
 31
0.0
  0
LINE
  8
1
  6
CONTINUOUS
 62
     7
  5
4AD
 10
89.696167
 20
179.988333
 30
0.0
 11
100.7275
 21
194.075833
 31
0.0
  0
LINE
  8
1
  6
CONTINUOUS
 62
     7
  5
4AE
 10
100.7275
 20
194.075833
 30
0.0
 11
103.486333
 21
194.075833
 31
0.0
  0
LINE
  8
1
  6
CONTINUOUS
 62
     7
  5
4AF
 10
94.97875
 20
177.90075
 30
0.0
 11
98.928667
 21
185.364
 31
0.0
  0
LINE
  8
1
  6
CONTINUOUS
 62
     7
  5
4B0
 10
98.928667
 20
185.364
 30
0.0
 11
106.216667
 21
185.364
 31
0.0
  0
INSERT
  8
1
  6
CONTINUOUS
 62
     1
  5
4B1
  2
LDR
 10
94.97875
 20
177.90075
 30
0.0
 41
240.000001
 42
240.000001
 50
242.110019
210
0.0
220
0.0
230
1.0
  0
LINE
  8
1
  6
CONTINUOUS
 62
     7
  5
4B2
 10
100.727917
 20
163.978583
 30
0.0
 11
105.90475
 21
173.102667
 31
0.0
  0
LINE
  8
1
  6
CONTINUOUS
 62
     7
  5
4B3
 10
105.90475
 20
173.102667
 30
0.0
 11
109.136583
 21
173.102667
 31
0.0
  0
LINE
  8
1
  6
CONTINUOUS
 62
     7
  5
4B4
 10
102.267917
 20
152.343167
 30
0.0
 11
108.506
 21
164.744417
 31
0.0
  0
LINE
  8
1
  6
CONTINUOUS
 62
     7
  5
4B5
 10
108.506
 20
164.744417
 30
0.0
 11
111.8955
 21
164.744417
 31
0.0
  0
INSERT
  8
1
  6
CONTINUOUS
 62
     1
  5
4B6
  2
LDR
 10
102.267917
 20
152.343167
 30
0.0
 41
240.000001
 42
240.000001
 50
243.296666
210
0.0
220
0.0
230
1.0
  0
LINE
  8
1
  6
CONTINUOUS
 62
     7
  5
4B7
 10
71.0895
 20
152.40075
 30
0.0
 11
74.295667
 21
164.507833
 31
0.0
  0
LINE
  8
1
  6
CONTINUOUS
 62
     7
  5
4B8
 10
74.295667
 20
164.507833
 30
0.0
 11
62.4235
 21
164.507833
 31
0.0
  0
INSERT
  8
1
  6
CONTINUOUS
 62
     1
  5
4B9
  2
LDR
 10
71.0895
 20
152.40075
 30
0.0
 41
239.999998
 42
239.999998
 50
255.167548
210
0.0
220
0.0
230
1.0
  0
LINE
  8
1
  6
CONTINUOUS
 62
     7
  5
4BA
 10
135.371833
 20
154.779917
 30
0.0
 11
141.709
 21
167.416417
 31
0.0
  0
LINE
  8
1
  6
CONTINUOUS
 62
     7
  5
4BB
 10
144.543167
 20
167.416417
 30
0.0
 11
141.709
 21
167.416417
 31
0.0
  0
INSERT
  8
1
  6
CONTINUOUS
 62
     1
  5
4BC
  2
LDR
 10
135.371833
 20
154.779917
 30
0.0
 41
239.999999
 42
239.999999
 50
243.366373
210
0.0
220
0.0
230
1.0
  0
LINE
  8
1
  6
CONTINUOUS
 62
     7
  5
4BD
 10
97.723
 20
146.52575
 30
0.0
 11
104.30925
 21
146.52575
 31
0.0
  0
INSERT
  8
1
  6
CONTINUOUS
 62
     1
  5
4BE
  2
LDR
 10
97.723
 20
146.52575
 30
0.0
 41
240.0
 42
240.0
 50
180.0
210
0.0
220
0.0
230
1.0
  0
LINE
  8
1
  6
CONTINUOUS
 62
     7
  5
4BF
 10
82.141083
 20
141.689167
 30
0.0
 11
57.561917
 21
148.589667
 31
0.0
  0
LINE
  8
1
  6
CONTINUOUS
 62
     7
  5
4C0
 10
57.561917
 20
148.589667
 30
0.0
 11
51.763417
 21
148.589667
 31
0.0
  0
INSERT
  8
1
  6
CONTINUOUS
 62
     1
  5
4C1
  2
LDR
 10
82.141083
 20
141.689167
 30
0.0
 41
240.000002
 42
240.000002
 50
344.318132
210
0.0
220
0.0
230
1.0
  0
TEXT
  8
1
  6
CONTINUOUS
 62
     7
  5
4C2
 10
35.355083
 20
210.348333
 30
0.0
 40
2.5
  1
GROUND CONNECTOR
  7
MONOTXT
 72
     4
 11
55.266417
 21
211.598333
 31
0.0
210
0.0
220
0.0
230
1.0
  0
TEXT
  8
1
  6
CONTINUOUS
 62
     7
  5
4C3
 10
100.347583
 20
210.68975
 30
0.0
 40
2.5
  1
HAND HOLE (AS DESIGNATED)
  7
MONOTXT
 72
     4
 11
128.80225
 21
211.93975
 31
0.0
210
0.0
220
0.0
230
1.0
  0
TEXT
  8
1
  6
CONTINUOUS
 62
     7
  5
4C4
 10
105.542
 20
192.755
 30
0.0
 40
2.5
  1
3
  7
MONOTXT
 72
     4
 11
106.378583
 21
194.005
 31
0.0
210
0.0
220
0.0
230
1.0
  0
TEXT
  8
1
  6
CONTINUOUS
 62
     7
  5
4C5
 10
109.967417
 20
171.941917
 30
0.0
 40
2.5
  1
2" 0 CONDUIT (TYP.)
  7
MONOTXT
 72
     4
 11
130.50875
 21
173.191917
 31
0.0
210
0.0
220
0.0
230
1.0
  0
TEXT
  8
1
  6
CONTINUOUS
 62
     7
  5
4C6
 10
113.042583
 20
163.438083
 30
0.0
 40
2.5
  1
CONST.
  7
MONOTXT
 72
     4
 11
119.587833
 21
164.688083
 31
0.0
210
0.0
220
0.0
230
1.0
  0
TEXT
  8
1
  6
CONTINUOUS
 62
     7
  5
4C7
 10
114.745333
 20
158.938083
 30
0.0
 40
2.5
  1
JOINT
  7
MONOTXT
 72
     4
 11
119.597667
 21
160.188083
 31
0.0
210
0.0
220
0.0
230
1.0
  0
TEXT
  8
1
  6
CONTINUOUS
 62
     7
  5
4C8
 10
145.4875
 20
165.827833
 30
0.0
 40
2.5
  1
ROADWAY
  7
MONOTXT
 72
     4
 11
154.2375
 21
167.077833
 31
0.0
210
0.0
220
0.0
230
1.0
  0
TEXT
  8
1
  6
CONTINUOUS
 62
     7
  5
4C9
 10
148.646917
 20
161.327833
 30
0.0
 40
2.5
  1
(TYP.)
  7
MONOTXT
 72
     4
 11
154.227583
 21
162.577833
 31
0.0
210
0.0
220
0.0
230
1.0
  0
TEXT
  8
1
  6
CONTINUOUS
 62
     7
  5
4CA
 10
41.03025
 20
167.395083
 30
0.0
 40
2.5
  1
PEDESTRIAN
  7
MONOTXT
 72
     4
 11
52.02425
 21
168.645083
 31
0.0
210
0.0
220
0.0
230
1.0
  0
TEXT
  8
1
  6
CONTINUOUS
 62
     7
  5
4CB
 10
43.15625
 20
162.895083
 30
0.0
 40
2.5
  1
WALKWAY
  7
MONOTXT
 72
     4
 11
52.024333
 21
164.145083
 31
0.0
210
0.0
220
0.0
230
1.0
  0
TEXT
  8
1
  6
CONTINUOUS
 62
     7
  5
4CC
 10
36.020417
 20
158.395083
 30
0.0
 40
2.5
  1
(AS APPLICABLE)
  7
MONOTXT
 72
     4
 11
52.0145
 21
159.645083
 31
0.0
210
0.0
220
0.0
230
1.0
  0
TEXT
  8
1
  6
CONTINUOUS
 62
     7
  5
4CD
 10
104.95625
 20
145.484167
 30
0.0
 40
2.5
  1
ALT.
  7
MONOTXT
 72
     4
 11
108.666833
 21
146.734167
 31
0.0
210
0.0
220
0.0
230
1.0
  0
TEXT
  8
1
  6
CONTINUOUS
 62
     7
  5
4CE
 10
72.93025
 20
182.767167
 30
0.0
 40
2.5
  1
1
  7
MONOTXT
 72
     4
 11
73.2255
 21
184.017167
 31
0.0
210
0.0
220
0.0
230
1.0
  0
TEXT
  8
1
  6
CONTINUOUS
 62
     7
  5
4CF
 10
47.811167
 20
147.361833
 30
0.0
 40
2.5
  1
4
  7
MONOTXT
 72
     4
 11
48.706833
 21
148.611833
 31
0.0
210
0.0
220
0.0
230
1.0
  0
LINE
  8
1
  6
CONTINUOUS
 62
     7
  5
4D0
 10
98.539417
 20
134.966917
 30
0.0
 11
94.539417
 21
134.966917
 31
0.0
  0
LINE
  8
1
  6
CONTINUOUS
 62
     7
  5
4D1
 10
96.539417
 20
138.431
 30
0.0
 11
94.539417
 21
134.966917
 31
0.0
  0
LINE
  8
1
  6
CONTINUOUS
 62
     7
  5
4D2
 10
96.539417
 20
138.431
 30
0.0
 11
98.539417
 21
134.966917
 31
0.0
  0
TEXT
  8
1
  6
CONTINUOUS
 62
     7
  5
4D3
 10
96.17075
 20
135.188917
 30
0.0
 40
2.5
  1
1
  7
MONOTXT
 72
     4
 11
96.466
 21
136.438917
 31
0.0
210
0.0
220
0.0
230
1.0
  0
TEXT
  8
1
  6
CONTINUOUS
 62
     7
  5
4D4
 10
55.776833
 20
106.531083
 30
0.0
 40
4.0
  1
TYPE "F" INSTALLATION DETAILS ON
  7
MONOTXT
 72
     4
 11
112.768917
 21
108.531083
 31
0.0
210
0.0
220
0.0
230
1.0
  0
TEXT
  8
1
  6
CONTINUOUS
 62
     7
  5
4D5
 10
99.808333
 20
100.531083
 30
0.0
 40
4.0
  1
PARAPET
  7
MONOTXT
 72
     4
 11
112.768917
 21
102.531083
 31
0.0
210
0.0
220
0.0
230
1.0
  0
LINE
  8
1
  6
CONTINUOUS
 62
     7
  5
4D6
 10
54.4705
 20
105.531083
 30
0.0
 11
171.214167
 21
105.531083
 31
0.0
  0
LINE
  8
1
  6
CONTINUOUS
 62
     7
  5
4D7
 10
98.2225
 20
99.78075
 30
0.0
 11
126.703167
 21
99.78075
 31
0.0
  0
TEXT
  8
1
  6
CONTINUOUS
 62
     7
  5
4D8
 10
93.137167
 20
76.079917
 30
0.0
 40
3.0
  1
LEGEND:
  7
MONOTXT
 72
     4
 11
102.066333
 21
77.579917
 31
0.0
210
0.0
220
0.0
230
1.0
  0
TEXT
  8
1
  6
CONTINUOUS
 62
     7
  5
4D9
 10
65.0215
 20
63.936583
 30
0.0
 40
3.0
  1
TYPE "F" LIGHTING POLE SUPPORT BASE
  7
MONOTXT
 11
65.0215
 21
66.936583
 31
0.0
210
0.0
220
0.0
230
1.0
 73
     3
  0
TEXT
  8
1
  6
CONTINUOUS
 62
     7
  5
4DA
 10
65.0215
 20
58.936583
 30
0.0
 40
3.0
  1
 
  7
MONOTXT
 11
65.0215
 21
61.936583
 31
0.0
210
0.0
220
0.0
230
1.0
 73
     3
  0
TEXT
  8
1
  6
CONTINUOUS
 62
     7
  5
4DB
 10
65.0215
 20
53.936583
 30
0.0
 40
3.0
  1
CONDUIT COUPLING (AS REQUIRED)
  7
MONOTXT
 11
65.0215
 21
56.936583
 31
0.0
210
0.0
220
0.0
230
1.0
 73
     3
  0
TEXT
  8
1
  6
CONTINUOUS
 62
     7
  5
4DC
 10
65.0215
 20
48.936583
 30
0.0
 40
3.0
  1
 
  7
MONOTXT
 11
65.0215
 21
51.936583
 31
0.0
210
0.0
220
0.0
230
1.0
 73
     3
  0
TEXT
  8
1
  6
CONTINUOUS
 62
     7
  5
4DD
 10
65.0215
 20
43.936583
 30
0.0
 40
3.0
  1
1" METAL CONDUIT (TYP.)
  7
MONOTXT
 11
65.0215
 21
46.936583
 31
0.0
210
0.0
220
0.0
230
1.0
 73
     3
  0
TEXT
  8
1
  6
CONTINUOUS
 62
     7
  5
4DE
 10
65.0215
 20
38.936583
 30
0.0
 40
3.0
  1
 
  7
MONOTXT
 11
65.0215
 21
41.936583
 31
0.0
210
0.0
220
0.0
230
1.0
 73
     3
  0
TEXT
  8
1
  6
CONTINUOUS
 62
     7
  5
4DF
 10
65.0215
 20
33.936583
 30
0.0
 40
3.0
  1
ANCHOR PLATE (1", ASTM A-36, GALVANIZED)
  7
MONOTXT
 11
65.0215
 21
36.936583
 31
0.0
210
0.0
220
0.0
230
1.0
 73
     3
  0
CIRCLE
  8
1
  6
CONTINUOUS
 62
     7
  5
4E0
 10
55.48525
 20
65.023167
 30
0.0
 40
3.0
210
0.0
220
0.0
230
1.0
  0
CIRCLE
  8
1
  6
CONTINUOUS
 62
     7
  5
4E1
 10
48.763417
 20
148.589667
 30
0.0
 40
3.0
210
0.0
220
0.0
230
1.0
  0
CIRCLE
  8
1
  6
CONTINUOUS
 62
     7
  5
4E2
 10
73.463333
 20
184.102417
 30
0.0
 40
3.0
210
0.0
220
0.0
230
1.0
  0
CIRCLE
  8
1
  6
CONTINUOUS
 62
     7
  5
4E3
 10
106.486333
 20
194.075833
 30
0.0
 40
3.0
210
0.0
220
0.0
230
1.0
  0
CIRCLE
  8
1
  6
CONTINUOUS
 62
     7
  5
4E4
 10
55.754
 20
54.92425
 30
0.0
 40
3.0
210
0.0
220
0.0
230
1.0
  0
CIRCLE
  8
1
  6
CONTINUOUS
 62
     7
  5
4E5
 10
56.045333
 20
45.04325
 30
0.0
 40
3.0
210
0.0
220
0.0
230
1.0
  0
CIRCLE
  8
1
  6
CONTINUOUS
 62
     7
  5
4E6
 10
56.628083
 20
34.839583
 30
0.0
 40
3.0
210
0.0
220
0.0
230
1.0
  0
TEXT
  8
1
  6
CONTINUOUS
 62
     7
  5
4E7
 10
54.852
 20
63.44975
 30
0.0
 40
3.0
  1
1
  7
MONOTXT
 72
     4
 11
55.206333
 21
64.94975
 31
0.0
210
0.0
220
0.0
230
1.0
  0
TEXT
  8
1
  6
CONTINUOUS
 62
     7
  5
4E8
 10
54.70075
 20
53.472333
 30
0.0
 40
3.0
  1
2
  7
MONOTXT
 72
     4
 11
55.704667
 21
54.972333
 31
0.0
210
0.0
220
0.0
230
1.0
  0
TEXT
  8
1
  6
CONTINUOUS
 62
     7
  5
4E9
 10
54.944
 20
43.373167
 30
0.0
 40
3.0
  1
3
  7
MONOTXT
 72
     4
 11
55.947917
 21
44.873167
 31
0.0
210
0.0
220
0.0
230
1.0
  0
TEXT
  8
1
  6
CONTINUOUS
 62
     7
  5
4EA
 10
55.481333
 20
33.39575
 30
0.0
 40
3.0
  1
4
  7
MONOTXT
 72
     4
 11
56.556083
 21
34.89575
 31
0.0
210
0.0
220
0.0
230
1.0
  0
LINE
  8
1
  6
CONTINUOUS
 62
     4
  5
4EB
 10
232.33975
 20
127.329333
 30
0.0
 11
232.33975
 21
141.329333
 31
0.0
  0
LINE
  8
1
  6
CONTINUOUS
 62
     4
  5
4EC
 10
232.33975
 20
141.329333
 30
0.0
 11
248.33975
 21
141.329333
 31
0.0
  0
LINE
  8
1
  6
CONTINUOUS
 62
     4
  5
4ED
 10
232.33975
 20
140.329333
 30
0.0
 11
248.565583
 21
140.329333
 31
0.0
  0
LINE
  8
1
  6
CONTINUOUS
 62
     4
  5
4EE
 10
234.83975
 20
124.829333
 30
0.0
 11
252.0655
 21
124.829333
 31
0.0
  0
LINE
  8
1
  6
CONTINUOUS
 62
     4
  5
4EF
 10
234.83975
 20
123.329333
 30
0.0
 11
252.404167
 21
123.329333
 31
0.0
  0
LINE
  8
1
  6
CONTINUOUS
 62
     4
  5
4F0
 10
248.33975
 20
141.329333
 30
0.0
 11
253.285167
 21
119.427583
 31
0.0
  0
LINE
  8
1
  6
CONTINUOUS
 62
     4
  5
4F1
 10
232.83975
 20
143.079333
 30
0.0
 11
247.83975
 21
143.079333
 31
0.0
  0
LINE
  8
1
  6
CONTINUOUS
 62
     4
  5
4F2
 10
232.83975
 20
143.079333
 30
0.0
 11
232.83975
 21
141.329333
 31
0.0
  0
LINE
  8
1
  6
CONTINUOUS
 62
     4
  5
4F3
 10
247.83975
 20
143.079333
 30
0.0
 11
247.83975
 21
141.329333
 31
0.0
  0
LINE
  8
1
  6
CONTINUOUS
 62
     4
  5
4F4
 10
234.33975
 20
143.829333
 30
0.0
 11
234.33975
 21
139.079333
 31
0.0
  0
LINE
  8
1
  6
CONTINUOUS
 62
     4
  5
4F5
 10
245.83975
 20
143.829333
 30
0.0
 11
245.83975
 21
139.079333
 31
0.0
  0
LINE
  8
1
  6
HIDDEN
 62
     4
  5
4F6
 10
233.08975
 20
127.639833
 30
0.0
 11
233.08975
 21
140.329333
 31
0.0
  0
LINE
  8
1
  6
CONTINUOUS
 62
     4
  5
4F7
 10
247.796667
 20
140.329333
 30
0.0
 11
251.296583
 21
124.829333
 31
0.0
  0
LINE
  8
1
  6
HIDDEN
 62
     4
  5
4F8
 10
237.33975
 20
95.829333
 30
0.0
 11
237.33975
 21
124.829333
 31
0.0
  0
LINE
  8
1
  6
HIDDEN
 62
     4
  5
4F9
 10
238.83975
 20
95.829333
 30
0.0
 11
238.83975
 21
124.829333
 31
0.0
  0
LINE
  8
1
  6
HIDDEN
 62
     4
  5
4FA
 10
247.33975
 20
73.829333
 30
0.0
 11
247.33975
 21
124.829333
 31
0.0
  0
LINE
  8
1
  6
HIDDEN
 62
     4
  5
4FB
 10
248.83975
 20
74.329333
 30
0.0
 11
248.83975
 21
124.829333
 31
0.0
  0
LINE
  8
1
  6
HIDDEN
 62
     4
  5
4FC
 10
247.33975
 20
124.829333
 30
0.0
 11
248.83975
 21
124.829333
 31
0.0
  0
LINE
  8
1
  6
HIDDEN
 62
     4
  5
4FD
 10
247.33975
 20
123.329333
 30
0.0
 11
248.83975
 21
123.329333
 31
0.0
  0
LINE
  8
1
  6
CONTINUOUS
 62
     4
  5
4FE
 10
244.673333
 20
158.579333
 30
0.0
 11
245.83975
 21
158.579333
 31
0.0
  0
LINE
  8
1
  6
CONTINUOUS
 62
     4
  5
4FF
 10
244.73775
 20
152.579333
 30
0.0
 11
245.83975
 21
152.579333
 31
0.0
  0
LINE
  8
1
  6
CONTINUOUS
 62
     4
  5
500
 10
245.83975
 20
158.579333
 30
0.0
 11
245.83975
 21
152.579333
 31
0.0
  0
ARC
  8
1
  6
CONTINUOUS
 62
     4
  5
501
 10
234.551583
 20
155.579333
 30
0.0
 40
1.25
 50
301.923256
 51
56.846514
210
0.0
220
0.0
230
1.0
  0
LINE
  8
1
  6
CONTINUOUS
 62
     4
  5
502
 10
238.96475
 20
226.579333
 30
0.0
 11
238.96475
 21
224.579333
 31
0.0
  0
LINE
  8
1
  6
CONTINUOUS
 62
     4
  5
503
 10
240.96475
 20
224.579333
 30
0.0
 11
240.96475
 21
222.579333
 31
0.0
  0
LINE
  8
1
  6
CONTINUOUS
 62
     4
  5
504
 10
240.96475
 20
222.579333
 30
0.0
 11
238.96475
 21
226.579333
 31
0.0
  0
LINE
  8
1
  6
CONTINUOUS
 62
     4
  5
505
 10
232.33975
 20
127.329333
 30
0.0
 11
234.83975
 21
124.829333
 31
0.0
  0
LINE
  8
1
  6
HIDDEN
 62
     4
  5
506
 10
233.08975
 20
127.639833
 30
0.0
 11
235.90025
 21
124.829333
 31
0.0
  0
LINE
  8
1
  6
CONTINUOUS
 62
     4
  5
507
 10
234.83975
 20
124.829333
 30
0.0
 11
234.83975
 21
93.329333
 31
0.0
  0
LINE
  8
1
  6
CONTINUOUS
 62
     7
  5
508
 10
239.96475
 20
175.802083
 30
0.0
 11
239.96475
 21
221.68975
 31
0.0
  0
LINE
  8
1
  6
CONTINUOUS
 62
     7
  5
509
 10
239.96475
 20
129.56475
 30
0.0
 11
239.96475
 21
171.802083
 31
0.0
  0
LINE
  8
1
  6
CONTINUOUS
 62
     4
  5
50A
 10
233.96475
 20
224.579333
 30
0.0
 11
238.96475
 21
224.579333
 31
0.0
  0
LINE
  8
1
  6
CONTINUOUS
 62
     4
  5
50B
 10
240.96475
 20
224.579333
 30
0.0
 11
245.96475
 21
224.579333
 31
0.0
  0
LINE
  8
1
  6
CONTINUOUS
 62
     4
  5
50C
 10
237.33975
 20
124.829333
 30
0.0
 11
237.33975
 21
126.829333
 31
0.0
  0
LINE
  8
1
  6
CONTINUOUS
 62
     4
  5
50D
 10
238.83975
 20
124.829333
 30
0.0
 11
238.83975
 21
126.829333
 31
0.0
  0
LINE
  8
1
  6
CONTINUOUS
 62
     4
  5
50E
 10
247.33975
 20
124.829333
 30
0.0
 11
247.33975
 21
126.829333
 31
0.0
  0
LINE
  8
1
  6
CONTINUOUS
 62
     4
  5
50F
 10
248.83975
 20
124.829333
 30
0.0
 11
248.83975
 21
126.829333
 31
0.0
  0
LINE
  8
1
  6
CONTINUOUS
 62
     4
  5
510
 10
237.33975
 20
126.829333
 30
0.0
 11
238.83975
 21
126.829333
 31
0.0
  0
LINE
  8
1
  6
CONTINUOUS
 62
     4
  5
511
 10
247.33975
 20
126.829333
 30
0.0
 11
248.83975
 21
126.829333
 31
0.0
  0
LINE
  8
1
  6
CONTINUOUS
 62
     4
  5
512
 10
237.33975
 20
126.329333
 30
0.0
 11
238.83975
 21
126.329333
 31
0.0
  0
LINE
  8
1
  6
CONTINUOUS
 62
     4
  5
513
 10
237.33975
 20
125.829333
 30
0.0
 11
238.83975
 21
125.829333
 31
0.0
  0
LINE
  8
1
  6
CONTINUOUS
 62
     4
  5
514
 10
237.33975
 20
125.329333
 30
0.0
 11
238.83975
 21
125.329333
 31
0.0
  0
LINE
  8
1
  6
CONTINUOUS
 62
     4
  5
515
 10
247.33975
 20
126.329333
 30
0.0
 11
248.83975
 21
126.329333
 31
0.0
  0
LINE
  8
1
  6
CONTINUOUS
 62
     4
  5
516
 10
247.33975
 20
125.829333
 30
0.0
 11
248.83975
 21
125.829333
 31
0.0
  0
LINE
  8
1
  6
CONTINUOUS
 62
     4
  5
517
 10
247.33975
 20
125.329333
 30
0.0
 11
248.83975
 21
125.329333
 31
0.0
  0
LINE
  8
1
  6
CONTINUOUS
 62
     4
  5
518
 10
237.83975
 20
126.579333
 30
0.0
 11
238.33975
 21
126.579333
 31
0.0
  0
LINE
  8
1
  6
CONTINUOUS
 62
     4
  5
519
 10
237.83975
 20
126.079333
 30
0.0
 11
238.33975
 21
126.079333
 31
0.0
  0
LINE
  8
1
  6
CONTINUOUS
 62
     4
  5
51A
 10
237.83975
 20
125.579333
 30
0.0
 11
238.33975
 21
125.579333
 31
0.0
  0
LINE
  8
1
  6
CONTINUOUS
 62
     4
  5
51B
 10
237.83975
 20
125.079333
 30
0.0
 11
238.33975
 21
125.079333
 31
0.0
  0
LINE
  8
1
  6
CONTINUOUS
 62
     4
  5
51C
 10
247.83975
 20
126.579333
 30
0.0
 11
248.33975
 21
126.579333
 31
0.0
  0
LINE
  8
1
  6
CONTINUOUS
 62
     4
  5
51D
 10
247.83975
 20
126.079333
 30
0.0
 11
248.33975
 21
126.079333
 31
0.0
  0
LINE
  8
1
  6
CONTINUOUS
 62
     4
  5
51E
 10
247.83975
 20
125.579333
 30
0.0
 11
248.33975
 21
125.579333
 31
0.0
  0
LINE
  8
1
  6
CONTINUOUS
 62
     4
  5
51F
 10
247.83975
 20
125.079333
 30
0.0
 11
248.33975
 21
125.079333
 31
0.0
  0
LINE
  8
1
  6
CONTINUOUS
 62
     4
  5
520
 10
240.83975
 20
123.329333
 30
0.0
 11
240.83975
 21
124.829333
 31
0.0
  0
LINE
  8
1
  6
CONTINUOUS
 62
     4
  5
521
 10
247.218167
 20
123.329333
 30
0.0
 11
247.218167
 21
124.829333
 31
0.0
  0
LINE
  8
1
  6
CONTINUOUS
 62
     4
  5
522
 10
242.85125
 20
120.329333
 30
0.0
 11
242.85125
 21
125.829333
 31
0.0
  0
LINE
  8
1
  6
CONTINUOUS
 62
     4
  5
523
 10
245.85125
 20
120.329333
 30
0.0
 11
245.85125
 21
125.829333
 31
0.0
  0
LINE
  8
1
  6
CONTINUOUS
 62
     4
  5
524
 10
242.10125
 20
126.829333
 30
0.0
 11
246.60125
 21
126.829333
 31
0.0
  0
LINE
  8
1
  6
CONTINUOUS
 62
     4
  5
525
 10
242.10125
 20
125.829333
 30
0.0
 11
246.60125
 21
125.829333
 31
0.0
  0
LINE
  8
1
  6
CONTINUOUS
 62
     4
  5
526
 10
242.10125
 20
126.829333
 30
0.0
 11
242.10125
 21
125.829333
 31
0.0
  0
LINE
  8
1
  6
CONTINUOUS
 62
     4
  5
527
 10
246.60125
 20
126.829333
 30
0.0
 11
246.60125
 21
125.829333
 31
0.0
  0
LINE
  8
1
  6
CONTINUOUS
 62
     7
  5
528
 10
244.35125
 20
119.329333
 30
0.0
 11
244.35125
 21
129.829333
 31
0.0
  0
ARC
  8
1
  6
CONTINUOUS
 62
     4
  5
529
 10
243.60125
 20
120.739287
 30
0.0
 40
0.854729
 50
208.661239
 51
331.338758
210
0.0
220
0.0
230
1.0
  0
ARC
  8
1
  6
CONTINUOUS
 62
     4
  5
52A
 10
245.10125
 20
120.739287
 30
0.0
 40
0.854729
 50
208.661239
 51
331.338758
210
0.0
220
0.0
230
1.0
  0
ARC
  8
1
  6
CONTINUOUS
 62
     4
  5
52B
 10
243.60125
 20
119.91938
 30
0.0
 40
0.854729
 50
28.661242
 51
151.338761
210
0.0
220
0.0
230
1.0
  0
ARC
  8
1
  6
CONTINUOUS
 62
     4
  5
52C
 10
245.10125
 20
115.91938
 30
0.0
 40
0.854729
 50
28.661239
 51
151.338758
210
0.0
220
0.0
230
1.0
  0
ARC
  8
1
  6
CONTINUOUS
 62
     4
  5
52D
 10
243.60125
 20
115.91938
 30
0.0
 40
0.854729
 50
28.661239
 51
151.338758
210
0.0
220
0.0
230
1.0
  0
ARC
  8
1
  6
CONTINUOUS
 62
     4
  5
52E
 10
245.10125
 20
116.739287
 30
0.0
 40
0.854729
 50
208.661242
 51
331.338761
210
0.0
220
0.0
230
1.0
  0
POLYLINE
  8
1
  6
CONTINUOUS
 62
     4
  5
52F
 66
     1
 10
0.0
 20
0.0
 30
0.0
  0
VERTEX
  8
1
  6
CONTINUOUS
 62
     4
  5
530
 10
240.83975
 20
124.829333
 30
0.0
  0
VERTEX
  8
1
  6
CONTINUOUS
 62
     4
  5
531
 10
240.834
 20
125.080833
 30
0.0
  0
VERTEX
  8
1
  6
CONTINUOUS
 62
     4
  5
532
 10
240.879417
 20
125.280667
 30
0.0
  0
VERTEX
  8
1
  6
CONTINUOUS
 62
     4
  5
533
 10
240.952
 20
125.852833
 30
0.0
  0
VERTEX
  8
1
  6
CONTINUOUS
 62
     4
  5
534
 10
241.015583
 20
126.143417
 30
0.0
  0
VERTEX
  8
1
  6
CONTINUOUS
 62
     4
  5
535
 10
241.024667
 20
126.425
 30
0.0
  0
VERTEX
  8
1
  6
CONTINUOUS
 62
     4
  5
536
 10
240.933833
 20
126.724667
 30
0.0
  0
VERTEX
  8
1
  6
CONTINUOUS
 62
     4
  5
537
 10
240.906583
 20
126.888167
 30
0.0
  0
VERTEX
  8
1
  6
CONTINUOUS
 62
     4
  5
538
 10
241.260667
 20
126.933583
 30
0.0
  0
VERTEX
  8
1
  6
CONTINUOUS
 62
     4
  5
539
 10
241.360583
 20
127.187833
 30
0.0
  0
VERTEX
  8
1
  6
CONTINUOUS
 62
     4
  5
53A
 10
241.342417
 20
127.405833
 30
0.0
  0
VERTEX
  8
1
  6
CONTINUOUS
 62
     4
  5
53B
 10
241.569417
 20
127.378583
 30
0.0
  0
VERTEX
  8
1
  6
CONTINUOUS
 62
     4
  5
53C
 10
241.796333
 20
127.73275
 30
0.0
  0
VERTEX
  8
1
  6
CONTINUOUS
 62
     4
  5
53D
 10
241.84175
 20
127.968917
 30
0.0
  0
VERTEX
  8
1
  6
CONTINUOUS
 62
     4
  5
53E
 10
242.01425
 20
127.914417
 30
0.0
  0
VERTEX
  8
1
  6
CONTINUOUS
 62
     4
  5
53F
 10
242.204917
 20
128.177833
 30
0.0
  0
VERTEX
  8
1
  6
CONTINUOUS
 62
     4
  5
540
 10
242.450083
 20
128.55925
 30
0.0
  0
VERTEX
  8
1
  6
CONTINUOUS
 62
     4
  5
541
 10
242.477333
 20
128.786333
 30
0.0
  0
VERTEX
  8
1
  6
CONTINUOUS
 62
     4
  5
542
 10
242.8495
 20
128.740917
 30
0.0
  0
VERTEX
  8
1
  6
CONTINUOUS
 62
     4
  5
543
 10
243.131
 20
128.89525
 30
0.0
  0
VERTEX
  8
1
  6
CONTINUOUS
 62
     4
  5
544
 10
243.494167
 20
129.185917
 30
0.0
  0
VERTEX
  8
1
  6
CONTINUOUS
 62
     4
  5
545
 10
243.639417
 20
129.413
 30
0.0
  0
VERTEX
  8
1
  6
CONTINUOUS
 62
     4
  5
546
 10
243.730167
 20
129.594583
 30
0.0
  0
VERTEX
  8
1
  6
CONTINUOUS
 62
     4
  5
547
 10
244.120583
 20
129.730833
 30
0.0
  0
VERTEX
  8
1
  6
CONTINUOUS
 62
     4
  5
548
 10
244.35125
 20
129.829333
 30
0.0
  0
VERTEX
  8
1
  6
CONTINUOUS
 62
     4
  5
549
 10
244.60175
 20
129.794417
 30
0.0
  0
VERTEX
  8
1
  6
CONTINUOUS
 62
     4
  5
54A
 10
244.88325
 20
129.8035
 30
0.0
  0
VERTEX
  8
1
  6
CONTINUOUS
 62
     4
  5
54B
 10
245.2555
 20
129.38575
 30
0.0
  0
VERTEX
  8
1
  6
CONTINUOUS
 62
     4
  5
54C
 10
245.337167
 20
129.240417
 30
0.0
  0
VERTEX
  8
1
  6
CONTINUOUS
 62
     4
  5
54D
 10
245.437083
 20
129.086
 30
0.0
  0
VERTEX
  8
1
  6
CONTINUOUS
 62
     4
  5
54E
 10
246.444833
 20
129.848917
 30
0.0
  0
VERTEX
  8
1
  6
CONTINUOUS
 62
     4
  5
54F
 10
246.644583
 20
128.84075
 30
0.0
  0
VERTEX
  8
1
  6
CONTINUOUS
 62
     4
  5
550
 10
246.671833
 20
128.677333
 30
0.0
  0
VERTEX
  8
1
  6
CONTINUOUS
 62
     4
  5
551
 10
246.60825
 20
127.941667
 30
0.0
  0
VERTEX
  8
1
  6
CONTINUOUS
 62
     4
  5
552
 10
246.717167
 20
127.242333
 30
0.0
  0
VERTEX
  8
1
  6
CONTINUOUS
 62
     4
  5
553
 10
246.844333
 20
126.806417
 30
0.0
  0
VERTEX
  8
1
  6
CONTINUOUS
 62
     4
  5
554
 10
246.989583
 20
126.406833
 30
0.0
  0
VERTEX
  8
1
  6
CONTINUOUS
 62
     4
  5
555
 10
246.9805
 20
125.798333
 30
0.0
  0
VERTEX
  8
1
  6
CONTINUOUS
 62
     4
  5
556
 10
247.143917
 20
125.217083
 30
0.0
  0
VERTEX
  8
1
  6
CONTINUOUS
 62
     4
  5
557
 10
247.218167
 20
124.829333
 30
0.0
  0
SEQEND
  8
1
  6
CONTINUOUS
 62
     4
  5
558
  0
LINE
  8
1
  6
CONTINUOUS
 62
     4
  5
559
 10
240.83975
 20
123.329333
 30
0.0
 11
242.084833
 21
124.829333
 31
0.0
  0
LINE
  8
1
  6
CONTINUOUS
 62
     4
  5
55A
 10
242.139333
 20
123.329333
 30
0.0
 11
242.85125
 21
124.187
 31
0.0
  0
LINE
  8
1
  6
CONTINUOUS
 62
     4
  5
55B
 10
240.83975
 20
124.112167
 30
0.0
 11
241.435
 21
124.829333
 31
0.0
  0
LINE
  8
1
  6
CONTINUOUS
 62
     4
  5
55C
 10
241.4895
 20
123.329333
 30
0.0
 11
242.734583
 21
124.829333
 31
0.0
  0
LINE
  8
1
  6
CONTINUOUS
 62
     4
  5
55D
 10
245.85125
 20
123.887
 30
0.0
 11
246.633417
 21
124.829333
 31
0.0
  0
LINE
  8
1
  6
CONTINUOUS
 62
     4
  5
55E
 10
246.03825
 20
123.329333
 30
0.0
 11
247.218167
 21
124.750833
 31
0.0
  0
LINE
  8
1
  6
CONTINUOUS
 62
     4
  5
55F
 10
246.688
 20
123.329333
 30
0.0
 11
247.218167
 21
123.968
 31
0.0
  0
CIRCLE
  8
1
  6
HIDDEN
 62
     4
  5
560
 10
238.08975
 20
95.829333
 30
0.0
 40
0.75
210
0.0
220
0.0
230
1.0
  0
LINE
  8
1
  6
CONTINUOUS
 62
     4
  5
561
 10
242.85125
 20
116.329333
 30
0.0
 11
242.85125
 21
83.829333
 31
0.0
  0
LINE
  8
1
  6
CONTINUOUS
 62
     4
  5
562
 10
245.85125
 20
116.329333
 30
0.0
 11
245.85125
 21
83.829333
 31
0.0
  0
LINE
  8
1
  6
CONTINUOUS
 62
     4
  5
563
 10
235.83975
 20
92.329333
 30
0.0
 11
239.83975
 21
92.329333
 31
0.0
  0
LINE
  8
1
  6
CONTINUOUS
 62
     4
  5
564
 10
239.83975
 20
92.329333
 30
0.0
 11
239.83975
 21
62.829333
 31
0.0
  0
LINE
  8
1
  6
CONTINUOUS
 62
     4
  5
565
 10
234.83975
 20
93.329333
 30
0.0
 11
235.83975
 21
92.329333
 31
0.0
  0
LINE
  8
1
  6
CONTINUOUS
 62
     4
  5
566
 10
253.285167
 20
119.427583
 30
0.0
 11
263.33975
 21
107.829333
 31
0.0
  0
LINE
  8
1
  6
CONTINUOUS
 62
     4
  5
567
 10
235.83975
 20
62.829333
 30
0.0
 11
250.58975
 21
62.829333
 31
0.0
  0
LINE
  8
1
  6
CONTINUOUS
 62
     4
  5
568
 10
252.58975
 20
62.829333
 30
0.0
 11
267.33975
 21
62.829333
 31
0.0
  0
LINE
  8
1
  6
CONTINUOUS
 62
     4
  5
569
 10
250.58975
 20
64.829333
 30
0.0
 11
250.58975
 21
62.829333
 31
0.0
  0
LINE
  8
1
  6
CONTINUOUS
 62
     4
  5
56A
 10
252.58975
 20
62.829333
 30
0.0
 11
252.58975
 21
60.829333
 31
0.0
  0
LINE
  8
1
  6
CONTINUOUS
 62
     4
  5
56B
 10
252.58975
 20
60.829333
 30
0.0
 11
250.58975
 21
64.829333
 31
0.0
  0
LINE
  8
1
  6
CONTINUOUS
 62
     4
  5
56C
 10
257.85125
 20
68.829333
 30
0.0
 11
265.33975
 21
68.829333
 31
0.0
  0
LINE
  8
1
  6
CONTINUOUS
 62
     4
  5
56D
 10
257.85125
 20
71.829333
 30
0.0
 11
265.33975
 21
71.829333
 31
0.0
  0
LINE
  8
1
  6
CONTINUOUS
 62
     7
  5
56E
 10
257.85125
 20
70.329333
 30
0.0
 11
270.33975
 21
70.329333
 31
0.0
  0
LINE
  8
1
  6
CONTINUOUS
 62
     4
  5
56F
 10
263.33975
 20
107.829333
 30
0.0
 11
263.33975
 21
71.829333
 31
0.0
  0
LINE
  8
1
  6
CONTINUOUS
 62
     4
  5
570
 10
263.33975
 20
68.829333
 30
0.0
 11
263.33975
 21
62.829333
 31
0.0
  0
ARC
  8
1
  6
CONTINUOUS
 62
     4
  5
571
 10
257.85125
 20
83.829333
 30
0.0
 40
15.0
 50
180.0
 51
270.0
210
0.0
220
0.0
230
1.0
  0
ARC
  8
1
  6
CONTINUOUS
 62
     4
  5
572
 10
257.85125
 20
83.829333
 30
0.0
 40
12.0
 50
180.0
 51
270.0
210
0.0
220
0.0
230
1.0
  0
ARC
  8
1
  6
CONTINUOUS
 62
     7
  5
573
 10
257.85125
 20
83.829333
 30
0.0
 40
13.5
 50
180.0
 51
270.0
210
0.0
220
0.0
230
1.0
  0
LINE
  8
1
  6
HIDDEN
 62
     4
  5
574
 10
250.33975
 20
70.829333
 30
0.0
 11
254.33975
 21
70.829333
 31
0.0
  0
LINE
  8
1
  6
HIDDEN
 62
     4
  5
575
 10
250.83975
 20
72.329333
 30
0.0
 11
254.33975
 21
72.329333
 31
0.0
  0
ARC
  8
1
  6
HIDDEN
 62
     4
  5
576
 10
250.33975
 20
73.829333
 30
0.0
 40
3.0
 50
180.0
 51
270.0
210
0.0
220
0.0
230
1.0
  0
ARC
  8
1
  6
HIDDEN
 62
     4
  5
577
 10
250.83975
 20
74.329333
 30
0.0
 40
2.0
 50
180.0
 51
270.0
210
0.0
220
0.0
230
1.0
  0
LINE
  8
1
  6
HIDDEN
 62
     4
  5
578
 10
254.33975
 20
72.329333
 30
0.0
 11
254.33975
 21
70.829333
 31
0.0
  0
LINE
  8
1
  6
CONTINUOUS
 62
     4
  5
579
 10
265.33975
 20
72.079333
 30
0.0
 11
265.33975
 21
68.579333
 31
0.0
  0
LINE
  8
1
  6
CONTINUOUS
 62
     4
  5
57A
 10
269.33975
 20
72.079333
 30
0.0
 11
269.33975
 21
68.579333
 31
0.0
  0
LINE
  8
1
  6
CONTINUOUS
 62
     4
  5
57B
 10
265.33975
 20
72.079333
 30
0.0
 11
269.33975
 21
72.079333
 31
0.0
  0
LINE
  8
1
  6
CONTINUOUS
 62
     4
  5
57C
 10
265.33975
 20
68.579333
 30
0.0
 11
269.33975
 21
68.579333
 31
0.0
  0
LINE
  8
1
  6
CONTINUOUS
 62
     4
  5
57D
 10
269.33975
 20
71.829333
 30
0.0
 11
270.33975
 21
71.829333
 31
0.0
  0
LINE
  8
1
  6
CONTINUOUS
 62
     4
  5
57E
 10
269.33975
 20
68.829333
 30
0.0
 11
270.33975
 21
68.829333
 31
0.0
  0
LINE
  8
1
  6
CONTINUOUS
 62
     7
  5
57F
 10
250.597583
 20
71.579333
 30
0.0
 11
246.855417
 21
71.579333
 31
0.0
  0
LINE
  8
1
  6
CONTINUOUS
 62
     7
  5
580
 10
256.33975
 20
71.579333
 30
0.0
 11
252.597583
 21
71.579333
 31
0.0
  0
LINE
  8
1
  6
CONTINUOUS
 62
     7
  5
581
 10
252.097583
 20
71.579333
 30
0.0
 11
251.097583
 21
71.579333
 31
0.0
  0
POLYLINE
  8
1
  6
CONTINUOUS
 62
     4
  5
582
 66
     1
 10
0.0
 20
0.0
 30
0.0
  0
VERTEX
  8
1
  6
CONTINUOUS
 62
     4
  5
583
 10
239.83975
 20
92.329333
 30
0.0
  0
VERTEX
  8
1
  6
CONTINUOUS
 62
     4
  5
584
 10
240.2945
 20
92.367833
 30
0.0
  0
VERTEX
  8
1
  6
CONTINUOUS
 62
     4
  5
585
 10
240.394472
 20
92.366934
 30
0.0
  0
VERTEX
  8
1
  6
CONTINUOUS
 62
     4
  5
586
 10
240.527826
 20
92.351043
 30
0.0
  0
VERTEX
  8
1
  6
CONTINUOUS
 62
     4
  5
587
 10
240.5945
 20
92.34475
 30
0.0
  0
VERTEX
  8
1
  6
CONTINUOUS
 62
     4
  5
588
 10
240.98675
 20
92.34475
 30
0.0
  0
VERTEX
  8
1
  6
CONTINUOUS
 62
     4
  5
589
 10
241.034949
 20
92.320183
 30
0.0
  0
VERTEX
  8
1
  6
CONTINUOUS
 62
     4
  5
58A
 10
241.091831
 20
92.265748
 30
0.0
  0
VERTEX
  8
1
  6
CONTINUOUS
 62
     4
  5
58B
 10
241.12525
 20
92.252417
 30
0.0
  0
VERTEX
  8
1
  6
CONTINUOUS
 62
     4
  5
58C
 10
241.563667
 20
92.229333
 30
0.0
  0
VERTEX
  8
1
  6
CONTINUOUS
 62
     4
  5
58D
 10
241.725167
 20
92.229333
 30
0.0
  0
VERTEX
  8
1
  6
CONTINUOUS
 62
     4
  5
58E
 10
241.871966
 20
92.255454
 30
0.0
  0
VERTEX
  8
1
  6
CONTINUOUS
 62
     4
  5
58F
 10
242.065288
 20
92.309648
 30
0.0
  0
VERTEX
  8
1
  6
CONTINUOUS
 62
     4
  5
590
 10
242.163667
 20
92.321667
 30
0.0
  0
VERTEX
  8
1
  6
CONTINUOUS
 62
     4
  5
591
 10
242.463583
 20
92.321667
 30
0.0
  0
VERTEX
  8
1
  6
CONTINUOUS
 62
     4
  5
592
 10
242.85125
 20
92.329333
 30
0.0
  0
SEQEND
  8
1
  6
CONTINUOUS
 62
     4
  5
593
  0
POLYLINE
  8
1
  6
CONTINUOUS
 62
     4
  5
594
 66
     1
 10
0.0
 20
0.0
 30
0.0
  0
VERTEX
  8
1
  6
CONTINUOUS
 62
     4
  5
595
 10
245.85125
 20
92.329333
 30
0.0
  0
VERTEX
  8
1
  6
CONTINUOUS
 62
     4
  5
596
 10
246.132667
 20
92.321667
 30
0.0
  0
VERTEX
  8
1
  6
CONTINUOUS
 62
     4
  5
597
 10
246.248083
 20
92.321667
 30
0.0
  0
VERTEX
  8
1
  6
CONTINUOUS
 62
     4
  5
598
 10
246.478833
 20
92.2755
 30
0.0
  0
VERTEX
  8
1
  6
CONTINUOUS
 62
     4
  5
599
 10
246.640333
 20
92.229333
 30
0.0
  0
VERTEX
  8
1
  6
CONTINUOUS
 62
     4
  5
59A
 10
246.89425
 20
92.20625
 30
0.0
  0
VERTEX
  8
1
  6
CONTINUOUS
 62
     4
  5
59B
 10
246.801917
 20
92.06775
 30
0.0
  0
VERTEX
  8
1
  6
CONTINUOUS
 62
     4
  5
59C
 10
246.871167
 20
91.698417
 30
0.0
  0
VERTEX
  8
1
  6
CONTINUOUS
 62
     4
  5
59D
 10
246.871167
 20
91.421417
 30
0.0
  0
VERTEX
  8
1
  6
CONTINUOUS
 62
     4
  5
59E
 10
246.848083
 20
90.95975
 30
0.0
  0
VERTEX
  8
1
  6
CONTINUOUS
 62
     4
  5
59F
 10
246.9865
 20
90.752
 30
0.0
  0
VERTEX
  8
1
  6
CONTINUOUS
 62
     4
  5
5A0
 10
247.171083
 20
90.567333
 30
0.0
  0
VERTEX
  8
1
  6
CONTINUOUS
 62
     4
  5
5A1
 10
247.471083
 20
90.3365
 30
0.0
  0
VERTEX
  8
1
  6
CONTINUOUS
 62
     4
  5
5A2
 10
247.33975
 20
90.329333
 30
0.0
  0
VERTEX
  8
1
  6
CONTINUOUS
 62
     4
  5
5A3
 10
247.771083
 20
90.290333
 30
0.0
  0
VERTEX
  8
1
  6
CONTINUOUS
 62
     4
  5
5A4
 10
248.001833
 20
90.290333
 30
0.0
  0
VERTEX
  8
1
  6
CONTINUOUS
 62
     4
  5
5A5
 10
248.394167
 20
90.290333
 30
0.0
  0
VERTEX
  8
1
  6
CONTINUOUS
 62
     4
  5
5A6
 10
248.786417
 20
90.26725
 30
0.0
  0
VERTEX
  8
1
  6
CONTINUOUS
 62
     4
  5
5A7
 10
249.132583
 20
90.26725
 30
0.0
  0
VERTEX
  8
1
  6
CONTINUOUS
 62
     4
  5
5A8
 10
249.501833
 20
90.359583
 30
0.0
  0
VERTEX
  8
1
  6
CONTINUOUS
 62
     4
  5
5A9
 10
249.94025
 20
90.290333
 30
0.0
  0
VERTEX
  8
1
  6
CONTINUOUS
 62
     4
  5
5AA
 10
250.471
 20
90.198
 30
0.0
  0
VERTEX
  8
1
  6
CONTINUOUS
 62
     4
  5
5AB
 10
250.955583
 20
90.221083
 30
0.0
  0
VERTEX
  8
1
  6
CONTINUOUS
 62
     4
  5
5AC
 10
251.486333
 20
90.382667
 30
0.0
  0
VERTEX
  8
1
  6
CONTINUOUS
 62
     4
  5
5AD
 10
251.901667
 20
90.290333
 30
0.0
  0
VERTEX
  8
1
  6
CONTINUOUS
 62
     4
  5
5AE
 10
252.340167
 20
90.198
 30
0.0
  0
VERTEX
  8
1
  6
CONTINUOUS
 62
     4
  5
5AF
 10
252.732417
 20
90.198
 30
0.0
  0
VERTEX
  8
1
  6
CONTINUOUS
 62
     4
  5
5B0
 10
253.0555
 20
90.26725
 30
0.0
  0
VERTEX
  8
1
  6
CONTINUOUS
 62
     4
  5
5B1
 10
253.35125
 20
90.329333
 30
0.0
  0
VERTEX
  8
1
  6
CONTINUOUS
 62
     4
  5
5B2
 10
253.309333
 20
90.95975
 30
0.0
  0
VERTEX
  8
1
  6
CONTINUOUS
 62
     4
  5
5B3
 10
253.401667
 20
91.075167
 30
0.0
  0
VERTEX
  8
1
  6
CONTINUOUS
 62
     4
  5
5B4
 10
253.793917
 20
91.421417
 30
0.0
  0
VERTEX
  8
1
  6
CONTINUOUS
 62
     4
  5
5B5
 10
253.840083
 20
91.975417
 30
0.0
  0
VERTEX
  8
1
  6
CONTINUOUS
 62
     4
  5
5B6
 10
253.909333
 20
92.090833
 30
0.0
  0
VERTEX
  8
1
  6
CONTINUOUS
 62
     4
  5
5B7
 10
253.85125
 20
92.329333
 30
0.0
  0
VERTEX
  8
1
  6
CONTINUOUS
 62
     4
  5
5B8
 10
254.50925
 20
92.367833
 30
0.0
  0
VERTEX
  8
1
  6
CONTINUOUS
 62
     4
  5
5B9
 10
255.132333
 20
92.321667
 30
0.0
  0
VERTEX
  8
1
  6
CONTINUOUS
 62
     4
  5
5BA
 10
255.778417
 20
92.34475
 30
0.0
  0
VERTEX
  8
1
  6
CONTINUOUS
 62
     4
  5
5BB
 10
256.563
 20
92.437083
 30
0.0
  0
VERTEX
  8
1
  6
CONTINUOUS
 62
     4
  5
5BC
 10
257.139917
 20
92.529417
 30
0.0
  0
VERTEX
  8
1
  6
CONTINUOUS
 62
     4
  5
5BD
 10
257.69375
 20
92.367833
 30
0.0
  0
VERTEX
  8
1
  6
CONTINUOUS
 62
     4
  5
5BE
 10
258.478333
 20
92.321667
 30
0.0
  0
VERTEX
  8
1
  6
CONTINUOUS
 62
     4
  5
5BF
 10
258.986
 20
92.160083
 30
0.0
  0
VERTEX
  8
1
  6
CONTINUOUS
 62
     4
  5
5C0
 10
259.470583
 20
92.021583
 30
0.0
  0
VERTEX
  8
1
  6
CONTINUOUS
 62
     4
  5
5C1
 10
260.324417
 20
92.021583
 30
0.0
  0
VERTEX
  8
1
  6
CONTINUOUS
 62
     4
  5
5C2
 10
260.855167
 20
92.06775
 30
0.0
  0
VERTEX
  8
1
  6
CONTINUOUS
 62
     4
  5
5C3
 10
261.47825
 20
92.20625
 30
0.0
  0
VERTEX
  8
1
  6
CONTINUOUS
 62
     4
  5
5C4
 10
261.755167
 20
92.34475
 30
0.0
  0
VERTEX
  8
1
  6
CONTINUOUS
 62
     4
  5
5C5
 10
262.147417
 20
92.390917
 30
0.0
  0
VERTEX
  8
1
  6
CONTINUOUS
 62
     4
  5
5C6
 10
262.447417
 20
92.414
 30
0.0
  0
VERTEX
  8
1
  6
CONTINUOUS
 62
     4
  5
5C7
 10
263.33975
 20
92.329333
 30
0.0
  0
SEQEND
  8
1
  6
CONTINUOUS
 62
     4
  5
5C8
  0
LINE
  8
1
  6
CONTINUOUS
 62
     7
  5
5C9
 10
244.35125
 20
114.586917
 30
0.0
 11
244.35125
 21
102.894167
 31
0.0
  0
LINE
  8
1
  6
CONTINUOUS
 62
     7
  5
5CA
 10
244.35125
 20
102.394167
 30
0.0
 11
244.35125
 21
101.394167
 31
0.0
  0
LINE
  8
1
  6
CONTINUOUS
 62
     7
  5
5CB
 10
244.35125
 20
100.894167
 30
0.0
 11
244.35125
 21
83.829333
 31
0.0
  0
LINE
  8
1
  6
CONTINUOUS
 62
     7
  5
5CC
 10
238.08975
 20
128.329333
 30
0.0
 11
238.08975
 21
119.0575
 31
0.0
  0
LINE
  8
1
  6
CONTINUOUS
 62
     7
  5
5CD
 10
238.08975
 20
118.5575
 30
0.0
 11
238.08975
 21
117.5575
 31
0.0
  0
LINE
  8
1
  6
CONTINUOUS
 62
     7
  5
5CE
 10
238.08975
 20
117.0575
 30
0.0
 11
238.08975
 21
103.217667
 31
0.0
  0
LINE
  8
1
  6
CONTINUOUS
 62
     7
  5
5CF
 10
238.08975
 20
102.717667
 30
0.0
 11
238.08975
 21
101.717667
 31
0.0
  0
LINE
  8
1
  6
CONTINUOUS
 62
     7
  5
5D0
 10
238.08975
 20
101.217667
 30
0.0
 11
238.08975
 21
92.796917
 31
0.0
  0
LINE
  8
1
  6
CONTINUOUS
 62
     7
  5
5D1
 10
236.08975
 20
95.829333
 30
0.0
 11
240.08975
 21
95.829333
 31
0.0
  0
LINE
  8
1
  6
CONTINUOUS
 62
     7
  5
5D2
 10
248.08975
 20
128.329333
 30
0.0
 11
248.08975
 21
111.15775
 31
0.0
  0
LINE
  8
1
  6
CONTINUOUS
 62
     7
  5
5D3
 10
248.08975
 20
110.65775
 30
0.0
 11
248.08975
 21
109.65775
 31
0.0
  0
LINE
  8
1
  6
CONTINUOUS
 62
     7
  5
5D4
 10
248.08975
 20
109.15775
 30
0.0
 11
248.08975
 21
85.994917
 31
0.0
  0
LINE
  8
1
  6
CONTINUOUS
 62
     7
  5
5D5
 10
248.08975
 20
85.494917
 30
0.0
 11
248.08975
 21
84.494917
 31
0.0
  0
LINE
  8
1
  6
CONTINUOUS
 62
     7
  5
5D6
 10
248.08975
 20
83.994917
 30
0.0
 11
248.08975
 21
71.579333
 31
0.0
  0
LINE
  8
1
  6
CONTINUOUS
 62
     7
  5
5D7
 10
239.96475
 20
174.802083
 30
0.0
 11
239.96475
 21
172.802083
 31
0.0
  0
LINE
  8
1
  6
CONTINUOUS
 62
     4
  5
5D8
 10
235.08975
 20
143.079333
 30
0.0
 11
235.96475
 21
224.579333
 31
0.0
  0
LINE
  8
1
  6
CONTINUOUS
 62
     4
  5
5D9
 10
244.83975
 20
143.079333
 30
0.0
 11
243.96475
 21
224.579333
 31
0.0
  0
LINE
  8
1
  6
CONTINUOUS
 62
     4
  5
5DA
 10
310.83975
 20
143.079333
 30
0.0
 11
325.83975
 21
143.079333
 31
0.0
  0
LINE
  8
1
  6
CONTINUOUS
 62
     4
  5
5DB
 10
310.33975
 20
141.329333
 30
0.0
 11
326.33975
 21
141.329333
 31
0.0
  0
LINE
  8
1
  6
CONTINUOUS
 62
     4
  5
5DC
 10
310.33975
 20
140.329333
 30
0.0
 11
326.33975
 21
140.329333
 31
0.0
  0
LINE
  8
1
  6
CONTINUOUS
 62
     4
  5
5DD
 10
310.83975
 20
143.079333
 30
0.0
 11
310.83975
 21
141.329333
 31
0.0
  0
LINE
  8
1
  6
CONTINUOUS
 62
     4
  5
5DE
 10
325.83975
 20
143.079333
 30
0.0
 11
325.83975
 21
141.329333
 31
0.0
  0
LINE
  8
1
  6
CONTINUOUS
 62
     4
  5
5DF
 10
312.33975
 20
143.829333
 30
0.0
 11
312.33975
 21
139.079333
 31
0.0
  0
LINE
  8
1
  6
CONTINUOUS
 62
     4
  5
5E0
 10
323.83975
 20
143.829333
 30
0.0
 11
323.83975
 21
139.079333
 31
0.0
  0
LINE
  8
1
  6
CONTINUOUS
 62
     4
  5
5E1
 10
316.96475
 20
226.579333
 30
0.0
 11
316.96475
 21
224.579333
 31
0.0
  0
LINE
  8
1
  6
CONTINUOUS
 62
     4
  5
5E2
 10
318.96475
 20
224.579333
 30
0.0
 11
318.96475
 21
222.579333
 31
0.0
  0
LINE
  8
1
  6
CONTINUOUS
 62
     4
  5
5E3
 10
318.96475
 20
222.579333
 30
0.0
 11
316.96475
 21
226.579333
 31
0.0
  0
LINE
  8
1
  6
CONTINUOUS
 62
     7
  5
5E4
 10
317.96475
 20
175.802083
 30
0.0
 11
317.96475
 21
221.68975
 31
0.0
  0
LINE
  8
1
  6
CONTINUOUS
 62
     4
  5
5E5
 10
311.96475
 20
224.579333
 30
0.0
 11
316.96475
 21
224.579333
 31
0.0
  0
LINE
  8
1
  6
CONTINUOUS
 62
     4
  5
5E6
 10
318.96475
 20
224.579333
 30
0.0
 11
323.96475
 21
224.579333
 31
0.0
  0
LINE
  8
1
  6
CONTINUOUS
 62
     7
  5
5E7
 10
317.96475
 20
174.802083
 30
0.0
 11
317.96475
 21
172.802083
 31
0.0
  0
LINE
  8
1
  6
CONTINUOUS
 62
     4
  5
5E8
 10
313.08975
 20
143.079333
 30
0.0
 11
313.96475
 21
224.579333
 31
0.0
  0
LINE
  8
1
  6
CONTINUOUS
 62
     4
  5
5E9
 10
322.83975
 20
143.079333
 30
0.0
 11
321.96475
 21
224.579333
 31
0.0
  0
LINE
  8
1
  6
CONTINUOUS
 62
     4
  5
5EA
 10
310.33975
 20
141.329333
 30
0.0
 11
310.33975
 21
119.829333
 31
0.0
  0
LINE
  8
1
  6
CONTINUOUS
 62
     4
  5
5EB
 10
326.33975
 20
141.329333
 30
0.0
 11
326.33975
 21
119.829333
 31
0.0
  0
LINE
  8
1
  6
CONTINUOUS
 62
     4
  5
5EC
 10
308.33975
 20
119.829333
 30
0.0
 11
328.33975
 21
119.829333
 31
0.0
  0
LINE
  8
1
  6
CONTINUOUS
 62
     4
  5
5ED
 10
308.33975
 20
141.329333
 30
0.0
 11
308.33975
 21
119.829333
 31
0.0
  0
LINE
  8
1
  6
CONTINUOUS
 62
     4
  5
5EE
 10
328.33975
 20
141.329333
 30
0.0
 11
328.33975
 21
119.829333
 31
0.0
  0
LINE
  8
1
  6
CONTINUOUS
 62
     4
  5
5EF
 10
308.33975
 20
141.329333
 30
0.0
 11
278.33975
 21
141.329333
 31
0.0
  0
LINE
  8
1
  6
CONTINUOUS
 62
     4
  5
5F0
 10
328.33975
 20
141.329333
 30
0.0
 11
343.83975
 21
141.329333
 31
0.0
  0
LINE
  8
1
  6
CONTINUOUS
 62
     4
  5
5F1
 10
314.08975
 20
138.829333
 30
0.0
 11
322.58975
 21
138.829333
 31
0.0
  0
LINE
  8
1
  6
CONTINUOUS
 62
     4
  5
5F2
 10
314.08975
 20
138.829333
 30
0.0
 11
314.08975
 21
122.079333
 31
0.0
  0
LINE
  8
1
  6
CONTINUOUS
 62
     4
  5
5F3
 10
322.58975
 20
138.829333
 30
0.0
 11
322.58975
 21
122.079333
 31
0.0
  0
LINE
  8
1
  6
CONTINUOUS
 62
     4
  5
5F4
 10
310.33975
 20
121.079333
 30
0.0
 11
326.33975
 21
121.079333
 31
0.0
  0
LINE
  8
1
  6
CONTINUOUS
 62
     4
  5
5F5
 10
314.08975
 20
122.079333
 30
0.0
 11
322.58975
 21
122.079333
 31
0.0
  0
LINE
  8
1
  6
CONTINUOUS
 62
     7
  5
5F6
 10
312.33975
 20
123.079333
 30
0.0
 11
312.33975
 21
114.329333
 31
0.0
  0
LINE
  8
1
  6
CONTINUOUS
 62
     7
  5
5F7
 10
323.83975
 20
123.079333
 30
0.0
 11
323.83975
 21
114.329333
 31
0.0
  0
CIRCLE
  8
1
  6
CONTINUOUS
 62
     4
  5
5F8
 10
314.58975
 20
138.329333
 30
0.0
 40
0.25
210
0.0
220
0.0
230
1.0
  0
CIRCLE
  8
1
  6
CONTINUOUS
 62
     4
  5
5F9
 10
322.08975
 20
138.329333
 30
0.0
 40
0.25
210
0.0
220
0.0
230
1.0
  0
CIRCLE
  8
1
  6
CONTINUOUS
 62
     4
  5
5FA
 10
322.08975
 20
122.579333
 30
0.0
 40
0.25
210
0.0
220
0.0
230
1.0
  0
CIRCLE
  8
1
  6
CONTINUOUS
 62
     4
  5
5FB
 10
314.58975
 20
122.579333
 30
0.0
 40
0.25
210
0.0
220
0.0
230
1.0
  0
LINE
  8
1
  6
CONTINUOUS
 62
     7
  5
5FC
 10
311.58975
 20
138.329333
 30
0.0
 11
317.58975
 21
138.329333
 31
0.0
  0
LINE
  8
1
  6
CONTINUOUS
 62
     7
  5
5FD
 10
319.08975
 20
138.329333
 30
0.0
 11
325.08975
 21
138.329333
 31
0.0
  0
LINE
  8
1
  6
CONTINUOUS
 62
     7
  5
5FE
 10
311.58975
 20
122.579333
 30
0.0
 11
317.58975
 21
122.579333
 31
0.0
  0
LINE
  8
1
  6
CONTINUOUS
 62
     7
  5
5FF
 10
319.08975
 20
122.579333
 30
0.0
 11
325.08975
 21
122.579333
 31
0.0
  0
LINE
  8
1
  6
CONTINUOUS
 62
     7
  5
600
 10
314.58975
 20
139.329333
 30
0.0
 11
314.58975
 21
137.329333
 31
0.0
  0
LINE
  8
1
  6
CONTINUOUS
 62
     7
  5
601
 10
314.58975
 20
123.579333
 30
0.0
 11
314.58975
 21
121.579333
 31
0.0
  0
LINE
  8
1
  6
CONTINUOUS
 62
     7
  5
602
 10
322.08975
 20
139.329333
 30
0.0
 11
322.08975
 21
137.329333
 31
0.0
  0
LINE
  8
1
  6
CONTINUOUS
 62
     7
  5
603
 10
322.08975
 20
123.579333
 30
0.0
 11
322.08975
 21
121.579333
 31
0.0
  0
LINE
  8
1
  6
CONTINUOUS
 62
     4
  5
604
 10
276.33975
 20
128.329333
 30
0.0
 11
278.33975
 21
128.329333
 31
0.0
  0
LINE
  8
1
  6
CONTINUOUS
 62
     4
  5
605
 10
278.33975
 20
130.329333
 30
0.0
 11
280.33975
 21
130.329333
 31
0.0
  0
LINE
  8
1
  6
CONTINUOUS
 62
     4
  5
606
 10
280.33975
 20
130.329333
 30
0.0
 11
276.33975
 21
128.329333
 31
0.0
  0
LINE
  8
1
  6
CONTINUOUS
 62
     4
  5
607
 10
341.83975
 20
128.329333
 30
0.0
 11
343.83975
 21
128.329333
 31
0.0
  0
LINE
  8
1
  6
CONTINUOUS
 62
     4
  5
608
 10
343.83975
 20
130.329333
 30
0.0
 11
345.83975
 21
130.329333
 31
0.0
  0
LINE
  8
1
  6
CONTINUOUS
 62
     4
  5
609
 10
345.83975
 20
130.329333
 30
0.0
 11
341.83975
 21
128.329333
 31
0.0
  0
LINE
  8
1
  6
CONTINUOUS
 62
     4
  5
60A
 10
278.33975
 20
143.329333
 30
0.0
 11
278.33975
 21
130.329333
 31
0.0
  0
LINE
  8
1
  6
CONTINUOUS
 62
     4
  5
60B
 10
278.33975
 20
128.329333
 30
0.0
 11
278.33975
 21
115.329333
 31
0.0
  0
LINE
  8
1
  6
CONTINUOUS
 62
     4
  5
60C
 10
343.83975
 20
143.329333
 30
0.0
 11
343.83975
 21
130.329333
 31
0.0
  0
LINE
  8
1
  6
CONTINUOUS
 62
     4
  5
60D
 10
343.83975
 20
128.329333
 30
0.0
 11
343.83975
 21
115.329333
 31
0.0
  0
LINE
  8
1
  6
CONTINUOUS
 62
     7
  5
60E
 10
329.33975
 20
119.829333
 30
0.0
 11
342.83975
 21
119.829333
 31
0.0
  0
LINE
  8
1
  6
CONTINUOUS
 62
     7
  5
60F
 10
336.08975
 20
119.829333
 30
0.0
 11
336.08975
 21
141.329333
 31
0.0
  0
LINE
  8
1
  6
CONTINUOUS
 62
     7
  5
610
 10
328.33975
 20
118.829333
 30
0.0
 11
328.33975
 21
109.829333
 31
0.0
  0
LINE
  8
1
  6
CONTINUOUS
 62
     7
  5
611
 10
308.33975
 20
118.829333
 30
0.0
 11
308.33975
 21
109.829333
 31
0.0
  0
LINE
  8
1
  6
CONTINUOUS
 62
     7
  5
612
 10
308.33975
 20
110.829333
 30
0.0
 11
328.33975
 21
110.829333
 31
0.0
  0
INSERT
  8
1
  6
CONTINUOUS
 62
     1
  5
613
  2
LDR
 10
308.33975
 20
110.829333
 30
0.0
 41
240.0
 42
240.0
 50
180.0
210
0.0
220
0.0
230
1.0
  0
INSERT
  8
1
  6
CONTINUOUS
 62
     1
  5
614
  2
LDR
 10
308.33975
 20
110.829333
 30
0.0
 41
240.0
 42
240.0
 50
180.0
210
0.0
220
0.0
230
1.0
  0
INSERT
  8
1
  6
CONTINUOUS
 62
     1
  5
615
  2
LDR
 10
328.33975
 20
110.829333
 30
0.0
 41
240.0
 42
240.0
210
0.0
220
0.0
230
1.0
  0
INSERT
  8
1
  6
CONTINUOUS
 62
     1
  5
616
  2
LDR
 10
328.33975
 20
110.829333
 30
0.0
 41
240.0
 42
240.0
210
0.0
220
0.0
230
1.0
  0
INSERT
  8
1
  6
CONTINUOUS
 62
     1
  5
617
  2
LDR
 10
336.08975
 20
141.329333
 30
0.0
 41
240.0
 42
240.0
 50
90.0
210
0.0
220
0.0
230
1.0
  0
INSERT
  8
1
  6
CONTINUOUS
 62
     1
  5
618
  2
LDR
 10
336.08975
 20
141.329333
 30
0.0
 41
240.0
 42
240.0
 50
90.0
210
0.0
220
0.0
230
1.0
  0
INSERT
  8
1
  6
CONTINUOUS
 62
     1
  5
619
  2
LDR
 10
336.08975
 20
119.829333
 30
0.0
 41
240.0
 42
240.0
 50
270.0
210
0.0
220
0.0
230
1.0
  0
LINE
  8
1
  6
CONTINUOUS
 62
     7
  5
61A
 10
317.96475
 20
117.329333
 30
0.0
 11
317.96475
 21
129.454333
 31
0.0
  0
LINE
  8
1
  6
CONTINUOUS
 62
     7
  5
61B
 10
317.96475
 20
129.954333
 30
0.0
 11
317.96475
 21
130.954333
 31
0.0
  0
LINE
  8
1
  6
CONTINUOUS
 62
     7
  5
61C
 10
301.94975
 20
141.624417
 30
0.0
 11
309.00825
 21
151.312417
 31
0.0
  0
LINE
  8
1
  6
CONTINUOUS
 62
     7
  5
61D
 10
309.00825
 20
151.312417
 30
0.0
 11
303.59125
 21
151.312417
 31
0.0
  0
INSERT
  8
1
  6
CONTINUOUS
 62
     1
  5
61E
  2
LDR
 10
301.94975
 20
141.624417
 30
0.0
 41
240.0
 42
240.0
 50
233.923601
210
0.0
220
0.0
230
1.0
  0
LINE
  8
1
  6
CONTINUOUS
 62
     4
  5
61F
 10
316.46475
 20
157.579333
 30
0.0
 11
316.46475
 21
161.579333
 31
0.0
  0
LINE
  8
1
  6
CONTINUOUS
 62
     4
  5
620
 10
319.46475
 20
157.579333
 30
0.0
 11
319.46475
 21
161.579333
 31
0.0
  0
LINE
  8
1
  6
CONTINUOUS
 62
     7
  5
621
 10
317.96475
 20
163.079333
 30
0.0
 11
317.96475
 21
171.802083
 31
0.0
  0
LINE
  8
1
  6
CONTINUOUS
 62
     7
  5
622
 10
317.96475
 20
131.454333
 30
0.0
 11
317.96475
 21
156.079333
 31
0.0
  0
LINE
  8
1
  6
CONTINUOUS
 62
     7
  5
623
 10
317.96475
 20
156.079333
 30
0.0
 11
317.96475
 21
163.079333
 31
0.0
  0
ARC
  8
1
  6
CONTINUOUS
 62
     4
  5
624
 10
317.96475
 20
161.579333
 30
0.0
 40
1.5
 50
0.0
 51
180.0
210
0.0
220
0.0
230
1.0
  0
ARC
  8
1
  6
CONTINUOUS
 62
     4
  5
625
 10
317.96475
 20
157.579333
 30
0.0
 40
1.5
 50
180.0
 51
360.0
210
0.0
220
0.0
230
1.0
  0
TEXT
  8
1
  6
CONTINUOUS
 62
     7
  5
626
 10
277.030583
 20
150.004583
 30
0.0
 40
2.5
  1
TOP OF WALL
  7
MONOTXT
 72
     4
 11
290.445917
 21
151.254583
 31
0.0
210
0.0
220
0.0
230
1.0
  0
TEXT
  8
1
  6
CONTINUOUS
 62
     7
  5
627
 10
314.781667
 20
111.68075
 30
0.0
 40
2.5
  1
1'-3"
  7
MONOTXT
 72
     4
 11
318.7875
 21
112.93075
 31
0.0
210
0.0
220
0.0
230
1.0
  0
TEXT
  8
1
  6
CONTINUOUS
 62
     7
  5
628
 10
313.206833
 20
107.18075
 30
0.0
 40
2.5
  1
(TYP.)
  7
MONOTXT
 72
     4
 11
318.7875
 21
108.43075
 31
0.0
210
0.0
220
0.0
230
1.0
  0
TEXT
  8
1
  6
CONTINUOUS
 62
     7
  5
629
 10
329.973167
 20
109.43075
 30
0.0
 40
2.5
  1
WALL NICHE
  7
MONOTXT
 72
     4
 11
341.085333
 21
110.68075
 31
0.0
210
0.0
220
0.0
230
1.0
  0
TEXT
  8
1
  6
CONTINUOUS
 62
     7
  5
62A
 10
263.783833
 20
186.051417
 30
0.0
 40
2.5
  1
LIGHTING POLE
  7
MONOTXT
 72
     4
 11
277.84875
 21
187.301417
 31
0.0
210
0.0
220
0.0
230
1.0
  0
CIRCLE
  8
1
  6
CONTINUOUS
 62
     7
  5
62B
 10
315.578
 20
172.074333
 30
0.0
 40
0.25
210
0.0
220
0.0
230
1.0
  0
CIRCLE
  8
1
  6
CONTINUOUS
 62
     7
  5
62C
 10
242.129917
 20
172.029917
 30
0.0
 40
0.25
210
0.0
220
0.0
230
1.0
  0
LINE
  8
1
  6
CONTINUOUS
 62
     7
  5
62D
 10
252.3635
 20
187.43575
 30
0.0
 11
262.96625
 21
187.43575
 31
0.0
  0
LINE
  8
1
  6
CONTINUOUS
 62
     7
  5
62E
 10
292.316833
 20
187.43575
 30
0.0
 11
305.566
 21
187.43575
 31
0.0
  0
LINE
  8
1
  6
CONTINUOUS
 62
     7
  5
62F
 10
242.129917
 20
172.029917
 30
0.0
 11
252.3635
 21
187.43575
 31
0.0
  0
LINE
  8
1
  6
CONTINUOUS
 62
     7
  5
630
 10
315.828
 20
172.074333
 30
0.0
 11
305.566
 21
187.43575
 31
0.0
  0
TEXT
  8
1
  6
CONTINUOUS
 62
     7
  5
631
 10
335.80025
 20
126.239667
 30
0.0
 40
2.5
  1
1'-5"
 50
90.0
  7
MONOTXT
 72
     4
 11
334.55025
 21
130.2455
 31
0.0
210
0.0
220
0.0
230
1.0
  0
CIRCLE
  8
1
  6
CONTINUOUS
 62
     7
  5
632
 10
245.06275
 20
77.67075
 30
0.0
 40
0.25
210
0.0
220
0.0
230
1.0
  0
CIRCLE
  8
1
  6
CONTINUOUS
 62
     7
  5
633
 10
236.557333
 20
133.277917
 30
0.0
 40
0.25
210
0.0
220
0.0
230
1.0
  0
CIRCLE
  8
1
  6
CONTINUOUS
 62
     7
  5
634
 10
267.401833
 20
69.506083
 30
0.0
 40
0.25
210
0.0
220
0.0
230
1.0
  0
LINE
  8
1
  6
CONTINUOUS
 62
     7
  5
635
 10
245.83975
 20
155.632333
 30
0.0
 11
254.143917
 21
161.516417
 31
0.0
  0
LINE
  8
1
  6
CONTINUOUS
 62
     7
  5
636
 10
254.143917
 20
161.516417
 30
0.0
 11
257.240667
 21
161.516417
 31
0.0
  0
INSERT
  8
1
  6
CONTINUOUS
 62
     1
  5
637
  2
LDR
 10
245.83975
 20
155.632333
 30
0.0
 41
239.999999
 42
239.999999
 50
215.320242
210
0.0
220
0.0
230
1.0
  0
LINE
  8
1
  6
CONTINUOUS
 62
     7
  5
638
 10
235.058917
 20
155.632333
 30
0.0
 11
226.75475
 21
161.516417
 31
0.0
  0
LINE
  8
1
  6
CONTINUOUS
 62
     7
  5
639
 10
226.75475
 20
161.516417
 30
0.0
 11
223.658
 21
161.516417
 31
0.0
  0
INSERT
  8
1
  6
CONTINUOUS
 62
     1
  5
63A
  2
LDR
 10
235.058917
 20
155.632333
 30
0.0
 41
239.999999
 42
-239.999999
 50
324.679758
210
0.0
220
0.0
230
1.0
  0
LINE
  8
1
  6
CONTINUOUS
 62
     7
  5
63B
 10
236.807333
 20
133.277917
 30
0.0
 11
223.038583
 21
137.14725
 31
0.0
  0
LINE
  8
1
  6
CONTINUOUS
 62
     7
  5
63C
 10
253.404167
 20
123.329333
 30
0.0
 11
262.404167
 21
123.329333
 31
0.0
  0
LINE
  8
1
  6
CONTINUOUS
 62
     7
  5
63D
 10
252.613833
 20
126.829333
 30
0.0
 11
262.404167
 21
126.829333
 31
0.0
  0
LINE
  8
1
  6
CONTINUOUS
 62
     7
  5
63E
 10
261.404167
 20
126.829333
 30
0.0
 11
261.404167
 21
131.829333
 31
0.0
  0
LINE
  8
1
  6
CONTINUOUS
 62
     7
  5
63F
 10
261.404167
 20
123.329333
 30
0.0
 11
261.404167
 21
118.329333
 31
0.0
  0
INSERT
  8
1
  6
CONTINUOUS
 62
     1
  5
640
  2
LDR
 10
261.404167
 20
126.829333
 30
0.0
 41
240.0
 42
240.0
 50
270.0
210
0.0
220
0.0
230
1.0
  0
INSERT
  8
1
  6
CONTINUOUS
 62
     1
  5
641
  2
LDR
 10
261.404167
 20
126.829333
 30
0.0
 41
240.0
 42
240.0
 50
270.0
210
0.0
220
0.0
230
1.0
  0
INSERT
  8
1
  6
CONTINUOUS
 62
     1
  5
642
  2
LDR
 10
261.404167
 20
123.329333
 30
0.0
 41
240.0
 42
240.0
 50
90.0
210
0.0
220
0.0
230
1.0
  0
LINE
  8
1
  6
CONTINUOUS
 62
     7
  5
643
 10
234.83975
 20
92.329333
 30
0.0
 11
204.83975
 21
92.329333
 31
0.0
  0
LINE
  8
1
  6
CONTINUOUS
 62
     7
  5
644
 10
239.83975
 20
86.05225
 30
0.0
 11
219.958167
 21
86.05225
 31
0.0
  0
LINE
  8
1
  6
CONTINUOUS
 62
     7
  5
645
 10
242.85125
 20
86.05225
 30
0.0
 11
250.85125
 21
86.05225
 31
0.0
  0
INSERT
  8
1
  6
CONTINUOUS
 62
     1
  5
646
  2
LDR
 10
239.83975
 20
86.05225
 30
0.0
 41
240.0
 42
240.0
210
0.0
220
0.0
230
1.0
  0
INSERT
  8
1
  6
CONTINUOUS
 62
     1
  5
647
  2
LDR
 10
239.83975
 20
86.05225
 30
0.0
 41
240.0
 42
240.0
210
0.0
220
0.0
230
1.0
  0
INSERT
  8
1
  6
CONTINUOUS
 62
     1
  5
648
  2
LDR
 10
242.85125
 20
86.05225
 30
0.0
 41
240.0
 42
240.0
 50
180.0
210
0.0
220
0.0
230
1.0
  0
LINE
  8
1
  6
CONTINUOUS
 62
     7
  5
649
 10
245.06275
 20
77.67075
 30
0.0
 11
230.529667
 21
73.454417
 31
0.0
  0
LINE
  8
1
  6
CONTINUOUS
 62
     7
  5
64A
 10
267.151833
 20
69.506083
 30
0.0
 11
257.266167
 21
57.0165
 31
0.0
  0
CIRCLE
  8
1
  6
CONTINUOUS
 62
     7
  5
64B
 10
220.038583
 20
137.14725
 30
0.0
 40
3.0
210
0.0
220
0.0
230
1.0
  0
CIRCLE
  8
1
  6
CONTINUOUS
 62
     7
  5
64C
 10
227.529667
 20
73.454417
 30
0.0
 40
3.0
210
0.0
220
0.0
230
1.0
  0
CIRCLE
  8
1
  6
CONTINUOUS
 62
     7
  5
64D
 10
257.266167
 20
54.0165
 30
0.0
 40
3.0
210
0.0
220
0.0
230
1.0
  0
TEXT
  8
1
  6
CONTINUOUS
 62
     7
  5
64E
 10
182.261833
 20
159.873583
 30
0.0
 40
2.5
  1
GROUND CONNECTOR
  7
MONOTXT
 72
     4
 11
202.173167
 21
161.123583
 31
0.0
210
0.0
220
0.0
230
1.0
  0
TEXT
  8
1
  6
CONTINUOUS
 62
     7
  5
64F
 10
258.681
 20
160.47575
 30
0.0
 40
2.5
  1
HANDHOLE
  7
MONOTXT
 72
     4
 11
268.080583
 21
161.72575
 31
0.0
210
0.0
220
0.0
230
1.0
  0
TEXT
  8
1
  6
CONTINUOUS
 62
     7
  5
650
 10
219.323083
 20
135.790083
 30
0.0
 40
2.5
  1
1
  7
MONOTXT
 72
     4
 11
219.618333
 21
137.040083
 31
0.0
210
0.0
220
0.0
230
1.0
  0
TEXT
  8
1
  6
CONTINUOUS
 62
     7
  5
651
 10
206.044
 20
93.643833
 30
0.0
 40
2.5
  1
CONS'T JOINT
  7
MONOTXT
 72
     4
 11
219.02625
 21
94.893833
 31
0.0
210
0.0
220
0.0
230
1.0
  0
TEXT
  8
1
  6
CONTINUOUS
 62
     7
  5
652
 10
221.657
 20
87.1635
 30
0.0
 40
2.5
  1
3" MIN.
  7
MONOTXT
 72
     4
 11
228.04475
 21
88.4135
 31
0.0
210
0.0
220
0.0
230
1.0
  0
TEXT
  8
1
  6
CONTINUOUS
 62
     7
  5
653
 10
222.02125
 20
82.6635
 30
0.0
 40
2.5
  1
COVER
  7
MONOTXT
 72
     4
 11
228.054667
 21
83.9135
 31
0.0
210
0.0
220
0.0
230
1.0
  0
TEXT
  8
1
  6
CONTINUOUS
 62
     7
  5
654
 10
226.61625
 20
72.269667
 30
0.0
 40
2.5
  1
3
  7
MONOTXT
 72
     4
 11
227.452833
 21
73.519667
 31
0.0
210
0.0
220
0.0
230
1.0
  0
TEXT
  8
1
  6
CONTINUOUS
 62
     7
  5
655
 10
256.409917
 20
53.002833
 30
0.0
 40
2.5
  1
2
  7
MONOTXT
 72
     4
 11
257.2465
 21
54.252833
 31
0.0
210
0.0
220
0.0
230
1.0
  0
TEXT
  8
1
  6
CONTINUOUS
 62
     7
  5
656
 10
262.55475
 20
132.707833
 30
0.0
 40
2.5
  1
3"
 50
90.0
  7
MONOTXT
 72
     4
 11
261.30475
 21
134.469667
 31
0.0
210
0.0
220
0.0
230
1.0
  0
LINE
  8
1
  6
CONTINUOUS
 62
     7
  5
657
 10
194.185167
 20
32.739417
 30
0.0
 11
330.092833
 21
32.739417
 31
0.0
  0
LINE
  8
1
  6
CONTINUOUS
 62
     7
  5
658
 10
300.117583
 20
89.478583
 30
0.0
 11
335.129333
 21
89.478583
 31
0.0
  0
TEXT
  8
1
  6
CONTINUOUS
 62
     7
  5
659
 10
301.712
 20
91.411583
 30
0.0
 40
4.0
  1
ELEVATION
  7
MONOTXT
 72
     4
 11
317.50725
 21
93.411583
 31
0.0
210
0.0
220
0.0
230
1.0
  0
TEXT
  8
1
  6
CONTINUOUS
 62
     7
  5
65A
 10
195.225833
 20
34.672417
 30
0.0
 40
4.0
  1
TYPE "F" INSTALLATION DETAILS ON WALL
  7
MONOTXT
 72
     4
 11
262.233667
 21
36.672417
 31
0.0
210
0.0
220
0.0
230
1.0
  0
LINE
  8
1
  6
CONTINUOUS
 62
     3
  5
65B
 10
483.270333
 20
120.37775
 30
0.0
 11
483.270333
 21
114.37775
 31
0.0
  0
LINE
  8
1
  6
CONTINUOUS
 62
     3
  5
65C
 10
387.770333
 20
114.37775
 30
0.0
 11
424.270333
 21
114.37775
 31
0.0
  0
LINE
  8
1
  6
CONTINUOUS
 62
     3
  5
65D
 10
392.770333
 20
120.37775
 30
0.0
 11
419.270333
 21
120.37775
 31
0.0
  0
LINE
  8
1
  6
CONTINUOUS
 62
     3
  5
65E
 10
457.770333
 20
114.37775
 30
0.0
 11
483.270333
 21
114.37775
 31
0.0
  0
LINE
  8
1
  6
CONTINUOUS
 62
     3
  5
65F
 10
462.770333
 20
120.37775
 30
0.0
 11
483.270333
 21
120.37775
 31
0.0
  0
LINE
  8
1
  6
CONTINUOUS
 62
     3
  5
660
 10
383.770333
 20
179.37775
 30
0.0
 11
389.770333
 21
179.37775
 31
0.0
  0
LINE
  8
1
  6
CONTINUOUS
 62
     3
  5
661
 10
422.270333
 20
179.37775
 30
0.0
 11
428.270333
 21
179.37775
 31
0.0
  0
LINE
  8
1
  6
CONTINUOUS
 62
     3
  5
662
 10
453.770333
 20
179.37775
 30
0.0
 11
459.770333
 21
179.37775
 31
0.0
  0
ARC
  8
1
  6
CONTINUOUS
 62
     3
  5
663
 10
392.770333
 20
123.37775
 30
0.0
 40
3.0
 50
180.0
 51
270.0
210
0.0
220
0.0
230
1.0
  0
ARC
  8
1
  6
CONTINUOUS
 62
     3
  5
664
 10
387.770333
 20
118.37775
 30
0.0
 40
4.0
 50
180.0
 51
270.0
210
0.0
220
0.0
230
1.0
  0
ARC
  8
1
  6
CONTINUOUS
 62
     3
  5
665
 10
424.270333
 20
118.37775
 30
0.0
 40
4.0
 50
270.0
 51
0.0
210
0.0
220
0.0
230
1.0
  0
ARC
  8
1
  6
CONTINUOUS
 62
     3
  5
666
 10
457.770333
 20
118.37775
 30
0.0
 40
4.0
 50
180.0
 51
270.0
210
0.0
220
0.0
230
1.0
  0
ARC
  8
1
  6
CONTINUOUS
 62
     3
  5
667
 10
419.270333
 20
123.37775
 30
0.0
 40
3.0
 50
270.0
 51
0.0
210
0.0
220
0.0
230
1.0
  0
ARC
  8
1
  6
CONTINUOUS
 62
     3
  5
668
 10
462.770333
 20
123.37775
 30
0.0
 40
3.0
 50
180.0
 51
270.0
210
0.0
220
0.0
230
1.0
  0
LINE
  8
1
  6
CONTINUOUS
 62
     3
  5
669
 10
383.770333
 20
179.37775
 30
0.0
 11
383.770333
 21
133.37775
 31
0.0
  0
LINE
  8
1
  6
CONTINUOUS
 62
     3
  5
66A
 10
383.770333
 20
130.37775
 30
0.0
 11
383.770333
 21
118.37775
 31
0.0
  0
LINE
  8
1
  6
CONTINUOUS
 62
     3
  5
66B
 10
389.770333
 20
179.37775
 30
0.0
 11
389.770333
 21
133.37775
 31
0.0
  0
LINE
  8
1
  6
CONTINUOUS
 62
     3
  5
66C
 10
389.770333
 20
130.37775
 30
0.0
 11
389.770333
 21
123.37775
 31
0.0
  0
LINE
  8
1
  6
CONTINUOUS
 62
     3
  5
66D
 10
422.270333
 20
179.37775
 30
0.0
 11
422.270333
 21
133.37775
 31
0.0
  0
LINE
  8
1
  6
CONTINUOUS
 62
     3
  5
66E
 10
422.270333
 20
130.37775
 30
0.0
 11
422.270333
 21
123.37775
 31
0.0
  0
LINE
  8
1
  6
CONTINUOUS
 62
     3
  5
66F
 10
428.270333
 20
179.37775
 30
0.0
 11
428.270333
 21
133.37775
 31
0.0
  0
LINE
  8
1
  6
CONTINUOUS
 62
     3
  5
670
 10
428.270333
 20
130.37775
 30
0.0
 11
428.270333
 21
118.37775
 31
0.0
  0
LINE
  8
1
  6
CONTINUOUS
 62
     3
  5
671
 10
453.770333
 20
179.37775
 30
0.0
 11
453.770333
 21
133.37775
 31
0.0
  0
LINE
  8
1
  6
CONTINUOUS
 62
     3
  5
672
 10
453.770333
 20
130.37775
 30
0.0
 11
453.770333
 21
118.37775
 31
0.0
  0
LINE
  8
1
  6
CONTINUOUS
 62
     3
  5
673
 10
459.770333
 20
179.37775
 30
0.0
 11
459.770333
 21
133.37775
 31
0.0
  0
LINE
  8
1
  6
CONTINUOUS
 62
     3
  5
674
 10
459.770333
 20
130.37775
 30
0.0
 11
459.770333
 21
123.37775
 31
0.0
  0
LINE
  8
1
  6
CONTINUOUS
 62
     7
  5
675
 10
386.770333
 20
128.37775
 30
0.0
 11
386.770333
 21
104.37775
 31
0.0
  0
LINE
  8
1
  6
CONTINUOUS
 62
     7
  5
676
 10
425.270333
 20
128.37775
 30
0.0
 11
425.270333
 21
104.37775
 31
0.0
  0
LINE
  8
1
  6
CONTINUOUS
 62
     7
  5
677
 10
456.770333
 20
117.87775
 30
0.0
 11
456.770333
 21
116.87775
 31
0.0
  0
LINE
  8
1
  6
CONTINUOUS
 62
     3
  5
678
 10
383.770333
 20
138.87775
 30
0.0
 11
389.770333
 21
138.87775
 31
0.0
  0
LINE
  8
1
  6
CONTINUOUS
 62
     3
  5
679
 10
422.270333
 20
138.87775
 30
0.0
 11
428.270333
 21
138.87775
 31
0.0
  0
LINE
  8
1
  6
CONTINUOUS
 62
     3
  5
67A
 10
453.770333
 20
138.87775
 30
0.0
 11
459.770333
 21
138.87775
 31
0.0
  0
LINE
  8
1
  6
CONTINUOUS
 62
     3
  5
67B
 10
385.270333
 20
178.37775
 30
0.0
 11
388.270333
 21
178.37775
 31
0.0
  0
LINE
  8
1
  6
CONTINUOUS
 62
     3
  5
67C
 10
383.770333
 20
177.37775
 30
0.0
 11
389.770333
 21
177.37775
 31
0.0
  0
LINE
  8
1
  6
CONTINUOUS
 62
     3
  5
67D
 10
385.270333
 20
176.37775
 30
0.0
 11
388.270333
 21
176.37775
 31
0.0
  0
LINE
  8
1
  6
CONTINUOUS
 62
     3
  5
67E
 10
383.770333
 20
175.37775
 30
0.0
 11
389.770333
 21
175.37775
 31
0.0
  0
LINE
  8
1
  6
CONTINUOUS
 62
     3
  5
67F
 10
385.270333
 20
174.37775
 30
0.0
 11
388.270333
 21
174.37775
 31
0.0
  0
LINE
  8
1
  6
CONTINUOUS
 62
     3
  5
680
 10
383.770333
 20
173.37775
 30
0.0
 11
389.770333
 21
173.37775
 31
0.0
  0
LINE
  8
1
  6
CONTINUOUS
 62
     3
  5
681
 10
385.270333
 20
172.37775
 30
0.0
 11
388.270333
 21
172.37775
 31
0.0
  0
LINE
  8
1
  6
CONTINUOUS
 62
     3
  5
682
 10
383.770333
 20
171.37775
 30
0.0
 11
389.770333
 21
171.37775
 31
0.0
  0
LINE
  8
1
  6
CONTINUOUS
 62
     3
  5
683
 10
385.270333
 20
170.37775
 30
0.0
 11
388.270333
 21
170.37775
 31
0.0
  0
LINE
  8
1
  6
CONTINUOUS
 62
     3
  5
684
 10
383.770333
 20
169.37775
 30
0.0
 11
389.770333
 21
169.37775
 31
0.0
  0
LINE
  8
1
  6
CONTINUOUS
 62
     3
  5
685
 10
385.270333
 20
168.37775
 30
0.0
 11
388.270333
 21
168.37775
 31
0.0
  0
LINE
  8
1
  6
CONTINUOUS
 62
     3
  5
686
 10
383.770333
 20
167.37775
 30
0.0
 11
389.770333
 21
167.37775
 31
0.0
  0
LINE
  8
1
  6
CONTINUOUS
 62
     3
  5
687
 10
423.770333
 20
178.37775
 30
0.0
 11
426.770333
 21
178.37775
 31
0.0
  0
LINE
  8
1
  6
CONTINUOUS
 62
     3
  5
688
 10
422.270333
 20
177.37775
 30
0.0
 11
428.270333
 21
177.37775
 31
0.0
  0
LINE
  8
1
  6
CONTINUOUS
 62
     3
  5
689
 10
423.770333
 20
176.37775
 30
0.0
 11
426.770333
 21
176.37775
 31
0.0
  0
LINE
  8
1
  6
CONTINUOUS
 62
     3
  5
68A
 10
422.270333
 20
175.37775
 30
0.0
 11
428.270333
 21
175.37775
 31
0.0
  0
LINE
  8
1
  6
CONTINUOUS
 62
     3
  5
68B
 10
423.770333
 20
174.37775
 30
0.0
 11
426.770333
 21
174.37775
 31
0.0
  0
LINE
  8
1
  6
CONTINUOUS
 62
     3
  5
68C
 10
422.270333
 20
173.37775
 30
0.0
 11
428.270333
 21
173.37775
 31
0.0
  0
LINE
  8
1
  6
CONTINUOUS
 62
     3
  5
68D
 10
423.770333
 20
172.37775
 30
0.0
 11
426.770333
 21
172.37775
 31
0.0
  0
LINE
  8
1
  6
CONTINUOUS
 62
     3
  5
68E
 10
422.270333
 20
171.37775
 30
0.0
 11
428.270333
 21
171.37775
 31
0.0
  0
LINE
  8
1
  6
CONTINUOUS
 62
     3
  5
68F
 10
423.770333
 20
170.37775
 30
0.0
 11
426.770333
 21
170.37775
 31
0.0
  0
LINE
  8
1
  6
CONTINUOUS
 62
     3
  5
690
 10
422.270333
 20
169.37775
 30
0.0
 11
428.270333
 21
169.37775
 31
0.0
  0
LINE
  8
1
  6
CONTINUOUS
 62
     3
  5
691
 10
423.770333
 20
168.37775
 30
0.0
 11
426.770333
 21
168.37775
 31
0.0
  0
LINE
  8
1
  6
CONTINUOUS
 62
     3
  5
692
 10
422.270333
 20
167.37775
 30
0.0
 11
428.270333
 21
167.37775
 31
0.0
  0
LINE
  8
1
  6
CONTINUOUS
 62
     3
  5
693
 10
455.270333
 20
178.37775
 30
0.0
 11
458.270333
 21
178.37775
 31
0.0
  0
LINE
  8
1
  6
CONTINUOUS
 62
     3
  5
694
 10
453.770333
 20
177.37775
 30
0.0
 11
459.770333
 21
177.37775
 31
0.0
  0
LINE
  8
1
  6
CONTINUOUS
 62
     3
  5
695
 10
455.270333
 20
176.37775
 30
0.0
 11
458.270333
 21
176.37775
 31
0.0
  0
LINE
  8
1
  6
CONTINUOUS
 62
     3
  5
696
 10
453.770333
 20
175.37775
 30
0.0
 11
459.770333
 21
175.37775
 31
0.0
  0
LINE
  8
1
  6
CONTINUOUS
 62
     3
  5
697
 10
455.270333
 20
174.37775
 30
0.0
 11
458.270333
 21
174.37775
 31
0.0
  0
LINE
  8
1
  6
CONTINUOUS
 62
     3
  5
698
 10
453.770333
 20
173.37775
 30
0.0
 11
459.770333
 21
173.37775
 31
0.0
  0
LINE
  8
1
  6
CONTINUOUS
 62
     3
  5
699
 10
455.270333
 20
172.37775
 30
0.0
 11
458.270333
 21
172.37775
 31
0.0
  0
LINE
  8
1
  6
CONTINUOUS
 62
     3
  5
69A
 10
453.770333
 20
171.37775
 30
0.0
 11
459.770333
 21
171.37775
 31
0.0
  0
LINE
  8
1
  6
CONTINUOUS
 62
     3
  5
69B
 10
455.270333
 20
170.37775
 30
0.0
 11
458.270333
 21
170.37775
 31
0.0
  0
LINE
  8
1
  6
CONTINUOUS
 62
     3
  5
69C
 10
453.770333
 20
169.37775
 30
0.0
 11
459.770333
 21
169.37775
 31
0.0
  0
LINE
  8
1
  6
CONTINUOUS
 62
     3
  5
69D
 10
455.270333
 20
168.37775
 30
0.0
 11
458.270333
 21
168.37775
 31
0.0
  0
LINE
  8
1
  6
CONTINUOUS
 62
     3
  5
69E
 10
453.770333
 20
167.37775
 30
0.0
 11
459.770333
 21
167.37775
 31
0.0
  0
LINE
  8
1
  6
CONTINUOUS
 62
     3
  5
69F
 10
380.770333
 20
133.37775
 30
0.0
 11
385.770333
 21
133.37775
 31
0.0
  0
LINE
  8
1
  6
CONTINUOUS
 62
     3
  5
6A0
 10
387.770333
 20
133.37775
 30
0.0
 11
392.770333
 21
133.37775
 31
0.0
  0
LINE
  8
1
  6
CONTINUOUS
 62
     3
  5
6A1
 10
380.770333
 20
130.37775
 30
0.0
 11
385.770333
 21
130.37775
 31
0.0
  0
LINE
  8
1
  6
CONTINUOUS
 62
     3
  5
6A2
 10
387.770333
 20
130.37775
 30
0.0
 11
392.770333
 21
130.37775
 31
0.0
  0
LINE
  8
1
  6
CONTINUOUS
 62
     3
  5
6A3
 10
385.770333
 20
133.37775
 30
0.0
 11
385.770333
 21
135.37775
 31
0.0
  0
LINE
  8
1
  6
CONTINUOUS
 62
     3
  5
6A4
 10
387.770333
 20
133.37775
 30
0.0
 11
387.770333
 21
131.37775
 31
0.0
  0
LINE
  8
1
  6
CONTINUOUS
 62
     3
  5
6A5
 10
385.770333
 20
130.37775
 30
0.0
 11
385.770333
 21
132.37775
 31
0.0
  0
LINE
  8
1
  6
CONTINUOUS
 62
     3
  5
6A6
 10
387.770333
 20
130.37775
 30
0.0
 11
387.770333
 21
128.37775
 31
0.0
  0
LINE
  8
1
  6
CONTINUOUS
 62
     3
  5
6A7
 10
385.770333
 20
135.37775
 30
0.0
 11
387.770333
 21
131.37775
 31
0.0
  0
LINE
  8
1
  6
CONTINUOUS
 62
     3
  5
6A8
 10
385.770333
 20
132.37775
 30
0.0
 11
387.770333
 21
128.37775
 31
0.0
  0
LINE
  8
1
  6
CONTINUOUS
 62
     3
  5
6A9
 10
419.270333
 20
133.37775
 30
0.0
 11
424.270333
 21
133.37775
 31
0.0
  0
LINE
  8
1
  6
CONTINUOUS
 62
     3
  5
6AA
 10
426.270333
 20
133.37775
 30
0.0
 11
431.270333
 21
133.37775
 31
0.0
  0
LINE
  8
1
  6
CONTINUOUS
 62
     3
  5
6AB
 10
424.270333
 20
133.37775
 30
0.0
 11
424.270333
 21
135.37775
 31
0.0
  0
LINE
  8
1
  6
CONTINUOUS
 62
     3
  5
6AC
 10
426.270333
 20
133.37775
 30
0.0
 11
426.270333
 21
131.37775
 31
0.0
  0
LINE
  8
1
  6
CONTINUOUS
 62
     3
  5
6AD
 10
424.270333
 20
130.37775
 30
0.0
 11
424.270333
 21
132.37775
 31
0.0
  0
LINE
  8
1
  6
CONTINUOUS
 62
     3
  5
6AE
 10
426.270333
 20
130.37775
 30
0.0
 11
426.270333
 21
128.37775
 31
0.0
  0
LINE
  8
1
  6
CONTINUOUS
 62
     3
  5
6AF
 10
424.270333
 20
135.37775
 30
0.0
 11
426.270333
 21
131.37775
 31
0.0
  0
LINE
  8
1
  6
CONTINUOUS
 62
     3
  5
6B0
 10
424.270333
 20
132.37775
 30
0.0
 11
426.270333
 21
128.37775
 31
0.0
  0
LINE
  8
1
  6
CONTINUOUS
 62
     3
  5
6B1
 10
419.270333
 20
130.37775
 30
0.0
 11
424.270333
 21
130.37775
 31
0.0
  0
LINE
  8
1
  6
CONTINUOUS
 62
     3
  5
6B2
 10
426.270333
 20
130.37775
 30
0.0
 11
431.270333
 21
130.37775
 31
0.0
  0
LINE
  8
1
  6
CONTINUOUS
 62
     3
  5
6B3
 10
450.770333
 20
133.37775
 30
0.0
 11
455.770333
 21
133.37775
 31
0.0
  0
LINE
  8
1
  6
CONTINUOUS
 62
     3
  5
6B4
 10
457.770333
 20
133.37775
 30
0.0
 11
462.770333
 21
133.37775
 31
0.0
  0
LINE
  8
1
  6
CONTINUOUS
 62
     3
  5
6B5
 10
450.770333
 20
130.37775
 30
0.0
 11
455.770333
 21
130.37775
 31
0.0
  0
LINE
  8
1
  6
CONTINUOUS
 62
     3
  5
6B6
 10
457.770333
 20
130.37775
 30
0.0
 11
462.770333
 21
130.37775
 31
0.0
  0
LINE
  8
1
  6
CONTINUOUS
 62
     3
  5
6B7
 10
455.770333
 20
133.37775
 30
0.0
 11
455.770333
 21
135.37775
 31
0.0
  0
LINE
  8
1
  6
CONTINUOUS
 62
     3
  5
6B8
 10
457.770333
 20
133.37775
 30
0.0
 11
457.770333
 21
131.37775
 31
0.0
  0
LINE
  8
1
  6
CONTINUOUS
 62
     3
  5
6B9
 10
455.770333
 20
130.37775
 30
0.0
 11
455.770333
 21
132.37775
 31
0.0
  0
LINE
  8
1
  6
CONTINUOUS
 62
     3
  5
6BA
 10
457.770333
 20
130.37775
 30
0.0
 11
457.770333
 21
128.37775
 31
0.0
  0
LINE
  8
1
  6
CONTINUOUS
 62
     3
  5
6BB
 10
455.770333
 20
135.37775
 30
0.0
 11
457.770333
 21
131.37775
 31
0.0
  0
LINE
  8
1
  6
CONTINUOUS
 62
     3
  5
6BC
 10
455.770333
 20
132.37775
 30
0.0
 11
457.770333
 21
128.37775
 31
0.0
  0
LINE
  8
1
  6
CONTINUOUS
 62
     7
  5
6BD
 10
386.770333
 20
181.37775
 30
0.0
 11
386.770333
 21
167.37775
 31
0.0
  0
LINE
  8
1
  6
CONTINUOUS
 62
     7
  5
6BE
 10
386.770333
 20
138.87775
 30
0.0
 11
386.770333
 21
135.37775
 31
0.0
  0
LINE
  8
1
  6
CONTINUOUS
 62
     7
  5
6BF
 10
386.770333
 20
167.37775
 30
0.0
 11
386.770333
 21
154.62775
 31
0.0
  0
LINE
  8
1
  6
CONTINUOUS
 62
     7
  5
6C0
 10
386.770333
 20
153.62775
 30
0.0
 11
386.770333
 21
152.62775
 31
0.0
  0
LINE
  8
1
  6
CONTINUOUS
 62
     7
  5
6C1
 10
386.770333
 20
151.62775
 30
0.0
 11
386.770333
 21
138.87775
 31
0.0
  0
LINE
  8
1
  6
CONTINUOUS
 62
     7
  5
6C2
 10
425.270333
 20
181.37775
 30
0.0
 11
425.270333
 21
154.62775
 31
0.0
  0
LINE
  8
1
  6
CONTINUOUS
 62
     7
  5
6C3
 10
425.270333
 20
153.62775
 30
0.0
 11
425.270333
 21
152.62775
 31
0.0
  0
LINE
  8
1
  6
CONTINUOUS
 62
     7
  5
6C4
 10
425.270333
 20
151.62775
 30
0.0
 11
425.270333
 21
135.37775
 31
0.0
  0
LINE
  8
1
  6
CONTINUOUS
 62
     7
  5
6C5
 10
456.770333
 20
181.37775
 30
0.0
 11
456.770333
 21
154.62775
 31
0.0
  0
LINE
  8
1
  6
CONTINUOUS
 62
     7
  5
6C6
 10
456.770333
 20
153.62775
 30
0.0
 11
456.770333
 21
152.62775
 31
0.0
  0
LINE
  8
1
  6
CONTINUOUS
 62
     7
  5
6C7
 10
456.770333
 20
151.62775
 30
0.0
 11
456.770333
 21
135.37775
 31
0.0
  0
LINE
  8
1
  6
CONTINUOUS
 62
     7
  5
6C8
 10
404.520333
 20
117.37775
 30
0.0
 11
365.770333
 21
117.37775
 31
0.0
  0
LINE
  8
1
  6
CONTINUOUS
 62
     7
  5
6C9
 10
435.270333
 20
117.37775
 30
0.0
 11
407.520333
 21
117.37775
 31
0.0
  0
LINE
  8
1
  6
CONTINUOUS
 62
     7
  5
6CA
 10
406.520333
 20
117.37775
 30
0.0
 11
405.520333
 21
117.37775
 31
0.0
  0
LINE
  8
1
  6
CONTINUOUS
 62
     7
  5
6CB
 10
486.270333
 20
117.37775
 30
0.0
 11
474.520333
 21
117.37775
 31
0.0
  0
LINE
  8
1
  6
CONTINUOUS
 62
     7
  5
6CC
 10
473.520333
 20
117.37775
 30
0.0
 11
472.520333
 21
117.37775
 31
0.0
  0
LINE
  8
1
  6
CONTINUOUS
 62
     7
  5
6CD
 10
471.520333
 20
117.37775
 30
0.0
 11
458.270333
 21
117.37775
 31
0.0
  0
LINE
  8
1
  6
CONTINUOUS
 62
     7
  5
6CE
 10
457.270333
 20
117.37775
 30
0.0
 11
456.270333
 21
117.37775
 31
0.0
  0
LINE
  8
1
  6
CONTINUOUS
 62
     7
  5
6CF
 10
456.770333
 20
118.87775
 30
0.0
 11
456.770333
 21
128.37775
 31
0.0
  0
LINE
  8
1
  6
CONTINUOUS
 62
     7
  5
6D0
 10
456.770333
 20
115.87775
 30
0.0
 11
456.770333
 21
105.87775
 31
0.0
  0
LINE
  8
1
  6
CONTINUOUS
 62
     7
  5
6D1
 10
455.270333
 20
117.37775
 30
0.0
 11
445.270333
 21
117.37775
 31
0.0
  0
LINE
  8
1
  6
CONTINUOUS
 62
     7
  5
6D2
 10
483.270333
 20
113.37775
 30
0.0
 11
483.270333
 21
105.87775
 31
0.0
  0
LINE
  8
1
  6
CONTINUOUS
 62
     7
  5
6D3
 10
456.770333
 20
106.87775
 30
0.0
 11
483.270333
 21
106.87775
 31
0.0
  0
LINE
  8
1
  6
CONTINUOUS
 62
     7
  5
6D4
 10
452.770333
 20
179.37775
 30
0.0
 11
445.270333
 21
179.37775
 31
0.0
  0
LINE
  8
1
  6
CONTINUOUS
 62
     7
  5
6D5
 10
446.270333
 20
179.37775
 30
0.0
 11
446.270333
 21
117.37775
 31
0.0
  0
LINE
  8
1
  6
CONTINUOUS
 62
     7
  5
6D6
 10
460.770333
 20
138.87775
 30
0.0
 11
475.770333
 21
138.87775
 31
0.0
  0
LINE
  8
1
  6
CONTINUOUS
 62
     7
  5
6D7
 10
460.770333
 20
179.37775
 30
0.0
 11
475.770333
 21
179.37775
 31
0.0
  0
LINE
  8
1
  6
CONTINUOUS
 62
     7
  5
6D8
 10
474.770333
 20
179.37775
 30
0.0
 11
474.770333
 21
138.87775
 31
0.0
  0
LINE
  8
1
  6
CONTINUOUS
 62
     7
  5
6D9
 10
460.770333
 20
167.37775
 30
0.0
 11
467.770333
 21
167.37775
 31
0.0
  0
LINE
  8
1
  6
CONTINUOUS
 62
     7
  5
6DA
 10
466.770333
 20
167.37775
 30
0.0
 11
466.770333
 21
179.37775
 31
0.0
  0
LINE
  8
1
  6
CONTINUOUS
 62
     7
  5
6DB
 10
453.770333
 20
180.37775
 30
0.0
 11
453.770333
 21
186.37775
 31
0.0
  0
LINE
  8
1
  6
CONTINUOUS
 62
     7
  5
6DC
 10
459.770333
 20
180.37775
 30
0.0
 11
459.770333
 21
186.37775
 31
0.0
  0
LINE
  8
1
  6
CONTINUOUS
 62
     7
  5
6DD
 10
448.770333
 20
185.37775
 30
0.0
 11
453.770333
 21
185.37775
 31
0.0
  0
LINE
  8
1
  6
CONTINUOUS
 62
     7
  5
6DE
 10
459.770333
 20
185.37775
 30
0.0
 11
464.770333
 21
185.37775
 31
0.0
  0
LINE
  8
1
  6
CONTINUOUS
 62
     7
  5
6DF
 10
382.770333
 20
179.37775
 30
0.0
 11
365.770333
 21
179.37775
 31
0.0
  0
LINE
  8
1
  6
CONTINUOUS
 62
     7
  5
6E0
 10
366.770333
 20
179.37775
 30
0.0
 11
366.770333
 21
117.37775
 31
0.0
  0
LINE
  8
1
  6
CONTINUOUS
 62
     7
  5
6E1
 10
386.770333
 20
105.37775
 30
0.0
 11
425.270333
 21
105.37775
 31
0.0
  0
LINE
  8
1
  6
CONTINUOUS
 62
     7
  5
6E2
 10
429.270333
 20
138.87775
 30
0.0
 11
441.270333
 21
138.87775
 31
0.0
  0
LINE
  8
1
  6
CONTINUOUS
 62
     7
  5
6E3
 10
429.270333
 20
179.37775
 30
0.0
 11
441.270333
 21
179.37775
 31
0.0
  0
LINE
  8
1
  6
CONTINUOUS
 62
     7
  5
6E4
 10
429.270333
 20
167.37775
 30
0.0
 11
435.270333
 21
167.37775
 31
0.0
  0
LINE
  8
1
  6
CONTINUOUS
 62
     7
  5
6E5
 10
440.270333
 20
179.37775
 30
0.0
 11
440.270333
 21
138.87775
 31
0.0
  0
LINE
  8
1
  6
CONTINUOUS
 62
     7
  5
6E6
 10
434.270333
 20
167.37775
 30
0.0
 11
434.270333
 21
179.37775
 31
0.0
  0
LINE
  8
1
  6
CONTINUOUS
 62
     7
  5
6E7
 10
422.270333
 20
179.37775
 30
0.0
 11
422.270333
 21
186.37775
 31
0.0
  0
LINE
  8
1
  6
CONTINUOUS
 62
     7
  5
6E8
 10
428.270333
 20
179.37775
 30
0.0
 11
428.270333
 21
186.37775
 31
0.0
  0
LINE
  8
1
  6
CONTINUOUS
 62
     7
  5
6E9
 10
417.270333
 20
185.37775
 30
0.0
 11
422.270333
 21
185.37775
 31
0.0
  0
LINE
  8
1
  6
CONTINUOUS
 62
     7
  5
6EA
 10
428.270333
 20
185.37775
 30
0.0
 11
433.270333
 21
185.37775
 31
0.0
  0
INSERT
  8
1
  6
CONTINUOUS
 62
     1
  5
6EB
  2
LDR
 10
366.770333
 20
179.37775
 30
0.0
 41
240.0
 42
240.0
 50
90.0
210
0.0
220
0.0
230
1.0
  0
INSERT
  8
1
  6
CONTINUOUS
 62
     1
  5
6EC
  2
LDR
 10
366.770333
 20
179.37775
 30
0.0
 41
240.0
 42
240.0
 50
90.0
210
0.0
220
0.0
230
1.0
  0
INSERT
  8
1
  6
CONTINUOUS
 62
     1
  5
6ED
  2
LDR
 10
366.770333
 20
117.37775
 30
0.0
 41
240.0
 42
240.0
 50
270.0
210
0.0
220
0.0
230
1.0
  0
INSERT
  8
1
  6
CONTINUOUS
 62
     1
  5
6EE
  2
LDR
 10
366.770333
 20
117.37775
 30
0.0
 41
240.0
 42
240.0
 50
270.0
210
0.0
220
0.0
230
1.0
  0
INSERT
  8
1
  6
CONTINUOUS
 62
     1
  5
6EF
  2
LDR
 10
386.770333
 20
105.37775
 30
0.0
 41
240.0
 42
240.0
 50
180.0
210
0.0
220
0.0
230
1.0
  0
INSERT
  8
1
  6
CONTINUOUS
 62
     1
  5
6F0
  2
LDR
 10
386.770333
 20
105.37775
 30
0.0
 41
240.0
 42
240.0
 50
180.0
210
0.0
220
0.0
230
1.0
  0
INSERT
  8
1
  6
CONTINUOUS
 62
     1
  5
6F1
  2
LDR
 10
425.270333
 20
105.37775
 30
0.0
 41
240.0
 42
240.0
210
0.0
220
0.0
230
1.0
  0
INSERT
  8
1
  6
CONTINUOUS
 62
     1
  5
6F2
  2
LDR
 10
425.270333
 20
105.37775
 30
0.0
 41
240.0
 42
240.0
210
0.0
220
0.0
230
1.0
  0
INSERT
  8
1
  6
CONTINUOUS
 62
     1
  5
6F3
  2
LDR
 10
422.270333
 20
185.37775
 30
0.0
 41
240.0
 42
240.0
210
0.0
220
0.0
230
1.0
  0
INSERT
  8
1
  6
CONTINUOUS
 62
     1
  5
6F4
  2
LDR
 10
422.270333
 20
185.37775
 30
0.0
 41
240.0
 42
240.0
210
0.0
220
0.0
230
1.0
  0
INSERT
  8
1
  6
CONTINUOUS
 62
     1
  5
6F5
  2
LDR
 10
428.270333
 20
185.37775
 30
0.0
 41
240.0
 42
240.0
 50
180.0
210
0.0
220
0.0
230
1.0
  0
INSERT
  8
1
  6
CONTINUOUS
 62
     1
  5
6F6
  2
LDR
 10
428.270333
 20
185.37775
 30
0.0
 41
240.0
 42
240.0
 50
180.0
210
0.0
220
0.0
230
1.0
  0
INSERT
  8
1
  6
CONTINUOUS
 62
     1
  5
6F7
  2
LDR
 10
434.270333
 20
179.37775
 30
0.0
 41
240.0
 42
240.0
 50
90.0
210
0.0
220
0.0
230
1.0
  0
INSERT
  8
1
  6
CONTINUOUS
 62
     1
  5
6F8
  2
LDR
 10
434.270333
 20
179.37775
 30
0.0
 41
240.0
 42
240.0
 50
90.0
210
0.0
220
0.0
230
1.0
  0
INSERT
  8
1
  6
CONTINUOUS
 62
     1
  5
6F9
  2
LDR
 10
434.270333
 20
167.37775
 30
0.0
 41
240.0
 42
240.0
 50
270.0
210
0.0
220
0.0
230
1.0
  0
INSERT
  8
1
  6
CONTINUOUS
 62
     1
  5
6FA
  2
LDR
 10
434.270333
 20
167.37775
 30
0.0
 41
240.0
 42
240.0
 50
270.0
210
0.0
220
0.0
230
1.0
  0
INSERT
  8
1
  6
CONTINUOUS
 62
     1
  5
6FB
  2
LDR
 10
440.270333
 20
179.37775
 30
0.0
 41
240.0
 42
240.0
 50
90.0
210
0.0
220
0.0
230
1.0
  0
INSERT
  8
1
  6
CONTINUOUS
 62
     1
  5
6FC
  2
LDR
 10
440.270333
 20
179.37775
 30
0.0
 41
240.0
 42
240.0
 50
90.0
210
0.0
220
0.0
230
1.0
  0
INSERT
  8
1
  6
CONTINUOUS
 62
     1
  5
6FD
  2
LDR
 10
440.270333
 20
138.87775
 30
0.0
 41
240.0
 42
240.0
 50
270.0
210
0.0
220
0.0
230
1.0
  0
INSERT
  8
1
  6
CONTINUOUS
 62
     1
  5
6FE
  2
LDR
 10
440.270333
 20
138.87775
 30
0.0
 41
240.0
 42
240.0
 50
270.0
210
0.0
220
0.0
230
1.0
  0
INSERT
  8
1
  6
CONTINUOUS
 62
     1
  5
6FF
  2
LDR
 10
453.770333
 20
185.37775
 30
0.0
 41
240.0
 42
240.0
210
0.0
220
0.0
230
1.0
  0
INSERT
  8
1
  6
CONTINUOUS
 62
     1
  5
700
  2
LDR
 10
459.770333
 20
185.37775
 30
0.0
 41
240.0
 42
240.0
 50
180.0
210
0.0
220
0.0
230
1.0
  0
INSERT
  8
1
  6
CONTINUOUS
 62
     1
  5
701
  2
LDR
 10
446.270333
 20
179.37775
 30
0.0
 41
240.0
 42
240.0
 50
90.0
210
0.0
220
0.0
230
1.0
  0
INSERT
  8
1
  6
CONTINUOUS
 62
     1
  5
702
  2
LDR
 10
446.270333
 20
179.37775
 30
0.0
 41
240.0
 42
240.0
 50
90.0
210
0.0
220
0.0
230
1.0
  0
INSERT
  8
1
  6
CONTINUOUS
 62
     1
  5
703
  2
LDR
 10
446.270333
 20
117.37775
 30
0.0
 41
240.0
 42
240.0
 50
270.0
210
0.0
220
0.0
230
1.0
  0
INSERT
  8
1
  6
CONTINUOUS
 62
     1
  5
704
  2
LDR
 10
446.270333
 20
117.37775
 30
0.0
 41
240.0
 42
240.0
 50
270.0
210
0.0
220
0.0
230
1.0
  0
INSERT
  8
1
  6
CONTINUOUS
 62
     1
  5
705
  2
LDR
 10
456.770333
 20
106.87775
 30
0.0
 41
240.0
 42
240.0
 50
180.0
210
0.0
220
0.0
230
1.0
  0
INSERT
  8
1
  6
CONTINUOUS
 62
     1
  5
706
  2
LDR
 10
456.770333
 20
106.87775
 30
0.0
 41
240.0
 42
240.0
 50
180.0
210
0.0
220
0.0
230
1.0
  0
INSERT
  8
1
  6
CONTINUOUS
 62
     1
  5
707
  2
LDR
 10
483.270333
 20
106.87775
 30
0.0
 41
240.0
 42
240.0
210
0.0
220
0.0
230
1.0
  0
INSERT
  8
1
  6
CONTINUOUS
 62
     1
  5
708
  2
LDR
 10
483.270333
 20
106.87775
 30
0.0
 41
240.0
 42
240.0
210
0.0
220
0.0
230
1.0
  0
INSERT
  8
1
  6
CONTINUOUS
 62
     1
  5
709
  2
LDR
 10
466.770333
 20
179.37775
 30
0.0
 41
240.0
 42
240.0
 50
90.0
210
0.0
220
0.0
230
1.0
  0
INSERT
  8
1
  6
CONTINUOUS
 62
     1
  5
70A
  2
LDR
 10
466.770333
 20
179.37775
 30
0.0
 41
240.0
 42
240.0
 50
90.0
210
0.0
220
0.0
230
1.0
  0
INSERT
  8
1
  6
CONTINUOUS
 62
     1
  5
70B
  2
LDR
 10
466.770333
 20
167.37775
 30
0.0
 41
240.0
 42
240.0
 50
270.0
210
0.0
220
0.0
230
1.0
  0
INSERT
  8
1
  6
CONTINUOUS
 62
     1
  5
70C
  2
LDR
 10
466.770333
 20
167.37775
 30
0.0
 41
240.0
 42
240.0
 50
270.0
210
0.0
220
0.0
230
1.0
  0
INSERT
  8
1
  6
CONTINUOUS
 62
     1
  5
70D
  2
LDR
 10
474.770333
 20
179.37775
 30
0.0
 41
240.0
 42
240.0
 50
90.0
210
0.0
220
0.0
230
1.0
  0
INSERT
  8
1
  6
CONTINUOUS
 62
     1
  5
70E
  2
LDR
 10
474.770333
 20
179.37775
 30
0.0
 41
240.0
 42
240.0
 50
90.0
210
0.0
220
0.0
230
1.0
  0
INSERT
  8
1
  6
CONTINUOUS
 62
     1
  5
70F
  2
LDR
 10
474.770333
 20
138.87775
 30
0.0
 41
240.0
 42
240.0
 50
270.0
210
0.0
220
0.0
230
1.0
  0
INSERT
  8
1
  6
CONTINUOUS
 62
     1
  5
710
  2
LDR
 10
474.770333
 20
138.87775
 30
0.0
 41
240.0
 42
240.0
 50
270.0
210
0.0
220
0.0
230
1.0
  0
TEXT
  8
1
  6
CONTINUOUS
 62
     7
  5
711
 10
116.505917
 20
171.907167
 30
0.0
 40
2.5
  1
/
  7
MONOTXT
 72
     4
 11
117.20475
 21
173.157167
 31
0.0
210
0.0
220
0.0
230
1.0
  0
TEXT
  8
1
  6
CONTINUOUS
 62
     7
  5
712
 10
397.861167
 20
190.208667
 30
0.0
 40
2.5
  1
/
  7
MONOTXT
 72
     4
 11
398.56
 21
191.458667
 31
0.0
210
0.0
220
0.0
230
1.0
  0
TEXT
  8
1
  6
CONTINUOUS
 62
     7
  5
713
 10
402.39725
 20
106.808917
 30
0.0
 40
2.5
  1
7 3/4 "
  7
MONOTXT
 72
     4
 11
406.225917
 21
108.058917
 31
0.0
210
0.0
220
0.0
230
1.0
  0
TEXT
  8
1
  6
CONTINUOUS
 62
     7
  5
714
 10
468.895167
 20
107.426167
 30
0.0
 40
2.5
  1
4"
  7
MONOTXT
 72
     4
 11
470.716
 21
108.676167
 31
0.0
210
0.0
220
0.0
230
1.0
  0
TEXT
  8
1
  6
CONTINUOUS
 62
     7
  5
715
 10
433.4
 20
168.041167
 30
0.0
 40
2.5
  1
3"MIN.
 50
90.0
  7
MONOTXT
 72
     4
 11
432.15
 21
173.444667
 31
0.0
210
0.0
220
0.0
230
1.0
  0
TEXT
  8
1
  6
CONTINUOUS
 62
     7
  5
716
 10
465.974417
 20
168.119
 30
0.0
 40
2.5
  1
3"MIN.
 50
90.0
  7
MONOTXT
 72
     4
 11
464.724417
 21
173.5225
 31
0.0
210
0.0
220
0.0
230
1.0
  0
TEXT
  8
1
  6
CONTINUOUS
 62
     7
  5
717
 10
439.206
 20
152.419083
 30
0.0
 40
2.5
  1
8" MIN.
 50
90.0
  7
MONOTXT
 72
     4
 11
437.956
 21
158.806833
 31
0.0
210
0.0
220
0.0
230
1.0
  0
TEXT
  8
1
  6
CONTINUOUS
 62
     7
  5
718
 10
443.706
 20
153.679
 30
0.0
 40
2.5
  1
GALV.
 50
90.0
  7
MONOTXT
 72
     4
 11
442.456
 21
158.806917
 31
0.0
210
0.0
220
0.0
230
1.0
  0
TEXT
  8
1
  6
CONTINUOUS
 62
     7
  5
719
 10
473.76525
 20
153.197667
 30
0.0
 40
2.5
  1
8" MIN.
 50
90.0
  7
MONOTXT
 72
     4
 11
472.51525
 21
159.585417
 31
0.0
210
0.0
220
0.0
230
1.0
  0
TEXT
  8
1
  6
CONTINUOUS
 62
     7
  5
71A
 10
478.26525
 20
154.457583
 30
0.0
 40
2.5
  1
GALV.
 50
90.0
  7
MONOTXT
 72
     4
 11
477.01525
 21
159.5855
 31
0.0
210
0.0
220
0.0
230
1.0
  0
TEXT
  8
1
  6
CONTINUOUS
 62
     7
  5
71B
 10
445.5035
 20
141.967417
 30
0.0
 40
2.5
  1
3'-8"
 50
90.0
  7
MONOTXT
 72
     4
 11
444.2535
 21
146.50475
 31
0.0
210
0.0
220
0.0
230
1.0
  0
TEXT
  8
1
  6
CONTINUOUS
 62
     7
  5
71C
 10
364.809083
 20
142.406083
 30
0.0
 40
2.5
  1
2'-0 1/2 "
 50
90.0
  7
MONOTXT
 72
     4
 11
363.559083
 21
148.99075
 31
0.0
210
0.0
220
0.0
230
1.0
  0
TEXT
  8
1
  6
CONTINUOUS
 62
     7
  5
71D
 10
415.389583
 20
89.283167
 30
0.0
 40
4.0
  1
ANCHOR BOLTS
  7
MONOTXT
 72
     4
 11
438.743917
 21
91.283167
 31
0.0
210
0.0
220
0.0
230
1.0
  0
TEXT
  8
1
  6
CONTINUOUS
 62
     7
  5
71E
 10
406.507667
 20
83.283167
 30
0.0
 40
4.0
  1
FOR WALL MOUNTING
  7
MONOTXT
 72
     4
 11
438.743833
 21
85.283167
 31
0.0
210
0.0
220
0.0
230
1.0
  0
LINE
  8
1
  6
CONTINUOUS
 62
     7
  5
71F
 10
404.63725
 20
82.00625
 30
0.0
 11
472.42625
 21
82.00625
 31
0.0
  0
TEXT
  8
1
  6
CONTINUOUS
 62
     7
  5
720
 10
504.46775
 20
269.654833
 30
0.0
 40
2.5
  1
NOTES:
  7
MONOTXT
 72
     4
 11
510.90475
 21
270.904833
 31
0.0
210
0.0
220
0.0
230
1.0
  0
TEXT
  8
1
  6
CONTINUOUS
 62
     7
  5
721
 10
504.508083
 20
259.622833
 30
0.0
 40
2.5
  1
1.
  7
MONOTXT
 72
     4
 11
505.384083
 21
260.872833
 31
0.0
210
0.0
220
0.0
230
1.0
  0
TEXT
  8
1
  6
CONTINUOUS
 62
     7
  5
722
 10
503.400583
 20
241.64325
 30
0.0
 40
2.5
  1
2.
  7
MONOTXT
 72
     4
 11
504.808083
 21
242.89325
 31
0.0
210
0.0
220
0.0
230
1.0
  0
TEXT
  8
1
  6
CONTINUOUS
 62
     7
  5
723
 10
503.413833
 20
223.647
 30
0.0
 40
2.5
  1
3.
  7
MONOTXT
 72
     4
 11
504.821333
 21
224.897
 31
0.0
210
0.0
220
0.0
230
1.0
  0
TEXT
  8
1
  6
CONTINUOUS
 62
     7
  5
724
 10
503.29875
 20
210.161
 30
0.0
 40
2.5
  1
4.
  7
MONOTXT
 72
     4
 11
504.76525
 21
211.411
 31
0.0
210
0.0
220
0.0
230
1.0
  0
TEXT
  8
1
  6
CONTINUOUS
 62
     7
  5
725
 10
503.187667
 20
174.643333
 30
0.0
 40
2.5
  1
5.
  7
MONOTXT
 72
     4
 11
504.595167
 21
175.893333
 31
0.0
210
0.0
220
0.0
230
1.0
  0
INSERT
  8
1
  6
CONTINUOUS
 62
     1
  5
726
  2
LDR
 10
100.727917
 20
163.978583
 30
0.0
 41
240.000001
 42
240.000001
 50
240.430239
210
0.0
220
0.0
230
1.0
  0
TEXT
  8
1
  6
CONTINUOUS
 62
     7
  5
727
 10
511.018167
 20
259.6595
 30
0.0
 40
2.5
  1
ALL TYPE "F" BOXES AND PLATES ARE TO BE FABRICATED
  7
MONOTXT
 11
511.018167
 21
262.1595
 31
0.0
210
0.0
220
0.0
230
1.0
 73
     3
  0
TEXT
  8
1
  6
CONTINUOUS
 62
     7
  5
728
 10
511.018167
 20
255.1595
 30
0.0
 40
2.5
  1
FROM STEEL CONFORMING TO ASTM A-36 AND HOT DIPPED
  7
MONOTXT
 11
511.018167
 21
257.6595
 31
0.0
210
0.0
220
0.0
230
1.0
 73
     3
  0
TEXT
  8
1
  6
CONTINUOUS
 62
     7
  5
729
 10
511.018167
 20
250.6595
 30
0.0
 40
2.5
  1
GALVANIZED, AFTER ASSEMBLY.
  7
MONOTXT
 11
511.018167
 21
253.1595
 31
0.0
210
0.0
220
0.0
230
1.0
 73
     3
  0
TEXT
  8
1
  6
CONTINUOUS
 62
     7
  5
72A
 10
511.018167
 20
246.1595
 30
0.0
 40
2.5
  1
 
  7
MONOTXT
 11
511.018167
 21
248.6595
 31
0.0
210
0.0
220
0.0
230
1.0
 73
     3
  0
TEXT
  8
1
  6
CONTINUOUS
 62
     7
  5
72B
 10
511.018167
 20
241.6595
 30
0.0
 40
2.5
  1
FOR ADDITIONAL STEEL REINFORCING BARS NEEDED TO SUPPORT
  7
MONOTXT
 11
511.018167
 21
244.1595
 31
0.0
210
0.0
220
0.0
230
1.0
 73
     3
  0
TEXT
  8
1
  6
CONTINUOUS
 62
     7
  5
72C
 10
511.018167
 20
237.1595
 30
0.0
 40
2.5
  1
LIGHTING POLES, SEE INDIVIDUAL BRIDGE DESIGN OR WALL DESIGN
  7
MONOTXT
 11
511.018167
 21
239.6595
 31
0.0
210
0.0
220
0.0
230
1.0
 73
     3
  0
TEXT
  8
1
  6
CONTINUOUS
 62
     7
  5
72D
 10
511.018167
 20
232.6595
 30
0.0
 40
2.5
  1
DRAWINGS.
  7
MONOTXT
 11
511.018167
 21
235.1595
 31
0.0
210
0.0
220
0.0
230
1.0
 73
     3
  0
TEXT
  8
1
  6
CONTINUOUS
 62
     7
  5
72E
 10
511.018167
 20
228.1595
 30
0.0
 40
2.5
  1
 
  7
MONOTXT
 11
511.018167
 21
230.6595
 31
0.0
210
0.0
220
0.0
230
1.0
 73
     3
  0
TEXT
  8
1
  6
CONTINUOUS
 62
     7
  5
72F
 10
511.018167
 20
223.6595
 30
0.0
 40
2.5
  1
EACH LIGHTING POLE TO BE SUPPLIED WITH A MINIMUM OF
  7
MONOTXT
 11
511.018167
 21
226.1595
 31
0.0
210
0.0
220
0.0
230
1.0
 73
     3
  0
TEXT
  8
1
  6
CONTINUOUS
 62
     7
  5
730
 10
511.018167
 20
219.1595
 30
0.0
 40
2.5
  1
FOUR  1/16 " THICK STANDARD GALVANIZED STEEL SHIMS.
  7
MONOTXT
 11
511.018167
 21
221.6595
 31
0.0
210
0.0
220
0.0
230
1.0
 73
     3
  0
TEXT
  8
1
  6
CONTINUOUS
 62
     7
  5
731
 10
511.018167
 20
214.6595
 30
0.0
 40
2.5
  1
 
  7
MONOTXT
 11
511.018167
 21
217.1595
 31
0.0
210
0.0
220
0.0
230
1.0
 73
     3
  0
TEXT
  8
1
  6
CONTINUOUS
 62
     7
  5
732
 10
511.018167
 20
192.1595
 30
0.0
 40
2.5
  1
 
  7
MONOTXT
 11
511.018167
 21
194.6595
 31
0.0
210
0.0
220
0.0
230
1.0
 73
     3
  0
TEXT
  8
1
  6
CONTINUOUS
 62
     7
  5
733
 10
510.8055
 20
174.68275
 30
0.0
 40
2.5
  1
ANCHOR BOLTS FOR LIGHTING POLE SUPPORT BASE CONNECTION
  7
MONOTXT
 11
510.8055
 21
177.18275
 31
0.0
210
0.0
220
0.0
230
1.0
 73
     3
  0
TEXT
  8
1
  6
CONTINUOUS
 62
     7
  5
734
 10
510.8055
 20
170.18275
 30
0.0
 40
2.5
  1
TO BRIDGE OR WALL SHALL BE FABRICATED FROM HIGH STRENGTH
  7
MONOTXT
 11
510.8055
 21
172.68275
 31
0.0
210
0.0
220
0.0
230
1.0
 73
     3
  0
TEXT
  8
1
  6
CONTINUOUS
 62
     7
  5
735
 10
510.8055
 20
165.68275
 30
0.0
 40
2.5
  1
STEEL HAVING A MINIMUM YIELD STRENGTH OF 55,000 PSI AND A
  7
MONOTXT
 11
510.8055
 21
168.18275
 31
0.0
210
0.0
220
0.0
230
1.0
 73
     3
  0
TEXT
  8
1
  6
CONTINUOUS
 62
     7
  5
736
 10
510.8055
 20
161.18275
 30
0.0
 40
2.5
  1
MINIMUM TENSILE STRENGTH OF 90,000 PSI. THE PHYSICAL,
  7
MONOTXT
 11
510.8055
 21
163.68275
 31
0.0
210
0.0
220
0.0
230
1.0
 73
     3
  0
TEXT
  8
1
  6
CONTINUOUS
 62
     7
  5
737
 10
510.8055
 20
156.68275
 30
0.0
 40
2.5
  1
CHEMICAL, AND DIMENSIONAL CHARACTERISTICS OF THE NUTS
  7
MONOTXT
 11
510.8055
 21
159.18275
 31
0.0
210
0.0
220
0.0
230
1.0
 73
     3
  0
TEXT
  8
1
  6
CONTINUOUS
 62
     7
  5
738
 10
510.8055
 20
152.18275
 30
0.0
 40
2.5
  1
SHALL BE IN ACCORDANCE WITH THE REQUIREMENTS OF ASTM
  7
MONOTXT
 11
510.8055
 21
154.68275
 31
0.0
210
0.0
220
0.0
230
1.0
 73
     3
  0
TEXT
  8
1
  6
CONTINUOUS
 62
     7
  5
739
 10
511.018167
 20
151.6595
 30
0.0
 40
2.5
  1
 
  7
MONOTXT
 11
511.018167
 21
154.1595
 31
0.0
210
0.0
220
0.0
230
1.0
 73
     3
  0
TEXT
  8
1
  6
CONTINUOUS
 62
     7
  5
73A
 10
511.230917
 20
191.621
 30
0.0
 40
2.5
  1
TIGHTEN ALL HIGH STRENGTH BOLTS BY TURN OF NUT
  7
MONOTXT
 11
511.230917
 21
194.121
 31
0.0
210
0.0
220
0.0
230
1.0
 73
     3
  0
TEXT
  8
1
  6
CONTINUOUS
 62
     7
  5
73B
 10
511.230917
 20
187.121
 30
0.0
 40
2.5
  1
METHOD IN ACCORDANCE WITH SECTION 615 OF THE
  7
MONOTXT
 11
511.230917
 21
189.621
 31
0.0
210
0.0
220
0.0
230
1.0
 73
     3
  0
TEXT
  8
1
  6
CONTINUOUS
 62
     7
  5
73C
 10
511.230917
 20
182.621
 30
0.0
 40
2.5
  1
SPECIFICATIONS.
  7
MONOTXT
 11
511.230917
 21
185.121
 31
0.0
210
0.0
220
0.0
230
1.0
 73
     3
  0
LINE
  8
1
  6
CONTINUOUS
 62
     7
  5
73D
 10
500.48025
 20
102.863417
 30
0.0
 11
496.48025
 21
102.863417
 31
0.0
  0
LINE
  8
1
  6
CONTINUOUS
 62
     7
  5
73E
 10
498.48025
 20
106.3275
 30
0.0
 11
496.48025
 21
102.863417
 31
0.0
  0
LINE
  8
1
  6
CONTINUOUS
 62
     7
  5
73F
 10
498.48025
 20
106.3275
 30
0.0
 11
500.48025
 21
102.863417
 31
0.0
  0
TEXT
  8
1
  6
CONTINUOUS
 62
     7
  5
740
 10
497.715917
 20
103.176583
 30
0.0
 40
2.0
  1
3
  7
MONOTXT
210
0.0
220
0.0
230
1.0
  0
TEXT
  8
1
  6
CONTINUOUS
 62
     7
  5
741
 10
501.65225
 20
103.668833
 30
0.0
 40
2.0
  1
REVISED H.S. BOLT NOTE AND A.B. WASHER SPEC.
  7
MONOTXT
210
0.0
220
0.0
230
1.0
  0
TEXT
  8
1
  6
CONTINUOUS
 62
     7
  5
742
 10
299.759
 20
401.65
 30
0.0
 40
2.5
  1
DRILL (AND TAP) FOR 1"
  7
MONOTXT
 72
     4
 11
323.194
 21
402.9
 31
0.0
210
0.0
220
0.0
230
1.0
  0
TEXT
  8
1
  6
CONTINUOUS
 62
     7
  5
743
 10
298.026667
 20
397.15
 30
0.0
 40
2.5
  1
U.N.C. STEEL BOLT (TYP.)
  7
MONOTXT
 72
     4
 11
323.194
 21
398.4
 31
0.0
210
0.0
220
0.0
230
1.0
  0
TEXT
  8
1
  6
CONTINUOUS
 62
     7
  5
744
 10
291.30425
 20
392.65
 30
0.0
 40
2.5
  1
OR 24MM IF USE METRIC BOLTS
  7
MONOTXT
 72
     4
 11
323.203833
 21
393.9
 31
0.0
210
0.0
220
0.0
230
1.0
  0
TEXT
  8
1
  6
CONTINUOUS
 62
     7
  5
745
 10
440.046333
 20
370.872583
 30
0.0
 40
2.5
  1
DRILL FOUR
  7
MONOTXT
 72
     4
 11
450.922333
 21
372.122583
 31
0.0
210
0.0
220
0.0
230
1.0
  0
TEXT
  8
1
  6
CONTINUOUS
 62
     7
  5
746
 10
440.1645
 20
366.372583
 30
0.0
 40
2.5
  1
HOLES FOR
  7
MONOTXT
 72
     4
 11
450.922333
 21
367.622583
 31
0.0
210
0.0
220
0.0
230
1.0
  0
TEXT
  8
1
  6
CONTINUOUS
 62
     7
  5
747
 10
437.920333
 20
361.872583
 30
0.0
 40
2.5
  1
1 1/4 " 0 BOLTS
  7
MONOTXT
 72
     4
 11
450.92225
 21
363.122583
 31
0.0
210
0.0
220
0.0
230
1.0
  0
TEXT
  8
1
  6
CONTINUOUS
 62
     7
  5
748
 10
439.39675
 20
357.372583
 30
0.0
 40
2.5
  1
OR 36MM IF
  7
MONOTXT
 72
     4
 11
450.92225
 21
358.622583
 31
0.0
210
0.0
220
0.0
230
1.0
  0
TEXT
  8
1
  6
CONTINUOUS
 62
     7
  5
749
 10
439.751083
 20
352.872583
 30
0.0
 40
2.5
  1
USE METRIC
  7
MONOTXT
 72
     4
 11
450.92225
 21
354.122583
 31
0.0
210
0.0
220
0.0
230
1.0
  0
TEXT
  8
1
  6
CONTINUOUS
 62
     7
  5
74A
 10
445.125083
 20
348.372583
 30
0.0
 40
2.5
  1
BOLTS
  7
MONOTXT
 72
     4
 11
450.92225
 21
349.622583
 31
0.0
210
0.0
220
0.0
230
1.0
  0
TEXT
  8
1
  6
CONTINUOUS
 62
     7
  5
74B
 10
112.5915
 20
188.93625
 30
0.0
 40
2.5
  1
1 1/4 " ANCHOR BOLT
  7
MONOTXT
 72
     4
 11
130.672167
 21
190.18625
 31
0.0
210
0.0
220
0.0
230
1.0
  0
TEXT
  8
1
  6
CONTINUOUS
 62
     7
  5
74C
 10
107.4635
 20
184.43625
 30
0.0
 40
2.5
  1
ASSEMBLIES ON 11" B.C.
  7
MONOTXT
 72
     4
 11
130.662333
 21
185.68625
 31
0.0
210
0.0
220
0.0
230
1.0
  0
TEXT
  8
1
  6
CONTINUOUS
 62
     7
  5
74D
 10
107.689917
 20
179.93625
 30
0.0
 40
2.5
  1
OR 30MM METRIC BOLT
  7
MONOTXT
 72
     4
 11
130.672167
 21
181.18625
 31
0.0
210
0.0
220
0.0
230
1.0
  0
TEXT
  8
1
  6
CONTINUOUS
 62
     7
  5
74E
 10
388.308917
 20
190.194083
 30
0.0
 40
2.5
  1
1 1/4 " 0 OR 30MM
  7
MONOTXT
 72
     4
 11
404.1455
 21
191.444083
 31
0.0
210
0.0
220
0.0
230
1.0
  0
TEXT
  8
1
  6
CONTINUOUS
 62
     7
  5
74F
 10
391.556917
 20
184.194083
 30
0.0
 40
2.5
  1
METRIC BOLT
  7
MONOTXT
 72
     4
 11
404.145417
 21
185.444083
 31
0.0
210
0.0
220
0.0
230
1.0
  0
TEXT
  8
1
  6
CONTINUOUS
 62
     7
  5
750
 10
462.409417
 20
190.194083
 30
0.0
 40
2.5
  1
1 1/4 " 0 OR 30MM
  7
MONOTXT
 72
     4
 11
478.246
 21
191.444083
 31
0.0
210
0.0
220
0.0
230
1.0
  0
TEXT
  8
1
  6
CONTINUOUS
 62
     7
  5
751
 10
465.657417
 20
184.194083
 30
0.0
 40
2.5
  1
METRIC BOLT
  7
MONOTXT
 72
     4
 11
478.245917
 21
185.444083
 31
0.0
210
0.0
220
0.0
230
1.0
  0
TEXT
  8
1
  6
CONTINUOUS
 62
     7
  5
752
 10
471.961667
 20
190.208667
 30
0.0
 40
2.5
  1
/
  7
MONOTXT
 72
     4
 11
472.6605
 21
191.458667
 31
0.0
210
0.0
220
0.0
230
1.0
  0
LINE
  8
1
  6
CONTINUOUS
 62
     7
  5
753
 10
499.180833
 20
40.627917
 30
0.0
 11
501.180833
 21
37.163833
 31
0.0
  0
LINE
  8
1
  6
CONTINUOUS
 62
     7
  5
754
 10
501.180833
 20
37.163833
 30
0.0
 11
497.180833
 21
37.163833
 31
0.0
  0
LINE
  8
1
  6
CONTINUOUS
 62
     7
  5
755
 10
499.180833
 20
40.627917
 30
0.0
 11
497.180833
 21
37.163833
 31
0.0
  0
TEXT
  8
1
  6
CONTINUOUS
 62
     7
  5
756
 10
498.4165
 20
37.477
 30
0.0
 40
2.0
  1
3
  7
MONOTXT
210
0.0
220
0.0
230
1.0
  0
TEXT
  8
1
  6
CONTINUOUS
 62
     7
  5
757
 10
511.018167
 20
210.1595
 30
0.0
 40
2.5
  1
ANCHOR BOLTS AND NUTS FOR LIGHTING POLE CONNECTION
  7
MONOTXT
 11
511.018167
 21
212.6595
 31
0.0
210
0.0
220
0.0
230
1.0
 73
     3
  0
TEXT
  8
1
  6
CONTINUOUS
 62
     7
  5
758
 10
511.018167
 20
205.6595
 30
0.0
 40
2.5
  1
TO LIGHTING POLE SUPPORT BASE SHALL MEET THE REQUIRE-
  7
MONOTXT
 11
511.018167
 21
208.1595
 31
0.0
210
0.0
220
0.0
230
1.0
 73
     3
  0
TEXT
  8
1
  6
CONTINUOUS
 62
     7
  5
759
 10
511.018167
 20
201.1595
 30
0.0
 40
2.5
  1
MENTS OF SECTION 709.24.
  7
MONOTXT
 11
511.018167
 21
203.6595
 31
0.0
210
0.0
220
0.0
230
1.0
 73
     3
  0
TEXT
  8
1
  6
CONTINUOUS
 62
     7
  5
75A
 10
510.8055
 20
147.68275
 30
0.0
 40
2.5
  1
A-307. WASHERS SHALL MEET ASTM F844.
  7
MONOTXT
 11
510.8055
 21
150.18275
 31
0.0
210
0.0
220
0.0
230
1.0
 73
     3
  0
ENDSEC
  0
EOF
