  0
SECTION
  2
HEADER
  9
$ACADVER
  1
AC1009
  9
$INSBASE
 10
0.0
 20
0.0
 30
0.0
  9
$EXTMIN
 10
-1.189167
 20
-0.528917
 30
0.0
  9
$EXTMAX
 10
678.890833
 20
439.511083
 30
0.0
  9
$LIMMIN
 10
0.0
 20
0.0
  9
$LIMMAX
 10
12.0
 20
9.0
  9
$ORTHOMODE
 70
     0
  9
$REGENMODE
 70
     1
  9
$FILLMODE
 70
     1
  9
$QTEXTMODE
 70
     0
  9
$MIRRTEXT
 70
     1
  9
$DRAGMODE
 70
     2
  9
$LTSCALE
 40
1.0
  9
$OSMODE
 70
     0
  9
$ATTMODE
 70
     1
  9
$TEXTSIZE
 40
0.2
  9
$TRACEWID
 40
0.05
  9
$TEXTSTYLE
  7
STANDARD
  9
$CLAYER
  8
0
  9
$CELTYPE
  6
CONTINUOUS
  9
$CECOLOR
 62
   256
  9
$DIMSCALE
 40
1.0
  9
$DIMASZ
 40
0.18
  9
$DIMEXO
 40
0.0625
  9
$DIMDLI
 40
0.38
  9
$DIMRND
 40
0.0
  9
$DIMDLE
 40
0.0
  9
$DIMEXE
 40
0.18
  9
$DIMTP
 40
0.0
  9
$DIMTM
 40
0.0
  9
$DIMTXT
 40
0.18
  9
$DIMCEN
 40
0.09
  9
$DIMTSZ
 40
0.0
  9
$DIMTOL
 70
     0
  9
$DIMLIM
 70
     0
  9
$DIMTIH
 70
     1
  9
$DIMTOH
 70
     1
  9
$DIMSE1
 70
     0
  9
$DIMSE2
 70
     0
  9
$DIMTAD
 70
     0
  9
$DIMZIN
 70
     0
  9
$DIMBLK
  1

  9
$DIMASO
 70
     1
  9
$DIMSHO
 70
     1
  9
$DIMPOST
  1

  9
$DIMAPOST
  1

  9
$DIMALT
 70
     0
  9
$DIMALTD
 70
     2
  9
$DIMALTF
 40
25.4
  9
$DIMLFAC
 40
1.0
  9
$DIMTOFL
 70
     0
  9
$DIMTVP
 40
0.0
  9
$DIMTIX
 70
     0
  9
$DIMSOXD
 70
     0
  9
$DIMSAH
 70
     0
  9
$DIMBLK1
  1

  9
$DIMBLK2
  1

  9
$DIMSTYLE
  2
STANDARD
  9
$DIMCLRD
 70
     0
  9
$DIMCLRE
 70
     0
  9
$DIMCLRT
 70
     0
  9
$DIMTFAC
 40
1.0
  9
$DIMGAP
 40
0.09
  9
$LUNITS
 70
     2
  9
$LUPREC
 70
     4
  9
$AXISMODE
 70
     0
  9
$AXISUNIT
 10
0.0
 20
0.0
  9
$SKETCHINC
 40
0.1
  9
$FILLETRAD
 40
0.0
  9
$AUNITS
 70
     0
  9
$AUPREC
 70
     0
  9
$MENU
  1
acad
  9
$ELEVATION
 40
0.0
  9
$PELEVATION
 40
0.0
  9
$THICKNESS
 40
0.0
  9
$LIMCHECK
 70
     0
  9
$BLIPMODE
 70
     1
  9
$CHAMFERA
 40
0.0
  9
$CHAMFERB
 40
0.0
  9
$SKPOLY
 70
     0
  9
$TDCREATE
 40
2451803.423634259
  9
$TDUPDATE
 40
2451803.423634259
  9
$TDINDWG
 40
0.0000000000
  9
$TDUSRTIMER
 40
0.0000000000
  9
$USRTIMER
 70
     1
  9
$ANGBASE
 50
0.0
  9
$ANGDIR
 70
     0
  9
$PDMODE
 70
     0
  9
$PDSIZE
 40
0.0
  9
$PLINEWID
 40
0.0
  9
$COORDS
 70
     0
  9
$SPLFRAME
 70
     0
  9
$SPLINETYPE
 70
     6
  9
$SPLINESEGS
 70
    10
  9
$ATTDIA
 70
     0
  9
$ATTREQ
 70
     1
  9
$HANDLING
 70
     1
  9
$HANDSEED
  5
6F9
  9
$SURFTAB1
 70
     6
  9
$SURFTAB2
 70
     6
  9
$SURFTYPE
 70
     6
  9
$SURFU
 70
     6
  9
$SURFV
 70
     6
  9
$UCSNAME
  2

  9
$UCSORG
 10
0.0
 20
0.0
 30
0.0
  9
$UCSXDIR
 10
1.0
 20
0.0
 30
0.0
  9
$UCSYDIR
 10
0.0
 20
1.0
 30
0.0
  9
$PUCSNAME
  2

  9
$PUCSORG
 10
0.0
 20
0.0
 30
0.0
  9
$PUCSXDIR
 10
1.0
 20
0.0
 30
0.0
  9
$PUCSYDIR
 10
0.0
 20
1.0
 30
0.0
  9
$USERI1
 70
     0
  9
$USERI2
 70
     0
  9
$USERI3
 70
     0
  9
$USERI4
 70
     0
  9
$USERI5
 70
     0
  9
$USERR1
 40
0.0
  9
$USERR2
 40
0.0
  9
$USERR3
 40
0.0
  9
$USERR4
 40
0.0
  9
$USERR5
 40
0.0
  9
$WORLDVIEW
 70
     1
  9
$SHADEDGE
 70
     3
  9
$SHADEDIF
 70
    70
  9
$TILEMODE
 70
     1
  9
$MAXACTVP
 70
    16
  9
$PINSBASE
 10
0.0
 20
0.0
 30
0.0
  9
$PLIMCHECK
 70
     0
  9
$PEXTMIN
 10
-1.000000E+20
 20
-1.000000E+20
 30
-1.000000E+20
  9
$PEXTMAX
 10
-1.000000E+20
 20
-1.000000E+20
 30
-1.000000E+20
  9
$PLIMMIN
 10
0.0
 20
0.0
  9
$PLIMMAX
 10
12.0
 20
9.0
  9
$UNITMODE
 70
     0
  9
$VISRETAIN
 70
     0
  9
$PLINEGEN
 70
     1
  9
$PSLTSCALE
 70
     0
  9
$TREEDEPTH
 70
  3020
  9
$DWGCODEPAGE
  3
ansi_1252
  0
ENDSEC
  0
SECTION
  2
TABLES
  0
TABLE
  2
VPORT
 70
     1
  0
VPORT
  2
*ACTIVE
 70
     0
 10
0.0
 20
0.0
 11
1.0
 21
1.0
 12
0.0
 22
0.0
 13
0.0
 23
0.0
 14
0.0
 24
0.0
 15
0.0
 25
0.0
 16
0.0
 26
0.0
 36
1.0
 17
293.087133
 27
219.491083
 37
0.0
 40
451.041
 41
1.795122
 42
50.0
 43
0.0
 44
0.0
 50
0.0
 51
0.0
 71
     0
 72
   100
 73
     1
 74
     0
 75
     0
 76
     0
 77
     0
 78
     0
  0
ENDTAB
  0
TABLE
  2
LTYPE
 70
     7
  0
LTYPE
  2
CONTINUOUS
 70
     0
  3
Solid line
 72
    65
 73
     0
 40
0.0
  0
LTYPE
  2
DOT
 70
    64
  3
. . . . . . . . . . . . . . . . . . . . . . . . . . . . . . . . .
 72
    65
 73
     2
 40
0.25
 49
0.0
 49
-0.25
  0
LTYPE
  2
HIDDEN
 70
    64
  3
__ __ __ __ __ __ __ __ __ __ __ __ __ __ __ __ __ __ __ __ __ 
 72
    65
 73
     2
 40
0.375
 49
0.25
 49
-0.125
  0
LTYPE
  2
DASHED
 70
    64
  3
__ __ __ __ __ __ __ __ __ __ __ __ __ __ __ __ __ __ __ __ __
 72
    65
 73
     2
 40
0.75
 49
0.5
 49
-0.25
  0
LTYPE
  2
DASHDOT
 70
    64
  3
__ . __ . __ . __ . __ . __ . __ . __ . __ . __ . __ . __ . _
 72
    65
 73
     4
 40
1.0
 49
0.5
 49
-0.25
 49
0.0
 49
-0.25
  0
LTYPE
  2
DIVIDE
 70
    64
  3
____ . . ____ . . ____ . . ____ . . ____ . . ____ . . ____ . .
 72
    65
 73
     6
 40
1.25
 49
0.5
 49
-0.25
 49
0.0
 49
-0.25
 49
0.0
 49
-0.25
  0
LTYPE
  2
CENTER
 70
    64
  3
____ _ ____ _ ____ _ ____ _ ____ _ ____ _ ____ _ ____ _ ____ _
 72
    65
 73
     4
 40
2.0
 49
1.25
 49
-0.25
 49
0.25
 49
-0.25
  0
ENDTAB
  0
TABLE
  2
LAYER
 70
     5
  0
LAYER
  2
0
 70
     0
 62
     7
  6
CONTINUOUS
  0
LAYER
  2
CONSTRUCTION_CLASS
 70
     0
 62
     7
  6
CONTINUOUS
  0
LAYER
  2
PATTERN_CLASS
 70
    64
 62
     7
  6
CONTINUOUS
  0
LAYER
  2
1
 70
    64
 62
     7
  6
CONTINUOUS
  0
LAYER
  2
61
 70
    64
 62
     7
  6
CONTINUOUS
  0
ENDTAB
  0
TABLE
  2
STYLE
 70
     4
  0
STYLE
  2
STANDARD
 70
     0
 40
0.0
 41
1.0
 50
0.0
 71
     0
 42
0.0
  3
txt
  4

  0
STYLE
  2
MONOTXT
 70
     0
 40
0.2
 41
1.0
 50
0.0
 71
     0
 42
0.2
  3
MONOTXT
  4

  0
STYLE
  2
txt
 70
     0
 40
0.2
 41
1.0
 50
0.0
 71
     0
 42
0.2
  3
TXT
  4

  0
STYLE
  2
ROMANT
 70
     0
 40
0.2
 41
1.0
 50
0.0
 71
     0
 42
0.2
  3
ROMANT
  4

  0
ENDTAB
  0
TABLE
  2
VIEW
 70
     0
  0
ENDTAB
  0
TABLE
  2
UCS
 70
     0
  0
ENDTAB
  0
TABLE
  2
APPID
 70
     1
  0
APPID
  2
ACAD
 70
     0
  0
ENDTAB
  0
TABLE
  2
DIMSTYLE
 70
     1
  0
DIMSTYLE
  2
STANDARD
 70
     0
  3

  4

  5

  6

  7

 40
1.0
 41
0.18
 42
0.0625
 43
0.38
 44
0.18
 45
0.0
 46
0.0
 47
0.0
 48
0.0
140
0.18
141
0.09
142
0.0
143
25.4
144
1.0
145
0.0
146
1.0
147
0.09
 71
     0
 72
     0
 73
     1
 74
     1
 75
     0
 76
     0
 77
     0
 78
     0
170
     0
171
     2
172
     0
173
     0
174
     0
175
     0
176
     0
177
     0
178
     0
  0
ENDTAB
  0
ENDSEC
  0
SECTION
  2
BLOCKS
  0
BLOCK
  8
1
  6
CONTINUOUS
 62
     1
  5
2A
  2
STDBRD
 70
     0
 10
0.0
 20
0.0
 30
0.0
  3
STDBRD
  0
LINE
  8
61
  6
CONTINUOUS
 62
     1
  5
2C
 10
2.787917
 20
1.791833
 30
0.0
 11
0.12525
 21
1.791833
 31
0.0
  0
LINE
  8
61
  6
CONTINUOUS
 62
     1
  5
2D
 10
0.12525
 20
1.791833
 30
0.0
 11
0.12525
 21
0.04175
 31
0.0
  0
LINE
  8
61
  6
CONTINUOUS
 62
     1
  5
2E
 10
2.788
 20
0.041667
 30
0.0
 11
0.12525
 21
0.04175
 31
0.0
  0
LINE
  8
61
  6
CONTINUOUS
 62
     1
  5
2F
 10
2.787917
 20
1.791833
 30
0.0
 11
2.788
 21
0.041667
 31
0.0
  0
LINE
  8
61
  6
CONTINUOUS
 62
     7
  5
30
 10
2.7625
 20
1.772083
 30
0.0
 11
2.312583
 21
1.772
 31
0.0
  0
LINE
  8
61
  6
CONTINUOUS
 62
     7
  5
31
 10
2.312583
 20
1.772
 30
0.0
 11
2.312583
 21
1.688667
 31
0.0
  0
LINE
  8
61
  6
CONTINUOUS
 62
     7
  5
32
 10
2.7625
 20
1.772083
 30
0.0
 11
2.7625
 21
1.68875
 31
0.0
  0
LINE
  8
61
  6
CONTINUOUS
 62
     7
  5
33
 10
2.7625
 20
1.68875
 30
0.0
 11
2.312583
 21
1.688667
 31
0.0
  0
LINE
  8
61
  6
CONTINUOUS
 62
     7
  5
34
 10
2.762583
 20
1.73025
 30
0.0
 11
2.3125
 21
1.730333
 31
0.0
  0
LINE
  8
61
  6
CONTINUOUS
 62
     7
  5
35
 10
2.35425
 20
1.772
 30
0.0
 11
2.35425
 21
1.688667
 31
0.0
  0
LINE
  8
61
  6
CONTINUOUS
 62
     7
  5
36
 10
2.395917
 20
1.772
 30
0.0
 11
2.395917
 21
1.688667
 31
0.0
  0
LINE
  8
61
  6
CONTINUOUS
 62
     7
  5
37
 10
2.452917
 20
1.772
 30
0.0
 11
2.452917
 21
1.688667
 31
0.0
  0
LINE
  8
61
  6
CONTINUOUS
 62
     7
  5
38
 10
2.720833
 20
1.772083
 30
0.0
 11
2.720833
 21
1.68875
 31
0.0
  0
LINE
  8
61
  6
CONTINUOUS
 62
     7
  5
39
 10
2.679167
 20
1.772083
 30
0.0
 11
2.679167
 21
1.68875
 31
0.0
  0
LINE
  8
61
  6
CONTINUOUS
 62
     7
  5
3A
 10
2.587583
 20
1.772
 30
0.0
 11
2.587583
 21
1.688667
 31
0.0
  0
LINE
  8
61
  6
CONTINUOUS
 62
     7
  5
3B
 10
2.545917
 20
1.772
 30
0.0
 11
2.545917
 21
1.688667
 31
0.0
  0
TEXT
  8
61
  6
CONTINUOUS
 62
     7
  5
3D
 10
2.321083
 20
1.759417
 30
0.0
 40
0.005
  1
PUBLIC
 50
0.033272
  7
MONOTXT
210
0.0
220
0.0
230
1.0
  0
TEXT
  8
61
  6
CONTINUOUS
 62
     7
  5
3E
 10
2.321417
 20
1.748917
 30
0.0
 40
0.005
  1
ROADS
 50
0.124322
  7
MONOTXT
210
0.0
220
0.0
230
1.0
  0
TEXT
  8
61
  6
CONTINUOUS
 62
     7
  5
3F
 10
2.326417
 20
1.7385
 30
0.0
 40
0.005
  1
DIV.
 50
359.931522
  7
MONOTXT
210
0.0
220
0.0
230
1.0
  0
TEXT
  8
61
  6
CONTINUOUS
 62
     7
  5
40
 10
2.363417
 20
1.759667
 30
0.0
 40
0.005
  1
STATE
 50
0.058969
  7
MONOTXT
210
0.0
220
0.0
230
1.0
  0
TEXT
  8
61
  6
CONTINUOUS
 62
     7
  5
41
 10
2.367083
 20
1.74925
 30
0.0
 40
0.005
  1
DIST.
 50
0.055889
  7
MONOTXT
210
0.0
220
0.0
230
1.0
  0
TEXT
  8
61
  6
CONTINUOUS
 62
     7
  5
42
 10
2.3695
 20
1.73875
 30
0.0
 40
0.005
  1
NO.
 50
359.852072
  7
MONOTXT
210
0.0
220
0.0
230
1.0
  0
TEXT
  8
61
  6
CONTINUOUS
 62
     7
  5
43
 10
2.413417
 20
1.759417
 30
0.0
 40
0.005
  1
STATE
 50
0.058969
  7
MONOTXT
210
0.0
220
0.0
230
1.0
  0
TEXT
  8
61
  6
CONTINUOUS
 62
     7
  5
44
 10
2.408917
 20
1.749333
 30
0.0
 40
0.005
  1
PROJECT
 50
359.908431
  7
MONOTXT
210
0.0
220
0.0
230
1.0
  0
TEXT
  8
61
  6
CONTINUOUS
 62
     7
  5
45
 10
2.420333
 20
1.73875
 30
0.0
 40
0.005
  1
NO.
 50
0.225453
  7
MONOTXT
210
0.0
220
0.0
230
1.0
  0
TEXT
  8
61
  6
CONTINUOUS
 62
     7
  5
46
 10
2.4855
 20
1.75475
 30
0.0
 40
0.005
  1
FEDERAL
 50
0.006714
  7
MONOTXT
210
0.0
220
0.0
230
1.0
  0
TEXT
  8
61
  6
CONTINUOUS
 62
     7
  5
47
 10
2.479083
 20
1.743667
 30
0.0
 40
0.005
  1
PROJECT NO.
 50
359.921531
  7
MONOTXT
210
0.0
220
0.0
230
1.0
  0
TEXT
  8
61
  6
CONTINUOUS
 62
     7
  5
48
 10
2.55525
 20
1.7545
 30
0.0
 40
0.005
  1
FISCAL
 50
359.941939
  7
MONOTXT
210
0.0
220
0.0
230
1.0
  0
TEXT
  8
61
  6
CONTINUOUS
 62
     7
  5
49
 10
2.557417
 20
1.742417
 30
0.0
 40
0.005
  1
YEAR
 50
0.104606
  7
MONOTXT
210
0.0
220
0.0
230
1.0
  0
TEXT
  8
61
  6
CONTINUOUS
 62
     7
  5
4A
 10
2.616167
 20
1.748083
 30
0.0
 40
0.005
  1
COUNTY
 50
0.068575
  7
MONOTXT
210
0.0
220
0.0
230
1.0
  0
TEXT
  8
61
  6
CONTINUOUS
 62
     7
  5
4B
 10
2.689667
 20
1.755
 30
0.0
 40
0.005
  1
SHEET
 50
0.058969
  7
MONOTXT
210
0.0
220
0.0
230
1.0
  0
TEXT
  8
61
  6
CONTINUOUS
 62
     7
  5
4C
 10
2.695583
 20
1.743667
 30
0.0
 40
0.005
  1
NO.
 50
359.852072
  7
MONOTXT
210
0.0
220
0.0
230
1.0
  0
TEXT
  8
61
  6
CONTINUOUS
 62
     7
  5
4D
 10
2.73025
 20
1.754417
 30
0.0
 40
0.005
  1
TOTAL
 50
359.926039
  7
MONOTXT
210
0.0
220
0.0
230
1.0
  0
TEXT
  8
61
  6
CONTINUOUS
 62
     7
  5
4E
 10
2.728333
 20
1.743167
 30
0.0
 40
0.005
  1
SHEETS
 50
359.958675
  7
MONOTXT
210
0.0
220
0.0
230
1.0
  0
ATTDEF
  8
61
  6
CONTINUOUS
 62
     7
  5
4F
 10
0.0
 20
0.0
 30
0.0
 40
0.01
  1
  
  3

  2
TAG00
 70
     0
 50
0.029406
  7
MONOTXT
210
0.0
220
0.0
230
1.0
  0
ATTDEF
  8
61
  6
CONTINUOUS
 62
     7
  5
50
 10
0.0
 20
0.0
 30
0.0
 40
0.01
  1
   
  3

  2
TAG10
 70
     0
 50
0.011508
  7
MONOTXT
210
0.0
220
0.0
230
1.0
  0
ATTDEF
  8
61
  6
CONTINUOUS
 62
     7
  5
51
 10
0.0
 20
0.0
 30
0.0
 40
0.01
  1
   
  3

  2
TAG20
 70
     0
 50
359.922128
  7
MONOTXT
210
0.0
220
0.0
230
1.0
  0
ATTDEF
  8
61
  6
CONTINUOUS
 62
     7
  5
52
 10
0.0
 20
0.0
 30
0.0
 40
0.008333
  1
    
  3

  2
TAG30
 70
     0
 50
0.054383
  7
MONOTXT
210
0.0
220
0.0
230
1.0
  0
ATTDEF
  8
61
  6
CONTINUOUS
 62
     7
  5
53
 10
0.0
 20
0.0
 30
0.0
 40
0.00825
  1
       
  3

  2
TAG40
 70
     0
 50
0.064678
 41
1.010101
  7
MONOTXT
210
0.0
220
0.0
230
1.0
  0
ATTDEF
  8
61
  6
CONTINUOUS
 62
     7
  5
54
 10
0.0
 20
0.0
 30
0.0
 40
0.00825
  1
      
  3

  2
TAG50
 70
     0
 50
359.958053
 41
1.010101
  7
MONOTXT
210
0.0
220
0.0
230
1.0
  0
ATTDEF
  8
61
  6
CONTINUOUS
 62
     7
  5
55
 10
0.0
 20
0.0
 30
0.0
 40
0.01
  1
           
  3

  2
TAG60
 70
     0
 50
0.011508
  7
MONOTXT
210
0.0
220
0.0
230
1.0
  0
ATTDEF
  8
61
  6
CONTINUOUS
 62
     7
  5
56
 10
0.0
 20
0.0
 30
0.0
 40
0.01
  1
           
  3

  2
TAG70
 70
     0
 50
0.011508
  7
MONOTXT
210
0.0
220
0.0
230
1.0
  0
ATTDEF
  8
61
  6
CONTINUOUS
 62
     7
  5
57
 10
0.0
 20
0.0
 30
0.0
 40
0.008333
  1
          
  3

  2
TAG80
 70
     0
 50
0.009222
  7
MONOTXT
210
0.0
220
0.0
230
1.0
  0
ARC
  8
61
  6
CONTINUOUS
 62
     3
  5
58
 10
0.048991
 20
1.422005
 30
0.0
 40
0.010417
 50
323.130094
 51
316.232156
210
0.0
220
0.0
230
1.0
  0
ARC
  8
61
  6
CONTINUOUS
 62
     3
  5
59
 10
0.048991
 20
1.192839
 30
0.0
 40
0.010417
 50
323.130094
 51
315.375767
210
0.0
220
0.0
230
1.0
  0
ARC
  8
61
  6
CONTINUOUS
 62
     3
  5
5A
 10
0.047824
 20
0.574339
 30
0.0
 40
0.010417
 50
322.671753
 51
321.716147
210
0.0
220
0.0
230
1.0
  0
ARC
  8
61
  6
CONTINUOUS
 62
     3
  5
5B
 10
0.047824
 20
0.345172
 30
0.0
 40
0.010417
 50
323.130094
 51
312.314392
210
0.0
220
0.0
230
1.0
  0
LINE
  8
61
  6
CONTINUOUS
 62
     2
  5
5C
 10
0.057417
 20
1.422
 30
0.0
 11
0.090667
 21
1.422083
 31
0.0
  0
LINE
  8
61
  6
CONTINUOUS
 62
     2
  5
5D
 10
0.057333
 20
1.192833
 30
0.0
 11
0.090667
 21
1.192833
 31
0.0
  0
LINE
  8
61
  6
CONTINUOUS
 62
     2
  5
5E
 10
0.056167
 20
0.574417
 30
0.0
 11
0.0895
 21
0.574417
 31
0.0
  0
LINE
  8
61
  6
CONTINUOUS
 62
     2
  5
5F
 10
0.05625
 20
0.345167
 30
0.0
 11
0.0895
 21
0.345167
 31
0.0
  0
LINE
  8
61
  6
DASHED
 62
     1
  5
60
 10
0.00025
 20
1.8335
 30
0.0
 11
2.833667
 21
1.8335
 31
0.0
  0
LINE
  8
61
  6
DASHED
 62
     1
  5
61
 10
2.833583
 20
0.000083
 30
0.0
 11
0.0
 21
0.0
 31
0.0
  0
ATTDEF
  8
61
  6
CONTINUOUS
 62
     7
  5
62
 10
0.0
 20
0.0
 30
0.0
 40
0.01
  1
     
  3

  2
TAG90
 70
     0
  7
MONOTXT
210
0.0
220
0.0
230
1.0
  0
LINE
  8
1
  6
HIDDEN
 62
     1
  5
63
 10
2.833667
 20
1.8335
 30
0.0
 11
2.833583
 21
0.000083
 31
0.0
  0
LINE
  8
1
  6
HIDDEN
 62
     1
  5
64
 10
0.00025
 20
1.8335
 30
0.0
 11
0.0
 21
0.0
 31
0.0
  0
TEXT
  8
1
  6
CONTINUOUS
 62
     1
  5
66
 10
2.645167
 20
0.03125
 30
0.0
 40
0.005
  1
TRAFFIC ENGINEERING DIVISION
  7
txt
210
0.0
220
0.0
230
1.0
  0
LINE
  8
1
  6
CONTINUOUS
 62
     7
  5
67
 10
2.07275
 20
0.041667
 30
0.0
 11
2.07275
 21
0.42325
 31
0.0
  0
LINE
  8
1
  6
CONTINUOUS
 62
     7
  5
68
 10
2.07275
 20
0.42325
 30
0.0
 11
2.788
 21
0.42325
 31
0.0
  0
LINE
  8
1
  6
CONTINUOUS
 62
     7
  5
69
 10
2.218583
 20
0.0415
 30
0.0
 11
2.218583
 21
0.228833
 31
0.0
  0
LINE
  8
1
  6
CONTINUOUS
 62
     7
  5
6A
 10
2.218583
 20
0.228833
 30
0.0
 11
2.072833
 21
0.228833
 31
0.0
  0
LINE
  8
1
  6
CONTINUOUS
 62
     7
  5
6B
 10
2.218583
 20
0.210167
 30
0.0
 11
2.072833
 21
0.210167
 31
0.0
  0
LINE
  8
1
  6
CONTINUOUS
 62
     7
  5
6C
 10
2.218583
 20
0.191417
 30
0.0
 11
2.072833
 21
0.191417
 31
0.0
  0
LINE
  8
1
  6
CONTINUOUS
 62
     7
  5
6D
 10
2.218583
 20
0.172667
 30
0.0
 11
2.072833
 21
0.172667
 31
0.0
  0
LINE
  8
1
  6
CONTINUOUS
 62
     7
  5
6E
 10
2.218583
 20
0.153833
 30
0.0
 11
2.072833
 21
0.153833
 31
0.0
  0
LINE
  8
1
  6
CONTINUOUS
 62
     7
  5
6F
 10
2.218583
 20
0.135167
 30
0.0
 11
2.072833
 21
0.135167
 31
0.0
  0
LINE
  8
1
  6
CONTINUOUS
 62
     7
  5
70
 10
2.218583
 20
0.1165
 30
0.0
 11
2.072833
 21
0.1165
 31
0.0
  0
LINE
  8
1
  6
CONTINUOUS
 62
     7
  5
71
 10
2.218583
 20
0.09775
 30
0.0
 11
2.072833
 21
0.09775
 31
0.0
  0
LINE
  8
1
  6
CONTINUOUS
 62
     7
  5
72
 10
2.218583
 20
0.079
 30
0.0
 11
2.072833
 21
0.079
 31
0.0
  0
LINE
  8
1
  6
CONTINUOUS
 62
     7
  5
73
 10
2.218583
 20
0.060167
 30
0.0
 11
2.072833
 21
0.060167
 31
0.0
  0
TEXT
  8
1
  6
CONTINUOUS
 62
     7
  5
74
 10
2.115583
 20
0.216333
 30
0.0
 40
0.008333
  1
REVISIONS
  7
MONOTXT
210
0.0
220
0.0
230
1.0
  0
TEXT
  8
1
  6
CONTINUOUS
 62
     7
  5
75
 10
2.080917
 20
0.233
 30
0.0
 40
0.008333
  1
PREPARED: 
  7
MONOTXT
210
0.0
220
0.0
230
1.0
  0
ATTDEF
  8
1
  6
CONTINUOUS
 62
     7
  5
76
 10
0.0
 20
0.0
 30
0.0
 40
0.008333
  1
09
  3

  2
TAG100
 70
     0
  7
MONOTXT
210
0.0
220
0.0
230
1.0
  0
TEXT
  8
1
  6
CONTINUOUS
 62
     7
  5
77
 10
2.16625
 20
0.233
 30
0.0
 40
0.008333
  1
/
  7
MONOTXT
210
0.0
220
0.0
230
1.0
  0
ATTDEF
  8
1
  6
CONTINUOUS
 62
     7
  5
78
 10
0.0
 20
0.0
 30
0.0
 40
0.008333
  1
02
  3

  2
TAG101
 70
     0
  7
MONOTXT
210
0.0
220
0.0
230
1.0
  0
TEXT
  8
1
  6
CONTINUOUS
 62
     7
  5
79
 10
2.184583
 20
0.233
 30
0.0
 40
0.008333
  1
/
  7
MONOTXT
210
0.0
220
0.0
230
1.0
  0
ATTDEF
  8
1
  6
CONTINUOUS
 62
     7
  5
7A
 10
0.0
 20
0.0
 30
0.0
 40
0.008333
  1
75
  3

  2
TAG102
 70
     0
  7
MONOTXT
210
0.0
220
0.0
230
1.0
  0
TEXT
  8
1
  6
CONTINUOUS
 62
     7
  5
7C
 10
2.208667
 20
0.387417
 30
0.0
 40
0.02
  1
WEST VIRGINIA DIVISION OF HIGHWAYS
  7
ROMANT
 72
     1
 11
2.4335
 21
0.407417
 31
0.0
210
0.0
220
0.0
230
1.0
 73
     3
  0
TEXT
  8
1
  6
CONTINUOUS
 62
     7
  5
7D
 10
2.2535
 20
0.340917
 30
0.0
 40
0.029167
  1
STANDARD DETAIL
  7
txt
 72
     1
 11
2.438833
 21
0.370083
 31
0.0
210
0.0
220
0.0
230
1.0
 73
     3
  0
TEXT
  8
1
  6
CONTINUOUS
 62
     7
  5
7E
 10
2.234583
 20
0.0585
 30
0.0
 40
0.029167
  1
STANDARD SHEET 
  7
txt
210
0.0
220
0.0
230
1.0
  0
ATTDEF
  8
1
  6
CONTINUOUS
 62
     7
  5
7F
 10
0.0
 20
0.0
 30
0.0
 40
0.029167
  1
TEL-21
  3

  2
TAG110
 70
     0
  7
txt
210
0.0
220
0.0
230
1.0
  0
ATTDEF
  8
1
  6
CONTINUOUS
 62
     1
  5
80
 10
0.0
 20
0.0
 30
0.0
 40
0.008333
  1
12-10-76
  3

  2
TAG120
 70
     0
  7
MONOTXT
 72
     1
 11
0.0
 21
0.0
 31
0.0
210
0.0
220
0.0
230
1.0
 74
     3
  0
ATTDEF
  8
1
  6
CONTINUOUS
 62
     1
  5
81
 10
0.0
 20
0.0
 30
0.0
 40
0.008333
  1
07-07-89
  3

  2
TAG130
 70
     0
  7
MONOTXT
 72
     1
 11
0.0
 21
0.0
 31
0.0
210
0.0
220
0.0
230
1.0
 74
     3
  0
ATTDEF
  8
1
  6
CONTINUOUS
 62
     1
  5
82
 10
0.0
 20
0.0
 30
0.0
 40
0.008333
  1
01-26-93
  3

  2
TAG140
 70
     0
  7
MONOTXT
 72
     1
 11
0.0
 21
0.0
 31
0.0
210
0.0
220
0.0
230
1.0
 74
     3
  0
ATTDEF
  8
1
  6
CONTINUOUS
 62
     1
  5
83
 10
0.0
 20
0.0
 30
0.0
 40
0.008333
  1
        
  3

  2
TAG150
 70
     0
  7
MONOTXT
 72
     1
 11
0.0
 21
0.0
 31
0.0
210
0.0
220
0.0
230
1.0
 74
     3
  0
ATTDEF
  8
1
  6
CONTINUOUS
 62
     1
  5
84
 10
0.0
 20
0.0
 30
0.0
 40
0.008333
  1
        
  3

  2
TAG160
 70
     0
  7
MONOTXT
 72
     1
 11
0.0
 21
0.0
 31
0.0
210
0.0
220
0.0
230
1.0
 74
     3
  0
ATTDEF
  8
1
  6
CONTINUOUS
 62
     1
  5
85
 10
0.0
 20
0.0
 30
0.0
 40
0.008333
  1
        
  3

  2
TAG170
 70
     0
  7
MONOTXT
 72
     1
 11
0.0
 21
0.0
 31
0.0
210
0.0
220
0.0
230
1.0
 74
     3
  0
ATTDEF
  8
1
  6
CONTINUOUS
 62
     1
  5
86
 10
0.0
 20
0.0
 30
0.0
 40
0.008333
  1
        
  3

  2
TAG180
 70
     0
  7
MONOTXT
 72
     1
 11
0.0
 21
0.0
 31
0.0
210
0.0
220
0.0
230
1.0
 74
     3
  0
ATTDEF
  8
1
  6
CONTINUOUS
 62
     1
  5
87
 10
0.0
 20
0.0
 30
0.0
 40
0.008333
  1
        
  3

  2
TAG190
 70
     0
  7
MONOTXT
 72
     1
 11
0.0
 21
0.0
 31
0.0
210
0.0
220
0.0
230
1.0
 74
     3
  0
ATTDEF
  8
1
  6
CONTINUOUS
 62
     1
  5
88
 10
0.0
 20
0.0
 30
0.0
 40
0.008333
  1
        
  3

  2
TAG200
 70
     0
  7
MONOTXT
 72
     1
 11
0.0
 21
0.0
 31
0.0
210
0.0
220
0.0
230
1.0
 74
     3
  0
ENDBLK
  8
1
  6
CONTINUOUS
 62
     1
  5
89
  0
BLOCK
  8
1
  6
CONTINUOUS
 62
     1
  5
259
  2
LDR
 70
     0
 10
0.0
 20
0.0
 30
0.0
  3
LNR
  0
POLYLINE
  8
1
  6
CONTINUOUS
 62
     1
  5
25A
 66
     1
 10
0.0
 20
0.0
 30
0.0
210
0.0
220
0.0
230
1.0
  0
VERTEX
  8
1
  6
CONTINUOUS
 62
     1
  5
25B
 10
-0.011987
 20
-0.001802
 30
0.0
 42
-0.265147
  0
VERTEX
  8
1
  6
CONTINUOUS
 62
     1
  5
25C
 10
-0.011849
 20
-0.001604
 30
0.0
 42
-0.064653
  0
VERTEX
  8
1
  6
CONTINUOUS
 62
     1
  5
25D
 10
-0.011407
 20
-0.001387
 30
0.0
 42
-0.025822
  0
VERTEX
  8
1
  6
CONTINUOUS
 62
     1
  5
25E
 10
-0.010681
 20
-0.00116
 30
0.0
 42
-0.014504
  0
VERTEX
  8
1
  6
CONTINUOUS
 62
     1
  5
25F
 10
-0.0097
 20
-0.000933
 30
0.0
 42
-0.009896
  0
VERTEX
  8
1
  6
CONTINUOUS
 62
     1
  5
260
 10
-0.008505
 20
-0.000715
 30
0.0
 42
-0.007708
  0
VERTEX
  8
1
  6
CONTINUOUS
 62
     1
  5
261
 10
-0.007146
 20
-0.000515
 30
0.0
 42
-0.006655
  0
VERTEX
  8
1
  6
CONTINUOUS
 62
     1
  5
262
 10
-0.005679
 20
-0.000342
 30
0.0
 42
-0.006278
  0
VERTEX
  8
1
  6
CONTINUOUS
 62
     1
  5
263
 10
-0.004164
 20
-0.000202
 30
0.0
 42
-0.006439
  0
VERTEX
  8
1
  6
CONTINUOUS
 62
     1
  5
264
 10
-0.002666
 20
-0.000101
 30
0.0
 42
-0.007196
  0
VERTEX
  8
1
  6
CONTINUOUS
 62
     1
  5
265
 10
-0.001246
 20
-0.000044
 30
0.0
 42
-0.008852
  0
VERTEX
  8
1
  6
CONTINUOUS
 62
     1
  5
266
 10
0.000037
 20
-0.000034
 30
0.0
 42
-0.008852
  0
SEQEND
  8
1
  6
CONTINUOUS
 62
     1
  5
267
  0
POLYLINE
  8
1
  6
CONTINUOUS
 62
     1
  5
268
 66
     1
 10
0.0
 20
0.0
 30
0.0
210
0.0
220
0.0
230
1.0
  0
VERTEX
  8
1
  6
CONTINUOUS
 62
     1
  5
269
 10
0.000039
 20
0.000014
 30
0.0
 42
-0.005019
  0
VERTEX
  8
1
  6
CONTINUOUS
 62
     1
  5
26A
 10
-0.001103
 20
0.000071
 30
0.0
 42
-0.004038
  0
VERTEX
  8
1
  6
CONTINUOUS
 62
     1
  5
26B
 10
-0.002373
 20
0.000158
 30
0.0
 42
-0.003548
  0
VERTEX
  8
1
  6
CONTINUOUS
 62
     1
  5
26C
 10
-0.003725
 20
0.00027
 30
0.0
 42
-0.003367
  0
VERTEX
  8
1
  6
CONTINUOUS
 62
     1
  5
26D
 10
-0.005111
 20
0.000405
 30
0.0
 42
-0.003436
  0
VERTEX
  8
1
  6
CONTINUOUS
 62
     1
  5
26E
 10
-0.006481
 20
0.000556
 30
0.0
 42
-0.003778
  0
VERTEX
  8
1
  6
CONTINUOUS
 62
     1
  5
26F
 10
-0.007786
 20
0.00072
 30
0.0
 42
-0.00451
  0
VERTEX
  8
1
  6
CONTINUOUS
 62
     1
  5
270
 10
-0.008979
 20
0.000889
 30
0.0
 42
-0.00594
  0
VERTEX
  8
1
  6
CONTINUOUS
 62
     1
  5
271
 10
-0.010018
 20
0.001058
 30
0.0
 42
-0.008921
  0
VERTEX
  8
1
  6
CONTINUOUS
 62
     1
  5
272
 10
-0.010864
 20
0.00122
 30
0.0
 42
-0.016392
  0
VERTEX
  8
1
  6
CONTINUOUS
 62
     1
  5
273
 10
-0.011488
 20
0.001371
 30
0.0
 42
-0.04458
  0
VERTEX
  8
1
  6
CONTINUOUS
 62
     1
  5
274
 10
-0.011867
 20
0.001503
 30
0.0
 42
-0.317392
  0
VERTEX
  8
1
  6
CONTINUOUS
 62
     1
  5
275
 10
-0.011987
 20
0.001614
 30
0.0
 42
-0.317392
  0
SEQEND
  8
1
  6
CONTINUOUS
 62
     1
  5
276
  0
ENDBLK
  8
1
  6
CONTINUOUS
 62
     1
  5
277
  0
ENDSEC
  0
SECTION
  2
ENTITIES
  0
INSERT
  8
1
  6
CONTINUOUS
 62
     1
  5
8A
 66
     1
  2
STDBRD
 10
-1.189167
 20
-0.528917
 30
0.0
 41
240.0
 42
240.0
210
0.0
220
0.0
230
1.0
  0
ATTRIB
  8
61
  6
CONTINUOUS
 62
     7
  5
8B
 10
566.430833
 20
408.951083
 30
0.0
 40
2.401333
  1
  
  2
TAG210
 70
     0
 50
0.029406
 41
0.996495
  7
MONOTXT
210
0.0
220
0.0
230
1.0
  0
ATTRIB
  8
61
  6
CONTINUOUS
 62
     7
  5
8C
 10
643.610833
 20
408.671083
 30
0.0
 40
2.40125
  1
   
  2
TAG220
 70
     0
 50
0.011508
 41
1.001041
  7
MONOTXT
210
0.0
220
0.0
230
1.0
  0
ATTRIB
  8
61
  6
CONTINUOUS
 62
     7
  5
8D
 10
653.490833
 20
408.651083
 30
0.0
 40
2.40125
  1
   
  2
TAG230
 70
     0
 50
359.922128
 41
1.00059
  7
MONOTXT
210
0.0
220
0.0
230
1.0
  0
ATTRIB
  8
61
  6
CONTINUOUS
 62
     7
  5
8E
 10
576.870833
 20
412.051083
 30
0.0
 40
2.006667
  1
    
  2
TAG240
 70
     0
 50
0.054383
 41
0.993729
  7
MONOTXT
210
0.0
220
0.0
230
1.0
  0
ATTRIB
  8
61
  6
CONTINUOUS
 62
     7
  5
8F
 10
573.950833
 20
409.031083
 30
0.0
 40
1.9895
  1
       
  2
TAG250
 70
     0
 50
0.064678
 41
1.000963
  7
MONOTXT
210
0.0
220
0.0
230
1.0
  0
ATTRIB
  8
61
  6
CONTINUOUS
 62
     7
  5
90
 10
574.910833
 20
406.131083
 30
0.0
 40
1.9895
  1
      
  2
TAG260
 70
     0
 50
359.958053
 41
1.000293
  7
MONOTXT
210
0.0
220
0.0
230
1.0
  0
ATTRIB
  8
61
  6
CONTINUOUS
 62
     7
  5
91
 10
585.870833
 20
410.771083
 30
0.0
 40
2.40125
  1
           
  2
TAG270
 70
     0
 50
0.011508
 41
0.998785
  7
MONOTXT
210
0.0
220
0.0
230
1.0
  0
ATTRIB
  8
61
  6
CONTINUOUS
 62
     7
  5
92
 10
585.750833
 20
407.111083
 30
0.0
 40
2.40125
  1
           
  2
TAG280
 70
     0
 50
0.011508
 41
0.999618
  7
MONOTXT
210
0.0
220
0.0
230
1.0
  0
ATTRIB
  8
61
  6
CONTINUOUS
 62
     7
  5
93
 10
621.090833
 20
408.851083
 30
0.0
 40
2.006667
  1
          
  2
TAG290
 70
     0
 50
0.009222
 41
0.992816
  7
MONOTXT
210
0.0
220
0.0
230
1.0
  0
ATTRIB
  8
61
  6
CONTINUOUS
 62
     7
  5
94
 10
654.710833
 20
384.851083
 30
0.0
 40
2.40125
  1
     
  2
TAG300
 70
     0
 41
1.001388
  7
MONOTXT
210
0.0
220
0.0
230
1.0
  0
ATTRIB
  8
1
  6
CONTINUOUS
 62
     7
  5
95
 10
515.48175
 20
55.391083
 30
0.0
 40
1.99775
  1
09
  2
TAG310
 70
     0
  7
MONOTXT
210
0.0
220
0.0
230
1.0
  0
ATTRIB
  8
1
  6
CONTINUOUS
 62
     7
  5
96
 10
519.82325
 20
55.391083
 30
0.0
 40
1.99775
  1
02
  2
TAG311
 70
     0
  7
MONOTXT
210
0.0
220
0.0
230
1.0
  0
ATTRIB
  8
1
  6
CONTINUOUS
 62
     7
  5
97
 10
524.259083
 20
55.391083
 30
0.0
 40
1.99775
  1
75
  2
TAG312
 70
     0
  7
MONOTXT
210
0.0
220
0.0
230
1.0
  0
ATTRIB
  8
1
  6
CONTINUOUS
 62
     7
  5
98
 10
625.126167
 20
13.511083
 30
0.0
 40
6.992667
  1
TEL-21
  2
TAG320
 70
     0
  7
txt
210
0.0
220
0.0
230
1.0
  0
ATTRIB
  8
1
  6
CONTINUOUS
 62
     1
  5
99
 10
507.192833
 20
46.331083
 30
0.0
 40
2.0
  1
12-10-76
  2
TAG330
 70
     0
  7
MONOTXT
 72
     1
 11
513.578667
 21
48.331083
 31
0.0
210
0.0
220
0.0
230
1.0
 74
     3
  0
ATTRIB
  8
1
  6
CONTINUOUS
 62
     1
  5
9A
 10
506.30675
 20
41.931083
 30
0.0
 40
2.0
  1
07-07-89
  2
TAG340
 70
     0
  7
MONOTXT
 72
     1
 11
513.558667
 21
43.931083
 31
0.0
210
0.0
220
0.0
230
1.0
 74
     3
  0
ATTRIB
  8
1
  6
CONTINUOUS
 62
     1
  5
9B
 10
506.5
 20
37.531083
 30
0.0
 40
2.0
  1
01-26-93
  2
TAG350
 70
     0
  7
MONOTXT
 72
     1
 11
513.248
 21
39.531083
 31
0.0
210
0.0
220
0.0
230
1.0
 74
     3
  0
ATTRIB
  8
1
  6
CONTINUOUS
 62
     1
  5
9C
 10
505.570833
 20
33.131083
 30
0.0
 40
2.0
  1
        
  2
TAG360
 70
     0
  7
MONOTXT
 72
     1
 11
513.2375
 21
35.131083
 31
0.0
210
0.0
220
0.0
230
1.0
 74
     3
  0
ATTRIB
  8
1
  6
CONTINUOUS
 62
     1
  5
9D
 10
505.410833
 20
28.531083
 30
0.0
 40
2.0
  1
        
  2
TAG370
 70
     0
  7
MONOTXT
 72
     1
 11
513.0775
 21
30.531083
 31
0.0
210
0.0
220
0.0
230
1.0
 74
     3
  0
ATTRIB
  8
1
  6
CONTINUOUS
 62
     1
  5
9E
 10
505.570833
 20
24.051083
 30
0.0
 40
2.0
  1
        
  2
TAG380
 70
     0
  7
MONOTXT
 72
     1
 11
513.2375
 21
26.051083
 31
0.0
210
0.0
220
0.0
230
1.0
 74
     3
  0
ATTRIB
  8
1
  6
CONTINUOUS
 62
     1
  5
9F
 10
505.470833
 20
19.451083
 30
0.0
 40
2.0
  1
        
  2
TAG390
 70
     0
  7
MONOTXT
 72
     1
 11
513.1375
 21
21.451083
 31
0.0
210
0.0
220
0.0
230
1.0
 74
     3
  0
ATTRIB
  8
1
  6
CONTINUOUS
 62
     1
  5
A0
 10
505.570833
 20
14.871083
 30
0.0
 40
2.0
  1
        
  2
TAG400
 70
     0
  7
MONOTXT
 72
     1
 11
513.2375
 21
16.871083
 31
0.0
210
0.0
220
0.0
230
1.0
 74
     3
  0
ATTRIB
  8
1
  6
CONTINUOUS
 62
     1
  5
A1
 10
505.570833
 20
10.851083
 30
0.0
 40
2.0
  1
        
  2
TAG410
 70
     0
  7
MONOTXT
 72
     1
 11
513.2375
 21
12.851083
 31
0.0
210
0.0
220
0.0
230
1.0
 74
     3
  0
SEQEND
  8
1
  6
CONTINUOUS
 62
     1
  5
A2
  0
LINE
  8
1
  6
CONTINUOUS
 62
     7
  5
A3
 10
500.364
 20
115.180333
 30
0.0
 11
496.364
 21
115.180333
 31
0.0
  0
LINE
  8
1
  6
CONTINUOUS
 62
     7
  5
A4
 10
498.364
 20
118.644417
 30
0.0
 11
496.364
 21
115.180333
 31
0.0
  0
LINE
  8
1
  6
CONTINUOUS
 62
     7
  5
A5
 10
498.364
 20
118.644417
 30
0.0
 11
500.364
 21
115.180333
 31
0.0
  0
LINE
  8
1
  6
CONTINUOUS
 62
     7
  5
A6
 10
500.111917
 20
120.517083
 30
0.0
 11
496.111917
 21
120.517083
 31
0.0
  0
LINE
  8
1
  6
CONTINUOUS
 62
     7
  5
A7
 10
498.111917
 20
123.981167
 30
0.0
 11
496.111917
 21
120.517083
 31
0.0
  0
LINE
  8
1
  6
CONTINUOUS
 62
     7
  5
A8
 10
498.111917
 20
123.981167
 30
0.0
 11
500.111917
 21
120.517083
 31
0.0
  0
LINE
  8
1
  6
CONTINUOUS
 62
     7
  5
A9
 10
501.182083
 20
45.905417
 30
0.0
 11
497.182083
 21
45.905417
 31
0.0
  0
LINE
  8
1
  6
CONTINUOUS
 62
     7
  5
AA
 10
499.182083
 20
49.3695
 30
0.0
 11
497.182083
 21
45.905417
 31
0.0
  0
LINE
  8
1
  6
CONTINUOUS
 62
     7
  5
AB
 10
499.182083
 20
49.3695
 30
0.0
 11
501.182083
 21
45.905417
 31
0.0
  0
LINE
  8
1
  6
CONTINUOUS
 62
     7
  5
AC
 10
501.259
 20
41.424333
 30
0.0
 11
497.259
 21
41.424333
 31
0.0
  0
LINE
  8
1
  6
CONTINUOUS
 62
     7
  5
AD
 10
499.259
 20
44.888417
 30
0.0
 11
497.259
 21
41.424333
 31
0.0
  0
LINE
  8
1
  6
CONTINUOUS
 62
     7
  5
AE
 10
499.259
 20
44.888417
 30
0.0
 11
501.259
 21
41.424333
 31
0.0
  0
TEXT
  8
1
  6
CONTINUOUS
 62
     7
  5
AF
 10
497.79875
 20
120.918833
 30
0.0
 40
2.0
  1
1
  7
MONOTXT
210
0.0
220
0.0
230
1.0
  0
TEXT
  8
1
  6
CONTINUOUS
 62
     7
  5
B0
 10
497.690667
 20
115.463667
 30
0.0
 40
2.0
  1
2
  7
MONOTXT
210
0.0
220
0.0
230
1.0
  0
TEXT
  8
1
  6
CONTINUOUS
 62
     7
  5
B1
 10
501.30825
 20
115.894167
 30
0.0
 40
2.0
  1
MODIFY SERVICE POLE AND CONTROL
  7
MONOTXT
 11
501.30825
 21
117.894167
 31
0.0
210
0.0
220
0.0
230
1.0
 73
     3
  0
TEXT
  8
1
  6
CONTINUOUS
 62
     7
  5
B2
 10
501.30825
 20
111.894167
 30
0.0
 40
2.0
  1
STATION DETAILS. CHANGE NOTE 3.
  7
MONOTXT
 11
501.30825
 21
113.894167
 31
0.0
210
0.0
220
0.0
230
1.0
 73
     3
  0
TEXT
  8
1
  6
CONTINUOUS
 62
     7
  5
B3
 10
501.03825
 20
121.242833
 30
0.0
 40
2.0
  1
SIGNATURE BLOCK
  7
MONOTXT
210
0.0
220
0.0
230
1.0
  0
TEXT
  8
1
  6
CONTINUOUS
 62
     7
  5
B4
 10
498.870417
 20
46.30575
 30
0.0
 40
2.0
  1
1
  7
MONOTXT
210
0.0
220
0.0
230
1.0
  0
TEXT
  8
1
  6
CONTINUOUS
 62
     7
  5
B5
 10
498.551667
 20
41.736667
 30
0.0
 40
2.0
  1
2
  7
MONOTXT
210
0.0
220
0.0
230
1.0
  0
TEXT
  8
1
  6
CONTINUOUS
 62
     7
  5
B6
 10
507.1225
 20
70.541333
 30
0.0
 40
5.5
  1
SERVICE POLE AND CONTROL STATION
  7
txt
 72
     4
 11
581.4425
 21
73.291333
 31
0.0
210
0.0
220
0.0
230
1.0
  0
TEXT
  8
1
  6
CONTINUOUS
 62
     7
  5
B7
 10
524.8625
 20
63.041333
 30
0.0
 40
5.5
  1
(POLE MOUNTED ENCLOSURE)
  7
txt
 72
     4
 11
581.4425
 21
65.791333
 31
0.0
210
0.0
220
0.0
230
1.0
  0
LINE
  8
1
  6
CONTINUOUS
 62
     4
  5
B8
 10
104.341667
 20
398.923917
 30
0.0
 11
104.341667
 21
328.923917
 31
0.0
  0
LINE
  8
1
  6
CONTINUOUS
 62
     4
  5
B9
 10
114.341667
 20
400.923917
 30
0.0
 11
114.341667
 21
328.923917
 31
0.0
  0
LINE
  8
1
  6
CONTINUOUS
 62
     4
  5
BA
 10
114.341667
 20
400.923917
 30
0.0
 11
104.341667
 21
398.923917
 31
0.0
  0
ARC
  8
1
  6
CONTINUOUS
 62
     4
  5
BB
 10
106.841667
 20
330.116209
 30
0.0
 40
2.769758
 50
205.497267
 51
334.502733
210
0.0
220
0.0
230
1.0
  0
ARC
  8
1
  6
CONTINUOUS
 62
     4
  5
BC
 10
111.841667
 20
330.116209
 30
0.0
 40
2.769758
 50
205.497267
 51
334.502733
210
0.0
220
0.0
230
1.0
  0
ARC
  8
1
  6
CONTINUOUS
 62
     4
  5
BD
 10
111.841667
 20
327.731624
 30
0.0
 40
2.769758
 50
25.497267
 51
154.502733
210
0.0
220
0.0
230
1.0
  0
LINE
  8
1
  6
CONTINUOUS
 62
     4
  5
BE
 10
119.341667
 20
348.923917
 30
0.0
 11
119.341667
 21
328.923917
 31
0.0
  0
ARC
  8
1
  6
CONTINUOUS
 62
     4
  5
BF
 10
115.591667
 20
329.579887
 30
0.0
 40
1.411665
 50
207.689433
 51
332.310567
210
0.0
220
0.0
230
1.0
  0
ARC
  8
1
  6
CONTINUOUS
 62
     4
  5
C0
 10
118.091667
 20
329.579887
 30
0.0
 40
1.411665
 50
207.689433
 51
332.310567
210
0.0
220
0.0
230
1.0
  0
ARC
  8
1
  6
CONTINUOUS
 62
     4
  5
C1
 10
118.091667
 20
328.267946
 30
0.0
 40
1.411665
 50
27.689433
 51
152.310567
210
0.0
220
0.0
230
1.0
  0
LINE
  8
1
  6
CONTINUOUS
 62
     4
  5
C2
 10
119.341667
 20
348.923917
 30
0.0
 11
114.341667
 21
348.923917
 31
0.0
  0
LINE
  8
1
  6
CONTINUOUS
 62
     4
  5
C3
 10
119.341667
 20
347.923917
 30
0.0
 11
114.341667
 21
347.923917
 31
0.0
  0
LINE
  8
1
  6
CONTINUOUS
 62
     4
  5
C4
 10
113.841667
 20
347.673917
 30
0.0
 11
104.841667
 21
347.673917
 31
0.0
  0
LINE
  8
1
  6
CONTINUOUS
 62
     4
  5
C5
 10
107.841667
 20
374.173917
 30
0.0
 11
104.841667
 21
374.173917
 31
0.0
  0
LINE
  8
1
  6
CONTINUOUS
 62
     4
  5
C6
 10
113.841667
 20
374.173917
 30
0.0
 11
110.841667
 21
374.173917
 31
0.0
  0
LINE
  8
1
  6
CONTINUOUS
 62
     4
  5
C7
 10
109.841667
 20
374.173917
 30
0.0
 11
108.841667
 21
374.173917
 31
0.0
  0
LINE
  8
1
  6
CONTINUOUS
 62
     4
  5
C8
 10
125.341667
 20
350.423917
 30
0.0
 11
121.341667
 21
346.923917
 31
0.0
  0
LINE
  8
1
  6
CONTINUOUS
 62
     4
  5
C9
 10
119.341667
 20
348.923917
 30
0.0
 11
121.341667
 21
346.923917
 31
0.0
  0
LINE
  8
1
  6
CONTINUOUS
 62
     4
  5
CA
 10
123.341667
 20
352.423917
 30
0.0
 11
125.341667
 21
350.423917
 31
0.0
  0
ARC
  8
1
  6
CONTINUOUS
 62
     4
  5
CB
 10
119.703097
 20
348.458811
 30
0.0
 40
5.381566
 50
47.459022
 51
175.041986
210
0.0
220
0.0
230
1.0
  0
LINE
  8
1
  6
CONTINUOUS
 62
     4
  5
CC
 10
124.341667
 20
347.673917
 30
0.0
 11
136.341667
 21
347.673917
 31
0.0
  0
LINE
  8
1
  6
CONTINUOUS
 62
     4
  5
CD
 10
130.341667
 20
332.673917
 30
0.0
 11
130.341667
 21
347.673917
 31
0.0
  0
LINE
  8
1
  6
CONTINUOUS
 62
     4
  5
CE
 10
114.341667
 20
398.423917
 30
0.0
 11
116.091667
 21
398.423917
 31
0.0
  0
LINE
  8
1
  6
CONTINUOUS
 62
     4
  5
CF
 10
116.091667
 20
402.173917
 30
0.0
 11
116.091667
 21
398.173917
 31
0.0
  0
LINE
  8
1
  6
CONTINUOUS
 62
     4
  5
D0
 10
120.091667
 20
402.173917
 30
0.0
 11
120.091667
 21
398.173917
 31
0.0
  0
LINE
  8
1
  6
CONTINUOUS
 62
     4
  5
D1
 10
116.091667
 20
402.173917
 30
0.0
 11
120.091667
 21
402.173917
 31
0.0
  0
LINE
  8
1
  6
CONTINUOUS
 62
     4
  5
D2
 10
116.091667
 20
398.173917
 30
0.0
 11
120.091667
 21
398.173917
 31
0.0
  0
LINE
  8
1
  6
CONTINUOUS
 62
     4
  5
D3
 10
114.341667
 20
393.423917
 30
0.0
 11
119.841667
 21
393.423917
 31
0.0
  0
LINE
  8
1
  6
CONTINUOUS
 62
     4
  5
D4
 10
119.841667
 20
393.423917
 30
0.0
 11
119.841667
 21
392.423917
 31
0.0
  0
LINE
  8
1
  6
CONTINUOUS
 62
     4
  5
D5
 10
119.841667
 20
392.423917
 30
0.0
 11
115.591667
 21
392.423917
 31
0.0
  0
LINE
  8
1
  6
CONTINUOUS
 62
     4
  5
D6
 10
115.591667
 20
392.423917
 30
0.0
 11
115.591667
 21
387.423917
 31
0.0
  0
LINE
  8
1
  6
CONTINUOUS
 62
     4
  5
D7
 10
115.591667
 20
387.423917
 30
0.0
 11
119.841667
 21
387.423917
 31
0.0
  0
LINE
  8
1
  6
CONTINUOUS
 62
     4
  5
D8
 10
119.841667
 20
387.423917
 30
0.0
 11
119.841667
 21
386.423917
 31
0.0
  0
LINE
  8
1
  6
CONTINUOUS
 62
     4
  5
D9
 10
119.841667
 20
386.423917
 30
0.0
 11
115.591667
 21
386.423917
 31
0.0
  0
LINE
  8
1
  6
CONTINUOUS
 62
     4
  5
DA
 10
115.591667
 20
386.423917
 30
0.0
 11
115.591667
 21
378.923917
 31
0.0
  0
LINE
  8
1
  6
CONTINUOUS
 62
     4
  5
DB
 10
115.591667
 20
378.923917
 30
0.0
 11
119.841667
 21
378.923917
 31
0.0
  0
LINE
  8
1
  6
CONTINUOUS
 62
     4
  5
DC
 10
119.841667
 20
378.923917
 30
0.0
 11
119.841667
 21
377.923917
 31
0.0
  0
LINE
  8
1
  6
CONTINUOUS
 62
     4
  5
DD
 10
119.841667
 20
377.923917
 30
0.0
 11
115.591667
 21
377.923917
 31
0.0
  0
LINE
  8
1
  6
CONTINUOUS
 62
     4
  5
DE
 10
115.591667
 20
377.923917
 30
0.0
 11
115.591667
 21
371.923917
 31
0.0
  0
LINE
  8
1
  6
CONTINUOUS
 62
     4
  5
DF
 10
115.591667
 20
371.923917
 30
0.0
 11
119.841667
 21
371.923917
 31
0.0
  0
LINE
  8
1
  6
CONTINUOUS
 62
     4
  5
E0
 10
119.841667
 20
371.923917
 30
0.0
 11
119.841667
 21
370.923917
 31
0.0
  0
LINE
  8
1
  6
CONTINUOUS
 62
     4
  5
E1
 10
119.841667
 20
370.923917
 30
0.0
 11
114.341667
 21
370.923917
 31
0.0
  0
LINE
  8
1
  6
CONTINUOUS
 62
     4
  5
E2
 10
119.341667
 20
391.673917
 30
0.0
 11
115.591667
 21
391.673917
 31
0.0
  0
LINE
  8
1
  6
CONTINUOUS
 62
     4
  5
E3
 10
115.591667
 20
388.173917
 30
0.0
 11
119.341667
 21
388.173917
 31
0.0
  0
LINE
  8
1
  6
CONTINUOUS
 62
     4
  5
E4
 10
119.341667
 20
385.673917
 30
0.0
 11
115.591667
 21
385.673917
 31
0.0
  0
LINE
  8
1
  6
CONTINUOUS
 62
     4
  5
E5
 10
115.591667
 20
379.673917
 30
0.0
 11
119.341667
 21
379.673917
 31
0.0
  0
LINE
  8
1
  6
CONTINUOUS
 62
     4
  5
E6
 10
119.341667
 20
377.173917
 30
0.0
 11
115.591667
 21
377.173917
 31
0.0
  0
LINE
  8
1
  6
CONTINUOUS
 62
     4
  5
E7
 10
115.591667
 20
372.673917
 30
0.0
 11
119.341667
 21
372.673917
 31
0.0
  0
LINE
  8
1
  6
CONTINUOUS
 62
     4
  5
E8
 10
119.341667
 20
391.673917
 30
0.0
 11
119.341667
 21
392.423917
 31
0.0
  0
LINE
  8
1
  6
CONTINUOUS
 62
     4
  5
E9
 10
119.341667
 20
388.173917
 30
0.0
 11
119.341667
 21
387.423917
 31
0.0
  0
LINE
  8
1
  6
CONTINUOUS
 62
     4
  5
EA
 10
119.341667
 20
385.673917
 30
0.0
 11
119.341667
 21
386.423917
 31
0.0
  0
LINE
  8
1
  6
CONTINUOUS
 62
     4
  5
EB
 10
119.341667
 20
379.673917
 30
0.0
 11
119.341667
 21
378.923917
 31
0.0
  0
LINE
  8
1
  6
CONTINUOUS
 62
     4
  5
EC
 10
119.341667
 20
377.173917
 30
0.0
 11
119.341667
 21
377.923917
 31
0.0
  0
LINE
  8
1
  6
CONTINUOUS
 62
     4
  5
ED
 10
119.341667
 20
372.673917
 30
0.0
 11
119.341667
 21
371.923917
 31
0.0
  0
ARC
  8
1
  6
CONTINUOUS
 62
     4
  5
EE
 10
112.309391
 20
389.923917
 30
0.0
 40
3.719655
 50
331.934944
 51
28.065056
210
0.0
220
0.0
230
1.0
  0
ARC
  8
1
  6
CONTINUOUS
 62
     4
  5
EF
 10
122.623942
 20
389.923917
 30
0.0
 40
3.719655
 50
151.934944
 51
208.065056
210
0.0
220
0.0
230
1.0
  0
ARC
  8
1
  6
CONTINUOUS
 62
     4
  5
F0
 10
109.50979
 20
382.673917
 30
0.0
 40
6.781535
 50
333.744317
 51
26.255689
210
0.0
220
0.0
230
1.0
  0
ARC
  8
1
  6
CONTINUOUS
 62
     4
  5
F1
 10
125.423543
 20
382.673917
 30
0.0
 40
6.781535
 50
153.744311
 51
206.255683
210
0.0
220
0.0
230
1.0
  0
ARC
  8
1
  6
CONTINUOUS
 62
     4
  5
F2
 10
111.503347
 20
374.923917
 30
0.0
 40
4.666568
 50
331.173881
 51
28.826117
210
0.0
220
0.0
230
1.0
  0
ARC
  8
1
  6
CONTINUOUS
 62
     4
  5
F3
 10
123.429986
 20
374.923917
 30
0.0
 40
4.666568
 50
151.173883
 51
208.826119
210
0.0
220
0.0
230
1.0
  0
LINE
  8
1
  6
CONTINUOUS
 62
     4
  5
F4
 10
119.120583
 20
391.173917
 30
0.0
 11
115.81275
 21
391.173917
 31
0.0
  0
LINE
  8
1
  6
CONTINUOUS
 62
     4
  5
F5
 10
115.81275
 20
388.673917
 30
0.0
 11
119.120583
 21
388.673917
 31
0.0
  0
LINE
  8
1
  6
CONTINUOUS
 62
     4
  5
F6
 10
119.119667
 20
385.173917
 30
0.0
 11
115.813667
 21
385.173917
 31
0.0
  0
LINE
  8
1
  6
CONTINUOUS
 62
     4
  5
F7
 10
115.813667
 20
380.173917
 30
0.0
 11
119.119667
 21
380.173917
 31
0.0
  0
LINE
  8
1
  6
CONTINUOUS
 62
     4
  5
F8
 10
119.104
 20
376.673917
 30
0.0
 11
115.829333
 21
376.673917
 31
0.0
  0
LINE
  8
1
  6
CONTINUOUS
 62
     4
  5
F9
 10
115.829333
 20
373.173917
 30
0.0
 11
119.104
 21
373.173917
 31
0.0
  0
CIRCLE
  8
1
  6
CONTINUOUS
 62
     4
  5
FA
 10
122.831417
 20
389.564167
 30
0.0
 40
0.5
210
0.0
220
0.0
230
1.0
  0
CIRCLE
  8
1
  6
CONTINUOUS
 62
     4
  5
FB
 10
122.831417
 20
382.318667
 30
0.0
 40
0.5
210
0.0
220
0.0
230
1.0
  0
CIRCLE
  8
1
  6
CONTINUOUS
 62
     4
  5
FC
 10
122.801333
 20
374.562
 30
0.0
 40
0.5
210
0.0
220
0.0
230
1.0
  0
POLYLINE
  8
1
  6
CONTINUOUS
 62
     4
  5
FD
 66
     1
 10
0.0
 20
0.0
 30
0.0
  0
VERTEX
  8
1
  6
CONTINUOUS
 62
     4
  5
FE
 10
115.779083
 20
389.923917
 30
0.0
  0
VERTEX
  8
1
  6
CONTINUOUS
 62
     4
  5
FF
 10
115.868083
 20
389.916917
 30
0.0
  0
VERTEX
  8
1
  6
CONTINUOUS
 62
     4
  5
100
 10
115.936333
 20
389.916917
 30
0.0
  0
VERTEX
  8
1
  6
CONTINUOUS
 62
     4
  5
101
 10
116.004583
 20
389.909333
 30
0.0
  0
VERTEX
  8
1
  6
CONTINUOUS
 62
     4
  5
102
 10
116.050083
 20
389.909333
 30
0.0
  0
VERTEX
  8
1
  6
CONTINUOUS
 62
     4
  5
103
 10
116.10325
 20
389.909333
 30
0.0
  0
VERTEX
  8
1
  6
CONTINUOUS
 62
     4
  5
104
 10
116.156333
 20
389.909333
 30
0.0
  0
VERTEX
  8
1
  6
CONTINUOUS
 62
     4
  5
105
 10
116.217
 20
389.916917
 30
0.0
  0
VERTEX
  8
1
  6
CONTINUOUS
 62
     4
  5
106
 10
116.338333
 20
389.939667
 30
0.0
  0
VERTEX
  8
1
  6
CONTINUOUS
 62
     4
  5
107
 10
116.361083
 20
389.932083
 30
0.0
  0
VERTEX
  8
1
  6
CONTINUOUS
 62
     4
  5
108
 10
116.399
 20
389.916917
 30
0.0
  0
VERTEX
  8
1
  6
CONTINUOUS
 62
     4
  5
109
 10
116.436917
 20
389.9245
 30
0.0
  0
VERTEX
  8
1
  6
CONTINUOUS
 62
     4
  5
10A
 10
116.459667
 20
389.916917
 30
0.0
  0
VERTEX
  8
1
  6
CONTINUOUS
 62
     4
  5
10B
 10
116.581
 20
389.916917
 30
0.0
  0
VERTEX
  8
1
  6
CONTINUOUS
 62
     4
  5
10C
 10
116.649333
 20
389.85625
 30
0.0
  0
VERTEX
  8
1
  6
CONTINUOUS
 62
     4
  5
10D
 10
116.64175
 20
389.848667
 30
0.0
  0
VERTEX
  8
1
  6
CONTINUOUS
 62
     4
  5
10E
 10
116.672083
 20
389.871417
 30
0.0
  0
VERTEX
  8
1
  6
CONTINUOUS
 62
     4
  5
10F
 10
116.73275
 20
389.848667
 30
0.0
  0
VERTEX
  8
1
  6
CONTINUOUS
 62
     4
  5
110
 10
116.793417
 20
389.848667
 30
0.0
  0
VERTEX
  8
1
  6
CONTINUOUS
 62
     4
  5
111
 10
116.854083
 20
389.879
 30
0.0
  0
VERTEX
  8
1
  6
CONTINUOUS
 62
     4
  5
112
 10
116.861667
 20
389.886583
 30
0.0
  0
VERTEX
  8
1
  6
CONTINUOUS
 62
     4
  5
113
 10
116.922333
 20
389.90175
 30
0.0
  0
VERTEX
  8
1
  6
CONTINUOUS
 62
     4
  5
114
 10
116.952667
 20
389.886583
 30
0.0
  0
VERTEX
  8
1
  6
CONTINUOUS
 62
     4
  5
115
 10
116.990583
 20
389.863833
 30
0.0
  0
VERTEX
  8
1
  6
CONTINUOUS
 62
     4
  5
116
 10
117.020917
 20
389.85625
 30
0.0
  0
VERTEX
  8
1
  6
CONTINUOUS
 62
     4
  5
117
 10
117.172667
 20
389.841083
 30
0.0
  0
VERTEX
  8
1
  6
CONTINUOUS
 62
     4
  5
118
 10
117.22575
 20
389.85625
 30
0.0
  0
VERTEX
  8
1
  6
CONTINUOUS
 62
     4
  5
119
 10
117.331917
 20
389.8335
 30
0.0
  0
VERTEX
  8
1
  6
CONTINUOUS
 62
     4
  5
11A
 10
117.36225
 20
389.863833
 30
0.0
  0
VERTEX
  8
1
  6
CONTINUOUS
 62
     4
  5
11B
 10
117.422917
 20
389.863833
 30
0.0
  0
VERTEX
  8
1
  6
CONTINUOUS
 62
     4
  5
11C
 10
117.536667
 20
389.825917
 30
0.0
  0
VERTEX
  8
1
  6
CONTINUOUS
 62
     4
  5
11D
 10
117.551833
 20
389.825917
 30
0.0
  0
VERTEX
  8
1
  6
CONTINUOUS
 62
     4
  5
11E
 10
117.605
 20
389.825917
 30
0.0
  0
VERTEX
  8
1
  6
CONTINUOUS
 62
     4
  5
11F
 10
117.8325
 20
389.848667
 30
0.0
  0
VERTEX
  8
1
  6
CONTINUOUS
 62
     4
  5
120
 10
117.840083
 20
389.848667
 30
0.0
  0
VERTEX
  8
1
  6
CONTINUOUS
 62
     4
  5
121
 10
117.893167
 20
389.8335
 30
0.0
  0
VERTEX
  8
1
  6
CONTINUOUS
 62
     4
  5
122
 10
118.022083
 20
389.81075
 30
0.0
  0
VERTEX
  8
1
  6
CONTINUOUS
 62
     4
  5
123
 10
118.1435
 20
389.818333
 30
0.0
  0
VERTEX
  8
1
  6
CONTINUOUS
 62
     4
  5
124
 10
118.2345
 20
389.818333
 30
0.0
  0
VERTEX
  8
1
  6
CONTINUOUS
 62
     4
  5
125
 10
118.317917
 20
389.825917
 30
0.0
  0
VERTEX
  8
1
  6
CONTINUOUS
 62
     4
  5
126
 10
118.39375
 20
389.8335
 30
0.0
  0
VERTEX
  8
1
  6
CONTINUOUS
 62
     4
  5
127
 10
118.454417
 20
389.803167
 30
0.0
  0
VERTEX
  8
1
  6
CONTINUOUS
 62
     4
  5
128
 10
118.56825
 20
389.7955
 30
0.0
  0
VERTEX
  8
1
  6
CONTINUOUS
 62
     4
  5
129
 10
118.591
 20
389.75
 30
0.0
  0
VERTEX
  8
1
  6
CONTINUOUS
 62
     4
  5
12A
 10
118.674417
 20
389.742417
 30
0.0
  0
VERTEX
  8
1
  6
CONTINUOUS
 62
     4
  5
12B
 10
118.8185
 20
389.734833
 30
0.0
  0
VERTEX
  8
1
  6
CONTINUOUS
 62
     4
  5
12C
 10
118.856417
 20
389.75
 30
0.0
  0
VERTEX
  8
1
  6
CONTINUOUS
 62
     4
  5
12D
 10
118.947417
 20
389.780333
 30
0.0
  0
VERTEX
  8
1
  6
CONTINUOUS
 62
     4
  5
12E
 10
119.068833
 20
389.803167
 30
0.0
  0
VERTEX
  8
1
  6
CONTINUOUS
 62
     4
  5
12F
 10
119.144667
 20
389.765167
 30
0.0
  0
VERTEX
  8
1
  6
CONTINUOUS
 62
     4
  5
130
 10
119.15225
 20
389.765167
 30
0.0
  0
VERTEX
  8
1
  6
CONTINUOUS
 62
     4
  5
131
 10
119.175
 20
389.719667
 30
0.0
  0
VERTEX
  8
1
  6
CONTINUOUS
 62
     4
  5
132
 10
119.394917
 20
389.77275
 30
0.0
  0
VERTEX
  8
1
  6
CONTINUOUS
 62
     4
  5
133
 10
119.417667
 20
389.75
 30
0.0
  0
VERTEX
  8
1
  6
CONTINUOUS
 62
     4
  5
134
 10
119.448
 20
389.742417
 30
0.0
  0
VERTEX
  8
1
  6
CONTINUOUS
 62
     4
  5
135
 10
119.577
 20
389.742417
 30
0.0
  0
VERTEX
  8
1
  6
CONTINUOUS
 62
     4
  5
136
 10
119.59975
 20
389.734833
 30
0.0
  0
VERTEX
  8
1
  6
CONTINUOUS
 62
     4
  5
137
 10
119.705917
 20
389.757583
 30
0.0
  0
VERTEX
  8
1
  6
CONTINUOUS
 62
     4
  5
138
 10
119.751417
 20
389.75
 30
0.0
  0
VERTEX
  8
1
  6
CONTINUOUS
 62
     4
  5
139
 10
119.819667
 20
389.734833
 30
0.0
  0
VERTEX
  8
1
  6
CONTINUOUS
 62
     4
  5
13A
 10
119.857583
 20
389.75
 30
0.0
  0
VERTEX
  8
1
  6
CONTINUOUS
 62
     4
  5
13B
 10
119.941
 20
389.742417
 30
0.0
  0
VERTEX
  8
1
  6
CONTINUOUS
 62
     4
  5
13C
 10
120.039667
 20
389.75
 30
0.0
  0
VERTEX
  8
1
  6
CONTINUOUS
 62
     4
  5
13D
 10
120.153417
 20
389.742417
 30
0.0
  0
VERTEX
  8
1
  6
CONTINUOUS
 62
     4
  5
13E
 10
120.214083
 20
389.712083
 30
0.0
  0
VERTEX
  8
1
  6
CONTINUOUS
 62
     4
  5
13F
 10
120.252
 20
389.674167
 30
0.0
  0
VERTEX
  8
1
  6
CONTINUOUS
 62
     4
  5
140
 10
120.259583
 20
389.666583
 30
0.0
  0
VERTEX
  8
1
  6
CONTINUOUS
 62
     4
  5
141
 10
120.3885
 20
389.68175
 30
0.0
  0
VERTEX
  8
1
  6
CONTINUOUS
 62
     4
  5
142
 10
120.441583
 20
389.674167
 30
0.0
  0
VERTEX
  8
1
  6
CONTINUOUS
 62
     4
  5
143
 10
120.563
 20
389.674167
 30
0.0
  0
VERTEX
  8
1
  6
CONTINUOUS
 62
     4
  5
144
 10
120.616083
 20
389.659
 30
0.0
  0
VERTEX
  8
1
  6
CONTINUOUS
 62
     4
  5
145
 10
120.714667
 20
389.666583
 30
0.0
  0
VERTEX
  8
1
  6
CONTINUOUS
 62
     4
  5
146
 10
120.980083
 20
389.666583
 30
0.0
  0
VERTEX
  8
1
  6
CONTINUOUS
 62
     4
  5
147
 10
121.018083
 20
389.666583
 30
0.0
  0
VERTEX
  8
1
  6
CONTINUOUS
 62
     4
  5
148
 10
121.086333
 20
389.674167
 30
0.0
  0
VERTEX
  8
1
  6
CONTINUOUS
 62
     4
  5
149
 10
121.177333
 20
389.666583
 30
0.0
  0
VERTEX
  8
1
  6
CONTINUOUS
 62
     4
  5
14A
 10
121.21525
 20
389.643833
 30
0.0
  0
VERTEX
  8
1
  6
CONTINUOUS
 62
     4
  5
14B
 10
121.291083
 20
389.63625
 30
0.0
  0
VERTEX
  8
1
  6
CONTINUOUS
 62
     4
  5
14C
 10
121.412417
 20
389.605833
 30
0.0
  0
VERTEX
  8
1
  6
CONTINUOUS
 62
     4
  5
14D
 10
121.52625
 20
389.628667
 30
0.0
  0
VERTEX
  8
1
  6
CONTINUOUS
 62
     4
  5
14E
 10
121.57175
 20
389.63625
 30
0.0
  0
VERTEX
  8
1
  6
CONTINUOUS
 62
     4
  5
14F
 10
121.6855
 20
389.628667
 30
0.0
  0
VERTEX
  8
1
  6
CONTINUOUS
 62
     4
  5
150
 10
121.768917
 20
389.613417
 30
0.0
  0
VERTEX
  8
1
  6
CONTINUOUS
 62
     4
  5
151
 10
121.79925
 20
389.5755
 30
0.0
  0
VERTEX
  8
1
  6
CONTINUOUS
 62
     4
  5
152
 10
121.897833
 20
389.583083
 30
0.0
  0
VERTEX
  8
1
  6
CONTINUOUS
 62
     4
  5
153
 10
122.042
 20
389.583083
 30
0.0
  0
VERTEX
  8
1
  6
CONTINUOUS
 62
     4
  5
154
 10
122.148167
 20
389.5755
 30
0.0
  0
VERTEX
  8
1
  6
CONTINUOUS
 62
     4
  5
155
 10
122.193667
 20
389.59825
 30
0.0
  0
VERTEX
  8
1
  6
CONTINUOUS
 62
     4
  5
156
 10
122.299833
 20
389.590667
 30
0.0
  0
VERTEX
  8
1
  6
CONTINUOUS
 62
     4
  5
157
 10
122.375667
 20
389.613417
 30
0.0
  0
SEQEND
  8
1
  6
CONTINUOUS
 62
     4
  5
158
  0
POLYLINE
  8
1
  6
CONTINUOUS
 62
     4
  5
159
 66
     1
 10
0.0
 20
0.0
 30
0.0
  0
VERTEX
  8
1
  6
CONTINUOUS
 62
     4
  5
15A
 10
115.3835
 20
382.673333
 30
0.0
  0
VERTEX
  8
1
  6
CONTINUOUS
 62
     4
  5
15B
 10
115.4725
 20
382.666333
 30
0.0
  0
VERTEX
  8
1
  6
CONTINUOUS
 62
     4
  5
15C
 10
115.54075
 20
382.666333
 30
0.0
  0
VERTEX
  8
1
  6
CONTINUOUS
 62
     4
  5
15D
 10
115.609
 20
382.65875
 30
0.0
  0
VERTEX
  8
1
  6
CONTINUOUS
 62
     4
  5
15E
 10
115.6545
 20
382.65875
 30
0.0
  0
VERTEX
  8
1
  6
CONTINUOUS
 62
     4
  5
15F
 10
115.707667
 20
382.65875
 30
0.0
  0
VERTEX
  8
1
  6
CONTINUOUS
 62
     4
  5
160
 10
115.76075
 20
382.65875
 30
0.0
  0
VERTEX
  8
1
  6
CONTINUOUS
 62
     4
  5
161
 10
115.821417
 20
382.666333
 30
0.0
  0
VERTEX
  8
1
  6
CONTINUOUS
 62
     4
  5
162
 10
115.94275
 20
382.689083
 30
0.0
  0
VERTEX
  8
1
  6
CONTINUOUS
 62
     4
  5
163
 10
115.9655
 20
382.6815
 30
0.0
  0
VERTEX
  8
1
  6
CONTINUOUS
 62
     4
  5
164
 10
116.003417
 20
382.666333
 30
0.0
  0
VERTEX
  8
1
  6
CONTINUOUS
 62
     4
  5
165
 10
116.041333
 20
382.673917
 30
0.0
  0
VERTEX
  8
1
  6
CONTINUOUS
 62
     4
  5
166
 10
116.064083
 20
382.666333
 30
0.0
  0
VERTEX
  8
1
  6
CONTINUOUS
 62
     4
  5
167
 10
116.185417
 20
382.666333
 30
0.0
  0
VERTEX
  8
1
  6
CONTINUOUS
 62
     4
  5
168
 10
116.25375
 20
382.605667
 30
0.0
  0
VERTEX
  8
1
  6
CONTINUOUS
 62
     4
  5
169
 10
116.246167
 20
382.598083
 30
0.0
  0
VERTEX
  8
1
  6
CONTINUOUS
 62
     4
  5
16A
 10
116.2765
 20
382.620833
 30
0.0
  0
VERTEX
  8
1
  6
CONTINUOUS
 62
     4
  5
16B
 10
116.337167
 20
382.598083
 30
0.0
  0
VERTEX
  8
1
  6
CONTINUOUS
 62
     4
  5
16C
 10
116.397833
 20
382.598083
 30
0.0
  0
VERTEX
  8
1
  6
CONTINUOUS
 62
     4
  5
16D
 10
116.4585
 20
382.628417
 30
0.0
  0
VERTEX
  8
1
  6
CONTINUOUS
 62
     4
  5
16E
 10
116.466083
 20
382.636
 30
0.0
  0
VERTEX
  8
1
  6
CONTINUOUS
 62
     4
  5
16F
 10
116.52675
 20
382.651167
 30
0.0
  0
VERTEX
  8
1
  6
CONTINUOUS
 62
     4
  5
170
 10
116.557083
 20
382.636
 30
0.0
  0
VERTEX
  8
1
  6
CONTINUOUS
 62
     4
  5
171
 10
116.595
 20
382.61325
 30
0.0
  0
VERTEX
  8
1
  6
CONTINUOUS
 62
     4
  5
172
 10
116.625333
 20
382.605667
 30
0.0
  0
VERTEX
  8
1
  6
CONTINUOUS
 62
     4
  5
173
 10
116.777083
 20
382.5905
 30
0.0
  0
VERTEX
  8
1
  6
CONTINUOUS
 62
     4
  5
174
 10
116.830167
 20
382.605667
 30
0.0
  0
VERTEX
  8
1
  6
CONTINUOUS
 62
     4
  5
175
 10
116.936333
 20
382.582917
 30
0.0
  0
VERTEX
  8
1
  6
CONTINUOUS
 62
     4
  5
176
 10
116.966667
 20
382.61325
 30
0.0
  0
VERTEX
  8
1
  6
CONTINUOUS
 62
     4
  5
177
 10
117.027333
 20
382.61325
 30
0.0
  0
VERTEX
  8
1
  6
CONTINUOUS
 62
     4
  5
178
 10
117.141083
 20
382.575333
 30
0.0
  0
VERTEX
  8
1
  6
CONTINUOUS
 62
     4
  5
179
 10
117.15625
 20
382.575333
 30
0.0
  0
VERTEX
  8
1
  6
CONTINUOUS
 62
     4
  5
17A
 10
117.209417
 20
382.575333
 30
0.0
  0
VERTEX
  8
1
  6
CONTINUOUS
 62
     4
  5
17B
 10
117.436917
 20
382.598083
 30
0.0
  0
VERTEX
  8
1
  6
CONTINUOUS
 62
     4
  5
17C
 10
117.4445
 20
382.598083
 30
0.0
  0
VERTEX
  8
1
  6
CONTINUOUS
 62
     4
  5
17D
 10
117.497583
 20
382.582917
 30
0.0
  0
VERTEX
  8
1
  6
CONTINUOUS
 62
     4
  5
17E
 10
117.6265
 20
382.560167
 30
0.0
  0
VERTEX
  8
1
  6
CONTINUOUS
 62
     4
  5
17F
 10
117.747917
 20
382.56775
 30
0.0
  0
VERTEX
  8
1
  6
CONTINUOUS
 62
     4
  5
180
 10
117.838917
 20
382.56775
 30
0.0
  0
VERTEX
  8
1
  6
CONTINUOUS
 62
     4
  5
181
 10
117.922333
 20
382.575333
 30
0.0
  0
VERTEX
  8
1
  6
CONTINUOUS
 62
     4
  5
182
 10
117.998167
 20
382.582917
 30
0.0
  0
VERTEX
  8
1
  6
CONTINUOUS
 62
     4
  5
183
 10
118.058833
 20
382.552583
 30
0.0
  0
VERTEX
  8
1
  6
CONTINUOUS
 62
     4
  5
184
 10
118.172667
 20
382.544917
 30
0.0
  0
VERTEX
  8
1
  6
CONTINUOUS
 62
     4
  5
185
 10
118.195417
 20
382.499417
 30
0.0
  0
VERTEX
  8
1
  6
CONTINUOUS
 62
     4
  5
186
 10
118.278833
 20
382.491833
 30
0.0
  0
VERTEX
  8
1
  6
CONTINUOUS
 62
     4
  5
187
 10
118.422917
 20
382.48425
 30
0.0
  0
VERTEX
  8
1
  6
CONTINUOUS
 62
     4
  5
188
 10
118.460833
 20
382.499417
 30
0.0
  0
VERTEX
  8
1
  6
CONTINUOUS
 62
     4
  5
189
 10
118.551833
 20
382.52975
 30
0.0
  0
VERTEX
  8
1
  6
CONTINUOUS
 62
     4
  5
18A
 10
118.67325
 20
382.552583
 30
0.0
  0
VERTEX
  8
1
  6
CONTINUOUS
 62
     4
  5
18B
 10
118.749083
 20
382.514583
 30
0.0
  0
VERTEX
  8
1
  6
CONTINUOUS
 62
     4
  5
18C
 10
118.756667
 20
382.514583
 30
0.0
  0
VERTEX
  8
1
  6
CONTINUOUS
 62
     4
  5
18D
 10
118.779417
 20
382.469083
 30
0.0
  0
VERTEX
  8
1
  6
CONTINUOUS
 62
     4
  5
18E
 10
118.999333
 20
382.522167
 30
0.0
  0
VERTEX
  8
1
  6
CONTINUOUS
 62
     4
  5
18F
 10
119.022083
 20
382.499417
 30
0.0
  0
VERTEX
  8
1
  6
CONTINUOUS
 62
     4
  5
190
 10
119.052417
 20
382.491833
 30
0.0
  0
VERTEX
  8
1
  6
CONTINUOUS
 62
     4
  5
191
 10
119.181417
 20
382.491833
 30
0.0
  0
VERTEX
  8
1
  6
CONTINUOUS
 62
     4
  5
192
 10
119.204167
 20
382.48425
 30
0.0
  0
VERTEX
  8
1
  6
CONTINUOUS
 62
     4
  5
193
 10
119.310333
 20
382.507
 30
0.0
  0
VERTEX
  8
1
  6
CONTINUOUS
 62
     4
  5
194
 10
119.355833
 20
382.499417
 30
0.0
  0
VERTEX
  8
1
  6
CONTINUOUS
 62
     4
  5
195
 10
119.424083
 20
382.48425
 30
0.0
  0
VERTEX
  8
1
  6
CONTINUOUS
 62
     4
  5
196
 10
119.462
 20
382.499417
 30
0.0
  0
VERTEX
  8
1
  6
CONTINUOUS
 62
     4
  5
197
 10
119.545417
 20
382.491833
 30
0.0
  0
VERTEX
  8
1
  6
CONTINUOUS
 62
     4
  5
198
 10
119.644083
 20
382.499417
 30
0.0
  0
VERTEX
  8
1
  6
CONTINUOUS
 62
     4
  5
199
 10
119.757833
 20
382.491833
 30
0.0
  0
VERTEX
  8
1
  6
CONTINUOUS
 62
     4
  5
19A
 10
119.8185
 20
382.4615
 30
0.0
  0
VERTEX
  8
1
  6
CONTINUOUS
 62
     4
  5
19B
 10
119.856417
 20
382.423583
 30
0.0
  0
VERTEX
  8
1
  6
CONTINUOUS
 62
     4
  5
19C
 10
119.864
 20
382.416
 30
0.0
  0
VERTEX
  8
1
  6
CONTINUOUS
 62
     4
  5
19D
 10
119.992917
 20
382.431167
 30
0.0
  0
VERTEX
  8
1
  6
CONTINUOUS
 62
     4
  5
19E
 10
120.046
 20
382.423583
 30
0.0
  0
VERTEX
  8
1
  6
CONTINUOUS
 62
     4
  5
19F
 10
120.167417
 20
382.423583
 30
0.0
  0
VERTEX
  8
1
  6
CONTINUOUS
 62
     4
  5
1A0
 10
120.2205
 20
382.408417
 30
0.0
  0
VERTEX
  8
1
  6
CONTINUOUS
 62
     4
  5
1A1
 10
120.319083
 20
382.416
 30
0.0
  0
VERTEX
  8
1
  6
CONTINUOUS
 62
     4
  5
1A2
 10
120.5845
 20
382.416
 30
0.0
  0
VERTEX
  8
1
  6
CONTINUOUS
 62
     4
  5
1A3
 10
120.6225
 20
382.416
 30
0.0
  0
VERTEX
  8
1
  6
CONTINUOUS
 62
     4
  5
1A4
 10
120.69075
 20
382.423583
 30
0.0
  0
VERTEX
  8
1
  6
CONTINUOUS
 62
     4
  5
1A5
 10
120.78175
 20
382.416
 30
0.0
  0
VERTEX
  8
1
  6
CONTINUOUS
 62
     4
  5
1A6
 10
120.819667
 20
382.39325
 30
0.0
  0
VERTEX
  8
1
  6
CONTINUOUS
 62
     4
  5
1A7
 10
120.8955
 20
382.385667
 30
0.0
  0
VERTEX
  8
1
  6
CONTINUOUS
 62
     4
  5
1A8
 10
121.016833
 20
382.35525
 30
0.0
  0
VERTEX
  8
1
  6
CONTINUOUS
 62
     4
  5
1A9
 10
121.130667
 20
382.378083
 30
0.0
  0
VERTEX
  8
1
  6
CONTINUOUS
 62
     4
  5
1AA
 10
121.176167
 20
382.385667
 30
0.0
  0
VERTEX
  8
1
  6
CONTINUOUS
 62
     4
  5
1AB
 10
121.289917
 20
382.378083
 30
0.0
  0
VERTEX
  8
1
  6
CONTINUOUS
 62
     4
  5
1AC
 10
121.373333
 20
382.362833
 30
0.0
  0
VERTEX
  8
1
  6
CONTINUOUS
 62
     4
  5
1AD
 10
121.403667
 20
382.324917
 30
0.0
  0
VERTEX
  8
1
  6
CONTINUOUS
 62
     4
  5
1AE
 10
121.50225
 20
382.3325
 30
0.0
  0
VERTEX
  8
1
  6
CONTINUOUS
 62
     4
  5
1AF
 10
121.646417
 20
382.3325
 30
0.0
  0
VERTEX
  8
1
  6
CONTINUOUS
 62
     4
  5
1B0
 10
121.752583
 20
382.324917
 30
0.0
  0
VERTEX
  8
1
  6
CONTINUOUS
 62
     4
  5
1B1
 10
121.798083
 20
382.347667
 30
0.0
  0
VERTEX
  8
1
  6
CONTINUOUS
 62
     4
  5
1B2
 10
121.90425
 20
382.340083
 30
0.0
  0
VERTEX
  8
1
  6
CONTINUOUS
 62
     4
  5
1B3
 10
121.980083
 20
382.362833
 30
0.0
  0
SEQEND
  8
1
  6
CONTINUOUS
 62
     4
  5
1B4
  0
POLYLINE
  8
1
  6
CONTINUOUS
 62
     4
  5
1B5
 66
     1
 10
0.0
 20
0.0
 30
0.0
  0
VERTEX
  8
1
  6
CONTINUOUS
 62
     4
  5
1B6
 10
121.980083
 20
382.362833
 30
0.0
  0
VERTEX
  8
1
  6
CONTINUOUS
 62
     4
  5
1B7
 10
122.173667
 20
382.352333
 30
0.0
  0
VERTEX
  8
1
  6
CONTINUOUS
 62
     4
  5
1B8
 10
122.243833
 20
382.33475
 30
0.0
  0
VERTEX
  8
1
  6
CONTINUOUS
 62
     4
  5
1B9
 10
122.2965
 20
382.326
 30
0.0
  0
VERTEX
  8
1
  6
CONTINUOUS
 62
     4
  5
1BA
 10
122.401833
 20
382.3435
 30
0.0
  0
SEQEND
  8
1
  6
CONTINUOUS
 62
     4
  5
1BB
  0
POLYLINE
  8
1
  6
CONTINUOUS
 62
     4
  5
1BC
 66
     1
 10
0.0
 20
0.0
 30
0.0
  0
VERTEX
  8
1
  6
CONTINUOUS
 62
     4
  5
1BD
 10
115.919917
 20
374.923917
 30
0.0
  0
VERTEX
  8
1
  6
CONTINUOUS
 62
     4
  5
1BE
 10
116.008917
 20
374.916917
 30
0.0
  0
VERTEX
  8
1
  6
CONTINUOUS
 62
     4
  5
1BF
 10
116.077167
 20
374.916917
 30
0.0
  0
VERTEX
  8
1
  6
CONTINUOUS
 62
     4
  5
1C0
 10
116.145417
 20
374.909333
 30
0.0
  0
VERTEX
  8
1
  6
CONTINUOUS
 62
     4
  5
1C1
 10
116.190917
 20
374.909333
 30
0.0
  0
VERTEX
  8
1
  6
CONTINUOUS
 62
     4
  5
1C2
 10
116.244083
 20
374.909333
 30
0.0
  0
VERTEX
  8
1
  6
CONTINUOUS
 62
     4
  5
1C3
 10
116.297167
 20
374.909333
 30
0.0
  0
VERTEX
  8
1
  6
CONTINUOUS
 62
     4
  5
1C4
 10
116.357833
 20
374.916917
 30
0.0
  0
VERTEX
  8
1
  6
CONTINUOUS
 62
     4
  5
1C5
 10
116.479167
 20
374.939667
 30
0.0
  0
VERTEX
  8
1
  6
CONTINUOUS
 62
     4
  5
1C6
 10
116.501917
 20
374.932083
 30
0.0
  0
VERTEX
  8
1
  6
CONTINUOUS
 62
     4
  5
1C7
 10
116.539833
 20
374.916917
 30
0.0
  0
VERTEX
  8
1
  6
CONTINUOUS
 62
     4
  5
1C8
 10
116.57775
 20
374.9245
 30
0.0
  0
VERTEX
  8
1
  6
CONTINUOUS
 62
     4
  5
1C9
 10
116.6005
 20
374.916917
 30
0.0
  0
VERTEX
  8
1
  6
CONTINUOUS
 62
     4
  5
1CA
 10
116.721833
 20
374.916917
 30
0.0
  0
VERTEX
  8
1
  6
CONTINUOUS
 62
     4
  5
1CB
 10
116.790167
 20
374.85625
 30
0.0
  0
VERTEX
  8
1
  6
CONTINUOUS
 62
     4
  5
1CC
 10
116.782583
 20
374.848667
 30
0.0
  0
VERTEX
  8
1
  6
CONTINUOUS
 62
     4
  5
1CD
 10
116.812917
 20
374.871417
 30
0.0
  0
VERTEX
  8
1
  6
CONTINUOUS
 62
     4
  5
1CE
 10
116.873583
 20
374.848667
 30
0.0
  0
VERTEX
  8
1
  6
CONTINUOUS
 62
     4
  5
1CF
 10
116.93425
 20
374.848667
 30
0.0
  0
VERTEX
  8
1
  6
CONTINUOUS
 62
     4
  5
1D0
 10
116.994917
 20
374.879
 30
0.0
  0
VERTEX
  8
1
  6
CONTINUOUS
 62
     4
  5
1D1
 10
117.0025
 20
374.886583
 30
0.0
  0
VERTEX
  8
1
  6
CONTINUOUS
 62
     4
  5
1D2
 10
117.063167
 20
374.90175
 30
0.0
  0
VERTEX
  8
1
  6
CONTINUOUS
 62
     4
  5
1D3
 10
117.0935
 20
374.886583
 30
0.0
  0
VERTEX
  8
1
  6
CONTINUOUS
 62
     4
  5
1D4
 10
117.131417
 20
374.863833
 30
0.0
  0
VERTEX
  8
1
  6
CONTINUOUS
 62
     4
  5
1D5
 10
117.16175
 20
374.85625
 30
0.0
  0
VERTEX
  8
1
  6
CONTINUOUS
 62
     4
  5
1D6
 10
117.3135
 20
374.841083
 30
0.0
  0
VERTEX
  8
1
  6
CONTINUOUS
 62
     4
  5
1D7
 10
117.366583
 20
374.85625
 30
0.0
  0
VERTEX
  8
1
  6
CONTINUOUS
 62
     4
  5
1D8
 10
117.47275
 20
374.8335
 30
0.0
  0
VERTEX
  8
1
  6
CONTINUOUS
 62
     4
  5
1D9
 10
117.503083
 20
374.863833
 30
0.0
  0
VERTEX
  8
1
  6
CONTINUOUS
 62
     4
  5
1DA
 10
117.56375
 20
374.863833
 30
0.0
  0
VERTEX
  8
1
  6
CONTINUOUS
 62
     4
  5
1DB
 10
117.6775
 20
374.825917
 30
0.0
  0
VERTEX
  8
1
  6
CONTINUOUS
 62
     4
  5
1DC
 10
117.692667
 20
374.825917
 30
0.0
  0
VERTEX
  8
1
  6
CONTINUOUS
 62
     4
  5
1DD
 10
117.745833
 20
374.825917
 30
0.0
  0
VERTEX
  8
1
  6
CONTINUOUS
 62
     4
  5
1DE
 10
117.973333
 20
374.848667
 30
0.0
  0
VERTEX
  8
1
  6
CONTINUOUS
 62
     4
  5
1DF
 10
117.980917
 20
374.848667
 30
0.0
  0
VERTEX
  8
1
  6
CONTINUOUS
 62
     4
  5
1E0
 10
118.034
 20
374.8335
 30
0.0
  0
VERTEX
  8
1
  6
CONTINUOUS
 62
     4
  5
1E1
 10
118.162917
 20
374.81075
 30
0.0
  0
VERTEX
  8
1
  6
CONTINUOUS
 62
     4
  5
1E2
 10
118.284333
 20
374.818333
 30
0.0
  0
VERTEX
  8
1
  6
CONTINUOUS
 62
     4
  5
1E3
 10
118.375333
 20
374.818333
 30
0.0
  0
VERTEX
  8
1
  6
CONTINUOUS
 62
     4
  5
1E4
 10
118.45875
 20
374.825917
 30
0.0
  0
VERTEX
  8
1
  6
CONTINUOUS
 62
     4
  5
1E5
 10
118.534583
 20
374.8335
 30
0.0
  0
VERTEX
  8
1
  6
CONTINUOUS
 62
     4
  5
1E6
 10
118.59525
 20
374.803167
 30
0.0
  0
VERTEX
  8
1
  6
CONTINUOUS
 62
     4
  5
1E7
 10
118.709083
 20
374.7955
 30
0.0
  0
VERTEX
  8
1
  6
CONTINUOUS
 62
     4
  5
1E8
 10
118.731833
 20
374.75
 30
0.0
  0
VERTEX
  8
1
  6
CONTINUOUS
 62
     4
  5
1E9
 10
118.81525
 20
374.742417
 30
0.0
  0
VERTEX
  8
1
  6
CONTINUOUS
 62
     4
  5
1EA
 10
118.959333
 20
374.734833
 30
0.0
  0
VERTEX
  8
1
  6
CONTINUOUS
 62
     4
  5
1EB
 10
118.99725
 20
374.75
 30
0.0
  0
VERTEX
  8
1
  6
CONTINUOUS
 62
     4
  5
1EC
 10
119.08825
 20
374.780333
 30
0.0
  0
VERTEX
  8
1
  6
CONTINUOUS
 62
     4
  5
1ED
 10
119.209667
 20
374.803167
 30
0.0
  0
VERTEX
  8
1
  6
CONTINUOUS
 62
     4
  5
1EE
 10
119.2855
 20
374.765167
 30
0.0
  0
VERTEX
  8
1
  6
CONTINUOUS
 62
     4
  5
1EF
 10
119.293083
 20
374.765167
 30
0.0
  0
VERTEX
  8
1
  6
CONTINUOUS
 62
     4
  5
1F0
 10
119.315833
 20
374.719667
 30
0.0
  0
VERTEX
  8
1
  6
CONTINUOUS
 62
     4
  5
1F1
 10
119.53575
 20
374.77275
 30
0.0
  0
VERTEX
  8
1
  6
CONTINUOUS
 62
     4
  5
1F2
 10
119.5585
 20
374.75
 30
0.0
  0
VERTEX
  8
1
  6
CONTINUOUS
 62
     4
  5
1F3
 10
119.588833
 20
374.742417
 30
0.0
  0
VERTEX
  8
1
  6
CONTINUOUS
 62
     4
  5
1F4
 10
119.717833
 20
374.742417
 30
0.0
  0
VERTEX
  8
1
  6
CONTINUOUS
 62
     4
  5
1F5
 10
119.740583
 20
374.734833
 30
0.0
  0
VERTEX
  8
1
  6
CONTINUOUS
 62
     4
  5
1F6
 10
119.84675
 20
374.757583
 30
0.0
  0
VERTEX
  8
1
  6
CONTINUOUS
 62
     4
  5
1F7
 10
119.89225
 20
374.75
 30
0.0
  0
VERTEX
  8
1
  6
CONTINUOUS
 62
     4
  5
1F8
 10
119.9605
 20
374.734833
 30
0.0
  0
VERTEX
  8
1
  6
CONTINUOUS
 62
     4
  5
1F9
 10
119.998417
 20
374.75
 30
0.0
  0
VERTEX
  8
1
  6
CONTINUOUS
 62
     4
  5
1FA
 10
120.081833
 20
374.742417
 30
0.0
  0
VERTEX
  8
1
  6
CONTINUOUS
 62
     4
  5
1FB
 10
120.1805
 20
374.75
 30
0.0
  0
VERTEX
  8
1
  6
CONTINUOUS
 62
     4
  5
1FC
 10
120.29425
 20
374.742417
 30
0.0
  0
VERTEX
  8
1
  6
CONTINUOUS
 62
     4
  5
1FD
 10
120.354917
 20
374.712083
 30
0.0
  0
VERTEX
  8
1
  6
CONTINUOUS
 62
     4
  5
1FE
 10
120.392833
 20
374.674167
 30
0.0
  0
VERTEX
  8
1
  6
CONTINUOUS
 62
     4
  5
1FF
 10
120.400417
 20
374.666583
 30
0.0
  0
VERTEX
  8
1
  6
CONTINUOUS
 62
     4
  5
200
 10
120.529333
 20
374.68175
 30
0.0
  0
VERTEX
  8
1
  6
CONTINUOUS
 62
     4
  5
201
 10
120.582417
 20
374.674167
 30
0.0
  0
VERTEX
  8
1
  6
CONTINUOUS
 62
     4
  5
202
 10
120.703833
 20
374.674167
 30
0.0
  0
VERTEX
  8
1
  6
CONTINUOUS
 62
     4
  5
203
 10
120.756917
 20
374.659
 30
0.0
  0
VERTEX
  8
1
  6
CONTINUOUS
 62
     4
  5
204
 10
120.8555
 20
374.666583
 30
0.0
  0
VERTEX
  8
1
  6
CONTINUOUS
 62
     4
  5
205
 10
121.120917
 20
374.666583
 30
0.0
  0
VERTEX
  8
1
  6
CONTINUOUS
 62
     4
  5
206
 10
121.158917
 20
374.666583
 30
0.0
  0
VERTEX
  8
1
  6
CONTINUOUS
 62
     4
  5
207
 10
121.227167
 20
374.674167
 30
0.0
  0
VERTEX
  8
1
  6
CONTINUOUS
 62
     4
  5
208
 10
121.318167
 20
374.666583
 30
0.0
  0
VERTEX
  8
1
  6
CONTINUOUS
 62
     4
  5
209
 10
121.356083
 20
374.643833
 30
0.0
  0
VERTEX
  8
1
  6
CONTINUOUS
 62
     4
  5
20A
 10
121.431917
 20
374.63625
 30
0.0
  0
VERTEX
  8
1
  6
CONTINUOUS
 62
     4
  5
20B
 10
121.55325
 20
374.605833
 30
0.0
  0
VERTEX
  8
1
  6
CONTINUOUS
 62
     4
  5
20C
 10
121.667083
 20
374.628667
 30
0.0
  0
VERTEX
  8
1
  6
CONTINUOUS
 62
     4
  5
20D
 10
121.712583
 20
374.63625
 30
0.0
  0
VERTEX
  8
1
  6
CONTINUOUS
 62
     4
  5
20E
 10
121.826333
 20
374.628667
 30
0.0
  0
VERTEX
  8
1
  6
CONTINUOUS
 62
     4
  5
20F
 10
121.90975
 20
374.613417
 30
0.0
  0
VERTEX
  8
1
  6
CONTINUOUS
 62
     4
  5
210
 10
121.940083
 20
374.5755
 30
0.0
  0
VERTEX
  8
1
  6
CONTINUOUS
 62
     4
  5
211
 10
122.038667
 20
374.583083
 30
0.0
  0
VERTEX
  8
1
  6
CONTINUOUS
 62
     4
  5
212
 10
122.182833
 20
374.583083
 30
0.0
  0
VERTEX
  8
1
  6
CONTINUOUS
 62
     4
  5
213
 10
122.289
 20
374.5755
 30
0.0
  0
VERTEX
  8
1
  6
CONTINUOUS
 62
     4
  5
214
 10
122.3345
 20
374.59825
 30
0.0
  0
VERTEX
  8
1
  6
CONTINUOUS
 62
     4
  5
215
 10
122.440667
 20
374.590667
 30
0.0
  0
VERTEX
  8
1
  6
CONTINUOUS
 62
     4
  5
216
 10
122.5165
 20
374.613417
 30
0.0
  0
SEQEND
  8
1
  6
CONTINUOUS
 62
     4
  5
217
  0
LINE
  8
1
  6
CONTINUOUS
 62
     4
  5
218
 10
123.331417
 20
389.569167
 30
0.0
 11
163.772833
 21
387.449833
 31
0.0
  0
POLYLINE
  8
1
  6
CONTINUOUS
 62
     4
  5
219
 66
     1
 10
0.0
 20
0.0
 30
0.0
 70
     1
  0
VERTEX
  8
1
  6
CONTINUOUS
 62
     4
  5
21A
 10
132.319
 20
390.098167
 30
0.0
  0
VERTEX
  8
1
  6
CONTINUOUS
 62
     4
  5
21B
 10
134.319
 20
390.098167
 30
0.0
  0
VERTEX
  8
1
  6
CONTINUOUS
 62
     4
  5
21C
 10
134.319
 20
388.098167
 30
0.0
  0
VERTEX
  8
1
  6
CONTINUOUS
 62
     4
  5
21D
 10
132.319
 20
388.098167
 30
0.0
  0
VERTEX
  8
1
  6
CONTINUOUS
 62
     4
  5
21E
 10
132.319
 20
390.098167
 30
0.0
  0
SEQEND
  8
1
  6
CONTINUOUS
 62
     4
  5
21F
  0
POLYLINE
  8
1
  6
CONTINUOUS
 62
     4
  5
220
 66
     1
 10
0.0
 20
0.0
 30
0.0
 70
     1
  0
VERTEX
  8
1
  6
CONTINUOUS
 62
     4
  5
221
 10
141.774
 20
374.550083
 30
0.0
  0
VERTEX
  8
1
  6
CONTINUOUS
 62
     4
  5
222
 10
143.774
 20
374.550083
 30
0.0
  0
VERTEX
  8
1
  6
CONTINUOUS
 62
     4
  5
223
 10
143.774
 20
372.550083
 30
0.0
  0
VERTEX
  8
1
  6
CONTINUOUS
 62
     4
  5
224
 10
141.774
 20
372.550083
 30
0.0
  0
VERTEX
  8
1
  6
CONTINUOUS
 62
     4
  5
225
 10
141.774
 20
374.550083
 30
0.0
  0
SEQEND
  8
1
  6
CONTINUOUS
 62
     4
  5
226
  0
POLYLINE
  8
1
  6
CONTINUOUS
 62
     4
  5
227
 66
     1
 10
0.0
 20
0.0
 30
0.0
 70
     1
  0
VERTEX
  8
1
  6
CONTINUOUS
 62
     4
  5
228
 10
137.061333
 20
382.565167
 30
0.0
  0
VERTEX
  8
1
  6
CONTINUOUS
 62
     4
  5
229
 10
139.061333
 20
382.565167
 30
0.0
  0
VERTEX
  8
1
  6
CONTINUOUS
 62
     4
  5
22A
 10
139.061333
 20
380.565167
 30
0.0
  0
VERTEX
  8
1
  6
CONTINUOUS
 62
     4
  5
22B
 10
137.061333
 20
380.565167
 30
0.0
  0
VERTEX
  8
1
  6
CONTINUOUS
 62
     4
  5
22C
 10
137.061333
 20
382.565167
 30
0.0
  0
SEQEND
  8
1
  6
CONTINUOUS
 62
     4
  5
22D
  0
LINE
  8
1
  6
CONTINUOUS
 62
     4
  5
22E
 10
112.341667
 20
394.923917
 30
0.0
 11
112.341667
 21
376.923917
 31
0.0
  0
ARC
  8
1
  6
CONTINUOUS
 62
     4
  5
22F
 10
111.831293
 20
400.370972
 30
0.0
 40
5.470914
 50
275.352822
 51
336.322483
210
0.0
220
0.0
230
1.0
  0
ARC
  8
1
  6
CONTINUOUS
 62
     4
  5
230
 10
140.86318
 20
390.913943
 30
0.0
 40
25.094627
 50
163.183714
 51
211.999731
210
0.0
220
0.0
230
1.0
  0
ARC
  8
1
  6
CONTINUOUS
 62
     4
  5
231
 10
113.044588
 20
382.149168
 30
0.0
 40
9.819391
 50
331.258975
 51
358.403436
210
0.0
220
0.0
230
1.0
  0
ARC
  8
1
  6
CONTINUOUS
 62
     4
  5
232
 10
120.691113
 20
378.326407
 30
0.0
 40
1.317447
 50
212.635525
 51
316.975622
210
0.0
220
0.0
230
1.0
  0
ARC
  8
1
  6
CONTINUOUS
 62
     4
  5
233
 10
133.837883
 20
384.911051
 30
0.0
 40
22.932109
 50
200.383053
 51
225.614103
210
0.0
220
0.0
230
1.0
  0
ARC
  8
1
  6
CONTINUOUS
 62
     4
  5
234
 10
108.375867
 20
373.16472
 30
0.0
 40
14.472251
 50
343.687875
 51
3.629989
210
0.0
220
0.0
230
1.0
  0
ARC
  8
1
  6
CONTINUOUS
 62
     4
  5
235
 10
137.125189
 20
393.750692
 30
0.0
 40
19.054038
 50
166.576842
 51
205.987889
210
0.0
220
0.0
230
1.0
  0
ARC
  8
1
  6
CONTINUOUS
 62
     4
  5
236
 10
115.503742
 20
388.037179
 30
0.0
 40
7.389874
 50
338.284317
 51
8.162625
210
0.0
220
0.0
230
1.0
  0
POLYLINE
  8
1
  6
CONTINUOUS
 62
     4
  5
237
 66
     1
 10
0.0
 20
0.0
 30
0.0
210
0.0
220
0.0
230
1.0
  0
VERTEX
  8
1
  6
CONTINUOUS
 62
     4
  5
238
 10
136.864807
 20
339.941941
 30
0.0
 42
-0.03666
  0
VERTEX
  8
1
  6
CONTINUOUS
 62
     4
  5
239
 10
135.957839
 20
337.564651
 30
0.0
 42
-0.045102
  0
VERTEX
  8
1
  6
CONTINUOUS
 62
     4
  5
23A
 10
134.80566
 20
335.580255
 30
0.0
 42
-0.057676
  0
VERTEX
  8
1
  6
CONTINUOUS
 62
     4
  5
23B
 10
133.453999
 20
334.067517
 30
0.0
 42
-0.073841
  0
VERTEX
  8
1
  6
CONTINUOUS
 62
     4
  5
23C
 10
131.956507
 20
333.086478
 30
0.0
 42
-0.087976
  0
VERTEX
  8
1
  6
CONTINUOUS
 62
     4
  5
23D
 10
130.372619
 20
332.676075
 30
0.0
 42
-0.089991
  0
VERTEX
  8
1
  6
CONTINUOUS
 62
     4
  5
23E
 10
128.765201
 20
332.852599
 30
0.0
 42
-0.078056
  0
VERTEX
  8
1
  6
CONTINUOUS
 62
     4
  5
23F
 10
127.198053
 20
333.609043
 30
0.0
 42
-0.061593
  0
VERTEX
  8
1
  6
CONTINUOUS
 62
     4
  5
240
 10
125.733376
 20
334.915383
 30
0.0
 42
-0.047914
  0
VERTEX
  8
1
  6
CONTINUOUS
 62
     4
  5
241
 10
124.429305
 20
336.719769
 30
0.0
 42
-0.038485
  0
VERTEX
  8
1
  6
CONTINUOUS
 62
     4
  5
242
 10
123.337599
 20
338.950585
 30
0.0
 42
-0.032508
  0
VERTEX
  8
1
  6
CONTINUOUS
 62
     4
  5
243
 10
122.501588
 20
341.519286
 30
0.0
 42
-0.029035
  0
VERTEX
  8
1
  6
CONTINUOUS
 62
     4
  5
244
 10
121.954456
 20
344.323919
 30
0.0
 42
-0.027443
  0
VERTEX
  8
1
  6
CONTINUOUS
 62
     4
  5
245
 10
121.717917
 20
347.253167
 30
0.0
 42
-0.027443
  0
SEQEND
  8
1
  6
CONTINUOUS
 62
     4
  5
246
  0
ARC
  8
1
  6
CONTINUOUS
 62
     4
  5
247
 10
11.494147
 20
367.091719
 30
0.0
 40
128.276735
 50
347.780925
 51
6.029139
210
0.0
220
0.0
230
1.0
  0
ARC
  8
1
  6
CONTINUOUS
 62
     4
  5
248
 10
-49.495589
 20
354.235186
 30
0.0
 40
186.907744
 50
355.614178
 51
10.438197
210
0.0
220
0.0
230
1.0
  0
LINE
  8
1
  6
CONTINUOUS
 62
     4
  5
249
 10
123.33025
 20
382.28475
 30
0.0
 11
134.672917
 21
381.690333
 31
0.0
  0
LINE
  8
1
  6
CONTINUOUS
 62
     4
  5
24A
 10
135.922083
 20
381.624833
 30
0.0
 11
162.274833
 21
380.243833
 31
0.0
  0
LINE
  8
1
  6
CONTINUOUS
 62
     4
  5
24B
 10
123.299417
 20
374.51825
 30
0.0
 11
135.644667
 21
373.871333
 31
0.0
  0
LINE
  8
1
  6
CONTINUOUS
 62
     4
  5
24C
 10
136.994417
 20
373.800583
 30
0.0
 11
138.84675
 21
373.7035
 31
0.0
  0
LINE
  8
1
  6
CONTINUOUS
 62
     4
  5
24D
 10
140.153583
 20
373.635
 30
0.0
 11
162.249417
 21
372.477083
 31
0.0
  0
ARC
  8
1
  6
CONTINUOUS
 62
     4
  5
24E
 10
130.21636
 20
339.984765
 30
0.0
 40
7.311922
 50
270.98195
 51
333.073517
210
0.0
220
0.0
230
1.0
  0
ARC
  8
1
  6
CONTINUOUS
 62
     4
  5
24F
 10
-744.561708
 20
452.114195
 30
0.0
 40
890.833602
 50
353.559325
 51
354.874758
210
0.0
220
0.0
230
1.0
  0
ARC
  8
1
  6
CONTINUOUS
 62
     4
  5
250
 10
108.278844
 20
351.18818
 30
0.0
 40
31.944632
 50
332.975769
 51
353.721119
210
0.0
220
0.0
230
1.0
  0
ARC
  8
1
  6
CONTINUOUS
 62
     4
  5
251
 10
44.516156
 20
363.11758
 30
0.0
 40
96.75286
 50
350.827525
 51
353.512261
210
0.0
220
0.0
230
1.0
  0
ARC
  8
1
  6
CONTINUOUS
 62
     4
  5
252
 10
121.211441
 20
386.024794
 30
0.0
 40
1.364345
 50
207.179772
 51
328.055206
210
0.0
220
0.0
230
1.0
  0
ARC
  8
1
  6
CONTINUOUS
 62
     4
  5
253
 10
119.875001
 20
370.021974
 30
0.0
 40
2.56224
 50
215.811653
 51
338.908153
210
0.0
220
0.0
230
1.0
  0
ARC
  8
1
  6
CONTINUOUS
 62
     4
  5
254
 10
164.610814
 20
386.277822
 30
0.0
 40
1.147339
 50
314.460811
 51
81.613144
210
0.0
220
0.0
230
1.0
  0
ARC
  8
1
  6
CONTINUOUS
 62
     4
  5
255
 10
170.122613
 20
382.388033
 30
0.0
 40
5.621153
 50
146.885686
 51
207.163097
210
0.0
220
0.0
230
1.0
  0
ARC
  8
1
  6
CONTINUOUS
 62
     4
  5
256
 10
169.479787
 20
376.271953
 30
0.0
 40
5.621153
 50
140.836903
 51
201.114314
210
0.0
220
0.0
230
1.0
  0
ARC
  8
1
  6
CONTINUOUS
 62
     4
  5
257
 10
163.279702
 20
373.613132
 30
0.0
 40
1.147339
 50
266.386856
 51
33.539189
210
0.0
220
0.0
230
1.0
  0
INSERT
  8
1
  6
CONTINUOUS
 62
     1
  5
278
  2
LDR
 10
130.341667
 20
347.673917
 30
0.0
 41
240.0
 42
240.0
 50
90.0
210
0.0
220
0.0
230
1.0
  0
INSERT
  8
1
  6
CONTINUOUS
 62
     1
  5
279
  2
LDR
 10
130.341667
 20
347.673917
 30
0.0
 41
240.0
 42
240.0
 50
90.0
210
0.0
220
0.0
230
1.0
  0
INSERT
  8
1
  6
CONTINUOUS
 62
     1
  5
27A
  2
LDR
 10
130.341667
 20
332.673917
 30
0.0
 41
240.0
 42
240.0
 50
270.0
210
0.0
220
0.0
230
1.0
  0
INSERT
  8
1
  6
CONTINUOUS
 62
     1
  5
27B
  2
LDR
 10
130.341667
 20
332.673917
 30
0.0
 41
240.0
 42
240.0
 50
270.0
210
0.0
220
0.0
230
1.0
  0
LINE
  8
1
  6
CONTINUOUS
 62
     4
  5
27C
 10
120.091667
 20
402.173917
 30
0.0
 11
126.701083
 21
408.5995
 31
0.0
  0
LINE
  8
1
  6
CONTINUOUS
 62
     4
  5
27D
 10
126.701083
 20
408.5995
 30
0.0
 11
130.591333
 21
408.617083
 31
0.0
  0
INSERT
  8
1
  6
CONTINUOUS
 62
     1
  5
27E
  2
LDR
 10
120.091667
 20
402.173917
 30
0.0
 41
239.999998
 42
239.999998
 50
224.192008
210
0.0
220
0.0
230
1.0
  0
LINE
  8
1
  6
CONTINUOUS
 62
     4
  5
27F
 10
145.292083
 20
388.418333
 30
0.0
 11
156.003333
 21
395.805
 31
0.0
  0
LINE
  8
1
  6
CONTINUOUS
 62
     4
  5
280
 10
156.003333
 20
395.805
 30
0.0
 11
149.141167
 21
380.932083
 31
0.0
  0
LINE
  8
1
  6
CONTINUOUS
 62
     4
  5
281
 10
156.003333
 20
395.805
 30
0.0
 11
162.040167
 21
395.805
 31
0.0
  0
INSERT
  8
1
  6
CONTINUOUS
 62
     1
  5
282
  2
LDR
 10
145.292083
 20
388.418333
 30
0.0
 41
240.000001
 42
240.000001
 50
214.59083
210
0.0
220
0.0
230
1.0
  0
INSERT
  8
1
  6
CONTINUOUS
 62
     1
  5
283
  2
LDR
 10
145.292083
 20
388.418333
 30
0.0
 41
240.000001
 42
240.000001
 50
214.59083
210
0.0
220
0.0
230
1.0
  0
INSERT
  8
1
  6
CONTINUOUS
 62
     1
  5
284
  2
LDR
 10
149.141167
 20
380.932083
 30
0.0
 41
240.0
 42
240.0
 50
245.232026
210
0.0
220
0.0
230
1.0
  0
LINE
  8
1
  6
CONTINUOUS
 62
     4
  5
285
 10
149.640167
 20
373.037
 30
0.0
 11
152.33225
 21
362.346667
 31
0.0
  0
LINE
  8
1
  6
CONTINUOUS
 62
     4
  5
286
 10
152.33225
 20
362.346667
 30
0.0
 11
158.04275
 21
362.346667
 31
0.0
  0
INSERT
  8
1
  6
CONTINUOUS
 62
     1
  5
287
  2
LDR
 10
149.640167
 20
373.037
 30
0.0
 41
239.999998
 42
239.999998
 50
104.134565
210
0.0
220
0.0
230
1.0
  0
INSERT
  8
1
  6
CONTINUOUS
 62
     1
  5
288
  2
LDR
 10
149.640167
 20
373.037
 30
0.0
 41
239.999998
 42
239.999998
 50
104.134565
210
0.0
220
0.0
230
1.0
  0
LINE
  8
1
  6
CONTINUOUS
 62
     4
  5
289
 10
112.195333
 20
347.673917
 30
0.0
 11
112.195333
 21
374.173917
 31
0.0
  0
INSERT
  8
1
  6
CONTINUOUS
 62
     1
  5
28A
  2
LDR
 10
112.195333
 20
374.173917
 30
0.0
 41
240.0
 42
240.0
 50
90.0
210
0.0
220
0.0
230
1.0
  0
INSERT
  8
1
  6
CONTINUOUS
 62
     1
  5
28B
  2
LDR
 10
112.195333
 20
374.173917
 30
0.0
 41
240.0
 42
240.0
 50
90.0
210
0.0
220
0.0
230
1.0
  0
INSERT
  8
1
  6
CONTINUOUS
 62
     1
  5
28C
  2
LDR
 10
112.195333
 20
347.673917
 30
0.0
 41
240.0
 42
240.0
 50
270.0
210
0.0
220
0.0
230
1.0
  0
LINE
  8
1
  6
CONTINUOUS
 62
     4
  5
28D
 10
120.438417
 20
347.883
 30
0.0
 11
100.605083
 21
335.534333
 31
0.0
  0
LINE
  8
1
  6
CONTINUOUS
 62
     4
  5
28E
 10
100.605083
 20
335.534333
 30
0.0
 11
95.105583
 21
335.534333
 31
0.0
  0
INSERT
  8
1
  6
CONTINUOUS
 62
     1
  5
28F
  2
LDR
 10
120.438417
 20
347.883
 30
0.0
 41
239.999999
 42
239.999999
 50
31.907295
210
0.0
220
0.0
230
1.0
  0
LINE
  8
1
  6
CONTINUOUS
 62
     4
  5
290
 10
112.195333
 20
360.923917
 30
0.0
 11
91.946417
 21
360.923917
 31
0.0
  0
LINE
  8
1
  6
CONTINUOUS
 62
     4
  5
291
 10
130.325917
 20
340.450333
 30
0.0
 11
146.239333
 21
346.771
 31
0.0
  0
LINE
  8
1
  6
CONTINUOUS
 62
     4
  5
292
 10
146.239333
 20
346.771
 30
0.0
 11
152.557917
 21
346.771
 31
0.0
  0
TEXT
  8
1
  6
CONTINUOUS
 62
     7
  5
293
 10
131.385167
 20
407.51025
 30
0.0
 40
2.5
  1
2 - POLE, SECONDARY LIGHTNING ARRESTER
  7
MONOTXT
210
0.0
220
0.0
230
1.0
  0
TEXT
  8
1
  6
CONTINUOUS
 62
     7
  5
294
 10
167.947917
 20
382.45375
 30
0.0
 40
2.5
  1
MAY BE SHOWN ON
  7
MONOTXT
 11
167.947917
 21
384.95375
 31
0.0
210
0.0
220
0.0
230
1.0
 73
     3
  0
TEXT
  8
1
  6
CONTINUOUS
 62
     7
  5
295
 10
167.947917
 20
377.95375
 30
0.0
 40
2.5
  1
SINGLE SUPPORT IF
  7
MONOTXT
 11
167.947917
 21
380.45375
 31
0.0
210
0.0
220
0.0
230
1.0
 73
     3
  0
TEXT
  8
1
  6
CONTINUOUS
 62
     7
  5
296
 10
167.947917
 20
373.45375
 30
0.0
 40
2.5
  1
TRIPLEX IS USED
  7
MONOTXT
 11
167.947917
 21
375.95375
 31
0.0
210
0.0
220
0.0
230
1.0
 73
     3
  0
TEXT
  8
1
  6
CONTINUOUS
 62
     7
  5
297
 10
162.852083
 20
394.511583
 30
0.0
 40
2.5
  1
0
  7
MONOTXT
210
0.0
220
0.0
230
1.0
  0
TEXT
  8
1
  6
CONTINUOUS
 62
     7
  5
298
 10
158.902833
 20
361.250417
 30
0.0
 40
2.5
  1
GROUNDED NEUTRAL
  7
MONOTXT
210
0.0
220
0.0
230
1.0
  0
TEXT
  8
1
  6
CONTINUOUS
 62
     7
  5
299
 10
153.42475
 20
345.448083
 30
0.0
 40
2.5
  1
2 FT. MIN. DRIP LOOP
  7
MONOTXT
210
0.0
220
0.0
230
1.0
  0
TEXT
  8
1
  6
CONTINUOUS
 62
     7
  5
29A
 10
67.687083
 20
334.106167
 30
0.0
 40
2.5
  1
WEATHERHEAD
  7
MONOTXT
210
0.0
220
0.0
230
1.0
  0
TEXT
  8
1
  6
CONTINUOUS
 62
     7
  5
29B
 10
75.585667
 20
359.338833
 30
0.0
 40
2.5
  1
24" MIN.
  7
MONOTXT
210
0.0
220
0.0
230
1.0
  0
TEXT
  8
1
  6
CONTINUOUS
 62
     7
  5
29C
 10
142.0865
 20
327.145833
 30
0.0
 40
2.5
  1
PROVIDE 4 FT. MIN. LENGTH OF CABLE
  7
MONOTXT
 11
142.0865
 21
329.645833
 31
0.0
210
0.0
220
0.0
230
1.0
 73
     3
  0
TEXT
  8
1
  6
CONTINUOUS
 62
     7
  5
29D
 10
142.0865
 20
322.645833
 30
0.0
 40
2.5
  1
BEYOND WEATHERHEAD.
  7
MONOTXT
 11
142.0865
 21
325.145833
 31
0.0
210
0.0
220
0.0
230
1.0
 73
     3
  0
TEXT
  8
1
  6
CONTINUOUS
 62
     7
  5
29E
 10
50.106333
 20
407.0005
 30
0.0
 40
3.5
  1
3-WIRE SERVICE
  7
MONOTXT
210
0.0
220
0.0
230
1.0
  0
LINE
  8
1
  6
CONTINUOUS
 62
     7
  5
29F
 10
48.5535
 20
405.318
 30
0.0
 11
94.098417
 21
405.318
 31
0.0
  0
TEXT
  8
1
  6
CONTINUOUS
 62
     7
  5
2A0
 10
162.945583
 20
394.496417
 30
0.0
 40
2.5
  1
/
  7
MONOTXT
210
0.0
220
0.0
230
1.0
  0
LINE
  8
1
  6
CONTINUOUS
 62
     4
  5
2A1
 10
335.341667
 20
398.923917
 30
0.0
 11
335.341667
 21
328.923917
 31
0.0
  0
LINE
  8
1
  6
CONTINUOUS
 62
     4
  5
2A2
 10
345.341667
 20
400.923917
 30
0.0
 11
345.341667
 21
328.923917
 31
0.0
  0
LINE
  8
1
  6
CONTINUOUS
 62
     4
  5
2A3
 10
345.341667
 20
400.923917
 30
0.0
 11
335.341667
 21
398.923917
 31
0.0
  0
ARC
  8
1
  6
CONTINUOUS
 62
     4
  5
2A4
 10
337.841667
 20
330.116209
 30
0.0
 40
2.769758
 50
205.497267
 51
334.502733
210
0.0
220
0.0
230
1.0
  0
ARC
  8
1
  6
CONTINUOUS
 62
     4
  5
2A5
 10
342.841667
 20
330.116209
 30
0.0
 40
2.769758
 50
205.497267
 51
334.502733
210
0.0
220
0.0
230
1.0
  0
ARC
  8
1
  6
CONTINUOUS
 62
     4
  5
2A6
 10
342.841667
 20
327.731624
 30
0.0
 40
2.769758
 50
25.497267
 51
154.502733
210
0.0
220
0.0
230
1.0
  0
LINE
  8
1
  6
CONTINUOUS
 62
     4
  5
2A7
 10
350.341667
 20
348.923917
 30
0.0
 11
350.341667
 21
328.923917
 31
0.0
  0
ARC
  8
1
  6
CONTINUOUS
 62
     4
  5
2A8
 10
346.591667
 20
329.579887
 30
0.0
 40
1.411665
 50
207.689433
 51
332.310567
210
0.0
220
0.0
230
1.0
  0
ARC
  8
1
  6
CONTINUOUS
 62
     4
  5
2A9
 10
349.091667
 20
329.579887
 30
0.0
 40
1.411665
 50
207.689433
 51
332.310567
210
0.0
220
0.0
230
1.0
  0
ARC
  8
1
  6
CONTINUOUS
 62
     4
  5
2AA
 10
349.091667
 20
328.267946
 30
0.0
 40
1.411665
 50
27.689433
 51
152.310567
210
0.0
220
0.0
230
1.0
  0
LINE
  8
1
  6
CONTINUOUS
 62
     4
  5
2AB
 10
350.341667
 20
348.923917
 30
0.0
 11
345.341667
 21
348.923917
 31
0.0
  0
LINE
  8
1
  6
CONTINUOUS
 62
     4
  5
2AC
 10
350.341667
 20
347.923917
 30
0.0
 11
345.341667
 21
347.923917
 31
0.0
  0
LINE
  8
1
  6
CONTINUOUS
 62
     4
  5
2AD
 10
344.841667
 20
347.673917
 30
0.0
 11
335.841667
 21
347.673917
 31
0.0
  0
LINE
  8
1
  6
CONTINUOUS
 62
     4
  5
2AE
 10
338.841667
 20
374.173917
 30
0.0
 11
335.841667
 21
374.173917
 31
0.0
  0
LINE
  8
1
  6
CONTINUOUS
 62
     4
  5
2AF
 10
344.841667
 20
374.173917
 30
0.0
 11
341.841667
 21
374.173917
 31
0.0
  0
LINE
  8
1
  6
CONTINUOUS
 62
     4
  5
2B0
 10
340.841667
 20
374.173917
 30
0.0
 11
339.841667
 21
374.173917
 31
0.0
  0
LINE
  8
1
  6
CONTINUOUS
 62
     4
  5
2B1
 10
356.341667
 20
350.423917
 30
0.0
 11
352.341667
 21
346.923917
 31
0.0
  0
LINE
  8
1
  6
CONTINUOUS
 62
     4
  5
2B2
 10
350.341667
 20
348.923917
 30
0.0
 11
352.341667
 21
346.923917
 31
0.0
  0
LINE
  8
1
  6
CONTINUOUS
 62
     4
  5
2B3
 10
354.341667
 20
352.423917
 30
0.0
 11
356.341667
 21
350.423917
 31
0.0
  0
ARC
  8
1
  6
CONTINUOUS
 62
     4
  5
2B4
 10
350.703097
 20
348.458811
 30
0.0
 40
5.381566
 50
47.459022
 51
175.041986
210
0.0
220
0.0
230
1.0
  0
LINE
  8
1
  6
CONTINUOUS
 62
     4
  5
2B5
 10
355.341667
 20
347.673917
 30
0.0
 11
367.341667
 21
347.673917
 31
0.0
  0
LINE
  8
1
  6
CONTINUOUS
 62
     4
  5
2B6
 10
361.341667
 20
332.673917
 30
0.0
 11
361.341667
 21
347.673917
 31
0.0
  0
LINE
  8
1
  6
CONTINUOUS
 62
     4
  5
2B7
 10
345.341667
 20
398.423917
 30
0.0
 11
347.091667
 21
398.423917
 31
0.0
  0
LINE
  8
1
  6
CONTINUOUS
 62
     4
  5
2B8
 10
347.091667
 20
402.173917
 30
0.0
 11
347.091667
 21
398.173917
 31
0.0
  0
LINE
  8
1
  6
CONTINUOUS
 62
     4
  5
2B9
 10
351.091667
 20
402.173917
 30
0.0
 11
351.091667
 21
398.173917
 31
0.0
  0
LINE
  8
1
  6
CONTINUOUS
 62
     4
  5
2BA
 10
347.091667
 20
402.173917
 30
0.0
 11
351.091667
 21
402.173917
 31
0.0
  0
LINE
  8
1
  6
CONTINUOUS
 62
     4
  5
2BB
 10
347.091667
 20
398.173917
 30
0.0
 11
351.091667
 21
398.173917
 31
0.0
  0
LINE
  8
1
  6
CONTINUOUS
 62
     4
  5
2BC
 10
345.341667
 20
393.423917
 30
0.0
 11
350.841667
 21
393.423917
 31
0.0
  0
LINE
  8
1
  6
CONTINUOUS
 62
     4
  5
2BD
 10
350.841667
 20
393.423917
 30
0.0
 11
350.841667
 21
392.423917
 31
0.0
  0
LINE
  8
1
  6
CONTINUOUS
 62
     4
  5
2BE
 10
350.841667
 20
392.423917
 30
0.0
 11
346.591667
 21
392.423917
 31
0.0
  0
LINE
  8
1
  6
CONTINUOUS
 62
     4
  5
2BF
 10
346.591667
 20
392.423917
 30
0.0
 11
346.591667
 21
387.423917
 31
0.0
  0
LINE
  8
1
  6
CONTINUOUS
 62
     4
  5
2C0
 10
346.591667
 20
387.423917
 30
0.0
 11
350.841667
 21
387.423917
 31
0.0
  0
LINE
  8
1
  6
CONTINUOUS
 62
     4
  5
2C1
 10
350.841667
 20
387.423917
 30
0.0
 11
350.841667
 21
386.423917
 31
0.0
  0
LINE
  8
1
  6
CONTINUOUS
 62
     4
  5
2C2
 10
350.841667
 20
386.423917
 30
0.0
 11
346.591667
 21
386.423917
 31
0.0
  0
LINE
  8
1
  6
CONTINUOUS
 62
     4
  5
2C3
 10
346.591667
 20
386.423917
 30
0.0
 11
346.591667
 21
378.923917
 31
0.0
  0
LINE
  8
1
  6
CONTINUOUS
 62
     4
  5
2C4
 10
346.591667
 20
378.923917
 30
0.0
 11
350.841667
 21
378.923917
 31
0.0
  0
LINE
  8
1
  6
CONTINUOUS
 62
     4
  5
2C5
 10
350.841667
 20
378.923917
 30
0.0
 11
350.841667
 21
377.923917
 31
0.0
  0
LINE
  8
1
  6
CONTINUOUS
 62
     4
  5
2C6
 10
350.841667
 20
377.923917
 30
0.0
 11
346.591667
 21
377.923917
 31
0.0
  0
LINE
  8
1
  6
CONTINUOUS
 62
     4
  5
2C7
 10
346.591667
 20
377.923917
 30
0.0
 11
346.591667
 21
371.923917
 31
0.0
  0
LINE
  8
1
  6
CONTINUOUS
 62
     4
  5
2C8
 10
346.591667
 20
371.923917
 30
0.0
 11
350.841667
 21
371.923917
 31
0.0
  0
LINE
  8
1
  6
CONTINUOUS
 62
     4
  5
2C9
 10
350.841667
 20
371.923917
 30
0.0
 11
350.841667
 21
370.923917
 31
0.0
  0
LINE
  8
1
  6
CONTINUOUS
 62
     4
  5
2CA
 10
350.841667
 20
370.923917
 30
0.0
 11
345.341667
 21
370.923917
 31
0.0
  0
LINE
  8
1
  6
CONTINUOUS
 62
     4
  5
2CB
 10
350.341667
 20
391.673917
 30
0.0
 11
346.591667
 21
391.673917
 31
0.0
  0
LINE
  8
1
  6
CONTINUOUS
 62
     4
  5
2CC
 10
346.591667
 20
388.173917
 30
0.0
 11
350.341667
 21
388.173917
 31
0.0
  0
LINE
  8
1
  6
CONTINUOUS
 62
     4
  5
2CD
 10
350.341667
 20
377.173917
 30
0.0
 11
346.591667
 21
377.173917
 31
0.0
  0
LINE
  8
1
  6
CONTINUOUS
 62
     4
  5
2CE
 10
346.591667
 20
372.673917
 30
0.0
 11
350.341667
 21
372.673917
 31
0.0
  0
LINE
  8
1
  6
CONTINUOUS
 62
     4
  5
2CF
 10
350.341667
 20
391.673917
 30
0.0
 11
350.341667
 21
392.423917
 31
0.0
  0
LINE
  8
1
  6
CONTINUOUS
 62
     4
  5
2D0
 10
350.341667
 20
388.173917
 30
0.0
 11
350.341667
 21
387.423917
 31
0.0
  0
LINE
  8
1
  6
CONTINUOUS
 62
     4
  5
2D1
 10
350.341667
 20
377.173917
 30
0.0
 11
350.341667
 21
377.923917
 31
0.0
  0
LINE
  8
1
  6
CONTINUOUS
 62
     4
  5
2D2
 10
350.341667
 20
372.673917
 30
0.0
 11
350.341667
 21
371.923917
 31
0.0
  0
ARC
  8
1
  6
CONTINUOUS
 62
     4
  5
2D3
 10
343.309391
 20
389.923917
 30
0.0
 40
3.719655
 50
331.934944
 51
28.065056
210
0.0
220
0.0
230
1.0
  0
ARC
  8
1
  6
CONTINUOUS
 62
     4
  5
2D4
 10
353.623942
 20
389.923917
 30
0.0
 40
3.719655
 50
151.934944
 51
208.065056
210
0.0
220
0.0
230
1.0
  0
ARC
  8
1
  6
CONTINUOUS
 62
     4
  5
2D5
 10
342.503347
 20
374.923917
 30
0.0
 40
4.666568
 50
331.173881
 51
28.826117
210
0.0
220
0.0
230
1.0
  0
ARC
  8
1
  6
CONTINUOUS
 62
     4
  5
2D6
 10
354.429986
 20
374.923917
 30
0.0
 40
4.666568
 50
151.173883
 51
208.826119
210
0.0
220
0.0
230
1.0
  0
LINE
  8
1
  6
CONTINUOUS
 62
     4
  5
2D7
 10
350.120583
 20
391.173917
 30
0.0
 11
346.81275
 21
391.173917
 31
0.0
  0
LINE
  8
1
  6
CONTINUOUS
 62
     4
  5
2D8
 10
346.81275
 20
388.673917
 30
0.0
 11
350.120583
 21
388.673917
 31
0.0
  0
LINE
  8
1
  6
CONTINUOUS
 62
     4
  5
2D9
 10
350.104
 20
376.673917
 30
0.0
 11
346.829333
 21
376.673917
 31
0.0
  0
LINE
  8
1
  6
CONTINUOUS
 62
     4
  5
2DA
 10
346.829333
 20
373.173917
 30
0.0
 11
350.104
 21
373.173917
 31
0.0
  0
CIRCLE
  8
1
  6
CONTINUOUS
 62
     4
  5
2DB
 10
353.831417
 20
389.564167
 30
0.0
 40
0.5
210
0.0
220
0.0
230
1.0
  0
CIRCLE
  8
1
  6
CONTINUOUS
 62
     4
  5
2DC
 10
353.801333
 20
374.562
 30
0.0
 40
0.5
210
0.0
220
0.0
230
1.0
  0
POLYLINE
  8
1
  6
CONTINUOUS
 62
     4
  5
2DD
 66
     1
 10
0.0
 20
0.0
 30
0.0
  0
VERTEX
  8
1
  6
CONTINUOUS
 62
     4
  5
2DE
 10
346.779083
 20
389.923917
 30
0.0
  0
VERTEX
  8
1
  6
CONTINUOUS
 62
     4
  5
2DF
 10
346.868083
 20
389.916917
 30
0.0
  0
VERTEX
  8
1
  6
CONTINUOUS
 62
     4
  5
2E0
 10
346.936333
 20
389.916917
 30
0.0
  0
VERTEX
  8
1
  6
CONTINUOUS
 62
     4
  5
2E1
 10
347.004583
 20
389.909333
 30
0.0
  0
VERTEX
  8
1
  6
CONTINUOUS
 62
     4
  5
2E2
 10
347.050083
 20
389.909333
 30
0.0
  0
VERTEX
  8
1
  6
CONTINUOUS
 62
     4
  5
2E3
 10
347.10325
 20
389.909333
 30
0.0
  0
VERTEX
  8
1
  6
CONTINUOUS
 62
     4
  5
2E4
 10
347.156333
 20
389.909333
 30
0.0
  0
VERTEX
  8
1
  6
CONTINUOUS
 62
     4
  5
2E5
 10
347.217
 20
389.916917
 30
0.0
  0
VERTEX
  8
1
  6
CONTINUOUS
 62
     4
  5
2E6
 10
347.338333
 20
389.939667
 30
0.0
  0
VERTEX
  8
1
  6
CONTINUOUS
 62
     4
  5
2E7
 10
347.361083
 20
389.932083
 30
0.0
  0
VERTEX
  8
1
  6
CONTINUOUS
 62
     4
  5
2E8
 10
347.399
 20
389.916917
 30
0.0
  0
VERTEX
  8
1
  6
CONTINUOUS
 62
     4
  5
2E9
 10
347.436917
 20
389.9245
 30
0.0
  0
VERTEX
  8
1
  6
CONTINUOUS
 62
     4
  5
2EA
 10
347.459667
 20
389.916917
 30
0.0
  0
VERTEX
  8
1
  6
CONTINUOUS
 62
     4
  5
2EB
 10
347.581
 20
389.916917
 30
0.0
  0
VERTEX
  8
1
  6
CONTINUOUS
 62
     4
  5
2EC
 10
347.649333
 20
389.85625
 30
0.0
  0
VERTEX
  8
1
  6
CONTINUOUS
 62
     4
  5
2ED
 10
347.64175
 20
389.848667
 30
0.0
  0
VERTEX
  8
1
  6
CONTINUOUS
 62
     4
  5
2EE
 10
347.672083
 20
389.871417
 30
0.0
  0
VERTEX
  8
1
  6
CONTINUOUS
 62
     4
  5
2EF
 10
347.73275
 20
389.848667
 30
0.0
  0
VERTEX
  8
1
  6
CONTINUOUS
 62
     4
  5
2F0
 10
347.793417
 20
389.848667
 30
0.0
  0
VERTEX
  8
1
  6
CONTINUOUS
 62
     4
  5
2F1
 10
347.854083
 20
389.879
 30
0.0
  0
VERTEX
  8
1
  6
CONTINUOUS
 62
     4
  5
2F2
 10
347.861667
 20
389.886583
 30
0.0
  0
VERTEX
  8
1
  6
CONTINUOUS
 62
     4
  5
2F3
 10
347.922333
 20
389.90175
 30
0.0
  0
VERTEX
  8
1
  6
CONTINUOUS
 62
     4
  5
2F4
 10
347.952667
 20
389.886583
 30
0.0
  0
VERTEX
  8
1
  6
CONTINUOUS
 62
     4
  5
2F5
 10
347.990583
 20
389.863833
 30
0.0
  0
VERTEX
  8
1
  6
CONTINUOUS
 62
     4
  5
2F6
 10
348.020917
 20
389.85625
 30
0.0
  0
VERTEX
  8
1
  6
CONTINUOUS
 62
     4
  5
2F7
 10
348.172667
 20
389.841083
 30
0.0
  0
VERTEX
  8
1
  6
CONTINUOUS
 62
     4
  5
2F8
 10
348.22575
 20
389.85625
 30
0.0
  0
VERTEX
  8
1
  6
CONTINUOUS
 62
     4
  5
2F9
 10
348.331917
 20
389.8335
 30
0.0
  0
VERTEX
  8
1
  6
CONTINUOUS
 62
     4
  5
2FA
 10
348.36225
 20
389.863833
 30
0.0
  0
VERTEX
  8
1
  6
CONTINUOUS
 62
     4
  5
2FB
 10
348.422917
 20
389.863833
 30
0.0
  0
VERTEX
  8
1
  6
CONTINUOUS
 62
     4
  5
2FC
 10
348.536667
 20
389.825917
 30
0.0
  0
VERTEX
  8
1
  6
CONTINUOUS
 62
     4
  5
2FD
 10
348.551833
 20
389.825917
 30
0.0
  0
VERTEX
  8
1
  6
CONTINUOUS
 62
     4
  5
2FE
 10
348.605
 20
389.825917
 30
0.0
  0
VERTEX
  8
1
  6
CONTINUOUS
 62
     4
  5
2FF
 10
348.8325
 20
389.848667
 30
0.0
  0
VERTEX
  8
1
  6
CONTINUOUS
 62
     4
  5
300
 10
348.840083
 20
389.848667
 30
0.0
  0
VERTEX
  8
1
  6
CONTINUOUS
 62
     4
  5
301
 10
348.893167
 20
389.8335
 30
0.0
  0
VERTEX
  8
1
  6
CONTINUOUS
 62
     4
  5
302
 10
349.022083
 20
389.81075
 30
0.0
  0
VERTEX
  8
1
  6
CONTINUOUS
 62
     4
  5
303
 10
349.1435
 20
389.818333
 30
0.0
  0
VERTEX
  8
1
  6
CONTINUOUS
 62
     4
  5
304
 10
349.2345
 20
389.818333
 30
0.0
  0
VERTEX
  8
1
  6
CONTINUOUS
 62
     4
  5
305
 10
349.317917
 20
389.825917
 30
0.0
  0
VERTEX
  8
1
  6
CONTINUOUS
 62
     4
  5
306
 10
349.39375
 20
389.8335
 30
0.0
  0
VERTEX
  8
1
  6
CONTINUOUS
 62
     4
  5
307
 10
349.454417
 20
389.803167
 30
0.0
  0
VERTEX
  8
1
  6
CONTINUOUS
 62
     4
  5
308
 10
349.56825
 20
389.7955
 30
0.0
  0
VERTEX
  8
1
  6
CONTINUOUS
 62
     4
  5
309
 10
349.591
 20
389.75
 30
0.0
  0
VERTEX
  8
1
  6
CONTINUOUS
 62
     4
  5
30A
 10
349.674417
 20
389.742417
 30
0.0
  0
VERTEX
  8
1
  6
CONTINUOUS
 62
     4
  5
30B
 10
349.8185
 20
389.734833
 30
0.0
  0
VERTEX
  8
1
  6
CONTINUOUS
 62
     4
  5
30C
 10
349.856417
 20
389.75
 30
0.0
  0
VERTEX
  8
1
  6
CONTINUOUS
 62
     4
  5
30D
 10
349.947417
 20
389.780333
 30
0.0
  0
VERTEX
  8
1
  6
CONTINUOUS
 62
     4
  5
30E
 10
350.068833
 20
389.803167
 30
0.0
  0
VERTEX
  8
1
  6
CONTINUOUS
 62
     4
  5
30F
 10
350.144667
 20
389.765167
 30
0.0
  0
VERTEX
  8
1
  6
CONTINUOUS
 62
     4
  5
310
 10
350.15225
 20
389.765167
 30
0.0
  0
VERTEX
  8
1
  6
CONTINUOUS
 62
     4
  5
311
 10
350.175
 20
389.719667
 30
0.0
  0
VERTEX
  8
1
  6
CONTINUOUS
 62
     4
  5
312
 10
350.394917
 20
389.77275
 30
0.0
  0
VERTEX
  8
1
  6
CONTINUOUS
 62
     4
  5
313
 10
350.417667
 20
389.75
 30
0.0
  0
VERTEX
  8
1
  6
CONTINUOUS
 62
     4
  5
314
 10
350.448
 20
389.742417
 30
0.0
  0
VERTEX
  8
1
  6
CONTINUOUS
 62
     4
  5
315
 10
350.577
 20
389.742417
 30
0.0
  0
VERTEX
  8
1
  6
CONTINUOUS
 62
     4
  5
316
 10
350.59975
 20
389.734833
 30
0.0
  0
VERTEX
  8
1
  6
CONTINUOUS
 62
     4
  5
317
 10
350.705917
 20
389.757583
 30
0.0
  0
VERTEX
  8
1
  6
CONTINUOUS
 62
     4
  5
318
 10
350.751417
 20
389.75
 30
0.0
  0
VERTEX
  8
1
  6
CONTINUOUS
 62
     4
  5
319
 10
350.819667
 20
389.734833
 30
0.0
  0
VERTEX
  8
1
  6
CONTINUOUS
 62
     4
  5
31A
 10
350.857583
 20
389.75
 30
0.0
  0
VERTEX
  8
1
  6
CONTINUOUS
 62
     4
  5
31B
 10
350.941
 20
389.742417
 30
0.0
  0
VERTEX
  8
1
  6
CONTINUOUS
 62
     4
  5
31C
 10
351.039667
 20
389.75
 30
0.0
  0
VERTEX
  8
1
  6
CONTINUOUS
 62
     4
  5
31D
 10
351.153417
 20
389.742417
 30
0.0
  0
VERTEX
  8
1
  6
CONTINUOUS
 62
     4
  5
31E
 10
351.214083
 20
389.712083
 30
0.0
  0
VERTEX
  8
1
  6
CONTINUOUS
 62
     4
  5
31F
 10
351.252
 20
389.674167
 30
0.0
  0
VERTEX
  8
1
  6
CONTINUOUS
 62
     4
  5
320
 10
351.259583
 20
389.666583
 30
0.0
  0
VERTEX
  8
1
  6
CONTINUOUS
 62
     4
  5
321
 10
351.3885
 20
389.68175
 30
0.0
  0
VERTEX
  8
1
  6
CONTINUOUS
 62
     4
  5
322
 10
351.441583
 20
389.674167
 30
0.0
  0
VERTEX
  8
1
  6
CONTINUOUS
 62
     4
  5
323
 10
351.563
 20
389.674167
 30
0.0
  0
VERTEX
  8
1
  6
CONTINUOUS
 62
     4
  5
324
 10
351.616083
 20
389.659
 30
0.0
  0
VERTEX
  8
1
  6
CONTINUOUS
 62
     4
  5
325
 10
351.714667
 20
389.666583
 30
0.0
  0
VERTEX
  8
1
  6
CONTINUOUS
 62
     4
  5
326
 10
351.980083
 20
389.666583
 30
0.0
  0
VERTEX
  8
1
  6
CONTINUOUS
 62
     4
  5
327
 10
352.018083
 20
389.666583
 30
0.0
  0
VERTEX
  8
1
  6
CONTINUOUS
 62
     4
  5
328
 10
352.086333
 20
389.674167
 30
0.0
  0
VERTEX
  8
1
  6
CONTINUOUS
 62
     4
  5
329
 10
352.177333
 20
389.666583
 30
0.0
  0
VERTEX
  8
1
  6
CONTINUOUS
 62
     4
  5
32A
 10
352.21525
 20
389.643833
 30
0.0
  0
VERTEX
  8
1
  6
CONTINUOUS
 62
     4
  5
32B
 10
352.291083
 20
389.63625
 30
0.0
  0
VERTEX
  8
1
  6
CONTINUOUS
 62
     4
  5
32C
 10
352.412417
 20
389.605833
 30
0.0
  0
VERTEX
  8
1
  6
CONTINUOUS
 62
     4
  5
32D
 10
352.52625
 20
389.628667
 30
0.0
  0
VERTEX
  8
1
  6
CONTINUOUS
 62
     4
  5
32E
 10
352.57175
 20
389.63625
 30
0.0
  0
VERTEX
  8
1
  6
CONTINUOUS
 62
     4
  5
32F
 10
352.6855
 20
389.628667
 30
0.0
  0
VERTEX
  8
1
  6
CONTINUOUS
 62
     4
  5
330
 10
352.768917
 20
389.613417
 30
0.0
  0
VERTEX
  8
1
  6
CONTINUOUS
 62
     4
  5
331
 10
352.79925
 20
389.5755
 30
0.0
  0
VERTEX
  8
1
  6
CONTINUOUS
 62
     4
  5
332
 10
352.897833
 20
389.583083
 30
0.0
  0
VERTEX
  8
1
  6
CONTINUOUS
 62
     4
  5
333
 10
353.042
 20
389.583083
 30
0.0
  0
VERTEX
  8
1
  6
CONTINUOUS
 62
     4
  5
334
 10
353.148167
 20
389.5755
 30
0.0
  0
VERTEX
  8
1
  6
CONTINUOUS
 62
     4
  5
335
 10
353.193667
 20
389.59825
 30
0.0
  0
VERTEX
  8
1
  6
CONTINUOUS
 62
     4
  5
336
 10
353.299833
 20
389.590667
 30
0.0
  0
VERTEX
  8
1
  6
CONTINUOUS
 62
     4
  5
337
 10
353.375667
 20
389.613417
 30
0.0
  0
SEQEND
  8
1
  6
CONTINUOUS
 62
     4
  5
338
  0
POLYLINE
  8
1
  6
CONTINUOUS
 62
     4
  5
339
 66
     1
 10
0.0
 20
0.0
 30
0.0
  0
VERTEX
  8
1
  6
CONTINUOUS
 62
     4
  5
33A
 10
346.919917
 20
374.923917
 30
0.0
  0
VERTEX
  8
1
  6
CONTINUOUS
 62
     4
  5
33B
 10
347.008917
 20
374.916917
 30
0.0
  0
VERTEX
  8
1
  6
CONTINUOUS
 62
     4
  5
33C
 10
347.077167
 20
374.916917
 30
0.0
  0
VERTEX
  8
1
  6
CONTINUOUS
 62
     4
  5
33D
 10
347.145417
 20
374.909333
 30
0.0
  0
VERTEX
  8
1
  6
CONTINUOUS
 62
     4
  5
33E
 10
347.190917
 20
374.909333
 30
0.0
  0
VERTEX
  8
1
  6
CONTINUOUS
 62
     4
  5
33F
 10
347.244083
 20
374.909333
 30
0.0
  0
VERTEX
  8
1
  6
CONTINUOUS
 62
     4
  5
340
 10
347.297167
 20
374.909333
 30
0.0
  0
VERTEX
  8
1
  6
CONTINUOUS
 62
     4
  5
341
 10
347.357833
 20
374.916917
 30
0.0
  0
VERTEX
  8
1
  6
CONTINUOUS
 62
     4
  5
342
 10
347.479167
 20
374.939667
 30
0.0
  0
VERTEX
  8
1
  6
CONTINUOUS
 62
     4
  5
343
 10
347.501917
 20
374.932083
 30
0.0
  0
VERTEX
  8
1
  6
CONTINUOUS
 62
     4
  5
344
 10
347.539833
 20
374.916917
 30
0.0
  0
VERTEX
  8
1
  6
CONTINUOUS
 62
     4
  5
345
 10
347.57775
 20
374.9245
 30
0.0
  0
VERTEX
  8
1
  6
CONTINUOUS
 62
     4
  5
346
 10
347.6005
 20
374.916917
 30
0.0
  0
VERTEX
  8
1
  6
CONTINUOUS
 62
     4
  5
347
 10
347.721833
 20
374.916917
 30
0.0
  0
VERTEX
  8
1
  6
CONTINUOUS
 62
     4
  5
348
 10
347.790167
 20
374.85625
 30
0.0
  0
VERTEX
  8
1
  6
CONTINUOUS
 62
     4
  5
349
 10
347.782583
 20
374.848667
 30
0.0
  0
VERTEX
  8
1
  6
CONTINUOUS
 62
     4
  5
34A
 10
347.812917
 20
374.871417
 30
0.0
  0
VERTEX
  8
1
  6
CONTINUOUS
 62
     4
  5
34B
 10
347.873583
 20
374.848667
 30
0.0
  0
VERTEX
  8
1
  6
CONTINUOUS
 62
     4
  5
34C
 10
347.93425
 20
374.848667
 30
0.0
  0
VERTEX
  8
1
  6
CONTINUOUS
 62
     4
  5
34D
 10
347.994917
 20
374.879
 30
0.0
  0
VERTEX
  8
1
  6
CONTINUOUS
 62
     4
  5
34E
 10
348.0025
 20
374.886583
 30
0.0
  0
VERTEX
  8
1
  6
CONTINUOUS
 62
     4
  5
34F
 10
348.063167
 20
374.90175
 30
0.0
  0
VERTEX
  8
1
  6
CONTINUOUS
 62
     4
  5
350
 10
348.0935
 20
374.886583
 30
0.0
  0
VERTEX
  8
1
  6
CONTINUOUS
 62
     4
  5
351
 10
348.131417
 20
374.863833
 30
0.0
  0
VERTEX
  8
1
  6
CONTINUOUS
 62
     4
  5
352
 10
348.16175
 20
374.85625
 30
0.0
  0
VERTEX
  8
1
  6
CONTINUOUS
 62
     4
  5
353
 10
348.3135
 20
374.841083
 30
0.0
  0
VERTEX
  8
1
  6
CONTINUOUS
 62
     4
  5
354
 10
348.366583
 20
374.85625
 30
0.0
  0
VERTEX
  8
1
  6
CONTINUOUS
 62
     4
  5
355
 10
348.47275
 20
374.8335
 30
0.0
  0
VERTEX
  8
1
  6
CONTINUOUS
 62
     4
  5
356
 10
348.503083
 20
374.863833
 30
0.0
  0
VERTEX
  8
1
  6
CONTINUOUS
 62
     4
  5
357
 10
348.56375
 20
374.863833
 30
0.0
  0
VERTEX
  8
1
  6
CONTINUOUS
 62
     4
  5
358
 10
348.6775
 20
374.825917
 30
0.0
  0
VERTEX
  8
1
  6
CONTINUOUS
 62
     4
  5
359
 10
348.692667
 20
374.825917
 30
0.0
  0
VERTEX
  8
1
  6
CONTINUOUS
 62
     4
  5
35A
 10
348.745833
 20
374.825917
 30
0.0
  0
VERTEX
  8
1
  6
CONTINUOUS
 62
     4
  5
35B
 10
348.973333
 20
374.848667
 30
0.0
  0
VERTEX
  8
1
  6
CONTINUOUS
 62
     4
  5
35C
 10
348.980917
 20
374.848667
 30
0.0
  0
VERTEX
  8
1
  6
CONTINUOUS
 62
     4
  5
35D
 10
349.034
 20
374.8335
 30
0.0
  0
VERTEX
  8
1
  6
CONTINUOUS
 62
     4
  5
35E
 10
349.162917
 20
374.81075
 30
0.0
  0
VERTEX
  8
1
  6
CONTINUOUS
 62
     4
  5
35F
 10
349.284333
 20
374.818333
 30
0.0
  0
VERTEX
  8
1
  6
CONTINUOUS
 62
     4
  5
360
 10
349.375333
 20
374.818333
 30
0.0
  0
VERTEX
  8
1
  6
CONTINUOUS
 62
     4
  5
361
 10
349.45875
 20
374.825917
 30
0.0
  0
VERTEX
  8
1
  6
CONTINUOUS
 62
     4
  5
362
 10
349.534583
 20
374.8335
 30
0.0
  0
VERTEX
  8
1
  6
CONTINUOUS
 62
     4
  5
363
 10
349.59525
 20
374.803167
 30
0.0
  0
VERTEX
  8
1
  6
CONTINUOUS
 62
     4
  5
364
 10
349.709083
 20
374.7955
 30
0.0
  0
VERTEX
  8
1
  6
CONTINUOUS
 62
     4
  5
365
 10
349.731833
 20
374.75
 30
0.0
  0
VERTEX
  8
1
  6
CONTINUOUS
 62
     4
  5
366
 10
349.81525
 20
374.742417
 30
0.0
  0
VERTEX
  8
1
  6
CONTINUOUS
 62
     4
  5
367
 10
349.959333
 20
374.734833
 30
0.0
  0
VERTEX
  8
1
  6
CONTINUOUS
 62
     4
  5
368
 10
349.99725
 20
374.75
 30
0.0
  0
VERTEX
  8
1
  6
CONTINUOUS
 62
     4
  5
369
 10
350.08825
 20
374.780333
 30
0.0
  0
VERTEX
  8
1
  6
CONTINUOUS
 62
     4
  5
36A
 10
350.209667
 20
374.803167
 30
0.0
  0
VERTEX
  8
1
  6
CONTINUOUS
 62
     4
  5
36B
 10
350.2855
 20
374.765167
 30
0.0
  0
VERTEX
  8
1
  6
CONTINUOUS
 62
     4
  5
36C
 10
350.293083
 20
374.765167
 30
0.0
  0
VERTEX
  8
1
  6
CONTINUOUS
 62
     4
  5
36D
 10
350.315833
 20
374.719667
 30
0.0
  0
VERTEX
  8
1
  6
CONTINUOUS
 62
     4
  5
36E
 10
350.53575
 20
374.77275
 30
0.0
  0
VERTEX
  8
1
  6
CONTINUOUS
 62
     4
  5
36F
 10
350.5585
 20
374.75
 30
0.0
  0
VERTEX
  8
1
  6
CONTINUOUS
 62
     4
  5
370
 10
350.588833
 20
374.742417
 30
0.0
  0
VERTEX
  8
1
  6
CONTINUOUS
 62
     4
  5
371
 10
350.717833
 20
374.742417
 30
0.0
  0
VERTEX
  8
1
  6
CONTINUOUS
 62
     4
  5
372
 10
350.740583
 20
374.734833
 30
0.0
  0
VERTEX
  8
1
  6
CONTINUOUS
 62
     4
  5
373
 10
350.84675
 20
374.757583
 30
0.0
  0
VERTEX
  8
1
  6
CONTINUOUS
 62
     4
  5
374
 10
350.89225
 20
374.75
 30
0.0
  0
VERTEX
  8
1
  6
CONTINUOUS
 62
     4
  5
375
 10
350.9605
 20
374.734833
 30
0.0
  0
VERTEX
  8
1
  6
CONTINUOUS
 62
     4
  5
376
 10
350.998417
 20
374.75
 30
0.0
  0
VERTEX
  8
1
  6
CONTINUOUS
 62
     4
  5
377
 10
351.081833
 20
374.742417
 30
0.0
  0
VERTEX
  8
1
  6
CONTINUOUS
 62
     4
  5
378
 10
351.1805
 20
374.75
 30
0.0
  0
VERTEX
  8
1
  6
CONTINUOUS
 62
     4
  5
379
 10
351.29425
 20
374.742417
 30
0.0
  0
VERTEX
  8
1
  6
CONTINUOUS
 62
     4
  5
37A
 10
351.354917
 20
374.712083
 30
0.0
  0
VERTEX
  8
1
  6
CONTINUOUS
 62
     4
  5
37B
 10
351.392833
 20
374.674167
 30
0.0
  0
VERTEX
  8
1
  6
CONTINUOUS
 62
     4
  5
37C
 10
351.400417
 20
374.666583
 30
0.0
  0
VERTEX
  8
1
  6
CONTINUOUS
 62
     4
  5
37D
 10
351.529333
 20
374.68175
 30
0.0
  0
VERTEX
  8
1
  6
CONTINUOUS
 62
     4
  5
37E
 10
351.582417
 20
374.674167
 30
0.0
  0
VERTEX
  8
1
  6
CONTINUOUS
 62
     4
  5
37F
 10
351.703833
 20
374.674167
 30
0.0
  0
VERTEX
  8
1
  6
CONTINUOUS
 62
     4
  5
380
 10
351.756917
 20
374.659
 30
0.0
  0
VERTEX
  8
1
  6
CONTINUOUS
 62
     4
  5
381
 10
351.8555
 20
374.666583
 30
0.0
  0
VERTEX
  8
1
  6
CONTINUOUS
 62
     4
  5
382
 10
352.120917
 20
374.666583
 30
0.0
  0
VERTEX
  8
1
  6
CONTINUOUS
 62
     4
  5
383
 10
352.158917
 20
374.666583
 30
0.0
  0
VERTEX
  8
1
  6
CONTINUOUS
 62
     4
  5
384
 10
352.227167
 20
374.674167
 30
0.0
  0
VERTEX
  8
1
  6
CONTINUOUS
 62
     4
  5
385
 10
352.318167
 20
374.666583
 30
0.0
  0
VERTEX
  8
1
  6
CONTINUOUS
 62
     4
  5
386
 10
352.356083
 20
374.643833
 30
0.0
  0
VERTEX
  8
1
  6
CONTINUOUS
 62
     4
  5
387
 10
352.431917
 20
374.63625
 30
0.0
  0
VERTEX
  8
1
  6
CONTINUOUS
 62
     4
  5
388
 10
352.55325
 20
374.605833
 30
0.0
  0
VERTEX
  8
1
  6
CONTINUOUS
 62
     4
  5
389
 10
352.667083
 20
374.628667
 30
0.0
  0
VERTEX
  8
1
  6
CONTINUOUS
 62
     4
  5
38A
 10
352.712583
 20
374.63625
 30
0.0
  0
VERTEX
  8
1
  6
CONTINUOUS
 62
     4
  5
38B
 10
352.826333
 20
374.628667
 30
0.0
  0
VERTEX
  8
1
  6
CONTINUOUS
 62
     4
  5
38C
 10
352.90975
 20
374.613417
 30
0.0
  0
VERTEX
  8
1
  6
CONTINUOUS
 62
     4
  5
38D
 10
352.940083
 20
374.5755
 30
0.0
  0
VERTEX
  8
1
  6
CONTINUOUS
 62
     4
  5
38E
 10
353.038667
 20
374.583083
 30
0.0
  0
VERTEX
  8
1
  6
CONTINUOUS
 62
     4
  5
38F
 10
353.182833
 20
374.583083
 30
0.0
  0
VERTEX
  8
1
  6
CONTINUOUS
 62
     4
  5
390
 10
353.289
 20
374.5755
 30
0.0
  0
VERTEX
  8
1
  6
CONTINUOUS
 62
     4
  5
391
 10
353.3345
 20
374.59825
 30
0.0
  0
VERTEX
  8
1
  6
CONTINUOUS
 62
     4
  5
392
 10
353.440667
 20
374.590667
 30
0.0
  0
VERTEX
  8
1
  6
CONTINUOUS
 62
     4
  5
393
 10
353.5165
 20
374.613417
 30
0.0
  0
SEQEND
  8
1
  6
CONTINUOUS
 62
     4
  5
394
  0
LINE
  8
1
  6
CONTINUOUS
 62
     4
  5
395
 10
354.331417
 20
389.569167
 30
0.0
 11
394.772833
 21
387.449833
 31
0.0
  0
POLYLINE
  8
1
  6
CONTINUOUS
 62
     4
  5
396
 66
     1
 10
0.0
 20
0.0
 30
0.0
 70
     1
  0
VERTEX
  8
1
  6
CONTINUOUS
 62
     4
  5
397
 10
363.319
 20
390.098167
 30
0.0
  0
VERTEX
  8
1
  6
CONTINUOUS
 62
     4
  5
398
 10
365.319
 20
390.098167
 30
0.0
  0
VERTEX
  8
1
  6
CONTINUOUS
 62
     4
  5
399
 10
365.319
 20
388.098167
 30
0.0
  0
VERTEX
  8
1
  6
CONTINUOUS
 62
     4
  5
39A
 10
363.319
 20
388.098167
 30
0.0
  0
VERTEX
  8
1
  6
CONTINUOUS
 62
     4
  5
39B
 10
363.319
 20
390.098167
 30
0.0
  0
SEQEND
  8
1
  6
CONTINUOUS
 62
     4
  5
39C
  0
POLYLINE
  8
1
  6
CONTINUOUS
 62
     4
  5
39D
 66
     1
 10
0.0
 20
0.0
 30
0.0
 70
     1
  0
VERTEX
  8
1
  6
CONTINUOUS
 62
     4
  5
39E
 10
372.774
 20
374.550083
 30
0.0
  0
VERTEX
  8
1
  6
CONTINUOUS
 62
     4
  5
39F
 10
374.774
 20
374.550083
 30
0.0
  0
VERTEX
  8
1
  6
CONTINUOUS
 62
     4
  5
3A0
 10
374.774
 20
372.550083
 30
0.0
  0
VERTEX
  8
1
  6
CONTINUOUS
 62
     4
  5
3A1
 10
372.774
 20
372.550083
 30
0.0
  0
VERTEX
  8
1
  6
CONTINUOUS
 62
     4
  5
3A2
 10
372.774
 20
374.550083
 30
0.0
  0
SEQEND
  8
1
  6
CONTINUOUS
 62
     4
  5
3A3
  0
LINE
  8
1
  6
CONTINUOUS
 62
     4
  5
3A4
 10
343.341667
 20
394.923917
 30
0.0
 11
343.341667
 21
376.923917
 31
0.0
  0
ARC
  8
1
  6
CONTINUOUS
 62
     4
  5
3A5
 10
342.831293
 20
400.370972
 30
0.0
 40
5.470914
 50
275.352822
 51
336.322483
210
0.0
220
0.0
230
1.0
  0
ARC
  8
1
  6
CONTINUOUS
 62
     4
  5
3A6
 10
364.837883
 20
384.911051
 30
0.0
 40
22.932109
 50
200.383053
 51
225.614103
210
0.0
220
0.0
230
1.0
  0
ARC
  8
1
  6
CONTINUOUS
 62
     4
  5
3A7
 10
339.375867
 20
373.16472
 30
0.0
 40
14.472251
 50
343.687875
 51
3.629989
210
0.0
220
0.0
230
1.0
  0
ARC
  8
1
  6
CONTINUOUS
 62
     4
  5
3A8
 10
382.272466
 20
395.308158
 30
0.0
 40
32.806206
 50
174.988592
 51
197.576139
210
0.0
220
0.0
230
1.0
  0
ARC
  8
1
  6
CONTINUOUS
 62
     4
  5
3A9
 10
346.503742
 20
388.037179
 30
0.0
 40
7.389874
 50
338.284317
 51
8.162625
210
0.0
220
0.0
230
1.0
  0
POLYLINE
  8
1
  6
CONTINUOUS
 62
     4
  5
3AA
 66
     1
 10
0.0
 20
0.0
 30
0.0
210
0.0
220
0.0
230
1.0
  0
VERTEX
  8
1
  6
CONTINUOUS
 62
     4
  5
3AB
 10
367.864807
 20
339.941941
 30
0.0
 42
-0.03666
  0
VERTEX
  8
1
  6
CONTINUOUS
 62
     4
  5
3AC
 10
366.957839
 20
337.564651
 30
0.0
 42
-0.045102
  0
VERTEX
  8
1
  6
CONTINUOUS
 62
     4
  5
3AD
 10
365.80566
 20
335.580255
 30
0.0
 42
-0.057676
  0
VERTEX
  8
1
  6
CONTINUOUS
 62
     4
  5
3AE
 10
364.453999
 20
334.067517
 30
0.0
 42
-0.073841
  0
VERTEX
  8
1
  6
CONTINUOUS
 62
     4
  5
3AF
 10
362.956507
 20
333.086478
 30
0.0
 42
-0.087976
  0
VERTEX
  8
1
  6
CONTINUOUS
 62
     4
  5
3B0
 10
361.372619
 20
332.676075
 30
0.0
 42
-0.089991
  0
VERTEX
  8
1
  6
CONTINUOUS
 62
     4
  5
3B1
 10
359.765201
 20
332.852599
 30
0.0
 42
-0.078056
  0
VERTEX
  8
1
  6
CONTINUOUS
 62
     4
  5
3B2
 10
358.198053
 20
333.609043
 30
0.0
 42
-0.061593
  0
VERTEX
  8
1
  6
CONTINUOUS
 62
     4
  5
3B3
 10
356.733376
 20
334.915383
 30
0.0
 42
-0.047914
  0
VERTEX
  8
1
  6
CONTINUOUS
 62
     4
  5
3B4
 10
355.429305
 20
336.719769
 30
0.0
 42
-0.038485
  0
VERTEX
  8
1
  6
CONTINUOUS
 62
     4
  5
3B5
 10
354.337599
 20
338.950585
 30
0.0
 42
-0.032508
  0
VERTEX
  8
1
  6
CONTINUOUS
 62
     4
  5
3B6
 10
353.501588
 20
341.519286
 30
0.0
 42
-0.029035
  0
VERTEX
  8
1
  6
CONTINUOUS
 62
     4
  5
3B7
 10
352.954456
 20
344.323919
 30
0.0
 42
-0.027443
  0
VERTEX
  8
1
  6
CONTINUOUS
 62
     4
  5
3B8
 10
352.717917
 20
347.253167
 30
0.0
 42
-0.027443
  0
SEQEND
  8
1
  6
CONTINUOUS
 62
     4
  5
3B9
  0
ARC
  8
1
  6
CONTINUOUS
 62
     4
  5
3BA
 10
181.504411
 20
354.235186
 30
0.0
 40
186.907744
 50
355.614178
 51
10.438197
210
0.0
220
0.0
230
1.0
  0
LINE
  8
1
  6
CONTINUOUS
 62
     4
  5
3BB
 10
354.299417
 20
374.51825
 30
0.0
 11
366.644667
 21
373.871333
 31
0.0
  0
LINE
  8
1
  6
CONTINUOUS
 62
     4
  5
3BC
 10
367.994417
 20
373.800583
 30
0.0
 11
371.153583
 21
373.635
 31
0.0
  0
LINE
  8
1
  6
CONTINUOUS
 62
     4
  5
3BD
 10
371.153583
 20
373.635
 30
0.0
 11
393.249417
 21
372.477083
 31
0.0
  0
ARC
  8
1
  6
CONTINUOUS
 62
     4
  5
3BE
 10
361.21636
 20
339.984765
 30
0.0
 40
7.311922
 50
270.98195
 51
333.073517
210
0.0
220
0.0
230
1.0
  0
ARC
  8
1
  6
CONTINUOUS
 62
     4
  5
3BF
 10
-513.561708
 20
452.114195
 30
0.0
 40
890.833602
 50
353.559325
 51
354.874758
210
0.0
220
0.0
230
1.0
  0
ARC
  8
1
  6
CONTINUOUS
 62
     4
  5
3C0
 10
339.278844
 20
351.18818
 30
0.0
 40
31.944632
 50
332.975769
 51
353.721119
210
0.0
220
0.0
230
1.0
  0
ARC
  8
1
  6
CONTINUOUS
 62
     4
  5
3C1
 10
275.516156
 20
363.11758
 30
0.0
 40
96.75286
 50
350.827525
 51
353.512261
210
0.0
220
0.0
230
1.0
  0
ARC
  8
1
  6
CONTINUOUS
 62
     4
  5
3C2
 10
352.211441
 20
386.024794
 30
0.0
 40
1.364345
 50
207.179772
 51
328.055206
210
0.0
220
0.0
230
1.0
  0
ARC
  8
1
  6
CONTINUOUS
 62
     4
  5
3C3
 10
350.875001
 20
370.021974
 30
0.0
 40
2.56224
 50
215.811653
 51
338.908153
210
0.0
220
0.0
230
1.0
  0
ARC
  8
1
  6
CONTINUOUS
 62
     4
  5
3C4
 10
395.610814
 20
386.277822
 30
0.0
 40
1.147339
 50
314.460811
 51
81.613144
210
0.0
220
0.0
230
1.0
  0
ARC
  8
1
  6
CONTINUOUS
 62
     4
  5
3C5
 10
401.122613
 20
382.388033
 30
0.0
 40
5.621153
 50
146.885686
 51
207.163097
210
0.0
220
0.0
230
1.0
  0
ARC
  8
1
  6
CONTINUOUS
 62
     4
  5
3C6
 10
400.479787
 20
376.271953
 30
0.0
 40
5.621153
 50
140.836903
 51
201.114314
210
0.0
220
0.0
230
1.0
  0
ARC
  8
1
  6
CONTINUOUS
 62
     4
  5
3C7
 10
394.279702
 20
373.613132
 30
0.0
 40
1.147339
 50
266.386856
 51
33.539189
210
0.0
220
0.0
230
1.0
  0
INSERT
  8
1
  6
CONTINUOUS
 62
     1
  5
3C8
  2
LDR
 10
361.341667
 20
347.673917
 30
0.0
 41
240.0
 42
240.0
 50
90.0
210
0.0
220
0.0
230
1.0
  0
INSERT
  8
1
  6
CONTINUOUS
 62
     1
  5
3C9
  2
LDR
 10
361.341667
 20
347.673917
 30
0.0
 41
240.0
 42
240.0
 50
90.0
210
0.0
220
0.0
230
1.0
  0
INSERT
  8
1
  6
CONTINUOUS
 62
     1
  5
3CA
  2
LDR
 10
361.341667
 20
332.673917
 30
0.0
 41
240.0
 42
240.0
 50
270.0
210
0.0
220
0.0
230
1.0
  0
INSERT
  8
1
  6
CONTINUOUS
 62
     1
  5
3CB
  2
LDR
 10
361.341667
 20
332.673917
 30
0.0
 41
240.0
 42
240.0
 50
270.0
210
0.0
220
0.0
230
1.0
  0
LINE
  8
1
  6
CONTINUOUS
 62
     4
  5
3CC
 10
351.091667
 20
402.173917
 30
0.0
 11
357.701083
 21
408.5995
 31
0.0
  0
LINE
  8
1
  6
CONTINUOUS
 62
     4
  5
3CD
 10
357.701083
 20
408.5995
 30
0.0
 11
361.591333
 21
408.617083
 31
0.0
  0
INSERT
  8
1
  6
CONTINUOUS
 62
     1
  5
3CE
  2
LDR
 10
351.091667
 20
402.173917
 30
0.0
 41
239.999998
 42
239.999998
 50
224.192008
210
0.0
220
0.0
230
1.0
  0
LINE
  8
1
  6
CONTINUOUS
 62
     4
  5
3CF
 10
376.292083
 20
388.418333
 30
0.0
 11
387.003333
 21
395.805
 31
0.0
  0
LINE
  8
1
  6
CONTINUOUS
 62
     4
  5
3D0
 10
387.003333
 20
395.805
 30
0.0
 11
393.040167
 21
395.805
 31
0.0
  0
INSERT
  8
1
  6
CONTINUOUS
 62
     1
  5
3D1
  2
LDR
 10
376.292083
 20
388.418333
 30
0.0
 41
240.000001
 42
240.000001
 50
214.59083
210
0.0
220
0.0
230
1.0
  0
INSERT
  8
1
  6
CONTINUOUS
 62
     1
  5
3D2
  2
LDR
 10
376.292083
 20
388.418333
 30
0.0
 41
240.000001
 42
240.000001
 50
214.59083
210
0.0
220
0.0
230
1.0
  0
LINE
  8
1
  6
CONTINUOUS
 62
     4
  5
3D3
 10
380.640167
 20
373.037
 30
0.0
 11
383.33225
 21
362.346667
 31
0.0
  0
LINE
  8
1
  6
CONTINUOUS
 62
     4
  5
3D4
 10
383.33225
 20
362.346667
 30
0.0
 11
389.04275
 21
362.346667
 31
0.0
  0
INSERT
  8
1
  6
CONTINUOUS
 62
     1
  5
3D5
  2
LDR
 10
380.640167
 20
373.037
 30
0.0
 41
239.999998
 42
239.999998
 50
104.134565
210
0.0
220
0.0
230
1.0
  0
INSERT
  8
1
  6
CONTINUOUS
 62
     1
  5
3D6
  2
LDR
 10
380.640167
 20
373.037
 30
0.0
 41
239.999998
 42
239.999998
 50
104.134565
210
0.0
220
0.0
230
1.0
  0
LINE
  8
1
  6
CONTINUOUS
 62
     4
  5
3D7
 10
343.195333
 20
347.673917
 30
0.0
 11
343.195333
 21
374.173917
 31
0.0
  0
INSERT
  8
1
  6
CONTINUOUS
 62
     1
  5
3D8
  2
LDR
 10
343.195333
 20
374.173917
 30
0.0
 41
240.0
 42
240.0
 50
90.0
210
0.0
220
0.0
230
1.0
  0
INSERT
  8
1
  6
CONTINUOUS
 62
     1
  5
3D9
  2
LDR
 10
343.195333
 20
374.173917
 30
0.0
 41
240.0
 42
240.0
 50
90.0
210
0.0
220
0.0
230
1.0
  0
INSERT
  8
1
  6
CONTINUOUS
 62
     1
  5
3DA
  2
LDR
 10
343.195333
 20
347.673917
 30
0.0
 41
240.0
 42
240.0
 50
270.0
210
0.0
220
0.0
230
1.0
  0
LINE
  8
1
  6
CONTINUOUS
 62
     4
  5
3DB
 10
351.438417
 20
347.883
 30
0.0
 11
331.605083
 21
335.534333
 31
0.0
  0
LINE
  8
1
  6
CONTINUOUS
 62
     4
  5
3DC
 10
331.605083
 20
335.534333
 30
0.0
 11
326.105583
 21
335.534333
 31
0.0
  0
INSERT
  8
1
  6
CONTINUOUS
 62
     1
  5
3DD
  2
LDR
 10
351.438417
 20
347.883
 30
0.0
 41
239.999999
 42
239.999999
 50
31.907295
210
0.0
220
0.0
230
1.0
  0
LINE
  8
1
  6
CONTINUOUS
 62
     4
  5
3DE
 10
343.195333
 20
360.923917
 30
0.0
 11
322.946417
 21
360.923917
 31
0.0
  0
LINE
  8
1
  6
CONTINUOUS
 62
     4
  5
3DF
 10
361.325917
 20
340.450333
 30
0.0
 11
377.239333
 21
346.771
 31
0.0
  0
LINE
  8
1
  6
CONTINUOUS
 62
     4
  5
3E0
 10
377.239333
 20
346.771
 30
0.0
 11
383.557917
 21
346.771
 31
0.0
  0
TEXT
  8
1
  6
CONTINUOUS
 62
     7
  5
3E1
 10
393.852083
 20
394.511583
 30
0.0
 40
2.5
  1
0
  7
MONOTXT
210
0.0
220
0.0
230
1.0
  0
TEXT
  8
1
  6
CONTINUOUS
 62
     7
  5
3E2
 10
384.42475
 20
345.448083
 30
0.0
 40
2.5
  1
2 FT. MIN. DRIP LOOP
  7
MONOTXT
210
0.0
220
0.0
230
1.0
  0
TEXT
  8
1
  6
CONTINUOUS
 62
     7
  5
3E3
 10
298.687083
 20
334.106167
 30
0.0
 40
2.5
  1
WEATHERHEAD
  7
MONOTXT
210
0.0
220
0.0
230
1.0
  0
TEXT
  8
1
  6
CONTINUOUS
 62
     7
  5
3E4
 10
306.585667
 20
359.338833
 30
0.0
 40
2.5
  1
24" MIN.
  7
MONOTXT
210
0.0
220
0.0
230
1.0
  0
TEXT
  8
1
  6
CONTINUOUS
 62
     7
  5
3E5
 10
373.0865
 20
327.145833
 30
0.0
 40
2.5
  1
PROVIDE 4 FT. MIN. LENGTH OF CABLE
  7
MONOTXT
 11
373.0865
 21
329.645833
 31
0.0
210
0.0
220
0.0
230
1.0
 73
     3
  0
TEXT
  8
1
  6
CONTINUOUS
 62
     7
  5
3E6
 10
373.0865
 20
322.645833
 30
0.0
 40
2.5
  1
BEYOND WEATHERHEAD.
  7
MONOTXT
 11
373.0865
 21
325.145833
 31
0.0
210
0.0
220
0.0
230
1.0
 73
     3
  0
TEXT
  8
1
  6
CONTINUOUS
 62
     7
  5
3E7
 10
281.106333
 20
407.0005
 30
0.0
 40
3.5
  1
2-WIRE SERVICE
  7
MONOTXT
210
0.0
220
0.0
230
1.0
  0
LINE
  8
1
  6
CONTINUOUS
 62
     7
  5
3E8
 10
279.5535
 20
405.318
 30
0.0
 11
325.098417
 21
405.318
 31
0.0
  0
TEXT
  8
1
  6
CONTINUOUS
 62
     7
  5
3E9
 10
393.945583
 20
394.496417
 30
0.0
 40
2.5
  1
/
  7
MONOTXT
210
0.0
220
0.0
230
1.0
  0
LINE
  8
1
  6
CONTINUOUS
 62
     4
  5
3EA
 10
348.341667
 20
369.923917
 30
0.0
 11
349.341667
 21
369.923917
 31
0.0
  0
LINE
  8
1
  6
CONTINUOUS
 62
     4
  5
3EB
 10
348.341667
 20
394.423917
 30
0.0
 11
349.341667
 21
394.423917
 31
0.0
  0
LINE
  8
1
  6
CONTINUOUS
 62
     4
  5
3EC
 10
348.341667
 20
394.423917
 30
0.0
 11
348.341667
 21
393.423917
 31
0.0
  0
LINE
  8
1
  6
CONTINUOUS
 62
     4
  5
3ED
 10
348.341667
 20
386.423917
 30
0.0
 11
348.341667
 21
378.923917
 31
0.0
  0
LINE
  8
1
  6
CONTINUOUS
 62
     4
  5
3EE
 10
348.341667
 20
370.923917
 30
0.0
 11
348.341667
 21
369.923917
 31
0.0
  0
LINE
  8
1
  6
CONTINUOUS
 62
     4
  5
3EF
 10
349.341667
 20
394.423917
 30
0.0
 11
349.341667
 21
393.423917
 31
0.0
  0
LINE
  8
1
  6
CONTINUOUS
 62
     4
  5
3F0
 10
349.341667
 20
386.423917
 30
0.0
 11
349.341667
 21
378.923917
 31
0.0
  0
LINE
  8
1
  6
CONTINUOUS
 62
     4
  5
3F1
 10
349.341667
 20
370.923917
 30
0.0
 11
349.341667
 21
369.923917
 31
0.0
  0
TEXT
  8
1
  6
CONTINUOUS
 62
     7
  5
3F2
 10
363.004917
 20
407.67075
 30
0.0
 40
2.5
  1
1 - POLE, SECONDARY LIGHTNING ARRESTER
  7
MONOTXT
210
0.0
220
0.0
230
1.0
  0
TEXT
  8
1
  6
CONTINUOUS
 62
     7
  5
3F3
 10
363.004917
 20
403.17075
 30
0.0
 40
2.5
  1
(2 - POLE IF BOTH WIRES ARE HOT)
  7
MONOTXT
210
0.0
220
0.0
230
1.0
  0
TEXT
  8
1
  6
CONTINUOUS
 62
     7
  5
3F4
 10
398.947917
 20
382.45375
 30
0.0
 40
2.5
  1
MAY BE SHOWN ON
  7
MONOTXT
 11
398.947917
 21
384.95375
 31
0.0
210
0.0
220
0.0
230
1.0
 73
     3
  0
TEXT
  8
1
  6
CONTINUOUS
 62
     7
  5
3F5
 10
398.947917
 20
377.95375
 30
0.0
 40
2.5
  1
SINGLE SUPPORT IF
  7
MONOTXT
 11
398.947917
 21
380.45375
 31
0.0
210
0.0
220
0.0
230
1.0
 73
     3
  0
TEXT
  8
1
  6
CONTINUOUS
 62
     7
  5
3F6
 10
398.947917
 20
373.45375
 30
0.0
 40
2.5
  1
DUPLEX IS USED
  7
MONOTXT
 11
398.947917
 21
375.95375
 31
0.0
210
0.0
220
0.0
230
1.0
 73
     3
  0
TEXT
  8
1
  6
CONTINUOUS
 62
     7
  5
3F7
 10
390.212667
 20
361.100917
 30
0.0
 40
2.5
  1
NEUTRAL OR PHASE WIRE IF SERVICE
  7
MONOTXT
210
0.0
220
0.0
230
1.0
  0
TEXT
  8
1
  6
CONTINUOUS
 62
     7
  5
3F8
 10
390.212667
 20
356.600917
 30
0.0
 40
2.5
  1
IS A DELTA-CONNECTED SECONDARY
  7
MONOTXT
210
0.0
220
0.0
230
1.0
  0
TEXT
  8
1
  6
CONTINUOUS
 62
     7
  5
3F9
 10
219.2605
 20
304.788083
 30
0.0
 40
3.5
  1
TYPICAL SERVICE POLE HEADS
  7
MONOTXT
210
0.0
220
0.0
230
1.0
  0
LINE
  8
1
  6
CONTINUOUS
 62
     7
  5
3FA
 10
216.93375
 20
302.072667
 30
0.0
 11
306.518667
 21
302.072667
 31
0.0
  0
LINE
  8
1
  6
CONTINUOUS
 62
    30
  5
3FB
 10
139.655
 20
267.0065
 30
0.0
 11
139.655
 21
39.0065
 31
0.0
  0
LINE
  8
1
  6
CONTINUOUS
 62
    30
  5
3FC
 10
151.655
 20
273.0065
 30
0.0
 11
151.655
 21
39.0065
 31
0.0
  0
LINE
  8
1
  6
CONTINUOUS
 62
    30
  5
3FD
 10
139.655
 20
39.0065
 30
0.0
 11
151.655
 21
39.0065
 31
0.0
  0
LINE
  8
1
  6
CONTINUOUS
 62
    30
  5
3FE
 10
139.655
 20
267.0065
 30
0.0
 11
151.655
 21
273.0065
 31
0.0
  0
CIRCLE
  8
1
  6
CONTINUOUS
 62
    30
  5
3FF
 10
145.688583
 20
264.645167
 30
0.0
 40
14.0
210
0.0
220
0.0
230
1.0
  0
LINE
  8
1
  6
CONTINUOUS
 62
    30
  5
400
 10
153.655
 20
176.5065
 30
0.0
 11
151.655
 21
176.5065
 31
0.0
  0
LINE
  8
1
  6
CONTINUOUS
 62
    30
  5
401
 10
153.655
 20
175.0065
 30
0.0
 11
151.655
 21
175.0065
 31
0.0
  0
LINE
  8
1
  6
CONTINUOUS
 62
    30
  5
402
 10
153.655
 20
135.5065
 30
0.0
 11
151.655
 21
135.5065
 31
0.0
  0
LINE
  8
1
  6
CONTINUOUS
 62
    30
  5
403
 10
153.655
 20
134.0065
 30
0.0
 11
151.655
 21
134.0065
 31
0.0
  0
LINE
  8
1
  6
CONTINUOUS
 62
    30
  5
404
 10
153.655
 20
93.0065
 30
0.0
 11
151.655
 21
93.0065
 31
0.0
  0
LINE
  8
1
  6
CONTINUOUS
 62
    30
  5
405
 10
153.655
 20
91.5065
 30
0.0
 11
151.655
 21
91.5065
 31
0.0
  0
LINE
  8
1
  6
CONTINUOUS
 62
    30
  5
406
 10
153.655
 20
253.0065
 30
0.0
 11
153.655
 21
176.5065
 31
0.0
  0
LINE
  8
1
  6
CONTINUOUS
 62
    30
  5
407
 10
153.655
 20
175.0065
 30
0.0
 11
153.655
 21
135.5065
 31
0.0
  0
ARC
  8
1
  6
CONTINUOUS
 62
    30
  5
408
 10
153.360224
 20
175.7565
 30
0.0
 40
0.805849
 50
291.456517
 51
68.543481
210
0.0
220
0.0
230
1.0
  0
ARC
  8
1
  6
CONTINUOUS
 62
    30
  5
409
 10
153.360224
 20
134.7565
 30
0.0
 40
0.805849
 50
291.456517
 51
68.543481
210
0.0
220
0.0
230
1.0
  0
ARC
  8
1
  6
CONTINUOUS
 62
    30
  5
40A
 10
153.360224
 20
92.2565
 30
0.0
 40
0.805849
 50
291.456517
 51
68.543481
210
0.0
220
0.0
230
1.0
  0
LINE
  8
1
  6
CONTINUOUS
 62
    30
  5
40B
 10
153.655
 20
127.0065
 30
0.0
 11
151.655
 21
127.0065
 31
0.0
  0
LINE
  8
1
  6
CONTINUOUS
 62
    30
  5
40C
 10
153.905
 20
126.7565
 30
0.0
 11
151.655
 21
126.7565
 31
0.0
  0
LINE
  8
1
  6
CONTINUOUS
 62
    30
  5
40D
 10
157.905
 20
126.2565
 30
0.0
 11
151.655
 21
126.2565
 31
0.0
  0
LINE
  8
1
  6
CONTINUOUS
 62
    30
  5
40E
 10
157.905
 20
109.7565
 30
0.0
 11
151.655
 21
109.7565
 31
0.0
  0
LINE
  8
1
  6
CONTINUOUS
 62
    30
  5
40F
 10
153.905
 20
109.2565
 30
0.0
 11
151.655
 21
109.2565
 31
0.0
  0
LINE
  8
1
  6
CONTINUOUS
 62
    30
  5
410
 10
153.655
 20
109.0065
 30
0.0
 11
151.655
 21
109.0065
 31
0.0
  0
LINE
  8
1
  6
CONTINUOUS
 62
    30
  5
411
 10
157.905
 20
126.2565
 30
0.0
 11
157.905
 21
109.7565
 31
0.0
  0
LINE
  8
1
  6
CONTINUOUS
 62
    30
  5
412
 10
153.905
 20
126.7565
 30
0.0
 11
153.905
 21
126.2565
 31
0.0
  0
LINE
  8
1
  6
CONTINUOUS
 62
    30
  5
413
 10
153.905
 20
109.2565
 30
0.0
 11
153.905
 21
109.7565
 31
0.0
  0
LINE
  8
1
  6
CONTINUOUS
 62
    30
  5
414
 10
160.155
 20
123.7565
 30
0.0
 11
157.905
 21
123.7565
 31
0.0
  0
LINE
  8
1
  6
CONTINUOUS
 62
    30
  5
415
 10
160.155
 20
117.7565
 30
0.0
 11
157.905
 21
117.7565
 31
0.0
  0
LINE
  8
1
  6
CONTINUOUS
 62
    30
  5
416
 10
160.155
 20
123.7565
 30
0.0
 11
160.155
 21
117.7565
 31
0.0
  0
LINE
  8
1
  6
CONTINUOUS
 62
    30
  5
417
 10
153.655
 20
134.0065
 30
0.0
 11
153.655
 21
126.7565
 31
0.0
  0
LINE
  8
1
  6
CONTINUOUS
 62
    30
  5
418
 10
153.655
 20
109.2565
 30
0.0
 11
153.655
 21
93.0065
 31
0.0
  0
LINE
  8
1
  6
HIDDEN
 62
    30
  5
419
 10
139.655
 20
71.5065
 30
0.0
 11
151.655
 21
71.5065
 31
0.0
  0
LINE
  8
PATTERN_CLASS
  6
CONTINUOUS
 62
    30
  5
41A
 10
154.251333
 20
64.596417
 30
0.0
 11
215.251333
 21
64.596417
 31
0.0
  0
LINE
  8
1
  6
CONTINUOUS
 62
    30
  5
41B
 10
153.655
 20
91.5065
 30
0.0
 11
153.655
 21
71.5065
 31
0.0
  0
LINE
  8
1
  6
HIDDEN
 62
    30
  5
41C
 10
153.655
 20
71.5065
 30
0.0
 11
153.655
 21
61.5065
 31
0.0
  0
LINE
  8
1
  6
HIDDEN
 62
    30
  5
41D
 10
160.655
 20
54.5065
 30
0.0
 11
189.674667
 21
54.5065
 31
0.0
  0
LINE
  8
1
  6
HIDDEN
 62
    30
  5
41E
 10
160.655
 20
52.5065
 30
0.0
 11
191.68175
 21
52.5065
 31
0.0
  0
ARC
  8
1
  6
HIDDEN
 62
    30
  5
41F
 10
160.655
 20
61.5065
 30
0.0
 40
7.0
 50
180.0
 51
270.0
210
0.0
220
0.0
230
1.0
  0
ARC
  8
1
  6
HIDDEN
 62
    30
  5
420
 10
160.655
 20
61.5065
 30
0.0
 40
9.0
 50
180.0
 51
270.0
210
0.0
220
0.0
230
1.0
  0
ARC
  8
1
  6
CONTINUOUS
 62
    30
  5
421
 10
191.92994
 20
56.28784
 30
0.0
 40
2.873935
 50
107.801519
 51
240.198478
210
0.0
220
0.0
230
1.0
  0
ARC
  8
1
  6
CONTINUOUS
 62
    30
  5
422
 10
189.073266
 20
51.300113
 30
0.0
 40
2.873935
 50
287.801519
 51
60.198478
210
0.0
220
0.0
230
1.0
  0
ARC
  8
1
  6
CONTINUOUS
 62
    30
  5
423
 10
144.3256
 20
201.011196
 30
0.0
 40
2.873935
 50
287.801519
 51
60.198478
210
0.0
220
0.0
230
1.0
  0
ARC
  8
1
  6
CONTINUOUS
 62
    30
  5
424
 10
147.182274
 20
205.998923
 30
0.0
 40
2.873935
 50
107.801519
 51
240.198478
210
0.0
220
0.0
230
1.0
  0
LINE
  8
1
  6
CONTINUOUS
 62
     7
  5
425
 10
154.50525
 20
71.463333
 30
0.0
 11
156.8805
 21
69.088083
 31
0.0
  0
LINE
  8
1
  6
CONTINUOUS
 62
     7
  5
426
 10
153.987
 20
70.426833
 30
0.0
 11
155.995167
 21
68.440333
 31
0.0
  0
LINE
  8
1
  6
CONTINUOUS
 62
     7
  5
427
 10
159.234083
 20
71.463333
 30
0.0
 11
156.8805
 21
69.088083
 31
0.0
  0
LINE
  8
1
  6
CONTINUOUS
 62
     7
  5
428
 10
157.701
 20
71.463333
 30
0.0
 11
156.211083
 21
69.973417
 31
0.0
  0
LINE
  8
1
  6
CONTINUOUS
 62
     7
  5
429
 10
156.146333
 20
71.463333
 30
0.0
 11
155.54175
 21
70.837083
 31
0.0
  0
LINE
  8
1
  6
CONTINUOUS
 62
     7
  5
42A
 10
159.234083
 20
71.463333
 30
0.0
 11
161.544583
 21
69.152833
 31
0.0
  0
LINE
  8
1
  6
CONTINUOUS
 62
     7
  5
42B
 10
158.672667
 20
70.491667
 30
0.0
 11
160.65925
 21
68.505083
 31
0.0
  0
LINE
  8
1
  6
CONTINUOUS
 62
     7
  5
42C
 10
158.176083
 20
69.455167
 30
0.0
 11
159.558
 21
68.07325
 31
0.0
  0
LINE
  8
1
  6
CONTINUOUS
 62
     7
  5
42D
 10
157.614667
 20
68.461917
 30
0.0
 11
158.543167
 21
67.533417
 31
0.0
  0
LINE
  8
1
  6
CONTINUOUS
 62
     7
  5
42E
 10
163.855
 20
71.463333
 30
0.0
 11
161.544583
 21
69.152833
 31
0.0
  0
LINE
  8
1
  6
CONTINUOUS
 62
     7
  5
42F
 10
162.321917
 20
71.463333
 30
0.0
 11
160.89675
 21
70.038167
 31
0.0
  0
LINE
  8
1
  6
CONTINUOUS
 62
     7
  5
430
 10
160.76725
 20
71.463333
 30
0.0
 11
160.205833
 21
70.901917
 31
0.0
  0
LINE
  8
1
  6
CONTINUOUS
 62
     7
  5
431
 10
165.280167
 20
71.463333
 30
0.0
 11
163.855
 21
70.038167
 31
0.0
  0
LINE
  8
1
  6
CONTINUOUS
 62
     7
  5
432
 10
166.81325
 20
71.463333
 30
0.0
 11
163.984583
 21
68.634667
 31
0.0
  0
LINE
  8
1
  6
CONTINUOUS
 62
     7
  5
433
 10
166.70525
 20
71.463333
 30
0.0
 11
169.0805
 21
69.088083
 31
0.0
  0
LINE
  8
1
  6
CONTINUOUS
 62
     7
  5
434
 10
166.187
 20
70.426833
 30
0.0
 11
168.195167
 21
68.440333
 31
0.0
  0
LINE
  8
1
  6
CONTINUOUS
 62
     7
  5
435
 10
165.690417
 20
69.390417
 30
0.0
 11
167.072333
 21
68.008417
 31
0.0
  0
LINE
  8
1
  6
CONTINUOUS
 62
     7
  5
436
 10
165.150583
 20
68.397083
 30
0.0
 11
166.079083
 21
67.49025
 31
0.0
  0
LINE
  8
1
  6
CONTINUOUS
 62
     7
  5
437
 10
171.434083
 20
71.463333
 30
0.0
 11
169.0805
 21
69.088083
 31
0.0
  0
LINE
  8
1
  6
CONTINUOUS
 62
     7
  5
438
 10
169.901
 20
71.463333
 30
0.0
 11
168.411083
 21
69.973417
 31
0.0
  0
LINE
  8
1
  6
CONTINUOUS
 62
     7
  5
439
 10
168.346333
 20
71.463333
 30
0.0
 11
167.74175
 21
70.837083
 31
0.0
  0
LINE
  8
1
  6
CONTINUOUS
 62
     7
  5
43A
 10
170.376083
 20
69.455167
 30
0.0
 11
171.758
 21
68.07325
 31
0.0
  0
LINE
  8
1
  6
CONTINUOUS
 62
     7
  5
43B
 10
169.814667
 20
68.461917
 30
0.0
 11
170.743167
 21
67.533417
 31
0.0
  0
LINE
  8
1
  6
CONTINUOUS
 62
     7
  5
43C
 10
177.480167
 20
71.463333
 30
0.0
 11
176.055
 21
70.038167
 31
0.0
  0
LINE
  8
1
  6
CONTINUOUS
 62
     7
  5
43D
 10
179.01325
 20
71.463333
 30
0.0
 11
176.184583
 21
68.634667
 31
0.0
  0
LINE
  8
1
  6
CONTINUOUS
 62
     7
  5
43E
 10
178.90525
 20
71.463333
 30
0.0
 11
181.2805
 21
69.088083
 31
0.0
  0
LINE
  8
1
  6
CONTINUOUS
 62
     7
  5
43F
 10
178.387
 20
70.426833
 30
0.0
 11
180.395167
 21
68.440333
 31
0.0
  0
LINE
  8
1
  6
CONTINUOUS
 62
     7
  5
440
 10
177.890417
 20
69.390417
 30
0.0
 11
179.272333
 21
68.008417
 31
0.0
  0
LINE
  8
1
  6
CONTINUOUS
 62
     7
  5
441
 10
177.350583
 20
68.397083
 30
0.0
 11
178.279083
 21
67.49025
 31
0.0
  0
LINE
  8
1
  6
CONTINUOUS
 62
     7
  5
442
 10
183.634083
 20
71.463333
 30
0.0
 11
181.2805
 21
69.088083
 31
0.0
  0
LINE
  8
1
  6
CONTINUOUS
 62
     7
  5
443
 10
182.101
 20
71.463333
 30
0.0
 11
180.611083
 21
69.973417
 31
0.0
  0
LINE
  8
1
  6
CONTINUOUS
 62
     7
  5
444
 10
180.546333
 20
71.463333
 30
0.0
 11
179.94175
 21
70.837083
 31
0.0
  0
LINE
  8
1
  6
CONTINUOUS
 62
     7
  5
445
 10
183.634083
 20
71.463333
 30
0.0
 11
185.944583
 21
69.152833
 31
0.0
  0
LINE
  8
1
  6
CONTINUOUS
 62
     7
  5
446
 10
183.072667
 20
70.491667
 30
0.0
 11
185.05925
 21
68.505083
 31
0.0
  0
LINE
  8
1
  6
CONTINUOUS
 62
     7
  5
447
 10
182.576083
 20
69.455167
 30
0.0
 11
183.958
 21
68.07325
 31
0.0
  0
LINE
  8
1
  6
CONTINUOUS
 62
     7
  5
448
 10
182.014667
 20
68.461917
 30
0.0
 11
182.943167
 21
67.533417
 31
0.0
  0
LINE
  8
1
  6
CONTINUOUS
 62
     7
  5
449
 10
188.255
 20
71.463333
 30
0.0
 11
185.944583
 21
69.152833
 31
0.0
  0
LINE
  8
1
  6
CONTINUOUS
 62
     7
  5
44A
 10
186.721917
 20
71.463333
 30
0.0
 11
185.29675
 21
70.038167
 31
0.0
  0
LINE
  8
1
  6
CONTINUOUS
 62
     7
  5
44B
 10
185.16725
 20
71.463333
 30
0.0
 11
184.605833
 21
70.901917
 31
0.0
  0
LINE
  8
1
  6
CONTINUOUS
 62
     7
  5
44C
 10
189.680167
 20
71.463333
 30
0.0
 11
188.255
 21
70.038167
 31
0.0
  0
LINE
  8
1
  6
CONTINUOUS
 62
     7
  5
44D
 10
191.21325
 20
71.463333
 30
0.0
 11
188.384583
 21
68.634667
 31
0.0
  0
LINE
  8
1
  6
CONTINUOUS
 62
     7
  5
44E
 10
191.10525
 20
71.463333
 30
0.0
 11
193.4805
 21
69.088083
 31
0.0
  0
LINE
  8
1
  6
CONTINUOUS
 62
     7
  5
44F
 10
190.587
 20
70.426833
 30
0.0
 11
192.595167
 21
68.440333
 31
0.0
  0
LINE
  8
1
  6
CONTINUOUS
 62
     7
  5
450
 10
190.090417
 20
69.390417
 30
0.0
 11
191.472333
 21
68.008417
 31
0.0
  0
LINE
  8
1
  6
CONTINUOUS
 62
     7
  5
451
 10
189.550583
 20
68.397083
 30
0.0
 11
190.479083
 21
67.49025
 31
0.0
  0
LINE
  8
1
  6
CONTINUOUS
 62
     7
  5
452
 10
195.834083
 20
71.463333
 30
0.0
 11
193.4805
 21
69.088083
 31
0.0
  0
LINE
  8
1
  6
CONTINUOUS
 62
     7
  5
453
 10
194.301
 20
71.463333
 30
0.0
 11
192.811083
 21
69.973417
 31
0.0
  0
LINE
  8
1
  6
CONTINUOUS
 62
     7
  5
454
 10
192.746333
 20
71.463333
 30
0.0
 11
192.14175
 21
70.837083
 31
0.0
  0
LINE
  8
1
  6
CONTINUOUS
 62
     7
  5
455
 10
195.834083
 20
71.463333
 30
0.0
 11
198.144583
 21
69.152833
 31
0.0
  0
LINE
  8
1
  6
CONTINUOUS
 62
     7
  5
456
 10
195.272667
 20
70.491667
 30
0.0
 11
197.25925
 21
68.505083
 31
0.0
  0
LINE
  8
1
  6
CONTINUOUS
 62
     7
  5
457
 10
194.776083
 20
69.455167
 30
0.0
 11
196.158
 21
68.07325
 31
0.0
  0
LINE
  8
1
  6
CONTINUOUS
 62
     7
  5
458
 10
194.214667
 20
68.461917
 30
0.0
 11
195.143167
 21
67.533417
 31
0.0
  0
LINE
  8
1
  6
CONTINUOUS
 62
     7
  5
459
 10
200.455
 20
71.463333
 30
0.0
 11
198.144583
 21
69.152833
 31
0.0
  0
LINE
  8
1
  6
CONTINUOUS
 62
     7
  5
45A
 10
198.921917
 20
71.463333
 30
0.0
 11
197.49675
 21
70.038167
 31
0.0
  0
LINE
  8
1
  6
CONTINUOUS
 62
     7
  5
45B
 10
197.36725
 20
71.463333
 30
0.0
 11
196.805833
 21
70.901917
 31
0.0
  0
LINE
  8
1
  6
CONTINUOUS
 62
     7
  5
45C
 10
201.880167
 20
71.463333
 30
0.0
 11
200.455
 21
70.038167
 31
0.0
  0
LINE
  8
1
  6
CONTINUOUS
 62
     7
  5
45D
 10
203.41325
 20
71.463333
 30
0.0
 11
200.584583
 21
68.634667
 31
0.0
  0
LINE
  8
1
  6
CONTINUOUS
 62
     7
  5
45E
 10
203.30525
 20
71.463333
 30
0.0
 11
205.6805
 21
69.088083
 31
0.0
  0
LINE
  8
1
  6
CONTINUOUS
 62
     7
  5
45F
 10
202.787
 20
70.426833
 30
0.0
 11
204.795167
 21
68.440333
 31
0.0
  0
LINE
  8
1
  6
CONTINUOUS
 62
     7
  5
460
 10
202.290417
 20
69.390417
 30
0.0
 11
203.672333
 21
68.008417
 31
0.0
  0
LINE
  8
1
  6
CONTINUOUS
 62
     7
  5
461
 10
201.750583
 20
68.397083
 30
0.0
 11
202.679083
 21
67.49025
 31
0.0
  0
LINE
  8
1
  6
CONTINUOUS
 62
     7
  5
462
 10
208.034083
 20
71.463333
 30
0.0
 11
205.6805
 21
69.088083
 31
0.0
  0
LINE
  8
1
  6
CONTINUOUS
 62
     7
  5
463
 10
206.501
 20
71.463333
 30
0.0
 11
205.011083
 21
69.973417
 31
0.0
  0
LINE
  8
1
  6
CONTINUOUS
 62
     7
  5
464
 10
204.946333
 20
71.463333
 30
0.0
 11
204.34175
 21
70.837083
 31
0.0
  0
LINE
  8
1
  6
CONTINUOUS
 62
     7
  5
465
 10
208.034083
 20
71.463333
 30
0.0
 11
210.344583
 21
69.152833
 31
0.0
  0
LINE
  8
1
  6
CONTINUOUS
 62
     7
  5
466
 10
207.472667
 20
70.491667
 30
0.0
 11
209.45925
 21
68.505083
 31
0.0
  0
LINE
  8
1
  6
CONTINUOUS
 62
     7
  5
467
 10
206.976083
 20
69.455167
 30
0.0
 11
208.358
 21
68.07325
 31
0.0
  0
LINE
  8
1
  6
CONTINUOUS
 62
     7
  5
468
 10
206.414667
 20
68.461917
 30
0.0
 11
207.343167
 21
67.533417
 31
0.0
  0
LINE
  8
1
  6
CONTINUOUS
 62
     7
  5
469
 10
212.655
 20
71.463333
 30
0.0
 11
210.344583
 21
69.152833
 31
0.0
  0
LINE
  8
1
  6
CONTINUOUS
 62
     7
  5
46A
 10
211.121917
 20
71.463333
 30
0.0
 11
209.69675
 21
70.038167
 31
0.0
  0
LINE
  8
1
  6
CONTINUOUS
 62
     7
  5
46B
 10
209.56725
 20
71.463333
 30
0.0
 11
209.005833
 21
70.901917
 31
0.0
  0
LINE
  8
1
  6
CONTINUOUS
 62
    30
  5
46C
 10
151.655
 20
71.5065
 30
0.0
 11
212.655
 21
71.5065
 31
0.0
  0
LINE
  8
PATTERN_CLASS
  6
CONTINUOUS
 62
    30
  5
46D
 10
149.975833
 20
75.757667
 30
0.0
 11
88.975833
 21
75.757667
 31
0.0
  0
LINE
  8
1
  6
CONTINUOUS
 62
    30
  5
46E
 10
173.655
 20
71.5065
 30
0.0
 11
173.655
 21
54.5065
 31
0.0
  0
INSERT
  8
1
  6
CONTINUOUS
 62
     1
  5
46F
  2
LDR
 10
173.655
 20
71.5065
 30
0.0
 41
240.0
 42
240.0
 50
90.0
210
0.0
220
0.0
230
1.0
  0
INSERT
  8
1
  6
CONTINUOUS
 62
     1
  5
470
  2
LDR
 10
173.655
 20
54.5065
 30
0.0
 41
240.0
 42
240.0
 50
270.0
210
0.0
220
0.0
230
1.0
  0
LINE
  8
1
  6
CONTINUOUS
 62
    30
  5
471
 10
155.166083
 20
175.7565
 30
0.0
 11
169.655
 21
175.7565
 31
0.0
  0
LINE
  8
1
  6
CONTINUOUS
 62
    30
  5
472
 10
155.166083
 20
134.7565
 30
0.0
 11
169.655
 21
134.7565
 31
0.0
  0
LINE
  8
1
  6
CONTINUOUS
 62
    30
  5
473
 10
168.655
 20
175.7565
 30
0.0
 11
168.655
 21
134.7565
 31
0.0
  0
INSERT
  8
1
  6
CONTINUOUS
 62
     1
  5
474
  2
LDR
 10
168.655
 20
175.7565
 30
0.0
 41
240.0
 42
240.0
 50
90.0
210
0.0
220
0.0
230
1.0
  0
INSERT
  8
1
  6
CONTINUOUS
 62
     1
  5
475
  2
LDR
 10
168.655
 20
175.7565
 30
0.0
 41
240.0
 42
240.0
 50
90.0
210
0.0
220
0.0
230
1.0
  0
INSERT
  8
1
  6
CONTINUOUS
 62
     1
  5
476
  2
LDR
 10
168.655
 20
134.7565
 30
0.0
 41
240.0
 42
240.0
 50
270.0
210
0.0
220
0.0
230
1.0
  0
INSERT
  8
1
  6
CONTINUOUS
 62
     1
  5
477
  2
LDR
 10
168.655
 20
134.7565
 30
0.0
 41
240.0
 42
240.0
 50
270.0
210
0.0
220
0.0
230
1.0
  0
LINE
  8
1
  6
CONTINUOUS
 62
    30
  5
478
 10
153.655
 20
230.571917
 30
0.0
 11
171.491833
 21
244.46575
 31
0.0
  0
LINE
  8
1
  6
CONTINUOUS
 62
    30
  5
479
 10
171.491833
 20
244.46575
 30
0.0
 11
177.636917
 21
244.46575
 31
0.0
  0
LINE
  8
1
  6
CONTINUOUS
 62
    30
  5
47A
 10
145.753917
 20
203.505083
 30
0.0
 11
167.996167
 21
212.411833
 31
0.0
  0
LINE
  8
1
  6
CONTINUOUS
 62
    30
  5
47B
 10
167.996167
 20
212.411833
 30
0.0
 11
174.012167
 21
212.411833
 31
0.0
  0
LINE
  8
1
  6
CONTINUOUS
 62
    30
  5
47C
 10
154.13975
 20
175.96075
 30
0.0
 11
164.901667
 21
189.671417
 31
0.0
  0
LINE
  8
1
  6
CONTINUOUS
 62
    30
  5
47D
 10
164.901667
 20
189.671417
 30
0.0
 11
168.818583
 21
189.671417
 31
0.0
  0
LINE
  8
1
  6
CONTINUOUS
 62
    30
  5
47E
 10
157.905
 20
112.288833
 30
0.0
 11
173.287417
 21
120.94425
 31
0.0
  0
LINE
  8
1
  6
CONTINUOUS
 62
    30
  5
47F
 10
173.287417
 20
120.94425
 30
0.0
 11
177.755833
 21
120.94425
 31
0.0
  0
INSERT
  8
1
  6
CONTINUOUS
 62
     1
  5
480
  2
LDR
 10
153.655
 20
230.571917
 30
0.0
 41
239.999999
 42
239.999999
 50
217.916472
210
0.0
220
0.0
230
1.0
  0
INSERT
  8
1
  6
CONTINUOUS
 62
     1
  5
481
  2
LDR
 10
153.655
 20
230.571917
 30
0.0
 41
239.999999
 42
239.999999
 50
217.916472
210
0.0
220
0.0
230
1.0
  0
INSERT
  8
1
  6
CONTINUOUS
 62
     1
  5
482
  2
LDR
 10
145.753917
 20
203.505083
 30
0.0
 41
240.0
 42
240.0
 50
201.82328
210
0.0
220
0.0
230
1.0
  0
INSERT
  8
1
  6
CONTINUOUS
 62
     1
  5
483
  2
LDR
 10
145.753917
 20
203.505083
 30
0.0
 41
240.0
 42
240.0
 50
201.82328
210
0.0
220
0.0
230
1.0
  0
INSERT
  8
1
  6
CONTINUOUS
 62
     1
  5
484
  2
LDR
 10
154.13975
 20
175.96075
 30
0.0
 41
239.999997
 42
239.999997
 50
231.87056
210
0.0
220
0.0
230
1.0
  0
INSERT
  8
1
  6
CONTINUOUS
 62
     1
  5
485
  2
LDR
 10
157.905
 20
112.288833
 30
0.0
 41
240.000002
 42
240.000002
 50
209.365696
210
0.0
220
0.0
230
1.0
  0
INSERT
  8
1
  6
CONTINUOUS
 62
     1
  5
486
  2
LDR
 10
157.905
 20
112.288833
 30
0.0
 41
240.000002
 42
240.000002
 50
209.365696
210
0.0
220
0.0
230
1.0
  0
LINE
  8
1
  6
CONTINUOUS
 62
    30
  5
487
 10
193.74375
 20
53.4695
 30
0.0
 11
205.503667
 21
53.4695
 31
0.0
  0
INSERT
  8
1
  6
CONTINUOUS
 62
     1
  5
488
  2
LDR
 10
205.503667
 20
53.4695
 30
0.0
 41
240.0
 42
240.0
210
0.0
220
0.0
230
1.0
  0
LINE
  8
1
  6
CONTINUOUS
 62
    30
  5
489
 10
132.782917
 20
259.219
 30
0.0
 11
118.853917
 21
268.68525
 31
0.0
  0
LINE
  8
1
  6
CONTINUOUS
 62
    30
  5
48A
 10
118.853917
 20
268.68525
 30
0.0
 11
113.032583
 21
268.68525
 31
0.0
  0
INSERT
  8
1
  6
CONTINUOUS
 62
     1
  5
48B
  2
LDR
 10
132.782917
 20
259.219
 30
0.0
 41
240.0
 42
240.0
 50
325.799686
210
0.0
220
0.0
230
1.0
  0
LINE
  8
1
  6
CONTINUOUS
 62
    30
  5
48C
 10
139.655
 20
222.2585
 30
0.0
 11
123.705
 21
233.74625
 31
0.0
  0
LINE
  8
1
  6
CONTINUOUS
 62
    30
  5
48D
 10
123.705
 20
233.74625
 30
0.0
 11
117.668083
 21
233.74625
 31
0.0
  0
INSERT
  8
1
  6
CONTINUOUS
 62
     1
  5
48E
  2
LDR
 10
139.655
 20
222.2585
 30
0.0
 41
239.999997
 42
239.999997
 50
324.237242
210
0.0
220
0.0
230
1.0
  0
INSERT
  8
1
  6
CONTINUOUS
 62
     1
  5
48F
  2
LDR
 10
139.655
 20
222.2585
 30
0.0
 41
239.999997
 42
239.999997
 50
324.237242
210
0.0
220
0.0
230
1.0
  0
TEXT
  8
1
  6
CONTINUOUS
 62
     7
  5
490
 10
42.709917
 20
267.388417
 30
0.0
 40
2.5
  1
SEE TYPICAL SERVICE POLE HEADS
  7
MONOTXT
210
0.0
220
0.0
230
1.0
  0
TEXT
  8
1
  6
CONTINUOUS
 62
     7
  5
491
 10
37.575417
 20
232.409667
 30
0.0
 40
2.5
  1
WOOD SERVICE POLE CLASS 5 (UNLESS
  7
MONOTXT
 11
37.575417
 21
234.909667
 31
0.0
210
0.0
220
0.0
230
1.0
 73
     3
  0
TEXT
  8
1
  6
CONTINUOUS
 62
     7
  5
492
 10
37.575417
 20
227.909667
 30
0.0
 40
2.5
  1
OTHERWISE DIRECTED ON PLANS)
  7
MONOTXT
 11
37.575417
 21
230.409667
 31
0.0
210
0.0
220
0.0
230
1.0
 73
     3
  0
TEXT
  8
1
  6
CONTINUOUS
 62
     7
  5
493
 10
37.575417
 20
223.409667
 30
0.0
 40
2.5
  1
MEETING A.N.S.I. AND PRESSURE TREATED
  7
MONOTXT
 11
37.575417
 21
225.909667
 31
0.0
210
0.0
220
0.0
230
1.0
 73
     3
  0
TEXT
  8
1
  6
CONTINUOUS
 62
     7
  5
494
 10
37.575417
 20
218.909667
 30
0.0
 40
2.5
  1
IN ACCORDANCE WITH SECTION 710 OF
  7
MONOTXT
 11
37.575417
 21
221.409667
 31
0.0
210
0.0
220
0.0
230
1.0
 73
     3
  0
TEXT
  8
1
  6
CONTINUOUS
 62
     7
  5
495
 10
37.575417
 20
214.409667
 30
0.0
 40
2.5
  1
THE SPECIFICATIONS
  7
MONOTXT
 11
37.575417
 21
216.909667
 31
0.0
210
0.0
220
0.0
230
1.0
 73
     3
  0
TEXT
  8
1
  6
CONTINUOUS
 62
     7
  5
496
 10
178.321583
 20
243.36925
 30
0.0
 40
2.5
  1
GALVANIZED STEEL CONDUIT - 2" MIN. DIA.
  7
MONOTXT
210
0.0
220
0.0
230
1.0
  0
TEXT
  8
1
  6
CONTINUOUS
 62
     7
  5
497
 10
174.546167
 20
211.109583
 30
0.0
 40
2.5
  1
POLE HEIGHT VARIES - SERVICES CLEARANCES
  7
MONOTXT
 11
174.546167
 21
213.609583
 31
0.0
210
0.0
220
0.0
230
1.0
 73
     3
  0
TEXT
  8
1
  6
CONTINUOUS
 62
     7
  5
498
 10
174.546167
 20
206.609583
 30
0.0
 40
2.5
  1
TO COMPLY WITH N.E.C. STANDARDS
  7
MONOTXT
 11
174.546167
 21
209.109583
 31
0.0
210
0.0
220
0.0
230
1.0
 73
     3
  0
TEXT
  8
1
  6
CONTINUOUS
 62
     7
  5
499
 10
170.619833
 20
188.684
 30
0.0
 40
2.5
  1
CONDUIT STRAPS (TYP.)
  7
MONOTXT
210
0.0
220
0.0
230
1.0
  0
TEXT
  8
1
  6
CONTINUOUS
 62
     7
  5
49A
 10
170.083667
 20
155.053
 30
0.0
 40
2.5
  1
4'-0" c. - c. (TYP.)
  7
MONOTXT
210
0.0
220
0.0
230
1.0
  0
TEXT
  8
1
  6
CONTINUOUS
 62
     7
  5
49B
 10
179.169583
 20
119.522667
 30
0.0
 40
2.5
  1
METER SOCKET AND METER BY APPROPRIATE
  7
MONOTXT
 11
179.169583
 21
122.022667
 31
0.0
210
0.0
220
0.0
230
1.0
 73
     3
  0
TEXT
  8
1
  6
CONTINUOUS
 62
     7
  5
49C
 10
179.169583
 20
115.022667
 30
0.0
 40
2.5
  1
UTILITY COMPANY
  7
MONOTXT
 11
179.169583
 21
117.522667
 31
0.0
210
0.0
220
0.0
230
1.0
 73
     3
  0
TEXT
  8
1
  6
CONTINUOUS
 62
     7
  5
49D
 10
174.53325
 20
61.996333
 30
0.0
 40
2.5
  1
18" MIN.
  7
MONOTXT
210
0.0
220
0.0
230
1.0
  0
TEXT
  8
1
  6
CONTINUOUS
 62
     7
  5
49E
 10
206.289583
 20
52.305917
 30
0.0
 40
2.5
  1
TO CONTROL CABINET, OR IF CONTROL CABINET
  7
MONOTXT
 11
206.289583
 21
54.805917
 31
0.0
210
0.0
220
0.0
230
1.0
 73
     3
  0
TEXT
  8
1
  6
CONTINUOUS
 62
     7
  5
49F
 10
206.289583
 20
47.805917
 30
0.0
 40
2.5
  1
IS ON SERVICE POLE, TO LIGHTING CIRCUITS
  7
MONOTXT
 11
206.289583
 21
50.305917
 31
0.0
210
0.0
220
0.0
230
1.0
 73
     3
  0
LINE
  8
1
  6
CONTINUOUS
 62
     7
  5
4A0
 10
128.8635
 20
71.463167
 30
0.0
 11
127.433333
 21
70.033
 31
0.0
  0
LINE
  8
1
  6
CONTINUOUS
 62
     7
  5
4A1
 10
130.402083
 20
71.463167
 30
0.0
 11
127.563333
 21
68.624417
 31
0.0
  0
LINE
  8
1
  6
CONTINUOUS
 62
     7
  5
4A2
 10
130.29375
 20
71.463167
 30
0.0
 11
132.677417
 21
69.0795
 31
0.0
  0
LINE
  8
1
  6
CONTINUOUS
 62
     7
  5
4A3
 10
129.773667
 20
70.423
 30
0.0
 11
131.788917
 21
68.429417
 31
0.0
  0
LINE
  8
1
  6
CONTINUOUS
 62
     7
  5
4A4
 10
129.27525
 20
69.382917
 30
0.0
 11
130.662083
 21
67.996
 31
0.0
  0
LINE
  8
1
  6
CONTINUOUS
 62
     7
  5
4A5
 10
128.7335
 20
68.386083
 30
0.0
 11
129.665333
 21
67.475917
 31
0.0
  0
LINE
  8
1
  6
CONTINUOUS
 62
     7
  5
4A6
 10
135.039333
 20
71.463167
 30
0.0
 11
132.677417
 21
69.0795
 31
0.0
  0
LINE
  8
1
  6
CONTINUOUS
 62
     7
  5
4A7
 10
133.500833
 20
71.463167
 30
0.0
 11
132.005583
 21
69.967917
 31
0.0
  0
LINE
  8
1
  6
CONTINUOUS
 62
     7
  5
4A8
 10
131.940583
 20
71.463167
 30
0.0
 11
131.333833
 21
70.83475
 31
0.0
  0
LINE
  8
1
  6
CONTINUOUS
 62
     7
  5
4A9
 10
135.039333
 20
71.463167
 30
0.0
 11
137.358
 21
69.1445
 31
0.0
  0
LINE
  8
1
  6
CONTINUOUS
 62
     7
  5
4AA
 10
134.476
 20
70.488
 30
0.0
 11
136.469583
 21
68.494417
 31
0.0
  0
LINE
  8
1
  6
CONTINUOUS
 62
     7
  5
4AB
 10
133.977583
 20
69.447917
 30
0.0
 11
135.364417
 21
68.061
 31
0.0
  0
LINE
  8
1
  6
CONTINUOUS
 62
     7
  5
4AC
 10
133.414167
 20
68.451083
 30
0.0
 11
134.345917
 21
67.51925
 31
0.0
  0
LINE
  8
1
  6
CONTINUOUS
 62
     7
  5
4AD
 10
139.676667
 20
71.463167
 30
0.0
 11
137.358
 21
69.1445
 31
0.0
  0
LINE
  8
1
  6
CONTINUOUS
 62
     7
  5
4AE
 10
138.138167
 20
71.463167
 30
0.0
 11
136.707917
 21
70.033
 31
0.0
  0
LINE
  8
1
  6
CONTINUOUS
 62
     7
  5
4AF
 10
136.577917
 20
71.463167
 30
0.0
 11
136.0145
 21
70.89975
 31
0.0
  0
LINE
  8
1
  6
CONTINUOUS
 62
     7
  5
4B0
 10
116.6635
 20
71.463167
 30
0.0
 11
115.233333
 21
70.033
 31
0.0
  0
LINE
  8
1
  6
CONTINUOUS
 62
     7
  5
4B1
 10
118.202083
 20
71.463167
 30
0.0
 11
115.363333
 21
68.624417
 31
0.0
  0
LINE
  8
1
  6
CONTINUOUS
 62
     7
  5
4B2
 10
118.09375
 20
71.463167
 30
0.0
 11
120.477417
 21
69.0795
 31
0.0
  0
LINE
  8
1
  6
CONTINUOUS
 62
     7
  5
4B3
 10
117.573667
 20
70.423
 30
0.0
 11
119.588917
 21
68.429417
 31
0.0
  0
LINE
  8
1
  6
CONTINUOUS
 62
     7
  5
4B4
 10
117.07525
 20
69.382917
 30
0.0
 11
118.462083
 21
67.996
 31
0.0
  0
LINE
  8
1
  6
CONTINUOUS
 62
     7
  5
4B5
 10
116.5335
 20
68.386083
 30
0.0
 11
117.465333
 21
67.475917
 31
0.0
  0
LINE
  8
1
  6
CONTINUOUS
 62
     7
  5
4B6
 10
122.839333
 20
71.463167
 30
0.0
 11
120.477417
 21
69.0795
 31
0.0
  0
LINE
  8
1
  6
CONTINUOUS
 62
     7
  5
4B7
 10
121.300833
 20
71.463167
 30
0.0
 11
119.805583
 21
69.967917
 31
0.0
  0
LINE
  8
1
  6
CONTINUOUS
 62
     7
  5
4B8
 10
119.740583
 20
71.463167
 30
0.0
 11
119.133833
 21
70.83475
 31
0.0
  0
LINE
  8
1
  6
CONTINUOUS
 62
     7
  5
4B9
 10
122.839333
 20
71.463167
 30
0.0
 11
125.158
 21
69.1445
 31
0.0
  0
LINE
  8
1
  6
CONTINUOUS
 62
     7
  5
4BA
 10
122.276
 20
70.488
 30
0.0
 11
124.269583
 21
68.494417
 31
0.0
  0
LINE
  8
1
  6
CONTINUOUS
 62
     7
  5
4BB
 10
121.777583
 20
69.447917
 30
0.0
 11
123.164417
 21
68.061
 31
0.0
  0
LINE
  8
1
  6
CONTINUOUS
 62
     7
  5
4BC
 10
121.214167
 20
68.451083
 30
0.0
 11
122.145917
 21
67.51925
 31
0.0
  0
LINE
  8
1
  6
CONTINUOUS
 62
     7
  5
4BD
 10
127.476667
 20
71.463167
 30
0.0
 11
125.158
 21
69.1445
 31
0.0
  0
LINE
  8
1
  6
CONTINUOUS
 62
     7
  5
4BE
 10
125.938167
 20
71.463167
 30
0.0
 11
124.507917
 21
70.033
 31
0.0
  0
LINE
  8
1
  6
CONTINUOUS
 62
     7
  5
4BF
 10
124.377917
 20
71.463167
 30
0.0
 11
123.8145
 21
70.89975
 31
0.0
  0
LINE
  8
1
  6
CONTINUOUS
 62
     7
  5
4C0
 10
104.4635
 20
71.463167
 30
0.0
 11
103.033333
 21
70.033
 31
0.0
  0
LINE
  8
1
  6
CONTINUOUS
 62
     7
  5
4C1
 10
106.002083
 20
71.463167
 30
0.0
 11
103.163333
 21
68.624417
 31
0.0
  0
LINE
  8
1
  6
CONTINUOUS
 62
     7
  5
4C2
 10
105.89375
 20
71.463167
 30
0.0
 11
108.277417
 21
69.0795
 31
0.0
  0
LINE
  8
1
  6
CONTINUOUS
 62
     7
  5
4C3
 10
105.373667
 20
70.423
 30
0.0
 11
107.388917
 21
68.429417
 31
0.0
  0
LINE
  8
1
  6
CONTINUOUS
 62
     7
  5
4C4
 10
104.87525
 20
69.382917
 30
0.0
 11
106.262083
 21
67.996
 31
0.0
  0
LINE
  8
1
  6
CONTINUOUS
 62
     7
  5
4C5
 10
104.3335
 20
68.386083
 30
0.0
 11
105.265333
 21
67.475917
 31
0.0
  0
LINE
  8
1
  6
CONTINUOUS
 62
     7
  5
4C6
 10
110.639333
 20
71.463167
 30
0.0
 11
108.277417
 21
69.0795
 31
0.0
  0
LINE
  8
1
  6
CONTINUOUS
 62
     7
  5
4C7
 10
109.100833
 20
71.463167
 30
0.0
 11
107.605583
 21
69.967917
 31
0.0
  0
LINE
  8
1
  6
CONTINUOUS
 62
     7
  5
4C8
 10
107.540583
 20
71.463167
 30
0.0
 11
106.933833
 21
70.83475
 31
0.0
  0
LINE
  8
1
  6
CONTINUOUS
 62
     7
  5
4C9
 10
110.639333
 20
71.463167
 30
0.0
 11
112.958
 21
69.1445
 31
0.0
  0
LINE
  8
1
  6
CONTINUOUS
 62
     7
  5
4CA
 10
110.076
 20
70.488
 30
0.0
 11
112.069583
 21
68.494417
 31
0.0
  0
LINE
  8
1
  6
CONTINUOUS
 62
     7
  5
4CB
 10
109.577583
 20
69.447917
 30
0.0
 11
110.964417
 21
68.061
 31
0.0
  0
LINE
  8
1
  6
CONTINUOUS
 62
     7
  5
4CC
 10
109.014167
 20
68.451083
 30
0.0
 11
109.945917
 21
67.51925
 31
0.0
  0
LINE
  8
1
  6
CONTINUOUS
 62
     7
  5
4CD
 10
115.276667
 20
71.463167
 30
0.0
 11
112.958
 21
69.1445
 31
0.0
  0
LINE
  8
1
  6
CONTINUOUS
 62
     7
  5
4CE
 10
113.738167
 20
71.463167
 30
0.0
 11
112.307917
 21
70.033
 31
0.0
  0
LINE
  8
1
  6
CONTINUOUS
 62
     7
  5
4CF
 10
112.177917
 20
71.463167
 30
0.0
 11
111.6145
 21
70.89975
 31
0.0
  0
LINE
  8
1
  6
CONTINUOUS
 62
     7
  5
4D0
 10
92.2635
 20
71.463167
 30
0.0
 11
90.833333
 21
70.033
 31
0.0
  0
LINE
  8
1
  6
CONTINUOUS
 62
     7
  5
4D1
 10
93.802083
 20
71.463167
 30
0.0
 11
90.963333
 21
68.624417
 31
0.0
  0
LINE
  8
1
  6
CONTINUOUS
 62
     7
  5
4D2
 10
93.69375
 20
71.463167
 30
0.0
 11
96.077417
 21
69.0795
 31
0.0
  0
LINE
  8
1
  6
CONTINUOUS
 62
     7
  5
4D3
 10
93.173667
 20
70.423
 30
0.0
 11
95.188917
 21
68.429417
 31
0.0
  0
LINE
  8
1
  6
CONTINUOUS
 62
     7
  5
4D4
 10
92.67525
 20
69.382917
 30
0.0
 11
94.062083
 21
67.996
 31
0.0
  0
LINE
  8
1
  6
CONTINUOUS
 62
     7
  5
4D5
 10
92.1335
 20
68.386083
 30
0.0
 11
93.065333
 21
67.475917
 31
0.0
  0
LINE
  8
1
  6
CONTINUOUS
 62
     7
  5
4D6
 10
98.439333
 20
71.463167
 30
0.0
 11
96.077417
 21
69.0795
 31
0.0
  0
LINE
  8
1
  6
CONTINUOUS
 62
     7
  5
4D7
 10
96.900833
 20
71.463167
 30
0.0
 11
95.405583
 21
69.967917
 31
0.0
  0
LINE
  8
1
  6
CONTINUOUS
 62
     7
  5
4D8
 10
95.340583
 20
71.463167
 30
0.0
 11
94.733833
 21
70.83475
 31
0.0
  0
LINE
  8
1
  6
CONTINUOUS
 62
     7
  5
4D9
 10
98.439333
 20
71.463167
 30
0.0
 11
100.758
 21
69.1445
 31
0.0
  0
LINE
  8
1
  6
CONTINUOUS
 62
     7
  5
4DA
 10
97.876
 20
70.488
 30
0.0
 11
99.869583
 21
68.494417
 31
0.0
  0
LINE
  8
1
  6
CONTINUOUS
 62
     7
  5
4DB
 10
97.377583
 20
69.447917
 30
0.0
 11
98.764417
 21
68.061
 31
0.0
  0
LINE
  8
1
  6
CONTINUOUS
 62
     7
  5
4DC
 10
96.814167
 20
68.451083
 30
0.0
 11
97.745917
 21
67.51925
 31
0.0
  0
LINE
  8
1
  6
CONTINUOUS
 62
     7
  5
4DD
 10
103.076667
 20
71.463167
 30
0.0
 11
100.758
 21
69.1445
 31
0.0
  0
LINE
  8
1
  6
CONTINUOUS
 62
     7
  5
4DE
 10
101.538167
 20
71.463167
 30
0.0
 11
100.107917
 21
70.033
 31
0.0
  0
LINE
  8
1
  6
CONTINUOUS
 62
     7
  5
4DF
 10
99.977917
 20
71.463167
 30
0.0
 11
99.4145
 21
70.89975
 31
0.0
  0
LINE
  8
1
  6
CONTINUOUS
 62
     7
  5
4E0
 10
80.0635
 20
71.463167
 30
0.0
 11
78.633333
 21
70.033
 31
0.0
  0
LINE
  8
1
  6
CONTINUOUS
 62
     7
  5
4E1
 10
81.602083
 20
71.463167
 30
0.0
 11
78.763333
 21
68.624417
 31
0.0
  0
LINE
  8
1
  6
CONTINUOUS
 62
     7
  5
4E2
 10
81.49375
 20
71.463167
 30
0.0
 11
83.877417
 21
69.0795
 31
0.0
  0
LINE
  8
1
  6
CONTINUOUS
 62
     7
  5
4E3
 10
80.973667
 20
70.423
 30
0.0
 11
82.988917
 21
68.429417
 31
0.0
  0
LINE
  8
1
  6
CONTINUOUS
 62
     7
  5
4E4
 10
80.47525
 20
69.382917
 30
0.0
 11
81.862083
 21
67.996
 31
0.0
  0
LINE
  8
1
  6
CONTINUOUS
 62
     7
  5
4E5
 10
79.9335
 20
68.386083
 30
0.0
 11
80.865333
 21
67.475917
 31
0.0
  0
LINE
  8
1
  6
CONTINUOUS
 62
     7
  5
4E6
 10
86.239333
 20
71.463167
 30
0.0
 11
83.877417
 21
69.0795
 31
0.0
  0
LINE
  8
1
  6
CONTINUOUS
 62
     7
  5
4E7
 10
84.700833
 20
71.463167
 30
0.0
 11
83.205583
 21
69.967917
 31
0.0
  0
LINE
  8
1
  6
CONTINUOUS
 62
     7
  5
4E8
 10
83.140583
 20
71.463167
 30
0.0
 11
82.533833
 21
70.83475
 31
0.0
  0
LINE
  8
1
  6
CONTINUOUS
 62
     7
  5
4E9
 10
86.239333
 20
71.463167
 30
0.0
 11
88.558
 21
69.1445
 31
0.0
  0
LINE
  8
1
  6
CONTINUOUS
 62
     7
  5
4EA
 10
85.676
 20
70.488
 30
0.0
 11
87.669583
 21
68.494417
 31
0.0
  0
LINE
  8
1
  6
CONTINUOUS
 62
     7
  5
4EB
 10
85.177583
 20
69.447917
 30
0.0
 11
86.564417
 21
68.061
 31
0.0
  0
LINE
  8
1
  6
CONTINUOUS
 62
     7
  5
4EC
 10
84.614167
 20
68.451083
 30
0.0
 11
85.545917
 21
67.51925
 31
0.0
  0
LINE
  8
1
  6
CONTINUOUS
 62
     7
  5
4ED
 10
90.876667
 20
71.463167
 30
0.0
 11
88.558
 21
69.1445
 31
0.0
  0
LINE
  8
1
  6
CONTINUOUS
 62
     7
  5
4EE
 10
89.338167
 20
71.463167
 30
0.0
 11
87.907917
 21
70.033
 31
0.0
  0
LINE
  8
1
  6
CONTINUOUS
 62
     7
  5
4EF
 10
87.777917
 20
71.463167
 30
0.0
 11
87.2145
 21
70.89975
 31
0.0
  0
LINE
  8
1
  6
CONTINUOUS
 62
    30
  5
4F0
 10
139.655
 20
71.5065
 30
0.0
 11
78.655
 21
71.5065
 31
0.0
  0
LINE
  8
1
  6
CONTINUOUS
 62
     7
  5
4F1
 10
110.694417
 20
23.469917
 30
0.0
 11
179.194333
 21
23.469917
 31
0.0
  0
TEXT
  8
1
  6
CONTINUOUS
 62
     7
  5
4F2
 10
113.021167
 20
26.185333
 30
0.0
 40
3.5
  1
SERVICE POLE TYPICAL
  7
MONOTXT
210
0.0
220
0.0
230
1.0
  0
LINE
  8
1
  6
CONTINUOUS
 62
    30
  5
4F3
 10
305.763333
 20
289.208167
 30
0.0
 11
481.466917
 21
289.208167
 31
0.0
  0
LINE
  8
1
  6
CONTINUOUS
 62
    30
  5
4F4
 10
481.466917
 20
289.208167
 30
0.0
 11
481.466917
 21
429.511083
 31
0.0
  0
LINE
  8
1
  6
CONTINUOUS
 62
    30
  5
4F5
 10
305.763333
 20
289.208167
 30
0.0
 11
305.763333
 21
9.48175
 31
0.0
  0
LINE
  8
1
  6
CONTINUOUS
 62
     6
  5
4F6
 10
363.968083
 20
239.861917
 30
0.0
 11
363.968083
 21
83.861917
 31
0.0
  0
ARC
  8
1
  6
CONTINUOUS
 62
     6
  5
4F7
 10
366.718083
 20
238.465676
 30
0.0
 40
3.084151
 50
26.917989
 51
153.082011
210
0.0
220
0.0
230
1.0
  0
ARC
  8
1
  6
CONTINUOUS
 62
     6
  5
4F8
 10
372.218083
 20
238.465676
 30
0.0
 40
3.084151
 50
26.917989
 51
153.082011
210
0.0
220
0.0
230
1.0
  0
ARC
  8
1
  6
CONTINUOUS
 62
     6
  5
4F9
 10
366.718083
 20
241.24849
 30
0.0
 40
3.084151
 50
206.917989
 51
333.082011
210
0.0
220
0.0
230
1.0
  0
ARC
  8
1
  6
CONTINUOUS
 62
     6
  5
4FA
 10
366.718083
 20
85.258157
 30
0.0
 40
3.084151
 50
206.917989
 51
333.082011
210
0.0
220
0.0
230
1.0
  0
ARC
  8
1
  6
CONTINUOUS
 62
     6
  5
4FB
 10
372.218083
 20
85.258157
 30
0.0
 40
3.084151
 50
206.917989
 51
333.082011
210
0.0
220
0.0
230
1.0
  0
ARC
  8
1
  6
CONTINUOUS
 62
     6
  5
4FC
 10
366.718083
 20
82.475343
 30
0.0
 40
3.084151
 50
26.917989
 51
153.082011
210
0.0
220
0.0
230
1.0
  0
LINE
  8
1
  6
CONTINUOUS
 62
     6
  5
4FD
 10
374.968083
 20
218.361917
 30
0.0
 11
377.218083
 21
218.361917
 31
0.0
  0
LINE
  8
1
  6
CONTINUOUS
 62
     6
  5
4FE
 10
374.968083
 20
219.611917
 30
0.0
 11
377.218083
 21
219.611917
 31
0.0
  0
ARC
  8
1
  6
CONTINUOUS
 62
     6
  5
4FF
 10
377.052774
 20
218.986917
 30
0.0
 40
0.646492
 50
284.815189
 51
75.184814
210
0.0
220
0.0
230
1.0
  0
ARC
  8
1
  6
CONTINUOUS
 62
     6
  5
500
 10
372.912945
 20
224.818483
 30
0.0
 40
3.941077
 50
321.346178
 51
4.269917
210
0.0
220
0.0
230
1.0
  0
ARC
  8
1
  6
CONTINUOUS
 62
     6
  5
501
 10
380.385823
 20
220.318971
 30
0.0
 40
4.844613
 50
155.124689
 51
188.392097
210
0.0
220
0.0
230
1.0
  0
ARC
  8
1
  6
CONTINUOUS
 62
     6
  5
502
 10
374.162945
 20
224.818483
 30
0.0
 40
3.941077
 50
321.346178
 51
4.269917
210
0.0
220
0.0
230
1.0
  0
ARC
  8
1
  6
CONTINUOUS
 62
     6
  5
503
 10
381.156698
 20
220.38837
 30
0.0
 40
4.382938
 50
153.312783
 51
190.204003
210
0.0
220
0.0
230
1.0
  0
LINE
  8
1
  6
CONTINUOUS
 62
     6
  5
504
 10
376.343083
 20
226.611917
 30
0.0
 11
378.593083
 21
226.611917
 31
0.0
  0
LINE
  8
1
  6
CONTINUOUS
 62
     6
  5
505
 10
376.343083
 20
228.111917
 30
0.0
 11
378.593083
 21
228.111917
 31
0.0
  0
LINE
  8
1
  6
CONTINUOUS
 62
     6
  5
506
 10
376.843083
 20
227.111917
 30
0.0
 11
378.093083
 21
227.111917
 31
0.0
  0
LINE
  8
1
  6
CONTINUOUS
 62
     6
  5
507
 10
376.843083
 20
228.611917
 30
0.0
 11
378.093083
 21
228.611917
 31
0.0
  0
LINE
  8
1
  6
CONTINUOUS
 62
     6
  5
508
 10
376.843083
 20
228.611917
 30
0.0
 11
376.343083
 21
228.111917
 31
0.0
  0
LINE
  8
1
  6
CONTINUOUS
 62
     6
  5
509
 10
378.093083
 20
228.611917
 30
0.0
 11
378.593083
 21
228.111917
 31
0.0
  0
LINE
  8
1
  6
CONTINUOUS
 62
     6
  5
50A
 10
376.843083
 20
227.111917
 30
0.0
 11
376.343083
 21
226.611917
 31
0.0
  0
LINE
  8
1
  6
CONTINUOUS
 62
     6
  5
50B
 10
378.093083
 20
227.111917
 30
0.0
 11
378.593083
 21
226.611917
 31
0.0
  0
LINE
  8
1
  6
CONTINUOUS
 62
     6
  5
50C
 10
376.843083
 20
229.861917
 30
0.0
 11
376.843083
 21
228.611917
 31
0.0
  0
LINE
  8
1
  6
CONTINUOUS
 62
     6
  5
50D
 10
378.093083
 20
229.861917
 30
0.0
 11
378.093083
 21
228.611917
 31
0.0
  0
LINE
  8
1
  6
CONTINUOUS
 62
     6
  5
50E
 10
376.843083
 20
228.111917
 30
0.0
 11
376.843083
 21
227.111917
 31
0.0
  0
LINE
  8
1
  6
CONTINUOUS
 62
     6
  5
50F
 10
376.843083
 20
226.611917
 30
0.0
 11
376.843083
 21
225.111917
 31
0.0
  0
LINE
  8
1
  6
CONTINUOUS
 62
     6
  5
510
 10
378.093083
 20
228.111917
 30
0.0
 11
378.093083
 21
227.111917
 31
0.0
  0
LINE
  8
1
  6
CONTINUOUS
 62
     6
  5
511
 10
378.093083
 20
226.611917
 30
0.0
 11
378.093083
 21
225.111917
 31
0.0
  0
LINE
  8
1
  6
CONTINUOUS
 62
     6
  5
512
 10
375.843083
 20
229.861917
 30
0.0
 11
379.093083
 21
229.861917
 31
0.0
  0
LINE
  8
1
  6
CONTINUOUS
 62
     6
  5
513
 10
376.343083
 20
230.361917
 30
0.0
 11
378.593083
 21
230.361917
 31
0.0
  0
LINE
  8
1
  6
CONTINUOUS
 62
     6
  5
514
 10
376.343083
 20
230.361917
 30
0.0
 11
375.843083
 21
229.861917
 31
0.0
  0
LINE
  8
1
  6
CONTINUOUS
 62
     6
  5
515
 10
378.593083
 20
230.361917
 30
0.0
 11
379.093083
 21
229.861917
 31
0.0
  0
LINE
  8
1
  6
CONTINUOUS
 62
     6
  5
516
 10
376.343083
 20
230.361917
 30
0.0
 11
376.343083
 21
231.361917
 31
0.0
  0
LINE
  8
1
  6
CONTINUOUS
 62
     6
  5
517
 10
378.593083
 20
230.361917
 30
0.0
 11
378.593083
 21
231.361917
 31
0.0
  0
LINE
  8
1
  6
CONTINUOUS
 62
     6
  5
518
 10
376.593083
 20
231.611917
 30
0.0
 11
378.343083
 21
231.611917
 31
0.0
  0
ARC
  8
1
  6
CONTINUOUS
 62
     6
  5
519
 10
376.593083
 20
231.361917
 30
0.0
 40
0.25
 50
90.0
 51
180.0
210
0.0
220
0.0
230
1.0
  0
ARC
  8
1
  6
CONTINUOUS
 62
     6
  5
51A
 10
378.343083
 20
231.361917
 30
0.0
 40
0.25
 50
0.0
 51
90.0
210
0.0
220
0.0
230
1.0
  0
ARC
  8
1
  6
CONTINUOUS
 62
     6
  5
51B
 10
374.162945
 20
147.15535
 30
0.0
 40
3.941077
 50
355.730083
 51
38.653822
210
0.0
220
0.0
230
1.0
  0
ARC
  8
1
  6
CONTINUOUS
 62
     6
  5
51C
 10
372.912945
 20
147.15535
 30
0.0
 40
3.941077
 50
355.730083
 51
38.653822
210
0.0
220
0.0
230
1.0
  0
ARC
  8
1
  6
CONTINUOUS
 62
     6
  5
51D
 10
380.385823
 20
151.654862
 30
0.0
 40
4.844613
 50
171.607903
 51
204.875311
210
0.0
220
0.0
230
1.0
  0
ARC
  8
1
  6
CONTINUOUS
 62
     6
  5
51E
 10
381.156698
 20
151.585464
 30
0.0
 40
4.382938
 50
169.795997
 51
206.687217
210
0.0
220
0.0
230
1.0
  0
LINE
  8
1
  6
CONTINUOUS
 62
     6
  5
51F
 10
376.343083
 20
146.861917
 30
0.0
 11
378.593083
 21
146.861917
 31
0.0
  0
LINE
  8
1
  6
CONTINUOUS
 62
     6
  5
520
 10
375.843083
 20
146.611917
 30
0.0
 11
379.093083
 21
146.611917
 31
0.0
  0
LINE
  8
1
  6
CONTINUOUS
 62
     6
  5
521
 10
378.593083
 20
146.861917
 30
0.0
 11
378.593083
 21
146.611917
 31
0.0
  0
LINE
  8
1
  6
CONTINUOUS
 62
     6
  5
522
 10
376.343083
 20
146.861917
 30
0.0
 11
376.343083
 21
146.611917
 31
0.0
  0
LINE
  8
1
  6
CONTINUOUS
 62
     6
  5
523
 10
379.093083
 20
146.611917
 30
0.0
 11
379.093083
 21
145.861917
 31
0.0
  0
LINE
  8
1
  6
CONTINUOUS
 62
     6
  5
524
 10
375.843083
 20
146.611917
 30
0.0
 11
375.843083
 21
145.861917
 31
0.0
  0
LINE
  8
1
  6
CONTINUOUS
 62
     6
  5
525
 10
375.468083
 20
145.861917
 30
0.0
 11
389.968083
 21
145.861917
 31
0.0
  0
LINE
  8
1
  6
CONTINUOUS
 62
     6
  5
526
 10
375.468083
 20
114.861917
 30
0.0
 11
389.968083
 21
114.861917
 31
0.0
  0
LINE
  8
1
  6
CONTINUOUS
 62
     6
  5
527
 10
374.968083
 20
178.611917
 30
0.0
 11
377.218083
 21
178.611917
 31
0.0
  0
LINE
  8
1
  6
CONTINUOUS
 62
     6
  5
528
 10
374.968083
 20
177.361917
 30
0.0
 11
377.218083
 21
177.361917
 31
0.0
  0
ARC
  8
1
  6
CONTINUOUS
 62
     6
  5
529
 10
377.052774
 20
177.986917
 30
0.0
 40
0.646492
 50
284.815189
 51
75.184814
210
0.0
220
0.0
230
1.0
  0
LINE
  8
1
  6
CONTINUOUS
 62
     6
  5
52A
 10
375.593083
 20
218.361917
 30
0.0
 11
375.593083
 21
178.611917
 31
0.0
  0
LINE
  8
1
  6
CONTINUOUS
 62
     6
  5
52B
 10
375.593083
 20
177.361917
 30
0.0
 11
375.593083
 21
152.361917
 31
0.0
  0
LINE
  8
1
  6
CONTINUOUS
 62
     6
  5
52C
 10
376.843083
 20
218.361917
 30
0.0
 11
376.843083
 21
178.611917
 31
0.0
  0
LINE
  8
1
  6
CONTINUOUS
 62
     6
  5
52D
 10
376.843083
 20
177.361917
 30
0.0
 11
376.843083
 21
152.361917
 31
0.0
  0
LINE
  8
1
  6
CONTINUOUS
 62
     6
  5
52E
 10
390.968083
 20
146.611917
 30
0.0
 11
390.968083
 21
114.111917
 31
0.0
  0
LINE
  8
1
  6
CONTINUOUS
 62
     6
  5
52F
 10
390.468083
 20
146.611917
 30
0.0
 11
390.968083
 21
146.611917
 31
0.0
  0
LINE
  8
1
  6
CONTINUOUS
 62
     6
  5
530
 10
390.468083
 20
114.111917
 30
0.0
 11
390.968083
 21
114.111917
 31
0.0
  0
LINE
  8
1
  6
CONTINUOUS
 62
     6
  5
531
 10
375.468083
 20
145.861917
 30
0.0
 11
375.468083
 21
114.361917
 31
0.0
  0
LINE
  8
1
  6
CONTINUOUS
 62
     6
  5
532
 10
379.468667
 20
114.861917
 30
0.0
 11
379.468667
 21
114.361917
 31
0.0
  0
LINE
  8
1
  6
CONTINUOUS
 62
     6
  5
533
 10
375.468083
 20
114.361917
 30
0.0
 11
379.468667
 21
114.361917
 31
0.0
  0
LINE
  8
1
  6
CONTINUOUS
 62
     6
  5
534
 10
375.593083
 20
114.361917
 30
0.0
 11
375.593083
 21
114.111917
 31
0.0
  0
LINE
  8
1
  6
CONTINUOUS
 62
     6
  5
535
 10
379.343667
 20
114.361917
 30
0.0
 11
379.343667
 21
114.111917
 31
0.0
  0
LINE
  8
1
  6
CONTINUOUS
 62
     6
  5
536
 10
376.093083
 20
114.361917
 30
0.0
 11
376.093083
 21
114.111917
 31
0.0
  0
LINE
  8
1
  6
CONTINUOUS
 62
     6
  5
537
 10
378.843667
 20
114.361917
 30
0.0
 11
378.843667
 21
114.111917
 31
0.0
  0
LINE
  8
1
  6
CONTINUOUS
 62
     6
  5
538
 10
375.593083
 20
114.111917
 30
0.0
 11
376.093083
 21
114.111917
 31
0.0
  0
LINE
  8
1
  6
CONTINUOUS
 62
     6
  5
539
 10
378.843667
 20
114.111917
 30
0.0
 11
379.343667
 21
114.111917
 31
0.0
  0
LINE
  8
1
  6
CONTINUOUS
 62
     6
  5
53A
 10
376.593083
 20
112.361917
 30
0.0
 11
378.343667
 21
112.361917
 31
0.0
  0
LINE
  8
1
  6
CONTINUOUS
 62
     6
  5
53B
 10
376.093083
 20
114.361917
 30
0.0
 11
376.593083
 21
112.361917
 31
0.0
  0
LINE
  8
1
  6
CONTINUOUS
 62
     6
  5
53C
 10
378.843667
 20
114.361917
 30
0.0
 11
378.343667
 21
112.361917
 31
0.0
  0
LINE
  8
1
  6
CONTINUOUS
 62
     6
  5
53D
 10
376.593083
 20
112.361917
 30
0.0
 11
376.593083
 21
93.361917
 31
0.0
  0
LINE
  8
1
  6
CONTINUOUS
 62
     6
  5
53E
 10
378.343667
 20
112.361917
 30
0.0
 11
378.343667
 21
93.361917
 31
0.0
  0
ARC
  8
1
  6
CONTINUOUS
 62
     6
  5
53F
 10
377.03075
 20
93.626778
 30
0.0
 40
0.51157
 50
211.1809
 51
328.8191
210
0.0
220
0.0
230
1.0
  0
ARC
  8
1
  6
CONTINUOUS
 62
     6
  5
540
 10
377.906083
 20
93.626778
 30
0.0
 40
0.51157
 50
211.1809
 51
328.8191
210
0.0
220
0.0
230
1.0
  0
ARC
  8
1
  6
CONTINUOUS
 62
     6
  5
541
 10
377.906083
 20
93.082556
 30
0.0
 40
0.51157
 50
31.1809
 51
148.8191
210
0.0
220
0.0
230
1.0
  0
LINE
  8
1
  6
CONTINUOUS
 62
     6
  5
542
 10
390.968083
 20
131.111917
 30
0.0
 11
389.718083
 21
131.111917
 31
0.0
  0
LINE
  8
1
  6
CONTINUOUS
 62
     6
  5
543
 10
390.968083
 20
129.611917
 30
0.0
 11
389.718083
 21
129.611917
 31
0.0
  0
LINE
  8
1
  6
CONTINUOUS
 62
     6
  5
544
 10
389.718083
 20
131.111917
 30
0.0
 11
389.718083
 21
129.611917
 31
0.0
  0
LINE
  8
1
  6
CONTINUOUS
 62
     6
  5
545
 10
389.968083
 20
145.861917
 30
0.0
 11
389.968083
 21
131.111917
 31
0.0
  0
LINE
  8
1
  6
CONTINUOUS
 62
     6
  5
546
 10
389.968083
 20
129.611917
 30
0.0
 11
389.968083
 21
114.861917
 31
0.0
  0
LINE
  8
1
  6
CONTINUOUS
 62
     6
  5
547
 10
390.468083
 20
146.611917
 30
0.0
 11
390.468083
 21
131.111917
 31
0.0
  0
LINE
  8
1
  6
CONTINUOUS
 62
     6
  5
548
 10
390.468083
 20
129.611917
 30
0.0
 11
390.468083
 21
114.111917
 31
0.0
  0
LINE
  8
1
  6
CONTINUOUS
 62
     6
  5
549
 10
375.468083
 20
142.861917
 30
0.0
 11
371.468083
 21
142.861917
 31
0.0
  0
LINE
  8
1
  6
CONTINUOUS
 62
     6
  5
54A
 10
375.468083
 20
141.361917
 30
0.0
 11
371.468083
 21
141.361917
 31
0.0
  0
LINE
  8
1
  6
CONTINUOUS
 62
     6
  5
54B
 10
371.468083
 20
142.861917
 30
0.0
 11
371.468083
 21
141.361917
 31
0.0
  0
LINE
  8
1
  6
CONTINUOUS
 62
     6
  5
54C
 10
374.968083
 20
239.861917
 30
0.0
 11
374.968083
 21
142.861917
 31
0.0
  0
CIRCLE
  8
1
  6
CONTINUOUS
 62
     6
  5
54D
 10
371.965917
 20
142.506
 30
0.0
 40
0.125
210
0.0
220
0.0
230
1.0
  0
CIRCLE
  8
1
  6
CONTINUOUS
 62
     6
  5
54E
 10
371.978417
 20
141.722
 30
0.0
 40
0.125
210
0.0
220
0.0
230
1.0
  0
LINE
  8
1
  6
CONTINUOUS
 62
     6
  5
54F
 10
374.968083
 20
141.361917
 30
0.0
 11
374.968083
 21
118.861917
 31
0.0
  0
LINE
  8
1
  6
CONTINUOUS
 62
     6
  5
550
 10
374.968083
 20
117.361917
 30
0.0
 11
374.968083
 21
83.861917
 31
0.0
  0
LINE
  8
1
  6
CONTINUOUS
 62
     6
  5
551
 10
375.468083
 20
117.361917
 30
0.0
 11
371.468083
 21
117.361917
 31
0.0
  0
LINE
  8
1
  6
CONTINUOUS
 62
     6
  5
552
 10
375.468083
 20
118.861917
 30
0.0
 11
371.468083
 21
118.861917
 31
0.0
  0
LINE
  8
1
  6
CONTINUOUS
 62
     6
  5
553
 10
371.468083
 20
118.861917
 30
0.0
 11
371.468083
 21
117.361917
 31
0.0
  0
CIRCLE
  8
1
  6
CONTINUOUS
 62
     6
  5
554
 10
371.965917
 20
118.506
 30
0.0
 40
0.125
210
0.0
220
0.0
230
1.0
  0
CIRCLE
  8
1
  6
CONTINUOUS
 62
     6
  5
555
 10
371.978417
 20
117.722
 30
0.0
 40
0.125
210
0.0
220
0.0
230
1.0
  0
CIRCLE
  8
1
  6
CONTINUOUS
 62
     6
  5
556
 10
373.4685
 20
118.103583
 30
0.0
 40
3.25
210
0.0
220
0.0
230
1.0
  0
LINE
  8
1
  6
CONTINUOUS
 62
     6
  5
557
 10
411.093083
 20
229.236917
 30
0.0
 11
384.593083
 21
229.236917
 31
0.0
  0
LINE
  8
1
  6
CONTINUOUS
 62
     6
  5
558
 10
394.968083
 20
145.861917
 30
0.0
 11
411.093083
 21
145.861917
 31
0.0
  0
LINE
  8
1
  6
CONTINUOUS
 62
     6
  5
559
 10
410.093083
 20
229.236917
 30
0.0
 11
410.093083
 21
145.861917
 31
0.0
  0
INSERT
  8
1
  6
CONTINUOUS
 62
     1
  5
55A
  2
LDR
 10
410.093083
 20
229.236917
 30
0.0
 41
240.0
 42
240.0
 50
90.0
210
0.0
220
0.0
230
1.0
  0
INSERT
  8
1
  6
CONTINUOUS
 62
     1
  5
55B
  2
LDR
 10
410.093083
 20
145.861917
 30
0.0
 41
240.0
 42
240.0
 50
270.0
210
0.0
220
0.0
230
1.0
  0
LINE
  8
1
  6
CONTINUOUS
 62
     6
  5
55C
 10
378.571833
 20
231.611917
 30
0.0
 11
385.179583
 21
240.579167
 31
0.0
  0
LINE
  8
1
  6
CONTINUOUS
 62
     6
  5
55D
 10
385.179583
 20
240.579167
 30
0.0
 11
389.236083
 21
240.579167
 31
0.0
  0
INSERT
  8
1
  6
CONTINUOUS
 62
     1
  5
55E
  2
LDR
 10
378.571833
 20
231.611917
 30
0.0
 41
240.0
 42
240.0
 50
233.614395
210
0.0
220
0.0
230
1.0
  0
LINE
  8
1
  6
CONTINUOUS
 62
     6
  5
55F
 10
375.593083
 20
206.157667
 30
0.0
 11
356.55375
 21
222.273083
 31
0.0
  0
LINE
  8
1
  6
CONTINUOUS
 62
     6
  5
560
 10
356.55375
 20
222.273083
 30
0.0
 11
352.312833
 21
222.273083
 31
0.0
  0
LINE
  8
1
  6
CONTINUOUS
 62
     6
  5
561
 10
363.968083
 20
184.86625
 30
0.0
 11
353.787917
 21
191.655167
 31
0.0
  0
LINE
  8
1
  6
CONTINUOUS
 62
     6
  5
562
 10
353.787917
 20
191.655167
 30
0.0
 11
350.10025
 21
191.655167
 31
0.0
  0
LINE
  8
1
  6
CONTINUOUS
 62
     6
  5
563
 10
376.343083
 20
146.861917
 30
0.0
 11
354.825333
 21
162.749167
 31
0.0
  0
LINE
  8
1
  6
CONTINUOUS
 62
     6
  5
564
 10
354.825333
 20
162.749167
 30
0.0
 11
351.137667
 21
162.749167
 31
0.0
  0
LINE
  8
1
  6
CONTINUOUS
 62
     6
  5
565
 10
371.799333
 20
120.89225
 30
0.0
 11
357.54025
 21
132.165167
 31
0.0
  0
LINE
  8
1
  6
CONTINUOUS
 62
     6
  5
566
 10
357.54025
 20
132.165167
 30
0.0
 11
353.852583
 21
132.165167
 31
0.0
  0
LINE
  8
1
  6
CONTINUOUS
 62
     6
  5
567
 10
394.968083
 20
114.861917
 30
0.0
 11
403.968083
 21
114.861917
 31
0.0
  0
LINE
  8
1
  6
CONTINUOUS
 62
     6
  5
568
 10
402.968083
 20
114.861917
 30
0.0
 11
402.968083
 21
68.861917
 31
0.0
  0
INSERT
  8
1
  6
CONTINUOUS
 62
     1
  5
569
  2
LDR
 10
402.968083
 20
114.861917
 30
0.0
 41
240.0
 42
240.0
 50
90.0
210
0.0
220
0.0
230
1.0
  0
ARC
  8
1
  6
CONTINUOUS
 62
     6
  5
56A
 10
404.215027
 20
69.576117
 30
0.0
 40
1.436967
 50
209.801522
 51
342.198481
210
0.0
220
0.0
230
1.0
  0
ARC
  8
1
  6
CONTINUOUS
 62
     6
  5
56B
 10
401.721163
 20
68.14778
 30
0.0
 40
1.436967
 50
29.801522
 51
162.198481
210
0.0
220
0.0
230
1.0
  0
INSERT
  8
1
  6
CONTINUOUS
 62
     1
  5
56C
  2
LDR
 10
375.593083
 20
206.157667
 30
0.0
 41
239.999999
 42
239.999999
 50
319.754503
210
0.0
220
0.0
230
1.0
  0
INSERT
  8
1
  6
CONTINUOUS
 62
     1
  5
56D
  2
LDR
 10
375.593083
 20
206.157667
 30
0.0
 41
239.999999
 42
239.999999
 50
319.754503
210
0.0
220
0.0
230
1.0
  0
INSERT
  8
1
  6
CONTINUOUS
 62
     1
  5
56E
  2
LDR
 10
363.968083
 20
184.86625
 30
0.0
 41
240.0
 42
240.0
 50
326.301599
210
0.0
220
0.0
230
1.0
  0
INSERT
  8
1
  6
CONTINUOUS
 62
     1
  5
56F
  2
LDR
 10
363.968083
 20
184.86625
 30
0.0
 41
240.0
 42
240.0
 50
326.301599
210
0.0
220
0.0
230
1.0
  0
INSERT
  8
1
  6
CONTINUOUS
 62
     1
  5
570
  2
LDR
 10
376.343083
 20
146.861917
 30
0.0
 41
240.000001
 42
240.000001
 50
323.56035
210
0.0
220
0.0
230
1.0
  0
INSERT
  8
1
  6
CONTINUOUS
 62
     1
  5
571
  2
LDR
 10
371.799333
 20
120.89225
 30
0.0
 41
239.999998
 42
239.999998
 50
321.670882
210
0.0
220
0.0
230
1.0
  0
TEXT
  8
1
  6
CONTINUOUS
 62
     7
  5
572
 10
390.382917
 20
239.52425
 30
0.0
 40
2.5
  1
PHOTOELECTRIC CELL
  7
MONOTXT
210
0.0
220
0.0
230
1.0
  0
TEXT
  8
1
  6
CONTINUOUS
 62
     7
  5
573
 10
319.285583
 20
220.97375
 30
0.0
 40
2.5
  1
1" RIGID CONDUIT
  7
MONOTXT
 11
319.285583
 21
223.47375
 31
0.0
210
0.0
220
0.0
230
1.0
 73
     3
  0
TEXT
  8
1
  6
CONTINUOUS
 62
     7
  5
574
 10
319.285583
 20
216.47375
 30
0.0
 40
2.5
  1
(GALVANIZED)
  7
MONOTXT
 11
319.285583
 21
218.97375
 31
0.0
210
0.0
220
0.0
230
1.0
 73
     3
  0
TEXT
  8
1
  6
CONTINUOUS
 62
     7
  5
575
 10
312.92275
 20
190.256417
 30
0.0
 40
2.5
  1
LIGHTING POLE OR
  7
MONOTXT
 11
312.92275
 21
192.756417
 31
0.0
210
0.0
220
0.0
230
1.0
 73
     3
  0
TEXT
  8
1
  6
CONTINUOUS
 62
     7
  5
576
 10
312.92275
 20
185.756417
 30
0.0
 40
2.5
  1
COMBINATION LIGHTING
  7
MONOTXT
 11
312.92275
 21
188.256417
 31
0.0
210
0.0
220
0.0
230
1.0
 73
     3
  0
TEXT
  8
1
  6
CONTINUOUS
 62
     7
  5
577
 10
312.92275
 20
181.256417
 30
0.0
 40
2.5
  1
AND SIGNAL POLE
  7
MONOTXT
 11
312.92275
 21
183.756417
 31
0.0
210
0.0
220
0.0
230
1.0
 73
     3
  0
TEXT
  8
1
  6
CONTINUOUS
 62
     7
  5
578
 10
325.37175
 20
161.476167
 30
0.0
 40
2.5
  1
MEYERS HUB
  7
MONOTXT
 11
325.37175
 21
163.976167
 31
0.0
210
0.0
220
0.0
230
1.0
 73
     3
  0
TEXT
  8
1
  6
CONTINUOUS
 62
     7
  5
579
 10
325.37175
 20
156.976167
 30
0.0
 40
2.5
  1
(WATERTIGHT)
  7
MONOTXT
 11
325.37175
 21
159.476167
 31
0.0
210
0.0
220
0.0
230
1.0
 73
     3
  0
TEXT
  8
1
  6
CONTINUOUS
 62
     7
  5
57A
 10
319.008917
 20
131.0355
 30
0.0
 40
2.5
  1
SEE DETAILS FOR
  7
MONOTXT
 11
319.008917
 21
133.5355
 31
0.0
210
0.0
220
0.0
230
1.0
 73
     3
  0
TEXT
  8
1
  6
CONTINUOUS
 62
     7
  5
57B
 10
319.008917
 20
126.5355
 30
0.0
 40
2.5
  1
MOUNTING BRACKET
  7
MONOTXT
 11
319.008917
 21
129.0355
 31
0.0
210
0.0
220
0.0
230
1.0
 73
     3
  0
TEXT
  8
1
  6
CONTINUOUS
 62
     7
  5
57C
 10
406.699583
 20
101.36825
 30
0.0
 40
2.5
  1
MINIMUM DISTANCE IN
  7
MONOTXT
 11
406.699583
 21
103.86825
 31
0.0
210
0.0
220
0.0
230
1.0
 73
     3
  0
TEXT
  8
1
  6
CONTINUOUS
 62
     7
  5
57D
 10
406.699583
 20
96.86825
 30
0.0
 40
2.5
  1
NON-PEDESTRIAN AREA 4'-0"
  7
MONOTXT
 11
406.699583
 21
99.36825
 31
0.0
210
0.0
220
0.0
230
1.0
 73
     3
  0
TEXT
  8
1
  6
CONTINUOUS
 62
     7
  5
57E
 10
406.352917
 20
82.107333
 30
0.0
 40
2.5
  1
MINIMUM DISTANCE TO
  7
MONOTXT
 11
406.352917
 21
84.607333
 31
0.0
210
0.0
220
0.0
230
1.0
 73
     3
  0
TEXT
  8
1
  6
CONTINUOUS
 62
     7
  5
57F
 10
406.352917
 20
77.607333
 30
0.0
 40
2.5
  1
SIDEWALK 7'-O" (PEDESTRIAN AREA)
  7
MONOTXT
 11
406.352917
 21
80.107333
 31
0.0
210
0.0
220
0.0
230
1.0
 73
     3
  0
TEXT
  8
1
  6
CONTINUOUS
 62
     7
  5
580
 10
415.347917
 20
185.005167
 30
0.0
 40
2.5
  1
5'-0"
 50
90.0
  7
MONOTXT
210
0.0
220
0.0
230
1.0
  0
TEXT
  8
1
  6
CONTINUOUS
 62
     7
  5
581
 10
331.038833
 20
55.043833
 30
0.0
 40
3.5
  1
CONTROL STATION - POLE MOUNTING DETAIL
  7
MONOTXT
210
0.0
220
0.0
230
1.0
  0
LINE
  8
1
  6
CONTINUOUS
 62
     7
  5
582
 10
328.55525
 20
52.5595
 30
0.0
 11
456.584833
 21
52.5595
 31
0.0
  0
LINE
  8
1
  6
CONTINUOUS
 62
     2
  5
583
 10
472.851583
 20
166.13425
 30
0.0
 11
506.851583
 21
166.13425
 31
0.0
  0
LINE
  8
1
  6
CONTINUOUS
 62
     2
  5
584
 10
472.851583
 20
150.13425
 30
0.0
 11
506.851583
 21
150.13425
 31
0.0
  0
LINE
  8
1
  6
CONTINUOUS
 62
     2
  5
585
 10
472.851583
 20
166.13425
 30
0.0
 11
472.851583
 21
150.13425
 31
0.0
  0
LINE
  8
1
  6
CONTINUOUS
 62
     2
  5
586
 10
506.851583
 20
161.13425
 30
0.0
 11
526.851583
 21
161.13425
 31
0.0
  0
LINE
  8
1
  6
CONTINUOUS
 62
     2
  5
587
 10
506.851583
 20
155.13425
 30
0.0
 11
526.851583
 21
155.13425
 31
0.0
  0
LINE
  8
1
  6
CONTINUOUS
 62
     2
  5
588
 10
506.851583
 20
166.13425
 30
0.0
 11
506.851583
 21
161.13425
 31
0.0
  0
LINE
  8
1
  6
CONTINUOUS
 62
     2
  5
589
 10
506.851583
 20
155.13425
 30
0.0
 11
506.851583
 21
150.13425
 31
0.0
  0
LINE
  8
1
  6
CONTINUOUS
 62
     2
  5
58A
 10
526.851583
 20
161.13425
 30
0.0
 11
526.851583
 21
155.13425
 31
0.0
  0
LINE
  8
1
  6
CONTINUOUS
 62
     2
  5
58B
 10
561.851583
 20
161.13425
 30
0.0
 11
561.851583
 21
155.13425
 31
0.0
  0
LINE
  8
1
  6
CONTINUOUS
 62
     2
  5
58C
 10
541.851583
 20
161.13425
 30
0.0
 11
561.851583
 21
161.13425
 31
0.0
  0
LINE
  8
1
  6
CONTINUOUS
 62
     2
  5
58D
 10
541.851583
 20
155.13425
 30
0.0
 11
561.851583
 21
155.13425
 31
0.0
  0
LINE
  8
1
  6
CONTINUOUS
 62
     2
  5
58E
 10
541.851583
 20
166.13425
 30
0.0
 11
541.851583
 21
161.13425
 31
0.0
  0
LINE
  8
1
  6
CONTINUOUS
 62
     2
  5
58F
 10
541.851583
 20
150.13425
 30
0.0
 11
541.851583
 21
155.13425
 31
0.0
  0
LINE
  8
1
  6
CONTINUOUS
 62
     2
  5
590
 10
541.851583
 20
166.13425
 30
0.0
 11
642.851583
 21
166.13425
 31
0.0
  0
LINE
  8
1
  6
CONTINUOUS
 62
     2
  5
591
 10
541.851583
 20
150.13425
 30
0.0
 11
642.851583
 21
150.13425
 31
0.0
  0
LINE
  8
1
  6
CONTINUOUS
 62
     2
  5
592
 10
642.851583
 20
166.13425
 30
0.0
 11
642.851583
 21
161.13425
 31
0.0
  0
LINE
  8
1
  6
CONTINUOUS
 62
     2
  5
593
 10
642.851583
 20
150.13425
 30
0.0
 11
642.851583
 21
155.13425
 31
0.0
  0
LINE
  8
1
  6
CONTINUOUS
 62
     2
  5
594
 10
622.851583
 20
161.13425
 30
0.0
 11
642.851583
 21
161.13425
 31
0.0
  0
LINE
  8
1
  6
CONTINUOUS
 62
     2
  5
595
 10
622.851583
 20
155.13425
 30
0.0
 11
642.851583
 21
155.13425
 31
0.0
  0
LINE
  8
1
  6
CONTINUOUS
 62
     2
  5
596
 10
622.851583
 20
161.13425
 30
0.0
 11
622.851583
 21
155.13425
 31
0.0
  0
LINE
  8
1
  6
CONTINUOUS
 62
     2
  5
597
 10
592.351583
 20
172.13425
 30
0.0
 11
592.351583
 21
143.967583
 31
0.0
  0
LINE
  8
1
  6
CONTINUOUS
 62
     2
  5
598
 10
566.351583
 20
172.13425
 30
0.0
 11
566.351583
 21
161.13425
 31
0.0
  0
LINE
  8
1
  6
CONTINUOUS
 62
     2
  5
599
 10
566.351583
 20
160.13425
 30
0.0
 11
566.351583
 21
159.13425
 31
0.0
  0
LINE
  8
1
  6
CONTINUOUS
 62
     2
  5
59A
 10
566.351583
 20
158.13425
 30
0.0
 11
566.351583
 21
155.13425
 31
0.0
  0
LINE
  8
1
  6
CONTINUOUS
 62
     2
  5
59B
 10
618.351583
 20
172.13425
 30
0.0
 11
618.351583
 21
161.13425
 31
0.0
  0
LINE
  8
1
  6
CONTINUOUS
 62
     2
  5
59C
 10
618.351583
 20
160.13425
 30
0.0
 11
618.351583
 21
159.13425
 31
0.0
  0
LINE
  8
1
  6
CONTINUOUS
 62
     2
  5
59D
 10
618.351583
 20
158.13425
 30
0.0
 11
618.351583
 21
155.13425
 31
0.0
  0
LINE
  8
1
  6
CONTINUOUS
 62
     2
  5
59E
 10
566.351583
 20
171.13425
 30
0.0
 11
592.351583
 21
171.13425
 31
0.0
  0
LINE
  8
1
  6
CONTINUOUS
 62
     2
  5
59F
 10
592.351583
 20
171.13425
 30
0.0
 11
618.351583
 21
171.13425
 31
0.0
  0
INSERT
  8
1
  6
CONTINUOUS
 62
     1
  5
5A0
  2
LDR
 10
566.351583
 20
171.13425
 30
0.0
 41
240.0
 42
240.0
 50
180.0
210
0.0
220
0.0
230
1.0
  0
INSERT
  8
1
  6
CONTINUOUS
 62
     1
  5
5A1
  2
LDR
 10
566.351583
 20
171.13425
 30
0.0
 41
240.0
 42
240.0
 50
180.0
210
0.0
220
0.0
230
1.0
  0
INSERT
  8
1
  6
CONTINUOUS
 62
     1
  5
5A2
  2
LDR
 10
592.351583
 20
171.13425
 30
0.0
 41
240.0
 42
240.0
210
0.0
220
0.0
230
1.0
  0
INSERT
  8
1
  6
CONTINUOUS
 62
     1
  5
5A3
  2
LDR
 10
592.351583
 20
171.13425
 30
0.0
 41
240.0
 42
240.0
210
0.0
220
0.0
230
1.0
  0
INSERT
  8
1
  6
CONTINUOUS
 62
     1
  5
5A4
  2
LDR
 10
592.351583
 20
171.13425
 30
0.0
 41
240.0
 42
240.0
 50
180.0
210
0.0
220
0.0
230
1.0
  0
INSERT
  8
1
  6
CONTINUOUS
 62
     1
  5
5A5
  2
LDR
 10
592.351583
 20
171.13425
 30
0.0
 41
240.0
 42
240.0
 50
180.0
210
0.0
220
0.0
230
1.0
  0
INSERT
  8
1
  6
CONTINUOUS
 62
     1
  5
5A6
  2
LDR
 10
618.351583
 20
171.13425
 30
0.0
 41
240.0
 42
240.0
210
0.0
220
0.0
230
1.0
  0
INSERT
  8
1
  6
CONTINUOUS
 62
     1
  5
5A7
  2
LDR
 10
618.351583
 20
171.13425
 30
0.0
 41
240.0
 42
240.0
210
0.0
220
0.0
230
1.0
  0
LINE
  8
1
  6
CONTINUOUS
 62
     2
  5
5A8
 10
622.851583
 20
162.13425
 30
0.0
 11
622.851583
 21
172.13425
 31
0.0
  0
LINE
  8
1
  6
CONTINUOUS
 62
     2
  5
5A9
 10
642.851583
 20
167.13425
 30
0.0
 11
642.851583
 21
172.13425
 31
0.0
  0
LINE
  8
1
  6
CONTINUOUS
 62
     2
  5
5AA
 10
622.851583
 20
171.13425
 30
0.0
 11
642.851583
 21
171.13425
 31
0.0
  0
INSERT
  8
1
  6
CONTINUOUS
 62
     1
  5
5AB
  2
LDR
 10
622.851583
 20
171.13425
 30
0.0
 41
240.0
 42
240.0
 50
180.0
210
0.0
220
0.0
230
1.0
  0
INSERT
  8
1
  6
CONTINUOUS
 62
     1
  5
5AC
  2
LDR
 10
642.851583
 20
171.13425
 30
0.0
 41
240.0
 42
240.0
210
0.0
220
0.0
230
1.0
  0
LINE
  8
1
  6
CONTINUOUS
 62
     2
  5
5AD
 10
643.851583
 20
166.13425
 30
0.0
 11
654.851583
 21
166.13425
 31
0.0
  0
LINE
  8
1
  6
CONTINUOUS
 62
     2
  5
5AE
 10
643.851583
 20
150.13425
 30
0.0
 11
654.851583
 21
150.13425
 31
0.0
  0
LINE
  8
1
  6
CONTINUOUS
 62
     2
  5
5AF
 10
653.851583
 20
166.13425
 30
0.0
 11
653.851583
 21
150.13425
 31
0.0
  0
INSERT
  8
1
  6
CONTINUOUS
 62
     1
  5
5B0
  2
LDR
 10
653.851583
 20
166.13425
 30
0.0
 41
240.0
 42
240.0
 50
90.0
210
0.0
220
0.0
230
1.0
  0
INSERT
  8
1
  6
CONTINUOUS
 62
     1
  5
5B1
  2
LDR
 10
653.851583
 20
150.13425
 30
0.0
 41
240.0
 42
240.0
 50
270.0
210
0.0
220
0.0
230
1.0
  0
LINE
  8
1
  6
CONTINUOUS
 62
     2
  5
5B2
 10
643.851583
 20
161.13425
 30
0.0
 11
649.851583
 21
161.13425
 31
0.0
  0
LINE
  8
1
  6
CONTINUOUS
 62
     2
  5
5B3
 10
643.851583
 20
155.13425
 30
0.0
 11
649.851583
 21
155.13425
 31
0.0
  0
LINE
  8
1
  6
CONTINUOUS
 62
     2
  5
5B4
 10
648.851583
 20
165.13425
 30
0.0
 11
648.851583
 21
161.13425
 31
0.0
  0
LINE
  8
1
  6
CONTINUOUS
 62
     2
  5
5B5
 10
648.851583
 20
150.13425
 30
0.0
 11
648.851583
 21
145.13425
 31
0.0
  0
INSERT
  8
1
  6
CONTINUOUS
 62
     1
  5
5B6
  2
LDR
 10
648.851583
 20
161.13425
 30
0.0
 41
240.0
 42
240.0
 50
270.0
210
0.0
220
0.0
230
1.0
  0
INSERT
  8
1
  6
CONTINUOUS
 62
     1
  5
5B7
  2
LDR
 10
648.851583
 20
150.13425
 30
0.0
 41
240.0
 42
240.0
 50
90.0
210
0.0
220
0.0
230
1.0
  0
LINE
  8
1
  6
CONTINUOUS
 62
     2
  5
5B8
 10
541.851583
 20
149.13425
 30
0.0
 11
541.851583
 21
139.13425
 31
0.0
  0
LINE
  8
1
  6
CONTINUOUS
 62
     2
  5
5B9
 10
642.851583
 20
149.13425
 30
0.0
 11
642.851583
 21
139.13425
 31
0.0
  0
LINE
  8
1
  6
CONTINUOUS
 62
     2
  5
5BA
 10
541.851583
 20
140.13425
 30
0.0
 11
642.851583
 21
140.13425
 31
0.0
  0
LINE
  8
1
  6
CONTINUOUS
 62
     2
  5
5BB
 10
592.351583
 20
144.967583
 30
0.0
 11
642.851583
 21
144.967583
 31
0.0
  0
INSERT
  8
1
  6
CONTINUOUS
 62
     1
  5
5BC
  2
LDR
 10
642.851583
 20
140.13425
 30
0.0
 41
240.0
 42
240.0
210
0.0
220
0.0
230
1.0
  0
INSERT
  8
1
  6
CONTINUOUS
 62
     1
  5
5BD
  2
LDR
 10
642.851583
 20
140.13425
 30
0.0
 41
240.0
 42
240.0
210
0.0
220
0.0
230
1.0
  0
INSERT
  8
1
  6
CONTINUOUS
 62
     1
  5
5BE
  2
LDR
 10
541.851583
 20
140.13425
 30
0.0
 41
240.0
 42
240.0
 50
180.0
210
0.0
220
0.0
230
1.0
  0
LINE
  8
1
  6
CONTINUOUS
 62
     2
  5
5BF
 10
527.851583
 20
161.13425
 30
0.0
 11
534.851583
 21
161.13425
 31
0.0
  0
LINE
  8
1
  6
CONTINUOUS
 62
     2
  5
5C0
 10
527.851583
 20
155.13425
 30
0.0
 11
534.851583
 21
155.13425
 31
0.0
  0
LINE
  8
1
  6
CONTINUOUS
 62
     2
  5
5C1
 10
507.851583
 20
166.13425
 30
0.0
 11
534.851583
 21
166.13425
 31
0.0
  0
LINE
  8
1
  6
CONTINUOUS
 62
     2
  5
5C2
 10
533.851583
 20
166.13425
 30
0.0
 11
533.851583
 21
171.13425
 31
0.0
  0
LINE
  8
1
  6
CONTINUOUS
 62
     2
  5
5C3
 10
533.851583
 20
155.13425
 30
0.0
 11
533.851583
 21
150.13425
 31
0.0
  0
INSERT
  8
1
  6
CONTINUOUS
 62
     1
  5
5C4
  2
LDR
 10
533.851583
 20
166.13425
 30
0.0
 41
240.0
 42
240.0
 50
270.0
210
0.0
220
0.0
230
1.0
  0
INSERT
  8
1
  6
CONTINUOUS
 62
     1
  5
5C5
  2
LDR
 10
533.851583
 20
155.13425
 30
0.0
 41
240.0
 42
240.0
 50
90.0
210
0.0
220
0.0
230
1.0
  0
LINE
  8
1
  6
CONTINUOUS
 62
     2
  5
5C6
 10
526.851583
 20
154.13425
 30
0.0
 11
526.851583
 21
139.13425
 31
0.0
  0
LINE
  8
1
  6
CONTINUOUS
 62
     2
  5
5C7
 10
472.851583
 20
149.13425
 30
0.0
 11
472.851583
 21
139.13425
 31
0.0
  0
LINE
  8
1
  6
CONTINUOUS
 62
     2
  5
5C8
 10
472.851583
 20
140.13425
 30
0.0
 11
526.851583
 21
140.13425
 31
0.0
  0
LINE
  8
1
  6
CONTINUOUS
 62
     2
  5
5C9
 10
506.851583
 20
149.13425
 30
0.0
 11
506.851583
 21
144.13425
 31
0.0
  0
LINE
  8
1
  6
CONTINUOUS
 62
     2
  5
5CA
 10
506.851583
 20
145.13425
 30
0.0
 11
526.851583
 21
145.13425
 31
0.0
  0
INSERT
  8
1
  6
CONTINUOUS
 62
     1
  5
5CB
  2
LDR
 10
506.851583
 20
145.13425
 30
0.0
 41
240.0
 42
240.0
 50
180.0
210
0.0
220
0.0
230
1.0
  0
INSERT
  8
1
  6
CONTINUOUS
 62
     1
  5
5CC
  2
LDR
 10
506.851583
 20
145.13425
 30
0.0
 41
240.0
 42
240.0
 50
180.0
210
0.0
220
0.0
230
1.0
  0
INSERT
  8
1
  6
CONTINUOUS
 62
     1
  5
5CD
  2
LDR
 10
526.851583
 20
145.13425
 30
0.0
 41
240.0
 42
240.0
210
0.0
220
0.0
230
1.0
  0
INSERT
  8
1
  6
CONTINUOUS
 62
     1
  5
5CE
  2
LDR
 10
526.851583
 20
145.13425
 30
0.0
 41
240.0
 42
240.0
210
0.0
220
0.0
230
1.0
  0
INSERT
  8
1
  6
CONTINUOUS
 62
     1
  5
5CF
  2
LDR
 10
526.851583
 20
140.13425
 30
0.0
 41
240.0
 42
240.0
210
0.0
220
0.0
230
1.0
  0
INSERT
  8
1
  6
CONTINUOUS
 62
     1
  5
5D0
  2
LDR
 10
526.851583
 20
140.13425
 30
0.0
 41
240.0
 42
240.0
210
0.0
220
0.0
230
1.0
  0
INSERT
  8
1
  6
CONTINUOUS
 62
     1
  5
5D1
  2
LDR
 10
472.851583
 20
140.13425
 30
0.0
 41
240.0
 42
240.0
 50
180.0
210
0.0
220
0.0
230
1.0
  0
TEXT
  8
1
  6
CONTINUOUS
 62
     7
  5
5D2
 10
515.331833
 20
141.83625
 30
0.0
 40
2.5
  1
3"
  7
MONOTXT
210
0.0
220
0.0
230
1.0
  0
TEXT
  8
1
  6
CONTINUOUS
 62
     7
  5
5D3
 10
497.58525
 20
136.116083
 30
0.0
 40
2.5
  1
7 1/2 "
  7
MONOTXT
210
0.0
220
0.0
230
1.0
  0
TEXT
  8
1
  6
CONTINUOUS
 62
     7
  5
5D4
 10
575.670167
 20
172.80425
 30
0.0
 40
2.5
  1
3 1/2 "
  7
MONOTXT
210
0.0
220
0.0
230
1.0
  0
TEXT
  8
1
  6
CONTINUOUS
 62
     7
  5
5D5
 10
601.895667
 20
172.80425
 30
0.0
 40
2.5
  1
3 1/2 "
  7
MONOTXT
210
0.0
220
0.0
230
1.0
  0
TEXT
  8
1
  6
CONTINUOUS
 62
     7
  5
5D6
 10
631.473333
 20
172.2125
 30
0.0
 40
2.5
  1
3"
  7
MONOTXT
210
0.0
220
0.0
230
1.0
  0
TEXT
  8
1
  6
CONTINUOUS
 62
     7
  5
5D7
 10
654.741083
 20
157.616167
 30
0.0
 40
2.5
  1
2"
  7
MONOTXT
210
0.0
220
0.0
230
1.0
  0
TEXT
  8
1
  6
CONTINUOUS
 62
     7
  5
5D8
 10
646.459333
 20
156.827167
 30
0.0
 40
2.5
  1
 3/4 "
  7
MONOTXT
210
0.0
220
0.0
230
1.0
  0
TEXT
  8
1
  6
CONTINUOUS
 62
     7
  5
5D9
 10
646.6565
 20
141.04725
 30
0.0
 40
2.5
  1
 5/8 "
  7
MONOTXT
210
0.0
220
0.0
230
1.0
  0
TEXT
  8
1
  6
CONTINUOUS
 62
     7
  5
5DA
 10
611.902
 20
141.568083
 30
0.0
 40
2.5
  1
7 1/16 "
  7
MONOTXT
210
0.0
220
0.0
230
1.0
  0
INSERT
  8
1
  6
CONTINUOUS
 62
     1
  5
5DB
  2
LDR
 10
592.351583
 20
144.967583
 30
0.0
 41
240.0
 42
240.0
 50
180.0
210
0.0
220
0.0
230
1.0
  0
INSERT
  8
1
  6
CONTINUOUS
 62
     1
  5
5DC
  2
LDR
 10
592.351583
 20
144.967583
 30
0.0
 41
240.0
 42
240.0
 50
180.0
210
0.0
220
0.0
230
1.0
  0
INSERT
  8
1
  6
CONTINUOUS
 62
     1
  5
5DD
  2
LDR
 10
642.851583
 20
144.967583
 30
0.0
 41
240.0
 42
240.0
210
0.0
220
0.0
230
1.0
  0
INSERT
  8
1
  6
CONTINUOUS
 62
     1
  5
5DE
  2
LDR
 10
642.851583
 20
144.967583
 30
0.0
 41
240.0
 42
240.0
210
0.0
220
0.0
230
1.0
  0
TEXT
  8
1
  6
CONTINUOUS
 62
     7
  5
5DF
 10
588.924167
 20
136.30675
 30
0.0
 40
2.5
  1
14 1/8 "
  7
MONOTXT
210
0.0
220
0.0
230
1.0
  0
TEXT
  8
1
  6
CONTINUOUS
 62
     7
  5
5E0
 10
535.302083
 20
174.26925
 30
0.0
 40
2.5
  1
"
  7
MONOTXT
210
0.0
220
0.0
230
1.0
  0
TEXT
  8
1
  6
CONTINUOUS
 62
     7
  5
5E1
 10
534.79625
 20
147.552667
 30
0.0
 40
2.5
  1
"
  7
MONOTXT
210
0.0
220
0.0
230
1.0
  0
TEXT
  8
1
  6
CONTINUOUS
 62
     7
  5
5E2
 10
479.812417
 20
156.255833
 30
0.0
 40
3.0
  1
PART "B"
  7
MONOTXT
210
0.0
220
0.0
230
1.0
  0
TEXT
  8
1
  6
CONTINUOUS
 62
     7
  5
5E3
 10
579.967083
 20
156.255833
 30
0.0
 40
3.0
  1
PART "A"
  7
MONOTXT
210
0.0
220
0.0
230
1.0
  0
TEXT
  8
1
  6
CONTINUOUS
 62
     7
  5
5E4
 10
535.453917
 20
122.45525
 30
0.0
 40
3.5
  1
MOUNTING BRACKET
  7
MONOTXT
210
0.0
220
0.0
230
1.0
  0
LINE
  8
1
  6
CONTINUOUS
 62
     7
  5
5E5
 10
534.037583
 20
121.443333
 30
0.0
 11
589.607167
 21
121.443333
 31
0.0
  0
LINE
  8
1
  6
CONTINUOUS
 62
     1
  5
5E6
 10
524.682583
 20
192.962333
 30
0.0
 11
602.682583
 21
192.962333
 31
0.0
  0
LINE
  8
1
  6
CONTINUOUS
 62
     1
  5
5E7
 10
524.682583
 20
207.962333
 30
0.0
 11
602.682583
 21
207.962333
 31
0.0
  0
LINE
  8
1
  6
CONTINUOUS
 62
     1
  5
5E8
 10
524.682583
 20
207.962333
 30
0.0
 11
524.682583
 21
192.962333
 31
0.0
  0
LINE
  8
1
  6
CONTINUOUS
 62
     1
  5
5E9
 10
602.682583
 20
207.962333
 30
0.0
 11
602.682583
 21
192.962333
 31
0.0
  0
LINE
  8
1
  6
HIDDEN
 62
     1
  5
5EA
 10
526.432583
 20
207.962333
 30
0.0
 11
526.432583
 21
192.962333
 31
0.0
  0
LINE
  8
1
  6
HIDDEN
 62
     1
  5
5EB
 10
530.932583
 20
207.962333
 30
0.0
 11
530.932583
 21
192.962333
 31
0.0
  0
LINE
  8
1
  6
CONTINUOUS
 62
     1
  5
5EC
 10
525.182583
 20
211.462333
 30
0.0
 11
525.182583
 21
207.962333
 31
0.0
  0
LINE
  8
1
  6
CONTINUOUS
 62
     1
  5
5ED
 10
525.182583
 20
192.962333
 30
0.0
 11
525.182583
 21
189.462333
 31
0.0
  0
LINE
  8
1
  6
CONTINUOUS
 62
     1
  5
5EE
 10
532.182583
 20
211.462333
 30
0.0
 11
532.182583
 21
207.962333
 31
0.0
  0
LINE
  8
1
  6
CONTINUOUS
 62
     1
  5
5EF
 10
532.182583
 20
192.962333
 30
0.0
 11
532.182583
 21
189.462333
 31
0.0
  0
LINE
  8
1
  6
CONTINUOUS
 62
     1
  5
5F0
 10
525.182583
 20
189.462333
 30
0.0
 11
525.932583
 21
188.962333
 31
0.0
  0
LINE
  8
1
  6
CONTINUOUS
 62
     1
  5
5F1
 10
526.932583
 20
188.962333
 30
0.0
 11
530.432583
 21
188.962333
 31
0.0
  0
LINE
  8
1
  6
CONTINUOUS
 62
     1
  5
5F2
 10
531.432583
 20
188.962333
 30
0.0
 11
532.182583
 21
189.462333
 31
0.0
  0
LINE
  8
1
  6
CONTINUOUS
 62
     1
  5
5F3
 10
525.182583
 20
211.462333
 30
0.0
 11
528.682583
 21
211.462333
 31
0.0
  0
LINE
  8
1
  6
CONTINUOUS
 62
     1
  5
5F4
 10
528.682583
 20
211.462333
 30
0.0
 11
532.182583
 21
211.462333
 31
0.0
  0
LINE
  8
1
  6
CONTINUOUS
 62
     1
  5
5F5
 10
527.932583
 20
211.462333
 30
0.0
 11
528.682583
 21
210.462333
 31
0.0
  0
LINE
  8
1
  6
CONTINUOUS
 62
     1
  5
5F6
 10
528.682583
 20
210.462333
 30
0.0
 11
529.432583
 21
211.462333
 31
0.0
  0
LINE
  8
1
  6
CONTINUOUS
 62
     1
  5
5F7
 10
525.182583
 20
210.462333
 30
0.0
 11
525.932583
 21
211.462333
 31
0.0
  0
LINE
  8
1
  6
CONTINUOUS
 62
     1
  5
5F8
 10
531.432583
 20
211.462333
 30
0.0
 11
532.182583
 21
210.462333
 31
0.0
  0
LINE
  8
1
  6
CONTINUOUS
 62
     1
  5
5F9
 10
525.932583
 20
188.962333
 30
0.0
 11
526.932583
 21
188.962333
 31
0.0
  0
LINE
  8
1
  6
CONTINUOUS
 62
     1
  5
5FA
 10
530.432583
 20
188.962333
 30
0.0
 11
531.432583
 21
188.962333
 31
0.0
  0
LINE
  8
1
  6
CONTINUOUS
 62
     1
  5
5FB
 10
526.432583
 20
189.962333
 30
0.0
 11
526.432583
 21
191.962333
 31
0.0
  0
LINE
  8
1
  6
CONTINUOUS
 62
     1
  5
5FC
 10
530.932583
 20
189.962333
 30
0.0
 11
530.932583
 21
191.962333
 31
0.0
  0
LINE
  8
1
  6
CONTINUOUS
 62
     1
  5
5FD
 10
525.932583
 20
188.962333
 30
0.0
 11
526.432583
 21
189.962333
 31
0.0
  0
LINE
  8
1
  6
CONTINUOUS
 62
     1
  5
5FE
 10
526.432583
 20
189.962333
 30
0.0
 11
526.932583
 21
188.962333
 31
0.0
  0
LINE
  8
1
  6
CONTINUOUS
 62
     1
  5
5FF
 10
530.432583
 20
188.962333
 30
0.0
 11
530.932583
 21
189.962333
 31
0.0
  0
LINE
  8
1
  6
CONTINUOUS
 62
     1
  5
600
 10
530.932583
 20
189.962333
 30
0.0
 11
531.432583
 21
188.962333
 31
0.0
  0
LINE
  8
1
  6
CONTINUOUS
 62
     1
  5
601
 10
525.932583
 20
192.962333
 30
0.0
 11
526.432583
 21
191.962333
 31
0.0
  0
LINE
  8
1
  6
CONTINUOUS
 62
     1
  5
602
 10
526.432583
 20
191.962333
 30
0.0
 11
526.932583
 21
192.962333
 31
0.0
  0
LINE
  8
1
  6
CONTINUOUS
 62
     1
  5
603
 10
530.432583
 20
192.962333
 30
0.0
 11
530.932583
 21
191.962333
 31
0.0
  0
LINE
  8
1
  6
CONTINUOUS
 62
     1
  5
604
 10
530.932583
 20
191.962333
 30
0.0
 11
531.432583
 21
192.962333
 31
0.0
  0
LINE
  8
1
  6
HIDDEN
 62
     1
  5
605
 10
596.432583
 20
207.962333
 30
0.0
 11
596.432583
 21
192.962333
 31
0.0
  0
LINE
  8
1
  6
HIDDEN
 62
     1
  5
606
 10
600.932583
 20
207.962333
 30
0.0
 11
600.932583
 21
192.962333
 31
0.0
  0
LINE
  8
1
  6
CONTINUOUS
 62
     1
  5
607
 10
524.682583
 20
203.212333
 30
0.0
 11
532.682583
 21
203.212333
 31
0.0
  0
LINE
  8
1
  6
CONTINUOUS
 62
     1
  5
608
 10
524.682583
 20
197.712333
 30
0.0
 11
532.682583
 21
197.712333
 31
0.0
  0
LINE
  8
1
  6
CONTINUOUS
 62
     1
  5
609
 10
528.682583
 20
211.462333
 30
0.0
 11
528.682583
 21
201.962333
 31
0.0
  0
LINE
  8
1
  6
CONTINUOUS
 62
     1
  5
60A
 10
528.682583
 20
200.962333
 30
0.0
 11
528.682583
 21
199.962333
 31
0.0
  0
LINE
  8
1
  6
CONTINUOUS
 62
     1
  5
60B
 10
528.682583
 20
198.962333
 30
0.0
 11
528.682583
 21
186.962333
 31
0.0
  0
LINE
  8
1
  6
CONTINUOUS
 62
     1
  5
60C
 10
527.432583
 20
187.962333
 30
0.0
 11
529.932583
 21
187.962333
 31
0.0
  0
LINE
  8
1
  6
CONTINUOUS
 62
     1
  5
60D
 10
527.432583
 20
187.962333
 30
0.0
 11
526.932583
 21
188.962333
 31
0.0
  0
LINE
  8
1
  6
CONTINUOUS
 62
     1
  5
60E
 10
529.932583
 20
187.962333
 30
0.0
 11
530.432583
 21
188.962333
 31
0.0
  0
LINE
  8
1
  6
CONTINUOUS
 62
     1
  5
60F
 10
527.182583
 20
188.462333
 30
0.0
 11
530.182583
 21
188.462333
 31
0.0
  0
LINE
  8
1
  6
CONTINUOUS
 62
     1
  5
610
 10
594.682583
 20
203.212333
 30
0.0
 11
602.682583
 21
203.212333
 31
0.0
  0
LINE
  8
1
  6
CONTINUOUS
 62
     1
  5
611
 10
594.682583
 20
197.712333
 30
0.0
 11
602.682583
 21
197.712333
 31
0.0
  0
LINE
  8
1
  6
CONTINUOUS
 62
     1
  5
612
 10
598.682583
 20
200.962333
 30
0.0
 11
598.682583
 21
199.962333
 31
0.0
  0
LINE
  8
1
  6
CONTINUOUS
 62
     1
  5
613
 10
598.682583
 20
198.962333
 30
0.0
 11
598.682583
 21
186.962333
 31
0.0
  0
LINE
  8
1
  6
HIDDEN
 62
     1
  5
614
 10
532.682583
 20
207.962333
 30
0.0
 11
532.682583
 21
203.212333
 31
0.0
  0
LINE
  8
1
  6
HIDDEN
 62
     1
  5
615
 10
532.682583
 20
197.712333
 30
0.0
 11
532.682583
 21
192.962333
 31
0.0
  0
LINE
  8
1
  6
HIDDEN
 62
     1
  5
616
 10
594.682583
 20
207.962333
 30
0.0
 11
594.682583
 21
203.212333
 31
0.0
  0
LINE
  8
1
  6
HIDDEN
 62
     1
  5
617
 10
594.682583
 20
197.712333
 30
0.0
 11
594.682583
 21
192.962333
 31
0.0
  0
LINE
  8
1
  6
CONTINUOUS
 62
     1
  5
618
 10
532.682583
 20
203.212333
 30
0.0
 11
532.682583
 21
197.712333
 31
0.0
  0
LINE
  8
1
  6
CONTINUOUS
 62
     1
  5
619
 10
594.682583
 20
203.212333
 30
0.0
 11
594.682583
 21
197.712333
 31
0.0
  0
LINE
  8
1
  6
CONTINUOUS
 62
     1
  5
61A
 10
536.682583
 20
208.962333
 30
0.0
 11
536.682583
 21
206.212333
 31
0.0
  0
LINE
  8
1
  6
CONTINUOUS
 62
     1
  5
61B
 10
536.682583
 20
205.212333
 30
0.0
 11
536.682583
 21
204.212333
 31
0.0
  0
LINE
  8
1
  6
CONTINUOUS
 62
     1
  5
61C
 10
536.682583
 20
203.212333
 30
0.0
 11
536.682583
 21
198.712333
 31
0.0
  0
LINE
  8
1
  6
CONTINUOUS
 62
     1
  5
61D
 10
590.682583
 20
208.962333
 30
0.0
 11
590.682583
 21
206.212333
 31
0.0
  0
LINE
  8
1
  6
CONTINUOUS
 62
     1
  5
61E
 10
590.682583
 20
205.212333
 30
0.0
 11
590.682583
 21
204.212333
 31
0.0
  0
LINE
  8
1
  6
CONTINUOUS
 62
     1
  5
61F
 10
590.682583
 20
203.212333
 30
0.0
 11
590.682583
 21
198.712333
 31
0.0
  0
LINE
  8
1
  6
CONTINUOUS
 62
     1
  5
620
 10
533.182583
 20
204.712333
 30
0.0
 11
535.182583
 21
204.712333
 31
0.0
  0
LINE
  8
1
  6
CONTINUOUS
 62
     1
  5
621
 10
536.182583
 20
204.712333
 30
0.0
 11
537.182583
 21
204.712333
 31
0.0
  0
LINE
  8
1
  6
CONTINUOUS
 62
     1
  5
622
 10
538.182583
 20
204.712333
 30
0.0
 11
542.182583
 21
204.712333
 31
0.0
  0
LINE
  8
1
  6
CONTINUOUS
 62
     1
  5
623
 10
584.182583
 20
204.712333
 30
0.0
 11
589.182583
 21
204.712333
 31
0.0
  0
LINE
  8
1
  6
CONTINUOUS
 62
     1
  5
624
 10
590.182583
 20
204.712333
 30
0.0
 11
591.182583
 21
204.712333
 31
0.0
  0
LINE
  8
1
  6
CONTINUOUS
 62
     1
  5
625
 10
592.182583
 20
204.712333
 30
0.0
 11
594.182583
 21
204.712333
 31
0.0
  0
LINE
  8
1
  6
CONTINUOUS
 62
     1
  5
626
 10
536.682583
 20
213.462333
 30
0.0
 11
536.682583
 21
219.962333
 31
0.0
  0
LINE
  8
1
  6
CONTINUOUS
 62
     1
  5
627
 10
590.682583
 20
213.462333
 30
0.0
 11
590.682583
 21
219.962333
 31
0.0
  0
LINE
  8
1
  6
CONTINUOUS
 62
     1
  5
628
 10
563.682583
 20
199.962333
 30
0.0
 11
563.682583
 21
197.962333
 31
0.0
  0
LINE
  8
1
  6
CONTINUOUS
 62
     1
  5
629
 10
563.682583
 20
196.962333
 30
0.0
 11
563.682583
 21
186.962333
 31
0.0
  0
LINE
  8
1
  6
CONTINUOUS
 62
     1
  5
62A
 10
563.682583
 20
217.212333
 30
0.0
 11
563.682583
 21
213.212333
 31
0.0
  0
LINE
  8
1
  6
CONTINUOUS
 62
     1
  5
62B
 10
563.682583
 20
212.212333
 30
0.0
 11
563.682583
 21
210.212333
 31
0.0
  0
LINE
  8
1
  6
CONTINUOUS
 62
     1
  5
62C
 10
563.682583
 20
209.212333
 30
0.0
 11
563.682583
 21
200.962333
 31
0.0
  0
LINE
  8
1
  6
CONTINUOUS
 62
     1
  5
62D
 10
528.682583
 20
214.962333
 30
0.0
 11
542.682583
 21
214.962333
 31
0.0
  0
LINE
  8
1
  6
CONTINUOUS
 62
     1
  5
62E
 10
543.682583
 20
214.962333
 30
0.0
 11
545.682583
 21
214.962333
 31
0.0
  0
LINE
  8
1
  6
CONTINUOUS
 62
     1
  5
62F
 10
546.682583
 20
214.962333
 30
0.0
 11
548.682583
 21
214.962333
 31
0.0
  0
LINE
  8
1
  6
CONTINUOUS
 62
     1
  5
630
 10
549.682583
 20
214.962333
 30
0.0
 11
563.682583
 21
214.962333
 31
0.0
  0
LINE
  8
1
  6
CONTINUOUS
 62
     1
  5
631
 10
563.682583
 20
214.962333
 30
0.0
 11
577.682583
 21
214.962333
 31
0.0
  0
LINE
  8
1
  6
CONTINUOUS
 62
     1
  5
632
 10
578.682583
 20
214.962333
 30
0.0
 11
580.682583
 21
214.962333
 31
0.0
  0
LINE
  8
1
  6
CONTINUOUS
 62
     1
  5
633
 10
581.682583
 20
214.962333
 30
0.0
 11
583.682583
 21
214.962333
 31
0.0
  0
LINE
  8
1
  6
CONTINUOUS
 62
     1
  5
634
 10
584.682583
 20
214.962333
 30
0.0
 11
598.682583
 21
214.962333
 31
0.0
  0
LINE
  8
1
  6
CONTINUOUS
 62
     1
  5
635
 10
528.682583
 20
215.962333
 30
0.0
 11
598.682583
 21
215.962333
 31
0.0
  0
CIRCLE
  8
1
  6
CONTINUOUS
 62
     1
  5
636
 10
528.703417
 20
220.012667
 30
0.0
 40
4.0
210
0.0
220
0.0
230
1.0
  0
CIRCLE
  8
1
  6
CONTINUOUS
 62
     1
  5
637
 10
598.67725
 20
220.009333
 30
0.0
 40
4.0
210
0.0
220
0.0
230
1.0
  0
LINE
  8
1
  6
CONTINUOUS
 62
     1
  5
638
 10
526.182583
 20
221.512667
 30
0.0
 11
526.182583
 21
218.512667
 31
0.0
  0
LINE
  8
1
  6
CONTINUOUS
 62
     1
  5
639
 10
531.182583
 20
221.512667
 30
0.0
 11
531.182583
 21
218.512667
 31
0.0
  0
LINE
  8
1
  6
CONTINUOUS
 62
     1
  5
63A
 10
527.682583
 20
220.012667
 30
0.0
 11
529.682583
 21
220.012667
 31
0.0
  0
LINE
  8
1
  6
CONTINUOUS
 62
     1
  5
63B
 10
526.182583
 20
221.512667
 30
0.0
 11
528.682583
 21
222.762667
 31
0.0
  0
LINE
  8
1
  6
CONTINUOUS
 62
     1
  5
63C
 10
528.682583
 20
222.762667
 30
0.0
 11
531.182583
 21
221.512667
 31
0.0
  0
LINE
  8
1
  6
CONTINUOUS
 62
     1
  5
63D
 10
528.682583
 20
217.262667
 30
0.0
 11
531.182583
 21
218.512667
 31
0.0
  0
LINE
  8
1
  6
CONTINUOUS
 62
     1
  5
63E
 10
528.682583
 20
217.262667
 30
0.0
 11
526.182583
 21
218.512667
 31
0.0
  0
LINE
  8
1
  6
CONTINUOUS
 62
     1
  5
63F
 10
528.682583
 20
228.462333
 30
0.0
 11
528.682583
 21
221.762667
 31
0.0
  0
LINE
  8
1
  6
CONTINUOUS
 62
     1
  5
640
 10
528.682583
 20
221.012667
 30
0.0
 11
528.682583
 21
219.012667
 31
0.0
  0
CIRCLE
  8
1
  6
CONTINUOUS
 62
     1
  5
641
 10
598.683083
 20
220.067583
 30
0.0
 40
3.0
210
0.0
220
0.0
230
1.0
  0
LINE
  8
1
  6
CONTINUOUS
 62
     1
  5
642
 10
598.682583
 20
228.462333
 30
0.0
 11
598.682583
 21
221.762667
 31
0.0
  0
LINE
  8
1
  6
CONTINUOUS
 62
     1
  5
643
 10
598.682583
 20
221.012667
 30
0.0
 11
598.682583
 21
219.012667
 31
0.0
  0
LINE
  8
1
  6
CONTINUOUS
 62
     1
  5
644
 10
598.682583
 20
218.262667
 30
0.0
 11
598.682583
 21
201.962333
 31
0.0
  0
LINE
  8
1
  6
CONTINUOUS
 62
     1
  5
645
 10
597.682583
 20
220.012667
 30
0.0
 11
599.682583
 21
220.012667
 31
0.0
  0
LINE
  8
1
  6
CONTINUOUS
 62
     1
  5
646
 10
524.948667
 20
218.593167
 30
0.0
 11
503.972
 21
248.550917
 31
0.0
  0
LINE
  8
1
  6
CONTINUOUS
 62
     1
  5
647
 10
598.682583
 20
224.009333
 30
0.0
 11
574.812667
 21
249.60675
 31
0.0
  0
LINE
  8
1
  6
CONTINUOUS
 62
     1
  5
648
 10
601.849167
 20
222.446333
 30
0.0
 11
575.726833
 21
250.459167
 31
0.0
  0
LINE
  8
1
  6
CONTINUOUS
 62
     1
  5
649
 10
574.812667
 20
249.60675
 30
0.0
 11
575.726833
 21
250.459167
 31
0.0
  0
CIRCLE
  8
1
  6
CONTINUOUS
 62
     1
  5
64A
 10
563.408083
 20
235.375583
 30
0.0
 40
17.86918
210
0.0
220
0.0
230
1.0
  0
INSERT
  8
1
  6
CONTINUOUS
 62
     1
  5
64B
  2
LDR
 10
579.70725
 20
242.699917
 30
0.0
 41
239.999998
 42
239.999998
 50
24.99991
210
0.0
220
0.0
230
1.0
  0
INSERT
  8
1
  6
CONTINUOUS
 62
     1
  5
64C
  2
LDR
 10
579.70725
 20
242.699917
 30
0.0
 41
239.999998
 42
239.999998
 50
24.99991
210
0.0
220
0.0
230
1.0
  0
INSERT
  8
1
  6
CONTINUOUS
 62
     1
  5
64D
  2
LDR
 10
547.320417
 20
227.59775
 30
0.0
 41
239.999998
 42
239.999998
 50
204.99991
210
0.0
220
0.0
230
1.0
  0
TEXT
  8
1
  6
CONTINUOUS
 62
     7
  5
64E
 10
556.154833
 20
230.273083
 30
0.0
 40
2.5
  1
POLE DIA.
 50
25.0
  7
MONOTXT
210
0.0
220
0.0
230
1.0
  0
LINE
  8
1
  6
CONTINUOUS
 62
     1
  5
64F
 10
547.320417
 20
227.59775
 30
0.0
 11
554.868333
 21
231.117417
 31
0.0
  0
LINE
  8
1
  6
CONTINUOUS
 62
     1
  5
650
 10
572.3535
 20
239.270833
 30
0.0
 11
579.70725
 21
242.699917
 31
0.0
  0
LINE
  8
1
  6
CONTINUOUS
 62
     1
  5
651
 10
563.682583
 20
217.212333
 30
0.0
 11
563.682583
 21
231.774167
 31
0.0
  0
LINE
  8
1
  6
CONTINUOUS
 62
     1
  5
652
 10
563.682583
 20
238.240167
 30
0.0
 11
563.682583
 21
256.242667
 31
0.0
  0
LINE
  8
1
  6
CONTINUOUS
 62
     1
  5
653
 10
583.657583
 20
252.218333
 30
0.0
 11
582.293583
 21
253.681083
 31
0.0
  0
LINE
  8
1
  6
CONTINUOUS
 62
     1
  5
654
 10
583.22475
 20
250.482833
 30
0.0
 11
580.496417
 21
253.408833
 31
0.0
  0
LINE
  8
1
  6
CONTINUOUS
 62
     1
  5
655
 10
580.496417
 20
253.408833
 30
0.0
 11
581.053667
 21
253.910583
 31
0.0
  0
LINE
  8
1
  6
CONTINUOUS
 62
     1
  5
656
 10
583.22475
 20
250.482833
 30
0.0
 11
583.745917
 21
250.952083
 31
0.0
  0
ARC
  8
1
  6
CONTINUOUS
 62
     1
  5
657
 10
581.550407
 20
253.130127
 30
0.0
 40
0.925129
 50
36.551511
 51
122.475736
210
0.0
220
0.0
230
1.0
  0
ARC
  8
1
  6
CONTINUOUS
 62
     1
  5
658
 10
583.028402
 20
251.536111
 30
0.0
 40
0.925129
 50
320.855919
 51
48.497619
210
0.0
220
0.0
230
1.0
  0
LINE
  8
1
  6
CONTINUOUS
 62
     1
  5
659
 10
579.134917
 20
250.837083
 30
0.0
 11
582.2935
 21
253.681167
 31
0.0
  0
LINE
  8
1
  6
CONTINUOUS
 62
     1
  5
65A
 10
580.498917
 20
249.37425
 30
0.0
 11
583.657667
 21
252.21825
 31
0.0
  0
LINE
  8
1
  6
CONTINUOUS
 62
     1
  5
65B
 10
579.057917
 20
249.085917
 30
0.0
 11
578.717083
 21
249.451667
 31
0.0
  0
LINE
  8
1
  6
CONTINUOUS
 62
     1
  5
65C
 10
579.134917
 20
250.837083
 30
0.0
 11
578.717083
 21
249.451667
 31
0.0
  0
LINE
  8
1
  6
CONTINUOUS
 62
     1
  5
65D
 10
580.498917
 20
249.37425
 30
0.0
 11
579.057917
 21
249.085917
 31
0.0
  0
LINE
  8
1
  6
CONTINUOUS
 62
     1
  5
65E
 10
581.860583
 20
251.945833
 30
0.0
 11
584.461083
 21
254.287333
 31
0.0
  0
LINE
  8
1
  6
CONTINUOUS
 62
     1
  5
65F
 10
576.100583
 20
246.7595
 30
0.0
 11
578.887417
 21
249.268833
 31
0.0
  0
LINE
  8
1
  6
CONTINUOUS
 62
     1
  5
660
 10
578.8875
 20
249.268833
 30
0.0
 11
579.259333
 21
249.603583
 31
0.0
  0
LINE
  8
1
  6
CONTINUOUS
 62
     1
  5
661
 10
580.0025
 20
250.27275
 30
0.0
 11
580.745583
 21
250.941833
 31
0.0
  0
LINE
  8
1
  6
CONTINUOUS
 62
     1
  5
662
 10
581.488667
 20
251.610917
 30
0.0
 11
581.860583
 21
251.945833
 31
0.0
  0
LINE
  8
1
  6
CONTINUOUS
 62
     1
  5
663
 10
518.600917
 20
208.0445
 30
0.0
 11
514.012333
 21
214.59775
 31
0.0
  0
LINE
  8
1
  6
CONTINUOUS
 62
     1
  5
664
 10
513.2765
 20
204.31625
 30
0.0
 11
508.687833
 21
210.8695
 31
0.0
  0
LINE
  8
1
  6
CONTINUOUS
 62
     1
  5
665
 10
518.600917
 20
208.0445
 30
0.0
 11
513.2765
 21
204.31625
 31
0.0
  0
LINE
  8
1
  6
CONTINUOUS
 62
     1
  5
666
 10
514.012333
 20
214.59775
 30
0.0
 11
517.493833
 21
217.0355
 31
0.0
  0
LINE
  8
1
  6
CONTINUOUS
 62
     1
  5
667
 10
508.524667
 20
205.872167
 30
0.0
 11
512.415583
 21
208.596583
 31
0.0
  0
LINE
  8
1
  6
CONTINUOUS
 62
     1
  5
668
 10
513.23475
 20
209.17025
 30
0.0
 11
514.053917
 21
209.74375
 31
0.0
  0
LINE
  8
1
  6
CONTINUOUS
 62
     1
  5
669
 10
514.873
 20
210.317333
 30
0.0
 11
518.764
 21
213.041833
 31
0.0
  0
LINE
  8
1
  6
HIDDEN
 62
     1
  5
66A
 10
517.208167
 20
208.29
 30
0.0
 11
513.522
 21
205.708917
 31
0.0
  0
LINE
  8
1
  6
HIDDEN
 62
     1
  5
66B
 10
509.506917
 20
211.443
 30
0.0
 11
513.19325
 21
214.02425
 31
0.0
  0
LINE
  8
1
  6
HIDDEN
 62
     1
  5
66C
 10
510.080417
 20
210.623833
 30
0.0
 11
513.76675
 21
213.205083
 31
0.0
  0
CIRCLE
  8
1
  6
CONTINUOUS
 62
     1
  5
66D
 10
490.414167
 20
234.79375
 30
0.0
 40
1.125
210
0.0
220
0.0
230
1.0
  0
CIRCLE
  8
1
  6
CONTINUOUS
 62
     1
  5
66E
 10
497.786917
 20
239.951
 30
0.0
 40
1.125
210
0.0
220
0.0
230
1.0
  0
LINE
  8
1
  6
CONTINUOUS
 62
     1
  5
66F
 10
487.138917
 20
232.4915
 30
0.0
 11
488.67775
 21
233.569
 31
0.0
  0
LINE
  8
1
  6
CONTINUOUS
 62
     1
  5
670
 10
489.906417
 20
234.42925
 30
0.0
 11
490.930417
 21
235.14625
 31
0.0
  0
LINE
  8
1
  6
CONTINUOUS
 62
     1
  5
671
 10
489.192417
 20
236.532333
 30
0.0
 11
484.679833
 21
242.97725
 31
0.0
  0
LINE
  8
1
  6
CONTINUOUS
 62
     1
  5
672
 10
493.570167
 20
230.280417
 30
0.0
 11
491.630083
 21
233.051083
 31
0.0
  0
LINE
  8
1
  6
CONTINUOUS
 62
     1
  5
673
 10
490.76975
 20
234.27975
 30
0.0
 11
490.052833
 21
235.30375
 31
0.0
  0
LINE
  8
1
  6
CONTINUOUS
 62
     1
  5
674
 10
492.159
 20
236.0065
 30
0.0
 11
496.048083
 21
238.72975
 31
0.0
  0
LINE
  8
1
  6
CONTINUOUS
 62
     1
  5
675
 10
497.276583
 20
239.59
 30
0.0
 11
498.300667
 21
240.307083
 31
0.0
  0
LINE
  8
1
  6
CONTINUOUS
 62
     1
  5
676
 10
496.56725
 20
241.691083
 30
0.0
 11
492.05225
 21
248.1395
 31
0.0
  0
LINE
  8
1
  6
CONTINUOUS
 62
     1
  5
677
 10
500.9425
 20
235.442583
 30
0.0
 11
499.004917
 21
238.209833
 31
0.0
  0
LINE
  8
1
  6
CONTINUOUS
 62
     1
  5
678
 10
498.144583
 20
239.4385
 30
0.0
 11
497.427667
 21
240.4625
 31
0.0
  0
LINE
  8
1
  6
CONTINUOUS
 62
     1
  5
679
 10
499.529333
 20
241.16725
 30
0.0
 11
504.750833
 21
244.823417
 31
0.0
  0
LINE
  8
1
  6
CONTINUOUS
 62
     1
  5
67A
 10
505.57
 20
245.397
 30
0.0
 11
506.389083
 21
245.9705
 31
0.0
  0
LINE
  8
1
  6
CONTINUOUS
 62
     1
  5
67B
 10
507.208167
 20
246.544
 30
0.0
 11
512.532667
 21
250.272333
 31
0.0
  0
LINE
  8
1
  6
CONTINUOUS
 62
     1
  5
67C
 10
505.2065
 20
208.431833
 30
0.0
 11
485.950667
 21
235.932083
 31
0.0
  0
LINE
  8
1
  6
CONTINUOUS
 62
     1
  5
67D
 10
485.377083
 20
236.75125
 30
0.0
 11
482.2225
 21
241.256583
 31
0.0
  0
LINE
  8
1
  6
CONTINUOUS
 62
     1
  5
67E
 10
517.493833
 20
217.0355
 30
0.0
 11
498.237917
 21
244.535833
 31
0.0
  0
LINE
  8
1
  6
CONTINUOUS
 62
     1
  5
67F
 10
497.664333
 20
245.354917
 30
0.0
 11
494.50975
 21
249.86025
 31
0.0
  0
LINE
  8
1
  6
CONTINUOUS
 62
     1
  5
680
 10
479.519333
 20
238.143167
 30
0.0
 11
482.796
 21
240.4375
 31
0.0
  0
LINE
  8
1
  6
CONTINUOUS
 62
     1
  5
681
 10
485.253333
 20
242.158167
 30
0.0
 11
488.529917
 21
244.452417
 31
0.0
  0
LINE
  8
1
  6
CONTINUOUS
 62
     1
  5
682
 10
489.349083
 20
245.026083
 30
0.0
 11
492.62575
 21
247.320417
 31
0.0
  0
LINE
  8
1
  6
CONTINUOUS
 62
     1
  5
683
 10
495.08325
 20
249.041167
 30
0.0
 11
498.359833
 21
251.335417
 31
0.0
  0
INSERT
  8
1
  6
CONTINUOUS
 62
     1
  5
684
  2
LDR
 10
495.08325
 20
249.041167
 30
0.0
 41
240.0
 42
240.0
 50
214.999551
210
0.0
220
0.0
230
1.0
  0
INSERT
  8
1
  6
CONTINUOUS
 62
     1
  5
685
  2
LDR
 10
492.62575
 20
247.320417
 30
0.0
 41
240.000001
 42
240.000001
 50
34.999844
210
0.0
220
0.0
230
1.0
  0
INSERT
  8
1
  6
CONTINUOUS
 62
     1
  5
686
  2
LDR
 10
492.62575
 20
247.320417
 30
0.0
 41
240.000001
 42
240.000001
 50
34.999844
210
0.0
220
0.0
230
1.0
  0
INSERT
  8
1
  6
CONTINUOUS
 62
     1
  5
687
  2
LDR
 10
485.253333
 20
242.158167
 30
0.0
 41
240.0
 42
240.0
 50
214.999551
210
0.0
220
0.0
230
1.0
  0
INSERT
  8
1
  6
CONTINUOUS
 62
     1
  5
688
  2
LDR
 10
482.796
 20
240.4375
 30
0.0
 41
240.000001
 42
240.000001
 50
34.999844
210
0.0
220
0.0
230
1.0
  0
LINE
  8
1
  6
CONTINUOUS
 62
     1
  5
689
 10
524.81725
 20
220.96025
 30
0.0
 11
504.996
 21
249.267917
 31
0.0
  0
LINE
  8
1
  6
CONTINUOUS
 62
     1
  5
68A
 10
510.525167
 20
253.139417
 30
0.0
 11
505.815083
 21
249.841417
 31
0.0
  0
LINE
  8
1
  6
CONTINUOUS
 62
     1
  5
68B
 10
504.996
 20
249.267917
 30
0.0
 11
503.972
 21
248.550917
 31
0.0
  0
LINE
  8
1
  6
CONTINUOUS
 62
     1
  5
68C
 10
507.411667
 20
255.842333
 30
0.0
 11
509.706
 21
252.56575
 31
0.0
  0
LINE
  8
1
  6
CONTINUOUS
 62
     1
  5
68D
 10
511.7135
 20
249.69875
 30
0.0
 11
514.00775
 21
246.422167
 31
0.0
  0
INSERT
  8
1
  6
CONTINUOUS
 62
     1
  5
68E
  2
LDR
 10
509.706
 20
252.56575
 30
0.0
 41
240.0
 42
240.0
 50
305.000528
210
0.0
220
0.0
230
1.0
  0
INSERT
  8
1
  6
CONTINUOUS
 62
     1
  5
68F
  2
LDR
 10
511.7135
 20
249.69875
 30
0.0
 41
240.0
 42
240.0
 50
124.999551
210
0.0
220
0.0
230
1.0
  0
LINE
  8
1
  6
CONTINUOUS
 62
     1
  5
690
 10
480.626167
 20
232.203833
 30
0.0
 11
485.131583
 21
235.358583
 31
0.0
  0
LINE
  8
1
  6
CONTINUOUS
 62
     1
  5
691
 10
485.950667
 20
235.932083
 30
0.0
 11
498.237917
 21
244.535833
 31
0.0
  0
LINE
  8
1
  6
CONTINUOUS
 62
     1
  5
692
 10
499.882
 20
204.7035
 30
0.0
 11
504.387417
 21
207.85825
 31
0.0
  0
LINE
  8
1
  6
CONTINUOUS
 62
     1
  5
693
 10
505.2065
 20
208.431833
 30
0.0
 11
508.687833
 21
210.8695
 31
0.0
  0
LINE
  8
1
  6
CONTINUOUS
 62
     1
  5
694
 10
481.445333
 20
232.777417
 30
0.0
 11
500.701167
 21
205.277083
 31
0.0
  0
INSERT
  8
1
  6
CONTINUOUS
 62
     1
  5
695
  2
LDR
 10
481.445333
 20
232.777417
 30
0.0
 41
240.000003
 42
240.000003
 50
124.99985
210
0.0
220
0.0
230
1.0
  0
INSERT
  8
1
  6
CONTINUOUS
 62
     1
  5
696
  2
LDR
 10
481.445333
 20
232.777417
 30
0.0
 41
240.000003
 42
240.000003
 50
124.99985
210
0.0
220
0.0
230
1.0
  0
INSERT
  8
1
  6
CONTINUOUS
 62
     1
  5
697
  2
LDR
 10
500.701167
 20
205.277083
 30
0.0
 41
240.000003
 42
240.000003
 50
304.99985
210
0.0
220
0.0
230
1.0
  0
LINE
  8
1
  6
CONTINUOUS
 62
     1
  5
698
 10
585.182583
 20
204.712333
 30
0.0
 11
585.182583
 21
200.712333
 31
0.0
  0
LINE
  8
1
  6
CONTINUOUS
 62
     1
  5
699
 10
585.182583
 20
207.962333
 30
0.0
 11
585.182583
 21
211.962333
 31
0.0
  0
INSERT
  8
1
  6
CONTINUOUS
 62
     1
  5
69A
  2
LDR
 10
585.182583
 20
207.962333
 30
0.0
 41
240.0
 42
240.0
 50
270.0
210
0.0
220
0.0
230
1.0
  0
INSERT
  8
1
  6
CONTINUOUS
 62
     1
  5
69B
  2
LDR
 10
585.182583
 20
204.712333
 30
0.0
 41
240.0
 42
240.0
 50
90.0
210
0.0
220
0.0
230
1.0
  0
LINE
  8
1
  6
CONTINUOUS
 62
     1
  5
69C
 10
528.682583
 20
218.262667
 30
0.0
 11
528.682583
 21
214.962333
 31
0.0
  0
LINE
  8
1
  6
CONTINUOUS
 62
     1
  5
69D
 10
528.682583
 20
214.962333
 30
0.0
 11
528.682583
 21
211.462333
 31
0.0
  0
INSERT
  8
1
  6
CONTINUOUS
 62
     1
  5
69E
  2
LDR
 10
528.682583
 20
212.566083
 30
0.0
 41
240.0
 42
240.0
 50
180.0
210
0.0
220
0.0
230
1.0
  0
INSERT
  8
1
  6
CONTINUOUS
 62
     1
  5
69F
  2
LDR
 10
598.682583
 20
212.566083
 30
0.0
 41
240.0
 42
240.0
210
0.0
220
0.0
230
1.0
  0
LINE
  8
1
  6
CONTINUOUS
 62
     1
  5
6A0
 10
581.673083
 20
250.431417
 30
0.0
 11
584.39825
 21
245.832417
 31
0.0
  0
LINE
  8
1
  6
CONTINUOUS
 62
     1
  5
6A1
 10
584.39825
 20
245.832417
 30
0.0
 11
589.126333
 21
245.832417
 31
0.0
  0
INSERT
  8
1
  6
CONTINUOUS
 62
     1
  5
6A2
  2
LDR
 10
581.673083
 20
250.431417
 30
0.0
 41
239.999998
 42
239.999998
 50
120.649131
210
0.0
220
0.0
230
1.0
  0
LINE
  8
1
  6
CONTINUOUS
 62
     1
  5
6A3
 10
595.12075
 20
229.66175
 30
0.0
 11
598.790417
 21
234.08175
 31
0.0
  0
LINE
  8
1
  6
CONTINUOUS
 62
     1
  5
6A4
 10
598.790417
 20
234.08175
 30
0.0
 11
604.62875
 21
234.08175
 31
0.0
  0
INSERT
  8
1
  6
CONTINUOUS
 62
     1
  5
6A5
  2
LDR
 10
595.12075
 20
229.66175
 30
0.0
 41
239.999999
 42
239.999999
 50
230.299141
210
0.0
220
0.0
230
1.0
  0
LINE
  8
1
  6
CONTINUOUS
 62
     1
  5
6A6
 10
598.682583
 20
214.409417
 30
0.0
 11
607.28375
 21
207.31825
 31
0.0
  0
LINE
  8
1
  6
CONTINUOUS
 62
     1
  5
6A7
 10
607.28375
 20
207.31825
 30
0.0
 11
612.667
 21
207.31825
 31
0.0
  0
INSERT
  8
1
  6
CONTINUOUS
 62
     1
  5
6A8
  2
LDR
 10
598.682583
 20
214.409417
 30
0.0
 41
240.000001
 42
240.000001
 50
140.496383
210
0.0
220
0.0
230
1.0
  0
LINE
  8
1
  6
CONTINUOUS
 62
     1
  5
6A9
 10
512.396417
 20
205.573167
 30
0.0
 11
505.588417
 21
197.444833
 31
0.0
  0
LINE
  8
1
  6
CONTINUOUS
 62
     1
  5
6AA
 10
525.182583
 20
210.393833
 30
0.0
 11
510.108333
 21
187.81625
 31
0.0
  0
LINE
  8
1
  6
CONTINUOUS
 62
     1
  5
6AB
 10
525.182583
 20
191.042167
 30
0.0
 11
517.556083
 21
180.332167
 31
0.0
  0
LINE
  8
1
  6
CONTINUOUS
 62
     1
  5
6AC
 10
505.588417
 20
197.444833
 30
0.0
 11
493.028083
 21
197.444833
 31
0.0
  0
LINE
  8
1
  6
CONTINUOUS
 62
     1
  5
6AD
 10
510.108333
 20
187.81625
 30
0.0
 11
503.209333
 21
187.81625
 31
0.0
  0
LINE
  8
1
  6
CONTINUOUS
 62
     1
  5
6AE
 10
517.556083
 20
180.332167
 30
0.0
 11
490.163667
 21
180.332167
 31
0.0
  0
INSERT
  8
1
  6
CONTINUOUS
 62
     1
  5
6AF
  2
LDR
 10
512.396417
 20
205.573167
 30
0.0
 41
240.000001
 42
240.000001
 50
50.051668
210
0.0
220
0.0
230
1.0
  0
INSERT
  8
1
  6
CONTINUOUS
 62
     1
  5
6B0
  2
LDR
 10
512.396417
 20
205.573167
 30
0.0
 41
240.000001
 42
240.000001
 50
50.051668
210
0.0
220
0.0
230
1.0
  0
INSERT
  8
1
  6
CONTINUOUS
 62
     1
  5
6B1
  2
LDR
 10
525.182583
 20
210.393833
 30
0.0
 41
239.999999
 42
239.999999
 50
56.270388
210
0.0
220
0.0
230
1.0
  0
INSERT
  8
1
  6
CONTINUOUS
 62
     1
  5
6B2
  2
LDR
 10
525.182583
 20
210.393833
 30
0.0
 41
239.999999
 42
239.999999
 50
56.270388
210
0.0
220
0.0
230
1.0
  0
INSERT
  8
1
  6
CONTINUOUS
 62
     1
  5
6B3
  2
LDR
 10
525.182583
 20
191.042167
 30
0.0
 41
240.0
 42
240.0
 50
54.545655
210
0.0
220
0.0
230
1.0
  0
INSERT
  8
1
  6
CONTINUOUS
 62
     1
  5
6B4
  2
LDR
 10
525.182583
 20
191.042167
 30
0.0
 41
240.0
 42
240.0
 50
54.545655
210
0.0
220
0.0
230
1.0
  0
LINE
  8
1
  6
CONTINUOUS
 62
     1
  5
6B5
 10
531.559667
 20
217.212333
 30
0.0
 11
563.682583
 21
217.212333
 31
0.0
  0
LINE
  8
1
  6
CONTINUOUS
 62
     1
  5
6B6
 10
563.682583
 20
217.212333
 30
0.0
 11
595.81775
 21
217.212333
 31
0.0
  0
ARC
  8
1
  6
CONTINUOUS
 62
     1
  5
6B7
 10
567.343465
 20
293.663364
 30
0.0
 40
76.538632
 50
206.852594
 51
214.711428
210
0.0
220
0.0
230
1.0
  0
ARC
  8
1
  6
CONTINUOUS
 62
     1
  5
6B8
 10
562.941961
 20
285.488791
 30
0.0
 40
68.280474
 50
212.779058
 51
270.621483
210
0.0
220
0.0
230
1.0
  0
TEXT
  8
1
  6
CONTINUOUS
 62
     7
  5
6B9
 10
584.857833
 20
264.4185
 30
0.0
 40
2.5
  1
FIELD DRILL POLE
  7
MONOTXT
 11
584.857833
 21
266.9185
 31
0.0
210
0.0
220
0.0
230
1.0
 73
     3
  0
TEXT
  8
1
  6
CONTINUOUS
 62
     7
  5
6BA
 10
584.857833
 20
259.9185
 30
0.0
 40
2.5
  1
.290 DIA. DRILL - 4 HOLES.
  7
MONOTXT
 11
584.857833
 21
262.4185
 31
0.0
210
0.0
220
0.0
230
1.0
 73
     3
  0
TEXT
  8
1
  6
CONTINUOUS
 62
     7
  5
6BB
 10
590.677833
 20
244.736667
 30
0.0
 40
2.5
  1
 5/16 " DIA. x  3/4 " HEX. HD.
  7
MONOTXT
 11
590.677833
 21
247.236667
 31
0.0
210
0.0
220
0.0
230
1.0
 73
     3
  0
TEXT
  8
1
  6
CONTINUOUS
 62
     7
  5
6BC
 10
590.677833
 20
240.236667
 30
0.0
 40
2.5
  1
SELF TAPPING SCREWS
  7
MONOTXT
 11
590.677833
 21
242.736667
 31
0.0
210
0.0
220
0.0
230
1.0
 73
     3
  0
TEXT
  8
1
  6
CONTINUOUS
 62
     7
  5
6BD
 10
605.604417
 20
232.894667
 30
0.0
 40
2.5
  1
 3/16 " x 2" BAR STOCK
  7
MONOTXT
210
0.0
220
0.0
230
1.0
  0
TEXT
  8
1
  6
CONTINUOUS
 62
     7
  5
6BE
 10
613.656833
 20
206.568333
 30
0.0
 40
2.5
  1
ENCLOSURE WALL
  7
MONOTXT
210
0.0
220
0.0
230
1.0
  0
TEXT
  8
1
  6
CONTINUOUS
 62
     7
  5
6BF
 10
448.376917
 20
200.813167
 30
0.0
 40
2.5
  1
FORMED HIMGE TO BE
  7
MONOTXT
 11
448.376917
 21
203.313167
 31
0.0
210
0.0
220
0.0
230
1.0
 73
     3
  0
TEXT
  8
1
  6
CONTINUOUS
 62
     7
  5
6C0
 10
448.376917
 20
196.313167
 30
0.0
 40
2.5
  1
SNUG FIT ON 5/8 " BOLT.
  7
MONOTXT
 11
448.376917
 21
198.813167
 31
0.0
210
0.0
220
0.0
230
1.0
 73
     3
  0
TEXT
  8
1
  6
CONTINUOUS
 62
     7
  5
6C1
 10
430.127417
 20
186.422667
 30
0.0
 40
2.5
  1
 5/8 " x 2 1/2 " HEX. HEAD MACHINE BOLT
  7
MONOTXT
210
0.0
220
0.0
230
1.0
  0
TEXT
  8
1
  6
CONTINUOUS
 62
     7
  5
6C2
 10
442.73425
 20
179.31275
 30
0.0
 40
2.5
  1
HEX. SELF LOCKING NUT
  7
MONOTXT
210
0.0
220
0.0
230
1.0
  0
TEXT
  8
1
  6
CONTINUOUS
 62
     7
  5
6C3
 10
565.624417
 20
211.11425
 30
0.0
 40
2.5
  1
9 1/8 "
  7
MONOTXT
210
0.0
220
0.0
230
1.0
  0
LINE
  8
1
  6
CONTINUOUS
 62
     1
  5
6C4
 10
528.682583
 20
212.566083
 30
0.0
 11
565.266667
 21
212.566083
 31
0.0
  0
LINE
  8
1
  6
CONTINUOUS
 62
     1
  5
6C5
 10
573.556917
 20
212.566083
 30
0.0
 11
598.682583
 21
212.566083
 31
0.0
  0
TEXT
  8
1
  6
CONTINUOUS
 62
     7
  5
6C6
 10
582.896417
 20
197.069417
 30
0.0
 40
2.5
  1
 1/2 "
  7
MONOTXT
210
0.0
220
0.0
230
1.0
  0
TEXT
  8
1
  6
CONTINUOUS
 62
     7
  5
6C7
 10
514.530583
 20
242.199917
 30
0.0
 40
2.5
  1
 1/2 "
 50
35.000567
  7
MONOTXT
 11
513.096622
 21
244.247783
 31
0.0
210
0.0
220
0.0
230
1.0
 73
     3
  0
TEXT
  8
1
  6
CONTINUOUS
 62
     7
  5
6C8
 10
496.230167
 20
251.9725
 30
0.0
 40
2.5
  1
 1/2 "
 50
35.000567
  7
MONOTXT
 11
494.796205
 21
254.020366
 31
0.0
210
0.0
220
0.0
230
1.0
 73
     3
  0
TEXT
  8
1
  6
CONTINUOUS
 62
     7
  5
6C9
 10
476.141
 20
235.317833
 30
0.0
 40
2.5
  1
 1/2 "
 50
35.000567
  7
MONOTXT
 11
474.707039
 21
237.365699
 31
0.0
210
0.0
220
0.0
230
1.0
 73
     3
  0
TEXT
  8
1
  6
CONTINUOUS
 62
     7
  5
6CA
 10
485.720167
 20
220.3425
 30
0.0
 40
2.5
  1
4 1/2 "
 50
304.99985
  7
MONOTXT
 11
487.768051
 21
221.776436
 31
0.0
210
0.0
220
0.0
230
1.0
 73
     3
  0
TEXT
  8
1
  6
CONTINUOUS
 62
     7
  5
6CB
 10
495.386417
 20
233.01575
 30
0.0
 40
3.0
  1
PART "B"
 50
304.999967
  7
MONOTXT
 11
497.843874
 21
234.736478
 31
0.0
210
0.0
220
0.0
230
1.0
 73
     3
  0
TEXT
  8
1
  6
CONTINUOUS
 62
     7
  5
6CC
 10
551.042833
 20
199.108417
 30
0.0
 40
3.0
  1
PART "A"
  7
MONOTXT
 11
551.042833
 21
202.108417
 31
0.0
210
0.0
220
0.0
230
1.0
 73
     3
  0
TEXT
  8
1
  6
CONTINUOUS
 62
     7
  5
6CD
 10
526.530583
 20
242.669833
 30
0.0
 40
3.0
  1
18" DIA.
 50
35.000567
  7
MONOTXT
 11
524.80983
 21
245.127272
 31
0.0
210
0.0
220
0.0
230
1.0
 73
     3
  0
TEXT
  8
1
  6
CONTINUOUS
 62
     7
  5
6CE
 10
506.797
 20
382.321833
 30
0.0
 40
2.5
  1
1.   FINAL LOCATION OF THE SERVICE POLE SHALL BE DETERMINED
  7
MONOTXT
 11
506.797
 21
384.821833
 31
0.0
210
0.0
220
0.0
230
1.0
 73
     3
  0
TEXT
  8
1
  6
CONTINUOUS
 62
     7
  5
6CF
 10
506.797
 20
377.821833
 30
0.0
 40
2.5
  1
   IN THE FIELD BY THE ENGINEER.
  7
MONOTXT
 11
506.797
 21
380.321833
 31
0.0
210
0.0
220
0.0
230
1.0
 73
     3
  0
TEXT
  8
1
  6
CONTINUOUS
 62
     7
  5
6D0
 10
506.797
 20
373.321833
 30
0.0
 40
2.5
  1
 
  7
MONOTXT
 11
506.797
 21
375.821833
 31
0.0
210
0.0
220
0.0
230
1.0
 73
     3
  0
TEXT
  8
1
  6
CONTINUOUS
 62
     7
  5
6D1
 10
506.797
 20
368.821833
 30
0.0
 40
2.5
  1
2.   PHOTOELECTRIC CELL WILL BE PHOTOCELL - TWISTLOCK TYPE,
  7
MONOTXT
 11
506.797
 21
371.321833
 31
0.0
210
0.0
220
0.0
230
1.0
 73
     3
  0
TEXT
  8
1
  6
CONTINUOUS
 62
     7
  5
6D2
 10
506.797
 20
364.321833
 30
0.0
 40
2.5
  1
   STANDARD NEMA WITH 2 3/4 " ID LOCKING BASE.
  7
MONOTXT
 11
506.797
 21
366.821833
 31
0.0
210
0.0
220
0.0
230
1.0
 73
     3
  0
TEXT
  8
1
  6
CONTINUOUS
 62
     7
  5
6D3
 10
506.797
 20
359.821833
 30
0.0
 40
2.5
  1
 
  7
MONOTXT
 11
506.797
 21
362.321833
 31
0.0
210
0.0
220
0.0
230
1.0
 73
     3
  0
TEXT
  8
1
  6
CONTINUOUS
 62
     7
  5
6D4
 10
506.797
 20
355.321833
 30
0.0
 40
2.5
  1
3.   THE P.E. UNIT SHALL NORMALLY BE MOUNTED ON THE SAME
  7
MONOTXT
 11
506.797
 21
357.821833
 31
0.0
210
0.0
220
0.0
230
1.0
 73
     3
  0
TEXT
  8
1
  6
CONTINUOUS
 62
     7
  5
6D5
 10
506.797
 20
350.821833
 30
0.0
 40
2.5
  1
   POLE AS THE CONTROL STATION CABINET IS MOUNTED. THE
  7
MONOTXT
 11
506.797
 21
353.321833
 31
0.0
210
0.0
220
0.0
230
1.0
 73
     3
  0
TEXT
  8
1
  6
CONTINUOUS
 62
     7
  5
6D6
 10
506.797
 20
346.321833
 30
0.0
 40
2.5
  1
   P.E. UNIT FOR GROUND MOUNTED CONTROL STATIONS SHALL
  7
MONOTXT
 11
506.797
 21
348.821833
 31
0.0
210
0.0
220
0.0
230
1.0
 73
     3
  0
TEXT
  8
1
  6
CONTINUOUS
 62
     7
  5
6D7
 10
506.797
 20
341.821833
 30
0.0
 40
2.5
  1
   BE MOUNTED AT THE ENCLOSURE (AS DETAILED ON TEL-23)
  7
MONOTXT
 11
506.797
 21
344.321833
 31
0.0
210
0.0
220
0.0
230
1.0
 73
     3
  0
TEXT
  8
1
  6
CONTINUOUS
 62
     7
  5
6D8
 10
506.797
 20
337.321833
 30
0.0
 40
2.5
  1
   UNLESS OTHERWISE DIRECTED ON THE PLANS.
  7
MONOTXT
 11
506.797
 21
339.821833
 31
0.0
210
0.0
220
0.0
230
1.0
 73
     3
  0
TEXT
  8
1
  6
CONTINUOUS
 62
     7
  5
6D9
 10
506.797
 20
332.821833
 30
0.0
 40
2.5
  1
 
  7
MONOTXT
 11
506.797
 21
335.321833
 31
0.0
210
0.0
220
0.0
230
1.0
 73
     3
  0
TEXT
  8
1
  6
CONTINUOUS
 62
     7
  5
6DA
 10
506.797
 20
328.321833
 30
0.0
 40
2.5
  1
4.   CONDUIT CONNECTION TO ALL CABINETS SHALL BE MADE
  7
MONOTXT
 11
506.797
 21
330.821833
 31
0.0
210
0.0
220
0.0
230
1.0
 73
     3
  0
TEXT
  8
1
  6
CONTINUOUS
 62
     7
  5
6DB
 10
506.797
 20
323.821833
 30
0.0
 40
2.5
  1
   THROUGH THE BASE OF THE CABINETS ONLY (EXCEPT P.E.).
  7
MONOTXT
 11
506.797
 21
326.321833
 31
0.0
210
0.0
220
0.0
230
1.0
 73
     3
  0
TEXT
  8
1
  6
CONTINUOUS
 62
     7
  5
6DC
 10
506.797
 20
319.321833
 30
0.0
 40
2.5
  1
 
  7
MONOTXT
 11
506.797
 21
321.821833
 31
0.0
210
0.0
220
0.0
230
1.0
 73
     3
  0
TEXT
  8
1
  6
CONTINUOUS
 62
     7
  5
6DD
 10
506.797
 20
314.821833
 30
0.0
 40
2.5
  1
5.   THE CONTROL STATION CABINET IS POLE MOUNTED ON THE
  7
MONOTXT
 11
506.797
 21
317.321833
 31
0.0
210
0.0
220
0.0
230
1.0
 73
     3
  0
TEXT
  8
1
  6
CONTINUOUS
 62
     7
  5
6DE
 10
506.797
 20
310.321833
 30
0.0
 40
2.5
  1
   SERVICE POLE UNLESS OTHERWISE DIRECTED ON THE PLANS
  7
MONOTXT
 11
506.797
 21
312.821833
 31
0.0
210
0.0
220
0.0
230
1.0
 73
     3
  0
TEXT
  8
1
  6
CONTINUOUS
 62
     7
  5
6DF
 10
506.797
 20
305.821833
 30
0.0
 40
2.5
  1
   (E.G. ON THE FIRST POLE OF LIGHTING CIRCUIT).
  7
MONOTXT
 11
506.797
 21
308.321833
 31
0.0
210
0.0
220
0.0
230
1.0
 73
     3
  0
TEXT
  8
1
  6
CONTINUOUS
 62
     7
  5
6E0
 10
506.797
 20
301.321833
 30
0.0
 40
2.5
  1
 
  7
MONOTXT
 11
506.797
 21
303.821833
 31
0.0
210
0.0
220
0.0
230
1.0
 73
     3
  0
TEXT
  8
1
  6
CONTINUOUS
 62
     7
  5
6E1
 10
506.797
 20
296.821833
 30
0.0
 40
2.5
  1
6.   THE METHOD SHOWN FOR CONTROL STATION CABINET POLE
  7
MONOTXT
 11
506.797
 21
299.321833
 31
0.0
210
0.0
220
0.0
230
1.0
 73
     3
  0
TEXT
  8
1
  6
CONTINUOUS
 62
     7
  5
6E2
 10
506.797
 20
292.321833
 30
0.0
 40
2.5
  1
   MOUNTING SHALL BE USED ONLY IN SITUATIONS WHERE SMALL
  7
MONOTXT
 11
506.797
 21
294.821833
 31
0.0
210
0.0
220
0.0
230
1.0
 73
     3
  0
TEXT
  8
1
  6
CONTINUOUS
 62
     7
  5
6E3
 10
506.797
 20
287.821833
 30
0.0
 40
2.5
  1
   CONTROL CABINETS ARE USED. FOR LARGER CABINETS, MOUNTING
  7
MONOTXT
 11
506.797
 21
290.321833
 31
0.0
210
0.0
220
0.0
230
1.0
 73
     3
  0
TEXT
  8
1
  6
CONTINUOUS
 62
     7
  5
6E4
 10
506.797
 20
283.321833
 30
0.0
 40
2.5
  1
   METHOD ON SHEET TEL-23 SHALL BE USED.
  7
MONOTXT
 11
506.797
 21
285.821833
 31
0.0
210
0.0
220
0.0
230
1.0
 73
     3
  0
TEXT
  8
1
  6
CONTINUOUS
 62
     7
  5
6E5
 10
507.386417
 20
392.193667
 30
0.0
 40
3.0
  1
NOTES:
  7
MONOTXT
210
0.0
220
0.0
230
1.0
  0
LINE
  8
1
  6
CONTINUOUS
 62
     7
  5
6E6
 10
506.238667
 20
391.236917
 30
0.0
 11
523.846583
 21
391.236917
 31
0.0
  0
TEXT
  8
1
  6
CONTINUOUS
 62
     7
  5
6E7
 10
366.086583
 20
268.67975
 30
0.0
 40
2.5
  1
NOTE:  PHOTOCELL "WINDOW" SHALL BE
  7
MONOTXT
 11
366.086583
 21
271.17975
 31
0.0
210
0.0
220
0.0
230
1.0
 73
     3
  0
TEXT
  8
1
  6
CONTINUOUS
 62
     7
  5
6E8
 10
366.086583
 20
264.17975
 30
0.0
 40
2.5
  1
     ORIENTED NORTH. IF NOT POSSIBLE,
  7
MONOTXT
 11
366.086583
 21
266.67975
 31
0.0
210
0.0
220
0.0
230
1.0
 73
     3
  0
TEXT
  8
1
  6
CONTINUOUS
 62
     7
  5
6E9
 10
366.086583
 20
259.67975
 30
0.0
 40
2.5
  1
     ORIENT SOUTH. ALSO - SEE NOTE 2.
  7
MONOTXT
 11
366.086583
 21
262.17975
 31
0.0
210
0.0
220
0.0
230
1.0
 73
     3
  0
TEXT
  8
1
  6
CONTINUOUS
 62
     7
  5
6EA
 10
529.753
 20
145.535583
 30
0.0
 40
3.0
  1
 23/32 
  7
MONOTXT
210
0.0
220
0.0
230
1.0
  0
TEXT
  8
1
  6
CONTINUOUS
 62
     7
  5
6EB
 10
529.777667
 20
172.523333
 30
0.0
 40
3.5
  1
 41/64 
  7
MONOTXT
210
0.0
220
0.0
230
1.0
  0
LINE
  8
1
  6
CONTINUOUS
 62
     7
  5
6EC
 10
500.6725
 20
105.767917
 30
0.0
 11
496.6725
 21
105.767917
 31
0.0
  0
LINE
  8
1
  6
CONTINUOUS
 62
     7
  5
6ED
 10
498.6725
 20
109.232
 30
0.0
 11
496.6725
 21
105.767917
 31
0.0
  0
LINE
  8
1
  6
CONTINUOUS
 62
     7
  5
6EE
 10
498.6725
 20
109.232
 30
0.0
 11
500.6725
 21
105.767917
 31
0.0
  0
TEXT
  8
1
  6
CONTINUOUS
 62
     7
  5
6EF
 10
497.999167
 20
106.05125
 30
0.0
 40
2.0
  1
3
  7
MONOTXT
210
0.0
220
0.0
230
1.0
  0
TEXT
  8
1
  6
CONTINUOUS
 62
     7
  5
6F0
 10
501.61675
 20
106.48175
 30
0.0
 40
2.0
  1
PE CELL RELOCATED, SERVICE POLE REVISED,
  7
MONOTXT
 11
501.61675
 21
108.48175
 31
0.0
210
0.0
220
0.0
230
1.0
 73
     3
  0
TEXT
  8
1
  6
CONTINUOUS
 62
     7
  5
6F1
 10
501.61675
 20
102.48175
 30
0.0
 40
2.0
  1
SAME NOTES (3 AND 5) REVISED
  7
MONOTXT
 11
501.61675
 21
104.48175
 31
0.0
210
0.0
220
0.0
230
1.0
 73
     3
  0
LINE
  8
1
  6
CONTINUOUS
 62
     7
  5
6F2
 10
501.293667
 20
36.878417
 30
0.0
 11
497.293667
 21
36.878417
 31
0.0
  0
LINE
  8
1
  6
CONTINUOUS
 62
     7
  5
6F3
 10
499.293667
 20
40.3425
 30
0.0
 11
497.293667
 21
36.878417
 31
0.0
  0
LINE
  8
1
  6
CONTINUOUS
 62
     7
  5
6F4
 10
499.293667
 20
40.3425
 30
0.0
 11
501.293667
 21
36.878417
 31
0.0
  0
TEXT
  8
1
  6
CONTINUOUS
 62
     7
  5
6F5
 10
498.586333
 20
37.19075
 30
0.0
 40
2.0
  1
3
  7
MONOTXT
210
0.0
220
0.0
230
1.0
  0
ENDSEC
  0
EOF
