  0
SECTION
  2
HEADER
  9
$ACADVER
  1
AC1009
  9
$INSBASE
 10
0.0
 20
0.0
 30
0.0
  9
$EXTMIN
 10
-1.296667
 20
-0.001833
 30
0.0
  9
$EXTMAX
 10
678.783333
 20
440.397917
 30
0.0
  9
$LIMMIN
 10
0.0
 20
0.0
  9
$LIMMAX
 10
12.0
 20
9.0
  9
$ORTHOMODE
 70
     0
  9
$REGENMODE
 70
     1
  9
$FILLMODE
 70
     1
  9
$QTEXTMODE
 70
     0
  9
$MIRRTEXT
 70
     1
  9
$DRAGMODE
 70
     2
  9
$LTSCALE
 40
1.0
  9
$OSMODE
 70
     0
  9
$ATTMODE
 70
     1
  9
$TEXTSIZE
 40
0.2
  9
$TRACEWID
 40
0.05
  9
$TEXTSTYLE
  7
STANDARD
  9
$CLAYER
  8
0
  9
$CELTYPE
  6
CONTINUOUS
  9
$CECOLOR
 62
   256
  9
$DIMSCALE
 40
1.0
  9
$DIMASZ
 40
0.18
  9
$DIMEXO
 40
0.0625
  9
$DIMDLI
 40
0.38
  9
$DIMRND
 40
0.0
  9
$DIMDLE
 40
0.0
  9
$DIMEXE
 40
0.18
  9
$DIMTP
 40
0.0
  9
$DIMTM
 40
0.0
  9
$DIMTXT
 40
0.18
  9
$DIMCEN
 40
0.09
  9
$DIMTSZ
 40
0.0
  9
$DIMTOL
 70
     0
  9
$DIMLIM
 70
     0
  9
$DIMTIH
 70
     1
  9
$DIMTOH
 70
     1
  9
$DIMSE1
 70
     0
  9
$DIMSE2
 70
     0
  9
$DIMTAD
 70
     0
  9
$DIMZIN
 70
     0
  9
$DIMBLK
  1

  9
$DIMASO
 70
     1
  9
$DIMSHO
 70
     1
  9
$DIMPOST
  1

  9
$DIMAPOST
  1

  9
$DIMALT
 70
     0
  9
$DIMALTD
 70
     2
  9
$DIMALTF
 40
25.4
  9
$DIMLFAC
 40
1.0
  9
$DIMTOFL
 70
     0
  9
$DIMTVP
 40
0.0
  9
$DIMTIX
 70
     0
  9
$DIMSOXD
 70
     0
  9
$DIMSAH
 70
     0
  9
$DIMBLK1
  1

  9
$DIMBLK2
  1

  9
$DIMSTYLE
  2
STANDARD
  9
$DIMCLRD
 70
     0
  9
$DIMCLRE
 70
     0
  9
$DIMCLRT
 70
     0
  9
$DIMTFAC
 40
1.0
  9
$DIMGAP
 40
0.09
  9
$LUNITS
 70
     2
  9
$LUPREC
 70
     4
  9
$AXISMODE
 70
     0
  9
$AXISUNIT
 10
0.0
 20
0.0
  9
$SKETCHINC
 40
0.1
  9
$FILLETRAD
 40
0.0
  9
$AUNITS
 70
     0
  9
$AUPREC
 70
     0
  9
$MENU
  1
acad
  9
$ELEVATION
 40
0.0
  9
$PELEVATION
 40
0.0
  9
$THICKNESS
 40
0.0
  9
$LIMCHECK
 70
     0
  9
$BLIPMODE
 70
     1
  9
$CHAMFERA
 40
0.0
  9
$CHAMFERB
 40
0.0
  9
$SKPOLY
 70
     0
  9
$TDCREATE
 40
2451803.431111111
  9
$TDUPDATE
 40
2451803.431111111
  9
$TDINDWG
 40
0.0000000000
  9
$TDUSRTIMER
 40
0.0000000000
  9
$USRTIMER
 70
     1
  9
$ANGBASE
 50
0.0
  9
$ANGDIR
 70
     0
  9
$PDMODE
 70
     0
  9
$PDSIZE
 40
0.0
  9
$PLINEWID
 40
0.0
  9
$COORDS
 70
     0
  9
$SPLFRAME
 70
     0
  9
$SPLINETYPE
 70
     6
  9
$SPLINESEGS
 70
    10
  9
$ATTDIA
 70
     0
  9
$ATTREQ
 70
     1
  9
$HANDLING
 70
     1
  9
$HANDSEED
  5
9BE
  9
$SURFTAB1
 70
     6
  9
$SURFTAB2
 70
     6
  9
$SURFTYPE
 70
     6
  9
$SURFU
 70
     6
  9
$SURFV
 70
     6
  9
$UCSNAME
  2

  9
$UCSORG
 10
0.0
 20
0.0
 30
0.0
  9
$UCSXDIR
 10
1.0
 20
0.0
 30
0.0
  9
$UCSYDIR
 10
0.0
 20
1.0
 30
0.0
  9
$PUCSNAME
  2

  9
$PUCSORG
 10
0.0
 20
0.0
 30
0.0
  9
$PUCSXDIR
 10
1.0
 20
0.0
 30
0.0
  9
$PUCSYDIR
 10
0.0
 20
1.0
 30
0.0
  9
$USERI1
 70
     0
  9
$USERI2
 70
     0
  9
$USERI3
 70
     0
  9
$USERI4
 70
     0
  9
$USERI5
 70
     0
  9
$USERR1
 40
0.0
  9
$USERR2
 40
0.0
  9
$USERR3
 40
0.0
  9
$USERR4
 40
0.0
  9
$USERR5
 40
0.0
  9
$WORLDVIEW
 70
     1
  9
$SHADEDGE
 70
     3
  9
$SHADEDIF
 70
    70
  9
$TILEMODE
 70
     1
  9
$MAXACTVP
 70
    16
  9
$PINSBASE
 10
0.0
 20
0.0
 30
0.0
  9
$PLIMCHECK
 70
     0
  9
$PEXTMIN
 10
-1.000000E+20
 20
-1.000000E+20
 30
-1.000000E+20
  9
$PEXTMAX
 10
-1.000000E+20
 20
-1.000000E+20
 30
-1.000000E+20
  9
$PLIMMIN
 10
0.0
 20
0.0
  9
$PLIMMAX
 10
12.0
 20
9.0
  9
$UNITMODE
 70
     0
  9
$VISRETAIN
 70
     0
  9
$PLINEGEN
 70
     1
  9
$PSLTSCALE
 70
     0
  9
$TREEDEPTH
 70
  3020
  9
$DWGCODEPAGE
  3
ansi_1252
  0
ENDSEC
  0
SECTION
  2
TABLES
  0
TABLE
  2
VPORT
 70
     1
  0
VPORT
  2
*ACTIVE
 70
     0
 10
0.0
 20
0.0
 11
1.0
 21
1.0
 12
0.0
 22
0.0
 13
0.0
 23
0.0
 14
0.0
 24
0.0
 15
0.0
 25
0.0
 16
0.0
 26
0.0
 36
1.0
 17
292.979633
 27
220.377917
 37
0.0
 40
451.041
 41
1.795122
 42
50.0
 43
0.0
 44
0.0
 50
0.0
 51
0.0
 71
     0
 72
   100
 73
     1
 74
     0
 75
     0
 76
     0
 77
     0
 78
     0
  0
ENDTAB
  0
TABLE
  2
LTYPE
 70
     7
  0
LTYPE
  2
CONTINUOUS
 70
     0
  3
Solid line
 72
    65
 73
     0
 40
0.0
  0
LTYPE
  2
DOT
 70
    64
  3
. . . . . . . . . . . . . . . . . . . . . . . . . . . . . . . . .
 72
    65
 73
     2
 40
0.25
 49
0.0
 49
-0.25
  0
LTYPE
  2
HIDDEN
 70
    64
  3
__ __ __ __ __ __ __ __ __ __ __ __ __ __ __ __ __ __ __ __ __ 
 72
    65
 73
     2
 40
0.375
 49
0.25
 49
-0.125
  0
LTYPE
  2
DASHED
 70
    64
  3
__ __ __ __ __ __ __ __ __ __ __ __ __ __ __ __ __ __ __ __ __
 72
    65
 73
     2
 40
0.75
 49
0.5
 49
-0.25
  0
LTYPE
  2
DASHDOT
 70
    64
  3
__ . __ . __ . __ . __ . __ . __ . __ . __ . __ . __ . __ . _
 72
    65
 73
     4
 40
1.0
 49
0.5
 49
-0.25
 49
0.0
 49
-0.25
  0
LTYPE
  2
DIVIDE
 70
    64
  3
____ . . ____ . . ____ . . ____ . . ____ . . ____ . . ____ . .
 72
    65
 73
     6
 40
1.25
 49
0.5
 49
-0.25
 49
0.0
 49
-0.25
 49
0.0
 49
-0.25
  0
LTYPE
  2
CENTER
 70
    64
  3
____ _ ____ _ ____ _ ____ _ ____ _ ____ _ ____ _ ____ _ ____ _
 72
    65
 73
     4
 40
2.0
 49
1.25
 49
-0.25
 49
0.25
 49
-0.25
  0
ENDTAB
  0
TABLE
  2
LAYER
 70
     5
  0
LAYER
  2
0
 70
     0
 62
     7
  6
CONTINUOUS
  0
LAYER
  2
CONSTRUCTION_CLASS
 70
     0
 62
     7
  6
CONTINUOUS
  0
LAYER
  2
PATTERN_CLASS
 70
     0
 62
     7
  6
CONTINUOUS
  0
LAYER
  2
61
 70
    64
 62
     7
  6
CONTINUOUS
  0
LAYER
  2
1
 70
    64
 62
     7
  6
CONTINUOUS
  0
ENDTAB
  0
TABLE
  2
STYLE
 70
     4
  0
STYLE
  2
STANDARD
 70
     0
 40
0.0
 41
1.0
 50
0.0
 71
     0
 42
0.0
  3
txt
  4

  0
STYLE
  2
MONOTXT
 70
     0
 40
0.2
 41
1.0
 50
0.0
 71
     0
 42
0.2
  3
MONOTXT
  4

  0
STYLE
  2
txt
 70
     0
 40
0.2
 41
1.0
 50
0.0
 71
     0
 42
0.2
  3
TXT
  4

  0
STYLE
  2
ROMANT
 70
     0
 40
0.2
 41
1.0
 50
0.0
 71
     0
 42
0.2
  3
ROMANT
  4

  0
ENDTAB
  0
TABLE
  2
VIEW
 70
     0
  0
ENDTAB
  0
TABLE
  2
UCS
 70
     0
  0
ENDTAB
  0
TABLE
  2
APPID
 70
     1
  0
APPID
  2
ACAD
 70
     0
  0
ENDTAB
  0
TABLE
  2
DIMSTYLE
 70
     1
  0
DIMSTYLE
  2
STANDARD
 70
     0
  3

  4

  5

  6

  7

 40
1.0
 41
0.18
 42
0.0625
 43
0.38
 44
0.18
 45
0.0
 46
0.0
 47
0.0
 48
0.0
140
0.18
141
0.09
142
0.0
143
25.4
144
1.0
145
0.0
146
1.0
147
0.09
 71
     0
 72
     0
 73
     1
 74
     1
 75
     0
 76
     0
 77
     0
 78
     0
170
     0
171
     2
172
     0
173
     0
174
     0
175
     0
176
     0
177
     0
178
     0
  0
ENDTAB
  0
ENDSEC
  0
SECTION
  2
BLOCKS
  0
BLOCK
  8
1
  6
CONTINUOUS
 62
     1
  5
12C
  2
LDR
 70
     0
 10
0.0
 20
0.0
 30
0.0
  3
LNR
  0
POLYLINE
  8
1
  6
CONTINUOUS
 62
     1
  5
12D
 66
     1
 10
0.0
 20
0.0
 30
0.0
210
0.0
220
0.0
230
1.0
  0
VERTEX
  8
1
  6
CONTINUOUS
 62
     1
  5
12E
 10
-0.011987
 20
-0.001802
 30
0.0
 42
-0.265147
  0
VERTEX
  8
1
  6
CONTINUOUS
 62
     1
  5
12F
 10
-0.011849
 20
-0.001604
 30
0.0
 42
-0.064653
  0
VERTEX
  8
1
  6
CONTINUOUS
 62
     1
  5
130
 10
-0.011407
 20
-0.001387
 30
0.0
 42
-0.025822
  0
VERTEX
  8
1
  6
CONTINUOUS
 62
     1
  5
131
 10
-0.010681
 20
-0.00116
 30
0.0
 42
-0.014504
  0
VERTEX
  8
1
  6
CONTINUOUS
 62
     1
  5
132
 10
-0.0097
 20
-0.000933
 30
0.0
 42
-0.009896
  0
VERTEX
  8
1
  6
CONTINUOUS
 62
     1
  5
133
 10
-0.008505
 20
-0.000715
 30
0.0
 42
-0.007708
  0
VERTEX
  8
1
  6
CONTINUOUS
 62
     1
  5
134
 10
-0.007146
 20
-0.000515
 30
0.0
 42
-0.006655
  0
VERTEX
  8
1
  6
CONTINUOUS
 62
     1
  5
135
 10
-0.005679
 20
-0.000342
 30
0.0
 42
-0.006278
  0
VERTEX
  8
1
  6
CONTINUOUS
 62
     1
  5
136
 10
-0.004164
 20
-0.000202
 30
0.0
 42
-0.006439
  0
VERTEX
  8
1
  6
CONTINUOUS
 62
     1
  5
137
 10
-0.002666
 20
-0.000101
 30
0.0
 42
-0.007196
  0
VERTEX
  8
1
  6
CONTINUOUS
 62
     1
  5
138
 10
-0.001246
 20
-0.000044
 30
0.0
 42
-0.008852
  0
VERTEX
  8
1
  6
CONTINUOUS
 62
     1
  5
139
 10
0.000037
 20
-0.000034
 30
0.0
 42
-0.008852
  0
SEQEND
  8
1
  6
CONTINUOUS
 62
     1
  5
13A
  0
POLYLINE
  8
1
  6
CONTINUOUS
 62
     1
  5
13B
 66
     1
 10
0.0
 20
0.0
 30
0.0
210
0.0
220
0.0
230
1.0
  0
VERTEX
  8
1
  6
CONTINUOUS
 62
     1
  5
13C
 10
0.000039
 20
0.000014
 30
0.0
 42
-0.005019
  0
VERTEX
  8
1
  6
CONTINUOUS
 62
     1
  5
13D
 10
-0.001103
 20
0.000071
 30
0.0
 42
-0.004038
  0
VERTEX
  8
1
  6
CONTINUOUS
 62
     1
  5
13E
 10
-0.002373
 20
0.000158
 30
0.0
 42
-0.003548
  0
VERTEX
  8
1
  6
CONTINUOUS
 62
     1
  5
13F
 10
-0.003725
 20
0.00027
 30
0.0
 42
-0.003367
  0
VERTEX
  8
1
  6
CONTINUOUS
 62
     1
  5
140
 10
-0.005111
 20
0.000405
 30
0.0
 42
-0.003436
  0
VERTEX
  8
1
  6
CONTINUOUS
 62
     1
  5
141
 10
-0.006481
 20
0.000556
 30
0.0
 42
-0.003778
  0
VERTEX
  8
1
  6
CONTINUOUS
 62
     1
  5
142
 10
-0.007786
 20
0.00072
 30
0.0
 42
-0.00451
  0
VERTEX
  8
1
  6
CONTINUOUS
 62
     1
  5
143
 10
-0.008979
 20
0.000889
 30
0.0
 42
-0.00594
  0
VERTEX
  8
1
  6
CONTINUOUS
 62
     1
  5
144
 10
-0.010018
 20
0.001058
 30
0.0
 42
-0.008921
  0
VERTEX
  8
1
  6
CONTINUOUS
 62
     1
  5
145
 10
-0.010864
 20
0.00122
 30
0.0
 42
-0.016392
  0
VERTEX
  8
1
  6
CONTINUOUS
 62
     1
  5
146
 10
-0.011488
 20
0.001371
 30
0.0
 42
-0.04458
  0
VERTEX
  8
1
  6
CONTINUOUS
 62
     1
  5
147
 10
-0.011867
 20
0.001503
 30
0.0
 42
-0.317392
  0
VERTEX
  8
1
  6
CONTINUOUS
 62
     1
  5
148
 10
-0.011987
 20
0.001614
 30
0.0
 42
-0.317392
  0
SEQEND
  8
1
  6
CONTINUOUS
 62
     1
  5
149
  0
ENDBLK
  8
1
  6
CONTINUOUS
 62
     1
  5
14A
  0
ENDSEC
  0
SECTION
  2
ENTITIES
  0
LINE
  8
61
  6
CONTINUOUS
 62
     1
  5
29
 10
667.803333
 20
430.397917
 30
0.0
 11
28.763333
 21
430.397917
 31
0.0
  0
LINE
  8
61
  6
CONTINUOUS
 62
     1
  5
2A
 10
28.763333
 20
430.397917
 30
0.0
 11
28.763333
 21
10.377917
 31
0.0
  0
LINE
  8
61
  6
CONTINUOUS
 62
     1
  5
2B
 10
667.823333
 20
10.357917
 30
0.0
 11
28.763333
 21
10.377917
 31
0.0
  0
LINE
  8
61
  6
CONTINUOUS
 62
     1
  5
2C
 10
667.803333
 20
430.397917
 30
0.0
 11
667.823333
 21
10.357917
 31
0.0
  0
LINE
  8
61
  6
CONTINUOUS
 62
     7
  5
2D
 10
661.703333
 20
425.657917
 30
0.0
 11
553.723333
 21
425.637917
 31
0.0
  0
LINE
  8
61
  6
CONTINUOUS
 62
     7
  5
2E
 10
553.723333
 20
425.637917
 30
0.0
 11
553.723333
 21
405.637917
 31
0.0
  0
LINE
  8
61
  6
CONTINUOUS
 62
     7
  5
2F
 10
661.703333
 20
425.657917
 30
0.0
 11
661.703333
 21
405.657917
 31
0.0
  0
LINE
  8
61
  6
CONTINUOUS
 62
     7
  5
30
 10
661.703333
 20
405.657917
 30
0.0
 11
553.723333
 21
405.637917
 31
0.0
  0
LINE
  8
61
  6
CONTINUOUS
 62
     7
  5
31
 10
661.723333
 20
415.617917
 30
0.0
 11
553.703333
 21
415.637917
 31
0.0
  0
LINE
  8
61
  6
CONTINUOUS
 62
     7
  5
32
 10
563.723333
 20
425.637917
 30
0.0
 11
563.723333
 21
405.637917
 31
0.0
  0
LINE
  8
61
  6
CONTINUOUS
 62
     7
  5
33
 10
573.723333
 20
425.637917
 30
0.0
 11
573.723333
 21
405.637917
 31
0.0
  0
LINE
  8
61
  6
CONTINUOUS
 62
     7
  5
34
 10
587.403333
 20
425.637917
 30
0.0
 11
587.403333
 21
405.637917
 31
0.0
  0
LINE
  8
61
  6
CONTINUOUS
 62
     7
  5
35
 10
651.703333
 20
425.657917
 30
0.0
 11
651.703333
 21
405.657917
 31
0.0
  0
LINE
  8
61
  6
CONTINUOUS
 62
     7
  5
36
 10
641.703333
 20
425.657917
 30
0.0
 11
641.703333
 21
405.657917
 31
0.0
  0
LINE
  8
61
  6
CONTINUOUS
 62
     7
  5
37
 10
619.723333
 20
425.637917
 30
0.0
 11
619.723333
 21
405.637917
 31
0.0
  0
LINE
  8
61
  6
CONTINUOUS
 62
     7
  5
38
 10
609.723333
 20
425.637917
 30
0.0
 11
609.723333
 21
405.637917
 31
0.0
  0
TEXT
  8
61
  6
CONTINUOUS
 62
     7
  5
3A
 10
555.763333
 20
422.617917
 30
0.0
 40
1.20075
  1
PUBLIC
 50
0.033272
 41
1.001804
  7
MONOTXT
210
0.0
220
0.0
230
1.0
  0
TEXT
  8
61
  6
CONTINUOUS
 62
     7
  5
3B
 10
555.843333
 20
420.097917
 30
0.0
 40
1.20075
  1
ROADS
 50
0.124322
 41
0.996877
  7
MONOTXT
210
0.0
220
0.0
230
1.0
  0
TEXT
  8
61
  6
CONTINUOUS
 62
     7
  5
3C
 10
557.043333
 20
417.597917
 30
0.0
 40
1.20075
  1
DIV.
 50
359.931522
 41
0.994864
  7
MONOTXT
210
0.0
220
0.0
230
1.0
  0
TEXT
  8
61
  6
CONTINUOUS
 62
     7
  5
3D
 10
565.923333
 20
422.677917
 30
0.0
 40
1.20075
  1
STATE
 50
0.058969
 41
0.998196
  7
MONOTXT
210
0.0
220
0.0
230
1.0
  0
TEXT
  8
61
  6
CONTINUOUS
 62
     7
  5
3E
 10
566.803333
 20
420.177917
 30
0.0
 40
1.20075
  1
DIST.
 50
0.055889
 41
0.999584
  7
MONOTXT
210
0.0
220
0.0
230
1.0
  0
TEXT
  8
61
  6
CONTINUOUS
 62
     7
  5
3F
 10
567.383333
 20
417.657917
 30
0.0
 40
1.20075
  1
NO.
 50
359.852072
 41
0.997779
  7
MONOTXT
210
0.0
220
0.0
230
1.0
  0
TEXT
  8
61
  6
CONTINUOUS
 62
     7
  5
40
 10
577.923333
 20
422.617917
 30
0.0
 40
1.20075
  1
STATE
 50
0.058969
 41
0.998196
  7
MONOTXT
210
0.0
220
0.0
230
1.0
  0
TEXT
  8
61
  6
CONTINUOUS
 62
     7
  5
41
 10
576.843333
 20
420.197917
 30
0.0
 40
1.20075
  1
PROJECT
 50
359.908431
 41
1.000069
  7
MONOTXT
210
0.0
220
0.0
230
1.0
  0
TEXT
  8
61
  6
CONTINUOUS
 62
     7
  5
42
 10
579.583333
 20
417.657917
 30
0.0
 40
1.20075
  1
NO.
 50
0.225453
 41
0.993546
  7
MONOTXT
210
0.0
220
0.0
230
1.0
  0
TEXT
  8
61
  6
CONTINUOUS
 62
     7
  5
43
 10
595.223333
 20
421.497917
 30
0.0
 40
1.20075
  1
FEDERAL
 50
0.006714
 41
0.998543
  7
MONOTXT
210
0.0
220
0.0
230
1.0
  0
TEXT
  8
61
  6
CONTINUOUS
 62
     7
  5
44
 10
593.683333
 20
418.837917
 30
0.0
 40
1.20075
  1
PROJECT NO.
 50
359.921531
 41
1.000694
  7
MONOTXT
210
0.0
220
0.0
230
1.0
  0
TEXT
  8
61
  6
CONTINUOUS
 62
     7
  5
45
 10
611.963333
 20
421.437917
 30
0.0
 40
1.20075
  1
FISCAL
 50
359.941939
 41
0.998959
  7
MONOTXT
210
0.0
220
0.0
230
1.0
  0
TEXT
  8
61
  6
CONTINUOUS
 62
     7
  5
46
 10
612.483333
 20
418.537917
 30
0.0
 40
1.20075
  1
YEAR
 50
0.104606
 41
0.993268
  7
MONOTXT
210
0.0
220
0.0
230
1.0
  0
TEXT
  8
61
  6
CONTINUOUS
 62
     7
  5
47
 10
626.583333
 20
419.897917
 30
0.0
 40
1.20075
  1
COUNTY
 50
0.068575
 41
1.001874
  7
MONOTXT
210
0.0
220
0.0
230
1.0
  0
TEXT
  8
61
  6
CONTINUOUS
 62
     7
  5
48
 10
644.223333
 20
421.557917
 30
0.0
 40
1.20075
  1
SHEET
 50
0.058969
 41
0.997571
  7
MONOTXT
210
0.0
220
0.0
230
1.0
  0
TEXT
  8
61
  6
CONTINUOUS
 62
     7
  5
49
 10
645.643333
 20
418.837917
 30
0.0
 40
1.20075
  1
NO.
 50
359.852072
 41
0.997779
  7
MONOTXT
210
0.0
220
0.0
230
1.0
  0
TEXT
  8
61
  6
CONTINUOUS
 62
     7
  5
4A
 10
653.963333
 20
421.417917
 30
0.0
 40
1.20075
  1
TOTAL
 50
359.926039
 41
0.998543
  7
MONOTXT
210
0.0
220
0.0
230
1.0
  0
TEXT
  8
61
  6
CONTINUOUS
 62
     7
  5
4B
 10
653.503333
 20
418.717917
 30
0.0
 40
1.20075
  1
SHEETS
 50
359.958675
  7
MONOTXT
210
0.0
220
0.0
230
1.0
  0
TEXT
  8
61
  6
CONTINUOUS
 62
     7
  5
4C
 10
566.323333
 20
409.837917
 30
0.0
 40
2.401333
  1
  
 50
0.029406
 41
0.996495
  7
MONOTXT
210
0.0
220
0.0
230
1.0
  0
TEXT
  8
61
  6
CONTINUOUS
 62
     7
  5
4D
 10
643.503333
 20
409.557917
 30
0.0
 40
2.401333
  1
   
 50
0.011508
 41
1.001006
  7
MONOTXT
210
0.0
220
0.0
230
1.0
  0
TEXT
  8
61
  6
CONTINUOUS
 62
     7
  5
4E
 10
653.383333
 20
409.537917
 30
0.0
 40
2.401333
  1
   
 50
359.922128
 41
1.000555
  7
MONOTXT
210
0.0
220
0.0
230
1.0
  0
TEXT
  8
61
  6
CONTINUOUS
 62
     7
  5
4F
 10
576.763333
 20
412.937917
 30
0.0
 40
2.00675
  1
    
 50
0.054383
 41
0.993729
  7
MONOTXT
210
0.0
220
0.0
230
1.0
  0
TEXT
  8
61
  6
CONTINUOUS
 62
     7
  5
50
 10
573.843333
 20
409.917917
 30
0.0
 40
1.989583
  1
       
 50
0.064678
 41
1.000963
  7
MONOTXT
210
0.0
220
0.0
230
1.0
  0
TEXT
  8
61
  6
CONTINUOUS
 62
     7
  5
51
 10
574.803333
 20
407.017917
 30
0.0
 40
1.989583
  1
      
 50
359.958053
 41
1.000293
  7
MONOTXT
210
0.0
220
0.0
230
1.0
  0
TEXT
  8
61
  6
CONTINUOUS
 62
     7
  5
52
 10
585.763333
 20
411.657917
 30
0.0
 40
2.401333
  1
           
 50
0.011508
 41
0.998751
  7
MONOTXT
210
0.0
220
0.0
230
1.0
  0
TEXT
  8
61
  6
CONTINUOUS
 62
     7
  5
53
 10
585.643333
 20
407.997917
 30
0.0
 40
2.401333
  1
           
 50
0.011508
 41
0.999584
  7
MONOTXT
210
0.0
220
0.0
230
1.0
  0
TEXT
  8
61
  6
CONTINUOUS
 62
     7
  5
54
 10
620.983333
 20
409.737917
 30
0.0
 40
2.00675
  1
          
 50
0.009222
 41
0.992774
  7
MONOTXT
210
0.0
220
0.0
230
1.0
  0
ARC
  8
61
  6
CONTINUOUS
 62
     3
  5
55
 10
10.46109
 20
341.639212
 30
0.0
 40
2.499998
 50
323.130094
 51
316.232156
210
0.0
220
0.0
230
1.0
  0
ARC
  8
61
  6
CONTINUOUS
 62
     3
  5
56
 10
10.46109
 20
286.639212
 30
0.0
 40
2.499998
 50
323.130094
 51
315.375767
210
0.0
220
0.0
230
1.0
  0
ARC
  8
61
  6
CONTINUOUS
 62
     3
  5
57
 10
10.18109
 20
138.199212
 30
0.0
 40
2.499998
 50
322.671753
 51
321.716147
210
0.0
220
0.0
230
1.0
  0
ARC
  8
61
  6
CONTINUOUS
 62
     3
  5
58
 10
10.18109
 20
83.199212
 30
0.0
 40
2.499998
 50
323.130094
 51
312.314392
210
0.0
220
0.0
230
1.0
  0
LINE
  8
61
  6
CONTINUOUS
 62
     2
  5
59
 10
12.483333
 20
341.637917
 30
0.0
 11
20.463333
 21
341.657917
 31
0.0
  0
LINE
  8
61
  6
CONTINUOUS
 62
     2
  5
5A
 10
12.463333
 20
286.637917
 30
0.0
 11
20.463333
 21
286.637917
 31
0.0
  0
LINE
  8
61
  6
CONTINUOUS
 62
     2
  5
5B
 10
12.183333
 20
138.217917
 30
0.0
 11
20.183333
 21
138.217917
 31
0.0
  0
LINE
  8
61
  6
CONTINUOUS
 62
     2
  5
5C
 10
12.203333
 20
83.197917
 30
0.0
 11
20.183333
 21
83.197917
 31
0.0
  0
LINE
  8
61
  6
DASHED
 62
     1
  5
5D
 10
-1.236667
 20
440.397917
 30
0.0
 11
678.783333
 21
440.397917
 31
0.0
  0
LINE
  8
61
  6
DASHED
 62
     1
  5
5E
 10
678.763333
 20
0.377917
 30
0.0
 11
-1.296667
 21
0.357917
 31
0.0
  0
TEXT
  8
61
  6
CONTINUOUS
 62
     7
  5
5F
 10
654.603333
 20
385.737917
 30
0.0
 40
2.401333
  1
     
 41
1.001388
  7
MONOTXT
210
0.0
220
0.0
230
1.0
  0
LINE
  8
1
  6
HIDDEN
 62
     1
  5
61
 10
678.783333
 20
440.397917
 30
0.0
 11
678.763333
 21
0.377917
 31
0.0
  0
LINE
  8
1
  6
HIDDEN
 62
     1
  5
62
 10
-1.236667
 20
440.397917
 30
0.0
 11
-1.296667
 21
0.357917
 31
0.0
  0
TEXT
  8
1
  6
CONTINUOUS
 62
     1
  5
64
 10
633.543333
 20
7.857917
 30
0.0
 40
1.2
  1
TRAFFIC ENGINEERING DIVISION
  7
txt
210
0.0
220
0.0
230
1.0
  0
LINE
  8
1
  6
CONTINUOUS
 62
     7
  5
65
 10
496.163333
 20
10.357917
 30
0.0
 11
496.163333
 21
101.937917
 31
0.0
  0
LINE
  8
1
  6
CONTINUOUS
 62
     7
  5
66
 10
496.163333
 20
101.937917
 30
0.0
 11
667.823333
 21
101.937917
 31
0.0
  0
LINE
  8
1
  6
CONTINUOUS
 62
     7
  5
67
 10
531.163333
 20
10.317917
 30
0.0
 11
531.163333
 21
55.277917
 31
0.0
  0
LINE
  8
1
  6
CONTINUOUS
 62
     7
  5
68
 10
531.163333
 20
55.277917
 30
0.0
 11
496.183333
 21
55.277917
 31
0.0
  0
LINE
  8
1
  6
CONTINUOUS
 62
     7
  5
69
 10
531.163333
 20
50.797917
 30
0.0
 11
496.183333
 21
50.797917
 31
0.0
  0
LINE
  8
1
  6
CONTINUOUS
 62
     7
  5
6A
 10
531.163333
 20
46.297917
 30
0.0
 11
496.183333
 21
46.297917
 31
0.0
  0
LINE
  8
1
  6
CONTINUOUS
 62
     7
  5
6B
 10
531.163333
 20
41.797917
 30
0.0
 11
496.183333
 21
41.797917
 31
0.0
  0
LINE
  8
1
  6
CONTINUOUS
 62
     7
  5
6C
 10
531.163333
 20
37.277917
 30
0.0
 11
496.183333
 21
37.277917
 31
0.0
  0
LINE
  8
1
  6
CONTINUOUS
 62
     7
  5
6D
 10
531.163333
 20
32.797917
 30
0.0
 11
496.183333
 21
32.797917
 31
0.0
  0
LINE
  8
1
  6
CONTINUOUS
 62
     7
  5
6E
 10
531.163333
 20
28.317917
 30
0.0
 11
496.183333
 21
28.317917
 31
0.0
  0
LINE
  8
1
  6
CONTINUOUS
 62
     7
  5
6F
 10
531.163333
 20
23.817917
 30
0.0
 11
496.183333
 21
23.817917
 31
0.0
  0
LINE
  8
1
  6
CONTINUOUS
 62
     7
  5
70
 10
531.163333
 20
19.317917
 30
0.0
 11
496.183333
 21
19.317917
 31
0.0
  0
LINE
  8
1
  6
CONTINUOUS
 62
     7
  5
71
 10
531.163333
 20
14.797917
 30
0.0
 11
496.183333
 21
14.797917
 31
0.0
  0
TEXT
  8
1
  6
CONTINUOUS
 62
     7
  5
72
 10
506.443333
 20
52.277917
 30
0.0
 40
1.99775
  1
REVISIONS
  7
MONOTXT
210
0.0
220
0.0
230
1.0
  0
TEXT
  8
1
  6
CONTINUOUS
 62
     7
  5
73
 10
498.123333
 20
56.277917
 30
0.0
 40
1.99775
  1
PREPARED: 07/18/75
  7
MONOTXT
210
0.0
220
0.0
230
1.0
  0
TEXT
  8
1
  6
CONTINUOUS
 62
     7
  5
75
 10
528.783333
 20
93.337917
 30
0.0
 40
4.794833
  1
WEST VIRGINIA DIVISION OF HIGHWAYS
  7
ROMANT
 72
     1
 11
582.753583
 21
98.13275
 31
0.0
210
0.0
220
0.0
230
1.0
 73
     3
  0
TEXT
  8
1
  6
CONTINUOUS
 62
     7
  5
76
 10
539.543333
 20
82.177917
 30
0.0
 40
6.992667
  1
STANDARD DETAIL
  7
txt
 72
     1
 11
584.033417
 21
89.170583
 31
0.0
210
0.0
220
0.0
230
1.0
 73
     3
  0
TEXT
  8
1
  6
CONTINUOUS
 62
     7
  5
77
 10
535.003333
 20
14.397917
 30
0.0
 40
6.992667
  1
STANDARD SHEET TEL-42
  7
txt
210
0.0
220
0.0
230
1.0
  0
TEXT
  8
1
  6
CONTINUOUS
 62
     1
  5
78
 10
506.707417
 20
47.217917
 30
0.0
 40
2.0
  1
06-01-76
  7
MONOTXT
 72
     1
 11
513.47125
 21
49.217917
 31
0.0
210
0.0
220
0.0
230
1.0
 73
     3
  0
TEXT
  8
1
  6
CONTINUOUS
 62
     1
  5
79
 10
507.065417
 20
42.817917
 30
0.0
 40
2.0
  1
12-10-76
  7
MONOTXT
 72
     1
 11
513.451333
 21
44.817917
 31
0.0
210
0.0
220
0.0
230
1.0
 73
     3
  0
TEXT
  8
1
  6
CONTINUOUS
 62
     1
  5
7A
 10
507.022417
 20
38.417917
 30
0.0
 40
2.0
  1
08-11-77
  7
MONOTXT
 72
     1
 11
513.463417
 21
40.417917
 31
0.0
210
0.0
220
0.0
230
1.0
 73
     3
  0
TEXT
  8
1
  6
CONTINUOUS
 62
     1
  5
7B
 10
505.463333
 20
34.017917
 30
0.0
 40
2.0
  1
        
  7
MONOTXT
 72
     1
 11
513.130167
 21
36.017917
 31
0.0
210
0.0
220
0.0
230
1.0
 73
     3
  0
TEXT
  8
1
  6
CONTINUOUS
 62
     1
  5
7C
 10
505.303333
 20
29.417917
 30
0.0
 40
2.0
  1
        
  7
MONOTXT
 72
     1
 11
512.970167
 21
31.417917
 31
0.0
210
0.0
220
0.0
230
1.0
 73
     3
  0
TEXT
  8
1
  6
CONTINUOUS
 62
     1
  5
7D
 10
505.463333
 20
24.937917
 30
0.0
 40
2.0
  1
        
  7
MONOTXT
 72
     1
 11
513.130167
 21
26.937917
 31
0.0
210
0.0
220
0.0
230
1.0
 73
     3
  0
TEXT
  8
1
  6
CONTINUOUS
 62
     1
  5
7E
 10
505.363333
 20
20.337917
 30
0.0
 40
2.0
  1
        
  7
MONOTXT
 72
     1
 11
513.030167
 21
22.337917
 31
0.0
210
0.0
220
0.0
230
1.0
 73
     3
  0
TEXT
  8
1
  6
CONTINUOUS
 62
     1
  5
7F
 10
505.463333
 20
15.757917
 30
0.0
 40
2.0
  1
        
  7
MONOTXT
 72
     1
 11
513.130167
 21
17.757917
 31
0.0
210
0.0
220
0.0
230
1.0
 73
     3
  0
TEXT
  8
1
  6
CONTINUOUS
 62
     1
  5
80
 10
505.463333
 20
11.737917
 30
0.0
 40
2.0
  1
        
  7
MONOTXT
 72
     1
 11
513.130167
 21
13.737917
 31
0.0
210
0.0
220
0.0
230
1.0
 73
     3
  0
LINE
  8
1
  6
DASHED
 62
     4
  5
81
 10
107.303167
 20
386.863833
 30
0.0
 11
164.303167
 21
386.863833
 31
0.0
  0
LINE
  8
1
  6
CONTINUOUS
 62
     4
  5
82
 10
107.303167
 20
382.613833
 30
0.0
 11
164.303167
 21
382.613833
 31
0.0
  0
LINE
  8
1
  6
CONTINUOUS
 62
     4
  5
83
 10
107.303167
 20
381.613833
 30
0.0
 11
164.303167
 21
381.613833
 31
0.0
  0
LINE
  8
1
  6
CONTINUOUS
 62
     4
  5
84
 10
107.303167
 20
338.613833
 30
0.0
 11
164.303167
 21
338.613833
 31
0.0
  0
LINE
  8
1
  6
CONTINUOUS
 62
     4
  5
85
 10
107.303167
 20
377.613833
 30
0.0
 11
109.803167
 21
377.613833
 31
0.0
  0
LINE
  8
1
  6
CONTINUOUS
 62
     4
  5
86
 10
107.303167
 20
375.363833
 30
0.0
 11
109.803167
 21
375.363833
 31
0.0
  0
LINE
  8
1
  6
CONTINUOUS
 62
     4
  5
87
 10
109.803167
 20
377.613833
 30
0.0
 11
109.803167
 21
375.363833
 31
0.0
  0
LINE
  8
1
  6
CONTINUOUS
 62
     4
  5
88
 10
109.803167
 20
377.238833
 30
0.0
 11
111.303167
 21
377.238833
 31
0.0
  0
LINE
  8
1
  6
CONTINUOUS
 62
     4
  5
89
 10
109.803167
 20
375.738833
 30
0.0
 11
111.303167
 21
375.738833
 31
0.0
  0
LINE
  8
1
  6
CONTINUOUS
 62
     4
  5
8A
 10
111.303167
 20
377.238833
 30
0.0
 11
111.303167
 21
375.738833
 31
0.0
  0
LINE
  8
1
  6
CONTINUOUS
 62
     4
  5
8B
 10
111.303167
 20
376.863833
 30
0.0
 11
112.803167
 21
376.863833
 31
0.0
  0
LINE
  8
1
  6
CONTINUOUS
 62
     4
  5
8C
 10
111.303167
 20
376.113833
 30
0.0
 11
112.803167
 21
376.113833
 31
0.0
  0
LINE
  8
1
  6
CONTINUOUS
 62
     4
  5
8D
 10
112.803167
 20
376.863833
 30
0.0
 11
112.803167
 21
376.113833
 31
0.0
  0
LINE
  8
1
  6
CONTINUOUS
 62
     4
  5
8E
 10
107.303167
 20
375.363833
 30
0.0
 11
107.303167
 21
337.113833
 31
0.0
  0
LINE
  8
1
  6
CONTINUOUS
 62
     4
  5
8F
 10
107.303167
 20
371.363833
 30
0.0
 11
113.303167
 21
371.363833
 31
0.0
  0
LINE
  8
1
  6
CONTINUOUS
 62
     4
  5
90
 10
99.803167
 20
359.363833
 30
0.0
 11
105.803167
 21
359.363833
 31
0.0
  0
LINE
  8
1
  6
CONTINUOUS
 62
     4
  5
91
 10
107.303167
 20
359.363833
 30
0.0
 11
113.303167
 21
359.363833
 31
0.0
  0
LINE
  8
1
  6
CONTINUOUS
 62
     4
  5
92
 10
99.803167
 20
356.363833
 30
0.0
 11
105.803167
 21
356.363833
 31
0.0
  0
LINE
  8
1
  6
CONTINUOUS
 62
     4
  5
93
 10
107.303167
 20
356.363833
 30
0.0
 11
113.303167
 21
356.363833
 31
0.0
  0
LINE
  8
1
  6
CONTINUOUS
 62
     4
  5
94
 10
99.803167
 20
347.363833
 30
0.0
 11
105.803167
 21
347.363833
 31
0.0
  0
LINE
  8
1
  6
CONTINUOUS
 62
     4
  5
95
 10
107.303167
 20
347.363833
 30
0.0
 11
113.303167
 21
347.363833
 31
0.0
  0
LINE
  8
1
  6
CONTINUOUS
 62
     4
  5
96
 10
99.803167
 20
371.363833
 30
0.0
 11
99.803167
 21
359.363833
 31
0.0
  0
LINE
  8
1
  6
CONTINUOUS
 62
     4
  5
97
 10
99.803167
 20
356.363833
 30
0.0
 11
99.803167
 21
347.363833
 31
0.0
  0
LINE
  8
1
  6
CONTINUOUS
 62
     4
  5
98
 10
113.303167
 20
371.363833
 30
0.0
 11
113.303167
 21
359.363833
 31
0.0
  0
LINE
  8
1
  6
CONTINUOUS
 62
     4
  5
99
 10
113.303167
 20
356.363833
 30
0.0
 11
113.303167
 21
347.363833
 31
0.0
  0
LINE
  8
1
  6
CONTINUOUS
 62
     4
  5
9A
 10
171.803167
 20
371.363833
 30
0.0
 11
171.803167
 21
359.363833
 31
0.0
  0
LINE
  8
1
  6
CONTINUOUS
 62
     4
  5
9B
 10
171.803167
 20
356.363833
 30
0.0
 11
171.803167
 21
347.363833
 31
0.0
  0
LINE
  8
1
  6
CONTINUOUS
 62
     4
  5
9C
 10
158.303167
 20
371.363833
 30
0.0
 11
158.303167
 21
359.363833
 31
0.0
  0
LINE
  8
1
  6
CONTINUOUS
 62
     4
  5
9D
 10
158.303167
 20
356.363833
 30
0.0
 11
158.303167
 21
347.363833
 31
0.0
  0
LINE
  8
1
  6
CONTINUOUS
 62
     4
  5
9E
 10
158.303167
 20
371.363833
 30
0.0
 11
164.303167
 21
371.363833
 31
0.0
  0
LINE
  8
1
  6
CONTINUOUS
 62
     4
  5
9F
 10
165.803167
 20
371.363833
 30
0.0
 11
171.803167
 21
371.363833
 31
0.0
  0
LINE
  8
1
  6
CONTINUOUS
 62
     4
  5
A0
 10
158.303167
 20
359.363833
 30
0.0
 11
164.303167
 21
359.363833
 31
0.0
  0
LINE
  8
1
  6
CONTINUOUS
 62
     4
  5
A1
 10
165.803167
 20
359.363833
 30
0.0
 11
171.803167
 21
359.363833
 31
0.0
  0
LINE
  8
1
  6
CONTINUOUS
 62
     4
  5
A2
 10
158.303167
 20
356.363833
 30
0.0
 11
164.303167
 21
356.363833
 31
0.0
  0
LINE
  8
1
  6
CONTINUOUS
 62
     4
  5
A3
 10
165.803167
 20
356.363833
 30
0.0
 11
171.803167
 21
356.363833
 31
0.0
  0
LINE
  8
1
  6
CONTINUOUS
 62
     4
  5
A4
 10
158.303167
 20
347.363833
 30
0.0
 11
164.303167
 21
347.363833
 31
0.0
  0
LINE
  8
1
  6
CONTINUOUS
 62
     4
  5
A5
 10
165.803167
 20
347.363833
 30
0.0
 11
171.803167
 21
347.363833
 31
0.0
  0
LINE
  8
1
  6
CONTINUOUS
 62
     4
  5
A6
 10
132.803167
 20
345.613833
 30
0.0
 11
138.803167
 21
345.613833
 31
0.0
  0
LINE
  8
1
  6
CONTINUOUS
 62
     4
  5
A7
 10
132.803167
 20
345.613833
 30
0.0
 11
132.803167
 21
338.613833
 31
0.0
  0
LINE
  8
1
  6
CONTINUOUS
 62
     4
  5
A8
 10
132.803167
 20
337.113833
 30
0.0
 11
132.803167
 21
330.613833
 31
0.0
  0
LINE
  8
1
  6
CONTINUOUS
 62
     4
  5
A9
 10
138.803167
 20
345.613833
 30
0.0
 11
138.803167
 21
338.613833
 31
0.0
  0
LINE
  8
1
  6
CONTINUOUS
 62
     4
  5
AA
 10
138.803167
 20
337.113833
 30
0.0
 11
138.803167
 21
330.613833
 31
0.0
  0
LINE
  8
1
  6
CONTINUOUS
 62
     4
  5
AB
 10
132.803167
 20
330.613833
 30
0.0
 11
138.803167
 21
330.613833
 31
0.0
  0
LINE
  8
1
  6
CONTINUOUS
 62
     4
  5
AC
 10
135.803167
 20
334.363833
 30
0.0
 11
135.803167
 21
333.363833
 31
0.0
  0
LINE
  8
1
  6
CONTINUOUS
 62
     4
  5
AD
 10
135.803167
 20
332.363833
 30
0.0
 11
135.803167
 21
318.113833
 31
0.0
  0
LINE
  8
1
  6
CONTINUOUS
 62
     4
  5
AE
 10
133.053167
 20
370.363833
 30
0.0
 11
138.553167
 21
370.363833
 31
0.0
  0
LINE
  8
1
  6
CONTINUOUS
 62
     4
  5
AF
 10
133.053167
 20
366.863833
 30
0.0
 11
138.553167
 21
366.863833
 31
0.0
  0
LINE
  8
1
  6
CONTINUOUS
 62
     4
  5
B0
 10
133.053167
 20
370.363833
 30
0.0
 11
133.053167
 21
366.863833
 31
0.0
  0
LINE
  8
1
  6
CONTINUOUS
 62
     4
  5
B1
 10
138.553167
 20
370.363833
 30
0.0
 11
138.553167
 21
366.863833
 31
0.0
  0
LINE
  8
1
  6
CONTINUOUS
 62
     4
  5
B2
 10
133.053167
 20
367.863833
 30
0.0
 11
138.553167
 21
367.863833
 31
0.0
  0
LINE
  8
1
  6
CONTINUOUS
 62
     4
  5
B3
 10
135.803167
 20
366.863833
 30
0.0
 11
135.803167
 21
345.613833
 31
0.0
  0
LINE
  8
1
  6
CONTINUOUS
 62
     4
  5
B4
 10
135.803167
 20
345.613833
 30
0.0
 11
135.803167
 21
335.363833
 31
0.0
  0
CIRCLE
  8
1
  6
CONTINUOUS
 62
     4
  5
B5
 10
135.812583
 20
358.999
 30
0.0
 40
3.0
210
0.0
220
0.0
230
1.0
  0
POLYLINE
  8
1
  6
CONTINUOUS
 62
     4
  5
B6
 66
     1
 10
0.0
 20
0.0
 30
0.0
 70
     1
  0
VERTEX
  8
1
  6
CONTINUOUS
 62
     4
  5
B7
 10
162.803167
 20
388.363833
 30
0.0
  0
VERTEX
  8
1
  6
CONTINUOUS
 62
     4
  5
B8
 10
164.303167
 20
388.363833
 30
0.0
  0
VERTEX
  8
1
  6
CONTINUOUS
 62
     4
  5
B9
 10
164.303167
 20
386.863833
 30
0.0
  0
VERTEX
  8
1
  6
CONTINUOUS
 62
     4
  5
BA
 10
162.803167
 20
388.363833
 30
0.0
  0
SEQEND
  8
1
  6
CONTINUOUS
 62
     4
  5
BB
  0
LINE
  8
1
  6
CONTINUOUS
 62
     4
  5
BC
 10
105.803167
 20
388.363833
 30
0.0
 11
165.803167
 21
388.363833
 31
0.0
  0
LINE
  8
1
  6
CONTINUOUS
 62
     4
  5
BD
 10
107.303167
 20
388.363833
 30
0.0
 11
107.303167
 21
375.363833
 31
0.0
  0
POLYLINE
  8
1
  6
CONTINUOUS
 62
     4
  5
BE
 66
     1
 10
0.0
 20
0.0
 30
0.0
 70
     1
  0
VERTEX
  8
1
  6
CONTINUOUS
 62
     4
  5
BF
 10
107.303167
 20
388.363833
 30
0.0
  0
VERTEX
  8
1
  6
CONTINUOUS
 62
     4
  5
C0
 10
108.803167
 20
388.363833
 30
0.0
  0
VERTEX
  8
1
  6
CONTINUOUS
 62
     4
  5
C1
 10
107.303167
 20
386.863833
 30
0.0
  0
VERTEX
  8
1
  6
CONTINUOUS
 62
     4
  5
C2
 10
107.303167
 20
388.363833
 30
0.0
  0
SEQEND
  8
1
  6
CONTINUOUS
 62
     4
  5
C3
  0
LINE
  8
1
  6
CONTINUOUS
 62
     4
  5
C4
 10
105.803167
 20
371.363833
 30
0.0
 11
105.803167
 21
357.863833
 31
0.0
  0
LINE
  8
1
  6
CONTINUOUS
 62
     4
  5
C5
 10
99.803167
 20
371.363833
 30
0.0
 11
105.803167
 21
371.363833
 31
0.0
  0
LINE
  8
1
  6
CONTINUOUS
 62
     4
  5
C6
 10
105.803167
 20
388.363833
 30
0.0
 11
105.803167
 21
371.363833
 31
0.0
  0
POLYLINE
  8
1
  6
CONTINUOUS
 62
     4
  5
C7
 66
     1
 10
0.0
 20
0.0
 30
0.0
 70
     1
  0
VERTEX
  8
1
  6
CONTINUOUS
 62
     4
  5
C8
 10
104.303167
 20
371.363833
 30
0.0
  0
VERTEX
  8
1
  6
CONTINUOUS
 62
     4
  5
C9
 10
105.803167
 20
372.863833
 30
0.0
  0
VERTEX
  8
1
  6
CONTINUOUS
 62
     4
  5
CA
 10
105.803167
 20
371.363833
 30
0.0
  0
VERTEX
  8
1
  6
CONTINUOUS
 62
     4
  5
CB
 10
104.303167
 20
371.363833
 30
0.0
  0
SEQEND
  8
1
  6
CONTINUOUS
 62
     4
  5
CC
  0
POINT
  8
1
  6
CONTINUOUS
 62
     4
  5
CD
 10
105.803167
 20
357.863833
 30
0.0
  0
POLYLINE
  8
1
  6
CONTINUOUS
 62
     4
  5
CE
 66
     1
 10
0.0
 20
0.0
 30
0.0
 70
     1
  0
VERTEX
  8
1
  6
CONTINUOUS
 62
     4
  5
CF
 10
105.803167
 20
357.863833
 30
0.0
  0
VERTEX
  8
1
  6
CONTINUOUS
 62
     4
  5
D0
 10
104.303167
 20
359.363833
 30
0.0
  0
VERTEX
  8
1
  6
CONTINUOUS
 62
     4
  5
D1
 10
105.803167
 20
359.363833
 30
0.0
  0
VERTEX
  8
1
  6
CONTINUOUS
 62
     4
  5
D2
 10
105.803167
 20
357.863833
 30
0.0
  0
SEQEND
  8
1
  6
CONTINUOUS
 62
     4
  5
D3
  0
POLYLINE
  8
1
  6
CONTINUOUS
 62
     4
  5
D4
 66
     1
 10
0.0
 20
0.0
 30
0.0
 70
     1
  0
VERTEX
  8
1
  6
CONTINUOUS
 62
     4
  5
D5
 10
104.303167
 20
356.363833
 30
0.0
  0
VERTEX
  8
1
  6
CONTINUOUS
 62
     4
  5
D6
 10
105.803167
 20
357.863833
 30
0.0
  0
VERTEX
  8
1
  6
CONTINUOUS
 62
     4
  5
D7
 10
105.803167
 20
356.363833
 30
0.0
  0
VERTEX
  8
1
  6
CONTINUOUS
 62
     4
  5
D8
 10
104.303167
 20
356.363833
 30
0.0
  0
SEQEND
  8
1
  6
CONTINUOUS
 62
     4
  5
D9
  0
LINE
  8
1
  6
CONTINUOUS
 62
     4
  5
DA
 10
105.803167
 20
357.863833
 30
0.0
 11
105.803167
 21
345.863833
 31
0.0
  0
LINE
  8
1
  6
CONTINUOUS
 62
     4
  5
DB
 10
105.803167
 20
345.863833
 30
0.0
 11
105.803167
 21
337.113833
 31
0.0
  0
POLYLINE
  8
1
  6
CONTINUOUS
 62
     4
  5
DC
 66
     1
 10
0.0
 20
0.0
 30
0.0
 70
     1
  0
VERTEX
  8
1
  6
CONTINUOUS
 62
     4
  5
DD
 10
104.303167
 20
347.363833
 30
0.0
  0
VERTEX
  8
1
  6
CONTINUOUS
 62
     4
  5
DE
 10
105.803167
 20
347.363833
 30
0.0
  0
VERTEX
  8
1
  6
CONTINUOUS
 62
     4
  5
DF
 10
105.803167
 20
345.863833
 30
0.0
  0
VERTEX
  8
1
  6
CONTINUOUS
 62
     4
  5
E0
 10
104.303167
 20
347.363833
 30
0.0
  0
SEQEND
  8
1
  6
CONTINUOUS
 62
     4
  5
E1
  0
LINE
  8
1
  6
CONTINUOUS
 62
     4
  5
E2
 10
105.803167
 20
337.113833
 30
0.0
 11
107.303167
 21
337.113833
 31
0.0
  0
LINE
  8
1
  6
CONTINUOUS
 62
     4
  5
E3
 10
107.303167
 20
337.113833
 30
0.0
 11
108.46825
 21
337.113833
 31
0.0
  0
POLYLINE
  8
1
  6
CONTINUOUS
 62
     4
  5
E4
 66
     1
 10
0.0
 20
0.0
 30
0.0
 70
     1
  0
VERTEX
  8
1
  6
CONTINUOUS
 62
     4
  5
E5
 10
107.303167
 20
337.113833
 30
0.0
  0
VERTEX
  8
1
  6
CONTINUOUS
 62
     4
  5
E6
 10
107.303167
 20
338.613833
 30
0.0
  0
VERTEX
  8
1
  6
CONTINUOUS
 62
     4
  5
E7
 10
108.803167
 20
337.113833
 30
0.0
  0
VERTEX
  8
1
  6
CONTINUOUS
 62
     4
  5
E8
 10
107.303167
 20
337.113833
 30
0.0
  0
SEQEND
  8
1
  6
CONTINUOUS
 62
     4
  5
E9
  0
POLYLINE
  8
1
  6
CONTINUOUS
 62
     4
  5
EA
 66
     1
 10
0.0
 20
0.0
 30
0.0
 70
     1
  0
VERTEX
  8
1
  6
CONTINUOUS
 62
     4
  5
EB
 10
107.303167
 20
337.113833
 30
0.0
  0
VERTEX
  8
1
  6
CONTINUOUS
 62
     4
  5
EC
 10
107.303167
 20
338.613833
 30
0.0
  0
VERTEX
  8
1
  6
CONTINUOUS
 62
     4
  5
ED
 10
108.803167
 20
337.113833
 30
0.0
  0
VERTEX
  8
1
  6
CONTINUOUS
 62
     4
  5
EE
 10
107.303167
 20
337.113833
 30
0.0
  0
SEQEND
  8
1
  6
CONTINUOUS
 62
     4
  5
EF
  0
LINE
  8
1
  6
CONTINUOUS
 62
     4
  5
F0
 10
107.303167
 20
337.113833
 30
0.0
 11
132.803167
 21
337.113833
 31
0.0
  0
LINE
  8
1
  6
CONTINUOUS
 62
     4
  5
F1
 10
132.803167
 20
337.113833
 30
0.0
 11
140.303167
 21
337.113833
 31
0.0
  0
POLYLINE
  8
1
  6
CONTINUOUS
 62
     4
  5
F2
 66
     1
 10
0.0
 20
0.0
 30
0.0
 70
     1
  0
VERTEX
  8
1
  6
CONTINUOUS
 62
     4
  5
F3
 10
131.303167
 20
337.113833
 30
0.0
  0
VERTEX
  8
1
  6
CONTINUOUS
 62
     4
  5
F4
 10
132.803167
 20
337.113833
 30
0.0
  0
VERTEX
  8
1
  6
CONTINUOUS
 62
     4
  5
F5
 10
132.803167
 20
335.613833
 30
0.0
  0
VERTEX
  8
1
  6
CONTINUOUS
 62
     4
  5
F6
 10
131.303167
 20
337.113833
 30
0.0
  0
SEQEND
  8
1
  6
CONTINUOUS
 62
     4
  5
F7
  0
POLYLINE
  8
1
  6
CONTINUOUS
 62
     4
  5
F8
 66
     1
 10
0.0
 20
0.0
 30
0.0
 70
     1
  0
VERTEX
  8
1
  6
CONTINUOUS
 62
     4
  5
F9
 10
138.803167
 20
337.113833
 30
0.0
  0
VERTEX
  8
1
  6
CONTINUOUS
 62
     4
  5
FA
 10
140.303167
 20
337.113833
 30
0.0
  0
VERTEX
  8
1
  6
CONTINUOUS
 62
     4
  5
FB
 10
138.803167
 20
335.613833
 30
0.0
  0
VERTEX
  8
1
  6
CONTINUOUS
 62
     4
  5
FC
 10
138.803167
 20
337.113833
 30
0.0
  0
SEQEND
  8
1
  6
CONTINUOUS
 62
     4
  5
FD
  0
LINE
  8
1
  6
CONTINUOUS
 62
     4
  5
FE
 10
140.303167
 20
337.113833
 30
0.0
 11
164.303167
 21
337.113833
 31
0.0
  0
LINE
  8
1
  6
CONTINUOUS
 62
     4
  5
FF
 10
164.303167
 20
337.113833
 30
0.0
 11
165.803167
 21
337.113833
 31
0.0
  0
LINE
  8
1
  6
CONTINUOUS
 62
     4
  5
100
 10
164.303167
 20
388.363833
 30
0.0
 11
164.303167
 21
337.113833
 31
0.0
  0
POLYLINE
  8
1
  6
CONTINUOUS
 62
     4
  5
101
 66
     1
 10
0.0
 20
0.0
 30
0.0
 70
     1
  0
VERTEX
  8
1
  6
CONTINUOUS
 62
     4
  5
102
 10
162.803167
 20
337.113833
 30
0.0
  0
VERTEX
  8
1
  6
CONTINUOUS
 62
     4
  5
103
 10
164.303167
 20
338.613833
 30
0.0
  0
VERTEX
  8
1
  6
CONTINUOUS
 62
     4
  5
104
 10
164.303167
 20
337.113833
 30
0.0
  0
VERTEX
  8
1
  6
CONTINUOUS
 62
     4
  5
105
 10
162.803167
 20
337.113833
 30
0.0
  0
SEQEND
  8
1
  6
CONTINUOUS
 62
     4
  5
106
  0
LINE
  8
1
  6
CONTINUOUS
 62
     4
  5
107
 10
165.803167
 20
347.363833
 30
0.0
 11
165.803167
 21
337.113833
 31
0.0
  0
POLYLINE
  8
1
  6
CONTINUOUS
 62
     4
  5
108
 66
     1
 10
0.0
 20
0.0
 30
0.0
 70
     1
  0
VERTEX
  8
1
  6
CONTINUOUS
 62
     4
  5
109
 10
165.803167
 20
347.363833
 30
0.0
  0
VERTEX
  8
1
  6
CONTINUOUS
 62
     4
  5
10A
 10
167.303167
 20
347.363833
 30
0.0
  0
VERTEX
  8
1
  6
CONTINUOUS
 62
     4
  5
10B
 10
165.803167
 20
345.863833
 30
0.0
  0
VERTEX
  8
1
  6
CONTINUOUS
 62
     4
  5
10C
 10
165.803167
 20
347.363833
 30
0.0
  0
SEQEND
  8
1
  6
CONTINUOUS
 62
     4
  5
10D
  0
LINE
  8
1
  6
CONTINUOUS
 62
     4
  5
10E
 10
165.803167
 20
359.363833
 30
0.0
 11
165.803167
 21
357.863833
 31
0.0
  0
LINE
  8
1
  6
CONTINUOUS
 62
     4
  5
10F
 10
165.803167
 20
356.363833
 30
0.0
 11
165.803167
 21
347.363833
 31
0.0
  0
POLYLINE
  8
1
  6
CONTINUOUS
 62
     4
  5
110
 66
     1
 10
0.0
 20
0.0
 30
0.0
 70
     1
  0
VERTEX
  8
1
  6
CONTINUOUS
 62
     4
  5
111
 10
165.803167
 20
359.363833
 30
0.0
  0
VERTEX
  8
1
  6
CONTINUOUS
 62
     4
  5
112
 10
167.303167
 20
359.363833
 30
0.0
  0
VERTEX
  8
1
  6
CONTINUOUS
 62
     4
  5
113
 10
165.803167
 20
357.863833
 30
0.0
  0
VERTEX
  8
1
  6
CONTINUOUS
 62
     4
  5
114
 10
165.803167
 20
359.363833
 30
0.0
  0
SEQEND
  8
1
  6
CONTINUOUS
 62
     4
  5
115
  0
POLYLINE
  8
1
  6
CONTINUOUS
 62
     4
  5
116
 66
     1
 10
0.0
 20
0.0
 30
0.0
 70
     1
  0
VERTEX
  8
1
  6
CONTINUOUS
 62
     4
  5
117
 10
165.803167
 20
357.863833
 30
0.0
  0
VERTEX
  8
1
  6
CONTINUOUS
 62
     4
  5
118
 10
167.303167
 20
356.363833
 30
0.0
  0
VERTEX
  8
1
  6
CONTINUOUS
 62
     4
  5
119
 10
165.803167
 20
356.363833
 30
0.0
  0
VERTEX
  8
1
  6
CONTINUOUS
 62
     4
  5
11A
 10
165.803167
 20
357.863833
 30
0.0
  0
SEQEND
  8
1
  6
CONTINUOUS
 62
     4
  5
11B
  0
LINE
  8
1
  6
CONTINUOUS
 62
     4
  5
11C
 10
165.803167
 20
388.363833
 30
0.0
 11
165.803167
 21
371.363833
 31
0.0
  0
LINE
  8
1
  6
CONTINUOUS
 62
     4
  5
11D
 10
165.803167
 20
371.363833
 30
0.0
 11
165.803167
 21
356.363833
 31
0.0
  0
POLYLINE
  8
1
  6
CONTINUOUS
 62
     4
  5
11E
 66
     1
 10
0.0
 20
0.0
 30
0.0
 70
     1
  0
VERTEX
  8
1
  6
CONTINUOUS
 62
     4
  5
11F
 10
165.803167
 20
372.863833
 30
0.0
  0
VERTEX
  8
1
  6
CONTINUOUS
 62
     4
  5
120
 10
167.303167
 20
371.363833
 30
0.0
  0
VERTEX
  8
1
  6
CONTINUOUS
 62
     4
  5
121
 10
165.803167
 20
371.363833
 30
0.0
  0
VERTEX
  8
1
  6
CONTINUOUS
 62
     4
  5
122
 10
165.803167
 20
372.863833
 30
0.0
  0
SEQEND
  8
1
  6
CONTINUOUS
 62
     4
  5
123
  0
LINE
  8
1
  6
CONTINUOUS
 62
     4
  5
124
 10
135.803167
 20
394.363833
 30
0.0
 11
135.803167
 21
370.113833
 31
0.0
  0
LINE
  8
1
  6
CONTINUOUS
 62
     4
  5
125
 10
135.803167
 20
369.113833
 30
0.0
 11
135.803167
 21
368.113833
 31
0.0
  0
LINE
  8
1
  6
CONTINUOUS
 62
     4
  5
126
 10
135.803167
 20
367.113833
 30
0.0
 11
135.803167
 21
366.863833
 31
0.0
  0
LINE
  8
1
  6
CONTINUOUS
 62
     4
  5
127
 10
105.803167
 20
336.113833
 30
0.0
 11
105.803167
 21
318.113833
 31
0.0
  0
LINE
  8
1
  6
CONTINUOUS
 62
     4
  5
128
 10
165.803167
 20
336.113833
 30
0.0
 11
165.803167
 21
318.113833
 31
0.0
  0
LINE
  8
1
  6
CONTINUOUS
 62
     4
  5
129
 10
105.803167
 20
319.113833
 30
0.0
 11
135.803167
 21
319.113833
 31
0.0
  0
LINE
  8
1
  6
CONTINUOUS
 62
     4
  5
12A
 10
135.803167
 20
319.113833
 30
0.0
 11
165.803167
 21
319.113833
 31
0.0
  0
INSERT
  8
1
  6
CONTINUOUS
 62
     1
  5
14B
  2
LDR
 10
105.803167
 20
319.113833
 30
0.0
 41
240.0
 42
240.0
 50
180.0
210
0.0
220
0.0
230
1.0
  0
INSERT
  8
1
  6
CONTINUOUS
 62
     1
  5
14C
  2
LDR
 10
105.803167
 20
319.113833
 30
0.0
 41
240.0
 42
240.0
 50
180.0
210
0.0
220
0.0
230
1.0
  0
INSERT
  8
1
  6
CONTINUOUS
 62
     1
  5
14D
  2
LDR
 10
135.803167
 20
319.113833
 30
0.0
 41
240.0
 42
240.0
210
0.0
220
0.0
230
1.0
  0
INSERT
  8
1
  6
CONTINUOUS
 62
     1
  5
14E
  2
LDR
 10
135.803167
 20
319.113833
 30
0.0
 41
240.0
 42
240.0
210
0.0
220
0.0
230
1.0
  0
INSERT
  8
1
  6
CONTINUOUS
 62
     1
  5
14F
  2
LDR
 10
135.803167
 20
319.113833
 30
0.0
 41
240.0
 42
240.0
 50
180.0
210
0.0
220
0.0
230
1.0
  0
INSERT
  8
1
  6
CONTINUOUS
 62
     1
  5
150
  2
LDR
 10
135.803167
 20
319.113833
 30
0.0
 41
240.0
 42
240.0
 50
180.0
210
0.0
220
0.0
230
1.0
  0
INSERT
  8
1
  6
CONTINUOUS
 62
     1
  5
151
  2
LDR
 10
165.803167
 20
319.113833
 30
0.0
 41
240.0
 42
240.0
210
0.0
220
0.0
230
1.0
  0
INSERT
  8
1
  6
CONTINUOUS
 62
     1
  5
152
  2
LDR
 10
165.803167
 20
319.113833
 30
0.0
 41
240.0
 42
240.0
210
0.0
220
0.0
230
1.0
  0
LINE
  8
1
  6
CONTINUOUS
 62
     4
  5
153
 10
105.803167
 20
389.363833
 30
0.0
 11
105.803167
 21
403.363833
 31
0.0
  0
LINE
  8
1
  6
CONTINUOUS
 62
     4
  5
154
 10
107.303167
 20
389.363833
 30
0.0
 11
107.303167
 21
403.363833
 31
0.0
  0
LINE
  8
1
  6
CONTINUOUS
 62
     4
  5
155
 10
165.803167
 20
389.363833
 30
0.0
 11
165.803167
 21
403.363833
 31
0.0
  0
LINE
  8
1
  6
CONTINUOUS
 62
     4
  5
156
 10
164.303167
 20
389.363833
 30
0.0
 11
164.303167
 21
403.363833
 31
0.0
  0
LINE
  8
1
  6
CONTINUOUS
 62
     4
  5
157
 10
105.803167
 20
402.363833
 30
0.0
 11
107.303167
 21
402.363833
 31
0.0
  0
LINE
  8
1
  6
CONTINUOUS
 62
     4
  5
158
 10
164.303167
 20
402.363833
 30
0.0
 11
165.803167
 21
402.363833
 31
0.0
  0
LINE
  8
1
  6
CONTINUOUS
 62
     4
  5
159
 10
107.303167
 20
402.363833
 30
0.0
 11
164.303167
 21
402.363833
 31
0.0
  0
LINE
  8
1
  6
CONTINUOUS
 62
     4
  5
15A
 10
105.803167
 20
402.363833
 30
0.0
 11
93.803167
 21
402.363833
 31
0.0
  0
LINE
  8
1
  6
CONTINUOUS
 62
     4
  5
15B
 10
165.803167
 20
402.363833
 30
0.0
 11
177.803167
 21
402.363833
 31
0.0
  0
INSERT
  8
1
  6
CONTINUOUS
 62
     1
  5
15C
  2
LDR
 10
105.803167
 20
402.363833
 30
0.0
 41
240.0
 42
240.0
210
0.0
220
0.0
230
1.0
  0
INSERT
  8
1
  6
CONTINUOUS
 62
     1
  5
15D
  2
LDR
 10
105.803167
 20
402.363833
 30
0.0
 41
240.0
 42
240.0
210
0.0
220
0.0
230
1.0
  0
INSERT
  8
1
  6
CONTINUOUS
 62
     1
  5
15E
  2
LDR
 10
107.303167
 20
402.363833
 30
0.0
 41
240.0
 42
240.0
 50
180.0
210
0.0
220
0.0
230
1.0
  0
INSERT
  8
1
  6
CONTINUOUS
 62
     1
  5
15F
  2
LDR
 10
107.303167
 20
402.363833
 30
0.0
 41
240.0
 42
240.0
 50
180.0
210
0.0
220
0.0
230
1.0
  0
INSERT
  8
1
  6
CONTINUOUS
 62
     1
  5
160
  2
LDR
 10
164.303167
 20
402.363833
 30
0.0
 41
240.0
 42
240.0
210
0.0
220
0.0
230
1.0
  0
INSERT
  8
1
  6
CONTINUOUS
 62
     1
  5
161
  2
LDR
 10
164.303167
 20
402.363833
 30
0.0
 41
240.0
 42
240.0
210
0.0
220
0.0
230
1.0
  0
INSERT
  8
1
  6
CONTINUOUS
 62
     1
  5
162
  2
LDR
 10
165.803167
 20
402.363833
 30
0.0
 41
240.0
 42
240.0
 50
180.0
210
0.0
220
0.0
230
1.0
  0
INSERT
  8
1
  6
CONTINUOUS
 62
     1
  5
163
  2
LDR
 10
165.803167
 20
402.363833
 30
0.0
 41
240.0
 42
240.0
 50
180.0
210
0.0
220
0.0
230
1.0
  0
LINE
  8
1
  6
CONTINUOUS
 62
     4
  5
164
 10
165.803167
 20
388.363833
 30
0.0
 11
175.200083
 21
391.784
 31
0.0
  0
LINE
  8
1
  6
CONTINUOUS
 62
     4
  5
165
 10
175.200083
 20
391.784
 30
0.0
 11
195.200083
 21
391.784
 31
0.0
  0
LINE
  8
1
  6
CONTINUOUS
 62
     4
  5
166
 10
195.200083
 20
391.784
 30
0.0
 11
198.958833
 21
393.152083
 31
0.0
  0
LINE
  8
1
  6
CONTINUOUS
 62
     4
  5
167
 10
195.200083
 20
391.784
 30
0.0
 11
198.958833
 21
390.415917
 31
0.0
  0
LINE
  8
1
  6
CONTINUOUS
 62
     4
  5
168
 10
183.200083
 20
391.784
 30
0.0
 11
183.200083
 21
387.784
 31
0.0
  0
LINE
  8
1
  6
CONTINUOUS
 62
     4
  5
169
 10
183.200083
 20
391.784
 30
0.0
 11
187.200083
 21
387.784
 31
0.0
  0
INSERT
  8
1
  6
CONTINUOUS
 62
     1
  5
16A
  2
LDR
 10
165.803167
 20
388.363833
 30
0.0
 41
239.999999
 42
239.999999
 50
199.999832
210
0.0
220
0.0
230
1.0
  0
INSERT
  8
1
  6
CONTINUOUS
 62
     1
  5
16B
  2
LDR
 10
165.803167
 20
388.363833
 30
0.0
 41
239.999999
 42
239.999999
 50
199.999832
210
0.0
220
0.0
230
1.0
  0
LINE
  8
1
  6
CONTINUOUS
 62
     4
  5
16C
 10
165.803167
 20
378.680833
 30
0.0
 11
175.281917
 21
382.13075
 31
0.0
  0
INSERT
  8
1
  6
CONTINUOUS
 62
     1
  5
16D
  2
LDR
 10
165.803167
 20
378.680833
 30
0.0
 41
239.999998
 42
239.999998
 50
199.999646
210
0.0
220
0.0
230
1.0
  0
INSERT
  8
1
  6
CONTINUOUS
 62
     1
  5
16E
  2
LDR
 10
165.803167
 20
378.680833
 30
0.0
 41
239.999998
 42
239.999998
 50
199.999646
210
0.0
220
0.0
230
1.0
  0
LINE
  8
1
  6
CONTINUOUS
 62
     4
  5
16F
 10
168.911083
 20
371.363833
 30
0.0
 11
172.131917
 21
375.7475
 31
0.0
  0
LINE
  8
1
  6
CONTINUOUS
 62
     4
  5
170
 10
172.131917
 20
375.7475
 30
0.0
 11
175.871417
 21
375.7475
 31
0.0
  0
INSERT
  8
1
  6
CONTINUOUS
 62
     1
  5
171
  2
LDR
 10
168.911083
 20
371.363833
 30
0.0
 41
239.999999
 42
239.999999
 50
233.693973
210
0.0
220
0.0
230
1.0
  0
INSERT
  8
1
  6
CONTINUOUS
 62
     1
  5
172
  2
LDR
 10
168.911083
 20
371.363833
 30
0.0
 41
239.999999
 42
239.999999
 50
233.693973
210
0.0
220
0.0
230
1.0
  0
LINE
  8
1
  6
CONTINUOUS
 62
     4
  5
173
 10
174.16925
 20
353.67375
 30
0.0
 11
177.90875
 21
353.67375
 31
0.0
  0
LINE
  8
1
  6
CONTINUOUS
 62
     4
  5
174
 10
171.8275
 20
350.486583
 30
0.0
 11
174.16925
 21
353.67375
 31
0.0
  0
INSERT
  8
1
  6
CONTINUOUS
 62
     1
  5
175
  2
LDR
 10
171.8275
 20
350.486583
 30
0.0
 41
239.999999
 42
239.999999
 50
233.693973
210
0.0
220
0.0
230
1.0
  0
LINE
  8
1
  6
CONTINUOUS
 62
     4
  5
176
 10
138.1675
 20
357.140417
 30
0.0
 11
146.271667
 21
333.266833
 31
0.0
  0
LINE
  8
1
  6
CONTINUOUS
 62
     4
  5
177
 10
146.271667
 20
333.266833
 30
0.0
 11
138.803167
 21
333.266833
 31
0.0
  0
LINE
  8
1
  6
CONTINUOUS
 62
     4
  5
178
 10
146.271667
 20
333.266833
 30
0.0
 11
170.38275
 21
333.266833
 31
0.0
  0
INSERT
  8
1
  6
CONTINUOUS
 62
     1
  5
179
  2
LDR
 10
138.1675
 20
357.140417
 30
0.0
 41
239.999999
 42
239.999999
 50
108.750381
210
0.0
220
0.0
230
1.0
  0
INSERT
  8
1
  6
CONTINUOUS
 62
     1
  5
17A
  2
LDR
 10
138.1675
 20
357.140417
 30
0.0
 41
239.999999
 42
239.999999
 50
108.750381
210
0.0
220
0.0
230
1.0
  0
INSERT
  8
1
  6
CONTINUOUS
 62
     1
  5
17B
  2
LDR
 10
138.803167
 20
333.266833
 30
0.0
 41
240.0
 42
240.0
 50
180.0
210
0.0
220
0.0
230
1.0
  0
LINE
  8
1
  6
CONTINUOUS
 62
     4
  5
17C
 10
107.303167
 20
376.514333
 30
0.0
 11
96.18375
 21
390.181417
 31
0.0
  0
LINE
  8
1
  6
CONTINUOUS
 62
     4
  5
17D
 10
96.18375
 20
390.181417
 30
0.0
 11
90.90725
 21
390.181417
 31
0.0
  0
INSERT
  8
1
  6
CONTINUOUS
 62
     1
  5
17E
  2
LDR
 10
107.303167
 20
376.514333
 30
0.0
 41
240.0
 42
240.0
 50
309.131493
210
0.0
220
0.0
230
1.0
  0
INSERT
  8
1
  6
CONTINUOUS
 62
     1
  5
17F
  2
LDR
 10
107.303167
 20
376.514333
 30
0.0
 41
240.0
 42
240.0
 50
309.131493
210
0.0
220
0.0
230
1.0
  0
LINE
  8
1
  6
CONTINUOUS
 62
     4
  5
180
 10
95.742917
 20
375.6425
 30
0.0
 11
75.742917
 21
375.6425
 31
0.0
  0
LINE
  8
1
  6
CONTINUOUS
 62
     4
  5
181
 10
105.139833
 20
372.222333
 30
0.0
 11
95.742917
 21
375.6425
 31
0.0
  0
LINE
  8
1
  6
CONTINUOUS
 62
     4
  5
182
 10
75.742917
 20
375.6425
 30
0.0
 11
71.984167
 21
377.010583
 31
0.0
  0
LINE
  8
1
  6
CONTINUOUS
 62
     4
  5
183
 10
75.742917
 20
375.6425
 30
0.0
 11
71.984167
 21
374.274417
 31
0.0
  0
LINE
  8
1
  6
CONTINUOUS
 62
     4
  5
184
 10
82.742917
 20
371.6425
 30
0.0
 11
82.742917
 21
375.6425
 31
0.0
  0
LINE
  8
1
  6
CONTINUOUS
 62
     4
  5
185
 10
82.742917
 20
371.6425
 30
0.0
 11
86.742917
 21
375.6425
 31
0.0
  0
INSERT
  8
1
  6
CONTINUOUS
 62
     1
  5
186
  2
LDR
 10
105.139833
 20
372.222333
 30
0.0
 41
239.999999
 42
-239.999999
 50
340.000168
210
0.0
220
0.0
230
1.0
  0
INSERT
  8
1
  6
CONTINUOUS
 62
     1
  5
187
  2
LDR
 10
105.139833
 20
372.222333
 30
0.0
 41
239.999999
 42
-239.999999
 50
340.000168
210
0.0
220
0.0
230
1.0
  0
LINE
  8
1
  6
CONTINUOUS
 62
     4
  5
188
 10
288.51475
 20
388.363833
 30
0.0
 11
315.520417
 21
388.363833
 31
0.0
  0
ARC
  8
1
  6
CONTINUOUS
 62
     4
  5
189
 10
288.51475
 20
382.363833
 30
0.0
 40
6.0
 50
90.0
 51
180.0
210
0.0
220
0.0
230
1.0
  0
ARC
  8
1
  6
CONTINUOUS
 62
     4
  5
18A
 10
288.51475
 20
345.363833
 30
0.0
 40
6.0
 50
180.0
 51
270.0
210
0.0
220
0.0
230
1.0
  0
LINE
  8
1
  6
CONTINUOUS
 62
     4
  5
18B
 10
288.51475
 20
386.863833
 30
0.0
 11
315.271083
 21
386.863833
 31
0.0
  0
ARC
  8
1
  6
CONTINUOUS
 62
     4
  5
18C
 10
288.51475
 20
382.363833
 30
0.0
 40
4.5
 50
90.0
 51
180.0
210
0.0
220
0.0
230
1.0
  0
ARC
  8
1
  6
CONTINUOUS
 62
     4
  5
18D
 10
288.51475
 20
345.363833
 30
0.0
 40
4.5
 50
180.0
 51
270.0
210
0.0
220
0.0
230
1.0
  0
LINE
  8
1
  6
CONTINUOUS
 62
     4
  5
18E
 10
318.715
 20
386.771083
 30
0.0
 11
321.125667
 21
383.572
 31
0.0
  0
ARC
  8
1
  6
CONTINUOUS
 62
     4
  5
18F
 10
315.520442
 20
384.363833
 30
0.0
 40
4.0
 50
37.000422
 51
90.0
210
0.0
220
0.0
230
1.0
  0
LINE
  8
1
  6
CONTINUOUS
 62
     4
  5
190
 10
317.667
 20
385.66925
 30
0.0
 11
319.927667
 21
382.66925
 31
0.0
  0
ARC
  8
1
  6
CONTINUOUS
 62
     4
  5
191
 10
315.271097
 20
383.863833
 30
0.0
 40
3.0
 50
36.999994
 51
90.0
210
0.0
220
0.0
230
1.0
  0
LINE
  8
1
  6
CONTINUOUS
 62
     4
  5
192
 10
345.0485
 20
346.16125
 30
0.0
 11
346.247583
 21
347.064833
 31
0.0
  0
LINE
  8
1
  6
CONTINUOUS
 62
     4
  5
193
 10
350.51475
 20
340.863833
 30
0.0
 11
350.51475
 21
339.363833
 31
0.0
  0
LINE
  8
1
  6
CONTINUOUS
 62
     4
  5
194
 10
351.568833
 20
339.332083
 30
0.0
 11
352.82275
 21
340.2495
 31
0.0
  0
LINE
  8
1
  6
CONTINUOUS
 62
     4
  5
195
 10
345.0485
 20
346.16125
 30
0.0
 11
348.693833
 21
340.863833
 31
0.0
  0
LINE
  8
1
  6
CONTINUOUS
 62
     4
  5
196
 10
320.06525
 20
387.758917
 30
0.0
 11
352.8045
 21
340.182333
 31
0.0
  0
LINE
  8
1
  6
CONTINUOUS
 62
     4
  5
197
 10
321.125667
 20
383.572
 30
0.0
 11
350.51475
 21
340.863917
 31
0.0
  0
LINE
  8
1
  6
CONTINUOUS
 62
     4
  5
198
 10
350.51475
 20
340.863833
 30
0.0
 11
351.568833
 21
339.332083
 31
0.0
  0
LINE
  8
1
  6
CONTINUOUS
 62
     4
  5
199
 10
288.51475
 20
340.863833
 30
0.0
 11
350.51475
 21
340.863833
 31
0.0
  0
POLYLINE
  8
1
  6
CONTINUOUS
 62
     4
  5
19A
 66
     1
 10
0.0
 20
0.0
 30
0.0
 70
     1
  0
VERTEX
  8
1
  6
CONTINUOUS
 62
     4
  5
19B
 10
348.693833
 20
340.863833
 30
0.0
  0
VERTEX
  8
1
  6
CONTINUOUS
 62
     4
  5
19C
 10
349.892917
 20
341.767417
 30
0.0
  0
VERTEX
  8
1
  6
CONTINUOUS
 62
     4
  5
19D
 10
350.51475
 20
340.863833
 30
0.0
  0
VERTEX
  8
1
  6
CONTINUOUS
 62
     4
  5
19E
 10
348.693833
 20
340.863833
 30
0.0
  0
SEQEND
  8
1
  6
CONTINUOUS
 62
     4
  5
19F
  0
LINE
  8
1
  6
HIDDEN
 62
     4
  5
1A0
 10
318.496417
 20
384.5685
 30
0.0
 11
320.112167
 21
385.786083
 31
0.0
  0
LINE
  8
1
  6
HIDDEN
 62
     4
  5
1A1
 10
320.112167
 20
385.786083
 30
0.0
 11
320.337917
 21
387.362667
 31
0.0
  0
LINE
  8
1
  6
HIDDEN
 62
     4
  5
1A2
 10
319.0795
 20
383.762667
 30
0.0
 11
320.74125
 21
384.916667
 31
0.0
  0
LINE
  8
1
  6
HIDDEN
 62
     4
  5
1A3
 10
320.74125
 20
384.916667
 30
0.0
 11
322.309417
 21
384.638167
 31
0.0
  0
LINE
  8
1
  6
HIDDEN
 62
     4
  5
1A4
 10
346.450167
 20
344.116833
 30
0.0
 11
348.065917
 21
345.334417
 31
0.0
  0
LINE
  8
1
  6
HIDDEN
 62
     4
  5
1A5
 10
348.065917
 20
345.334417
 30
0.0
 11
348.270583
 21
346.763583
 31
0.0
  0
LINE
  8
1
  6
HIDDEN
 62
     4
  5
1A6
 10
347.03325
 20
343.311
 30
0.0
 11
348.695
 21
344.465
 31
0.0
  0
LINE
  8
1
  6
HIDDEN
 62
     4
  5
1A7
 10
348.695
 20
344.465
 30
0.0
 11
350.013417
 21
344.230833
 31
0.0
  0
LINE
  8
1
  6
CONTINUOUS
 62
     4
  5
1A8
 10
295.01475
 20
368.863833
 30
0.0
 11
284.01475
 21
368.863833
 31
0.0
  0
LINE
  8
1
  6
CONTINUOUS
 62
     4
  5
1A9
 10
295.26475
 20
367.613833
 30
0.0
 11
284.01475
 21
367.613833
 31
0.0
  0
LINE
  8
1
  6
CONTINUOUS
 62
     4
  5
1AA
 10
297.26475
 20
369.613833
 30
0.0
 11
297.26475
 21
371.613833
 31
0.0
  0
LINE
  8
1
  6
CONTINUOUS
 62
     4
  5
1AB
 10
296.01475
 20
369.863833
 30
0.0
 11
296.01475
 21
371.613833
 31
0.0
  0
ARC
  8
1
  6
CONTINUOUS
 62
     4
  5
1AC
 10
295.26475
 20
369.613833
 30
0.0
 40
2.0
 50
270.0
 51
360.0
210
0.0
220
0.0
230
1.0
  0
ARC
  8
1
  6
CONTINUOUS
 62
     4
  5
1AD
 10
295.01475
 20
369.863833
 30
0.0
 40
1.0
 50
270.0
 51
360.0
210
0.0
220
0.0
230
1.0
  0
LINE
  8
1
  6
CONTINUOUS
 62
     4
  5
1AE
 10
296.01475
 20
371.613833
 30
0.0
 11
297.26475
 21
371.613833
 31
0.0
  0
LINE
  8
1
  6
CONTINUOUS
 62
     4
  5
1AF
 10
290.01475
 20
363.613833
 30
0.0
 11
284.01475
 21
363.613833
 31
0.0
  0
LINE
  8
1
  6
CONTINUOUS
 62
     4
  5
1B0
 10
282.51475
 20
363.613833
 30
0.0
 11
276.51475
 21
363.613833
 31
0.0
  0
LINE
  8
1
  6
CONTINUOUS
 62
     4
  5
1B1
 10
282.51475
 20
357.613833
 30
0.0
 11
276.51475
 21
357.613833
 31
0.0
  0
LINE
  8
1
  6
CONTINUOUS
 62
     4
  5
1B2
 10
290.01475
 20
357.613833
 30
0.0
 11
284.01475
 21
357.613833
 31
0.0
  0
LINE
  8
1
  6
CONTINUOUS
 62
     4
  5
1B3
 10
276.51475
 20
363.613833
 30
0.0
 11
276.51475
 21
357.613833
 31
0.0
  0
LINE
  8
1
  6
CONTINUOUS
 62
     4
  5
1B4
 10
290.01475
 20
363.613833
 30
0.0
 11
290.01475
 21
357.613833
 31
0.0
  0
CIRCLE
  8
1
  6
CONTINUOUS
 62
     4
  5
1B5
 10
313.736417
 20
365.06325
 30
0.0
 40
6.5
210
0.0
220
0.0
230
1.0
  0
CIRCLE
  8
1
  6
CONTINUOUS
 62
     4
  5
1B6
 10
313.736417
 20
365.09575
 30
0.0
 40
6.0
210
0.0
220
0.0
230
1.0
  0
CIRCLE
  8
1
  6
CONTINUOUS
 62
     4
  5
1B7
 10
322.255833
 20
353.685417
 30
0.0
 40
4.25
210
0.0
220
0.0
230
1.0
  0
CIRCLE
  8
1
  6
CONTINUOUS
 62
     4
  5
1B8
 10
322.264333
 20
353.719583
 30
0.0
 40
3.75
210
0.0
220
0.0
230
1.0
  0
LINE
  8
1
  6
CONTINUOUS
 62
     4
  5
1B9
 10
309.01475
 20
347.363833
 30
0.0
 11
315.01475
 21
347.363833
 31
0.0
  0
LINE
  8
1
  6
CONTINUOUS
 62
     4
  5
1BA
 10
309.01475
 20
340.863833
 30
0.0
 11
309.01475
 21
347.363833
 31
0.0
  0
LINE
  8
1
  6
CONTINUOUS
 62
     4
  5
1BB
 10
309.01475
 20
333.363833
 30
0.0
 11
315.01475
 21
333.363833
 31
0.0
  0
LINE
  8
1
  6
CONTINUOUS
 62
     4
  5
1BC
 10
309.01475
 20
345.363833
 30
0.0
 11
315.01475
 21
345.363833
 31
0.0
  0
LINE
  8
1
  6
CONTINUOUS
 62
     4
  5
1BD
 10
309.01475
 20
335.363833
 30
0.0
 11
315.01475
 21
335.363833
 31
0.0
  0
LINE
  8
1
  6
CONTINUOUS
 62
     4
  5
1BE
 10
309.51475
 20
346.363833
 30
0.0
 11
314.51475
 21
346.363833
 31
0.0
  0
LINE
  8
1
  6
CONTINUOUS
 62
     4
  5
1BF
 10
309.51475
 20
334.363833
 30
0.0
 11
314.51475
 21
334.363833
 31
0.0
  0
LINE
  8
1
  6
CONTINUOUS
 62
     4
  5
1C0
 10
311.01475
 20
346.863833
 30
0.0
 11
313.01475
 21
346.863833
 31
0.0
  0
LINE
  8
1
  6
CONTINUOUS
 62
     4
  5
1C1
 10
311.01475
 20
345.863833
 30
0.0
 11
313.01475
 21
345.863833
 31
0.0
  0
LINE
  8
1
  6
CONTINUOUS
 62
     4
  5
1C2
 10
311.01475
 20
334.863833
 30
0.0
 11
313.01475
 21
334.863833
 31
0.0
  0
LINE
  8
1
  6
CONTINUOUS
 62
     4
  5
1C3
 10
311.01475
 20
333.863833
 30
0.0
 11
313.01475
 21
333.863833
 31
0.0
  0
LINE
  8
1
  6
CONTINUOUS
 62
     4
  5
1C4
 10
310.01475
 20
333.363833
 30
0.0
 11
314.01475
 21
333.363833
 31
0.0
  0
CIRCLE
  8
1
  6
CONTINUOUS
 62
     4
  5
1C5
 10
285.312833
 20
385.757333
 30
0.0
 40
5.0
210
0.0
220
0.0
230
1.0
  0
CIRCLE
  8
1
  6
CONTINUOUS
 62
     4
  5
1C6
 10
285.635083
 20
341.432083
 30
0.0
 40
5.0
210
0.0
220
0.0
230
1.0
  0
LINE
  8
1
  6
CONTINUOUS
 62
     4
  5
1C7
 10
310.2405
 20
380.571167
 30
0.0
 11
317.907667
 21
386.1805
 31
0.0
  0
LINE
  8
1
  6
CONTINUOUS
 62
     4
  5
1C8
 10
318.715
 20
386.771083
 30
0.0
 11
320.06525
 21
387.758917
 31
0.0
  0
LINE
  8
1
  6
CONTINUOUS
 62
     4
  5
1C9
 10
312.740667
 20
377.2535
 30
0.0
 11
319.129083
 21
382.0675
 31
0.0
  0
LINE
  8
1
  6
CONTINUOUS
 62
     4
  5
1CA
 10
319.927667
 20
382.66925
 30
0.0
 11
321.125667
 21
383.572
 31
0.0
  0
LINE
  8
1
  6
CONTINUOUS
 62
     4
  5
1CB
 10
308.0385
 20
385.154833
 30
0.0
 11
311.047667
 21
381.16175
 31
0.0
  0
LINE
  8
1
  6
CONTINUOUS
 62
     4
  5
1CC
 10
311.047667
 20
381.16175
 30
0.0
 11
313.539333
 21
377.855333
 31
0.0
  0
LINE
  8
1
  6
CONTINUOUS
 62
     4
  5
1CD
 10
313.539333
 20
377.855333
 30
0.0
 11
318.955833
 21
370.66775
 31
0.0
  0
INSERT
  8
1
  6
CONTINUOUS
 62
     1
  5
1CE
  2
LDR
 10
311.047667
 20
381.16175
 30
0.0
 41
240.000002
 42
240.000002
 50
307.001487
210
0.0
220
0.0
230
1.0
  0
INSERT
  8
1
  6
CONTINUOUS
 62
     1
  5
1CF
  2
LDR
 10
311.047667
 20
381.16175
 30
0.0
 41
240.000002
 42
240.000002
 50
307.001487
210
0.0
220
0.0
230
1.0
  0
INSERT
  8
1
  6
CONTINUOUS
 62
     1
  5
1D0
  2
LDR
 10
313.539333
 20
377.855333
 30
0.0
 41
240.000002
 42
240.000002
 50
127.001487
210
0.0
220
0.0
230
1.0
  0
INSERT
  8
1
  6
CONTINUOUS
 62
     1
  5
1D1
  2
LDR
 10
313.539333
 20
377.855333
 30
0.0
 41
240.000002
 42
240.000002
 50
127.001487
210
0.0
220
0.0
230
1.0
  0
LINE
  8
1
  6
CONTINUOUS
 62
     4
  5
1D2
 10
314.346083
 20
364.254083
 30
0.0
 11
313.134583
 21
365.861833
 31
0.0
  0
LINE
  8
1
  6
CONTINUOUS
 62
     4
  5
1D3
 10
322.820167
 20
352.86525
 30
0.0
 11
321.686417
 21
354.512833
 31
0.0
  0
LINE
  8
1
  6
CONTINUOUS
 62
     4
  5
1D4
 10
309.220667
 20
361.95575
 30
0.0
 11
312.088833
 21
363.929583
 31
0.0
  0
LINE
  8
1
  6
CONTINUOUS
 62
     4
  5
1D5
 10
315.383833
 20
366.196917
 30
0.0
 11
324.92325
 21
372.761417
 31
0.0
  0
LINE
  8
1
  6
CONTINUOUS
 62
     4
  5
1D6
 10
319.593083
 20
351.858333
 30
0.0
 11
320.60575
 21
352.55525
 31
0.0
  0
LINE
  8
1
  6
CONTINUOUS
 62
     4
  5
1D7
 10
327.292583
 20
357.327917
 30
0.0
 11
332.89225
 21
361.1815
 31
0.0
  0
LINE
  8
1
  6
CONTINUOUS
 62
     4
  5
1D8
 10
312.912583
 20
364.496417
 30
0.0
 11
314.560083
 21
365.630083
 31
0.0
  0
LINE
  8
1
  6
CONTINUOUS
 62
     4
  5
1D9
 10
321.4295
 20
353.122167
 30
0.0
 11
323.077
 21
354.256
 31
0.0
  0
LINE
  8
1
  6
CONTINUOUS
 62
     4
  5
1DA
 10
324.0995
 20
372.194583
 30
0.0
 11
333.707083
 21
358.233667
 31
0.0
  0
INSERT
  8
1
  6
CONTINUOUS
 62
     1
  5
1DB
  2
LDR
 10
324.0995
 20
372.194583
 30
0.0
 41
239.999998
 42
239.999998
 50
124.534746
210
0.0
220
0.0
230
1.0
  0
INSERT
  8
1
  6
CONTINUOUS
 62
     1
  5
1DC
  2
LDR
 10
324.0995
 20
372.194583
 30
0.0
 41
239.999998
 42
239.999998
 50
124.534746
210
0.0
220
0.0
230
1.0
  0
INSERT
  8
1
  6
CONTINUOUS
 62
     1
  5
1DD
  2
LDR
 10
332.0685
 20
360.614667
 30
0.0
 41
239.999998
 42
239.999998
 50
304.534746
210
0.0
220
0.0
230
1.0
  0
INSERT
  8
1
  6
CONTINUOUS
 62
     1
  5
1DE
  2
LDR
 10
332.0685
 20
360.614667
 30
0.0
 41
239.999998
 42
239.999998
 50
304.534746
210
0.0
220
0.0
230
1.0
  0
LINE
  8
1
  6
CONTINUOUS
 62
     4
  5
1DF
 10
318.961583
 20
339.363833
 30
0.0
 11
350.51475
 21
339.363833
 31
0.0
  0
LINE
  8
1
  6
CONTINUOUS
 62
     4
  5
1E0
 10
319.890333
 20
368.084
 30
0.0
 11
326.725667
 21
358.151667
 31
0.0
  0
LINE
  8
1
  6
CONTINUOUS
 62
     4
  5
1E1
 10
323.883
 20
354.847667
 30
0.0
 11
327.292583
 21
357.327917
 31
0.0
  0
LINE
  8
1
  6
CONTINUOUS
 62
     4
  5
1E2
 10
312.01475
 20
339.363833
 30
0.0
 11
312.01475
 21
349.863833
 31
0.0
  0
LINE
  8
1
  6
CONTINUOUS
 62
     4
  5
1E3
 10
312.01475
 20
320.863833
 30
0.0
 11
312.01475
 21
336.363833
 31
0.0
  0
LINE
  8
1
  6
CONTINUOUS
 62
     4
  5
1E4
 10
312.01475
 20
337.363833
 30
0.0
 11
312.01475
 21
338.363833
 31
0.0
  0
LINE
  8
1
  6
CONTINUOUS
 62
     4
  5
1E5
 10
298.26475
 20
371.613833
 30
0.0
 11
302.26475
 21
371.613833
 31
0.0
  0
LINE
  8
1
  6
CONTINUOUS
 62
     4
  5
1E6
 10
297.26475
 20
367.613833
 30
0.0
 11
302.26475
 21
367.613833
 31
0.0
  0
LINE
  8
1
  6
CONTINUOUS
 62
     4
  5
1E7
 10
301.26475
 20
375.613833
 30
0.0
 11
301.26475
 21
371.613833
 31
0.0
  0
LINE
  8
1
  6
CONTINUOUS
 62
     4
  5
1E8
 10
301.26475
 20
371.613833
 30
0.0
 11
301.26475
 21
367.613833
 31
0.0
  0
LINE
  8
1
  6
CONTINUOUS
 62
     4
  5
1E9
 10
301.26475
 20
367.613833
 30
0.0
 11
301.26475
 21
363.613833
 31
0.0
  0
INSERT
  8
1
  6
CONTINUOUS
 62
     1
  5
1EA
  2
LDR
 10
301.26475
 20
371.613833
 30
0.0
 41
240.0
 42
240.0
 50
270.0
210
0.0
220
0.0
230
1.0
  0
INSERT
  8
1
  6
CONTINUOUS
 62
     1
  5
1EB
  2
LDR
 10
301.26475
 20
371.613833
 30
0.0
 41
240.0
 42
240.0
 50
270.0
210
0.0
220
0.0
230
1.0
  0
INSERT
  8
1
  6
CONTINUOUS
 62
     1
  5
1EC
  2
LDR
 10
301.26475
 20
367.613833
 30
0.0
 41
240.0
 42
240.0
 50
90.0
210
0.0
220
0.0
230
1.0
  0
LINE
  8
1
  6
CONTINUOUS
 62
     4
  5
1ED
 10
297.26475
 20
372.613833
 30
0.0
 11
297.26475
 21
378.613833
 31
0.0
  0
LINE
  8
1
  6
CONTINUOUS
 62
     4
  5
1EE
 10
297.26475
 20
377.613833
 30
0.0
 11
284.01475
 21
377.613833
 31
0.0
  0
INSERT
  8
1
  6
CONTINUOUS
 62
     1
  5
1EF
  2
LDR
 10
284.01475
 20
377.613833
 30
0.0
 41
240.0
 42
240.0
 50
180.0
210
0.0
220
0.0
230
1.0
  0
INSERT
  8
1
  6
CONTINUOUS
 62
     1
  5
1F0
  2
LDR
 10
284.01475
 20
377.613833
 30
0.0
 41
240.0
 42
240.0
 50
180.0
210
0.0
220
0.0
230
1.0
  0
INSERT
  8
1
  6
CONTINUOUS
 62
     1
  5
1F1
  2
LDR
 10
297.26475
 20
377.613833
 30
0.0
 41
240.0
 42
240.0
210
0.0
220
0.0
230
1.0
  0
INSERT
  8
1
  6
CONTINUOUS
 62
     1
  5
1F2
  2
LDR
 10
297.26475
 20
377.613833
 30
0.0
 41
240.0
 42
240.0
210
0.0
220
0.0
230
1.0
  0
LINE
  8
1
  6
CONTINUOUS
 62
     4
  5
1F3
 10
320.06525
 20
388.758917
 30
0.0
 11
320.06525
 21
402.758917
 31
0.0
  0
LINE
  8
1
  6
CONTINUOUS
 62
     4
  5
1F4
 10
282.51475
 20
386.363833
 30
0.0
 11
282.51475
 21
402.758917
 31
0.0
  0
LINE
  8
1
  6
CONTINUOUS
 62
     4
  5
1F5
 10
352.82275
 20
342.2495
 30
0.0
 11
352.82275
 21
402.758917
 31
0.0
  0
LINE
  8
1
  6
CONTINUOUS
 62
     4
  5
1F6
 10
282.51475
 20
401.758917
 30
0.0
 11
320.06525
 21
401.758917
 31
0.0
  0
LINE
  8
1
  6
CONTINUOUS
 62
     4
  5
1F7
 10
320.06525
 20
401.758917
 30
0.0
 11
352.82275
 21
401.758917
 31
0.0
  0
INSERT
  8
1
  6
CONTINUOUS
 62
     1
  5
1F8
  2
LDR
 10
282.51475
 20
401.758917
 30
0.0
 41
240.0
 42
240.0
 50
180.0
210
0.0
220
0.0
230
1.0
  0
INSERT
  8
1
  6
CONTINUOUS
 62
     1
  5
1F9
  2
LDR
 10
282.51475
 20
401.758917
 30
0.0
 41
240.0
 42
240.0
 50
180.0
210
0.0
220
0.0
230
1.0
  0
INSERT
  8
1
  6
CONTINUOUS
 62
     1
  5
1FA
  2
LDR
 10
320.06525
 20
401.758917
 30
0.0
 41
240.0
 42
240.0
210
0.0
220
0.0
230
1.0
  0
INSERT
  8
1
  6
CONTINUOUS
 62
     1
  5
1FB
  2
LDR
 10
320.06525
 20
401.758917
 30
0.0
 41
240.0
 42
240.0
210
0.0
220
0.0
230
1.0
  0
INSERT
  8
1
  6
CONTINUOUS
 62
     1
  5
1FC
  2
LDR
 10
320.06525
 20
401.758917
 30
0.0
 41
240.0
 42
240.0
 50
180.0
210
0.0
220
0.0
230
1.0
  0
INSERT
  8
1
  6
CONTINUOUS
 62
     1
  5
1FD
  2
LDR
 10
320.06525
 20
401.758917
 30
0.0
 41
240.0
 42
240.0
 50
180.0
210
0.0
220
0.0
230
1.0
  0
INSERT
  8
1
  6
CONTINUOUS
 62
     1
  5
1FE
  2
LDR
 10
352.82275
 20
401.758917
 30
0.0
 41
240.0
 42
240.0
210
0.0
220
0.0
230
1.0
  0
LINE
  8
1
  6
CONTINUOUS
 62
     4
  5
1FF
 10
284.51475
 20
388.363833
 30
0.0
 11
270.51475
 21
388.363833
 31
0.0
  0
LINE
  8
1
  6
CONTINUOUS
 62
     4
  5
200
 10
284.51475
 20
339.363833
 30
0.0
 11
270.51475
 21
339.363833
 31
0.0
  0
LINE
  8
1
  6
CONTINUOUS
 62
     4
  5
201
 10
271.51475
 20
388.363833
 30
0.0
 11
271.51475
 21
339.363833
 31
0.0
  0
INSERT
  8
1
  6
CONTINUOUS
 62
     1
  5
202
  2
LDR
 10
271.51475
 20
388.363833
 30
0.0
 41
240.0
 42
240.0
 50
90.0
210
0.0
220
0.0
230
1.0
  0
INSERT
  8
1
  6
CONTINUOUS
 62
     1
  5
203
  2
LDR
 10
271.51475
 20
339.363833
 30
0.0
 41
240.0
 42
240.0
 50
270.0
210
0.0
220
0.0
230
1.0
  0
LINE
  8
1
  6
CONTINUOUS
 62
     4
  5
204
 10
284.01475
 20
382.363833
 30
0.0
 11
284.01475
 21
368.863833
 31
0.0
  0
LINE
  8
1
  6
CONTINUOUS
 62
     4
  5
205
 10
284.01475
 20
368.863833
 30
0.0
 11
284.01475
 21
367.613833
 31
0.0
  0
LINE
  8
1
  6
CONTINUOUS
 62
     4
  5
206
 10
282.51475
 20
382.363833
 30
0.0
 11
282.51475
 21
366.113833
 31
0.0
  0
POINT
  8
1
  6
CONTINUOUS
 62
     4
  5
207
 10
284.01475
 20
366.113833
 30
0.0
  0
LINE
  8
1
  6
CONTINUOUS
 62
     4
  5
208
 10
282.51475
 20
366.113833
 30
0.0
 11
282.51475
 21
363.613833
 31
0.0
  0
LINE
  8
1
  6
CONTINUOUS
 62
     4
  5
209
 10
282.51475
 20
364.780583
 30
0.0
 11
282.51475
 21
364.613833
 31
0.0
  0
LINE
  8
1
  6
CONTINUOUS
 62
     4
  5
20A
 10
284.01475
 20
364.613833
 30
0.0
 11
284.01475
 21
364.897417
 31
0.0
  0
LINE
  8
1
  6
CONTINUOUS
 62
     4
  5
20B
 10
284.01475
 20
363.613833
 30
0.0
 11
284.01475
 21
367.613833
 31
0.0
  0
LINE
  8
1
  6
CONTINUOUS
 62
     4
  5
20C
 10
282.51475
 20
357.613833
 30
0.0
 11
282.51475
 21
345.363833
 31
0.0
  0
LINE
  8
1
  6
CONTINUOUS
 62
     4
  5
20D
 10
282.51475
 20
363.613833
 30
0.0
 11
282.51475
 21
357.613833
 31
0.0
  0
POLYLINE
  8
1
  6
CONTINUOUS
 62
     4
  5
20E
 66
     1
 10
0.0
 20
0.0
 30
0.0
 70
     1
  0
VERTEX
  8
1
  6
CONTINUOUS
 62
     4
  5
20F
 10
281.01475
 20
357.613833
 30
0.0
  0
VERTEX
  8
1
  6
CONTINUOUS
 62
     4
  5
210
 10
282.51475
 20
357.613833
 30
0.0
  0
VERTEX
  8
1
  6
CONTINUOUS
 62
     4
  5
211
 10
282.51475
 20
356.113833
 30
0.0
  0
VERTEX
  8
1
  6
CONTINUOUS
 62
     4
  5
212
 10
281.01475
 20
357.613833
 30
0.0
  0
SEQEND
  8
1
  6
CONTINUOUS
 62
     4
  5
213
  0
LINE
  8
1
  6
CONTINUOUS
 62
     4
  5
214
 10
284.01475
 20
358.613833
 30
0.0
 11
284.01475
 21
357.613833
 31
0.0
  0
LINE
  8
1
  6
CONTINUOUS
 62
     4
  5
215
 10
284.01475
 20
357.613833
 30
0.0
 11
284.01475
 21
345.363833
 31
0.0
  0
POLYLINE
  8
1
  6
CONTINUOUS
 62
     4
  5
216
 66
     1
 10
0.0
 20
0.0
 30
0.0
 70
     1
  0
VERTEX
  8
1
  6
CONTINUOUS
 62
     4
  5
217
 10
284.01475
 20
357.613833
 30
0.0
  0
VERTEX
  8
1
  6
CONTINUOUS
 62
     4
  5
218
 10
285.51475
 20
357.613833
 30
0.0
  0
VERTEX
  8
1
  6
CONTINUOUS
 62
     4
  5
219
 10
284.01475
 20
356.113833
 30
0.0
  0
VERTEX
  8
1
  6
CONTINUOUS
 62
     4
  5
21A
 10
284.01475
 20
357.613833
 30
0.0
  0
SEQEND
  8
1
  6
CONTINUOUS
 62
     4
  5
21B
  0
POLYLINE
  8
1
  6
CONTINUOUS
 62
     4
  5
21C
 66
     1
 10
0.0
 20
0.0
 30
0.0
 70
     1
  0
VERTEX
  8
1
  6
CONTINUOUS
 62
     4
  5
21D
 10
281.01475
 20
363.613833
 30
0.0
  0
VERTEX
  8
1
  6
CONTINUOUS
 62
     4
  5
21E
 10
282.51475
 20
365.113833
 30
0.0
  0
VERTEX
  8
1
  6
CONTINUOUS
 62
     4
  5
21F
 10
282.51475
 20
363.613833
 30
0.0
  0
VERTEX
  8
1
  6
CONTINUOUS
 62
     4
  5
220
 10
281.01475
 20
363.613833
 30
0.0
  0
SEQEND
  8
1
  6
CONTINUOUS
 62
     4
  5
221
  0
LINE
  8
1
  6
CONTINUOUS
 62
     4
  5
222
 10
284.01475
 20
363.613833
 30
0.0
 11
284.01475
 21
357.613833
 31
0.0
  0
POLYLINE
  8
1
  6
CONTINUOUS
 62
     4
  5
223
 66
     1
 10
0.0
 20
0.0
 30
0.0
 70
     1
  0
VERTEX
  8
1
  6
CONTINUOUS
 62
     4
  5
224
 10
284.01475
 20
363.613833
 30
0.0
  0
VERTEX
  8
1
  6
CONTINUOUS
 62
     4
  5
225
 10
284.01475
 20
365.113833
 30
0.0
  0
VERTEX
  8
1
  6
CONTINUOUS
 62
     4
  5
226
 10
285.51475
 20
363.613833
 30
0.0
  0
VERTEX
  8
1
  6
CONTINUOUS
 62
     4
  5
227
 10
284.01475
 20
363.613833
 30
0.0
  0
SEQEND
  8
1
  6
CONTINUOUS
 62
     4
  5
228
  0
POLYLINE
  8
1
  6
CONTINUOUS
 62
     4
  5
229
 66
     1
 10
0.0
 20
0.0
 30
0.0
 70
     1
  0
VERTEX
  8
1
  6
CONTINUOUS
 62
     4
  5
22A
 10
284.01475
 20
368.863833
 30
0.0
  0
VERTEX
  8
1
  6
CONTINUOUS
 62
     4
  5
22B
 10
284.01475
 20
370.363833
 30
0.0
  0
VERTEX
  8
1
  6
CONTINUOUS
 62
     4
  5
22C
 10
285.51475
 20
368.863833
 30
0.0
  0
VERTEX
  8
1
  6
CONTINUOUS
 62
     4
  5
22D
 10
284.01475
 20
368.863833
 30
0.0
  0
SEQEND
  8
1
  6
CONTINUOUS
 62
     4
  5
22E
  0
POLYLINE
  8
1
  6
CONTINUOUS
 62
     4
  5
22F
 66
     1
 10
0.0
 20
0.0
 30
0.0
 70
     1
  0
VERTEX
  8
1
  6
CONTINUOUS
 62
     4
  5
230
 10
284.01475
 20
367.613833
 30
0.0
  0
VERTEX
  8
1
  6
CONTINUOUS
 62
     4
  5
231
 10
285.51475
 20
367.613833
 30
0.0
  0
VERTEX
  8
1
  6
CONTINUOUS
 62
     4
  5
232
 10
284.01475
 20
366.113833
 30
0.0
  0
VERTEX
  8
1
  6
CONTINUOUS
 62
     4
  5
233
 10
284.01475
 20
367.613833
 30
0.0
  0
SEQEND
  8
1
  6
CONTINUOUS
 62
     4
  5
234
  0
LINE
  8
1
  6
CONTINUOUS
 62
     4
  5
235
 10
288.51475
 20
339.363833
 30
0.0
 11
309.01475
 21
339.363833
 31
0.0
  0
LINE
  8
1
  6
CONTINUOUS
 62
     4
  5
236
 10
309.01475
 20
339.363833
 30
0.0
 11
315.01475
 21
339.363833
 31
0.0
  0
LINE
  8
1
  6
CONTINUOUS
 62
     4
  5
237
 10
315.01475
 20
339.363833
 30
0.0
 11
318.961583
 21
339.363833
 31
0.0
  0
LINE
  8
1
  6
CONTINUOUS
 62
     4
  5
238
 10
309.01475
 20
333.363833
 30
0.0
 11
309.01475
 21
339.363833
 31
0.0
  0
LINE
  8
1
  6
CONTINUOUS
 62
     4
  5
239
 10
309.01475
 20
339.363833
 30
0.0
 11
309.01475
 21
340.863833
 31
0.0
  0
LINE
  8
1
  6
CONTINUOUS
 62
     4
  5
23A
 10
315.01475
 20
333.363833
 30
0.0
 11
315.01475
 21
339.363833
 31
0.0
  0
LINE
  8
1
  6
CONTINUOUS
 62
     4
  5
23B
 10
315.01475
 20
339.363833
 30
0.0
 11
315.01475
 21
347.363833
 31
0.0
  0
POLYLINE
  8
1
  6
CONTINUOUS
 62
     4
  5
23C
 66
     1
 10
0.0
 20
0.0
 30
0.0
 70
     1
  0
VERTEX
  8
1
  6
CONTINUOUS
 62
     4
  5
23D
 10
307.51475
 20
339.363833
 30
0.0
  0
VERTEX
  8
1
  6
CONTINUOUS
 62
     4
  5
23E
 10
309.01475
 20
339.363833
 30
0.0
  0
VERTEX
  8
1
  6
CONTINUOUS
 62
     4
  5
23F
 10
309.01475
 20
337.863833
 30
0.0
  0
VERTEX
  8
1
  6
CONTINUOUS
 62
     4
  5
240
 10
307.51475
 20
339.363833
 30
0.0
  0
SEQEND
  8
1
  6
CONTINUOUS
 62
     4
  5
241
  0
POLYLINE
  8
1
  6
CONTINUOUS
 62
     4
  5
242
 66
     1
 10
0.0
 20
0.0
 30
0.0
 70
     1
  0
VERTEX
  8
1
  6
CONTINUOUS
 62
     4
  5
243
 10
315.01475
 20
339.363833
 30
0.0
  0
VERTEX
  8
1
  6
CONTINUOUS
 62
     4
  5
244
 10
316.51475
 20
339.363833
 30
0.0
  0
VERTEX
  8
1
  6
CONTINUOUS
 62
     4
  5
245
 10
315.01475
 20
337.863833
 30
0.0
  0
VERTEX
  8
1
  6
CONTINUOUS
 62
     4
  5
246
 10
315.01475
 20
339.363833
 30
0.0
  0
SEQEND
  8
1
  6
CONTINUOUS
 62
     4
  5
247
  0
LINE
  8
1
  6
CONTINUOUS
 62
     4
  5
248
 10
293.440167
 20
388.363833
 30
0.0
 11
293.440167
 21
393.570333
 31
0.0
  0
LINE
  8
1
  6
CONTINUOUS
 62
     4
  5
249
 10
293.440167
 20
393.570333
 30
0.0
 11
296.842917
 21
393.570333
 31
0.0
  0
INSERT
  8
1
  6
CONTINUOUS
 62
     1
  5
24A
  2
LDR
 10
293.440167
 20
388.363833
 30
0.0
 41
240.0
 42
240.0
 50
270.0
210
0.0
220
0.0
230
1.0
  0
LINE
  8
1
  6
CONTINUOUS
 62
     4
  5
24B
 10
321.197333
 20
386.11375
 30
0.0
 11
323.933917
 21
389.224417
 31
0.0
  0
LINE
  8
1
  6
CONTINUOUS
 62
     4
  5
24C
 10
323.933917
 20
389.224417
 30
0.0
 11
356.948917
 21
389.224417
 31
0.0
  0
INSERT
  8
1
  6
CONTINUOUS
 62
     1
  5
24D
  2
LDR
 10
321.197333
 20
386.11375
 30
0.0
 41
239.999999
 42
239.999999
 50
228.660563
210
0.0
220
0.0
230
1.0
  0
LINE
  8
1
  6
CONTINUOUS
 62
     4
  5
24E
 10
321.501583
 20
365.74275
 30
0.0
 11
334.577667
 21
374.740917
 31
0.0
  0
INSERT
  8
1
  6
CONTINUOUS
 62
     1
  5
24F
  2
LDR
 10
321.501583
 20
365.74275
 30
0.0
 41
240.0
 42
240.0
 50
214.533358
210
0.0
220
0.0
230
1.0
  0
INSERT
  8
1
  6
CONTINUOUS
 62
     1
  5
250
  2
LDR
 10
321.501583
 20
365.74275
 30
0.0
 41
240.0
 42
240.0
 50
214.533358
210
0.0
220
0.0
230
1.0
  0
INSERT
  8
1
  6
CONTINUOUS
 62
     1
  5
251
  2
LDR
 10
330.808333
 20
372.147083
 30
0.0
 41
240.0
 42
240.0
 50
34.533358
210
0.0
220
0.0
230
1.0
  0
LINE
  8
1
  6
CONTINUOUS
 62
     4
  5
252
 10
339.636417
 20
360.130667
 30
0.0
 11
348.902333
 21
364.828583
 31
0.0
  0
LINE
  8
1
  6
CONTINUOUS
 62
     4
  5
253
 10
348.902333
 20
364.828583
 30
0.0
 11
363.033583
 21
364.828583
 31
0.0
  0
INSERT
  8
1
  6
CONTINUOUS
 62
     1
  5
254
  2
LDR
 10
339.636417
 20
360.130667
 30
0.0
 41
239.999998
 42
239.999998
 50
206.885485
210
0.0
220
0.0
230
1.0
  0
LINE
  8
1
  6
CONTINUOUS
 62
     4
  5
255
 10
350.234917
 20
341.2705
 30
0.0
 11
354.7995
 21
346.197
 31
0.0
  0
INSERT
  8
1
  6
CONTINUOUS
 62
     1
  5
256
  2
LDR
 10
350.234917
 20
341.2705
 30
0.0
 41
239.999997
 42
239.999997
 50
227.183761
210
0.0
220
0.0
230
1.0
  0
INSERT
  8
1
  6
CONTINUOUS
 62
     1
  5
257
  2
LDR
 10
350.234917
 20
341.2705
 30
0.0
 41
239.999997
 42
239.999997
 50
227.183761
210
0.0
220
0.0
230
1.0
  0
LINE
  8
1
  6
CONTINUOUS
 62
     4
  5
258
 10
354.7995
 20
346.197
 30
0.0
 11
371.7995
 21
346.197
 31
0.0
  0
LINE
  8
1
  6
CONTINUOUS
 62
     4
  5
259
 10
361.7995
 20
346.197
 30
0.0
 11
361.7995
 21
342.197
 31
0.0
  0
LINE
  8
1
  6
CONTINUOUS
 62
     4
  5
25A
 10
361.7995
 20
342.197
 30
0.0
 11
365.546833
 21
346.197
 31
0.0
  0
LINE
  8
1
  6
CONTINUOUS
 62
     4
  5
25B
 10
345.94025
 20
344.865417
 30
0.0
 11
342.27975
 21
336.099583
 31
0.0
  0
LINE
  8
1
  6
CONTINUOUS
 62
     4
  5
25C
 10
342.27975
 20
336.099583
 30
0.0
 11
349.444583
 21
336.099583
 31
0.0
  0
INSERT
  8
1
  6
CONTINUOUS
 62
     1
  5
25D
  2
LDR
 10
345.94025
 20
344.865417
 30
0.0
 41
239.999999
 42
239.999999
 50
67.335208
210
0.0
220
0.0
230
1.0
  0
LINE
  8
1
  6
CONTINUOUS
 62
     4
  5
25E
 10
282.51475
 20
341.363833
 30
0.0
 11
282.51475
 21
320.863833
 31
0.0
  0
LINE
  8
1
  6
CONTINUOUS
 62
     4
  5
25F
 10
282.51475
 20
321.863833
 30
0.0
 11
312.01475
 21
321.863833
 31
0.0
  0
INSERT
  8
1
  6
CONTINUOUS
 62
     1
  5
260
  2
LDR
 10
282.51475
 20
321.863833
 30
0.0
 41
240.0
 42
240.0
 50
180.0
210
0.0
220
0.0
230
1.0
  0
INSERT
  8
1
  6
CONTINUOUS
 62
     1
  5
261
  2
LDR
 10
312.01475
 20
321.863833
 30
0.0
 41
240.0
 42
240.0
210
0.0
220
0.0
230
1.0
  0
LINE
  8
1
  6
CONTINUOUS
 62
     4
  5
262
 10
288.398667
 20
357.613833
 30
0.0
 11
300.7345
 21
329.599083
 31
0.0
  0
LINE
  8
1
  6
CONTINUOUS
 62
     4
  5
263
 10
300.7345
 20
329.599083
 30
0.0
 11
321.951417
 21
327.710083
 31
0.0
  0
LINE
  8
1
  6
CONTINUOUS
 62
     4
  5
264
 10
321.951417
 20
327.710083
 30
0.0
 11
315.01475
 21
336.631583
 31
0.0
  0
LINE
  8
1
  6
CONTINUOUS
 62
     4
  5
265
 10
321.951417
 20
327.710083
 30
0.0
 11
316.014083
 21
358.975333
 31
0.0
  0
LINE
  8
1
  6
CONTINUOUS
 62
     4
  5
266
 10
321.951417
 20
327.710083
 30
0.0
 11
324.35325
 21
349.989
 31
0.0
  0
LINE
  8
1
  6
CONTINUOUS
 62
     4
  5
267
 10
284.711333
 20
369.66725
 30
0.0
 11
287.846083
 21
373.294083
 31
0.0
  0
INSERT
  8
1
  6
CONTINUOUS
 62
     1
  5
268
  2
LDR
 10
284.711333
 20
369.66725
 30
0.0
 41
240.0
 42
240.0
 50
229.162439
210
0.0
220
0.0
230
1.0
  0
LINE
  8
1
  6
CONTINUOUS
 62
     4
  5
269
 10
287.846083
 20
373.294083
 30
0.0
 11
260.595
 21
383.212667
 31
0.0
  0
LINE
  8
1
  6
CONTINUOUS
 62
     4
  5
26A
 10
260.595
 20
383.212667
 30
0.0
 11
252.595
 21
383.212667
 31
0.0
  0
LINE
  8
1
  6
CONTINUOUS
 62
     4
  5
26B
 10
253.595
 20
381.212667
 30
0.0
 11
253.595
 21
385.212667
 31
0.0
  0
LINE
  8
1
  6
CONTINUOUS
 62
     4
  5
26C
 10
253.595
 20
385.212667
 30
0.0
 11
255.095
 21
383.212667
 31
0.0
  0
LINE
  8
1
  6
CONTINUOUS
 62
     4
  5
26D
 10
255.095
 20
383.212667
 30
0.0
 11
253.595
 21
381.212667
 31
0.0
  0
INSERT
  8
1
  6
CONTINUOUS
 62
     1
  5
26E
  2
LDR
 10
288.398667
 20
357.613833
 30
0.0
 41
239.999998
 42
239.999998
 50
113.765502
210
0.0
220
0.0
230
1.0
  0
INSERT
  8
1
  6
CONTINUOUS
 62
     1
  5
26F
  2
LDR
 10
288.398667
 20
357.613833
 30
0.0
 41
239.999998
 42
239.999998
 50
113.765502
210
0.0
220
0.0
230
1.0
  0
INSERT
  8
1
  6
CONTINUOUS
 62
     1
  5
270
  2
LDR
 10
315.01475
 20
336.631583
 30
0.0
 41
240.000001
 42
240.000001
 50
127.865868
210
0.0
220
0.0
230
1.0
  0
INSERT
  8
1
  6
CONTINUOUS
 62
     1
  5
271
  2
LDR
 10
315.01475
 20
336.631583
 30
0.0
 41
240.000001
 42
240.000001
 50
127.865868
210
0.0
220
0.0
230
1.0
  0
INSERT
  8
1
  6
CONTINUOUS
 62
     1
  5
272
  2
LDR
 10
316.014083
 20
358.975333
 30
0.0
 41
239.999997
 42
239.999997
 50
100.752547
210
0.0
220
0.0
230
1.0
  0
INSERT
  8
1
  6
CONTINUOUS
 62
     1
  5
273
  2
LDR
 10
316.014083
 20
358.975333
 30
0.0
 41
239.999997
 42
239.999997
 50
100.752547
210
0.0
220
0.0
230
1.0
  0
LINE
  8
1
  6
CONTINUOUS
 62
     4
  5
274
 10
308.01475
 20
337.863833
 30
0.0
 11
270.51475
 21
337.863833
 31
0.0
  0
LINE
  8
1
  6
CONTINUOUS
 62
     4
  5
275
 10
271.51475
 20
339.363833
 30
0.0
 11
271.51475
 21
337.863833
 31
0.0
  0
LINE
  8
1
  6
CONTINUOUS
 62
     4
  5
276
 10
271.51475
 20
337.863833
 30
0.0
 11
271.51475
 21
328.811417
 31
0.0
  0
INSERT
  8
1
  6
CONTINUOUS
 62
     1
  5
277
  2
LDR
 10
271.51475
 20
337.863833
 30
0.0
 41
240.0
 42
240.0
 50
90.0
210
0.0
220
0.0
230
1.0
  0
INSERT
  8
1
  6
CONTINUOUS
 62
     1
  5
278
  2
LDR
 10
271.51475
 20
337.863833
 30
0.0
 41
240.0
 42
240.0
 50
90.0
210
0.0
220
0.0
230
1.0
  0
LINE
  8
1
  6
CONTINUOUS
 62
     4
  5
279
 10
293.98225
 20
367.613833
 30
0.0
 11
309.04025
 21
354.064417
 31
0.0
  0
LINE
  8
1
  6
CONTINUOUS
 62
     4
  5
27A
 10
309.04025
 20
354.064417
 30
0.0
 11
266.816417
 21
354.064417
 31
0.0
  0
INSERT
  8
1
  6
CONTINUOUS
 62
     1
  5
27B
  2
LDR
 10
293.98225
 20
367.613833
 30
0.0
 41
240.0
 42
240.0
 50
138.01864
210
0.0
220
0.0
230
1.0
  0
LINE
  8
1
  6
CONTINUOUS
 62
     4
  5
27C
 10
281.659583
 20
389.171083
 30
0.0
 11
268.784333
 21
401.89275
 31
0.0
  0
LINE
  8
1
  6
CONTINUOUS
 62
     4
  5
27D
 10
268.784333
 20
401.89275
 30
0.0
 11
252.784333
 21
401.89275
 31
0.0
  0
INSERT
  8
1
  6
CONTINUOUS
 62
     1
  5
27E
  2
LDR
 10
281.659583
 20
389.171083
 30
0.0
 41
239.999999
 42
239.999999
 50
315.343774
210
0.0
220
0.0
230
1.0
  0
CIRCLE
  8
1
  6
CONTINUOUS
 62
     4
  5
27F
 10
243.2505
 20
401.945333
 30
0.0
 40
9.5
210
0.0
220
0.0
230
1.0
  0
LINE
  8
1
  6
CONTINUOUS
 62
     4
  5
280
 10
252.639583
 20
403.39275
 30
0.0
 11
240.639583
 21
403.39275
 31
0.0
  0
LINE
  8
1
  6
CONTINUOUS
 62
     4
  5
281
 10
238.78175
 20
404.89275
 30
0.0
 11
238.78175
 21
393.562
 31
0.0
  0
LINE
  8
1
  6
CONTINUOUS
 62
     4
  5
282
 10
252.28175
 20
404.89275
 30
0.0
 11
240.639583
 21
404.89275
 31
0.0
  0
LINE
  8
1
  6
CONTINUOUS
 62
     4
  5
283
 10
240.639583
 20
404.89275
 30
0.0
 11
240.639583
 21
392.811167
 31
0.0
  0
LINE
  8
1
  6
CONTINUOUS
 62
     4
  5
284
 10
240.639583
 20
404.89275
 30
0.0
 11
238.78175
 21
404.89275
 31
0.0
  0
POLYLINE
  8
1
  6
CONTINUOUS
 62
     4
  5
285
 66
     1
 10
0.0
 20
0.0
 30
0.0
 70
     1
  0
VERTEX
  8
1
  6
CONTINUOUS
 62
     4
  5
286
 10
240.639583
 20
404.89275
 30
0.0
  0
VERTEX
  8
1
  6
CONTINUOUS
 62
     4
  5
287
 10
242.139583
 20
404.89275
 30
0.0
  0
VERTEX
  8
1
  6
CONTINUOUS
 62
     4
  5
288
 10
240.639583
 20
403.39275
 30
0.0
  0
VERTEX
  8
1
  6
CONTINUOUS
 62
     4
  5
289
 10
240.639583
 20
404.89275
 30
0.0
  0
SEQEND
  8
1
  6
CONTINUOUS
 62
     4
  5
28A
  0
LINE
  8
1
  6
CONTINUOUS
 62
     4
  5
28B
 10
269.457333
 20
324.9365
 30
0.0
 11
253.457333
 21
324.9365
 31
0.0
  0
LINE
  8
1
  6
CONTINUOUS
 62
     4
  5
28C
 10
282.332583
 20
337.658167
 30
0.0
 11
269.457333
 21
324.9365
 31
0.0
  0
INSERT
  8
1
  6
CONTINUOUS
 62
     1
  5
28D
  2
LDR
 10
282.332583
 20
337.658167
 30
0.0
 41
239.999999
 42
-239.999999
 50
44.656226
210
0.0
220
0.0
230
1.0
  0
CIRCLE
  8
1
  6
CONTINUOUS
 62
     4
  5
28E
 10
243.9235
 20
324.883917
 30
0.0
 40
9.5
210
0.0
220
0.0
230
1.0
  0
LINE
  8
1
  6
CONTINUOUS
 62
     4
  5
28F
 10
253.312583
 20
323.4365
 30
0.0
 11
241.312583
 21
323.4365
 31
0.0
  0
LINE
  8
1
  6
CONTINUOUS
 62
     4
  5
290
 10
239.45475
 20
321.9365
 30
0.0
 11
239.45475
 21
333.26725
 31
0.0
  0
LINE
  8
1
  6
CONTINUOUS
 62
     4
  5
291
 10
252.95475
 20
321.9365
 30
0.0
 11
241.312583
 21
321.9365
 31
0.0
  0
LINE
  8
1
  6
CONTINUOUS
 62
     4
  5
292
 10
241.312583
 20
321.9365
 30
0.0
 11
241.312583
 21
334.018083
 31
0.0
  0
LINE
  8
1
  6
CONTINUOUS
 62
     4
  5
293
 10
241.312583
 20
321.9365
 30
0.0
 11
239.45475
 21
321.9365
 31
0.0
  0
POLYLINE
  8
1
  6
CONTINUOUS
 62
     4
  5
294
 66
     1
 10
0.0
 20
0.0
 30
0.0
 70
     1
  0
VERTEX
  8
1
  6
CONTINUOUS
 62
     4
  5
295
 10
241.312583
 20
321.9365
 30
0.0
  0
VERTEX
  8
1
  6
CONTINUOUS
 62
     4
  5
296
 10
242.812583
 20
321.9365
 30
0.0
  0
VERTEX
  8
1
  6
CONTINUOUS
 62
     4
  5
297
 10
241.312583
 20
323.4365
 30
0.0
  0
VERTEX
  8
1
  6
CONTINUOUS
 62
     4
  5
298
 10
241.312583
 20
321.9365
 30
0.0
  0
SEQEND
  8
1
  6
CONTINUOUS
 62
     4
  5
299
  0
TEXT
  8
1
  6
CONTINUOUS
 62
     7
  5
29A
 10
96.13825
 20
403.858417
 30
0.0
 40
2.5
  1
 1/4 "
  7
MONOTXT
210
0.0
220
0.0
230
1.0
  0
TEXT
  8
1
  6
CONTINUOUS
 62
     7
  5
29B
 10
131.310583
 20
404.198333
 30
0.0
 40
2.5
  1
15  1/2 "
  7
MONOTXT
210
0.0
220
0.0
230
1.0
  0
TEXT
  8
1
  6
CONTINUOUS
 62
     7
  5
29C
 10
171.410333
 20
403.858417
 30
0.0
 40
2.5
  1
 1/4 "
  7
MONOTXT
210
0.0
220
0.0
230
1.0
  0
TEXT
  8
1
  6
CONTINUOUS
 62
     7
  5
29D
 10
59.606667
 20
388.731167
 30
0.0
 40
2.5
  1
GROUNDING LUG
  7
MONOTXT
210
0.0
220
0.0
230
1.0
  0
TEXT
  8
1
  6
CONTINUOUS
 62
     7
  5
29E
 10
199.786083
 20
390.60075
 30
0.0
 40
2.5
  1
TYP.
  7
MONOTXT
210
0.0
220
0.0
230
1.0
  0
TEXT
  8
1
  6
CONTINUOUS
 62
     7
  5
29F
 10
63.344833
 20
374.283667
 30
0.0
 40
2.5
  1
TYP.
  7
MONOTXT
210
0.0
220
0.0
230
1.0
  0
TEXT
  8
1
  6
CONTINUOUS
 62
     7
  5
2A0
 10
176.337833
 20
387.71125
 30
0.0
 40
2.5
  1
 1/4 "
  7
MONOTXT
210
0.0
220
0.0
230
1.0
  0
TEXT
  8
1
  6
CONTINUOUS
 62
     7
  5
2A1
 10
75.238833
 20
371.22425
 30
0.0
 40
2.5
  1
 3/16 "
  7
MONOTXT
210
0.0
220
0.0
230
1.0
  0
TEXT
  8
1
  6
CONTINUOUS
 62
     7
  5
2A2
 10
176.337833
 20
380.7425
 30
0.0
 40
2.5
  1
 1/4 " P TYP.
  7
MONOTXT
210
0.0
220
0.0
230
1.0
  0
TEXT
  8
1
  6
CONTINUOUS
 62
     7
  5
2A3
 10
185.343333
 20
380.402583
 30
0.0
 40
2.5
  1
L
  7
MONOTXT
210
0.0
220
0.0
230
1.0
  0
TEXT
  8
1
  6
CONTINUOUS
 62
     7
  5
2A4
 10
176.677667
 20
374.673167
 30
0.0
 40
2.5
  1
2" 0 CONDUIT
  7
MONOTXT
 11
176.677667
 21
377.173167
 31
0.0
210
0.0
220
0.0
230
1.0
 73
     3
  0
TEXT
  8
1
  6
CONTINUOUS
 62
     7
  5
2A5
 10
176.677667
 20
370.173167
 30
0.0
 40
2.5
  1
HUB, (TYP.)
  7
MONOTXT
 11
176.677667
 21
372.673167
 31
0.0
210
0.0
220
0.0
230
1.0
 73
     3
  0
TEXT
  8
1
  6
CONTINUOUS
 62
     7
  5
2A6
 10
178.376833
 20
352.747083
 30
0.0
 40
2.5
  1
1  1/2 " 0 CONDUIT
  7
MONOTXT
 11
178.376833
 21
355.247083
 31
0.0
210
0.0
220
0.0
230
1.0
 73
     3
  0
TEXT
  8
1
  6
CONTINUOUS
 62
     7
  5
2A7
 10
178.376833
 20
348.247083
 30
0.0
 40
2.5
  1
HUB (TYP.)
  7
MONOTXT
 11
178.376833
 21
350.747083
 31
0.0
210
0.0
220
0.0
230
1.0
 73
     3
  0
TEXT
  8
1
  6
CONTINUOUS
 62
     7
  5
2A8
 10
183.258583
 20
374.598333
 30
0.0
 40
2.5
  1
/
  7
MONOTXT
210
0.0
220
0.0
230
1.0
  0
TEXT
  8
1
  6
CONTINUOUS
 62
     7
  5
2A9
 10
189.375083
 20
352.681333
 30
0.0
 40
2.5
  1
/
  7
MONOTXT
210
0.0
220
0.0
230
1.0
  0
TEXT
  8
1
  6
CONTINUOUS
 62
     7
  5
2AA
 10
171.113
 20
332.38675
 30
0.0
 40
2.5
  1
1" CONDUIT
  7
MONOTXT
 11
171.113
 21
334.88675
 31
0.0
210
0.0
220
0.0
230
1.0
 73
     3
  0
TEXT
  8
1
  6
CONTINUOUS
 62
     7
  5
2AB
 10
171.113
 20
327.88675
 30
0.0
 40
2.5
  1
HUB (TYP.)
  7
MONOTXT
 11
171.113
 21
330.38675
 31
0.0
210
0.0
220
0.0
230
1.0
 73
     3
  0
TEXT
  8
1
  6
CONTINUOUS
 62
     7
  5
2AC
 10
120.72025
 20
320.09275
 30
0.0
 40
2.5
  1
8"
  7
MONOTXT
210
0.0
220
0.0
230
1.0
  0
TEXT
  8
1
  6
CONTINUOUS
 62
     7
  5
2AD
 10
149.750917
 20
319.910167
 30
0.0
 40
2.5
  1
8"
  7
MONOTXT
210
0.0
220
0.0
230
1.0
  0
TEXT
  8
1
  6
CONTINUOUS
 62
     7
  5
2AE
 10
238.885583
 20
405.749667
 30
0.0
 40
2.5
  1
ALT.
  7
MONOTXT
210
0.0
220
0.0
230
1.0
  0
TEXT
  8
1
  6
CONTINUOUS
 62
     7
  5
2AF
 10
239.557917
 20
318.451333
 30
0.0
 40
2.5
  1
ALT.
  7
MONOTXT
210
0.0
220
0.0
230
1.0
  0
TEXT
  8
1
  6
CONTINUOUS
 62
     7
  5
2B0
 10
299.1275
 20
402.790417
 30
0.0
 40
2.5
  1
7"
  7
MONOTXT
210
0.0
220
0.0
230
1.0
  0
TEXT
  8
1
  6
CONTINUOUS
 62
     7
  5
2B1
 10
334.896083
 20
402.790417
 30
0.0
 40
2.5
  1
7"
  7
MONOTXT
210
0.0
220
0.0
230
1.0
  0
TEXT
  8
1
  6
CONTINUOUS
 62
     7
  5
2B2
 10
330.686
 20
411.592167
 30
0.0
 40
2.5
  1
(OR TO MATCH SLOPE OF
  7
MONOTXT
 72
     4
 11
356.286333
 21
412.842167
 31
0.0
210
0.0
220
0.0
230
1.0
  0
TEXT
  8
1
  6
CONTINUOUS
 62
     7
  5
2B3
 10
326.001
 20
407.092167
 30
0.0
 40
2.5
  1
 APPROPRIATE PARAPET WALL)
  7
MONOTXT
 72
     4
 11
356.276583
 21
408.342167
 31
0.0
210
0.0
220
0.0
230
1.0
  0
TEXT
  8
1
  6
CONTINUOUS
 62
     7
  5
2B4
 10
297.78275
 20
392.433
 30
0.0
 40
2.5
  1
 1/4 " P
  7
MONOTXT
210
0.0
220
0.0
230
1.0
  0
TEXT
  8
1
  6
CONTINUOUS
 62
     7
  5
2B5
 10
306.792167
 20
392.433
 30
0.0
 40
2.5
  1
L
  7
MONOTXT
210
0.0
220
0.0
230
1.0
  0
TEXT
  8
1
  6
CONTINUOUS
 62
     7
  5
2B6
 10
357.694417
 20
390.130667
 30
0.0
 40
2.5
  1
 1/4 " 0 BRASS
  7
MONOTXT
 11
357.694417
 21
392.630667
 31
0.0
210
0.0
220
0.0
230
1.0
 73
     3
  0
TEXT
  8
1
  6
CONTINUOUS
 62
     7
  5
2B7
 10
357.694417
 20
385.630667
 30
0.0
 40
2.5
  1
SCREWS (5 REQ'D.)
  7
MONOTXT
 11
357.694417
 21
388.130667
 31
0.0
210
0.0
220
0.0
230
1.0
 73
     3
  0
TEXT
  8
1
  6
CONTINUOUS
 62
     7
  5
2B8
 10
365.870833
 20
390.085083
 30
0.0
 40
2.5
  1
/
  7
MONOTXT
210
0.0
220
0.0
230
1.0
  0
TEXT
  8
1
  6
CONTINUOUS
 62
     7
  5
2B9
 10
355.945917
 20
376.049333
 30
0.0
 40
2.5
  1
2  1/2 " CLEAR
  7
MONOTXT
 11
355.945917
 21
378.549333
 31
0.0
210
0.0
220
0.0
230
1.0
 73
     3
  0
TEXT
  8
1
  6
CONTINUOUS
 62
     7
  5
2BA
 10
355.945917
 20
371.549333
 30
0.0
 40
2.5
  1
MIN.
  7
MONOTXT
 11
355.945917
 21
374.049333
 31
0.0
210
0.0
220
0.0
230
1.0
 73
     3
  0
LINE
  8
1
  6
CONTINUOUS
 62
     4
  5
2BB
 10
334.577667
 20
374.740917
 30
0.0
 11
355.162833
 21
374.740917
 31
0.0
  0
TEXT
  8
1
  6
CONTINUOUS
 62
     7
  5
2BC
 10
363.972
 20
363.666917
 30
0.0
 40
2.5
  1
COVER PLATE
  7
MONOTXT
210
0.0
220
0.0
230
1.0
  0
TEXT
  8
1
  6
CONTINUOUS
 62
     7
  5
2BD
 10
366.7475
 20
342.048417
 30
0.0
 40
2.5
  1
 1/4 "
  7
MONOTXT
210
0.0
220
0.0
230
1.0
  0
TEXT
  8
1
  6
CONTINUOUS
 62
     7
  5
2BE
 10
350.1485
 20
334.93225
 30
0.0
 40
2.5
  1
2 BARS 1  1/4 " x  1/4 " x 2"
  7
MONOTXT
210
0.0
220
0.0
230
1.0
  0
TEXT
  8
1
  6
CONTINUOUS
 62
     7
  5
2BF
 10
322.469333
 20
325.203083
 30
0.0
 40
2.5
  1
HUBS AS REQ'D.
  7
MONOTXT
210
0.0
220
0.0
230
1.0
  0
TEXT
  8
1
  6
CONTINUOUS
 62
     7
  5
2C0
 10
290.446833
 20
323.14125
 30
0.0
 40
2.5
  1
5  1/2 " +
  7
MONOTXT
210
0.0
220
0.0
230
1.0
  0
TEXT
  8
1
  6
CONTINUOUS
 62
     7
  5
2C1
 10
303.476667
 20
321.742083
 30
0.0
 40
2.5
  1
-
  7
MONOTXT
210
0.0
220
0.0
230
1.0
  0
TEXT
  8
1
  6
CONTINUOUS
 62
     7
  5
2C2
 10
255.47975
 20
384.629583
 30
0.0
 40
2.5
  1
 3/16 "
  7
MONOTXT
210
0.0
220
0.0
230
1.0
  0
TEXT
  8
1
  6
CONTINUOUS
 62
     7
  5
2C3
 10
233.68975
 20
352.670417
 30
0.0
 40
2.5
  1
1" x  1/4 " x 3  1/2 "
  7
MONOTXT
210
0.0
220
0.0
230
1.0
  0
TEXT
  8
1
  6
CONTINUOUS
 62
     7
  5
2C4
 10
270.0555
 20
330.284167
 30
0.0
 40
2.5
  1
 1/2 "
 50
90.0
  7
MONOTXT
210
0.0
220
0.0
230
1.0
  0
TEXT
  8
1
  6
CONTINUOUS
 62
     7
  5
2C5
 10
269.90825
 20
360.770583
 30
0.0
 40
2.5
  1
9  1/2 "
 50
90.0
  7
MONOTXT
210
0.0
220
0.0
230
1.0
  0
TEXT
  8
1
  6
CONTINUOUS
 62
     7
  5
2C6
 10
303.476667
 20
376.529333
 30
0.0
 40
2.5
  1
 1/2 "
 50
90.0
  7
MONOTXT
210
0.0
220
0.0
230
1.0
  0
TEXT
  8
1
  6
CONTINUOUS
 62
     7
  5
2C7
 10
289.637083
 20
378.296667
 30
0.0
 40
2.5
  1
3"
  7
MONOTXT
210
0.0
220
0.0
230
1.0
  0
TEXT
  8
1
  6
CONTINUOUS
 62
     7
  5
2C8
 10
316.797083
 20
374.7095
 30
0.0
 40
2.5
  1
1"
 50
307.001361
  7
MONOTXT
210
0.0
220
0.0
230
1.0
  0
TEXT
  8
1
  6
CONTINUOUS
 62
     7
  5
2C9
 10
332.75
 20
357.208167
 30
0.0
 40
2.5
  1
3  1/2 "+
 50
304.534744
  7
MONOTXT
210
0.0
220
0.0
230
1.0
  0
TEXT
  8
1
  6
CONTINUOUS
 62
     7
  5
2CA
 10
338.148083
 20
347.363667
 30
0.0
 40
2.5
  1
-
 50
304.534744
  7
MONOTXT
210
0.0
220
0.0
230
1.0
  0
TEXT
  8
1
  6
CONTINUOUS
 62
     7
  5
2CB
 10
310.146833
 20
307.448083
 30
0.0
 40
3.0
  1
SIDE VIEW
  7
MONOTXT
210
0.0
220
0.0
230
1.0
  0
TEXT
  8
1
  6
CONTINUOUS
 62
     7
  5
2CC
 10
290.025583
 20
299.501417
 30
0.0
 40
3.5
  1
TYPE A JUNCTION BOX
  7
MONOTXT
210
0.0
220
0.0
230
1.0
  0
TEXT
  8
1
  6
CONTINUOUS
 62
     7
  5
2CD
 10
86.350667
 20
300.158167
 30
0.0
 40
3.5
  1
FRONT VIEW WITH COVER REMOVED
  7
MONOTXT
210
0.0
220
0.0
230
1.0
  0
LINE
  8
1
  6
CONTINUOUS
 62
     7
  5
2CE
 10
83.70625
 20
298.196833
 30
0.0
 11
186.91525
 21
298.196833
 31
0.0
  0
LINE
  8
1
  6
CONTINUOUS
 62
     7
  5
2CF
 10
288.490917
 20
297.936333
 30
0.0
 11
354.35875
 21
297.936333
 31
0.0
  0
LINE
  8
1
  6
CONTINUOUS
 62
     7
  5
2D0
 10
308.726
 20
306.158917
 30
0.0
 11
333.492833
 21
306.158917
 31
0.0
  0
LINE
  8
1
  6
CONTINUOUS
 62
     4
  5
2D1
 10
428.3025
 20
330.613833
 30
0.0
 11
428.3025
 21
388.363833
 31
0.0
  0
LINE
  8
1
  6
CONTINUOUS
 62
     4
  5
2D2
 10
488.3025
 20
330.613833
 30
0.0
 11
488.3025
 21
388.363833
 31
0.0
  0
LINE
  8
1
  6
CONTINUOUS
 62
     4
  5
2D3
 10
428.3025
 20
388.363833
 30
0.0
 11
488.3025
 21
388.363833
 31
0.0
  0
LINE
  8
1
  6
CONTINUOUS
 62
     4
  5
2D4
 10
428.3025
 20
330.613833
 30
0.0
 11
453.3025
 21
330.613833
 31
0.0
  0
LINE
  8
1
  6
CONTINUOUS
 62
     4
  5
2D5
 10
463.3025
 20
330.613833
 30
0.0
 11
488.3025
 21
330.613833
 31
0.0
  0
LINE
  8
1
  6
CONTINUOUS
 62
     4
  5
2D6
 10
453.3025
 20
330.613833
 30
0.0
 11
453.3025
 21
335.613833
 31
0.0
  0
LINE
  8
1
  6
CONTINUOUS
 62
     4
  5
2D7
 10
463.3025
 20
330.613833
 30
0.0
 11
463.3025
 21
335.613833
 31
0.0
  0
ARC
  8
1
  6
CONTINUOUS
 62
     4
  5
2D8
 10
458.3025
 20
335.816228
 30
0.0
 40
5.004095
 50
357.681992
 51
182.318008
210
0.0
220
0.0
230
1.0
  0
LINE
  8
1
  6
CONTINUOUS
 62
     4
  5
2D9
 10
458.3025
 20
402.987917
 30
0.0
 11
458.3025
 21
389.363833
 31
0.0
  0
LINE
  8
1
  6
CONTINUOUS
 62
     4
  5
2DA
 10
458.3025
 20
387.363833
 30
0.0
 11
458.3025
 21
383.363833
 31
0.0
  0
LINE
  8
1
  6
CONTINUOUS
 62
     4
  5
2DB
 10
434.3025
 20
387.363833
 30
0.0
 11
434.3025
 21
383.363833
 31
0.0
  0
LINE
  8
1
  6
CONTINUOUS
 62
     4
  5
2DC
 10
482.3025
 20
387.363833
 30
0.0
 11
482.3025
 21
383.363833
 31
0.0
  0
LINE
  8
1
  6
CONTINUOUS
 62
     4
  5
2DD
 10
431.8025
 20
385.363833
 30
0.0
 11
436.8025
 21
385.363833
 31
0.0
  0
LINE
  8
1
  6
CONTINUOUS
 62
     4
  5
2DE
 10
455.8025
 20
385.363833
 30
0.0
 11
460.8025
 21
385.363833
 31
0.0
  0
LINE
  8
1
  6
CONTINUOUS
 62
     4
  5
2DF
 10
479.8025
 20
385.363833
 30
0.0
 11
484.8025
 21
385.363833
 31
0.0
  0
LINE
  8
1
  6
CONTINUOUS
 62
     4
  5
2E0
 10
434.3025
 20
338.113833
 30
0.0
 11
434.3025
 21
333.113833
 31
0.0
  0
LINE
  8
1
  6
CONTINUOUS
 62
     4
  5
2E1
 10
482.3025
 20
338.113833
 30
0.0
 11
482.3025
 21
333.113833
 31
0.0
  0
LINE
  8
1
  6
CONTINUOUS
 62
     4
  5
2E2
 10
431.8025
 20
335.613833
 30
0.0
 11
436.8025
 21
335.613833
 31
0.0
  0
LINE
  8
1
  6
CONTINUOUS
 62
     4
  5
2E3
 10
479.8025
 20
335.613833
 30
0.0
 11
484.8025
 21
335.613833
 31
0.0
  0
CIRCLE
  8
1
  6
CONTINUOUS
 62
     4
  5
2E4
 10
434.289
 20
385.373583
 30
0.0
 40
1.0
210
0.0
220
0.0
230
1.0
  0
CIRCLE
  8
1
  6
CONTINUOUS
 62
     4
  5
2E5
 10
458.28425
 20
385.325083
 30
0.0
 40
1.0
210
0.0
220
0.0
230
1.0
  0
CIRCLE
  8
1
  6
CONTINUOUS
 62
     4
  5
2E6
 10
482.2795
 20
385.373583
 30
0.0
 40
1.0
210
0.0
220
0.0
230
1.0
  0
CIRCLE
  8
1
  6
CONTINUOUS
 62
     4
  5
2E7
 10
434.295667
 20
335.62225
 30
0.0
 40
1.0
210
0.0
220
0.0
230
1.0
  0
CIRCLE
  8
1
  6
CONTINUOUS
 62
     4
  5
2E8
 10
482.301833
 20
335.61425
 30
0.0
 40
1.0
210
0.0
220
0.0
230
1.0
  0
LINE
  8
1
  6
CONTINUOUS
 62
     4
  5
2E9
 10
434.3025
 20
389.363833
 30
0.0
 11
434.3025
 21
402.987917
 31
0.0
  0
LINE
  8
1
  6
CONTINUOUS
 62
     4
  5
2EA
 10
482.3025
 20
389.363833
 30
0.0
 11
482.3025
 21
402.987917
 31
0.0
  0
LINE
  8
1
  6
CONTINUOUS
 62
     4
  5
2EB
 10
428.3025
 20
389.363833
 30
0.0
 11
428.3025
 21
411.987917
 31
0.0
  0
LINE
  8
1
  6
CONTINUOUS
 62
     4
  5
2EC
 10
488.3025
 20
389.363833
 30
0.0
 11
488.3025
 21
411.987917
 31
0.0
  0
LINE
  8
1
  6
CONTINUOUS
 62
     4
  5
2ED
 10
428.3025
 20
410.987917
 30
0.0
 11
488.3025
 21
410.987917
 31
0.0
  0
LINE
  8
1
  6
CONTINUOUS
 62
     4
  5
2EE
 10
434.3025
 20
401.987917
 30
0.0
 11
458.3025
 21
401.987917
 31
0.0
  0
LINE
  8
1
  6
CONTINUOUS
 62
     4
  5
2EF
 10
458.3025
 20
401.987917
 30
0.0
 11
482.3025
 21
401.987917
 31
0.0
  0
LINE
  8
1
  6
CONTINUOUS
 62
     4
  5
2F0
 10
434.3025
 20
401.987917
 30
0.0
 11
428.3025
 21
401.987917
 31
0.0
  0
LINE
  8
1
  6
CONTINUOUS
 62
     4
  5
2F1
 10
428.3025
 20
401.987917
 30
0.0
 11
423.3025
 21
401.987917
 31
0.0
  0
LINE
  8
1
  6
CONTINUOUS
 62
     4
  5
2F2
 10
482.3025
 20
401.987917
 30
0.0
 11
488.3025
 21
401.987917
 31
0.0
  0
LINE
  8
1
  6
CONTINUOUS
 62
     4
  5
2F3
 10
488.3025
 20
401.987917
 30
0.0
 11
493.3025
 21
401.987917
 31
0.0
  0
INSERT
  8
1
  6
CONTINUOUS
 62
     1
  5
2F4
  2
LDR
 10
428.3025
 20
401.987917
 30
0.0
 41
240.0
 42
240.0
210
0.0
220
0.0
230
1.0
  0
INSERT
  8
1
  6
CONTINUOUS
 62
     1
  5
2F5
  2
LDR
 10
428.3025
 20
401.987917
 30
0.0
 41
240.0
 42
240.0
210
0.0
220
0.0
230
1.0
  0
INSERT
  8
1
  6
CONTINUOUS
 62
     1
  5
2F6
  2
LDR
 10
434.3025
 20
401.987917
 30
0.0
 41
240.0
 42
240.0
 50
180.0
210
0.0
220
0.0
230
1.0
  0
INSERT
  8
1
  6
CONTINUOUS
 62
     1
  5
2F7
  2
LDR
 10
434.3025
 20
401.987917
 30
0.0
 41
240.0
 42
240.0
 50
180.0
210
0.0
220
0.0
230
1.0
  0
INSERT
  8
1
  6
CONTINUOUS
 62
     1
  5
2F8
  2
LDR
 10
458.3025
 20
401.987917
 30
0.0
 41
240.0
 42
240.0
210
0.0
220
0.0
230
1.0
  0
INSERT
  8
1
  6
CONTINUOUS
 62
     1
  5
2F9
  2
LDR
 10
458.3025
 20
401.987917
 30
0.0
 41
240.0
 42
240.0
210
0.0
220
0.0
230
1.0
  0
INSERT
  8
1
  6
CONTINUOUS
 62
     1
  5
2FA
  2
LDR
 10
458.3025
 20
401.987917
 30
0.0
 41
240.0
 42
240.0
 50
180.0
210
0.0
220
0.0
230
1.0
  0
INSERT
  8
1
  6
CONTINUOUS
 62
     1
  5
2FB
  2
LDR
 10
458.3025
 20
401.987917
 30
0.0
 41
240.0
 42
240.0
 50
180.0
210
0.0
220
0.0
230
1.0
  0
INSERT
  8
1
  6
CONTINUOUS
 62
     1
  5
2FC
  2
LDR
 10
482.3025
 20
401.987917
 30
0.0
 41
240.0
 42
240.0
210
0.0
220
0.0
230
1.0
  0
INSERT
  8
1
  6
CONTINUOUS
 62
     1
  5
2FD
  2
LDR
 10
482.3025
 20
401.987917
 30
0.0
 41
240.0
 42
240.0
210
0.0
220
0.0
230
1.0
  0
INSERT
  8
1
  6
CONTINUOUS
 62
     1
  5
2FE
  2
LDR
 10
488.3025
 20
401.987917
 30
0.0
 41
240.0
 42
240.0
 50
180.0
210
0.0
220
0.0
230
1.0
  0
INSERT
  8
1
  6
CONTINUOUS
 62
     1
  5
2FF
  2
LDR
 10
488.3025
 20
401.987917
 30
0.0
 41
240.0
 42
240.0
 50
180.0
210
0.0
220
0.0
230
1.0
  0
INSERT
  8
1
  6
CONTINUOUS
 62
     1
  5
300
  2
LDR
 10
428.3025
 20
410.987917
 30
0.0
 41
240.0
 42
240.0
 50
180.0
210
0.0
220
0.0
230
1.0
  0
INSERT
  8
1
  6
CONTINUOUS
 62
     1
  5
301
  2
LDR
 10
428.3025
 20
410.987917
 30
0.0
 41
240.0
 42
240.0
 50
180.0
210
0.0
220
0.0
230
1.0
  0
INSERT
  8
1
  6
CONTINUOUS
 62
     1
  5
302
  2
LDR
 10
488.3025
 20
410.987917
 30
0.0
 41
240.0
 42
240.0
210
0.0
220
0.0
230
1.0
  0
INSERT
  8
1
  6
CONTINUOUS
 62
     1
  5
303
  2
LDR
 10
488.3025
 20
410.987917
 30
0.0
 41
240.0
 42
240.0
210
0.0
220
0.0
230
1.0
  0
LINE
  8
1
  6
CONTINUOUS
 62
     4
  5
304
 10
511.926583
 20
388.363833
 30
0.0
 11
489.3025
 21
388.363833
 31
0.0
  0
LINE
  8
1
  6
CONTINUOUS
 62
     4
  5
305
 10
511.926583
 20
330.613833
 30
0.0
 11
489.3025
 21
330.613833
 31
0.0
  0
LINE
  8
1
  6
CONTINUOUS
 62
     4
  5
306
 10
489.3025
 20
385.363833
 30
0.0
 11
502.926583
 21
385.363833
 31
0.0
  0
LINE
  8
1
  6
CONTINUOUS
 62
     4
  5
307
 10
489.3025
 20
335.613833
 30
0.0
 11
502.926583
 21
335.613833
 31
0.0
  0
LINE
  8
1
  6
CONTINUOUS
 62
     4
  5
308
 10
501.926583
 20
385.363833
 30
0.0
 11
501.926583
 21
335.613833
 31
0.0
  0
LINE
  8
1
  6
CONTINUOUS
 62
     4
  5
309
 10
510.926583
 20
388.363833
 30
0.0
 11
510.926583
 21
330.613833
 31
0.0
  0
LINE
  8
1
  6
CONTINUOUS
 62
     4
  5
30A
 10
501.926583
 20
385.363833
 30
0.0
 11
501.926583
 21
388.363833
 31
0.0
  0
LINE
  8
1
  6
CONTINUOUS
 62
     4
  5
30B
 10
501.926583
 20
388.363833
 30
0.0
 11
501.926583
 21
393.363833
 31
0.0
  0
INSERT
  8
1
  6
CONTINUOUS
 62
     1
  5
30C
  2
LDR
 10
501.926583
 20
388.363833
 30
0.0
 41
240.0
 42
240.0
 50
270.0
210
0.0
220
0.0
230
1.0
  0
INSERT
  8
1
  6
CONTINUOUS
 62
     1
  5
30D
  2
LDR
 10
501.926583
 20
388.363833
 30
0.0
 41
240.0
 42
240.0
 50
270.0
210
0.0
220
0.0
230
1.0
  0
INSERT
  8
1
  6
CONTINUOUS
 62
     1
  5
30E
  2
LDR
 10
501.926583
 20
385.363833
 30
0.0
 41
240.0
 42
240.0
 50
90.0
210
0.0
220
0.0
230
1.0
  0
LINE
  8
1
  6
CONTINUOUS
 62
     4
  5
30F
 10
501.926583
 20
335.613833
 30
0.0
 11
501.926583
 21
330.613833
 31
0.0
  0
LINE
  8
1
  6
CONTINUOUS
 62
     4
  5
310
 10
501.926583
 20
330.613833
 30
0.0
 11
501.926583
 21
325.613833
 31
0.0
  0
INSERT
  8
1
  6
CONTINUOUS
 62
     1
  5
311
  2
LDR
 10
501.926583
 20
335.613833
 30
0.0
 41
240.0
 42
240.0
 50
270.0
210
0.0
220
0.0
230
1.0
  0
INSERT
  8
1
  6
CONTINUOUS
 62
     1
  5
312
  2
LDR
 10
501.926583
 20
335.613833
 30
0.0
 41
240.0
 42
240.0
 50
270.0
210
0.0
220
0.0
230
1.0
  0
INSERT
  8
1
  6
CONTINUOUS
 62
     1
  5
313
  2
LDR
 10
501.926583
 20
330.613833
 30
0.0
 41
240.0
 42
240.0
 50
90.0
210
0.0
220
0.0
230
1.0
  0
INSERT
  8
1
  6
CONTINUOUS
 62
     1
  5
314
  2
LDR
 10
510.926583
 20
388.363833
 30
0.0
 41
240.0
 42
240.0
 50
90.0
210
0.0
220
0.0
230
1.0
  0
INSERT
  8
1
  6
CONTINUOUS
 62
     1
  5
315
  2
LDR
 10
510.926583
 20
388.363833
 30
0.0
 41
240.0
 42
240.0
 50
90.0
210
0.0
220
0.0
230
1.0
  0
INSERT
  8
1
  6
CONTINUOUS
 62
     1
  5
316
  2
LDR
 10
510.926583
 20
330.613833
 30
0.0
 41
240.0
 42
240.0
 50
270.0
210
0.0
220
0.0
230
1.0
  0
INSERT
  8
1
  6
CONTINUOUS
 62
     1
  5
317
  2
LDR
 10
510.926583
 20
330.613833
 30
0.0
 41
240.0
 42
240.0
 50
270.0
210
0.0
220
0.0
230
1.0
  0
LINE
  8
1
  6
CONTINUOUS
 62
     4
  5
318
 10
453.3025
 20
338.613833
 30
0.0
 11
453.3025
 21
349.613833
 31
0.0
  0
LINE
  8
1
  6
CONTINUOUS
 62
     4
  5
319
 10
463.3025
 20
338.613833
 30
0.0
 11
463.3025
 21
349.613833
 31
0.0
  0
LINE
  8
1
  6
CONTINUOUS
 62
     4
  5
31A
 10
473.804167
 20
340.804917
 30
0.0
 11
460.804167
 21
340.804917
 31
0.0
  0
LINE
  8
1
  6
CONTINUOUS
 62
     4
  5
31B
 10
453.3025
 20
348.613833
 30
0.0
 11
463.3025
 21
348.613833
 31
0.0
  0
INSERT
  8
1
  6
CONTINUOUS
 62
     1
  5
31C
  2
LDR
 10
453.3025
 20
348.613833
 30
0.0
 41
240.0
 42
240.0
 50
180.0
210
0.0
220
0.0
230
1.0
  0
INSERT
  8
1
  6
CONTINUOUS
 62
     1
  5
31D
  2
LDR
 10
463.3025
 20
348.613833
 30
0.0
 41
240.0
 42
240.0
210
0.0
220
0.0
230
1.0
  0
LINE
  8
1
  6
CONTINUOUS
 62
     4
  5
31E
 10
472.804167
 20
340.804917
 30
0.0
 11
472.804167
 21
330.613833
 31
0.0
  0
INSERT
  8
1
  6
CONTINUOUS
 62
     1
  5
31F
  2
LDR
 10
472.804167
 20
340.804917
 30
0.0
 41
240.0
 42
240.0
 50
90.0
210
0.0
220
0.0
230
1.0
  0
INSERT
  8
1
  6
CONTINUOUS
 62
     1
  5
320
  2
LDR
 10
472.804167
 20
340.804917
 30
0.0
 41
240.0
 42
240.0
 50
90.0
210
0.0
220
0.0
230
1.0
  0
INSERT
  8
1
  6
CONTINUOUS
 62
     1
  5
321
  2
LDR
 10
472.804167
 20
330.613833
 30
0.0
 41
240.0
 42
240.0
 50
270.0
210
0.0
220
0.0
230
1.0
  0
INSERT
  8
1
  6
CONTINUOUS
 62
     1
  5
322
  2
LDR
 10
472.804167
 20
330.613833
 30
0.0
 41
240.0
 42
240.0
 50
270.0
210
0.0
220
0.0
230
1.0
  0
LINE
  8
1
  6
CONTINUOUS
 62
     4
  5
323
 10
458.3025
 20
334.217083
 30
0.0
 11
458.3025
 21
337.217083
 31
0.0
  0
LINE
  8
1
  6
CONTINUOUS
 62
     4
  5
324
 10
456.8025
 20
335.717083
 30
0.0
 11
459.8025
 21
335.717083
 31
0.0
  0
LINE
  8
1
  6
CONTINUOUS
 62
     4
  5
325
 10
423.3025
 20
359.488833
 30
0.0
 11
440.3025
 21
359.488833
 31
0.0
  0
ARC
  8
1
  6
CONTINUOUS
 62
     4
  5
326
 10
439.596341
 20
360.619533
 30
0.0
 40
1.33306
 50
301.984983
 51
84.3636
210
0.0
220
0.0
230
1.0
  0
ARC
  8
1
  6
CONTINUOUS
 62
     4
  5
327
 10
441.240153
 20
358.412371
 30
0.0
 40
1.427612
 50
131.058361
 51
255.290219
210
0.0
220
0.0
230
1.0
  0
TEXT
  8
1
  6
CONTINUOUS
 62
     7
  5
328
 10
446.363667
 20
299.852
 30
0.0
 40
3.5
  1
COVER PLATE
  7
MONOTXT
210
0.0
220
0.0
230
1.0
  0
LINE
  8
1
  6
CONTINUOUS
 62
     7
  5
329
 10
445.209
 20
297.727917
 30
0.0
 11
485.04925
 21
297.727917
 31
0.0
  0
TEXT
  8
1
  6
CONTINUOUS
 62
     7
  5
32A
 10
453.207167
 20
412.71625
 30
0.0
 40
2.5
  1
15  3/4 "
  7
MONOTXT
210
0.0
220
0.0
230
1.0
  0
TEXT
  8
1
  6
CONTINUOUS
 62
     7
  5
32B
 10
430.142583
 20
403.040833
 30
0.0
 40
2.5
  1
1"
  7
MONOTXT
210
0.0
220
0.0
230
1.0
  0
TEXT
  8
1
  6
CONTINUOUS
 62
     7
  5
32C
 10
483.836583
 20
402.980917
 30
0.0
 40
2.5
  1
1"
  7
MONOTXT
210
0.0
220
0.0
230
1.0
  0
TEXT
  8
1
  6
CONTINUOUS
 62
     7
  5
32D
 10
443.545333
 20
403.183
 30
0.0
 40
2.5
  1
6 7/8 "
  7
MONOTXT
210
0.0
220
0.0
230
1.0
  0
TEXT
  8
1
  6
CONTINUOUS
 62
     7
  5
32E
 10
466.71925
 20
403.1215
 30
0.0
 40
2.5
  1
6 7/8 "
  7
MONOTXT
210
0.0
220
0.0
230
1.0
  0
TEXT
  8
1
  6
CONTINUOUS
 62
     7
  5
32F
 10
413.014333
 20
357.947833
 30
0.0
 40
2.5
  1
 1/4 " P
  7
MONOTXT
210
0.0
220
0.0
230
1.0
  0
TEXT
  8
1
  6
CONTINUOUS
 62
     7
  5
330
 10
456.187667
 20
349.923333
 30
0.0
 40
2.5
  1
2"
  7
MONOTXT
210
0.0
220
0.0
230
1.0
  0
TEXT
  8
1
  6
CONTINUOUS
 62
     7
  5
331
 10
471.344667
 20
333.954917
 30
0.0
 40
2.5
  1
2"
 50
90.0
  7
MONOTXT
210
0.0
220
0.0
230
1.0
  0
TEXT
  8
1
  6
CONTINUOUS
 62
     7
  5
332
 10
501.425333
 20
331.8055
 30
0.0
 40
2.5
  1
1"
 50
90.0
  7
MONOTXT
210
0.0
220
0.0
230
1.0
  0
TEXT
  8
1
  6
CONTINUOUS
 62
     7
  5
333
 10
500.72
 20
355.881
 30
0.0
 40
2.5
  1
10  1/2 "
 50
90.0
  7
MONOTXT
210
0.0
220
0.0
230
1.0
  0
TEXT
  8
1
  6
CONTINUOUS
 62
     7
  5
334
 10
503.7175
 20
393.978417
 30
0.0
 40
2.5
  1
 1/2 "
 50
90.0
  7
MONOTXT
210
0.0
220
0.0
230
1.0
  0
TEXT
  8
1
  6
CONTINUOUS
 62
     7
  5
335
 10
510.3295
 20
358.79125
 30
0.0
 40
2.5
  1
12"
 50
90.0
  7
MONOTXT
210
0.0
220
0.0
230
1.0
  0
TEXT
  8
1
  6
CONTINUOUS
 62
     7
  5
336
 10
422.004333
 20
357.9255
 30
0.0
 40
2.5
  1
L
  7
MONOTXT
210
0.0
220
0.0
230
1.0
  0
TEXT
  8
1
  6
CONTINUOUS
 62
     7
  5
337
 10
532.27525
 20
373.523083
 30
0.0
 40
2.5
  1
1.   TYPE A AND B BOXES ARE TO BE FABRICATED FROM
  7
MONOTXT
 11
532.27525
 21
376.023083
 31
0.0
210
0.0
220
0.0
230
1.0
 73
     3
  0
TEXT
  8
1
  6
CONTINUOUS
 62
     7
  5
338
 10
532.27525
 20
369.023083
 30
0.0
 40
2.5
  1
   STEEL CONFORMING TO ASTM A-36 AND HOT-DIPPED
  7
MONOTXT
 11
532.27525
 21
371.523083
 31
0.0
210
0.0
220
0.0
230
1.0
 73
     3
  0
TEXT
  8
1
  6
CONTINUOUS
 62
     7
  5
339
 10
532.27525
 20
364.523083
 30
0.0
 40
2.5
  1
   GALVANIZED AFTER ASSEMBLY.
  7
MONOTXT
 11
532.27525
 21
367.023083
 31
0.0
210
0.0
220
0.0
230
1.0
 73
     3
  0
TEXT
  8
1
  6
CONTINUOUS
 62
     7
  5
33A
 10
532.27525
 20
360.023083
 30
0.0
 40
2.5
  1
 
  7
MONOTXT
 11
532.27525
 21
362.523083
 31
0.0
210
0.0
220
0.0
230
1.0
 73
     3
  0
TEXT
  8
1
  6
CONTINUOUS
 62
     7
  5
33B
 10
532.27525
 20
355.523083
 30
0.0
 40
2.5
  1
2.   REINFORCING STEEL THAT CONFLICTS WITH TYPE A OR
  7
MONOTXT
 11
532.27525
 21
358.023083
 31
0.0
210
0.0
220
0.0
230
1.0
 73
     3
  0
TEXT
  8
1
  6
CONTINUOUS
 62
     7
  5
33C
 10
532.27525
 20
351.023083
 30
0.0
 40
2.5
  1
   TYPE B BOXES SHALL BE APPROPRIATELY MODIFIED AS
  7
MONOTXT
 11
532.27525
 21
353.523083
 31
0.0
210
0.0
220
0.0
230
1.0
 73
     3
  0
TEXT
  8
1
  6
CONTINUOUS
 62
     7
  5
33D
 10
532.27525
 20
346.523083
 30
0.0
 40
2.5
  1
   SHOWN ON THE BRIDGE PLANS OR AS DIRECTED BY THE
  7
MONOTXT
 11
532.27525
 21
349.023083
 31
0.0
210
0.0
220
0.0
230
1.0
 73
     3
  0
TEXT
  8
1
  6
CONTINUOUS
 62
     7
  5
33E
 10
532.27525
 20
342.023083
 30
0.0
 40
2.5
  1
   ENGINEER.
  7
MONOTXT
 11
532.27525
 21
344.523083
 31
0.0
210
0.0
220
0.0
230
1.0
 73
     3
  0
TEXT
  8
1
  6
CONTINUOUS
 62
     7
  5
33F
 10
532.27525
 20
337.523083
 30
0.0
 40
2.5
  1
 
  7
MONOTXT
 11
532.27525
 21
340.023083
 31
0.0
210
0.0
220
0.0
230
1.0
 73
     3
  0
TEXT
  8
1
  6
CONTINUOUS
 62
     7
  5
340
 10
532.27525
 20
333.023083
 30
0.0
 40
2.5
  1
3.   TYPE C BOX IS TO BE FABRICATED FROM COMMERCIAL
  7
MONOTXT
 11
532.27525
 21
335.523083
 31
0.0
210
0.0
220
0.0
230
1.0
 73
     3
  0
TEXT
  8
1
  6
CONTINUOUS
 62
     7
  5
341
 10
532.27525
 20
328.523083
 30
0.0
 40
2.5
  1
   GRADE STEEL WITH WEATHER RESISTANT STEEL. TYPE C
  7
MONOTXT
 11
532.27525
 21
331.023083
 31
0.0
210
0.0
220
0.0
230
1.0
 73
     3
  0
TEXT
  8
1
  6
CONTINUOUS
 62
     7
  5
342
 10
532.27525
 20
324.023083
 30
0.0
 40
2.5
  1
   BOX SHALL INCLUDE STAINLESS STEEL PINS AND DOOR
  7
MONOTXT
 11
532.27525
 21
326.523083
 31
0.0
210
0.0
220
0.0
230
1.0
 73
     3
  0
TEXT
  8
1
  6
CONTINUOUS
 62
     7
  5
343
 10
532.27525
 20
319.523083
 30
0.0
 40
2.5
  1
   CLAMPS.
  7
MONOTXT
 11
532.27525
 21
322.023083
 31
0.0
210
0.0
220
0.0
230
1.0
 73
     3
  0
TEXT
  8
1
  6
CONTINUOUS
 62
     7
  5
344
 10
532.27525
 20
315.023083
 30
0.0
 40
2.5
  1
 
  7
MONOTXT
 11
532.27525
 21
317.523083
 31
0.0
210
0.0
220
0.0
230
1.0
 73
     3
  0
TEXT
  8
1
  6
CONTINUOUS
 62
     7
  5
345
 10
532.27525
 20
310.523083
 30
0.0
 40
2.5
  1
4.   CONDUIT NOT USED TO BE FIELD CAPPED.
  7
MONOTXT
 11
532.27525
 21
313.023083
 31
0.0
210
0.0
220
0.0
230
1.0
 73
     3
  0
TEXT
  8
1
  6
CONTINUOUS
 62
     7
  5
346
 10
532.732333
 20
382.195917
 30
0.0
 40
2.5
  1
NOTES:
  7
MONOTXT
210
0.0
220
0.0
230
1.0
  0
LINE
  8
1
  6
CONTINUOUS
 62
     7
  5
347
 10
531.589583
 20
381.052833
 30
0.0
 11
545.789167
 21
381.052833
 31
0.0
  0
LINE
  8
1
  6
CONTINUOUS
 62
     1
  5
348
 10
105.803167
 20
253.972333
 30
0.0
 11
165.803167
 21
253.972333
 31
0.0
  0
LINE
  8
1
  6
CONTINUOUS
 62
     1
  5
349
 10
105.803167
 20
193.972333
 30
0.0
 11
165.803167
 21
193.972333
 31
0.0
  0
LINE
  8
1
  6
CONTINUOUS
 62
     1
  5
34A
 10
107.303167
 20
252.472333
 30
0.0
 11
164.303167
 21
252.472333
 31
0.0
  0
LINE
  8
1
  6
CONTINUOUS
 62
     1
  5
34B
 10
105.803167
 20
195.472333
 30
0.0
 11
165.803167
 21
195.472333
 31
0.0
  0
LINE
  8
1
  6
CONTINUOUS
 62
     1
  5
34C
 10
107.303167
 20
196.972333
 30
0.0
 11
164.303167
 21
196.972333
 31
0.0
  0
LINE
  8
1
  6
CONTINUOUS
 62
     1
  5
34D
 10
105.803167
 20
253.972333
 30
0.0
 11
105.803167
 21
193.972333
 31
0.0
  0
LINE
  8
1
  6
CONTINUOUS
 62
     1
  5
34E
 10
165.803167
 20
253.972333
 30
0.0
 11
165.803167
 21
193.972333
 31
0.0
  0
LINE
  8
1
  6
CONTINUOUS
 62
     1
  5
34F
 10
107.303167
 20
252.472333
 30
0.0
 11
107.303167
 21
196.972333
 31
0.0
  0
LINE
  8
1
  6
CONTINUOUS
 62
     1
  5
350
 10
164.303167
 20
252.472333
 30
0.0
 11
164.303167
 21
196.972333
 31
0.0
  0
LINE
  8
1
  6
DASHED
 62
     1
  5
351
 10
113.303167
 20
246.472333
 30
0.0
 11
113.303167
 21
196.222333
 31
0.0
  0
LINE
  8
1
  6
DASHED
 62
     1
  5
352
 10
158.303167
 20
246.472333
 30
0.0
 11
158.303167
 21
196.222333
 31
0.0
  0
LINE
  8
1
  6
DASHED
 62
     1
  5
353
 10
113.303167
 20
246.472333
 30
0.0
 11
158.303167
 21
246.472333
 31
0.0
  0
LINE
  8
1
  6
CONTINUOUS
 62
     1
  5
354
 10
135.803167
 20
258.472333
 30
0.0
 11
135.803167
 21
238.472333
 31
0.0
  0
LINE
  8
1
  6
HIDDEN
 62
     1
  5
355
 10
108.803167
 20
228.722333
 30
0.0
 11
108.803167
 21
220.722333
 31
0.0
  0
LINE
  8
1
  6
HIDDEN
 62
     1
  5
356
 10
162.803167
 20
228.722333
 30
0.0
 11
162.803167
 21
220.722333
 31
0.0
  0
LINE
  8
1
  6
HIDDEN
 62
     1
  5
357
 10
131.803167
 20
250.972333
 30
0.0
 11
139.803167
 21
250.972333
 31
0.0
  0
LINE
  8
1
  6
HIDDEN
 62
     1
  5
358
 10
131.803167
 20
250.972333
 30
0.0
 11
131.803167
 21
252.472333
 31
0.0
  0
LINE
  8
1
  6
HIDDEN
 62
     1
  5
359
 10
139.803167
 20
250.972333
 30
0.0
 11
139.803167
 21
252.472333
 31
0.0
  0
LINE
  8
1
  6
HIDDEN
 62
     1
  5
35A
 10
108.803167
 20
228.722333
 30
0.0
 11
107.303167
 21
228.722333
 31
0.0
  0
LINE
  8
1
  6
HIDDEN
 62
     1
  5
35B
 10
108.803167
 20
220.722333
 30
0.0
 11
107.303167
 21
220.722333
 31
0.0
  0
LINE
  8
1
  6
HIDDEN
 62
     1
  5
35C
 10
162.803167
 20
228.722333
 30
0.0
 11
164.303167
 21
228.722333
 31
0.0
  0
LINE
  8
1
  6
HIDDEN
 62
     1
  5
35D
 10
162.803167
 20
220.722333
 30
0.0
 11
164.303167
 21
220.722333
 31
0.0
  0
LINE
  8
1
  6
CONTINUOUS
 62
     1
  5
35E
 10
105.803167
 20
227.722333
 30
0.0
 11
98.303167
 21
227.722333
 31
0.0
  0
LINE
  8
1
  6
CONTINUOUS
 62
     1
  5
35F
 10
105.803167
 20
221.722333
 30
0.0
 11
98.303167
 21
221.722333
 31
0.0
  0
LINE
  8
1
  6
CONTINUOUS
 62
     1
  5
360
 10
98.303167
 20
227.722333
 30
0.0
 11
98.303167
 21
221.722333
 31
0.0
  0
LINE
  8
1
  6
DASHED
 62
     1
  5
361
 10
98.303167
 20
227.722333
 30
0.0
 11
85.303167
 21
227.722333
 31
0.0
  0
LINE
  8
1
  6
DASHED
 62
     1
  5
362
 10
98.303167
 20
221.722333
 30
0.0
 11
85.303167
 21
221.722333
 31
0.0
  0
LINE
  8
1
  6
CONTINUOUS
 62
     1
  5
363
 10
165.803167
 20
227.722333
 30
0.0
 11
173.303167
 21
227.722333
 31
0.0
  0
LINE
  8
1
  6
CONTINUOUS
 62
     1
  5
364
 10
165.803167
 20
221.722333
 30
0.0
 11
173.303167
 21
221.722333
 31
0.0
  0
LINE
  8
1
  6
CONTINUOUS
 62
     1
  5
365
 10
173.303167
 20
227.722333
 30
0.0
 11
173.303167
 21
221.722333
 31
0.0
  0
LINE
  8
1
  6
DASHED
 62
     1
  5
366
 10
173.303167
 20
227.722333
 30
0.0
 11
186.303167
 21
227.722333
 31
0.0
  0
LINE
  8
1
  6
DASHED
 62
     1
  5
367
 10
173.303167
 20
221.722333
 30
0.0
 11
186.303167
 21
221.722333
 31
0.0
  0
LINE
  8
1
  6
CONTINUOUS
 62
     1
  5
368
 10
132.803167
 20
253.972333
 30
0.0
 11
132.803167
 21
261.472333
 31
0.0
  0
LINE
  8
1
  6
CONTINUOUS
 62
     1
  5
369
 10
138.803167
 20
253.972333
 30
0.0
 11
138.803167
 21
261.472333
 31
0.0
  0
LINE
  8
1
  6
CONTINUOUS
 62
     1
  5
36A
 10
132.803167
 20
261.472333
 30
0.0
 11
138.803167
 21
261.472333
 31
0.0
  0
LINE
  8
1
  6
DASHED
 62
     1
  5
36B
 10
132.803167
 20
261.472333
 30
0.0
 11
132.803167
 21
274.472333
 31
0.0
  0
LINE
  8
1
  6
DASHED
 62
     1
  5
36C
 10
138.803167
 20
261.472333
 30
0.0
 11
138.803167
 21
274.472333
 31
0.0
  0
LINE
  8
1
  6
CONTINUOUS
 62
     1
  5
36D
 10
101.303167
 20
224.722333
 30
0.0
 11
121.303167
 21
224.722333
 31
0.0
  0
LINE
  8
1
  6
CONTINUOUS
 62
     1
  5
36E
 10
150.303167
 20
224.722333
 30
0.0
 11
170.303167
 21
224.722333
 31
0.0
  0
LINE
  8
1
  6
CONTINUOUS
 62
     1
  5
36F
 10
99.303167
 20
224.722333
 30
0.0
 11
97.303167
 21
224.722333
 31
0.0
  0
LINE
  8
1
  6
CONTINUOUS
 62
     1
  5
370
 10
95.303167
 20
224.722333
 30
0.0
 11
84.862833
 21
224.722333
 31
0.0
  0
LINE
  8
1
  6
CONTINUOUS
 62
     1
  5
371
 10
172.303167
 20
224.722333
 30
0.0
 11
174.303167
 21
224.722333
 31
0.0
  0
LINE
  8
1
  6
CONTINUOUS
 62
     1
  5
372
 10
176.303167
 20
224.722333
 30
0.0
 11
186.7435
 21
224.722333
 31
0.0
  0
LINE
  8
1
  6
CONTINUOUS
 62
     1
  5
373
 10
135.803167
 20
260.472333
 30
0.0
 11
135.803167
 21
262.472333
 31
0.0
  0
LINE
  8
1
  6
CONTINUOUS
 62
     1
  5
374
 10
135.803167
 20
264.472333
 30
0.0
 11
135.803167
 21
274.912667
 31
0.0
  0
CIRCLE
  8
1
  6
DASHED
 62
     1
  5
375
 10
120.30175
 20
249.47375
 30
0.0
 40
0.75
210
0.0
220
0.0
230
1.0
  0
CIRCLE
  8
1
  6
DASHED
 62
     1
  5
376
 10
151.301167
 20
249.479167
 30
0.0
 40
0.75
210
0.0
220
0.0
230
1.0
  0
CIRCLE
  8
1
  6
DASHED
 62
     1
  5
377
 10
110.302833
 20
236.473167
 30
0.0
 40
0.75
210
0.0
220
0.0
230
1.0
  0
CIRCLE
  8
1
  6
DASHED
 62
     1
  5
378
 10
161.30075
 20
236.471583
 30
0.0
 40
0.75
210
0.0
220
0.0
230
1.0
  0
CIRCLE
  8
1
  6
DASHED
 62
     1
  5
379
 10
110.30425
 20
211.9705
 30
0.0
 40
0.75
210
0.0
220
0.0
230
1.0
  0
CIRCLE
  8
1
  6
DASHED
 62
     1
  5
37A
 10
161.305667
 20
211.973083
 30
0.0
 40
0.75
210
0.0
220
0.0
230
1.0
  0
CIRCLE
  8
1
  6
CONTINUOUS
 62
     1
  5
37B
 10
160.301833
 20
207.473333
 30
0.0
 40
0.5
210
0.0
220
0.0
230
1.0
  0
CIRCLE
  8
1
  6
CONTINUOUS
 62
     1
  5
37C
 10
160.301833
 20
207.473333
 30
0.0
 40
0.5
210
0.0
220
0.0
230
1.0
  0
CIRCLE
  8
1
  6
CONTINUOUS
 62
     1
  5
37D
 10
160.301833
 20
207.473333
 30
0.0
 40
0.5
210
0.0
220
0.0
230
1.0
  0
POLYLINE
  8
1
  6
CONTINUOUS
 62
     1
  5
37E
 66
     1
 10
0.0
 20
0.0
 30
0.0
  0
VERTEX
  8
1
  6
CONTINUOUS
 62
     1
  5
37F
 10
160.805667
 20
207.5035
 30
0.0
  0
VERTEX
  8
1
  6
CONTINUOUS
 62
     1
  5
380
 10
161.646417
 20
207.56575
 30
0.0
  0
VERTEX
  8
1
  6
CONTINUOUS
 62
     1
  5
381
 10
161.864333
 20
207.628083
 30
0.0
  0
VERTEX
  8
1
  6
CONTINUOUS
 62
     1
  5
382
 10
162.113417
 20
207.690333
 30
0.0
  0
VERTEX
  8
1
  6
CONTINUOUS
 62
     1
  5
383
 10
162.455917
 20
207.7215
 30
0.0
  0
VERTEX
  8
1
  6
CONTINUOUS
 62
     1
  5
384
 10
162.798417
 20
207.752667
 30
0.0
  0
VERTEX
  8
1
  6
CONTINUOUS
 62
     1
  5
385
 10
163.109833
 20
207.78375
 30
0.0
  0
VERTEX
  8
1
  6
CONTINUOUS
 62
     1
  5
386
 10
163.358917
 20
207.814917
 30
0.0
  0
VERTEX
  8
1
  6
CONTINUOUS
 62
     1
  5
387
 10
163.54575
 20
207.846083
 30
0.0
  0
VERTEX
  8
1
  6
CONTINUOUS
 62
     1
  5
388
 10
163.732583
 20
207.846083
 30
0.0
  0
VERTEX
  8
1
  6
CONTINUOUS
 62
     1
  5
389
 10
163.919417
 20
207.87725
 30
0.0
  0
VERTEX
  8
1
  6
CONTINUOUS
 62
     1
  5
38A
 10
164.199583
 20
207.9395
 30
0.0
  0
VERTEX
  8
1
  6
CONTINUOUS
 62
     1
  5
38B
 10
164.511
 20
207.970667
 30
0.0
  0
VERTEX
  8
1
  6
CONTINUOUS
 62
     1
  5
38C
 10
164.822333
 20
208.001833
 30
0.0
  0
VERTEX
  8
1
  6
CONTINUOUS
 62
     1
  5
38D
 10
165.13375
 20
208.033
 30
0.0
  0
VERTEX
  8
1
  6
CONTINUOUS
 62
     1
  5
38E
 10
165.414
 20
208.064083
 30
0.0
  0
VERTEX
  8
1
  6
CONTINUOUS
 62
     1
  5
38F
 10
165.694167
 20
208.09525
 30
0.0
  0
VERTEX
  8
1
  6
CONTINUOUS
 62
     1
  5
390
 10
165.912167
 20
208.157583
 30
0.0
  0
VERTEX
  8
1
  6
CONTINUOUS
 62
     1
  5
391
 10
166.130083
 20
208.157583
 30
0.0
  0
VERTEX
  8
1
  6
CONTINUOUS
 62
     1
  5
392
 10
166.316917
 20
208.188667
 30
0.0
  0
VERTEX
  8
1
  6
CONTINUOUS
 62
     1
  5
393
 10
166.597167
 20
208.188667
 30
0.0
  0
VERTEX
  8
1
  6
CONTINUOUS
 62
     1
  5
394
 10
166.9085
 20
208.188667
 30
0.0
  0
VERTEX
  8
1
  6
CONTINUOUS
 62
     1
  5
395
 10
167.1265
 20
208.188667
 30
0.0
  0
VERTEX
  8
1
  6
CONTINUOUS
 62
     1
  5
396
 10
167.375583
 20
208.188667
 30
0.0
  0
VERTEX
  8
1
  6
CONTINUOUS
 62
     1
  5
397
 10
167.593583
 20
208.219833
 30
0.0
  0
VERTEX
  8
1
  6
CONTINUOUS
 62
     1
  5
398
 10
167.87375
 20
208.219833
 30
0.0
  0
VERTEX
  8
1
  6
CONTINUOUS
 62
     1
  5
399
 10
168.154
 20
208.219833
 30
0.0
  0
VERTEX
  8
1
  6
CONTINUOUS
 62
     1
  5
39A
 10
168.372
 20
208.188667
 30
0.0
  0
VERTEX
  8
1
  6
CONTINUOUS
 62
     1
  5
39B
 10
168.683333
 20
208.09525
 30
0.0
  0
VERTEX
  8
1
  6
CONTINUOUS
 62
     1
  5
39C
 10
168.932417
 20
208.033
 30
0.0
  0
VERTEX
  8
1
  6
CONTINUOUS
 62
     1
  5
39D
 10
169.088083
 20
207.87725
 30
0.0
  0
VERTEX
  8
1
  6
CONTINUOUS
 62
     1
  5
39E
 10
169.1815
 20
207.7215
 30
0.0
  0
VERTEX
  8
1
  6
CONTINUOUS
 62
     1
  5
39F
 10
169.150417
 20
207.472333
 30
0.0
  0
VERTEX
  8
1
  6
CONTINUOUS
 62
     1
  5
3A0
 10
168.963583
 20
207.316583
 30
0.0
  0
VERTEX
  8
1
  6
CONTINUOUS
 62
     1
  5
3A1
 10
168.77675
 20
207.285417
 30
0.0
  0
VERTEX
  8
1
  6
CONTINUOUS
 62
     1
  5
3A2
 10
168.558833
 20
207.25425
 30
0.0
  0
VERTEX
  8
1
  6
CONTINUOUS
 62
     1
  5
3A3
 10
168.340833
 20
207.223167
 30
0.0
  0
VERTEX
  8
1
  6
CONTINUOUS
 62
     1
  5
3A4
 10
168.09175
 20
207.160833
 30
0.0
  0
VERTEX
  8
1
  6
CONTINUOUS
 62
     1
  5
3A5
 10
167.904917
 20
207.098583
 30
0.0
  0
VERTEX
  8
1
  6
CONTINUOUS
 62
     1
  5
3A6
 10
167.687
 20
207.03625
 30
0.0
  0
VERTEX
  8
1
  6
CONTINUOUS
 62
     1
  5
3A7
 10
167.500167
 20
206.911667
 30
0.0
  0
VERTEX
  8
1
  6
CONTINUOUS
 62
     1
  5
3A8
 10
167.313333
 20
206.6625
 30
0.0
  0
VERTEX
  8
1
  6
CONTINUOUS
 62
     1
  5
3A9
 10
167.251083
 20
206.382167
 30
0.0
  0
VERTEX
  8
1
  6
CONTINUOUS
 62
     1
  5
3AA
 10
167.40675
 20
206.101833
 30
0.0
  0
VERTEX
  8
1
  6
CONTINUOUS
 62
     1
  5
3AB
 10
167.718083
 20
206.039583
 30
0.0
  0
VERTEX
  8
1
  6
CONTINUOUS
 62
     1
  5
3AC
 10
167.998333
 20
206.008417
 30
0.0
  0
VERTEX
  8
1
  6
CONTINUOUS
 62
     1
  5
3AD
 10
168.589917
 20
205.97725
 30
0.0
  0
VERTEX
  8
1
  6
CONTINUOUS
 62
     1
  5
3AE
 10
168.839
 20
205.97725
 30
0.0
  0
VERTEX
  8
1
  6
CONTINUOUS
 62
     1
  5
3AF
 10
169.025833
 20
205.97725
 30
0.0
  0
VERTEX
  8
1
  6
CONTINUOUS
 62
     1
  5
3B0
 10
169.368333
 20
206.008417
 30
0.0
  0
VERTEX
  8
1
  6
CONTINUOUS
 62
     1
  5
3B1
 10
169.586333
 20
206.039583
 30
0.0
  0
VERTEX
  8
1
  6
CONTINUOUS
 62
     1
  5
3B2
 10
169.835417
 20
206.070667
 30
0.0
  0
VERTEX
  8
1
  6
CONTINUOUS
 62
     1
  5
3B3
 10
170.333583
 20
206.101833
 30
0.0
  0
VERTEX
  8
1
  6
CONTINUOUS
 62
     1
  5
3B4
 10
170.925167
 20
206.164167
 30
0.0
  0
VERTEX
  8
1
  6
CONTINUOUS
 62
     1
  5
3B5
 10
171.174333
 20
206.164167
 30
0.0
  0
VERTEX
  8
1
  6
CONTINUOUS
 62
     1
  5
3B6
 10
171.423417
 20
206.164167
 30
0.0
  0
VERTEX
  8
1
  6
CONTINUOUS
 62
     1
  5
3B7
 10
172.015
 20
206.164167
 30
0.0
  0
VERTEX
  8
1
  6
CONTINUOUS
 62
     1
  5
3B8
 10
172.326333
 20
206.164167
 30
0.0
  0
VERTEX
  8
1
  6
CONTINUOUS
 62
     1
  5
3B9
 10
172.668917
 20
206.164167
 30
0.0
  0
VERTEX
  8
1
  6
CONTINUOUS
 62
     1
  5
3BA
 10
173.2605
 20
206.164167
 30
0.0
  0
VERTEX
  8
1
  6
CONTINUOUS
 62
     1
  5
3BB
 10
173.634083
 20
206.164167
 30
0.0
  0
VERTEX
  8
1
  6
CONTINUOUS
 62
     1
  5
3BC
 10
174.00775
 20
206.164167
 30
0.0
  0
VERTEX
  8
1
  6
CONTINUOUS
 62
     1
  5
3BD
 10
174.599333
 20
206.195333
 30
0.0
  0
VERTEX
  8
1
  6
CONTINUOUS
 62
     1
  5
3BE
 10
174.91075
 20
206.226417
 30
0.0
  0
VERTEX
  8
1
  6
CONTINUOUS
 62
     1
  5
3BF
 10
175.222083
 20
206.226417
 30
0.0
  0
VERTEX
  8
1
  6
CONTINUOUS
 62
     1
  5
3C0
 10
175.5335
 20
206.226417
 30
0.0
  0
VERTEX
  8
1
  6
CONTINUOUS
 62
     1
  5
3C1
 10
175.907083
 20
206.226417
 30
0.0
  0
VERTEX
  8
1
  6
CONTINUOUS
 62
     1
  5
3C2
 10
176.093917
 20
206.226417
 30
0.0
  0
VERTEX
  8
1
  6
CONTINUOUS
 62
     1
  5
3C3
 10
176.28075
 20
206.226417
 30
0.0
  0
VERTEX
  8
1
  6
CONTINUOUS
 62
     1
  5
3C4
 10
176.529833
 20
206.195333
 30
0.0
  0
VERTEX
  8
1
  6
CONTINUOUS
 62
     1
  5
3C5
 10
176.561
 20
206.195333
 30
0.0
  0
SEQEND
  8
1
  6
CONTINUOUS
 62
     1
  5
3C6
  0
LINE
  8
1
  6
CONTINUOUS
 62
     1
  5
3C7
 10
105.803167
 20
254.972333
 30
0.0
 11
105.803167
 21
276.988667
 31
0.0
  0
LINE
  8
1
  6
CONTINUOUS
 62
     1
  5
3C8
 10
165.803167
 20
254.972333
 30
0.0
 11
165.803167
 21
276.988667
 31
0.0
  0
LINE
  8
1
  6
CONTINUOUS
 62
     1
  5
3C9
 10
105.803167
 20
275.988667
 30
0.0
 11
165.803167
 21
275.988667
 31
0.0
  0
INSERT
  8
1
  6
CONTINUOUS
 62
     1
  5
3CA
  2
LDR
 10
105.803167
 20
275.988667
 30
0.0
 41
240.0
 42
240.0
 50
180.0
210
0.0
220
0.0
230
1.0
  0
INSERT
  8
1
  6
CONTINUOUS
 62
     1
  5
3CB
  2
LDR
 10
165.803167
 20
275.988667
 30
0.0
 41
240.0
 42
240.0
210
0.0
220
0.0
230
1.0
  0
LINE
  8
1
  6
CONTINUOUS
 62
     1
  5
3CC
 10
155.22625
 20
246.472333
 30
0.0
 11
179.711167
 21
257.23225
 31
0.0
  0
LINE
  8
1
  6
CONTINUOUS
 62
     1
  5
3CD
 10
179.711167
 20
257.23225
 30
0.0
 11
185.008667
 21
257.23225
 31
0.0
  0
INSERT
  8
1
  6
CONTINUOUS
 62
     1
  5
3CE
  2
LDR
 10
155.22625
 20
246.472333
 30
0.0
 41
240.000001
 42
240.000001
 50
203.723127
210
0.0
220
0.0
230
1.0
  0
INSERT
  8
1
  6
CONTINUOUS
 62
     1
  5
3CF
  2
LDR
 10
155.22625
 20
246.472333
 30
0.0
 41
240.000001
 42
240.000001
 50
203.723127
210
0.0
220
0.0
230
1.0
  0
LINE
  8
1
  6
CONTINUOUS
 62
     1
  5
3D0
 10
169.25025
 20
227.722333
 30
0.0
 11
174.6925
 21
236.17475
 31
0.0
  0
LINE
  8
1
  6
CONTINUOUS
 62
     1
  5
3D1
 10
174.6925
 20
236.17475
 30
0.0
 11
179.432333
 21
236.17475
 31
0.0
  0
INSERT
  8
1
  6
CONTINUOUS
 62
     1
  5
3D2
  2
LDR
 10
169.25025
 20
227.722333
 30
0.0
 41
239.999999
 42
239.999999
 50
237.223766
210
0.0
220
0.0
230
1.0
  0
LINE
  8
1
  6
CONTINUOUS
 62
     1
  5
3D3
 10
109.744167
 20
211.47175
 30
0.0
 11
101.922083
 21
203.592
 31
0.0
  0
LINE
  8
1
  6
CONTINUOUS
 62
     1
  5
3D4
 10
101.922083
 20
203.592
 30
0.0
 11
97.679167
 21
203.592
 31
0.0
  0
INSERT
  8
1
  6
CONTINUOUS
 62
     1
  5
3D5
  2
LDR
 10
109.744167
 20
211.47175
 30
0.0
 41
240.000001
 42
240.000001
 50
45.210424
210
0.0
220
0.0
230
1.0
  0
TEXT
  8
1
  6
CONTINUOUS
 62
     7
  5
3D6
 10
131.788167
 20
277.399333
 30
0.0
 40
2.5
  1
1'-6"
  7
MONOTXT
210
0.0
220
0.0
230
1.0
  0
TEXT
  8
1
  6
CONTINUOUS
 62
     7
  5
3D7
 10
186.00975
 20
255.937583
 30
0.0
 40
2.5
  1
COVER  1/4 " x 1  1/4 "
  7
MONOTXT
 11
186.00975
 21
258.437583
 31
0.0
210
0.0
220
0.0
230
1.0
 73
     3
  0
TEXT
  8
1
  6
CONTINUOUS
 62
     7
  5
3D8
 10
186.00975
 20
251.437583
 30
0.0
 40
2.5
  1
(WELD ALL AROUND
  7
MONOTXT
 11
186.00975
 21
253.937583
 31
0.0
210
0.0
220
0.0
230
1.0
 73
     3
  0
TEXT
  8
1
  6
CONTINUOUS
 62
     7
  5
3D9
 10
186.00975
 20
246.937583
 30
0.0
 40
2.5
  1
 TO BOX)
  7
MONOTXT
 11
186.00975
 21
249.437583
 31
0.0
210
0.0
220
0.0
230
1.0
 73
     3
  0
TEXT
  8
1
  6
CONTINUOUS
 62
     7
  5
3DA
 10
179.679333
 20
235.199
 30
0.0
 40
2.5
  1
1  1/2 " 0 GASKETED HUB (TYP.)
  7
MONOTXT
210
0.0
220
0.0
230
1.0
  0
TEXT
  8
1
  6
CONTINUOUS
 62
     7
  5
3DB
 10
190.545083
 20
235.284583
 30
0.0
 40
2.5
  1
/
  7
MONOTXT
210
0.0
220
0.0
230
1.0
  0
TEXT
  8
1
  6
CONTINUOUS
 62
     7
  5
3DC
 10
177.19825
 20
204.798417
 30
0.0
 40
2.5
  1
NEOPRENE GASKET
  7
MONOTXT
 11
177.19825
 21
207.298417
 31
0.0
210
0.0
220
0.0
230
1.0
 73
     3
  0
TEXT
  8
1
  6
CONTINUOUS
 62
     7
  5
3DD
 10
177.19825
 20
200.298417
 30
0.0
 40
2.5
  1
ALL AROUND COVER
  7
MONOTXT
 11
177.19825
 21
202.798417
 31
0.0
210
0.0
220
0.0
230
1.0
 73
     3
  0
TEXT
  8
1
  6
CONTINUOUS
 62
     7
  5
3DE
 10
177.19825
 20
195.798417
 30
0.0
 40
2.5
  1
FRAME
  7
MONOTXT
 11
177.19825
 21
198.298417
 31
0.0
210
0.0
220
0.0
230
1.0
 73
     3
  0
TEXT
  8
1
  6
CONTINUOUS
 62
     7
  5
3DF
 10
58.27425
 20
202.05975
 30
0.0
 40
2.5
  1
TAPPED HOLES FOR
  7
MONOTXT
 11
58.27425
 21
204.55975
 31
0.0
210
0.0
220
0.0
230
1.0
 73
     3
  0
TEXT
  8
1
  6
CONTINUOUS
 62
     7
  5
3E0
 10
58.27425
 20
197.55975
 30
0.0
 40
2.5
  1
 3/8 " CAP SCREWS
  7
MONOTXT
 11
58.27425
 21
200.05975
 31
0.0
210
0.0
220
0.0
230
1.0
 73
     3
  0
TEXT
  8
1
  6
CONTINUOUS
 62
     7
  5
3E1
 10
88.32475
 20
175.871833
 30
0.0
 40
3.5
  1
FRONT VIEW WITH COVER REMOVED
  7
MONOTXT
210
0.0
220
0.0
230
1.0
  0
LINE
  8
1
  6
CONTINUOUS
 62
     7
  5
3E2
 10
85.680333
 20
173.9105
 30
0.0
 11
188.889333
 21
173.9105
 31
0.0
  0
LINE
  8
1
  6
CONTINUOUS
 62
     1
  5
3E3
 10
323.159583
 20
260.652667
 30
0.0
 11
323.159583
 21
200.652667
 31
0.0
  0
LINE
  8
1
  6
CONTINUOUS
 62
     1
  5
3E4
 10
283.159583
 20
260.652667
 30
0.0
 11
283.159583
 21
202.652667
 31
0.0
  0
LINE
  8
1
  6
CONTINUOUS
 62
     1
  5
3E5
 10
283.159583
 20
202.652667
 30
0.0
 11
323.159583
 21
200.652667
 31
0.0
  0
LINE
  8
1
  6
CONTINUOUS
 62
     1
  5
3E6
 10
321.659583
 20
260.652667
 30
0.0
 11
321.659583
 21
200.727667
 31
0.0
  0
LINE
  8
1
  6
CONTINUOUS
 62
     1
  5
3E7
 10
321.659583
 20
200.727667
 30
0.0
 11
323.159583
 21
202.227667
 31
0.0
  0
LINE
  8
1
  6
CONTINUOUS
 62
     1
  5
3E8
 10
321.659583
 20
202.848917
 30
0.0
 11
323.159583
 21
204.348917
 31
0.0
  0
LINE
  8
1
  6
CONTINUOUS
 62
     1
  5
3E9
 10
321.659583
 20
204.97025
 30
0.0
 11
323.159583
 21
206.47025
 31
0.0
  0
LINE
  8
1
  6
CONTINUOUS
 62
     1
  5
3EA
 10
321.659583
 20
207.091583
 30
0.0
 11
323.159583
 21
208.591583
 31
0.0
  0
LINE
  8
1
  6
CONTINUOUS
 62
     1
  5
3EB
 10
321.659583
 20
209.212917
 30
0.0
 11
323.159583
 21
210.712917
 31
0.0
  0
LINE
  8
1
  6
CONTINUOUS
 62
     1
  5
3EC
 10
321.659583
 20
211.33425
 30
0.0
 11
323.159583
 21
212.83425
 31
0.0
  0
LINE
  8
1
  6
CONTINUOUS
 62
     1
  5
3ED
 10
321.659583
 20
213.455583
 30
0.0
 11
323.159583
 21
214.955583
 31
0.0
  0
LINE
  8
1
  6
CONTINUOUS
 62
     1
  5
3EE
 10
321.659583
 20
215.576917
 30
0.0
 11
323.159583
 21
217.076917
 31
0.0
  0
LINE
  8
1
  6
CONTINUOUS
 62
     1
  5
3EF
 10
321.659583
 20
217.698167
 30
0.0
 11
323.159583
 21
219.198167
 31
0.0
  0
LINE
  8
1
  6
CONTINUOUS
 62
     1
  5
3F0
 10
321.659583
 20
219.8195
 30
0.0
 11
323.159583
 21
221.3195
 31
0.0
  0
LINE
  8
1
  6
CONTINUOUS
 62
     1
  5
3F1
 10
321.659583
 20
221.940833
 30
0.0
 11
323.159583
 21
223.440833
 31
0.0
  0
LINE
  8
1
  6
CONTINUOUS
 62
     1
  5
3F2
 10
321.659583
 20
224.062167
 30
0.0
 11
323.159583
 21
225.562167
 31
0.0
  0
LINE
  8
1
  6
CONTINUOUS
 62
     1
  5
3F3
 10
321.659583
 20
226.1835
 30
0.0
 11
323.159583
 21
227.6835
 31
0.0
  0
LINE
  8
1
  6
CONTINUOUS
 62
     1
  5
3F4
 10
321.659583
 20
228.304833
 30
0.0
 11
323.159583
 21
229.804833
 31
0.0
  0
LINE
  8
1
  6
CONTINUOUS
 62
     1
  5
3F5
 10
321.659583
 20
230.426167
 30
0.0
 11
323.159583
 21
231.926167
 31
0.0
  0
LINE
  8
1
  6
CONTINUOUS
 62
     1
  5
3F6
 10
321.659583
 20
232.5475
 30
0.0
 11
323.159583
 21
234.0475
 31
0.0
  0
LINE
  8
1
  6
CONTINUOUS
 62
     1
  5
3F7
 10
321.659583
 20
234.668833
 30
0.0
 11
323.159583
 21
236.168833
 31
0.0
  0
LINE
  8
1
  6
CONTINUOUS
 62
     1
  5
3F8
 10
321.659583
 20
236.790167
 30
0.0
 11
323.159583
 21
238.290167
 31
0.0
  0
LINE
  8
1
  6
CONTINUOUS
 62
     1
  5
3F9
 10
321.659583
 20
238.9115
 30
0.0
 11
323.159583
 21
240.4115
 31
0.0
  0
LINE
  8
1
  6
CONTINUOUS
 62
     1
  5
3FA
 10
321.659583
 20
241.032833
 30
0.0
 11
323.159583
 21
242.532833
 31
0.0
  0
LINE
  8
1
  6
CONTINUOUS
 62
     1
  5
3FB
 10
321.659583
 20
243.154083
 30
0.0
 11
323.159583
 21
244.654083
 31
0.0
  0
LINE
  8
1
  6
CONTINUOUS
 62
     1
  5
3FC
 10
321.659583
 20
245.275417
 30
0.0
 11
323.159583
 21
246.775417
 31
0.0
  0
LINE
  8
1
  6
CONTINUOUS
 62
     1
  5
3FD
 10
321.659583
 20
247.39675
 30
0.0
 11
323.159583
 21
248.89675
 31
0.0
  0
LINE
  8
1
  6
CONTINUOUS
 62
     1
  5
3FE
 10
321.659583
 20
249.518083
 30
0.0
 11
323.159583
 21
251.018083
 31
0.0
  0
LINE
  8
1
  6
CONTINUOUS
 62
     1
  5
3FF
 10
321.659583
 20
251.639417
 30
0.0
 11
323.159583
 21
253.139417
 31
0.0
  0
LINE
  8
1
  6
CONTINUOUS
 62
     1
  5
400
 10
321.659583
 20
253.76075
 30
0.0
 11
323.159583
 21
255.26075
 31
0.0
  0
LINE
  8
1
  6
CONTINUOUS
 62
     1
  5
401
 10
321.659583
 20
255.882083
 30
0.0
 11
323.159583
 21
257.382083
 31
0.0
  0
LINE
  8
1
  6
CONTINUOUS
 62
     1
  5
402
 10
321.659583
 20
258.003417
 30
0.0
 11
323.159583
 21
259.503417
 31
0.0
  0
LINE
  8
1
  6
CONTINUOUS
 62
     1
  5
403
 10
321.659583
 20
260.124667
 30
0.0
 11
322.187583
 21
260.652667
 31
0.0
  0
LINE
  8
1
  6
CONTINUOUS
 62
     1
  5
404
 10
294.659583
 20
263.652667
 30
0.0
 11
300.659583
 21
263.652667
 31
0.0
  0
LINE
  8
1
  6
CONTINUOUS
 62
     1
  5
405
 10
294.659583
 20
257.152667
 30
0.0
 11
300.659583
 21
257.152667
 31
0.0
  0
LINE
  8
1
  6
CONTINUOUS
 62
     1
  5
406
 10
294.659583
 20
262.902667
 30
0.0
 11
300.659583
 21
262.902667
 31
0.0
  0
LINE
  8
1
  6
CONTINUOUS
 62
     1
  5
407
 10
294.659583
 20
257.902667
 30
0.0
 11
300.659583
 21
257.902667
 31
0.0
  0
POLYLINE
  8
1
  6
CONTINUOUS
 62
     1
  5
408
 66
     1
 10
0.0
 20
0.0
 30
0.0
 70
     1
  0
VERTEX
  8
1
  6
CONTINUOUS
 62
     1
  5
409
 10
284.659583
 20
259.152667
 30
0.0
  0
VERTEX
  8
1
  6
CONTINUOUS
 62
     1
  5
40A
 10
286.159583
 20
259.152667
 30
0.0
  0
VERTEX
  8
1
  6
CONTINUOUS
 62
     1
  5
40B
 10
284.659583
 20
257.652667
 30
0.0
  0
VERTEX
  8
1
  6
CONTINUOUS
 62
     1
  5
40C
 10
284.659583
 20
259.152667
 30
0.0
  0
SEQEND
  8
1
  6
CONTINUOUS
 62
     1
  5
40D
  0
LINE
  8
1
  6
CONTINUOUS
 62
     1
  5
40E
 10
294.659583
 20
257.152667
 30
0.0
 11
294.659583
 21
260.652667
 31
0.0
  0
LINE
  8
1
  6
CONTINUOUS
 62
     1
  5
40F
 10
294.659583
 20
260.652667
 30
0.0
 11
294.659583
 21
263.652667
 31
0.0
  0
LINE
  8
1
  6
CONTINUOUS
 62
     1
  5
410
 10
283.159583
 20
260.652667
 30
0.0
 11
294.659583
 21
260.652667
 31
0.0
  0
POLYLINE
  8
1
  6
CONTINUOUS
 62
     1
  5
411
 66
     1
 10
0.0
 20
0.0
 30
0.0
 70
     1
  0
VERTEX
  8
1
  6
CONTINUOUS
 62
     1
  5
412
 10
294.659583
 20
260.652667
 30
0.0
  0
VERTEX
  8
1
  6
CONTINUOUS
 62
     1
  5
413
 10
293.159583
 20
260.652667
 30
0.0
  0
VERTEX
  8
1
  6
CONTINUOUS
 62
     1
  5
414
 10
294.659583
 20
262.152667
 30
0.0
  0
VERTEX
  8
1
  6
CONTINUOUS
 62
     1
  5
415
 10
294.659583
 20
260.652667
 30
0.0
  0
SEQEND
  8
1
  6
CONTINUOUS
 62
     1
  5
416
  0
LINE
  8
1
  6
CONTINUOUS
 62
     1
  5
417
 10
294.659583
 20
260.652667
 30
0.0
 11
300.659583
 21
260.652667
 31
0.0
  0
LINE
  8
1
  6
CONTINUOUS
 62
     1
  5
418
 10
300.659583
 20
257.152667
 30
0.0
 11
300.659583
 21
260.652667
 31
0.0
  0
LINE
  8
1
  6
CONTINUOUS
 62
     1
  5
419
 10
300.659583
 20
260.652667
 30
0.0
 11
323.159583
 21
260.652667
 31
0.0
  0
LINE
  8
1
  6
CONTINUOUS
 62
     1
  5
41A
 10
300.659583
 20
260.652667
 30
0.0
 11
300.659583
 21
263.652667
 31
0.0
  0
POLYLINE
  8
1
  6
CONTINUOUS
 62
     1
  5
41B
 66
     1
 10
0.0
 20
0.0
 30
0.0
 70
     1
  0
VERTEX
  8
1
  6
CONTINUOUS
 62
     1
  5
41C
 10
300.659583
 20
262.152667
 30
0.0
  0
VERTEX
  8
1
  6
CONTINUOUS
 62
     1
  5
41D
 10
302.159583
 20
260.652667
 30
0.0
  0
VERTEX
  8
1
  6
CONTINUOUS
 62
     1
  5
41E
 10
300.659583
 20
260.652667
 30
0.0
  0
VERTEX
  8
1
  6
CONTINUOUS
 62
     1
  5
41F
 10
300.659583
 20
262.152667
 30
0.0
  0
SEQEND
  8
1
  6
CONTINUOUS
 62
     1
  5
420
  0
LINE
  8
1
  6
CONTINUOUS
 62
     1
  5
421
 10
284.659583
 20
259.152667
 30
0.0
 11
320.159583
 21
259.152667
 31
0.0
  0
POLYLINE
  8
1
  6
CONTINUOUS
 62
     1
  5
422
 66
     1
 10
0.0
 20
0.0
 30
0.0
 70
     1
  0
VERTEX
  8
1
  6
CONTINUOUS
 62
     1
  5
423
 10
318.659583
 20
259.152667
 30
0.0
  0
VERTEX
  8
1
  6
CONTINUOUS
 62
     1
  5
424
 10
320.159583
 20
259.152667
 30
0.0
  0
VERTEX
  8
1
  6
CONTINUOUS
 62
     1
  5
425
 10
320.159583
 20
257.652667
 30
0.0
  0
VERTEX
  8
1
  6
CONTINUOUS
 62
     1
  5
426
 10
318.659583
 20
259.152667
 30
0.0
  0
SEQEND
  8
1
  6
CONTINUOUS
 62
     1
  5
427
  0
LINE
  8
1
  6
CONTINUOUS
 62
     1
  5
428
 10
284.659583
 20
259.152667
 30
0.0
 11
284.659583
 21
204.0795
 31
0.0
  0
POLYLINE
  8
1
  6
CONTINUOUS
 62
     1
  5
429
 66
     1
 10
0.0
 20
0.0
 30
0.0
 70
     1
  0
VERTEX
  8
1
  6
CONTINUOUS
 62
     1
  5
42A
 10
284.659583
 20
205.5795
 30
0.0
  0
VERTEX
  8
1
  6
CONTINUOUS
 62
     1
  5
42B
 10
286.157667
 20
204.004583
 30
0.0
  0
VERTEX
  8
1
  6
CONTINUOUS
 62
     1
  5
42C
 10
284.659583
 20
204.0795
 30
0.0
  0
VERTEX
  8
1
  6
CONTINUOUS
 62
     1
  5
42D
 10
284.659583
 20
205.5795
 30
0.0
  0
SEQEND
  8
1
  6
CONTINUOUS
 62
     1
  5
42E
  0
LINE
  8
1
  6
CONTINUOUS
 62
     1
  5
42F
 10
284.659583
 20
204.0795
 30
0.0
 11
320.159583
 21
202.304417
 31
0.0
  0
LINE
  8
1
  6
CONTINUOUS
 62
     1
  5
430
 10
320.159583
 20
259.152667
 30
0.0
 11
320.159583
 21
202.304417
 31
0.0
  0
POLYLINE
  8
1
  6
CONTINUOUS
 62
     1
  5
431
 66
     1
 10
0.0
 20
0.0
 30
0.0
 70
     1
  0
VERTEX
  8
1
  6
CONTINUOUS
 62
     1
  5
432
 10
318.6615
 20
202.379333
 30
0.0
  0
VERTEX
  8
1
  6
CONTINUOUS
 62
     1
  5
433
 10
320.159583
 20
203.8045
 30
0.0
  0
VERTEX
  8
1
  6
CONTINUOUS
 62
     1
  5
434
 10
320.159583
 20
202.304417
 30
0.0
  0
VERTEX
  8
1
  6
CONTINUOUS
 62
     1
  5
435
 10
318.6615
 20
202.379333
 30
0.0
  0
SEQEND
  8
1
  6
CONTINUOUS
 62
     1
  5
436
  0
LINE
  8
1
  6
CONTINUOUS
 62
     1
  5
437
 10
294.659583
 20
199.841833
 30
0.0
 11
300.659583
 21
199.841833
 31
0.0
  0
LINE
  8
1
  6
CONTINUOUS
 62
     1
  5
438
 10
294.659583
 20
199.091833
 30
0.0
 11
300.659583
 21
199.091833
 31
0.0
  0
LINE
  8
1
  6
CONTINUOUS
 62
     1
  5
439
 10
294.659583
 20
205.591833
 30
0.0
 11
300.659583
 21
205.591833
 31
0.0
  0
LINE
  8
1
  6
CONTINUOUS
 62
     1
  5
43A
 10
294.659583
 20
204.841833
 30
0.0
 11
300.659583
 21
204.841833
 31
0.0
  0
LINE
  8
1
  6
CONTINUOUS
 62
     1
  5
43B
 10
294.659583
 20
205.591833
 30
0.0
 11
294.659583
 21
202.091833
 31
0.0
  0
LINE
  8
1
  6
CONTINUOUS
 62
     1
  5
43C
 10
294.659583
 20
202.091833
 30
0.0
 11
294.659583
 21
199.091833
 31
0.0
  0
POLYLINE
  8
1
  6
CONTINUOUS
 62
     1
  5
43D
 66
     1
 10
0.0
 20
0.0
 30
0.0
 70
     1
  0
VERTEX
  8
1
  6
CONTINUOUS
 62
     1
  5
43E
 10
294.624083
 20
202.109583
 30
0.0
  0
VERTEX
  8
1
  6
CONTINUOUS
 62
     1
  5
43F
 10
293.124083
 20
202.109583
 30
0.0
  0
VERTEX
  8
1
  6
CONTINUOUS
 62
     1
  5
440
 10
294.624083
 20
200.609583
 30
0.0
  0
VERTEX
  8
1
  6
CONTINUOUS
 62
     1
  5
441
 10
294.624083
 20
202.109583
 30
0.0
  0
SEQEND
  8
1
  6
CONTINUOUS
 62
     1
  5
442
  0
LINE
  8
1
  6
CONTINUOUS
 62
     1
  5
443
 10
300.659583
 20
205.591833
 30
0.0
 11
300.659583
 21
202.091833
 31
0.0
  0
LINE
  8
1
  6
CONTINUOUS
 62
     1
  5
444
 10
300.659583
 20
202.091833
 30
0.0
 11
300.659583
 21
199.091833
 31
0.0
  0
POLYLINE
  8
1
  6
CONTINUOUS
 62
     1
  5
445
 66
     1
 10
0.0
 20
0.0
 30
0.0
 70
     1
  0
VERTEX
  8
1
  6
CONTINUOUS
 62
     1
  5
446
 10
300.677333
 20
200.2365
 30
0.0
  0
VERTEX
  8
1
  6
CONTINUOUS
 62
     1
  5
447
 10
302.177333
 20
201.7365
 30
0.0
  0
VERTEX
  8
1
  6
CONTINUOUS
 62
     1
  5
448
 10
300.677333
 20
201.7365
 30
0.0
  0
VERTEX
  8
1
  6
CONTINUOUS
 62
     1
  5
449
 10
300.677333
 20
200.2365
 30
0.0
  0
SEQEND
  8
1
  6
CONTINUOUS
 62
     1
  5
44A
  0
LINE
  8
1
  6
CONTINUOUS
 62
     1
  5
44B
 10
293.659583
 20
200.652667
 30
0.0
 11
269.006667
 21
200.652667
 31
0.0
  0
LINE
  8
1
  6
CONTINUOUS
 62
     1
  5
44C
 10
316.305833
 20
200.652667
 30
0.0
 11
301.659583
 21
200.652667
 31
0.0
  0
LINE
  8
1
  6
CONTINUOUS
 62
     1
  5
44D
 10
298.659583
 20
200.652667
 30
0.0
 11
296.659583
 21
200.652667
 31
0.0
  0
LINE
  8
1
  6
CONTINUOUS
 62
     1
  5
44E
 10
282.159583
 20
260.652667
 30
0.0
 11
269.006667
 21
260.652667
 31
0.0
  0
LINE
  8
1
  6
CONTINUOUS
 62
     1
  5
44F
 10
282.159583
 20
202.652667
 30
0.0
 11
269.006667
 21
202.652667
 31
0.0
  0
CIRCLE
  8
1
  6
DASHED
 62
     1
  5
450
 10
297.65475
 20
226.17475
 30
0.0
 40
3.0
210
0.0
220
0.0
230
1.0
  0
LINE
  8
1
  6
CONTINUOUS
 62
     1
  5
451
 10
295.654833
 20
226.152667
 30
0.0
 11
275.654833
 21
226.152667
 31
0.0
  0
LINE
  8
1
  6
CONTINUOUS
 62
     1
  5
452
 10
306.654667
 20
226.152667
 30
0.0
 11
299.654667
 21
226.152667
 31
0.0
  0
LINE
  8
1
  6
CONTINUOUS
 62
     1
  5
453
 10
298.659583
 20
226.152667
 30
0.0
 11
296.659583
 21
226.152667
 31
0.0
  0
LINE
  8
1
  6
CONTINUOUS
 62
     1
  5
454
 10
297.659583
 20
227.152667
 30
0.0
 11
297.659583
 21
225.152667
 31
0.0
  0
LINE
  8
1
  6
CONTINUOUS
 62
     1
  5
455
 10
297.659583
 20
224.17475
 30
0.0
 11
297.659583
 21
216.17475
 31
0.0
  0
LINE
  8
1
  6
CONTINUOUS
 62
     1
  5
456
 10
297.659583
 20
266.652667
 30
0.0
 11
297.659583
 21
262.637
 31
0.0
  0
LINE
  8
1
  6
CONTINUOUS
 62
     1
  5
457
 10
297.659583
 20
261.652667
 30
0.0
 11
297.659583
 21
259.652667
 31
0.0
  0
LINE
  8
1
  6
CONTINUOUS
 62
     1
  5
458
 10
297.659583
 20
258.679333
 30
0.0
 11
297.659583
 21
255.152667
 31
0.0
  0
LINE
  8
1
  6
CONTINUOUS
 62
     1
  5
459
 10
297.659583
 20
253.152667
 30
0.0
 11
297.659583
 21
228.17475
 31
0.0
  0
LINE
  8
1
  6
CONTINUOUS
 62
     1
  5
45A
 10
297.659583
 20
246.652667
 30
0.0
 11
283.159583
 21
246.652667
 31
0.0
  0
LINE
  8
1
  6
CONTINUOUS
 62
     1
  5
45B
 10
297.659583
 20
246.652667
 30
0.0
 11
323.159583
 21
246.652667
 31
0.0
  0
INSERT
  8
1
  6
CONTINUOUS
 62
     1
  5
45C
  2
LDR
 10
283.159583
 20
246.652667
 30
0.0
 41
240.0
 42
240.0
 50
180.0
210
0.0
220
0.0
230
1.0
  0
INSERT
  8
1
  6
CONTINUOUS
 62
     1
  5
45D
  2
LDR
 10
283.159583
 20
246.652667
 30
0.0
 41
240.0
 42
240.0
 50
180.0
210
0.0
220
0.0
230
1.0
  0
INSERT
  8
1
  6
CONTINUOUS
 62
     1
  5
45E
  2
LDR
 10
297.659583
 20
246.652667
 30
0.0
 41
240.0
 42
240.0
210
0.0
220
0.0
230
1.0
  0
INSERT
  8
1
  6
CONTINUOUS
 62
     1
  5
45F
  2
LDR
 10
297.659583
 20
246.652667
 30
0.0
 41
240.0
 42
240.0
 50
180.0
210
0.0
220
0.0
230
1.0
  0
INSERT
  8
1
  6
CONTINUOUS
 62
     1
  5
460
  2
LDR
 10
297.659583
 20
246.652667
 30
0.0
 41
240.0
 42
240.0
 50
180.0
210
0.0
220
0.0
230
1.0
  0
INSERT
  8
1
  6
CONTINUOUS
 62
     1
  5
461
  2
LDR
 10
323.159583
 20
246.652667
 30
0.0
 41
240.0
 42
240.0
210
0.0
220
0.0
230
1.0
  0
INSERT
  8
1
  6
CONTINUOUS
 62
     1
  5
462
  2
LDR
 10
323.159583
 20
246.652667
 30
0.0
 41
240.0
 42
240.0
210
0.0
220
0.0
230
1.0
  0
LINE
  8
1
  6
CONTINUOUS
 62
     1
  5
463
 10
270.006667
 20
260.652667
 30
0.0
 11
270.006667
 21
202.652667
 31
0.0
  0
LINE
  8
1
  6
CONTINUOUS
 62
     1
  5
464
 10
270.006667
 20
202.652667
 30
0.0
 11
270.006667
 21
200.652667
 31
0.0
  0
LINE
  8
1
  6
CONTINUOUS
 62
     1
  5
465
 10
270.006667
 20
200.652667
 30
0.0
 11
270.006667
 21
195.652667
 31
0.0
  0
INSERT
  8
1
  6
CONTINUOUS
 62
     1
  5
466
  2
LDR
 10
270.006667
 20
202.652667
 30
0.0
 41
240.0
 42
240.0
 50
270.0
210
0.0
220
0.0
230
1.0
  0
INSERT
  8
1
  6
CONTINUOUS
 62
     1
  5
467
  2
LDR
 10
270.006667
 20
202.652667
 30
0.0
 41
240.0
 42
240.0
 50
270.0
210
0.0
220
0.0
230
1.0
  0
INSERT
  8
1
  6
CONTINUOUS
 62
     1
  5
468
  2
LDR
 10
270.006667
 20
200.652667
 30
0.0
 41
240.0
 42
240.0
 50
90.0
210
0.0
220
0.0
230
1.0
  0
INSERT
  8
1
  6
CONTINUOUS
 62
     1
  5
469
  2
LDR
 10
270.006667
 20
260.652667
 30
0.0
 41
240.0
 42
240.0
 50
90.0
210
0.0
220
0.0
230
1.0
  0
INSERT
  8
1
  6
CONTINUOUS
 62
     1
  5
46A
  2
LDR
 10
270.006667
 20
260.652667
 30
0.0
 41
240.0
 42
240.0
 50
90.0
210
0.0
220
0.0
230
1.0
  0
LINE
  8
1
  6
CONTINUOUS
 62
     1
  5
46B
 10
276.654833
 20
226.152667
 30
0.0
 11
276.654833
 21
260.652667
 31
0.0
  0
INSERT
  8
1
  6
CONTINUOUS
 62
     1
  5
46C
  2
LDR
 10
276.654833
 20
260.652667
 30
0.0
 41
240.0
 42
240.0
 50
90.0
210
0.0
220
0.0
230
1.0
  0
INSERT
  8
1
  6
CONTINUOUS
 62
     1
  5
46D
  2
LDR
 10
276.654833
 20
260.652667
 30
0.0
 41
240.0
 42
240.0
 50
90.0
210
0.0
220
0.0
230
1.0
  0
INSERT
  8
1
  6
CONTINUOUS
 62
     1
  5
46E
  2
LDR
 10
276.654833
 20
226.152667
 30
0.0
 41
240.0
 42
240.0
 50
270.0
210
0.0
220
0.0
230
1.0
  0
LINE
  8
1
  6
CONTINUOUS
 62
     1
  5
46F
 10
323.159583
 20
241.132
 30
0.0
 11
329.224333
 21
246.2795
 31
0.0
  0
LINE
  8
1
  6
CONTINUOUS
 62
     1
  5
470
 10
329.224333
 20
246.2795
 30
0.0
 11
334.261
 21
246.2795
 31
0.0
  0
LINE
  8
1
  6
CONTINUOUS
 62
     1
  5
471
 10
299.998667
 20
224.30225
 30
0.0
 11
327.5455
 21
215.117
 31
0.0
  0
LINE
  8
1
  6
CONTINUOUS
 62
     1
  5
472
 10
327.5455
 20
215.117
 30
0.0
 11
333.14175
 21
215.117
 31
0.0
  0
INSERT
  8
1
  6
CONTINUOUS
 62
     1
  5
473
  2
LDR
 10
323.159583
 20
241.132
 30
0.0
 41
240.000001
 42
240.000001
 50
220.32317
210
0.0
220
0.0
230
1.0
  0
INSERT
  8
1
  6
CONTINUOUS
 62
     1
  5
474
  2
LDR
 10
323.159583
 20
241.132
 30
0.0
 41
240.000001
 42
240.000001
 50
220.32317
210
0.0
220
0.0
230
1.0
  0
INSERT
  8
1
  6
CONTINUOUS
 62
     1
  5
475
  2
LDR
 10
299.998667
 20
224.30225
 30
0.0
 41
240.0
 42
240.0
 50
161.559488
210
0.0
220
0.0
230
1.0
  0
INSERT
  8
1
  6
CONTINUOUS
 62
     1
  5
476
  2
LDR
 10
299.998667
 20
224.30225
 30
0.0
 41
240.0
 42
240.0
 50
161.559488
210
0.0
220
0.0
230
1.0
  0
TEXT
  8
1
  6
CONTINUOUS
 62
     7
  5
477
 10
289.793667
 20
247.170583
 30
0.0
 40
2.5
  1
3"
  7
MONOTXT
210
0.0
220
0.0
230
1.0
  0
TEXT
  8
1
  6
CONTINUOUS
 62
     7
  5
478
 10
310.073917
 20
247.170583
 30
0.0
 40
2.5
  1
5"
  7
MONOTXT
210
0.0
220
0.0
230
1.0
  0
TEXT
  8
1
  6
CONTINUOUS
 62
     7
  5
479
 10
334.454583
 20
245.224833
 30
0.0
 40
2.5
  1
1  1/4 " COVER PLATE (TYP. FLUSH
  7
MONOTXT
 11
334.454583
 21
247.724833
 31
0.0
210
0.0
220
0.0
230
1.0
 73
     3
  0
TEXT
  8
1
  6
CONTINUOUS
 62
     7
  5
47A
 10
334.454583
 20
240.724833
 30
0.0
 40
2.5
  1
WITH FACE OF CONCRETE)
  7
MONOTXT
 11
334.454583
 21
243.224833
 31
0.0
210
0.0
220
0.0
230
1.0
 73
     3
  0
TEXT
  8
1
  6
CONTINUOUS
 62
     7
  5
47B
 10
333.2355
 20
214.246
 30
0.0
 40
2.5
  1
1 1/2 " 0 GASKETED HUB (TYP.)
  7
MONOTXT
210
0.0
220
0.0
230
1.0
  0
TEXT
  8
1
  6
CONTINUOUS
 62
     7
  5
47C
 10
342.766083
 20
214.246
 30
0.0
 40
2.5
  1
/
  7
MONOTXT
210
0.0
220
0.0
230
1.0
  0
TEXT
  8
1
  6
CONTINUOUS
 62
     7
  5
47D
 10
268.8485
 20
228.879167
 30
0.0
 40
2.5
  1
11  1/2 "
 50
90.0
  7
MONOTXT
210
0.0
220
0.0
230
1.0
  0
TEXT
  8
1
  6
CONTINUOUS
 62
     7
  5
47E
 10
270.621667
 20
191.4095
 30
0.0
 40
2.5
  1
 1/2 "
 50
90.0
  7
MONOTXT
210
0.0
220
0.0
230
1.0
  0
TEXT
  8
1
  6
CONTINUOUS
 62
     7
  5
47F
 10
275.941083
 20
241.406
 30
0.0
 40
2.5
  1
7"
 50
90.0
  7
MONOTXT
210
0.0
220
0.0
230
1.0
  0
LINE
  8
1
  6
CONTINUOUS
 62
     7
  5
480
 10
264.6115
 20
176.6685
 30
0.0
 11
330.479333
 21
176.6685
 31
0.0
  0
TEXT
  8
1
  6
CONTINUOUS
 62
     7
  5
481
 10
286.267417
 20
186.18025
 30
0.0
 40
3.0
  1
SIDE VIEW
  7
MONOTXT
210
0.0
220
0.0
230
1.0
  0
TEXT
  8
1
  6
CONTINUOUS
 62
     7
  5
482
 10
266.146167
 20
178.233583
 30
0.0
 40
3.5
  1
TYPE B JUNCTION BOX
  7
MONOTXT
210
0.0
220
0.0
230
1.0
  0
LINE
  8
1
  6
CONTINUOUS
 62
     7
  5
483
 10
284.846583
 20
184.891083
 30
0.0
 11
309.613417
 21
184.891083
 31
0.0
  0
LINE
  8
1
  6
CONTINUOUS
 62
     1
  5
484
 10
439.803167
 20
253.972333
 30
0.0
 11
439.803167
 21
193.972333
 31
0.0
  0
LINE
  8
1
  6
CONTINUOUS
 62
     1
  5
485
 10
499.803167
 20
253.972333
 30
0.0
 11
499.803167
 21
193.972333
 31
0.0
  0
LINE
  8
1
  6
CONTINUOUS
 62
     1
  5
486
 10
439.803167
 20
253.972333
 30
0.0
 11
499.803167
 21
253.972333
 31
0.0
  0
LINE
  8
1
  6
DASHED
 62
     1
  5
487
 10
441.303167
 20
252.472333
 30
0.0
 11
441.303167
 21
193.972333
 31
0.0
  0
LINE
  8
1
  6
DASHED
 62
     1
  5
488
 10
441.303167
 20
252.472333
 30
0.0
 11
498.303167
 21
252.472333
 31
0.0
  0
LINE
  8
1
  6
DASHED
 62
     1
  5
489
 10
498.303167
 20
252.472333
 30
0.0
 11
498.303167
 21
193.972333
 31
0.0
  0
LINE
  8
1
  6
DASHED
 62
     1
  5
48A
 10
447.303167
 20
246.472333
 30
0.0
 11
447.303167
 21
193.972333
 31
0.0
  0
LINE
  8
1
  6
DASHED
 62
     1
  5
48B
 10
492.303167
 20
246.472333
 30
0.0
 11
492.303167
 21
193.972333
 31
0.0
  0
LINE
  8
1
  6
DASHED
 62
     1
  5
48C
 10
447.303167
 20
246.472333
 30
0.0
 11
492.303167
 21
246.472333
 31
0.0
  0
LINE
  8
1
  6
CONTINUOUS
 62
     1
  5
48D
 10
469.803167
 20
209.359417
 30
0.0
 11
469.803167
 21
192.972333
 31
0.0
  0
LINE
  8
1
  6
CONTINUOUS
 62
     1
  5
48E
 10
439.803167
 20
193.972333
 30
0.0
 11
469.803167
 21
193.972333
 31
0.0
  0
LINE
  8
1
  6
CONTINUOUS
 62
     1
  5
48F
 10
469.803167
 20
193.972333
 30
0.0
 11
499.803167
 21
193.972333
 31
0.0
  0
LINE
  8
1
  6
CONTINUOUS
 62
     1
  5
490
 10
469.803167
 20
198.972333
 30
0.0
 11
465.303167
 21
193.972333
 31
0.0
  0
LINE
  8
1
  6
CONTINUOUS
 62
     1
  5
491
 10
469.803167
 20
198.972333
 30
0.0
 11
474.303167
 21
193.972333
 31
0.0
  0
LINE
  8
1
  6
CONTINUOUS
 62
     1
  5
492
 10
439.803167
 20
197.972333
 30
0.0
 11
468.903167
 21
197.972333
 31
0.0
  0
LINE
  8
1
  6
CONTINUOUS
 62
     1
  5
493
 10
470.703167
 20
197.972333
 30
0.0
 11
499.803167
 21
197.972333
 31
0.0
  0
LINE
  8
1
  6
CONTINUOUS
 62
     1
  5
494
 10
472.803167
 20
223.972333
 30
0.0
 11
506.803167
 21
223.972333
 31
0.0
  0
LINE
  8
1
  6
CONTINUOUS
 62
     1
  5
495
 10
468.803167
 20
223.972333
 30
0.0
 11
470.803167
 21
223.972333
 31
0.0
  0
LINE
  8
1
  6
CONTINUOUS
 62
     1
  5
496
 10
469.803167
 20
261.972333
 30
0.0
 11
469.803167
 21
226.972333
 31
0.0
  0
LINE
  8
1
  6
CONTINUOUS
 62
     1
  5
497
 10
469.803167
 20
224.972333
 30
0.0
 11
469.803167
 21
222.972333
 31
0.0
  0
LINE
  8
1
  6
CONTINUOUS
 62
     1
  5
498
 10
469.803167
 20
220.972333
 30
0.0
 11
469.803167
 21
209.359417
 31
0.0
  0
CIRCLE
  8
1
  6
CONTINUOUS
 62
     1
  5
499
 10
444.310917
 20
236.472667
 30
0.0
 40
0.75
210
0.0
220
0.0
230
1.0
  0
CIRCLE
  8
1
  6
CONTINUOUS
 62
     1
  5
49A
 10
495.304
 20
236.473
 30
0.0
 40
0.75
210
0.0
220
0.0
230
1.0
  0
CIRCLE
  8
1
  6
CONTINUOUS
 62
     1
  5
49B
 10
495.30325
 20
211.47175
 30
0.0
 40
0.75
210
0.0
220
0.0
230
1.0
  0
CIRCLE
  8
1
  6
CONTINUOUS
 62
     1
  5
49C
 10
484.80225
 20
249.475167
 30
0.0
 40
0.75
210
0.0
220
0.0
230
1.0
  0
CIRCLE
  8
1
  6
CONTINUOUS
 62
     1
  5
49D
 10
454.80025
 20
249.470417
 30
0.0
 40
0.75
210
0.0
220
0.0
230
1.0
  0
CIRCLE
  8
1
  6
CONTINUOUS
 62
     1
  5
49E
 10
444.301083
 20
211.47075
 30
0.0
 40
0.75
210
0.0
220
0.0
230
1.0
  0
CIRCLE
  8
1
  6
CONTINUOUS
 62
     1
  5
49F
 10
489.80025
 20
244.477167
 30
0.0
 40
0.5
210
0.0
220
0.0
230
1.0
  0
CIRCLE
  8
1
  6
CONTINUOUS
 62
     1
  5
4A0
 10
495.31275
 20
241.162083
 30
0.0
 40
0.5
210
0.0
220
0.0
230
1.0
  0
LINE
  8
1
  6
CONTINUOUS
 62
     1
  5
4A1
 10
439.803167
 20
254.972333
 30
0.0
 11
439.803167
 21
266.972333
 31
0.0
  0
LINE
  8
1
  6
CONTINUOUS
 62
     1
  5
4A2
 10
499.803167
 20
254.972333
 30
0.0
 11
499.803167
 21
266.972333
 31
0.0
  0
LINE
  8
1
  6
CONTINUOUS
 62
     1
  5
4A3
 10
439.803167
 20
265.972333
 30
0.0
 11
499.803167
 21
265.972333
 31
0.0
  0
LINE
  8
1
  6
CONTINUOUS
 62
     1
  5
4A4
 10
454.834667
 20
260.972333
 30
0.0
 11
469.803167
 21
260.972333
 31
0.0
  0
LINE
  8
1
  6
CONTINUOUS
 62
     1
  5
4A5
 10
469.803167
 20
260.972333
 30
0.0
 11
484.818583
 21
260.972333
 31
0.0
  0
INSERT
  8
1
  6
CONTINUOUS
 62
     1
  5
4A6
  2
LDR
 10
454.834667
 20
260.972333
 30
0.0
 41
240.0
 42
240.0
 50
180.0
210
0.0
220
0.0
230
1.0
  0
INSERT
  8
1
  6
CONTINUOUS
 62
     1
  5
4A7
  2
LDR
 10
454.834667
 20
260.972333
 30
0.0
 41
240.0
 42
240.0
 50
180.0
210
0.0
220
0.0
230
1.0
  0
INSERT
  8
1
  6
CONTINUOUS
 62
     1
  5
4A8
  2
LDR
 10
469.803167
 20
260.972333
 30
0.0
 41
240.0
 42
240.0
210
0.0
220
0.0
230
1.0
  0
INSERT
  8
1
  6
CONTINUOUS
 62
     1
  5
4A9
  2
LDR
 10
469.803167
 20
260.972333
 30
0.0
 41
240.0
 42
240.0
210
0.0
220
0.0
230
1.0
  0
INSERT
  8
1
  6
CONTINUOUS
 62
     1
  5
4AA
  2
LDR
 10
469.803167
 20
260.972333
 30
0.0
 41
240.0
 42
240.0
 50
180.0
210
0.0
220
0.0
230
1.0
  0
INSERT
  8
1
  6
CONTINUOUS
 62
     1
  5
4AB
  2
LDR
 10
469.803167
 20
260.972333
 30
0.0
 41
240.0
 42
240.0
 50
180.0
210
0.0
220
0.0
230
1.0
  0
INSERT
  8
1
  6
CONTINUOUS
 62
     1
  5
4AC
  2
LDR
 10
484.818583
 20
260.972333
 30
0.0
 41
240.0
 42
240.0
210
0.0
220
0.0
230
1.0
  0
INSERT
  8
1
  6
CONTINUOUS
 62
     1
  5
4AD
  2
LDR
 10
484.818583
 20
260.972333
 30
0.0
 41
240.0
 42
240.0
210
0.0
220
0.0
230
1.0
  0
LINE
  8
1
  6
CONTINUOUS
 62
     1
  5
4AE
 10
454.834667
 20
261.972333
 30
0.0
 11
454.834667
 21
258.096
 31
0.0
  0
LINE
  8
1
  6
CONTINUOUS
 62
     1
  5
4AF
 10
454.834667
 20
257.096
 30
0.0
 11
454.834667
 21
256.096
 31
0.0
  0
LINE
  8
1
  6
CONTINUOUS
 62
     1
  5
4B0
 10
454.834667
 20
255.096
 30
0.0
 11
454.834667
 21
251.219667
 31
0.0
  0
LINE
  8
1
  6
CONTINUOUS
 62
     1
  5
4B1
 10
484.818583
 20
261.972333
 30
0.0
 11
484.818583
 21
258.096
 31
0.0
  0
LINE
  8
1
  6
CONTINUOUS
 62
     1
  5
4B2
 10
484.818583
 20
257.096
 30
0.0
 11
484.818583
 21
256.096
 31
0.0
  0
LINE
  8
1
  6
CONTINUOUS
 62
     1
  5
4B3
 10
484.818583
 20
255.096
 30
0.0
 11
484.818583
 21
251.225
 31
0.0
  0
LINE
  8
1
  6
CONTINUOUS
 62
     1
  5
4B4
 10
432.803167
 20
236.37025
 30
0.0
 11
432.803167
 21
223.972333
 31
0.0
  0
LINE
  8
1
  6
CONTINUOUS
 62
     1
  5
4B5
 10
432.803167
 20
223.972333
 30
0.0
 11
432.803167
 21
211.51425
 31
0.0
  0
INSERT
  8
1
  6
CONTINUOUS
 62
     1
  5
4B6
  2
LDR
 10
432.803167
 20
236.37025
 30
0.0
 41
240.0
 42
240.0
 50
90.0
210
0.0
220
0.0
230
1.0
  0
INSERT
  8
1
  6
CONTINUOUS
 62
     1
  5
4B7
  2
LDR
 10
432.803167
 20
223.972333
 30
0.0
 41
240.0
 42
240.0
 50
270.0
210
0.0
220
0.0
230
1.0
  0
INSERT
  8
1
  6
CONTINUOUS
 62
     1
  5
4B8
  2
LDR
 10
432.803167
 20
223.972333
 30
0.0
 41
240.0
 42
240.0
 50
270.0
210
0.0
220
0.0
230
1.0
  0
INSERT
  8
1
  6
CONTINUOUS
 62
     1
  5
4B9
  2
LDR
 10
432.803167
 20
223.972333
 30
0.0
 41
240.0
 42
240.0
 50
90.0
210
0.0
220
0.0
230
1.0
  0
INSERT
  8
1
  6
CONTINUOUS
 62
     1
  5
4BA
  2
LDR
 10
432.803167
 20
223.972333
 30
0.0
 41
240.0
 42
240.0
 50
90.0
210
0.0
220
0.0
230
1.0
  0
INSERT
  8
1
  6
CONTINUOUS
 62
     1
  5
4BB
  2
LDR
 10
432.803167
 20
211.51425
 30
0.0
 41
240.0
 42
240.0
 50
270.0
210
0.0
220
0.0
230
1.0
  0
INSERT
  8
1
  6
CONTINUOUS
 62
     1
  5
4BC
  2
LDR
 10
432.803167
 20
211.51425
 30
0.0
 41
240.0
 42
240.0
 50
270.0
210
0.0
220
0.0
230
1.0
  0
LINE
  8
1
  6
CONTINUOUS
 62
     1
  5
4BD
 10
431.803167
 20
236.37025
 30
0.0
 11
435.685583
 21
236.37025
 31
0.0
  0
LINE
  8
1
  6
CONTINUOUS
 62
     1
  5
4BE
 10
436.685583
 20
236.37025
 30
0.0
 11
437.685583
 21
236.37025
 31
0.0
  0
LINE
  8
1
  6
CONTINUOUS
 62
     1
  5
4BF
 10
438.685583
 20
236.37025
 30
0.0
 11
442.567917
 21
236.37025
 31
0.0
  0
LINE
  8
1
  6
CONTINUOUS
 62
     1
  5
4C0
 10
431.803167
 20
211.51425
 30
0.0
 11
435.685583
 21
211.51425
 31
0.0
  0
LINE
  8
1
  6
CONTINUOUS
 62
     1
  5
4C1
 10
436.685583
 20
211.51425
 30
0.0
 11
437.685583
 21
211.51425
 31
0.0
  0
LINE
  8
1
  6
CONTINUOUS
 62
     1
  5
4C2
 10
438.685583
 20
211.51425
 30
0.0
 11
442.552333
 21
211.51425
 31
0.0
  0
LINE
  8
1
  6
CONTINUOUS
 62
     1
  5
4C3
 10
511.803167
 20
253.972333
 30
0.0
 11
500.803167
 21
253.972333
 31
0.0
  0
LINE
  8
1
  6
CONTINUOUS
 62
     1
  5
4C4
 10
511.803167
 20
193.972333
 30
0.0
 11
500.803167
 21
193.972333
 31
0.0
  0
LINE
  8
1
  6
CONTINUOUS
 62
     1
  5
4C5
 10
510.803167
 20
253.972333
 30
0.0
 11
510.803167
 21
193.972333
 31
0.0
  0
INSERT
  8
1
  6
CONTINUOUS
 62
     1
  5
4C6
  2
LDR
 10
510.803167
 20
253.972333
 30
0.0
 41
240.0
 42
240.0
 50
90.0
210
0.0
220
0.0
230
1.0
  0
INSERT
  8
1
  6
CONTINUOUS
 62
     1
  5
4C7
  2
LDR
 10
510.803167
 20
193.972333
 30
0.0
 41
240.0
 42
240.0
 50
270.0
210
0.0
220
0.0
230
1.0
  0
LINE
  8
1
  6
CONTINUOUS
 62
     1
  5
4C8
 10
465.303167
 20
192.972333
 30
0.0
 11
465.303167
 21
186.972333
 31
0.0
  0
LINE
  8
1
  6
CONTINUOUS
 62
     1
  5
4C9
 10
474.303167
 20
192.972333
 30
0.0
 11
474.303167
 21
186.972333
 31
0.0
  0
LINE
  8
1
  6
CONTINUOUS
 62
     1
  5
4CA
 10
465.303167
 20
187.972333
 30
0.0
 11
474.303167
 21
187.972333
 31
0.0
  0
INSERT
  8
1
  6
CONTINUOUS
 62
     1
  5
4CB
  2
LDR
 10
465.303167
 20
187.972333
 30
0.0
 41
240.0
 42
240.0
 50
180.0
210
0.0
220
0.0
230
1.0
  0
INSERT
  8
1
  6
CONTINUOUS
 62
     1
  5
4CC
  2
LDR
 10
465.303167
 20
187.972333
 30
0.0
 41
240.0
 42
240.0
 50
180.0
210
0.0
220
0.0
230
1.0
  0
INSERT
  8
1
  6
CONTINUOUS
 62
     1
  5
4CD
  2
LDR
 10
474.303167
 20
187.972333
 30
0.0
 41
240.0
 42
240.0
210
0.0
220
0.0
230
1.0
  0
LINE
  8
1
  6
CONTINUOUS
 62
     1
  5
4CE
 10
470.803167
 20
198.972333
 30
0.0
 11
480.803167
 21
198.972333
 31
0.0
  0
LINE
  8
1
  6
CONTINUOUS
 62
     1
  5
4CF
 10
479.803167
 20
203.972333
 30
0.0
 11
479.803167
 21
198.972333
 31
0.0
  0
LINE
  8
1
  6
CONTINUOUS
 62
     1
  5
4D0
 10
479.803167
 20
193.972333
 30
0.0
 11
479.803167
 21
188.972333
 31
0.0
  0
INSERT
  8
1
  6
CONTINUOUS
 62
     1
  5
4D1
  2
LDR
 10
479.803167
 20
198.972333
 30
0.0
 41
240.0
 42
240.0
 50
270.0
210
0.0
220
0.0
230
1.0
  0
INSERT
  8
1
  6
CONTINUOUS
 62
     1
  5
4D2
  2
LDR
 10
479.803167
 20
198.972333
 30
0.0
 41
240.0
 42
240.0
 50
270.0
210
0.0
220
0.0
230
1.0
  0
INSERT
  8
1
  6
CONTINUOUS
 62
     1
  5
4D3
  2
LDR
 10
479.803167
 20
193.972333
 30
0.0
 41
240.0
 42
240.0
 50
90.0
210
0.0
220
0.0
230
1.0
  0
INSERT
  8
1
  6
CONTINUOUS
 62
     1
  5
4D4
  2
LDR
 10
479.803167
 20
193.972333
 30
0.0
 41
240.0
 42
240.0
 50
90.0
210
0.0
220
0.0
230
1.0
  0
LINE
  8
1
  6
CONTINUOUS
 62
     1
  5
4D5
 10
467.89175
 20
193.972333
 30
0.0
 11
463.371333
 21
188.297833
 31
0.0
  0
LINE
  8
1
  6
CONTINUOUS
 62
     1
  5
4D6
 10
463.371333
 20
188.297833
 30
0.0
 11
460.234667
 21
188.297833
 31
0.0
  0
INSERT
  8
1
  6
CONTINUOUS
 62
     1
  5
4D7
  2
LDR
 10
467.89175
 20
193.972333
 30
0.0
 41
240.000001
 42
240.000001
 50
51.458494
210
0.0
220
0.0
230
1.0
  0
LINE
  8
1
  6
CONTINUOUS
 62
     1
  5
4D8
 10
490.056167
 20
244.906667
 30
0.0
 11
521.4245
 21
252.3155
 31
0.0
  0
LINE
  8
1
  6
CONTINUOUS
 62
     1
  5
4D9
 10
521.4245
 20
252.3155
 30
0.0
 11
495.7215
 21
241.450083
 31
0.0
  0
INSERT
  8
1
  6
CONTINUOUS
 62
     1
  5
4DA
  2
LDR
 10
490.056167
 20
244.906667
 30
0.0
 41
240.000001
 42
240.000001
 50
193.289056
210
0.0
220
0.0
230
1.0
  0
INSERT
  8
1
  6
CONTINUOUS
 62
     1
  5
4DB
  2
LDR
 10
490.056167
 20
244.906667
 30
0.0
 41
240.000001
 42
240.000001
 50
193.289056
210
0.0
220
0.0
230
1.0
  0
INSERT
  8
1
  6
CONTINUOUS
 62
     1
  5
4DC
  2
LDR
 10
495.7215
 20
241.450083
 30
0.0
 41
240.0
 42
240.0
 50
202.915215
210
0.0
220
0.0
230
1.0
  0
INSERT
  8
1
  6
CONTINUOUS
 62
     1
  5
4DD
  2
LDR
 10
495.7215
 20
241.450083
 30
0.0
 41
240.0
 42
240.0
 50
202.915215
210
0.0
220
0.0
230
1.0
  0
LINE
  8
1
  6
CONTINUOUS
 62
     1
  5
4DE
 10
496.053583
 20
236.49675
 30
0.0
 11
517.6335
 21
236.49675
 31
0.0
  0
LINE
  8
1
  6
CONTINUOUS
 62
     1
  5
4DF
 10
431.803167
 20
223.972333
 30
0.0
 11
447.303167
 21
223.972333
 31
0.0
  0
LINE
  8
1
  6
CONTINUOUS
 62
     1
  5
4E0
 10
447.303167
 20
223.972333
 30
0.0
 11
466.803167
 21
223.972333
 31
0.0
  0
LINE
  8
1
  6
CONTINUOUS
 62
     1
  5
4E1
 10
456.445667
 20
246.98675
 30
0.0
 11
495.733083
 21
223.414417
 31
0.0
  0
LINE
  8
1
  6
CONTINUOUS
 62
     1
  5
4E2
 10
446.841667
 20
250.416667
 30
0.0
 11
497.2765
 21
220.156
 31
0.0
  0
LINE
  8
1
  6
CONTINUOUS
 62
     1
  5
4E3
 10
443.71175
 20
249.087417
 30
0.0
 11
497.5765
 21
216.768917
 31
0.0
  0
LINE
  8
1
  6
CONTINUOUS
 62
     1
  5
4E4
 10
445.340917
 20
244.028167
 30
0.0
 11
493.203333
 21
215.311083
 31
0.0
  0
LINE
  8
1
  6
CONTINUOUS
 62
     1
  5
4E5
 10
448.589333
 20
221.087583
 30
0.0
 11
471.6805
 21
207.233083
 31
0.0
  0
LINE
  8
1
  6
CONTINUOUS
 62
     1
  5
4E6
 10
442.158083
 20
222.03075
 30
0.0
 11
474.681667
 21
202.516917
 31
0.0
  0
LINE
  8
1
  6
CONTINUOUS
 62
     1
  5
4E7
 10
444.902
 20
216.88575
 30
0.0
 11
470.56575
 21
201.487833
 31
0.0
  0
LINE
  8
1
  6
CONTINUOUS
 62
     1
  5
4E8
 10
445.202
 20
213.498583
 30
0.0
 11
468.293417
 21
199.644083
 31
0.0
  0
LINE
  8
1
  6
CONTINUOUS
 62
     1
  5
4E9
 10
448.460417
 20
209.211083
 30
0.0
 11
455.259417
 21
205.131833
 31
0.0
  0
LINE
  8
1
  6
CONTINUOUS
 62
     1
  5
4EA
 10
475.16725
 20
245.957833
 30
0.0
 11
489.73075
 21
237.21975
 31
0.0
  0
LINE
  8
1
  6
CONTINUOUS
 62
     1
  5
4EB
 10
477.482333
 20
246.901
 30
0.0
 11
490.759667
 21
238.934667
 31
0.0
  0
LINE
  8
1
  6
CONTINUOUS
 62
     1
  5
4EC
 10
480.226167
 20
247.586917
 30
0.0
 11
489.216167
 21
242.193
 31
0.0
  0
LINE
  8
1
  6
CONTINUOUS
 62
     1
  5
4ED
 10
481.640917
 20
248.487167
 30
0.0
 11
491.059667
 21
242.836083
 31
0.0
  0
LINE
  8
1
  6
CONTINUOUS
 62
     1
  5
4EE
 10
485.88725
 20
248.85475
 30
0.0
 11
490.630917
 21
246.008583
 31
0.0
  0
LINE
  8
1
  6
CONTINUOUS
 62
     1
  5
4EF
 10
486.371167
 20
248.850417
 30
0.0
 11
450.295333
 21
227.312583
 31
0.0
  0
LINE
  8
1
  6
CONTINUOUS
 62
     1
  5
4F0
 10
489.356833
 20
247.138917
 30
0.0
 11
453.979583
 21
226.018167
 31
0.0
  0
LINE
  8
1
  6
CONTINUOUS
 62
     1
  5
4F1
 10
495.431833
 20
248.667833
 30
0.0
 11
457.47875
 21
226.009167
 31
0.0
  0
LINE
  8
1
  6
CONTINUOUS
 62
     1
  5
4F2
 10
494.020333
 20
235.013917
 30
0.0
 11
452.454833
 21
210.198583
 31
0.0
  0
LINE
  8
1
  6
CONTINUOUS
 62
     1
  5
4F3
 10
492.213333
 20
232.188
 30
0.0
 11
456.658167
 21
210.961
 31
0.0
  0
LINE
  8
1
  6
CONTINUOUS
 62
     1
  5
4F4
 10
491.091917
 20
229.189167
 30
0.0
 11
461.11775
 21
211.294167
 31
0.0
  0
LINE
  8
1
  6
CONTINUOUS
 62
     1
  5
4F5
 10
489.541167
 20
225.934083
 30
0.0
 11
465.577333
 21
211.627333
 31
0.0
  0
LINE
  8
1
  6
CONTINUOUS
 62
     1
  5
4F6
 10
488.548667
 20
219.51825
 30
0.0
 11
468.140333
 21
207.334167
 31
0.0
  0
LINE
  8
1
  6
CONTINUOUS
 62
     1
  5
4F7
 10
495.500833
 20
222.504083
 30
0.0
 11
456.63225
 21
199.299
 31
0.0
  0
LINE
  8
1
  6
CONTINUOUS
 62
     1
  5
4F8
 10
491.547167
 20
218.396667
 30
0.0
 11
467.275167
 21
203.906
 31
0.0
  0
LINE
  8
1
  6
CONTINUOUS
 62
     1
  5
4F9
 10
496.865417
 20
219.242417
 30
0.0
 11
464.436583
 21
199.882083
 31
0.0
  0
TEXT
  8
1
  6
CONTINUOUS
 62
     7
  5
4FA
 10
467.665667
 20
266.472333
 30
0.0
 40
2.5
  1
18"
  7
MONOTXT
210
0.0
220
0.0
230
1.0
  0
TEXT
  8
1
  6
CONTINUOUS
 62
     7
  5
4FB
 10
457.272917
 20
262.288167
 30
0.0
 40
2.5
  1
4  1/2 "
  7
MONOTXT
210
0.0
220
0.0
230
1.0
  0
TEXT
  8
1
  6
CONTINUOUS
 62
     7
  5
4FC
 10
472.082917
 20
262.241667
 30
0.0
 40
2.5
  1
4  1/2 "
  7
MONOTXT
210
0.0
220
0.0
230
1.0
  0
INSERT
  8
1
  6
CONTINUOUS
 62
     1
  5
4FD
  2
LDR
 10
439.803167
 20
265.972333
 30
0.0
 41
240.0
 42
240.0
 50
180.0
210
0.0
220
0.0
230
1.0
  0
INSERT
  8
1
  6
CONTINUOUS
 62
     1
  5
4FE
  2
LDR
 10
439.803167
 20
265.972333
 30
0.0
 41
240.0
 42
240.0
 50
180.0
210
0.0
220
0.0
230
1.0
  0
INSERT
  8
1
  6
CONTINUOUS
 62
     1
  5
4FF
  2
LDR
 10
499.803167
 20
265.972333
 30
0.0
 41
240.0
 42
240.0
210
0.0
220
0.0
230
1.0
  0
TEXT
  8
1
  6
CONTINUOUS
 62
     7
  5
500
 10
522.179167
 20
251.682583
 30
0.0
 40
2.5
  1
 1/4 " STEEL PLATE COVER
  7
MONOTXT
210
0.0
220
0.0
230
1.0
  0
TEXT
  8
1
  6
CONTINUOUS
 62
     7
  5
501
 10
518.548417
 20
237.076333
 30
0.0
 40
2.5
  1
 3/8 " HEX HEAD H.D. GALVANIZED
  7
MONOTXT
 11
518.548417
 21
239.576333
 31
0.0
210
0.0
220
0.0
230
1.0
 73
     3
  0
TEXT
  8
1
  6
CONTINUOUS
 62
     7
  5
502
 10
518.548417
 20
232.576333
 30
0.0
 40
2.5
  1
CAP SCREWS (6) REQ'D.
  7
MONOTXT
 11
518.548417
 21
235.076333
 31
0.0
210
0.0
220
0.0
230
1.0
 73
     3
  0
TEXT
  8
1
  6
CONTINUOUS
 62
     7
  5
503
 10
431.569167
 20
187.02325
 30
0.0
 40
2.5
  1
DRAIN OPENING
  7
MONOTXT
210
0.0
220
0.0
230
1.0
  0
TEXT
  8
1
  6
CONTINUOUS
 62
     7
  5
504
 10
468.08075
 20
184.690417
 30
0.0
 40
2.5
  1
2"
  7
MONOTXT
210
0.0
220
0.0
230
1.0
  0
TEXT
  8
1
  6
CONTINUOUS
 62
     7
  5
505
 10
480.907167
 20
187.278417
 30
0.0
 40
2.5
  1
1"
 50
90.0
  7
MONOTXT
210
0.0
220
0.0
230
1.0
  0
TEXT
  8
1
  6
CONTINUOUS
 62
     7
  5
506
 10
431.2765
 20
212.585917
 30
0.0
 40
2.5
  1
2  1/2 "
 50
90.0
  7
MONOTXT
210
0.0
220
0.0
230
1.0
  0
TEXT
  8
1
  6
CONTINUOUS
 62
     7
  5
507
 10
431.188833
 20
224.813667
 30
0.0
 40
2.5
  1
2  1/2 "
 50
90.0
  7
MONOTXT
210
0.0
220
0.0
230
1.0
  0
TEXT
  8
1
  6
CONTINUOUS
 62
     7
  5
508
 10
514.432917
 20
221.921083
 30
0.0
 40
2.5
  1
12"
 50
90.0
  7
MONOTXT
210
0.0
220
0.0
230
1.0
  0
TEXT
  8
1
  6
CONTINUOUS
 62
     7
  5
509
 10
453.373667
 20
171.476667
 30
0.0
 40
3.5
  1
COVER PLATE
  7
MONOTXT
210
0.0
220
0.0
230
1.0
  0
LINE
  8
1
  6
CONTINUOUS
 62
     7
  5
50A
 10
452.219
 20
169.352583
 30
0.0
 11
492.05925
 21
169.352583
 31
0.0
  0
LINE
  8
1
  6
CONTINUOUS
 62
     2
  5
50B
 10
77.914083
 20
134.267917
 30
0.0
 11
137.914083
 21
134.267917
 31
0.0
  0
LINE
  8
1
  6
CONTINUOUS
 62
     2
  5
50C
 10
77.914083
 20
54.267917
 30
0.0
 11
137.914083
 21
54.267917
 31
0.0
  0
LINE
  8
1
  6
CONTINUOUS
 62
     2
  5
50D
 10
77.914083
 20
134.267917
 30
0.0
 11
77.914083
 21
54.267917
 31
0.0
  0
LINE
  8
1
  6
CONTINUOUS
 62
     2
  5
50E
 10
137.914083
 20
134.267917
 30
0.0
 11
137.914083
 21
54.267917
 31
0.0
  0
LINE
  8
1
  6
CONTINUOUS
 62
     2
  5
50F
 10
82.414083
 20
129.767917
 30
0.0
 11
133.414083
 21
129.767917
 31
0.0
  0
LINE
  8
1
  6
CONTINUOUS
 62
     2
  5
510
 10
133.414083
 20
129.767917
 30
0.0
 11
133.414083
 21
58.767917
 31
0.0
  0
LINE
  8
1
  6
CONTINUOUS
 62
     2
  5
511
 10
82.414083
 20
58.767917
 30
0.0
 11
133.414083
 21
58.767917
 31
0.0
  0
LINE
  8
1
  6
CONTINUOUS
 62
     2
  5
512
 10
82.414083
 20
129.767917
 30
0.0
 11
82.414083
 21
58.767917
 31
0.0
  0
LINE
  8
1
  6
DASHED
 62
     2
  5
513
 10
83.414083
 20
125.267917
 30
0.0
 11
131.414083
 21
125.267917
 31
0.0
  0
LINE
  8
1
  6
DASHED
 62
     2
  5
514
 10
83.414083
 20
63.267917
 30
0.0
 11
131.414083
 21
63.267917
 31
0.0
  0
LINE
  8
1
  6
DASHED
 62
     2
  5
515
 10
86.914083
 20
125.267917
 30
0.0
 11
86.914083
 21
63.267917
 31
0.0
  0
LINE
  8
1
  6
DASHED
 62
     2
  5
516
 10
128.914083
 20
125.267917
 30
0.0
 11
128.914083
 21
63.267917
 31
0.0
  0
LINE
  8
1
  6
DASHED
 62
     2
  5
517
 10
93.914083
 20
125.267917
 30
0.0
 11
93.914083
 21
63.267917
 31
0.0
  0
LINE
  8
1
  6
DASHED
 62
     2
  5
518
 10
121.914083
 20
125.267917
 30
0.0
 11
121.914083
 21
63.267917
 31
0.0
  0
LINE
  8
1
  6
CONTINUOUS
 62
     2
  5
519
 10
79.414083
 20
127.767917
 30
0.0
 11
79.414083
 21
60.767917
 31
0.0
  0
LINE
  8
1
  6
CONTINUOUS
 62
     2
  5
51A
 10
79.414083
 20
127.767917
 30
0.0
 11
82.414083
 21
127.767917
 31
0.0
  0
LINE
  8
1
  6
CONTINUOUS
 62
     2
  5
51B
 10
79.414083
 20
60.767917
 30
0.0
 11
82.414083
 21
60.767917
 31
0.0
  0
LINE
  8
1
  6
CONTINUOUS
 62
     2
  5
51C
 10
79.414083
 20
93.267917
 30
0.0
 11
80.914083
 21
93.267917
 31
0.0
  0
LINE
  8
1
  6
CONTINUOUS
 62
     2
  5
51D
 10
79.414083
 20
95.267917
 30
0.0
 11
80.914083
 21
95.267917
 31
0.0
  0
LINE
  8
1
  6
CONTINUOUS
 62
     2
  5
51E
 10
80.914083
 20
95.267917
 30
0.0
 11
80.914083
 21
93.267917
 31
0.0
  0
LINE
  8
1
  6
CONTINUOUS
 62
     2
  5
51F
 10
79.414083
 20
97.267917
 30
0.0
 11
80.914083
 21
97.267917
 31
0.0
  0
LINE
  8
1
  6
CONTINUOUS
 62
     2
  5
520
 10
79.414083
 20
99.267917
 30
0.0
 11
80.914083
 21
99.267917
 31
0.0
  0
LINE
  8
1
  6
CONTINUOUS
 62
     2
  5
521
 10
79.414083
 20
101.267917
 30
0.0
 11
80.914083
 21
101.267917
 31
0.0
  0
LINE
  8
1
  6
CONTINUOUS
 62
     2
  5
522
 10
79.414083
 20
103.267917
 30
0.0
 11
80.914083
 21
103.267917
 31
0.0
  0
LINE
  8
1
  6
CONTINUOUS
 62
     2
  5
523
 10
79.414083
 20
105.267917
 30
0.0
 11
80.914083
 21
105.267917
 31
0.0
  0
LINE
  8
1
  6
CONTINUOUS
 62
     2
  5
524
 10
79.414083
 20
107.267917
 30
0.0
 11
80.914083
 21
107.267917
 31
0.0
  0
LINE
  8
1
  6
CONTINUOUS
 62
     2
  5
525
 10
79.414083
 20
109.267917
 30
0.0
 11
80.914083
 21
109.267917
 31
0.0
  0
LINE
  8
1
  6
CONTINUOUS
 62
     2
  5
526
 10
79.414083
 20
111.267917
 30
0.0
 11
80.914083
 21
111.267917
 31
0.0
  0
LINE
  8
1
  6
CONTINUOUS
 62
     2
  5
527
 10
79.414083
 20
113.267917
 30
0.0
 11
80.914083
 21
113.267917
 31
0.0
  0
LINE
  8
1
  6
CONTINUOUS
 62
     2
  5
528
 10
79.414083
 20
115.267917
 30
0.0
 11
80.914083
 21
115.267917
 31
0.0
  0
LINE
  8
1
  6
CONTINUOUS
 62
     2
  5
529
 10
79.414083
 20
117.267917
 30
0.0
 11
80.914083
 21
117.267917
 31
0.0
  0
LINE
  8
1
  6
CONTINUOUS
 62
     2
  5
52A
 10
79.414083
 20
119.267917
 30
0.0
 11
80.914083
 21
119.267917
 31
0.0
  0
LINE
  8
1
  6
CONTINUOUS
 62
     2
  5
52B
 10
79.414083
 20
121.267917
 30
0.0
 11
80.914083
 21
121.267917
 31
0.0
  0
LINE
  8
1
  6
CONTINUOUS
 62
     2
  5
52C
 10
79.414083
 20
123.267917
 30
0.0
 11
80.914083
 21
123.267917
 31
0.0
  0
LINE
  8
1
  6
CONTINUOUS
 62
     2
  5
52D
 10
79.414083
 20
125.267917
 30
0.0
 11
80.914083
 21
125.267917
 31
0.0
  0
LINE
  8
1
  6
CONTINUOUS
 62
     2
  5
52E
 10
79.414083
 20
127.267917
 30
0.0
 11
80.914083
 21
127.267917
 31
0.0
  0
LINE
  8
1
  6
CONTINUOUS
 62
     2
  5
52F
 10
79.414083
 20
91.267917
 30
0.0
 11
80.914083
 21
91.267917
 31
0.0
  0
LINE
  8
1
  6
CONTINUOUS
 62
     2
  5
530
 10
79.414083
 20
89.267917
 30
0.0
 11
80.914083
 21
89.267917
 31
0.0
  0
LINE
  8
1
  6
CONTINUOUS
 62
     2
  5
531
 10
79.414083
 20
87.267917
 30
0.0
 11
80.914083
 21
87.267917
 31
0.0
  0
LINE
  8
1
  6
CONTINUOUS
 62
     2
  5
532
 10
79.414083
 20
85.267917
 30
0.0
 11
80.914083
 21
85.267917
 31
0.0
  0
LINE
  8
1
  6
CONTINUOUS
 62
     2
  5
533
 10
79.414083
 20
83.267917
 30
0.0
 11
80.914083
 21
83.267917
 31
0.0
  0
LINE
  8
1
  6
CONTINUOUS
 62
     2
  5
534
 10
79.414083
 20
81.267917
 30
0.0
 11
80.914083
 21
81.267917
 31
0.0
  0
LINE
  8
1
  6
CONTINUOUS
 62
     2
  5
535
 10
79.414083
 20
79.267917
 30
0.0
 11
80.914083
 21
79.267917
 31
0.0
  0
LINE
  8
1
  6
CONTINUOUS
 62
     2
  5
536
 10
79.414083
 20
77.267917
 30
0.0
 11
80.914083
 21
77.267917
 31
0.0
  0
LINE
  8
1
  6
CONTINUOUS
 62
     2
  5
537
 10
79.414083
 20
75.267917
 30
0.0
 11
80.914083
 21
75.267917
 31
0.0
  0
LINE
  8
1
  6
CONTINUOUS
 62
     2
  5
538
 10
79.414083
 20
73.267917
 30
0.0
 11
80.914083
 21
73.267917
 31
0.0
  0
LINE
  8
1
  6
CONTINUOUS
 62
     2
  5
539
 10
79.414083
 20
71.267917
 30
0.0
 11
80.914083
 21
71.267917
 31
0.0
  0
LINE
  8
1
  6
CONTINUOUS
 62
     2
  5
53A
 10
79.414083
 20
69.267917
 30
0.0
 11
80.914083
 21
69.267917
 31
0.0
  0
LINE
  8
1
  6
CONTINUOUS
 62
     2
  5
53B
 10
79.414083
 20
67.267917
 30
0.0
 11
80.914083
 21
67.267917
 31
0.0
  0
LINE
  8
1
  6
CONTINUOUS
 62
     2
  5
53C
 10
79.414083
 20
65.267917
 30
0.0
 11
80.914083
 21
65.267917
 31
0.0
  0
LINE
  8
1
  6
CONTINUOUS
 62
     2
  5
53D
 10
79.414083
 20
63.267917
 30
0.0
 11
80.914083
 21
63.267917
 31
0.0
  0
LINE
  8
1
  6
CONTINUOUS
 62
     2
  5
53E
 10
79.414083
 20
61.267917
 30
0.0
 11
80.914083
 21
61.267917
 31
0.0
  0
LINE
  8
1
  6
CONTINUOUS
 62
     2
  5
53F
 10
80.914083
 20
99.267917
 30
0.0
 11
80.914083
 21
97.267917
 31
0.0
  0
LINE
  8
1
  6
CONTINUOUS
 62
     2
  5
540
 10
80.914083
 20
103.267917
 30
0.0
 11
80.914083
 21
101.267917
 31
0.0
  0
LINE
  8
1
  6
CONTINUOUS
 62
     2
  5
541
 10
80.914083
 20
107.267917
 30
0.0
 11
80.914083
 21
105.267917
 31
0.0
  0
LINE
  8
1
  6
CONTINUOUS
 62
     2
  5
542
 10
80.914083
 20
111.267917
 30
0.0
 11
80.914083
 21
109.267917
 31
0.0
  0
LINE
  8
1
  6
CONTINUOUS
 62
     2
  5
543
 10
80.914083
 20
115.267917
 30
0.0
 11
80.914083
 21
113.267917
 31
0.0
  0
LINE
  8
1
  6
CONTINUOUS
 62
     2
  5
544
 10
80.914083
 20
119.267917
 30
0.0
 11
80.914083
 21
117.267917
 31
0.0
  0
LINE
  8
1
  6
CONTINUOUS
 62
     2
  5
545
 10
80.914083
 20
123.267917
 30
0.0
 11
80.914083
 21
121.267917
 31
0.0
  0
LINE
  8
1
  6
CONTINUOUS
 62
     2
  5
546
 10
80.914083
 20
127.267917
 30
0.0
 11
80.914083
 21
125.267917
 31
0.0
  0
LINE
  8
1
  6
CONTINUOUS
 62
     2
  5
547
 10
80.914083
 20
91.267917
 30
0.0
 11
80.914083
 21
89.267917
 31
0.0
  0
LINE
  8
1
  6
CONTINUOUS
 62
     2
  5
548
 10
80.914083
 20
87.267917
 30
0.0
 11
80.914083
 21
85.267917
 31
0.0
  0
LINE
  8
1
  6
CONTINUOUS
 62
     2
  5
549
 10
80.914083
 20
83.267917
 30
0.0
 11
80.914083
 21
81.267917
 31
0.0
  0
LINE
  8
1
  6
CONTINUOUS
 62
     2
  5
54A
 10
80.914083
 20
79.267917
 30
0.0
 11
80.914083
 21
77.267917
 31
0.0
  0
LINE
  8
1
  6
CONTINUOUS
 62
     2
  5
54B
 10
80.914083
 20
75.267917
 30
0.0
 11
80.914083
 21
73.267917
 31
0.0
  0
LINE
  8
1
  6
CONTINUOUS
 62
     2
  5
54C
 10
80.914083
 20
71.267917
 30
0.0
 11
80.914083
 21
69.267917
 31
0.0
  0
LINE
  8
1
  6
CONTINUOUS
 62
     2
  5
54D
 10
80.914083
 20
67.267917
 30
0.0
 11
80.914083
 21
65.267917
 31
0.0
  0
LINE
  8
1
  6
CONTINUOUS
 62
     2
  5
54E
 10
80.914083
 20
63.267917
 30
0.0
 11
80.914083
 21
61.267917
 31
0.0
  0
LINE
  8
1
  6
CONTINUOUS
 62
     2
  5
54F
 10
76.414083
 20
119.767917
 30
0.0
 11
76.414083
 21
99.267917
 31
0.0
  0
LINE
  8
1
  6
CONTINUOUS
 62
     2
  5
550
 10
76.414083
 20
89.267917
 30
0.0
 11
76.414083
 21
68.767917
 31
0.0
  0
LINE
  8
1
  6
CONTINUOUS
 62
     2
  5
551
 10
76.414083
 20
119.767917
 30
0.0
 11
77.914083
 21
119.767917
 31
0.0
  0
LINE
  8
1
  6
CONTINUOUS
 62
     2
  5
552
 10
76.414083
 20
99.267917
 30
0.0
 11
77.914083
 21
99.267917
 31
0.0
  0
LINE
  8
1
  6
CONTINUOUS
 62
     2
  5
553
 10
76.414083
 20
89.267917
 30
0.0
 11
77.914083
 21
89.267917
 31
0.0
  0
LINE
  8
1
  6
CONTINUOUS
 62
     2
  5
554
 10
76.414083
 20
68.767917
 30
0.0
 11
77.914083
 21
68.767917
 31
0.0
  0
LINE
  8
1
  6
CONTINUOUS
 62
     2
  5
555
 10
76.414083
 20
115.767917
 30
0.0
 11
68.914083
 21
115.767917
 31
0.0
  0
LINE
  8
1
  6
CONTINUOUS
 62
     2
  5
556
 10
76.414083
 20
108.267917
 30
0.0
 11
68.914083
 21
108.267917
 31
0.0
  0
LINE
  8
1
  6
CONTINUOUS
 62
     2
  5
557
 10
76.414083
 20
85.267917
 30
0.0
 11
68.914083
 21
85.267917
 31
0.0
  0
LINE
  8
1
  6
CONTINUOUS
 62
     2
  5
558
 10
76.414083
 20
77.767917
 30
0.0
 11
68.914083
 21
77.767917
 31
0.0
  0
LINE
  8
1
  6
CONTINUOUS
 62
     2
  5
559
 10
68.914083
 20
115.767917
 30
0.0
 11
68.914083
 21
108.267917
 31
0.0
  0
LINE
  8
1
  6
CONTINUOUS
 62
     2
  5
55A
 10
68.914083
 20
85.267917
 30
0.0
 11
68.914083
 21
77.767917
 31
0.0
  0
LINE
  8
1
  6
CONTINUOUS
 62
     2
  5
55B
 10
75.914083
 20
118.767917
 30
0.0
 11
75.914083
 21
117.267917
 31
0.0
  0
LINE
  8
1
  6
CONTINUOUS
 62
     2
  5
55C
 10
75.914083
 20
118.767917
 30
0.0
 11
76.414083
 21
118.767917
 31
0.0
  0
LINE
  8
1
  6
CONTINUOUS
 62
     2
  5
55D
 10
75.914083
 20
117.267917
 30
0.0
 11
76.414083
 21
117.267917
 31
0.0
  0
LINE
  8
1
  6
CONTINUOUS
 62
     2
  5
55E
 10
75.914083
 20
100.267917
 30
0.0
 11
76.414083
 21
100.267917
 31
0.0
  0
LINE
  8
1
  6
CONTINUOUS
 62
     2
  5
55F
 10
75.914083
 20
100.267917
 30
0.0
 11
75.914083
 21
101.767917
 31
0.0
  0
LINE
  8
1
  6
CONTINUOUS
 62
     2
  5
560
 10
75.914083
 20
101.767917
 30
0.0
 11
76.414083
 21
101.767917
 31
0.0
  0
LINE
  8
1
  6
CONTINUOUS
 62
     2
  5
561
 10
75.914083
 20
88.267917
 30
0.0
 11
76.414083
 21
88.267917
 31
0.0
  0
LINE
  8
1
  6
CONTINUOUS
 62
     2
  5
562
 10
75.914083
 20
86.767917
 30
0.0
 11
76.414083
 21
86.767917
 31
0.0
  0
LINE
  8
1
  6
CONTINUOUS
 62
     2
  5
563
 10
75.914083
 20
86.767917
 30
0.0
 11
75.914083
 21
88.267917
 31
0.0
  0
LINE
  8
1
  6
CONTINUOUS
 62
     2
  5
564
 10
75.914083
 20
69.767917
 30
0.0
 11
76.414083
 21
69.767917
 31
0.0
  0
LINE
  8
1
  6
CONTINUOUS
 62
     2
  5
565
 10
75.914083
 20
71.267917
 30
0.0
 11
76.414083
 21
71.267917
 31
0.0
  0
LINE
  8
1
  6
CONTINUOUS
 62
     2
  5
566
 10
75.914083
 20
69.767917
 30
0.0
 11
75.914083
 21
71.267917
 31
0.0
  0
LINE
  8
1
  6
CONTINUOUS
 62
     2
  5
567
 10
146.883833
 20
115.767917
 30
0.0
 11
146.883833
 21
108.267917
 31
0.0
  0
LINE
  8
1
  6
CONTINUOUS
 62
     2
  5
568
 10
139.383833
 20
119.767917
 30
0.0
 11
139.383833
 21
99.267917
 31
0.0
  0
LINE
  8
1
  6
CONTINUOUS
 62
     2
  5
569
 10
139.383833
 20
89.267917
 30
0.0
 11
139.383833
 21
68.767917
 31
0.0
  0
LINE
  8
1
  6
CONTINUOUS
 62
     2
  5
56A
 10
139.383833
 20
119.767917
 30
0.0
 11
137.883833
 21
119.767917
 31
0.0
  0
LINE
  8
1
  6
CONTINUOUS
 62
     2
  5
56B
 10
139.383833
 20
99.267917
 30
0.0
 11
137.883833
 21
99.267917
 31
0.0
  0
LINE
  8
1
  6
CONTINUOUS
 62
     2
  5
56C
 10
139.383833
 20
89.267917
 30
0.0
 11
137.883833
 21
89.267917
 31
0.0
  0
LINE
  8
1
  6
CONTINUOUS
 62
     2
  5
56D
 10
139.383833
 20
68.767917
 30
0.0
 11
137.883833
 21
68.767917
 31
0.0
  0
LINE
  8
1
  6
CONTINUOUS
 62
     2
  5
56E
 10
139.383833
 20
115.767917
 30
0.0
 11
146.883833
 21
115.767917
 31
0.0
  0
LINE
  8
1
  6
CONTINUOUS
 62
     2
  5
56F
 10
139.383833
 20
108.267917
 30
0.0
 11
146.883833
 21
108.267917
 31
0.0
  0
LINE
  8
1
  6
CONTINUOUS
 62
     2
  5
570
 10
139.383833
 20
85.267917
 30
0.0
 11
146.883833
 21
85.267917
 31
0.0
  0
LINE
  8
1
  6
CONTINUOUS
 62
     2
  5
571
 10
139.383833
 20
77.767917
 30
0.0
 11
146.883833
 21
77.767917
 31
0.0
  0
LINE
  8
1
  6
CONTINUOUS
 62
     2
  5
572
 10
146.883833
 20
85.267917
 30
0.0
 11
146.883833
 21
77.767917
 31
0.0
  0
LINE
  8
1
  6
CONTINUOUS
 62
     2
  5
573
 10
139.883833
 20
118.767917
 30
0.0
 11
139.883833
 21
117.267917
 31
0.0
  0
LINE
  8
1
  6
CONTINUOUS
 62
     2
  5
574
 10
139.883833
 20
118.767917
 30
0.0
 11
139.383833
 21
118.767917
 31
0.0
  0
LINE
  8
1
  6
CONTINUOUS
 62
     2
  5
575
 10
139.883833
 20
117.267917
 30
0.0
 11
139.383833
 21
117.267917
 31
0.0
  0
LINE
  8
1
  6
CONTINUOUS
 62
     2
  5
576
 10
139.883833
 20
100.267917
 30
0.0
 11
139.383833
 21
100.267917
 31
0.0
  0
LINE
  8
1
  6
CONTINUOUS
 62
     2
  5
577
 10
139.883833
 20
100.267917
 30
0.0
 11
139.883833
 21
101.767917
 31
0.0
  0
LINE
  8
1
  6
CONTINUOUS
 62
     2
  5
578
 10
139.883833
 20
101.767917
 30
0.0
 11
139.383833
 21
101.767917
 31
0.0
  0
LINE
  8
1
  6
CONTINUOUS
 62
     2
  5
579
 10
139.883833
 20
88.267917
 30
0.0
 11
139.383833
 21
88.267917
 31
0.0
  0
LINE
  8
1
  6
CONTINUOUS
 62
     2
  5
57A
 10
139.883833
 20
86.767917
 30
0.0
 11
139.383833
 21
86.767917
 31
0.0
  0
LINE
  8
1
  6
CONTINUOUS
 62
     2
  5
57B
 10
139.883833
 20
86.767917
 30
0.0
 11
139.883833
 21
88.267917
 31
0.0
  0
LINE
  8
1
  6
CONTINUOUS
 62
     2
  5
57C
 10
139.883833
 20
69.767917
 30
0.0
 11
139.383833
 21
69.767917
 31
0.0
  0
LINE
  8
1
  6
CONTINUOUS
 62
     2
  5
57D
 10
139.883833
 20
71.267917
 30
0.0
 11
139.383833
 21
71.267917
 31
0.0
  0
LINE
  8
1
  6
CONTINUOUS
 62
     2
  5
57E
 10
139.883833
 20
69.767917
 30
0.0
 11
139.883833
 21
71.267917
 31
0.0
  0
LINE
  8
1
  6
CONTINUOUS
 62
     2
  5
57F
 10
78.914083
 20
134.267917
 30
0.0
 11
78.914083
 21
140.267917
 31
0.0
  0
LINE
  8
1
  6
CONTINUOUS
 62
     2
  5
580
 10
136.914083
 20
134.267917
 30
0.0
 11
136.914083
 21
140.267917
 31
0.0
  0
LINE
  8
1
  6
CONTINUOUS
 62
     2
  5
581
 10
88.914083
 20
134.267917
 30
0.0
 11
88.914083
 21
140.267917
 31
0.0
  0
LINE
  8
1
  6
CONTINUOUS
 62
     2
  5
582
 10
126.914083
 20
134.267917
 30
0.0
 11
126.914083
 21
140.267917
 31
0.0
  0
LINE
  8
1
  6
CONTINUOUS
 62
     2
  5
583
 10
78.914083
 20
140.267917
 30
0.0
 11
88.914083
 21
140.267917
 31
0.0
  0
LINE
  8
1
  6
CONTINUOUS
 62
     2
  5
584
 10
126.914083
 20
140.267917
 30
0.0
 11
136.914083
 21
140.267917
 31
0.0
  0
LINE
  8
1
  6
CONTINUOUS
 62
     2
  5
585
 10
91.914083
 20
134.267917
 30
0.0
 11
91.914083
 21
135.267917
 31
0.0
  0
LINE
  8
1
  6
CONTINUOUS
 62
     2
  5
586
 10
123.914083
 20
134.267917
 30
0.0
 11
123.914083
 21
135.267917
 31
0.0
  0
LINE
  8
1
  6
CONTINUOUS
 62
     2
  5
587
 10
106.914083
 20
134.267917
 30
0.0
 11
106.914083
 21
135.267917
 31
0.0
  0
LINE
  8
1
  6
CONTINUOUS
 62
     2
  5
588
 10
108.914083
 20
134.267917
 30
0.0
 11
108.914083
 21
135.267917
 31
0.0
  0
LINE
  8
1
  6
CONTINUOUS
 62
     2
  5
589
 10
95.664083
 20
135.267917
 30
0.0
 11
95.664083
 21
142.767917
 31
0.0
  0
LINE
  8
1
  6
CONTINUOUS
 62
     2
  5
58A
 10
103.164083
 20
135.267917
 30
0.0
 11
103.164083
 21
142.767917
 31
0.0
  0
LINE
  8
1
  6
CONTINUOUS
 62
     2
  5
58B
 10
112.664083
 20
135.267917
 30
0.0
 11
112.664083
 21
142.767917
 31
0.0
  0
LINE
  8
1
  6
CONTINUOUS
 62
     2
  5
58C
 10
120.164083
 20
135.267917
 30
0.0
 11
120.164083
 21
142.767917
 31
0.0
  0
LINE
  8
1
  6
CONTINUOUS
 62
     2
  5
58D
 10
95.664083
 20
142.767917
 30
0.0
 11
103.164083
 21
142.767917
 31
0.0
  0
LINE
  8
1
  6
CONTINUOUS
 62
     2
  5
58E
 10
112.664083
 20
142.767917
 30
0.0
 11
120.164083
 21
142.767917
 31
0.0
  0
LINE
  8
1
  6
CONTINUOUS
 62
     2
  5
58F
 10
91.914083
 20
135.267917
 30
0.0
 11
95.664083
 21
135.267917
 31
0.0
  0
LINE
  8
1
  6
CONTINUOUS
 62
     2
  5
590
 10
93.289083
 20
135.767917
 30
0.0
 11
93.289083
 21
135.267917
 31
0.0
  0
LINE
  8
1
  6
CONTINUOUS
 62
     2
  5
591
 10
94.289083
 20
135.767917
 30
0.0
 11
94.289083
 21
135.267917
 31
0.0
  0
LINE
  8
1
  6
CONTINUOUS
 62
     2
  5
592
 10
93.289083
 20
135.767917
 30
0.0
 11
94.289083
 21
135.767917
 31
0.0
  0
LINE
  8
1
  6
CONTINUOUS
 62
     2
  5
593
 10
95.664083
 20
135.267917
 30
0.0
 11
103.164083
 21
135.267917
 31
0.0
  0
LINE
  8
1
  6
CONTINUOUS
 62
     2
  5
594
 10
103.164083
 20
135.267917
 30
0.0
 11
106.914083
 21
135.267917
 31
0.0
  0
LINE
  8
1
  6
CONTINUOUS
 62
     2
  5
595
 10
104.539083
 20
135.767917
 30
0.0
 11
104.539083
 21
135.267917
 31
0.0
  0
LINE
  8
1
  6
CONTINUOUS
 62
     2
  5
596
 10
105.539083
 20
135.767917
 30
0.0
 11
105.539083
 21
135.267917
 31
0.0
  0
LINE
  8
1
  6
CONTINUOUS
 62
     2
  5
597
 10
104.539083
 20
135.767917
 30
0.0
 11
105.539083
 21
135.767917
 31
0.0
  0
LINE
  8
1
  6
CONTINUOUS
 62
     2
  5
598
 10
108.914083
 20
135.267917
 30
0.0
 11
112.664083
 21
135.267917
 31
0.0
  0
LINE
  8
1
  6
CONTINUOUS
 62
     2
  5
599
 10
110.289083
 20
135.767917
 30
0.0
 11
110.289083
 21
135.267917
 31
0.0
  0
LINE
  8
1
  6
CONTINUOUS
 62
     2
  5
59A
 10
111.289083
 20
135.767917
 30
0.0
 11
111.289083
 21
135.267917
 31
0.0
  0
LINE
  8
1
  6
CONTINUOUS
 62
     2
  5
59B
 10
110.289083
 20
135.767917
 30
0.0
 11
111.289083
 21
135.767917
 31
0.0
  0
LINE
  8
1
  6
CONTINUOUS
 62
     2
  5
59C
 10
112.664083
 20
135.267917
 30
0.0
 11
120.164083
 21
135.267917
 31
0.0
  0
LINE
  8
1
  6
CONTINUOUS
 62
     2
  5
59D
 10
120.164083
 20
135.267917
 30
0.0
 11
123.914083
 21
135.267917
 31
0.0
  0
LINE
  8
1
  6
CONTINUOUS
 62
     2
  5
59E
 10
121.539083
 20
135.767917
 30
0.0
 11
121.539083
 21
135.267917
 31
0.0
  0
LINE
  8
1
  6
CONTINUOUS
 62
     2
  5
59F
 10
122.539083
 20
135.767917
 30
0.0
 11
122.539083
 21
135.267917
 31
0.0
  0
LINE
  8
1
  6
CONTINUOUS
 62
     2
  5
5A0
 10
121.539083
 20
135.767917
 30
0.0
 11
122.539083
 21
135.767917
 31
0.0
  0
LINE
  8
1
  6
CONTINUOUS
 62
     2
  5
5A1
 10
95.652583
 20
45.77075
 30
0.0
 11
103.152583
 21
45.77075
 31
0.0
  0
LINE
  8
1
  6
CONTINUOUS
 62
     2
  5
5A2
 10
78.902583
 20
54.27075
 30
0.0
 11
78.902583
 21
48.27075
 31
0.0
  0
LINE
  8
1
  6
CONTINUOUS
 62
     2
  5
5A3
 10
136.902583
 20
54.27075
 30
0.0
 11
136.902583
 21
48.27075
 31
0.0
  0
LINE
  8
1
  6
CONTINUOUS
 62
     2
  5
5A4
 10
88.902583
 20
54.27075
 30
0.0
 11
88.902583
 21
48.27075
 31
0.0
  0
LINE
  8
1
  6
CONTINUOUS
 62
     2
  5
5A5
 10
126.902583
 20
54.27075
 30
0.0
 11
126.902583
 21
48.27075
 31
0.0
  0
LINE
  8
1
  6
CONTINUOUS
 62
     2
  5
5A6
 10
91.902583
 20
54.27075
 30
0.0
 11
91.902583
 21
53.27075
 31
0.0
  0
LINE
  8
1
  6
CONTINUOUS
 62
     2
  5
5A7
 10
123.902583
 20
54.27075
 30
0.0
 11
123.902583
 21
53.27075
 31
0.0
  0
LINE
  8
1
  6
CONTINUOUS
 62
     2
  5
5A8
 10
106.902583
 20
54.27075
 30
0.0
 11
106.902583
 21
53.27075
 31
0.0
  0
LINE
  8
1
  6
CONTINUOUS
 62
     2
  5
5A9
 10
108.902583
 20
54.27075
 30
0.0
 11
108.902583
 21
53.27075
 31
0.0
  0
LINE
  8
1
  6
CONTINUOUS
 62
     2
  5
5AA
 10
95.652583
 20
53.27075
 30
0.0
 11
95.652583
 21
45.77075
 31
0.0
  0
LINE
  8
1
  6
CONTINUOUS
 62
     2
  5
5AB
 10
103.152583
 20
53.27075
 30
0.0
 11
103.152583
 21
45.77075
 31
0.0
  0
LINE
  8
1
  6
CONTINUOUS
 62
     2
  5
5AC
 10
112.652583
 20
53.27075
 30
0.0
 11
112.652583
 21
45.77075
 31
0.0
  0
LINE
  8
1
  6
CONTINUOUS
 62
     2
  5
5AD
 10
120.152583
 20
53.27075
 30
0.0
 11
120.152583
 21
45.77075
 31
0.0
  0
LINE
  8
1
  6
CONTINUOUS
 62
     2
  5
5AE
 10
112.652583
 20
45.77075
 30
0.0
 11
120.152583
 21
45.77075
 31
0.0
  0
LINE
  8
1
  6
CONTINUOUS
 62
     2
  5
5AF
 10
91.902583
 20
53.27075
 30
0.0
 11
95.652583
 21
53.27075
 31
0.0
  0
LINE
  8
1
  6
CONTINUOUS
 62
     2
  5
5B0
 10
93.277583
 20
52.77075
 30
0.0
 11
93.277583
 21
53.27075
 31
0.0
  0
LINE
  8
1
  6
CONTINUOUS
 62
     2
  5
5B1
 10
94.277583
 20
52.77075
 30
0.0
 11
94.277583
 21
53.27075
 31
0.0
  0
LINE
  8
1
  6
CONTINUOUS
 62
     2
  5
5B2
 10
93.277583
 20
52.77075
 30
0.0
 11
94.277583
 21
52.77075
 31
0.0
  0
LINE
  8
1
  6
CONTINUOUS
 62
     2
  5
5B3
 10
95.652583
 20
53.27075
 30
0.0
 11
103.152583
 21
53.27075
 31
0.0
  0
LINE
  8
1
  6
CONTINUOUS
 62
     2
  5
5B4
 10
103.152583
 20
53.27075
 30
0.0
 11
106.902583
 21
53.27075
 31
0.0
  0
LINE
  8
1
  6
CONTINUOUS
 62
     2
  5
5B5
 10
104.527583
 20
52.77075
 30
0.0
 11
104.527583
 21
53.27075
 31
0.0
  0
LINE
  8
1
  6
CONTINUOUS
 62
     2
  5
5B6
 10
105.527583
 20
52.77075
 30
0.0
 11
105.527583
 21
53.27075
 31
0.0
  0
LINE
  8
1
  6
CONTINUOUS
 62
     2
  5
5B7
 10
104.527583
 20
52.77075
 30
0.0
 11
105.527583
 21
52.77075
 31
0.0
  0
LINE
  8
1
  6
CONTINUOUS
 62
     2
  5
5B8
 10
108.902583
 20
53.27075
 30
0.0
 11
112.652583
 21
53.27075
 31
0.0
  0
LINE
  8
1
  6
CONTINUOUS
 62
     2
  5
5B9
 10
110.277583
 20
52.77075
 30
0.0
 11
110.277583
 21
53.27075
 31
0.0
  0
LINE
  8
1
  6
CONTINUOUS
 62
     2
  5
5BA
 10
111.277583
 20
52.77075
 30
0.0
 11
111.277583
 21
53.27075
 31
0.0
  0
LINE
  8
1
  6
CONTINUOUS
 62
     2
  5
5BB
 10
110.277583
 20
52.77075
 30
0.0
 11
111.277583
 21
52.77075
 31
0.0
  0
LINE
  8
1
  6
CONTINUOUS
 62
     2
  5
5BC
 10
112.652583
 20
53.27075
 30
0.0
 11
120.152583
 21
53.27075
 31
0.0
  0
LINE
  8
1
  6
CONTINUOUS
 62
     2
  5
5BD
 10
120.152583
 20
53.27075
 30
0.0
 11
123.902583
 21
53.27075
 31
0.0
  0
LINE
  8
1
  6
CONTINUOUS
 62
     2
  5
5BE
 10
121.527583
 20
52.77075
 30
0.0
 11
121.527583
 21
53.27075
 31
0.0
  0
LINE
  8
1
  6
CONTINUOUS
 62
     2
  5
5BF
 10
122.527583
 20
52.77075
 30
0.0
 11
122.527583
 21
53.27075
 31
0.0
  0
LINE
  8
1
  6
CONTINUOUS
 62
     2
  5
5C0
 10
121.527583
 20
52.77075
 30
0.0
 11
122.527583
 21
52.77075
 31
0.0
  0
LINE
  8
1
  6
CONTINUOUS
 62
     2
  5
5C1
 10
82.902583
 20
48.27075
 30
0.0
 11
82.902583
 21
51.267917
 31
0.0
  0
LINE
  8
1
  6
CONTINUOUS
 62
     2
  5
5C2
 10
84.902583
 20
48.27075
 30
0.0
 11
84.902583
 21
51.267917
 31
0.0
  0
LINE
  8
1
  6
CONTINUOUS
 62
     2
  5
5C3
 10
78.902583
 20
48.27075
 30
0.0
 11
82.902583
 21
48.27075
 31
0.0
  0
LINE
  8
1
  6
CONTINUOUS
 62
     2
  5
5C4
 10
84.902583
 20
48.27075
 30
0.0
 11
88.902583
 21
48.27075
 31
0.0
  0
ARC
  8
1
  6
CONTINUOUS
 62
     2
  5
5C5
 10
83.902583
 20
51.302604
 30
0.0
 40
1.000601
 50
358.013353
 51
181.986644
210
0.0
220
0.0
230
1.0
  0
LINE
  8
1
  6
CONTINUOUS
 62
     2
  5
5C6
 10
126.902583
 20
48.27075
 30
0.0
 11
130.902583
 21
48.27075
 31
0.0
  0
LINE
  8
1
  6
CONTINUOUS
 62
     2
  5
5C7
 10
130.902583
 20
48.27075
 30
0.0
 11
130.902583
 21
51.267917
 31
0.0
  0
LINE
  8
1
  6
CONTINUOUS
 62
     2
  5
5C8
 10
132.902583
 20
48.27075
 30
0.0
 11
132.902583
 21
51.267917
 31
0.0
  0
LINE
  8
1
  6
CONTINUOUS
 62
     2
  5
5C9
 10
132.902583
 20
48.27075
 30
0.0
 11
136.902583
 21
48.27075
 31
0.0
  0
ARC
  8
1
  6
CONTINUOUS
 62
     2
  5
5CA
 10
131.902583
 20
51.302604
 30
0.0
 40
1.000601
 50
358.013353
 51
181.986644
210
0.0
220
0.0
230
1.0
  0
CIRCLE
  8
1
  6
CONTINUOUS
 62
     2
  5
5CB
 10
83.906
 20
137.265917
 30
0.0
 40
1.0
210
0.0
220
0.0
230
1.0
  0
LINE
  8
1
  6
CONTINUOUS
 62
     2
  5
5CC
 10
64.514083
 20
137.267917
 30
0.0
 11
81.906
 21
137.267917
 31
0.0
  0
LINE
  8
1
  6
CONTINUOUS
 62
     2
  5
5CD
 10
83.414083
 20
137.267917
 30
0.0
 11
84.414083
 21
137.267917
 31
0.0
  0
LINE
  8
1
  6
CONTINUOUS
 62
     2
  5
5CE
 10
85.906
 20
137.267917
 30
0.0
 11
86.914083
 21
137.267917
 31
0.0
  0
LINE
  8
1
  6
CONTINUOUS
 62
     2
  5
5CF
 10
83.914083
 20
150.267917
 30
0.0
 11
83.914083
 21
139.265917
 31
0.0
  0
LINE
  8
1
  6
CONTINUOUS
 62
     2
  5
5D0
 10
83.914083
 20
137.767917
 30
0.0
 11
83.914083
 21
136.767917
 31
0.0
  0
LINE
  8
1
  6
CONTINUOUS
 62
     2
  5
5D1
 10
83.914083
 20
135.265917
 30
0.0
 11
83.914083
 21
134.4985
 31
0.0
  0
LINE
  8
1
  6
CONTINUOUS
 62
     2
  5
5D2
 10
77.914083
 20
138.267917
 30
0.0
 11
77.914083
 21
150.267917
 31
0.0
  0
LINE
  8
1
  6
CONTINUOUS
 62
     2
  5
5D3
 10
72.914083
 20
149.267917
 30
0.0
 11
77.914083
 21
149.267917
 31
0.0
  0
LINE
  8
1
  6
CONTINUOUS
 62
     2
  5
5D4
 10
77.914083
 20
149.267917
 30
0.0
 11
83.914083
 21
149.267917
 31
0.0
  0
LINE
  8
1
  6
CONTINUOUS
 62
     2
  5
5D5
 10
83.914083
 20
149.267917
 30
0.0
 11
93.914083
 21
149.267917
 31
0.0
  0
INSERT
  8
1
  6
CONTINUOUS
 62
     1
  5
5D6
  2
LDR
 10
77.914083
 20
149.267917
 30
0.0
 41
240.0
 42
240.0
210
0.0
220
0.0
230
1.0
  0
INSERT
  8
1
  6
CONTINUOUS
 62
     1
  5
5D7
  2
LDR
 10
83.914083
 20
149.267917
 30
0.0
 41
240.0
 42
240.0
 50
180.0
210
0.0
220
0.0
230
1.0
  0
LINE
  8
1
  6
CONTINUOUS
 62
     2
  5
5D8
 10
131.914083
 20
139.264
 30
0.0
 11
131.914083
 21
135.264
 31
0.0
  0
LINE
  8
1
  6
CONTINUOUS
 62
     2
  5
5D9
 10
129.9155
 20
137.267917
 30
0.0
 11
133.9155
 21
137.267917
 31
0.0
  0
CIRCLE
  8
1
  6
CONTINUOUS
 62
     2
  5
5DA
 10
131.9155
 20
137.264
 30
0.0
 40
1.0
210
0.0
220
0.0
230
1.0
  0
LINE
  8
1
  6
CONTINUOUS
 62
     2
  5
5DB
 10
126.914083
 20
141.267917
 30
0.0
 11
126.914083
 21
150.267917
 31
0.0
  0
LINE
  8
1
  6
CONTINUOUS
 62
     2
  5
5DC
 10
137.914083
 20
135.267917
 30
0.0
 11
137.914083
 21
150.267917
 31
0.0
  0
LINE
  8
1
  6
CONTINUOUS
 62
     2
  5
5DD
 10
116.914083
 20
149.267917
 30
0.0
 11
126.914083
 21
149.267917
 31
0.0
  0
LINE
  8
1
  6
CONTINUOUS
 62
     2
  5
5DE
 10
126.914083
 20
149.267917
 30
0.0
 11
137.914083
 21
149.267917
 31
0.0
  0
LINE
  8
1
  6
CONTINUOUS
 62
     2
  5
5DF
 10
137.914083
 20
149.267917
 30
0.0
 11
142.914083
 21
149.267917
 31
0.0
  0
INSERT
  8
1
  6
CONTINUOUS
 62
     1
  5
5E0
  2
LDR
 10
126.914083
 20
149.267917
 30
0.0
 41
240.0
 42
240.0
210
0.0
220
0.0
230
1.0
  0
INSERT
  8
1
  6
CONTINUOUS
 62
     1
  5
5E1
  2
LDR
 10
126.914083
 20
149.267917
 30
0.0
 41
240.0
 42
240.0
210
0.0
220
0.0
230
1.0
  0
INSERT
  8
1
  6
CONTINUOUS
 62
     1
  5
5E2
  2
LDR
 10
137.914083
 20
149.267917
 30
0.0
 41
240.0
 42
240.0
 50
180.0
210
0.0
220
0.0
230
1.0
  0
INSERT
  8
1
  6
CONTINUOUS
 62
     1
  5
5E3
  2
LDR
 10
137.914083
 20
149.267917
 30
0.0
 41
240.0
 42
240.0
 50
180.0
210
0.0
220
0.0
230
1.0
  0
LINE
  8
1
  6
CONTINUOUS
 62
     2
  5
5E4
 10
76.914083
 20
134.267917
 30
0.0
 11
64.514083
 21
134.267917
 31
0.0
  0
LINE
  8
1
  6
CONTINUOUS
 62
     2
  5
5E5
 10
65.514083
 20
134.267917
 30
0.0
 11
65.514083
 21
147.267917
 31
0.0
  0
INSERT
  8
1
  6
CONTINUOUS
 62
     1
  5
5E6
  2
LDR
 10
65.514083
 20
137.267917
 30
0.0
 41
240.0
 42
240.0
 50
270.0
210
0.0
220
0.0
230
1.0
  0
LINE
  8
1
  6
CONTINUOUS
 62
     2
  5
5E7
 10
77.914083
 20
54.267917
 30
0.0
 11
64.514083
 21
54.267917
 31
0.0
  0
LINE
  8
1
  6
CONTINUOUS
 62
     2
  5
5E8
 10
65.514083
 20
134.267917
 30
0.0
 11
65.514083
 21
54.267917
 31
0.0
  0
INSERT
  8
1
  6
CONTINUOUS
 62
     1
  5
5E9
  2
LDR
 10
65.514083
 20
134.267917
 30
0.0
 41
240.0
 42
240.0
 50
90.0
210
0.0
220
0.0
230
1.0
  0
INSERT
  8
1
  6
CONTINUOUS
 62
     1
  5
5EA
  2
LDR
 10
65.514083
 20
54.267917
 30
0.0
 41
240.0
 42
240.0
 50
270.0
210
0.0
220
0.0
230
1.0
  0
LINE
  8
1
  6
CONTINUOUS
 62
     2
  5
5EB
 10
81.902583
 20
51.267917
 30
0.0
 11
64.514083
 21
51.267917
 31
0.0
  0
LINE
  8
1
  6
CONTINUOUS
 62
     2
  5
5EC
 10
87.902583
 20
51.267917
 30
0.0
 11
85.902583
 21
51.267917
 31
0.0
  0
LINE
  8
1
  6
CONTINUOUS
 62
     2
  5
5ED
 10
84.402583
 20
51.267917
 30
0.0
 11
83.402583
 21
51.267917
 31
0.0
  0
LINE
  8
1
  6
CONTINUOUS
 62
     2
  5
5EE
 10
65.514083
 20
54.267917
 30
0.0
 11
65.514083
 21
51.267917
 31
0.0
  0
LINE
  8
1
  6
CONTINUOUS
 62
     2
  5
5EF
 10
65.514083
 20
51.267917
 30
0.0
 11
65.514083
 21
41.267917
 31
0.0
  0
INSERT
  8
1
  6
CONTINUOUS
 62
     1
  5
5F0
  2
LDR
 10
65.514083
 20
51.267917
 30
0.0
 41
240.0
 42
240.0
 50
90.0
210
0.0
220
0.0
230
1.0
  0
LINE
  8
1
  6
CONTINUOUS
 62
     2
  5
5F1
 10
132.606083
 20
137.98725
 30
0.0
 11
140.952333
 21
145.573167
 31
0.0
  0
LINE
  8
1
  6
CONTINUOUS
 62
     2
  5
5F2
 10
140.952333
 20
145.573167
 30
0.0
 11
144.7145
 21
145.573167
 31
0.0
  0
INSERT
  8
1
  6
CONTINUOUS
 62
     1
  5
5F3
  2
LDR
 10
132.606083
 20
137.98725
 30
0.0
 41
239.999998
 42
239.999998
 50
222.267737
210
0.0
220
0.0
230
1.0
  0
LINE
  8
1
  6
CONTINUOUS
 62
     2
  5
5F4
 10
153.914083
 20
134.267917
 30
0.0
 11
138.914083
 21
134.267917
 31
0.0
  0
LINE
  8
1
  6
CONTINUOUS
 62
     2
  5
5F5
 10
133.414083
 20
121.767917
 30
0.0
 11
137.914083
 21
121.767917
 31
0.0
  0
LINE
  8
1
  6
CONTINUOUS
 62
     2
  5
5F6
 10
133.414083
 20
111.767917
 30
0.0
 11
137.914083
 21
111.767917
 31
0.0
  0
LINE
  8
1
  6
CONTINUOUS
 62
     2
  5
5F7
 10
133.414083
 20
119.267917
 30
0.0
 11
137.914083
 21
119.267917
 31
0.0
  0
LINE
  8
1
  6
CONTINUOUS
 62
     2
  5
5F8
 10
133.414083
 20
114.267917
 30
0.0
 11
137.914083
 21
114.267917
 31
0.0
  0
LINE
  8
1
  6
CONTINUOUS
 62
     2
  5
5F9
 10
153.914083
 20
116.767917
 30
0.0
 11
131.414083
 21
116.767917
 31
0.0
  0
CIRCLE
  8
1
  6
CONTINUOUS
 62
     2
  5
5FA
 10
135.66525
 20
116.767333
 30
0.0
 40
1.5
210
0.0
220
0.0
230
1.0
  0
CIRCLE
  8
1
  6
CONTINUOUS
 62
     2
  5
5FB
 10
135.66525
 20
116.767333
 30
0.0
 40
1.0
210
0.0
220
0.0
230
1.0
  0
LINE
  8
1
  6
CONTINUOUS
 62
     2
  5
5FC
 10
152.914083
 20
134.267917
 30
0.0
 11
152.914083
 21
116.767917
 31
0.0
  0
INSERT
  8
1
  6
CONTINUOUS
 62
     1
  5
5FD
  2
LDR
 10
152.914083
 20
134.267917
 30
0.0
 41
240.0
 42
240.0
 50
90.0
210
0.0
220
0.0
230
1.0
  0
INSERT
  8
1
  6
CONTINUOUS
 62
     1
  5
5FE
  2
LDR
 10
152.914083
 20
134.267917
 30
0.0
 41
240.0
 42
240.0
 50
90.0
210
0.0
220
0.0
230
1.0
  0
INSERT
  8
1
  6
CONTINUOUS
 62
     1
  5
5FF
  2
LDR
 10
152.914083
 20
116.767917
 30
0.0
 41
240.0
 42
240.0
 50
270.0
210
0.0
220
0.0
230
1.0
  0
INSERT
  8
1
  6
CONTINUOUS
 62
     1
  5
600
  2
LDR
 10
152.914083
 20
116.767917
 30
0.0
 41
240.0
 42
240.0
 50
270.0
210
0.0
220
0.0
230
1.0
  0
LINE
  8
1
  6
CONTINUOUS
 62
     2
  5
601
 10
133.414083
 20
97.017917
 30
0.0
 11
137.914083
 21
97.017917
 31
0.0
  0
LINE
  8
1
  6
CONTINUOUS
 62
     2
  5
602
 10
151.883833
 20
112.017917
 30
0.0
 11
146.883833
 21
112.017917
 31
0.0
  0
INSERT
  8
1
  6
CONTINUOUS
 62
     1
  5
603
  2
LDR
 10
146.883833
 20
112.017917
 30
0.0
 41
240.0
 42
240.0
 50
180.0
210
0.0
220
0.0
230
1.0
  0
LINE
  8
1
  6
CONTINUOUS
 62
     2
  5
604
 10
133.414083
 20
91.517917
 30
0.0
 11
137.914083
 21
91.517917
 31
0.0
  0
LINE
  8
1
  6
CONTINUOUS
 62
     2
  5
605
 10
135.664083
 20
96.017917
 30
0.0
 11
135.664083
 21
92.517917
 31
0.0
  0
LINE
  8
1
  6
CONTINUOUS
 62
     2
  5
606
 10
153.914083
 20
54.267917
 30
0.0
 11
138.914083
 21
54.267917
 31
0.0
  0
LINE
  8
1
  6
CONTINUOUS
 62
     2
  5
607
 10
133.414083
 20
66.767917
 30
0.0
 11
137.914083
 21
66.767917
 31
0.0
  0
LINE
  8
1
  6
CONTINUOUS
 62
     2
  5
608
 10
133.414083
 20
76.767917
 30
0.0
 11
137.914083
 21
76.767917
 31
0.0
  0
LINE
  8
1
  6
CONTINUOUS
 62
     2
  5
609
 10
133.414083
 20
69.267917
 30
0.0
 11
137.914083
 21
69.267917
 31
0.0
  0
LINE
  8
1
  6
CONTINUOUS
 62
     2
  5
60A
 10
133.414083
 20
74.267917
 30
0.0
 11
137.914083
 21
74.267917
 31
0.0
  0
LINE
  8
1
  6
CONTINUOUS
 62
     2
  5
60B
 10
153.914083
 20
71.767917
 30
0.0
 11
131.414083
 21
71.767917
 31
0.0
  0
CIRCLE
  8
1
  6
CONTINUOUS
 62
     2
  5
60C
 10
135.66525
 20
71.7685
 30
0.0
 40
1.5
210
0.0
220
0.0
230
1.0
  0
CIRCLE
  8
1
  6
CONTINUOUS
 62
     2
  5
60D
 10
135.66525
 20
71.7685
 30
0.0
 40
1.0
210
0.0
220
0.0
230
1.0
  0
LINE
  8
1
  6
CONTINUOUS
 62
     2
  5
60E
 10
152.914083
 20
54.267917
 30
0.0
 11
152.914083
 21
71.767917
 31
0.0
  0
INSERT
  8
1
  6
CONTINUOUS
 62
     1
  5
60F
  2
LDR
 10
152.914083
 20
54.267917
 30
0.0
 41
240.0
 42
-240.0
 50
270.0
210
0.0
220
0.0
230
1.0
  0
INSERT
  8
1
  6
CONTINUOUS
 62
     1
  5
610
  2
LDR
 10
152.914083
 20
54.267917
 30
0.0
 41
240.0
 42
-240.0
 50
270.0
210
0.0
220
0.0
230
1.0
  0
INSERT
  8
1
  6
CONTINUOUS
 62
     1
  5
611
  2
LDR
 10
152.914083
 20
71.767917
 30
0.0
 41
240.0
 42
-240.0
 50
90.0
210
0.0
220
0.0
230
1.0
  0
INSERT
  8
1
  6
CONTINUOUS
 62
     1
  5
612
  2
LDR
 10
152.914083
 20
71.767917
 30
0.0
 41
240.0
 42
-240.0
 50
90.0
210
0.0
220
0.0
230
1.0
  0
LINE
  8
1
  6
CONTINUOUS
 62
     2
  5
613
 10
137.902583
 20
48.27075
 30
0.0
 11
153.914083
 21
48.27075
 31
0.0
  0
LINE
  8
1
  6
CONTINUOUS
 62
     2
  5
614
 10
152.914083
 20
54.267917
 30
0.0
 11
152.914083
 21
48.27075
 31
0.0
  0
LINE
  8
1
  6
CONTINUOUS
 62
     2
  5
615
 10
152.914083
 20
48.27075
 30
0.0
 11
152.914083
 21
38.27075
 31
0.0
  0
INSERT
  8
1
  6
CONTINUOUS
 62
     1
  5
616
  2
LDR
 10
152.914083
 20
48.27075
 30
0.0
 41
240.0
 42
240.0
 50
90.0
210
0.0
220
0.0
230
1.0
  0
LINE
  8
1
  6
CONTINUOUS
 62
     2
  5
617
 10
82.902583
 20
47.27075
 30
0.0
 11
82.902583
 21
40.27075
 31
0.0
  0
LINE
  8
1
  6
CONTINUOUS
 62
     2
  5
618
 10
84.902583
 20
47.27075
 30
0.0
 11
84.902583
 21
40.27075
 31
0.0
  0
LINE
  8
1
  6
CONTINUOUS
 62
     2
  5
619
 10
72.902583
 20
41.27075
 30
0.0
 11
82.902583
 21
41.27075
 31
0.0
  0
LINE
  8
1
  6
CONTINUOUS
 62
     2
  5
61A
 10
82.902583
 20
41.27075
 30
0.0
 11
84.902583
 21
41.27075
 31
0.0
  0
LINE
  8
1
  6
CONTINUOUS
 62
     2
  5
61B
 10
84.902583
 20
41.27075
 30
0.0
 11
89.902583
 21
41.27075
 31
0.0
  0
INSERT
  8
1
  6
CONTINUOUS
 62
     1
  5
61C
  2
LDR
 10
82.902583
 20
41.27075
 30
0.0
 41
240.0
 42
240.0
210
0.0
220
0.0
230
1.0
  0
INSERT
  8
1
  6
CONTINUOUS
 62
     1
  5
61D
  2
LDR
 10
82.902583
 20
41.27075
 30
0.0
 41
240.0
 42
240.0
210
0.0
220
0.0
230
1.0
  0
INSERT
  8
1
  6
CONTINUOUS
 62
     1
  5
61E
  2
LDR
 10
84.902583
 20
41.27075
 30
0.0
 41
240.0
 42
240.0
 50
180.0
210
0.0
220
0.0
230
1.0
  0
INSERT
  8
1
  6
CONTINUOUS
 62
     1
  5
61F
  2
LDR
 10
84.902583
 20
41.27075
 30
0.0
 41
240.0
 42
240.0
 50
180.0
210
0.0
220
0.0
230
1.0
  0
CIRCLE
  8
1
  6
CONTINUOUS
 62
     2
  5
620
 10
90.415167
 20
127.5205
 30
0.0
 40
1.0
210
0.0
220
0.0
230
1.0
  0
CIRCLE
  8
1
  6
CONTINUOUS
 62
     2
  5
621
 10
125.4115
 20
127.519333
 30
0.0
 40
1.0
210
0.0
220
0.0
230
1.0
  0
CIRCLE
  8
1
  6
CONTINUOUS
 62
     2
  5
622
 10
90.413417
 20
61.01575
 30
0.0
 40
1.0
210
0.0
220
0.0
230
1.0
  0
CIRCLE
  8
1
  6
CONTINUOUS
 62
     2
  5
623
 10
125.416667
 20
61.018583
 30
0.0
 40
1.0
210
0.0
220
0.0
230
1.0
  0
LINE
  8
1
  6
CONTINUOUS
 62
     2
  5
624
 10
59.017917
 20
88.447417
 30
0.0
 11
54.02275
 21
88.447417
 31
0.0
  0
LINE
  8
1
  6
CONTINUOUS
 62
     2
  5
625
 10
164.387667
 20
88.447417
 30
0.0
 11
169.379583
 21
88.447417
 31
0.0
  0
LINE
  8
1
  6
CONTINUOUS
 62
     2
  5
626
 10
51.517917
 20
90.958917
 30
0.0
 11
51.517917
 21
95.447417
 31
0.0
  0
LINE
  8
1
  6
CONTINUOUS
 62
     2
  5
627
 10
171.887667
 20
90.9415
 30
0.0
 11
171.887667
 21
95.447417
 31
0.0
  0
CIRCLE
  8
1
  6
CONTINUOUS
 62
     2
  5
628
 10
51.52275
 20
88.458917
 30
0.0
 40
2.5
210
0.0
220
0.0
230
1.0
  0
CIRCLE
  8
1
  6
CONTINUOUS
 62
     2
  5
629
 10
171.879583
 20
88.4415
 30
0.0
 40
2.5
210
0.0
220
0.0
230
1.0
  0
INSERT
  8
1
  6
CONTINUOUS
 62
     1
  5
62A
  2
LDR
 10
51.517917
 20
95.447417
 30
0.0
 41
240.0
 42
240.0
 50
90.0
210
0.0
220
0.0
230
1.0
  0
INSERT
  8
1
  6
CONTINUOUS
 62
     1
  5
62B
  2
LDR
 10
171.887667
 20
95.447417
 30
0.0
 41
240.0
 42
240.0
 50
90.0
210
0.0
220
0.0
230
1.0
  0
TEXT
  8
1
  6
CONTINUOUS
 62
     7
  5
62C
 10
86.893667
 20
150.516
 30
0.0
 40
2.5
  1
1  1/4 "
  7
MONOTXT
210
0.0
220
0.0
230
1.0
  0
TEXT
  8
1
  6
CONTINUOUS
 62
     7
  5
62D
 10
120.1095
 20
150.037917
 30
0.0
 40
2.5
  1
2"
  7
MONOTXT
210
0.0
220
0.0
230
1.0
  0
TEXT
  8
1
  6
CONTINUOUS
 62
     7
  5
62E
 10
145.559
 20
144.6595
 30
0.0
 40
2.5
  1
 7/16 "
  7
MONOTXT
210
0.0
220
0.0
230
1.0
  0
TEXT
  8
1
  6
CONTINUOUS
 62
     7
  5
62F
 10
153.205833
 20
110.845167
 30
0.0
 40
2.5
  1
1  1/2 " GASKETED
  7
MONOTXT
 11
153.205833
 21
113.345167
 31
0.0
210
0.0
220
0.0
230
1.0
 73
     3
  0
TEXT
  8
1
  6
CONTINUOUS
 62
     7
  5
630
 10
153.205833
 20
106.345167
 30
0.0
 40
2.5
  1
CONDUIT HUB
  7
MONOTXT
 11
153.205833
 21
108.845167
 31
0.0
210
0.0
220
0.0
230
1.0
 73
     3
  0
TEXT
  8
1
  6
CONTINUOUS
 62
     7
  5
631
 10
153.205833
 20
101.845167
 30
0.0
 40
2.5
  1
(AS REQ'D.)
  7
MONOTXT
 11
153.205833
 21
104.345167
 31
0.0
210
0.0
220
0.0
230
1.0
 73
     3
  0
TEXT
  8
1
  6
CONTINUOUS
 62
     7
  5
632
 10
74.348083
 20
42.82825
 30
0.0
 40
2.5
  1
 7/16 "
  7
MONOTXT
210
0.0
220
0.0
230
1.0
  0
TEXT
  8
1
  6
CONTINUOUS
 62
     7
  5
633
 10
64.2545
 20
42.87
 30
0.0
 40
2.5
  1
 5/8 "
 50
90.0
  7
MONOTXT
210
0.0
220
0.0
230
1.0
  0
TEXT
  8
1
  6
CONTINUOUS
 62
     7
  5
634
 10
64.6295
 20
90.165917
 30
0.0
 40
2.5
  1
1'-4"
 50
90.0
  7
MONOTXT
210
0.0
220
0.0
230
1.0
  0
TEXT
  8
1
  6
CONTINUOUS
 62
     7
  5
635
 10
64.208667
 20
141.520333
 30
0.0
 40
2.5
  1
 5/8 "
 50
90.0
  7
MONOTXT
210
0.0
220
0.0
230
1.0
  0
TEXT
  8
1
  6
CONTINUOUS
 62
     7
  5
636
 10
151.314417
 20
38.390667
 30
0.0
 40
2.5
  1
1  1/4 "
 50
90.0
  7
MONOTXT
210
0.0
220
0.0
230
1.0
  0
TEXT
  8
1
  6
CONTINUOUS
 62
     7
  5
637
 10
151.594917
 20
58.034417
 30
0.0
 40
2.5
  1
3  3/8 "
 50
90.0
  7
MONOTXT
210
0.0
220
0.0
230
1.0
  0
TEXT
  8
1
  6
CONTINUOUS
 62
     7
  5
638
 10
151.314417
 20
120.0525
 30
0.0
 40
2.5
  1
3  3/8 "
 50
90.0
  7
MONOTXT
210
0.0
220
0.0
230
1.0
  0
TEXT
  8
1
  6
CONTINUOUS
 62
     7
  5
639
 10
50.743083
 20
87.219417
 30
0.0
 40
2.5
  1
B
  7
MONOTXT
210
0.0
220
0.0
230
1.0
  0
TEXT
  8
1
  6
CONTINUOUS
 62
     7
  5
63A
 10
171.23225
 20
87.219417
 30
0.0
 40
2.5
  1
B
  7
MONOTXT
210
0.0
220
0.0
230
1.0
  0
LINE
  8
1
  6
CONTINUOUS
 62
     7
  5
63B
 10
89.888333
 20
24.530167
 30
0.0
 11
127.889833
 21
24.530167
 31
0.0
  0
TEXT
  8
1
  6
CONTINUOUS
 62
     7
  5
63C
 10
92.53275
 20
26.4915
 30
0.0
 40
3.5
  1
FRONT VIEW
  7
MONOTXT
210
0.0
220
0.0
230
1.0
  0
LINE
  8
1
  6
CONTINUOUS
 62
     2
  5
63D
 10
303.981167
 20
52.57725
 30
0.0
 11
273.981167
 21
52.57725
 31
0.0
  0
LINE
  8
1
  6
CONTINUOUS
 62
     2
  5
63E
 10
303.981167
 20
138.57725
 30
0.0
 11
304.981167
 21
138.57725
 31
0.0
  0
LINE
  8
1
  6
CONTINUOUS
 62
     2
  5
63F
 10
304.981167
 20
138.57725
 30
0.0
 11
304.981167
 21
128.57725
 31
0.0
  0
LINE
  8
1
  6
CONTINUOUS
 62
     2
  5
640
 10
304.981167
 20
128.57725
 30
0.0
 11
303.981167
 21
128.57725
 31
0.0
  0
LINE
  8
1
  6
CONTINUOUS
 62
     2
  5
641
 10
283.981167
 20
133.32725
 30
0.0
 11
303.981167
 21
133.32725
 31
0.0
  0
LINE
  8
1
  6
CONTINUOUS
 62
     2
  5
642
 10
283.981167
 20
133.32725
 30
0.0
 11
283.981167
 21
132.57725
 31
0.0
  0
LINE
  8
1
  6
CONTINUOUS
 62
     2
  5
643
 10
284.981167
 20
133.32725
 30
0.0
 11
284.981167
 21
133.82725
 31
0.0
  0
LINE
  8
1
  6
CONTINUOUS
 62
     2
  5
644
 10
302.481167
 20
133.32725
 30
0.0
 11
302.481167
 21
133.82725
 31
0.0
  0
LINE
  8
1
  6
CONTINUOUS
 62
     2
  5
645
 10
302.481167
 20
133.82725
 30
0.0
 11
301.231167
 21
133.82725
 31
0.0
  0
LINE
  8
1
  6
CONTINUOUS
 62
     2
  5
646
 10
301.231167
 20
133.82725
 30
0.0
 11
301.231167
 21
133.32725
 31
0.0
  0
LINE
  8
1
  6
CONTINUOUS
 62
     2
  5
647
 10
284.981167
 20
133.82725
 30
0.0
 11
286.231167
 21
133.82725
 31
0.0
  0
LINE
  8
1
  6
CONTINUOUS
 62
     2
  5
648
 10
286.231167
 20
133.82725
 30
0.0
 11
286.231167
 21
133.32725
 31
0.0
  0
LINE
  8
1
  6
CONTINUOUS
 62
     2
  5
649
 10
286.981167
 20
133.32725
 30
0.0
 11
286.981167
 21
139.32725
 31
0.0
  0
LINE
  8
1
  6
CONTINUOUS
 62
     2
  5
64A
 10
286.981167
 20
139.32725
 30
0.0
 11
294.481167
 21
139.32725
 31
0.0
  0
LINE
  8
1
  6
CONTINUOUS
 62
     2
  5
64B
 10
294.481167
 20
139.32725
 30
0.0
 11
294.481167
 21
133.32725
 31
0.0
  0
LINE
  8
1
  6
CONTINUOUS
 62
     2
  5
64C
 10
266.981167
 20
132.57725
 30
0.0
 11
273.981167
 21
132.57725
 31
0.0
  0
LINE
  8
1
  6
CONTINUOUS
 62
     2
  5
64D
 10
266.981167
 20
132.57725
 30
0.0
 11
266.981167
 21
128.57725
 31
0.0
  0
LINE
  8
1
  6
CONTINUOUS
 62
     2
  5
64E
 10
266.981167
 20
127.57725
 30
0.0
 11
272.981167
 21
127.57725
 31
0.0
  0
LINE
  8
1
  6
CONTINUOUS
 62
     2
  5
64F
 10
266.981167
 20
56.57725
 30
0.0
 11
272.981167
 21
56.57725
 31
0.0
  0
LINE
  8
1
  6
CONTINUOUS
 62
     2
  5
650
 10
266.981167
 20
127.57725
 30
0.0
 11
266.981167
 21
56.57725
 31
0.0
  0
LINE
  8
1
  6
CONTINUOUS
 62
     2
  5
651
 10
272.981167
 20
126.32725
 30
0.0
 11
273.981167
 21
126.32725
 31
0.0
  0
LINE
  8
1
  6
CONTINUOUS
 62
     2
  5
652
 10
272.981167
 20
57.82725
 30
0.0
 11
273.981167
 21
57.82725
 31
0.0
  0
LINE
  8
1
  6
CONTINUOUS
 62
     2
  5
653
 10
270.731167
 20
116.57725
 30
0.0
 11
271.731167
 21
116.57725
 31
0.0
  0
LINE
  8
1
  6
CONTINUOUS
 62
     2
  5
654
 10
270.731167
 20
113.57725
 30
0.0
 11
271.731167
 21
113.57725
 31
0.0
  0
LINE
  8
1
  6
CONTINUOUS
 62
     2
  5
655
 10
270.731167
 20
67.57725
 30
0.0
 11
271.731167
 21
67.57725
 31
0.0
  0
LINE
  8
1
  6
CONTINUOUS
 62
     2
  5
656
 10
270.731167
 20
70.57725
 30
0.0
 11
271.731167
 21
70.57725
 31
0.0
  0
LINE
  8
1
  6
CONTINUOUS
 62
     2
  5
657
 10
270.731167
 20
70.57725
 30
0.0
 11
270.731167
 21
67.57725
 31
0.0
  0
LINE
  8
1
  6
CONTINUOUS
 62
     2
  5
658
 10
271.731167
 20
71.07725
 30
0.0
 11
271.731167
 21
67.07725
 31
0.0
  0
LINE
  8
1
  6
CONTINUOUS
 62
     2
  5
659
 10
270.731167
 20
113.57725
 30
0.0
 11
270.731167
 21
116.57725
 31
0.0
  0
LINE
  8
1
  6
CONTINUOUS
 62
     2
  5
65A
 10
271.731167
 20
117.07725
 30
0.0
 11
271.731167
 21
113.07725
 31
0.0
  0
LINE
  8
1
  6
CONTINUOUS
 62
     2
  5
65B
 10
271.731167
 20
94.57725
 30
0.0
 11
271.731167
 21
89.57725
 31
0.0
  0
LINE
  8
1
  6
CONTINUOUS
 62
     2
  5
65C
 10
271.731167
 20
94.57725
 30
0.0
 11
272.981167
 21
94.57725
 31
0.0
  0
LINE
  8
1
  6
CONTINUOUS
 62
     2
  5
65D
 10
271.731167
 20
89.57725
 30
0.0
 11
272.981167
 21
89.57725
 31
0.0
  0
LINE
  8
1
  6
CONTINUOUS
 62
     2
  5
65E
 10
270.231167
 20
93.32725
 30
0.0
 11
271.731167
 21
93.32725
 31
0.0
  0
LINE
  8
1
  6
CONTINUOUS
 62
     2
  5
65F
 10
270.231167
 20
90.82725
 30
0.0
 11
271.731167
 21
90.82725
 31
0.0
  0
ARC
  8
1
  6
CONTINUOUS
 62
     2
  5
660
 10
270.208279
 20
92.07725
 30
0.0
 40
1.25021
 50
88.951042
 51
271.048964
210
0.0
220
0.0
230
1.0
  0
LINE
  8
1
  6
CONTINUOUS
 62
     2
  5
661
 10
270.731167
 20
92.70225
 30
0.0
 11
270.731167
 21
91.45225
 31
0.0
  0
ARC
  8
1
  6
CONTINUOUS
 62
     2
  5
662
 10
270.351018
 20
92.07725
 30
0.0
 40
0.628103
 50
52.754356
 51
307.245644
210
0.0
220
0.0
230
1.0
  0
LINE
  8
1
  6
CONTINUOUS
 62
     2
  5
663
 10
272.981167
 20
128.57725
 30
0.0
 11
272.981167
 21
117.07725
 31
0.0
  0
LINE
  8
1
  6
CONTINUOUS
 62
     2
  5
664
 10
271.731167
 20
117.07725
 30
0.0
 11
272.981167
 21
117.07725
 31
0.0
  0
POLYLINE
  8
1
  6
CONTINUOUS
 62
     2
  5
665
 66
     1
 10
0.0
 20
0.0
 30
0.0
 70
     1
  0
VERTEX
  8
1
  6
CONTINUOUS
 62
     2
  5
666
 10
272.981167
 20
118.57725
 30
0.0
  0
VERTEX
  8
1
  6
CONTINUOUS
 62
     2
  5
667
 10
272.981167
 20
119.57725
 30
0.0
  0
VERTEX
  8
1
  6
CONTINUOUS
 62
     2
  5
668
 10
273.981167
 20
119.57725
 30
0.0
  0
VERTEX
  8
1
  6
CONTINUOUS
 62
     2
  5
669
 10
273.981167
 20
118.57725
 30
0.0
  0
VERTEX
  8
1
  6
CONTINUOUS
 62
     2
  5
66A
 10
272.981167
 20
118.57725
 30
0.0
  0
SEQEND
  8
1
  6
CONTINUOUS
 62
     2
  5
66B
  0
POLYLINE
  8
1
  6
CONTINUOUS
 62
     2
  5
66C
 66
     1
 10
0.0
 20
0.0
 30
0.0
 70
     1
  0
VERTEX
  8
1
  6
CONTINUOUS
 62
     2
  5
66D
 10
272.481167
 20
117.07725
 30
0.0
  0
VERTEX
  8
1
  6
CONTINUOUS
 62
     2
  5
66E
 10
272.481167
 20
118.57725
 30
0.0
  0
VERTEX
  8
1
  6
CONTINUOUS
 62
     2
  5
66F
 10
272.981167
 20
118.57725
 30
0.0
  0
VERTEX
  8
1
  6
CONTINUOUS
 62
     2
  5
670
 10
272.981167
 20
117.07725
 30
0.0
  0
VERTEX
  8
1
  6
CONTINUOUS
 62
     2
  5
671
 10
272.481167
 20
117.07725
 30
0.0
  0
SEQEND
  8
1
  6
CONTINUOUS
 62
     2
  5
672
  0
LINE
  8
1
  6
CONTINUOUS
 62
     2
  5
673
 10
272.981167
 20
117.07725
 30
0.0
 11
272.981167
 21
114.32725
 31
0.0
  0
LINE
  8
1
  6
CONTINUOUS
 62
     2
  5
674
 10
273.981167
 20
118.57725
 30
0.0
 11
273.981167
 21
114.32725
 31
0.0
  0
POLYLINE
  8
1
  6
CONTINUOUS
 62
     2
  5
675
 66
     1
 10
0.0
 20
0.0
 30
0.0
 70
     1
  0
VERTEX
  8
1
  6
CONTINUOUS
 62
     2
  5
676
 10
272.981167
 20
115.82725
 30
0.0
  0
VERTEX
  8
1
  6
CONTINUOUS
 62
     2
  5
677
 10
273.981167
 20
115.82725
 30
0.0
  0
VERTEX
  8
1
  6
CONTINUOUS
 62
     2
  5
678
 10
273.981167
 20
114.32725
 30
0.0
  0
VERTEX
  8
1
  6
CONTINUOUS
 62
     2
  5
679
 10
272.981167
 20
114.32725
 30
0.0
  0
VERTEX
  8
1
  6
CONTINUOUS
 62
     2
  5
67A
 10
272.981167
 20
115.82725
 30
0.0
  0
SEQEND
  8
1
  6
CONTINUOUS
 62
     2
  5
67B
  0
LINE
  8
1
  6
CONTINUOUS
 62
     2
  5
67C
 10
272.981167
 20
114.32725
 30
0.0
 11
272.981167
 21
113.07725
 31
0.0
  0
LINE
  8
1
  6
CONTINUOUS
 62
     2
  5
67D
 10
273.981167
 20
114.32725
 30
0.0
 11
273.981167
 21
110.07725
 31
0.0
  0
LINE
  8
1
  6
CONTINUOUS
 62
     2
  5
67E
 10
271.731167
 20
113.07725
 30
0.0
 11
272.981167
 21
113.07725
 31
0.0
  0
POLYLINE
  8
1
  6
CONTINUOUS
 62
     2
  5
67F
 66
     1
 10
0.0
 20
0.0
 30
0.0
 70
     1
  0
VERTEX
  8
1
  6
CONTINUOUS
 62
     2
  5
680
 10
272.481167
 20
111.57725
 30
0.0
  0
VERTEX
  8
1
  6
CONTINUOUS
 62
     2
  5
681
 10
272.481167
 20
113.07725
 30
0.0
  0
VERTEX
  8
1
  6
CONTINUOUS
 62
     2
  5
682
 10
272.981167
 20
113.07725
 30
0.0
  0
VERTEX
  8
1
  6
CONTINUOUS
 62
     2
  5
683
 10
272.981167
 20
111.57725
 30
0.0
  0
VERTEX
  8
1
  6
CONTINUOUS
 62
     2
  5
684
 10
272.481167
 20
111.57725
 30
0.0
  0
SEQEND
  8
1
  6
CONTINUOUS
 62
     2
  5
685
  0
POLYLINE
  8
1
  6
CONTINUOUS
 62
     2
  5
686
 66
     1
 10
0.0
 20
0.0
 30
0.0
 70
     1
  0
VERTEX
  8
1
  6
CONTINUOUS
 62
     2
  5
687
 10
272.981167
 20
111.57725
 30
0.0
  0
VERTEX
  8
1
  6
CONTINUOUS
 62
     2
  5
688
 10
273.981167
 20
111.57725
 30
0.0
  0
VERTEX
  8
1
  6
CONTINUOUS
 62
     2
  5
689
 10
273.981167
 20
110.07725
 30
0.0
  0
VERTEX
  8
1
  6
CONTINUOUS
 62
     2
  5
68A
 10
272.981167
 20
110.07725
 30
0.0
  0
VERTEX
  8
1
  6
CONTINUOUS
 62
     2
  5
68B
 10
272.981167
 20
111.57725
 30
0.0
  0
SEQEND
  8
1
  6
CONTINUOUS
 62
     2
  5
68C
  0
LINE
  8
1
  6
CONTINUOUS
 62
     2
  5
68D
 10
271.731167
 20
71.07725
 30
0.0
 11
272.981167
 21
71.07725
 31
0.0
  0
LINE
  8
1
  6
CONTINUOUS
 62
     2
  5
68E
 10
272.981167
 20
113.07725
 30
0.0
 11
272.981167
 21
71.07725
 31
0.0
  0
POLYLINE
  8
1
  6
CONTINUOUS
 62
     2
  5
68F
 66
     1
 10
0.0
 20
0.0
 30
0.0
 70
     1
  0
VERTEX
  8
1
  6
CONTINUOUS
 62
     2
  5
690
 10
272.981167
 20
71.07725
 30
0.0
  0
VERTEX
  8
1
  6
CONTINUOUS
 62
     2
  5
691
 10
272.481167
 20
71.07725
 30
0.0
  0
VERTEX
  8
1
  6
CONTINUOUS
 62
     2
  5
692
 10
272.481167
 20
72.57725
 30
0.0
  0
VERTEX
  8
1
  6
CONTINUOUS
 62
     2
  5
693
 10
272.981167
 20
72.57725
 30
0.0
  0
VERTEX
  8
1
  6
CONTINUOUS
 62
     2
  5
694
 10
272.981167
 20
71.07725
 30
0.0
  0
SEQEND
  8
1
  6
CONTINUOUS
 62
     2
  5
695
  0
POLYLINE
  8
1
  6
CONTINUOUS
 62
     2
  5
696
 66
     1
 10
0.0
 20
0.0
 30
0.0
 70
     1
  0
VERTEX
  8
1
  6
CONTINUOUS
 62
     2
  5
697
 10
272.981167
 20
72.57725
 30
0.0
  0
VERTEX
  8
1
  6
CONTINUOUS
 62
     2
  5
698
 10
272.981167
 20
73.57725
 30
0.0
  0
VERTEX
  8
1
  6
CONTINUOUS
 62
     2
  5
699
 10
273.981167
 20
73.57725
 30
0.0
  0
VERTEX
  8
1
  6
CONTINUOUS
 62
     2
  5
69A
 10
273.981167
 20
72.57725
 30
0.0
  0
VERTEX
  8
1
  6
CONTINUOUS
 62
     2
  5
69B
 10
272.981167
 20
72.57725
 30
0.0
  0
SEQEND
  8
1
  6
CONTINUOUS
 62
     2
  5
69C
  0
LINE
  8
1
  6
CONTINUOUS
 62
     2
  5
69D
 10
272.981167
 20
71.07725
 30
0.0
 11
272.981167
 21
68.32725
 31
0.0
  0
LINE
  8
1
  6
CONTINUOUS
 62
     2
  5
69E
 10
273.981167
 20
72.57725
 30
0.0
 11
273.981167
 21
68.32725
 31
0.0
  0
POLYLINE
  8
1
  6
CONTINUOUS
 62
     2
  5
69F
 66
     1
 10
0.0
 20
0.0
 30
0.0
 70
     1
  0
VERTEX
  8
1
  6
CONTINUOUS
 62
     2
  5
6A0
 10
272.981167
 20
68.32725
 30
0.0
  0
VERTEX
  8
1
  6
CONTINUOUS
 62
     2
  5
6A1
 10
272.981167
 20
69.82725
 30
0.0
  0
VERTEX
  8
1
  6
CONTINUOUS
 62
     2
  5
6A2
 10
273.981167
 20
69.82725
 30
0.0
  0
VERTEX
  8
1
  6
CONTINUOUS
 62
     2
  5
6A3
 10
273.981167
 20
68.32725
 30
0.0
  0
VERTEX
  8
1
  6
CONTINUOUS
 62
     2
  5
6A4
 10
272.981167
 20
68.32725
 30
0.0
  0
SEQEND
  8
1
  6
CONTINUOUS
 62
     2
  5
6A5
  0
LINE
  8
1
  6
CONTINUOUS
 62
     2
  5
6A6
 10
271.731167
 20
67.07725
 30
0.0
 11
272.981167
 21
67.07725
 31
0.0
  0
LINE
  8
1
  6
CONTINUOUS
 62
     2
  5
6A7
 10
272.981167
 20
68.32725
 30
0.0
 11
272.981167
 21
67.07725
 31
0.0
  0
LINE
  8
1
  6
CONTINUOUS
 62
     2
  5
6A8
 10
272.981167
 20
67.07725
 30
0.0
 11
272.981167
 21
55.57725
 31
0.0
  0
LINE
  8
1
  6
CONTINUOUS
 62
     2
  5
6A9
 10
273.981167
 20
68.32725
 30
0.0
 11
273.981167
 21
64.07725
 31
0.0
  0
POLYLINE
  8
1
  6
CONTINUOUS
 62
     2
  5
6AA
 66
     1
 10
0.0
 20
0.0
 30
0.0
 70
     1
  0
VERTEX
  8
1
  6
CONTINUOUS
 62
     2
  5
6AB
 10
272.481167
 20
65.57725
 30
0.0
  0
VERTEX
  8
1
  6
CONTINUOUS
 62
     2
  5
6AC
 10
272.481167
 20
67.07725
 30
0.0
  0
VERTEX
  8
1
  6
CONTINUOUS
 62
     2
  5
6AD
 10
272.981167
 20
67.07725
 30
0.0
  0
VERTEX
  8
1
  6
CONTINUOUS
 62
     2
  5
6AE
 10
272.981167
 20
65.57725
 30
0.0
  0
VERTEX
  8
1
  6
CONTINUOUS
 62
     2
  5
6AF
 10
272.481167
 20
65.57725
 30
0.0
  0
SEQEND
  8
1
  6
CONTINUOUS
 62
     2
  5
6B0
  0
POLYLINE
  8
1
  6
CONTINUOUS
 62
     2
  5
6B1
 66
     1
 10
0.0
 20
0.0
 30
0.0
 70
     1
  0
VERTEX
  8
1
  6
CONTINUOUS
 62
     2
  5
6B2
 10
272.981167
 20
65.57725
 30
0.0
  0
VERTEX
  8
1
  6
CONTINUOUS
 62
     2
  5
6B3
 10
273.981167
 20
65.57725
 30
0.0
  0
VERTEX
  8
1
  6
CONTINUOUS
 62
     2
  5
6B4
 10
273.981167
 20
64.07725
 30
0.0
  0
VERTEX
  8
1
  6
CONTINUOUS
 62
     2
  5
6B5
 10
272.981167
 20
64.07725
 30
0.0
  0
VERTEX
  8
1
  6
CONTINUOUS
 62
     2
  5
6B6
 10
272.981167
 20
65.57725
 30
0.0
  0
SEQEND
  8
1
  6
CONTINUOUS
 62
     2
  5
6B7
  0
LINE
  8
1
  6
CONTINUOUS
 62
     2
  5
6B8
 10
273.981167
 20
132.57725
 30
0.0
 11
273.981167
 21
52.57725
 31
0.0
  0
LINE
  8
1
  6
CONTINUOUS
 62
     2
  5
6B9
 10
289.157917
 20
90.818417
 30
0.0
 11
303.907917
 21
90.818417
 31
0.0
  0
LINE
  8
1
  6
CONTINUOUS
 62
     2
  5
6BA
 10
286.981167
 20
45.82725
 30
0.0
 11
294.481167
 21
45.82725
 31
0.0
  0
LINE
  8
1
  6
CONTINUOUS
 62
     2
  5
6BB
 10
303.981167
 20
46.57725
 30
0.0
 11
304.981167
 21
46.57725
 31
0.0
  0
LINE
  8
1
  6
CONTINUOUS
 62
     2
  5
6BC
 10
304.981167
 20
46.57725
 30
0.0
 11
304.981167
 21
56.57725
 31
0.0
  0
LINE
  8
1
  6
CONTINUOUS
 62
     2
  5
6BD
 10
304.981167
 20
56.57725
 30
0.0
 11
303.981167
 21
56.57725
 31
0.0
  0
LINE
  8
1
  6
CONTINUOUS
 62
     2
  5
6BE
 10
283.981167
 20
51.82725
 30
0.0
 11
303.981167
 21
51.82725
 31
0.0
  0
LINE
  8
1
  6
CONTINUOUS
 62
     2
  5
6BF
 10
283.981167
 20
51.82725
 30
0.0
 11
283.981167
 21
52.57725
 31
0.0
  0
LINE
  8
1
  6
CONTINUOUS
 62
     2
  5
6C0
 10
284.981167
 20
51.82725
 30
0.0
 11
284.981167
 21
51.32725
 31
0.0
  0
LINE
  8
1
  6
CONTINUOUS
 62
     2
  5
6C1
 10
302.481167
 20
51.82725
 30
0.0
 11
302.481167
 21
51.32725
 31
0.0
  0
LINE
  8
1
  6
CONTINUOUS
 62
     2
  5
6C2
 10
302.481167
 20
51.32725
 30
0.0
 11
301.231167
 21
51.32725
 31
0.0
  0
LINE
  8
1
  6
CONTINUOUS
 62
     2
  5
6C3
 10
301.231167
 20
51.32725
 30
0.0
 11
301.231167
 21
51.82725
 31
0.0
  0
LINE
  8
1
  6
CONTINUOUS
 62
     2
  5
6C4
 10
284.981167
 20
51.32725
 30
0.0
 11
286.231167
 21
51.32725
 31
0.0
  0
LINE
  8
1
  6
CONTINUOUS
 62
     2
  5
6C5
 10
286.231167
 20
51.32725
 30
0.0
 11
286.231167
 21
51.82725
 31
0.0
  0
LINE
  8
1
  6
CONTINUOUS
 62
     2
  5
6C6
 10
286.981167
 20
51.82725
 30
0.0
 11
286.981167
 21
45.82725
 31
0.0
  0
LINE
  8
1
  6
CONTINUOUS
 62
     2
  5
6C7
 10
294.481167
 20
45.82725
 30
0.0
 11
294.481167
 21
51.82725
 31
0.0
  0
LINE
  8
1
  6
CONTINUOUS
 62
     2
  5
6C8
 10
299.481167
 20
124.07725
 30
0.0
 11
299.481167
 21
120.57725
 31
0.0
  0
LINE
  8
1
  6
CONTINUOUS
 62
     2
  5
6C9
 10
299.481167
 20
124.07725
 30
0.0
 11
300.231167
 21
123.57725
 31
0.0
  0
LINE
  8
1
  6
CONTINUOUS
 62
     2
  5
6CA
 10
299.481167
 20
120.57725
 30
0.0
 11
300.231167
 21
121.07725
 31
0.0
  0
LINE
  8
1
  6
CONTINUOUS
 62
     2
  5
6CB
 10
298.981167
 20
124.07725
 30
0.0
 11
298.981167
 21
120.57725
 31
0.0
  0
LINE
  8
1
  6
CONTINUOUS
 62
     2
  5
6CC
 10
298.481167
 20
124.07725
 30
0.0
 11
298.481167
 21
120.57725
 31
0.0
  0
LINE
  8
1
  6
CONTINUOUS
 62
     2
  5
6CD
 10
298.481167
 20
120.57725
 30
0.0
 11
299.481167
 21
120.57725
 31
0.0
  0
LINE
  8
1
  6
CONTINUOUS
 62
     2
  5
6CE
 10
296.481167
 20
121.07725
 30
0.0
 11
298.481167
 21
121.07725
 31
0.0
  0
LINE
  8
1
  6
CONTINUOUS
 62
     2
  5
6CF
 10
296.481167
 20
123.57725
 30
0.0
 11
298.481167
 21
123.57725
 31
0.0
  0
LINE
  8
1
  6
CONTINUOUS
 62
     2
  5
6D0
 10
296.481167
 20
123.57725
 30
0.0
 11
296.481167
 21
121.07725
 31
0.0
  0
LINE
  8
1
  6
CONTINUOUS
 62
     2
  5
6D1
 10
295.231167
 20
123.07725
 30
0.0
 11
298.481167
 21
123.07725
 31
0.0
  0
LINE
  8
1
  6
CONTINUOUS
 62
     2
  5
6D2
 10
295.231167
 20
121.57725
 30
0.0
 11
298.481167
 21
121.57725
 31
0.0
  0
LINE
  8
1
  6
CONTINUOUS
 62
     2
  5
6D3
 10
295.231167
 20
123.07725
 30
0.0
 11
295.231167
 21
121.57725
 31
0.0
  0
LINE
  8
1
  6
CONTINUOUS
 62
     2
  5
6D4
 10
294.731167
 20
122.82725
 30
0.0
 11
294.731167
 21
121.82725
 31
0.0
  0
LINE
  8
1
  6
CONTINUOUS
 62
     2
  5
6D5
 10
294.731167
 20
122.82725
 30
0.0
 11
295.231167
 21
123.07725
 31
0.0
  0
LINE
  8
1
  6
CONTINUOUS
 62
     2
  5
6D6
 10
294.731167
 20
121.82725
 30
0.0
 11
295.231167
 21
121.57725
 31
0.0
  0
LINE
  8
1
  6
CONTINUOUS
 62
     2
  5
6D7
 10
296.231167
 20
123.07725
 30
0.0
 11
296.231167
 21
121.57725
 31
0.0
  0
LINE
  8
1
  6
CONTINUOUS
 62
     2
  5
6D8
 10
295.731167
 20
122.70225
 30
0.0
 11
295.731167
 21
121.95225
 31
0.0
  0
LINE
  8
1
  6
CONTINUOUS
 62
     2
  5
6D9
 10
303.981167
 20
138.57725
 30
0.0
 11
303.981167
 21
124.57725
 31
0.0
  0
LINE
  8
1
  6
CONTINUOUS
 62
     2
  5
6DA
 10
303.981167
 20
119.07725
 30
0.0
 11
303.981167
 21
46.57725
 31
0.0
  0
LINE
  8
1
  6
CONTINUOUS
 62
     2
  5
6DB
 10
302.981167
 20
123.57725
 30
0.0
 11
300.231167
 21
123.57725
 31
0.0
  0
POLYLINE
  8
1
  6
CONTINUOUS
 62
     2
  5
6DC
 66
     1
 10
0.0
 20
0.0
 30
0.0
 70
     1
  0
VERTEX
  8
1
  6
CONTINUOUS
 62
     2
  5
6DD
 10
302.981167
 20
123.57725
 30
0.0
  0
VERTEX
  8
1
  6
CONTINUOUS
 62
     2
  5
6DE
 10
301.981167
 20
123.57725
 30
0.0
  0
VERTEX
  8
1
  6
CONTINUOUS
 62
     2
  5
6DF
 10
302.981167
 20
124.57725
 30
0.0
  0
VERTEX
  8
1
  6
CONTINUOUS
 62
     2
  5
6E0
 10
302.981167
 20
123.57725
 30
0.0
  0
SEQEND
  8
1
  6
CONTINUOUS
 62
     2
  5
6E1
  0
POLYLINE
  8
1
  6
CONTINUOUS
 62
     2
  5
6E2
 66
     1
 10
0.0
 20
0.0
 30
0.0
 70
     1
  0
VERTEX
  8
1
  6
CONTINUOUS
 62
     2
  5
6E3
 10
303.981167
 20
124.57725
 30
0.0
  0
VERTEX
  8
1
  6
CONTINUOUS
 62
     2
  5
6E4
 10
302.981167
 20
124.57725
 30
0.0
  0
VERTEX
  8
1
  6
CONTINUOUS
 62
     2
  5
6E5
 10
303.981167
 20
125.57725
 30
0.0
  0
VERTEX
  8
1
  6
CONTINUOUS
 62
     2
  5
6E6
 10
303.981167
 20
124.57725
 30
0.0
  0
SEQEND
  8
1
  6
CONTINUOUS
 62
     2
  5
6E7
  0
LINE
  8
1
  6
CONTINUOUS
 62
     2
  5
6E8
 10
301.981167
 20
123.57725
 30
0.0
 11
303.981167
 21
125.57725
 31
0.0
  0
LINE
  8
1
  6
CONTINUOUS
 62
     2
  5
6E9
 10
302.981167
 20
121.07725
 30
0.0
 11
300.231167
 21
121.07725
 31
0.0
  0
LINE
  8
1
  6
CONTINUOUS
 62
     2
  5
6EA
 10
302.981167
 20
124.57725
 30
0.0
 11
302.981167
 21
120.07725
 31
0.0
  0
LINE
  8
1
  6
CONTINUOUS
 62
     2
  5
6EB
 10
303.981167
 20
124.57725
 30
0.0
 11
303.981167
 21
119.07725
 31
0.0
  0
POLYLINE
  8
1
  6
CONTINUOUS
 62
     2
  5
6EC
 66
     1
 10
0.0
 20
0.0
 30
0.0
 70
     1
  0
VERTEX
  8
1
  6
CONTINUOUS
 62
     2
  5
6ED
 10
302.981167
 20
120.07725
 30
0.0
  0
VERTEX
  8
1
  6
CONTINUOUS
 62
     2
  5
6EE
 10
301.981167
 20
121.07725
 30
0.0
  0
VERTEX
  8
1
  6
CONTINUOUS
 62
     2
  5
6EF
 10
302.981167
 20
121.07725
 30
0.0
  0
VERTEX
  8
1
  6
CONTINUOUS
 62
     2
  5
6F0
 10
302.981167
 20
120.07725
 30
0.0
  0
SEQEND
  8
1
  6
CONTINUOUS
 62
     2
  5
6F1
  0
POLYLINE
  8
1
  6
CONTINUOUS
 62
     2
  5
6F2
 66
     1
 10
0.0
 20
0.0
 30
0.0
 70
     1
  0
VERTEX
  8
1
  6
CONTINUOUS
 62
     2
  5
6F3
 10
303.981167
 20
119.07725
 30
0.0
  0
VERTEX
  8
1
  6
CONTINUOUS
 62
     2
  5
6F4
 10
302.981167
 20
120.07725
 30
0.0
  0
VERTEX
  8
1
  6
CONTINUOUS
 62
     2
  5
6F5
 10
303.981167
 20
120.07725
 30
0.0
  0
VERTEX
  8
1
  6
CONTINUOUS
 62
     2
  5
6F6
 10
303.981167
 20
119.07725
 30
0.0
  0
SEQEND
  8
1
  6
CONTINUOUS
 62
     2
  5
6F7
  0
LINE
  8
1
  6
CONTINUOUS
 62
     2
  5
6F8
 10
301.981167
 20
121.07725
 30
0.0
 11
303.981167
 21
119.07725
 31
0.0
  0
LINE
  8
1
  6
CONTINUOUS
 62
     2
  5
6F9
 10
298.481167
 20
124.07725
 30
0.0
 11
298.670833
 21
124.07725
 31
0.0
  0
LINE
  8
1
  6
CONTINUOUS
 62
     2
  5
6FA
 10
298.981167
 20
124.07725
 30
0.0
 11
299.481167
 21
124.07725
 31
0.0
  0
POLYLINE
  8
1
  6
CONTINUOUS
 62
     2
  5
6FB
 66
     1
 10
0.0
 20
0.0
 30
0.0
 70
     1
  0
VERTEX
  8
1
  6
CONTINUOUS
 62
     2
  5
6FC
 10
286.731167
 20
122.07725
 30
0.0
  0
VERTEX
  8
1
  6
CONTINUOUS
 62
     2
  5
6FD
 10
286.731167
 20
124.07725
 30
0.0
  0
VERTEX
  8
1
  6
CONTINUOUS
 62
     2
  5
6FE
 10
287.481167
 20
124.07725
 30
0.0
  0
VERTEX
  8
1
  6
CONTINUOUS
 62
     2
  5
6FF
 10
287.481167
 20
122.07725
 30
0.0
  0
VERTEX
  8
1
  6
CONTINUOUS
 62
     2
  5
700
 10
286.731167
 20
122.07725
 30
0.0
  0
SEQEND
  8
1
  6
CONTINUOUS
 62
     2
  5
701
  0
LINE
  8
1
  6
CONTINUOUS
 62
     2
  5
702
 10
291.481167
 20
121.95225
 30
0.0
 11
291.731167
 21
121.95225
 31
0.0
  0
LINE
  8
1
  6
CONTINUOUS
 62
     2
  5
703
 10
291.731167
 20
121.95225
 30
0.0
 11
291.731167
 21
124.07725
 31
0.0
  0
LINE
  8
1
  6
CONTINUOUS
 62
     2
  5
704
 10
287.481167
 20
124.07725
 30
0.0
 11
290.231167
 21
124.07725
 31
0.0
  0
LINE
  8
1
  6
CONTINUOUS
 62
     2
  5
705
 10
291.34025
 20
124.07725
 30
0.0
 11
298.981167
 21
124.07725
 31
0.0
  0
LINE
  8
1
  6
CONTINUOUS
 62
     2
  5
706
 10
289.231167
 20
124.07725
 30
0.0
 11
289.231167
 21
121.07725
 31
0.0
  0
POLYLINE
  8
1
  6
CONTINUOUS
 62
     2
  5
707
 66
     1
 10
0.0
 20
0.0
 30
0.0
 70
     1
  0
VERTEX
  8
1
  6
CONTINUOUS
 62
     2
  5
708
 10
289.231167
 20
121.07725
 30
0.0
  0
VERTEX
  8
1
  6
CONTINUOUS
 62
     2
  5
709
 10
289.231167
 20
121.82725
 30
0.0
  0
VERTEX
  8
1
  6
CONTINUOUS
 62
     2
  5
70A
 10
290.231167
 20
121.82725
 30
0.0
  0
VERTEX
  8
1
  6
CONTINUOUS
 62
     2
  5
70B
 10
290.231167
 20
124.07725
 30
0.0
  0
VERTEX
  8
1
  6
CONTINUOUS
 62
     2
  5
70C
 10
291.481167
 20
124.07725
 30
0.0
  0
VERTEX
  8
1
  6
CONTINUOUS
 62
     2
  5
70D
 10
291.481167
 20
121.95225
 30
0.0
  0
VERTEX
  8
1
  6
CONTINUOUS
 62
     2
  5
70E
 10
290.606167
 20
121.07725
 30
0.0
  0
VERTEX
  8
1
  6
CONTINUOUS
 62
     2
  5
70F
 10
289.231167
 20
121.07725
 30
0.0
  0
SEQEND
  8
1
  6
CONTINUOUS
 62
     2
  5
710
  0
POLYLINE
  8
1
  6
CONTINUOUS
 62
     2
  5
711
 66
     1
 10
0.0
 20
0.0
 30
0.0
 70
     1
  0
VERTEX
  8
1
  6
CONTINUOUS
 62
     2
  5
712
 10
287.481167
 20
124.07725
 30
0.0
  0
VERTEX
  8
1
  6
CONTINUOUS
 62
     2
  5
713
 10
287.731167
 20
124.57725
 30
0.0
  0
VERTEX
  8
1
  6
CONTINUOUS
 62
     2
  5
714
 10
298.731167
 20
124.57725
 30
0.0
  0
VERTEX
  8
1
  6
CONTINUOUS
 62
     2
  5
715
 10
298.981167
 20
124.07725
 30
0.0
  0
VERTEX
  8
1
  6
CONTINUOUS
 62
     2
  5
716
 10
287.481167
 20
124.07725
 30
0.0
  0
SEQEND
  8
1
  6
CONTINUOUS
 62
     2
  5
717
  0
LINE
  8
1
  6
CONTINUOUS
 62
     2
  5
718
 10
287.481167
 20
117.07725
 30
0.0
 11
281.981167
 21
117.07725
 31
0.0
  0
LINE
  8
1
  6
CONTINUOUS
 62
     2
  5
719
 10
281.981167
 20
117.07725
 30
0.0
 11
281.981167
 21
97.07725
 31
0.0
  0
LINE
  8
1
  6
CONTINUOUS
 62
     2
  5
71A
 10
281.981167
 20
97.07725
 30
0.0
 11
296.981167
 21
97.07725
 31
0.0
  0
LINE
  8
1
  6
CONTINUOUS
 62
     2
  5
71B
 10
296.981167
 20
97.07725
 30
0.0
 11
296.981167
 21
117.07725
 31
0.0
  0
LINE
  8
1
  6
CONTINUOUS
 62
     2
  5
71C
 10
296.981167
 20
117.07725
 30
0.0
 11
287.481167
 21
117.07725
 31
0.0
  0
LINE
  8
1
  6
CONTINUOUS
 62
     2
  5
71D
 10
287.481167
 20
124.07725
 30
0.0
 11
287.481167
 21
117.07725
 31
0.0
  0
LINE
  8
1
  6
CONTINUOUS
 62
     2
  5
71E
 10
289.231167
 20
121.07725
 30
0.0
 11
289.231167
 21
117.07725
 31
0.0
  0
LINE
  8
1
  6
CONTINUOUS
 62
     2
  5
71F
 10
284.418667
 20
116.07725
 30
0.0
 11
283.543667
 21
116.07725
 31
0.0
  0
LINE
  8
1
  6
CONTINUOUS
 62
     2
  5
720
 10
284.418667
 20
114.57725
 30
0.0
 11
283.543667
 21
114.57725
 31
0.0
  0
LINE
  8
1
  6
CONTINUOUS
 62
     2
  5
721
 10
283.043667
 20
115.32725
 30
0.0
 11
283.543667
 21
116.07725
 31
0.0
  0
LINE
  8
1
  6
CONTINUOUS
 62
     2
  5
722
 10
284.418667
 20
116.07725
 30
0.0
 11
284.918667
 21
115.32725
 31
0.0
  0
LINE
  8
1
  6
CONTINUOUS
 62
     2
  5
723
 10
283.543667
 20
114.57725
 30
0.0
 11
283.043667
 21
115.32725
 31
0.0
  0
LINE
  8
1
  6
CONTINUOUS
 62
     2
  5
724
 10
284.418667
 20
114.57725
 30
0.0
 11
284.918667
 21
115.32725
 31
0.0
  0
LINE
  8
1
  6
CONTINUOUS
 62
     2
  5
725
 10
295.481167
 20
116.07725
 30
0.0
 11
295.981167
 21
115.32725
 31
0.0
  0
LINE
  8
1
  6
CONTINUOUS
 62
     2
  5
726
 10
295.481167
 20
116.07725
 30
0.0
 11
294.606167
 21
116.07725
 31
0.0
  0
LINE
  8
1
  6
CONTINUOUS
 62
     2
  5
727
 10
295.481167
 20
114.57725
 30
0.0
 11
294.606167
 21
114.57725
 31
0.0
  0
LINE
  8
1
  6
CONTINUOUS
 62
     2
  5
728
 10
294.106167
 20
115.32725
 30
0.0
 11
294.606167
 21
116.07725
 31
0.0
  0
LINE
  8
1
  6
CONTINUOUS
 62
     2
  5
729
 10
294.606167
 20
114.57725
 30
0.0
 11
294.106167
 21
115.32725
 31
0.0
  0
LINE
  8
1
  6
CONTINUOUS
 62
     2
  5
72A
 10
295.481167
 20
114.57725
 30
0.0
 11
295.981167
 21
115.32725
 31
0.0
  0
LINE
  8
1
  6
CONTINUOUS
 62
     2
  5
72B
 10
282.981167
 20
98.82725
 30
0.0
 11
283.481167
 21
99.57725
 31
0.0
  0
LINE
  8
1
  6
CONTINUOUS
 62
     2
  5
72C
 10
284.356167
 20
99.57725
 30
0.0
 11
283.481167
 21
99.57725
 31
0.0
  0
LINE
  8
1
  6
CONTINUOUS
 62
     2
  5
72D
 10
284.356167
 20
98.07725
 30
0.0
 11
283.481167
 21
98.07725
 31
0.0
  0
LINE
  8
1
  6
CONTINUOUS
 62
     2
  5
72E
 10
284.356167
 20
99.57725
 30
0.0
 11
284.856167
 21
98.82725
 31
0.0
  0
LINE
  8
1
  6
CONTINUOUS
 62
     2
  5
72F
 10
283.481167
 20
98.07725
 30
0.0
 11
282.981167
 21
98.82725
 31
0.0
  0
LINE
  8
1
  6
CONTINUOUS
 62
     2
  5
730
 10
284.356167
 20
98.07725
 30
0.0
 11
284.856167
 21
98.82725
 31
0.0
  0
LINE
  8
1
  6
CONTINUOUS
 62
     2
  5
731
 10
295.481167
 20
99.57725
 30
0.0
 11
295.981167
 21
98.82725
 31
0.0
  0
LINE
  8
1
  6
CONTINUOUS
 62
     2
  5
732
 10
295.481167
 20
99.57725
 30
0.0
 11
294.606167
 21
99.57725
 31
0.0
  0
LINE
  8
1
  6
CONTINUOUS
 62
     2
  5
733
 10
295.481167
 20
98.07725
 30
0.0
 11
294.606167
 21
98.07725
 31
0.0
  0
LINE
  8
1
  6
CONTINUOUS
 62
     2
  5
734
 10
294.106167
 20
98.82725
 30
0.0
 11
294.606167
 21
99.57725
 31
0.0
  0
LINE
  8
1
  6
CONTINUOUS
 62
     2
  5
735
 10
294.606167
 20
98.07725
 30
0.0
 11
294.106167
 21
98.82725
 31
0.0
  0
LINE
  8
1
  6
CONTINUOUS
 62
     2
  5
736
 10
295.481167
 20
98.07725
 30
0.0
 11
295.981167
 21
98.82725
 31
0.0
  0
LINE
  8
1
  6
DASHED
 62
     2
  5
737
 10
287.481167
 20
117.07725
 30
0.0
 11
287.481167
 21
112.8025
 31
0.0
  0
LINE
  8
1
  6
DASHED
 62
     2
  5
738
 10
287.481167
 20
105.333333
 30
0.0
 11
287.481167
 21
97.07725
 31
0.0
  0
LINE
  8
1
  6
DASHED
 62
     2
  5
739
 10
289.231167
 20
117.07725
 30
0.0
 11
289.231167
 21
113.531667
 31
0.0
  0
LINE
  8
1
  6
DASHED
 62
     2
  5
73A
 10
289.231167
 20
104.604167
 30
0.0
 11
289.231167
 21
97.07725
 31
0.0
  0
CIRCLE
  8
1
  6
CONTINUOUS
 62
     2
  5
73B
 10
289.751583
 20
109.317917
 30
0.0
 40
3.75
210
0.0
220
0.0
230
1.0
  0
CIRCLE
  8
1
  6
CONTINUOUS
 62
     2
  5
73C
 10
289.728833
 20
109.331083
 30
0.0
 40
3.5
210
0.0
220
0.0
230
1.0
  0
CIRCLE
  8
1
  6
CONTINUOUS
 62
     2
  5
73D
 10
289.728833
 20
109.331083
 30
0.0
 40
3.25
210
0.0
220
0.0
230
1.0
  0
LINE
  8
1
  6
CONTINUOUS
 62
     2
  5
73E
 10
304.981167
 20
59.57725
 30
0.0
 11
303.981167
 21
59.57725
 31
0.0
  0
LINE
  8
1
  6
CONTINUOUS
 62
     2
  5
73F
 10
302.981167
 20
61.57725
 30
0.0
 11
300.231167
 21
61.57725
 31
0.0
  0
LINE
  8
1
  6
CONTINUOUS
 62
     2
  5
740
 10
299.481167
 20
61.07725
 30
0.0
 11
299.481167
 21
64.57725
 31
0.0
  0
LINE
  8
1
  6
CONTINUOUS
 62
     2
  5
741
 10
299.481167
 20
61.07725
 30
0.0
 11
300.231167
 21
61.57725
 31
0.0
  0
LINE
  8
1
  6
CONTINUOUS
 62
     2
  5
742
 10
299.481167
 20
64.57725
 30
0.0
 11
300.231167
 21
64.07725
 31
0.0
  0
LINE
  8
1
  6
CONTINUOUS
 62
     2
  5
743
 10
298.981167
 20
61.07725
 30
0.0
 11
298.981167
 21
64.57725
 31
0.0
  0
LINE
  8
1
  6
CONTINUOUS
 62
     2
  5
744
 10
298.481167
 20
61.07725
 30
0.0
 11
298.481167
 21
64.57725
 31
0.0
  0
LINE
  8
1
  6
CONTINUOUS
 62
     2
  5
745
 10
298.481167
 20
64.57725
 30
0.0
 11
299.481167
 21
64.57725
 31
0.0
  0
LINE
  8
1
  6
CONTINUOUS
 62
     2
  5
746
 10
296.481167
 20
64.07725
 30
0.0
 11
298.481167
 21
64.07725
 31
0.0
  0
LINE
  8
1
  6
CONTINUOUS
 62
     2
  5
747
 10
296.481167
 20
61.57725
 30
0.0
 11
298.481167
 21
61.57725
 31
0.0
  0
LINE
  8
1
  6
CONTINUOUS
 62
     2
  5
748
 10
296.481167
 20
61.57725
 30
0.0
 11
296.481167
 21
64.07725
 31
0.0
  0
LINE
  8
1
  6
CONTINUOUS
 62
     2
  5
749
 10
295.231167
 20
62.07725
 30
0.0
 11
298.481167
 21
62.07725
 31
0.0
  0
LINE
  8
1
  6
CONTINUOUS
 62
     2
  5
74A
 10
295.231167
 20
63.57725
 30
0.0
 11
298.481167
 21
63.57725
 31
0.0
  0
LINE
  8
1
  6
CONTINUOUS
 62
     2
  5
74B
 10
295.231167
 20
62.07725
 30
0.0
 11
295.231167
 21
63.57725
 31
0.0
  0
LINE
  8
1
  6
CONTINUOUS
 62
     2
  5
74C
 10
294.731167
 20
62.32725
 30
0.0
 11
294.731167
 21
63.32725
 31
0.0
  0
LINE
  8
1
  6
CONTINUOUS
 62
     2
  5
74D
 10
294.731167
 20
62.32725
 30
0.0
 11
295.231167
 21
62.07725
 31
0.0
  0
LINE
  8
1
  6
CONTINUOUS
 62
     2
  5
74E
 10
294.731167
 20
63.32725
 30
0.0
 11
295.231167
 21
63.57725
 31
0.0
  0
LINE
  8
1
  6
CONTINUOUS
 62
     2
  5
74F
 10
296.231167
 20
62.07725
 30
0.0
 11
296.231167
 21
63.57725
 31
0.0
  0
LINE
  8
1
  6
CONTINUOUS
 62
     2
  5
750
 10
295.731167
 20
62.45225
 30
0.0
 11
295.731167
 21
63.20225
 31
0.0
  0
POLYLINE
  8
1
  6
CONTINUOUS
 62
     2
  5
751
 66
     1
 10
0.0
 20
0.0
 30
0.0
 70
     1
  0
VERTEX
  8
1
  6
CONTINUOUS
 62
     2
  5
752
 10
302.981167
 20
61.57725
 30
0.0
  0
VERTEX
  8
1
  6
CONTINUOUS
 62
     2
  5
753
 10
301.981167
 20
61.57725
 30
0.0
  0
VERTEX
  8
1
  6
CONTINUOUS
 62
     2
  5
754
 10
302.981167
 20
60.57725
 30
0.0
  0
VERTEX
  8
1
  6
CONTINUOUS
 62
     2
  5
755
 10
302.981167
 20
61.57725
 30
0.0
  0
SEQEND
  8
1
  6
CONTINUOUS
 62
     2
  5
756
  0
POLYLINE
  8
1
  6
CONTINUOUS
 62
     2
  5
757
 66
     1
 10
0.0
 20
0.0
 30
0.0
 70
     1
  0
VERTEX
  8
1
  6
CONTINUOUS
 62
     2
  5
758
 10
303.981167
 20
60.57725
 30
0.0
  0
VERTEX
  8
1
  6
CONTINUOUS
 62
     2
  5
759
 10
302.981167
 20
60.57725
 30
0.0
  0
VERTEX
  8
1
  6
CONTINUOUS
 62
     2
  5
75A
 10
303.981167
 20
59.57725
 30
0.0
  0
VERTEX
  8
1
  6
CONTINUOUS
 62
     2
  5
75B
 10
303.981167
 20
60.57725
 30
0.0
  0
SEQEND
  8
1
  6
CONTINUOUS
 62
     2
  5
75C
  0
LINE
  8
1
  6
CONTINUOUS
 62
     2
  5
75D
 10
301.981167
 20
61.57725
 30
0.0
 11
303.981167
 21
59.57725
 31
0.0
  0
LINE
  8
1
  6
CONTINUOUS
 62
     2
  5
75E
 10
302.981167
 20
64.07725
 30
0.0
 11
300.231167
 21
64.07725
 31
0.0
  0
LINE
  8
1
  6
CONTINUOUS
 62
     2
  5
75F
 10
302.981167
 20
60.57725
 30
0.0
 11
302.981167
 21
65.07725
 31
0.0
  0
POLYLINE
  8
1
  6
CONTINUOUS
 62
     2
  5
760
 66
     1
 10
0.0
 20
0.0
 30
0.0
 70
     1
  0
VERTEX
  8
1
  6
CONTINUOUS
 62
     2
  5
761
 10
302.981167
 20
65.07725
 30
0.0
  0
VERTEX
  8
1
  6
CONTINUOUS
 62
     2
  5
762
 10
301.981167
 20
64.07725
 30
0.0
  0
VERTEX
  8
1
  6
CONTINUOUS
 62
     2
  5
763
 10
302.981167
 20
64.07725
 30
0.0
  0
VERTEX
  8
1
  6
CONTINUOUS
 62
     2
  5
764
 10
302.981167
 20
65.07725
 30
0.0
  0
SEQEND
  8
1
  6
CONTINUOUS
 62
     2
  5
765
  0
POLYLINE
  8
1
  6
CONTINUOUS
 62
     2
  5
766
 66
     1
 10
0.0
 20
0.0
 30
0.0
 70
     1
  0
VERTEX
  8
1
  6
CONTINUOUS
 62
     2
  5
767
 10
303.981167
 20
66.07725
 30
0.0
  0
VERTEX
  8
1
  6
CONTINUOUS
 62
     2
  5
768
 10
302.981167
 20
65.07725
 30
0.0
  0
VERTEX
  8
1
  6
CONTINUOUS
 62
     2
  5
769
 10
303.981167
 20
65.07725
 30
0.0
  0
VERTEX
  8
1
  6
CONTINUOUS
 62
     2
  5
76A
 10
303.981167
 20
66.07725
 30
0.0
  0
SEQEND
  8
1
  6
CONTINUOUS
 62
     2
  5
76B
  0
LINE
  8
1
  6
CONTINUOUS
 62
     2
  5
76C
 10
301.981167
 20
64.07725
 30
0.0
 11
303.981167
 21
66.07725
 31
0.0
  0
LINE
  8
1
  6
CONTINUOUS
 62
     2
  5
76D
 10
298.481167
 20
61.07725
 30
0.0
 11
298.670833
 21
61.07725
 31
0.0
  0
LINE
  8
1
  6
CONTINUOUS
 62
     2
  5
76E
 10
298.981167
 20
61.07725
 30
0.0
 11
299.481167
 21
61.07725
 31
0.0
  0
POLYLINE
  8
1
  6
CONTINUOUS
 62
     2
  5
76F
 66
     1
 10
0.0
 20
0.0
 30
0.0
 70
     1
  0
VERTEX
  8
1
  6
CONTINUOUS
 62
     2
  5
770
 10
286.731167
 20
63.07725
 30
0.0
  0
VERTEX
  8
1
  6
CONTINUOUS
 62
     2
  5
771
 10
286.731167
 20
61.07725
 30
0.0
  0
VERTEX
  8
1
  6
CONTINUOUS
 62
     2
  5
772
 10
287.481167
 20
61.07725
 30
0.0
  0
VERTEX
  8
1
  6
CONTINUOUS
 62
     2
  5
773
 10
287.481167
 20
63.07725
 30
0.0
  0
VERTEX
  8
1
  6
CONTINUOUS
 62
     2
  5
774
 10
286.731167
 20
63.07725
 30
0.0
  0
SEQEND
  8
1
  6
CONTINUOUS
 62
     2
  5
775
  0
LINE
  8
1
  6
CONTINUOUS
 62
     2
  5
776
 10
291.481167
 20
63.20225
 30
0.0
 11
291.731167
 21
63.20225
 31
0.0
  0
LINE
  8
1
  6
CONTINUOUS
 62
     2
  5
777
 10
291.731167
 20
63.20225
 30
0.0
 11
291.731167
 21
61.07725
 31
0.0
  0
LINE
  8
1
  6
CONTINUOUS
 62
     2
  5
778
 10
287.481167
 20
61.07725
 30
0.0
 11
290.231167
 21
61.07725
 31
0.0
  0
LINE
  8
1
  6
CONTINUOUS
 62
     2
  5
779
 10
291.34025
 20
61.07725
 30
0.0
 11
298.981167
 21
61.07725
 31
0.0
  0
LINE
  8
1
  6
CONTINUOUS
 62
     2
  5
77A
 10
289.231167
 20
61.07725
 30
0.0
 11
289.231167
 21
64.07725
 31
0.0
  0
POLYLINE
  8
1
  6
CONTINUOUS
 62
     2
  5
77B
 66
     1
 10
0.0
 20
0.0
 30
0.0
 70
     1
  0
VERTEX
  8
1
  6
CONTINUOUS
 62
     2
  5
77C
 10
289.231167
 20
64.07725
 30
0.0
  0
VERTEX
  8
1
  6
CONTINUOUS
 62
     2
  5
77D
 10
289.231167
 20
63.32725
 30
0.0
  0
VERTEX
  8
1
  6
CONTINUOUS
 62
     2
  5
77E
 10
290.231167
 20
63.32725
 30
0.0
  0
VERTEX
  8
1
  6
CONTINUOUS
 62
     2
  5
77F
 10
290.231167
 20
61.07725
 30
0.0
  0
VERTEX
  8
1
  6
CONTINUOUS
 62
     2
  5
780
 10
291.481167
 20
61.07725
 30
0.0
  0
VERTEX
  8
1
  6
CONTINUOUS
 62
     2
  5
781
 10
291.481167
 20
63.20225
 30
0.0
  0
VERTEX
  8
1
  6
CONTINUOUS
 62
     2
  5
782
 10
290.606167
 20
64.07725
 30
0.0
  0
VERTEX
  8
1
  6
CONTINUOUS
 62
     2
  5
783
 10
289.231167
 20
64.07725
 30
0.0
  0
SEQEND
  8
1
  6
CONTINUOUS
 62
     2
  5
784
  0
POLYLINE
  8
1
  6
CONTINUOUS
 62
     2
  5
785
 66
     1
 10
0.0
 20
0.0
 30
0.0
 70
     1
  0
VERTEX
  8
1
  6
CONTINUOUS
 62
     2
  5
786
 10
287.481167
 20
61.07725
 30
0.0
  0
VERTEX
  8
1
  6
CONTINUOUS
 62
     2
  5
787
 10
287.731167
 20
60.57725
 30
0.0
  0
VERTEX
  8
1
  6
CONTINUOUS
 62
     2
  5
788
 10
298.731167
 20
60.57725
 30
0.0
  0
VERTEX
  8
1
  6
CONTINUOUS
 62
     2
  5
789
 10
298.981167
 20
61.07725
 30
0.0
  0
VERTEX
  8
1
  6
CONTINUOUS
 62
     2
  5
78A
 10
287.481167
 20
61.07725
 30
0.0
  0
SEQEND
  8
1
  6
CONTINUOUS
 62
     2
  5
78B
  0
LINE
  8
1
  6
CONTINUOUS
 62
     2
  5
78C
 10
287.481167
 20
61.07725
 30
0.0
 11
287.481167
 21
68.07725
 31
0.0
  0
LINE
  8
1
  6
CONTINUOUS
 62
     2
  5
78D
 10
289.231167
 20
64.07725
 30
0.0
 11
289.231167
 21
68.07725
 31
0.0
  0
LINE
  8
1
  6
DASHED
 62
     2
  5
78E
 10
289.231167
 20
75.604167
 30
0.0
 11
289.231167
 21
68.07725
 31
0.0
  0
LINE
  8
1
  6
CONTINUOUS
 62
     2
  5
78F
 10
287.481167
 20
88.07725
 30
0.0
 11
281.981167
 21
88.07725
 31
0.0
  0
LINE
  8
1
  6
CONTINUOUS
 62
     2
  5
790
 10
281.981167
 20
88.07725
 30
0.0
 11
281.981167
 21
68.07725
 31
0.0
  0
LINE
  8
1
  6
CONTINUOUS
 62
     2
  5
791
 10
281.981167
 20
68.07725
 30
0.0
 11
296.981167
 21
68.07725
 31
0.0
  0
LINE
  8
1
  6
CONTINUOUS
 62
     2
  5
792
 10
296.981167
 20
68.07725
 30
0.0
 11
296.981167
 21
88.07725
 31
0.0
  0
LINE
  8
1
  6
CONTINUOUS
 62
     2
  5
793
 10
296.981167
 20
88.07725
 30
0.0
 11
287.481167
 21
88.07725
 31
0.0
  0
LINE
  8
1
  6
CONTINUOUS
 62
     2
  5
794
 10
284.418667
 20
87.07725
 30
0.0
 11
283.543667
 21
87.07725
 31
0.0
  0
LINE
  8
1
  6
CONTINUOUS
 62
     2
  5
795
 10
284.418667
 20
85.57725
 30
0.0
 11
283.543667
 21
85.57725
 31
0.0
  0
LINE
  8
1
  6
CONTINUOUS
 62
     2
  5
796
 10
283.043667
 20
86.32725
 30
0.0
 11
283.543667
 21
87.07725
 31
0.0
  0
LINE
  8
1
  6
CONTINUOUS
 62
     2
  5
797
 10
284.418667
 20
87.07725
 30
0.0
 11
284.918667
 21
86.32725
 31
0.0
  0
LINE
  8
1
  6
CONTINUOUS
 62
     2
  5
798
 10
283.543667
 20
85.57725
 30
0.0
 11
283.043667
 21
86.32725
 31
0.0
  0
LINE
  8
1
  6
CONTINUOUS
 62
     2
  5
799
 10
284.418667
 20
85.57725
 30
0.0
 11
284.918667
 21
86.32725
 31
0.0
  0
LINE
  8
1
  6
CONTINUOUS
 62
     2
  5
79A
 10
295.481167
 20
87.07725
 30
0.0
 11
295.981167
 21
86.32725
 31
0.0
  0
LINE
  8
1
  6
CONTINUOUS
 62
     2
  5
79B
 10
295.481167
 20
87.07725
 30
0.0
 11
294.606167
 21
87.07725
 31
0.0
  0
LINE
  8
1
  6
CONTINUOUS
 62
     2
  5
79C
 10
295.481167
 20
85.57725
 30
0.0
 11
294.606167
 21
85.57725
 31
0.0
  0
LINE
  8
1
  6
CONTINUOUS
 62
     2
  5
79D
 10
294.106167
 20
86.32725
 30
0.0
 11
294.606167
 21
87.07725
 31
0.0
  0
LINE
  8
1
  6
CONTINUOUS
 62
     2
  5
79E
 10
294.606167
 20
85.57725
 30
0.0
 11
294.106167
 21
86.32725
 31
0.0
  0
LINE
  8
1
  6
CONTINUOUS
 62
     2
  5
79F
 10
295.481167
 20
85.57725
 30
0.0
 11
295.981167
 21
86.32725
 31
0.0
  0
LINE
  8
1
  6
CONTINUOUS
 62
     2
  5
7A0
 10
282.981167
 20
69.82725
 30
0.0
 11
283.481167
 21
70.57725
 31
0.0
  0
LINE
  8
1
  6
CONTINUOUS
 62
     2
  5
7A1
 10
284.356167
 20
70.57725
 30
0.0
 11
283.481167
 21
70.57725
 31
0.0
  0
LINE
  8
1
  6
CONTINUOUS
 62
     2
  5
7A2
 10
284.356167
 20
69.07725
 30
0.0
 11
283.481167
 21
69.07725
 31
0.0
  0
LINE
  8
1
  6
CONTINUOUS
 62
     2
  5
7A3
 10
284.356167
 20
70.57725
 30
0.0
 11
284.856167
 21
69.82725
 31
0.0
  0
LINE
  8
1
  6
CONTINUOUS
 62
     2
  5
7A4
 10
283.481167
 20
69.07725
 30
0.0
 11
282.981167
 21
69.82725
 31
0.0
  0
LINE
  8
1
  6
CONTINUOUS
 62
     2
  5
7A5
 10
284.356167
 20
69.07725
 30
0.0
 11
284.856167
 21
69.82725
 31
0.0
  0
LINE
  8
1
  6
CONTINUOUS
 62
     2
  5
7A6
 10
295.481167
 20
70.57725
 30
0.0
 11
295.981167
 21
69.82725
 31
0.0
  0
LINE
  8
1
  6
CONTINUOUS
 62
     2
  5
7A7
 10
295.481167
 20
70.57725
 30
0.0
 11
294.606167
 21
70.57725
 31
0.0
  0
LINE
  8
1
  6
CONTINUOUS
 62
     2
  5
7A8
 10
295.481167
 20
69.07725
 30
0.0
 11
294.606167
 21
69.07725
 31
0.0
  0
LINE
  8
1
  6
CONTINUOUS
 62
     2
  5
7A9
 10
294.106167
 20
69.82725
 30
0.0
 11
294.606167
 21
70.57725
 31
0.0
  0
LINE
  8
1
  6
CONTINUOUS
 62
     2
  5
7AA
 10
294.606167
 20
69.07725
 30
0.0
 11
294.106167
 21
69.82725
 31
0.0
  0
LINE
  8
1
  6
CONTINUOUS
 62
     2
  5
7AB
 10
295.481167
 20
69.07725
 30
0.0
 11
295.981167
 21
69.82725
 31
0.0
  0
LINE
  8
1
  6
DASHED
 62
     2
  5
7AC
 10
287.481167
 20
88.07725
 30
0.0
 11
287.481167
 21
83.8025
 31
0.0
  0
LINE
  8
1
  6
DASHED
 62
     2
  5
7AD
 10
287.481167
 20
76.333333
 30
0.0
 11
287.481167
 21
68.07725
 31
0.0
  0
LINE
  8
1
  6
DASHED
 62
     2
  5
7AE
 10
289.231167
 20
88.07725
 30
0.0
 11
289.231167
 21
84.531667
 31
0.0
  0
CIRCLE
  8
1
  6
CONTINUOUS
 62
     2
  5
7AF
 10
289.152083
 20
80.158
 30
0.0
 40
3.75
210
0.0
220
0.0
230
1.0
  0
CIRCLE
  8
1
  6
CONTINUOUS
 62
     2
  5
7B0
 10
289.129333
 20
80.171167
 30
0.0
 40
3.5
210
0.0
220
0.0
230
1.0
  0
CIRCLE
  8
1
  6
CONTINUOUS
 62
     2
  5
7B1
 10
289.129333
 20
80.171167
 30
0.0
 40
3.25
210
0.0
220
0.0
230
1.0
  0
LINE
  8
1
  6
CONTINUOUS
 62
     2
  5
7B2
 10
287.481167
 20
97.07725
 30
0.0
 11
287.481167
 21
88.07725
 31
0.0
  0
LINE
  8
1
  6
CONTINUOUS
 62
     2
  5
7B3
 10
289.231167
 20
97.07725
 30
0.0
 11
289.231167
 21
88.07725
 31
0.0
  0
INSERT
  8
1
  6
CONTINUOUS
 62
     1
  5
7B4
  2
LDR
 10
289.157917
 20
90.818417
 30
0.0
 41
240.0
 42
240.0
 50
180.0
210
0.0
220
0.0
230
1.0
  0
INSERT
  8
1
  6
CONTINUOUS
 62
     1
  5
7B5
  2
LDR
 10
289.157917
 20
90.818417
 30
0.0
 41
240.0
 42
240.0
 50
180.0
210
0.0
220
0.0
230
1.0
  0
INSERT
  8
1
  6
CONTINUOUS
 62
     1
  5
7B6
  2
LDR
 10
303.907917
 20
90.818417
 30
0.0
 41
240.0
 42
240.0
210
0.0
220
0.0
230
1.0
  0
INSERT
  8
1
  6
CONTINUOUS
 62
     1
  5
7B7
  2
LDR
 10
303.907917
 20
90.818417
 30
0.0
 41
240.0
 42
240.0
210
0.0
220
0.0
230
1.0
  0
LINE
  8
1
  6
CONTINUOUS
 62
     2
  5
7B8
 10
273.981167
 20
132.57725
 30
0.0
 11
277.981167
 21
132.57725
 31
0.0
  0
LINE
  8
1
  6
CONTINUOUS
 62
     2
  5
7B9
 10
277.981167
 20
132.57725
 30
0.0
 11
303.981167
 21
132.57725
 31
0.0
  0
POLYLINE
  8
1
  6
CONTINUOUS
 62
     2
  5
7BA
 66
     1
 10
0.0
 20
0.0
 30
0.0
  0
VERTEX
  8
1
  6
CONTINUOUS
 62
     2
  5
7BB
 10
274.481167
 20
132.57725
 30
0.0
  0
VERTEX
  8
1
  6
CONTINUOUS
 62
     2
  5
7BC
 10
277.981167
 20
132.57725
 30
0.0
  0
VERTEX
  8
1
  6
CONTINUOUS
 62
     2
  5
7BD
 10
277.981167
 20
132.57725
 30
0.0
 42
0.79291
  0
VERTEX
  8
1
  6
CONTINUOUS
 62
     2
  5
7BE
 10
274.481167
 20
132.57725
 30
0.0
  0
SEQEND
  8
1
  6
CONTINUOUS
 62
     2
  5
7BF
  0
LINE
  8
1
  6
CONTINUOUS
 62
     2
  5
7C0
 10
273.981167
 20
134.57725
 30
0.0
 11
273.981167
 21
148.57725
 31
0.0
  0
LINE
  8
1
  6
CONTINUOUS
 62
     2
  5
7C1
 10
303.981167
 20
139.57725
 30
0.0
 11
303.981167
 21
148.57725
 31
0.0
  0
LINE
  8
1
  6
CONTINUOUS
 62
     2
  5
7C2
 10
273.981167
 20
147.57725
 30
0.0
 11
303.981167
 21
147.57725
 31
0.0
  0
INSERT
  8
1
  6
CONTINUOUS
 62
     1
  5
7C3
  2
LDR
 10
273.981167
 20
147.57725
 30
0.0
 41
240.0
 42
240.0
 50
180.0
210
0.0
220
0.0
230
1.0
  0
INSERT
  8
1
  6
CONTINUOUS
 62
     1
  5
7C4
  2
LDR
 10
273.981167
 20
147.57725
 30
0.0
 41
240.0
 42
240.0
 50
180.0
210
0.0
220
0.0
230
1.0
  0
INSERT
  8
1
  6
CONTINUOUS
 62
     1
  5
7C5
  2
LDR
 10
303.981167
 20
147.57725
 30
0.0
 41
240.0
 42
240.0
210
0.0
220
0.0
230
1.0
  0
INSERT
  8
1
  6
CONTINUOUS
 62
     1
  5
7C6
  2
LDR
 10
303.981167
 20
147.57725
 30
0.0
 41
240.0
 42
240.0
210
0.0
220
0.0
230
1.0
  0
LINE
  8
1
  6
CONTINUOUS
 62
     2
  5
7C7
 10
269.342417
 20
132.57725
 30
0.0
 11
270.94975
 21
138.535833
 31
0.0
  0
LINE
  8
1
  6
CONTINUOUS
 62
     2
  5
7C8
 10
270.94975
 20
138.535833
 30
0.0
 11
266.529417
 21
138.535833
 31
0.0
  0
INSERT
  8
1
  6
CONTINUOUS
 62
     1
  5
7C9
  2
LDR
 10
269.342417
 20
132.57725
 30
0.0
 41
239.999998
 42
239.999998
 50
254.903727
210
0.0
220
0.0
230
1.0
  0
INSERT
  8
1
  6
CONTINUOUS
 62
     1
  5
7CA
  2
LDR
 10
269.342417
 20
132.57725
 30
0.0
 41
239.999998
 42
239.999998
 50
254.903727
210
0.0
220
0.0
230
1.0
  0
LINE
  8
1
  6
CONTINUOUS
 62
     2
  5
7CB
 10
286.731167
 20
124.57725
 30
0.0
 11
277.731167
 21
124.57725
 31
0.0
  0
LINE
  8
1
  6
CONTINUOUS
 62
     2
  5
7CC
 10
278.731167
 20
124.57725
 30
0.0
 11
278.731167
 21
132.57725
 31
0.0
  0
LINE
  8
1
  6
CONTINUOUS
 62
     2
  5
7CD
 10
278.731167
 20
132.57725
 30
0.0
 11
278.731167
 21
138.57725
 31
0.0
  0
LINE
  8
1
  6
CONTINUOUS
 62
     2
  5
7CE
 10
278.731167
 20
124.57725
 30
0.0
 11
278.731167
 21
118.57725
 31
0.0
  0
INSERT
  8
1
  6
CONTINUOUS
 62
     1
  5
7CF
  2
LDR
 10
278.731167
 20
132.57725
 30
0.0
 41
240.0
 42
240.0
 50
270.0
210
0.0
220
0.0
230
1.0
  0
INSERT
  8
1
  6
CONTINUOUS
 62
     1
  5
7D0
  2
LDR
 10
278.731167
 20
132.57725
 30
0.0
 41
240.0
 42
240.0
 50
270.0
210
0.0
220
0.0
230
1.0
  0
INSERT
  8
1
  6
CONTINUOUS
 62
     1
  5
7D1
  2
LDR
 10
278.731167
 20
124.57725
 30
0.0
 41
240.0
 42
240.0
 50
90.0
210
0.0
220
0.0
230
1.0
  0
INSERT
  8
1
  6
CONTINUOUS
 62
     1
  5
7D2
  2
LDR
 10
278.731167
 20
124.57725
 30
0.0
 41
240.0
 42
240.0
 50
90.0
210
0.0
220
0.0
230
1.0
  0
LINE
  8
1
  6
CONTINUOUS
 62
     2
  5
7D3
 10
300.658
 20
121.07725
 30
0.0
 11
306.23425
 21
115.302667
 31
0.0
  0
LINE
  8
1
  6
CONTINUOUS
 62
     2
  5
7D4
 10
306.23425
 20
115.302667
 30
0.0
 11
311.313167
 21
115.302667
 31
0.0
  0
INSERT
  8
1
  6
CONTINUOUS
 62
     1
  5
7D5
  2
LDR
 10
300.658
 20
121.07725
 30
0.0
 41
240.0
 42
240.0
 50
133.999144
210
0.0
220
0.0
230
1.0
  0
INSERT
  8
1
  6
CONTINUOUS
 62
     1
  5
7D6
  2
LDR
 10
300.658
 20
121.07725
 30
0.0
 41
240.0
 42
240.0
 50
133.999144
210
0.0
220
0.0
230
1.0
  0
LINE
  8
1
  6
CONTINUOUS
 62
     2
  5
7D7
 10
289.260167
 20
101.7645
 30
0.0
 11
310.6755
 21
104.5755
 31
0.0
  0
INSERT
  8
1
  6
CONTINUOUS
 62
     1
  5
7D8
  2
LDR
 10
289.260167
 20
101.7645
 30
0.0
 41
239.999998
 42
239.999998
 50
187.477873
210
0.0
220
0.0
230
1.0
  0
INSERT
  8
1
  6
CONTINUOUS
 62
     1
  5
7D9
  2
LDR
 10
289.260167
 20
101.7645
 30
0.0
 41
239.999998
 42
239.999998
 50
187.477873
210
0.0
220
0.0
230
1.0
  0
LINE
  8
1
  6
CONTINUOUS
 62
     2
  5
7DA
 10
266.981167
 20
106.149417
 30
0.0
 11
255.852
 21
113.234
 31
0.0
  0
LINE
  8
1
  6
CONTINUOUS
 62
     2
  5
7DB
 10
255.852
 20
113.234
 30
0.0
 11
250.465833
 21
113.234
 31
0.0
  0
INSERT
  8
1
  6
CONTINUOUS
 62
     1
  5
7DC
  2
LDR
 10
266.981167
 20
106.149417
 30
0.0
 41
239.999999
 42
239.999999
 50
327.520064
210
0.0
220
0.0
230
1.0
  0
INSERT
  8
1
  6
CONTINUOUS
 62
     1
  5
7DD
  2
LDR
 10
266.981167
 20
106.149417
 30
0.0
 41
239.999999
 42
239.999999
 50
327.520064
210
0.0
220
0.0
230
1.0
  0
LINE
  8
1
  6
CONTINUOUS
 62
     2
  5
7DE
 10
303.981167
 20
45.57725
 30
0.0
 11
303.981167
 21
40.57725
 31
0.0
  0
LINE
  8
1
  6
CONTINUOUS
 62
     2
  5
7DF
 10
286.981167
 20
44.82725
 30
0.0
 11
286.981167
 21
40.57725
 31
0.0
  0
LINE
  8
1
  6
CONTINUOUS
 62
     2
  5
7E0
 10
286.981167
 20
41.57725
 30
0.0
 11
303.981167
 21
41.57725
 31
0.0
  0
LINE
  8
1
  6
CONTINUOUS
 62
     2
  5
7E1
 10
286.981167
 20
41.57725
 30
0.0
 11
274.981167
 21
41.57725
 31
0.0
  0
INSERT
  8
1
  6
CONTINUOUS
 62
     1
  5
7E2
  2
LDR
 10
286.981167
 20
41.57725
 30
0.0
 41
240.0
 42
240.0
 50
180.0
210
0.0
220
0.0
230
1.0
  0
INSERT
  8
1
  6
CONTINUOUS
 62
     1
  5
7E3
  2
LDR
 10
303.981167
 20
41.57725
 30
0.0
 41
240.0
 42
240.0
210
0.0
220
0.0
230
1.0
  0
TEXT
  8
1
  6
CONTINUOUS
 62
     7
  5
7E4
 10
276.8015
 20
42.708083
 30
0.0
 40
2.5
  1
3 5/16 "
  7
MONOTXT
210
0.0
220
0.0
230
1.0
  0
TEXT
  8
1
  6
CONTINUOUS
 62
     7
  5
7E5
 10
287.75975
 20
148.19675
 30
0.0
 40
2.5
  1
6"
  7
MONOTXT
210
0.0
220
0.0
230
1.0
  0
TEXT
  8
1
  6
CONTINUOUS
 62
     7
  5
7E6
 10
242.96225
 20
137.069667
 30
0.0
 40
2.5
  1
DRIP SHIELD
  7
MONOTXT
210
0.0
220
0.0
230
1.0
  0
TEXT
  8
1
  6
CONTINUOUS
 62
     7
  5
7E7
 10
207.265833
 20
112.113
 30
0.0
 40
2.5
  1
GASKET HINGED DOOR
  7
MONOTXT
 11
207.265833
 21
114.613
 31
0.0
210
0.0
220
0.0
230
1.0
 73
     3
  0
TEXT
  8
1
  6
CONTINUOUS
 62
     7
  5
7E8
 10
207.265833
 20
107.613
 30
0.0
 40
2.5
  1
COMPLETE WITH KEY
  7
MONOTXT
 11
207.265833
 21
110.113
 31
0.0
210
0.0
220
0.0
230
1.0
 73
     3
  0
TEXT
  8
1
  6
CONTINUOUS
 62
     7
  5
7E9
 10
207.265833
 20
103.113
 30
0.0
 40
2.5
  1
LOCKING HANDLE AND
  7
MONOTXT
 11
207.265833
 21
105.613
 31
0.0
210
0.0
220
0.0
230
1.0
 73
     3
  0
TEXT
  8
1
  6
CONTINUOUS
 62
     7
  5
7EA
 10
207.265833
 20
98.613
 30
0.0
 40
2.5
  1
LATCH
  7
MONOTXT
 11
207.265833
 21
101.113
 31
0.0
210
0.0
220
0.0
230
1.0
 73
     3
  0
TEXT
  8
1
  6
CONTINUOUS
 62
     7
  5
7EB
 10
311.521667
 20
115.950417
 30
0.0
 40
2.5
  1
TERMINAL STRAP
  7
MONOTXT
 11
311.521667
 21
118.450417
 31
0.0
210
0.0
220
0.0
230
1.0
 73
     3
  0
TEXT
  8
1
  6
CONTINUOUS
 62
     7
  5
7EC
 10
311.521667
 20
111.450417
 30
0.0
 40
2.5
  1
SUPPORT STUD
  7
MONOTXT
 11
311.521667
 21
113.950417
 31
0.0
210
0.0
220
0.0
230
1.0
 73
     3
  0
TEXT
  8
1
  6
CONTINUOUS
 62
     7
  5
7ED
 10
311.555583
 20
104.98875
 30
0.0
 40
2.5
  1
TERMINAL BLOCK MOUNTING
  7
MONOTXT
 11
311.555583
 21
107.48875
 31
0.0
210
0.0
220
0.0
230
1.0
 73
     3
  0
TEXT
  8
1
  6
CONTINUOUS
 62
     7
  5
7EE
 10
311.555583
 20
100.48875
 30
0.0
 40
2.5
  1
STRAP TERMINALS
  7
MONOTXT
 11
311.555583
 21
102.98875
 31
0.0
210
0.0
220
0.0
230
1.0
 73
     3
  0
TEXT
  8
1
  6
CONTINUOUS
 62
     7
  5
7EF
 10
292.579417
 20
92.047583
 30
0.0
 40
2.5
  1
3 3/16 "
  7
MONOTXT
210
0.0
220
0.0
230
1.0
  0
TEXT
  8
1
  6
CONTINUOUS
 62
     7
  5
7F0
 10
259.153417
 20
24.320917
 30
0.0
 40
3.5
  1
TYPE C JUNCTION BOX
  7
MONOTXT
210
0.0
220
0.0
230
1.0
  0
LINE
  8
1
  6
CONTINUOUS
 62
     7
  5
7F1
 10
257.61875
 20
22.755833
 30
0.0
 11
323.486583
 21
22.755833
 31
0.0
  0
TEXT
  8
1
  6
CONTINUOUS
 62
     7
  5
7F2
 10
279.274667
 20
32.267583
 30
0.0
 40
3.0
  1
SIDE VIEW
  7
MONOTXT
210
0.0
220
0.0
230
1.0
  0
LINE
  8
1
  6
CONTINUOUS
 62
     7
  5
7F3
 10
277.853833
 20
30.978417
 30
0.0
 11
302.620667
 21
30.978417
 31
0.0
  0
LINE
  8
1
  6
CONTINUOUS
 62
     2
  5
7F4
 10
398.265167
 20
96.475167
 30
0.0
 11
449.265167
 21
96.475167
 31
0.0
  0
LINE
  8
1
  6
CONTINUOUS
 62
     2
  5
7F5
 10
398.265167
 20
96.475167
 30
0.0
 11
398.265167
 21
91.975167
 31
0.0
  0
LINE
  8
1
  6
CONTINUOUS
 62
     2
  5
7F6
 10
449.265167
 20
96.475167
 30
0.0
 11
449.265167
 21
91.475167
 31
0.0
  0
LINE
  8
1
  6
CONTINUOUS
 62
     2
  5
7F7
 10
398.765167
 20
95.975167
 30
0.0
 11
448.765167
 21
95.975167
 31
0.0
  0
LINE
  8
1
  6
CONTINUOUS
 62
     2
  5
7F8
 10
398.765167
 20
95.975167
 30
0.0
 11
398.765167
 21
91.975167
 31
0.0
  0
LINE
  8
1
  6
CONTINUOUS
 62
     2
  5
7F9
 10
448.765167
 20
95.975167
 30
0.0
 11
448.765167
 21
90.975167
 31
0.0
  0
LINE
  8
1
  6
CONTINUOUS
 62
     2
  5
7FA
 10
399.265167
 20
95.975167
 30
0.0
 11
399.265167
 21
91.475167
 31
0.0
  0
LINE
  8
1
  6
CONTINUOUS
 62
     2
  5
7FB
 10
399.265167
 20
91.975167
 30
0.0
 11
395.265167
 21
91.975167
 31
0.0
  0
LINE
  8
1
  6
CONTINUOUS
 62
     2
  5
7FC
 10
399.265167
 20
91.475167
 30
0.0
 11
395.265167
 21
91.475167
 31
0.0
  0
LINE
  8
1
  6
CONTINUOUS
 62
     2
  5
7FD
 10
401.015167
 20
94.475167
 30
0.0
 11
401.015167
 21
90.475167
 31
0.0
  0
LINE
  8
1
  6
CONTINUOUS
 62
     2
  5
7FE
 10
401.515167
 20
94.475167
 30
0.0
 11
401.515167
 21
89.975167
 31
0.0
  0
LINE
  8
1
  6
CONTINUOUS
 62
     2
  5
7FF
 10
401.515167
 20
94.475167
 30
0.0
 11
400.265167
 21
94.475167
 31
0.0
  0
LINE
  8
1
  6
CONTINUOUS
 62
     2
  5
800
 10
401.015167
 20
90.475167
 30
0.0
 11
395.265167
 21
90.475167
 31
0.0
  0
LINE
  8
1
  6
CONTINUOUS
 62
     2
  5
801
 10
401.515167
 20
89.975167
 30
0.0
 11
393.765167
 21
89.975167
 31
0.0
  0
ARC
  8
1
  6
CONTINUOUS
 62
     2
  5
802
 10
395.41732
 20
90.975167
 30
0.0
 40
0.522638
 50
106.925356
 51
253.074639
210
0.0
220
0.0
230
1.0
  0
LINE
  8
1
  6
CONTINUOUS
 62
     2
  5
803
 10
394.515167
 20
90.475167
 30
0.0
 11
393.265167
 21
90.475167
 31
0.0
  0
ARC
  8
1
  6
CONTINUOUS
 62
     2
  5
804
 10
395.374896
 20
90.982802
 30
0.0
 40
0.998413
 50
96.309756
 51
210.560142
210
0.0
220
0.0
230
1.0
  0
LINE
  8
1
  6
CONTINUOUS
 62
     2
  5
805
 10
393.265167
 20
90.475167
 30
0.0
 11
393.265167
 21
60.475167
 31
0.0
  0
LINE
  8
1
  6
CONTINUOUS
 62
     2
  5
806
 10
393.765167
 20
89.975167
 30
0.0
 11
393.765167
 21
60.975167
 31
0.0
  0
LINE
  8
1
  6
CONTINUOUS
 62
     2
  5
807
 10
393.265167
 20
60.475167
 30
0.0
 11
408.015167
 21
60.475167
 31
0.0
  0
LINE
  8
1
  6
CONTINUOUS
 62
     2
  5
808
 10
408.015167
 20
60.475167
 30
0.0
 11
435.515167
 21
60.475167
 31
0.0
  0
POLYLINE
  8
1
  6
CONTINUOUS
 62
     2
  5
809
 66
     1
 10
0.0
 20
0.0
 30
0.0
 70
     1
  0
VERTEX
  8
1
  6
CONTINUOUS
 62
     2
  5
80A
 10
407.015167
 20
60.475167
 30
0.0
  0
VERTEX
  8
1
  6
CONTINUOUS
 62
     2
  5
80B
 10
407.015167
 20
61.475167
 30
0.0
  0
VERTEX
  8
1
  6
CONTINUOUS
 62
     2
  5
80C
 10
408.015167
 20
60.475167
 30
0.0
  0
VERTEX
  8
1
  6
CONTINUOUS
 62
     2
  5
80D
 10
407.015167
 20
60.475167
 30
0.0
  0
SEQEND
  8
1
  6
CONTINUOUS
 62
     2
  5
80E
  0
LINE
  8
1
  6
CONTINUOUS
 62
     2
  5
80F
 10
407.015167
 20
61.475167
 30
0.0
 11
408.015167
 21
60.475167
 31
0.0
  0
LINE
  8
1
  6
CONTINUOUS
 62
     2
  5
810
 10
406.515167
 20
63.975167
 30
0.0
 11
406.515167
 21
61.475167
 31
0.0
  0
LINE
  8
1
  6
CONTINUOUS
 62
     2
  5
811
 10
393.765167
 20
60.975167
 30
0.0
 11
403.265167
 21
60.975167
 31
0.0
  0
LINE
  8
1
  6
CONTINUOUS
 62
     2
  5
812
 10
403.265167
 20
60.975167
 30
0.0
 11
407.015167
 21
60.975167
 31
0.0
  0
LINE
  8
1
  6
CONTINUOUS
 62
     2
  5
813
 10
403.265167
 20
61.475167
 30
0.0
 11
403.265167
 21
60.475167
 31
0.0
  0
POLYLINE
  8
1
  6
CONTINUOUS
 62
     2
  5
814
 66
     1
 10
0.0
 20
0.0
 30
0.0
 70
     1
  0
VERTEX
  8
1
  6
CONTINUOUS
 62
     2
  5
815
 10
403.265167
 20
60.975167
 30
0.0
  0
VERTEX
  8
1
  6
CONTINUOUS
 62
     2
  5
816
 10
402.765167
 20
60.975167
 30
0.0
  0
VERTEX
  8
1
  6
CONTINUOUS
 62
     2
  5
817
 10
403.265167
 20
61.475167
 30
0.0
  0
VERTEX
  8
1
  6
CONTINUOUS
 62
     2
  5
818
 10
403.265167
 20
60.975167
 30
0.0
  0
SEQEND
  8
1
  6
CONTINUOUS
 62
     2
  5
819
  0
LINE
  8
1
  6
CONTINUOUS
 62
     2
  5
81A
 10
403.265167
 20
61.475167
 30
0.0
 11
402.765167
 21
60.975167
 31
0.0
  0
LINE
  8
1
  6
CONTINUOUS
 62
     2
  5
81B
 10
403.265167
 20
61.475167
 30
0.0
 11
407.015167
 21
61.475167
 31
0.0
  0
LINE
  8
1
  6
CONTINUOUS
 62
     2
  5
81C
 10
404.265167
 20
63.975167
 30
0.0
 11
404.265167
 21
61.475167
 31
0.0
  0
POLYLINE
  8
1
  6
CONTINUOUS
 62
     2
  5
81D
 66
     1
 10
0.0
 20
0.0
 30
0.0
 70
     1
  0
VERTEX
  8
1
  6
CONTINUOUS
 62
     2
  5
81E
 10
403.265167
 20
61.475167
 30
0.0
  0
VERTEX
  8
1
  6
CONTINUOUS
 62
     2
  5
81F
 10
404.265167
 20
62.475167
 30
0.0
  0
VERTEX
  8
1
  6
CONTINUOUS
 62
     2
  5
820
 10
404.265167
 20
61.475167
 30
0.0
  0
VERTEX
  8
1
  6
CONTINUOUS
 62
     2
  5
821
 10
403.265167
 20
61.475167
 30
0.0
  0
SEQEND
  8
1
  6
CONTINUOUS
 62
     2
  5
822
  0
LINE
  8
1
  6
CONTINUOUS
 62
     2
  5
823
 10
403.265167
 20
61.475167
 30
0.0
 11
404.265167
 21
62.475167
 31
0.0
  0
LINE
  8
1
  6
CONTINUOUS
 62
     2
  5
824
 10
403.765167
 20
64.475167
 30
0.0
 11
407.015167
 21
64.475167
 31
0.0
  0
LINE
  8
1
  6
CONTINUOUS
 62
     2
  5
825
 10
404.265167
 20
63.975167
 30
0.0
 11
403.765167
 21
64.475167
 31
0.0
  0
LINE
  8
1
  6
CONTINUOUS
 62
     2
  5
826
 10
406.515167
 20
63.975167
 30
0.0
 11
407.015167
 21
64.475167
 31
0.0
  0
LINE
  8
1
  6
CONTINUOUS
 62
     2
  5
827
 10
403.765167
 20
64.975167
 30
0.0
 11
407.015167
 21
64.975167
 31
0.0
  0
LINE
  8
1
  6
CONTINUOUS
 62
     2
  5
828
 10
403.765167
 20
65.475167
 30
0.0
 11
407.015167
 21
65.475167
 31
0.0
  0
LINE
  8
1
  6
CONTINUOUS
 62
     2
  5
829
 10
403.765167
 20
64.475167
 30
0.0
 11
403.765167
 21
75.475167
 31
0.0
  0
LINE
  8
1
  6
CONTINUOUS
 62
     2
  5
82A
 10
407.015167
 20
64.475167
 30
0.0
 11
407.015167
 21
75.475167
 31
0.0
  0
LINE
  8
1
  6
CONTINUOUS
 62
     2
  5
82B
 10
404.265167
 20
65.475167
 30
0.0
 11
404.265167
 21
68.475167
 31
0.0
  0
LINE
  8
1
  6
CONTINUOUS
 62
     2
  5
82C
 10
406.515167
 20
65.475167
 30
0.0
 11
406.515167
 21
68.475167
 31
0.0
  0
LINE
  8
1
  6
CONTINUOUS
 62
     2
  5
82D
 10
404.265167
 20
68.475167
 30
0.0
 11
406.515167
 21
68.475167
 31
0.0
  0
LINE
  8
1
  6
CONTINUOUS
 62
     2
  5
82E
 10
404.265167
 20
67.675167
 30
0.0
 11
406.515167
 21
67.675167
 31
0.0
  0
LINE
  8
1
  6
CONTINUOUS
 62
     2
  5
82F
 10
404.265167
 20
66.875167
 30
0.0
 11
406.515167
 21
66.875167
 31
0.0
  0
LINE
  8
1
  6
CONTINUOUS
 62
     2
  5
830
 10
404.265167
 20
66.075167
 30
0.0
 11
406.515167
 21
66.075167
 31
0.0
  0
LINE
  8
1
  6
CONTINUOUS
 62
     2
  5
831
 10
404.890167
 20
68.075167
 30
0.0
 11
405.890167
 21
68.075167
 31
0.0
  0
LINE
  8
1
  6
CONTINUOUS
 62
     2
  5
832
 10
404.890167
 20
67.275167
 30
0.0
 11
405.890167
 21
67.275167
 31
0.0
  0
LINE
  8
1
  6
CONTINUOUS
 62
     2
  5
833
 10
404.890167
 20
66.475167
 30
0.0
 11
405.890167
 21
66.475167
 31
0.0
  0
LINE
  8
1
  6
CONTINUOUS
 62
     2
  5
834
 10
404.890167
 20
68.875167
 30
0.0
 11
405.890167
 21
68.875167
 31
0.0
  0
LINE
  8
1
  6
CONTINUOUS
 62
     2
  5
835
 10
404.015167
 20
60.475167
 30
0.0
 11
404.015167
 21
59.475167
 31
0.0
  0
LINE
  8
1
  6
CONTINUOUS
 62
     2
  5
836
 10
411.515167
 20
60.475167
 30
0.0
 11
411.515167
 21
59.475167
 31
0.0
  0
LINE
  8
1
  6
CONTINUOUS
 62
     2
  5
837
 10
404.015167
 20
59.475167
 30
0.0
 11
411.515167
 21
59.475167
 31
0.0
  0
LINE
  8
1
  6
CONTINUOUS
 62
     2
  5
838
 10
402.015167
 20
94.477833
 30
0.0
 11
448.765167
 21
94.477833
 31
0.0
  0
POLYLINE
  8
1
  6
CONTINUOUS
 62
     2
  5
839
 66
     1
 10
0.0
 20
0.0
 30
0.0
  0
VERTEX
  8
1
  6
CONTINUOUS
 62
     2
  5
83A
 10
399.265167
 20
94.725167
 30
0.0
  0
VERTEX
  8
1
  6
CONTINUOUS
 62
     2
  5
83B
 10
399.6815
 20
94.836167
 30
0.0
  0
VERTEX
  8
1
  6
CONTINUOUS
 62
     2
  5
83C
 10
400.03975
 20
94.94525
 30
0.0
  0
VERTEX
  8
1
  6
CONTINUOUS
 62
     2
  5
83D
 10
400.274368
 20
94.993219
 30
0.0
  0
VERTEX
  8
1
  6
CONTINUOUS
 62
     2
  5
83E
 10
400.394012
 20
95.001665
 30
0.0
  0
VERTEX
  8
1
  6
CONTINUOUS
 62
     2
  5
83F
 10
400.56925
 20
94.992
 30
0.0
  0
VERTEX
  8
1
  6
CONTINUOUS
 62
     2
  5
840
 10
400.618124
 20
94.963668
 30
0.0
  0
VERTEX
  8
1
  6
CONTINUOUS
 62
     2
  5
841
 10
400.675131
 20
94.902142
 30
0.0
  0
VERTEX
  8
1
  6
CONTINUOUS
 62
     2
  5
842
 10
400.709417
 20
94.882917
 30
0.0
  0
VERTEX
  8
1
  6
CONTINUOUS
 62
     2
  5
843
 10
401.050388
 20
94.808145
 30
0.0
  0
VERTEX
  8
1
  6
CONTINUOUS
 62
     2
  5
844
 10
401.223333
 20
94.789417
 30
0.0
  0
VERTEX
  8
1
  6
CONTINUOUS
 62
     2
  5
845
 10
401.425833
 20
94.789417
 30
0.0
  0
VERTEX
  8
1
  6
CONTINUOUS
 62
     2
  5
846
 10
401.613342
 20
94.77949
 30
0.0
  0
VERTEX
  8
1
  6
CONTINUOUS
 62
     2
  5
847
 10
401.703761
 20
94.762129
 30
0.0
  0
VERTEX
  8
1
  6
CONTINUOUS
 62
     2
  5
848
 10
401.78245
 20
94.724845
 30
0.0
  0
VERTEX
  8
1
  6
CONTINUOUS
 62
     2
  5
849
 10
401.815167
 20
94.696
 30
0.0
  0
VERTEX
  8
1
  6
CONTINUOUS
 62
     2
  5
84A
 10
402.015167
 20
94.477833
 30
0.0
  0
SEQEND
  8
1
  6
CONTINUOUS
 62
     2
  5
84B
  0
LINE
  8
1
  6
CONTINUOUS
 62
     2
  5
84C
 10
401.765167
 20
75.475167
 30
0.0
 11
409.015167
 21
75.475167
 31
0.0
  0
LINE
  8
1
  6
CONTINUOUS
 62
     2
  5
84D
 10
401.765167
 20
76.975167
 30
0.0
 11
409.015167
 21
76.975167
 31
0.0
  0
LINE
  8
1
  6
CONTINUOUS
 62
     2
  5
84E
 10
401.765167
 20
76.975167
 30
0.0
 11
401.765167
 21
75.475167
 31
0.0
  0
LINE
  8
1
  6
CONTINUOUS
 62
     2
  5
84F
 10
409.015167
 20
76.975167
 30
0.0
 11
409.015167
 21
75.475167
 31
0.0
  0
LINE
  8
1
  6
CONTINUOUS
 62
     2
  5
850
 10
404.390167
 20
76.975167
 30
0.0
 11
404.390167
 21
77.975167
 31
0.0
  0
LINE
  8
1
  6
CONTINUOUS
 62
     2
  5
851
 10
406.390167
 20
76.975167
 30
0.0
 11
406.390167
 21
77.975167
 31
0.0
  0
LINE
  8
1
  6
CONTINUOUS
 62
     2
  5
852
 10
404.390167
 20
77.975167
 30
0.0
 11
406.390167
 21
77.975167
 31
0.0
  0
LINE
  8
1
  6
CONTINUOUS
 62
     2
  5
853
 10
404.015167
 20
70.975167
 30
0.0
 11
406.765167
 21
70.975167
 31
0.0
  0
LINE
  8
1
  6
CONTINUOUS
 62
     2
  5
854
 10
404.265167
 20
72.725167
 30
0.0
 11
406.515167
 21
72.725167
 31
0.0
  0
LINE
  8
1
  6
CONTINUOUS
 62
     2
  5
855
 10
404.015167
 20
72.475167
 30
0.0
 11
406.765167
 21
72.475167
 31
0.0
  0
LINE
  8
1
  6
CONTINUOUS
 62
     2
  5
856
 10
404.015167
 20
72.475167
 30
0.0
 11
404.265167
 21
72.725167
 31
0.0
  0
LINE
  8
1
  6
CONTINUOUS
 62
     2
  5
857
 10
406.515167
 20
72.725167
 30
0.0
 11
406.765167
 21
72.475167
 31
0.0
  0
LINE
  8
1
  6
CONTINUOUS
 62
     2
  5
858
 10
404.015167
 20
70.975167
 30
0.0
 11
404.015167
 21
72.475167
 31
0.0
  0
LINE
  8
1
  6
CONTINUOUS
 62
     2
  5
859
 10
406.765167
 20
70.975167
 30
0.0
 11
406.765167
 21
72.475167
 31
0.0
  0
LINE
  8
1
  6
CONTINUOUS
 62
     2
  5
85A
 10
406.015167
 20
70.975167
 30
0.0
 11
406.015167
 21
72.475167
 31
0.0
  0
LINE
  8
1
  6
CONTINUOUS
 62
     2
  5
85B
 10
404.765167
 20
70.975167
 30
0.0
 11
404.765167
 21
72.475167
 31
0.0
  0
LINE
  8
1
  6
CONTINUOUS
 62
     2
  5
85C
 10
403.765167
 20
70.725167
 30
0.0
 11
407.015167
 21
70.725167
 31
0.0
  0
LINE
  8
1
  6
CONTINUOUS
 62
     2
  5
85D
 10
403.765167
 20
70.225167
 30
0.0
 11
407.015167
 21
70.225167
 31
0.0
  0
LINE
  8
1
  6
CONTINUOUS
 62
     2
  5
85E
 10
453.265167
 20
89.975167
 30
0.0
 11
453.265167
 21
60.975167
 31
0.0
  0
LINE
  8
1
  6
CONTINUOUS
 62
     2
  5
85F
 10
453.765167
 20
60.475167
 30
0.0
 11
439.265167
 21
60.475167
 31
0.0
  0
LINE
  8
1
  6
CONTINUOUS
 62
     2
  5
860
 10
439.265167
 20
60.475167
 30
0.0
 11
411.515167
 21
60.475167
 31
0.0
  0
LINE
  8
1
  6
CONTINUOUS
 62
     2
  5
861
 10
453.265167
 20
60.975167
 30
0.0
 11
443.015167
 21
60.975167
 31
0.0
  0
LINE
  8
1
  6
CONTINUOUS
 62
     2
  5
862
 10
443.015167
 20
60.475167
 30
0.0
 11
443.015167
 21
59.475167
 31
0.0
  0
LINE
  8
1
  6
CONTINUOUS
 62
     2
  5
863
 10
435.515167
 20
60.475167
 30
0.0
 11
435.515167
 21
59.475167
 31
0.0
  0
LINE
  8
1
  6
CONTINUOUS
 62
     2
  5
864
 10
443.015167
 20
59.475167
 30
0.0
 11
435.515167
 21
59.475167
 31
0.0
  0
LINE
  8
1
  6
CONTINUOUS
 62
     2
  5
865
 10
407.015167
 20
70.725167
 30
0.0
 11
440.015167
 21
70.725167
 31
0.0
  0
LINE
  8
1
  6
CONTINUOUS
 62
     2
  5
866
 10
407.015167
 20
70.225167
 30
0.0
 11
440.015167
 21
70.225167
 31
0.0
  0
LINE
  8
1
  6
CONTINUOUS
 62
     2
  5
867
 10
407.015167
 20
75.237583
 30
0.0
 11
439.765167
 21
75.237583
 31
0.0
  0
LINE
  8
1
  6
CONTINUOUS
 62
     2
  5
868
 10
407.015167
 20
73.737583
 30
0.0
 11
439.765167
 21
73.737583
 31
0.0
  0
LINE
  8
1
  6
CONTINUOUS
 62
     2
  5
869
 10
439.265167
 20
60.975167
 30
0.0
 11
443.015167
 21
60.975167
 31
0.0
  0
LINE
  8
1
  6
CONTINUOUS
 62
     2
  5
86A
 10
439.765167
 20
64.475167
 30
0.0
 11
443.015167
 21
64.475167
 31
0.0
  0
LINE
  8
1
  6
CONTINUOUS
 62
     2
  5
86B
 10
440.265167
 20
63.975167
 30
0.0
 11
439.765167
 21
64.475167
 31
0.0
  0
LINE
  8
1
  6
CONTINUOUS
 62
     2
  5
86C
 10
442.515167
 20
63.975167
 30
0.0
 11
443.015167
 21
64.475167
 31
0.0
  0
LINE
  8
1
  6
CONTINUOUS
 62
     2
  5
86D
 10
439.765167
 20
64.975167
 30
0.0
 11
443.015167
 21
64.975167
 31
0.0
  0
LINE
  8
1
  6
CONTINUOUS
 62
     2
  5
86E
 10
439.765167
 20
65.475167
 30
0.0
 11
443.015167
 21
65.475167
 31
0.0
  0
LINE
  8
1
  6
CONTINUOUS
 62
     2
  5
86F
 10
439.765167
 20
64.475167
 30
0.0
 11
439.765167
 21
75.475167
 31
0.0
  0
LINE
  8
1
  6
CONTINUOUS
 62
     2
  5
870
 10
443.015167
 20
64.475167
 30
0.0
 11
443.015167
 21
75.475167
 31
0.0
  0
LINE
  8
1
  6
CONTINUOUS
 62
     2
  5
871
 10
440.265167
 20
65.475167
 30
0.0
 11
440.265167
 21
68.475167
 31
0.0
  0
LINE
  8
1
  6
CONTINUOUS
 62
     2
  5
872
 10
442.515167
 20
65.475167
 30
0.0
 11
442.515167
 21
68.475167
 31
0.0
  0
LINE
  8
1
  6
CONTINUOUS
 62
     2
  5
873
 10
440.265167
 20
68.475167
 30
0.0
 11
442.515167
 21
68.475167
 31
0.0
  0
LINE
  8
1
  6
CONTINUOUS
 62
     2
  5
874
 10
440.265167
 20
67.675167
 30
0.0
 11
442.515167
 21
67.675167
 31
0.0
  0
LINE
  8
1
  6
CONTINUOUS
 62
     2
  5
875
 10
440.265167
 20
66.875167
 30
0.0
 11
442.515167
 21
66.875167
 31
0.0
  0
LINE
  8
1
  6
CONTINUOUS
 62
     2
  5
876
 10
440.265167
 20
66.075167
 30
0.0
 11
442.515167
 21
66.075167
 31
0.0
  0
LINE
  8
1
  6
CONTINUOUS
 62
     2
  5
877
 10
440.890167
 20
68.075167
 30
0.0
 11
441.890167
 21
68.075167
 31
0.0
  0
LINE
  8
1
  6
CONTINUOUS
 62
     2
  5
878
 10
440.890167
 20
67.275167
 30
0.0
 11
441.890167
 21
67.275167
 31
0.0
  0
LINE
  8
1
  6
CONTINUOUS
 62
     2
  5
879
 10
440.890167
 20
66.475167
 30
0.0
 11
441.890167
 21
66.475167
 31
0.0
  0
LINE
  8
1
  6
CONTINUOUS
 62
     2
  5
87A
 10
440.890167
 20
68.875167
 30
0.0
 11
441.890167
 21
68.875167
 31
0.0
  0
LINE
  8
1
  6
CONTINUOUS
 62
     2
  5
87B
 10
437.765167
 20
75.475167
 30
0.0
 11
445.015167
 21
75.475167
 31
0.0
  0
LINE
  8
1
  6
CONTINUOUS
 62
     2
  5
87C
 10
437.765167
 20
76.975167
 30
0.0
 11
445.015167
 21
76.975167
 31
0.0
  0
LINE
  8
1
  6
CONTINUOUS
 62
     2
  5
87D
 10
437.765167
 20
76.975167
 30
0.0
 11
437.765167
 21
75.475167
 31
0.0
  0
LINE
  8
1
  6
CONTINUOUS
 62
     2
  5
87E
 10
445.015167
 20
76.975167
 30
0.0
 11
445.015167
 21
75.475167
 31
0.0
  0
LINE
  8
1
  6
CONTINUOUS
 62
     2
  5
87F
 10
440.390167
 20
76.975167
 30
0.0
 11
440.390167
 21
77.975167
 31
0.0
  0
LINE
  8
1
  6
CONTINUOUS
 62
     2
  5
880
 10
442.390167
 20
76.975167
 30
0.0
 11
442.390167
 21
77.975167
 31
0.0
  0
LINE
  8
1
  6
CONTINUOUS
 62
     2
  5
881
 10
440.390167
 20
77.975167
 30
0.0
 11
442.390167
 21
77.975167
 31
0.0
  0
LINE
  8
1
  6
CONTINUOUS
 62
     2
  5
882
 10
440.015167
 20
70.975167
 30
0.0
 11
442.765167
 21
70.975167
 31
0.0
  0
LINE
  8
1
  6
CONTINUOUS
 62
     2
  5
883
 10
440.265167
 20
72.725167
 30
0.0
 11
442.515167
 21
72.725167
 31
0.0
  0
LINE
  8
1
  6
CONTINUOUS
 62
     2
  5
884
 10
440.015167
 20
72.475167
 30
0.0
 11
442.765167
 21
72.475167
 31
0.0
  0
LINE
  8
1
  6
CONTINUOUS
 62
     2
  5
885
 10
440.015167
 20
72.475167
 30
0.0
 11
440.265167
 21
72.725167
 31
0.0
  0
LINE
  8
1
  6
CONTINUOUS
 62
     2
  5
886
 10
442.515167
 20
72.725167
 30
0.0
 11
442.765167
 21
72.475167
 31
0.0
  0
LINE
  8
1
  6
CONTINUOUS
 62
     2
  5
887
 10
440.015167
 20
70.975167
 30
0.0
 11
440.015167
 21
72.475167
 31
0.0
  0
LINE
  8
1
  6
CONTINUOUS
 62
     2
  5
888
 10
442.765167
 20
70.975167
 30
0.0
 11
442.765167
 21
72.475167
 31
0.0
  0
LINE
  8
1
  6
CONTINUOUS
 62
     2
  5
889
 10
442.015167
 20
70.975167
 30
0.0
 11
442.015167
 21
72.475167
 31
0.0
  0
LINE
  8
1
  6
CONTINUOUS
 62
     2
  5
88A
 10
440.765167
 20
70.975167
 30
0.0
 11
440.765167
 21
72.475167
 31
0.0
  0
LINE
  8
1
  6
CONTINUOUS
 62
     2
  5
88B
 10
439.765167
 20
70.725167
 30
0.0
 11
443.015167
 21
70.725167
 31
0.0
  0
LINE
  8
1
  6
CONTINUOUS
 62
     2
  5
88C
 10
439.765167
 20
70.225167
 30
0.0
 11
443.015167
 21
70.225167
 31
0.0
  0
POLYLINE
  8
1
  6
CONTINUOUS
 62
     2
  5
88D
 66
     1
 10
0.0
 20
0.0
 30
0.0
 70
     1
  0
VERTEX
  8
1
  6
CONTINUOUS
 62
     2
  5
88E
 10
438.265167
 20
60.475167
 30
0.0
  0
VERTEX
  8
1
  6
CONTINUOUS
 62
     2
  5
88F
 10
439.265167
 20
61.475167
 30
0.0
  0
VERTEX
  8
1
  6
CONTINUOUS
 62
     2
  5
890
 10
439.265167
 20
60.475167
 30
0.0
  0
VERTEX
  8
1
  6
CONTINUOUS
 62
     2
  5
891
 10
438.265167
 20
60.475167
 30
0.0
  0
SEQEND
  8
1
  6
CONTINUOUS
 62
     2
  5
892
  0
LINE
  8
1
  6
CONTINUOUS
 62
     2
  5
893
 10
438.265167
 20
60.475167
 30
0.0
 11
440.265167
 21
62.475167
 31
0.0
  0
LINE
  8
1
  6
CONTINUOUS
 62
     2
  5
894
 10
439.265167
 20
61.475167
 30
0.0
 11
438.265167
 21
60.475167
 31
0.0
  0
LINE
  8
1
  6
CONTINUOUS
 62
     2
  5
895
 10
440.265167
 20
63.975167
 30
0.0
 11
440.265167
 21
61.475167
 31
0.0
  0
POLYLINE
  8
1
  6
CONTINUOUS
 62
     2
  5
896
 66
     1
 10
0.0
 20
0.0
 30
0.0
 70
     1
  0
VERTEX
  8
1
  6
CONTINUOUS
 62
     2
  5
897
 10
440.265167
 20
61.475167
 30
0.0
  0
VERTEX
  8
1
  6
CONTINUOUS
 62
     2
  5
898
 10
439.265167
 20
61.475167
 30
0.0
  0
VERTEX
  8
1
  6
CONTINUOUS
 62
     2
  5
899
 10
440.265167
 20
62.475167
 30
0.0
  0
VERTEX
  8
1
  6
CONTINUOUS
 62
     2
  5
89A
 10
440.265167
 20
61.475167
 30
0.0
  0
SEQEND
  8
1
  6
CONTINUOUS
 62
     2
  5
89B
  0
LINE
  8
1
  6
CONTINUOUS
 62
     2
  5
89C
 10
443.015167
 20
61.475167
 30
0.0
 11
443.015167
 21
60.475167
 31
0.0
  0
LINE
  8
1
  6
CONTINUOUS
 62
     2
  5
89D
 10
443.015167
 20
60.475167
 30
0.0
 11
443.015167
 21
60.94525
 31
0.0
  0
LINE
  8
1
  6
CONTINUOUS
 62
     2
  5
89E
 10
443.015167
 20
61.01275
 30
0.0
 11
443.015167
 21
61.475167
 31
0.0
  0
POLYLINE
  8
1
  6
CONTINUOUS
 62
     2
  5
89F
 66
     1
 10
0.0
 20
0.0
 30
0.0
 70
     1
  0
VERTEX
  8
1
  6
CONTINUOUS
 62
     2
  5
8A0
 10
443.015167
 20
60.975167
 30
0.0
  0
VERTEX
  8
1
  6
CONTINUOUS
 62
     2
  5
8A1
 10
443.015167
 20
61.475167
 30
0.0
  0
VERTEX
  8
1
  6
CONTINUOUS
 62
     2
  5
8A2
 10
443.515167
 20
60.975167
 30
0.0
  0
VERTEX
  8
1
  6
CONTINUOUS
 62
     2
  5
8A3
 10
443.015167
 20
60.975167
 30
0.0
  0
SEQEND
  8
1
  6
CONTINUOUS
 62
     2
  5
8A4
  0
LINE
  8
1
  6
CONTINUOUS
 62
     2
  5
8A5
 10
443.015167
 20
61.475167
 30
0.0
 11
443.515167
 21
60.975167
 31
0.0
  0
LINE
  8
1
  6
CONTINUOUS
 62
     2
  5
8A6
 10
442.515167
 20
63.975167
 30
0.0
 11
442.515167
 21
61.475167
 31
0.0
  0
LINE
  8
1
  6
CONTINUOUS
 62
     2
  5
8A7
 10
439.265167
 20
61.475167
 30
0.0
 11
443.015167
 21
61.475167
 31
0.0
  0
POLYLINE
  8
1
  6
CONTINUOUS
 62
     2
  5
8A8
 66
     1
 10
0.0
 20
0.0
 30
0.0
 70
     1
  0
VERTEX
  8
1
  6
CONTINUOUS
 62
     2
  5
8A9
 10
442.515167
 20
61.475167
 30
0.0
  0
VERTEX
  8
1
  6
CONTINUOUS
 62
     2
  5
8AA
 10
442.515167
 20
61.975167
 30
0.0
  0
VERTEX
  8
1
  6
CONTINUOUS
 62
     2
  5
8AB
 10
443.015167
 20
61.475167
 30
0.0
  0
VERTEX
  8
1
  6
CONTINUOUS
 62
     2
  5
8AC
 10
442.515167
 20
61.475167
 30
0.0
  0
SEQEND
  8
1
  6
CONTINUOUS
 62
     2
  5
8AD
  0
LINE
  8
1
  6
CONTINUOUS
 62
     2
  5
8AE
 10
442.515167
 20
61.975167
 30
0.0
 11
443.015167
 21
61.475167
 31
0.0
  0
LINE
  8
1
  6
CONTINUOUS
 62
     2
  5
8AF
 10
445.265167
 20
95.975167
 30
0.0
 11
445.265167
 21
94.477833
 31
0.0
  0
LINE
  8
1
  6
CONTINUOUS
 62
     2
  5
8B0
 10
402.765167
 20
95.975167
 30
0.0
 11
402.765167
 21
94.477833
 31
0.0
  0
LINE
  8
1
  6
CONTINUOUS
 62
     2
  5
8B1
 10
453.265167
 20
89.975167
 30
0.0
 11
446.765167
 21
89.975167
 31
0.0
  0
LINE
  8
1
  6
CONTINUOUS
 62
     2
  5
8B2
 10
453.765167
 20
90.475167
 30
0.0
 11
447.265167
 21
90.475167
 31
0.0
  0
LINE
  8
1
  6
CONTINUOUS
 62
     2
  5
8B3
 10
453.765167
 20
90.975167
 30
0.0
 11
447.265167
 21
90.975167
 31
0.0
  0
LINE
  8
1
  6
CONTINUOUS
 62
     2
  5
8B4
 10
446.765167
 20
89.975167
 30
0.0
 11
446.765167
 21
94.975167
 31
0.0
  0
LINE
  8
1
  6
CONTINUOUS
 62
     2
  5
8B5
 10
446.765167
 20
94.975167
 30
0.0
 11
447.265167
 21
94.975167
 31
0.0
  0
LINE
  8
1
  6
CONTINUOUS
 62
     2
  5
8B6
 10
447.265167
 20
94.975167
 30
0.0
 11
447.265167
 21
89.975167
 31
0.0
  0
LINE
  8
1
  6
CONTINUOUS
 62
     2
  5
8B7
 10
447.265167
 20
94.56225
 30
0.0
 11
447.765167
 21
94.56225
 31
0.0
  0
LINE
  8
1
  6
CONTINUOUS
 62
     2
  5
8B8
 10
447.265167
 20
94.06225
 30
0.0
 11
447.765167
 21
94.06225
 31
0.0
  0
LINE
  8
1
  6
CONTINUOUS
 62
     2
  5
8B9
 10
447.765167
 20
94.56225
 30
0.0
 11
447.765167
 21
94.06225
 31
0.0
  0
LINE
  8
1
  6
CONTINUOUS
 62
     2
  5
8BA
 10
449.265167
 20
91.475167
 30
0.0
 11
450.015167
 21
91.475167
 31
0.0
  0
LINE
  8
1
  6
CONTINUOUS
 62
     2
  5
8BB
 10
450.015167
 20
91.475167
 30
0.0
 11
450.015167
 21
93.975167
 31
0.0
  0
LINE
  8
1
  6
CONTINUOUS
 62
     2
  5
8BC
 10
450.015167
 20
93.975167
 30
0.0
 11
454.015167
 21
93.975167
 31
0.0
  0
LINE
  8
1
  6
CONTINUOUS
 62
     2
  5
8BD
 10
454.015167
 20
93.975167
 30
0.0
 11
454.015167
 21
90.975167
 31
0.0
  0
LINE
  8
1
  6
CONTINUOUS
 62
     2
  5
8BE
 10
454.015167
 20
90.975167
 30
0.0
 11
454.515167
 21
90.975167
 31
0.0
  0
LINE
  8
1
  6
CONTINUOUS
 62
     2
  5
8BF
 10
454.515167
 20
90.975167
 30
0.0
 11
454.515167
 21
94.475167
 31
0.0
  0
LINE
  8
1
  6
CONTINUOUS
 62
     2
  5
8C0
 10
454.515167
 20
94.475167
 30
0.0
 11
449.265167
 21
94.475167
 31
0.0
  0
LINE
  8
1
  6
CONTINUOUS
 62
     2
  5
8C1
 10
450.515167
 20
90.975167
 30
0.0
 11
450.515167
 21
93.475167
 31
0.0
  0
LINE
  8
1
  6
CONTINUOUS
 62
     2
  5
8C2
 10
450.515167
 20
93.475167
 30
0.0
 11
453.015167
 21
93.475167
 31
0.0
  0
LINE
  8
1
  6
CONTINUOUS
 62
     2
  5
8C3
 10
450.515167
 20
92.975167
 30
0.0
 11
453.765167
 21
92.975167
 31
0.0
  0
LINE
  8
1
  6
CONTINUOUS
 62
     2
  5
8C4
 10
453.515167
 20
94.975167
 30
0.0
 11
450.265167
 21
94.975167
 31
0.0
  0
LINE
  8
1
  6
CONTINUOUS
 62
     2
  5
8C5
 10
450.265167
 20
94.975167
 30
0.0
 11
450.265167
 21
94.475167
 31
0.0
  0
LINE
  8
1
  6
CONTINUOUS
 62
     2
  5
8C6
 10
453.515167
 20
94.975167
 30
0.0
 11
453.515167
 21
94.475167
 31
0.0
  0
LINE
  8
1
  6
CONTINUOUS
 62
     2
  5
8C7
 10
450.765167
 20
94.975167
 30
0.0
 11
450.765167
 21
95.975167
 31
0.0
  0
LINE
  8
1
  6
CONTINUOUS
 62
     2
  5
8C8
 10
453.015167
 20
94.975167
 30
0.0
 11
453.015167
 21
95.975167
 31
0.0
  0
LINE
  8
1
  6
CONTINUOUS
 62
     2
  5
8C9
 10
450.765167
 20
95.975167
 30
0.0
 11
451.640167
 21
95.975167
 31
0.0
  0
LINE
  8
1
  6
CONTINUOUS
 62
     2
  5
8CA
 10
453.015167
 20
95.975167
 30
0.0
 11
452.140167
 21
95.975167
 31
0.0
  0
LINE
  8
1
  6
CONTINUOUS
 62
     2
  5
8CB
 10
451.640167
 20
95.475167
 30
0.0
 11
452.140167
 21
95.475167
 31
0.0
  0
LINE
  8
1
  6
CONTINUOUS
 62
     2
  5
8CC
 10
451.640167
 20
95.975167
 30
0.0
 11
451.640167
 21
95.475167
 31
0.0
  0
LINE
  8
1
  6
CONTINUOUS
 62
     2
  5
8CD
 10
452.140167
 20
95.975167
 30
0.0
 11
452.140167
 21
95.475167
 31
0.0
  0
LINE
  8
1
  6
CONTINUOUS
 62
     2
  5
8CE
 10
451.202667
 20
95.975167
 30
0.0
 11
451.202667
 21
94.975167
 31
0.0
  0
LINE
  8
1
  6
CONTINUOUS
 62
     2
  5
8CF
 10
452.577667
 20
95.975167
 30
0.0
 11
452.577667
 21
94.975167
 31
0.0
  0
LINE
  8
1
  6
CONTINUOUS
 62
     2
  5
8D0
 10
392.515167
 20
82.975167
 30
0.0
 11
392.515167
 21
67.975167
 31
0.0
  0
LINE
  8
1
  6
CONTINUOUS
 62
     2
  5
8D1
 10
392.515167
 20
82.975167
 30
0.0
 11
393.265167
 21
82.975167
 31
0.0
  0
LINE
  8
1
  6
CONTINUOUS
 62
     2
  5
8D2
 10
392.515167
 20
67.975167
 30
0.0
 11
393.265167
 21
67.975167
 31
0.0
  0
LINE
  8
1
  6
CONTINUOUS
 62
     2
  5
8D3
 10
392.515167
 20
81.475167
 30
0.0
 11
392.015167
 21
81.475167
 31
0.0
  0
LINE
  8
1
  6
CONTINUOUS
 62
     2
  5
8D4
 10
392.515167
 20
80.475167
 30
0.0
 11
392.015167
 21
80.475167
 31
0.0
  0
LINE
  8
1
  6
CONTINUOUS
 62
     2
  5
8D5
 10
392.515167
 20
69.475167
 30
0.0
 11
392.015167
 21
69.475167
 31
0.0
  0
LINE
  8
1
  6
CONTINUOUS
 62
     2
  5
8D6
 10
392.515167
 20
70.475167
 30
0.0
 11
392.015167
 21
70.475167
 31
0.0
  0
LINE
  8
1
  6
CONTINUOUS
 62
     2
  5
8D7
 10
392.015167
 20
81.475167
 30
0.0
 11
392.015167
 21
80.475167
 31
0.0
  0
LINE
  8
1
  6
CONTINUOUS
 62
     2
  5
8D8
 10
392.015167
 20
70.475167
 30
0.0
 11
392.015167
 21
69.475167
 31
0.0
  0
LINE
  8
1
  6
CONTINUOUS
 62
     2
  5
8D9
 10
392.515167
 20
78.975167
 30
0.0
 11
386.515167
 21
78.975167
 31
0.0
  0
LINE
  8
1
  6
CONTINUOUS
 62
     2
  5
8DA
 10
392.515167
 20
71.975167
 30
0.0
 11
386.515167
 21
71.975167
 31
0.0
  0
LINE
  8
1
  6
CONTINUOUS
 62
     2
  5
8DB
 10
386.515167
 20
78.975167
 30
0.0
 11
386.515167
 21
71.975167
 31
0.0
  0
LINE
  8
1
  6
CONTINUOUS
 62
     2
  5
8DC
 10
460.515167
 20
78.975167
 30
0.0
 11
460.515167
 21
71.975167
 31
0.0
  0
LINE
  8
1
  6
CONTINUOUS
 62
     2
  5
8DD
 10
454.515167
 20
82.975167
 30
0.0
 11
454.515167
 21
67.975167
 31
0.0
  0
LINE
  8
1
  6
CONTINUOUS
 62
     2
  5
8DE
 10
454.515167
 20
82.975167
 30
0.0
 11
453.765167
 21
82.975167
 31
0.0
  0
LINE
  8
1
  6
CONTINUOUS
 62
     2
  5
8DF
 10
454.515167
 20
67.975167
 30
0.0
 11
453.765167
 21
67.975167
 31
0.0
  0
LINE
  8
1
  6
CONTINUOUS
 62
     2
  5
8E0
 10
454.515167
 20
81.475167
 30
0.0
 11
455.015167
 21
81.475167
 31
0.0
  0
LINE
  8
1
  6
CONTINUOUS
 62
     2
  5
8E1
 10
454.515167
 20
80.475167
 30
0.0
 11
455.015167
 21
80.475167
 31
0.0
  0
LINE
  8
1
  6
CONTINUOUS
 62
     2
  5
8E2
 10
454.515167
 20
69.475167
 30
0.0
 11
455.015167
 21
69.475167
 31
0.0
  0
LINE
  8
1
  6
CONTINUOUS
 62
     2
  5
8E3
 10
454.515167
 20
70.475167
 30
0.0
 11
455.015167
 21
70.475167
 31
0.0
  0
LINE
  8
1
  6
CONTINUOUS
 62
     2
  5
8E4
 10
455.015167
 20
81.475167
 30
0.0
 11
455.015167
 21
80.475167
 31
0.0
  0
LINE
  8
1
  6
CONTINUOUS
 62
     2
  5
8E5
 10
455.015167
 20
70.475167
 30
0.0
 11
455.015167
 21
69.475167
 31
0.0
  0
LINE
  8
1
  6
CONTINUOUS
 62
     2
  5
8E6
 10
454.515167
 20
78.975167
 30
0.0
 11
460.515167
 21
78.975167
 31
0.0
  0
LINE
  8
1
  6
CONTINUOUS
 62
     2
  5
8E7
 10
454.515167
 20
71.975167
 30
0.0
 11
460.515167
 21
71.975167
 31
0.0
  0
LINE
  8
1
  6
CONTINUOUS
 62
     2
  5
8E8
 10
453.765167
 20
92.975167
 30
0.0
 11
453.765167
 21
82.975167
 31
0.0
  0
LINE
  8
1
  6
CONTINUOUS
 62
     2
  5
8E9
 10
453.765167
 20
82.975167
 30
0.0
 11
453.765167
 21
67.975167
 31
0.0
  0
LINE
  8
1
  6
CONTINUOUS
 62
     2
  5
8EA
 10
453.765167
 20
67.975167
 30
0.0
 11
453.765167
 21
60.475167
 31
0.0
  0
LINE
  8
1
  6
CONTINUOUS
 62
     2
  5
8EB
 10
399.515167
 20
96.475167
 30
0.0
 11
399.515167
 21
95.975167
 31
0.0
  0
LINE
  8
1
  6
CONTINUOUS
 62
     2
  5
8EC
 10
400.765167
 20
96.475167
 30
0.0
 11
400.765167
 21
95.975167
 31
0.0
  0
LINE
  8
1
  6
CONTINUOUS
 62
     2
  5
8ED
 10
402.015167
 20
96.475167
 30
0.0
 11
402.015167
 21
95.975167
 31
0.0
  0
LINE
  8
1
  6
CONTINUOUS
 62
     2
  5
8EE
 10
403.265167
 20
96.475167
 30
0.0
 11
403.265167
 21
95.975167
 31
0.0
  0
LINE
  8
1
  6
CONTINUOUS
 62
     2
  5
8EF
 10
404.515167
 20
96.475167
 30
0.0
 11
404.515167
 21
95.975167
 31
0.0
  0
LINE
  8
1
  6
CONTINUOUS
 62
     2
  5
8F0
 10
405.765167
 20
96.475167
 30
0.0
 11
405.765167
 21
95.975167
 31
0.0
  0
LINE
  8
1
  6
CONTINUOUS
 62
     2
  5
8F1
 10
407.015167
 20
96.475167
 30
0.0
 11
407.015167
 21
95.975167
 31
0.0
  0
LINE
  8
1
  6
CONTINUOUS
 62
     2
  5
8F2
 10
408.265167
 20
96.475167
 30
0.0
 11
408.265167
 21
95.975167
 31
0.0
  0
LINE
  8
1
  6
CONTINUOUS
 62
     2
  5
8F3
 10
409.515167
 20
96.475167
 30
0.0
 11
409.515167
 21
95.975167
 31
0.0
  0
LINE
  8
1
  6
CONTINUOUS
 62
     2
  5
8F4
 10
410.765167
 20
96.475167
 30
0.0
 11
410.765167
 21
95.975167
 31
0.0
  0
LINE
  8
1
  6
CONTINUOUS
 62
     2
  5
8F5
 10
412.015167
 20
96.475167
 30
0.0
 11
412.015167
 21
95.975167
 31
0.0
  0
LINE
  8
1
  6
CONTINUOUS
 62
     2
  5
8F6
 10
413.265167
 20
96.475167
 30
0.0
 11
413.265167
 21
95.975167
 31
0.0
  0
LINE
  8
1
  6
CONTINUOUS
 62
     2
  5
8F7
 10
414.515167
 20
96.475167
 30
0.0
 11
414.515167
 21
95.975167
 31
0.0
  0
LINE
  8
1
  6
CONTINUOUS
 62
     2
  5
8F8
 10
415.765167
 20
96.475167
 30
0.0
 11
415.765167
 21
95.975167
 31
0.0
  0
LINE
  8
1
  6
CONTINUOUS
 62
     2
  5
8F9
 10
417.015167
 20
96.475167
 30
0.0
 11
417.015167
 21
95.975167
 31
0.0
  0
LINE
  8
1
  6
CONTINUOUS
 62
     2
  5
8FA
 10
418.265167
 20
96.475167
 30
0.0
 11
418.265167
 21
95.975167
 31
0.0
  0
LINE
  8
1
  6
CONTINUOUS
 62
     2
  5
8FB
 10
419.515167
 20
96.475167
 30
0.0
 11
419.515167
 21
95.975167
 31
0.0
  0
LINE
  8
1
  6
CONTINUOUS
 62
     2
  5
8FC
 10
420.765167
 20
96.475167
 30
0.0
 11
420.765167
 21
95.975167
 31
0.0
  0
LINE
  8
1
  6
CONTINUOUS
 62
     2
  5
8FD
 10
422.015167
 20
96.475167
 30
0.0
 11
422.015167
 21
95.975167
 31
0.0
  0
LINE
  8
1
  6
CONTINUOUS
 62
     2
  5
8FE
 10
423.265167
 20
96.475167
 30
0.0
 11
423.265167
 21
95.975167
 31
0.0
  0
LINE
  8
1
  6
CONTINUOUS
 62
     2
  5
8FF
 10
424.515167
 20
96.475167
 30
0.0
 11
424.515167
 21
95.975167
 31
0.0
  0
LINE
  8
1
  6
CONTINUOUS
 62
     2
  5
900
 10
425.765167
 20
96.475167
 30
0.0
 11
425.765167
 21
95.975167
 31
0.0
  0
LINE
  8
1
  6
CONTINUOUS
 62
     2
  5
901
 10
427.015167
 20
96.475167
 30
0.0
 11
427.015167
 21
95.975167
 31
0.0
  0
LINE
  8
1
  6
CONTINUOUS
 62
     2
  5
902
 10
428.265167
 20
96.475167
 30
0.0
 11
428.265167
 21
95.975167
 31
0.0
  0
LINE
  8
1
  6
CONTINUOUS
 62
     2
  5
903
 10
429.515167
 20
96.475167
 30
0.0
 11
429.515167
 21
95.975167
 31
0.0
  0
LINE
  8
1
  6
CONTINUOUS
 62
     2
  5
904
 10
430.765167
 20
96.475167
 30
0.0
 11
430.765167
 21
95.975167
 31
0.0
  0
LINE
  8
1
  6
CONTINUOUS
 62
     2
  5
905
 10
432.015167
 20
96.475167
 30
0.0
 11
432.015167
 21
95.975167
 31
0.0
  0
LINE
  8
1
  6
CONTINUOUS
 62
     2
  5
906
 10
433.265167
 20
96.475167
 30
0.0
 11
433.265167
 21
95.975167
 31
0.0
  0
LINE
  8
1
  6
CONTINUOUS
 62
     2
  5
907
 10
434.515167
 20
96.475167
 30
0.0
 11
434.515167
 21
95.975167
 31
0.0
  0
LINE
  8
1
  6
CONTINUOUS
 62
     2
  5
908
 10
435.765167
 20
96.475167
 30
0.0
 11
435.765167
 21
95.975167
 31
0.0
  0
LINE
  8
1
  6
CONTINUOUS
 62
     2
  5
909
 10
437.015167
 20
96.475167
 30
0.0
 11
437.015167
 21
95.975167
 31
0.0
  0
LINE
  8
1
  6
CONTINUOUS
 62
     2
  5
90A
 10
438.265167
 20
96.475167
 30
0.0
 11
438.265167
 21
95.975167
 31
0.0
  0
LINE
  8
1
  6
CONTINUOUS
 62
     2
  5
90B
 10
439.515167
 20
96.475167
 30
0.0
 11
439.515167
 21
95.975167
 31
0.0
  0
LINE
  8
1
  6
CONTINUOUS
 62
     2
  5
90C
 10
440.765167
 20
96.475167
 30
0.0
 11
440.765167
 21
95.975167
 31
0.0
  0
LINE
  8
1
  6
CONTINUOUS
 62
     2
  5
90D
 10
442.015167
 20
96.475167
 30
0.0
 11
442.015167
 21
95.975167
 31
0.0
  0
LINE
  8
1
  6
CONTINUOUS
 62
     2
  5
90E
 10
443.265167
 20
96.475167
 30
0.0
 11
443.265167
 21
95.975167
 31
0.0
  0
LINE
  8
1
  6
CONTINUOUS
 62
     2
  5
90F
 10
444.515167
 20
96.475167
 30
0.0
 11
444.515167
 21
95.975167
 31
0.0
  0
LINE
  8
1
  6
CONTINUOUS
 62
     2
  5
910
 10
445.765167
 20
96.475167
 30
0.0
 11
445.765167
 21
95.975167
 31
0.0
  0
LINE
  8
1
  6
CONTINUOUS
 62
     2
  5
911
 10
447.015167
 20
96.475167
 30
0.0
 11
447.015167
 21
95.975167
 31
0.0
  0
LINE
  8
1
  6
CONTINUOUS
 62
     2
  5
912
 10
448.265167
 20
96.475167
 30
0.0
 11
448.265167
 21
95.975167
 31
0.0
  0
LINE
  8
1
  6
CONTINUOUS
 62
     2
  5
913
 10
449.265167
 20
90.975167
 30
0.0
 11
449.265167
 21
90.475167
 31
0.0
  0
LINE
  8
1
  6
CONTINUOUS
 62
     2
  5
914
 10
450.765167
 20
90.975167
 30
0.0
 11
450.765167
 21
90.475167
 31
0.0
  0
LINE
  8
1
  6
CONTINUOUS
 62
     2
  5
915
 10
452.265167
 20
90.975167
 30
0.0
 11
452.265167
 21
90.475167
 31
0.0
  0
LINE
  8
1
  6
CONTINUOUS
 62
     2
  5
916
 10
448.765167
 20
90.475167
 30
0.0
 11
448.765167
 21
89.975167
 31
0.0
  0
LINE
  8
1
  6
CONTINUOUS
 62
     2
  5
917
 10
450.265167
 20
90.475167
 30
0.0
 11
450.265167
 21
89.975167
 31
0.0
  0
LINE
  8
1
  6
CONTINUOUS
 62
     2
  5
918
 10
451.765167
 20
90.475167
 30
0.0
 11
451.765167
 21
89.975167
 31
0.0
  0
LINE
  8
1
  6
CONTINUOUS
 62
     2
  5
919
 10
453.103083
 20
90.475167
 30
0.0
 11
453.103083
 21
89.975167
 31
0.0
  0
LINE
  8
1
  6
CONTINUOUS
 62
     2
  5
91A
 10
400.015167
 20
90.475167
 30
0.0
 11
400.015167
 21
89.975167
 31
0.0
  0
LINE
  8
1
  6
CONTINUOUS
 62
     2
  5
91B
 10
398.515167
 20
90.475167
 30
0.0
 11
398.515167
 21
89.975167
 31
0.0
  0
LINE
  8
1
  6
CONTINUOUS
 62
     2
  5
91C
 10
397.015167
 20
90.475167
 30
0.0
 11
397.015167
 21
89.975167
 31
0.0
  0
LINE
  8
1
  6
CONTINUOUS
 62
     2
  5
91D
 10
395.515167
 20
90.475167
 30
0.0
 11
395.515167
 21
89.975167
 31
0.0
  0
LINE
  8
1
  6
CONTINUOUS
 62
     2
  5
91E
 10
393.765167
 20
88.975167
 30
0.0
 11
393.265167
 21
88.975167
 31
0.0
  0
LINE
  8
1
  6
CONTINUOUS
 62
     2
  5
91F
 10
393.765167
 20
87.475167
 30
0.0
 11
393.265167
 21
87.475167
 31
0.0
  0
LINE
  8
1
  6
CONTINUOUS
 62
     2
  5
920
 10
393.765167
 20
85.975167
 30
0.0
 11
393.265167
 21
85.975167
 31
0.0
  0
LINE
  8
1
  6
CONTINUOUS
 62
     2
  5
921
 10
393.765167
 20
84.475167
 30
0.0
 11
393.265167
 21
84.475167
 31
0.0
  0
LINE
  8
1
  6
CONTINUOUS
 62
     2
  5
922
 10
393.765167
 20
82.975167
 30
0.0
 11
393.265167
 21
82.975167
 31
0.0
  0
LINE
  8
1
  6
CONTINUOUS
 62
     2
  5
923
 10
393.765167
 20
81.475167
 30
0.0
 11
393.265167
 21
81.475167
 31
0.0
  0
LINE
  8
1
  6
CONTINUOUS
 62
     2
  5
924
 10
393.765167
 20
79.975167
 30
0.0
 11
393.265167
 21
79.975167
 31
0.0
  0
LINE
  8
1
  6
CONTINUOUS
 62
     2
  5
925
 10
393.765167
 20
78.475167
 30
0.0
 11
393.265167
 21
78.475167
 31
0.0
  0
LINE
  8
1
  6
CONTINUOUS
 62
     2
  5
926
 10
393.765167
 20
76.975167
 30
0.0
 11
393.265167
 21
76.975167
 31
0.0
  0
LINE
  8
1
  6
CONTINUOUS
 62
     2
  5
927
 10
393.765167
 20
75.475167
 30
0.0
 11
393.265167
 21
75.475167
 31
0.0
  0
LINE
  8
1
  6
CONTINUOUS
 62
     2
  5
928
 10
393.765167
 20
73.975167
 30
0.0
 11
393.265167
 21
73.975167
 31
0.0
  0
LINE
  8
1
  6
CONTINUOUS
 62
     2
  5
929
 10
393.765167
 20
72.475167
 30
0.0
 11
393.265167
 21
72.475167
 31
0.0
  0
LINE
  8
1
  6
CONTINUOUS
 62
     2
  5
92A
 10
393.765167
 20
70.975167
 30
0.0
 11
393.265167
 21
70.975167
 31
0.0
  0
LINE
  8
1
  6
CONTINUOUS
 62
     2
  5
92B
 10
393.765167
 20
69.475167
 30
0.0
 11
393.265167
 21
69.475167
 31
0.0
  0
LINE
  8
1
  6
CONTINUOUS
 62
     2
  5
92C
 10
393.765167
 20
67.975167
 30
0.0
 11
393.265167
 21
67.975167
 31
0.0
  0
LINE
  8
1
  6
CONTINUOUS
 62
     2
  5
92D
 10
393.765167
 20
66.475167
 30
0.0
 11
393.265167
 21
66.475167
 31
0.0
  0
LINE
  8
1
  6
CONTINUOUS
 62
     2
  5
92E
 10
393.765167
 20
64.975167
 30
0.0
 11
393.265167
 21
64.975167
 31
0.0
  0
LINE
  8
1
  6
CONTINUOUS
 62
     2
  5
92F
 10
393.765167
 20
63.475167
 30
0.0
 11
393.265167
 21
63.475167
 31
0.0
  0
LINE
  8
1
  6
CONTINUOUS
 62
     2
  5
930
 10
393.765167
 20
61.975167
 30
0.0
 11
393.265167
 21
61.975167
 31
0.0
  0
LINE
  8
1
  6
CONTINUOUS
 62
     2
  5
931
 10
395.265167
 20
60.975167
 30
0.0
 11
395.265167
 21
60.475167
 31
0.0
  0
LINE
  8
1
  6
CONTINUOUS
 62
     2
  5
932
 10
396.765167
 20
60.975167
 30
0.0
 11
396.765167
 21
60.475167
 31
0.0
  0
LINE
  8
1
  6
CONTINUOUS
 62
     2
  5
933
 10
398.265167
 20
60.975167
 30
0.0
 11
398.265167
 21
60.475167
 31
0.0
  0
LINE
  8
1
  6
CONTINUOUS
 62
     2
  5
934
 10
399.765167
 20
60.975167
 30
0.0
 11
399.765167
 21
60.475167
 31
0.0
  0
LINE
  8
1
  6
CONTINUOUS
 62
     2
  5
935
 10
401.265167
 20
60.975167
 30
0.0
 11
401.265167
 21
60.475167
 31
0.0
  0
LINE
  8
1
  6
CONTINUOUS
 62
     2
  5
936
 10
402.765167
 20
60.975167
 30
0.0
 11
402.765167
 21
60.475167
 31
0.0
  0
LINE
  8
1
  6
CONTINUOUS
 62
     2
  5
937
 10
453.765167
 20
88.975167
 30
0.0
 11
453.265167
 21
88.975167
 31
0.0
  0
LINE
  8
1
  6
CONTINUOUS
 62
     2
  5
938
 10
453.765167
 20
87.475167
 30
0.0
 11
453.265167
 21
87.475167
 31
0.0
  0
LINE
  8
1
  6
CONTINUOUS
 62
     2
  5
939
 10
453.765167
 20
85.975167
 30
0.0
 11
453.265167
 21
85.975167
 31
0.0
  0
LINE
  8
1
  6
CONTINUOUS
 62
     2
  5
93A
 10
453.765167
 20
84.475167
 30
0.0
 11
453.265167
 21
84.475167
 31
0.0
  0
LINE
  8
1
  6
CONTINUOUS
 62
     2
  5
93B
 10
453.765167
 20
82.975167
 30
0.0
 11
453.265167
 21
82.975167
 31
0.0
  0
LINE
  8
1
  6
CONTINUOUS
 62
     2
  5
93C
 10
453.765167
 20
81.475167
 30
0.0
 11
453.265167
 21
81.475167
 31
0.0
  0
LINE
  8
1
  6
CONTINUOUS
 62
     2
  5
93D
 10
453.765167
 20
79.975167
 30
0.0
 11
453.265167
 21
79.975167
 31
0.0
  0
LINE
  8
1
  6
CONTINUOUS
 62
     2
  5
93E
 10
453.765167
 20
78.475167
 30
0.0
 11
453.265167
 21
78.475167
 31
0.0
  0
LINE
  8
1
  6
CONTINUOUS
 62
     2
  5
93F
 10
453.765167
 20
76.975167
 30
0.0
 11
453.265167
 21
76.975167
 31
0.0
  0
LINE
  8
1
  6
CONTINUOUS
 62
     2
  5
940
 10
453.765167
 20
75.475167
 30
0.0
 11
453.265167
 21
75.475167
 31
0.0
  0
LINE
  8
1
  6
CONTINUOUS
 62
     2
  5
941
 10
453.765167
 20
73.975167
 30
0.0
 11
453.265167
 21
73.975167
 31
0.0
  0
LINE
  8
1
  6
CONTINUOUS
 62
     2
  5
942
 10
453.765167
 20
72.475167
 30
0.0
 11
453.265167
 21
72.475167
 31
0.0
  0
LINE
  8
1
  6
CONTINUOUS
 62
     2
  5
943
 10
453.765167
 20
70.975167
 30
0.0
 11
453.265167
 21
70.975167
 31
0.0
  0
LINE
  8
1
  6
CONTINUOUS
 62
     2
  5
944
 10
453.765167
 20
69.475167
 30
0.0
 11
453.265167
 21
69.475167
 31
0.0
  0
LINE
  8
1
  6
CONTINUOUS
 62
     2
  5
945
 10
453.765167
 20
67.975167
 30
0.0
 11
453.265167
 21
67.975167
 31
0.0
  0
LINE
  8
1
  6
CONTINUOUS
 62
     2
  5
946
 10
453.765167
 20
66.475167
 30
0.0
 11
453.265167
 21
66.475167
 31
0.0
  0
LINE
  8
1
  6
CONTINUOUS
 62
     2
  5
947
 10
453.765167
 20
64.975167
 30
0.0
 11
453.265167
 21
64.975167
 31
0.0
  0
LINE
  8
1
  6
CONTINUOUS
 62
     2
  5
948
 10
453.765167
 20
63.475167
 30
0.0
 11
453.265167
 21
63.475167
 31
0.0
  0
LINE
  8
1
  6
CONTINUOUS
 62
     2
  5
949
 10
453.765167
 20
61.975167
 30
0.0
 11
453.265167
 21
61.975167
 31
0.0
  0
LINE
  8
1
  6
CONTINUOUS
 62
     2
  5
94A
 10
452.265167
 20
60.975167
 30
0.0
 11
452.265167
 21
60.475167
 31
0.0
  0
LINE
  8
1
  6
CONTINUOUS
 62
     2
  5
94B
 10
450.765167
 20
60.975167
 30
0.0
 11
450.765167
 21
60.475167
 31
0.0
  0
LINE
  8
1
  6
CONTINUOUS
 62
     2
  5
94C
 10
449.265167
 20
60.975167
 30
0.0
 11
449.265167
 21
60.475167
 31
0.0
  0
LINE
  8
1
  6
CONTINUOUS
 62
     2
  5
94D
 10
447.765167
 20
60.975167
 30
0.0
 11
447.765167
 21
60.475167
 31
0.0
  0
LINE
  8
1
  6
CONTINUOUS
 62
     2
  5
94E
 10
446.265167
 20
60.975167
 30
0.0
 11
446.265167
 21
60.475167
 31
0.0
  0
LINE
  8
1
  6
CONTINUOUS
 62
     2
  5
94F
 10
444.765167
 20
60.975167
 30
0.0
 11
444.765167
 21
60.475167
 31
0.0
  0
LINE
  8
1
  6
CONTINUOUS
 62
     2
  5
950
 10
393.765167
 20
88.475167
 30
0.0
 11
394.515167
 21
88.475167
 31
0.0
  0
LINE
  8
1
  6
CONTINUOUS
 62
     2
  5
951
 10
393.765167
 20
86.975167
 30
0.0
 11
394.515167
 21
86.975167
 31
0.0
  0
LINE
  8
1
  6
CONTINUOUS
 62
     2
  5
952
 10
394.515167
 20
88.475167
 30
0.0
 11
394.515167
 21
86.975167
 31
0.0
  0
LINE
  8
1
  6
CONTINUOUS
 62
     2
  5
953
 10
394.515167
 20
87.975167
 30
0.0
 11
395.515167
 21
87.975167
 31
0.0
  0
LINE
  8
1
  6
CONTINUOUS
 62
     2
  5
954
 10
394.515167
 20
87.475167
 30
0.0
 11
395.515167
 21
87.475167
 31
0.0
  0
LINE
  8
1
  6
CONTINUOUS
 62
     2
  5
955
 10
395.515167
 20
87.975167
 30
0.0
 11
395.515167
 21
87.475167
 31
0.0
  0
LINE
  8
1
  6
CONTINUOUS
 62
     2
  5
956
 10
395.515167
 20
87.850167
 30
0.0
 11
396.515167
 21
87.850167
 31
0.0
  0
LINE
  8
1
  6
CONTINUOUS
 62
     2
  5
957
 10
395.515167
 20
87.600167
 30
0.0
 11
396.515167
 21
87.600167
 31
0.0
  0
LINE
  8
1
  6
CONTINUOUS
 62
     2
  5
958
 10
396.515167
 20
87.850167
 30
0.0
 11
396.515167
 21
87.600167
 31
0.0
  0
LINE
  8
1
  6
CONTINUOUS
 62
     2
  5
959
 10
423.765167
 20
102.975167
 30
0.0
 11
423.765167
 21
88.975167
 31
0.0
  0
LINE
  8
1
  6
CONTINUOUS
 62
     2
  5
95A
 10
423.765167
 20
87.975167
 30
0.0
 11
423.765167
 21
85.975167
 31
0.0
  0
LINE
  8
1
  6
CONTINUOUS
 62
     2
  5
95B
 10
423.765167
 20
84.975167
 30
0.0
 11
423.765167
 21
69.309083
 31
0.0
  0
LINE
  8
1
  6
CONTINUOUS
 62
     2
  5
95C
 10
423.765167
 20
68.309083
 30
0.0
 11
423.765167
 21
66.309083
 31
0.0
  0
LINE
  8
1
  6
CONTINUOUS
 62
     2
  5
95D
 10
423.765167
 20
65.309083
 30
0.0
 11
423.765167
 21
49.475167
 31
0.0
  0
LINE
  8
1
  6
CONTINUOUS
 62
     2
  5
95E
 10
405.390167
 20
70.225167
 30
0.0
 11
405.390167
 21
64.475167
 31
0.0
  0
LINE
  8
1
  6
CONTINUOUS
 62
     2
  5
95F
 10
405.390167
 20
61.475167
 30
0.0
 11
405.390167
 21
44.475167
 31
0.0
  0
LINE
  8
1
  6
CONTINUOUS
 62
     2
  5
960
 10
405.390167
 20
64.475167
 30
0.0
 11
405.390167
 21
63.725167
 31
0.0
  0
LINE
  8
1
  6
CONTINUOUS
 62
     2
  5
961
 10
405.390167
 20
63.225167
 30
0.0
 11
405.390167
 21
62.725167
 31
0.0
  0
LINE
  8
1
  6
CONTINUOUS
 62
     2
  5
962
 10
405.390167
 20
62.225167
 30
0.0
 11
405.390167
 21
61.475167
 31
0.0
  0
LINE
  8
1
  6
CONTINUOUS
 62
     2
  5
963
 10
441.390167
 20
70.225167
 30
0.0
 11
441.390167
 21
63.725167
 31
0.0
  0
LINE
  8
1
  6
CONTINUOUS
 62
     2
  5
964
 10
441.390167
 20
63.225167
 30
0.0
 11
441.390167
 21
62.725167
 31
0.0
  0
LINE
  8
1
  6
CONTINUOUS
 62
     2
  5
965
 10
441.390167
 20
62.225167
 30
0.0
 11
441.390167
 21
54.475167
 31
0.0
  0
LINE
  8
1
  6
CONTINUOUS
 62
     2
  5
966
 10
393.265167
 20
59.475167
 30
0.0
 11
393.265167
 21
44.475167
 31
0.0
  0
LINE
  8
1
  6
CONTINUOUS
 62
     2
  5
967
 10
393.265167
 20
45.475167
 30
0.0
 11
405.390167
 21
45.475167
 31
0.0
  0
INSERT
  8
1
  6
CONTINUOUS
 62
     1
  5
968
  2
LDR
 10
393.265167
 20
45.475167
 30
0.0
 41
240.0
 42
240.0
 50
180.0
210
0.0
220
0.0
230
1.0
  0
INSERT
  8
1
  6
CONTINUOUS
 62
     1
  5
969
  2
LDR
 10
393.265167
 20
45.475167
 30
0.0
 41
240.0
 42
240.0
 50
180.0
210
0.0
220
0.0
230
1.0
  0
INSERT
  8
1
  6
CONTINUOUS
 62
     1
  5
96A
  2
LDR
 10
405.390167
 20
45.475167
 30
0.0
 41
240.0
 42
240.0
210
0.0
220
0.0
230
1.0
  0
INSERT
  8
1
  6
CONTINUOUS
 62
     1
  5
96B
  2
LDR
 10
405.390167
 20
45.475167
 30
0.0
 41
240.0
 42
240.0
210
0.0
220
0.0
230
1.0
  0
LINE
  8
1
  6
CONTINUOUS
 62
     2
  5
96C
 10
397.265167
 20
96.475167
 30
0.0
 11
379.765167
 21
96.475167
 31
0.0
  0
LINE
  8
1
  6
CONTINUOUS
 62
     2
  5
96D
 10
392.265167
 20
90.475167
 30
0.0
 11
379.765167
 21
90.475167
 31
0.0
  0
LINE
  8
1
  6
CONTINUOUS
 62
     2
  5
96E
 10
392.265167
 20
60.475167
 30
0.0
 11
379.765167
 21
60.475167
 31
0.0
  0
LINE
  8
1
  6
CONTINUOUS
 62
     2
  5
96F
 10
380.765167
 20
96.475167
 30
0.0
 11
380.765167
 21
90.475167
 31
0.0
  0
LINE
  8
1
  6
CONTINUOUS
 62
     2
  5
970
 10
380.765167
 20
90.475167
 30
0.0
 11
380.765167
 21
60.475167
 31
0.0
  0
LINE
  8
1
  6
CONTINUOUS
 62
     2
  5
971
 10
380.765167
 20
96.475167
 30
0.0
 11
380.765167
 21
104.975167
 31
0.0
  0
INSERT
  8
1
  6
CONTINUOUS
 62
     1
  5
972
  2
LDR
 10
380.765167
 20
96.475167
 30
0.0
 41
240.0
 42
240.0
 50
270.0
210
0.0
220
0.0
230
1.0
  0
INSERT
  8
1
  6
CONTINUOUS
 62
     1
  5
973
  2
LDR
 10
380.765167
 20
96.475167
 30
0.0
 41
240.0
 42
240.0
 50
270.0
210
0.0
220
0.0
230
1.0
  0
INSERT
  8
1
  6
CONTINUOUS
 62
     1
  5
974
  2
LDR
 10
380.765167
 20
90.475167
 30
0.0
 41
240.0
 42
240.0
 50
90.0
210
0.0
220
0.0
230
1.0
  0
INSERT
  8
1
  6
CONTINUOUS
 62
     1
  5
975
  2
LDR
 10
380.765167
 20
60.475167
 30
0.0
 41
240.0
 42
240.0
 50
270.0
210
0.0
220
0.0
230
1.0
  0
LINE
  8
1
  6
CONTINUOUS
 62
     2
  5
976
 10
393.265167
 20
91.475167
 30
0.0
 11
393.265167
 21
117.975167
 31
0.0
  0
LINE
  8
1
  6
CONTINUOUS
 62
     2
  5
977
 10
398.265167
 20
97.475167
 30
0.0
 11
398.265167
 21
109.475167
 31
0.0
  0
LINE
  8
1
  6
CONTINUOUS
 62
     2
  5
978
 10
453.765167
 20
92.975167
 30
0.0
 11
453.765167
 21
117.975167
 31
0.0
  0
LINE
  8
1
  6
CONTINUOUS
 62
     2
  5
979
 10
449.265167
 20
96.475167
 30
0.0
 11
449.265167
 21
109.475167
 31
0.0
  0
LINE
  8
1
  6
CONTINUOUS
 62
     2
  5
97A
 10
393.265167
 20
116.975167
 30
0.0
 11
453.765167
 21
116.975167
 31
0.0
  0
LINE
  8
1
  6
CONTINUOUS
 62
     2
  5
97B
 10
398.265167
 20
108.475167
 30
0.0
 11
393.265167
 21
108.475167
 31
0.0
  0
LINE
  8
1
  6
CONTINUOUS
 62
     2
  5
97C
 10
449.265167
 20
108.475167
 30
0.0
 11
453.765167
 21
108.475167
 31
0.0
  0
LINE
  8
1
  6
CONTINUOUS
 62
     2
  5
97D
 10
393.265167
 20
108.475167
 30
0.0
 11
385.265167
 21
108.475167
 31
0.0
  0
LINE
  8
1
  6
CONTINUOUS
 62
     2
  5
97E
 10
398.265167
 20
108.475167
 30
0.0
 11
406.265167
 21
108.475167
 31
0.0
  0
LINE
  8
1
  6
CONTINUOUS
 62
     2
  5
97F
 10
449.265167
 20
108.475167
 30
0.0
 11
441.265167
 21
108.475167
 31
0.0
  0
LINE
  8
1
  6
CONTINUOUS
 62
     2
  5
980
 10
453.765167
 20
108.475167
 30
0.0
 11
461.765167
 21
108.475167
 31
0.0
  0
INSERT
  8
1
  6
CONTINUOUS
 62
     1
  5
981
  2
LDR
 10
393.265167
 20
116.975167
 30
0.0
 41
240.0
 42
240.0
 50
180.0
210
0.0
220
0.0
230
1.0
  0
INSERT
  8
1
  6
CONTINUOUS
 62
     1
  5
982
  2
LDR
 10
393.265167
 20
116.975167
 30
0.0
 41
240.0
 42
240.0
 50
180.0
210
0.0
220
0.0
230
1.0
  0
INSERT
  8
1
  6
CONTINUOUS
 62
     1
  5
983
  2
LDR
 10
453.765167
 20
116.975167
 30
0.0
 41
240.0
 42
240.0
210
0.0
220
0.0
230
1.0
  0
INSERT
  8
1
  6
CONTINUOUS
 62
     1
  5
984
  2
LDR
 10
393.265167
 20
108.475167
 30
0.0
 41
240.0
 42
240.0
210
0.0
220
0.0
230
1.0
  0
INSERT
  8
1
  6
CONTINUOUS
 62
     1
  5
985
  2
LDR
 10
393.265167
 20
108.475167
 30
0.0
 41
240.0
 42
240.0
210
0.0
220
0.0
230
1.0
  0
INSERT
  8
1
  6
CONTINUOUS
 62
     1
  5
986
  2
LDR
 10
398.265167
 20
108.475167
 30
0.0
 41
240.0
 42
240.0
 50
180.0
210
0.0
220
0.0
230
1.0
  0
INSERT
  8
1
  6
CONTINUOUS
 62
     1
  5
987
  2
LDR
 10
449.265167
 20
108.475167
 30
0.0
 41
240.0
 42
240.0
210
0.0
220
0.0
230
1.0
  0
INSERT
  8
1
  6
CONTINUOUS
 62
     1
  5
988
  2
LDR
 10
453.765167
 20
108.475167
 30
0.0
 41
240.0
 42
240.0
 50
180.0
210
0.0
220
0.0
230
1.0
  0
LINE
  8
1
  6
CONTINUOUS
 62
     2
  5
989
 10
433.874
 20
96.475167
 30
0.0
 11
433.874
 21
106.521083
 31
0.0
  0
LINE
  8
1
  6
CONTINUOUS
 62
     2
  5
98A
 10
433.874
 20
106.521083
 30
0.0
 11
430.406917
 21
106.521083
 31
0.0
  0
INSERT
  8
1
  6
CONTINUOUS
 62
     1
  5
98B
  2
LDR
 10
433.874
 20
96.475167
 30
0.0
 41
240.0
 42
240.0
 50
270.0
210
0.0
220
0.0
230
1.0
  0
INSERT
  8
1
  6
CONTINUOUS
 62
     1
  5
98C
  2
LDR
 10
433.874
 20
96.475167
 30
0.0
 41
240.0
 42
240.0
 50
270.0
210
0.0
220
0.0
230
1.0
  0
LINE
  8
1
  6
CONTINUOUS
 62
     2
  5
98D
 10
393.754167
 20
87.554583
 30
0.0
 11
370.778333
 21
78.594167
 31
0.0
  0
INSERT
  8
1
  6
CONTINUOUS
 62
     1
  5
98E
  2
LDR
 10
393.754167
 20
87.554583
 30
0.0
 41
240.000005
 42
240.000005
 50
21.305519
210
0.0
220
0.0
230
1.0
  0
INSERT
  8
1
  6
CONTINUOUS
 62
     1
  5
98F
  2
LDR
 10
393.754167
 20
87.554583
 30
0.0
 41
240.000005
 42
240.000005
 50
21.305519
210
0.0
220
0.0
230
1.0
  0
LINE
  8
1
  6
CONTINUOUS
 62
     2
  5
990
 10
453.765167
 20
62.888
 30
0.0
 11
462.797833
 21
62.888
 31
0.0
  0
INSERT
  8
1
  6
CONTINUOUS
 62
     1
  5
991
  2
LDR
 10
453.765167
 20
62.888
 30
0.0
 41
240.0
 42
240.0
 50
180.0
210
0.0
220
0.0
230
1.0
  0
LINE
  8
1
  6
CONTINUOUS
 62
     2
  5
992
 10
401.515167
 20
94.475167
 30
0.0
 11
448.43425
 21
44.473667
 31
0.0
  0
LINE
  8
1
  6
CONTINUOUS
 62
     2
  5
993
 10
448.43425
 20
44.473667
 30
0.0
 11
447.733583
 21
94.06225
 31
0.0
  0
INSERT
  8
1
  6
CONTINUOUS
 62
     1
  5
994
  2
LDR
 10
447.733583
 20
94.06225
 30
0.0
 41
240.0
 42
240.0
 50
90.809512
210
0.0
220
0.0
230
1.0
  0
INSERT
  8
1
  6
CONTINUOUS
 62
     1
  5
995
  2
LDR
 10
401.515167
 20
94.475167
 30
0.0
 41
240.000002
 42
240.000002
 50
133.178406
210
0.0
220
0.0
230
1.0
  0
INSERT
  8
1
  6
CONTINUOUS
 62
     1
  5
996
  2
LDR
 10
401.515167
 20
94.475167
 30
0.0
 41
240.000002
 42
240.000002
 50
133.178406
210
0.0
220
0.0
230
1.0
  0
LINE
  8
1
  6
CONTINUOUS
 62
     2
  5
997
 10
448.43425
 20
44.473667
 30
0.0
 11
453.11275
 21
44.473667
 31
0.0
  0
TEXT
  8
1
  6
CONTINUOUS
 62
     7
  5
998
 10
417.465
 20
117.977167
 30
0.0
 40
2.5
  1
1' - 0"
  7
MONOTXT
210
0.0
220
0.0
230
1.0
  0
TEXT
  8
1
  6
CONTINUOUS
 62
     7
  5
999
 10
400.910667
 20
109.75775
 30
0.0
 40
2.5
  1
 15/16 "
  7
MONOTXT
210
0.0
220
0.0
230
1.0
  0
TEXT
  8
1
  6
CONTINUOUS
 62
     7
  5
99A
 10
456.4945
 20
109.636917
 30
0.0
 40
2.5
  1
 15/16 "
  7
MONOTXT
210
0.0
220
0.0
230
1.0
  0
TEXT
  8
1
  6
CONTINUOUS
 62
     7
  5
99B
 10
411.906583
 20
105.164583
 30
0.0
 40
2.5
  1
14 GAUGE
  7
MONOTXT
210
0.0
220
0.0
230
1.0
  0
TEXT
  8
1
  6
CONTINUOUS
 62
     7
  5
99C
 10
463.019583
 20
61.770833
 30
0.0
 40
2.5
  1
14 GAUGE
  7
MONOTXT
210
0.0
220
0.0
230
1.0
  0
TEXT
  8
1
  6
CONTINUOUS
 62
     7
  5
99D
 10
453.715417
 20
43.194583
 30
0.0
 40
2.5
  1
NEOPRENE
  7
MONOTXT
 11
453.715417
 21
45.694583
 31
0.0
210
0.0
220
0.0
230
1.0
 73
     3
  0
TEXT
  8
1
  6
CONTINUOUS
 62
     7
  5
99E
 10
453.715417
 20
38.694583
 30
0.0
 40
2.5
  1
GASKET
  7
MONOTXT
 11
453.715417
 21
41.194583
 31
0.0
210
0.0
220
0.0
230
1.0
 73
     3
  0
TEXT
  8
1
  6
CONTINUOUS
 62
     7
  5
99F
 10
395.473167
 20
47.02425
 30
0.0
 40
2.5
  1
2 3/8 "
  7
MONOTXT
210
0.0
220
0.0
230
1.0
  0
TEXT
  8
1
  6
CONTINUOUS
 62
     7
  5
9A0
 10
380.006333
 20
74.341667
 30
0.0
 40
2.5
  1
6"
 50
90.0
  7
MONOTXT
210
0.0
220
0.0
230
1.0
  0
TEXT
  8
1
  6
CONTINUOUS
 62
     7
  5
9A1
 10
379.1605
 20
96.945083
 30
0.0
 40
2.5
  1
1  5/32 "
 50
90.0
  7
MONOTXT
210
0.0
220
0.0
230
1.0
  0
TEXT
  8
1
  6
CONTINUOUS
 62
     7
  5
9A2
 10
339.768417
 20
77.12175
 30
0.0
 40
2.5
  1
GROUNDING LUG
  7
MONOTXT
210
0.0
220
0.0
230
1.0
  0
LINE
  8
1
  6
CONTINUOUS
 62
     7
  5
9A3
 10
403.380667
 20
25.473
 30
0.0
 11
448.186833
 21
25.473
 31
0.0
  0
TEXT
  8
1
  6
CONTINUOUS
 62
     7
  5
9A4
 10
404.535333
 20
27.597083
 30
0.0
 40
3.5
  1
SECTION B - B
  7
MONOTXT
210
0.0
220
0.0
230
1.0
  0
LINE
  8
1
  6
CONTINUOUS
 62
     7
  5
9A5
 10
499.52025
 20
45.866083
 30
0.0
 11
501.52025
 21
42.402
 31
0.0
  0
LINE
  8
1
  6
CONTINUOUS
 62
     7
  5
9A6
 10
499.52025
 20
45.866083
 30
0.0
 11
497.52025
 21
42.402
 31
0.0
  0
LINE
  8
1
  6
CONTINUOUS
 62
     7
  5
9A7
 10
501.52025
 20
42.402
 30
0.0
 11
497.52025
 21
42.402
 31
0.0
  0
LINE
  8
1
  6
CONTINUOUS
 62
     7
  5
9A8
 10
499.278167
 20
41.26525
 30
0.0
 11
501.278167
 21
37.801167
 31
0.0
  0
LINE
  8
1
  6
CONTINUOUS
 62
     7
  5
9A9
 10
499.278167
 20
41.26525
 30
0.0
 11
497.278167
 21
37.801167
 31
0.0
  0
LINE
  8
1
  6
CONTINUOUS
 62
     7
  5
9AA
 10
501.278167
 20
37.801167
 30
0.0
 11
497.278167
 21
37.801167
 31
0.0
  0
LINE
  8
1
  6
CONTINUOUS
 62
     7
  5
9AB
 10
498.402167
 20
106.87075
 30
0.0
 11
500.402167
 21
103.406667
 31
0.0
  0
LINE
  8
1
  6
CONTINUOUS
 62
     7
  5
9AC
 10
498.402167
 20
106.87075
 30
0.0
 11
496.402167
 21
103.406667
 31
0.0
  0
LINE
  8
1
  6
CONTINUOUS
 62
     7
  5
9AD
 10
500.402167
 20
103.406667
 30
0.0
 11
496.402167
 21
103.406667
 31
0.0
  0
LINE
  8
1
  6
CONTINUOUS
 62
     7
  5
9AE
 10
498.479417
 20
111.936583
 30
0.0
 11
500.479417
 21
108.4725
 31
0.0
  0
LINE
  8
1
  6
CONTINUOUS
 62
     7
  5
9AF
 10
498.479417
 20
111.936583
 30
0.0
 11
496.479417
 21
108.4725
 31
0.0
  0
LINE
  8
1
  6
CONTINUOUS
 62
     7
  5
9B0
 10
500.479417
 20
108.4725
 30
0.0
 11
496.479417
 21
108.4725
 31
0.0
  0
TEXT
  8
1
  6
CONTINUOUS
 62
     7
  5
9B1
 10
498.141833
 20
108.775667
 30
0.0
 40
2.0
  1
1
  7
MONOTXT
210
0.0
220
0.0
230
1.0
  0
TEXT
  8
1
  6
CONTINUOUS
 62
     7
  5
9B2
 10
497.717583
 20
103.767417
 30
0.0
 40
2.0
  1
2
  7
MONOTXT
210
0.0
220
0.0
230
1.0
  0
TEXT
  8
1
  6
CONTINUOUS
 62
     7
  5
9B3
 10
501.790667
 20
108.8605
 30
0.0
 40
2.0
  1
INCREASED TYPE A AND TYPE B BOXES DIMENSIONS
  7
MONOTXT
210
0.0
220
0.0
230
1.0
  0
TEXT
  8
1
  6
CONTINUOUS
 62
     7
  5
9B4
 10
501.45125
 20
104.107
 30
0.0
 40
2.0
  1
CHANGED HUB SIZES
  7
MONOTXT
210
0.0
220
0.0
230
1.0
  0
TEXT
  8
1
  6
CONTINUOUS
 62
     7
  5
9B5
 10
499.225083
 20
42.724667
 30
0.0
 40
2.0
  1
1
  7
MONOTXT
210
0.0
220
0.0
230
1.0
  0
TEXT
  8
1
  6
CONTINUOUS
 62
     7
  5
9B6
 10
498.6655
 20
38.086833
 30
0.0
 40
2.0
  1
2
  7
MONOTXT
210
0.0
220
0.0
230
1.0
  0
TEXT
  8
1
  6
CONTINUOUS
 62
     7
  5
9B7
 10
540.58425
 20
72.262583
 30
0.0
 40
6.992667
  1
JUNCTION BOXES
  7
txt
 72
     1
 11
583.39425
 21
79.25525
 31
0.0
210
0.0
220
0.0
230
1.0
 73
     3
  0
TEXT
  8
1
  6
CONTINUOUS
 62
     7
  5
9B8
 10
553.961667
 20
62.027333
 30
0.0
 40
6.992667
  1
TYPES A,B,C
  7
txt
 72
     1
 11
583.0745
 21
69.02
 31
0.0
210
0.0
220
0.0
230
1.0
 73
     3
  0
INSERT
  8
1
  6
CONTINUOUS
 62
     1
  5
9B9
  2
LDR
 10
324.35325
 20
349.989
 30
0.0
 41
240.0
 42
240.0
 50
83.846853
210
0.0
220
0.0
230
1.0
  0
INSERT
  8
1
  6
CONTINUOUS
 62
     1
  5
9BA
  2
LDR
 10
324.35325
 20
349.989
 30
0.0
 41
240.0
 42
240.0
 50
83.846853
210
0.0
220
0.0
230
1.0
  0
ENDSEC
  0
EOF
