  0
SECTION
  2
HEADER
  9
$ACADVER
  1
AC1009
  9
$INSBASE
 10
0.0
 20
0.0
 30
0.0
  9
$EXTMIN
 10
-76.154917
 20
-52.869
 30
0.0
  9
$EXTMAX
 10
603.925083
 20
387.171
 30
0.0
  9
$LIMMIN
 10
0.0
 20
0.0
  9
$LIMMAX
 10
12.0
 20
9.0
  9
$ORTHOMODE
 70
     0
  9
$REGENMODE
 70
     1
  9
$FILLMODE
 70
     1
  9
$QTEXTMODE
 70
     0
  9
$MIRRTEXT
 70
     1
  9
$DRAGMODE
 70
     2
  9
$LTSCALE
 40
1.0
  9
$OSMODE
 70
     0
  9
$ATTMODE
 70
     1
  9
$TEXTSIZE
 40
0.2
  9
$TRACEWID
 40
0.05
  9
$TEXTSTYLE
  7
STANDARD
  9
$CLAYER
  8
0
  9
$CELTYPE
  6
CONTINUOUS
  9
$CECOLOR
 62
   256
  9
$DIMSCALE
 40
1.0
  9
$DIMASZ
 40
0.18
  9
$DIMEXO
 40
0.0625
  9
$DIMDLI
 40
0.38
  9
$DIMRND
 40
0.0
  9
$DIMDLE
 40
0.0
  9
$DIMEXE
 40
0.18
  9
$DIMTP
 40
0.0
  9
$DIMTM
 40
0.0
  9
$DIMTXT
 40
0.18
  9
$DIMCEN
 40
0.09
  9
$DIMTSZ
 40
0.0
  9
$DIMTOL
 70
     0
  9
$DIMLIM
 70
     0
  9
$DIMTIH
 70
     1
  9
$DIMTOH
 70
     1
  9
$DIMSE1
 70
     0
  9
$DIMSE2
 70
     0
  9
$DIMTAD
 70
     0
  9
$DIMZIN
 70
     0
  9
$DIMBLK
  1

  9
$DIMASO
 70
     1
  9
$DIMSHO
 70
     1
  9
$DIMPOST
  1

  9
$DIMAPOST
  1

  9
$DIMALT
 70
     0
  9
$DIMALTD
 70
     2
  9
$DIMALTF
 40
25.4
  9
$DIMLFAC
 40
1.0
  9
$DIMTOFL
 70
     0
  9
$DIMTVP
 40
0.0
  9
$DIMTIX
 70
     0
  9
$DIMSOXD
 70
     0
  9
$DIMSAH
 70
     0
  9
$DIMBLK1
  1

  9
$DIMBLK2
  1

  9
$DIMSTYLE
  2
STANDARD
  9
$DIMCLRD
 70
     0
  9
$DIMCLRE
 70
     0
  9
$DIMCLRT
 70
     0
  9
$DIMTFAC
 40
1.0
  9
$DIMGAP
 40
0.09
  9
$LUNITS
 70
     2
  9
$LUPREC
 70
     4
  9
$AXISMODE
 70
     0
  9
$AXISUNIT
 10
0.0
 20
0.0
  9
$SKETCHINC
 40
0.1
  9
$FILLETRAD
 40
0.0
  9
$AUNITS
 70
     0
  9
$AUPREC
 70
     0
  9
$MENU
  1
acad
  9
$ELEVATION
 40
0.0
  9
$PELEVATION
 40
0.0
  9
$THICKNESS
 40
0.0
  9
$LIMCHECK
 70
     0
  9
$BLIPMODE
 70
     1
  9
$CHAMFERA
 40
0.0
  9
$CHAMFERB
 40
0.0
  9
$SKPOLY
 70
     0
  9
$TDCREATE
 40
2451803.433773148
  9
$TDUPDATE
 40
2451803.433773148
  9
$TDINDWG
 40
0.0000000000
  9
$TDUSRTIMER
 40
0.0000000000
  9
$USRTIMER
 70
     1
  9
$ANGBASE
 50
0.0
  9
$ANGDIR
 70
     0
  9
$PDMODE
 70
     0
  9
$PDSIZE
 40
0.0
  9
$PLINEWID
 40
0.0
  9
$COORDS
 70
     0
  9
$SPLFRAME
 70
     0
  9
$SPLINETYPE
 70
     6
  9
$SPLINESEGS
 70
    10
  9
$ATTDIA
 70
     0
  9
$ATTREQ
 70
     1
  9
$HANDLING
 70
     1
  9
$HANDSEED
  5
54B
  9
$SURFTAB1
 70
     6
  9
$SURFTAB2
 70
     6
  9
$SURFTYPE
 70
     6
  9
$SURFU
 70
     6
  9
$SURFV
 70
     6
  9
$UCSNAME
  2

  9
$UCSORG
 10
0.0
 20
0.0
 30
0.0
  9
$UCSXDIR
 10
1.0
 20
0.0
 30
0.0
  9
$UCSYDIR
 10
0.0
 20
1.0
 30
0.0
  9
$PUCSNAME
  2

  9
$PUCSORG
 10
0.0
 20
0.0
 30
0.0
  9
$PUCSXDIR
 10
1.0
 20
0.0
 30
0.0
  9
$PUCSYDIR
 10
0.0
 20
1.0
 30
0.0
  9
$USERI1
 70
     0
  9
$USERI2
 70
     0
  9
$USERI3
 70
     0
  9
$USERI4
 70
     0
  9
$USERI5
 70
     0
  9
$USERR1
 40
0.0
  9
$USERR2
 40
0.0
  9
$USERR3
 40
0.0
  9
$USERR4
 40
0.0
  9
$USERR5
 40
0.0
  9
$WORLDVIEW
 70
     1
  9
$SHADEDGE
 70
     3
  9
$SHADEDIF
 70
    70
  9
$TILEMODE
 70
     1
  9
$MAXACTVP
 70
    16
  9
$PINSBASE
 10
0.0
 20
0.0
 30
0.0
  9
$PLIMCHECK
 70
     0
  9
$PEXTMIN
 10
-1.000000E+20
 20
-1.000000E+20
 30
-1.000000E+20
  9
$PEXTMAX
 10
-1.000000E+20
 20
-1.000000E+20
 30
-1.000000E+20
  9
$PLIMMIN
 10
0.0
 20
0.0
  9
$PLIMMAX
 10
12.0
 20
9.0
  9
$UNITMODE
 70
     0
  9
$VISRETAIN
 70
     0
  9
$PLINEGEN
 70
     1
  9
$PSLTSCALE
 70
     0
  9
$TREEDEPTH
 70
  3020
  9
$DWGCODEPAGE
  3
ansi_1252
  0
ENDSEC
  0
SECTION
  2
TABLES
  0
TABLE
  2
VPORT
 70
     1
  0
VPORT
  2
*ACTIVE
 70
     0
 10
0.0
 20
0.0
 11
1.0
 21
1.0
 12
0.0
 22
0.0
 13
0.0
 23
0.0
 14
0.0
 24
0.0
 15
0.0
 25
0.0
 16
0.0
 26
0.0
 36
1.0
 17
218.55757
 27
114.440375
 37
0.0
 40
785.750083
 41
1.790754
 42
50.0
 43
0.084167
 44
0.0
 50
0.0
 51
0.0
 71
     0
 72
   100
 73
     1
 74
     0
 75
     0
 76
     0
 77
     0
 78
     0
  0
ENDTAB
  0
TABLE
  2
LTYPE
 70
     7
  0
LTYPE
  2
CONTINUOUS
 70
     0
  3
Solid line
 72
    65
 73
     0
 40
0.0
  0
LTYPE
  2
DOT
 70
    64
  3
. . . . . . . . . . . . . . . . . . . . . . . . . . . . . . . . .
 72
    65
 73
     2
 40
0.25
 49
0.0
 49
-0.25
  0
LTYPE
  2
HIDDEN
 70
    64
  3
__ __ __ __ __ __ __ __ __ __ __ __ __ __ __ __ __ __ __ __ __ 
 72
    65
 73
     2
 40
0.375
 49
0.25
 49
-0.125
  0
LTYPE
  2
DASHED
 70
    64
  3
__ __ __ __ __ __ __ __ __ __ __ __ __ __ __ __ __ __ __ __ __
 72
    65
 73
     2
 40
0.75
 49
0.5
 49
-0.25
  0
LTYPE
  2
DASHDOT
 70
    64
  3
__ . __ . __ . __ . __ . __ . __ . __ . __ . __ . __ . __ . _
 72
    65
 73
     4
 40
1.0
 49
0.5
 49
-0.25
 49
0.0
 49
-0.25
  0
LTYPE
  2
DIVIDE
 70
    64
  3
____ . . ____ . . ____ . . ____ . . ____ . . ____ . . ____ . .
 72
    65
 73
     6
 40
1.25
 49
0.5
 49
-0.25
 49
0.0
 49
-0.25
 49
0.0
 49
-0.25
  0
LTYPE
  2
CENTER
 70
    64
  3
____ _ ____ _ ____ _ ____ _ ____ _ ____ _ ____ _ ____ _ ____ _
 72
    65
 73
     4
 40
2.0
 49
1.25
 49
-0.25
 49
0.25
 49
-0.25
  0
ENDTAB
  0
TABLE
  2
LAYER
 70
     5
  0
LAYER
  2
0
 70
     0
 62
     7
  6
CONTINUOUS
  0
LAYER
  2
CONSTRUCTION_CLASS
 70
     0
 62
     7
  6
CONTINUOUS
  0
LAYER
  2
PATTERN_CLASS
 70
     0
 62
     7
  6
CONTINUOUS
  0
LAYER
  2
61
 70
    64
 62
     7
  6
CONTINUOUS
  0
LAYER
  2
1
 70
    64
 62
     7
  6
CONTINUOUS
  0
ENDTAB
  0
TABLE
  2
STYLE
 70
     4
  0
STYLE
  2
STANDARD
 70
     0
 40
0.0
 41
1.0
 50
0.0
 71
     0
 42
0.0
  3
txt
  4

  0
STYLE
  2
MONOTXT
 70
     0
 40
0.2
 41
1.0
 50
0.0
 71
     0
 42
0.2
  3
MONOTXT
  4

  0
STYLE
  2
txt
 70
     0
 40
0.2
 41
1.0
 50
0.0
 71
     0
 42
0.2
  3
TXT
  4

  0
STYLE
  2
ROMANT
 70
     0
 40
0.2
 41
1.0
 50
0.0
 71
     0
 42
0.2
  3
ROMANT
  4

  0
ENDTAB
  0
TABLE
  2
VIEW
 70
     0
  0
ENDTAB
  0
TABLE
  2
UCS
 70
     0
  0
ENDTAB
  0
TABLE
  2
APPID
 70
     1
  0
APPID
  2
ACAD
 70
     0
  0
ENDTAB
  0
TABLE
  2
DIMSTYLE
 70
     1
  0
DIMSTYLE
  2
STANDARD
 70
     0
  3

  4

  5

  6

  7

 40
1.0
 41
0.18
 42
0.0625
 43
0.38
 44
0.18
 45
0.0
 46
0.0
 47
0.0
 48
0.0
140
0.18
141
0.09
142
0.0
143
25.4
144
1.0
145
0.0
146
1.0
147
0.09
 71
     0
 72
     0
 73
     1
 74
     1
 75
     0
 76
     0
 77
     0
 78
     0
170
     0
171
     2
172
     0
173
     0
174
     0
175
     0
176
     0
177
     0
178
     0
  0
ENDTAB
  0
ENDSEC
  0
SECTION
  2
BLOCKS
  0
BLOCK
  8
1
  6
CONTINUOUS
 62
     1
  5
2FA
  2
LDR
 70
     0
 10
0.0
 20
0.0
 30
0.0
  3
LNR
  0
POLYLINE
  8
1
  6
CONTINUOUS
 62
     1
  5
2FB
 66
     1
 10
0.0
 20
0.0
 30
0.0
210
0.0
220
0.0
230
1.0
  0
VERTEX
  8
1
  6
CONTINUOUS
 62
     1
  5
2FC
 10
-0.011987
 20
-0.001802
 30
0.0
 42
-0.265147
  0
VERTEX
  8
1
  6
CONTINUOUS
 62
     1
  5
2FD
 10
-0.011849
 20
-0.001604
 30
0.0
 42
-0.064653
  0
VERTEX
  8
1
  6
CONTINUOUS
 62
     1
  5
2FE
 10
-0.011407
 20
-0.001387
 30
0.0
 42
-0.025822
  0
VERTEX
  8
1
  6
CONTINUOUS
 62
     1
  5
2FF
 10
-0.010681
 20
-0.00116
 30
0.0
 42
-0.014504
  0
VERTEX
  8
1
  6
CONTINUOUS
 62
     1
  5
300
 10
-0.0097
 20
-0.000933
 30
0.0
 42
-0.009896
  0
VERTEX
  8
1
  6
CONTINUOUS
 62
     1
  5
301
 10
-0.008505
 20
-0.000715
 30
0.0
 42
-0.007708
  0
VERTEX
  8
1
  6
CONTINUOUS
 62
     1
  5
302
 10
-0.007146
 20
-0.000515
 30
0.0
 42
-0.006655
  0
VERTEX
  8
1
  6
CONTINUOUS
 62
     1
  5
303
 10
-0.005679
 20
-0.000342
 30
0.0
 42
-0.006278
  0
VERTEX
  8
1
  6
CONTINUOUS
 62
     1
  5
304
 10
-0.004164
 20
-0.000202
 30
0.0
 42
-0.006439
  0
VERTEX
  8
1
  6
CONTINUOUS
 62
     1
  5
305
 10
-0.002666
 20
-0.000101
 30
0.0
 42
-0.007196
  0
VERTEX
  8
1
  6
CONTINUOUS
 62
     1
  5
306
 10
-0.001246
 20
-0.000044
 30
0.0
 42
-0.008852
  0
VERTEX
  8
1
  6
CONTINUOUS
 62
     1
  5
307
 10
0.000037
 20
-0.000034
 30
0.0
 42
-0.008852
  0
SEQEND
  8
1
  6
CONTINUOUS
 62
     1
  5
308
  0
POLYLINE
  8
1
  6
CONTINUOUS
 62
     1
  5
309
 66
     1
 10
0.0
 20
0.0
 30
0.0
210
0.0
220
0.0
230
1.0
  0
VERTEX
  8
1
  6
CONTINUOUS
 62
     1
  5
30A
 10
0.000039
 20
0.000014
 30
0.0
 42
-0.005019
  0
VERTEX
  8
1
  6
CONTINUOUS
 62
     1
  5
30B
 10
-0.001103
 20
0.000071
 30
0.0
 42
-0.004038
  0
VERTEX
  8
1
  6
CONTINUOUS
 62
     1
  5
30C
 10
-0.002373
 20
0.000158
 30
0.0
 42
-0.003548
  0
VERTEX
  8
1
  6
CONTINUOUS
 62
     1
  5
30D
 10
-0.003725
 20
0.00027
 30
0.0
 42
-0.003367
  0
VERTEX
  8
1
  6
CONTINUOUS
 62
     1
  5
30E
 10
-0.005111
 20
0.000405
 30
0.0
 42
-0.003436
  0
VERTEX
  8
1
  6
CONTINUOUS
 62
     1
  5
30F
 10
-0.006481
 20
0.000556
 30
0.0
 42
-0.003778
  0
VERTEX
  8
1
  6
CONTINUOUS
 62
     1
  5
310
 10
-0.007786
 20
0.00072
 30
0.0
 42
-0.00451
  0
VERTEX
  8
1
  6
CONTINUOUS
 62
     1
  5
311
 10
-0.008979
 20
0.000889
 30
0.0
 42
-0.00594
  0
VERTEX
  8
1
  6
CONTINUOUS
 62
     1
  5
312
 10
-0.010018
 20
0.001058
 30
0.0
 42
-0.008921
  0
VERTEX
  8
1
  6
CONTINUOUS
 62
     1
  5
313
 10
-0.010864
 20
0.00122
 30
0.0
 42
-0.016392
  0
VERTEX
  8
1
  6
CONTINUOUS
 62
     1
  5
314
 10
-0.011488
 20
0.001371
 30
0.0
 42
-0.04458
  0
VERTEX
  8
1
  6
CONTINUOUS
 62
     1
  5
315
 10
-0.011867
 20
0.001503
 30
0.0
 42
-0.317392
  0
VERTEX
  8
1
  6
CONTINUOUS
 62
     1
  5
316
 10
-0.011987
 20
0.001614
 30
0.0
 42
-0.317392
  0
SEQEND
  8
1
  6
CONTINUOUS
 62
     1
  5
317
  0
ENDBLK
  8
1
  6
CONTINUOUS
 62
     1
  5
318
  0
ENDSEC
  0
SECTION
  2
ENTITIES
  0
LINE
  8
61
  6
CONTINUOUS
 62
     1
  5
29
 10
592.945083
 20
377.171
 30
0.0
 11
-46.094917
 21
377.171
 31
0.0
  0
LINE
  8
61
  6
CONTINUOUS
 62
     1
  5
2A
 10
-46.094917
 20
377.171
 30
0.0
 11
-46.094917
 21
-42.849
 31
0.0
  0
LINE
  8
61
  6
CONTINUOUS
 62
     1
  5
2B
 10
592.965083
 20
-42.869
 30
0.0
 11
-46.094917
 21
-42.849
 31
0.0
  0
LINE
  8
61
  6
CONTINUOUS
 62
     1
  5
2C
 10
592.945083
 20
377.171
 30
0.0
 11
592.965083
 21
-42.869
 31
0.0
  0
LINE
  8
61
  6
CONTINUOUS
 62
     7
  5
2D
 10
586.845083
 20
372.431
 30
0.0
 11
478.865083
 21
372.411
 31
0.0
  0
LINE
  8
61
  6
CONTINUOUS
 62
     7
  5
2E
 10
478.865083
 20
372.411
 30
0.0
 11
478.865083
 21
352.411
 31
0.0
  0
LINE
  8
61
  6
CONTINUOUS
 62
     7
  5
2F
 10
586.845083
 20
372.431
 30
0.0
 11
586.845083
 21
352.431
 31
0.0
  0
LINE
  8
61
  6
CONTINUOUS
 62
     7
  5
30
 10
488.865083
 20
372.411
 30
0.0
 11
488.865083
 21
352.411
 31
0.0
  0
LINE
  8
61
  6
CONTINUOUS
 62
     7
  5
31
 10
576.845083
 20
372.431
 30
0.0
 11
576.845083
 21
352.431
 31
0.0
  0
LINE
  8
61
  6
CONTINUOUS
 62
     7
  5
32
 10
566.845083
 20
372.431
 30
0.0
 11
566.845083
 21
352.431
 31
0.0
  0
LINE
  8
61
  6
CONTINUOUS
 62
     7
  5
33
 10
544.865083
 20
372.411
 30
0.0
 11
544.865083
 21
352.411
 31
0.0
  0
TEXT
  8
61
  6
CONTINUOUS
 62
     7
  5
35
 10
480.905083
 20
369.391
 30
0.0
 40
1.20075
  1
PUBLIC
 50
0.033272
 41
1.001804
  7
MONOTXT
210
0.0
220
0.0
230
1.0
  0
TEXT
  8
61
  6
CONTINUOUS
 62
     7
  5
36
 10
480.985083
 20
366.871
 30
0.0
 40
1.20075
  1
ROADS
 50
0.124322
 41
0.996877
  7
MONOTXT
210
0.0
220
0.0
230
1.0
  0
TEXT
  8
61
  6
CONTINUOUS
 62
     7
  5
37
 10
482.185083
 20
364.371
 30
0.0
 40
1.20075
  1
DIV.
 50
359.931522
 41
0.994864
  7
MONOTXT
210
0.0
220
0.0
230
1.0
  0
TEXT
  8
61
  6
CONTINUOUS
 62
     7
  5
38
 10
491.065083
 20
369.451
 30
0.0
 40
1.20075
  1
STATE
 50
0.058969
 41
0.998196
  7
MONOTXT
210
0.0
220
0.0
230
1.0
  0
TEXT
  8
61
  6
CONTINUOUS
 62
     7
  5
39
 10
491.945083
 20
366.951
 30
0.0
 40
1.20075
  1
DIST.
 50
0.055889
 41
0.999584
  7
MONOTXT
210
0.0
220
0.0
230
1.0
  0
TEXT
  8
61
  6
CONTINUOUS
 62
     7
  5
3A
 10
492.525083
 20
364.431
 30
0.0
 40
1.20075
  1
NO.
 50
359.852072
 41
0.997779
  7
MONOTXT
210
0.0
220
0.0
230
1.0
  0
TEXT
  8
61
  6
CONTINUOUS
 62
     7
  5
3B
 10
503.065083
 20
369.391
 30
0.0
 40
1.20075
  1
STATE
 50
0.058969
 41
0.998196
  7
MONOTXT
210
0.0
220
0.0
230
1.0
  0
TEXT
  8
61
  6
CONTINUOUS
 62
     7
  5
3C
 10
501.985083
 20
366.971
 30
0.0
 40
1.20075
  1
PROJECT
 50
359.908431
 41
1.000069
  7
MONOTXT
210
0.0
220
0.0
230
1.0
  0
TEXT
  8
61
  6
CONTINUOUS
 62
     7
  5
3D
 10
504.725083
 20
364.431
 30
0.0
 40
1.20075
  1
NO.
 50
0.225453
 41
0.993546
  7
MONOTXT
210
0.0
220
0.0
230
1.0
  0
TEXT
  8
61
  6
CONTINUOUS
 62
     7
  5
3E
 10
520.365083
 20
368.271
 30
0.0
 40
1.20075
  1
FEDERAL
 50
0.006714
 41
0.998543
  7
MONOTXT
210
0.0
220
0.0
230
1.0
  0
TEXT
  8
61
  6
CONTINUOUS
 62
     7
  5
3F
 10
518.825083
 20
365.611
 30
0.0
 40
1.20075
  1
PROJECT NO.
 50
359.921531
 41
1.000694
  7
MONOTXT
210
0.0
220
0.0
230
1.0
  0
TEXT
  8
61
  6
CONTINUOUS
 62
     7
  5
40
 10
537.105083
 20
368.211
 30
0.0
 40
1.20075
  1
FISCAL
 50
359.941939
 41
0.998959
  7
MONOTXT
210
0.0
220
0.0
230
1.0
  0
TEXT
  8
61
  6
CONTINUOUS
 62
     7
  5
41
 10
537.625083
 20
365.311
 30
0.0
 40
1.20075
  1
YEAR
 50
0.104606
 41
0.993268
  7
MONOTXT
210
0.0
220
0.0
230
1.0
  0
TEXT
  8
61
  6
CONTINUOUS
 62
     7
  5
42
 10
551.725083
 20
366.671
 30
0.0
 40
1.20075
  1
COUNTY
 50
0.068575
 41
1.001874
  7
MONOTXT
210
0.0
220
0.0
230
1.0
  0
TEXT
  8
61
  6
CONTINUOUS
 62
     7
  5
43
 10
569.365083
 20
368.331
 30
0.0
 40
1.20075
  1
SHEET
 50
0.058969
 41
0.997571
  7
MONOTXT
210
0.0
220
0.0
230
1.0
  0
TEXT
  8
61
  6
CONTINUOUS
 62
     7
  5
44
 10
570.785083
 20
365.611
 30
0.0
 40
1.20075
  1
NO.
 50
359.852072
 41
0.997779
  7
MONOTXT
210
0.0
220
0.0
230
1.0
  0
TEXT
  8
61
  6
CONTINUOUS
 62
     7
  5
45
 10
579.105083
 20
368.191
 30
0.0
 40
1.20075
  1
TOTAL
 50
359.926039
 41
0.998543
  7
MONOTXT
210
0.0
220
0.0
230
1.0
  0
TEXT
  8
61
  6
CONTINUOUS
 62
     7
  5
46
 10
578.645083
 20
365.491
 30
0.0
 40
1.20075
  1
SHEETS
 50
359.958675
  7
MONOTXT
210
0.0
220
0.0
230
1.0
  0
TEXT
  8
61
  6
CONTINUOUS
 62
     7
  5
47
 10
568.645083
 20
356.331
 30
0.0
 40
2.401333
  1
   
 50
0.011508
 41
1.001006
  7
MONOTXT
210
0.0
220
0.0
230
1.0
  0
TEXT
  8
61
  6
CONTINUOUS
 62
     7
  5
48
 10
578.525083
 20
356.311
 30
0.0
 40
2.401333
  1
   
 50
359.922128
 41
1.000555
  7
MONOTXT
210
0.0
220
0.0
230
1.0
  0
ARC
  8
61
  6
CONTINUOUS
 62
     3
  5
49
 10
-64.39716
 20
288.412295
 30
0.0
 40
2.499998
 50
323.130094
 51
316.232156
210
0.0
220
0.0
230
1.0
  0
ARC
  8
61
  6
CONTINUOUS
 62
     3
  5
4A
 10
-64.39716
 20
233.412295
 30
0.0
 40
2.499998
 50
323.130094
 51
315.375767
210
0.0
220
0.0
230
1.0
  0
ARC
  8
61
  6
CONTINUOUS
 62
     3
  5
4B
 10
-64.67716
 20
84.972295
 30
0.0
 40
2.499998
 50
322.671753
 51
321.716147
210
0.0
220
0.0
230
1.0
  0
ARC
  8
61
  6
CONTINUOUS
 62
     3
  5
4C
 10
-64.67716
 20
29.972295
 30
0.0
 40
2.499998
 50
323.130094
 51
312.314392
210
0.0
220
0.0
230
1.0
  0
LINE
  8
61
  6
CONTINUOUS
 62
     2
  5
4D
 10
-62.374917
 20
288.411
 30
0.0
 11
-54.394917
 21
288.431
 31
0.0
  0
LINE
  8
61
  6
CONTINUOUS
 62
     2
  5
4E
 10
-62.394917
 20
233.411
 30
0.0
 11
-54.394917
 21
233.411
 31
0.0
  0
LINE
  8
61
  6
CONTINUOUS
 62
     2
  5
4F
 10
-62.674917
 20
84.991
 30
0.0
 11
-54.674917
 21
84.991
 31
0.0
  0
LINE
  8
61
  6
CONTINUOUS
 62
     2
  5
50
 10
-62.654917
 20
29.971
 30
0.0
 11
-54.674917
 21
29.971
 31
0.0
  0
LINE
  8
61
  6
DASHED
 62
     1
  5
51
 10
-76.094917
 20
387.171
 30
0.0
 11
603.925083
 21
387.171
 31
0.0
  0
LINE
  8
61
  6
DASHED
 62
     1
  5
52
 10
603.905083
 20
-52.849
 30
0.0
 11
-76.154917
 21
-52.869
 31
0.0
  0
TEXT
  8
61
  6
CONTINUOUS
 62
     7
  5
53
 10
579.745083
 20
332.511
 30
0.0
 40
2.401333
  1
     
 41
1.001388
  7
MONOTXT
210
0.0
220
0.0
230
1.0
  0
LINE
  8
1
  6
HIDDEN
 62
     1
  5
55
 10
603.925083
 20
387.171
 30
0.0
 11
603.905083
 21
-52.849
 31
0.0
  0
LINE
  8
1
  6
HIDDEN
 62
     1
  5
56
 10
-76.094917
 20
387.171
 30
0.0
 11
-76.154917
 21
-52.869
 31
0.0
  0
TEXT
  8
1
  6
CONTINUOUS
 62
     1
  5
58
 10
558.685083
 20
-45.369
 30
0.0
 40
1.2
  1
TRAFFIC ENGINEERING DIVISION
  7
txt
210
0.0
220
0.0
230
1.0
  0
LINE
  8
1
  6
CONTINUOUS
 62
     7
  5
59
 10
421.305083
 20
-42.869
 30
0.0
 11
421.305083
 21
48.711
 31
0.0
  0
LINE
  8
1
  6
CONTINUOUS
 62
     7
  5
5A
 10
421.305083
 20
48.711
 30
0.0
 11
592.965083
 21
48.711
 31
0.0
  0
LINE
  8
1
  6
CONTINUOUS
 62
     7
  5
5B
 10
456.305083
 20
-42.909
 30
0.0
 11
456.305083
 21
2.051
 31
0.0
  0
LINE
  8
1
  6
CONTINUOUS
 62
     7
  5
5C
 10
456.305083
 20
2.051
 30
0.0
 11
421.325083
 21
2.051
 31
0.0
  0
LINE
  8
1
  6
CONTINUOUS
 62
     7
  5
5D
 10
456.305083
 20
-2.429
 30
0.0
 11
421.325083
 21
-2.429
 31
0.0
  0
LINE
  8
1
  6
CONTINUOUS
 62
     7
  5
5E
 10
456.305083
 20
-6.929
 30
0.0
 11
421.325083
 21
-6.929
 31
0.0
  0
LINE
  8
1
  6
CONTINUOUS
 62
     7
  5
5F
 10
456.305083
 20
-11.429
 30
0.0
 11
421.325083
 21
-11.429
 31
0.0
  0
LINE
  8
1
  6
CONTINUOUS
 62
     7
  5
60
 10
456.305083
 20
-15.949
 30
0.0
 11
421.325083
 21
-15.949
 31
0.0
  0
LINE
  8
1
  6
CONTINUOUS
 62
     7
  5
61
 10
456.305083
 20
-20.429
 30
0.0
 11
421.325083
 21
-20.429
 31
0.0
  0
LINE
  8
1
  6
CONTINUOUS
 62
     7
  5
62
 10
456.305083
 20
-24.909
 30
0.0
 11
421.325083
 21
-24.909
 31
0.0
  0
LINE
  8
1
  6
CONTINUOUS
 62
     7
  5
63
 10
456.305083
 20
-29.409
 30
0.0
 11
421.325083
 21
-29.409
 31
0.0
  0
LINE
  8
1
  6
CONTINUOUS
 62
     7
  5
64
 10
456.305083
 20
-33.909
 30
0.0
 11
421.325083
 21
-33.909
 31
0.0
  0
LINE
  8
1
  6
CONTINUOUS
 62
     7
  5
65
 10
456.305083
 20
-38.429
 30
0.0
 11
421.325083
 21
-38.429
 31
0.0
  0
TEXT
  8
1
  6
CONTINUOUS
 62
     7
  5
66
 10
431.585083
 20
-0.949
 30
0.0
 40
1.99775
  1
REVISIONS
  7
MONOTXT
210
0.0
220
0.0
230
1.0
  0
TEXT
  8
1
  6
CONTINUOUS
 62
     7
  5
67
 10
423.265083
 20
3.051
 30
0.0
 40
1.99775
  1
PREPARED: 07/00/71
  7
MONOTXT
210
0.0
220
0.0
230
1.0
  0
TEXT
  8
1
  6
CONTINUOUS
 62
     7
  5
69
 10
453.925083
 20
40.111
 30
0.0
 40
4.794833
  1
WEST VIRGINIA DIVISION OF HIGHWAYS
  7
ROMANT
 72
     1
 11
507.895333
 21
44.905833
 31
0.0
210
0.0
220
0.0
230
1.0
 73
     3
  0
TEXT
  8
1
  6
CONTINUOUS
 62
     7
  5
6A
 10
464.685083
 20
28.951
 30
0.0
 40
6.992667
  1
STANDARD DETAIL
  7
txt
 72
     1
 11
509.175167
 21
35.943667
 31
0.0
210
0.0
220
0.0
230
1.0
 73
     3
  0
TEXT
  8
1
  6
CONTINUOUS
 62
     7
  5
6B
 10
460.145083
 20
-38.829
 30
0.0
 40
6.992667
  1
STANDARD SHEET TEM-4 
  7
txt
210
0.0
220
0.0
230
1.0
  0
TEXT
  8
1
  6
CONTINUOUS
 62
     1
  5
6C
 10
430.99875
 20
-6.009
 30
0.0
 40
2.0
  1
03-00-73
  7
MONOTXT
 72
     1
 11
438.282333
 21
-4.009
 31
0.0
210
0.0
220
0.0
230
1.0
 73
     3
  0
TEXT
  8
1
  6
CONTINUOUS
 62
     1
  5
6D
 10
430.97875
 20
-10.409
 30
0.0
 40
2.0
  1
06-00-74
  7
MONOTXT
 72
     1
 11
438.262333
 21
-8.409
 31
0.0
210
0.0
220
0.0
230
1.0
 73
     3
  0
TEXT
  8
1
  6
CONTINUOUS
 62
     1
  5
6E
 10
430.9515
 20
-14.809
 30
0.0
 40
2.0
  1
04-22-75
  7
MONOTXT
 72
     1
 11
438.282333
 21
-12.809
 31
0.0
210
0.0
220
0.0
230
1.0
 73
     3
  0
TEXT
  8
1
  6
CONTINUOUS
 62
     1
  5
6F
 10
431.833417
 20
-19.209
 30
0.0
 40
2.0
  1
11-23-77
  7
MONOTXT
 72
     1
 11
438.274417
 21
-17.209
 31
0.0
210
0.0
220
0.0
230
1.0
 73
     3
  0
TEXT
  8
1
  6
CONTINUOUS
 62
     1
  5
70
 10
432.555333
 20
-23.809
 30
0.0
 40
2.0
  1
11-10-81
  7
MONOTXT
 72
     1
 11
438.1145
 21
-21.809
 31
0.0
210
0.0
220
0.0
230
1.0
 73
     3
  0
TEXT
  8
1
  6
CONTINUOUS
 62
     1
  5
71
 10
431.0145
 20
-28.289
 30
0.0
 40
2.0
  1
09-05-84
  7
MONOTXT
 72
     1
 11
438.282333
 21
-26.289
 31
0.0
210
0.0
220
0.0
230
1.0
 73
     3
  0
TEXT
  8
1
  6
CONTINUOUS
 62
     1
  5
72
 10
431.812167
 20
-32.889
 30
0.0
 40
2.0
  1
12-10-92
  7
MONOTXT
 72
     1
 11
438.182333
 21
-30.889
 31
0.0
210
0.0
220
0.0
230
1.0
 73
     3
  0
TEXT
  8
1
  6
CONTINUOUS
 62
     1
  5
73
 10
430.605083
 20
-37.469
 30
0.0
 40
2.0
  1
        
  7
MONOTXT
 72
     1
 11
438.271917
 21
-35.469
 31
0.0
210
0.0
220
0.0
230
1.0
 73
     3
  0
TEXT
  8
1
  6
CONTINUOUS
 62
     1
  5
74
 10
430.605083
 20
-41.489
 30
0.0
 40
2.0
  1
        
  7
MONOTXT
 72
     1
 11
438.271917
 21
-39.489
 31
0.0
210
0.0
220
0.0
230
1.0
 73
     3
  0
TEXT
  8
1
  6
CONTINUOUS
 62
     7
  5
75
 10
459.225417
 20
19.3665
 30
0.0
 40
6.992667
  1
PAVEMENT MARKERS
  7
txt
 72
     1
 11
509.340583
 21
26.359167
 31
0.0
210
0.0
220
0.0
230
1.0
 73
     3
  0
TEXT
  8
1
  6
CONTINUOUS
 62
     7
  5
76
 10
458.892583
 20
9.782
 30
0.0
 40
6.992667
  1
TYPES "P", "R" & "C"
  7
txt
 72
     1
 11
509.50575
 21
16.774667
 31
0.0
210
0.0
220
0.0
230
1.0
 73
     3
  0
POLYLINE
  8
1
  6
CONTINUOUS
 62
     7
  5
77
 66
     1
 10
0.0
 20
0.0
 30
0.0
  0
VERTEX
  8
1
  6
CONTINUOUS
 62
     7
  5
78
 10
422.780417
 20
53.938583
 30
0.0
  0
VERTEX
  8
1
  6
CONTINUOUS
 62
     7
  5
79
 10
421.11375
 20
51.051833
 30
0.0
  0
VERTEX
  8
1
  6
CONTINUOUS
 62
     7
  5
7A
 10
424.447083
 20
51.051833
 30
0.0
  0
VERTEX
  8
1
  6
CONTINUOUS
 62
     7
  5
7B
 10
422.780417
 20
53.938583
 30
0.0
  0
SEQEND
  8
1
  6
CONTINUOUS
 62
     7
  5
7C
  0
POLYLINE
  8
1
  6
CONTINUOUS
 62
     7
  5
7D
 66
     1
 10
0.0
 20
0.0
 30
0.0
  0
VERTEX
  8
1
  6
CONTINUOUS
 62
     7
  5
7E
 10
422.945583
 20
58.400333
 30
0.0
  0
VERTEX
  8
1
  6
CONTINUOUS
 62
     7
  5
7F
 10
421.278917
 20
55.513583
 30
0.0
  0
VERTEX
  8
1
  6
CONTINUOUS
 62
     7
  5
80
 10
424.61225
 20
55.513583
 30
0.0
  0
VERTEX
  8
1
  6
CONTINUOUS
 62
     7
  5
81
 10
422.945583
 20
58.400333
 30
0.0
  0
SEQEND
  8
1
  6
CONTINUOUS
 62
     7
  5
82
  0
POLYLINE
  8
1
  6
CONTINUOUS
 62
     7
  5
83
 66
     1
 10
0.0
 20
0.0
 30
0.0
  0
VERTEX
  8
1
  6
CONTINUOUS
 62
     7
  5
84
 10
422.945583
 20
62.862083
 30
0.0
  0
VERTEX
  8
1
  6
CONTINUOUS
 62
     7
  5
85
 10
421.278917
 20
59.975333
 30
0.0
  0
VERTEX
  8
1
  6
CONTINUOUS
 62
     7
  5
86
 10
424.61225
 20
59.975333
 30
0.0
  0
VERTEX
  8
1
  6
CONTINUOUS
 62
     7
  5
87
 10
422.945583
 20
62.862083
 30
0.0
  0
SEQEND
  8
1
  6
CONTINUOUS
 62
     7
  5
88
  0
POLYLINE
  8
1
  6
CONTINUOUS
 62
     7
  5
89
 66
     1
 10
0.0
 20
0.0
 30
0.0
  0
VERTEX
  8
1
  6
CONTINUOUS
 62
     7
  5
8A
 10
423.110833
 20
67.158583
 30
0.0
  0
VERTEX
  8
1
  6
CONTINUOUS
 62
     7
  5
8B
 10
421.444167
 20
64.271833
 30
0.0
  0
VERTEX
  8
1
  6
CONTINUOUS
 62
     7
  5
8C
 10
424.7775
 20
64.271833
 30
0.0
  0
VERTEX
  8
1
  6
CONTINUOUS
 62
     7
  5
8D
 10
423.110833
 20
67.158583
 30
0.0
  0
SEQEND
  8
1
  6
CONTINUOUS
 62
     7
  5
8E
  0
POLYLINE
  8
1
  6
CONTINUOUS
 62
     7
  5
8F
 66
     1
 10
0.0
 20
0.0
 30
0.0
  0
VERTEX
  8
1
  6
CONTINUOUS
 62
     7
  5
90
 10
425.093083
 20
-16.700667
 30
0.0
  0
VERTEX
  8
1
  6
CONTINUOUS
 62
     7
  5
91
 10
423.426417
 20
-19.587417
 30
0.0
  0
VERTEX
  8
1
  6
CONTINUOUS
 62
     7
  5
92
 10
426.75975
 20
-19.587417
 30
0.0
  0
VERTEX
  8
1
  6
CONTINUOUS
 62
     7
  5
93
 10
425.093083
 20
-16.700667
 30
0.0
  0
SEQEND
  8
1
  6
CONTINUOUS
 62
     7
  5
94
  0
POLYLINE
  8
1
  6
CONTINUOUS
 62
     7
  5
95
 66
     1
 10
0.0
 20
0.0
 30
0.0
  0
VERTEX
  8
1
  6
CONTINUOUS
 62
     7
  5
96
 10
425.25825
 20
-21.162417
 30
0.0
  0
VERTEX
  8
1
  6
CONTINUOUS
 62
     7
  5
97
 10
423.591583
 20
-24.049167
 30
0.0
  0
VERTEX
  8
1
  6
CONTINUOUS
 62
     7
  5
98
 10
426.924917
 20
-24.049167
 30
0.0
  0
VERTEX
  8
1
  6
CONTINUOUS
 62
     7
  5
99
 10
425.25825
 20
-21.162417
 30
0.0
  0
SEQEND
  8
1
  6
CONTINUOUS
 62
     7
  5
9A
  0
POLYLINE
  8
1
  6
CONTINUOUS
 62
     7
  5
9B
 66
     1
 10
0.0
 20
0.0
 30
0.0
  0
VERTEX
  8
1
  6
CONTINUOUS
 62
     7
  5
9C
 10
425.25825
 20
-25.624167
 30
0.0
  0
VERTEX
  8
1
  6
CONTINUOUS
 62
     7
  5
9D
 10
423.591583
 20
-28.510917
 30
0.0
  0
VERTEX
  8
1
  6
CONTINUOUS
 62
     7
  5
9E
 10
426.924917
 20
-28.510917
 30
0.0
  0
VERTEX
  8
1
  6
CONTINUOUS
 62
     7
  5
9F
 10
425.25825
 20
-25.624167
 30
0.0
  0
SEQEND
  8
1
  6
CONTINUOUS
 62
     7
  5
A0
  0
TEXT
  8
1
  6
CONTINUOUS
 62
     7
  5
A1
 10
422.87875
 20
64.847
 30
0.0
 40
1.25
  1
1
  7
MONOTXT
210
0.0
220
0.0
230
1.0
  0
TEXT
  8
1
  6
CONTINUOUS
 62
     7
  5
A2
 10
422.5245
 20
60.388
 30
0.0
 40
1.25
  1
2
  7
MONOTXT
210
0.0
220
0.0
230
1.0
  0
TEXT
  8
1
  6
CONTINUOUS
 62
     7
  5
A3
 10
422.5245
 20
55.928917
 30
0.0
 40
1.25
  1
3
  7
MONOTXT
210
0.0
220
0.0
230
1.0
  0
TEXT
  8
1
  6
CONTINUOUS
 62
     7
  5
A4
 10
422.258833
 20
51.4995
 30
0.0
 40
1.25
  1
4
  7
MONOTXT
210
0.0
220
0.0
230
1.0
  0
POLYLINE
  8
1
  6
CONTINUOUS
 62
     7
  5
A5
 66
     1
 10
0.0
 20
0.0
 30
0.0
  0
VERTEX
  8
1
  6
CONTINUOUS
 62
     7
  5
A6
 10
425.182833
 20
-30.15325
 30
0.0
  0
VERTEX
  8
1
  6
CONTINUOUS
 62
     7
  5
A7
 10
423.516167
 20
-33.04
 30
0.0
  0
VERTEX
  8
1
  6
CONTINUOUS
 62
     7
  5
A8
 10
426.8495
 20
-33.04
 30
0.0
  0
VERTEX
  8
1
  6
CONTINUOUS
 62
     7
  5
A9
 10
425.182833
 20
-30.15325
 30
0.0
  0
SEQEND
  8
1
  6
CONTINUOUS
 62
     7
  5
AA
  0
TEXT
  8
1
  6
CONTINUOUS
 62
     7
  5
AB
 10
424.820833
 20
-19.090833
 30
0.0
 40
1.25
  1
1
  7
MONOTXT
210
0.0
220
0.0
230
1.0
  0
TEXT
  8
1
  6
CONTINUOUS
 62
     7
  5
AC
 10
424.820833
 20
-23.582167
 30
0.0
 40
1.25
  1
2
  7
MONOTXT
210
0.0
220
0.0
230
1.0
  0
TEXT
  8
1
  6
CONTINUOUS
 62
     7
  5
AD
 10
424.783167
 20
-28.11125
 30
0.0
 40
1.25
  1
3
  7
MONOTXT
210
0.0
220
0.0
230
1.0
  0
TEXT
  8
1
  6
CONTINUOUS
 62
     7
  5
AE
 10
424.707667
 20
-32.527083
 30
0.0
 40
1.25
  1
4
  7
MONOTXT
210
0.0
220
0.0
230
1.0
  0
TEXT
  8
1
  6
CONTINUOUS
 62
     7
  5
AF
 10
426.016917
 20
65.05625
 30
0.0
 40
1.666667
  1
ADDED TYPE P-2 MARKERS
  7
MONOTXT
210
0.0
220
0.0
230
1.0
  0
TEXT
  8
1
  6
CONTINUOUS
 62
     7
  5
B0
 10
426.210167
 20
60.706
 30
0.0
 40
1.666667
  1
REVISED P-2 DIMENSIONS
  7
MONOTXT
210
0.0
220
0.0
230
1.0
  0
TEXT
  8
1
  6
CONTINUOUS
 62
     7
  5
B1
 10
426.1135
 20
56.162417
 30
0.0
 40
1.666667
  1
REVISED P-2, R-4, C-4, C-8 MARKERS
  7
MONOTXT
210
0.0
220
0.0
230
1.0
  0
TEXT
  8
1
  6
CONTINUOUS
 62
     7
  5
B2
 10
426.1135
 20
51.7155
 30
0.0
 40
1.666667
  1
REVISED P-2, ADDED C-6
  7
MONOTXT
210
0.0
220
0.0
230
1.0
  0
LINE
  8
1
  6
CONTINUOUS
 62
    52
  5
B3
 10
23.0145
 20
346.405333
 30
0.0
 11
23.0145
 21
231.405333
 31
0.0
  0
LINE
  8
1
  6
CONTINUOUS
 62
    52
  5
B4
 10
79.5145
 20
346.405333
 30
0.0
 11
79.5145
 21
231.405333
 31
0.0
  0
LINE
  8
1
  6
CONTINUOUS
 62
    52
  5
B5
 10
23.0145
 20
346.405333
 30
0.0
 11
31.0145
 21
346.405333
 31
0.0
  0
LINE
  8
1
  6
CONTINUOUS
 62
    52
  5
B6
 10
71.5145
 20
346.405333
 30
0.0
 11
79.5145
 21
346.405333
 31
0.0
  0
LINE
  8
1
  6
CONTINUOUS
 62
    52
  5
B7
 10
23.0145
 20
231.405333
 30
0.0
 11
31.0145
 21
231.405333
 31
0.0
  0
LINE
  8
1
  6
CONTINUOUS
 62
    52
  5
B8
 10
71.5145
 20
231.405333
 30
0.0
 11
79.5145
 21
231.405333
 31
0.0
  0
LINE
  8
1
  6
CONTINUOUS
 62
    52
  5
B9
 10
30.5145
 20
290.655333
 30
0.0
 11
72.0145
 21
290.655333
 31
0.0
  0
LINE
  8
1
  6
CONTINUOUS
 62
    52
  5
BA
 10
30.5145
 20
287.155333
 30
0.0
 11
72.0145
 21
287.155333
 31
0.0
  0
LINE
  8
1
  6
CONTINUOUS
 62
    52
  5
BB
 10
30.5145
 20
295.655333
 30
0.0
 11
72.0145
 21
295.655333
 31
0.0
  0
LINE
  8
1
  6
CONTINUOUS
 62
    52
  5
BC
 10
30.5145
 20
282.155333
 30
0.0
 11
72.0145
 21
282.155333
 31
0.0
  0
LINE
  8
1
  6
CONTINUOUS
 62
    52
  5
BD
 10
31.5145
 20
297.155333
 30
0.0
 11
71.0145
 21
297.155333
 31
0.0
  0
LINE
  8
1
  6
CONTINUOUS
 62
    52
  5
BE
 10
31.5145
 20
280.655333
 30
0.0
 11
71.0145
 21
280.655333
 31
0.0
  0
LINE
  8
1
  6
CONTINUOUS
 62
    52
  5
BF
 10
28.733667
 20
298.655333
 30
0.0
 11
73.827333
 21
298.655333
 31
0.0
  0
LINE
  8
1
  6
CONTINUOUS
 62
    52
  5
C0
 10
28.741667
 20
279.155333
 30
0.0
 11
73.799083
 21
279.155333
 31
0.0
  0
LINE
  8
1
  6
CONTINUOUS
 62
    52
  5
C1
 10
29.0145
 20
296.655333
 30
0.0
 11
29.0145
 21
281.155333
 31
0.0
  0
LINE
  8
1
  6
CONTINUOUS
 62
    52
  5
C2
 10
28.5145
 20
298.155333
 30
0.0
 11
28.5145
 21
279.655333
 31
0.0
  0
LINE
  8
1
  6
CONTINUOUS
 62
    52
  5
C3
 10
31.0145
 20
346.405333
 30
0.0
 11
31.0145
 21
298.655333
 31
0.0
  0
LINE
  8
1
  6
CONTINUOUS
 62
    52
  5
C4
 10
31.0145
 20
279.155333
 30
0.0
 11
31.0145
 21
231.405333
 31
0.0
  0
LINE
  8
1
  6
CONTINUOUS
 62
    52
  5
C5
 10
71.5145
 20
346.405333
 30
0.0
 11
71.5145
 21
298.655333
 31
0.0
  0
LINE
  8
1
  6
CONTINUOUS
 62
    52
  5
C6
 10
71.5145
 20
279.155333
 30
0.0
 11
71.5145
 21
231.405333
 31
0.0
  0
ARC
  8
1
  6
CONTINUOUS
 62
    52
  5
C7
 10
2.597563
 20
309.815112
 30
0.0
 40
28.418974
 50
335.777483
 51
0.685942
210
0.0
220
0.0
230
1.0
  0
ARC
  8
1
  6
CONTINUOUS
 62
    52
  5
C8
 10
4.286263
 20
268.347367
 30
0.0
 40
26.737194
 50
358.516858
 51
25.019722
210
0.0
220
0.0
230
1.0
  0
ARC
  8
1
  6
CONTINUOUS
 62
    52
  5
C9
 10
31.0145
 20
296.655333
 30
0.0
 40
2.0
 50
90.0
 51
180.0
210
0.0
220
0.0
230
1.0
  0
ARC
  8
1
  6
CONTINUOUS
 62
    52
  5
CA
 10
31.0145
 20
281.155333
 30
0.0
 40
2.0
 50
180.0
 51
270.0
210
0.0
220
0.0
230
1.0
  0
LINE
  8
1
  6
CONTINUOUS
 62
    52
  5
CB
 10
30.5145
 20
296.155333
 30
0.0
 11
30.5145
 21
281.655333
 31
0.0
  0
LINE
  8
1
  6
CONTINUOUS
 62
    52
  5
CC
 10
72.0145
 20
296.155333
 30
0.0
 11
72.0145
 21
281.655333
 31
0.0
  0
LINE
  8
1
  6
CONTINUOUS
 62
    52
  5
CD
 10
73.5145
 20
296.655333
 30
0.0
 11
73.5145
 21
281.155333
 31
0.0
  0
LINE
  8
1
  6
CONTINUOUS
 62
    52
  5
CE
 10
74.0145
 20
298.155333
 30
0.0
 11
74.0145
 21
279.655333
 31
0.0
  0
ARC
  8
1
  6
CONTINUOUS
 62
    52
  5
CF
 10
109.9974
 20
311.912188
 30
0.0
 40
38.522982
 50
182.6139
 51
200.922678
210
0.0
220
0.0
230
1.0
  0
ARC
  8
1
  6
CONTINUOUS
 62
    52
  5
D0
 10
100.823965
 20
267.809611
 30
0.0
 40
29.309871
 50
156.161833
 51
180.301589
210
0.0
220
0.0
230
1.0
  0
ARC
  8
1
  6
CONTINUOUS
 62
    52
  5
D1
 10
71.5145
 20
296.655333
 30
0.0
 40
2.0
 50
0.0
 51
90.0
210
0.0
220
0.0
230
1.0
  0
ARC
  8
1
  6
CONTINUOUS
 62
    52
  5
D2
 10
71.5145
 20
281.155333
 30
0.0
 40
2.0
 50
270.0
 51
0.0
210
0.0
220
0.0
230
1.0
  0
LINE
  8
1
  6
CONTINUOUS
 62
    52
  5
D3
 10
30.5145
 20
295.655333
 30
0.0
 11
39.7315
 21
292.623583
 31
0.0
  0
LINE
  8
1
  6
CONTINUOUS
 62
    52
  5
D4
 10
36.59075
 20
294.03975
 30
0.0
 11
41.716417
 21
292.35375
 31
0.0
  0
LINE
  8
1
  6
CONTINUOUS
 62
    52
  5
D5
 10
34.199
 20
294.040667
 30
0.0
 11
35.812
 21
293.510083
 31
0.0
  0
LINE
  8
1
  6
CONTINUOUS
 62
    52
  5
D6
 10
30.5145
 20
282.155333
 30
0.0
 11
39.7315
 21
285.187083
 31
0.0
  0
LINE
  8
1
  6
CONTINUOUS
 62
    52
  5
D7
 10
36.59075
 20
283.770917
 30
0.0
 11
41.716417
 21
285.456917
 31
0.0
  0
LINE
  8
1
  6
CONTINUOUS
 62
    52
  5
D8
 10
34.199
 20
283.77
 30
0.0
 11
35.812
 21
284.300583
 31
0.0
  0
LINE
  8
1
  6
CONTINUOUS
 62
    52
  5
D9
 10
72.0145
 20
290.655333
 30
0.0
 11
59.111333
 21
295.66075
 31
0.0
  0
LINE
  8
1
  6
CONTINUOUS
 62
    52
  5
DA
 10
72.10875
 20
290.89825
 30
0.0
 11
64.711
 21
293.768
 31
0.0
  0
LINE
  8
1
  6
CONTINUOUS
 62
    52
  5
DB
 10
72.0145
 20
291.446
 30
0.0
 11
67.176417
 21
293.322833
 31
0.0
  0
LINE
  8
1
  6
CONTINUOUS
 62
    52
  5
DC
 10
65.860083
 20
292.812333
 30
0.0
 11
62.276333
 21
294.202583
 31
0.0
  0
LINE
  8
1
  6
CONTINUOUS
 62
    52
  5
DD
 10
72.0145
 20
287.155333
 30
0.0
 11
59.111333
 21
282.149917
 31
0.0
  0
LINE
  8
1
  6
CONTINUOUS
 62
    52
  5
DE
 10
72.10875
 20
286.912417
 30
0.0
 11
64.711
 21
284.042667
 31
0.0
  0
LINE
  8
1
  6
CONTINUOUS
 62
    52
  5
DF
 10
72.0145
 20
286.364667
 30
0.0
 11
67.176417
 21
284.487833
 31
0.0
  0
LINE
  8
1
  6
CONTINUOUS
 62
    52
  5
E0
 10
65.860083
 20
284.998333
 30
0.0
 11
62.276333
 21
283.608083
 31
0.0
  0
LINE
  8
1
  6
CONTINUOUS
 62
    52
  5
E1
 10
19.5145
 20
317.905333
 30
0.0
 11
19.5145
 21
308.405333
 31
0.0
  0
LINE
  8
1
  6
CONTINUOUS
 62
    52
  5
E2
 10
19.5145
 20
269.405333
 30
0.0
 11
19.5145
 21
259.905333
 31
0.0
  0
LINE
  8
1
  6
CONTINUOUS
 62
    52
  5
E3
 10
83.0145
 20
317.905333
 30
0.0
 11
83.0145
 21
308.405333
 31
0.0
  0
LINE
  8
1
  6
CONTINUOUS
 62
    52
  5
E4
 10
83.0145
 20
269.405333
 30
0.0
 11
83.0145
 21
259.905333
 31
0.0
  0
ARC
  8
1
  6
CONTINUOUS
 62
    52
  5
E5
 10
16.642211
 20
323.750448
 30
0.0
 40
6.512711
 50
296.169503
 51
348.080525
210
0.0
220
0.0
230
1.0
  0
ARC
  8
1
  6
CONTINUOUS
 62
    52
  5
E6
 10
-67.769027
 20
269.281185
 30
0.0
 40
95.650996
 50
18.357078
 51
24.143928
210
0.0
220
0.0
230
1.0
  0
ARC
  8
1
  6
CONTINUOUS
 62
    52
  5
E7
 10
85.886789
 20
323.750448
 30
0.0
 40
6.512711
 50
191.919475
 51
243.830497
210
0.0
220
0.0
230
1.0
  0
ARC
  8
1
  6
CONTINUOUS
 62
    52
  5
E8
 10
170.298027
 20
269.281185
 30
0.0
 40
95.650996
 50
155.856072
 51
161.642922
210
0.0
220
0.0
230
1.0
  0
ARC
  8
1
  6
CONTINUOUS
 62
    52
  5
E9
 10
16.642211
 20
254.060219
 30
0.0
 40
6.512711
 50
11.919475
 51
63.830497
210
0.0
220
0.0
230
1.0
  0
ARC
  8
1
  6
CONTINUOUS
 62
    52
  5
EA
 10
85.886789
 20
254.060219
 30
0.0
 40
6.512711
 50
116.169503
 51
168.080525
210
0.0
220
0.0
230
1.0
  0
ARC
  8
1
  6
CONTINUOUS
 62
    52
  5
EB
 10
-67.769027
 20
308.529481
 30
0.0
 40
95.650996
 50
335.856072
 51
341.642922
210
0.0
220
0.0
230
1.0
  0
ARC
  8
1
  6
CONTINUOUS
 62
    52
  5
EC
 10
170.298027
 20
308.529481
 30
0.0
 40
95.650996
 50
198.357078
 51
204.143928
210
0.0
220
0.0
230
1.0
  0
LINE
  8
1
  6
CONTINUOUS
 62
    52
  5
ED
 10
37.0145
 20
318.155333
 30
0.0
 11
65.5145
 21
318.155333
 31
0.0
  0
LINE
  8
1
  6
CONTINUOUS
 62
    52
  5
EE
 10
37.0145
 20
259.655333
 30
0.0
 11
65.5145
 21
259.655333
 31
0.0
  0
ARC
  8
1
  6
CONTINUOUS
 62
    52
  5
EF
 10
36.533442
 20
323.836487
 30
0.0
 40
5.701485
 50
194.537542
 51
274.840036
210
0.0
220
0.0
230
1.0
  0
ARC
  8
1
  6
CONTINUOUS
 62
    52
  5
F0
 10
65.995558
 20
323.836487
 30
0.0
 40
5.701485
 50
265.159964
 51
345.462458
210
0.0
220
0.0
230
1.0
  0
ARC
  8
1
  6
CONTINUOUS
 62
    52
  5
F1
 10
36.533442
 20
253.974179
 30
0.0
 40
5.701485
 50
85.159964
 51
165.462458
210
0.0
220
0.0
230
1.0
  0
ARC
  8
1
  6
CONTINUOUS
 62
    52
  5
F2
 10
65.995558
 20
253.974179
 30
0.0
 40
5.701485
 50
14.537542
 51
94.840036
210
0.0
220
0.0
230
1.0
  0
LINE
  8
1
  6
CONTINUOUS
 62
    52
  5
F3
 10
31.0145
 20
303.155333
 30
0.0
 11
37.0145
 21
303.155333
 31
0.0
  0
LINE
  8
1
  6
CONTINUOUS
 62
    52
  5
F4
 10
37.0145
 20
303.155333
 30
0.0
 11
37.0145
 21
298.655333
 31
0.0
  0
LINE
  8
1
  6
CONTINUOUS
 62
    52
  5
F5
 10
71.5145
 20
303.155333
 30
0.0
 11
65.5145
 21
303.155333
 31
0.0
  0
LINE
  8
1
  6
CONTINUOUS
 62
    52
  5
F6
 10
65.5145
 20
303.155333
 30
0.0
 11
65.5145
 21
298.655333
 31
0.0
  0
LINE
  8
1
  6
CONTINUOUS
 62
    52
  5
F7
 10
31.0145
 20
274.655333
 30
0.0
 11
37.0145
 21
274.655333
 31
0.0
  0
LINE
  8
1
  6
CONTINUOUS
 62
    52
  5
F8
 10
37.0145
 20
274.655333
 30
0.0
 11
37.0145
 21
279.155333
 31
0.0
  0
LINE
  8
1
  6
CONTINUOUS
 62
    52
  5
F9
 10
71.5145
 20
274.655333
 30
0.0
 11
65.5145
 21
274.655333
 31
0.0
  0
LINE
  8
1
  6
CONTINUOUS
 62
    52
  5
FA
 10
65.5145
 20
274.655333
 30
0.0
 11
65.5145
 21
279.155333
 31
0.0
  0
LINE
  8
1
  6
CONTINUOUS
 62
    52
  5
FB
 10
37.0145
 20
298.905333
 30
0.0
 11
65.5145
 21
298.905333
 31
0.0
  0
LINE
  8
1
  6
CONTINUOUS
 62
    52
  5
FC
 10
37.0145
 20
278.905333
 30
0.0
 11
65.5145
 21
278.905333
 31
0.0
  0
LINE
  8
1
  6
CONTINUOUS
 62
    52
  5
FD
 10
23.0145
 20
233.905333
 30
0.0
 11
31.0145
 21
233.905333
 31
0.0
  0
LINE
  8
1
  6
CONTINUOUS
 62
    52
  5
FE
 10
71.5145
 20
233.905333
 30
0.0
 11
79.5145
 21
233.905333
 31
0.0
  0
LINE
  8
1
  6
CONTINUOUS
 62
    52
  5
FF
 10
23.0145
 20
343.905333
 30
0.0
 11
31.0145
 21
343.905333
 31
0.0
  0
LINE
  8
1
  6
CONTINUOUS
 62
    52
  5
100
 10
71.5145
 20
343.905333
 30
0.0
 11
79.5145
 21
343.905333
 31
0.0
  0
LINE
  8
1
  6
CONTINUOUS
 62
    52
  5
101
 10
23.0145
 20
339.905333
 30
0.0
 11
31.0145
 21
339.905333
 31
0.0
  0
LINE
  8
1
  6
CONTINUOUS
 62
    52
  5
102
 10
71.5145
 20
339.905333
 30
0.0
 11
79.5145
 21
339.905333
 31
0.0
  0
LINE
  8
1
  6
CONTINUOUS
 62
    52
  5
103
 10
23.0145
 20
237.905333
 30
0.0
 11
31.0145
 21
237.905333
 31
0.0
  0
LINE
  8
1
  6
CONTINUOUS
 62
    52
  5
104
 10
71.5145
 20
237.905333
 30
0.0
 11
79.5145
 21
237.905333
 31
0.0
  0
LINE
  8
1
  6
CONTINUOUS
 62
     7
  5
105
 10
19.0145
 20
288.905333
 30
0.0
 11
11.0145
 21
288.905333
 31
0.0
  0
LINE
  8
1
  6
CONTINUOUS
 62
     7
  5
106
 10
21.5145
 20
288.905333
 30
0.0
 11
24.5145
 21
288.905333
 31
0.0
  0
LINE
  8
1
  6
CONTINUOUS
 62
     7
  5
107
 10
49.7645
 20
288.905333
 30
0.0
 11
52.7645
 21
288.905333
 31
0.0
  0
LINE
  8
1
  6
CONTINUOUS
 62
     7
  5
108
 10
55.2645
 20
288.905333
 30
0.0
 11
87.5145
 21
288.905333
 31
0.0
  0
LINE
  8
1
  6
CONTINUOUS
 62
     7
  5
109
 10
27.0145
 20
288.905333
 30
0.0
 11
47.2645
 21
288.905333
 31
0.0
  0
LINE
  8
1
  6
CONTINUOUS
 62
     7
  5
10A
 10
90.0145
 20
288.905333
 30
0.0
 11
93.0145
 21
288.905333
 31
0.0
  0
LINE
  8
1
  6
CONTINUOUS
 62
     7
  5
10B
 10
49.7645
 20
288.905333
 30
0.0
 11
52.7645
 21
288.905333
 31
0.0
  0
LINE
  8
1
  6
CONTINUOUS
 62
    52
  5
10C
 10
30.5145
 20
296.155333
 30
0.0
 11
30.5145
 21
298.591833
 31
0.0
  0
LINE
  8
1
  6
CONTINUOUS
 62
    52
  5
10D
 10
72.0145
 20
296.155333
 30
0.0
 11
72.0145
 21
298.591833
 31
0.0
  0
LINE
  8
1
  6
CONTINUOUS
 62
    52
  5
10E
 10
30.5145
 20
279.218833
 30
0.0
 11
30.5145
 21
281.655333
 31
0.0
  0
LINE
  8
1
  6
CONTINUOUS
 62
    52
  5
10F
 10
72.0145
 20
279.218833
 30
0.0
 11
72.0145
 21
281.655333
 31
0.0
  0
ARC
  8
1
  6
CONTINUOUS
 62
    52
  5
110
 10
31.5145
 20
296.155333
 30
0.0
 40
1.0
 50
90.0
 51
180.0
210
0.0
220
0.0
230
1.0
  0
ARC
  8
1
  6
CONTINUOUS
 62
    52
  5
111
 10
31.5145
 20
281.655333
 30
0.0
 40
1.0
 50
180.0
 51
270.0
210
0.0
220
0.0
230
1.0
  0
ARC
  8
1
  6
CONTINUOUS
 62
    52
  5
112
 10
71.0145
 20
296.155333
 30
0.0
 40
1.0
 50
0.0
 51
90.0
210
0.0
220
0.0
230
1.0
  0
ARC
  8
1
  6
CONTINUOUS
 62
    52
  5
113
 10
71.0145
 20
281.655333
 30
0.0
 40
1.0
 50
270.0
 51
0.0
210
0.0
220
0.0
230
1.0
  0
LINE
  8
1
  6
CONTINUOUS
 62
     7
  5
114
 10
22.0145
 20
346.405333
 30
0.0
 11
-2.9855
 21
346.405333
 31
0.0
  0
LINE
  8
1
  6
CONTINUOUS
 62
     7
  5
115
 10
23.0145
 20
347.405333
 30
0.0
 11
23.0145
 21
361.405333
 31
0.0
  0
LINE
  8
1
  6
CONTINUOUS
 62
     7
  5
116
 10
31.0145
 20
347.405333
 30
0.0
 11
31.0145
 21
352.405333
 31
0.0
  0
LINE
  8
1
  6
CONTINUOUS
 62
     7
  5
117
 10
71.5145
 20
347.405333
 30
0.0
 11
71.5145
 21
352.405333
 31
0.0
  0
LINE
  8
1
  6
CONTINUOUS
 62
     7
  5
118
 10
79.5145
 20
347.405333
 30
0.0
 11
79.5145
 21
361.405333
 31
0.0
  0
LINE
  8
1
  6
CONTINUOUS
 62
     7
  5
119
 10
22.0145
 20
231.405333
 30
0.0
 11
-2.9855
 21
231.405333
 31
0.0
  0
LINE
  8
1
  6
CONTINUOUS
 62
     7
  5
11A
 10
35.0145
 20
235.905333
 30
0.0
 11
31.0145
 21
235.905333
 31
0.0
  0
LINE
  8
1
  6
CONTINUOUS
 62
     7
  5
11B
 10
23.0145
 20
235.905333
 30
0.0
 11
19.0145
 21
235.905333
 31
0.0
  0
LINE
  8
1
  6
CONTINUOUS
 62
     7
  5
11C
 10
83.0145
 20
318.905333
 30
0.0
 11
83.0145
 21
327.905333
 31
0.0
  0
LINE
  8
1
  6
CONTINUOUS
 62
     7
  5
11D
 10
75.5145
 20
326.905333
 30
0.0
 11
79.5145
 21
326.905333
 31
0.0
  0
LINE
  8
1
  6
CONTINUOUS
 62
     7
  5
11E
 10
83.0145
 20
326.905333
 30
0.0
 11
87.0145
 21
326.905333
 31
0.0
  0
LINE
  8
1
  6
CONTINUOUS
 62
     7
  5
11F
 10
23.0145
 20
360.405333
 30
0.0
 11
79.5145
 21
360.405333
 31
0.0
  0
LINE
  8
1
  6
CONTINUOUS
 62
     7
  5
120
 10
31.0145
 20
351.405333
 30
0.0
 11
71.5145
 21
351.405333
 31
0.0
  0
LINE
  8
1
  6
CONTINUOUS
 62
     7
  5
121
 10
-1.9855
 20
346.405333
 30
0.0
 11
-1.9855
 21
231.405333
 31
0.0
  0
LINE
  8
1
  6
CONTINUOUS
 62
     6
  5
122
 10
125.814917
 20
346.405333
 30
0.0
 11
128.225833
 21
346.405333
 31
0.0
  0
LINE
  8
1
  6
CONTINUOUS
 62
     6
  5
123
 10
125.373417
 20
346.140083
 30
0.0
 11
124.379833
 21
344.271333
 31
0.0
  0
LINE
  8
1
  6
CONTINUOUS
 62
     6
  5
124
 10
124.045167
 20
343.176583
 30
0.0
 11
119.820417
 21
302.981083
 31
0.0
  0
LINE
  8
1
  6
CONTINUOUS
 62
     6
  5
125
 10
128.658833
 20
346.155333
 30
0.0
 11
132.112583
 21
340.173333
 31
0.0
  0
LINE
  8
1
  6
CONTINUOUS
 62
     6
  5
126
 10
132.5145
 20
338.673333
 30
0.0
 11
132.5145
 21
334.227167
 31
0.0
  0
LINE
  8
1
  6
CONTINUOUS
 62
     6
  5
127
 10
133.2645
 20
333.477167
 30
0.0
 11
134.2645
 21
333.477167
 31
0.0
  0
LINE
  8
1
  6
CONTINUOUS
 62
     6
  5
128
 10
135.0145
 20
332.727167
 30
0.0
 11
135.0145
 21
327.727167
 31
0.0
  0
LINE
  8
1
  6
CONTINUOUS
 62
     6
  5
129
 10
135.7645
 20
326.977167
 30
0.0
 11
136.7645
 21
326.977167
 31
0.0
  0
LINE
  8
1
  6
CONTINUOUS
 62
     6
  5
12A
 10
137.5145
 20
326.227167
 30
0.0
 11
137.5145
 21
318.227167
 31
0.0
  0
LINE
  8
1
  6
CONTINUOUS
 62
     6
  5
12B
 10
138.2645
 20
317.477167
 30
0.0
 11
139.2645
 21
317.477167
 31
0.0
  0
LINE
  8
1
  6
CONTINUOUS
 62
     6
  5
12C
 10
140.0145
 20
316.727167
 30
0.0
 11
140.0145
 21
305.227167
 31
0.0
  0
LINE
  8
1
  6
CONTINUOUS
 62
     6
  5
12D
 10
140.7645
 20
304.477167
 30
0.0
 11
141.7645
 21
304.477167
 31
0.0
  0
LINE
  8
1
  6
CONTINUOUS
 62
     6
  5
12E
 10
142.5145
 20
303.727167
 30
0.0
 11
142.5145
 21
295.977167
 31
0.0
  0
LINE
  8
1
  6
CONTINUOUS
 62
     6
  5
12F
 10
142.5145
 20
295.977167
 30
0.0
 11
136.605667
 21
294.93525
 31
0.0
  0
LINE
  8
1
  6
CONTINUOUS
 62
     6
  5
130
 10
136.605667
 20
294.93525
 30
0.0
 11
136.605667
 21
288.905333
 31
0.0
  0
LINE
  8
1
  6
CONTINUOUS
 62
     7
  5
131
 10
95.5145
 20
288.905333
 30
0.0
 11
156.605667
 21
288.905333
 31
0.0
  0
ARC
  8
1
  6
CONTINUOUS
 62
     6
  5
132
 10
129.5145
 20
338.67335
 30
0.0
 40
3.0
 50
0.0
 51
29.998886
210
0.0
220
0.0
230
1.0
  0
ARC
  8
1
  6
CONTINUOUS
 62
     6
  5
133
 10
125.814925
 20
345.905333
 30
0.0
 40
0.5
 50
90.0
 51
151.999022
210
0.0
220
0.0
230
1.0
  0
ARC
  8
1
  6
CONTINUOUS
 62
     6
  5
134
 10
128.225825
 20
345.905333
 30
0.0
 40
0.5
 50
29.999964
 51
90.0
210
0.0
220
0.0
230
1.0
  0
ARC
  8
1
  6
CONTINUOUS
 62
     6
  5
135
 10
127.028716
 20
342.863064
 30
0.0
 40
3.0
 50
152.002561
 51
174.001119
210
0.0
220
0.0
230
1.0
  0
ARC
  8
1
  6
CONTINUOUS
 62
     6
  5
136
 10
133.2645
 20
334.227167
 30
0.0
 40
0.75
 50
180.0
 51
270.0
210
0.0
220
0.0
230
1.0
  0
ARC
  8
1
  6
CONTINUOUS
 62
     6
  5
137
 10
134.2645
 20
332.727167
 30
0.0
 40
0.75
 50
0.0
 51
90.0
210
0.0
220
0.0
230
1.0
  0
ARC
  8
1
  6
CONTINUOUS
 62
     6
  5
138
 10
135.7645
 20
327.727167
 30
0.0
 40
0.75
 50
180.0
 51
270.0
210
0.0
220
0.0
230
1.0
  0
ARC
  8
1
  6
CONTINUOUS
 62
     6
  5
139
 10
136.7645
 20
326.227167
 30
0.0
 40
0.75
 50
0.0
 51
90.0
210
0.0
220
0.0
230
1.0
  0
ARC
  8
1
  6
CONTINUOUS
 62
     6
  5
13A
 10
138.2645
 20
318.227167
 30
0.0
 40
0.75
 50
180.0
 51
270.0
210
0.0
220
0.0
230
1.0
  0
ARC
  8
1
  6
CONTINUOUS
 62
     6
  5
13B
 10
139.2645
 20
316.727167
 30
0.0
 40
0.75
 50
0.0
 51
90.0
210
0.0
220
0.0
230
1.0
  0
ARC
  8
1
  6
CONTINUOUS
 62
     6
  5
13C
 10
140.7645
 20
305.227167
 30
0.0
 40
0.75
 50
180.0
 51
270.0
210
0.0
220
0.0
230
1.0
  0
ARC
  8
1
  6
CONTINUOUS
 62
     6
  5
13D
 10
141.7645
 20
303.727167
 30
0.0
 40
0.75
 50
0.0
 51
90.0
210
0.0
220
0.0
230
1.0
  0
LINE
  8
1
  6
CONTINUOUS
 62
     6
  5
13E
 10
119.820417
 20
302.981083
 30
0.0
 11
119.820417
 21
288.905333
 31
0.0
  0
LINE
  8
1
  6
CONTINUOUS
 62
     6
  5
13F
 10
126.320417
 20
298.40525
 30
0.0
 11
126.320417
 21
288.905333
 31
0.0
  0
LINE
  8
1
  6
CONTINUOUS
 62
     6
  5
140
 10
126.320417
 20
298.40525
 30
0.0
 11
123.568917
 21
298.616833
 31
0.0
  0
LINE
  8
1
  6
CONTINUOUS
 62
     6
  5
141
 10
122.571833
 20
298.693583
 30
0.0
 11
119.820417
 21
298.905333
 31
0.0
  0
LINE
  8
1
  6
CONTINUOUS
 62
     6
  5
142
 10
124.570417
 20
299.905333
 30
0.0
 11
124.570417
 21
277.905333
 31
0.0
  0
LINE
  8
1
  6
CONTINUOUS
 62
     6
  5
143
 10
142.5145
 20
297.477167
 30
0.0
 11
124.570417
 21
299.905333
 31
0.0
  0
LINE
  8
1
  6
CONTINUOUS
 62
     6
  5
144
 10
124.570417
 20
299.905333
 30
0.0
 11
124.570417
 21
321.405333
 31
0.0
  0
LINE
  8
1
  6
CONTINUOUS
 62
     6
  5
145
 10
124.570417
 20
321.405333
 30
0.0
 11
137.5145
 21
323.227167
 31
0.0
  0
LINE
  8
1
  6
CONTINUOUS
 62
     6
  5
146
 10
124.570417
 20
321.405333
 30
0.0
 11
124.570417
 21
344.62975
 31
0.0
  0
LINE
  8
1
  6
CONTINUOUS
 62
     6
  5
147
 10
124.570417
 20
344.62975
 30
0.0
 11
122.40975
 21
319.435667
 31
0.0
  0
LINE
  8
1
  6
CONTINUOUS
 62
     6
  5
148
 10
124.570417
 20
317.905333
 30
0.0
 11
127.570417
 21
317.905333
 31
0.0
  0
LINE
  8
1
  6
CONTINUOUS
 62
     6
  5
149
 10
124.570417
 20
317.405333
 30
0.0
 11
122.235583
 21
317.405333
 31
0.0
  0
LINE
  8
1
  6
CONTINUOUS
 62
     6
  5
14A
 10
124.570417
 20
308.655333
 30
0.0
 11
121.384333
 21
308.655333
 31
0.0
  0
ARC
  8
1
  6
DASHED
 62
     6
  5
14B
 10
96.395111
 20
304.04114
 30
0.0
 40
31.184123
 50
8.140744
 51
25.376058
210
0.0
220
0.0
230
1.0
  0
ARC
  8
1
  6
DASHED
 62
     6
  5
14C
 10
114.429151
 20
305.924881
 30
0.0
 40
13.08322
 50
324.734558
 51
11.159417
210
0.0
220
0.0
230
1.0
  0
ARC
  8
1
  6
DASHED
 62
     6
  5
14D
 10
39.573222
 20
291.373428
 30
0.0
 40
91.910001
 50
358.542819
 51
16.778508
210
0.0
220
0.0
230
1.0
  0
LINE
  8
1
  6
CONTINUOUS
 62
     6
  5
14E
 10
120.685417
 20
291.936333
 30
0.0
 11
120.685417
 21
288.905333
 31
0.0
  0
LINE
  8
1
  6
CONTINUOUS
 62
     6
  5
14F
 10
123.219083
 20
297.08175
 30
0.0
 11
126.320417
 21
294.913833
 31
0.0
  0
LINE
  8
1
  6
CONTINUOUS
 62
     6
  5
150
 10
125.814917
 20
231.405333
 30
0.0
 11
128.225833
 21
231.405333
 31
0.0
  0
LINE
  8
1
  6
CONTINUOUS
 62
     6
  5
151
 10
125.373417
 20
231.670583
 30
0.0
 11
124.379833
 21
233.539333
 31
0.0
  0
LINE
  8
1
  6
CONTINUOUS
 62
     6
  5
152
 10
124.045167
 20
234.634083
 30
0.0
 11
119.820417
 21
274.829583
 31
0.0
  0
LINE
  8
1
  6
CONTINUOUS
 62
     6
  5
153
 10
128.658833
 20
231.655333
 30
0.0
 11
132.112583
 21
237.637333
 31
0.0
  0
LINE
  8
1
  6
CONTINUOUS
 62
     6
  5
154
 10
132.5145
 20
239.137333
 30
0.0
 11
132.5145
 21
243.5835
 31
0.0
  0
LINE
  8
1
  6
CONTINUOUS
 62
     6
  5
155
 10
133.2645
 20
244.3335
 30
0.0
 11
134.2645
 21
244.3335
 31
0.0
  0
LINE
  8
1
  6
CONTINUOUS
 62
     6
  5
156
 10
135.0145
 20
245.0835
 30
0.0
 11
135.0145
 21
250.0835
 31
0.0
  0
LINE
  8
1
  6
CONTINUOUS
 62
     6
  5
157
 10
135.7645
 20
250.8335
 30
0.0
 11
136.7645
 21
250.8335
 31
0.0
  0
LINE
  8
1
  6
CONTINUOUS
 62
     6
  5
158
 10
137.5145
 20
251.5835
 30
0.0
 11
137.5145
 21
259.5835
 31
0.0
  0
LINE
  8
1
  6
CONTINUOUS
 62
     6
  5
159
 10
138.2645
 20
260.3335
 30
0.0
 11
139.2645
 21
260.3335
 31
0.0
  0
LINE
  8
1
  6
CONTINUOUS
 62
     6
  5
15A
 10
140.0145
 20
261.0835
 30
0.0
 11
140.0145
 21
272.5835
 31
0.0
  0
LINE
  8
1
  6
CONTINUOUS
 62
     6
  5
15B
 10
140.7645
 20
273.3335
 30
0.0
 11
141.7645
 21
273.3335
 31
0.0
  0
LINE
  8
1
  6
CONTINUOUS
 62
     6
  5
15C
 10
136.605667
 20
282.875417
 30
0.0
 11
136.605667
 21
288.905333
 31
0.0
  0
ARC
  8
1
  6
CONTINUOUS
 62
     6
  5
15D
 10
129.5145
 20
239.137316
 30
0.0
 40
3.0
 50
330.001114
 51
0.0
210
0.0
220
0.0
230
1.0
  0
ARC
  8
1
  6
CONTINUOUS
 62
     6
  5
15E
 10
125.814925
 20
231.905333
 30
0.0
 40
0.5
 50
208.000978
 51
270.0
210
0.0
220
0.0
230
1.0
  0
ARC
  8
1
  6
CONTINUOUS
 62
     6
  5
15F
 10
128.225825
 20
231.905333
 30
0.0
 40
0.5
 50
270.0
 51
330.000036
210
0.0
220
0.0
230
1.0
  0
ARC
  8
1
  6
CONTINUOUS
 62
     6
  5
160
 10
127.028716
 20
234.947602
 30
0.0
 40
3.0
 50
185.998881
 51
207.997439
210
0.0
220
0.0
230
1.0
  0
ARC
  8
1
  6
CONTINUOUS
 62
     6
  5
161
 10
133.2645
 20
243.5835
 30
0.0
 40
0.75
 50
90.0
 51
180.0
210
0.0
220
0.0
230
1.0
  0
ARC
  8
1
  6
CONTINUOUS
 62
     6
  5
162
 10
134.2645
 20
245.0835
 30
0.0
 40
0.75
 50
270.0
 51
360.0
210
0.0
220
0.0
230
1.0
  0
ARC
  8
1
  6
CONTINUOUS
 62
     6
  5
163
 10
135.7645
 20
250.0835
 30
0.0
 40
0.75
 50
90.0
 51
180.0
210
0.0
220
0.0
230
1.0
  0
ARC
  8
1
  6
CONTINUOUS
 62
     6
  5
164
 10
136.7645
 20
251.5835
 30
0.0
 40
0.75
 50
270.0
 51
360.0
210
0.0
220
0.0
230
1.0
  0
ARC
  8
1
  6
CONTINUOUS
 62
     6
  5
165
 10
138.2645
 20
259.5835
 30
0.0
 40
0.75
 50
90.0
 51
180.0
210
0.0
220
0.0
230
1.0
  0
ARC
  8
1
  6
CONTINUOUS
 62
     6
  5
166
 10
139.2645
 20
261.0835
 30
0.0
 40
0.75
 50
270.0
 51
360.0
210
0.0
220
0.0
230
1.0
  0
ARC
  8
1
  6
CONTINUOUS
 62
     6
  5
167
 10
140.7645
 20
272.5835
 30
0.0
 40
0.75
 50
90.0
 51
180.0
210
0.0
220
0.0
230
1.0
  0
LINE
  8
1
  6
CONTINUOUS
 62
     6
  5
168
 10
119.820417
 20
274.829583
 30
0.0
 11
119.820417
 21
288.905333
 31
0.0
  0
LINE
  8
1
  6
CONTINUOUS
 62
     6
  5
169
 10
126.320417
 20
279.405417
 30
0.0
 11
126.320417
 21
288.905333
 31
0.0
  0
LINE
  8
1
  6
CONTINUOUS
 62
     6
  5
16A
 10
126.320417
 20
279.405417
 30
0.0
 11
123.568917
 21
279.193833
 31
0.0
  0
LINE
  8
1
  6
CONTINUOUS
 62
     6
  5
16B
 10
122.571833
 20
279.117083
 30
0.0
 11
119.820417
 21
278.905333
 31
0.0
  0
LINE
  8
1
  6
CONTINUOUS
 62
     6
  5
16C
 10
124.570417
 20
277.905333
 30
0.0
 11
124.570417
 21
256.405333
 31
0.0
  0
LINE
  8
1
  6
CONTINUOUS
 62
     6
  5
16D
 10
124.570417
 20
256.405333
 30
0.0
 11
137.5145
 21
254.5835
 31
0.0
  0
LINE
  8
1
  6
CONTINUOUS
 62
     6
  5
16E
 10
124.570417
 20
256.405333
 30
0.0
 11
124.570417
 21
162.127333
 31
0.0
  0
LINE
  8
1
  6
CONTINUOUS
 62
     6
  5
16F
 10
124.570417
 20
233.180917
 30
0.0
 11
122.409667
 21
258.375
 31
0.0
  0
LINE
  8
1
  6
CONTINUOUS
 62
     6
  5
170
 10
124.570417
 20
259.905333
 30
0.0
 11
127.570417
 21
259.905333
 31
0.0
  0
LINE
  8
1
  6
CONTINUOUS
 62
     6
  5
171
 10
124.570417
 20
260.405333
 30
0.0
 11
122.235583
 21
260.405333
 31
0.0
  0
LINE
  8
1
  6
CONTINUOUS
 62
     6
  5
172
 10
124.570417
 20
269.155333
 30
0.0
 11
121.485167
 21
269.155333
 31
0.0
  0
ARC
  8
1
  6
DASHED
 62
     6
  5
173
 10
96.395111
 20
273.769527
 30
0.0
 40
31.184123
 50
334.623942
 51
351.859256
210
0.0
220
0.0
230
1.0
  0
ARC
  8
1
  6
DASHED
 62
     6
  5
174
 10
114.429151
 20
271.885786
 30
0.0
 40
13.08322
 50
348.840583
 51
35.265442
210
0.0
220
0.0
230
1.0
  0
ARC
  8
1
  6
DASHED
 62
     6
  5
175
 10
39.573222
 20
286.437239
 30
0.0
 40
91.910001
 50
343.221492
 51
1.457181
210
0.0
220
0.0
230
1.0
  0
LINE
  8
1
  6
CONTINUOUS
 62
     6
  5
176
 10
120.685417
 20
285.874333
 30
0.0
 11
120.685417
 21
288.905333
 31
0.0
  0
LINE
  8
1
  6
CONTINUOUS
 62
     6
  5
177
 10
142.5145
 20
281.8335
 30
0.0
 11
136.605667
 21
282.875417
 31
0.0
  0
LINE
  8
1
  6
CONTINUOUS
 62
     6
  5
178
 10
142.5145
 20
274.0835
 30
0.0
 11
142.5145
 21
281.8335
 31
0.0
  0
ARC
  8
1
  6
CONTINUOUS
 62
     6
  5
179
 10
141.7645
 20
274.0835
 30
0.0
 40
0.75
 50
270.0
 51
360.0
210
0.0
220
0.0
230
1.0
  0
LINE
  8
1
  6
CONTINUOUS
 62
     6
  5
17A
 10
142.5145
 20
280.3335
 30
0.0
 11
124.570417
 21
277.905333
 31
0.0
  0
ARC
  8
1
  6
CONTINUOUS
 62
     6
  5
17B
 10
126.562537
 20
292.126413
 30
0.0
 40
5.880194
 50
153.613258
 51
181.852433
210
0.0
220
0.0
230
1.0
  0
ARC
  8
1
  6
DASHED
 62
     6
  5
17C
 10
109.070329
 20
307.684614
 30
0.0
 40
18.54881
 50
309.471358
 51
329.86035
210
0.0
220
0.0
230
1.0
  0
ARC
  8
1
  6
DASHED
 62
     6
  5
17D
 10
109.070329
 20
270.126053
 30
0.0
 40
18.54881
 50
30.13965
 51
50.528642
210
0.0
220
0.0
230
1.0
  0
ARC
  8
1
  6
CONTINUOUS
 62
     6
  5
17E
 10
-17.565296
 20
327.311049
 30
0.0
 40
140.196416
 50
348.894864
 51
356.779775
210
0.0
220
0.0
230
1.0
  0
ARC
  8
1
  6
CONTINUOUS
 62
     6
  5
17F
 10
132.787346
 20
287.259647
 30
0.0
 40
13.712256
 50
124.920903
 51
146.940825
210
0.0
220
0.0
230
1.0
  0
LINE
  8
1
  6
CONTINUOUS
 62
     6
  5
180
 10
126.320417
 20
294.913833
 30
0.0
 11
123.677917
 21
292.188583
 31
0.0
  0
ARC
  8
1
  6
CONTINUOUS
 62
     6
  5
181
 10
122.403504
 20
293.287111
 30
0.0
 40
1.682525
 50
189.120319
 51
319.239081
210
0.0
220
0.0
230
1.0
  0
LINE
  8
1
  6
CONTINUOUS
 62
     6
  5
182
 10
123.219083
 20
280.728917
 30
0.0
 11
126.320417
 21
282.896833
 31
0.0
  0
LINE
  8
1
  6
CONTINUOUS
 62
     6
  5
183
 10
126.320417
 20
282.896833
 30
0.0
 11
123.677917
 21
285.622083
 31
0.0
  0
ARC
  8
1
  6
CONTINUOUS
 62
     6
  5
184
 10
122.403504
 20
284.523556
 30
0.0
 40
1.682525
 50
40.760919
 51
170.879681
210
0.0
220
0.0
230
1.0
  0
ARC
  8
1
  6
CONTINUOUS
 62
     6
  5
185
 10
132.787346
 20
290.551019
 30
0.0
 40
13.712256
 50
213.059175
 51
235.079097
210
0.0
220
0.0
230
1.0
  0
ARC
  8
1
  6
CONTINUOUS
 62
     6
  5
186
 10
126.562537
 20
285.684254
 30
0.0
 40
5.880194
 50
178.147567
 51
206.386742
210
0.0
220
0.0
230
1.0
  0
ARC
  8
1
  6
CONTINUOUS
 62
     6
  5
187
 10
-17.565296
 20
250.499617
 30
0.0
 40
140.196416
 50
3.220225
 51
11.105136
210
0.0
220
0.0
230
1.0
  0
LINE
  8
1
  6
CONTINUOUS
 62
     7
  5
188
 10
159.105667
 20
288.905333
 30
0.0
 11
162.105667
 21
288.905333
 31
0.0
  0
LINE
  8
1
  6
CONTINUOUS
 62
     7
  5
189
 10
164.605667
 20
288.905333
 30
0.0
 11
179.105667
 21
288.905333
 31
0.0
  0
ARC
  8
1
  6
CONTINUOUS
 62
     7
  5
18A
 10
79.870373
 20
288.905333
 30
0.0
 40
100.735294
 50
336.293992
 51
23.706008
210
0.0
220
0.0
230
1.0
  0
LINE
  8
1
  6
CONTINUOUS
 62
     7
  5
18B
 10
172.105667
 20
224.405333
 30
0.0
 11
172.105667
 21
353.405333
 31
0.0
  0
LINE
  8
1
  6
CONTINUOUS
 62
     7
  5
18C
 10
172.105667
 20
353.405333
 30
0.0
 11
172.105667
 21
362.405333
 31
0.0
  0
POLYLINE
  8
1
  6
CONTINUOUS
 62
     7
  5
18D
 66
     1
 10
0.0
 20
0.0
 30
0.0
  0
VERTEX
  8
1
  6
CONTINUOUS
 62
     7
  5
18E
 10
172.105667
 20
358.905333
 30
0.0
  0
VERTEX
  8
1
  6
CONTINUOUS
 62
     7
  5
18F
 10
178.875333
 20
353.806333
 30
0.0
  0
VERTEX
  8
1
  6
CONTINUOUS
 62
     7
  5
190
 10
185.729333
 20
350.37825
 30
0.0
  0
VERTEX
  8
1
  6
CONTINUOUS
 62
     7
  5
191
 10
187.74525
 20
344.530333
 30
0.0
  0
VERTEX
  8
1
  6
CONTINUOUS
 62
     7
  5
192
 10
196.816667
 20
334.850917
 30
0.0
  0
VERTEX
  8
1
  6
CONTINUOUS
 62
     7
  5
193
 10
197.4215
 20
327.38975
 30
0.0
  0
VERTEX
  8
1
  6
CONTINUOUS
 62
     7
  5
194
 10
202.058
 20
320.735167
 30
0.0
  0
VERTEX
  8
1
  6
CONTINUOUS
 62
     7
  5
195
 10
203.469083
 20
312.26575
 30
0.0
  0
VERTEX
  8
1
  6
CONTINUOUS
 62
     7
  5
196
 10
203.469083
 20
305.4095
 30
0.0
  0
VERTEX
  8
1
  6
CONTINUOUS
 62
     7
  5
197
 10
203.670667
 20
297.343333
 30
0.0
  0
VERTEX
  8
1
  6
CONTINUOUS
 62
     7
  5
198
 10
203.105667
 20
288.905333
 30
0.0
  0
VERTEX
  8
1
  6
CONTINUOUS
 62
     7
  5
199
 10
206.896083
 20
278.387917
 30
0.0
  0
VERTEX
  8
1
  6
CONTINUOUS
 62
     7
  5
19A
 10
204.477083
 20
275.766417
 30
0.0
  0
VERTEX
  8
1
  6
CONTINUOUS
 62
     7
  5
19B
 10
203.065917
 20
270.32175
 30
0.0
  0
VERTEX
  8
1
  6
CONTINUOUS
 62
     7
  5
19C
 10
203.2675
 20
261.247333
 30
0.0
  0
VERTEX
  8
1
  6
CONTINUOUS
 62
     7
  5
19D
 10
202.058
 20
250.963
 30
0.0
  0
VERTEX
  8
1
  6
CONTINUOUS
 62
     7
  5
19E
 10
199.437333
 20
242.291917
 30
0.0
  0
VERTEX
  8
1
  6
CONTINUOUS
 62
     7
  5
19F
 10
193.59125
 20
233.620833
 30
0.0
  0
VERTEX
  8
1
  6
CONTINUOUS
 62
     7
  5
1A0
 10
187.342083
 20
228.98275
 30
0.0
  0
VERTEX
  8
1
  6
CONTINUOUS
 62
     7
  5
1A1
 10
184.923
 20
221.924917
 30
0.0
  0
VERTEX
  8
1
  6
CONTINUOUS
 62
     7
  5
1A2
 10
172.105667
 20
218.905333
 30
0.0
  0
SEQEND
  8
1
  6
CONTINUOUS
 62
     7
  5
1A3
  0
LINE
  8
1
  6
CONTINUOUS
 62
     7
  5
1A4
 10
172.105667
 20
195.905333
 30
0.0
 11
172.105667
 21
224.405333
 31
0.0
  0
ARC
  8
1
  6
CONTINUOUS
 62
     7
  5
1A5
 10
78.099417
 20
288.905333
 30
0.0
 40
114.00625
 50
325.545025
 51
34.454978
210
0.0
220
0.0
230
1.0
  0
LINE
  8
1
  6
CONTINUOUS
 62
     7
  5
1A6
 10
172.116583
 20
353.38875
 30
0.0
 11
175.258417
 21
356.530583
 31
0.0
  0
LINE
  8
1
  6
CONTINUOUS
 62
     7
  5
1A7
 10
174.364
 20
349.979333
 30
0.0
 11
178.485
 21
354.100333
 31
0.0
  0
LINE
  8
1
  6
CONTINUOUS
 62
     7
  5
1A8
 10
176.4815
 20
346.439917
 30
0.0
 11
182.19
 21
352.1485
 31
0.0
  0
LINE
  8
1
  6
CONTINUOUS
 62
     7
  5
1A9
 10
178.513083
 20
342.814667
 30
0.0
 11
185.818333
 21
350.12
 31
0.0
  0
LINE
  8
1
  6
CONTINUOUS
 62
     7
  5
1AA
 10
180.454167
 20
339.098917
 30
0.0
 11
187.2685
 21
345.91325
 31
0.0
  0
LINE
  8
1
  6
CONTINUOUS
 62
     7
  5
1AB
 10
182.2385
 20
335.226417
 30
0.0
 11
189.58225
 21
342.570167
 31
0.0
  0
LINE
  8
1
  6
CONTINUOUS
 62
     7
  5
1AC
 10
183.9105
 20
331.241583
 30
0.0
 11
192.319
 21
339.65
 31
0.0
  0
LINE
  8
1
  6
CONTINUOUS
 62
     7
  5
1AD
 10
185.473833
 20
327.148
 30
0.0
 11
195.05575
 21
336.729917
 31
0.0
  0
LINE
  8
1
  6
CONTINUOUS
 62
     7
  5
1AE
 10
186.902417
 20
322.91975
 30
0.0
 11
196.967917
 21
332.98525
 31
0.0
  0
LINE
  8
1
  6
CONTINUOUS
 62
     7
  5
1AF
 10
188.157167
 20
318.517667
 30
0.0
 11
197.392083
 21
327.752583
 31
0.0
  0
LINE
  8
1
  6
CONTINUOUS
 62
     7
  5
1B0
 10
189.273833
 20
313.977417
 30
0.0
 11
199.583333
 21
324.287
 31
0.0
  0
LINE
  8
1
  6
CONTINUOUS
 62
     7
  5
1B1
 10
190.238333
 20
309.285083
 30
0.0
 11
201.90625
 21
320.953
 31
0.0
  0
LINE
  8
1
  6
CONTINUOUS
 62
     7
  5
1B2
 10
191.03375
 20
304.423667
 30
0.0
 11
202.813083
 21
316.203
 31
0.0
  0
LINE
  8
1
  6
CONTINUOUS
 62
     7
  5
1B3
 10
191.614417
 20
299.3475
 30
0.0
 11
203.469083
 21
311.202167
 31
0.0
  0
LINE
  8
1
  6
CONTINUOUS
 62
     7
  5
1B4
 10
191.96425
 20
294.040417
 30
0.0
 11
203.469083
 21
305.545333
 31
0.0
  0
LINE
  8
1
  6
CONTINUOUS
 62
     7
  5
1B5
 10
192.0725
 20
288.491917
 30
0.0
 11
203.603667
 21
300.023083
 31
0.0
  0
LINE
  8
1
  6
CONTINUOUS
 62
     7
  5
1B6
 10
191.9
 20
282.6625
 30
0.0
 11
203.461833
 21
294.224333
 31
0.0
  0
LINE
  8
1
  6
CONTINUOUS
 62
     7
  5
1B7
 10
191.395583
 20
276.50125
 30
0.0
 11
203.2895
 21
288.395167
 31
0.0
  0
LINE
  8
1
  6
CONTINUOUS
 62
     7
  5
1B8
 10
190.49175
 20
269.9405
 30
0.0
 11
204.788167
 21
284.236917
 31
0.0
  0
LINE
  8
1
  6
CONTINUOUS
 62
     7
  5
1B9
 10
189.096667
 20
262.888583
 30
0.0
 11
206.28675
 21
280.078667
 31
0.0
  0
LINE
  8
1
  6
CONTINUOUS
 62
     7
  5
1BA
 10
186.929917
 20
255.065
 30
0.0
 11
203.3735
 21
271.508583
 31
0.0
  0
LINE
  8
1
  6
CONTINUOUS
 62
     7
  5
1BB
 10
183.8305
 20
246.308667
 30
0.0
 11
203.16975
 21
265.648
 31
0.0
  0
LINE
  8
1
  6
CONTINUOUS
 62
     7
  5
1BC
 10
178.925833
 20
235.74725
 30
0.0
 11
203.113083
 21
259.9345
 31
0.0
  0
LINE
  8
1
  6
CONTINUOUS
 62
     7
  5
1BD
 10
172.105667
 20
223.270167
 30
0.0
 11
202.359167
 21
253.523667
 31
0.0
  0
LINE
  8
1
  6
CONTINUOUS
 62
     7
  5
1BE
 10
173.795833
 20
219.3035
 30
0.0
 11
200.5865
 21
246.094167
 31
0.0
  0
LINE
  8
1
  6
CONTINUOUS
 62
     7
  5
1BF
 10
181.196083
 20
221.046917
 30
0.0
 11
186.408667
 21
226.2595
 31
0.0
  0
CIRCLE
  8
1
  6
CONTINUOUS
 62
     7
  5
1C0
 10
173.983583
 20
352.40725
 30
0.0
 40
0.194
210
0.0
220
0.0
230
1.0
  0
CIRCLE
  8
1
  6
CONTINUOUS
 62
     7
  5
1C1
 10
176.239
 20
354.671417
 30
0.0
 40
0.194
210
0.0
220
0.0
230
1.0
  0
CIRCLE
  8
1
  6
CONTINUOUS
 62
     7
  5
1C2
 10
176.163
 20
348.95175
 30
0.0
 40
0.194
210
0.0
220
0.0
230
1.0
  0
CIRCLE
  8
1
  6
CONTINUOUS
 62
     7
  5
1C3
 10
178.466667
 20
351.239333
 30
0.0
 40
0.194
210
0.0
220
0.0
230
1.0
  0
CIRCLE
  8
1
  6
CONTINUOUS
 62
     7
  5
1C4
 10
178.248
 20
345.402583
 30
0.0
 40
0.194
210
0.0
220
0.0
230
1.0
  0
CIRCLE
  8
1
  6
CONTINUOUS
 62
     7
  5
1C5
 10
180.5685
 20
347.690167
 30
0.0
 40
0.194
210
0.0
220
0.0
230
1.0
  0
CIRCLE
  8
1
  6
CONTINUOUS
 62
     7
  5
1C6
 10
182.95625
 20
350.061917
 30
0.0
 40
0.194
210
0.0
220
0.0
230
1.0
  0
CIRCLE
  8
1
  6
CONTINUOUS
 62
     7
  5
1C7
 10
180.20975
 20
341.689417
 30
0.0
 40
0.194
210
0.0
220
0.0
230
1.0
  0
CIRCLE
  8
1
  6
CONTINUOUS
 62
     7
  5
1C8
 10
182.593917
 20
344.0495
 30
0.0
 40
0.194
210
0.0
220
0.0
230
1.0
  0
CIRCLE
  8
1
  6
CONTINUOUS
 62
     7
  5
1C9
 10
184.978
 20
346.434417
 30
0.0
 40
0.194
210
0.0
220
0.0
230
1.0
  0
CIRCLE
  8
1
  6
CONTINUOUS
 62
     7
  5
1CA
 10
182.072333
 20
337.913333
 30
0.0
 40
0.194
210
0.0
220
0.0
230
1.0
  0
CIRCLE
  8
1
  6
CONTINUOUS
 62
     7
  5
1CB
 10
184.431667
 20
340.2485
 30
0.0
 40
0.194
210
0.0
220
0.0
230
1.0
  0
CIRCLE
  8
1
  6
CONTINUOUS
 62
     7
  5
1CC
 10
186.865417
 20
342.683083
 30
0.0
 40
0.194
210
0.0
220
0.0
230
1.0
  0
CIRCLE
  8
1
  6
CONTINUOUS
 62
     7
  5
1CD
 10
188.752917
 20
338.907
 30
0.0
 40
0.194
210
0.0
220
0.0
230
1.0
  0
CIRCLE
  8
1
  6
CONTINUOUS
 62
     7
  5
1CE
 10
186.21975
 20
336.373083
 30
0.0
 40
0.194
210
0.0
220
0.0
230
1.0
  0
CIRCLE
  8
1
  6
CONTINUOUS
 62
     7
  5
1CF
 10
183.785917
 20
333.963333
 30
0.0
 40
0.194
210
0.0
220
0.0
230
1.0
  0
CIRCLE
  8
1
  6
CONTINUOUS
 62
     7
  5
1D0
 10
193.024417
 20
337.515833
 30
0.0
 40
0.194
210
0.0
220
0.0
230
1.0
  0
CIRCLE
  8
1
  6
CONTINUOUS
 62
     7
  5
1D1
 10
190.441667
 20
334.932167
 30
0.0
 40
0.194
210
0.0
220
0.0
230
1.0
  0
CIRCLE
  8
1
  6
CONTINUOUS
 62
     7
  5
1D2
 10
187.9085
 20
332.398167
 30
0.0
 40
0.194
210
0.0
220
0.0
230
1.0
  0
CIRCLE
  8
1
  6
CONTINUOUS
 62
     7
  5
1D3
 10
185.43525
 20
329.933333
 30
0.0
 40
0.194
210
0.0
220
0.0
230
1.0
  0
CIRCLE
  8
1
  6
CONTINUOUS
 62
     7
  5
1D4
 10
194.678417
 20
333.506833
 30
0.0
 40
0.194
210
0.0
220
0.0
230
1.0
  0
CIRCLE
  8
1
  6
CONTINUOUS
 62
     7
  5
1D5
 10
192.005417
 20
330.832917
 30
0.0
 40
0.194
210
0.0
220
0.0
230
1.0
  0
CIRCLE
  8
1
  6
CONTINUOUS
 62
     7
  5
1D6
 10
189.432333
 20
328.259
 30
0.0
 40
0.194
210
0.0
220
0.0
230
1.0
  0
CIRCLE
  8
1
  6
CONTINUOUS
 62
     7
  5
1D7
 10
186.909167
 20
325.735
 30
0.0
 40
0.194
210
0.0
220
0.0
230
1.0
  0
CIRCLE
  8
1
  6
CONTINUOUS
 62
     7
  5
1D8
 10
196.227333
 20
329.4085
 30
0.0
 40
0.194
210
0.0
220
0.0
230
1.0
  0
CIRCLE
  8
1
  6
CONTINUOUS
 62
     7
  5
1D9
 10
193.529333
 20
326.684667
 30
0.0
 40
0.194
210
0.0
220
0.0
230
1.0
  0
CIRCLE
  8
1
  6
CONTINUOUS
 62
     7
  5
1DA
 10
190.90625
 20
324.060667
 30
0.0
 40
0.194
210
0.0
220
0.0
230
1.0
  0
CIRCLE
  8
1
  6
CONTINUOUS
 62
     7
  5
1DB
 10
188.308083
 20
321.48675
 30
0.0
 40
0.194
210
0.0
220
0.0
230
1.0
  0
CIRCLE
  8
1
  6
CONTINUOUS
 62
     7
  5
1DC
 10
197.526333
 20
325.06025
 30
0.0
 40
0.194
210
0.0
220
0.0
230
1.0
  0
CIRCLE
  8
1
  6
CONTINUOUS
 62
     7
  5
1DD
 10
194.778417
 20
322.336417
 30
0.0
 40
0.194
210
0.0
220
0.0
230
1.0
  0
CIRCLE
  8
1
  6
CONTINUOUS
 62
     7
  5
1DE
 10
192.105333
 20
319.6625
 30
0.0
 40
0.194
210
0.0
220
0.0
230
1.0
  0
CIRCLE
  8
1
  6
CONTINUOUS
 62
     7
  5
1DF
 10
198.775417
 20
320.662083
 30
0.0
 40
0.194
210
0.0
220
0.0
230
1.0
  0
CIRCLE
  8
1
  6
CONTINUOUS
 62
     7
  5
1E0
 10
189.532417
 20
317.074583
 30
0.0
 40
0.194
210
0.0
220
0.0
230
1.0
  0
CIRCLE
  8
1
  6
CONTINUOUS
 62
     7
  5
1E1
 10
190.618583
 20
312.505833
 30
0.0
 40
0.194
210
0.0
220
0.0
230
1.0
  0
CIRCLE
  8
1
  6
CONTINUOUS
 62
     7
  5
1E2
 10
193.26425
 20
315.152417
 30
0.0
 40
0.194
210
0.0
220
0.0
230
1.0
  0
CIRCLE
  8
1
  6
CONTINUOUS
 62
     7
  5
1E3
 10
196.021333
 20
317.93825
 30
0.0
 40
0.194
210
0.0
220
0.0
230
1.0
  0
CIRCLE
  8
1
  6
CONTINUOUS
 62
     7
  5
1E4
 10
199.92025
 20
316.127417
 30
0.0
 40
0.194
210
0.0
220
0.0
230
1.0
  0
CIRCLE
  8
1
  6
CONTINUOUS
 62
     7
  5
1E5
 10
197.023917
 20
313.230167
 30
0.0
 40
0.194
210
0.0
220
0.0
230
1.0
  0
CIRCLE
  8
1
  6
CONTINUOUS
 62
     7
  5
1E6
 10
194.294667
 20
310.5
 30
0.0
 40
0.194
210
0.0
220
0.0
230
1.0
  0
CIRCLE
  8
1
  6
CONTINUOUS
 62
     7
  5
1E7
 10
191.537583
 20
307.742
 30
0.0
 40
0.194
210
0.0
220
0.0
230
1.0
  0
CIRCLE
  8
1
  6
CONTINUOUS
 62
     7
  5
1E8
 10
195.046583
 20
305.62475
 30
0.0
 40
0.194
210
0.0
220
0.0
230
1.0
  0
CIRCLE
  8
1
  6
CONTINUOUS
 62
     7
  5
1E9
 10
197.915083
 20
308.522083
 30
0.0
 40
0.194
210
0.0
220
0.0
230
1.0
  0
CIRCLE
  8
1
  6
CONTINUOUS
 62
     7
  5
1EA
 10
200.867167
 20
311.447167
 30
0.0
 40
0.194
210
0.0
220
0.0
230
1.0
  0
CIRCLE
  8
1
  6
CONTINUOUS
 62
     7
  5
1EB
 10
201.67475
 20
306.544083
 30
0.0
 40
0.194
210
0.0
220
0.0
230
1.0
  0
CIRCLE
  8
1
  6
CONTINUOUS
 62
     7
  5
1EC
 10
192.192083
 20
302.778417
 30
0.0
 40
0.194
210
0.0
220
0.0
230
1.0
  0
CIRCLE
  8
1
  6
CONTINUOUS
 62
     7
  5
1ED
 10
198.637833
 20
303.535667
 30
0.0
 40
0.194
210
0.0
220
0.0
230
1.0
  0
CIRCLE
  8
1
  6
CONTINUOUS
 62
     7
  5
1EE
 10
195.632833
 20
300.529667
 30
0.0
 40
0.194
210
0.0
220
0.0
230
1.0
  0
CIRCLE
  8
1
  6
CONTINUOUS
 62
     7
  5
1EF
 10
192.7655
 20
297.6385
 30
0.0
 40
0.194
210
0.0
220
0.0
230
1.0
  0
CIRCLE
  8
1
  6
CONTINUOUS
 62
     7
  5
1F0
 10
196.04575
 20
295.275
 30
0.0
 40
0.194
210
0.0
220
0.0
230
1.0
  0
CIRCLE
  8
1
  6
CONTINUOUS
 62
     7
  5
1F1
 10
199.1425
 20
298.395667
 30
0.0
 40
0.194
210
0.0
220
0.0
230
1.0
  0
CIRCLE
  8
1
  6
CONTINUOUS
 62
     7
  5
1F2
 10
202.331
 20
301.539333
 30
0.0
 40
0.194
210
0.0
220
0.0
230
1.0
  0
CIRCLE
  8
1
  6
CONTINUOUS
 62
     7
  5
1F3
 10
202.720917
 20
296.307583
 30
0.0
 40
0.194
210
0.0
220
0.0
230
1.0
  0
CIRCLE
  8
1
  6
CONTINUOUS
 62
     7
  5
1F4
 10
199.440667
 20
293.02625
 30
0.0
 40
0.194
210
0.0
220
0.0
230
1.0
  0
CIRCLE
  8
1
  6
CONTINUOUS
 62
     7
  5
1F5
 10
192.998583
 20
292.232333
 30
0.0
 40
0.194
210
0.0
220
0.0
230
1.0
  0
CIRCLE
  8
1
  6
CONTINUOUS
 62
     7
  5
1F6
 10
192.960083
 20
286.563917
 30
0.0
 40
0.194
210
0.0
220
0.0
230
1.0
  0
CIRCLE
  8
1
  6
CONTINUOUS
 62
     7
  5
1F7
 10
196.198083
 20
289.803
 30
0.0
 40
0.194
210
0.0
220
0.0
230
1.0
  0
CIRCLE
  8
1
  6
CONTINUOUS
 62
     7
  5
1F8
 10
199.474667
 20
287.41225
 30
0.0
 40
0.194
210
0.0
220
0.0
230
1.0
  0
CIRCLE
  8
1
  6
CONTINUOUS
 62
     7
  5
1F9
 10
196.198083
 20
284.096083
 30
0.0
 40
0.194
210
0.0
220
0.0
230
1.0
  0
CIRCLE
  8
1
  6
CONTINUOUS
 62
     7
  5
1FA
 10
192.805833
 20
280.74125
 30
0.0
 40
0.194
210
0.0
220
0.0
230
1.0
  0
CIRCLE
  8
1
  6
CONTINUOUS
 62
     7
  5
1FB
 10
192.112
 20
274.417417
 30
0.0
 40
0.194
210
0.0
220
0.0
230
1.0
  0
CIRCLE
  8
1
  6
CONTINUOUS
 62
     7
  5
1FC
 10
195.697
 20
278.042083
 30
0.0
 40
0.194
210
0.0
220
0.0
230
1.0
  0
CIRCLE
  8
1
  6
CONTINUOUS
 62
     7
  5
1FD
 10
199.243333
 20
281.551083
 30
0.0
 40
0.194
210
0.0
220
0.0
230
1.0
  0
CIRCLE
  8
1
  6
CONTINUOUS
 62
     7
  5
1FE
 10
202.828333
 20
285.137167
 30
0.0
 40
0.194
210
0.0
220
0.0
230
1.0
  0
CIRCLE
  8
1
  6
CONTINUOUS
 62
     7
  5
1FF
 10
202.519917
 20
279.160333
 30
0.0
 40
0.194
210
0.0
220
0.0
230
1.0
  0
CIRCLE
  8
1
  6
CONTINUOUS
 62
     7
  5
200
 10
198.780833
 20
275.4585
 30
0.0
 40
0.194
210
0.0
220
0.0
230
1.0
  0
CIRCLE
  8
1
  6
CONTINUOUS
 62
     7
  5
201
 10
194.810333
 20
271.44825
 30
0.0
 40
0.194
210
0.0
220
0.0
230
1.0
  0
CIRCLE
  8
1
  6
CONTINUOUS
 62
     7
  5
202
 10
191.018583
 20
267.63225
 30
0.0
 40
0.194
210
0.0
220
0.0
230
1.0
  0
CIRCLE
  8
1
  6
CONTINUOUS
 62
     7
  5
203
 10
189.463833
 20
260.410083
 30
0.0
 40
0.194
210
0.0
220
0.0
230
1.0
  0
CIRCLE
  8
1
  6
CONTINUOUS
 62
     7
  5
204
 10
193.744667
 20
264.7135
 30
0.0
 40
0.194
210
0.0
220
0.0
230
1.0
  0
CIRCLE
  8
1
  6
CONTINUOUS
 62
     7
  5
205
 10
197.855
 20
268.804
 30
0.0
 40
0.194
210
0.0
220
0.0
230
1.0
  0
CIRCLE
  8
1
  6
CONTINUOUS
 62
     7
  5
206
 10
201.9015
 20
272.873083
 30
0.0
 40
0.194
210
0.0
220
0.0
230
1.0
  0
CIRCLE
  8
1
  6
CONTINUOUS
 62
     7
  5
207
 10
200.836667
 20
266.16225
 30
0.0
 40
0.194
210
0.0
220
0.0
230
1.0
  0
CIRCLE
  8
1
  6
CONTINUOUS
 62
     7
  5
208
 10
196.3855
 20
261.709583
 30
0.0
 40
0.194
210
0.0
220
0.0
230
1.0
  0
CIRCLE
  8
1
  6
CONTINUOUS
 62
     7
  5
209
 10
199.260667
 20
258.91875
 30
0.0
 40
0.194
210
0.0
220
0.0
230
1.0
  0
CIRCLE
  8
1
  6
CONTINUOUS
 62
     7
  5
20A
 10
191.859083
 20
257.198
 30
0.0
 40
0.194
210
0.0
220
0.0
230
1.0
  0
CIRCLE
  8
1
  6
CONTINUOUS
 62
     7
  5
20B
 10
187.101917
 20
252.406917
 30
0.0
 40
0.194
210
0.0
220
0.0
230
1.0
  0
CIRCLE
  8
1
  6
CONTINUOUS
 62
     7
  5
20C
 10
183.6715
 20
243.375
 30
0.0
 40
0.194
210
0.0
220
0.0
230
1.0
  0
CIRCLE
  8
1
  6
CONTINUOUS
 62
     7
  5
20D
 10
189.36725
 20
249.040167
 30
0.0
 40
0.194
210
0.0
220
0.0
230
1.0
  0
CIRCLE
  8
1
  6
CONTINUOUS
 62
     7
  5
20E
 10
194.448083
 20
254.122667
 30
0.0
 40
0.194
210
0.0
220
0.0
230
1.0
  0
CIRCLE
  8
1
  6
CONTINUOUS
 62
     7
  5
20F
 10
197.069333
 20
251.079583
 30
0.0
 40
0.194
210
0.0
220
0.0
230
1.0
  0
CIRCLE
  8
1
  6
CONTINUOUS
 62
     7
  5
210
 10
191.5355
 20
245.511583
 30
0.0
 40
0.194
210
0.0
220
0.0
230
1.0
  0
CIRCLE
  8
1
  6
CONTINUOUS
 62
     7
  5
211
 10
193.897917
 20
242.274333
 30
0.0
 40
0.194
210
0.0
220
0.0
230
1.0
  0
CIRCLE
  8
1
  6
CONTINUOUS
 62
     7
  5
212
 10
202.312
 20
256.291583
 30
0.0
 40
0.194
210
0.0
220
0.0
230
1.0
  0
CIRCLE
  8
1
  6
CONTINUOUS
 62
     7
  5
213
 10
200.046667
 20
248.392667
 30
0.0
 40
0.194
210
0.0
220
0.0
230
1.0
  0
CIRCLE
  8
1
  6
CONTINUOUS
 62
     7
  5
214
 10
185.323833
 20
239.331333
 30
0.0
 40
0.194
210
0.0
220
0.0
230
1.0
  0
CIRCLE
  8
1
  6
CONTINUOUS
 62
     7
  5
215
 10
177.916583
 20
231.889
 30
0.0
 40
0.194
210
0.0
220
0.0
230
1.0
  0
CIRCLE
  8
1
  6
CONTINUOUS
 62
     7
  5
216
 10
187.053333
 20
235.381667
 30
0.0
 40
0.194
210
0.0
220
0.0
230
1.0
  0
CIRCLE
  8
1
  6
CONTINUOUS
 62
     7
  5
217
 10
196.4185
 20
239.102833
 30
0.0
 40
0.194
210
0.0
220
0.0
230
1.0
  0
CIRCLE
  8
1
  6
CONTINUOUS
 62
     7
  5
218
 10
189.076417
 20
231.693083
 30
0.0
 40
0.194
210
0.0
220
0.0
230
1.0
  0
CIRCLE
  8
1
  6
CONTINUOUS
 62
     7
  5
219
 10
178.803083
 20
227.140417
 30
0.0
 40
0.194
210
0.0
220
0.0
230
1.0
  0
CIRCLE
  8
1
  6
CONTINUOUS
 62
     7
  5
21A
 10
179.638167
 20
222.325
 30
0.0
 40
0.194
210
0.0
220
0.0
230
1.0
  0
LINE
  8
1
  6
CONTINUOUS
 62
     7
  5
21B
 10
181.605667
 20
288.905333
 30
0.0
 11
184.605667
 21
288.905333
 31
0.0
  0
LINE
  8
1
  6
CONTINUOUS
 62
     7
  5
21C
 10
187.105667
 20
288.905333
 30
0.0
 11
195.105667
 21
288.905333
 31
0.0
  0
LINE
  8
1
  6
CONTINUOUS
 62
     7
  5
21D
 10
119.820417
 20
312.981083
 30
0.0
 11
119.820417
 21
365.981083
 31
0.0
  0
LINE
  8
1
  6
CONTINUOUS
 62
     7
  5
21E
 10
142.5145
 20
304.727167
 30
0.0
 11
142.5145
 21
365.981083
 31
0.0
  0
LINE
  8
1
  6
CONTINUOUS
 62
     7
  5
21F
 10
124.570417
 20
346.62975
 30
0.0
 11
124.570417
 21
354.62975
 31
0.0
  0
LINE
  8
1
  6
CONTINUOUS
 62
     7
  5
220
 10
187.7815
 20
320.00625
 30
0.0
 11
162.509417
 21
309.47275
 31
0.0
  0
LINE
  8
1
  6
CONTINUOUS
 62
     7
  5
221
 10
176.879333
 20
261.76025
 30
0.0
 11
163.832417
 21
265.775833
 31
0.0
  0
LINE
  8
1
  6
CONTINUOUS
 62
     7
  5
222
 10
180.605667
 20
288.905333
 30
0.0
 11
180.605667
 21
209.907833
 31
0.0
  0
LINE
  8
1
  6
CONTINUOUS
 62
     7
  5
223
 10
192.105667
 20
288.905333
 30
0.0
 11
192.105667
 21
196.51825
 31
0.0
  0
LINE
  8
1
  6
CONTINUOUS
 62
     7
  5
224
 10
180.605667
 20
210.907833
 30
0.0
 11
184.605667
 21
210.907833
 31
0.0
  0
LINE
  8
1
  6
CONTINUOUS
 62
     7
  5
225
 10
192.105667
 20
197.51825
 30
0.0
 11
196.105667
 21
197.51825
 31
0.0
  0
LINE
  8
1
  6
CONTINUOUS
 62
     7
  5
226
 10
172.105667
 20
210.907833
 30
0.0
 11
168.105667
 21
210.907833
 31
0.0
  0
LINE
  8
1
  6
CONTINUOUS
 62
     7
  5
227
 10
172.105667
 20
197.51825
 30
0.0
 11
168.105667
 21
197.51825
 31
0.0
  0
LINE
  8
1
  6
CONTINUOUS
 62
     7
  5
228
 10
119.820417
 20
364.981083
 30
0.0
 11
142.5145
 21
364.981083
 31
0.0
  0
LINE
  8
1
  6
CONTINUOUS
 62
     7
  5
229
 10
124.570417
 20
353.62975
 30
0.0
 11
128.570417
 21
353.62975
 31
0.0
  0
LINE
  8
1
  6
CONTINUOUS
 62
     7
  5
22A
 10
119.820417
 20
353.62975
 30
0.0
 11
115.820417
 21
353.62975
 31
0.0
  0
LINE
  8
1
  6
CONTINUOUS
 62
     6
  5
22B
 10
23.901667
 20
196.782667
 30
0.0
 11
29.760667
 21
196.782667
 31
0.0
  0
LINE
  8
1
  6
CONTINUOUS
 62
     6
  5
22C
 10
24.79825
 20
174.782667
 30
0.0
 11
28.864083
 21
174.782667
 31
0.0
  0
LINE
  8
1
  6
CONTINUOUS
 62
     6
  5
22D
 10
22.904
 20
195.714667
 30
0.0
 11
24.299417
 21
175.248667
 31
0.0
  0
LINE
  8
1
  6
CONTINUOUS
 62
     6
  5
22E
 10
30.758333
 20
195.714667
 30
0.0
 11
29.362917
 21
175.248667
 31
0.0
  0
ARC
  8
1
  6
CONTINUOUS
 62
     6
  5
22F
 10
23.901672
 20
195.782667
 30
0.0
 40
1.0
 50
90.0
 51
183.900614
210
0.0
220
0.0
230
1.0
  0
ARC
  8
1
  6
CONTINUOUS
 62
     6
  5
230
 10
29.76066
 20
195.782667
 30
0.0
 40
1.0
 50
356.099361
 51
90.0
210
0.0
220
0.0
230
1.0
  0
ARC
  8
1
  6
CONTINUOUS
 62
     6
  5
231
 10
24.798238
 20
175.282667
 30
0.0
 40
0.5
 50
183.900269
 51
270.0
210
0.0
220
0.0
230
1.0
  0
ARC
  8
1
  6
CONTINUOUS
 62
     6
  5
232
 10
28.864087
 20
175.282667
 30
0.0
 40
0.5
 50
270.0
 51
356.1007
210
0.0
220
0.0
230
1.0
  0
LINE
  8
1
  6
CONTINUOUS
 62
     6
  5
233
 10
23.069833
 20
193.282667
 30
0.0
 11
30.5925
 21
193.282667
 31
0.0
  0
LINE
  8
1
  6
CONTINUOUS
 62
     6
  5
234
 10
20.138
 20
192.282667
 30
0.0
 11
30.524333
 21
192.282667
 31
0.0
  0
LINE
  8
1
  6
CONTINUOUS
 62
     6
  5
235
 10
23.342583
 20
189.282667
 30
0.0
 11
30.31975
 21
189.282667
 31
0.0
  0
LINE
  8
1
  6
CONTINUOUS
 62
     6
  5
236
 10
23.547083
 20
186.282667
 30
0.0
 11
30.11525
 21
186.282667
 31
0.0
  0
LINE
  8
1
  6
CONTINUOUS
 62
     6
  5
237
 10
23.768667
 20
183.032667
 30
0.0
 11
29.893667
 21
183.032667
 31
0.0
  0
LINE
  8
1
  6
CONTINUOUS
 62
     6
  5
238
 10
23.939167
 20
180.532667
 30
0.0
 11
29.723167
 21
180.532667
 31
0.0
  0
LINE
  8
1
  6
CONTINUOUS
 62
     6
  5
239
 10
24.143667
 20
177.532667
 30
0.0
 11
29.518667
 21
177.532667
 31
0.0
  0
LINE
  8
1
  6
CONTINUOUS
 62
     6
  5
23A
 10
23.88975
 20
192.282667
 30
0.0
 11
24.09425
 21
189.282667
 31
0.0
  0
LINE
  8
1
  6
CONTINUOUS
 62
     6
  5
23B
 10
24.452333
 20
184.030333
 30
0.0
 11
25.082917
 21
174.782667
 31
0.0
  0
LINE
  8
1
  6
CONTINUOUS
 62
     6
  5
23C
 10
24.16225
 20
188.284833
 30
0.0
 11
24.384083
 21
185.027917
 31
0.0
  0
LINE
  8
1
  6
CONTINUOUS
 62
     6
  5
23D
 10
30.524333
 20
192.282667
 30
0.0
 11
71.638
 21
192.282667
 31
0.0
  0
LINE
  8
1
  6
CONTINUOUS
 62
     6
  5
23E
 10
30.31975
 20
189.282667
 30
0.0
 11
71.842583
 21
189.282667
 31
0.0
  0
LINE
  8
1
  6
CONTINUOUS
 62
     6
  5
23F
 10
20.138
 20
192.282667
 30
0.0
 11
20.485333
 21
194.25225
 31
0.0
  0
LINE
  8
1
  6
CONTINUOUS
 62
     6
  5
240
 10
20.485333
 20
194.25225
 30
0.0
 11
22.904
 21
195.714667
 31
0.0
  0
LINE
  8
1
  6
DASHED
 62
     6
  5
241
 10
28.211667
 20
189.532667
 30
0.0
 11
27.760667
 21
196.782667
 31
0.0
  0
LINE
  8
1
  6
CONTINUOUS
 62
     6
  5
242
 10
30.5925
 20
193.282667
 30
0.0
 11
27.760667
 21
196.782667
 31
0.0
  0
LINE
  8
1
  6
DASHED
 62
     6
  5
243
 10
28.211667
 20
189.532667
 30
0.0
 11
73.950667
 21
189.532667
 31
0.0
  0
LINE
  8
1
  6
DASHED
 62
     6
  5
244
 10
30.31975
 20
190.532667
 30
0.0
 11
71.757333
 21
190.532667
 31
0.0
  0
LINE
  8
1
  6
CONTINUOUS
 62
     6
  5
245
 10
20.485333
 20
194.25225
 30
0.0
 11
23.118583
 21
194.25225
 31
0.0
  0
LINE
  8
1
  6
CONTINUOUS
 62
     6
  5
246
 10
78.260667
 20
196.782667
 30
0.0
 11
72.401667
 21
196.782667
 31
0.0
  0
LINE
  8
1
  6
CONTINUOUS
 62
     6
  5
247
 10
77.364083
 20
174.782667
 30
0.0
 11
73.29825
 21
174.782667
 31
0.0
  0
LINE
  8
1
  6
CONTINUOUS
 62
     6
  5
248
 10
79.258333
 20
195.714667
 30
0.0
 11
77.862917
 21
175.248667
 31
0.0
  0
LINE
  8
1
  6
CONTINUOUS
 62
     6
  5
249
 10
71.404
 20
195.714667
 30
0.0
 11
72.799417
 21
175.248667
 31
0.0
  0
ARC
  8
1
  6
CONTINUOUS
 62
     6
  5
24A
 10
78.260661
 20
195.782667
 30
0.0
 40
1.0
 50
356.099386
 51
90.0
210
0.0
220
0.0
230
1.0
  0
ARC
  8
1
  6
CONTINUOUS
 62
     6
  5
24B
 10
72.401673
 20
195.782667
 30
0.0
 40
1.0
 50
90.0
 51
183.900639
210
0.0
220
0.0
230
1.0
  0
ARC
  8
1
  6
CONTINUOUS
 62
     6
  5
24C
 10
77.364095
 20
175.282667
 30
0.0
 40
0.5
 50
270.0
 51
356.099731
210
0.0
220
0.0
230
1.0
  0
ARC
  8
1
  6
CONTINUOUS
 62
     6
  5
24D
 10
73.298246
 20
175.282667
 30
0.0
 40
0.5
 50
183.8993
 51
270.0
210
0.0
220
0.0
230
1.0
  0
LINE
  8
1
  6
CONTINUOUS
 62
     6
  5
24E
 10
79.0925
 20
193.282667
 30
0.0
 11
71.569833
 21
193.282667
 31
0.0
  0
LINE
  8
1
  6
CONTINUOUS
 62
     6
  5
24F
 10
82.024333
 20
192.282667
 30
0.0
 11
71.638
 21
192.282667
 31
0.0
  0
LINE
  8
1
  6
CONTINUOUS
 62
     6
  5
250
 10
78.81975
 20
189.282667
 30
0.0
 11
71.842583
 21
189.282667
 31
0.0
  0
LINE
  8
1
  6
CONTINUOUS
 62
     6
  5
251
 10
78.61525
 20
186.282667
 30
0.0
 11
72.047083
 21
186.282667
 31
0.0
  0
LINE
  8
1
  6
CONTINUOUS
 62
     6
  5
252
 10
78.393667
 20
183.032667
 30
0.0
 11
72.268667
 21
183.032667
 31
0.0
  0
LINE
  8
1
  6
CONTINUOUS
 62
     6
  5
253
 10
78.223167
 20
180.532667
 30
0.0
 11
72.439167
 21
180.532667
 31
0.0
  0
LINE
  8
1
  6
CONTINUOUS
 62
     6
  5
254
 10
78.018667
 20
177.532667
 30
0.0
 11
72.643667
 21
177.532667
 31
0.0
  0
LINE
  8
1
  6
CONTINUOUS
 62
     6
  5
255
 10
78.272583
 20
192.282667
 30
0.0
 11
78.068083
 21
189.282667
 31
0.0
  0
LINE
  8
1
  6
CONTINUOUS
 62
     6
  5
256
 10
77.71
 20
184.030333
 30
0.0
 11
77.079417
 21
174.782667
 31
0.0
  0
LINE
  8
1
  6
CONTINUOUS
 62
     6
  5
257
 10
78.000083
 20
188.284833
 30
0.0
 11
77.77825
 21
185.027917
 31
0.0
  0
LINE
  8
1
  6
CONTINUOUS
 62
     6
  5
258
 10
82.024333
 20
192.282667
 30
0.0
 11
81.677
 21
194.25225
 31
0.0
  0
LINE
  8
1
  6
CONTINUOUS
 62
     6
  5
259
 10
81.677
 20
194.25225
 30
0.0
 11
79.258333
 21
195.714667
 31
0.0
  0
LINE
  8
1
  6
DASHED
 62
     6
  5
25A
 10
73.950667
 20
189.532667
 30
0.0
 11
74.401667
 21
196.782667
 31
0.0
  0
LINE
  8
1
  6
CONTINUOUS
 62
     6
  5
25B
 10
71.569833
 20
193.282667
 30
0.0
 11
74.401667
 21
196.782667
 31
0.0
  0
LINE
  8
1
  6
CONTINUOUS
 62
     6
  5
25C
 10
81.677
 20
194.25225
 30
0.0
 11
79.04375
 21
194.25225
 31
0.0
  0
LINE
  8
1
  6
CONTINUOUS
 62
     6
  5
25D
 10
124.570417
 20
162.127333
 30
0.0
 11
94.331167
 21
162.127333
 31
0.0
  0
POLYLINE
  8
1
  6
CONTINUOUS
 62
     6
  5
25E
 66
     1
 10
0.0
 20
0.0
 30
0.0
 70
     1
  0
VERTEX
  8
1
  6
CONTINUOUS
 62
     6
  5
25F
 10
22.831167
 20
162.127333
 30
0.0
  0
VERTEX
  8
1
  6
CONTINUOUS
 62
     6
  5
260
 10
3.831167
 20
162.127333
 30
0.0
  0
VERTEX
  8
1
  6
CONTINUOUS
 62
     6
  5
261
 10
4.617
 20
149.901
 30
0.0
  0
VERTEX
  8
1
  6
CONTINUOUS
 62
     6
  5
262
 10
6.348167
 20
142.231833
 30
0.0
  0
VERTEX
  8
1
  6
CONTINUOUS
 62
     6
  5
263
 10
6.5955
 20
132.831
 30
0.0
  0
VERTEX
  8
1
  6
CONTINUOUS
 62
     6
  5
264
 10
9.810583
 20
127.141
 30
0.0
  0
VERTEX
  8
1
  6
CONTINUOUS
 62
     6
  5
265
 10
24.154583
 20
127.388333
 30
0.0
  0
VERTEX
  8
1
  6
CONTINUOUS
 62
     6
  5
266
 10
34.294417
 20
126.893583
 30
0.0
  0
VERTEX
  8
1
  6
CONTINUOUS
 62
     6
  5
267
 10
44.6815
 20
128.1305
 30
0.0
  0
VERTEX
  8
1
  6
CONTINUOUS
 62
     6
  5
268
 10
57.789
 20
127.63575
 30
0.0
  0
VERTEX
  8
1
  6
CONTINUOUS
 62
     6
  5
269
 10
68.176083
 20
125.904
 30
0.0
  0
VERTEX
  8
1
  6
CONTINUOUS
 62
     6
  5
26A
 10
82.767417
 20
124.419667
 30
0.0
  0
VERTEX
  8
1
  6
CONTINUOUS
 62
     6
  5
26B
 10
93.401833
 20
127.141
 30
0.0
  0
VERTEX
  8
1
  6
CONTINUOUS
 62
     6
  5
26C
 10
98.348083
 20
133.078333
 30
0.0
  0
VERTEX
  8
1
  6
CONTINUOUS
 62
     6
  5
26D
 10
97.606083
 20
142.974
 30
0.0
  0
VERTEX
  8
1
  6
CONTINUOUS
 62
     6
  5
26E
 10
96.12225
 20
149.901
 30
0.0
  0
VERTEX
  8
1
  6
CONTINUOUS
 62
     6
  5
26F
 10
94.331167
 20
162.127333
 30
0.0
  0
VERTEX
  8
1
  6
CONTINUOUS
 62
     6
  5
270
 10
79.331167
 20
162.127333
 30
0.0
  0
VERTEX
  8
1
  6
CONTINUOUS
 62
     6
  5
271
 10
79.331167
 20
141.627333
 30
0.0
  0
VERTEX
  8
1
  6
CONTINUOUS
 62
     6
  5
272
 10
71.331167
 20
141.627333
 30
0.0
  0
VERTEX
  8
1
  6
CONTINUOUS
 62
     6
  5
273
 10
71.331167
 20
153.627333
 30
0.0
  0
VERTEX
  8
1
  6
CONTINUOUS
 62
     6
  5
274
 10
30.831167
 20
153.627333
 30
0.0
  0
VERTEX
  8
1
  6
CONTINUOUS
 62
     6
  5
275
 10
30.831167
 20
141.627333
 30
0.0
  0
VERTEX
  8
1
  6
CONTINUOUS
 62
     6
  5
276
 10
22.831167
 20
141.627333
 30
0.0
  0
VERTEX
  8
1
  6
CONTINUOUS
 62
     6
  5
277
 10
22.831167
 20
162.127333
 30
0.0
  0
SEQEND
  8
1
  6
CONTINUOUS
 62
     6
  5
278
  0
LINE
  8
1
  6
CONTINUOUS
 62
     6
  5
279
 10
4.0975
 20
157.984083
 30
0.0
 11
8.24075
 21
162.127333
 31
0.0
  0
LINE
  8
1
  6
CONTINUOUS
 62
     6
  5
27A
 10
4.439083
 20
152.668833
 30
0.0
 11
13.897583
 21
162.127333
 31
0.0
  0
LINE
  8
1
  6
CONTINUOUS
 62
     6
  5
27B
 10
5.11625
 20
147.689167
 30
0.0
 11
19.554417
 21
162.127333
 31
0.0
  0
LINE
  8
1
  6
CONTINUOUS
 62
     6
  5
27C
 10
6.158083
 20
143.074083
 30
0.0
 11
22.831167
 21
159.747167
 31
0.0
  0
LINE
  8
1
  6
CONTINUOUS
 62
     6
  5
27D
 10
6.46675
 20
137.725917
 30
0.0
 11
22.831167
 21
154.090333
 31
0.0
  0
LINE
  8
1
  6
CONTINUOUS
 62
     6
  5
27E
 10
6.824083
 20
132.426417
 30
0.0
 11
22.831167
 21
148.4335
 31
0.0
  0
LINE
  8
1
  6
CONTINUOUS
 62
     6
  5
27F
 10
8.866417
 20
128.811917
 30
0.0
 11
22.831167
 21
142.776667
 31
0.0
  0
LINE
  8
1
  6
CONTINUOUS
 62
     6
  5
280
 10
30.831167
 20
150.776667
 30
0.0
 11
33.681833
 21
153.627333
 31
0.0
  0
LINE
  8
1
  6
CONTINUOUS
 62
     6
  5
281
 10
12.90575
 20
127.194333
 30
0.0
 11
27.33875
 21
141.627333
 31
0.0
  0
LINE
  8
1
  6
CONTINUOUS
 62
     6
  5
282
 10
30.831167
 20
145.11975
 30
0.0
 11
39.33875
 21
153.627333
 31
0.0
  0
LINE
  8
1
  6
CONTINUOUS
 62
     6
  5
283
 10
18.661833
 20
127.293583
 30
0.0
 11
44.995583
 21
153.627333
 31
0.0
  0
LINE
  8
1
  6
CONTINUOUS
 62
     6
  5
284
 10
24.401417
 20
127.37625
 30
0.0
 11
50.652417
 21
153.627333
 31
0.0
  0
LINE
  8
1
  6
CONTINUOUS
 62
     6
  5
285
 10
29.795083
 20
127.113083
 30
0.0
 11
56.30925
 21
153.627333
 31
0.0
  0
LINE
  8
1
  6
CONTINUOUS
 62
     6
  5
286
 10
35.359167
 20
127.020417
 30
0.0
 11
61.966167
 21
153.627333
 31
0.0
  0
LINE
  8
1
  6
CONTINUOUS
 62
     6
  5
287
 10
41.78075
 20
127.785083
 30
0.0
 11
67.623
 21
153.627333
 31
0.0
  0
LINE
  8
1
  6
CONTINUOUS
 62
     6
  5
288
 10
47.67025
 20
128.017667
 30
0.0
 11
71.331167
 21
151.678667
 31
0.0
  0
LINE
  8
1
  6
CONTINUOUS
 62
     6
  5
289
 10
79.331167
 20
159.678667
 30
0.0
 11
81.779833
 21
162.127333
 31
0.0
  0
LINE
  8
1
  6
CONTINUOUS
 62
     6
  5
28A
 10
53.121333
 20
127.811917
 30
0.0
 11
71.331167
 21
146.02175
 31
0.0
  0
LINE
  8
1
  6
CONTINUOUS
 62
     6
  5
28B
 10
79.331167
 20
154.02175
 30
0.0
 11
87.43675
 21
162.127333
 31
0.0
  0
LINE
  8
1
  6
CONTINUOUS
 62
     6
  5
28C
 10
58.485833
 20
127.519583
 30
0.0
 11
72.593583
 21
141.627333
 31
0.0
  0
LINE
  8
1
  6
CONTINUOUS
 62
     6
  5
28D
 10
79.331167
 20
148.364917
 30
0.0
 11
93.093583
 21
162.127333
 31
0.0
  0
LINE
  8
1
  6
CONTINUOUS
 62
     6
  5
28E
 10
63.334333
 20
126.71125
 30
0.0
 11
78.250417
 21
141.627333
 31
0.0
  0
LINE
  8
1
  6
CONTINUOUS
 62
     6
  5
28F
 10
79.331167
 20
142.708083
 30
0.0
 11
94.895833
 21
158.27275
 31
0.0
  0
LINE
  8
1
  6
CONTINUOUS
 62
     6
  5
290
 10
68.18325
 20
125.90325
 30
0.0
 11
95.618667
 21
153.33875
 31
0.0
  0
LINE
  8
1
  6
CONTINUOUS
 62
     6
  5
291
 10
73.31775
 20
125.380917
 30
0.0
 11
96.424917
 21
148.488083
 31
0.0
  0
LINE
  8
1
  6
CONTINUOUS
 62
     6
  5
292
 10
78.45225
 20
124.858667
 30
0.0
 11
97.422917
 21
143.82925
 31
0.0
  0
LINE
  8
1
  6
CONTINUOUS
 62
     6
  5
293
 10
83.980667
 20
124.730167
 30
0.0
 11
97.92825
 21
138.67775
 31
0.0
  0
LINE
  8
1
  6
CONTINUOUS
 62
     6
  5
294
 10
91.582917
 20
126.6755
 30
0.0
 11
98.322833
 21
133.415417
 31
0.0
  0
CIRCLE
  8
1
  6
CONTINUOUS
 62
     7
  5
295
 10
15.985833
 20
150.24875
 30
0.0
 40
0.194
210
0.0
220
0.0
230
1.0
  0
CIRCLE
  8
1
  6
CONTINUOUS
 62
     7
  5
296
 10
15.302
 20
160.87875
 30
0.0
 40
0.194
210
0.0
220
0.0
230
1.0
  0
CIRCLE
  8
1
  6
CONTINUOUS
 62
     7
  5
297
 10
18.177167
 20
158.087917
 30
0.0
 40
0.194
210
0.0
220
0.0
230
1.0
  0
CIRCLE
  8
1
  6
CONTINUOUS
 62
     7
  5
298
 10
10.775583
 20
156.367167
 30
0.0
 40
0.194
210
0.0
220
0.0
230
1.0
  0
CIRCLE
  8
1
  6
CONTINUOUS
 62
     7
  5
299
 10
6.018417
 20
151.576083
 30
0.0
 40
0.194
210
0.0
220
0.0
230
1.0
  0
CIRCLE
  8
1
  6
CONTINUOUS
 62
     7
  5
29A
 10
8.28375
 20
148.209333
 30
0.0
 40
0.194
210
0.0
220
0.0
230
1.0
  0
CIRCLE
  8
1
  6
CONTINUOUS
 62
     7
  5
29B
 10
13.364583
 20
153.291833
 30
0.0
 40
0.194
210
0.0
220
0.0
230
1.0
  0
CIRCLE
  8
1
  6
CONTINUOUS
 62
     7
  5
29C
 10
10.452
 20
144.68075
 30
0.0
 40
0.194
210
0.0
220
0.0
230
1.0
  0
CIRCLE
  8
1
  6
CONTINUOUS
 62
     7
  5
29D
 10
7.895833
 20
159.2405
 30
0.0
 40
0.194
210
0.0
220
0.0
230
1.0
  0
CIRCLE
  8
1
  6
CONTINUOUS
 62
     7
  5
29E
 10
16.111167
 20
138.816333
 30
0.0
 40
0.194
210
0.0
220
0.0
230
1.0
  0
CIRCLE
  8
1
  6
CONTINUOUS
 62
     7
  5
29F
 10
22.49975
 20
150.855917
 30
0.0
 40
0.194
210
0.0
220
0.0
230
1.0
  0
CIRCLE
  8
1
  6
CONTINUOUS
 62
     7
  5
2A0
 10
18.048583
 20
146.40325
 30
0.0
 40
0.194
210
0.0
220
0.0
230
1.0
  0
CIRCLE
  8
1
  6
CONTINUOUS
 62
     7
  5
2A1
 10
20.92375
 20
143.612417
 30
0.0
 40
0.194
210
0.0
220
0.0
230
1.0
  0
CIRCLE
  8
1
  6
CONTINUOUS
 62
     7
  5
2A2
 10
13.522167
 20
141.891667
 30
0.0
 40
0.194
210
0.0
220
0.0
230
1.0
  0
CIRCLE
  8
1
  6
CONTINUOUS
 62
     7
  5
2A3
 10
8.765
 20
137.100583
 30
0.0
 40
0.194
210
0.0
220
0.0
230
1.0
  0
CIRCLE
  8
1
  6
CONTINUOUS
 62
     7
  5
2A4
 10
11.030333
 20
133.733833
 30
0.0
 40
0.194
210
0.0
220
0.0
230
1.0
  0
CIRCLE
  8
1
  6
CONTINUOUS
 62
     7
  5
2A5
 10
18.732417
 20
135.77325
 30
0.0
 40
0.194
210
0.0
220
0.0
230
1.0
  0
CIRCLE
  8
1
  6
CONTINUOUS
 62
     7
  5
2A6
 10
13.198583
 20
130.20525
 30
0.0
 40
0.194
210
0.0
220
0.0
230
1.0
  0
CIRCLE
  8
1
  6
CONTINUOUS
 62
     7
  5
2A7
 10
21.465333
 20
132.732833
 30
0.0
 40
0.194
210
0.0
220
0.0
230
1.0
  0
CIRCLE
  8
1
  6
CONTINUOUS
 62
     7
  5
2A8
 10
30.442917
 20
141.697083
 30
0.0
 40
0.194
210
0.0
220
0.0
230
1.0
  0
CIRCLE
  8
1
  6
CONTINUOUS
 62
     7
  5
2A9
 10
25.99175
 20
137.244417
 30
0.0
 40
0.194
210
0.0
220
0.0
230
1.0
  0
CIRCLE
  8
1
  6
CONTINUOUS
 62
     7
  5
2AA
 10
28.866917
 20
134.453583
 30
0.0
 40
0.194
210
0.0
220
0.0
230
1.0
  0
CIRCLE
  8
1
  6
CONTINUOUS
 62
     7
  5
2AB
 10
16.708167
 20
127.94175
 30
0.0
 40
0.194
210
0.0
220
0.0
230
1.0
  0
CIRCLE
  8
1
  6
CONTINUOUS
 62
     7
  5
2AC
 10
31.909417
 20
132.106
 30
0.0
 40
0.194
210
0.0
220
0.0
230
1.0
  0
CIRCLE
  8
1
  6
CONTINUOUS
 62
     7
  5
2AD
 10
41.876833
 20
130.778667
 30
0.0
 40
0.194
210
0.0
220
0.0
230
1.0
  0
CIRCLE
  8
1
  6
CONTINUOUS
 62
     7
  5
2AE
 10
41.193
 20
141.408667
 30
0.0
 40
0.194
210
0.0
220
0.0
230
1.0
  0
CIRCLE
  8
1
  6
CONTINUOUS
 62
     7
  5
2AF
 10
44.068167
 20
138.617833
 30
0.0
 40
0.194
210
0.0
220
0.0
230
1.0
  0
CIRCLE
  8
1
  6
CONTINUOUS
 62
     7
  5
2B0
 10
36.666583
 20
136.897083
 30
0.0
 40
0.194
210
0.0
220
0.0
230
1.0
  0
CIRCLE
  8
1
  6
CONTINUOUS
 62
     7
  5
2B1
 10
34.17475
 20
128.73925
 30
0.0
 40
0.194
210
0.0
220
0.0
230
1.0
  0
CIRCLE
  8
1
  6
CONTINUOUS
 62
     7
  5
2B2
 10
39.255583
 20
133.82175
 30
0.0
 40
0.194
210
0.0
220
0.0
230
1.0
  0
CIRCLE
  8
1
  6
CONTINUOUS
 62
     7
  5
2B3
 10
23.773583
 20
129.601167
 30
0.0
 40
0.194
210
0.0
220
0.0
230
1.0
  0
CIRCLE
  8
1
  6
CONTINUOUS
 62
     7
  5
2B4
 10
33.838917
 20
139.487833
 30
0.0
 40
0.194
210
0.0
220
0.0
230
1.0
  0
CIRCLE
  8
1
  6
CONTINUOUS
 62
     7
  5
2B5
 10
38.083333
 20
144.036917
 30
0.0
 40
0.194
210
0.0
220
0.0
230
1.0
  0
CIRCLE
  8
1
  6
CONTINUOUS
 62
     7
  5
2B6
 10
35.172917
 20
146.887667
 30
0.0
 40
0.194
210
0.0
220
0.0
230
1.0
  0
CIRCLE
  8
1
  6
CONTINUOUS
 62
     7
  5
2B7
 10
32.38375
 20
149.738417
 30
0.0
 40
0.194
210
0.0
220
0.0
230
1.0
  0
CIRCLE
  8
1
  6
CONTINUOUS
 62
     7
  5
2B8
 10
39.389333
 20
151.120667
 30
0.0
 40
0.194
210
0.0
220
0.0
230
1.0
  0
CIRCLE
  8
1
  6
CONTINUOUS
 62
     7
  5
2B9
 10
51.1465
 20
139.920083
 30
0.0
 40
0.194
210
0.0
220
0.0
230
1.0
  0
CIRCLE
  8
1
  6
CONTINUOUS
 62
     7
  5
2BA
 10
46.9095
 20
152.978083
 30
0.0
 40
0.194
210
0.0
220
0.0
230
1.0
  0
CIRCLE
  8
1
  6
CONTINUOUS
 62
     7
  5
2BB
 10
50.291083
 20
150.380333
 30
0.0
 40
0.194
210
0.0
220
0.0
230
1.0
  0
CIRCLE
  8
1
  6
CONTINUOUS
 62
     7
  5
2BC
 10
42.47575
 20
148.22975
 30
0.0
 40
0.194
210
0.0
220
0.0
230
1.0
  0
CIRCLE
  8
1
  6
CONTINUOUS
 62
     7
  5
2BD
 10
45.325583
 20
145.561
 30
0.0
 40
0.194
210
0.0
220
0.0
230
1.0
  0
CIRCLE
  8
1
  6
CONTINUOUS
 62
     7
  5
2BE
 10
48.11475
 20
142.770833
 30
0.0
 40
0.194
210
0.0
220
0.0
230
1.0
  0
CIRCLE
  8
1
  6
CONTINUOUS
 62
     7
  5
2BF
 10
53.147417
 20
147.683833
 30
0.0
 40
0.194
210
0.0
220
0.0
230
1.0
  0
CIRCLE
  8
1
  6
CONTINUOUS
 62
     7
  5
2C0
 10
46.946833
 20
135.8115
 30
0.0
 40
0.194
210
0.0
220
0.0
230
1.0
  0
CIRCLE
  8
1
  6
CONTINUOUS
 62
     7
  5
2C1
 10
56.102667
 20
145.091583
 30
0.0
 40
0.194
210
0.0
220
0.0
230
1.0
  0
CIRCLE
  8
1
  6
CONTINUOUS
 62
     7
  5
2C2
 10
59.07375
 20
142.422833
 30
0.0
 40
0.194
210
0.0
220
0.0
230
1.0
  0
CIRCLE
  8
1
  6
CONTINUOUS
 62
     7
  5
2C3
 10
53.7985
 20
137.327833
 30
0.0
 40
0.194
210
0.0
220
0.0
230
1.0
  0
CIRCLE
  8
1
  6
CONTINUOUS
 62
     7
  5
2C4
 10
49.61475
 20
132.96075
 30
0.0
 40
0.194
210
0.0
220
0.0
230
1.0
  0
CIRCLE
  8
1
  6
CONTINUOUS
 62
     7
  5
2C5
 10
44.703333
 20
128.290333
 30
0.0
 40
0.194
210
0.0
220
0.0
230
1.0
  0
CIRCLE
  8
1
  6
CONTINUOUS
 62
     7
  5
2C6
 10
58.304667
 20
153.03225
 30
0.0
 40
0.194
210
0.0
220
0.0
230
1.0
  0
CIRCLE
  8
1
  6
CONTINUOUS
 62
     7
  5
2C7
 10
64.249
 20
147.35875
 30
0.0
 40
0.194
210
0.0
220
0.0
230
1.0
  0
CIRCLE
  8
1
  6
CONTINUOUS
 62
     7
  5
2C8
 10
61.1405
 20
149.92275
 30
0.0
 40
0.194
210
0.0
220
0.0
230
1.0
  0
CIRCLE
  8
1
  6
CONTINUOUS
 62
     7
  5
2C9
 10
69.5935
 20
152.48675
 30
0.0
 40
0.194
210
0.0
220
0.0
230
1.0
  0
CIRCLE
  8
1
  6
CONTINUOUS
 62
     7
  5
2CA
 10
66.893083
 20
144.822833
 30
0.0
 40
0.194
210
0.0
220
0.0
230
1.0
  0
CIRCLE
  8
1
  6
CONTINUOUS
 62
     7
  5
2CB
 10
57.6095
 20
135.520167
 30
0.0
 40
0.194
210
0.0
220
0.0
230
1.0
  0
CIRCLE
  8
1
  6
CONTINUOUS
 62
     7
  5
2CC
 10
67.576917
 20
134.192833
 30
0.0
 40
0.194
210
0.0
220
0.0
230
1.0
  0
CIRCLE
  8
1
  6
CONTINUOUS
 62
     7
  5
2CD
 10
69.76825
 20
142.032
 30
0.0
 40
0.194
210
0.0
220
0.0
230
1.0
  0
CIRCLE
  8
1
  6
CONTINUOUS
 62
     7
  5
2CE
 10
62.366667
 20
140.31125
 30
0.0
 40
0.194
210
0.0
220
0.0
230
1.0
  0
CIRCLE
  8
1
  6
CONTINUOUS
 62
     7
  5
2CF
 10
59.874833
 20
132.153417
 30
0.0
 40
0.194
210
0.0
220
0.0
230
1.0
  0
CIRCLE
  8
1
  6
CONTINUOUS
 62
     7
  5
2D0
 10
64.955667
 20
137.235917
 30
0.0
 40
0.194
210
0.0
220
0.0
230
1.0
  0
CIRCLE
  8
1
  6
CONTINUOUS
 62
     7
  5
2D1
 10
52.776583
 20
130.2305
 30
0.0
 40
0.194
210
0.0
220
0.0
230
1.0
  0
CIRCLE
  8
1
  6
CONTINUOUS
 62
     7
  5
2D2
 10
56.277333
 20
128.0525
 30
0.0
 40
0.194
210
0.0
220
0.0
230
1.0
  0
CIRCLE
  8
1
  6
CONTINUOUS
 62
     7
  5
2D3
 10
63.022667
 20
129.205583
 30
0.0
 40
0.194
210
0.0
220
0.0
230
1.0
  0
CIRCLE
  8
1
  6
CONTINUOUS
 62
     7
  5
2D4
 10
73.140667
 20
139.307333
 30
0.0
 40
0.194
210
0.0
220
0.0
230
1.0
  0
CIRCLE
  8
1
  6
CONTINUOUS
 62
     7
  5
2D5
 10
66.4045
 20
126.9085
 30
0.0
 40
0.194
210
0.0
220
0.0
230
1.0
  0
CIRCLE
  8
1
  6
CONTINUOUS
 62
     7
  5
2D6
 10
76.371917
 20
125.581167
 30
0.0
 40
0.194
210
0.0
220
0.0
230
1.0
  0
CIRCLE
  8
1
  6
CONTINUOUS
 62
     7
  5
2D7
 10
75.688083
 20
136.211167
 30
0.0
 40
0.194
210
0.0
220
0.0
230
1.0
  0
CIRCLE
  8
1
  6
CONTINUOUS
 62
     7
  5
2D8
 10
78.56325
 20
133.420333
 30
0.0
 40
0.194
210
0.0
220
0.0
230
1.0
  0
CIRCLE
  8
1
  6
CONTINUOUS
 62
     7
  5
2D9
 10
71.161667
 20
131.699583
 30
0.0
 40
0.194
210
0.0
220
0.0
230
1.0
  0
CIRCLE
  8
1
  6
CONTINUOUS
 62
     7
  5
2DA
 10
73.750667
 20
128.62425
 30
0.0
 40
0.194
210
0.0
220
0.0
230
1.0
  0
CIRCLE
  8
1
  6
CONTINUOUS
 62
     7
  5
2DB
 10
81.413917
 20
142.179167
 30
0.0
 40
0.194
210
0.0
220
0.0
230
1.0
  0
CIRCLE
  8
1
  6
CONTINUOUS
 62
     7
  5
2DC
 10
91.381333
 20
140.851833
 30
0.0
 40
0.194
210
0.0
220
0.0
230
1.0
  0
CIRCLE
  8
1
  6
CONTINUOUS
 62
     7
  5
2DD
 10
90.6975
 20
151.481833
 30
0.0
 40
0.194
210
0.0
220
0.0
230
1.0
  0
CIRCLE
  8
1
  6
CONTINUOUS
 62
     7
  5
2DE
 10
93.572667
 20
148.691
 30
0.0
 40
0.194
210
0.0
220
0.0
230
1.0
  0
CIRCLE
  8
1
  6
CONTINUOUS
 62
     7
  5
2DF
 10
86.171083
 20
146.97025
 30
0.0
 40
0.194
210
0.0
220
0.0
230
1.0
  0
CIRCLE
  8
1
  6
CONTINUOUS
 62
     7
  5
2E0
 10
83.67925
 20
138.812417
 30
0.0
 40
0.194
210
0.0
220
0.0
230
1.0
  0
CIRCLE
  8
1
  6
CONTINUOUS
 62
     7
  5
2E1
 10
88.760083
 20
143.894917
 30
0.0
 40
0.194
210
0.0
220
0.0
230
1.0
  0
CIRCLE
  8
1
  6
CONTINUOUS
 62
     7
  5
2E2
 10
83.40625
 20
150.003417
 30
0.0
 40
0.194
210
0.0
220
0.0
230
1.0
  0
CIRCLE
  8
1
  6
CONTINUOUS
 62
     7
  5
2E3
 10
82.722417
 20
160.633417
 30
0.0
 40
0.194
210
0.0
220
0.0
230
1.0
  0
CIRCLE
  8
1
  6
CONTINUOUS
 62
     7
  5
2E4
 10
85.597583
 20
157.842583
 30
0.0
 40
0.194
210
0.0
220
0.0
230
1.0
  0
CIRCLE
  8
1
  6
CONTINUOUS
 62
     7
  5
2E5
 10
80.785
 20
153.0465
 30
0.0
 40
0.194
210
0.0
220
0.0
230
1.0
  0
CIRCLE
  8
1
  6
CONTINUOUS
 62
     7
  5
2E6
 10
88.073833
 20
154.393083
 30
0.0
 40
0.194
210
0.0
220
0.0
230
1.0
  0
CIRCLE
  8
1
  6
CONTINUOUS
 62
     7
  5
2E7
 10
92.831
 20
159.184167
 30
0.0
 40
0.194
210
0.0
220
0.0
230
1.0
  0
CIRCLE
  8
1
  6
CONTINUOUS
 62
     7
  5
2E8
 10
96.299333
 20
145.818167
 30
0.0
 40
0.194
210
0.0
220
0.0
230
1.0
  0
CIRCLE
  8
1
  6
CONTINUOUS
 62
     7
  5
2E9
 10
96.983167
 20
135.188167
 30
0.0
 40
0.194
210
0.0
220
0.0
230
1.0
  0
CIRCLE
  8
1
  6
CONTINUOUS
 62
     7
  5
2EA
 10
94.361917
 20
138.23125
 30
0.0
 40
0.194
210
0.0
220
0.0
230
1.0
  0
CIRCLE
  8
1
  6
CONTINUOUS
 62
     7
  5
2EB
 10
86.868083
 20
135.825
 30
0.0
 40
0.194
210
0.0
220
0.0
230
1.0
  0
CIRCLE
  8
1
  6
CONTINUOUS
 62
     7
  5
2EC
 10
89.74325
 20
133.034167
 30
0.0
 40
0.194
210
0.0
220
0.0
230
1.0
  0
CIRCLE
  8
1
  6
CONTINUOUS
 62
     7
  5
2ED
 10
81.442417
 20
130.871167
 30
0.0
 40
0.194
210
0.0
220
0.0
230
1.0
  0
CIRCLE
  8
1
  6
CONTINUOUS
 62
     7
  5
2EE
 10
84.317583
 20
128.080333
 30
0.0
 40
0.194
210
0.0
220
0.0
230
1.0
  0
CIRCLE
  8
1
  6
CONTINUOUS
 62
     7
  5
2EF
 10
92.651
 20
130.296417
 30
0.0
 40
0.194
210
0.0
220
0.0
230
1.0
  0
LINE
  8
1
  6
CONTINUOUS
 62
     6
  5
2F0
 10
121.887083
 20
164.627333
 30
0.0
 11
107.887083
 21
164.627333
 31
0.0
  0
LINE
  8
1
  6
CONTINUOUS
 62
     6
  5
2F1
 10
121.887083
 20
164.627333
 30
0.0
 11
121.887083
 21
178.627333
 31
0.0
  0
LINE
  8
1
  6
CONTINUOUS
 62
     7
  5
2F2
 10
22.831167
 20
163.127333
 30
0.0
 11
22.831167
 21
171.127333
 31
0.0
  0
LINE
  8
1
  6
CONTINUOUS
 62
     7
  5
2F3
 10
79.331167
 20
163.127333
 30
0.0
 11
79.331167
 21
171.127333
 31
0.0
  0
LINE
  8
1
  6
CONTINUOUS
 62
     7
  5
2F4
 10
30.831167
 20
154.627333
 30
0.0
 11
30.831167
 21
166.127333
 31
0.0
  0
LINE
  8
1
  6
CONTINUOUS
 62
     7
  5
2F5
 10
22.831167
 20
170.127333
 30
0.0
 11
79.331167
 21
170.127333
 31
0.0
  0
LINE
  8
1
  6
CONTINUOUS
 62
     7
  5
2F6
 10
30.831167
 20
165.127333
 30
0.0
 11
34.831167
 21
165.127333
 31
0.0
  0
LINE
  8
1
  6
CONTINUOUS
 62
     7
  5
2F7
 10
22.831167
 20
165.127333
 30
0.0
 11
18.831167
 21
165.127333
 31
0.0
  0
LINE
  8
1
  6
CONTINUOUS
 62
     7
  5
2F8
 10
20.485333
 20
194.25225
 30
0.0
 11
-20.193917
 21
194.25225
 31
0.0
  0
INSERT
  8
1
  6
CONTINUOUS
 62
     1
  5
319
  2
LDR
 10
22.831167
 20
170.127333
 30
0.0
 41
240.0
 42
240.0
 50
180.0
210
0.0
220
0.0
230
1.0
  0
INSERT
  8
1
  6
CONTINUOUS
 62
     1
  5
31A
  2
LDR
 10
22.831167
 20
170.127333
 30
0.0
 41
240.0
 42
240.0
 50
180.0
210
0.0
220
0.0
230
1.0
  0
INSERT
  8
1
  6
CONTINUOUS
 62
     1
  5
31B
  2
LDR
 10
79.331167
 20
170.127333
 30
0.0
 41
240.0
 42
240.0
210
0.0
220
0.0
230
1.0
  0
INSERT
  8
1
  6
CONTINUOUS
 62
     1
  5
31C
  2
LDR
 10
79.331167
 20
170.127333
 30
0.0
 41
240.0
 42
240.0
210
0.0
220
0.0
230
1.0
  0
INSERT
  8
1
  6
CONTINUOUS
 62
     1
  5
31D
  2
LDR
 10
30.831167
 20
165.127333
 30
0.0
 41
240.0
 42
240.0
 50
180.0
210
0.0
220
0.0
230
1.0
  0
INSERT
  8
1
  6
CONTINUOUS
 62
     1
  5
31E
  2
LDR
 10
30.831167
 20
165.127333
 30
0.0
 41
240.0
 42
240.0
 50
180.0
210
0.0
220
0.0
230
1.0
  0
INSERT
  8
1
  6
CONTINUOUS
 62
     1
  5
31F
  2
LDR
 10
22.831167
 20
165.127333
 30
0.0
 41
240.0
 42
240.0
210
0.0
220
0.0
230
1.0
  0
INSERT
  8
1
  6
CONTINUOUS
 62
     1
  5
320
  2
LDR
 10
22.831167
 20
165.127333
 30
0.0
 41
240.0
 42
240.0
210
0.0
220
0.0
230
1.0
  0
INSERT
  8
1
  6
CONTINUOUS
 62
     1
  5
321
  2
LDR
 10
-1.9855
 20
231.405333
 30
0.0
 41
240.0
 42
240.0
 50
270.0
210
0.0
220
0.0
230
1.0
  0
INSERT
  8
1
  6
CONTINUOUS
 62
     1
  5
322
  2
LDR
 10
-1.9855
 20
231.405333
 30
0.0
 41
240.0
 42
240.0
 50
270.0
210
0.0
220
0.0
230
1.0
  0
INSERT
  8
1
  6
CONTINUOUS
 62
     1
  5
323
  2
LDR
 10
23.0145
 20
235.905333
 30
0.0
 41
240.0
 42
240.0
210
0.0
220
0.0
230
1.0
  0
INSERT
  8
1
  6
CONTINUOUS
 62
     1
  5
324
  2
LDR
 10
31.0145
 20
235.905333
 30
0.0
 41
240.0
 42
240.0
 50
180.0
210
0.0
220
0.0
230
1.0
  0
INSERT
  8
1
  6
CONTINUOUS
 62
     1
  5
325
  2
LDR
 10
79.5145
 20
326.905333
 30
0.0
 41
240.0
 42
240.0
210
0.0
220
0.0
230
1.0
  0
INSERT
  8
1
  6
CONTINUOUS
 62
     1
  5
326
  2
LDR
 10
79.5145
 20
326.905333
 30
0.0
 41
240.0
 42
240.0
210
0.0
220
0.0
230
1.0
  0
INSERT
  8
1
  6
CONTINUOUS
 62
     1
  5
327
  2
LDR
 10
83.0145
 20
326.905333
 30
0.0
 41
240.0
 42
240.0
 50
180.0
210
0.0
220
0.0
230
1.0
  0
INSERT
  8
1
  6
CONTINUOUS
 62
     1
  5
328
  2
LDR
 10
83.0145
 20
326.905333
 30
0.0
 41
240.0
 42
240.0
 50
180.0
210
0.0
220
0.0
230
1.0
  0
INSERT
  8
1
  6
CONTINUOUS
 62
     1
  5
329
  2
LDR
 10
71.5145
 20
351.405333
 30
0.0
 41
240.0
 42
240.0
210
0.0
220
0.0
230
1.0
  0
INSERT
  8
1
  6
CONTINUOUS
 62
     1
  5
32A
  2
LDR
 10
-1.9855
 20
346.405333
 30
0.0
 41
240.0
 42
240.0
 50
90.0
210
0.0
220
0.0
230
1.0
  0
INSERT
  8
1
  6
CONTINUOUS
 62
     1
  5
32B
  2
LDR
 10
-1.9855
 20
346.405333
 30
0.0
 41
240.0
 42
240.0
 50
90.0
210
0.0
220
0.0
230
1.0
  0
INSERT
  8
1
  6
CONTINUOUS
 62
     1
  5
32C
  2
LDR
 10
23.0145
 20
360.405333
 30
0.0
 41
240.0
 42
240.0
 50
180.0
210
0.0
220
0.0
230
1.0
  0
INSERT
  8
1
  6
CONTINUOUS
 62
     1
  5
32D
  2
LDR
 10
23.0145
 20
360.405333
 30
0.0
 41
240.0
 42
240.0
 50
180.0
210
0.0
220
0.0
230
1.0
  0
INSERT
  8
1
  6
CONTINUOUS
 62
     1
  5
32E
  2
LDR
 10
31.0145
 20
351.405333
 30
0.0
 41
240.0
 42
240.0
 50
180.0
210
0.0
220
0.0
230
1.0
  0
INSERT
  8
1
  6
CONTINUOUS
 62
     1
  5
32F
  2
LDR
 10
79.5145
 20
360.405333
 30
0.0
 41
240.0
 42
240.0
210
0.0
220
0.0
230
1.0
  0
INSERT
  8
1
  6
CONTINUOUS
 62
     1
  5
330
  2
LDR
 10
79.5145
 20
360.405333
 30
0.0
 41
240.0
 42
240.0
210
0.0
220
0.0
230
1.0
  0
INSERT
  8
1
  6
CONTINUOUS
 62
     1
  5
331
  2
LDR
 10
119.820417
 20
364.981083
 30
0.0
 41
240.0
 42
240.0
 50
180.0
210
0.0
220
0.0
230
1.0
  0
INSERT
  8
1
  6
CONTINUOUS
 62
     1
  5
332
  2
LDR
 10
119.820417
 20
364.981083
 30
0.0
 41
240.0
 42
240.0
 50
180.0
210
0.0
220
0.0
230
1.0
  0
INSERT
  8
1
  6
CONTINUOUS
 62
     1
  5
333
  2
LDR
 10
142.5145
 20
364.981083
 30
0.0
 41
240.0
 42
240.0
210
0.0
220
0.0
230
1.0
  0
INSERT
  8
1
  6
CONTINUOUS
 62
     1
  5
334
  2
LDR
 10
142.5145
 20
364.981083
 30
0.0
 41
240.0
 42
240.0
210
0.0
220
0.0
230
1.0
  0
INSERT
  8
1
  6
CONTINUOUS
 62
     1
  5
335
  2
LDR
 10
124.570417
 20
353.62975
 30
0.0
 41
240.0
 42
240.0
 50
180.0
210
0.0
220
0.0
230
1.0
  0
INSERT
  8
1
  6
CONTINUOUS
 62
     1
  5
336
  2
LDR
 10
119.820417
 20
353.62975
 30
0.0
 41
240.0
 42
240.0
210
0.0
220
0.0
230
1.0
  0
INSERT
  8
1
  6
CONTINUOUS
 62
     1
  5
337
  2
LDR
 10
187.7815
 20
320.00625
 30
0.0
 41
239.999998
 42
239.999998
 50
22.62655
210
0.0
220
0.0
230
1.0
  0
INSERT
  8
1
  6
CONTINUOUS
 62
     1
  5
338
  2
LDR
 10
187.7815
 20
320.00625
 30
0.0
 41
239.999998
 42
239.999998
 50
22.62655
210
0.0
220
0.0
230
1.0
  0
INSERT
  8
1
  6
CONTINUOUS
 62
     1
  5
339
  2
LDR
 10
176.879333
 20
261.76025
 30
0.0
 41
240.0
 42
240.0
 50
342.892553
210
0.0
220
0.0
230
1.0
  0
INSERT
  8
1
  6
CONTINUOUS
 62
     1
  5
33A
  2
LDR
 10
180.605667
 20
210.907833
 30
0.0
 41
240.0
 42
240.0
 50
180.0
210
0.0
220
0.0
230
1.0
  0
INSERT
  8
1
  6
CONTINUOUS
 62
     1
  5
33B
  2
LDR
 10
172.105667
 20
197.51825
 30
0.0
 41
240.0
 42
240.0
210
0.0
220
0.0
230
1.0
  0
INSERT
  8
1
  6
CONTINUOUS
 62
     1
  5
33C
  2
LDR
 10
172.105667
 20
197.51825
 30
0.0
 41
240.0
 42
240.0
210
0.0
220
0.0
230
1.0
  0
INSERT
  8
1
  6
CONTINUOUS
 62
     1
  5
33D
  2
LDR
 10
192.105667
 20
197.51825
 30
0.0
 41
240.0
 42
240.0
 50
180.0
210
0.0
220
0.0
230
1.0
  0
LINE
  8
1
  6
CONTINUOUS
 62
     7
  5
33E
 10
124.3895
 20
162.139167
 30
0.0
 11
135.58825
 21
143.039333
 31
0.0
  0
LINE
  8
1
  6
CONTINUOUS
 62
     7
  5
33F
 10
135.58825
 20
143.039333
 30
0.0
 11
145.336417
 21
143.039333
 31
0.0
  0
INSERT
  8
1
  6
CONTINUOUS
 62
     1
  5
340
  2
LDR
 10
124.387083
 20
162.127333
 30
0.0
 41
239.999999
 42
239.999999
 50
120.384252
210
0.0
220
0.0
230
1.0
  0
TEXT
  8
1
  6
CONTINUOUS
 62
     7
  5
341
 10
46.496417
 20
361.369
 30
0.0
 40
2.5
  1
4.92
  7
MONOTXT
 72
     4
 11
50.44325
 21
362.619
 31
0.0
210
0.0
220
0.0
230
1.0
  0
TEXT
  8
1
  6
CONTINUOUS
 62
     7
  5
342
 10
46.849333
 20
352.438833
 30
0.0
 40
2.5
  1
3.54
  7
MONOTXT
 72
     4
 11
50.855167
 21
353.688833
 31
0.0
210
0.0
220
0.0
230
1.0
  0
TEXT
  8
1
  6
CONTINUOUS
 62
     7
  5
343
 10
127.432
 20
365.765333
 30
0.0
 40
2.5
  1
1.92
  7
MONOTXT
 72
     4
 11
130.78825
 21
367.015333
 31
0.0
210
0.0
220
0.0
230
1.0
  0
TEXT
  8
1
  6
CONTINUOUS
 62
     7
  5
344
 10
107.811333
 20
352.438833
 30
0.0
 40
2.5
  1
0.41
  7
MONOTXT
 72
     4
 11
111.275833
 21
353.688833
 31
0.0
210
0.0
220
0.0
230
1.0
  0
TEXT
  8
1
  6
CONTINUOUS
 62
     7
  5
345
 10
147.991583
 20
307.889417
 30
0.0
 40
2.5
  1
20" DIA.
  7
MONOTXT
 72
     4
 11
155.442333
 21
309.139417
 31
0.0
210
0.0
220
0.0
230
1.0
  0
TEXT
  8
1
  6
CONTINUOUS
 62
     7
  5
346
 10
151.84
 20
303.389417
 30
0.0
 40
2.5
  1
SAW
  7
MONOTXT
 72
     4
 11
155.452167
 21
304.639417
 31
0.0
210
0.0
220
0.0
230
1.0
  0
TEXT
  8
1
  6
CONTINUOUS
 62
     7
  5
347
 10
148.651
 20
298.889417
 30
0.0
 40
2.5
  1
BLADES
  7
MONOTXT
 72
     4
 11
155.452167
 21
300.139417
 31
0.0
210
0.0
220
0.0
230
1.0
  0
TEXT
  8
1
  6
CONTINUOUS
 62
     7
  5
348
 10
149.823333
 20
264.446
 30
0.0
 40
2.5
  1
18" DIA.
  7
MONOTXT
 72
     4
 11
156.742583
 21
265.696
 31
0.0
210
0.0
220
0.0
230
1.0
  0
TEXT
  8
1
  6
CONTINUOUS
 62
     7
  5
349
 10
153.14025
 20
259.946
 30
0.0
 40
2.5
  1
SAW
  7
MONOTXT
 72
     4
 11
156.752417
 21
261.196
 31
0.0
210
0.0
220
0.0
230
1.0
  0
TEXT
  8
1
  6
CONTINUOUS
 62
     7
  5
34A
 10
149.95125
 20
255.446
 30
0.0
 40
2.5
  1
BLADES
  7
MONOTXT
 72
     4
 11
156.752417
 21
256.696
 31
0.0
210
0.0
220
0.0
230
1.0
  0
INSERT
  8
1
  6
CONTINUOUS
 62
     1
  5
34B
  2
LDR
 10
172.105667
 20
210.907833
 30
0.0
 41
240.0
 42
240.0
210
0.0
220
0.0
230
1.0
  0
TEXT
  8
1
  6
CONTINUOUS
 62
     7
  5
34C
 10
138.885
 20
209.555167
 30
0.0
 40
2.5
  1
0.71   .06/-0.0
  7
MONOTXT
 72
     4
 11
152.782667
 21
210.805167
 31
0.0
210
0.0
220
0.0
230
1.0
  0
TEXT
  8
1
  6
CONTINUOUS
 62
     7
  5
34D
 10
140.2145
 20
196.202083
 30
0.0
 40
2.5
  1
1.71   .06/-0.0
  7
MONOTXT
 72
     4
 11
153.580667
 21
197.452083
 31
0.0
210
0.0
220
0.0
230
1.0
  0
TEXT
  8
1
  6
CONTINUOUS
 62
     7
  5
34E
 10
36.369667
 20
234.2295
 30
0.0
 40
2.5
  1
0.69
  7
MONOTXT
 72
     4
 11
40.198333
 21
235.4795
 31
0.0
210
0.0
220
0.0
230
1.0
  0
TEXT
  8
1
  6
CONTINUOUS
 62
     7
  5
34F
 10
32.921583
 20
170.978667
 30
0.0
 40
2.5
  1
5.04   0.06/-0.00
  7
MONOTXT
 72
     4
 11
51.642083
 21
172.228667
 31
0.0
210
0.0
220
0.0
230
1.0
  0
TEXT
  8
1
  6
CONTINUOUS
 62
     7
  5
350
 10
35.440667
 20
163.670917
 30
0.0
 40
2.5
  1
0.80   0.06/-0.00
  7
MONOTXT
 72
     4
 11
53.924833
 21
164.920917
 31
0.0
210
0.0
220
0.0
230
1.0
  0
TEXT
  8
1
  6
CONTINUOUS
 62
     7
  5
351
 10
145.80575
 20
141.795917
 30
0.0
 40
2.5
  1
PAVEMENT SURFACE
  7
MONOTXT
 72
     4
 11
165.185583
 21
143.045917
 31
0.0
210
0.0
220
0.0
230
1.0
  0
TEXT
  8
1
  6
CONTINUOUS
 62
     7
  5
352
 10
-32.314333
 20
192.93625
 30
0.0
 40
2.5
  1
NOTE:
  7
MONOTXT
 11
-32.314333
 21
195.43625
 31
0.0
210
0.0
220
0.0
230
1.0
 73
     3
  0
TEXT
  8
1
  6
CONTINUOUS
 62
     7
  5
353
 10
-32.314333
 20
188.43625
 30
0.0
 40
2.5
  1
ALL (4) LUGS MUST
  7
MONOTXT
 11
-32.314333
 21
190.93625
 31
0.0
210
0.0
220
0.0
230
1.0
 73
     3
  0
TEXT
  8
1
  6
CONTINUOUS
 62
     7
  5
354
 10
-32.314333
 20
183.93625
 30
0.0
 40
2.5
  1
CONTACT THE PAVEMENT
  7
MONOTXT
 11
-32.314333
 21
186.43625
 31
0.0
210
0.0
220
0.0
230
1.0
 73
     3
  0
TEXT
  8
1
  6
CONTINUOUS
 62
     7
  5
355
 10
-3.451167
 20
283.562
 30
0.0
 40
2.5
  1
10.00
 50
90.0
  7
MONOTXT
 72
     4
 11
-4.701167
 21
288.207667
 31
0.0
210
0.0
220
0.0
230
1.0
  0
TEXT
  8
1
  6
CONTINUOUS
 62
     7
  5
356
 10
87.619667
 20
325.857583
 30
0.0
 40
2.5
  1
0.29
  7
MONOTXT
 72
     4
 11
91.507417
 21
327.107583
 31
0.0
210
0.0
220
0.0
230
1.0
  0
TEXT
  8
1
  6
CONTINUOUS
 62
     7
  5
357
 10
-37.829083
 20
222.430833
 30
0.0
 40
2.5
  1
CRYSTAL, YELLOW, WHITE AND/OR RED ACRYLIC
  7
MONOTXT
 11
-37.829083
 21
224.930833
 31
0.0
210
0.0
220
0.0
230
1.0
 73
     3
  0
TEXT
  8
1
  6
CONTINUOUS
 62
     7
  5
358
 10
-37.829083
 20
217.930833
 30
0.0
 40
2.5
  1
PRISMATIC REFLECTORS AS SPECIFIED (WHITE
  7
MONOTXT
 11
-37.829083
 21
220.430833
 31
0.0
210
0.0
220
0.0
230
1.0
 73
     3
  0
TEXT
  8
1
  6
CONTINUOUS
 62
     7
  5
359
 10
-37.829083
 20
213.430833
 30
0.0
 40
2.5
  1
UNLESS OTHERWISE NOTED) (REFLECTIVE AREA
  7
MONOTXT
 11
-37.829083
 21
215.930833
 31
0.0
210
0.0
220
0.0
230
1.0
 73
     3
  0
TEXT
  8
1
  6
CONTINUOUS
 62
     7
  5
35A
 10
-37.829083
 20
208.930833
 30
0.0
 40
2.5
  1
APPROX. 1.44 SQ. IN. PER REFLECTIVE FACE) WITH
  7
MONOTXT
 11
-37.829083
 21
211.430833
 31
0.0
210
0.0
220
0.0
230
1.0
 73
     3
  0
TEXT
  8
1
  6
CONTINUOUS
 62
     7
  5
35B
 10
-37.829083
 20
204.430833
 30
0.0
 40
2.5
  1
OVERALL DIMENSIONS OF 3.90 x 1.66 x 0.49
  7
MONOTXT
 11
-37.829083
 21
206.930833
 31
0.0
210
0.0
220
0.0
230
1.0
 73
     3
  0
TEXT
  8
1
  6
CONTINUOUS
 62
     7
  5
35C
 10
-37.829083
 20
199.930833
 30
0.0
 40
2.5
  1
IN (NOMINAL)
  7
MONOTXT
 11
-37.829083
 21
202.430833
 31
0.0
210
0.0
220
0.0
230
1.0
 73
     3
  0
TEXT
  8
1
  6
CONTINUOUS
 62
     7
  5
35D
 10
20.653833
 20
108.573833
 30
0.0
 40
4.0
  1
TYPE "P-2" MARKER
  7
MONOTXT
 72
     4
 11
52.165667
 21
110.573833
 31
0.0
210
0.0
220
0.0
230
1.0
  0
LINE
  8
1
  6
CONTINUOUS
 62
     7
  5
35E
 10
18.9425
 20
107.398583
 30
0.0
 11
86.822417
 21
107.398583
 31
0.0
  0
TEXT
  8
1
  6
CONTINUOUS
 62
     7
  5
35F
 10
25.974833
 20
102.240583
 30
0.0
 40
2.5
  1
(WEIGHT APPROX. 5.5 LBS.)
  7
MONOTXT
 72
     4
 11
52.638167
 21
103.490583
 31
0.0
210
0.0
220
0.0
230
1.0
  0
POLYLINE
  8
1
  6
CONTINUOUS
 62
     7
  5
360
 66
     1
 10
0.0
 20
0.0
 30
0.0
  0
VERTEX
  8
1
  6
CONTINUOUS
 62
     7
  5
361
 10
8.731417
 20
361.843333
 30
0.0
  0
VERTEX
  8
1
  6
CONTINUOUS
 62
     7
  5
362
 10
7.06475
 20
358.956583
 30
0.0
  0
VERTEX
  8
1
  6
CONTINUOUS
 62
     7
  5
363
 10
10.398083
 20
358.956583
 30
0.0
  0
VERTEX
  8
1
  6
CONTINUOUS
 62
     7
  5
364
 10
8.731417
 20
361.843333
 30
0.0
  0
SEQEND
  8
1
  6
CONTINUOUS
 62
     7
  5
365
  0
TEXT
  8
1
  6
CONTINUOUS
 62
     7
  5
366
 10
7.899583
 20
359.159333
 30
0.0
 40
2.0
  1
4
  7
MONOTXT
 72
     4
 11
8.616083
 21
360.159333
 31
0.0
210
0.0
220
0.0
230
1.0
  0
LINE
  8
1
  6
CONTINUOUS
 62
   212
  5
367
 10
25.947333
 20
47.149667
 30
0.0
 11
65.947333
 21
47.149667
 31
0.0
  0
LINE
  8
1
  6
CONTINUOUS
 62
   212
  5
368
 10
65.947333
 20
47.149667
 30
0.0
 11
65.947333
 21
7.149667
 31
0.0
  0
LINE
  8
1
  6
CONTINUOUS
 62
   212
  5
369
 10
65.947333
 20
7.149667
 30
0.0
 11
25.947333
 21
7.149667
 31
0.0
  0
LINE
  8
1
  6
CONTINUOUS
 62
   212
  5
36A
 10
25.947333
 20
7.149667
 30
0.0
 11
25.947333
 21
47.149667
 31
0.0
  0
LINE
  8
1
  6
CONTINUOUS
 62
   212
  5
36B
 10
37.197333
 20
11.149667
 30
0.0
 11
37.197333
 21
43.149667
 31
0.0
  0
LINE
  8
1
  6
CONTINUOUS
 62
   212
  5
36C
 10
54.697333
 20
43.149667
 30
0.0
 11
54.697333
 21
11.149667
 31
0.0
  0
LINE
  8
1
  6
CONTINUOUS
 62
   212
  5
36D
 10
37.197333
 20
43.149667
 30
0.0
 11
54.697333
 21
43.149667
 31
0.0
  0
LINE
  8
1
  6
CONTINUOUS
 62
   212
  5
36E
 10
54.697333
 20
11.149667
 30
0.0
 11
37.197333
 21
11.149667
 31
0.0
  0
LINE
  8
1
  6
CONTINUOUS
 62
   212
  5
36F
 10
25.947333
 20
47.149667
 30
0.0
 11
37.197333
 21
43.149667
 31
0.0
  0
LINE
  8
1
  6
CONTINUOUS
 62
   212
  5
370
 10
65.947333
 20
47.149667
 30
0.0
 11
54.697333
 21
43.149667
 31
0.0
  0
LINE
  8
1
  6
CONTINUOUS
 62
   212
  5
371
 10
37.197333
 20
11.149667
 30
0.0
 11
25.947333
 21
7.149667
 31
0.0
  0
LINE
  8
1
  6
CONTINUOUS
 62
   212
  5
372
 10
54.697333
 20
11.149667
 30
0.0
 11
65.947333
 21
7.149667
 31
0.0
  0
LINE
  8
1
  6
CONTINUOUS
 62
   212
  5
373
 10
78.447333
 20
43.149667
 30
0.0
 11
78.447333
 21
11.149667
 31
0.0
  0
LINE
  8
1
  6
CONTINUOUS
 62
   212
  5
374
 10
85.697333
 20
47.149667
 30
0.0
 11
85.697333
 21
7.149667
 31
0.0
  0
LINE
  8
1
  6
CONTINUOUS
 62
   212
  5
375
 10
84.697333
 20
47.149667
 30
0.0
 11
84.697333
 21
7.149667
 31
0.0
  0
LINE
  8
1
  6
CONTINUOUS
 62
   212
  5
376
 10
84.697333
 20
47.149667
 30
0.0
 11
85.697333
 21
47.149667
 31
0.0
  0
LINE
  8
1
  6
CONTINUOUS
 62
   212
  5
377
 10
85.697333
 20
7.149667
 30
0.0
 11
84.697333
 21
7.149667
 31
0.0
  0
LINE
  8
1
  6
CONTINUOUS
 62
   212
  5
378
 10
84.697333
 20
47.149667
 30
0.0
 11
78.447333
 21
43.149667
 31
0.0
  0
LINE
  8
1
  6
CONTINUOUS
 62
   212
  5
379
 10
65.947333
 20
-12.850333
 30
0.0
 11
26.803667
 21
-12.850333
 31
0.0
  0
LINE
  8
1
  6
CONTINUOUS
 62
   212
  5
37A
 10
54.197333
 20
-5.350333
 30
0.0
 11
38.626667
 21
-5.350333
 31
0.0
  0
LINE
  8
1
  6
CONTINUOUS
 62
   212
  5
37B
 10
54.197333
 20
-5.350333
 30
0.0
 11
65.947333
 21
-12.850333
 31
0.0
  0
LINE
  8
1
  6
CONTINUOUS
 62
   212
  5
37C
 10
65.164
 20
-12.350333
 30
0.0
 11
28.088167
 21
-12.350333
 31
0.0
  0
LINE
  8
1
  6
CONTINUOUS
 62
   212
  5
37D
 10
38.626667
 20
-5.350333
 30
0.0
 11
28.020917
 21
-12.12
 31
0.0
  0
ARC
  8
1
  6
CONTINUOUS
 62
   212
  5
37E
 10
26.803663
 20
-12.600333
 30
0.0
 40
0.25
 50
122.549664
 51
270.0
210
0.0
220
0.0
230
1.0
  0
ARC
  8
1
  6
CONTINUOUS
 62
   212
  5
37F
 10
28.088175
 20
-12.225333
 30
0.0
 40
0.125
 50
122.550131
 51
270.0
210
0.0
220
0.0
230
1.0
  0
POLYLINE
  8
1
  6
CONTINUOUS
 62
   212
  5
380
 66
     1
 10
0.0
 20
0.0
 30
0.0
  0
VERTEX
  8
1
  6
CONTINUOUS
 62
   212
  5
381
 10
37.697333
 20
-5.350333
 30
0.0
  0
VERTEX
  8
1
  6
CONTINUOUS
 62
   212
  5
382
 10
38.074667
 20
-5.628833
 30
0.0
  0
VERTEX
  8
1
  6
CONTINUOUS
 62
   212
  5
383
 10
38.609667
 20
-5.972917
 30
0.0
  0
VERTEX
  8
1
  6
CONTINUOUS
 62
   212
  5
384
 10
38.686083
 20
-6.661
 30
0.0
  0
VERTEX
  8
1
  6
CONTINUOUS
 62
   212
  5
385
 10
38.5715
 20
-8.03725
 30
0.0
  0
VERTEX
  8
1
  6
CONTINUOUS
 62
   212
  5
386
 10
38.26575
 20
-8.916583
 30
0.0
  0
VERTEX
  8
1
  6
CONTINUOUS
 62
   212
  5
387
 10
38.189333
 20
-9.298833
 30
0.0
  0
VERTEX
  8
1
  6
CONTINUOUS
 62
   212
  5
388
 10
38.151083
 20
-10.292833
 30
0.0
  0
VERTEX
  8
1
  6
CONTINUOUS
 62
   212
  5
389
 10
38.2275
 20
-10.560417
 30
0.0
  0
VERTEX
  8
1
  6
CONTINUOUS
 62
   212
  5
38A
 10
38.26575
 20
-11.019167
 30
0.0
  0
VERTEX
  8
1
  6
CONTINUOUS
 62
   212
  5
38B
 10
38.151083
 20
-11.669083
 30
0.0
  0
VERTEX
  8
1
  6
CONTINUOUS
 62
   212
  5
38C
 10
38.036417
 20
-12.471833
 30
0.0
  0
VERTEX
  8
1
  6
CONTINUOUS
 62
   212
  5
38D
 10
37.803667
 20
-12.850333
 30
0.0
  0
SEQEND
  8
1
  6
CONTINUOUS
 62
   212
  5
38E
  0
POLYLINE
  8
1
  6
CONTINUOUS
 62
   212
  5
38F
 66
     1
 10
0.0
 20
0.0
 30
0.0
  0
VERTEX
  8
1
  6
CONTINUOUS
 62
   212
  5
390
 10
38.074667
 20
-5.628833
 30
0.0
  0
VERTEX
  8
1
  6
CONTINUOUS
 62
   212
  5
391
 10
37.92175
 20
-6.087583
 30
0.0
  0
VERTEX
  8
1
  6
CONTINUOUS
 62
   212
  5
392
 10
37.577833
 20
-6.049333
 30
0.0
  0
VERTEX
  8
1
  6
CONTINUOUS
 62
   212
  5
393
 10
37.38675
 20
-6.393417
 30
0.0
  0
VERTEX
  8
1
  6
CONTINUOUS
 62
   212
  5
394
 10
37.081
 20
-6.431667
 30
0.0
  0
VERTEX
  8
1
  6
CONTINUOUS
 62
   212
  5
395
 10
36.77525
 20
-6.890417
 30
0.0
  0
VERTEX
  8
1
  6
CONTINUOUS
 62
   212
  5
396
 10
36.24025
 20
-6.77575
 30
0.0
  0
VERTEX
  8
1
  6
CONTINUOUS
 62
   212
  5
397
 10
36.202
 20
-7.2345
 30
0.0
  0
VERTEX
  8
1
  6
CONTINUOUS
 62
   212
  5
398
 10
35.896333
 20
-7.11975
 30
0.0
  0
VERTEX
  8
1
  6
CONTINUOUS
 62
   212
  5
399
 10
35.590583
 20
-7.61675
 30
0.0
  0
VERTEX
  8
1
  6
CONTINUOUS
 62
   212
  5
39A
 10
35.323
 20
-7.463833
 30
0.0
  0
VERTEX
  8
1
  6
CONTINUOUS
 62
   212
  5
39B
 10
34.902667
 20
-8.03725
 30
0.0
  0
VERTEX
  8
1
  6
CONTINUOUS
 62
   212
  5
39C
 10
34.5205
 20
-7.960833
 30
0.0
  0
VERTEX
  8
1
  6
CONTINUOUS
 62
   212
  5
39D
 10
34.291167
 20
-8.457833
 30
0.0
  0
VERTEX
  8
1
  6
CONTINUOUS
 62
   212
  5
39E
 10
33.909
 20
-8.343083
 30
0.0
  0
VERTEX
  8
1
  6
CONTINUOUS
 62
   212
  5
39F
 10
33.870833
 20
-8.840083
 30
0.0
  0
VERTEX
  8
1
  6
CONTINUOUS
 62
   212
  5
3A0
 10
33.412167
 20
-8.840083
 30
0.0
  0
VERTEX
  8
1
  6
CONTINUOUS
 62
   212
  5
3A1
 10
33.144667
 20
-9.184167
 30
0.0
  0
VERTEX
  8
1
  6
CONTINUOUS
 62
   212
  5
3A2
 10
32.7625
 20
-9.0695
 30
0.0
  0
VERTEX
  8
1
  6
CONTINUOUS
 62
   212
  5
3A3
 10
32.45675
 20
-9.604667
 30
0.0
  0
VERTEX
  8
1
  6
CONTINUOUS
 62
   212
  5
3A4
 10
31.998167
 20
-9.604667
 30
0.0
  0
VERTEX
  8
1
  6
CONTINUOUS
 62
   212
  5
3A5
 10
32.036417
 20
-9.987
 30
0.0
  0
VERTEX
  8
1
  6
CONTINUOUS
 62
   212
  5
3A6
 10
31.463167
 20
-10.025167
 30
0.0
  0
VERTEX
  8
1
  6
CONTINUOUS
 62
   212
  5
3A7
 10
31.38675
 20
-10.331
 30
0.0
  0
VERTEX
  8
1
  6
CONTINUOUS
 62
   212
  5
3A8
 10
30.889917
 20
-10.292833
 30
0.0
  0
VERTEX
  8
1
  6
CONTINUOUS
 62
   212
  5
3A9
 10
30.584167
 20
-10.751583
 30
0.0
  0
VERTEX
  8
1
  6
CONTINUOUS
 62
   212
  5
3AA
 10
30.16375
 20
-10.751583
 30
0.0
  0
VERTEX
  8
1
  6
CONTINUOUS
 62
   212
  5
3AB
 10
30.125583
 20
-11.133833
 30
0.0
  0
VERTEX
  8
1
  6
CONTINUOUS
 62
   212
  5
3AC
 10
29.565917
 20
-11.133833
 30
0.0
  0
SEQEND
  8
1
  6
CONTINUOUS
 62
   212
  5
3AD
  0
LINE
  8
1
  6
CONTINUOUS
 62
     7
  5
3AE
 10
25.947333
 20
48.149667
 30
0.0
 11
25.947333
 21
54.149667
 31
0.0
  0
LINE
  8
1
  6
CONTINUOUS
 62
     7
  5
3AF
 10
65.947333
 20
48.149667
 30
0.0
 11
65.947333
 21
54.149667
 31
0.0
  0
LINE
  8
1
  6
CONTINUOUS
 62
     7
  5
3B0
 10
24.947333
 20
47.149667
 30
0.0
 11
18.947333
 21
47.149667
 31
0.0
  0
LINE
  8
1
  6
CONTINUOUS
 62
     7
  5
3B1
 10
24.947333
 20
7.149667
 30
0.0
 11
18.947333
 21
7.149667
 31
0.0
  0
LINE
  8
1
  6
CONTINUOUS
 62
     7
  5
3B2
 10
83.697333
 20
7.149667
 30
0.0
 11
70.697333
 21
7.149667
 31
0.0
  0
LINE
  8
1
  6
CONTINUOUS
 62
   212
  5
3B3
 10
84.697333
 20
7.149667
 30
0.0
 11
78.447333
 21
11.149667
 31
0.0
  0
LINE
  8
1
  6
CONTINUOUS
 62
     7
  5
3B4
 10
77.605
 20
11.688667
 30
0.0
 11
72.551333
 21
14.922917
 31
0.0
  0
LINE
  8
1
  6
CONTINUOUS
 62
     7
  5
3B5
 10
25.947333
 20
53.149667
 30
0.0
 11
65.947333
 21
53.149667
 31
0.0
  0
LINE
  8
1
  6
CONTINUOUS
 62
     7
  5
3B6
 10
19.947333
 20
47.149667
 30
0.0
 11
19.947333
 21
7.149667
 31
0.0
  0
POLYLINE
  8
1
  6
CONTINUOUS
 62
     7
  5
3B7
 66
     1
 10
0.0
 20
0.0
 30
0.0
  0
VERTEX
  8
1
  6
CONTINUOUS
 62
     7
  5
3B8
 10
30.093833
 20
25.12625
 30
0.0
  0
VERTEX
  8
1
  6
CONTINUOUS
 62
     7
  5
3B9
 10
30.760583
 20
25.12625
 30
0.0
  0
VERTEX
  8
1
  6
CONTINUOUS
 62
     7
  5
3BA
 10
30.83969
 20
25.107095
 30
0.0
  0
VERTEX
  8
1
  6
CONTINUOUS
 62
     7
  5
3BB
 10
30.877913
 20
25.075188
 30
0.0
  0
VERTEX
  8
1
  6
CONTINUOUS
 62
     7
  5
3BC
 10
30.897922
 20
25.04662
 30
0.0
  0
VERTEX
  8
1
  6
CONTINUOUS
 62
     7
  5
3BD
 10
30.927029
 20
24.974721
 30
0.0
  0
VERTEX
  8
1
  6
CONTINUOUS
 62
     7
  5
3BE
 10
30.95082
 20
24.839122
 30
0.0
  0
VERTEX
  8
1
  6
CONTINUOUS
 62
     7
  5
3BF
 10
30.966204
 20
24.632173
 30
0.0
  0
VERTEX
  8
1
  6
CONTINUOUS
 62
     7
  5
3C0
 10
30.975788
 20
24.528484
 30
0.0
  0
VERTEX
  8
1
  6
CONTINUOUS
 62
     7
  5
3C1
 10
31.003643
 20
24.386421
 30
0.0
  0
VERTEX
  8
1
  6
CONTINUOUS
 62
     7
  5
3C2
 10
31.02725
 20
24.325917
 30
0.0
  0
VERTEX
  8
1
  6
CONTINUOUS
 62
     7
  5
3C3
 10
31.082598
 20
24.182832
 30
0.0
  0
VERTEX
  8
1
  6
CONTINUOUS
 62
     7
  5
3C4
 10
31.155212
 20
23.976579
 30
0.0
  0
VERTEX
  8
1
  6
CONTINUOUS
 62
     7
  5
3C5
 10
31.201591
 20
23.888932
 30
0.0
  0
VERTEX
  8
1
  6
CONTINUOUS
 62
     7
  5
3C6
 10
31.260955
 20
23.824707
 30
0.0
  0
VERTEX
  8
1
  6
CONTINUOUS
 62
     7
  5
3C7
 10
31.296975
 20
23.804448
 30
0.0
  0
VERTEX
  8
1
  6
CONTINUOUS
 62
     7
  5
3C8
 10
31.360583
 20
23.792333
 30
0.0
  0
VERTEX
  8
1
  6
CONTINUOUS
 62
     7
  5
3C9
 10
31.760667
 20
23.792333
 30
0.0
  0
SEQEND
  8
1
  6
CONTINUOUS
 62
     7
  5
3CA
  0
POLYLINE
  8
1
  6
CONTINUOUS
 62
     7
  5
3CB
 66
     1
 10
0.0
 20
0.0
 30
0.0
  0
VERTEX
  8
1
  6
CONTINUOUS
 62
     7
  5
3CC
 10
58.89575
 20
23.192167
 30
0.0
  0
VERTEX
  8
1
  6
CONTINUOUS
 62
     7
  5
3CD
 10
59.5625
 20
23.192167
 30
0.0
  0
VERTEX
  8
1
  6
CONTINUOUS
 62
     7
  5
3CE
 10
59.641606
 20
23.173011
 30
0.0
  0
VERTEX
  8
1
  6
CONTINUOUS
 62
     7
  5
3CF
 10
59.679829
 20
23.141105
 30
0.0
  0
VERTEX
  8
1
  6
CONTINUOUS
 62
     7
  5
3D0
 10
59.699839
 20
23.112537
 30
0.0
  0
VERTEX
  8
1
  6
CONTINUOUS
 62
     7
  5
3D1
 10
59.728945
 20
23.040637
 30
0.0
  0
VERTEX
  8
1
  6
CONTINUOUS
 62
     7
  5
3D2
 10
59.752737
 20
22.905039
 30
0.0
  0
VERTEX
  8
1
  6
CONTINUOUS
 62
     7
  5
3D3
 10
59.768121
 20
22.69809
 30
0.0
  0
VERTEX
  8
1
  6
CONTINUOUS
 62
     7
  5
3D4
 10
59.777704
 20
22.594401
 30
0.0
  0
VERTEX
  8
1
  6
CONTINUOUS
 62
     7
  5
3D5
 10
59.80556
 20
22.452337
 30
0.0
  0
VERTEX
  8
1
  6
CONTINUOUS
 62
     7
  5
3D6
 10
59.829167
 20
22.391833
 30
0.0
  0
VERTEX
  8
1
  6
CONTINUOUS
 62
     7
  5
3D7
 10
59.884515
 20
22.248748
 30
0.0
  0
VERTEX
  8
1
  6
CONTINUOUS
 62
     7
  5
3D8
 10
59.957128
 20
22.042496
 30
0.0
  0
VERTEX
  8
1
  6
CONTINUOUS
 62
     7
  5
3D9
 10
60.003507
 20
21.954849
 30
0.0
  0
VERTEX
  8
1
  6
CONTINUOUS
 62
     7
  5
3DA
 10
60.062871
 20
21.890623
 30
0.0
  0
VERTEX
  8
1
  6
CONTINUOUS
 62
     7
  5
3DB
 10
60.098892
 20
21.870365
 30
0.0
  0
VERTEX
  8
1
  6
CONTINUOUS
 62
     7
  5
3DC
 10
60.1625
 20
21.85825
 30
0.0
  0
VERTEX
  8
1
  6
CONTINUOUS
 62
     7
  5
3DD
 10
60.562583
 20
21.85825
 30
0.0
  0
SEQEND
  8
1
  6
CONTINUOUS
 62
     7
  5
3DE
  0
LINE
  8
1
  6
CONTINUOUS
 62
     7
  5
3DF
 10
31.047667
 20
24.280167
 30
0.0
 11
83.430667
 21
54.471
 31
0.0
  0
LINE
  8
1
  6
CONTINUOUS
 62
     7
  5
3E0
 10
83.430667
 20
54.471
 30
0.0
 11
59.785583
 21
22.5395
 31
0.0
  0
LINE
  8
1
  6
CONTINUOUS
 62
     7
  5
3E1
 10
83.430667
 20
54.471
 30
0.0
 11
89.969833
 21
54.471
 31
0.0
  0
LINE
  8
1
  6
CONTINUOUS
 62
     7
  5
3E2
 10
55.197333
 20
-5.350333
 30
0.0
 11
81.697333
 21
-5.350333
 31
0.0
  0
LINE
  8
1
  6
CONTINUOUS
 62
     7
  5
3E3
 10
66.947333
 20
-12.350333
 30
0.0
 11
70.164
 21
-12.350333
 31
0.0
  0
LINE
  8
1
  6
CONTINUOUS
 62
     7
  5
3E4
 10
66.947333
 20
-12.850333
 30
0.0
 11
81.697333
 21
-12.850333
 31
0.0
  0
LINE
  8
1
  6
CONTINUOUS
 62
     7
  5
3E5
 10
80.697333
 20
-5.350333
 30
0.0
 11
80.697333
 21
-12.850333
 31
0.0
  0
LINE
  8
1
  6
CONTINUOUS
 62
     7
  5
3E6
 10
69.164
 20
-12.350333
 30
0.0
 11
69.164
 21
-8.350333
 31
0.0
  0
LINE
  8
1
  6
CONTINUOUS
 62
     7
  5
3E7
 10
69.164
 20
-12.850333
 30
0.0
 11
69.164
 21
-16.850333
 31
0.0
  0
LINE
  8
1
  6
CONTINUOUS
 62
     7
  5
3E8
 10
36.626667
 20
-5.350333
 30
0.0
 11
16.626667
 21
-5.350333
 31
0.0
  0
LINE
  8
1
  6
CONTINUOUS
 62
   212
  5
3E9
 10
37.697333
 20
-5.350333
 30
0.0
 11
26.669167
 21
-12.389583
 31
0.0
  0
LINE
  8
1
  6
CONTINUOUS
 62
     7
  5
3EA
 10
25.826167
 20
-12.927583
 30
0.0
 11
19.08275
 21
-17.23175
 31
0.0
  0
ARC
  8
1
  6
CONTINUOUS
 62
     7
  5
3EB
 10
32.14605
 20
-8.312243
 30
0.0
 40
14.818414
 50
168.470039
 51
210.307236
210
0.0
220
0.0
230
1.0
  0
INSERT
  8
1
  6
CONTINUOUS
 62
     1
  5
3EC
  2
LDR
 10
25.947333
 20
53.149667
 30
0.0
 41
240.0
 42
240.0
 50
180.0
210
0.0
220
0.0
230
1.0
  0
INSERT
  8
1
  6
CONTINUOUS
 62
     1
  5
3ED
  2
LDR
 10
25.947333
 20
53.149667
 30
0.0
 41
240.0
 42
240.0
 50
180.0
210
0.0
220
0.0
230
1.0
  0
INSERT
  8
1
  6
CONTINUOUS
 62
     1
  5
3EE
  2
LDR
 10
65.947333
 20
53.149667
 30
0.0
 41
240.0
 42
240.0
210
0.0
220
0.0
230
1.0
  0
INSERT
  8
1
  6
CONTINUOUS
 62
     1
  5
3EF
  2
LDR
 10
65.947333
 20
53.149667
 30
0.0
 41
240.0
 42
240.0
210
0.0
220
0.0
230
1.0
  0
INSERT
  8
1
  6
CONTINUOUS
 62
     1
  5
3F0
  2
LDR
 10
31.047667
 20
24.280167
 30
0.0
 41
240.0
 42
240.0
 50
209.956909
210
0.0
220
0.0
230
1.0
  0
INSERT
  8
1
  6
CONTINUOUS
 62
     1
  5
3F1
  2
LDR
 10
37.197333
 20
11.149667
 30
0.0
 41
240.0
 42
240.0
 50
270.0
210
0.0
220
0.0
230
1.0
  0
INSERT
  8
1
  6
CONTINUOUS
 62
     1
  5
3F2
  2
LDR
 10
59.785583
 20
22.5395
 30
0.0
 41
239.999999
 42
239.999999
 50
233.480275
210
0.0
220
0.0
230
1.0
  0
INSERT
  8
1
  6
CONTINUOUS
 62
     1
  5
3F3
  2
LDR
 10
59.785583
 20
22.5395
 30
0.0
 41
239.999999
 42
239.999999
 50
233.480275
210
0.0
220
0.0
230
1.0
  0
INSERT
  8
1
  6
CONTINUOUS
 62
     1
  5
3F4
  2
LDR
 10
19.947333
 20
47.149667
 30
0.0
 41
240.0
 42
240.0
 50
90.0
210
0.0
220
0.0
230
1.0
  0
INSERT
  8
1
  6
CONTINUOUS
 62
     1
  5
3F5
  2
LDR
 10
19.947333
 20
47.149667
 30
0.0
 41
240.0
 42
240.0
 50
90.0
210
0.0
220
0.0
230
1.0
  0
INSERT
  8
1
  6
CONTINUOUS
 62
     1
  5
3F6
  2
LDR
 10
19.947333
 20
7.149667
 30
0.0
 41
240.0
 42
240.0
 50
270.0
210
0.0
220
0.0
230
1.0
  0
INSERT
  8
1
  6
CONTINUOUS
 62
     1
  5
3F7
  2
LDR
 10
19.947333
 20
7.149667
 30
0.0
 41
240.0
 42
240.0
 50
270.0
210
0.0
220
0.0
230
1.0
  0
INSERT
  8
1
  6
CONTINUOUS
 62
     1
  5
3F8
  2
LDR
 10
80.697333
 20
-5.350333
 30
0.0
 41
240.0
 42
240.0
 50
90.0
210
0.0
220
0.0
230
1.0
  0
INSERT
  8
1
  6
CONTINUOUS
 62
     1
  5
3F9
  2
LDR
 10
80.697333
 20
-5.350333
 30
0.0
 41
240.0
 42
240.0
 50
90.0
210
0.0
220
0.0
230
1.0
  0
INSERT
  8
1
  6
CONTINUOUS
 62
     1
  5
3FA
  2
LDR
 10
80.697333
 20
-12.850333
 30
0.0
 41
240.0
 42
240.0
 50
270.0
210
0.0
220
0.0
230
1.0
  0
INSERT
  8
1
  6
CONTINUOUS
 62
     1
  5
3FB
  2
LDR
 10
69.164
 20
-12.350333
 30
0.0
 41
240.0
 42
240.0
 50
270.0
210
0.0
220
0.0
230
1.0
  0
INSERT
  8
1
  6
CONTINUOUS
 62
     1
  5
3FC
  2
LDR
 10
69.164
 20
-12.850333
 30
0.0
 41
240.0
 42
240.0
 50
90.0
210
0.0
220
0.0
230
1.0
  0
INSERT
  8
1
  6
CONTINUOUS
 62
     1
  5
3FD
  2
LDR
 10
73.38225
 20
14.380417
 30
0.0
 41
240.000003
 42
240.000003
 50
58.919571
210
0.0
220
0.0
230
1.0
  0
ARC
  8
1
  6
CONTINUOUS
 62
     7
  5
3FE
 10
79.392249
 20
9.161322
 30
0.0
 40
7.95352
 50
148.903331
 51
151.525819
210
0.0
220
0.0
230
1.0
  0
ARC
  8
1
  6
CONTINUOUS
 62
     7
  5
3FF
 10
79.392249
 20
9.161322
 30
0.0
 40
7.95352
 50
148.903331
 51
182.386247
210
0.0
220
0.0
230
1.0
  0
INSERT
  8
1
  6
CONTINUOUS
 62
     1
  5
400
  2
LDR
 10
71.70475
 20
7.167
 30
0.0
 41
240.000001
 42
240.000001
 50
274.799014
210
0.0
220
0.0
230
1.0
  0
INSERT
  8
1
  6
CONTINUOUS
 62
     1
  5
401
  2
LDR
 10
17.6175
 20
-5.358167
 30
0.0
 41
240.000001
 42
240.000001
 50
82.194961
210
0.0
220
0.0
230
1.0
  0
INSERT
  8
1
  6
CONTINUOUS
 62
     1
  5
402
  2
LDR
 10
19.92825
 20
-16.681917
 30
0.0
 41
240.000002
 42
240.000002
 50
299.944416
210
0.0
220
0.0
230
1.0
  0
TEXT
  8
1
  6
CONTINUOUS
 62
     7
  5
403
 10
41.65175
 20
54.003917
 30
0.0
 40
2.5
  1
4.00"
  7
MONOTXT
 72
     4
 11
46.582833
 21
55.253917
 31
0.0
210
0.0
220
0.0
230
1.0
  0
TEXT
  8
1
  6
CONTINUOUS
 62
     7
  5
404
 10
66.488333
 20
9.8005
 30
0.0
 40
2.5
  1
30
  7
MONOTXT
 72
     4
 11
68.55525
 21
11.0505
 31
0.0
210
0.0
220
0.0
230
1.0
  0
CIRCLE
  8
1
  6
CONTINUOUS
 62
     7
  5
405
 10
71.05325
 20
12.8445
 30
0.0
 40
0.328649
210
0.0
220
0.0
230
1.0
  0
CIRCLE
  8
1
  6
CONTINUOUS
 62
     7
  5
406
 10
16.2725
 20
-10.410833
 30
0.0
 40
0.328649
210
0.0
220
0.0
230
1.0
  0
TEXT
  8
1
  6
CONTINUOUS
 62
     7
  5
407
 10
11.707583
 20
-13.454833
 30
0.0
 40
2.5
  1
30
  7
MONOTXT
 72
     4
 11
13.7745
 21
-12.204833
 31
0.0
210
0.0
220
0.0
230
1.0
  0
TEXT
  8
1
  6
CONTINUOUS
 62
     7
  5
408
 10
90.776833
 20
52.98975
 30
0.0
 40
2.5
  1
BIDIRECTIONAL OR MONODIRECTIONAL
  7
MONOTXT
 11
90.776833
 21
55.48975
 31
0.0
210
0.0
220
0.0
230
1.0
 73
     3
  0
TEXT
  8
1
  6
CONTINUOUS
 62
     7
  5
409
 10
90.776833
 20
48.48975
 30
0.0
 40
2.5
  1
CRYSTAL, YELLOW AND/OR RED
  7
MONOTXT
 11
90.776833
 21
50.98975
 31
0.0
210
0.0
220
0.0
230
1.0
 73
     3
  0
TEXT
  8
1
  6
CONTINUOUS
 62
     7
  5
40A
 10
90.776833
 20
43.98975
 30
0.0
 40
2.5
  1
REFLECTORS AS SPECIFIED.
  7
MONOTXT
 11
90.776833
 21
46.48975
 31
0.0
210
0.0
220
0.0
230
1.0
 73
     3
  0
TEXT
  8
1
  6
CONTINUOUS
 62
     7
  5
40B
 10
90.776833
 20
39.48975
 30
0.0
 40
2.5
  1
(REFLECTIVE AREA APPROX. 3.25
  7
MONOTXT
 11
90.776833
 21
41.98975
 31
0.0
210
0.0
220
0.0
230
1.0
 73
     3
  0
TEXT
  8
1
  6
CONTINUOUS
 62
     7
  5
40C
 10
90.776833
 20
34.98975
 30
0.0
 40
2.5
  1
SQ. IN. PER REFLECTIVE FACE)
  7
MONOTXT
 11
90.776833
 21
37.48975
 31
0.0
210
0.0
220
0.0
230
1.0
 73
     3
  0
TEXT
  8
1
  6
CONTINUOUS
 62
     7
  5
40D
 10
68.418333
 20
-20.103167
 30
0.0
 40
2.5
  1
0.8
  7
MONOTXT
 72
     4
 11
71.125
 21
-18.853167
 31
0.0
210
0.0
220
0.0
230
1.0
  0
TEXT
  8
1
  6
CONTINUOUS
 62
     7
  5
40E
 10
19.068333
 20
22.7265
 30
0.0
 40
2.5
  1
4.00"
 50
90.0
  7
MONOTXT
 72
     4
 11
17.818333
 21
27.657583
 31
0.0
210
0.0
220
0.0
230
1.0
  0
TEXT
  8
1
  6
CONTINUOUS
 62
     7
  5
40F
 10
84.731
 20
-12.415917
 30
0.0
 40
2.5
  1
.75
 50
90.0
  7
MONOTXT
 72
     4
 11
83.481
 21
-9.689583
 31
0.0
210
0.0
220
0.0
230
1.0
  0
TEXT
  8
1
  6
CONTINUOUS
 62
     7
  5
410
 10
25.538917
 20
72.251
 30
0.0
 40
4.0
  1
DIRECTION OF
  7
MONOTXT
 72
     4
 11
46.342083
 21
74.251
 31
0.0
210
0.0
220
0.0
230
1.0
  0
TEXT
  8
1
  6
CONTINUOUS
 62
     7
  5
411
 10
34.609833
 20
61.251
 30
0.0
 40
4.0
  1
TRAFFIC
  7
MONOTXT
 72
     4
 11
46.342083
 21
63.251
 31
0.0
210
0.0
220
0.0
230
1.0
  0
POLYLINE
  8
1
  6
CONTINUOUS
 62
     7
  5
412
 66
     1
 10
0.0
 20
0.0
 30
0.0
 70
     1
  0
VERTEX
  8
1
  6
CONTINUOUS
 62
     7
  5
413
 10
39.257333
 20
67.708583
 30
0.0
  0
VERTEX
  8
1
  6
CONTINUOUS
 62
     7
  5
414
 10
39.257333
 20
69.308583
 30
0.0
  0
VERTEX
  8
1
  6
CONTINUOUS
 62
     7
  5
415
 10
39.257333
 20
69.348583
 30
0.0
  0
VERTEX
  8
1
  6
CONTINUOUS
 62
     7
  5
416
 10
49.097333
 20
69.348583
 30
0.0
  0
VERTEX
  8
1
  6
CONTINUOUS
 62
     7
  5
417
 10
49.097333
 20
70.508583
 30
0.0
  0
VERTEX
  8
1
  6
CONTINUOUS
 62
     7
  5
418
 10
53.537333
 20
68.548583
 30
0.0
  0
VERTEX
  8
1
  6
CONTINUOUS
 62
     7
  5
419
 10
49.097333
 20
66.528583
 30
0.0
  0
VERTEX
  8
1
  6
CONTINUOUS
 62
     7
  5
41A
 10
49.097333
 20
67.708583
 30
0.0
  0
VERTEX
  8
1
  6
CONTINUOUS
 62
     7
  5
41B
 10
39.257333
 20
67.708583
 30
0.0
  0
SEQEND
  8
1
  6
CONTINUOUS
 62
     7
  5
41C
  0
TEXT
  8
1
  6
CONTINUOUS
 62
     7
  5
41D
 10
18.6965
 20
-33.965667
 30
0.0
 40
4.0
  1
TYPE "R-4" MARKER
  7
MONOTXT
 72
     4
 11
50.30275
 21
-31.965667
 31
0.0
210
0.0
220
0.0
230
1.0
  0
LINE
  8
1
  6
CONTINUOUS
 62
     7
  5
41E
 10
16.068
 20
-35.727167
 30
0.0
 11
85.259333
 21
-35.727167
 31
0.0
  0
CIRCLE
  8
1
  6
CONTINUOUS
 62
   132
  5
41F
 10
341.438667
 20
87.542083
 30
0.0
 40
40.0
210
0.0
220
0.0
230
1.0
  0
LINE
  8
1
  6
CONTINUOUS
 62
     7
  5
420
 10
298.438667
 20
87.542083
 30
0.0
 11
338.438667
 21
87.542083
 31
0.0
  0
LINE
  8
1
  6
CONTINUOUS
 62
     7
  5
421
 10
339.938667
 20
87.542083
 30
0.0
 11
342.938667
 21
87.542083
 31
0.0
  0
LINE
  8
1
  6
CONTINUOUS
 62
     7
  5
422
 10
344.438667
 20
87.542083
 30
0.0
 11
384.438667
 21
87.542083
 31
0.0
  0
LINE
  8
1
  6
CONTINUOUS
 62
     7
  5
423
 10
341.438667
 20
130.542083
 30
0.0
 11
341.438667
 21
90.542083
 31
0.0
  0
LINE
  8
1
  6
CONTINUOUS
 62
     7
  5
424
 10
341.438667
 20
89.042083
 30
0.0
 11
341.438667
 21
86.042083
 31
0.0
  0
LINE
  8
1
  6
CONTINUOUS
 62
   132
  5
425
 10
302.708833
 20
2.042083
 30
0.0
 11
380.1685
 21
2.042083
 31
0.0
  0
ARC
  8
1
  6
CONTINUOUS
 62
   132
  5
426
 10
341.438667
 20
-7.957917
 30
0.0
 40
40.0
 50
14.477511
 51
165.522489
210
0.0
220
0.0
230
1.0
  0
LINE
  8
1
  6
CONTINUOUS
 62
   132
  5
427
 10
303.05325
 20
3.292083
 30
0.0
 11
379.824083
 21
3.292083
 31
0.0
  0
LINE
  8
1
  6
HIDDEN
 62
   132
  5
428
 10
333.688667
 20
18.042083
 30
0.0
 11
333.688667
 21
3.292083
 31
0.0
  0
LINE
  8
1
  6
HIDDEN
 62
   132
  5
429
 10
349.188667
 20
18.042083
 30
0.0
 11
349.188667
 21
3.292083
 31
0.0
  0
LINE
  8
1
  6
HIDDEN
 62
   132
  5
42A
 10
333.688667
 20
18.042083
 30
0.0
 11
349.188667
 21
18.042083
 31
0.0
  0
LINE
  8
1
  6
HIDDEN
 62
   132
  5
42B
 10
333.688667
 20
16.042083
 30
0.0
 11
349.188667
 21
16.042083
 31
0.0
  0
LINE
  8
1
  6
HIDDEN
 62
   132
  5
42C
 10
333.688667
 20
62.042083
 30
0.0
 11
349.188667
 21
62.042083
 31
0.0
  0
LINE
  8
1
  6
HIDDEN
 62
   132
  5
42D
 10
333.688667
 20
62.042083
 30
0.0
 11
333.688667
 21
48.300083
 31
0.0
  0
LINE
  8
1
  6
HIDDEN
 62
   132
  5
42E
 10
349.188667
 20
62.042083
 30
0.0
 11
349.188667
 21
48.300083
 31
0.0
  0
LINE
  8
1
  6
HIDDEN
 62
   132
  5
42F
 10
333.688667
 20
60.042083
 30
0.0
 11
349.188667
 21
60.042083
 31
0.0
  0
LINE
  8
1
  6
HIDDEN
 62
   132
  5
430
 10
333.688667
 20
113.042083
 30
0.0
 11
349.188667
 21
113.042083
 31
0.0
  0
LINE
  8
1
  6
HIDDEN
 62
   132
  5
431
 10
333.688667
 20
113.042083
 30
0.0
 11
333.688667
 21
126.784083
 31
0.0
  0
LINE
  8
1
  6
HIDDEN
 62
   132
  5
432
 10
349.188667
 20
113.042083
 30
0.0
 11
349.188667
 21
126.784083
 31
0.0
  0
LINE
  8
1
  6
HIDDEN
 62
   132
  5
433
 10
333.688667
 20
115.042083
 30
0.0
 11
349.188667
 21
115.042083
 31
0.0
  0
LINE
  8
1
  6
CONTINUOUS
 62
     7
  5
434
 10
341.438667
 20
84.542083
 30
0.0
 11
341.438667
 21
47.542083
 31
0.0
  0
LINE
  8
1
  6
CONTINUOUS
 62
     7
  5
435
 10
341.438667
 20
47.542083
 30
0.0
 11
341.438667
 21
42.792083
 31
0.0
  0
LINE
  8
1
  6
CONTINUOUS
 62
     7
  5
436
 10
341.438667
 20
41.292083
 30
0.0
 11
341.438667
 21
38.292083
 31
0.0
  0
LINE
  8
1
  6
CONTINUOUS
 62
     7
  5
437
 10
341.438667
 20
36.792083
 30
0.0
 11
341.438667
 21
32.042083
 31
0.0
  0
LINE
  8
1
  6
CONTINUOUS
 62
     7
  5
438
 10
341.438667
 20
32.042083
 30
0.0
 11
341.438667
 21
12.292083
 31
0.0
  0
LINE
  8
1
  6
CONTINUOUS
 62
     7
  5
439
 10
341.438667
 20
10.792083
 30
0.0
 11
341.438667
 21
7.792083
 31
0.0
  0
LINE
  8
1
  6
CONTINUOUS
 62
     7
  5
43A
 10
341.438667
 20
6.292083
 30
0.0
 11
341.438667
 21
-0.957917
 31
0.0
  0
LINE
  8
1
  6
CONTINUOUS
 62
     7
  5
43B
 10
351.438667
 20
32.042083
 30
0.0
 11
398.438667
 21
32.042083
 31
0.0
  0
LINE
  8
1
  6
CONTINUOUS
 62
     7
  5
43C
 10
381.1685
 20
2.042083
 30
0.0
 11
398.438667
 21
2.042083
 31
0.0
  0
LINE
  8
1
  6
CONTINUOUS
 62
     7
  5
43D
 10
380.1685
 20
1.042083
 30
0.0
 11
380.1685
 21
-7.957917
 31
0.0
  0
LINE
  8
1
  6
CONTINUOUS
 62
     7
  5
43E
 10
302.708833
 20
1.042083
 30
0.0
 11
302.708833
 21
-7.957917
 31
0.0
  0
LINE
  8
1
  6
CONTINUOUS
 62
     7
  5
43F
 10
397.438667
 20
32.042083
 30
0.0
 11
397.438667
 21
2.042083
 31
0.0
  0
LINE
  8
1
  6
CONTINUOUS
 62
     7
  5
440
 10
302.708833
 20
-6.957917
 30
0.0
 11
380.1685
 21
-6.957917
 31
0.0
  0
POLYLINE
  8
1
  6
CONTINUOUS
 62
     7
  5
441
 66
     1
 10
0.0
 20
0.0
 30
0.0
  0
VERTEX
  8
1
  6
CONTINUOUS
 62
     7
  5
442
 10
337.286667
 20
122.514833
 30
0.0
  0
VERTEX
  8
1
  6
CONTINUOUS
 62
     7
  5
443
 10
337.80725
 20
122.09825
 30
0.0
  0
VERTEX
  8
1
  6
CONTINUOUS
 62
     7
  5
444
 10
337.857086
 20
122.033754
 30
0.0
  0
VERTEX
  8
1
  6
CONTINUOUS
 62
     7
  5
445
 10
337.867055
 20
121.984782
 30
0.0
  0
VERTEX
  8
1
  6
CONTINUOUS
 62
     7
  5
446
 10
337.864879
 20
121.949827
 30
0.0
  0
VERTEX
  8
1
  6
CONTINUOUS
 62
     7
  5
447
 10
337.842796
 20
121.87517
 30
0.0
  0
VERTEX
  8
1
  6
CONTINUOUS
 62
     7
  5
448
 10
337.776815
 20
121.75395
 30
0.0
  0
VERTEX
  8
1
  6
CONTINUOUS
 62
     7
  5
449
 10
337.659626
 20
121.582466
 30
0.0
  0
VERTEX
  8
1
  6
CONTINUOUS
 62
     7
  5
44A
 10
337.602276
 20
121.495661
 30
0.0
  0
VERTEX
  8
1
  6
CONTINUOUS
 62
     7
  5
44B
 10
337.535013
 20
121.368077
 30
0.0
  0
VERTEX
  8
1
  6
CONTINUOUS
 62
     7
  5
44C
 10
337.515417
 20
121.30675
 30
0.0
  0
VERTEX
  8
1
  6
CONTINUOUS
 62
     7
  5
44D
 10
337.468888
 20
121.161527
 30
0.0
  0
VERTEX
  8
1
  6
CONTINUOUS
 62
     7
  5
44E
 10
337.396778
 20
120.95509
 30
0.0
  0
VERTEX
  8
1
  6
CONTINUOUS
 62
     7
  5
44F
 10
337.37835
 20
120.857333
 30
0.0
  0
VERTEX
  8
1
  6
CONTINUOUS
 62
     7
  5
450
 10
337.384676
 20
120.769707
 30
0.0
  0
VERTEX
  8
1
  6
CONTINUOUS
 62
     7
  5
451
 10
337.400169
 20
120.731213
 30
0.0
  0
VERTEX
  8
1
  6
CONTINUOUS
 62
     7
  5
452
 10
337.44225
 20
120.681833
 30
0.0
  0
VERTEX
  8
1
  6
CONTINUOUS
 62
     7
  5
453
 10
337.754583
 20
120.431833
 30
0.0
  0
SEQEND
  8
1
  6
CONTINUOUS
 62
     7
  5
454
  0
CIRCLE
  8
1
  6
CONTINUOUS
 62
   132
  5
455
 10
227.438667
 20
87.542083
 30
0.0
 40
17.5
210
0.0
220
0.0
230
1.0
  0
LINE
  8
1
  6
CONTINUOUS
 62
     7
  5
456
 10
227.438667
 20
108.042083
 30
0.0
 11
227.438667
 21
89.542083
 31
0.0
  0
LINE
  8
1
  6
CONTINUOUS
 62
     7
  5
457
 10
227.438667
 20
88.542083
 30
0.0
 11
227.438667
 21
86.542083
 31
0.0
  0
LINE
  8
1
  6
CONTINUOUS
 62
     7
  5
458
 10
227.438667
 20
85.542083
 30
0.0
 11
227.438667
 21
67.042083
 31
0.0
  0
LINE
  8
1
  6
CONTINUOUS
 62
     7
  5
459
 10
225.438667
 20
87.542083
 30
0.0
 11
206.938667
 21
87.542083
 31
0.0
  0
LINE
  8
1
  6
CONTINUOUS
 62
     7
  5
45A
 10
247.938667
 20
87.542083
 30
0.0
 11
229.438667
 21
87.542083
 31
0.0
  0
LINE
  8
1
  6
CONTINUOUS
 62
     7
  5
45B
 10
228.438667
 20
87.542083
 30
0.0
 11
226.438667
 21
87.542083
 31
0.0
  0
LINE
  8
1
  6
HIDDEN
 62
   132
  5
45C
 10
219.688667
 20
94.042083
 30
0.0
 11
235.188667
 21
94.042083
 31
0.0
  0
LINE
  8
1
  6
HIDDEN
 62
   132
  5
45D
 10
219.688667
 20
94.042083
 30
0.0
 11
219.688667
 21
103.232417
 31
0.0
  0
LINE
  8
1
  6
HIDDEN
 62
   132
  5
45E
 10
235.188667
 20
94.042083
 30
0.0
 11
235.188667
 21
103.232417
 31
0.0
  0
LINE
  8
1
  6
HIDDEN
 62
   132
  5
45F
 10
219.688667
 20
96.042083
 30
0.0
 11
235.188667
 21
96.042083
 31
0.0
  0
LINE
  8
1
  6
HIDDEN
 62
   132
  5
460
 10
219.688667
 20
81.042083
 30
0.0
 11
235.188667
 21
81.042083
 31
0.0
  0
LINE
  8
1
  6
HIDDEN
 62
   132
  5
461
 10
219.688667
 20
81.042083
 30
0.0
 11
219.688667
 21
71.85175
 31
0.0
  0
LINE
  8
1
  6
HIDDEN
 62
   132
  5
462
 10
235.188667
 20
81.042083
 30
0.0
 11
235.188667
 21
71.85175
 31
0.0
  0
LINE
  8
1
  6
HIDDEN
 62
   132
  5
463
 10
219.688667
 20
79.042083
 30
0.0
 11
235.188667
 21
79.042083
 31
0.0
  0
LINE
  8
1
  6
CONTINUOUS
 62
   132
  5
464
 10
209.938667
 20
3.292083
 30
0.0
 11
209.938667
 21
2.042083
 31
0.0
  0
LINE
  8
1
  6
CONTINUOUS
 62
   132
  5
465
 10
244.938667
 20
3.292083
 30
0.0
 11
244.938667
 21
2.042083
 31
0.0
  0
LINE
  8
1
  6
CONTINUOUS
 62
   132
  5
466
 10
244.938667
 20
2.042083
 30
0.0
 11
209.938667
 21
2.042083
 31
0.0
  0
LINE
  8
1
  6
CONTINUOUS
 62
   132
  5
467
 10
244.938667
 20
3.292083
 30
0.0
 11
209.938667
 21
3.292083
 31
0.0
  0
ARC
  8
1
  6
CONTINUOUS
 62
   132
  5
468
 10
227.438667
 20
-46.249583
 30
0.0
 40
52.541667
 50
70.544844
 51
109.455158
210
0.0
220
0.0
230
1.0
  0
LINE
  8
1
  6
HIDDEN
 62
   132
  5
469
 10
235.188667
 20
4.292083
 30
0.0
 11
219.688667
 21
4.292083
 31
0.0
  0
LINE
  8
1
  6
HIDDEN
 62
   132
  5
46A
 10
219.688667
 20
5.717333
 30
0.0
 11
219.688667
 21
4.292083
 31
0.0
  0
LINE
  8
1
  6
HIDDEN
 62
   132
  5
46B
 10
235.188667
 20
5.717333
 30
0.0
 11
235.188667
 21
4.292083
 31
0.0
  0
LINE
  8
1
  6
CONTINUOUS
 62
     7
  5
46C
 10
219.438667
 20
6.292083
 30
0.0
 11
201.438667
 21
6.292083
 31
0.0
  0
LINE
  8
1
  6
CONTINUOUS
 62
     7
  5
46D
 10
208.938667
 20
2.042083
 30
0.0
 11
201.438667
 21
2.042083
 31
0.0
  0
LINE
  8
1
  6
CONTINUOUS
 62
     7
  5
46E
 10
202.438667
 20
6.292083
 30
0.0
 11
202.438667
 21
10.292083
 31
0.0
  0
LINE
  8
1
  6
CONTINUOUS
 62
     7
  5
46F
 10
202.438667
 20
2.042083
 30
0.0
 11
202.438667
 21
-1.957917
 31
0.0
  0
LINE
  8
1
  6
CONTINUOUS
 62
     7
  5
470
 10
209.938667
 20
1.042083
 30
0.0
 11
209.938667
 21
-7.957917
 31
0.0
  0
LINE
  8
1
  6
CONTINUOUS
 62
     7
  5
471
 10
244.938667
 20
1.042083
 30
0.0
 11
244.938667
 21
-7.957917
 31
0.0
  0
LINE
  8
1
  6
CONTINUOUS
 62
     7
  5
472
 10
209.938667
 20
-6.957917
 30
0.0
 11
244.938667
 21
-6.957917
 31
0.0
  0
POLYLINE
  8
1
  6
CONTINUOUS
 62
     7
  5
473
 66
     1
 10
0.0
 20
0.0
 30
0.0
  0
VERTEX
  8
1
  6
CONTINUOUS
 62
     7
  5
474
 10
229.730083
 20
99.68225
 30
0.0
  0
VERTEX
  8
1
  6
CONTINUOUS
 62
     7
  5
475
 10
230.096667
 20
100.239167
 30
0.0
  0
VERTEX
  8
1
  6
CONTINUOUS
 62
     7
  5
476
 10
230.156243
 20
100.294745
 30
0.0
  0
VERTEX
  8
1
  6
CONTINUOUS
 62
     7
  5
477
 10
230.204039
 20
100.309184
 30
0.0
  0
VERTEX
  8
1
  6
CONTINUOUS
 62
     7
  5
478
 10
230.239011
 20
100.310237
 30
0.0
  0
VERTEX
  8
1
  6
CONTINUOUS
 62
     7
  5
479
 10
230.315314
 20
100.295122
 30
0.0
  0
VERTEX
  8
1
  6
CONTINUOUS
 62
     7
  5
47A
 10
230.442008
 20
100.24059
 30
0.0
  0
VERTEX
  8
1
  6
CONTINUOUS
 62
     7
  5
47B
 10
230.623533
 20
100.139742
 30
0.0
  0
VERTEX
  8
1
  6
CONTINUOUS
 62
     7
  5
47C
 10
230.715303
 20
100.090686
 30
0.0
  0
VERTEX
  8
1
  6
CONTINUOUS
 62
     7
  5
47D
 10
230.848727
 20
100.035599
 30
0.0
  0
VERTEX
  8
1
  6
CONTINUOUS
 62
     7
  5
47E
 10
230.91175
 20
100.021833
 30
0.0
  0
VERTEX
  8
1
  6
CONTINUOUS
 62
     7
  5
47F
 10
231.060818
 20
99.989076
 30
0.0
  0
VERTEX
  8
1
  6
CONTINUOUS
 62
     7
  5
480
 10
231.272849
 20
99.936425
 30
0.0
  0
VERTEX
  8
1
  6
CONTINUOUS
 62
     7
  5
481
 10
231.371777
 20
99.927109
 30
0.0
  0
VERTEX
  8
1
  6
CONTINUOUS
 62
     7
  5
482
 10
231.458407
 20
99.941492
 30
0.0
  0
VERTEX
  8
1
  6
CONTINUOUS
 62
     7
  5
483
 10
231.495336
 20
99.960466
 30
0.0
  0
VERTEX
  8
1
  6
CONTINUOUS
 62
     7
  5
484
 10
231.54075
 20
100.006917
 30
0.0
  0
VERTEX
  8
1
  6
CONTINUOUS
 62
     7
  5
485
 10
231.76075
 20
100.341
 30
0.0
  0
SEQEND
  8
1
  6
CONTINUOUS
 62
     7
  5
486
  0
LINE
  8
1
  6
CONTINUOUS
 62
     7
  5
487
 10
230.931667
 20
100.018917
 30
0.0
 11
237.284167
 21
121.5765
 31
0.0
  0
LINE
  8
1
  6
CONTINUOUS
 62
     7
  5
488
 10
337.6555
 20
121.5765
 30
0.0
 11
300.654083
 21
121.5765
 31
0.0
  0
LINE
  8
1
  6
CONTINUOUS
 62
     7
  5
489
 10
250.326
 20
121.5765
 30
0.0
 11
237.284167
 21
121.5765
 31
0.0
  0
INSERT
  8
1
  6
CONTINUOUS
 62
     1
  5
48A
  2
LDR
 10
230.931667
 20
100.018917
 30
0.0
 41
240.0
 42
240.0
 50
253.581026
210
0.0
220
0.0
230
1.0
  0
INSERT
  8
1
  6
CONTINUOUS
 62
     1
  5
48B
  2
LDR
 10
337.6555
 20
121.5765
 30
0.0
 41
240.0
 42
240.0
210
0.0
220
0.0
230
1.0
  0
INSERT
  8
1
  6
CONTINUOUS
 62
     1
  5
48C
  2
LDR
 10
337.6555
 20
121.5765
 30
0.0
 41
240.0
 42
240.0
210
0.0
220
0.0
230
1.0
  0
INSERT
  8
1
  6
CONTINUOUS
 62
     1
  5
48D
  2
LDR
 10
397.438667
 20
32.042083
 30
0.0
 41
240.0
 42
240.0
 50
90.0
210
0.0
220
0.0
230
1.0
  0
INSERT
  8
1
  6
CONTINUOUS
 62
     1
  5
48E
  2
LDR
 10
397.438667
 20
32.042083
 30
0.0
 41
240.0
 42
240.0
 50
90.0
210
0.0
220
0.0
230
1.0
  0
INSERT
  8
1
  6
CONTINUOUS
 62
     1
  5
48F
  2
LDR
 10
397.438667
 20
2.042083
 30
0.0
 41
240.0
 42
240.0
 50
270.0
210
0.0
220
0.0
230
1.0
  0
INSERT
  8
1
  6
CONTINUOUS
 62
     1
  5
490
  2
LDR
 10
397.438667
 20
2.042083
 30
0.0
 41
240.0
 42
240.0
 50
270.0
210
0.0
220
0.0
230
1.0
  0
INSERT
  8
1
  6
CONTINUOUS
 62
     1
  5
491
  2
LDR
 10
380.1685
 20
-6.957917
 30
0.0
 41
240.0
 42
240.0
210
0.0
220
0.0
230
1.0
  0
INSERT
  8
1
  6
CONTINUOUS
 62
     1
  5
492
  2
LDR
 10
380.1685
 20
-6.957917
 30
0.0
 41
240.0
 42
240.0
210
0.0
220
0.0
230
1.0
  0
INSERT
  8
1
  6
CONTINUOUS
 62
     1
  5
493
  2
LDR
 10
302.708833
 20
-6.957917
 30
0.0
 41
240.0
 42
240.0
 50
180.0
210
0.0
220
0.0
230
1.0
  0
INSERT
  8
1
  6
CONTINUOUS
 62
     1
  5
494
  2
LDR
 10
302.708833
 20
-6.957917
 30
0.0
 41
240.0
 42
240.0
 50
180.0
210
0.0
220
0.0
230
1.0
  0
INSERT
  8
1
  6
CONTINUOUS
 62
     1
  5
495
  2
LDR
 10
244.938667
 20
-6.957917
 30
0.0
 41
240.0
 42
240.0
210
0.0
220
0.0
230
1.0
  0
INSERT
  8
1
  6
CONTINUOUS
 62
     1
  5
496
  2
LDR
 10
244.938667
 20
-6.957917
 30
0.0
 41
240.0
 42
240.0
210
0.0
220
0.0
230
1.0
  0
INSERT
  8
1
  6
CONTINUOUS
 62
     1
  5
497
  2
LDR
 10
209.938667
 20
-6.957917
 30
0.0
 41
240.0
 42
240.0
 50
180.0
210
0.0
220
0.0
230
1.0
  0
TEXT
  8
1
  6
CONTINUOUS
 62
     7
  5
498
 10
240.413583
 20
42.793917
 30
0.0
 40
2.5
  1
COLOR SHALL BE WHITE OR
  7
MONOTXT
 11
240.413583
 21
45.293917
 31
0.0
210
0.0
220
0.0
230
1.0
 73
     3
  0
TEXT
  8
1
  6
CONTINUOUS
 62
     7
  5
499
 10
240.413583
 20
38.293917
 30
0.0
 40
2.5
  1
YELLOW AS SPECIFIED. ALSO,
  7
MONOTXT
 11
240.413583
 21
40.793917
 31
0.0
210
0.0
220
0.0
230
1.0
 73
     3
  0
TEXT
  8
1
  6
CONTINUOUS
 62
     7
  5
49A
 10
240.413583
 20
33.793917
 30
0.0
 40
2.5
  1
REFLECTIVE OR NONREFLECTIVE
  7
MONOTXT
 11
240.413583
 21
36.293917
 31
0.0
210
0.0
220
0.0
230
1.0
 73
     3
  0
TEXT
  8
1
  6
CONTINUOUS
 62
     7
  5
49B
 10
240.413583
 20
29.293917
 30
0.0
 40
2.5
  1
AS SPECIFIED.
  7
MONOTXT
 11
240.413583
 21
31.793917
 31
0.0
210
0.0
220
0.0
230
1.0
 73
     3
  0
INSERT
  8
1
  6
CONTINUOUS
 62
     1
  5
49C
  2
LDR
 10
202.438667
 20
6.292083
 30
0.0
 41
240.0
 42
240.0
 50
270.0
210
0.0
220
0.0
230
1.0
  0
INSERT
  8
1
  6
CONTINUOUS
 62
     1
  5
49D
  2
LDR
 10
202.438667
 20
6.292083
 30
0.0
 41
240.0
 42
240.0
 50
270.0
210
0.0
220
0.0
230
1.0
  0
INSERT
  8
1
  6
CONTINUOUS
 62
     1
  5
49E
  2
LDR
 10
202.438667
 20
2.042083
 30
0.0
 41
240.0
 42
240.0
 50
90.0
210
0.0
220
0.0
230
1.0
  0
TEXT
  8
1
  6
CONTINUOUS
 62
     7
  5
49F
 10
181.812
 20
2.767167
 30
0.0
 40
2.5
  1
APPROX. 0.75"
  7
MONOTXT
 72
     4
 11
195.4635
 21
4.017167
 31
0.0
210
0.0
220
0.0
230
1.0
  0
TEXT
  8
1
  6
CONTINUOUS
 62
     7
  5
4A0
 10
222.294083
 20
-10.050667
 30
0.0
 40
2.5
  1
4.00"
  7
MONOTXT
 72
     4
 11
227.225167
 21
-8.800667
 31
0.0
210
0.0
220
0.0
230
1.0
  0
TEXT
  8
1
  6
CONTINUOUS
 62
     7
  5
4A1
 10
331.00325
 20
-5.994583
 30
0.0
 40
2.5
  1
6.00" (C-6)
  7
MONOTXT
 11
331.00325
 21
-3.494583
 31
0.0
210
0.0
220
0.0
230
1.0
 73
     3
  0
TEXT
  8
1
  6
CONTINUOUS
 62
     7
  5
4A2
 10
331.00325
 20
-10.494583
 30
0.0
 40
2.5
  1
8.00" (C-8)
  7
MONOTXT
 11
331.00325
 21
-7.994583
 31
0.0
210
0.0
220
0.0
230
1.0
 73
     3
  0
TEXT
  8
1
  6
CONTINUOUS
 62
     7
  5
4A3
 10
396.437417
 20
6.698417
 30
0.0
 40
2.5
  1
1.75" (C-6)
 50
90.0
  7
MONOTXT
 72
     4
 11
395.187417
 21
17.121583
 31
0.0
210
0.0
220
0.0
230
1.0
  0
TEXT
  8
1
  6
CONTINUOUS
 62
     7
  5
4A4
 10
400.937417
 20
4.86775
 30
0.0
 40
2.5
  1
2.875" (C-8)
 50
90.0
  7
MONOTXT
 72
     4
 11
399.687417
 21
17.121667
 31
0.0
210
0.0
220
0.0
230
1.0
  0
TEXT
  8
1
  6
CONTINUOUS
 62
     7
  5
4A5
 10
193.3785
 20
-21.311667
 30
0.0
 40
4.0
  1
TYPE "C-4" MARKERS
  7
MONOTXT
 72
     4
 11
227.0635
 21
-19.311667
 31
0.0
210
0.0
220
0.0
230
1.0
  0
LINE
  8
1
  6
CONTINUOUS
 62
     7
  5
4A6
 10
192.539417
 20
-22.279833
 30
0.0
 11
261.975
 21
-22.279833
 31
0.0
  0
TEXT
  8
1
  6
CONTINUOUS
 62
     7
  5
4A7
 10
289.485
 20
-21.09175
 30
0.0
 40
4.0
  1
TYPE "C-6" AND "C-8" MARKERS
  7
MONOTXT
 72
     4
 11
341.24875
 21
-19.09175
 31
0.0
210
0.0
220
0.0
230
1.0
  0
LINE
  8
1
  6
CONTINUOUS
 62
     7
  5
4A8
 10
287.822
 20
-22.169917
 30
0.0
 11
395.96375
 21
-22.169917
 31
0.0
  0
TEXT
  8
1
  6
CONTINUOUS
 62
     7
  5
4A9
 10
302.906167
 20
-26.718
 30
0.0
 40
2.5
  1
(C-6R OR C-6NR AND C-8R OR C-8NR)
  7
MONOTXT
 72
     4
 11
341.892333
 21
-25.468
 31
0.0
210
0.0
220
0.0
230
1.0
  0
TEXT
  8
1
  6
CONTINUOUS
 62
     7
  5
4AA
 10
210.221917
 20
-26.718
 30
0.0
 40
2.5
  1
(C-4R OR C-4NR)
  7
MONOTXT
 72
     4
 11
227.377417
 21
-25.468
 31
0.0
210
0.0
220
0.0
230
1.0
  0
TEXT
  8
1
  6
CONTINUOUS
 62
     7
  5
4AB
 10
367.900083
 20
361.293083
 30
0.0
 40
2.5
  1
GENERAL NOTES
  7
MONOTXT
 72
     4
 11
383.32325
 21
362.543083
 31
0.0
210
0.0
220
0.0
230
1.0
  0
LINE
  8
1
  6
CONTINUOUS
 62
     7
  5
4AC
 10
366.314417
 20
358.89925
 30
0.0
 11
400.749167
 21
358.89925
 31
0.0
  0
POLYLINE
  8
1
  6
CONTINUOUS
 62
     7
  5
4AD
 66
     1
 10
0.0
 20
0.0
 30
0.0
  0
VERTEX
  8
1
  6
CONTINUOUS
 62
     7
  5
4AE
 10
58.738167
 20
284.906333
 30
0.0
  0
VERTEX
  8
1
  6
CONTINUOUS
 62
     7
  5
4AF
 10
59.317083
 20
285.23725
 30
0.0
  0
VERTEX
  8
1
  6
CONTINUOUS
 62
     7
  5
4B0
 10
59.3949
 20
285.259885
 30
0.0
  0
VERTEX
  8
1
  6
CONTINUOUS
 62
     7
  5
4B1
 10
59.443354
 20
285.251193
 30
0.0
  0
VERTEX
  8
1
  6
CONTINUOUS
 62
     7
  5
4B2
 10
59.474431
 20
285.236359
 30
0.0
  0
VERTEX
  8
1
  6
CONTINUOUS
 62
     7
  5
4B3
 10
59.53432
 20
285.188473
 30
0.0
  0
VERTEX
  8
1
  6
CONTINUOUS
 62
     7
  5
4B4
 10
59.620735
 20
285.082697
 30
0.0
  0
VERTEX
  8
1
  6
CONTINUOUS
 62
     7
  5
4B5
 10
59.735867
 20
284.910761
 30
0.0
  0
VERTEX
  8
1
  6
CONTINUOUS
 62
     7
  5
4B6
 10
59.796092
 20
284.825464
 30
0.0
  0
VERTEX
  8
1
  6
CONTINUOUS
 62
     7
  5
4B7
 10
59.893125
 20
284.71575
 30
0.0
  0
VERTEX
  8
1
  6
CONTINUOUS
 62
     7
  5
4B8
 10
59.94575
 20
284.67475
 30
0.0
  0
VERTEX
  8
1
  6
CONTINUOUS
 62
     7
  5
4B9
 10
60.06813
 20
284.577714
 30
0.0
  0
VERTEX
  8
1
  6
CONTINUOUS
 62
     7
  5
4BA
 10
60.233169
 20
284.434754
 30
0.0
  0
VERTEX
  8
1
  6
CONTINUOUS
 62
     7
  5
4BB
 10
60.315787
 20
284.381785
 30
0.0
  0
VERTEX
  8
1
  6
CONTINUOUS
 62
     7
  5
4BC
 10
60.398053
 20
284.355575
 30
0.0
  0
VERTEX
  8
1
  6
CONTINUOUS
 62
     7
  5
4BD
 10
60.438957
 20
284.355884
 30
0.0
  0
VERTEX
  8
1
  6
CONTINUOUS
 62
     7
  5
4BE
 10
60.499917
 20
284.376917
 30
0.0
  0
VERTEX
  8
1
  6
CONTINUOUS
 62
     7
  5
4BF
 10
60.84725
 20
284.5755
 30
0.0
  0
SEQEND
  8
1
  6
CONTINUOUS
 62
     7
  5
4C0
  0
POLYLINE
  8
1
  6
CONTINUOUS
 62
     7
  5
4C1
 66
     1
 10
0.0
 20
0.0
 30
0.0
  0
VERTEX
  8
1
  6
CONTINUOUS
 62
     7
  5
4C2
 10
53.27775
 20
293.64575
 30
0.0
  0
VERTEX
  8
1
  6
CONTINUOUS
 62
     7
  5
4C3
 10
53.856667
 20
293.976667
 30
0.0
  0
VERTEX
  8
1
  6
CONTINUOUS
 62
     7
  5
4C4
 10
53.934483
 20
293.999302
 30
0.0
  0
VERTEX
  8
1
  6
CONTINUOUS
 62
     7
  5
4C5
 10
53.982937
 20
293.99061
 30
0.0
  0
VERTEX
  8
1
  6
CONTINUOUS
 62
     7
  5
4C6
 10
54.014015
 20
293.975775
 30
0.0
  0
VERTEX
  8
1
  6
CONTINUOUS
 62
     7
  5
4C7
 10
54.073903
 20
293.927889
 30
0.0
  0
VERTEX
  8
1
  6
CONTINUOUS
 62
     7
  5
4C8
 10
54.160318
 20
293.822114
 30
0.0
  0
VERTEX
  8
1
  6
CONTINUOUS
 62
     7
  5
4C9
 10
54.27545
 20
293.650178
 30
0.0
  0
VERTEX
  8
1
  6
CONTINUOUS
 62
     7
  5
4CA
 10
54.335675
 20
293.564881
 30
0.0
  0
VERTEX
  8
1
  6
CONTINUOUS
 62
     7
  5
4CB
 10
54.432708
 20
293.455167
 30
0.0
  0
VERTEX
  8
1
  6
CONTINUOUS
 62
     7
  5
4CC
 10
54.485333
 20
293.414167
 30
0.0
  0
VERTEX
  8
1
  6
CONTINUOUS
 62
     7
  5
4CD
 10
54.607713
 20
293.317131
 30
0.0
  0
VERTEX
  8
1
  6
CONTINUOUS
 62
     7
  5
4CE
 10
54.772753
 20
293.174171
 30
0.0
  0
VERTEX
  8
1
  6
CONTINUOUS
 62
     7
  5
4CF
 10
54.85537
 20
293.121202
 30
0.0
  0
VERTEX
  8
1
  6
CONTINUOUS
 62
     7
  5
4D0
 10
54.937636
 20
293.094992
 30
0.0
  0
VERTEX
  8
1
  6
CONTINUOUS
 62
     7
  5
4D1
 10
54.97854
 20
293.095301
 30
0.0
  0
VERTEX
  8
1
  6
CONTINUOUS
 62
     7
  5
4D2
 10
55.0395
 20
293.116333
 30
0.0
  0
VERTEX
  8
1
  6
CONTINUOUS
 62
     7
  5
4D3
 10
55.386833
 20
293.314917
 30
0.0
  0
SEQEND
  8
1
  6
CONTINUOUS
 62
     7
  5
4D4
  0
LINE
  8
1
  6
CONTINUOUS
 62
     7
  5
4D5
 10
56.865917
 20
223.535333
 30
0.0
 11
64.784667
 21
223.535333
 31
0.0
  0
LINE
  8
1
  6
CONTINUOUS
 62
     7
  5
4D6
 10
64.784667
 20
223.535333
 30
0.0
 11
54.283083
 21
293.638833
 31
0.0
  0
LINE
  8
1
  6
CONTINUOUS
 62
     7
  5
4D7
 10
64.784667
 20
223.535333
 30
0.0
 11
59.886667
 21
284.72175
 31
0.0
  0
INSERT
  8
1
  6
CONTINUOUS
 62
     1
  5
4D8
  2
LDR
 10
54.283083
 20
293.638833
 30
0.0
 41
240.0
 42
240.0
 50
98.519622
210
0.0
220
0.0
230
1.0
  0
INSERT
  8
1
  6
CONTINUOUS
 62
     1
  5
4D9
  2
LDR
 10
59.886667
 20
284.72175
 30
0.0
 41
240.000001
 42
240.000001
 50
94.576794
210
0.0
220
0.0
230
1.0
  0
TEXT
  8
1
  6
CONTINUOUS
 62
     7
  5
4DA
 10
147.387583
 20
208.861667
 30
0.0
 40
4.0
  1
+
  7
MONOTXT
 72
     4
 11
148.28525
 21
210.861667
 31
0.0
210
0.0
220
0.0
230
1.0
  0
TEXT
  8
1
  6
CONTINUOUS
 62
     7
  5
4DB
 10
147.725583
 20
195.388167
 30
0.0
 40
4.0
  1
+
  7
MONOTXT
 72
     4
 11
148.62325
 21
197.388167
 31
0.0
210
0.0
220
0.0
230
1.0
  0
TEXT
  8
1
  6
CONTINUOUS
 62
     7
  5
4DC
 10
44.084083
 20
170.273
 30
0.0
 40
4.0
  1
+
  7
MONOTXT
 72
     4
 11
44.98175
 21
172.273
 31
0.0
210
0.0
220
0.0
230
1.0
  0
TEXT
  8
1
  6
CONTINUOUS
 62
     7
  5
4DD
 10
46.394667
 20
162.944167
 30
0.0
 40
4.0
  1
+
  7
MONOTXT
 72
     4
 11
47.292333
 21
164.944167
 31
0.0
210
0.0
220
0.0
230
1.0
  0
TEXT
  8
1
  6
CONTINUOUS
 62
     7
  5
4DE
 10
401.12225
 20
343.742167
 30
0.0
 40
2.5
  1
4.   TYPE "R-4" MARKER INSTALLATION:
  7
MONOTXT
 11
401.12225
 21
346.242167
 31
0.0
210
0.0
220
0.0
230
1.0
 73
     3
  0
TEXT
  8
1
  6
CONTINUOUS
 62
     7
  5
4DF
 10
401.12225
 20
339.242167
 30
0.0
 40
2.5
  1
 
  7
MONOTXT
 11
401.12225
 21
341.742167
 31
0.0
210
0.0
220
0.0
230
1.0
 73
     3
  0
TEXT
  8
1
  6
CONTINUOUS
 62
     7
  5
4E0
 10
401.12225
 20
334.742167
 30
0.0
 40
2.5
  1
   (A)   AREA OF APPLICATION MUST BE FREE OF OIL, GREASE, DIRT, CURING COMPOUND,
  7
MONOTXT
 11
401.12225
 21
337.242167
 31
0.0
210
0.0
220
0.0
230
1.0
 73
     3
  0
TEXT
  8
1
  6
CONTINUOUS
 62
     7
  5
4E1
 10
401.12225
 20
330.242167
 30
0.0
 40
2.5
  1
       LOOSE PARTICLES OR ANY OTHER MATERIAL WHICH WILL ADVERSELY AFFECT THE
  7
MONOTXT
 11
401.12225
 21
332.742167
 31
0.0
210
0.0
220
0.0
230
1.0
 73
     3
  0
TEXT
  8
1
  6
CONTINUOUS
 62
     7
  5
4E2
 10
401.12225
 20
325.742167
 30
0.0
 40
2.5
  1
       BOND OF THE ADHESIVE. THE PREFERRED METHOD OF SURFACE PREPARATION IS BY
  7
MONOTXT
 11
401.12225
 21
328.242167
 31
0.0
210
0.0
220
0.0
230
1.0
 73
     3
  0
TEXT
  8
1
  6
CONTINUOUS
 62
     7
  5
4E3
 10
401.12225
 20
321.242167
 30
0.0
 40
2.5
  1
       SAND BLASTING OR GRINDING THE ROAD SURFACE.
  7
MONOTXT
 11
401.12225
 21
323.742167
 31
0.0
210
0.0
220
0.0
230
1.0
 73
     3
  0
TEXT
  8
1
  6
CONTINUOUS
 62
     7
  5
4E4
 10
401.12225
 20
316.742167
 30
0.0
 40
2.5
  1
 
  7
MONOTXT
 11
401.12225
 21
319.242167
 31
0.0
210
0.0
220
0.0
230
1.0
 73
     3
  0
TEXT
  8
1
  6
CONTINUOUS
 62
     7
  5
4E5
 10
401.12225
 20
312.242167
 30
0.0
 40
2.5
  1
   (B)   APPLY TO CLEANED PAVEMENT A QUANTITY OF EPOXY ADHESIVE SUFFICIENT TO
  7
MONOTXT
 11
401.12225
 21
314.742167
 31
0.0
210
0.0
220
0.0
230
1.0
 73
     3
  0
TEXT
  8
1
  6
CONTINUOUS
 62
     7
  5
4E6
 10
401.12225
 20
307.742167
 30
0.0
 40
2.5
  1
       COMPLETELY COVER BASE OF MARKER, AND FILL ANY IRREGULARITIES IN THE
  7
MONOTXT
 11
401.12225
 21
310.242167
 31
0.0
210
0.0
220
0.0
230
1.0
 73
     3
  0
TEXT
  8
1
  6
CONTINUOUS
 62
     7
  5
4E7
 10
401.12225
 20
303.242167
 30
0.0
 40
2.5
  1
       PAVEMENT. GENERALLY, A PAD BETWEEN  1/16 " AND  1/8 " THICK IS SUFFICIENT. AFTER
  7
MONOTXT
 11
401.12225
 21
305.742167
 31
0.0
210
0.0
220
0.0
230
1.0
 73
     3
  0
TEXT
  8
1
  6
CONTINUOUS
 62
     7
  5
4E8
 10
401.12225
 20
298.742167
 30
0.0
 40
2.5
  1
       PLACING THE MARKER ON THE ADHESIVE, ALL VOIDS IN THE ADHESIVE SHOULD BE
  7
MONOTXT
 11
401.12225
 21
301.242167
 31
0.0
210
0.0
220
0.0
230
1.0
 73
     3
  0
TEXT
  8
1
  6
CONTINUOUS
 62
     7
  5
4E9
 10
401.12225
 20
294.242167
 30
0.0
 40
2.5
  1
       ELIMINATED BY APPLYING PRESSURE ON THE MARKER UNTIL IT IS IN FIRM CONTACT
  7
MONOTXT
 11
401.12225
 21
296.742167
 31
0.0
210
0.0
220
0.0
230
1.0
 73
     3
  0
TEXT
  8
1
  6
CONTINUOUS
 62
     7
  5
4EA
 10
401.12225
 20
289.742167
 30
0.0
 40
2.5
  1
       WITH THE PAVEMENT. ADHESIVE AS RECOMMENDED BY MARKER MANUFACTURER SHALL
  7
MONOTXT
 11
401.12225
 21
292.242167
 31
0.0
210
0.0
220
0.0
230
1.0
 73
     3
  0
TEXT
  8
1
  6
CONTINUOUS
 62
     7
  5
4EB
 10
401.12225
 20
285.242167
 30
0.0
 40
2.5
  1
       BE USED. THE MARKER MUST BE PROTECTED FROM TRAFFIC UNTIL THE ADHESIVE
  7
MONOTXT
 11
401.12225
 21
287.742167
 31
0.0
210
0.0
220
0.0
230
1.0
 73
     3
  0
TEXT
  8
1
  6
CONTINUOUS
 62
     7
  5
4EC
 10
401.12225
 20
280.742167
 30
0.0
 40
2.5
  1
       HAS PROPERLY HARDENED.
  7
MONOTXT
 11
401.12225
 21
283.242167
 31
0.0
210
0.0
220
0.0
230
1.0
 73
     3
  0
TEXT
  8
1
  6
CONTINUOUS
 62
     7
  5
4ED
 10
401.12225
 20
276.242167
 30
0.0
 40
2.5
  1
 
  7
MONOTXT
 11
401.12225
 21
278.742167
 31
0.0
210
0.0
220
0.0
230
1.0
 73
     3
  0
TEXT
  8
1
  6
CONTINUOUS
 62
     7
  5
4EE
 10
401.12225
 20
271.742167
 30
0.0
 40
2.5
  1
5.   TYPES "C-4", "C-6", AND "C-8" MARKER INSTALLATION:
  7
MONOTXT
 11
401.12225
 21
274.242167
 31
0.0
210
0.0
220
0.0
230
1.0
 73
     3
  0
TEXT
  8
1
  6
CONTINUOUS
 62
     7
  5
4EF
 10
401.12225
 20
267.242167
 30
0.0
 40
2.5
  1
 
  7
MONOTXT
 11
401.12225
 21
269.742167
 31
0.0
210
0.0
220
0.0
230
1.0
 73
     3
  0
TEXT
  8
1
  6
CONTINUOUS
 62
     7
  5
4F0
 10
401.12225
 20
262.742167
 30
0.0
 40
2.5
  1
   (A)   PREPARATION OF AREA OF APPLICATION SAME AS NOTE 4A ABOVE FOR TYPE R-4
  7
MONOTXT
 11
401.12225
 21
265.242167
 31
0.0
210
0.0
220
0.0
230
1.0
 73
     3
  0
TEXT
  8
1
  6
CONTINUOUS
 62
     7
  5
4F1
 10
401.12225
 20
258.242167
 30
0.0
 40
2.5
  1
       MARKERS.
  7
MONOTXT
 11
401.12225
 21
260.742167
 31
0.0
210
0.0
220
0.0
230
1.0
 73
     3
  0
TEXT
  8
1
  6
CONTINUOUS
 62
     7
  5
4F2
 10
401.12225
 20
253.742167
 30
0.0
 40
2.5
  1
 
  7
MONOTXT
 11
401.12225
 21
256.242167
 31
0.0
210
0.0
220
0.0
230
1.0
 73
     3
  0
TEXT
  8
1
  6
CONTINUOUS
 62
     7
  5
4F3
 10
401.12225
 20
249.242167
 30
0.0
 40
2.5
  1
   (B)   APPLICATION OF MARKER TO PAVEMENT SHALL BE BY EPOXY ADHESIVE SAME AS
  7
MONOTXT
 11
401.12225
 21
251.742167
 31
0.0
210
0.0
220
0.0
230
1.0
 73
     3
  0
TEXT
  8
1
  6
CONTINUOUS
 62
     7
  5
4F4
 10
401.12225
 20
244.742167
 30
0.0
 40
2.5
  1
       4B ABOVE FOR TYPE R-4 MARKERS, EXCEPT THE EPOXY PAD FOR C-6 AND C-8
  7
MONOTXT
 11
401.12225
 21
247.242167
 31
0.0
210
0.0
220
0.0
230
1.0
 73
     3
  0
TEXT
  8
1
  6
CONTINUOUS
 62
     7
  5
4F5
 10
401.12225
 20
240.242167
 30
0.0
 40
2.5
  1
       MARKERS SHALL BE  1/8 " TO  1/4 " THICK.
  7
MONOTXT
 11
401.12225
 21
242.742167
 31
0.0
210
0.0
220
0.0
230
1.0
 73
     3
  0
TEXT
  8
1
  6
CONTINUOUS
 62
     7
  5
4F6
 10
401.12225
 20
235.742167
 30
0.0
 40
2.5
  1
 
  7
MONOTXT
 11
401.12225
 21
238.242167
 31
0.0
210
0.0
220
0.0
230
1.0
 73
     3
  0
TEXT
  8
1
  6
CONTINUOUS
 62
     7
  5
4F7
 10
401.12225
 20
231.242167
 30
0.0
 40
2.5
  1
   (C)   BUTTERING THE BOTTOMS OF THE MARKERS IS ADEQUATE FOR SMALL JOBS. A
  7
MONOTXT
 11
401.12225
 21
233.742167
 31
0.0
210
0.0
220
0.0
230
1.0
 73
     3
  0
TEXT
  8
1
  6
CONTINUOUS
 62
     7
  5
4F8
 10
401.12225
 20
226.742167
 30
0.0
 40
2.5
  1
       TEMPLATE IS RECOMMENDED FOR GREATER EFFICIENCY. APPROXIMATELY  1/16 "
  7
MONOTXT
 11
401.12225
 21
229.242167
 31
0.0
210
0.0
220
0.0
230
1.0
 73
     3
  0
TEXT
  8
1
  6
CONTINUOUS
 62
     7
  5
4F9
 10
401.12225
 20
222.242167
 30
0.0
 40
2.5
  1
       (.15 CM) OF ADHESIVE IS REQUIRED TO PROPERLY BOND. THE MARKER IN PLACE
  7
MONOTXT
 11
401.12225
 21
224.742167
 31
0.0
210
0.0
220
0.0
230
1.0
 73
     3
  0
TEXT
  8
1
  6
CONTINUOUS
 62
     7
  5
4FA
 10
401.12225
 20
217.742167
 30
0.0
 40
2.5
  1
       FOR C-4's; FOR C-6's AND C-8's USE  1/8 " TO  1/4 ".
  7
MONOTXT
 11
401.12225
 21
220.242167
 31
0.0
210
0.0
220
0.0
230
1.0
 73
     3
  0
TEXT
  8
1
  6
CONTINUOUS
 62
     7
  5
4FB
 10
401.12225
 20
213.242167
 30
0.0
 40
2.5
  1
 
  7
MONOTXT
 11
401.12225
 21
215.742167
 31
0.0
210
0.0
220
0.0
230
1.0
 73
     3
  0
TEXT
  8
1
  6
CONTINUOUS
 62
     7
  5
4FC
 10
401.12225
 20
208.742167
 30
0.0
 40
2.5
  1
   (D)   IMMEDIATELY AFTER THE ADHESIVE IS APPLIED, PLACE THE MARKER ONTO THE
  7
MONOTXT
 11
401.12225
 21
211.242167
 31
0.0
210
0.0
220
0.0
230
1.0
 73
     3
  0
TEXT
  8
1
  6
CONTINUOUS
 62
     7
  5
4FD
 10
401.12225
 20
204.242167
 30
0.0
 40
2.5
  1
       PATCH OF ADHESIVE. PRESS DOWN GRADUALLY AND CAREFULLY UNTIL A BEAD
  7
MONOTXT
 11
401.12225
 21
206.742167
 31
0.0
210
0.0
220
0.0
230
1.0
 73
     3
  0
TEXT
  8
1
  6
CONTINUOUS
 62
     7
  5
4FE
 10
401.12225
 20
199.742167
 30
0.0
 40
2.5
  1
       OF ADHESIVE FORMS ALL AROUND THE OUTSIDE OF THE MARKER.
  7
MONOTXT
 11
401.12225
 21
202.242167
 31
0.0
210
0.0
220
0.0
230
1.0
 73
     3
  0
TEXT
  8
1
  6
CONTINUOUS
 62
     7
  5
4FF
 10
401.12225
 20
195.242167
 30
0.0
 40
2.5
  1
 
  7
MONOTXT
 11
401.12225
 21
197.742167
 31
0.0
210
0.0
220
0.0
230
1.0
 73
     3
  0
TEXT
  8
1
  6
CONTINUOUS
 62
     7
  5
500
 10
401.12225
 20
190.742167
 30
0.0
 40
2.5
  1
   (E)   A COARSE PAVEMENT TEXTURE WILL REQUIRE SLIGHTLY MORE ADHESIVE.
  7
MONOTXT
 11
401.12225
 21
193.242167
 31
0.0
210
0.0
220
0.0
230
1.0
 73
     3
  0
TEXT
  8
1
  6
CONTINUOUS
 62
     7
  5
501
 10
401.12225
 20
186.242167
 30
0.0
 40
2.5
  1
 
  7
MONOTXT
 11
401.12225
 21
188.742167
 31
0.0
210
0.0
220
0.0
230
1.0
 73
     3
  0
TEXT
  8
1
  6
CONTINUOUS
 62
     7
  5
502
 10
401.12225
 20
181.742167
 30
0.0
 40
2.5
  1
   (F)   MARKER MUST BE PROTECTED FROM TRAFFIC UNTIL ADHESIVE HAS PROPERLY
  7
MONOTXT
 11
401.12225
 21
184.242167
 31
0.0
210
0.0
220
0.0
230
1.0
 73
     3
  0
TEXT
  8
1
  6
CONTINUOUS
 62
     7
  5
503
 10
401.12225
 20
177.242167
 30
0.0
 40
2.5
  1
       HARDENED. 
  7
MONOTXT
 11
401.12225
 21
179.742167
 31
0.0
210
0.0
220
0.0
230
1.0
 73
     3
  0
TEXT
  8
1
  6
CONTINUOUS
 62
     7
  5
504
 10
251.139583
 20
124.605833
 30
0.0
 40
2.5
  1
IF REFLECTIVE INSERTS, ARE
  7
MONOTXT
 11
251.139583
 21
127.105833
 31
0.0
210
0.0
220
0.0
230
1.0
 73
     3
  0
TEXT
  8
1
  6
CONTINUOUS
 62
     7
  5
505
 10
251.139583
 20
120.105833
 30
0.0
 40
2.5
  1
REQUIRED, THEY SHALL
  7
MONOTXT
 11
251.139583
 21
122.605833
 31
0.0
210
0.0
220
0.0
230
1.0
 73
     3
  0
TEXT
  8
1
  6
CONTINUOUS
 62
     7
  5
506
 10
251.139583
 20
115.605833
 30
0.0
 40
2.5
  1
BE MONODIRECTIONAL OR
  7
MONOTXT
 11
251.139583
 21
118.105833
 31
0.0
210
0.0
220
0.0
230
1.0
 73
     3
  0
TEXT
  8
1
  6
CONTINUOUS
 62
     7
  5
507
 10
251.139583
 20
111.105833
 30
0.0
 40
2.5
  1
BIDIRECTIONAL AS SPECIFIED.
  7
MONOTXT
 11
251.139583
 21
113.605833
 31
0.0
210
0.0
220
0.0
230
1.0
 73
     3
  0
TEXT
  8
1
  6
CONTINUOUS
 62
     7
  5
508
 10
211.790417
 20
343.88025
 30
0.0
 40
2.5
  1
1.   LOCATION OF MARKERS ARE SHOWN ON THE PLANS.
  7
MONOTXT
 11
211.790417
 21
346.38025
 31
0.0
210
0.0
220
0.0
230
1.0
 73
     3
  0
TEXT
  8
1
  6
CONTINUOUS
 62
     7
  5
509
 10
211.790417
 20
339.38025
 30
0.0
 40
2.5
  1
 
  7
MONOTXT
 11
211.790417
 21
341.88025
 31
0.0
210
0.0
220
0.0
230
1.0
 73
     3
  0
TEXT
  8
1
  6
CONTINUOUS
 62
     7
  5
50A
 10
211.790417
 20
334.88025
 30
0.0
 40
2.5
  1
2.   TYPES "R" & "C" MARKERS ARE NOT TO BE APPLIED OVER PAINT STRIPING.
  7
MONOTXT
 11
211.790417
 21
337.38025
 31
0.0
210
0.0
220
0.0
230
1.0
 73
     3
  0
TEXT
  8
1
  6
CONTINUOUS
 62
     7
  5
50B
 10
211.790417
 20
330.38025
 30
0.0
 40
2.5
  1
 
  7
MONOTXT
 11
211.790417
 21
332.88025
 31
0.0
210
0.0
220
0.0
230
1.0
 73
     3
  0
TEXT
  8
1
  6
CONTINUOUS
 62
     7
  5
50C
 10
211.790417
 20
325.88025
 30
0.0
 40
2.5
  1
3.   TYPE "P" MARKER INSTALLATION:
  7
MONOTXT
 11
211.790417
 21
328.38025
 31
0.0
210
0.0
220
0.0
230
1.0
 73
     3
  0
TEXT
  8
1
  6
CONTINUOUS
 62
     7
  5
50D
 10
211.790417
 20
321.38025
 30
0.0
 40
2.5
  1
 
  7
MONOTXT
 11
211.790417
 21
323.88025
 31
0.0
210
0.0
220
0.0
230
1.0
 73
     3
  0
TEXT
  8
1
  6
CONTINUOUS
 62
     7
  5
50E
 10
211.790417
 20
316.88025
 30
0.0
 40
2.5
  1
   (A)   THE PAVEMENT SHALL BE SAW CUT TO THE DIMENSIONS SHOWN IN
  7
MONOTXT
 11
211.790417
 21
319.38025
 31
0.0
210
0.0
220
0.0
230
1.0
 73
     3
  0
TEXT
  8
1
  6
CONTINUOUS
 62
     7
  5
50F
 10
211.790417
 20
312.38025
 30
0.0
 40
2.5
  1
       OUTLINE AT LEFT.
  7
MONOTXT
 11
211.790417
 21
314.88025
 31
0.0
210
0.0
220
0.0
230
1.0
 73
     3
  0
TEXT
  8
1
  6
CONTINUOUS
 62
     7
  5
510
 10
211.790417
 20
307.88025
 30
0.0
 40
2.5
  1
 
  7
MONOTXT
 11
211.790417
 21
310.38025
 31
0.0
210
0.0
220
0.0
230
1.0
 73
     3
  0
TEXT
  8
1
  6
CONTINUOUS
 62
     7
  5
511
 10
211.790417
 20
303.38025
 30
0.0
 40
2.5
  1
   (B)   A 65 HORSEPOWER CONCRETE SAW IS RECOMMENDED FOR MAKING THE
  7
MONOTXT
 11
211.790417
 21
305.88025
 31
0.0
210
0.0
220
0.0
230
1.0
 73
     3
  0
TEXT
  8
1
  6
CONTINUOUS
 62
     7
  5
512
 10
211.790417
 20
298.88025
 30
0.0
 40
2.5
  1
       REQUIRED SAW CUT.
  7
MONOTXT
 11
211.790417
 21
301.38025
 31
0.0
210
0.0
220
0.0
230
1.0
 73
     3
  0
TEXT
  8
1
  6
CONTINUOUS
 62
     7
  5
513
 10
211.790417
 20
294.38025
 30
0.0
 40
2.5
  1
 
  7
MONOTXT
 11
211.790417
 21
296.88025
 31
0.0
210
0.0
220
0.0
230
1.0
 73
     3
  0
TEXT
  8
1
  6
CONTINUOUS
 62
     7
  5
514
 10
211.790417
 20
289.88025
 30
0.0
 40
2.5
  1
   (C)   THE CONCRETE SAW SHALL BE FITTED WITH A GANG OF 18.0 INCH
  7
MONOTXT
 11
211.790417
 21
292.38025
 31
0.0
210
0.0
220
0.0
230
1.0
 73
     3
  0
TEXT
  8
1
  6
CONTINUOUS
 62
     7
  5
515
 10
211.790417
 20
285.38025
 30
0.0
 40
2.5
  1
       DIAMETER CONCRETE SAW BLADES, BORDERED BY 20.0 INCH DIAMETER
  7
MONOTXT
 11
211.790417
 21
287.88025
 31
0.0
210
0.0
220
0.0
230
1.0
 73
     3
  0
TEXT
  8
1
  6
CONTINUOUS
 62
     7
  5
516
 10
211.790417
 20
280.88025
 30
0.0
 40
2.5
  1
       BLADES AT EACH END.
  7
MONOTXT
 11
211.790417
 21
283.38025
 31
0.0
210
0.0
220
0.0
230
1.0
 73
     3
  0
TEXT
  8
1
  6
CONTINUOUS
 62
     7
  5
517
 10
211.790417
 20
276.38025
 30
0.0
 40
2.5
  1
 
  7
MONOTXT
 11
211.790417
 21
278.88025
 31
0.0
210
0.0
220
0.0
230
1.0
 73
     3
  0
TEXT
  8
1
  6
CONTINUOUS
 62
     7
  5
518
 10
211.790417
 20
271.88025
 30
0.0
 40
2.5
  1
   (D)   EACH CUT SHOULD BE INSPECTED FOR PROPER FIT OF THE MARKER.
  7
MONOTXT
 11
211.790417
 21
274.38025
 31
0.0
210
0.0
220
0.0
230
1.0
 73
     3
  0
TEXT
  8
1
  6
CONTINUOUS
 62
     7
  5
519
 10
211.790417
 20
267.38025
 30
0.0
 40
2.5
  1
 
  7
MONOTXT
 11
211.790417
 21
269.88025
 31
0.0
210
0.0
220
0.0
230
1.0
 73
     3
  0
TEXT
  8
1
  6
CONTINUOUS
 62
     7
  5
51A
 10
211.790417
 20
262.88025
 30
0.0
 40
2.5
  1
       - THE CASTING SHOULD HAVE APPROXIMATELY  1/8  INCH CLEARANCE (SIDE TO
  7
MONOTXT
 11
211.790417
 21
265.38025
 31
0.0
210
0.0
220
0.0
230
1.0
 73
     3
  0
TEXT
  8
1
  6
CONTINUOUS
 62
     7
  5
51B
 10
211.790417
 20
258.38025
 30
0.0
 40
2.5
  1
         SIDE MOVEMENT) WHEN INSERTED INTO THE CUT.
  7
MONOTXT
 11
211.790417
 21
260.88025
 31
0.0
210
0.0
220
0.0
230
1.0
 73
     3
  0
TEXT
  8
1
  6
CONTINUOUS
 62
     7
  5
51C
 10
211.790417
 20
253.88025
 30
0.0
 40
2.5
  1
 
  7
MONOTXT
 11
211.790417
 21
256.38025
 31
0.0
210
0.0
220
0.0
230
1.0
 73
     3
  0
TEXT
  8
1
  6
CONTINUOUS
 62
     7
  5
51D
 10
211.790417
 20
249.38025
 30
0.0
 40
2.5
  1
       - ALL FOUR LEVELING LUGS MUST CONTACT THE PAVEMENT.
  7
MONOTXT
 11
211.790417
 21
251.88025
 31
0.0
210
0.0
220
0.0
230
1.0
 73
     3
  0
TEXT
  8
1
  6
CONTINUOUS
 62
     7
  5
51E
 10
211.790417
 20
244.88025
 30
0.0
 40
2.5
  1
 
  7
MONOTXT
 11
211.790417
 21
247.38025
 31
0.0
210
0.0
220
0.0
230
1.0
 73
     3
  0
TEXT
  8
1
  6
CONTINUOUS
 62
     7
  5
51F
 10
211.790417
 20
240.38025
 30
0.0
 40
2.5
  1
       - THE LEADING EDGES OF THE CASTING MUST LIE BELOW THE PAVEMENT
  7
MONOTXT
 11
211.790417
 21
242.88025
 31
0.0
210
0.0
220
0.0
230
1.0
 73
     3
  0
TEXT
  8
1
  6
CONTINUOUS
 62
     7
  5
520
 10
211.790417
 20
235.88025
 30
0.0
 40
2.5
  1
         SURFACE.
  7
MONOTXT
 11
211.790417
 21
238.38025
 31
0.0
210
0.0
220
0.0
230
1.0
 73
     3
  0
TEXT
  8
1
  6
CONTINUOUS
 62
     7
  5
521
 10
211.790417
 20
231.38025
 30
0.0
 40
2.5
  1
 
  7
MONOTXT
 11
211.790417
 21
233.88025
 31
0.0
210
0.0
220
0.0
230
1.0
 73
     3
  0
TEXT
  8
1
  6
CONTINUOUS
 62
     7
  5
522
 10
211.790417
 20
226.88025
 30
0.0
 40
2.5
  1
   (E)   THE SAW CUT AREA MUST BE DRY AND FREE OF DUST, DIRT OR ANY MATERIAL
  7
MONOTXT
 11
211.790417
 21
229.38025
 31
0.0
210
0.0
220
0.0
230
1.0
 73
     3
  0
TEXT
  8
1
  6
CONTINUOUS
 62
     7
  5
523
 10
211.790417
 20
222.38025
 30
0.0
 40
2.5
  1
       WHICH WILL ADVERSELY AFFECT THE BOND OF THE ADHESIVE.
  7
MONOTXT
 11
211.790417
 21
224.88025
 31
0.0
210
0.0
220
0.0
230
1.0
 73
     3
  0
TEXT
  8
1
  6
CONTINUOUS
 62
     7
  5
524
 10
211.790417
 20
217.88025
 30
0.0
 40
2.5
  1
 
  7
MONOTXT
 11
211.790417
 21
220.38025
 31
0.0
210
0.0
220
0.0
230
1.0
 73
     3
  0
TEXT
  8
1
  6
CONTINUOUS
 62
     7
  5
525
 10
211.790417
 20
213.38025
 30
0.0
 40
2.5
  1
   (F)  THE SURFACE OF THE KEEL AND WEB SHALL BE FREE OF SCALE, DIRT, RUST,
  7
MONOTXT
 11
211.790417
 21
215.88025
 31
0.0
210
0.0
220
0.0
230
1.0
 73
     3
  0
TEXT
  8
1
  6
CONTINUOUS
 62
     7
  5
526
 10
211.790417
 20
208.88025
 30
0.0
 40
2.5
  1
       OIL, GREASE OR ANY OTHER CONTAMINANT WHICH MIGHT REDUCE ITS BOND
  7
MONOTXT
 11
211.790417
 21
211.38025
 31
0.0
210
0.0
220
0.0
230
1.0
 73
     3
  0
TEXT
  8
1
  6
CONTINUOUS
 62
     7
  5
527
 10
211.790417
 20
204.38025
 30
0.0
 40
2.5
  1
       TO THE EPOXY ADHESIVE.
  7
MONOTXT
 11
211.790417
 21
206.88025
 31
0.0
210
0.0
220
0.0
230
1.0
 73
     3
  0
TEXT
  8
1
  6
CONTINUOUS
 62
     7
  5
528
 10
211.790417
 20
199.88025
 30
0.0
 40
2.5
  1
 
  7
MONOTXT
 11
211.790417
 21
202.38025
 31
0.0
210
0.0
220
0.0
230
1.0
 73
     3
  0
TEXT
  8
1
  6
CONTINUOUS
 62
     7
  5
529
 10
211.790417
 20
195.38025
 30
0.0
 40
2.5
  1
   (G)   INSTALL THE MARKER WITH A MANUFACTURER'S APPROVED TWO COMPONENT
  7
MONOTXT
 11
211.790417
 21
197.88025
 31
0.0
210
0.0
220
0.0
230
1.0
 73
     3
  0
TEXT
  8
1
  6
CONTINUOUS
 62
     7
  5
52A
 10
211.790417
 20
190.88025
 30
0.0
 40
2.5
  1
       EPOXY ADHESIVE, BY FIRST FILLING THE SAW CUT TO WITHIN APPROXIMATELY
  7
MONOTXT
 11
211.790417
 21
193.38025
 31
0.0
210
0.0
220
0.0
230
1.0
 73
     3
  0
TEXT
  8
1
  6
CONTINUOUS
 62
     7
  5
52B
 10
211.790417
 20
186.38025
 30
0.0
 40
2.5
  1
        3/8  INCH OF PAVEMENT SURFACE AND THEN PLACING THE MARKER BY HAND
  7
MONOTXT
 11
211.790417
 21
188.88025
 31
0.0
210
0.0
220
0.0
230
1.0
 73
     3
  0
TEXT
  8
1
  6
CONTINUOUS
 62
     7
  5
52C
 10
211.790417
 20
181.88025
 30
0.0
 40
2.5
  1
       INTO THE EPOXY FILLED SAW CUT. AFTER PLACEMENT OF MARKER. EPOXY
  7
MONOTXT
 11
211.790417
 21
184.38025
 31
0.0
210
0.0
220
0.0
230
1.0
 73
     3
  0
TEXT
  8
1
  6
CONTINUOUS
 62
     7
  5
52D
 10
211.790417
 20
177.38025
 30
0.0
 40
2.5
  1
       SHOULD BE FLUSH TO SLIGHTLY BELOW PAVEMENT SURFACE. EPOXY SHOULD
  7
MONOTXT
 11
211.790417
 21
179.88025
 31
0.0
210
0.0
220
0.0
230
1.0
 73
     3
  0
TEXT
  8
1
  6
CONTINUOUS
 62
     7
  5
52E
 10
211.790417
 20
172.88025
 30
0.0
 40
2.5
  1
       NOT BE ALLOWED TO BUILD UP IN FRONT OF MARKER LENS.
  7
MONOTXT
 11
211.790417
 21
175.38025
 31
0.0
210
0.0
220
0.0
230
1.0
 73
     3
  0
TEXT
  8
1
  6
CONTINUOUS
 62
     7
  5
52F
 10
211.790417
 20
168.38025
 30
0.0
 40
2.5
  1
 
  7
MONOTXT
 11
211.790417
 21
170.88025
 31
0.0
210
0.0
220
0.0
230
1.0
 73
     3
  0
TEXT
  8
1
  6
CONTINUOUS
 62
     7
  5
530
 10
211.790417
 20
163.88025
 30
0.0
 40
2.5
  1
   (H)   MARKER IS TO BE SET IN SAW CUT IMMEDIATELY AFTER APPLICATION OF ADHESIVE
  7
MONOTXT
 11
211.790417
 21
166.38025
 31
0.0
210
0.0
220
0.0
230
1.0
 73
     3
  0
TEXT
  8
1
  6
CONTINUOUS
 62
     7
  5
531
 10
211.790417
 20
159.38025
 30
0.0
 40
2.5
  1
       AND MUST BE PROTECTED FROM TRAFFIC A MINIMUM OF 30 MINUTES OR UNTIL
  7
MONOTXT
 11
211.790417
 21
161.88025
 31
0.0
210
0.0
220
0.0
230
1.0
 73
     3
  0
TEXT
  8
1
  6
CONTINUOUS
 62
     7
  5
532
 10
211.790417
 20
154.88025
 30
0.0
 40
2.5
  1
       ADHESIVE HAS PROPERLY HARDENED.
  7
MONOTXT
 11
211.790417
 21
157.38025
 31
0.0
210
0.0
220
0.0
230
1.0
 73
     3
  0
TEXT
  8
61
  6
CONTINUOUS
 62
     7
  5
533
 10
481.5605
 20
356.2655
 30
0.0
 40
2.401333
  1
WV
 50
0.029406
 41
0.996495
  7
MONOTXT
210
0.0
220
0.0
230
1.0
  0
LINE
  8
61
  6
CONTINUOUS
 62
     7
  5
534
 10
498.865083
 20
372.411
 30
0.0
 11
498.865083
 21
362.407333
 31
0.0
  0
LINE
  8
61
  6
CONTINUOUS
 62
     7
  5
535
 10
498.865083
 20
362.407333
 30
0.0
 11
498.865083
 21
352.411
 31
0.0
  0
LINE
  8
61
  6
CONTINUOUS
 62
     7
  5
536
 10
512.545083
 20
372.411
 30
0.0
 11
512.545083
 21
362.40475
 31
0.0
  0
LINE
  8
61
  6
CONTINUOUS
 62
     7
  5
537
 10
512.545083
 20
362.40475
 30
0.0
 11
512.545083
 21
352.411
 31
0.0
  0
LINE
  8
61
  6
CONTINUOUS
 62
     7
  5
538
 10
534.865083
 20
372.411
 30
0.0
 11
534.865083
 21
362.400667
 31
0.0
  0
LINE
  8
61
  6
CONTINUOUS
 62
     7
  5
539
 10
534.865083
 20
362.400667
 30
0.0
 11
534.865083
 21
352.411
 31
0.0
  0
LINE
  8
61
  6
CONTINUOUS
 62
     7
  5
53A
 10
498.865083
 20
352.414667
 30
0.0
 11
478.865083
 21
352.411
 31
0.0
  0
LINE
  8
61
  6
CONTINUOUS
 62
     7
  5
53B
 10
586.845083
 20
352.431
 30
0.0
 11
534.865083
 21
352.421417
 31
0.0
  0
LINE
  8
61
  6
CONTINUOUS
 62
     7
  5
53C
 10
534.865083
 20
352.421333
 30
0.0
 11
498.865083
 21
352.414667
 31
0.0
  0
LINE
  8
61
  6
CONTINUOUS
 62
     7
  5
53D
 10
586.865083
 20
362.391
 30
0.0
 11
534.865083
 21
362.400583
 31
0.0
  0
LINE
  8
61
  6
CONTINUOUS
 62
     7
  5
53E
 10
534.865083
 20
362.400667
 30
0.0
 11
478.845083
 21
362.411
 31
0.0
  0
TEXT
  8
61
  6
CONTINUOUS
 62
     7
  5
53F
 10
491.995833
 20
356.134167
 30
0.0
 40
2.401333
  1
06
 50
0.029406
 41
0.996495
  7
MONOTXT
210
0.0
220
0.0
230
1.0
  0
TEXT
  8
61
  6
CONTINUOUS
 62
     7
  5
540
 10
501.52175
 20
359.41825
 30
0.0
 40
2.401333
  1
S335
 50
0.029406
 41
0.996495
  7
MONOTXT
210
0.0
220
0.0
230
1.0
  0
TEXT
  8
61
  6
CONTINUOUS
 62
     7
  5
541
 10
501.58675
 20
356.134083
 30
0.0
 40
2.401333
  1
-70-
 50
0.029406
 41
0.996495
  7
MONOTXT
210
0.0
220
0.0
230
1.0
  0
TEXT
  8
61
  6
CONTINUOUS
 62
     7
  5
542
 10
535.928417
 20
356.265417
 30
0.0
 40
2.401333
  1
1994
 50
0.029406
 41
0.996495
  7
MONOTXT
210
0.0
220
0.0
230
1.0
  0
TEXT
  8
1
  6
CONTINUOUS
 62
     7
  5
543
 10
423.37625
 20
71.458833
 30
0.0
 40
4.0
  1
MT-6
  7
txt
 72
     4
 11
430.075
 21
73.458833
 31
0.0
210
0.0
220
0.0
230
1.0
  0
TEXT
  8
61
  6
CONTINUOUS
 62
     7
  5
544
 10
501.867583
 20
352.993417
 30
0.0
 40
2.401333
  1
5.37
 50
0.029406
 41
0.996495
  7
MONOTXT
210
0.0
220
0.0
230
1.0
  0
TEXT
  8
61
  6
CONTINUOUS
 62
     7
  5
545
 10
517.414583
 20
358.583583
 30
0.0
 40
2.0
  1
NH-0701
 50
0.029406
  7
MONOTXT
 72
     4
 11
523.445569
 21
359.586679
 31
0.0
210
0.0
220
0.0
230
1.0
  0
TEXT
  8
61
  6
CONTINUOUS
 62
     7
  5
546
 10
518.532417
 20
354.605667
 30
0.0
 40
2.0
  1
(093)E
 50
0.029406
  7
MONOTXT
 72
     4
 11
523.342903
 21
355.608136
 31
0.0
210
0.0
220
0.0
230
1.0
  0
TEXT
  8
61
  6
CONTINUOUS
 62
     7
  5
547
 10
552.982333
 20
356.59575
 30
0.0
 40
2.0
  1
OHIO
 50
0.029406
  7
MONOTXT
 72
     4
 11
556.154986
 21
357.597378
 31
0.0
210
0.0
220
0.0
230
1.0
  0
ENDSEC
  0
EOF
