  0
SECTION
  2
HEADER
  9
$ACADVER
  1
AC1009
  9
$INSBASE
 10
0.0
 20
0.0
 30
0.0
  9
$EXTMIN
 10
-0.011917
 20
-0.00175
 30
0.0
  9
$EXTMAX
 10
668.125417
 20
429.559417
 30
0.0
  9
$LIMMIN
 10
0.0
 20
0.0
  9
$LIMMAX
 10
12.0
 20
9.0
  9
$ORTHOMODE
 70
     0
  9
$REGENMODE
 70
     1
  9
$FILLMODE
 70
     1
  9
$QTEXTMODE
 70
     0
  9
$MIRRTEXT
 70
     1
  9
$DRAGMODE
 70
     2
  9
$LTSCALE
 40
1.0
  9
$OSMODE
 70
     0
  9
$ATTMODE
 70
     1
  9
$TEXTSIZE
 40
0.2
  9
$TRACEWID
 40
0.05
  9
$TEXTSTYLE
  7
STANDARD
  9
$CLAYER
  8
0
  9
$CELTYPE
  6
CONTINUOUS
  9
$CECOLOR
 62
   256
  9
$DIMSCALE
 40
1.0
  9
$DIMASZ
 40
0.18
  9
$DIMEXO
 40
0.0625
  9
$DIMDLI
 40
0.38
  9
$DIMRND
 40
0.0
  9
$DIMDLE
 40
0.0
  9
$DIMEXE
 40
0.18
  9
$DIMTP
 40
0.0
  9
$DIMTM
 40
0.0
  9
$DIMTXT
 40
0.18
  9
$DIMCEN
 40
0.09
  9
$DIMTSZ
 40
0.0
  9
$DIMTOL
 70
     0
  9
$DIMLIM
 70
     0
  9
$DIMTIH
 70
     1
  9
$DIMTOH
 70
     1
  9
$DIMSE1
 70
     0
  9
$DIMSE2
 70
     0
  9
$DIMTAD
 70
     0
  9
$DIMZIN
 70
     0
  9
$DIMBLK
  1

  9
$DIMASO
 70
     1
  9
$DIMSHO
 70
     1
  9
$DIMPOST
  1

  9
$DIMAPOST
  1

  9
$DIMALT
 70
     0
  9
$DIMALTD
 70
     2
  9
$DIMALTF
 40
25.4
  9
$DIMLFAC
 40
1.0
  9
$DIMTOFL
 70
     0
  9
$DIMTVP
 40
0.0
  9
$DIMTIX
 70
     0
  9
$DIMSOXD
 70
     0
  9
$DIMSAH
 70
     0
  9
$DIMBLK1
  1

  9
$DIMBLK2
  1

  9
$DIMSTYLE
  2
STANDARD
  9
$DIMCLRD
 70
     0
  9
$DIMCLRE
 70
     0
  9
$DIMCLRT
 70
     0
  9
$DIMTFAC
 40
1.0
  9
$DIMGAP
 40
0.09
  9
$LUNITS
 70
     2
  9
$LUPREC
 70
     4
  9
$AXISMODE
 70
     0
  9
$AXISUNIT
 10
0.0
 20
0.0
  9
$SKETCHINC
 40
0.1
  9
$FILLETRAD
 40
0.0
  9
$AUNITS
 70
     0
  9
$AUPREC
 70
     0
  9
$MENU
  1
acad
  9
$ELEVATION
 40
0.0
  9
$PELEVATION
 40
0.0
  9
$THICKNESS
 40
0.0
  9
$LIMCHECK
 70
     0
  9
$BLIPMODE
 70
     1
  9
$CHAMFERA
 40
0.0
  9
$CHAMFERB
 40
0.0
  9
$SKPOLY
 70
     0
  9
$TDCREATE
 40
2451803.438668982
  9
$TDUPDATE
 40
2451803.438668982
  9
$TDINDWG
 40
0.0000000000
  9
$TDUSRTIMER
 40
0.0000000000
  9
$USRTIMER
 70
     1
  9
$ANGBASE
 50
0.0
  9
$ANGDIR
 70
     0
  9
$PDMODE
 70
     0
  9
$PDSIZE
 40
0.0
  9
$PLINEWID
 40
0.0
  9
$COORDS
 70
     0
  9
$SPLFRAME
 70
     0
  9
$SPLINETYPE
 70
     6
  9
$SPLINESEGS
 70
    10
  9
$ATTDIA
 70
     0
  9
$ATTREQ
 70
     1
  9
$HANDLING
 70
     1
  9
$HANDSEED
  5
644
  9
$SURFTAB1
 70
     6
  9
$SURFTAB2
 70
     6
  9
$SURFTYPE
 70
     6
  9
$SURFU
 70
     6
  9
$SURFV
 70
     6
  9
$UCSNAME
  2

  9
$UCSORG
 10
0.0
 20
0.0
 30
0.0
  9
$UCSXDIR
 10
1.0
 20
0.0
 30
0.0
  9
$UCSYDIR
 10
0.0
 20
1.0
 30
0.0
  9
$PUCSNAME
  2

  9
$PUCSORG
 10
0.0
 20
0.0
 30
0.0
  9
$PUCSXDIR
 10
1.0
 20
0.0
 30
0.0
  9
$PUCSYDIR
 10
0.0
 20
1.0
 30
0.0
  9
$USERI1
 70
     0
  9
$USERI2
 70
     0
  9
$USERI3
 70
     0
  9
$USERI4
 70
     0
  9
$USERI5
 70
     0
  9
$USERR1
 40
0.0
  9
$USERR2
 40
0.0
  9
$USERR3
 40
0.0
  9
$USERR4
 40
0.0
  9
$USERR5
 40
0.0
  9
$WORLDVIEW
 70
     1
  9
$SHADEDGE
 70
     3
  9
$SHADEDIF
 70
    70
  9
$TILEMODE
 70
     1
  9
$MAXACTVP
 70
    16
  9
$PINSBASE
 10
0.0
 20
0.0
 30
0.0
  9
$PLIMCHECK
 70
     0
  9
$PEXTMIN
 10
-1.000000E+20
 20
-1.000000E+20
 30
-1.000000E+20
  9
$PEXTMAX
 10
-1.000000E+20
 20
-1.000000E+20
 30
-1.000000E+20
  9
$PLIMMIN
 10
0.0
 20
0.0
  9
$PLIMMAX
 10
12.0
 20
9.0
  9
$UNITMODE
 70
     0
  9
$VISRETAIN
 70
     0
  9
$PLINEGEN
 70
     1
  9
$PSLTSCALE
 70
     0
  9
$TREEDEPTH
 70
  3020
  9
$DWGCODEPAGE
  3
ansi_1252
  0
ENDSEC
  0
SECTION
  2
TABLES
  0
TABLE
  2
VPORT
 70
     1
  0
VPORT
  2
*ACTIVE
 70
     0
 10
0.0
 20
0.0
 11
1.0
 21
1.0
 12
0.0
 22
0.0
 13
0.0
 23
0.0
 14
0.0
 24
0.0
 15
0.0
 25
0.0
 16
0.0
 26
0.0
 36
1.0
 17
295.966559
 27
219.539417
 37
0.0
 40
451.041
 41
1.797066
 42
50.0
 43
0.0
 44
0.0
 50
0.0
 51
0.0
 71
     0
 72
   100
 73
     1
 74
     0
 75
     0
 76
     0
 77
     0
 78
     0
  0
ENDTAB
  0
TABLE
  2
LTYPE
 70
     7
  0
LTYPE
  2
CONTINUOUS
 70
     0
  3
Solid line
 72
    65
 73
     0
 40
0.0
  0
LTYPE
  2
DOT
 70
    64
  3
. . . . . . . . . . . . . . . . . . . . . . . . . . . . . . . . .
 72
    65
 73
     2
 40
0.25
 49
0.0
 49
-0.25
  0
LTYPE
  2
HIDDEN
 70
    64
  3
__ __ __ __ __ __ __ __ __ __ __ __ __ __ __ __ __ __ __ __ __ 
 72
    65
 73
     2
 40
0.375
 49
0.25
 49
-0.125
  0
LTYPE
  2
DASHED
 70
    64
  3
__ __ __ __ __ __ __ __ __ __ __ __ __ __ __ __ __ __ __ __ __
 72
    65
 73
     2
 40
0.75
 49
0.5
 49
-0.25
  0
LTYPE
  2
DASHDOT
 70
    64
  3
__ . __ . __ . __ . __ . __ . __ . __ . __ . __ . __ . __ . _
 72
    65
 73
     4
 40
1.0
 49
0.5
 49
-0.25
 49
0.0
 49
-0.25
  0
LTYPE
  2
DIVIDE
 70
    64
  3
____ . . ____ . . ____ . . ____ . . ____ . . ____ . . ____ . .
 72
    65
 73
     6
 40
1.25
 49
0.5
 49
-0.25
 49
0.0
 49
-0.25
 49
0.0
 49
-0.25
  0
LTYPE
  2
CENTER
 70
    64
  3
____ _ ____ _ ____ _ ____ _ ____ _ ____ _ ____ _ ____ _ ____ _
 72
    65
 73
     4
 40
2.0
 49
1.25
 49
-0.25
 49
0.25
 49
-0.25
  0
ENDTAB
  0
TABLE
  2
LAYER
 70
     5
  0
LAYER
  2
0
 70
     0
 62
     7
  6
CONTINUOUS
  0
LAYER
  2
CONSTRUCTION_CLASS
 70
     0
 62
     7
  6
CONTINUOUS
  0
LAYER
  2
PATTERN_CLASS
 70
     0
 62
     7
  6
CONTINUOUS
  0
LAYER
  2
61
 70
    64
 62
     7
  6
CONTINUOUS
  0
LAYER
  2
1
 70
    64
 62
     7
  6
CONTINUOUS
  0
ENDTAB
  0
TABLE
  2
STYLE
 70
     4
  0
STYLE
  2
STANDARD
 70
     0
 40
0.0
 41
1.0
 50
0.0
 71
     0
 42
0.0
  3
txt
  4

  0
STYLE
  2
MONOTXT
 70
     0
 40
0.2
 41
1.0
 50
0.0
 71
     0
 42
0.2
  3
MONOTXT
  4

  0
STYLE
  2
txt
 70
     0
 40
0.2
 41
1.0
 50
0.0
 71
     0
 42
0.2
  3
TXT
  4

  0
STYLE
  2
ROMANT
 70
     0
 40
0.2
 41
1.0
 50
0.0
 71
     0
 42
0.2
  3
ROMANT
  4

  0
ENDTAB
  0
TABLE
  2
VIEW
 70
     0
  0
ENDTAB
  0
TABLE
  2
UCS
 70
     0
  0
ENDTAB
  0
TABLE
  2
APPID
 70
     1
  0
APPID
  2
ACAD
 70
     0
  0
ENDTAB
  0
TABLE
  2
DIMSTYLE
 70
     1
  0
DIMSTYLE
  2
STANDARD
 70
     0
  3

  4

  5

  6

  7

 40
1.0
 41
0.18
 42
0.0625
 43
0.38
 44
0.18
 45
0.0
 46
0.0
 47
0.0
 48
0.0
140
0.18
141
0.09
142
0.0
143
25.4
144
1.0
145
0.0
146
1.0
147
0.09
 71
     0
 72
     0
 73
     1
 74
     1
 75
     0
 76
     0
 77
     0
 78
     0
170
     0
171
     2
172
     0
173
     0
174
     0
175
     0
176
     0
177
     0
178
     0
  0
ENDTAB
  0
ENDSEC
  0
SECTION
  2
BLOCKS
  0
BLOCK
  8
1
  6
CONTINUOUS
 62
     1
  5
1AB
  2
LDR
 70
     0
 10
0.0
 20
0.0
 30
0.0
  3
LNR
  0
POLYLINE
  8
1
  6
CONTINUOUS
 62
     1
  5
1AC
 66
     1
 10
0.0
 20
0.0
 30
0.0
210
0.0
220
0.0
230
1.0
  0
VERTEX
  8
1
  6
CONTINUOUS
 62
     1
  5
1AD
 10
-0.011987
 20
-0.001802
 30
0.0
 42
-0.265147
  0
VERTEX
  8
1
  6
CONTINUOUS
 62
     1
  5
1AE
 10
-0.011849
 20
-0.001604
 30
0.0
 42
-0.064653
  0
VERTEX
  8
1
  6
CONTINUOUS
 62
     1
  5
1AF
 10
-0.011407
 20
-0.001387
 30
0.0
 42
-0.025822
  0
VERTEX
  8
1
  6
CONTINUOUS
 62
     1
  5
1B0
 10
-0.010681
 20
-0.00116
 30
0.0
 42
-0.014504
  0
VERTEX
  8
1
  6
CONTINUOUS
 62
     1
  5
1B1
 10
-0.0097
 20
-0.000933
 30
0.0
 42
-0.009896
  0
VERTEX
  8
1
  6
CONTINUOUS
 62
     1
  5
1B2
 10
-0.008505
 20
-0.000715
 30
0.0
 42
-0.007708
  0
VERTEX
  8
1
  6
CONTINUOUS
 62
     1
  5
1B3
 10
-0.007146
 20
-0.000515
 30
0.0
 42
-0.006655
  0
VERTEX
  8
1
  6
CONTINUOUS
 62
     1
  5
1B4
 10
-0.005679
 20
-0.000342
 30
0.0
 42
-0.006278
  0
VERTEX
  8
1
  6
CONTINUOUS
 62
     1
  5
1B5
 10
-0.004164
 20
-0.000202
 30
0.0
 42
-0.006439
  0
VERTEX
  8
1
  6
CONTINUOUS
 62
     1
  5
1B6
 10
-0.002666
 20
-0.000101
 30
0.0
 42
-0.007196
  0
VERTEX
  8
1
  6
CONTINUOUS
 62
     1
  5
1B7
 10
-0.001246
 20
-0.000044
 30
0.0
 42
-0.008852
  0
VERTEX
  8
1
  6
CONTINUOUS
 62
     1
  5
1B8
 10
0.000037
 20
-0.000034
 30
0.0
 42
-0.008852
  0
SEQEND
  8
1
  6
CONTINUOUS
 62
     1
  5
1B9
  0
POLYLINE
  8
1
  6
CONTINUOUS
 62
     1
  5
1BA
 66
     1
 10
0.0
 20
0.0
 30
0.0
210
0.0
220
0.0
230
1.0
  0
VERTEX
  8
1
  6
CONTINUOUS
 62
     1
  5
1BB
 10
0.000039
 20
0.000014
 30
0.0
 42
-0.005019
  0
VERTEX
  8
1
  6
CONTINUOUS
 62
     1
  5
1BC
 10
-0.001103
 20
0.000071
 30
0.0
 42
-0.004038
  0
VERTEX
  8
1
  6
CONTINUOUS
 62
     1
  5
1BD
 10
-0.002373
 20
0.000158
 30
0.0
 42
-0.003548
  0
VERTEX
  8
1
  6
CONTINUOUS
 62
     1
  5
1BE
 10
-0.003725
 20
0.00027
 30
0.0
 42
-0.003367
  0
VERTEX
  8
1
  6
CONTINUOUS
 62
     1
  5
1BF
 10
-0.005111
 20
0.000405
 30
0.0
 42
-0.003436
  0
VERTEX
  8
1
  6
CONTINUOUS
 62
     1
  5
1C0
 10
-0.006481
 20
0.000556
 30
0.0
 42
-0.003778
  0
VERTEX
  8
1
  6
CONTINUOUS
 62
     1
  5
1C1
 10
-0.007786
 20
0.00072
 30
0.0
 42
-0.00451
  0
VERTEX
  8
1
  6
CONTINUOUS
 62
     1
  5
1C2
 10
-0.008979
 20
0.000889
 30
0.0
 42
-0.00594
  0
VERTEX
  8
1
  6
CONTINUOUS
 62
     1
  5
1C3
 10
-0.010018
 20
0.001058
 30
0.0
 42
-0.008921
  0
VERTEX
  8
1
  6
CONTINUOUS
 62
     1
  5
1C4
 10
-0.010864
 20
0.00122
 30
0.0
 42
-0.016392
  0
VERTEX
  8
1
  6
CONTINUOUS
 62
     1
  5
1C5
 10
-0.011488
 20
0.001371
 30
0.0
 42
-0.04458
  0
VERTEX
  8
1
  6
CONTINUOUS
 62
     1
  5
1C6
 10
-0.011867
 20
0.001503
 30
0.0
 42
-0.317392
  0
VERTEX
  8
1
  6
CONTINUOUS
 62
     1
  5
1C7
 10
-0.011987
 20
0.001614
 30
0.0
 42
-0.317392
  0
SEQEND
  8
1
  6
CONTINUOUS
 62
     1
  5
1C8
  0
ENDBLK
  8
1
  6
CONTINUOUS
 62
     1
  5
1C9
  0
ENDSEC
  0
SECTION
  2
ENTITIES
  0
LINE
  8
61
  6
CONTINUOUS
 62
     1
  5
29
 10
667.916167
 20
429.559417
 30
0.0
 11
28.876167
 21
429.559417
 31
0.0
  0
LINE
  8
61
  6
CONTINUOUS
 62
     1
  5
2A
 10
28.876167
 20
429.559417
 30
0.0
 11
28.876167
 21
9.539417
 31
0.0
  0
LINE
  8
61
  6
CONTINUOUS
 62
     1
  5
2B
 10
667.936167
 20
9.519417
 30
0.0
 11
28.876167
 21
9.539417
 31
0.0
  0
LINE
  8
61
  6
CONTINUOUS
 62
     1
  5
2C
 10
667.916167
 20
429.559417
 30
0.0
 11
667.936167
 21
9.519417
 31
0.0
  0
LINE
  8
61
  6
CONTINUOUS
 62
     7
  5
2D
 10
661.816167
 20
424.819417
 30
0.0
 11
553.836167
 21
424.799417
 31
0.0
  0
LINE
  8
61
  6
CONTINUOUS
 62
     7
  5
2E
 10
553.836167
 20
424.799417
 30
0.0
 11
553.836167
 21
404.799417
 31
0.0
  0
LINE
  8
61
  6
CONTINUOUS
 62
     7
  5
2F
 10
661.816167
 20
424.819417
 30
0.0
 11
661.816167
 21
404.819417
 31
0.0
  0
LINE
  8
61
  6
CONTINUOUS
 62
     7
  5
30
 10
661.816167
 20
404.819417
 30
0.0
 11
553.836167
 21
404.799417
 31
0.0
  0
LINE
  8
61
  6
CONTINUOUS
 62
     7
  5
31
 10
661.836167
 20
414.779417
 30
0.0
 11
553.816167
 21
414.799417
 31
0.0
  0
LINE
  8
61
  6
CONTINUOUS
 62
     7
  5
32
 10
563.836167
 20
424.799417
 30
0.0
 11
563.836167
 21
404.799417
 31
0.0
  0
LINE
  8
61
  6
CONTINUOUS
 62
     7
  5
33
 10
573.836167
 20
424.799417
 30
0.0
 11
573.836167
 21
404.799417
 31
0.0
  0
LINE
  8
61
  6
CONTINUOUS
 62
     7
  5
34
 10
587.516167
 20
424.799417
 30
0.0
 11
587.516167
 21
404.799417
 31
0.0
  0
LINE
  8
61
  6
CONTINUOUS
 62
     7
  5
35
 10
651.816167
 20
424.819417
 30
0.0
 11
651.816167
 21
404.819417
 31
0.0
  0
LINE
  8
61
  6
CONTINUOUS
 62
     7
  5
36
 10
641.816167
 20
424.819417
 30
0.0
 11
641.816167
 21
404.819417
 31
0.0
  0
LINE
  8
61
  6
CONTINUOUS
 62
     7
  5
37
 10
619.836167
 20
424.799417
 30
0.0
 11
619.836167
 21
404.799417
 31
0.0
  0
LINE
  8
61
  6
CONTINUOUS
 62
     7
  5
38
 10
609.836167
 20
424.799417
 30
0.0
 11
609.836167
 21
404.799417
 31
0.0
  0
TEXT
  8
61
  6
CONTINUOUS
 62
     7
  5
3A
 10
555.876167
 20
421.779417
 30
0.0
 40
1.20075
  1
PUBLIC
 50
0.033272
 41
1.001804
  7
MONOTXT
210
0.0
220
0.0
230
1.0
  0
TEXT
  8
61
  6
CONTINUOUS
 62
     7
  5
3B
 10
555.956167
 20
419.259417
 30
0.0
 40
1.20075
  1
ROADS
 50
0.124322
 41
0.996877
  7
MONOTXT
210
0.0
220
0.0
230
1.0
  0
TEXT
  8
61
  6
CONTINUOUS
 62
     7
  5
3C
 10
557.156167
 20
416.759417
 30
0.0
 40
1.20075
  1
DIV.
 50
359.931522
 41
0.994864
  7
MONOTXT
210
0.0
220
0.0
230
1.0
  0
TEXT
  8
61
  6
CONTINUOUS
 62
     7
  5
3D
 10
566.036167
 20
421.839417
 30
0.0
 40
1.20075
  1
STATE
 50
0.058969
 41
0.998196
  7
MONOTXT
210
0.0
220
0.0
230
1.0
  0
TEXT
  8
61
  6
CONTINUOUS
 62
     7
  5
3E
 10
566.916167
 20
419.339417
 30
0.0
 40
1.20075
  1
DIST.
 50
0.055889
 41
0.999584
  7
MONOTXT
210
0.0
220
0.0
230
1.0
  0
TEXT
  8
61
  6
CONTINUOUS
 62
     7
  5
3F
 10
567.496167
 20
416.819417
 30
0.0
 40
1.20075
  1
NO.
 50
359.852072
 41
0.997779
  7
MONOTXT
210
0.0
220
0.0
230
1.0
  0
TEXT
  8
61
  6
CONTINUOUS
 62
     7
  5
40
 10
578.036167
 20
421.779417
 30
0.0
 40
1.20075
  1
STATE
 50
0.058969
 41
0.998196
  7
MONOTXT
210
0.0
220
0.0
230
1.0
  0
TEXT
  8
61
  6
CONTINUOUS
 62
     7
  5
41
 10
576.956167
 20
419.359417
 30
0.0
 40
1.20075
  1
PROJECT
 50
359.908431
 41
1.000069
  7
MONOTXT
210
0.0
220
0.0
230
1.0
  0
TEXT
  8
61
  6
CONTINUOUS
 62
     7
  5
42
 10
579.696167
 20
416.819417
 30
0.0
 40
1.20075
  1
NO.
 50
0.225453
 41
0.993546
  7
MONOTXT
210
0.0
220
0.0
230
1.0
  0
TEXT
  8
61
  6
CONTINUOUS
 62
     7
  5
43
 10
595.336167
 20
420.659417
 30
0.0
 40
1.20075
  1
FEDERAL
 50
0.006714
 41
0.998543
  7
MONOTXT
210
0.0
220
0.0
230
1.0
  0
TEXT
  8
61
  6
CONTINUOUS
 62
     7
  5
44
 10
593.796167
 20
417.999417
 30
0.0
 40
1.20075
  1
PROJECT NO.
 50
359.921531
 41
1.000694
  7
MONOTXT
210
0.0
220
0.0
230
1.0
  0
TEXT
  8
61
  6
CONTINUOUS
 62
     7
  5
45
 10
612.076167
 20
420.599417
 30
0.0
 40
1.20075
  1
FISCAL
 50
359.941939
 41
0.998959
  7
MONOTXT
210
0.0
220
0.0
230
1.0
  0
TEXT
  8
61
  6
CONTINUOUS
 62
     7
  5
46
 10
612.596167
 20
417.699417
 30
0.0
 40
1.20075
  1
YEAR
 50
0.104606
 41
0.993268
  7
MONOTXT
210
0.0
220
0.0
230
1.0
  0
TEXT
  8
61
  6
CONTINUOUS
 62
     7
  5
47
 10
626.696167
 20
419.059417
 30
0.0
 40
1.20075
  1
COUNTY
 50
0.068575
 41
1.001874
  7
MONOTXT
210
0.0
220
0.0
230
1.0
  0
TEXT
  8
61
  6
CONTINUOUS
 62
     7
  5
48
 10
644.336167
 20
420.719417
 30
0.0
 40
1.20075
  1
SHEET
 50
0.058969
 41
0.997571
  7
MONOTXT
210
0.0
220
0.0
230
1.0
  0
TEXT
  8
61
  6
CONTINUOUS
 62
     7
  5
49
 10
645.756167
 20
417.999417
 30
0.0
 40
1.20075
  1
NO.
 50
359.852072
 41
0.997779
  7
MONOTXT
210
0.0
220
0.0
230
1.0
  0
TEXT
  8
61
  6
CONTINUOUS
 62
     7
  5
4A
 10
654.076167
 20
420.579417
 30
0.0
 40
1.20075
  1
TOTAL
 50
359.926039
 41
0.998543
  7
MONOTXT
210
0.0
220
0.0
230
1.0
  0
TEXT
  8
61
  6
CONTINUOUS
 62
     7
  5
4B
 10
653.616167
 20
417.879417
 30
0.0
 40
1.20075
  1
SHEETS
 50
359.958675
  7
MONOTXT
210
0.0
220
0.0
230
1.0
  0
TEXT
  8
61
  6
CONTINUOUS
 62
     7
  5
4C
 10
566.436167
 20
408.999417
 30
0.0
 40
2.401333
  1
  
 50
0.029406
 41
0.996495
  7
MONOTXT
210
0.0
220
0.0
230
1.0
  0
TEXT
  8
61
  6
CONTINUOUS
 62
     7
  5
4D
 10
643.616167
 20
408.719417
 30
0.0
 40
2.401333
  1
   
 50
0.011508
 41
1.001006
  7
MONOTXT
210
0.0
220
0.0
230
1.0
  0
TEXT
  8
61
  6
CONTINUOUS
 62
     7
  5
4E
 10
653.496167
 20
408.699417
 30
0.0
 40
2.401333
  1
   
 50
359.922128
 41
1.000555
  7
MONOTXT
210
0.0
220
0.0
230
1.0
  0
TEXT
  8
61
  6
CONTINUOUS
 62
     7
  5
4F
 10
576.876167
 20
412.099417
 30
0.0
 40
2.00675
  1
    
 50
0.054383
 41
0.993729
  7
MONOTXT
210
0.0
220
0.0
230
1.0
  0
TEXT
  8
61
  6
CONTINUOUS
 62
     7
  5
50
 10
573.956167
 20
409.079417
 30
0.0
 40
1.989583
  1
       
 50
0.064678
 41
1.000963
  7
MONOTXT
210
0.0
220
0.0
230
1.0
  0
TEXT
  8
61
  6
CONTINUOUS
 62
     7
  5
51
 10
574.916167
 20
406.179417
 30
0.0
 40
1.989583
  1
      
 50
359.958053
 41
1.000293
  7
MONOTXT
210
0.0
220
0.0
230
1.0
  0
TEXT
  8
61
  6
CONTINUOUS
 62
     7
  5
52
 10
585.876167
 20
410.819417
 30
0.0
 40
2.401333
  1
           
 50
0.011508
 41
0.998751
  7
MONOTXT
210
0.0
220
0.0
230
1.0
  0
TEXT
  8
61
  6
CONTINUOUS
 62
     7
  5
53
 10
585.756167
 20
407.159417
 30
0.0
 40
2.401333
  1
           
 50
0.011508
 41
0.999584
  7
MONOTXT
210
0.0
220
0.0
230
1.0
  0
TEXT
  8
61
  6
CONTINUOUS
 62
     7
  5
54
 10
621.096167
 20
408.899417
 30
0.0
 40
2.00675
  1
          
 50
0.009222
 41
0.992774
  7
MONOTXT
210
0.0
220
0.0
230
1.0
  0
ARC
  8
61
  6
CONTINUOUS
 62
     3
  5
55
 10
10.573923
 20
340.800712
 30
0.0
 40
2.499998
 50
323.130094
 51
316.232156
210
0.0
220
0.0
230
1.0
  0
ARC
  8
61
  6
CONTINUOUS
 62
     3
  5
56
 10
10.573923
 20
285.800712
 30
0.0
 40
2.499998
 50
323.130094
 51
315.375767
210
0.0
220
0.0
230
1.0
  0
ARC
  8
61
  6
CONTINUOUS
 62
     3
  5
57
 10
10.293923
 20
137.360712
 30
0.0
 40
2.499998
 50
322.671753
 51
321.716147
210
0.0
220
0.0
230
1.0
  0
ARC
  8
61
  6
CONTINUOUS
 62
     3
  5
58
 10
10.293923
 20
82.360712
 30
0.0
 40
2.499998
 50
323.130094
 51
312.314392
210
0.0
220
0.0
230
1.0
  0
LINE
  8
61
  6
CONTINUOUS
 62
     2
  5
59
 10
12.596167
 20
340.799417
 30
0.0
 11
20.576167
 21
340.819417
 31
0.0
  0
LINE
  8
61
  6
CONTINUOUS
 62
     2
  5
5A
 10
12.576167
 20
285.799417
 30
0.0
 11
20.576167
 21
285.799417
 31
0.0
  0
LINE
  8
61
  6
CONTINUOUS
 62
     2
  5
5B
 10
12.296167
 20
137.379417
 30
0.0
 11
20.296167
 21
137.379417
 31
0.0
  0
LINE
  8
61
  6
CONTINUOUS
 62
     2
  5
5C
 10
12.316167
 20
82.359417
 30
0.0
 11
20.296167
 21
82.359417
 31
0.0
  0
TEXT
  8
61
  6
CONTINUOUS
 62
     7
  5
5D
 10
654.716167
 20
384.899417
 30
0.0
 40
2.401333
  1
     
 41
1.001388
  7
MONOTXT
210
0.0
220
0.0
230
1.0
  0
TEXT
  8
1
  6
CONTINUOUS
 62
     1
  5
60
 10
633.656167
 20
7.019417
 30
0.0
 40
1.2
  1
TRAFFIC ENGINEERING DIVISION
  7
txt
210
0.0
220
0.0
230
1.0
  0
LINE
  8
1
  6
CONTINUOUS
 62
     7
  5
61
 10
496.276167
 20
9.519417
 30
0.0
 11
496.276167
 21
101.099417
 31
0.0
  0
LINE
  8
1
  6
CONTINUOUS
 62
     7
  5
62
 10
496.276167
 20
101.099417
 30
0.0
 11
667.936167
 21
101.099417
 31
0.0
  0
LINE
  8
1
  6
CONTINUOUS
 62
     7
  5
63
 10
531.276167
 20
9.479417
 30
0.0
 11
531.276167
 21
54.439417
 31
0.0
  0
LINE
  8
1
  6
CONTINUOUS
 62
     7
  5
64
 10
531.276167
 20
54.439417
 30
0.0
 11
496.296167
 21
54.439417
 31
0.0
  0
LINE
  8
1
  6
CONTINUOUS
 62
     7
  5
65
 10
531.276167
 20
49.959417
 30
0.0
 11
496.296167
 21
49.959417
 31
0.0
  0
LINE
  8
1
  6
CONTINUOUS
 62
     7
  5
66
 10
531.276167
 20
45.459417
 30
0.0
 11
496.296167
 21
45.459417
 31
0.0
  0
LINE
  8
1
  6
CONTINUOUS
 62
     7
  5
67
 10
531.276167
 20
40.959417
 30
0.0
 11
496.296167
 21
40.959417
 31
0.0
  0
LINE
  8
1
  6
CONTINUOUS
 62
     7
  5
68
 10
531.276167
 20
36.439417
 30
0.0
 11
496.296167
 21
36.439417
 31
0.0
  0
LINE
  8
1
  6
CONTINUOUS
 62
     7
  5
69
 10
531.276167
 20
31.959417
 30
0.0
 11
496.296167
 21
31.959417
 31
0.0
  0
LINE
  8
1
  6
CONTINUOUS
 62
     7
  5
6A
 10
531.276167
 20
27.479417
 30
0.0
 11
496.296167
 21
27.479417
 31
0.0
  0
LINE
  8
1
  6
CONTINUOUS
 62
     7
  5
6B
 10
531.276167
 20
22.979417
 30
0.0
 11
496.296167
 21
22.979417
 31
0.0
  0
LINE
  8
1
  6
CONTINUOUS
 62
     7
  5
6C
 10
531.276167
 20
18.479417
 30
0.0
 11
496.296167
 21
18.479417
 31
0.0
  0
LINE
  8
1
  6
CONTINUOUS
 62
     7
  5
6D
 10
531.276167
 20
13.959417
 30
0.0
 11
496.296167
 21
13.959417
 31
0.0
  0
TEXT
  8
1
  6
CONTINUOUS
 62
     7
  5
6E
 10
506.556167
 20
51.439417
 30
0.0
 40
1.99775
  1
REVISIONS
  7
MONOTXT
210
0.0
220
0.0
230
1.0
  0
TEXT
  8
1
  6
CONTINUOUS
 62
     7
  5
6F
 10
498.236167
 20
55.439417
 30
0.0
 40
1.99775
  1
PREPARED: 06 /00/68
  7
MONOTXT
210
0.0
220
0.0
230
1.0
  0
TEXT
  8
1
  6
CONTINUOUS
 62
     7
  5
71
 10
528.896167
 20
92.499417
 30
0.0
 40
4.794833
  1
WEST VIRGINIA DIVISION OF HIGHWAYS
  7
ROMANT
 72
     1
 11
582.866417
 21
97.29425
 31
0.0
210
0.0
220
0.0
230
1.0
 73
     3
  0
TEXT
  8
1
  6
CONTINUOUS
 62
     7
  5
72
 10
539.656167
 20
81.339417
 30
0.0
 40
6.992667
  1
STANDARD DETAIL
  7
txt
 72
     1
 11
584.14625
 21
88.332083
 31
0.0
210
0.0
220
0.0
230
1.0
 73
     3
  0
TEXT
  8
1
  6
CONTINUOUS
 62
     7
  5
73
 10
535.116167
 20
13.559417
 30
0.0
 40
6.992667
  1
STANDARD SHEET TES-35
  7
txt
210
0.0
220
0.0
230
1.0
  0
TEXT
  8
1
  6
CONTINUOUS
 62
     1
  5
74
 10
506.88325
 20
46.379417
 30
0.0
 40
2.0
  1
09-12-69
  7
MONOTXT
 72
     1
 11
513.584083
 21
48.379417
 31
0.0
210
0.0
220
0.0
230
1.0
 73
     3
  0
TEXT
  8
1
  6
CONTINUOUS
 62
     1
  5
75
 10
506.70575
 20
41.979417
 30
0.0
 40
2.0
  1
01-00-70
  7
MONOTXT
 72
     1
 11
513.55625
 21
43.979417
 31
0.0
210
0.0
220
0.0
230
1.0
 73
     3
  0
TEXT
  8
1
  6
CONTINUOUS
 62
     1
  5
76
 10
506.253333
 20
37.579417
 30
0.0
 40
2.0
  1
04-00-72
  7
MONOTXT
 72
     1
 11
513.584167
 21
39.579417
 31
0.0
210
0.0
220
0.0
230
1.0
 73
     3
  0
TEXT
  8
1
  6
CONTINUOUS
 62
     1
  5
77
 10
507.19825
 20
33.179417
 30
0.0
 40
2.0
  1
10-12-76
  7
MONOTXT
 72
     1
 11
513.584167
 21
35.179417
 31
0.0
210
0.0
220
0.0
230
1.0
 73
     3
  0
TEXT
  8
1
  6
CONTINUOUS
 62
     1
  5
78
 10
506.497667
 20
28.579417
 30
0.0
 40
2.0
  1
02-09-93
  7
MONOTXT
 72
     1
 11
513.671
 21
30.579417
 31
0.0
210
0.0
220
0.0
230
1.0
 73
     3
  0
TEXT
  8
1
  6
CONTINUOUS
 62
     1
  5
79
 10
505.576167
 20
24.099417
 30
0.0
 40
2.0
  1
        
  7
MONOTXT
 72
     1
 11
513.243
 21
26.099417
 31
0.0
210
0.0
220
0.0
230
1.0
 73
     3
  0
TEXT
  8
1
  6
CONTINUOUS
 62
     1
  5
7A
 10
505.476167
 20
19.499417
 30
0.0
 40
2.0
  1
        
  7
MONOTXT
 72
     1
 11
513.143
 21
21.499417
 31
0.0
210
0.0
220
0.0
230
1.0
 73
     3
  0
TEXT
  8
1
  6
CONTINUOUS
 62
     1
  5
7B
 10
505.576167
 20
14.919417
 30
0.0
 40
2.0
  1
        
  7
MONOTXT
 72
     1
 11
513.243
 21
16.919417
 31
0.0
210
0.0
220
0.0
230
1.0
 73
     3
  0
TEXT
  8
1
  6
CONTINUOUS
 62
     1
  5
7C
 10
505.576167
 20
10.899417
 30
0.0
 40
2.0
  1
        
  7
MONOTXT
 72
     1
 11
513.243
 21
12.899417
 31
0.0
210
0.0
220
0.0
230
1.0
 73
     3
  0
TEXT
  8
1
  6
CONTINUOUS
 62
     7
  5
7D
 10
536.737083
 20
70.951083
 30
0.0
 40
6.992667
  1
FLASHER AND SIGN
  7
txt
 72
     1
 11
584.538333
 21
77.94375
 31
0.0
210
0.0
220
0.0
230
1.0
 73
     3
  0
TEXT
  8
1
  6
CONTINUOUS
 62
     7
  5
7E
 10
551.415333
 20
60.95475
 30
0.0
 40
6.992667
  1
INSTALLATION
  7
txt
 72
     1
 11
584.538333
 21
67.947417
 31
0.0
210
0.0
220
0.0
230
1.0
 73
     3
  0
LINE
  8
1
  6
CONTINUOUS
 62
     7
  5
7F
 10
501.164333
 20
36.181917
 30
0.0
 11
499.164333
 21
32.717833
 31
0.0
  0
LINE
  8
1
  6
CONTINUOUS
 62
     7
  5
80
 10
499.164333
 20
32.717833
 30
0.0
 11
503.164333
 21
32.717833
 31
0.0
  0
LINE
  8
1
  6
CONTINUOUS
 62
     7
  5
81
 10
503.164333
 20
32.717833
 30
0.0
 11
501.164333
 21
36.181917
 31
0.0
  0
LINE
  8
1
  6
CONTINUOUS
 62
     7
  5
82
 10
496.421083
 20
103.868167
 30
0.0
 11
500.421083
 21
103.868167
 31
0.0
  0
LINE
  8
1
  6
CONTINUOUS
 62
     7
  5
83
 10
498.421083
 20
107.33225
 30
0.0
 11
496.421083
 21
103.868167
 31
0.0
  0
LINE
  8
1
  6
CONTINUOUS
 62
     7
  5
84
 10
500.421083
 20
103.868167
 30
0.0
 11
498.421083
 21
107.33225
 31
0.0
  0
TEXT
  8
1
  6
CONTINUOUS
 62
     7
  5
85
 10
497.736333
 20
104.202917
 30
0.0
 40
2.0
  1
2
  7
MONOTXT
210
0.0
220
0.0
230
1.0
  0
TEXT
  8
1
  6
CONTINUOUS
 62
     7
  5
86
 10
500.77125
 20
32.985583
 30
0.0
 40
2.0
  1
1
  7
MONOTXT
210
0.0
220
0.0
230
1.0
  0
POLYLINE
  8
1
  6
CONTINUOUS
 62
     6
  5
87
 66
     1
 10
0.0
 20
0.0
 30
0.0
  0
VERTEX
  8
1
  6
CONTINUOUS
 62
     6
  5
88
 10
97.715583
 20
364.022167
 30
0.0
  0
VERTEX
  8
1
  6
CONTINUOUS
 62
     6
  5
89
 10
99.4945
 20
363.921
 30
0.0
  0
VERTEX
  8
1
  6
CONTINUOUS
 62
     6
  5
8A
 10
101.433833
 20
363.806917
 30
0.0
  0
VERTEX
  8
1
  6
CONTINUOUS
 62
     6
  5
8B
 10
102.80275
 20
363.806917
 30
0.0
  0
VERTEX
  8
1
  6
CONTINUOUS
 62
     6
  5
8C
 10
103.8295
 20
363.921
 30
0.0
  0
VERTEX
  8
1
  6
CONTINUOUS
 62
     6
  5
8D
 10
104.97025
 20
363.921
 30
0.0
  0
VERTEX
  8
1
  6
CONTINUOUS
 62
     6
  5
8E
 10
106.681417
 20
363.921
 30
0.0
  0
VERTEX
  8
1
  6
CONTINUOUS
 62
     6
  5
8F
 10
107.365917
 20
364.035167
 30
0.0
  0
VERTEX
  8
1
  6
CONTINUOUS
 62
     6
  5
90
 10
109.419333
 20
364.14925
 30
0.0
  0
VERTEX
  8
1
  6
CONTINUOUS
 62
     6
  5
91
 10
109.875667
 20
363.921
 30
0.0
  0
VERTEX
  8
1
  6
CONTINUOUS
 62
     6
  5
92
 10
112.6135
 20
363.692833
 30
0.0
  0
VERTEX
  8
1
  6
CONTINUOUS
 62
     6
  5
93
 10
112.95575
 20
363.806917
 30
0.0
  0
VERTEX
  8
1
  6
CONTINUOUS
 62
     6
  5
94
 10
114.324667
 20
363.806917
 30
0.0
  0
VERTEX
  8
1
  6
CONTINUOUS
 62
     6
  5
95
 10
115.579583
 20
363.692833
 30
0.0
  0
VERTEX
  8
1
  6
CONTINUOUS
 62
     6
  5
96
 10
116.264
 20
363.578667
 30
0.0
  0
VERTEX
  8
1
  6
CONTINUOUS
 62
     6
  5
97
 10
117.404833
 20
363.692833
 30
0.0
  0
VERTEX
  8
1
  6
CONTINUOUS
 62
     6
  5
98
 10
118.317417
 20
363.806917
 30
0.0
  0
VERTEX
  8
1
  6
CONTINUOUS
 62
     6
  5
99
 10
119.800417
 20
363.921
 30
0.0
  0
VERTEX
  8
1
  6
CONTINUOUS
 62
     6
  5
9A
 10
120.142667
 20
363.921
 30
0.0
  0
VERTEX
  8
1
  6
CONTINUOUS
 62
     6
  5
9B
 10
121.169417
 20
363.921
 30
0.0
  0
VERTEX
  8
1
  6
CONTINUOUS
 62
     6
  5
9C
 10
121.715583
 20
364.022167
 30
0.0
  0
SEQEND
  8
1
  6
CONTINUOUS
 62
     6
  5
9D
  0
POLYLINE
  8
1
  6
CONTINUOUS
 62
     6
  5
9E
 66
     1
 10
0.0
 20
0.0
 30
0.0
  0
VERTEX
  8
1
  6
CONTINUOUS
 62
     6
  5
9F
 10
97.715583
 20
196.864167
 30
0.0
  0
VERTEX
  8
1
  6
CONTINUOUS
 62
     6
  5
A0
 10
99.4945
 20
196.965333
 30
0.0
  0
VERTEX
  8
1
  6
CONTINUOUS
 62
     6
  5
A1
 10
101.433833
 20
197.079417
 30
0.0
  0
VERTEX
  8
1
  6
CONTINUOUS
 62
     6
  5
A2
 10
102.80275
 20
197.079417
 30
0.0
  0
VERTEX
  8
1
  6
CONTINUOUS
 62
     6
  5
A3
 10
103.8295
 20
196.965333
 30
0.0
  0
VERTEX
  8
1
  6
CONTINUOUS
 62
     6
  5
A4
 10
104.97025
 20
196.965333
 30
0.0
  0
VERTEX
  8
1
  6
CONTINUOUS
 62
     6
  5
A5
 10
106.681417
 20
196.965333
 30
0.0
  0
VERTEX
  8
1
  6
CONTINUOUS
 62
     6
  5
A6
 10
107.365917
 20
196.851167
 30
0.0
  0
VERTEX
  8
1
  6
CONTINUOUS
 62
     6
  5
A7
 10
109.419333
 20
196.737083
 30
0.0
  0
VERTEX
  8
1
  6
CONTINUOUS
 62
     6
  5
A8
 10
109.875667
 20
196.965333
 30
0.0
  0
VERTEX
  8
1
  6
CONTINUOUS
 62
     6
  5
A9
 10
112.6135
 20
197.1935
 30
0.0
  0
VERTEX
  8
1
  6
CONTINUOUS
 62
     6
  5
AA
 10
112.95575
 20
197.079417
 30
0.0
  0
VERTEX
  8
1
  6
CONTINUOUS
 62
     6
  5
AB
 10
114.324667
 20
197.079417
 30
0.0
  0
VERTEX
  8
1
  6
CONTINUOUS
 62
     6
  5
AC
 10
115.579583
 20
197.1935
 30
0.0
  0
VERTEX
  8
1
  6
CONTINUOUS
 62
     6
  5
AD
 10
116.264
 20
197.307667
 30
0.0
  0
VERTEX
  8
1
  6
CONTINUOUS
 62
     6
  5
AE
 10
117.404833
 20
197.1935
 30
0.0
  0
VERTEX
  8
1
  6
CONTINUOUS
 62
     6
  5
AF
 10
118.317417
 20
197.079417
 30
0.0
  0
VERTEX
  8
1
  6
CONTINUOUS
 62
     6
  5
B0
 10
119.800417
 20
196.965333
 30
0.0
  0
VERTEX
  8
1
  6
CONTINUOUS
 62
     6
  5
B1
 10
120.142667
 20
196.965333
 30
0.0
  0
VERTEX
  8
1
  6
CONTINUOUS
 62
     6
  5
B2
 10
121.169417
 20
196.965333
 30
0.0
  0
VERTEX
  8
1
  6
CONTINUOUS
 62
     6
  5
B3
 10
121.715583
 20
196.864167
 30
0.0
  0
SEQEND
  8
1
  6
CONTINUOUS
 62
     6
  5
B4
  0
LINE
  8
1
  6
CONTINUOUS
 62
     6
  5
B5
 10
117.715583
 20
339.130333
 30
0.0
 11
101.715583
 21
339.130333
 31
0.0
  0
LINE
  8
1
  6
CONTINUOUS
 62
     6
  5
B6
 10
101.715583
 20
339.130333
 30
0.0
 11
101.715583
 21
323.130333
 31
0.0
  0
LINE
  8
1
  6
CONTINUOUS
 62
     6
  5
B7
 10
117.715583
 20
339.130333
 30
0.0
 11
117.715583
 21
323.130333
 31
0.0
  0
LINE
  8
1
  6
CONTINUOUS
 62
     6
  5
B8
 10
117.715583
 20
323.130333
 30
0.0
 11
101.715583
 21
323.130333
 31
0.0
  0
LINE
  8
1
  6
CONTINUOUS
 62
     6
  5
B9
 10
108.215583
 20
364.130333
 30
0.0
 11
108.215583
 21
339.130333
 31
0.0
  0
LINE
  8
1
  6
CONTINUOUS
 62
     6
  5
BA
 10
111.215583
 20
363.68125
 30
0.0
 11
111.215583
 21
339.130333
 31
0.0
  0
CIRCLE
  8
1
  6
CONTINUOUS
 62
     6
  5
BB
 10
109.704083
 20
331.160417
 30
0.0
 40
6.0
210
0.0
220
0.0
230
1.0
  0
ARC
  8
1
  6
CONTINUOUS
 62
     6
  5
BC
 10
109.653622
 20
330.494138
 30
0.0
 40
6.59443
 50
111.485261
 51
230.573544
210
0.0
220
0.0
230
1.0
  0
ARC
  8
1
  6
CONTINUOUS
 62
     6
  5
BD
 10
109.800878
 20
330.494138
 30
0.0
 40
6.59443
 50
309.426456
 51
68.514739
210
0.0
220
0.0
230
1.0
  0
ARC
  8
1
  6
CONTINUOUS
 62
     6
  5
BE
 10
109.72725
 20
330.973432
 30
0.0
 40
7.015785
 50
307.404608
 51
232.595389
210
0.0
220
0.0
230
1.0
  0
LINE
  8
1
  6
CONTINUOUS
 62
     6
  5
BF
 10
105.065
 20
333.432
 30
0.0
 11
107.893417
 21
336.260417
 31
0.0
  0
LINE
  8
1
  6
CONTINUOUS
 62
     6
  5
C0
 10
105.064917
 20
332.017667
 30
0.0
 11
106.479167
 21
333.431917
 31
0.0
  0
LINE
  8
1
  6
CONTINUOUS
 62
     6
  5
C1
 10
107.893333
 20
334.846083
 30
0.0
 11
109.307583
 21
336.260333
 31
0.0
  0
LINE
  8
1
  6
CONTINUOUS
 62
     6
  5
C2
 10
106.479167
 20
332.01775
 30
0.0
 11
109.307583
 21
334.846167
 31
0.0
  0
LINE
  8
1
  6
CONTINUOUS
 62
     6
  5
C3
 10
106.479083
 20
330.603417
 30
0.0
 11
107.893333
 21
332.017667
 31
0.0
  0
LINE
  8
1
  6
CONTINUOUS
 62
     6
  5
C4
 10
103.650667
 20
333.431833
 30
0.0
 11
105.064917
 21
334.846083
 31
0.0
  0
LINE
  8
1
  6
CONTINUOUS
 62
     6
  5
C5
 10
106.479083
 20
330.603417
 30
0.0
 11
107.893333
 21
332.017667
 31
0.0
  0
LINE
  8
1
  6
CONTINUOUS
 62
     6
  5
C6
 10
109.3075
 20
333.431833
 30
0.0
 11
110.72175
 21
334.846083
 31
0.0
  0
LINE
  8
1
  6
CONTINUOUS
 62
     6
  5
C7
 10
107.893333
 20
330.6035
 30
0.0
 11
110.72175
 21
333.431917
 31
0.0
  0
LINE
  8
1
  6
CONTINUOUS
 62
     6
  5
C8
 10
107.89325
 20
329.189167
 30
0.0
 11
109.3075
 21
330.603417
 31
0.0
  0
LINE
  8
1
  6
CONTINUOUS
 62
     6
  5
C9
 10
105.064833
 20
332.017583
 30
0.0
 11
106.479083
 21
333.431833
 31
0.0
  0
LINE
  8
1
  6
CONTINUOUS
 62
     6
  5
CA
 10
103.650583
 20
333.431833
 30
0.0
 11
105.064833
 21
334.846083
 31
0.0
  0
LINE
  8
1
  6
CONTINUOUS
 62
     6
  5
CB
 10
107.89325
 20
329.189167
 30
0.0
 11
109.3075
 21
330.603417
 31
0.0
  0
LINE
  8
1
  6
CONTINUOUS
 62
     6
  5
CC
 10
110.721667
 20
332.017583
 30
0.0
 11
112.135917
 21
333.431833
 31
0.0
  0
LINE
  8
1
  6
CONTINUOUS
 62
     6
  5
CD
 10
109.3075
 20
329.18925
 30
0.0
 11
112.135917
 21
332.017667
 31
0.0
  0
LINE
  8
1
  6
CONTINUOUS
 62
     6
  5
CE
 10
111.715583
 20
322.630333
 30
0.0
 11
107.715583
 21
322.630333
 31
0.0
  0
LINE
  8
1
  6
CONTINUOUS
 62
     6
  5
CF
 10
107.715583
 20
322.630333
 30
0.0
 11
107.715583
 21
323.130333
 31
0.0
  0
LINE
  8
1
  6
CONTINUOUS
 62
     6
  5
D0
 10
111.715583
 20
322.630333
 30
0.0
 11
111.715583
 21
323.130333
 31
0.0
  0
LINE
  8
1
  6
CONTINUOUS
 62
     6
  5
D1
 10
111.215583
 20
321.630333
 30
0.0
 11
108.215583
 21
321.630333
 31
0.0
  0
LINE
  8
1
  6
CONTINUOUS
 62
     6
  5
D2
 10
111.215583
 20
320.630333
 30
0.0
 11
108.215583
 21
320.630333
 31
0.0
  0
LINE
  8
1
  6
CONTINUOUS
 62
     6
  5
D3
 10
110.465583
 20
322.130333
 30
0.0
 11
108.965583
 21
322.130333
 31
0.0
  0
LINE
  8
1
  6
CONTINUOUS
 62
     6
  5
D4
 10
110.465583
 20
321.130333
 30
0.0
 11
108.965583
 21
321.130333
 31
0.0
  0
LINE
  8
1
  6
HIDDEN
 62
     6
  5
D5
 10
116.215583
 20
306.130333
 30
0.0
 11
103.215583
 21
306.130333
 31
0.0
  0
LINE
  8
1
  6
CONTINUOUS
 62
     6
  5
D6
 10
104.215583
 20
318.130333
 30
0.0
 11
104.215583
 21
316.880333
 31
0.0
  0
LINE
  8
1
  6
HIDDEN
 62
     6
  5
D7
 10
104.215583
 20
308.380333
 30
0.0
 11
104.215583
 21
307.130333
 31
0.0
  0
LINE
  8
1
  6
CONTINUOUS
 62
     6
  5
D8
 10
105.215583
 20
318.130333
 30
0.0
 11
105.215583
 21
316.880333
 31
0.0
  0
LINE
  8
1
  6
HIDDEN
 62
     6
  5
D9
 10
105.215583
 20
308.380333
 30
0.0
 11
105.215583
 21
307.130333
 31
0.0
  0
LINE
  8
1
  6
CONTINUOUS
 62
     6
  5
DA
 10
105.465583
 20
318.130333
 30
0.0
 11
105.465583
 21
316.880333
 31
0.0
  0
LINE
  8
1
  6
HIDDEN
 62
     6
  5
DB
 10
105.465583
 20
308.380333
 30
0.0
 11
105.465583
 21
307.130333
 31
0.0
  0
LINE
  8
1
  6
CONTINUOUS
 62
     6
  5
DC
 10
113.965583
 20
318.130333
 30
0.0
 11
113.965583
 21
316.880333
 31
0.0
  0
LINE
  8
1
  6
HIDDEN
 62
     6
  5
DD
 10
113.965583
 20
308.380333
 30
0.0
 11
113.965583
 21
307.130333
 31
0.0
  0
LINE
  8
1
  6
CONTINUOUS
 62
     6
  5
DE
 10
114.215583
 20
318.130333
 30
0.0
 11
114.215583
 21
316.880333
 31
0.0
  0
LINE
  8
1
  6
HIDDEN
 62
     6
  5
DF
 10
114.215583
 20
308.380333
 30
0.0
 11
114.215583
 21
307.130333
 31
0.0
  0
LINE
  8
1
  6
CONTINUOUS
 62
     6
  5
E0
 10
115.215583
 20
318.130333
 30
0.0
 11
115.215583
 21
316.880333
 31
0.0
  0
LINE
  8
1
  6
HIDDEN
 62
     6
  5
E1
 10
115.215583
 20
308.380333
 30
0.0
 11
115.215583
 21
307.130333
 31
0.0
  0
LINE
  8
1
  6
CONTINUOUS
 62
     6
  5
E2
 10
115.215583
 20
318.130333
 30
0.0
 11
113.965583
 21
318.130333
 31
0.0
  0
LINE
  8
1
  6
CONTINUOUS
 62
     6
  5
E3
 10
105.465583
 20
318.130333
 30
0.0
 11
104.215583
 21
318.130333
 31
0.0
  0
LINE
  8
1
  6
CONTINUOUS
 62
     6
  5
E4
 10
115.215583
 20
316.880333
 30
0.0
 11
113.965583
 21
316.880333
 31
0.0
  0
LINE
  8
1
  6
CONTINUOUS
 62
     6
  5
E5
 10
105.465583
 20
316.880333
 30
0.0
 11
104.215583
 21
316.880333
 31
0.0
  0
LINE
  8
1
  6
HIDDEN
 62
     6
  5
E6
 10
115.215583
 20
308.380333
 30
0.0
 11
113.965583
 21
308.380333
 31
0.0
  0
LINE
  8
1
  6
HIDDEN
 62
     6
  5
E7
 10
105.465583
 20
308.380333
 30
0.0
 11
104.215583
 21
308.380333
 31
0.0
  0
LINE
  8
1
  6
HIDDEN
 62
     6
  5
E8
 10
115.215583
 20
307.130333
 30
0.0
 11
113.965583
 21
307.130333
 31
0.0
  0
LINE
  8
1
  6
HIDDEN
 62
     6
  5
E9
 10
105.465583
 20
307.130333
 30
0.0
 11
104.215583
 21
307.130333
 31
0.0
  0
LINE
  8
1
  6
CONTINUOUS
 62
     6
  5
EA
 10
108.215583
 20
319.130333
 30
0.0
 11
103.215583
 21
319.130333
 31
0.0
  0
LINE
  8
1
  6
CONTINUOUS
 62
     6
  5
EB
 10
116.215583
 20
319.130333
 30
0.0
 11
111.215583
 21
319.130333
 31
0.0
  0
LINE
  8
1
  6
CONTINUOUS
 62
     6
  5
EC
 10
110.465583
 20
319.130333
 30
0.0
 11
108.965583
 21
319.130333
 31
0.0
  0
LINE
  8
1
  6
HIDDEN
 62
     6
  5
ED
 10
111.215583
 20
317.130333
 30
0.0
 11
108.215583
 21
317.130333
 31
0.0
  0
LINE
  8
1
  6
HIDDEN
 62
     6
  5
EE
 10
110.715583
 20
316.630333
 30
0.0
 11
108.715583
 21
316.630333
 31
0.0
  0
LINE
  8
1
  6
HIDDEN
 62
     6
  5
EF
 10
111.215583
 20
316.130333
 30
0.0
 11
108.215583
 21
316.130333
 31
0.0
  0
LINE
  8
1
  6
HIDDEN
 62
     6
  5
F0
 10
110.715583
 20
315.630333
 30
0.0
 11
108.715583
 21
315.630333
 31
0.0
  0
LINE
  8
1
  6
HIDDEN
 62
     6
  5
F1
 10
111.715583
 20
315.130333
 30
0.0
 11
107.715583
 21
315.130333
 31
0.0
  0
LINE
  8
1
  6
HIDDEN
 62
     6
  5
F2
 10
111.715583
 20
308.130333
 30
0.0
 11
107.715583
 21
308.130333
 31
0.0
  0
LINE
  8
1
  6
HIDDEN
 62
     6
  5
F3
 10
107.715583
 20
315.130333
 30
0.0
 11
107.715583
 21
308.130333
 31
0.0
  0
LINE
  8
1
  6
HIDDEN
 62
     6
  5
F4
 10
111.715583
 20
315.130333
 30
0.0
 11
111.715583
 21
308.130333
 31
0.0
  0
LINE
  8
1
  6
CONTINUOUS
 62
     6
  5
F5
 10
108.215583
 20
323.130333
 30
0.0
 11
108.215583
 21
317.130333
 31
0.0
  0
LINE
  8
1
  6
HIDDEN
 62
     6
  5
F6
 10
108.215583
 20
317.130333
 30
0.0
 11
108.215583
 21
315.130333
 31
0.0
  0
LINE
  8
1
  6
CONTINUOUS
 62
     6
  5
F7
 10
111.215583
 20
323.130333
 30
0.0
 11
111.215583
 21
317.130333
 31
0.0
  0
LINE
  8
1
  6
HIDDEN
 62
     6
  5
F8
 10
111.215583
 20
317.130333
 30
0.0
 11
111.215583
 21
315.130333
 31
0.0
  0
LINE
  8
1
  6
HIDDEN
 62
     6
  5
F9
 10
108.215583
 20
308.130333
 30
0.0
 11
108.215583
 21
306.130333
 31
0.0
  0
LINE
  8
1
  6
HIDDEN
 62
     6
  5
FA
 10
111.215583
 20
308.130333
 30
0.0
 11
111.215583
 21
306.130333
 31
0.0
  0
LINE
  8
1
  6
CONTINUOUS
 62
     6
  5
FB
 10
111.215583
 20
285.380333
 30
0.0
 11
108.215583
 21
285.380333
 31
0.0
  0
LINE
  8
1
  6
CONTINUOUS
 62
     6
  5
FC
 10
111.215583
 20
270.880333
 30
0.0
 11
108.215583
 21
270.880333
 31
0.0
  0
LINE
  8
1
  6
CONTINUOUS
 62
     6
  5
FD
 10
111.215583
 20
284.380333
 30
0.0
 11
108.215583
 21
284.380333
 31
0.0
  0
LINE
  8
1
  6
CONTINUOUS
 62
     6
  5
FE
 10
111.715583
 20
283.380333
 30
0.0
 11
107.715583
 21
283.380333
 31
0.0
  0
LINE
  8
1
  6
CONTINUOUS
 62
     6
  5
FF
 10
111.215583
 20
271.880333
 30
0.0
 11
108.215583
 21
271.880333
 31
0.0
  0
LINE
  8
1
  6
CONTINUOUS
 62
     6
  5
100
 10
111.715583
 20
272.880333
 30
0.0
 11
107.715583
 21
272.880333
 31
0.0
  0
LINE
  8
1
  6
CONTINUOUS
 62
     6
  5
101
 10
110.465583
 20
284.880333
 30
0.0
 11
108.965583
 21
284.880333
 31
0.0
  0
LINE
  8
1
  6
CONTINUOUS
 62
     6
  5
102
 10
110.465583
 20
283.880333
 30
0.0
 11
108.965583
 21
283.880333
 31
0.0
  0
LINE
  8
1
  6
CONTINUOUS
 62
     6
  5
103
 10
110.465583
 20
271.380333
 30
0.0
 11
108.965583
 21
271.380333
 31
0.0
  0
LINE
  8
1
  6
CONTINUOUS
 62
     6
  5
104
 10
110.465583
 20
272.380333
 30
0.0
 11
108.965583
 21
272.380333
 31
0.0
  0
LINE
  8
1
  6
CONTINUOUS
 62
     6
  5
105
 10
106.715583
 20
276.130333
 30
0.0
 11
106.715583
 21
280.130333
 31
0.0
  0
LINE
  8
1
  6
CONTINUOUS
 62
     6
  5
106
 10
112.715583
 20
276.130333
 30
0.0
 11
112.715583
 21
280.130333
 31
0.0
  0
LINE
  8
1
  6
CONTINUOUS
 62
     6
  5
107
 10
105.715583
 20
276.630333
 30
0.0
 11
105.715583
 21
279.630333
 31
0.0
  0
LINE
  8
1
  6
CONTINUOUS
 62
     6
  5
108
 10
104.715583
 20
276.630333
 30
0.0
 11
104.715583
 21
279.630333
 31
0.0
  0
LINE
  8
1
  6
CONTINUOUS
 62
     6
  5
109
 10
113.715583
 20
276.630333
 30
0.0
 11
113.715583
 21
279.630333
 31
0.0
  0
LINE
  8
1
  6
CONTINUOUS
 62
     6
  5
10A
 10
114.715583
 20
276.630333
 30
0.0
 11
114.715583
 21
279.630333
 31
0.0
  0
LINE
  8
1
  6
CONTINUOUS
 62
     6
  5
10B
 10
106.215583
 20
277.380333
 30
0.0
 11
106.215583
 21
278.880333
 31
0.0
  0
LINE
  8
1
  6
CONTINUOUS
 62
     6
  5
10C
 10
105.215583
 20
277.380333
 30
0.0
 11
105.215583
 21
278.880333
 31
0.0
  0
LINE
  8
1
  6
CONTINUOUS
 62
     6
  5
10D
 10
114.215583
 20
277.380333
 30
0.0
 11
114.215583
 21
278.880333
 31
0.0
  0
LINE
  8
1
  6
CONTINUOUS
 62
     6
  5
10E
 10
113.215583
 20
277.380333
 30
0.0
 11
113.215583
 21
278.880333
 31
0.0
  0
LINE
  8
1
  6
CONTINUOUS
 62
     6
  5
10F
 10
107.715583
 20
283.380333
 30
0.0
 11
107.715583
 21
280.880333
 31
0.0
  0
LINE
  8
1
  6
CONTINUOUS
 62
     6
  5
110
 10
111.715583
 20
283.380333
 30
0.0
 11
111.715583
 21
280.880333
 31
0.0
  0
LINE
  8
1
  6
CONTINUOUS
 62
     6
  5
111
 10
107.715583
 20
272.880333
 30
0.0
 11
107.715583
 21
275.380333
 31
0.0
  0
LINE
  8
1
  6
CONTINUOUS
 62
     6
  5
112
 10
111.715583
 20
272.880333
 30
0.0
 11
111.715583
 21
275.380333
 31
0.0
  0
ARC
  8
1
  6
CONTINUOUS
 62
     6
  5
113
 10
106.740213
 20
281.13916
 30
0.0
 40
1.009128
 50
268.601444
 51
345.138356
210
0.0
220
0.0
230
1.0
  0
ARC
  8
1
  6
CONTINUOUS
 62
     6
  5
114
 10
112.70712
 20
281.13916
 30
0.0
 40
1.009128
 50
194.861644
 51
271.398556
210
0.0
220
0.0
230
1.0
  0
ARC
  8
1
  6
CONTINUOUS
 62
     6
  5
115
 10
106.740213
 20
275.140006
 30
0.0
 40
1.009128
 50
14.861644
 51
91.398556
210
0.0
220
0.0
230
1.0
  0
ARC
  8
1
  6
CONTINUOUS
 62
     6
  5
116
 10
112.70712
 20
275.140006
 30
0.0
 40
1.009128
 50
88.601444
 51
165.138356
210
0.0
220
0.0
230
1.0
  0
LINE
  8
1
  6
CONTINUOUS
 62
     6
  5
117
 10
108.215583
 20
306.130333
 30
0.0
 11
108.215583
 21
283.380333
 31
0.0
  0
LINE
  8
1
  6
CONTINUOUS
 62
     6
  5
118
 10
111.215583
 20
306.130333
 30
0.0
 11
111.215583
 21
283.380333
 31
0.0
  0
LINE
  8
1
  6
CONTINUOUS
 62
     6
  5
119
 10
97.715583
 20
364.022167
 30
0.0
 11
97.715583
 21
279.630333
 31
0.0
  0
LINE
  8
1
  6
CONTINUOUS
 62
     6
  5
11A
 10
97.715583
 20
274.130333
 30
0.0
 11
97.715583
 21
197.022167
 31
0.0
  0
LINE
  8
1
  6
CONTINUOUS
 62
     6
  5
11B
 10
121.715583
 20
364.022167
 30
0.0
 11
121.715583
 21
282.130333
 31
0.0
  0
LINE
  8
1
  6
CONTINUOUS
 62
     6
  5
11C
 10
121.715583
 20
276.630333
 30
0.0
 11
121.715583
 21
197.022167
 31
0.0
  0
LINE
  8
1
  6
CONTINUOUS
 62
     6
  5
11D
 10
77.715583
 20
280.130333
 30
0.0
 11
82.715583
 21
280.130333
 31
0.0
  0
LINE
  8
1
  6
CONTINUOUS
 62
     6
  5
11E
 10
82.715583
 20
276.130333
 30
0.0
 11
77.715583
 21
276.130333
 31
0.0
  0
LINE
  8
1
  6
CONTINUOUS
 62
     6
  5
11F
 10
76.715583
 20
276.630333
 30
0.0
 11
76.715583
 21
279.630333
 31
0.0
  0
LINE
  8
1
  6
CONTINUOUS
 62
     6
  5
120
 10
75.715583
 20
276.630333
 30
0.0
 11
75.715583
 21
279.630333
 31
0.0
  0
LINE
  8
1
  6
CONTINUOUS
 62
     6
  5
121
 10
74.715583
 20
276.130333
 30
0.0
 11
74.715583
 21
280.130333
 31
0.0
  0
LINE
  8
1
  6
CONTINUOUS
 62
     6
  5
122
 10
72.465583
 20
276.130333
 30
0.0
 11
72.465583
 21
280.130333
 31
0.0
  0
LINE
  8
1
  6
CONTINUOUS
 62
     6
  5
123
 10
72.465583
 20
280.130333
 30
0.0
 11
74.715583
 21
280.130333
 31
0.0
  0
LINE
  8
1
  6
CONTINUOUS
 62
     6
  5
124
 10
74.715583
 20
276.130333
 30
0.0
 11
72.465583
 21
276.130333
 31
0.0
  0
LINE
  8
1
  6
CONTINUOUS
 62
     6
  5
125
 10
76.215583
 20
277.380333
 30
0.0
 11
76.215583
 21
278.880333
 31
0.0
  0
LINE
  8
1
  6
CONTINUOUS
 62
     6
  5
126
 10
75.215583
 20
277.380333
 30
0.0
 11
75.215583
 21
278.880333
 31
0.0
  0
LINE
  8
1
  6
CONTINUOUS
 62
     6
  5
127
 10
77.715583
 20
279.630333
 30
0.0
 11
77.715583
 21
280.130333
 31
0.0
  0
LINE
  8
1
  6
CONTINUOUS
 62
     6
  5
128
 10
82.715583
 20
276.130333
 30
0.0
 11
82.715583
 21
276.630333
 31
0.0
  0
LINE
  8
1
  6
HIDDEN
 62
     6
  5
129
 10
82.715583
 20
276.630333
 30
0.0
 11
82.715583
 21
279.630333
 31
0.0
  0
LINE
  8
1
  6
CONTINUOUS
 62
     6
  5
12A
 10
77.715583
 20
276.130333
 30
0.0
 11
77.715583
 21
276.630333
 31
0.0
  0
LINE
  8
1
  6
HIDDEN
 62
     6
  5
12B
 10
77.715583
 20
276.630333
 30
0.0
 11
77.715583
 21
279.630333
 31
0.0
  0
LINE
  8
1
  6
HIDDEN
 62
     6
  5
12C
 10
82.215583
 20
276.630333
 30
0.0
 11
82.215583
 21
279.630333
 31
0.0
  0
CIRCLE
  8
1
  6
CONTINUOUS
 62
     6
  5
12D
 10
79.985
 20
278.137167
 30
0.0
 40
1.587385
210
0.0
220
0.0
230
1.0
  0
LINE
  8
1
  6
CONTINUOUS
 62
     6
  5
12E
 10
79.15025
 20
277.630333
 30
0.0
 11
79.15025
 21
278.630333
 31
0.0
  0
LINE
  8
1
  6
CONTINUOUS
 62
     6
  5
12F
 10
79.44625
 20
279.630333
 30
0.0
 11
74.715583
 21
279.630333
 31
0.0
  0
LINE
  8
1
  6
CONTINUOUS
 62
     6
  5
130
 10
79.48575
 20
276.630333
 30
0.0
 11
74.715583
 21
276.630333
 31
0.0
  0
LINE
  8
1
  6
CONTINUOUS
 62
     6
  5
131
 10
80.81975
 20
277.630333
 30
0.0
 11
80.81975
 21
278.630333
 31
0.0
  0
LINE
  8
1
  6
CONTINUOUS
 62
     6
  5
132
 10
79.985
 20
279.130333
 30
0.0
 11
79.15025
 21
278.630333
 31
0.0
  0
LINE
  8
1
  6
CONTINUOUS
 62
     6
  5
133
 10
80.81975
 20
278.630333
 30
0.0
 11
79.985
 21
279.130333
 31
0.0
  0
LINE
  8
1
  6
CONTINUOUS
 62
     6
  5
134
 10
79.15025
 20
277.630333
 30
0.0
 11
79.985
 21
277.130333
 31
0.0
  0
LINE
  8
1
  6
CONTINUOUS
 62
     6
  5
135
 10
80.81975
 20
277.630333
 30
0.0
 11
79.985
 21
277.130333
 31
0.0
  0
LINE
  8
1
  6
CONTINUOUS
 62
     6
  5
136
 10
146.947917
 20
276.115917
 30
0.0
 11
146.947917
 21
280.115917
 31
0.0
  0
LINE
  8
1
  6
CONTINUOUS
 62
     6
  5
137
 10
141.697917
 20
280.115917
 30
0.0
 11
136.697917
 21
280.115917
 31
0.0
  0
LINE
  8
1
  6
CONTINUOUS
 62
     6
  5
138
 10
136.697917
 20
276.115917
 30
0.0
 11
141.697917
 21
276.115917
 31
0.0
  0
LINE
  8
1
  6
CONTINUOUS
 62
     6
  5
139
 10
142.697917
 20
276.615917
 30
0.0
 11
142.697917
 21
279.615917
 31
0.0
  0
LINE
  8
1
  6
CONTINUOUS
 62
     6
  5
13A
 10
143.697917
 20
276.615917
 30
0.0
 11
143.697917
 21
279.615917
 31
0.0
  0
LINE
  8
1
  6
CONTINUOUS
 62
     6
  5
13B
 10
144.697917
 20
276.115917
 30
0.0
 11
144.697917
 21
280.115917
 31
0.0
  0
LINE
  8
1
  6
CONTINUOUS
 62
     6
  5
13C
 10
146.947917
 20
280.115917
 30
0.0
 11
144.697917
 21
280.115917
 31
0.0
  0
LINE
  8
1
  6
CONTINUOUS
 62
     6
  5
13D
 10
144.697917
 20
276.115917
 30
0.0
 11
146.947917
 21
276.115917
 31
0.0
  0
LINE
  8
1
  6
CONTINUOUS
 62
     6
  5
13E
 10
143.197917
 20
277.365917
 30
0.0
 11
143.197917
 21
278.865917
 31
0.0
  0
LINE
  8
1
  6
CONTINUOUS
 62
     6
  5
13F
 10
144.197917
 20
277.365917
 30
0.0
 11
144.197917
 21
278.865917
 31
0.0
  0
LINE
  8
1
  6
CONTINUOUS
 62
     6
  5
140
 10
141.697917
 20
279.615917
 30
0.0
 11
141.697917
 21
280.115917
 31
0.0
  0
LINE
  8
1
  6
CONTINUOUS
 62
     6
  5
141
 10
136.697917
 20
279.630333
 30
0.0
 11
136.697917
 21
280.115917
 31
0.0
  0
LINE
  8
1
  6
CONTINUOUS
 62
     6
  5
142
 10
136.697917
 20
276.115917
 30
0.0
 11
136.697917
 21
276.630333
 31
0.0
  0
LINE
  8
1
  6
HIDDEN
 62
     6
  5
143
 10
136.697917
 20
276.615917
 30
0.0
 11
136.697917
 21
279.615917
 31
0.0
  0
LINE
  8
1
  6
CONTINUOUS
 62
     6
  5
144
 10
141.697917
 20
276.115917
 30
0.0
 11
141.697917
 21
276.615917
 31
0.0
  0
LINE
  8
1
  6
HIDDEN
 62
     6
  5
145
 10
141.697917
 20
276.615917
 30
0.0
 11
141.697917
 21
279.615917
 31
0.0
  0
LINE
  8
1
  6
HIDDEN
 62
     6
  5
146
 10
137.197917
 20
276.615917
 30
0.0
 11
137.197917
 21
279.615917
 31
0.0
  0
CIRCLE
  8
1
  6
CONTINUOUS
 62
     6
  5
147
 10
139.4285
 20
278.12275
 30
0.0
 40
1.587385
210
0.0
220
0.0
230
1.0
  0
LINE
  8
1
  6
CONTINUOUS
 62
     6
  5
148
 10
140.26325
 20
277.615917
 30
0.0
 11
140.26325
 21
278.615917
 31
0.0
  0
LINE
  8
1
  6
CONTINUOUS
 62
     6
  5
149
 10
138.59375
 20
277.615917
 30
0.0
 11
138.59375
 21
278.615917
 31
0.0
  0
LINE
  8
1
  6
CONTINUOUS
 62
     6
  5
14A
 10
139.4285
 20
279.115917
 30
0.0
 11
140.26325
 21
278.615917
 31
0.0
  0
LINE
  8
1
  6
CONTINUOUS
 62
     6
  5
14B
 10
138.59375
 20
278.615917
 30
0.0
 11
139.4285
 21
279.115917
 31
0.0
  0
LINE
  8
1
  6
CONTINUOUS
 62
     6
  5
14C
 10
140.26325
 20
277.615917
 30
0.0
 11
139.4285
 21
277.115917
 31
0.0
  0
LINE
  8
1
  6
CONTINUOUS
 62
     6
  5
14D
 10
138.59375
 20
277.615917
 30
0.0
 11
139.4285
 21
277.115917
 31
0.0
  0
LINE
  8
1
  6
CONTINUOUS
 62
     6
  5
14E
 10
139.9255
 20
279.630333
 30
0.0
 11
144.715583
 21
279.630333
 31
0.0
  0
LINE
  8
1
  6
CONTINUOUS
 62
     6
  5
14F
 10
139.969333
 20
276.630333
 30
0.0
 11
144.715583
 21
276.630333
 31
0.0
  0
LINE
  8
1
  6
HIDDEN
 62
     6
  5
150
 10
107.715583
 20
280.130333
 30
0.0
 11
107.715583
 21
276.130333
 31
0.0
  0
LINE
  8
1
  6
HIDDEN
 62
     6
  5
151
 10
111.715583
 20
280.130333
 30
0.0
 11
111.715583
 21
276.130333
 31
0.0
  0
ARC
  8
1
  6
HIDDEN
 62
     6
  5
152
 10
109.715583
 20
279.547
 30
0.0
 40
2.083333
 50
16.260203
 51
163.739794
210
0.0
220
0.0
230
1.0
  0
ARC
  8
1
  6
HIDDEN
 62
     6
  5
153
 10
109.715583
 20
276.713667
 30
0.0
 40
2.083333
 50
196.260206
 51
343.739797
210
0.0
220
0.0
230
1.0
  0
CIRCLE
  8
1
  6
HIDDEN
 62
     6
  5
154
 10
109.710917
 20
310.398
 30
0.0
 40
2.0
210
0.0
220
0.0
230
1.0
  0
CIRCLE
  8
1
  6
HIDDEN
 62
     6
  5
155
 10
109.731667
 20
310.377167
 30
0.0
 40
1.5
210
0.0
220
0.0
230
1.0
  0
LINE
  8
1
  6
CONTINUOUS
 62
     6
  5
156
 10
103.215583
 20
234.130333
 30
0.0
 11
103.215583
 21
221.130333
 31
0.0
  0
LINE
  8
1
  6
CONTINUOUS
 62
     6
  5
157
 10
116.215583
 20
234.130333
 30
0.0
 11
116.215583
 21
221.130333
 31
0.0
  0
LINE
  8
1
  6
CONTINUOUS
 62
     6
  5
158
 10
104.215583
 20
233.130333
 30
0.0
 11
104.215583
 21
231.880333
 31
0.0
  0
LINE
  8
1
  6
CONTINUOUS
 62
     6
  5
159
 10
104.215583
 20
223.380333
 30
0.0
 11
104.215583
 21
222.130333
 31
0.0
  0
LINE
  8
1
  6
CONTINUOUS
 62
     6
  5
15A
 10
105.215583
 20
233.130333
 30
0.0
 11
105.215583
 21
231.880333
 31
0.0
  0
LINE
  8
1
  6
CONTINUOUS
 62
     6
  5
15B
 10
105.215583
 20
223.380333
 30
0.0
 11
105.215583
 21
222.130333
 31
0.0
  0
LINE
  8
1
  6
CONTINUOUS
 62
     6
  5
15C
 10
105.465583
 20
233.130333
 30
0.0
 11
105.465583
 21
231.880333
 31
0.0
  0
LINE
  8
1
  6
CONTINUOUS
 62
     6
  5
15D
 10
105.465583
 20
223.380333
 30
0.0
 11
105.465583
 21
222.130333
 31
0.0
  0
LINE
  8
1
  6
CONTINUOUS
 62
     6
  5
15E
 10
113.965583
 20
233.130333
 30
0.0
 11
113.965583
 21
231.880333
 31
0.0
  0
LINE
  8
1
  6
CONTINUOUS
 62
     6
  5
15F
 10
113.965583
 20
223.380333
 30
0.0
 11
113.965583
 21
222.130333
 31
0.0
  0
LINE
  8
1
  6
CONTINUOUS
 62
     6
  5
160
 10
114.215583
 20
233.130333
 30
0.0
 11
114.215583
 21
231.880333
 31
0.0
  0
LINE
  8
1
  6
CONTINUOUS
 62
     6
  5
161
 10
114.215583
 20
223.380333
 30
0.0
 11
114.215583
 21
222.130333
 31
0.0
  0
LINE
  8
1
  6
CONTINUOUS
 62
     6
  5
162
 10
115.215583
 20
233.130333
 30
0.0
 11
115.215583
 21
231.880333
 31
0.0
  0
LINE
  8
1
  6
CONTINUOUS
 62
     6
  5
163
 10
115.215583
 20
223.380333
 30
0.0
 11
115.215583
 21
222.130333
 31
0.0
  0
LINE
  8
1
  6
CONTINUOUS
 62
     6
  5
164
 10
115.215583
 20
233.130333
 30
0.0
 11
113.965583
 21
233.130333
 31
0.0
  0
LINE
  8
1
  6
CONTINUOUS
 62
     6
  5
165
 10
105.465583
 20
233.130333
 30
0.0
 11
104.215583
 21
233.130333
 31
0.0
  0
LINE
  8
1
  6
CONTINUOUS
 62
     6
  5
166
 10
115.215583
 20
231.880333
 30
0.0
 11
113.965583
 21
231.880333
 31
0.0
  0
LINE
  8
1
  6
CONTINUOUS
 62
     6
  5
167
 10
105.465583
 20
231.880333
 30
0.0
 11
104.215583
 21
231.880333
 31
0.0
  0
LINE
  8
1
  6
CONTINUOUS
 62
     6
  5
168
 10
115.215583
 20
223.380333
 30
0.0
 11
113.965583
 21
223.380333
 31
0.0
  0
LINE
  8
1
  6
CONTINUOUS
 62
     6
  5
169
 10
105.465583
 20
223.380333
 30
0.0
 11
104.215583
 21
223.380333
 31
0.0
  0
LINE
  8
1
  6
CONTINUOUS
 62
     6
  5
16A
 10
115.215583
 20
222.130333
 30
0.0
 11
113.965583
 21
222.130333
 31
0.0
  0
LINE
  8
1
  6
CONTINUOUS
 62
     6
  5
16B
 10
105.465583
 20
222.130333
 30
0.0
 11
104.215583
 21
222.130333
 31
0.0
  0
LINE
  8
1
  6
CONTINUOUS
 62
     6
  5
16C
 10
108.215583
 20
234.130333
 30
0.0
 11
103.215583
 21
234.130333
 31
0.0
  0
LINE
  8
1
  6
CONTINUOUS
 62
     6
  5
16D
 10
116.215583
 20
234.130333
 30
0.0
 11
111.215583
 21
234.130333
 31
0.0
  0
LINE
  8
1
  6
CONTINUOUS
 62
     6
  5
16E
 10
111.215583
 20
233.130333
 30
0.0
 11
108.215583
 21
233.130333
 31
0.0
  0
LINE
  8
1
  6
CONTINUOUS
 62
     6
  5
16F
 10
110.715583
 20
232.630333
 30
0.0
 11
108.715583
 21
232.630333
 31
0.0
  0
LINE
  8
1
  6
CONTINUOUS
 62
     6
  5
170
 10
111.715583
 20
232.131333
 30
0.0
 11
107.715583
 21
232.131333
 31
0.0
  0
LINE
  8
1
  6
CONTINUOUS
 62
     6
  5
171
 10
111.715583
 20
225.131333
 30
0.0
 11
107.715583
 21
225.131333
 31
0.0
  0
LINE
  8
1
  6
CONTINUOUS
 62
     6
  5
172
 10
108.215583
 20
223.130333
 30
0.0
 11
108.215583
 21
221.130333
 31
0.0
  0
LINE
  8
1
  6
CONTINUOUS
 62
     6
  5
173
 10
111.215583
 20
223.130333
 30
0.0
 11
111.215583
 21
221.130333
 31
0.0
  0
CIRCLE
  8
1
  6
CONTINUOUS
 62
     6
  5
174
 10
109.731667
 20
229.819917
 30
0.0
 40
1.5
210
0.0
220
0.0
230
1.0
  0
LINE
  8
1
  6
CONTINUOUS
 62
     6
  5
175
 10
111.215583
 20
272.880333
 30
0.0
 11
111.215583
 21
232.131333
 31
0.0
  0
LINE
  8
1
  6
CONTINUOUS
 62
     6
  5
176
 10
108.215583
 20
272.880333
 30
0.0
 11
108.215583
 21
232.131333
 31
0.0
  0
LINE
  8
1
  6
CONTINUOUS
 62
     6
  5
177
 10
108.215583
 20
225.131333
 30
0.0
 11
108.215583
 21
197.022167
 31
0.0
  0
LINE
  8
1
  6
CONTINUOUS
 62
     6
  5
178
 10
111.215583
 20
225.131333
 30
0.0
 11
111.215583
 21
197.022167
 31
0.0
  0
LINE
  8
1
  6
CONTINUOUS
 62
     6
  5
179
 10
111.215583
 20
224.131333
 30
0.0
 11
108.215583
 21
224.131333
 31
0.0
  0
LINE
  8
1
  6
CONTINUOUS
 62
     6
  5
17A
 10
111.215583
 20
223.131333
 30
0.0
 11
108.215583
 21
223.131333
 31
0.0
  0
LINE
  8
1
  6
CONTINUOUS
 62
     6
  5
17B
 10
116.215583
 20
221.130333
 30
0.0
 11
111.215583
 21
221.130333
 31
0.0
  0
LINE
  8
1
  6
CONTINUOUS
 62
     6
  5
17C
 10
108.215583
 20
221.130333
 30
0.0
 11
103.215583
 21
221.130333
 31
0.0
  0
LINE
  8
1
  6
CONTINUOUS
 62
     6
  5
17D
 10
110.465583
 20
224.631333
 30
0.0
 11
108.965583
 21
224.631333
 31
0.0
  0
LINE
  8
1
  6
CONTINUOUS
 62
     6
  5
17E
 10
110.465583
 20
223.631333
 30
0.0
 11
108.965583
 21
223.631333
 31
0.0
  0
LINE
  8
1
  6
CONTINUOUS
 62
     6
  5
17F
 10
111.715583
 20
229.55175
 30
0.0
 11
111.715583
 21
225.131333
 31
0.0
  0
LINE
  8
1
  6
CONTINUOUS
 62
     6
  5
180
 10
111.715583
 20
232.131333
 30
0.0
 11
111.715583
 21
229.55175
 31
0.0
  0
ARC
  8
1
  6
CONTINUOUS
 62
     6
  5
181
 10
109.710917
 20
229.84075
 30
0.0
 40
2.0
 50
183.914808
 51
351.691675
210
0.0
220
0.0
230
1.0
  0
ARC
  8
1
  6
HIDDEN
 62
     6
  5
182
 10
109.710917
 20
229.84075
 30
0.0
 40
2.0
 50
183.914808
 51
176.085192
210
0.0
220
0.0
230
1.0
  0
LINE
  8
1
  6
CONTINUOUS
 62
     6
  5
183
 10
107.715583
 20
232.131333
 30
0.0
 11
107.715583
 21
231.8425
 31
0.0
  0
LINE
  8
1
  6
CONTINUOUS
 62
     6
  5
184
 10
107.715583
 20
227.835167
 30
0.0
 11
107.715583
 21
225.131333
 31
0.0
  0
LINE
  8
1
  6
CONTINUOUS
 62
     6
  5
185
 10
107.715583
 20
231.8425
 30
0.0
 11
107.715583
 21
227.835167
 31
0.0
  0
LINE
  8
1
  6
DASHED
 62
     6
  5
186
 10
72.1655
 20
273.180583
 30
0.0
 11
104.765833
 21
240.580083
 31
0.0
  0
LINE
  8
1
  6
DASHED
 62
     6
  5
187
 10
114.665333
 20
240.580083
 30
0.0
 11
147.265833
 21
273.180583
 31
0.0
  0
LINE
  8
1
  6
DASHED
 62
     6
  5
188
 10
104.765833
 20
315.680583
 30
0.0
 11
72.165417
 21
283.080167
 31
0.0
  0
LINE
  8
1
  6
DASHED
 62
     6
  5
189
 10
114.665333
 20
315.680583
 30
0.0
 11
147.265917
 21
283.080083
 31
0.0
  0
ARC
  8
1
  6
DASHED
 62
     6
  5
18A
 10
109.715583
 20
310.730838
 30
0.0
 40
7.0
 50
45.0
 51
135.0
210
0.0
220
0.0
230
1.0
  0
ARC
  8
1
  6
DASHED
 62
     6
  5
18B
 10
142.316118
 20
278.130363
 30
0.0
 40
7.0
 50
315.0
 51
44.999653
210
0.0
220
0.0
230
1.0
  0
ARC
  8
1
  6
DASHED
 62
     6
  5
18C
 10
77.115159
 20
278.130414
 30
0.0
 40
7.0
 50
135.0
 51
225.000936
210
0.0
220
0.0
230
1.0
  0
ARC
  8
1
  6
DASHED
 62
     6
  5
18D
 10
109.715597
 20
245.529842
 30
0.0
 40
7.0
 50
224.999842
 51
315.0
210
0.0
220
0.0
230
1.0
  0
LINE
  8
1
  6
CONTINUOUS
 62
     6
  5
18E
 10
103.215583
 20
319.130333
 30
0.0
 11
103.215583
 21
314.130333
 31
0.0
  0
LINE
  8
1
  6
HIDDEN
 62
     6
  5
18F
 10
103.215583
 20
314.130333
 30
0.0
 11
103.215583
 21
306.130333
 31
0.0
  0
LINE
  8
1
  6
CONTINUOUS
 62
     6
  5
190
 10
116.215583
 20
319.130333
 30
0.0
 11
116.215583
 21
314.130333
 31
0.0
  0
LINE
  8
1
  6
HIDDEN
 62
     6
  5
191
 10
116.215583
 20
314.130333
 30
0.0
 11
116.215583
 21
306.130333
 31
0.0
  0
LINE
  8
1
  6
CONTINUOUS
 62
     6
  5
192
 10
121.715583
 20
282.130333
 30
0.0
 11
121.715583
 21
279.630333
 31
0.0
  0
LINE
  8
1
  6
CONTINUOUS
 62
     6
  5
193
 10
97.715583
 20
274.130333
 30
0.0
 11
97.715583
 21
276.630333
 31
0.0
  0
LINE
  8
1
  6
CONTINUOUS
 62
     6
  5
194
 10
97.715583
 20
274.130333
 30
0.0
 11
107.715583
 21
276.422
 31
0.0
  0
LINE
  8
1
  6
HIDDEN
 62
     6
  5
195
 10
107.715583
 20
276.422
 30
0.0
 11
121.715583
 21
279.630333
 31
0.0
  0
LINE
  8
1
  6
CONTINUOUS
 62
     6
  5
196
 10
121.715583
 20
282.130333
 30
0.0
 11
111.715583
 21
279.838667
 31
0.0
  0
LINE
  8
1
  6
HIDDEN
 62
     6
  5
197
 10
111.715583
 20
279.838667
 30
0.0
 11
97.715583
 21
276.630333
 31
0.0
  0
LINE
  8
1
  6
CONTINUOUS
 62
     6
  5
198
 10
82.715583
 20
279.630333
 30
0.0
 11
82.715583
 21
279.64375
 31
0.0
  0
LINE
  8
1
  6
CONTINUOUS
 62
     6
  5
199
 10
82.715583
 20
279.64375
 30
0.0
 11
82.715583
 21
280.130333
 31
0.0
  0
LINE
  8
1
  6
CONTINUOUS
 62
     6
  5
19A
 10
106.715583
 20
279.630333
 30
0.0
 11
82.715583
 21
279.630333
 31
0.0
  0
LINE
  8
1
  6
CONTINUOUS
 62
     6
  5
19B
 10
82.715583
 20
279.630333
 30
0.0
 11
80.52375
 21
279.630333
 31
0.0
  0
LINE
  8
1
  6
CONTINUOUS
 62
     6
  5
19C
 10
106.715583
 20
276.630333
 30
0.0
 11
82.715583
 21
276.630333
 31
0.0
  0
LINE
  8
1
  6
CONTINUOUS
 62
     6
  5
19D
 10
82.715583
 20
276.630333
 30
0.0
 11
80.48425
 21
276.630333
 31
0.0
  0
LINE
  8
1
  6
HIDDEN
 62
     6
  5
19E
 10
82.715583
 20
276.630333
 30
0.0
 11
121.715583
 21
279.630333
 31
0.0
  0
LINE
  8
1
  6
CONTINUOUS
 62
     6
  5
19F
 10
112.715583
 20
279.630333
 30
0.0
 11
136.697917
 21
279.630333
 31
0.0
  0
LINE
  8
1
  6
CONTINUOUS
 62
     6
  5
1A0
 10
136.697917
 20
279.630333
 30
0.0
 11
138.9315
 21
279.630333
 31
0.0
  0
LINE
  8
1
  6
HIDDEN
 62
     6
  5
1A1
 10
97.715583
 20
276.630333
 30
0.0
 11
136.697917
 21
279.630333
 31
0.0
  0
LINE
  8
1
  6
CONTINUOUS
 62
     6
  5
1A2
 10
112.715583
 20
276.630333
 30
0.0
 11
136.697917
 21
276.630333
 31
0.0
  0
LINE
  8
1
  6
CONTINUOUS
 62
     6
  5
1A3
 10
136.697917
 20
276.630333
 30
0.0
 11
138.887667
 21
276.630333
 31
0.0
  0
LINE
  8
1
  6
HIDDEN
 62
     6
  5
1A4
 10
97.715583
 20
274.130333
 30
0.0
 11
121.715583
 21
275.6695
 31
0.0
  0
LINE
  8
1
  6
CONTINUOUS
 62
     6
  5
1A5
 10
121.715583
 20
275.6695
 30
0.0
 11
136.697917
 21
276.630333
 31
0.0
  0
LINE
  8
1
  6
CONTINUOUS
 62
     6
  5
1A6
 10
82.715583
 20
279.630333
 30
0.0
 11
97.715583
 21
280.591917
 31
0.0
  0
LINE
  8
1
  6
HIDDEN
 62
     6
  5
1A7
 10
97.715583
 20
280.591833
 30
0.0
 11
121.715583
 21
282.130333
 31
0.0
  0
LINE
  8
1
  6
CONTINUOUS
 62
     7
  5
1A8
 10
111.26925
 20
355.964083
 30
0.0
 11
125.242167
 21
362.336167
 31
0.0
  0
LINE
  8
1
  6
CONTINUOUS
 62
     7
  5
1A9
 10
125.242167
 20
362.336167
 30
0.0
 11
129.76275
 21
362.336167
 31
0.0
  0
INSERT
  8
1
  6
CONTINUOUS
 62
     1
  5
1CA
  2
LDR
 10
111.26925
 20
355.964083
 30
0.0
 41
240.0
 42
240.0
 50
204.514456
210
0.0
220
0.0
230
1.0
  0
LINE
  8
1
  6
CONTINUOUS
 62
     7
  5
1CB
 10
145.803667
 20
280.230833
 30
0.0
 11
137.083417
 21
286.852417
 31
0.0
  0
LINE
  8
1
  6
CONTINUOUS
 62
     7
  5
1CC
 10
137.083417
 20
286.852417
 30
0.0
 11
133.912417
 21
286.852417
 31
0.0
  0
INSERT
  8
1
  6
CONTINUOUS
 62
     1
  5
1CD
  2
LDR
 10
145.803667
 20
280.230833
 30
0.0
 41
240.0
 42
240.0
 50
322.789358
210
0.0
220
0.0
230
1.0
  0
LINE
  8
1
  6
CONTINUOUS
 62
     7
  5
1CE
 10
111.408167
 20
199.4115
 30
0.0
 11
125.381083
 21
205.783583
 31
0.0
  0
LINE
  8
1
  6
CONTINUOUS
 62
     7
  5
1CF
 10
125.381083
 20
205.783583
 30
0.0
 11
129.901667
 21
205.783583
 31
0.0
  0
INSERT
  8
1
  6
CONTINUOUS
 62
     1
  5
1D0
  2
LDR
 10
111.408167
 20
199.4115
 30
0.0
 41
240.0
 42
240.0
 50
204.514456
210
0.0
220
0.0
230
1.0
  0
TEXT
  8
1
  6
CONTINUOUS
 62
     7
  5
1D1
 10
130.542167
 20
361.406
 30
0.0
 40
2.5
  1
1 1/4 " CONDUIT
  7
MONOTXT
210
0.0
220
0.0
230
1.0
  0
TEXT
  8
1
  6
CONTINUOUS
 62
     7
  5
1D2
 10
126.32425
 20
285.457583
 30
0.0
 40
2.5
  1
CAP
  7
MONOTXT
210
0.0
220
0.0
230
1.0
  0
TEXT
  8
1
  6
CONTINUOUS
 62
     7
  5
1D3
 10
130.542167
 20
204.72725
 30
0.0
 40
2.5
  1
1 1/4 " CONDUIT
  7
MONOTXT
210
0.0
220
0.0
230
1.0
  0
LINE
  8
1
  6
CONTINUOUS
 62
     6
  5
1D4
 10
102.715583
 20
173.130333
 30
0.0
 11
116.715583
 21
173.130333
 31
0.0
  0
LINE
  8
1
  6
CONTINUOUS
 62
     6
  5
1D5
 10
101.465583
 20
163.130333
 30
0.0
 11
117.965583
 21
163.130333
 31
0.0
  0
LINE
  8
1
  6
CONTINUOUS
 62
     6
  5
1D6
 10
102.715583
 20
173.130333
 30
0.0
 11
102.715583
 21
163.130333
 31
0.0
  0
LINE
  8
1
  6
CONTINUOUS
 62
     6
  5
1D7
 10
116.715583
 20
173.130333
 30
0.0
 11
116.715583
 21
163.130333
 31
0.0
  0
LINE
  8
1
  6
CONTINUOUS
 62
     6
  5
1D8
 10
101.465583
 20
163.130333
 30
0.0
 11
101.465583
 21
153.130333
 31
0.0
  0
LINE
  8
1
  6
CONTINUOUS
 62
     6
  5
1D9
 10
117.965583
 20
163.130333
 30
0.0
 11
117.965583
 21
153.130333
 31
0.0
  0
LINE
  8
1
  6
HIDDEN
 62
     6
  5
1DA
 10
101.465583
 20
160.130333
 30
0.0
 11
117.965583
 21
160.130333
 31
0.0
  0
LINE
  8
1
  6
HIDDEN
 62
     6
  5
1DB
 10
101.465583
 20
159.630333
 30
0.0
 11
117.965583
 21
159.630333
 31
0.0
  0
LINE
  8
1
  6
CONTINUOUS
 62
     6
  5
1DC
 10
101.465583
 20
160.130333
 30
0.0
 11
68.465583
 21
160.130333
 31
0.0
  0
LINE
  8
1
  6
CONTINUOUS
 62
     6
  5
1DD
 10
101.465583
 20
159.630333
 30
0.0
 11
68.465583
 21
159.630333
 31
0.0
  0
LINE
  8
1
  6
CONTINUOUS
 62
     6
  5
1DE
 10
117.965583
 20
160.130333
 30
0.0
 11
150.965583
 21
160.130333
 31
0.0
  0
LINE
  8
1
  6
CONTINUOUS
 62
     6
  5
1DF
 10
117.965583
 20
159.630333
 30
0.0
 11
150.965583
 21
159.630333
 31
0.0
  0
LINE
  8
1
  6
CONTINUOUS
 62
     6
  5
1E0
 10
101.465583
 20
158.130333
 30
0.0
 11
75.965583
 21
158.130333
 31
0.0
  0
LINE
  8
1
  6
CONTINUOUS
 62
     6
  5
1E1
 10
101.465583
 20
155.630333
 30
0.0
 11
75.965583
 21
155.630333
 31
0.0
  0
LINE
  8
1
  6
CONTINUOUS
 62
     6
  5
1E2
 10
117.965583
 20
158.130333
 30
0.0
 11
143.465583
 21
158.130333
 31
0.0
  0
LINE
  8
1
  6
CONTINUOUS
 62
     6
  5
1E3
 10
117.965583
 20
155.630333
 30
0.0
 11
143.465583
 21
155.630333
 31
0.0
  0
LINE
  8
1
  6
CONTINUOUS
 62
     6
  5
1E4
 10
68.465583
 20
160.130333
 30
0.0
 11
68.465583
 21
159.630333
 31
0.0
  0
LINE
  8
1
  6
CONTINUOUS
 62
     6
  5
1E5
 10
150.965583
 20
160.130333
 30
0.0
 11
150.965583
 21
159.630333
 31
0.0
  0
LINE
  8
1
  6
CONTINUOUS
 62
     6
  5
1E6
 10
75.965583
 20
158.630333
 30
0.0
 11
75.965583
 21
155.130333
 31
0.0
  0
LINE
  8
1
  6
CONTINUOUS
 62
     6
  5
1E7
 10
143.465583
 20
158.630333
 30
0.0
 11
143.465583
 21
155.130333
 31
0.0
  0
LINE
  8
1
  6
CONTINUOUS
 62
     6
  5
1E8
 10
73.465583
 20
158.630333
 30
0.0
 11
73.465583
 21
155.130333
 31
0.0
  0
LINE
  8
1
  6
CONTINUOUS
 62
     6
  5
1E9
 10
73.465583
 20
158.630333
 30
0.0
 11
75.965583
 21
158.630333
 31
0.0
  0
LINE
  8
1
  6
CONTINUOUS
 62
     6
  5
1EA
 10
73.465583
 20
155.130333
 30
0.0
 11
75.965583
 21
155.130333
 31
0.0
  0
LINE
  8
1
  6
CONTINUOUS
 62
     6
  5
1EB
 10
76.965583
 20
158.130333
 30
0.0
 11
76.965583
 21
155.630333
 31
0.0
  0
LINE
  8
1
  6
CONTINUOUS
 62
     6
  5
1EC
 10
77.965583
 20
158.130333
 30
0.0
 11
77.965583
 21
155.630333
 31
0.0
  0
LINE
  8
1
  6
CONTINUOUS
 62
     6
  5
1ED
 10
76.465583
 20
157.380333
 30
0.0
 11
76.465583
 21
156.380333
 31
0.0
  0
LINE
  8
1
  6
CONTINUOUS
 62
     6
  5
1EE
 10
77.465583
 20
157.380333
 30
0.0
 11
77.465583
 21
156.380333
 31
0.0
  0
LINE
  8
1
  6
CONTINUOUS
 62
     6
  5
1EF
 10
145.965583
 20
158.630333
 30
0.0
 11
145.965583
 21
155.130333
 31
0.0
  0
LINE
  8
1
  6
CONTINUOUS
 62
     6
  5
1F0
 10
143.465583
 20
158.630333
 30
0.0
 11
145.965583
 21
158.630333
 31
0.0
  0
LINE
  8
1
  6
CONTINUOUS
 62
     6
  5
1F1
 10
145.965583
 20
155.130333
 30
0.0
 11
143.465583
 21
155.130333
 31
0.0
  0
LINE
  8
1
  6
CONTINUOUS
 62
     6
  5
1F2
 10
142.465583
 20
158.130333
 30
0.0
 11
142.465583
 21
155.630333
 31
0.0
  0
LINE
  8
1
  6
CONTINUOUS
 62
     6
  5
1F3
 10
141.465583
 20
158.130333
 30
0.0
 11
141.465583
 21
155.630333
 31
0.0
  0
LINE
  8
1
  6
CONTINUOUS
 62
     6
  5
1F4
 10
141.965583
 20
157.380333
 30
0.0
 11
141.965583
 21
156.380333
 31
0.0
  0
LINE
  8
1
  6
CONTINUOUS
 62
     6
  5
1F5
 10
142.965583
 20
157.380333
 30
0.0
 11
142.965583
 21
156.380333
 31
0.0
  0
LINE
  8
1
  6
CONTINUOUS
 62
     6
  5
1F6
 10
78.965583
 20
155.630333
 30
0.0
 11
78.965583
 21
152.630333
 31
0.0
  0
LINE
  8
1
  6
CONTINUOUS
 62
     6
  5
1F7
 10
79.465583
 20
160.630333
 30
0.0
 11
79.465583
 21
160.130333
 31
0.0
  0
LINE
  8
1
  6
CONTINUOUS
 62
     6
  5
1F8
 10
79.465583
 20
159.630333
 30
0.0
 11
79.465583
 21
158.130333
 31
0.0
  0
LINE
  8
1
  6
CONTINUOUS
 62
     6
  5
1F9
 10
82.465583
 20
160.630333
 30
0.0
 11
82.465583
 21
160.130333
 31
0.0
  0
LINE
  8
1
  6
CONTINUOUS
 62
     6
  5
1FA
 10
82.465583
 20
159.630333
 30
0.0
 11
82.465583
 21
158.130333
 31
0.0
  0
LINE
  8
1
  6
CONTINUOUS
 62
     6
  5
1FB
 10
79.465583
 20
160.630333
 30
0.0
 11
82.465583
 21
160.630333
 31
0.0
  0
LINE
  8
1
  6
CONTINUOUS
 62
     6
  5
1FC
 10
79.965583
 20
161.130333
 30
0.0
 11
79.965583
 21
160.630333
 31
0.0
  0
LINE
  8
1
  6
CONTINUOUS
 62
     6
  5
1FD
 10
81.965583
 20
161.130333
 30
0.0
 11
81.965583
 21
160.630333
 31
0.0
  0
LINE
  8
1
  6
CONTINUOUS
 62
     6
  5
1FE
 10
80.965583
 20
161.130333
 30
0.0
 11
80.965583
 21
160.630333
 31
0.0
  0
LINE
  8
1
  6
CONTINUOUS
 62
     6
  5
1FF
 10
79.965583
 20
161.130333
 30
0.0
 11
81.965583
 21
161.130333
 31
0.0
  0
LINE
  8
1
  6
CONTINUOUS
 62
     6
  5
200
 10
79.465583
 20
154.880333
 30
0.0
 11
79.465583
 21
152.630333
 31
0.0
  0
LINE
  8
1
  6
CONTINUOUS
 62
     6
  5
201
 10
82.465583
 20
154.880333
 30
0.0
 11
82.465583
 21
152.630333
 31
0.0
  0
LINE
  8
1
  6
CONTINUOUS
 62
     6
  5
202
 10
79.465583
 20
154.880333
 30
0.0
 11
82.465583
 21
154.880333
 31
0.0
  0
LINE
  8
1
  6
CONTINUOUS
 62
     6
  5
203
 10
78.965583
 20
152.630333
 30
0.0
 11
79.465583
 21
152.630333
 31
0.0
  0
LINE
  8
1
  6
CONTINUOUS
 62
     6
  5
204
 10
82.465583
 20
152.630333
 30
0.0
 11
82.965583
 21
152.630333
 31
0.0
  0
LINE
  8
1
  6
CONTINUOUS
 62
     6
  5
205
 10
78.715583
 20
153.280333
 30
0.0
 11
78.965583
 21
153.280333
 31
0.0
  0
LINE
  8
1
  6
CONTINUOUS
 62
     6
  5
206
 10
78.715583
 20
152.880333
 30
0.0
 11
78.965583
 21
152.880333
 31
0.0
  0
LINE
  8
1
  6
CONTINUOUS
 62
     6
  5
207
 10
82.965583
 20
155.630333
 30
0.0
 11
82.965583
 21
153.2975
 31
0.0
  0
LINE
  8
1
  6
CONTINUOUS
 62
     6
  5
208
 10
82.965583
 20
153.275417
 30
0.0
 11
82.965583
 21
152.630333
 31
0.0
  0
LINE
  8
1
  6
CONTINUOUS
 62
     6
  5
209
 10
79.465583
 20
153.280333
 30
0.0
 11
82.465583
 21
153.280333
 31
0.0
  0
LINE
  8
1
  6
CONTINUOUS
 62
     6
  5
20A
 10
82.965583
 20
153.280333
 30
0.0
 11
83.215583
 21
153.280333
 31
0.0
  0
LINE
  8
1
  6
CONTINUOUS
 62
     6
  5
20B
 10
79.465583
 20
152.880333
 30
0.0
 11
82.465583
 21
152.880333
 31
0.0
  0
LINE
  8
1
  6
CONTINUOUS
 62
     6
  5
20C
 10
82.965583
 20
152.880333
 30
0.0
 11
83.215583
 21
152.880333
 31
0.0
  0
ARC
  8
1
  6
CONTINUOUS
 62
     6
  5
20D
 10
78.85459
 20
151.725999
 30
0.0
 40
1.162674
 50
96.866564
 51
233.498489
210
0.0
220
0.0
230
1.0
  0
ARC
  8
1
  6
CONTINUOUS
 62
     6
  5
20E
 10
78.828418
 20
151.735839
 30
0.0
 40
1.548611
 50
94.178386
 51
233.904056
210
0.0
220
0.0
230
1.0
  0
ARC
  8
1
  6
CONTINUOUS
 62
     6
  5
20F
 10
83.071268
 20
151.986018
 30
0.0
 40
0.905885
 50
24.779478
 51
80.833211
210
0.0
220
0.0
230
1.0
  0
ARC
  8
1
  6
CONTINUOUS
 62
     6
  5
210
 10
82.936205
 20
151.850955
 30
0.0
 40
1.456425
 50
30.86815
 51
78.940708
210
0.0
220
0.0
230
1.0
  0
LINE
  8
1
  6
CONTINUOUS
 62
     6
  5
211
 10
84.186333
 20
152.598167
 30
0.0
 11
86.272333
 21
146.726083
 31
0.0
  0
LINE
  8
1
  6
CONTINUOUS
 62
     6
  5
212
 10
77.916083
 20
150.4845
 30
0.0
 11
85.583
 21
146.30375
 31
0.0
  0
LINE
  8
1
  6
CONTINUOUS
 62
     6
  5
213
 10
83.89375
 20
152.365667
 30
0.0
 11
85.964333
 21
146.537333
 31
0.0
  0
LINE
  8
1
  6
CONTINUOUS
 62
     6
  5
214
 10
78.163
 20
150.791417
 30
0.0
 11
85.964333
 21
146.537333
 31
0.0
  0
LINE
  8
1
  6
CONTINUOUS
 62
     6
  5
215
 10
86.68575
 20
146.979333
 30
0.0
 11
85.242917
 21
146.095333
 31
0.0
  0
LINE
  8
1
  6
CONTINUOUS
 62
     6
  5
216
 10
87.991667
 20
144.8475
 30
0.0
 11
86.54875
 21
143.963583
 31
0.0
  0
LINE
  8
1
  6
CONTINUOUS
 62
     6
  5
217
 10
86.68575
 20
146.979333
 30
0.0
 11
87.991667
 21
144.8475
 31
0.0
  0
LINE
  8
1
  6
CONTINUOUS
 62
     6
  5
218
 10
85.242917
 20
146.095333
 30
0.0
 11
86.54875
 21
143.963583
 31
0.0
  0
LINE
  8
1
  6
CONTINUOUS
 62
     6
  5
219
 10
98.23
 20
126.882083
 30
0.0
 11
87.572417
 21
144.590667
 31
0.0
  0
LINE
  8
1
  6
CONTINUOUS
 62
     6
  5
21A
 10
97.40825
 20
126.738917
 30
0.0
 11
86.909083
 21
144.184333
 31
0.0
  0
LINE
  8
1
  6
CONTINUOUS
 62
     6
  5
21B
 10
121.746667
 20
127.925583
 30
0.0
 11
131.77625
 21
144.590667
 31
0.0
  0
LINE
  8
1
  6
CONTINUOUS
 62
     6
  5
21C
 10
140.383083
 20
155.630333
 30
0.0
 11
140.383083
 21
152.630333
 31
0.0
  0
LINE
  8
1
  6
CONTINUOUS
 62
     6
  5
21D
 10
139.883083
 20
160.630333
 30
0.0
 11
139.883083
 21
160.130333
 31
0.0
  0
LINE
  8
1
  6
CONTINUOUS
 62
     6
  5
21E
 10
139.883083
 20
159.630333
 30
0.0
 11
139.883083
 21
158.130333
 31
0.0
  0
LINE
  8
1
  6
CONTINUOUS
 62
     6
  5
21F
 10
136.883083
 20
160.630333
 30
0.0
 11
136.883083
 21
160.130333
 31
0.0
  0
LINE
  8
1
  6
CONTINUOUS
 62
     6
  5
220
 10
136.883083
 20
159.630333
 30
0.0
 11
136.883083
 21
158.130333
 31
0.0
  0
LINE
  8
1
  6
CONTINUOUS
 62
     6
  5
221
 10
139.883083
 20
160.630333
 30
0.0
 11
136.883083
 21
160.630333
 31
0.0
  0
LINE
  8
1
  6
CONTINUOUS
 62
     6
  5
222
 10
139.383083
 20
161.130333
 30
0.0
 11
139.383083
 21
160.630333
 31
0.0
  0
LINE
  8
1
  6
CONTINUOUS
 62
     6
  5
223
 10
137.383083
 20
161.130333
 30
0.0
 11
137.383083
 21
160.630333
 31
0.0
  0
LINE
  8
1
  6
CONTINUOUS
 62
     6
  5
224
 10
138.383083
 20
161.130333
 30
0.0
 11
138.383083
 21
160.630333
 31
0.0
  0
LINE
  8
1
  6
CONTINUOUS
 62
     6
  5
225
 10
139.383083
 20
161.130333
 30
0.0
 11
137.383083
 21
161.130333
 31
0.0
  0
LINE
  8
1
  6
CONTINUOUS
 62
     6
  5
226
 10
139.883083
 20
154.880333
 30
0.0
 11
139.883083
 21
152.630333
 31
0.0
  0
LINE
  8
1
  6
CONTINUOUS
 62
     6
  5
227
 10
136.883083
 20
154.880333
 30
0.0
 11
136.883083
 21
152.630333
 31
0.0
  0
LINE
  8
1
  6
CONTINUOUS
 62
     6
  5
228
 10
139.883083
 20
154.880333
 30
0.0
 11
136.883083
 21
154.880333
 31
0.0
  0
LINE
  8
1
  6
CONTINUOUS
 62
     6
  5
229
 10
140.383083
 20
152.630333
 30
0.0
 11
139.883083
 21
152.630333
 31
0.0
  0
LINE
  8
1
  6
CONTINUOUS
 62
     6
  5
22A
 10
136.883083
 20
152.630333
 30
0.0
 11
136.383083
 21
152.630333
 31
0.0
  0
LINE
  8
1
  6
CONTINUOUS
 62
     6
  5
22B
 10
140.633083
 20
153.280333
 30
0.0
 11
140.383083
 21
153.280333
 31
0.0
  0
LINE
  8
1
  6
CONTINUOUS
 62
     6
  5
22C
 10
136.383083
 20
155.630333
 30
0.0
 11
136.383083
 21
153.2975
 31
0.0
  0
LINE
  8
1
  6
CONTINUOUS
 62
     6
  5
22D
 10
136.383083
 20
153.275417
 30
0.0
 11
136.383083
 21
152.630333
 31
0.0
  0
LINE
  8
1
  6
CONTINUOUS
 62
     6
  5
22E
 10
139.883083
 20
153.280333
 30
0.0
 11
136.883083
 21
153.280333
 31
0.0
  0
LINE
  8
1
  6
CONTINUOUS
 62
     6
  5
22F
 10
136.383083
 20
153.280333
 30
0.0
 11
136.133083
 21
153.280333
 31
0.0
  0
LINE
  8
1
  6
CONTINUOUS
 62
     6
  5
230
 10
139.883083
 20
152.880333
 30
0.0
 11
136.883083
 21
152.880333
 31
0.0
  0
LINE
  8
1
  6
CONTINUOUS
 62
     6
  5
231
 10
136.383083
 20
152.880333
 30
0.0
 11
136.133083
 21
152.880333
 31
0.0
  0
ARC
  8
1
  6
CONTINUOUS
 62
     6
  5
232
 10
140.494077
 20
151.725999
 30
0.0
 40
1.162674
 50
306.501511
 51
83.133436
210
0.0
220
0.0
230
1.0
  0
ARC
  8
1
  6
CONTINUOUS
 62
     6
  5
233
 10
140.520248
 20
151.735839
 30
0.0
 40
1.548611
 50
306.095944
 51
85.821614
210
0.0
220
0.0
230
1.0
  0
ARC
  8
1
  6
CONTINUOUS
 62
     6
  5
234
 10
136.277399
 20
151.986018
 30
0.0
 40
0.905885
 50
99.166789
 51
155.220522
210
0.0
220
0.0
230
1.0
  0
ARC
  8
1
  6
CONTINUOUS
 62
     6
  5
235
 10
136.412462
 20
151.850955
 30
0.0
 40
1.456425
 50
101.059292
 51
149.13185
210
0.0
220
0.0
230
1.0
  0
LINE
  8
1
  6
CONTINUOUS
 62
     6
  5
236
 10
135.162333
 20
152.598167
 30
0.0
 11
133.076333
 21
146.726083
 31
0.0
  0
LINE
  8
1
  6
CONTINUOUS
 62
     6
  5
237
 10
141.432583
 20
150.4845
 30
0.0
 11
133.765667
 21
146.30375
 31
0.0
  0
LINE
  8
1
  6
CONTINUOUS
 62
     6
  5
238
 10
135.454917
 20
152.365667
 30
0.0
 11
133.384333
 21
146.537333
 31
0.0
  0
LINE
  8
1
  6
CONTINUOUS
 62
     6
  5
239
 10
141.185667
 20
150.791417
 30
0.0
 11
133.384333
 21
146.537333
 31
0.0
  0
LINE
  8
1
  6
CONTINUOUS
 62
     6
  5
23A
 10
132.662917
 20
146.979333
 30
0.0
 11
134.10575
 21
146.095333
 31
0.0
  0
LINE
  8
1
  6
CONTINUOUS
 62
     6
  5
23B
 10
131.357
 20
144.8475
 30
0.0
 11
132.799917
 21
143.963583
 31
0.0
  0
LINE
  8
1
  6
CONTINUOUS
 62
     6
  5
23C
 10
132.662917
 20
146.979333
 30
0.0
 11
131.357
 21
144.8475
 31
0.0
  0
LINE
  8
1
  6
CONTINUOUS
 62
     6
  5
23D
 10
134.10575
 20
146.095333
 30
0.0
 11
132.799917
 21
143.963583
 31
0.0
  0
LINE
  8
1
  6
CONTINUOUS
 62
     6
  5
23E
 10
121.478667
 20
125.971667
 30
0.0
 11
132.439583
 21
144.184333
 31
0.0
  0
ARC
  8
1
  6
CONTINUOUS
 62
     6
  5
23F
 10
131.283129
 20
120.534265
 30
0.0
 40
11.5
 50
155.725128
 51
155.725131
210
0.0
220
0.0
230
1.0
  0
CIRCLE
  8
1
  6
CONTINUOUS
 62
     6
  5
240
 10
109.470917
 20
130.733167
 30
0.0
 40
11.882285
210
0.0
220
0.0
230
1.0
  0
ARC
  8
1
  6
CONTINUOUS
 62
     6
  5
241
 10
108.23468
 20
131.570951
 30
0.0
 40
11.855807
 50
204.052083
 51
211.984317
210
0.0
220
0.0
230
1.0
  0
ARC
  8
1
  6
CONTINUOUS
 62
     6
  5
242
 10
73.346906
 20
158.988335
 30
0.0
 40
58.367514
 50
323.71745
 51
325.551269
210
0.0
220
0.0
230
1.0
  0
ARC
  8
1
  6
CONTINUOUS
 62
     6
  5
243
 10
109.508218
 20
130.673804
 30
0.0
 40
12.543211
 50
121.431319
 51
188.900953
210
0.0
220
0.0
230
1.0
  0
ARC
  8
1
  6
CONTINUOUS
 62
     6
  5
244
 10
109.508218
 20
130.673804
 30
0.0
 40
12.543211
 50
205.412625
 51
56.931756
210
0.0
220
0.0
230
1.0
  0
ARC
  8
1
  6
CONTINUOUS
 62
     6
  5
245
 10
109.494516
 20
131.223525
 30
0.0
 40
12.543211
 50
55.608975
 51
122.644172
210
0.0
220
0.0
230
1.0
  0
LINE
  8
1
  6
CONTINUOUS
 62
     6
  5
246
 10
102.728417
 20
141.785333
 30
0.0
 11
103.26525
 21
140.866167
 31
0.0
  0
LINE
  8
1
  6
CONTINUOUS
 62
     6
  5
247
 10
116.579417
 20
141.574167
 30
0.0
 11
116.03325
 21
140.639
 31
0.0
  0
LINE
  8
1
  6
CONTINUOUS
 62
     6
  5
248
 10
107.965583
 20
144.108
 30
0.0
 11
107.965583
 21
150.26475
 31
0.0
  0
LINE
  8
1
  6
CONTINUOUS
 62
     6
  5
249
 10
111.465583
 20
144.0305
 30
0.0
 11
111.465583
 21
150.26475
 31
0.0
  0
ARC
  8
1
  6
CONTINUOUS
 62
     6
  5
24A
 10
107.465583
 20
144.107964
 30
0.0
 40
0.5
 50
278.948969
 51
360.0
210
0.0
220
0.0
230
1.0
  0
ARC
  8
1
  6
CONTINUOUS
 62
     6
  5
24B
 10
111.965583
 20
144.030522
 30
0.0
 40
0.5
 50
180.0
 51
259.079175
210
0.0
220
0.0
230
1.0
  0
LINE
  8
1
  6
CONTINUOUS
 62
     6
  5
24C
 10
107.965583
 20
150.26475
 30
0.0
 11
111.465583
 21
150.26475
 31
0.0
  0
ARC
  8
1
  6
CONTINUOUS
 62
     6
  5
24D
 10
109.715583
 20
146.243917
 30
0.0
 40
1.770833
 50
8.797411
 51
171.202589
210
0.0
220
0.0
230
1.0
  0
CIRCLE
  8
1
  6
CONTINUOUS
 62
     6
  5
24E
 10
109.7095
 20
146.438417
 30
0.0
 40
1.25
210
0.0
220
0.0
230
1.0
  0
LINE
  8
1
  6
CONTINUOUS
 62
     6
  5
24F
 10
108.465583
 20
151.26475
 30
0.0
 11
110.965583
 21
151.26475
 31
0.0
  0
LINE
  8
1
  6
CONTINUOUS
 62
     6
  5
250
 10
108.965583
 20
150.76475
 30
0.0
 11
110.465583
 21
150.76475
 31
0.0
  0
LINE
  8
1
  6
CONTINUOUS
 62
     6
  5
251
 10
108.465583
 20
150.26475
 30
0.0
 11
108.465583
 21
154.51475
 31
0.0
  0
LINE
  8
1
  6
CONTINUOUS
 62
     6
  5
252
 10
110.965583
 20
150.26475
 30
0.0
 11
110.965583
 21
154.51475
 31
0.0
  0
LINE
  8
1
  6
CONTINUOUS
 62
     6
  5
253
 10
107.465583
 20
154.51475
 30
0.0
 11
111.965583
 21
154.51475
 31
0.0
  0
LINE
  8
1
  6
HIDDEN
 62
     6
  5
254
 10
108.465583
 20
154.26475
 30
0.0
 11
110.965583
 21
154.26475
 31
0.0
  0
LINE
  8
1
  6
CONTINUOUS
 62
     6
  5
255
 10
107.465583
 20
154.51475
 30
0.0
 11
107.465583
 21
156.51475
 31
0.0
  0
LINE
  8
1
  6
CONTINUOUS
 62
     6
  5
256
 10
111.965583
 20
154.51475
 30
0.0
 11
111.965583
 21
156.51475
 31
0.0
  0
ARC
  8
1
  6
CONTINUOUS
 62
     6
  5
257
 10
109.715583
 20
156.01175
 30
0.0
 40
2.305539
 50
12.601581
 51
167.398419
210
0.0
220
0.0
230
1.0
  0
LINE
  8
1
  6
HIDDEN
 62
     6
  5
258
 10
101.465583
 20
155.630333
 30
0.0
 11
107.465583
 21
155.630333
 31
0.0
  0
LINE
  8
1
  6
HIDDEN
 62
     6
  5
259
 10
111.965583
 20
155.630333
 30
0.0
 11
117.965583
 21
155.630333
 31
0.0
  0
LINE
  8
1
  6
HIDDEN
 62
     6
  5
25A
 10
101.465583
 20
158.130333
 30
0.0
 11
108.806083
 21
158.130333
 31
0.0
  0
LINE
  8
1
  6
HIDDEN
 62
     6
  5
25B
 10
110.625083
 20
158.130333
 30
0.0
 11
117.965583
 21
158.130333
 31
0.0
  0
CIRCLE
  8
1
  6
CONTINUOUS
 62
     6
  5
25C
 10
109.731083
 20
153.782083
 30
0.0
 40
0.5
210
0.0
220
0.0
230
1.0
  0
LINE
  8
1
  6
CONTINUOUS
 62
     6
  5
25D
 10
101.465583
 20
153.130333
 30
0.0
 11
108.465583
 21
153.130333
 31
0.0
  0
LINE
  8
1
  6
CONTINUOUS
 62
     6
  5
25E
 10
110.965583
 20
153.130333
 30
0.0
 11
117.965583
 21
153.130333
 31
0.0
  0
CIRCLE
  8
1
  6
HIDDEN
 62
     6
  5
25F
 10
109.711917
 20
156.451833
 30
0.0
 40
1.125
210
0.0
220
0.0
230
1.0
  0
LINE
  8
1
  6
HIDDEN
 62
     6
  5
260
 10
106.715583
 20
155.130333
 30
0.0
 11
106.715583
 21
158.130333
 31
0.0
  0
LINE
  8
1
  6
HIDDEN
 62
     6
  5
261
 10
112.715583
 20
155.130333
 30
0.0
 11
112.715583
 21
158.130333
 31
0.0
  0
LINE
  8
1
  6
HIDDEN
 62
     6
  5
262
 10
106.715583
 20
155.130333
 30
0.0
 11
108.465583
 21
154.26475
 31
0.0
  0
LINE
  8
1
  6
HIDDEN
 62
     6
  5
263
 10
112.715583
 20
155.130333
 30
0.0
 11
110.965583
 21
154.26475
 31
0.0
  0
LINE
  8
1
  6
CONTINUOUS
 62
     6
  5
264
 10
108.215583
 20
118.197417
 30
0.0
 11
108.215583
 21
117.247333
 31
0.0
  0
LINE
  8
1
  6
CONTINUOUS
 62
     6
  5
265
 10
111.215583
 20
118.247333
 30
0.0
 11
111.215583
 21
117.247333
 31
0.0
  0
LINE
  8
1
  6
CONTINUOUS
 62
     6
  5
266
 10
108.215583
 20
117.247333
 30
0.0
 11
111.215583
 21
117.247333
 31
0.0
  0
LINE
  8
1
  6
CONTINUOUS
 62
     6
  5
267
 10
80.215583
 20
154.380333
 30
0.0
 11
81.715583
 21
154.380333
 31
0.0
  0
LINE
  8
1
  6
CONTINUOUS
 62
     6
  5
268
 10
80.215583
 20
154.380333
 30
0.0
 11
80.215583
 21
154.880333
 31
0.0
  0
LINE
  8
1
  6
CONTINUOUS
 62
     6
  5
269
 10
81.715583
 20
154.380333
 30
0.0
 11
81.715583
 21
154.880333
 31
0.0
  0
ARC
  8
1
  6
CONTINUOUS
 62
     6
  5
26A
 10
80.965583
 20
154.42049
 30
0.0
 40
0.253205
 50
189.125211
 51
350.874786
210
0.0
220
0.0
230
1.0
  0
LINE
  8
1
  6
CONTINUOUS
 62
     6
  5
26B
 10
139.150083
 20
154.380333
 30
0.0
 11
137.650083
 21
154.380333
 31
0.0
  0
LINE
  8
1
  6
CONTINUOUS
 62
     6
  5
26C
 10
139.150083
 20
154.380333
 30
0.0
 11
139.150083
 21
154.880333
 31
0.0
  0
LINE
  8
1
  6
CONTINUOUS
 62
     6
  5
26D
 10
137.650083
 20
154.380333
 30
0.0
 11
137.650083
 21
154.880333
 31
0.0
  0
ARC
  8
1
  6
CONTINUOUS
 62
     6
  5
26E
 10
138.400083
 20
154.42049
 30
0.0
 40
0.253205
 50
189.125214
 51
350.874789
210
0.0
220
0.0
230
1.0
  0
LINE
  8
1
  6
CONTINUOUS
 62
     7
  5
26F
 10
79.4245
 20
158.919667
 30
0.0
 11
70.237083
 21
164.34425
 31
0.0
  0
LINE
  8
1
  6
CONTINUOUS
 62
     7
  5
270
 10
70.237083
 20
164.34425
 30
0.0
 11
68.534083
 21
164.34425
 31
0.0
  0
INSERT
  8
1
  6
CONTINUOUS
 62
     1
  5
271
  2
LDR
 10
79.4245
 20
158.919667
 30
0.0
 41
239.999998
 42
239.999998
 50
329.44086
210
0.0
220
0.0
230
1.0
  0
INSERT
  8
1
  6
CONTINUOUS
 62
     1
  5
272
  2
LDR
 10
79.4245
 20
158.919667
 30
0.0
 41
239.999998
 42
239.999998
 50
329.44086
210
0.0
220
0.0
230
1.0
  0
LINE
  8
1
  6
CONTINUOUS
 62
     7
  5
273
 10
138.92075
 20
161.158083
 30
0.0
 11
145.3655
 21
169.821
 31
0.0
  0
LINE
  8
1
  6
CONTINUOUS
 62
     7
  5
274
 10
145.3655
 20
169.821
 30
0.0
 11
146.612917
 21
169.821
 31
0.0
  0
LINE
  8
1
  6
CONTINUOUS
 62
     7
  5
275
 10
139.871167
 20
160.623333
 30
0.0
 11
142.75425
 21
163.37625
 31
0.0
  0
LINE
  8
1
  6
CONTINUOUS
 62
     7
  5
276
 10
140.554333
 20
154.05725
 30
0.0
 11
146.256917
 21
149.363
 31
0.0
  0
LINE
  8
1
  6
CONTINUOUS
 62
     7
  5
277
 10
146.256917
 20
149.363
 30
0.0
 11
148.336
 21
149.363
 31
0.0
  0
LINE
  8
1
  6
CONTINUOUS
 62
     7
  5
278
 10
133.45575
 20
144.906333
 30
0.0
 11
138.92075
 21
136.765583
 31
0.0
  0
LINE
  8
1
  6
CONTINUOUS
 62
     7
  5
279
 10
138.92075
 20
136.765583
 30
0.0
 11
141.65325
 21
136.765583
 31
0.0
  0
LINE
  8
1
  6
CONTINUOUS
 62
     7
  5
27A
 10
142.75425
 20
163.37625
 30
0.0
 11
152.555583
 21
163.37625
 31
0.0
  0
LINE
  8
1
  6
CONTINUOUS
 62
     7
  5
27B
 10
101.31925
 20
121.078417
 30
0.0
 11
93.003
 21
105.391167
 31
0.0
  0
LINE
  8
1
  6
CONTINUOUS
 62
     7
  5
27C
 10
93.003
 20
105.391167
 30
0.0
 11
101.200417
 21
105.391167
 31
0.0
  0
INSERT
  8
1
  6
CONTINUOUS
 62
     1
  5
27D
  2
LDR
 10
138.92075
 20
161.158083
 30
0.0
 41
240.000001
 42
240.000001
 50
233.352744
210
0.0
220
0.0
230
1.0
  0
INSERT
  8
1
  6
CONTINUOUS
 62
     1
  5
27E
  2
LDR
 10
139.871167
 20
160.623333
 30
0.0
 41
240.000002
 42
240.000002
 50
223.67699
210
0.0
220
0.0
230
1.0
  0
INSERT
  8
1
  6
CONTINUOUS
 62
     1
  5
27F
  2
LDR
 10
140.554333
 20
154.05725
 30
0.0
 41
240.0
 42
240.0
 50
140.539488
210
0.0
220
0.0
230
1.0
  0
INSERT
  8
1
  6
CONTINUOUS
 62
     1
  5
280
  2
LDR
 10
133.45575
 20
144.906333
 30
0.0
 41
240.0
 42
240.0
 50
123.874017
210
0.0
220
0.0
230
1.0
  0
INSERT
  8
1
  6
CONTINUOUS
 62
     1
  5
281
  2
LDR
 10
133.45575
 20
144.906333
 30
0.0
 41
240.0
 42
240.0
 50
123.874017
210
0.0
220
0.0
230
1.0
  0
INSERT
  8
1
  6
CONTINUOUS
 62
     1
  5
282
  2
LDR
 10
101.31925
 20
121.078417
 30
0.0
 41
240.000002
 42
240.000002
 50
62.070686
210
0.0
220
0.0
230
1.0
  0
TEXT
  8
1
  6
CONTINUOUS
 62
     7
  5
283
 10
43.341667
 20
163.219833
 30
0.0
 40
2.5
  1
FIBER FILLER
  7
MONOTXT
210
0.0
220
0.0
230
1.0
  0
TEXT
  8
1
  6
CONTINUOUS
 62
     7
  5
284
 10
147.466583
 20
168.592917
 30
0.0
 40
2.5
  1
 5/16 " STAINLESS STEEL BOLT
  7
MONOTXT
210
0.0
220
0.0
230
1.0
  0
TEXT
  8
1
  6
CONTINUOUS
 62
     7
  5
285
 10
153.212917
 20
162.187833
 30
0.0
 40
2.5
  1
FIBER WASHER
  7
MONOTXT
210
0.0
220
0.0
230
1.0
  0
TEXT
  8
1
  6
CONTINUOUS
 62
     7
  5
286
 10
148.94425
 20
148.228
 30
0.0
 40
2.5
  1
BRACKET
  7
MONOTXT
210
0.0
220
0.0
230
1.0
  0
TEXT
  8
1
  6
CONTINUOUS
 62
     7
  5
287
 10
142.294917
 20
135.499917
 30
0.0
 40
2.5
  1
CRIMP TYPE SEAL
  7
MONOTXT
210
0.0
220
0.0
230
1.0
  0
TEXT
  8
1
  6
CONTINUOUS
 62
     7
  5
288
 10
102.152917
 20
104.2135
 30
0.0
 40
3.0
  1
SEE DETAIL "A"
  7
MONOTXT
210
0.0
220
0.0
230
1.0
  0
POLYLINE
  8
1
  6
CONTINUOUS
 62
     6
  5
289
 66
     1
 10
0.0
 20
0.0
 30
0.0
  0
VERTEX
  8
1
  6
CONTINUOUS
 62
     6
  5
28A
 10
202.7165
 20
364.022333
 30
0.0
  0
VERTEX
  8
1
  6
CONTINUOUS
 62
     6
  5
28B
 10
204.495417
 20
363.921167
 30
0.0
  0
VERTEX
  8
1
  6
CONTINUOUS
 62
     6
  5
28C
 10
206.43475
 20
363.807083
 30
0.0
  0
VERTEX
  8
1
  6
CONTINUOUS
 62
     6
  5
28D
 10
207.803667
 20
363.807083
 30
0.0
  0
VERTEX
  8
1
  6
CONTINUOUS
 62
     6
  5
28E
 10
208.830417
 20
363.921167
 30
0.0
  0
VERTEX
  8
1
  6
CONTINUOUS
 62
     6
  5
28F
 10
209.971167
 20
363.921167
 30
0.0
  0
VERTEX
  8
1
  6
CONTINUOUS
 62
     6
  5
290
 10
211.682333
 20
363.921167
 30
0.0
  0
VERTEX
  8
1
  6
CONTINUOUS
 62
     6
  5
291
 10
212.366833
 20
364.035333
 30
0.0
  0
VERTEX
  8
1
  6
CONTINUOUS
 62
     6
  5
292
 10
214.42025
 20
364.149417
 30
0.0
  0
VERTEX
  8
1
  6
CONTINUOUS
 62
     6
  5
293
 10
214.876583
 20
363.921167
 30
0.0
  0
VERTEX
  8
1
  6
CONTINUOUS
 62
     6
  5
294
 10
217.614417
 20
363.693
 30
0.0
  0
VERTEX
  8
1
  6
CONTINUOUS
 62
     6
  5
295
 10
217.956667
 20
363.807083
 30
0.0
  0
VERTEX
  8
1
  6
CONTINUOUS
 62
     6
  5
296
 10
219.325583
 20
363.807083
 30
0.0
  0
VERTEX
  8
1
  6
CONTINUOUS
 62
     6
  5
297
 10
220.5805
 20
363.693
 30
0.0
  0
VERTEX
  8
1
  6
CONTINUOUS
 62
     6
  5
298
 10
221.264917
 20
363.578833
 30
0.0
  0
VERTEX
  8
1
  6
CONTINUOUS
 62
     6
  5
299
 10
222.40575
 20
363.693
 30
0.0
  0
VERTEX
  8
1
  6
CONTINUOUS
 62
     6
  5
29A
 10
223.318333
 20
363.807083
 30
0.0
  0
VERTEX
  8
1
  6
CONTINUOUS
 62
     6
  5
29B
 10
224.801333
 20
363.921167
 30
0.0
  0
VERTEX
  8
1
  6
CONTINUOUS
 62
     6
  5
29C
 10
225.143583
 20
363.921167
 30
0.0
  0
VERTEX
  8
1
  6
CONTINUOUS
 62
     6
  5
29D
 10
226.170333
 20
363.921167
 30
0.0
  0
VERTEX
  8
1
  6
CONTINUOUS
 62
     6
  5
29E
 10
226.7165
 20
364.022333
 30
0.0
  0
SEQEND
  8
1
  6
CONTINUOUS
 62
     6
  5
29F
  0
POLYLINE
  8
1
  6
CONTINUOUS
 62
     6
  5
2A0
 66
     1
 10
0.0
 20
0.0
 30
0.0
  0
VERTEX
  8
1
  6
CONTINUOUS
 62
     6
  5
2A1
 10
202.715583
 20
197.022167
 30
0.0
  0
VERTEX
  8
1
  6
CONTINUOUS
 62
     6
  5
2A2
 10
204.4945
 20
197.123333
 30
0.0
  0
VERTEX
  8
1
  6
CONTINUOUS
 62
     6
  5
2A3
 10
206.433833
 20
197.237417
 30
0.0
  0
VERTEX
  8
1
  6
CONTINUOUS
 62
     6
  5
2A4
 10
207.80275
 20
197.237417
 30
0.0
  0
VERTEX
  8
1
  6
CONTINUOUS
 62
     6
  5
2A5
 10
208.8295
 20
197.123333
 30
0.0
  0
VERTEX
  8
1
  6
CONTINUOUS
 62
     6
  5
2A6
 10
209.97025
 20
197.123333
 30
0.0
  0
VERTEX
  8
1
  6
CONTINUOUS
 62
     6
  5
2A7
 10
211.681417
 20
197.123333
 30
0.0
  0
VERTEX
  8
1
  6
CONTINUOUS
 62
     6
  5
2A8
 10
212.365917
 20
197.009167
 30
0.0
  0
VERTEX
  8
1
  6
CONTINUOUS
 62
     6
  5
2A9
 10
214.419333
 20
196.895083
 30
0.0
  0
VERTEX
  8
1
  6
CONTINUOUS
 62
     6
  5
2AA
 10
214.875667
 20
197.123333
 30
0.0
  0
VERTEX
  8
1
  6
CONTINUOUS
 62
     6
  5
2AB
 10
217.6135
 20
197.3515
 30
0.0
  0
VERTEX
  8
1
  6
CONTINUOUS
 62
     6
  5
2AC
 10
217.95575
 20
197.237417
 30
0.0
  0
VERTEX
  8
1
  6
CONTINUOUS
 62
     6
  5
2AD
 10
219.324667
 20
197.237417
 30
0.0
  0
VERTEX
  8
1
  6
CONTINUOUS
 62
     6
  5
2AE
 10
220.579583
 20
197.3515
 30
0.0
  0
VERTEX
  8
1
  6
CONTINUOUS
 62
     6
  5
2AF
 10
221.264
 20
197.465667
 30
0.0
  0
VERTEX
  8
1
  6
CONTINUOUS
 62
     6
  5
2B0
 10
222.404833
 20
197.3515
 30
0.0
  0
VERTEX
  8
1
  6
CONTINUOUS
 62
     6
  5
2B1
 10
223.317417
 20
197.237417
 30
0.0
  0
VERTEX
  8
1
  6
CONTINUOUS
 62
     6
  5
2B2
 10
224.800417
 20
197.123333
 30
0.0
  0
VERTEX
  8
1
  6
CONTINUOUS
 62
     6
  5
2B3
 10
225.142667
 20
197.123333
 30
0.0
  0
VERTEX
  8
1
  6
CONTINUOUS
 62
     6
  5
2B4
 10
226.169417
 20
197.123333
 30
0.0
  0
VERTEX
  8
1
  6
CONTINUOUS
 62
     6
  5
2B5
 10
226.715583
 20
197.022167
 30
0.0
  0
SEQEND
  8
1
  6
CONTINUOUS
 62
     6
  5
2B6
  0
LINE
  8
1
  6
CONTINUOUS
 62
     6
  5
2B7
 10
205.96625
 20
307.022333
 30
0.0
 11
201.46625
 21
307.022333
 31
0.0
  0
LINE
  8
1
  6
CONTINUOUS
 62
     6
  5
2B8
 10
205.96625
 20
320.022333
 30
0.0
 11
205.96625
 21
307.022333
 31
0.0
  0
LINE
  8
1
  6
CONTINUOUS
 62
     6
  5
2B9
 10
205.46625
 20
320.022333
 30
0.0
 11
205.46625
 21
307.022333
 31
0.0
  0
LINE
  8
1
  6
CONTINUOUS
 62
     6
  5
2BA
 10
202.7165
 20
364.022333
 30
0.0
 11
202.71625
 21
320.022333
 31
0.0
  0
LINE
  8
1
  6
CONTINUOUS
 62
     6
  5
2BB
 10
201.46625
 20
307.022333
 30
0.0
 11
201.46625
 21
309.522333
 31
0.0
  0
LINE
  8
1
  6
CONTINUOUS
 62
     6
  5
2BC
 10
201.46625
 20
320.022333
 30
0.0
 11
201.46625
 21
318.022333
 31
0.0
  0
LINE
  8
1
  6
CONTINUOUS
 62
     6
  5
2BD
 10
200.46625
 20
317.022333
 30
0.0
 11
197.21625
 21
317.022333
 31
0.0
  0
LINE
  8
1
  6
CONTINUOUS
 62
     6
  5
2BE
 10
200.96625
 20
310.022333
 30
0.0
 11
195.21625
 21
310.022333
 31
0.0
  0
LINE
  8
1
  6
CONTINUOUS
 62
     6
  5
2BF
 10
195.21625
 20
310.022333
 30
0.0
 11
195.21625
 21
314.022333
 31
0.0
  0
LINE
  8
1
  6
CONTINUOUS
 62
     6
  5
2C0
 10
195.21625
 20
314.022333
 30
0.0
 11
196.21625
 21
314.022333
 31
0.0
  0
LINE
  8
1
  6
CONTINUOUS
 62
     6
  5
2C1
 10
197.21625
 20
317.022333
 30
0.0
 11
197.21625
 21
315.022333
 31
0.0
  0
LINE
  8
1
  6
CONTINUOUS
 62
     6
  5
2C2
 10
197.7165
 20
364.022333
 30
0.0
 11
197.71625
 21
317.022333
 31
0.0
  0
LINE
  8
1
  6
CONTINUOUS
 62
     6
  5
2C3
 10
200.7165
 20
364.022333
 30
0.0
 11
200.71625
 21
317.022333
 31
0.0
  0
ARC
  8
1
  6
CONTINUOUS
 62
     6
  5
2C4
 10
200.46625
 20
318.022333
 30
0.0
 40
1.0
 50
270.0
 51
360.0
210
0.0
220
0.0
230
1.0
  0
ARC
  8
1
  6
CONTINUOUS
 62
     6
  5
2C5
 10
196.21625
 20
315.022333
 30
0.0
 40
1.0
 50
270.0
 51
360.0
210
0.0
220
0.0
230
1.0
  0
ARC
  8
1
  6
CONTINUOUS
 62
     6
  5
2C6
 10
200.96625
 20
309.522333
 30
0.0
 40
0.5
 50
0.0
 51
90.0
210
0.0
220
0.0
230
1.0
  0
LINE
  8
1
  6
CONTINUOUS
 62
     6
  5
2C7
 10
201.22525
 20
317.332333
 30
0.0
 11
202.21075
 21
316.240833
 31
0.0
  0
LINE
  8
1
  6
CONTINUOUS
 62
     6
  5
2C8
 10
201.366
 20
309.833
 30
0.0
 11
202.292667
 21
310.9145
 31
0.0
  0
LINE
  8
1
  6
CONTINUOUS
 62
     6
  5
2C9
 10
196.93125
 20
314.304417
 30
0.0
 11
197.91675
 21
313.318583
 31
0.0
  0
LINE
  8
1
  6
CONTINUOUS
 62
     6
  5
2CA
 10
200.46625
 20
225.413667
 30
0.0
 11
197.21625
 21
225.413667
 31
0.0
  0
LINE
  8
1
  6
CONTINUOUS
 62
     6
  5
2CB
 10
205.96625
 20
222.413667
 30
0.0
 11
201.46625
 21
222.413667
 31
0.0
  0
LINE
  8
1
  6
CONTINUOUS
 62
     6
  5
2CC
 10
205.96625
 20
235.413667
 30
0.0
 11
201.46625
 21
235.413667
 31
0.0
  0
LINE
  8
1
  6
CONTINUOUS
 62
     6
  5
2CD
 10
205.96625
 20
222.413667
 30
0.0
 11
205.96625
 21
235.413667
 31
0.0
  0
LINE
  8
1
  6
CONTINUOUS
 62
     6
  5
2CE
 10
205.46625
 20
222.413667
 30
0.0
 11
205.46625
 21
235.413667
 31
0.0
  0
LINE
  8
1
  6
CONTINUOUS
 62
     6
  5
2CF
 10
201.46625
 20
235.413667
 30
0.0
 11
201.46625
 21
232.913667
 31
0.0
  0
LINE
  8
1
  6
CONTINUOUS
 62
     6
  5
2D0
 10
201.46625
 20
222.413667
 30
0.0
 11
201.46625
 21
224.413667
 31
0.0
  0
LINE
  8
1
  6
CONTINUOUS
 62
     6
  5
2D1
 10
200.96625
 20
232.413667
 30
0.0
 11
195.21625
 21
232.413667
 31
0.0
  0
LINE
  8
1
  6
CONTINUOUS
 62
     6
  5
2D2
 10
195.21625
 20
232.413667
 30
0.0
 11
195.21625
 21
228.413667
 31
0.0
  0
LINE
  8
1
  6
CONTINUOUS
 62
     6
  5
2D3
 10
195.21625
 20
228.413667
 30
0.0
 11
196.21625
 21
228.413667
 31
0.0
  0
LINE
  8
1
  6
CONTINUOUS
 62
     6
  5
2D4
 10
197.21625
 20
225.413667
 30
0.0
 11
197.21625
 21
227.413667
 31
0.0
  0
ARC
  8
1
  6
CONTINUOUS
 62
     6
  5
2D5
 10
200.46625
 20
224.413667
 30
0.0
 40
1.0
 50
0.0
 51
90.0
210
0.0
220
0.0
230
1.0
  0
ARC
  8
1
  6
CONTINUOUS
 62
     6
  5
2D6
 10
196.21625
 20
227.413667
 30
0.0
 40
1.0
 50
0.0
 51
90.0
210
0.0
220
0.0
230
1.0
  0
ARC
  8
1
  6
CONTINUOUS
 62
     6
  5
2D7
 10
200.96625
 20
232.913667
 30
0.0
 40
0.5
 50
270.0
 51
360.0
210
0.0
220
0.0
230
1.0
  0
LINE
  8
1
  6
CONTINUOUS
 62
     6
  5
2D8
 10
201.22525
 20
225.103667
 30
0.0
 11
202.21075
 21
226.195167
 31
0.0
  0
LINE
  8
1
  6
CONTINUOUS
 62
     6
  5
2D9
 10
201.366
 20
232.603
 30
0.0
 11
202.292667
 21
231.5215
 31
0.0
  0
LINE
  8
1
  6
CONTINUOUS
 62
     6
  5
2DA
 10
196.93125
 20
228.131583
 30
0.0
 11
197.91675
 21
229.117417
 31
0.0
  0
LINE
  8
1
  6
CONTINUOUS
 62
     6
  5
2DB
 10
197.71575
 20
225.413667
 30
0.0
 11
197.715583
 21
197.022167
 31
0.0
  0
LINE
  8
1
  6
CONTINUOUS
 62
     6
  5
2DC
 10
200.71575
 20
225.413667
 30
0.0
 11
200.715583
 21
197.022167
 31
0.0
  0
LINE
  8
1
  6
CONTINUOUS
 62
     6
  5
2DD
 10
202.716167
 20
307.022333
 30
0.0
 11
202.716167
 21
235.413667
 31
0.0
  0
LINE
  8
1
  6
CONTINUOUS
 62
     6
  5
2DE
 10
202.716167
 20
222.413667
 30
0.0
 11
202.716167
 21
197.022167
 31
0.0
  0
LINE
  8
1
  6
CONTINUOUS
 62
     6
  5
2DF
 10
204.21625
 20
319.272333
 30
0.0
 11
202.71625
 21
319.272333
 31
0.0
  0
LINE
  8
1
  6
CONTINUOUS
 62
     6
  5
2E0
 10
204.21625
 20
307.772333
 30
0.0
 11
202.71625
 21
307.772333
 31
0.0
  0
LINE
  8
1
  6
CONTINUOUS
 62
     6
  5
2E1
 10
202.71625
 20
319.272333
 30
0.0
 11
202.71625
 21
318.022333
 31
0.0
  0
LINE
  8
1
  6
CONTINUOUS
 62
     6
  5
2E2
 10
202.71625
 20
309.022333
 30
0.0
 11
202.71625
 21
307.772333
 31
0.0
  0
LINE
  8
1
  6
CONTINUOUS
 62
     6
  5
2E3
 10
204.21625
 20
318.022333
 30
0.0
 11
202.71625
 21
318.022333
 31
0.0
  0
LINE
  8
1
  6
CONTINUOUS
 62
     6
  5
2E4
 10
204.21625
 20
309.022333
 30
0.0
 11
202.71625
 21
309.022333
 31
0.0
  0
LINE
  8
1
  6
CONTINUOUS
 62
     6
  5
2E5
 10
203.96625
 20
319.272333
 30
0.0
 11
203.96625
 21
318.022333
 31
0.0
  0
LINE
  8
1
  6
CONTINUOUS
 62
     6
  5
2E6
 10
203.96625
 20
309.022333
 30
0.0
 11
203.96625
 21
307.772333
 31
0.0
  0
LINE
  8
1
  6
CONTINUOUS
 62
     6
  5
2E7
 10
204.21625
 20
319.272333
 30
0.0
 11
204.21625
 21
318.022333
 31
0.0
  0
LINE
  8
1
  6
CONTINUOUS
 62
     6
  5
2E8
 10
204.21625
 20
309.022333
 30
0.0
 11
204.21625
 21
307.772333
 31
0.0
  0
LINE
  8
1
  6
CONTINUOUS
 62
     6
  5
2E9
 10
205.96625
 20
320.022333
 30
0.0
 11
205.46625
 21
320.022333
 31
0.0
  0
LINE
  8
1
  6
CONTINUOUS
 62
     6
  5
2EA
 10
205.46625
 20
320.022333
 30
0.0
 11
201.46625
 21
320.022333
 31
0.0
  0
LINE
  8
1
  6
CONTINUOUS
 62
     6
  5
2EB
 10
204.21625
 20
233.5015
 30
0.0
 11
202.71625
 21
233.5015
 31
0.0
  0
LINE
  8
1
  6
CONTINUOUS
 62
     6
  5
2EC
 10
204.21625
 20
223.2515
 30
0.0
 11
202.71625
 21
223.2515
 31
0.0
  0
LINE
  8
1
  6
CONTINUOUS
 62
     6
  5
2ED
 10
204.21625
 20
234.7515
 30
0.0
 11
202.71625
 21
234.7515
 31
0.0
  0
LINE
  8
1
  6
CONTINUOUS
 62
     6
  5
2EE
 10
202.71625
 20
223.2515
 30
0.0
 11
202.71625
 21
224.5015
 31
0.0
  0
LINE
  8
1
  6
CONTINUOUS
 62
     6
  5
2EF
 10
202.71625
 20
233.5015
 30
0.0
 11
202.71625
 21
234.7515
 31
0.0
  0
LINE
  8
1
  6
CONTINUOUS
 62
     6
  5
2F0
 10
204.21625
 20
224.5015
 30
0.0
 11
202.71625
 21
224.5015
 31
0.0
  0
LINE
  8
1
  6
CONTINUOUS
 62
     6
  5
2F1
 10
203.96625
 20
223.2515
 30
0.0
 11
203.96625
 21
224.5015
 31
0.0
  0
LINE
  8
1
  6
CONTINUOUS
 62
     6
  5
2F2
 10
203.96625
 20
233.5015
 30
0.0
 11
203.96625
 21
234.7515
 31
0.0
  0
LINE
  8
1
  6
CONTINUOUS
 62
     6
  5
2F3
 10
204.21625
 20
223.2515
 30
0.0
 11
204.21625
 21
224.5015
 31
0.0
  0
LINE
  8
1
  6
CONTINUOUS
 62
     6
  5
2F4
 10
204.21625
 20
233.5015
 30
0.0
 11
204.21625
 21
234.7515
 31
0.0
  0
POLYLINE
  8
1
  6
CONTINUOUS
 62
     6
  5
2F5
 66
     1
 10
0.0
 20
0.0
 30
0.0
  0
VERTEX
  8
1
  6
CONTINUOUS
 62
     6
  5
2F6
 10
197.7165
 20
364.022333
 30
0.0
  0
VERTEX
  8
1
  6
CONTINUOUS
 62
     6
  5
2F7
 10
198.056083
 20
364.1045
 30
0.0
  0
VERTEX
  8
1
  6
CONTINUOUS
 62
     6
  5
2F8
 10
198.103406
 20
364.11117
 30
0.0
  0
VERTEX
  8
1
  6
CONTINUOUS
 62
     6
  5
2F9
 10
198.198484
 20
364.101729
 30
0.0
  0
VERTEX
  8
1
  6
CONTINUOUS
 62
     6
  5
2FA
 10
198.390399
 20
364.04578
 30
0.0
  0
VERTEX
  8
1
  6
CONTINUOUS
 62
     6
  5
2FB
 10
198.48725
 20
364.030167
 30
0.0
  0
VERTEX
  8
1
  6
CONTINUOUS
 62
     6
  5
2FC
 10
198.873833
 20
364.015333
 30
0.0
  0
VERTEX
  8
1
  6
CONTINUOUS
 62
     6
  5
2FD
 10
199.676667
 20
363.985583
 30
0.0
  0
VERTEX
  8
1
  6
CONTINUOUS
 62
     6
  5
2FE
 10
199.988917
 20
363.970667
 30
0.0
  0
VERTEX
  8
1
  6
CONTINUOUS
 62
     6
  5
2FF
 10
200.162549
 20
363.984681
 30
0.0
  0
VERTEX
  8
1
  6
CONTINUOUS
 62
     6
  5
300
 10
200.393379
 20
364.024572
 30
0.0
  0
VERTEX
  8
1
  6
CONTINUOUS
 62
     6
  5
301
 10
200.509333
 20
364.030167
 30
0.0
  0
VERTEX
  8
1
  6
CONTINUOUS
 62
     6
  5
302
 10
200.7165
 20
364.022333
 30
0.0
  0
SEQEND
  8
1
  6
CONTINUOUS
 62
     6
  5
303
  0
POLYLINE
  8
1
  6
CONTINUOUS
 62
     6
  5
304
 66
     1
 10
0.0
 20
0.0
 30
0.0
  0
VERTEX
  8
1
  6
CONTINUOUS
 62
     6
  5
305
 10
197.715583
 20
197.022167
 30
0.0
  0
VERTEX
  8
1
  6
CONTINUOUS
 62
     6
  5
306
 10
198.326417
 20
197.113833
 30
0.0
  0
VERTEX
  8
1
  6
CONTINUOUS
 62
     6
  5
307
 10
198.50413
 20
197.133431
 30
0.0
  0
VERTEX
  8
1
  6
CONTINUOUS
 62
     6
  5
308
 10
198.742364
 20
197.148287
 30
0.0
  0
VERTEX
  8
1
  6
CONTINUOUS
 62
     6
  5
309
 10
198.861333
 20
197.156583
 30
0.0
  0
VERTEX
  8
1
  6
CONTINUOUS
 62
     6
  5
30A
 10
199.332083
 20
197.199417
 30
0.0
  0
VERTEX
  8
1
  6
CONTINUOUS
 62
     6
  5
30B
 10
199.481881
 20
197.194773
 30
0.0
  0
VERTEX
  8
1
  6
CONTINUOUS
 62
     6
  5
30C
 10
199.681568
 20
197.167361
 30
0.0
  0
VERTEX
  8
1
  6
CONTINUOUS
 62
     6
  5
30D
 10
199.781417
 20
197.156583
 30
0.0
  0
VERTEX
  8
1
  6
CONTINUOUS
 62
     6
  5
30E
 10
199.975619
 20
197.157882
 30
0.0
  0
VERTEX
  8
1
  6
CONTINUOUS
 62
     6
  5
30F
 10
200.234208
 20
197.159772
 30
0.0
  0
VERTEX
  8
1
  6
CONTINUOUS
 62
     6
  5
310
 10
200.359083
 20
197.135167
 30
0.0
  0
VERTEX
  8
1
  6
CONTINUOUS
 62
     6
  5
311
 10
200.715583
 20
197.022167
 30
0.0
  0
SEQEND
  8
1
  6
CONTINUOUS
 62
     6
  5
312
  0
LINE
  8
1
  6
CONTINUOUS
 62
     6
  5
313
 10
191.21625
 20
310.022333
 30
0.0
 11
191.21625
 21
314.022333
 31
0.0
  0
LINE
  8
1
  6
CONTINUOUS
 62
     6
  5
314
 10
195.21625
 20
313.522333
 30
0.0
 11
191.21625
 21
313.522333
 31
0.0
  0
LINE
  8
1
  6
CONTINUOUS
 62
     6
  5
315
 10
195.21625
 20
310.522333
 30
0.0
 11
191.21625
 21
310.522333
 31
0.0
  0
LINE
  8
1
  6
CONTINUOUS
 62
     6
  5
316
 10
194.21625
 20
310.522333
 30
0.0
 11
194.21625
 21
313.522333
 31
0.0
  0
LINE
  8
1
  6
CONTINUOUS
 62
     6
  5
317
 10
192.21625
 20
310.522333
 30
0.0
 11
192.21625
 21
313.522333
 31
0.0
  0
LINE
  8
1
  6
CONTINUOUS
 62
     6
  5
318
 10
194.71625
 20
311.022333
 30
0.0
 11
194.71625
 21
313.022333
 31
0.0
  0
LINE
  8
1
  6
CONTINUOUS
 62
     6
  5
319
 10
191.71625
 20
311.022333
 30
0.0
 11
191.71625
 21
313.022333
 31
0.0
  0
LINE
  8
1
  6
CONTINUOUS
 62
     6
  5
31A
 10
190.46625
 20
309.022333
 30
0.0
 11
190.46625
 21
315.022333
 31
0.0
  0
LINE
  8
1
  6
CONTINUOUS
 62
     6
  5
31B
 10
191.21625
 20
314.022333
 30
0.0
 11
190.46625
 21
314.022333
 31
0.0
  0
LINE
  8
1
  6
CONTINUOUS
 62
     6
  5
31C
 10
191.21625
 20
310.022333
 30
0.0
 11
190.46625
 21
310.022333
 31
0.0
  0
LINE
  8
1
  6
CONTINUOUS
 62
     6
  5
31D
 10
190.21625
 20
308.772333
 30
0.0
 11
190.21625
 21
315.272333
 31
0.0
  0
LINE
  8
1
  6
CONTINUOUS
 62
     6
  5
31E
 10
186.21625
 20
306.272333
 30
0.0
 11
186.21625
 21
317.772333
 31
0.0
  0
LINE
  8
1
  6
CONTINUOUS
 62
     6
  5
31F
 10
186.21625
 20
317.772333
 30
0.0
 11
189.96625
 21
317.772333
 31
0.0
  0
LINE
  8
1
  6
CONTINUOUS
 62
     6
  5
320
 10
186.21625
 20
306.272333
 30
0.0
 11
189.96625
 21
306.272333
 31
0.0
  0
LINE
  8
1
  6
CONTINUOUS
 62
     6
  5
321
 10
189.96625
 20
317.772333
 30
0.0
 11
189.96625
 21
316.772333
 31
0.0
  0
LINE
  8
1
  6
CONTINUOUS
 62
     6
  5
322
 10
189.96625
 20
306.272333
 30
0.0
 11
189.96625
 21
307.272333
 31
0.0
  0
LINE
  8
1
  6
CONTINUOUS
 62
     6
  5
323
 10
189.96625
 20
316.772333
 30
0.0
 11
190.21625
 21
315.272333
 31
0.0
  0
LINE
  8
1
  6
CONTINUOUS
 62
     6
  5
324
 10
190.21625
 20
308.772333
 30
0.0
 11
189.96625
 21
307.272333
 31
0.0
  0
LINE
  8
1
  6
CONTINUOUS
 62
     6
  5
325
 10
190.21625
 20
315.272333
 30
0.0
 11
190.46625
 21
315.022333
 31
0.0
  0
LINE
  8
1
  6
CONTINUOUS
 62
     6
  5
326
 10
190.21625
 20
308.772333
 30
0.0
 11
190.46625
 21
309.022333
 31
0.0
  0
LINE
  8
1
  6
CONTINUOUS
 62
     6
  5
327
 10
189.96625
 20
316.772333
 30
0.0
 11
189.19575
 21
315.918417
 31
0.0
  0
LINE
  8
1
  6
CONTINUOUS
 62
     6
  5
328
 10
189.96625
 20
307.272333
 30
0.0
 11
189.19575
 21
308.12625
 31
0.0
  0
LINE
  8
1
  6
CONTINUOUS
 62
     6
  5
329
 10
186.21625
 20
323.272333
 30
0.0
 11
189.96625
 21
323.272333
 31
0.0
  0
LINE
  8
1
  6
CONTINUOUS
 62
     6
  5
32A
 10
186.59125
 20
322.272333
 30
0.0
 11
189.59125
 21
322.272333
 31
0.0
  0
LINE
  8
1
  6
CONTINUOUS
 62
     6
  5
32B
 10
186.59125
 20
321.272333
 30
0.0
 11
189.59125
 21
321.272333
 31
0.0
  0
LINE
  8
1
  6
CONTINUOUS
 62
     6
  5
32C
 10
186.59125
 20
318.772333
 30
0.0
 11
189.59125
 21
318.772333
 31
0.0
  0
LINE
  8
1
  6
CONTINUOUS
 62
     6
  5
32D
 10
186.59125
 20
319.772333
 30
0.0
 11
189.59125
 21
319.772333
 31
0.0
  0
LINE
  8
1
  6
CONTINUOUS
 62
     6
  5
32E
 10
187.34125
 20
322.772333
 30
0.0
 11
188.84125
 21
322.772333
 31
0.0
  0
LINE
  8
1
  6
CONTINUOUS
 62
     6
  5
32F
 10
187.34125
 20
321.772333
 30
0.0
 11
188.84125
 21
321.772333
 31
0.0
  0
LINE
  8
1
  6
CONTINUOUS
 62
     6
  5
330
 10
187.34125
 20
319.272333
 30
0.0
 11
188.84125
 21
319.272333
 31
0.0
  0
LINE
  8
1
  6
CONTINUOUS
 62
     6
  5
331
 10
187.34125
 20
318.272333
 30
0.0
 11
188.84125
 21
318.272333
 31
0.0
  0
LINE
  8
1
  6
CONTINUOUS
 62
     6
  5
332
 10
183.09125
 20
324.022333
 30
0.0
 11
193.09125
 21
324.022333
 31
0.0
  0
LINE
  8
1
  6
CONTINUOUS
 62
     6
  5
333
 10
186.21625
 20
323.272333
 30
0.0
 11
186.21625
 21
324.022333
 31
0.0
  0
LINE
  8
1
  6
CONTINUOUS
 62
     6
  5
334
 10
189.96625
 20
323.272333
 30
0.0
 11
189.96625
 21
324.022333
 31
0.0
  0
LINE
  8
1
  6
CONTINUOUS
 62
     6
  5
335
 10
183.09125
 20
340.522333
 30
0.0
 11
193.09125
 21
340.522333
 31
0.0
  0
LINE
  8
1
  6
CONTINUOUS
 62
     6
  5
336
 10
193.09125
 20
340.522333
 30
0.0
 11
193.09125
 21
324.022333
 31
0.0
  0
LINE
  8
1
  6
CONTINUOUS
 62
     6
  5
337
 10
183.09125
 20
340.522333
 30
0.0
 11
183.09125
 21
324.022333
 31
0.0
  0
LINE
  8
1
  6
CONTINUOUS
 62
     6
  5
338
 10
183.09125
 20
339.522333
 30
0.0
 11
173.09125
 21
337.772333
 31
0.0
  0
LINE
  8
1
  6
CONTINUOUS
 62
     6
  5
339
 10
183.09125
 20
325.522333
 30
0.0
 11
174.59125
 21
324.772333
 31
0.0
  0
LINE
  8
1
  6
CONTINUOUS
 62
     6
  5
33A
 10
173.09125
 20
337.772333
 30
0.0
 11
174.59125
 21
324.772333
 31
0.0
  0
LINE
  8
1
  6
CONTINUOUS
 62
     6
  5
33B
 10
200.71625
 20
318.022333
 30
0.0
 11
197.71625
 21
318.022333
 31
0.0
  0
LINE
  8
1
  6
CONTINUOUS
 62
     6
  5
33C
 10
200.71625
 20
319.022333
 30
0.0
 11
197.71625
 21
319.022333
 31
0.0
  0
LINE
  8
1
  6
CONTINUOUS
 62
     6
  5
33D
 10
199.96625
 20
318.522333
 30
0.0
 11
198.46625
 21
318.522333
 31
0.0
  0
LINE
  8
1
  6
CONTINUOUS
 62
     6
  5
33E
 10
199.96625
 20
317.522333
 30
0.0
 11
198.46625
 21
317.522333
 31
0.0
  0
LINE
  8
1
  6
CONTINUOUS
 62
     6
  5
33F
 10
200.71575
 20
224.413667
 30
0.0
 11
197.71575
 21
224.413667
 31
0.0
  0
LINE
  8
1
  6
CONTINUOUS
 62
     6
  5
340
 10
200.71575
 20
223.413667
 30
0.0
 11
197.71575
 21
223.413667
 31
0.0
  0
LINE
  8
1
  6
CONTINUOUS
 62
     6
  5
341
 10
199.96575
 20
224.913667
 30
0.0
 11
198.46575
 21
224.913667
 31
0.0
  0
LINE
  8
1
  6
CONTINUOUS
 62
     6
  5
342
 10
199.96575
 20
223.913667
 30
0.0
 11
198.46575
 21
223.913667
 31
0.0
  0
LINE
  8
1
  6
CONTINUOUS
 62
     6
  5
343
 10
186.96625
 20
323.272333
 30
0.0
 11
186.96625
 21
324.022333
 31
0.0
  0
LINE
  8
1
  6
CONTINUOUS
 62
     6
  5
344
 10
189.21625
 20
323.272333
 30
0.0
 11
189.21625
 21
324.022333
 31
0.0
  0
LINE
  8
1
  6
CONTINUOUS
 62
     6
  5
345
 10
195.181167
 20
231.922667
 30
0.0
 11
191.181167
 21
231.922667
 31
0.0
  0
LINE
  8
1
  6
CONTINUOUS
 62
     6
  5
346
 10
195.181167
 20
228.922667
 30
0.0
 11
191.181167
 21
228.922667
 31
0.0
  0
LINE
  8
1
  6
CONTINUOUS
 62
     6
  5
347
 10
194.181167
 20
231.922667
 30
0.0
 11
194.181167
 21
228.922667
 31
0.0
  0
LINE
  8
1
  6
CONTINUOUS
 62
     6
  5
348
 10
192.181167
 20
231.922667
 30
0.0
 11
192.181167
 21
228.922667
 31
0.0
  0
LINE
  8
1
  6
CONTINUOUS
 62
     6
  5
349
 10
194.681167
 20
231.422667
 30
0.0
 11
194.681167
 21
229.422667
 31
0.0
  0
LINE
  8
1
  6
CONTINUOUS
 62
     6
  5
34A
 10
191.681167
 20
231.422667
 30
0.0
 11
191.681167
 21
229.422667
 31
0.0
  0
LINE
  8
1
  6
CONTINUOUS
 62
     6
  5
34B
 10
191.21625
 20
232.413667
 30
0.0
 11
191.21625
 21
228.413667
 31
0.0
  0
LINE
  8
1
  6
CONTINUOUS
 62
     6
  5
34C
 10
186.59125
 20
317.772333
 30
0.0
 11
186.59125
 21
323.272333
 31
0.0
  0
LINE
  8
1
  6
CONTINUOUS
 62
     6
  5
34D
 10
189.59125
 20
317.772333
 30
0.0
 11
189.59125
 21
323.272333
 31
0.0
  0
LINE
  8
1
  6
CONTINUOUS
 62
     6
  5
34E
 10
186.09125
 20
235.022333
 30
0.0
 11
190.09125
 21
235.022333
 31
0.0
  0
ARC
  8
1
  6
CONTINUOUS
 62
     6
  5
34F
 10
191.175904
 20
233.673923
 30
0.0
 40
5.260411
 50
165.147483
 51
270.439444
210
0.0
220
0.0
230
1.0
  0
ARC
  8
1
  6
CONTINUOUS
 62
     6
  5
350
 10
192.751301
 20
234.622579
 30
0.0
 40
2.689921
 50
171.4535
 51
235.203203
210
0.0
220
0.0
230
1.0
  0
LINE
  8
1
  6
CONTINUOUS
 62
     6
  5
351
 10
186.59125
 20
236.022333
 30
0.0
 11
189.59125
 21
236.022333
 31
0.0
  0
LINE
  8
1
  6
CONTINUOUS
 62
     6
  5
352
 10
186.59125
 20
237.022333
 30
0.0
 11
189.59125
 21
237.022333
 31
0.0
  0
LINE
  8
1
  6
CONTINUOUS
 62
     6
  5
353
 10
187.34125
 20
236.522333
 30
0.0
 11
188.84125
 21
236.522333
 31
0.0
  0
LINE
  8
1
  6
CONTINUOUS
 62
     6
  5
354
 10
187.34125
 20
235.522333
 30
0.0
 11
188.84125
 21
235.522333
 31
0.0
  0
LINE
  8
1
  6
CONTINUOUS
 62
     6
  5
355
 10
186.59125
 20
306.272333
 30
0.0
 11
186.59125
 21
283.772333
 31
0.0
  0
LINE
  8
1
  6
CONTINUOUS
 62
     6
  5
356
 10
189.59125
 20
306.272333
 30
0.0
 11
189.59125
 21
283.772333
 31
0.0
  0
LINE
  8
1
  6
CONTINUOUS
 62
     6
  5
357
 10
186.59125
 20
235.022333
 30
0.0
 11
186.59125
 21
272.272333
 31
0.0
  0
LINE
  8
1
  6
CONTINUOUS
 62
     6
  5
358
 10
189.59125
 20
235.022333
 30
0.0
 11
189.59125
 21
272.272333
 31
0.0
  0
LINE
  8
1
  6
CONTINUOUS
 62
     6
  5
359
 10
186.59125
 20
305.272333
 30
0.0
 11
189.59125
 21
305.272333
 31
0.0
  0
LINE
  8
1
  6
CONTINUOUS
 62
     6
  5
35A
 10
186.59125
 20
304.272333
 30
0.0
 11
189.59125
 21
304.272333
 31
0.0
  0
LINE
  8
1
  6
CONTINUOUS
 62
     6
  5
35B
 10
187.34125
 20
305.772333
 30
0.0
 11
188.84125
 21
305.772333
 31
0.0
  0
LINE
  8
1
  6
CONTINUOUS
 62
     6
  5
35C
 10
187.34125
 20
304.772333
 30
0.0
 11
188.84125
 21
304.772333
 31
0.0
  0
LINE
  8
1
  6
CONTINUOUS
 62
     6
  5
35D
 10
186.59125
 20
284.772333
 30
0.0
 11
189.59125
 21
284.772333
 31
0.0
  0
LINE
  8
1
  6
CONTINUOUS
 62
     6
  5
35E
 10
186.59125
 20
285.772333
 30
0.0
 11
189.59125
 21
285.772333
 31
0.0
  0
LINE
  8
1
  6
CONTINUOUS
 62
     6
  5
35F
 10
187.34125
 20
285.272333
 30
0.0
 11
188.84125
 21
285.272333
 31
0.0
  0
LINE
  8
1
  6
CONTINUOUS
 62
     6
  5
360
 10
187.34125
 20
284.272333
 30
0.0
 11
188.84125
 21
284.272333
 31
0.0
  0
LINE
  8
1
  6
CONTINUOUS
 62
     6
  5
361
 10
186.21625
 20
272.272333
 30
0.0
 11
189.96625
 21
272.272333
 31
0.0
  0
LINE
  8
1
  6
CONTINUOUS
 62
     6
  5
362
 10
189.96625
 20
283.772333
 30
0.0
 11
189.96625
 21
282.772333
 31
0.0
  0
LINE
  8
1
  6
CONTINUOUS
 62
     6
  5
363
 10
189.96625
 20
272.272333
 30
0.0
 11
189.96625
 21
273.272333
 31
0.0
  0
LINE
  8
1
  6
CONTINUOUS
 62
     6
  5
364
 10
189.96625
 20
282.772333
 30
0.0
 11
190.21625
 21
281.272333
 31
0.0
  0
LINE
  8
1
  6
CONTINUOUS
 62
     6
  5
365
 10
190.21625
 20
274.772333
 30
0.0
 11
189.96625
 21
273.272333
 31
0.0
  0
LINE
  8
1
  6
CONTINUOUS
 62
     6
  5
366
 10
190.21625
 20
281.272333
 30
0.0
 11
190.46625
 21
281.022333
 31
0.0
  0
LINE
  8
1
  6
CONTINUOUS
 62
     6
  5
367
 10
190.21625
 20
274.772333
 30
0.0
 11
190.46625
 21
275.022333
 31
0.0
  0
LINE
  8
1
  6
CONTINUOUS
 62
     6
  5
368
 10
189.96625
 20
282.772333
 30
0.0
 11
189.19575
 21
281.918417
 31
0.0
  0
LINE
  8
1
  6
CONTINUOUS
 62
     6
  5
369
 10
189.96625
 20
273.272333
 30
0.0
 11
189.19575
 21
274.12625
 31
0.0
  0
LINE
  8
1
  6
CONTINUOUS
 62
     6
  5
36A
 10
186.21625
 20
283.772333
 30
0.0
 11
189.96625
 21
283.772333
 31
0.0
  0
LINE
  8
1
  6
CONTINUOUS
 62
     6
  5
36B
 10
186.59125
 20
271.272333
 30
0.0
 11
189.59125
 21
271.272333
 31
0.0
  0
LINE
  8
1
  6
CONTINUOUS
 62
     6
  5
36C
 10
186.59125
 20
270.272333
 30
0.0
 11
189.59125
 21
270.272333
 31
0.0
  0
LINE
  8
1
  6
CONTINUOUS
 62
     6
  5
36D
 10
187.34125
 20
271.772333
 30
0.0
 11
188.84125
 21
271.772333
 31
0.0
  0
LINE
  8
1
  6
CONTINUOUS
 62
     6
  5
36E
 10
187.34125
 20
270.772333
 30
0.0
 11
188.84125
 21
270.772333
 31
0.0
  0
LINE
  8
1
  6
CONTINUOUS
 62
     6
  5
36F
 10
188.96625
 20
280.022333
 30
0.0
 11
191.96625
 21
280.022333
 31
0.0
  0
LINE
  8
1
  6
CONTINUOUS
 62
     6
  5
370
 10
188.96625
 20
276.022333
 30
0.0
 11
191.96625
 21
276.022333
 31
0.0
  0
LINE
  8
1
  6
CONTINUOUS
 62
     6
  5
371
 10
190.21625
 20
274.772333
 30
0.0
 11
190.21625
 21
276.022333
 31
0.0
  0
LINE
  8
1
  6
CONTINUOUS
 62
     6
  5
372
 10
190.21625
 20
280.022333
 30
0.0
 11
190.21625
 21
281.272333
 31
0.0
  0
LINE
  8
1
  6
CONTINUOUS
 62
     6
  5
373
 10
190.46625
 20
280.022333
 30
0.0
 11
190.46625
 21
281.022333
 31
0.0
  0
LINE
  8
1
  6
CONTINUOUS
 62
     6
  5
374
 10
190.46625
 20
275.022333
 30
0.0
 11
190.46625
 21
276.022333
 31
0.0
  0
LINE
  8
1
  6
CONTINUOUS
 62
     6
  5
375
 10
190.46625
 20
276.272333
 30
0.0
 11
190.46625
 21
279.772333
 31
0.0
  0
LINE
  8
1
  6
CONTINUOUS
 62
     6
  5
376
 10
191.46625
 20
276.272333
 30
0.0
 11
191.46625
 21
277.272333
 31
0.0
  0
LINE
  8
1
  6
CONTINUOUS
 62
     6
  5
377
 10
190.46625
 20
276.272333
 30
0.0
 11
191.46625
 21
276.272333
 31
0.0
  0
LINE
  8
1
  6
CONTINUOUS
 62
     6
  5
378
 10
190.46625
 20
279.772333
 30
0.0
 11
191.21625
 21
279.772333
 31
0.0
  0
LINE
  8
1
  6
CONTINUOUS
 62
     6
  5
379
 10
191.21625
 20
277.272333
 30
0.0
 11
191.21625
 21
279.772333
 31
0.0
  0
LINE
  8
1
  6
CONTINUOUS
 62
     6
  5
37A
 10
191.21625
 20
277.272333
 30
0.0
 11
191.46625
 21
277.272333
 31
0.0
  0
LINE
  8
1
  6
CONTINUOUS
 62
     6
  5
37B
 10
184.21625
 20
279.772333
 30
0.0
 11
184.21625
 21
276.272333
 31
0.0
  0
CIRCLE
  8
1
  6
CONTINUOUS
 62
     6
  5
37C
 10
187.871167
 20
278.024583
 30
0.0
 40
1.75
210
0.0
220
0.0
230
1.0
  0
LINE
  8
1
  6
CONTINUOUS
 62
     6
  5
37D
 10
188.96625
 20
276.022333
 30
0.0
 11
188.96625
 21
276.659583
 31
0.0
  0
LINE
  8
1
  6
CONTINUOUS
 62
     6
  5
37E
 10
188.96625
 20
279.389583
 30
0.0
 11
188.96625
 21
280.022333
 31
0.0
  0
LINE
  8
1
  6
CONTINUOUS
 62
     6
  5
37F
 10
186.71625
 20
279.772333
 30
0.0
 11
186.71625
 21
279.339333
 31
0.0
  0
LINE
  8
1
  6
CONTINUOUS
 62
     6
  5
380
 10
186.71625
 20
276.272333
 30
0.0
 11
186.71625
 21
276.709833
 31
0.0
  0
LINE
  8
1
  6
CONTINUOUS
 62
     6
  5
381
 10
186.21625
 20
283.772333
 30
0.0
 11
186.21625
 21
279.772333
 31
0.0
  0
LINE
  8
1
  6
CONTINUOUS
 62
     6
  5
382
 10
186.21625
 20
276.272333
 30
0.0
 11
186.21625
 21
272.272333
 31
0.0
  0
LINE
  8
1
  6
CONTINUOUS
 62
     6
  5
383
 10
183.46625
 20
279.022333
 30
0.0
 11
183.46625
 21
277.022333
 31
0.0
  0
LINE
  8
1
  6
CONTINUOUS
 62
     6
  5
384
 10
183.46625
 20
279.022333
 30
0.0
 11
184.21625
 21
279.022333
 31
0.0
  0
LINE
  8
1
  6
CONTINUOUS
 62
     6
  5
385
 10
183.46625
 20
277.022333
 30
0.0
 11
184.21625
 21
277.022333
 31
0.0
  0
LINE
  8
1
  6
CONTINUOUS
 62
     6
  5
386
 10
183.46625
 20
278.522333
 30
0.0
 11
184.21625
 21
278.522333
 31
0.0
  0
LINE
  8
1
  6
CONTINUOUS
 62
     6
  5
387
 10
183.46625
 20
277.522333
 30
0.0
 11
184.21625
 21
277.522333
 31
0.0
  0
CIRCLE
  8
1
  6
HIDDEN
 62
     6
  5
388
 10
187.871167
 20
278.024583
 30
0.0
 40
1.25
210
0.0
220
0.0
230
1.0
  0
LINE
  8
1
  6
CONTINUOUS
 62
     6
  5
389
 10
226.716417
 20
364.02225
 30
0.0
 11
226.716083
 21
284.522167
 31
0.0
  0
LINE
  8
1
  6
CONTINUOUS
 62
     6
  5
38A
 10
226.715917
 20
276.52225
 30
0.0
 11
226.715583
 21
197.022167
 31
0.0
  0
LINE
  8
1
  6
CONTINUOUS
 62
     6
  5
38B
 10
191.21625
 20
279.772333
 30
0.0
 11
226.716083
 21
284.522167
 31
0.0
  0
LINE
  8
1
  6
CONTINUOUS
 62
     6
  5
38C
 10
191.46625
 20
277.272333
 30
0.0
 11
202.716167
 21
277.032917
 31
0.0
  0
LINE
  8
1
  6
HIDDEN
 62
     6
  5
38D
 10
202.716167
 20
277.032917
 30
0.0
 11
226.715917
 21
276.52225
 31
0.0
  0
LINE
  8
1
  6
CONTINUOUS
 62
     6
  5
38E
 10
191.96625
 20
279.872667
 30
0.0
 11
191.96625
 21
280.022333
 31
0.0
  0
LINE
  8
1
  6
CONTINUOUS
 62
     6
  5
38F
 10
191.96625
 20
276.022333
 30
0.0
 11
191.96625
 21
277.261667
 31
0.0
  0
LINE
  8
1
  6
HIDDEN
 62
     6
  5
390
 10
191.96625
 20
277.261667
 30
0.0
 11
191.96625
 21
279.872667
 31
0.0
  0
LINE
  8
1
  6
CONTINUOUS
 62
     6
  5
391
 10
226.716083
 20
284.522167
 30
0.0
 11
226.715917
 21
276.52225
 31
0.0
  0
LINE
  8
1
  6
CONTINUOUS
 62
     6
  5
392
 10
227.215917
 20
282.522083
 30
0.0
 11
227.215833
 21
278.522083
 31
0.0
  0
LINE
  8
1
  6
CONTINUOUS
 62
     6
  5
393
 10
227.215917
 20
282.522083
 30
0.0
 11
226.716
 21
282.522083
 31
0.0
  0
LINE
  8
1
  6
CONTINUOUS
 62
     6
  5
394
 10
227.215833
 20
278.522083
 30
0.0
 11
226.715917
 21
278.522083
 31
0.0
  0
LINE
  8
1
  6
HIDDEN
 62
     6
  5
395
 10
191.960667
 20
279.81725
 30
0.0
 11
202.716167
 21
279.416417
 31
0.0
  0
LINE
  8
1
  6
CONTINUOUS
 62
     6
  5
396
 10
202.716167
 20
279.416417
 30
0.0
 11
226.715917
 21
278.522083
 31
0.0
  0
LINE
  8
1
  6
CONTINUOUS
 62
     6
  5
397
 10
191.46625
 20
277.272333
 30
0.0
 11
191.545917
 21
276.912917
 31
0.0
  0
LINE
  8
1
  6
CONTINUOUS
 62
     6
  5
398
 10
191.46625
 20
277.272333
 30
0.0
 11
226.716
 21
282.448667
 31
0.0
  0
LINE
  8
1
  6
HIDDEN
 62
     6
  5
399
 10
202.710083
 20
280.439583
 30
0.0
 11
226.716083
 21
284.522167
 31
0.0
  0
LINE
  8
1
  6
HIDDEN
 62
     6
  5
39A
 10
202.710083
 20
280.439583
 30
0.0
 11
226.715917
 21
278.522083
 31
0.0
  0
LINE
  8
1
  6
HIDDEN
 62
     6
  5
39B
 10
202.710083
 20
278.053917
 30
0.0
 11
226.716
 21
282.448667
 31
0.0
  0
LINE
  8
1
  6
CONTINUOUS
 62
     6
  5
39C
 10
202.710083
 20
278.053917
 30
0.0
 11
226.715917
 21
276.52225
 31
0.0
  0
LINE
  8
1
  6
CONTINUOUS
 62
     6
  5
39D
 10
184.46625
 20
319.772333
 30
0.0
 11
184.46625
 21
238.829083
 31
0.0
  0
LINE
  8
1
  6
CONTINUOUS
 62
     6
  5
39E
 10
184.96625
 20
319.772333
 30
0.0
 11
184.96625
 21
238.829083
 31
0.0
  0
LINE
  8
1
  6
CONTINUOUS
 62
     6
  5
39F
 10
184.21625
 20
279.772333
 30
0.0
 11
184.46625
 21
279.772333
 31
0.0
  0
LINE
  8
1
  6
CONTINUOUS
 62
     6
  5
3A0
 10
184.96625
 20
279.772333
 30
0.0
 11
186.71625
 21
279.772333
 31
0.0
  0
LINE
  8
1
  6
CONTINUOUS
 62
     6
  5
3A1
 10
184.21625
 20
276.272333
 30
0.0
 11
184.46625
 21
276.272333
 31
0.0
  0
LINE
  8
1
  6
CONTINUOUS
 62
     6
  5
3A2
 10
184.96625
 20
276.272333
 30
0.0
 11
186.71625
 21
276.272333
 31
0.0
  0
LINE
  8
1
  6
CONTINUOUS
 62
     6
  5
3A3
 10
184.46625
 20
319.772333
 30
0.0
 11
184.96625
 21
319.772333
 31
0.0
  0
LINE
  8
1
  6
CONTINUOUS
 62
     6
  5
3A4
 10
184.46625
 20
238.829083
 30
0.0
 11
184.96625
 21
238.829083
 31
0.0
  0
LINE
  8
1
  6
CONTINUOUS
 62
     7
  5
3A5
 10
197.7165
 20
359.036
 30
0.0
 11
186.664667
 21
369.588917
 31
0.0
  0
LINE
  8
1
  6
CONTINUOUS
 62
     7
  5
3A6
 10
186.664667
 20
369.588917
 30
0.0
 11
182.145
 21
369.588917
 31
0.0
  0
INSERT
  8
1
  6
CONTINUOUS
 62
     1
  5
3A7
  2
LDR
 10
197.7165
 20
359.036
 30
0.0
 41
240.0
 42
240.0
 50
316.322891
210
0.0
220
0.0
230
1.0
  0
LINE
  8
1
  6
CONTINUOUS
 62
     7
  5
3A8
 10
206.002167
 20
313.777
 30
0.0
 11
234.07475
 21
331.739667
 31
0.0
  0
LINE
  8
1
  6
CONTINUOUS
 62
     7
  5
3A9
 10
234.07475
 20
331.739667
 30
0.0
 11
238.803417
 21
331.739667
 31
0.0
  0
INSERT
  8
1
  6
CONTINUOUS
 62
     1
  5
3AA
  2
LDR
 10
206.002167
 20
313.777
 30
0.0
 41
239.999998
 42
239.999998
 50
212.61376
210
0.0
220
0.0
230
1.0
  0
INSERT
  8
1
  6
CONTINUOUS
 62
     1
  5
3AB
  2
LDR
 10
206.002167
 20
313.777
 30
0.0
 41
239.999998
 42
239.999998
 50
212.61376
210
0.0
220
0.0
230
1.0
  0
LINE
  8
1
  6
CONTINUOUS
 62
     7
  5
3AC
 10
226.811417
 20
283.492583
 30
0.0
 11
238.244667
 21
294.617083
 31
0.0
  0
LINE
  8
1
  6
CONTINUOUS
 62
     7
  5
3AD
 10
238.244667
 20
294.617083
 30
0.0
 11
242.243167
 21
294.617083
 31
0.0
  0
INSERT
  8
1
  6
CONTINUOUS
 62
     1
  5
3AE
  2
LDR
 10
226.811417
 20
283.492583
 30
0.0
 41
240.0
 42
240.0
 50
224.215836
210
0.0
220
0.0
230
1.0
  0
INSERT
  8
1
  6
CONTINUOUS
 62
     1
  5
3AF
  2
LDR
 10
226.811417
 20
283.492583
 30
0.0
 41
240.0
 42
240.0
 50
224.215836
210
0.0
220
0.0
230
1.0
  0
LINE
  8
1
  6
CONTINUOUS
 62
     7
  5
3B0
 10
227.31125
 20
280.24275
 30
0.0
 11
236.995167
 21
284.617583
 31
0.0
  0
LINE
  8
1
  6
CONTINUOUS
 62
     7
  5
3B1
 10
236.995167
 20
284.617583
 30
0.0
 11
241.93075
 21
284.617583
 31
0.0
  0
INSERT
  8
1
  6
CONTINUOUS
 62
     1
  5
3B2
  2
LDR
 10
227.31125
 20
280.24275
 30
0.0
 41
240.000001
 42
240.000001
 50
204.311683
210
0.0
220
0.0
230
1.0
  0
INSERT
  8
1
  6
CONTINUOUS
 62
     1
  5
3B3
  2
LDR
 10
227.31125
 20
280.24275
 30
0.0
 41
240.000001
 42
240.000001
 50
204.311683
210
0.0
220
0.0
230
1.0
  0
LINE
  8
1
  6
CONTINUOUS
 62
     7
  5
3B4
 10
197.623917
 20
204.1725
 30
0.0
 11
179.292583
 21
223.18275
 31
0.0
  0
LINE
  8
1
  6
CONTINUOUS
 62
     7
  5
3B5
 10
179.292583
 20
223.18275
 30
0.0
 11
173.74275
 21
223.18275
 31
0.0
  0
INSERT
  8
1
  6
CONTINUOUS
 62
     1
  5
3B6
  2
LDR
 10
197.623917
 20
204.1725
 30
0.0
 41
239.999999
 42
239.999999
 50
313.958406
210
0.0
220
0.0
230
1.0
  0
INSERT
  8
1
  6
CONTINUOUS
 62
     1
  5
3B7
  2
LDR
 10
197.623917
 20
204.1725
 30
0.0
 41
239.999999
 42
239.999999
 50
313.958406
210
0.0
220
0.0
230
1.0
  0
TEXT
  8
1
  6
CONTINUOUS
 62
     7
  5
3B8
 10
143.470833
 20
221.500417
 30
0.0
 40
3.0
  1
1 1/4 " CONDUIT
  7
MONOTXT
210
0.0
220
0.0
230
1.0
  0
LINE
  8
1
  6
CONTINUOUS
 62
     7
  5
3B9
 10
186.141667
 20
282.124583
 30
0.0
 11
174.864417
 21
299.955667
 31
0.0
  0
LINE
  8
1
  6
CONTINUOUS
 62
     7
  5
3BA
 10
174.864417
 20
299.955667
 30
0.0
 11
170.499
 21
299.955667
 31
0.0
  0
INSERT
  8
1
  6
CONTINUOUS
 62
     1
  5
3BB
  2
LDR
 10
186.141667
 20
282.124583
 30
0.0
 41
240.000001
 42
240.000001
 50
302.311264
210
0.0
220
0.0
230
1.0
  0
TEXT
  8
1
  6
CONTINUOUS
 62
     7
  5
3BC
 10
147.762583
 20
298.591083
 30
0.0
 40
3.0
  1
CONDULET
  7
MONOTXT
210
0.0
220
0.0
230
1.0
  0
TEXT
  8
1
  6
CONTINUOUS
 62
     7
  5
3BD
 10
239.617833
 20
330.0685
 30
0.0
 40
3.0
  1
POLE PLATE
  7
MONOTXT
210
0.0
220
0.0
230
1.0
  0
TEXT
  8
1
  6
CONTINUOUS
 62
     7
  5
3BE
 10
243.164667
 20
293.132583
 30
0.0
 40
3.0
  1
BAND
  7
MONOTXT
210
0.0
220
0.0
230
1.0
  0
TEXT
  8
1
  6
CONTINUOUS
 62
     7
  5
3BF
 10
242.528083
 20
283.12525
 30
0.0
 40
3.0
  1
SEAL
  7
MONOTXT
210
0.0
220
0.0
230
1.0
  0
TEXT
  8
1
  6
CONTINUOUS
 62
     7
  5
3C0
 10
151.11025
 20
368.152583
 30
0.0
 40
3.0
  1
1 1/4 " CONDUIT
  7
MONOTXT
210
0.0
220
0.0
230
1.0
  0
CIRCLE
  8
1
  6
CONTINUOUS
 62
     6
  5
3C1
 10
228.958333
 20
139.681333
 30
0.0
 40
4.0
210
0.0
220
0.0
230
1.0
  0
LINE
  8
1
  6
CONTINUOUS
 62
     6
  5
3C2
 10
225.00225
 20
139.151833
 30
0.0
 11
225.871083
 21
134.224583
 31
0.0
  0
LINE
  8
1
  6
CONTINUOUS
 62
     6
  5
3C3
 10
225.757917
 20
137.306833
 30
0.0
 11
219.257917
 21
148.565167
 31
0.0
  0
LINE
  8
1
  6
CONTINUOUS
 62
     6
  5
3C4
 10
220.14325
 20
149.7095
 30
0.0
 11
227.14325
 21
149.7095
 31
0.0
  0
ARC
  8
1
  6
CONTINUOUS
 62
     6
  5
3C5
 10
219.986532
 20
148.916104
 30
0.0
 40
0.808726
 50
78.826289
 51
205.717811
210
0.0
220
0.0
230
1.0
  0
LINE
  8
1
  6
CONTINUOUS
 62
     6
  5
3C6
 10
220.64325
 20
152.2095
 30
0.0
 11
226.64325
 21
152.2095
 31
0.0
  0
LINE
  8
1
  6
CONTINUOUS
 62
     6
  5
3C7
 10
220.64325
 20
152.2095
 30
0.0
 11
220.64325
 21
149.4595
 31
0.0
  0
LINE
  8
1
  6
CONTINUOUS
 62
     6
  5
3C8
 10
226.64325
 20
152.2095
 30
0.0
 11
226.64325
 21
149.4595
 31
0.0
  0
INSERT
  8
1
  6
CONTINUOUS
 62
     1
  5
3C9
  2
LDR
 10
225.871083
 20
134.224583
 30
0.0
 41
240.000002
 42
240.000002
 50
280.000296
210
0.0
220
0.0
230
1.0
  0
INSERT
  8
1
  6
CONTINUOUS
 62
     1
  5
3CA
  2
LDR
 10
225.871083
 20
134.224583
 30
0.0
 41
240.000002
 42
240.000002
 50
280.000296
210
0.0
220
0.0
230
1.0
  0
TEXT
  8
1
  6
CONTINUOUS
 62
     7
  5
3CB
 10
199.596417
 20
125.910667
 30
0.0
 40
2.5
  1
EACH SIDE OF BRACE BANDING
  7
MONOTXT
 11
199.596417
 21
128.410667
 31
0.0
210
0.0
220
0.0
230
1.0
 73
     3
  0
TEXT
  8
1
  6
CONTINUOUS
 62
     7
  5
3CC
 10
199.596417
 20
121.410667
 30
0.0
 40
2.5
  1
MAKES ONE COMPLETE LOOP
  7
MONOTXT
 11
199.596417
 21
123.910667
 31
0.0
210
0.0
220
0.0
230
1.0
 73
     3
  0
TEXT
  8
1
  6
CONTINUOUS
 62
     7
  5
3CD
 10
199.596417
 20
116.910667
 30
0.0
 40
2.5
  1
AROUND POLE SEAL ON BACK
  7
MONOTXT
 11
199.596417
 21
119.410667
 31
0.0
210
0.0
220
0.0
230
1.0
 73
     3
  0
TEXT
  8
1
  6
CONTINUOUS
 62
     7
  5
3CE
 10
199.596417
 20
112.410667
 30
0.0
 40
2.5
  1
OF POLE
  7
MONOTXT
 11
199.596417
 21
114.910667
 31
0.0
210
0.0
220
0.0
230
1.0
 73
     3
  0
TEXT
  8
1
  6
CONTINUOUS
 62
     7
  5
3CF
 10
216.586333
 20
103.489083
 30
0.0
 40
3.0
  1
DETAIL "A"
  7
MONOTXT
210
0.0
220
0.0
230
1.0
  0
LINE
  8
1
  6
CONTINUOUS
 62
     7
  5
3D0
 10
215.168083
 20
101.483583
 30
0.0
 11
243.210333
 21
101.483583
 31
0.0
  0
TEXT
  8
1
  6
CONTINUOUS
 62
     7
  5
3D1
 10
107.684167
 20
85.8285
 30
0.0
 40
4.0
  1
FLASHER AND SIGN MOUNTING DETAIL
  7
MONOTXT
 72
     4
 11
166.2825
 21
87.8285
 31
0.0
210
0.0
220
0.0
230
1.0
  0
TEXT
  8
1
  6
CONTINUOUS
 62
     7
  5
3D2
 10
146.518833
 20
78.8285
 30
0.0
 40
4.0
  1
POST MOUNT
  7
MONOTXT
 72
     4
 11
166.282583
 21
80.8285
 31
0.0
210
0.0
220
0.0
230
1.0
  0
LINE
  8
1
  6
CONTINUOUS
 62
     7
  5
3D3
 10
105.777333
 20
84.554333
 30
0.0
 11
226.282583
 21
84.554333
 31
0.0
  0
LINE
  8
1
  6
CONTINUOUS
 62
     7
  5
3D4
 10
145.50175
 20
77.780917
 30
0.0
 11
187.26
 21
77.780917
 31
0.0
  0
LINE
  8
1
  6
CONTINUOUS
 62
     4
  5
3D5
 10
280.877167
 20
288.013333
 30
0.0
 11
280.877167
 21
177.013333
 31
0.0
  0
LINE
  8
1
  6
CONTINUOUS
 62
     4
  5
3D6
 10
287.877167
 20
283.013333
 30
0.0
 11
287.877167
 21
182.013333
 31
0.0
  0
LINE
  8
1
  6
CONTINUOUS
 62
     4
  5
3D7
 10
288.877167
 20
281.513333
 30
0.0
 11
288.877167
 21
183.513333
 31
0.0
  0
LINE
  8
1
  6
CONTINUOUS
 62
     4
  5
3D8
 10
287.877167
 20
281.513333
 30
0.0
 11
297.877167
 21
281.513333
 31
0.0
  0
LINE
  8
1
  6
CONTINUOUS
 62
     4
  5
3D9
 10
287.877167
 20
183.513333
 30
0.0
 11
297.877167
 21
183.513333
 31
0.0
  0
ARC
  8
1
  6
CONTINUOUS
 62
     4
  5
3DA
 10
288.877167
 20
282.306332
 30
0.0
 40
1.224684
 50
35.260367
 51
144.739631
210
0.0
220
0.0
230
1.0
  0
ARC
  8
1
  6
CONTINUOUS
 62
     4
  5
3DB
 10
290.877167
 20
283.720335
 30
0.0
 40
1.224684
 50
215.260369
 51
324.739633
210
0.0
220
0.0
230
1.0
  0
ARC
  8
1
  6
CONTINUOUS
 62
     4
  5
3DC
 10
290.877167
 20
282.313998
 30
0.0
 40
1.224684
 50
35.260367
 51
144.739631
210
0.0
220
0.0
230
1.0
  0
ARC
  8
1
  6
CONTINUOUS
 62
     4
  5
3DD
 10
290.877167
 20
182.720335
 30
0.0
 40
1.224684
 50
215.260367
 51
324.739631
210
0.0
220
0.0
230
1.0
  0
ARC
  8
1
  6
CONTINUOUS
 62
     4
  5
3DE
 10
288.877167
 20
181.306332
 30
0.0
 40
1.224684
 50
35.260369
 51
144.739633
210
0.0
220
0.0
230
1.0
  0
ARC
  8
1
  6
CONTINUOUS
 62
     4
  5
3DF
 10
288.877167
 20
182.712668
 30
0.0
 40
1.224684
 50
215.260367
 51
324.739631
210
0.0
220
0.0
230
1.0
  0
LINE
  8
1
  6
CONTINUOUS
 62
     4
  5
3E0
 10
287.877167
 20
279.513333
 30
0.0
 11
286.877167
 21
279.513333
 31
0.0
  0
LINE
  8
1
  6
CONTINUOUS
 62
     4
  5
3E1
 10
286.877167
 20
279.513333
 30
0.0
 11
286.877167
 21
276.013333
 31
0.0
  0
LINE
  8
1
  6
CONTINUOUS
 62
     4
  5
3E2
 10
286.877167
 20
276.013333
 30
0.0
 11
280.877167
 21
274.405583
 31
0.0
  0
LINE
  8
1
  6
CONTINUOUS
 62
     4
  5
3E3
 10
287.877167
 20
275.245917
 30
0.0
 11
281.843083
 21
273.629
 31
0.0
  0
LINE
  8
1
  6
CONTINUOUS
 62
     4
  5
3E4
 10
281.843083
 20
273.629
 30
0.0
 11
281.843083
 21
270.129
 31
0.0
  0
LINE
  8
1
  6
CONTINUOUS
 62
     4
  5
3E5
 10
281.843083
 20
270.129
 30
0.0
 11
280.843083
 21
270.129
 31
0.0
  0
LINE
  8
1
  6
CONTINUOUS
 62
     4
  5
3E6
 10
286.127167
 20
278.763333
 30
0.0
 11
286.127167
 21
276.763333
 31
0.0
  0
LINE
  8
1
  6
CONTINUOUS
 62
     4
  5
3E7
 10
282.593083
 20
272.879
 30
0.0
 11
282.593083
 21
270.879
 31
0.0
  0
LINE
  8
1
  6
CONTINUOUS
 62
     4
  5
3E8
 10
289.627167
 20
278.763333
 30
0.0
 11
289.627167
 21
276.763333
 31
0.0
  0
LINE
  8
1
  6
CONTINUOUS
 62
     4
  5
3E9
 10
280.11125
 20
272.879
 30
0.0
 11
280.11125
 21
270.879
 31
0.0
  0
LINE
  8
1
  6
CONTINUOUS
 62
     4
  5
3EA
 10
286.127167
 20
278.763333
 30
0.0
 11
286.877167
 21
278.763333
 31
0.0
  0
LINE
  8
1
  6
CONTINUOUS
 62
     4
  5
3EB
 10
288.877167
 20
278.763333
 30
0.0
 11
289.627167
 21
278.763333
 31
0.0
  0
LINE
  8
1
  6
CONTINUOUS
 62
     4
  5
3EC
 10
286.127167
 20
276.763333
 30
0.0
 11
286.877167
 21
276.763333
 31
0.0
  0
LINE
  8
1
  6
CONTINUOUS
 62
     4
  5
3ED
 10
288.877167
 20
276.763333
 30
0.0
 11
289.627167
 21
276.763333
 31
0.0
  0
LINE
  8
1
  6
CONTINUOUS
 62
     4
  5
3EE
 10
280.11125
 20
272.879
 30
0.0
 11
280.877167
 21
272.879
 31
0.0
  0
LINE
  8
1
  6
CONTINUOUS
 62
     4
  5
3EF
 10
281.843083
 20
272.879
 30
0.0
 11
282.593083
 21
272.879
 31
0.0
  0
LINE
  8
1
  6
CONTINUOUS
 62
     4
  5
3F0
 10
282.593083
 20
270.879
 30
0.0
 11
281.843083
 21
270.879
 31
0.0
  0
LINE
  8
1
  6
CONTINUOUS
 62
     4
  5
3F1
 10
280.877167
 20
270.879
 30
0.0
 11
280.11125
 21
270.879
 31
0.0
  0
LINE
  8
1
  6
CONTINUOUS
 62
     4
  5
3F2
 10
285.377167
 20
278.263333
 30
0.0
 11
286.877167
 21
278.263333
 31
0.0
  0
LINE
  8
1
  6
CONTINUOUS
 62
     4
  5
3F3
 10
285.377167
 20
277.263333
 30
0.0
 11
286.877167
 21
277.263333
 31
0.0
  0
LINE
  8
1
  6
HIDDEN
 62
     4
  5
3F4
 10
286.877167
 20
278.263333
 30
0.0
 11
292.627167
 21
278.263333
 31
0.0
  0
LINE
  8
1
  6
HIDDEN
 62
     4
  5
3F5
 10
286.877167
 20
277.263333
 30
0.0
 11
292.627167
 21
277.263333
 31
0.0
  0
ARC
  8
1
  6
CONTINUOUS
 62
     4
  5
3F6
 10
285.392234
 20
277.763333
 30
0.0
 40
0.500227
 50
91.726089
 51
268.273914
210
0.0
220
0.0
230
1.0
  0
ARC
  8
1
  6
HIDDEN
 62
     4
  5
3F7
 10
292.612099
 20
277.763333
 30
0.0
 40
0.500227
 50
271.726086
 51
88.273911
210
0.0
220
0.0
230
1.0
  0
LINE
  8
1
  6
CONTINUOUS
 62
     4
  5
3F8
 10
280.11125
 20
272.379
 30
0.0
 11
280.877167
 21
272.379
 31
0.0
  0
LINE
  8
1
  6
CONTINUOUS
 62
     4
  5
3F9
 10
280.877167
 20
271.379
 30
0.0
 11
280.11125
 21
271.379
 31
0.0
  0
LINE
  8
1
  6
CONTINUOUS
 62
     4
  5
3FA
 10
281.843083
 20
272.379
 30
0.0
 11
283.593083
 21
272.379
 31
0.0
  0
LINE
  8
1
  6
CONTINUOUS
 62
     4
  5
3FB
 10
283.593083
 20
271.379
 30
0.0
 11
281.843083
 21
271.379
 31
0.0
  0
ARC
  8
1
  6
CONTINUOUS
 62
     4
  5
3FC
 10
283.578016
 20
271.879
 30
0.0
 40
0.500227
 50
271.726086
 51
88.273911
210
0.0
220
0.0
230
1.0
  0
LINE
  8
1
  6
CONTINUOUS
 62
     4
  5
3FD
 10
283.093083
 20
272.379
 30
0.0
 11
283.093083
 21
271.379
 31
0.0
  0
LINE
  8
1
  6
CONTINUOUS
 62
     4
  5
3FE
 10
283.593083
 20
272.379
 30
0.0
 11
283.593083
 21
271.379
 31
0.0
  0
LINE
  8
1
  6
CONTINUOUS
 62
     4
  5
3FF
 10
283.343083
 20
272.129
 30
0.0
 11
283.343083
 21
271.629
 31
0.0
  0
LINE
  8
1
  6
CONTINUOUS
 62
     4
  5
400
 10
282.843083
 20
272.129
 30
0.0
 11
282.843083
 21
271.629
 31
0.0
  0
LINE
  8
1
  6
CONTINUOUS
 62
     4
  5
401
 10
286.877167
 20
189.140833
 30
0.0
 11
280.877167
 21
190.748583
 31
0.0
  0
LINE
  8
1
  6
CONTINUOUS
 62
     4
  5
402
 10
287.877167
 20
185.640833
 30
0.0
 11
286.877167
 21
185.640833
 31
0.0
  0
LINE
  8
1
  6
CONTINUOUS
 62
     4
  5
403
 10
286.877167
 20
185.640833
 30
0.0
 11
286.877167
 21
189.140833
 31
0.0
  0
LINE
  8
1
  6
CONTINUOUS
 62
     4
  5
404
 10
287.877167
 20
189.90825
 30
0.0
 11
281.843083
 21
191.525167
 31
0.0
  0
LINE
  8
1
  6
CONTINUOUS
 62
     4
  5
405
 10
281.843083
 20
191.525167
 30
0.0
 11
281.843083
 21
195.025167
 31
0.0
  0
LINE
  8
1
  6
CONTINUOUS
 62
     4
  5
406
 10
281.843083
 20
195.025167
 30
0.0
 11
280.843083
 21
195.025167
 31
0.0
  0
LINE
  8
1
  6
CONTINUOUS
 62
     4
  5
407
 10
286.127167
 20
186.390833
 30
0.0
 11
286.127167
 21
188.390833
 31
0.0
  0
LINE
  8
1
  6
CONTINUOUS
 62
     4
  5
408
 10
282.593083
 20
192.275167
 30
0.0
 11
282.593083
 21
194.275167
 31
0.0
  0
LINE
  8
1
  6
CONTINUOUS
 62
     4
  5
409
 10
289.627167
 20
186.390833
 30
0.0
 11
289.627167
 21
188.390833
 31
0.0
  0
LINE
  8
1
  6
CONTINUOUS
 62
     4
  5
40A
 10
280.11125
 20
192.275167
 30
0.0
 11
280.11125
 21
194.275167
 31
0.0
  0
LINE
  8
1
  6
CONTINUOUS
 62
     4
  5
40B
 10
286.127167
 20
186.390833
 30
0.0
 11
286.877167
 21
186.390833
 31
0.0
  0
LINE
  8
1
  6
CONTINUOUS
 62
     4
  5
40C
 10
288.877167
 20
186.390833
 30
0.0
 11
289.627167
 21
186.390833
 31
0.0
  0
LINE
  8
1
  6
CONTINUOUS
 62
     4
  5
40D
 10
286.127167
 20
188.390833
 30
0.0
 11
286.877167
 21
188.390833
 31
0.0
  0
LINE
  8
1
  6
CONTINUOUS
 62
     4
  5
40E
 10
288.877167
 20
188.390833
 30
0.0
 11
289.627167
 21
188.390833
 31
0.0
  0
LINE
  8
1
  6
CONTINUOUS
 62
     4
  5
40F
 10
280.11125
 20
192.275167
 30
0.0
 11
280.877167
 21
192.275167
 31
0.0
  0
LINE
  8
1
  6
CONTINUOUS
 62
     4
  5
410
 10
281.843083
 20
192.275167
 30
0.0
 11
282.593083
 21
192.275167
 31
0.0
  0
LINE
  8
1
  6
CONTINUOUS
 62
     4
  5
411
 10
282.593083
 20
194.275167
 30
0.0
 11
281.843083
 21
194.275167
 31
0.0
  0
LINE
  8
1
  6
CONTINUOUS
 62
     4
  5
412
 10
280.877167
 20
194.275167
 30
0.0
 11
280.11125
 21
194.275167
 31
0.0
  0
LINE
  8
1
  6
CONTINUOUS
 62
     4
  5
413
 10
285.377167
 20
186.890833
 30
0.0
 11
286.877167
 21
186.890833
 31
0.0
  0
LINE
  8
1
  6
CONTINUOUS
 62
     4
  5
414
 10
285.377167
 20
187.890833
 30
0.0
 11
286.877167
 21
187.890833
 31
0.0
  0
LINE
  8
1
  6
HIDDEN
 62
     4
  5
415
 10
286.877167
 20
186.890833
 30
0.0
 11
292.627167
 21
186.890833
 31
0.0
  0
LINE
  8
1
  6
HIDDEN
 62
     4
  5
416
 10
286.877167
 20
187.890833
 30
0.0
 11
292.627167
 21
187.890833
 31
0.0
  0
ARC
  8
1
  6
CONTINUOUS
 62
     4
  5
417
 10
285.392234
 20
187.390833
 30
0.0
 40
0.500227
 50
91.726086
 51
268.273911
210
0.0
220
0.0
230
1.0
  0
ARC
  8
1
  6
HIDDEN
 62
     4
  5
418
 10
292.612099
 20
187.390833
 30
0.0
 40
0.500227
 50
271.726089
 51
88.273914
210
0.0
220
0.0
230
1.0
  0
LINE
  8
1
  6
CONTINUOUS
 62
     4
  5
419
 10
280.11125
 20
192.775167
 30
0.0
 11
280.877167
 21
192.775167
 31
0.0
  0
LINE
  8
1
  6
CONTINUOUS
 62
     4
  5
41A
 10
280.877167
 20
193.775167
 30
0.0
 11
280.11125
 21
193.775167
 31
0.0
  0
LINE
  8
1
  6
CONTINUOUS
 62
     4
  5
41B
 10
281.843083
 20
192.775167
 30
0.0
 11
283.593083
 21
192.775167
 31
0.0
  0
LINE
  8
1
  6
CONTINUOUS
 62
     4
  5
41C
 10
283.593083
 20
193.775167
 30
0.0
 11
281.843083
 21
193.775167
 31
0.0
  0
ARC
  8
1
  6
CONTINUOUS
 62
     4
  5
41D
 10
283.578016
 20
193.275167
 30
0.0
 40
0.500227
 50
271.726089
 51
88.273914
210
0.0
220
0.0
230
1.0
  0
LINE
  8
1
  6
CONTINUOUS
 62
     4
  5
41E
 10
283.093083
 20
192.775167
 30
0.0
 11
283.093083
 21
193.775167
 31
0.0
  0
LINE
  8
1
  6
CONTINUOUS
 62
     4
  5
41F
 10
283.593083
 20
192.775167
 30
0.0
 11
283.593083
 21
193.775167
 31
0.0
  0
LINE
  8
1
  6
CONTINUOUS
 62
     4
  5
420
 10
283.343083
 20
193.025167
 30
0.0
 11
283.343083
 21
193.525167
 31
0.0
  0
LINE
  8
1
  6
CONTINUOUS
 62
     4
  5
421
 10
282.843083
 20
193.025167
 30
0.0
 11
282.843083
 21
193.525167
 31
0.0
  0
LINE
  8
1
  6
CONTINUOUS
 62
     4
  5
422
 10
293.627167
 20
244.513333
 30
0.0
 11
288.877167
 21
244.513333
 31
0.0
  0
LINE
  8
1
  6
CONTINUOUS
 62
     4
  5
423
 10
293.627167
 20
220.513333
 30
0.0
 11
288.877167
 21
220.513333
 31
0.0
  0
LINE
  8
1
  6
CONTINUOUS
 62
     4
  5
424
 10
289.877167
 20
243.013333
 30
0.0
 11
300.076167
 21
239.895167
 31
0.0
  0
LINE
  8
1
  6
CONTINUOUS
 62
     4
  5
425
 10
289.877167
 20
244.059
 30
0.0
 11
300.688833
 21
240.7535
 31
0.0
  0
LINE
  8
1
  6
CONTINUOUS
 62
     4
  5
426
 10
289.877167
 20
244.513333
 30
0.0
 11
289.877167
 21
244.059
 31
0.0
  0
LINE
  8
1
  6
HIDDEN
 62
     4
  5
427
 10
291.877167
 20
283.013333
 30
0.0
 11
291.877167
 21
243.4475
 31
0.0
  0
LINE
  8
1
  6
CONTINUOUS
 62
     4
  5
428
 10
293.627167
 20
244.513333
 30
0.0
 11
293.627167
 21
242.9125
 31
0.0
  0
LINE
  8
1
  6
CONTINUOUS
 62
     4
  5
429
 10
289.877167
 20
222.056167
 30
0.0
 11
300.076167
 21
225.174333
 31
0.0
  0
LINE
  8
1
  6
CONTINUOUS
 62
     4
  5
42A
 10
289.877167
 20
221.0105
 30
0.0
 11
300.688833
 21
224.316
 31
0.0
  0
LINE
  8
1
  6
CONTINUOUS
 62
     4
  5
42B
 10
289.877167
 20
243.013333
 30
0.0
 11
289.877167
 21
222.056167
 31
0.0
  0
LINE
  8
1
  6
CONTINUOUS
 62
     4
  5
42C
 10
289.877167
 20
221.0105
 30
0.0
 11
289.877167
 21
220.513333
 31
0.0
  0
LINE
  8
1
  6
HIDDEN
 62
     4
  5
42D
 10
291.877167
 20
242.401833
 30
0.0
 11
291.877167
 21
222.667667
 31
0.0
  0
LINE
  8
1
  6
CONTINUOUS
 62
     4
  5
42E
 10
293.627167
 20
241.866833
 30
0.0
 11
293.627167
 21
223.202667
 31
0.0
  0
LINE
  8
1
  6
CONTINUOUS
 62
     4
  5
42F
 10
293.627167
 20
222.157
 30
0.0
 11
293.627167
 21
220.513333
 31
0.0
  0
LINE
  8
1
  6
HIDDEN
 62
     4
  5
430
 10
289.877167
 20
221.0105
 30
0.0
 11
292.377167
 21
221.0105
 31
0.0
  0
LINE
  8
1
  6
HIDDEN
 62
     4
  5
431
 10
288.877167
 20
209.5105
 30
0.0
 11
292.377167
 21
209.5105
 31
0.0
  0
LINE
  8
1
  6
HIDDEN
 62
     4
  5
432
 10
292.377167
 20
221.0105
 30
0.0
 11
292.377167
 21
209.5105
 31
0.0
  0
LINE
  8
1
  6
HIDDEN
 62
     4
  5
433
 10
291.877167
 20
221.622
 30
0.0
 11
291.877167
 21
221.0105
 31
0.0
  0
LINE
  8
1
  6
HIDDEN
 62
     4
  5
434
 10
291.877167
 20
209.5105
 30
0.0
 11
291.877167
 21
182.013333
 31
0.0
  0
CIRCLE
  8
1
  6
HIDDEN
 62
     4
  5
435
 10
290.618917
 20
215.25525
 30
0.0
 40
1.72654
210
0.0
220
0.0
230
1.0
  0
CIRCLE
  8
1
  6
HIDDEN
 62
     4
  5
436
 10
290.624667
 20
215.261333
 30
0.0
 40
1.5
210
0.0
220
0.0
230
1.0
  0
ARC
  8
1
  6
CONTINUOUS
 62
     4
  5
437
 10
312.124347
 20
232.53475
 30
0.0
 40
14.082571
 50
116.594019
 51
243.484492
210
0.0
220
0.0
230
1.0
  0
ARC
  8
1
  6
CONTINUOUS
 62
     4
  5
438
 10
312.317458
 20
232.535182
 30
0.0
 40
13.507568
 50
118.751869
 51
241.331556
210
0.0
220
0.0
230
1.0
  0
LINE
  8
1
  6
CONTINUOUS
 62
     4
  5
439
 10
297.877167
 20
281.513333
 30
0.0
 11
297.877167
 21
241.613083
 31
0.0
  0
LINE
  8
1
  6
CONTINUOUS
 62
     4
  5
43A
 10
297.877167
 20
240.5675
 30
0.0
 11
297.877167
 21
224.502
 31
0.0
  0
LINE
  8
1
  6
CONTINUOUS
 62
     4
  5
43B
 10
297.877167
 20
223.456417
 30
0.0
 11
297.877167
 21
183.513333
 31
0.0
  0
LINE
  8
1
  6
CONTINUOUS
 62
     4
  5
43C
 10
302.877167
 20
247.155917
 30
0.0
 11
302.877167
 21
243.155917
 31
0.0
  0
LINE
  8
1
  6
CONTINUOUS
 62
     4
  5
43D
 10
303.627167
 20
247.155917
 30
0.0
 11
303.627167
 21
243.764917
 31
0.0
  0
ARC
  8
1
  6
CONTINUOUS
 62
     4
  5
43E
 10
304.199959
 20
247.428752
 30
0.0
 40
1.350637
 50
39.669258
 51
191.654219
210
0.0
220
0.0
230
1.0
  0
ARC
  8
1
  6
CONTINUOUS
 62
     4
  5
43F
 10
305.423395
 20
245.868059
 30
0.0
 40
1.542523
 50
284.902108
 51
26.983797
210
0.0
220
0.0
230
1.0
  0
LINE
  8
1
  6
CONTINUOUS
 62
     4
  5
440
 10
305.239583
 20
248.290917
 30
0.0
 11
306.798
 21
246.568
 31
0.0
  0
LINE
  8
1
  6
CONTINUOUS
 62
     4
  5
441
 10
304.683333
 20
247.78775
 30
0.0
 11
306.24175
 21
246.064833
 31
0.0
  0
ARC
  8
1
  6
CONTINUOUS
 62
     4
  5
442
 10
304.214715
 20
247.372433
 30
0.0
 40
0.626172
 50
41.549244
 51
200.229233
210
0.0
220
0.0
230
1.0
  0
ARC
  8
1
  6
CONTINUOUS
 62
     4
  5
443
 10
305.722965
 20
245.734647
 30
0.0
 40
0.614948
 50
279.086756
 51
32.475119
210
0.0
220
0.0
230
1.0
  0
ARC
  8
1
  6
CONTINUOUS
 62
     4
  5
444
 10
304.214715
 20
217.659234
 30
0.0
 40
0.626172
 50
159.770767
 51
318.450756
210
0.0
220
0.0
230
1.0
  0
LINE
  8
1
  6
CONTINUOUS
 62
     4
  5
445
 10
302.877167
 20
217.87575
 30
0.0
 11
302.877167
 21
221.87575
 31
0.0
  0
LINE
  8
1
  6
CONTINUOUS
 62
     4
  5
446
 10
303.627167
 20
217.87575
 30
0.0
 11
303.627167
 21
221.26675
 31
0.0
  0
ARC
  8
1
  6
CONTINUOUS
 62
     4
  5
447
 10
304.199959
 20
217.602915
 30
0.0
 40
1.350637
 50
168.345781
 51
320.330742
210
0.0
220
0.0
230
1.0
  0
ARC
  8
1
  6
CONTINUOUS
 62
     4
  5
448
 10
305.423395
 20
219.163607
 30
0.0
 40
1.542523
 50
333.016203
 51
75.097892
210
0.0
220
0.0
230
1.0
  0
LINE
  8
1
  6
CONTINUOUS
 62
     4
  5
449
 10
305.239583
 20
216.74075
 30
0.0
 11
306.798
 21
218.463667
 31
0.0
  0
LINE
  8
1
  6
CONTINUOUS
 62
     4
  5
44A
 10
304.683333
 20
217.243917
 30
0.0
 11
306.24175
 21
218.966833
 31
0.0
  0
ARC
  8
1
  6
CONTINUOUS
 62
     4
  5
44B
 10
305.722965
 20
219.297019
 30
0.0
 40
0.614948
 50
327.524881
 51
80.913244
210
0.0
220
0.0
230
1.0
  0
ARC
  8
1
  6
CONTINUOUS
 62
     4
  5
44C
 10
313.218708
 20
232.535182
 30
0.0
 40
13.507568
 50
298.668444
 51
61.248131
210
0.0
220
0.0
230
1.0
  0
ARC
  8
1
  6
CONTINUOUS
 62
     4
  5
44D
 10
313.41182
 20
232.53475
 30
0.0
 40
14.082571
 50
296.515508
 51
63.405981
210
0.0
220
0.0
230
1.0
  0
LINE
  8
1
  6
CONTINUOUS
 62
     4
  5
44E
 10
322.659
 20
247.155917
 30
0.0
 11
322.659
 21
243.155917
 31
0.0
  0
LINE
  8
1
  6
CONTINUOUS
 62
     4
  5
44F
 10
321.909
 20
247.155917
 30
0.0
 11
321.909
 21
243.764917
 31
0.0
  0
ARC
  8
1
  6
CONTINUOUS
 62
     4
  5
450
 10
321.336207
 20
247.428752
 30
0.0
 40
1.350637
 50
348.345781
 51
140.330742
210
0.0
220
0.0
230
1.0
  0
ARC
  8
1
  6
CONTINUOUS
 62
     4
  5
451
 10
320.112771
 20
245.868059
 30
0.0
 40
1.542523
 50
153.016203
 51
255.097892
210
0.0
220
0.0
230
1.0
  0
LINE
  8
1
  6
CONTINUOUS
 62
     4
  5
452
 10
320.296583
 20
248.290917
 30
0.0
 11
318.738167
 21
246.568
 31
0.0
  0
LINE
  8
1
  6
CONTINUOUS
 62
     4
  5
453
 10
320.852833
 20
247.78775
 30
0.0
 11
319.294417
 21
246.064833
 31
0.0
  0
ARC
  8
1
  6
CONTINUOUS
 62
     4
  5
454
 10
321.321452
 20
247.372433
 30
0.0
 40
0.626172
 50
339.770767
 51
138.450756
210
0.0
220
0.0
230
1.0
  0
ARC
  8
1
  6
CONTINUOUS
 62
     4
  5
455
 10
319.813202
 20
245.734647
 30
0.0
 40
0.614948
 50
147.524881
 51
260.913244
210
0.0
220
0.0
230
1.0
  0
ARC
  8
1
  6
CONTINUOUS
 62
     4
  5
456
 10
321.321452
 20
217.659234
 30
0.0
 40
0.626172
 50
221.549244
 51
20.229233
210
0.0
220
0.0
230
1.0
  0
LINE
  8
1
  6
CONTINUOUS
 62
     4
  5
457
 10
322.659
 20
217.87575
 30
0.0
 11
322.659
 21
221.87575
 31
0.0
  0
LINE
  8
1
  6
CONTINUOUS
 62
     4
  5
458
 10
321.909
 20
217.87575
 30
0.0
 11
321.909
 21
221.26675
 31
0.0
  0
ARC
  8
1
  6
CONTINUOUS
 62
     4
  5
459
 10
321.336207
 20
217.602915
 30
0.0
 40
1.350637
 50
219.669258
 51
11.654219
210
0.0
220
0.0
230
1.0
  0
ARC
  8
1
  6
CONTINUOUS
 62
     4
  5
45A
 10
320.112771
 20
219.163607
 30
0.0
 40
1.542523
 50
104.902108
 51
206.983797
210
0.0
220
0.0
230
1.0
  0
LINE
  8
1
  6
CONTINUOUS
 62
     4
  5
45B
 10
320.296583
 20
216.74075
 30
0.0
 11
318.738167
 21
218.463667
 31
0.0
  0
LINE
  8
1
  6
CONTINUOUS
 62
     4
  5
45C
 10
320.852833
 20
217.243917
 30
0.0
 11
319.294417
 21
218.966833
 31
0.0
  0
ARC
  8
1
  6
CONTINUOUS
 62
     4
  5
45D
 10
319.813202
 20
219.297019
 30
0.0
 40
0.614948
 50
99.086756
 51
212.475119
210
0.0
220
0.0
230
1.0
  0
LINE
  8
1
  6
CONTINUOUS
 62
     4
  5
45E
 10
301.877167
 20
247.155917
 30
0.0
 11
302.877167
 21
247.155917
 31
0.0
  0
LINE
  8
1
  6
CONTINUOUS
 62
     4
  5
45F
 10
322.659
 20
247.155917
 30
0.0
 11
323.659
 21
247.155917
 31
0.0
  0
LINE
  8
1
  6
CONTINUOUS
 62
     4
  5
460
 10
301.877167
 20
244.155917
 30
0.0
 11
302.877167
 21
244.155917
 31
0.0
  0
LINE
  8
1
  6
CONTINUOUS
 62
     4
  5
461
 10
322.659
 20
244.155917
 30
0.0
 11
323.659
 21
244.155917
 31
0.0
  0
LINE
  8
1
  6
CONTINUOUS
 62
     4
  5
462
 10
301.877167
 20
247.155917
 30
0.0
 11
301.877167
 21
244.155917
 31
0.0
  0
LINE
  8
1
  6
CONTINUOUS
 62
     4
  5
463
 10
323.659
 20
247.155917
 30
0.0
 11
323.659
 21
244.155917
 31
0.0
  0
LINE
  8
1
  6
CONTINUOUS
 62
     4
  5
464
 10
322.659
 20
246.405917
 30
0.0
 11
324.659
 21
246.405917
 31
0.0
  0
LINE
  8
1
  6
CONTINUOUS
 62
     4
  5
465
 10
322.659
 20
244.905917
 30
0.0
 11
324.659
 21
244.905917
 31
0.0
  0
LINE
  8
1
  6
CONTINUOUS
 62
     4
  5
466
 10
301.877167
 20
244.155917
 30
0.0
 11
302.127167
 21
244.905917
 31
0.0
  0
LINE
  8
1
  6
CONTINUOUS
 62
     4
  5
467
 10
301.877167
 20
247.155917
 30
0.0
 11
302.127167
 21
246.405917
 31
0.0
  0
LINE
  8
1
  6
CONTINUOUS
 62
     4
  5
468
 10
301.877167
 20
245.655917
 30
0.0
 11
302.127167
 21
246.405917
 31
0.0
  0
LINE
  8
1
  6
CONTINUOUS
 62
     4
  5
469
 10
301.877167
 20
245.655917
 30
0.0
 11
302.127167
 21
244.905917
 31
0.0
  0
LINE
  8
1
  6
CONTINUOUS
 62
     4
  5
46A
 10
300.877167
 20
246.405917
 30
0.0
 11
301.877167
 21
246.405917
 31
0.0
  0
LINE
  8
1
  6
CONTINUOUS
 62
     4
  5
46B
 10
302.127167
 20
246.405917
 30
0.0
 11
302.877167
 21
246.405917
 31
0.0
  0
LINE
  8
1
  6
CONTINUOUS
 62
     4
  5
46C
 10
300.877167
 20
244.905917
 30
0.0
 11
301.877167
 21
244.905917
 31
0.0
  0
LINE
  8
1
  6
CONTINUOUS
 62
     4
  5
46D
 10
302.127167
 20
244.905917
 30
0.0
 11
302.877167
 21
244.905917
 31
0.0
  0
ARC
  8
1
  6
CONTINUOUS
 62
     4
  5
46E
 10
302.10848
 20
245.655917
 30
0.0
 40
1.441746
 50
148.654161
 51
211.345836
210
0.0
220
0.0
230
1.0
  0
LINE
  8
1
  6
CONTINUOUS
 62
     4
  5
46F
 10
300.877167
 20
246.405917
 30
0.0
 11
300.877167
 21
244.905917
 31
0.0
  0
LINE
  8
1
  6
CONTINUOUS
 62
     4
  5
470
 10
301.377167
 20
246.405917
 30
0.0
 11
301.377167
 21
244.905917
 31
0.0
  0
LINE
  8
1
  6
CONTINUOUS
 62
     4
  5
471
 10
301.127167
 20
246.155917
 30
0.0
 11
301.127167
 21
245.155917
 31
0.0
  0
LINE
  8
1
  6
CONTINUOUS
 62
     4
  5
472
 10
301.627167
 20
246.155917
 30
0.0
 11
301.627167
 21
245.155917
 31
0.0
  0
LINE
  8
1
  6
CONTINUOUS
 62
     4
  5
473
 10
324.659
 20
246.405917
 30
0.0
 11
324.659
 21
244.905917
 31
0.0
  0
LINE
  8
1
  6
CONTINUOUS
 62
     4
  5
474
 10
324.159
 20
246.405917
 30
0.0
 11
324.159
 21
244.905917
 31
0.0
  0
LINE
  8
1
  6
CONTINUOUS
 62
     4
  5
475
 10
324.409
 20
246.155917
 30
0.0
 11
324.409
 21
245.155917
 31
0.0
  0
LINE
  8
1
  6
CONTINUOUS
 62
     4
  5
476
 10
323.909
 20
246.155917
 30
0.0
 11
323.909
 21
245.155917
 31
0.0
  0
LINE
  8
1
  6
CONTINUOUS
 62
     4
  5
477
 10
303.627167
 20
246.405917
 30
0.0
 11
305.93325
 21
246.405917
 31
0.0
  0
LINE
  8
1
  6
CONTINUOUS
 62
     4
  5
478
 10
303.627167
 20
244.905917
 30
0.0
 11
305.395833
 21
244.905917
 31
0.0
  0
LINE
  8
1
  6
CONTINUOUS
 62
     4
  5
479
 10
306.869083
 20
246.405917
 30
0.0
 11
318.667083
 21
246.405917
 31
0.0
  0
LINE
  8
1
  6
CONTINUOUS
 62
     4
  5
47A
 10
319.602917
 20
246.405917
 30
0.0
 11
321.909
 21
246.405917
 31
0.0
  0
LINE
  8
1
  6
CONTINUOUS
 62
     4
  5
47B
 10
306.629083
 20
244.905917
 30
0.0
 11
318.907083
 21
244.905917
 31
0.0
  0
LINE
  8
1
  6
CONTINUOUS
 62
     4
  5
47C
 10
320.140333
 20
244.905917
 30
0.0
 11
321.909
 21
244.905917
 31
0.0
  0
LINE
  8
1
  6
CONTINUOUS
 62
     4
  5
47D
 10
312.752167
 20
244.905917
 30
0.0
 11
312.752167
 21
246.405917
 31
0.0
  0
LINE
  8
1
  6
CONTINUOUS
 62
     4
  5
47E
 10
313.752167
 20
244.905917
 30
0.0
 11
313.752167
 21
246.405917
 31
0.0
  0
LINE
  8
1
  6
CONTINUOUS
 62
     4
  5
47F
 10
314.752167
 20
244.905917
 30
0.0
 11
314.752167
 21
246.405917
 31
0.0
  0
LINE
  8
1
  6
CONTINUOUS
 62
     4
  5
480
 10
315.752167
 20
244.905917
 30
0.0
 11
315.752167
 21
246.405917
 31
0.0
  0
LINE
  8
1
  6
CONTINUOUS
 62
     4
  5
481
 10
316.752167
 20
244.905917
 30
0.0
 11
316.752167
 21
246.405917
 31
0.0
  0
LINE
  8
1
  6
CONTINUOUS
 62
     4
  5
482
 10
317.752167
 20
244.905917
 30
0.0
 11
317.752167
 21
246.405917
 31
0.0
  0
LINE
  8
1
  6
CONTINUOUS
 62
     4
  5
483
 10
319.752167
 20
245.10925
 30
0.0
 11
319.752167
 21
246.405917
 31
0.0
  0
LINE
  8
1
  6
CONTINUOUS
 62
     4
  5
484
 10
320.752167
 20
244.905917
 30
0.0
 11
320.752167
 21
246.405917
 31
0.0
  0
LINE
  8
1
  6
CONTINUOUS
 62
     4
  5
485
 10
321.752167
 20
244.905917
 30
0.0
 11
321.752167
 21
246.405917
 31
0.0
  0
LINE
  8
1
  6
CONTINUOUS
 62
     4
  5
486
 10
313.252167
 20
245.155917
 30
0.0
 11
313.252167
 21
246.155917
 31
0.0
  0
LINE
  8
1
  6
CONTINUOUS
 62
     4
  5
487
 10
314.252167
 20
245.155917
 30
0.0
 11
314.252167
 21
246.155917
 31
0.0
  0
LINE
  8
1
  6
CONTINUOUS
 62
     4
  5
488
 10
315.252167
 20
245.155917
 30
0.0
 11
315.252167
 21
246.155917
 31
0.0
  0
LINE
  8
1
  6
CONTINUOUS
 62
     4
  5
489
 10
316.252167
 20
245.155917
 30
0.0
 11
316.252167
 21
246.155917
 31
0.0
  0
LINE
  8
1
  6
CONTINUOUS
 62
     4
  5
48A
 10
317.252167
 20
245.155917
 30
0.0
 11
317.252167
 21
246.155917
 31
0.0
  0
LINE
  8
1
  6
CONTINUOUS
 62
     4
  5
48B
 10
318.252167
 20
245.155917
 30
0.0
 11
318.252167
 21
246.155917
 31
0.0
  0
LINE
  8
1
  6
CONTINUOUS
 62
     4
  5
48C
 10
320.252167
 20
245.155917
 30
0.0
 11
320.252167
 21
246.155917
 31
0.0
  0
LINE
  8
1
  6
CONTINUOUS
 62
     4
  5
48D
 10
321.252167
 20
245.155917
 30
0.0
 11
321.252167
 21
246.155917
 31
0.0
  0
LINE
  8
1
  6
CONTINUOUS
 62
     4
  5
48E
 10
306.869083
 20
218.592583
 30
0.0
 11
318.667083
 21
218.592583
 31
0.0
  0
LINE
  8
1
  6
CONTINUOUS
 62
     4
  5
48F
 10
301.877167
 20
217.842583
 30
0.0
 11
302.877167
 21
217.842583
 31
0.0
  0
LINE
  8
1
  6
CONTINUOUS
 62
     4
  5
490
 10
322.659
 20
217.842583
 30
0.0
 11
323.659
 21
217.842583
 31
0.0
  0
LINE
  8
1
  6
CONTINUOUS
 62
     4
  5
491
 10
301.877167
 20
220.842583
 30
0.0
 11
302.877167
 21
220.842583
 31
0.0
  0
LINE
  8
1
  6
CONTINUOUS
 62
     4
  5
492
 10
322.659
 20
220.842583
 30
0.0
 11
323.659
 21
220.842583
 31
0.0
  0
LINE
  8
1
  6
CONTINUOUS
 62
     4
  5
493
 10
301.877167
 20
217.842583
 30
0.0
 11
301.877167
 21
220.842583
 31
0.0
  0
LINE
  8
1
  6
CONTINUOUS
 62
     4
  5
494
 10
323.659
 20
217.842583
 30
0.0
 11
323.659
 21
220.842583
 31
0.0
  0
LINE
  8
1
  6
CONTINUOUS
 62
     4
  5
495
 10
322.659
 20
218.592583
 30
0.0
 11
324.659
 21
218.592583
 31
0.0
  0
LINE
  8
1
  6
CONTINUOUS
 62
     4
  5
496
 10
322.659
 20
220.092583
 30
0.0
 11
324.659
 21
220.092583
 31
0.0
  0
LINE
  8
1
  6
CONTINUOUS
 62
     4
  5
497
 10
301.877167
 20
220.842583
 30
0.0
 11
302.127167
 21
220.092583
 31
0.0
  0
LINE
  8
1
  6
CONTINUOUS
 62
     4
  5
498
 10
301.877167
 20
217.842583
 30
0.0
 11
302.127167
 21
218.592583
 31
0.0
  0
LINE
  8
1
  6
CONTINUOUS
 62
     4
  5
499
 10
301.877167
 20
219.342583
 30
0.0
 11
302.127167
 21
218.592583
 31
0.0
  0
LINE
  8
1
  6
CONTINUOUS
 62
     4
  5
49A
 10
301.877167
 20
219.342583
 30
0.0
 11
302.127167
 21
220.092583
 31
0.0
  0
LINE
  8
1
  6
CONTINUOUS
 62
     4
  5
49B
 10
300.877167
 20
218.592583
 30
0.0
 11
301.877167
 21
218.592583
 31
0.0
  0
LINE
  8
1
  6
CONTINUOUS
 62
     4
  5
49C
 10
302.127167
 20
218.592583
 30
0.0
 11
302.877167
 21
218.592583
 31
0.0
  0
LINE
  8
1
  6
CONTINUOUS
 62
     4
  5
49D
 10
300.877167
 20
220.092583
 30
0.0
 11
301.877167
 21
220.092583
 31
0.0
  0
LINE
  8
1
  6
CONTINUOUS
 62
     4
  5
49E
 10
302.127167
 20
220.092583
 30
0.0
 11
302.877167
 21
220.092583
 31
0.0
  0
ARC
  8
1
  6
CONTINUOUS
 62
     4
  5
49F
 10
302.10848
 20
219.342583
 30
0.0
 40
1.441746
 50
148.654164
 51
211.345839
210
0.0
220
0.0
230
1.0
  0
LINE
  8
1
  6
CONTINUOUS
 62
     4
  5
4A0
 10
300.877167
 20
218.592583
 30
0.0
 11
300.877167
 21
220.092583
 31
0.0
  0
LINE
  8
1
  6
CONTINUOUS
 62
     4
  5
4A1
 10
301.377167
 20
218.592583
 30
0.0
 11
301.377167
 21
220.092583
 31
0.0
  0
LINE
  8
1
  6
CONTINUOUS
 62
     4
  5
4A2
 10
301.127167
 20
218.842583
 30
0.0
 11
301.127167
 21
219.842583
 31
0.0
  0
LINE
  8
1
  6
CONTINUOUS
 62
     4
  5
4A3
 10
301.627167
 20
218.842583
 30
0.0
 11
301.627167
 21
219.842583
 31
0.0
  0
LINE
  8
1
  6
CONTINUOUS
 62
     4
  5
4A4
 10
324.659
 20
218.592583
 30
0.0
 11
324.659
 21
220.092583
 31
0.0
  0
LINE
  8
1
  6
CONTINUOUS
 62
     4
  5
4A5
 10
324.159
 20
218.592583
 30
0.0
 11
324.159
 21
220.092583
 31
0.0
  0
LINE
  8
1
  6
CONTINUOUS
 62
     4
  5
4A6
 10
324.409
 20
218.842583
 30
0.0
 11
324.409
 21
219.842583
 31
0.0
  0
LINE
  8
1
  6
CONTINUOUS
 62
     4
  5
4A7
 10
323.909
 20
218.842583
 30
0.0
 11
323.909
 21
219.842583
 31
0.0
  0
LINE
  8
1
  6
CONTINUOUS
 62
     4
  5
4A8
 10
303.627167
 20
218.592583
 30
0.0
 11
305.93325
 21
218.592583
 31
0.0
  0
LINE
  8
1
  6
CONTINUOUS
 62
     4
  5
4A9
 10
303.627167
 20
220.092583
 30
0.0
 11
305.395833
 21
220.092583
 31
0.0
  0
LINE
  8
1
  6
CONTINUOUS
 62
     4
  5
4AA
 10
319.602917
 20
218.592583
 30
0.0
 11
321.909
 21
218.592583
 31
0.0
  0
LINE
  8
1
  6
CONTINUOUS
 62
     4
  5
4AB
 10
306.629083
 20
220.092583
 30
0.0
 11
318.907083
 21
220.092583
 31
0.0
  0
LINE
  8
1
  6
CONTINUOUS
 62
     4
  5
4AC
 10
320.140333
 20
220.092583
 30
0.0
 11
321.909
 21
220.092583
 31
0.0
  0
LINE
  8
1
  6
CONTINUOUS
 62
     4
  5
4AD
 10
312.752167
 20
220.092583
 30
0.0
 11
312.752167
 21
218.592583
 31
0.0
  0
LINE
  8
1
  6
CONTINUOUS
 62
     4
  5
4AE
 10
313.752167
 20
220.092583
 30
0.0
 11
313.752167
 21
218.592583
 31
0.0
  0
LINE
  8
1
  6
CONTINUOUS
 62
     4
  5
4AF
 10
314.752167
 20
220.092583
 30
0.0
 11
314.752167
 21
218.592583
 31
0.0
  0
LINE
  8
1
  6
CONTINUOUS
 62
     4
  5
4B0
 10
315.752167
 20
220.092583
 30
0.0
 11
315.752167
 21
218.592583
 31
0.0
  0
LINE
  8
1
  6
CONTINUOUS
 62
     4
  5
4B1
 10
316.752167
 20
220.092583
 30
0.0
 11
316.752167
 21
218.592583
 31
0.0
  0
LINE
  8
1
  6
CONTINUOUS
 62
     4
  5
4B2
 10
317.752167
 20
220.092583
 30
0.0
 11
317.752167
 21
218.592583
 31
0.0
  0
LINE
  8
1
  6
CONTINUOUS
 62
     4
  5
4B3
 10
319.752167
 20
219.88925
 30
0.0
 11
319.752167
 21
218.592583
 31
0.0
  0
LINE
  8
1
  6
CONTINUOUS
 62
     4
  5
4B4
 10
320.752167
 20
220.092583
 30
0.0
 11
320.752167
 21
218.592583
 31
0.0
  0
LINE
  8
1
  6
CONTINUOUS
 62
     4
  5
4B5
 10
321.752167
 20
220.092583
 30
0.0
 11
321.752167
 21
218.592583
 31
0.0
  0
LINE
  8
1
  6
CONTINUOUS
 62
     4
  5
4B6
 10
313.252167
 20
219.842583
 30
0.0
 11
313.252167
 21
218.842583
 31
0.0
  0
LINE
  8
1
  6
CONTINUOUS
 62
     4
  5
4B7
 10
314.252167
 20
219.842583
 30
0.0
 11
314.252167
 21
218.842583
 31
0.0
  0
LINE
  8
1
  6
CONTINUOUS
 62
     4
  5
4B8
 10
315.252167
 20
219.842583
 30
0.0
 11
315.252167
 21
218.842583
 31
0.0
  0
LINE
  8
1
  6
CONTINUOUS
 62
     4
  5
4B9
 10
316.252167
 20
219.842583
 30
0.0
 11
316.252167
 21
218.842583
 31
0.0
  0
LINE
  8
1
  6
CONTINUOUS
 62
     4
  5
4BA
 10
317.252167
 20
219.842583
 30
0.0
 11
317.252167
 21
218.842583
 31
0.0
  0
LINE
  8
1
  6
CONTINUOUS
 62
     4
  5
4BB
 10
318.252167
 20
219.842583
 30
0.0
 11
318.252167
 21
218.842583
 31
0.0
  0
LINE
  8
1
  6
CONTINUOUS
 62
     4
  5
4BC
 10
320.252167
 20
219.842583
 30
0.0
 11
320.252167
 21
218.842583
 31
0.0
  0
LINE
  8
1
  6
CONTINUOUS
 62
     4
  5
4BD
 10
321.252167
 20
219.842583
 30
0.0
 11
321.252167
 21
218.842583
 31
0.0
  0
LINE
  8
1
  6
CONTINUOUS
 62
     7
  5
4BE
 10
310.774917
 20
232.513333
 30
0.0
 11
296.877167
 21
232.513333
 31
0.0
  0
LINE
  8
1
  6
CONTINUOUS
 62
     7
  5
4BF
 10
328.494417
 20
232.513333
 30
0.0
 11
314.77475
 21
232.513333
 31
0.0
  0
LINE
  8
1
  6
CONTINUOUS
 62
     7
  5
4C0
 10
313.77475
 20
232.513333
 30
0.0
 11
311.774917
 21
232.513333
 31
0.0
  0
LINE
  8
1
  6
CONTINUOUS
 62
     7
  5
4C1
 10
312.752167
 20
234.499083
 30
0.0
 11
312.752167
 21
243.905917
 31
0.0
  0
LINE
  8
1
  6
CONTINUOUS
 62
     7
  5
4C2
 10
312.752167
 20
221.092583
 30
0.0
 11
312.752167
 21
230.499417
 31
0.0
  0
LINE
  8
1
  6
CONTINUOUS
 62
     7
  5
4C3
 10
312.752167
 20
231.4995
 30
0.0
 11
312.752167
 21
233.499
 31
0.0
  0
LINE
  8
1
  6
CONTINUOUS
 62
     7
  5
4C4
 10
322.521083
 20
222.74125
 30
0.0
 11
302.97325
 21
242.289083
 31
0.0
  0
INSERT
  8
1
  6
CONTINUOUS
 62
     1
  5
4C5
  2
LDR
 10
302.97325
 20
242.289083
 30
0.0
 41
239.999999
 42
239.999999
 50
135.0
210
0.0
220
0.0
230
1.0
  0
INSERT
  8
1
  6
CONTINUOUS
 62
     1
  5
4C6
  2
LDR
 10
322.521083
 20
222.74125
 30
0.0
 41
239.999999
 42
239.999999
 50
315.0
210
0.0
220
0.0
230
1.0
  0
LINE
  8
1
  6
CONTINUOUS
 62
     7
  5
4C7
 10
330.494417
 20
232.513333
 30
0.0
 11
324.659
 21
244.905917
 31
0.0
  0
LINE
  8
1
  6
CONTINUOUS
 62
     7
  5
4C8
 10
330.494417
 20
232.513333
 30
0.0
 11
324.659
 21
220.092583
 31
0.0
  0
LINE
  8
1
  6
CONTINUOUS
 62
     7
  5
4C9
 10
330.494417
 20
232.513333
 30
0.0
 11
332.494417
 21
232.513333
 31
0.0
  0
INSERT
  8
1
  6
CONTINUOUS
 62
     1
  5
4CA
  2
LDR
 10
324.659
 20
244.905917
 30
0.0
 41
239.999999
 42
239.999999
 50
115.214797
210
0.0
220
0.0
230
1.0
  0
INSERT
  8
1
  6
CONTINUOUS
 62
     1
  5
4CB
  2
LDR
 10
324.659
 20
244.905917
 30
0.0
 41
239.999999
 42
239.999999
 50
115.214797
210
0.0
220
0.0
230
1.0
  0
INSERT
  8
1
  6
CONTINUOUS
 62
     1
  5
4CC
  2
LDR
 10
324.659
 20
220.092583
 30
0.0
 41
240.0
 42
240.0
 50
244.835302
210
0.0
220
0.0
230
1.0
  0
LINE
  8
1
  6
CONTINUOUS
 62
     4
  5
4CD
 10
290.286583
 20
239.895167
 30
0.0
 11
290.286583
 21
238.895167
 31
0.0
  0
LINE
  8
1
  6
CONTINUOUS
 62
     4
  5
4CE
 10
291.839417
 20
239.895167
 30
0.0
 11
291.839417
 21
238.895167
 31
0.0
  0
LINE
  8
1
  6
CONTINUOUS
 62
     4
  5
4CF
 10
290.286583
 20
239.895167
 30
0.0
 11
291.063
 21
240.283417
 31
0.0
  0
LINE
  8
1
  6
CONTINUOUS
 62
     4
  5
4D0
 10
291.063
 20
240.283417
 30
0.0
 11
291.839417
 21
239.895167
 31
0.0
  0
LINE
  8
1
  6
CONTINUOUS
 62
     4
  5
4D1
 10
291.839333
 20
238.895083
 30
0.0
 11
291.063
 21
238.506917
 31
0.0
  0
LINE
  8
1
  6
CONTINUOUS
 62
     4
  5
4D2
 10
291.063
 20
238.506917
 30
0.0
 11
290.286583
 21
238.895167
 31
0.0
  0
CIRCLE
  8
1
  6
CONTINUOUS
 62
     4
  5
4D3
 10
291.055667
 20
239.404917
 30
0.0
 40
0.5
210
0.0
220
0.0
230
1.0
  0
LINE
  8
1
  6
CONTINUOUS
 62
     4
  5
4D4
 10
290.687833
 20
240.094417
 30
0.0
 11
290.687833
 21
240.344417
 31
0.0
  0
LINE
  8
1
  6
CONTINUOUS
 62
     4
  5
4D5
 10
291.437833
 20
240.094417
 30
0.0
 11
291.437833
 21
240.344417
 31
0.0
  0
LINE
  8
1
  6
CONTINUOUS
 62
     4
  5
4D6
 10
290.687833
 20
238.695583
 30
0.0
 11
290.687833
 21
238.445583
 31
0.0
  0
LINE
  8
1
  6
CONTINUOUS
 62
     4
  5
4D7
 10
291.437833
 20
238.695583
 30
0.0
 11
291.437833
 21
238.445583
 31
0.0
  0
ARC
  8
1
  6
CONTINUOUS
 62
     4
  5
4D8
 10
291.062833
 20
240.310388
 30
0.0
 40
0.376541
 50
5.185022
 51
174.814978
210
0.0
220
0.0
230
1.0
  0
ARC
  8
1
  6
CONTINUOUS
 62
     4
  5
4D9
 10
291.062833
 20
238.479612
 30
0.0
 40
0.376541
 50
185.185022
 51
354.814978
210
0.0
220
0.0
230
1.0
  0
CIRCLE
  8
1
  6
CONTINUOUS
 62
     4
  5
4DA
 10
291.055667
 20
225.652083
 30
0.0
 40
0.5
210
0.0
220
0.0
230
1.0
  0
LINE
  8
1
  6
CONTINUOUS
 62
     4
  5
4DB
 10
290.286583
 20
225.161833
 30
0.0
 11
290.286583
 21
226.161833
 31
0.0
  0
LINE
  8
1
  6
CONTINUOUS
 62
     4
  5
4DC
 10
291.839417
 20
225.161833
 30
0.0
 11
291.839417
 21
226.161833
 31
0.0
  0
LINE
  8
1
  6
CONTINUOUS
 62
     4
  5
4DD
 10
290.286583
 20
225.161833
 30
0.0
 11
291.063
 21
224.773583
 31
0.0
  0
LINE
  8
1
  6
CONTINUOUS
 62
     4
  5
4DE
 10
291.063
 20
224.773583
 30
0.0
 11
291.839417
 21
225.161833
 31
0.0
  0
LINE
  8
1
  6
CONTINUOUS
 62
     4
  5
4DF
 10
291.839333
 20
226.161917
 30
0.0
 11
291.063
 21
226.550083
 31
0.0
  0
LINE
  8
1
  6
CONTINUOUS
 62
     4
  5
4E0
 10
291.063
 20
226.550083
 30
0.0
 11
290.286583
 21
226.161833
 31
0.0
  0
LINE
  8
1
  6
CONTINUOUS
 62
     4
  5
4E1
 10
290.687833
 20
224.962583
 30
0.0
 11
290.687833
 21
224.712583
 31
0.0
  0
LINE
  8
1
  6
CONTINUOUS
 62
     4
  5
4E2
 10
291.437833
 20
224.962583
 30
0.0
 11
291.437833
 21
224.712583
 31
0.0
  0
LINE
  8
1
  6
CONTINUOUS
 62
     4
  5
4E3
 10
290.687833
 20
226.361417
 30
0.0
 11
290.687833
 21
226.611417
 31
0.0
  0
LINE
  8
1
  6
CONTINUOUS
 62
     4
  5
4E4
 10
291.437833
 20
226.361417
 30
0.0
 11
291.437833
 21
226.611417
 31
0.0
  0
ARC
  8
1
  6
CONTINUOUS
 62
     4
  5
4E5
 10
291.062833
 20
224.746612
 30
0.0
 40
0.376541
 50
185.185022
 51
354.814978
210
0.0
220
0.0
230
1.0
  0
ARC
  8
1
  6
CONTINUOUS
 62
     4
  5
4E6
 10
291.062833
 20
226.577388
 30
0.0
 40
0.376541
 50
5.185022
 51
174.814978
210
0.0
220
0.0
230
1.0
  0
LINE
  8
1
  6
CONTINUOUS
 62
     7
  5
4E7
 10
282.598417
 20
274.975333
 30
0.0
 11
286.270333
 21
293.212
 31
0.0
  0
LINE
  8
1
  6
CONTINUOUS
 62
     7
  5
4E8
 10
286.270333
 20
293.212
 30
0.0
 11
290.071083
 21
293.212
 31
0.0
  0
INSERT
  8
1
  6
CONTINUOUS
 62
     1
  5
4E9
  2
LDR
 10
282.598417
 20
274.975333
 30
0.0
 41
240.0
 42
240.0
 50
258.615821
210
0.0
220
0.0
230
1.0
  0
LINE
  8
1
  6
CONTINUOUS
 62
     7
  5
4EA
 10
290.971583
 20
240.795083
 30
0.0
 11
300.1005
 21
268.497083
 31
0.0
  0
LINE
  8
1
  6
CONTINUOUS
 62
     7
  5
4EB
 10
300.1005
 20
268.497083
 30
0.0
 11
302.91875
 21
268.497083
 31
0.0
  0
LINE
  8
1
  6
CONTINUOUS
 62
     7
  5
4EC
 10
291.706833
 20
239.8145
 30
0.0
 11
301.448333
 21
259.916833
 31
0.0
  0
LINE
  8
1
  6
CONTINUOUS
 62
     7
  5
4ED
 10
291.502917
 20
226.33625
 30
0.0
 11
301.448333
 21
259.916833
 31
0.0
  0
LINE
  8
1
  6
CONTINUOUS
 62
     7
  5
4EE
 10
301.448333
 20
259.916833
 30
0.0
 11
304.406667
 21
259.942417
 31
0.0
  0
INSERT
  8
1
  6
CONTINUOUS
 62
     1
  5
4EF
  2
LDR
 10
290.971583
 20
240.795083
 30
0.0
 41
240.000002
 42
240.000002
 50
251.760882
210
0.0
220
0.0
230
1.0
  0
INSERT
  8
1
  6
CONTINUOUS
 62
     1
  5
4F0
  2
LDR
 10
290.971583
 20
240.795083
 30
0.0
 41
240.000002
 42
240.000002
 50
251.760882
210
0.0
220
0.0
230
1.0
  0
INSERT
  8
1
  6
CONTINUOUS
 62
     1
  5
4F1
  2
LDR
 10
291.706833
 20
239.8145
 30
0.0
 41
240.000002
 42
240.000002
 50
244.145381
210
0.0
220
0.0
230
1.0
  0
INSERT
  8
1
  6
CONTINUOUS
 62
     1
  5
4F2
  2
LDR
 10
291.706833
 20
239.8145
 30
0.0
 41
240.000002
 42
240.000002
 50
244.145381
210
0.0
220
0.0
230
1.0
  0
INSERT
  8
1
  6
CONTINUOUS
 62
     1
  5
4F3
  2
LDR
 10
291.502917
 20
226.33625
 30
0.0
 41
240.0
 42
240.0
 50
253.502518
210
0.0
220
0.0
230
1.0
  0
LINE
  8
1
  6
CONTINUOUS
 62
     7
  5
4F4
 10
304.1225
 20
215.987167
 30
0.0
 11
301.848667
 21
211.324417
 31
0.0
  0
LINE
  8
1
  6
CONTINUOUS
 62
     7
  5
4F5
 10
301.848667
 20
211.324417
 30
0.0
 11
305.373083
 21
211.324417
 31
0.0
  0
INSERT
  8
1
  6
CONTINUOUS
 62
     1
  5
4F6
  2
LDR
 10
304.1225
 20
215.987167
 30
0.0
 41
240.000001
 42
240.000001
 50
64.003393
210
0.0
220
0.0
230
1.0
  0
LINE
  8
1
  6
CONTINUOUS
 62
     7
  5
4F7
 10
297.869583
 20
202.908667
 30
0.0
 11
306.282583
 21
194.720333
 31
0.0
  0
LINE
  8
1
  6
CONTINUOUS
 62
     7
  5
4F8
 10
306.282583
 20
194.720333
 30
0.0
 11
309.689583
 21
194.720333
 31
0.0
  0
INSERT
  8
1
  6
CONTINUOUS
 62
     1
  5
4F9
  2
LDR
 10
297.869583
 20
202.908667
 30
0.0
 41
240.000001
 42
240.000001
 50
135.775339
210
0.0
220
0.0
230
1.0
  0
LINE
  8
1
  6
CONTINUOUS
 62
     7
  5
4FA
 10
284.732167
 20
170.43075
 30
0.0
 11
288.273417
 21
170.43075
 31
0.0
  0
LINE
  8
1
  6
CONTINUOUS
 62
     7
  5
4FB
 10
287.877167
 20
181.013333
 30
0.0
 11
287.877167
 21
178.013333
 31
0.0
  0
LINE
  8
1
  6
CONTINUOUS
 62
     7
  5
4FC
 10
297.877167
 20
182.513333
 30
0.0
 11
297.877167
 21
178.013333
 31
0.0
  0
LINE
  8
1
  6
CONTINUOUS
 62
     7
  5
4FD
 10
284.17
 20
179.013333
 30
0.0
 11
287.877167
 21
179.013333
 31
0.0
  0
LINE
  8
1
  6
CONTINUOUS
 62
     7
  5
4FE
 10
297.877167
 20
179.013333
 30
0.0
 11
301.539083
 21
179.013333
 31
0.0
  0
INSERT
  8
1
  6
CONTINUOUS
 62
     1
  5
4FF
  2
LDR
 10
287.877167
 20
179.013333
 30
0.0
 41
240.0
 42
240.0
210
0.0
220
0.0
230
1.0
  0
INSERT
  8
1
  6
CONTINUOUS
 62
     1
  5
500
  2
LDR
 10
297.877167
 20
179.013333
 30
0.0
 41
240.0
 42
240.0
 50
180.0
210
0.0
220
0.0
230
1.0
  0
LINE
  8
1
  6
CONTINUOUS
 62
     7
  5
501
 10
284.732167
 20
170.43075
 30
0.0
 11
281.528167
 21
190.47975
 31
0.0
  0
INSERT
  8
1
  6
CONTINUOUS
 62
     1
  5
502
  2
LDR
 10
281.528167
 20
190.47975
 30
0.0
 41
240.0
 42
240.0
 50
99.079577
210
0.0
220
0.0
230
1.0
  0
LINE
  8
1
  6
CONTINUOUS
 62
     7
  5
503
 10
281.877167
 20
239.43025
 30
0.0
 11
274.873833
 21
239.43025
 31
0.0
  0
LINE
  8
1
  6
CONTINUOUS
 62
     7
  5
504
 10
290.123833
 20
239.43025
 30
0.0
 11
284.877167
 21
239.43025
 31
0.0
  0
LINE
  8
1
  6
CONTINUOUS
 62
     7
  5
505
 10
283.877167
 20
239.43025
 30
0.0
 11
282.877167
 21
239.43025
 31
0.0
  0
LINE
  8
1
  6
CONTINUOUS
 62
     7
  5
506
 10
281.877167
 20
225.722
 30
0.0
 11
274.903
 21
225.722
 31
0.0
  0
LINE
  8
1
  6
CONTINUOUS
 62
     7
  5
507
 10
290.153
 20
225.722
 30
0.0
 11
284.877167
 21
225.722
 31
0.0
  0
LINE
  8
1
  6
CONTINUOUS
 62
     7
  5
508
 10
283.877167
 20
225.722
 30
0.0
 11
282.877167
 21
225.722
 31
0.0
  0
LINE
  8
1
  6
CONTINUOUS
 62
     7
  5
509
 10
275.873833
 20
239.43025
 30
0.0
 11
275.903
 21
225.722
 31
0.0
  0
INSERT
  8
1
  6
CONTINUOUS
 62
     1
  5
50A
  2
LDR
 10
275.873833
 20
239.43025
 30
0.0
 41
239.999998
 42
239.999998
 50
90.121907
210
0.0
220
0.0
230
1.0
  0
INSERT
  8
1
  6
CONTINUOUS
 62
     1
  5
50B
  2
LDR
 10
275.903
 20
225.722
 30
0.0
 41
239.999998
 42
239.999998
 50
270.121907
210
0.0
220
0.0
230
1.0
  0
TEXT
  8
1
  6
CONTINUOUS
 62
     7
  5
50C
 10
291.095833
 20
292.255
 30
0.0
 40
2.5
  1
2" x 2 1/4 " x 1/8 " "Z" BAR
  7
MONOTXT
210
0.0
220
0.0
230
1.0
  0
TEXT
  8
1
  6
CONTINUOUS
 62
     7
  5
50D
 10
304.36325
 20
268.79975
 30
0.0
 40
2.5
  1
 11/16 " x 2" SLOTTED HOLES IN
  7
MONOTXT
 11
304.36325
 21
271.29975
 31
0.0
210
0.0
220
0.0
230
1.0
 73
     3
  0
TEXT
  8
1
  6
CONTINUOUS
 62
     7
  5
50E
 10
304.36325
 20
264.29975
 30
0.0
 40
2.5
  1
MOUNTING ANGLE
  7
MONOTXT
 11
304.36325
 21
266.79975
 31
0.0
210
0.0
220
0.0
230
1.0
 73
     3
  0
TEXT
  8
1
  6
CONTINUOUS
 62
     7
  5
50F
 10
305.294333
 20
258.959417
 30
0.0
 40
2.5
  1
2 HEX. HD. BOLTS, NUTS & LOCKWASHERS
  7
MONOTXT
210
0.0
220
0.0
230
1.0
  0
TEXT
  8
1
  6
CONTINUOUS
 62
     7
  5
510
 10
334.389333
 20
231.48475
 30
0.0
 40
2.5
  1
 5/8 " BOLT
  7
MONOTXT
210
0.0
220
0.0
230
1.0
  0
TEXT
  8
1
  6
CONTINUOUS
 62
     7
  5
511
 10
306.690833
 20
209.659333
 30
0.0
 40
2.5
  1
 3/16 " x 3" WIDE CLAMP HI-STRENGTH
  7
MONOTXT
 11
306.690833
 21
212.159333
 31
0.0
210
0.0
220
0.0
230
1.0
 73
     3
  0
TEXT
  8
1
  6
CONTINUOUS
 62
     7
  5
512
 10
306.690833
 20
205.159333
 30
0.0
 40
2.5
  1
LOW ALLOY
  7
MONOTXT
 11
306.690833
 21
207.659333
 31
0.0
210
0.0
220
0.0
230
1.0
 73
     3
  0
TEXT
  8
1
  6
CONTINUOUS
 62
     7
  5
513
 10
311.113333
 20
193.8265
 30
0.0
 40
2.5
  1
3 1/2 " x 2 1/2 " x 5/16 " SIGN MOUNTING
  7
MONOTXT
 11
311.113333
 21
196.3265
 31
0.0
210
0.0
220
0.0
230
1.0
 73
     3
  0
TEXT
  8
1
  6
CONTINUOUS
 62
     7
  5
514
 10
311.113333
 20
189.3265
 30
0.0
 40
2.5
  1
ANGLES
  7
MONOTXT
 11
311.113333
 21
191.8265
 31
0.0
210
0.0
220
0.0
230
1.0
 73
     3
  0
TEXT
  8
1
  6
CONTINUOUS
 62
     7
  5
515
 10
289.001083
 20
177.46675
 30
0.0
 40
2.5
  1
3 1/2 "
  7
MONOTXT
210
0.0
220
0.0
230
1.0
  0
TEXT
  8
1
  6
CONTINUOUS
 62
     7
  5
516
 10
289.233833
 20
169.783167
 30
0.0
 40
2.5
  1
2" x 2 1/4 " x 1/8 " "Z" BAR
  7
MONOTXT
210
0.0
220
0.0
230
1.0
  0
TEXT
  8
1
  6
CONTINUOUS
 62
     7
  5
517
 10
273.638917
 20
229.156417
 30
0.0
 40
2.5
  1
5 1/2 "
 50
90.0
  7
MONOTXT
210
0.0
220
0.0
230
1.0
  0
LINE
  8
1
  6
CONTINUOUS
 62
     4
  5
518
 10
395.74225
 20
227.513333
 30
0.0
 11
465.74225
 21
157.513333
 31
0.0
  0
LINE
  8
1
  6
CONTINUOUS
 62
     4
  5
519
 10
465.74225
 20
157.513333
 30
0.0
 11
535.74225
 21
227.513333
 31
0.0
  0
LINE
  8
1
  6
CONTINUOUS
 62
     4
  5
51A
 10
462.99225
 20
185.513333
 30
0.0
 11
468.49225
 21
185.513333
 31
0.0
  0
LINE
  8
1
  6
CONTINUOUS
 62
     4
  5
51B
 10
462.99225
 20
181.013333
 30
0.0
 11
468.49225
 21
181.013333
 31
0.0
  0
LINE
  8
1
  6
CONTINUOUS
 62
     4
  5
51C
 10
462.99225
 20
185.513333
 30
0.0
 11
462.99225
 21
181.013333
 31
0.0
  0
LINE
  8
1
  6
CONTINUOUS
 62
     4
  5
51D
 10
468.49225
 20
181.013333
 30
0.0
 11
468.49225
 21
185.513333
 31
0.0
  0
LINE
  8
1
  6
CONTINUOUS
 62
     4
  5
51E
 10
462.74225
 20
302.013333
 30
0.0
 11
468.74225
 21
302.013333
 31
0.0
  0
LINE
  8
1
  6
CONTINUOUS
 62
     4
  5
51F
 10
462.74225
 20
302.013333
 30
0.0
 11
462.74225
 21
302.763333
 31
0.0
  0
LINE
  8
1
  6
CONTINUOUS
 62
     4
  5
520
 10
468.74225
 20
302.013333
 30
0.0
 11
468.74225
 21
302.763333
 31
0.0
  0
LINE
  8
1
  6
CONTINUOUS
 62
     4
  5
521
 10
464.74225
 20
302.013333
 30
0.0
 11
464.74225
 21
302.763333
 31
0.0
  0
LINE
  8
1
  6
CONTINUOUS
 62
     4
  5
522
 10
466.74225
 20
302.013333
 30
0.0
 11
466.74225
 21
302.763333
 31
0.0
  0
LINE
  8
1
  6
CONTINUOUS
 62
     4
  5
523
 10
464.74225
 20
302.013333
 30
0.0
 11
464.74225
 21
302.763333
 31
0.0
  0
LINE
  8
1
  6
CONTINUOUS
 62
     4
  5
524
 10
457.24225
 20
302.763333
 30
0.0
 11
474.24225
 21
302.763333
 31
0.0
  0
LINE
  8
1
  6
CONTINUOUS
 62
     4
  5
525
 10
457.24225
 20
319.763333
 30
0.0
 11
474.24225
 21
319.763333
 31
0.0
  0
LINE
  8
1
  6
CONTINUOUS
 62
     4
  5
526
 10
457.24225
 20
319.763333
 30
0.0
 11
457.24225
 21
302.763333
 31
0.0
  0
LINE
  8
1
  6
CONTINUOUS
 62
     4
  5
527
 10
474.24225
 20
302.763333
 30
0.0
 11
474.24225
 21
319.763333
 31
0.0
  0
LINE
  8
1
  6
CONTINUOUS
 62
     4
  5
528
 10
463.99225
 20
320.763333
 30
0.0
 11
467.49225
 21
320.763333
 31
0.0
  0
LINE
  8
1
  6
CONTINUOUS
 62
     4
  5
529
 10
463.99225
 20
320.763333
 30
0.0
 11
463.24225
 21
319.763333
 31
0.0
  0
LINE
  8
1
  6
CONTINUOUS
 62
     4
  5
52A
 10
467.49225
 20
320.763333
 30
0.0
 11
468.24225
 21
319.763333
 31
0.0
  0
CIRCLE
  8
1
  6
HIDDEN
 62
     4
  5
52B
 10
465.749167
 20
311.258583
 30
0.0
 40
5.75
210
0.0
220
0.0
230
1.0
  0
ARC
  8
1
  6
HIDDEN
 62
     4
  5
52C
 10
465.749167
 20
311.258583
 30
0.0
 40
6.75
 50
311.731594
 51
228.110869
210
0.0
220
0.0
230
1.0
  0
LINE
  8
1
  6
CONTINUOUS
 62
     4
  5
52D
 10
463.74225
 20
301.013333
 30
0.0
 11
467.74225
 21
301.013333
 31
0.0
  0
LINE
  8
1
  6
CONTINUOUS
 62
     4
  5
52E
 10
464.74225
 20
301.513333
 30
0.0
 11
466.74225
 21
301.513333
 31
0.0
  0
LINE
  8
1
  6
HIDDEN
 62
     4
  5
52F
 10
465.74225
 20
297.513333
 30
0.0
 11
463.74225
 21
295.513333
 31
0.0
  0
LINE
  8
1
  6
CONTINUOUS
 62
     4
  5
530
 10
463.74225
 20
295.513333
 30
0.0
 11
395.74225
 21
227.513333
 31
0.0
  0
LINE
  8
1
  6
CONTINUOUS
 62
     4
  5
531
 10
535.74225
 20
227.513333
 30
0.0
 11
467.74225
 21
295.513417
 31
0.0
  0
LINE
  8
1
  6
HIDDEN
 62
     4
  5
532
 10
467.74225
 20
295.513333
 30
0.0
 11
465.74225
 21
297.513333
 31
0.0
  0
LINE
  8
1
  6
CONTINUOUS
 62
     4
  5
533
 10
462.74225
 20
211.513333
 30
0.0
 11
468.74225
 21
211.513333
 31
0.0
  0
LINE
  8
1
  6
CONTINUOUS
 62
     4
  5
534
 10
462.74225
 20
223.013333
 30
0.0
 11
468.74225
 21
223.013333
 31
0.0
  0
LINE
  8
1
  6
CONTINUOUS
 62
     4
  5
535
 10
468.74225
 20
223.013333
 30
0.0
 11
468.74225
 21
211.513333
 31
0.0
  0
LINE
  8
1
  6
CONTINUOUS
 62
     4
  5
536
 10
463.74225
 20
302.013333
 30
0.0
 11
463.74225
 21
223.013333
 31
0.0
  0
LINE
  8
1
  6
CONTINUOUS
 62
     4
  5
537
 10
467.74225
 20
302.013333
 30
0.0
 11
467.74225
 21
223.013333
 31
0.0
  0
LINE
  8
1
  6
CONTINUOUS
 62
     4
  5
538
 10
460.24225
 20
220.013333
 30
0.0
 11
460.24225
 21
214.513333
 31
0.0
  0
ARC
  8
1
  6
CONTINUOUS
 62
     4
  5
539
 10
459.089679
 20
223.515476
 30
0.0
 40
3.686926
 50
288.216611
 51
352.172244
210
0.0
220
0.0
230
1.0
  0
ARC
  8
1
  6
CONTINUOUS
 62
     4
  5
53A
 10
461.623764
 20
216.174359
 30
0.0
 40
4.079989
 50
63.946292
 51
109.792047
210
0.0
220
0.0
230
1.0
  0
ARC
  8
1
  6
CONTINUOUS
 62
     4
  5
53B
 10
466.270652
 20
222.103876
 30
0.0
 40
3.643725
 50
165.546428
 51
218.416744
210
0.0
220
0.0
230
1.0
  0
ARC
  8
1
  6
CONTINUOUS
 62
     4
  5
53C
 10
466.270652
 20
212.42279
 30
0.0
 40
3.643725
 50
141.583256
 51
194.453572
210
0.0
220
0.0
230
1.0
  0
ARC
  8
1
  6
CONTINUOUS
 62
     4
  5
53D
 10
459.089679
 20
211.011191
 30
0.0
 40
3.686926
 50
7.827756
 51
71.783389
210
0.0
220
0.0
230
1.0
  0
ARC
  8
1
  6
CONTINUOUS
 62
     4
  5
53E
 10
461.623764
 20
218.352308
 30
0.0
 40
4.079989
 50
250.207953
 51
296.053708
210
0.0
220
0.0
230
1.0
  0
LINE
  8
1
  6
CONTINUOUS
 62
     4
  5
53F
 10
460.24225
 20
219.513333
 30
0.0
 11
457.24225
 21
219.513333
 31
0.0
  0
LINE
  8
1
  6
CONTINUOUS
 62
     4
  5
540
 10
460.24225
 20
215.013333
 30
0.0
 11
457.24225
 21
215.013333
 31
0.0
  0
ARC
  8
1
  6
CONTINUOUS
 62
     4
  5
541
 10
457.815116
 20
218.388333
 30
0.0
 40
1.262458
 50
116.985842
 51
243.014161
210
0.0
220
0.0
230
1.0
  0
ARC
  8
1
  6
CONTINUOUS
 62
     4
  5
542
 10
457.815116
 20
216.138333
 30
0.0
 40
1.262458
 50
116.985842
 51
243.014161
210
0.0
220
0.0
230
1.0
  0
ARC
  8
1
  6
CONTINUOUS
 62
     4
  5
543
 10
456.669384
 20
218.388333
 30
0.0
 40
1.262458
 50
296.985839
 51
63.014158
210
0.0
220
0.0
230
1.0
  0
LINE
  8
1
  6
CONTINUOUS
 62
     4
  5
544
 10
432.74225
 20
200.513333
 30
0.0
 11
432.74225
 21
195.513333
 31
0.0
  0
LINE
  8
1
  6
CONTINUOUS
 62
     4
  5
545
 10
498.74225
 20
200.513333
 30
0.0
 11
498.74225
 21
195.513333
 31
0.0
  0
LINE
  8
1
  6
CONTINUOUS
 62
     4
  5
546
 10
437.74225
 20
200.513333
 30
0.0
 11
436.74225
 21
199.513333
 31
0.0
  0
LINE
  8
1
  6
CONTINUOUS
 62
     4
  5
547
 10
436.74225
 20
199.513333
 30
0.0
 11
437.74225
 21
198.513333
 31
0.0
  0
LINE
  8
1
  6
CONTINUOUS
 62
     4
  5
548
 10
437.74225
 20
198.513333
 30
0.0
 11
438.74225
 21
199.513333
 31
0.0
  0
LINE
  8
1
  6
CONTINUOUS
 62
     4
  5
549
 10
438.74225
 20
199.513333
 30
0.0
 11
437.74225
 21
200.513333
 31
0.0
  0
CIRCLE
  8
1
  6
CONTINUOUS
 62
     4
  5
54A
 10
437.731333
 20
199.514667
 30
0.0
 40
0.5
210
0.0
220
0.0
230
1.0
  0
LINE
  8
1
  6
CONTINUOUS
 62
     4
  5
54B
 10
466.74225
 20
199.513333
 30
0.0
 11
465.74225
 21
200.513333
 31
0.0
  0
LINE
  8
1
  6
CONTINUOUS
 62
     4
  5
54C
 10
465.74225
 20
200.513333
 30
0.0
 11
464.74225
 21
199.513333
 31
0.0
  0
LINE
  8
1
  6
CONTINUOUS
 62
     4
  5
54D
 10
464.74225
 20
199.513333
 30
0.0
 11
465.74225
 21
198.513333
 31
0.0
  0
LINE
  8
1
  6
CONTINUOUS
 62
     4
  5
54E
 10
465.74225
 20
198.513333
 30
0.0
 11
466.74225
 21
199.513333
 31
0.0
  0
CIRCLE
  8
1
  6
CONTINUOUS
 62
     4
  5
54F
 10
465.731333
 20
199.514667
 30
0.0
 40
0.5
210
0.0
220
0.0
230
1.0
  0
LINE
  8
1
  6
HIDDEN
 62
     4
  5
550
 10
463.74225
 20
200.513333
 30
0.0
 11
467.74225
 21
200.513333
 31
0.0
  0
LINE
  8
1
  6
HIDDEN
 62
     4
  5
551
 10
463.74225
 20
198.513333
 30
0.0
 11
467.74225
 21
198.513333
 31
0.0
  0
LINE
  8
1
  6
HIDDEN
 62
     4
  5
552
 10
463.74225
 20
197.513333
 30
0.0
 11
467.74225
 21
197.513333
 31
0.0
  0
LINE
  8
1
  6
HIDDEN
 62
     4
  5
553
 10
463.74225
 20
195.513333
 30
0.0
 11
467.74225
 21
195.513333
 31
0.0
  0
CIRCLE
  8
1
  6
CONTINUOUS
 62
     4
  5
554
 10
493.731333
 20
199.514667
 30
0.0
 40
0.5
210
0.0
220
0.0
230
1.0
  0
LINE
  8
1
  6
CONTINUOUS
 62
     4
  5
555
 10
494.74225
 20
199.513333
 30
0.0
 11
493.74225
 21
200.513333
 31
0.0
  0
LINE
  8
1
  6
CONTINUOUS
 62
     4
  5
556
 10
493.74225
 20
200.513333
 30
0.0
 11
492.74225
 21
199.513333
 31
0.0
  0
LINE
  8
1
  6
CONTINUOUS
 62
     4
  5
557
 10
492.74225
 20
199.513333
 30
0.0
 11
493.74225
 21
198.513333
 31
0.0
  0
LINE
  8
1
  6
CONTINUOUS
 62
     4
  5
558
 10
493.74225
 20
198.513333
 30
0.0
 11
494.74225
 21
199.513333
 31
0.0
  0
LINE
  8
1
  6
CONTINUOUS
 62
     4
  5
559
 10
467.74225
 20
197.013333
 30
0.0
 11
463.74225
 21
197.013333
 31
0.0
  0
LINE
  8
1
  6
CONTINUOUS
 62
     4
  5
55A
 10
467.74225
 20
196.013333
 30
0.0
 11
463.74225
 21
196.013333
 31
0.0
  0
LINE
  8
1
  6
CONTINUOUS
 62
     4
  5
55B
 10
463.74225
 20
211.513333
 30
0.0
 11
463.74225
 21
197.013333
 31
0.0
  0
LINE
  8
1
  6
CONTINUOUS
 62
     4
  5
55C
 10
463.74225
 20
196.013333
 30
0.0
 11
463.74225
 21
185.513333
 31
0.0
  0
LINE
  8
1
  6
CONTINUOUS
 62
     4
  5
55D
 10
467.74225
 20
211.513333
 30
0.0
 11
467.74225
 21
197.013333
 31
0.0
  0
LINE
  8
1
  6
CONTINUOUS
 62
     4
  5
55E
 10
467.74225
 20
196.013333
 30
0.0
 11
467.74225
 21
185.513333
 31
0.0
  0
ARC
  8
1
  6
CONTINUOUS
 62
     4
  5
55F
 10
463.74225
 20
196.513333
 30
0.0
 40
0.5
 50
90.0
 51
270.0
210
0.0
220
0.0
230
1.0
  0
ARC
  8
1
  6
CONTINUOUS
 62
     4
  5
560
 10
467.74225
 20
196.513333
 30
0.0
 40
0.5
 50
270.0
 51
90.0
210
0.0
220
0.0
230
1.0
  0
LINE
  8
1
  6
CONTINUOUS
 62
     4
  5
561
 10
432.74225
 20
254.535333
 30
0.0
 11
432.74225
 21
259.535333
 31
0.0
  0
LINE
  8
1
  6
CONTINUOUS
 62
     4
  5
562
 10
498.74225
 20
254.535333
 30
0.0
 11
498.74225
 21
259.535333
 31
0.0
  0
LINE
  8
1
  6
CONTINUOUS
 62
     4
  5
563
 10
437.74225
 20
254.535333
 30
0.0
 11
436.74225
 21
255.535333
 31
0.0
  0
LINE
  8
1
  6
CONTINUOUS
 62
     4
  5
564
 10
436.74225
 20
255.535333
 30
0.0
 11
437.74225
 21
256.535333
 31
0.0
  0
LINE
  8
1
  6
CONTINUOUS
 62
     4
  5
565
 10
437.74225
 20
256.535333
 30
0.0
 11
438.74225
 21
255.535333
 31
0.0
  0
LINE
  8
1
  6
CONTINUOUS
 62
     4
  5
566
 10
438.74225
 20
255.535333
 30
0.0
 11
437.74225
 21
254.535333
 31
0.0
  0
CIRCLE
  8
1
  6
CONTINUOUS
 62
     4
  5
567
 10
437.731333
 20
255.534
 30
0.0
 40
0.5
210
0.0
220
0.0
230
1.0
  0
LINE
  8
1
  6
CONTINUOUS
 62
     4
  5
568
 10
466.74225
 20
255.535333
 30
0.0
 11
465.74225
 21
254.535333
 31
0.0
  0
LINE
  8
1
  6
CONTINUOUS
 62
     4
  5
569
 10
465.74225
 20
254.535333
 30
0.0
 11
464.74225
 21
255.535333
 31
0.0
  0
LINE
  8
1
  6
CONTINUOUS
 62
     4
  5
56A
 10
464.74225
 20
255.535333
 30
0.0
 11
465.74225
 21
256.535333
 31
0.0
  0
LINE
  8
1
  6
CONTINUOUS
 62
     4
  5
56B
 10
465.74225
 20
256.535333
 30
0.0
 11
466.74225
 21
255.535333
 31
0.0
  0
CIRCLE
  8
1
  6
CONTINUOUS
 62
     4
  5
56C
 10
465.731333
 20
255.534
 30
0.0
 40
0.5
210
0.0
220
0.0
230
1.0
  0
LINE
  8
1
  6
HIDDEN
 62
     4
  5
56D
 10
463.74225
 20
254.535333
 30
0.0
 11
467.74225
 21
254.535333
 31
0.0
  0
LINE
  8
1
  6
HIDDEN
 62
     4
  5
56E
 10
463.74225
 20
256.535333
 30
0.0
 11
467.74225
 21
256.535333
 31
0.0
  0
LINE
  8
1
  6
HIDDEN
 62
     4
  5
56F
 10
463.74225
 20
257.535333
 30
0.0
 11
467.74225
 21
257.535333
 31
0.0
  0
LINE
  8
1
  6
HIDDEN
 62
     4
  5
570
 10
463.74225
 20
259.535333
 30
0.0
 11
467.74225
 21
259.535333
 31
0.0
  0
CIRCLE
  8
1
  6
CONTINUOUS
 62
     4
  5
571
 10
493.731333
 20
255.534
 30
0.0
 40
0.5
210
0.0
220
0.0
230
1.0
  0
LINE
  8
1
  6
CONTINUOUS
 62
     4
  5
572
 10
494.74225
 20
255.535333
 30
0.0
 11
493.74225
 21
254.535333
 31
0.0
  0
LINE
  8
1
  6
CONTINUOUS
 62
     4
  5
573
 10
493.74225
 20
254.535333
 30
0.0
 11
492.74225
 21
255.535333
 31
0.0
  0
LINE
  8
1
  6
CONTINUOUS
 62
     4
  5
574
 10
492.74225
 20
255.535333
 30
0.0
 11
493.74225
 21
256.535333
 31
0.0
  0
LINE
  8
1
  6
CONTINUOUS
 62
     4
  5
575
 10
493.74225
 20
256.535333
 30
0.0
 11
494.74225
 21
255.535333
 31
0.0
  0
LINE
  8
1
  6
CONTINUOUS
 62
     4
  5
576
 10
467.74225
 20
258.035333
 30
0.0
 11
463.74225
 21
258.035333
 31
0.0
  0
LINE
  8
1
  6
CONTINUOUS
 62
     4
  5
577
 10
467.74225
 20
259.035333
 30
0.0
 11
463.74225
 21
259.035333
 31
0.0
  0
ARC
  8
1
  6
CONTINUOUS
 62
     4
  5
578
 10
463.74225
 20
258.535333
 30
0.0
 40
0.5
 50
90.0
 51
270.0
210
0.0
220
0.0
230
1.0
  0
ARC
  8
1
  6
CONTINUOUS
 62
     4
  5
579
 10
467.74225
 20
258.535333
 30
0.0
 40
0.5
 50
270.0
 51
90.0
210
0.0
220
0.0
230
1.0
  0
LINE
  8
1
  6
CONTINUOUS
 62
     4
  5
57A
 10
447.24225
 20
269.035333
 30
0.0
 11
447.24225
 21
191.513333
 31
0.0
  0
LINE
  8
1
  6
CONTINUOUS
 62
     4
  5
57B
 10
444.74225
 20
269.035333
 30
0.0
 11
447.24225
 21
269.035333
 31
0.0
  0
LINE
  8
1
  6
CONTINUOUS
 62
     4
  5
57C
 10
444.74225
 20
191.513333
 30
0.0
 11
447.24225
 21
191.513333
 31
0.0
  0
LINE
  8
1
  6
CONTINUOUS
 62
     4
  5
57D
 10
463.74225
 20
259.535333
 30
0.0
 11
447.24225
 21
259.535333
 31
0.0
  0
LINE
  8
1
  6
CONTINUOUS
 62
     4
  5
57E
 10
444.74225
 20
259.535333
 30
0.0
 11
432.74225
 21
259.535333
 31
0.0
  0
LINE
  8
1
  6
CONTINUOUS
 62
     4
  5
57F
 10
463.74225
 20
257.535333
 30
0.0
 11
447.24225
 21
257.535333
 31
0.0
  0
LINE
  8
1
  6
CONTINUOUS
 62
     4
  5
580
 10
444.74225
 20
257.535333
 30
0.0
 11
432.74225
 21
257.535333
 31
0.0
  0
LINE
  8
1
  6
CONTINUOUS
 62
     4
  5
581
 10
463.74225
 20
256.535333
 30
0.0
 11
447.24225
 21
256.535333
 31
0.0
  0
LINE
  8
1
  6
CONTINUOUS
 62
     4
  5
582
 10
444.74225
 20
256.535333
 30
0.0
 11
432.74225
 21
256.535333
 31
0.0
  0
LINE
  8
1
  6
CONTINUOUS
 62
     4
  5
583
 10
463.74225
 20
254.535333
 30
0.0
 11
447.24225
 21
254.535333
 31
0.0
  0
LINE
  8
1
  6
CONTINUOUS
 62
     4
  5
584
 10
444.74225
 20
254.535333
 30
0.0
 11
432.74225
 21
254.535333
 31
0.0
  0
LINE
  8
1
  6
HIDDEN
 62
     4
  5
585
 10
444.74225
 20
259.535333
 30
0.0
 11
447.24225
 21
259.535333
 31
0.0
  0
LINE
  8
1
  6
HIDDEN
 62
     4
  5
586
 10
444.74225
 20
257.535333
 30
0.0
 11
447.24225
 21
257.535333
 31
0.0
  0
LINE
  8
1
  6
HIDDEN
 62
     4
  5
587
 10
444.74225
 20
256.535333
 30
0.0
 11
447.24225
 21
256.535333
 31
0.0
  0
LINE
  8
1
  6
HIDDEN
 62
     4
  5
588
 10
444.74225
 20
254.535333
 30
0.0
 11
447.24225
 21
254.535333
 31
0.0
  0
LINE
  8
1
  6
CONTINUOUS
 62
     4
  5
589
 10
463.74225
 20
200.513333
 30
0.0
 11
447.24225
 21
200.513333
 31
0.0
  0
LINE
  8
1
  6
CONTINUOUS
 62
     4
  5
58A
 10
444.74225
 20
200.513333
 30
0.0
 11
432.74225
 21
200.513333
 31
0.0
  0
LINE
  8
1
  6
CONTINUOUS
 62
     4
  5
58B
 10
463.74225
 20
198.513333
 30
0.0
 11
447.24225
 21
198.513333
 31
0.0
  0
LINE
  8
1
  6
CONTINUOUS
 62
     4
  5
58C
 10
444.74225
 20
198.513333
 30
0.0
 11
432.74225
 21
198.513333
 31
0.0
  0
LINE
  8
1
  6
CONTINUOUS
 62
     4
  5
58D
 10
463.74225
 20
197.513333
 30
0.0
 11
447.24225
 21
197.513333
 31
0.0
  0
LINE
  8
1
  6
CONTINUOUS
 62
     4
  5
58E
 10
444.74225
 20
197.513333
 30
0.0
 11
432.74225
 21
197.513333
 31
0.0
  0
LINE
  8
1
  6
CONTINUOUS
 62
     4
  5
58F
 10
463.74225
 20
195.513333
 30
0.0
 11
447.24225
 21
195.513333
 31
0.0
  0
LINE
  8
1
  6
CONTINUOUS
 62
     4
  5
590
 10
444.74225
 20
195.513333
 30
0.0
 11
432.74225
 21
195.513333
 31
0.0
  0
LINE
  8
1
  6
HIDDEN
 62
     4
  5
591
 10
444.74225
 20
200.513333
 30
0.0
 11
447.24225
 21
200.513333
 31
0.0
  0
LINE
  8
1
  6
HIDDEN
 62
     4
  5
592
 10
444.74225
 20
198.513333
 30
0.0
 11
447.24225
 21
198.513333
 31
0.0
  0
LINE
  8
1
  6
HIDDEN
 62
     4
  5
593
 10
444.74225
 20
197.513333
 30
0.0
 11
447.24225
 21
197.513333
 31
0.0
  0
LINE
  8
1
  6
HIDDEN
 62
     4
  5
594
 10
444.74225
 20
195.513333
 30
0.0
 11
447.24225
 21
195.513333
 31
0.0
  0
LINE
  8
1
  6
CONTINUOUS
 62
     4
  5
595
 10
445.36725
 20
258.910333
 30
0.0
 11
445.36725
 21
258.160333
 31
0.0
  0
LINE
  8
1
  6
CONTINUOUS
 62
     4
  5
596
 10
446.61725
 20
258.910333
 30
0.0
 11
446.61725
 21
258.160333
 31
0.0
  0
LINE
  8
1
  6
CONTINUOUS
 62
     4
  5
597
 10
445.36725
 20
258.910333
 30
0.0
 11
445.99225
 21
259.285333
 31
0.0
  0
LINE
  8
1
  6
CONTINUOUS
 62
     4
  5
598
 10
446.61725
 20
258.910333
 30
0.0
 11
445.99225
 21
259.285333
 31
0.0
  0
LINE
  8
1
  6
CONTINUOUS
 62
     4
  5
599
 10
445.36725
 20
258.160333
 30
0.0
 11
445.99225
 21
257.785333
 31
0.0
  0
LINE
  8
1
  6
CONTINUOUS
 62
     4
  5
59A
 10
446.61725
 20
258.160333
 30
0.0
 11
445.99225
 21
257.785333
 31
0.0
  0
LINE
  8
1
  6
CONTINUOUS
 62
     4
  5
59B
 10
445.36725
 20
196.888333
 30
0.0
 11
445.36725
 21
196.138333
 31
0.0
  0
LINE
  8
1
  6
CONTINUOUS
 62
     4
  5
59C
 10
446.61725
 20
196.888333
 30
0.0
 11
446.61725
 21
196.138333
 31
0.0
  0
LINE
  8
1
  6
CONTINUOUS
 62
     4
  5
59D
 10
445.36725
 20
196.888333
 30
0.0
 11
445.99225
 21
197.263333
 31
0.0
  0
LINE
  8
1
  6
CONTINUOUS
 62
     4
  5
59E
 10
446.61725
 20
196.888333
 30
0.0
 11
445.99225
 21
197.263333
 31
0.0
  0
LINE
  8
1
  6
CONTINUOUS
 62
     4
  5
59F
 10
445.36725
 20
196.138333
 30
0.0
 11
445.99225
 21
195.763333
 31
0.0
  0
LINE
  8
1
  6
CONTINUOUS
 62
     4
  5
5A0
 10
446.61725
 20
196.138333
 30
0.0
 11
445.99225
 21
195.763333
 31
0.0
  0
LINE
  8
1
  6
CONTINUOUS
 62
     4
  5
5A1
 10
443.99225
 20
240.263333
 30
0.0
 11
447.24225
 21
240.263333
 31
0.0
  0
LINE
  8
1
  6
CONTINUOUS
 62
     4
  5
5A2
 10
443.99225
 20
222.263333
 30
0.0
 11
447.24225
 21
222.263333
 31
0.0
  0
LINE
  8
1
  6
CONTINUOUS
 62
     4
  5
5A3
 10
443.99225
 20
225.263333
 30
0.0
 11
447.24225
 21
225.263333
 31
0.0
  0
LINE
  8
1
  6
CONTINUOUS
 62
     4
  5
5A4
 10
443.99225
 20
240.263333
 30
0.0
 11
443.99225
 21
222.263333
 31
0.0
  0
LINE
  8
1
  6
CONTINUOUS
 62
     4
  5
5A5
 10
444.74225
 20
269.035333
 30
0.0
 11
444.74225
 21
240.263333
 31
0.0
  0
LINE
  8
1
  6
HIDDEN
 62
     4
  5
5A6
 10
444.74225
 20
240.263333
 30
0.0
 11
444.74225
 21
222.263333
 31
0.0
  0
LINE
  8
1
  6
CONTINUOUS
 62
     4
  5
5A7
 10
444.74225
 20
222.263333
 30
0.0
 11
444.74225
 21
191.513333
 31
0.0
  0
LINE
  8
1
  6
DASHED
 62
     4
  5
5A8
 10
394.49225
 20
236.763333
 30
0.0
 11
443.99225
 21
236.763333
 31
0.0
  0
LINE
  8
1
  6
DASHED
 62
     4
  5
5A9
 10
394.49225
 20
225.763333
 30
0.0
 11
443.99225
 21
225.763333
 31
0.0
  0
LINE
  8
1
  6
CONTINUOUS
 62
     4
  5
5AA
 10
446.892
 20
239.295083
 30
0.0
 11
446.892
 21
238.215083
 31
0.0
  0
LINE
  8
1
  6
CONTINUOUS
 62
     4
  5
5AB
 10
445.092
 20
239.295083
 30
0.0
 11
445.092
 21
238.215083
 31
0.0
  0
LINE
  8
1
  6
CONTINUOUS
 62
     4
  5
5AC
 10
445.092
 20
239.295083
 30
0.0
 11
445.992
 21
239.835083
 31
0.0
  0
LINE
  8
1
  6
CONTINUOUS
 62
     4
  5
5AD
 10
446.892
 20
239.295083
 30
0.0
 11
445.992
 21
239.835083
 31
0.0
  0
LINE
  8
1
  6
CONTINUOUS
 62
     4
  5
5AE
 10
445.092
 20
238.215083
 30
0.0
 11
445.992
 21
237.675083
 31
0.0
  0
LINE
  8
1
  6
CONTINUOUS
 62
     4
  5
5AF
 10
446.892
 20
238.215083
 30
0.0
 11
445.992
 21
237.675083
 31
0.0
  0
LINE
  8
1
  6
CONTINUOUS
 62
     4
  5
5B0
 10
443.99225
 20
237.263333
 30
0.0
 11
444.74225
 21
237.263333
 31
0.0
  0
LINE
  8
1
  6
CONTINUOUS
 62
     4
  5
5B1
 10
444.74225
 20
237.263333
 30
0.0
 11
447.24225
 21
237.263333
 31
0.0
  0
LINE
  8
1
  6
CONTINUOUS
 62
     4
  5
5B2
 10
446.892
 20
223.24675
 30
0.0
 11
445.992
 21
222.70675
 31
0.0
  0
LINE
  8
1
  6
CONTINUOUS
 62
     4
  5
5B3
 10
446.892
 20
223.24675
 30
0.0
 11
446.892
 21
224.32675
 31
0.0
  0
LINE
  8
1
  6
CONTINUOUS
 62
     4
  5
5B4
 10
445.092
 20
223.24675
 30
0.0
 11
445.092
 21
224.32675
 31
0.0
  0
LINE
  8
1
  6
CONTINUOUS
 62
     4
  5
5B5
 10
445.092
 20
223.24675
 30
0.0
 11
445.992
 21
222.70675
 31
0.0
  0
LINE
  8
1
  6
CONTINUOUS
 62
     4
  5
5B6
 10
445.092
 20
224.32675
 30
0.0
 11
445.992
 21
224.86675
 31
0.0
  0
LINE
  8
1
  6
CONTINUOUS
 62
     4
  5
5B7
 10
446.892
 20
224.32675
 30
0.0
 11
445.992
 21
224.86675
 31
0.0
  0
CIRCLE
  8
1
  6
CONTINUOUS
 62
     4
  5
5B8
 10
446.009833
 20
238.763833
 30
0.0
 40
0.5
210
0.0
220
0.0
230
1.0
  0
CIRCLE
  8
1
  6
CONTINUOUS
 62
     4
  5
5B9
 10
445.981833
 20
223.788083
 30
0.0
 40
0.5
210
0.0
220
0.0
230
1.0
  0
LINE
  8
1
  6
CONTINUOUS
 62
     4
  5
5BA
 10
483.960417
 20
269.035333
 30
0.0
 11
483.960417
 21
191.513333
 31
0.0
  0
LINE
  8
1
  6
CONTINUOUS
 62
     4
  5
5BB
 10
486.460417
 20
269.035333
 30
0.0
 11
483.960417
 21
269.035333
 31
0.0
  0
LINE
  8
1
  6
CONTINUOUS
 62
     4
  5
5BC
 10
486.460417
 20
191.513333
 30
0.0
 11
483.960417
 21
191.513333
 31
0.0
  0
LINE
  8
1
  6
HIDDEN
 62
     4
  5
5BD
 10
486.460417
 20
259.535333
 30
0.0
 11
483.960417
 21
259.535333
 31
0.0
  0
LINE
  8
1
  6
HIDDEN
 62
     4
  5
5BE
 10
486.460417
 20
257.535333
 30
0.0
 11
483.960417
 21
257.535333
 31
0.0
  0
LINE
  8
1
  6
HIDDEN
 62
     4
  5
5BF
 10
486.460417
 20
256.535333
 30
0.0
 11
483.960417
 21
256.535333
 31
0.0
  0
LINE
  8
1
  6
HIDDEN
 62
     4
  5
5C0
 10
486.460417
 20
254.535333
 30
0.0
 11
483.960417
 21
254.535333
 31
0.0
  0
LINE
  8
1
  6
HIDDEN
 62
     4
  5
5C1
 10
486.460417
 20
200.513333
 30
0.0
 11
483.960417
 21
200.513333
 31
0.0
  0
LINE
  8
1
  6
HIDDEN
 62
     4
  5
5C2
 10
486.460417
 20
198.513333
 30
0.0
 11
483.960417
 21
198.513333
 31
0.0
  0
LINE
  8
1
  6
HIDDEN
 62
     4
  5
5C3
 10
486.460417
 20
197.513333
 30
0.0
 11
483.960417
 21
197.513333
 31
0.0
  0
LINE
  8
1
  6
HIDDEN
 62
     4
  5
5C4
 10
486.460417
 20
195.513333
 30
0.0
 11
483.960417
 21
195.513333
 31
0.0
  0
LINE
  8
1
  6
CONTINUOUS
 62
     4
  5
5C5
 10
485.835417
 20
258.910333
 30
0.0
 11
485.835417
 21
258.160333
 31
0.0
  0
LINE
  8
1
  6
CONTINUOUS
 62
     4
  5
5C6
 10
484.585417
 20
258.910333
 30
0.0
 11
484.585417
 21
258.160333
 31
0.0
  0
LINE
  8
1
  6
CONTINUOUS
 62
     4
  5
5C7
 10
485.835417
 20
258.910333
 30
0.0
 11
485.210417
 21
259.285333
 31
0.0
  0
LINE
  8
1
  6
CONTINUOUS
 62
     4
  5
5C8
 10
484.585417
 20
258.910333
 30
0.0
 11
485.210417
 21
259.285333
 31
0.0
  0
LINE
  8
1
  6
CONTINUOUS
 62
     4
  5
5C9
 10
485.835417
 20
258.160333
 30
0.0
 11
485.210417
 21
257.785333
 31
0.0
  0
LINE
  8
1
  6
CONTINUOUS
 62
     4
  5
5CA
 10
484.585417
 20
258.160333
 30
0.0
 11
485.210417
 21
257.785333
 31
0.0
  0
LINE
  8
1
  6
CONTINUOUS
 62
     4
  5
5CB
 10
485.835417
 20
196.888333
 30
0.0
 11
485.835417
 21
196.138333
 31
0.0
  0
LINE
  8
1
  6
CONTINUOUS
 62
     4
  5
5CC
 10
484.585417
 20
196.888333
 30
0.0
 11
484.585417
 21
196.138333
 31
0.0
  0
LINE
  8
1
  6
CONTINUOUS
 62
     4
  5
5CD
 10
485.835417
 20
196.888333
 30
0.0
 11
485.210417
 21
197.263333
 31
0.0
  0
LINE
  8
1
  6
CONTINUOUS
 62
     4
  5
5CE
 10
484.585417
 20
196.888333
 30
0.0
 11
485.210417
 21
197.263333
 31
0.0
  0
LINE
  8
1
  6
CONTINUOUS
 62
     4
  5
5CF
 10
485.835417
 20
196.138333
 30
0.0
 11
485.210417
 21
195.763333
 31
0.0
  0
LINE
  8
1
  6
CONTINUOUS
 62
     4
  5
5D0
 10
484.585417
 20
196.138333
 30
0.0
 11
485.210417
 21
195.763333
 31
0.0
  0
LINE
  8
1
  6
CONTINUOUS
 62
     4
  5
5D1
 10
487.210417
 20
240.263333
 30
0.0
 11
483.960417
 21
240.263333
 31
0.0
  0
LINE
  8
1
  6
CONTINUOUS
 62
     4
  5
5D2
 10
487.210417
 20
222.263333
 30
0.0
 11
483.960417
 21
222.263333
 31
0.0
  0
LINE
  8
1
  6
CONTINUOUS
 62
     4
  5
5D3
 10
487.210417
 20
225.263333
 30
0.0
 11
483.960417
 21
225.263333
 31
0.0
  0
LINE
  8
1
  6
CONTINUOUS
 62
     4
  5
5D4
 10
487.210417
 20
240.263333
 30
0.0
 11
487.210417
 21
222.263333
 31
0.0
  0
LINE
  8
1
  6
CONTINUOUS
 62
     4
  5
5D5
 10
486.460417
 20
269.035333
 30
0.0
 11
486.460417
 21
240.263333
 31
0.0
  0
LINE
  8
1
  6
HIDDEN
 62
     4
  5
5D6
 10
486.460417
 20
240.263333
 30
0.0
 11
486.460417
 21
222.263333
 31
0.0
  0
LINE
  8
1
  6
CONTINUOUS
 62
     4
  5
5D7
 10
486.460417
 20
222.263333
 30
0.0
 11
486.460417
 21
191.513333
 31
0.0
  0
LINE
  8
1
  6
CONTINUOUS
 62
     4
  5
5D8
 10
486.110667
 20
239.295083
 30
0.0
 11
486.110667
 21
238.215083
 31
0.0
  0
LINE
  8
1
  6
CONTINUOUS
 62
     4
  5
5D9
 10
486.110667
 20
239.295083
 30
0.0
 11
485.210667
 21
239.835083
 31
0.0
  0
LINE
  8
1
  6
CONTINUOUS
 62
     4
  5
5DA
 10
484.310667
 20
239.295083
 30
0.0
 11
485.210667
 21
239.835083
 31
0.0
  0
LINE
  8
1
  6
CONTINUOUS
 62
     4
  5
5DB
 10
486.110667
 20
238.215083
 30
0.0
 11
485.210667
 21
237.675083
 31
0.0
  0
LINE
  8
1
  6
CONTINUOUS
 62
     4
  5
5DC
 10
484.310667
 20
238.215083
 30
0.0
 11
485.210667
 21
237.675083
 31
0.0
  0
LINE
  8
1
  6
CONTINUOUS
 62
     4
  5
5DD
 10
487.210417
 20
237.263333
 30
0.0
 11
483.960417
 21
237.263333
 31
0.0
  0
LINE
  8
1
  6
CONTINUOUS
 62
     4
  5
5DE
 10
484.310667
 20
223.24675
 30
0.0
 11
485.210667
 21
222.70675
 31
0.0
  0
LINE
  8
1
  6
CONTINUOUS
 62
     4
  5
5DF
 10
484.310667
 20
223.24675
 30
0.0
 11
484.310667
 21
224.32675
 31
0.0
  0
LINE
  8
1
  6
CONTINUOUS
 62
     4
  5
5E0
 10
486.110667
 20
223.24675
 30
0.0
 11
486.110667
 21
224.32675
 31
0.0
  0
LINE
  8
1
  6
CONTINUOUS
 62
     4
  5
5E1
 10
486.110667
 20
223.24675
 30
0.0
 11
485.210667
 21
222.70675
 31
0.0
  0
LINE
  8
1
  6
CONTINUOUS
 62
     4
  5
5E2
 10
486.110667
 20
224.32675
 30
0.0
 11
485.210667
 21
224.86675
 31
0.0
  0
LINE
  8
1
  6
CONTINUOUS
 62
     4
  5
5E3
 10
484.310667
 20
224.32675
 30
0.0
 11
485.210667
 21
224.86675
 31
0.0
  0
CIRCLE
  8
1
  6
CONTINUOUS
 62
     4
  5
5E4
 10
485.192833
 20
238.763833
 30
0.0
 40
0.5
210
0.0
220
0.0
230
1.0
  0
CIRCLE
  8
1
  6
CONTINUOUS
 62
     4
  5
5E5
 10
485.220833
 20
223.788083
 30
0.0
 40
0.5
210
0.0
220
0.0
230
1.0
  0
LINE
  8
1
  6
CONTINUOUS
 62
     4
  5
5E6
 10
498.74225
 20
259.535333
 30
0.0
 11
486.460417
 21
259.535333
 31
0.0
  0
LINE
  8
1
  6
CONTINUOUS
 62
     4
  5
5E7
 10
483.960417
 20
259.535333
 30
0.0
 11
467.74225
 21
259.535333
 31
0.0
  0
LINE
  8
1
  6
CONTINUOUS
 62
     4
  5
5E8
 10
498.74225
 20
257.535333
 30
0.0
 11
486.460417
 21
257.535333
 31
0.0
  0
LINE
  8
1
  6
CONTINUOUS
 62
     4
  5
5E9
 10
483.960417
 20
257.535333
 30
0.0
 11
467.74225
 21
257.535333
 31
0.0
  0
LINE
  8
1
  6
CONTINUOUS
 62
     4
  5
5EA
 10
498.74225
 20
256.535333
 30
0.0
 11
486.460417
 21
256.535333
 31
0.0
  0
LINE
  8
1
  6
CONTINUOUS
 62
     4
  5
5EB
 10
483.960417
 20
256.535333
 30
0.0
 11
467.74225
 21
256.535333
 31
0.0
  0
LINE
  8
1
  6
CONTINUOUS
 62
     4
  5
5EC
 10
498.74225
 20
254.535333
 30
0.0
 11
486.460417
 21
254.535333
 31
0.0
  0
LINE
  8
1
  6
CONTINUOUS
 62
     4
  5
5ED
 10
483.960417
 20
254.535333
 30
0.0
 11
467.74225
 21
254.535333
 31
0.0
  0
LINE
  8
1
  6
CONTINUOUS
 62
     4
  5
5EE
 10
484.310667
 20
238.215083
 30
0.0
 11
484.310667
 21
239.295083
 31
0.0
  0
LINE
  8
1
  6
CONTINUOUS
 62
     4
  5
5EF
 10
498.74225
 20
200.513333
 30
0.0
 11
486.460417
 21
200.513333
 31
0.0
  0
LINE
  8
1
  6
CONTINUOUS
 62
     4
  5
5F0
 10
483.960417
 20
200.513333
 30
0.0
 11
467.74225
 21
200.513333
 31
0.0
  0
LINE
  8
1
  6
CONTINUOUS
 62
     4
  5
5F1
 10
498.74225
 20
198.513333
 30
0.0
 11
486.460417
 21
198.513333
 31
0.0
  0
LINE
  8
1
  6
CONTINUOUS
 62
     4
  5
5F2
 10
483.960417
 20
198.513333
 30
0.0
 11
467.74225
 21
198.513333
 31
0.0
  0
LINE
  8
1
  6
CONTINUOUS
 62
     4
  5
5F3
 10
498.74225
 20
197.513333
 30
0.0
 11
486.460417
 21
197.513333
 31
0.0
  0
LINE
  8
1
  6
CONTINUOUS
 62
     4
  5
5F4
 10
483.960417
 20
197.513333
 30
0.0
 11
467.74225
 21
197.513333
 31
0.0
  0
LINE
  8
1
  6
CONTINUOUS
 62
     4
  5
5F5
 10
498.74225
 20
195.513333
 30
0.0
 11
486.460417
 21
195.513333
 31
0.0
  0
LINE
  8
1
  6
CONTINUOUS
 62
     4
  5
5F6
 10
483.960417
 20
195.513333
 30
0.0
 11
467.74225
 21
195.513333
 31
0.0
  0
LINE
  8
1
  6
DASHED
 62
     4
  5
5F7
 10
447.24225
 20
236.763333
 30
0.0
 11
483.960417
 21
236.763333
 31
0.0
  0
LINE
  8
1
  6
DASHED
 62
     4
  5
5F8
 10
487.210417
 20
236.763333
 30
0.0
 11
536.99225
 21
236.763333
 31
0.0
  0
LINE
  8
1
  6
DASHED
 62
     4
  5
5F9
 10
447.24225
 20
225.763333
 30
0.0
 11
483.960417
 21
225.763333
 31
0.0
  0
LINE
  8
1
  6
DASHED
 62
     4
  5
5FA
 10
487.210417
 20
225.763333
 30
0.0
 11
536.99225
 21
225.763333
 31
0.0
  0
LINE
  8
1
  6
CONTINUOUS
 62
     7
  5
5FB
 10
487.460417
 20
269.035333
 30
0.0
 11
544.960417
 21
269.035333
 31
0.0
  0
LINE
  8
1
  6
CONTINUOUS
 62
     7
  5
5FC
 10
487.460417
 20
191.513333
 30
0.0
 11
544.960417
 21
191.513333
 31
0.0
  0
INSERT
  8
1
  6
CONTINUOUS
 62
     1
  5
5FD
  2
LDR
 10
543.960417
 20
269.035333
 30
0.0
 41
240.0
 42
240.0
 50
90.0
210
0.0
220
0.0
230
1.0
  0
INSERT
  8
1
  6
CONTINUOUS
 62
     1
  5
5FE
  2
LDR
 10
543.960417
 20
269.035333
 30
0.0
 41
240.0
 42
240.0
 50
90.0
210
0.0
220
0.0
230
1.0
  0
INSERT
  8
1
  6
CONTINUOUS
 62
     1
  5
5FF
  2
LDR
 10
543.960417
 20
191.513333
 30
0.0
 41
240.0
 42
240.0
 50
270.0
210
0.0
220
0.0
230
1.0
  0
INSERT
  8
1
  6
CONTINUOUS
 62
     1
  5
600
  2
LDR
 10
543.960417
 20
191.513333
 30
0.0
 41
240.0
 42
240.0
 50
270.0
210
0.0
220
0.0
230
1.0
  0
LINE
  8
1
  6
CONTINUOUS
 62
     7
  5
601
 10
467.940167
 20
282.145583
 30
0.0
 11
480.19375
 21
291.034667
 31
0.0
  0
LINE
  8
1
  6
CONTINUOUS
 62
     7
  5
602
 10
480.19375
 20
291.034667
 30
0.0
 11
487.233667
 21
291.034667
 31
0.0
  0
LINE
  8
1
  6
CONTINUOUS
 62
     7
  5
603
 10
465.811333
 20
259.031
 30
0.0
 11
488.780417
 21
283.915167
 31
0.0
  0
LINE
  8
1
  6
CONTINUOUS
 62
     7
  5
604
 10
488.780417
 20
283.915167
 30
0.0
 11
495.24825
 21
283.915167
 31
0.0
  0
INSERT
  8
1
  6
CONTINUOUS
 62
     1
  5
605
  2
LDR
 10
467.940167
 20
282.145583
 30
0.0
 41
240.0
 42
240.0
 50
215.958116
210
0.0
220
0.0
230
1.0
  0
INSERT
  8
1
  6
CONTINUOUS
 62
     1
  5
606
  2
LDR
 10
467.940167
 20
282.145583
 30
0.0
 41
240.0
 42
240.0
 50
215.958116
210
0.0
220
0.0
230
1.0
  0
INSERT
  8
1
  6
CONTINUOUS
 62
     1
  5
607
  2
LDR
 10
465.811333
 20
259.031
 30
0.0
 41
240.000001
 42
240.000001
 50
227.291749
210
0.0
220
0.0
230
1.0
  0
LINE
  8
1
  6
CONTINUOUS
 62
     7
  5
608
 10
468.794667
 20
217.38075
 30
0.0
 11
471.434833
 21
211.5875
 31
0.0
  0
LINE
  8
1
  6
CONTINUOUS
 62
     7
  5
609
 10
471.434833
 20
211.5875
 30
0.0
 11
473.904667
 21
211.5875
 31
0.0
  0
LINE
  8
1
  6
CONTINUOUS
 62
     7
  5
60A
 10
456.530583
 20
216.27325
 30
0.0
 11
452.27225
 21
209.883667
 31
0.0
  0
LINE
  8
1
  6
CONTINUOUS
 62
     7
  5
60B
 10
452.27225
 20
209.883667
 30
0.0
 11
440.263667
 21
209.883667
 31
0.0
  0
INSERT
  8
1
  6
CONTINUOUS
 62
     1
  5
60C
  2
LDR
 10
468.794667
 20
217.38075
 30
0.0
 41
240.0
 42
240.0
 50
114.50025
210
0.0
220
0.0
230
1.0
  0
INSERT
  8
1
  6
CONTINUOUS
 62
     1
  5
60D
  2
LDR
 10
456.530583
 20
216.27325
 30
0.0
 41
240.000001
 42
240.000001
 50
56.318555
210
0.0
220
0.0
230
1.0
  0
INSERT
  8
1
  6
CONTINUOUS
 62
     1
  5
60E
  2
LDR
 10
456.530583
 20
216.27325
 30
0.0
 41
240.000001
 42
240.000001
 50
56.318555
210
0.0
220
0.0
230
1.0
  0
LINE
  8
1
  6
CONTINUOUS
 62
     7
  5
60F
 10
465.387917
 20
195.997
 30
0.0
 11
469.2205
 21
187.392333
 31
0.0
  0
LINE
  8
1
  6
CONTINUOUS
 62
     7
  5
610
 10
469.2205
 20
187.392333
 30
0.0
 11
471.009
 21
187.392333
 31
0.0
  0
INSERT
  8
1
  6
CONTINUOUS
 62
     1
  5
611
  2
LDR
 10
465.387917
 20
195.997
 30
0.0
 41
239.999999
 42
239.999999
 50
114.008551
210
0.0
220
0.0
230
1.0
  0
INSERT
  8
1
  6
CONTINUOUS
 62
     1
  5
612
  2
LDR
 10
465.387917
 20
195.997
 30
0.0
 41
239.999999
 42
239.999999
 50
114.008551
210
0.0
220
0.0
230
1.0
  0
TEXT
  8
1
  6
CONTINUOUS
 62
     7
  5
613
 10
473.989833
 20
210.224417
 30
0.0
 40
2.5
  1
TEE
  7
MONOTXT
210
0.0
220
0.0
230
1.0
  0
TEXT
  8
1
  6
CONTINUOUS
 62
     7
  5
614
 10
415.48
 20
208.520583
 30
0.0
 40
2.5
  1
1 1/4 " CONDUIT
  7
MONOTXT
210
0.0
220
0.0
230
1.0
  0
TEXT
  8
1
  6
CONTINUOUS
 62
     7
  5
615
 10
471.605167
 20
186.37
 30
0.0
 40
2.5
  1
"U" BOLT
  7
MONOTXT
210
0.0
220
0.0
230
1.0
  0
TEXT
  8
1
  6
CONTINUOUS
 62
     7
  5
616
 10
489.667917
 20
290.069083
 30
0.0
 40
2.5
  1
1 1/2 " CONDUIT
  7
MONOTXT
210
0.0
220
0.0
230
1.0
  0
TEXT
  8
1
  6
CONTINUOUS
 62
     7
  5
617
 10
496.814583
 20
283.4915
 30
0.0
 40
2.5
  1
"U" BOLT
  7
MONOTXT
210
0.0
220
0.0
230
1.0
  0
TEXT
  8
1
  6
CONTINUOUS
 62
     7
  5
618
 10
544.934167
 20
229.22275
 30
0.0
 40
2.5
  1
30"
 50
90.0
  7
MONOTXT
210
0.0
220
0.0
230
1.0
  0
LINE
  8
1
  6
CONTINUOUS
 62
     7
  5
619
 10
543.960417
 20
269.035333
 30
0.0
 11
543.960417
 21
236.719833
 31
0.0
  0
LINE
  8
1
  6
CONTINUOUS
 62
     7
  5
61A
 10
543.960417
 20
226.4965
 30
0.0
 11
543.960417
 21
191.513333
 31
0.0
  0
TEXT
  8
1
  6
CONTINUOUS
 62
     7
  5
61B
 10
362.724
 20
178.083833
 30
0.0
 40
2.5
  1
BOLT SIZE AS REQUIRED
  7
MONOTXT
 72
     4
 11
386.533
 21
179.333833
 31
0.0
210
0.0
220
0.0
230
1.0
  0
TEXT
  8
1
  6
CONTINUOUS
 62
     7
  5
61C
 10
374.6335
 20
173.583833
 30
0.0
 40
2.5
  1
SCALE: NONE
  7
MONOTXT
 72
     4
 11
386.533083
 21
174.833833
 31
0.0
210
0.0
220
0.0
230
1.0
  0
LINE
  8
1
  6
CONTINUOUS
 62
     7
  5
61D
 10
314.772833
 20
133.695
 30
0.0
 11
435.278083
 21
133.695
 31
0.0
  0
LINE
  8
1
  6
CONTINUOUS
 62
     7
  5
61E
 10
345.968833
 20
126.921583
 30
0.0
 11
404.043333
 21
126.921583
 31
0.0
  0
TEXT
  8
1
  6
CONTINUOUS
 62
     7
  5
61F
 10
316.679667
 20
134.969167
 30
0.0
 40
4.0
  1
FLASHER AND SIGN MOUNTING DETAIL
  7
MONOTXT
 72
     4
 11
375.278
 21
136.969167
 31
0.0
210
0.0
220
0.0
230
1.0
  0
TEXT
  8
1
  6
CONTINUOUS
 62
     7
  5
620
 10
347.388333
 20
127.969167
 30
0.0
 40
4.0
  1
MAST ARM MOUNT
  7
MONOTXT
 72
     4
 11
375.278
 21
129.969167
 31
0.0
210
0.0
220
0.0
230
1.0
  0
LINE
  8
1
  6
CONTINUOUS
 62
     7
  5
621
 10
600.316083
 20
346.970167
 30
0.0
 11
618.196167
 21
346.970167
 31
0.0
  0
TEXT
  8
1
  6
CONTINUOUS
 62
     7
  5
622
 10
474.527
 20
393.206083
 30
0.0
 40
2.5
  1
GENERAL NOTES:
  7
MONOTXT
210
0.0
220
0.0
230
1.0
  0
LINE
  8
1
  6
CONTINUOUS
 62
     7
  5
623
 10
473.049583
 20
391.939333
 30
0.0
 11
507.516417
 21
391.939333
 31
0.0
  0
TEXT
  8
1
  6
CONTINUOUS
 62
     7
  5
624
 10
474.315917
 20
384.372417
 30
0.0
 40
2.5
  1
1.   TRAFFIC SIGN AND SIGNAL HEAD SIZE (8" MIN.) WILL BE AS SHOWN ON CONTRACT PLANS.
  7
MONOTXT
 11
474.315917
 21
386.872417
 31
0.0
210
0.0
220
0.0
230
1.0
 73
     3
  0
TEXT
  8
1
  6
CONTINUOUS
 62
     7
  5
625
 10
474.315917
 20
379.872417
 30
0.0
 40
2.5
  1
 
  7
MONOTXT
 11
474.315917
 21
382.372417
 31
0.0
210
0.0
220
0.0
230
1.0
 73
     3
  0
TEXT
  8
1
  6
CONTINUOUS
 62
     7
  5
626
 10
474.315917
 20
375.372417
 30
0.0
 40
2.5
  1
2.   ALL LENS VISORS SHALL BE OF THE "CUT-AWAY" TYPE UNLESS OTHERWISE SPECIFIED.
  7
MONOTXT
 11
474.315917
 21
377.872417
 31
0.0
210
0.0
220
0.0
230
1.0
 73
     3
  0
TEXT
  8
1
  6
CONTINUOUS
 62
     7
  5
627
 10
474.315917
 20
370.872417
 30
0.0
 40
2.5
  1
 
  7
MONOTXT
 11
474.315917
 21
373.372417
 31
0.0
210
0.0
220
0.0
230
1.0
 73
     3
  0
TEXT
  8
1
  6
CONTINUOUS
 62
     7
  5
628
 10
474.315917
 20
366.372417
 30
0.0
 40
2.5
  1
3.   ALL CONDUIT SHALL BE 1 1/2 " DIAMETER UNLESS OTHERWISE NOTED.
  7
MONOTXT
 11
474.315917
 21
368.872417
 31
0.0
210
0.0
220
0.0
230
1.0
 73
     3
  0
TEXT
  8
1
  6
CONTINUOUS
 62
     7
  5
629
 10
474.315917
 20
361.872417
 30
0.0
 40
2.5
  1
 
  7
MONOTXT
 11
474.315917
 21
364.372417
 31
0.0
210
0.0
220
0.0
230
1.0
 73
     3
  0
TEXT
  8
1
  6
CONTINUOUS
 62
     7
  5
62A
 10
474.315917
 20
357.372417
 30
0.0
 40
2.5
  1
4.   ALL MESSENGER CABLES SHALL BE A MINIMUM OF 3/8 ".
  7
MONOTXT
 11
474.315917
 21
359.872417
 31
0.0
210
0.0
220
0.0
230
1.0
 73
     3
  0
TEXT
  8
1
  6
CONTINUOUS
 62
     7
  5
62B
 10
474.315917
 20
352.872417
 30
0.0
 40
2.5
  1
 
  7
MONOTXT
 11
474.315917
 21
355.372417
 31
0.0
210
0.0
220
0.0
230
1.0
 73
     3
  0
TEXT
  8
1
  6
CONTINUOUS
 62
     7
  5
62C
 10
474.315917
 20
348.372417
 30
0.0
 40
2.5
  1
5.   BOLT AND NUT ASSEMBLIES MAY BE STAINLESS STEEL OR CADMIUM PLATED.
  7
MONOTXT
 11
474.315917
 21
350.872417
 31
0.0
210
0.0
220
0.0
230
1.0
 73
     3
  0
TEXT
  8
1
  6
CONTINUOUS
 62
     7
  5
62D
 10
474.315917
 20
343.872417
 30
0.0
 40
2.5
  1
 
  7
MONOTXT
 11
474.315917
 21
346.372417
 31
0.0
210
0.0
220
0.0
230
1.0
 73
     3
  0
TEXT
  8
1
  6
CONTINUOUS
 62
     7
  5
62E
 10
474.315917
 20
339.372417
 30
0.0
 40
2.5
  1
6.   BOTTOM OF SIGN SHALL BE 8' MIN. TO 10' MAX.
  7
MONOTXT
 11
474.315917
 21
341.872417
 31
0.0
210
0.0
220
0.0
230
1.0
 73
     3
  0
LINE
  8
1
  6
CONTINUOUS
 62
     7
  5
62F
 10
475.24225
 20
302.763333
 30
0.0
 11
484.24225
 21
302.763333
 31
0.0
  0
LINE
  8
1
  6
CONTINUOUS
 62
     7
  5
630
 10
468.74225
 20
295.513417
 30
0.0
 11
484.24225
 21
295.513417
 31
0.0
  0
LINE
  8
1
  6
CONTINUOUS
 62
     7
  5
631
 10
483.24225
 20
302.763333
 30
0.0
 11
483.24225
 21
295.513417
 31
0.0
  0
INSERT
  8
1
  6
CONTINUOUS
 62
     1
  5
632
  2
LDR
 10
483.24225
 20
302.763333
 30
0.0
 41
240.0
 42
240.0
 50
90.0
210
0.0
220
0.0
230
1.0
  0
INSERT
  8
1
  6
CONTINUOUS
 62
     1
  5
633
  2
LDR
 10
483.24225
 20
302.763333
 30
0.0
 41
240.0
 42
240.0
 50
90.0
210
0.0
220
0.0
230
1.0
  0
INSERT
  8
1
  6
CONTINUOUS
 62
     1
  5
634
  2
LDR
 10
483.24225
 20
295.513417
 30
0.0
 41
240.0
 42
240.0
 50
270.0
210
0.0
220
0.0
230
1.0
  0
INSERT
  8
1
  6
CONTINUOUS
 62
     1
  5
635
  2
LDR
 10
483.24225
 20
295.513417
 30
0.0
 41
240.0
 42
240.0
 50
270.0
210
0.0
220
0.0
230
1.0
  0
TEXT
  8
1
  6
CONTINUOUS
 62
     7
  5
636
 10
484.721917
 20
298.122583
 30
0.0
 40
2.5
  1
12"
  7
MONOTXT
210
0.0
220
0.0
230
1.0
  0
LINE
  8
1
  6
CONTINUOUS
 62
     7
  5
637
 10
496.542
 20
108.463917
 30
0.0
 11
500.542
 21
108.463917
 31
0.0
  0
LINE
  8
1
  6
CONTINUOUS
 62
     7
  5
638
 10
498.542
 20
111.928
 30
0.0
 11
496.542
 21
108.463917
 31
0.0
  0
LINE
  8
1
  6
CONTINUOUS
 62
     7
  5
639
 10
500.542
 20
108.463917
 30
0.0
 11
498.542
 21
111.928
 31
0.0
  0
TEXT
  8
1
  6
CONTINUOUS
 62
     7
  5
63A
 10
498.219917
 20
108.798667
 30
0.0
 40
2.0
  1
1
  7
MONOTXT
210
0.0
220
0.0
230
1.0
  0
TEXT
  8
1
  6
CONTINUOUS
 62
     7
  5
63B
 10
502.426417
 20
109.0325
 30
0.0
 40
2.0
  1
SIGNATURE BLOCK
  7
MONOTXT
210
0.0
220
0.0
230
1.0
  0
TEXT
  8
1
  6
CONTINUOUS
 62
     7
  5
63C
 10
502.3055
 20
104.43675
 30
0.0
 40
2.0
  1
REVISED NOTE 1, ADDED NOTE 6.
  7
MONOTXT
210
0.0
220
0.0
230
1.0
  0
LINE
  8
1
  6
CONTINUOUS
 62
     7
  5
63D
 10
499.362417
 20
28.106667
 30
0.0
 11
503.362417
 21
28.106667
 31
0.0
  0
LINE
  8
1
  6
CONTINUOUS
 62
     7
  5
63E
 10
501.362417
 20
31.57075
 30
0.0
 11
499.362417
 21
28.106667
 31
0.0
  0
LINE
  8
1
  6
CONTINUOUS
 62
     7
  5
63F
 10
503.362417
 20
28.106667
 30
0.0
 11
501.362417
 21
31.57075
 31
0.0
  0
TEXT
  8
1
  6
CONTINUOUS
 62
     7
  5
640
 10
500.677667
 20
28.441417
 30
0.0
 40
2.0
  1
2
  7
MONOTXT
210
0.0
220
0.0
230
1.0
  0
ENDSEC
  0
EOF
