  0
SECTION
  2
HEADER
  9
$ACADVER
  1
AC1009
  9
$INSBASE
 10
0.0
 20
0.0
 30
0.0
  9
$EXTMIN
 10
-367.9615
 20
-34.00075
 30
0.0
  9
$EXTMAX
 10
312.1185
 20
406.03925
 30
0.0
  9
$LIMMIN
 10
0.0
 20
0.0
  9
$LIMMAX
 10
12.0
 20
9.0
  9
$ORTHOMODE
 70
     0
  9
$REGENMODE
 70
     1
  9
$FILLMODE
 70
     1
  9
$QTEXTMODE
 70
     0
  9
$MIRRTEXT
 70
     1
  9
$DRAGMODE
 70
     2
  9
$LTSCALE
 40
1.0
  9
$OSMODE
 70
     0
  9
$ATTMODE
 70
     1
  9
$TEXTSIZE
 40
0.2
  9
$TRACEWID
 40
0.05
  9
$TEXTSTYLE
  7
STANDARD
  9
$CLAYER
  8
0
  9
$CELTYPE
  6
CONTINUOUS
  9
$CECOLOR
 62
   256
  9
$DIMSCALE
 40
1.0
  9
$DIMASZ
 40
0.18
  9
$DIMEXO
 40
0.0625
  9
$DIMDLI
 40
0.38
  9
$DIMRND
 40
0.0
  9
$DIMDLE
 40
0.0
  9
$DIMEXE
 40
0.18
  9
$DIMTP
 40
0.0
  9
$DIMTM
 40
0.0
  9
$DIMTXT
 40
0.18
  9
$DIMCEN
 40
0.09
  9
$DIMTSZ
 40
0.0
  9
$DIMTOL
 70
     0
  9
$DIMLIM
 70
     0
  9
$DIMTIH
 70
     1
  9
$DIMTOH
 70
     1
  9
$DIMSE1
 70
     0
  9
$DIMSE2
 70
     0
  9
$DIMTAD
 70
     0
  9
$DIMZIN
 70
     0
  9
$DIMBLK
  1

  9
$DIMASO
 70
     1
  9
$DIMSHO
 70
     1
  9
$DIMPOST
  1

  9
$DIMAPOST
  1

  9
$DIMALT
 70
     0
  9
$DIMALTD
 70
     2
  9
$DIMALTF
 40
25.4
  9
$DIMLFAC
 40
1.0
  9
$DIMTOFL
 70
     0
  9
$DIMTVP
 40
0.0
  9
$DIMTIX
 70
     0
  9
$DIMSOXD
 70
     0
  9
$DIMSAH
 70
     0
  9
$DIMBLK1
  1

  9
$DIMBLK2
  1

  9
$DIMSTYLE
  2
STANDARD
  9
$DIMCLRD
 70
     0
  9
$DIMCLRE
 70
     0
  9
$DIMCLRT
 70
     0
  9
$DIMTFAC
 40
1.0
  9
$DIMGAP
 40
0.09
  9
$LUNITS
 70
     2
  9
$LUPREC
 70
     4
  9
$AXISMODE
 70
     0
  9
$AXISUNIT
 10
0.0
 20
0.0
  9
$SKETCHINC
 40
0.1
  9
$FILLETRAD
 40
0.0
  9
$AUNITS
 70
     0
  9
$AUPREC
 70
     0
  9
$MENU
  1
acad
  9
$ELEVATION
 40
0.0
  9
$PELEVATION
 40
0.0
  9
$THICKNESS
 40
0.0
  9
$LIMCHECK
 70
     0
  9
$BLIPMODE
 70
     1
  9
$CHAMFERA
 40
0.0
  9
$CHAMFERB
 40
0.0
  9
$SKPOLY
 70
     0
  9
$TDCREATE
 40
2451803.441296296
  9
$TDUPDATE
 40
2451803.441296296
  9
$TDINDWG
 40
0.0000000000
  9
$TDUSRTIMER
 40
0.0000000000
  9
$USRTIMER
 70
     1
  9
$ANGBASE
 50
0.0
  9
$ANGDIR
 70
     0
  9
$PDMODE
 70
     0
  9
$PDSIZE
 40
0.0
  9
$PLINEWID
 40
0.0
  9
$COORDS
 70
     0
  9
$SPLFRAME
 70
     0
  9
$SPLINETYPE
 70
     6
  9
$SPLINESEGS
 70
    10
  9
$ATTDIA
 70
     0
  9
$ATTREQ
 70
     1
  9
$HANDLING
 70
     1
  9
$HANDSEED
  5
857
  9
$SURFTAB1
 70
     6
  9
$SURFTAB2
 70
     6
  9
$SURFTYPE
 70
     6
  9
$SURFU
 70
     6
  9
$SURFV
 70
     6
  9
$UCSNAME
  2

  9
$UCSORG
 10
0.0
 20
0.0
 30
0.0
  9
$UCSXDIR
 10
1.0
 20
0.0
 30
0.0
  9
$UCSYDIR
 10
0.0
 20
1.0
 30
0.0
  9
$PUCSNAME
  2

  9
$PUCSORG
 10
0.0
 20
0.0
 30
0.0
  9
$PUCSXDIR
 10
1.0
 20
0.0
 30
0.0
  9
$PUCSYDIR
 10
0.0
 20
1.0
 30
0.0
  9
$USERI1
 70
     0
  9
$USERI2
 70
     0
  9
$USERI3
 70
     0
  9
$USERI4
 70
     0
  9
$USERI5
 70
     0
  9
$USERR1
 40
0.0
  9
$USERR2
 40
0.0
  9
$USERR3
 40
0.0
  9
$USERR4
 40
0.0
  9
$USERR5
 40
0.0
  9
$WORLDVIEW
 70
     1
  9
$SHADEDGE
 70
     3
  9
$SHADEDIF
 70
    70
  9
$TILEMODE
 70
     1
  9
$MAXACTVP
 70
    16
  9
$PINSBASE
 10
0.0
 20
0.0
 30
0.0
  9
$PLIMCHECK
 70
     0
  9
$PEXTMIN
 10
-1.000000E+20
 20
-1.000000E+20
 30
-1.000000E+20
  9
$PEXTMAX
 10
-1.000000E+20
 20
-1.000000E+20
 30
-1.000000E+20
  9
$PLIMMIN
 10
0.0
 20
0.0
  9
$PLIMMAX
 10
12.0
 20
9.0
  9
$UNITMODE
 70
     0
  9
$VISRETAIN
 70
     0
  9
$PLINEGEN
 70
     1
  9
$PSLTSCALE
 70
     0
  9
$TREEDEPTH
 70
  3020
  9
$DWGCODEPAGE
  3
ansi_1252
  0
ENDSEC
  0
SECTION
  2
TABLES
  0
TABLE
  2
VPORT
 70
     1
  0
VPORT
  2
*ACTIVE
 70
     0
 10
0.0
 20
0.0
 11
1.0
 21
1.0
 12
0.0
 22
0.0
 13
0.0
 23
0.0
 14
0.0
 24
0.0
 15
0.0
 25
0.0
 16
0.0
 26
0.0
 36
1.0
 17
-73.6852
 27
186.01925
 37
0.0
 40
451.041
 41
1.795122
 42
50.0
 43
0.0
 44
0.0
 50
0.0
 51
0.0
 71
     0
 72
   100
 73
     1
 74
     0
 75
     0
 76
     0
 77
     0
 78
     0
  0
ENDTAB
  0
TABLE
  2
LTYPE
 70
     7
  0
LTYPE
  2
CONTINUOUS
 70
     0
  3
Solid line
 72
    65
 73
     0
 40
0.0
  0
LTYPE
  2
DOT
 70
    64
  3
. . . . . . . . . . . . . . . . . . . . . . . . . . . . . . . . .
 72
    65
 73
     2
 40
0.25
 49
0.0
 49
-0.25
  0
LTYPE
  2
HIDDEN
 70
    64
  3
__ __ __ __ __ __ __ __ __ __ __ __ __ __ __ __ __ __ __ __ __ 
 72
    65
 73
     2
 40
0.375
 49
0.25
 49
-0.125
  0
LTYPE
  2
DASHED
 70
    64
  3
__ __ __ __ __ __ __ __ __ __ __ __ __ __ __ __ __ __ __ __ __
 72
    65
 73
     2
 40
0.75
 49
0.5
 49
-0.25
  0
LTYPE
  2
DASHDOT
 70
    64
  3
__ . __ . __ . __ . __ . __ . __ . __ . __ . __ . __ . __ . _
 72
    65
 73
     4
 40
1.0
 49
0.5
 49
-0.25
 49
0.0
 49
-0.25
  0
LTYPE
  2
DIVIDE
 70
    64
  3
____ . . ____ . . ____ . . ____ . . ____ . . ____ . . ____ . .
 72
    65
 73
     6
 40
1.25
 49
0.5
 49
-0.25
 49
0.0
 49
-0.25
 49
0.0
 49
-0.25
  0
LTYPE
  2
CENTER
 70
    64
  3
____ _ ____ _ ____ _ ____ _ ____ _ ____ _ ____ _ ____ _ ____ _
 72
    65
 73
     4
 40
2.0
 49
1.25
 49
-0.25
 49
0.25
 49
-0.25
  0
ENDTAB
  0
TABLE
  2
LAYER
 70
     5
  0
LAYER
  2
0
 70
     0
 62
     7
  6
CONTINUOUS
  0
LAYER
  2
CONSTRUCTION_CLASS
 70
     0
 62
     7
  6
CONTINUOUS
  0
LAYER
  2
PATTERN_CLASS
 70
     0
 62
     7
  6
CONTINUOUS
  0
LAYER
  2
1
 70
    64
 62
     7
  6
CONTINUOUS
  0
LAYER
  2
61
 70
    64
 62
     7
  6
CONTINUOUS
  0
ENDTAB
  0
TABLE
  2
STYLE
 70
     4
  0
STYLE
  2
STANDARD
 70
     0
 40
0.0
 41
1.0
 50
0.0
 71
     0
 42
0.0
  3
txt
  4

  0
STYLE
  2
MONOTXT
 70
     0
 40
0.2
 41
1.0
 50
0.0
 71
     0
 42
0.2
  3
MONOTXT
  4

  0
STYLE
  2
txt
 70
     0
 40
0.2
 41
1.0
 50
0.0
 71
     0
 42
0.2
  3
TXT
  4

  0
STYLE
  2
ROMANT
 70
     0
 40
0.2
 41
1.0
 50
0.0
 71
     0
 42
0.2
  3
ROMANT
  4

  0
ENDTAB
  0
TABLE
  2
VIEW
 70
     0
  0
ENDTAB
  0
TABLE
  2
UCS
 70
     0
  0
ENDTAB
  0
TABLE
  2
APPID
 70
     1
  0
APPID
  2
ACAD
 70
     0
  0
ENDTAB
  0
TABLE
  2
DIMSTYLE
 70
     1
  0
DIMSTYLE
  2
STANDARD
 70
     0
  3

  4

  5

  6

  7

 40
1.0
 41
0.18
 42
0.0625
 43
0.38
 44
0.18
 45
0.0
 46
0.0
 47
0.0
 48
0.0
140
0.18
141
0.09
142
0.0
143
25.4
144
1.0
145
0.0
146
1.0
147
0.09
 71
     0
 72
     0
 73
     1
 74
     1
 75
     0
 76
     0
 77
     0
 78
     0
170
     0
171
     2
172
     0
173
     0
174
     0
175
     0
176
     0
177
     0
178
     0
  0
ENDTAB
  0
ENDSEC
  0
SECTION
  2
BLOCKS
  0
BLOCK
  8
1
  6
CONTINUOUS
 62
     1
  5
2A
  2
STDBRD
 70
     0
 10
0.0
 20
0.0
 30
0.0
  3
STDBRD
  0
LINE
  8
61
  6
CONTINUOUS
 62
     1
  5
2C
 10
2.787917
 20
1.791833
 30
0.0
 11
0.12525
 21
1.791833
 31
0.0
  0
LINE
  8
61
  6
CONTINUOUS
 62
     1
  5
2D
 10
0.12525
 20
1.791833
 30
0.0
 11
0.12525
 21
0.04175
 31
0.0
  0
LINE
  8
61
  6
CONTINUOUS
 62
     1
  5
2E
 10
2.788
 20
0.041667
 30
0.0
 11
0.12525
 21
0.04175
 31
0.0
  0
LINE
  8
61
  6
CONTINUOUS
 62
     1
  5
2F
 10
2.787917
 20
1.791833
 30
0.0
 11
2.788
 21
0.041667
 31
0.0
  0
LINE
  8
61
  6
CONTINUOUS
 62
     7
  5
30
 10
2.7625
 20
1.772083
 30
0.0
 11
2.312583
 21
1.772
 31
0.0
  0
LINE
  8
61
  6
CONTINUOUS
 62
     7
  5
31
 10
2.312583
 20
1.772
 30
0.0
 11
2.312583
 21
1.688667
 31
0.0
  0
LINE
  8
61
  6
CONTINUOUS
 62
     7
  5
32
 10
2.7625
 20
1.772083
 30
0.0
 11
2.7625
 21
1.68875
 31
0.0
  0
LINE
  8
61
  6
CONTINUOUS
 62
     7
  5
33
 10
2.7625
 20
1.68875
 30
0.0
 11
2.312583
 21
1.688667
 31
0.0
  0
LINE
  8
61
  6
CONTINUOUS
 62
     7
  5
34
 10
2.762583
 20
1.73025
 30
0.0
 11
2.3125
 21
1.730333
 31
0.0
  0
LINE
  8
61
  6
CONTINUOUS
 62
     7
  5
35
 10
2.35425
 20
1.772
 30
0.0
 11
2.35425
 21
1.688667
 31
0.0
  0
LINE
  8
61
  6
CONTINUOUS
 62
     7
  5
36
 10
2.395917
 20
1.772
 30
0.0
 11
2.395917
 21
1.688667
 31
0.0
  0
LINE
  8
61
  6
CONTINUOUS
 62
     7
  5
37
 10
2.452917
 20
1.772
 30
0.0
 11
2.452917
 21
1.688667
 31
0.0
  0
LINE
  8
61
  6
CONTINUOUS
 62
     7
  5
38
 10
2.720833
 20
1.772083
 30
0.0
 11
2.720833
 21
1.68875
 31
0.0
  0
LINE
  8
61
  6
CONTINUOUS
 62
     7
  5
39
 10
2.679167
 20
1.772083
 30
0.0
 11
2.679167
 21
1.68875
 31
0.0
  0
LINE
  8
61
  6
CONTINUOUS
 62
     7
  5
3A
 10
2.587583
 20
1.772
 30
0.0
 11
2.587583
 21
1.688667
 31
0.0
  0
LINE
  8
61
  6
CONTINUOUS
 62
     7
  5
3B
 10
2.545917
 20
1.772
 30
0.0
 11
2.545917
 21
1.688667
 31
0.0
  0
TEXT
  8
61
  6
CONTINUOUS
 62
     7
  5
3D
 10
2.321083
 20
1.759417
 30
0.0
 40
0.005
  1
PUBLIC
 50
0.033272
  7
MONOTXT
210
0.0
220
0.0
230
1.0
  0
TEXT
  8
61
  6
CONTINUOUS
 62
     7
  5
3E
 10
2.321417
 20
1.748917
 30
0.0
 40
0.005
  1
ROADS
 50
0.124322
  7
MONOTXT
210
0.0
220
0.0
230
1.0
  0
TEXT
  8
61
  6
CONTINUOUS
 62
     7
  5
3F
 10
2.326417
 20
1.7385
 30
0.0
 40
0.005
  1
DIV.
 50
359.931522
  7
MONOTXT
210
0.0
220
0.0
230
1.0
  0
TEXT
  8
61
  6
CONTINUOUS
 62
     7
  5
40
 10
2.363417
 20
1.759667
 30
0.0
 40
0.005
  1
STATE
 50
0.058969
  7
MONOTXT
210
0.0
220
0.0
230
1.0
  0
TEXT
  8
61
  6
CONTINUOUS
 62
     7
  5
41
 10
2.367083
 20
1.74925
 30
0.0
 40
0.005
  1
DIST.
 50
0.055889
  7
MONOTXT
210
0.0
220
0.0
230
1.0
  0
TEXT
  8
61
  6
CONTINUOUS
 62
     7
  5
42
 10
2.3695
 20
1.73875
 30
0.0
 40
0.005
  1
NO.
 50
359.852072
  7
MONOTXT
210
0.0
220
0.0
230
1.0
  0
TEXT
  8
61
  6
CONTINUOUS
 62
     7
  5
43
 10
2.413417
 20
1.759417
 30
0.0
 40
0.005
  1
STATE
 50
0.058969
  7
MONOTXT
210
0.0
220
0.0
230
1.0
  0
TEXT
  8
61
  6
CONTINUOUS
 62
     7
  5
44
 10
2.408917
 20
1.749333
 30
0.0
 40
0.005
  1
PROJECT
 50
359.908431
  7
MONOTXT
210
0.0
220
0.0
230
1.0
  0
TEXT
  8
61
  6
CONTINUOUS
 62
     7
  5
45
 10
2.420333
 20
1.73875
 30
0.0
 40
0.005
  1
NO.
 50
0.225453
  7
MONOTXT
210
0.0
220
0.0
230
1.0
  0
TEXT
  8
61
  6
CONTINUOUS
 62
     7
  5
46
 10
2.4855
 20
1.75475
 30
0.0
 40
0.005
  1
FEDERAL
 50
0.006714
  7
MONOTXT
210
0.0
220
0.0
230
1.0
  0
TEXT
  8
61
  6
CONTINUOUS
 62
     7
  5
47
 10
2.479083
 20
1.743667
 30
0.0
 40
0.005
  1
PROJECT NO.
 50
359.921531
  7
MONOTXT
210
0.0
220
0.0
230
1.0
  0
TEXT
  8
61
  6
CONTINUOUS
 62
     7
  5
48
 10
2.55525
 20
1.7545
 30
0.0
 40
0.005
  1
FISCAL
 50
359.941939
  7
MONOTXT
210
0.0
220
0.0
230
1.0
  0
TEXT
  8
61
  6
CONTINUOUS
 62
     7
  5
49
 10
2.557417
 20
1.742417
 30
0.0
 40
0.005
  1
YEAR
 50
0.104606
  7
MONOTXT
210
0.0
220
0.0
230
1.0
  0
TEXT
  8
61
  6
CONTINUOUS
 62
     7
  5
4A
 10
2.616167
 20
1.748083
 30
0.0
 40
0.005
  1
COUNTY
 50
0.068575
  7
MONOTXT
210
0.0
220
0.0
230
1.0
  0
TEXT
  8
61
  6
CONTINUOUS
 62
     7
  5
4B
 10
2.689667
 20
1.755
 30
0.0
 40
0.005
  1
SHEET
 50
0.058969
  7
MONOTXT
210
0.0
220
0.0
230
1.0
  0
TEXT
  8
61
  6
CONTINUOUS
 62
     7
  5
4C
 10
2.695583
 20
1.743667
 30
0.0
 40
0.005
  1
NO.
 50
359.852072
  7
MONOTXT
210
0.0
220
0.0
230
1.0
  0
TEXT
  8
61
  6
CONTINUOUS
 62
     7
  5
4D
 10
2.73025
 20
1.754417
 30
0.0
 40
0.005
  1
TOTAL
 50
359.926039
  7
MONOTXT
210
0.0
220
0.0
230
1.0
  0
TEXT
  8
61
  6
CONTINUOUS
 62
     7
  5
4E
 10
2.728333
 20
1.743167
 30
0.0
 40
0.005
  1
SHEETS
 50
359.958675
  7
MONOTXT
210
0.0
220
0.0
230
1.0
  0
ATTDEF
  8
61
  6
CONTINUOUS
 62
     7
  5
4F
 10
0.0
 20
0.0
 30
0.0
 40
0.01
  1
  
  3

  2
TAG00
 70
     0
 50
0.029406
  7
MONOTXT
210
0.0
220
0.0
230
1.0
  0
ATTDEF
  8
61
  6
CONTINUOUS
 62
     7
  5
50
 10
0.0
 20
0.0
 30
0.0
 40
0.01
  1
   
  3

  2
TAG10
 70
     0
 50
0.011508
  7
MONOTXT
210
0.0
220
0.0
230
1.0
  0
ATTDEF
  8
61
  6
CONTINUOUS
 62
     7
  5
51
 10
0.0
 20
0.0
 30
0.0
 40
0.01
  1
   
  3

  2
TAG20
 70
     0
 50
359.922128
  7
MONOTXT
210
0.0
220
0.0
230
1.0
  0
ATTDEF
  8
61
  6
CONTINUOUS
 62
     7
  5
52
 10
0.0
 20
0.0
 30
0.0
 40
0.008333
  1
    
  3

  2
TAG30
 70
     0
 50
0.054383
  7
MONOTXT
210
0.0
220
0.0
230
1.0
  0
ATTDEF
  8
61
  6
CONTINUOUS
 62
     7
  5
53
 10
0.0
 20
0.0
 30
0.0
 40
0.00825
  1
       
  3

  2
TAG40
 70
     0
 50
0.064678
 41
1.010101
  7
MONOTXT
210
0.0
220
0.0
230
1.0
  0
ATTDEF
  8
61
  6
CONTINUOUS
 62
     7
  5
54
 10
0.0
 20
0.0
 30
0.0
 40
0.00825
  1
      
  3

  2
TAG50
 70
     0
 50
359.958053
 41
1.010101
  7
MONOTXT
210
0.0
220
0.0
230
1.0
  0
ATTDEF
  8
61
  6
CONTINUOUS
 62
     7
  5
55
 10
0.0
 20
0.0
 30
0.0
 40
0.01
  1
           
  3

  2
TAG60
 70
     0
 50
0.011508
  7
MONOTXT
210
0.0
220
0.0
230
1.0
  0
ATTDEF
  8
61
  6
CONTINUOUS
 62
     7
  5
56
 10
0.0
 20
0.0
 30
0.0
 40
0.01
  1
           
  3

  2
TAG70
 70
     0
 50
0.011508
  7
MONOTXT
210
0.0
220
0.0
230
1.0
  0
ATTDEF
  8
61
  6
CONTINUOUS
 62
     7
  5
57
 10
0.0
 20
0.0
 30
0.0
 40
0.008333
  1
          
  3

  2
TAG80
 70
     0
 50
0.009222
  7
MONOTXT
210
0.0
220
0.0
230
1.0
  0
ARC
  8
61
  6
CONTINUOUS
 62
     3
  5
58
 10
0.048991
 20
1.422005
 30
0.0
 40
0.010417
 50
323.130094
 51
316.232156
210
0.0
220
0.0
230
1.0
  0
ARC
  8
61
  6
CONTINUOUS
 62
     3
  5
59
 10
0.048991
 20
1.192839
 30
0.0
 40
0.010417
 50
323.130094
 51
315.375767
210
0.0
220
0.0
230
1.0
  0
ARC
  8
61
  6
CONTINUOUS
 62
     3
  5
5A
 10
0.047824
 20
0.574339
 30
0.0
 40
0.010417
 50
322.671753
 51
321.716147
210
0.0
220
0.0
230
1.0
  0
ARC
  8
61
  6
CONTINUOUS
 62
     3
  5
5B
 10
0.047824
 20
0.345172
 30
0.0
 40
0.010417
 50
323.130094
 51
312.314392
210
0.0
220
0.0
230
1.0
  0
LINE
  8
61
  6
CONTINUOUS
 62
     2
  5
5C
 10
0.057417
 20
1.422
 30
0.0
 11
0.090667
 21
1.422083
 31
0.0
  0
LINE
  8
61
  6
CONTINUOUS
 62
     2
  5
5D
 10
0.057333
 20
1.192833
 30
0.0
 11
0.090667
 21
1.192833
 31
0.0
  0
LINE
  8
61
  6
CONTINUOUS
 62
     2
  5
5E
 10
0.056167
 20
0.574417
 30
0.0
 11
0.0895
 21
0.574417
 31
0.0
  0
LINE
  8
61
  6
CONTINUOUS
 62
     2
  5
5F
 10
0.05625
 20
0.345167
 30
0.0
 11
0.0895
 21
0.345167
 31
0.0
  0
LINE
  8
61
  6
DASHED
 62
     1
  5
60
 10
0.00025
 20
1.8335
 30
0.0
 11
2.833667
 21
1.8335
 31
0.0
  0
LINE
  8
61
  6
DASHED
 62
     1
  5
61
 10
2.833583
 20
0.000083
 30
0.0
 11
0.0
 21
0.0
 31
0.0
  0
ATTDEF
  8
61
  6
CONTINUOUS
 62
     7
  5
62
 10
0.0
 20
0.0
 30
0.0
 40
0.01
  1
     
  3

  2
TAG90
 70
     0
  7
MONOTXT
210
0.0
220
0.0
230
1.0
  0
LINE
  8
1
  6
HIDDEN
 62
     1
  5
63
 10
2.833667
 20
1.8335
 30
0.0
 11
2.833583
 21
0.000083
 31
0.0
  0
LINE
  8
1
  6
HIDDEN
 62
     1
  5
64
 10
0.00025
 20
1.8335
 30
0.0
 11
0.0
 21
0.0
 31
0.0
  0
TEXT
  8
1
  6
CONTINUOUS
 62
     1
  5
66
 10
2.645167
 20
0.03125
 30
0.0
 40
0.005
  1
TRAFFIC ENGINEERING DIVISION
  7
txt
210
0.0
220
0.0
230
1.0
  0
LINE
  8
1
  6
CONTINUOUS
 62
     7
  5
67
 10
2.07275
 20
0.041667
 30
0.0
 11
2.07275
 21
0.42325
 31
0.0
  0
LINE
  8
1
  6
CONTINUOUS
 62
     7
  5
68
 10
2.07275
 20
0.42325
 30
0.0
 11
2.788
 21
0.42325
 31
0.0
  0
LINE
  8
1
  6
CONTINUOUS
 62
     7
  5
69
 10
2.218583
 20
0.0415
 30
0.0
 11
2.218583
 21
0.228833
 31
0.0
  0
LINE
  8
1
  6
CONTINUOUS
 62
     7
  5
6A
 10
2.218583
 20
0.228833
 30
0.0
 11
2.072833
 21
0.228833
 31
0.0
  0
LINE
  8
1
  6
CONTINUOUS
 62
     7
  5
6B
 10
2.218583
 20
0.210167
 30
0.0
 11
2.072833
 21
0.210167
 31
0.0
  0
LINE
  8
1
  6
CONTINUOUS
 62
     7
  5
6C
 10
2.218583
 20
0.191417
 30
0.0
 11
2.072833
 21
0.191417
 31
0.0
  0
LINE
  8
1
  6
CONTINUOUS
 62
     7
  5
6D
 10
2.218583
 20
0.172667
 30
0.0
 11
2.072833
 21
0.172667
 31
0.0
  0
LINE
  8
1
  6
CONTINUOUS
 62
     7
  5
6E
 10
2.218583
 20
0.153833
 30
0.0
 11
2.072833
 21
0.153833
 31
0.0
  0
LINE
  8
1
  6
CONTINUOUS
 62
     7
  5
6F
 10
2.218583
 20
0.135167
 30
0.0
 11
2.072833
 21
0.135167
 31
0.0
  0
LINE
  8
1
  6
CONTINUOUS
 62
     7
  5
70
 10
2.218583
 20
0.1165
 30
0.0
 11
2.072833
 21
0.1165
 31
0.0
  0
LINE
  8
1
  6
CONTINUOUS
 62
     7
  5
71
 10
2.218583
 20
0.09775
 30
0.0
 11
2.072833
 21
0.09775
 31
0.0
  0
LINE
  8
1
  6
CONTINUOUS
 62
     7
  5
72
 10
2.218583
 20
0.079
 30
0.0
 11
2.072833
 21
0.079
 31
0.0
  0
LINE
  8
1
  6
CONTINUOUS
 62
     7
  5
73
 10
2.218583
 20
0.060167
 30
0.0
 11
2.072833
 21
0.060167
 31
0.0
  0
TEXT
  8
1
  6
CONTINUOUS
 62
     7
  5
74
 10
2.115583
 20
0.216333
 30
0.0
 40
0.008333
  1
REVISIONS
  7
MONOTXT
210
0.0
220
0.0
230
1.0
  0
TEXT
  8
1
  6
CONTINUOUS
 62
     7
  5
75
 10
2.080917
 20
0.233
 30
0.0
 40
0.008333
  1
PREPARED: 
  7
MONOTXT
210
0.0
220
0.0
230
1.0
  0
ATTDEF
  8
1
  6
CONTINUOUS
 62
     7
  5
76
 10
0.0
 20
0.0
 30
0.0
 40
0.008333
  1
01
  3

  2
TAG100
 70
     0
  7
MONOTXT
210
0.0
220
0.0
230
1.0
  0
TEXT
  8
1
  6
CONTINUOUS
 62
     7
  5
77
 10
2.163
 20
0.233
 30
0.0
 40
0.008333
  1
/
  7
MONOTXT
210
0.0
220
0.0
230
1.0
  0
ATTDEF
  8
1
  6
CONTINUOUS
 62
     7
  5
78
 10
0.0
 20
0.0
 30
0.0
 40
0.008333
  1
00
  3

  2
TAG101
 70
     0
  7
MONOTXT
210
0.0
220
0.0
230
1.0
  0
TEXT
  8
1
  6
CONTINUOUS
 62
     7
  5
79
 10
2.18125
 20
0.233
 30
0.0
 40
0.008333
  1
/
  7
MONOTXT
210
0.0
220
0.0
230
1.0
  0
ATTDEF
  8
1
  6
CONTINUOUS
 62
     7
  5
7A
 10
0.0
 20
0.0
 30
0.0
 40
0.008333
  1
70
  3

  2
TAG102
 70
     0
  7
MONOTXT
210
0.0
220
0.0
230
1.0
  0
TEXT
  8
1
  6
CONTINUOUS
 62
     7
  5
7C
 10
2.208667
 20
0.387417
 30
0.0
 40
0.02
  1
WEST VIRGINIA DIVISION OF HIGHWAYS
  7
ROMANT
 72
     1
 11
2.4335
 21
0.407417
 31
0.0
210
0.0
220
0.0
230
1.0
 73
     3
  0
TEXT
  8
1
  6
CONTINUOUS
 62
     7
  5
7D
 10
2.2535
 20
0.340917
 30
0.0
 40
0.029167
  1
STANDARD DETAIL
  7
txt
 72
     1
 11
2.438833
 21
0.370083
 31
0.0
210
0.0
220
0.0
230
1.0
 73
     3
  0
TEXT
  8
1
  6
CONTINUOUS
 62
     7
  5
7E
 10
2.234583
 20
0.0585
 30
0.0
 40
0.029167
  1
STANDARD SHEET 
  7
txt
210
0.0
220
0.0
230
1.0
  0
ATTDEF
  8
1
  6
CONTINUOUS
 62
     7
  5
7F
 10
0.0
 20
0.0
 30
0.0
 40
0.029167
  1
TES-81
  3

  2
TAG110
 70
     0
  7
txt
210
0.0
220
0.0
230
1.0
  0
ATTDEF
  8
1
  6
CONTINUOUS
 62
     1
  5
80
 10
0.0
 20
0.0
 30
0.0
 40
0.008333
  1
        
  3

  2
TAG120
 70
     0
  7
MONOTXT
 72
     1
 11
0.0
 21
0.0
 31
0.0
210
0.0
220
0.0
230
1.0
 74
     3
  0
ATTDEF
  8
1
  6
CONTINUOUS
 62
     1
  5
81
 10
0.0
 20
0.0
 30
0.0
 40
0.008333
  1
        
  3

  2
TAG130
 70
     0
  7
MONOTXT
 72
     1
 11
0.0
 21
0.0
 31
0.0
210
0.0
220
0.0
230
1.0
 74
     3
  0
ATTDEF
  8
1
  6
CONTINUOUS
 62
     1
  5
82
 10
0.0
 20
0.0
 30
0.0
 40
0.008333
  1
        
  3

  2
TAG140
 70
     0
  7
MONOTXT
 72
     1
 11
0.0
 21
0.0
 31
0.0
210
0.0
220
0.0
230
1.0
 74
     3
  0
ATTDEF
  8
1
  6
CONTINUOUS
 62
     1
  5
83
 10
0.0
 20
0.0
 30
0.0
 40
0.008333
  1
        
  3

  2
TAG150
 70
     0
  7
MONOTXT
 72
     1
 11
0.0
 21
0.0
 31
0.0
210
0.0
220
0.0
230
1.0
 74
     3
  0
ATTDEF
  8
1
  6
CONTINUOUS
 62
     1
  5
84
 10
0.0
 20
0.0
 30
0.0
 40
0.008333
  1
        
  3

  2
TAG160
 70
     0
  7
MONOTXT
 72
     1
 11
0.0
 21
0.0
 31
0.0
210
0.0
220
0.0
230
1.0
 74
     3
  0
ATTDEF
  8
1
  6
CONTINUOUS
 62
     1
  5
85
 10
0.0
 20
0.0
 30
0.0
 40
0.008333
  1
01-20-93
  3

  2
TAG170
 70
     0
  7
MONOTXT
 72
     1
 11
0.0
 21
0.0
 31
0.0
210
0.0
220
0.0
230
1.0
 74
     3
  0
ATTDEF
  8
1
  6
CONTINUOUS
 62
     1
  5
86
 10
0.0
 20
0.0
 30
0.0
 40
0.008333
  1
        
  3

  2
TAG180
 70
     0
  7
MONOTXT
 72
     1
 11
0.0
 21
0.0
 31
0.0
210
0.0
220
0.0
230
1.0
 74
     3
  0
ATTDEF
  8
1
  6
CONTINUOUS
 62
     1
  5
87
 10
0.0
 20
0.0
 30
0.0
 40
0.008333
  1
        
  3

  2
TAG190
 70
     0
  7
MONOTXT
 72
     1
 11
0.0
 21
0.0
 31
0.0
210
0.0
220
0.0
230
1.0
 74
     3
  0
ATTDEF
  8
1
  6
CONTINUOUS
 62
     1
  5
88
 10
0.0
 20
0.0
 30
0.0
 40
0.008333
  1
        
  3

  2
TAG200
 70
     0
  7
MONOTXT
 72
     1
 11
0.0
 21
0.0
 31
0.0
210
0.0
220
0.0
230
1.0
 74
     3
  0
ENDBLK
  8
1
  6
CONTINUOUS
 62
     1
  5
89
  0
BLOCK
  8
1
  6
CONTINUOUS
 62
     1
  5
4B3
  2
LDR
 70
     0
 10
0.0
 20
0.0
 30
0.0
  3
LNR
  0
POLYLINE
  8
1
  6
CONTINUOUS
 62
     1
  5
4B4
 66
     1
 10
0.0
 20
0.0
 30
0.0
210
0.0
220
0.0
230
1.0
  0
VERTEX
  8
1
  6
CONTINUOUS
 62
     1
  5
4B5
 10
-0.011987
 20
-0.001802
 30
0.0
 42
-0.265147
  0
VERTEX
  8
1
  6
CONTINUOUS
 62
     1
  5
4B6
 10
-0.011849
 20
-0.001604
 30
0.0
 42
-0.064653
  0
VERTEX
  8
1
  6
CONTINUOUS
 62
     1
  5
4B7
 10
-0.011407
 20
-0.001387
 30
0.0
 42
-0.025822
  0
VERTEX
  8
1
  6
CONTINUOUS
 62
     1
  5
4B8
 10
-0.010681
 20
-0.00116
 30
0.0
 42
-0.014504
  0
VERTEX
  8
1
  6
CONTINUOUS
 62
     1
  5
4B9
 10
-0.0097
 20
-0.000933
 30
0.0
 42
-0.009896
  0
VERTEX
  8
1
  6
CONTINUOUS
 62
     1
  5
4BA
 10
-0.008505
 20
-0.000715
 30
0.0
 42
-0.007708
  0
VERTEX
  8
1
  6
CONTINUOUS
 62
     1
  5
4BB
 10
-0.007146
 20
-0.000515
 30
0.0
 42
-0.006655
  0
VERTEX
  8
1
  6
CONTINUOUS
 62
     1
  5
4BC
 10
-0.005679
 20
-0.000342
 30
0.0
 42
-0.006278
  0
VERTEX
  8
1
  6
CONTINUOUS
 62
     1
  5
4BD
 10
-0.004164
 20
-0.000202
 30
0.0
 42
-0.006439
  0
VERTEX
  8
1
  6
CONTINUOUS
 62
     1
  5
4BE
 10
-0.002666
 20
-0.000101
 30
0.0
 42
-0.007196
  0
VERTEX
  8
1
  6
CONTINUOUS
 62
     1
  5
4BF
 10
-0.001246
 20
-0.000044
 30
0.0
 42
-0.008852
  0
VERTEX
  8
1
  6
CONTINUOUS
 62
     1
  5
4C0
 10
0.000037
 20
-0.000034
 30
0.0
 42
-0.008852
  0
SEQEND
  8
1
  6
CONTINUOUS
 62
     1
  5
4C1
  0
POLYLINE
  8
1
  6
CONTINUOUS
 62
     1
  5
4C2
 66
     1
 10
0.0
 20
0.0
 30
0.0
210
0.0
220
0.0
230
1.0
  0
VERTEX
  8
1
  6
CONTINUOUS
 62
     1
  5
4C3
 10
0.000039
 20
0.000014
 30
0.0
 42
-0.005019
  0
VERTEX
  8
1
  6
CONTINUOUS
 62
     1
  5
4C4
 10
-0.001103
 20
0.000071
 30
0.0
 42
-0.004038
  0
VERTEX
  8
1
  6
CONTINUOUS
 62
     1
  5
4C5
 10
-0.002373
 20
0.000158
 30
0.0
 42
-0.003548
  0
VERTEX
  8
1
  6
CONTINUOUS
 62
     1
  5
4C6
 10
-0.003725
 20
0.00027
 30
0.0
 42
-0.003367
  0
VERTEX
  8
1
  6
CONTINUOUS
 62
     1
  5
4C7
 10
-0.005111
 20
0.000405
 30
0.0
 42
-0.003436
  0
VERTEX
  8
1
  6
CONTINUOUS
 62
     1
  5
4C8
 10
-0.006481
 20
0.000556
 30
0.0
 42
-0.003778
  0
VERTEX
  8
1
  6
CONTINUOUS
 62
     1
  5
4C9
 10
-0.007786
 20
0.00072
 30
0.0
 42
-0.00451
  0
VERTEX
  8
1
  6
CONTINUOUS
 62
     1
  5
4CA
 10
-0.008979
 20
0.000889
 30
0.0
 42
-0.00594
  0
VERTEX
  8
1
  6
CONTINUOUS
 62
     1
  5
4CB
 10
-0.010018
 20
0.001058
 30
0.0
 42
-0.008921
  0
VERTEX
  8
1
  6
CONTINUOUS
 62
     1
  5
4CC
 10
-0.010864
 20
0.00122
 30
0.0
 42
-0.016392
  0
VERTEX
  8
1
  6
CONTINUOUS
 62
     1
  5
4CD
 10
-0.011488
 20
0.001371
 30
0.0
 42
-0.04458
  0
VERTEX
  8
1
  6
CONTINUOUS
 62
     1
  5
4CE
 10
-0.011867
 20
0.001503
 30
0.0
 42
-0.317392
  0
VERTEX
  8
1
  6
CONTINUOUS
 62
     1
  5
4CF
 10
-0.011987
 20
0.001614
 30
0.0
 42
-0.317392
  0
SEQEND
  8
1
  6
CONTINUOUS
 62
     1
  5
4D0
  0
ENDBLK
  8
1
  6
CONTINUOUS
 62
     1
  5
4D1
  0
ENDSEC
  0
SECTION
  2
ENTITIES
  0
INSERT
  8
1
  6
CONTINUOUS
 62
     1
  5
8A
 66
     1
  2
STDBRD
 10
-367.9615
 20
-34.00075
 30
0.0
 41
240.0
 42
240.0
210
0.0
220
0.0
230
1.0
  0
ATTRIB
  8
61
  6
CONTINUOUS
 62
     7
  5
8B
 10
199.6585
 20
375.47925
 30
0.0
 40
2.401333
  1
  
  2
TAG210
 70
     0
 50
0.029406
 41
0.996495
  7
MONOTXT
210
0.0
220
0.0
230
1.0
  0
ATTRIB
  8
61
  6
CONTINUOUS
 62
     7
  5
8C
 10
276.8385
 20
375.19925
 30
0.0
 40
2.40125
  1
   
  2
TAG220
 70
     0
 50
0.011508
 41
1.001041
  7
MONOTXT
210
0.0
220
0.0
230
1.0
  0
ATTRIB
  8
61
  6
CONTINUOUS
 62
     7
  5
8D
 10
286.7185
 20
375.17925
 30
0.0
 40
2.40125
  1
   
  2
TAG230
 70
     0
 50
359.922128
 41
1.00059
  7
MONOTXT
210
0.0
220
0.0
230
1.0
  0
ATTRIB
  8
61
  6
CONTINUOUS
 62
     7
  5
8E
 10
210.0985
 20
378.57925
 30
0.0
 40
2.006667
  1
    
  2
TAG240
 70
     0
 50
0.054383
 41
0.993729
  7
MONOTXT
210
0.0
220
0.0
230
1.0
  0
ATTRIB
  8
61
  6
CONTINUOUS
 62
     7
  5
8F
 10
207.1785
 20
375.55925
 30
0.0
 40
1.9895
  1
       
  2
TAG250
 70
     0
 50
0.064678
 41
1.000963
  7
MONOTXT
210
0.0
220
0.0
230
1.0
  0
ATTRIB
  8
61
  6
CONTINUOUS
 62
     7
  5
90
 10
208.1385
 20
372.65925
 30
0.0
 40
1.9895
  1
      
  2
TAG260
 70
     0
 50
359.958053
 41
1.000293
  7
MONOTXT
210
0.0
220
0.0
230
1.0
  0
ATTRIB
  8
61
  6
CONTINUOUS
 62
     7
  5
91
 10
219.0985
 20
377.29925
 30
0.0
 40
2.40125
  1
           
  2
TAG270
 70
     0
 50
0.011508
 41
0.998785
  7
MONOTXT
210
0.0
220
0.0
230
1.0
  0
ATTRIB
  8
61
  6
CONTINUOUS
 62
     7
  5
92
 10
218.9785
 20
373.63925
 30
0.0
 40
2.40125
  1
           
  2
TAG280
 70
     0
 50
0.011508
 41
0.999618
  7
MONOTXT
210
0.0
220
0.0
230
1.0
  0
ATTRIB
  8
61
  6
CONTINUOUS
 62
     7
  5
93
 10
254.3185
 20
375.37925
 30
0.0
 40
2.006667
  1
          
  2
TAG290
 70
     0
 50
0.009222
 41
0.992816
  7
MONOTXT
210
0.0
220
0.0
230
1.0
  0
ATTRIB
  8
61
  6
CONTINUOUS
 62
     7
  5
94
 10
287.9385
 20
351.37925
 30
0.0
 40
2.40125
  1
     
  2
TAG300
 70
     0
 41
1.001388
  7
MONOTXT
210
0.0
220
0.0
230
1.0
  0
ATTRIB
  8
1
  6
CONTINUOUS
 62
     7
  5
95
 10
148.709417
 20
21.91925
 30
0.0
 40
1.99775
  1
01
  2
TAG310
 70
     0
  7
MONOTXT
210
0.0
220
0.0
230
1.0
  0
ATTRIB
  8
1
  6
CONTINUOUS
 62
     7
  5
96
 10
152.280083
 20
21.91925
 30
0.0
 40
1.99775
  1
00
  2
TAG311
 70
     0
  7
MONOTXT
210
0.0
220
0.0
230
1.0
  0
ATTRIB
  8
1
  6
CONTINUOUS
 62
     7
  5
97
 10
156.700167
 20
21.91925
 30
0.0
 40
1.99775
  1
70
  2
TAG312
 70
     0
  7
MONOTXT
210
0.0
220
0.0
230
1.0
  0
ATTRIB
  8
1
  6
CONTINUOUS
 62
     7
  5
98
 10
258.353833
 20
-19.96075
 30
0.0
 40
6.992667
  1
TES-81
  2
TAG320
 70
     0
  7
txt
210
0.0
220
0.0
230
1.0
  0
ATTRIB
  8
1
  6
CONTINUOUS
 62
     1
  5
99
 10
138.7985
 20
12.85925
 30
0.0
 40
2.0
  1
        
  2
TAG330
 70
     0
  7
MONOTXT
 72
     1
 11
146.465167
 21
14.85925
 31
0.0
210
0.0
220
0.0
230
1.0
 74
     3
  0
ATTRIB
  8
1
  6
CONTINUOUS
 62
     1
  5
9A
 10
138.7785
 20
8.45925
 30
0.0
 40
2.0
  1
        
  2
TAG340
 70
     0
  7
MONOTXT
 72
     1
 11
146.445167
 21
10.45925
 31
0.0
210
0.0
220
0.0
230
1.0
 74
     3
  0
ATTRIB
  8
1
  6
CONTINUOUS
 62
     1
  5
9B
 10
138.7985
 20
4.05925
 30
0.0
 40
2.0
  1
        
  2
TAG350
 70
     0
  7
MONOTXT
 72
     1
 11
146.465167
 21
6.05925
 31
0.0
210
0.0
220
0.0
230
1.0
 74
     3
  0
ATTRIB
  8
1
  6
CONTINUOUS
 62
     1
  5
9C
 10
138.7985
 20
-0.34075
 30
0.0
 40
2.0
  1
        
  2
TAG360
 70
     0
  7
MONOTXT
 72
     1
 11
146.465167
 21
1.65925
 31
0.0
210
0.0
220
0.0
230
1.0
 74
     3
  0
ATTRIB
  8
1
  6
CONTINUOUS
 62
     1
  5
9D
 10
138.6385
 20
-4.94075
 30
0.0
 40
2.0
  1
        
  2
TAG370
 70
     0
  7
MONOTXT
 72
     1
 11
146.305167
 21
-2.94075
 31
0.0
210
0.0
220
0.0
230
1.0
 74
     3
  0
ATTRIB
  8
1
  6
CONTINUOUS
 62
     1
  5
9E
 10
139.680417
 20
-9.42075
 30
0.0
 40
2.0
  1
01-20-93
  2
TAG380
 70
     0
  7
MONOTXT
 72
     1
 11
146.475667
 21
-7.42075
 31
0.0
210
0.0
220
0.0
230
1.0
 74
     3
  0
ATTRIB
  8
1
  6
CONTINUOUS
 62
     1
  5
9F
 10
138.6985
 20
-14.02075
 30
0.0
 40
2.0
  1
        
  2
TAG390
 70
     0
  7
MONOTXT
 72
     1
 11
146.365167
 21
-12.02075
 31
0.0
210
0.0
220
0.0
230
1.0
 74
     3
  0
ATTRIB
  8
1
  6
CONTINUOUS
 62
     1
  5
A0
 10
138.7985
 20
-18.60075
 30
0.0
 40
2.0
  1
        
  2
TAG400
 70
     0
  7
MONOTXT
 72
     1
 11
146.465167
 21
-16.60075
 31
0.0
210
0.0
220
0.0
230
1.0
 74
     3
  0
ATTRIB
  8
1
  6
CONTINUOUS
 62
     1
  5
A1
 10
138.7985
 20
-22.62075
 30
0.0
 40
2.0
  1
        
  2
TAG410
 70
     0
  7
MONOTXT
 72
     1
 11
146.465167
 21
-20.62075
 31
0.0
210
0.0
220
0.0
230
1.0
 74
     3
  0
SEQEND
  8
1
  6
CONTINUOUS
 62
     1
  5
A2
  0
LINE
  8
1
  6
CONTINUOUS
 62
     5
  5
A3
 10
-163.166333
 20
387.655167
 30
0.0
 11
-153.166333
 21
387.655167
 31
0.0
  0
LINE
  8
1
  6
HIDDEN
 62
     5
  5
A4
 10
-164.666333
 20
192.655167
 30
0.0
 11
-151.666333
 21
192.655167
 31
0.0
  0
LINE
  8
1
  6
CONTINUOUS
 62
     5
  5
A5
 10
-163.166333
 20
387.655167
 30
0.0
 11
-163.397083
 21
357.655167
 31
0.0
  0
LINE
  8
1
  6
CONTINUOUS
 62
     5
  5
A6
 10
-153.166333
 20
387.655167
 30
0.0
 11
-152.9355
 21
357.655167
 31
0.0
  0
LINE
  8
1
  6
CONTINUOUS
 62
     5
  5
A7
 10
-188.458667
 20
219.655167
 30
0.0
 11
-124.874
 21
219.655167
 31
0.0
  0
ARC
  8
1
  6
CONTINUOUS
 62
     5
  5
A8
 10
-160.781708
 20
359.743023
 30
0.0
 40
3.34654
 50
218.600403
 51
321.399597
210
0.0
220
0.0
230
1.0
  0
ARC
  8
1
  6
CONTINUOUS
 62
     5
  5
A9
 10
-160.781708
 20
355.56981
 30
0.0
 40
3.34654
 50
38.600403
 51
141.399597
210
0.0
220
0.0
230
1.0
  0
ARC
  8
1
  6
CONTINUOUS
 62
     5
  5
AA
 10
-155.541458
 20
355.56981
 30
0.0
 40
3.34654
 50
38.600403
 51
141.399597
210
0.0
220
0.0
230
1.0
  0
ARC
  8
1
  6
CONTINUOUS
 62
     5
  5
AB
 10
-160.827875
 20
349.56731
 30
0.0
 40
3.34654
 50
38.600403
 51
141.399597
210
0.0
220
0.0
230
1.0
  0
ARC
  8
1
  6
CONTINUOUS
 62
     5
  5
AC
 10
-155.587625
 20
353.740523
 30
0.0
 40
3.34654
 50
218.600403
 51
321.399597
210
0.0
220
0.0
230
1.0
  0
ARC
  8
1
  6
CONTINUOUS
 62
     5
  5
AD
 10
-155.587625
 20
349.56731
 30
0.0
 40
3.34654
 50
38.600403
 51
141.399597
210
0.0
220
0.0
230
1.0
  0
ARC
  8
1
  6
CONTINUOUS
 62
     5
  5
AE
 10
-161.139417
 20
266.868667
 30
0.0
 40
3.70659
 50
216.668181
 51
323.331822
210
0.0
220
0.0
230
1.0
  0
ARC
  8
1
  6
CONTINUOUS
 62
     5
  5
AF
 10
-161.139417
 20
262.458166
 30
0.0
 40
3.70659
 50
36.668178
 51
143.331819
210
0.0
220
0.0
230
1.0
  0
ARC
  8
1
  6
CONTINUOUS
 62
     5
  5
B0
 10
-155.173417
 20
262.458166
 30
0.0
 40
3.70659
 50
36.668181
 51
143.331822
210
0.0
220
0.0
230
1.0
  0
ARC
  8
1
  6
CONTINUOUS
 62
     5
  5
B1
 10
-161.19325
 20
255.441666
 30
0.0
 40
3.70659
 50
36.668178
 51
143.331819
210
0.0
220
0.0
230
1.0
  0
ARC
  8
1
  6
CONTINUOUS
 62
     5
  5
B2
 10
-155.22725
 20
259.852167
 30
0.0
 40
3.70659
 50
216.668178
 51
323.331819
210
0.0
220
0.0
230
1.0
  0
ARC
  8
1
  6
CONTINUOUS
 62
     5
  5
B3
 10
-155.22725
 20
255.441666
 30
0.0
 40
3.70659
 50
36.668181
 51
143.331822
210
0.0
220
0.0
230
1.0
  0
LINE
  8
1
  6
CONTINUOUS
 62
     5
  5
B4
 10
-164.166333
 20
257.655167
 30
0.0
 11
-164.458667
 21
219.655167
 31
0.0
  0
LINE
  8
1
  6
HIDDEN
 62
     5
  5
B5
 10
-164.458667
 20
219.655167
 30
0.0
 11
-164.666333
 21
192.655167
 31
0.0
  0
LINE
  8
1
  6
CONTINUOUS
 62
     5
  5
B6
 10
-152.166333
 20
257.655167
 30
0.0
 11
-151.874
 21
219.655167
 31
0.0
  0
LINE
  8
1
  6
HIDDEN
 62
     5
  5
B7
 10
-151.874
 20
219.655167
 30
0.0
 11
-151.666333
 21
192.655167
 31
0.0
  0
LINE
  8
1
  6
CONTINUOUS
 62
     5
  5
B8
 10
-24.166333
 20
387.655167
 30
0.0
 11
-24.397083
 21
357.655167
 31
0.0
  0
LINE
  8
1
  6
CONTINUOUS
 62
     5
  5
B9
 10
-24.166333
 20
387.655167
 30
0.0
 11
-14.166333
 21
387.655167
 31
0.0
  0
LINE
  8
1
  6
HIDDEN
 62
     5
  5
BA
 10
-25.666333
 20
192.655167
 30
0.0
 11
-12.666333
 21
192.655167
 31
0.0
  0
LINE
  8
1
  6
CONTINUOUS
 62
     5
  5
BB
 10
-14.166333
 20
387.655167
 30
0.0
 11
-13.9355
 21
357.655167
 31
0.0
  0
LINE
  8
1
  6
CONTINUOUS
 62
     5
  5
BC
 10
-49.458667
 20
219.655167
 30
0.0
 11
17.126
 21
219.655167
 31
0.0
  0
ARC
  8
1
  6
CONTINUOUS
 62
     5
  5
BD
 10
-21.781708
 20
359.743023
 30
0.0
 40
3.34654
 50
218.600403
 51
321.399597
210
0.0
220
0.0
230
1.0
  0
ARC
  8
1
  6
CONTINUOUS
 62
     5
  5
BE
 10
-21.781708
 20
355.56981
 30
0.0
 40
3.34654
 50
38.600403
 51
141.399597
210
0.0
220
0.0
230
1.0
  0
ARC
  8
1
  6
CONTINUOUS
 62
     5
  5
BF
 10
-16.541458
 20
355.56981
 30
0.0
 40
3.34654
 50
38.600403
 51
141.399597
210
0.0
220
0.0
230
1.0
  0
ARC
  8
1
  6
CONTINUOUS
 62
     5
  5
C0
 10
-21.827875
 20
349.56731
 30
0.0
 40
3.34654
 50
38.600403
 51
141.399597
210
0.0
220
0.0
230
1.0
  0
ARC
  8
1
  6
CONTINUOUS
 62
     5
  5
C1
 10
-16.587625
 20
353.740523
 30
0.0
 40
3.34654
 50
218.600403
 51
321.399597
210
0.0
220
0.0
230
1.0
  0
ARC
  8
1
  6
CONTINUOUS
 62
     5
  5
C2
 10
-16.587625
 20
349.56731
 30
0.0
 40
3.34654
 50
38.600403
 51
141.399597
210
0.0
220
0.0
230
1.0
  0
ARC
  8
1
  6
CONTINUOUS
 62
     5
  5
C3
 10
-22.139417
 20
266.868667
 30
0.0
 40
3.70659
 50
216.668181
 51
323.331822
210
0.0
220
0.0
230
1.0
  0
ARC
  8
1
  6
CONTINUOUS
 62
     5
  5
C4
 10
-22.139417
 20
262.458166
 30
0.0
 40
3.70659
 50
36.668178
 51
143.331819
210
0.0
220
0.0
230
1.0
  0
ARC
  8
1
  6
CONTINUOUS
 62
     5
  5
C5
 10
-16.173417
 20
262.458166
 30
0.0
 40
3.70659
 50
36.668181
 51
143.331822
210
0.0
220
0.0
230
1.0
  0
ARC
  8
1
  6
CONTINUOUS
 62
     5
  5
C6
 10
-22.19325
 20
255.441666
 30
0.0
 40
3.70659
 50
36.668178
 51
143.331819
210
0.0
220
0.0
230
1.0
  0
ARC
  8
1
  6
CONTINUOUS
 62
     5
  5
C7
 10
-16.22725
 20
259.852167
 30
0.0
 40
3.70659
 50
216.668178
 51
323.331819
210
0.0
220
0.0
230
1.0
  0
ARC
  8
1
  6
CONTINUOUS
 62
     5
  5
C8
 10
-16.22725
 20
255.441666
 30
0.0
 40
3.70659
 50
36.668181
 51
143.331822
210
0.0
220
0.0
230
1.0
  0
LINE
  8
1
  6
CONTINUOUS
 62
     5
  5
C9
 10
-25.166333
 20
257.655167
 30
0.0
 11
-25.458667
 21
219.655167
 31
0.0
  0
LINE
  8
1
  6
HIDDEN
 62
     5
  5
CA
 10
-25.458667
 20
219.655167
 30
0.0
 11
-25.666333
 21
192.655167
 31
0.0
  0
LINE
  8
1
  6
CONTINUOUS
 62
     5
  5
CB
 10
-13.166333
 20
257.655167
 30
0.0
 11
-12.874
 21
219.655167
 31
0.0
  0
LINE
  8
1
  6
HIDDEN
 62
     5
  5
CC
 10
-12.874
 20
219.655167
 30
0.0
 11
-12.666333
 21
192.655167
 31
0.0
  0
LINE
  8
1
  6
CONTINUOUS
 62
     1
  5
CD
 10
-159.704833
 20
317.655167
 30
0.0
 11
-164.704833
 21
317.655167
 31
0.0
  0
LINE
  8
1
  6
CONTINUOUS
 62
     1
  5
CE
 10
-159.704833
 20
310.655167
 30
0.0
 11
-164.704833
 21
310.655167
 31
0.0
  0
LINE
  8
1
  6
CONTINUOUS
 62
     1
  5
CF
 10
-159.704833
 20
317.655167
 30
0.0
 11
-159.704833
 21
310.655167
 31
0.0
  0
LINE
  8
1
  6
CONTINUOUS
 62
     1
  5
D0
 10
-156.622
 20
317.655167
 30
0.0
 11
-156.622
 21
310.655167
 31
0.0
  0
LINE
  8
1
  6
CONTINUOUS
 62
     1
  5
D1
 10
-156.622
 20
317.655167
 30
0.0
 11
-148.622
 21
317.655167
 31
0.0
  0
LINE
  8
1
  6
CONTINUOUS
 62
     1
  5
D2
 10
-156.622
 20
310.655167
 30
0.0
 11
-148.622
 21
310.655167
 31
0.0
  0
LINE
  8
1
  6
CONTINUOUS
 62
     5
  5
D3
 10
-163.44325
 20
351.655167
 30
0.0
 11
-163.70475
 21
317.655167
 31
0.0
  0
LINE
  8
1
  6
CONTINUOUS
 62
     5
  5
D4
 10
-163.758667
 20
310.655167
 30
0.0
 11
-164.1125
 21
264.655167
 31
0.0
  0
LINE
  8
1
  6
CONTINUOUS
 62
     5
  5
D5
 10
-152.889417
 20
351.655167
 30
0.0
 11
-152.627833
 21
317.655167
 31
0.0
  0
LINE
  8
1
  6
CONTINUOUS
 62
     5
  5
D6
 10
-152.574
 20
310.655167
 30
0.0
 11
-152.220167
 21
264.655167
 31
0.0
  0
LINE
  8
1
  6
CONTINUOUS
 62
     1
  5
D7
 10
-164.704833
 20
317.655167
 30
0.0
 11
-164.704833
 21
310.655167
 31
0.0
  0
LINE
  8
1
  6
CONTINUOUS
 62
     1
  5
D8
 10
-151.622
 20
317.655167
 30
0.0
 11
-151.622
 21
310.655167
 31
0.0
  0
LINE
  8
1
  6
CONTINUOUS
 62
     1
  5
D9
 10
-148.622
 20
317.655167
 30
0.0
 11
-148.622
 21
309.655167
 31
0.0
  0
LINE
  8
1
  6
CONTINUOUS
 62
     1
  5
DA
 10
-147.622
 20
318.655167
 30
0.0
 11
-139.622
 21
318.655167
 31
0.0
  0
LINE
  8
1
  6
CONTINUOUS
 62
     1
  5
DB
 10
-147.622
 20
308.655167
 30
0.0
 11
-139.622
 21
308.655167
 31
0.0
  0
ARC
  8
1
  6
CONTINUOUS
 62
     1
  5
DC
 10
-147.622
 20
317.655167
 30
0.0
 40
1.0
 50
90.0
 51
180.0
210
0.0
220
0.0
230
1.0
  0
ARC
  8
1
  6
CONTINUOUS
 62
     1
  5
DD
 10
-147.622
 20
309.655167
 30
0.0
 40
1.0
 50
180.0
 51
270.0
210
0.0
220
0.0
230
1.0
  0
LINE
  8
1
  6
CONTINUOUS
 62
     1
  5
DE
 10
-148.122
 20
317.655167
 30
0.0
 11
-148.122
 21
309.655167
 31
0.0
  0
LINE
  8
1
  6
CONTINUOUS
 62
     1
  5
DF
 10
-147.622
 20
318.155167
 30
0.0
 11
-138.622
 21
318.155167
 31
0.0
  0
LINE
  8
1
  6
CONTINUOUS
 62
     1
  5
E0
 10
-147.622
 20
309.155167
 30
0.0
 11
-139.622
 21
309.155167
 31
0.0
  0
ARC
  8
1
  6
CONTINUOUS
 62
     1
  5
E1
 10
-147.622
 20
317.655167
 30
0.0
 40
0.5
 50
90.0
 51
180.0
210
0.0
220
0.0
230
1.0
  0
ARC
  8
1
  6
CONTINUOUS
 62
     1
  5
E2
 10
-147.622
 20
309.655167
 30
0.0
 40
0.5
 50
180.0
 51
270.0
210
0.0
220
0.0
230
1.0
  0
LINE
  8
1
  6
CONTINUOUS
 62
     1
  5
E3
 10
-139.622
 20
318.655167
 30
0.0
 11
-139.622
 21
318.155167
 31
0.0
  0
LINE
  8
1
  6
CONTINUOUS
 62
     1
  5
E4
 10
-139.622
 20
309.155167
 30
0.0
 11
-139.622
 21
308.655167
 31
0.0
  0
LINE
  8
1
  6
CONTINUOUS
 62
     1
  5
E5
 10
-138.622
 20
317.405167
 30
0.0
 11
-145.622
 21
317.405167
 31
0.0
  0
LINE
  8
1
  6
CONTINUOUS
 62
     1
  5
E6
 10
-138.622
 20
310.405167
 30
0.0
 11
-145.622
 21
310.405167
 31
0.0
  0
LINE
  8
1
  6
CONTINUOUS
 62
     1
  5
E7
 10
-138.622
 20
309.655167
 30
0.0
 11
-145.622
 21
309.655167
 31
0.0
  0
LINE
  8
1
  6
CONTINUOUS
 62
     1
  5
E8
 10
-138.622
 20
318.155167
 30
0.0
 11
-138.622
 21
317.405167
 31
0.0
  0
LINE
  8
1
  6
CONTINUOUS
 62
     1
  5
E9
 10
-138.622
 20
310.405167
 30
0.0
 11
-138.622
 21
309.655167
 31
0.0
  0
LINE
  8
1
  6
CONTINUOUS
 62
     1
  5
EA
 10
-145.622
 20
310.405167
 30
0.0
 11
-145.622
 21
309.655167
 31
0.0
  0
LINE
  8
1
  6
CONTINUOUS
 62
     1
  5
EB
 10
-145.622
 20
318.155167
 30
0.0
 11
-145.622
 21
317.405167
 31
0.0
  0
ARC
  8
1
  6
CONTINUOUS
 62
     1
  5
EC
 10
-152.371128
 20
313.905167
 30
0.0
 40
7.602679
 50
332.589397
 51
27.410597
210
0.0
220
0.0
230
1.0
  0
ARC
  8
1
  6
CONTINUOUS
 62
     1
  5
ED
 10
-131.872872
 20
313.905167
 30
0.0
 40
7.602679
 50
152.589403
 51
207.410603
210
0.0
220
0.0
230
1.0
  0
ARC
  8
1
  6
CONTINUOUS
 62
     1
  5
EE
 10
-142.122
 20
318.313639
 30
0.0
 40
1.295817
 50
15.281514
 51
164.718486
210
0.0
220
0.0
230
1.0
  0
LINE
  8
1
  6
CONTINUOUS
 62
     1
  5
EF
 10
-142.872
 20
307.655167
 30
0.0
 11
-142.872
 21
308.655167
 31
0.0
  0
LINE
  8
1
  6
CONTINUOUS
 62
     1
  5
F0
 10
-141.372
 20
307.655167
 30
0.0
 11
-141.372
 21
308.655167
 31
0.0
  0
LINE
  8
1
  6
CONTINUOUS
 62
     1
  5
F1
 10
-142.872
 20
309.155167
 30
0.0
 11
-142.872
 21
309.655167
 31
0.0
  0
LINE
  8
1
  6
CONTINUOUS
 62
     1
  5
F2
 10
-141.372
 20
309.155167
 30
0.0
 11
-141.372
 21
309.655167
 31
0.0
  0
ARC
  8
1
  6
CONTINUOUS
 62
     1
  5
F3
 10
-142.122
 20
307.750015
 30
0.0
 40
0.755974
 50
187.207633
 51
352.792367
210
0.0
220
0.0
230
1.0
  0
LINE
  8
1
  6
CONTINUOUS
 62
     1
  5
F4
 10
-142.872
 20
308.155167
 30
0.0
 11
-143.225583
 21
308.50875
 31
0.0
  0
LINE
  8
1
  6
CONTINUOUS
 62
     1
  5
F5
 10
-142.872
 20
308.155167
 30
0.0
 11
-143.225583
 21
307.801583
 31
0.0
  0
ARC
  8
1
  6
CONTINUOUS
 62
     1
  5
F6
 10
-141.042237
 20
308.15475
 30
0.0
 40
0.266776
 50
255.192792
 51
104.807206
210
0.0
220
0.0
230
1.0
  0
ARC
  8
1
  6
CONTINUOUS
 62
     1
  5
F7
 10
-140.963169
 20
307.969524
 30
0.0
 40
0.466967
 50
108.380642
 51
151.104706
210
0.0
220
0.0
230
1.0
  0
ARC
  8
1
  6
CONTINUOUS
 62
     1
  5
F8
 10
-140.965404
 20
308.337288
 30
0.0
 40
0.463712
 50
208.737914
 51
251.776731
210
0.0
220
0.0
230
1.0
  0
CIRCLE
  8
1
  6
CONTINUOUS
 62
     1
  5
F9
 10
-142.124333
 20
304.734583
 30
0.0
 40
0.5
210
0.0
220
0.0
230
1.0
  0
CIRCLE
  8
1
  6
CONTINUOUS
 62
     1
  5
FA
 10
-145.712917
 20
313.9155
 30
0.0
 40
0.875
210
0.0
220
0.0
230
1.0
  0
LINE
  8
1
  6
CONTINUOUS
 62
     1
  5
FB
 10
-144.768417
 20
313.905167
 30
0.0
 11
-140.089917
 21
311.908167
 31
0.0
  0
ARC
  8
1
  6
CONTINUOUS
 62
     1
  5
FC
 10
-139.661894
 20
312.489688
 30
0.0
 40
0.72206
 50
233.645436
 51
71.831822
210
0.0
220
0.0
230
1.0
  0
LINE
  8
1
  6
CONTINUOUS
 62
     1
  5
FD
 10
-147.122
 20
315.030167
 30
0.0
 11
-148.122
 21
315.030167
 31
0.0
  0
LINE
  8
1
  6
CONTINUOUS
 62
     1
  5
FE
 10
-147.122
 20
312.780167
 30
0.0
 11
-148.122
 21
312.780167
 31
0.0
  0
LINE
  8
1
  6
CONTINUOUS
 62
     1
  5
FF
 10
-147.122
 20
315.030167
 30
0.0
 11
-147.122
 21
312.780167
 31
0.0
  0
LINE
  8
1
  6
CONTINUOUS
 62
     1
  5
100
 10
-147.122
 20
314.530167
 30
0.0
 11
-148.122
 21
314.530167
 31
0.0
  0
LINE
  8
1
  6
CONTINUOUS
 62
     1
  5
101
 10
-147.122
 20
313.280167
 30
0.0
 11
-148.122
 21
313.280167
 31
0.0
  0
LINE
  8
1
  6
CONTINUOUS
 62
     1
  5
102
 10
-146.508333
 20
314.280167
 30
0.0
 11
-147.122
 21
314.280167
 31
0.0
  0
LINE
  8
1
  6
CONTINUOUS
 62
     1
  5
103
 10
-146.4985
 20
313.530167
 30
0.0
 11
-147.122
 21
313.530167
 31
0.0
  0
CIRCLE
  8
1
  6
CONTINUOUS
 62
     1
  5
104
 10
-145.706667
 20
313.942167
 30
0.0
 40
0.522197
210
0.0
220
0.0
230
1.0
  0
LINE
  8
1
  6
CONTINUOUS
 62
     1
  5
105
 10
-155.622
 20
315.280167
 30
0.0
 11
-156.622
 21
315.280167
 31
0.0
  0
LINE
  8
1
  6
CONTINUOUS
 62
     1
  5
106
 10
-155.622
 20
313.030167
 30
0.0
 11
-156.622
 21
313.030167
 31
0.0
  0
LINE
  8
1
  6
CONTINUOUS
 62
     1
  5
107
 10
-155.622
 20
315.280167
 30
0.0
 11
-155.622
 21
313.030167
 31
0.0
  0
LINE
  8
1
  6
CONTINUOUS
 62
     1
  5
108
 10
-155.622
 20
314.780167
 30
0.0
 11
-156.622
 21
314.780167
 31
0.0
  0
LINE
  8
1
  6
CONTINUOUS
 62
     1
  5
109
 10
-155.622
 20
313.530167
 30
0.0
 11
-156.622
 21
313.530167
 31
0.0
  0
LINE
  8
1
  6
CONTINUOUS
 62
     1
  5
10A
 10
-160.704833
 20
315.280167
 30
0.0
 11
-159.704833
 21
315.280167
 31
0.0
  0
LINE
  8
1
  6
CONTINUOUS
 62
     1
  5
10B
 10
-160.704833
 20
313.030167
 30
0.0
 11
-159.704833
 21
313.030167
 31
0.0
  0
LINE
  8
1
  6
CONTINUOUS
 62
     1
  5
10C
 10
-160.704833
 20
315.280167
 30
0.0
 11
-160.704833
 21
313.030167
 31
0.0
  0
LINE
  8
1
  6
CONTINUOUS
 62
     1
  5
10D
 10
-160.704833
 20
314.780167
 30
0.0
 11
-159.704833
 21
314.780167
 31
0.0
  0
LINE
  8
1
  6
CONTINUOUS
 62
     1
  5
10E
 10
-160.704833
 20
313.530167
 30
0.0
 11
-159.704833
 21
313.530167
 31
0.0
  0
LINE
  8
1
  6
CONTINUOUS
 62
     1
  5
10F
 10
-156.622
 20
314.530167
 30
0.0
 11
-159.704833
 21
314.530167
 31
0.0
  0
LINE
  8
1
  6
CONTINUOUS
 62
     1
  5
110
 10
-160.704833
 20
314.530167
 30
0.0
 11
-162.704833
 21
314.530167
 31
0.0
  0
LINE
  8
1
  6
CONTINUOUS
 62
     1
  5
111
 10
-156.622
 20
313.780167
 30
0.0
 11
-159.704833
 21
313.780167
 31
0.0
  0
LINE
  8
1
  6
CONTINUOUS
 62
     1
  5
112
 10
-160.704833
 20
313.780167
 30
0.0
 11
-162.704833
 21
313.780167
 31
0.0
  0
LINE
  8
1
  6
CONTINUOUS
 62
     1
  5
113
 10
-162.704833
 20
314.530167
 30
0.0
 11
-162.704833
 21
313.780167
 31
0.0
  0
LINE
  8
1
  6
CONTINUOUS
 62
     5
  5
114
 10
-124.874
 20
219.655167
 30
0.0
 11
-124.874
 21
214.655167
 31
0.0
  0
LINE
  8
1
  6
CONTINUOUS
 62
     5
  5
115
 10
-124.874
 20
214.655167
 30
0.0
 11
-116.874
 21
214.655167
 31
0.0
  0
LINE
  8
1
  6
CONTINUOUS
 62
     5
  5
116
 10
-129.874
 20
210.655167
 30
0.0
 11
-116.874
 21
210.655167
 31
0.0
  0
LINE
  8
1
  6
CONTINUOUS
 62
     5
  5
117
 10
-129.874
 20
210.655167
 30
0.0
 11
-129.874
 21
219.655167
 31
0.0
  0
POLYLINE
  8
1
  6
CONTINUOUS
 62
     5
  5
118
 66
     1
 10
0.0
 20
0.0
 30
0.0
  0
VERTEX
  8
1
  6
CONTINUOUS
 62
     5
  5
119
 10
-116.874
 20
214.655167
 30
0.0
  0
VERTEX
  8
1
  6
CONTINUOUS
 62
     5
  5
11A
 10
-116.804833
 20
214.119667
 30
0.0
  0
VERTEX
  8
1
  6
CONTINUOUS
 62
     5
  5
11B
 10
-117.008667
 20
213.68475
 30
0.0
  0
VERTEX
  8
1
  6
CONTINUOUS
 62
     5
  5
11C
 10
-116.79125
 20
213.304083
 30
0.0
  0
VERTEX
  8
1
  6
CONTINUOUS
 62
     5
  5
11D
 10
-116.668917
 20
212.841917
 30
0.0
  0
VERTEX
  8
1
  6
CONTINUOUS
 62
     5
  5
11E
 10
-116.804833
 20
212.407
 30
0.0
  0
VERTEX
  8
1
  6
CONTINUOUS
 62
     5
  5
11F
 10
-116.845583
 20
212.135083
 30
0.0
  0
VERTEX
  8
1
  6
CONTINUOUS
 62
     5
  5
120
 10
-116.95425
 20
211.849667
 30
0.0
  0
VERTEX
  8
1
  6
CONTINUOUS
 62
     5
  5
121
 10
-116.9815
 20
211.550583
 30
0.0
  0
VERTEX
  8
1
  6
CONTINUOUS
 62
     5
  5
122
 10
-116.886333
 20
211.346667
 30
0.0
  0
VERTEX
  8
1
  6
CONTINUOUS
 62
     5
  5
123
 10
-116.87275
 20
211.088417
 30
0.0
  0
VERTEX
  8
1
  6
CONTINUOUS
 62
     5
  5
124
 10
-116.95425
 20
210.721417
 30
0.0
  0
VERTEX
  8
1
  6
CONTINUOUS
 62
     5
  5
125
 10
-116.874
 20
210.655167
 30
0.0
  0
SEQEND
  8
1
  6
CONTINUOUS
 62
     5
  5
126
  0
LINE
  8
1
  6
CONTINUOUS
 62
     5
  5
127
 10
-49.4385
 20
219.655167
 30
0.0
 11
-49.4385
 21
214.655167
 31
0.0
  0
LINE
  8
1
  6
CONTINUOUS
 62
     5
  5
128
 10
-49.4385
 20
214.655167
 30
0.0
 11
-57.4385
 21
214.655167
 31
0.0
  0
LINE
  8
1
  6
CONTINUOUS
 62
     5
  5
129
 10
-44.4385
 20
210.655167
 30
0.0
 11
-57.4385
 21
210.655167
 31
0.0
  0
LINE
  8
1
  6
CONTINUOUS
 62
     5
  5
12A
 10
-44.4385
 20
210.655167
 30
0.0
 11
-44.4385
 21
219.655167
 31
0.0
  0
POLYLINE
  8
1
  6
CONTINUOUS
 62
     5
  5
12B
 66
     1
 10
0.0
 20
0.0
 30
0.0
  0
VERTEX
  8
1
  6
CONTINUOUS
 62
     5
  5
12C
 10
-57.4385
 20
214.655167
 30
0.0
  0
VERTEX
  8
1
  6
CONTINUOUS
 62
     5
  5
12D
 10
-57.507667
 20
214.119667
 30
0.0
  0
VERTEX
  8
1
  6
CONTINUOUS
 62
     5
  5
12E
 10
-57.303833
 20
213.68475
 30
0.0
  0
VERTEX
  8
1
  6
CONTINUOUS
 62
     5
  5
12F
 10
-57.52125
 20
213.304083
 30
0.0
  0
VERTEX
  8
1
  6
CONTINUOUS
 62
     5
  5
130
 10
-57.643583
 20
212.841917
 30
0.0
  0
VERTEX
  8
1
  6
CONTINUOUS
 62
     5
  5
131
 10
-57.507667
 20
212.407
 30
0.0
  0
VERTEX
  8
1
  6
CONTINUOUS
 62
     5
  5
132
 10
-57.466917
 20
212.135083
 30
0.0
  0
VERTEX
  8
1
  6
CONTINUOUS
 62
     5
  5
133
 10
-57.35825
 20
211.849667
 30
0.0
  0
VERTEX
  8
1
  6
CONTINUOUS
 62
     5
  5
134
 10
-57.331
 20
211.550583
 30
0.0
  0
VERTEX
  8
1
  6
CONTINUOUS
 62
     5
  5
135
 10
-57.426167
 20
211.346667
 30
0.0
  0
VERTEX
  8
1
  6
CONTINUOUS
 62
     5
  5
136
 10
-57.43975
 20
211.088417
 30
0.0
  0
VERTEX
  8
1
  6
CONTINUOUS
 62
     5
  5
137
 10
-57.35825
 20
210.721417
 30
0.0
  0
VERTEX
  8
1
  6
CONTINUOUS
 62
     5
  5
138
 10
-57.4385
 20
210.655167
 30
0.0
  0
SEQEND
  8
1
  6
CONTINUOUS
 62
     5
  5
139
  0
POLYLINE
  8
1
  6
CONTINUOUS
 62
     7
  5
13A
 66
     1
 10
0.0
 20
0.0
 30
0.0
  0
VERTEX
  8
1
  6
CONTINUOUS
 62
     7
  5
13B
 10
-126.4155
 20
218.084417
 30
0.0
  0
VERTEX
  8
1
  6
CONTINUOUS
 62
     7
  5
13C
 10
-127.147917
 20
217.528583
 30
0.0
  0
VERTEX
  8
1
  6
CONTINUOUS
 62
     7
  5
13D
 10
-126.33975
 20
217.099083
 30
0.0
  0
VERTEX
  8
1
  6
CONTINUOUS
 62
     7
  5
13E
 10
-126.5165
 20
218.185417
 30
0.0
  0
SEQEND
  8
1
  6
CONTINUOUS
 62
     7
  5
13F
  0
POLYLINE
  8
1
  6
CONTINUOUS
 62
     7
  5
140
 66
     1
 10
0.0
 20
0.0
 30
0.0
  0
VERTEX
  8
1
  6
CONTINUOUS
 62
     7
  5
141
 10
-126.794333
 20
215.507417
 30
0.0
  0
VERTEX
  8
1
  6
CONTINUOUS
 62
     7
  5
142
 10
-126.971167
 20
214.218917
 30
0.0
  0
VERTEX
  8
1
  6
CONTINUOUS
 62
     7
  5
143
 10
-126.188167
 20
214.244167
 30
0.0
  0
VERTEX
  8
1
  6
CONTINUOUS
 62
     7
  5
144
 10
-126.794333
 20
215.507417
 30
0.0
  0
SEQEND
  8
1
  6
CONTINUOUS
 62
     7
  5
145
  0
POLYLINE
  8
1
  6
CONTINUOUS
 62
     7
  5
146
 66
     1
 10
0.0
 20
0.0
 30
0.0
  0
VERTEX
  8
1
  6
CONTINUOUS
 62
     7
  5
147
 10
-124.243417
 20
212.526167
 30
0.0
  0
VERTEX
  8
1
  6
CONTINUOUS
 62
     7
  5
148
 10
-125.733583
 20
211.86925
 30
0.0
  0
VERTEX
  8
1
  6
CONTINUOUS
 62
     7
  5
149
 10
-124.319167
 20
211.76825
 30
0.0
  0
VERTEX
  8
1
  6
CONTINUOUS
 62
     7
  5
14A
 10
-124.243417
 20
212.500917
 30
0.0
  0
SEQEND
  8
1
  6
CONTINUOUS
 62
     7
  5
14B
  0
POLYLINE
  8
1
  6
CONTINUOUS
 62
     7
  5
14C
 66
     1
 10
0.0
 20
0.0
 30
0.0
  0
VERTEX
  8
1
  6
CONTINUOUS
 62
     7
  5
14D
 10
-120.379167
 20
213.258833
 30
0.0
  0
VERTEX
  8
1
  6
CONTINUOUS
 62
     7
  5
14E
 10
-121.035833
 20
212.62725
 30
0.0
  0
VERTEX
  8
1
  6
CONTINUOUS
 62
     7
  5
14F
 10
-120.101417
 20
212.349333
 30
0.0
  0
VERTEX
  8
1
  6
CONTINUOUS
 62
     7
  5
150
 10
-120.42975
 20
213.233583
 30
0.0
  0
SEQEND
  8
1
  6
CONTINUOUS
 62
     7
  5
151
  0
CIRCLE
  8
1
  6
CONTINUOUS
 62
     7
  5
152
 10
-128.057167
 20
213.183
 30
0.0
 40
0.056461
210
0.0
220
0.0
230
1.0
  0
CIRCLE
  8
1
  6
CONTINUOUS
 62
     7
  5
153
 10
-128.5875
 20
216.492667
 30
0.0
 40
0.056461
210
0.0
220
0.0
230
1.0
  0
CIRCLE
  8
1
  6
CONTINUOUS
 62
     7
  5
154
 10
-126.743833
 20
216.492667
 30
0.0
 40
0.056461
210
0.0
220
0.0
230
1.0
  0
CIRCLE
  8
1
  6
CONTINUOUS
 62
     7
  5
155
 10
-125.4305
 20
214.9515
 30
0.0
 40
0.056461
210
0.0
220
0.0
230
1.0
  0
CIRCLE
  8
1
  6
CONTINUOUS
 62
     7
  5
156
 10
-124.748583
 20
213.334583
 30
0.0
 40
0.056461
210
0.0
220
0.0
230
1.0
  0
CIRCLE
  8
1
  6
CONTINUOUS
 62
     7
  5
157
 10
-122.930083
 20
213.7135
 30
0.0
 40
0.056461
210
0.0
220
0.0
230
1.0
  0
CIRCLE
  8
1
  6
CONTINUOUS
 62
     7
  5
158
 10
-120.960083
 20
213.334583
 30
0.0
 40
0.056461
210
0.0
220
0.0
230
1.0
  0
CIRCLE
  8
1
  6
CONTINUOUS
 62
     7
  5
159
 10
-121.6925
 20
212.147083
 30
0.0
 40
0.056461
210
0.0
220
0.0
230
1.0
  0
CIRCLE
  8
1
  6
CONTINUOUS
 62
     7
  5
15A
 10
-120.7075
 20
211.262833
 30
0.0
 40
0.056461
210
0.0
220
0.0
230
1.0
  0
CIRCLE
  8
1
  6
CONTINUOUS
 62
     7
  5
15B
 10
-117.449417
 20
212.34925
 30
0.0
 40
0.056461
210
0.0
220
0.0
230
1.0
  0
CIRCLE
  8
1
  6
CONTINUOUS
 62
     7
  5
15C
 10
-117.828333
 20
213.460917
 30
0.0
 40
0.056461
210
0.0
220
0.0
230
1.0
  0
CIRCLE
  8
1
  6
CONTINUOUS
 62
     7
  5
15D
 10
-118.5355
 20
214.0925
 30
0.0
 40
0.056461
210
0.0
220
0.0
230
1.0
  0
CIRCLE
  8
1
  6
CONTINUOUS
 62
     7
  5
15E
 10
-118.914333
 20
212.8545
 30
0.0
 40
0.056461
210
0.0
220
0.0
230
1.0
  0
CIRCLE
  8
1
  6
CONTINUOUS
 62
     7
  5
15F
 10
-118.358667
 20
211.742917
 30
0.0
 40
0.056461
210
0.0
220
0.0
230
1.0
  0
CIRCLE
  8
1
  6
CONTINUOUS
 62
     7
  5
160
 10
-127.173167
 20
211.389167
 30
0.0
 40
0.056461
210
0.0
220
0.0
230
1.0
  0
CIRCLE
  8
1
  6
CONTINUOUS
 62
     7
  5
161
 10
-128.30975
 20
211.616583
 30
0.0
 40
0.056461
210
0.0
220
0.0
230
1.0
  0
CIRCLE
  8
1
  6
CONTINUOUS
 62
     7
  5
162
 10
-128.890583
 20
212.879833
 30
0.0
 40
0.056461
210
0.0
220
0.0
230
1.0
  0
CIRCLE
  8
1
  6
CONTINUOUS
 62
     7
  5
163
 10
-128.865333
 20
214.06725
 30
0.0
 40
0.056461
210
0.0
220
0.0
230
1.0
  0
CIRCLE
  8
1
  6
CONTINUOUS
 62
     7
  5
164
 10
-128.966417
 20
215.279917
 30
0.0
 40
0.056461
210
0.0
220
0.0
230
1.0
  0
CIRCLE
  8
1
  6
CONTINUOUS
 62
     7
  5
165
 10
-129.168417
 20
216.72
 30
0.0
 40
0.056461
210
0.0
220
0.0
230
1.0
  0
CIRCLE
  8
1
  6
CONTINUOUS
 62
     7
  5
166
 10
-129.117917
 20
218.261167
 30
0.0
 40
0.056461
210
0.0
220
0.0
230
1.0
  0
CIRCLE
  8
1
  6
CONTINUOUS
 62
     7
  5
167
 10
-127.57725
 20
218.8675
 30
0.0
 40
0.056461
210
0.0
220
0.0
230
1.0
  0
CIRCLE
  8
1
  6
CONTINUOUS
 62
     7
  5
168
 10
-125.885083
 20
218.892833
 30
0.0
 40
0.056461
210
0.0
220
0.0
230
1.0
  0
CIRCLE
  8
1
  6
CONTINUOUS
 62
     7
  5
169
 10
-125.35475
 20
218.7665
 30
0.0
 40
0.056461
210
0.0
220
0.0
230
1.0
  0
CIRCLE
  8
1
  6
CONTINUOUS
 62
     7
  5
16A
 10
-125.935583
 20
216.517917
 30
0.0
 40
0.056461
210
0.0
220
0.0
230
1.0
  0
CIRCLE
  8
1
  6
CONTINUOUS
 62
     7
  5
16B
 10
-126.693333
 20
216.21475
 30
0.0
 40
0.056461
210
0.0
220
0.0
230
1.0
  0
CIRCLE
  8
1
  6
CONTINUOUS
 62
     7
  5
16C
 10
-127.855083
 20
215.633667
 30
0.0
 40
0.056461
210
0.0
220
0.0
230
1.0
  0
CIRCLE
  8
1
  6
CONTINUOUS
 62
     7
  5
16D
 10
-128.2845
 20
214.11775
 30
0.0
 40
0.056461
210
0.0
220
0.0
230
1.0
  0
CIRCLE
  8
1
  6
CONTINUOUS
 62
     7
  5
16E
 10
-125.885083
 20
213.031417
 30
0.0
 40
0.056461
210
0.0
220
0.0
230
1.0
  0
CIRCLE
  8
1
  6
CONTINUOUS
 62
     7
  5
16F
 10
-124.975833
 20
213.107167
 30
0.0
 40
0.056461
210
0.0
220
0.0
230
1.0
  0
CIRCLE
  8
1
  6
CONTINUOUS
 62
     7
  5
170
 10
-122.70275
 20
213.031417
 30
0.0
 40
0.056461
210
0.0
220
0.0
230
1.0
  0
CIRCLE
  8
1
  6
CONTINUOUS
 62
     7
  5
171
 10
-122.121917
 20
211.843917
 30
0.0
 40
0.056461
210
0.0
220
0.0
230
1.0
  0
CIRCLE
  8
1
  6
CONTINUOUS
 62
     7
  5
172
 10
-122.854333
 20
211.641833
 30
0.0
 40
0.056461
210
0.0
220
0.0
230
1.0
  0
CIRCLE
  8
1
  6
CONTINUOUS
 62
     7
  5
173
 10
-123.308917
 20
211.212333
 30
0.0
 40
0.056461
210
0.0
220
0.0
230
1.0
  0
CIRCLE
  8
1
  6
CONTINUOUS
 62
     7
  5
174
 10
-120.68225
 20
211.389167
 30
0.0
 40
0.056461
210
0.0
220
0.0
230
1.0
  0
CIRCLE
  8
1
  6
CONTINUOUS
 62
     7
  5
175
 10
-118.055583
 20
211.8945
 30
0.0
 40
0.056461
210
0.0
220
0.0
230
1.0
  0
CIRCLE
  8
1
  6
CONTINUOUS
 62
     7
  5
176
 10
-117.449417
 20
211.692333
 30
0.0
 40
0.056461
210
0.0
220
0.0
230
1.0
  0
CIRCLE
  8
1
  6
CONTINUOUS
 62
     7
  5
177
 10
-118.080833
 20
212.955583
 30
0.0
 40
0.056461
210
0.0
220
0.0
230
1.0
  0
CIRCLE
  8
1
  6
CONTINUOUS
 62
     7
  5
178
 10
-119.672
 20
213.536667
 30
0.0
 40
0.056461
210
0.0
220
0.0
230
1.0
  0
CIRCLE
  8
1
  6
CONTINUOUS
 62
     7
  5
179
 10
-121.5915
 20
213.7135
 30
0.0
 40
0.056461
210
0.0
220
0.0
230
1.0
  0
CIRCLE
  8
1
  6
CONTINUOUS
 62
     7
  5
17A
 10
-123.511
 20
212.980833
 30
0.0
 40
0.056461
210
0.0
220
0.0
230
1.0
  0
CIRCLE
  8
1
  6
CONTINUOUS
 62
     7
  5
17B
 10
-126.743833
 20
213.309333
 30
0.0
 40
0.056461
210
0.0
220
0.0
230
1.0
  0
CIRCLE
  8
1
  6
CONTINUOUS
 62
     7
  5
17C
 10
-126.6175
 20
212.34925
 30
0.0
 40
0.056461
210
0.0
220
0.0
230
1.0
  0
CIRCLE
  8
1
  6
CONTINUOUS
 62
     7
  5
17D
 10
-126.188167
 20
213.738833
 30
0.0
 40
0.056461
210
0.0
220
0.0
230
1.0
  0
CIRCLE
  8
1
  6
CONTINUOUS
 62
     7
  5
17E
 10
-127.880333
 20
217.9075
 30
0.0
 40
0.056461
210
0.0
220
0.0
230
1.0
  0
CIRCLE
  8
1
  6
CONTINUOUS
 62
     7
  5
17F
 10
-128.638083
 20
218.715917
 30
0.0
 40
0.056461
210
0.0
220
0.0
230
1.0
  0
CIRCLE
  8
1
  6
CONTINUOUS
 62
     7
  5
180
 10
-129.44625
 20
218.185417
 30
0.0
 40
0.056461
210
0.0
220
0.0
230
1.0
  0
CIRCLE
  8
1
  6
CONTINUOUS
 62
     7
  5
181
 10
-128.840083
 20
213.20825
 30
0.0
 40
0.056461
210
0.0
220
0.0
230
1.0
  0
CIRCLE
  8
1
  6
CONTINUOUS
 62
     7
  5
182
 10
-129.3275
 20
211.883333
 30
0.0
 40
0.056461
210
0.0
220
0.0
230
1.0
  0
CIRCLE
  8
1
  6
CONTINUOUS
 62
     7
  5
183
 10
-128.569417
 20
210.88025
 30
0.0
 40
0.056461
210
0.0
220
0.0
230
1.0
  0
CIRCLE
  8
1
  6
CONTINUOUS
 62
     7
  5
184
 10
-122.45025
 20
211.1365
 30
0.0
 40
0.056461
210
0.0
220
0.0
230
1.0
  0
CIRCLE
  8
1
  6
CONTINUOUS
 62
     7
  5
185
 10
-118.030333
 20
211.869167
 30
0.0
 40
0.056461
210
0.0
220
0.0
230
1.0
  0
CIRCLE
  8
1
  6
CONTINUOUS
 62
     7
  5
186
 10
-118.964833
 20
211.11125
 30
0.0
 40
0.056461
210
0.0
220
0.0
230
1.0
  0
CIRCLE
  8
1
  6
CONTINUOUS
 62
     7
  5
187
 10
-125.809333
 20
211.313417
 30
0.0
 40
0.056461
210
0.0
220
0.0
230
1.0
  0
CIRCLE
  8
1
  6
CONTINUOUS
 62
     7
  5
188
 10
-117.601
 20
211.566
 30
0.0
 40
0.056461
210
0.0
220
0.0
230
1.0
  0
POLYLINE
  8
1
  6
CONTINUOUS
 62
     7
  5
189
 66
     1
 10
0.0
 20
0.0
 30
0.0
  0
VERTEX
  8
1
  6
CONTINUOUS
 62
     7
  5
18A
 10
-46.410333
 20
218.084417
 30
0.0
  0
VERTEX
  8
1
  6
CONTINUOUS
 62
     7
  5
18B
 10
-47.14275
 20
217.528583
 30
0.0
  0
VERTEX
  8
1
  6
CONTINUOUS
 62
     7
  5
18C
 10
-46.334583
 20
217.099083
 30
0.0
  0
VERTEX
  8
1
  6
CONTINUOUS
 62
     7
  5
18D
 10
-46.511333
 20
218.185417
 30
0.0
  0
SEQEND
  8
1
  6
CONTINUOUS
 62
     7
  5
18E
  0
POLYLINE
  8
1
  6
CONTINUOUS
 62
     7
  5
18F
 66
     1
 10
0.0
 20
0.0
 30
0.0
  0
VERTEX
  8
1
  6
CONTINUOUS
 62
     7
  5
190
 10
-47.116083
 20
213.79075
 30
0.0
  0
VERTEX
  8
1
  6
CONTINUOUS
 62
     7
  5
191
 10
-47.292917
 20
212.50225
 30
0.0
  0
VERTEX
  8
1
  6
CONTINUOUS
 62
     7
  5
192
 10
-46.509917
 20
212.5275
 30
0.0
  0
VERTEX
  8
1
  6
CONTINUOUS
 62
     7
  5
193
 10
-47.116083
 20
213.79075
 30
0.0
  0
SEQEND
  8
1
  6
CONTINUOUS
 62
     7
  5
194
  0
POLYLINE
  8
1
  6
CONTINUOUS
 62
     7
  5
195
 66
     1
 10
0.0
 20
0.0
 30
0.0
  0
VERTEX
  8
1
  6
CONTINUOUS
 62
     7
  5
196
 10
-51.569833
 20
213.013583
 30
0.0
  0
VERTEX
  8
1
  6
CONTINUOUS
 62
     7
  5
197
 10
-52.2265
 20
212.382
 30
0.0
  0
VERTEX
  8
1
  6
CONTINUOUS
 62
     7
  5
198
 10
-51.292083
 20
212.104083
 30
0.0
  0
VERTEX
  8
1
  6
CONTINUOUS
 62
     7
  5
199
 10
-51.620417
 20
212.988333
 30
0.0
  0
SEQEND
  8
1
  6
CONTINUOUS
 62
     7
  5
19A
  0
POLYLINE
  8
1
  6
CONTINUOUS
 62
     7
  5
19B
 66
     1
 10
0.0
 20
0.0
 30
0.0
  0
VERTEX
  8
1
  6
CONTINUOUS
 62
     7
  5
19C
 10
-54.862
 20
213.343667
 30
0.0
  0
VERTEX
  8
1
  6
CONTINUOUS
 62
     7
  5
19D
 10
-56.352167
 20
212.68675
 30
0.0
  0
VERTEX
  8
1
  6
CONTINUOUS
 62
     7
  5
19E
 10
-54.93775
 20
212.58575
 30
0.0
  0
VERTEX
  8
1
  6
CONTINUOUS
 62
     7
  5
19F
 10
-54.862
 20
213.318417
 30
0.0
  0
SEQEND
  8
1
  6
CONTINUOUS
 62
     7
  5
1A0
  0
CIRCLE
  8
1
  6
CONTINUOUS
 62
     7
  5
1A1
 10
-49.614333
 20
212.637583
 30
0.0
 40
0.056461
210
0.0
220
0.0
230
1.0
  0
CIRCLE
  8
1
  6
CONTINUOUS
 62
     7
  5
1A2
 10
-51.950167
 20
213.649333
 30
0.0
 40
0.056461
210
0.0
220
0.0
230
1.0
  0
CIRCLE
  8
1
  6
CONTINUOUS
 62
     7
  5
1A3
 10
-53.852583
 20
213.649333
 30
0.0
 40
0.056461
210
0.0
220
0.0
230
1.0
  0
CIRCLE
  8
1
  6
CONTINUOUS
 62
     7
  5
1A4
 10
-53.924833
 20
211.818583
 30
0.0
 40
0.056461
210
0.0
220
0.0
230
1.0
  0
CIRCLE
  8
1
  6
CONTINUOUS
 62
     7
  5
1A5
 10
-53.659917
 20
211.360917
 30
0.0
 40
0.056461
210
0.0
220
0.0
230
1.0
  0
CIRCLE
  8
1
  6
CONTINUOUS
 62
     7
  5
1A6
 10
-56.26075
 20
211.071833
 30
0.0
 40
0.056461
210
0.0
220
0.0
230
1.0
  0
CIRCLE
  8
1
  6
CONTINUOUS
 62
     7
  5
1A7
 10
-57.031333
 20
211.577667
 30
0.0
 40
0.056461
210
0.0
220
0.0
230
1.0
  0
CIRCLE
  8
1
  6
CONTINUOUS
 62
     7
  5
1A8
 10
-57.0795
 20
213.191667
 30
0.0
 40
0.056461
210
0.0
220
0.0
230
1.0
  0
CIRCLE
  8
1
  6
CONTINUOUS
 62
     7
  5
1A9
 10
-56.308917
 20
213.914333
 30
0.0
 40
0.056461
210
0.0
220
0.0
230
1.0
  0
CIRCLE
  8
1
  6
CONTINUOUS
 62
     7
  5
1AA
 10
-52.86525
 20
212.854417
 30
0.0
 40
0.056461
210
0.0
220
0.0
230
1.0
  0
CIRCLE
  8
1
  6
CONTINUOUS
 62
     7
  5
1AB
 10
-52.311417
 20
211.385
 30
0.0
 40
0.056461
210
0.0
220
0.0
230
1.0
  0
CIRCLE
  8
1
  6
CONTINUOUS
 62
     7
  5
1AC
 10
-50.04775
 20
211.19225
 30
0.0
 40
0.056461
210
0.0
220
0.0
230
1.0
  0
CIRCLE
  8
1
  6
CONTINUOUS
 62
     7
  5
1AD
 10
-48.313917
 20
212.035417
 30
0.0
 40
0.056461
210
0.0
220
0.0
230
1.0
  0
CIRCLE
  8
1
  6
CONTINUOUS
 62
     7
  5
1AE
 10
-48.458417
 20
213.528917
 30
0.0
 40
0.056461
210
0.0
220
0.0
230
1.0
  0
CIRCLE
  8
1
  6
CONTINUOUS
 62
     7
  5
1AF
 10
-47.760083
 20
214.70925
 30
0.0
 40
0.056461
210
0.0
220
0.0
230
1.0
  0
CIRCLE
  8
1
  6
CONTINUOUS
 62
     7
  5
1B0
 10
-46.531917
 20
215.696917
 30
0.0
 40
0.056461
210
0.0
220
0.0
230
1.0
  0
CIRCLE
  8
1
  6
CONTINUOUS
 62
     7
  5
1B1
 10
-46.074333
 20
215.672833
 30
0.0
 40
0.056461
210
0.0
220
0.0
230
1.0
  0
CIRCLE
  8
1
  6
CONTINUOUS
 62
     7
  5
1B2
 10
-47.711917
 20
215.745083
 30
0.0
 40
0.056461
210
0.0
220
0.0
230
1.0
  0
CIRCLE
  8
1
  6
CONTINUOUS
 62
     7
  5
1B3
 10
-48.458417
 20
216.901417
 30
0.0
 40
0.056461
210
0.0
220
0.0
230
1.0
  0
CIRCLE
  8
1
  6
CONTINUOUS
 62
     7
  5
1B4
 10
-48.819667
 20
218.033583
 30
0.0
 40
0.056461
210
0.0
220
0.0
230
1.0
  0
CIRCLE
  8
1
  6
CONTINUOUS
 62
     7
  5
1B5
 10
-47.904583
 20
219.0935
 30
0.0
 40
0.056461
210
0.0
220
0.0
230
1.0
  0
CIRCLE
  8
1
  6
CONTINUOUS
 62
     7
  5
1B6
 10
-46.556
 20
219.069417
 30
0.0
 40
0.056461
210
0.0
220
0.0
230
1.0
  0
CIRCLE
  8
1
  6
CONTINUOUS
 62
     7
  5
1B7
 10
-44.99075
 20
218.587583
 30
0.0
 40
0.056461
210
0.0
220
0.0
230
1.0
  0
CIRCLE
  8
1
  6
CONTINUOUS
 62
     7
  5
1B8
 10
-44.653583
 20
217.383167
 30
0.0
 40
0.056461
210
0.0
220
0.0
230
1.0
  0
CIRCLE
  8
1
  6
CONTINUOUS
 62
     7
  5
1B9
 10
-45.400083
 20
216.202833
 30
0.0
 40
0.056461
210
0.0
220
0.0
230
1.0
  0
CIRCLE
  8
1
  6
CONTINUOUS
 62
     7
  5
1BA
 10
-45.713167
 20
214.131167
 30
0.0
 40
0.056461
210
0.0
220
0.0
230
1.0
  0
CIRCLE
  8
1
  6
CONTINUOUS
 62
     7
  5
1BB
 10
-45.857667
 20
212.6135
 30
0.0
 40
0.056461
210
0.0
220
0.0
230
1.0
  0
CIRCLE
  8
1
  6
CONTINUOUS
 62
     7
  5
1BC
 10
-47.109833
 20
213.769833
 30
0.0
 40
0.056461
210
0.0
220
0.0
230
1.0
  0
CIRCLE
  8
1
  6
CONTINUOUS
 62
     7
  5
1BD
 10
-44.749917
 20
211.45725
 30
0.0
 40
0.056461
210
0.0
220
0.0
230
1.0
  0
CIRCLE
  8
1
  6
CONTINUOUS
 62
     7
  5
1BE
 10
-44.84625
 20
211.264583
 30
0.0
 40
0.056461
210
0.0
220
0.0
230
1.0
  0
CIRCLE
  8
1
  6
CONTINUOUS
 62
     7
  5
1BF
 10
-46.242917
 20
211.264583
 30
0.0
 40
0.056461
210
0.0
220
0.0
230
1.0
  0
CIRCLE
  8
1
  6
CONTINUOUS
 62
     7
  5
1C0
 10
-47.832333
 20
211.65
 30
0.0
 40
0.056461
210
0.0
220
0.0
230
1.0
  0
CIRCLE
  8
1
  6
CONTINUOUS
 62
     7
  5
1C1
 10
-49.614333
 20
213.288
 30
0.0
 40
0.056461
210
0.0
220
0.0
230
1.0
  0
CIRCLE
  8
1
  6
CONTINUOUS
 62
     7
  5
1C2
 10
-51.251833
 20
213.07125
 30
0.0
 40
0.056461
210
0.0
220
0.0
230
1.0
  0
CIRCLE
  8
1
  6
CONTINUOUS
 62
     7
  5
1C3
 10
-50.601667
 20
214.03475
 30
0.0
 40
0.056461
210
0.0
220
0.0
230
1.0
  0
CIRCLE
  8
1
  6
CONTINUOUS
 62
     7
  5
1C4
 10
-53.057917
 20
213.4085
 30
0.0
 40
0.056461
210
0.0
220
0.0
230
1.0
  0
CIRCLE
  8
1
  6
CONTINUOUS
 62
     7
  5
1C5
 10
-55.056667
 20
213.36025
 30
0.0
 40
0.056461
210
0.0
220
0.0
230
1.0
  0
CIRCLE
  8
1
  6
CONTINUOUS
 62
     7
  5
1C6
 10
-54.767667
 20
211.505417
 30
0.0
 40
0.056461
210
0.0
220
0.0
230
1.0
  0
CIRCLE
  8
1
  6
CONTINUOUS
 62
     7
  5
1C7
 10
-55.586417
 20
211.505417
 30
0.0
 40
0.056461
210
0.0
220
0.0
230
1.0
  0
POLYLINE
  8
1
  6
CONTINUOUS
 62
     7
  5
1C8
 66
     1
 10
0.0
 20
0.0
 30
0.0
  0
VERTEX
  8
1
  6
CONTINUOUS
 62
     7
  5
1C9
 10
-187.2875
 20
219.290167
 30
0.0
  0
VERTEX
  8
1
  6
CONTINUOUS
 62
     7
  5
1CA
 10
-188.218167
 20
218.35925
 30
0.0
  0
VERTEX
  8
1
  6
CONTINUOUS
 62
     7
  5
1CB
 10
-189.215333
 20
216.76325
 30
0.0
  0
VERTEX
  8
1
  6
CONTINUOUS
 62
     7
  5
1CC
 10
-189.680667
 20
215.832333
 30
0.0
  0
SEQEND
  8
1
  6
CONTINUOUS
 62
     7
  5
1CD
  0
POLYLINE
  8
1
  6
CONTINUOUS
 62
     7
  5
1CE
 66
     1
 10
0.0
 20
0.0
 30
0.0
  0
VERTEX
  8
1
  6
CONTINUOUS
 62
     7
  5
1CF
 10
-186.024417
 20
218.75825
 30
0.0
  0
VERTEX
  8
1
  6
CONTINUOUS
 62
     7
  5
1D0
 10
-187.154583
 20
217.89375
 30
0.0
  0
VERTEX
  8
1
  6
CONTINUOUS
 62
     7
  5
1D1
 10
-187.486917
 20
216.96275
 30
0.0
  0
VERTEX
  8
1
  6
CONTINUOUS
 62
     7
  5
1D2
 10
-188.01875
 20
216.164833
 30
0.0
  0
VERTEX
  8
1
  6
CONTINUOUS
 62
     7
  5
1D3
 10
-188.351083
 20
215.965333
 30
0.0
  0
SEQEND
  8
1
  6
CONTINUOUS
 62
     7
  5
1D4
  0
POLYLINE
  8
1
  6
CONTINUOUS
 62
     7
  5
1D5
 66
     1
 10
0.0
 20
0.0
 30
0.0
  0
VERTEX
  8
1
  6
CONTINUOUS
 62
     7
  5
1D6
 10
-185.027333
 20
217.89375
 30
0.0
  0
VERTEX
  8
1
  6
CONTINUOUS
 62
     7
  5
1D7
 10
-186.62275
 20
216.56375
 30
0.0
  0
VERTEX
  8
1
  6
CONTINUOUS
 62
     7
  5
1D8
 10
-186.755667
 20
215.632833
 30
0.0
  0
VERTEX
  8
1
  6
CONTINUOUS
 62
     7
  5
1D9
 10
-187.088083
 20
214.635333
 30
0.0
  0
VERTEX
  8
1
  6
CONTINUOUS
 62
     7
  5
1DA
 10
-187.819333
 20
214.036833
 30
0.0
  0
SEQEND
  8
1
  6
CONTINUOUS
 62
     7
  5
1DB
  0
POLYLINE
  8
1
  6
CONTINUOUS
 62
     7
  5
1DC
 66
     1
 10
0.0
 20
0.0
 30
0.0
  0
VERTEX
  8
1
  6
CONTINUOUS
 62
     7
  5
1DD
 10
-185.426167
 20
217.29525
 30
0.0
  0
VERTEX
  8
1
  6
CONTINUOUS
 62
     7
  5
1DE
 10
-184.229583
 20
216.164833
 30
0.0
  0
VERTEX
  8
1
  6
CONTINUOUS
 62
     7
  5
1DF
 10
-183.0995
 20
215.233833
 30
0.0
  0
VERTEX
  8
1
  6
CONTINUOUS
 62
     7
  5
1E0
 10
-181.637
 20
214.169833
 30
0.0
  0
SEQEND
  8
1
  6
CONTINUOUS
 62
     7
  5
1E1
  0
POLYLINE
  8
1
  6
CONTINUOUS
 62
     7
  5
1E2
 66
     1
 10
0.0
 20
0.0
 30
0.0
  0
VERTEX
  8
1
  6
CONTINUOUS
 62
     7
  5
1E3
 10
-186.62275
 20
215.832333
 30
0.0
  0
VERTEX
  8
1
  6
CONTINUOUS
 62
     7
  5
1E4
 10
-185.492667
 20
214.369333
 30
0.0
  0
VERTEX
  8
1
  6
CONTINUOUS
 62
     7
  5
1E5
 10
-183.963667
 20
214.103333
 30
0.0
  0
VERTEX
  8
1
  6
CONTINUOUS
 62
     7
  5
1E6
 10
-182.23525
 20
213.172417
 30
0.0
  0
VERTEX
  8
1
  6
CONTINUOUS
 62
     7
  5
1E7
 10
-182.168833
 20
212.972917
 30
0.0
  0
SEQEND
  8
1
  6
CONTINUOUS
 62
     7
  5
1E8
  0
POLYLINE
  8
1
  6
CONTINUOUS
 62
     7
  5
1E9
 66
     1
 10
0.0
 20
0.0
 30
0.0
  0
VERTEX
  8
1
  6
CONTINUOUS
 62
     7
  5
1EA
 10
-187.154583
 20
214.169833
 30
0.0
  0
VERTEX
  8
1
  6
CONTINUOUS
 62
     7
  5
1EB
 10
-184.429
 20
212.440917
 30
0.0
  0
VERTEX
  8
1
  6
CONTINUOUS
 62
     7
  5
1EC
 10
-183.963667
 20
212.174917
 30
0.0
  0
SEQEND
  8
1
  6
CONTINUOUS
 62
     7
  5
1ED
  0
POLYLINE
  8
1
  6
CONTINUOUS
 62
     7
  5
1EE
 66
     1
 10
0.0
 20
0.0
 30
0.0
  0
VERTEX
  8
1
  6
CONTINUOUS
 62
     7
  5
1EF
 10
-180.307583
 20
219.356667
 30
0.0
  0
VERTEX
  8
1
  6
CONTINUOUS
 62
     7
  5
1F0
 10
-181.23825
 20
218.42575
 30
0.0
  0
VERTEX
  8
1
  6
CONTINUOUS
 62
     7
  5
1F1
 10
-182.235417
 20
216.82975
 30
0.0
  0
VERTEX
  8
1
  6
CONTINUOUS
 62
     7
  5
1F2
 10
-182.70075
 20
215.898833
 30
0.0
  0
SEQEND
  8
1
  6
CONTINUOUS
 62
     7
  5
1F3
  0
POLYLINE
  8
1
  6
CONTINUOUS
 62
     7
  5
1F4
 66
     1
 10
0.0
 20
0.0
 30
0.0
  0
VERTEX
  8
1
  6
CONTINUOUS
 62
     7
  5
1F5
 10
-179.0445
 20
218.82475
 30
0.0
  0
VERTEX
  8
1
  6
CONTINUOUS
 62
     7
  5
1F6
 10
-180.174667
 20
217.96025
 30
0.0
  0
VERTEX
  8
1
  6
CONTINUOUS
 62
     7
  5
1F7
 10
-180.507
 20
217.02925
 30
0.0
  0
VERTEX
  8
1
  6
CONTINUOUS
 62
     7
  5
1F8
 10
-181.038833
 20
216.231333
 30
0.0
  0
VERTEX
  8
1
  6
CONTINUOUS
 62
     7
  5
1F9
 10
-181.371167
 20
216.031833
 30
0.0
  0
SEQEND
  8
1
  6
CONTINUOUS
 62
     7
  5
1FA
  0
POLYLINE
  8
1
  6
CONTINUOUS
 62
     7
  5
1FB
 66
     1
 10
0.0
 20
0.0
 30
0.0
  0
VERTEX
  8
1
  6
CONTINUOUS
 62
     7
  5
1FC
 10
-178.047417
 20
217.96025
 30
0.0
  0
VERTEX
  8
1
  6
CONTINUOUS
 62
     7
  5
1FD
 10
-179.642833
 20
216.63025
 30
0.0
  0
VERTEX
  8
1
  6
CONTINUOUS
 62
     7
  5
1FE
 10
-179.77575
 20
215.699333
 30
0.0
  0
VERTEX
  8
1
  6
CONTINUOUS
 62
     7
  5
1FF
 10
-180.108167
 20
214.701833
 30
0.0
  0
VERTEX
  8
1
  6
CONTINUOUS
 62
     7
  5
200
 10
-180.839417
 20
214.103333
 30
0.0
  0
SEQEND
  8
1
  6
CONTINUOUS
 62
     7
  5
201
  0
POLYLINE
  8
1
  6
CONTINUOUS
 62
     7
  5
202
 66
     1
 10
0.0
 20
0.0
 30
0.0
  0
VERTEX
  8
1
  6
CONTINUOUS
 62
     7
  5
203
 10
-178.44625
 20
217.36175
 30
0.0
  0
VERTEX
  8
1
  6
CONTINUOUS
 62
     7
  5
204
 10
-177.249667
 20
216.231333
 30
0.0
  0
VERTEX
  8
1
  6
CONTINUOUS
 62
     7
  5
205
 10
-176.119583
 20
215.300333
 30
0.0
  0
VERTEX
  8
1
  6
CONTINUOUS
 62
     7
  5
206
 10
-174.657083
 20
214.236333
 30
0.0
  0
SEQEND
  8
1
  6
CONTINUOUS
 62
     7
  5
207
  0
POLYLINE
  8
1
  6
CONTINUOUS
 62
     7
  5
208
 66
     1
 10
0.0
 20
0.0
 30
0.0
  0
VERTEX
  8
1
  6
CONTINUOUS
 62
     7
  5
209
 10
-179.642833
 20
215.898833
 30
0.0
  0
VERTEX
  8
1
  6
CONTINUOUS
 62
     7
  5
20A
 10
-178.51275
 20
214.435833
 30
0.0
  0
VERTEX
  8
1
  6
CONTINUOUS
 62
     7
  5
20B
 10
-176.98375
 20
214.169833
 30
0.0
  0
VERTEX
  8
1
  6
CONTINUOUS
 62
     7
  5
20C
 10
-175.255333
 20
213.238917
 30
0.0
  0
VERTEX
  8
1
  6
CONTINUOUS
 62
     7
  5
20D
 10
-175.188917
 20
213.039417
 30
0.0
  0
SEQEND
  8
1
  6
CONTINUOUS
 62
     7
  5
20E
  0
POLYLINE
  8
1
  6
CONTINUOUS
 62
     7
  5
20F
 66
     1
 10
0.0
 20
0.0
 30
0.0
  0
VERTEX
  8
1
  6
CONTINUOUS
 62
     7
  5
210
 10
-180.174667
 20
214.236333
 30
0.0
  0
VERTEX
  8
1
  6
CONTINUOUS
 62
     7
  5
211
 10
-177.449083
 20
212.507417
 30
0.0
  0
VERTEX
  8
1
  6
CONTINUOUS
 62
     7
  5
212
 10
-176.98375
 20
212.241417
 30
0.0
  0
SEQEND
  8
1
  6
CONTINUOUS
 62
     7
  5
213
  0
POLYLINE
  8
1
  6
CONTINUOUS
 62
     7
  5
214
 66
     1
 10
0.0
 20
0.0
 30
0.0
  0
VERTEX
  8
1
  6
CONTINUOUS
 62
     7
  5
215
 10
-172.729167
 20
219.157167
 30
0.0
  0
VERTEX
  8
1
  6
CONTINUOUS
 62
     7
  5
216
 10
-173.659833
 20
218.22625
 30
0.0
  0
VERTEX
  8
1
  6
CONTINUOUS
 62
     7
  5
217
 10
-174.657
 20
216.63025
 30
0.0
  0
VERTEX
  8
1
  6
CONTINUOUS
 62
     7
  5
218
 10
-175.122333
 20
215.699333
 30
0.0
  0
SEQEND
  8
1
  6
CONTINUOUS
 62
     7
  5
219
  0
POLYLINE
  8
1
  6
CONTINUOUS
 62
     7
  5
21A
 66
     1
 10
0.0
 20
0.0
 30
0.0
  0
VERTEX
  8
1
  6
CONTINUOUS
 62
     7
  5
21B
 10
-171.466083
 20
218.62525
 30
0.0
  0
VERTEX
  8
1
  6
CONTINUOUS
 62
     7
  5
21C
 10
-172.59625
 20
217.76075
 30
0.0
  0
VERTEX
  8
1
  6
CONTINUOUS
 62
     7
  5
21D
 10
-172.928583
 20
216.82975
 30
0.0
  0
VERTEX
  8
1
  6
CONTINUOUS
 62
     7
  5
21E
 10
-173.460417
 20
216.031833
 30
0.0
  0
VERTEX
  8
1
  6
CONTINUOUS
 62
     7
  5
21F
 10
-173.79275
 20
215.832333
 30
0.0
  0
SEQEND
  8
1
  6
CONTINUOUS
 62
     7
  5
220
  0
POLYLINE
  8
1
  6
CONTINUOUS
 62
     7
  5
221
 66
     1
 10
0.0
 20
0.0
 30
0.0
  0
VERTEX
  8
1
  6
CONTINUOUS
 62
     7
  5
222
 10
-170.469
 20
217.76075
 30
0.0
  0
VERTEX
  8
1
  6
CONTINUOUS
 62
     7
  5
223
 10
-172.064417
 20
216.43075
 30
0.0
  0
VERTEX
  8
1
  6
CONTINUOUS
 62
     7
  5
224
 10
-172.197333
 20
215.499833
 30
0.0
  0
VERTEX
  8
1
  6
CONTINUOUS
 62
     7
  5
225
 10
-172.52975
 20
214.502333
 30
0.0
  0
VERTEX
  8
1
  6
CONTINUOUS
 62
     7
  5
226
 10
-173.261
 20
213.903833
 30
0.0
  0
SEQEND
  8
1
  6
CONTINUOUS
 62
     7
  5
227
  0
POLYLINE
  8
1
  6
CONTINUOUS
 62
     7
  5
228
 66
     1
 10
0.0
 20
0.0
 30
0.0
  0
VERTEX
  8
1
  6
CONTINUOUS
 62
     7
  5
229
 10
-170.867833
 20
217.16225
 30
0.0
  0
VERTEX
  8
1
  6
CONTINUOUS
 62
     7
  5
22A
 10
-169.67125
 20
216.031833
 30
0.0
  0
VERTEX
  8
1
  6
CONTINUOUS
 62
     7
  5
22B
 10
-168.541167
 20
215.100833
 30
0.0
  0
VERTEX
  8
1
  6
CONTINUOUS
 62
     7
  5
22C
 10
-167.078667
 20
214.036833
 30
0.0
  0
SEQEND
  8
1
  6
CONTINUOUS
 62
     7
  5
22D
  0
POLYLINE
  8
1
  6
CONTINUOUS
 62
     7
  5
22E
 66
     1
 10
0.0
 20
0.0
 30
0.0
  0
VERTEX
  8
1
  6
CONTINUOUS
 62
     7
  5
22F
 10
-172.064417
 20
215.699333
 30
0.0
  0
VERTEX
  8
1
  6
CONTINUOUS
 62
     7
  5
230
 10
-170.934333
 20
214.236333
 30
0.0
  0
VERTEX
  8
1
  6
CONTINUOUS
 62
     7
  5
231
 10
-169.405333
 20
213.970333
 30
0.0
  0
VERTEX
  8
1
  6
CONTINUOUS
 62
     7
  5
232
 10
-167.676917
 20
213.039417
 30
0.0
  0
VERTEX
  8
1
  6
CONTINUOUS
 62
     7
  5
233
 10
-167.6105
 20
212.839917
 30
0.0
  0
SEQEND
  8
1
  6
CONTINUOUS
 62
     7
  5
234
  0
POLYLINE
  8
1
  6
CONTINUOUS
 62
     7
  5
235
 66
     1
 10
0.0
 20
0.0
 30
0.0
  0
VERTEX
  8
1
  6
CONTINUOUS
 62
     7
  5
236
 10
-172.59625
 20
214.036833
 30
0.0
  0
VERTEX
  8
1
  6
CONTINUOUS
 62
     7
  5
237
 10
-169.870667
 20
212.307917
 30
0.0
  0
VERTEX
  8
1
  6
CONTINUOUS
 62
     7
  5
238
 10
-169.405333
 20
212.041917
 30
0.0
  0
SEQEND
  8
1
  6
CONTINUOUS
 62
     7
  5
239
  0
POLYLINE
  8
1
  6
CONTINUOUS
 62
     7
  5
23A
 66
     1
 10
0.0
 20
0.0
 30
0.0
  0
VERTEX
  8
1
  6
CONTINUOUS
 62
     7
  5
23B
 10
-148.9305
 20
219.157167
 30
0.0
  0
VERTEX
  8
1
  6
CONTINUOUS
 62
     7
  5
23C
 10
-149.861167
 20
218.22625
 30
0.0
  0
VERTEX
  8
1
  6
CONTINUOUS
 62
     7
  5
23D
 10
-150.858333
 20
216.63025
 30
0.0
  0
VERTEX
  8
1
  6
CONTINUOUS
 62
     7
  5
23E
 10
-151.323667
 20
215.699333
 30
0.0
  0
SEQEND
  8
1
  6
CONTINUOUS
 62
     7
  5
23F
  0
POLYLINE
  8
1
  6
CONTINUOUS
 62
     7
  5
240
 66
     1
 10
0.0
 20
0.0
 30
0.0
  0
VERTEX
  8
1
  6
CONTINUOUS
 62
     7
  5
241
 10
-147.667417
 20
218.62525
 30
0.0
  0
VERTEX
  8
1
  6
CONTINUOUS
 62
     7
  5
242
 10
-148.797583
 20
217.76075
 30
0.0
  0
VERTEX
  8
1
  6
CONTINUOUS
 62
     7
  5
243
 10
-149.129917
 20
216.82975
 30
0.0
  0
VERTEX
  8
1
  6
CONTINUOUS
 62
     7
  5
244
 10
-149.66175
 20
216.031833
 30
0.0
  0
VERTEX
  8
1
  6
CONTINUOUS
 62
     7
  5
245
 10
-149.994083
 20
215.832333
 30
0.0
  0
SEQEND
  8
1
  6
CONTINUOUS
 62
     7
  5
246
  0
POLYLINE
  8
1
  6
CONTINUOUS
 62
     7
  5
247
 66
     1
 10
0.0
 20
0.0
 30
0.0
  0
VERTEX
  8
1
  6
CONTINUOUS
 62
     7
  5
248
 10
-146.670333
 20
217.76075
 30
0.0
  0
VERTEX
  8
1
  6
CONTINUOUS
 62
     7
  5
249
 10
-148.26575
 20
216.43075
 30
0.0
  0
VERTEX
  8
1
  6
CONTINUOUS
 62
     7
  5
24A
 10
-148.398667
 20
215.499833
 30
0.0
  0
VERTEX
  8
1
  6
CONTINUOUS
 62
     7
  5
24B
 10
-148.731083
 20
214.502333
 30
0.0
  0
VERTEX
  8
1
  6
CONTINUOUS
 62
     7
  5
24C
 10
-149.462333
 20
213.903833
 30
0.0
  0
SEQEND
  8
1
  6
CONTINUOUS
 62
     7
  5
24D
  0
POLYLINE
  8
1
  6
CONTINUOUS
 62
     7
  5
24E
 66
     1
 10
0.0
 20
0.0
 30
0.0
  0
VERTEX
  8
1
  6
CONTINUOUS
 62
     7
  5
24F
 10
-147.069167
 20
217.16225
 30
0.0
  0
VERTEX
  8
1
  6
CONTINUOUS
 62
     7
  5
250
 10
-145.872583
 20
216.031833
 30
0.0
  0
VERTEX
  8
1
  6
CONTINUOUS
 62
     7
  5
251
 10
-144.7425
 20
215.100833
 30
0.0
  0
VERTEX
  8
1
  6
CONTINUOUS
 62
     7
  5
252
 10
-143.28
 20
214.036833
 30
0.0
  0
SEQEND
  8
1
  6
CONTINUOUS
 62
     7
  5
253
  0
POLYLINE
  8
1
  6
CONTINUOUS
 62
     7
  5
254
 66
     1
 10
0.0
 20
0.0
 30
0.0
  0
VERTEX
  8
1
  6
CONTINUOUS
 62
     7
  5
255
 10
-148.26575
 20
215.699333
 30
0.0
  0
VERTEX
  8
1
  6
CONTINUOUS
 62
     7
  5
256
 10
-147.135667
 20
214.236333
 30
0.0
  0
VERTEX
  8
1
  6
CONTINUOUS
 62
     7
  5
257
 10
-145.606667
 20
213.970333
 30
0.0
  0
VERTEX
  8
1
  6
CONTINUOUS
 62
     7
  5
258
 10
-143.87825
 20
213.039417
 30
0.0
  0
VERTEX
  8
1
  6
CONTINUOUS
 62
     7
  5
259
 10
-143.811833
 20
212.839917
 30
0.0
  0
SEQEND
  8
1
  6
CONTINUOUS
 62
     7
  5
25A
  0
POLYLINE
  8
1
  6
CONTINUOUS
 62
     7
  5
25B
 66
     1
 10
0.0
 20
0.0
 30
0.0
  0
VERTEX
  8
1
  6
CONTINUOUS
 62
     7
  5
25C
 10
-148.797583
 20
214.036833
 30
0.0
  0
VERTEX
  8
1
  6
CONTINUOUS
 62
     7
  5
25D
 10
-146.072
 20
212.307917
 30
0.0
  0
VERTEX
  8
1
  6
CONTINUOUS
 62
     7
  5
25E
 10
-145.606667
 20
212.041917
 30
0.0
  0
SEQEND
  8
1
  6
CONTINUOUS
 62
     7
  5
25F
  0
POLYLINE
  8
1
  6
CONTINUOUS
 62
     7
  5
260
 66
     1
 10
0.0
 20
0.0
 30
0.0
  0
VERTEX
  8
1
  6
CONTINUOUS
 62
     7
  5
261
 10
-142.415917
 20
218.758167
 30
0.0
  0
VERTEX
  8
1
  6
CONTINUOUS
 62
     7
  5
262
 10
-143.346583
 20
217.82725
 30
0.0
  0
VERTEX
  8
1
  6
CONTINUOUS
 62
     7
  5
263
 10
-144.34375
 20
216.23125
 30
0.0
  0
VERTEX
  8
1
  6
CONTINUOUS
 62
     7
  5
264
 10
-144.809083
 20
215.300333
 30
0.0
  0
SEQEND
  8
1
  6
CONTINUOUS
 62
     7
  5
265
  0
POLYLINE
  8
1
  6
CONTINUOUS
 62
     7
  5
266
 66
     1
 10
0.0
 20
0.0
 30
0.0
  0
VERTEX
  8
1
  6
CONTINUOUS
 62
     7
  5
267
 10
-141.152833
 20
218.22625
 30
0.0
  0
VERTEX
  8
1
  6
CONTINUOUS
 62
     7
  5
268
 10
-142.283
 20
217.36175
 30
0.0
  0
VERTEX
  8
1
  6
CONTINUOUS
 62
     7
  5
269
 10
-142.615333
 20
216.43075
 30
0.0
  0
VERTEX
  8
1
  6
CONTINUOUS
 62
     7
  5
26A
 10
-143.147167
 20
215.632833
 30
0.0
  0
VERTEX
  8
1
  6
CONTINUOUS
 62
     7
  5
26B
 10
-143.4795
 20
215.433333
 30
0.0
  0
SEQEND
  8
1
  6
CONTINUOUS
 62
     7
  5
26C
  0
POLYLINE
  8
1
  6
CONTINUOUS
 62
     7
  5
26D
 66
     1
 10
0.0
 20
0.0
 30
0.0
  0
VERTEX
  8
1
  6
CONTINUOUS
 62
     7
  5
26E
 10
-140.15575
 20
217.36175
 30
0.0
  0
VERTEX
  8
1
  6
CONTINUOUS
 62
     7
  5
26F
 10
-141.751167
 20
216.03175
 30
0.0
  0
VERTEX
  8
1
  6
CONTINUOUS
 62
     7
  5
270
 10
-141.884083
 20
215.100833
 30
0.0
  0
VERTEX
  8
1
  6
CONTINUOUS
 62
     7
  5
271
 10
-142.2165
 20
214.103333
 30
0.0
  0
VERTEX
  8
1
  6
CONTINUOUS
 62
     7
  5
272
 10
-142.94775
 20
213.504833
 30
0.0
  0
SEQEND
  8
1
  6
CONTINUOUS
 62
     7
  5
273
  0
POLYLINE
  8
1
  6
CONTINUOUS
 62
     7
  5
274
 66
     1
 10
0.0
 20
0.0
 30
0.0
  0
VERTEX
  8
1
  6
CONTINUOUS
 62
     7
  5
275
 10
-140.554583
 20
216.76325
 30
0.0
  0
VERTEX
  8
1
  6
CONTINUOUS
 62
     7
  5
276
 10
-139.358
 20
215.632833
 30
0.0
  0
VERTEX
  8
1
  6
CONTINUOUS
 62
     7
  5
277
 10
-138.227917
 20
214.701833
 30
0.0
  0
VERTEX
  8
1
  6
CONTINUOUS
 62
     7
  5
278
 10
-136.765417
 20
213.637833
 30
0.0
  0
SEQEND
  8
1
  6
CONTINUOUS
 62
     7
  5
279
  0
POLYLINE
  8
1
  6
CONTINUOUS
 62
     7
  5
27A
 66
     1
 10
0.0
 20
0.0
 30
0.0
  0
VERTEX
  8
1
  6
CONTINUOUS
 62
     7
  5
27B
 10
-141.751167
 20
215.300333
 30
0.0
  0
VERTEX
  8
1
  6
CONTINUOUS
 62
     7
  5
27C
 10
-140.621083
 20
213.837333
 30
0.0
  0
VERTEX
  8
1
  6
CONTINUOUS
 62
     7
  5
27D
 10
-139.092083
 20
213.571333
 30
0.0
  0
VERTEX
  8
1
  6
CONTINUOUS
 62
     7
  5
27E
 10
-137.363667
 20
212.640417
 30
0.0
  0
VERTEX
  8
1
  6
CONTINUOUS
 62
     7
  5
27F
 10
-137.29725
 20
212.440917
 30
0.0
  0
SEQEND
  8
1
  6
CONTINUOUS
 62
     7
  5
280
  0
POLYLINE
  8
1
  6
CONTINUOUS
 62
     7
  5
281
 66
     1
 10
0.0
 20
0.0
 30
0.0
  0
VERTEX
  8
1
  6
CONTINUOUS
 62
     7
  5
282
 10
-142.283
 20
213.637833
 30
0.0
  0
VERTEX
  8
1
  6
CONTINUOUS
 62
     7
  5
283
 10
-139.557417
 20
211.908917
 30
0.0
  0
VERTEX
  8
1
  6
CONTINUOUS
 62
     7
  5
284
 10
-139.092083
 20
211.642917
 30
0.0
  0
SEQEND
  8
1
  6
CONTINUOUS
 62
     7
  5
285
  0
POLYLINE
  8
1
  6
CONTINUOUS
 62
     7
  5
286
 66
     1
 10
0.0
 20
0.0
 30
0.0
  0
VERTEX
  8
1
  6
CONTINUOUS
 62
     7
  5
287
 10
-136.100583
 20
218.957667
 30
0.0
  0
VERTEX
  8
1
  6
CONTINUOUS
 62
     7
  5
288
 10
-137.03125
 20
218.02675
 30
0.0
  0
VERTEX
  8
1
  6
CONTINUOUS
 62
     7
  5
289
 10
-138.028417
 20
216.43075
 30
0.0
  0
VERTEX
  8
1
  6
CONTINUOUS
 62
     7
  5
28A
 10
-138.49375
 20
215.499833
 30
0.0
  0
SEQEND
  8
1
  6
CONTINUOUS
 62
     7
  5
28B
  0
POLYLINE
  8
1
  6
CONTINUOUS
 62
     7
  5
28C
 66
     1
 10
0.0
 20
0.0
 30
0.0
  0
VERTEX
  8
1
  6
CONTINUOUS
 62
     7
  5
28D
 10
-134.8375
 20
218.42575
 30
0.0
  0
VERTEX
  8
1
  6
CONTINUOUS
 62
     7
  5
28E
 10
-135.967667
 20
217.56125
 30
0.0
  0
VERTEX
  8
1
  6
CONTINUOUS
 62
     7
  5
28F
 10
-136.3
 20
216.63025
 30
0.0
  0
VERTEX
  8
1
  6
CONTINUOUS
 62
     7
  5
290
 10
-136.831833
 20
215.832333
 30
0.0
  0
VERTEX
  8
1
  6
CONTINUOUS
 62
     7
  5
291
 10
-137.164167
 20
215.632833
 30
0.0
  0
SEQEND
  8
1
  6
CONTINUOUS
 62
     7
  5
292
  0
POLYLINE
  8
1
  6
CONTINUOUS
 62
     7
  5
293
 66
     1
 10
0.0
 20
0.0
 30
0.0
  0
VERTEX
  8
1
  6
CONTINUOUS
 62
     7
  5
294
 10
-133.840417
 20
217.56125
 30
0.0
  0
VERTEX
  8
1
  6
CONTINUOUS
 62
     7
  5
295
 10
-135.435833
 20
216.23125
 30
0.0
  0
VERTEX
  8
1
  6
CONTINUOUS
 62
     7
  5
296
 10
-135.56875
 20
215.300333
 30
0.0
  0
VERTEX
  8
1
  6
CONTINUOUS
 62
     7
  5
297
 10
-135.901167
 20
214.302833
 30
0.0
  0
VERTEX
  8
1
  6
CONTINUOUS
 62
     7
  5
298
 10
-136.632417
 20
213.704333
 30
0.0
  0
SEQEND
  8
1
  6
CONTINUOUS
 62
     7
  5
299
  0
POLYLINE
  8
1
  6
CONTINUOUS
 62
     7
  5
29A
 66
     1
 10
0.0
 20
0.0
 30
0.0
  0
VERTEX
  8
1
  6
CONTINUOUS
 62
     7
  5
29B
 10
-134.23925
 20
216.96275
 30
0.0
  0
VERTEX
  8
1
  6
CONTINUOUS
 62
     7
  5
29C
 10
-133.042667
 20
215.832333
 30
0.0
  0
VERTEX
  8
1
  6
CONTINUOUS
 62
     7
  5
29D
 10
-131.912583
 20
214.901333
 30
0.0
  0
VERTEX
  8
1
  6
CONTINUOUS
 62
     7
  5
29E
 10
-130.450083
 20
213.837333
 30
0.0
  0
SEQEND
  8
1
  6
CONTINUOUS
 62
     7
  5
29F
  0
POLYLINE
  8
1
  6
CONTINUOUS
 62
     7
  5
2A0
 66
     1
 10
0.0
 20
0.0
 30
0.0
  0
VERTEX
  8
1
  6
CONTINUOUS
 62
     7
  5
2A1
 10
-135.435833
 20
215.499833
 30
0.0
  0
VERTEX
  8
1
  6
CONTINUOUS
 62
     7
  5
2A2
 10
-134.30575
 20
214.036833
 30
0.0
  0
VERTEX
  8
1
  6
CONTINUOUS
 62
     7
  5
2A3
 10
-132.77675
 20
213.770833
 30
0.0
  0
VERTEX
  8
1
  6
CONTINUOUS
 62
     7
  5
2A4
 10
-131.048333
 20
212.839917
 30
0.0
  0
VERTEX
  8
1
  6
CONTINUOUS
 62
     7
  5
2A5
 10
-130.981917
 20
212.640417
 30
0.0
  0
SEQEND
  8
1
  6
CONTINUOUS
 62
     7
  5
2A6
  0
POLYLINE
  8
1
  6
CONTINUOUS
 62
     7
  5
2A7
 66
     1
 10
0.0
 20
0.0
 30
0.0
  0
VERTEX
  8
1
  6
CONTINUOUS
 62
     7
  5
2A8
 10
-135.967667
 20
213.837333
 30
0.0
  0
VERTEX
  8
1
  6
CONTINUOUS
 62
     7
  5
2A9
 10
-133.242083
 20
212.108417
 30
0.0
  0
VERTEX
  8
1
  6
CONTINUOUS
 62
     7
  5
2AA
 10
-132.77675
 20
211.842417
 30
0.0
  0
SEQEND
  8
1
  6
CONTINUOUS
 62
     7
  5
2AB
  0
POLYLINE
  8
1
  6
CONTINUOUS
 62
     7
  5
2AC
 66
     1
 10
0.0
 20
0.0
 30
0.0
  0
VERTEX
  8
1
  6
CONTINUOUS
 62
     7
  5
2AD
 10
-167.410917
 20
219.22375
 30
0.0
  0
VERTEX
  8
1
  6
CONTINUOUS
 62
     7
  5
2AE
 10
-168.541083
 20
218.35925
 30
0.0
  0
VERTEX
  8
1
  6
CONTINUOUS
 62
     7
  5
2AF
 10
-168.873417
 20
217.42825
 30
0.0
  0
VERTEX
  8
1
  6
CONTINUOUS
 62
     7
  5
2B0
 10
-169.40525
 20
216.630333
 30
0.0
  0
VERTEX
  8
1
  6
CONTINUOUS
 62
     7
  5
2B1
 10
-169.737583
 20
216.430833
 30
0.0
  0
SEQEND
  8
1
  6
CONTINUOUS
 62
     7
  5
2B2
  0
POLYLINE
  8
1
  6
CONTINUOUS
 62
     7
  5
2B3
 66
     1
 10
0.0
 20
0.0
 30
0.0
  0
VERTEX
  8
1
  6
CONTINUOUS
 62
     7
  5
2B4
 10
-166.214417
 20
219.024167
 30
0.0
  0
VERTEX
  8
1
  6
CONTINUOUS
 62
     7
  5
2B5
 10
-167.145083
 20
218.09325
 30
0.0
  0
VERTEX
  8
1
  6
CONTINUOUS
 62
     7
  5
2B6
 10
-168.14225
 20
216.49725
 30
0.0
  0
VERTEX
  8
1
  6
CONTINUOUS
 62
     7
  5
2B7
 10
-168.607583
 20
215.566333
 30
0.0
  0
SEQEND
  8
1
  6
CONTINUOUS
 62
     7
  5
2B8
  0
POLYLINE
  8
1
  6
CONTINUOUS
 62
     7
  5
2B9
 66
     1
 10
0.0
 20
0.0
 30
0.0
  0
VERTEX
  8
1
  6
CONTINUOUS
 62
     7
  5
2BA
 10
-164.818417
 20
218.35925
 30
0.0
  0
VERTEX
  8
1
  6
CONTINUOUS
 62
     7
  5
2BB
 10
-166.413833
 20
217.02925
 30
0.0
  0
VERTEX
  8
1
  6
CONTINUOUS
 62
     7
  5
2BC
 10
-166.54675
 20
216.098333
 30
0.0
  0
VERTEX
  8
1
  6
CONTINUOUS
 62
     7
  5
2BD
 10
-166.879167
 20
215.100833
 30
0.0
  0
VERTEX
  8
1
  6
CONTINUOUS
 62
     7
  5
2BE
 10
-167.610417
 20
214.502333
 30
0.0
  0
SEQEND
  8
1
  6
CONTINUOUS
 62
     7
  5
2BF
  0
POLYLINE
  8
1
  6
CONTINUOUS
 62
     7
  5
2C0
 66
     1
 10
0.0
 20
0.0
 30
0.0
  0
VERTEX
  8
1
  6
CONTINUOUS
 62
     7
  5
2C1
 10
-131.048167
 20
219.22375
 30
0.0
  0
VERTEX
  8
1
  6
CONTINUOUS
 62
     7
  5
2C2
 10
-132.178333
 20
218.35925
 30
0.0
  0
VERTEX
  8
1
  6
CONTINUOUS
 62
     7
  5
2C3
 10
-132.510667
 20
217.42825
 30
0.0
  0
VERTEX
  8
1
  6
CONTINUOUS
 62
     7
  5
2C4
 10
-133.0425
 20
216.630333
 30
0.0
  0
VERTEX
  8
1
  6
CONTINUOUS
 62
     7
  5
2C5
 10
-133.374833
 20
216.430833
 30
0.0
  0
SEQEND
  8
1
  6
CONTINUOUS
 62
     7
  5
2C6
  0
POLYLINE
  8
1
  6
CONTINUOUS
 62
     7
  5
2C7
 66
     1
 10
0.0
 20
0.0
 30
0.0
  0
VERTEX
  8
1
  6
CONTINUOUS
 62
     7
  5
2C8
 10
-129.984667
 20
218.492167
 30
0.0
  0
VERTEX
  8
1
  6
CONTINUOUS
 62
     7
  5
2C9
 10
-130.915333
 20
217.56125
 30
0.0
  0
VERTEX
  8
1
  6
CONTINUOUS
 62
     7
  5
2CA
 10
-131.9125
 20
215.96525
 30
0.0
  0
VERTEX
  8
1
  6
CONTINUOUS
 62
     7
  5
2CB
 10
-132.377833
 20
215.034333
 30
0.0
  0
SEQEND
  8
1
  6
CONTINUOUS
 62
     7
  5
2CC
  0
POLYLINE
  8
1
  6
CONTINUOUS
 62
     7
  5
2CD
 66
     1
 10
0.0
 20
0.0
 30
0.0
  0
VERTEX
  8
1
  6
CONTINUOUS
 62
     7
  5
2CE
 10
-38.910417
 20
217.599667
 30
0.0
  0
VERTEX
  8
1
  6
CONTINUOUS
 62
     7
  5
2CF
 10
-40.505833
 20
216.269667
 30
0.0
  0
VERTEX
  8
1
  6
CONTINUOUS
 62
     7
  5
2D0
 10
-40.63875
 20
215.33875
 30
0.0
  0
VERTEX
  8
1
  6
CONTINUOUS
 62
     7
  5
2D1
 10
-40.971167
 20
214.34125
 30
0.0
  0
VERTEX
  8
1
  6
CONTINUOUS
 62
     7
  5
2D2
 10
-41.702417
 20
213.74275
 30
0.0
  0
SEQEND
  8
1
  6
CONTINUOUS
 62
     7
  5
2D3
  0
POLYLINE
  8
1
  6
CONTINUOUS
 62
     7
  5
2D4
 66
     1
 10
0.0
 20
0.0
 30
0.0
  0
VERTEX
  8
1
  6
CONTINUOUS
 62
     7
  5
2D5
 10
-41.170583
 20
218.996083
 30
0.0
  0
VERTEX
  8
1
  6
CONTINUOUS
 62
     7
  5
2D6
 10
-42.10125
 20
218.065167
 30
0.0
  0
VERTEX
  8
1
  6
CONTINUOUS
 62
     7
  5
2D7
 10
-43.098417
 20
216.469167
 30
0.0
  0
VERTEX
  8
1
  6
CONTINUOUS
 62
     7
  5
2D8
 10
-43.56375
 20
215.53825
 30
0.0
  0
SEQEND
  8
1
  6
CONTINUOUS
 62
     7
  5
2D9
  0
POLYLINE
  8
1
  6
CONTINUOUS
 62
     7
  5
2DA
 66
     1
 10
0.0
 20
0.0
 30
0.0
  0
VERTEX
  8
1
  6
CONTINUOUS
 62
     7
  5
2DB
 10
-39.9075
 20
218.464167
 30
0.0
  0
VERTEX
  8
1
  6
CONTINUOUS
 62
     7
  5
2DC
 10
-41.037667
 20
217.599667
 30
0.0
  0
VERTEX
  8
1
  6
CONTINUOUS
 62
     7
  5
2DD
 10
-41.37
 20
216.668667
 30
0.0
  0
VERTEX
  8
1
  6
CONTINUOUS
 62
     7
  5
2DE
 10
-41.901833
 20
215.87075
 30
0.0
  0
VERTEX
  8
1
  6
CONTINUOUS
 62
     7
  5
2DF
 10
-42.234167
 20
215.67125
 30
0.0
  0
SEQEND
  8
1
  6
CONTINUOUS
 62
     7
  5
2E0
  0
POLYLINE
  8
1
  6
CONTINUOUS
 62
     7
  5
2E1
 66
     1
 10
0.0
 20
0.0
 30
0.0
  0
VERTEX
  8
1
  6
CONTINUOUS
 62
     7
  5
2E2
 10
-39.30925
 20
217.001167
 30
0.0
  0
VERTEX
  8
1
  6
CONTINUOUS
 62
     7
  5
2E3
 10
-38.112667
 20
215.87075
 30
0.0
  0
VERTEX
  8
1
  6
CONTINUOUS
 62
     7
  5
2E4
 10
-36.982583
 20
214.93975
 30
0.0
  0
VERTEX
  8
1
  6
CONTINUOUS
 62
     7
  5
2E5
 10
-35.520083
 20
213.87575
 30
0.0
  0
SEQEND
  8
1
  6
CONTINUOUS
 62
     7
  5
2E6
  0
POLYLINE
  8
1
  6
CONTINUOUS
 62
     7
  5
2E7
 66
     1
 10
0.0
 20
0.0
 30
0.0
  0
VERTEX
  8
1
  6
CONTINUOUS
 62
     7
  5
2E8
 10
-40.505833
 20
215.53825
 30
0.0
  0
VERTEX
  8
1
  6
CONTINUOUS
 62
     7
  5
2E9
 10
-39.37575
 20
214.07525
 30
0.0
  0
VERTEX
  8
1
  6
CONTINUOUS
 62
     7
  5
2EA
 10
-37.84675
 20
213.80925
 30
0.0
  0
VERTEX
  8
1
  6
CONTINUOUS
 62
     7
  5
2EB
 10
-36.118333
 20
212.878333
 30
0.0
  0
VERTEX
  8
1
  6
CONTINUOUS
 62
     7
  5
2EC
 10
-36.051917
 20
212.678833
 30
0.0
  0
SEQEND
  8
1
  6
CONTINUOUS
 62
     7
  5
2ED
  0
POLYLINE
  8
1
  6
CONTINUOUS
 62
     7
  5
2EE
 66
     1
 10
0.0
 20
0.0
 30
0.0
  0
VERTEX
  8
1
  6
CONTINUOUS
 62
     7
  5
2EF
 10
-41.037667
 20
213.87575
 30
0.0
  0
VERTEX
  8
1
  6
CONTINUOUS
 62
     7
  5
2F0
 10
-38.312083
 20
212.146833
 30
0.0
  0
VERTEX
  8
1
  6
CONTINUOUS
 62
     7
  5
2F1
 10
-37.84675
 20
211.880833
 30
0.0
  0
SEQEND
  8
1
  6
CONTINUOUS
 62
     7
  5
2F2
  0
POLYLINE
  8
1
  6
CONTINUOUS
 62
     7
  5
2F3
 66
     1
 10
0.0
 20
0.0
 30
0.0
  0
VERTEX
  8
1
  6
CONTINUOUS
 62
     7
  5
2F4
 10
-34.404
 20
219.079667
 30
0.0
  0
VERTEX
  8
1
  6
CONTINUOUS
 62
     7
  5
2F5
 10
-35.334667
 20
218.14875
 30
0.0
  0
VERTEX
  8
1
  6
CONTINUOUS
 62
     7
  5
2F6
 10
-36.331833
 20
216.55275
 30
0.0
  0
VERTEX
  8
1
  6
CONTINUOUS
 62
     7
  5
2F7
 10
-36.797167
 20
215.621833
 30
0.0
  0
SEQEND
  8
1
  6
CONTINUOUS
 62
     7
  5
2F8
  0
POLYLINE
  8
1
  6
CONTINUOUS
 62
     7
  5
2F9
 66
     1
 10
0.0
 20
0.0
 30
0.0
  0
VERTEX
  8
1
  6
CONTINUOUS
 62
     7
  5
2FA
 10
-32.143833
 20
217.68325
 30
0.0
  0
VERTEX
  8
1
  6
CONTINUOUS
 62
     7
  5
2FB
 10
-33.73925
 20
216.35325
 30
0.0
  0
VERTEX
  8
1
  6
CONTINUOUS
 62
     7
  5
2FC
 10
-33.872167
 20
215.422333
 30
0.0
  0
VERTEX
  8
1
  6
CONTINUOUS
 62
     7
  5
2FD
 10
-34.204583
 20
214.424833
 30
0.0
  0
VERTEX
  8
1
  6
CONTINUOUS
 62
     7
  5
2FE
 10
-34.935833
 20
213.826333
 30
0.0
  0
SEQEND
  8
1
  6
CONTINUOUS
 62
     7
  5
2FF
  0
POLYLINE
  8
1
  6
CONTINUOUS
 62
     7
  5
300
 66
     1
 10
0.0
 20
0.0
 30
0.0
  0
VERTEX
  8
1
  6
CONTINUOUS
 62
     7
  5
301
 10
-33.140917
 20
218.54775
 30
0.0
  0
VERTEX
  8
1
  6
CONTINUOUS
 62
     7
  5
302
 10
-34.271083
 20
217.68325
 30
0.0
  0
VERTEX
  8
1
  6
CONTINUOUS
 62
     7
  5
303
 10
-34.603417
 20
216.75225
 30
0.0
  0
VERTEX
  8
1
  6
CONTINUOUS
 62
     7
  5
304
 10
-35.13525
 20
215.954333
 30
0.0
  0
VERTEX
  8
1
  6
CONTINUOUS
 62
     7
  5
305
 10
-35.467583
 20
215.754833
 30
0.0
  0
SEQEND
  8
1
  6
CONTINUOUS
 62
     7
  5
306
  0
POLYLINE
  8
1
  6
CONTINUOUS
 62
     7
  5
307
 66
     1
 10
0.0
 20
0.0
 30
0.0
  0
VERTEX
  8
1
  6
CONTINUOUS
 62
     7
  5
308
 10
-32.542667
 20
217.08475
 30
0.0
  0
VERTEX
  8
1
  6
CONTINUOUS
 62
     7
  5
309
 10
-31.346083
 20
215.954333
 30
0.0
  0
VERTEX
  8
1
  6
CONTINUOUS
 62
     7
  5
30A
 10
-30.216
 20
215.023333
 30
0.0
  0
VERTEX
  8
1
  6
CONTINUOUS
 62
     7
  5
30B
 10
-28.7535
 20
213.959333
 30
0.0
  0
SEQEND
  8
1
  6
CONTINUOUS
 62
     7
  5
30C
  0
POLYLINE
  8
1
  6
CONTINUOUS
 62
     7
  5
30D
 66
     1
 10
0.0
 20
0.0
 30
0.0
  0
VERTEX
  8
1
  6
CONTINUOUS
 62
     7
  5
30E
 10
-33.73925
 20
215.621833
 30
0.0
  0
VERTEX
  8
1
  6
CONTINUOUS
 62
     7
  5
30F
 10
-32.609167
 20
214.158833
 30
0.0
  0
VERTEX
  8
1
  6
CONTINUOUS
 62
     7
  5
310
 10
-31.080167
 20
213.892833
 30
0.0
  0
VERTEX
  8
1
  6
CONTINUOUS
 62
     7
  5
311
 10
-29.35175
 20
212.961917
 30
0.0
  0
VERTEX
  8
1
  6
CONTINUOUS
 62
     7
  5
312
 10
-29.285333
 20
212.762417
 30
0.0
  0
SEQEND
  8
1
  6
CONTINUOUS
 62
     7
  5
313
  0
POLYLINE
  8
1
  6
CONTINUOUS
 62
     7
  5
314
 66
     1
 10
0.0
 20
0.0
 30
0.0
  0
VERTEX
  8
1
  6
CONTINUOUS
 62
     7
  5
315
 10
-34.271083
 20
213.959333
 30
0.0
  0
VERTEX
  8
1
  6
CONTINUOUS
 62
     7
  5
316
 10
-31.5455
 20
212.230417
 30
0.0
  0
VERTEX
  8
1
  6
CONTINUOUS
 62
     7
  5
317
 10
-31.080167
 20
211.964417
 30
0.0
  0
SEQEND
  8
1
  6
CONTINUOUS
 62
     7
  5
318
  0
POLYLINE
  8
1
  6
CONTINUOUS
 62
     7
  5
319
 66
     1
 10
0.0
 20
0.0
 30
0.0
  0
VERTEX
  8
1
  6
CONTINUOUS
 62
     7
  5
31A
 10
-2.743167
 20
219.16325
 30
0.0
  0
VERTEX
  8
1
  6
CONTINUOUS
 62
     7
  5
31B
 10
-3.673833
 20
218.232333
 30
0.0
  0
VERTEX
  8
1
  6
CONTINUOUS
 62
     7
  5
31C
 10
-4.671
 20
216.636333
 30
0.0
  0
VERTEX
  8
1
  6
CONTINUOUS
 62
     7
  5
31D
 10
-5.136333
 20
215.705417
 30
0.0
  0
SEQEND
  8
1
  6
CONTINUOUS
 62
     7
  5
31E
  0
POLYLINE
  8
1
  6
CONTINUOUS
 62
     7
  5
31F
 66
     1
 10
0.0
 20
0.0
 30
0.0
  0
VERTEX
  8
1
  6
CONTINUOUS
 62
     7
  5
320
 10
-0.483
 20
217.766833
 30
0.0
  0
VERTEX
  8
1
  6
CONTINUOUS
 62
     7
  5
321
 10
-2.078417
 20
216.436833
 30
0.0
  0
VERTEX
  8
1
  6
CONTINUOUS
 62
     7
  5
322
 10
-2.211333
 20
215.505917
 30
0.0
  0
VERTEX
  8
1
  6
CONTINUOUS
 62
     7
  5
323
 10
-2.54375
 20
214.508417
 30
0.0
  0
VERTEX
  8
1
  6
CONTINUOUS
 62
     7
  5
324
 10
-3.275
 20
213.909917
 30
0.0
  0
SEQEND
  8
1
  6
CONTINUOUS
 62
     7
  5
325
  0
POLYLINE
  8
1
  6
CONTINUOUS
 62
     7
  5
326
 66
     1
 10
0.0
 20
0.0
 30
0.0
  0
VERTEX
  8
1
  6
CONTINUOUS
 62
     7
  5
327
 10
-1.480083
 20
218.631333
 30
0.0
  0
VERTEX
  8
1
  6
CONTINUOUS
 62
     7
  5
328
 10
-2.61025
 20
217.766833
 30
0.0
  0
VERTEX
  8
1
  6
CONTINUOUS
 62
     7
  5
329
 10
-2.942583
 20
216.835833
 30
0.0
  0
VERTEX
  8
1
  6
CONTINUOUS
 62
     7
  5
32A
 10
-3.474417
 20
216.037917
 30
0.0
  0
VERTEX
  8
1
  6
CONTINUOUS
 62
     7
  5
32B
 10
-3.80675
 20
215.838417
 30
0.0
  0
SEQEND
  8
1
  6
CONTINUOUS
 62
     7
  5
32C
  0
POLYLINE
  8
1
  6
CONTINUOUS
 62
     7
  5
32D
 66
     1
 10
0.0
 20
0.0
 30
0.0
  0
VERTEX
  8
1
  6
CONTINUOUS
 62
     7
  5
32E
 10
-0.881833
 20
217.168333
 30
0.0
  0
VERTEX
  8
1
  6
CONTINUOUS
 62
     7
  5
32F
 10
0.31475
 20
216.037917
 30
0.0
  0
VERTEX
  8
1
  6
CONTINUOUS
 62
     7
  5
330
 10
1.444833
 20
215.106917
 30
0.0
  0
VERTEX
  8
1
  6
CONTINUOUS
 62
     7
  5
331
 10
2.907333
 20
214.042917
 30
0.0
  0
SEQEND
  8
1
  6
CONTINUOUS
 62
     7
  5
332
  0
POLYLINE
  8
1
  6
CONTINUOUS
 62
     7
  5
333
 66
     1
 10
0.0
 20
0.0
 30
0.0
  0
VERTEX
  8
1
  6
CONTINUOUS
 62
     7
  5
334
 10
-2.078417
 20
215.705417
 30
0.0
  0
VERTEX
  8
1
  6
CONTINUOUS
 62
     7
  5
335
 10
-0.948333
 20
214.242417
 30
0.0
  0
VERTEX
  8
1
  6
CONTINUOUS
 62
     7
  5
336
 10
0.580667
 20
213.976417
 30
0.0
  0
VERTEX
  8
1
  6
CONTINUOUS
 62
     7
  5
337
 10
2.309083
 20
213.0455
 30
0.0
  0
VERTEX
  8
1
  6
CONTINUOUS
 62
     7
  5
338
 10
2.3755
 20
212.846
 30
0.0
  0
SEQEND
  8
1
  6
CONTINUOUS
 62
     7
  5
339
  0
POLYLINE
  8
1
  6
CONTINUOUS
 62
     7
  5
33A
 66
     1
 10
0.0
 20
0.0
 30
0.0
  0
VERTEX
  8
1
  6
CONTINUOUS
 62
     7
  5
33B
 10
-2.61025
 20
214.042917
 30
0.0
  0
VERTEX
  8
1
  6
CONTINUOUS
 62
     7
  5
33C
 10
0.115333
 20
212.314
 30
0.0
  0
VERTEX
  8
1
  6
CONTINUOUS
 62
     7
  5
33D
 10
0.580667
 20
212.048
 30
0.0
  0
SEQEND
  8
1
  6
CONTINUOUS
 62
     7
  5
33E
  0
POLYLINE
  8
1
  6
CONTINUOUS
 62
     7
  5
33F
 66
     1
 10
0.0
 20
0.0
 30
0.0
  0
VERTEX
  8
1
  6
CONTINUOUS
 62
     7
  5
340
 10
-9.760417
 20
219.16325
 30
0.0
  0
VERTEX
  8
1
  6
CONTINUOUS
 62
     7
  5
341
 10
-10.691083
 20
218.232333
 30
0.0
  0
VERTEX
  8
1
  6
CONTINUOUS
 62
     7
  5
342
 10
-11.68825
 20
216.636333
 30
0.0
  0
VERTEX
  8
1
  6
CONTINUOUS
 62
     7
  5
343
 10
-12.153583
 20
215.705417
 30
0.0
  0
SEQEND
  8
1
  6
CONTINUOUS
 62
     7
  5
344
  0
POLYLINE
  8
1
  6
CONTINUOUS
 62
     7
  5
345
 66
     1
 10
0.0
 20
0.0
 30
0.0
  0
VERTEX
  8
1
  6
CONTINUOUS
 62
     7
  5
346
 10
-7.50025
 20
217.766833
 30
0.0
  0
VERTEX
  8
1
  6
CONTINUOUS
 62
     7
  5
347
 10
-9.095667
 20
216.436833
 30
0.0
  0
VERTEX
  8
1
  6
CONTINUOUS
 62
     7
  5
348
 10
-9.228583
 20
215.505917
 30
0.0
  0
VERTEX
  8
1
  6
CONTINUOUS
 62
     7
  5
349
 10
-9.561
 20
214.508417
 30
0.0
  0
VERTEX
  8
1
  6
CONTINUOUS
 62
     7
  5
34A
 10
-10.29225
 20
213.909917
 30
0.0
  0
SEQEND
  8
1
  6
CONTINUOUS
 62
     7
  5
34B
  0
POLYLINE
  8
1
  6
CONTINUOUS
 62
     7
  5
34C
 66
     1
 10
0.0
 20
0.0
 30
0.0
  0
VERTEX
  8
1
  6
CONTINUOUS
 62
     7
  5
34D
 10
-8.497333
 20
218.631333
 30
0.0
  0
VERTEX
  8
1
  6
CONTINUOUS
 62
     7
  5
34E
 10
-9.6275
 20
217.766833
 30
0.0
  0
VERTEX
  8
1
  6
CONTINUOUS
 62
     7
  5
34F
 10
-9.959833
 20
216.835833
 30
0.0
  0
VERTEX
  8
1
  6
CONTINUOUS
 62
     7
  5
350
 10
-10.491667
 20
216.037917
 30
0.0
  0
VERTEX
  8
1
  6
CONTINUOUS
 62
     7
  5
351
 10
-10.824
 20
215.838417
 30
0.0
  0
SEQEND
  8
1
  6
CONTINUOUS
 62
     7
  5
352
  0
POLYLINE
  8
1
  6
CONTINUOUS
 62
     7
  5
353
 66
     1
 10
0.0
 20
0.0
 30
0.0
  0
VERTEX
  8
1
  6
CONTINUOUS
 62
     7
  5
354
 10
-7.899083
 20
217.168333
 30
0.0
  0
VERTEX
  8
1
  6
CONTINUOUS
 62
     7
  5
355
 10
-6.7025
 20
216.037917
 30
0.0
  0
VERTEX
  8
1
  6
CONTINUOUS
 62
     7
  5
356
 10
-5.572417
 20
215.106917
 30
0.0
  0
VERTEX
  8
1
  6
CONTINUOUS
 62
     7
  5
357
 10
-4.109917
 20
214.042917
 30
0.0
  0
SEQEND
  8
1
  6
CONTINUOUS
 62
     7
  5
358
  0
POLYLINE
  8
1
  6
CONTINUOUS
 62
     7
  5
359
 66
     1
 10
0.0
 20
0.0
 30
0.0
  0
VERTEX
  8
1
  6
CONTINUOUS
 62
     7
  5
35A
 10
-9.095667
 20
215.705417
 30
0.0
  0
VERTEX
  8
1
  6
CONTINUOUS
 62
     7
  5
35B
 10
-7.965583
 20
214.242417
 30
0.0
  0
VERTEX
  8
1
  6
CONTINUOUS
 62
     7
  5
35C
 10
-6.436583
 20
213.976417
 30
0.0
  0
VERTEX
  8
1
  6
CONTINUOUS
 62
     7
  5
35D
 10
-4.708167
 20
213.0455
 30
0.0
  0
VERTEX
  8
1
  6
CONTINUOUS
 62
     7
  5
35E
 10
-4.64175
 20
212.846
 30
0.0
  0
SEQEND
  8
1
  6
CONTINUOUS
 62
     7
  5
35F
  0
POLYLINE
  8
1
  6
CONTINUOUS
 62
     7
  5
360
 66
     1
 10
0.0
 20
0.0
 30
0.0
  0
VERTEX
  8
1
  6
CONTINUOUS
 62
     7
  5
361
 10
-9.6275
 20
214.042917
 30
0.0
  0
VERTEX
  8
1
  6
CONTINUOUS
 62
     7
  5
362
 10
-6.901917
 20
212.314
 30
0.0
  0
VERTEX
  8
1
  6
CONTINUOUS
 62
     7
  5
363
 10
-6.436583
 20
212.048
 30
0.0
  0
SEQEND
  8
1
  6
CONTINUOUS
 62
     7
  5
364
  0
POLYLINE
  8
1
  6
CONTINUOUS
 62
     7
  5
365
 66
     1
 10
0.0
 20
0.0
 30
0.0
  0
VERTEX
  8
1
  6
CONTINUOUS
 62
     7
  5
366
 10
4.1905
 20
219.163333
 30
0.0
  0
VERTEX
  8
1
  6
CONTINUOUS
 62
     7
  5
367
 10
3.259833
 20
218.232417
 30
0.0
  0
VERTEX
  8
1
  6
CONTINUOUS
 62
     7
  5
368
 10
2.262667
 20
216.636417
 30
0.0
  0
VERTEX
  8
1
  6
CONTINUOUS
 62
     7
  5
369
 10
1.797333
 20
215.7055
 30
0.0
  0
SEQEND
  8
1
  6
CONTINUOUS
 62
     7
  5
36A
  0
POLYLINE
  8
1
  6
CONTINUOUS
 62
     7
  5
36B
 66
     1
 10
0.0
 20
0.0
 30
0.0
  0
VERTEX
  8
1
  6
CONTINUOUS
 62
     7
  5
36C
 10
6.450667
 20
217.766917
 30
0.0
  0
VERTEX
  8
1
  6
CONTINUOUS
 62
     7
  5
36D
 10
4.85525
 20
216.436917
 30
0.0
  0
VERTEX
  8
1
  6
CONTINUOUS
 62
     7
  5
36E
 10
4.722333
 20
215.506
 30
0.0
  0
VERTEX
  8
1
  6
CONTINUOUS
 62
     7
  5
36F
 10
4.389917
 20
214.5085
 30
0.0
  0
VERTEX
  8
1
  6
CONTINUOUS
 62
     7
  5
370
 10
3.658667
 20
213.91
 30
0.0
  0
SEQEND
  8
1
  6
CONTINUOUS
 62
     7
  5
371
  0
POLYLINE
  8
1
  6
CONTINUOUS
 62
     7
  5
372
 66
     1
 10
0.0
 20
0.0
 30
0.0
  0
VERTEX
  8
1
  6
CONTINUOUS
 62
     7
  5
373
 10
5.453583
 20
218.631417
 30
0.0
  0
VERTEX
  8
1
  6
CONTINUOUS
 62
     7
  5
374
 10
4.323417
 20
217.766917
 30
0.0
  0
VERTEX
  8
1
  6
CONTINUOUS
 62
     7
  5
375
 10
3.991083
 20
216.835917
 30
0.0
  0
VERTEX
  8
1
  6
CONTINUOUS
 62
     7
  5
376
 10
3.45925
 20
216.038
 30
0.0
  0
VERTEX
  8
1
  6
CONTINUOUS
 62
     7
  5
377
 10
3.126917
 20
215.8385
 30
0.0
  0
SEQEND
  8
1
  6
CONTINUOUS
 62
     7
  5
378
  0
POLYLINE
  8
1
  6
CONTINUOUS
 62
     7
  5
379
 66
     1
 10
0.0
 20
0.0
 30
0.0
  0
VERTEX
  8
1
  6
CONTINUOUS
 62
     7
  5
37A
 10
6.051833
 20
217.168417
 30
0.0
  0
VERTEX
  8
1
  6
CONTINUOUS
 62
     7
  5
37B
 10
7.248417
 20
216.038
 30
0.0
  0
VERTEX
  8
1
  6
CONTINUOUS
 62
     7
  5
37C
 10
8.3785
 20
215.107
 30
0.0
  0
VERTEX
  8
1
  6
CONTINUOUS
 62
     7
  5
37D
 10
9.841
 20
214.043
 30
0.0
  0
SEQEND
  8
1
  6
CONTINUOUS
 62
     7
  5
37E
  0
POLYLINE
  8
1
  6
CONTINUOUS
 62
     7
  5
37F
 66
     1
 10
0.0
 20
0.0
 30
0.0
  0
VERTEX
  8
1
  6
CONTINUOUS
 62
     7
  5
380
 10
4.85525
 20
215.7055
 30
0.0
  0
VERTEX
  8
1
  6
CONTINUOUS
 62
     7
  5
381
 10
5.985333
 20
214.2425
 30
0.0
  0
VERTEX
  8
1
  6
CONTINUOUS
 62
     7
  5
382
 10
7.514333
 20
213.9765
 30
0.0
  0
VERTEX
  8
1
  6
CONTINUOUS
 62
     7
  5
383
 10
9.24275
 20
213.045583
 30
0.0
  0
VERTEX
  8
1
  6
CONTINUOUS
 62
     7
  5
384
 10
9.309167
 20
212.846083
 30
0.0
  0
SEQEND
  8
1
  6
CONTINUOUS
 62
     7
  5
385
  0
POLYLINE
  8
1
  6
CONTINUOUS
 62
     7
  5
386
 66
     1
 10
0.0
 20
0.0
 30
0.0
  0
VERTEX
  8
1
  6
CONTINUOUS
 62
     7
  5
387
 10
4.323417
 20
214.043
 30
0.0
  0
VERTEX
  8
1
  6
CONTINUOUS
 62
     7
  5
388
 10
7.049
 20
212.314083
 30
0.0
  0
VERTEX
  8
1
  6
CONTINUOUS
 62
     7
  5
389
 10
7.514333
 20
212.048083
 30
0.0
  0
SEQEND
  8
1
  6
CONTINUOUS
 62
     7
  5
38A
  0
POLYLINE
  8
1
  6
CONTINUOUS
 62
     7
  5
38B
 66
     1
 10
0.0
 20
0.0
 30
0.0
  0
VERTEX
  8
1
  6
CONTINUOUS
 62
     7
  5
38C
 10
10.623
 20
219.163333
 30
0.0
  0
VERTEX
  8
1
  6
CONTINUOUS
 62
     7
  5
38D
 10
9.692333
 20
218.232417
 30
0.0
  0
VERTEX
  8
1
  6
CONTINUOUS
 62
     7
  5
38E
 10
8.695167
 20
216.636417
 30
0.0
  0
VERTEX
  8
1
  6
CONTINUOUS
 62
     7
  5
38F
 10
8.229833
 20
215.7055
 30
0.0
  0
SEQEND
  8
1
  6
CONTINUOUS
 62
     7
  5
390
  0
POLYLINE
  8
1
  6
CONTINUOUS
 62
     7
  5
391
 66
     1
 10
0.0
 20
0.0
 30
0.0
  0
VERTEX
  8
1
  6
CONTINUOUS
 62
     7
  5
392
 10
12.883167
 20
217.766917
 30
0.0
  0
VERTEX
  8
1
  6
CONTINUOUS
 62
     7
  5
393
 10
11.28775
 20
216.436917
 30
0.0
  0
VERTEX
  8
1
  6
CONTINUOUS
 62
     7
  5
394
 10
11.154833
 20
215.506
 30
0.0
  0
VERTEX
  8
1
  6
CONTINUOUS
 62
     7
  5
395
 10
10.822417
 20
214.5085
 30
0.0
  0
VERTEX
  8
1
  6
CONTINUOUS
 62
     7
  5
396
 10
10.091167
 20
213.91
 30
0.0
  0
SEQEND
  8
1
  6
CONTINUOUS
 62
     7
  5
397
  0
POLYLINE
  8
1
  6
CONTINUOUS
 62
     7
  5
398
 66
     1
 10
0.0
 20
0.0
 30
0.0
  0
VERTEX
  8
1
  6
CONTINUOUS
 62
     7
  5
399
 10
11.886083
 20
218.631417
 30
0.0
  0
VERTEX
  8
1
  6
CONTINUOUS
 62
     7
  5
39A
 10
10.755917
 20
217.766917
 30
0.0
  0
VERTEX
  8
1
  6
CONTINUOUS
 62
     7
  5
39B
 10
10.423583
 20
216.835917
 30
0.0
  0
VERTEX
  8
1
  6
CONTINUOUS
 62
     7
  5
39C
 10
9.89175
 20
216.038
 30
0.0
  0
VERTEX
  8
1
  6
CONTINUOUS
 62
     7
  5
39D
 10
9.559417
 20
215.8385
 30
0.0
  0
SEQEND
  8
1
  6
CONTINUOUS
 62
     7
  5
39E
  0
POLYLINE
  8
1
  6
CONTINUOUS
 62
     7
  5
39F
 66
     1
 10
0.0
 20
0.0
 30
0.0
  0
VERTEX
  8
1
  6
CONTINUOUS
 62
     7
  5
3A0
 10
12.484333
 20
217.168417
 30
0.0
  0
VERTEX
  8
1
  6
CONTINUOUS
 62
     7
  5
3A1
 10
13.680917
 20
216.038
 30
0.0
  0
VERTEX
  8
1
  6
CONTINUOUS
 62
     7
  5
3A2
 10
14.811
 20
215.107
 30
0.0
  0
VERTEX
  8
1
  6
CONTINUOUS
 62
     7
  5
3A3
 10
16.2735
 20
214.043
 30
0.0
  0
SEQEND
  8
1
  6
CONTINUOUS
 62
     7
  5
3A4
  0
POLYLINE
  8
1
  6
CONTINUOUS
 62
     7
  5
3A5
 66
     1
 10
0.0
 20
0.0
 30
0.0
  0
VERTEX
  8
1
  6
CONTINUOUS
 62
     7
  5
3A6
 10
11.28775
 20
215.7055
 30
0.0
  0
VERTEX
  8
1
  6
CONTINUOUS
 62
     7
  5
3A7
 10
12.417833
 20
214.2425
 30
0.0
  0
VERTEX
  8
1
  6
CONTINUOUS
 62
     7
  5
3A8
 10
13.946833
 20
213.9765
 30
0.0
  0
VERTEX
  8
1
  6
CONTINUOUS
 62
     7
  5
3A9
 10
15.67525
 20
213.045583
 30
0.0
  0
VERTEX
  8
1
  6
CONTINUOUS
 62
     7
  5
3AA
 10
15.741667
 20
212.846083
 30
0.0
  0
SEQEND
  8
1
  6
CONTINUOUS
 62
     7
  5
3AB
  0
POLYLINE
  8
1
  6
CONTINUOUS
 62
     7
  5
3AC
 66
     1
 10
0.0
 20
0.0
 30
0.0
  0
VERTEX
  8
1
  6
CONTINUOUS
 62
     7
  5
3AD
 10
10.755917
 20
214.043
 30
0.0
  0
VERTEX
  8
1
  6
CONTINUOUS
 62
     7
  5
3AE
 10
13.4815
 20
212.314083
 30
0.0
  0
VERTEX
  8
1
  6
CONTINUOUS
 62
     7
  5
3AF
 10
13.946833
 20
212.048083
 30
0.0
  0
SEQEND
  8
1
  6
CONTINUOUS
 62
     7
  5
3B0
  0
POLYLINE
  8
1
  6
CONTINUOUS
 62
     7
  5
3B1
 66
     1
 10
0.0
 20
0.0
 30
0.0
  0
VERTEX
  8
1
  6
CONTINUOUS
 62
     7
  5
3B2
 10
-28.629833
 20
218.7985
 30
0.0
  0
VERTEX
  8
1
  6
CONTINUOUS
 62
     7
  5
3B3
 10
-29.76
 20
217.934
 30
0.0
  0
VERTEX
  8
1
  6
CONTINUOUS
 62
     7
  5
3B4
 10
-30.092333
 20
217.003
 30
0.0
  0
VERTEX
  8
1
  6
CONTINUOUS
 62
     7
  5
3B5
 10
-30.624167
 20
216.205083
 30
0.0
  0
VERTEX
  8
1
  6
CONTINUOUS
 62
     7
  5
3B6
 10
-30.9565
 20
216.005583
 30
0.0
  0
SEQEND
  8
1
  6
CONTINUOUS
 62
     7
  5
3B7
  0
POLYLINE
  8
1
  6
CONTINUOUS
 62
     7
  5
3B8
 66
     1
 10
0.0
 20
0.0
 30
0.0
  0
VERTEX
  8
1
  6
CONTINUOUS
 62
     7
  5
3B9
 10
-26.969167
 20
218.745417
 30
0.0
  0
VERTEX
  8
1
  6
CONTINUOUS
 62
     7
  5
3BA
 10
-27.899833
 20
217.8145
 30
0.0
  0
VERTEX
  8
1
  6
CONTINUOUS
 62
     7
  5
3BB
 10
-28.897
 20
216.2185
 30
0.0
  0
VERTEX
  8
1
  6
CONTINUOUS
 62
     7
  5
3BC
 10
-29.362333
 20
215.287583
 30
0.0
  0
SEQEND
  8
1
  6
CONTINUOUS
 62
     7
  5
3BD
  0
POLYLINE
  8
1
  6
CONTINUOUS
 62
     7
  5
3BE
 66
     1
 10
0.0
 20
0.0
 30
0.0
  0
VERTEX
  8
1
  6
CONTINUOUS
 62
     7
  5
3BF
 10
-25.8785
 20
218.0175
 30
0.0
  0
VERTEX
  8
1
  6
CONTINUOUS
 62
     7
  5
3C0
 10
-27.473917
 20
216.6875
 30
0.0
  0
VERTEX
  8
1
  6
CONTINUOUS
 62
     7
  5
3C1
 10
-27.606833
 20
215.756583
 30
0.0
  0
VERTEX
  8
1
  6
CONTINUOUS
 62
     7
  5
3C2
 10
-27.93925
 20
214.759083
 30
0.0
  0
VERTEX
  8
1
  6
CONTINUOUS
 62
     7
  5
3C3
 10
-28.6705
 20
214.160583
 30
0.0
  0
SEQEND
  8
1
  6
CONTINUOUS
 62
     7
  5
3C4
  0
POLYLINE
  8
1
  6
CONTINUOUS
 62
     7
  5
3C5
 66
     1
 10
0.0
 20
0.0
 30
0.0
  0
VERTEX
  8
1
  6
CONTINUOUS
 62
     7
  5
3C6
 10
16.313583
 20
218.96575
 30
0.0
  0
VERTEX
  8
1
  6
CONTINUOUS
 62
     7
  5
3C7
 10
15.183417
 20
218.10125
 30
0.0
  0
VERTEX
  8
1
  6
CONTINUOUS
 62
     7
  5
3C8
 10
14.851083
 20
217.17025
 30
0.0
  0
VERTEX
  8
1
  6
CONTINUOUS
 62
     7
  5
3C9
 10
14.31925
 20
216.372333
 30
0.0
  0
VERTEX
  8
1
  6
CONTINUOUS
 62
     7
  5
3CA
 10
13.986917
 20
216.172833
 30
0.0
  0
SEQEND
  8
1
  6
CONTINUOUS
 62
     7
  5
3CB
  0
POLYLINE
  8
1
  6
CONTINUOUS
 62
     7
  5
3CC
 66
     1
 10
0.0
 20
0.0
 30
0.0
  0
VERTEX
  8
1
  6
CONTINUOUS
 62
     7
  5
3CD
 10
17.640167
 20
218.661917
 30
0.0
  0
VERTEX
  8
1
  6
CONTINUOUS
 62
     7
  5
3CE
 10
16.7095
 20
217.731
 30
0.0
  0
VERTEX
  8
1
  6
CONTINUOUS
 62
     7
  5
3CF
 10
15.712333
 20
216.135
 30
0.0
  0
VERTEX
  8
1
  6
CONTINUOUS
 62
     7
  5
3D0
 10
15.247
 20
215.204083
 30
0.0
  0
SEQEND
  8
1
  6
CONTINUOUS
 62
     7
  5
3D1
  0
ARC
  8
1
  6
CONTINUOUS
 62
     1
  5
3D2
 10
-8.917205
 20
314.155167
 30
0.0
 40
7.602679
 50
152.589403
 51
207.410603
210
0.0
220
0.0
230
1.0
  0
LINE
  8
1
  6
CONTINUOUS
 62
     1
  5
3D3
 10
-15.666333
 20
317.655167
 30
0.0
 11
-22.666333
 21
317.655167
 31
0.0
  0
LINE
  8
1
  6
CONTINUOUS
 62
     1
  5
3D4
 10
-15.666333
 20
310.655167
 30
0.0
 11
-22.666333
 21
310.655167
 31
0.0
  0
LINE
  8
1
  6
CONTINUOUS
 62
     1
  5
3D5
 10
-15.666333
 20
318.405167
 30
0.0
 11
-15.666333
 21
317.655167
 31
0.0
  0
LINE
  8
1
  6
CONTINUOUS
 62
     1
  5
3D6
 10
-15.666333
 20
310.655167
 30
0.0
 11
-15.666333
 21
309.905167
 31
0.0
  0
LINE
  8
1
  6
CONTINUOUS
 62
     1
  5
3D7
 10
-22.666333
 20
310.655167
 30
0.0
 11
-22.666333
 21
309.905167
 31
0.0
  0
LINE
  8
1
  6
CONTINUOUS
 62
     1
  5
3D8
 10
-22.666333
 20
318.405167
 30
0.0
 11
-22.666333
 21
317.655167
 31
0.0
  0
ARC
  8
1
  6
CONTINUOUS
 62
     1
  5
3D9
 10
-29.415462
 20
314.155167
 30
0.0
 40
7.602679
 50
332.589397
 51
27.410597
210
0.0
220
0.0
230
1.0
  0
LINE
  8
1
  6
CONTINUOUS
 62
     1
  5
3DA
 10
-15.666333
 20
318.405167
 30
0.0
 11
-22.666333
 21
318.405167
 31
0.0
  0
LINE
  8
1
  6
CONTINUOUS
 62
     1
  5
3DB
 10
-9.666333
 20
317.905167
 30
0.0
 11
-15.666333
 21
317.905167
 31
0.0
  0
LINE
  8
1
  6
CONTINUOUS
 62
     1
  5
3DC
 10
-22.666333
 20
317.905167
 30
0.0
 11
-28.666333
 21
317.905167
 31
0.0
  0
LINE
  8
1
  6
CONTINUOUS
 62
     1
  5
3DD
 10
-9.666333
 20
310.405167
 30
0.0
 11
-15.666333
 21
310.405167
 31
0.0
  0
LINE
  8
1
  6
CONTINUOUS
 62
     1
  5
3DE
 10
-22.666333
 20
310.405167
 30
0.0
 11
-28.666333
 21
310.405167
 31
0.0
  0
ARC
  8
1
  6
CONTINUOUS
 62
     1
  5
3DF
 10
-27.086027
 20
314.155167
 30
0.0
 40
4.069382
 50
112.851294
 51
247.148711
210
0.0
220
0.0
230
1.0
  0
ARC
  8
1
  6
CONTINUOUS
 62
     1
  5
3E0
 10
-11.257807
 20
314.155167
 30
0.0
 40
4.069382
 50
292.851289
 51
67.148706
210
0.0
220
0.0
230
1.0
  0
LINE
  8
1
  6
CONTINUOUS
 62
     5
  5
3E1
 10
-24.44325
 20
351.655167
 30
0.0
 11
-24.702917
 21
317.905167
 31
0.0
  0
LINE
  8
1
  6
CONTINUOUS
 62
     5
  5
3E2
 10
-24.760583
 20
310.405167
 30
0.0
 11
-25.1125
 21
264.655167
 31
0.0
  0
LINE
  8
1
  6
CONTINUOUS
 62
     5
  5
3E3
 10
-13.889417
 20
351.655167
 30
0.0
 11
-13.62975
 21
317.905167
 31
0.0
  0
LINE
  8
1
  6
CONTINUOUS
 62
     5
  5
3E4
 10
-13.572083
 20
310.405167
 30
0.0
 11
-13.220167
 21
264.655167
 31
0.0
  0
LINE
  8
1
  6
CONTINUOUS
 62
     1
  5
3E5
 10
-25.260667
 20
310.405167
 30
0.0
 11
-25.260667
 21
317.905167
 31
0.0
  0
LINE
  8
1
  6
CONTINUOUS
 62
     1
  5
3E6
 10
-13.072167
 20
310.405167
 30
0.0
 11
-13.072167
 21
317.905167
 31
0.0
  0
CIRCLE
  8
1
  6
CONTINUOUS
 62
     1
  5
3E7
 10
-28.203333
 20
314.15025
 30
0.0
 40
0.75
210
0.0
220
0.0
230
1.0
  0
CIRCLE
  8
1
  6
CONTINUOUS
 62
     1
  5
3E8
 10
-10.1405
 20
314.15025
 30
0.0
 40
0.75
210
0.0
220
0.0
230
1.0
  0
LINE
  8
1
  6
CONTINUOUS
 62
     1
  5
3E9
 10
-16.510667
 20
314.530167
 30
0.0
 11
-21.822
 21
314.530167
 31
0.0
  0
LINE
  8
1
  6
CONTINUOUS
 62
     1
  5
3EA
 10
-17.166333
 20
319.155167
 30
0.0
 11
-21.166333
 21
319.155167
 31
0.0
  0
LINE
  8
1
  6
CONTINUOUS
 62
     1
  5
3EB
 10
-17.166333
 20
309.155167
 30
0.0
 11
-21.166333
 21
309.155167
 31
0.0
  0
LINE
  8
1
  6
CONTINUOUS
 62
     1
  5
3EC
 10
-21.166333
 20
320.155167
 30
0.0
 11
-21.166333
 21
318.405167
 31
0.0
  0
LINE
  8
1
  6
CONTINUOUS
 62
     1
  5
3ED
 10
-17.166333
 20
320.155167
 30
0.0
 11
-17.166333
 21
318.405167
 31
0.0
  0
LINE
  8
1
  6
CONTINUOUS
 62
     1
  5
3EE
 10
-21.166333
 20
320.155167
 30
0.0
 11
-20.166333
 21
320.155167
 31
0.0
  0
LINE
  8
1
  6
CONTINUOUS
 62
     1
  5
3EF
 10
-17.166333
 20
320.155167
 30
0.0
 11
-18.166333
 21
320.155167
 31
0.0
  0
LINE
  8
1
  6
CONTINUOUS
 62
     1
  5
3F0
 10
-20.166333
 20
320.155167
 30
0.0
 11
-20.166333
 21
319.155167
 31
0.0
  0
LINE
  8
1
  6
CONTINUOUS
 62
     1
  5
3F1
 10
-18.166333
 20
320.155167
 30
0.0
 11
-18.166333
 21
319.155167
 31
0.0
  0
ARC
  8
1
  6
CONTINUOUS
 62
     1
  5
3F2
 10
-19.166333
 20
319.219274
 30
0.0
 40
0.877345
 50
355.809672
 51
184.190331
210
0.0
220
0.0
230
1.0
  0
LINE
  8
1
  6
CONTINUOUS
 62
     1
  5
3F3
 10
-21.166333
 20
308.405167
 30
0.0
 11
-21.166333
 21
309.905167
 31
0.0
  0
LINE
  8
1
  6
CONTINUOUS
 62
     1
  5
3F4
 10
-17.166333
 20
308.405167
 30
0.0
 11
-17.166333
 21
309.905167
 31
0.0
  0
LINE
  8
1
  6
CONTINUOUS
 62
     1
  5
3F5
 10
-17.166333
 20
308.405167
 30
0.0
 11
-21.166333
 21
308.405167
 31
0.0
  0
LINE
  8
1
  6
CONTINUOUS
 62
     1
  5
3F6
 10
-19.666333
 20
309.155167
 30
0.0
 11
-19.666333
 21
309.905167
 31
0.0
  0
LINE
  8
1
  6
CONTINUOUS
 62
     1
  5
3F7
 10
-18.666333
 20
309.155167
 30
0.0
 11
-18.666333
 21
309.905167
 31
0.0
  0
LINE
  8
1
  6
CONTINUOUS
 62
     1
  5
3F8
 10
-19.791333
 20
306.405167
 30
0.0
 11
-19.791333
 21
308.405167
 31
0.0
  0
LINE
  8
1
  6
CONTINUOUS
 62
     1
  5
3F9
 10
-18.541333
 20
306.405167
 30
0.0
 11
-18.541333
 21
308.405167
 31
0.0
  0
ARC
  8
1
  6
CONTINUOUS
 62
     1
  5
3FA
 10
-19.166333
 20
306.44413
 30
0.0
 40
0.626213
 50
183.567264
 51
356.432736
210
0.0
220
0.0
230
1.0
  0
LINE
  8
1
  6
CONTINUOUS
 62
     1
  5
3FB
 10
-19.166333
 20
307.655167
 30
0.0
 11
-19.166333
 21
306.655167
 31
0.0
  0
LINE
  8
1
  6
CONTINUOUS
 62
     1
  5
3FC
 10
-15.666333
 20
309.905167
 30
0.0
 11
-22.666333
 21
309.905167
 31
0.0
  0
ARC
  8
1
  6
CONTINUOUS
 62
     1
  5
3FD
 10
-19.166333
 20
322.134516
 30
0.0
 40
16.448617
 50
228.029394
 51
311.970603
210
0.0
220
0.0
230
1.0
  0
ARC
  8
1
  6
CONTINUOUS
 62
     1
  5
3FE
 10
-34.898828
 20
303.72519
 30
0.0
 40
7.783869
 50
52.555883
 51
99.371633
210
0.0
220
0.0
230
1.0
  0
ARC
  8
1
  6
CONTINUOUS
 62
     1
  5
3FF
 10
-3.396839
 20
303.72519
 30
0.0
 40
7.783869
 50
80.628367
 51
127.444117
210
0.0
220
0.0
230
1.0
  0
LINE
  8
1
  6
CONTINUOUS
 62
     1
  5
400
 10
-36.166333
 20
311.405167
 30
0.0
 11
-64.05975
 21
308.964833
 31
0.0
  0
LINE
  8
1
  6
CONTINUOUS
 62
     1
  5
401
 10
-2.129333
 20
311.405167
 30
0.0
 11
31.74125
 21
308.441833
 31
0.0
  0
LINE
  8
1
  6
CONTINUOUS
 62
     1
  5
402
 10
-21.851
 20
314.91625
 30
0.0
 11
-64.255917
 21
311.206333
 31
0.0
  0
LINE
  8
1
  6
CONTINUOUS
 62
     1
  5
403
 10
-16.481333
 20
314.9195
 30
0.0
 11
31.937333
 21
310.683333
 31
0.0
  0
POLYLINE
  8
1
  6
CONTINUOUS
 62
     1
  5
404
 66
     1
 10
0.0
 20
0.0
 30
0.0
  0
VERTEX
  8
1
  6
CONTINUOUS
 62
     1
  5
405
 10
-21.822
 20
314.530167
 30
0.0
  0
VERTEX
  8
1
  6
CONTINUOUS
 62
     1
  5
406
 10
-22.065083
 20
315.0235
 30
0.0
  0
VERTEX
  8
1
  6
CONTINUOUS
 62
     1
  5
407
 10
-22.476833
 20
315.131333
 30
0.0
  0
VERTEX
  8
1
  6
CONTINUOUS
 62
     1
  5
408
 10
-22.751417
 20
315.003833
 30
0.0
  0
VERTEX
  8
1
  6
CONTINUOUS
 62
     1
  5
409
 10
-22.937667
 20
314.90575
 30
0.0
  0
VERTEX
  8
1
  6
CONTINUOUS
 62
     1
  5
40A
 10
-23.055333
 20
314.739
 30
0.0
  0
VERTEX
  8
1
  6
CONTINUOUS
 62
     1
  5
40B
 10
-23.153417
 20
314.69
 30
0.0
  0
VERTEX
  8
1
  6
CONTINUOUS
 62
     1
  5
40C
 10
-23.408333
 20
314.572333
 30
0.0
  0
VERTEX
  8
1
  6
CONTINUOUS
 62
     1
  5
40D
 10
-23.898583
 20
314.464417
 30
0.0
  0
VERTEX
  8
1
  6
CONTINUOUS
 62
     1
  5
40E
 10
-24.281
 20
314.47425
 30
0.0
  0
VERTEX
  8
1
  6
CONTINUOUS
 62
     1
  5
40F
 10
-24.77125
 20
314.72925
 30
0.0
  0
VERTEX
  8
1
  6
CONTINUOUS
 62
     1
  5
410
 10
-25.12425
 20
314.876333
 30
0.0
  0
VERTEX
  8
1
  6
CONTINUOUS
 62
     1
  5
411
 10
-25.487
 20
314.915583
 30
0.0
  0
VERTEX
  8
1
  6
CONTINUOUS
 62
     1
  5
412
 10
-25.70275
 20
314.876333
 30
0.0
  0
VERTEX
  8
1
  6
CONTINUOUS
 62
     1
  5
413
 10
-25.87925
 20
314.797917
 30
0.0
  0
VERTEX
  8
1
  6
CONTINUOUS
 62
     1
  5
414
 10
-26.045917
 20
314.680167
 30
0.0
  0
VERTEX
  8
1
  6
CONTINUOUS
 62
     1
  5
415
 10
-26.183167
 20
314.542917
 30
0.0
  0
SEQEND
  8
1
  6
CONTINUOUS
 62
     1
  5
416
  0
POLYLINE
  8
1
  6
CONTINUOUS
 62
     1
  5
417
 66
     1
 10
0.0
 20
0.0
 30
0.0
  0
VERTEX
  8
1
  6
CONTINUOUS
 62
     1
  5
418
 10
-16.510667
 20
314.530167
 30
0.0
  0
VERTEX
  8
1
  6
CONTINUOUS
 62
     1
  5
419
 10
-16.277583
 20
314.488917
 30
0.0
  0
VERTEX
  8
1
  6
CONTINUOUS
 62
     1
  5
41A
 10
-15.8635
 20
314.588333
 30
0.0
  0
VERTEX
  8
1
  6
CONTINUOUS
 62
     1
  5
41B
 10
-15.615
 20
314.7375
 30
0.0
  0
VERTEX
  8
1
  6
CONTINUOUS
 62
     1
  5
41C
 10
-15.41625
 20
314.87
 30
0.0
  0
VERTEX
  8
1
  6
CONTINUOUS
 62
     1
  5
41D
 10
-15.250667
 20
314.91975
 30
0.0
  0
VERTEX
  8
1
  6
CONTINUOUS
 62
     1
  5
41E
 10
-14.935917
 20
314.754083
 30
0.0
  0
VERTEX
  8
1
  6
CONTINUOUS
 62
     1
  5
41F
 10
-14.803417
 20
314.588333
 30
0.0
  0
VERTEX
  8
1
  6
CONTINUOUS
 62
     1
  5
420
 10
-14.62125
 20
314.406083
 30
0.0
  0
VERTEX
  8
1
  6
CONTINUOUS
 62
     1
  5
421
 10
-14.555
 20
314.339833
 30
0.0
  0
VERTEX
  8
1
  6
CONTINUOUS
 62
     1
  5
422
 10
-14.37275
 20
314.223833
 30
0.0
  0
VERTEX
  8
1
  6
CONTINUOUS
 62
     1
  5
423
 10
-14.024917
 20
314.19075
 30
0.0
  0
VERTEX
  8
1
  6
CONTINUOUS
 62
     1
  5
424
 10
-13.7765
 20
314.306667
 30
0.0
  0
VERTEX
  8
1
  6
CONTINUOUS
 62
     1
  5
425
 10
-13.5115
 20
314.522083
 30
0.0
  0
VERTEX
  8
1
  6
CONTINUOUS
 62
     1
  5
426
 10
-13.379
 20
314.68775
 30
0.0
  0
SEQEND
  8
1
  6
CONTINUOUS
 62
     1
  5
427
  0
POLYLINE
  8
1
  6
CONTINUOUS
 62
     1
  5
428
 66
     1
 10
0.0
 20
0.0
 30
0.0
 70
     1
210
0.0
220
0.0
230
1.0
  0
VERTEX
  8
1
  6
CONTINUOUS
 62
     1
  5
429
 10
-56.9285
 20
312.682917
 30
0.0
 42
0.207197
  0
VERTEX
  8
1
  6
CONTINUOUS
 62
     1
  5
42A
 10
-57.000136
 20
312.645113
 30
0.0
 42
0.082746
  0
VERTEX
  8
1
  6
CONTINUOUS
 62
     1
  5
42B
 10
-57.069019
 20
312.533156
 30
0.0
 42
0.037757
  0
VERTEX
  8
1
  6
CONTINUOUS
 62
     1
  5
42C
 10
-57.132502
 20
312.351347
 30
0.0
 42
0.02197
  0
VERTEX
  8
1
  6
CONTINUOUS
 62
     1
  5
42D
 10
-57.188145
 20
312.106674
 30
0.0
 42
0.015113
  0
VERTEX
  8
1
  6
CONTINUOUS
 62
     1
  5
42E
 10
-57.23381
 20
311.808538
 30
0.0
 42
0.011729
  0
VERTEX
  8
1
  6
CONTINUOUS
 62
     1
  5
42F
 10
-57.267743
 20
311.468398
 30
0.0
 42
0.010012
  0
VERTEX
  8
1
  6
CONTINUOUS
 62
     1
  5
430
 10
-57.288638
 20
311.099324
 30
0.0
 42
0.009277
  0
VERTEX
  8
1
  6
CONTINUOUS
 62
     1
  5
431
 10
-57.295694
 20
310.7155
 30
0.0
 42
0.009277
  0
VERTEX
  8
1
  6
CONTINUOUS
 62
     1
  5
432
 10
-57.288638
 20
310.331676
 30
0.0
 42
0.010012
  0
VERTEX
  8
1
  6
CONTINUOUS
 62
     1
  5
433
 10
-57.267743
 20
309.962602
 30
0.0
 42
0.011729
  0
VERTEX
  8
1
  6
CONTINUOUS
 62
     1
  5
434
 10
-57.23381
 20
309.622462
 30
0.0
 42
0.015113
  0
VERTEX
  8
1
  6
CONTINUOUS
 62
     1
  5
435
 10
-57.188145
 20
309.324326
 30
0.0
 42
0.02197
  0
VERTEX
  8
1
  6
CONTINUOUS
 62
     1
  5
436
 10
-57.132502
 20
309.079653
 30
0.0
 42
0.037757
  0
VERTEX
  8
1
  6
CONTINUOUS
 62
     1
  5
437
 10
-57.069019
 20
308.897844
 30
0.0
 42
0.082746
  0
VERTEX
  8
1
  6
CONTINUOUS
 62
     1
  5
438
 10
-57.000136
 20
308.785887
 30
0.0
 42
0.207197
  0
VERTEX
  8
1
  6
CONTINUOUS
 62
     1
  5
439
 10
-56.9285
 20
308.748083
 30
0.0
 42
0.207197
  0
VERTEX
  8
1
  6
CONTINUOUS
 62
     1
  5
43A
 10
-56.856864
 20
308.785887
 30
0.0
 42
0.082746
  0
VERTEX
  8
1
  6
CONTINUOUS
 62
     1
  5
43B
 10
-56.787981
 20
308.897844
 30
0.0
 42
0.037757
  0
VERTEX
  8
1
  6
CONTINUOUS
 62
     1
  5
43C
 10
-56.724498
 20
309.079653
 30
0.0
 42
0.02197
  0
VERTEX
  8
1
  6
CONTINUOUS
 62
     1
  5
43D
 10
-56.668855
 20
309.324326
 30
0.0
 42
0.015113
  0
VERTEX
  8
1
  6
CONTINUOUS
 62
     1
  5
43E
 10
-56.62319
 20
309.622462
 30
0.0
 42
0.011729
  0
VERTEX
  8
1
  6
CONTINUOUS
 62
     1
  5
43F
 10
-56.589257
 20
309.962602
 30
0.0
 42
0.010012
  0
VERTEX
  8
1
  6
CONTINUOUS
 62
     1
  5
440
 10
-56.568362
 20
310.331676
 30
0.0
 42
0.009277
  0
VERTEX
  8
1
  6
CONTINUOUS
 62
     1
  5
441
 10
-56.561306
 20
310.7155
 30
0.0
 42
0.009277
  0
VERTEX
  8
1
  6
CONTINUOUS
 62
     1
  5
442
 10
-56.568362
 20
311.099324
 30
0.0
 42
0.010012
  0
VERTEX
  8
1
  6
CONTINUOUS
 62
     1
  5
443
 10
-56.589257
 20
311.468398
 30
0.0
 42
0.011729
  0
VERTEX
  8
1
  6
CONTINUOUS
 62
     1
  5
444
 10
-56.62319
 20
311.808538
 30
0.0
 42
0.015113
  0
VERTEX
  8
1
  6
CONTINUOUS
 62
     1
  5
445
 10
-56.668855
 20
312.106674
 30
0.0
 42
0.02197
  0
VERTEX
  8
1
  6
CONTINUOUS
 62
     1
  5
446
 10
-56.724498
 20
312.351347
 30
0.0
 42
0.037757
  0
VERTEX
  8
1
  6
CONTINUOUS
 62
     1
  5
447
 10
-56.787981
 20
312.533156
 30
0.0
 42
0.082746
  0
VERTEX
  8
1
  6
CONTINUOUS
 62
     1
  5
448
 10
-56.856864
 20
312.645113
 30
0.0
 42
0.207197
  0
SEQEND
  8
1
  6
CONTINUOUS
 62
     1
  5
449
  0
POLYLINE
  8
1
  6
CONTINUOUS
 62
     1
  5
44A
 66
     1
 10
0.0
 20
0.0
 30
0.0
 70
     1
210
0.0
220
0.0
230
1.0
  0
VERTEX
  8
1
  6
CONTINUOUS
 62
     1
  5
44B
 10
-36.902917
 20
314.348167
 30
0.0
 42
0.207197
  0
VERTEX
  8
1
  6
CONTINUOUS
 62
     1
  5
44C
 10
-36.974553
 20
314.310363
 30
0.0
 42
0.082746
  0
VERTEX
  8
1
  6
CONTINUOUS
 62
     1
  5
44D
 10
-37.043436
 20
314.198406
 30
0.0
 42
0.037757
  0
VERTEX
  8
1
  6
CONTINUOUS
 62
     1
  5
44E
 10
-37.106918
 20
314.016597
 30
0.0
 42
0.02197
  0
VERTEX
  8
1
  6
CONTINUOUS
 62
     1
  5
44F
 10
-37.162562
 20
313.771924
 30
0.0
 42
0.015113
  0
VERTEX
  8
1
  6
CONTINUOUS
 62
     1
  5
450
 10
-37.208227
 20
313.473788
 30
0.0
 42
0.011729
  0
VERTEX
  8
1
  6
CONTINUOUS
 62
     1
  5
451
 10
-37.242159
 20
313.133648
 30
0.0
 42
0.010012
  0
VERTEX
  8
1
  6
CONTINUOUS
 62
     1
  5
452
 10
-37.263055
 20
312.764574
 30
0.0
 42
0.009277
  0
VERTEX
  8
1
  6
CONTINUOUS
 62
     1
  5
453
 10
-37.27011
 20
312.38075
 30
0.0
 42
0.009277
  0
VERTEX
  8
1
  6
CONTINUOUS
 62
     1
  5
454
 10
-37.263055
 20
311.996926
 30
0.0
 42
0.010012
  0
VERTEX
  8
1
  6
CONTINUOUS
 62
     1
  5
455
 10
-37.242159
 20
311.627852
 30
0.0
 42
0.011729
  0
VERTEX
  8
1
  6
CONTINUOUS
 62
     1
  5
456
 10
-37.208227
 20
311.287712
 30
0.0
 42
0.015113
  0
VERTEX
  8
1
  6
CONTINUOUS
 62
     1
  5
457
 10
-37.162562
 20
310.989576
 30
0.0
 42
0.02197
  0
VERTEX
  8
1
  6
CONTINUOUS
 62
     1
  5
458
 10
-37.106918
 20
310.744903
 30
0.0
 42
0.037757
  0
VERTEX
  8
1
  6
CONTINUOUS
 62
     1
  5
459
 10
-37.043436
 20
310.563094
 30
0.0
 42
0.082746
  0
VERTEX
  8
1
  6
CONTINUOUS
 62
     1
  5
45A
 10
-36.974553
 20
310.451137
 30
0.0
 42
0.207197
  0
VERTEX
  8
1
  6
CONTINUOUS
 62
     1
  5
45B
 10
-36.902917
 20
310.413333
 30
0.0
 42
0.207197
  0
VERTEX
  8
1
  6
CONTINUOUS
 62
     1
  5
45C
 10
-36.831281
 20
310.451137
 30
0.0
 42
0.082746
  0
VERTEX
  8
1
  6
CONTINUOUS
 62
     1
  5
45D
 10
-36.762398
 20
310.563094
 30
0.0
 42
0.037757
  0
VERTEX
  8
1
  6
CONTINUOUS
 62
     1
  5
45E
 10
-36.698915
 20
310.744903
 30
0.0
 42
0.02197
  0
VERTEX
  8
1
  6
CONTINUOUS
 62
     1
  5
45F
 10
-36.643272
 20
310.989576
 30
0.0
 42
0.015113
  0
VERTEX
  8
1
  6
CONTINUOUS
 62
     1
  5
460
 10
-36.597606
 20
311.287712
 30
0.0
 42
0.011729
  0
VERTEX
  8
1
  6
CONTINUOUS
 62
     1
  5
461
 10
-36.563674
 20
311.627852
 30
0.0
 42
0.010012
  0
VERTEX
  8
1
  6
CONTINUOUS
 62
     1
  5
462
 10
-36.542779
 20
311.996926
 30
0.0
 42
0.009277
  0
VERTEX
  8
1
  6
CONTINUOUS
 62
     1
  5
463
 10
-36.535723
 20
312.38075
 30
0.0
 42
0.009277
  0
VERTEX
  8
1
  6
CONTINUOUS
 62
     1
  5
464
 10
-36.542779
 20
312.764574
 30
0.0
 42
0.010012
  0
VERTEX
  8
1
  6
CONTINUOUS
 62
     1
  5
465
 10
-36.563674
 20
313.133648
 30
0.0
 42
0.011729
  0
VERTEX
  8
1
  6
CONTINUOUS
 62
     1
  5
466
 10
-36.597606
 20
313.473788
 30
0.0
 42
0.015113
  0
VERTEX
  8
1
  6
CONTINUOUS
 62
     1
  5
467
 10
-36.643272
 20
313.771924
 30
0.0
 42
0.02197
  0
VERTEX
  8
1
  6
CONTINUOUS
 62
     1
  5
468
 10
-36.698915
 20
314.016597
 30
0.0
 42
0.037757
  0
VERTEX
  8
1
  6
CONTINUOUS
 62
     1
  5
469
 10
-36.762398
 20
314.198406
 30
0.0
 42
0.082746
  0
VERTEX
  8
1
  6
CONTINUOUS
 62
     1
  5
46A
 10
-36.831281
 20
314.310363
 30
0.0
 42
0.207197
  0
SEQEND
  8
1
  6
CONTINUOUS
 62
     1
  5
46B
  0
POLYLINE
  8
1
  6
CONTINUOUS
 62
     1
  5
46C
 66
     1
 10
0.0
 20
0.0
 30
0.0
 70
     1
210
0.0
220
0.0
230
1.0
  0
VERTEX
  8
1
  6
CONTINUOUS
 62
     1
  5
46D
 10
18.45425
 20
312.61975
 30
0.0
 42
0.207197
  0
VERTEX
  8
1
  6
CONTINUOUS
 62
     1
  5
46E
 10
18.382614
 20
312.581947
 30
0.0
 42
0.082746
  0
VERTEX
  8
1
  6
CONTINUOUS
 62
     1
  5
46F
 10
18.313731
 20
312.469989
 30
0.0
 42
0.037757
  0
VERTEX
  8
1
  6
CONTINUOUS
 62
     1
  5
470
 10
18.250248
 20
312.288181
 30
0.0
 42
0.02197
  0
VERTEX
  8
1
  6
CONTINUOUS
 62
     1
  5
471
 10
18.194605
 20
312.043507
 30
0.0
 42
0.015113
  0
VERTEX
  8
1
  6
CONTINUOUS
 62
     1
  5
472
 10
18.14894
 20
311.745371
 30
0.0
 42
0.011729
  0
VERTEX
  8
1
  6
CONTINUOUS
 62
     1
  5
473
 10
18.115007
 20
311.405231
 30
0.0
 42
0.010012
  0
VERTEX
  8
1
  6
CONTINUOUS
 62
     1
  5
474
 10
18.094112
 20
311.036157
 30
0.0
 42
0.009277
  0
VERTEX
  8
1
  6
CONTINUOUS
 62
     1
  5
475
 10
18.087056
 20
310.652333
 30
0.0
 42
0.009277
  0
VERTEX
  8
1
  6
CONTINUOUS
 62
     1
  5
476
 10
18.094112
 20
310.268509
 30
0.0
 42
0.010012
  0
VERTEX
  8
1
  6
CONTINUOUS
 62
     1
  5
477
 10
18.115007
 20
309.899436
 30
0.0
 42
0.011729
  0
VERTEX
  8
1
  6
CONTINUOUS
 62
     1
  5
478
 10
18.14894
 20
309.559295
 30
0.0
 42
0.015113
  0
VERTEX
  8
1
  6
CONTINUOUS
 62
     1
  5
479
 10
18.194605
 20
309.26116
 30
0.0
 42
0.02197
  0
VERTEX
  8
1
  6
CONTINUOUS
 62
     1
  5
47A
 10
18.250248
 20
309.016486
 30
0.0
 42
0.037757
  0
VERTEX
  8
1
  6
CONTINUOUS
 62
     1
  5
47B
 10
18.313731
 20
308.834677
 30
0.0
 42
0.082746
  0
VERTEX
  8
1
  6
CONTINUOUS
 62
     1
  5
47C
 10
18.382614
 20
308.72272
 30
0.0
 42
0.207197
  0
VERTEX
  8
1
  6
CONTINUOUS
 62
     1
  5
47D
 10
18.45425
 20
308.684917
 30
0.0
 42
0.207197
  0
VERTEX
  8
1
  6
CONTINUOUS
 62
     1
  5
47E
 10
18.525886
 20
308.72272
 30
0.0
 42
0.082746
  0
VERTEX
  8
1
  6
CONTINUOUS
 62
     1
  5
47F
 10
18.594769
 20
308.834677
 30
0.0
 42
0.037757
  0
VERTEX
  8
1
  6
CONTINUOUS
 62
     1
  5
480
 10
18.658252
 20
309.016486
 30
0.0
 42
0.02197
  0
VERTEX
  8
1
  6
CONTINUOUS
 62
     1
  5
481
 10
18.713895
 20
309.26116
 30
0.0
 42
0.015113
  0
VERTEX
  8
1
  6
CONTINUOUS
 62
     1
  5
482
 10
18.75956
 20
309.559295
 30
0.0
 42
0.011729
  0
VERTEX
  8
1
  6
CONTINUOUS
 62
     1
  5
483
 10
18.793493
 20
309.899436
 30
0.0
 42
0.010012
  0
VERTEX
  8
1
  6
CONTINUOUS
 62
     1
  5
484
 10
18.814388
 20
310.268509
 30
0.0
 42
0.009277
  0
VERTEX
  8
1
  6
CONTINUOUS
 62
     1
  5
485
 10
18.821444
 20
310.652333
 30
0.0
 42
0.009277
  0
VERTEX
  8
1
  6
CONTINUOUS
 62
     1
  5
486
 10
18.814388
 20
311.036157
 30
0.0
 42
0.010012
  0
VERTEX
  8
1
  6
CONTINUOUS
 62
     1
  5
487
 10
18.793493
 20
311.405231
 30
0.0
 42
0.011729
  0
VERTEX
  8
1
  6
CONTINUOUS
 62
     1
  5
488
 10
18.75956
 20
311.745371
 30
0.0
 42
0.015113
  0
VERTEX
  8
1
  6
CONTINUOUS
 62
     1
  5
489
 10
18.713895
 20
312.043507
 30
0.0
 42
0.02197
  0
VERTEX
  8
1
  6
CONTINUOUS
 62
     1
  5
48A
 10
18.658252
 20
312.288181
 30
0.0
 42
0.037757
  0
VERTEX
  8
1
  6
CONTINUOUS
 62
     1
  5
48B
 10
18.594769
 20
312.469989
 30
0.0
 42
0.082746
  0
VERTEX
  8
1
  6
CONTINUOUS
 62
     1
  5
48C
 10
18.525886
 20
312.581947
 30
0.0
 42
0.207197
  0
SEQEND
  8
1
  6
CONTINUOUS
 62
     1
  5
48D
  0
POLYLINE
  8
1
  6
CONTINUOUS
 62
     1
  5
48E
 66
     1
 10
0.0
 20
0.0
 30
0.0
 70
     1
210
0.0
220
0.0
230
1.0
  0
VERTEX
  8
1
  6
CONTINUOUS
 62
     1
  5
48F
 10
-1.482333
 20
314.414667
 30
0.0
 42
0.207197
  0
VERTEX
  8
1
  6
CONTINUOUS
 62
     1
  5
490
 10
-1.553969
 20
314.376863
 30
0.0
 42
0.082746
  0
VERTEX
  8
1
  6
CONTINUOUS
 62
     1
  5
491
 10
-1.622852
 20
314.264906
 30
0.0
 42
0.037757
  0
VERTEX
  8
1
  6
CONTINUOUS
 62
     1
  5
492
 10
-1.686335
 20
314.083097
 30
0.0
 42
0.02197
  0
VERTEX
  8
1
  6
CONTINUOUS
 62
     1
  5
493
 10
-1.741978
 20
313.838424
 30
0.0
 42
0.015113
  0
VERTEX
  8
1
  6
CONTINUOUS
 62
     1
  5
494
 10
-1.787644
 20
313.540288
 30
0.0
 42
0.011729
  0
VERTEX
  8
1
  6
CONTINUOUS
 62
     1
  5
495
 10
-1.821576
 20
313.200148
 30
0.0
 42
0.010012
  0
VERTEX
  8
1
  6
CONTINUOUS
 62
     1
  5
496
 10
-1.842471
 20
312.831074
 30
0.0
 42
0.009277
  0
VERTEX
  8
1
  6
CONTINUOUS
 62
     1
  5
497
 10
-1.849527
 20
312.44725
 30
0.0
 42
0.009277
  0
VERTEX
  8
1
  6
CONTINUOUS
 62
     1
  5
498
 10
-1.842471
 20
312.063426
 30
0.0
 42
0.010012
  0
VERTEX
  8
1
  6
CONTINUOUS
 62
     1
  5
499
 10
-1.821576
 20
311.694352
 30
0.0
 42
0.011729
  0
VERTEX
  8
1
  6
CONTINUOUS
 62
     1
  5
49A
 10
-1.787644
 20
311.354212
 30
0.0
 42
0.015113
  0
VERTEX
  8
1
  6
CONTINUOUS
 62
     1
  5
49B
 10
-1.741978
 20
311.056076
 30
0.0
 42
0.02197
  0
VERTEX
  8
1
  6
CONTINUOUS
 62
     1
  5
49C
 10
-1.686335
 20
310.811403
 30
0.0
 42
0.037757
  0
VERTEX
  8
1
  6
CONTINUOUS
 62
     1
  5
49D
 10
-1.622852
 20
310.629594
 30
0.0
 42
0.082746
  0
VERTEX
  8
1
  6
CONTINUOUS
 62
     1
  5
49E
 10
-1.553969
 20
310.517637
 30
0.0
 42
0.207197
  0
VERTEX
  8
1
  6
CONTINUOUS
 62
     1
  5
49F
 10
-1.482333
 20
310.479833
 30
0.0
 42
0.207197
  0
VERTEX
  8
1
  6
CONTINUOUS
 62
     1
  5
4A0
 10
-1.410697
 20
310.517637
 30
0.0
 42
0.082746
  0
VERTEX
  8
1
  6
CONTINUOUS
 62
     1
  5
4A1
 10
-1.341814
 20
310.629594
 30
0.0
 42
0.037757
  0
VERTEX
  8
1
  6
CONTINUOUS
 62
     1
  5
4A2
 10
-1.278332
 20
310.811403
 30
0.0
 42
0.02197
  0
VERTEX
  8
1
  6
CONTINUOUS
 62
     1
  5
4A3
 10
-1.222688
 20
311.056076
 30
0.0
 42
0.015113
  0
VERTEX
  8
1
  6
CONTINUOUS
 62
     1
  5
4A4
 10
-1.177023
 20
311.354212
 30
0.0
 42
0.011729
  0
VERTEX
  8
1
  6
CONTINUOUS
 62
     1
  5
4A5
 10
-1.143091
 20
311.694352
 30
0.0
 42
0.010012
  0
VERTEX
  8
1
  6
CONTINUOUS
 62
     1
  5
4A6
 10
-1.122195
 20
312.063426
 30
0.0
 42
0.009277
  0
VERTEX
  8
1
  6
CONTINUOUS
 62
     1
  5
4A7
 10
-1.11514
 20
312.44725
 30
0.0
 42
0.009277
  0
VERTEX
  8
1
  6
CONTINUOUS
 62
     1
  5
4A8
 10
-1.122195
 20
312.831074
 30
0.0
 42
0.010012
  0
VERTEX
  8
1
  6
CONTINUOUS
 62
     1
  5
4A9
 10
-1.143091
 20
313.200148
 30
0.0
 42
0.011729
  0
VERTEX
  8
1
  6
CONTINUOUS
 62
     1
  5
4AA
 10
-1.177023
 20
313.540288
 30
0.0
 42
0.015113
  0
VERTEX
  8
1
  6
CONTINUOUS
 62
     1
  5
4AB
 10
-1.222688
 20
313.838424
 30
0.0
 42
0.02197
  0
VERTEX
  8
1
  6
CONTINUOUS
 62
     1
  5
4AC
 10
-1.278332
 20
314.083097
 30
0.0
 42
0.037757
  0
VERTEX
  8
1
  6
CONTINUOUS
 62
     1
  5
4AD
 10
-1.341814
 20
314.264906
 30
0.0
 42
0.082746
  0
VERTEX
  8
1
  6
CONTINUOUS
 62
     1
  5
4AE
 10
-1.410697
 20
314.376863
 30
0.0
 42
0.207197
  0
SEQEND
  8
1
  6
CONTINUOUS
 62
     1
  5
4AF
  0
LINE
  8
1
  6
CONTINUOUS
 62
     7
  5
4B0
 10
-136.9885
 20
314.108
 30
0.0
 11
-44.4885
 21
314.108
 31
0.0
  0
LINE
  8
1
  6
CONTINUOUS
 62
     7
  5
4B1
 10
-115.35
 20
214.655167
 30
0.0
 11
-58.9385
 21
214.655167
 31
0.0
  0
INSERT
  8
1
  6
CONTINUOUS
 62
     1
  5
4D2
  2
LDR
 10
-87.15625
 20
314.108
 30
0.0
 41
240.0
 42
240.0
 50
90.0
210
0.0
220
0.0
230
1.0
  0
INSERT
  8
1
  6
CONTINUOUS
 62
     1
  5
4D3
  2
LDR
 10
-87.15625
 20
314.108
 30
0.0
 41
240.0
 42
240.0
 50
90.0
210
0.0
220
0.0
230
1.0
  0
INSERT
  8
1
  6
CONTINUOUS
 62
     1
  5
4D4
  2
LDR
 10
-87.15625
 20
214.655167
 30
0.0
 41
240.0
 42
240.0
 50
270.0
210
0.0
220
0.0
230
1.0
  0
LINE
  8
1
  6
CONTINUOUS
 62
     7
  5
4D5
 10
-164.704833
 20
317.655167
 30
0.0
 11
-174.823167
 21
324.883917
 31
0.0
  0
LINE
  8
1
  6
CONTINUOUS
 62
     7
  5
4D6
 10
-174.823167
 20
324.883917
 30
0.0
 11
-176.881417
 21
324.883917
 31
0.0
  0
LINE
  8
1
  6
CONTINUOUS
 62
     7
  5
4D7
 10
-162.704833
 20
313.780167
 30
0.0
 11
-172.470917
 21
309.589167
 31
0.0
  0
LINE
  8
1
  6
CONTINUOUS
 62
     7
  5
4D8
 10
-172.470917
 20
309.589167
 30
0.0
 11
-174.970167
 21
309.589167
 31
0.0
  0
LINE
  8
1
  6
CONTINUOUS
 62
     7
  5
4D9
 10
-147.122
 20
315.030167
 30
0.0
 11
-146.965
 21
337.669667
 31
0.0
  0
LINE
  8
1
  6
CONTINUOUS
 62
     7
  5
4DA
 10
-145.61275
 20
314.872333
 30
0.0
 11
-139.253
 21
331.461583
 31
0.0
  0
LINE
  8
1
  6
CONTINUOUS
 62
     7
  5
4DB
 10
-141.710583
 20
319.565167
 30
0.0
 11
-135.075583
 21
325.372833
 31
0.0
  0
LINE
  8
1
  6
CONTINUOUS
 62
     7
  5
4DC
 10
-139.343
 20
315.22325
 30
0.0
 11
-135.090167
 21
317.503833
 31
0.0
  0
LINE
  8
1
  6
CONTINUOUS
 62
     7
  5
4DD
 10
-135.090167
 20
317.503833
 30
0.0
 11
-133.599417
 21
317.503833
 31
0.0
  0
LINE
  8
1
  6
CONTINUOUS
 62
     7
  5
4DE
 10
-140.789917
 20
307.986583
 30
0.0
 11
-139.036083
 21
303.776167
 31
0.0
  0
LINE
  8
1
  6
CONTINUOUS
 62
     7
  5
4DF
 10
-139.036083
 20
303.776167
 30
0.0
 11
-137.37
 21
303.776167
 31
0.0
  0
LINE
  8
1
  6
CONTINUOUS
 62
     7
  5
4E0
 10
-141.842167
 20
304.258667
 30
0.0
 11
-138.436417
 21
297.914833
 31
0.0
  0
LINE
  8
1
  6
CONTINUOUS
 62
     7
  5
4E1
 10
-146.928083
 20
308.600583
 30
0.0
 11
-146.928083
 21
290.9645
 31
0.0
  0
LINE
  8
1
  6
CONTINUOUS
 62
     7
  5
4E2
 10
-14.0655
 20
314.222167
 30
0.0
 11
-7.670083
 21
327.8355
 31
0.0
  0
LINE
  8
1
  6
CONTINUOUS
 62
     7
  5
4E3
 10
-7.670083
 20
327.8355
 30
0.0
 11
-5.587833
 21
327.8355
 31
0.0
  0
LINE
  8
1
  6
CONTINUOUS
 62
     7
  5
4E4
 10
-1.49775
 20
314.445333
 30
0.0
 11
3.344417
 21
323.088083
 31
0.0
  0
LINE
  8
1
  6
CONTINUOUS
 62
     7
  5
4E5
 10
10.177667
 20
312.80875
 30
0.0
 11
13.484583
 21
318.130333
 31
0.0
  0
LINE
  8
1
  6
CONTINUOUS
 62
     7
  5
4E6
 10
-8.41375
 20
309.535583
 30
0.0
 11
-7.075167
 21
298.377167
 31
0.0
  0
LINE
  8
1
  6
CONTINUOUS
 62
     7
  5
4E7
 10
-7.075167
 20
298.377167
 30
0.0
 11
-5.5135
 21
298.377167
 31
0.0
  0
LINE
  8
1
  6
CONTINUOUS
 62
     7
  5
4E8
 10
-137.748333
 20
219.6285
 30
0.0
 11
-133.861667
 21
224.27425
 31
0.0
  0
LINE
  8
1
  6
CONTINUOUS
 62
     7
  5
4E9
 10
-133.861667
 20
224.27425
 30
0.0
 11
-132.939417
 21
224.27425
 31
0.0
  0
INSERT
  8
1
  6
CONTINUOUS
 62
     1
  5
4EA
  2
LDR
 10
-137.748333
 20
219.6285
 30
0.0
 41
240.0
 42
240.0
 50
230.083913
210
0.0
220
0.0
230
1.0
  0
TEXT
  8
1
  6
CONTINUOUS
 62
     7
  5
4EB
 10
-132.5155
 20
223.175333
 30
0.0
 40
2.0
  1
GRADE
  7
MONOTXT
 72
     4
 11
-127.925
 21
224.175333
 31
0.0
210
0.0
220
0.0
230
1.0
  0
INSERT
  8
1
  6
CONTINUOUS
 62
     1
  5
4EC
  2
LDR
 10
-164.704833
 20
317.655167
 30
0.0
 41
240.000003
 42
240.000003
 50
324.457189
210
0.0
220
0.0
230
1.0
  0
INSERT
  8
1
  6
CONTINUOUS
 62
     1
  5
4ED
  2
LDR
 10
-164.704833
 20
317.655167
 30
0.0
 41
240.000003
 42
240.000003
 50
324.457189
210
0.0
220
0.0
230
1.0
  0
INSERT
  8
1
  6
CONTINUOUS
 62
     1
  5
4EE
  2
LDR
 10
-162.704833
 20
313.780167
 30
0.0
 41
240.0
 42
240.0
 50
23.226022
210
0.0
220
0.0
230
1.0
  0
INSERT
  8
1
  6
CONTINUOUS
 62
     1
  5
4EF
  2
LDR
 10
-162.704833
 20
313.780167
 30
0.0
 41
240.0
 42
240.0
 50
23.226022
210
0.0
220
0.0
230
1.0
  0
INSERT
  8
1
  6
CONTINUOUS
 62
     1
  5
4F0
  2
LDR
 10
-147.122
 20
315.030167
 30
0.0
 41
239.999999
 42
239.999999
 50
269.602747
210
0.0
220
0.0
230
1.0
  0
INSERT
  8
1
  6
CONTINUOUS
 62
     1
  5
4F1
  2
LDR
 10
-147.122
 20
315.030167
 30
0.0
 41
239.999999
 42
239.999999
 50
269.602747
210
0.0
220
0.0
230
1.0
  0
INSERT
  8
1
  6
CONTINUOUS
 62
     1
  5
4F2
  2
LDR
 10
-145.61275
 20
314.872333
 30
0.0
 41
240.000001
 42
240.000001
 50
249.024771
210
0.0
220
0.0
230
1.0
  0
INSERT
  8
1
  6
CONTINUOUS
 62
     1
  5
4F3
  2
LDR
 10
-145.61275
 20
314.872333
 30
0.0
 41
240.000001
 42
240.000001
 50
249.024771
210
0.0
220
0.0
230
1.0
  0
INSERT
  8
1
  6
CONTINUOUS
 62
     1
  5
4F4
  2
LDR
 10
-141.710583
 20
319.565167
 30
0.0
 41
239.999998
 42
239.999998
 50
221.195882
210
0.0
220
0.0
230
1.0
  0
INSERT
  8
1
  6
CONTINUOUS
 62
     1
  5
4F5
  2
LDR
 10
-141.710583
 20
319.565167
 30
0.0
 41
239.999998
 42
239.999998
 50
221.195882
210
0.0
220
0.0
230
1.0
  0
INSERT
  8
1
  6
CONTINUOUS
 62
     1
  5
4F6
  2
LDR
 10
-139.343
 20
315.22325
 30
0.0
 41
240.000003
 42
240.000003
 50
208.20245
210
0.0
220
0.0
230
1.0
  0
INSERT
  8
1
  6
CONTINUOUS
 62
     1
  5
4F7
  2
LDR
 10
-139.343
 20
315.22325
 30
0.0
 41
240.000003
 42
240.000003
 50
208.20245
210
0.0
220
0.0
230
1.0
  0
INSERT
  8
1
  6
CONTINUOUS
 62
     1
  5
4F8
  2
LDR
 10
-140.789917
 20
307.986583
 30
0.0
 41
239.999999
 42
239.999999
 50
112.613986
210
0.0
220
0.0
230
1.0
  0
INSERT
  8
1
  6
CONTINUOUS
 62
     1
  5
4F9
  2
LDR
 10
-140.789917
 20
307.986583
 30
0.0
 41
239.999999
 42
239.999999
 50
112.613986
210
0.0
220
0.0
230
1.0
  0
INSERT
  8
1
  6
CONTINUOUS
 62
     1
  5
4FA
  2
LDR
 10
-141.842167
 20
304.258667
 30
0.0
 41
239.999999
 42
239.999999
 50
118.229838
210
0.0
220
0.0
230
1.0
  0
INSERT
  8
1
  6
CONTINUOUS
 62
     1
  5
4FB
  2
LDR
 10
-141.842167
 20
304.258667
 30
0.0
 41
239.999999
 42
239.999999
 50
118.229838
210
0.0
220
0.0
230
1.0
  0
INSERT
  8
1
  6
CONTINUOUS
 62
     1
  5
4FC
  2
LDR
 10
-146.928083
 20
308.600583
 30
0.0
 41
240.0
 42
240.0
 50
90.0
210
0.0
220
0.0
230
1.0
  0
TEXT
  8
1
  6
CONTINUOUS
 62
     7
  5
4FD
 10
-225.027083
 20
335.940167
 30
0.0
 40
2.0
  1
POLE CLAMP
  7
MONOTXT
 11
-225.027083
 21
337.940167
 31
0.0
210
0.0
220
0.0
230
1.0
 73
     3
  0
TEXT
  8
1
  6
CONTINUOUS
 62
     7
  5
4FE
 10
-225.027083
 20
331.940167
 30
0.0
 40
2.0
  1
THRU BOLTS MAY BE USED
  7
MONOTXT
 11
-225.027083
 21
333.940167
 31
0.0
210
0.0
220
0.0
230
1.0
 73
     3
  0
TEXT
  8
1
  6
CONTINUOUS
 62
     7
  5
4FF
 10
-225.027083
 20
327.940167
 30
0.0
 40
2.0
  1
ON WOOD POLES (as approved
  7
MONOTXT
 11
-225.027083
 21
329.940167
 31
0.0
210
0.0
220
0.0
230
1.0
 73
     3
  0
TEXT
  8
1
  6
CONTINUOUS
 62
     7
  5
500
 10
-225.027083
 20
323.940167
 30
0.0
 40
2.0
  1
by the owner e.g., Utility Co.)
  7
MONOTXT
 11
-225.027083
 21
325.940167
 31
0.0
210
0.0
220
0.0
230
1.0
 73
     3
  0
TEXT
  8
1
  6
CONTINUOUS
 62
     7
  5
501
 10
-210.915917
 20
308.513167
 30
0.0
 40
2.0
  1
 1/2 " DIA. MACHINE BOLT
  7
MONOTXT
 72
     4
 11
-193.5065
 21
309.513167
 31
0.0
210
0.0
220
0.0
230
1.0
  0
TEXT
  8
1
  6
CONTINUOUS
 62
     7
  5
502
 10
-144.249833
 20
337.089167
 30
0.0
 40
2.0
  1
 1/2 " DIA. x LENGTH REQUIRED
  7
MONOTXT
 72
     4
 11
-122.25775
 21
338.089167
 31
0.0
210
0.0
220
0.0
230
1.0
  0
TEXT
  8
1
  6
CONTINUOUS
 62
     7
  5
503
 10
-131.932
 20
324.275
 30
0.0
 40
2.0
  1
 5/8 " DIA. INSULATOR PIN
  7
MONOTXT
 72
     4
 11
-114.239167
 21
325.275
 31
0.0
210
0.0
220
0.0
230
1.0
  0
TEXT
  8
1
  6
CONTINUOUS
 62
     7
  5
504
 10
-136.724333
 20
330.509583
 30
0.0
 40
2.0
  1
MESSENGER CABLE
  7
MONOTXT
 72
     4
 11
-122.307
 21
331.509583
 31
0.0
210
0.0
220
0.0
230
1.0
  0
TEXT
  8
1
  6
CONTINUOUS
 62
     7
  5
505
 10
-133.09625
 20
316.313417
 30
0.0
 40
2.0
  1
3" to 3 5/8 " SPOOL INSULATOR
  7
MONOTXT
 72
     4
 11
-109.923083
 21
317.313417
 31
0.0
210
0.0
220
0.0
230
1.0
  0
TEXT
  8
1
  6
CONTINUOUS
 62
     7
  5
506
 10
-136.49425
 20
302.907917
 30
0.0
 40
2.0
  1
COTTER PIN
  7
MONOTXT
 72
     4
 11
-127.46275
 21
303.907917
 31
0.0
210
0.0
220
0.0
230
1.0
  0
TEXT
  8
1
  6
CONTINUOUS
 62
     7
  5
507
 10
-143.716
 20
289.859667
 30
0.0
 40
2.0
  1
CLEVIS (TYPE D)
  7
MONOTXT
 72
     4
 11
-130.59
 21
290.859667
 31
0.0
210
0.0
220
0.0
230
1.0
  0
LINE
  8
1
  6
CONTINUOUS
 62
     7
  5
508
 10
-146.965
 20
337.669667
 30
0.0
 11
-145.084167
 21
337.67175
 31
0.0
  0
LINE
  8
1
  6
CONTINUOUS
 62
     7
  5
509
 10
-139.253
 20
331.461583
 30
0.0
 11
-137.453583
 21
331.432
 31
0.0
  0
LINE
  8
1
  6
CONTINUOUS
 62
     7
  5
50A
 10
-135.075583
 20
325.372833
 30
0.0
 11
-132.851
 21
325.374
 31
0.0
  0
LINE
  8
1
  6
CONTINUOUS
 62
     7
  5
50B
 10
-138.436417
 20
297.914833
 30
0.0
 11
-136.9085
 21
297.931167
 31
0.0
  0
LINE
  8
1
  6
CONTINUOUS
 62
     7
  5
50C
 10
-146.928083
 20
290.9645
 30
0.0
 11
-144.296917
 21
290.9645
 31
0.0
  0
TEXT
  8
1
  6
CONTINUOUS
 62
     7
  5
50D
 10
-5.1235
 20
327.1655
 30
0.0
 40
2.0
  1
TIE (ALUM. LASHING WIRE)
  7
MONOTXT
 72
     4
 11
14.679667
 21
328.1655
 31
0.0
210
0.0
220
0.0
230
1.0
  0
TEXT
  8
1
  6
CONTINUOUS
 62
     7
  5
50E
 10
6.30975
 20
322.338833
 30
0.0
 40
2.0
  1
CABLE RING 15" ON CENTER
  7
MONOTXT
 72
     4
 11
28.254583
 21
323.338833
 31
0.0
210
0.0
220
0.0
230
1.0
  0
TEXT
  8
1
  6
CONTINUOUS
 62
     7
  5
50F
 10
15.587917
 20
317.364
 30
0.0
 40
2.0
  1
MESSENGER CABLE TO
  7
MONOTXT
 11
15.587917
 21
319.364
 31
0.0
210
0.0
220
0.0
230
1.0
 73
     3
  0
TEXT
  8
1
  6
CONTINUOUS
 62
     7
  5
510
 10
15.587917
 20
313.364
 30
0.0
 40
2.0
  1
HAVE MAXIMUM 2% SAG
  7
MONOTXT
 11
15.587917
 21
315.364
 31
0.0
210
0.0
220
0.0
230
1.0
 73
     3
  0
LINE
  8
1
  6
CONTINUOUS
 62
     7
  5
511
 10
3.344417
 20
323.088083
 30
0.0
 11
5.824167
 21
323.11175
 31
0.0
  0
LINE
  8
1
  6
CONTINUOUS
 62
     7
  5
512
 10
13.484583
 20
318.130333
 30
0.0
 11
14.9635
 21
318.11475
 31
0.0
  0
TEXT
  8
1
  6
CONTINUOUS
 62
     7
  5
513
 10
-4.682
 20
297.6945
 30
0.0
 40
2.0
  1
SIGNAL CONTROL CABLE
  7
MONOTXT
 72
     4
 11
13.89275
 21
298.6945
 31
0.0
210
0.0
220
0.0
230
1.0
  0
INSERT
  8
1
  6
CONTINUOUS
 62
     1
  5
514
  2
LDR
 10
-14.0655
 20
314.222167
 30
0.0
 41
240.000001
 42
240.000001
 50
244.836301
210
0.0
220
0.0
230
1.0
  0
INSERT
  8
1
  6
CONTINUOUS
 62
     1
  5
515
  2
LDR
 10
-14.0655
 20
314.222167
 30
0.0
 41
240.000001
 42
240.000001
 50
244.836301
210
0.0
220
0.0
230
1.0
  0
INSERT
  8
1
  6
CONTINUOUS
 62
     1
  5
516
  2
LDR
 10
-1.49775
 20
314.445333
 30
0.0
 41
240.0
 42
240.0
 50
240.739938
210
0.0
220
0.0
230
1.0
  0
INSERT
  8
1
  6
CONTINUOUS
 62
     1
  5
517
  2
LDR
 10
-1.49775
 20
314.445333
 30
0.0
 41
240.0
 42
240.0
 50
240.739938
210
0.0
220
0.0
230
1.0
  0
INSERT
  8
1
  6
CONTINUOUS
 62
     1
  5
518
  2
LDR
 10
10.177667
 20
312.80875
 30
0.0
 41
240.0
 42
240.0
 50
238.142524
210
0.0
220
0.0
230
1.0
  0
INSERT
  8
1
  6
CONTINUOUS
 62
     1
  5
519
  2
LDR
 10
10.177667
 20
312.80875
 30
0.0
 41
240.0
 42
240.0
 50
238.142524
210
0.0
220
0.0
230
1.0
  0
INSERT
  8
1
  6
CONTINUOUS
 62
     1
  5
51A
  2
LDR
 10
-8.41375
 20
309.535583
 30
0.0
 41
240.0
 42
240.0
 50
96.840614
210
0.0
220
0.0
230
1.0
  0
LINE
  8
1
  6
CONTINUOUS
 62
     7
  5
51B
 10
-87.15625
 20
214.655167
 30
0.0
 11
-87.15625
 21
259.381583
 31
0.0
  0
LINE
  8
1
  6
CONTINUOUS
 62
     7
  5
51C
 10
-87.15625
 20
269.381583
 30
0.0
 11
-87.15625
 21
314.108
 31
0.0
  0
TEXT
  8
1
  6
CONTINUOUS
 62
     7
  5
51D
 10
-93.635083
 20
265.764083
 30
0.0
 40
2.0
  1
18' + SAG
  7
MONOTXT
 72
     4
 11
-86.965833
 21
266.764083
 31
0.0
210
0.0
220
0.0
230
1.0
  0
TEXT
  8
1
  6
CONTINUOUS
 62
     7
  5
51E
 10
-92.5485
 20
261.764083
 30
0.0
 40
2.0
  1
MINIMUM
  7
MONOTXT
 72
     4
 11
-86.965833
 21
262.764083
 31
0.0
210
0.0
220
0.0
230
1.0
  0
TEXT
  8
1
  6
CONTINUOUS
 62
     7
  5
51F
 10
-92.117333
 20
212.061167
 30
0.0
 40
2.0
  1
CROWN
  7
MONOTXT
 72
     4
 11
-87.054333
 21
213.061167
 31
0.0
210
0.0
220
0.0
230
1.0
  0
TEXT
  8
1
  6
CONTINUOUS
 62
     4
  5
520
 10
-143.39125
 20
175.99925
 30
0.0
 40
4.0
  1
INTERCONNECT CABLE ATTACHMENT
  7
MONOTXT
 72
     4
 11
-88.005417
 21
177.99925
 31
0.0
210
0.0
220
0.0
230
1.0
  0
TEXT
  8
1
  6
CONTINUOUS
 62
     4
  5
521
 10
-125.721917
 20
167.99925
 30
0.0
 40
4.0
  1
METAL OR WOOD POLES
  7
MONOTXT
 72
     4
 11
-88.005417
 21
169.99925
 31
0.0
210
0.0
220
0.0
230
1.0
  0
LINE
  8
1
  6
CONTINUOUS
 62
     4
  5
522
 10
-145.075333
 20
174.191417
 30
0.0
 11
-31.117
 21
174.191417
 31
0.0
  0
LINE
  8
1
  6
CONTINUOUS
 62
     4
  5
523
 10
-127.401917
 20
166.504833
 30
0.0
 11
-47.8685
 21
166.504833
 31
0.0
  0
LINE
  8
1
  6
HIDDEN
 62
     6
  5
524
 10
-227.711417
 20
100.29425
 30
0.0
 11
-227.711417
 21
94.29425
 31
0.0
  0
LINE
  8
1
  6
HIDDEN
 62
     6
  5
525
 10
-225.711417
 20
102.29425
 30
0.0
 11
-222.30225
 21
102.29425
 31
0.0
  0
LINE
  8
1
  6
HIDDEN
 62
     6
  5
526
 10
-225.711417
 20
92.29425
 30
0.0
 11
-222.30225
 21
92.29425
 31
0.0
  0
ARC
  8
1
  6
HIDDEN
 62
     6
  5
527
 10
-225.711417
 20
100.29425
 30
0.0
 40
2.0
 50
90.0
 51
180.0
210
0.0
220
0.0
230
1.0
  0
ARC
  8
1
  6
HIDDEN
 62
     6
  5
528
 10
-225.711417
 20
94.29425
 30
0.0
 40
2.0
 50
180.0
 51
270.0
210
0.0
220
0.0
230
1.0
  0
LINE
  8
1
  6
HIDDEN
 62
     6
  5
529
 10
-226.711417
 20
100.29425
 30
0.0
 11
-226.711417
 21
94.29425
 31
0.0
  0
LINE
  8
1
  6
HIDDEN
 62
     6
  5
52A
 10
-225.711417
 20
101.29425
 30
0.0
 11
-222.211417
 21
101.29425
 31
0.0
  0
LINE
  8
1
  6
HIDDEN
 62
     6
  5
52B
 10
-225.711417
 20
93.29425
 30
0.0
 11
-222.211417
 21
93.29425
 31
0.0
  0
ARC
  8
1
  6
HIDDEN
 62
     6
  5
52C
 10
-225.711417
 20
100.29425
 30
0.0
 40
1.0
 50
90.0
 51
180.0
210
0.0
220
0.0
230
1.0
  0
ARC
  8
1
  6
HIDDEN
 62
     6
  5
52D
 10
-225.711417
 20
94.29425
 30
0.0
 40
1.0
 50
180.0
 51
270.0
210
0.0
220
0.0
230
1.0
  0
ARC
  8
1
  6
HIDDEN
 62
     6
  5
52E
 10
-222.211417
 20
101.79425
 30
0.0
 40
0.5
 50
270.0
 51
360.0
210
0.0
220
0.0
230
1.0
  0
ARC
  8
1
  6
HIDDEN
 62
     6
  5
52F
 10
-222.211417
 20
92.79425
 30
0.0
 40
0.5
 50
0.0
 51
90.0
210
0.0
220
0.0
230
1.0
  0
ARC
  8
1
  6
CONTINUOUS
 62
     6
  5
530
 10
-204.090353
 20
97.29425
 30
0.0
 40
18.174783
 50
119.236525
 51
240.763475
210
0.0
220
0.0
230
1.0
  0
ARC
  8
1
  6
HIDDEN
 62
     6
  5
531
 10
-222.302226
 20
103.29425
 30
0.0
 40
1.0
 50
270.0
 51
341.765253
210
0.0
220
0.0
230
1.0
  0
ARC
  8
1
  6
HIDDEN
 62
     6
  5
532
 10
-222.302226
 20
91.28125
 30
0.0
 40
1.0
 50
18.234747
 51
90.0
210
0.0
220
0.0
230
1.0
  0
LINE
  8
1
  6
CONTINUOUS
 62
     6
  5
533
 10
-212.711417
 20
113.590083
 30
0.0
 11
-212.711417
 21
119.79425
 31
0.0
  0
LINE
  8
1
  6
CONTINUOUS
 62
     6
  5
534
 10
-212.711417
 20
80.998417
 30
0.0
 11
-212.711417
 21
74.79425
 31
0.0
  0
LINE
  8
1
  6
CONTINUOUS
 62
     6
  5
535
 10
-211.711417
 20
112.918167
 30
0.0
 11
-211.711417
 21
119.79425
 31
0.0
  0
LINE
  8
1
  6
CONTINUOUS
 62
     6
  5
536
 10
-211.711417
 20
81.670333
 30
0.0
 11
-211.711417
 21
74.79425
 31
0.0
  0
ARC
  8
1
  6
CONTINUOUS
 62
     6
  5
537
 10
-204.712811
 20
97.29425
 30
0.0
 40
16.552356
 50
117.109972
 51
242.890028
210
0.0
220
0.0
230
1.0
  0
ARC
  8
1
  6
CONTINUOUS
 62
     6
  5
538
 10
-212.711417
 20
112.91819
 30
0.0
 40
1.0
 50
297.109972
 51
360.0
210
0.0
220
0.0
230
1.0
  0
ARC
  8
1
  6
CONTINUOUS
 62
     6
  5
539
 10
-213.211417
 20
113.590069
 30
0.0
 40
0.5
 50
299.236525
 51
360.0
210
0.0
220
0.0
230
1.0
  0
ARC
  8
1
  6
CONTINUOUS
 62
     6
  5
53A
 10
-213.211417
 20
80.998431
 30
0.0
 40
0.5
 50
360.0
 51
60.763475
210
0.0
220
0.0
230
1.0
  0
ARC
  8
1
  6
CONTINUOUS
 62
     6
  5
53B
 10
-212.711417
 20
81.67031
 30
0.0
 40
1.0
 50
360.0
 51
62.890028
210
0.0
220
0.0
230
1.0
  0
ARC
  8
1
  6
CONTINUOUS
 62
     6
  5
53C
 10
-207.291189
 20
97.29425
 30
0.0
 40
16.552356
 50
16.550603
 51
62.890028
210
0.0
220
0.0
230
1.0
  0
LINE
  8
1
  6
CONTINUOUS
 62
     6
  5
53D
 10
-184.292583
 20
100.29425
 30
0.0
 11
-184.292583
 21
94.29425
 31
0.0
  0
LINE
  8
1
  6
CONTINUOUS
 62
     6
  5
53E
 10
-186.292583
 20
102.29425
 30
0.0
 11
-190.076833
 21
102.29425
 31
0.0
  0
LINE
  8
1
  6
CONTINUOUS
 62
     6
  5
53F
 10
-186.292583
 20
92.29425
 30
0.0
 11
-190.0845
 21
92.29425
 31
0.0
  0
ARC
  8
1
  6
CONTINUOUS
 62
     6
  5
540
 10
-186.292583
 20
100.29425
 30
0.0
 40
2.0
 50
0.0
 51
90.0
210
0.0
220
0.0
230
1.0
  0
ARC
  8
1
  6
CONTINUOUS
 62
     6
  5
541
 10
-186.292583
 20
94.29425
 30
0.0
 40
2.0
 50
270.0
 51
0.0
210
0.0
220
0.0
230
1.0
  0
LINE
  8
1
  6
CONTINUOUS
 62
     6
  5
542
 10
-185.292583
 20
100.29425
 30
0.0
 11
-185.292583
 21
94.29425
 31
0.0
  0
LINE
  8
1
  6
CONTINUOUS
 62
     6
  5
543
 10
-186.292583
 20
101.29425
 30
0.0
 11
-190.466083
 21
101.29425
 31
0.0
  0
LINE
  8
1
  6
CONTINUOUS
 62
     6
  5
544
 10
-186.292583
 20
93.29425
 30
0.0
 11
-190.473417
 21
93.29425
 31
0.0
  0
ARC
  8
1
  6
CONTINUOUS
 62
     6
  5
545
 10
-186.292583
 20
100.29425
 30
0.0
 40
1.0
 50
0.0
 51
90.0
210
0.0
220
0.0
230
1.0
  0
ARC
  8
1
  6
CONTINUOUS
 62
     6
  5
546
 10
-186.292583
 20
94.29425
 30
0.0
 40
1.0
 50
270.0
 51
0.0
210
0.0
220
0.0
230
1.0
  0
LINE
  8
1
  6
CONTINUOUS
 62
     6
  5
547
 10
-199.292583
 20
113.590083
 30
0.0
 11
-199.292583
 21
119.79425
 31
0.0
  0
LINE
  8
1
  6
CONTINUOUS
 62
     6
  5
548
 10
-199.292583
 20
81.028667
 30
0.0
 11
-199.292583
 21
74.79425
 31
0.0
  0
LINE
  8
1
  6
CONTINUOUS
 62
     6
  5
549
 10
-200.292583
 20
112.918167
 30
0.0
 11
-200.292583
 21
119.79425
 31
0.0
  0
LINE
  8
1
  6
CONTINUOUS
 62
     6
  5
54A
 10
-200.292583
 20
81.695167
 30
0.0
 11
-200.292583
 21
74.79425
 31
0.0
  0
ARC
  8
1
  6
CONTINUOUS
 62
     6
  5
54B
 10
-199.292583
 20
112.91819
 30
0.0
 40
1.0
 50
180.0
 51
242.890028
210
0.0
220
0.0
230
1.0
  0
ARC
  8
1
  6
CONTINUOUS
 62
     6
  5
54C
 10
-198.792583
 20
113.590069
 30
0.0
 40
0.5
 50
180.0
 51
240.763475
210
0.0
220
0.0
230
1.0
  0
ARC
  8
1
  6
CONTINUOUS
 62
     6
  5
54D
 10
-190.466053
 20
102.29425
 30
0.0
 40
1.0
 50
196.550603
 51
270.0
210
0.0
220
0.0
230
1.0
  0
ARC
  8
1
  6
CONTINUOUS
 62
     6
  5
54E
 10
-207.923314
 20
97.29425
 30
0.0
 40
18.174783
 50
17.128444
 51
60.763475
210
0.0
220
0.0
230
1.0
  0
ARC
  8
1
  6
CONTINUOUS
 62
     6
  5
54F
 10
-190.076815
 20
102.79425
 30
0.0
 40
0.5
 50
197.128444
 51
270.0
210
0.0
220
0.0
230
1.0
  0
ARC
  8
1
  6
CONTINUOUS
 62
     6
  5
550
 10
-207.291189
 20
97.319083
 30
0.0
 40
16.552356
 50
297.109972
 51
343.364811
210
0.0
220
0.0
230
1.0
  0
ARC
  8
1
  6
CONTINUOUS
 62
     6
  5
551
 10
-207.923314
 20
97.319083
 30
0.0
 40
18.174783
 50
299.270519
 51
342.791811
210
0.0
220
0.0
230
1.0
  0
ARC
  8
1
  6
CONTINUOUS
 62
     6
  5
552
 10
-190.084487
 20
91.79425
 30
0.0
 40
0.5
 50
90.0
 51
162.791811
210
0.0
220
0.0
230
1.0
  0
ARC
  8
1
  6
CONTINUOUS
 62
     6
  5
553
 10
-190.473453
 20
92.29425
 30
0.0
 40
1.0
 50
90.0
 51
163.364811
210
0.0
220
0.0
230
1.0
  0
ARC
  8
1
  6
CONTINUOUS
 62
     6
  5
554
 10
-199.292583
 20
81.695143
 30
0.0
 40
1.0
 50
117.109972
 51
180.0
210
0.0
220
0.0
230
1.0
  0
ARC
  8
1
  6
CONTINUOUS
 62
     6
  5
555
 10
-198.792583
 20
81.028679
 30
0.0
 40
0.5
 50
119.270519
 51
180.0
210
0.0
220
0.0
230
1.0
  0
LINE
  8
1
  6
CONTINUOUS
 62
     6
  5
556
 10
-212.711417
 20
119.79425
 30
0.0
 11
-211.711417
 21
119.79425
 31
0.0
  0
LINE
  8
1
  6
CONTINUOUS
 62
     6
  5
557
 10
-200.292583
 20
119.79425
 30
0.0
 11
-199.292583
 21
119.79425
 31
0.0
  0
LINE
  8
1
  6
CONTINUOUS
 62
     6
  5
558
 10
-212.711417
 20
74.79425
 30
0.0
 11
-211.711417
 21
74.79425
 31
0.0
  0
LINE
  8
1
  6
CONTINUOUS
 62
     6
  5
559
 10
-200.292583
 20
74.79425
 30
0.0
 11
-199.292583
 21
74.79425
 31
0.0
  0
LINE
  8
1
  6
CONTINUOUS
 62
     6
  5
55A
 10
-210.569417
 20
115.442167
 30
0.0
 11
-210.569417
 21
117.942167
 31
0.0
  0
LINE
  8
1
  6
CONTINUOUS
 62
     6
  5
55B
 10
-209.427417
 20
115.442167
 30
0.0
 11
-209.427417
 21
117.942167
 31
0.0
  0
LINE
  8
1
  6
CONTINUOUS
 62
     6
  5
55C
 10
-208.285417
 20
115.442167
 30
0.0
 11
-208.285417
 21
117.942167
 31
0.0
  0
LINE
  8
1
  6
CONTINUOUS
 62
     6
  5
55D
 10
-207.143417
 20
115.442167
 30
0.0
 11
-207.143417
 21
117.942167
 31
0.0
  0
LINE
  8
1
  6
CONTINUOUS
 62
     6
  5
55E
 10
-206.001417
 20
115.442167
 30
0.0
 11
-206.001417
 21
117.942167
 31
0.0
  0
LINE
  8
1
  6
CONTINUOUS
 62
     6
  5
55F
 10
-204.859417
 20
115.442167
 30
0.0
 11
-204.859417
 21
117.942167
 31
0.0
  0
LINE
  8
1
  6
CONTINUOUS
 62
     6
  5
560
 10
-203.717417
 20
115.442167
 30
0.0
 11
-203.717417
 21
117.942167
 31
0.0
  0
LINE
  8
1
  6
CONTINUOUS
 62
     6
  5
561
 10
-202.575417
 20
115.442167
 30
0.0
 11
-202.575417
 21
117.942167
 31
0.0
  0
LINE
  8
1
  6
CONTINUOUS
 62
     6
  5
562
 10
-201.433417
 20
115.442167
 30
0.0
 11
-201.433417
 21
117.942167
 31
0.0
  0
LINE
  8
1
  6
CONTINUOUS
 62
     6
  5
563
 10
-211.140417
 20
116.192167
 30
0.0
 11
-211.140417
 21
117.192167
 31
0.0
  0
LINE
  8
1
  6
CONTINUOUS
 62
     6
  5
564
 10
-209.998417
 20
116.192167
 30
0.0
 11
-209.998417
 21
117.192167
 31
0.0
  0
LINE
  8
1
  6
CONTINUOUS
 62
     6
  5
565
 10
-208.856417
 20
116.192167
 30
0.0
 11
-208.856417
 21
117.192167
 31
0.0
  0
LINE
  8
1
  6
CONTINUOUS
 62
     6
  5
566
 10
-207.714417
 20
116.192167
 30
0.0
 11
-207.714417
 21
117.192167
 31
0.0
  0
LINE
  8
1
  6
CONTINUOUS
 62
     6
  5
567
 10
-206.572417
 20
116.192167
 30
0.0
 11
-206.572417
 21
117.192167
 31
0.0
  0
LINE
  8
1
  6
CONTINUOUS
 62
     6
  5
568
 10
-205.430417
 20
116.192167
 30
0.0
 11
-205.430417
 21
117.192167
 31
0.0
  0
LINE
  8
1
  6
CONTINUOUS
 62
     6
  5
569
 10
-204.288417
 20
116.192167
 30
0.0
 11
-204.288417
 21
117.192167
 31
0.0
  0
LINE
  8
1
  6
CONTINUOUS
 62
     6
  5
56A
 10
-203.146417
 20
116.192167
 30
0.0
 11
-203.146417
 21
117.192167
 31
0.0
  0
LINE
  8
1
  6
CONTINUOUS
 62
     6
  5
56B
 10
-202.004417
 20
116.192167
 30
0.0
 11
-202.004417
 21
117.192167
 31
0.0
  0
LINE
  8
1
  6
CONTINUOUS
 62
     6
  5
56C
 10
-200.862417
 20
116.192167
 30
0.0
 11
-200.862417
 21
117.192167
 31
0.0
  0
LINE
  8
1
  6
CONTINUOUS
 62
     6
  5
56D
 10
-200.292583
 20
117.942167
 30
0.0
 11
-211.711417
 21
117.942167
 31
0.0
  0
LINE
  8
1
  6
CONTINUOUS
 62
     6
  5
56E
 10
-200.292583
 20
115.442167
 30
0.0
 11
-211.711417
 21
115.442167
 31
0.0
  0
LINE
  8
1
  6
CONTINUOUS
 62
     6
  5
56F
 10
-196.792583
 20
118.942167
 30
0.0
 11
-199.292583
 21
118.942167
 31
0.0
  0
LINE
  8
1
  6
CONTINUOUS
 62
     6
  5
570
 10
-196.792583
 20
114.442167
 30
0.0
 11
-199.292583
 21
114.442167
 31
0.0
  0
LINE
  8
1
  6
CONTINUOUS
 62
     6
  5
571
 10
-196.822917
 20
117.942167
 30
0.0
 11
-196.292583
 21
118.4725
 31
0.0
  0
LINE
  8
1
  6
CONTINUOUS
 62
     6
  5
572
 10
-196.822917
 20
117.942167
 30
0.0
 11
-196.292583
 21
117.411833
 31
0.0
  0
LINE
  8
1
  6
CONTINUOUS
 62
     6
  5
573
 10
-196.822917
 20
115.442167
 30
0.0
 11
-196.292583
 21
115.9725
 31
0.0
  0
LINE
  8
1
  6
CONTINUOUS
 62
     6
  5
574
 10
-196.822917
 20
115.442167
 30
0.0
 11
-196.292583
 21
114.911833
 31
0.0
  0
LINE
  8
1
  6
CONTINUOUS
 62
     6
  5
575
 10
-196.292583
 20
118.442167
 30
0.0
 11
-196.292583
 21
114.942167
 31
0.0
  0
ARC
  8
1
  6
CONTINUOUS
 62
     6
  5
576
 10
-196.792583
 20
118.442167
 30
0.0
 40
0.5
 50
0.0
 51
90.0
210
0.0
220
0.0
230
1.0
  0
ARC
  8
1
  6
CONTINUOUS
 62
     6
  5
577
 10
-196.792583
 20
114.942167
 30
0.0
 40
0.5
 50
270.0
 51
0.0
210
0.0
220
0.0
230
1.0
  0
LINE
  8
1
  6
CONTINUOUS
 62
     6
  5
578
 10
-215.71075
 20
118.442167
 30
0.0
 11
-215.71075
 21
114.942167
 31
0.0
  0
LINE
  8
1
  6
CONTINUOUS
 62
     6
  5
579
 10
-215.21075
 20
118.942167
 30
0.0
 11
-212.71075
 21
118.942167
 31
0.0
  0
LINE
  8
1
  6
CONTINUOUS
 62
     6
  5
57A
 10
-215.21075
 20
114.442167
 30
0.0
 11
-212.71075
 21
114.442167
 31
0.0
  0
LINE
  8
1
  6
CONTINUOUS
 62
     6
  5
57B
 10
-215.180417
 20
117.942167
 30
0.0
 11
-215.71075
 21
118.4725
 31
0.0
  0
LINE
  8
1
  6
CONTINUOUS
 62
     6
  5
57C
 10
-215.180417
 20
117.942167
 30
0.0
 11
-215.71075
 21
117.411833
 31
0.0
  0
LINE
  8
1
  6
CONTINUOUS
 62
     6
  5
57D
 10
-215.180417
 20
115.442167
 30
0.0
 11
-215.71075
 21
115.9725
 31
0.0
  0
LINE
  8
1
  6
CONTINUOUS
 62
     6
  5
57E
 10
-215.180417
 20
115.442167
 30
0.0
 11
-215.71075
 21
114.911833
 31
0.0
  0
ARC
  8
1
  6
CONTINUOUS
 62
     6
  5
57F
 10
-215.21075
 20
118.442167
 30
0.0
 40
0.5
 50
90.0
 51
180.0
210
0.0
220
0.0
230
1.0
  0
ARC
  8
1
  6
CONTINUOUS
 62
     6
  5
580
 10
-215.21075
 20
114.942167
 30
0.0
 40
0.5
 50
180.0
 51
270.0
210
0.0
220
0.0
230
1.0
  0
LINE
  8
1
  6
CONTINUOUS
 62
     6
  5
581
 10
-215.180417
 20
117.942167
 30
0.0
 11
-212.71075
 21
117.942167
 31
0.0
  0
LINE
  8
1
  6
CONTINUOUS
 62
     6
  5
582
 10
-215.180417
 20
115.442167
 30
0.0
 11
-212.71075
 21
115.442167
 31
0.0
  0
LINE
  8
1
  6
CONTINUOUS
 62
     6
  5
583
 10
-195.150583
 20
117.942167
 30
0.0
 11
-196.292583
 21
117.942167
 31
0.0
  0
LINE
  8
1
  6
CONTINUOUS
 62
     6
  5
584
 10
-196.822917
 20
117.942167
 30
0.0
 11
-199.292583
 21
117.942167
 31
0.0
  0
LINE
  8
1
  6
CONTINUOUS
 62
     6
  5
585
 10
-195.150583
 20
115.442167
 30
0.0
 11
-196.292583
 21
115.442167
 31
0.0
  0
LINE
  8
1
  6
CONTINUOUS
 62
     6
  5
586
 10
-196.822917
 20
115.442167
 30
0.0
 11
-199.292583
 21
115.442167
 31
0.0
  0
LINE
  8
1
  6
CONTINUOUS
 62
     6
  5
587
 10
-195.150583
 20
117.942167
 30
0.0
 11
-195.150583
 21
115.442167
 31
0.0
  0
LINE
  8
1
  6
CONTINUOUS
 62
     6
  5
588
 10
-195.725667
 20
116.192167
 30
0.0
 11
-195.725667
 21
117.192167
 31
0.0
  0
LINE
  8
1
  6
CONTINUOUS
 62
     6
  5
589
 10
-194.650583
 20
117.692167
 30
0.0
 11
-194.650583
 21
115.692167
 31
0.0
  0
LINE
  8
1
  6
CONTINUOUS
 62
     6
  5
58A
 10
-195.150583
 20
117.942167
 30
0.0
 11
-194.650583
 21
117.692167
 31
0.0
  0
LINE
  8
1
  6
CONTINUOUS
 62
     6
  5
58B
 10
-195.150583
 20
115.442167
 30
0.0
 11
-194.650583
 21
115.692167
 31
0.0
  0
LINE
  8
1
  6
CONTINUOUS
 62
     6
  5
58C
 10
-203.717417
 20
76.98225
 30
0.0
 11
-203.717417
 21
79.48225
 31
0.0
  0
LINE
  8
1
  6
CONTINUOUS
 62
     6
  5
58D
 10
-210.569417
 20
76.98225
 30
0.0
 11
-210.569417
 21
79.48225
 31
0.0
  0
LINE
  8
1
  6
CONTINUOUS
 62
     6
  5
58E
 10
-209.427417
 20
76.98225
 30
0.0
 11
-209.427417
 21
79.48225
 31
0.0
  0
LINE
  8
1
  6
CONTINUOUS
 62
     6
  5
58F
 10
-208.285417
 20
76.98225
 30
0.0
 11
-208.285417
 21
79.48225
 31
0.0
  0
LINE
  8
1
  6
CONTINUOUS
 62
     6
  5
590
 10
-207.143417
 20
76.98225
 30
0.0
 11
-207.143417
 21
79.48225
 31
0.0
  0
LINE
  8
1
  6
CONTINUOUS
 62
     6
  5
591
 10
-206.001417
 20
76.98225
 30
0.0
 11
-206.001417
 21
79.48225
 31
0.0
  0
LINE
  8
1
  6
CONTINUOUS
 62
     6
  5
592
 10
-204.859417
 20
76.98225
 30
0.0
 11
-204.859417
 21
79.48225
 31
0.0
  0
LINE
  8
1
  6
CONTINUOUS
 62
     6
  5
593
 10
-202.575417
 20
76.98225
 30
0.0
 11
-202.575417
 21
79.48225
 31
0.0
  0
LINE
  8
1
  6
CONTINUOUS
 62
     6
  5
594
 10
-201.433417
 20
76.98225
 30
0.0
 11
-201.433417
 21
79.48225
 31
0.0
  0
LINE
  8
1
  6
CONTINUOUS
 62
     6
  5
595
 10
-211.140417
 20
77.73225
 30
0.0
 11
-211.140417
 21
78.73225
 31
0.0
  0
LINE
  8
1
  6
CONTINUOUS
 62
     6
  5
596
 10
-209.998417
 20
77.73225
 30
0.0
 11
-209.998417
 21
78.73225
 31
0.0
  0
LINE
  8
1
  6
CONTINUOUS
 62
     6
  5
597
 10
-208.856417
 20
77.73225
 30
0.0
 11
-208.856417
 21
78.73225
 31
0.0
  0
LINE
  8
1
  6
CONTINUOUS
 62
     6
  5
598
 10
-207.714417
 20
77.73225
 30
0.0
 11
-207.714417
 21
78.73225
 31
0.0
  0
LINE
  8
1
  6
CONTINUOUS
 62
     6
  5
599
 10
-206.572417
 20
77.73225
 30
0.0
 11
-206.572417
 21
78.73225
 31
0.0
  0
LINE
  8
1
  6
CONTINUOUS
 62
     6
  5
59A
 10
-205.430417
 20
77.73225
 30
0.0
 11
-205.430417
 21
78.73225
 31
0.0
  0
LINE
  8
1
  6
CONTINUOUS
 62
     6
  5
59B
 10
-204.288417
 20
77.73225
 30
0.0
 11
-204.288417
 21
78.73225
 31
0.0
  0
LINE
  8
1
  6
CONTINUOUS
 62
     6
  5
59C
 10
-203.146417
 20
77.73225
 30
0.0
 11
-203.146417
 21
78.73225
 31
0.0
  0
LINE
  8
1
  6
CONTINUOUS
 62
     6
  5
59D
 10
-202.004417
 20
77.73225
 30
0.0
 11
-202.004417
 21
78.73225
 31
0.0
  0
LINE
  8
1
  6
CONTINUOUS
 62
     6
  5
59E
 10
-200.862417
 20
77.73225
 30
0.0
 11
-200.862417
 21
78.73225
 31
0.0
  0
LINE
  8
1
  6
CONTINUOUS
 62
     6
  5
59F
 10
-200.292583
 20
79.48225
 30
0.0
 11
-211.711417
 21
79.48225
 31
0.0
  0
LINE
  8
1
  6
CONTINUOUS
 62
     6
  5
5A0
 10
-200.292583
 20
76.98225
 30
0.0
 11
-211.711417
 21
76.98225
 31
0.0
  0
LINE
  8
1
  6
CONTINUOUS
 62
     6
  5
5A1
 10
-196.792583
 20
80.48225
 30
0.0
 11
-199.292583
 21
80.48225
 31
0.0
  0
LINE
  8
1
  6
CONTINUOUS
 62
     6
  5
5A2
 10
-196.792583
 20
75.98225
 30
0.0
 11
-199.292583
 21
75.98225
 31
0.0
  0
LINE
  8
1
  6
CONTINUOUS
 62
     6
  5
5A3
 10
-196.822917
 20
79.48225
 30
0.0
 11
-196.292583
 21
80.012583
 31
0.0
  0
LINE
  8
1
  6
CONTINUOUS
 62
     6
  5
5A4
 10
-196.822917
 20
79.48225
 30
0.0
 11
-196.292583
 21
78.951917
 31
0.0
  0
LINE
  8
1
  6
CONTINUOUS
 62
     6
  5
5A5
 10
-196.822917
 20
76.98225
 30
0.0
 11
-196.292583
 21
77.512583
 31
0.0
  0
LINE
  8
1
  6
CONTINUOUS
 62
     6
  5
5A6
 10
-196.822917
 20
76.98225
 30
0.0
 11
-196.292583
 21
76.451917
 31
0.0
  0
LINE
  8
1
  6
CONTINUOUS
 62
     6
  5
5A7
 10
-196.292583
 20
79.98225
 30
0.0
 11
-196.292583
 21
76.48225
 31
0.0
  0
ARC
  8
1
  6
CONTINUOUS
 62
     6
  5
5A8
 10
-196.792583
 20
79.98225
 30
0.0
 40
0.5
 50
0.0
 51
90.0
210
0.0
220
0.0
230
1.0
  0
ARC
  8
1
  6
CONTINUOUS
 62
     6
  5
5A9
 10
-196.792583
 20
76.48225
 30
0.0
 40
0.5
 50
270.0
 51
0.0
210
0.0
220
0.0
230
1.0
  0
LINE
  8
1
  6
CONTINUOUS
 62
     6
  5
5AA
 10
-215.71075
 20
79.98225
 30
0.0
 11
-215.71075
 21
76.48225
 31
0.0
  0
LINE
  8
1
  6
CONTINUOUS
 62
     6
  5
5AB
 10
-215.21075
 20
80.48225
 30
0.0
 11
-212.71075
 21
80.48225
 31
0.0
  0
LINE
  8
1
  6
CONTINUOUS
 62
     6
  5
5AC
 10
-215.21075
 20
75.98225
 30
0.0
 11
-212.71075
 21
75.98225
 31
0.0
  0
LINE
  8
1
  6
CONTINUOUS
 62
     6
  5
5AD
 10
-215.180417
 20
79.48225
 30
0.0
 11
-215.71075
 21
80.012583
 31
0.0
  0
LINE
  8
1
  6
CONTINUOUS
 62
     6
  5
5AE
 10
-215.180417
 20
79.48225
 30
0.0
 11
-215.71075
 21
78.951917
 31
0.0
  0
LINE
  8
1
  6
CONTINUOUS
 62
     6
  5
5AF
 10
-215.180417
 20
76.98225
 30
0.0
 11
-215.71075
 21
77.512583
 31
0.0
  0
LINE
  8
1
  6
CONTINUOUS
 62
     6
  5
5B0
 10
-215.180417
 20
76.98225
 30
0.0
 11
-215.71075
 21
76.451917
 31
0.0
  0
ARC
  8
1
  6
CONTINUOUS
 62
     6
  5
5B1
 10
-215.21075
 20
79.98225
 30
0.0
 40
0.5
 50
90.0
 51
180.0
210
0.0
220
0.0
230
1.0
  0
ARC
  8
1
  6
CONTINUOUS
 62
     6
  5
5B2
 10
-215.21075
 20
76.48225
 30
0.0
 40
0.5
 50
180.0
 51
270.0
210
0.0
220
0.0
230
1.0
  0
LINE
  8
1
  6
CONTINUOUS
 62
     6
  5
5B3
 10
-215.180417
 20
79.48225
 30
0.0
 11
-212.71075
 21
79.48225
 31
0.0
  0
LINE
  8
1
  6
CONTINUOUS
 62
     6
  5
5B4
 10
-215.180417
 20
76.98225
 30
0.0
 11
-212.71075
 21
76.98225
 31
0.0
  0
LINE
  8
1
  6
CONTINUOUS
 62
     6
  5
5B5
 10
-195.150583
 20
79.48225
 30
0.0
 11
-196.292583
 21
79.48225
 31
0.0
  0
LINE
  8
1
  6
CONTINUOUS
 62
     6
  5
5B6
 10
-196.822917
 20
79.48225
 30
0.0
 11
-199.292583
 21
79.48225
 31
0.0
  0
LINE
  8
1
  6
CONTINUOUS
 62
     6
  5
5B7
 10
-195.150583
 20
76.98225
 30
0.0
 11
-196.292583
 21
76.98225
 31
0.0
  0
LINE
  8
1
  6
CONTINUOUS
 62
     6
  5
5B8
 10
-196.822917
 20
76.98225
 30
0.0
 11
-199.292583
 21
76.98225
 31
0.0
  0
LINE
  8
1
  6
CONTINUOUS
 62
     6
  5
5B9
 10
-195.150583
 20
79.48225
 30
0.0
 11
-195.150583
 21
76.98225
 31
0.0
  0
LINE
  8
1
  6
CONTINUOUS
 62
     6
  5
5BA
 10
-195.725667
 20
77.73225
 30
0.0
 11
-195.725667
 21
78.73225
 31
0.0
  0
LINE
  8
1
  6
CONTINUOUS
 62
     6
  5
5BB
 10
-194.650583
 20
79.23225
 30
0.0
 11
-194.650583
 21
77.23225
 31
0.0
  0
LINE
  8
1
  6
CONTINUOUS
 62
     6
  5
5BC
 10
-195.150583
 20
79.48225
 30
0.0
 11
-194.650583
 21
79.23225
 31
0.0
  0
LINE
  8
1
  6
CONTINUOUS
 62
     6
  5
5BD
 10
-195.150583
 20
76.98225
 30
0.0
 11
-194.650583
 21
77.23225
 31
0.0
  0
LINE
  8
1
  6
CONTINUOUS
 62
     6
  5
5BE
 10
-227.511417
 20
98.54425
 30
0.0
 11
-226.911417
 21
98.54425
 31
0.0
  0
LINE
  8
1
  6
CONTINUOUS
 62
     6
  5
5BF
 10
-227.511417
 20
96.04425
 30
0.0
 11
-226.911417
 21
96.04425
 31
0.0
  0
LINE
  8
1
  6
CONTINUOUS
 62
     6
  5
5C0
 10
-183.150583
 20
98.54425
 30
0.0
 11
-183.150583
 21
96.04425
 31
0.0
  0
LINE
  8
1
  6
CONTINUOUS
 62
     6
  5
5C1
 10
-182.008583
 20
100.29425
 30
0.0
 11
-182.008583
 21
94.29425
 31
0.0
  0
LINE
  8
1
  6
CONTINUOUS
 62
     6
  5
5C2
 10
-183.721583
 20
97.79425
 30
0.0
 11
-183.721583
 21
96.79425
 31
0.0
  0
LINE
  8
1
  6
CONTINUOUS
 62
     6
  5
5C3
 10
-182.579583
 20
97.79425
 30
0.0
 11
-182.579583
 21
96.79425
 31
0.0
  0
LINE
  8
1
  6
CONTINUOUS
 62
     6
  5
5C4
 10
-181.508583
 20
100.29425
 30
0.0
 11
-181.508583
 21
94.29425
 31
0.0
  0
LINE
  8
1
  6
CONTINUOUS
 62
     6
  5
5C5
 10
-182.008583
 20
100.29425
 30
0.0
 11
-179.008583
 21
100.29425
 31
0.0
  0
LINE
  8
1
  6
CONTINUOUS
 62
     6
  5
5C6
 10
-182.008583
 20
94.29425
 30
0.0
 11
-179.008583
 21
94.29425
 31
0.0
  0
LINE
  8
1
  6
CONTINUOUS
 62
     6
  5
5C7
 10
-184.292583
 20
98.54425
 30
0.0
 11
-182.008583
 21
98.54425
 31
0.0
  0
LINE
  8
1
  6
CONTINUOUS
 62
     6
  5
5C8
 10
-178.250667
 20
98.54425
 30
0.0
 11
-176.792583
 21
98.54425
 31
0.0
  0
LINE
  8
1
  6
CONTINUOUS
 62
     6
  5
5C9
 10
-184.292583
 20
96.04425
 30
0.0
 11
-182.008583
 21
96.04425
 31
0.0
  0
LINE
  8
1
  6
CONTINUOUS
 62
     6
  5
5CA
 10
-178.250667
 20
96.04425
 30
0.0
 11
-176.792583
 21
96.04425
 31
0.0
  0
LINE
  8
1
  6
CONTINUOUS
 62
     6
  5
5CB
 10
-181.508583
 20
97.29425
 30
0.0
 11
-179.008583
 21
97.29425
 31
0.0
  0
ARC
  8
1
  6
CONTINUOUS
 62
     6
  5
5CC
 10
-180.072712
 20
98.79425
 30
0.0
 40
1.839122
 50
305.352622
 51
54.647375
210
0.0
220
0.0
230
1.0
  0
ARC
  8
1
  6
CONTINUOUS
 62
     6
  5
5CD
 10
-180.072712
 20
95.79425
 30
0.0
 40
1.839122
 50
305.352622
 51
54.647375
210
0.0
220
0.0
230
1.0
  0
LINE
  8
1
  6
CONTINUOUS
 62
     6
  5
5CE
 10
-178.250667
 20
98.54425
 30
0.0
 11
-178.250667
 21
96.04425
 31
0.0
  0
LINE
  8
1
  6
CONTINUOUS
 62
     6
  5
5CF
 10
-176.792583
 20
98.54425
 30
0.0
 11
-176.792583
 21
96.04425
 31
0.0
  0
LINE
  8
1
  6
CONTINUOUS
 62
     6
  5
5D0
 10
-176.292583
 20
98.04425
 30
0.0
 11
-176.292583
 21
96.54425
 31
0.0
  0
LINE
  8
1
  6
CONTINUOUS
 62
     6
  5
5D1
 10
-176.792583
 20
98.54425
 30
0.0
 11
-176.292583
 21
98.04425
 31
0.0
  0
LINE
  8
1
  6
CONTINUOUS
 62
     6
  5
5D2
 10
-176.292583
 20
96.54425
 30
0.0
 11
-176.792583
 21
96.04425
 31
0.0
  0
LINE
  8
1
  6
CONTINUOUS
 62
     6
  5
5D3
 10
-177.52475
 20
97.79425
 30
0.0
 11
-177.52475
 21
96.79425
 31
0.0
  0
ARC
  8
1
  6
CONTINUOUS
 62
     6
  5
5D4
 10
-185.035939
 20
96.958808
 30
0.0
 40
2.67689
 50
96.730464
 51
264.498361
210
0.0
220
0.0
230
1.0
  0
LINE
  8
1
  6
CONTINUOUS
 62
     6
  5
5D5
 10
-202.612
 20
39.6225
 30
0.0
 11
-214.030833
 21
39.6225
 31
0.0
  0
LINE
  8
1
  6
CONTINUOUS
 62
     6
  5
5D6
 10
-206.036833
 20
39.6225
 30
0.0
 11
-206.036833
 21
42.1225
 31
0.0
  0
LINE
  8
1
  6
CONTINUOUS
 62
     6
  5
5D7
 10
-212.888833
 20
39.6225
 30
0.0
 11
-212.888833
 21
42.1225
 31
0.0
  0
LINE
  8
1
  6
CONTINUOUS
 62
     6
  5
5D8
 10
-211.746833
 20
39.6225
 30
0.0
 11
-211.746833
 21
42.1225
 31
0.0
  0
LINE
  8
1
  6
CONTINUOUS
 62
     6
  5
5D9
 10
-210.604833
 20
39.6225
 30
0.0
 11
-210.604833
 21
42.1225
 31
0.0
  0
LINE
  8
1
  6
CONTINUOUS
 62
     6
  5
5DA
 10
-209.462833
 20
39.6225
 30
0.0
 11
-209.462833
 21
42.1225
 31
0.0
  0
LINE
  8
1
  6
CONTINUOUS
 62
     6
  5
5DB
 10
-208.320833
 20
39.6225
 30
0.0
 11
-208.320833
 21
42.1225
 31
0.0
  0
LINE
  8
1
  6
CONTINUOUS
 62
     6
  5
5DC
 10
-207.178833
 20
39.6225
 30
0.0
 11
-207.178833
 21
42.1225
 31
0.0
  0
LINE
  8
1
  6
CONTINUOUS
 62
     6
  5
5DD
 10
-204.894833
 20
39.6225
 30
0.0
 11
-204.894833
 21
42.1225
 31
0.0
  0
LINE
  8
1
  6
CONTINUOUS
 62
     6
  5
5DE
 10
-203.752833
 20
39.6225
 30
0.0
 11
-203.752833
 21
42.1225
 31
0.0
  0
LINE
  8
1
  6
CONTINUOUS
 62
     6
  5
5DF
 10
-213.459833
 20
40.3725
 30
0.0
 11
-213.459833
 21
41.3725
 31
0.0
  0
LINE
  8
1
  6
CONTINUOUS
 62
     6
  5
5E0
 10
-212.317833
 20
40.3725
 30
0.0
 11
-212.317833
 21
41.3725
 31
0.0
  0
LINE
  8
1
  6
CONTINUOUS
 62
     6
  5
5E1
 10
-211.175833
 20
40.3725
 30
0.0
 11
-211.175833
 21
41.3725
 31
0.0
  0
LINE
  8
1
  6
CONTINUOUS
 62
     6
  5
5E2
 10
-210.033833
 20
40.3725
 30
0.0
 11
-210.033833
 21
41.3725
 31
0.0
  0
LINE
  8
1
  6
CONTINUOUS
 62
     6
  5
5E3
 10
-208.891833
 20
40.3725
 30
0.0
 11
-208.891833
 21
41.3725
 31
0.0
  0
LINE
  8
1
  6
CONTINUOUS
 62
     6
  5
5E4
 10
-207.749833
 20
40.3725
 30
0.0
 11
-207.749833
 21
41.3725
 31
0.0
  0
LINE
  8
1
  6
CONTINUOUS
 62
     6
  5
5E5
 10
-206.607833
 20
40.3725
 30
0.0
 11
-206.607833
 21
41.3725
 31
0.0
  0
LINE
  8
1
  6
CONTINUOUS
 62
     6
  5
5E6
 10
-205.465833
 20
40.3725
 30
0.0
 11
-205.465833
 21
41.3725
 31
0.0
  0
LINE
  8
1
  6
CONTINUOUS
 62
     6
  5
5E7
 10
-204.323833
 20
40.3725
 30
0.0
 11
-204.323833
 21
41.3725
 31
0.0
  0
LINE
  8
1
  6
CONTINUOUS
 62
     6
  5
5E8
 10
-203.181833
 20
40.3725
 30
0.0
 11
-203.181833
 21
41.3725
 31
0.0
  0
LINE
  8
1
  6
CONTINUOUS
 62
     6
  5
5E9
 10
-202.612
 20
42.1225
 30
0.0
 11
-214.030833
 21
42.1225
 31
0.0
  0
LINE
  8
1
  6
CONTINUOUS
 62
     6
  5
5EA
 10
-199.112
 20
43.1225
 30
0.0
 11
-201.612
 21
43.1225
 31
0.0
  0
LINE
  8
1
  6
CONTINUOUS
 62
     6
  5
5EB
 10
-199.112
 20
38.6225
 30
0.0
 11
-201.612
 21
38.6225
 31
0.0
  0
LINE
  8
1
  6
CONTINUOUS
 62
     6
  5
5EC
 10
-199.142333
 20
42.1225
 30
0.0
 11
-198.612
 21
42.652833
 31
0.0
  0
LINE
  8
1
  6
CONTINUOUS
 62
     6
  5
5ED
 10
-199.142333
 20
42.1225
 30
0.0
 11
-198.612
 21
41.592167
 31
0.0
  0
LINE
  8
1
  6
CONTINUOUS
 62
     6
  5
5EE
 10
-199.142333
 20
39.6225
 30
0.0
 11
-198.612
 21
40.152833
 31
0.0
  0
LINE
  8
1
  6
CONTINUOUS
 62
     6
  5
5EF
 10
-199.142333
 20
39.6225
 30
0.0
 11
-198.612
 21
39.092167
 31
0.0
  0
LINE
  8
1
  6
CONTINUOUS
 62
     6
  5
5F0
 10
-198.612
 20
42.6225
 30
0.0
 11
-198.612
 21
39.1225
 31
0.0
  0
ARC
  8
1
  6
CONTINUOUS
 62
     6
  5
5F1
 10
-199.112
 20
42.6225
 30
0.0
 40
0.5
 50
0.0
 51
90.0
210
0.0
220
0.0
230
1.0
  0
ARC
  8
1
  6
CONTINUOUS
 62
     6
  5
5F2
 10
-199.112
 20
39.1225
 30
0.0
 40
0.5
 50
270.0
 51
0.0
210
0.0
220
0.0
230
1.0
  0
LINE
  8
1
  6
CONTINUOUS
 62
     6
  5
5F3
 10
-218.030167
 20
42.6225
 30
0.0
 11
-218.030167
 21
39.1225
 31
0.0
  0
LINE
  8
1
  6
CONTINUOUS
 62
     6
  5
5F4
 10
-217.530167
 20
43.1225
 30
0.0
 11
-215.030167
 21
43.1225
 31
0.0
  0
LINE
  8
1
  6
CONTINUOUS
 62
     6
  5
5F5
 10
-217.530167
 20
38.6225
 30
0.0
 11
-215.030167
 21
38.6225
 31
0.0
  0
LINE
  8
1
  6
CONTINUOUS
 62
     6
  5
5F6
 10
-217.499833
 20
42.1225
 30
0.0
 11
-218.030167
 21
42.652833
 31
0.0
  0
LINE
  8
1
  6
CONTINUOUS
 62
     6
  5
5F7
 10
-217.499833
 20
42.1225
 30
0.0
 11
-218.030167
 21
41.592167
 31
0.0
  0
LINE
  8
1
  6
CONTINUOUS
 62
     6
  5
5F8
 10
-217.499833
 20
39.6225
 30
0.0
 11
-218.030167
 21
40.152833
 31
0.0
  0
LINE
  8
1
  6
CONTINUOUS
 62
     6
  5
5F9
 10
-217.499833
 20
39.6225
 30
0.0
 11
-218.030167
 21
39.092167
 31
0.0
  0
ARC
  8
1
  6
CONTINUOUS
 62
     6
  5
5FA
 10
-217.530167
 20
42.6225
 30
0.0
 40
0.5
 50
90.0
 51
180.0
210
0.0
220
0.0
230
1.0
  0
ARC
  8
1
  6
CONTINUOUS
 62
     6
  5
5FB
 10
-217.530167
 20
39.1225
 30
0.0
 40
0.5
 50
180.0
 51
270.0
210
0.0
220
0.0
230
1.0
  0
LINE
  8
1
  6
CONTINUOUS
 62
     6
  5
5FC
 10
-217.499833
 20
42.1225
 30
0.0
 11
-215.030167
 21
42.1225
 31
0.0
  0
LINE
  8
1
  6
CONTINUOUS
 62
     6
  5
5FD
 10
-217.499833
 20
39.6225
 30
0.0
 11
-215.030167
 21
39.6225
 31
0.0
  0
LINE
  8
1
  6
CONTINUOUS
 62
     6
  5
5FE
 10
-197.47
 20
42.1225
 30
0.0
 11
-198.612
 21
42.1225
 31
0.0
  0
LINE
  8
1
  6
CONTINUOUS
 62
     6
  5
5FF
 10
-199.142333
 20
42.1225
 30
0.0
 11
-201.612
 21
42.1225
 31
0.0
  0
LINE
  8
1
  6
CONTINUOUS
 62
     6
  5
600
 10
-197.47
 20
39.6225
 30
0.0
 11
-198.612
 21
39.6225
 31
0.0
  0
LINE
  8
1
  6
CONTINUOUS
 62
     6
  5
601
 10
-199.142333
 20
39.6225
 30
0.0
 11
-201.612
 21
39.6225
 31
0.0
  0
LINE
  8
1
  6
CONTINUOUS
 62
     6
  5
602
 10
-197.47
 20
42.1225
 30
0.0
 11
-197.47
 21
39.6225
 31
0.0
  0
LINE
  8
1
  6
CONTINUOUS
 62
     6
  5
603
 10
-198.045083
 20
40.3725
 30
0.0
 11
-198.045083
 21
41.3725
 31
0.0
  0
LINE
  8
1
  6
CONTINUOUS
 62
     6
  5
604
 10
-196.97
 20
41.8725
 30
0.0
 11
-196.97
 21
39.8725
 31
0.0
  0
LINE
  8
1
  6
CONTINUOUS
 62
     6
  5
605
 10
-197.47
 20
42.1225
 30
0.0
 11
-196.97
 21
41.8725
 31
0.0
  0
LINE
  8
1
  6
CONTINUOUS
 62
     6
  5
606
 10
-197.47
 20
39.6225
 30
0.0
 11
-196.97
 21
39.8725
 31
0.0
  0
LINE
  8
1
  6
CONTINUOUS
 62
     6
  5
607
 10
-215.030167
 20
45.3725
 30
0.0
 11
-215.030167
 21
36.3725
 31
0.0
  0
LINE
  8
1
  6
CONTINUOUS
 62
     6
  5
608
 10
-214.030167
 20
45.3725
 30
0.0
 11
-214.030167
 21
36.3725
 31
0.0
  0
LINE
  8
1
  6
CONTINUOUS
 62
     6
  5
609
 10
-215.030167
 20
45.3725
 30
0.0
 11
-214.030167
 21
45.3725
 31
0.0
  0
LINE
  8
1
  6
CONTINUOUS
 62
     6
  5
60A
 10
-215.030167
 20
36.3725
 30
0.0
 11
-214.030167
 21
36.3725
 31
0.0
  0
LINE
  8
1
  6
CONTINUOUS
 62
     6
  5
60B
 10
-201.612
 20
45.3725
 30
0.0
 11
-201.612
 21
36.3725
 31
0.0
  0
LINE
  8
1
  6
CONTINUOUS
 62
     6
  5
60C
 10
-202.612
 20
45.3725
 30
0.0
 11
-202.612
 21
36.3725
 31
0.0
  0
LINE
  8
1
  6
CONTINUOUS
 62
     6
  5
60D
 10
-202.612
 20
45.3725
 30
0.0
 11
-201.612
 21
45.3725
 31
0.0
  0
LINE
  8
1
  6
CONTINUOUS
 62
     6
  5
60E
 10
-202.612
 20
36.3725
 30
0.0
 11
-201.612
 21
36.3725
 31
0.0
  0
LINE
  8
1
  6
CONTINUOUS
 62
     6
  5
60F
 10
-215.030167
 20
45.3725
 30
0.0
 11
-226.280167
 21
45.3725
 31
0.0
  0
LINE
  8
1
  6
CONTINUOUS
 62
     6
  5
610
 10
-215.030167
 20
36.3725
 30
0.0
 11
-226.280167
 21
36.3725
 31
0.0
  0
LINE
  8
1
  6
CONTINUOUS
 62
     6
  5
611
 10
-226.280167
 20
45.3725
 30
0.0
 11
-226.280167
 21
36.3725
 31
0.0
  0
LINE
  8
1
  6
HIDDEN
 62
     6
  5
612
 10
-225.780167
 20
45.3725
 30
0.0
 11
-225.780167
 21
36.3725
 31
0.0
  0
LINE
  8
1
  6
CONTINUOUS
 62
     6
  5
613
 10
-201.612
 20
45.3725
 30
0.0
 11
-187.112
 21
45.3725
 31
0.0
  0
LINE
  8
1
  6
CONTINUOUS
 62
     6
  5
614
 10
-201.612
 20
36.3725
 30
0.0
 11
-187.112
 21
36.3725
 31
0.0
  0
LINE
  8
1
  6
CONTINUOUS
 62
     6
  5
615
 10
-187.112
 20
45.3725
 30
0.0
 11
-187.112
 21
36.3725
 31
0.0
  0
LINE
  8
1
  6
HIDDEN
 62
     6
  5
616
 10
-188.112
 20
45.3725
 30
0.0
 11
-188.112
 21
36.3725
 31
0.0
  0
LINE
  8
1
  6
CONTINUOUS
 62
     6
  5
617
 10
-192.112
 20
45.3725
 30
0.0
 11
-192.112
 21
36.3725
 31
0.0
  0
LINE
  8
1
  6
HIDDEN
 62
     6
  5
618
 10
-192.438583
 20
45.3725
 30
0.0
 11
-192.438583
 21
36.3725
 31
0.0
  0
LINE
  8
1
  6
CONTINUOUS
 62
     6
  5
619
 10
-187.112
 20
42.1225
 30
0.0
 11
-184.362
 21
42.1225
 31
0.0
  0
LINE
  8
1
  6
CONTINUOUS
 62
     6
  5
61A
 10
-187.112
 20
39.6225
 30
0.0
 11
-184.362
 21
39.6225
 31
0.0
  0
LINE
  8
1
  6
CONTINUOUS
 62
     6
  5
61B
 10
-181.392333
 20
42.1225
 30
0.0
 11
-183.862
 21
42.1225
 31
0.0
  0
LINE
  8
1
  6
CONTINUOUS
 62
     6
  5
61C
 10
-181.362
 20
43.1225
 30
0.0
 11
-184.362
 21
43.1225
 31
0.0
  0
LINE
  8
1
  6
CONTINUOUS
 62
     6
  5
61D
 10
-181.362
 20
38.6225
 30
0.0
 11
-184.362
 21
38.6225
 31
0.0
  0
LINE
  8
1
  6
CONTINUOUS
 62
     6
  5
61E
 10
-181.392333
 20
42.1225
 30
0.0
 11
-180.862
 21
42.652833
 31
0.0
  0
LINE
  8
1
  6
CONTINUOUS
 62
     6
  5
61F
 10
-181.392333
 20
42.1225
 30
0.0
 11
-180.862
 21
41.592167
 31
0.0
  0
LINE
  8
1
  6
CONTINUOUS
 62
     6
  5
620
 10
-181.392333
 20
39.6225
 30
0.0
 11
-180.862
 21
40.152833
 31
0.0
  0
LINE
  8
1
  6
CONTINUOUS
 62
     6
  5
621
 10
-181.392333
 20
39.6225
 30
0.0
 11
-180.862
 21
39.092167
 31
0.0
  0
LINE
  8
1
  6
CONTINUOUS
 62
     6
  5
622
 10
-180.862
 20
42.6225
 30
0.0
 11
-180.862
 21
39.1225
 31
0.0
  0
ARC
  8
1
  6
CONTINUOUS
 62
     6
  5
623
 10
-181.362
 20
42.6225
 30
0.0
 40
0.5
 50
0.0
 51
90.0
210
0.0
220
0.0
230
1.0
  0
ARC
  8
1
  6
CONTINUOUS
 62
     6
  5
624
 10
-181.362
 20
39.1225
 30
0.0
 40
0.5
 50
270.0
 51
0.0
210
0.0
220
0.0
230
1.0
  0
LINE
  8
1
  6
CONTINUOUS
 62
     6
  5
625
 10
-179.72
 20
42.1225
 30
0.0
 11
-180.862
 21
42.1225
 31
0.0
  0
LINE
  8
1
  6
CONTINUOUS
 62
     6
  5
626
 10
-179.72
 20
39.6225
 30
0.0
 11
-180.862
 21
39.6225
 31
0.0
  0
LINE
  8
1
  6
CONTINUOUS
 62
     6
  5
627
 10
-181.392333
 20
39.6225
 30
0.0
 11
-183.862
 21
39.6225
 31
0.0
  0
LINE
  8
1
  6
CONTINUOUS
 62
     6
  5
628
 10
-179.72
 20
42.1225
 30
0.0
 11
-179.72
 21
39.6225
 31
0.0
  0
LINE
  8
1
  6
CONTINUOUS
 62
     6
  5
629
 10
-180.295083
 20
40.3725
 30
0.0
 11
-180.295083
 21
41.3725
 31
0.0
  0
LINE
  8
1
  6
CONTINUOUS
 62
     6
  5
62A
 10
-179.22
 20
41.8725
 30
0.0
 11
-179.22
 21
39.8725
 31
0.0
  0
LINE
  8
1
  6
CONTINUOUS
 62
     6
  5
62B
 10
-179.72
 20
42.1225
 30
0.0
 11
-179.22
 21
41.8725
 31
0.0
  0
LINE
  8
1
  6
CONTINUOUS
 62
     6
  5
62C
 10
-179.72
 20
39.6225
 30
0.0
 11
-179.22
 21
39.8725
 31
0.0
  0
LINE
  8
1
  6
CONTINUOUS
 62
     6
  5
62D
 10
-183.862
 20
43.1225
 30
0.0
 11
-183.862
 21
38.6225
 31
0.0
  0
LINE
  8
1
  6
CONTINUOUS
 62
     6
  5
62E
 10
-184.362
 20
43.1225
 30
0.0
 11
-184.362
 21
38.6225
 31
0.0
  0
ARC
  8
1
  6
HIDDEN
 62
     6
  5
62F
 10
-187.266993
 20
40.8725
 30
0.0
 40
2.403443
 50
110.584103
 51
249.415897
210
0.0
220
0.0
230
1.0
  0
LINE
  8
1
  6
CONTINUOUS
 62
     6
  5
630
 10
-142.612
 20
96.9345
 30
0.0
 11
-116.612
 21
96.9345
 31
0.0
  0
LINE
  8
1
  6
CONTINUOUS
 62
     6
  5
631
 10
-142.612
 20
106.9345
 30
0.0
 11
-116.612
 21
106.9345
 31
0.0
  0
LINE
  8
1
  6
CONTINUOUS
 62
     6
  5
632
 10
-116.612
 20
106.9345
 30
0.0
 11
-116.612
 21
96.9345
 31
0.0
  0
LINE
  8
1
  6
HIDDEN
 62
     6
  5
633
 10
-139.612
 20
106.9345
 30
0.0
 11
-139.612
 21
96.9345
 31
0.0
  0
LINE
  8
1
  6
CONTINUOUS
 62
     6
  5
634
 10
-142.612
 20
105.6845
 30
0.0
 11
-116.612
 21
105.6845
 31
0.0
  0
LINE
  8
1
  6
CONTINUOUS
 62
     6
  5
635
 10
-142.612
 20
98.1845
 30
0.0
 11
-116.612
 21
98.1845
 31
0.0
  0
LINE
  8
1
  6
CONTINUOUS
 62
     6
  5
636
 10
-142.612
 20
106.9345
 30
0.0
 11
-142.612
 21
105.6845
 31
0.0
  0
LINE
  8
1
  6
CONTINUOUS
 62
     6
  5
637
 10
-142.612
 20
98.1845
 30
0.0
 11
-142.612
 21
96.9345
 31
0.0
  0
LINE
  8
1
  6
CONTINUOUS
 62
     6
  5
638
 10
-140.612
 20
103.9345
 30
0.0
 11
-140.612
 21
99.9345
 31
0.0
  0
LINE
  8
1
  6
CONTINUOUS
 62
     6
  5
639
 10
-140.612
 20
103.9345
 30
0.0
 11
-139.612
 21
103.9345
 31
0.0
  0
LINE
  8
1
  6
CONTINUOUS
 62
     6
  5
63A
 10
-140.612
 20
99.9345
 30
0.0
 11
-139.612
 21
99.9345
 31
0.0
  0
ARC
  8
1
  6
CONTINUOUS
 62
     6
  5
63B
 10
-144.858739
 20
101.098942
 30
0.0
 40
5.106386
 50
33.731142
 51
63.897011
210
0.0
220
0.0
230
1.0
  0
ARC
  8
1
  6
CONTINUOUS
 62
     6
  5
63C
 10
-144.858739
 20
102.797725
 30
0.0
 40
5.106386
 50
296.102989
 51
326.268858
210
0.0
220
0.0
230
1.0
  0
CIRCLE
  8
1
  6
CONTINUOUS
 62
     6
  5
63D
 10
-122.841667
 20
101.9385
 30
0.0
 40
2.0
210
0.0
220
0.0
230
1.0
  0
CIRCLE
  8
1
  6
HIDDEN
 62
     6
  5
63E
 10
-122.8235
 20
101.9385
 30
0.0
 40
3.483561
210
0.0
220
0.0
230
1.0
  0
LINE
  8
1
  6
CONTINUOUS
 62
     6
  5
63F
 10
-125.341667
 20
101.9345
 30
0.0
 11
-126.137333
 21
102.73
 31
0.0
  0
LINE
  8
1
  6
CONTINUOUS
 62
     6
  5
640
 10
-125.341667
 20
101.9345
 30
0.0
 11
-126.137333
 21
101.138917
 31
0.0
  0
ARC
  8
1
  6
CONTINUOUS
 62
     6
  5
641
 10
-120.070909
 20
101.948104
 30
0.0
 40
0.600246
 50
255.192792
 51
104.807206
210
0.0
220
0.0
230
1.0
  0
ARC
  8
1
  6
CONTINUOUS
 62
     6
  5
642
 10
-119.893005
 20
101.531345
 30
0.0
 40
1.050675
 50
108.380642
 51
151.104706
210
0.0
220
0.0
230
1.0
  0
ARC
  8
1
  6
CONTINUOUS
 62
     6
  5
643
 10
-119.898035
 20
102.358814
 30
0.0
 40
1.043352
 50
208.737914
 51
251.776731
210
0.0
220
0.0
230
1.0
  0
LINE
  8
1
  6
CONTINUOUS
 62
     6
  5
644
 10
-125.341667
 20
101.9345
 30
0.0
 11
-124.841667
 21
101.9345
 31
0.0
  0
LINE
  8
1
  6
CONTINUOUS
 62
     6
  5
645
 10
-142.72
 20
32.8725
 30
0.0
 11
-142.72
 21
48.8725
 31
0.0
  0
LINE
  8
1
  6
CONTINUOUS
 62
     6
  5
646
 10
-137.72
 20
53.8725
 30
0.0
 11
-116.22
 21
53.8725
 31
0.0
  0
LINE
  8
1
  6
CONTINUOUS
 62
     6
  5
647
 10
-137.72
 20
27.8725
 30
0.0
 11
-116.22
 21
27.8725
 31
0.0
  0
ARC
  8
1
  6
CONTINUOUS
 62
     6
  5
648
 10
-137.72
 20
48.8725
 30
0.0
 40
5.0
 50
90.0
 51
180.0
210
0.0
220
0.0
230
1.0
  0
ARC
  8
1
  6
CONTINUOUS
 62
     6
  5
649
 10
-137.72
 20
32.8725
 30
0.0
 40
5.0
 50
180.0
 51
270.0
210
0.0
220
0.0
230
1.0
  0
LINE
  8
1
  6
CONTINUOUS
 62
     6
  5
64A
 10
-138.97
 20
33.6225
 30
0.0
 11
-138.97
 21
48.1225
 31
0.0
  0
LINE
  8
1
  6
CONTINUOUS
 62
     6
  5
64B
 10
-136.97
 20
50.1225
 30
0.0
 11
-116.22
 21
50.1225
 31
0.0
  0
LINE
  8
1
  6
CONTINUOUS
 62
     6
  5
64C
 10
-136.97
 20
31.6225
 30
0.0
 11
-116.22
 21
31.6225
 31
0.0
  0
ARC
  8
1
  6
CONTINUOUS
 62
     6
  5
64D
 10
-136.97
 20
48.1225
 30
0.0
 40
2.0
 50
90.0
 51
180.0
210
0.0
220
0.0
230
1.0
  0
ARC
  8
1
  6
CONTINUOUS
 62
     6
  5
64E
 10
-136.97
 20
33.6225
 30
0.0
 40
2.0
 50
180.0
 51
270.0
210
0.0
220
0.0
230
1.0
  0
LINE
  8
1
  6
HIDDEN
 62
     6
  5
64F
 10
-137.22
 20
51.3725
 30
0.0
 11
-116.22
 21
51.3725
 31
0.0
  0
LINE
  8
1
  6
HIDDEN
 62
     6
  5
650
 10
-140.22
 20
33.3725
 30
0.0
 11
-140.22
 21
48.3725
 31
0.0
  0
LINE
  8
1
  6
HIDDEN
 62
     6
  5
651
 10
-137.22
 20
30.3725
 30
0.0
 11
-116.22
 21
30.3725
 31
0.0
  0
ARC
  8
1
  6
HIDDEN
 62
     6
  5
652
 10
-137.22
 20
48.3725
 30
0.0
 40
3.0
 50
90.0
 51
180.0
210
0.0
220
0.0
230
1.0
  0
ARC
  8
1
  6
HIDDEN
 62
     6
  5
653
 10
-137.22
 20
33.3725
 30
0.0
 40
3.0
 50
180.0
 51
270.0
210
0.0
220
0.0
230
1.0
  0
LINE
  8
1
  6
CONTINUOUS
 62
     6
  5
654
 10
-116.22
 20
53.8725
 30
0.0
 11
-116.22
 21
50.1225
 31
0.0
  0
LINE
  8
1
  6
CONTINUOUS
 62
     6
  5
655
 10
-116.22
 20
31.6225
 30
0.0
 11
-116.22
 21
27.8725
 31
0.0
  0
LINE
  8
1
  6
CONTINUOUS
 62
     6
  5
656
 10
-121.22
 20
50.1225
 30
0.0
 11
-121.22
 21
31.6225
 31
0.0
  0
LINE
  8
1
  6
CONTINUOUS
 62
     6
  5
657
 10
-124.97
 20
50.1225
 30
0.0
 11
-124.97
 21
31.6225
 31
0.0
  0
LINE
  8
1
  6
HIDDEN
 62
     6
  5
658
 10
-121.22
 20
50.1225
 30
0.0
 11
-121.22
 21
51.1225
 31
0.0
  0
LINE
  8
1
  6
HIDDEN
 62
     6
  5
659
 10
-124.97
 20
50.1225
 30
0.0
 11
-124.97
 21
51.1225
 31
0.0
  0
LINE
  8
1
  6
HIDDEN
 62
     6
  5
65A
 10
-124.97
 20
31.6225
 30
0.0
 11
-124.97
 21
27.8725
 31
0.0
  0
LINE
  8
1
  6
HIDDEN
 62
     6
  5
65B
 10
-121.22
 20
31.6225
 30
0.0
 11
-121.22
 21
27.8725
 31
0.0
  0
LINE
  8
1
  6
CONTINUOUS
 62
     6
  5
65C
 10
-124.97
 20
27.8725
 30
0.0
 11
-124.97
 21
24.3725
 31
0.0
  0
LINE
  8
1
  6
CONTINUOUS
 62
     6
  5
65D
 10
-121.22
 20
27.8725
 30
0.0
 11
-121.22
 21
24.3725
 31
0.0
  0
LINE
  8
1
  6
CONTINUOUS
 62
     6
  5
65E
 10
-124.27
 20
22.3725
 30
0.0
 11
-121.92
 21
22.3725
 31
0.0
  0
LINE
  8
1
  6
CONTINUOUS
 62
     6
  5
65F
 10
-124.97
 20
24.3725
 30
0.0
 11
-124.27
 21
22.3725
 31
0.0
  0
LINE
  8
1
  6
CONTINUOUS
 62
     6
  5
660
 10
-121.22
 20
24.3725
 30
0.0
 11
-121.92
 21
22.3725
 31
0.0
  0
ARC
  8
1
  6
CONTINUOUS
 62
     6
  5
661
 10
-125.889715
 20
26.506314
 30
0.0
 40
1.043352
 50
288.223269
 51
331.262086
210
0.0
220
0.0
230
1.0
  0
LINE
  8
1
  6
CONTINUOUS
 62
     6
  5
662
 10
-121.22
 20
26.097833
 30
0.0
 11
-120.424333
 21
26.893333
 31
0.0
  0
LINE
  8
1
  6
CONTINUOUS
 62
     6
  5
663
 10
-121.22
 20
26.097833
 30
0.0
 11
-120.424333
 21
25.30225
 31
0.0
  0
ARC
  8
1
  6
CONTINUOUS
 62
     6
  5
664
 10
-125.716841
 20
26.095604
 30
0.0
 40
0.600246
 50
75.192794
 51
284.807208
210
0.0
220
0.0
230
1.0
  0
ARC
  8
1
  6
CONTINUOUS
 62
     6
  5
665
 10
-125.894745
 20
25.678845
 30
0.0
 40
1.050675
 50
28.895294
 51
71.619358
210
0.0
220
0.0
230
1.0
  0
LINE
  8
1
  6
CONTINUOUS
 62
     7
  5
666
 10
-180.39575
 20
94.270833
 30
0.0
 11
-177.405833
 21
91.092917
 31
0.0
  0
LINE
  8
1
  6
CONTINUOUS
 62
     7
  5
667
 10
-177.405833
 20
91.092917
 30
0.0
 11
-176.284583
 21
91.051417
 31
0.0
  0
LINE
  8
1
  6
CONTINUOUS
 62
     7
  5
668
 10
-181.8285
 20
100.523
 30
0.0
 11
-178.838583
 21
103.700917
 31
0.0
  0
LINE
  8
1
  6
CONTINUOUS
 62
     7
  5
669
 10
-178.838583
 20
103.700917
 30
0.0
 11
-177.717333
 21
103.742417
 31
0.0
  0
INSERT
  8
1
  6
CONTINUOUS
 62
     1
  5
66A
  2
LDR
 10
-181.8285
 20
100.523
 30
0.0
 41
239.999998
 42
239.999998
 50
226.745876
210
0.0
220
0.0
230
1.0
  0
INSERT
  8
1
  6
CONTINUOUS
 62
     1
  5
66B
  2
LDR
 10
-181.8285
 20
100.523
 30
0.0
 41
239.999998
 42
239.999998
 50
226.745876
210
0.0
220
0.0
230
1.0
  0
INSERT
  8
1
  6
CONTINUOUS
 62
     1
  5
66C
  2
LDR
 10
-180.39575
 20
94.270833
 30
0.0
 41
239.999998
 42
239.999998
 50
133.254124
210
0.0
220
0.0
230
1.0
  0
TEXT
  8
1
  6
CONTINUOUS
 62
     7
  5
66D
 10
-177.3595
 20
102.852167
 30
0.0
 40
2.0
  1
SPLIT LOCK
  7
MONOTXT
 72
     4
 11
-168.469833
 21
103.852167
 31
0.0
210
0.0
220
0.0
230
1.0
  0
TEXT
  8
1
  6
CONTINUOUS
 62
     7
  5
66E
 10
-174.288583
 20
98.852167
 30
0.0
 40
2.0
  1
WASHER
  7
MONOTXT
 72
     4
 11
-168.46975
 21
99.852167
 31
0.0
210
0.0
220
0.0
230
1.0
  0
TEXT
  8
1
  6
CONTINUOUS
 62
     7
  5
66F
 10
-175.909167
 20
90.052667
 30
0.0
 40
2.0
  1
CARRIAGE BOLT
  7
MONOTXT
 72
     4
 11
-164.090333
 21
91.052667
 31
0.0
210
0.0
220
0.0
230
1.0
  0
TEXT
  8
1
  6
CONTINUOUS
 62
     7
  5
670
 10
-170.665083
 20
86.052667
 30
0.0
 40
2.0
  1
AND NUT
  7
MONOTXT
 72
     4
 11
-164.090333
 21
87.052667
 31
0.0
210
0.0
220
0.0
230
1.0
  0
TEXT
  8
1
  6
CONTINUOUS
 62
     7
  5
671
 10
-142.5075
 20
92.860833
 30
0.0
 40
2.0
  1
CLEVIS (TYPE D)
  7
MONOTXT
 72
     4
 11
-129.3815
 21
93.860833
 31
0.0
210
0.0
220
0.0
230
1.0
  0
ARC
  8
1
  6
HIDDEN
 62
     6
  5
672
 10
-123.095
 20
51.217854
 30
0.0
 40
3.878085
 50
136.801742
 51
177.714619
210
0.0
220
0.0
230
1.0
  0
ARC
  8
1
  6
CONTINUOUS
 62
     6
  5
673
 10
-123.095
 20
51.217854
 30
0.0
 40
3.878085
 50
43.150139
 51
136.903753
210
0.0
220
0.0
230
1.0
  0
ARC
  8
1
  6
HIDDEN
 62
     6
  5
674
 10
-123.095
 20
51.217854
 30
0.0
 40
3.878085
 50
2.285378
 51
43.198258
210
0.0
220
0.0
230
1.0
  0
LINE
  8
1
  6
CONTINUOUS
 62
     7
  5
675
 10
-226.780167
 20
45.3725
 30
0.0
 11
-234.280167
 21
45.3725
 31
0.0
  0
LINE
  8
1
  6
CONTINUOUS
 62
     7
  5
676
 10
-226.780167
 20
36.3725
 30
0.0
 11
-234.280167
 21
36.3725
 31
0.0
  0
LINE
  8
1
  6
CONTINUOUS
 62
     7
  5
677
 10
-232.751833
 20
32.3725
 30
0.0
 11
-232.751833
 21
36.3725
 31
0.0
  0
LINE
  8
1
  6
CONTINUOUS
 62
     7
  5
678
 10
-232.751833
 20
45.3725
 30
0.0
 11
-232.751833
 21
49.425333
 31
0.0
  0
INSERT
  8
1
  6
CONTINUOUS
 62
     1
  5
679
  2
LDR
 10
-232.751833
 20
45.3725
 30
0.0
 41
240.0
 42
240.0
 50
270.0
210
0.0
220
0.0
230
1.0
  0
INSERT
  8
1
  6
CONTINUOUS
 62
     1
  5
67A
  2
LDR
 10
-232.751833
 20
45.3725
 30
0.0
 41
240.0
 42
240.0
 50
270.0
210
0.0
220
0.0
230
1.0
  0
INSERT
  8
1
  6
CONTINUOUS
 62
     1
  5
67B
  2
LDR
 10
-232.751833
 20
36.3725
 30
0.0
 41
240.0
 42
240.0
 50
90.0
210
0.0
220
0.0
230
1.0
  0
INSERT
  8
1
  6
CONTINUOUS
 62
     1
  5
67C
  2
LDR
 10
-232.751833
 20
36.3725
 30
0.0
 41
240.0
 42
240.0
 50
90.0
210
0.0
220
0.0
230
1.0
  0
TEXT
  8
1
  6
CONTINUOUS
 62
     7
  5
67D
 10
-236.375417
 20
39.999917
 30
0.0
 40
2.0
  1
1  1/2 "
  7
MONOTXT
 72
     4
 11
-233.186417
 21
40.999917
 31
0.0
210
0.0
220
0.0
230
1.0
  0
LINE
  8
1
  6
CONTINUOUS
 62
     7
  5
67E
 10
-123.224917
 20
55.24775
 30
0.0
 11
-117.045667
 21
65.68225
 31
0.0
  0
LINE
  8
1
  6
CONTINUOUS
 62
     7
  5
67F
 10
-117.045667
 20
65.68225
 30
0.0
 11
-114.26775
 21
65.739
 31
0.0
  0
INSERT
  8
1
  6
CONTINUOUS
 62
     1
  5
680
  2
LDR
 10
-123.224917
 20
55.24775
 30
0.0
 41
239.999999
 42
239.999999
 50
239.366231
210
0.0
220
0.0
230
1.0
  0
TEXT
  8
1
  6
CONTINUOUS
 62
     7
  5
681
 10
-113.350167
 20
64.810833
 30
0.0
 40
2.0
  1
 5/8 " DIA. GALV.
  7
MONOTXT
 72
     4
 11
-102.759667
 21
65.810833
 31
0.0
210
0.0
220
0.0
230
1.0
  0
TEXT
  8
1
  6
CONTINUOUS
 62
     7
  5
682
 10
-113.956417
 20
60.810833
 30
0.0
 40
2.0
  1
INSULATOR PIN
  7
MONOTXT
 72
     4
 11
-102.75175
 21
61.810833
 31
0.0
210
0.0
220
0.0
230
1.0
  0
TEXT
  8
1
  6
CONTINUOUS
 62
     7
  5
683
 10
-114.6515
 20
18.407917
 30
0.0
 40
2.0
  1
COTTER PIN
  7
MONOTXT
 72
     4
 11
-105.62
 21
19.407917
 31
0.0
210
0.0
220
0.0
230
1.0
  0
LINE
  8
1
  6
CONTINUOUS
 62
     7
  5
684
 10
-120.322083
 20
25.211833
 30
0.0
 11
-117.61025
 21
19.534083
 31
0.0
  0
LINE
  8
1
  6
CONTINUOUS
 62
     7
  5
685
 10
-117.61025
 20
19.534083
 30
0.0
 11
-115.592167
 21
19.534083
 31
0.0
  0
INSERT
  8
1
  6
CONTINUOUS
 62
     1
  5
686
  2
LDR
 10
-120.322083
 20
25.211833
 30
0.0
 41
239.999997
 42
239.999997
 50
115.530291
210
0.0
220
0.0
230
1.0
  0
LINE
  8
1
  6
CONTINUOUS
 62
     4
  5
687
 10
-217.511417
 20
7.980083
 30
0.0
 11
-111.603917
 21
7.980083
 31
0.0
  0
LINE
  8
1
  6
CONTINUOUS
 62
     4
  5
688
 10
-197.636
 20
0.2935
 30
0.0
 11
-130.6275
 21
0.2935
 31
0.0
  0
TEXT
  8
1
  6
CONTINUOUS
 62
     4
  5
689
 10
-216.0105
 20
9.787917
 30
0.0
 40
4.0
  1
INTERCONNECT POLE CLAMP AND
  7
MONOTXT
 72
     4
 11
-164.498667
 21
11.787917
 31
0.0
210
0.0
220
0.0
230
1.0
  0
TEXT
  8
1
  6
CONTINUOUS
 62
     4
  5
68A
 10
-196.262417
 20
1.787917
 30
0.0
 40
4.0
  1
CLEVIS ATTACHMENT
  7
MONOTXT
 72
     4
 11
-164.498667
 21
3.787917
 31
0.0
210
0.0
220
0.0
230
1.0
  0
TEXT
  8
1
  6
CONTINUOUS
 62
     7
  5
68B
 10
-190.537667
 20
-5.286
 30
0.0
 40
2.0
  1
MUST USE FOR MESSENGER CABLE
  7
MONOTXT
 11
-190.537667
 21
-3.286
 31
0.0
210
0.0
220
0.0
230
1.0
 73
     3
  0
TEXT
  8
1
  6
CONTINUOUS
 62
     7
  5
68C
 10
-190.537667
 20
-9.286
 30
0.0
 40
2.0
  1
MUST USE ON METAL POLES
  7
MONOTXT
 11
-190.537667
 21
-7.286
 31
0.0
210
0.0
220
0.0
230
1.0
 73
     3
  0
LINE
  8
1
  6
CONTINUOUS
 62
     3
  5
68D
 10
-43.612
 20
96.9345
 30
0.0
 11
-37.081333
 21
96.9345
 31
0.0
  0
LINE
  8
1
  6
CONTINUOUS
 62
     3
  5
68E
 10
-43.612
 20
95.9345
 30
0.0
 11
-38.112
 21
95.9345
 31
0.0
  0
LINE
  8
1
  6
CONTINUOUS
 62
     3
  5
68F
 10
-43.612
 20
99.9345
 30
0.0
 11
-37.085167
 21
99.9345
 31
0.0
  0
LINE
  8
1
  6
CONTINUOUS
 62
     3
  5
690
 10
-43.612
 20
100.9345
 30
0.0
 11
-38.112
 21
100.9345
 31
0.0
  0
LINE
  8
1
  6
CONTINUOUS
 62
     3
  5
691
 10
-43.612
 20
100.9345
 30
0.0
 11
-43.612
 21
99.9345
 31
0.0
  0
LINE
  8
1
  6
CONTINUOUS
 62
     3
  5
692
 10
-43.612
 20
96.9345
 30
0.0
 11
-43.612
 21
95.9345
 31
0.0
  0
LINE
  8
1
  6
CONTINUOUS
 62
     7
  5
693
 10
-25.612
 20
97.1845
 30
0.0
 11
-25.612
 21
99.6845
 31
0.0
  0
LINE
  8
1
  6
CONTINUOUS
 62
     3
  5
694
 10
-7.654333
 20
100.9345
 30
0.0
 11
-7.654333
 21
99.9345
 31
0.0
  0
LINE
  8
1
  6
CONTINUOUS
 62
     3
  5
695
 10
-7.654333
 20
96.9345
 30
0.0
 11
-14.281667
 21
96.9345
 31
0.0
  0
LINE
  8
1
  6
CONTINUOUS
 62
     3
  5
696
 10
-7.654333
 20
95.9345
 30
0.0
 11
-13.154333
 21
95.9345
 31
0.0
  0
LINE
  8
1
  6
CONTINUOUS
 62
     3
  5
697
 10
-7.654333
 20
99.9345
 30
0.0
 11
-14.277833
 21
99.9345
 31
0.0
  0
LINE
  8
1
  6
CONTINUOUS
 62
     3
  5
698
 10
-7.654333
 20
100.9345
 30
0.0
 11
-13.154333
 21
100.9345
 31
0.0
  0
LINE
  8
1
  6
CONTINUOUS
 62
     3
  5
699
 10
-7.654333
 20
96.9345
 30
0.0
 11
-7.654333
 21
95.9345
 31
0.0
  0
CIRCLE
  8
1
  6
CONTINUOUS
 62
     3
  5
69A
 10
-25.6815
 20
98.449167
 30
0.0
 40
11.5
210
0.0
220
0.0
230
1.0
  0
LINE
  8
1
  6
CONTINUOUS
 62
     7
  5
69B
 10
-44.612
 20
98.4345
 30
0.0
 11
-32.1815
 21
98.4345
 31
0.0
  0
LINE
  8
1
  6
CONTINUOUS
 62
     7
  5
69C
 10
-19.1815
 20
98.4345
 30
0.0
 11
-6.654333
 21
98.4345
 31
0.0
  0
LINE
  8
1
  6
CONTINUOUS
 62
     7
  5
69D
 10
-26.862
 20
98.4345
 30
0.0
 11
-24.362
 21
98.4345
 31
0.0
  0
LINE
  8
1
  6
CONTINUOUS
 62
     7
  5
69E
 10
-25.612
 20
103.6845
 30
0.0
 11
-25.612
 21
129.6845
 31
0.0
  0
LINE
  8
1
  6
CONTINUOUS
 62
     7
  5
69F
 10
-25.612
 20
92.1845
 30
0.0
 11
-25.612
 21
81.1845
 31
0.0
  0
LINE
  8
1
  6
CONTINUOUS
 62
     3
  5
6A0
 10
-27.112
 20
109.859833
 30
0.0
 11
-27.112
 21
113.859833
 31
0.0
  0
LINE
  8
1
  6
CONTINUOUS
 62
     3
  5
6A1
 10
-24.112
 20
109.841583
 30
0.0
 11
-24.112
 21
113.859833
 31
0.0
  0
LINE
  8
1
  6
CONTINUOUS
 62
     3
  5
6A2
 10
-27.112
 20
113.859833
 30
0.0
 11
-24.112
 21
113.859833
 31
0.0
  0
LINE
  8
1
  6
CONTINUOUS
 62
     3
  5
6A3
 10
-26.362
 20
112.859833
 30
0.0
 11
-24.862
 21
112.859833
 31
0.0
  0
LINE
  8
1
  6
CONTINUOUS
 62
     3
  5
6A4
 10
-26.362
 20
112.859833
 30
0.0
 11
-26.362
 21
113.859833
 31
0.0
  0
LINE
  8
1
  6
CONTINUOUS
 62
     3
  5
6A5
 10
-24.862
 20
112.859833
 30
0.0
 11
-24.862
 21
113.859833
 31
0.0
  0
LINE
  8
1
  6
CONTINUOUS
 62
     3
  5
6A6
 10
-28.112
 20
114.859833
 30
0.0
 11
-23.112
 21
114.859833
 31
0.0
  0
LINE
  8
1
  6
CONTINUOUS
 62
     3
  5
6A7
 10
-28.112
 20
110.859833
 30
0.0
 11
-28.112
 21
114.859833
 31
0.0
  0
LINE
  8
1
  6
CONTINUOUS
 62
     3
  5
6A8
 10
-23.112
 20
110.841583
 30
0.0
 11
-23.112
 21
114.859833
 31
0.0
  0
ARC
  8
1
  6
CONTINUOUS
 62
     3
  5
6A9
 10
-25.221303
 20
97.947109
 30
0.0
 40
13.232331
 50
102.618433
 51
166.952164
210
0.0
220
0.0
230
1.0
  0
ARC
  8
1
  6
CONTINUOUS
 62
     3
  5
6AA
 10
-25.991031
 20
97.947109
 30
0.0
 40
13.232331
 50
13.047836
 51
77.381567
210
0.0
220
0.0
230
1.0
  0
ARC
  8
1
  6
CONTINUOUS
 62
     3
  5
6AB
 10
-25.633167
 20
98.312834
 30
0.0
 40
12.703454
 50
190.790558
 51
349.209444
210
0.0
220
0.0
230
1.0
  0
LINE
  8
1
  6
CONTINUOUS
 62
     3
  5
6AC
 10
-41.862
 20
101.6845
 30
0.0
 11
-39.862
 21
101.6845
 31
0.0
  0
LINE
  8
1
  6
CONTINUOUS
 62
     3
  5
6AD
 10
-41.862
 20
101.6845
 30
0.0
 11
-41.862
 21
100.9345
 31
0.0
  0
LINE
  8
1
  6
CONTINUOUS
 62
     3
  5
6AE
 10
-39.862
 20
101.6845
 30
0.0
 11
-39.862
 21
100.9345
 31
0.0
  0
LINE
  8
1
  6
CONTINUOUS
 62
     3
  5
6AF
 10
-41.737
 20
95.6845
 30
0.0
 11
-39.987
 21
95.6845
 31
0.0
  0
LINE
  8
1
  6
CONTINUOUS
 62
     3
  5
6B0
 10
-41.737
 20
95.6845
 30
0.0
 11
-41.737
 21
95.9345
 31
0.0
  0
LINE
  8
1
  6
CONTINUOUS
 62
     3
  5
6B1
 10
-39.987
 20
95.6845
 30
0.0
 11
-39.987
 21
95.9345
 31
0.0
  0
LINE
  8
1
  6
CONTINUOUS
 62
     3
  5
6B2
 10
-41.362
 20
99.9345
 30
0.0
 11
-41.362
 21
96.9345
 31
0.0
  0
LINE
  8
1
  6
CONTINUOUS
 62
     3
  5
6B3
 10
-41.362
 20
95.6845
 30
0.0
 11
-41.362
 21
94.6845
 31
0.0
  0
LINE
  8
1
  6
CONTINUOUS
 62
     3
  5
6B4
 10
-40.362
 20
99.9345
 30
0.0
 11
-40.362
 21
96.9345
 31
0.0
  0
LINE
  8
1
  6
CONTINUOUS
 62
     3
  5
6B5
 10
-40.362
 20
95.6845
 30
0.0
 11
-40.362
 21
94.6845
 31
0.0
  0
LINE
  8
1
  6
CONTINUOUS
 62
     3
  5
6B6
 10
-41.362
 20
94.6845
 30
0.0
 11
-40.362
 21
94.6845
 31
0.0
  0
LINE
  8
1
  6
CONTINUOUS
 62
     3
  5
6B7
 10
-9.913583
 20
99.918167
 30
0.0
 11
-9.913583
 21
96.918167
 31
0.0
  0
LINE
  8
1
  6
CONTINUOUS
 62
     3
  5
6B8
 10
-11.413583
 20
101.668167
 30
0.0
 11
-9.413583
 21
101.668167
 31
0.0
  0
LINE
  8
1
  6
CONTINUOUS
 62
     3
  5
6B9
 10
-11.413583
 20
101.668167
 30
0.0
 11
-11.413583
 21
100.918167
 31
0.0
  0
LINE
  8
1
  6
CONTINUOUS
 62
     3
  5
6BA
 10
-9.413583
 20
101.668167
 30
0.0
 11
-9.413583
 21
100.918167
 31
0.0
  0
LINE
  8
1
  6
CONTINUOUS
 62
     3
  5
6BB
 10
-11.288583
 20
95.668167
 30
0.0
 11
-9.538583
 21
95.668167
 31
0.0
  0
LINE
  8
1
  6
CONTINUOUS
 62
     3
  5
6BC
 10
-11.288583
 20
95.668167
 30
0.0
 11
-11.288583
 21
95.918167
 31
0.0
  0
LINE
  8
1
  6
CONTINUOUS
 62
     3
  5
6BD
 10
-10.913583
 20
99.918167
 30
0.0
 11
-10.913583
 21
96.918167
 31
0.0
  0
LINE
  8
1
  6
CONTINUOUS
 62
     3
  5
6BE
 10
-10.913583
 20
95.668167
 30
0.0
 11
-10.913583
 21
94.668167
 31
0.0
  0
LINE
  8
1
  6
CONTINUOUS
 62
     3
  5
6BF
 10
-9.913583
 20
95.668167
 30
0.0
 11
-9.913583
 21
94.668167
 31
0.0
  0
LINE
  8
1
  6
CONTINUOUS
 62
     3
  5
6C0
 10
-10.913583
 20
94.668167
 30
0.0
 11
-9.913583
 21
94.668167
 31
0.0
  0
LINE
  8
1
  6
CONTINUOUS
 62
     3
  5
6C1
 10
-29.112
 20
114.109833
 30
0.0
 11
-28.112
 21
114.109833
 31
0.0
  0
LINE
  8
1
  6
CONTINUOUS
 62
     3
  5
6C2
 10
-23.112
 20
114.109833
 30
0.0
 11
-22.112
 21
114.109833
 31
0.0
  0
LINE
  8
1
  6
CONTINUOUS
 62
     3
  5
6C3
 10
-29.112
 20
114.109833
 30
0.0
 11
-29.112
 21
121.109833
 31
0.0
  0
LINE
  8
1
  6
CONTINUOUS
 62
     3
  5
6C4
 10
-22.112
 20
114.109833
 30
0.0
 11
-22.112
 21
121.109833
 31
0.0
  0
ARC
  8
1
  6
CONTINUOUS
 62
     3
  5
6C5
 10
-25.612
 20
120.568167
 30
0.0
 40
3.541667
 50
8.797411
 51
171.202589
210
0.0
220
0.0
230
1.0
  0
CIRCLE
  8
1
  6
CONTINUOUS
 62
     3
  5
6C6
 10
-25.604167
 20
120.102083
 30
0.0
 40
1.0
210
0.0
220
0.0
230
1.0
  0
LINE
  8
1
  6
CONTINUOUS
 62
     3
  5
6C7
 10
-22.112
 20
119.109833
 30
0.0
 11
14.592083
 21
145.776833
 31
0.0
  0
LINE
  8
1
  6
CONTINUOUS
 62
     3
  5
6C8
 10
-22.112083
 20
121.109917
 30
0.0
 11
13.951167
 21
147.311083
 31
0.0
  0
LINE
  8
1
  6
CONTINUOUS
 62
     3
  5
6C9
 10
-20.494
 20
120.285333
 30
0.0
 11
-19.35025
 21
123.116333
 31
0.0
  0
LINE
  8
1
  6
CONTINUOUS
 62
     3
  5
6CA
 10
-20.8805
 20
122.004583
 30
0.0
 11
-19.1115
 21
121.289833
 31
0.0
  0
LINE
  8
1
  6
CONTINUOUS
 62
     3
  5
6CB
 10
-15.91425
 20
123.61275
 30
0.0
 11
-14.7705
 21
126.44375
 31
0.0
  0
LINE
  8
1
  6
CONTINUOUS
 62
     3
  5
6CC
 10
-11.33425
 20
126.940333
 30
0.0
 11
-10.1905
 21
129.771333
 31
0.0
  0
LINE
  8
1
  6
CONTINUOUS
 62
     3
  5
6CD
 10
-6.754333
 20
130.267833
 30
0.0
 11
-5.610583
 21
133.09875
 31
0.0
  0
LINE
  8
1
  6
CONTINUOUS
 62
     3
  5
6CE
 10
-2.1745
 20
133.59525
 30
0.0
 11
-1.030833
 21
136.426167
 31
0.0
  0
LINE
  8
1
  6
CONTINUOUS
 62
     3
  5
6CF
 10
2.4055
 20
136.922833
 30
0.0
 11
3.549167
 21
139.75375
 31
0.0
  0
LINE
  8
1
  6
CONTINUOUS
 62
     3
  5
6D0
 10
6.985333
 20
140.25025
 30
0.0
 11
8.129083
 21
143.081167
 31
0.0
  0
LINE
  8
1
  6
CONTINUOUS
 62
     3
  5
6D1
 10
11.565167
 20
143.57775
 30
0.0
 11
12.708917
 21
146.408667
 31
0.0
  0
LINE
  8
1
  6
CONTINUOUS
 62
     3
  5
6D2
 10
-16.27975
 20
125.347167
 30
0.0
 11
-14.51075
 21
124.6325
 31
0.0
  0
LINE
  8
1
  6
CONTINUOUS
 62
     3
  5
6D3
 10
-11.72625
 20
128.6555
 30
0.0
 11
-9.95725
 21
127.940833
 31
0.0
  0
LINE
  8
1
  6
CONTINUOUS
 62
     3
  5
6D4
 10
-7.149083
 20
131.981
 30
0.0
 11
-5.380083
 21
131.26625
 31
0.0
  0
LINE
  8
1
  6
CONTINUOUS
 62
     3
  5
6D5
 10
-2.518167
 20
135.345583
 30
0.0
 11
-0.749167
 21
134.630833
 31
0.0
  0
LINE
  8
1
  6
CONTINUOUS
 62
     3
  5
6D6
 10
2.09
 20
138.693583
 30
0.0
 11
3.859
 21
137.978833
 31
0.0
  0
LINE
  8
1
  6
CONTINUOUS
 62
     3
  5
6D7
 10
6.521167
 20
141.913
 30
0.0
 11
8.290083
 21
141.19825
 31
0.0
  0
LINE
  8
1
  6
CONTINUOUS
 62
     3
  5
6D8
 10
11.075417
 20
145.221833
 30
0.0
 11
12.844417
 21
144.507167
 31
0.0
  0
LINE
  8
1
  6
CONTINUOUS
 62
     3
  5
6D9
 10
-29.110167
 20
119.109833
 30
0.0
 11
-65.754583
 21
145.7335
 31
0.0
  0
LINE
  8
1
  6
CONTINUOUS
 62
     3
  5
6DA
 10
-29.11025
 20
121.109917
 30
0.0
 11
-65.113583
 21
147.26775
 31
0.0
  0
LINE
  8
1
  6
CONTINUOUS
 62
     3
  5
6DB
 10
-30.728167
 20
120.285333
 30
0.0
 11
-31.871917
 21
123.116333
 31
0.0
  0
LINE
  8
1
  6
CONTINUOUS
 62
     3
  5
6DC
 10
-30.341667
 20
122.004583
 30
0.0
 11
-32.110667
 21
121.289833
 31
0.0
  0
LINE
  8
1
  6
CONTINUOUS
 62
     3
  5
6DD
 10
-35.307917
 20
123.61275
 30
0.0
 11
-36.451667
 21
126.44375
 31
0.0
  0
LINE
  8
1
  6
CONTINUOUS
 62
     3
  5
6DE
 10
-39.887917
 20
126.940333
 30
0.0
 11
-41.031667
 21
129.771333
 31
0.0
  0
LINE
  8
1
  6
CONTINUOUS
 62
     3
  5
6DF
 10
-44.467833
 20
130.267833
 30
0.0
 11
-45.611583
 21
133.09875
 31
0.0
  0
LINE
  8
1
  6
CONTINUOUS
 62
     3
  5
6E0
 10
-49.047667
 20
133.59525
 30
0.0
 11
-50.191333
 21
136.426167
 31
0.0
  0
LINE
  8
1
  6
CONTINUOUS
 62
     3
  5
6E1
 10
-53.627667
 20
136.922833
 30
0.0
 11
-54.771333
 21
139.75375
 31
0.0
  0
LINE
  8
1
  6
CONTINUOUS
 62
     3
  5
6E2
 10
-58.2075
 20
140.25025
 30
0.0
 11
-59.35125
 21
143.081167
 31
0.0
  0
LINE
  8
1
  6
CONTINUOUS
 62
     3
  5
6E3
 10
-62.787333
 20
143.57775
 30
0.0
 11
-63.931083
 21
146.408667
 31
0.0
  0
LINE
  8
1
  6
CONTINUOUS
 62
     3
  5
6E4
 10
-34.942417
 20
125.347167
 30
0.0
 11
-36.711417
 21
124.6325
 31
0.0
  0
LINE
  8
1
  6
CONTINUOUS
 62
     3
  5
6E5
 10
-39.495917
 20
128.6555
 30
0.0
 11
-41.264917
 21
127.940833
 31
0.0
  0
LINE
  8
1
  6
CONTINUOUS
 62
     3
  5
6E6
 10
-44.073083
 20
131.981
 30
0.0
 11
-45.842083
 21
131.26625
 31
0.0
  0
LINE
  8
1
  6
CONTINUOUS
 62
     3
  5
6E7
 10
-48.704
 20
135.345583
 30
0.0
 11
-50.473
 21
134.630833
 31
0.0
  0
LINE
  8
1
  6
CONTINUOUS
 62
     3
  5
6E8
 10
-53.312167
 20
138.693583
 30
0.0
 11
-55.081167
 21
137.978833
 31
0.0
  0
LINE
  8
1
  6
CONTINUOUS
 62
     3
  5
6E9
 10
-57.743333
 20
141.913
 30
0.0
 11
-59.51225
 21
141.19825
 31
0.0
  0
LINE
  8
1
  6
CONTINUOUS
 62
     3
  5
6EA
 10
-62.297583
 20
145.221833
 30
0.0
 11
-64.066583
 21
144.507167
 31
0.0
  0
ARC
  8
1
  6
CONTINUOUS
 62
     3
  5
6EB
 10
-25.445336
 20
174.719586
 30
0.0
 40
45.535391
 50
232.799725
 51
300.563244
210
0.0
220
0.0
230
1.0
  0
ARC
  8
1
  6
CONTINUOUS
 62
     3
  5
6EC
 10
-25.612
 20
122.674465
 30
0.0
 40
3.833807
 50
335.913558
 51
204.086444
210
0.0
220
0.0
230
1.0
  0
ARC
  8
1
  6
CONTINUOUS
 62
     3
  5
6ED
 10
-23.841626
 20
169.869743
 30
0.0
 40
44.011902
 50
248.837453
 51
265.229908
210
0.0
220
0.0
230
1.0
  0
ARC
  8
1
  6
CONTINUOUS
 62
     3
  5
6EE
 10
-27.407874
 20
169.869743
 30
0.0
 40
44.011902
 50
274.799111
 51
291.244194
210
0.0
220
0.0
230
1.0
  0
LINE
  8
1
  6
CONTINUOUS
 62
     3
  5
6EF
 10
-5.527083
 20
131.1595
 30
0.0
 11
16.627917
 21
142.939417
 31
0.0
  0
LINE
  8
1
  6
CONTINUOUS
 62
     3
  5
6F0
 10
-45.387583
 20
130.936083
 30
0.0
 11
-67.807333
 21
142.856833
 31
0.0
  0
LINE
  8
1
  6
CONTINUOUS
 62
     3
  5
6F1
 10
-63.531417
 20
148.930417
 30
0.0
 11
-64.669
 21
147.495583
 31
0.0
  0
LINE
  8
1
  6
CONTINUOUS
 62
     3
  5
6F2
 10
-64.669
 20
147.495583
 30
0.0
 11
-64.782083
 21
148.06125
 31
0.0
  0
LINE
  8
1
  6
CONTINUOUS
 62
     3
  5
6F3
 10
-64.782083
 20
148.06125
 30
0.0
 11
-66.139167
 21
144.812833
 31
0.0
  0
LINE
  8
1
  6
CONTINUOUS
 62
     3
  5
6F4
 10
-66.139167
 20
144.812833
 30
0.0
 11
-66.5915
 21
145.717917
 31
0.0
  0
LINE
  8
1
  6
CONTINUOUS
 62
     3
  5
6F5
 10
-66.5915
 20
145.717917
 30
0.0
 11
-68.336083
 21
141.612667
 31
0.0
  0
LINE
  8
1
  6
CONTINUOUS
 62
     3
  5
6F6
 10
14.994833
 20
144.812833
 30
0.0
 11
15.447167
 21
145.717917
 31
0.0
  0
LINE
  8
1
  6
CONTINUOUS
 62
     3
  5
6F7
 10
12.4505
 20
148.850417
 30
0.0
 11
13.524667
 21
147.495583
 31
0.0
  0
LINE
  8
1
  6
CONTINUOUS
 62
     3
  5
6F8
 10
13.524667
 20
147.495583
 30
0.0
 11
13.63775
 21
148.06125
 31
0.0
  0
LINE
  8
1
  6
CONTINUOUS
 62
     3
  5
6F9
 10
13.63775
 20
148.06125
 30
0.0
 11
14.994833
 21
144.812833
 31
0.0
  0
LINE
  8
1
  6
CONTINUOUS
 62
     3
  5
6FA
 10
15.447167
 20
145.717917
 30
0.0
 11
17.386
 21
141.1555
 31
0.0
  0
CIRCLE
  8
1
  6
CONTINUOUS
 62
     7
  5
6FB
 10
-66.839083
 20
143.18575
 30
0.0
 40
0.056461
210
0.0
220
0.0
230
1.0
  0
CIRCLE
  8
1
  6
CONTINUOUS
 62
     7
  5
6FC
 10
-64.705417
 20
142.256667
 30
0.0
 40
0.056461
210
0.0
220
0.0
230
1.0
  0
CIRCLE
  8
1
  6
CONTINUOUS
 62
     7
  5
6FD
 10
-63.400083
 20
142.683583
 30
0.0
 40
0.056461
210
0.0
220
0.0
230
1.0
  0
CIRCLE
  8
1
  6
CONTINUOUS
 62
     7
  5
6FE
 10
-62.973333
 20
141.503333
 30
0.0
 40
0.056461
210
0.0
220
0.0
230
1.0
  0
CIRCLE
  8
1
  6
CONTINUOUS
 62
     7
  5
6FF
 10
-61.693083
 20
140.147417
 30
0.0
 40
0.056461
210
0.0
220
0.0
230
1.0
  0
CIRCLE
  8
1
  6
CONTINUOUS
 62
     7
  5
700
 10
-60.789417
 20
141.051333
 30
0.0
 40
0.056461
210
0.0
220
0.0
230
1.0
  0
CIRCLE
  8
1
  6
CONTINUOUS
 62
     7
  5
701
 10
-60.187
 20
139.343833
 30
0.0
 40
0.056461
210
0.0
220
0.0
230
1.0
  0
CIRCLE
  8
1
  6
CONTINUOUS
 62
     7
  5
702
 10
-57.978
 20
139.595
 30
0.0
 40
0.056461
210
0.0
220
0.0
230
1.0
  0
CIRCLE
  8
1
  6
CONTINUOUS
 62
     7
  5
703
 10
-57.576333
 20
137.912583
 30
0.0
 40
0.056461
210
0.0
220
0.0
230
1.0
  0
CIRCLE
  8
1
  6
CONTINUOUS
 62
     7
  5
704
 10
-55.492833
 20
137.008583
 30
0.0
 40
0.056461
210
0.0
220
0.0
230
1.0
  0
CIRCLE
  8
1
  6
CONTINUOUS
 62
     7
  5
705
 10
-53.785917
 20
136.0795
 30
0.0
 40
0.056461
210
0.0
220
0.0
230
1.0
  0
CIRCLE
  8
1
  6
CONTINUOUS
 62
     7
  5
706
 10
-52.053833
 20
135.351333
 30
0.0
 40
0.056461
210
0.0
220
0.0
230
1.0
  0
CIRCLE
  8
1
  6
CONTINUOUS
 62
     7
  5
707
 10
-50.397083
 20
133.97025
 30
0.0
 40
0.056461
210
0.0
220
0.0
230
1.0
  0
CIRCLE
  8
1
  6
CONTINUOUS
 62
     7
  5
708
 10
-49.192167
 20
133.242
 30
0.0
 40
0.056461
210
0.0
220
0.0
230
1.0
  0
CIRCLE
  8
1
  6
CONTINUOUS
 62
     7
  5
709
 10
-45.979083
 20
133.769333
 30
0.0
 40
0.056461
210
0.0
220
0.0
230
1.0
  0
CIRCLE
  8
1
  6
CONTINUOUS
 62
     7
  5
70A
 10
-44.79925
 20
133.06625
 30
0.0
 40
0.056461
210
0.0
220
0.0
230
1.0
  0
CIRCLE
  8
1
  6
CONTINUOUS
 62
     7
  5
70B
 10
-42.565167
 20
131.459167
 30
0.0
 40
0.056461
210
0.0
220
0.0
230
1.0
  0
CIRCLE
  8
1
  6
CONTINUOUS
 62
     7
  5
70C
 10
-40.6285
 20
131.459167
 30
0.0
 40
0.056461
210
0.0
220
0.0
230
1.0
  0
CIRCLE
  8
1
  6
CONTINUOUS
 62
     7
  5
70D
 10
-40.563917
 20
129.877083
 30
0.0
 40
0.056461
210
0.0
220
0.0
230
1.0
  0
CIRCLE
  8
1
  6
CONTINUOUS
 62
     7
  5
70E
 10
-38.078583
 20
130.361417
 30
0.0
 40
0.056461
210
0.0
220
0.0
230
1.0
  0
CIRCLE
  8
1
  6
CONTINUOUS
 62
     7
  5
70F
 10
-39.369667
 20
129.39275
 30
0.0
 40
0.056461
210
0.0
220
0.0
230
1.0
  0
CIRCLE
  8
1
  6
CONTINUOUS
 62
     7
  5
710
 10
-37.626667
 20
128.521
 30
0.0
 40
0.056461
210
0.0
220
0.0
230
1.0
  0
CIRCLE
  8
1
  6
CONTINUOUS
 62
     7
  5
711
 10
-36.2065
 20
129.683333
 30
0.0
 40
0.056461
210
0.0
220
0.0
230
1.0
  0
CIRCLE
  8
1
  6
CONTINUOUS
 62
     7
  5
712
 10
-33.785667
 20
128.908417
 30
0.0
 40
0.056461
210
0.0
220
0.0
230
1.0
  0
CIRCLE
  8
1
  6
CONTINUOUS
 62
     7
  5
713
 10
-35.173583
 20
128.198083
 30
0.0
 40
0.056461
210
0.0
220
0.0
230
1.0
  0
CIRCLE
  8
1
  6
CONTINUOUS
 62
     7
  5
714
 10
-32.7205
 20
127.197167
 30
0.0
 40
0.056461
210
0.0
220
0.0
230
1.0
  0
CIRCLE
  8
1
  6
CONTINUOUS
 62
     7
  5
715
 10
-30.94525
 20
128.55325
 30
0.0
 40
0.056461
210
0.0
220
0.0
230
1.0
  0
CIRCLE
  8
1
  6
CONTINUOUS
 62
     7
  5
716
 10
-29.331417
 20
127.03575
 30
0.0
 40
0.056461
210
0.0
220
0.0
230
1.0
  0
CIRCLE
  8
1
  6
CONTINUOUS
 62
     7
  5
717
 10
-26.716917
 20
128.230417
 30
0.0
 40
0.056461
210
0.0
220
0.0
230
1.0
  0
CIRCLE
  8
1
  6
CONTINUOUS
 62
     7
  5
718
 10
-24.554333
 20
127.068
 30
0.0
 40
0.056461
210
0.0
220
0.0
230
1.0
  0
CIRCLE
  8
1
  6
CONTINUOUS
 62
     7
  5
719
 10
-23.005
 20
128.585583
 30
0.0
 40
0.056461
210
0.0
220
0.0
230
1.0
  0
CIRCLE
  8
1
  6
CONTINUOUS
 62
     7
  5
71A
 10
-22.68225
 20
127.326333
 30
0.0
 40
0.056461
210
0.0
220
0.0
230
1.0
  0
CIRCLE
  8
1
  6
CONTINUOUS
 62
     7
  5
71B
 10
-19.260833
 20
128.036667
 30
0.0
 40
0.056461
210
0.0
220
0.0
230
1.0
  0
CIRCLE
  8
1
  6
CONTINUOUS
 62
     7
  5
71C
 10
-20.58425
 20
128.391833
 30
0.0
 40
0.056461
210
0.0
220
0.0
230
1.0
  0
CIRCLE
  8
1
  6
CONTINUOUS
 62
     7
  5
71D
 10
-17.3565
 20
129.069917
 30
0.0
 40
0.056461
210
0.0
220
0.0
230
1.0
  0
CIRCLE
  8
1
  6
CONTINUOUS
 62
     7
  5
71E
 10
-16.355917
 20
128.198083
 30
0.0
 40
0.056461
210
0.0
220
0.0
230
1.0
  0
CIRCLE
  8
1
  6
CONTINUOUS
 62
     7
  5
71F
 10
-14.838833
 20
129.651083
 30
0.0
 40
0.056461
210
0.0
220
0.0
230
1.0
  0
CIRCLE
  8
1
  6
CONTINUOUS
 62
     7
  5
720
 10
-12.947917
 20
129.0025
 30
0.0
 40
0.056461
210
0.0
220
0.0
230
1.0
  0
CIRCLE
  8
1
  6
CONTINUOUS
 62
     7
  5
721
 10
-12.299583
 20
130.569833
 30
0.0
 40
0.056461
210
0.0
220
0.0
230
1.0
  0
CIRCLE
  8
1
  6
CONTINUOUS
 62
     7
  5
722
 10
-10.786833
 20
129.957333
 30
0.0
 40
0.056461
210
0.0
220
0.0
230
1.0
  0
CIRCLE
  8
1
  6
CONTINUOUS
 62
     7
  5
723
 10
-9.472167
 20
131.4165
 30
0.0
 40
0.056461
210
0.0
220
0.0
230
1.0
  0
CIRCLE
  8
1
  6
CONTINUOUS
 62
     7
  5
724
 10
-7.257083
 20
132.407333
 30
0.0
 40
0.056461
210
0.0
220
0.0
230
1.0
  0
CIRCLE
  8
1
  6
CONTINUOUS
 62
     7
  5
725
 10
-5.618333
 20
133.434167
 30
0.0
 40
0.056461
210
0.0
220
0.0
230
1.0
  0
CIRCLE
  8
1
  6
CONTINUOUS
 62
     7
  5
726
 10
-1.53025
 20
133.596333
 30
0.0
 40
0.056461
210
0.0
220
0.0
230
1.0
  0
CIRCLE
  8
1
  6
CONTINUOUS
 62
     7
  5
727
 10
0.41475
 20
134.929417
 30
0.0
 40
0.056461
210
0.0
220
0.0
230
1.0
  0
CIRCLE
  8
1
  6
CONTINUOUS
 62
     7
  5
728
 10
2.863917
 20
135.97425
 30
0.0
 40
0.056461
210
0.0
220
0.0
230
1.0
  0
CIRCLE
  8
1
  6
CONTINUOUS
 62
     7
  5
729
 10
4.0165
 20
137.4515
 30
0.0
 40
0.056461
210
0.0
220
0.0
230
1.0
  0
CIRCLE
  8
1
  6
CONTINUOUS
 62
     7
  5
72A
 10
5.349167
 20
137.595583
 30
0.0
 40
0.056461
210
0.0
220
0.0
230
1.0
  0
CIRCLE
  8
1
  6
CONTINUOUS
 62
     7
  5
72B
 10
6.753833
 20
138.96475
 30
0.0
 40
0.056461
210
0.0
220
0.0
230
1.0
  0
CIRCLE
  8
1
  6
CONTINUOUS
 62
     7
  5
72C
 10
8.1225
 20
140.117667
 30
0.0
 40
0.056461
210
0.0
220
0.0
230
1.0
  0
CIRCLE
  8
1
  6
CONTINUOUS
 62
     7
  5
72D
 10
9.56325
 20
139.9015
 30
0.0
 40
0.056461
210
0.0
220
0.0
230
1.0
  0
CIRCLE
  8
1
  6
CONTINUOUS
 62
     7
  5
72E
 10
12.228583
 20
141.45075
 30
0.0
 40
0.056461
210
0.0
220
0.0
230
1.0
  0
CIRCLE
  8
1
  6
CONTINUOUS
 62
     7
  5
72F
 10
12.0845
 20
142.495583
 30
0.0
 40
0.056461
210
0.0
220
0.0
230
1.0
  0
CIRCLE
  8
1
  6
CONTINUOUS
 62
     7
  5
730
 10
14.1015
 20
144.044833
 30
0.0
 40
0.056461
210
0.0
220
0.0
230
1.0
  0
CIRCLE
  8
1
  6
CONTINUOUS
 62
     7
  5
731
 10
15.434167
 20
143.756667
 30
0.0
 40
0.056461
210
0.0
220
0.0
230
1.0
  0
CIRCLE
  8
1
  6
CONTINUOUS
 62
     7
  5
732
 10
13.59725
 20
142.567667
 30
0.0
 40
0.056461
210
0.0
220
0.0
230
1.0
  0
CIRCLE
  8
1
  6
CONTINUOUS
 62
     7
  5
733
 10
10.1035
 20
141.558833
 30
0.0
 40
0.056461
210
0.0
220
0.0
230
1.0
  0
LINE
  8
1
  6
CONTINUOUS
 62
     3
  5
734
 10
-28.509917
 20
125.1845
 30
0.0
 11
-31.501417
 21
122.84725
 31
0.0
  0
LINE
  8
1
  6
CONTINUOUS
 62
     3
  5
735
 10
-22.744417
 20
125.1845
 30
0.0
 11
-19.752917
 21
122.84725
 31
0.0
  0
ARC
  8
1
  6
CONTINUOUS
 62
     3
  5
736
 10
-32.112
 20
60.0278
 30
0.0
 40
7.750852
 50
39.275728
 51
140.724269
210
0.0
220
0.0
230
1.0
  0
ARC
  8
1
  6
CONTINUOUS
 62
     3
  5
737
 10
-32.112
 20
69.8642
 30
0.0
 40
7.750852
 50
219.275731
 51
320.724272
210
0.0
220
0.0
230
1.0
  0
ARC
  8
1
  6
CONTINUOUS
 62
     3
  5
738
 10
-20.056333
 20
60.0278
 30
0.0
 40
7.750852
 50
39.275731
 51
140.724272
210
0.0
220
0.0
230
1.0
  0
ARC
  8
1
  6
CONTINUOUS
 62
     3
  5
739
 10
-20.056333
 20
20.881867
 30
0.0
 40
7.750852
 50
219.275728
 51
320.724269
210
0.0
220
0.0
230
1.0
  0
ARC
  8
1
  6
CONTINUOUS
 62
     3
  5
73A
 10
-32.112
 20
20.881867
 30
0.0
 40
7.750852
 50
219.275731
 51
320.724272
210
0.0
220
0.0
230
1.0
  0
ARC
  8
1
  6
CONTINUOUS
 62
     3
  5
73B
 10
-32.112
 20
11.045466
 30
0.0
 40
7.750852
 50
39.275728
 51
140.724269
210
0.0
220
0.0
230
1.0
  0
LINE
  8
1
  6
CONTINUOUS
 62
     3
  5
73C
 10
-38.112
 20
64.9345
 30
0.0
 11
-38.112
 21
45.9345
 31
0.0
  0
LINE
  8
1
  6
CONTINUOUS
 62
     3
  5
73D
 10
-38.612
 20
45.9345
 30
0.0
 11
-38.612
 21
36.9345
 31
0.0
  0
LINE
  8
1
  6
CONTINUOUS
 62
     3
  5
73E
 10
-38.112
 20
36.9345
 30
0.0
 11
-38.112
 21
15.9345
 31
0.0
  0
LINE
  8
1
  6
CONTINUOUS
 62
     3
  5
73F
 10
-14.112
 20
64.9345
 30
0.0
 11
-14.112
 21
45.9345
 31
0.0
  0
LINE
  8
1
  6
CONTINUOUS
 62
     3
  5
740
 10
-13.362
 20
45.9345
 30
0.0
 11
-13.362
 21
36.9345
 31
0.0
  0
LINE
  8
1
  6
CONTINUOUS
 62
     3
  5
741
 10
-14.112
 20
36.9345
 30
0.0
 11
-14.112
 21
15.9345
 31
0.0
  0
LINE
  8
1
  6
CONTINUOUS
 62
     3
  5
742
 10
-38.612
 20
45.9345
 30
0.0
 11
-27.612
 21
45.9345
 31
0.0
  0
LINE
  8
1
  6
CONTINUOUS
 62
     3
  5
743
 10
-38.612
 20
36.9345
 30
0.0
 11
-27.612
 21
36.9345
 31
0.0
  0
LINE
  8
1
  6
CONTINUOUS
 62
     3
  5
744
 10
-27.612
 20
45.9345
 30
0.0
 11
-27.612
 21
36.9345
 31
0.0
  0
LINE
  8
1
  6
CONTINUOUS
 62
     3
  5
745
 10
-28.612
 20
45.9345
 30
0.0
 11
-28.612
 21
36.9345
 31
0.0
  0
LINE
  8
1
  6
CONTINUOUS
 62
     3
  5
746
 10
-23.362
 20
45.9345
 30
0.0
 11
-23.362
 21
36.9345
 31
0.0
  0
LINE
  8
1
  6
CONTINUOUS
 62
     3
  5
747
 10
-24.362
 20
45.9345
 30
0.0
 11
-8.612
 21
45.9345
 31
0.0
  0
LINE
  8
1
  6
CONTINUOUS
 62
     3
  5
748
 10
-24.362
 20
36.9345
 30
0.0
 11
-8.612
 21
36.9345
 31
0.0
  0
LINE
  8
1
  6
CONTINUOUS
 62
     3
  5
749
 10
-29.612
 20
42.9345
 30
0.0
 11
-29.612
 21
39.9345
 31
0.0
  0
LINE
  8
1
  6
CONTINUOUS
 62
     3
  5
74A
 10
-24.362
 20
45.9345
 30
0.0
 11
-24.362
 21
36.9345
 31
0.0
  0
LINE
  8
1
  6
CONTINUOUS
 62
     3
  5
74B
 10
-29.612
 20
42.9345
 30
0.0
 11
-28.612
 21
42.9345
 31
0.0
  0
LINE
  8
1
  6
CONTINUOUS
 62
     3
  5
74C
 10
-29.612
 20
39.9345
 30
0.0
 11
-28.612
 21
39.9345
 31
0.0
  0
LINE
  8
1
  6
CONTINUOUS
 62
     3
  5
74D
 10
-29.612
 20
42.1845
 30
0.0
 11
-28.612
 21
42.1845
 31
0.0
  0
LINE
  8
1
  6
CONTINUOUS
 62
     3
  5
74E
 10
-29.612
 20
40.6845
 30
0.0
 11
-28.612
 21
40.6845
 31
0.0
  0
LINE
  8
1
  6
CONTINUOUS
 62
     3
  5
74F
 10
-22.372167
 20
42.9345
 30
0.0
 11
-22.372167
 21
39.9345
 31
0.0
  0
LINE
  8
1
  6
CONTINUOUS
 62
     3
  5
750
 10
-22.372167
 20
42.9345
 30
0.0
 11
-23.372167
 21
42.9345
 31
0.0
  0
LINE
  8
1
  6
CONTINUOUS
 62
     3
  5
751
 10
-22.372167
 20
39.9345
 30
0.0
 11
-23.372167
 21
39.9345
 31
0.0
  0
LINE
  8
1
  6
CONTINUOUS
 62
     3
  5
752
 10
-22.372167
 20
42.1845
 30
0.0
 11
-23.372167
 21
42.1845
 31
0.0
  0
LINE
  8
1
  6
CONTINUOUS
 62
     3
  5
753
 10
-22.372167
 20
40.6845
 30
0.0
 11
-23.372167
 21
40.6845
 31
0.0
  0
LINE
  8
1
  6
CONTINUOUS
 62
     3
  5
754
 10
-27.612
 20
41.9345
 30
0.0
 11
-24.362
 21
41.9345
 31
0.0
  0
LINE
  8
1
  6
CONTINUOUS
 62
     3
  5
755
 10
-22.372167
 20
41.9345
 30
0.0
 11
-20.872167
 21
41.9345
 31
0.0
  0
LINE
  8
1
  6
CONTINUOUS
 62
     3
  5
756
 10
-27.612
 20
40.9345
 30
0.0
 11
-24.362
 21
40.9345
 31
0.0
  0
LINE
  8
1
  6
CONTINUOUS
 62
     3
  5
757
 10
-22.372167
 20
40.9345
 30
0.0
 11
-20.872167
 21
40.9345
 31
0.0
  0
LINE
  8
1
  6
CONTINUOUS
 62
     3
  5
758
 10
-20.872167
 20
41.9345
 30
0.0
 11
-20.872167
 21
40.9345
 31
0.0
  0
LINE
  8
1
  6
CONTINUOUS
 62
     3
  5
759
 10
-8.612
 20
45.9345
 30
0.0
 11
-8.612
 21
34.9345
 31
0.0
  0
LINE
  8
1
  6
CONTINUOUS
 62
     3
  5
75A
 10
-7.612
 20
45.4345
 30
0.0
 11
-7.612
 21
35.4345
 31
0.0
  0
LINE
  8
1
  6
CONTINUOUS
 62
     3
  5
75B
 10
-7.612
 20
46.9345
 30
0.0
 11
2.388
 21
46.9345
 31
0.0
  0
LINE
  8
1
  6
CONTINUOUS
 62
     3
  5
75C
 10
-7.612
 20
33.9345
 30
0.0
 11
2.388
 21
33.9345
 31
0.0
  0
LINE
  8
1
  6
CONTINUOUS
 62
     3
  5
75D
 10
-7.112
 20
45.9345
 30
0.0
 11
2.388
 21
45.9345
 31
0.0
  0
LINE
  8
1
  6
CONTINUOUS
 62
     3
  5
75E
 10
-7.112
 20
34.9345
 30
0.0
 11
2.388
 21
34.9345
 31
0.0
  0
ARC
  8
1
  6
CONTINUOUS
 62
     3
  5
75F
 10
-7.612
 20
45.9345
 30
0.0
 40
1.0
 50
90.0
 51
180.0
210
0.0
220
0.0
230
1.0
  0
ARC
  8
1
  6
CONTINUOUS
 62
     3
  5
760
 10
-7.612
 20
34.9345
 30
0.0
 40
1.0
 50
180.0
 51
270.0
210
0.0
220
0.0
230
1.0
  0
ARC
  8
1
  6
CONTINUOUS
 62
     3
  5
761
 10
-7.112
 20
45.4345
 30
0.0
 40
0.5
 50
90.0
 51
180.0
210
0.0
220
0.0
230
1.0
  0
ARC
  8
1
  6
CONTINUOUS
 62
     3
  5
762
 10
-7.112
 20
35.4345
 30
0.0
 40
0.5
 50
180.0
 51
270.0
210
0.0
220
0.0
230
1.0
  0
LINE
  8
1
  6
CONTINUOUS
 62
     3
  5
763
 10
0.060417
 20
32.888167
 30
0.0
 11
0.458167
 21
33.286
 31
0.0
  0
LINE
  8
1
  6
CONTINUOUS
 62
     3
  5
764
 10
0.060417
 20
32.888167
 30
0.0
 11
0.458167
 21
32.490417
 31
0.0
  0
ARC
  8
1
  6
CONTINUOUS
 62
     3
  5
765
 10
-1.882556
 20
32.887729
 30
0.0
 40
0.300123
 50
75.192794
 51
284.807208
210
0.0
220
0.0
230
1.0
  0
ARC
  8
1
  6
CONTINUOUS
 62
     3
  5
766
 10
-1.971508
 20
32.679349
 30
0.0
 40
0.525337
 50
28.895294
 51
71.619358
210
0.0
220
0.0
230
1.0
  0
ARC
  8
1
  6
CONTINUOUS
 62
     3
  5
767
 10
-1.968993
 20
33.093084
 30
0.0
 40
0.521676
 50
288.223269
 51
331.262086
210
0.0
220
0.0
230
1.0
  0
LINE
  8
1
  6
CONTINUOUS
 62
     3
  5
768
 10
-5.112
 20
45.823
 30
0.0
 11
3.638
 21
45.823
 31
0.0
  0
LINE
  8
1
  6
CONTINUOUS
 62
     3
  5
769
 10
-5.112
 20
35.823
 30
0.0
 11
3.638
 21
35.823
 31
0.0
  0
LINE
  8
1
  6
CONTINUOUS
 62
     3
  5
76A
 10
-5.112
 20
44.823
 30
0.0
 11
3.638
 21
44.823
 31
0.0
  0
LINE
  8
1
  6
CONTINUOUS
 62
     3
  5
76B
 10
-5.112
 20
36.823
 30
0.0
 11
3.638
 21
36.823
 31
0.0
  0
LINE
  8
1
  6
CONTINUOUS
 62
     3
  5
76C
 10
-5.112
 20
45.823
 30
0.0
 11
-5.112
 21
44.823
 31
0.0
  0
LINE
  8
1
  6
CONTINUOUS
 62
     3
  5
76D
 10
3.638
 20
45.823
 30
0.0
 11
3.638
 21
44.823
 31
0.0
  0
LINE
  8
1
  6
CONTINUOUS
 62
     3
  5
76E
 10
-5.112
 20
36.823
 30
0.0
 11
-5.112
 21
35.823
 31
0.0
  0
LINE
  8
1
  6
CONTINUOUS
 62
     3
  5
76F
 10
3.638
 20
36.823
 30
0.0
 11
3.638
 21
35.823
 31
0.0
  0
ARC
  8
1
  6
CONTINUOUS
 62
     3
  5
770
 10
-0.737
 20
46.910168
 30
0.0
 40
1.500197
 50
0.929342
 51
179.070656
210
0.0
220
0.0
230
1.0
  0
LINE
  8
1
  6
CONTINUOUS
 62
     3
  5
771
 10
-1.487
 20
32.573
 30
0.0
 11
-1.487
 21
33.9345
 31
0.0
  0
LINE
  8
1
  6
CONTINUOUS
 62
     3
  5
772
 10
-1.487
 20
34.9345
 30
0.0
 11
-1.487
 21
35.823
 31
0.0
  0
LINE
  8
1
  6
CONTINUOUS
 62
     3
  5
773
 10
0.013
 20
32.573
 30
0.0
 11
0.013
 21
33.9345
 31
0.0
  0
LINE
  8
1
  6
CONTINUOUS
 62
     3
  5
774
 10
0.013
 20
34.9345
 30
0.0
 11
0.013
 21
35.823
 31
0.0
  0
ARC
  8
1
  6
CONTINUOUS
 62
     3
  5
775
 10
-0.737
 20
32.655808
 30
0.0
 40
0.754558
 50
186.300511
 51
353.699489
210
0.0
220
0.0
230
1.0
  0
LINE
  8
1
  6
CONTINUOUS
 62
     3
  5
776
 10
2.388
 20
46.9345
 30
0.0
 11
2.388
 21
45.9345
 31
0.0
  0
LINE
  8
1
  6
CONTINUOUS
 62
     3
  5
777
 10
2.388
 20
34.9345
 30
0.0
 11
2.388
 21
33.9345
 31
0.0
  0
ARC
  8
1
  6
CONTINUOUS
 62
     3
  5
778
 10
-3.126362
 20
40.823
 30
0.0
 40
1.111686
 50
115.902992
 51
244.097011
210
0.0
220
0.0
230
1.0
  0
ARC
  8
1
  6
CONTINUOUS
 62
     3
  5
779
 10
-9.695333
 20
40.823
 30
0.0
 40
6.083333
 50
9.073128
 51
41.112092
210
0.0
220
0.0
230
1.0
  0
ARC
  8
1
  6
CONTINUOUS
 62
     3
  5
77A
 10
-9.695333
 20
40.823
 30
0.0
 40
6.083333
 50
318.887911
 51
350.926872
210
0.0
220
0.0
230
1.0
  0
LINE
  8
1
  6
CONTINUOUS
 62
     3
  5
77B
 10
25.138
 20
42.573
 30
0.0
 11
39.138
 21
42.573
 31
0.0
  0
LINE
  8
1
  6
CONTINUOUS
 62
     3
  5
77C
 10
25.138
 20
41.073
 30
0.0
 11
39.138
 21
41.073
 31
0.0
  0
LINE
  8
1
  6
CONTINUOUS
 62
     3
  5
77D
 10
25.138
 20
39.073
 30
0.0
 11
39.138
 21
39.073
 31
0.0
  0
LINE
  8
1
  6
CONTINUOUS
 62
     3
  5
77E
 10
25.138
 20
40.573
 30
0.0
 11
39.138
 21
40.573
 31
0.0
  0
LINE
  8
1
  6
CONTINUOUS
 62
     3
  5
77F
 10
39.138
 20
42.573
 30
0.0
 11
39.138
 21
41.073
 31
0.0
  0
LINE
  8
1
  6
CONTINUOUS
 62
     3
  5
780
 10
39.138
 20
40.573
 30
0.0
 11
39.138
 21
39.073
 31
0.0
  0
LINE
  8
1
  6
CONTINUOUS
 62
     3
  5
781
 10
25.888
 20
43.823
 30
0.0
 11
25.888
 21
42.573
 31
0.0
  0
LINE
  8
1
  6
CONTINUOUS
 62
     3
  5
782
 10
28.388
 20
43.823
 30
0.0
 11
28.388
 21
42.573
 31
0.0
  0
LINE
  8
1
  6
CONTINUOUS
 62
     3
  5
783
 10
35.895667
 20
43.823
 30
0.0
 11
35.895667
 21
42.573
 31
0.0
  0
LINE
  8
1
  6
CONTINUOUS
 62
     3
  5
784
 10
38.395667
 20
43.823
 30
0.0
 11
38.395667
 21
42.573
 31
0.0
  0
LINE
  8
1
  6
CONTINUOUS
 62
     3
  5
785
 10
30.888
 20
43.823
 30
0.0
 11
30.888
 21
42.573
 31
0.0
  0
LINE
  8
1
  6
CONTINUOUS
 62
     3
  5
786
 10
33.388
 20
43.823
 30
0.0
 11
33.388
 21
42.573
 31
0.0
  0
LINE
  8
1
  6
CONTINUOUS
 62
     3
  5
787
 10
25.888
 20
43.823
 30
0.0
 11
28.388
 21
43.823
 31
0.0
  0
LINE
  8
1
  6
CONTINUOUS
 62
     3
  5
788
 10
30.888
 20
43.823
 30
0.0
 11
33.388
 21
43.823
 31
0.0
  0
LINE
  8
1
  6
CONTINUOUS
 62
     3
  5
789
 10
35.895667
 20
43.823
 30
0.0
 11
38.395667
 21
43.823
 31
0.0
  0
LINE
  8
1
  6
CONTINUOUS
 62
     3
  5
78A
 10
26.388
 20
43.823
 30
0.0
 11
26.388
 21
42.573
 31
0.0
  0
LINE
  8
1
  6
CONTINUOUS
 62
     3
  5
78B
 10
27.888
 20
43.823
 30
0.0
 11
27.888
 21
42.573
 31
0.0
  0
LINE
  8
1
  6
CONTINUOUS
 62
     3
  5
78C
 10
31.388
 20
43.823
 30
0.0
 11
31.388
 21
42.573
 31
0.0
  0
LINE
  8
1
  6
CONTINUOUS
 62
     3
  5
78D
 10
32.888
 20
43.823
 30
0.0
 11
32.888
 21
42.573
 31
0.0
  0
LINE
  8
1
  6
CONTINUOUS
 62
     3
  5
78E
 10
36.395667
 20
43.823
 30
0.0
 11
36.395667
 21
42.573
 31
0.0
  0
LINE
  8
1
  6
CONTINUOUS
 62
     3
  5
78F
 10
37.895667
 20
43.823
 30
0.0
 11
37.895667
 21
42.573
 31
0.0
  0
LINE
  8
1
  6
CONTINUOUS
 62
     3
  5
790
 10
30.888
 20
37.832667
 30
0.0
 11
33.388
 21
37.832667
 31
0.0
  0
LINE
  8
1
  6
CONTINUOUS
 62
     3
  5
791
 10
25.888
 20
37.832667
 30
0.0
 11
25.888
 21
39.082667
 31
0.0
  0
LINE
  8
1
  6
CONTINUOUS
 62
     3
  5
792
 10
28.388
 20
37.832667
 30
0.0
 11
28.388
 21
39.082667
 31
0.0
  0
LINE
  8
1
  6
CONTINUOUS
 62
     3
  5
793
 10
35.895667
 20
37.832667
 30
0.0
 11
35.895667
 21
39.082667
 31
0.0
  0
LINE
  8
1
  6
CONTINUOUS
 62
     3
  5
794
 10
38.395667
 20
37.832667
 30
0.0
 11
38.395667
 21
39.082667
 31
0.0
  0
LINE
  8
1
  6
CONTINUOUS
 62
     3
  5
795
 10
30.888
 20
37.832667
 30
0.0
 11
30.888
 21
39.082667
 31
0.0
  0
LINE
  8
1
  6
CONTINUOUS
 62
     3
  5
796
 10
33.388
 20
37.832667
 30
0.0
 11
33.388
 21
39.082667
 31
0.0
  0
LINE
  8
1
  6
CONTINUOUS
 62
     3
  5
797
 10
25.888
 20
37.832667
 30
0.0
 11
28.388
 21
37.832667
 31
0.0
  0
LINE
  8
1
  6
CONTINUOUS
 62
     3
  5
798
 10
35.895667
 20
37.832667
 30
0.0
 11
38.395667
 21
37.832667
 31
0.0
  0
LINE
  8
1
  6
CONTINUOUS
 62
     3
  5
799
 10
26.388
 20
37.832667
 30
0.0
 11
26.388
 21
39.082667
 31
0.0
  0
LINE
  8
1
  6
CONTINUOUS
 62
     3
  5
79A
 10
27.888
 20
37.832667
 30
0.0
 11
27.888
 21
39.082667
 31
0.0
  0
LINE
  8
1
  6
CONTINUOUS
 62
     3
  5
79B
 10
31.388
 20
37.832667
 30
0.0
 11
31.388
 21
39.082667
 31
0.0
  0
LINE
  8
1
  6
CONTINUOUS
 62
     3
  5
79C
 10
32.888
 20
37.832667
 30
0.0
 11
32.888
 21
39.082667
 31
0.0
  0
LINE
  8
1
  6
CONTINUOUS
 62
     3
  5
79D
 10
36.395667
 20
37.832667
 30
0.0
 11
36.395667
 21
39.082667
 31
0.0
  0
LINE
  8
1
  6
CONTINUOUS
 62
     3
  5
79E
 10
37.895667
 20
37.832667
 30
0.0
 11
37.895667
 21
39.082667
 31
0.0
  0
LINE
  8
1
  6
CONTINUOUS
 62
     3
  5
79F
 10
26.638
 20
45.323
 30
0.0
 11
26.638
 21
43.823
 31
0.0
  0
LINE
  8
1
  6
CONTINUOUS
 62
     3
  5
7A0
 10
27.638
 20
45.323
 30
0.0
 11
27.638
 21
43.823
 31
0.0
  0
LINE
  8
1
  6
CONTINUOUS
 62
     3
  5
7A1
 10
26.638
 20
45.323
 30
0.0
 11
27.638
 21
45.323
 31
0.0
  0
LINE
  8
1
  6
CONTINUOUS
 62
     3
  5
7A2
 10
36.645667
 20
45.323
 30
0.0
 11
36.645667
 21
43.823
 31
0.0
  0
LINE
  8
1
  6
CONTINUOUS
 62
     3
  5
7A3
 10
37.645667
 20
45.323
 30
0.0
 11
37.645667
 21
43.823
 31
0.0
  0
LINE
  8
1
  6
CONTINUOUS
 62
     3
  5
7A4
 10
36.645667
 20
45.323
 30
0.0
 11
37.645667
 21
45.323
 31
0.0
  0
LINE
  8
1
  6
CONTINUOUS
 62
     3
  5
7A5
 10
31.638
 20
36.332667
 30
0.0
 11
31.638
 21
37.832667
 31
0.0
  0
LINE
  8
1
  6
CONTINUOUS
 62
     3
  5
7A6
 10
32.638
 20
36.332667
 30
0.0
 11
32.638
 21
37.832667
 31
0.0
  0
LINE
  8
1
  6
CONTINUOUS
 62
     3
  5
7A7
 10
26.638
 20
44.823
 30
0.0
 11
27.638
 21
44.823
 31
0.0
  0
LINE
  8
1
  6
CONTINUOUS
 62
     3
  5
7A8
 10
26.638
 20
44.323
 30
0.0
 11
27.638
 21
44.323
 31
0.0
  0
LINE
  8
1
  6
CONTINUOUS
 62
     3
  5
7A9
 10
36.645667
 20
44.823
 30
0.0
 11
37.645667
 21
44.823
 31
0.0
  0
LINE
  8
1
  6
CONTINUOUS
 62
     3
  5
7AA
 10
36.645667
 20
44.323
 30
0.0
 11
37.645667
 21
44.323
 31
0.0
  0
LINE
  8
1
  6
CONTINUOUS
 62
     3
  5
7AB
 10
31.638
 20
36.832667
 30
0.0
 11
32.638
 21
36.832667
 31
0.0
  0
LINE
  8
1
  6
CONTINUOUS
 62
     3
  5
7AC
 10
31.638
 20
37.332667
 30
0.0
 11
32.638
 21
37.332667
 31
0.0
  0
LINE
  8
1
  6
CONTINUOUS
 62
     3
  5
7AD
 10
26.888
 20
45.073
 30
0.0
 11
27.388
 21
45.073
 31
0.0
  0
LINE
  8
1
  6
CONTINUOUS
 62
     3
  5
7AE
 10
26.888
 20
44.573
 30
0.0
 11
27.388
 21
44.573
 31
0.0
  0
LINE
  8
1
  6
CONTINUOUS
 62
     3
  5
7AF
 10
26.888
 20
44.073
 30
0.0
 11
27.388
 21
44.073
 31
0.0
  0
LINE
  8
1
  6
CONTINUOUS
 62
     3
  5
7B0
 10
36.895667
 20
45.073
 30
0.0
 11
37.395667
 21
45.073
 31
0.0
  0
LINE
  8
1
  6
CONTINUOUS
 62
     3
  5
7B1
 10
36.895667
 20
44.573
 30
0.0
 11
37.395667
 21
44.573
 31
0.0
  0
LINE
  8
1
  6
CONTINUOUS
 62
     3
  5
7B2
 10
36.895667
 20
44.073
 30
0.0
 11
37.395667
 21
44.073
 31
0.0
  0
LINE
  8
1
  6
CONTINUOUS
 62
     3
  5
7B3
 10
31.638
 20
36.332667
 30
0.0
 11
32.638
 21
36.332667
 31
0.0
  0
LINE
  8
1
  6
CONTINUOUS
 62
     3
  5
7B4
 10
31.888
 20
36.582667
 30
0.0
 11
32.388
 21
36.582667
 31
0.0
  0
LINE
  8
1
  6
CONTINUOUS
 62
     3
  5
7B5
 10
31.888
 20
37.082667
 30
0.0
 11
32.388
 21
37.082667
 31
0.0
  0
LINE
  8
1
  6
CONTINUOUS
 62
     3
  5
7B6
 10
31.888
 20
37.582667
 30
0.0
 11
32.388
 21
37.582667
 31
0.0
  0
LINE
  8
1
  6
CONTINUOUS
 62
     3
  5
7B7
 10
25.138
 20
42.573
 30
0.0
 11
25.138
 21
41.073
 31
0.0
  0
LINE
  8
1
  6
CONTINUOUS
 62
     3
  5
7B8
 10
25.138
 20
40.573
 30
0.0
 11
25.138
 21
39.073
 31
0.0
  0
LINE
  8
1
  6
CONTINUOUS
 62
     3
  5
7B9
 10
-3.612
 20
41.823
 30
0.0
 11
25.138
 21
41.823
 31
0.0
  0
LINE
  8
1
  6
CONTINUOUS
 62
     3
  5
7BA
 10
39.138
 20
41.823
 30
0.0
 11
55.138
 21
41.823
 31
0.0
  0
LINE
  8
1
  6
CONTINUOUS
 62
     3
  5
7BB
 10
-3.612
 20
39.823
 30
0.0
 11
25.138
 21
39.823
 31
0.0
  0
ARC
  8
1
  6
CONTINUOUS
 62
     3
  5
7BC
 10
40.621705
 20
23.314655
 30
0.0
 40
18.839404
 50
39.598644
 51
79.242903
210
0.0
220
0.0
230
1.0
  0
ARC
  8
1
  6
CONTINUOUS
 62
     3
  5
7BD
 10
39.621705
 20
21.314655
 30
0.0
 40
18.839404
 50
39.598644
 51
79.242903
210
0.0
220
0.0
230
1.0
  0
LINE
  8
1
  6
CONTINUOUS
 62
     3
  5
7BE
 10
39.138
 20
39.823
 30
0.0
 11
43.138
 21
39.823
 31
0.0
  0
LINE
  8
1
  6
CONTINUOUS
 62
     3
  5
7BF
 10
49.699
 20
39.823
 30
0.0
 11
55.138
 21
39.823
 31
0.0
  0
POLYLINE
  8
1
  6
CONTINUOUS
 62
     3
  5
7C0
 66
     1
 10
0.0
 20
0.0
 30
0.0
  0
VERTEX
  8
1
  6
CONTINUOUS
 62
     3
  5
7C1
 10
55.138
 20
41.823
 30
0.0
  0
VERTEX
  8
1
  6
CONTINUOUS
 62
     3
  5
7C2
 10
55.149333
 20
41.661917
 30
0.0
  0
VERTEX
  8
1
  6
CONTINUOUS
 62
     3
  5
7C3
 10
55.018667
 20
41.400667
 30
0.0
  0
VERTEX
  8
1
  6
CONTINUOUS
 62
     3
  5
7C4
 10
54.986083
 20
41.237333
 30
0.0
  0
VERTEX
  8
1
  6
CONTINUOUS
 62
     3
  5
7C5
 10
55.084
 20
41.00875
 30
0.0
  0
VERTEX
  8
1
  6
CONTINUOUS
 62
     3
  5
7C6
 10
55.149333
 20
40.81275
 30
0.0
  0
VERTEX
  8
1
  6
CONTINUOUS
 62
     3
  5
7C7
 10
55.116667
 20
40.682083
 30
0.0
  0
VERTEX
  8
1
  6
CONTINUOUS
 62
     3
  5
7C8
 10
54.953417
 20
40.4535
 30
0.0
  0
VERTEX
  8
1
  6
CONTINUOUS
 62
     3
  5
7C9
 10
54.822833
 20
40.2575
 30
0.0
  0
VERTEX
  8
1
  6
CONTINUOUS
 62
     3
  5
7CA
 10
54.953417
 20
40.126917
 30
0.0
  0
VERTEX
  8
1
  6
CONTINUOUS
 62
     3
  5
7CB
 10
55.051333
 20
39.930917
 30
0.0
  0
VERTEX
  8
1
  6
CONTINUOUS
 62
     3
  5
7CC
 10
55.138
 20
39.823
 30
0.0
  0
SEQEND
  8
1
  6
CONTINUOUS
 62
     3
  5
7CD
  0
POLYLINE
  8
1
  6
CONTINUOUS
 62
     3
  5
7CE
 66
     1
 10
0.0
 20
0.0
 30
0.0
  0
VERTEX
  8
1
  6
CONTINUOUS
 62
     3
  5
7CF
 10
55.138
 20
35.323
 30
0.0
  0
VERTEX
  8
1
  6
CONTINUOUS
 62
     3
  5
7D0
 10
54.724833
 20
35.293167
 30
0.0
  0
VERTEX
  8
1
  6
CONTINUOUS
 62
     3
  5
7D1
 10
54.8555
 20
35.162583
 30
0.0
  0
VERTEX
  8
1
  6
CONTINUOUS
 62
     3
  5
7D2
 10
54.822833
 20
35.064583
 30
0.0
  0
VERTEX
  8
1
  6
CONTINUOUS
 62
     3
  5
7D3
 10
54.659583
 20
34.90125
 30
0.0
  0
VERTEX
  8
1
  6
CONTINUOUS
 62
     3
  5
7D4
 10
54.659583
 20
34.705333
 30
0.0
  0
VERTEX
  8
1
  6
CONTINUOUS
 62
     3
  5
7D5
 10
54.626917
 20
34.672667
 30
0.0
  0
VERTEX
  8
1
  6
CONTINUOUS
 62
     3
  5
7D6
 10
54.463667
 20
34.444083
 30
0.0
  0
VERTEX
  8
1
  6
CONTINUOUS
 62
     3
  5
7D7
 10
54.398333
 20
34.28075
 30
0.0
  0
VERTEX
  8
1
  6
CONTINUOUS
 62
     3
  5
7D8
 10
54.300417
 20
34.18275
 30
0.0
  0
VERTEX
  8
1
  6
CONTINUOUS
 62
     3
  5
7D9
 10
54.235083
 20
33.888833
 30
0.0
  0
VERTEX
  8
1
  6
CONTINUOUS
 62
     3
  5
7DA
 10
54.235083
 20
33.496917
 30
0.0
  0
VERTEX
  8
1
  6
CONTINUOUS
 62
     3
  5
7DB
 10
54.138
 20
33.323
 30
0.0
  0
SEQEND
  8
1
  6
CONTINUOUS
 62
     3
  5
7DC
  0
LINE
  8
1
  6
CONTINUOUS
 62
     3
  5
7DD
 10
-3.612
 20
39.823
 30
0.0
 11
-2.307667
 21
41.826583
 31
0.0
  0
LINE
  8
1
  6
CONTINUOUS
 62
     3
  5
7DE
 10
-0.629
 20
39.823
 30
0.0
 11
0.673
 21
41.823
 31
0.0
  0
LINE
  8
1
  6
CONTINUOUS
 62
     3
  5
7DF
 10
2.354
 20
39.823
 30
0.0
 11
3.656
 21
41.823
 31
0.0
  0
LINE
  8
1
  6
CONTINUOUS
 62
     3
  5
7E0
 10
5.337083
 20
39.823
 30
0.0
 11
6.639083
 21
41.823
 31
0.0
  0
LINE
  8
1
  6
CONTINUOUS
 62
     3
  5
7E1
 10
8.320167
 20
39.823
 30
0.0
 11
9.622167
 21
41.823
 31
0.0
  0
ARC
  8
1
  6
CONTINUOUS
 62
     3
  5
7E2
 10
8.234
 20
40.823
 30
0.0
 40
6.083333
 50
138.887908
 51
170.538575
210
0.0
220
0.0
230
1.0
  0
ARC
  8
1
  6
CONTINUOUS
 62
     3
  5
7E3
 10
8.234
 20
40.823
 30
0.0
 40
6.083333
 50
189.461425
 51
221.112089
210
0.0
220
0.0
230
1.0
  0
LINE
  8
1
  6
CONTINUOUS
 62
     3
  5
7E4
 10
11.303167
 20
39.823
 30
0.0
 11
12.605167
 21
41.823
 31
0.0
  0
LINE
  8
1
  6
CONTINUOUS
 62
     3
  5
7E5
 10
14.28625
 20
39.823
 30
0.0
 11
15.58825
 21
41.823
 31
0.0
  0
LINE
  8
1
  6
CONTINUOUS
 62
     3
  5
7E6
 10
17.269333
 20
39.823
 30
0.0
 11
18.571333
 21
41.823
 31
0.0
  0
LINE
  8
1
  6
CONTINUOUS
 62
     3
  5
7E7
 10
20.252417
 20
39.823
 30
0.0
 11
21.554417
 21
41.823
 31
0.0
  0
LINE
  8
1
  6
CONTINUOUS
 62
     3
  5
7E8
 10
23.2355
 20
39.823
 30
0.0
 11
24.5375
 21
41.823
 31
0.0
  0
LINE
  8
1
  6
CONTINUOUS
 62
     3
  5
7E9
 10
41.133833
 20
39.823
 30
0.0
 11
42.435833
 21
41.823
 31
0.0
  0
LINE
  8
1
  6
CONTINUOUS
 62
     3
  5
7EA
 10
43.997167
 20
39.638917
 30
0.0
 11
45.257417
 21
41.574833
 31
0.0
  0
LINE
  8
1
  6
CONTINUOUS
 62
     3
  5
7EB
 10
47.715
 20
40.767667
 30
0.0
 11
48.402
 21
41.823
 31
0.0
  0
LINE
  8
1
  6
CONTINUOUS
 62
     3
  5
7EC
 10
50.083
 20
39.823
 30
0.0
 11
51.385
 21
41.823
 31
0.0
  0
LINE
  8
1
  6
CONTINUOUS
 62
     3
  5
7ED
 10
53.066
 20
39.823
 30
0.0
 11
54.368
 21
41.823
 31
0.0
  0
LINE
  8
1
  6
CONTINUOUS
 62
     3
  5
7EE
 10
46.951583
 20
38.669667
 30
0.0
 11
49.884
 21
39.719917
 31
0.0
  0
LINE
  8
1
  6
CONTINUOUS
 62
     3
  5
7EF
 10
49.93275
 20
37.081917
 30
0.0
 11
52.445333
 21
37.98175
 31
0.0
  0
LINE
  8
1
  6
CONTINUOUS
 62
     3
  5
7F0
 10
52.280583
 20
35.267333
 30
0.0
 11
54.495
 21
36.060417
 31
0.0
  0
LINE
  8
1
  6
CONTINUOUS
 62
     7
  5
7F1
 10
-33.771
 20
90.2755
 30
0.0
 11
-17.507833
 21
106.538667
 31
0.0
  0
INSERT
  8
1
  6
CONTINUOUS
 62
     1
  5
7F2
  2
LDR
 10
-17.507833
 20
106.538667
 30
0.0
 41
239.999999
 42
239.999999
 50
45.0
210
0.0
220
0.0
230
1.0
  0
INSERT
  8
1
  6
CONTINUOUS
 62
     1
  5
7F3
  2
LDR
 10
-17.507833
 20
106.538667
 30
0.0
 41
239.999999
 42
239.999999
 50
45.0
210
0.0
220
0.0
230
1.0
  0
INSERT
  8
1
  6
CONTINUOUS
 62
     1
  5
7F4
  2
LDR
 10
-33.771
 20
90.2755
 30
0.0
 41
239.999999
 42
239.999999
 50
225.0
210
0.0
220
0.0
230
1.0
  0
LINE
  8
1
  6
CONTINUOUS
 62
     7
  5
7F5
 10
-33.806083
 20
130.42425
 30
0.0
 11
-30.7755
 21
153.222
 31
0.0
  0
LINE
  8
1
  6
CONTINUOUS
 62
     7
  5
7F6
 10
-30.7755
 20
153.222
 30
0.0
 11
-27.6525
 21
153.248833
 31
0.0
  0
INSERT
  8
1
  6
CONTINUOUS
 62
     1
  5
7F7
  2
LDR
 10
-33.806083
 20
130.42425
 30
0.0
 41
240.000001
 42
240.000001
 50
262.42787
210
0.0
220
0.0
230
1.0
  0
LINE
  8
1
  6
CONTINUOUS
 62
     7
  5
7F8
 10
-15.01675
 20
124.132083
 30
0.0
 11
-9.975833
 21
117.792833
 31
0.0
  0
LINE
  8
1
  6
CONTINUOUS
 62
     7
  5
7F9
 10
-9.975833
 20
117.792833
 30
0.0
 11
-8.852417
 21
117.821667
 31
0.0
  0
INSERT
  8
1
  6
CONTINUOUS
 62
     1
  5
7FA
  2
LDR
 10
-15.01675
 20
124.132083
 30
0.0
 41
239.999999
 42
239.999999
 50
128.491416
210
0.0
220
0.0
230
1.0
  0
LINE
  8
1
  6
CONTINUOUS
 62
     7
  5
7FB
 10
24.898083
 20
42.7465
 30
0.0
 11
22.015167
 21
52.813083
 31
0.0
  0
LINE
  8
1
  6
CONTINUOUS
 62
     7
  5
7FC
 10
22.015167
 20
52.813083
 30
0.0
 11
25.082917
 21
52.813083
 31
0.0
  0
LINE
  8
1
  6
CONTINUOUS
 62
     7
  5
7FD
 10
12.76775
 20
39.644917
 30
0.0
 11
16.46675
 21
26.912083
 31
0.0
  0
LINE
  8
1
  6
CONTINUOUS
 62
     7
  5
7FE
 10
16.46675
 20
26.912083
 30
0.0
 11
20.01125
 21
26.912083
 31
0.0
  0
INSERT
  8
1
  6
CONTINUOUS
 62
     1
  5
7FF
  2
LDR
 10
24.898083
 20
42.7465
 30
0.0
 41
239.999999
 42
239.999999
 50
285.980909
210
0.0
220
0.0
230
1.0
  0
INSERT
  8
1
  6
CONTINUOUS
 62
     1
  5
800
  2
LDR
 10
24.898083
 20
42.7465
 30
0.0
 41
239.999999
 42
239.999999
 50
285.980909
210
0.0
220
0.0
230
1.0
  0
INSERT
  8
1
  6
CONTINUOUS
 62
     1
  5
801
  2
LDR
 10
12.76775
 20
39.644917
 30
0.0
 41
239.999999
 42
239.999999
 50
106.199045
210
0.0
220
0.0
230
1.0
  0
TEXT
  8
1
  6
CONTINUOUS
 62
     7
  5
802
 10
-7.5295
 20
117.046
 30
0.0
 40
2.0
  1
MESSENGER CABLE
  7
MONOTXT
 72
     4
 11
6.887833
 21
118.046
 31
0.0
210
0.0
220
0.0
230
1.0
  0
TEXT
  8
1
  6
CONTINUOUS
 62
     7
  5
803
 10
-43.068917
 20
5.21
 30
0.0
 40
2.0
  1
DEAD END CONNECTION
  7
MONOTXT
 72
     4
 11
-25.108333
 21
6.21
 31
0.0
210
0.0
220
0.0
230
1.0
  0
TEXT
  8
1
  6
CONTINUOUS
 62
     4
  5
804
 10
-74.208667
 20
-4.879083
 30
0.0
 40
4.0
  1
MESSENGER CABLE CONNECTIONS
  7
MONOTXT
 72
     4
 11
-22.507917
 21
-2.879083
 31
0.0
210
0.0
220
0.0
230
1.0
  0
LINE
  8
1
  6
CONTINUOUS
 62
     4
  5
805
 10
-76.902167
 20
-6.76675
 30
0.0
 11
31.044083
 21
-6.76675
 31
0.0
  0
TEXT
  8
1
  6
CONTINUOUS
 62
     7
  5
806
 10
-32.271833
 20
93.222333
 30
0.0
 40
2.0
  1
POLE
 50
45.0
  7
MONOTXT
 72
     4
 11
-30.434534
 21
96.473846
 31
0.0
210
0.0
220
0.0
230
1.0
  0
TEXT
  8
1
  6
CONTINUOUS
 62
     7
  5
807
 10
-28.602667
 20
91.234583
 30
0.0
 40
2.0
  1
DIA.
 50
45.0
  7
MONOTXT
 72
     4
 11
-27.611598
 21
93.639866
 31
0.0
210
0.0
220
0.0
230
1.0
  0
TEXT
  8
1
  6
CONTINUOUS
 62
     7
  5
808
 10
-26.680833
 20
152.339417
 30
0.0
 40
2.0
  1
SIGNAL CONTROL
  7
MONOTXT
 72
     4
 11
-13.822667
 21
153.339417
 31
0.0
210
0.0
220
0.0
230
1.0
  0
TEXT
  8
1
  6
CONTINUOUS
 62
     7
  5
809
 10
-18.318583
 20
148.339417
 30
0.0
 40
2.0
  1
CABLE
  7
MONOTXT
 72
     4
 11
-13.822583
 21
149.339417
 31
0.0
210
0.0
220
0.0
230
1.0
  0
TEXT
  8
1
  6
CONTINUOUS
 62
     7
  5
80A
 10
25.774167
 20
51.960917
 30
0.0
 40
2.0
  1
THREE BOLT
  7
MONOTXT
 72
     4
 11
35.230833
 21
52.960917
 31
0.0
210
0.0
220
0.0
230
1.0
  0
TEXT
  8
1
  6
CONTINUOUS
 62
     7
  5
80B
 10
24.829333
 20
47.960917
 30
0.0
 40
2.0
  1
CABLE CLAMP
  7
MONOTXT
 72
     4
 11
35.230833
 21
48.960917
 31
0.0
210
0.0
220
0.0
230
1.0
  0
TEXT
  8
1
  6
CONTINUOUS
 62
     7
  5
80C
 10
20.940167
 20
25.792
 30
0.0
 40
2.0
  1
MESSENGER
  7
MONOTXT
 72
     4
 11
29.546417
 21
26.792
 31
0.0
210
0.0
220
0.0
230
1.0
  0
TEXT
  8
1
  6
CONTINUOUS
 62
     7
  5
80D
 10
25.050417
 20
21.792
 30
0.0
 40
2.0
  1
CABLE
  7
MONOTXT
 72
     4
 11
29.546417
 21
22.792
 31
0.0
210
0.0
220
0.0
230
1.0
  0
TEXT
  8
1
  6
CONTINUOUS
 62
     7
  5
80E
 10
-45.266417
 20
76.904667
 30
0.0
 40
2.0
  1
ANGLE CABLE CONNECTION
  7
MONOTXT
 72
     4
 11
-24.565667
 21
77.904667
 31
0.0
210
0.0
220
0.0
230
1.0
  0
TEXT
  8
1
  6
CONTINUOUS
 62
     7
  5
80F
 10
-135.5125
 20
297.096417
 30
0.0
 40
2.0
  1
SIGNAL CONTROL CABLE
  7
MONOTXT
 72
     4
 11
-116.93775
 21
298.096417
 31
0.0
210
0.0
220
0.0
230
1.0
  0
TEXT
  8
1
  6
CONTINUOUS
 62
     7
  5
810
 10
154.475917
 20
353.6805
 30
0.0
 40
2.5
  1
GENERAL NOTES
  7
MONOTXT
 11
154.475917
 21
356.1805
 31
0.0
210
0.0
220
0.0
230
1.0
 73
     3
  0
TEXT
  8
1
  6
CONTINUOUS
 62
     7
  5
811
 10
154.475917
 20
349.1805
 30
0.0
 40
2.5
  1
 
  7
MONOTXT
 11
154.475917
 21
351.6805
 31
0.0
210
0.0
220
0.0
230
1.0
 73
     3
  0
TEXT
  8
1
  6
CONTINUOUS
 62
     7
  5
812
 10
154.475917
 20
344.6805
 30
0.0
 40
2.5
  1
THE FOLLOWING EXTRACT FROM THE NATIONAL ELECTRICAL CODE
  7
MONOTXT
 11
154.475917
 21
347.1805
 31
0.0
210
0.0
220
0.0
230
1.0
 73
     3
  0
TEXT
  8
1
  6
CONTINUOUS
 62
     7
  5
813
 10
154.475917
 20
340.1805
 30
0.0
 40
2.5
  1
SHALL BE USED AS A GENERAL GUIDELINE. (LOCAL CONDITIONS MAY
  7
MONOTXT
 11
154.475917
 21
342.6805
 31
0.0
210
0.0
220
0.0
230
1.0
 73
     3
  0
TEXT
  8
1
  6
CONTINUOUS
 62
     7
  5
814
 10
154.475917
 20
335.6805
 30
0.0
 40
2.5
  1
DICTATE SOME VARIANCE WITH THIS SPACING AT THE DISCRETION
  7
MONOTXT
 11
154.475917
 21
338.1805
 31
0.0
210
0.0
220
0.0
230
1.0
 73
     3
  0
TEXT
  8
1
  6
CONTINUOUS
 62
     7
  5
815
 10
154.475917
 20
331.1805
 30
0.0
 40
2.5
  1
OF THE PROJECT ENGINEER).
  7
MONOTXT
 11
154.475917
 21
333.6805
 31
0.0
210
0.0
220
0.0
230
1.0
 73
     3
  0
TEXT
  8
1
  6
CONTINUOUS
 62
     7
  5
816
 10
154.475917
 20
326.6805
 30
0.0
 40
2.5
  1
 
  7
MONOTXT
 11
154.475917
 21
329.1805
 31
0.0
210
0.0
220
0.0
230
1.0
 73
     3
  0
TEXT
  8
1
  6
CONTINUOUS
 62
     7
  5
817
 10
154.475917
 20
322.1805
 30
0.0
 40
2.5
  1
SIGNAL CONDUCTOR CABLE SUPPORT ON POLES SHALL HAVE A
  7
MONOTXT
 11
154.475917
 21
324.6805
 31
0.0
210
0.0
220
0.0
230
1.0
 73
     3
  0
TEXT
  8
1
  6
CONTINUOUS
 62
     7
  5
818
 10
154.475917
 20
317.6805
 30
0.0
 40
2.5
  1
SEPARATION OF NO LESS THAN ONE FOOT EXCEPT WHEN PLACED
  7
MONOTXT
 11
154.475917
 21
320.1805
 31
0.0
210
0.0
220
0.0
230
1.0
 73
     3
  0
TEXT
  8
1
  6
CONTINUOUS
 62
     7
  5
819
 10
154.475917
 20
313.1805
 30
0.0
 40
2.5
  1
ON RACKS OR BRACKETS.
  7
MONOTXT
 11
154.475917
 21
315.6805
 31
0.0
210
0.0
220
0.0
230
1.0
 73
     3
  0
TEXT
  8
1
  6
CONTINUOUS
 62
     7
  5
81A
 10
154.475917
 20
308.6805
 30
0.0
 40
2.5
  1
 
  7
MONOTXT
 11
154.475917
 21
311.1805
 31
0.0
210
0.0
220
0.0
230
1.0
 73
     3
  0
TEXT
  8
1
  6
CONTINUOUS
 62
     7
  5
81B
 10
154.475917
 20
304.1805
 30
0.0
 40
2.5
  1
SIGNAL CONDUCTOR CABLE SUPPORTED ON POLES SHALL PROVIDE
  7
MONOTXT
 11
154.475917
 21
306.6805
 31
0.0
210
0.0
220
0.0
230
1.0
 73
     3
  0
TEXT
  8
1
  6
CONTINUOUS
 62
     7
  5
81C
 10
154.475917
 20
299.6805
 30
0.0
 40
2.5
  1
A HORIZONTAL CLIMBING SPACE NOT LESS THAN FOLLOWING:
  7
MONOTXT
 11
154.475917
 21
302.1805
 31
0.0
210
0.0
220
0.0
230
1.0
 73
     3
  0
TEXT
  8
1
  6
CONTINUOUS
 62
     7
  5
81D
 10
154.475917
 20
295.1805
 30
0.0
 40
2.5
  1
 
  7
MONOTXT
 11
154.475917
 21
297.6805
 31
0.0
210
0.0
220
0.0
230
1.0
 73
     3
  0
TEXT
  8
1
  6
CONTINUOUS
 62
     7
  5
81E
 10
154.475917
 20
290.6805
 30
0.0
 40
2.5
  1
   A.   SIGNAL CONDUCTOR CABLE LOCATED BELOW EXISTING
  7
MONOTXT
 11
154.475917
 21
293.1805
 31
0.0
210
0.0
220
0.0
230
1.0
 73
     3
  0
TEXT
  8
1
  6
CONTINUOUS
 62
     7
  5
81F
 10
154.475917
 20
286.1805
 30
0.0
 40
2.5
  1
      POWER LINES -- 12 INCHES FOR SECONDARY OR AS
  7
MONOTXT
 11
154.475917
 21
288.6805
 31
0.0
210
0.0
220
0.0
230
1.0
 73
     3
  0
TEXT
  8
1
  6
CONTINUOUS
 62
     7
  5
820
 10
154.475917
 20
281.6805
 30
0.0
 40
2.5
  1
      OTHERWISE DIRECTED ON THE PLANS OR BY THE LOCAL
  7
MONOTXT
 11
154.475917
 21
284.1805
 31
0.0
210
0.0
220
0.0
230
1.0
 73
     3
  0
TEXT
  8
1
  6
CONTINUOUS
 62
     7
  5
821
 10
154.475917
 20
277.1805
 30
0.0
 40
2.5
  1
      POWER COMPANY.
  7
MONOTXT
 11
154.475917
 21
279.6805
 31
0.0
210
0.0
220
0.0
230
1.0
 73
     3
  0
TEXT
  8
1
  6
CONTINUOUS
 62
     7
  5
822
 10
154.475917
 20
272.6805
 30
0.0
 40
2.5
  1
 
  7
MONOTXT
 11
154.475917
 21
275.1805
 31
0.0
210
0.0
220
0.0
230
1.0
 73
     3
  0
TEXT
  8
1
  6
CONTINUOUS
 62
     7
  5
823
 10
154.475917
 20
268.1805
 30
0.0
 40
2.5
  1
   B.   SIGNAL CONDUCTOR CABLE LOCATED ABOVE EXISTING
  7
MONOTXT
 11
154.475917
 21
270.6805
 31
0.0
210
0.0
220
0.0
230
1.0
 73
     3
  0
TEXT
  8
1
  6
CONTINUOUS
 62
     7
  5
824
 10
154.475917
 20
263.6805
 30
0.0
 40
2.5
  1
      COMMUNICATION LINES -- 30 INCHES.
  7
MONOTXT
 11
154.475917
 21
266.1805
 31
0.0
210
0.0
220
0.0
230
1.0
 73
     3
  0
TEXT
  8
1
  6
CONTINUOUS
 62
     7
  5
825
 10
154.475917
 20
259.1805
 30
0.0
 40
2.5
  1
 
  7
MONOTXT
 11
154.475917
 21
261.6805
 31
0.0
210
0.0
220
0.0
230
1.0
 73
     3
  0
TEXT
  8
1
  6
CONTINUOUS
 62
     7
  5
826
 10
154.475917
 20
254.6805
 30
0.0
 40
2.5
  1
   C.   SIGNAL CONDUCTOR CABLE LOCATED BELOW EXISTING
  7
MONOTXT
 11
154.475917
 21
257.1805
 31
0.0
210
0.0
220
0.0
230
1.0
 73
     3
  0
TEXT
  8
1
  6
CONTINUOUS
 62
     7
  5
827
 10
154.475917
 20
250.1805
 30
0.0
 40
2.5
  1
      COMMUNICATION LINES -- NOT ALLOWED UNLESS OTHER-
  7
MONOTXT
 11
154.475917
 21
252.6805
 31
0.0
210
0.0
220
0.0
230
1.0
 73
     3
  0
TEXT
  8
1
  6
CONTINUOUS
 62
     7
  5
828
 10
154.475917
 20
245.6805
 30
0.0
 40
2.5
  1
      WISE DIRECTED ON THE PLANS OR BY THE OWNER.
  7
MONOTXT
 11
154.475917
 21
248.1805
 31
0.0
210
0.0
220
0.0
230
1.0
 73
     3
  0
LINE
  8
1
  6
CONTINUOUS
 62
     7
  5
829
 10
153.265833
 20
352.335167
 30
0.0
 11
186.411333
 21
352.335167
 31
0.0
  0
TEXT
  8
1
  6
CONTINUOUS
 62
     7
  5
82A
 10
134.543
 20
79.813333
 30
0.0
 40
2.0
  1
ADDED THRU - BOLT NOTE ON POLE CLAMP
  7
MONOTXT
 72
     4
 11
169.495667
 21
80.813333
 31
0.0
210
0.0
220
0.0
230
1.0
  0
LINE
  8
1
  6
CONTINUOUS
 62
     7
  5
82B
 10
131.560083
 20
82.729667
 30
0.0
 11
133.560083
 21
79.265583
 31
0.0
  0
LINE
  8
1
  6
CONTINUOUS
 62
     7
  5
82C
 10
129.471583
 20
83.779667
 30
0.0
 11
133.471583
 21
83.779667
 31
0.0
  0
LINE
  8
1
  6
CONTINUOUS
 62
     7
  5
82D
 10
131.471583
 20
87.24375
 30
0.0
 11
129.471583
 21
83.779667
 31
0.0
  0
LINE
  8
1
  6
CONTINUOUS
 62
     7
  5
82E
 10
131.471583
 20
87.24375
 30
0.0
 11
133.471583
 21
83.779667
 31
0.0
  0
LINE
  8
1
  6
CONTINUOUS
 62
     7
  5
82F
 10
129.560083
 20
79.265583
 30
0.0
 11
133.560083
 21
79.265583
 31
0.0
  0
LINE
  8
1
  6
CONTINUOUS
 62
     7
  5
830
 10
131.560083
 20
82.729667
 30
0.0
 11
129.560083
 21
79.265583
 31
0.0
  0
LINE
  8
1
  6
CONTINUOUS
 62
     7
  5
831
 10
129.383167
 20
74.751333
 30
0.0
 11
133.383167
 21
74.751333
 31
0.0
  0
LINE
  8
1
  6
CONTINUOUS
 62
     7
  5
832
 10
131.383167
 20
78.215417
 30
0.0
 11
129.383167
 21
74.751333
 31
0.0
  0
LINE
  8
1
  6
CONTINUOUS
 62
     7
  5
833
 10
131.383167
 20
78.215417
 30
0.0
 11
133.383167
 21
74.751333
 31
0.0
  0
TEXT
  8
1
  6
CONTINUOUS
 62
     7
  5
834
 10
130.724583
 20
74.9215
 30
0.0
 40
1.99775
  1
3
  7
MONOTXT
210
0.0
220
0.0
230
1.0
  0
TEXT
  8
1
  6
CONTINUOUS
 62
     7
  5
835
 10
130.813
 20
79.524083
 30
0.0
 40
1.99775
  1
2
  7
MONOTXT
210
0.0
220
0.0
230
1.0
  0
TEXT
  8
1
  6
CONTINUOUS
 62
     7
  5
836
 10
131.0785
 20
84.21525
 30
0.0
 40
1.99775
  1
1
  7
MONOTXT
210
0.0
220
0.0
230
1.0
  0
TEXT
  8
1
  6
CONTINUOUS
 62
     7
  5
837
 10
134.67775
 20
84.555583
 30
0.0
 40
2.0
  1
REVISED FIGURE "8" vs. MESSENGER CABLE ADDED J-HOOK FOR FIGURE "8"
  7
MONOTXT
 72
     4
 11
194.969083
 21
85.555583
 31
0.0
210
0.0
220
0.0
230
1.0
  0
TEXT
  8
1
  6
CONTINUOUS
 62
     7
  5
838
 10
134.537417
 20
75.3675
 30
0.0
 40
2.0
  1
DELETED FIGURE "8"
  7
MONOTXT
 72
     4
 11
150.624083
 21
76.3675
 31
0.0
210
0.0
220
0.0
230
1.0
  0
TEXT
  8
1
  6
CONTINUOUS
 62
     7
  5
839
 10
141.426333
 20
-0.179167
 30
0.0
 40
1.99775
  1
10/5/77
  7
MONOTXT
210
0.0
220
0.0
230
1.0
  0
LINE
  8
1
  6
CONTINUOUS
 62
     7
  5
83A
 10
132.298333
 20
3.899417
 30
0.0
 11
136.298333
 21
3.899417
 31
0.0
  0
LINE
  8
1
  6
CONTINUOUS
 62
     7
  5
83B
 10
134.298333
 20
7.3635
 30
0.0
 11
132.298333
 21
3.899417
 31
0.0
  0
LINE
  8
1
  6
CONTINUOUS
 62
     7
  5
83C
 10
134.298333
 20
7.3635
 30
0.0
 11
136.298333
 21
3.899417
 31
0.0
  0
LINE
  8
1
  6
CONTINUOUS
 62
     7
  5
83D
 10
132.386833
 20
-0.614667
 30
0.0
 11
136.386833
 21
-0.614667
 31
0.0
  0
LINE
  8
1
  6
CONTINUOUS
 62
     7
  5
83E
 10
134.386833
 20
2.849417
 30
0.0
 11
132.386833
 21
-0.614667
 31
0.0
  0
LINE
  8
1
  6
CONTINUOUS
 62
     7
  5
83F
 10
134.386833
 20
2.849417
 30
0.0
 11
136.386833
 21
-0.614667
 31
0.0
  0
LINE
  8
1
  6
CONTINUOUS
 62
     7
  5
840
 10
132.209917
 20
-5.128917
 30
0.0
 11
136.209917
 21
-5.128917
 31
0.0
  0
LINE
  8
1
  6
CONTINUOUS
 62
     7
  5
841
 10
134.209917
 20
-1.664833
 30
0.0
 11
132.209917
 21
-5.128917
 31
0.0
  0
LINE
  8
1
  6
CONTINUOUS
 62
     7
  5
842
 10
134.209917
 20
-1.664833
 30
0.0
 11
136.209917
 21
-5.128917
 31
0.0
  0
TEXT
  8
1
  6
CONTINUOUS
 62
     7
  5
843
 10
141.603333
 20
9.026083
 30
0.0
 40
1.99775
  1
6/18/76
  7
MONOTXT
210
0.0
220
0.0
230
1.0
  0
TEXT
  8
1
  6
CONTINUOUS
 62
     7
  5
844
 10
142.04575
 20
13.540333
 30
0.0
 40
1.99775
  1
8/0/74
  7
MONOTXT
210
0.0
220
0.0
230
1.0
  0
TEXT
  8
1
  6
CONTINUOUS
 62
     7
  5
845
 10
141.514833
 20
4.423583
 30
0.0
 40
1.99775
  1
3/23/77
  7
MONOTXT
210
0.0
220
0.0
230
1.0
  0
TEXT
  8
1
  6
CONTINUOUS
 62
     7
  5
846
 10
133.551333
 20
-4.95875
 30
0.0
 40
1.99775
  1
3
  7
MONOTXT
210
0.0
220
0.0
230
1.0
  0
TEXT
  8
1
  6
CONTINUOUS
 62
     7
  5
847
 10
133.63975
 20
-0.356167
 30
0.0
 40
1.99775
  1
2
  7
MONOTXT
210
0.0
220
0.0
230
1.0
  0
TEXT
  8
1
  6
CONTINUOUS
 62
     7
  5
848
 10
133.90525
 20
4.335
 30
0.0
 40
1.99775
  1
1
  7
MONOTXT
210
0.0
220
0.0
230
1.0
  0
TEXT
  8
1
  6
CONTINUOUS
 62
     7
  5
849
 10
141.426333
 20
-4.573583
 30
0.0
 40
1.99775
  1
5/5/84
  7
MONOTXT
210
0.0
220
0.0
230
1.0
  0
TEXT
  8
1
  6
CONTINUOUS
 62
     7
  5
84A
 10
181.991083
 20
36.9005
 30
0.0
 40
6.992667
  1
INTERCONNECT
  7
txt
 72
     1
 11
217.80725
 21
43.893167
 31
0.0
210
0.0
220
0.0
230
1.0
 73
     3
  0
LINE
  8
1
  6
CONTINUOUS
 62
     7
  5
84B
 10
129.263833
 20
69.737583
 30
0.0
 11
133.263833
 21
69.737583
 31
0.0
  0
LINE
  8
1
  6
CONTINUOUS
 62
     7
  5
84C
 10
131.263833
 20
73.201667
 30
0.0
 11
129.263833
 21
69.737583
 31
0.0
  0
LINE
  8
1
  6
CONTINUOUS
 62
     7
  5
84D
 10
131.263833
 20
73.201667
 30
0.0
 11
133.263833
 21
69.737583
 31
0.0
  0
TEXT
  8
1
  6
CONTINUOUS
 62
     7
  5
84E
 10
130.60525
 20
69.90775
 30
0.0
 40
1.99775
  1
4
  7
MONOTXT
210
0.0
220
0.0
230
1.0
  0
TEXT
  8
1
  6
CONTINUOUS
 62
     7
  5
84F
 10
134.220917
 20
70.115
 30
0.0
 40
2.0
  1
DELETED FIGURE '8' CABLE AND DETAILS
  7
MONOTXT
 72
     4
 11
165.78775
 21
71.115
 31
0.0
210
0.0
220
0.0
230
1.0
  0
LINE
  8
1
  6
CONTINUOUS
 62
     7
  5
850
 10
134.05625
 20
-6.486917
 30
0.0
 11
136.05625
 21
-9.951
 31
0.0
  0
LINE
  8
1
  6
CONTINUOUS
 62
     7
  5
851
 10
132.05625
 20
-9.951
 30
0.0
 11
136.05625
 21
-9.951
 31
0.0
  0
LINE
  8
1
  6
CONTINUOUS
 62
     7
  5
852
 10
134.05625
 20
-6.486917
 30
0.0
 11
132.05625
 21
-9.951
 31
0.0
  0
TEXT
  8
1
  6
CONTINUOUS
 62
     7
  5
853
 10
133.397667
 20
-9.780833
 30
0.0
 40
1.99775
  1
4
  7
MONOTXT
210
0.0
220
0.0
230
1.0
  0
ENDSEC
  0
EOF
