  0
SECTION
  2
HEADER
  9
$ACADVER
  1
AC1009
  9
$INSBASE
 10
0.0
 20
0.0
 30
0.0
  9
$EXTMIN
 10
-67.5625
 20
-1035.535833
 30
0.0
  9
$EXTMAX
 10
612.5175
 20
0.001667
 30
0.0
  9
$LIMMIN
 10
0.0
 20
0.0
  9
$LIMMAX
 10
12.0
 20
9.0
  9
$ORTHOMODE
 70
     0
  9
$REGENMODE
 70
     1
  9
$FILLMODE
 70
     1
  9
$QTEXTMODE
 70
     0
  9
$MIRRTEXT
 70
     1
  9
$DRAGMODE
 70
     2
  9
$LTSCALE
 40
1.0
  9
$OSMODE
 70
     0
  9
$ATTMODE
 70
     1
  9
$TEXTSIZE
 40
0.2
  9
$TRACEWID
 40
0.05
  9
$TEXTSTYLE
  7
STANDARD
  9
$CLAYER
  8
0
  9
$CELTYPE
  6
CONTINUOUS
  9
$CECOLOR
 62
   256
  9
$DIMSCALE
 40
1.0
  9
$DIMASZ
 40
0.18
  9
$DIMEXO
 40
0.0625
  9
$DIMDLI
 40
0.38
  9
$DIMRND
 40
0.0
  9
$DIMDLE
 40
0.0
  9
$DIMEXE
 40
0.18
  9
$DIMTP
 40
0.0
  9
$DIMTM
 40
0.0
  9
$DIMTXT
 40
0.18
  9
$DIMCEN
 40
0.09
  9
$DIMTSZ
 40
0.0
  9
$DIMTOL
 70
     0
  9
$DIMLIM
 70
     0
  9
$DIMTIH
 70
     1
  9
$DIMTOH
 70
     1
  9
$DIMSE1
 70
     0
  9
$DIMSE2
 70
     0
  9
$DIMTAD
 70
     0
  9
$DIMZIN
 70
     0
  9
$DIMBLK
  1

  9
$DIMASO
 70
     1
  9
$DIMSHO
 70
     1
  9
$DIMPOST
  1

  9
$DIMAPOST
  1

  9
$DIMALT
 70
     0
  9
$DIMALTD
 70
     2
  9
$DIMALTF
 40
25.4
  9
$DIMLFAC
 40
1.0
  9
$DIMTOFL
 70
     0
  9
$DIMTVP
 40
0.0
  9
$DIMTIX
 70
     0
  9
$DIMSOXD
 70
     0
  9
$DIMSAH
 70
     0
  9
$DIMBLK1
  1

  9
$DIMBLK2
  1

  9
$DIMSTYLE
  2
STANDARD
  9
$DIMCLRD
 70
     0
  9
$DIMCLRE
 70
     0
  9
$DIMCLRT
 70
     0
  9
$DIMTFAC
 40
1.0
  9
$DIMGAP
 40
0.09
  9
$LUNITS
 70
     2
  9
$LUPREC
 70
     4
  9
$AXISMODE
 70
     0
  9
$AXISUNIT
 10
0.0
 20
0.0
  9
$SKETCHINC
 40
0.1
  9
$FILLETRAD
 40
0.0
  9
$AUNITS
 70
     0
  9
$AUPREC
 70
     0
  9
$MENU
  1
acad
  9
$ELEVATION
 40
0.0
  9
$PELEVATION
 40
0.0
  9
$THICKNESS
 40
0.0
  9
$LIMCHECK
 70
     0
  9
$BLIPMODE
 70
     1
  9
$CHAMFERA
 40
0.0
  9
$CHAMFERB
 40
0.0
  9
$SKPOLY
 70
     0
  9
$TDCREATE
 40
2451803.442754630
  9
$TDUPDATE
 40
2451803.442754630
  9
$TDINDWG
 40
0.0000000000
  9
$TDUSRTIMER
 40
0.0000000000
  9
$USRTIMER
 70
     1
  9
$ANGBASE
 50
0.0
  9
$ANGDIR
 70
     0
  9
$PDMODE
 70
     0
  9
$PDSIZE
 40
0.0
  9
$PLINEWID
 40
0.0
  9
$COORDS
 70
     0
  9
$SPLFRAME
 70
     0
  9
$SPLINETYPE
 70
     6
  9
$SPLINESEGS
 70
    10
  9
$ATTDIA
 70
     0
  9
$ATTREQ
 70
     1
  9
$HANDLING
 70
     1
  9
$HANDSEED
  5
63A
  9
$SURFTAB1
 70
     6
  9
$SURFTAB2
 70
     6
  9
$SURFTYPE
 70
     6
  9
$SURFU
 70
     6
  9
$SURFV
 70
     6
  9
$UCSNAME
  2

  9
$UCSORG
 10
0.0
 20
0.0
 30
0.0
  9
$UCSXDIR
 10
1.0
 20
0.0
 30
0.0
  9
$UCSYDIR
 10
0.0
 20
1.0
 30
0.0
  9
$PUCSNAME
  2

  9
$PUCSORG
 10
0.0
 20
0.0
 30
0.0
  9
$PUCSXDIR
 10
1.0
 20
0.0
 30
0.0
  9
$PUCSYDIR
 10
0.0
 20
1.0
 30
0.0
  9
$USERI1
 70
     0
  9
$USERI2
 70
     0
  9
$USERI3
 70
     0
  9
$USERI4
 70
     0
  9
$USERI5
 70
     0
  9
$USERR1
 40
0.0
  9
$USERR2
 40
0.0
  9
$USERR3
 40
0.0
  9
$USERR4
 40
0.0
  9
$USERR5
 40
0.0
  9
$WORLDVIEW
 70
     1
  9
$SHADEDGE
 70
     3
  9
$SHADEDIF
 70
    70
  9
$TILEMODE
 70
     1
  9
$MAXACTVP
 70
    16
  9
$PINSBASE
 10
0.0
 20
0.0
 30
0.0
  9
$PLIMCHECK
 70
     0
  9
$PEXTMIN
 10
-1.000000E+20
 20
-1.000000E+20
 30
-1.000000E+20
  9
$PEXTMAX
 10
-1.000000E+20
 20
-1.000000E+20
 30
-1.000000E+20
  9
$PLIMMIN
 10
0.0
 20
0.0
  9
$PLIMMAX
 10
12.0
 20
9.0
  9
$UNITMODE
 70
     0
  9
$VISRETAIN
 70
     0
  9
$PLINEGEN
 70
     1
  9
$PSLTSCALE
 70
     0
  9
$TREEDEPTH
 70
  3020
  9
$DWGCODEPAGE
  3
ansi_1252
  0
ENDSEC
  0
SECTION
  2
TABLES
  0
TABLE
  2
VPORT
 70
     1
  0
VPORT
  2
*ACTIVE
 70
     0
 10
0.0
 20
0.0
 11
1.0
 21
1.0
 12
0.0
 22
0.0
 13
0.0
 23
0.0
 14
0.0
 24
0.0
 15
0.0
 25
0.0
 16
0.0
 26
0.0
 36
1.0
 17
226.7138
 27
-815.515833
 37
0.0
 40
451.041
 41
1.795122
 42
50.0
 43
0.0
 44
0.0
 50
0.0
 51
0.0
 71
     0
 72
   100
 73
     1
 74
     0
 75
     0
 76
     0
 77
     0
 78
     0
  0
ENDTAB
  0
TABLE
  2
LTYPE
 70
     7
  0
LTYPE
  2
CONTINUOUS
 70
     0
  3
Solid line
 72
    65
 73
     0
 40
0.0
  0
LTYPE
  2
DOT
 70
    64
  3
. . . . . . . . . . . . . . . . . . . . . . . . . . . . . . . . .
 72
    65
 73
     2
 40
0.25
 49
0.0
 49
-0.25
  0
LTYPE
  2
HIDDEN
 70
    64
  3
__ __ __ __ __ __ __ __ __ __ __ __ __ __ __ __ __ __ __ __ __ 
 72
    65
 73
     2
 40
0.375
 49
0.25
 49
-0.125
  0
LTYPE
  2
DASHED
 70
    64
  3
__ __ __ __ __ __ __ __ __ __ __ __ __ __ __ __ __ __ __ __ __
 72
    65
 73
     2
 40
0.75
 49
0.5
 49
-0.25
  0
LTYPE
  2
DASHDOT
 70
    64
  3
__ . __ . __ . __ . __ . __ . __ . __ . __ . __ . __ . __ . _
 72
    65
 73
     4
 40
1.0
 49
0.5
 49
-0.25
 49
0.0
 49
-0.25
  0
LTYPE
  2
DIVIDE
 70
    64
  3
____ . . ____ . . ____ . . ____ . . ____ . . ____ . . ____ . .
 72
    65
 73
     6
 40
1.25
 49
0.5
 49
-0.25
 49
0.0
 49
-0.25
 49
0.0
 49
-0.25
  0
LTYPE
  2
CENTER
 70
    64
  3
____ _ ____ _ ____ _ ____ _ ____ _ ____ _ ____ _ ____ _ ____ _
 72
    65
 73
     4
 40
2.0
 49
1.25
 49
-0.25
 49
0.25
 49
-0.25
  0
ENDTAB
  0
TABLE
  2
LAYER
 70
     5
  0
LAYER
  2
0
 70
     0
 62
     7
  6
CONTINUOUS
  0
LAYER
  2
CONSTRUCTION_CLASS
 70
     0
 62
     7
  6
CONTINUOUS
  0
LAYER
  2
PATTERN_CLASS
 70
     0
 62
     7
  6
CONTINUOUS
  0
LAYER
  2
61
 70
    64
 62
     7
  6
CONTINUOUS
  0
LAYER
  2
1
 70
    64
 62
     7
  6
CONTINUOUS
  0
ENDTAB
  0
TABLE
  2
STYLE
 70
     4
  0
STYLE
  2
STANDARD
 70
     0
 40
0.0
 41
1.0
 50
0.0
 71
     0
 42
0.0
  3
txt
  4

  0
STYLE
  2
MONOTXT
 70
     0
 40
0.2
 41
1.0
 50
0.0
 71
     0
 42
0.2
  3
MONOTXT
  4

  0
STYLE
  2
txt
 70
     0
 40
0.2
 41
1.0
 50
0.0
 71
     0
 42
0.2
  3
TXT
  4

  0
STYLE
  2
ROMANT
 70
     0
 40
0.2
 41
1.0
 50
0.0
 71
     0
 42
0.2
  3
ROMANT
  4

  0
ENDTAB
  0
TABLE
  2
VIEW
 70
     0
  0
ENDTAB
  0
TABLE
  2
UCS
 70
     0
  0
ENDTAB
  0
TABLE
  2
APPID
 70
     1
  0
APPID
  2
ACAD
 70
     0
  0
ENDTAB
  0
TABLE
  2
DIMSTYLE
 70
     1
  0
DIMSTYLE
  2
STANDARD
 70
     0
  3

  4

  5

  6

  7

 40
1.0
 41
0.18
 42
0.0625
 43
0.38
 44
0.18
 45
0.0
 46
0.0
 47
0.0
 48
0.0
140
0.18
141
0.09
142
0.0
143
25.4
144
1.0
145
0.0
146
1.0
147
0.09
 71
     0
 72
     0
 73
     1
 74
     1
 75
     0
 76
     0
 77
     0
 78
     0
170
     0
171
     2
172
     0
173
     0
174
     0
175
     0
176
     0
177
     0
178
     0
  0
ENDTAB
  0
ENDSEC
  0
SECTION
  2
BLOCKS
  0
BLOCK
  8
1
  6
CONTINUOUS
 62
     1
  5
11F
  2
LDR
 70
     0
 10
0.0
 20
0.0
 30
0.0
  3
LNR
  0
POLYLINE
  8
1
  6
CONTINUOUS
 62
     1
  5
120
 66
     1
 10
0.0
 20
0.0
 30
0.0
210
0.0
220
0.0
230
1.0
  0
VERTEX
  8
1
  6
CONTINUOUS
 62
     1
  5
121
 10
-0.011987
 20
-0.001802
 30
0.0
 42
-0.265147
  0
VERTEX
  8
1
  6
CONTINUOUS
 62
     1
  5
122
 10
-0.011849
 20
-0.001604
 30
0.0
 42
-0.064653
  0
VERTEX
  8
1
  6
CONTINUOUS
 62
     1
  5
123
 10
-0.011407
 20
-0.001387
 30
0.0
 42
-0.025822
  0
VERTEX
  8
1
  6
CONTINUOUS
 62
     1
  5
124
 10
-0.010681
 20
-0.00116
 30
0.0
 42
-0.014504
  0
VERTEX
  8
1
  6
CONTINUOUS
 62
     1
  5
125
 10
-0.0097
 20
-0.000933
 30
0.0
 42
-0.009896
  0
VERTEX
  8
1
  6
CONTINUOUS
 62
     1
  5
126
 10
-0.008505
 20
-0.000715
 30
0.0
 42
-0.007708
  0
VERTEX
  8
1
  6
CONTINUOUS
 62
     1
  5
127
 10
-0.007146
 20
-0.000515
 30
0.0
 42
-0.006655
  0
VERTEX
  8
1
  6
CONTINUOUS
 62
     1
  5
128
 10
-0.005679
 20
-0.000342
 30
0.0
 42
-0.006278
  0
VERTEX
  8
1
  6
CONTINUOUS
 62
     1
  5
129
 10
-0.004164
 20
-0.000202
 30
0.0
 42
-0.006439
  0
VERTEX
  8
1
  6
CONTINUOUS
 62
     1
  5
12A
 10
-0.002666
 20
-0.000101
 30
0.0
 42
-0.007196
  0
VERTEX
  8
1
  6
CONTINUOUS
 62
     1
  5
12B
 10
-0.001246
 20
-0.000044
 30
0.0
 42
-0.008852
  0
VERTEX
  8
1
  6
CONTINUOUS
 62
     1
  5
12C
 10
0.000037
 20
-0.000034
 30
0.0
 42
-0.008852
  0
SEQEND
  8
1
  6
CONTINUOUS
 62
     1
  5
12D
  0
POLYLINE
  8
1
  6
CONTINUOUS
 62
     1
  5
12E
 66
     1
 10
0.0
 20
0.0
 30
0.0
210
0.0
220
0.0
230
1.0
  0
VERTEX
  8
1
  6
CONTINUOUS
 62
     1
  5
12F
 10
0.000039
 20
0.000014
 30
0.0
 42
-0.005019
  0
VERTEX
  8
1
  6
CONTINUOUS
 62
     1
  5
130
 10
-0.001103
 20
0.000071
 30
0.0
 42
-0.004038
  0
VERTEX
  8
1
  6
CONTINUOUS
 62
     1
  5
131
 10
-0.002373
 20
0.000158
 30
0.0
 42
-0.003548
  0
VERTEX
  8
1
  6
CONTINUOUS
 62
     1
  5
132
 10
-0.003725
 20
0.00027
 30
0.0
 42
-0.003367
  0
VERTEX
  8
1
  6
CONTINUOUS
 62
     1
  5
133
 10
-0.005111
 20
0.000405
 30
0.0
 42
-0.003436
  0
VERTEX
  8
1
  6
CONTINUOUS
 62
     1
  5
134
 10
-0.006481
 20
0.000556
 30
0.0
 42
-0.003778
  0
VERTEX
  8
1
  6
CONTINUOUS
 62
     1
  5
135
 10
-0.007786
 20
0.00072
 30
0.0
 42
-0.00451
  0
VERTEX
  8
1
  6
CONTINUOUS
 62
     1
  5
136
 10
-0.008979
 20
0.000889
 30
0.0
 42
-0.00594
  0
VERTEX
  8
1
  6
CONTINUOUS
 62
     1
  5
137
 10
-0.010018
 20
0.001058
 30
0.0
 42
-0.008921
  0
VERTEX
  8
1
  6
CONTINUOUS
 62
     1
  5
138
 10
-0.010864
 20
0.00122
 30
0.0
 42
-0.016392
  0
VERTEX
  8
1
  6
CONTINUOUS
 62
     1
  5
139
 10
-0.011488
 20
0.001371
 30
0.0
 42
-0.04458
  0
VERTEX
  8
1
  6
CONTINUOUS
 62
     1
  5
13A
 10
-0.011867
 20
0.001503
 30
0.0
 42
-0.317392
  0
VERTEX
  8
1
  6
CONTINUOUS
 62
     1
  5
13B
 10
-0.011987
 20
0.001614
 30
0.0
 42
-0.317392
  0
SEQEND
  8
1
  6
CONTINUOUS
 62
     1
  5
13C
  0
ENDBLK
  8
1
  6
CONTINUOUS
 62
     1
  5
13D
  0
ENDSEC
  0
SECTION
  2
ENTITIES
  0
LINE
  8
61
  6
CONTINUOUS
 62
     1
  5
29
 10
601.5375
 20
-605.495833
 30
0.0
 11
-37.5025
 21
-605.495833
 31
0.0
  0
LINE
  8
61
  6
CONTINUOUS
 62
     1
  5
2A
 10
-37.5025
 20
-605.495833
 30
0.0
 11
-37.5025
 21
-1025.515833
 31
0.0
  0
LINE
  8
61
  6
CONTINUOUS
 62
     1
  5
2B
 10
601.5575
 20
-1025.535833
 30
0.0
 11
-37.5025
 21
-1025.515833
 31
0.0
  0
LINE
  8
61
  6
CONTINUOUS
 62
     1
  5
2C
 10
601.5375
 20
-605.495833
 30
0.0
 11
601.5575
 21
-1025.535833
 31
0.0
  0
LINE
  8
61
  6
CONTINUOUS
 62
     1
  5
2D
 10
595.4375
 20
-610.235833
 30
0.0
 11
487.4575
 21
-610.255833
 31
0.0
  0
LINE
  8
61
  6
CONTINUOUS
 62
     1
  5
2E
 10
487.4575
 20
-610.255833
 30
0.0
 11
487.4575
 21
-630.255833
 31
0.0
  0
LINE
  8
61
  6
CONTINUOUS
 62
     1
  5
2F
 10
595.4375
 20
-610.235833
 30
0.0
 11
595.4375
 21
-630.235833
 31
0.0
  0
LINE
  8
61
  6
CONTINUOUS
 62
     1
  5
30
 10
595.4375
 20
-630.235833
 30
0.0
 11
487.4575
 21
-630.255833
 31
0.0
  0
LINE
  8
61
  6
CONTINUOUS
 62
     1
  5
31
 10
595.4575
 20
-620.275833
 30
0.0
 11
487.4375
 21
-620.255833
 31
0.0
  0
LINE
  8
61
  6
CONTINUOUS
 62
     1
  5
32
 10
497.4575
 20
-610.255833
 30
0.0
 11
497.4575
 21
-630.255833
 31
0.0
  0
LINE
  8
61
  6
CONTINUOUS
 62
     1
  5
33
 10
507.4575
 20
-610.255833
 30
0.0
 11
507.4575
 21
-630.255833
 31
0.0
  0
LINE
  8
61
  6
CONTINUOUS
 62
     1
  5
34
 10
521.1375
 20
-610.255833
 30
0.0
 11
521.1375
 21
-630.255833
 31
0.0
  0
LINE
  8
61
  6
CONTINUOUS
 62
     1
  5
35
 10
585.4375
 20
-610.235833
 30
0.0
 11
585.4375
 21
-630.235833
 31
0.0
  0
LINE
  8
61
  6
CONTINUOUS
 62
     1
  5
36
 10
575.4375
 20
-610.235833
 30
0.0
 11
575.4375
 21
-630.235833
 31
0.0
  0
LINE
  8
61
  6
CONTINUOUS
 62
     1
  5
37
 10
553.4575
 20
-610.255833
 30
0.0
 11
553.4575
 21
-630.255833
 31
0.0
  0
LINE
  8
61
  6
CONTINUOUS
 62
     1
  5
38
 10
543.4575
 20
-610.255833
 30
0.0
 11
543.4575
 21
-630.255833
 31
0.0
  0
TEXT
  8
61
  6
CONTINUOUS
 62
     1
  5
3A
 10
489.4975
 20
-613.275833
 30
0.0
 40
1.20075
  1
PUBLIC
 50
0.033272
 41
1.001804
  7
MONOTXT
210
0.0
220
0.0
230
1.0
  0
TEXT
  8
61
  6
CONTINUOUS
 62
     1
  5
3B
 10
489.5775
 20
-615.795833
 30
0.0
 40
1.20075
  1
ROADS
 50
0.124322
 41
0.996877
  7
MONOTXT
210
0.0
220
0.0
230
1.0
  0
TEXT
  8
61
  6
CONTINUOUS
 62
     1
  5
3C
 10
490.7775
 20
-618.295833
 30
0.0
 40
1.20075
  1
DIV.
 50
359.931522
 41
0.994864
  7
MONOTXT
210
0.0
220
0.0
230
1.0
  0
TEXT
  8
61
  6
CONTINUOUS
 62
     1
  5
3D
 10
499.6575
 20
-613.215833
 30
0.0
 40
1.20075
  1
STATE
 50
0.058969
 41
0.998196
  7
MONOTXT
210
0.0
220
0.0
230
1.0
  0
TEXT
  8
61
  6
CONTINUOUS
 62
     1
  5
3E
 10
500.5375
 20
-615.715833
 30
0.0
 40
1.20075
  1
DIST.
 50
0.055889
 41
0.999584
  7
MONOTXT
210
0.0
220
0.0
230
1.0
  0
TEXT
  8
61
  6
CONTINUOUS
 62
     1
  5
3F
 10
501.1175
 20
-618.235833
 30
0.0
 40
1.20075
  1
NO.
 50
359.852072
 41
0.997779
  7
MONOTXT
210
0.0
220
0.0
230
1.0
  0
TEXT
  8
61
  6
CONTINUOUS
 62
     1
  5
40
 10
511.6575
 20
-613.275833
 30
0.0
 40
1.20075
  1
STATE
 50
0.058969
 41
0.998196
  7
MONOTXT
210
0.0
220
0.0
230
1.0
  0
TEXT
  8
61
  6
CONTINUOUS
 62
     1
  5
41
 10
510.5775
 20
-615.695833
 30
0.0
 40
1.20075
  1
PROJECT
 50
359.908431
 41
1.000069
  7
MONOTXT
210
0.0
220
0.0
230
1.0
  0
TEXT
  8
61
  6
CONTINUOUS
 62
     1
  5
42
 10
513.3175
 20
-618.235833
 30
0.0
 40
1.20075
  1
NO.
 50
0.225453
 41
0.993546
  7
MONOTXT
210
0.0
220
0.0
230
1.0
  0
TEXT
  8
61
  6
CONTINUOUS
 62
     1
  5
43
 10
528.9575
 20
-614.395833
 30
0.0
 40
1.20075
  1
FEDERAL
 50
0.006714
 41
0.998543
  7
MONOTXT
210
0.0
220
0.0
230
1.0
  0
TEXT
  8
61
  6
CONTINUOUS
 62
     1
  5
44
 10
527.4175
 20
-617.055833
 30
0.0
 40
1.20075
  1
PROJECT NO.
 50
359.921531
 41
1.000694
  7
MONOTXT
210
0.0
220
0.0
230
1.0
  0
TEXT
  8
61
  6
CONTINUOUS
 62
     1
  5
45
 10
545.6975
 20
-614.455833
 30
0.0
 40
1.20075
  1
FISCAL
 50
359.941939
 41
0.998959
  7
MONOTXT
210
0.0
220
0.0
230
1.0
  0
TEXT
  8
61
  6
CONTINUOUS
 62
     1
  5
46
 10
546.2175
 20
-617.355833
 30
0.0
 40
1.20075
  1
YEAR
 50
0.104606
 41
0.993268
  7
MONOTXT
210
0.0
220
0.0
230
1.0
  0
TEXT
  8
61
  6
CONTINUOUS
 62
     1
  5
47
 10
560.3175
 20
-615.995833
 30
0.0
 40
1.20075
  1
COUNTY
 50
0.068575
 41
1.001874
  7
MONOTXT
210
0.0
220
0.0
230
1.0
  0
TEXT
  8
61
  6
CONTINUOUS
 62
     1
  5
48
 10
577.9575
 20
-614.335833
 30
0.0
 40
1.20075
  1
SHEET
 50
0.058969
 41
0.997571
  7
MONOTXT
210
0.0
220
0.0
230
1.0
  0
TEXT
  8
61
  6
CONTINUOUS
 62
     1
  5
49
 10
579.3775
 20
-617.055833
 30
0.0
 40
1.20075
  1
NO.
 50
359.852072
 41
0.997779
  7
MONOTXT
210
0.0
220
0.0
230
1.0
  0
TEXT
  8
61
  6
CONTINUOUS
 62
     1
  5
4A
 10
587.6975
 20
-614.475833
 30
0.0
 40
1.20075
  1
TOTAL
 50
359.926039
 41
0.998543
  7
MONOTXT
210
0.0
220
0.0
230
1.0
  0
TEXT
  8
61
  6
CONTINUOUS
 62
     1
  5
4B
 10
587.2375
 20
-617.175833
 30
0.0
 40
1.20075
  1
SHEETS
 50
359.958675
  7
MONOTXT
210
0.0
220
0.0
230
1.0
  0
TEXT
  8
61
  6
CONTINUOUS
 62
     1
  5
4C
 10
500.0575
 20
-626.055833
 30
0.0
 40
2.401333
  1
  
 50
0.029406
 41
0.996495
  7
MONOTXT
210
0.0
220
0.0
230
1.0
  0
TEXT
  8
61
  6
CONTINUOUS
 62
     1
  5
4D
 10
577.2375
 20
-626.335833
 30
0.0
 40
2.401333
  1
   
 50
0.011508
 41
1.001006
  7
MONOTXT
210
0.0
220
0.0
230
1.0
  0
TEXT
  8
61
  6
CONTINUOUS
 62
     1
  5
4E
 10
587.1175
 20
-626.355833
 30
0.0
 40
2.401333
  1
   
 50
359.922128
 41
1.000555
  7
MONOTXT
210
0.0
220
0.0
230
1.0
  0
TEXT
  8
61
  6
CONTINUOUS
 62
     1
  5
4F
 10
510.4975
 20
-622.955833
 30
0.0
 40
2.00675
  1
    
 50
0.054383
 41
0.993729
  7
MONOTXT
210
0.0
220
0.0
230
1.0
  0
TEXT
  8
61
  6
CONTINUOUS
 62
     1
  5
50
 10
507.5775
 20
-625.975833
 30
0.0
 40
1.989583
  1
       
 50
0.064678
 41
1.000963
  7
MONOTXT
210
0.0
220
0.0
230
1.0
  0
TEXT
  8
61
  6
CONTINUOUS
 62
     1
  5
51
 10
508.5375
 20
-628.875833
 30
0.0
 40
1.989583
  1
      
 50
359.958053
 41
1.000293
  7
MONOTXT
210
0.0
220
0.0
230
1.0
  0
TEXT
  8
61
  6
CONTINUOUS
 62
     1
  5
52
 10
519.4975
 20
-624.235833
 30
0.0
 40
2.401333
  1
           
 50
0.011508
 41
0.998751
  7
MONOTXT
210
0.0
220
0.0
230
1.0
  0
TEXT
  8
61
  6
CONTINUOUS
 62
     1
  5
53
 10
519.3775
 20
-627.895833
 30
0.0
 40
2.401333
  1
           
 50
0.011508
 41
0.999584
  7
MONOTXT
210
0.0
220
0.0
230
1.0
  0
TEXT
  8
61
  6
CONTINUOUS
 62
     1
  5
54
 10
554.7175
 20
-626.155833
 30
0.0
 40
2.00675
  1
          
 50
0.009222
 41
0.992774
  7
MONOTXT
210
0.0
220
0.0
230
1.0
  0
ARC
  8
61
  6
CONTINUOUS
 62
     1
  5
55
 10
-55.804743
 20
-694.254538
 30
0.0
 40
2.499998
 50
323.130094
 51
316.232156
210
0.0
220
0.0
230
1.0
  0
ARC
  8
61
  6
CONTINUOUS
 62
     1
  5
56
 10
-55.804743
 20
-749.254538
 30
0.0
 40
2.499998
 50
323.130094
 51
315.375767
210
0.0
220
0.0
230
1.0
  0
ARC
  8
61
  6
CONTINUOUS
 62
     1
  5
57
 10
-56.084743
 20
-897.694538
 30
0.0
 40
2.499998
 50
322.671753
 51
321.716147
210
0.0
220
0.0
230
1.0
  0
ARC
  8
61
  6
CONTINUOUS
 62
     1
  5
58
 10
-56.084743
 20
-952.694538
 30
0.0
 40
2.499998
 50
323.130094
 51
312.314392
210
0.0
220
0.0
230
1.0
  0
LINE
  8
61
  6
CONTINUOUS
 62
     1
  5
59
 10
-53.7825
 20
-694.255833
 30
0.0
 11
-45.8025
 21
-694.235833
 31
0.0
  0
LINE
  8
61
  6
CONTINUOUS
 62
     1
  5
5A
 10
-53.8025
 20
-749.255833
 30
0.0
 11
-45.8025
 21
-749.255833
 31
0.0
  0
LINE
  8
61
  6
CONTINUOUS
 62
     1
  5
5B
 10
-54.0825
 20
-897.675833
 30
0.0
 11
-46.0825
 21
-897.675833
 31
0.0
  0
LINE
  8
61
  6
CONTINUOUS
 62
     1
  5
5C
 10
-54.0625
 20
-952.695833
 30
0.0
 11
-46.0825
 21
-952.695833
 31
0.0
  0
LINE
  8
61
  6
DASHED
 62
     1
  5
5D
 10
-67.5025
 20
-595.495833
 30
0.0
 11
612.5175
 21
-595.495833
 31
0.0
  0
LINE
  8
61
  6
DASHED
 62
     1
  5
5E
 10
612.4975
 20
-1035.515833
 30
0.0
 11
-67.5625
 21
-1035.535833
 31
0.0
  0
TEXT
  8
61
  6
CONTINUOUS
 62
     1
  5
5F
 10
574.9775
 20
-638.075833
 30
0.0
 40
2.401333
  1
     
 41
1.001388
  7
MONOTXT
210
0.0
220
0.0
230
1.0
  0
LINE
  8
1
  6
HIDDEN
 62
     1
  5
61
 10
612.5175
 20
-595.495833
 30
0.0
 11
612.4975
 21
-1035.515833
 31
0.0
  0
LINE
  8
1
  6
HIDDEN
 62
     1
  5
62
 10
-67.5025
 20
-595.495833
 30
0.0
 11
-67.5625
 21
-1035.535833
 31
0.0
  0
TEXT
  8
1
  6
CONTINUOUS
 62
     1
  5
64
 10
567.2775
 20
-1028.035833
 30
0.0
 40
1.2
  1
TRAFFIC ENGINEERING DIVISION
  7
txt
210
0.0
220
0.0
230
1.0
  0
LINE
  8
1
  6
CONTINUOUS
 62
     1
  5
65
 10
429.8975
 20
-1025.535833
 30
0.0
 11
429.8975
 21
-933.955833
 31
0.0
  0
LINE
  8
1
  6
CONTINUOUS
 62
     1
  5
66
 10
429.8975
 20
-933.955833
 30
0.0
 11
601.5575
 21
-933.955833
 31
0.0
  0
LINE
  8
1
  6
CONTINUOUS
 62
     1
  5
67
 10
464.8975
 20
-1025.575833
 30
0.0
 11
464.8975
 21
-980.615833
 31
0.0
  0
LINE
  8
1
  6
CONTINUOUS
 62
     1
  5
68
 10
464.8975
 20
-980.615833
 30
0.0
 11
429.9175
 21
-980.615833
 31
0.0
  0
LINE
  8
1
  6
CONTINUOUS
 62
     1
  5
69
 10
464.8975
 20
-985.095833
 30
0.0
 11
429.9175
 21
-985.095833
 31
0.0
  0
LINE
  8
1
  6
CONTINUOUS
 62
     1
  5
6A
 10
464.8975
 20
-989.595833
 30
0.0
 11
429.9175
 21
-989.595833
 31
0.0
  0
LINE
  8
1
  6
CONTINUOUS
 62
     1
  5
6B
 10
464.8975
 20
-994.095833
 30
0.0
 11
429.9175
 21
-994.095833
 31
0.0
  0
LINE
  8
1
  6
CONTINUOUS
 62
     1
  5
6C
 10
464.8975
 20
-998.615833
 30
0.0
 11
429.9175
 21
-998.615833
 31
0.0
  0
LINE
  8
1
  6
CONTINUOUS
 62
     1
  5
6D
 10
464.8975
 20
-1003.095833
 30
0.0
 11
429.9175
 21
-1003.095833
 31
0.0
  0
LINE
  8
1
  6
CONTINUOUS
 62
     1
  5
6E
 10
464.8975
 20
-1007.575833
 30
0.0
 11
429.9175
 21
-1007.575833
 31
0.0
  0
LINE
  8
1
  6
CONTINUOUS
 62
     1
  5
6F
 10
464.8975
 20
-1012.075833
 30
0.0
 11
429.9175
 21
-1012.075833
 31
0.0
  0
LINE
  8
1
  6
CONTINUOUS
 62
     1
  5
70
 10
464.8975
 20
-1016.575833
 30
0.0
 11
429.9175
 21
-1016.575833
 31
0.0
  0
LINE
  8
1
  6
CONTINUOUS
 62
     1
  5
71
 10
464.8975
 20
-1021.095833
 30
0.0
 11
429.9175
 21
-1021.095833
 31
0.0
  0
TEXT
  8
1
  6
CONTINUOUS
 62
     1
  5
72
 10
440.1775
 20
-983.615833
 30
0.0
 40
1.99775
  1
REVISIONS
  7
MONOTXT
210
0.0
220
0.0
230
1.0
  0
TEXT
  8
1
  6
CONTINUOUS
 62
     1
  5
73
 10
431.8575
 20
-979.615833
 30
0.0
 40
1.99775
  1
PREPARED: 10/01/69
  7
MONOTXT
210
0.0
220
0.0
230
1.0
  0
TEXT
  8
1
  6
CONTINUOUS
 62
     1
  5
75
 10
462.5175
 20
-942.555833
 30
0.0
 40
4.794833
  1
WEST VIRGINIA DIVISION OF HIGHWAYS
  7
ROMANT
 72
     1
 11
516.48775
 21
-937.761
 31
0.0
210
0.0
220
0.0
230
1.0
 73
     3
  0
TEXT
  8
1
  6
CONTINUOUS
 62
     1
  5
76
 10
473.2775
 20
-953.715833
 30
0.0
 40
6.992667
  1
STANDARD DETAIL
  7
txt
 72
     1
 11
517.767583
 21
-946.723167
 31
0.0
210
0.0
220
0.0
230
1.0
 73
     3
  0
TEXT
  8
1
  6
CONTINUOUS
 62
     1
  5
77
 10
468.7375
 20
-1021.495833
 30
0.0
 40
6.992667
  1
STANDARD SHEET TP1-1 
  7
txt
210
0.0
220
0.0
230
1.0
  0
TEXT
  8
1
  6
CONTINUOUS
 62
     1
  5
78
 10
440.016417
 20
-988.675833
 30
0.0
 40
2.0
  1
05-01-70
  7
MONOTXT
 72
     1
 11
446.866917
 21
-986.675833
 31
0.0
210
0.0
220
0.0
230
1.0
 73
     3
  0
TEXT
  8
1
  6
CONTINUOUS
 62
     1
  5
79
 10
439.996417
 20
-993.075833
 30
0.0
 40
2.0
  1
12-00-73
  7
MONOTXT
 72
     1
 11
446.85475
 21
-991.075833
 31
0.0
210
0.0
220
0.0
230
1.0
 73
     3
  0
TEXT
  8
1
  6
CONTINUOUS
 62
     1
  5
7A
 10
440.110917
 20
-997.475833
 30
0.0
 40
2.0
  1
06-01-76
  7
MONOTXT
 72
     1
 11
446.87475
 21
-995.475833
 31
0.0
210
0.0
220
0.0
230
1.0
 73
     3
  0
TEXT
  8
1
  6
CONTINUOUS
 62
     1
  5
7B
 10
440.126667
 20
-1001.875833
 30
0.0
 40
2.0
  1
09-13-93
  7
MONOTXT
 72
     1
 11
446.874833
 21
-999.875833
 31
0.0
210
0.0
220
0.0
230
1.0
 73
     3
  0
TEXT
  8
1
  6
CONTINUOUS
 62
     1
  5
7C
 10
439.0375
 20
-1006.475833
 30
0.0
 40
2.0
  1
        
  7
MONOTXT
 72
     1
 11
446.704333
 21
-1004.475833
 31
0.0
210
0.0
220
0.0
230
1.0
 73
     3
  0
TEXT
  8
1
  6
CONTINUOUS
 62
     1
  5
7D
 10
439.1975
 20
-1010.955833
 30
0.0
 40
2.0
  1
        
  7
MONOTXT
 72
     1
 11
446.864333
 21
-1008.955833
 31
0.0
210
0.0
220
0.0
230
1.0
 73
     3
  0
TEXT
  8
1
  6
CONTINUOUS
 62
     1
  5
7E
 10
439.0975
 20
-1015.555833
 30
0.0
 40
2.0
  1
        
  7
MONOTXT
 72
     1
 11
446.764333
 21
-1013.555833
 31
0.0
210
0.0
220
0.0
230
1.0
 73
     3
  0
TEXT
  8
1
  6
CONTINUOUS
 62
     1
  5
7F
 10
439.1975
 20
-1020.135833
 30
0.0
 40
2.0
  1
        
  7
MONOTXT
 72
     1
 11
446.864333
 21
-1018.135833
 31
0.0
210
0.0
220
0.0
230
1.0
 73
     3
  0
TEXT
  8
1
  6
CONTINUOUS
 62
     1
  5
80
 10
439.1975
 20
-1024.155833
 30
0.0
 40
2.0
  1
        
  7
MONOTXT
 72
     1
 11
446.864333
 21
-1022.155833
 31
0.0
210
0.0
220
0.0
230
1.0
 73
     3
  0
TEXT
  8
1
  6
CONTINUOUS
 62
     1
  5
81
 10
482.0175
 20
-1027.935833
 30
0.0
 40
1.2
  1
CATALOG:dt standa  FILENAME:tp11.dgn     DATE:03/15/93
  7
MONOTXT
210
0.0
220
0.0
230
1.0
  0
TEXT
  8
1
  6
CONTINUOUS
 62
     1
  5
82
 10
437.828917
 20
-963.40775
 30
0.0
 40
6.992667
  1
PUNCHING AND MOUNTING FOR
  7
txt
 72
     1
 11
517.76775
 21
-956.415083
 31
0.0
210
0.0
220
0.0
230
1.0
 73
     3
  0
TEXT
  8
1
  6
CONTINUOUS
 62
     1
  5
83
 10
466.748583
 20
-973.27275
 30
0.0
 40
6.992667
  1
R1-1 AND R1-2 SIGNS
  7
txt
 72
     1
 11
517.59475
 21
-966.280083
 31
0.0
210
0.0
220
0.0
230
1.0
 73
     3
  0
POLYLINE
  8
1
  6
CONTINUOUS
 62
     7
  5
84
 66
     1
 10
0.0
 20
0.0
 30
0.0
  0
VERTEX
  8
1
  6
CONTINUOUS
 62
     7
  5
85
 10
432.492167
 20
-927.75425
 30
0.0
  0
VERTEX
  8
1
  6
CONTINUOUS
 62
     7
  5
86
 10
430.492167
 20
-931.218333
 30
0.0
  0
VERTEX
  8
1
  6
CONTINUOUS
 62
     7
  5
87
 10
434.492167
 20
-931.218333
 30
0.0
  0
VERTEX
  8
1
  6
CONTINUOUS
 62
     7
  5
88
 10
432.492167
 20
-927.75425
 30
0.0
  0
SEQEND
  8
1
  6
CONTINUOUS
 62
     7
  5
89
  0
POLYLINE
  8
1
  6
CONTINUOUS
 62
     7
  5
8A
 66
     1
 10
0.0
 20
0.0
 30
0.0
  0
VERTEX
  8
1
  6
CONTINUOUS
 62
     7
  5
8B
 10
435.569333
 20
-985.572083
 30
0.0
  0
VERTEX
  8
1
  6
CONTINUOUS
 62
     7
  5
8C
 10
433.569333
 20
-989.036167
 30
0.0
  0
VERTEX
  8
1
  6
CONTINUOUS
 62
     7
  5
8D
 10
437.569333
 20
-989.036167
 30
0.0
  0
VERTEX
  8
1
  6
CONTINUOUS
 62
     7
  5
8E
 10
435.569333
 20
-985.572083
 30
0.0
  0
SEQEND
  8
1
  6
CONTINUOUS
 62
     7
  5
8F
  0
POLYLINE
  8
1
  6
CONTINUOUS
 62
     7
  5
90
 66
     1
 10
0.0
 20
0.0
 30
0.0
  0
VERTEX
  8
1
  6
CONTINUOUS
 62
     7
  5
91
 10
435.606417
 20
-990.05925
 30
0.0
  0
VERTEX
  8
1
  6
CONTINUOUS
 62
     7
  5
92
 10
433.606417
 20
-993.523333
 30
0.0
  0
VERTEX
  8
1
  6
CONTINUOUS
 62
     7
  5
93
 10
437.606417
 20
-993.523333
 30
0.0
  0
VERTEX
  8
1
  6
CONTINUOUS
 62
     7
  5
94
 10
435.606417
 20
-990.05925
 30
0.0
  0
SEQEND
  8
1
  6
CONTINUOUS
 62
     7
  5
95
  0
TEXT
  8
1
  6
CONTINUOUS
 62
     7
  5
96
 10
431.937667
 20
-930.598
 30
0.0
 40
1.5
  1
3
  7
MONOTXT
210
0.0
220
0.0
230
1.0
  0
TEXT
  8
1
  6
CONTINUOUS
 62
     7
  5
97
 10
435.261083
 20
-988.414
 30
0.0
 40
1.5
  1
1
  7
MONOTXT
210
0.0
220
0.0
230
1.0
  0
TEXT
  8
1
  6
CONTINUOUS
 62
     7
  5
98
 10
435.112583
 20
-992.945
 30
0.0
 40
1.5
  1
2
  7
MONOTXT
210
0.0
220
0.0
230
1.0
  0
POLYLINE
  8
1
  6
CONTINUOUS
 62
   212
  5
99
 66
     1
 10
0.0
 20
0.0
 30
0.0
 70
     1
  0
VERTEX
  8
1
  6
CONTINUOUS
 62
   212
  5
9A
 10
80.578833
 20
-697.977333
 30
0.0
  0
VERTEX
  8
1
  6
CONTINUOUS
 62
   212
  5
9B
 10
80.578833
 20
-673.1245
 30
0.0
  0
VERTEX
  8
1
  6
CONTINUOUS
 62
   212
  5
9C
 10
63.00525
 20
-655.550917
 30
0.0
  0
VERTEX
  8
1
  6
CONTINUOUS
 62
   212
  5
9D
 10
38.152417
 20
-655.550917
 30
0.0
  0
VERTEX
  8
1
  6
CONTINUOUS
 62
   212
  5
9E
 10
20.578833
 20
-673.1245
 30
0.0
  0
VERTEX
  8
1
  6
CONTINUOUS
 62
   212
  5
9F
 10
20.578833
 20
-697.977333
 30
0.0
  0
VERTEX
  8
1
  6
CONTINUOUS
 62
   212
  5
A0
 10
38.152417
 20
-715.550917
 30
0.0
  0
VERTEX
  8
1
  6
CONTINUOUS
 62
   212
  5
A1
 10
63.00525
 20
-715.550917
 30
0.0
  0
SEQEND
  8
1
  6
CONTINUOUS
 62
   212
  5
A2
  0
CIRCLE
  8
1
  6
CONTINUOUS
 62
   212
  5
A3
 10
50.578833
 20
-662.550917
 30
0.0
 40
0.75
210
0.0
220
0.0
230
1.0
  0
CIRCLE
  8
1
  6
CONTINUOUS
 62
   212
  5
A4
 10
50.578833
 20
-708.550917
 30
0.0
 40
0.75
210
0.0
220
0.0
230
1.0
  0
LINE
  8
1
  6
CONTINUOUS
 62
     7
  5
A5
 10
48.828833
 20
-662.550917
 30
0.0
 11
52.328833
 21
-662.550917
 31
0.0
  0
LINE
  8
1
  6
CONTINUOUS
 62
     7
  5
A6
 10
54.328833
 20
-662.550917
 30
0.0
 11
90.00525
 21
-662.550917
 31
0.0
  0
LINE
  8
1
  6
CONTINUOUS
 62
     7
  5
A7
 10
46.828833
 20
-662.550917
 30
0.0
 11
40.828833
 21
-662.550917
 31
0.0
  0
LINE
  8
1
  6
CONTINUOUS
 62
     7
  5
A8
 10
40.828833
 20
-708.550917
 30
0.0
 11
46.828833
 21
-708.550917
 31
0.0
  0
LINE
  8
1
  6
CONTINUOUS
 62
     7
  5
A9
 10
48.828833
 20
-708.550917
 30
0.0
 11
52.328833
 21
-708.550917
 31
0.0
  0
LINE
  8
1
  6
CONTINUOUS
 62
     7
  5
AA
 10
54.328833
 20
-708.550917
 30
0.0
 11
90.00525
 21
-708.550917
 31
0.0
  0
LINE
  8
1
  6
CONTINUOUS
 62
     7
  5
AB
 10
50.578833
 20
-645.550917
 30
0.0
 11
50.578833
 21
-668.502833
 31
0.0
  0
LINE
  8
1
  6
CONTINUOUS
 62
     7
  5
AC
 10
40.578833
 20
-685.550917
 30
0.0
 11
60.578833
 21
-685.550917
 31
0.0
  0
LINE
  8
1
  6
CONTINUOUS
 62
     7
  5
AD
 10
50.578833
 20
-680.550917
 30
0.0
 11
50.578833
 21
-690.550917
 31
0.0
  0
LINE
  8
1
  6
CONTINUOUS
 62
     7
  5
AE
 10
50.578833
 20
-697.964333
 30
0.0
 11
50.578833
 21
-715.550917
 31
0.0
  0
LINE
  8
1
  6
CONTINUOUS
 62
     7
  5
AF
 10
90.00525
 20
-685.550917
 30
0.0
 11
70.578833
 21
-685.550917
 31
0.0
  0
LINE
  8
1
  6
CONTINUOUS
 62
     7
  5
B0
 10
63.578833
 20
-685.550917
 30
0.0
 11
67.578833
 21
-685.550917
 31
0.0
  0
LINE
  8
1
  6
CONTINUOUS
 62
     7
  5
B1
 10
10.578833
 20
-685.550917
 30
0.0
 11
30.578833
 21
-685.550917
 31
0.0
  0
LINE
  8
1
  6
CONTINUOUS
 62
     7
  5
B2
 10
33.578833
 20
-685.550917
 30
0.0
 11
37.578833
 21
-685.550917
 31
0.0
  0
LINE
  8
1
  6
CONTINUOUS
 62
     7
  5
B3
 10
89.00525
 20
-662.550917
 30
0.0
 11
89.00525
 21
-685.550917
 31
0.0
  0
LINE
  8
1
  6
CONTINUOUS
 62
     7
  5
B4
 10
89.00525
 20
-685.550917
 30
0.0
 11
89.00525
 21
-708.550917
 31
0.0
  0
LINE
  8
1
  6
CONTINUOUS
 62
     7
  5
B5
 10
20.578833
 20
-699.977333
 30
0.0
 11
20.578833
 21
-725.977333
 31
0.0
  0
POLYLINE
  8
1
  6
CONTINUOUS
 62
   212
  5
B6
 66
     1
 10
0.0
 20
0.0
 30
0.0
 70
     1
  0
VERTEX
  8
1
  6
CONTINUOUS
 62
   212
  5
B7
 10
80.578833
 20
-786.977333
 30
0.0
  0
VERTEX
  8
1
  6
CONTINUOUS
 62
   212
  5
B8
 10
80.578833
 20
-762.1245
 30
0.0
  0
VERTEX
  8
1
  6
CONTINUOUS
 62
   212
  5
B9
 10
63.00525
 20
-744.550917
 30
0.0
  0
VERTEX
  8
1
  6
CONTINUOUS
 62
   212
  5
BA
 10
38.152417
 20
-744.550917
 30
0.0
  0
VERTEX
  8
1
  6
CONTINUOUS
 62
   212
  5
BB
 10
20.578833
 20
-762.1245
 30
0.0
  0
VERTEX
  8
1
  6
CONTINUOUS
 62
   212
  5
BC
 10
20.578833
 20
-786.977333
 30
0.0
  0
VERTEX
  8
1
  6
CONTINUOUS
 62
   212
  5
BD
 10
38.152417
 20
-804.550917
 30
0.0
  0
VERTEX
  8
1
  6
CONTINUOUS
 62
   212
  5
BE
 10
63.00525
 20
-804.550917
 30
0.0
  0
SEQEND
  8
1
  6
CONTINUOUS
 62
   212
  5
BF
  0
LINE
  8
1
  6
CONTINUOUS
 62
     7
  5
C0
 10
20.578833
 20
-724.977333
 30
0.0
 11
50.578833
 21
-724.977333
 31
0.0
  0
LINE
  8
1
  6
CONTINUOUS
 62
     7
  5
C1
 10
50.578833
 20
-734.087333
 30
0.0
 11
50.578833
 21
-730.087333
 31
0.0
  0
LINE
  8
1
  6
CONTINUOUS
 62
     7
  5
C2
 10
50.578833
 20
-715.550917
 30
0.0
 11
50.578833
 21
-727.979167
 31
0.0
  0
LINE
  8
1
  6
CONTINUOUS
 62
     7
  5
C3
 10
10.578833
 20
-774.550917
 30
0.0
 11
30.578833
 21
-774.550917
 31
0.0
  0
LINE
  8
1
  6
CONTINUOUS
 62
     7
  5
C4
 10
33.578833
 20
-774.550917
 30
0.0
 11
37.578833
 21
-774.550917
 31
0.0
  0
LINE
  8
1
  6
CONTINUOUS
 62
     7
  5
C5
 10
40.578833
 20
-774.550917
 30
0.0
 11
60.578833
 21
-774.550917
 31
0.0
  0
LINE
  8
1
  6
CONTINUOUS
 62
     7
  5
C6
 10
63.578833
 20
-774.550917
 30
0.0
 11
67.578833
 21
-774.550917
 31
0.0
  0
LINE
  8
1
  6
CONTINUOUS
 62
     7
  5
C7
 10
70.578833
 20
-774.550917
 30
0.0
 11
85.578833
 21
-774.550917
 31
0.0
  0
LINE
  8
1
  6
CONTINUOUS
 62
     7
  5
C8
 10
88.578833
 20
-774.550917
 30
0.0
 11
92.578833
 21
-774.550917
 31
0.0
  0
LINE
  8
1
  6
CONTINUOUS
 62
     7
  5
C9
 10
95.578833
 20
-774.550917
 30
0.0
 11
115.578833
 21
-774.550917
 31
0.0
  0
LINE
  8
1
  6
CONTINUOUS
 62
     7
  5
CA
 10
50.578833
 20
-766.550917
 30
0.0
 11
50.578833
 21
-762.550917
 31
0.0
  0
LINE
  8
1
  6
CONTINUOUS
 62
     7
  5
CB
 10
50.578833
 20
-769.550917
 30
0.0
 11
50.578833
 21
-804.550917
 31
0.0
  0
CIRCLE
  8
1
  6
CONTINUOUS
 62
   212
  5
CC
 10
50.578833
 20
-751.550917
 30
0.0
 40
0.75
210
0.0
220
0.0
230
1.0
  0
CIRCLE
  8
1
  6
CONTINUOUS
 62
   212
  5
CD
 10
50.578833
 20
-797.550917
 30
0.0
 40
0.75
210
0.0
220
0.0
230
1.0
  0
LINE
  8
1
  6
CONTINUOUS
 62
     7
  5
CE
 10
48.828833
 20
-797.550917
 30
0.0
 11
52.328833
 21
-797.550917
 31
0.0
  0
LINE
  8
1
  6
CONTINUOUS
 62
     7
  5
CF
 10
50.578833
 20
-736.087333
 30
0.0
 11
50.578833
 21
-744.550917
 31
0.0
  0
LINE
  8
1
  6
CONTINUOUS
 62
     7
  5
D0
 10
50.578833
 20
-744.550917
 30
0.0
 11
50.578833
 21
-759.550917
 31
0.0
  0
LINE
  8
1
  6
CONTINUOUS
 62
     7
  5
D1
 10
48.892917
 20
-751.376083
 30
0.0
 11
52.392917
 21
-751.376083
 31
0.0
  0
LINE
  8
1
  6
CONTINUOUS
 62
     7
  5
D2
 10
45.892917
 20
-751.376083
 30
0.0
 11
40.892917
 21
-751.376083
 31
0.0
  0
LINE
  8
1
  6
CONTINUOUS
 62
     7
  5
D3
 10
45.828833
 20
-797.550917
 30
0.0
 11
40.828833
 21
-797.550917
 31
0.0
  0
LINE
  8
1
  6
DASHED
 62
   212
  5
D4
 10
47.642917
 20
-748.376083
 30
0.0
 11
53.642917
 21
-748.376083
 31
0.0
  0
LINE
  8
1
  6
DASHED
 62
   212
  5
D5
 10
47.642917
 20
-748.376083
 30
0.0
 11
47.642917
 21
-804.550917
 31
0.0
  0
LINE
  8
1
  6
DASHED
 62
   212
  5
D6
 10
53.642917
 20
-748.376083
 30
0.0
 11
53.642917
 21
-804.550917
 31
0.0
  0
LINE
  8
1
  6
DASHED
 62
   212
  5
D7
 10
49.142917
 20
-748.376083
 30
0.0
 11
49.142917
 21
-804.550917
 31
0.0
  0
LINE
  8
1
  6
DASHED
 62
   212
  5
D8
 10
52.142917
 20
-748.376083
 30
0.0
 11
52.142917
 21
-804.550917
 31
0.0
  0
LINE
  8
1
  6
CONTINUOUS
 62
   212
  5
D9
 10
47.642917
 20
-804.550917
 30
0.0
 11
47.642917
 21
-818.550917
 31
0.0
  0
LINE
  8
1
  6
CONTINUOUS
 62
   212
  5
DA
 10
49.142917
 20
-804.550917
 30
0.0
 11
49.142917
 21
-818.550917
 31
0.0
  0
LINE
  8
1
  6
CONTINUOUS
 62
   212
  5
DB
 10
52.142917
 20
-804.550917
 30
0.0
 11
52.142917
 21
-818.550917
 31
0.0
  0
LINE
  8
1
  6
CONTINUOUS
 62
   212
  5
DC
 10
53.642917
 20
-804.550917
 30
0.0
 11
53.642917
 21
-818.550917
 31
0.0
  0
LINE
  8
1
  6
CONTINUOUS
 62
   212
  5
DD
 10
20.578833
 20
-831.550917
 30
0.0
 11
80.578833
 21
-831.550917
 31
0.0
  0
LINE
  8
1
  6
CONTINUOUS
 62
   212
  5
DE
 10
20.578833
 20
-832.550917
 30
0.0
 11
80.578833
 21
-832.550917
 31
0.0
  0
LINE
  8
1
  6
CONTINUOUS
 62
   212
  5
DF
 10
20.578833
 20
-831.550917
 30
0.0
 11
20.578833
 21
-832.550917
 31
0.0
  0
LINE
  8
1
  6
CONTINUOUS
 62
   212
  5
E0
 10
80.578833
 20
-831.550917
 30
0.0
 11
80.578833
 21
-832.550917
 31
0.0
  0
LINE
  8
1
  6
CONTINUOUS
 62
     7
  5
E1
 10
50.578833
 20
-804.550917
 30
0.0
 11
50.578833
 21
-818.550917
 31
0.0
  0
LINE
  8
1
  6
CONTINUOUS
 62
     7
  5
E2
 10
50.578833
 20
-823.050917
 30
0.0
 11
50.578833
 21
-838.550917
 31
0.0
  0
LINE
  8
1
  6
CONTINUOUS
 62
   212
  5
E3
 10
47.578833
 20
-830.550917
 30
0.0
 11
47.578833
 21
-831.550917
 31
0.0
  0
LINE
  8
1
  6
CONTINUOUS
 62
   212
  5
E4
 10
53.578833
 20
-830.550917
 30
0.0
 11
53.578833
 21
-831.550917
 31
0.0
  0
LINE
  8
1
  6
CONTINUOUS
 62
   212
  5
E5
 10
47.578833
 20
-830.550917
 30
0.0
 11
48.828833
 21
-830.550917
 31
0.0
  0
LINE
  8
1
  6
CONTINUOUS
 62
   212
  5
E6
 10
53.578833
 20
-830.550917
 30
0.0
 11
52.328833
 21
-830.550917
 31
0.0
  0
LINE
  8
1
  6
CONTINUOUS
 62
   212
  5
E7
 10
49.078833
 20
-827.550917
 30
0.0
 11
52.078833
 21
-827.550917
 31
0.0
  0
LINE
  8
1
  6
CONTINUOUS
 62
   212
  5
E8
 10
49.078833
 20
-827.550917
 30
0.0
 11
48.828833
 21
-830.550917
 31
0.0
  0
LINE
  8
1
  6
CONTINUOUS
 62
   212
  5
E9
 10
52.078833
 20
-827.550917
 30
0.0
 11
52.328833
 21
-830.550917
 31
0.0
  0
LINE
  8
1
  6
CONTINUOUS
 62
   212
  5
EA
 10
49.768833
 20
-828.300917
 30
0.0
 11
51.388667
 21
-828.300917
 31
0.0
  0
LINE
  8
1
  6
CONTINUOUS
 62
   212
  5
EB
 10
49.768833
 20
-828.300917
 30
0.0
 11
49.498
 21
-831.550917
 31
0.0
  0
LINE
  8
1
  6
CONTINUOUS
 62
   212
  5
EC
 10
51.388667
 20
-828.300917
 30
0.0
 11
51.6595
 21
-831.550917
 31
0.0
  0
LINE
  8
1
  6
CONTINUOUS
 62
   212
  5
ED
 10
49.602167
 20
-833.300917
 30
0.0
 11
51.555333
 21
-833.300917
 31
0.0
  0
LINE
  8
1
  6
CONTINUOUS
 62
   212
  5
EE
 10
49.602167
 20
-833.300917
 30
0.0
 11
49.602167
 21
-832.550917
 31
0.0
  0
LINE
  8
1
  6
CONTINUOUS
 62
   212
  5
EF
 10
51.555333
 20
-833.300917
 30
0.0
 11
51.555333
 21
-832.550917
 31
0.0
  0
LINE
  8
1
  6
CONTINUOUS
 62
   212
  5
F0
 10
49.602167
 20
-826.785917
 30
0.0
 11
51.555333
 21
-826.785917
 31
0.0
  0
LINE
  8
1
  6
CONTINUOUS
 62
   212
  5
F1
 10
49.602167
 20
-826.785917
 30
0.0
 11
49.602167
 21
-827.535917
 31
0.0
  0
LINE
  8
1
  6
CONTINUOUS
 62
   212
  5
F2
 10
51.555333
 20
-826.785917
 30
0.0
 11
51.555333
 21
-827.535917
 31
0.0
  0
LINE
  8
1
  6
CONTINUOUS
 62
   212
  5
F3
 10
50.102167
 20
-825.785917
 30
0.0
 11
50.102167
 21
-826.785917
 31
0.0
  0
LINE
  8
1
  6
CONTINUOUS
 62
   212
  5
F4
 10
51.055333
 20
-825.785917
 30
0.0
 11
51.055333
 21
-826.785917
 31
0.0
  0
LINE
  8
1
  6
CONTINUOUS
 62
   212
  5
F5
 10
50.102167
 20
-825.785917
 30
0.0
 11
51.055333
 21
-825.785917
 31
0.0
  0
LINE
  8
1
  6
CONTINUOUS
 62
   212
  5
F6
 10
50.102167
 20
-828.300917
 30
0.0
 11
50.102167
 21
-831.550917
 31
0.0
  0
LINE
  8
1
  6
CONTINUOUS
 62
   212
  5
F7
 10
51.055333
 20
-828.300917
 30
0.0
 11
51.055333
 21
-831.550917
 31
0.0
  0
LINE
  8
1
  6
CONTINUOUS
 62
   212
  5
F8
 10
97.578833
 20
-803.550917
 30
0.0
 11
97.578833
 21
-744.550917
 31
0.0
  0
LINE
  8
1
  6
CONTINUOUS
 62
   212
  5
F9
 10
98.578833
 20
-814.550917
 30
0.0
 11
98.578833
 21
-744.550917
 31
0.0
  0
LINE
  8
1
  6
CONTINUOUS
 62
   212
  5
FA
 10
97.578833
 20
-744.550917
 30
0.0
 11
98.578833
 21
-744.550917
 31
0.0
  0
LINE
  8
1
  6
CONTINUOUS
 62
   212
  5
FB
 10
99.578833
 20
-814.550917
 30
0.0
 11
99.578833
 21
-749.550917
 31
0.0
  0
LINE
  8
1
  6
CONTINUOUS
 62
   212
  5
FC
 10
101.578833
 20
-814.550917
 30
0.0
 11
101.578833
 21
-749.550917
 31
0.0
  0
LINE
  8
1
  6
HIDDEN
 62
   212
  5
FD
 10
101.078833
 20
-814.550917
 30
0.0
 11
101.078833
 21
-749.550917
 31
0.0
  0
LINE
  8
1
  6
CONTINUOUS
 62
   212
  5
FE
 10
101.578833
 20
-749.550917
 30
0.0
 11
98.578833
 21
-749.550917
 31
0.0
  0
LINE
  8
1
  6
CONTINUOUS
 62
   212
  5
FF
 10
97.578833
 20
-803.550917
 30
0.0
 11
98.578833
 21
-803.550917
 31
0.0
  0
LINE
  8
1
  6
CONTINUOUS
 62
   212
  5
100
 10
96.578833
 20
-798.550917
 30
0.0
 11
97.578833
 21
-798.550917
 31
0.0
  0
LINE
  8
1
  6
CONTINUOUS
 62
   212
  5
101
 10
96.578833
 20
-796.550917
 30
0.0
 11
97.578833
 21
-796.550917
 31
0.0
  0
LINE
  8
1
  6
CONTINUOUS
 62
   212
  5
102
 10
96.578833
 20
-796.550917
 30
0.0
 11
96.578833
 21
-798.550917
 31
0.0
  0
LINE
  8
1
  6
CONTINUOUS
 62
   212
  5
103
 10
102.578833
 20
-796.550917
 30
0.0
 11
102.578833
 21
-798.550917
 31
0.0
  0
LINE
  8
1
  6
CONTINUOUS
 62
   212
  5
104
 10
102.578833
 20
-798.550917
 30
0.0
 11
101.578833
 21
-798.550917
 31
0.0
  0
LINE
  8
1
  6
CONTINUOUS
 62
   212
  5
105
 10
102.578833
 20
-796.550917
 30
0.0
 11
101.578833
 21
-796.550917
 31
0.0
  0
LINE
  8
1
  6
HIDDEN
 62
   212
  5
106
 10
98.578833
 20
-797.050917
 30
0.0
 11
101.078833
 21
-797.050917
 31
0.0
  0
LINE
  8
1
  6
CONTINUOUS
 62
   212
  5
107
 10
102.578833
 20
-797.050917
 30
0.0
 11
103.578833
 21
-797.050917
 31
0.0
  0
LINE
  8
1
  6
HIDDEN
 62
   212
  5
108
 10
98.578833
 20
-798.050917
 30
0.0
 11
101.078833
 21
-798.050917
 31
0.0
  0
LINE
  8
1
  6
CONTINUOUS
 62
   212
  5
109
 10
102.578833
 20
-798.050917
 30
0.0
 11
103.578833
 21
-798.050917
 31
0.0
  0
LINE
  8
1
  6
CONTINUOUS
 62
   212
  5
10A
 10
103.578833
 20
-797.050917
 30
0.0
 11
103.578833
 21
-798.050917
 31
0.0
  0
LINE
  8
1
  6
CONTINUOUS
 62
     7
  5
10B
 10
105.578833
 20
-797.550917
 30
0.0
 11
92.578833
 21
-797.550917
 31
0.0
  0
LINE
  8
1
  6
CONTINUOUS
 62
     7
  5
10C
 10
105.578833
 20
-751.550917
 30
0.0
 11
92.578833
 21
-751.550917
 31
0.0
  0
LINE
  8
1
  6
CONTINUOUS
 62
   212
  5
10D
 10
96.578833
 20
-750.550917
 30
0.0
 11
97.578833
 21
-750.550917
 31
0.0
  0
LINE
  8
1
  6
CONTINUOUS
 62
   212
  5
10E
 10
96.578833
 20
-752.550917
 30
0.0
 11
97.578833
 21
-752.550917
 31
0.0
  0
LINE
  8
1
  6
CONTINUOUS
 62
   212
  5
10F
 10
96.578833
 20
-752.550917
 30
0.0
 11
96.578833
 21
-750.550917
 31
0.0
  0
LINE
  8
1
  6
CONTINUOUS
 62
   212
  5
110
 10
102.578833
 20
-752.550917
 30
0.0
 11
102.578833
 21
-750.550917
 31
0.0
  0
LINE
  8
1
  6
CONTINUOUS
 62
   212
  5
111
 10
102.578833
 20
-750.550917
 30
0.0
 11
101.578833
 21
-750.550917
 31
0.0
  0
LINE
  8
1
  6
CONTINUOUS
 62
   212
  5
112
 10
102.578833
 20
-752.550917
 30
0.0
 11
101.578833
 21
-752.550917
 31
0.0
  0
LINE
  8
1
  6
HIDDEN
 62
   212
  5
113
 10
98.578833
 20
-752.050917
 30
0.0
 11
101.078833
 21
-752.050917
 31
0.0
  0
LINE
  8
1
  6
CONTINUOUS
 62
   212
  5
114
 10
102.578833
 20
-752.050917
 30
0.0
 11
103.578833
 21
-752.050917
 31
0.0
  0
LINE
  8
1
  6
HIDDEN
 62
   212
  5
115
 10
98.578833
 20
-751.050917
 30
0.0
 11
101.078833
 21
-751.050917
 31
0.0
  0
LINE
  8
1
  6
CONTINUOUS
 62
   212
  5
116
 10
102.578833
 20
-751.050917
 30
0.0
 11
103.578833
 21
-751.050917
 31
0.0
  0
LINE
  8
1
  6
CONTINUOUS
 62
   212
  5
117
 10
103.578833
 20
-752.050917
 30
0.0
 11
103.578833
 21
-751.050917
 31
0.0
  0
LINE
  8
1
  6
CONTINUOUS
 62
     7
  5
118
 10
99.578833
 20
-744.550917
 30
0.0
 11
115.578833
 21
-744.550917
 31
0.0
  0
LINE
  8
1
  6
CONTINUOUS
 62
     7
  5
119
 10
102.578833
 20
-749.550917
 30
0.0
 11
115.578833
 21
-749.550917
 31
0.0
  0
LINE
  8
1
  6
CONTINUOUS
 62
     7
  5
11A
 10
114.578833
 20
-739.550917
 30
0.0
 11
114.578833
 21
-744.550917
 31
0.0
  0
LINE
  8
1
  6
CONTINUOUS
 62
     7
  5
11B
 10
114.578833
 20
-749.550917
 30
0.0
 11
114.578833
 21
-754.550917
 31
0.0
  0
LINE
  8
1
  6
CONTINUOUS
 62
     7
  5
11C
 10
97.578833
 20
-746.9735
 30
0.0
 11
87.5875
 21
-746.9735
 31
0.0
  0
LINE
  8
1
  6
CONTINUOUS
 62
     7
  5
11D
 10
65.813583
 20
-832.550917
 30
0.0
 11
65.813583
 21
-842.561917
 31
0.0
  0
INSERT
  8
1
  6
CONTINUOUS
 62
     1
  5
13E
  2
LDR
 10
89.00525
 20
-662.550917
 30
0.0
 41
240.0
 42
240.0
 50
90.0
210
0.0
220
0.0
230
1.0
  0
INSERT
  8
1
  6
CONTINUOUS
 62
     1
  5
13F
  2
LDR
 10
89.00525
 20
-662.550917
 30
0.0
 41
240.0
 42
240.0
 50
90.0
210
0.0
220
0.0
230
1.0
  0
INSERT
  8
1
  6
CONTINUOUS
 62
     1
  5
140
  2
LDR
 10
89.00525
 20
-685.550917
 30
0.0
 41
240.0
 42
240.0
 50
270.0
210
0.0
220
0.0
230
1.0
  0
INSERT
  8
1
  6
CONTINUOUS
 62
     1
  5
141
  2
LDR
 10
89.00525
 20
-685.550917
 30
0.0
 41
240.0
 42
240.0
 50
270.0
210
0.0
220
0.0
230
1.0
  0
INSERT
  8
1
  6
CONTINUOUS
 62
     1
  5
142
  2
LDR
 10
89.00525
 20
-685.550917
 30
0.0
 41
240.0
 42
240.0
 50
90.0
210
0.0
220
0.0
230
1.0
  0
INSERT
  8
1
  6
CONTINUOUS
 62
     1
  5
143
  2
LDR
 10
89.00525
 20
-685.550917
 30
0.0
 41
240.0
 42
240.0
 50
90.0
210
0.0
220
0.0
230
1.0
  0
INSERT
  8
1
  6
CONTINUOUS
 62
     1
  5
144
  2
LDR
 10
89.00525
 20
-708.550917
 30
0.0
 41
240.0
 42
240.0
 50
270.0
210
0.0
220
0.0
230
1.0
  0
INSERT
  8
1
  6
CONTINUOUS
 62
     1
  5
145
  2
LDR
 10
89.00525
 20
-708.550917
 30
0.0
 41
240.0
 42
240.0
 50
270.0
210
0.0
220
0.0
230
1.0
  0
INSERT
  8
1
  6
CONTINUOUS
 62
     1
  5
146
  2
LDR
 10
20.578833
 20
-724.977333
 30
0.0
 41
240.0
 42
240.0
 50
180.0
210
0.0
220
0.0
230
1.0
  0
INSERT
  8
1
  6
CONTINUOUS
 62
     1
  5
147
  2
LDR
 10
20.578833
 20
-724.977333
 30
0.0
 41
240.0
 42
240.0
 50
180.0
210
0.0
220
0.0
230
1.0
  0
INSERT
  8
1
  6
CONTINUOUS
 62
     1
  5
148
  2
LDR
 10
50.578833
 20
-724.977333
 30
0.0
 41
240.0
 42
240.0
210
0.0
220
0.0
230
1.0
  0
INSERT
  8
1
  6
CONTINUOUS
 62
     1
  5
149
  2
LDR
 10
114.578833
 20
-744.550917
 30
0.0
 41
240.0
 42
240.0
 50
270.0
210
0.0
220
0.0
230
1.0
  0
INSERT
  8
1
  6
CONTINUOUS
 62
     1
  5
14A
  2
LDR
 10
114.578833
 20
-744.550917
 30
0.0
 41
240.0
 42
240.0
 50
270.0
210
0.0
220
0.0
230
1.0
  0
INSERT
  8
1
  6
CONTINUOUS
 62
     1
  5
14B
  2
LDR
 10
114.578833
 20
-749.550917
 30
0.0
 41
240.0
 42
240.0
 50
90.0
210
0.0
220
0.0
230
1.0
  0
INSERT
  8
1
  6
CONTINUOUS
 62
     1
  5
14C
  2
LDR
 10
97.578833
 20
-746.9735
 30
0.0
 41
240.0
 42
240.0
210
0.0
220
0.0
230
1.0
  0
INSERT
  8
1
  6
CONTINUOUS
 62
     1
  5
14D
  2
LDR
 10
97.578833
 20
-746.9735
 30
0.0
 41
240.0
 42
240.0
210
0.0
220
0.0
230
1.0
  0
INSERT
  8
1
  6
CONTINUOUS
 62
     1
  5
14E
  2
LDR
 10
65.813583
 20
-832.550917
 30
0.0
 41
240.0
 42
240.0
 50
90.0
210
0.0
220
0.0
230
1.0
  0
POLYLINE
  8
1
  6
CONTINUOUS
 62
   212
  5
14F
 66
     1
 10
0.0
 20
0.0
 30
0.0
 70
     1
  0
VERTEX
  8
1
  6
CONTINUOUS
 62
   212
  5
150
 10
237.578833
 20
-697.977333
 30
0.0
  0
VERTEX
  8
1
  6
CONTINUOUS
 62
   212
  5
151
 10
237.578833
 20
-673.1245
 30
0.0
  0
VERTEX
  8
1
  6
CONTINUOUS
 62
   212
  5
152
 10
220.00525
 20
-655.550917
 30
0.0
  0
VERTEX
  8
1
  6
CONTINUOUS
 62
   212
  5
153
 10
195.152417
 20
-655.550917
 30
0.0
  0
VERTEX
  8
1
  6
CONTINUOUS
 62
   212
  5
154
 10
177.578833
 20
-673.1245
 30
0.0
  0
VERTEX
  8
1
  6
CONTINUOUS
 62
   212
  5
155
 10
177.578833
 20
-697.977333
 30
0.0
  0
VERTEX
  8
1
  6
CONTINUOUS
 62
   212
  5
156
 10
195.152417
 20
-715.550917
 30
0.0
  0
VERTEX
  8
1
  6
CONTINUOUS
 62
   212
  5
157
 10
220.00525
 20
-715.550917
 30
0.0
  0
SEQEND
  8
1
  6
CONTINUOUS
 62
   212
  5
158
  0
LINE
  8
1
  6
CONTINUOUS
 62
     7
  5
159
 10
220.828833
 20
-670.550917
 30
0.0
 11
224.328833
 21
-670.550917
 31
0.0
  0
LINE
  8
1
  6
CONTINUOUS
 62
     7
  5
15A
 10
194.328833
 20
-670.550917
 30
0.0
 11
190.828833
 21
-670.550917
 31
0.0
  0
LINE
  8
1
  6
CONTINUOUS
 62
     7
  5
15B
 10
197.578833
 20
-685.550917
 30
0.0
 11
217.578833
 21
-685.550917
 31
0.0
  0
LINE
  8
1
  6
CONTINUOUS
 62
     7
  5
15C
 10
247.00525
 20
-685.550917
 30
0.0
 11
227.578833
 21
-685.550917
 31
0.0
  0
LINE
  8
1
  6
CONTINUOUS
 62
     7
  5
15D
 10
220.578833
 20
-685.550917
 30
0.0
 11
224.578833
 21
-685.550917
 31
0.0
  0
LINE
  8
1
  6
CONTINUOUS
 62
     7
  5
15E
 10
167.578833
 20
-685.550917
 30
0.0
 11
187.578833
 21
-685.550917
 31
0.0
  0
LINE
  8
1
  6
CONTINUOUS
 62
     7
  5
15F
 10
190.578833
 20
-685.550917
 30
0.0
 11
194.578833
 21
-685.550917
 31
0.0
  0
LINE
  8
1
  6
CONTINUOUS
 62
     7
  5
160
 10
246.00525
 20
-670.550917
 30
0.0
 11
246.00525
 21
-685.550917
 31
0.0
  0
LINE
  8
1
  6
CONTINUOUS
 62
     7
  5
161
 10
246.00525
 20
-685.550917
 30
0.0
 11
246.00525
 21
-700.550917
 31
0.0
  0
POLYLINE
  8
1
  6
CONTINUOUS
 62
   212
  5
162
 66
     1
 10
0.0
 20
0.0
 30
0.0
 70
     1
  0
VERTEX
  8
1
  6
CONTINUOUS
 62
   212
  5
163
 10
237.578833
 20
-786.977333
 30
0.0
  0
VERTEX
  8
1
  6
CONTINUOUS
 62
   212
  5
164
 10
237.578833
 20
-762.1245
 30
0.0
  0
VERTEX
  8
1
  6
CONTINUOUS
 62
   212
  5
165
 10
220.00525
 20
-744.550917
 30
0.0
  0
VERTEX
  8
1
  6
CONTINUOUS
 62
   212
  5
166
 10
195.152417
 20
-744.550917
 30
0.0
  0
VERTEX
  8
1
  6
CONTINUOUS
 62
   212
  5
167
 10
177.578833
 20
-762.1245
 30
0.0
  0
VERTEX
  8
1
  6
CONTINUOUS
 62
   212
  5
168
 10
177.578833
 20
-786.977333
 30
0.0
  0
VERTEX
  8
1
  6
CONTINUOUS
 62
   212
  5
169
 10
195.152417
 20
-804.550917
 30
0.0
  0
VERTEX
  8
1
  6
CONTINUOUS
 62
   212
  5
16A
 10
220.00525
 20
-804.550917
 30
0.0
  0
SEQEND
  8
1
  6
CONTINUOUS
 62
   212
  5
16B
  0
LINE
  8
1
  6
CONTINUOUS
 62
     7
  5
16C
 10
207.578833
 20
-715.550917
 30
0.0
 11
207.578833
 21
-727.979167
 31
0.0
  0
LINE
  8
1
  6
CONTINUOUS
 62
   212
  5
16D
 10
177.578833
 20
-831.550917
 30
0.0
 11
237.578833
 21
-831.550917
 31
0.0
  0
LINE
  8
1
  6
CONTINUOUS
 62
   212
  5
16E
 10
177.578833
 20
-832.550917
 30
0.0
 11
237.578833
 21
-832.550917
 31
0.0
  0
LINE
  8
1
  6
CONTINUOUS
 62
   212
  5
16F
 10
177.578833
 20
-831.550917
 30
0.0
 11
177.578833
 21
-832.550917
 31
0.0
  0
LINE
  8
1
  6
CONTINUOUS
 62
   212
  5
170
 10
254.578833
 20
-804.550917
 30
0.0
 11
254.578833
 21
-744.550917
 31
0.0
  0
LINE
  8
1
  6
CONTINUOUS
 62
   212
  5
171
 10
255.578833
 20
-804.550917
 30
0.0
 11
255.578833
 21
-744.550917
 31
0.0
  0
LINE
  8
1
  6
CONTINUOUS
 62
   212
  5
172
 10
254.578833
 20
-744.550917
 30
0.0
 11
255.578833
 21
-744.550917
 31
0.0
  0
LINE
  8
1
  6
CONTINUOUS
 62
   212
  5
173
 10
254.578833
 20
-804.550917
 30
0.0
 11
255.578833
 21
-804.550917
 31
0.0
  0
LINE
  8
1
  6
CONTINUOUS
 62
   212
  5
174
 10
253.578833
 20
-759.550917
 30
0.0
 11
254.578833
 21
-759.550917
 31
0.0
  0
LINE
  8
1
  6
CONTINUOUS
 62
   212
  5
175
 10
253.578833
 20
-761.550917
 30
0.0
 11
254.578833
 21
-761.550917
 31
0.0
  0
LINE
  8
1
  6
CONTINUOUS
 62
   212
  5
176
 10
253.578833
 20
-761.550917
 30
0.0
 11
253.578833
 21
-759.550917
 31
0.0
  0
LINE
  8
1
  6
CONTINUOUS
 62
   212
  5
177
 10
257.078833
 20
-761.550917
 30
0.0
 11
257.078833
 21
-759.550917
 31
0.0
  0
LINE
  8
1
  6
CONTINUOUS
 62
   212
  5
178
 10
257.078833
 20
-759.550917
 30
0.0
 11
256.078833
 21
-759.550917
 31
0.0
  0
LINE
  8
1
  6
CONTINUOUS
 62
   212
  5
179
 10
261.078833
 20
-761.550917
 30
0.0
 11
256.078833
 21
-761.550917
 31
0.0
  0
LINE
  8
1
  6
CONTINUOUS
 62
   212
  5
17A
 10
256.078833
 20
-761.050917
 30
0.0
 11
258.078833
 21
-761.050917
 31
0.0
  0
LINE
  8
1
  6
CONTINUOUS
 62
   212
  5
17B
 10
256.078833
 20
-760.050917
 30
0.0
 11
258.078833
 21
-760.050917
 31
0.0
  0
LINE
  8
1
  6
CONTINUOUS
 62
   212
  5
17C
 10
258.078833
 20
-761.050917
 30
0.0
 11
258.078833
 21
-760.050917
 31
0.0
  0
LINE
  8
1
  6
CONTINUOUS
 62
     7
  5
17D
 10
254.578833
 20
-746.9735
 30
0.0
 11
244.5875
 21
-746.9735
 31
0.0
  0
LINE
  8
1
  6
CONTINUOUS
 62
     7
  5
17E
 10
210.882417
 20
-832.550917
 30
0.0
 11
210.882417
 21
-842.561917
 31
0.0
  0
INSERT
  8
1
  6
CONTINUOUS
 62
     1
  5
17F
  2
LDR
 10
246.00525
 20
-685.550917
 30
0.0
 41
240.0
 42
240.0
 50
270.0
210
0.0
220
0.0
230
1.0
  0
INSERT
  8
1
  6
CONTINUOUS
 62
     1
  5
180
  2
LDR
 10
246.00525
 20
-685.550917
 30
0.0
 41
240.0
 42
240.0
 50
270.0
210
0.0
220
0.0
230
1.0
  0
INSERT
  8
1
  6
CONTINUOUS
 62
     1
  5
181
  2
LDR
 10
246.00525
 20
-685.550917
 30
0.0
 41
240.0
 42
240.0
 50
90.0
210
0.0
220
0.0
230
1.0
  0
INSERT
  8
1
  6
CONTINUOUS
 62
     1
  5
182
  2
LDR
 10
246.00525
 20
-685.550917
 30
0.0
 41
240.0
 42
240.0
 50
90.0
210
0.0
220
0.0
230
1.0
  0
INSERT
  8
1
  6
CONTINUOUS
 62
     1
  5
183
  2
LDR
 10
254.578833
 20
-746.9735
 30
0.0
 41
240.0
 42
240.0
210
0.0
220
0.0
230
1.0
  0
INSERT
  8
1
  6
CONTINUOUS
 62
     1
  5
184
  2
LDR
 10
254.578833
 20
-746.9735
 30
0.0
 41
240.0
 42
240.0
210
0.0
220
0.0
230
1.0
  0
INSERT
  8
1
  6
CONTINUOUS
 62
     1
  5
185
  2
LDR
 10
210.882417
 20
-832.550917
 30
0.0
 41
240.0
 42
240.0
 50
90.0
210
0.0
220
0.0
230
1.0
  0
CIRCLE
  8
1
  6
CONTINUOUS
 62
   212
  5
186
 10
192.578833
 20
-670.550917
 30
0.0
 40
0.75
210
0.0
220
0.0
230
1.0
  0
CIRCLE
  8
1
  6
CONTINUOUS
 62
   212
  5
187
 10
222.578833
 20
-670.550917
 30
0.0
 40
0.75
210
0.0
220
0.0
230
1.0
  0
CIRCLE
  8
1
  6
CONTINUOUS
 62
   212
  5
188
 10
192.578833
 20
-700.550917
 30
0.0
 40
0.75
210
0.0
220
0.0
230
1.0
  0
CIRCLE
  8
1
  6
CONTINUOUS
 62
   212
  5
189
 10
222.578833
 20
-700.550917
 30
0.0
 40
0.75
210
0.0
220
0.0
230
1.0
  0
LINE
  8
1
  6
CONTINUOUS
 62
     7
  5
18A
 10
192.578833
 20
-645.550917
 30
0.0
 11
192.578833
 21
-667.800917
 31
0.0
  0
LINE
  8
1
  6
CONTINUOUS
 62
     7
  5
18B
 10
192.578833
 20
-668.800917
 30
0.0
 11
192.578833
 21
-672.300917
 31
0.0
  0
LINE
  8
1
  6
CONTINUOUS
 62
     7
  5
18C
 10
222.578833
 20
-645.550917
 30
0.0
 11
222.578833
 21
-667.800917
 31
0.0
  0
LINE
  8
1
  6
CONTINUOUS
 62
     7
  5
18D
 10
222.578833
 20
-668.800917
 30
0.0
 11
222.578833
 21
-672.300917
 31
0.0
  0
LINE
  8
1
  6
CONTINUOUS
 62
     7
  5
18E
 10
195.328833
 20
-670.550917
 30
0.0
 11
197.328833
 21
-670.550917
 31
0.0
  0
LINE
  8
1
  6
CONTINUOUS
 62
     7
  5
18F
 10
189.828833
 20
-670.550917
 30
0.0
 11
187.828833
 21
-670.550917
 31
0.0
  0
LINE
  8
1
  6
CONTINUOUS
 62
     7
  5
190
 10
192.578833
 20
-673.300917
 30
0.0
 11
192.578833
 21
-675.300917
 31
0.0
  0
LINE
  8
1
  6
CONTINUOUS
 62
     7
  5
191
 10
225.328833
 20
-670.550917
 30
0.0
 11
247.00525
 21
-670.550917
 31
0.0
  0
LINE
  8
1
  6
CONTINUOUS
 62
     7
  5
192
 10
217.828833
 20
-670.550917
 30
0.0
 11
219.828833
 21
-670.550917
 31
0.0
  0
LINE
  8
1
  6
CONTINUOUS
 62
     7
  5
193
 10
222.578833
 20
-673.300917
 30
0.0
 11
222.578833
 21
-675.300917
 31
0.0
  0
LINE
  8
1
  6
CONTINUOUS
 62
     7
  5
194
 10
194.328833
 20
-700.550917
 30
0.0
 11
190.828833
 21
-700.550917
 31
0.0
  0
LINE
  8
1
  6
CONTINUOUS
 62
     7
  5
195
 10
220.828833
 20
-700.550917
 30
0.0
 11
224.328833
 21
-700.550917
 31
0.0
  0
LINE
  8
1
  6
CONTINUOUS
 62
     7
  5
196
 10
192.578833
 20
-698.800917
 30
0.0
 11
192.578833
 21
-702.300917
 31
0.0
  0
LINE
  8
1
  6
CONTINUOUS
 62
     7
  5
197
 10
222.578833
 20
-698.800917
 30
0.0
 11
222.578833
 21
-702.300917
 31
0.0
  0
LINE
  8
1
  6
CONTINUOUS
 62
     7
  5
198
 10
195.328833
 20
-700.550917
 30
0.0
 11
197.328833
 21
-700.550917
 31
0.0
  0
LINE
  8
1
  6
CONTINUOUS
 62
     7
  5
199
 10
189.828833
 20
-700.550917
 30
0.0
 11
187.828833
 21
-700.550917
 31
0.0
  0
LINE
  8
1
  6
CONTINUOUS
 62
     7
  5
19A
 10
192.578833
 20
-703.300917
 30
0.0
 11
192.578833
 21
-705.300917
 31
0.0
  0
LINE
  8
1
  6
CONTINUOUS
 62
     7
  5
19B
 10
225.328833
 20
-700.550917
 30
0.0
 11
247.00525
 21
-700.550917
 31
0.0
  0
LINE
  8
1
  6
CONTINUOUS
 62
     7
  5
19C
 10
217.828833
 20
-700.550917
 30
0.0
 11
219.828833
 21
-700.550917
 31
0.0
  0
LINE
  8
1
  6
CONTINUOUS
 62
     7
  5
19D
 10
222.578833
 20
-703.300917
 30
0.0
 11
222.578833
 21
-705.300917
 31
0.0
  0
LINE
  8
1
  6
CONTINUOUS
 62
     7
  5
19E
 10
192.578833
 20
-697.800917
 30
0.0
 11
192.578833
 21
-695.800917
 31
0.0
  0
LINE
  8
1
  6
CONTINUOUS
 62
     7
  5
19F
 10
222.578833
 20
-697.800917
 30
0.0
 11
222.578833
 21
-695.800917
 31
0.0
  0
INSERT
  8
1
  6
CONTINUOUS
 62
     1
  5
1A0
  2
LDR
 10
246.00525
 20
-670.550917
 30
0.0
 41
240.0
 42
240.0
 50
90.0
210
0.0
220
0.0
230
1.0
  0
INSERT
  8
1
  6
CONTINUOUS
 62
     1
  5
1A1
  2
LDR
 10
246.00525
 20
-670.550917
 30
0.0
 41
240.0
 42
240.0
 50
90.0
210
0.0
220
0.0
230
1.0
  0
INSERT
  8
1
  6
CONTINUOUS
 62
     1
  5
1A2
  2
LDR
 10
246.00525
 20
-700.550917
 30
0.0
 41
240.0
 42
240.0
 50
270.0
210
0.0
220
0.0
230
1.0
  0
LINE
  8
1
  6
CONTINUOUS
 62
     7
  5
1A3
 10
192.578833
 20
-646.550917
 30
0.0
 11
207.578833
 21
-646.550917
 31
0.0
  0
LINE
  8
1
  6
CONTINUOUS
 62
     7
  5
1A4
 10
207.578833
 20
-646.550917
 30
0.0
 11
222.578833
 21
-646.550917
 31
0.0
  0
INSERT
  8
1
  6
CONTINUOUS
 62
     1
  5
1A5
  2
LDR
 10
192.578833
 20
-646.550917
 30
0.0
 41
240.0
 42
240.0
 50
180.0
210
0.0
220
0.0
230
1.0
  0
INSERT
  8
1
  6
CONTINUOUS
 62
     1
  5
1A6
  2
LDR
 10
192.578833
 20
-646.550917
 30
0.0
 41
240.0
 42
240.0
 50
180.0
210
0.0
220
0.0
230
1.0
  0
INSERT
  8
1
  6
CONTINUOUS
 62
     1
  5
1A7
  2
LDR
 10
207.578833
 20
-646.550917
 30
0.0
 41
240.0
 42
240.0
210
0.0
220
0.0
230
1.0
  0
INSERT
  8
1
  6
CONTINUOUS
 62
     1
  5
1A8
  2
LDR
 10
207.578833
 20
-646.550917
 30
0.0
 41
240.0
 42
240.0
210
0.0
220
0.0
230
1.0
  0
INSERT
  8
1
  6
CONTINUOUS
 62
     1
  5
1A9
  2
LDR
 10
207.578833
 20
-646.550917
 30
0.0
 41
240.0
 42
240.0
 50
180.0
210
0.0
220
0.0
230
1.0
  0
INSERT
  8
1
  6
CONTINUOUS
 62
     1
  5
1AA
  2
LDR
 10
207.578833
 20
-646.550917
 30
0.0
 41
240.0
 42
240.0
 50
180.0
210
0.0
220
0.0
230
1.0
  0
INSERT
  8
1
  6
CONTINUOUS
 62
     1
  5
1AB
  2
LDR
 10
222.578833
 20
-646.550917
 30
0.0
 41
240.0
 42
240.0
210
0.0
220
0.0
230
1.0
  0
LINE
  8
1
  6
CONTINUOUS
 62
     7
  5
1AC
 10
207.578833
 20
-668.800917
 30
0.0
 11
207.578833
 21
-672.300917
 31
0.0
  0
LINE
  8
1
  6
CONTINUOUS
 62
     7
  5
1AD
 10
207.578833
 20
-675.300917
 30
0.0
 11
207.578833
 21
-685.550917
 31
0.0
  0
LINE
  8
1
  6
CONTINUOUS
 62
     7
  5
1AE
 10
207.578833
 20
-645.550917
 30
0.0
 11
207.578833
 21
-655.550917
 31
0.0
  0
LINE
  8
1
  6
CONTINUOUS
 62
     7
  5
1AF
 10
207.578833
 20
-655.550917
 30
0.0
 11
207.578833
 21
-665.800917
 31
0.0
  0
LINE
  8
1
  6
CONTINUOUS
 62
     7
  5
1B0
 10
207.578833
 20
-715.550917
 30
0.0
 11
207.578833
 21
-705.300917
 31
0.0
  0
LINE
  8
1
  6
CONTINUOUS
 62
     7
  5
1B1
 10
207.578833
 20
-702.300917
 30
0.0
 11
207.578833
 21
-698.800917
 31
0.0
  0
LINE
  8
1
  6
CONTINUOUS
 62
     7
  5
1B2
 10
207.578833
 20
-695.800917
 30
0.0
 11
207.578833
 21
-685.550917
 31
0.0
  0
LINE
  8
1
  6
CONTINUOUS
 62
     7
  5
1B3
 10
197.578833
 20
-774.550917
 30
0.0
 11
217.578833
 21
-774.550917
 31
0.0
  0
LINE
  8
1
  6
CONTINUOUS
 62
     7
  5
1B4
 10
247.00525
 20
-774.550917
 30
0.0
 11
227.578833
 21
-774.550917
 31
0.0
  0
LINE
  8
1
  6
CONTINUOUS
 62
     7
  5
1B5
 10
220.578833
 20
-774.550917
 30
0.0
 11
224.578833
 21
-774.550917
 31
0.0
  0
LINE
  8
1
  6
CONTINUOUS
 62
     7
  5
1B6
 10
167.578833
 20
-774.550917
 30
0.0
 11
187.578833
 21
-774.550917
 31
0.0
  0
LINE
  8
1
  6
CONTINUOUS
 62
     7
  5
1B7
 10
190.578833
 20
-774.550917
 30
0.0
 11
194.578833
 21
-774.550917
 31
0.0
  0
CIRCLE
  8
1
  6
CONTINUOUS
 62
   212
  5
1B8
 10
192.578833
 20
-759.550917
 30
0.0
 40
0.75
210
0.0
220
0.0
230
1.0
  0
CIRCLE
  8
1
  6
CONTINUOUS
 62
   212
  5
1B9
 10
222.578833
 20
-759.550917
 30
0.0
 40
0.75
210
0.0
220
0.0
230
1.0
  0
CIRCLE
  8
1
  6
CONTINUOUS
 62
   212
  5
1BA
 10
192.578833
 20
-789.550917
 30
0.0
 40
0.75
210
0.0
220
0.0
230
1.0
  0
CIRCLE
  8
1
  6
CONTINUOUS
 62
   212
  5
1BB
 10
222.578833
 20
-789.550917
 30
0.0
 40
0.75
210
0.0
220
0.0
230
1.0
  0
LINE
  8
1
  6
CONTINUOUS
 62
     7
  5
1BC
 10
207.578833
 20
-757.800917
 30
0.0
 11
207.578833
 21
-761.300917
 31
0.0
  0
LINE
  8
1
  6
CONTINUOUS
 62
     7
  5
1BD
 10
207.578833
 20
-764.300917
 30
0.0
 11
207.578833
 21
-774.550917
 31
0.0
  0
LINE
  8
1
  6
CONTINUOUS
 62
     7
  5
1BE
 10
207.578833
 20
-736.550917
 30
0.0
 11
207.578833
 21
-744.550917
 31
0.0
  0
LINE
  8
1
  6
CONTINUOUS
 62
     7
  5
1BF
 10
207.578833
 20
-744.550917
 30
0.0
 11
207.578833
 21
-754.800917
 31
0.0
  0
LINE
  8
1
  6
CONTINUOUS
 62
     7
  5
1C0
 10
207.578833
 20
-806.550917
 30
0.0
 11
207.578833
 21
-794.300917
 31
0.0
  0
LINE
  8
1
  6
CONTINUOUS
 62
     7
  5
1C1
 10
207.578833
 20
-791.300917
 30
0.0
 11
207.578833
 21
-787.800917
 31
0.0
  0
LINE
  8
1
  6
CONTINUOUS
 62
     7
  5
1C2
 10
207.578833
 20
-784.800917
 30
0.0
 11
207.578833
 21
-774.550917
 31
0.0
  0
LINE
  8
1
  6
HIDDEN
 62
   212
  5
1C3
 10
185.578833
 20
-756.550917
 30
0.0
 11
185.578833
 21
-794.977333
 31
0.0
  0
LINE
  8
1
  6
HIDDEN
 62
   212
  5
1C4
 10
229.578833
 20
-756.550917
 30
0.0
 11
229.578833
 21
-794.977333
 31
0.0
  0
LINE
  8
1
  6
HIDDEN
 62
   212
  5
1C5
 10
187.078833
 20
-756.550917
 30
0.0
 11
187.078833
 21
-796.477333
 31
0.0
  0
LINE
  8
1
  6
HIDDEN
 62
   212
  5
1C6
 10
188.578833
 20
-756.550917
 30
0.0
 11
188.578833
 21
-797.977333
 31
0.0
  0
LINE
  8
1
  6
HIDDEN
 62
   212
  5
1C7
 10
190.078833
 20
-756.550917
 30
0.0
 11
190.078833
 21
-799.477333
 31
0.0
  0
LINE
  8
1
  6
HIDDEN
 62
   212
  5
1C8
 10
191.578833
 20
-756.550917
 30
0.0
 11
191.578833
 21
-800.977333
 31
0.0
  0
LINE
  8
1
  6
HIDDEN
 62
   212
  5
1C9
 10
193.078833
 20
-756.550917
 30
0.0
 11
193.078833
 21
-802.477333
 31
0.0
  0
LINE
  8
1
  6
HIDDEN
 62
   212
  5
1CA
 10
228.078833
 20
-756.550917
 30
0.0
 11
228.078833
 21
-796.477333
 31
0.0
  0
LINE
  8
1
  6
HIDDEN
 62
   212
  5
1CB
 10
226.578833
 20
-756.550917
 30
0.0
 11
226.578833
 21
-797.977333
 31
0.0
  0
LINE
  8
1
  6
HIDDEN
 62
   212
  5
1CC
 10
225.078833
 20
-756.550917
 30
0.0
 11
225.078833
 21
-799.477333
 31
0.0
  0
LINE
  8
1
  6
HIDDEN
 62
   212
  5
1CD
 10
223.578833
 20
-756.550917
 30
0.0
 11
223.578833
 21
-800.977333
 31
0.0
  0
LINE
  8
1
  6
HIDDEN
 62
   212
  5
1CE
 10
222.078833
 20
-756.550917
 30
0.0
 11
222.078833
 21
-802.477333
 31
0.0
  0
LINE
  8
1
  6
HIDDEN
 62
   212
  5
1CF
 10
185.078833
 20
-758.050917
 30
0.0
 11
230.078833
 21
-758.050917
 31
0.0
  0
LINE
  8
1
  6
HIDDEN
 62
   212
  5
1D0
 10
185.078833
 20
-759.050917
 30
0.0
 11
230.078833
 21
-759.050917
 31
0.0
  0
LINE
  8
1
  6
HIDDEN
 62
   212
  5
1D1
 10
185.078833
 20
-760.050917
 30
0.0
 11
230.078833
 21
-760.050917
 31
0.0
  0
LINE
  8
1
  6
HIDDEN
 62
   212
  5
1D2
 10
185.078833
 20
-761.050917
 30
0.0
 11
230.078833
 21
-761.050917
 31
0.0
  0
LINE
  8
1
  6
HIDDEN
 62
   212
  5
1D3
 10
185.078833
 20
-762.050917
 30
0.0
 11
230.078833
 21
-762.050917
 31
0.0
  0
LINE
  8
1
  6
HIDDEN
 62
   212
  5
1D4
 10
185.078833
 20
-763.050917
 30
0.0
 11
230.078833
 21
-763.050917
 31
0.0
  0
LINE
  8
1
  6
HIDDEN
 62
   212
  5
1D5
 10
185.578833
 20
-756.550917
 30
0.0
 11
193.078833
 21
-756.550917
 31
0.0
  0
LINE
  8
1
  6
HIDDEN
 62
   212
  5
1D6
 10
222.078833
 20
-756.550917
 30
0.0
 11
229.578833
 21
-756.550917
 31
0.0
  0
LINE
  8
1
  6
HIDDEN
 62
   212
  5
1D7
 10
185.078833
 20
-791.050917
 30
0.0
 11
230.078833
 21
-791.050917
 31
0.0
  0
LINE
  8
1
  6
HIDDEN
 62
   212
  5
1D8
 10
185.078833
 20
-790.050917
 30
0.0
 11
230.078833
 21
-790.050917
 31
0.0
  0
LINE
  8
1
  6
HIDDEN
 62
   212
  5
1D9
 10
185.078833
 20
-789.050917
 30
0.0
 11
230.078833
 21
-789.050917
 31
0.0
  0
LINE
  8
1
  6
HIDDEN
 62
   212
  5
1DA
 10
185.078833
 20
-788.050917
 30
0.0
 11
230.078833
 21
-788.050917
 31
0.0
  0
LINE
  8
1
  6
HIDDEN
 62
   212
  5
1DB
 10
185.078833
 20
-787.050917
 30
0.0
 11
230.078833
 21
-787.050917
 31
0.0
  0
LINE
  8
1
  6
HIDDEN
 62
   212
  5
1DC
 10
185.078833
 20
-786.050917
 30
0.0
 11
230.078833
 21
-786.050917
 31
0.0
  0
LINE
  8
1
  6
HIDDEN
 62
   212
  5
1DD
 10
185.078833
 20
-758.050917
 30
0.0
 11
185.078833
 21
-763.050917
 31
0.0
  0
LINE
  8
1
  6
HIDDEN
 62
   212
  5
1DE
 10
230.078833
 20
-758.050917
 30
0.0
 11
230.078833
 21
-763.050917
 31
0.0
  0
LINE
  8
1
  6
HIDDEN
 62
   212
  5
1DF
 10
185.078833
 20
-786.050917
 30
0.0
 11
185.078833
 21
-791.050917
 31
0.0
  0
LINE
  8
1
  6
HIDDEN
 62
   212
  5
1E0
 10
230.078833
 20
-786.050917
 30
0.0
 11
230.078833
 21
-791.050917
 31
0.0
  0
LINE
  8
1
  6
CONTINUOUS
 62
   212
  5
1E1
 10
185.578833
 20
-794.977333
 30
0.0
 11
185.578833
 21
-811.977333
 31
0.0
  0
LINE
  8
1
  6
CONTINUOUS
 62
   212
  5
1E2
 10
229.578833
 20
-794.977333
 30
0.0
 11
229.578833
 21
-811.977333
 31
0.0
  0
LINE
  8
1
  6
CONTINUOUS
 62
   212
  5
1E3
 10
187.078833
 20
-796.477333
 30
0.0
 11
187.078833
 21
-811.977333
 31
0.0
  0
LINE
  8
1
  6
CONTINUOUS
 62
   212
  5
1E4
 10
188.578833
 20
-797.977333
 30
0.0
 11
188.578833
 21
-811.977333
 31
0.0
  0
LINE
  8
1
  6
CONTINUOUS
 62
   212
  5
1E5
 10
190.078833
 20
-799.477333
 30
0.0
 11
190.078833
 21
-811.977333
 31
0.0
  0
LINE
  8
1
  6
CONTINUOUS
 62
   212
  5
1E6
 10
191.578833
 20
-800.977333
 30
0.0
 11
191.578833
 21
-811.977333
 31
0.0
  0
LINE
  8
1
  6
CONTINUOUS
 62
   212
  5
1E7
 10
193.078833
 20
-802.477333
 30
0.0
 11
193.078833
 21
-811.977333
 31
0.0
  0
LINE
  8
1
  6
CONTINUOUS
 62
   212
  5
1E8
 10
222.078833
 20
-802.477333
 30
0.0
 11
222.078833
 21
-811.977333
 31
0.0
  0
LINE
  8
1
  6
CONTINUOUS
 62
   212
  5
1E9
 10
223.578833
 20
-800.977333
 30
0.0
 11
223.578833
 21
-811.977333
 31
0.0
  0
LINE
  8
1
  6
CONTINUOUS
 62
   212
  5
1EA
 10
225.078833
 20
-799.477333
 30
0.0
 11
225.078833
 21
-811.977333
 31
0.0
  0
LINE
  8
1
  6
CONTINUOUS
 62
   212
  5
1EB
 10
226.578833
 20
-797.977333
 30
0.0
 11
226.578833
 21
-811.977333
 31
0.0
  0
LINE
  8
1
  6
CONTINUOUS
 62
   212
  5
1EC
 10
228.078833
 20
-796.477333
 30
0.0
 11
228.078833
 21
-811.977333
 31
0.0
  0
LINE
  8
1
  6
CONTINUOUS
 62
   212
  5
1ED
 10
187.578833
 20
-830.550917
 30
0.0
 11
227.578833
 21
-830.550917
 31
0.0
  0
LINE
  8
1
  6
CONTINUOUS
 62
   212
  5
1EE
 10
187.578833
 20
-831.550917
 30
0.0
 11
187.578833
 21
-826.550917
 31
0.0
  0
LINE
  8
1
  6
CONTINUOUS
 62
   212
  5
1EF
 10
227.578833
 20
-831.550917
 30
0.0
 11
227.578833
 21
-826.550917
 31
0.0
  0
LINE
  8
1
  6
CONTINUOUS
 62
   212
  5
1F0
 10
187.578833
 20
-826.550917
 30
0.0
 11
227.578833
 21
-826.550917
 31
0.0
  0
LINE
  8
1
  6
HIDDEN
 62
   212
  5
1F1
 10
187.578833
 20
-827.300917
 30
0.0
 11
227.578833
 21
-827.300917
 31
0.0
  0
LINE
  8
1
  6
HIDDEN
 62
   212
  5
1F2
 10
187.578833
 20
-828.050917
 30
0.0
 11
227.578833
 21
-828.050917
 31
0.0
  0
LINE
  8
1
  6
HIDDEN
 62
   212
  5
1F3
 10
187.578833
 20
-828.800917
 30
0.0
 11
227.578833
 21
-828.800917
 31
0.0
  0
LINE
  8
1
  6
CONTINUOUS
 62
   212
  5
1F4
 10
187.578833
 20
-826.550917
 30
0.0
 11
187.578833
 21
-825.550917
 31
0.0
  0
LINE
  8
1
  6
CONTINUOUS
 62
   212
  5
1F5
 10
227.578833
 20
-826.550917
 30
0.0
 11
227.578833
 21
-825.550917
 31
0.0
  0
LINE
  8
1
  6
CONTINUOUS
 62
   212
  5
1F6
 10
187.578833
 20
-825.550917
 30
0.0
 11
188.578833
 21
-825.550917
 31
0.0
  0
LINE
  8
1
  6
CONTINUOUS
 62
   212
  5
1F7
 10
227.578833
 20
-825.550917
 30
0.0
 11
226.578833
 21
-825.550917
 31
0.0
  0
LINE
  8
1
  6
CONTINUOUS
 62
   212
  5
1F8
 10
194.578833
 20
-826.550917
 30
0.0
 11
194.578833
 21
-825.550917
 31
0.0
  0
LINE
  8
1
  6
CONTINUOUS
 62
   212
  5
1F9
 10
220.578833
 20
-826.550917
 30
0.0
 11
220.578833
 21
-825.550917
 31
0.0
  0
LINE
  8
1
  6
CONTINUOUS
 62
   212
  5
1FA
 10
193.578833
 20
-825.550917
 30
0.0
 11
194.578833
 21
-825.550917
 31
0.0
  0
LINE
  8
1
  6
CONTINUOUS
 62
   212
  5
1FB
 10
221.578833
 20
-825.550917
 30
0.0
 11
220.578833
 21
-825.550917
 31
0.0
  0
LINE
  8
1
  6
CONTINUOUS
 62
   212
  5
1FC
 10
189.828833
 20
-823.050917
 30
0.0
 11
192.328833
 21
-823.050917
 31
0.0
  0
LINE
  8
1
  6
CONTINUOUS
 62
   212
  5
1FD
 10
222.828833
 20
-823.050917
 30
0.0
 11
225.328833
 21
-823.050917
 31
0.0
  0
LINE
  8
1
  6
CONTINUOUS
 62
   212
  5
1FE
 10
188.578833
 20
-825.550917
 30
0.0
 11
189.828833
 21
-823.050917
 31
0.0
  0
LINE
  8
1
  6
CONTINUOUS
 62
   212
  5
1FF
 10
193.578833
 20
-825.550917
 30
0.0
 11
192.328833
 21
-823.050917
 31
0.0
  0
LINE
  8
1
  6
CONTINUOUS
 62
   212
  5
200
 10
221.578833
 20
-825.550917
 30
0.0
 11
222.828833
 21
-823.050917
 31
0.0
  0
LINE
  8
1
  6
CONTINUOUS
 62
   212
  5
201
 10
225.328833
 20
-823.050917
 30
0.0
 11
226.578833
 21
-825.550917
 31
0.0
  0
LINE
  8
1
  6
CONTINUOUS
 62
   212
  5
202
 10
190.29225
 20
-823.800917
 30
0.0
 11
191.865333
 21
-823.800917
 31
0.0
  0
LINE
  8
1
  6
CONTINUOUS
 62
   212
  5
203
 10
188.91725
 20
-826.550917
 30
0.0
 11
190.29225
 21
-823.800917
 31
0.0
  0
LINE
  8
1
  6
CONTINUOUS
 62
   212
  5
204
 10
193.240333
 20
-826.550917
 30
0.0
 11
191.865333
 21
-823.800917
 31
0.0
  0
LINE
  8
1
  6
CONTINUOUS
 62
   212
  5
205
 10
223.29225
 20
-823.800917
 30
0.0
 11
224.865333
 21
-823.800917
 31
0.0
  0
LINE
  8
1
  6
CONTINUOUS
 62
   212
  5
206
 10
221.91725
 20
-826.550917
 30
0.0
 11
223.29225
 21
-823.800917
 31
0.0
  0
LINE
  8
1
  6
CONTINUOUS
 62
   212
  5
207
 10
224.865333
 20
-823.800917
 30
0.0
 11
226.240333
 21
-826.550917
 31
0.0
  0
LINE
  8
1
  6
CONTINUOUS
 62
   212
  5
208
 10
190.078833
 20
-822.300917
 30
0.0
 11
192.078833
 21
-822.300917
 31
0.0
  0
LINE
  8
1
  6
CONTINUOUS
 62
   212
  5
209
 10
223.078833
 20
-822.300917
 30
0.0
 11
225.078833
 21
-822.300917
 31
0.0
  0
LINE
  8
1
  6
CONTINUOUS
 62
   212
  5
20A
 10
190.078833
 20
-822.300917
 30
0.0
 11
190.078833
 21
-823.050917
 31
0.0
  0
LINE
  8
1
  6
CONTINUOUS
 62
   212
  5
20B
 10
192.078833
 20
-822.300917
 30
0.0
 11
192.078833
 21
-823.050917
 31
0.0
  0
LINE
  8
1
  6
CONTINUOUS
 62
   212
  5
20C
 10
223.078833
 20
-822.300917
 30
0.0
 11
223.078833
 21
-823.050917
 31
0.0
  0
LINE
  8
1
  6
CONTINUOUS
 62
   212
  5
20D
 10
225.078833
 20
-822.300917
 30
0.0
 11
225.078833
 21
-823.050917
 31
0.0
  0
LINE
  8
1
  6
CONTINUOUS
 62
   212
  5
20E
 10
190.54225
 20
-823.800917
 30
0.0
 11
190.54225
 21
-826.550917
 31
0.0
  0
LINE
  8
1
  6
CONTINUOUS
 62
   212
  5
20F
 10
191.615333
 20
-823.800917
 30
0.0
 11
191.615333
 21
-826.550917
 31
0.0
  0
LINE
  8
1
  6
CONTINUOUS
 62
   212
  5
210
 10
223.54225
 20
-823.800917
 30
0.0
 11
223.54225
 21
-826.550917
 31
0.0
  0
LINE
  8
1
  6
CONTINUOUS
 62
   212
  5
211
 10
224.615333
 20
-823.800917
 30
0.0
 11
224.615333
 21
-826.550917
 31
0.0
  0
LINE
  8
1
  6
CONTINUOUS
 62
   212
  5
212
 10
190.54225
 20
-823.050917
 30
0.0
 11
190.54225
 21
-821.550917
 31
0.0
  0
LINE
  8
1
  6
CONTINUOUS
 62
   212
  5
213
 10
191.615333
 20
-823.050917
 30
0.0
 11
191.615333
 21
-821.550917
 31
0.0
  0
LINE
  8
1
  6
CONTINUOUS
 62
   212
  5
214
 10
190.54225
 20
-821.550917
 30
0.0
 11
191.615333
 21
-821.550917
 31
0.0
  0
LINE
  8
1
  6
CONTINUOUS
 62
   212
  5
215
 10
223.54225
 20
-823.050917
 30
0.0
 11
223.54225
 21
-821.550917
 31
0.0
  0
LINE
  8
1
  6
CONTINUOUS
 62
   212
  5
216
 10
224.615333
 20
-823.050917
 30
0.0
 11
224.615333
 21
-821.550917
 31
0.0
  0
LINE
  8
1
  6
CONTINUOUS
 62
   212
  5
217
 10
223.54225
 20
-821.550917
 30
0.0
 11
224.615333
 21
-821.550917
 31
0.0
  0
LINE
  8
1
  6
CONTINUOUS
 62
   212
  5
218
 10
190.54225
 20
-824.300917
 30
0.0
 11
191.615333
 21
-824.300917
 31
0.0
  0
LINE
  8
1
  6
CONTINUOUS
 62
   212
  5
219
 10
190.54225
 20
-824.800917
 30
0.0
 11
191.615333
 21
-824.800917
 31
0.0
  0
LINE
  8
1
  6
CONTINUOUS
 62
   212
  5
21A
 10
190.54225
 20
-825.300917
 30
0.0
 11
191.615333
 21
-825.300917
 31
0.0
  0
LINE
  8
1
  6
CONTINUOUS
 62
   212
  5
21B
 10
190.54225
 20
-825.800917
 30
0.0
 11
191.615333
 21
-825.800917
 31
0.0
  0
LINE
  8
1
  6
CONTINUOUS
 62
   212
  5
21C
 10
190.54225
 20
-826.300917
 30
0.0
 11
191.615333
 21
-826.300917
 31
0.0
  0
LINE
  8
1
  6
CONTINUOUS
 62
   212
  5
21D
 10
190.79225
 20
-824.050917
 30
0.0
 11
191.365333
 21
-824.050917
 31
0.0
  0
LINE
  8
1
  6
CONTINUOUS
 62
   212
  5
21E
 10
190.79225
 20
-824.550917
 30
0.0
 11
191.365333
 21
-824.550917
 31
0.0
  0
LINE
  8
1
  6
CONTINUOUS
 62
   212
  5
21F
 10
190.79225
 20
-825.050917
 30
0.0
 11
191.365333
 21
-825.050917
 31
0.0
  0
LINE
  8
1
  6
CONTINUOUS
 62
   212
  5
220
 10
190.79225
 20
-825.550917
 30
0.0
 11
191.365333
 21
-825.550917
 31
0.0
  0
LINE
  8
1
  6
CONTINUOUS
 62
   212
  5
221
 10
190.79225
 20
-826.050917
 30
0.0
 11
191.365333
 21
-826.050917
 31
0.0
  0
LINE
  8
1
  6
CONTINUOUS
 62
   212
  5
222
 10
223.79225
 20
-824.050917
 30
0.0
 11
224.365333
 21
-824.050917
 31
0.0
  0
LINE
  8
1
  6
CONTINUOUS
 62
   212
  5
223
 10
223.54225
 20
-824.300917
 30
0.0
 11
224.615333
 21
-824.300917
 31
0.0
  0
LINE
  8
1
  6
CONTINUOUS
 62
   212
  5
224
 10
223.79225
 20
-824.550917
 30
0.0
 11
224.365333
 21
-824.550917
 31
0.0
  0
LINE
  8
1
  6
CONTINUOUS
 62
   212
  5
225
 10
223.54225
 20
-824.800917
 30
0.0
 11
224.615333
 21
-824.800917
 31
0.0
  0
LINE
  8
1
  6
CONTINUOUS
 62
   212
  5
226
 10
223.79225
 20
-825.050917
 30
0.0
 11
224.365333
 21
-825.050917
 31
0.0
  0
LINE
  8
1
  6
CONTINUOUS
 62
   212
  5
227
 10
223.54225
 20
-825.300917
 30
0.0
 11
224.615333
 21
-825.300917
 31
0.0
  0
LINE
  8
1
  6
CONTINUOUS
 62
   212
  5
228
 10
223.79225
 20
-825.550917
 30
0.0
 11
224.365333
 21
-825.550917
 31
0.0
  0
LINE
  8
1
  6
CONTINUOUS
 62
   212
  5
229
 10
223.54225
 20
-825.800917
 30
0.0
 11
224.615333
 21
-825.800917
 31
0.0
  0
LINE
  8
1
  6
CONTINUOUS
 62
   212
  5
22A
 10
223.79225
 20
-826.050917
 30
0.0
 11
224.365333
 21
-826.050917
 31
0.0
  0
LINE
  8
1
  6
CONTINUOUS
 62
   212
  5
22B
 10
223.54225
 20
-826.300917
 30
0.0
 11
224.615333
 21
-826.300917
 31
0.0
  0
LINE
  8
1
  6
CONTINUOUS
 62
     7
  5
22C
 10
194.578833
 20
-827.550917
 30
0.0
 11
194.578833
 21
-828.050917
 31
0.0
  0
LINE
  8
1
  6
CONTINUOUS
 62
     7
  5
22D
 10
220.578833
 20
-827.550917
 30
0.0
 11
220.578833
 21
-828.050917
 31
0.0
  0
LINE
  8
1
  6
CONTINUOUS
 62
   212
  5
22E
 10
194.04225
 20
-829.050917
 30
0.0
 11
195.115333
 21
-829.050917
 31
0.0
  0
LINE
  8
1
  6
CONTINUOUS
 62
   212
  5
22F
 10
193.578833
 20
-829.800917
 30
0.0
 11
195.578833
 21
-829.800917
 31
0.0
  0
LINE
  8
1
  6
CONTINUOUS
 62
   212
  5
230
 10
193.578833
 20
-829.800917
 30
0.0
 11
193.578833
 21
-830.550917
 31
0.0
  0
LINE
  8
1
  6
CONTINUOUS
 62
   212
  5
231
 10
195.578833
 20
-829.800917
 30
0.0
 11
195.578833
 21
-830.550917
 31
0.0
  0
LINE
  8
1
  6
CONTINUOUS
 62
   212
  5
232
 10
194.04225
 20
-830.550917
 30
0.0
 11
194.04225
 21
-829.050917
 31
0.0
  0
LINE
  8
1
  6
CONTINUOUS
 62
   212
  5
233
 10
195.115333
 20
-830.550917
 30
0.0
 11
195.115333
 21
-829.050917
 31
0.0
  0
LINE
  8
1
  6
CONTINUOUS
 62
   212
  5
234
 10
220.04225
 20
-829.050917
 30
0.0
 11
221.115333
 21
-829.050917
 31
0.0
  0
LINE
  8
1
  6
CONTINUOUS
 62
   212
  5
235
 10
219.578833
 20
-829.800917
 30
0.0
 11
221.578833
 21
-829.800917
 31
0.0
  0
LINE
  8
1
  6
CONTINUOUS
 62
   212
  5
236
 10
219.578833
 20
-829.800917
 30
0.0
 11
219.578833
 21
-830.550917
 31
0.0
  0
LINE
  8
1
  6
CONTINUOUS
 62
   212
  5
237
 10
221.578833
 20
-829.800917
 30
0.0
 11
221.578833
 21
-830.550917
 31
0.0
  0
LINE
  8
1
  6
CONTINUOUS
 62
   212
  5
238
 10
220.04225
 20
-830.550917
 30
0.0
 11
220.04225
 21
-829.050917
 31
0.0
  0
LINE
  8
1
  6
CONTINUOUS
 62
   212
  5
239
 10
221.115333
 20
-830.550917
 30
0.0
 11
221.115333
 21
-829.050917
 31
0.0
  0
LINE
  8
1
  6
CONTINUOUS
 62
   212
  5
23A
 10
193.578833
 20
-833.300917
 30
0.0
 11
195.578833
 21
-833.300917
 31
0.0
  0
LINE
  8
1
  6
CONTINUOUS
 62
   212
  5
23B
 10
193.578833
 20
-833.300917
 30
0.0
 11
193.578833
 21
-832.550917
 31
0.0
  0
LINE
  8
1
  6
CONTINUOUS
 62
   212
  5
23C
 10
195.578833
 20
-833.300917
 30
0.0
 11
195.578833
 21
-832.550917
 31
0.0
  0
LINE
  8
1
  6
CONTINUOUS
 62
   212
  5
23D
 10
219.578833
 20
-833.300917
 30
0.0
 11
221.578833
 21
-833.300917
 31
0.0
  0
LINE
  8
1
  6
CONTINUOUS
 62
   212
  5
23E
 10
219.578833
 20
-833.300917
 30
0.0
 11
219.578833
 21
-832.550917
 31
0.0
  0
LINE
  8
1
  6
CONTINUOUS
 62
   212
  5
23F
 10
221.578833
 20
-833.300917
 30
0.0
 11
221.578833
 21
-832.550917
 31
0.0
  0
LINE
  8
1
  6
CONTINUOUS
 62
   212
  5
240
 10
194.04225
 20
-832.550917
 30
0.0
 11
194.04225
 21
-833.300917
 31
0.0
  0
LINE
  8
1
  6
CONTINUOUS
 62
   212
  5
241
 10
195.115333
 20
-832.550917
 30
0.0
 11
195.115333
 21
-833.300917
 31
0.0
  0
LINE
  8
1
  6
CONTINUOUS
 62
   212
  5
242
 10
220.04225
 20
-832.550917
 30
0.0
 11
220.04225
 21
-833.300917
 31
0.0
  0
LINE
  8
1
  6
CONTINUOUS
 62
   212
  5
243
 10
221.115333
 20
-832.550917
 30
0.0
 11
221.115333
 21
-833.300917
 31
0.0
  0
LINE
  8
1
  6
CONTINUOUS
 62
     7
  5
244
 10
207.578833
 20
-832.050917
 30
0.0
 11
207.578833
 21
-838.550917
 31
0.0
  0
LINE
  8
1
  6
CONTINUOUS
 62
     7
  5
245
 10
207.578833
 20
-823.050917
 30
0.0
 11
207.578833
 21
-828.800917
 31
0.0
  0
LINE
  8
1
  6
CONTINUOUS
 62
     7
  5
246
 10
207.578833
 20
-829.800917
 30
0.0
 11
207.578833
 21
-831.050917
 31
0.0
  0
LINE
  8
1
  6
CONTINUOUS
 62
     7
  5
247
 10
237.578833
 20
-833.550917
 30
0.0
 11
237.578833
 21
-856.550917
 31
0.0
  0
LINE
  8
1
  6
CONTINUOUS
 62
     7
  5
248
 10
187.578833
 20
-833.550917
 30
0.0
 11
187.578833
 21
-848.550917
 31
0.0
  0
LINE
  8
1
  6
CONTINUOUS
 62
     7
  5
249
 10
191.078833
 20
-833.550917
 30
0.0
 11
191.078833
 21
-856.550917
 31
0.0
  0
LINE
  8
1
  6
CONTINUOUS
 62
     7
  5
24A
 10
224.078833
 20
-833.550917
 30
0.0
 11
224.078833
 21
-856.550917
 31
0.0
  0
LINE
  8
1
  6
CONTINUOUS
 62
     7
  5
24B
 10
220.578833
 20
-834.300917
 30
0.0
 11
220.578833
 21
-856.550917
 31
0.0
  0
LINE
  8
1
  6
CONTINUOUS
 62
     7
  5
24C
 10
177.578833
 20
-855.550917
 30
0.0
 11
191.078833
 21
-855.550917
 31
0.0
  0
LINE
  8
1
  6
CONTINUOUS
 62
     7
  5
24D
 10
194.578833
 20
-855.550917
 30
0.0
 11
199.578833
 21
-855.550917
 31
0.0
  0
LINE
  8
1
  6
CONTINUOUS
 62
     7
  5
24E
 10
237.578833
 20
-855.550917
 30
0.0
 11
224.078833
 21
-855.550917
 31
0.0
  0
LINE
  8
1
  6
CONTINUOUS
 62
     7
  5
24F
 10
220.578833
 20
-855.550917
 30
0.0
 11
215.578833
 21
-855.550917
 31
0.0
  0
LINE
  8
1
  6
CONTINUOUS
 62
     7
  5
250
 10
187.578833
 20
-847.550917
 30
0.0
 11
182.578833
 21
-847.550917
 31
0.0
  0
LINE
  8
1
  6
CONTINUOUS
 62
     7
  5
251
 10
191.078833
 20
-847.550917
 30
0.0
 11
196.078833
 21
-847.550917
 31
0.0
  0
LINE
  8
1
  6
CONTINUOUS
 62
     7
  5
252
 10
194.578833
 20
-834.300917
 30
0.0
 11
194.578833
 21
-846.550917
 31
0.0
  0
LINE
  8
1
  6
CONTINUOUS
 62
     7
  5
253
 10
194.578833
 20
-848.550917
 30
0.0
 11
194.578833
 21
-856.550917
 31
0.0
  0
INSERT
  8
1
  6
CONTINUOUS
 62
     1
  5
254
  2
LDR
 10
187.578833
 20
-847.550917
 30
0.0
 41
240.0
 42
240.0
210
0.0
220
0.0
230
1.0
  0
INSERT
  8
1
  6
CONTINUOUS
 62
     1
  5
255
  2
LDR
 10
187.578833
 20
-847.550917
 30
0.0
 41
240.0
 42
240.0
210
0.0
220
0.0
230
1.0
  0
INSERT
  8
1
  6
CONTINUOUS
 62
     1
  5
256
  2
LDR
 10
191.078833
 20
-847.550917
 30
0.0
 41
240.0
 42
240.0
 50
180.0
210
0.0
220
0.0
230
1.0
  0
INSERT
  8
1
  6
CONTINUOUS
 62
     1
  5
257
  2
LDR
 10
191.078833
 20
-847.550917
 30
0.0
 41
240.0
 42
240.0
 50
180.0
210
0.0
220
0.0
230
1.0
  0
INSERT
  8
1
  6
CONTINUOUS
 62
     1
  5
258
  2
LDR
 10
194.578833
 20
-855.550917
 30
0.0
 41
240.0
 42
240.0
 50
180.0
210
0.0
220
0.0
230
1.0
  0
INSERT
  8
1
  6
CONTINUOUS
 62
     1
  5
259
  2
LDR
 10
194.578833
 20
-855.550917
 30
0.0
 41
240.0
 42
240.0
 50
180.0
210
0.0
220
0.0
230
1.0
  0
INSERT
  8
1
  6
CONTINUOUS
 62
     1
  5
25A
  2
LDR
 10
191.078833
 20
-855.550917
 30
0.0
 41
240.0
 42
240.0
210
0.0
220
0.0
230
1.0
  0
INSERT
  8
1
  6
CONTINUOUS
 62
     1
  5
25B
  2
LDR
 10
191.078833
 20
-855.550917
 30
0.0
 41
240.0
 42
240.0
210
0.0
220
0.0
230
1.0
  0
INSERT
  8
1
  6
CONTINUOUS
 62
     1
  5
25C
  2
LDR
 10
177.578833
 20
-855.550917
 30
0.0
 41
240.0
 42
240.0
 50
180.0
210
0.0
220
0.0
230
1.0
  0
INSERT
  8
1
  6
CONTINUOUS
 62
     1
  5
25D
  2
LDR
 10
177.578833
 20
-855.550917
 30
0.0
 41
240.0
 42
240.0
 50
180.0
210
0.0
220
0.0
230
1.0
  0
INSERT
  8
1
  6
CONTINUOUS
 62
     1
  5
25E
  2
LDR
 10
220.578833
 20
-855.550917
 30
0.0
 41
240.0
 42
240.0
210
0.0
220
0.0
230
1.0
  0
INSERT
  8
1
  6
CONTINUOUS
 62
     1
  5
25F
  2
LDR
 10
220.578833
 20
-855.550917
 30
0.0
 41
240.0
 42
240.0
210
0.0
220
0.0
230
1.0
  0
INSERT
  8
1
  6
CONTINUOUS
 62
     1
  5
260
  2
LDR
 10
224.078833
 20
-855.550917
 30
0.0
 41
240.0
 42
240.0
 50
180.0
210
0.0
220
0.0
230
1.0
  0
INSERT
  8
1
  6
CONTINUOUS
 62
     1
  5
261
  2
LDR
 10
224.078833
 20
-855.550917
 30
0.0
 41
240.0
 42
240.0
 50
180.0
210
0.0
220
0.0
230
1.0
  0
INSERT
  8
1
  6
CONTINUOUS
 62
     1
  5
262
  2
LDR
 10
237.578833
 20
-855.550917
 30
0.0
 41
240.0
 42
240.0
210
0.0
220
0.0
230
1.0
  0
LINE
  8
1
  6
CONTINUOUS
 62
   212
  5
263
 10
256.078833
 20
-761.550917
 30
0.0
 11
256.078833
 21
-759.050917
 31
0.0
  0
ARC
  8
1
  6
CONTINUOUS
 62
   212
  5
264
 10
255.702258
 20
-759.166001
 30
0.0
 40
0.393768
 50
16.993586
 51
108.266919
210
0.0
220
0.0
230
1.0
  0
LINE
  8
1
  6
CONTINUOUS
 62
   212
  5
265
 10
259.078833
 20
-762.300917
 30
0.0
 11
255.578833
 21
-762.300917
 31
0.0
  0
LINE
  8
1
  6
CONTINUOUS
 62
   212
  5
266
 10
259.078833
 20
-762.300917
 30
0.0
 11
259.078833
 21
-764.550917
 31
0.0
  0
LINE
  8
1
  6
CONTINUOUS
 62
   212
  5
267
 10
259.828833
 20
-762.300917
 30
0.0
 11
259.828833
 21
-763.800917
 31
0.0
  0
LINE
  8
1
  6
CONTINUOUS
 62
   212
  5
268
 10
259.828833
 20
-762.300917
 30
0.0
 11
261.078833
 21
-762.300917
 31
0.0
  0
LINE
  8
1
  6
CONTINUOUS
 62
   212
  5
269
 10
259.828833
 20
-763.800917
 30
0.0
 11
261.078833
 21
-763.800917
 31
0.0
  0
LINE
  8
1
  6
CONTINUOUS
 62
   212
  5
26A
 10
259.078833
 20
-764.550917
 30
0.0
 11
261.078833
 21
-764.550917
 31
0.0
  0
LINE
  8
1
  6
CONTINUOUS
 62
   212
  5
26B
 10
261.078833
 20
-758.050917
 30
0.0
 11
261.078833
 21
-813.550917
 31
0.0
  0
LINE
  8
1
  6
CONTINUOUS
 62
     7
  5
26C
 10
259.078833
 20
-760.550917
 30
0.0
 11
258.328833
 21
-760.550917
 31
0.0
  0
LINE
  8
1
  6
CONTINUOUS
 62
     7
  5
26D
 10
253.328833
 20
-760.550917
 30
0.0
 11
251.578833
 21
-760.550917
 31
0.0
  0
LINE
  8
1
  6
CONTINUOUS
 62
   212
  5
26E
 10
264.078833
 20
-758.050917
 30
0.0
 11
264.078833
 21
-813.550917
 31
0.0
  0
LINE
  8
1
  6
CONTINUOUS
 62
   212
  5
26F
 10
261.078833
 20
-758.050917
 30
0.0
 11
264.078833
 21
-758.050917
 31
0.0
  0
LINE
  8
1
  6
CONTINUOUS
 62
   212
  5
270
 10
261.078833
 20
-792.550917
 30
0.0
 11
256.078833
 21
-792.550917
 31
0.0
  0
LINE
  8
1
  6
CONTINUOUS
 62
   212
  5
271
 10
253.578833
 20
-790.550917
 30
0.0
 11
254.578833
 21
-790.550917
 31
0.0
  0
LINE
  8
1
  6
CONTINUOUS
 62
   212
  5
272
 10
253.578833
 20
-792.550917
 30
0.0
 11
254.578833
 21
-792.550917
 31
0.0
  0
LINE
  8
1
  6
CONTINUOUS
 62
   212
  5
273
 10
253.578833
 20
-792.550917
 30
0.0
 11
253.578833
 21
-790.550917
 31
0.0
  0
LINE
  8
1
  6
CONTINUOUS
 62
   212
  5
274
 10
257.078833
 20
-792.550917
 30
0.0
 11
257.078833
 21
-790.550917
 31
0.0
  0
LINE
  8
1
  6
CONTINUOUS
 62
   212
  5
275
 10
257.078833
 20
-790.550917
 30
0.0
 11
256.078833
 21
-790.550917
 31
0.0
  0
LINE
  8
1
  6
CONTINUOUS
 62
   212
  5
276
 10
256.078833
 20
-792.050917
 30
0.0
 11
258.078833
 21
-792.050917
 31
0.0
  0
LINE
  8
1
  6
CONTINUOUS
 62
   212
  5
277
 10
256.078833
 20
-791.050917
 30
0.0
 11
258.078833
 21
-791.050917
 31
0.0
  0
LINE
  8
1
  6
CONTINUOUS
 62
   212
  5
278
 10
258.078833
 20
-792.050917
 30
0.0
 11
258.078833
 21
-791.050917
 31
0.0
  0
LINE
  8
1
  6
CONTINUOUS
 62
   212
  5
279
 10
256.078833
 20
-792.550917
 30
0.0
 11
256.078833
 21
-790.050917
 31
0.0
  0
ARC
  8
1
  6
CONTINUOUS
 62
   212
  5
27A
 10
255.702258
 20
-790.166001
 30
0.0
 40
0.393768
 50
16.993586
 51
108.266919
210
0.0
220
0.0
230
1.0
  0
LINE
  8
1
  6
CONTINUOUS
 62
   212
  5
27B
 10
259.078833
 20
-793.300917
 30
0.0
 11
255.578833
 21
-793.300917
 31
0.0
  0
LINE
  8
1
  6
CONTINUOUS
 62
   212
  5
27C
 10
259.078833
 20
-793.300917
 30
0.0
 11
259.078833
 21
-795.550917
 31
0.0
  0
LINE
  8
1
  6
CONTINUOUS
 62
   212
  5
27D
 10
259.828833
 20
-793.300917
 30
0.0
 11
259.828833
 21
-794.800917
 31
0.0
  0
LINE
  8
1
  6
CONTINUOUS
 62
   212
  5
27E
 10
259.828833
 20
-793.300917
 30
0.0
 11
261.078833
 21
-793.300917
 31
0.0
  0
LINE
  8
1
  6
CONTINUOUS
 62
   212
  5
27F
 10
259.828833
 20
-794.800917
 30
0.0
 11
261.078833
 21
-794.800917
 31
0.0
  0
LINE
  8
1
  6
CONTINUOUS
 62
   212
  5
280
 10
259.078833
 20
-795.550917
 30
0.0
 11
261.078833
 21
-795.550917
 31
0.0
  0
LINE
  8
1
  6
CONTINUOUS
 62
     7
  5
281
 10
259.078833
 20
-791.550917
 30
0.0
 11
258.328833
 21
-791.550917
 31
0.0
  0
LINE
  8
1
  6
CONTINUOUS
 62
     7
  5
282
 10
253.328833
 20
-791.550917
 30
0.0
 11
251.578833
 21
-791.550917
 31
0.0
  0
LINE
  8
1
  6
CONTINUOUS
 62
   212
  5
283
 10
261.828833
 20
-758.050917
 30
0.0
 11
261.828833
 21
-813.550917
 31
0.0
  0
LINE
  8
1
  6
HIDDEN
 62
   212
  5
284
 10
263.328833
 20
-758.050917
 30
0.0
 11
263.328833
 21
-813.550917
 31
0.0
  0
LINE
  8
1
  6
CONTINUOUS
 62
   212
  5
285
 10
266.078833
 20
-763.550917
 30
0.0
 11
266.078833
 21
-762.550917
 31
0.0
  0
LINE
  8
1
  6
CONTINUOUS
 62
   212
  5
286
 10
265.078833
 20
-764.050917
 30
0.0
 11
265.078833
 21
-762.050917
 31
0.0
  0
LINE
  8
1
  6
CONTINUOUS
 62
   212
  5
287
 10
265.078833
 20
-762.050917
 30
0.0
 11
264.078833
 21
-762.050917
 31
0.0
  0
LINE
  8
1
  6
CONTINUOUS
 62
   212
  5
288
 10
264.078833
 20
-763.550917
 30
0.0
 11
266.078833
 21
-763.550917
 31
0.0
  0
LINE
  8
1
  6
CONTINUOUS
 62
   212
  5
289
 10
264.078833
 20
-762.550917
 30
0.0
 11
266.078833
 21
-762.550917
 31
0.0
  0
LINE
  8
1
  6
CONTINUOUS
 62
   212
  5
28A
 10
265.078833
 20
-764.050917
 30
0.0
 11
264.078833
 21
-764.050917
 31
0.0
  0
LINE
  8
1
  6
HIDDEN
 62
   212
  5
28B
 10
264.078833
 20
-762.550917
 30
0.0
 11
261.828833
 21
-762.550917
 31
0.0
  0
LINE
  8
1
  6
HIDDEN
 62
   212
  5
28C
 10
264.078833
 20
-763.550917
 30
0.0
 11
261.828833
 21
-763.550917
 31
0.0
  0
LINE
  8
1
  6
CONTINUOUS
 62
   212
  5
28D
 10
266.078833
 20
-794.550917
 30
0.0
 11
266.078833
 21
-793.550917
 31
0.0
  0
LINE
  8
1
  6
CONTINUOUS
 62
   212
  5
28E
 10
265.078833
 20
-795.050917
 30
0.0
 11
265.078833
 21
-793.050917
 31
0.0
  0
LINE
  8
1
  6
CONTINUOUS
 62
   212
  5
28F
 10
265.078833
 20
-793.050917
 30
0.0
 11
264.078833
 21
-793.050917
 31
0.0
  0
LINE
  8
1
  6
CONTINUOUS
 62
   212
  5
290
 10
264.078833
 20
-794.550917
 30
0.0
 11
266.078833
 21
-794.550917
 31
0.0
  0
LINE
  8
1
  6
CONTINUOUS
 62
   212
  5
291
 10
264.078833
 20
-793.550917
 30
0.0
 11
266.078833
 21
-793.550917
 31
0.0
  0
LINE
  8
1
  6
CONTINUOUS
 62
   212
  5
292
 10
265.078833
 20
-795.050917
 30
0.0
 11
264.078833
 21
-795.050917
 31
0.0
  0
LINE
  8
1
  6
HIDDEN
 62
   212
  5
293
 10
264.078833
 20
-793.550917
 30
0.0
 11
261.828833
 21
-793.550917
 31
0.0
  0
LINE
  8
1
  6
HIDDEN
 62
   212
  5
294
 10
264.078833
 20
-794.550917
 30
0.0
 11
261.828833
 21
-794.550917
 31
0.0
  0
LINE
  8
1
  6
CONTINUOUS
 62
     7
  5
295
 10
342.561333
 20
-748.050917
 30
0.0
 11
342.561333
 21
-744.050917
 31
0.0
  0
LINE
  8
1
  6
CONTINUOUS
 62
     7
  5
296
 10
342.561333
 20
-751.050917
 30
0.0
 11
342.561333
 21
-777.550917
 31
0.0
  0
CIRCLE
  8
1
  6
CONTINUOUS
 62
   212
  5
297
 10
342.561333
 20
-733.050917
 30
0.0
 40
0.75
210
0.0
220
0.0
230
1.0
  0
CIRCLE
  8
1
  6
CONTINUOUS
 62
   212
  5
298
 10
342.561333
 20
-763.550917
 30
0.0
 40
0.75
210
0.0
220
0.0
230
1.0
  0
LINE
  8
1
  6
CONTINUOUS
 62
     7
  5
299
 10
338.811333
 20
-763.550917
 30
0.0
 11
346.311333
 21
-763.550917
 31
0.0
  0
LINE
  8
1
  6
CONTINUOUS
 62
     7
  5
29A
 10
342.561333
 20
-721.050917
 30
0.0
 11
342.561333
 21
-741.050917
 31
0.0
  0
LINE
  8
1
  6
CONTINUOUS
 62
     7
  5
29B
 10
338.875417
 20
-732.876083
 30
0.0
 11
346.375417
 21
-732.876083
 31
0.0
  0
LINE
  8
1
  6
DASHED
 62
   212
  5
29C
 10
339.625417
 20
-729.876083
 30
0.0
 11
345.625417
 21
-729.876083
 31
0.0
  0
LINE
  8
1
  6
DASHED
 62
   212
  5
29D
 10
339.625417
 20
-729.876083
 30
0.0
 11
339.625417
 21
-772.510917
 31
0.0
  0
LINE
  8
1
  6
DASHED
 62
   212
  5
29E
 10
345.625417
 20
-729.876083
 30
0.0
 11
345.625417
 21
-772.290917
 31
0.0
  0
LINE
  8
1
  6
DASHED
 62
   212
  5
29F
 10
341.125417
 20
-729.876083
 30
0.0
 11
341.125417
 21
-775.085917
 31
0.0
  0
LINE
  8
1
  6
DASHED
 62
   212
  5
2A0
 10
344.125417
 20
-729.876083
 30
0.0
 11
344.125417
 21
-774.865917
 31
0.0
  0
LINE
  8
1
  6
CONTINUOUS
 62
   212
  5
2A1
 10
339.625417
 20
-772.510917
 30
0.0
 11
339.625417
 21
-789.085917
 31
0.0
  0
LINE
  8
1
  6
CONTINUOUS
 62
   212
  5
2A2
 10
341.125417
 20
-775.085917
 30
0.0
 11
341.125417
 21
-789.085917
 31
0.0
  0
LINE
  8
1
  6
CONTINUOUS
 62
   212
  5
2A3
 10
344.125417
 20
-774.865917
 30
0.0
 11
344.125417
 21
-789.085917
 31
0.0
  0
LINE
  8
1
  6
CONTINUOUS
 62
   212
  5
2A4
 10
345.625417
 20
-772.290917
 30
0.0
 11
345.625417
 21
-789.085917
 31
0.0
  0
LINE
  8
1
  6
CONTINUOUS
 62
   212
  5
2A5
 10
312.561333
 20
-805.332917
 30
0.0
 11
372.561333
 21
-805.332917
 31
0.0
  0
LINE
  8
1
  6
CONTINUOUS
 62
   212
  5
2A6
 10
312.561333
 20
-806.332917
 30
0.0
 11
372.561333
 21
-806.332917
 31
0.0
  0
LINE
  8
1
  6
CONTINUOUS
 62
   212
  5
2A7
 10
312.561333
 20
-805.332917
 30
0.0
 11
312.561333
 21
-806.332917
 31
0.0
  0
LINE
  8
1
  6
CONTINUOUS
 62
   212
  5
2A8
 10
372.561333
 20
-805.332917
 30
0.0
 11
372.561333
 21
-806.332917
 31
0.0
  0
LINE
  8
1
  6
DASHED
 62
     7
  5
2A9
 10
342.561333
 20
-777.550917
 30
0.0
 11
342.561333
 21
-790.562667
 31
0.0
  0
LINE
  8
1
  6
CONTINUOUS
 62
     7
  5
2AA
 10
342.561333
 20
-796.832917
 30
0.0
 11
342.561333
 21
-812.332917
 31
0.0
  0
LINE
  8
1
  6
CONTINUOUS
 62
   212
  5
2AB
 10
339.561333
 20
-804.332917
 30
0.0
 11
339.561333
 21
-805.332917
 31
0.0
  0
LINE
  8
1
  6
CONTINUOUS
 62
   212
  5
2AC
 10
345.561333
 20
-804.332917
 30
0.0
 11
345.561333
 21
-805.332917
 31
0.0
  0
LINE
  8
1
  6
CONTINUOUS
 62
   212
  5
2AD
 10
339.561333
 20
-804.332917
 30
0.0
 11
340.811333
 21
-804.332917
 31
0.0
  0
LINE
  8
1
  6
CONTINUOUS
 62
   212
  5
2AE
 10
345.561333
 20
-804.332917
 30
0.0
 11
344.311333
 21
-804.332917
 31
0.0
  0
LINE
  8
1
  6
CONTINUOUS
 62
   212
  5
2AF
 10
341.061333
 20
-801.332917
 30
0.0
 11
344.061333
 21
-801.332917
 31
0.0
  0
LINE
  8
1
  6
CONTINUOUS
 62
   212
  5
2B0
 10
341.061333
 20
-801.332917
 30
0.0
 11
340.811333
 21
-804.332917
 31
0.0
  0
LINE
  8
1
  6
CONTINUOUS
 62
   212
  5
2B1
 10
344.061333
 20
-801.332917
 30
0.0
 11
344.311333
 21
-804.332917
 31
0.0
  0
LINE
  8
1
  6
CONTINUOUS
 62
   212
  5
2B2
 10
341.751333
 20
-802.082917
 30
0.0
 11
343.371167
 21
-802.082917
 31
0.0
  0
LINE
  8
1
  6
CONTINUOUS
 62
   212
  5
2B3
 10
341.751333
 20
-802.082917
 30
0.0
 11
341.4805
 21
-805.332917
 31
0.0
  0
LINE
  8
1
  6
CONTINUOUS
 62
   212
  5
2B4
 10
343.371167
 20
-802.082917
 30
0.0
 11
343.642
 21
-805.332917
 31
0.0
  0
LINE
  8
1
  6
CONTINUOUS
 62
   212
  5
2B5
 10
341.584667
 20
-807.082917
 30
0.0
 11
343.537833
 21
-807.082917
 31
0.0
  0
LINE
  8
1
  6
CONTINUOUS
 62
   212
  5
2B6
 10
341.584667
 20
-807.082917
 30
0.0
 11
341.584667
 21
-806.332917
 31
0.0
  0
LINE
  8
1
  6
CONTINUOUS
 62
   212
  5
2B7
 10
343.537833
 20
-807.082917
 30
0.0
 11
343.537833
 21
-806.332917
 31
0.0
  0
LINE
  8
1
  6
CONTINUOUS
 62
   212
  5
2B8
 10
341.584667
 20
-800.567917
 30
0.0
 11
343.537833
 21
-800.567917
 31
0.0
  0
LINE
  8
1
  6
CONTINUOUS
 62
   212
  5
2B9
 10
341.584667
 20
-800.567917
 30
0.0
 11
341.584667
 21
-801.317917
 31
0.0
  0
LINE
  8
1
  6
CONTINUOUS
 62
   212
  5
2BA
 10
343.537833
 20
-800.567917
 30
0.0
 11
343.537833
 21
-801.317917
 31
0.0
  0
LINE
  8
1
  6
CONTINUOUS
 62
   212
  5
2BB
 10
342.084667
 20
-799.567917
 30
0.0
 11
342.084667
 21
-800.567917
 31
0.0
  0
LINE
  8
1
  6
CONTINUOUS
 62
   212
  5
2BC
 10
343.037833
 20
-799.567917
 30
0.0
 11
343.037833
 21
-800.567917
 31
0.0
  0
LINE
  8
1
  6
CONTINUOUS
 62
   212
  5
2BD
 10
342.084667
 20
-799.567917
 30
0.0
 11
343.037833
 21
-799.567917
 31
0.0
  0
LINE
  8
1
  6
CONTINUOUS
 62
   212
  5
2BE
 10
342.084667
 20
-802.082917
 30
0.0
 11
342.084667
 21
-805.332917
 31
0.0
  0
LINE
  8
1
  6
CONTINUOUS
 62
   212
  5
2BF
 10
343.037833
 20
-802.082917
 30
0.0
 11
343.037833
 21
-805.332917
 31
0.0
  0
LINE
  8
1
  6
CONTINUOUS
 62
   212
  5
2C0
 10
389.561333
 20
-777.550917
 30
0.0
 11
389.561333
 21
-726.050917
 31
0.0
  0
LINE
  8
1
  6
CONTINUOUS
 62
   212
  5
2C1
 10
390.561333
 20
-786.050917
 30
0.0
 11
390.561333
 21
-726.050917
 31
0.0
  0
LINE
  8
1
  6
CONTINUOUS
 62
   212
  5
2C2
 10
389.561333
 20
-726.050917
 30
0.0
 11
390.561333
 21
-726.050917
 31
0.0
  0
LINE
  8
1
  6
CONTINUOUS
 62
   212
  5
2C3
 10
391.561333
 20
-786.050917
 30
0.0
 11
391.561333
 21
-731.050917
 31
0.0
  0
LINE
  8
1
  6
CONTINUOUS
 62
   212
  5
2C4
 10
393.561333
 20
-786.050917
 30
0.0
 11
393.561333
 21
-731.050917
 31
0.0
  0
LINE
  8
1
  6
HIDDEN
 62
   212
  5
2C5
 10
393.061333
 20
-786.050917
 30
0.0
 11
393.061333
 21
-731.050917
 31
0.0
  0
LINE
  8
1
  6
CONTINUOUS
 62
   212
  5
2C6
 10
393.561333
 20
-731.050917
 30
0.0
 11
390.561333
 21
-731.050917
 31
0.0
  0
LINE
  8
1
  6
CONTINUOUS
 62
   212
  5
2C7
 10
389.561333
 20
-777.550917
 30
0.0
 11
390.561333
 21
-777.550917
 31
0.0
  0
LINE
  8
1
  6
CONTINUOUS
 62
   212
  5
2C8
 10
388.561333
 20
-764.550917
 30
0.0
 11
389.561333
 21
-764.550917
 31
0.0
  0
LINE
  8
1
  6
CONTINUOUS
 62
   212
  5
2C9
 10
388.561333
 20
-762.550917
 30
0.0
 11
389.561333
 21
-762.550917
 31
0.0
  0
LINE
  8
1
  6
CONTINUOUS
 62
   212
  5
2CA
 10
388.561333
 20
-762.550917
 30
0.0
 11
388.561333
 21
-764.550917
 31
0.0
  0
LINE
  8
1
  6
CONTINUOUS
 62
   212
  5
2CB
 10
394.561333
 20
-762.550917
 30
0.0
 11
394.561333
 21
-764.550917
 31
0.0
  0
LINE
  8
1
  6
CONTINUOUS
 62
   212
  5
2CC
 10
394.561333
 20
-764.550917
 30
0.0
 11
393.561333
 21
-764.550917
 31
0.0
  0
LINE
  8
1
  6
CONTINUOUS
 62
   212
  5
2CD
 10
394.561333
 20
-762.550917
 30
0.0
 11
393.561333
 21
-762.550917
 31
0.0
  0
LINE
  8
1
  6
HIDDEN
 62
   212
  5
2CE
 10
390.561333
 20
-763.050917
 30
0.0
 11
393.061333
 21
-763.050917
 31
0.0
  0
LINE
  8
1
  6
CONTINUOUS
 62
   212
  5
2CF
 10
394.561333
 20
-763.050917
 30
0.0
 11
395.561333
 21
-763.050917
 31
0.0
  0
LINE
  8
1
  6
HIDDEN
 62
   212
  5
2D0
 10
390.561333
 20
-764.050917
 30
0.0
 11
393.061333
 21
-764.050917
 31
0.0
  0
LINE
  8
1
  6
CONTINUOUS
 62
   212
  5
2D1
 10
394.561333
 20
-764.050917
 30
0.0
 11
395.561333
 21
-764.050917
 31
0.0
  0
LINE
  8
1
  6
CONTINUOUS
 62
   212
  5
2D2
 10
395.561333
 20
-763.050917
 30
0.0
 11
395.561333
 21
-764.050917
 31
0.0
  0
LINE
  8
1
  6
CONTINUOUS
 62
     7
  5
2D3
 10
397.561333
 20
-763.550917
 30
0.0
 11
384.561333
 21
-763.550917
 31
0.0
  0
LINE
  8
1
  6
CONTINUOUS
 62
     7
  5
2D4
 10
397.561333
 20
-733.050917
 30
0.0
 11
384.561333
 21
-733.050917
 31
0.0
  0
LINE
  8
1
  6
CONTINUOUS
 62
   212
  5
2D5
 10
388.561333
 20
-732.050917
 30
0.0
 11
389.561333
 21
-732.050917
 31
0.0
  0
LINE
  8
1
  6
CONTINUOUS
 62
   212
  5
2D6
 10
388.561333
 20
-734.050917
 30
0.0
 11
389.561333
 21
-734.050917
 31
0.0
  0
LINE
  8
1
  6
CONTINUOUS
 62
   212
  5
2D7
 10
388.561333
 20
-734.050917
 30
0.0
 11
388.561333
 21
-732.050917
 31
0.0
  0
LINE
  8
1
  6
CONTINUOUS
 62
   212
  5
2D8
 10
394.561333
 20
-734.050917
 30
0.0
 11
394.561333
 21
-732.050917
 31
0.0
  0
LINE
  8
1
  6
CONTINUOUS
 62
   212
  5
2D9
 10
394.561333
 20
-732.050917
 30
0.0
 11
393.561333
 21
-732.050917
 31
0.0
  0
LINE
  8
1
  6
CONTINUOUS
 62
   212
  5
2DA
 10
394.561333
 20
-734.050917
 30
0.0
 11
393.561333
 21
-734.050917
 31
0.0
  0
LINE
  8
1
  6
HIDDEN
 62
   212
  5
2DB
 10
390.561333
 20
-733.550917
 30
0.0
 11
393.061333
 21
-733.550917
 31
0.0
  0
LINE
  8
1
  6
CONTINUOUS
 62
   212
  5
2DC
 10
394.561333
 20
-733.550917
 30
0.0
 11
395.561333
 21
-733.550917
 31
0.0
  0
LINE
  8
1
  6
HIDDEN
 62
   212
  5
2DD
 10
390.561333
 20
-732.550917
 30
0.0
 11
393.061333
 21
-732.550917
 31
0.0
  0
LINE
  8
1
  6
CONTINUOUS
 62
   212
  5
2DE
 10
394.561333
 20
-732.550917
 30
0.0
 11
395.561333
 21
-732.550917
 31
0.0
  0
LINE
  8
1
  6
CONTINUOUS
 62
   212
  5
2DF
 10
395.561333
 20
-733.550917
 30
0.0
 11
395.561333
 21
-732.550917
 31
0.0
  0
LINE
  8
1
  6
CONTINUOUS
 62
     7
  5
2E0
 10
391.561333
 20
-726.050917
 30
0.0
 11
407.561333
 21
-726.050917
 31
0.0
  0
LINE
  8
1
  6
CONTINUOUS
 62
     7
  5
2E1
 10
394.561333
 20
-731.050917
 30
0.0
 11
407.561333
 21
-731.050917
 31
0.0
  0
LINE
  8
1
  6
CONTINUOUS
 62
     7
  5
2E2
 10
406.561333
 20
-721.050917
 30
0.0
 11
406.561333
 21
-726.050917
 31
0.0
  0
LINE
  8
1
  6
CONTINUOUS
 62
     7
  5
2E3
 10
406.561333
 20
-731.050917
 30
0.0
 11
406.561333
 21
-736.050917
 31
0.0
  0
LINE
  8
1
  6
CONTINUOUS
 62
     7
  5
2E4
 10
389.258
 20
-750.77725
 30
0.0
 11
379.266667
 21
-750.77725
 31
0.0
  0
LINE
  8
1
  6
CONTINUOUS
 62
     7
  5
2E5
 10
357.796083
 20
-806.332917
 30
0.0
 11
357.796083
 21
-816.343917
 31
0.0
  0
INSERT
  8
1
  6
CONTINUOUS
 62
     1
  5
2E6
  2
LDR
 10
406.561333
 20
-726.050917
 30
0.0
 41
240.0
 42
240.0
 50
270.0
210
0.0
220
0.0
230
1.0
  0
INSERT
  8
1
  6
CONTINUOUS
 62
     1
  5
2E7
  2
LDR
 10
406.561333
 20
-726.050917
 30
0.0
 41
240.0
 42
240.0
 50
270.0
210
0.0
220
0.0
230
1.0
  0
INSERT
  8
1
  6
CONTINUOUS
 62
     1
  5
2E8
  2
LDR
 10
406.561333
 20
-731.050917
 30
0.0
 41
240.0
 42
240.0
 50
90.0
210
0.0
220
0.0
230
1.0
  0
INSERT
  8
1
  6
CONTINUOUS
 62
     1
  5
2E9
  2
LDR
 10
389.258
 20
-750.77725
 30
0.0
 41
240.0
 42
240.0
210
0.0
220
0.0
230
1.0
  0
INSERT
  8
1
  6
CONTINUOUS
 62
     1
  5
2EA
  2
LDR
 10
389.258
 20
-750.77725
 30
0.0
 41
240.0
 42
240.0
210
0.0
220
0.0
230
1.0
  0
INSERT
  8
1
  6
CONTINUOUS
 62
     1
  5
2EB
  2
LDR
 10
357.796083
 20
-806.332917
 30
0.0
 41
240.0
 42
240.0
 50
90.0
210
0.0
220
0.0
230
1.0
  0
LINE
  8
1
  6
CONTINUOUS
 62
     7
  5
2EC
 10
499.561333
 20
-697.050917
 30
0.0
 11
499.561333
 21
-712.479167
 31
0.0
  0
LINE
  8
1
  6
CONTINUOUS
 62
   212
  5
2ED
 10
469.561333
 20
-805.332917
 30
0.0
 11
529.561333
 21
-805.332917
 31
0.0
  0
LINE
  8
1
  6
CONTINUOUS
 62
   212
  5
2EE
 10
469.561333
 20
-806.332917
 30
0.0
 11
529.561333
 21
-806.332917
 31
0.0
  0
LINE
  8
1
  6
CONTINUOUS
 62
   212
  5
2EF
 10
529.561333
 20
-805.332917
 30
0.0
 11
529.561333
 21
-806.332917
 31
0.0
  0
LINE
  8
1
  6
CONTINUOUS
 62
   212
  5
2F0
 10
546.561333
 20
-777.550917
 30
0.0
 11
546.561333
 21
-726.050917
 31
0.0
  0
LINE
  8
1
  6
CONTINUOUS
 62
   212
  5
2F1
 10
547.561333
 20
-777.550917
 30
0.0
 11
547.561333
 21
-726.050917
 31
0.0
  0
LINE
  8
1
  6
CONTINUOUS
 62
   212
  5
2F2
 10
546.561333
 20
-726.050917
 30
0.0
 11
547.561333
 21
-726.050917
 31
0.0
  0
LINE
  8
1
  6
CONTINUOUS
 62
   212
  5
2F3
 10
546.561333
 20
-777.550917
 30
0.0
 11
547.561333
 21
-777.550917
 31
0.0
  0
LINE
  8
1
  6
CONTINUOUS
 62
   212
  5
2F4
 10
545.561333
 20
-733.428
 30
0.0
 11
546.561333
 21
-733.428
 31
0.0
  0
LINE
  8
1
  6
CONTINUOUS
 62
   212
  5
2F5
 10
545.561333
 20
-735.428
 30
0.0
 11
546.561333
 21
-735.428
 31
0.0
  0
LINE
  8
1
  6
CONTINUOUS
 62
   212
  5
2F6
 10
545.561333
 20
-735.428
 30
0.0
 11
545.561333
 21
-733.428
 31
0.0
  0
LINE
  8
1
  6
CONTINUOUS
 62
   212
  5
2F7
 10
549.061333
 20
-735.428
 30
0.0
 11
549.061333
 21
-733.428
 31
0.0
  0
LINE
  8
1
  6
CONTINUOUS
 62
   212
  5
2F8
 10
549.061333
 20
-733.428
 30
0.0
 11
548.061333
 21
-733.428
 31
0.0
  0
LINE
  8
1
  6
CONTINUOUS
 62
   212
  5
2F9
 10
553.061333
 20
-735.428
 30
0.0
 11
548.061333
 21
-735.428
 31
0.0
  0
LINE
  8
1
  6
CONTINUOUS
 62
   212
  5
2FA
 10
548.061333
 20
-734.928
 30
0.0
 11
550.061333
 21
-734.928
 31
0.0
  0
LINE
  8
1
  6
CONTINUOUS
 62
   212
  5
2FB
 10
548.061333
 20
-733.928
 30
0.0
 11
550.061333
 21
-733.928
 31
0.0
  0
LINE
  8
1
  6
CONTINUOUS
 62
   212
  5
2FC
 10
550.061333
 20
-734.928
 30
0.0
 11
550.061333
 21
-733.928
 31
0.0
  0
LINE
  8
1
  6
CONTINUOUS
 62
     7
  5
2FD
 10
546.561333
 20
-766.739167
 30
0.0
 11
536.57
 21
-766.739167
 31
0.0
  0
LINE
  8
1
  6
CONTINUOUS
 62
     7
  5
2FE
 10
521.430583
 20
-806.332917
 30
0.0
 11
521.430583
 21
-816.343917
 31
0.0
  0
INSERT
  8
1
  6
CONTINUOUS
 62
     1
  5
2FF
  2
LDR
 10
546.552333
 20
-766.731083
 30
0.0
 41
240.0
 42
240.0
210
0.0
220
0.0
230
1.0
  0
INSERT
  8
1
  6
CONTINUOUS
 62
     1
  5
300
  2
LDR
 10
521.4225
 20
-806.341917
 30
0.0
 41
240.0
 42
240.0
 50
90.0
210
0.0
220
0.0
230
1.0
  0
LINE
  8
1
  6
CONTINUOUS
 62
     7
  5
301
 10
499.561333
 20
-694.050917
 30
0.0
 11
499.561333
 21
-690.550917
 31
0.0
  0
LINE
  8
1
  6
CONTINUOUS
 62
     7
  5
302
 10
499.561333
 20
-687.550917
 30
0.0
 11
499.561333
 21
-675.12975
 31
0.0
  0
LINE
  8
1
  6
CONTINUOUS
 62
     7
  5
303
 10
499.561333
 20
-739.300917
 30
0.0
 11
499.561333
 21
-742.800917
 31
0.0
  0
LINE
  8
1
  6
CONTINUOUS
 62
     7
  5
304
 10
499.561333
 20
-745.800917
 30
0.0
 11
499.561333
 21
-756.050917
 31
0.0
  0
LINE
  8
1
  6
CONTINUOUS
 62
     7
  5
305
 10
499.561333
 20
-718.050917
 30
0.0
 11
499.561333
 21
-726.050917
 31
0.0
  0
LINE
  8
1
  6
CONTINUOUS
 62
     7
  5
306
 10
499.561333
 20
-726.050917
 30
0.0
 11
499.561333
 21
-736.300917
 31
0.0
  0
LINE
  8
1
  6
CONTINUOUS
 62
     7
  5
307
 10
499.561333
 20
-788.050917
 30
0.0
 11
499.561333
 21
-775.800917
 31
0.0
  0
LINE
  8
1
  6
CONTINUOUS
 62
     7
  5
308
 10
499.561333
 20
-772.800917
 30
0.0
 11
499.561333
 21
-769.300917
 31
0.0
  0
LINE
  8
1
  6
CONTINUOUS
 62
     7
  5
309
 10
499.561333
 20
-766.300917
 30
0.0
 11
499.561333
 21
-756.050917
 31
0.0
  0
LINE
  8
1
  6
HIDDEN
 62
   212
  5
30A
 10
486.311333
 20
-731.050917
 30
0.0
 11
486.311333
 21
-754.805083
 31
0.0
  0
LINE
  8
1
  6
HIDDEN
 62
   212
  5
30B
 10
512.811333
 20
-731.050917
 30
0.0
 11
512.811333
 21
-754.805083
 31
0.0
  0
LINE
  8
1
  6
HIDDEN
 62
   212
  5
30C
 10
487.811333
 20
-731.050917
 30
0.0
 11
487.811333
 21
-757.380083
 31
0.0
  0
LINE
  8
1
  6
HIDDEN
 62
   212
  5
30D
 10
489.311333
 20
-731.050917
 30
0.0
 11
489.311333
 21
-759.955083
 31
0.0
  0
LINE
  8
1
  6
HIDDEN
 62
   212
  5
30E
 10
490.811333
 20
-731.050917
 30
0.0
 11
490.811333
 21
-762.530083
 31
0.0
  0
LINE
  8
1
  6
HIDDEN
 62
   212
  5
30F
 10
492.311333
 20
-731.050917
 30
0.0
 11
492.311333
 21
-765.105083
 31
0.0
  0
LINE
  8
1
  6
HIDDEN
 62
   212
  5
310
 10
511.311333
 20
-731.050917
 30
0.0
 11
511.311333
 21
-757.380083
 31
0.0
  0
LINE
  8
1
  6
HIDDEN
 62
   212
  5
311
 10
509.811333
 20
-731.050917
 30
0.0
 11
509.811333
 21
-759.955083
 31
0.0
  0
LINE
  8
1
  6
HIDDEN
 62
   212
  5
312
 10
508.311333
 20
-731.050917
 30
0.0
 11
508.311333
 21
-762.530083
 31
0.0
  0
LINE
  8
1
  6
HIDDEN
 62
   212
  5
313
 10
506.811333
 20
-731.050917
 30
0.0
 11
506.811333
 21
-765.105083
 31
0.0
  0
LINE
  8
1
  6
HIDDEN
 62
   212
  5
314
 10
486.311333
 20
-732.550917
 30
0.0
 11
512.811333
 21
-732.550917
 31
0.0
  0
LINE
  8
1
  6
HIDDEN
 62
   212
  5
315
 10
486.311333
 20
-733.550917
 30
0.0
 11
512.811333
 21
-733.550917
 31
0.0
  0
LINE
  8
1
  6
HIDDEN
 62
   212
  5
316
 10
486.311333
 20
-734.550917
 30
0.0
 11
512.811333
 21
-734.550917
 31
0.0
  0
LINE
  8
1
  6
HIDDEN
 62
   212
  5
317
 10
486.311333
 20
-735.550917
 30
0.0
 11
512.811333
 21
-735.550917
 31
0.0
  0
LINE
  8
1
  6
HIDDEN
 62
   212
  5
318
 10
486.311333
 20
-736.550917
 30
0.0
 11
512.811333
 21
-736.550917
 31
0.0
  0
LINE
  8
1
  6
HIDDEN
 62
   212
  5
319
 10
486.311333
 20
-731.050917
 30
0.0
 11
493.811333
 21
-731.050917
 31
0.0
  0
LINE
  8
1
  6
HIDDEN
 62
   212
  5
31A
 10
505.311333
 20
-731.050917
 30
0.0
 11
512.811333
 21
-731.050917
 31
0.0
  0
LINE
  8
1
  6
HIDDEN
 62
   212
  5
31B
 10
486.311333
 20
-754.805083
 30
0.0
 11
512.811333
 21
-754.805083
 31
0.0
  0
LINE
  8
1
  6
HIDDEN
 62
   212
  5
31C
 10
486.311333
 20
-753.805083
 30
0.0
 11
512.811333
 21
-753.805083
 31
0.0
  0
LINE
  8
1
  6
HIDDEN
 62
   212
  5
31D
 10
486.311333
 20
-752.805083
 30
0.0
 11
512.811333
 21
-752.805083
 31
0.0
  0
LINE
  8
1
  6
HIDDEN
 62
   212
  5
31E
 10
486.311333
 20
-751.805083
 30
0.0
 11
512.811333
 21
-751.805083
 31
0.0
  0
LINE
  8
1
  6
HIDDEN
 62
   212
  5
31F
 10
486.311333
 20
-750.805083
 30
0.0
 11
512.811333
 21
-750.805083
 31
0.0
  0
LINE
  8
1
  6
CONTINUOUS
 62
   212
  5
320
 10
486.311333
 20
-754.805083
 30
0.0
 11
486.311333
 21
-784.299833
 31
0.0
  0
LINE
  8
1
  6
CONTINUOUS
 62
   212
  5
321
 10
512.811333
 20
-754.805083
 30
0.0
 11
512.811333
 21
-784.299833
 31
0.0
  0
LINE
  8
1
  6
CONTINUOUS
 62
   212
  5
322
 10
487.811333
 20
-757.380083
 30
0.0
 11
487.811333
 21
-784.299833
 31
0.0
  0
LINE
  8
1
  6
CONTINUOUS
 62
   212
  5
323
 10
489.311333
 20
-759.955083
 30
0.0
 11
489.311333
 21
-784.299833
 31
0.0
  0
LINE
  8
1
  6
CONTINUOUS
 62
   212
  5
324
 10
490.811333
 20
-762.530083
 30
0.0
 11
490.811333
 21
-784.299833
 31
0.0
  0
LINE
  8
1
  6
CONTINUOUS
 62
   212
  5
325
 10
492.311333
 20
-765.105083
 30
0.0
 11
492.311333
 21
-784.299833
 31
0.0
  0
LINE
  8
1
  6
CONTINUOUS
 62
   212
  5
326
 10
493.811333
 20
-767.680083
 30
0.0
 11
493.811333
 21
-784.299833
 31
0.0
  0
LINE
  8
1
  6
CONTINUOUS
 62
   212
  5
327
 10
505.311333
 20
-767.680083
 30
0.0
 11
505.311333
 21
-784.299833
 31
0.0
  0
LINE
  8
1
  6
CONTINUOUS
 62
   212
  5
328
 10
506.811333
 20
-765.105083
 30
0.0
 11
506.811333
 21
-784.299833
 31
0.0
  0
LINE
  8
1
  6
CONTINUOUS
 62
   212
  5
329
 10
508.311333
 20
-762.530083
 30
0.0
 11
508.311333
 21
-784.299833
 31
0.0
  0
LINE
  8
1
  6
CONTINUOUS
 62
   212
  5
32A
 10
509.811333
 20
-759.955083
 30
0.0
 11
509.811333
 21
-784.299833
 31
0.0
  0
LINE
  8
1
  6
CONTINUOUS
 62
   212
  5
32B
 10
511.311333
 20
-757.380083
 30
0.0
 11
511.311333
 21
-784.299833
 31
0.0
  0
LINE
  8
1
  6
CONTINUOUS
 62
   212
  5
32C
 10
487.561333
 20
-804.332917
 30
0.0
 11
511.561333
 21
-804.332917
 31
0.0
  0
LINE
  8
1
  6
CONTINUOUS
 62
   212
  5
32D
 10
487.561333
 20
-805.332917
 30
0.0
 11
487.561333
 21
-800.332917
 31
0.0
  0
LINE
  8
1
  6
CONTINUOUS
 62
   212
  5
32E
 10
511.561333
 20
-805.332917
 30
0.0
 11
511.561333
 21
-800.332917
 31
0.0
  0
LINE
  8
1
  6
CONTINUOUS
 62
   212
  5
32F
 10
487.561333
 20
-800.332917
 30
0.0
 11
511.561333
 21
-800.332917
 31
0.0
  0
LINE
  8
1
  6
HIDDEN
 62
   212
  5
330
 10
487.561333
 20
-801.082917
 30
0.0
 11
511.561333
 21
-801.082917
 31
0.0
  0
LINE
  8
1
  6
HIDDEN
 62
   212
  5
331
 10
487.561333
 20
-801.832917
 30
0.0
 11
511.561333
 21
-801.832917
 31
0.0
  0
LINE
  8
1
  6
HIDDEN
 62
   212
  5
332
 10
487.561333
 20
-802.582917
 30
0.0
 11
511.561333
 21
-802.582917
 31
0.0
  0
LINE
  8
1
  6
CONTINUOUS
 62
   212
  5
333
 10
487.561333
 20
-800.332917
 30
0.0
 11
487.561333
 21
-799.332917
 31
0.0
  0
LINE
  8
1
  6
CONTINUOUS
 62
   212
  5
334
 10
511.561333
 20
-800.332917
 30
0.0
 11
511.561333
 21
-799.332917
 31
0.0
  0
LINE
  8
1
  6
CONTINUOUS
 62
   212
  5
335
 10
487.561333
 20
-799.332917
 30
0.0
 11
488.561333
 21
-799.332917
 31
0.0
  0
LINE
  8
1
  6
CONTINUOUS
 62
   212
  5
336
 10
511.561333
 20
-799.332917
 30
0.0
 11
510.561333
 21
-799.332917
 31
0.0
  0
LINE
  8
1
  6
CONTINUOUS
 62
   212
  5
337
 10
494.561333
 20
-800.332917
 30
0.0
 11
494.561333
 21
-799.332917
 31
0.0
  0
LINE
  8
1
  6
CONTINUOUS
 62
   212
  5
338
 10
504.561333
 20
-800.332917
 30
0.0
 11
504.561333
 21
-799.332917
 31
0.0
  0
LINE
  8
1
  6
CONTINUOUS
 62
   212
  5
339
 10
493.561333
 20
-799.332917
 30
0.0
 11
494.561333
 21
-799.332917
 31
0.0
  0
LINE
  8
1
  6
CONTINUOUS
 62
   212
  5
33A
 10
505.561333
 20
-799.332917
 30
0.0
 11
504.561333
 21
-799.332917
 31
0.0
  0
LINE
  8
1
  6
CONTINUOUS
 62
   212
  5
33B
 10
489.811333
 20
-796.832917
 30
0.0
 11
492.311333
 21
-796.832917
 31
0.0
  0
LINE
  8
1
  6
CONTINUOUS
 62
   212
  5
33C
 10
506.811333
 20
-796.832917
 30
0.0
 11
509.311333
 21
-796.832917
 31
0.0
  0
LINE
  8
1
  6
CONTINUOUS
 62
   212
  5
33D
 10
488.561333
 20
-799.332917
 30
0.0
 11
489.811333
 21
-796.832917
 31
0.0
  0
LINE
  8
1
  6
CONTINUOUS
 62
   212
  5
33E
 10
493.561333
 20
-799.332917
 30
0.0
 11
492.311333
 21
-796.832917
 31
0.0
  0
LINE
  8
1
  6
CONTINUOUS
 62
   212
  5
33F
 10
505.561333
 20
-799.332917
 30
0.0
 11
506.811333
 21
-796.832917
 31
0.0
  0
LINE
  8
1
  6
CONTINUOUS
 62
   212
  5
340
 10
509.311333
 20
-796.832917
 30
0.0
 11
510.561333
 21
-799.332917
 31
0.0
  0
LINE
  8
1
  6
CONTINUOUS
 62
   212
  5
341
 10
490.27475
 20
-797.582917
 30
0.0
 11
491.847833
 21
-797.582917
 31
0.0
  0
LINE
  8
1
  6
CONTINUOUS
 62
   212
  5
342
 10
488.89975
 20
-800.332917
 30
0.0
 11
490.27475
 21
-797.582917
 31
0.0
  0
LINE
  8
1
  6
CONTINUOUS
 62
   212
  5
343
 10
493.222833
 20
-800.332917
 30
0.0
 11
491.847833
 21
-797.582917
 31
0.0
  0
LINE
  8
1
  6
CONTINUOUS
 62
   212
  5
344
 10
507.27475
 20
-797.582917
 30
0.0
 11
508.847833
 21
-797.582917
 31
0.0
  0
LINE
  8
1
  6
CONTINUOUS
 62
   212
  5
345
 10
505.89975
 20
-800.332917
 30
0.0
 11
507.27475
 21
-797.582917
 31
0.0
  0
LINE
  8
1
  6
CONTINUOUS
 62
   212
  5
346
 10
508.847833
 20
-797.582917
 30
0.0
 11
510.222833
 21
-800.332917
 31
0.0
  0
LINE
  8
1
  6
CONTINUOUS
 62
   212
  5
347
 10
490.061333
 20
-796.082917
 30
0.0
 11
492.061333
 21
-796.082917
 31
0.0
  0
LINE
  8
1
  6
CONTINUOUS
 62
   212
  5
348
 10
507.061333
 20
-796.082917
 30
0.0
 11
509.061333
 21
-796.082917
 31
0.0
  0
LINE
  8
1
  6
CONTINUOUS
 62
   212
  5
349
 10
490.061333
 20
-796.082917
 30
0.0
 11
490.061333
 21
-796.832917
 31
0.0
  0
LINE
  8
1
  6
CONTINUOUS
 62
   212
  5
34A
 10
492.061333
 20
-796.082917
 30
0.0
 11
492.061333
 21
-796.832917
 31
0.0
  0
LINE
  8
1
  6
CONTINUOUS
 62
   212
  5
34B
 10
507.061333
 20
-796.082917
 30
0.0
 11
507.061333
 21
-796.832917
 31
0.0
  0
LINE
  8
1
  6
CONTINUOUS
 62
   212
  5
34C
 10
509.061333
 20
-796.082917
 30
0.0
 11
509.061333
 21
-796.832917
 31
0.0
  0
LINE
  8
1
  6
CONTINUOUS
 62
   212
  5
34D
 10
490.52475
 20
-797.582917
 30
0.0
 11
490.52475
 21
-800.332917
 31
0.0
  0
LINE
  8
1
  6
CONTINUOUS
 62
   212
  5
34E
 10
491.597833
 20
-797.582917
 30
0.0
 11
491.597833
 21
-800.332917
 31
0.0
  0
LINE
  8
1
  6
CONTINUOUS
 62
   212
  5
34F
 10
507.52475
 20
-797.582917
 30
0.0
 11
507.52475
 21
-800.332917
 31
0.0
  0
LINE
  8
1
  6
CONTINUOUS
 62
   212
  5
350
 10
508.597833
 20
-797.582917
 30
0.0
 11
508.597833
 21
-800.332917
 31
0.0
  0
LINE
  8
1
  6
CONTINUOUS
 62
   212
  5
351
 10
490.52475
 20
-796.832917
 30
0.0
 11
490.52475
 21
-795.332917
 31
0.0
  0
LINE
  8
1
  6
CONTINUOUS
 62
   212
  5
352
 10
491.597833
 20
-796.832917
 30
0.0
 11
491.597833
 21
-795.332917
 31
0.0
  0
LINE
  8
1
  6
CONTINUOUS
 62
   212
  5
353
 10
490.52475
 20
-795.332917
 30
0.0
 11
491.597833
 21
-795.332917
 31
0.0
  0
LINE
  8
1
  6
CONTINUOUS
 62
   212
  5
354
 10
507.52475
 20
-796.832917
 30
0.0
 11
507.52475
 21
-795.332917
 31
0.0
  0
LINE
  8
1
  6
CONTINUOUS
 62
   212
  5
355
 10
508.597833
 20
-796.832917
 30
0.0
 11
508.597833
 21
-795.332917
 31
0.0
  0
LINE
  8
1
  6
CONTINUOUS
 62
   212
  5
356
 10
507.52475
 20
-795.332917
 30
0.0
 11
508.597833
 21
-795.332917
 31
0.0
  0
LINE
  8
1
  6
CONTINUOUS
 62
   212
  5
357
 10
490.52475
 20
-798.082917
 30
0.0
 11
491.597833
 21
-798.082917
 31
0.0
  0
LINE
  8
1
  6
CONTINUOUS
 62
   212
  5
358
 10
490.52475
 20
-798.582917
 30
0.0
 11
491.597833
 21
-798.582917
 31
0.0
  0
LINE
  8
1
  6
CONTINUOUS
 62
   212
  5
359
 10
490.52475
 20
-799.082917
 30
0.0
 11
491.597833
 21
-799.082917
 31
0.0
  0
LINE
  8
1
  6
CONTINUOUS
 62
   212
  5
35A
 10
490.52475
 20
-799.582917
 30
0.0
 11
491.597833
 21
-799.582917
 31
0.0
  0
LINE
  8
1
  6
CONTINUOUS
 62
   212
  5
35B
 10
490.52475
 20
-800.082917
 30
0.0
 11
491.597833
 21
-800.082917
 31
0.0
  0
LINE
  8
1
  6
CONTINUOUS
 62
   212
  5
35C
 10
490.77475
 20
-797.832917
 30
0.0
 11
491.347833
 21
-797.832917
 31
0.0
  0
LINE
  8
1
  6
CONTINUOUS
 62
   212
  5
35D
 10
490.77475
 20
-798.332917
 30
0.0
 11
491.347833
 21
-798.332917
 31
0.0
  0
LINE
  8
1
  6
CONTINUOUS
 62
   212
  5
35E
 10
490.77475
 20
-798.832917
 30
0.0
 11
491.347833
 21
-798.832917
 31
0.0
  0
LINE
  8
1
  6
CONTINUOUS
 62
   212
  5
35F
 10
490.77475
 20
-799.332917
 30
0.0
 11
491.347833
 21
-799.332917
 31
0.0
  0
LINE
  8
1
  6
CONTINUOUS
 62
   212
  5
360
 10
490.77475
 20
-799.832917
 30
0.0
 11
491.347833
 21
-799.832917
 31
0.0
  0
LINE
  8
1
  6
CONTINUOUS
 62
   212
  5
361
 10
507.77475
 20
-797.832917
 30
0.0
 11
508.347833
 21
-797.832917
 31
0.0
  0
LINE
  8
1
  6
CONTINUOUS
 62
   212
  5
362
 10
507.52475
 20
-798.082917
 30
0.0
 11
508.597833
 21
-798.082917
 31
0.0
  0
LINE
  8
1
  6
CONTINUOUS
 62
   212
  5
363
 10
507.77475
 20
-798.332917
 30
0.0
 11
508.347833
 21
-798.332917
 31
0.0
  0
LINE
  8
1
  6
CONTINUOUS
 62
   212
  5
364
 10
507.52475
 20
-798.582917
 30
0.0
 11
508.597833
 21
-798.582917
 31
0.0
  0
LINE
  8
1
  6
CONTINUOUS
 62
   212
  5
365
 10
507.77475
 20
-798.832917
 30
0.0
 11
508.347833
 21
-798.832917
 31
0.0
  0
LINE
  8
1
  6
CONTINUOUS
 62
   212
  5
366
 10
507.52475
 20
-799.082917
 30
0.0
 11
508.597833
 21
-799.082917
 31
0.0
  0
LINE
  8
1
  6
CONTINUOUS
 62
   212
  5
367
 10
507.77475
 20
-799.332917
 30
0.0
 11
508.347833
 21
-799.332917
 31
0.0
  0
LINE
  8
1
  6
CONTINUOUS
 62
   212
  5
368
 10
507.52475
 20
-799.582917
 30
0.0
 11
508.597833
 21
-799.582917
 31
0.0
  0
LINE
  8
1
  6
CONTINUOUS
 62
   212
  5
369
 10
507.77475
 20
-799.832917
 30
0.0
 11
508.347833
 21
-799.832917
 31
0.0
  0
LINE
  8
1
  6
CONTINUOUS
 62
   212
  5
36A
 10
507.52475
 20
-800.082917
 30
0.0
 11
508.597833
 21
-800.082917
 31
0.0
  0
LINE
  8
1
  6
CONTINUOUS
 62
     7
  5
36B
 10
491.597833
 20
-801.332917
 30
0.0
 11
491.597833
 21
-801.832917
 31
0.0
  0
LINE
  8
1
  6
CONTINUOUS
 62
     7
  5
36C
 10
507.52475
 20
-801.332917
 30
0.0
 11
507.52475
 21
-801.832917
 31
0.0
  0
LINE
  8
1
  6
CONTINUOUS
 62
   212
  5
36D
 10
491.06125
 20
-802.832917
 30
0.0
 11
492.134333
 21
-802.832917
 31
0.0
  0
LINE
  8
1
  6
CONTINUOUS
 62
   212
  5
36E
 10
490.597833
 20
-803.582917
 30
0.0
 11
492.597833
 21
-803.582917
 31
0.0
  0
LINE
  8
1
  6
CONTINUOUS
 62
   212
  5
36F
 10
490.597833
 20
-803.582917
 30
0.0
 11
490.597833
 21
-804.332917
 31
0.0
  0
LINE
  8
1
  6
CONTINUOUS
 62
   212
  5
370
 10
492.597833
 20
-803.582917
 30
0.0
 11
492.597833
 21
-804.332917
 31
0.0
  0
LINE
  8
1
  6
CONTINUOUS
 62
   212
  5
371
 10
491.06125
 20
-804.332917
 30
0.0
 11
491.06125
 21
-802.832917
 31
0.0
  0
LINE
  8
1
  6
CONTINUOUS
 62
   212
  5
372
 10
492.134333
 20
-804.332917
 30
0.0
 11
492.134333
 21
-802.832917
 31
0.0
  0
LINE
  8
1
  6
CONTINUOUS
 62
   212
  5
373
 10
506.988167
 20
-802.832917
 30
0.0
 11
508.06125
 21
-802.832917
 31
0.0
  0
LINE
  8
1
  6
CONTINUOUS
 62
   212
  5
374
 10
506.52475
 20
-803.582917
 30
0.0
 11
508.52475
 21
-803.582917
 31
0.0
  0
LINE
  8
1
  6
CONTINUOUS
 62
   212
  5
375
 10
506.52475
 20
-803.582917
 30
0.0
 11
506.52475
 21
-804.332917
 31
0.0
  0
LINE
  8
1
  6
CONTINUOUS
 62
   212
  5
376
 10
508.52475
 20
-803.582917
 30
0.0
 11
508.52475
 21
-804.332917
 31
0.0
  0
LINE
  8
1
  6
CONTINUOUS
 62
   212
  5
377
 10
506.988167
 20
-804.332917
 30
0.0
 11
506.988167
 21
-802.832917
 31
0.0
  0
LINE
  8
1
  6
CONTINUOUS
 62
   212
  5
378
 10
508.06125
 20
-804.332917
 30
0.0
 11
508.06125
 21
-802.832917
 31
0.0
  0
LINE
  8
1
  6
CONTINUOUS
 62
   212
  5
379
 10
490.597833
 20
-807.082917
 30
0.0
 11
492.597833
 21
-807.082917
 31
0.0
  0
LINE
  8
1
  6
CONTINUOUS
 62
   212
  5
37A
 10
490.597833
 20
-807.082917
 30
0.0
 11
490.597833
 21
-806.332917
 31
0.0
  0
LINE
  8
1
  6
CONTINUOUS
 62
   212
  5
37B
 10
492.597833
 20
-807.082917
 30
0.0
 11
492.597833
 21
-806.332917
 31
0.0
  0
LINE
  8
1
  6
CONTINUOUS
 62
   212
  5
37C
 10
506.52475
 20
-807.082917
 30
0.0
 11
508.52475
 21
-807.082917
 31
0.0
  0
LINE
  8
1
  6
CONTINUOUS
 62
   212
  5
37D
 10
506.52475
 20
-807.082917
 30
0.0
 11
506.52475
 21
-806.332917
 31
0.0
  0
LINE
  8
1
  6
CONTINUOUS
 62
   212
  5
37E
 10
508.52475
 20
-807.082917
 30
0.0
 11
508.52475
 21
-806.332917
 31
0.0
  0
LINE
  8
1
  6
CONTINUOUS
 62
   212
  5
37F
 10
491.06125
 20
-806.332917
 30
0.0
 11
491.06125
 21
-807.082917
 31
0.0
  0
LINE
  8
1
  6
CONTINUOUS
 62
   212
  5
380
 10
492.134333
 20
-806.332917
 30
0.0
 11
492.134333
 21
-807.082917
 31
0.0
  0
LINE
  8
1
  6
CONTINUOUS
 62
   212
  5
381
 10
506.988167
 20
-806.332917
 30
0.0
 11
506.988167
 21
-807.082917
 31
0.0
  0
LINE
  8
1
  6
CONTINUOUS
 62
   212
  5
382
 10
508.06125
 20
-806.332917
 30
0.0
 11
508.06125
 21
-807.082917
 31
0.0
  0
LINE
  8
1
  6
CONTINUOUS
 62
     7
  5
383
 10
487.561333
 20
-807.332917
 30
0.0
 11
487.561333
 21
-820.297583
 31
0.0
  0
LINE
  8
1
  6
CONTINUOUS
 62
     7
  5
384
 10
490.597833
 20
-818.297583
 30
0.0
 11
490.597833
 21
-825.739167
 31
0.0
  0
LINE
  8
1
  6
CONTINUOUS
 62
     7
  5
385
 10
508.52475
 20
-810.638333
 30
0.0
 11
508.52475
 21
-825.739167
 31
0.0
  0
LINE
  8
1
  6
CONTINUOUS
 62
     7
  5
386
 10
491.597833
 20
-810.638333
 30
0.0
 11
491.597833
 21
-825.739167
 31
0.0
  0
LINE
  8
1
  6
CONTINUOUS
 62
   212
  5
387
 10
548.061333
 20
-735.428
 30
0.0
 11
548.061333
 21
-732.928
 31
0.0
  0
ARC
  8
1
  6
CONTINUOUS
 62
   212
  5
388
 10
547.684758
 20
-733.043085
 30
0.0
 40
0.393768
 50
16.993586
 51
108.266919
210
0.0
220
0.0
230
1.0
  0
LINE
  8
1
  6
CONTINUOUS
 62
   212
  5
389
 10
551.061333
 20
-736.178
 30
0.0
 11
547.561333
 21
-736.178
 31
0.0
  0
LINE
  8
1
  6
CONTINUOUS
 62
   212
  5
38A
 10
551.061333
 20
-736.178
 30
0.0
 11
551.061333
 21
-738.428
 31
0.0
  0
LINE
  8
1
  6
CONTINUOUS
 62
   212
  5
38B
 10
551.811333
 20
-736.178
 30
0.0
 11
551.811333
 21
-737.678
 31
0.0
  0
LINE
  8
1
  6
CONTINUOUS
 62
   212
  5
38C
 10
551.811333
 20
-736.178
 30
0.0
 11
553.061333
 21
-736.178
 31
0.0
  0
LINE
  8
1
  6
CONTINUOUS
 62
   212
  5
38D
 10
551.811333
 20
-737.678
 30
0.0
 11
553.061333
 21
-737.678
 31
0.0
  0
LINE
  8
1
  6
CONTINUOUS
 62
   212
  5
38E
 10
551.061333
 20
-738.428
 30
0.0
 11
553.061333
 21
-738.428
 31
0.0
  0
LINE
  8
1
  6
CONTINUOUS
 62
   212
  5
38F
 10
553.061333
 20
-731.928
 30
0.0
 11
553.061333
 21
-784.299833
 31
0.0
  0
LINE
  8
1
  6
CONTINUOUS
 62
     7
  5
390
 10
551.061333
 20
-734.428
 30
0.0
 11
550.311333
 21
-734.428
 31
0.0
  0
LINE
  8
1
  6
CONTINUOUS
 62
     7
  5
391
 10
545.311333
 20
-734.428
 30
0.0
 11
543.561333
 21
-734.428
 31
0.0
  0
LINE
  8
1
  6
CONTINUOUS
 62
   212
  5
392
 10
556.061333
 20
-731.928
 30
0.0
 11
556.061333
 21
-784.299833
 31
0.0
  0
LINE
  8
1
  6
CONTINUOUS
 62
   212
  5
393
 10
553.061333
 20
-731.928
 30
0.0
 11
556.061333
 21
-731.928
 31
0.0
  0
LINE
  8
1
  6
CONTINUOUS
 62
   212
  5
394
 10
553.061333
 20
-753.928
 30
0.0
 11
548.061333
 21
-753.928
 31
0.0
  0
LINE
  8
1
  6
CONTINUOUS
 62
   212
  5
395
 10
545.561333
 20
-751.928
 30
0.0
 11
546.561333
 21
-751.928
 31
0.0
  0
LINE
  8
1
  6
CONTINUOUS
 62
   212
  5
396
 10
545.561333
 20
-753.928
 30
0.0
 11
546.561333
 21
-753.928
 31
0.0
  0
LINE
  8
1
  6
CONTINUOUS
 62
   212
  5
397
 10
545.561333
 20
-753.928
 30
0.0
 11
545.561333
 21
-751.928
 31
0.0
  0
LINE
  8
1
  6
CONTINUOUS
 62
   212
  5
398
 10
549.061333
 20
-753.928
 30
0.0
 11
549.061333
 21
-751.928
 31
0.0
  0
LINE
  8
1
  6
CONTINUOUS
 62
   212
  5
399
 10
549.061333
 20
-751.928
 30
0.0
 11
548.061333
 21
-751.928
 31
0.0
  0
LINE
  8
1
  6
CONTINUOUS
 62
   212
  5
39A
 10
548.061333
 20
-753.428
 30
0.0
 11
550.061333
 21
-753.428
 31
0.0
  0
LINE
  8
1
  6
CONTINUOUS
 62
   212
  5
39B
 10
548.061333
 20
-752.428
 30
0.0
 11
550.061333
 21
-752.428
 31
0.0
  0
LINE
  8
1
  6
CONTINUOUS
 62
   212
  5
39C
 10
550.061333
 20
-753.428
 30
0.0
 11
550.061333
 21
-752.428
 31
0.0
  0
LINE
  8
1
  6
CONTINUOUS
 62
   212
  5
39D
 10
548.061333
 20
-753.928
 30
0.0
 11
548.061333
 21
-751.428
 31
0.0
  0
ARC
  8
1
  6
CONTINUOUS
 62
   212
  5
39E
 10
547.684758
 20
-751.543085
 30
0.0
 40
0.393768
 50
16.993586
 51
108.266919
210
0.0
220
0.0
230
1.0
  0
LINE
  8
1
  6
CONTINUOUS
 62
   212
  5
39F
 10
551.061333
 20
-754.678
 30
0.0
 11
547.561333
 21
-754.678
 31
0.0
  0
LINE
  8
1
  6
CONTINUOUS
 62
   212
  5
3A0
 10
551.061333
 20
-754.678
 30
0.0
 11
551.061333
 21
-756.928
 31
0.0
  0
LINE
  8
1
  6
CONTINUOUS
 62
   212
  5
3A1
 10
551.811333
 20
-754.678
 30
0.0
 11
551.811333
 21
-756.178
 31
0.0
  0
LINE
  8
1
  6
CONTINUOUS
 62
   212
  5
3A2
 10
551.811333
 20
-754.678
 30
0.0
 11
553.061333
 21
-754.678
 31
0.0
  0
LINE
  8
1
  6
CONTINUOUS
 62
   212
  5
3A3
 10
551.811333
 20
-756.178
 30
0.0
 11
553.061333
 21
-756.178
 31
0.0
  0
LINE
  8
1
  6
CONTINUOUS
 62
   212
  5
3A4
 10
551.061333
 20
-756.928
 30
0.0
 11
553.061333
 21
-756.928
 31
0.0
  0
LINE
  8
1
  6
CONTINUOUS
 62
     7
  5
3A5
 10
551.061333
 20
-752.928
 30
0.0
 11
550.311333
 21
-752.928
 31
0.0
  0
LINE
  8
1
  6
CONTINUOUS
 62
     7
  5
3A6
 10
545.311333
 20
-752.928
 30
0.0
 11
543.561333
 21
-752.928
 31
0.0
  0
LINE
  8
1
  6
CONTINUOUS
 62
   212
  5
3A7
 10
553.811333
 20
-731.928
 30
0.0
 11
553.811333
 21
-784.299833
 31
0.0
  0
LINE
  8
1
  6
HIDDEN
 62
   212
  5
3A8
 10
555.311333
 20
-731.928
 30
0.0
 11
555.311333
 21
-784.299833
 31
0.0
  0
LINE
  8
1
  6
CONTINUOUS
 62
   212
  5
3A9
 10
558.061333
 20
-737.428
 30
0.0
 11
558.061333
 21
-736.428
 31
0.0
  0
LINE
  8
1
  6
CONTINUOUS
 62
   212
  5
3AA
 10
557.061333
 20
-737.928
 30
0.0
 11
557.061333
 21
-735.928
 31
0.0
  0
LINE
  8
1
  6
CONTINUOUS
 62
   212
  5
3AB
 10
557.061333
 20
-735.928
 30
0.0
 11
556.061333
 21
-735.928
 31
0.0
  0
LINE
  8
1
  6
CONTINUOUS
 62
   212
  5
3AC
 10
556.061333
 20
-737.428
 30
0.0
 11
558.061333
 21
-737.428
 31
0.0
  0
LINE
  8
1
  6
CONTINUOUS
 62
   212
  5
3AD
 10
556.061333
 20
-736.428
 30
0.0
 11
558.061333
 21
-736.428
 31
0.0
  0
LINE
  8
1
  6
CONTINUOUS
 62
   212
  5
3AE
 10
557.061333
 20
-737.928
 30
0.0
 11
556.061333
 21
-737.928
 31
0.0
  0
LINE
  8
1
  6
HIDDEN
 62
   212
  5
3AF
 10
556.061333
 20
-736.428
 30
0.0
 11
553.811333
 21
-736.428
 31
0.0
  0
LINE
  8
1
  6
HIDDEN
 62
   212
  5
3B0
 10
556.061333
 20
-737.428
 30
0.0
 11
553.811333
 21
-737.428
 31
0.0
  0
LINE
  8
1
  6
CONTINUOUS
 62
   212
  5
3B1
 10
558.061333
 20
-755.928
 30
0.0
 11
558.061333
 21
-754.928
 31
0.0
  0
LINE
  8
1
  6
CONTINUOUS
 62
   212
  5
3B2
 10
557.061333
 20
-756.428
 30
0.0
 11
557.061333
 21
-754.428
 31
0.0
  0
LINE
  8
1
  6
CONTINUOUS
 62
   212
  5
3B3
 10
557.061333
 20
-754.428
 30
0.0
 11
556.061333
 21
-754.428
 31
0.0
  0
LINE
  8
1
  6
CONTINUOUS
 62
   212
  5
3B4
 10
556.061333
 20
-755.928
 30
0.0
 11
558.061333
 21
-755.928
 31
0.0
  0
LINE
  8
1
  6
CONTINUOUS
 62
   212
  5
3B5
 10
556.061333
 20
-754.928
 30
0.0
 11
558.061333
 21
-754.928
 31
0.0
  0
LINE
  8
1
  6
CONTINUOUS
 62
   212
  5
3B6
 10
557.061333
 20
-756.428
 30
0.0
 11
556.061333
 21
-756.428
 31
0.0
  0
LINE
  8
1
  6
HIDDEN
 62
   212
  5
3B7
 10
556.061333
 20
-754.928
 30
0.0
 11
553.811333
 21
-754.928
 31
0.0
  0
LINE
  8
1
  6
HIDDEN
 62
   212
  5
3B8
 10
556.061333
 20
-755.928
 30
0.0
 11
553.811333
 21
-755.928
 31
0.0
  0
LINE
  8
1
  6
CONTINUOUS
 62
   212
  5
3B9
 10
390.561333
 20
-786.050917
 30
0.0
 11
391.561333
 21
-786.050917
 31
0.0
  0
LINE
  8
1
  6
CONTINUOUS
 62
   212
  5
3BA
 10
372.561333
 20
-726.050917
 30
0.0
 11
312.561333
 21
-726.050917
 31
0.0
  0
LINE
  8
1
  6
CONTINUOUS
 62
   212
  5
3BB
 10
312.561333
 20
-726.050917
 30
0.0
 11
342.561333
 21
-777.550917
 31
0.0
  0
LINE
  8
1
  6
CONTINUOUS
 62
   212
  5
3BC
 10
372.561333
 20
-726.050917
 30
0.0
 11
342.561333
 21
-777.550917
 31
0.0
  0
LINE
  8
1
  6
CONTINUOUS
 62
   212
  5
3BD
 10
312.561333
 20
-655.550917
 30
0.0
 11
342.561333
 21
-707.050917
 31
0.0
  0
LINE
  8
1
  6
CONTINUOUS
 62
   212
  5
3BE
 10
372.561333
 20
-655.550917
 30
0.0
 11
342.561333
 21
-707.050917
 31
0.0
  0
LINE
  8
1
  6
CONTINUOUS
 62
     7
  5
3BF
 10
342.561333
 20
-681.22575
 30
0.0
 11
342.561333
 21
-666.126083
 31
0.0
  0
CIRCLE
  8
1
  6
CONTINUOUS
 62
   212
  5
3C0
 10
342.561333
 20
-662.376083
 30
0.0
 40
0.75
210
0.0
220
0.0
230
1.0
  0
LINE
  8
1
  6
CONTINUOUS
 62
   212
  5
3C1
 10
372.561333
 20
-655.550917
 30
0.0
 11
312.561333
 21
-655.550917
 31
0.0
  0
LINE
  8
1
  6
CONTINUOUS
 62
     7
  5
3C2
 10
312.561333
 20
-654.550917
 30
0.0
 11
312.561333
 21
-650.550917
 31
0.0
  0
LINE
  8
1
  6
CONTINUOUS
 62
     7
  5
3C3
 10
312.561333
 20
-651.550917
 30
0.0
 11
342.561333
 21
-651.550917
 31
0.0
  0
INSERT
  8
1
  6
CONTINUOUS
 62
     1
  5
3C4
  2
LDR
 10
312.561333
 20
-651.550917
 30
0.0
 41
240.0
 42
240.0
 50
180.0
210
0.0
220
0.0
230
1.0
  0
INSERT
  8
1
  6
CONTINUOUS
 62
     1
  5
3C5
  2
LDR
 10
312.561333
 20
-651.550917
 30
0.0
 41
240.0
 42
240.0
 50
180.0
210
0.0
220
0.0
230
1.0
  0
INSERT
  8
1
  6
CONTINUOUS
 62
     1
  5
3C6
  2
LDR
 10
342.561333
 20
-651.550917
 30
0.0
 41
240.0
 42
240.0
210
0.0
220
0.0
230
1.0
  0
LINE
  8
1
  6
CONTINUOUS
 62
     7
  5
3C7
 10
340.811333
 20
-662.376083
 30
0.0
 11
342.561333
 21
-662.376083
 31
0.0
  0
LINE
  8
1
  6
CONTINUOUS
 62
     7
  5
3C8
 10
342.561333
 20
-662.376083
 30
0.0
 11
344.311333
 21
-662.376083
 31
0.0
  0
LINE
  8
1
  6
CONTINUOUS
 62
     7
  5
3C9
 10
342.561333
 20
-650.550917
 30
0.0
 11
342.561333
 21
-658.626083
 31
0.0
  0
LINE
  8
1
  6
CONTINUOUS
 62
     7
  5
3CA
 10
342.561333
 20
-660.626083
 30
0.0
 11
342.561333
 21
-664.126083
 31
0.0
  0
LINE
  8
1
  6
CONTINUOUS
 62
     7
  5
3CB
 10
342.561333
 20
-665.5555
 30
0.0
 11
342.561333
 21
-666.126083
 31
0.0
  0
LINE
  8
1
  6
CONTINUOUS
 62
     7
  5
3CC
 10
338.811333
 20
-662.376083
 30
0.0
 11
336.811333
 21
-662.376083
 31
0.0
  0
LINE
  8
1
  6
CONTINUOUS
 62
     7
  5
3CD
 10
346.24725
 20
-662.376083
 30
0.0
 11
382.24725
 21
-662.376083
 31
0.0
  0
CIRCLE
  8
1
  6
CONTINUOUS
 62
   212
  5
3CE
 10
342.561333
 20
-693.050917
 30
0.0
 40
0.75
210
0.0
220
0.0
230
1.0
  0
LINE
  8
1
  6
CONTINUOUS
 62
     7
  5
3CF
 10
340.811333
 20
-693.050917
 30
0.0
 11
342.561333
 21
-693.050917
 31
0.0
  0
LINE
  8
1
  6
CONTINUOUS
 62
     7
  5
3D0
 10
342.561333
 20
-693.050917
 30
0.0
 11
344.311333
 21
-693.050917
 31
0.0
  0
LINE
  8
1
  6
CONTINUOUS
 62
     7
  5
3D1
 10
342.561333
 20
-681.22575
 30
0.0
 11
342.561333
 21
-689.300917
 31
0.0
  0
LINE
  8
1
  6
CONTINUOUS
 62
     7
  5
3D2
 10
342.561333
 20
-691.300917
 30
0.0
 11
342.561333
 21
-694.800917
 31
0.0
  0
LINE
  8
1
  6
CONTINUOUS
 62
     7
  5
3D3
 10
338.811333
 20
-693.050917
 30
0.0
 11
336.811333
 21
-693.050917
 31
0.0
  0
LINE
  8
1
  6
CONTINUOUS
 62
     7
  5
3D4
 10
346.24725
 20
-693.050917
 30
0.0
 11
382.24725
 21
-693.050917
 31
0.0
  0
LINE
  8
1
  6
CONTINUOUS
 62
     7
  5
3D5
 10
342.561333
 20
-696.800917
 30
0.0
 11
342.561333
 21
-714.050917
 31
0.0
  0
LINE
  8
1
  6
CONTINUOUS
 62
     7
  5
3D6
 10
373.561333
 20
-655.550917
 30
0.0
 11
382.24725
 21
-655.550917
 31
0.0
  0
LINE
  8
1
  6
CONTINUOUS
 62
     7
  5
3D7
 10
381.24725
 20
-655.550917
 30
0.0
 11
381.24725
 21
-662.376083
 31
0.0
  0
LINE
  8
1
  6
CONTINUOUS
 62
     7
  5
3D8
 10
381.24725
 20
-662.376083
 30
0.0
 11
381.24725
 21
-693.050917
 31
0.0
  0
INSERT
  8
1
  6
CONTINUOUS
 62
     1
  5
3D9
  2
LDR
 10
381.24725
 20
-655.550917
 30
0.0
 41
240.0
 42
240.0
 50
90.0
210
0.0
220
0.0
230
1.0
  0
INSERT
  8
1
  6
CONTINUOUS
 62
     1
  5
3DA
  2
LDR
 10
381.24725
 20
-655.550917
 30
0.0
 41
240.0
 42
240.0
 50
90.0
210
0.0
220
0.0
230
1.0
  0
INSERT
  8
1
  6
CONTINUOUS
 62
     1
  5
3DB
  2
LDR
 10
381.24725
 20
-662.376083
 30
0.0
 41
240.0
 42
240.0
 50
270.0
210
0.0
220
0.0
230
1.0
  0
INSERT
  8
1
  6
CONTINUOUS
 62
     1
  5
3DC
  2
LDR
 10
381.24725
 20
-662.376083
 30
0.0
 41
240.0
 42
240.0
 50
270.0
210
0.0
220
0.0
230
1.0
  0
INSERT
  8
1
  6
CONTINUOUS
 62
     1
  5
3DD
  2
LDR
 10
381.24725
 20
-662.376083
 30
0.0
 41
240.0
 42
240.0
 50
90.0
210
0.0
220
0.0
230
1.0
  0
INSERT
  8
1
  6
CONTINUOUS
 62
     1
  5
3DE
  2
LDR
 10
381.24725
 20
-662.376083
 30
0.0
 41
240.0
 42
240.0
 50
90.0
210
0.0
220
0.0
230
1.0
  0
INSERT
  8
1
  6
CONTINUOUS
 62
     1
  5
3DF
  2
LDR
 10
381.24725
 20
-693.050917
 30
0.0
 41
240.0
 42
240.0
 50
270.0
210
0.0
220
0.0
230
1.0
  0
LINE
  8
1
  6
CONTINUOUS
 62
   212
  5
3E0
 10
529.561333
 20
-655.550917
 30
0.0
 11
469.561333
 21
-655.550917
 31
0.0
  0
LINE
  8
1
  6
CONTINUOUS
 62
   212
  5
3E1
 10
469.561333
 20
-655.550917
 30
0.0
 11
499.561333
 21
-707.050917
 31
0.0
  0
LINE
  8
1
  6
CONTINUOUS
 62
   212
  5
3E2
 10
529.561333
 20
-655.550917
 30
0.0
 11
499.561333
 21
-707.050917
 31
0.0
  0
CIRCLE
  8
1
  6
CONTINUOUS
 62
   212
  5
3E3
 10
491.061333
 20
-662.550917
 30
0.0
 40
0.75
210
0.0
220
0.0
230
1.0
  0
LINE
  8
1
  6
CONTINUOUS
 62
     7
  5
3E4
 10
492.811333
 20
-662.550917
 30
0.0
 11
489.311333
 21
-662.550917
 31
0.0
  0
LINE
  8
1
  6
CONTINUOUS
 62
     7
  5
3E5
 10
491.061333
 20
-660.800917
 30
0.0
 11
491.061333
 21
-664.300917
 31
0.0
  0
LINE
  8
1
  6
CONTINUOUS
 62
     7
  5
3E6
 10
493.811333
 20
-662.550917
 30
0.0
 11
495.811333
 21
-662.550917
 31
0.0
  0
LINE
  8
1
  6
CONTINUOUS
 62
     7
  5
3E7
 10
488.311333
 20
-662.550917
 30
0.0
 11
486.311333
 21
-662.550917
 31
0.0
  0
LINE
  8
1
  6
CONTINUOUS
 62
     7
  5
3E8
 10
491.061333
 20
-665.300917
 30
0.0
 11
491.061333
 21
-667.300917
 31
0.0
  0
CIRCLE
  8
1
  6
CONTINUOUS
 62
   212
  5
3E9
 10
508.061333
 20
-662.550917
 30
0.0
 40
0.75
210
0.0
220
0.0
230
1.0
  0
LINE
  8
1
  6
CONTINUOUS
 62
     7
  5
3EA
 10
509.811333
 20
-662.550917
 30
0.0
 11
506.311333
 21
-662.550917
 31
0.0
  0
LINE
  8
1
  6
CONTINUOUS
 62
     7
  5
3EB
 10
508.061333
 20
-660.800917
 30
0.0
 11
508.061333
 21
-664.300917
 31
0.0
  0
LINE
  8
1
  6
CONTINUOUS
 62
     7
  5
3EC
 10
505.311333
 20
-662.550917
 30
0.0
 11
503.311333
 21
-662.550917
 31
0.0
  0
LINE
  8
1
  6
CONTINUOUS
 62
     7
  5
3ED
 10
508.061333
 20
-665.300917
 30
0.0
 11
508.061333
 21
-667.300917
 31
0.0
  0
CIRCLE
  8
1
  6
CONTINUOUS
 62
   212
  5
3EE
 10
508.061333
 20
-681.050917
 30
0.0
 40
0.75
210
0.0
220
0.0
230
1.0
  0
LINE
  8
1
  6
CONTINUOUS
 62
     7
  5
3EF
 10
509.811333
 20
-681.050917
 30
0.0
 11
506.311333
 21
-681.050917
 31
0.0
  0
LINE
  8
1
  6
CONTINUOUS
 62
     7
  5
3F0
 10
508.061333
 20
-679.300917
 30
0.0
 11
508.061333
 21
-682.800917
 31
0.0
  0
LINE
  8
1
  6
CONTINUOUS
 62
     7
  5
3F1
 10
505.311333
 20
-681.050917
 30
0.0
 11
503.311333
 21
-681.050917
 31
0.0
  0
LINE
  8
1
  6
CONTINUOUS
 62
     7
  5
3F2
 10
508.061333
 20
-683.800917
 30
0.0
 11
508.061333
 21
-685.800917
 31
0.0
  0
LINE
  8
1
  6
CONTINUOUS
 62
     7
  5
3F3
 10
508.061333
 20
-678.300917
 30
0.0
 11
508.061333
 21
-676.300917
 31
0.0
  0
CIRCLE
  8
1
  6
CONTINUOUS
 62
   212
  5
3F4
 10
491.061333
 20
-681.050917
 30
0.0
 40
0.75
210
0.0
220
0.0
230
1.0
  0
LINE
  8
1
  6
CONTINUOUS
 62
     7
  5
3F5
 10
492.811333
 20
-681.050917
 30
0.0
 11
489.311333
 21
-681.050917
 31
0.0
  0
LINE
  8
1
  6
CONTINUOUS
 62
     7
  5
3F6
 10
491.061333
 20
-679.300917
 30
0.0
 11
491.061333
 21
-682.800917
 31
0.0
  0
LINE
  8
1
  6
CONTINUOUS
 62
     7
  5
3F7
 10
493.811333
 20
-681.050917
 30
0.0
 11
495.811333
 21
-681.050917
 31
0.0
  0
LINE
  8
1
  6
CONTINUOUS
 62
     7
  5
3F8
 10
488.311333
 20
-681.050917
 30
0.0
 11
486.311333
 21
-681.050917
 31
0.0
  0
LINE
  8
1
  6
CONTINUOUS
 62
     7
  5
3F9
 10
491.061333
 20
-683.800917
 30
0.0
 11
491.061333
 21
-685.800917
 31
0.0
  0
LINE
  8
1
  6
CONTINUOUS
 62
     7
  5
3FA
 10
491.061333
 20
-678.300917
 30
0.0
 11
491.061333
 21
-676.300917
 31
0.0
  0
LINE
  8
1
  6
CONTINUOUS
 62
     7
  5
3FB
 10
499.561333
 20
-672.12975
 30
0.0
 11
499.561333
 21
-668.62975
 31
0.0
  0
LINE
  8
1
  6
CONTINUOUS
 62
     7
  5
3FC
 10
499.561333
 20
-665.62975
 30
0.0
 11
499.561333
 21
-641.550917
 31
0.0
  0
LINE
  8
1
  6
CONTINUOUS
 62
     7
  5
3FD
 10
510.811333
 20
-662.550917
 30
0.0
 11
538.811333
 21
-662.550917
 31
0.0
  0
LINE
  8
1
  6
CONTINUOUS
 62
     7
  5
3FE
 10
510.811333
 20
-681.050917
 30
0.0
 11
538.811333
 21
-681.050917
 31
0.0
  0
LINE
  8
1
  6
CONTINUOUS
 62
     7
  5
3FF
 10
530.561333
 20
-655.550917
 30
0.0
 11
538.811333
 21
-655.550917
 31
0.0
  0
LINE
  8
1
  6
CONTINUOUS
 62
     7
  5
400
 10
537.811333
 20
-655.550917
 30
0.0
 11
537.811333
 21
-662.550917
 31
0.0
  0
LINE
  8
1
  6
CONTINUOUS
 62
     7
  5
401
 10
537.811333
 20
-662.550917
 30
0.0
 11
537.811333
 21
-681.050917
 31
0.0
  0
INSERT
  8
1
  6
CONTINUOUS
 62
     1
  5
402
  2
LDR
 10
537.811333
 20
-655.550917
 30
0.0
 41
240.0
 42
240.0
 50
90.0
210
0.0
220
0.0
230
1.0
  0
INSERT
  8
1
  6
CONTINUOUS
 62
     1
  5
403
  2
LDR
 10
537.811333
 20
-655.550917
 30
0.0
 41
240.0
 42
240.0
 50
90.0
210
0.0
220
0.0
230
1.0
  0
INSERT
  8
1
  6
CONTINUOUS
 62
     1
  5
404
  2
LDR
 10
537.811333
 20
-662.550917
 30
0.0
 41
240.0
 42
240.0
 50
270.0
210
0.0
220
0.0
230
1.0
  0
INSERT
  8
1
  6
CONTINUOUS
 62
     1
  5
405
  2
LDR
 10
537.811333
 20
-662.550917
 30
0.0
 41
240.0
 42
240.0
 50
270.0
210
0.0
220
0.0
230
1.0
  0
INSERT
  8
1
  6
CONTINUOUS
 62
     1
  5
406
  2
LDR
 10
537.811333
 20
-662.550917
 30
0.0
 41
240.0
 42
240.0
 50
90.0
210
0.0
220
0.0
230
1.0
  0
INSERT
  8
1
  6
CONTINUOUS
 62
     1
  5
407
  2
LDR
 10
537.811333
 20
-662.550917
 30
0.0
 41
240.0
 42
240.0
 50
90.0
210
0.0
220
0.0
230
1.0
  0
INSERT
  8
1
  6
CONTINUOUS
 62
     1
  5
408
  2
LDR
 10
537.811333
 20
-681.050917
 30
0.0
 41
240.0
 42
240.0
 50
270.0
210
0.0
220
0.0
230
1.0
  0
LINE
  8
1
  6
CONTINUOUS
 62
     7
  5
409
 10
491.061333
 20
-659.800917
 30
0.0
 11
491.061333
 21
-645.800917
 31
0.0
  0
LINE
  8
1
  6
CONTINUOUS
 62
     7
  5
40A
 10
508.061333
 20
-659.800917
 30
0.0
 11
508.061333
 21
-645.800917
 31
0.0
  0
LINE
  8
1
  6
CONTINUOUS
 62
     7
  5
40B
 10
469.561333
 20
-654.550917
 30
0.0
 11
469.561333
 21
-641.550917
 31
0.0
  0
LINE
  8
1
  6
CONTINUOUS
 62
     7
  5
40C
 10
469.561333
 20
-642.550917
 30
0.0
 11
499.561333
 21
-642.550917
 31
0.0
  0
LINE
  8
1
  6
CONTINUOUS
 62
     7
  5
40D
 10
491.061333
 20
-646.800917
 30
0.0
 11
499.561333
 21
-646.800917
 31
0.0
  0
LINE
  8
1
  6
CONTINUOUS
 62
     7
  5
40E
 10
499.561333
 20
-646.800917
 30
0.0
 11
508.061333
 21
-646.800917
 31
0.0
  0
INSERT
  8
1
  6
CONTINUOUS
 62
     1
  5
40F
  2
LDR
 10
469.561333
 20
-642.550917
 30
0.0
 41
240.0
 42
240.0
 50
180.0
210
0.0
220
0.0
230
1.0
  0
INSERT
  8
1
  6
CONTINUOUS
 62
     1
  5
410
  2
LDR
 10
469.561333
 20
-642.550917
 30
0.0
 41
240.0
 42
240.0
 50
180.0
210
0.0
220
0.0
230
1.0
  0
INSERT
  8
1
  6
CONTINUOUS
 62
     1
  5
411
  2
LDR
 10
499.561333
 20
-642.550917
 30
0.0
 41
240.0
 42
240.0
210
0.0
220
0.0
230
1.0
  0
INSERT
  8
1
  6
CONTINUOUS
 62
     1
  5
412
  2
LDR
 10
499.561333
 20
-642.550917
 30
0.0
 41
240.0
 42
240.0
210
0.0
220
0.0
230
1.0
  0
INSERT
  8
1
  6
CONTINUOUS
 62
     1
  5
413
  2
LDR
 10
491.061333
 20
-646.800917
 30
0.0
 41
240.0
 42
240.0
 50
180.0
210
0.0
220
0.0
230
1.0
  0
INSERT
  8
1
  6
CONTINUOUS
 62
     1
  5
414
  2
LDR
 10
491.061333
 20
-646.800917
 30
0.0
 41
240.0
 42
240.0
 50
180.0
210
0.0
220
0.0
230
1.0
  0
INSERT
  8
1
  6
CONTINUOUS
 62
     1
  5
415
  2
LDR
 10
499.561333
 20
-646.800917
 30
0.0
 41
240.0
 42
240.0
210
0.0
220
0.0
230
1.0
  0
INSERT
  8
1
  6
CONTINUOUS
 62
     1
  5
416
  2
LDR
 10
499.561333
 20
-646.800917
 30
0.0
 41
240.0
 42
240.0
210
0.0
220
0.0
230
1.0
  0
INSERT
  8
1
  6
CONTINUOUS
 62
     1
  5
417
  2
LDR
 10
499.561333
 20
-646.800917
 30
0.0
 41
240.0
 42
240.0
 50
180.0
210
0.0
220
0.0
230
1.0
  0
INSERT
  8
1
  6
CONTINUOUS
 62
     1
  5
418
  2
LDR
 10
499.561333
 20
-646.800917
 30
0.0
 41
240.0
 42
240.0
 50
180.0
210
0.0
220
0.0
230
1.0
  0
INSERT
  8
1
  6
CONTINUOUS
 62
     1
  5
419
  2
LDR
 10
508.061333
 20
-646.800917
 30
0.0
 41
240.0
 42
240.0
210
0.0
220
0.0
230
1.0
  0
LINE
  8
1
  6
CONTINUOUS
 62
   212
  5
41A
 10
529.561333
 20
-726.050917
 30
0.0
 11
469.561333
 21
-726.050917
 31
0.0
  0
LINE
  8
1
  6
CONTINUOUS
 62
   212
  5
41B
 10
469.561333
 20
-726.050917
 30
0.0
 11
499.561333
 21
-777.550917
 31
0.0
  0
LINE
  8
1
  6
CONTINUOUS
 62
   212
  5
41C
 10
529.561333
 20
-726.050917
 30
0.0
 11
499.561333
 21
-777.550917
 31
0.0
  0
LINE
  8
1
  6
HIDDEN
 62
   212
  5
41D
 10
486.311333
 20
-737.550917
 30
0.0
 11
493.811333
 21
-737.550917
 31
0.0
  0
LINE
  8
1
  6
HIDDEN
 62
   212
  5
41E
 10
493.811333
 20
-737.550917
 30
0.0
 11
505.311333
 21
-737.550917
 31
0.0
  0
LINE
  8
1
  6
HIDDEN
 62
   212
  5
41F
 10
505.311333
 20
-737.550917
 30
0.0
 11
512.811333
 21
-737.550917
 31
0.0
  0
LINE
  8
1
  6
HIDDEN
 62
   212
  5
420
 10
486.311333
 20
-749.805083
 30
0.0
 11
493.811333
 21
-749.805083
 31
0.0
  0
LINE
  8
1
  6
HIDDEN
 62
   212
  5
421
 10
493.811333
 20
-749.805083
 30
0.0
 11
505.311333
 21
-749.805083
 31
0.0
  0
LINE
  8
1
  6
HIDDEN
 62
   212
  5
422
 10
505.311333
 20
-749.805083
 30
0.0
 11
512.811333
 21
-749.805083
 31
0.0
  0
LINE
  8
1
  6
HIDDEN
 62
   212
  5
423
 10
493.811333
 20
-731.050917
 30
0.0
 11
493.811333
 21
-737.550917
 31
0.0
  0
LINE
  8
1
  6
HIDDEN
 62
   212
  5
424
 10
505.311333
 20
-731.050917
 30
0.0
 11
505.311333
 21
-737.550917
 31
0.0
  0
LINE
  8
1
  6
HIDDEN
 62
   212
  5
425
 10
505.311333
 20
-737.550917
 30
0.0
 11
505.311333
 21
-749.805083
 31
0.0
  0
LINE
  8
1
  6
HIDDEN
 62
   212
  5
426
 10
505.311333
 20
-749.805083
 30
0.0
 11
505.311333
 21
-767.680083
 31
0.0
  0
LINE
  8
1
  6
HIDDEN
 62
   212
  5
427
 10
493.811333
 20
-737.550917
 30
0.0
 11
493.811333
 21
-749.805083
 31
0.0
  0
LINE
  8
1
  6
HIDDEN
 62
   212
  5
428
 10
493.811333
 20
-749.805083
 30
0.0
 11
493.811333
 21
-767.680083
 31
0.0
  0
CIRCLE
  8
1
  6
CONTINUOUS
 62
   212
  5
429
 10
491.061333
 20
-734.428
 30
0.0
 40
0.75
210
0.0
220
0.0
230
1.0
  0
LINE
  8
1
  6
CONTINUOUS
 62
     7
  5
42A
 10
492.811333
 20
-734.428
 30
0.0
 11
489.311333
 21
-734.428
 31
0.0
  0
LINE
  8
1
  6
CONTINUOUS
 62
     7
  5
42B
 10
491.061333
 20
-732.678
 30
0.0
 11
491.061333
 21
-736.178
 31
0.0
  0
LINE
  8
1
  6
CONTINUOUS
 62
     7
  5
42C
 10
493.811333
 20
-734.428
 30
0.0
 11
495.811333
 21
-734.428
 31
0.0
  0
LINE
  8
1
  6
CONTINUOUS
 62
     7
  5
42D
 10
488.311333
 20
-734.428
 30
0.0
 11
486.311333
 21
-734.428
 31
0.0
  0
LINE
  8
1
  6
CONTINUOUS
 62
     7
  5
42E
 10
491.061333
 20
-737.178
 30
0.0
 11
491.061333
 21
-739.178
 31
0.0
  0
CIRCLE
  8
1
  6
CONTINUOUS
 62
   212
  5
42F
 10
508.061333
 20
-734.428
 30
0.0
 40
0.75
210
0.0
220
0.0
230
1.0
  0
LINE
  8
1
  6
CONTINUOUS
 62
     7
  5
430
 10
509.811333
 20
-734.428
 30
0.0
 11
506.311333
 21
-734.428
 31
0.0
  0
LINE
  8
1
  6
CONTINUOUS
 62
     7
  5
431
 10
508.061333
 20
-732.678
 30
0.0
 11
508.061333
 21
-736.178
 31
0.0
  0
LINE
  8
1
  6
CONTINUOUS
 62
     7
  5
432
 10
505.311333
 20
-734.428
 30
0.0
 11
503.311333
 21
-734.428
 31
0.0
  0
LINE
  8
1
  6
CONTINUOUS
 62
     7
  5
433
 10
508.061333
 20
-737.178
 30
0.0
 11
508.061333
 21
-739.178
 31
0.0
  0
CIRCLE
  8
1
  6
CONTINUOUS
 62
   212
  5
434
 10
508.061333
 20
-752.928
 30
0.0
 40
0.75
210
0.0
220
0.0
230
1.0
  0
LINE
  8
1
  6
CONTINUOUS
 62
     7
  5
435
 10
509.811333
 20
-752.928
 30
0.0
 11
506.311333
 21
-752.928
 31
0.0
  0
LINE
  8
1
  6
CONTINUOUS
 62
     7
  5
436
 10
508.061333
 20
-751.178
 30
0.0
 11
508.061333
 21
-754.678
 31
0.0
  0
LINE
  8
1
  6
CONTINUOUS
 62
     7
  5
437
 10
505.311333
 20
-752.928
 30
0.0
 11
503.311333
 21
-752.928
 31
0.0
  0
LINE
  8
1
  6
CONTINUOUS
 62
     7
  5
438
 10
508.061333
 20
-755.678
 30
0.0
 11
508.061333
 21
-757.678
 31
0.0
  0
LINE
  8
1
  6
CONTINUOUS
 62
     7
  5
439
 10
508.061333
 20
-750.178
 30
0.0
 11
508.061333
 21
-748.178
 31
0.0
  0
CIRCLE
  8
1
  6
CONTINUOUS
 62
   212
  5
43A
 10
491.061333
 20
-752.928
 30
0.0
 40
0.75
210
0.0
220
0.0
230
1.0
  0
LINE
  8
1
  6
CONTINUOUS
 62
     7
  5
43B
 10
492.811333
 20
-752.928
 30
0.0
 11
489.311333
 21
-752.928
 31
0.0
  0
LINE
  8
1
  6
CONTINUOUS
 62
     7
  5
43C
 10
491.061333
 20
-751.178
 30
0.0
 11
491.061333
 21
-754.678
 31
0.0
  0
LINE
  8
1
  6
CONTINUOUS
 62
     7
  5
43D
 10
493.811333
 20
-752.928
 30
0.0
 11
495.811333
 21
-752.928
 31
0.0
  0
LINE
  8
1
  6
CONTINUOUS
 62
     7
  5
43E
 10
488.311333
 20
-752.928
 30
0.0
 11
486.311333
 21
-752.928
 31
0.0
  0
LINE
  8
1
  6
CONTINUOUS
 62
     7
  5
43F
 10
491.061333
 20
-755.678
 30
0.0
 11
491.061333
 21
-757.678
 31
0.0
  0
LINE
  8
1
  6
CONTINUOUS
 62
     7
  5
440
 10
491.061333
 20
-750.178
 30
0.0
 11
491.061333
 21
-748.178
 31
0.0
  0
LINE
  8
1
  6
CONTINUOUS
 62
     7
  5
441
 10
491.061333
 20
-729.678
 30
0.0
 11
491.061333
 21
-731.678
 31
0.0
  0
LINE
  8
1
  6
CONTINUOUS
 62
     7
  5
442
 10
508.061333
 20
-729.678
 30
0.0
 11
508.061333
 21
-731.678
 31
0.0
  0
LINE
  8
1
  6
CONTINUOUS
 62
     7
  5
443
 10
510.811333
 20
-734.428
 30
0.0
 11
512.811333
 21
-734.428
 31
0.0
  0
LINE
  8
1
  6
CONTINUOUS
 62
     7
  5
444
 10
510.811333
 20
-752.928
 30
0.0
 11
512.811333
 21
-752.928
 31
0.0
  0
POLYLINE
  8
1
  6
CONTINUOUS
 62
     3
  5
445
 66
     1
 10
0.0
 20
0.0
 30
0.0
 70
     1
  0
VERTEX
  8
1
  6
CONTINUOUS
 62
     3
  5
446
 10
490.06925
 20
-737.00175
 30
0.0
  0
VERTEX
  8
1
  6
CONTINUOUS
 62
     3
  5
447
 10
490.06925
 20
-736.13575
 30
0.0
  0
VERTEX
  8
1
  6
CONTINUOUS
 62
     3
  5
448
 10
489.31925
 20
-735.70275
 30
0.0
  0
VERTEX
  8
1
  6
CONTINUOUS
 62
     3
  5
449
 10
488.56925
 20
-736.13575
 30
0.0
  0
VERTEX
  8
1
  6
CONTINUOUS
 62
     3
  5
44A
 10
488.56925
 20
-737.00175
 30
0.0
  0
VERTEX
  8
1
  6
CONTINUOUS
 62
     3
  5
44B
 10
489.31925
 20
-737.43475
 30
0.0
  0
SEQEND
  8
1
  6
CONTINUOUS
 62
     3
  5
44C
  0
POLYLINE
  8
1
  6
CONTINUOUS
 62
     3
  5
44D
 66
     1
 10
0.0
 20
0.0
 30
0.0
 70
     1
  0
VERTEX
  8
1
  6
CONTINUOUS
 62
     3
  5
44E
 10
510.544167
 20
-736.9605
 30
0.0
  0
VERTEX
  8
1
  6
CONTINUOUS
 62
     3
  5
44F
 10
510.544167
 20
-736.0945
 30
0.0
  0
VERTEX
  8
1
  6
CONTINUOUS
 62
     3
  5
450
 10
509.794167
 20
-735.6615
 30
0.0
  0
VERTEX
  8
1
  6
CONTINUOUS
 62
     3
  5
451
 10
509.044167
 20
-736.0945
 30
0.0
  0
VERTEX
  8
1
  6
CONTINUOUS
 62
     3
  5
452
 10
509.044167
 20
-736.9605
 30
0.0
  0
VERTEX
  8
1
  6
CONTINUOUS
 62
     3
  5
453
 10
509.794167
 20
-737.3935
 30
0.0
  0
SEQEND
  8
1
  6
CONTINUOUS
 62
     3
  5
454
  0
POLYLINE
  8
1
  6
CONTINUOUS
 62
     3
  5
455
 66
     1
 10
0.0
 20
0.0
 30
0.0
 70
     1
  0
VERTEX
  8
1
  6
CONTINUOUS
 62
     3
  5
456
 10
493.003417
 20
-751.17925
 30
0.0
  0
VERTEX
  8
1
  6
CONTINUOUS
 62
     3
  5
457
 10
493.003417
 20
-750.31325
 30
0.0
  0
VERTEX
  8
1
  6
CONTINUOUS
 62
     3
  5
458
 10
492.253417
 20
-749.88025
 30
0.0
  0
VERTEX
  8
1
  6
CONTINUOUS
 62
     3
  5
459
 10
491.503417
 20
-750.31325
 30
0.0
  0
VERTEX
  8
1
  6
CONTINUOUS
 62
     3
  5
45A
 10
491.503417
 20
-751.17925
 30
0.0
  0
VERTEX
  8
1
  6
CONTINUOUS
 62
     3
  5
45B
 10
492.253417
 20
-751.61225
 30
0.0
  0
SEQEND
  8
1
  6
CONTINUOUS
 62
     3
  5
45C
  0
POLYLINE
  8
1
  6
CONTINUOUS
 62
     3
  5
45D
 66
     1
 10
0.0
 20
0.0
 30
0.0
 70
     1
  0
VERTEX
  8
1
  6
CONTINUOUS
 62
     3
  5
45E
 10
507.550333
 20
-751.229583
 30
0.0
  0
VERTEX
  8
1
  6
CONTINUOUS
 62
     3
  5
45F
 10
507.550333
 20
-750.363583
 30
0.0
  0
VERTEX
  8
1
  6
CONTINUOUS
 62
     3
  5
460
 10
506.800333
 20
-749.930583
 30
0.0
  0
VERTEX
  8
1
  6
CONTINUOUS
 62
     3
  5
461
 10
506.050333
 20
-750.363583
 30
0.0
  0
VERTEX
  8
1
  6
CONTINUOUS
 62
     3
  5
462
 10
506.050333
 20
-751.229583
 30
0.0
  0
VERTEX
  8
1
  6
CONTINUOUS
 62
     3
  5
463
 10
506.800333
 20
-751.662583
 30
0.0
  0
SEQEND
  8
1
  6
CONTINUOUS
 62
     3
  5
464
  0
LINE
  8
1
  6
CONTINUOUS
 62
     7
  5
465
 10
507.52475
 20
-810.638333
 30
0.0
 11
507.52475
 21
-825.739167
 31
0.0
  0
LINE
  8
1
  6
CONTINUOUS
 62
     7
  5
466
 10
507.52475
 20
-801.332917
 30
0.0
 11
507.52475
 21
-801.832917
 31
0.0
  0
LINE
  8
1
  6
CONTINUOUS
 62
   212
  5
467
 10
506.988167
 20
-802.832917
 30
0.0
 11
508.06125
 21
-802.832917
 31
0.0
  0
LINE
  8
1
  6
CONTINUOUS
 62
   212
  5
468
 10
506.52475
 20
-803.582917
 30
0.0
 11
508.52475
 21
-803.582917
 31
0.0
  0
LINE
  8
1
  6
CONTINUOUS
 62
   212
  5
469
 10
506.52475
 20
-803.582917
 30
0.0
 11
506.52475
 21
-804.332917
 31
0.0
  0
LINE
  8
1
  6
CONTINUOUS
 62
   212
  5
46A
 10
508.52475
 20
-803.582917
 30
0.0
 11
508.52475
 21
-804.332917
 31
0.0
  0
LINE
  8
1
  6
CONTINUOUS
 62
   212
  5
46B
 10
506.988167
 20
-804.332917
 30
0.0
 11
506.988167
 21
-802.832917
 31
0.0
  0
LINE
  8
1
  6
CONTINUOUS
 62
   212
  5
46C
 10
508.06125
 20
-804.332917
 30
0.0
 11
508.06125
 21
-802.832917
 31
0.0
  0
LINE
  8
1
  6
CONTINUOUS
 62
   212
  5
46D
 10
506.52475
 20
-807.082917
 30
0.0
 11
508.52475
 21
-807.082917
 31
0.0
  0
LINE
  8
1
  6
CONTINUOUS
 62
   212
  5
46E
 10
506.52475
 20
-807.082917
 30
0.0
 11
506.52475
 21
-806.332917
 31
0.0
  0
LINE
  8
1
  6
CONTINUOUS
 62
   212
  5
46F
 10
508.52475
 20
-807.082917
 30
0.0
 11
508.52475
 21
-806.332917
 31
0.0
  0
LINE
  8
1
  6
CONTINUOUS
 62
   212
  5
470
 10
506.988167
 20
-806.332917
 30
0.0
 11
506.988167
 21
-807.082917
 31
0.0
  0
LINE
  8
1
  6
CONTINUOUS
 62
   212
  5
471
 10
508.06125
 20
-806.332917
 30
0.0
 11
508.06125
 21
-807.082917
 31
0.0
  0
LINE
  8
1
  6
CONTINUOUS
 62
     7
  5
472
 10
487.561333
 20
-819.297583
 30
0.0
 11
482.561333
 21
-819.297583
 31
0.0
  0
LINE
  8
1
  6
CONTINUOUS
 62
     7
  5
473
 10
490.597833
 20
-819.297583
 30
0.0
 11
495.597833
 21
-819.297583
 31
0.0
  0
LINE
  8
1
  6
CONTINUOUS
 62
     7
  5
474
 10
491.597833
 20
-824.739167
 30
0.0
 11
496.597833
 21
-824.739167
 31
0.0
  0
LINE
  8
1
  6
CONTINUOUS
 62
     7
  5
475
 10
485.597833
 20
-824.739167
 30
0.0
 11
490.597833
 21
-824.739167
 31
0.0
  0
LINE
  8
1
  6
CONTINUOUS
 62
     7
  5
476
 10
502.52475
 20
-824.739167
 30
0.0
 11
507.52475
 21
-824.739167
 31
0.0
  0
LINE
  8
1
  6
CONTINUOUS
 62
     7
  5
477
 10
508.52475
 20
-824.739167
 30
0.0
 11
513.52475
 21
-824.739167
 31
0.0
  0
INSERT
  8
1
  6
CONTINUOUS
 62
     1
  5
478
  2
LDR
 10
487.561333
 20
-819.297583
 30
0.0
 41
240.0
 42
240.0
210
0.0
220
0.0
230
1.0
  0
INSERT
  8
1
  6
CONTINUOUS
 62
     1
  5
479
  2
LDR
 10
487.561333
 20
-819.297583
 30
0.0
 41
240.0
 42
240.0
210
0.0
220
0.0
230
1.0
  0
INSERT
  8
1
  6
CONTINUOUS
 62
     1
  5
47A
  2
LDR
 10
490.597833
 20
-819.297583
 30
0.0
 41
240.0
 42
240.0
 50
180.0
210
0.0
220
0.0
230
1.0
  0
INSERT
  8
1
  6
CONTINUOUS
 62
     1
  5
47B
  2
LDR
 10
490.597833
 20
-819.297583
 30
0.0
 41
240.0
 42
240.0
 50
180.0
210
0.0
220
0.0
230
1.0
  0
INSERT
  8
1
  6
CONTINUOUS
 62
     1
  5
47C
  2
LDR
 10
490.597833
 20
-824.739167
 30
0.0
 41
240.0
 42
240.0
210
0.0
220
0.0
230
1.0
  0
INSERT
  8
1
  6
CONTINUOUS
 62
     1
  5
47D
  2
LDR
 10
490.597833
 20
-824.739167
 30
0.0
 41
240.0
 42
240.0
210
0.0
220
0.0
230
1.0
  0
INSERT
  8
1
  6
CONTINUOUS
 62
     1
  5
47E
  2
LDR
 10
491.597833
 20
-824.739167
 30
0.0
 41
240.0
 42
240.0
 50
180.0
210
0.0
220
0.0
230
1.0
  0
INSERT
  8
1
  6
CONTINUOUS
 62
     1
  5
47F
  2
LDR
 10
491.597833
 20
-824.739167
 30
0.0
 41
240.0
 42
240.0
 50
180.0
210
0.0
220
0.0
230
1.0
  0
INSERT
  8
1
  6
CONTINUOUS
 62
     1
  5
480
  2
LDR
 10
507.52475
 20
-824.739167
 30
0.0
 41
240.0
 42
240.0
210
0.0
220
0.0
230
1.0
  0
INSERT
  8
1
  6
CONTINUOUS
 62
     1
  5
481
  2
LDR
 10
507.52475
 20
-824.739167
 30
0.0
 41
240.0
 42
240.0
210
0.0
220
0.0
230
1.0
  0
INSERT
  8
1
  6
CONTINUOUS
 62
     1
  5
482
  2
LDR
 10
508.52475
 20
-824.739167
 30
0.0
 41
240.0
 42
240.0
 50
180.0
210
0.0
220
0.0
230
1.0
  0
LINE
  8
1
  6
CONTINUOUS
 62
     3
  5
483
 10
318.0335
 20
-883.354167
 30
0.0
 11
318.0335
 21
-929.354167
 31
0.0
  0
LINE
  8
1
  6
CONTINUOUS
 62
     3
  5
484
 10
318.0335
 20
-941.354167
 30
0.0
 11
318.0335
 21
-987.354167
 31
0.0
  0
LINE
  8
1
  6
CONTINUOUS
 62
     3
  5
485
 10
320.0335
 20
-883.354167
 30
0.0
 11
320.0335
 21
-929.354167
 31
0.0
  0
LINE
  8
1
  6
CONTINUOUS
 62
     3
  5
486
 10
320.0335
 20
-941.354167
 30
0.0
 11
320.0335
 21
-987.354167
 31
0.0
  0
LINE
  8
1
  6
CONTINUOUS
 62
     3
  5
487
 10
319.0335
 20
-881.854167
 30
0.0
 11
319.0335
 21
-884.854167
 31
0.0
  0
LINE
  8
1
  6
CONTINUOUS
 62
     3
  5
488
 10
318.0335
 20
-883.354167
 30
0.0
 11
319.0335
 21
-881.854167
 31
0.0
  0
LINE
  8
1
  6
CONTINUOUS
 62
     3
  5
489
 10
319.0335
 20
-884.854167
 30
0.0
 11
320.0335
 21
-883.354167
 31
0.0
  0
LINE
  8
1
  6
CONTINUOUS
 62
     3
  5
48A
 10
316.0335
 20
-883.354167
 30
0.0
 11
318.0335
 21
-883.354167
 31
0.0
  0
LINE
  8
1
  6
CONTINUOUS
 62
     3
  5
48B
 10
320.0335
 20
-883.354167
 30
0.0
 11
322.0335
 21
-883.354167
 31
0.0
  0
LINE
  8
1
  6
CONTINUOUS
 62
     3
  5
48C
 10
316.0335
 20
-929.354167
 30
0.0
 11
318.0335
 21
-929.354167
 31
0.0
  0
LINE
  8
1
  6
CONTINUOUS
 62
     3
  5
48D
 10
319.0335
 20
-927.854167
 30
0.0
 11
319.0335
 21
-930.854167
 31
0.0
  0
LINE
  8
1
  6
CONTINUOUS
 62
     3
  5
48E
 10
318.0335
 20
-929.354167
 30
0.0
 11
319.0335
 21
-927.854167
 31
0.0
  0
LINE
  8
1
  6
CONTINUOUS
 62
     3
  5
48F
 10
319.0335
 20
-930.854167
 30
0.0
 11
320.0335
 21
-929.354167
 31
0.0
  0
LINE
  8
1
  6
CONTINUOUS
 62
     3
  5
490
 10
320.0335
 20
-929.354167
 30
0.0
 11
322.0335
 21
-929.354167
 31
0.0
  0
LINE
  8
1
  6
CONTINUOUS
 62
     3
  5
491
 10
316.0335
 20
-941.354167
 30
0.0
 11
318.0335
 21
-941.354167
 31
0.0
  0
LINE
  8
1
  6
CONTINUOUS
 62
     3
  5
492
 10
319.0335
 20
-939.854167
 30
0.0
 11
319.0335
 21
-942.854167
 31
0.0
  0
LINE
  8
1
  6
CONTINUOUS
 62
     3
  5
493
 10
318.0335
 20
-941.354167
 30
0.0
 11
319.0335
 21
-939.854167
 31
0.0
  0
LINE
  8
1
  6
CONTINUOUS
 62
     3
  5
494
 10
319.0335
 20
-942.854167
 30
0.0
 11
320.0335
 21
-941.354167
 31
0.0
  0
LINE
  8
1
  6
CONTINUOUS
 62
     3
  5
495
 10
320.0335
 20
-941.354167
 30
0.0
 11
322.0335
 21
-941.354167
 31
0.0
  0
LINE
  8
1
  6
CONTINUOUS
 62
     3
  5
496
 10
316.0335
 20
-987.354167
 30
0.0
 11
318.0335
 21
-987.354167
 31
0.0
  0
LINE
  8
1
  6
CONTINUOUS
 62
     3
  5
497
 10
319.0335
 20
-985.854167
 30
0.0
 11
319.0335
 21
-988.854167
 31
0.0
  0
LINE
  8
1
  6
CONTINUOUS
 62
     3
  5
498
 10
318.0335
 20
-987.354167
 30
0.0
 11
319.0335
 21
-985.854167
 31
0.0
  0
LINE
  8
1
  6
CONTINUOUS
 62
     3
  5
499
 10
319.0335
 20
-988.854167
 30
0.0
 11
320.0335
 21
-987.354167
 31
0.0
  0
LINE
  8
1
  6
CONTINUOUS
 62
     3
  5
49A
 10
320.0335
 20
-987.354167
 30
0.0
 11
322.0335
 21
-987.354167
 31
0.0
  0
LINE
  8
1
  6
CONTINUOUS
 62
     3
  5
49B
 10
340.5335
 20
-884.854167
 30
0.0
 11
340.5335
 21
-933.354167
 31
0.0
  0
LINE
  8
1
  6
CONTINUOUS
 62
     3
  5
49C
 10
341.5335
 20
-884.854167
 30
0.0
 11
341.5335
 21
-933.354167
 31
0.0
  0
LINE
  8
1
  6
CONTINUOUS
 62
     3
  5
49D
 10
352.5335
 20
-884.854167
 30
0.0
 11
352.5335
 21
-933.354167
 31
0.0
  0
LINE
  8
1
  6
DASHED
 62
     3
  5
49E
 10
351.5335
 20
-884.854167
 30
0.0
 11
351.5335
 21
-933.354167
 31
0.0
  0
LINE
  8
1
  6
CONTINUOUS
 62
     3
  5
49F
 10
346.5335
 20
-883.354167
 30
0.0
 11
346.5335
 21
-886.354167
 31
0.0
  0
LINE
  8
1
  6
CONTINUOUS
 62
     3
  5
4A0
 10
345.5335
 20
-884.854167
 30
0.0
 11
346.5335
 21
-883.354167
 31
0.0
  0
LINE
  8
1
  6
CONTINUOUS
 62
     3
  5
4A1
 10
346.5335
 20
-886.354167
 30
0.0
 11
347.5335
 21
-884.854167
 31
0.0
  0
LINE
  8
1
  6
CONTINUOUS
 62
     3
  5
4A2
 10
346.5335
 20
-931.854167
 30
0.0
 11
346.5335
 21
-934.854167
 31
0.0
  0
LINE
  8
1
  6
CONTINUOUS
 62
     3
  5
4A3
 10
345.5335
 20
-933.354167
 30
0.0
 11
346.5335
 21
-931.854167
 31
0.0
  0
LINE
  8
1
  6
CONTINUOUS
 62
     3
  5
4A4
 10
346.5335
 20
-934.854167
 30
0.0
 11
347.5335
 21
-933.354167
 31
0.0
  0
LINE
  8
1
  6
CONTINUOUS
 62
     3
  5
4A5
 10
338.5335
 20
-884.854167
 30
0.0
 11
345.5335
 21
-884.854167
 31
0.0
  0
LINE
  8
1
  6
CONTINUOUS
 62
     3
  5
4A6
 10
347.5335
 20
-884.854167
 30
0.0
 11
354.5335
 21
-884.854167
 31
0.0
  0
LINE
  8
1
  6
CONTINUOUS
 62
     3
  5
4A7
 10
338.5335
 20
-933.354167
 30
0.0
 11
345.5335
 21
-933.354167
 31
0.0
  0
LINE
  8
1
  6
CONTINUOUS
 62
     3
  5
4A8
 10
347.5335
 20
-933.354167
 30
0.0
 11
354.5335
 21
-933.354167
 31
0.0
  0
LINE
  8
1
  6
CONTINUOUS
 62
     3
  5
4A9
 10
320.0335
 20
-902.854167
 30
0.0
 11
322.0335
 21
-902.854167
 31
0.0
  0
LINE
  8
1
  6
CONTINUOUS
 62
     3
  5
4AA
 10
322.0335
 20
-902.854167
 30
0.0
 11
322.0335
 21
-910.854167
 31
0.0
  0
LINE
  8
1
  6
CONTINUOUS
 62
     3
  5
4AB
 10
322.0335
 20
-910.854167
 30
0.0
 11
340.5335
 21
-910.854167
 31
0.0
  0
LINE
  8
1
  6
CONTINUOUS
 62
     3
  5
4AC
 10
320.0335
 20
-912.854167
 30
0.0
 11
334.5335
 21
-912.854167
 31
0.0
  0
LINE
  8
1
  6
CONTINUOUS
 62
     3
  5
4AD
 10
334.5335
 20
-912.854167
 30
0.0
 11
334.5335
 21
-918.854167
 31
0.0
  0
LINE
  8
1
  6
CONTINUOUS
 62
     3
  5
4AE
 10
334.5335
 20
-918.854167
 30
0.0
 11
340.5335
 21
-918.854167
 31
0.0
  0
LINE
  8
1
  6
CONTINUOUS
 62
     3
  5
4AF
 10
336.5335
 20
-912.854167
 30
0.0
 11
336.5335
 21
-917.854167
 31
0.0
  0
LINE
  8
1
  6
CONTINUOUS
 62
     3
  5
4B0
 10
336.5335
 20
-912.854167
 30
0.0
 11
339.7835
 21
-912.854167
 31
0.0
  0
LINE
  8
1
  6
CONTINUOUS
 62
     3
  5
4B1
 10
336.5335
 20
-917.854167
 30
0.0
 11
339.7835
 21
-917.854167
 31
0.0
  0
LINE
  8
1
  6
CONTINUOUS
 62
     3
  5
4B2
 10
339.7835
 20
-912.854167
 30
0.0
 11
339.7835
 21
-917.854167
 31
0.0
  0
LINE
  8
1
  6
CONTINUOUS
 62
     3
  5
4B3
 10
337.0335
 20
-913.354167
 30
0.0
 11
337.0335
 21
-917.354167
 31
0.0
  0
LINE
  8
1
  6
CONTINUOUS
 62
     3
  5
4B4
 10
337.0335
 20
-913.354167
 30
0.0
 11
339.2835
 21
-913.354167
 31
0.0
  0
LINE
  8
1
  6
CONTINUOUS
 62
     3
  5
4B5
 10
339.2835
 20
-913.354167
 30
0.0
 11
339.2835
 21
-917.354167
 31
0.0
  0
LINE
  8
1
  6
CONTINUOUS
 62
     3
  5
4B6
 10
337.0335
 20
-917.354167
 30
0.0
 11
339.2835
 21
-917.354167
 31
0.0
  0
LINE
  8
1
  6
CONTINUOUS
 62
     3
  5
4B7
 10
337.0335
 20
-914.354167
 30
0.0
 11
339.2835
 21
-914.354167
 31
0.0
  0
LINE
  8
1
  6
CONTINUOUS
 62
     3
  5
4B8
 10
337.0335
 20
-916.354167
 30
0.0
 11
339.2835
 21
-916.354167
 31
0.0
  0
LINE
  8
1
  6
DASHED
 62
     3
  5
4B9
 10
341.5335
 20
-914.354167
 30
0.0
 11
351.5335
 21
-914.354167
 31
0.0
  0
LINE
  8
1
  6
DASHED
 62
     3
  5
4BA
 10
341.5335
 20
-916.354167
 30
0.0
 11
351.5335
 21
-916.354167
 31
0.0
  0
LINE
  8
1
  6
CONTINUOUS
 62
     3
  5
4BB
 10
352.5335
 20
-914.354167
 30
0.0
 11
356.0335
 21
-914.354167
 31
0.0
  0
LINE
  8
1
  6
CONTINUOUS
 62
     3
  5
4BC
 10
352.5335
 20
-916.354167
 30
0.0
 11
356.0335
 21
-916.354167
 31
0.0
  0
LINE
  8
1
  6
CONTINUOUS
 62
     3
  5
4BD
 10
352.5335
 20
-913.354167
 30
0.0
 11
354.0335
 21
-913.354167
 31
0.0
  0
LINE
  8
1
  6
CONTINUOUS
 62
     3
  5
4BE
 10
352.5335
 20
-917.354167
 30
0.0
 11
354.0335
 21
-917.354167
 31
0.0
  0
LINE
  8
1
  6
CONTINUOUS
 62
     3
  5
4BF
 10
354.0335
 20
-913.354167
 30
0.0
 11
354.0335
 21
-917.354167
 31
0.0
  0
LINE
  8
1
  6
CONTINUOUS
 62
     3
  5
4C0
 10
356.0335
 20
-914.354167
 30
0.0
 11
356.0335
 21
-916.354167
 31
0.0
  0
LINE
  8
1
  6
CONTINUOUS
 62
     3
  5
4C1
 10
355.0335
 20
-914.354167
 30
0.0
 11
355.0335
 21
-916.354167
 31
0.0
  0
LINE
  8
1
  6
CONTINUOUS
 62
     3
  5
4C2
 10
355.5335
 20
-914.854167
 30
0.0
 11
355.5335
 21
-915.854167
 31
0.0
  0
LINE
  8
1
  6
CONTINUOUS
 62
     3
  5
4C3
 10
354.5335
 20
-914.854167
 30
0.0
 11
354.5335
 21
-915.854167
 31
0.0
  0
LINE
  8
1
  6
CONTINUOUS
 62
     7
  5
4C4
 10
357.0335
 20
-915.354167
 30
0.0
 11
361.0335
 21
-915.354167
 31
0.0
  0
LINE
  8
1
  6
CONTINUOUS
 62
     3
  5
4C5
 10
322.0335
 20
-906.854167
 30
0.0
 11
323.0335
 21
-906.854167
 31
0.0
  0
LINE
  8
1
  6
CONTINUOUS
 62
     3
  5
4C6
 10
322.0335
 20
-905.854167
 30
0.0
 11
323.0335
 21
-905.854167
 31
0.0
  0
LINE
  8
1
  6
CONTINUOUS
 62
     3
  5
4C7
 10
322.0335
 20
-907.854167
 30
0.0
 11
323.0335
 21
-907.854167
 31
0.0
  0
LINE
  8
1
  6
CONTINUOUS
 62
     3
  5
4C8
 10
323.0335
 20
-905.854167
 30
0.0
 11
323.0335
 21
-906.854167
 31
0.0
  0
LINE
  8
1
  6
CONTINUOUS
 62
     3
  5
4C9
 10
323.0335
 20
-906.854167
 30
0.0
 11
323.0335
 21
-907.854167
 31
0.0
  0
LINE
  8
1
  6
CONTINUOUS
 62
     3
  5
4CA
 10
323.0335
 20
-906.354167
 30
0.0
 11
325.0335
 21
-906.354167
 31
0.0
  0
LINE
  8
1
  6
CONTINUOUS
 62
     3
  5
4CB
 10
323.0335
 20
-907.354167
 30
0.0
 11
325.0335
 21
-907.354167
 31
0.0
  0
LINE
  8
1
  6
CONTINUOUS
 62
     3
  5
4CC
 10
325.0335
 20
-907.354167
 30
0.0
 11
325.0335
 21
-906.354167
 31
0.0
  0
LINE
  8
1
  6
CONTINUOUS
 62
     3
  5
4CD
 10
324.2835
 20
-907.354167
 30
0.0
 11
324.2835
 21
-906.354167
 31
0.0
  0
LINE
  8
1
  6
CONTINUOUS
 62
     3
  5
4CE
 10
323.5335
 20
-907.354167
 30
0.0
 11
323.5335
 21
-906.354167
 31
0.0
  0
LINE
  8
1
  6
CONTINUOUS
 62
     3
  5
4CF
 10
318.0335
 20
-906.854167
 30
0.0
 11
317.0335
 21
-906.854167
 31
0.0
  0
LINE
  8
1
  6
CONTINUOUS
 62
     3
  5
4D0
 10
318.0335
 20
-905.854167
 30
0.0
 11
317.0335
 21
-905.854167
 31
0.0
  0
LINE
  8
1
  6
CONTINUOUS
 62
     3
  5
4D1
 10
318.0335
 20
-907.854167
 30
0.0
 11
317.0335
 21
-907.854167
 31
0.0
  0
LINE
  8
1
  6
CONTINUOUS
 62
     3
  5
4D2
 10
317.0335
 20
-905.854167
 30
0.0
 11
317.0335
 21
-906.854167
 31
0.0
  0
LINE
  8
1
  6
CONTINUOUS
 62
     3
  5
4D3
 10
317.0335
 20
-906.854167
 30
0.0
 11
317.0335
 21
-907.854167
 31
0.0
  0
LINE
  8
1
  6
CONTINUOUS
 62
     7
  5
4D4
 10
328.5335
 20
-906.854167
 30
0.0
 11
326.0335
 21
-906.854167
 31
0.0
  0
LINE
  8
1
  6
CONTINUOUS
 62
     7
  5
4D5
 10
316.0335
 20
-906.854167
 30
0.0
 11
313.5335
 21
-906.854167
 31
0.0
  0
LINE
  8
1
  6
CONTINUOUS
 62
     7
  5
4D6
 10
331.2835
 20
-910.854167
 30
0.0
 11
327.51325
 21
-876.221667
 31
0.0
  0
LINE
  8
1
  6
CONTINUOUS
 62
     7
  5
4D7
 10
327.51325
 20
-876.221667
 30
0.0
 11
309.416333
 21
-876.221667
 31
0.0
  0
INSERT
  8
1
  6
CONTINUOUS
 62
     1
  5
4D8
  2
LDR
 10
331.2835
 20
-910.854167
 30
0.0
 41
239.999999
 42
239.999999
 50
276.21301
210
0.0
220
0.0
230
1.0
  0
LINE
  8
1
  6
CONTINUOUS
 62
     7
  5
4D9
 10
352.5335
 20
-898.253583
 30
0.0
 11
359.989833
 21
-890.11675
 31
0.0
  0
LINE
  8
1
  6
CONTINUOUS
 62
     7
  5
4DA
 10
359.989833
 20
-890.11675
 30
0.0
 11
364.68525
 21
-890.11675
 31
0.0
  0
INSERT
  8
1
  6
CONTINUOUS
 62
     1
  5
4DB
  2
LDR
 10
352.5335
 20
-898.253583
 30
0.0
 41
240.000001
 42
240.000001
 50
227.498854
210
0.0
220
0.0
230
1.0
  0
LINE
  8
1
  6
CONTINUOUS
 62
     3
  5
4DC
 10
341.0335
 20
-946.354167
 30
0.0
 11
341.0335
 21
-982.354167
 31
0.0
  0
LINE
  8
1
  6
CONTINUOUS
 62
     3
  5
4DD
 10
330.5335
 20
-944.354167
 30
0.0
 11
330.5335
 21
-948.354167
 31
0.0
  0
LINE
  8
1
  6
CONTINUOUS
 62
     3
  5
4DE
 10
330.5335
 20
-980.354167
 30
0.0
 11
330.5335
 21
-984.354167
 31
0.0
  0
LINE
  8
1
  6
CONTINUOUS
 62
     3
  5
4DF
 10
341.0335
 20
-946.354167
 30
0.0
 11
332.5335
 21
-946.354167
 31
0.0
  0
LINE
  8
1
  6
CONTINUOUS
 62
     3
  5
4E0
 10
328.5335
 20
-946.354167
 30
0.0
 11
320.0335
 21
-946.354167
 31
0.0
  0
LINE
  8
1
  6
CONTINUOUS
 62
     3
  5
4E1
 10
341.0335
 20
-982.354167
 30
0.0
 11
332.5335
 21
-982.354167
 31
0.0
  0
LINE
  8
1
  6
CONTINUOUS
 62
     3
  5
4E2
 10
328.5335
 20
-982.354167
 30
0.0
 11
320.0335
 21
-982.354167
 31
0.0
  0
LINE
  8
1
  6
CONTINUOUS
 62
     3
  5
4E3
 10
328.5335
 20
-946.354167
 30
0.0
 11
330.5335
 21
-944.354167
 31
0.0
  0
LINE
  8
1
  6
CONTINUOUS
 62
     3
  5
4E4
 10
332.5335
 20
-946.354167
 30
0.0
 11
330.5335
 21
-948.354167
 31
0.0
  0
LINE
  8
1
  6
CONTINUOUS
 62
     3
  5
4E5
 10
328.5335
 20
-982.354167
 30
0.0
 11
330.5335
 21
-980.354167
 31
0.0
  0
LINE
  8
1
  6
CONTINUOUS
 62
     3
  5
4E6
 10
332.5335
 20
-982.354167
 30
0.0
 11
330.5335
 21
-984.354167
 31
0.0
  0
LINE
  8
1
  6
CONTINUOUS
 62
     3
  5
4E7
 10
322.0335
 20
-946.354167
 30
0.0
 11
322.0335
 21
-982.354167
 31
0.0
  0
LINE
  8
1
  6
DASHED
 62
     3
  5
4E8
 10
337.2835
 20
-946.354167
 30
0.0
 11
337.2835
 21
-982.354167
 31
0.0
  0
LINE
  8
1
  6
DASHED
 62
     3
  5
4E9
 10
335.2835
 20
-946.354167
 30
0.0
 11
335.2835
 21
-982.354167
 31
0.0
  0
LINE
  8
1
  6
HIDDEN
 62
     3
  5
4EA
 10
338.0335
 20
-961.854167
 30
0.0
 11
338.0335
 21
-966.854167
 31
0.0
  0
LINE
  8
1
  6
HIDDEN
 62
     3
  5
4EB
 10
338.0335
 20
-961.854167
 30
0.0
 11
339.7835
 21
-961.854167
 31
0.0
  0
LINE
  8
1
  6
HIDDEN
 62
     3
  5
4EC
 10
338.0335
 20
-966.854167
 30
0.0
 11
339.7835
 21
-966.854167
 31
0.0
  0
LINE
  8
1
  6
HIDDEN
 62
     3
  5
4ED
 10
339.7835
 20
-963.104167
 30
0.0
 11
341.0335
 21
-963.104167
 31
0.0
  0
LINE
  8
1
  6
HIDDEN
 62
     3
  5
4EE
 10
339.7835
 20
-965.604167
 30
0.0
 11
341.0335
 21
-965.604167
 31
0.0
  0
LINE
  8
1
  6
CONTINUOUS
 62
     3
  5
4EF
 10
341.0335
 20
-963.104167
 30
0.0
 11
351.0335
 21
-963.104167
 31
0.0
  0
LINE
  8
1
  6
CONTINUOUS
 62
     3
  5
4F0
 10
341.0335
 20
-965.604167
 30
0.0
 11
351.0335
 21
-965.604167
 31
0.0
  0
LINE
  8
1
  6
CONTINUOUS
 62
     3
  5
4F1
 10
351.0335
 20
-968.104167
 30
0.0
 11
351.0335
 21
-960.604167
 31
0.0
  0
LINE
  8
1
  6
CONTINUOUS
 62
     3
  5
4F2
 10
353.0335
 20
-969.167083
 30
0.0
 11
353.0335
 21
-959.541167
 31
0.0
  0
LINE
  8
1
  6
CONTINUOUS
 62
     3
  5
4F3
 10
341.0335
 20
-953.854167
 30
0.0
 11
351.0335
 21
-960.604167
 31
0.0
  0
LINE
  8
1
  6
CONTINUOUS
 62
     3
  5
4F4
 10
351.0335
 20
-968.104167
 30
0.0
 11
341.0335
 21
-974.854167
 31
0.0
  0
LINE
  8
1
  6
CONTINUOUS
 62
     3
  5
4F5
 10
341.0335
 20
-949.354167
 30
0.0
 11
343.0335
 21
-949.354167
 31
0.0
  0
LINE
  8
1
  6
CONTINUOUS
 62
     3
  5
4F6
 10
341.0335
 20
-979.354167
 30
0.0
 11
343.0335
 21
-979.354167
 31
0.0
  0
LINE
  8
1
  6
CONTINUOUS
 62
     3
  5
4F7
 10
343.0335
 20
-952.791167
 30
0.0
 11
353.0335
 21
-959.541167
 31
0.0
  0
LINE
  8
1
  6
CONTINUOUS
 62
     3
  5
4F8
 10
353.0335
 20
-969.167083
 30
0.0
 11
343.0335
 21
-975.917083
 31
0.0
  0
LINE
  8
1
  6
CONTINUOUS
 62
     3
  5
4F9
 10
343.0335
 20
-949.354167
 30
0.0
 11
343.0335
 21
-952.791167
 31
0.0
  0
LINE
  8
1
  6
CONTINUOUS
 62
     3
  5
4FA
 10
343.0335
 20
-979.354167
 30
0.0
 11
343.0335
 21
-975.917083
 31
0.0
  0
LINE
  8
1
  6
CONTINUOUS
 62
     3
  5
4FB
 10
353.0335
 20
-961.854167
 30
0.0
 11
354.5335
 21
-961.854167
 31
0.0
  0
LINE
  8
1
  6
CONTINUOUS
 62
     3
  5
4FC
 10
353.0335
 20
-966.854167
 30
0.0
 11
354.5335
 21
-966.854167
 31
0.0
  0
LINE
  8
1
  6
CONTINUOUS
 62
     3
  5
4FD
 10
354.5335
 20
-961.854167
 30
0.0
 11
354.5335
 21
-966.854167
 31
0.0
  0
LINE
  8
1
  6
DASHED
 62
     3
  5
4FE
 10
339.7835
 20
-946.354167
 30
0.0
 11
339.7835
 21
-961.854167
 31
0.0
  0
LINE
  8
1
  6
DASHED
 62
     3
  5
4FF
 10
339.7835
 20
-963.104167
 30
0.0
 11
339.7835
 21
-965.604167
 31
0.0
  0
LINE
  8
1
  6
DASHED
 62
     3
  5
500
 10
339.7835
 20
-966.854167
 30
0.0
 11
339.7835
 21
-982.354167
 31
0.0
  0
LINE
  8
1
  6
CONTINUOUS
 62
     3
  5
501
 10
353.0335
 20
-963.104167
 30
0.0
 11
356.5335
 21
-963.104167
 31
0.0
  0
LINE
  8
1
  6
CONTINUOUS
 62
     3
  5
502
 10
353.0335
 20
-965.604167
 30
0.0
 11
356.5335
 21
-965.604167
 31
0.0
  0
LINE
  8
1
  6
CONTINUOUS
 62
     3
  5
503
 10
356.5335
 20
-963.104167
 30
0.0
 11
356.5335
 21
-965.604167
 31
0.0
  0
LINE
  8
1
  6
CONTINUOUS
 62
     3
  5
504
 10
356.0335
 20
-963.604167
 30
0.0
 11
356.0335
 21
-965.104167
 31
0.0
  0
LINE
  8
1
  6
CONTINUOUS
 62
     3
  5
505
 10
355.5335
 20
-963.104167
 30
0.0
 11
355.5335
 21
-965.604167
 31
0.0
  0
LINE
  8
1
  6
CONTINUOUS
 62
     3
  5
506
 10
355.0335
 20
-963.604167
 30
0.0
 11
355.0335
 21
-965.104167
 31
0.0
  0
LINE
  8
1
  6
CONTINUOUS
 62
     3
  5
507
 10
350.5335
 20
-965.104167
 30
0.0
 11
350.5335
 21
-963.604167
 31
0.0
  0
LINE
  8
1
  6
CONTINUOUS
 62
     3
  5
508
 10
350.0335
 20
-965.604167
 30
0.0
 11
350.0335
 21
-963.104167
 31
0.0
  0
LINE
  8
1
  6
CONTINUOUS
 62
     3
  5
509
 10
349.5335
 20
-965.104167
 30
0.0
 11
349.5335
 21
-963.604167
 31
0.0
  0
LINE
  8
1
  6
CONTINUOUS
 62
     3
  5
50A
 10
349.0335
 20
-965.604167
 30
0.0
 11
349.0335
 21
-963.104167
 31
0.0
  0
LINE
  8
1
  6
CONTINUOUS
 62
     3
  5
50B
 10
348.5335
 20
-965.104167
 30
0.0
 11
348.5335
 21
-963.604167
 31
0.0
  0
LINE
  8
1
  6
CONTINUOUS
 62
     3
  5
50C
 10
348.0335
 20
-965.604167
 30
0.0
 11
348.0335
 21
-963.104167
 31
0.0
  0
LINE
  8
1
  6
CONTINUOUS
 62
     3
  5
50D
 10
347.5335
 20
-965.104167
 30
0.0
 11
347.5335
 21
-963.604167
 31
0.0
  0
LINE
  8
1
  6
CONTINUOUS
 62
     3
  5
50E
 10
347.0335
 20
-965.604167
 30
0.0
 11
347.0335
 21
-963.104167
 31
0.0
  0
LINE
  8
1
  6
CONTINUOUS
 62
     3
  5
50F
 10
346.5335
 20
-965.104167
 30
0.0
 11
346.5335
 21
-963.604167
 31
0.0
  0
LINE
  8
1
  6
CONTINUOUS
 62
     3
  5
510
 10
346.0335
 20
-965.604167
 30
0.0
 11
346.0335
 21
-963.104167
 31
0.0
  0
LINE
  8
1
  6
CONTINUOUS
 62
     3
  5
511
 10
345.5335
 20
-965.104167
 30
0.0
 11
345.5335
 21
-963.604167
 31
0.0
  0
LINE
  8
1
  6
CONTINUOUS
 62
     3
  5
512
 10
345.0335
 20
-965.604167
 30
0.0
 11
345.0335
 21
-963.104167
 31
0.0
  0
LINE
  8
1
  6
CONTINUOUS
 62
     3
  5
513
 10
344.5335
 20
-965.104167
 30
0.0
 11
344.5335
 21
-963.604167
 31
0.0
  0
LINE
  8
1
  6
CONTINUOUS
 62
     3
  5
514
 10
344.0335
 20
-965.604167
 30
0.0
 11
344.0335
 21
-963.104167
 31
0.0
  0
LINE
  8
1
  6
CONTINUOUS
 62
     3
  5
515
 10
343.5335
 20
-965.104167
 30
0.0
 11
343.5335
 21
-963.604167
 31
0.0
  0
LINE
  8
1
  6
CONTINUOUS
 62
     3
  5
516
 10
343.0335
 20
-965.604167
 30
0.0
 11
343.0335
 21
-963.104167
 31
0.0
  0
LINE
  8
1
  6
CONTINUOUS
 62
     3
  5
517
 10
342.5335
 20
-965.104167
 30
0.0
 11
342.5335
 21
-963.604167
 31
0.0
  0
LINE
  8
1
  6
CONTINUOUS
 62
     3
  5
518
 10
342.0335
 20
-965.604167
 30
0.0
 11
342.0335
 21
-963.104167
 31
0.0
  0
LINE
  8
1
  6
CONTINUOUS
 62
     3
  5
519
 10
341.5335
 20
-965.104167
 30
0.0
 11
341.5335
 21
-963.604167
 31
0.0
  0
LINE
  8
1
  6
CONTINUOUS
 62
     7
  5
51A
 10
357.5335
 20
-964.354167
 30
0.0
 11
361.5335
 21
-964.354167
 31
0.0
  0
LINE
  8
1
  6
CONTINUOUS
 62
     7
  5
51B
 10
361.0335
 20
-939.854167
 30
0.0
 11
365.949583
 21
-939.854167
 31
0.0
  0
LINE
  8
1
  6
CONTINUOUS
 62
     7
  5
51C
 10
353.994
 20
-916.305333
 30
0.0
 11
361.0335
 21
-939.854167
 31
0.0
  0
LINE
  8
1
  6
CONTINUOUS
 62
     7
  5
51D
 10
354.466833
 20
-963.14275
 30
0.0
 11
361.0335
 21
-939.854167
 31
0.0
  0
INSERT
  8
1
  6
CONTINUOUS
 62
     1
  5
51E
  2
LDR
 10
353.994
 20
-916.305333
 30
0.0
 41
239.999999
 42
239.999999
 50
106.643089
210
0.0
220
0.0
230
1.0
  0
INSERT
  8
1
  6
CONTINUOUS
 62
     1
  5
51F
  2
LDR
 10
353.994
 20
-916.305333
 30
0.0
 41
239.999999
 42
239.999999
 50
106.643089
210
0.0
220
0.0
230
1.0
  0
INSERT
  8
1
  6
CONTINUOUS
 62
     1
  5
520
  2
LDR
 10
354.466833
 20
-963.14275
 30
0.0
 41
240.0
 42
240.0
 50
254.253175
210
0.0
220
0.0
230
1.0
  0
LINE
  8
1
  6
CONTINUOUS
 62
     7
  5
521
 10
296.4155
 20
-939.854167
 30
0.0
 11
301.331583
 21
-939.854167
 31
0.0
  0
LINE
  8
1
  6
CONTINUOUS
 62
     7
  5
522
 10
301.331583
 20
-939.854167
 30
0.0
 11
318.0335
 21
-916.2675
 31
0.0
  0
LINE
  8
1
  6
CONTINUOUS
 62
     7
  5
523
 10
301.331583
 20
-939.854167
 30
0.0
 11
318.0335
 21
-963.440833
 31
0.0
  0
INSERT
  8
1
  6
CONTINUOUS
 62
     1
  5
524
  2
LDR
 10
318.0335
 20
-916.2675
 30
0.0
 41
240.0
 42
240.0
 50
54.697369
210
0.0
220
0.0
230
1.0
  0
INSERT
  8
1
  6
CONTINUOUS
 62
     1
  5
525
  2
LDR
 10
318.0335
 20
-916.2675
 30
0.0
 41
240.0
 42
240.0
 50
54.697369
210
0.0
220
0.0
230
1.0
  0
INSERT
  8
1
  6
CONTINUOUS
 62
     1
  5
526
  2
LDR
 10
318.0335
 20
-963.440833
 30
0.0
 41
240.0
 42
240.0
 50
305.302631
210
0.0
220
0.0
230
1.0
  0
LINE
  8
1
  6
CONTINUOUS
 62
     7
  5
527
 10
348.0335
 20
-972.542083
 30
0.0
 11
353.268083
 21
-983.162083
 31
0.0
  0
LINE
  8
1
  6
CONTINUOUS
 62
     7
  5
528
 10
353.268083
 20
-983.162083
 30
0.0
 11
357.510417
 21
-983.162083
 31
0.0
  0
INSERT
  8
1
  6
CONTINUOUS
 62
     1
  5
529
  2
LDR
 10
348.0335
 20
-972.542083
 30
0.0
 41
240.000002
 42
240.000002
 50
116.238624
210
0.0
220
0.0
230
1.0
  0
LINE
  8
1
  6
CONTINUOUS
 62
     7
  5
52A
 10
337.2835
 20
-982.354167
 30
0.0
 11
342.201083
 21
-995.70875
 31
0.0
  0
LINE
  8
1
  6
CONTINUOUS
 62
     7
  5
52B
 10
342.201083
 20
-995.70875
 30
0.0
 11
346.99675
 21
-995.70875
 31
0.0
  0
INSERT
  8
1
  6
CONTINUOUS
 62
     1
  5
52C
  2
LDR
 10
337.2835
 20
-982.354167
 30
0.0
 41
239.999999
 42
239.999999
 50
110.215315
210
0.0
220
0.0
230
1.0
  0
LINE
  8
1
  6
CONTINUOUS
 62
    52
  5
52D
 10
578.742917
 20
-848.365583
 30
0.0
 11
578.742917
 21
-921.365583
 31
0.0
  0
LINE
  8
1
  6
CONTINUOUS
 62
    52
  5
52E
 10
578.742917
 20
-921.365583
 30
0.0
 11
397.742917
 21
-921.365583
 31
0.0
  0
LINE
  8
1
  6
CONTINUOUS
 62
    52
  5
52F
 10
397.742917
 20
-860.365583
 30
0.0
 11
578.742917
 21
-860.365583
 31
0.0
  0
LINE
  8
1
  6
CONTINUOUS
 62
    52
  5
530
 10
397.742917
 20
-861.365583
 30
0.0
 11
578.742917
 21
-861.365583
 31
0.0
  0
LINE
  8
1
  6
CONTINUOUS
 62
    52
  5
531
 10
397.742917
 20
-891.365583
 30
0.0
 11
578.742917
 21
-891.365583
 31
0.0
  0
LINE
  8
1
  6
CONTINUOUS
 62
    52
  5
532
 10
427.742917
 20
-921.365583
 30
0.0
 11
427.742917
 21
-848.365583
 31
0.0
  0
LINE
  8
1
  6
CONTINUOUS
 62
    52
  5
533
 10
428.742917
 20
-921.365583
 30
0.0
 11
428.742917
 21
-848.365583
 31
0.0
  0
LINE
  8
1
  6
CONTINUOUS
 62
    52
  5
534
 10
458.742917
 20
-921.365583
 30
0.0
 11
458.742917
 21
-848.365583
 31
0.0
  0
LINE
  8
1
  6
CONTINUOUS
 62
    52
  5
535
 10
488.742917
 20
-921.365583
 30
0.0
 11
488.742917
 21
-848.365583
 31
0.0
  0
LINE
  8
1
  6
CONTINUOUS
 62
    52
  5
536
 10
518.742917
 20
-921.365583
 30
0.0
 11
518.742917
 21
-848.365583
 31
0.0
  0
LINE
  8
1
  6
CONTINUOUS
 62
    52
  5
537
 10
548.742917
 20
-921.365583
 30
0.0
 11
548.742917
 21
-848.365583
 31
0.0
  0
LINE
  8
1
  6
CONTINUOUS
 62
    52
  5
538
 10
428.742917
 20
-854.365583
 30
0.0
 11
458.742917
 21
-854.365583
 31
0.0
  0
LINE
  8
1
  6
CONTINUOUS
 62
    52
  5
539
 10
428.742917
 20
-871.365583
 30
0.0
 11
578.742917
 21
-871.365583
 31
0.0
  0
LINE
  8
1
  6
CONTINUOUS
 62
    52
  5
53A
 10
428.742917
 20
-881.365583
 30
0.0
 11
578.742917
 21
-881.365583
 31
0.0
  0
LINE
  8
1
  6
CONTINUOUS
 62
    52
  5
53B
 10
428.742917
 20
-901.365583
 30
0.0
 11
578.742917
 21
-901.365583
 31
0.0
  0
LINE
  8
1
  6
CONTINUOUS
 62
    52
  5
53C
 10
428.742917
 20
-911.365583
 30
0.0
 11
578.742917
 21
-911.365583
 31
0.0
  0
LINE
  8
1
  6
CONTINUOUS
 62
    52
  5
53D
 10
443.742917
 20
-854.365583
 30
0.0
 11
443.742917
 21
-891.365583
 31
0.0
  0
LINE
  8
1
  6
CONTINUOUS
 62
    52
  5
53E
 10
397.742917
 20
-848.365583
 30
0.0
 11
427.742917
 21
-848.365583
 31
0.0
  0
LINE
  8
1
  6
CONTINUOUS
 62
    52
  5
53F
 10
427.742917
 20
-848.365583
 30
0.0
 11
578.742917
 21
-848.365583
 31
0.0
  0
LINE
  8
1
  6
CONTINUOUS
 62
    52
  5
540
 10
397.742917
 20
-860.365583
 30
0.0
 11
397.742917
 21
-848.365583
 31
0.0
  0
LINE
  8
1
  6
CONTINUOUS
 62
    52
  5
541
 10
397.742917
 20
-921.365583
 30
0.0
 11
397.742917
 21
-891.365583
 31
0.0
  0
LINE
  8
1
  6
CONTINUOUS
 62
    52
  5
542
 10
397.742917
 20
-891.365583
 30
0.0
 11
397.742917
 21
-860.365583
 31
0.0
  0
TEXT
  8
1
  6
CONTINUOUS
 62
     7
  5
543
 10
401.650333
 20
-855.6575
 30
0.0
 40
2.5
  1
SIGN SHAPE
  7
MONOTXT
 72
     4
 11
412.7625
 21
-854.4075
 31
0.0
210
0.0
220
0.0
230
1.0
  0
TEXT
  8
1
  6
CONTINUOUS
 62
     7
  5
544
 10
404.279917
 20
-873.085333
 30
0.0
 40
2.5
  1
OCTAGON
  7
MONOTXT
 72
     4
 11
412.85275
 21
-871.835333
 31
0.0
210
0.0
220
0.0
230
1.0
  0
TEXT
  8
1
  6
CONTINUOUS
 62
     7
  5
545
 10
412.006333
 20
-877.585333
 30
0.0
 40
2.5
  1
 
  7
MONOTXT
 72
     4
 11
412.839667
 21
-876.335333
 31
0.0
210
0.0
220
0.0
230
1.0
  0
TEXT
  8
1
  6
CONTINUOUS
 62
     7
  5
546
 10
408.049583
 20
-882.085333
 30
0.0
 40
2.5
  1
(R1-1)
  7
MONOTXT
 72
     4
 11
412.842917
 21
-880.835333
 31
0.0
210
0.0
220
0.0
230
1.0
  0
TEXT
  8
1
  6
CONTINUOUS
 62
     7
  5
547
 10
400.705417
 20
-898.634583
 30
0.0
 40
2.5
  1
EQUILATERAL
  7
MONOTXT
 72
     4
 11
412.762417
 21
-897.384583
 31
0.0
210
0.0
220
0.0
230
1.0
  0
TEXT
  8
1
  6
CONTINUOUS
 62
     7
  5
548
 10
411.916083
 20
-903.134583
 30
0.0
 40
2.5
  1
 
  7
MONOTXT
 72
     4
 11
412.749417
 21
-901.884583
 31
0.0
210
0.0
220
0.0
230
1.0
  0
TEXT
  8
1
  6
CONTINUOUS
 62
     7
  5
549
 10
404.24875
 20
-907.634583
 30
0.0
 40
2.5
  1
TRIANGLE
  7
MONOTXT
 72
     4
 11
412.7625
 21
-906.384583
 31
0.0
210
0.0
220
0.0
230
1.0
  0
TEXT
  8
1
  6
CONTINUOUS
 62
     7
  5
54A
 10
411.916083
 20
-912.134583
 30
0.0
 40
2.5
  1
 
  7
MONOTXT
 72
     4
 11
412.749417
 21
-910.884583
 31
0.0
210
0.0
220
0.0
230
1.0
  0
TEXT
  8
1
  6
CONTINUOUS
 62
     7
  5
54B
 10
407.427833
 20
-916.634583
 30
0.0
 40
2.5
  1
(R1-2)
  7
MONOTXT
 72
     4
 11
412.752667
 21
-915.384583
 31
0.0
210
0.0
220
0.0
230
1.0
  0
TEXT
  8
1
  6
CONTINUOUS
 62
     7
  5
54C
 10
440.123083
 20
-852.589417
 30
0.0
 40
2.5
  1
SIZE
  7
MONOTXT
 72
     4
 11
443.79425
 21
-851.339417
 31
0.0
210
0.0
220
0.0
230
1.0
  0
TEXT
  8
1
  6
CONTINUOUS
 62
     7
  5
54D
 10
430.006167
 20
-858.635417
 30
0.0
 40
2.5
  1
HEIGHT
  7
MONOTXT
 72
     4
 11
436.21675
 21
-857.385417
 31
0.0
210
0.0
220
0.0
230
1.0
  0
TEXT
  8
1
  6
CONTINUOUS
 62
     7
  5
54E
 10
445.95675
 20
-858.635417
 30
0.0
 40
2.5
  1
WIDTH
  7
MONOTXT
 72
     4
 11
451.2815
 21
-857.385417
 31
0.0
210
0.0
220
0.0
230
1.0
  0
TEXT
  8
1
  6
CONTINUOUS
 62
     7
  5
54F
 10
460.21175
 20
-855.6575
 30
0.0
 40
2.5
  1
DIMENSION "A"
  7
MONOTXT
 72
     4
 11
473.823917
 21
-854.4075
 31
0.0
210
0.0
220
0.0
230
1.0
  0
TEXT
  8
1
  6
CONTINUOUS
 62
     7
  5
550
 10
433.204917
 20
-867.659167
 30
0.0
 40
2.5
  1
30"
  7
MONOTXT
 72
     4
 11
436.206917
 21
-866.409167
 31
0.0
210
0.0
220
0.0
230
1.0
  0
TEXT
  8
1
  6
CONTINUOUS
 62
     7
  5
551
 10
448.26975
 20
-867.659167
 30
0.0
 40
2.5
  1
30"
  7
MONOTXT
 72
     4
 11
451.27175
 21
-866.409167
 31
0.0
210
0.0
220
0.0
230
1.0
  0
TEXT
  8
1
  6
CONTINUOUS
 62
     7
  5
552
 10
433.264
 20
-877.585333
 30
0.0
 40
2.5
  1
36"
  7
MONOTXT
 72
     4
 11
436.206833
 21
-876.335333
 31
0.0
210
0.0
220
0.0
230
1.0
  0
TEXT
  8
1
  6
CONTINUOUS
 62
     7
  5
553
 10
448.328833
 20
-877.585333
 30
0.0
 40
2.5
  1
36"
  7
MONOTXT
 72
     4
 11
451.271667
 21
-876.335333
 31
0.0
210
0.0
220
0.0
230
1.0
  0
TEXT
  8
1
  6
CONTINUOUS
 62
     7
  5
554
 10
433.326333
 20
-887.78225
 30
0.0
 40
2.5
  1
48"
  7
MONOTXT
 72
     4
 11
436.387333
 21
-886.53225
 31
0.0
210
0.0
220
0.0
230
1.0
  0
TEXT
  8
1
  6
CONTINUOUS
 62
     7
  5
555
 10
448.21075
 20
-887.78225
 30
0.0
 40
2.5
  1
48"
  7
MONOTXT
 72
     4
 11
451.27175
 21
-886.53225
 31
0.0
210
0.0
220
0.0
230
1.0
  0
TEXT
  8
1
  6
CONTINUOUS
 62
     7
  5
556
 10
429.945917
 20
-897.708417
 30
0.0
 40
2.5
  1
36" ALL SIDES
  7
MONOTXT
 72
     4
 11
443.79425
 21
-896.458417
 31
0.0
210
0.0
220
0.0
230
1.0
  0
TEXT
  8
1
  6
CONTINUOUS
 62
     7
  5
557
 10
429.918
 20
-907.454083
 30
0.0
 40
2.5
  1
48" ALL SIDES
  7
MONOTXT
 72
     4
 11
443.8845
 21
-906.204083
 31
0.0
210
0.0
220
0.0
230
1.0
  0
TEXT
  8
1
  6
CONTINUOUS
 62
     7
  5
558
 10
429.945917
 20
-917.651
 30
0.0
 40
2.5
  1
60" ALL SIDES
  7
MONOTXT
 72
     4
 11
443.79425
 21
-916.401
 31
0.0
210
0.0
220
0.0
230
1.0
  0
TEXT
  8
1
  6
CONTINUOUS
 62
     7
  5
559
 10
471.173
 20
-867.659167
 30
0.0
 40
2.5
  1
12"
  7
MONOTXT
 72
     4
 11
473.6435
 21
-866.409167
 31
0.0
210
0.0
220
0.0
230
1.0
  0
TEXT
  8
1
  6
CONTINUOUS
 62
     7
  5
55A
 10
471.322333
 20
-877.585333
 30
0.0
 40
2.5
  1
16"
  7
MONOTXT
 72
     4
 11
473.733667
 21
-876.335333
 31
0.0
210
0.0
220
0.0
230
1.0
  0
TEXT
  8
1
  6
CONTINUOUS
 62
     7
  5
55B
 10
471.26325
 20
-887.60175
 30
0.0
 40
2.5
  1
15"
  7
MONOTXT
 72
     4
 11
473.73375
 21
-886.35175
 31
0.0
210
0.0
220
0.0
230
1.0
  0
TEXT
  8
1
  6
CONTINUOUS
 62
     7
  5
55C
 10
471.971917
 20
-897.618167
 30
0.0
 40
2.5
  1
2"
  7
MONOTXT
 72
     4
 11
473.73375
 21
-896.368167
 31
0.0
210
0.0
220
0.0
230
1.0
  0
TEXT
  8
1
  6
CONTINUOUS
 62
     7
  5
55D
 10
471.971917
 20
-907.634583
 30
0.0
 40
2.5
  1
3"
  7
MONOTXT
 72
     4
 11
473.73375
 21
-906.384583
 31
0.0
210
0.0
220
0.0
230
1.0
  0
TEXT
  8
1
  6
CONTINUOUS
 62
     7
  5
55E
 10
472.031
 20
-917.74125
 30
0.0
 40
2.5
  1
6"
  7
MONOTXT
 72
     4
 11
473.73375
 21
-916.49125
 31
0.0
210
0.0
220
0.0
230
1.0
  0
TEXT
  8
1
  6
CONTINUOUS
 62
     7
  5
55F
 10
490.024083
 20
-855.616917
 30
0.0
 40
2.5
  1
DIMENSION "B"
  7
MONOTXT
 72
     4
 11
503.695333
 21
-854.366917
 31
0.0
210
0.0
220
0.0
230
1.0
  0
TEXT
  8
1
  6
CONTINUOUS
 62
     7
  5
560
 10
520.000667
 20
-855.616917
 30
0.0
 40
2.5
  1
DIMENSION "C"
  7
MONOTXT
 72
     4
 11
533.731
 21
-854.366917
 31
0.0
210
0.0
220
0.0
230
1.0
  0
TEXT
  8
1
  6
CONTINUOUS
 62
     7
  5
561
 10
550.0955
 20
-855.616917
 30
0.0
 40
2.5
  1
DIMENSION "D"
  7
MONOTXT
 72
     4
 11
563.76675
 21
-854.366917
 31
0.0
210
0.0
220
0.0
230
1.0
  0
TEXT
  8
1
  6
CONTINUOUS
 62
     7
  5
562
 10
501.3155
 20
-867.689583
 30
0.0
 40
2.5
  1
15"
  7
MONOTXT
 72
     4
 11
503.786
 21
-866.439583
 31
0.0
210
0.0
220
0.0
230
1.0
  0
TEXT
  8
1
  6
CONTINUOUS
 62
     7
  5
563
 10
501.3155
 20
-877.58375
 30
0.0
 40
2.5
  1
18"
  7
MONOTXT
 72
     4
 11
503.786
 21
-876.33375
 31
0.0
210
0.0
220
0.0
230
1.0
  0
TEXT
  8
1
  6
CONTINUOUS
 62
     7
  5
564
 10
501.3155
 20
-887.659417
 30
0.0
 40
2.5
  1
15"
  7
MONOTXT
 72
     4
 11
503.786
 21
-886.409417
 31
0.0
210
0.0
220
0.0
230
1.0
  0
TEXT
  8
1
  6
CONTINUOUS
 62
     7
  5
565
 10
501.58775
 20
-897.644333
 30
0.0
 40
2.5
  1
18"
  7
MONOTXT
 72
     4
 11
504.05825
 21
-896.394333
 31
0.0
210
0.0
220
0.0
230
1.0
  0
TEXT
  8
1
  6
CONTINUOUS
 62
     7
  5
566
 10
501.3155
 20
-907.62925
 30
0.0
 40
2.5
  1
21"
  7
MONOTXT
 72
     4
 11
503.786
 21
-906.37925
 31
0.0
210
0.0
220
0.0
230
1.0
  0
TEXT
  8
1
  6
CONTINUOUS
 62
     7
  5
567
 10
500.725
 20
-917.614167
 30
0.0
 40
2.5
  1
24"
  7
MONOTXT
 72
     4
 11
503.786
 21
-916.364167
 31
0.0
210
0.0
220
0.0
230
1.0
  0
TEXT
  8
1
  6
CONTINUOUS
 62
     7
  5
568
 10
530.76075
 20
-907.62925
 30
0.0
 40
2.5
  1
24"
  7
MONOTXT
 72
     4
 11
533.82175
 21
-906.37925
 31
0.0
210
0.0
220
0.0
230
1.0
  0
TEXT
  8
1
  6
CONTINUOUS
 62
     7
  5
569
 10
530.8515
 20
-897.825917
 30
0.0
 40
2.5
  1
24"
  7
MONOTXT
 72
     4
 11
533.9125
 21
-896.575917
 31
0.0
210
0.0
220
0.0
230
1.0
  0
TEXT
  8
1
  6
CONTINUOUS
 62
     7
  5
56A
 10
530.729
 20
-917.614167
 30
0.0
 40
2.5
  1
30"
  7
MONOTXT
 72
     4
 11
533.731
 21
-916.364167
 31
0.0
210
0.0
220
0.0
230
1.0
  0
TEXT
  8
1
  6
CONTINUOUS
 62
     7
  5
56B
 10
562.064
 20
-917.614167
 30
0.0
 40
2.5
  1
9"
  7
MONOTXT
 72
     4
 11
563.76675
 21
-916.364167
 31
0.0
210
0.0
220
0.0
230
1.0
  0
TEXT
  8
1
  6
CONTINUOUS
 62
     7
  5
56C
 10
560.02875
 20
-907.62925
 30
0.0
 40
2.5
  1
7 1/2 "
  7
MONOTXT
 72
     4
 11
563.857417
 21
-906.37925
 31
0.0
210
0.0
220
0.0
230
1.0
  0
LINE
  8
1
  6
CONTINUOUS
 62
     7
  5
56D
 10
527.231
 20
-876.33375
 30
0.0
 11
540.231
 21
-876.33375
 31
0.0
  0
LINE
  8
1
  6
CONTINUOUS
 62
     7
  5
56E
 10
527.231
 20
-866.348833
 30
0.0
 11
540.231
 21
-866.348833
 31
0.0
  0
LINE
  8
1
  6
CONTINUOUS
 62
     7
  5
56F
 10
527.231
 20
-886.318667
 30
0.0
 11
540.231
 21
-886.318667
 31
0.0
  0
LINE
  8
1
  6
CONTINUOUS
 62
     7
  5
570
 10
557.26675
 20
-866.348833
 30
0.0
 11
570.26675
 21
-866.348833
 31
0.0
  0
LINE
  8
1
  6
CONTINUOUS
 62
     7
  5
571
 10
557.26675
 20
-876.33375
 30
0.0
 11
570.26675
 21
-876.33375
 31
0.0
  0
LINE
  8
1
  6
CONTINUOUS
 62
     7
  5
572
 10
557.176
 20
-886.409417
 30
0.0
 11
570.176
 21
-886.409417
 31
0.0
  0
LINE
  8
1
  6
CONTINUOUS
 62
     7
  5
573
 10
557.26675
 20
-896.394333
 30
0.0
 11
570.26675
 21
-896.394333
 31
0.0
  0
TEXT
  8
1
  6
CONTINUOUS
 62
     7
  5
574
 10
100.67025
 20
-873.803
 30
0.0
 40
2.0
  1
GENERAL NOTES
  7
MONOTXT
 72
     4
 11
113.00875
 21
-872.803
 31
0.0
210
0.0
220
0.0
230
1.0
  0
LINE
  8
1
  6
CONTINUOUS
 62
     7
  5
575
 10
98.7935
 20
-874.637333
 30
0.0
 11
127.280917
 21
-874.637333
 31
0.0
  0
TEXT
  8
1
  6
CONTINUOUS
 62
     7
  5
576
 10
39.059583
 20
-663.51575
 30
0.0
 40
2.0
  1
1
  7
MONOTXT
 72
     4
 11
39.29575
 21
-662.51575
 31
0.0
210
0.0
220
0.0
230
1.0
  0
TEXT
  8
1
  6
CONTINUOUS
 62
     7
  5
577
 10
38.634417
 20
-709.569
 30
0.0
 40
2.0
  1
2
  7
MONOTXT
 72
     4
 11
39.303667
 21
-708.569
 31
0.0
210
0.0
220
0.0
230
1.0
  0
TEXT
  8
1
  6
CONTINUOUS
 62
     7
  5
578
 10
89.717583
 20
-674.5285
 30
0.0
 40
2.0
  1
A
  7
MONOTXT
 72
     4
 11
90.48925
 21
-673.5285
 31
0.0
210
0.0
220
0.0
230
1.0
  0
TEXT
  8
1
  6
CONTINUOUS
 62
     7
  5
579
 10
89.8605
 20
-697.698167
 30
0.0
 40
2.0
  1
A
  7
MONOTXT
 72
     4
 11
90.632167
 21
-696.698167
 31
0.0
210
0.0
220
0.0
230
1.0
  0
TEXT
  8
1
  6
CONTINUOUS
 62
     7
  5
57A
 10
34.488167
 20
-727.875917
 30
0.0
 40
2.0
  1
B
  7
MONOTXT
 72
     4
 11
35.157417
 21
-726.875917
 31
0.0
210
0.0
220
0.0
230
1.0
  0
TEXT
  8
1
  6
CONTINUOUS
 62
     7
  5
57B
 10
0.549333
 20
-718.43525
 30
0.0
 40
2.0
  1
30" x 30"
  7
MONOTXT
 11
0.549333
 21
-716.43525
 31
0.0
210
0.0
220
0.0
230
1.0
 73
     3
  0
TEXT
  8
1
  6
CONTINUOUS
 62
     7
  5
57C
 10
0.549333
 20
-722.43525
 30
0.0
 40
2.0
  1
36" x 36"
  7
MONOTXT
 11
0.549333
 21
-720.43525
 31
0.0
210
0.0
220
0.0
230
1.0
 73
     3
  0
TEXT
  8
1
  6
CONTINUOUS
 62
     7
  5
57D
 10
39.223417
 20
-752.409083
 30
0.0
 40
2.0
  1
1
  7
MONOTXT
 72
     4
 11
39.459583
 21
-751.409083
 31
0.0
210
0.0
220
0.0
230
1.0
  0
TEXT
  8
1
  6
CONTINUOUS
 62
     7
  5
57E
 10
38.630417
 20
-798.414667
 30
0.0
 40
2.0
  1
2
  7
MONOTXT
 72
     4
 11
39.299667
 21
-797.414667
 31
0.0
210
0.0
220
0.0
230
1.0
  0
TEXT
  8
1
  6
CONTINUOUS
 62
     7
  5
57F
 10
71.18225
 20
-748.043583
 30
0.0
 40
2.0
  1
SIGN FACE
  7
MONOTXT
 72
     4
 11
79.079833
 21
-747.043583
 31
0.0
210
0.0
220
0.0
230
1.0
  0
TEXT
  8
1
  6
CONTINUOUS
 62
     7
  5
580
 10
103.736083
 20
-748.043583
 30
0.0
 40
2.0
  1
GEN. NOTE 2.5.2
  7
MONOTXT
 72
     4
 11
116.342333
 21
-747.043583
 31
0.0
210
0.0
220
0.0
230
1.0
  0
TEXT
  8
1
  6
CONTINUOUS
 62
     7
  5
581
 10
106.698667
 20
-752.409083
 30
0.0
 40
2.0
  1
1
  7
MONOTXT
 72
     4
 11
106.934833
 21
-751.409083
 31
0.0
210
0.0
220
0.0
230
1.0
  0
TEXT
  8
1
  6
CONTINUOUS
 62
     7
  5
582
 10
106.2735
 20
-798.414667
 30
0.0
 40
2.0
  1
2
  7
MONOTXT
 72
     4
 11
106.94275
 21
-797.414667
 31
0.0
210
0.0
220
0.0
230
1.0
  0
TEXT
  8
1
  6
CONTINUOUS
 62
     7
  5
583
 10
147.298417
 20
-740.82375
 30
0.0
 40
2.0
  1
GEN. NOTE 2.5.1
  7
MONOTXT
 72
     4
 11
159.471583
 21
-739.82375
 31
0.0
210
0.0
220
0.0
230
1.0
  0
TEXT
  8
1
  6
CONTINUOUS
 62
     7
  5
584
 10
162.29025
 20
-718.492583
 30
0.0
 40
2.0
  1
48" x 48"
  7
MONOTXT
 72
     4
 11
170.046167
 21
-717.492583
 31
0.0
210
0.0
220
0.0
230
1.0
  0
TEXT
  8
1
  6
CONTINUOUS
 62
     7
  5
585
 10
48.876083
 20
-822.365
 30
0.0
 40
2.0
  1
1,2
  7
MONOTXT
 72
     4
 11
50.61625
 21
-821.365
 31
0.0
210
0.0
220
0.0
230
1.0
  0
TEXT
  8
1
  6
CONTINUOUS
 62
     7
  5
586
 10
58.350917
 20
-845.064417
 30
0.0
 40
2.0
  1
SIGN FACE
  7
MONOTXT
 72
     4
 11
66.2485
 21
-844.064417
 31
0.0
210
0.0
220
0.0
230
1.0
  0
TEXT
  8
1
  6
CONTINUOUS
 62
     7
  5
587
 10
199.381417
 20
-645.781667
 30
0.0
 40
2.0
  1
B
  7
MONOTXT
 72
     4
 11
200.050667
 21
-644.781667
 31
0.0
210
0.0
220
0.0
230
1.0
  0
TEXT
  8
1
  6
CONTINUOUS
 62
     7
  5
588
 10
213.865833
 20
-645.781667
 30
0.0
 40
2.0
  1
B
  7
MONOTXT
 72
     4
 11
214.535083
 21
-644.781667
 31
0.0
210
0.0
220
0.0
230
1.0
  0
TEXT
  8
1
  6
CONTINUOUS
 62
     7
  5
589
 10
197.657083
 20
-671.425083
 30
0.0
 40
2.0
  1
2
  7
MONOTXT
 72
     4
 11
198.326333
 21
-670.425083
 31
0.0
210
0.0
220
0.0
230
1.0
  0
TEXT
  8
1
  6
CONTINUOUS
 62
     7
  5
58A
 10
215.935
 20
-671.770083
 30
0.0
 40
2.0
  1
3
  7
MONOTXT
 72
     4
 11
216.60425
 21
-670.770083
 31
0.0
210
0.0
220
0.0
230
1.0
  0
TEXT
  8
1
  6
CONTINUOUS
 62
     7
  5
58B
 10
193.91075
 20
-703.968167
 30
0.0
 40
2.0
  1
6
  7
MONOTXT
 72
     4
 11
194.53275
 21
-702.968167
 31
0.0
210
0.0
220
0.0
230
1.0
  0
TEXT
  8
1
  6
CONTINUOUS
 62
     7
  5
58C
 10
219.712833
 20
-703.968167
 30
0.0
 40
2.0
  1
7
  7
MONOTXT
 72
     4
 11
220.39
 21
-702.968167
 31
0.0
210
0.0
220
0.0
230
1.0
  0
TEXT
  8
1
  6
CONTINUOUS
 62
     7
  5
58D
 10
246.87075
 20
-678.784667
 30
0.0
 40
2.0
  1
A
  7
MONOTXT
 72
     4
 11
247.642417
 21
-677.784667
 31
0.0
210
0.0
220
0.0
230
1.0
  0
TEXT
  8
1
  6
CONTINUOUS
 62
     7
  5
58E
 10
246.75575
 20
-694.53875
 30
0.0
 40
2.0
  1
A
  7
MONOTXT
 72
     4
 11
247.527417
 21
-693.53875
 31
0.0
210
0.0
220
0.0
230
1.0
  0
TEXT
  8
1
  6
CONTINUOUS
 62
     7
  5
58F
 10
183.19875
 20
-759.462083
 30
0.0
 40
2.0
  1
1
  7
MONOTXT
 72
     4
 11
183.434917
 21
-758.462083
 31
0.0
210
0.0
220
0.0
230
1.0
  0
TEXT
  8
1
  6
CONTINUOUS
 62
     7
  5
590
 10
194.0085
 20
-766.144417
 30
0.0
 40
2.0
  1
2
  7
MONOTXT
 72
     4
 11
194.67775
 21
-765.144417
 31
0.0
210
0.0
220
0.0
230
1.0
  0
TEXT
  8
1
  6
CONTINUOUS
 62
     7
  5
591
 10
219.616
 20
-766.043167
 30
0.0
 40
2.0
  1
3
  7
MONOTXT
 72
     4
 11
220.28525
 21
-765.043167
 31
0.0
210
0.0
220
0.0
230
1.0
  0
TEXT
  8
1
  6
CONTINUOUS
 62
     7
  5
592
 10
231.2085
 20
-759.563333
 30
0.0
 40
2.0
  1
4
  7
MONOTXT
 72
     4
 11
231.925
 21
-758.563333
 31
0.0
210
0.0
220
0.0
230
1.0
  0
TEXT
  8
1
  6
CONTINUOUS
 62
     7
  5
593
 10
182.773583
 20
-787.811583
 30
0.0
 40
2.0
  1
5
  7
MONOTXT
 72
     4
 11
183.442833
 21
-786.811583
 31
0.0
210
0.0
220
0.0
230
1.0
  0
TEXT
  8
1
  6
CONTINUOUS
 62
     7
  5
594
 10
193.853333
 20
-794.19025
 30
0.0
 40
2.0
  1
6
  7
MONOTXT
 72
     4
 11
194.475333
 21
-793.19025
 31
0.0
210
0.0
220
0.0
230
1.0
  0
TEXT
  8
1
  6
CONTINUOUS
 62
     7
  5
595
 10
219.499
 20
-794.19025
 30
0.0
 40
2.0
  1
7
  7
MONOTXT
 72
     4
 11
220.176167
 21
-793.19025
 31
0.0
210
0.0
220
0.0
230
1.0
  0
TEXT
  8
1
  6
CONTINUOUS
 62
     7
  5
596
 10
231.356917
 20
-787.912833
 30
0.0
 40
2.0
  1
8
  7
MONOTXT
 72
     4
 11
232.026167
 21
-786.912833
 31
0.0
210
0.0
220
0.0
230
1.0
  0
TEXT
  8
1
  6
CONTINUOUS
 62
     7
  5
597
 10
228.379667
 20
-748.021
 30
0.0
 40
2.0
  1
SIGN FACE
  7
MONOTXT
 72
     4
 11
236.27725
 21
-747.021
 31
0.0
210
0.0
220
0.0
230
1.0
  0
TEXT
  8
1
  6
CONTINUOUS
 62
     7
  5
598
 10
246.156583
 20
-761.79075
 30
0.0
 40
2.0
  1
2,3
  7
MONOTXT
 72
     4
 11
248.321917
 21
-760.79075
 31
0.0
210
0.0
220
0.0
230
1.0
  0
TEXT
  8
1
  6
CONTINUOUS
 62
     7
  5
599
 10
267.283667
 20
-763.512
 30
0.0
 40
2.0
  1
1,4
  7
MONOTXT
 72
     4
 11
269.071
 21
-762.512
 31
0.0
210
0.0
220
0.0
230
1.0
  0
TEXT
  8
1
  6
CONTINUOUS
 62
     7
  5
59A
 10
246.795333
 20
-792.57025
 30
0.0
 40
2.0
  1
6,7
  7
MONOTXT
 72
     4
 11
248.921333
 21
-791.57025
 31
0.0
210
0.0
220
0.0
230
1.0
  0
TEXT
  8
1
  6
CONTINUOUS
 62
     7
  5
59B
 10
267.108167
 20
-794.79775
 30
0.0
 40
2.0
  1
5,8
  7
MONOTXT
 72
     4
 11
269.2735
 21
-793.79775
 31
0.0
210
0.0
220
0.0
230
1.0
  0
TEXT
  8
1
  6
CONTINUOUS
 62
     7
  5
59C
 10
189.3315
 20
-820.488167
 30
0.0
 40
2.0
  1
1,5
  7
MONOTXT
 72
     4
 11
191.071667
 21
-819.488167
 31
0.0
210
0.0
220
0.0
230
1.0
  0
TEXT
  8
1
  6
CONTINUOUS
 62
     7
  5
59D
 10
221.7625
 20
-820.488167
 30
0.0
 40
2.0
  1
4,8
  7
MONOTXT
 72
     4
 11
223.975
 21
-819.488167
 31
0.0
210
0.0
220
0.0
230
1.0
  0
TEXT
  8
1
  6
CONTINUOUS
 62
     7
  5
59E
 10
192.026917
 20
-835.860167
 30
0.0
 40
2.0
  1
2,6
  7
MONOTXT
 72
     4
 11
194.145
 21
-834.860167
 31
0.0
210
0.0
220
0.0
230
1.0
  0
TEXT
  8
1
  6
CONTINUOUS
 62
     7
  5
59F
 10
217.997417
 20
-835.860167
 30
0.0
 40
2.0
  1
3,7
  7
MONOTXT
 72
     4
 11
220.170583
 21
-834.860167
 31
0.0
210
0.0
220
0.0
230
1.0
  0
TEXT
  8
1
  6
CONTINUOUS
 62
     7
  5
5A0
 10
203.18125
 20
-845.023083
 30
0.0
 40
2.0
  1
SIGN FACE
  7
MONOTXT
 72
     4
 11
211.078833
 21
-844.023083
 31
0.0
210
0.0
220
0.0
230
1.0
  0
TEXT
  8
1
  6
CONTINUOUS
 62
     7
  5
5A1
 10
156.602917
 20
-848.760667
 30
0.0
 40
2.0
  1
GEN. NOTE 2.4.3
  7
MONOTXT
 72
     4
 11
169.256417
 21
-847.760667
 31
0.0
210
0.0
220
0.0
230
1.0
  0
LINE
  8
1
  6
CONTINUOUS
 62
     7
  5
5A2
 10
177.578833
 20
-833.550917
 30
0.0
 11
177.578833
 21
-846.494667
 31
0.0
  0
LINE
  8
1
  6
CONTINUOUS
 62
     7
  5
5A3
 10
177.578833
 20
-849.38825
 30
0.0
 11
177.578833
 21
-856.550917
 31
0.0
  0
TEXT
  8
1
  6
CONTINUOUS
 62
     7
  5
5A4
 10
181.970917
 20
-858.164667
 30
0.0
 40
2.0
  1
"e"
  7
MONOTXT
 72
     4
 11
184.07325
 21
-857.164667
 31
0.0
210
0.0
220
0.0
230
1.0
  0
TEXT
  8
1
  6
CONTINUOUS
 62
     7
  5
5A5
 10
199.562833
 20
-856.115
 30
0.0
 40
2.0
  1
"f"
  7
MONOTXT
 72
     4
 11
201.429
 21
-855.115
 31
0.0
210
0.0
220
0.0
230
1.0
  0
TEXT
  8
1
  6
CONTINUOUS
 62
     7
  5
5A6
 10
211.615333
 20
-856.356167
 30
0.0
 40
2.0
  1
"f"
  7
MONOTXT
 72
     4
 11
213.4815
 21
-855.356167
 31
0.0
210
0.0
220
0.0
230
1.0
  0
TEXT
  8
1
  6
CONTINUOUS
 62
     7
  5
5A7
 10
228.975917
 20
-857.98375
 30
0.0
 40
2.0
  1
"e"
  7
MONOTXT
 72
     4
 11
231.07825
 21
-856.98375
 31
0.0
210
0.0
220
0.0
230
1.0
  0
TEXT
  8
1
  6
CONTINUOUS
 62
     7
  5
5A8
 10
243.854
 20
-842.10475
 30
0.0
 40
2.0
  1
"e"   3" MINIMUM
  7
MONOTXT
 11
243.854
 21
-840.10475
 31
0.0
210
0.0
220
0.0
230
1.0
 73
     3
  0
TEXT
  8
1
  6
CONTINUOUS
 62
     7
  5
5A9
 10
243.854
 20
-846.10475
 30
0.0
 40
2.0
  1
"f"   SEE GENERAL NOTE 2.4.4
  7
MONOTXT
 11
243.854
 21
-844.10475
 31
0.0
210
0.0
220
0.0
230
1.0
 73
     3
  0
TEXT
  8
1
  6
CONTINUOUS
 62
     7
  5
5AA
 10
326.137333
 20
-650.713417
 30
0.0
 40
2.0
  1
B
  7
MONOTXT
 72
     4
 11
326.806583
 21
-649.713417
 31
0.0
210
0.0
220
0.0
230
1.0
  0
TEXT
  8
1
  6
CONTINUOUS
 62
     7
  5
5AB
 10
335.238083
 20
-663.326
 30
0.0
 40
2.0
  1
1
  7
MONOTXT
 72
     4
 11
335.47425
 21
-662.326
 31
0.0
210
0.0
220
0.0
230
1.0
  0
TEXT
  8
1
  6
CONTINUOUS
 62
     7
  5
5AC
 10
335.39125
 20
-693.873917
 30
0.0
 40
2.0
  1
2
  7
MONOTXT
 72
     4
 11
336.0605
 21
-692.873917
 31
0.0
210
0.0
220
0.0
230
1.0
  0
TEXT
  8
1
  6
CONTINUOUS
 62
     7
  5
5AD
 10
382.715333
 20
-659.738917
 30
0.0
 40
2.0
  1
A
  7
MONOTXT
 72
     4
 11
383.487
 21
-658.738917
 31
0.0
210
0.0
220
0.0
230
1.0
  0
TEXT
  8
1
  6
CONTINUOUS
 62
     7
  5
5AE
 10
381.960667
 20
-678.137083
 30
0.0
 40
2.0
  1
C
  7
MONOTXT
 72
     4
 11
382.677167
 21
-677.137083
 31
0.0
210
0.0
220
0.0
230
1.0
  0
TEXT
  8
1
  6
CONTINUOUS
 62
     7
  5
5AF
 10
306.242667
 20
-708.916417
 30
0.0
 40
2.0
  1
36" ALL SIDES
  7
MONOTXT
 72
     4
 11
317.321333
 21
-707.916417
 31
0.0
210
0.0
220
0.0
230
1.0
  0
TEXT
  8
1
  6
CONTINUOUS
 62
     7
  5
5B0
 10
337.011
 20
-733.60475
 30
0.0
 40
2.0
  1
1
  7
MONOTXT
 72
     4
 11
337.247167
 21
-732.60475
 31
0.0
210
0.0
220
0.0
230
1.0
  0
TEXT
  8
1
  6
CONTINUOUS
 62
     7
  5
5B1
 10
336.7375
 20
-764.405167
 30
0.0
 40
2.0
  1
2
  7
MONOTXT
 72
     4
 11
337.40675
 21
-763.405167
 31
0.0
210
0.0
220
0.0
230
1.0
  0
TEXT
  8
1
  6
CONTINUOUS
 62
     7
  5
5B2
 10
362.726417
 20
-751.963583
 30
0.0
 40
2.0
  1
SIGN FACE
  7
MONOTXT
 72
     4
 11
370.624
 21
-750.963583
 31
0.0
210
0.0
220
0.0
230
1.0
  0
TEXT
  8
1
  6
CONTINUOUS
 62
     7
  5
5B3
 10
395.026917
 20
-729.356417
 30
0.0
 40
2.0
  1
GEN. NOTE 2.5.2
  7
MONOTXT
 72
     4
 11
407.633167
 21
-728.356417
 31
0.0
210
0.0
220
0.0
230
1.0
  0
TEXT
  8
1
  6
CONTINUOUS
 62
     7
  5
5B4
 10
398.59175
 20
-733.908167
 30
0.0
 40
2.0
  1
1
  7
MONOTXT
 72
     4
 11
398.827917
 21
-732.908167
 31
0.0
210
0.0
220
0.0
230
1.0
  0
TEXT
  8
1
  6
CONTINUOUS
 62
     7
  5
5B5
 10
398.318333
 20
-764.405167
 30
0.0
 40
2.0
  1
2
  7
MONOTXT
 72
     4
 11
398.987583
 21
-763.405167
 31
0.0
210
0.0
220
0.0
230
1.0
  0
TEXT
  8
1
  6
CONTINUOUS
 62
     7
  5
5B6
 10
340.823667
 20
-795.66075
 30
0.0
 40
2.0
  1
1,2
  7
MONOTXT
 72
     4
 11
342.563833
 21
-794.66075
 31
0.0
210
0.0
220
0.0
230
1.0
  0
TEXT
  8
1
  6
CONTINUOUS
 62
     7
  5
5B7
 10
349.985583
 20
-819.33
 30
0.0
 40
2.0
  1
SIGN FACE
  7
MONOTXT
 72
     4
 11
357.883167
 21
-818.33
 31
0.0
210
0.0
220
0.0
230
1.0
  0
TEXT
  8
1
  6
CONTINUOUS
 62
     7
  5
5B8
 10
482.868833
 20
-641.82875
 30
0.0
 40
2.0
  1
C
  7
MONOTXT
 72
     4
 11
483.585333
 21
-640.82875
 31
0.0
210
0.0
220
0.0
230
1.0
  0
TEXT
  8
1
  6
CONTINUOUS
 62
     7
  5
5B9
 10
494.735
 20
-645.8535
 30
0.0
 40
2.0
  1
D
  7
MONOTXT
 72
     4
 11
495.40425
 21
-644.8535
 31
0.0
210
0.0
220
0.0
230
1.0
  0
TEXT
  8
1
  6
CONTINUOUS
 62
     7
  5
5BA
 10
502.907583
 20
-645.8535
 30
0.0
 40
2.0
  1
D
  7
MONOTXT
 72
     4
 11
503.576833
 21
-644.8535
 31
0.0
210
0.0
220
0.0
230
1.0
  0
TEXT
  8
1
  6
CONTINUOUS
 62
     7
  5
5BB
 10
492.220333
 20
-665.6
 30
0.0
 40
2.0
  1
2
  7
MONOTXT
 72
     4
 11
492.889583
 21
-664.6
 31
0.0
210
0.0
220
0.0
230
1.0
  0
TEXT
  8
1
  6
CONTINUOUS
 62
     7
  5
5BC
 10
505.42225
 20
-665.851583
 30
0.0
 40
2.0
  1
3
  7
MONOTXT
 72
     4
 11
506.0915
 21
-664.851583
 31
0.0
210
0.0
220
0.0
230
1.0
  0
TEXT
  8
1
  6
CONTINUOUS
 62
     7
  5
5BD
 10
492.393333
 20
-684.2145
 30
0.0
 40
2.0
  1
6
  7
MONOTXT
 72
     4
 11
493.015333
 21
-683.2145
 31
0.0
210
0.0
220
0.0
230
1.0
  0
TEXT
  8
1
  6
CONTINUOUS
 62
     7
  5
5BE
 10
505.53225
 20
-684.466083
 30
0.0
 40
2.0
  1
7
  7
MONOTXT
 72
     4
 11
506.209417
 21
-683.466083
 31
0.0
210
0.0
220
0.0
230
1.0
  0
TEXT
  8
1
  6
CONTINUOUS
 62
     7
  5
5BF
 10
539.142083
 20
-659.814417
 30
0.0
 40
2.0
  1
A
  7
MONOTXT
 72
     4
 11
539.91375
 21
-658.814417
 31
0.0
210
0.0
220
0.0
230
1.0
  0
TEXT
  8
1
  6
CONTINUOUS
 62
     7
  5
5C0
 10
538.61575
 20
-672.517583
 30
0.0
 40
2.0
  1
B
  7
MONOTXT
 72
     4
 11
539.285
 21
-671.517583
 31
0.0
210
0.0
220
0.0
230
1.0
  0
TEXT
  8
1
  6
CONTINUOUS
 62
     7
  5
5C1
 10
458.430917
 20
-708.482667
 30
0.0
 40
2.0
  1
48" ALL SIDES
  7
MONOTXT
 11
458.430917
 21
-706.482667
 31
0.0
210
0.0
220
0.0
230
1.0
 73
     3
  0
TEXT
  8
1
  6
CONTINUOUS
 62
     7
  5
5C2
 10
458.430917
 20
-712.482667
 30
0.0
 40
2.0
  1
60" ALL SIDES
  7
MONOTXT
 11
458.430917
 21
-710.482667
 31
0.0
210
0.0
220
0.0
230
1.0
 73
     3
  0
TEXT
  8
1
  6
CONTINUOUS
 62
     7
  5
5C3
 10
483.583083
 20
-733.1695
 30
0.0
 40
2.0
  1
1
  7
MONOTXT
 72
     4
 11
483.81925
 21
-732.1695
 31
0.0
210
0.0
220
0.0
230
1.0
  0
TEXT
  8
1
  6
CONTINUOUS
 62
     7
  5
5C4
 10
514.570917
 20
-733.022417
 30
0.0
 40
2.0
  1
4
  7
MONOTXT
 72
     4
 11
515.287417
 21
-732.022417
 31
0.0
210
0.0
220
0.0
230
1.0
  0
TEXT
  8
1
  6
CONTINUOUS
 62
     7
  5
5C5
 10
495.06575
 20
-740.8165
 30
0.0
 40
2.0
  1
2
  7
MONOTXT
 72
     4
 11
495.735
 21
-739.8165
 31
0.0
210
0.0
220
0.0
230
1.0
  0
TEXT
  8
1
  6
CONTINUOUS
 62
     7
  5
5C6
 10
502.857333
 20
-740.8165
 30
0.0
 40
2.0
  1
3
  7
MONOTXT
 72
     4
 11
503.526583
 21
-739.8165
 31
0.0
210
0.0
220
0.0
230
1.0
  0
TEXT
  8
1
  6
CONTINUOUS
 62
     7
  5
5C7
 10
494.819
 20
-748.757667
 30
0.0
 40
2.0
  1
6
  7
MONOTXT
 72
     4
 11
495.441
 21
-747.757667
 31
0.0
210
0.0
220
0.0
230
1.0
  0
TEXT
  8
1
  6
CONTINUOUS
 62
     7
  5
5C8
 10
502.694583
 20
-748.757667
 30
0.0
 40
2.0
  1
7
  7
MONOTXT
 72
     4
 11
503.37175
 21
-747.757667
 31
0.0
210
0.0
220
0.0
230
1.0
  0
TEXT
  8
1
  6
CONTINUOUS
 62
     7
  5
5C9
 10
481.39375
 20
-753.169417
 30
0.0
 40
2.0
  1
5
  7
MONOTXT
 72
     4
 11
482.063
 21
-752.169417
 31
0.0
210
0.0
220
0.0
230
1.0
  0
TEXT
  8
1
  6
CONTINUOUS
 62
     7
  5
5CA
 10
516.08825
 20
-752.72825
 30
0.0
 40
2.0
  1
8
  7
MONOTXT
 72
     4
 11
516.7575
 21
-751.72825
 31
0.0
210
0.0
220
0.0
230
1.0
  0
TEXT
  8
1
  6
CONTINUOUS
 62
     7
  5
5CB
 10
537.819833
 20
-735.6695
 30
0.0
 40
2.0
  1
2,3
  7
MONOTXT
 72
     4
 11
539.985167
 21
-734.6695
 31
0.0
210
0.0
220
0.0
230
1.0
  0
TEXT
  8
1
  6
CONTINUOUS
 62
     7
  5
5CC
 10
559.367417
 20
-737.58125
 30
0.0
 40
2.0
  1
1,4
  7
MONOTXT
 72
     4
 11
561.15475
 21
-736.58125
 31
0.0
210
0.0
220
0.0
230
1.0
  0
TEXT
  8
1
  6
CONTINUOUS
 62
     7
  5
5CD
 10
538.292417
 20
-753.610583
 30
0.0
 40
2.0
  1
6,7
  7
MONOTXT
 72
     4
 11
540.418417
 21
-752.610583
 31
0.0
210
0.0
220
0.0
230
1.0
  0
TEXT
  8
1
  6
CONTINUOUS
 62
     7
  5
5CE
 10
559.577417
 20
-756.404667
 30
0.0
 40
2.0
  1
5,8
  7
MONOTXT
 72
     4
 11
561.74275
 21
-755.404667
 31
0.0
210
0.0
220
0.0
230
1.0
  0
TEXT
  8
1
  6
CONTINUOUS
 62
     7
  5
5CF
 10
520.17975
 20
-767.728167
 30
0.0
 40
2.0
  1
SIGN FACE
  7
MONOTXT
 72
     4
 11
528.077333
 21
-766.728167
 31
0.0
210
0.0
220
0.0
230
1.0
  0
TEXT
  8
1
  6
CONTINUOUS
 62
     7
  5
5D0
 10
489.437583
 20
-794.051667
 30
0.0
 40
2.0
  1
1,5
  7
MONOTXT
 72
     4
 11
491.17775
 21
-793.051667
 31
0.0
210
0.0
220
0.0
230
1.0
  0
TEXT
  8
1
  6
CONTINUOUS
 62
     7
  5
5D1
 10
505.871333
 20
-794.051667
 30
0.0
 40
2.0
  1
4,8
  7
MONOTXT
 72
     4
 11
508.083833
 21
-793.051667
 31
0.0
210
0.0
220
0.0
230
1.0
  0
TEXT
  8
1
  6
CONTINUOUS
 62
     7
  5
5D2
 10
489.002167
 20
-809.718083
 30
0.0
 40
2.0
  1
2,6
  7
MONOTXT
 72
     4
 11
491.12025
 21
-808.718083
 31
0.0
210
0.0
220
0.0
230
1.0
  0
TEXT
  8
1
  6
CONTINUOUS
 62
     7
  5
5D3
 10
505.822083
 20
-809.797583
 30
0.0
 40
2.0
  1
3,7
  7
MONOTXT
 72
     4
 11
507.99525
 21
-808.797583
 31
0.0
210
0.0
220
0.0
230
1.0
  0
TEXT
  8
1
  6
CONTINUOUS
 62
     7
  5
5D4
 10
513.770583
 20
-818.585167
 30
0.0
 40
2.0
  1
SIGN FACE
  7
MONOTXT
 72
     4
 11
521.668167
 21
-817.585167
 31
0.0
210
0.0
220
0.0
230
1.0
  0
TEXT
  8
1
  6
CONTINUOUS
 62
     7
  5
5D5
 10
456.536333
 20
-820.767667
 30
0.0
 40
2.0
  1
GEN. NOTE 2.4.3
  7
MONOTXT
 72
     4
 11
469.189833
 21
-819.767667
 31
0.0
210
0.0
220
0.0
230
1.0
  0
TEXT
  8
1
  6
CONTINUOUS
 62
     7
  5
5D6
 10
484.363833
 20
-825.821917
 30
0.0
 40
2.0
  1
f
  7
MONOTXT
 72
     4
 11
484.749667
 21
-824.821917
 31
0.0
210
0.0
220
0.0
230
1.0
  0
TEXT
  8
1
  6
CONTINUOUS
 62
     7
  5
5D7
 10
501.301583
 20
-825.649583
 30
0.0
 40
2.0
  1
f
  7
MONOTXT
 72
     4
 11
501.687417
 21
-824.649583
 31
0.0
210
0.0
220
0.0
230
1.0
  0
TEXT
  8
1
  6
CONTINUOUS
 62
     7
  5
5D8
 10
519.60975
 20
-824.041417
 30
0.0
 40
2.0
  1
"f"   SEE GENERAL NOTE 2.4.4
  7
MONOTXT
 72
     4
 11
544.405
 21
-823.041417
 31
0.0
210
0.0
220
0.0
230
1.0
  0
TEXT
  8
1
  6
CONTINUOUS
 62
     7
  5
5D9
 10
566.997083
 20
-724.368667
 30
0.0
 40
2.0
  1
GEN. NOTE 2.5.1
  7
MONOTXT
 72
     4
 11
579.17025
 21
-723.368667
 31
0.0
210
0.0
220
0.0
230
1.0
  0
TEXT
  8
1
  6
CONTINUOUS
 62
     7
  5
5DA
 10
285.959167
 20
-877.39425
 30
0.0
 40
2.0
  1
EXTRUDED RIB
  7
MONOTXT
 72
     4
 11
296.785917
 21
-876.39425
 31
0.0
210
0.0
220
0.0
230
1.0
  0
TEXT
  8
1
  6
CONTINUOUS
 62
     7
  5
5DB
 10
365.74475
 20
-890.917417
 30
0.0
 40
2.0
  1
U-CHANNEL
  7
MONOTXT
 72
     4
 11
374.036083
 21
-889.917417
 31
0.0
210
0.0
220
0.0
230
1.0
  0
TEXT
  8
1
  6
CONTINUOUS
 62
     7
  5
5DC
 10
279.714833
 20
-940.904917
 30
0.0
 40
2.0
  1
SIGN FACE
  7
MONOTXT
 72
     4
 11
287.612417
 21
-939.904917
 31
0.0
210
0.0
220
0.0
230
1.0
  0
TEXT
  8
1
  6
CONTINUOUS
 62
     7
  5
5DD
 10
367.268917
 20
-936.833667
 30
0.0
 40
2.0
  1
SQUARE HD.
  7
MONOTXT
 11
367.268917
 21
-934.833667
 31
0.0
210
0.0
220
0.0
230
1.0
 73
     3
  0
TEXT
  8
1
  6
CONTINUOUS
 62
     7
  5
5DE
 10
367.268917
 20
-940.833667
 30
0.0
 40
2.0
  1
POST-CLIP
  7
MONOTXT
 11
367.268917
 21
-938.833667
 31
0.0
210
0.0
220
0.0
230
1.0
 73
     3
  0
TEXT
  8
1
  6
CONTINUOUS
 62
     7
  5
5DF
 10
367.268917
 20
-944.833667
 30
0.0
 40
2.0
  1
TYPE BOLT
  7
MONOTXT
 11
367.268917
 21
-942.833667
 31
0.0
210
0.0
220
0.0
230
1.0
 73
     3
  0
TEXT
  8
1
  6
CONTINUOUS
 62
     7
  5
5E0
 10
358.744
 20
-983.889333
 30
0.0
 40
2.0
  1
U-CHANNEL
  7
MONOTXT
 72
     4
 11
367.035333
 21
-982.889333
 31
0.0
210
0.0
220
0.0
230
1.0
  0
TEXT
  8
1
  6
CONTINUOUS
 62
     7
  5
5E1
 10
348.242167
 20
-996.446583
 30
0.0
 40
2.0
  1
EXTRUDED RIB
  7
MONOTXT
 72
     4
 11
359.068917
 21
-995.446583
 31
0.0
210
0.0
220
0.0
230
1.0
  0
TEXT
  8
1
  6
CONTINUOUS
 62
     7
  5
5E2
 10
323.56525
 20
-935.272917
 30
0.0
 40
3.0
  1
ELEV.
  7
MONOTXT
 72
     4
 11
329.577083
 21
-933.772917
 31
0.0
210
0.0
220
0.0
230
1.0
  0
TEXT
  8
1
  6
CONTINUOUS
 62
     7
  5
5E3
 10
323.779083
 20
-993.271083
 30
0.0
 40
3.0
  1
PLAN
  7
MONOTXT
 72
     4
 11
329.034917
 21
-991.771083
 31
0.0
210
0.0
220
0.0
230
1.0
  0
TEXT
  8
1
  6
CONTINUOUS
 62
     7
  5
5E4
 10
301.979833
 20
-1009.071833
 30
0.0
 40
4.0
  1
TYPICAL U-CHANNEL AND
  7
MONOTXT
 72
     4
 11
340.578167
 21
-1007.071833
 31
0.0
210
0.0
220
0.0
230
1.0
  0
TEXT
  8
1
  6
CONTINUOUS
 62
     7
  5
5E5
 10
318.73575
 20
-1016.071833
 30
0.0
 40
4.0
  1
RIB ASSEMBLY
  7
MONOTXT
 72
     4
 11
340.57825
 21
-1014.071833
 31
0.0
210
0.0
220
0.0
230
1.0
  0
LINE
  8
1
  6
CONTINUOUS
 62
     7
  5
5E6
 10
300.729
 20
-1009.847583
 30
0.0
 11
380.604417
 21
-1009.847583
 31
0.0
  0
LINE
  8
1
  6
CONTINUOUS
 62
     7
  5
5E7
 10
317.418
 20
-1016.780833
 30
0.0
 11
363.680333
 21
-1016.780833
 31
0.0
  0
TEXT
  8
1
  6
CONTINUOUS
 62
     7
  5
5E8
 10
337.199
 20
-832.244167
 30
0.0
 40
4.0
  1
R1-2
  7
MONOTXT
 72
     4
 11
343.2935
 21
-830.244167
 31
0.0
210
0.0
220
0.0
230
1.0
  0
TEXT
  8
1
  6
CONTINUOUS
 62
     7
  5
5E9
 10
497.41875
 20
-837.198
 30
0.0
 40
4.0
  1
R1-2
  7
MONOTXT
 72
     4
 11
503.51325
 21
-835.198
 31
0.0
210
0.0
220
0.0
230
1.0
  0
TEXT
  8
1
  6
CONTINUOUS
 62
     7
  5
5EA
 10
45.680833
 20
-856.32225
 30
0.0
 40
4.0
  1
R1-1
  7
MONOTXT
 72
     4
 11
50.909167
 21
-854.32225
 31
0.0
210
0.0
220
0.0
230
1.0
  0
TEXT
  8
1
  6
CONTINUOUS
 62
     7
  5
5EB
 10
204.3195
 20
-866.240417
 30
0.0
 40
4.0
  1
R1-1
  7
MONOTXT
 72
     4
 11
209.547833
 21
-864.240417
 31
0.0
210
0.0
220
0.0
230
1.0
  0
TEXT
  8
1
  6
CONTINUOUS
 62
     7
  5
5EC
 10
249.60375
 20
-842.911917
 30
0.0
 40
4.0
  1
=
  7
MONOTXT
 72
     4
 11
250.501417
 21
-840.911917
 31
0.0
210
0.0
220
0.0
230
1.0
  0
TEXT
  8
1
  6
CONTINUOUS
 62
     7
  5
5ED
 10
249.254667
 20
-846.82375
 30
0.0
 40
4.0
  1
=
  7
MONOTXT
 72
     4
 11
250.152333
 21
-844.82375
 31
0.0
210
0.0
220
0.0
230
1.0
  0
TEXT
  8
1
  6
CONTINUOUS
 62
     7
  5
5EE
 10
525.056583
 20
-824.955
 30
0.0
 40
4.0
  1
=
  7
MONOTXT
 72
     4
 11
525.95425
 21
-822.955
 31
0.0
210
0.0
220
0.0
230
1.0
  0
POLYLINE
  8
1
  6
CONTINUOUS
 62
     7
  5
5EF
 66
     1
 10
0.0
 20
0.0
 30
0.0
  0
VERTEX
  8
1
  6
CONTINUOUS
 62
     7
  5
5F0
 10
432.597917
 20
-923.4645
 30
0.0
  0
VERTEX
  8
1
  6
CONTINUOUS
 62
     7
  5
5F1
 10
430.597917
 20
-926.928583
 30
0.0
  0
VERTEX
  8
1
  6
CONTINUOUS
 62
     7
  5
5F2
 10
434.597917
 20
-926.928583
 30
0.0
  0
VERTEX
  8
1
  6
CONTINUOUS
 62
     7
  5
5F3
 10
432.597917
 20
-923.4645
 30
0.0
  0
SEQEND
  8
1
  6
CONTINUOUS
 62
     7
  5
5F4
  0
TEXT
  8
1
  6
CONTINUOUS
 62
     7
  5
5F5
 10
432.043417
 20
-926.30825
 30
0.0
 40
1.5
  1
2
  7
MONOTXT
210
0.0
220
0.0
230
1.0
  0
TEXT
  8
1
  6
CONTINUOUS
 62
     7
  5
5F6
 10
435.539167
 20
-926.060583
 30
0.0
 40
1.5
  1
ADDITION OF EXTRUDED RIB
  7
MONOTXT
210
0.0
220
0.0
230
1.0
  0
TEXT
  8
1
  6
CONTINUOUS
 62
     7
  5
5F7
 10
435.433417
 20
-930.350333
 30
0.0
 40
1.5
  1
ADDED TP3-1 REFERENCE
  7
MONOTXT
210
0.0
220
0.0
230
1.0
  0
TEXT
  8
1
  6
CONTINUOUS
 62
     7
  5
5F8
 10
434.9865
 20
-1001.916167
 30
0.0
 40
1.5
  1
3
  7
MONOTXT
210
0.0
220
0.0
230
1.0
  0
POLYLINE
  8
1
  6
CONTINUOUS
 62
     7
  5
5F9
 66
     1
 10
0.0
 20
0.0
 30
0.0
  0
VERTEX
  8
1
  6
CONTINUOUS
 62
     7
  5
5FA
 10
435.541
 20
-999.072417
 30
0.0
  0
VERTEX
  8
1
  6
CONTINUOUS
 62
     7
  5
5FB
 10
433.541
 20
-1002.5365
 30
0.0
  0
VERTEX
  8
1
  6
CONTINUOUS
 62
     7
  5
5FC
 10
437.541
 20
-1002.5365
 30
0.0
  0
VERTEX
  8
1
  6
CONTINUOUS
 62
     7
  5
5FD
 10
435.541
 20
-999.072417
 30
0.0
  0
SEQEND
  8
1
  6
CONTINUOUS
 62
     7
  5
5FE
  0
TEXT
  8
1
  6
CONTINUOUS
 62
     7
  5
5FF
 10
108.5625
 20
-926.75025
 30
0.0
 40
1.5
  1
3
  7
MONOTXT
210
0.0
220
0.0
230
1.0
  0
POLYLINE
  8
1
  6
CONTINUOUS
 62
     7
  5
600
 66
     1
 10
0.0
 20
0.0
 30
0.0
  0
VERTEX
  8
1
  6
CONTINUOUS
 62
     7
  5
601
 10
109.117
 20
-923.9065
 30
0.0
  0
VERTEX
  8
1
  6
CONTINUOUS
 62
     7
  5
602
 10
107.117
 20
-927.370583
 30
0.0
  0
VERTEX
  8
1
  6
CONTINUOUS
 62
     7
  5
603
 10
111.117
 20
-927.370583
 30
0.0
  0
VERTEX
  8
1
  6
CONTINUOUS
 62
     7
  5
604
 10
109.117
 20
-923.9065
 30
0.0
  0
SEQEND
  8
1
  6
CONTINUOUS
 62
     7
  5
605
  0
TEXT
  8
1
  6
CONTINUOUS
 62
     7
  5
606
 10
-29.507667
 20
-887.949083
 30
0.0
 40
2.0
  1
1.   PUNCHING DETAILS
  7
MONOTXT
 11
-29.507667
 21
-885.949083
 31
0.0
210
0.0
220
0.0
230
1.0
 73
     3
  0
TEXT
  8
1
  6
CONTINUOUS
 62
     7
  5
607
 10
-29.507667
 20
-891.949083
 30
0.0
 40
2.0
  1
   
  7
MONOTXT
 11
-29.507667
 21
-889.949083
 31
0.0
210
0.0
220
0.0
230
1.0
 73
     3
  0
TEXT
  8
1
  6
CONTINUOUS
 62
     7
  5
608
 10
-29.507667
 20
-895.949083
 30
0.0
 40
2.0
  1
   1.1     THE SPACING OF THE PUNCHED HOLES WILL BE IN ACCORDANCE WITH THE
  7
MONOTXT
 11
-29.507667
 21
-893.949083
 31
0.0
210
0.0
220
0.0
230
1.0
 73
     3
  0
TEXT
  8
1
  6
CONTINUOUS
 62
     7
  5
609
 10
-29.507667
 20
-899.949083
 30
0.0
 40
2.0
  1
        ACCOMPANYING TABLE AND DETAILED DRAWINGS.
  7
MONOTXT
 11
-29.507667
 21
-897.949083
 31
0.0
210
0.0
220
0.0
230
1.0
 73
     3
  0
TEXT
  8
1
  6
CONTINUOUS
 62
     7
  5
60A
 10
-29.507667
 20
-903.949083
 30
0.0
 40
2.0
  1
 
  7
MONOTXT
 11
-29.507667
 21
-901.949083
 31
0.0
210
0.0
220
0.0
230
1.0
 73
     3
  0
TEXT
  8
1
  6
CONTINUOUS
 62
     7
  5
60B
 10
-29.507667
 20
-907.949083
 30
0.0
 40
2.0
  1
   1.2   ALL PUNCHED HOLES IN THE SIGNS SHALL BE  3/8 " DIAMETER, UNLESS OTHER-
  7
MONOTXT
 11
-29.507667
 21
-905.949083
 31
0.0
210
0.0
220
0.0
230
1.0
 73
     3
  0
TEXT
  8
1
  6
CONTINUOUS
 62
     7
  5
60C
 10
-29.507667
 20
-911.949083
 30
0.0
 40
2.0
  1
        WISE SPECIFIED.
  7
MONOTXT
 11
-29.507667
 21
-909.949083
 31
0.0
210
0.0
220
0.0
230
1.0
 73
     3
  0
TEXT
  8
1
  6
CONTINUOUS
 62
     7
  5
60D
 10
-29.507667
 20
-915.949083
 30
0.0
 40
2.0
  1
 
  7
MONOTXT
 11
-29.507667
 21
-913.949083
 31
0.0
210
0.0
220
0.0
230
1.0
 73
     3
  0
TEXT
  8
1
  6
CONTINUOUS
 62
     7
  5
60E
 10
-29.507667
 20
-919.949083
 30
0.0
 40
2.0
  1
2.   MOUNTING DETAILS
  7
MONOTXT
 11
-29.507667
 21
-917.949083
 31
0.0
210
0.0
220
0.0
230
1.0
 73
     3
  0
TEXT
  8
1
  6
CONTINUOUS
 62
     7
  5
60F
 10
-29.507667
 20
-923.949083
 30
0.0
 40
2.0
  1
 
  7
MONOTXT
 11
-29.507667
 21
-921.949083
 31
0.0
210
0.0
220
0.0
230
1.0
 73
     3
  0
TEXT
  8
1
  6
CONTINUOUS
 62
     7
  5
610
 10
-29.507667
 20
-927.949083
 30
0.0
 40
2.0
  1
   2.1     SIGNS IN THE SHAPE OF AN OCTAGON OR EQUILATERAL TRIANGLE WILL BE
  7
MONOTXT
 11
-29.507667
 21
-925.949083
 31
0.0
210
0.0
220
0.0
230
1.0
 73
     3
  0
TEXT
  8
1
  6
CONTINUOUS
 62
     7
  5
611
 10
-29.507667
 20
-931.949083
 30
0.0
 40
2.0
  1
        MOUNTED IN ACCORDANCE WITH THE ACCOMPANYING DETAILED DRAWINGS
  7
MONOTXT
 11
-29.507667
 21
-929.949083
 31
0.0
210
0.0
220
0.0
230
1.0
 73
     3
  0
TEXT
  8
1
  6
CONTINUOUS
 62
     7
  5
612
 10
-29.507667
 20
-935.949083
 30
0.0
 40
2.0
  1
        AND TP3-1. THE ASSOCIATED BOLTS, NUTS, WASHERS AND SHIMS SHALL BE
  7
MONOTXT
 11
-29.507667
 21
-933.949083
 31
0.0
210
0.0
220
0.0
230
1.0
 73
     3
  0
TEXT
  8
1
  6
CONTINUOUS
 62
     7
  5
613
 10
-29.507667
 20
-939.949083
 30
0.0
 40
2.0
  1
        INSTALLED IN ACCORDANCE WITH STANDARD DETAIL TP-A: SIGN ASSEMBLY
  7
MONOTXT
 11
-29.507667
 21
-937.949083
 31
0.0
210
0.0
220
0.0
230
1.0
 73
     3
  0
TEXT
  8
1
  6
CONTINUOUS
 62
     7
  5
614
 10
-29.507667
 20
-943.949083
 30
0.0
 40
2.0
  1
        BOLTING DETAILS.
  7
MONOTXT
 11
-29.507667
 21
-941.949083
 31
0.0
210
0.0
220
0.0
230
1.0
 73
     3
  0
TEXT
  8
1
  6
CONTINUOUS
 62
     7
  5
615
 10
-29.507667
 20
-947.949083
 30
0.0
 40
2.0
  1
 
  7
MONOTXT
 11
-29.507667
 21
-945.949083
 31
0.0
210
0.0
220
0.0
230
1.0
 73
     3
  0
TEXT
  8
1
  6
CONTINUOUS
 62
     7
  5
616
 10
-29.507667
 20
-951.949083
 30
0.0
 40
2.0
  1
   2.2   THE MOUNTINGS SHOWN FOR THESE SHAPED SIGNS ARE FOR SIGN ASS-
  7
MONOTXT
 11
-29.507667
 21
-949.949083
 31
0.0
210
0.0
220
0.0
230
1.0
 73
     3
  0
TEXT
  8
1
  6
CONTINUOUS
 62
     7
  5
617
 10
-29.507667
 20
-955.949083
 30
0.0
 40
2.0
  1
         EMBLIES CONSISTING OF ONLY ONE SIGN.
  7
MONOTXT
 11
-29.507667
 21
-953.949083
 31
0.0
210
0.0
220
0.0
230
1.0
 73
     3
  0
TEXT
  8
1
  6
CONTINUOUS
 62
     7
  5
618
 10
-29.507667
 20
-959.949083
 30
0.0
 40
2.0
  1
 
  7
MONOTXT
 11
-29.507667
 21
-957.949083
 31
0.0
210
0.0
220
0.0
230
1.0
 73
     3
  0
TEXT
  8
1
  6
CONTINUOUS
 62
     7
  5
619
 10
-29.507667
 20
-963.949083
 30
0.0
 40
2.0
  1
   2.3   ALL BOLTS, NUTS AND WASHERS USED TO MOUNT THE SIGN AND SIGN
  7
MONOTXT
 11
-29.507667
 21
-961.949083
 31
0.0
210
0.0
220
0.0
230
1.0
 73
     3
  0
TEXT
  8
1
  6
CONTINUOUS
 62
     7
  5
61A
 10
-29.507667
 20
-967.949083
 30
0.0
 40
2.0
  1
         ASSEMBLY WILL BE  5/16 " DIAMETER.
  7
MONOTXT
 11
-29.507667
 21
-965.949083
 31
0.0
210
0.0
220
0.0
230
1.0
 73
     3
  0
TEXT
  8
1
  6
CONTINUOUS
 62
     7
  5
61B
 10
-29.507667
 20
-971.949083
 30
0.0
 40
2.0
  1
 
  7
MONOTXT
 11
-29.507667
 21
-969.949083
 31
0.0
210
0.0
220
0.0
230
1.0
 73
     3
  0
TEXT
  8
1
  6
CONTINUOUS
 62
     7
  5
61C
 10
-29.507667
 20
-975.949083
 30
0.0
 40
2.0
  1
   2.4   BRACING ON SIGNS SHOWN WILL CONSIST OF EXTRUDED RIB AS DETAILED
  7
MONOTXT
 11
-29.507667
 21
-973.949083
 31
0.0
210
0.0
220
0.0
230
1.0
 73
     3
  0
TEXT
  8
1
  6
CONTINUOUS
 62
     7
  5
61D
 10
-29.507667
 20
-979.949083
 30
0.0
 40
2.0
  1
         ON TP-A.
  7
MONOTXT
 11
-29.507667
 21
-977.949083
 31
0.0
210
0.0
220
0.0
230
1.0
 73
     3
  0
TEXT
  8
1
  6
CONTINUOUS
 62
     7
  5
61E
 10
-29.507667
 20
-983.949083
 30
0.0
 40
2.0
  1
 
  7
MONOTXT
 11
-29.507667
 21
-981.949083
 31
0.0
210
0.0
220
0.0
230
1.0
 73
     3
  0
TEXT
  8
1
  6
CONTINUOUS
 62
     7
  5
61F
 10
-29.507667
 20
-987.949083
 30
0.0
 40
2.0
  1
         2.4.1     ON ALL BRACED SIGNS, THE WEB OF THE BRACING SHALL BE IN 
  7
MONOTXT
 11
-29.507667
 21
-985.949083
 31
0.0
210
0.0
220
0.0
230
1.0
 73
     3
  0
TEXT
  8
1
  6
CONTINUOUS
 62
     7
  5
620
 10
-29.507667
 20
-991.949083
 30
0.0
 40
2.0
  1
                CONTACT WITH THE BACK OF THE SIGN.
  7
MONOTXT
 11
-29.507667
 21
-989.949083
 31
0.0
210
0.0
220
0.0
230
1.0
 73
     3
  0
TEXT
  8
1
  6
CONTINUOUS
 62
     7
  5
621
 10
-29.507667
 20
-995.949083
 30
0.0
 40
2.0
  1
 
  7
MONOTXT
 11
-29.507667
 21
-993.949083
 31
0.0
210
0.0
220
0.0
230
1.0
 73
     3
  0
TEXT
  8
1
  6
CONTINUOUS
 62
     7
  5
622
 10
-29.507667
 20
-999.949083
 30
0.0
 40
2.0
  1
         2.4.2   ON ALL BRACED SIGNS, THE FLANGE OF THE BRACING SHALL BE
  7
MONOTXT
 11
-29.507667
 21
-997.949083
 31
0.0
210
0.0
220
0.0
230
1.0
 73
     3
  0
TEXT
  8
1
  6
CONTINUOUS
 62
     7
  5
623
 10
-29.507667
 20
-1003.949083
 30
0.0
 40
2.0
  1
                IN CONTACT WITH THE FLANGE OF THE POST SUPPORT.
  7
MONOTXT
 11
-29.507667
 21
-1001.949083
 31
0.0
210
0.0
220
0.0
230
1.0
 73
     3
  0
TEXT
  8
1
  6
CONTINUOUS
 62
     7
  5
624
 10
119.8445
 20
-887.686
 30
0.0
 40
2.0
  1
         2.4.3   ON ALL BRACED SIGNS, THE END OF THE OVERHANGING LENGTH
  7
MONOTXT
 11
119.8445
 21
-885.686
 31
0.0
210
0.0
220
0.0
230
1.0
 73
     3
  0
TEXT
  8
1
  6
CONTINUOUS
 62
     7
  5
625
 10
119.8445
 20
-891.686
 30
0.0
 40
2.0
  1
                OF THE BRACE SHALL BE AT LEAST 1 3/4 " FROM THE CENTERLINE
  7
MONOTXT
 11
119.8445
 21
-889.686
 31
0.0
210
0.0
220
0.0
230
1.0
 73
     3
  0
TEXT
  8
1
  6
CONTINUOUS
 62
     7
  5
626
 10
119.8445
 20
-895.686
 30
0.0
 40
2.0
  1
                OF THE POST SUPPORT, BUT NO CLOSER THAN 1" TO THE EDGE
  7
MONOTXT
 11
119.8445
 21
-893.686
 31
0.0
210
0.0
220
0.0
230
1.0
 73
     3
  0
TEXT
  8
1
  6
CONTINUOUS
 62
     7
  5
627
 10
119.8445
 20
-899.686
 30
0.0
 40
2.0
  1
                OF THE SIGN. THE TWO OVERHANGING SECTIONS OF EACH BRACE
  7
MONOTXT
 11
119.8445
 21
-897.686
 31
0.0
210
0.0
220
0.0
230
1.0
 73
     3
  0
TEXT
  8
1
  6
CONTINUOUS
 62
     7
  5
628
 10
119.8445
 20
-903.686
 30
0.0
 40
2.0
  1
                SHALL BE EQUAL IN LENGTH.
  7
MONOTXT
 11
119.8445
 21
-901.686
 31
0.0
210
0.0
220
0.0
230
1.0
 73
     3
  0
TEXT
  8
1
  6
CONTINUOUS
 62
     7
  5
629
 10
119.8445
 20
-907.686
 30
0.0
 40
2.0
  1
 
  7
MONOTXT
 11
119.8445
 21
-905.686
 31
0.0
210
0.0
220
0.0
230
1.0
 73
     3
  0
TEXT
  8
1
  6
CONTINUOUS
 62
     7
  5
62A
 10
119.8445
 20
-911.686
 30
0.0
 40
2.0
  1
         2.4.4   ON ALL BRACED SIGNS, THE CENTERLINE OF THE POST SHALL BE
  7
MONOTXT
 11
119.8445
 21
-909.686
 31
0.0
210
0.0
220
0.0
230
1.0
 73
     3
  0
TEXT
  8
1
  6
CONTINUOUS
 62
     7
  5
62B
 10
119.8445
 20
-915.686
 30
0.0
 40
2.0
  1
                WITHIN 3" (ON EITHER SIDE) OF THE CENTERLINE OF THE SIGN HOLE.
  7
MONOTXT
 11
119.8445
 21
-913.686
 31
0.0
210
0.0
220
0.0
230
1.0
 73
     3
  0
TEXT
  8
1
  6
CONTINUOUS
 62
     7
  5
62C
 10
119.8445
 20
-919.686
 30
0.0
 40
2.0
  1
 
  7
MONOTXT
 11
119.8445
 21
-917.686
 31
0.0
210
0.0
220
0.0
230
1.0
 73
     3
  0
TEXT
  8
1
  6
CONTINUOUS
 62
     7
  5
62D
 10
119.8445
 20
-923.686
 30
0.0
 40
2.0
  1
   2.5   POST SUPPORT
  7
MONOTXT
 11
119.8445
 21
-921.686
 31
0.0
210
0.0
220
0.0
230
1.0
 73
     3
  0
TEXT
  8
1
  6
CONTINUOUS
 62
     7
  5
62E
 10
119.8445
 20
-927.686
 30
0.0
 40
2.0
  1
 
  7
MONOTXT
 11
119.8445
 21
-925.686
 31
0.0
210
0.0
220
0.0
230
1.0
 73
     3
  0
TEXT
  8
1
  6
CONTINUOUS
 62
     7
  5
62F
 10
119.8445
 20
-931.686
 30
0.0
 40
2.0
  1
         2.5.1      THE TOP OF THE POST SUPPORT SHALL NOT EXTEND BEYOND THE
  7
MONOTXT
 11
119.8445
 21
-929.686
 31
0.0
210
0.0
220
0.0
230
1.0
 73
     3
  0
TEXT
  8
1
  6
CONTINUOUS
 62
     7
  5
630
 10
119.8445
 20
-935.686
 30
0.0
 40
2.0
  1
                EDGE OF THE SIGN.
  7
MONOTXT
 11
119.8445
 21
-933.686
 31
0.0
210
0.0
220
0.0
230
1.0
 73
     3
  0
TEXT
  8
1
  6
CONTINUOUS
 62
     7
  5
631
 10
119.8445
 20
-939.686
 30
0.0
 40
2.0
  1
 
  7
MONOTXT
 11
119.8445
 21
-937.686
 31
0.0
210
0.0
220
0.0
230
1.0
 73
     3
  0
TEXT
  8
1
  6
CONTINUOUS
 62
     7
  5
632
 10
119.8445
 20
-943.686
 30
0.0
 40
2.0
  1
         2.5.2   THE TOP OF THE POST SUPPORT SHALL EXTEND 2" OR LESS FROM
  7
MONOTXT
 11
119.8445
 21
-941.686
 31
0.0
210
0.0
220
0.0
230
1.0
 73
     3
  0
TEXT
  8
1
  6
CONTINUOUS
 62
     7
  5
633
 10
119.8445
 20
-947.686
 30
0.0
 40
2.0
  1
                THE EDGE OF THE SIGN, BUT NOT BEYOND ANY EDGE OF THE SIGN.
  7
MONOTXT
 11
119.8445
 21
-945.686
 31
0.0
210
0.0
220
0.0
230
1.0
 73
     3
  0
TEXT
  8
1
  6
CONTINUOUS
 62
     7
  5
634
 10
119.8445
 20
-951.686
 30
0.0
 40
2.0
  1
 
  7
MONOTXT
 11
119.8445
 21
-949.686
 31
0.0
210
0.0
220
0.0
230
1.0
 73
     3
  0
TEXT
  8
1
  6
CONTINUOUS
 62
     7
  5
635
 10
119.8445
 20
-955.686
 30
0.0
 40
2.0
  1
3.   CORNER RADIUS FOR SIGN BLANK MATERIAL SHALL BE 1.5" (EXCEPT R1-1 WHICH WILL
  7
MONOTXT
 11
119.8445
 21
-953.686
 31
0.0
210
0.0
220
0.0
230
1.0
 73
     3
  0
TEXT
  8
1
  6
CONTINUOUS
 62
     7
  5
636
 10
119.8445
 20
-959.686
 30
0.0
 40
2.0
  1
   HAVE NO RADIUS).
  7
MONOTXT
 11
119.8445
 21
-957.686
 31
0.0
210
0.0
220
0.0
230
1.0
 73
     3
  0
ENDSEC
  0
EOF
