  0
SECTION
  2
HEADER
  9
$ACADVER
  1
AC1009
  9
$INSBASE
 10
0.0
 20
0.0
 30
0.0
  9
$EXTMIN
 10
-54.897333
 20
-881.872583
 30
0.0
  9
$EXTMAX
 10
625.182667
 20
0.001667
 30
0.0
  9
$LIMMIN
 10
0.0
 20
0.0
  9
$LIMMAX
 10
12.0
 20
9.0
  9
$ORTHOMODE
 70
     0
  9
$REGENMODE
 70
     1
  9
$FILLMODE
 70
     1
  9
$QTEXTMODE
 70
     0
  9
$MIRRTEXT
 70
     1
  9
$DRAGMODE
 70
     2
  9
$LTSCALE
 40
1.0
  9
$OSMODE
 70
     0
  9
$ATTMODE
 70
     1
  9
$TEXTSIZE
 40
0.2
  9
$TRACEWID
 40
0.05
  9
$TEXTSTYLE
  7
STANDARD
  9
$CLAYER
  8
0
  9
$CELTYPE
  6
CONTINUOUS
  9
$CECOLOR
 62
   256
  9
$DIMSCALE
 40
1.0
  9
$DIMASZ
 40
0.18
  9
$DIMEXO
 40
0.0625
  9
$DIMDLI
 40
0.38
  9
$DIMRND
 40
0.0
  9
$DIMDLE
 40
0.0
  9
$DIMEXE
 40
0.18
  9
$DIMTP
 40
0.0
  9
$DIMTM
 40
0.0
  9
$DIMTXT
 40
0.18
  9
$DIMCEN
 40
0.09
  9
$DIMTSZ
 40
0.0
  9
$DIMTOL
 70
     0
  9
$DIMLIM
 70
     0
  9
$DIMTIH
 70
     1
  9
$DIMTOH
 70
     1
  9
$DIMSE1
 70
     0
  9
$DIMSE2
 70
     0
  9
$DIMTAD
 70
     0
  9
$DIMZIN
 70
     0
  9
$DIMBLK
  1

  9
$DIMASO
 70
     1
  9
$DIMSHO
 70
     1
  9
$DIMPOST
  1

  9
$DIMAPOST
  1

  9
$DIMALT
 70
     0
  9
$DIMALTD
 70
     2
  9
$DIMALTF
 40
25.4
  9
$DIMLFAC
 40
1.0
  9
$DIMTOFL
 70
     0
  9
$DIMTVP
 40
0.0
  9
$DIMTIX
 70
     0
  9
$DIMSOXD
 70
     0
  9
$DIMSAH
 70
     0
  9
$DIMBLK1
  1

  9
$DIMBLK2
  1

  9
$DIMSTYLE
  2
STANDARD
  9
$DIMCLRD
 70
     0
  9
$DIMCLRE
 70
     0
  9
$DIMCLRT
 70
     0
  9
$DIMTFAC
 40
1.0
  9
$DIMGAP
 40
0.09
  9
$LUNITS
 70
     2
  9
$LUPREC
 70
     4
  9
$AXISMODE
 70
     0
  9
$AXISUNIT
 10
0.0
 20
0.0
  9
$SKETCHINC
 40
0.1
  9
$FILLETRAD
 40
0.0
  9
$AUNITS
 70
     0
  9
$AUPREC
 70
     0
  9
$MENU
  1
acad
  9
$ELEVATION
 40
0.0
  9
$PELEVATION
 40
0.0
  9
$THICKNESS
 40
0.0
  9
$LIMCHECK
 70
     0
  9
$BLIPMODE
 70
     1
  9
$CHAMFERA
 40
0.0
  9
$CHAMFERB
 40
0.0
  9
$SKPOLY
 70
     0
  9
$TDCREATE
 40
2451803.443703704
  9
$TDUPDATE
 40
2451803.443703704
  9
$TDINDWG
 40
0.0000000000
  9
$TDUSRTIMER
 40
0.0000000000
  9
$USRTIMER
 70
     1
  9
$ANGBASE
 50
0.0
  9
$ANGDIR
 70
     0
  9
$PDMODE
 70
     0
  9
$PDSIZE
 40
0.0
  9
$PLINEWID
 40
0.0
  9
$COORDS
 70
     0
  9
$SPLFRAME
 70
     0
  9
$SPLINETYPE
 70
     6
  9
$SPLINESEGS
 70
    10
  9
$ATTDIA
 70
     0
  9
$ATTREQ
 70
     1
  9
$HANDLING
 70
     1
  9
$HANDSEED
  5
793
  9
$SURFTAB1
 70
     6
  9
$SURFTAB2
 70
     6
  9
$SURFTYPE
 70
     6
  9
$SURFU
 70
     6
  9
$SURFV
 70
     6
  9
$UCSNAME
  2

  9
$UCSORG
 10
0.0
 20
0.0
 30
0.0
  9
$UCSXDIR
 10
1.0
 20
0.0
 30
0.0
  9
$UCSYDIR
 10
0.0
 20
1.0
 30
0.0
  9
$PUCSNAME
  2

  9
$PUCSORG
 10
0.0
 20
0.0
 30
0.0
  9
$PUCSXDIR
 10
1.0
 20
0.0
 30
0.0
  9
$PUCSYDIR
 10
0.0
 20
1.0
 30
0.0
  9
$USERI1
 70
     0
  9
$USERI2
 70
     0
  9
$USERI3
 70
     0
  9
$USERI4
 70
     0
  9
$USERI5
 70
     0
  9
$USERR1
 40
0.0
  9
$USERR2
 40
0.0
  9
$USERR3
 40
0.0
  9
$USERR4
 40
0.0
  9
$USERR5
 40
0.0
  9
$WORLDVIEW
 70
     1
  9
$SHADEDGE
 70
     3
  9
$SHADEDIF
 70
    70
  9
$TILEMODE
 70
     1
  9
$MAXACTVP
 70
    16
  9
$PINSBASE
 10
0.0
 20
0.0
 30
0.0
  9
$PLIMCHECK
 70
     0
  9
$PEXTMIN
 10
-1.000000E+20
 20
-1.000000E+20
 30
-1.000000E+20
  9
$PEXTMAX
 10
-1.000000E+20
 20
-1.000000E+20
 30
-1.000000E+20
  9
$PLIMMIN
 10
0.0
 20
0.0
  9
$PLIMMAX
 10
12.0
 20
9.0
  9
$UNITMODE
 70
     0
  9
$VISRETAIN
 70
     0
  9
$PLINEGEN
 70
     1
  9
$PSLTSCALE
 70
     0
  9
$TREEDEPTH
 70
  3020
  9
$DWGCODEPAGE
  3
ansi_1252
  0
ENDSEC
  0
SECTION
  2
TABLES
  0
TABLE
  2
VPORT
 70
     1
  0
VPORT
  2
*ACTIVE
 70
     0
 10
0.0
 20
0.0
 11
1.0
 21
1.0
 12
0.0
 22
0.0
 13
0.0
 23
0.0
 14
0.0
 24
0.0
 15
0.0
 25
0.0
 16
0.0
 26
0.0
 36
1.0
 17
239.378967
 27
-661.852583
 37
0.0
 40
451.041
 41
1.795122
 42
50.0
 43
0.0
 44
0.0
 50
0.0
 51
0.0
 71
     0
 72
   100
 73
     1
 74
     0
 75
     0
 76
     0
 77
     0
 78
     0
  0
ENDTAB
  0
TABLE
  2
LTYPE
 70
     7
  0
LTYPE
  2
CONTINUOUS
 70
     0
  3
Solid line
 72
    65
 73
     0
 40
0.0
  0
LTYPE
  2
DOT
 70
    64
  3
. . . . . . . . . . . . . . . . . . . . . . . . . . . . . . . . .
 72
    65
 73
     2
 40
0.25
 49
0.0
 49
-0.25
  0
LTYPE
  2
HIDDEN
 70
    64
  3
__ __ __ __ __ __ __ __ __ __ __ __ __ __ __ __ __ __ __ __ __ 
 72
    65
 73
     2
 40
0.375
 49
0.25
 49
-0.125
  0
LTYPE
  2
DASHED
 70
    64
  3
__ __ __ __ __ __ __ __ __ __ __ __ __ __ __ __ __ __ __ __ __
 72
    65
 73
     2
 40
0.75
 49
0.5
 49
-0.25
  0
LTYPE
  2
DASHDOT
 70
    64
  3
__ . __ . __ . __ . __ . __ . __ . __ . __ . __ . __ . __ . _
 72
    65
 73
     4
 40
1.0
 49
0.5
 49
-0.25
 49
0.0
 49
-0.25
  0
LTYPE
  2
DIVIDE
 70
    64
  3
____ . . ____ . . ____ . . ____ . . ____ . . ____ . . ____ . .
 72
    65
 73
     6
 40
1.25
 49
0.5
 49
-0.25
 49
0.0
 49
-0.25
 49
0.0
 49
-0.25
  0
LTYPE
  2
CENTER
 70
    64
  3
____ _ ____ _ ____ _ ____ _ ____ _ ____ _ ____ _ ____ _ ____ _
 72
    65
 73
     4
 40
2.0
 49
1.25
 49
-0.25
 49
0.25
 49
-0.25
  0
ENDTAB
  0
TABLE
  2
LAYER
 70
     5
  0
LAYER
  2
0
 70
     0
 62
     7
  6
CONTINUOUS
  0
LAYER
  2
CONSTRUCTION_CLASS
 70
     0
 62
     7
  6
CONTINUOUS
  0
LAYER
  2
PATTERN_CLASS
 70
     0
 62
     7
  6
CONTINUOUS
  0
LAYER
  2
61
 70
    64
 62
     7
  6
CONTINUOUS
  0
LAYER
  2
1
 70
    64
 62
     7
  6
CONTINUOUS
  0
ENDTAB
  0
TABLE
  2
STYLE
 70
     4
  0
STYLE
  2
STANDARD
 70
     0
 40
0.0
 41
1.0
 50
0.0
 71
     0
 42
0.0
  3
txt
  4

  0
STYLE
  2
MONOTXT
 70
     0
 40
0.2
 41
1.0
 50
0.0
 71
     0
 42
0.2
  3
MONOTXT
  4

  0
STYLE
  2
txt
 70
     0
 40
0.2
 41
1.0
 50
0.0
 71
     0
 42
0.2
  3
TXT
  4

  0
STYLE
  2
ROMANT
 70
     0
 40
0.2
 41
1.0
 50
0.0
 71
     0
 42
0.2
  3
ROMANT
  4

  0
ENDTAB
  0
TABLE
  2
VIEW
 70
     0
  0
ENDTAB
  0
TABLE
  2
UCS
 70
     0
  0
ENDTAB
  0
TABLE
  2
APPID
 70
     1
  0
APPID
  2
ACAD
 70
     0
  0
ENDTAB
  0
TABLE
  2
DIMSTYLE
 70
     1
  0
DIMSTYLE
  2
STANDARD
 70
     0
  3

  4

  5

  6

  7

 40
1.0
 41
0.18
 42
0.0625
 43
0.38
 44
0.18
 45
0.0
 46
0.0
 47
0.0
 48
0.0
140
0.18
141
0.09
142
0.0
143
25.4
144
1.0
145
0.0
146
1.0
147
0.09
 71
     0
 72
     0
 73
     1
 74
     1
 75
     0
 76
     0
 77
     0
 78
     0
170
     0
171
     2
172
     0
173
     0
174
     0
175
     0
176
     0
177
     0
178
     0
  0
ENDTAB
  0
ENDSEC
  0
SECTION
  2
BLOCKS
  0
BLOCK
  8
1
  6
CONTINUOUS
 62
     1
  5
BF
  2
LDR
 70
     0
 10
0.0
 20
0.0
 30
0.0
  3
LNR
  0
POLYLINE
  8
1
  6
CONTINUOUS
 62
     1
  5
C0
 66
     1
 10
0.0
 20
0.0
 30
0.0
210
0.0
220
0.0
230
1.0
  0
VERTEX
  8
1
  6
CONTINUOUS
 62
     1
  5
C1
 10
-0.011987
 20
-0.001802
 30
0.0
 42
-0.265147
  0
VERTEX
  8
1
  6
CONTINUOUS
 62
     1
  5
C2
 10
-0.011849
 20
-0.001604
 30
0.0
 42
-0.064653
  0
VERTEX
  8
1
  6
CONTINUOUS
 62
     1
  5
C3
 10
-0.011407
 20
-0.001387
 30
0.0
 42
-0.025822
  0
VERTEX
  8
1
  6
CONTINUOUS
 62
     1
  5
C4
 10
-0.010681
 20
-0.00116
 30
0.0
 42
-0.014504
  0
VERTEX
  8
1
  6
CONTINUOUS
 62
     1
  5
C5
 10
-0.0097
 20
-0.000933
 30
0.0
 42
-0.009896
  0
VERTEX
  8
1
  6
CONTINUOUS
 62
     1
  5
C6
 10
-0.008505
 20
-0.000715
 30
0.0
 42
-0.007708
  0
VERTEX
  8
1
  6
CONTINUOUS
 62
     1
  5
C7
 10
-0.007146
 20
-0.000515
 30
0.0
 42
-0.006655
  0
VERTEX
  8
1
  6
CONTINUOUS
 62
     1
  5
C8
 10
-0.005679
 20
-0.000342
 30
0.0
 42
-0.006278
  0
VERTEX
  8
1
  6
CONTINUOUS
 62
     1
  5
C9
 10
-0.004164
 20
-0.000202
 30
0.0
 42
-0.006439
  0
VERTEX
  8
1
  6
CONTINUOUS
 62
     1
  5
CA
 10
-0.002666
 20
-0.000101
 30
0.0
 42
-0.007196
  0
VERTEX
  8
1
  6
CONTINUOUS
 62
     1
  5
CB
 10
-0.001246
 20
-0.000044
 30
0.0
 42
-0.008852
  0
VERTEX
  8
1
  6
CONTINUOUS
 62
     1
  5
CC
 10
0.000037
 20
-0.000034
 30
0.0
 42
-0.008852
  0
SEQEND
  8
1
  6
CONTINUOUS
 62
     1
  5
CD
  0
POLYLINE
  8
1
  6
CONTINUOUS
 62
     1
  5
CE
 66
     1
 10
0.0
 20
0.0
 30
0.0
210
0.0
220
0.0
230
1.0
  0
VERTEX
  8
1
  6
CONTINUOUS
 62
     1
  5
CF
 10
0.000039
 20
0.000014
 30
0.0
 42
-0.005019
  0
VERTEX
  8
1
  6
CONTINUOUS
 62
     1
  5
D0
 10
-0.001103
 20
0.000071
 30
0.0
 42
-0.004038
  0
VERTEX
  8
1
  6
CONTINUOUS
 62
     1
  5
D1
 10
-0.002373
 20
0.000158
 30
0.0
 42
-0.003548
  0
VERTEX
  8
1
  6
CONTINUOUS
 62
     1
  5
D2
 10
-0.003725
 20
0.00027
 30
0.0
 42
-0.003367
  0
VERTEX
  8
1
  6
CONTINUOUS
 62
     1
  5
D3
 10
-0.005111
 20
0.000405
 30
0.0
 42
-0.003436
  0
VERTEX
  8
1
  6
CONTINUOUS
 62
     1
  5
D4
 10
-0.006481
 20
0.000556
 30
0.0
 42
-0.003778
  0
VERTEX
  8
1
  6
CONTINUOUS
 62
     1
  5
D5
 10
-0.007786
 20
0.00072
 30
0.0
 42
-0.00451
  0
VERTEX
  8
1
  6
CONTINUOUS
 62
     1
  5
D6
 10
-0.008979
 20
0.000889
 30
0.0
 42
-0.00594
  0
VERTEX
  8
1
  6
CONTINUOUS
 62
     1
  5
D7
 10
-0.010018
 20
0.001058
 30
0.0
 42
-0.008921
  0
VERTEX
  8
1
  6
CONTINUOUS
 62
     1
  5
D8
 10
-0.010864
 20
0.00122
 30
0.0
 42
-0.016392
  0
VERTEX
  8
1
  6
CONTINUOUS
 62
     1
  5
D9
 10
-0.011488
 20
0.001371
 30
0.0
 42
-0.04458
  0
VERTEX
  8
1
  6
CONTINUOUS
 62
     1
  5
DA
 10
-0.011867
 20
0.001503
 30
0.0
 42
-0.317392
  0
VERTEX
  8
1
  6
CONTINUOUS
 62
     1
  5
DB
 10
-0.011987
 20
0.001614
 30
0.0
 42
-0.317392
  0
SEQEND
  8
1
  6
CONTINUOUS
 62
     1
  5
DC
  0
ENDBLK
  8
1
  6
CONTINUOUS
 62
     1
  5
DD
  0
ENDSEC
  0
SECTION
  2
ENTITIES
  0
LINE
  8
61
  6
CONTINUOUS
 62
     1
  5
29
 10
614.202667
 20
-451.832583
 30
0.0
 11
-24.837333
 21
-451.832583
 31
0.0
  0
LINE
  8
61
  6
CONTINUOUS
 62
     1
  5
2A
 10
-24.837333
 20
-451.832583
 30
0.0
 11
-24.837333
 21
-871.852583
 31
0.0
  0
LINE
  8
61
  6
CONTINUOUS
 62
     1
  5
2B
 10
614.222667
 20
-871.872583
 30
0.0
 11
-24.837333
 21
-871.852583
 31
0.0
  0
LINE
  8
61
  6
CONTINUOUS
 62
     1
  5
2C
 10
614.202667
 20
-451.832583
 30
0.0
 11
614.222667
 21
-871.872583
 31
0.0
  0
LINE
  8
61
  6
CONTINUOUS
 62
     1
  5
2D
 10
608.102667
 20
-456.572583
 30
0.0
 11
500.122667
 21
-456.592583
 31
0.0
  0
LINE
  8
61
  6
CONTINUOUS
 62
     1
  5
2E
 10
500.122667
 20
-456.592583
 30
0.0
 11
500.122667
 21
-476.592583
 31
0.0
  0
LINE
  8
61
  6
CONTINUOUS
 62
     1
  5
2F
 10
608.102667
 20
-456.572583
 30
0.0
 11
608.102667
 21
-476.572583
 31
0.0
  0
LINE
  8
61
  6
CONTINUOUS
 62
     1
  5
30
 10
608.102667
 20
-476.572583
 30
0.0
 11
500.122667
 21
-476.592583
 31
0.0
  0
LINE
  8
61
  6
CONTINUOUS
 62
     1
  5
31
 10
608.122667
 20
-466.612583
 30
0.0
 11
500.102667
 21
-466.592583
 31
0.0
  0
LINE
  8
61
  6
CONTINUOUS
 62
     1
  5
32
 10
510.122667
 20
-456.592583
 30
0.0
 11
510.122667
 21
-476.592583
 31
0.0
  0
LINE
  8
61
  6
CONTINUOUS
 62
     1
  5
33
 10
520.122667
 20
-456.592583
 30
0.0
 11
520.122667
 21
-476.592583
 31
0.0
  0
LINE
  8
61
  6
CONTINUOUS
 62
     1
  5
34
 10
533.802667
 20
-456.592583
 30
0.0
 11
533.802667
 21
-476.592583
 31
0.0
  0
LINE
  8
61
  6
CONTINUOUS
 62
     1
  5
35
 10
598.102667
 20
-456.572583
 30
0.0
 11
598.102667
 21
-476.572583
 31
0.0
  0
LINE
  8
61
  6
CONTINUOUS
 62
     1
  5
36
 10
588.102667
 20
-456.572583
 30
0.0
 11
588.102667
 21
-476.572583
 31
0.0
  0
LINE
  8
61
  6
CONTINUOUS
 62
     1
  5
37
 10
566.122667
 20
-456.592583
 30
0.0
 11
566.122667
 21
-476.592583
 31
0.0
  0
LINE
  8
61
  6
CONTINUOUS
 62
     1
  5
38
 10
556.122667
 20
-456.592583
 30
0.0
 11
556.122667
 21
-476.592583
 31
0.0
  0
TEXT
  8
61
  6
CONTINUOUS
 62
     1
  5
3A
 10
502.162667
 20
-459.612583
 30
0.0
 40
1.20075
  1
PUBLIC
 50
0.033272
 41
1.001804
  7
MONOTXT
210
0.0
220
0.0
230
1.0
  0
TEXT
  8
61
  6
CONTINUOUS
 62
     1
  5
3B
 10
502.242667
 20
-462.132583
 30
0.0
 40
1.20075
  1
ROADS
 50
0.124322
 41
0.996877
  7
MONOTXT
210
0.0
220
0.0
230
1.0
  0
TEXT
  8
61
  6
CONTINUOUS
 62
     1
  5
3C
 10
503.442667
 20
-464.632583
 30
0.0
 40
1.20075
  1
DIV.
 50
359.931522
 41
0.994864
  7
MONOTXT
210
0.0
220
0.0
230
1.0
  0
TEXT
  8
61
  6
CONTINUOUS
 62
     1
  5
3D
 10
512.322667
 20
-459.552583
 30
0.0
 40
1.20075
  1
STATE
 50
0.058969
 41
0.998196
  7
MONOTXT
210
0.0
220
0.0
230
1.0
  0
TEXT
  8
61
  6
CONTINUOUS
 62
     1
  5
3E
 10
513.202667
 20
-462.052583
 30
0.0
 40
1.20075
  1
DIST.
 50
0.055889
 41
0.999584
  7
MONOTXT
210
0.0
220
0.0
230
1.0
  0
TEXT
  8
61
  6
CONTINUOUS
 62
     1
  5
3F
 10
513.782667
 20
-464.572583
 30
0.0
 40
1.20075
  1
NO.
 50
359.852072
 41
0.997779
  7
MONOTXT
210
0.0
220
0.0
230
1.0
  0
TEXT
  8
61
  6
CONTINUOUS
 62
     1
  5
40
 10
524.322667
 20
-459.612583
 30
0.0
 40
1.20075
  1
STATE
 50
0.058969
 41
0.998196
  7
MONOTXT
210
0.0
220
0.0
230
1.0
  0
TEXT
  8
61
  6
CONTINUOUS
 62
     1
  5
41
 10
523.242667
 20
-462.032583
 30
0.0
 40
1.20075
  1
PROJECT
 50
359.908431
 41
1.000069
  7
MONOTXT
210
0.0
220
0.0
230
1.0
  0
TEXT
  8
61
  6
CONTINUOUS
 62
     1
  5
42
 10
525.982667
 20
-464.572583
 30
0.0
 40
1.20075
  1
NO.
 50
0.225453
 41
0.993546
  7
MONOTXT
210
0.0
220
0.0
230
1.0
  0
TEXT
  8
61
  6
CONTINUOUS
 62
     1
  5
43
 10
541.622667
 20
-460.732583
 30
0.0
 40
1.20075
  1
FEDERAL
 50
0.006714
 41
0.998543
  7
MONOTXT
210
0.0
220
0.0
230
1.0
  0
TEXT
  8
61
  6
CONTINUOUS
 62
     1
  5
44
 10
540.082667
 20
-463.392583
 30
0.0
 40
1.20075
  1
PROJECT NO.
 50
359.921531
 41
1.000694
  7
MONOTXT
210
0.0
220
0.0
230
1.0
  0
TEXT
  8
61
  6
CONTINUOUS
 62
     1
  5
45
 10
558.362667
 20
-460.792583
 30
0.0
 40
1.20075
  1
FISCAL
 50
359.941939
 41
0.998959
  7
MONOTXT
210
0.0
220
0.0
230
1.0
  0
TEXT
  8
61
  6
CONTINUOUS
 62
     1
  5
46
 10
558.882667
 20
-463.692583
 30
0.0
 40
1.20075
  1
YEAR
 50
0.104606
 41
0.993268
  7
MONOTXT
210
0.0
220
0.0
230
1.0
  0
TEXT
  8
61
  6
CONTINUOUS
 62
     1
  5
47
 10
572.982667
 20
-462.332583
 30
0.0
 40
1.20075
  1
COUNTY
 50
0.068575
 41
1.001874
  7
MONOTXT
210
0.0
220
0.0
230
1.0
  0
TEXT
  8
61
  6
CONTINUOUS
 62
     1
  5
48
 10
590.622667
 20
-460.672583
 30
0.0
 40
1.20075
  1
SHEET
 50
0.058969
 41
0.997571
  7
MONOTXT
210
0.0
220
0.0
230
1.0
  0
TEXT
  8
61
  6
CONTINUOUS
 62
     1
  5
49
 10
592.042667
 20
-463.392583
 30
0.0
 40
1.20075
  1
NO.
 50
359.852072
 41
0.997779
  7
MONOTXT
210
0.0
220
0.0
230
1.0
  0
TEXT
  8
61
  6
CONTINUOUS
 62
     1
  5
4A
 10
600.362667
 20
-460.812583
 30
0.0
 40
1.20075
  1
TOTAL
 50
359.926039
 41
0.998543
  7
MONOTXT
210
0.0
220
0.0
230
1.0
  0
TEXT
  8
61
  6
CONTINUOUS
 62
     1
  5
4B
 10
599.902667
 20
-463.512583
 30
0.0
 40
1.20075
  1
SHEETS
 50
359.958675
  7
MONOTXT
210
0.0
220
0.0
230
1.0
  0
TEXT
  8
61
  6
CONTINUOUS
 62
     1
  5
4C
 10
512.722667
 20
-472.392583
 30
0.0
 40
2.401333
  1
  
 50
0.029406
 41
0.996495
  7
MONOTXT
210
0.0
220
0.0
230
1.0
  0
TEXT
  8
61
  6
CONTINUOUS
 62
     1
  5
4D
 10
589.902667
 20
-472.672583
 30
0.0
 40
2.401333
  1
   
 50
0.011508
 41
1.001006
  7
MONOTXT
210
0.0
220
0.0
230
1.0
  0
TEXT
  8
61
  6
CONTINUOUS
 62
     1
  5
4E
 10
599.782667
 20
-472.692583
 30
0.0
 40
2.401333
  1
   
 50
359.922128
 41
1.000555
  7
MONOTXT
210
0.0
220
0.0
230
1.0
  0
TEXT
  8
61
  6
CONTINUOUS
 62
     1
  5
4F
 10
523.162667
 20
-469.292583
 30
0.0
 40
2.00675
  1
    
 50
0.054383
 41
0.993729
  7
MONOTXT
210
0.0
220
0.0
230
1.0
  0
TEXT
  8
61
  6
CONTINUOUS
 62
     1
  5
50
 10
520.242667
 20
-472.312583
 30
0.0
 40
1.989583
  1
       
 50
0.064678
 41
1.000963
  7
MONOTXT
210
0.0
220
0.0
230
1.0
  0
TEXT
  8
61
  6
CONTINUOUS
 62
     1
  5
51
 10
521.202667
 20
-475.212583
 30
0.0
 40
1.989583
  1
      
 50
359.958053
 41
1.000293
  7
MONOTXT
210
0.0
220
0.0
230
1.0
  0
TEXT
  8
61
  6
CONTINUOUS
 62
     1
  5
52
 10
532.162667
 20
-470.572583
 30
0.0
 40
2.401333
  1
           
 50
0.011508
 41
0.998751
  7
MONOTXT
210
0.0
220
0.0
230
1.0
  0
TEXT
  8
61
  6
CONTINUOUS
 62
     1
  5
53
 10
532.042667
 20
-474.232583
 30
0.0
 40
2.401333
  1
           
 50
0.011508
 41
0.999584
  7
MONOTXT
210
0.0
220
0.0
230
1.0
  0
TEXT
  8
61
  6
CONTINUOUS
 62
     1
  5
54
 10
567.382667
 20
-472.492583
 30
0.0
 40
2.00675
  1
          
 50
0.009222
 41
0.992774
  7
MONOTXT
210
0.0
220
0.0
230
1.0
  0
ARC
  8
61
  6
CONTINUOUS
 62
     1
  5
55
 10
-43.139577
 20
-540.591288
 30
0.0
 40
2.499998
 50
323.130094
 51
316.232156
210
0.0
220
0.0
230
1.0
  0
ARC
  8
61
  6
CONTINUOUS
 62
     1
  5
56
 10
-43.139577
 20
-595.591288
 30
0.0
 40
2.499998
 50
323.130094
 51
315.375767
210
0.0
220
0.0
230
1.0
  0
ARC
  8
61
  6
CONTINUOUS
 62
     1
  5
57
 10
-43.419577
 20
-744.031288
 30
0.0
 40
2.499998
 50
322.671753
 51
321.716147
210
0.0
220
0.0
230
1.0
  0
ARC
  8
61
  6
CONTINUOUS
 62
     1
  5
58
 10
-43.419577
 20
-799.031288
 30
0.0
 40
2.499998
 50
323.130094
 51
312.314392
210
0.0
220
0.0
230
1.0
  0
LINE
  8
61
  6
CONTINUOUS
 62
     1
  5
59
 10
-41.117333
 20
-540.592583
 30
0.0
 11
-33.137333
 21
-540.572583
 31
0.0
  0
LINE
  8
61
  6
CONTINUOUS
 62
     1
  5
5A
 10
-41.137333
 20
-595.592583
 30
0.0
 11
-33.137333
 21
-595.592583
 31
0.0
  0
LINE
  8
61
  6
CONTINUOUS
 62
     1
  5
5B
 10
-41.417333
 20
-744.012583
 30
0.0
 11
-33.417333
 21
-744.012583
 31
0.0
  0
LINE
  8
61
  6
CONTINUOUS
 62
     1
  5
5C
 10
-41.397333
 20
-799.032583
 30
0.0
 11
-33.417333
 21
-799.032583
 31
0.0
  0
LINE
  8
61
  6
DASHED
 62
     1
  5
5D
 10
-54.837333
 20
-441.832583
 30
0.0
 11
625.182667
 21
-441.832583
 31
0.0
  0
LINE
  8
61
  6
DASHED
 62
     1
  5
5E
 10
625.162667
 20
-881.852583
 30
0.0
 11
-54.897333
 21
-881.872583
 31
0.0
  0
TEXT
  8
61
  6
CONTINUOUS
 62
     1
  5
5F
 10
585.495083
 20
-493.519833
 30
0.0
 40
2.401333
  1
     
 41
1.001388
  7
MONOTXT
210
0.0
220
0.0
230
1.0
  0
LINE
  8
1
  6
HIDDEN
 62
     1
  5
61
 10
625.182667
 20
-441.832583
 30
0.0
 11
625.162667
 21
-881.852583
 31
0.0
  0
LINE
  8
1
  6
HIDDEN
 62
     1
  5
62
 10
-54.837333
 20
-441.832583
 30
0.0
 11
-54.897333
 21
-881.872583
 31
0.0
  0
TEXT
  8
1
  6
CONTINUOUS
 62
     1
  5
64
 10
579.942667
 20
-874.372583
 30
0.0
 40
1.2
  1
TRAFFIC ENGINEERING DIVISION
  7
txt
210
0.0
220
0.0
230
1.0
  0
LINE
  8
1
  6
CONTINUOUS
 62
     1
  5
65
 10
442.562667
 20
-871.872583
 30
0.0
 11
442.562667
 21
-780.292583
 31
0.0
  0
LINE
  8
1
  6
CONTINUOUS
 62
     1
  5
66
 10
442.562667
 20
-780.292583
 30
0.0
 11
614.222667
 21
-780.292583
 31
0.0
  0
LINE
  8
1
  6
CONTINUOUS
 62
     1
  5
67
 10
477.562667
 20
-871.912583
 30
0.0
 11
477.562667
 21
-826.952583
 31
0.0
  0
LINE
  8
1
  6
CONTINUOUS
 62
     1
  5
68
 10
477.562667
 20
-826.952583
 30
0.0
 11
442.582667
 21
-826.952583
 31
0.0
  0
LINE
  8
1
  6
CONTINUOUS
 62
     1
  5
69
 10
477.562667
 20
-831.432583
 30
0.0
 11
442.582667
 21
-831.432583
 31
0.0
  0
LINE
  8
1
  6
CONTINUOUS
 62
     1
  5
6A
 10
477.562667
 20
-835.932583
 30
0.0
 11
442.582667
 21
-835.932583
 31
0.0
  0
LINE
  8
1
  6
CONTINUOUS
 62
     1
  5
6B
 10
477.562667
 20
-840.432583
 30
0.0
 11
442.582667
 21
-840.432583
 31
0.0
  0
LINE
  8
1
  6
CONTINUOUS
 62
     1
  5
6C
 10
477.562667
 20
-844.952583
 30
0.0
 11
442.582667
 21
-844.952583
 31
0.0
  0
LINE
  8
1
  6
CONTINUOUS
 62
     1
  5
6D
 10
477.562667
 20
-849.432583
 30
0.0
 11
442.582667
 21
-849.432583
 31
0.0
  0
LINE
  8
1
  6
CONTINUOUS
 62
     1
  5
6E
 10
477.562667
 20
-853.912583
 30
0.0
 11
442.582667
 21
-853.912583
 31
0.0
  0
LINE
  8
1
  6
CONTINUOUS
 62
     1
  5
6F
 10
477.562667
 20
-858.412583
 30
0.0
 11
442.582667
 21
-858.412583
 31
0.0
  0
LINE
  8
1
  6
CONTINUOUS
 62
     1
  5
70
 10
477.562667
 20
-862.912583
 30
0.0
 11
442.582667
 21
-862.912583
 31
0.0
  0
LINE
  8
1
  6
CONTINUOUS
 62
     1
  5
71
 10
477.562667
 20
-867.432583
 30
0.0
 11
442.582667
 21
-867.432583
 31
0.0
  0
TEXT
  8
1
  6
CONTINUOUS
 62
     1
  5
72
 10
452.842667
 20
-829.952583
 30
0.0
 40
1.99775
  1
REVISIONS
  7
MONOTXT
210
0.0
220
0.0
230
1.0
  0
TEXT
  8
1
  6
CONTINUOUS
 62
     1
  5
73
 10
444.522667
 20
-825.952583
 30
0.0
 40
1.99775
  1
PREPARED: 10/01/69
  7
MONOTXT
210
0.0
220
0.0
230
1.0
  0
TEXT
  8
1
  6
CONTINUOUS
 62
     1
  5
75
 10
475.182667
 20
-788.892583
 30
0.0
 40
4.794833
  1
WEST VIRGINIA DIVISION OF HIGHWAYS
  7
ROMANT
 72
     1
 11
529.152917
 21
-784.09775
 31
0.0
210
0.0
220
0.0
230
1.0
 73
     3
  0
TEXT
  8
1
  6
CONTINUOUS
 62
     1
  5
76
 10
485.942667
 20
-800.052583
 30
0.0
 40
6.992667
  1
STANDARD DETAIL
  7
txt
 72
     1
 11
530.43275
 21
-793.059917
 31
0.0
210
0.0
220
0.0
230
1.0
 73
     3
  0
TEXT
  8
1
  6
CONTINUOUS
 62
     1
  5
77
 10
481.402667
 20
-867.832583
 30
0.0
 40
6.992667
  1
STANDARD SHEET TP1-2 
  7
txt
210
0.0
220
0.0
230
1.0
  0
TEXT
  8
1
  6
CONTINUOUS
 62
     1
  5
78
 10
452.681583
 20
-835.012583
 30
0.0
 40
2.0
  1
05-01-70
  7
MONOTXT
 72
     1
 11
459.532083
 21
-833.012583
 31
0.0
210
0.0
220
0.0
230
1.0
 73
     3
  0
TEXT
  8
1
  6
CONTINUOUS
 62
     1
  5
79
 10
453.08675
 20
-839.412583
 30
0.0
 40
2.0
  1
12-13-73
  7
MONOTXT
 72
     1
 11
459.519917
 21
-837.412583
 31
0.0
210
0.0
220
0.0
230
1.0
 73
     3
  0
TEXT
  8
1
  6
CONTINUOUS
 62
     1
  5
7A
 10
452.776083
 20
-843.812583
 30
0.0
 40
2.0
  1
06-01-76
  7
MONOTXT
 72
     1
 11
459.539917
 21
-841.812583
 31
0.0
210
0.0
220
0.0
230
1.0
 73
     3
  0
TEXT
  8
1
  6
CONTINUOUS
 62
     1
  5
7B
 10
452.791833
 20
-848.212583
 30
0.0
 40
2.0
  1
09-13-93
  7
MONOTXT
 72
     1
 11
459.54
 21
-846.212583
 31
0.0
210
0.0
220
0.0
230
1.0
 73
     3
  0
TEXT
  8
1
  6
CONTINUOUS
 62
     1
  5
7C
 10
451.702667
 20
-852.812583
 30
0.0
 40
2.0
  1
        
  7
MONOTXT
 72
     1
 11
459.3695
 21
-850.812583
 31
0.0
210
0.0
220
0.0
230
1.0
 73
     3
  0
TEXT
  8
1
  6
CONTINUOUS
 62
     1
  5
7D
 10
451.862667
 20
-857.292583
 30
0.0
 40
2.0
  1
        
  7
MONOTXT
 72
     1
 11
459.5295
 21
-855.292583
 31
0.0
210
0.0
220
0.0
230
1.0
 73
     3
  0
TEXT
  8
1
  6
CONTINUOUS
 62
     1
  5
7E
 10
451.762667
 20
-861.892583
 30
0.0
 40
2.0
  1
        
  7
MONOTXT
 72
     1
 11
459.4295
 21
-859.892583
 31
0.0
210
0.0
220
0.0
230
1.0
 73
     3
  0
TEXT
  8
1
  6
CONTINUOUS
 62
     1
  5
7F
 10
451.862667
 20
-866.472583
 30
0.0
 40
2.0
  1
        
  7
MONOTXT
 72
     1
 11
459.5295
 21
-864.472583
 31
0.0
210
0.0
220
0.0
230
1.0
 73
     3
  0
TEXT
  8
1
  6
CONTINUOUS
 62
     1
  5
80
 10
451.862667
 20
-870.492583
 30
0.0
 40
2.0
  1
        
  7
MONOTXT
 72
     1
 11
459.5295
 21
-868.492583
 31
0.0
210
0.0
220
0.0
230
1.0
 73
     3
  0
TEXT
  8
1
  6
CONTINUOUS
 62
     1
  5
81
 10
494.682667
 20
-874.272583
 30
0.0
 40
1.2
  1
CATALOG:dt standa  FILENAME:tp12.dgn     DATE:03/18/93
  7
MONOTXT
210
0.0
220
0.0
230
1.0
  0
TEXT
  8
1
  6
CONTINUOUS
 62
     1
  5
82
 10
465.519833
 20
-808.96175
 30
0.0
 40
6.0
  1
PUNCHING AND MOUNTING FOR
  7
txt
210
0.0
220
0.0
230
1.0
  0
TEXT
  8
1
  6
CONTINUOUS
 62
     1
  5
83
 10
480.973333
 20
-817.829417
 30
0.0
 40
6.0
  1
DIAMOND, CIRCLE, SQUARE
  7
txt
210
0.0
220
0.0
230
1.0
  0
TEXT
  8
1
  6
CONTINUOUS
 62
     1
  5
84
 10
489.521833
 20
-826.838917
 30
0.0
 40
6.0
  1
AND PENNANT SIGNS
  7
txt
210
0.0
220
0.0
230
1.0
  0
POLYLINE
  8
1
  6
CONTINUOUS
 62
     7
  5
85
 66
     1
 10
0.0
 20
0.0
 30
0.0
  0
VERTEX
  8
1
  6
CONTINUOUS
 62
     7
  5
86
 10
447.75
 20
-836.428917
 30
0.0
  0
VERTEX
  8
1
  6
CONTINUOUS
 62
     7
  5
87
 10
445.75
 20
-839.893
 30
0.0
  0
VERTEX
  8
1
  6
CONTINUOUS
 62
     7
  5
88
 10
449.75
 20
-839.893
 30
0.0
  0
VERTEX
  8
1
  6
CONTINUOUS
 62
     7
  5
89
 10
447.75
 20
-836.428917
 30
0.0
  0
SEQEND
  8
1
  6
CONTINUOUS
 62
     7
  5
8A
  0
POLYLINE
  8
1
  6
CONTINUOUS
 62
     7
  5
8B
 66
     1
 10
0.0
 20
0.0
 30
0.0
  0
VERTEX
  8
1
  6
CONTINUOUS
 62
     7
  5
8C
 10
447.749917
 20
-831.876333
 30
0.0
  0
VERTEX
  8
1
  6
CONTINUOUS
 62
     7
  5
8D
 10
445.749917
 20
-835.340417
 30
0.0
  0
VERTEX
  8
1
  6
CONTINUOUS
 62
     7
  5
8E
 10
449.749917
 20
-835.340417
 30
0.0
  0
VERTEX
  8
1
  6
CONTINUOUS
 62
     7
  5
8F
 10
447.749917
 20
-831.876333
 30
0.0
  0
SEQEND
  8
1
  6
CONTINUOUS
 62
     7
  5
90
  0
POLYLINE
  8
1
  6
CONTINUOUS
 62
     7
  5
91
 66
     1
 10
0.0
 20
0.0
 30
0.0
  0
VERTEX
  8
1
  6
CONTINUOUS
 62
     7
  5
92
 10
447.6895
 20
-840.886417
 30
0.0
  0
VERTEX
  8
1
  6
CONTINUOUS
 62
     7
  5
93
 10
445.6895
 20
-844.3505
 30
0.0
  0
VERTEX
  8
1
  6
CONTINUOUS
 62
     7
  5
94
 10
449.6895
 20
-844.3505
 30
0.0
  0
VERTEX
  8
1
  6
CONTINUOUS
 62
     7
  5
95
 10
447.6895
 20
-840.886417
 30
0.0
  0
SEQEND
  8
1
  6
CONTINUOUS
 62
     7
  5
96
  0
TEXT
  8
1
  6
CONTINUOUS
 62
     7
  5
97
 10
447.508167
 20
-834.856667
 30
0.0
 40
1.5
  1
1
  7
MONOTXT
210
0.0
220
0.0
230
1.0
  0
TEXT
  8
1
  6
CONTINUOUS
 62
     7
  5
98
 10
447.205917
 20
-839.3315
 30
0.0
 40
1.5
  1
2
  7
MONOTXT
210
0.0
220
0.0
230
1.0
  0
TEXT
  8
1
  6
CONTINUOUS
 62
     7
  5
99
 10
447.145417
 20
-843.927167
 30
0.0
 40
1.5
  1
3
  7
MONOTXT
210
0.0
220
0.0
230
1.0
  0
POLYLINE
  8
1
  6
CONTINUOUS
 62
     2
  5
9A
 66
     1
 10
0.0
 20
0.0
 30
0.0
  0
VERTEX
  8
1
  6
CONTINUOUS
 62
     2
  5
9B
 10
18.772667
 20
-468.224083
 30
0.0
  0
VERTEX
  8
1
  6
CONTINUOUS
 62
     2
  5
9C
 10
-10.21875
 20
-497.2155
 30
0.0
  0
VERTEX
  8
1
  6
CONTINUOUS
 62
     2
  5
9D
 10
18.772667
 20
-526.206917
 30
0.0
  0
VERTEX
  8
1
  6
CONTINUOUS
 62
     2
  5
9E
 10
47.764083
 20
-497.2155
 30
0.0
  0
VERTEX
  8
1
  6
CONTINUOUS
 62
     2
  5
9F
 10
18.772667
 20
-468.224083
 30
0.0
  0
SEQEND
  8
1
  6
CONTINUOUS
 62
     2
  5
A0
  0
CIRCLE
  8
1
  6
CONTINUOUS
 62
     2
  5
A1
 10
18.772667
 20
-479.724083
 30
0.0
 40
0.75
210
0.0
220
0.0
230
1.0
  0
CIRCLE
  8
1
  6
CONTINUOUS
 62
     2
  5
A2
 10
1.28125
 20
-497.2155
 30
0.0
 40
0.75
210
0.0
220
0.0
230
1.0
  0
CIRCLE
  8
1
  6
CONTINUOUS
 62
     2
  5
A3
 10
18.772667
 20
-514.706917
 30
0.0
 40
0.75
210
0.0
220
0.0
230
1.0
  0
CIRCLE
  8
1
  6
CONTINUOUS
 62
     2
  5
A4
 10
36.264083
 20
-497.2155
 30
0.0
 40
0.75
210
0.0
220
0.0
230
1.0
  0
LINE
  8
1
  6
CONTINUOUS
 62
     7
  5
A5
 10
18.772667
 20
-478.974083
 30
0.0
 11
18.772667
 21
-480.474083
 31
0.0
  0
LINE
  8
1
  6
CONTINUOUS
 62
     7
  5
A6
 10
0.53125
 20
-497.2155
 30
0.0
 11
2.03125
 21
-497.2155
 31
0.0
  0
LINE
  8
1
  6
CONTINUOUS
 62
     7
  5
A7
 10
18.772667
 20
-513.956917
 30
0.0
 11
18.772667
 21
-515.456917
 31
0.0
  0
LINE
  8
1
  6
CONTINUOUS
 62
     7
  5
A8
 10
3.03125
 20
-497.2155
 30
0.0
 11
34.514083
 21
-497.2155
 31
0.0
  0
LINE
  8
1
  6
CONTINUOUS
 62
     7
  5
A9
 10
35.514083
 20
-497.2155
 30
0.0
 11
37.014083
 21
-497.2155
 31
0.0
  0
LINE
  8
1
  6
CONTINUOUS
 62
     7
  5
AA
 10
18.022667
 20
-479.724083
 30
0.0
 11
19.522667
 21
-479.724083
 31
0.0
  0
LINE
  8
1
  6
CONTINUOUS
 62
     7
  5
AB
 10
1.28125
 20
-496.4655
 30
0.0
 11
1.28125
 21
-497.9655
 31
0.0
  0
LINE
  8
1
  6
CONTINUOUS
 62
     7
  5
AC
 10
36.264083
 20
-496.4655
 30
0.0
 11
36.264083
 21
-497.9655
 31
0.0
  0
LINE
  8
1
  6
CONTINUOUS
 62
     7
  5
AD
 10
18.022667
 20
-514.706917
 30
0.0
 11
19.522667
 21
-514.706917
 31
0.0
  0
LINE
  8
1
  6
CONTINUOUS
 62
     7
  5
AE
 10
18.772667
 20
-477.974083
 30
0.0
 11
18.772667
 21
-462.7155
 31
0.0
  0
LINE
  8
1
  6
CONTINUOUS
 62
     7
  5
AF
 10
38.014083
 20
-497.2155
 30
0.0
 11
53.272667
 21
-497.2155
 31
0.0
  0
LINE
  8
1
  6
CONTINUOUS
 62
     7
  5
B0
 10
-0.46875
 20
-497.2155
 30
0.0
 11
-14.21875
 21
-497.2155
 31
0.0
  0
LINE
  8
1
  6
CONTINUOUS
 62
     7
  5
B1
 10
18.772667
 20
-516.456917
 30
0.0
 11
18.772667
 21
-530.206917
 31
0.0
  0
LINE
  8
1
  6
CONTINUOUS
 62
     7
  5
B2
 10
20.522667
 20
-479.724083
 30
0.0
 11
53.272667
 21
-479.724083
 31
0.0
  0
LINE
  8
1
  6
CONTINUOUS
 62
     7
  5
B3
 10
20.522667
 20
-514.706917
 30
0.0
 11
53.272667
 21
-514.706917
 31
0.0
  0
LINE
  8
1
  6
CONTINUOUS
 62
     7
  5
B4
 10
17.022667
 20
-479.724083
 30
0.0
 11
12.272667
 21
-479.724083
 31
0.0
  0
LINE
  8
1
  6
CONTINUOUS
 62
     7
  5
B5
 10
17.022667
 20
-514.706917
 30
0.0
 11
12.272667
 21
-514.706917
 31
0.0
  0
LINE
  8
1
  6
CONTINUOUS
 62
     7
  5
B6
 10
1.28125
 20
-495.4655
 30
0.0
 11
1.28125
 21
-462.7155
 31
0.0
  0
LINE
  8
1
  6
CONTINUOUS
 62
     7
  5
B7
 10
36.264083
 20
-495.4655
 30
0.0
 11
36.264083
 21
-462.7155
 31
0.0
  0
LINE
  8
1
  6
CONTINUOUS
 62
     7
  5
B8
 10
1.28125
 20
-498.9655
 30
0.0
 11
1.28125
 21
-503.7155
 31
0.0
  0
LINE
  8
1
  6
CONTINUOUS
 62
     7
  5
B9
 10
36.264083
 20
-498.9655
 30
0.0
 11
36.264083
 21
-503.7155
 31
0.0
  0
LINE
  8
1
  6
CONTINUOUS
 62
     7
  5
BA
 10
1.28125
 20
-463.7155
 30
0.0
 11
18.772667
 21
-463.7155
 31
0.0
  0
LINE
  8
1
  6
CONTINUOUS
 62
     7
  5
BB
 10
18.772667
 20
-463.7155
 30
0.0
 11
36.264083
 21
-463.7155
 31
0.0
  0
LINE
  8
1
  6
CONTINUOUS
 62
     7
  5
BC
 10
52.272667
 20
-479.724083
 30
0.0
 11
52.272667
 21
-497.2155
 31
0.0
  0
LINE
  8
1
  6
CONTINUOUS
 62
     7
  5
BD
 10
52.272667
 20
-497.2155
 30
0.0
 11
52.272667
 21
-514.706917
 31
0.0
  0
INSERT
  8
1
  6
CONTINUOUS
 62
     1
  5
DE
  2
LDR
 10
1.28125
 20
-463.7155
 30
0.0
 41
240.0
 42
240.0
 50
180.0
210
0.0
220
0.0
230
1.0
  0
INSERT
  8
1
  6
CONTINUOUS
 62
     1
  5
DF
  2
LDR
 10
18.772667
 20
-463.7155
 30
0.0
 41
240.0
 42
240.0
210
0.0
220
0.0
230
1.0
  0
INSERT
  8
1
  6
CONTINUOUS
 62
     1
  5
E0
  2
LDR
 10
18.772667
 20
-463.7155
 30
0.0
 41
240.0
 42
240.0
210
0.0
220
0.0
230
1.0
  0
INSERT
  8
1
  6
CONTINUOUS
 62
     1
  5
E1
  2
LDR
 10
18.772667
 20
-463.7155
 30
0.0
 41
240.0
 42
240.0
 50
180.0
210
0.0
220
0.0
230
1.0
  0
INSERT
  8
1
  6
CONTINUOUS
 62
     1
  5
E2
  2
LDR
 10
18.772667
 20
-463.7155
 30
0.0
 41
240.0
 42
240.0
 50
180.0
210
0.0
220
0.0
230
1.0
  0
INSERT
  8
1
  6
CONTINUOUS
 62
     1
  5
E3
  2
LDR
 10
36.264083
 20
-463.7155
 30
0.0
 41
240.0
 42
240.0
210
0.0
220
0.0
230
1.0
  0
INSERT
  8
1
  6
CONTINUOUS
 62
     1
  5
E4
  2
LDR
 10
36.264083
 20
-463.7155
 30
0.0
 41
240.0
 42
240.0
210
0.0
220
0.0
230
1.0
  0
INSERT
  8
1
  6
CONTINUOUS
 62
     1
  5
E5
  2
LDR
 10
52.272667
 20
-479.724083
 30
0.0
 41
240.0
 42
240.0
 50
90.0
210
0.0
220
0.0
230
1.0
  0
INSERT
  8
1
  6
CONTINUOUS
 62
     1
  5
E6
  2
LDR
 10
52.272667
 20
-479.724083
 30
0.0
 41
240.0
 42
240.0
 50
90.0
210
0.0
220
0.0
230
1.0
  0
INSERT
  8
1
  6
CONTINUOUS
 62
     1
  5
E7
  2
LDR
 10
52.272667
 20
-497.2155
 30
0.0
 41
240.0
 42
240.0
 50
270.0
210
0.0
220
0.0
230
1.0
  0
INSERT
  8
1
  6
CONTINUOUS
 62
     1
  5
E8
  2
LDR
 10
52.272667
 20
-497.2155
 30
0.0
 41
240.0
 42
240.0
 50
270.0
210
0.0
220
0.0
230
1.0
  0
INSERT
  8
1
  6
CONTINUOUS
 62
     1
  5
E9
  2
LDR
 10
52.272667
 20
-497.2155
 30
0.0
 41
240.0
 42
240.0
 50
90.0
210
0.0
220
0.0
230
1.0
  0
INSERT
  8
1
  6
CONTINUOUS
 62
     1
  5
EA
  2
LDR
 10
52.272667
 20
-497.2155
 30
0.0
 41
240.0
 42
240.0
 50
90.0
210
0.0
220
0.0
230
1.0
  0
INSERT
  8
1
  6
CONTINUOUS
 62
     1
  5
EB
  2
LDR
 10
52.272667
 20
-514.706917
 30
0.0
 41
240.0
 42
240.0
 50
270.0
210
0.0
220
0.0
230
1.0
  0
LINE
  8
1
  6
CONTINUOUS
 62
     7
  5
EC
 10
18.772667
 20
-481.474083
 30
0.0
 11
18.772667
 21
-487.34475
 31
0.0
  0
LINE
  8
1
  6
CONTINUOUS
 62
     7
  5
ED
 10
18.772667
 20
-488.34475
 30
0.0
 11
18.772667
 21
-490.34475
 31
0.0
  0
LINE
  8
1
  6
CONTINUOUS
 62
     7
  5
EE
 10
18.772667
 20
-491.34475
 30
0.0
 11
18.772667
 21
-497.2155
 31
0.0
  0
LINE
  8
1
  6
CONTINUOUS
 62
     7
  5
EF
 10
18.772667
 20
-497.2155
 30
0.0
 11
18.772667
 21
-503.086167
 31
0.0
  0
LINE
  8
1
  6
CONTINUOUS
 62
     7
  5
F0
 10
18.772667
 20
-504.086167
 30
0.0
 11
18.772667
 21
-506.086167
 31
0.0
  0
LINE
  8
1
  6
CONTINUOUS
 62
     7
  5
F1
 10
18.772667
 20
-507.086167
 30
0.0
 11
18.772667
 21
-512.956917
 31
0.0
  0
LINE
  8
1
  6
CONTINUOUS
 62
     7
  5
F2
 10
3.03125
 20
-570.198333
 30
0.0
 11
34.514083
 21
-570.198333
 31
0.0
  0
POLYLINE
  8
1
  6
CONTINUOUS
 62
     2
  5
F3
 66
     1
 10
0.0
 20
0.0
 30
0.0
  0
VERTEX
  8
1
  6
CONTINUOUS
 62
     2
  5
F4
 10
18.772667
 20
-599.18975
 30
0.0
  0
VERTEX
  8
1
  6
CONTINUOUS
 62
     2
  5
F5
 10
-10.21875
 20
-570.198333
 30
0.0
  0
VERTEX
  8
1
  6
CONTINUOUS
 62
     2
  5
F6
 10
18.772667
 20
-541.206917
 30
0.0
  0
VERTEX
  8
1
  6
CONTINUOUS
 62
     2
  5
F7
 10
47.764083
 20
-570.198333
 30
0.0
  0
VERTEX
  8
1
  6
CONTINUOUS
 62
     2
  5
F8
 10
18.772667
 20
-599.18975
 30
0.0
  0
SEQEND
  8
1
  6
CONTINUOUS
 62
     2
  5
F9
  0
CIRCLE
  8
1
  6
CONTINUOUS
 62
     2
  5
FA
 10
18.772667
 20
-587.68975
 30
0.0
 40
0.75
210
0.0
220
0.0
230
1.0
  0
CIRCLE
  8
1
  6
CONTINUOUS
 62
     2
  5
FB
 10
1.28125
 20
-570.198333
 30
0.0
 40
0.75
210
0.0
220
0.0
230
1.0
  0
CIRCLE
  8
1
  6
CONTINUOUS
 62
     2
  5
FC
 10
18.772667
 20
-552.706917
 30
0.0
 40
0.75
210
0.0
220
0.0
230
1.0
  0
CIRCLE
  8
1
  6
CONTINUOUS
 62
     2
  5
FD
 10
36.264083
 20
-570.198333
 30
0.0
 40
0.75
210
0.0
220
0.0
230
1.0
  0
LINE
  8
1
  6
CONTINUOUS
 62
     7
  5
FE
 10
18.772667
 20
-588.43975
 30
0.0
 11
18.772667
 21
-586.93975
 31
0.0
  0
LINE
  8
1
  6
CONTINUOUS
 62
     7
  5
FF
 10
0.53125
 20
-570.198333
 30
0.0
 11
2.03125
 21
-570.198333
 31
0.0
  0
LINE
  8
1
  6
CONTINUOUS
 62
     7
  5
100
 10
18.772667
 20
-553.456917
 30
0.0
 11
18.772667
 21
-551.956917
 31
0.0
  0
LINE
  8
1
  6
CONTINUOUS
 62
     7
  5
101
 10
35.514083
 20
-570.198333
 30
0.0
 11
37.014083
 21
-570.198333
 31
0.0
  0
LINE
  8
1
  6
CONTINUOUS
 62
     7
  5
102
 10
18.022667
 20
-587.68975
 30
0.0
 11
19.522667
 21
-587.68975
 31
0.0
  0
LINE
  8
1
  6
CONTINUOUS
 62
     7
  5
103
 10
1.28125
 20
-570.948333
 30
0.0
 11
1.28125
 21
-569.448333
 31
0.0
  0
LINE
  8
1
  6
CONTINUOUS
 62
     7
  5
104
 10
36.264083
 20
-570.948333
 30
0.0
 11
36.264083
 21
-569.448333
 31
0.0
  0
LINE
  8
1
  6
CONTINUOUS
 62
     7
  5
105
 10
18.022667
 20
-552.706917
 30
0.0
 11
19.522667
 21
-552.706917
 31
0.0
  0
LINE
  8
1
  6
CONTINUOUS
 62
     7
  5
106
 10
18.772667
 20
-589.43975
 30
0.0
 11
18.772667
 21
-607.18975
 31
0.0
  0
LINE
  8
1
  6
CONTINUOUS
 62
     7
  5
107
 10
38.014083
 20
-570.198333
 30
0.0
 11
53.272667
 21
-570.198333
 31
0.0
  0
LINE
  8
1
  6
CONTINUOUS
 62
     7
  5
108
 10
-0.46875
 20
-570.198333
 30
0.0
 11
-14.21875
 21
-570.198333
 31
0.0
  0
LINE
  8
1
  6
CONTINUOUS
 62
     7
  5
109
 10
18.772667
 20
-550.956917
 30
0.0
 11
18.772667
 21
-537.206917
 31
0.0
  0
LINE
  8
1
  6
CONTINUOUS
 62
     7
  5
10A
 10
20.522667
 20
-587.68975
 30
0.0
 11
25.272667
 21
-587.68975
 31
0.0
  0
LINE
  8
1
  6
CONTINUOUS
 62
     7
  5
10B
 10
20.522667
 20
-552.706917
 30
0.0
 11
25.272667
 21
-552.706917
 31
0.0
  0
LINE
  8
1
  6
CONTINUOUS
 62
     7
  5
10C
 10
17.022667
 20
-587.68975
 30
0.0
 11
12.272667
 21
-587.68975
 31
0.0
  0
LINE
  8
1
  6
CONTINUOUS
 62
     7
  5
10D
 10
17.022667
 20
-552.706917
 30
0.0
 11
12.272667
 21
-552.706917
 31
0.0
  0
LINE
  8
1
  6
CONTINUOUS
 62
     7
  5
10E
 10
1.28125
 20
-571.948333
 30
0.0
 11
1.28125
 21
-576.698333
 31
0.0
  0
LINE
  8
1
  6
CONTINUOUS
 62
     7
  5
10F
 10
36.264083
 20
-571.948333
 30
0.0
 11
36.264083
 21
-576.698333
 31
0.0
  0
LINE
  8
1
  6
CONTINUOUS
 62
     7
  5
110
 10
1.28125
 20
-568.448333
 30
0.0
 11
1.28125
 21
-563.698333
 31
0.0
  0
LINE
  8
1
  6
CONTINUOUS
 62
     7
  5
111
 10
36.264083
 20
-568.448333
 30
0.0
 11
36.264083
 21
-563.698333
 31
0.0
  0
LINE
  8
1
  6
CONTINUOUS
 62
     7
  5
112
 10
18.772667
 20
-585.93975
 30
0.0
 11
18.772667
 21
-580.069083
 31
0.0
  0
LINE
  8
1
  6
CONTINUOUS
 62
     7
  5
113
 10
18.772667
 20
-579.069083
 30
0.0
 11
18.772667
 21
-577.069083
 31
0.0
  0
LINE
  8
1
  6
CONTINUOUS
 62
     7
  5
114
 10
18.772667
 20
-576.069083
 30
0.0
 11
18.772667
 21
-570.198333
 31
0.0
  0
LINE
  8
1
  6
CONTINUOUS
 62
     7
  5
115
 10
18.772667
 20
-570.198333
 30
0.0
 11
18.772667
 21
-564.327667
 31
0.0
  0
LINE
  8
1
  6
CONTINUOUS
 62
     7
  5
116
 10
18.772667
 20
-563.327667
 30
0.0
 11
18.772667
 21
-561.327667
 31
0.0
  0
LINE
  8
1
  6
CONTINUOUS
 62
     7
  5
117
 10
18.772667
 20
-560.327667
 30
0.0
 11
18.772667
 21
-554.456917
 31
0.0
  0
LINE
  8
1
  6
DASHED
 62
     2
  5
118
 10
14.772667
 20
-550.206917
 30
0.0
 11
22.772667
 21
-550.206917
 31
0.0
  0
LINE
  8
1
  6
DASHED
 62
     2
  5
119
 10
14.772667
 20
-550.206917
 30
0.0
 11
14.772667
 21
-595.18975
 31
0.0
  0
LINE
  8
1
  6
DASHED
 62
     2
  5
11A
 10
22.772667
 20
-550.206917
 30
0.0
 11
22.772667
 21
-595.18975
 31
0.0
  0
LINE
  8
1
  6
DASHED
 62
     2
  5
11B
 10
16.272667
 20
-550.206917
 30
0.0
 11
16.272667
 21
-596.68975
 31
0.0
  0
LINE
  8
1
  6
DASHED
 62
     2
  5
11C
 10
21.272667
 20
-550.206917
 30
0.0
 11
21.272667
 21
-596.68975
 31
0.0
  0
LINE
  8
1
  6
CONTINUOUS
 62
     2
  5
11D
 10
14.772667
 20
-595.18975
 30
0.0
 11
14.772667
 21
-607.18975
 31
0.0
  0
LINE
  8
1
  6
CONTINUOUS
 62
     2
  5
11E
 10
16.272667
 20
-596.68975
 30
0.0
 11
16.272667
 21
-607.18975
 31
0.0
  0
LINE
  8
1
  6
CONTINUOUS
 62
     2
  5
11F
 10
21.272667
 20
-596.68975
 30
0.0
 11
21.272667
 21
-607.18975
 31
0.0
  0
LINE
  8
1
  6
CONTINUOUS
 62
     2
  5
120
 10
22.772667
 20
-595.18975
 30
0.0
 11
22.772667
 21
-607.18975
 31
0.0
  0
LINE
  8
1
  6
CONTINUOUS
 62
     2
  5
121
 10
-10.21875
 20
-626.698333
 30
0.0
 11
47.764083
 21
-626.698333
 31
0.0
  0
LINE
  8
1
  6
CONTINUOUS
 62
     2
  5
122
 10
-10.21875
 20
-627.698333
 30
0.0
 11
47.764083
 21
-627.698333
 31
0.0
  0
LINE
  8
1
  6
CONTINUOUS
 62
     2
  5
123
 10
-10.21875
 20
-626.698333
 30
0.0
 11
-10.21875
 21
-627.698333
 31
0.0
  0
LINE
  8
1
  6
CONTINUOUS
 62
     2
  5
124
 10
47.764083
 20
-626.698333
 30
0.0
 11
47.764083
 21
-627.698333
 31
0.0
  0
LINE
  8
1
  6
CONTINUOUS
 62
     2
  5
125
 10
17.522667
 20
-619.698333
 30
0.0
 11
20.022667
 21
-619.698333
 31
0.0
  0
LINE
  8
1
  6
CONTINUOUS
 62
     2
  5
126
 10
17.522667
 20
-619.698333
 30
0.0
 11
17.522667
 21
-620.948333
 31
0.0
  0
LINE
  8
1
  6
CONTINUOUS
 62
     2
  5
127
 10
20.022667
 20
-619.698333
 30
0.0
 11
20.022667
 21
-620.948333
 31
0.0
  0
LINE
  8
1
  6
CONTINUOUS
 62
     2
  5
128
 10
16.7255
 20
-620.948333
 30
0.0
 11
20.819833
 21
-620.948333
 31
0.0
  0
LINE
  8
1
  6
CONTINUOUS
 62
     2
  5
129
 10
16.480833
 20
-621.146833
 30
0.0
 11
15.5645
 21
-625.499833
 31
0.0
  0
LINE
  8
1
  6
CONTINUOUS
 62
     2
  5
12A
 10
21.064417
 20
-621.146833
 30
0.0
 11
21.980833
 21
-625.499833
 31
0.0
  0
LINE
  8
1
  6
CONTINUOUS
 62
     2
  5
12B
 10
14.522667
 20
-625.698333
 30
0.0
 11
14.522667
 21
-626.698333
 31
0.0
  0
LINE
  8
1
  6
CONTINUOUS
 62
     2
  5
12C
 10
23.022667
 20
-625.698333
 30
0.0
 11
23.022667
 21
-626.698333
 31
0.0
  0
LINE
  8
1
  6
CONTINUOUS
 62
     2
  5
12D
 10
17.334
 20
-621.948333
 30
0.0
 11
16.334
 21
-626.698333
 31
0.0
  0
LINE
  8
1
  6
CONTINUOUS
 62
     2
  5
12E
 10
20.21125
 20
-621.948333
 30
0.0
 11
21.21125
 21
-626.698333
 31
0.0
  0
LINE
  8
1
  6
CONTINUOUS
 62
     2
  5
12F
 10
14.522667
 20
-625.698333
 30
0.0
 11
15.319833
 21
-625.698333
 31
0.0
  0
LINE
  8
1
  6
CONTINUOUS
 62
     2
  5
130
 10
22.2255
 20
-625.698333
 30
0.0
 11
23.022667
 21
-625.698333
 31
0.0
  0
ARC
  8
1
  6
CONTINUOUS
 62
     2
  5
131
 10
15.319823
 20
-625.448333
 30
0.0
 40
0.25
 50
270.0
 51
348.111364
210
0.0
220
0.0
230
1.0
  0
ARC
  8
1
  6
CONTINUOUS
 62
     2
  5
132
 10
22.225503
 20
-625.448333
 30
0.0
 40
0.25
 50
191.889017
 51
270.0
210
0.0
220
0.0
230
1.0
  0
ARC
  8
1
  6
CONTINUOUS
 62
     2
  5
133
 10
16.725507
 20
-621.198333
 30
0.0
 40
0.25
 50
90.0
 51
168.109056
210
0.0
220
0.0
230
1.0
  0
ARC
  8
1
  6
CONTINUOUS
 62
     2
  5
134
 10
20.819818
 20
-621.198333
 30
0.0
 40
0.25
 50
11.888658
 51
90.0
210
0.0
220
0.0
230
1.0
  0
LINE
  8
1
  6
CONTINUOUS
 62
     2
  5
135
 10
18.022667
 20
-626.698333
 30
0.0
 11
18.022667
 21
-621.948333
 31
0.0
  0
LINE
  8
1
  6
CONTINUOUS
 62
     2
  5
136
 10
19.522667
 20
-626.698333
 30
0.0
 11
19.522667
 21
-621.948333
 31
0.0
  0
LINE
  8
1
  6
CONTINUOUS
 62
     2
  5
137
 10
17.334
 20
-621.948333
 30
0.0
 11
18.022667
 21
-621.948333
 31
0.0
  0
LINE
  8
1
  6
CONTINUOUS
 62
     2
  5
138
 10
19.522667
 20
-621.948333
 30
0.0
 11
20.21125
 21
-621.948333
 31
0.0
  0
LINE
  8
1
  6
CONTINUOUS
 62
     2
  5
139
 10
17.522667
 20
-628.948333
 30
0.0
 11
20.022667
 21
-628.948333
 31
0.0
  0
LINE
  8
1
  6
CONTINUOUS
 62
     2
  5
13A
 10
17.522667
 20
-628.948333
 30
0.0
 11
17.522667
 21
-627.698333
 31
0.0
  0
LINE
  8
1
  6
CONTINUOUS
 62
     2
  5
13B
 10
20.022667
 20
-628.948333
 30
0.0
 11
20.022667
 21
-627.698333
 31
0.0
  0
LINE
  8
1
  6
CONTINUOUS
 62
     7
  5
13C
 10
18.772667
 20
-623.323333
 30
0.0
 11
18.772667
 21
-618.448333
 31
0.0
  0
LINE
  8
1
  6
CONTINUOUS
 62
     7
  5
13D
 10
18.772667
 20
-630.198333
 30
0.0
 11
18.772667
 21
-625.323333
 31
0.0
  0
LINE
  8
1
  6
CONTINUOUS
 62
     7
  5
13E
 10
18.772667
 20
-624.823333
 30
0.0
 11
18.772667
 21
-623.823333
 31
0.0
  0
LINE
  8
1
  6
CONTINUOUS
 62
     7
  5
13F
 10
1.272667
 20
-625.698333
 30
0.0
 11
1.272667
 21
-622.698333
 31
0.0
  0
LINE
  8
1
  6
CONTINUOUS
 62
     7
  5
140
 10
1.272667
 20
-631.698333
 30
0.0
 11
1.272667
 21
-628.698333
 31
0.0
  0
LINE
  8
1
  6
CONTINUOUS
 62
     7
  5
141
 10
1.272667
 20
-628.198333
 30
0.0
 11
1.272667
 21
-626.198333
 31
0.0
  0
LINE
  8
1
  6
CONTINUOUS
 62
     7
  5
142
 10
36.272667
 20
-631.698333
 30
0.0
 11
36.272667
 21
-628.698333
 31
0.0
  0
LINE
  8
1
  6
CONTINUOUS
 62
     7
  5
143
 10
36.272667
 20
-628.198333
 30
0.0
 11
36.272667
 21
-626.198333
 31
0.0
  0
LINE
  8
1
  6
CONTINUOUS
 62
     7
  5
144
 10
36.272667
 20
-625.698333
 30
0.0
 11
36.272667
 21
-622.698333
 31
0.0
  0
LINE
  8
1
  6
CONTINUOUS
 62
     7
  5
145
 10
29.57525
 20
-627.698333
 30
0.0
 11
29.57525
 21
-638.603
 31
0.0
  0
LINE
  8
1
  6
CONTINUOUS
 62
     7
  5
146
 10
29.57525
 20
-638.603
 30
0.0
 11
35.040167
 21
-638.603
 31
0.0
  0
INSERT
  8
1
  6
CONTINUOUS
 62
     1
  5
147
  2
LDR
 10
29.57525
 20
-627.698333
 30
0.0
 41
240.0
 42
240.0
 50
90.0
210
0.0
220
0.0
230
1.0
  0
LINE
  8
1
  6
CONTINUOUS
 62
     2
  5
148
 10
77.772667
 20
-541.206917
 30
0.0
 11
77.772667
 21
-599.18975
 31
0.0
  0
LINE
  8
1
  6
CONTINUOUS
 62
     2
  5
149
 10
78.772667
 20
-541.206917
 30
0.0
 11
78.772667
 21
-599.18975
 31
0.0
  0
LINE
  8
1
  6
CONTINUOUS
 62
     2
  5
14A
 10
77.772667
 20
-541.206917
 30
0.0
 11
78.772667
 21
-541.206917
 31
0.0
  0
LINE
  8
1
  6
CONTINUOUS
 62
     2
  5
14B
 10
77.772667
 20
-599.18975
 30
0.0
 11
78.772667
 21
-599.18975
 31
0.0
  0
LINE
  8
1
  6
CONTINUOUS
 62
     2
  5
14C
 10
79.772667
 20
-549.706917
 30
0.0
 11
79.772667
 21
-607.18975
 31
0.0
  0
LINE
  8
1
  6
CONTINUOUS
 62
     2
  5
14D
 10
85.772667
 20
-549.706917
 30
0.0
 11
85.772667
 21
-607.18975
 31
0.0
  0
LINE
  8
1
  6
CONTINUOUS
 62
     2
  5
14E
 10
79.772667
 20
-549.706917
 30
0.0
 11
85.772667
 21
-549.706917
 31
0.0
  0
LINE
  8
1
  6
CONTINUOUS
 62
     2
  5
14F
 10
81.022667
 20
-549.706917
 30
0.0
 11
81.022667
 21
-607.18975
 31
0.0
  0
LINE
  8
1
  6
DASHED
 62
     2
  5
150
 10
84.522667
 20
-549.706917
 30
0.0
 11
84.522667
 21
-607.18975
 31
0.0
  0
LINE
  8
1
  6
HIDDEN
 62
     2
  5
151
 10
79.772667
 20
-552.081917
 30
0.0
 11
85.772667
 21
-552.081917
 31
0.0
  0
LINE
  8
1
  6
HIDDEN
 62
     2
  5
152
 10
79.772667
 20
-553.331917
 30
0.0
 11
85.772667
 21
-553.331917
 31
0.0
  0
LINE
  8
1
  6
HIDDEN
 62
     2
  5
153
 10
79.772667
 20
-587.06475
 30
0.0
 11
85.772667
 21
-587.06475
 31
0.0
  0
LINE
  8
1
  6
HIDDEN
 62
     2
  5
154
 10
79.772667
 20
-588.31475
 30
0.0
 11
85.772667
 21
-588.31475
 31
0.0
  0
LINE
  8
1
  6
CONTINUOUS
 62
     2
  5
155
 10
76.522667
 20
-551.706917
 30
0.0
 11
77.772667
 21
-551.706917
 31
0.0
  0
LINE
  8
1
  6
CONTINUOUS
 62
     2
  5
156
 10
85.772667
 20
-551.706917
 30
0.0
 11
87.022667
 21
-551.706917
 31
0.0
  0
LINE
  8
1
  6
CONTINUOUS
 62
     2
  5
157
 10
76.522667
 20
-553.706917
 30
0.0
 11
77.772667
 21
-553.706917
 31
0.0
  0
LINE
  8
1
  6
CONTINUOUS
 62
     2
  5
158
 10
85.772667
 20
-553.706917
 30
0.0
 11
87.022667
 21
-553.706917
 31
0.0
  0
LINE
  8
1
  6
CONTINUOUS
 62
     2
  5
159
 10
87.022667
 20
-551.706917
 30
0.0
 11
87.022667
 21
-553.706917
 31
0.0
  0
LINE
  8
1
  6
CONTINUOUS
 62
     2
  5
15A
 10
76.522667
 20
-551.706917
 30
0.0
 11
76.522667
 21
-553.706917
 31
0.0
  0
LINE
  8
1
  6
CONTINUOUS
 62
     7
  5
15B
 10
75.522667
 20
-552.706917
 30
0.0
 11
77.272667
 21
-552.706917
 31
0.0
  0
LINE
  8
1
  6
CONTINUOUS
 62
     7
  5
15C
 10
86.272667
 20
-552.706917
 30
0.0
 11
88.022667
 21
-552.706917
 31
0.0
  0
LINE
  8
1
  6
CONTINUOUS
 62
     2
  5
15D
 10
76.522667
 20
-586.68975
 30
0.0
 11
76.522667
 21
-588.68975
 31
0.0
  0
LINE
  8
1
  6
CONTINUOUS
 62
     2
  5
15E
 10
76.522667
 20
-586.68975
 30
0.0
 11
77.772667
 21
-586.68975
 31
0.0
  0
LINE
  8
1
  6
CONTINUOUS
 62
     2
  5
15F
 10
85.772667
 20
-586.68975
 30
0.0
 11
87.022667
 21
-586.68975
 31
0.0
  0
LINE
  8
1
  6
CONTINUOUS
 62
     2
  5
160
 10
76.522667
 20
-588.68975
 30
0.0
 11
77.772667
 21
-588.68975
 31
0.0
  0
LINE
  8
1
  6
CONTINUOUS
 62
     2
  5
161
 10
85.772667
 20
-588.68975
 30
0.0
 11
87.022667
 21
-588.68975
 31
0.0
  0
LINE
  8
1
  6
CONTINUOUS
 62
     2
  5
162
 10
87.022667
 20
-586.68975
 30
0.0
 11
87.022667
 21
-588.68975
 31
0.0
  0
LINE
  8
1
  6
CONTINUOUS
 62
     7
  5
163
 10
75.522667
 20
-587.68975
 30
0.0
 11
77.272667
 21
-587.68975
 31
0.0
  0
LINE
  8
1
  6
CONTINUOUS
 62
     7
  5
164
 10
86.272667
 20
-587.68975
 30
0.0
 11
88.022667
 21
-587.68975
 31
0.0
  0
LINE
  8
1
  6
CONTINUOUS
 62
     7
  5
165
 10
72.772667
 20
-570.198333
 30
0.0
 11
81.022667
 21
-570.198333
 31
0.0
  0
LINE
  8
1
  6
CONTINUOUS
 62
     7
  5
166
 10
84.522667
 20
-570.198333
 30
0.0
 11
90.772667
 21
-570.198333
 31
0.0
  0
LINE
  8
1
  6
CONTINUOUS
 62
     7
  5
167
 10
81.022667
 20
-570.198333
 30
0.0
 11
81.772667
 21
-570.198333
 31
0.0
  0
LINE
  8
1
  6
CONTINUOUS
 62
     7
  5
168
 10
82.272667
 20
-570.198333
 30
0.0
 11
83.272667
 21
-570.198333
 31
0.0
  0
LINE
  8
1
  6
CONTINUOUS
 62
     7
  5
169
 10
83.772667
 20
-570.198333
 30
0.0
 11
84.522667
 21
-570.198333
 31
0.0
  0
LINE
  8
1
  6
CONTINUOUS
 62
     7
  5
16A
 10
79.772667
 20
-541.206917
 30
0.0
 11
106.772667
 21
-541.206917
 31
0.0
  0
LINE
  8
1
  6
CONTINUOUS
 62
     7
  5
16B
 10
86.772667
 20
-549.706917
 30
0.0
 11
106.772667
 21
-549.706917
 31
0.0
  0
LINE
  8
1
  6
CONTINUOUS
 62
     7
  5
16C
 10
105.772667
 20
-536.206917
 30
0.0
 11
105.772667
 21
-541.206917
 31
0.0
  0
LINE
  8
1
  6
CONTINUOUS
 62
     7
  5
16D
 10
105.772667
 20
-549.706917
 30
0.0
 11
105.772667
 21
-554.706917
 31
0.0
  0
INSERT
  8
1
  6
CONTINUOUS
 62
     1
  5
16E
  2
LDR
 10
105.772667
 20
-541.206917
 30
0.0
 41
240.0
 42
240.0
 50
270.0
210
0.0
220
0.0
230
1.0
  0
INSERT
  8
1
  6
CONTINUOUS
 62
     1
  5
16F
  2
LDR
 10
105.772667
 20
-549.706917
 30
0.0
 41
240.0
 42
240.0
 50
90.0
210
0.0
220
0.0
230
1.0
  0
POLYLINE
  8
1
  6
CONTINUOUS
 62
     2
  5
170
 66
     1
 10
0.0
 20
0.0
 30
0.0
  0
VERTEX
  8
1
  6
CONTINUOUS
 62
     2
  5
171
 10
22.80825
 20
-678.18975
 30
0.0
  0
VERTEX
  8
1
  6
CONTINUOUS
 62
     2
  5
172
 10
-6.183167
 20
-707.181167
 30
0.0
  0
VERTEX
  8
1
  6
CONTINUOUS
 62
     2
  5
173
 10
22.80825
 20
-736.172583
 30
0.0
  0
VERTEX
  8
1
  6
CONTINUOUS
 62
     2
  5
174
 10
51.799667
 20
-707.181167
 30
0.0
  0
VERTEX
  8
1
  6
CONTINUOUS
 62
     2
  5
175
 10
22.80825
 20
-678.18975
 30
0.0
  0
SEQEND
  8
1
  6
CONTINUOUS
 62
     2
  5
176
  0
LINE
  8
1
  6
CONTINUOUS
 62
     7
  5
177
 10
22.80825
 20
-696.135167
 30
0.0
 11
22.80825
 21
-671.73575
 31
0.0
  0
LINE
  8
1
  6
CONTINUOUS
 62
     7
  5
178
 10
22.80825
 20
-718.227167
 30
0.0
 11
22.80825
 21
-740.172583
 31
0.0
  0
LINE
  8
1
  6
CONTINUOUS
 62
     7
  5
179
 10
22.80825
 20
-699.135167
 30
0.0
 11
22.80825
 21
-707.181167
 31
0.0
  0
LINE
  8
1
  6
CONTINUOUS
 62
     7
  5
17A
 10
22.80825
 20
-707.181167
 30
0.0
 11
22.80825
 21
-715.227167
 31
0.0
  0
LINE
  8
1
  6
DASHED
 62
     2
  5
17B
 10
9.609917
 20
-764.631
 30
0.0
 11
14.609917
 21
-764.631
 31
0.0
  0
LINE
  8
1
  6
CONTINUOUS
 62
     2
  5
17C
 10
9.609917
 20
-795.957083
 30
0.0
 11
9.609917
 21
-818.003083
 31
0.0
  0
LINE
  8
1
  6
CONTINUOUS
 62
     2
  5
17D
 10
10.859917
 20
-797.207083
 30
0.0
 11
10.859917
 21
-818.003083
 31
0.0
  0
LINE
  8
1
  6
CONTINUOUS
 62
     2
  5
17E
 10
13.359917
 20
-799.707083
 30
0.0
 11
13.359917
 21
-818.003083
 31
0.0
  0
LINE
  8
1
  6
CONTINUOUS
 62
     2
  5
17F
 10
14.609917
 20
-800.957083
 30
0.0
 11
14.609917
 21
-818.003083
 31
0.0
  0
LINE
  8
1
  6
CONTINUOUS
 62
     2
  5
180
 10
-6.183167
 20
-836.664
 30
0.0
 11
51.799667
 21
-836.664
 31
0.0
  0
LINE
  8
1
  6
CONTINUOUS
 62
     2
  5
181
 10
-6.183167
 20
-837.664
 30
0.0
 11
51.799667
 21
-837.664
 31
0.0
  0
LINE
  8
1
  6
CONTINUOUS
 62
     2
  5
182
 10
-6.183167
 20
-836.664
 30
0.0
 11
-6.183167
 21
-837.664
 31
0.0
  0
LINE
  8
1
  6
CONTINUOUS
 62
     2
  5
183
 10
51.799667
 20
-836.664
 30
0.0
 11
51.799667
 21
-837.664
 31
0.0
  0
LINE
  8
1
  6
CONTINUOUS
 62
     7
  5
184
 10
22.80825
 20
-833.289
 30
0.0
 11
22.80825
 21
-828.414
 31
0.0
  0
LINE
  8
1
  6
CONTINUOUS
 62
     7
  5
185
 10
22.80825
 20
-840.164
 30
0.0
 11
22.80825
 21
-835.289
 31
0.0
  0
LINE
  8
1
  6
CONTINUOUS
 62
     7
  5
186
 10
22.80825
 20
-834.789
 30
0.0
 11
22.80825
 21
-833.789
 31
0.0
  0
LINE
  8
1
  6
CONTINUOUS
 62
     7
  5
187
 10
46.216667
 20
-837.8595
 30
0.0
 11
46.216667
 21
-848.764167
 31
0.0
  0
LINE
  8
1
  6
CONTINUOUS
 62
     7
  5
188
 10
46.216667
 20
-848.764167
 30
0.0
 11
51.681583
 21
-848.764167
 31
0.0
  0
INSERT
  8
1
  6
CONTINUOUS
 62
     1
  5
189
  2
LDR
 10
46.216667
 20
-837.8595
 30
0.0
 41
240.0
 42
240.0
 50
90.0
210
0.0
220
0.0
230
1.0
  0
LINE
  8
1
  6
CONTINUOUS
 62
     2
  5
18A
 10
81.80825
 20
-751.172583
 30
0.0
 11
81.80825
 21
-809.155417
 31
0.0
  0
LINE
  8
1
  6
CONTINUOUS
 62
     2
  5
18B
 10
82.80825
 20
-751.172583
 30
0.0
 11
82.80825
 21
-809.155417
 31
0.0
  0
LINE
  8
1
  6
CONTINUOUS
 62
     2
  5
18C
 10
81.80825
 20
-751.172583
 30
0.0
 11
82.80825
 21
-751.172583
 31
0.0
  0
LINE
  8
1
  6
CONTINUOUS
 62
     2
  5
18D
 10
81.80825
 20
-809.155417
 30
0.0
 11
82.80825
 21
-809.155417
 31
0.0
  0
LINE
  8
1
  6
CONTINUOUS
 62
     2
  5
18E
 10
95.30825
 20
-765.076417
 30
0.0
 11
95.30825
 21
-817.155417
 31
0.0
  0
LINE
  8
1
  6
CONTINUOUS
 62
     2
  5
18F
 10
89.30825
 20
-765.076417
 30
0.0
 11
95.30825
 21
-765.076417
 31
0.0
  0
LINE
  8
1
  6
CONTINUOUS
 62
     2
  5
190
 10
90.55825
 20
-765.076417
 30
0.0
 11
90.55825
 21
-817.155417
 31
0.0
  0
LINE
  8
1
  6
DASHED
 62
     2
  5
191
 10
94.05825
 20
-765.076417
 30
0.0
 11
94.05825
 21
-817.155417
 31
0.0
  0
LINE
  8
1
  6
HIDDEN
 62
     2
  5
192
 10
89.30825
 20
-768.326417
 30
0.0
 11
95.30825
 21
-768.326417
 31
0.0
  0
LINE
  8
1
  6
HIDDEN
 62
     2
  5
193
 10
89.30825
 20
-769.326417
 30
0.0
 11
95.30825
 21
-769.326417
 31
0.0
  0
LINE
  8
1
  6
HIDDEN
 62
     2
  5
194
 10
89.30825
 20
-791.110833
 30
0.0
 11
95.30825
 21
-791.110833
 31
0.0
  0
LINE
  8
1
  6
HIDDEN
 62
     2
  5
195
 10
89.30825
 20
-792.360833
 30
0.0
 11
95.30825
 21
-792.360833
 31
0.0
  0
LINE
  8
1
  6
CONTINUOUS
 62
     2
  5
196
 10
95.30825
 20
-767.826417
 30
0.0
 11
96.55825
 21
-767.826417
 31
0.0
  0
LINE
  8
1
  6
CONTINUOUS
 62
     2
  5
197
 10
95.30825
 20
-769.826417
 30
0.0
 11
96.55825
 21
-769.826417
 31
0.0
  0
LINE
  8
1
  6
CONTINUOUS
 62
     2
  5
198
 10
96.55825
 20
-767.826417
 30
0.0
 11
96.55825
 21
-769.826417
 31
0.0
  0
LINE
  8
1
  6
CONTINUOUS
 62
     2
  5
199
 10
95.30825
 20
-790.735833
 30
0.0
 11
96.55825
 21
-790.735833
 31
0.0
  0
LINE
  8
1
  6
CONTINUOUS
 62
     2
  5
19A
 10
95.30825
 20
-792.735833
 30
0.0
 11
96.55825
 21
-792.735833
 31
0.0
  0
LINE
  8
1
  6
CONTINUOUS
 62
     2
  5
19B
 10
96.55825
 20
-790.735833
 30
0.0
 11
96.55825
 21
-792.735833
 31
0.0
  0
LINE
  8
1
  6
CONTINUOUS
 62
     7
  5
19C
 10
72.756083
 20
-774.917167
 30
0.0
 11
81.80825
 21
-774.917167
 31
0.0
  0
LINE
  8
1
  6
CONTINUOUS
 62
     7
  5
19D
 10
22.80825
 20
-696.635167
 30
0.0
 11
22.80825
 21
-698.635167
 31
0.0
  0
LINE
  8
1
  6
CONTINUOUS
 62
     7
  5
19E
 10
22.80825
 20
-715.727167
 30
0.0
 11
22.80825
 21
-717.727167
 31
0.0
  0
CIRCLE
  8
1
  6
CONTINUOUS
 62
     2
  5
19F
 10
13.26225
 20
-697.635167
 30
0.0
 40
0.75
210
0.0
220
0.0
230
1.0
  0
LINE
  8
1
  6
CONTINUOUS
 62
     7
  5
1A0
 10
12.51225
 20
-697.635167
 30
0.0
 11
14.01225
 21
-697.635167
 31
0.0
  0
LINE
  8
1
  6
CONTINUOUS
 62
     7
  5
1A1
 10
13.26225
 20
-696.885167
 30
0.0
 11
13.26225
 21
-698.385167
 31
0.0
  0
LINE
  8
1
  6
CONTINUOUS
 62
     7
  5
1A2
 10
13.26225
 20
-699.385167
 30
0.0
 11
13.26225
 21
-704.135167
 31
0.0
  0
LINE
  8
1
  6
CONTINUOUS
 62
     7
  5
1A3
 10
13.26225
 20
-671.73575
 30
0.0
 11
13.26225
 21
-695.885167
 31
0.0
  0
LINE
  8
1
  6
CONTINUOUS
 62
     7
  5
1A4
 10
11.51225
 20
-697.635167
 30
0.0
 11
6.76225
 21
-697.635167
 31
0.0
  0
LINE
  8
1
  6
CONTINUOUS
 62
     7
  5
1A5
 10
19.76225
 20
-697.635167
 30
0.0
 11
15.01225
 21
-697.635167
 31
0.0
  0
CIRCLE
  8
1
  6
CONTINUOUS
 62
     2
  5
1A6
 10
32.35425
 20
-697.635167
 30
0.0
 40
0.75
210
0.0
220
0.0
230
1.0
  0
LINE
  8
1
  6
CONTINUOUS
 62
     7
  5
1A7
 10
31.60425
 20
-697.635167
 30
0.0
 11
33.10425
 21
-697.635167
 31
0.0
  0
LINE
  8
1
  6
CONTINUOUS
 62
     7
  5
1A8
 10
32.35425
 20
-696.885167
 30
0.0
 11
32.35425
 21
-698.385167
 31
0.0
  0
LINE
  8
1
  6
CONTINUOUS
 62
     7
  5
1A9
 10
32.35425
 20
-699.385167
 30
0.0
 11
32.35425
 21
-704.135167
 31
0.0
  0
LINE
  8
1
  6
CONTINUOUS
 62
     7
  5
1AA
 10
32.35425
 20
-671.73575
 30
0.0
 11
32.35425
 21
-695.885167
 31
0.0
  0
LINE
  8
1
  6
CONTINUOUS
 62
     7
  5
1AB
 10
30.60425
 20
-697.635167
 30
0.0
 11
25.85425
 21
-697.635167
 31
0.0
  0
LINE
  8
1
  6
CONTINUOUS
 62
     7
  5
1AC
 10
59.253667
 20
-697.635167
 30
0.0
 11
34.10425
 21
-697.635167
 31
0.0
  0
CIRCLE
  8
1
  6
CONTINUOUS
 62
     2
  5
1AD
 10
32.35425
 20
-716.727167
 30
0.0
 40
0.75
210
0.0
220
0.0
230
1.0
  0
LINE
  8
1
  6
CONTINUOUS
 62
     7
  5
1AE
 10
31.60425
 20
-716.727167
 30
0.0
 11
33.10425
 21
-716.727167
 31
0.0
  0
LINE
  8
1
  6
CONTINUOUS
 62
     7
  5
1AF
 10
32.35425
 20
-715.977167
 30
0.0
 11
32.35425
 21
-717.477167
 31
0.0
  0
LINE
  8
1
  6
CONTINUOUS
 62
     7
  5
1B0
 10
32.35425
 20
-718.477167
 30
0.0
 11
32.35425
 21
-723.227167
 31
0.0
  0
LINE
  8
1
  6
CONTINUOUS
 62
     7
  5
1B1
 10
32.35425
 20
-710.227167
 30
0.0
 11
32.35425
 21
-714.977167
 31
0.0
  0
LINE
  8
1
  6
CONTINUOUS
 62
     7
  5
1B2
 10
30.60425
 20
-716.727167
 30
0.0
 11
25.85425
 21
-716.727167
 31
0.0
  0
LINE
  8
1
  6
CONTINUOUS
 62
     7
  5
1B3
 10
59.253667
 20
-716.727167
 30
0.0
 11
34.10425
 21
-716.727167
 31
0.0
  0
CIRCLE
  8
1
  6
CONTINUOUS
 62
     2
  5
1B4
 10
13.26225
 20
-716.727083
 30
0.0
 40
0.75
210
0.0
220
0.0
230
1.0
  0
LINE
  8
1
  6
CONTINUOUS
 62
     7
  5
1B5
 10
12.51225
 20
-716.727083
 30
0.0
 11
14.01225
 21
-716.727083
 31
0.0
  0
LINE
  8
1
  6
CONTINUOUS
 62
     7
  5
1B6
 10
13.26225
 20
-715.977083
 30
0.0
 11
13.26225
 21
-717.477083
 31
0.0
  0
LINE
  8
1
  6
CONTINUOUS
 62
     7
  5
1B7
 10
13.26225
 20
-718.477083
 30
0.0
 11
13.26225
 21
-723.227083
 31
0.0
  0
LINE
  8
1
  6
CONTINUOUS
 62
     7
  5
1B8
 10
13.26225
 20
-710.227083
 30
0.0
 11
13.26225
 21
-714.977083
 31
0.0
  0
LINE
  8
1
  6
CONTINUOUS
 62
     7
  5
1B9
 10
11.51225
 20
-716.727083
 30
0.0
 11
6.76225
 21
-716.727083
 31
0.0
  0
LINE
  8
1
  6
CONTINUOUS
 62
     7
  5
1BA
 10
19.76225
 20
-716.727083
 30
0.0
 11
15.01225
 21
-716.727083
 31
0.0
  0
POLYLINE
  8
1
  6
CONTINUOUS
 62
     2
  5
1BB
 66
     1
 10
0.0
 20
0.0
 30
0.0
  0
VERTEX
  8
1
  6
CONTINUOUS
 62
     2
  5
1BC
 10
22.80825
 20
-751.172583
 30
0.0
  0
VERTEX
  8
1
  6
CONTINUOUS
 62
     2
  5
1BD
 10
-6.183167
 20
-780.164
 30
0.0
  0
VERTEX
  8
1
  6
CONTINUOUS
 62
     2
  5
1BE
 10
22.80825
 20
-809.155417
 30
0.0
  0
VERTEX
  8
1
  6
CONTINUOUS
 62
     2
  5
1BF
 10
51.799667
 20
-780.164
 30
0.0
  0
VERTEX
  8
1
  6
CONTINUOUS
 62
     2
  5
1C0
 10
22.80825
 20
-751.172583
 30
0.0
  0
SEQEND
  8
1
  6
CONTINUOUS
 62
     2
  5
1C1
  0
LINE
  8
1
  6
CONTINUOUS
 62
     7
  5
1C2
 10
22.80825
 20
-769.118
 30
0.0
 11
22.80825
 21
-746.172583
 31
0.0
  0
LINE
  8
1
  6
CONTINUOUS
 62
     7
  5
1C3
 10
22.80825
 20
-791.21
 30
0.0
 11
22.80825
 21
-813.155417
 31
0.0
  0
LINE
  8
1
  6
CONTINUOUS
 62
     7
  5
1C4
 10
22.80825
 20
-772.118
 30
0.0
 11
22.80825
 21
-780.164
 31
0.0
  0
LINE
  8
1
  6
CONTINUOUS
 62
     7
  5
1C5
 10
22.80825
 20
-780.164
 30
0.0
 11
22.80825
 21
-788.21
 31
0.0
  0
LINE
  8
1
  6
CONTINUOUS
 62
     7
  5
1C6
 10
22.80825
 20
-769.618
 30
0.0
 11
22.80825
 21
-771.618
 31
0.0
  0
LINE
  8
1
  6
CONTINUOUS
 62
     7
  5
1C7
 10
22.80825
 20
-788.71
 30
0.0
 11
22.80825
 21
-790.71
 31
0.0
  0
CIRCLE
  8
1
  6
HIDDEN
 62
     2
  5
1C8
 10
12.109917
 20
-768.826417
 30
0.0
 40
0.75
210
0.0
220
0.0
230
1.0
  0
CIRCLE
  8
1
  6
HIDDEN
 62
     2
  5
1C9
 10
33.5065
 20
-768.826417
 30
0.0
 40
0.75
210
0.0
220
0.0
230
1.0
  0
LINE
  8
1
  6
DASHED
 62
     2
  5
1CA
 10
31.0065
 20
-764.631
 30
0.0
 11
36.0065
 21
-764.631
 31
0.0
  0
LINE
  8
1
  6
DASHED
 62
     2
  5
1CB
 10
31.0065
 20
-764.631
 30
0.0
 11
31.0065
 21
-800.957167
 31
0.0
  0
LINE
  8
1
  6
DASHED
 62
     2
  5
1CC
 10
36.0065
 20
-764.631
 30
0.0
 11
36.0065
 21
-795.957167
 31
0.0
  0
LINE
  8
1
  6
DASHED
 62
     2
  5
1CD
 10
34.7565
 20
-764.631
 30
0.0
 11
34.7565
 21
-797.207167
 31
0.0
  0
LINE
  8
1
  6
CONTINUOUS
 62
     2
  5
1CE
 10
31.0065
 20
-800.957167
 30
0.0
 11
31.0065
 21
-818.003083
 31
0.0
  0
LINE
  8
1
  6
CONTINUOUS
 62
     2
  5
1CF
 10
32.2565
 20
-799.707167
 30
0.0
 11
32.2565
 21
-818.003083
 31
0.0
  0
LINE
  8
1
  6
CONTINUOUS
 62
     2
  5
1D0
 10
34.7565
 20
-797.207167
 30
0.0
 11
34.7565
 21
-818.003083
 31
0.0
  0
LINE
  8
1
  6
CONTINUOUS
 62
     2
  5
1D1
 10
36.0065
 20
-795.957167
 30
0.0
 11
36.0065
 21
-818.003083
 31
0.0
  0
CIRCLE
  8
1
  6
CONTINUOUS
 62
     2
  5
1D2
 10
15.609917
 20
-768.826417
 30
0.0
 40
0.75
210
0.0
220
0.0
230
1.0
  0
CIRCLE
  8
1
  6
CONTINUOUS
 62
     2
  5
1D3
 10
30.0065
 20
-768.826417
 30
0.0
 40
0.75
210
0.0
220
0.0
230
1.0
  0
LINE
  8
1
  6
DASHED
 62
     2
  5
1D4
 10
11.609917
 20
-770.076417
 30
0.0
 11
37.701917
 21
-770.076417
 31
0.0
  0
LINE
  8
1
  6
DASHED
 62
     2
  5
1D5
 10
9.609917
 20
-766.326417
 30
0.0
 11
9.609917
 21
-795.957083
 31
0.0
  0
LINE
  8
1
  6
DASHED
 62
     2
  5
1D6
 10
10.859917
 20
-764.631
 30
0.0
 11
10.859917
 21
-765.5505
 31
0.0
  0
LINE
  8
1
  6
DASHED
 62
     2
  5
1D7
 10
10.859917
 20
-765.5505
 30
0.0
 11
10.859917
 21
-797.207083
 31
0.0
  0
LINE
  8
1
  6
DASHED
 62
     2
  5
1D8
 10
13.359917
 20
-764.631
 30
0.0
 11
13.359917
 21
-765.5505
 31
0.0
  0
LINE
  8
1
  6
DASHED
 62
     2
  5
1D9
 10
13.359917
 20
-765.5505
 30
0.0
 11
13.359917
 21
-799.707083
 31
0.0
  0
LINE
  8
1
  6
DASHED
 62
     2
  5
1DA
 10
14.609917
 20
-764.631
 30
0.0
 11
14.609917
 21
-765.5505
 31
0.0
  0
LINE
  8
1
  6
DASHED
 62
     2
  5
1DB
 10
14.609917
 20
-765.5505
 30
0.0
 11
14.609917
 21
-800.957083
 31
0.0
  0
LINE
  8
1
  6
DASHED
 62
     2
  5
1DC
 10
7.9145
 20
-771.326417
 30
0.0
 11
7.9145
 21
-766.326417
 31
0.0
  0
LINE
  8
1
  6
DASHED
 62
     2
  5
1DD
 10
7.9145
 20
-771.326417
 30
0.0
 11
37.701917
 21
-771.326417
 31
0.0
  0
LINE
  8
1
  6
DASHED
 62
     2
  5
1DE
 10
7.9145
 20
-770.076417
 30
0.0
 11
11.609917
 21
-770.076417
 31
0.0
  0
LINE
  8
1
  6
DASHED
 62
     2
  5
1DF
 10
7.9145
 20
-767.576417
 30
0.0
 11
11.609917
 21
-767.576417
 31
0.0
  0
LINE
  8
1
  6
DASHED
 62
     2
  5
1E0
 10
37.701917
 20
-771.326417
 30
0.0
 11
37.701917
 21
-766.326417
 31
0.0
  0
LINE
  8
1
  6
DASHED
 62
     2
  5
1E1
 10
11.609917
 20
-767.576417
 30
0.0
 11
30.2565
 21
-767.576417
 31
0.0
  0
LINE
  8
1
  6
DASHED
 62
     2
  5
1E2
 10
30.2565
 20
-767.576417
 30
0.0
 11
32.7565
 21
-767.576417
 31
0.0
  0
LINE
  8
1
  6
DASHED
 62
     2
  5
1E3
 10
32.7565
 20
-767.576417
 30
0.0
 11
37.701917
 21
-767.576417
 31
0.0
  0
LINE
  8
1
  6
DASHED
 62
     2
  5
1E4
 10
32.2565
 20
-768.0505
 30
0.0
 11
32.2565
 21
-799.707167
 31
0.0
  0
LINE
  8
1
  6
DASHED
 62
     2
  5
1E5
 10
32.2565
 20
-765.5505
 30
0.0
 11
32.2565
 21
-768.0505
 31
0.0
  0
LINE
  8
1
  6
DASHED
 62
     2
  5
1E6
 10
32.2565
 20
-764.631
 30
0.0
 11
32.2565
 21
-765.5505
 31
0.0
  0
LINE
  8
1
  6
DASHED
 62
     2
  5
1E7
 10
7.9145
 20
-794.235833
 30
0.0
 11
7.9145
 21
-789.235833
 31
0.0
  0
CIRCLE
  8
1
  6
HIDDEN
 62
     2
  5
1E8
 10
12.109917
 20
-791.735833
 30
0.0
 40
0.75
210
0.0
220
0.0
230
1.0
  0
CIRCLE
  8
1
  6
HIDDEN
 62
     2
  5
1E9
 10
33.5065
 20
-791.735833
 30
0.0
 40
0.75
210
0.0
220
0.0
230
1.0
  0
CIRCLE
  8
1
  6
CONTINUOUS
 62
     2
  5
1EA
 10
15.609917
 20
-791.735833
 30
0.0
 40
0.75
210
0.0
220
0.0
230
1.0
  0
CIRCLE
  8
1
  6
CONTINUOUS
 62
     2
  5
1EB
 10
30.0065
 20
-791.735833
 30
0.0
 40
0.75
210
0.0
220
0.0
230
1.0
  0
LINE
  8
1
  6
DASHED
 62
     2
  5
1EC
 10
11.609917
 20
-792.985833
 30
0.0
 11
37.701917
 21
-792.985833
 31
0.0
  0
LINE
  8
1
  6
DASHED
 62
     2
  5
1ED
 10
7.9145
 20
-794.235833
 30
0.0
 11
37.701917
 21
-794.235833
 31
0.0
  0
LINE
  8
1
  6
DASHED
 62
     2
  5
1EE
 10
7.9145
 20
-792.985833
 30
0.0
 11
11.609917
 21
-792.985833
 31
0.0
  0
LINE
  8
1
  6
DASHED
 62
     2
  5
1EF
 10
7.9145
 20
-790.485833
 30
0.0
 11
11.609917
 21
-790.485833
 31
0.0
  0
LINE
  8
1
  6
DASHED
 62
     2
  5
1F0
 10
7.9145
 20
-789.235833
 30
0.0
 11
37.701917
 21
-789.235833
 31
0.0
  0
LINE
  8
1
  6
DASHED
 62
     2
  5
1F1
 10
37.701917
 20
-794.235833
 30
0.0
 11
37.701917
 21
-789.235833
 31
0.0
  0
LINE
  8
1
  6
DASHED
 62
     2
  5
1F2
 10
11.609917
 20
-790.485833
 30
0.0
 11
30.2565
 21
-790.485833
 31
0.0
  0
LINE
  8
1
  6
DASHED
 62
     2
  5
1F3
 10
30.2565
 20
-790.485833
 30
0.0
 11
32.7565
 21
-790.485833
 31
0.0
  0
LINE
  8
1
  6
DASHED
 62
     2
  5
1F4
 10
32.7565
 20
-790.485833
 30
0.0
 11
37.701917
 21
-790.485833
 31
0.0
  0
LINE
  8
1
  6
DASHED
 62
     2
  5
1F5
 10
7.9145
 20
-766.326417
 30
0.0
 11
11.609917
 21
-766.326417
 31
0.0
  0
LINE
  8
1
  6
DASHED
 62
     2
  5
1F6
 10
11.609917
 20
-766.326417
 30
0.0
 11
37.701917
 21
-766.326417
 31
0.0
  0
LINE
  8
1
  6
DASHED
 62
     2
  5
1F7
 10
9.609917
 20
-766.326417
 30
0.0
 11
9.609917
 21
-764.631
 31
0.0
  0
POINT
  8
1
  6
CONTINUOUS
 62
     7
  5
1F8
 10
22.80825
 20
-703.158167
 30
0.0
  0
POINT
  8
1
  6
CONTINUOUS
 62
     7
  5
1F9
 10
22.80825
 20
-711.204167
 30
0.0
  0
LINE
  8
1
  6
CONTINUOUS
 62
     7
  5
1FA
 10
14.76225
 20
-707.181167
 30
0.0
 11
22.80825
 21
-707.181167
 31
0.0
  0
LINE
  8
1
  6
CONTINUOUS
 62
     7
  5
1FB
 10
11.76225
 20
-707.181167
 30
0.0
 11
-11.69175
 21
-707.181167
 31
0.0
  0
LINE
  8
1
  6
CONTINUOUS
 62
     7
  5
1FC
 10
33.85425
 20
-707.181167
 30
0.0
 11
59.253667
 21
-707.181167
 31
0.0
  0
LINE
  8
1
  6
CONTINUOUS
 62
     7
  5
1FD
 10
22.80825
 20
-707.181167
 30
0.0
 11
30.85425
 21
-707.181167
 31
0.0
  0
LINE
  8
1
  6
CONTINUOUS
 62
     7
  5
1FE
 10
12.26225
 20
-707.181167
 30
0.0
 11
14.26225
 21
-707.181167
 31
0.0
  0
LINE
  8
1
  6
CONTINUOUS
 62
     7
  5
1FF
 10
31.35425
 20
-707.181167
 30
0.0
 11
33.35425
 21
-707.181167
 31
0.0
  0
LINE
  8
1
  6
CONTINUOUS
 62
     7
  5
200
 10
13.26225
 20
-672.73575
 30
0.0
 11
22.80825
 21
-672.73575
 31
0.0
  0
LINE
  8
1
  6
CONTINUOUS
 62
     7
  5
201
 10
22.80825
 20
-672.73575
 30
0.0
 11
32.35425
 21
-672.73575
 31
0.0
  0
LINE
  8
1
  6
CONTINUOUS
 62
     7
  5
202
 10
58.253667
 20
-697.635167
 30
0.0
 11
58.253667
 21
-707.181167
 31
0.0
  0
LINE
  8
1
  6
CONTINUOUS
 62
     7
  5
203
 10
58.253667
 20
-707.181167
 30
0.0
 11
58.253667
 21
-716.727167
 31
0.0
  0
INSERT
  8
1
  6
CONTINUOUS
 62
     1
  5
204
  2
LDR
 10
13.26225
 20
-672.73575
 30
0.0
 41
240.0
 42
240.0
 50
180.0
210
0.0
220
0.0
230
1.0
  0
INSERT
  8
1
  6
CONTINUOUS
 62
     1
  5
205
  2
LDR
 10
22.80825
 20
-672.73575
 30
0.0
 41
240.0
 42
240.0
210
0.0
220
0.0
230
1.0
  0
INSERT
  8
1
  6
CONTINUOUS
 62
     1
  5
206
  2
LDR
 10
22.80825
 20
-672.73575
 30
0.0
 41
240.0
 42
240.0
 50
180.0
210
0.0
220
0.0
230
1.0
  0
INSERT
  8
1
  6
CONTINUOUS
 62
     1
  5
207
  2
LDR
 10
32.35425
 20
-672.73575
 30
0.0
 41
240.0
 42
240.0
210
0.0
220
0.0
230
1.0
  0
INSERT
  8
1
  6
CONTINUOUS
 62
     1
  5
208
  2
LDR
 10
58.253667
 20
-697.635167
 30
0.0
 41
240.0
 42
240.0
 50
90.0
210
0.0
220
0.0
230
1.0
  0
INSERT
  8
1
  6
CONTINUOUS
 62
     1
  5
209
  2
LDR
 10
58.253667
 20
-707.181167
 30
0.0
 41
240.0
 42
240.0
 50
270.0
210
0.0
220
0.0
230
1.0
  0
INSERT
  8
1
  6
CONTINUOUS
 62
     1
  5
20A
  2
LDR
 10
58.253667
 20
-707.181167
 30
0.0
 41
240.0
 42
240.0
 50
90.0
210
0.0
220
0.0
230
1.0
  0
INSERT
  8
1
  6
CONTINUOUS
 62
     1
  5
20B
  2
LDR
 10
58.253667
 20
-716.727167
 30
0.0
 41
240.0
 42
240.0
 50
270.0
210
0.0
220
0.0
230
1.0
  0
LINE
  8
1
  6
CONTINUOUS
 62
     7
  5
20C
 10
14.76225
 20
-780.164
 30
0.0
 11
22.80825
 21
-780.164
 31
0.0
  0
LINE
  8
1
  6
CONTINUOUS
 62
     7
  5
20D
 10
11.76225
 20
-780.164
 30
0.0
 11
-11.69175
 21
-780.164
 31
0.0
  0
LINE
  8
1
  6
CONTINUOUS
 62
     7
  5
20E
 10
33.85425
 20
-780.164
 30
0.0
 11
59.253667
 21
-780.164
 31
0.0
  0
LINE
  8
1
  6
CONTINUOUS
 62
     7
  5
20F
 10
22.80825
 20
-780.164
 30
0.0
 11
30.85425
 21
-780.164
 31
0.0
  0
LINE
  8
1
  6
CONTINUOUS
 62
     7
  5
210
 10
12.26225
 20
-780.164
 30
0.0
 11
14.26225
 21
-780.164
 31
0.0
  0
LINE
  8
1
  6
CONTINUOUS
 62
     7
  5
211
 10
31.35425
 20
-780.164
 30
0.0
 11
33.35425
 21
-780.164
 31
0.0
  0
LINE
  8
1
  6
CONTINUOUS
 62
     7
  5
212
 10
6.654417
 20
-766.326417
 30
0.0
 11
-12.0855
 21
-766.326417
 31
0.0
  0
LINE
  8
1
  6
CONTINUOUS
 62
     7
  5
213
 10
9.609917
 20
-764.631
 30
0.0
 11
-12.0855
 21
-764.631
 31
0.0
  0
LINE
  8
1
  6
CONTINUOUS
 62
     7
  5
214
 10
-11.0855
 20
-764.631
 30
0.0
 11
-11.0855
 21
-759.631
 31
0.0
  0
LINE
  8
1
  6
CONTINUOUS
 62
     7
  5
215
 10
-11.0855
 20
-766.326417
 30
0.0
 11
-11.0855
 21
-771.326417
 31
0.0
  0
INSERT
  8
1
  6
CONTINUOUS
 62
     1
  5
216
  2
LDR
 10
-11.0855
 20
-764.631
 30
0.0
 41
240.0
 42
240.0
 50
270.0
210
0.0
220
0.0
230
1.0
  0
INSERT
  8
1
  6
CONTINUOUS
 62
     1
  5
217
  2
LDR
 10
-11.0855
 20
-764.631
 30
0.0
 41
240.0
 42
240.0
 50
270.0
210
0.0
220
0.0
230
1.0
  0
INSERT
  8
1
  6
CONTINUOUS
 62
     1
  5
218
  2
LDR
 10
-11.0855
 20
-766.326417
 30
0.0
 41
240.0
 42
240.0
 50
90.0
210
0.0
220
0.0
230
1.0
  0
LINE
  8
1
  6
CONTINUOUS
 62
     2
  5
219
 10
89.30825
 20
-765.576417
 30
0.0
 11
84.05825
 21
-765.576417
 31
0.0
  0
LINE
  8
1
  6
CONTINUOUS
 62
     2
  5
21A
 10
86.30825
 20
-766.826417
 30
0.0
 11
82.80825
 21
-766.826417
 31
0.0
  0
LINE
  8
1
  6
CONTINUOUS
 62
     2
  5
21B
 10
86.30825
 20
-766.826417
 30
0.0
 11
86.30825
 21
-771.826417
 31
0.0
  0
LINE
  8
1
  6
CONTINUOUS
 62
     2
  5
21C
 10
86.30825
 20
-771.826417
 30
0.0
 11
89.30825
 21
-771.826417
 31
0.0
  0
LINE
  8
1
  6
CONTINUOUS
 62
     2
  5
21D
 10
84.05825
 20
-765.576417
 30
0.0
 11
84.05825
 21
-762.576417
 31
0.0
  0
LINE
  8
1
  6
CONTINUOUS
 62
     2
  5
21E
 10
84.05825
 20
-762.576417
 30
0.0
 11
82.80825
 21
-762.576417
 31
0.0
  0
LINE
  8
1
  6
CONTINUOUS
 62
     2
  5
21F
 10
87.18325
 20
-766.826417
 30
0.0
 11
87.18325
 21
-770.826417
 31
0.0
  0
LINE
  8
1
  6
CONTINUOUS
 62
     2
  5
220
 10
88.43325
 20
-766.826417
 30
0.0
 11
88.43325
 21
-770.826417
 31
0.0
  0
LINE
  8
1
  6
CONTINUOUS
 62
     2
  5
221
 10
87.18325
 20
-770.826417
 30
0.0
 11
88.43325
 21
-770.826417
 31
0.0
  0
LINE
  8
1
  6
CONTINUOUS
 62
     2
  5
222
 10
88.43325
 20
-766.826417
 30
0.0
 11
87.18325
 21
-766.826417
 31
0.0
  0
LINE
  8
1
  6
CONTINUOUS
 62
     2
  5
223
 10
89.30825
 20
-765.076417
 30
0.0
 11
89.30825
 21
-768.201417
 31
0.0
  0
LINE
  8
1
  6
CONTINUOUS
 62
     2
  5
224
 10
89.30825
 20
-768.201417
 30
0.0
 11
89.30825
 21
-769.451417
 31
0.0
  0
LINE
  8
1
  6
CONTINUOUS
 62
     2
  5
225
 10
95.30825
 20
-768.326417
 30
0.0
 11
96.55825
 21
-768.326417
 31
0.0
  0
LINE
  8
1
  6
CONTINUOUS
 62
     2
  5
226
 10
95.30825
 20
-769.326417
 30
0.0
 11
96.55825
 21
-769.326417
 31
0.0
  0
LINE
  8
1
  6
CONTINUOUS
 62
     2
  5
227
 10
96.55825
 20
-768.501417
 30
0.0
 11
97.05825
 21
-768.501417
 31
0.0
  0
LINE
  8
1
  6
CONTINUOUS
 62
     2
  5
228
 10
96.55825
 20
-769.151417
 30
0.0
 11
97.05825
 21
-769.151417
 31
0.0
  0
LINE
  8
1
  6
CONTINUOUS
 62
     2
  5
229
 10
97.05825
 20
-768.501417
 30
0.0
 11
97.05825
 21
-769.151417
 31
0.0
  0
LINE
  8
1
  6
CONTINUOUS
 62
     2
  5
22A
 10
82.30825
 20
-763.576417
 30
0.0
 11
83.55825
 21
-763.576417
 31
0.0
  0
LINE
  8
1
  6
CONTINUOUS
 62
     2
  5
22B
 10
82.30825
 20
-764.576417
 30
0.0
 11
83.55825
 21
-764.576417
 31
0.0
  0
LINE
  8
1
  6
CONTINUOUS
 62
     2
  5
22C
 10
84.05825
 20
-763.326417
 30
0.0
 11
84.80825
 21
-763.326417
 31
0.0
  0
LINE
  8
1
  6
CONTINUOUS
 62
     2
  5
22D
 10
84.05825
 20
-764.826417
 30
0.0
 11
84.80825
 21
-764.826417
 31
0.0
  0
LINE
  8
1
  6
CONTINUOUS
 62
     2
  5
22E
 10
84.80825
 20
-763.326417
 30
0.0
 11
84.80825
 21
-764.826417
 31
0.0
  0
LINE
  8
1
  6
CONTINUOUS
 62
     2
  5
22F
 10
84.80825
 20
-763.701417
 30
0.0
 11
85.30825
 21
-763.701417
 31
0.0
  0
LINE
  8
1
  6
CONTINUOUS
 62
     2
  5
230
 10
84.80825
 20
-764.451417
 30
0.0
 11
85.30825
 21
-764.451417
 31
0.0
  0
LINE
  8
1
  6
CONTINUOUS
 62
     2
  5
231
 10
85.30825
 20
-763.701417
 30
0.0
 11
85.30825
 21
-764.451417
 31
0.0
  0
ARC
  8
1
  6
CONTINUOUS
 62
     2
  5
232
 10
81.962138
 20
-764.076417
 30
0.0
 40
0.765625
 50
101.595244
 51
258.404753
210
0.0
220
0.0
230
1.0
  0
LINE
  8
1
  6
CONTINUOUS
 62
     2
  5
233
 10
89.30825
 20
-769.451417
 30
0.0
 11
89.30825
 21
-791.110833
 31
0.0
  0
LINE
  8
1
  6
CONTINUOUS
 62
     2
  5
234
 10
89.30825
 20
-791.110833
 30
0.0
 11
89.30825
 21
-792.360833
 31
0.0
  0
LINE
  8
1
  6
CONTINUOUS
 62
     2
  5
235
 10
89.30825
 20
-792.360833
 30
0.0
 11
89.30825
 21
-817.155417
 31
0.0
  0
LINE
  8
1
  6
CONTINUOUS
 62
     2
  5
236
 10
89.30825
 20
-788.485833
 30
0.0
 11
84.05825
 21
-788.485833
 31
0.0
  0
LINE
  8
1
  6
CONTINUOUS
 62
     2
  5
237
 10
86.30825
 20
-789.735833
 30
0.0
 11
82.80825
 21
-789.735833
 31
0.0
  0
LINE
  8
1
  6
CONTINUOUS
 62
     2
  5
238
 10
86.30825
 20
-789.735833
 30
0.0
 11
86.30825
 21
-794.735833
 31
0.0
  0
LINE
  8
1
  6
CONTINUOUS
 62
     2
  5
239
 10
86.30825
 20
-794.735833
 30
0.0
 11
89.30825
 21
-794.735833
 31
0.0
  0
LINE
  8
1
  6
CONTINUOUS
 62
     2
  5
23A
 10
84.05825
 20
-788.485833
 30
0.0
 11
84.05825
 21
-785.485833
 31
0.0
  0
LINE
  8
1
  6
CONTINUOUS
 62
     2
  5
23B
 10
84.05825
 20
-785.485833
 30
0.0
 11
82.80825
 21
-785.485833
 31
0.0
  0
LINE
  8
1
  6
CONTINUOUS
 62
     2
  5
23C
 10
87.18325
 20
-789.735833
 30
0.0
 11
87.18325
 21
-793.735833
 31
0.0
  0
LINE
  8
1
  6
CONTINUOUS
 62
     2
  5
23D
 10
88.43325
 20
-789.735833
 30
0.0
 11
88.43325
 21
-793.735833
 31
0.0
  0
LINE
  8
1
  6
CONTINUOUS
 62
     2
  5
23E
 10
87.18325
 20
-793.735833
 30
0.0
 11
88.43325
 21
-793.735833
 31
0.0
  0
LINE
  8
1
  6
CONTINUOUS
 62
     2
  5
23F
 10
88.43325
 20
-789.735833
 30
0.0
 11
87.18325
 21
-789.735833
 31
0.0
  0
LINE
  8
1
  6
CONTINUOUS
 62
     2
  5
240
 10
82.30825
 20
-786.485833
 30
0.0
 11
83.55825
 21
-786.485833
 31
0.0
  0
LINE
  8
1
  6
CONTINUOUS
 62
     2
  5
241
 10
82.30825
 20
-787.485833
 30
0.0
 11
83.55825
 21
-787.485833
 31
0.0
  0
LINE
  8
1
  6
CONTINUOUS
 62
     2
  5
242
 10
84.05825
 20
-786.235833
 30
0.0
 11
84.80825
 21
-786.235833
 31
0.0
  0
LINE
  8
1
  6
CONTINUOUS
 62
     2
  5
243
 10
84.05825
 20
-787.735833
 30
0.0
 11
84.80825
 21
-787.735833
 31
0.0
  0
LINE
  8
1
  6
CONTINUOUS
 62
     2
  5
244
 10
84.80825
 20
-786.235833
 30
0.0
 11
84.80825
 21
-787.735833
 31
0.0
  0
LINE
  8
1
  6
CONTINUOUS
 62
     2
  5
245
 10
84.80825
 20
-786.610833
 30
0.0
 11
85.30825
 21
-786.610833
 31
0.0
  0
LINE
  8
1
  6
CONTINUOUS
 62
     2
  5
246
 10
84.80825
 20
-787.360833
 30
0.0
 11
85.30825
 21
-787.360833
 31
0.0
  0
LINE
  8
1
  6
CONTINUOUS
 62
     2
  5
247
 10
85.30825
 20
-786.610833
 30
0.0
 11
85.30825
 21
-787.360833
 31
0.0
  0
ARC
  8
1
  6
CONTINUOUS
 62
     2
  5
248
 10
81.962138
 20
-786.985833
 30
0.0
 40
0.765625
 50
101.595244
 51
258.404753
210
0.0
220
0.0
230
1.0
  0
INSERT
  8
1
  6
CONTINUOUS
 62
     1
  5
249
  2
LDR
 10
81.80825
 20
-774.917167
 30
0.0
 41
240.0
 42
240.0
210
0.0
220
0.0
230
1.0
  0
LINE
  8
1
  6
CONTINUOUS
 62
     2
  5
24A
 10
7.859917
 20
-831.164
 30
0.0
 11
7.859917
 21
-836.664
 31
0.0
  0
LINE
  8
1
  6
CONTINUOUS
 62
     2
  5
24B
 10
37.7565
 20
-831.164
 30
0.0
 11
37.7565
 21
-836.664
 31
0.0
  0
LINE
  8
1
  6
CONTINUOUS
 62
     2
  5
24C
 10
7.859917
 20
-835.664
 30
0.0
 11
37.7565
 21
-835.664
 31
0.0
  0
LINE
  8
1
  6
CONTINUOUS
 62
     2
  5
24D
 10
7.859917
 20
-830.164
 30
0.0
 11
7.859917
 21
-831.164
 31
0.0
  0
LINE
  8
1
  6
CONTINUOUS
 62
     2
  5
24E
 10
10.859917
 20
-824.164
 30
0.0
 11
13.359917
 21
-824.164
 31
0.0
  0
LINE
  8
1
  6
CONTINUOUS
 62
     2
  5
24F
 10
10.859917
 20
-824.164
 30
0.0
 11
10.859917
 21
-825.414
 31
0.0
  0
LINE
  8
1
  6
CONTINUOUS
 62
     2
  5
250
 10
13.359917
 20
-824.164
 30
0.0
 11
13.359917
 21
-825.414
 31
0.0
  0
LINE
  8
1
  6
CONTINUOUS
 62
     2
  5
251
 10
10.06275
 20
-825.414
 30
0.0
 11
14.157083
 21
-825.414
 31
0.0
  0
LINE
  8
1
  6
CONTINUOUS
 62
     2
  5
252
 10
9.818083
 20
-825.6125
 30
0.0
 11
8.90175
 21
-829.9655
 31
0.0
  0
LINE
  8
1
  6
CONTINUOUS
 62
     2
  5
253
 10
14.401667
 20
-825.6125
 30
0.0
 11
15.318083
 21
-829.9655
 31
0.0
  0
LINE
  8
1
  6
CONTINUOUS
 62
     2
  5
254
 10
16.359917
 20
-830.164
 30
0.0
 11
16.359917
 21
-831.164
 31
0.0
  0
LINE
  8
1
  6
CONTINUOUS
 62
     2
  5
255
 10
10.67125
 20
-826.414
 30
0.0
 11
9.67125
 21
-831.164
 31
0.0
  0
LINE
  8
1
  6
CONTINUOUS
 62
     2
  5
256
 10
13.5485
 20
-826.414
 30
0.0
 11
14.5485
 21
-831.164
 31
0.0
  0
LINE
  8
1
  6
CONTINUOUS
 62
     2
  5
257
 10
7.859917
 20
-830.164
 30
0.0
 11
8.657083
 21
-830.164
 31
0.0
  0
LINE
  8
1
  6
CONTINUOUS
 62
     2
  5
258
 10
15.56275
 20
-830.164
 30
0.0
 11
16.359917
 21
-830.164
 31
0.0
  0
ARC
  8
1
  6
CONTINUOUS
 62
     2
  5
259
 10
8.657073
 20
-829.914
 30
0.0
 40
0.25
 50
270.0
 51
348.111364
210
0.0
220
0.0
230
1.0
  0
ARC
  8
1
  6
CONTINUOUS
 62
     2
  5
25A
 10
15.562753
 20
-829.914
 30
0.0
 40
0.25
 50
191.889017
 51
270.0
210
0.0
220
0.0
230
1.0
  0
ARC
  8
1
  6
CONTINUOUS
 62
     2
  5
25B
 10
10.062757
 20
-825.664
 30
0.0
 40
0.25
 50
90.0
 51
168.109056
210
0.0
220
0.0
230
1.0
  0
ARC
  8
1
  6
CONTINUOUS
 62
     2
  5
25C
 10
14.157068
 20
-825.664
 30
0.0
 40
0.25
 50
11.888658
 51
90.0
210
0.0
220
0.0
230
1.0
  0
LINE
  8
1
  6
CONTINUOUS
 62
     2
  5
25D
 10
11.359917
 20
-831.164
 30
0.0
 11
11.359917
 21
-826.414
 31
0.0
  0
LINE
  8
1
  6
CONTINUOUS
 62
     2
  5
25E
 10
12.859917
 20
-831.164
 30
0.0
 11
12.859917
 21
-826.414
 31
0.0
  0
LINE
  8
1
  6
CONTINUOUS
 62
     2
  5
25F
 10
10.67125
 20
-826.414
 30
0.0
 11
11.359917
 21
-826.414
 31
0.0
  0
LINE
  8
1
  6
CONTINUOUS
 62
     2
  5
260
 10
12.859917
 20
-826.414
 30
0.0
 11
13.5485
 21
-826.414
 31
0.0
  0
LINE
  8
1
  6
CONTINUOUS
 62
     7
  5
261
 10
12.109917
 20
-824.914
 30
0.0
 11
12.109917
 21
-823.414
 31
0.0
  0
LINE
  8
1
  6
CONTINUOUS
 62
     2
  5
262
 10
37.7565
 20
-830.164
 30
0.0
 11
37.7565
 21
-831.164
 31
0.0
  0
LINE
  8
1
  6
CONTINUOUS
 62
     2
  5
263
 10
32.2565
 20
-824.164
 30
0.0
 11
34.7565
 21
-824.164
 31
0.0
  0
LINE
  8
1
  6
CONTINUOUS
 62
     2
  5
264
 10
32.2565
 20
-824.164
 30
0.0
 11
32.2565
 21
-825.414
 31
0.0
  0
LINE
  8
1
  6
CONTINUOUS
 62
     2
  5
265
 10
34.7565
 20
-824.164
 30
0.0
 11
34.7565
 21
-825.414
 31
0.0
  0
LINE
  8
1
  6
CONTINUOUS
 62
     2
  5
266
 10
31.459333
 20
-825.414
 30
0.0
 11
35.553667
 21
-825.414
 31
0.0
  0
LINE
  8
1
  6
CONTINUOUS
 62
     2
  5
267
 10
31.214667
 20
-825.6125
 30
0.0
 11
30.298333
 21
-829.9655
 31
0.0
  0
LINE
  8
1
  6
CONTINUOUS
 62
     2
  5
268
 10
35.79825
 20
-825.6125
 30
0.0
 11
36.714667
 21
-829.9655
 31
0.0
  0
LINE
  8
1
  6
CONTINUOUS
 62
     2
  5
269
 10
29.2565
 20
-830.164
 30
0.0
 11
29.2565
 21
-831.164
 31
0.0
  0
LINE
  8
1
  6
CONTINUOUS
 62
     2
  5
26A
 10
32.067833
 20
-826.414
 30
0.0
 11
31.067833
 21
-831.164
 31
0.0
  0
LINE
  8
1
  6
CONTINUOUS
 62
     2
  5
26B
 10
34.945083
 20
-826.414
 30
0.0
 11
35.945083
 21
-831.164
 31
0.0
  0
LINE
  8
1
  6
CONTINUOUS
 62
     2
  5
26C
 10
29.2565
 20
-830.164
 30
0.0
 11
30.053667
 21
-830.164
 31
0.0
  0
LINE
  8
1
  6
CONTINUOUS
 62
     2
  5
26D
 10
36.959333
 20
-830.164
 30
0.0
 11
37.7565
 21
-830.164
 31
0.0
  0
ARC
  8
1
  6
CONTINUOUS
 62
     2
  5
26E
 10
30.053656
 20
-829.914
 30
0.0
 40
0.25
 50
270.0
 51
348.111364
210
0.0
220
0.0
230
1.0
  0
ARC
  8
1
  6
CONTINUOUS
 62
     2
  5
26F
 10
36.959337
 20
-829.914
 30
0.0
 40
0.25
 50
191.889017
 51
270.0
210
0.0
220
0.0
230
1.0
  0
ARC
  8
1
  6
CONTINUOUS
 62
     2
  5
270
 10
31.45934
 20
-825.664
 30
0.0
 40
0.25
 50
90.0
 51
168.109056
210
0.0
220
0.0
230
1.0
  0
ARC
  8
1
  6
CONTINUOUS
 62
     2
  5
271
 10
35.553651
 20
-825.664
 30
0.0
 40
0.25
 50
11.888658
 51
90.0
210
0.0
220
0.0
230
1.0
  0
LINE
  8
1
  6
CONTINUOUS
 62
     2
  5
272
 10
32.7565
 20
-831.164
 30
0.0
 11
32.7565
 21
-826.414
 31
0.0
  0
LINE
  8
1
  6
CONTINUOUS
 62
     2
  5
273
 10
34.2565
 20
-831.164
 30
0.0
 11
34.2565
 21
-826.414
 31
0.0
  0
LINE
  8
1
  6
CONTINUOUS
 62
     2
  5
274
 10
32.067833
 20
-826.414
 30
0.0
 11
32.7565
 21
-826.414
 31
0.0
  0
LINE
  8
1
  6
CONTINUOUS
 62
     2
  5
275
 10
34.2565
 20
-826.414
 30
0.0
 11
34.945083
 21
-826.414
 31
0.0
  0
LINE
  8
1
  6
CONTINUOUS
 62
     7
  5
276
 10
33.5065
 20
-824.914
 30
0.0
 11
33.5065
 21
-823.414
 31
0.0
  0
LINE
  8
1
  6
DASHED
 62
     2
  5
277
 10
7.859917
 20
-831.664
 30
0.0
 11
37.7565
 21
-831.664
 31
0.0
  0
LINE
  8
1
  6
DASHED
 62
     2
  5
278
 10
7.859917
 20
-832.164
 30
0.0
 11
37.7565
 21
-832.164
 31
0.0
  0
LINE
  8
1
  6
DASHED
 62
     2
  5
279
 10
7.859917
 20
-832.664
 30
0.0
 11
37.7565
 21
-832.664
 31
0.0
  0
LINE
  8
1
  6
CONTINUOUS
 62
     2
  5
27A
 10
15.07925
 20
-835.664
 30
0.0
 11
15.07925
 21
-834.414
 31
0.0
  0
LINE
  8
1
  6
CONTINUOUS
 62
     2
  5
27B
 10
14.95425
 20
-837.664
 30
0.0
 11
14.95425
 21
-835.664
 31
0.0
  0
LINE
  8
1
  6
CONTINUOUS
 62
     2
  5
27C
 10
15.95425
 20
-837.664
 30
0.0
 11
15.95425
 21
-835.664
 31
0.0
  0
LINE
  8
1
  6
CONTINUOUS
 62
     2
  5
27D
 10
14.70425
 20
-835.664
 30
0.0
 11
14.70425
 21
-834.914
 31
0.0
  0
LINE
  8
1
  6
CONTINUOUS
 62
     2
  5
27E
 10
16.20425
 20
-835.664
 30
0.0
 11
16.20425
 21
-834.914
 31
0.0
  0
LINE
  8
1
  6
CONTINUOUS
 62
     2
  5
27F
 10
14.70425
 20
-834.914
 30
0.0
 11
16.20425
 21
-834.914
 31
0.0
  0
LINE
  8
1
  6
CONTINUOUS
 62
     2
  5
280
 10
15.82925
 20
-835.664
 30
0.0
 11
15.82925
 21
-834.414
 31
0.0
  0
LINE
  8
1
  6
CONTINUOUS
 62
     2
  5
281
 10
15.07925
 20
-834.414
 30
0.0
 11
15.82925
 21
-834.414
 31
0.0
  0
ARC
  8
1
  6
CONTINUOUS
 62
     2
  5
282
 10
15.45425
 20
-837.510112
 30
0.0
 40
0.765625
 50
191.595244
 51
348.404753
210
0.0
220
0.0
230
1.0
  0
LINE
  8
1
  6
CONTINUOUS
 62
     2
  5
283
 10
7.859917
 20
-831.164
 30
0.0
 11
14.5485
 21
-831.164
 31
0.0
  0
LINE
  8
1
  6
CONTINUOUS
 62
     2
  5
284
 10
14.5485
 20
-831.164
 30
0.0
 11
16.359917
 21
-831.164
 31
0.0
  0
LINE
  8
1
  6
CONTINUOUS
 62
     2
  5
285
 10
16.359917
 20
-831.164
 30
0.0
 11
29.2565
 21
-831.164
 31
0.0
  0
LINE
  8
1
  6
CONTINUOUS
 62
     2
  5
286
 10
29.2565
 20
-831.164
 30
0.0
 11
31.067833
 21
-831.164
 31
0.0
  0
LINE
  8
1
  6
CONTINUOUS
 62
     2
  5
287
 10
31.067833
 20
-831.164
 30
0.0
 11
37.7565
 21
-831.164
 31
0.0
  0
LINE
  8
1
  6
CONTINUOUS
 62
     2
  5
288
 10
29.787167
 20
-834.414
 30
0.0
 11
30.537167
 21
-834.414
 31
0.0
  0
LINE
  8
1
  6
CONTINUOUS
 62
     2
  5
289
 10
29.787167
 20
-835.664
 30
0.0
 11
29.787167
 21
-834.414
 31
0.0
  0
LINE
  8
1
  6
CONTINUOUS
 62
     2
  5
28A
 10
29.662167
 20
-837.664
 30
0.0
 11
29.662167
 21
-835.664
 31
0.0
  0
LINE
  8
1
  6
CONTINUOUS
 62
     2
  5
28B
 10
30.662167
 20
-837.664
 30
0.0
 11
30.662167
 21
-835.664
 31
0.0
  0
LINE
  8
1
  6
CONTINUOUS
 62
     2
  5
28C
 10
29.412167
 20
-835.664
 30
0.0
 11
29.412167
 21
-834.914
 31
0.0
  0
LINE
  8
1
  6
CONTINUOUS
 62
     2
  5
28D
 10
30.912167
 20
-835.664
 30
0.0
 11
30.912167
 21
-834.914
 31
0.0
  0
LINE
  8
1
  6
CONTINUOUS
 62
     2
  5
28E
 10
29.412167
 20
-834.914
 30
0.0
 11
30.912167
 21
-834.914
 31
0.0
  0
LINE
  8
1
  6
CONTINUOUS
 62
     2
  5
28F
 10
30.537167
 20
-835.664
 30
0.0
 11
30.537167
 21
-834.414
 31
0.0
  0
ARC
  8
1
  6
CONTINUOUS
 62
     2
  5
290
 10
30.162167
 20
-837.510112
 30
0.0
 40
0.765625
 50
191.595244
 51
348.404753
210
0.0
220
0.0
230
1.0
  0
LINE
  8
1
  6
CONTINUOUS
 62
     2
  5
291
 10
11.359917
 20
-826.414
 30
0.0
 11
12.859917
 21
-826.414
 31
0.0
  0
LINE
  8
1
  6
CONTINUOUS
 62
     2
  5
292
 10
32.7565
 20
-826.414
 30
0.0
 11
34.2565
 21
-826.414
 31
0.0
  0
LINE
  8
1
  6
CONTINUOUS
 62
     2
  5
293
 10
11.359917
 20
-827.414
 30
0.0
 11
12.859917
 21
-827.414
 31
0.0
  0
LINE
  8
1
  6
CONTINUOUS
 62
     2
  5
294
 10
11.359917
 20
-828.414
 30
0.0
 11
12.859917
 21
-828.414
 31
0.0
  0
LINE
  8
1
  6
CONTINUOUS
 62
     2
  5
295
 10
11.359917
 20
-829.414
 30
0.0
 11
12.859917
 21
-829.414
 31
0.0
  0
LINE
  8
1
  6
CONTINUOUS
 62
     2
  5
296
 10
11.359917
 20
-830.414
 30
0.0
 11
12.859917
 21
-830.414
 31
0.0
  0
LINE
  8
1
  6
CONTINUOUS
 62
     2
  5
297
 10
32.7565
 20
-827.414
 30
0.0
 11
34.2565
 21
-827.414
 31
0.0
  0
LINE
  8
1
  6
CONTINUOUS
 62
     2
  5
298
 10
32.7565
 20
-828.414
 30
0.0
 11
34.2565
 21
-828.414
 31
0.0
  0
LINE
  8
1
  6
CONTINUOUS
 62
     2
  5
299
 10
32.7565
 20
-829.414
 30
0.0
 11
34.2565
 21
-829.414
 31
0.0
  0
LINE
  8
1
  6
CONTINUOUS
 62
     2
  5
29A
 10
32.7565
 20
-830.414
 30
0.0
 11
34.2565
 21
-830.414
 31
0.0
  0
LINE
  8
1
  6
CONTINUOUS
 62
     7
  5
29B
 10
7.859917
 20
-838.664
 30
0.0
 11
7.859917
 21
-845.664
 31
0.0
  0
LINE
  8
1
  6
CONTINUOUS
 62
     7
  5
29C
 10
12.109917
 20
-839.27575
 30
0.0
 11
12.109917
 21
-853.27575
 31
0.0
  0
LINE
  8
1
  6
CONTINUOUS
 62
     7
  5
29D
 10
30.16225
 20
-839.27575
 30
0.0
 11
30.16225
 21
-853.27575
 31
0.0
  0
LINE
  8
1
  6
CONTINUOUS
 62
     7
  5
29E
 10
33.506583
 20
-839.27575
 30
0.0
 11
33.506583
 21
-853.27575
 31
0.0
  0
LINE
  8
1
  6
CONTINUOUS
 62
     7
  5
29F
 10
2.859917
 20
-844.664
 30
0.0
 11
7.859917
 21
-844.664
 31
0.0
  0
LINE
  8
1
  6
CONTINUOUS
 62
     7
  5
2A0
 10
12.109917
 20
-844.664
 30
0.0
 11
17.109917
 21
-844.664
 31
0.0
  0
LINE
  8
1
  6
CONTINUOUS
 62
     7
  5
2A1
 10
7.109917
 20
-852.27575
 30
0.0
 11
12.109917
 21
-852.27575
 31
0.0
  0
LINE
  8
1
  6
CONTINUOUS
 62
     7
  5
2A2
 10
15.45425
 20
-852.27575
 30
0.0
 11
20.45425
 21
-852.27575
 31
0.0
  0
LINE
  8
1
  6
CONTINUOUS
 62
     7
  5
2A3
 10
25.16225
 20
-852.27575
 30
0.0
 11
30.16225
 21
-852.27575
 31
0.0
  0
LINE
  8
1
  6
CONTINUOUS
 62
     7
  5
2A4
 10
33.506583
 20
-852.27575
 30
0.0
 11
38.506583
 21
-852.27575
 31
0.0
  0
LINE
  8
1
  6
CONTINUOUS
 62
     7
  5
2A5
 10
15.45425
 20
-839.27575
 30
0.0
 11
15.45425
 21
-843.664
 31
0.0
  0
LINE
  8
1
  6
CONTINUOUS
 62
     7
  5
2A6
 10
15.45425
 20
-845.664
 30
0.0
 11
15.45425
 21
-853.27575
 31
0.0
  0
INSERT
  8
1
  6
CONTINUOUS
 62
     1
  5
2A7
  2
LDR
 10
7.859917
 20
-844.664
 30
0.0
 41
240.0
 42
240.0
210
0.0
220
0.0
230
1.0
  0
INSERT
  8
1
  6
CONTINUOUS
 62
     1
  5
2A8
  2
LDR
 10
12.109917
 20
-844.664
 30
0.0
 41
240.0
 42
240.0
 50
180.0
210
0.0
220
0.0
230
1.0
  0
INSERT
  8
1
  6
CONTINUOUS
 62
     1
  5
2A9
  2
LDR
 10
12.109917
 20
-844.664
 30
0.0
 41
240.0
 42
240.0
 50
180.0
210
0.0
220
0.0
230
1.0
  0
INSERT
  8
1
  6
CONTINUOUS
 62
     1
  5
2AA
  2
LDR
 10
12.109917
 20
-852.27575
 30
0.0
 41
240.0
 42
240.0
210
0.0
220
0.0
230
1.0
  0
INSERT
  8
1
  6
CONTINUOUS
 62
     1
  5
2AB
  2
LDR
 10
12.109917
 20
-852.27575
 30
0.0
 41
240.0
 42
240.0
210
0.0
220
0.0
230
1.0
  0
INSERT
  8
1
  6
CONTINUOUS
 62
     1
  5
2AC
  2
LDR
 10
15.45425
 20
-852.27575
 30
0.0
 41
240.0
 42
240.0
 50
180.0
210
0.0
220
0.0
230
1.0
  0
INSERT
  8
1
  6
CONTINUOUS
 62
     1
  5
2AD
  2
LDR
 10
15.45425
 20
-852.27575
 30
0.0
 41
240.0
 42
240.0
 50
180.0
210
0.0
220
0.0
230
1.0
  0
INSERT
  8
1
  6
CONTINUOUS
 62
     1
  5
2AE
  2
LDR
 10
30.16225
 20
-852.27575
 30
0.0
 41
240.0
 42
240.0
210
0.0
220
0.0
230
1.0
  0
INSERT
  8
1
  6
CONTINUOUS
 62
     1
  5
2AF
  2
LDR
 10
30.16225
 20
-852.27575
 30
0.0
 41
240.0
 42
240.0
210
0.0
220
0.0
230
1.0
  0
INSERT
  8
1
  6
CONTINUOUS
 62
     1
  5
2B0
  2
LDR
 10
33.506583
 20
-852.27575
 30
0.0
 41
240.0
 42
240.0
 50
180.0
210
0.0
220
0.0
230
1.0
  0
CIRCLE
  8
1
  6
CONTINUOUS
 62
     3
  5
2B1
 10
152.85125
 20
-500.435083
 30
0.0
 40
31.0
210
0.0
220
0.0
230
1.0
  0
CIRCLE
  8
1
  6
CONTINUOUS
 62
     3
  5
2B2
 10
152.85125
 20
-477.435083
 30
0.0
 40
0.875
210
0.0
220
0.0
230
1.0
  0
CIRCLE
  8
1
  6
CONTINUOUS
 62
     3
  5
2B3
 10
152.85125
 20
-523.435083
 30
0.0
 40
0.875
210
0.0
220
0.0
230
1.0
  0
LINE
  8
1
  6
CONTINUOUS
 62
     7
  5
2B4
 10
152.22625
 20
-523.435083
 30
0.0
 11
153.47625
 21
-523.435083
 31
0.0
  0
LINE
  8
1
  6
CONTINUOUS
 62
     7
  5
2B5
 10
152.85125
 20
-461.435083
 30
0.0
 11
152.85125
 21
-475.560083
 31
0.0
  0
LINE
  8
1
  6
CONTINUOUS
 62
     7
  5
2B6
 10
152.85125
 20
-476.810083
 30
0.0
 11
152.85125
 21
-478.060083
 31
0.0
  0
LINE
  8
1
  6
CONTINUOUS
 62
     7
  5
2B7
 10
150.97625
 20
-523.435083
 30
0.0
 11
143.22625
 21
-523.435083
 31
0.0
  0
LINE
  8
1
  6
CONTINUOUS
 62
     7
  5
2B8
 10
154.72625
 20
-523.435083
 30
0.0
 11
194.635833
 21
-523.435083
 31
0.0
  0
LINE
  8
1
  6
CONTINUOUS
 62
     7
  5
2B9
 10
152.85125
 20
-479.310083
 30
0.0
 11
152.85125
 21
-521.560083
 31
0.0
  0
LINE
  8
1
  6
CONTINUOUS
 62
     7
  5
2BA
 10
152.85125
 20
-522.810083
 30
0.0
 11
152.85125
 21
-524.060083
 31
0.0
  0
LINE
  8
1
  6
CONTINUOUS
 62
     7
  5
2BB
 10
152.85125
 20
-525.310083
 30
0.0
 11
152.85125
 21
-535.435083
 31
0.0
  0
LINE
  8
1
  6
CONTINUOUS
 62
     7
  5
2BC
 10
116.85125
 20
-500.435083
 30
0.0
 11
135.85125
 21
-500.435083
 31
0.0
  0
LINE
  8
1
  6
CONTINUOUS
 62
     7
  5
2BD
 10
136.85125
 20
-500.435083
 30
0.0
 11
138.85125
 21
-500.435083
 31
0.0
  0
LINE
  8
1
  6
CONTINUOUS
 62
     7
  5
2BE
 10
139.85125
 20
-500.435083
 30
0.0
 11
165.85125
 21
-500.435083
 31
0.0
  0
LINE
  8
1
  6
CONTINUOUS
 62
     7
  5
2BF
 10
166.85125
 20
-500.435083
 30
0.0
 11
168.85125
 21
-500.435083
 31
0.0
  0
LINE
  8
1
  6
CONTINUOUS
 62
     7
  5
2C0
 10
169.85125
 20
-500.435083
 30
0.0
 11
194.635833
 21
-500.435083
 31
0.0
  0
LINE
  8
1
  6
CONTINUOUS
 62
     7
  5
2C1
 10
152.22625
 20
-477.435083
 30
0.0
 11
153.47625
 21
-477.435083
 31
0.0
  0
LINE
  8
1
  6
CONTINUOUS
 62
     7
  5
2C2
 10
150.97625
 20
-477.435083
 30
0.0
 11
143.22625
 21
-477.435083
 31
0.0
  0
LINE
  8
1
  6
CONTINUOUS
 62
     7
  5
2C3
 10
154.72625
 20
-477.435083
 30
0.0
 11
194.635833
 21
-477.435083
 31
0.0
  0
CIRCLE
  8
1
  6
CONTINUOUS
 62
     3
  5
2C4
 10
152.85125
 20
-574.435083
 30
0.0
 40
31.0
210
0.0
220
0.0
230
1.0
  0
CIRCLE
  8
1
  6
CONTINUOUS
 62
     3
  5
2C5
 10
152.85125
 20
-551.435083
 30
0.0
 40
0.875
210
0.0
220
0.0
230
1.0
  0
CIRCLE
  8
1
  6
CONTINUOUS
 62
     3
  5
2C6
 10
152.85125
 20
-597.435083
 30
0.0
 40
0.875
210
0.0
220
0.0
230
1.0
  0
LINE
  8
1
  6
CONTINUOUS
 62
     7
  5
2C7
 10
152.22625
 20
-597.435083
 30
0.0
 11
153.47625
 21
-597.435083
 31
0.0
  0
LINE
  8
1
  6
CONTINUOUS
 62
     7
  5
2C8
 10
152.85125
 20
-550.810083
 30
0.0
 11
152.85125
 21
-552.060083
 31
0.0
  0
LINE
  8
1
  6
CONTINUOUS
 62
     7
  5
2C9
 10
150.97625
 20
-597.435083
 30
0.0
 11
143.22625
 21
-597.435083
 31
0.0
  0
LINE
  8
1
  6
CONTINUOUS
 62
     7
  5
2CA
 10
152.85125
 20
-553.310083
 30
0.0
 11
152.85125
 21
-595.560083
 31
0.0
  0
LINE
  8
1
  6
CONTINUOUS
 62
     7
  5
2CB
 10
152.85125
 20
-596.810083
 30
0.0
 11
152.85125
 21
-598.060083
 31
0.0
  0
LINE
  8
1
  6
CONTINUOUS
 62
     7
  5
2CC
 10
116.85125
 20
-574.435083
 30
0.0
 11
135.85125
 21
-574.435083
 31
0.0
  0
LINE
  8
1
  6
CONTINUOUS
 62
     7
  5
2CD
 10
136.85125
 20
-574.435083
 30
0.0
 11
138.85125
 21
-574.435083
 31
0.0
  0
LINE
  8
1
  6
CONTINUOUS
 62
     7
  5
2CE
 10
139.85125
 20
-574.435083
 30
0.0
 11
165.85125
 21
-574.435083
 31
0.0
  0
LINE
  8
1
  6
CONTINUOUS
 62
     7
  5
2CF
 10
166.85125
 20
-574.435083
 30
0.0
 11
168.85125
 21
-574.435083
 31
0.0
  0
LINE
  8
1
  6
CONTINUOUS
 62
     7
  5
2D0
 10
152.22625
 20
-551.435083
 30
0.0
 11
153.47625
 21
-551.435083
 31
0.0
  0
LINE
  8
1
  6
CONTINUOUS
 62
     7
  5
2D1
 10
150.97625
 20
-551.435083
 30
0.0
 11
143.22625
 21
-551.435083
 31
0.0
  0
LINE
  8
1
  6
CONTINUOUS
 62
     7
  5
2D2
 10
169.85125
 20
-574.435083
 30
0.0
 11
188.85125
 21
-574.435083
 31
0.0
  0
LINE
  8
1
  6
CONTINUOUS
 62
     7
  5
2D3
 10
152.85125
 20
-549.560083
 30
0.0
 11
152.85125
 21
-539.435083
 31
0.0
  0
LINE
  8
1
  6
CONTINUOUS
 62
     7
  5
2D4
 10
154.72625
 20
-551.435083
 30
0.0
 11
162.47625
 21
-551.435083
 31
0.0
  0
LINE
  8
1
  6
CONTINUOUS
 62
     7
  5
2D5
 10
154.72625
 20
-597.435083
 30
0.0
 11
162.47625
 21
-597.435083
 31
0.0
  0
LINE
  8
1
  6
CONTINUOUS
 62
     7
  5
2D6
 10
152.85125
 20
-599.310083
 30
0.0
 11
152.85125
 21
-610.435083
 31
0.0
  0
LINE
  8
1
  6
CONTINUOUS
 62
     3
  5
2D7
 10
207.85125
 20
-543.435083
 30
0.0
 11
207.85125
 21
-605.435083
 31
0.0
  0
LINE
  8
1
  6
CONTINUOUS
 62
     3
  5
2D8
 10
208.85125
 20
-543.435083
 30
0.0
 11
208.85125
 21
-605.435083
 31
0.0
  0
LINE
  8
1
  6
CONTINUOUS
 62
     3
  5
2D9
 10
207.85125
 20
-543.435083
 30
0.0
 11
208.85125
 21
-543.435083
 31
0.0
  0
LINE
  8
1
  6
CONTINUOUS
 62
     3
  5
2DA
 10
207.85125
 20
-605.435083
 30
0.0
 11
208.85125
 21
-605.435083
 31
0.0
  0
LINE
  8
1
  6
CONTINUOUS
 62
     3
  5
2DB
 10
209.85125
 20
-548.435083
 30
0.0
 11
209.85125
 21
-615.417917
 31
0.0
  0
LINE
  8
1
  6
CONTINUOUS
 62
     3
  5
2DC
 10
215.85125
 20
-548.435083
 30
0.0
 11
215.85125
 21
-615.417917
 31
0.0
  0
LINE
  8
1
  6
CONTINUOUS
 62
     3
  5
2DD
 10
209.85125
 20
-548.435083
 30
0.0
 11
215.85125
 21
-548.435083
 31
0.0
  0
LINE
  8
1
  6
CONTINUOUS
 62
     3
  5
2DE
 10
211.10125
 20
-548.435083
 30
0.0
 11
211.10125
 21
-615.417917
 31
0.0
  0
LINE
  8
1
  6
DASHED
 62
     3
  5
2DF
 10
214.60125
 20
-548.435083
 30
0.0
 11
214.60125
 21
-615.417917
 31
0.0
  0
LINE
  8
1
  6
HIDDEN
 62
     3
  5
2E0
 10
209.85125
 20
-550.810083
 30
0.0
 11
215.85125
 21
-550.810083
 31
0.0
  0
LINE
  8
1
  6
HIDDEN
 62
     3
  5
2E1
 10
209.85125
 20
-552.060083
 30
0.0
 11
215.85125
 21
-552.060083
 31
0.0
  0
LINE
  8
1
  6
HIDDEN
 62
     3
  5
2E2
 10
209.85125
 20
-596.810083
 30
0.0
 11
215.85125
 21
-596.810083
 31
0.0
  0
LINE
  8
1
  6
HIDDEN
 62
     3
  5
2E3
 10
209.85125
 20
-598.060083
 30
0.0
 11
215.85125
 21
-598.060083
 31
0.0
  0
LINE
  8
1
  6
CONTINUOUS
 62
     3
  5
2E4
 10
206.60125
 20
-550.435083
 30
0.0
 11
207.85125
 21
-550.435083
 31
0.0
  0
LINE
  8
1
  6
CONTINUOUS
 62
     3
  5
2E5
 10
215.85125
 20
-550.435083
 30
0.0
 11
217.10125
 21
-550.435083
 31
0.0
  0
LINE
  8
1
  6
CONTINUOUS
 62
     3
  5
2E6
 10
206.60125
 20
-552.435083
 30
0.0
 11
207.85125
 21
-552.435083
 31
0.0
  0
LINE
  8
1
  6
CONTINUOUS
 62
     3
  5
2E7
 10
215.85125
 20
-552.435083
 30
0.0
 11
217.10125
 21
-552.435083
 31
0.0
  0
LINE
  8
1
  6
CONTINUOUS
 62
     3
  5
2E8
 10
217.10125
 20
-550.435083
 30
0.0
 11
217.10125
 21
-552.435083
 31
0.0
  0
LINE
  8
1
  6
CONTINUOUS
 62
     3
  5
2E9
 10
206.60125
 20
-550.435083
 30
0.0
 11
206.60125
 21
-552.435083
 31
0.0
  0
LINE
  8
1
  6
CONTINUOUS
 62
     7
  5
2EA
 10
205.60125
 20
-551.435083
 30
0.0
 11
207.35125
 21
-551.435083
 31
0.0
  0
LINE
  8
1
  6
CONTINUOUS
 62
     7
  5
2EB
 10
216.35125
 20
-551.435083
 30
0.0
 11
218.10125
 21
-551.435083
 31
0.0
  0
LINE
  8
1
  6
CONTINUOUS
 62
     3
  5
2EC
 10
206.60125
 20
-596.435083
 30
0.0
 11
206.60125
 21
-598.435083
 31
0.0
  0
LINE
  8
1
  6
CONTINUOUS
 62
     3
  5
2ED
 10
206.60125
 20
-596.435083
 30
0.0
 11
207.85125
 21
-596.435083
 31
0.0
  0
LINE
  8
1
  6
CONTINUOUS
 62
     3
  5
2EE
 10
215.85125
 20
-596.435083
 30
0.0
 11
217.10125
 21
-596.435083
 31
0.0
  0
LINE
  8
1
  6
CONTINUOUS
 62
     3
  5
2EF
 10
206.60125
 20
-598.435083
 30
0.0
 11
207.85125
 21
-598.435083
 31
0.0
  0
LINE
  8
1
  6
CONTINUOUS
 62
     3
  5
2F0
 10
215.85125
 20
-598.435083
 30
0.0
 11
217.10125
 21
-598.435083
 31
0.0
  0
LINE
  8
1
  6
CONTINUOUS
 62
     3
  5
2F1
 10
217.10125
 20
-596.435083
 30
0.0
 11
217.10125
 21
-598.435083
 31
0.0
  0
LINE
  8
1
  6
CONTINUOUS
 62
     7
  5
2F2
 10
205.60125
 20
-597.435083
 30
0.0
 11
207.35125
 21
-597.435083
 31
0.0
  0
LINE
  8
1
  6
CONTINUOUS
 62
     7
  5
2F3
 10
216.35125
 20
-597.435083
 30
0.0
 11
218.10125
 21
-597.435083
 31
0.0
  0
LINE
  8
1
  6
CONTINUOUS
 62
     7
  5
2F4
 10
202.85125
 20
-574.435083
 30
0.0
 11
211.10125
 21
-574.435083
 31
0.0
  0
LINE
  8
1
  6
CONTINUOUS
 62
     7
  5
2F5
 10
214.60125
 20
-574.435083
 30
0.0
 11
220.85125
 21
-574.435083
 31
0.0
  0
LINE
  8
1
  6
CONTINUOUS
 62
     7
  5
2F6
 10
211.10125
 20
-574.435083
 30
0.0
 11
211.85125
 21
-574.435083
 31
0.0
  0
LINE
  8
1
  6
CONTINUOUS
 62
     7
  5
2F7
 10
212.35125
 20
-574.435083
 30
0.0
 11
213.35125
 21
-574.435083
 31
0.0
  0
LINE
  8
1
  6
CONTINUOUS
 62
     7
  5
2F8
 10
213.85125
 20
-574.435083
 30
0.0
 11
214.60125
 21
-574.435083
 31
0.0
  0
LINE
  8
1
  6
CONTINUOUS
 62
     7
  5
2F9
 10
209.85125
 20
-543.435083
 30
0.0
 11
236.85125
 21
-543.435083
 31
0.0
  0
LINE
  8
1
  6
CONTINUOUS
 62
     7
  5
2FA
 10
216.85125
 20
-548.435083
 30
0.0
 11
236.85125
 21
-548.435083
 31
0.0
  0
LINE
  8
1
  6
CONTINUOUS
 62
     7
  5
2FB
 10
235.85125
 20
-538.435083
 30
0.0
 11
235.85125
 21
-543.435083
 31
0.0
  0
LINE
  8
1
  6
CONTINUOUS
 62
     7
  5
2FC
 10
235.85125
 20
-548.435083
 30
0.0
 11
235.85125
 21
-553.435083
 31
0.0
  0
INSERT
  8
1
  6
CONTINUOUS
 62
     1
  5
2FD
  2
LDR
 10
235.85125
 20
-543.435083
 30
0.0
 41
240.0
 42
240.0
 50
270.0
210
0.0
220
0.0
230
1.0
  0
INSERT
  8
1
  6
CONTINUOUS
 62
     1
  5
2FE
  2
LDR
 10
235.85125
 20
-548.435083
 30
0.0
 41
240.0
 42
240.0
 50
90.0
210
0.0
220
0.0
230
1.0
  0
LINE
  8
1
  6
DASHED
 62
     3
  5
2FF
 10
148.85125
 20
-547.935083
 30
0.0
 11
156.85125
 21
-547.935083
 31
0.0
  0
LINE
  8
1
  6
DASHED
 62
     3
  5
300
 10
148.85125
 20
-547.935083
 30
0.0
 11
148.85125
 21
-605.175917
 31
0.0
  0
LINE
  8
1
  6
DASHED
 62
     3
  5
301
 10
156.85125
 20
-547.935083
 30
0.0
 11
156.85125
 21
-605.175917
 31
0.0
  0
LINE
  8
1
  6
DASHED
 62
     3
  5
302
 10
150.85125
 20
-547.935083
 30
0.0
 11
150.85125
 21
-605.175917
 31
0.0
  0
LINE
  8
1
  6
DASHED
 62
     3
  5
303
 10
154.85125
 20
-547.935083
 30
0.0
 11
154.85125
 21
-605.175917
 31
0.0
  0
LINE
  8
1
  6
CONTINUOUS
 62
     3
  5
304
 10
148.85125
 20
-605.175917
 30
0.0
 11
148.85125
 21
-615.417917
 31
0.0
  0
LINE
  8
1
  6
CONTINUOUS
 62
     3
  5
305
 10
150.85125
 20
-605.175917
 30
0.0
 11
150.85125
 21
-615.417917
 31
0.0
  0
LINE
  8
1
  6
CONTINUOUS
 62
     3
  5
306
 10
154.85125
 20
-605.175917
 30
0.0
 11
154.85125
 21
-615.417917
 31
0.0
  0
LINE
  8
1
  6
CONTINUOUS
 62
     3
  5
307
 10
156.85125
 20
-605.175917
 30
0.0
 11
156.85125
 21
-615.417917
 31
0.0
  0
LINE
  8
1
  6
CONTINUOUS
 62
     3
  5
308
 10
123.955667
 20
-628.89125
 30
0.0
 11
181.9385
 21
-628.89125
 31
0.0
  0
LINE
  8
1
  6
CONTINUOUS
 62
     3
  5
309
 10
123.955667
 20
-629.89125
 30
0.0
 11
181.9385
 21
-629.89125
 31
0.0
  0
LINE
  8
1
  6
CONTINUOUS
 62
     3
  5
30A
 10
123.955667
 20
-628.89125
 30
0.0
 11
123.955667
 21
-629.89125
 31
0.0
  0
LINE
  8
1
  6
CONTINUOUS
 62
     3
  5
30B
 10
181.9385
 20
-628.89125
 30
0.0
 11
181.9385
 21
-629.89125
 31
0.0
  0
LINE
  8
1
  6
CONTINUOUS
 62
     3
  5
30C
 10
151.697083
 20
-621.89125
 30
0.0
 11
154.197083
 21
-621.89125
 31
0.0
  0
LINE
  8
1
  6
CONTINUOUS
 62
     3
  5
30D
 10
151.697083
 20
-621.89125
 30
0.0
 11
151.697083
 21
-623.14125
 31
0.0
  0
LINE
  8
1
  6
CONTINUOUS
 62
     3
  5
30E
 10
154.197083
 20
-621.89125
 30
0.0
 11
154.197083
 21
-623.14125
 31
0.0
  0
LINE
  8
1
  6
CONTINUOUS
 62
     3
  5
30F
 10
150.899917
 20
-623.14125
 30
0.0
 11
154.99425
 21
-623.14125
 31
0.0
  0
LINE
  8
1
  6
CONTINUOUS
 62
     3
  5
310
 10
150.65525
 20
-623.33975
 30
0.0
 11
149.738917
 21
-627.69275
 31
0.0
  0
LINE
  8
1
  6
CONTINUOUS
 62
     3
  5
311
 10
155.238833
 20
-623.33975
 30
0.0
 11
156.15525
 21
-627.69275
 31
0.0
  0
LINE
  8
1
  6
CONTINUOUS
 62
     3
  5
312
 10
148.697083
 20
-627.89125
 30
0.0
 11
148.697083
 21
-628.89125
 31
0.0
  0
LINE
  8
1
  6
CONTINUOUS
 62
     3
  5
313
 10
157.197083
 20
-627.89125
 30
0.0
 11
157.197083
 21
-628.89125
 31
0.0
  0
LINE
  8
1
  6
CONTINUOUS
 62
     3
  5
314
 10
151.508417
 20
-624.14125
 30
0.0
 11
150.508417
 21
-628.89125
 31
0.0
  0
LINE
  8
1
  6
CONTINUOUS
 62
     3
  5
315
 10
154.385667
 20
-624.14125
 30
0.0
 11
155.385667
 21
-628.89125
 31
0.0
  0
LINE
  8
1
  6
CONTINUOUS
 62
     3
  5
316
 10
148.697083
 20
-627.89125
 30
0.0
 11
149.49425
 21
-627.89125
 31
0.0
  0
LINE
  8
1
  6
CONTINUOUS
 62
     3
  5
317
 10
156.399917
 20
-627.89125
 30
0.0
 11
157.197083
 21
-627.89125
 31
0.0
  0
ARC
  8
1
  6
CONTINUOUS
 62
     3
  5
318
 10
149.49424
 20
-627.64125
 30
0.0
 40
0.25
 50
270.0
 51
348.111364
210
0.0
220
0.0
230
1.0
  0
ARC
  8
1
  6
CONTINUOUS
 62
     3
  5
319
 10
156.39992
 20
-627.64125
 30
0.0
 40
0.25
 50
191.889017
 51
270.0
210
0.0
220
0.0
230
1.0
  0
ARC
  8
1
  6
CONTINUOUS
 62
     3
  5
31A
 10
150.899924
 20
-623.39125
 30
0.0
 40
0.25
 50
90.0
 51
168.109056
210
0.0
220
0.0
230
1.0
  0
ARC
  8
1
  6
CONTINUOUS
 62
     3
  5
31B
 10
154.994235
 20
-623.39125
 30
0.0
 40
0.25
 50
11.888658
 51
90.0
210
0.0
220
0.0
230
1.0
  0
LINE
  8
1
  6
CONTINUOUS
 62
     3
  5
31C
 10
152.197083
 20
-628.89125
 30
0.0
 11
152.197083
 21
-624.14125
 31
0.0
  0
LINE
  8
1
  6
CONTINUOUS
 62
     3
  5
31D
 10
153.697083
 20
-628.89125
 30
0.0
 11
153.697083
 21
-624.14125
 31
0.0
  0
LINE
  8
1
  6
CONTINUOUS
 62
     3
  5
31E
 10
151.508417
 20
-624.14125
 30
0.0
 11
152.197083
 21
-624.14125
 31
0.0
  0
LINE
  8
1
  6
CONTINUOUS
 62
     3
  5
31F
 10
153.697083
 20
-624.14125
 30
0.0
 11
154.385667
 21
-624.14125
 31
0.0
  0
LINE
  8
1
  6
CONTINUOUS
 62
     3
  5
320
 10
151.697083
 20
-631.14125
 30
0.0
 11
154.197083
 21
-631.14125
 31
0.0
  0
LINE
  8
1
  6
CONTINUOUS
 62
     3
  5
321
 10
151.697083
 20
-631.14125
 30
0.0
 11
151.697083
 21
-629.89125
 31
0.0
  0
LINE
  8
1
  6
CONTINUOUS
 62
     3
  5
322
 10
154.197083
 20
-631.14125
 30
0.0
 11
154.197083
 21
-629.89125
 31
0.0
  0
LINE
  8
1
  6
CONTINUOUS
 62
     7
  5
323
 10
152.947083
 20
-625.51625
 30
0.0
 11
152.947083
 21
-620.64125
 31
0.0
  0
LINE
  8
1
  6
CONTINUOUS
 62
     7
  5
324
 10
152.947083
 20
-632.39125
 30
0.0
 11
152.947083
 21
-627.51625
 31
0.0
  0
LINE
  8
1
  6
CONTINUOUS
 62
     7
  5
325
 10
152.947083
 20
-627.01625
 30
0.0
 11
152.947083
 21
-626.01625
 31
0.0
  0
LINE
  8
1
  6
CONTINUOUS
 62
     7
  5
326
 10
163.749667
 20
-629.89125
 30
0.0
 11
163.749667
 21
-640.795917
 31
0.0
  0
LINE
  8
1
  6
CONTINUOUS
 62
     7
  5
327
 10
163.749667
 20
-640.795917
 30
0.0
 11
169.214583
 21
-640.795917
 31
0.0
  0
INSERT
  8
1
  6
CONTINUOUS
 62
     1
  5
328
  2
LDR
 10
163.749667
 20
-629.89125
 30
0.0
 41
240.0
 42
240.0
 50
90.0
210
0.0
220
0.0
230
1.0
  0
LINE
  8
1
  6
CONTINUOUS
 62
     3
  5
329
 10
249.528
 20
-468.224083
 30
0.0
 11
296.528
 21
-468.224083
 31
0.0
  0
LINE
  8
1
  6
CONTINUOUS
 62
     3
  5
32A
 10
249.528
 20
-515.224083
 30
0.0
 11
296.528
 21
-515.224083
 31
0.0
  0
LINE
  8
1
  6
CONTINUOUS
 62
     3
  5
32B
 10
249.528
 20
-468.224083
 30
0.0
 11
249.528
 21
-515.224083
 31
0.0
  0
LINE
  8
1
  6
CONTINUOUS
 62
     3
  5
32C
 10
296.528
 20
-468.224083
 30
0.0
 11
296.528
 21
-515.224083
 31
0.0
  0
CIRCLE
  8
1
  6
CONTINUOUS
 62
     3
  5
32D
 10
273.028
 20
-476.224083
 30
0.0
 40
0.875
210
0.0
220
0.0
230
1.0
  0
CIRCLE
  8
1
  6
CONTINUOUS
 62
     3
  5
32E
 10
273.028
 20
-507.224083
 30
0.0
 40
0.875
210
0.0
220
0.0
230
1.0
  0
CIRCLE
  8
1
  6
CONTINUOUS
 62
     3
  5
32F
 10
257.528
 20
-491.724083
 30
0.0
 40
0.875
210
0.0
220
0.0
230
1.0
  0
CIRCLE
  8
1
  6
CONTINUOUS
 62
     3
  5
330
 10
288.528
 20
-491.724083
 30
0.0
 40
0.875
210
0.0
220
0.0
230
1.0
  0
LINE
  8
1
  6
CONTINUOUS
 62
     7
  5
331
 10
273.028
 20
-460.224083
 30
0.0
 11
273.028
 21
-474.349083
 31
0.0
  0
LINE
  8
1
  6
CONTINUOUS
 62
     7
  5
332
 10
272.403
 20
-476.224083
 30
0.0
 11
273.653
 21
-476.224083
 31
0.0
  0
LINE
  8
1
  6
CONTINUOUS
 62
     7
  5
333
 10
274.903
 20
-476.224083
 30
0.0
 11
304.528
 21
-476.224083
 31
0.0
  0
LINE
  8
1
  6
CONTINUOUS
 62
     7
  5
334
 10
273.028
 20
-475.599083
 30
0.0
 11
273.028
 21
-476.849083
 31
0.0
  0
LINE
  8
1
  6
CONTINUOUS
 62
     7
  5
335
 10
256.903
 20
-491.724083
 30
0.0
 11
258.153
 21
-491.724083
 31
0.0
  0
LINE
  8
1
  6
CONTINUOUS
 62
     7
  5
336
 10
257.528
 20
-460.224083
 30
0.0
 11
257.528
 21
-489.849083
 31
0.0
  0
LINE
  8
1
  6
CONTINUOUS
 62
     7
  5
337
 10
257.528
 20
-491.099083
 30
0.0
 11
257.528
 21
-492.349083
 31
0.0
  0
LINE
  8
1
  6
CONTINUOUS
 62
     7
  5
338
 10
273.028
 20
-506.599083
 30
0.0
 11
273.028
 21
-507.849083
 31
0.0
  0
LINE
  8
1
  6
CONTINUOUS
 62
     7
  5
339
 10
273.028
 20
-509.099083
 30
0.0
 11
273.028
 21
-520.224083
 31
0.0
  0
LINE
  8
1
  6
CONTINUOUS
 62
     7
  5
33A
 10
272.403
 20
-507.224083
 30
0.0
 11
273.653
 21
-507.224083
 31
0.0
  0
LINE
  8
1
  6
CONTINUOUS
 62
     7
  5
33B
 10
274.903
 20
-507.224083
 30
0.0
 11
304.528
 21
-507.224083
 31
0.0
  0
LINE
  8
1
  6
CONTINUOUS
 62
     7
  5
33C
 10
288.528
 20
-460.224083
 30
0.0
 11
288.528
 21
-489.849083
 31
0.0
  0
LINE
  8
1
  6
CONTINUOUS
 62
     7
  5
33D
 10
259.403
 20
-491.724083
 30
0.0
 11
286.653
 21
-491.724083
 31
0.0
  0
LINE
  8
1
  6
CONTINUOUS
 62
     7
  5
33E
 10
288.528
 20
-491.099083
 30
0.0
 11
288.528
 21
-492.349083
 31
0.0
  0
LINE
  8
1
  6
CONTINUOUS
 62
     7
  5
33F
 10
287.903
 20
-491.724083
 30
0.0
 11
289.153
 21
-491.724083
 31
0.0
  0
LINE
  8
1
  6
CONTINUOUS
 62
     7
  5
340
 10
290.403
 20
-491.724083
 30
0.0
 11
304.528
 21
-491.724083
 31
0.0
  0
LINE
  8
1
  6
CONTINUOUS
 62
     7
  5
341
 10
271.153
 20
-476.224083
 30
0.0
 11
266.153
 21
-476.224083
 31
0.0
  0
LINE
  8
1
  6
CONTINUOUS
 62
     7
  5
342
 10
271.153
 20
-507.224083
 30
0.0
 11
266.153
 21
-507.224083
 31
0.0
  0
LINE
  8
1
  6
CONTINUOUS
 62
     7
  5
343
 10
257.528
 20
-493.599083
 30
0.0
 11
257.528
 21
-498.599083
 31
0.0
  0
LINE
  8
1
  6
CONTINUOUS
 62
     7
  5
344
 10
288.528
 20
-493.599083
 30
0.0
 11
288.528
 21
-498.599083
 31
0.0
  0
LINE
  8
1
  6
CONTINUOUS
 62
     7
  5
345
 10
255.653
 20
-491.724083
 30
0.0
 11
250.653
 21
-491.724083
 31
0.0
  0
LINE
  8
1
  6
CONTINUOUS
 62
     7
  5
346
 10
273.028
 20
-478.099083
 30
0.0
 11
273.028
 21
-489.724083
 31
0.0
  0
LINE
  8
1
  6
CONTINUOUS
 62
     7
  5
347
 10
273.028
 20
-490.724083
 30
0.0
 11
273.028
 21
-492.724083
 31
0.0
  0
LINE
  8
1
  6
CONTINUOUS
 62
     7
  5
348
 10
273.028
 20
-493.724083
 30
0.0
 11
273.028
 21
-505.349083
 31
0.0
  0
LINE
  8
1
  6
CONTINUOUS
 62
     7
  5
349
 10
257.528
 20
-461.224083
 30
0.0
 11
273.028
 21
-461.224083
 31
0.0
  0
LINE
  8
1
  6
CONTINUOUS
 62
     7
  5
34A
 10
273.028
 20
-461.224083
 30
0.0
 11
288.528
 21
-461.224083
 31
0.0
  0
LINE
  8
1
  6
CONTINUOUS
 62
     7
  5
34B
 10
303.528
 20
-476.224083
 30
0.0
 11
303.528
 21
-491.724083
 31
0.0
  0
LINE
  8
1
  6
CONTINUOUS
 62
     7
  5
34C
 10
303.528
 20
-491.724083
 30
0.0
 11
303.528
 21
-507.224083
 31
0.0
  0
LINE
  8
1
  6
CONTINUOUS
 62
     7
  5
34D
 10
121.85125
 20
-492.435083
 30
0.0
 11
121.85125
 21
-461.435083
 31
0.0
  0
LINE
  8
1
  6
CONTINUOUS
 62
     7
  5
34E
 10
121.85125
 20
-462.435083
 30
0.0
 11
152.85125
 21
-462.435083
 31
0.0
  0
LINE
  8
1
  6
CONTINUOUS
 62
     7
  5
34F
 10
193.635833
 20
-477.435083
 30
0.0
 11
193.635833
 21
-500.435083
 31
0.0
  0
LINE
  8
1
  6
CONTINUOUS
 62
     7
  5
350
 10
193.635833
 20
-500.435083
 30
0.0
 11
193.635833
 21
-523.435083
 31
0.0
  0
INSERT
  8
1
  6
CONTINUOUS
 62
     1
  5
351
  2
LDR
 10
121.85125
 20
-462.435083
 30
0.0
 41
240.0
 42
240.0
 50
180.0
210
0.0
220
0.0
230
1.0
  0
INSERT
  8
1
  6
CONTINUOUS
 62
     1
  5
352
  2
LDR
 10
121.85125
 20
-462.435083
 30
0.0
 41
240.0
 42
240.0
 50
180.0
210
0.0
220
0.0
230
1.0
  0
INSERT
  8
1
  6
CONTINUOUS
 62
     1
  5
353
  2
LDR
 10
152.85125
 20
-462.435083
 30
0.0
 41
240.0
 42
240.0
210
0.0
220
0.0
230
1.0
  0
INSERT
  8
1
  6
CONTINUOUS
 62
     1
  5
354
  2
LDR
 10
152.85125
 20
-462.435083
 30
0.0
 41
240.0
 42
240.0
210
0.0
220
0.0
230
1.0
  0
INSERT
  8
1
  6
CONTINUOUS
 62
     1
  5
355
  2
LDR
 10
193.635833
 20
-477.435083
 30
0.0
 41
240.0
 42
240.0
 50
90.0
210
0.0
220
0.0
230
1.0
  0
INSERT
  8
1
  6
CONTINUOUS
 62
     1
  5
356
  2
LDR
 10
193.635833
 20
-477.435083
 30
0.0
 41
240.0
 42
240.0
 50
90.0
210
0.0
220
0.0
230
1.0
  0
INSERT
  8
1
  6
CONTINUOUS
 62
     1
  5
357
  2
LDR
 10
193.635833
 20
-500.435083
 30
0.0
 41
240.0
 42
240.0
 50
270.0
210
0.0
220
0.0
230
1.0
  0
INSERT
  8
1
  6
CONTINUOUS
 62
     1
  5
358
  2
LDR
 10
193.635833
 20
-500.435083
 30
0.0
 41
240.0
 42
240.0
 50
270.0
210
0.0
220
0.0
230
1.0
  0
INSERT
  8
1
  6
CONTINUOUS
 62
     1
  5
359
  2
LDR
 10
193.635833
 20
-500.435083
 30
0.0
 41
240.0
 42
240.0
 50
90.0
210
0.0
220
0.0
230
1.0
  0
INSERT
  8
1
  6
CONTINUOUS
 62
     1
  5
35A
  2
LDR
 10
193.635833
 20
-500.435083
 30
0.0
 41
240.0
 42
240.0
 50
90.0
210
0.0
220
0.0
230
1.0
  0
INSERT
  8
1
  6
CONTINUOUS
 62
     1
  5
35B
  2
LDR
 10
193.635833
 20
-523.435083
 30
0.0
 41
240.0
 42
240.0
 50
270.0
210
0.0
220
0.0
230
1.0
  0
LINE
  8
1
  6
CONTINUOUS
 62
     7
  5
35C
 10
77.772667
 20
-560.713583
 30
0.0
 11
68.626583
 21
-560.713583
 31
0.0
  0
INSERT
  8
1
  6
CONTINUOUS
 62
     1
  5
35D
  2
LDR
 10
77.772667
 20
-560.713583
 30
0.0
 41
240.0
 42
240.0
210
0.0
220
0.0
230
1.0
  0
LINE
  8
1
  6
CONTINUOUS
 62
     7
  5
35E
 10
207.833833
 20
-561.906667
 30
0.0
 11
198.68775
 21
-561.906667
 31
0.0
  0
INSERT
  8
1
  6
CONTINUOUS
 62
     1
  5
35F
  2
LDR
 10
207.833833
 20
-561.906667
 30
0.0
 41
240.0
 42
240.0
210
0.0
220
0.0
230
1.0
  0
INSERT
  8
1
  6
CONTINUOUS
 62
     1
  5
360
  2
LDR
 10
257.528
 20
-461.224083
 30
0.0
 41
240.0
 42
240.0
 50
180.0
210
0.0
220
0.0
230
1.0
  0
INSERT
  8
1
  6
CONTINUOUS
 62
     1
  5
361
  2
LDR
 10
257.528
 20
-461.224083
 30
0.0
 41
240.0
 42
240.0
 50
180.0
210
0.0
220
0.0
230
1.0
  0
INSERT
  8
1
  6
CONTINUOUS
 62
     1
  5
362
  2
LDR
 10
273.028
 20
-461.224083
 30
0.0
 41
240.0
 42
240.0
210
0.0
220
0.0
230
1.0
  0
INSERT
  8
1
  6
CONTINUOUS
 62
     1
  5
363
  2
LDR
 10
273.028
 20
-461.224083
 30
0.0
 41
240.0
 42
240.0
210
0.0
220
0.0
230
1.0
  0
INSERT
  8
1
  6
CONTINUOUS
 62
     1
  5
364
  2
LDR
 10
273.028
 20
-461.224083
 30
0.0
 41
240.0
 42
240.0
 50
180.0
210
0.0
220
0.0
230
1.0
  0
INSERT
  8
1
  6
CONTINUOUS
 62
     1
  5
365
  2
LDR
 10
273.028
 20
-461.224083
 30
0.0
 41
240.0
 42
240.0
 50
180.0
210
0.0
220
0.0
230
1.0
  0
INSERT
  8
1
  6
CONTINUOUS
 62
     1
  5
366
  2
LDR
 10
288.528
 20
-461.224083
 30
0.0
 41
240.0
 42
240.0
210
0.0
220
0.0
230
1.0
  0
INSERT
  8
1
  6
CONTINUOUS
 62
     1
  5
367
  2
LDR
 10
288.528
 20
-461.224083
 30
0.0
 41
240.0
 42
240.0
210
0.0
220
0.0
230
1.0
  0
INSERT
  8
1
  6
CONTINUOUS
 62
     1
  5
368
  2
LDR
 10
303.528
 20
-476.224083
 30
0.0
 41
240.0
 42
240.0
 50
90.0
210
0.0
220
0.0
230
1.0
  0
INSERT
  8
1
  6
CONTINUOUS
 62
     1
  5
369
  2
LDR
 10
303.528
 20
-476.224083
 30
0.0
 41
240.0
 42
240.0
 50
90.0
210
0.0
220
0.0
230
1.0
  0
INSERT
  8
1
  6
CONTINUOUS
 62
     1
  5
36A
  2
LDR
 10
303.528
 20
-491.724083
 30
0.0
 41
240.0
 42
240.0
 50
270.0
210
0.0
220
0.0
230
1.0
  0
INSERT
  8
1
  6
CONTINUOUS
 62
     1
  5
36B
  2
LDR
 10
303.528
 20
-491.724083
 30
0.0
 41
240.0
 42
240.0
 50
270.0
210
0.0
220
0.0
230
1.0
  0
INSERT
  8
1
  6
CONTINUOUS
 62
     1
  5
36C
  2
LDR
 10
303.528
 20
-491.724083
 30
0.0
 41
240.0
 42
240.0
 50
90.0
210
0.0
220
0.0
230
1.0
  0
INSERT
  8
1
  6
CONTINUOUS
 62
     1
  5
36D
  2
LDR
 10
303.528
 20
-491.724083
 30
0.0
 41
240.0
 42
240.0
 50
90.0
210
0.0
220
0.0
230
1.0
  0
INSERT
  8
1
  6
CONTINUOUS
 62
     1
  5
36E
  2
LDR
 10
303.528
 20
-507.224083
 30
0.0
 41
240.0
 42
240.0
 50
270.0
210
0.0
220
0.0
230
1.0
  0
LINE
  8
1
  6
CONTINUOUS
 62
     3
  5
36F
 10
249.528
 20
-543.224083
 30
0.0
 11
296.528
 21
-543.224083
 31
0.0
  0
LINE
  8
1
  6
CONTINUOUS
 62
     3
  5
370
 10
249.528
 20
-590.224083
 30
0.0
 11
296.528
 21
-590.224083
 31
0.0
  0
LINE
  8
1
  6
CONTINUOUS
 62
     3
  5
371
 10
249.528
 20
-543.224083
 30
0.0
 11
249.528
 21
-590.224083
 31
0.0
  0
LINE
  8
1
  6
CONTINUOUS
 62
     3
  5
372
 10
296.528
 20
-543.224083
 30
0.0
 11
296.528
 21
-590.224083
 31
0.0
  0
CIRCLE
  8
1
  6
CONTINUOUS
 62
     3
  5
373
 10
273.028
 20
-551.224083
 30
0.0
 40
0.875
210
0.0
220
0.0
230
1.0
  0
CIRCLE
  8
1
  6
CONTINUOUS
 62
     3
  5
374
 10
273.028
 20
-582.224083
 30
0.0
 40
0.875
210
0.0
220
0.0
230
1.0
  0
CIRCLE
  8
1
  6
CONTINUOUS
 62
     3
  5
375
 10
257.528
 20
-566.724083
 30
0.0
 40
0.875
210
0.0
220
0.0
230
1.0
  0
CIRCLE
  8
1
  6
CONTINUOUS
 62
     3
  5
376
 10
288.528
 20
-566.724083
 30
0.0
 40
0.875
210
0.0
220
0.0
230
1.0
  0
LINE
  8
1
  6
CONTINUOUS
 62
     7
  5
377
 10
272.403
 20
-551.224083
 30
0.0
 11
273.653
 21
-551.224083
 31
0.0
  0
LINE
  8
1
  6
CONTINUOUS
 62
     7
  5
378
 10
273.028
 20
-550.599083
 30
0.0
 11
273.028
 21
-551.849083
 31
0.0
  0
LINE
  8
1
  6
CONTINUOUS
 62
     7
  5
379
 10
256.903
 20
-566.724083
 30
0.0
 11
258.153
 21
-566.724083
 31
0.0
  0
LINE
  8
1
  6
CONTINUOUS
 62
     7
  5
37A
 10
257.528
 20
-566.099083
 30
0.0
 11
257.528
 21
-567.349083
 31
0.0
  0
LINE
  8
1
  6
CONTINUOUS
 62
     7
  5
37B
 10
273.028
 20
-581.599083
 30
0.0
 11
273.028
 21
-582.849083
 31
0.0
  0
LINE
  8
1
  6
CONTINUOUS
 62
     7
  5
37C
 10
272.403
 20
-582.224083
 30
0.0
 11
273.653
 21
-582.224083
 31
0.0
  0
LINE
  8
1
  6
CONTINUOUS
 62
     7
  5
37D
 10
288.528
 20
-566.099083
 30
0.0
 11
288.528
 21
-567.349083
 31
0.0
  0
LINE
  8
1
  6
CONTINUOUS
 62
     7
  5
37E
 10
287.903
 20
-566.724083
 30
0.0
 11
289.153
 21
-566.724083
 31
0.0
  0
LINE
  8
1
  6
CONTINUOUS
 62
     7
  5
37F
 10
271.153
 20
-551.224083
 30
0.0
 11
266.153
 21
-551.224083
 31
0.0
  0
LINE
  8
1
  6
CONTINUOUS
 62
     7
  5
380
 10
271.153
 20
-582.224083
 30
0.0
 11
266.153
 21
-582.224083
 31
0.0
  0
LINE
  8
1
  6
CONTINUOUS
 62
     7
  5
381
 10
257.528
 20
-568.599083
 30
0.0
 11
257.528
 21
-573.599083
 31
0.0
  0
LINE
  8
1
  6
CONTINUOUS
 62
     7
  5
382
 10
288.528
 20
-568.599083
 30
0.0
 11
288.528
 21
-573.599083
 31
0.0
  0
LINE
  8
1
  6
CONTINUOUS
 62
     7
  5
383
 10
255.653
 20
-566.724083
 30
0.0
 11
250.653
 21
-566.724083
 31
0.0
  0
LINE
  8
1
  6
CONTINUOUS
 62
     7
  5
384
 10
273.028
 20
-553.099083
 30
0.0
 11
273.028
 21
-564.724083
 31
0.0
  0
LINE
  8
1
  6
CONTINUOUS
 62
     7
  5
385
 10
273.028
 20
-565.724083
 30
0.0
 11
273.028
 21
-567.724083
 31
0.0
  0
LINE
  8
1
  6
CONTINUOUS
 62
     7
  5
386
 10
273.028
 20
-568.724083
 30
0.0
 11
273.028
 21
-580.349083
 31
0.0
  0
LINE
  8
1
  6
CONTINUOUS
 62
     7
  5
387
 10
257.528
 20
-559.849083
 30
0.0
 11
257.528
 21
-564.849083
 31
0.0
  0
LINE
  8
1
  6
CONTINUOUS
 62
     7
  5
388
 10
288.528
 20
-559.849083
 30
0.0
 11
288.528
 21
-564.849083
 31
0.0
  0
LINE
  8
1
  6
CONTINUOUS
 62
     7
  5
389
 10
273.028
 20
-544.349083
 30
0.0
 11
273.028
 21
-549.349083
 31
0.0
  0
LINE
  8
1
  6
CONTINUOUS
 62
     7
  5
38A
 10
279.903
 20
-551.224083
 30
0.0
 11
274.903
 21
-551.224083
 31
0.0
  0
LINE
  8
1
  6
CONTINUOUS
 62
     7
  5
38B
 10
295.403
 20
-566.724083
 30
0.0
 11
290.403
 21
-566.724083
 31
0.0
  0
LINE
  8
1
  6
CONTINUOUS
 62
     7
  5
38C
 10
279.903
 20
-582.224083
 30
0.0
 11
274.903
 21
-582.224083
 31
0.0
  0
LINE
  8
1
  6
CONTINUOUS
 62
     7
  5
38D
 10
273.028
 20
-584.099083
 30
0.0
 11
273.028
 21
-607.44625
 31
0.0
  0
LINE
  8
1
  6
CONTINUOUS
 62
     7
  5
38E
 10
264.403
 20
-566.724083
 30
0.0
 11
259.403
 21
-566.724083
 31
0.0
  0
LINE
  8
1
  6
CONTINUOUS
 62
     7
  5
38F
 10
286.653
 20
-566.724083
 30
0.0
 11
281.653
 21
-566.724083
 31
0.0
  0
LINE
  8
1
  6
DASHED
 62
     3
  5
390
 10
269.028
 20
-547.224083
 30
0.0
 11
277.028
 21
-547.224083
 31
0.0
  0
LINE
  8
1
  6
DASHED
 62
     3
  5
391
 10
269.028
 20
-547.224083
 30
0.0
 11
269.028
 21
-590.224083
 31
0.0
  0
LINE
  8
1
  6
DASHED
 62
     3
  5
392
 10
277.028
 20
-547.224083
 30
0.0
 11
277.028
 21
-590.224083
 31
0.0
  0
LINE
  8
1
  6
DASHED
 62
     3
  5
393
 10
271.028
 20
-547.224083
 30
0.0
 11
271.028
 21
-590.224083
 31
0.0
  0
LINE
  8
1
  6
DASHED
 62
     3
  5
394
 10
275.028
 20
-547.224083
 30
0.0
 11
275.028
 21
-590.224083
 31
0.0
  0
LINE
  8
1
  6
CONTINUOUS
 62
     3
  5
395
 10
269.028
 20
-590.224083
 30
0.0
 11
269.028
 21
-605.224083
 31
0.0
  0
LINE
  8
1
  6
CONTINUOUS
 62
     3
  5
396
 10
271.028
 20
-590.224083
 30
0.0
 11
271.028
 21
-605.224083
 31
0.0
  0
LINE
  8
1
  6
CONTINUOUS
 62
     3
  5
397
 10
275.028
 20
-590.224083
 30
0.0
 11
275.028
 21
-605.224083
 31
0.0
  0
LINE
  8
1
  6
CONTINUOUS
 62
     3
  5
398
 10
277.028
 20
-590.224083
 30
0.0
 11
277.028
 21
-605.224083
 31
0.0
  0
LINE
  8
1
  6
CONTINUOUS
 62
     3
  5
399
 10
329.528
 20
-543.224083
 30
0.0
 11
329.528
 21
-590.224083
 31
0.0
  0
LINE
  8
1
  6
CONTINUOUS
 62
     3
  5
39A
 10
330.528
 20
-543.224083
 30
0.0
 11
330.528
 21
-590.224083
 31
0.0
  0
LINE
  8
1
  6
CONTINUOUS
 62
     3
  5
39B
 10
329.528
 20
-543.224083
 30
0.0
 11
330.528
 21
-543.224083
 31
0.0
  0
LINE
  8
1
  6
CONTINUOUS
 62
     3
  5
39C
 10
329.528
 20
-590.224083
 30
0.0
 11
330.528
 21
-590.224083
 31
0.0
  0
LINE
  8
1
  6
CONTINUOUS
 62
     3
  5
39D
 10
331.528
 20
-548.224083
 30
0.0
 11
331.528
 21
-605.224083
 31
0.0
  0
LINE
  8
1
  6
CONTINUOUS
 62
     3
  5
39E
 10
337.528
 20
-548.224083
 30
0.0
 11
337.528
 21
-605.224083
 31
0.0
  0
LINE
  8
1
  6
CONTINUOUS
 62
     3
  5
39F
 10
331.528
 20
-548.224083
 30
0.0
 11
337.528
 21
-548.224083
 31
0.0
  0
LINE
  8
1
  6
CONTINUOUS
 62
     3
  5
3A0
 10
332.778
 20
-548.224083
 30
0.0
 11
332.778
 21
-605.224083
 31
0.0
  0
LINE
  8
1
  6
DASHED
 62
     3
  5
3A1
 10
336.278
 20
-548.224083
 30
0.0
 11
336.278
 21
-605.224083
 31
0.0
  0
LINE
  8
1
  6
HIDDEN
 62
     3
  5
3A2
 10
331.528
 20
-550.599083
 30
0.0
 11
337.528
 21
-550.599083
 31
0.0
  0
LINE
  8
1
  6
HIDDEN
 62
     3
  5
3A3
 10
331.528
 20
-551.849083
 30
0.0
 11
337.528
 21
-551.849083
 31
0.0
  0
LINE
  8
1
  6
HIDDEN
 62
     3
  5
3A4
 10
331.528
 20
-581.599083
 30
0.0
 11
337.528
 21
-581.599083
 31
0.0
  0
LINE
  8
1
  6
HIDDEN
 62
     3
  5
3A5
 10
331.528
 20
-582.849083
 30
0.0
 11
337.528
 21
-582.849083
 31
0.0
  0
LINE
  8
1
  6
CONTINUOUS
 62
     3
  5
3A6
 10
328.278
 20
-550.224083
 30
0.0
 11
329.528
 21
-550.224083
 31
0.0
  0
LINE
  8
1
  6
CONTINUOUS
 62
     3
  5
3A7
 10
337.528
 20
-550.224083
 30
0.0
 11
338.778
 21
-550.224083
 31
0.0
  0
LINE
  8
1
  6
CONTINUOUS
 62
     3
  5
3A8
 10
328.278
 20
-552.224083
 30
0.0
 11
329.528
 21
-552.224083
 31
0.0
  0
LINE
  8
1
  6
CONTINUOUS
 62
     3
  5
3A9
 10
337.528
 20
-552.224083
 30
0.0
 11
338.778
 21
-552.224083
 31
0.0
  0
LINE
  8
1
  6
CONTINUOUS
 62
     3
  5
3AA
 10
338.778
 20
-550.224083
 30
0.0
 11
338.778
 21
-552.224083
 31
0.0
  0
LINE
  8
1
  6
CONTINUOUS
 62
     3
  5
3AB
 10
328.278
 20
-550.224083
 30
0.0
 11
328.278
 21
-552.224083
 31
0.0
  0
LINE
  8
1
  6
CONTINUOUS
 62
     7
  5
3AC
 10
327.278
 20
-551.224083
 30
0.0
 11
329.028
 21
-551.224083
 31
0.0
  0
LINE
  8
1
  6
CONTINUOUS
 62
     7
  5
3AD
 10
338.028
 20
-551.224083
 30
0.0
 11
339.778
 21
-551.224083
 31
0.0
  0
LINE
  8
1
  6
CONTINUOUS
 62
     3
  5
3AE
 10
328.278
 20
-581.224083
 30
0.0
 11
328.278
 21
-583.224083
 31
0.0
  0
LINE
  8
1
  6
CONTINUOUS
 62
     3
  5
3AF
 10
328.278
 20
-581.224083
 30
0.0
 11
329.528
 21
-581.224083
 31
0.0
  0
LINE
  8
1
  6
CONTINUOUS
 62
     3
  5
3B0
 10
337.528
 20
-581.224083
 30
0.0
 11
338.778
 21
-581.224083
 31
0.0
  0
LINE
  8
1
  6
CONTINUOUS
 62
     3
  5
3B1
 10
328.278
 20
-583.224083
 30
0.0
 11
329.528
 21
-583.224083
 31
0.0
  0
LINE
  8
1
  6
CONTINUOUS
 62
     3
  5
3B2
 10
337.528
 20
-583.224083
 30
0.0
 11
338.778
 21
-583.224083
 31
0.0
  0
LINE
  8
1
  6
CONTINUOUS
 62
     3
  5
3B3
 10
338.778
 20
-581.224083
 30
0.0
 11
338.778
 21
-583.224083
 31
0.0
  0
LINE
  8
1
  6
CONTINUOUS
 62
     7
  5
3B4
 10
327.278
 20
-582.224083
 30
0.0
 11
329.028
 21
-582.224083
 31
0.0
  0
LINE
  8
1
  6
CONTINUOUS
 62
     7
  5
3B5
 10
338.028
 20
-582.224083
 30
0.0
 11
339.778
 21
-582.224083
 31
0.0
  0
LINE
  8
1
  6
CONTINUOUS
 62
     7
  5
3B6
 10
324.528
 20
-566.724083
 30
0.0
 11
332.778
 21
-566.724083
 31
0.0
  0
LINE
  8
1
  6
CONTINUOUS
 62
     7
  5
3B7
 10
336.278
 20
-566.724083
 30
0.0
 11
342.528
 21
-566.724083
 31
0.0
  0
LINE
  8
1
  6
CONTINUOUS
 62
     7
  5
3B8
 10
332.778
 20
-566.724083
 30
0.0
 11
333.528
 21
-566.724083
 31
0.0
  0
LINE
  8
1
  6
CONTINUOUS
 62
     7
  5
3B9
 10
334.028
 20
-566.724083
 30
0.0
 11
335.028
 21
-566.724083
 31
0.0
  0
LINE
  8
1
  6
CONTINUOUS
 62
     7
  5
3BA
 10
335.528
 20
-566.724083
 30
0.0
 11
336.278
 21
-566.724083
 31
0.0
  0
LINE
  8
1
  6
CONTINUOUS
 62
     7
  5
3BB
 10
331.528
 20
-543.224083
 30
0.0
 11
358.528
 21
-543.224083
 31
0.0
  0
LINE
  8
1
  6
CONTINUOUS
 62
     7
  5
3BC
 10
338.528
 20
-548.224083
 30
0.0
 11
358.528
 21
-548.224083
 31
0.0
  0
LINE
  8
1
  6
CONTINUOUS
 62
     7
  5
3BD
 10
357.528
 20
-538.224083
 30
0.0
 11
357.528
 21
-543.224083
 31
0.0
  0
LINE
  8
1
  6
CONTINUOUS
 62
     7
  5
3BE
 10
357.528
 20
-548.224083
 30
0.0
 11
357.528
 21
-553.224083
 31
0.0
  0
INSERT
  8
1
  6
CONTINUOUS
 62
     1
  5
3BF
  2
LDR
 10
357.528
 20
-543.224083
 30
0.0
 41
240.0
 42
240.0
 50
270.0
210
0.0
220
0.0
230
1.0
  0
INSERT
  8
1
  6
CONTINUOUS
 62
     1
  5
3C0
  2
LDR
 10
357.528
 20
-548.224083
 30
0.0
 41
240.0
 42
240.0
 50
90.0
210
0.0
220
0.0
230
1.0
  0
LINE
  8
1
  6
CONTINUOUS
 62
     7
  5
3C1
 10
329.4865
 20
-559.357917
 30
0.0
 11
320.340417
 21
-559.357917
 31
0.0
  0
INSERT
  8
1
  6
CONTINUOUS
 62
     1
  5
3C2
  2
LDR
 10
329.4865
 20
-559.357917
 30
0.0
 41
240.0
 42
240.0
210
0.0
220
0.0
230
1.0
  0
LINE
  8
1
  6
CONTINUOUS
 62
     3
  5
3C3
 10
249.528
 20
-624.474083
 30
0.0
 11
296.528
 21
-624.474083
 31
0.0
  0
LINE
  8
1
  6
CONTINUOUS
 62
     3
  5
3C4
 10
249.528
 20
-625.474083
 30
0.0
 11
296.528
 21
-625.474083
 31
0.0
  0
LINE
  8
1
  6
CONTINUOUS
 62
     3
  5
3C5
 10
249.528
 20
-624.474083
 30
0.0
 11
249.528
 21
-625.474083
 31
0.0
  0
LINE
  8
1
  6
CONTINUOUS
 62
     3
  5
3C6
 10
296.528
 20
-624.474083
 30
0.0
 11
296.528
 21
-625.474083
 31
0.0
  0
LINE
  8
1
  6
CONTINUOUS
 62
     3
  5
3C7
 10
271.778
 20
-617.474083
 30
0.0
 11
274.278
 21
-617.474083
 31
0.0
  0
LINE
  8
1
  6
CONTINUOUS
 62
     3
  5
3C8
 10
271.778
 20
-617.474083
 30
0.0
 11
271.778
 21
-618.724083
 31
0.0
  0
LINE
  8
1
  6
CONTINUOUS
 62
     3
  5
3C9
 10
274.278
 20
-617.474083
 30
0.0
 11
274.278
 21
-618.724083
 31
0.0
  0
LINE
  8
1
  6
CONTINUOUS
 62
     3
  5
3CA
 10
270.980833
 20
-618.724083
 30
0.0
 11
275.075167
 21
-618.724083
 31
0.0
  0
LINE
  8
1
  6
CONTINUOUS
 62
     3
  5
3CB
 10
270.736167
 20
-618.922583
 30
0.0
 11
269.819833
 21
-623.275583
 31
0.0
  0
LINE
  8
1
  6
CONTINUOUS
 62
     3
  5
3CC
 10
275.31975
 20
-618.922583
 30
0.0
 11
276.236167
 21
-623.275583
 31
0.0
  0
LINE
  8
1
  6
CONTINUOUS
 62
     3
  5
3CD
 10
268.778
 20
-623.474083
 30
0.0
 11
268.778
 21
-624.474083
 31
0.0
  0
LINE
  8
1
  6
CONTINUOUS
 62
     3
  5
3CE
 10
277.278
 20
-623.474083
 30
0.0
 11
277.278
 21
-624.474083
 31
0.0
  0
LINE
  8
1
  6
CONTINUOUS
 62
     3
  5
3CF
 10
271.589333
 20
-619.724083
 30
0.0
 11
270.589333
 21
-624.474083
 31
0.0
  0
LINE
  8
1
  6
CONTINUOUS
 62
     3
  5
3D0
 10
274.466583
 20
-619.724083
 30
0.0
 11
275.466583
 21
-624.474083
 31
0.0
  0
LINE
  8
1
  6
CONTINUOUS
 62
     3
  5
3D1
 10
268.778
 20
-623.474083
 30
0.0
 11
269.575167
 21
-623.474083
 31
0.0
  0
LINE
  8
1
  6
CONTINUOUS
 62
     3
  5
3D2
 10
276.480833
 20
-623.474083
 30
0.0
 11
277.278
 21
-623.474083
 31
0.0
  0
ARC
  8
1
  6
CONTINUOUS
 62
     3
  5
3D3
 10
269.575156
 20
-623.224083
 30
0.0
 40
0.25
 50
270.0
 51
348.111364
210
0.0
220
0.0
230
1.0
  0
ARC
  8
1
  6
CONTINUOUS
 62
     3
  5
3D4
 10
276.480837
 20
-623.224083
 30
0.0
 40
0.25
 50
191.889017
 51
270.0
210
0.0
220
0.0
230
1.0
  0
ARC
  8
1
  6
CONTINUOUS
 62
     3
  5
3D5
 10
270.98084
 20
-618.974083
 30
0.0
 40
0.25
 50
90.0
 51
168.109056
210
0.0
220
0.0
230
1.0
  0
ARC
  8
1
  6
CONTINUOUS
 62
     3
  5
3D6
 10
275.075151
 20
-618.974083
 30
0.0
 40
0.25
 50
11.888658
 51
90.0
210
0.0
220
0.0
230
1.0
  0
LINE
  8
1
  6
CONTINUOUS
 62
     3
  5
3D7
 10
272.278
 20
-624.474083
 30
0.0
 11
272.278
 21
-619.724083
 31
0.0
  0
LINE
  8
1
  6
CONTINUOUS
 62
     3
  5
3D8
 10
273.778
 20
-624.474083
 30
0.0
 11
273.778
 21
-619.724083
 31
0.0
  0
LINE
  8
1
  6
CONTINUOUS
 62
     3
  5
3D9
 10
271.589333
 20
-619.724083
 30
0.0
 11
272.278
 21
-619.724083
 31
0.0
  0
LINE
  8
1
  6
CONTINUOUS
 62
     3
  5
3DA
 10
273.778
 20
-619.724083
 30
0.0
 11
274.466583
 21
-619.724083
 31
0.0
  0
LINE
  8
1
  6
CONTINUOUS
 62
     3
  5
3DB
 10
271.778
 20
-626.724083
 30
0.0
 11
274.278
 21
-626.724083
 31
0.0
  0
LINE
  8
1
  6
CONTINUOUS
 62
     3
  5
3DC
 10
271.778
 20
-626.724083
 30
0.0
 11
271.778
 21
-625.474083
 31
0.0
  0
LINE
  8
1
  6
CONTINUOUS
 62
     3
  5
3DD
 10
274.278
 20
-626.724083
 30
0.0
 11
274.278
 21
-625.474083
 31
0.0
  0
LINE
  8
1
  6
CONTINUOUS
 62
     7
  5
3DE
 10
273.028
 20
-621.099083
 30
0.0
 11
273.028
 21
-616.224083
 31
0.0
  0
LINE
  8
1
  6
CONTINUOUS
 62
     7
  5
3DF
 10
273.028
 20
-627.974083
 30
0.0
 11
273.028
 21
-623.099083
 31
0.0
  0
LINE
  8
1
  6
CONTINUOUS
 62
     7
  5
3E0
 10
273.028
 20
-622.599083
 30
0.0
 11
273.028
 21
-621.599083
 31
0.0
  0
LINE
  8
1
  6
CONTINUOUS
 62
     7
  5
3E1
 10
283.830583
 20
-625.474083
 30
0.0
 11
283.830583
 21
-636.37875
 31
0.0
  0
LINE
  8
1
  6
CONTINUOUS
 62
     7
  5
3E2
 10
283.830583
 20
-636.37875
 30
0.0
 11
289.2955
 21
-636.37875
 31
0.0
  0
INSERT
  8
1
  6
CONTINUOUS
 62
     1
  5
3E3
  2
LDR
 10
283.830583
 20
-625.474083
 30
0.0
 41
240.0
 42
240.0
 50
90.0
210
0.0
220
0.0
230
1.0
  0
LINE
  8
1
  6
CONTINUOUS
 62
     3
  5
3E4
 10
243.137833
 20
-684.974083
 30
0.0
 11
298.137833
 21
-684.974083
 31
0.0
  0
LINE
  8
1
  6
CONTINUOUS
 62
     3
  5
3E5
 10
243.137833
 20
-739.974083
 30
0.0
 11
298.137833
 21
-739.974083
 31
0.0
  0
LINE
  8
1
  6
CONTINUOUS
 62
     3
  5
3E6
 10
243.137833
 20
-684.974083
 30
0.0
 11
243.137833
 21
-739.974083
 31
0.0
  0
LINE
  8
1
  6
CONTINUOUS
 62
     3
  5
3E7
 10
298.137833
 20
-684.974083
 30
0.0
 11
298.137833
 21
-739.974083
 31
0.0
  0
LINE
  8
1
  6
CONTINUOUS
 62
     7
  5
3E8
 10
270.637833
 20
-672.974083
 30
0.0
 11
270.637833
 21
-710.474083
 31
0.0
  0
LINE
  8
1
  6
CONTINUOUS
 62
     7
  5
3E9
 10
270.637833
 20
-711.474083
 30
0.0
 11
270.637833
 21
-713.474083
 31
0.0
  0
LINE
  8
1
  6
CONTINUOUS
 62
     7
  5
3EA
 10
270.637833
 20
-714.474083
 30
0.0
 11
270.637833
 21
-743.974083
 31
0.0
  0
LINE
  8
1
  6
CONTINUOUS
 62
     7
  5
3EB
 10
238.137833
 20
-712.474083
 30
0.0
 11
254.887833
 21
-712.474083
 31
0.0
  0
LINE
  8
1
  6
CONTINUOUS
 62
     7
  5
3EC
 10
255.887833
 20
-712.474083
 30
0.0
 11
257.887833
 21
-712.474083
 31
0.0
  0
LINE
  8
1
  6
CONTINUOUS
 62
     7
  5
3ED
 10
258.887833
 20
-712.474083
 30
0.0
 11
282.387833
 21
-712.474083
 31
0.0
  0
LINE
  8
1
  6
CONTINUOUS
 62
     7
  5
3EE
 10
283.387833
 20
-712.474083
 30
0.0
 11
285.387833
 21
-712.474083
 31
0.0
  0
LINE
  8
1
  6
CONTINUOUS
 62
     7
  5
3EF
 10
286.387833
 20
-712.474083
 30
0.0
 11
310.137833
 21
-712.474083
 31
0.0
  0
CIRCLE
  8
1
  6
CONTINUOUS
 62
     3
  5
3F0
 10
254.637833
 20
-696.474083
 30
0.0
 40
0.875
210
0.0
220
0.0
230
1.0
  0
CIRCLE
  8
1
  6
CONTINUOUS
 62
     3
  5
3F1
 10
286.637833
 20
-696.474083
 30
0.0
 40
0.875
210
0.0
220
0.0
230
1.0
  0
CIRCLE
  8
1
  6
CONTINUOUS
 62
     3
  5
3F2
 10
286.637833
 20
-728.474083
 30
0.0
 40
0.875
210
0.0
220
0.0
230
1.0
  0
CIRCLE
  8
1
  6
CONTINUOUS
 62
     3
  5
3F3
 10
254.637833
 20
-728.474083
 30
0.0
 40
0.875
210
0.0
220
0.0
230
1.0
  0
LINE
  8
1
  6
CONTINUOUS
 62
     7
  5
3F4
 10
254.012833
 20
-696.474083
 30
0.0
 11
255.262833
 21
-696.474083
 31
0.0
  0
LINE
  8
1
  6
CONTINUOUS
 62
     7
  5
3F5
 10
254.637833
 20
-695.849083
 30
0.0
 11
254.637833
 21
-697.099083
 31
0.0
  0
LINE
  8
1
  6
CONTINUOUS
 62
     7
  5
3F6
 10
254.637833
 20
-694.599083
 30
0.0
 11
254.637833
 21
-689.599083
 31
0.0
  0
LINE
  8
1
  6
CONTINUOUS
 62
     7
  5
3F7
 10
252.762833
 20
-696.474083
 30
0.0
 11
247.762833
 21
-696.474083
 31
0.0
  0
LINE
  8
1
  6
CONTINUOUS
 62
     7
  5
3F8
 10
256.512833
 20
-696.474083
 30
0.0
 11
261.512833
 21
-696.474083
 31
0.0
  0
LINE
  8
1
  6
CONTINUOUS
 62
     7
  5
3F9
 10
254.637833
 20
-698.349083
 30
0.0
 11
254.637833
 21
-703.349083
 31
0.0
  0
LINE
  8
1
  6
CONTINUOUS
 62
     7
  5
3FA
 10
286.012833
 20
-696.474083
 30
0.0
 11
287.262833
 21
-696.474083
 31
0.0
  0
LINE
  8
1
  6
CONTINUOUS
 62
     7
  5
3FB
 10
286.637833
 20
-695.849083
 30
0.0
 11
286.637833
 21
-697.099083
 31
0.0
  0
LINE
  8
1
  6
CONTINUOUS
 62
     7
  5
3FC
 10
286.637833
 20
-694.599083
 30
0.0
 11
286.637833
 21
-672.974083
 31
0.0
  0
LINE
  8
1
  6
CONTINUOUS
 62
     7
  5
3FD
 10
284.762833
 20
-696.474083
 30
0.0
 11
279.762833
 21
-696.474083
 31
0.0
  0
LINE
  8
1
  6
CONTINUOUS
 62
     7
  5
3FE
 10
288.512833
 20
-696.474083
 30
0.0
 11
310.137833
 21
-696.474083
 31
0.0
  0
LINE
  8
1
  6
CONTINUOUS
 62
     7
  5
3FF
 10
286.637833
 20
-698.349083
 30
0.0
 11
286.637833
 21
-703.349083
 31
0.0
  0
LINE
  8
1
  6
CONTINUOUS
 62
     7
  5
400
 10
254.012833
 20
-728.474083
 30
0.0
 11
255.262833
 21
-728.474083
 31
0.0
  0
LINE
  8
1
  6
CONTINUOUS
 62
     7
  5
401
 10
254.637833
 20
-727.849083
 30
0.0
 11
254.637833
 21
-729.099083
 31
0.0
  0
LINE
  8
1
  6
CONTINUOUS
 62
     7
  5
402
 10
254.637833
 20
-726.599083
 30
0.0
 11
254.637833
 21
-721.599083
 31
0.0
  0
LINE
  8
1
  6
CONTINUOUS
 62
     7
  5
403
 10
252.762833
 20
-728.474083
 30
0.0
 11
247.762833
 21
-728.474083
 31
0.0
  0
LINE
  8
1
  6
CONTINUOUS
 62
     7
  5
404
 10
256.512833
 20
-728.474083
 30
0.0
 11
261.512833
 21
-728.474083
 31
0.0
  0
LINE
  8
1
  6
CONTINUOUS
 62
     7
  5
405
 10
254.637833
 20
-730.349083
 30
0.0
 11
254.637833
 21
-735.349083
 31
0.0
  0
LINE
  8
1
  6
CONTINUOUS
 62
     7
  5
406
 10
286.012833
 20
-728.474083
 30
0.0
 11
287.262833
 21
-728.474083
 31
0.0
  0
LINE
  8
1
  6
CONTINUOUS
 62
     7
  5
407
 10
286.637833
 20
-727.849083
 30
0.0
 11
286.637833
 21
-729.099083
 31
0.0
  0
LINE
  8
1
  6
CONTINUOUS
 62
     7
  5
408
 10
286.637833
 20
-726.599083
 30
0.0
 11
286.637833
 21
-721.599083
 31
0.0
  0
LINE
  8
1
  6
CONTINUOUS
 62
     7
  5
409
 10
284.762833
 20
-728.474083
 30
0.0
 11
279.762833
 21
-728.474083
 31
0.0
  0
LINE
  8
1
  6
CONTINUOUS
 62
     7
  5
40A
 10
288.512833
 20
-728.474083
 30
0.0
 11
293.512833
 21
-728.474083
 31
0.0
  0
LINE
  8
1
  6
CONTINUOUS
 62
     7
  5
40B
 10
286.637833
 20
-730.349083
 30
0.0
 11
286.637833
 21
-735.349083
 31
0.0
  0
LINE
  8
1
  6
CONTINUOUS
 62
     7
  5
40C
 10
270.637833
 20
-673.974083
 30
0.0
 11
286.637833
 21
-673.974083
 31
0.0
  0
LINE
  8
1
  6
CONTINUOUS
 62
     7
  5
40D
 10
309.137833
 20
-696.474083
 30
0.0
 11
309.137833
 21
-712.474083
 31
0.0
  0
INSERT
  8
1
  6
CONTINUOUS
 62
     1
  5
40E
  2
LDR
 10
270.637833
 20
-673.974083
 30
0.0
 41
240.0
 42
240.0
 50
180.0
210
0.0
220
0.0
230
1.0
  0
INSERT
  8
1
  6
CONTINUOUS
 62
     1
  5
40F
  2
LDR
 10
270.637833
 20
-673.974083
 30
0.0
 41
240.0
 42
240.0
 50
180.0
210
0.0
220
0.0
230
1.0
  0
INSERT
  8
1
  6
CONTINUOUS
 62
     1
  5
410
  2
LDR
 10
286.637833
 20
-673.974083
 30
0.0
 41
240.0
 42
240.0
210
0.0
220
0.0
230
1.0
  0
INSERT
  8
1
  6
CONTINUOUS
 62
     1
  5
411
  2
LDR
 10
286.637833
 20
-673.974083
 30
0.0
 41
240.0
 42
240.0
210
0.0
220
0.0
230
1.0
  0
INSERT
  8
1
  6
CONTINUOUS
 62
     1
  5
412
  2
LDR
 10
309.137833
 20
-696.474083
 30
0.0
 41
240.0
 42
240.0
 50
90.0
210
0.0
220
0.0
230
1.0
  0
INSERT
  8
1
  6
CONTINUOUS
 62
     1
  5
413
  2
LDR
 10
309.137833
 20
-696.474083
 30
0.0
 41
240.0
 42
240.0
 50
90.0
210
0.0
220
0.0
230
1.0
  0
INSERT
  8
1
  6
CONTINUOUS
 62
     1
  5
414
  2
LDR
 10
309.137833
 20
-712.474083
 30
0.0
 41
240.0
 42
240.0
 50
270.0
210
0.0
220
0.0
230
1.0
  0
LINE
  8
1
  6
CONTINUOUS
 62
     3
  5
415
 10
243.137833
 20
-752.974083
 30
0.0
 11
298.137833
 21
-752.974083
 31
0.0
  0
LINE
  8
1
  6
CONTINUOUS
 62
     3
  5
416
 10
243.137833
 20
-807.974083
 30
0.0
 11
298.137833
 21
-807.974083
 31
0.0
  0
LINE
  8
1
  6
CONTINUOUS
 62
     3
  5
417
 10
243.137833
 20
-752.974083
 30
0.0
 11
243.137833
 21
-807.974083
 31
0.0
  0
LINE
  8
1
  6
CONTINUOUS
 62
     3
  5
418
 10
298.137833
 20
-752.974083
 30
0.0
 11
298.137833
 21
-807.974083
 31
0.0
  0
LINE
  8
1
  6
CONTINUOUS
 62
     7
  5
419
 10
270.637833
 20
-748.974083
 30
0.0
 11
270.637833
 21
-778.474083
 31
0.0
  0
LINE
  8
1
  6
CONTINUOUS
 62
     7
  5
41A
 10
270.637833
 20
-779.474083
 30
0.0
 11
270.637833
 21
-781.474083
 31
0.0
  0
LINE
  8
1
  6
CONTINUOUS
 62
     7
  5
41B
 10
270.637833
 20
-782.474083
 30
0.0
 11
270.637833
 21
-812.974083
 31
0.0
  0
CIRCLE
  8
1
  6
CONTINUOUS
 62
     3
  5
41C
 10
254.637833
 20
-764.474083
 30
0.0
 40
0.875
210
0.0
220
0.0
230
1.0
  0
LINE
  8
1
  6
CONTINUOUS
 62
     7
  5
41D
 10
254.012833
 20
-764.474083
 30
0.0
 11
255.262833
 21
-764.474083
 31
0.0
  0
LINE
  8
1
  6
CONTINUOUS
 62
     7
  5
41E
 10
254.637833
 20
-763.849083
 30
0.0
 11
254.637833
 21
-765.099083
 31
0.0
  0
LINE
  8
1
  6
CONTINUOUS
 62
     7
  5
41F
 10
254.637833
 20
-762.599083
 30
0.0
 11
254.637833
 21
-757.599083
 31
0.0
  0
LINE
  8
1
  6
CONTINUOUS
 62
     7
  5
420
 10
256.512833
 20
-764.474083
 30
0.0
 11
261.512833
 21
-764.474083
 31
0.0
  0
LINE
  8
1
  6
CONTINUOUS
 62
     7
  5
421
 10
254.637833
 20
-766.349083
 30
0.0
 11
254.637833
 21
-771.349083
 31
0.0
  0
LINE
  8
1
  6
DASHED
 62
     3
  5
422
 10
244.137833
 20
-762.474083
 30
0.0
 11
297.137833
 21
-762.474083
 31
0.0
  0
LINE
  8
1
  6
DASHED
 62
     3
  5
423
 10
244.137833
 20
-760.474083
 30
0.0
 11
297.137833
 21
-760.474083
 31
0.0
  0
LINE
  8
1
  6
DASHED
 62
     3
  5
424
 10
244.137833
 20
-766.474083
 30
0.0
 11
297.137833
 21
-766.474083
 31
0.0
  0
LINE
  8
1
  6
DASHED
 62
     3
  5
425
 10
244.137833
 20
-768.474083
 30
0.0
 11
297.137833
 21
-768.474083
 31
0.0
  0
LINE
  8
1
  6
DASHED
 62
     3
  5
426
 10
244.137833
 20
-760.474083
 30
0.0
 11
244.137833
 21
-768.474083
 31
0.0
  0
LINE
  8
1
  6
DASHED
 62
     3
  5
427
 10
297.137833
 20
-760.474083
 30
0.0
 11
297.137833
 21
-768.474083
 31
0.0
  0
LINE
  8
1
  6
DASHED
 62
     3
  5
428
 10
244.137833
 20
-794.474083
 30
0.0
 11
297.137833
 21
-794.474083
 31
0.0
  0
LINE
  8
1
  6
DASHED
 62
     3
  5
429
 10
244.137833
 20
-792.474083
 30
0.0
 11
297.137833
 21
-792.474083
 31
0.0
  0
LINE
  8
1
  6
DASHED
 62
     3
  5
42A
 10
244.137833
 20
-798.474083
 30
0.0
 11
297.137833
 21
-798.474083
 31
0.0
  0
LINE
  8
1
  6
DASHED
 62
     3
  5
42B
 10
244.137833
 20
-800.474083
 30
0.0
 11
297.137833
 21
-800.474083
 31
0.0
  0
LINE
  8
1
  6
DASHED
 62
     3
  5
42C
 10
244.137833
 20
-792.474083
 30
0.0
 11
244.137833
 21
-800.474083
 31
0.0
  0
LINE
  8
1
  6
DASHED
 62
     3
  5
42D
 10
297.137833
 20
-792.474083
 30
0.0
 11
297.137833
 21
-800.474083
 31
0.0
  0
LINE
  8
1
  6
DASHED
 62
     3
  5
42E
 10
245.137833
 20
-759.474083
 30
0.0
 11
245.137833
 21
-807.974083
 31
0.0
  0
LINE
  8
1
  6
DASHED
 62
     3
  5
42F
 10
296.137833
 20
-759.474083
 30
0.0
 11
296.137833
 21
-807.974083
 31
0.0
  0
LINE
  8
1
  6
DASHED
 62
     3
  5
430
 10
253.137833
 20
-759.474083
 30
0.0
 11
253.137833
 21
-807.974083
 31
0.0
  0
LINE
  8
1
  6
DASHED
 62
     3
  5
431
 10
288.137833
 20
-759.474083
 30
0.0
 11
288.137833
 21
-807.974083
 31
0.0
  0
LINE
  8
1
  6
DASHED
 62
     3
  5
432
 10
245.137833
 20
-759.474083
 30
0.0
 11
253.137833
 21
-759.474083
 31
0.0
  0
LINE
  8
1
  6
DASHED
 62
     3
  5
433
 10
288.137833
 20
-759.474083
 30
0.0
 11
296.137833
 21
-759.474083
 31
0.0
  0
LINE
  8
1
  6
DASHED
 62
     3
  5
434
 10
247.137833
 20
-759.474083
 30
0.0
 11
247.137833
 21
-807.974083
 31
0.0
  0
LINE
  8
1
  6
DASHED
 62
     3
  5
435
 10
251.137833
 20
-759.474083
 30
0.0
 11
251.137833
 21
-807.974083
 31
0.0
  0
LINE
  8
1
  6
DASHED
 62
     3
  5
436
 10
290.137833
 20
-759.474083
 30
0.0
 11
290.137833
 21
-807.974083
 31
0.0
  0
LINE
  8
1
  6
DASHED
 62
     3
  5
437
 10
294.137833
 20
-759.474083
 30
0.0
 11
294.137833
 21
-807.974083
 31
0.0
  0
CIRCLE
  8
1
  6
CONTINUOUS
 62
     3
  5
438
 10
249.137833
 20
-764.474083
 30
0.0
 40
0.875
210
0.0
220
0.0
230
1.0
  0
LINE
  8
1
  6
CONTINUOUS
 62
     7
  5
439
 10
248.512833
 20
-764.474083
 30
0.0
 11
249.762833
 21
-764.474083
 31
0.0
  0
LINE
  8
1
  6
CONTINUOUS
 62
     7
  5
43A
 10
249.137833
 20
-763.849083
 30
0.0
 11
249.137833
 21
-765.099083
 31
0.0
  0
LINE
  8
1
  6
CONTINUOUS
 62
     7
  5
43B
 10
249.137833
 20
-762.599083
 30
0.0
 11
249.137833
 21
-757.599083
 31
0.0
  0
LINE
  8
1
  6
CONTINUOUS
 62
     7
  5
43C
 10
247.262833
 20
-764.474083
 30
0.0
 11
243.637833
 21
-764.474083
 31
0.0
  0
LINE
  8
1
  6
CONTINUOUS
 62
     7
  5
43D
 10
249.137833
 20
-766.349083
 30
0.0
 11
249.137833
 21
-778.474083
 31
0.0
  0
LINE
  8
1
  6
CONTINUOUS
 62
     7
  5
43E
 10
251.012833
 20
-764.474083
 30
0.0
 11
252.762833
 21
-764.474083
 31
0.0
  0
CIRCLE
  8
1
  6
CONTINUOUS
 62
     3
  5
43F
 10
249.137833
 20
-796.474083
 30
0.0
 40
0.875
210
0.0
220
0.0
230
1.0
  0
CIRCLE
  8
1
  6
CONTINUOUS
 62
     3
  5
440
 10
254.637833
 20
-796.474083
 30
0.0
 40
0.875
210
0.0
220
0.0
230
1.0
  0
LINE
  8
1
  6
CONTINUOUS
 62
     7
  5
441
 10
254.012833
 20
-796.474083
 30
0.0
 11
255.262833
 21
-796.474083
 31
0.0
  0
LINE
  8
1
  6
CONTINUOUS
 62
     7
  5
442
 10
254.637833
 20
-795.849083
 30
0.0
 11
254.637833
 21
-797.099083
 31
0.0
  0
LINE
  8
1
  6
CONTINUOUS
 62
     7
  5
443
 10
254.637833
 20
-794.599083
 30
0.0
 11
254.637833
 21
-789.599083
 31
0.0
  0
LINE
  8
1
  6
CONTINUOUS
 62
     7
  5
444
 10
256.512833
 20
-796.474083
 30
0.0
 11
261.512833
 21
-796.474083
 31
0.0
  0
LINE
  8
1
  6
CONTINUOUS
 62
     7
  5
445
 10
254.637833
 20
-798.349083
 30
0.0
 11
254.637833
 21
-803.349083
 31
0.0
  0
LINE
  8
1
  6
CONTINUOUS
 62
     7
  5
446
 10
248.512833
 20
-796.474083
 30
0.0
 11
249.762833
 21
-796.474083
 31
0.0
  0
LINE
  8
1
  6
CONTINUOUS
 62
     7
  5
447
 10
249.137833
 20
-795.849083
 30
0.0
 11
249.137833
 21
-797.099083
 31
0.0
  0
LINE
  8
1
  6
CONTINUOUS
 62
     7
  5
448
 10
249.137833
 20
-794.599083
 30
0.0
 11
249.137833
 21
-782.474083
 31
0.0
  0
LINE
  8
1
  6
CONTINUOUS
 62
     7
  5
449
 10
247.262833
 20
-796.474083
 30
0.0
 11
243.637833
 21
-796.474083
 31
0.0
  0
LINE
  8
1
  6
CONTINUOUS
 62
     7
  5
44A
 10
249.137833
 20
-798.349083
 30
0.0
 11
249.137833
 21
-822.974083
 31
0.0
  0
LINE
  8
1
  6
CONTINUOUS
 62
     7
  5
44B
 10
251.012833
 20
-796.474083
 30
0.0
 11
252.762833
 21
-796.474083
 31
0.0
  0
LINE
  8
1
  6
CONTINUOUS
 62
     7
  5
44C
 10
294.012833
 20
-796.474083
 30
0.0
 11
297.637833
 21
-796.474083
 31
0.0
  0
CIRCLE
  8
1
  6
CONTINUOUS
 62
     3
  5
44D
 10
286.637833
 20
-764.474083
 30
0.0
 40
0.875
210
0.0
220
0.0
230
1.0
  0
LINE
  8
1
  6
CONTINUOUS
 62
     7
  5
44E
 10
287.262833
 20
-764.474083
 30
0.0
 11
286.012833
 21
-764.474083
 31
0.0
  0
LINE
  8
1
  6
CONTINUOUS
 62
     7
  5
44F
 10
286.637833
 20
-763.849083
 30
0.0
 11
286.637833
 21
-765.099083
 31
0.0
  0
LINE
  8
1
  6
CONTINUOUS
 62
     7
  5
450
 10
286.637833
 20
-762.599083
 30
0.0
 11
286.637833
 21
-757.599083
 31
0.0
  0
LINE
  8
1
  6
CONTINUOUS
 62
     7
  5
451
 10
284.762833
 20
-764.474083
 30
0.0
 11
279.762833
 21
-764.474083
 31
0.0
  0
LINE
  8
1
  6
CONTINUOUS
 62
     7
  5
452
 10
286.637833
 20
-766.349083
 30
0.0
 11
286.637833
 21
-771.349083
 31
0.0
  0
CIRCLE
  8
1
  6
CONTINUOUS
 62
     3
  5
453
 10
292.137833
 20
-764.474083
 30
0.0
 40
0.875
210
0.0
220
0.0
230
1.0
  0
LINE
  8
1
  6
CONTINUOUS
 62
     7
  5
454
 10
292.762833
 20
-764.474083
 30
0.0
 11
291.512833
 21
-764.474083
 31
0.0
  0
LINE
  8
1
  6
CONTINUOUS
 62
     7
  5
455
 10
292.137833
 20
-763.849083
 30
0.0
 11
292.137833
 21
-765.099083
 31
0.0
  0
LINE
  8
1
  6
CONTINUOUS
 62
     7
  5
456
 10
292.137833
 20
-762.599083
 30
0.0
 11
292.137833
 21
-757.599083
 31
0.0
  0
LINE
  8
1
  6
CONTINUOUS
 62
     7
  5
457
 10
294.012833
 20
-764.474083
 30
0.0
 11
297.637833
 21
-764.474083
 31
0.0
  0
LINE
  8
1
  6
CONTINUOUS
 62
     7
  5
458
 10
292.137833
 20
-766.349083
 30
0.0
 11
292.137833
 21
-778.474083
 31
0.0
  0
LINE
  8
1
  6
CONTINUOUS
 62
     7
  5
459
 10
290.262833
 20
-764.474083
 30
0.0
 11
288.512833
 21
-764.474083
 31
0.0
  0
CIRCLE
  8
1
  6
CONTINUOUS
 62
     3
  5
45A
 10
292.137833
 20
-796.474083
 30
0.0
 40
0.875
210
0.0
220
0.0
230
1.0
  0
CIRCLE
  8
1
  6
CONTINUOUS
 62
     3
  5
45B
 10
286.637833
 20
-796.474083
 30
0.0
 40
0.875
210
0.0
220
0.0
230
1.0
  0
LINE
  8
1
  6
CONTINUOUS
 62
     7
  5
45C
 10
287.262833
 20
-796.474083
 30
0.0
 11
286.012833
 21
-796.474083
 31
0.0
  0
LINE
  8
1
  6
CONTINUOUS
 62
     7
  5
45D
 10
286.637833
 20
-795.849083
 30
0.0
 11
286.637833
 21
-797.099083
 31
0.0
  0
LINE
  8
1
  6
CONTINUOUS
 62
     7
  5
45E
 10
286.637833
 20
-794.599083
 30
0.0
 11
286.637833
 21
-789.599083
 31
0.0
  0
LINE
  8
1
  6
CONTINUOUS
 62
     7
  5
45F
 10
284.762833
 20
-796.474083
 30
0.0
 11
279.762833
 21
-796.474083
 31
0.0
  0
LINE
  8
1
  6
CONTINUOUS
 62
     7
  5
460
 10
286.637833
 20
-798.349083
 30
0.0
 11
286.637833
 21
-803.349083
 31
0.0
  0
LINE
  8
1
  6
CONTINUOUS
 62
     7
  5
461
 10
292.762833
 20
-796.474083
 30
0.0
 11
291.512833
 21
-796.474083
 31
0.0
  0
LINE
  8
1
  6
CONTINUOUS
 62
     7
  5
462
 10
292.137833
 20
-795.849083
 30
0.0
 11
292.137833
 21
-797.099083
 31
0.0
  0
LINE
  8
1
  6
CONTINUOUS
 62
     7
  5
463
 10
292.137833
 20
-794.599083
 30
0.0
 11
292.137833
 21
-782.474083
 31
0.0
  0
LINE
  8
1
  6
CONTINUOUS
 62
     7
  5
464
 10
292.137833
 20
-798.349083
 30
0.0
 11
292.137833
 21
-822.974083
 31
0.0
  0
LINE
  8
1
  6
CONTINUOUS
 62
     7
  5
465
 10
290.262833
 20
-796.474083
 30
0.0
 11
288.512833
 21
-796.474083
 31
0.0
  0
LINE
  8
1
  6
CONTINUOUS
 62
     7
  5
466
 10
249.137833
 20
-779.474083
 30
0.0
 11
249.137833
 21
-781.474083
 31
0.0
  0
LINE
  8
1
  6
CONTINUOUS
 62
     7
  5
467
 10
292.137833
 20
-779.474083
 30
0.0
 11
292.137833
 21
-781.474083
 31
0.0
  0
LINE
  8
1
  6
CONTINUOUS
 62
     3
  5
468
 10
245.137833
 20
-807.974083
 30
0.0
 11
245.137833
 21
-822.974083
 31
0.0
  0
LINE
  8
1
  6
CONTINUOUS
 62
     3
  5
469
 10
247.137833
 20
-807.974083
 30
0.0
 11
247.137833
 21
-822.974083
 31
0.0
  0
LINE
  8
1
  6
CONTINUOUS
 62
     3
  5
46A
 10
251.137833
 20
-807.974083
 30
0.0
 11
251.137833
 21
-822.974083
 31
0.0
  0
LINE
  8
1
  6
CONTINUOUS
 62
     3
  5
46B
 10
253.137833
 20
-807.974083
 30
0.0
 11
253.137833
 21
-822.974083
 31
0.0
  0
LINE
  8
1
  6
CONTINUOUS
 62
     3
  5
46C
 10
288.137833
 20
-807.974083
 30
0.0
 11
288.137833
 21
-822.974083
 31
0.0
  0
LINE
  8
1
  6
CONTINUOUS
 62
     3
  5
46D
 10
290.137833
 20
-807.974083
 30
0.0
 11
290.137833
 21
-822.974083
 31
0.0
  0
LINE
  8
1
  6
CONTINUOUS
 62
     3
  5
46E
 10
294.137833
 20
-807.974083
 30
0.0
 11
294.137833
 21
-822.974083
 31
0.0
  0
LINE
  8
1
  6
CONTINUOUS
 62
     3
  5
46F
 10
296.137833
 20
-807.974083
 30
0.0
 11
296.137833
 21
-822.974083
 31
0.0
  0
LINE
  8
1
  6
CONTINUOUS
 62
     3
  5
470
 10
332.137833
 20
-752.974083
 30
0.0
 11
332.137833
 21
-807.974083
 31
0.0
  0
LINE
  8
1
  6
CONTINUOUS
 62
     3
  5
471
 10
333.137833
 20
-752.974083
 30
0.0
 11
333.137833
 21
-807.974083
 31
0.0
  0
LINE
  8
1
  6
CONTINUOUS
 62
     3
  5
472
 10
332.137833
 20
-752.974083
 30
0.0
 11
333.137833
 21
-752.974083
 31
0.0
  0
LINE
  8
1
  6
CONTINUOUS
 62
     3
  5
473
 10
332.137833
 20
-807.974083
 30
0.0
 11
333.137833
 21
-807.974083
 31
0.0
  0
LINE
  8
1
  6
CONTINUOUS
 62
     3
  5
474
 10
345.637833
 20
-760.724083
 30
0.0
 11
345.637833
 21
-822.974083
 31
0.0
  0
LINE
  8
1
  6
CONTINUOUS
 62
     3
  5
475
 10
339.637833
 20
-760.724083
 30
0.0
 11
345.637833
 21
-760.724083
 31
0.0
  0
LINE
  8
1
  6
CONTINUOUS
 62
     3
  5
476
 10
340.887833
 20
-760.724083
 30
0.0
 11
340.887833
 21
-822.974083
 31
0.0
  0
LINE
  8
1
  6
DASHED
 62
     3
  5
477
 10
344.387833
 20
-760.724083
 30
0.0
 11
344.387833
 21
-822.974083
 31
0.0
  0
LINE
  8
1
  6
HIDDEN
 62
     3
  5
478
 10
339.637833
 20
-763.974083
 30
0.0
 11
345.637833
 21
-763.974083
 31
0.0
  0
LINE
  8
1
  6
HIDDEN
 62
     3
  5
479
 10
339.637833
 20
-764.974083
 30
0.0
 11
345.637833
 21
-764.974083
 31
0.0
  0
LINE
  8
1
  6
HIDDEN
 62
     3
  5
47A
 10
339.637833
 20
-795.849083
 30
0.0
 11
345.637833
 21
-795.849083
 31
0.0
  0
LINE
  8
1
  6
HIDDEN
 62
     3
  5
47B
 10
339.637833
 20
-797.099083
 30
0.0
 11
345.637833
 21
-797.099083
 31
0.0
  0
LINE
  8
1
  6
CONTINUOUS
 62
     3
  5
47C
 10
345.637833
 20
-763.474083
 30
0.0
 11
346.887833
 21
-763.474083
 31
0.0
  0
LINE
  8
1
  6
CONTINUOUS
 62
     3
  5
47D
 10
345.637833
 20
-765.474083
 30
0.0
 11
346.887833
 21
-765.474083
 31
0.0
  0
LINE
  8
1
  6
CONTINUOUS
 62
     3
  5
47E
 10
346.887833
 20
-763.474083
 30
0.0
 11
346.887833
 21
-765.474083
 31
0.0
  0
LINE
  8
1
  6
CONTINUOUS
 62
     3
  5
47F
 10
345.637833
 20
-795.474083
 30
0.0
 11
346.887833
 21
-795.474083
 31
0.0
  0
LINE
  8
1
  6
CONTINUOUS
 62
     3
  5
480
 10
345.637833
 20
-797.474083
 30
0.0
 11
346.887833
 21
-797.474083
 31
0.0
  0
LINE
  8
1
  6
CONTINUOUS
 62
     3
  5
481
 10
346.887833
 20
-795.474083
 30
0.0
 11
346.887833
 21
-797.474083
 31
0.0
  0
LINE
  8
1
  6
CONTINUOUS
 62
     7
  5
482
 10
323.085667
 20
-770.564833
 30
0.0
 11
332.137833
 21
-770.564833
 31
0.0
  0
LINE
  8
1
  6
CONTINUOUS
 62
     3
  5
483
 10
339.637833
 20
-761.224083
 30
0.0
 11
334.387833
 21
-761.224083
 31
0.0
  0
LINE
  8
1
  6
CONTINUOUS
 62
     3
  5
484
 10
336.637833
 20
-762.474083
 30
0.0
 11
333.137833
 21
-762.474083
 31
0.0
  0
LINE
  8
1
  6
CONTINUOUS
 62
     3
  5
485
 10
336.637833
 20
-762.474083
 30
0.0
 11
336.637833
 21
-767.474083
 31
0.0
  0
LINE
  8
1
  6
CONTINUOUS
 62
     3
  5
486
 10
336.637833
 20
-767.474083
 30
0.0
 11
339.637833
 21
-767.474083
 31
0.0
  0
LINE
  8
1
  6
CONTINUOUS
 62
     3
  5
487
 10
334.387833
 20
-761.224083
 30
0.0
 11
334.387833
 21
-758.224083
 31
0.0
  0
LINE
  8
1
  6
CONTINUOUS
 62
     3
  5
488
 10
334.387833
 20
-758.224083
 30
0.0
 11
333.137833
 21
-758.224083
 31
0.0
  0
LINE
  8
1
  6
CONTINUOUS
 62
     3
  5
489
 10
337.512833
 20
-762.474083
 30
0.0
 11
337.512833
 21
-766.474083
 31
0.0
  0
LINE
  8
1
  6
CONTINUOUS
 62
     3
  5
48A
 10
338.762833
 20
-762.474083
 30
0.0
 11
338.762833
 21
-766.474083
 31
0.0
  0
LINE
  8
1
  6
CONTINUOUS
 62
     3
  5
48B
 10
337.512833
 20
-766.474083
 30
0.0
 11
338.762833
 21
-766.474083
 31
0.0
  0
LINE
  8
1
  6
CONTINUOUS
 62
     3
  5
48C
 10
338.762833
 20
-762.474083
 30
0.0
 11
337.512833
 21
-762.474083
 31
0.0
  0
LINE
  8
1
  6
CONTINUOUS
 62
     3
  5
48D
 10
339.637833
 20
-760.724083
 30
0.0
 11
339.637833
 21
-763.849083
 31
0.0
  0
LINE
  8
1
  6
CONTINUOUS
 62
     3
  5
48E
 10
339.637833
 20
-763.849083
 30
0.0
 11
339.637833
 21
-765.099083
 31
0.0
  0
LINE
  8
1
  6
CONTINUOUS
 62
     3
  5
48F
 10
345.637833
 20
-763.974083
 30
0.0
 11
346.887833
 21
-763.974083
 31
0.0
  0
LINE
  8
1
  6
CONTINUOUS
 62
     3
  5
490
 10
345.637833
 20
-764.974083
 30
0.0
 11
346.887833
 21
-764.974083
 31
0.0
  0
LINE
  8
1
  6
CONTINUOUS
 62
     3
  5
491
 10
346.887833
 20
-764.149083
 30
0.0
 11
347.387833
 21
-764.149083
 31
0.0
  0
LINE
  8
1
  6
CONTINUOUS
 62
     3
  5
492
 10
346.887833
 20
-764.799083
 30
0.0
 11
347.387833
 21
-764.799083
 31
0.0
  0
LINE
  8
1
  6
CONTINUOUS
 62
     3
  5
493
 10
347.387833
 20
-764.149083
 30
0.0
 11
347.387833
 21
-764.799083
 31
0.0
  0
LINE
  8
1
  6
CONTINUOUS
 62
     3
  5
494
 10
332.637833
 20
-759.224083
 30
0.0
 11
333.887833
 21
-759.224083
 31
0.0
  0
LINE
  8
1
  6
CONTINUOUS
 62
     3
  5
495
 10
332.637833
 20
-760.224083
 30
0.0
 11
333.887833
 21
-760.224083
 31
0.0
  0
LINE
  8
1
  6
CONTINUOUS
 62
     3
  5
496
 10
334.387833
 20
-758.974083
 30
0.0
 11
335.137833
 21
-758.974083
 31
0.0
  0
LINE
  8
1
  6
CONTINUOUS
 62
     3
  5
497
 10
334.387833
 20
-760.474083
 30
0.0
 11
335.137833
 21
-760.474083
 31
0.0
  0
LINE
  8
1
  6
CONTINUOUS
 62
     3
  5
498
 10
335.137833
 20
-758.974083
 30
0.0
 11
335.137833
 21
-760.474083
 31
0.0
  0
LINE
  8
1
  6
CONTINUOUS
 62
     3
  5
499
 10
335.137833
 20
-759.349083
 30
0.0
 11
335.637833
 21
-759.349083
 31
0.0
  0
LINE
  8
1
  6
CONTINUOUS
 62
     3
  5
49A
 10
335.137833
 20
-760.099083
 30
0.0
 11
335.637833
 21
-760.099083
 31
0.0
  0
LINE
  8
1
  6
CONTINUOUS
 62
     3
  5
49B
 10
335.637833
 20
-759.349083
 30
0.0
 11
335.637833
 21
-760.099083
 31
0.0
  0
ARC
  8
1
  6
CONTINUOUS
 62
     3
  5
49C
 10
332.291721
 20
-759.724083
 30
0.0
 40
0.765625
 50
101.595244
 51
258.404753
210
0.0
220
0.0
230
1.0
  0
LINE
  8
1
  6
CONTINUOUS
 62
     3
  5
49D
 10
339.637833
 20
-765.099083
 30
0.0
 11
339.637833
 21
-786.7585
 31
0.0
  0
LINE
  8
1
  6
CONTINUOUS
 62
     3
  5
49E
 10
339.637833
 20
-786.7585
 30
0.0
 11
339.637833
 21
-788.0085
 31
0.0
  0
LINE
  8
1
  6
CONTINUOUS
 62
     3
  5
49F
 10
339.637833
 20
-788.0085
 30
0.0
 11
339.637833
 21
-822.974083
 31
0.0
  0
LINE
  8
1
  6
CONTINUOUS
 62
     3
  5
4A0
 10
339.637833
 20
-793.224083
 30
0.0
 11
334.387833
 21
-793.224083
 31
0.0
  0
LINE
  8
1
  6
CONTINUOUS
 62
     3
  5
4A1
 10
336.637833
 20
-794.474083
 30
0.0
 11
333.137833
 21
-794.474083
 31
0.0
  0
LINE
  8
1
  6
CONTINUOUS
 62
     3
  5
4A2
 10
336.637833
 20
-794.474083
 30
0.0
 11
336.637833
 21
-799.474083
 31
0.0
  0
LINE
  8
1
  6
CONTINUOUS
 62
     3
  5
4A3
 10
336.637833
 20
-799.474083
 30
0.0
 11
339.637833
 21
-799.474083
 31
0.0
  0
LINE
  8
1
  6
CONTINUOUS
 62
     3
  5
4A4
 10
334.387833
 20
-793.224083
 30
0.0
 11
334.387833
 21
-790.224083
 31
0.0
  0
LINE
  8
1
  6
CONTINUOUS
 62
     3
  5
4A5
 10
334.387833
 20
-790.224083
 30
0.0
 11
333.137833
 21
-790.224083
 31
0.0
  0
LINE
  8
1
  6
CONTINUOUS
 62
     3
  5
4A6
 10
337.512833
 20
-794.474083
 30
0.0
 11
337.512833
 21
-798.474083
 31
0.0
  0
LINE
  8
1
  6
CONTINUOUS
 62
     3
  5
4A7
 10
338.762833
 20
-794.474083
 30
0.0
 11
338.762833
 21
-798.474083
 31
0.0
  0
LINE
  8
1
  6
CONTINUOUS
 62
     3
  5
4A8
 10
337.512833
 20
-798.474083
 30
0.0
 11
338.762833
 21
-798.474083
 31
0.0
  0
LINE
  8
1
  6
CONTINUOUS
 62
     3
  5
4A9
 10
338.762833
 20
-794.474083
 30
0.0
 11
337.512833
 21
-794.474083
 31
0.0
  0
LINE
  8
1
  6
CONTINUOUS
 62
     3
  5
4AA
 10
332.637833
 20
-791.224083
 30
0.0
 11
333.887833
 21
-791.224083
 31
0.0
  0
LINE
  8
1
  6
CONTINUOUS
 62
     3
  5
4AB
 10
332.637833
 20
-792.224083
 30
0.0
 11
333.887833
 21
-792.224083
 31
0.0
  0
LINE
  8
1
  6
CONTINUOUS
 62
     3
  5
4AC
 10
334.387833
 20
-790.974083
 30
0.0
 11
335.137833
 21
-790.974083
 31
0.0
  0
LINE
  8
1
  6
CONTINUOUS
 62
     3
  5
4AD
 10
334.387833
 20
-792.474083
 30
0.0
 11
335.137833
 21
-792.474083
 31
0.0
  0
LINE
  8
1
  6
CONTINUOUS
 62
     3
  5
4AE
 10
335.137833
 20
-790.974083
 30
0.0
 11
335.137833
 21
-792.474083
 31
0.0
  0
LINE
  8
1
  6
CONTINUOUS
 62
     3
  5
4AF
 10
335.137833
 20
-791.349083
 30
0.0
 11
335.637833
 21
-791.349083
 31
0.0
  0
LINE
  8
1
  6
CONTINUOUS
 62
     3
  5
4B0
 10
335.137833
 20
-792.099083
 30
0.0
 11
335.637833
 21
-792.099083
 31
0.0
  0
LINE
  8
1
  6
CONTINUOUS
 62
     3
  5
4B1
 10
335.637833
 20
-791.349083
 30
0.0
 11
335.637833
 21
-792.099083
 31
0.0
  0
ARC
  8
1
  6
CONTINUOUS
 62
     3
  5
4B2
 10
332.291721
 20
-791.724083
 30
0.0
 40
0.765625
 50
101.595244
 51
258.404753
210
0.0
220
0.0
230
1.0
  0
INSERT
  8
1
  6
CONTINUOUS
 62
     1
  5
4B3
  2
LDR
 10
332.137833
 20
-770.564833
 30
0.0
 41
240.0
 42
240.0
210
0.0
220
0.0
230
1.0
  0
LINE
  8
1
  6
CONTINUOUS
 62
     3
  5
4B4
 10
243.137833
 20
-839.823167
 30
0.0
 11
298.137833
 21
-839.823167
 31
0.0
  0
LINE
  8
1
  6
CONTINUOUS
 62
     3
  5
4B5
 10
243.137833
 20
-840.823167
 30
0.0
 11
298.137833
 21
-840.823167
 31
0.0
  0
LINE
  8
1
  6
CONTINUOUS
 62
     3
  5
4B6
 10
243.137833
 20
-839.823167
 30
0.0
 11
243.137833
 21
-840.823167
 31
0.0
  0
LINE
  8
1
  6
CONTINUOUS
 62
     3
  5
4B7
 10
298.137833
 20
-839.823167
 30
0.0
 11
298.137833
 21
-840.823167
 31
0.0
  0
LINE
  8
1
  6
CONTINUOUS
 62
     7
  5
4B8
 10
270.637833
 20
-836.448167
 30
0.0
 11
270.637833
 21
-831.573167
 31
0.0
  0
LINE
  8
1
  6
CONTINUOUS
 62
     7
  5
4B9
 10
270.637833
 20
-843.323167
 30
0.0
 11
270.637833
 21
-838.448167
 31
0.0
  0
LINE
  8
1
  6
CONTINUOUS
 62
     7
  5
4BA
 10
270.637833
 20
-837.948167
 30
0.0
 11
270.637833
 21
-836.948167
 31
0.0
  0
LINE
  8
1
  6
CONTINUOUS
 62
     7
  5
4BB
 10
264.228833
 20
-840.946333
 30
0.0
 11
264.228833
 21
-848.075333
 31
0.0
  0
LINE
  8
1
  6
CONTINUOUS
 62
     7
  5
4BC
 10
264.228833
 20
-848.075333
 30
0.0
 11
269.69375
 21
-848.075333
 31
0.0
  0
INSERT
  8
1
  6
CONTINUOUS
 62
     1
  5
4BD
  2
LDR
 10
264.228833
 20
-840.946333
 30
0.0
 41
240.0
 42
240.0
 50
90.0
210
0.0
220
0.0
230
1.0
  0
LINE
  8
1
  6
CONTINUOUS
 62
     3
  5
4BE
 10
244.387833
 20
-834.323167
 30
0.0
 11
244.387833
 21
-839.823167
 31
0.0
  0
LINE
  8
1
  6
CONTINUOUS
 62
     3
  5
4BF
 10
296.887833
 20
-834.323167
 30
0.0
 11
296.887833
 21
-839.823167
 31
0.0
  0
LINE
  8
1
  6
CONTINUOUS
 62
     3
  5
4C0
 10
244.387833
 20
-838.823167
 30
0.0
 11
296.887833
 21
-838.823167
 31
0.0
  0
LINE
  8
1
  6
CONTINUOUS
 62
     3
  5
4C1
 10
244.887833
 20
-833.323167
 30
0.0
 11
244.887833
 21
-834.323167
 31
0.0
  0
LINE
  8
1
  6
CONTINUOUS
 62
     3
  5
4C2
 10
247.887833
 20
-827.323167
 30
0.0
 11
250.387833
 21
-827.323167
 31
0.0
  0
LINE
  8
1
  6
CONTINUOUS
 62
     3
  5
4C3
 10
247.887833
 20
-827.323167
 30
0.0
 11
247.887833
 21
-828.573167
 31
0.0
  0
LINE
  8
1
  6
CONTINUOUS
 62
     3
  5
4C4
 10
250.387833
 20
-827.323167
 30
0.0
 11
250.387833
 21
-828.573167
 31
0.0
  0
LINE
  8
1
  6
CONTINUOUS
 62
     3
  5
4C5
 10
247.090667
 20
-828.573167
 30
0.0
 11
251.185
 21
-828.573167
 31
0.0
  0
LINE
  8
1
  6
CONTINUOUS
 62
     3
  5
4C6
 10
246.846
 20
-828.771667
 30
0.0
 11
245.929667
 21
-833.124667
 31
0.0
  0
LINE
  8
1
  6
CONTINUOUS
 62
     3
  5
4C7
 10
251.429583
 20
-828.771667
 30
0.0
 11
252.346
 21
-833.124667
 31
0.0
  0
LINE
  8
1
  6
CONTINUOUS
 62
     3
  5
4C8
 10
253.387833
 20
-833.323167
 30
0.0
 11
253.387833
 21
-834.323167
 31
0.0
  0
LINE
  8
1
  6
CONTINUOUS
 62
     3
  5
4C9
 10
247.699167
 20
-829.573167
 30
0.0
 11
246.699167
 21
-834.323167
 31
0.0
  0
LINE
  8
1
  6
CONTINUOUS
 62
     3
  5
4CA
 10
250.576417
 20
-829.573167
 30
0.0
 11
251.576417
 21
-834.323167
 31
0.0
  0
LINE
  8
1
  6
CONTINUOUS
 62
     3
  5
4CB
 10
244.887833
 20
-833.323167
 30
0.0
 11
245.685
 21
-833.323167
 31
0.0
  0
LINE
  8
1
  6
CONTINUOUS
 62
     3
  5
4CC
 10
252.590667
 20
-833.323167
 30
0.0
 11
253.387833
 21
-833.323167
 31
0.0
  0
ARC
  8
1
  6
CONTINUOUS
 62
     3
  5
4CD
 10
245.68499
 20
-833.073167
 30
0.0
 40
0.25
 50
270.0
 51
348.111364
210
0.0
220
0.0
230
1.0
  0
ARC
  8
1
  6
CONTINUOUS
 62
     3
  5
4CE
 10
252.59067
 20
-833.073167
 30
0.0
 40
0.25
 50
191.889017
 51
270.0
210
0.0
220
0.0
230
1.0
  0
ARC
  8
1
  6
CONTINUOUS
 62
     3
  5
4CF
 10
247.090674
 20
-828.823167
 30
0.0
 40
0.25
 50
90.0
 51
168.109056
210
0.0
220
0.0
230
1.0
  0
ARC
  8
1
  6
CONTINUOUS
 62
     3
  5
4D0
 10
251.184985
 20
-828.823167
 30
0.0
 40
0.25
 50
11.888658
 51
90.0
210
0.0
220
0.0
230
1.0
  0
LINE
  8
1
  6
CONTINUOUS
 62
     3
  5
4D1
 10
248.387833
 20
-834.323167
 30
0.0
 11
248.387833
 21
-829.573167
 31
0.0
  0
LINE
  8
1
  6
CONTINUOUS
 62
     3
  5
4D2
 10
249.887833
 20
-834.323167
 30
0.0
 11
249.887833
 21
-829.573167
 31
0.0
  0
LINE
  8
1
  6
CONTINUOUS
 62
     3
  5
4D3
 10
247.699167
 20
-829.573167
 30
0.0
 11
248.387833
 21
-829.573167
 31
0.0
  0
LINE
  8
1
  6
CONTINUOUS
 62
     3
  5
4D4
 10
249.887833
 20
-829.573167
 30
0.0
 11
250.576417
 21
-829.573167
 31
0.0
  0
LINE
  8
1
  6
CONTINUOUS
 62
     7
  5
4D5
 10
249.137833
 20
-828.073167
 30
0.0
 11
249.137833
 21
-826.573167
 31
0.0
  0
LINE
  8
1
  6
CONTINUOUS
 62
     3
  5
4D6
 10
296.387833
 20
-833.323167
 30
0.0
 11
296.387833
 21
-834.323167
 31
0.0
  0
LINE
  8
1
  6
CONTINUOUS
 62
     3
  5
4D7
 10
290.887833
 20
-827.323167
 30
0.0
 11
293.387833
 21
-827.323167
 31
0.0
  0
LINE
  8
1
  6
CONTINUOUS
 62
     3
  5
4D8
 10
290.887833
 20
-827.323167
 30
0.0
 11
290.887833
 21
-828.573167
 31
0.0
  0
LINE
  8
1
  6
CONTINUOUS
 62
     3
  5
4D9
 10
293.387833
 20
-827.323167
 30
0.0
 11
293.387833
 21
-828.573167
 31
0.0
  0
LINE
  8
1
  6
CONTINUOUS
 62
     3
  5
4DA
 10
290.090667
 20
-828.573167
 30
0.0
 11
294.185
 21
-828.573167
 31
0.0
  0
LINE
  8
1
  6
CONTINUOUS
 62
     3
  5
4DB
 10
289.846
 20
-828.771667
 30
0.0
 11
288.929667
 21
-833.124667
 31
0.0
  0
LINE
  8
1
  6
CONTINUOUS
 62
     3
  5
4DC
 10
294.429583
 20
-828.771667
 30
0.0
 11
295.346
 21
-833.124667
 31
0.0
  0
LINE
  8
1
  6
CONTINUOUS
 62
     3
  5
4DD
 10
287.887833
 20
-833.323167
 30
0.0
 11
287.887833
 21
-834.323167
 31
0.0
  0
LINE
  8
1
  6
CONTINUOUS
 62
     3
  5
4DE
 10
290.699167
 20
-829.573167
 30
0.0
 11
289.699167
 21
-834.323167
 31
0.0
  0
LINE
  8
1
  6
CONTINUOUS
 62
     3
  5
4DF
 10
293.576417
 20
-829.573167
 30
0.0
 11
294.576417
 21
-834.323167
 31
0.0
  0
LINE
  8
1
  6
CONTINUOUS
 62
     3
  5
4E0
 10
287.887833
 20
-833.323167
 30
0.0
 11
288.685
 21
-833.323167
 31
0.0
  0
LINE
  8
1
  6
CONTINUOUS
 62
     3
  5
4E1
 10
295.590667
 20
-833.323167
 30
0.0
 11
296.387833
 21
-833.323167
 31
0.0
  0
ARC
  8
1
  6
CONTINUOUS
 62
     3
  5
4E2
 10
288.68499
 20
-833.073167
 30
0.0
 40
0.25
 50
270.0
 51
348.111364
210
0.0
220
0.0
230
1.0
  0
ARC
  8
1
  6
CONTINUOUS
 62
     3
  5
4E3
 10
295.59067
 20
-833.073167
 30
0.0
 40
0.25
 50
191.889017
 51
270.0
210
0.0
220
0.0
230
1.0
  0
ARC
  8
1
  6
CONTINUOUS
 62
     3
  5
4E4
 10
290.090674
 20
-828.823167
 30
0.0
 40
0.25
 50
90.0
 51
168.109056
210
0.0
220
0.0
230
1.0
  0
ARC
  8
1
  6
CONTINUOUS
 62
     3
  5
4E5
 10
294.184985
 20
-828.823167
 30
0.0
 40
0.25
 50
11.888658
 51
90.0
210
0.0
220
0.0
230
1.0
  0
LINE
  8
1
  6
CONTINUOUS
 62
     3
  5
4E6
 10
291.387833
 20
-834.323167
 30
0.0
 11
291.387833
 21
-829.573167
 31
0.0
  0
LINE
  8
1
  6
CONTINUOUS
 62
     3
  5
4E7
 10
292.887833
 20
-834.323167
 30
0.0
 11
292.887833
 21
-829.573167
 31
0.0
  0
LINE
  8
1
  6
CONTINUOUS
 62
     3
  5
4E8
 10
290.699167
 20
-829.573167
 30
0.0
 11
291.387833
 21
-829.573167
 31
0.0
  0
LINE
  8
1
  6
CONTINUOUS
 62
     3
  5
4E9
 10
292.887833
 20
-829.573167
 30
0.0
 11
293.576417
 21
-829.573167
 31
0.0
  0
LINE
  8
1
  6
CONTINUOUS
 62
     7
  5
4EA
 10
292.137833
 20
-828.073167
 30
0.0
 11
292.137833
 21
-826.573167
 31
0.0
  0
LINE
  8
1
  6
DASHED
 62
     3
  5
4EB
 10
244.387833
 20
-834.823167
 30
0.0
 11
296.887833
 21
-834.823167
 31
0.0
  0
LINE
  8
1
  6
DASHED
 62
     3
  5
4EC
 10
244.387833
 20
-835.323167
 30
0.0
 11
296.887833
 21
-835.323167
 31
0.0
  0
LINE
  8
1
  6
DASHED
 62
     3
  5
4ED
 10
244.387833
 20
-835.823167
 30
0.0
 11
296.887833
 21
-835.823167
 31
0.0
  0
LINE
  8
1
  6
CONTINUOUS
 62
     3
  5
4EE
 10
254.262833
 20
-838.823167
 30
0.0
 11
254.262833
 21
-837.573167
 31
0.0
  0
LINE
  8
1
  6
CONTINUOUS
 62
     3
  5
4EF
 10
254.137833
 20
-840.823167
 30
0.0
 11
254.137833
 21
-838.823167
 31
0.0
  0
LINE
  8
1
  6
CONTINUOUS
 62
     3
  5
4F0
 10
255.137833
 20
-840.823167
 30
0.0
 11
255.137833
 21
-838.823167
 31
0.0
  0
LINE
  8
1
  6
CONTINUOUS
 62
     3
  5
4F1
 10
253.887833
 20
-838.823167
 30
0.0
 11
253.887833
 21
-838.073167
 31
0.0
  0
LINE
  8
1
  6
CONTINUOUS
 62
     3
  5
4F2
 10
255.387833
 20
-838.823167
 30
0.0
 11
255.387833
 21
-838.073167
 31
0.0
  0
LINE
  8
1
  6
CONTINUOUS
 62
     3
  5
4F3
 10
253.887833
 20
-838.073167
 30
0.0
 11
255.387833
 21
-838.073167
 31
0.0
  0
LINE
  8
1
  6
CONTINUOUS
 62
     3
  5
4F4
 10
255.012833
 20
-838.823167
 30
0.0
 11
255.012833
 21
-837.573167
 31
0.0
  0
LINE
  8
1
  6
CONTINUOUS
 62
     3
  5
4F5
 10
254.262833
 20
-837.573167
 30
0.0
 11
255.012833
 21
-837.573167
 31
0.0
  0
ARC
  8
1
  6
CONTINUOUS
 62
     3
  5
4F6
 10
254.637833
 20
-840.669279
 30
0.0
 40
0.765625
 50
191.595244
 51
348.404753
210
0.0
220
0.0
230
1.0
  0
LINE
  8
1
  6
CONTINUOUS
 62
     3
  5
4F7
 10
244.387833
 20
-834.323167
 30
0.0
 11
258.292917
 21
-834.323167
 31
0.0
  0
LINE
  8
1
  6
CONTINUOUS
 62
     3
  5
4F8
 10
258.292917
 20
-834.323167
 30
0.0
 11
260.104333
 21
-834.323167
 31
0.0
  0
LINE
  8
1
  6
CONTINUOUS
 62
     3
  5
4F9
 10
260.104333
 20
-834.323167
 30
0.0
 11
273.000917
 21
-834.323167
 31
0.0
  0
LINE
  8
1
  6
CONTINUOUS
 62
     3
  5
4FA
 10
273.000917
 20
-834.323167
 30
0.0
 11
274.81225
 21
-834.323167
 31
0.0
  0
LINE
  8
1
  6
CONTINUOUS
 62
     3
  5
4FB
 10
274.81225
 20
-834.323167
 30
0.0
 11
296.887833
 21
-834.323167
 31
0.0
  0
LINE
  8
1
  6
CONTINUOUS
 62
     3
  5
4FC
 10
286.262833
 20
-837.573167
 30
0.0
 11
287.012833
 21
-837.573167
 31
0.0
  0
LINE
  8
1
  6
CONTINUOUS
 62
     3
  5
4FD
 10
286.262833
 20
-838.823167
 30
0.0
 11
286.262833
 21
-837.573167
 31
0.0
  0
LINE
  8
1
  6
CONTINUOUS
 62
     3
  5
4FE
 10
286.137833
 20
-840.823167
 30
0.0
 11
286.137833
 21
-838.823167
 31
0.0
  0
LINE
  8
1
  6
CONTINUOUS
 62
     3
  5
4FF
 10
287.137833
 20
-840.823167
 30
0.0
 11
287.137833
 21
-838.823167
 31
0.0
  0
LINE
  8
1
  6
CONTINUOUS
 62
     3
  5
500
 10
285.887833
 20
-838.823167
 30
0.0
 11
285.887833
 21
-838.073167
 31
0.0
  0
LINE
  8
1
  6
CONTINUOUS
 62
     3
  5
501
 10
287.387833
 20
-838.823167
 30
0.0
 11
287.387833
 21
-838.073167
 31
0.0
  0
LINE
  8
1
  6
CONTINUOUS
 62
     3
  5
502
 10
285.887833
 20
-838.073167
 30
0.0
 11
287.387833
 21
-838.073167
 31
0.0
  0
LINE
  8
1
  6
CONTINUOUS
 62
     3
  5
503
 10
287.012833
 20
-838.823167
 30
0.0
 11
287.012833
 21
-837.573167
 31
0.0
  0
ARC
  8
1
  6
CONTINUOUS
 62
     3
  5
504
 10
286.637833
 20
-840.669279
 30
0.0
 40
0.765625
 50
191.595244
 51
348.404753
210
0.0
220
0.0
230
1.0
  0
LINE
  8
1
  6
CONTINUOUS
 62
     3
  5
505
 10
248.387833
 20
-829.573167
 30
0.0
 11
249.887833
 21
-829.573167
 31
0.0
  0
LINE
  8
1
  6
CONTINUOUS
 62
     3
  5
506
 10
291.387833
 20
-829.573167
 30
0.0
 11
292.887833
 21
-829.573167
 31
0.0
  0
LINE
  8
1
  6
CONTINUOUS
 62
     3
  5
507
 10
248.387833
 20
-830.573167
 30
0.0
 11
249.887833
 21
-830.573167
 31
0.0
  0
LINE
  8
1
  6
CONTINUOUS
 62
     3
  5
508
 10
248.387833
 20
-831.573167
 30
0.0
 11
249.887833
 21
-831.573167
 31
0.0
  0
LINE
  8
1
  6
CONTINUOUS
 62
     3
  5
509
 10
248.387833
 20
-832.573167
 30
0.0
 11
249.887833
 21
-832.573167
 31
0.0
  0
LINE
  8
1
  6
CONTINUOUS
 62
     3
  5
50A
 10
248.387833
 20
-833.573167
 30
0.0
 11
249.887833
 21
-833.573167
 31
0.0
  0
LINE
  8
1
  6
CONTINUOUS
 62
     3
  5
50B
 10
291.387833
 20
-830.573167
 30
0.0
 11
292.887833
 21
-830.573167
 31
0.0
  0
LINE
  8
1
  6
CONTINUOUS
 62
     3
  5
50C
 10
291.387833
 20
-831.573167
 30
0.0
 11
292.887833
 21
-831.573167
 31
0.0
  0
LINE
  8
1
  6
CONTINUOUS
 62
     3
  5
50D
 10
291.387833
 20
-832.573167
 30
0.0
 11
292.887833
 21
-832.573167
 31
0.0
  0
LINE
  8
1
  6
CONTINUOUS
 62
     3
  5
50E
 10
291.387833
 20
-833.573167
 30
0.0
 11
292.887833
 21
-833.573167
 31
0.0
  0
LINE
  8
1
  6
CONTINUOUS
 62
     7
  5
50F
 10
254.637833
 20
-842.434917
 30
0.0
 11
254.637833
 21
-855.434917
 31
0.0
  0
LINE
  8
1
  6
CONTINUOUS
 62
     7
  5
510
 10
286.637833
 20
-842.434917
 30
0.0
 11
286.637833
 21
-856.434917
 31
0.0
  0
LINE
  8
1
  6
CONTINUOUS
 62
     7
  5
511
 10
292.137833
 20
-842.434917
 30
0.0
 11
292.137833
 21
-856.434917
 31
0.0
  0
LINE
  8
1
  6
CONTINUOUS
 62
     7
  5
512
 10
281.637833
 20
-855.434917
 30
0.0
 11
286.637833
 21
-855.434917
 31
0.0
  0
INSERT
  8
1
  6
CONTINUOUS
 62
     1
  5
513
  2
LDR
 10
286.637833
 20
-855.434917
 30
0.0
 41
240.0
 42
240.0
210
0.0
220
0.0
230
1.0
  0
INSERT
  8
1
  6
CONTINUOUS
 62
     1
  5
514
  2
LDR
 10
286.637833
 20
-855.434917
 30
0.0
 41
240.0
 42
240.0
210
0.0
220
0.0
230
1.0
  0
LINE
  8
1
  6
CONTINUOUS
 62
     7
  5
515
 10
298.137833
 20
-842.434917
 30
0.0
 11
298.137833
 21
-856.434917
 31
0.0
  0
LINE
  8
1
  6
CONTINUOUS
 62
     7
  5
516
 10
244.387833
 20
-841.823167
 30
0.0
 11
244.387833
 21
-848.921667
 31
0.0
  0
LINE
  8
1
  6
CONTINUOUS
 62
     7
  5
517
 10
249.137833
 20
-841.823167
 30
0.0
 11
249.137833
 21
-855.434917
 31
0.0
  0
LINE
  8
1
  6
CONTINUOUS
 62
     7
  5
518
 10
243.137833
 20
-854.434917
 30
0.0
 11
238.137833
 21
-854.434917
 31
0.0
  0
LINE
  8
1
  6
CONTINUOUS
 62
     7
  5
519
 10
244.387833
 20
-847.921667
 30
0.0
 11
235.83975
 21
-847.921667
 31
0.0
  0
LINE
  8
1
  6
CONTINUOUS
 62
     7
  5
51A
 10
249.137833
 20
-847.921667
 30
0.0
 11
254.137833
 21
-847.921667
 31
0.0
  0
LINE
  8
1
  6
CONTINUOUS
 62
     7
  5
51B
 10
254.637833
 20
-854.434917
 30
0.0
 11
259.637833
 21
-854.434917
 31
0.0
  0
LINE
  8
1
  6
CONTINUOUS
 62
     7
  5
51C
 10
243.137833
 20
-841.823167
 30
0.0
 11
243.137833
 21
-846.921667
 31
0.0
  0
LINE
  8
1
  6
CONTINUOUS
 62
     7
  5
51D
 10
243.137833
 20
-848.921667
 30
0.0
 11
243.137833
 21
-855.434917
 31
0.0
  0
INSERT
  8
1
  6
CONTINUOUS
 62
     1
  5
51E
  2
LDR
 10
244.387833
 20
-847.921667
 30
0.0
 41
240.0
 42
240.0
210
0.0
220
0.0
230
1.0
  0
INSERT
  8
1
  6
CONTINUOUS
 62
     1
  5
51F
  2
LDR
 10
244.387833
 20
-847.921667
 30
0.0
 41
240.0
 42
240.0
210
0.0
220
0.0
230
1.0
  0
INSERT
  8
1
  6
CONTINUOUS
 62
     1
  5
520
  2
LDR
 10
249.137833
 20
-847.921667
 30
0.0
 41
240.0
 42
240.0
 50
180.0
210
0.0
220
0.0
230
1.0
  0
INSERT
  8
1
  6
CONTINUOUS
 62
     1
  5
521
  2
LDR
 10
249.137833
 20
-847.921667
 30
0.0
 41
240.0
 42
240.0
 50
180.0
210
0.0
220
0.0
230
1.0
  0
INSERT
  8
1
  6
CONTINUOUS
 62
     1
  5
522
  2
LDR
 10
243.137833
 20
-854.434917
 30
0.0
 41
240.0
 42
240.0
210
0.0
220
0.0
230
1.0
  0
INSERT
  8
1
  6
CONTINUOUS
 62
     1
  5
523
  2
LDR
 10
243.137833
 20
-854.434917
 30
0.0
 41
240.0
 42
240.0
210
0.0
220
0.0
230
1.0
  0
INSERT
  8
1
  6
CONTINUOUS
 62
     1
  5
524
  2
LDR
 10
254.637833
 20
-854.434917
 30
0.0
 41
240.0
 42
240.0
 50
180.0
210
0.0
220
0.0
230
1.0
  0
LINE
  8
1
  6
CONTINUOUS
 62
     7
  5
525
 10
298.137833
 20
-855.434917
 30
0.0
 11
303.137833
 21
-855.434917
 31
0.0
  0
INSERT
  8
1
  6
CONTINUOUS
 62
     1
  5
526
  2
LDR
 10
298.137833
 20
-855.434917
 30
0.0
 41
240.0
 42
240.0
 50
180.0
210
0.0
220
0.0
230
1.0
  0
LINE
  8
1
  6
CONTINUOUS
 62
     3
  5
527
 10
148.9755
 20
-703.72075
 30
0.0
 11
148.9755
 21
-750.10075
 31
0.0
  0
LINE
  8
1
  6
CONTINUOUS
 62
     3
  5
528
 10
148.9755
 20
-762.18075
 30
0.0
 11
148.9755
 21
-808.56075
 31
0.0
  0
LINE
  8
1
  6
CONTINUOUS
 62
     3
  5
529
 10
150.9755
 20
-703.72075
 30
0.0
 11
150.9755
 21
-750.10075
 31
0.0
  0
LINE
  8
1
  6
CONTINUOUS
 62
     3
  5
52A
 10
150.9755
 20
-762.18075
 30
0.0
 11
150.9755
 21
-808.56075
 31
0.0
  0
LINE
  8
1
  6
CONTINUOUS
 62
     3
  5
52B
 10
149.9755
 20
-702.22075
 30
0.0
 11
149.9755
 21
-705.24075
 31
0.0
  0
LINE
  8
1
  6
CONTINUOUS
 62
     3
  5
52C
 10
148.9755
 20
-703.72075
 30
0.0
 11
149.9755
 21
-702.22075
 31
0.0
  0
LINE
  8
1
  6
CONTINUOUS
 62
     3
  5
52D
 10
149.9755
 20
-705.24075
 30
0.0
 11
150.9755
 21
-703.72075
 31
0.0
  0
LINE
  8
1
  6
CONTINUOUS
 62
     3
  5
52E
 10
146.9555
 20
-703.72075
 30
0.0
 11
148.9755
 21
-703.72075
 31
0.0
  0
LINE
  8
1
  6
CONTINUOUS
 62
     3
  5
52F
 10
150.9755
 20
-703.72075
 30
0.0
 11
152.9955
 21
-703.72075
 31
0.0
  0
LINE
  8
1
  6
CONTINUOUS
 62
     3
  5
530
 10
146.9555
 20
-750.10075
 30
0.0
 11
148.9755
 21
-750.10075
 31
0.0
  0
LINE
  8
1
  6
CONTINUOUS
 62
     3
  5
531
 10
149.9755
 20
-748.58075
 30
0.0
 11
149.9755
 21
-751.60075
 31
0.0
  0
LINE
  8
1
  6
CONTINUOUS
 62
     3
  5
532
 10
148.9755
 20
-750.10075
 30
0.0
 11
149.9755
 21
-748.58075
 31
0.0
  0
LINE
  8
1
  6
CONTINUOUS
 62
     3
  5
533
 10
149.9755
 20
-751.60075
 30
0.0
 11
150.9755
 21
-750.10075
 31
0.0
  0
LINE
  8
1
  6
CONTINUOUS
 62
     3
  5
534
 10
150.9755
 20
-750.10075
 30
0.0
 11
152.9955
 21
-750.10075
 31
0.0
  0
LINE
  8
1
  6
CONTINUOUS
 62
     3
  5
535
 10
146.9555
 20
-762.18075
 30
0.0
 11
148.9755
 21
-762.18075
 31
0.0
  0
LINE
  8
1
  6
CONTINUOUS
 62
     3
  5
536
 10
149.9755
 20
-760.68075
 30
0.0
 11
149.9755
 21
-763.70075
 31
0.0
  0
LINE
  8
1
  6
CONTINUOUS
 62
     3
  5
537
 10
148.9755
 20
-762.18075
 30
0.0
 11
149.9755
 21
-760.68075
 31
0.0
  0
LINE
  8
1
  6
CONTINUOUS
 62
     3
  5
538
 10
149.9755
 20
-763.70075
 30
0.0
 11
150.9755
 21
-762.18075
 31
0.0
  0
LINE
  8
1
  6
CONTINUOUS
 62
     3
  5
539
 10
150.9755
 20
-762.18075
 30
0.0
 11
152.9955
 21
-762.18075
 31
0.0
  0
LINE
  8
1
  6
CONTINUOUS
 62
     3
  5
53A
 10
146.9555
 20
-808.56075
 30
0.0
 11
148.9755
 21
-808.56075
 31
0.0
  0
LINE
  8
1
  6
CONTINUOUS
 62
     3
  5
53B
 10
149.9755
 20
-807.04075
 30
0.0
 11
149.9755
 21
-810.06075
 31
0.0
  0
LINE
  8
1
  6
CONTINUOUS
 62
     3
  5
53C
 10
148.9755
 20
-808.56075
 30
0.0
 11
149.9755
 21
-807.04075
 31
0.0
  0
LINE
  8
1
  6
CONTINUOUS
 62
     3
  5
53D
 10
149.9755
 20
-810.06075
 30
0.0
 11
150.9755
 21
-808.56075
 31
0.0
  0
LINE
  8
1
  6
CONTINUOUS
 62
     3
  5
53E
 10
150.9755
 20
-808.56075
 30
0.0
 11
152.9955
 21
-808.56075
 31
0.0
  0
LINE
  8
1
  6
CONTINUOUS
 62
     3
  5
53F
 10
171.6555
 20
-705.24075
 30
0.0
 11
171.6555
 21
-754.12075
 31
0.0
  0
LINE
  8
1
  6
CONTINUOUS
 62
     3
  5
540
 10
172.6555
 20
-705.24075
 30
0.0
 11
172.6555
 21
-754.12075
 31
0.0
  0
LINE
  8
1
  6
CONTINUOUS
 62
     3
  5
541
 10
183.7355
 20
-705.24075
 30
0.0
 11
183.7355
 21
-754.12075
 31
0.0
  0
LINE
  8
1
  6
DASHED
 62
     3
  5
542
 10
182.7355
 20
-705.24075
 30
0.0
 11
182.7355
 21
-754.12075
 31
0.0
  0
LINE
  8
1
  6
CONTINUOUS
 62
     3
  5
543
 10
177.6955
 20
-703.72075
 30
0.0
 11
177.6955
 21
-706.74075
 31
0.0
  0
LINE
  8
1
  6
CONTINUOUS
 62
     3
  5
544
 10
176.6955
 20
-705.24075
 30
0.0
 11
177.6955
 21
-703.72075
 31
0.0
  0
LINE
  8
1
  6
CONTINUOUS
 62
     3
  5
545
 10
177.6955
 20
-706.74075
 30
0.0
 11
178.6955
 21
-705.24075
 31
0.0
  0
LINE
  8
1
  6
CONTINUOUS
 62
     3
  5
546
 10
177.6955
 20
-752.62075
 30
0.0
 11
177.6955
 21
-755.64075
 31
0.0
  0
LINE
  8
1
  6
CONTINUOUS
 62
     3
  5
547
 10
176.6955
 20
-754.12075
 30
0.0
 11
177.6955
 21
-752.62075
 31
0.0
  0
LINE
  8
1
  6
CONTINUOUS
 62
     3
  5
548
 10
177.6955
 20
-755.64075
 30
0.0
 11
178.6955
 21
-754.12075
 31
0.0
  0
LINE
  8
1
  6
CONTINUOUS
 62
     3
  5
549
 10
169.6355
 20
-705.24075
 30
0.0
 11
176.6955
 21
-705.24075
 31
0.0
  0
LINE
  8
1
  6
CONTINUOUS
 62
     3
  5
54A
 10
178.6955
 20
-705.24075
 30
0.0
 11
185.7555
 21
-705.24075
 31
0.0
  0
LINE
  8
1
  6
CONTINUOUS
 62
     3
  5
54B
 10
169.6355
 20
-754.12075
 30
0.0
 11
176.6955
 21
-754.12075
 31
0.0
  0
LINE
  8
1
  6
CONTINUOUS
 62
     3
  5
54C
 10
178.6955
 20
-754.12075
 30
0.0
 11
185.7555
 21
-754.12075
 31
0.0
  0
LINE
  8
1
  6
CONTINUOUS
 62
     3
  5
54D
 10
150.9755
 20
-723.38075
 30
0.0
 11
152.9955
 21
-723.38075
 31
0.0
  0
LINE
  8
1
  6
CONTINUOUS
 62
     3
  5
54E
 10
152.9955
 20
-723.38075
 30
0.0
 11
152.9955
 21
-731.44075
 31
0.0
  0
LINE
  8
1
  6
CONTINUOUS
 62
     3
  5
54F
 10
152.9955
 20
-731.44075
 30
0.0
 11
171.6555
 21
-731.44075
 31
0.0
  0
LINE
  8
1
  6
CONTINUOUS
 62
     3
  5
550
 10
150.9755
 20
-733.46075
 30
0.0
 11
165.5955
 21
-733.46075
 31
0.0
  0
LINE
  8
1
  6
CONTINUOUS
 62
     3
  5
551
 10
165.5955
 20
-733.46075
 30
0.0
 11
165.5955
 21
-739.50075
 31
0.0
  0
LINE
  8
1
  6
CONTINUOUS
 62
     3
  5
552
 10
165.5955
 20
-739.50075
 30
0.0
 11
171.6555
 21
-739.50075
 31
0.0
  0
LINE
  8
1
  6
CONTINUOUS
 62
     3
  5
553
 10
167.6155
 20
-733.46075
 30
0.0
 11
167.6155
 21
-738.50075
 31
0.0
  0
LINE
  8
1
  6
CONTINUOUS
 62
     3
  5
554
 10
167.6155
 20
-733.46075
 30
0.0
 11
170.8955
 21
-733.46075
 31
0.0
  0
LINE
  8
1
  6
CONTINUOUS
 62
     3
  5
555
 10
167.6155
 20
-738.50075
 30
0.0
 11
170.8955
 21
-738.50075
 31
0.0
  0
LINE
  8
1
  6
CONTINUOUS
 62
     3
  5
556
 10
170.8955
 20
-733.46075
 30
0.0
 11
170.8955
 21
-738.50075
 31
0.0
  0
LINE
  8
1
  6
CONTINUOUS
 62
     3
  5
557
 10
168.1155
 20
-733.96075
 30
0.0
 11
168.1155
 21
-738.00075
 31
0.0
  0
LINE
  8
1
  6
CONTINUOUS
 62
     3
  5
558
 10
168.1155
 20
-733.96075
 30
0.0
 11
170.3955
 21
-733.96075
 31
0.0
  0
LINE
  8
1
  6
CONTINUOUS
 62
     3
  5
559
 10
170.3955
 20
-733.96075
 30
0.0
 11
170.3955
 21
-738.00075
 31
0.0
  0
LINE
  8
1
  6
CONTINUOUS
 62
     3
  5
55A
 10
168.1155
 20
-738.00075
 30
0.0
 11
170.3955
 21
-738.00075
 31
0.0
  0
LINE
  8
1
  6
CONTINUOUS
 62
     3
  5
55B
 10
168.1155
 20
-734.98075
 30
0.0
 11
170.3955
 21
-734.98075
 31
0.0
  0
LINE
  8
1
  6
CONTINUOUS
 62
     3
  5
55C
 10
168.1155
 20
-736.98075
 30
0.0
 11
170.3955
 21
-736.98075
 31
0.0
  0
LINE
  8
1
  6
DASHED
 62
     3
  5
55D
 10
172.6555
 20
-734.98075
 30
0.0
 11
182.7355
 21
-734.98075
 31
0.0
  0
LINE
  8
1
  6
DASHED
 62
     3
  5
55E
 10
172.6555
 20
-736.98075
 30
0.0
 11
182.7355
 21
-736.98075
 31
0.0
  0
LINE
  8
1
  6
CONTINUOUS
 62
     3
  5
55F
 10
183.7355
 20
-734.98075
 30
0.0
 11
187.2755
 21
-734.98075
 31
0.0
  0
LINE
  8
1
  6
CONTINUOUS
 62
     3
  5
560
 10
183.7355
 20
-736.98075
 30
0.0
 11
187.2755
 21
-736.98075
 31
0.0
  0
LINE
  8
1
  6
CONTINUOUS
 62
     3
  5
561
 10
183.7355
 20
-733.96075
 30
0.0
 11
185.2555
 21
-733.96075
 31
0.0
  0
LINE
  8
1
  6
CONTINUOUS
 62
     3
  5
562
 10
183.7355
 20
-738.00075
 30
0.0
 11
185.2555
 21
-738.00075
 31
0.0
  0
LINE
  8
1
  6
CONTINUOUS
 62
     3
  5
563
 10
185.2555
 20
-733.96075
 30
0.0
 11
185.2555
 21
-738.00075
 31
0.0
  0
LINE
  8
1
  6
CONTINUOUS
 62
     3
  5
564
 10
187.2755
 20
-734.98075
 30
0.0
 11
187.2755
 21
-736.98075
 31
0.0
  0
LINE
  8
1
  6
CONTINUOUS
 62
     3
  5
565
 10
186.2555
 20
-734.98075
 30
0.0
 11
186.2555
 21
-736.98075
 31
0.0
  0
LINE
  8
1
  6
CONTINUOUS
 62
     3
  5
566
 10
186.7755
 20
-735.48075
 30
0.0
 11
186.7755
 21
-736.48075
 31
0.0
  0
LINE
  8
1
  6
CONTINUOUS
 62
     3
  5
567
 10
185.7555
 20
-735.48075
 30
0.0
 11
185.7555
 21
-736.48075
 31
0.0
  0
LINE
  8
1
  6
CONTINUOUS
 62
     7
  5
568
 10
188.2755
 20
-735.98075
 30
0.0
 11
192.3155
 21
-735.98075
 31
0.0
  0
LINE
  8
1
  6
CONTINUOUS
 62
     3
  5
569
 10
152.9955
 20
-727.42075
 30
0.0
 11
154.0155
 21
-727.42075
 31
0.0
  0
LINE
  8
1
  6
CONTINUOUS
 62
     3
  5
56A
 10
152.9955
 20
-726.40075
 30
0.0
 11
154.0155
 21
-726.40075
 31
0.0
  0
LINE
  8
1
  6
CONTINUOUS
 62
     3
  5
56B
 10
152.9955
 20
-728.42075
 30
0.0
 11
154.0155
 21
-728.42075
 31
0.0
  0
LINE
  8
1
  6
CONTINUOUS
 62
     3
  5
56C
 10
154.0155
 20
-726.40075
 30
0.0
 11
154.0155
 21
-727.42075
 31
0.0
  0
LINE
  8
1
  6
CONTINUOUS
 62
     3
  5
56D
 10
154.0155
 20
-727.42075
 30
0.0
 11
154.0155
 21
-728.42075
 31
0.0
  0
LINE
  8
1
  6
CONTINUOUS
 62
     3
  5
56E
 10
154.0155
 20
-726.90075
 30
0.0
 11
156.0155
 21
-726.90075
 31
0.0
  0
LINE
  8
1
  6
CONTINUOUS
 62
     3
  5
56F
 10
154.0155
 20
-727.92075
 30
0.0
 11
156.0155
 21
-727.92075
 31
0.0
  0
LINE
  8
1
  6
CONTINUOUS
 62
     3
  5
570
 10
156.0155
 20
-727.92075
 30
0.0
 11
156.0155
 21
-726.90075
 31
0.0
  0
LINE
  8
1
  6
CONTINUOUS
 62
     3
  5
571
 10
155.2755
 20
-727.92075
 30
0.0
 11
155.2755
 21
-726.90075
 31
0.0
  0
LINE
  8
1
  6
CONTINUOUS
 62
     3
  5
572
 10
154.5155
 20
-727.92075
 30
0.0
 11
154.5155
 21
-726.90075
 31
0.0
  0
LINE
  8
1
  6
CONTINUOUS
 62
     3
  5
573
 10
148.9755
 20
-727.42075
 30
0.0
 11
147.9555
 21
-727.42075
 31
0.0
  0
LINE
  8
1
  6
CONTINUOUS
 62
     3
  5
574
 10
148.9755
 20
-726.40075
 30
0.0
 11
147.9555
 21
-726.40075
 31
0.0
  0
LINE
  8
1
  6
CONTINUOUS
 62
     3
  5
575
 10
148.9755
 20
-728.42075
 30
0.0
 11
147.9555
 21
-728.42075
 31
0.0
  0
LINE
  8
1
  6
CONTINUOUS
 62
     3
  5
576
 10
147.9555
 20
-726.40075
 30
0.0
 11
147.9555
 21
-727.42075
 31
0.0
  0
LINE
  8
1
  6
CONTINUOUS
 62
     3
  5
577
 10
147.9555
 20
-727.42075
 30
0.0
 11
147.9555
 21
-728.42075
 31
0.0
  0
LINE
  8
1
  6
CONTINUOUS
 62
     7
  5
578
 10
159.5555
 20
-727.42075
 30
0.0
 11
157.0355
 21
-727.42075
 31
0.0
  0
LINE
  8
1
  6
CONTINUOUS
 62
     7
  5
579
 10
146.9555
 20
-727.42075
 30
0.0
 11
144.4355
 21
-727.42075
 31
0.0
  0
LINE
  8
1
  6
CONTINUOUS
 62
     7
  5
57A
 10
162.3155
 20
-731.44075
 30
0.0
 11
158.5155
 21
-696.54075
 31
0.0
  0
LINE
  8
1
  6
CONTINUOUS
 62
     7
  5
57B
 10
158.5155
 20
-696.54075
 30
0.0
 11
140.2755
 21
-696.54075
 31
0.0
  0
INSERT
  8
1
  6
CONTINUOUS
 62
     1
  5
57C
  2
LDR
 10
162.3155
 20
-731.44075
 30
0.0
 41
241.920491
 42
241.920491
 50
276.212984
210
0.0
220
0.0
230
1.0
  0
LINE
  8
1
  6
CONTINUOUS
 62
     7
  5
57D
 10
183.7355
 20
-718.74075
 30
0.0
 11
191.2555
 21
-710.54075
 31
0.0
  0
LINE
  8
1
  6
CONTINUOUS
 62
     7
  5
57E
 10
191.2555
 20
-710.54075
 30
0.0
 11
195.9955
 21
-710.54075
 31
0.0
  0
INSERT
  8
1
  6
CONTINUOUS
 62
     1
  5
57F
  2
LDR
 10
183.7355
 20
-718.74075
 30
0.0
 41
241.920009
 42
241.920009
 50
227.499032
210
0.0
220
0.0
230
1.0
  0
LINE
  8
1
  6
CONTINUOUS
 62
     3
  5
580
 10
172.1555
 20
-767.22075
 30
0.0
 11
172.1555
 21
-803.52075
 31
0.0
  0
LINE
  8
1
  6
CONTINUOUS
 62
     3
  5
581
 10
161.5755
 20
-765.22075
 30
0.0
 11
161.5755
 21
-769.24075
 31
0.0
  0
LINE
  8
1
  6
CONTINUOUS
 62
     3
  5
582
 10
161.5755
 20
-801.50075
 30
0.0
 11
161.5755
 21
-805.54075
 31
0.0
  0
LINE
  8
1
  6
CONTINUOUS
 62
     3
  5
583
 10
172.1555
 20
-767.22075
 30
0.0
 11
163.5755
 21
-767.22075
 31
0.0
  0
LINE
  8
1
  6
CONTINUOUS
 62
     3
  5
584
 10
159.5555
 20
-767.22075
 30
0.0
 11
150.9755
 21
-767.22075
 31
0.0
  0
LINE
  8
1
  6
CONTINUOUS
 62
     3
  5
585
 10
172.1555
 20
-803.52075
 30
0.0
 11
163.5755
 21
-803.52075
 31
0.0
  0
LINE
  8
1
  6
CONTINUOUS
 62
     3
  5
586
 10
159.5555
 20
-803.52075
 30
0.0
 11
150.9755
 21
-803.52075
 31
0.0
  0
LINE
  8
1
  6
CONTINUOUS
 62
     3
  5
587
 10
159.5555
 20
-767.22075
 30
0.0
 11
161.5755
 21
-765.22075
 31
0.0
  0
LINE
  8
1
  6
CONTINUOUS
 62
     3
  5
588
 10
163.5755
 20
-767.22075
 30
0.0
 11
161.5755
 21
-769.24075
 31
0.0
  0
LINE
  8
1
  6
CONTINUOUS
 62
     3
  5
589
 10
159.5555
 20
-803.52075
 30
0.0
 11
161.5755
 21
-801.50075
 31
0.0
  0
LINE
  8
1
  6
CONTINUOUS
 62
     3
  5
58A
 10
163.5755
 20
-803.52075
 30
0.0
 11
161.5755
 21
-805.54075
 31
0.0
  0
LINE
  8
1
  6
CONTINUOUS
 62
     3
  5
58B
 10
152.9955
 20
-767.22075
 30
0.0
 11
152.9955
 21
-803.52075
 31
0.0
  0
LINE
  8
1
  6
DASHED
 62
     3
  5
58C
 10
168.3755
 20
-767.22075
 30
0.0
 11
168.3755
 21
-803.52075
 31
0.0
  0
LINE
  8
1
  6
DASHED
 62
     3
  5
58D
 10
166.3555
 20
-767.22075
 30
0.0
 11
166.3555
 21
-803.52075
 31
0.0
  0
LINE
  8
1
  6
HIDDEN
 62
     3
  5
58E
 10
169.1355
 20
-782.86075
 30
0.0
 11
169.1355
 21
-787.90075
 31
0.0
  0
LINE
  8
1
  6
HIDDEN
 62
     3
  5
58F
 10
169.1355
 20
-782.86075
 30
0.0
 11
170.8955
 21
-782.86075
 31
0.0
  0
LINE
  8
1
  6
HIDDEN
 62
     3
  5
590
 10
169.1355
 20
-787.90075
 30
0.0
 11
170.8955
 21
-787.90075
 31
0.0
  0
LINE
  8
1
  6
HIDDEN
 62
     3
  5
591
 10
170.8955
 20
-784.12075
 30
0.0
 11
172.1555
 21
-784.12075
 31
0.0
  0
LINE
  8
1
  6
HIDDEN
 62
     3
  5
592
 10
170.8955
 20
-786.64075
 30
0.0
 11
172.1555
 21
-786.64075
 31
0.0
  0
LINE
  8
1
  6
CONTINUOUS
 62
     3
  5
593
 10
172.1555
 20
-784.12075
 30
0.0
 11
182.2355
 21
-784.12075
 31
0.0
  0
LINE
  8
1
  6
CONTINUOUS
 62
     3
  5
594
 10
172.1555
 20
-786.64075
 30
0.0
 11
182.2355
 21
-786.64075
 31
0.0
  0
LINE
  8
1
  6
CONTINUOUS
 62
     3
  5
595
 10
182.2355
 20
-789.16075
 30
0.0
 11
182.2355
 21
-781.60075
 31
0.0
  0
LINE
  8
1
  6
CONTINUOUS
 62
     3
  5
596
 10
184.2555
 20
-790.22075
 30
0.0
 11
184.2555
 21
-780.52075
 31
0.0
  0
LINE
  8
1
  6
CONTINUOUS
 62
     3
  5
597
 10
172.1555
 20
-774.78075
 30
0.0
 11
182.2355
 21
-781.60075
 31
0.0
  0
LINE
  8
1
  6
CONTINUOUS
 62
     3
  5
598
 10
182.2355
 20
-789.16075
 30
0.0
 11
172.1555
 21
-795.96075
 31
0.0
  0
LINE
  8
1
  6
CONTINUOUS
 62
     3
  5
599
 10
172.1555
 20
-770.26075
 30
0.0
 11
174.1755
 21
-770.26075
 31
0.0
  0
LINE
  8
1
  6
CONTINUOUS
 62
     3
  5
59A
 10
172.1555
 20
-800.50075
 30
0.0
 11
174.1755
 21
-800.50075
 31
0.0
  0
LINE
  8
1
  6
CONTINUOUS
 62
     3
  5
59B
 10
174.1755
 20
-773.72075
 30
0.0
 11
184.2555
 21
-780.52075
 31
0.0
  0
LINE
  8
1
  6
CONTINUOUS
 62
     3
  5
59C
 10
184.2555
 20
-790.22075
 30
0.0
 11
174.1755
 21
-797.02075
 31
0.0
  0
LINE
  8
1
  6
CONTINUOUS
 62
     3
  5
59D
 10
174.1755
 20
-770.26075
 30
0.0
 11
174.1755
 21
-773.72075
 31
0.0
  0
LINE
  8
1
  6
CONTINUOUS
 62
     3
  5
59E
 10
174.1755
 20
-800.50075
 30
0.0
 11
174.1755
 21
-797.02075
 31
0.0
  0
LINE
  8
1
  6
CONTINUOUS
 62
     3
  5
59F
 10
184.2555
 20
-782.86075
 30
0.0
 11
185.7555
 21
-782.86075
 31
0.0
  0
LINE
  8
1
  6
CONTINUOUS
 62
     3
  5
5A0
 10
184.2555
 20
-787.90075
 30
0.0
 11
185.7555
 21
-787.90075
 31
0.0
  0
LINE
  8
1
  6
CONTINUOUS
 62
     3
  5
5A1
 10
185.7555
 20
-782.86075
 30
0.0
 11
185.7555
 21
-787.90075
 31
0.0
  0
LINE
  8
1
  6
DASHED
 62
     3
  5
5A2
 10
170.8955
 20
-767.22075
 30
0.0
 11
170.8955
 21
-782.86075
 31
0.0
  0
LINE
  8
1
  6
DASHED
 62
     3
  5
5A3
 10
170.8955
 20
-784.12075
 30
0.0
 11
170.8955
 21
-786.64075
 31
0.0
  0
LINE
  8
1
  6
DASHED
 62
     3
  5
5A4
 10
170.8955
 20
-787.90075
 30
0.0
 11
170.8955
 21
-803.52075
 31
0.0
  0
LINE
  8
1
  6
CONTINUOUS
 62
     3
  5
5A5
 10
184.2555
 20
-784.12075
 30
0.0
 11
187.7755
 21
-784.12075
 31
0.0
  0
LINE
  8
1
  6
CONTINUOUS
 62
     3
  5
5A6
 10
184.2555
 20
-786.64075
 30
0.0
 11
187.7755
 21
-786.64075
 31
0.0
  0
LINE
  8
1
  6
CONTINUOUS
 62
     3
  5
5A7
 10
187.7755
 20
-784.12075
 30
0.0
 11
187.7755
 21
-786.64075
 31
0.0
  0
LINE
  8
1
  6
CONTINUOUS
 62
     3
  5
5A8
 10
187.2755
 20
-784.62075
 30
0.0
 11
187.2755
 21
-786.12075
 31
0.0
  0
LINE
  8
1
  6
CONTINUOUS
 62
     3
  5
5A9
 10
186.7755
 20
-784.12075
 30
0.0
 11
186.7755
 21
-786.64075
 31
0.0
  0
LINE
  8
1
  6
CONTINUOUS
 62
     3
  5
5AA
 10
186.2555
 20
-784.62075
 30
0.0
 11
186.2555
 21
-786.12075
 31
0.0
  0
LINE
  8
1
  6
CONTINUOUS
 62
     3
  5
5AB
 10
181.7355
 20
-786.12075
 30
0.0
 11
181.7355
 21
-784.62075
 31
0.0
  0
LINE
  8
1
  6
CONTINUOUS
 62
     3
  5
5AC
 10
181.2155
 20
-786.64075
 30
0.0
 11
181.2155
 21
-784.12075
 31
0.0
  0
LINE
  8
1
  6
CONTINUOUS
 62
     3
  5
5AD
 10
180.7155
 20
-786.12075
 30
0.0
 11
180.7155
 21
-784.62075
 31
0.0
  0
LINE
  8
1
  6
CONTINUOUS
 62
     3
  5
5AE
 10
180.2155
 20
-786.64075
 30
0.0
 11
180.2155
 21
-784.12075
 31
0.0
  0
LINE
  8
1
  6
CONTINUOUS
 62
     3
  5
5AF
 10
179.7155
 20
-786.12075
 30
0.0
 11
179.7155
 21
-784.62075
 31
0.0
  0
LINE
  8
1
  6
CONTINUOUS
 62
     3
  5
5B0
 10
179.2155
 20
-786.64075
 30
0.0
 11
179.2155
 21
-784.12075
 31
0.0
  0
LINE
  8
1
  6
CONTINUOUS
 62
     3
  5
5B1
 10
178.6955
 20
-786.12075
 30
0.0
 11
178.6955
 21
-784.62075
 31
0.0
  0
LINE
  8
1
  6
CONTINUOUS
 62
     3
  5
5B2
 10
178.1955
 20
-786.64075
 30
0.0
 11
178.1955
 21
-784.12075
 31
0.0
  0
LINE
  8
1
  6
CONTINUOUS
 62
     3
  5
5B3
 10
177.6955
 20
-786.12075
 30
0.0
 11
177.6955
 21
-784.62075
 31
0.0
  0
LINE
  8
1
  6
CONTINUOUS
 62
     3
  5
5B4
 10
177.1955
 20
-786.64075
 30
0.0
 11
177.1955
 21
-784.12075
 31
0.0
  0
LINE
  8
1
  6
CONTINUOUS
 62
     3
  5
5B5
 10
176.6955
 20
-786.12075
 30
0.0
 11
176.6955
 21
-784.62075
 31
0.0
  0
LINE
  8
1
  6
CONTINUOUS
 62
     3
  5
5B6
 10
176.1755
 20
-786.64075
 30
0.0
 11
176.1755
 21
-784.12075
 31
0.0
  0
LINE
  8
1
  6
CONTINUOUS
 62
     3
  5
5B7
 10
175.6755
 20
-786.12075
 30
0.0
 11
175.6755
 21
-784.62075
 31
0.0
  0
LINE
  8
1
  6
CONTINUOUS
 62
     3
  5
5B8
 10
175.1755
 20
-786.64075
 30
0.0
 11
175.1755
 21
-784.12075
 31
0.0
  0
LINE
  8
1
  6
CONTINUOUS
 62
     3
  5
5B9
 10
174.6755
 20
-786.12075
 30
0.0
 11
174.6755
 21
-784.62075
 31
0.0
  0
LINE
  8
1
  6
CONTINUOUS
 62
     3
  5
5BA
 10
174.1755
 20
-786.64075
 30
0.0
 11
174.1755
 21
-784.12075
 31
0.0
  0
LINE
  8
1
  6
CONTINUOUS
 62
     3
  5
5BB
 10
173.6555
 20
-786.12075
 30
0.0
 11
173.6555
 21
-784.62075
 31
0.0
  0
LINE
  8
1
  6
CONTINUOUS
 62
     3
  5
5BC
 10
173.1555
 20
-786.64075
 30
0.0
 11
173.1555
 21
-784.12075
 31
0.0
  0
LINE
  8
1
  6
CONTINUOUS
 62
     3
  5
5BD
 10
172.6555
 20
-786.12075
 30
0.0
 11
172.6555
 21
-784.62075
 31
0.0
  0
LINE
  8
1
  6
CONTINUOUS
 62
     7
  5
5BE
 10
188.7755
 20
-785.38075
 30
0.0
 11
192.8155
 21
-785.38075
 31
0.0
  0
LINE
  8
1
  6
CONTINUOUS
 62
     7
  5
5BF
 10
192.3155
 20
-760.68075
 30
0.0
 11
197.2755
 21
-760.68075
 31
0.0
  0
LINE
  8
1
  6
CONTINUOUS
 62
     7
  5
5C0
 10
185.2155
 20
-736.94075
 30
0.0
 11
192.3155
 21
-760.68075
 31
0.0
  0
LINE
  8
1
  6
CONTINUOUS
 62
     7
  5
5C1
 10
185.6955
 20
-784.14075
 30
0.0
 11
192.3155
 21
-760.68075
 31
0.0
  0
INSERT
  8
1
  6
CONTINUOUS
 62
     1
  5
5C2
  2
LDR
 10
185.2155
 20
-736.94075
 30
0.0
 41
241.920413
 42
241.920413
 50
106.643114
210
0.0
220
0.0
230
1.0
  0
INSERT
  8
1
  6
CONTINUOUS
 62
     1
  5
5C3
  2
LDR
 10
185.2155
 20
-736.94075
 30
0.0
 41
241.920413
 42
241.920413
 50
106.643114
210
0.0
220
0.0
230
1.0
  0
INSERT
  8
1
  6
CONTINUOUS
 62
     1
  5
5C4
  2
LDR
 10
185.6955
 20
-784.14075
 30
0.0
 41
241.919895
 42
241.919895
 50
254.25319
210
0.0
220
0.0
230
1.0
  0
LINE
  8
1
  6
CONTINUOUS
 62
     7
  5
5C5
 10
127.1755
 20
-760.68075
 30
0.0
 11
132.1355
 21
-760.68075
 31
0.0
  0
LINE
  8
1
  6
CONTINUOUS
 62
     7
  5
5C6
 10
132.1355
 20
-760.68075
 30
0.0
 11
148.9755
 21
-736.90075
 31
0.0
  0
LINE
  8
1
  6
CONTINUOUS
 62
     7
  5
5C7
 10
132.1355
 20
-760.68075
 30
0.0
 11
148.9755
 21
-784.44075
 31
0.0
  0
INSERT
  8
1
  6
CONTINUOUS
 62
     1
  5
5C8
  2
LDR
 10
148.9755
 20
-736.90075
 30
0.0
 41
241.91998
 42
241.91998
 50
54.697246
210
0.0
220
0.0
230
1.0
  0
INSERT
  8
1
  6
CONTINUOUS
 62
     1
  5
5C9
  2
LDR
 10
148.9755
 20
-736.90075
 30
0.0
 41
241.91998
 42
241.91998
 50
54.697246
210
0.0
220
0.0
230
1.0
  0
INSERT
  8
1
  6
CONTINUOUS
 62
     1
  5
5CA
  2
LDR
 10
148.9755
 20
-784.44075
 30
0.0
 41
241.91998
 42
241.91998
 50
305.302754
210
0.0
220
0.0
230
1.0
  0
LINE
  8
1
  6
CONTINUOUS
 62
     7
  5
5CB
 10
179.2155
 20
-793.62075
 30
0.0
 11
184.4955
 21
-804.32075
 31
0.0
  0
LINE
  8
1
  6
CONTINUOUS
 62
     7
  5
5CC
 10
184.4955
 20
-804.32075
 30
0.0
 11
188.7555
 21
-804.32075
 31
0.0
  0
INSERT
  8
1
  6
CONTINUOUS
 62
     1
  5
5CD
  2
LDR
 10
179.2155
 20
-793.62075
 30
0.0
 41
241.919599
 42
241.919599
 50
116.238698
210
0.0
220
0.0
230
1.0
  0
LINE
  8
1
  6
CONTINUOUS
 62
     7
  5
5CE
 10
168.3755
 20
-803.52075
 30
0.0
 11
173.3355
 21
-816.98075
 31
0.0
  0
LINE
  8
1
  6
CONTINUOUS
 62
     7
  5
5CF
 10
173.3355
 20
-816.98075
 30
0.0
 11
178.1555
 21
-816.98075
 31
0.0
  0
INSERT
  8
1
  6
CONTINUOUS
 62
     1
  5
5D0
  2
LDR
 10
168.471333
 20
-805.726917
 30
0.0
 41
241.920328
 42
241.920328
 50
110.215395
210
0.0
220
0.0
230
1.0
  0
TEXT
  8
1
  6
CONTINUOUS
 62
     7
  5
5D1
 10
116.6355
 20
-697.72075
 30
0.0
 40
2.016
  1
EXTRUDED RIB
  7
MONOTXT
 72
     4
 11
127.548833
 21
-696.71275
 31
0.0
210
0.0
220
0.0
230
1.0
  0
TEXT
  8
1
  6
CONTINUOUS
 62
     7
  5
5D2
 10
197.0555
 20
-711.34075
 30
0.0
 40
2.016
  1
U-CHANNEL
  7
MONOTXT
 72
     4
 11
205.413167
 21
-710.33275
 31
0.0
210
0.0
220
0.0
230
1.0
  0
TEXT
  8
1
  6
CONTINUOUS
 62
     7
  5
5D3
 10
110.3355
 20
-761.74075
 30
0.0
 40
2.016
  1
SIGN FACE
  7
MONOTXT
 72
     4
 11
118.296333
 21
-760.73275
 31
0.0
210
0.0
220
0.0
230
1.0
  0
TEXT
  8
1
  6
CONTINUOUS
 62
     7
  5
5D4
 10
198.5955
 20
-757.62075
 30
0.0
 40
2.016
  1
SQUARE HD.
  7
MONOTXT
 11
198.5955
 21
-755.60475
 31
0.0
210
0.0
220
0.0
230
1.0
 73
     3
  0
TEXT
  8
1
  6
CONTINUOUS
 62
     7
  5
5D5
 10
198.5955
 20
-761.66075
 30
0.0
 40
2.016
  1
POST-CLIP
  7
MONOTXT
 11
198.5955
 21
-759.64475
 31
0.0
210
0.0
220
0.0
230
1.0
 73
     3
  0
TEXT
  8
1
  6
CONTINUOUS
 62
     7
  5
5D6
 10
198.5955
 20
-765.70075
 30
0.0
 40
2.016
  1
TYPE BOLT
  7
MONOTXT
 11
198.5955
 21
-763.68475
 31
0.0
210
0.0
220
0.0
230
1.0
 73
     3
  0
TEXT
  8
1
  6
CONTINUOUS
 62
     7
  5
5D7
 10
189.9955
 20
-805.06075
 30
0.0
 40
2.016
  1
U-CHANNEL
  7
MONOTXT
 72
     4
 11
198.353167
 21
-804.05275
 31
0.0
210
0.0
220
0.0
230
1.0
  0
TEXT
  8
1
  6
CONTINUOUS
 62
     7
  5
5D8
 10
179.4155
 20
-817.72075
 30
0.0
 40
2.016
  1
EXTRUDED RIB
  7
MONOTXT
 72
     4
 11
190.328833
 21
-816.71275
 31
0.0
210
0.0
220
0.0
230
1.0
  0
TEXT
  8
1
  6
CONTINUOUS
 62
     7
  5
5D9
 10
154.5355
 20
-756.06075
 30
0.0
 40
3.024
  1
ELEV.
  7
MONOTXT
 72
     4
 11
160.595333
 21
-754.54875
 31
0.0
210
0.0
220
0.0
230
1.0
  0
TEXT
  8
1
  6
CONTINUOUS
 62
     7
  5
5DA
 10
154.7555
 20
-814.52075
 30
0.0
 40
3.024
  1
PLAN
  7
MONOTXT
 72
     4
 11
160.053417
 21
-813.00875
 31
0.0
210
0.0
220
0.0
230
1.0
  0
TEXT
  8
1
  6
CONTINUOUS
 62
     7
  5
5DB
 10
132.7955
 20
-830.44075
 30
0.0
 40
4.032
  1
TYPICAL U-CHANNEL AND
  7
MONOTXT
 72
     4
 11
171.702667
 21
-828.42475
 31
0.0
210
0.0
220
0.0
230
1.0
  0
TEXT
  8
1
  6
CONTINUOUS
 62
     7
  5
5DC
 10
149.6755
 20
-837.50075
 30
0.0
 40
4.032
  1
RIB ASSEMBLY
  7
MONOTXT
 72
     4
 11
171.692667
 21
-835.48475
 31
0.0
210
0.0
220
0.0
230
1.0
  0
LINE
  8
1
  6
CONTINUOUS
 62
     7
  5
5DD
 10
131.5355
 20
-831.22075
 30
0.0
 11
212.0355
 21
-831.22075
 31
0.0
  0
LINE
  8
1
  6
CONTINUOUS
 62
     7
  5
5DE
 10
148.3555
 20
-838.22075
 30
0.0
 11
194.9755
 21
-838.22075
 31
0.0
  0
LINE
  8
1
  6
CONTINUOUS
 62
    52
  5
5DF
 10
380.703583
 20
-473.00525
 30
0.0
 11
380.703583
 21
-513.00525
 31
0.0
  0
LINE
  8
1
  6
CONTINUOUS
 62
     7
  5
5E0
 10
368.703583
 20
-493.00525
 30
0.0
 11
429.703583
 21
-493.00525
 31
0.0
  0
LINE
  8
1
  6
CONTINUOUS
 62
    52
  5
5E1
 10
380.703583
 20
-473.00525
 30
0.0
 11
425.703583
 21
-493.00525
 31
0.0
  0
LINE
  8
1
  6
CONTINUOUS
 62
    52
  5
5E2
 10
425.703583
 20
-493.00525
 30
0.0
 11
380.703583
 21
-513.00525
 31
0.0
  0
CIRCLE
  8
1
  6
CONTINUOUS
 62
    52
  5
5E3
 10
395.703583
 20
-483.671917
 30
0.0
 40
0.875
210
0.0
220
0.0
230
1.0
  0
CIRCLE
  8
1
  6
CONTINUOUS
 62
    52
  5
5E4
 10
395.703583
 20
-502.338583
 30
0.0
 40
0.875
210
0.0
220
0.0
230
1.0
  0
LINE
  8
1
  6
CONTINUOUS
 62
     7
  5
5E5
 10
369.703583
 20
-483.671917
 30
0.0
 11
369.703583
 21
-493.00525
 31
0.0
  0
LINE
  8
1
  6
CONTINUOUS
 62
     7
  5
5E6
 10
369.703583
 20
-493.00525
 30
0.0
 11
369.703583
 21
-502.338583
 31
0.0
  0
INSERT
  8
1
  6
CONTINUOUS
 62
     1
  5
5E7
  2
LDR
 10
369.703583
 20
-483.671917
 30
0.0
 41
240.0
 42
240.0
 50
90.0
210
0.0
220
0.0
230
1.0
  0
INSERT
  8
1
  6
CONTINUOUS
 62
     1
  5
5E8
  2
LDR
 10
369.703583
 20
-483.671917
 30
0.0
 41
240.0
 42
240.0
 50
90.0
210
0.0
220
0.0
230
1.0
  0
INSERT
  8
1
  6
CONTINUOUS
 62
     1
  5
5E9
  2
LDR
 10
369.703583
 20
-493.00525
 30
0.0
 41
240.0
 42
240.0
 50
270.0
210
0.0
220
0.0
230
1.0
  0
INSERT
  8
1
  6
CONTINUOUS
 62
     1
  5
5EA
  2
LDR
 10
369.703583
 20
-493.00525
 30
0.0
 41
240.0
 42
240.0
 50
270.0
210
0.0
220
0.0
230
1.0
  0
INSERT
  8
1
  6
CONTINUOUS
 62
     1
  5
5EB
  2
LDR
 10
369.703583
 20
-493.00525
 30
0.0
 41
240.0
 42
240.0
 50
90.0
210
0.0
220
0.0
230
1.0
  0
INSERT
  8
1
  6
CONTINUOUS
 62
     1
  5
5EC
  2
LDR
 10
369.703583
 20
-493.00525
 30
0.0
 41
240.0
 42
240.0
 50
90.0
210
0.0
220
0.0
230
1.0
  0
INSERT
  8
1
  6
CONTINUOUS
 62
     1
  5
5ED
  2
LDR
 10
369.703583
 20
-502.338583
 30
0.0
 41
240.0
 42
240.0
 50
270.0
210
0.0
220
0.0
230
1.0
  0
LINE
  8
1
  6
CONTINUOUS
 62
     7
  5
5EE
 10
380.703583
 20
-472.00525
 30
0.0
 11
380.703583
 21
-468.00525
 31
0.0
  0
LINE
  8
1
  6
CONTINUOUS
 62
     7
  5
5EF
 10
380.703583
 20
-469.00525
 30
0.0
 11
395.703583
 21
-469.00525
 31
0.0
  0
INSERT
  8
1
  6
CONTINUOUS
 62
     1
  5
5F0
  2
LDR
 10
380.703583
 20
-469.00525
 30
0.0
 41
240.0
 42
240.0
 50
180.0
210
0.0
220
0.0
230
1.0
  0
INSERT
  8
1
  6
CONTINUOUS
 62
     1
  5
5F1
  2
LDR
 10
395.703583
 20
-469.00525
 30
0.0
 41
240.0
 42
240.0
210
0.0
220
0.0
230
1.0
  0
LINE
  8
1
  6
CONTINUOUS
 62
     7
  5
5F2
 10
395.703583
 20
-468.00525
 30
0.0
 11
395.703583
 21
-481.796917
 31
0.0
  0
LINE
  8
1
  6
CONTINUOUS
 62
     7
  5
5F3
 10
400.578583
 20
-483.671917
 30
0.0
 11
397.578583
 21
-483.671917
 31
0.0
  0
LINE
  8
1
  6
CONTINUOUS
 62
     7
  5
5F4
 10
395.703583
 20
-483.046917
 30
0.0
 11
395.703583
 21
-484.296917
 31
0.0
  0
LINE
  8
1
  6
CONTINUOUS
 62
     7
  5
5F5
 10
396.328583
 20
-483.671917
 30
0.0
 11
395.078583
 21
-483.671917
 31
0.0
  0
LINE
  8
1
  6
CONTINUOUS
 62
     7
  5
5F6
 10
393.828583
 20
-483.671917
 30
0.0
 11
368.703583
 21
-483.671917
 31
0.0
  0
LINE
  8
1
  6
CONTINUOUS
 62
     7
  5
5F7
 10
395.703583
 20
-485.546917
 30
0.0
 11
395.703583
 21
-500.463583
 31
0.0
  0
LINE
  8
1
  6
CONTINUOUS
 62
     7
  5
5F8
 10
393.828583
 20
-502.338583
 30
0.0
 11
368.703583
 21
-502.338583
 31
0.0
  0
LINE
  8
1
  6
CONTINUOUS
 62
     7
  5
5F9
 10
395.703583
 20
-501.713583
 30
0.0
 11
395.703583
 21
-502.963583
 31
0.0
  0
LINE
  8
1
  6
CONTINUOUS
 62
     7
  5
5FA
 10
395.703583
 20
-504.213583
 30
0.0
 11
395.703583
 21
-512.338583
 31
0.0
  0
LINE
  8
1
  6
CONTINUOUS
 62
     7
  5
5FB
 10
400.578583
 20
-502.338583
 30
0.0
 11
397.578583
 21
-502.338583
 31
0.0
  0
LINE
  8
1
  6
CONTINUOUS
 62
     7
  5
5FC
 10
396.328583
 20
-502.338583
 30
0.0
 11
395.078583
 21
-502.338583
 31
0.0
  0
LINE
  8
1
  6
CONTINUOUS
 62
    52
  5
5FD
 10
380.703583
 20
-531.183167
 30
0.0
 11
380.703583
 21
-571.183167
 31
0.0
  0
LINE
  8
1
  6
CONTINUOUS
 62
    52
  5
5FE
 10
380.703583
 20
-531.183167
 30
0.0
 11
425.703583
 21
-551.183167
 31
0.0
  0
LINE
  8
1
  6
CONTINUOUS
 62
    52
  5
5FF
 10
425.703583
 20
-551.183167
 30
0.0
 11
380.703583
 21
-571.183167
 31
0.0
  0
CIRCLE
  8
1
  6
CONTINUOUS
 62
    52
  5
600
 10
395.703583
 20
-541.849833
 30
0.0
 40
0.875
210
0.0
220
0.0
230
1.0
  0
CIRCLE
  8
1
  6
CONTINUOUS
 62
    52
  5
601
 10
395.703583
 20
-560.5165
 30
0.0
 40
0.875
210
0.0
220
0.0
230
1.0
  0
LINE
  8
1
  6
CONTINUOUS
 62
     7
  5
602
 10
395.703583
 20
-533.849833
 30
0.0
 11
395.703583
 21
-539.974833
 31
0.0
  0
LINE
  8
1
  6
CONTINUOUS
 62
     7
  5
603
 10
400.578583
 20
-541.849833
 30
0.0
 11
397.578583
 21
-541.849833
 31
0.0
  0
LINE
  8
1
  6
CONTINUOUS
 62
     7
  5
604
 10
395.703583
 20
-541.224833
 30
0.0
 11
395.703583
 21
-542.474833
 31
0.0
  0
LINE
  8
1
  6
CONTINUOUS
 62
     7
  5
605
 10
396.328583
 20
-541.849833
 30
0.0
 11
395.078583
 21
-541.849833
 31
0.0
  0
LINE
  8
1
  6
CONTINUOUS
 62
     7
  5
606
 10
395.703583
 20
-559.8915
 30
0.0
 11
395.703583
 21
-561.1415
 31
0.0
  0
LINE
  8
1
  6
CONTINUOUS
 62
     7
  5
607
 10
395.703583
 20
-562.3915
 30
0.0
 11
395.703583
 21
-580.73875
 31
0.0
  0
LINE
  8
1
  6
CONTINUOUS
 62
     7
  5
608
 10
400.578583
 20
-560.5165
 30
0.0
 11
397.578583
 21
-560.5165
 31
0.0
  0
LINE
  8
1
  6
CONTINUOUS
 62
     7
  5
609
 10
396.328583
 20
-560.5165
 30
0.0
 11
395.078583
 21
-560.5165
 31
0.0
  0
LINE
  8
1
  6
CONTINUOUS
 62
     7
  5
60A
 10
393.828583
 20
-541.849833
 30
0.0
 11
390.828583
 21
-541.849833
 31
0.0
  0
LINE
  8
1
  6
CONTINUOUS
 62
     7
  5
60B
 10
393.828583
 20
-560.5165
 30
0.0
 11
390.828583
 21
-560.5165
 31
0.0
  0
LINE
  8
1
  6
CONTINUOUS
 62
     7
  5
60C
 10
395.703583
 20
-543.724833
 30
0.0
 11
395.703583
 21
-549.183167
 31
0.0
  0
LINE
  8
1
  6
CONTINUOUS
 62
     7
  5
60D
 10
395.703583
 20
-550.183167
 30
0.0
 11
395.703583
 21
-552.183167
 31
0.0
  0
LINE
  8
1
  6
CONTINUOUS
 62
     7
  5
60E
 10
395.703583
 20
-553.183167
 30
0.0
 11
395.703583
 21
-558.6415
 31
0.0
  0
LINE
  8
1
  6
DASHED
 62
    52
  5
60F
 10
398.453583
 20
-540.099833
 30
0.0
 11
392.953583
 21
-540.099833
 31
0.0
  0
LINE
  8
1
  6
DASHED
 62
    52
  5
610
 10
392.953583
 20
-540.099833
 30
0.0
 11
392.953583
 21
-565.73875
 31
0.0
  0
LINE
  8
1
  6
DASHED
 62
    52
  5
611
 10
398.453583
 20
-540.099833
 30
0.0
 11
398.453583
 21
-563.29425
 31
0.0
  0
LINE
  8
1
  6
DASHED
 62
    52
  5
612
 10
394.328583
 20
-540.099833
 30
0.0
 11
394.328583
 21
-565.127583
 31
0.0
  0
LINE
  8
1
  6
DASHED
 62
    52
  5
613
 10
397.078583
 20
-540.099833
 30
0.0
 11
397.078583
 21
-563.905417
 31
0.0
  0
LINE
  8
1
  6
CONTINUOUS
 62
    52
  5
614
 10
392.953583
 20
-565.73875
 30
0.0
 11
392.953583
 21
-580.73875
 31
0.0
  0
LINE
  8
1
  6
CONTINUOUS
 62
    52
  5
615
 10
394.328583
 20
-565.127583
 30
0.0
 11
394.328583
 21
-580.73875
 31
0.0
  0
LINE
  8
1
  6
CONTINUOUS
 62
    52
  5
616
 10
397.078583
 20
-563.905417
 30
0.0
 11
397.078583
 21
-580.73875
 31
0.0
  0
LINE
  8
1
  6
CONTINUOUS
 62
    52
  5
617
 10
398.453583
 20
-563.29425
 30
0.0
 11
398.453583
 21
-580.73875
 31
0.0
  0
LINE
  8
1
  6
CONTINUOUS
 62
    52
  5
618
 10
460.828583
 20
-531.183167
 30
0.0
 11
460.828583
 21
-571.183167
 31
0.0
  0
LINE
  8
1
  6
CONTINUOUS
 62
    52
  5
619
 10
461.828583
 20
-531.183167
 30
0.0
 11
461.828583
 21
-571.183167
 31
0.0
  0
LINE
  8
1
  6
CONTINUOUS
 62
    52
  5
61A
 10
460.828583
 20
-531.183167
 30
0.0
 11
461.828583
 21
-531.183167
 31
0.0
  0
LINE
  8
1
  6
CONTINUOUS
 62
    52
  5
61B
 10
460.828583
 20
-571.183167
 30
0.0
 11
461.828583
 21
-571.183167
 31
0.0
  0
LINE
  8
1
  6
CONTINUOUS
 62
    52
  5
61C
 10
462.828583
 20
-538.849833
 30
0.0
 11
462.828583
 21
-595.849833
 31
0.0
  0
LINE
  8
1
  6
CONTINUOUS
 62
    52
  5
61D
 10
468.828583
 20
-538.849833
 30
0.0
 11
468.828583
 21
-595.849833
 31
0.0
  0
LINE
  8
1
  6
CONTINUOUS
 62
    52
  5
61E
 10
462.828583
 20
-538.849833
 30
0.0
 11
468.828583
 21
-538.849833
 31
0.0
  0
LINE
  8
1
  6
CONTINUOUS
 62
    52
  5
61F
 10
464.078583
 20
-538.849833
 30
0.0
 11
464.078583
 21
-595.849833
 31
0.0
  0
LINE
  8
1
  6
DASHED
 62
    52
  5
620
 10
467.578583
 20
-538.849833
 30
0.0
 11
467.578583
 21
-595.849833
 31
0.0
  0
LINE
  8
1
  6
HIDDEN
 62
    52
  5
621
 10
462.828583
 20
-541.224833
 30
0.0
 11
468.828583
 21
-541.224833
 31
0.0
  0
LINE
  8
1
  6
HIDDEN
 62
    52
  5
622
 10
462.828583
 20
-542.474833
 30
0.0
 11
468.828583
 21
-542.474833
 31
0.0
  0
LINE
  8
1
  6
HIDDEN
 62
    52
  5
623
 10
462.828583
 20
-559.8915
 30
0.0
 11
468.828583
 21
-559.8915
 31
0.0
  0
LINE
  8
1
  6
HIDDEN
 62
    52
  5
624
 10
462.828583
 20
-561.1415
 30
0.0
 11
468.828583
 21
-561.1415
 31
0.0
  0
LINE
  8
1
  6
CONTINUOUS
 62
    52
  5
625
 10
459.578583
 20
-540.849833
 30
0.0
 11
460.828583
 21
-540.849833
 31
0.0
  0
LINE
  8
1
  6
CONTINUOUS
 62
    52
  5
626
 10
468.828583
 20
-540.849833
 30
0.0
 11
470.078583
 21
-540.849833
 31
0.0
  0
LINE
  8
1
  6
CONTINUOUS
 62
    52
  5
627
 10
459.578583
 20
-542.849833
 30
0.0
 11
460.828583
 21
-542.849833
 31
0.0
  0
LINE
  8
1
  6
CONTINUOUS
 62
    52
  5
628
 10
468.828583
 20
-542.849833
 30
0.0
 11
470.078583
 21
-542.849833
 31
0.0
  0
LINE
  8
1
  6
CONTINUOUS
 62
    52
  5
629
 10
470.078583
 20
-540.849833
 30
0.0
 11
470.078583
 21
-542.849833
 31
0.0
  0
LINE
  8
1
  6
CONTINUOUS
 62
    52
  5
62A
 10
459.578583
 20
-540.849833
 30
0.0
 11
459.578583
 21
-542.849833
 31
0.0
  0
LINE
  8
1
  6
CONTINUOUS
 62
     7
  5
62B
 10
458.578583
 20
-541.849833
 30
0.0
 11
460.328583
 21
-541.849833
 31
0.0
  0
LINE
  8
1
  6
CONTINUOUS
 62
     7
  5
62C
 10
469.328583
 20
-541.849833
 30
0.0
 11
471.078583
 21
-541.849833
 31
0.0
  0
LINE
  8
1
  6
CONTINUOUS
 62
    52
  5
62D
 10
459.578583
 20
-559.5165
 30
0.0
 11
459.578583
 21
-561.5165
 31
0.0
  0
LINE
  8
1
  6
CONTINUOUS
 62
    52
  5
62E
 10
459.578583
 20
-559.5165
 30
0.0
 11
460.828583
 21
-559.5165
 31
0.0
  0
LINE
  8
1
  6
CONTINUOUS
 62
    52
  5
62F
 10
468.828583
 20
-559.5165
 30
0.0
 11
470.078583
 21
-559.5165
 31
0.0
  0
LINE
  8
1
  6
CONTINUOUS
 62
    52
  5
630
 10
459.578583
 20
-561.5165
 30
0.0
 11
460.828583
 21
-561.5165
 31
0.0
  0
LINE
  8
1
  6
CONTINUOUS
 62
    52
  5
631
 10
468.828583
 20
-561.5165
 30
0.0
 11
470.078583
 21
-561.5165
 31
0.0
  0
LINE
  8
1
  6
CONTINUOUS
 62
    52
  5
632
 10
470.078583
 20
-559.5165
 30
0.0
 11
470.078583
 21
-561.5165
 31
0.0
  0
LINE
  8
1
  6
CONTINUOUS
 62
     7
  5
633
 10
458.578583
 20
-560.5165
 30
0.0
 11
460.328583
 21
-560.5165
 31
0.0
  0
LINE
  8
1
  6
CONTINUOUS
 62
     7
  5
634
 10
469.328583
 20
-560.5165
 30
0.0
 11
471.078583
 21
-560.5165
 31
0.0
  0
LINE
  8
1
  6
CONTINUOUS
 62
     7
  5
635
 10
455.828583
 20
-551.183167
 30
0.0
 11
464.078583
 21
-551.183167
 31
0.0
  0
LINE
  8
1
  6
CONTINUOUS
 62
     7
  5
636
 10
467.578583
 20
-551.183167
 30
0.0
 11
473.828583
 21
-551.183167
 31
0.0
  0
LINE
  8
1
  6
CONTINUOUS
 62
     7
  5
637
 10
464.078583
 20
-551.183167
 30
0.0
 11
464.828583
 21
-551.183167
 31
0.0
  0
LINE
  8
1
  6
CONTINUOUS
 62
     7
  5
638
 10
465.328583
 20
-551.183167
 30
0.0
 11
466.328583
 21
-551.183167
 31
0.0
  0
LINE
  8
1
  6
CONTINUOUS
 62
     7
  5
639
 10
466.828583
 20
-551.183167
 30
0.0
 11
467.578583
 21
-551.183167
 31
0.0
  0
LINE
  8
1
  6
CONTINUOUS
 62
     7
  5
63A
 10
462.828583
 20
-533.849833
 30
0.0
 11
489.828583
 21
-533.849833
 31
0.0
  0
LINE
  8
1
  6
CONTINUOUS
 62
     7
  5
63B
 10
469.828583
 20
-538.849833
 30
0.0
 11
489.828583
 21
-538.849833
 31
0.0
  0
LINE
  8
1
  6
CONTINUOUS
 62
     7
  5
63C
 10
488.828583
 20
-528.849833
 30
0.0
 11
488.828583
 21
-533.849833
 31
0.0
  0
LINE
  8
1
  6
CONTINUOUS
 62
     7
  5
63D
 10
488.828583
 20
-538.849833
 30
0.0
 11
488.828583
 21
-543.849833
 31
0.0
  0
INSERT
  8
1
  6
CONTINUOUS
 62
     1
  5
63E
  2
LDR
 10
488.828583
 20
-533.849833
 30
0.0
 41
240.0
 42
240.0
 50
270.0
210
0.0
220
0.0
230
1.0
  0
INSERT
  8
1
  6
CONTINUOUS
 62
     1
  5
63F
  2
LDR
 10
488.828583
 20
-538.849833
 30
0.0
 41
240.0
 42
240.0
 50
90.0
210
0.0
220
0.0
230
1.0
  0
LINE
  8
1
  6
CONTINUOUS
 62
     7
  5
640
 10
460.787083
 20
-567.026417
 30
0.0
 11
451.641
 21
-567.026417
 31
0.0
  0
INSERT
  8
1
  6
CONTINUOUS
 62
     1
  5
641
  2
LDR
 10
460.787083
 20
-567.026417
 30
0.0
 41
240.0
 42
240.0
210
0.0
220
0.0
230
1.0
  0
LINE
  8
1
  6
CONTINUOUS
 62
    52
  5
642
 10
380.703583
 20
-602.98875
 30
0.0
 11
425.703583
 21
-602.98875
 31
0.0
  0
LINE
  8
1
  6
CONTINUOUS
 62
    52
  5
643
 10
380.703583
 20
-603.98875
 30
0.0
 11
425.703583
 21
-603.98875
 31
0.0
  0
LINE
  8
1
  6
CONTINUOUS
 62
    52
  5
644
 10
380.703583
 20
-602.98875
 30
0.0
 11
380.703583
 21
-603.98875
 31
0.0
  0
LINE
  8
1
  6
CONTINUOUS
 62
    52
  5
645
 10
425.703583
 20
-602.98875
 30
0.0
 11
425.703583
 21
-603.98875
 31
0.0
  0
LINE
  8
1
  6
CONTINUOUS
 62
    52
  5
646
 10
394.453583
 20
-595.98875
 30
0.0
 11
396.953583
 21
-595.98875
 31
0.0
  0
LINE
  8
1
  6
CONTINUOUS
 62
    52
  5
647
 10
394.453583
 20
-595.98875
 30
0.0
 11
394.453583
 21
-597.23875
 31
0.0
  0
LINE
  8
1
  6
CONTINUOUS
 62
    52
  5
648
 10
396.953583
 20
-595.98875
 30
0.0
 11
396.953583
 21
-597.23875
 31
0.0
  0
LINE
  8
1
  6
CONTINUOUS
 62
    52
  5
649
 10
393.656417
 20
-597.23875
 30
0.0
 11
397.75075
 21
-597.23875
 31
0.0
  0
LINE
  8
1
  6
CONTINUOUS
 62
    52
  5
64A
 10
393.41175
 20
-597.43725
 30
0.0
 11
392.495417
 21
-601.79025
 31
0.0
  0
LINE
  8
1
  6
CONTINUOUS
 62
    52
  5
64B
 10
397.995333
 20
-597.43725
 30
0.0
 11
398.91175
 21
-601.79025
 31
0.0
  0
LINE
  8
1
  6
CONTINUOUS
 62
    52
  5
64C
 10
391.453583
 20
-601.98875
 30
0.0
 11
391.453583
 21
-602.98875
 31
0.0
  0
LINE
  8
1
  6
CONTINUOUS
 62
    52
  5
64D
 10
399.953583
 20
-601.98875
 30
0.0
 11
399.953583
 21
-602.98875
 31
0.0
  0
LINE
  8
1
  6
CONTINUOUS
 62
    52
  5
64E
 10
394.264917
 20
-598.23875
 30
0.0
 11
393.264917
 21
-602.98875
 31
0.0
  0
LINE
  8
1
  6
CONTINUOUS
 62
    52
  5
64F
 10
397.142167
 20
-598.23875
 30
0.0
 11
398.142167
 21
-602.98875
 31
0.0
  0
LINE
  8
1
  6
CONTINUOUS
 62
    52
  5
650
 10
391.453583
 20
-601.98875
 30
0.0
 11
392.25075
 21
-601.98875
 31
0.0
  0
LINE
  8
1
  6
CONTINUOUS
 62
    52
  5
651
 10
399.156417
 20
-601.98875
 30
0.0
 11
399.953583
 21
-601.98875
 31
0.0
  0
ARC
  8
1
  6
CONTINUOUS
 62
    52
  5
652
 10
392.25074
 20
-601.73875
 30
0.0
 40
0.25
 50
270.0
 51
348.111364
210
0.0
220
0.0
230
1.0
  0
ARC
  8
1
  6
CONTINUOUS
 62
    52
  5
653
 10
399.15642
 20
-601.73875
 30
0.0
 40
0.25
 50
191.889017
 51
270.0
210
0.0
220
0.0
230
1.0
  0
ARC
  8
1
  6
CONTINUOUS
 62
    52
  5
654
 10
393.656424
 20
-597.48875
 30
0.0
 40
0.25
 50
90.0
 51
168.109056
210
0.0
220
0.0
230
1.0
  0
ARC
  8
1
  6
CONTINUOUS
 62
    52
  5
655
 10
397.750735
 20
-597.48875
 30
0.0
 40
0.25
 50
11.888658
 51
90.0
210
0.0
220
0.0
230
1.0
  0
LINE
  8
1
  6
CONTINUOUS
 62
    52
  5
656
 10
394.953583
 20
-602.98875
 30
0.0
 11
394.953583
 21
-598.23875
 31
0.0
  0
LINE
  8
1
  6
CONTINUOUS
 62
    52
  5
657
 10
396.453583
 20
-602.98875
 30
0.0
 11
396.453583
 21
-598.23875
 31
0.0
  0
LINE
  8
1
  6
CONTINUOUS
 62
    52
  5
658
 10
394.264917
 20
-598.23875
 30
0.0
 11
394.953583
 21
-598.23875
 31
0.0
  0
LINE
  8
1
  6
CONTINUOUS
 62
    52
  5
659
 10
396.453583
 20
-598.23875
 30
0.0
 11
397.142167
 21
-598.23875
 31
0.0
  0
LINE
  8
1
  6
CONTINUOUS
 62
    52
  5
65A
 10
394.453583
 20
-605.23875
 30
0.0
 11
396.953583
 21
-605.23875
 31
0.0
  0
LINE
  8
1
  6
CONTINUOUS
 62
    52
  5
65B
 10
394.453583
 20
-605.23875
 30
0.0
 11
394.453583
 21
-603.98875
 31
0.0
  0
LINE
  8
1
  6
CONTINUOUS
 62
    52
  5
65C
 10
396.953583
 20
-605.23875
 30
0.0
 11
396.953583
 21
-603.98875
 31
0.0
  0
LINE
  8
1
  6
CONTINUOUS
 62
     7
  5
65D
 10
395.703583
 20
-599.61375
 30
0.0
 11
395.703583
 21
-594.73875
 31
0.0
  0
LINE
  8
1
  6
CONTINUOUS
 62
     7
  5
65E
 10
395.703583
 20
-606.48875
 30
0.0
 11
395.703583
 21
-601.61375
 31
0.0
  0
LINE
  8
1
  6
CONTINUOUS
 62
     7
  5
65F
 10
395.703583
 20
-601.11375
 30
0.0
 11
395.703583
 21
-600.11375
 31
0.0
  0
LINE
  8
1
  6
CONTINUOUS
 62
     7
  5
660
 10
406.506167
 20
-603.98875
 30
0.0
 11
406.506167
 21
-614.893417
 31
0.0
  0
LINE
  8
1
  6
CONTINUOUS
 62
     7
  5
661
 10
406.506167
 20
-614.893417
 30
0.0
 11
411.971083
 21
-614.893417
 31
0.0
  0
INSERT
  8
1
  6
CONTINUOUS
 62
     1
  5
662
  2
LDR
 10
406.506167
 20
-603.98875
 30
0.0
 41
240.0
 42
240.0
 50
90.0
210
0.0
220
0.0
230
1.0
  0
LINE
  8
1
  6
CONTINUOUS
 62
     6
  5
663
 10
499.789
 20
-488.864667
 30
0.0
 11
604.789
 21
-488.864667
 31
0.0
  0
LINE
  8
1
  6
CONTINUOUS
 62
     6
  5
664
 10
604.789
 20
-488.864667
 30
0.0
 11
604.789
 21
-598.864667
 31
0.0
  0
LINE
  8
1
  6
CONTINUOUS
 62
     6
  5
665
 10
604.789
 20
-598.864667
 30
0.0
 11
499.789
 21
-598.864667
 31
0.0
  0
LINE
  8
1
  6
CONTINUOUS
 62
     6
  5
666
 10
499.789
 20
-598.864667
 30
0.0
 11
499.789
 21
-488.864667
 31
0.0
  0
LINE
  8
1
  6
CONTINUOUS
 62
     6
  5
667
 10
499.789
 20
-496.864667
 30
0.0
 11
604.789
 21
-496.864667
 31
0.0
  0
LINE
  8
1
  6
CONTINUOUS
 62
     6
  5
668
 10
499.789
 20
-497.864667
 30
0.0
 11
604.789
 21
-497.864667
 31
0.0
  0
LINE
  8
1
  6
CONTINUOUS
 62
     6
  5
669
 10
526.789
 20
-503.864667
 30
0.0
 11
604.789
 21
-503.864667
 31
0.0
  0
LINE
  8
1
  6
CONTINUOUS
 62
     6
  5
66A
 10
526.789
 20
-509.864667
 30
0.0
 11
604.789
 21
-509.864667
 31
0.0
  0
LINE
  8
1
  6
CONTINUOUS
 62
     6
  5
66B
 10
526.789
 20
-510.864667
 30
0.0
 11
604.789
 21
-510.864667
 31
0.0
  0
LINE
  8
1
  6
CONTINUOUS
 62
     6
  5
66C
 10
526.789
 20
-516.864667
 30
0.0
 11
604.789
 21
-516.864667
 31
0.0
  0
LINE
  8
1
  6
CONTINUOUS
 62
     6
  5
66D
 10
526.789
 20
-522.864667
 30
0.0
 11
604.789
 21
-522.864667
 31
0.0
  0
LINE
  8
1
  6
CONTINUOUS
 62
     6
  5
66E
 10
499.789
 20
-528.864667
 30
0.0
 11
604.789
 21
-528.864667
 31
0.0
  0
LINE
  8
1
  6
CONTINUOUS
 62
     6
  5
66F
 10
499.789
 20
-529.864667
 30
0.0
 11
604.789
 21
-529.864667
 31
0.0
  0
LINE
  8
1
  6
CONTINUOUS
 62
     6
  5
670
 10
499.789
 20
-535.864667
 30
0.0
 11
604.789
 21
-535.864667
 31
0.0
  0
LINE
  8
1
  6
CONTINUOUS
 62
     6
  5
671
 10
526.789
 20
-542.864667
 30
0.0
 11
604.789
 21
-542.864667
 31
0.0
  0
LINE
  8
1
  6
CONTINUOUS
 62
     6
  5
672
 10
526.789
 20
-548.864667
 30
0.0
 11
604.789
 21
-548.864667
 31
0.0
  0
LINE
  8
1
  6
CONTINUOUS
 62
     6
  5
673
 10
526.789
 20
-554.864667
 30
0.0
 11
604.789
 21
-554.864667
 31
0.0
  0
LINE
  8
1
  6
CONTINUOUS
 62
     6
  5
674
 10
526.789
 20
-560.864667
 30
0.0
 11
604.789
 21
-560.864667
 31
0.0
  0
LINE
  8
1
  6
CONTINUOUS
 62
     6
  5
675
 10
526.789
 20
-566.864667
 30
0.0
 11
604.789
 21
-566.864667
 31
0.0
  0
LINE
  8
1
  6
CONTINUOUS
 62
     6
  5
676
 10
526.789
 20
-567.864667
 30
0.0
 11
604.789
 21
-567.864667
 31
0.0
  0
LINE
  8
1
  6
CONTINUOUS
 62
     6
  5
677
 10
526.789
 20
-573.864667
 30
0.0
 11
604.789
 21
-573.864667
 31
0.0
  0
LINE
  8
1
  6
CONTINUOUS
 62
     6
  5
678
 10
499.789
 20
-579.864667
 30
0.0
 11
604.789
 21
-579.864667
 31
0.0
  0
LINE
  8
1
  6
CONTINUOUS
 62
     6
  5
679
 10
499.789
 20
-580.864667
 30
0.0
 11
604.789
 21
-580.864667
 31
0.0
  0
LINE
  8
1
  6
CONTINUOUS
 62
     6
  5
67A
 10
526.789
 20
-586.864667
 30
0.0
 11
604.789
 21
-586.864667
 31
0.0
  0
LINE
  8
1
  6
CONTINUOUS
 62
     6
  5
67B
 10
526.789
 20
-592.864667
 30
0.0
 11
604.789
 21
-592.864667
 31
0.0
  0
LINE
  8
1
  6
CONTINUOUS
 62
     6
  5
67C
 10
525.789
 20
-598.864667
 30
0.0
 11
525.789
 21
-488.864667
 31
0.0
  0
LINE
  8
1
  6
CONTINUOUS
 62
     6
  5
67D
 10
526.789
 20
-598.864667
 30
0.0
 11
526.789
 21
-488.864667
 31
0.0
  0
LINE
  8
1
  6
CONTINUOUS
 62
     6
  5
67E
 10
552.789
 20
-598.864667
 30
0.0
 11
552.789
 21
-488.864667
 31
0.0
  0
LINE
  8
1
  6
CONTINUOUS
 62
     6
  5
67F
 10
578.789
 20
-598.864667
 30
0.0
 11
578.789
 21
-488.864667
 31
0.0
  0
LINE
  8
1
  6
CONTINUOUS
 62
     6
  5
680
 10
526.789
 20
-492.864667
 30
0.0
 11
552.789
 21
-492.864667
 31
0.0
  0
TEXT
  8
1
  6
CONTINUOUS
 62
     7
  5
681
 10
501.654917
 20
-494.2685
 30
0.0
 40
2.5
  1
SIGN SHAPE
  7
MONOTXT
210
0.0
220
0.0
230
1.0
  0
TEXT
  8
1
  6
CONTINUOUS
 62
     7
  5
682
 10
553.893083
 20
-494.175833
 30
0.0
 40
2.5
  1
DIMENSION A
  7
MONOTXT
210
0.0
220
0.0
230
1.0
  0
TEXT
  8
1
  6
CONTINUOUS
 62
     7
  5
683
 10
579.989917
 20
-494.17575
 30
0.0
 40
2.5
  1
DIMENSION B
  7
MONOTXT
210
0.0
220
0.0
230
1.0
  0
TEXT
  8
1
  6
CONTINUOUS
 62
     7
  5
684
 10
530.776417
 20
-492.03925
 30
0.0
 40
2.5
  1
SIGN SIZE
  7
MONOTXT
210
0.0
220
0.0
230
1.0
  0
LINE
  8
1
  6
CONTINUOUS
 62
     6
  5
685
 10
539.789
 20
-492.864667
 30
0.0
 11
539.789
 21
-496.864667
 31
0.0
  0
TEXT
  8
1
  6
CONTINUOUS
 62
     7
  5
686
 10
527.760917
 20
-496.010833
 30
0.0
 40
2.25
  1
HEIGHT
  7
MONOTXT
 72
     4
 11
533.350417
 21
-494.885833
 31
0.0
210
0.0
220
0.0
230
1.0
  0
TEXT
  8
1
  6
CONTINUOUS
 62
     7
  5
687
 10
541.436417
 20
-495.98125
 30
0.0
 40
2.25
  1
WIDTH
  7
MONOTXT
 72
     4
 11
546.22875
 21
-494.85625
 31
0.0
210
0.0
220
0.0
230
1.0
  0
TEXT
  8
1
  6
CONTINUOUS
 62
     7
  5
688
 10
503.552417
 20
-514.743
 30
0.0
 40
3.0
  1
DIAMOND
  7
MONOTXT
210
0.0
220
0.0
230
1.0
  0
TEXT
  8
1
  6
CONTINUOUS
 62
     7
  5
689
 10
505.5395
 20
-534.354917
 30
0.0
 40
3.0
  1
CIRCLE
  7
MONOTXT
210
0.0
220
0.0
230
1.0
  0
TEXT
  8
1
  6
CONTINUOUS
 62
     7
  5
68A
 10
503.949833
 20
-559.134917
 30
0.0
 40
3.0
  1
SQUARE
  7
MONOTXT
210
0.0
220
0.0
230
1.0
  0
TEXT
  8
1
  6
CONTINUOUS
 62
     7
  5
68B
 10
503.155
 20
-590.938083
 30
0.0
 40
3.0
  1
PENNANT
  7
MONOTXT
210
0.0
220
0.0
230
1.0
  0
TEXT
  8
1
  6
CONTINUOUS
 62
     7
  5
68C
 10
528.456833
 20
-502.021667
 30
0.0
 40
2.0
  1
30" ALL SIDES
  7
MONOTXT
210
0.0
220
0.0
230
1.0
  0
LINE
  8
1
  6
CONTINUOUS
 62
     6
  5
68D
 10
539.789
 20
-536.864667
 30
0.0
 11
539.789
 21
-598.864667
 31
0.0
  0
LINE
  8
1
  6
CONTINUOUS
 62
     6
  5
68E
 10
499.789
 20
-536.864667
 30
0.0
 11
526.789
 21
-536.864667
 31
0.0
  0
LINE
  8
1
  6
CONTINUOUS
 62
     6
  5
68F
 10
526.789
 20
-536.864667
 30
0.0
 11
552.789
 21
-536.864667
 31
0.0
  0
LINE
  8
1
  6
CONTINUOUS
 62
     6
  5
690
 10
552.789
 20
-536.864667
 30
0.0
 11
604.789
 21
-536.864667
 31
0.0
  0
TEXT
  8
1
  6
CONTINUOUS
 62
     7
  5
691
 10
528.31025
 20
-508.013083
 30
0.0
 40
2.0
  1
36" ALL SIDES
  7
MONOTXT
210
0.0
220
0.0
230
1.0
  0
TEXT
  8
1
  6
CONTINUOUS
 62
     7
  5
692
 10
528.31025
 20
-514.815917
 30
0.0
 40
2.0
  1
42" ALL SIDES
  7
MONOTXT
210
0.0
220
0.0
230
1.0
  0
TEXT
  8
1
  6
CONTINUOUS
 62
     7
  5
693
 10
528.461417
 20
-520.862917
 30
0.0
 40
2.0
  1
48" ALL SIDES
  7
MONOTXT
210
0.0
220
0.0
230
1.0
  0
TEXT
  8
1
  6
CONTINUOUS
 62
     7
  5
694
 10
528.6125
 20
-526.909917
 30
0.0
 40
2.0
  1
60" ALL SIDES
  7
MONOTXT
210
0.0
220
0.0
230
1.0
  0
TEXT
  8
1
  6
CONTINUOUS
 62
     7
  5
695
 10
533.4485
 20
-533.864
 30
0.0
 40
2.0
  1
36" DIA.
  7
MONOTXT
210
0.0
220
0.0
230
1.0
  0
TEXT
  8
1
  6
CONTINUOUS
 62
     7
  5
696
 10
531.93725
 20
-540.969167
 30
0.0
 40
2.0
  1
6"
  7
MONOTXT
210
0.0
220
0.0
230
1.0
  0
TEXT
  8
1
  6
CONTINUOUS
 62
     7
  5
697
 10
544.934083
 20
-540.969167
 30
0.0
 40
2.0
  1
6"
  7
MONOTXT
210
0.0
220
0.0
230
1.0
  0
TEXT
  8
1
  6
CONTINUOUS
 62
     7
  5
698
 10
531.483917
 20
-547.016167
 30
0.0
 40
2.0
  1
18"
  7
MONOTXT
210
0.0
220
0.0
230
1.0
  0
TEXT
  8
1
  6
CONTINUOUS
 62
     7
  5
699
 10
544.480667
 20
-546.865
 30
0.0
 40
2.0
  1
18"
  7
MONOTXT
210
0.0
220
0.0
230
1.0
  0
TEXT
  8
1
  6
CONTINUOUS
 62
     7
  5
69A
 10
531.181667
 20
-553.063167
 30
0.0
 40
2.0
  1
24"
  7
MONOTXT
210
0.0
220
0.0
230
1.0
  0
TEXT
  8
1
  6
CONTINUOUS
 62
     7
  5
69B
 10
544.178417
 20
-552.912
 30
0.0
 40
2.0
  1
24"
  7
MONOTXT
210
0.0
220
0.0
230
1.0
  0
TEXT
  8
1
  6
CONTINUOUS
 62
     7
  5
69C
 10
531.181667
 20
-558.959
 30
0.0
 40
2.0
  1
30"
  7
MONOTXT
210
0.0
220
0.0
230
1.0
  0
TEXT
  8
1
  6
CONTINUOUS
 62
     7
  5
69D
 10
543.725083
 20
-559.110167
 30
0.0
 40
2.0
  1
30"
  7
MONOTXT
210
0.0
220
0.0
230
1.0
  0
TEXT
  8
1
  6
CONTINUOUS
 62
     7
  5
69E
 10
530.879417
 20
-565.157167
 30
0.0
 40
2.0
  1
36"
  7
MONOTXT
210
0.0
220
0.0
230
1.0
  0
TEXT
  8
1
  6
CONTINUOUS
 62
     7
  5
69F
 10
543.725083
 20
-565.006
 30
0.0
 40
2.0
  1
36"
  7
MONOTXT
210
0.0
220
0.0
230
1.0
  0
TEXT
  8
1
  6
CONTINUOUS
 62
     7
  5
6A0
 10
530.577167
 20
-572.111167
 30
0.0
 40
2.0
  1
42"
  7
MONOTXT
210
0.0
220
0.0
230
1.0
  0
TEXT
  8
1
  6
CONTINUOUS
 62
     7
  5
6A1
 10
543.573917
 20
-572.111167
 30
0.0
 40
2.0
  1
42"
  7
MONOTXT
210
0.0
220
0.0
230
1.0
  0
TEXT
  8
1
  6
CONTINUOUS
 62
     7
  5
6A2
 10
530.577167
 20
-577.855833
 30
0.0
 40
2.0
  1
48"
  7
MONOTXT
210
0.0
220
0.0
230
1.0
  0
TEXT
  8
1
  6
CONTINUOUS
 62
     7
  5
6A3
 10
543.876167
 20
-578.007
 30
0.0
 40
2.0
  1
48"
  7
MONOTXT
210
0.0
220
0.0
230
1.0
  0
TEXT
  8
1
  6
CONTINUOUS
 62
     7
  5
6A4
 10
530.879417
 20
-584.961
 30
0.0
 40
2.0
  1
36"
  7
MONOTXT
210
0.0
220
0.0
230
1.0
  0
TEXT
  8
1
  6
CONTINUOUS
 62
     7
  5
6A5
 10
542.062667
 20
-584.961
 30
0.0
 40
2.0
  1
44.5"
  7
MONOTXT
210
0.0
220
0.0
230
1.0
  0
TEXT
  8
1
  6
CONTINUOUS
 62
     7
  5
6A6
 10
563.82475
 20
-501.966083
 30
0.0
 40
2.0
  1
15"
  7
MONOTXT
210
0.0
220
0.0
230
1.0
  0
TEXT
  8
1
  6
CONTINUOUS
 62
     7
  5
6A7
 10
563.975917
 20
-533.864
 30
0.0
 40
2.0
  1
15"
  7
MONOTXT
210
0.0
220
0.0
230
1.0
  0
TEXT
  8
1
  6
CONTINUOUS
 62
     7
  5
6A8
 10
564.7315
 20
-572.111167
 30
0.0
 40
2.0
  1
15"
  7
MONOTXT
210
0.0
220
0.0
230
1.0
  0
TEXT
  8
1
  6
CONTINUOUS
 62
     7
  5
6A9
 10
563.82475
 20
-507.861917
 30
0.0
 40
2.0
  1
18"
  7
MONOTXT
210
0.0
220
0.0
230
1.0
  0
TEXT
  8
1
  6
CONTINUOUS
 62
     7
  5
6AA
 10
565.03375
 20
-578.007
 30
0.0
 40
2.0
  1
18"
  7
MONOTXT
210
0.0
220
0.0
230
1.0
  0
TEXT
  8
1
  6
CONTINUOUS
 62
     7
  5
6AB
 10
589.66725
 20
-534.015167
 30
0.0
 40
2.0
  1
18"
  7
MONOTXT
210
0.0
220
0.0
230
1.0
  0
TEXT
  8
1
  6
CONTINUOUS
 62
     7
  5
6AC
 10
590.574
 20
-584.809833
 30
0.0
 40
2.0
  1
15"
  7
MONOTXT
210
0.0
220
0.0
230
1.0
  0
TEXT
  8
1
  6
CONTINUOUS
 62
     7
  5
6AD
 10
563.82475
 20
-514.967167
 30
0.0
 40
2.0
  1
10"
  7
MONOTXT
210
0.0
220
0.0
230
1.0
  0
TEXT
  8
1
  6
CONTINUOUS
 62
     7
  5
6AE
 10
563.975917
 20
-520.862917
 30
0.0
 40
2.0
  1
12"
  7
MONOTXT
210
0.0
220
0.0
230
1.0
  0
TEXT
  8
1
  6
CONTINUOUS
 62
     7
  5
6AF
 10
563.975917
 20
-526.909917
 30
0.0
 40
2.0
  1
17"
  7
MONOTXT
210
0.0
220
0.0
230
1.0
  0
TEXT
  8
1
  6
CONTINUOUS
 62
     7
  5
6B0
 10
563.069167
 20
-541.120333
 30
0.0
 40
2.0
  1
2 1/2 "
  7
MONOTXT
210
0.0
220
0.0
230
1.0
  0
TEXT
  8
1
  6
CONTINUOUS
 62
     7
  5
6B1
 10
563.22025
 20
-547.016167
 30
0.0
 40
2.0
  1
7 1/2 "
  7
MONOTXT
210
0.0
220
0.0
230
1.0
  0
TEXT
  8
1
  6
CONTINUOUS
 62
     7
  5
6B2
 10
562.766917
 20
-552.912
 30
0.0
 40
2.0
  1
10 1/2 "
  7
MONOTXT
210
0.0
220
0.0
230
1.0
  0
TEXT
  8
1
  6
CONTINUOUS
 62
     7
  5
6B3
 10
562.918
 20
-558.959
 30
0.0
 40
2.0
  1
13 1/2 "
  7
MONOTXT
210
0.0
220
0.0
230
1.0
  0
TEXT
  8
1
  6
CONTINUOUS
 62
     7
  5
6B4
 10
564.580417
 20
-564.854833
 30
0.0
 40
2.0
  1
16"
  7
MONOTXT
210
0.0
220
0.0
230
1.0
  0
TEXT
  8
1
  6
CONTINUOUS
 62
     7
  5
6B5
 10
565.63825
 20
-585.11225
 30
0.0
 40
2.0
  1
9"
  7
MONOTXT
210
0.0
220
0.0
230
1.0
  0
LINE
  8
1
  6
CONTINUOUS
 62
     7
  5
6B6
 10
581.783
 20
-500.907833
 30
0.0
 11
601.783
 21
-500.907833
 31
0.0
  0
LINE
  8
1
  6
CONTINUOUS
 62
     7
  5
6B7
 10
581.783
 20
-506.907833
 30
0.0
 11
601.783
 21
-506.907833
 31
0.0
  0
LINE
  8
1
  6
CONTINUOUS
 62
     7
  5
6B8
 10
581.783
 20
-513.907833
 30
0.0
 11
601.783
 21
-513.907833
 31
0.0
  0
LINE
  8
1
  6
CONTINUOUS
 62
     7
  5
6B9
 10
581.783
 20
-519.907833
 30
0.0
 11
601.783
 21
-519.907833
 31
0.0
  0
LINE
  8
1
  6
CONTINUOUS
 62
     7
  5
6BA
 10
581.783
 20
-525.907833
 30
0.0
 11
601.783
 21
-525.907833
 31
0.0
  0
LINE
  8
1
  6
CONTINUOUS
 62
     7
  5
6BB
 10
581.783
 20
-539.907833
 30
0.0
 11
601.783
 21
-539.907833
 31
0.0
  0
LINE
  8
1
  6
CONTINUOUS
 62
     7
  5
6BC
 10
581.783
 20
-545.907833
 30
0.0
 11
601.783
 21
-545.907833
 31
0.0
  0
LINE
  8
1
  6
CONTINUOUS
 62
     7
  5
6BD
 10
581.783
 20
-551.907833
 30
0.0
 11
601.783
 21
-551.907833
 31
0.0
  0
LINE
  8
1
  6
CONTINUOUS
 62
     7
  5
6BE
 10
581.783
 20
-557.907833
 30
0.0
 11
601.783
 21
-557.907833
 31
0.0
  0
LINE
  8
1
  6
CONTINUOUS
 62
     7
  5
6BF
 10
581.783
 20
-563.907833
 30
0.0
 11
601.783
 21
-563.907833
 31
0.0
  0
LINE
  8
1
  6
CONTINUOUS
 62
     7
  5
6C0
 10
581.783
 20
-570.907833
 30
0.0
 11
601.783
 21
-570.907833
 31
0.0
  0
LINE
  8
1
  6
CONTINUOUS
 62
     7
  5
6C1
 10
581.783
 20
-576.907833
 30
0.0
 11
601.783
 21
-576.907833
 31
0.0
  0
TEXT
  8
1
  6
CONTINUOUS
 62
     7
  5
6C2
 10
468.144167
 20
-611.164
 30
0.0
 40
2.5
  1
GENERAL NOTES
  7
MONOTXT
210
0.0
220
0.0
230
1.0
  0
LINE
  8
1
  6
CONTINUOUS
 62
     7
  5
6C3
 10
467.100583
 20
-612.625417
 30
0.0
 11
500.317417
 21
-612.625417
 31
0.0
  0
TEXT
  8
1
  6
CONTINUOUS
 62
     7
  5
6C4
 10
9.15075
 20
-463.193833
 30
0.0
 40
2.5
  1
A
  7
MONOTXT
210
0.0
220
0.0
230
1.0
  0
TEXT
  8
1
  6
CONTINUOUS
 62
     7
  5
6C5
 10
26.629083
 20
-463.193833
 30
0.0
 40
2.5
  1
A
  7
MONOTXT
210
0.0
220
0.0
230
1.0
  0
TEXT
  8
1
  6
CONTINUOUS
 62
     7
  5
6C6
 10
20.117583
 20
-483.306083
 30
0.0
 40
2.5
  1
1
  7
MONOTXT
210
0.0
220
0.0
230
1.0
  0
TEXT
  8
1
  6
CONTINUOUS
 62
     7
  5
6C7
 10
2.63925
 20
-495.762
 30
0.0
 40
2.5
  1
3
  7
MONOTXT
210
0.0
220
0.0
230
1.0
  0
TEXT
  8
1
  6
CONTINUOUS
 62
     7
  5
6C8
 10
32.797917
 20
-496.333333
 30
0.0
 40
2.5
  1
4
  7
MONOTXT
210
0.0
220
0.0
230
1.0
  0
TEXT
  8
1
  6
CONTINUOUS
 62
     7
  5
6C9
 10
20.117583
 20
-513.4745
 30
0.0
 40
2.5
  1
2
  7
MONOTXT
210
0.0
220
0.0
230
1.0
  0
TEXT
  8
1
  6
CONTINUOUS
 62
     7
  5
6CA
 10
52.789417
 20
-488.9055
 30
0.0
 40
2.5
  1
A
  7
MONOTXT
210
0.0
220
0.0
230
1.0
  0
TEXT
  8
1
  6
CONTINUOUS
 62
     7
  5
6CB
 10
52.789417
 20
-506.618083
 30
0.0
 40
2.5
  1
A
  7
MONOTXT
210
0.0
220
0.0
230
1.0
  0
TEXT
  8
1
  6
CONTINUOUS
 62
     7
  5
6CC
 10
25.699917
 20
-553.806083
 30
0.0
 40
2.5
  1
1
  7
MONOTXT
210
0.0
220
0.0
230
1.0
  0
TEXT
  8
1
  6
CONTINUOUS
 62
     7
  5
6CD
 10
2.4385
 20
-568.669
 30
0.0
 40
2.5
  1
3
  7
MONOTXT
210
0.0
220
0.0
230
1.0
  0
TEXT
  8
1
  6
CONTINUOUS
 62
     7
  5
6CE
 10
32.885333
 20
-569.278167
 30
0.0
 40
2.5
  1
4
  7
MONOTXT
210
0.0
220
0.0
230
1.0
  0
TEXT
  8
1
  6
CONTINUOUS
 62
     7
  5
6CF
 10
24.482
 20
-586.45575
 30
0.0
 40
2.5
  1
2
  7
MONOTXT
210
0.0
220
0.0
230
1.0
  0
TEXT
  8
1
  6
CONTINUOUS
 62
     7
  5
6D0
 10
81.356833
 20
-546.61825
 30
0.0
 40
2.5
  1
GEN. NOTE 2.4.2
  7
MONOTXT
210
0.0
220
0.0
230
1.0
  0
TEXT
  8
1
  6
CONTINUOUS
 62
     7
  5
6D1
 10
48.108833
 20
-562.090333
 30
0.0
 40
2.5
  1
SIGN FACE
  7
MONOTXT
210
0.0
220
0.0
230
1.0
  0
TEXT
  8
1
  6
CONTINUOUS
 62
     7
  5
6D2
 10
65.402667
 20
-571.8365
 30
0.0
 40
2.5
  1
3, 4
  7
MONOTXT
210
0.0
220
0.0
230
1.0
  0
TEXT
  8
1
  6
CONTINUOUS
 62
     7
  5
6D3
 10
88.907667
 20
-553.68425
 30
0.0
 40
2.5
  1
1
  7
MONOTXT
210
0.0
220
0.0
230
1.0
  0
TEXT
  8
1
  6
CONTINUOUS
 62
     7
  5
6D4
 10
89.15125
 20
-588.7705
 30
0.0
 40
2.5
  1
2
  7
MONOTXT
210
0.0
220
0.0
230
1.0
  0
TEXT
  8
1
  6
CONTINUOUS
 62
     7
  5
6D5
 10
15.970667
 20
-617.403833
 30
0.0
 40
2.5
  1
1, 2
  7
MONOTXT
210
0.0
220
0.0
230
1.0
  0
TEXT
  8
1
  6
CONTINUOUS
 62
     7
  5
6D6
 10
2.016
 20
-631.104583
 30
0.0
 40
2.5
  1
3
  7
MONOTXT
210
0.0
220
0.0
230
1.0
  0
TEXT
  8
1
  6
CONTINUOUS
 62
     7
  5
6D7
 10
37.074917
 20
-630.93225
 30
0.0
 40
2.5
  1
4
  7
MONOTXT
210
0.0
220
0.0
230
1.0
  0
TEXT
  8
1
  6
CONTINUOUS
 62
     7
  5
6D8
 10
35.524417
 20
-639.635167
 30
0.0
 40
2.5
  1
SIGN FACE
  7
MONOTXT
210
0.0
220
0.0
230
1.0
  0
TEXT
  8
1
  6
CONTINUOUS
 62
     7
  5
6D9
 10
135.610667
 20
-461.23025
 30
0.0
 40
2.5
  1
B
  7
MONOTXT
210
0.0
220
0.0
230
1.0
  0
TEXT
  8
1
  6
CONTINUOUS
 62
     7
  5
6DA
 10
195.349083
 20
-491.163417
 30
0.0
 40
2.5
  1
A
  7
MONOTXT
 72
     4
 11
196.313583
 21
-489.913417
 31
0.0
210
0.0
220
0.0
230
1.0
  0
TEXT
  8
1
  6
CONTINUOUS
 62
     7
  5
6DB
 10
195.110083
 20
-516.26125
 30
0.0
 40
2.5
  1
A
  7
MONOTXT
 72
     4
 11
196.074583
 21
-515.01125
 31
0.0
210
0.0
220
0.0
230
1.0
  0
TEXT
  8
1
  6
CONTINUOUS
 62
     7
  5
6DC
 10
154.431417
 20
-482.080417
 30
0.0
 40
2.5
  1
1
  7
MONOTXT
 72
     4
 11
154.726667
 21
-480.830417
 31
0.0
210
0.0
220
0.0
230
1.0
  0
TEXT
  8
1
  6
CONTINUOUS
 62
     7
  5
6DD
 10
154.138833
 20
-521.280833
 30
0.0
 40
2.5
  1
2
  7
MONOTXT
 72
     4
 11
154.975417
 21
-520.030833
 31
0.0
210
0.0
220
0.0
230
1.0
  0
TEXT
  8
1
  6
CONTINUOUS
 62
     7
  5
6DE
 10
163.750417
 20
-552.11525
 30
0.0
 40
2.5
  1
1
  7
MONOTXT
 72
     4
 11
164.045667
 21
-550.86525
 31
0.0
210
0.0
220
0.0
230
1.0
  0
TEXT
  8
1
  6
CONTINUOUS
 62
     7
  5
6DF
 10
163.696833
 20
-598.4865
 30
0.0
 40
2.5
  1
2
  7
MONOTXT
 72
     4
 11
164.533417
 21
-597.2365
 31
0.0
210
0.0
220
0.0
230
1.0
  0
TEXT
  8
1
  6
CONTINUOUS
 62
     7
  5
6E0
 10
150.162917
 20
-619.37925
 30
0.0
 40
2.5
  1
1, 2
  7
MONOTXT
 72
     4
 11
152.968
 21
-618.12925
 31
0.0
210
0.0
220
0.0
230
1.0
  0
TEXT
  8
1
  6
CONTINUOUS
 62
     7
  5
6E1
 10
170.288917
 20
-641.80525
 30
0.0
 40
2.5
  1
SIGN FACE
  7
MONOTXT
 72
     4
 11
180.160917
 21
-640.55525
 31
0.0
210
0.0
220
0.0
230
1.0
  0
TEXT
  8
1
  6
CONTINUOUS
 62
     7
  5
6E2
 10
189.656917
 20
-561.099583
 30
0.0
 40
2.5
  1
SIGN
  7
MONOTXT
 72
     4
 11
193.44625
 21
-559.849583
 31
0.0
210
0.0
220
0.0
230
1.0
  0
TEXT
  8
1
  6
CONTINUOUS
 62
     7
  5
6E3
 10
189.00725
 20
-565.599583
 30
0.0
 40
2.5
  1
FACE
  7
MONOTXT
 72
     4
 11
193.446167
 21
-564.349583
 31
0.0
210
0.0
220
0.0
230
1.0
  0
TEXT
  8
1
  6
CONTINUOUS
 62
     7
  5
6E4
 10
212.038
 20
-547.09575
 30
0.0
 40
2.5
  1
GEN. NOTE 2.4.2
  7
MONOTXT
 72
     4
 11
227.854833
 21
-545.84575
 31
0.0
210
0.0
220
0.0
230
1.0
  0
TEXT
  8
1
  6
CONTINUOUS
 62
     7
  5
6E5
 10
219.425583
 20
-552.593333
 30
0.0
 40
2.5
  1
1
  7
MONOTXT
 72
     4
 11
219.720833
 21
-551.343333
 31
0.0
210
0.0
220
0.0
230
1.0
  0
TEXT
  8
1
  6
CONTINUOUS
 62
     7
  5
6E6
 10
219.372
 20
-598.2475
 30
0.0
 40
2.5
  1
2
  7
MONOTXT
 72
     4
 11
220.208583
 21
-596.9975
 31
0.0
210
0.0
220
0.0
230
1.0
  0
TEXT
  8
1
  6
CONTINUOUS
 62
     7
  5
6E7
 10
264.166417
 20
-459.850917
 30
0.0
 40
2.5
  1
A
  7
MONOTXT
 72
     4
 11
265.130917
 21
-458.600917
 31
0.0
210
0.0
220
0.0
230
1.0
  0
TEXT
  8
1
  6
CONTINUOUS
 62
     7
  5
6E8
 10
279.459167
 20
-459.850917
 30
0.0
 40
2.5
  1
A
  7
MONOTXT
 72
     4
 11
280.423667
 21
-458.600917
 31
0.0
210
0.0
220
0.0
230
1.0
  0
TEXT
  8
1
  6
CONTINUOUS
 62
     7
  5
6E9
 10
305.265667
 20
-485.426833
 30
0.0
 40
2.5
  1
A
  7
MONOTXT
 72
     4
 11
306.230167
 21
-484.176833
 31
0.0
210
0.0
220
0.0
230
1.0
  0
TEXT
  8
1
  6
CONTINUOUS
 62
     7
  5
6EA
 10
304.787833
 20
-501.441583
 30
0.0
 40
2.5
  1
A
  7
MONOTXT
 72
     4
 11
305.752333
 21
-500.191583
 31
0.0
210
0.0
220
0.0
230
1.0
  0
TEXT
  8
1
  6
CONTINUOUS
 62
     7
  5
6EB
 10
270.082833
 20
-474.431583
 30
0.0
 40
2.5
  1
1
  7
MONOTXT
 72
     4
 11
270.378083
 21
-473.181583
 31
0.0
210
0.0
220
0.0
230
1.0
  0
TEXT
  8
1
  6
CONTINUOUS
 62
     7
  5
6EC
 10
259.2765
 20
-495.944
 30
0.0
 40
2.5
  1
3
  7
MONOTXT
 72
     4
 11
260.113083
 21
-494.694
 31
0.0
210
0.0
220
0.0
230
1.0
  0
TEXT
  8
1
  6
CONTINUOUS
 62
     7
  5
6ED
 10
285.023917
 20
-495.465917
 30
0.0
 40
2.5
  1
4
  7
MONOTXT
 72
     4
 11
285.919583
 21
-494.215917
 31
0.0
210
0.0
220
0.0
230
1.0
  0
TEXT
  8
1
  6
CONTINUOUS
 62
     7
  5
6EE
 10
274.56925
 20
-511.241667
 30
0.0
 40
2.5
  1
2
  7
MONOTXT
 72
     4
 11
275.405833
 21
-509.991667
 31
0.0
210
0.0
220
0.0
230
1.0
  0
TEXT
  8
1
  6
CONTINUOUS
 62
     7
  5
6EF
 10
281.313417
 20
-552.354333
 30
0.0
 40
2.5
  1
1
  7
MONOTXT
 72
     4
 11
281.608667
 21
-551.104333
 31
0.0
210
0.0
220
0.0
230
1.0
  0
TEXT
  8
1
  6
CONTINUOUS
 62
     7
  5
6F0
 10
259.515417
 20
-570.998417
 30
0.0
 40
2.5
  1
3
  7
MONOTXT
 72
     4
 11
260.352
 21
-569.748417
 31
0.0
210
0.0
220
0.0
230
1.0
  0
TEXT
  8
1
  6
CONTINUOUS
 62
     7
  5
6F1
 10
285.023917
 20
-570.520333
 30
0.0
 40
2.5
  1
4
  7
MONOTXT
 72
     4
 11
285.919583
 21
-569.270333
 31
0.0
210
0.0
220
0.0
230
1.0
  0
TEXT
  8
1
  6
CONTINUOUS
 62
     7
  5
6F2
 10
280.781917
 20
-583.18875
 30
0.0
 40
2.5
  1
2
  7
MONOTXT
 72
     4
 11
281.6185
 21
-581.93875
 31
0.0
210
0.0
220
0.0
230
1.0
  0
TEXT
  8
1
  6
CONTINUOUS
 62
     7
  5
6F3
 10
270.450167
 20
-614.50125
 30
0.0
 40
2.5
  1
1, 2
  7
MONOTXT
 72
     4
 11
273.25525
 21
-613.25125
 31
0.0
210
0.0
220
0.0
230
1.0
  0
TEXT
  8
1
  6
CONTINUOUS
 62
     7
  5
6F4
 10
290.384583
 20
-637.447833
 30
0.0
 40
2.5
  1
SIGN FACE
  7
MONOTXT
 72
     4
 11
300.256583
 21
-636.197833
 31
0.0
210
0.0
220
0.0
230
1.0
  0
TEXT
  8
1
  6
CONTINUOUS
 62
     7
  5
6F5
 10
335.57475
 20
-546.856667
 30
0.0
 40
2.5
  1
GEN. NOTE 2.4.2
  7
MONOTXT
 72
     4
 11
351.391583
 21
-545.606667
 31
0.0
210
0.0
220
0.0
230
1.0
  0
TEXT
  8
1
  6
CONTINUOUS
 62
     7
  5
6F6
 10
340.811833
 20
-552.593333
 30
0.0
 40
2.5
  1
1
  7
MONOTXT
 72
     4
 11
341.107083
 21
-551.343333
 31
0.0
210
0.0
220
0.0
230
1.0
  0
TEXT
  8
1
  6
CONTINUOUS
 62
     7
  5
6F7
 10
340.997167
 20
-583.188833
 30
0.0
 40
2.5
  1
2
  7
MONOTXT
 72
     4
 11
341.83375
 21
-581.938833
 31
0.0
210
0.0
220
0.0
230
1.0
  0
TEXT
  8
1
  6
CONTINUOUS
 62
     7
  5
6F8
 10
316.693667
 20
-568.130083
 30
0.0
 40
2.5
  1
3, 4
  7
MONOTXT
 72
     4
 11
320.089333
 21
-566.880083
 31
0.0
210
0.0
220
0.0
230
1.0
  0
TEXT
  8
1
  6
CONTINUOUS
 62
     7
  5
6F9
 10
311.521
 20
-558.47025
 30
0.0
 40
2.5
  1
SIGN
  7
MONOTXT
 72
     4
 11
315.310333
 21
-557.22025
 31
0.0
210
0.0
220
0.0
230
1.0
  0
TEXT
  8
1
  6
CONTINUOUS
 62
     7
  5
6FA
 10
310.871333
 20
-562.97025
 30
0.0
 40
2.5
  1
FACE
  7
MONOTXT
 72
     4
 11
315.31025
 21
-561.72025
 31
0.0
210
0.0
220
0.0
230
1.0
  0
TEXT
  8
1
  6
CONTINUOUS
 62
     7
  5
6FB
 10
387.792083
 20
-467.714167
 30
0.0
 40
2.5
  1
B
  7
MONOTXT
 72
     4
 11
388.628667
 21
-466.464167
 31
0.0
210
0.0
220
0.0
230
1.0
  0
TEXT
  8
1
  6
CONTINUOUS
 62
     7
  5
6FC
 10
366.28025
 20
-489.555333
 30
0.0
 40
2.5
  1
A
  7
MONOTXT
 72
     4
 11
367.24475
 21
-488.305333
 31
0.0
210
0.0
220
0.0
230
1.0
  0
TEXT
  8
1
  6
CONTINUOUS
 62
     7
  5
6FD
 10
366.055167
 20
-498.787083
 30
0.0
 40
2.5
  1
A
  7
MONOTXT
 72
     4
 11
367.019667
 21
-497.537083
 31
0.0
210
0.0
220
0.0
230
1.0
  0
TEXT
  8
1
  6
CONTINUOUS
 62
     7
  5
6FE
 10
400.928833
 20
-486.628167
 30
0.0
 40
2.5
  1
1
  7
MONOTXT
 72
     4
 11
401.224083
 21
-485.378167
 31
0.0
210
0.0
220
0.0
230
1.0
  0
TEXT
  8
1
  6
CONTINUOUS
 62
     7
  5
6FF
 10
401.153917
 20
-544.495833
 30
0.0
 40
2.5
  1
1
  7
MONOTXT
 72
     4
 11
401.449167
 21
-543.245833
 31
0.0
210
0.0
220
0.0
230
1.0
  0
TEXT
  8
1
  6
CONTINUOUS
 62
     7
  5
700
 10
471.608
 20
-542.919667
 30
0.0
 40
2.5
  1
1
  7
MONOTXT
 72
     4
 11
471.90325
 21
-541.669667
 31
0.0
210
0.0
220
0.0
230
1.0
  0
TEXT
  8
1
  6
CONTINUOUS
 62
     7
  5
701
 10
401.747833
 20
-501.489083
 30
0.0
 40
2.5
  1
2
  7
MONOTXT
 72
     4
 11
402.584417
 21
-500.239083
 31
0.0
210
0.0
220
0.0
230
1.0
  0
TEXT
  8
1
  6
CONTINUOUS
 62
     7
  5
702
 10
401.747833
 20
-560.03225
 30
0.0
 40
2.5
  1
2
  7
MONOTXT
 72
     4
 11
402.584417
 21
-558.78225
 31
0.0
210
0.0
220
0.0
230
1.0
  0
TEXT
  8
1
  6
CONTINUOUS
 62
     7
  5
703
 10
472.201917
 20
-561.608417
 30
0.0
 40
2.5
  1
2
  7
MONOTXT
 72
     4
 11
473.0385
 21
-560.358417
 31
0.0
210
0.0
220
0.0
230
1.0
  0
TEXT
  8
1
  6
CONTINUOUS
 62
     7
  5
704
 10
392.576417
 20
-593.582
 30
0.0
 40
2.5
  1
1, 2
  7
MONOTXT
 72
     4
 11
395.3815
 21
-592.332
 31
0.0
210
0.0
220
0.0
230
1.0
  0
TEXT
  8
1
  6
CONTINUOUS
 62
     7
  5
705
 10
413.195917
 20
-615.8735
 30
0.0
 40
2.5
  1
SIGN FACE
  7
MONOTXT
 72
     4
 11
423.067917
 21
-614.6235
 31
0.0
210
0.0
220
0.0
230
1.0
  0
TEXT
  8
1
  6
CONTINUOUS
 62
     7
  5
706
 10
430.528083
 20
-568.13825
 30
0.0
 40
2.5
  1
SIGN FACE
  7
MONOTXT
 72
     4
 11
440.400083
 21
-566.88825
 31
0.0
210
0.0
220
0.0
230
1.0
  0
TEXT
  8
1
  6
CONTINUOUS
 62
     7
  5
707
 10
451.377583
 20
-529.881167
 30
0.0
 40
2.5
  1
GEN. NOTE 2.4.2
  7
MONOTXT
 72
     4
 11
467.194417
 21
-528.631167
 31
0.0
210
0.0
220
0.0
230
1.0
  0
TEXT
  8
1
  6
CONTINUOUS
 62
     7
  5
708
 10
16.763083
 20
-670.941917
 30
0.0
 40
2.5
  1
A
  7
MONOTXT
 72
     4
 11
17.727583
 21
-669.691917
 31
0.0
210
0.0
220
0.0
230
1.0
  0
TEXT
  8
1
  6
CONTINUOUS
 62
     7
  5
709
 10
26.444583
 20
-671.218583
 30
0.0
 40
2.5
  1
A
  7
MONOTXT
 72
     4
 11
27.409083
 21
-669.968583
 31
0.0
210
0.0
220
0.0
230
1.0
  0
TEXT
  8
1
  6
CONTINUOUS
 62
     7
  5
70A
 10
60.19125
 20
-703.869417
 30
0.0
 40
2.5
  1
A
  7
MONOTXT
 72
     4
 11
61.15575
 21
-702.619417
 31
0.0
210
0.0
220
0.0
230
1.0
  0
TEXT
  8
1
  6
CONTINUOUS
 62
     7
  5
70B
 10
60.467833
 20
-713.000583
 30
0.0
 40
2.5
  1
A
  7
MONOTXT
 72
     4
 11
61.432333
 21
-711.750583
 31
0.0
210
0.0
220
0.0
230
1.0
  0
TEXT
  8
1
  6
CONTINUOUS
 62
     7
  5
70C
 10
5.804917
 20
-771.38475
 30
0.0
 40
2.5
  1
1
  7
MONOTXT
 72
     4
 11
6.100167
 21
-770.13475
 31
0.0
210
0.0
220
0.0
230
1.0
  0
TEXT
  8
1
  6
CONTINUOUS
 62
     7
  5
70D
 10
14.67825
 20
-701.655833
 30
0.0
 40
2.5
  1
2
  7
MONOTXT
 72
     4
 11
15.514833
 21
-700.405833
 31
0.0
210
0.0
220
0.0
230
1.0
  0
TEXT
  8
1
  6
CONTINUOUS
 62
     7
  5
70E
 10
16.337917
 20
-775.258583
 30
0.0
 40
2.5
  1
2
  7
MONOTXT
 72
     4
 11
17.1745
 21
-774.008583
 31
0.0
210
0.0
220
0.0
230
1.0
  0
TEXT
  8
1
  6
CONTINUOUS
 62
     7
  5
70F
 10
34.041083
 20
-701.379083
 30
0.0
 40
2.5
  1
3
  7
MONOTXT
 72
     4
 11
34.877667
 21
-700.129083
 31
0.0
210
0.0
220
0.0
230
1.0
  0
TEXT
  8
1
  6
CONTINUOUS
 62
     7
  5
710
 10
27.402417
 20
-775.258583
 30
0.0
 40
2.5
  1
3
  7
MONOTXT
 72
     4
 11
28.239
 21
-774.008583
 31
0.0
210
0.0
220
0.0
230
1.0
  0
TEXT
  8
1
  6
CONTINUOUS
 62
     7
  5
711
 10
38.684417
 20
-771.661417
 30
0.0
 40
2.5
  1
4
  7
MONOTXT
 72
     4
 11
39.580083
 21
-770.411417
 31
0.0
210
0.0
220
0.0
230
1.0
  0
TEXT
  8
1
  6
CONTINUOUS
 62
     7
  5
712
 10
4.720167
 20
-789.647083
 30
0.0
 40
2.5
  1
5
  7
MONOTXT
 72
     4
 11
5.55675
 21
-788.397083
 31
0.0
210
0.0
220
0.0
230
1.0
  0
TEXT
  8
1
  6
CONTINUOUS
 62
     7
  5
713
 10
38.7435
 20
-789.647083
 30
0.0
 40
2.5
  1
8
  7
MONOTXT
 72
     4
 11
39.580083
 21
-788.397083
 31
0.0
210
0.0
220
0.0
230
1.0
  0
TEXT
  8
1
  6
CONTINUOUS
 62
     7
  5
714
 10
14.73725
 20
-714.9375
 30
0.0
 40
2.5
  1
6
  7
MONOTXT
 72
     4
 11
15.51475
 21
-713.6875
 31
0.0
210
0.0
220
0.0
230
1.0
  0
TEXT
  8
1
  6
CONTINUOUS
 62
     7
  5
715
 10
16.396917
 20
-787.433417
 30
0.0
 40
2.5
  1
6
  7
MONOTXT
 72
     4
 11
17.174417
 21
-786.183417
 31
0.0
210
0.0
220
0.0
230
1.0
  0
TEXT
  8
1
  6
CONTINUOUS
 62
     7
  5
716
 10
34.021417
 20
-715.21425
 30
0.0
 40
2.5
  1
7
  7
MONOTXT
 72
     4
 11
34.867833
 21
-713.96425
 31
0.0
210
0.0
220
0.0
230
1.0
  0
TEXT
  8
1
  6
CONTINUOUS
 62
     7
  5
717
 10
27.935917
 20
-787.15675
 30
0.0
 40
2.5
  1
7
  7
MONOTXT
 72
     4
 11
28.782333
 21
-785.90675
 31
0.0
210
0.0
220
0.0
230
1.0
  0
TEXT
  8
1
  6
CONTINUOUS
 62
     7
  5
718
 10
9.390333
 20
-822.297917
 30
0.0
 40
2.5
  1
1, 5
  7
MONOTXT
 72
     4
 11
12.195417
 21
-821.047917
 31
0.0
210
0.0
220
0.0
230
1.0
  0
TEXT
  8
1
  6
CONTINUOUS
 62
     7
  5
719
 10
29.822333
 20
-822.02125
 30
0.0
 40
2.5
  1
4, 8
  7
MONOTXT
 72
     4
 11
33.218
 21
-820.77125
 31
0.0
210
0.0
220
0.0
230
1.0
  0
TEXT
  8
1
  6
CONTINUOUS
 62
     7
  5
71A
 10
52.674333
 20
-776.326
 30
0.0
 40
2.5
  1
SIGN FACE
  7
MONOTXT
210
0.0
220
0.0
230
1.0
  0
TEXT
  8
1
  6
CONTINUOUS
 62
     7
  5
71B
 10
53.227583
 20
-849.652
 30
0.0
 40
2.5
  1
SIGN FACE
  7
MONOTXT
210
0.0
220
0.0
230
1.0
  0
TEXT
  8
1
  6
CONTINUOUS
 62
     7
  5
71C
 10
-19.963333
 20
-757.826333
 30
0.0
 40
2.5
  1
GEN. NOTE 2.4.1
  7
MONOTXT
 72
     4
 11
-4.687833
 21
-756.576333
 31
0.0
210
0.0
220
0.0
230
1.0
  0
TEXT
  8
1
  6
CONTINUOUS
 62
     7
  5
71D
 10
-17.593667
 20
-845.781167
 30
0.0
 40
2.5
  1
GEN. NOTE
  7
MONOTXT
 72
     4
 11
-7.99725
 21
-844.531167
 31
0.0
210
0.0
220
0.0
230
1.0
  0
TEXT
  8
1
  6
CONTINUOUS
 62
     7
  5
71E
 10
-12.574
 20
-850.281167
 30
0.0
 40
2.5
  1
2.3.2
  7
MONOTXT
 72
     4
 11
-7.99725
 21
-849.031167
 31
0.0
210
0.0
220
0.0
230
1.0
  0
TEXT
  8
1
  6
CONTINUOUS
 62
     7
  5
71F
 10
2.26025
 20
-853.349333
 30
0.0
 40
2.5
  1
"f"
  7
MONOTXT
 72
     4
 11
4.592917
 21
-852.099333
 31
0.0
210
0.0
220
0.0
230
1.0
  0
TEXT
  8
1
  6
CONTINUOUS
 62
     7
  5
720
 10
38.46625
 20
-853.4425
 30
0.0
 40
2.5
  1
"f"
  7
MONOTXT
 72
     4
 11
40.798917
 21
-852.1925
 31
0.0
210
0.0
220
0.0
230
1.0
  0
TEXT
  8
1
  6
CONTINUOUS
 62
     7
  5
721
 10
-6.97275
 20
-860.33225
 30
0.0
 40
2.5
  1
"f"   SEE GENERAL NOTE 2.3.4
  7
MONOTXT
 72
     4
 11
23.96225
 21
-859.08225
 31
0.0
210
0.0
220
0.0
230
1.0
  0
TEXT
  8
1
  6
CONTINUOUS
 62
     7
  5
722
 10
277.970167
 20
-673.520667
 30
0.0
 40
2.5
  1
A
  7
MONOTXT
 72
     4
 11
278.934667
 21
-672.270667
 31
0.0
210
0.0
220
0.0
230
1.0
  0
TEXT
  8
1
  6
CONTINUOUS
 62
     7
  5
723
 10
309.649167
 20
-705.530083
 30
0.0
 40
2.5
  1
A
  7
MONOTXT
 72
     4
 11
310.613667
 21
-704.280083
 31
0.0
210
0.0
220
0.0
230
1.0
  0
TEXT
  8
1
  6
CONTINUOUS
 62
     7
  5
724
 10
240.837667
 20
-765.784333
 30
0.0
 40
2.5
  1
1
  7
MONOTXT
 72
     4
 11
241.132917
 21
-764.534333
 31
0.0
210
0.0
220
0.0
230
1.0
  0
TEXT
  8
1
  6
CONTINUOUS
 62
     7
  5
725
 10
255.7445
 20
-772.402917
 30
0.0
 40
2.5
  1
2
  7
MONOTXT
 72
     4
 11
256.581083
 21
-771.152917
 31
0.0
210
0.0
220
0.0
230
1.0
  0
TEXT
  8
1
  6
CONTINUOUS
 62
     7
  5
726
 10
283.680417
 20
-772.402917
 30
0.0
 40
2.5
  1
3
  7
MONOTXT
 72
     4
 11
284.517
 21
-771.152917
 31
0.0
210
0.0
220
0.0
230
1.0
  0
TEXT
  8
1
  6
CONTINUOUS
 62
     7
  5
727
 10
299.059667
 20
-765.931417
 30
0.0
 40
2.5
  1
4
  7
MONOTXT
 72
     4
 11
299.955333
 21
-764.681417
 31
0.0
210
0.0
220
0.0
230
1.0
  0
TEXT
  8
1
  6
CONTINUOUS
 62
     7
  5
728
 10
255.9505
 20
-791.229
 30
0.0
 40
2.5
  1
6
  7
MONOTXT
 72
     4
 11
256.728
 21
-789.979
 31
0.0
210
0.0
220
0.0
230
1.0
  0
TEXT
  8
1
  6
CONTINUOUS
 62
     7
  5
729
 10
283.66075
 20
-791.523167
 30
0.0
 40
2.5
  1
7
  7
MONOTXT
 72
     4
 11
284.507167
 21
-790.273167
 31
0.0
210
0.0
220
0.0
230
1.0
  0
TEXT
  8
1
  6
CONTINUOUS
 62
     7
  5
72A
 10
240.306167
 20
-797.847583
 30
0.0
 40
2.5
  1
5
  7
MONOTXT
 72
     4
 11
241.14275
 21
-796.597583
 31
0.0
210
0.0
220
0.0
230
1.0
  0
TEXT
  8
1
  6
CONTINUOUS
 62
     7
  5
72B
 10
299.11875
 20
-797.7005
 30
0.0
 40
2.5
  1
8
  7
MONOTXT
 72
     4
 11
299.955333
 21
-796.4505
 31
0.0
210
0.0
220
0.0
230
1.0
  0
TEXT
  8
1
  6
CONTINUOUS
 62
     7
  5
72C
 10
303.022083
 20
-771.961667
 30
0.0
 40
2.5
  1
SIGN FACE
  7
MONOTXT
 72
     4
 11
312.894083
 21
-770.711667
 31
0.0
210
0.0
220
0.0
230
1.0
  0
TEXT
  8
1
  6
CONTINUOUS
 62
     7
  5
72D
 10
220.372
 20
-844.574917
 30
0.0
 40
2.5
  1
GEN. NOTE
  7
MONOTXT
 72
     4
 11
229.968417
 21
-843.324917
 31
0.0
210
0.0
220
0.0
230
1.0
  0
TEXT
  8
1
  6
CONTINUOUS
 62
     7
  5
72E
 10
225.391667
 20
-849.074917
 30
0.0
 40
2.5
  1
2.3.3
  7
MONOTXT
 72
     4
 11
229.968417
 21
-847.824917
 31
0.0
210
0.0
220
0.0
230
1.0
  0
TEXT
  8
1
  6
CONTINUOUS
 62
     7
  5
72F
 10
270.2885
 20
-847.417917
 30
0.0
 40
2.5
  1
SIGN
  7
MONOTXT
 72
     4
 11
274.077833
 21
-846.167917
 31
0.0
210
0.0
220
0.0
230
1.0
  0
TEXT
  8
1
  6
CONTINUOUS
 62
     7
  5
730
 10
269.638833
 20
-851.917917
 30
0.0
 40
2.5
  1
FACE
  7
MONOTXT
 72
     4
 11
274.07775
 21
-850.667917
 31
0.0
210
0.0
220
0.0
230
1.0
  0
TEXT
  8
1
  6
CONTINUOUS
 62
     7
  5
731
 10
232.623833
 20
-855.355583
 30
0.0
 40
2.5
  1
"e"
  7
MONOTXT
 72
     4
 11
235.25175
 21
-854.105583
 31
0.0
210
0.0
220
0.0
230
1.0
  0
TEXT
  8
1
  6
CONTINUOUS
 62
     7
  5
732
 10
259.82575
 20
-855.355583
 30
0.0
 40
2.5
  1
"f"
  7
MONOTXT
 72
     4
 11
262.158417
 21
-854.105583
 31
0.0
210
0.0
220
0.0
230
1.0
  0
TEXT
  8
1
  6
CONTINUOUS
 62
     7
  5
733
 10
276.440333
 20
-856.385167
 30
0.0
 40
2.5
  1
"f"
  7
MONOTXT
 72
     4
 11
278.773
 21
-855.135167
 31
0.0
210
0.0
220
0.0
230
1.0
  0
TEXT
  8
1
  6
CONTINUOUS
 62
     7
  5
734
 10
303.198917
 20
-856.238083
 30
0.0
 40
2.5
  1
"e"
  7
MONOTXT
 72
     4
 11
305.826833
 21
-854.988083
 31
0.0
210
0.0
220
0.0
230
1.0
  0
LINE
  8
1
  6
CONTINUOUS
 62
     7
  5
735
 10
334.137833
 20
-752.974083
 30
0.0
 11
366.116583
 21
-752.974083
 31
0.0
  0
LINE
  8
1
  6
CONTINUOUS
 62
     7
  5
736
 10
346.637833
 20
-760.724083
 30
0.0
 11
366.116583
 21
-760.724083
 31
0.0
  0
LINE
  8
1
  6
CONTINUOUS
 62
     7
  5
737
 10
365.116583
 20
-752.974083
 30
0.0
 11
365.116583
 21
-747.974083
 31
0.0
  0
LINE
  8
1
  6
CONTINUOUS
 62
     7
  5
738
 10
365.116583
 20
-760.724083
 30
0.0
 11
365.116583
 21
-765.724083
 31
0.0
  0
INSERT
  8
1
  6
CONTINUOUS
 62
     1
  5
739
  2
LDR
 10
365.116583
 20
-752.974083
 30
0.0
 41
240.0
 42
240.0
 50
270.0
210
0.0
220
0.0
230
1.0
  0
INSERT
  8
1
  6
CONTINUOUS
 62
     1
  5
73A
  2
LDR
 10
365.116583
 20
-760.724083
 30
0.0
 41
240.0
 42
240.0
 50
90.0
210
0.0
220
0.0
230
1.0
  0
TEXT
  8
1
  6
CONTINUOUS
 62
     7
  5
73B
 10
339.365667
 20
-758.136167
 30
0.0
 40
2.5
  1
GEN. NOTE 2.4.1
  7
MONOTXT
 72
     4
 11
354.641167
 21
-756.886167
 31
0.0
210
0.0
220
0.0
230
1.0
  0
TEXT
  8
1
  6
CONTINUOUS
 62
     7
  5
73C
 10
315.824917
 20
-849.39875
 30
0.0
 40
2.5
  1
"e"   3" MINIMUM
  7
MONOTXT
 11
315.824917
 21
-846.89875
 31
0.0
210
0.0
220
0.0
230
1.0
 73
     3
  0
TEXT
  8
1
  6
CONTINUOUS
 62
     7
  5
73D
 10
315.824917
 20
-853.89875
 30
0.0
 40
2.5
  1
"f"   SEE GENERAL NOTE 2.3.4
  7
MONOTXT
 11
315.824917
 21
-851.39875
 31
0.0
210
0.0
220
0.0
230
1.0
 73
     3
  0
TEXT
  8
1
  6
CONTINUOUS
 62
     7
  5
73E
 10
323.749167
 20
-850.075333
 30
0.0
 40
4.0
  1
=
  7
MONOTXT
 72
     4
 11
324.646833
 21
-848.075333
 31
0.0
210
0.0
220
0.0
230
1.0
  0
TEXT
  8
1
  6
CONTINUOUS
 62
     7
  5
73F
 10
323.014
 20
-854.781917
 30
0.0
 40
4.0
  1
=
  7
MONOTXT
 72
     4
 11
323.911667
 21
-852.781917
 31
0.0
210
0.0
220
0.0
230
1.0
  0
TEXT
  8
1
  6
CONTINUOUS
 62
     7
  5
740
 10
-0.045667
 20
-861.148583
 30
0.0
 40
4.0
  1
=
  7
MONOTXT
 72
     4
 11
0.852
 21
-859.148583
 31
0.0
210
0.0
220
0.0
230
1.0
  0
POLYLINE
  8
1
  6
CONTINUOUS
 62
     7
  5
741
 66
     1
 10
0.0
 20
0.0
 30
0.0
  0
VERTEX
  8
1
  6
CONTINUOUS
 62
     7
  5
742
 10
306.293417
 20
-658.488
 30
0.0
  0
VERTEX
  8
1
  6
CONTINUOUS
 62
     7
  5
743
 10
304.293417
 20
-661.952083
 30
0.0
  0
VERTEX
  8
1
  6
CONTINUOUS
 62
     7
  5
744
 10
308.293417
 20
-661.952083
 30
0.0
  0
VERTEX
  8
1
  6
CONTINUOUS
 62
     7
  5
745
 10
306.293417
 20
-658.488
 30
0.0
  0
SEQEND
  8
1
  6
CONTINUOUS
 62
     7
  5
746
  0
TEXT
  8
1
  6
CONTINUOUS
 62
     7
  5
747
 10
305.76225
 20
-661.485667
 30
0.0
 40
1.5
  1
2
  7
MONOTXT
 72
     4
 11
306.264167
 21
-660.735667
 31
0.0
210
0.0
220
0.0
230
1.0
  0
TEXT
  8
1
  6
CONTINUOUS
 62
     7
  5
748
 10
310.833083
 20
-661.163083
 30
0.0
 40
2.5
  1
ADDITION OF EXTRUDED RIB
  7
MONOTXT
 72
     4
 11
337.653917
 21
-659.913083
 31
0.0
210
0.0
220
0.0
230
1.0
  0
TEXT
  8
1
  6
CONTINUOUS
 62
     7
  5
749
 10
62.891417
 20
-495.407417
 30
0.0
 40
3.024
  1
30" ALL SIDES
  7
MONOTXT
 72
     4
 11
79.713917
 21
-493.895417
 31
0.0
210
0.0
220
0.0
230
1.0
  0
TEXT
  8
1
  6
CONTINUOUS
 62
     7
  5
74A
 10
62.962833
 20
-500.431417
 30
0.0
 40
3.024
  1
36" ALL SIDES
  7
MONOTXT
 72
     4
 11
79.713833
 21
-498.919417
 31
0.0
210
0.0
220
0.0
230
1.0
  0
TEXT
  8
1
  6
CONTINUOUS
 62
     7
  5
74B
 10
201.9025
 20
-502.208
 30
0.0
 40
3.024
  1
36" DIA.
  7
MONOTXT
 72
     4
 11
210.8435
 21
-500.696
 31
0.0
210
0.0
220
0.0
230
1.0
  0
TEXT
  8
1
  6
CONTINUOUS
 62
     7
  5
74C
 10
318.555
 20
-483.134417
 30
0.0
 40
3.024
  1
6" x 6"
  7
MONOTXT
 72
     4
 11
326.996
 21
-481.622417
 31
0.0
210
0.0
220
0.0
230
1.0
  0
TEXT
  8
1
  6
CONTINUOUS
 62
     7
  5
74D
 10
316.69775
 20
-488.158417
 30
0.0
 40
3.024
  1
18" x 18"
  7
MONOTXT
 72
     4
 11
326.996
 21
-486.646417
 31
0.0
210
0.0
220
0.0
230
1.0
  0
TEXT
  8
1
  6
CONTINUOUS
 62
     7
  5
74E
 10
315.269083
 20
-493.182417
 30
0.0
 40
3.024
  1
24" x 24"
  7
MONOTXT
 72
     4
 11
326.996
 21
-491.670417
 31
0.0
210
0.0
220
0.0
230
1.0
  0
TEXT
  8
1
  6
CONTINUOUS
 62
     7
  5
74F
 10
315.411917
 20
-498.206417
 30
0.0
 40
3.024
  1
30" x 30"
  7
MONOTXT
 72
     4
 11
326.995917
 21
-496.694417
 31
0.0
210
0.0
220
0.0
230
1.0
  0
TEXT
  8
1
  6
CONTINUOUS
 62
     7
  5
750
 10
315.554833
 20
-503.230417
 30
0.0
 40
3.024
  1
36" x 36"
  7
MONOTXT
 72
     4
 11
326.996
 21
-501.718417
 31
0.0
210
0.0
220
0.0
230
1.0
  0
TEXT
  8
1
  6
CONTINUOUS
 62
     7
  5
751
 10
415.350583
 20
-481.94225
 30
0.0
 40
3.024
  1
36" x 48"
  7
MONOTXT
 72
     4
 11
426.934583
 21
-480.43025
 31
0.0
210
0.0
220
0.0
230
1.0
  0
TEXT
  8
1
  6
CONTINUOUS
 62
     7
  5
752
 10
70.525583
 20
-703.461417
 30
0.0
 40
3.024
  1
42" ALL SIDES
  7
MONOTXT
 72
     4
 11
87.419417
 21
-701.949417
 31
0.0
210
0.0
220
0.0
230
1.0
  0
TEXT
  8
1
  6
CONTINUOUS
 62
     7
  5
753
 10
70.525583
 20
-708.485417
 30
0.0
 40
3.024
  1
48" ALL SIDES
  7
MONOTXT
 72
     4
 11
87.419417
 21
-706.973417
 31
0.0
210
0.0
220
0.0
230
1.0
  0
TEXT
  8
1
  6
CONTINUOUS
 62
     7
  5
754
 10
70.668417
 20
-713.509417
 30
0.0
 40
3.024
  1
60" ALL SIDES
  7
MONOTXT
 72
     4
 11
87.419417
 21
-711.997417
 31
0.0
210
0.0
220
0.0
230
1.0
  0
TEXT
  8
1
  6
CONTINUOUS
 62
     7
  5
755
 10
321.885
 20
-703.5475
 30
0.0
 40
3.024
  1
42" x 42"
  7
MONOTXT
 72
     4
 11
333.611917
 21
-702.0355
 31
0.0
210
0.0
220
0.0
230
1.0
  0
TEXT
  8
1
  6
CONTINUOUS
 62
     7
  5
756
 10
321.885
 20
-708.5715
 30
0.0
 40
3.024
  1
48" x 48"
  7
MONOTXT
 72
     4
 11
333.611917
 21
-707.0595
 31
0.0
210
0.0
220
0.0
230
1.0
  0
LINE
  8
1
  6
CONTINUOUS
 62
     7
  5
757
 10
488.828583
 20
-528.849833
 30
0.0
 11
483.52025
 21
-528.849833
 31
0.0
  0
TEXT
  8
1
  6
CONTINUOUS
 62
     7
  5
758
 10
445.0895
 20
-777.369417
 30
0.0
 40
1.5
  1
4
  7
MONOTXT
210
0.0
220
0.0
230
1.0
  0
POLYLINE
  8
1
  6
CONTINUOUS
 62
     7
  5
759
 66
     1
 10
0.0
 20
0.0
 30
0.0
  0
VERTEX
  8
1
  6
CONTINUOUS
 62
     7
  5
75A
 10
445.633583
 20
-774.328667
 30
0.0
  0
VERTEX
  8
1
  6
CONTINUOUS
 62
     7
  5
75B
 10
443.633583
 20
-777.79275
 30
0.0
  0
VERTEX
  8
1
  6
CONTINUOUS
 62
     7
  5
75C
 10
447.633583
 20
-777.79275
 30
0.0
  0
VERTEX
  8
1
  6
CONTINUOUS
 62
     7
  5
75D
 10
445.633583
 20
-774.328667
 30
0.0
  0
SEQEND
  8
1
  6
CONTINUOUS
 62
     7
  5
75E
  0
TEXT
  8
1
  6
CONTINUOUS
 62
     7
  5
75F
 10
449.803833
 20
-776.908917
 30
0.0
 40
2.0
  1
ADDED TP3-1 REFERENCE
  7
MONOTXT
 72
     4
 11
469.0085
 21
-775.908917
 31
0.0
210
0.0
220
0.0
230
1.0
  0
TEXT
  8
1
  6
CONTINUOUS
 62
     7
  5
760
 10
447.23375
 20
-848.41975
 30
0.0
 40
1.5
  1
4
  7
MONOTXT
210
0.0
220
0.0
230
1.0
  0
POLYLINE
  8
1
  6
CONTINUOUS
 62
     7
  5
761
 66
     1
 10
0.0
 20
0.0
 30
0.0
  0
VERTEX
  8
1
  6
CONTINUOUS
 62
     7
  5
762
 10
447.777833
 20
-845.379
 30
0.0
  0
VERTEX
  8
1
  6
CONTINUOUS
 62
     7
  5
763
 10
445.777833
 20
-848.843083
 30
0.0
  0
VERTEX
  8
1
  6
CONTINUOUS
 62
     7
  5
764
 10
449.777833
 20
-848.843083
 30
0.0
  0
VERTEX
  8
1
  6
CONTINUOUS
 62
     7
  5
765
 10
447.777833
 20
-845.379
 30
0.0
  0
SEQEND
  8
1
  6
CONTINUOUS
 62
     7
  5
766
  0
TEXT
  8
1
  6
CONTINUOUS
 62
     7
  5
767
 10
397.218333
 20
-654.25375
 30
0.0
 40
1.5
  1
4
  7
MONOTXT
210
0.0
220
0.0
230
1.0
  0
POLYLINE
  8
1
  6
CONTINUOUS
 62
     7
  5
768
 66
     1
 10
0.0
 20
0.0
 30
0.0
  0
VERTEX
  8
1
  6
CONTINUOUS
 62
     7
  5
769
 10
397.762417
 20
-651.213
 30
0.0
  0
VERTEX
  8
1
  6
CONTINUOUS
 62
     7
  5
76A
 10
395.762417
 20
-654.677083
 30
0.0
  0
VERTEX
  8
1
  6
CONTINUOUS
 62
     7
  5
76B
 10
399.762417
 20
-654.677083
 30
0.0
  0
VERTEX
  8
1
  6
CONTINUOUS
 62
     7
  5
76C
 10
397.762417
 20
-651.213
 30
0.0
  0
SEQEND
  8
1
  6
CONTINUOUS
 62
     7
  5
76D
  0
TEXT
  8
1
  6
CONTINUOUS
 62
     7
  5
76E
 10
383.808
 20
-622.011167
 30
0.0
 40
2.5
  1
1.   PUNCHING DETAILS
  7
MONOTXT
 11
383.808
 21
-619.511167
 31
0.0
210
0.0
220
0.0
230
1.0
 73
     3
  0
TEXT
  8
1
  6
CONTINUOUS
 62
     7
  5
76F
 10
383.808
 20
-626.511167
 30
0.0
 40
2.5
  1
   1.1      THE SPACING OF THE PUNCHED HOLES WILL BE IN ACCORDANCE WITH THE ABOVE TABLE AND
  7
MONOTXT
 11
383.808
 21
-624.011167
 31
0.0
210
0.0
220
0.0
230
1.0
 73
     3
  0
TEXT
  8
1
  6
CONTINUOUS
 62
     7
  5
770
 10
383.808
 20
-631.011167
 30
0.0
 40
2.5
  1
        ACCOMPANYING DETAILED DRAWINGS.
  7
MONOTXT
 11
383.808
 21
-628.511167
 31
0.0
210
0.0
220
0.0
230
1.0
 73
     3
  0
TEXT
  8
1
  6
CONTINUOUS
 62
     7
  5
771
 10
383.808
 20
-635.511167
 30
0.0
 40
2.5
  1
   1.2   ALL PUNCHED HOLES WILL BE  3/8 " DIAMETER, UNLESS OTHERWISE SPECIFIED.
  7
MONOTXT
 11
383.808
 21
-633.011167
 31
0.0
210
0.0
220
0.0
230
1.0
 73
     3
  0
TEXT
  8
1
  6
CONTINUOUS
 62
     7
  5
772
 10
383.808
 20
-640.011167
 30
0.0
 40
2.5
  1
 
  7
MONOTXT
 11
383.808
 21
-637.511167
 31
0.0
210
0.0
220
0.0
230
1.0
 73
     3
  0
TEXT
  8
1
  6
CONTINUOUS
 62
     7
  5
773
 10
383.808
 20
-644.511167
 30
0.0
 40
2.5
  1
2.   MOUNTING DETAILS
  7
MONOTXT
 11
383.808
 21
-642.011167
 31
0.0
210
0.0
220
0.0
230
1.0
 73
     3
  0
TEXT
  8
1
  6
CONTINUOUS
 62
     7
  5
774
 10
383.808
 20
-649.011167
 30
0.0
 40
2.5
  1
   2.1     SIGN SHAPES SHOWN WILL BE MOUNTED IN ACCORDANCE WITH THE ACCOMPANYING DETAIL DRAWINGS
  7
MONOTXT
 11
383.808
 21
-646.511167
 31
0.0
210
0.0
220
0.0
230
1.0
 73
     3
  0
TEXT
  8
1
  6
CONTINUOUS
 62
     7
  5
775
 10
383.808
 20
-653.511167
 30
0.0
 40
2.5
  1
        AND TP3-1. THE ASSOCIATED BOLTS, NUTS, WASHERS AND SHIMS SHALL BE INSTALLED IN ACCORDANCE
  7
MONOTXT
 11
383.808
 21
-651.011167
 31
0.0
210
0.0
220
0.0
230
1.0
 73
     3
  0
TEXT
  8
1
  6
CONTINUOUS
 62
     7
  5
776
 10
383.808
 20
-658.011167
 30
0.0
 40
2.5
  1
        WITH STANDARD DETAIL TP-A: SIGN ASSEMBLY BOLTING DETAILS.
  7
MONOTXT
 11
383.808
 21
-655.511167
 31
0.0
210
0.0
220
0.0
230
1.0
 73
     3
  0
TEXT
  8
1
  6
CONTINUOUS
 62
     7
  5
777
 10
383.808
 20
-662.511167
 30
0.0
 40
2.5
  1
   2.1.1   THE MOUNTINGS SHOWN FOR THE DIAMOND SHAPED SIGNS ARE FOR SIGN ASSEMBLIES CONSISTING OF
  7
MONOTXT
 11
383.808
 21
-660.011167
 31
0.0
210
0.0
220
0.0
230
1.0
 73
     3
  0
TEXT
  8
1
  6
CONTINUOUS
 62
     7
  5
778
 10
383.808
 20
-667.011167
 30
0.0
 40
2.5
  1
        ONLY ONE SIGN.
  7
MONOTXT
 11
383.808
 21
-664.511167
 31
0.0
210
0.0
220
0.0
230
1.0
 73
     3
  0
TEXT
  8
1
  6
CONTINUOUS
 62
     7
  5
779
 10
383.808
 20
-671.511167
 30
0.0
 40
2.5
  1
   2.1.2 THE MOUNTINGS SHOWN FOR THE CIRCULAR SHAPED SIGNS ARE FOR SIGN ASSEMBLIES CONSISTING OF
  7
MONOTXT
 11
383.808
 21
-669.011167
 31
0.0
210
0.0
220
0.0
230
1.0
 73
     3
  0
TEXT
  8
1
  6
CONTINUOUS
 62
     7
  5
77A
 10
383.808
 20
-676.011167
 30
0.0
 40
2.5
  1
        ONLY ONE SIGN.
  7
MONOTXT
 11
383.808
 21
-673.511167
 31
0.0
210
0.0
220
0.0
230
1.0
 73
     3
  0
TEXT
  8
1
  6
CONTINUOUS
 62
     7
  5
77B
 10
383.808
 20
-680.511167
 30
0.0
 40
2.5
  1
   2.1.3 THE MOUNTING SHOWN FOR SQUARE SHAPED SIGNS ARE FOR SIGN ASSEMBLIES CONSISTING OF ONLY
  7
MONOTXT
 11
383.808
 21
-678.011167
 31
0.0
210
0.0
220
0.0
230
1.0
 73
     3
  0
TEXT
  8
1
  6
CONTINUOUS
 62
     7
  5
77C
 10
383.808
 20
-685.011167
 30
0.0
 40
2.5
  1
        ONE SIGN. OTHER ASSEMBLIES USING SQUARE SHAPED SIGNS ARE TO BE FOUND ON STANDARD
  7
MONOTXT
 11
383.808
 21
-682.511167
 31
0.0
210
0.0
220
0.0
230
1.0
 73
     3
  0
TEXT
  8
1
  6
CONTINUOUS
 62
     7
  5
77D
 10
383.808
 20
-689.511167
 30
0.0
 40
2.5
  1
        SHEET(S): TP4-1A, TP4-1B, TP4-1C, TP4-2.
  7
MONOTXT
 11
383.808
 21
-687.011167
 31
0.0
210
0.0
220
0.0
230
1.0
 73
     3
  0
TEXT
  8
1
  6
CONTINUOUS
 62
     7
  5
77E
 10
383.808
 20
-694.011167
 30
0.0
 40
2.5
  1
   2.2  ALL BOLTS, NUTS AND WASHERS USED TO MOUNT THE SIGN AND SIGN ASSEMBLY WILL BE  5/16 "
  7
MONOTXT
 11
383.808
 21
-691.511167
 31
0.0
210
0.0
220
0.0
230
1.0
 73
     3
  0
TEXT
  8
1
  6
CONTINUOUS
 62
     7
  5
77F
 10
383.808
 20
-698.511167
 30
0.0
 40
2.5
  1
        DIAMETER.
  7
MONOTXT
 11
383.808
 21
-696.011167
 31
0.0
210
0.0
220
0.0
230
1.0
 73
     3
  0
TEXT
  8
1
  6
CONTINUOUS
 62
     7
  5
780
 10
383.808
 20
-703.011167
 30
0.0
 40
2.5
  1
   2.3  BRACING ON SIGN SHAPES SHOWN WILL CONSIST OF EXTRUDED RIB AS DETAILED ON TP-A.
  7
MONOTXT
 11
383.808
 21
-700.511167
 31
0.0
210
0.0
220
0.0
230
1.0
 73
     3
  0
TEXT
  8
1
  6
CONTINUOUS
 62
     7
  5
781
 10
383.808
 20
-707.511167
 30
0.0
 40
2.5
  1
   2.3.1  ON ALL BRACED SIGNS THE WEB OF THE BRACING SHALL BE IN CONTACT WITH THE BACK OF THE
  7
MONOTXT
 11
383.808
 21
-705.011167
 31
0.0
210
0.0
220
0.0
230
1.0
 73
     3
  0
TEXT
  8
1
  6
CONTINUOUS
 62
     7
  5
782
 10
383.808
 20
-712.011167
 30
0.0
 40
2.5
  1
        SIGN.
  7
MONOTXT
 11
383.808
 21
-709.511167
 31
0.0
210
0.0
220
0.0
230
1.0
 73
     3
  0
TEXT
  8
1
  6
CONTINUOUS
 62
     7
  5
783
 10
383.808
 20
-716.511167
 30
0.0
 40
2.5
  1
   2.3.2 ON ALL BRACED SIGNS THE FLANGE OF THE BRACING SHALL BE IN CONTACT WITH THE FLANGE
  7
MONOTXT
 11
383.808
 21
-714.011167
 31
0.0
210
0.0
220
0.0
230
1.0
 73
     3
  0
TEXT
  8
1
  6
CONTINUOUS
 62
     7
  5
784
 10
383.808
 20
-721.011167
 30
0.0
 40
2.5
  1
        OF THE POST SUPPORT.
  7
MONOTXT
 11
383.808
 21
-718.511167
 31
0.0
210
0.0
220
0.0
230
1.0
 73
     3
  0
TEXT
  8
1
  6
CONTINUOUS
 62
     7
  5
785
 10
383.808
 20
-725.511167
 30
0.0
 40
2.5
  1
   2.3.3 ON ALL BRACED SIGNS, THE END OF THE OVERHANGING LEHGTH OF THE BRACE SHALL BE AT LEAST
  7
MONOTXT
 11
383.808
 21
-723.011167
 31
0.0
210
0.0
220
0.0
230
1.0
 73
     3
  0
TEXT
  8
1
  6
CONTINUOUS
 62
     7
  5
786
 10
383.808
 20
-730.011167
 30
0.0
 40
2.5
  1
        1-3/4" FROM THE CENTERLINE OF THE POST SUPPORT, BUT NO CLOSER THAN 1" TO THE EDGE OF
  7
MONOTXT
 11
383.808
 21
-727.511167
 31
0.0
210
0.0
220
0.0
230
1.0
 73
     3
  0
TEXT
  8
1
  6
CONTINUOUS
 62
     7
  5
787
 10
383.808
 20
-734.511167
 30
0.0
 40
2.5
  1
        THE SIGN. THE TWO OVERHANGING SECTIONS OF EACH BRACE SHALL BE EQUAL IN LENGTH.
  7
MONOTXT
 11
383.808
 21
-732.011167
 31
0.0
210
0.0
220
0.0
230
1.0
 73
     3
  0
TEXT
  8
1
  6
CONTINUOUS
 62
     7
  5
788
 10
383.808
 20
-739.011167
 30
0.0
 40
2.5
  1
   2.3.4 ON ALL BRACED SIGNS, THE CENTERLINE OF THE POST SHALL BE WITHIN 3" (ON EITHER SIDE) OF
  7
MONOTXT
 11
383.808
 21
-736.511167
 31
0.0
210
0.0
220
0.0
230
1.0
 73
     3
  0
TEXT
  8
1
  6
CONTINUOUS
 62
     7
  5
789
 10
383.808
 20
-743.511167
 30
0.0
 40
2.5
  1
        THE CENTERLINE OF THE SIGN HOLE.
  7
MONOTXT
 11
383.808
 21
-741.011167
 31
0.0
210
0.0
220
0.0
230
1.0
 73
     3
  0
TEXT
  8
1
  6
CONTINUOUS
 62
     7
  5
78A
 10
383.808
 20
-748.011167
 30
0.0
 40
2.5
  1
   2.4  POST SUPPORT
  7
MONOTXT
 11
383.808
 21
-745.511167
 31
0.0
210
0.0
220
0.0
230
1.0
 73
     3
  0
TEXT
  8
1
  6
CONTINUOUS
 62
     7
  5
78B
 10
383.808
 20
-752.511167
 30
0.0
 40
2.5
  1
   2.4.1  THE TOP OF THE POST SUPPORT SHALL NOT EXTEND BEYOND THE EDGE OF THE SIGN.
  7
MONOTXT
 11
383.808
 21
-750.011167
 31
0.0
210
0.0
220
0.0
230
1.0
 73
     3
  0
TEXT
  8
1
  6
CONTINUOUS
 62
     7
  5
78C
 10
383.808
 20
-757.011167
 30
0.0
 40
2.5
  1
   2.4.2 THE TOP OF THE POST SHALL EXTEND 2" OR LESS FROM THE EDGE OF THE SIGN, BUT NOT BEYOND
  7
MONOTXT
 11
383.808
 21
-754.511167
 31
0.0
210
0.0
220
0.0
230
1.0
 73
     3
  0
TEXT
  8
1
  6
CONTINUOUS
 62
     7
  5
78D
 10
383.808
 20
-761.511167
 30
0.0
 40
2.5
  1
        ANY EDGE OF THE SIGN.
  7
MONOTXT
 11
383.808
 21
-759.011167
 31
0.0
210
0.0
220
0.0
230
1.0
 73
     3
  0
TEXT
  8
1
  6
CONTINUOUS
 62
     7
  5
78E
 10
383.808
 20
-766.011167
 30
0.0
 40
2.5
  1
 
  7
MONOTXT
 11
383.808
 21
-763.511167
 31
0.0
210
0.0
220
0.0
230
1.0
 73
     3
  0
TEXT
  8
1
  6
CONTINUOUS
 62
     7
  5
78F
 10
383.808
 20
-770.511167
 30
0.0
 40
2.5
  1
3.   CORNER RADIUS FOR SIGN BLANK MATERIAL SHALL BE 1.5".   
  7
MONOTXT
 11
383.808
 21
-768.011167
 31
0.0
210
0.0
220
0.0
230
1.0
 73
     3
  0
ENDSEC
  0
EOF
