  0
SECTION
  2
HEADER
  9
$ACADVER
  1
AC1014
  9
$ACADMAINTVER
 70
     0
  9
$DWGCODEPAGE
  3
ANSI_1252
  9
$INSBASE
 10
0.0
 20
0.0
 30
0.0
  9
$EXTMIN
 10
20.802417
 20
-8.8275
 30
0.0
  9
$EXTMAX
 10
685.802417
 20
439.005833
 30
0.0
  9
$LIMMIN
 10
0.0
 20
0.0
  9
$LIMMAX
 10
12.0
 20
9.0
  9
$ORTHOMODE
 70
     0
  9
$REGENMODE
 70
     1
  9
$FILLMODE
 70
     1
  9
$QTEXTMODE
 70
     0
  9
$MIRRTEXT
 70
     1
  9
$DRAGMODE
 70
     2
  9
$LTSCALE
 40
1.0
  9
$OSMODE
 70
     0
  9
$ATTMODE
 70
     1
  9
$TEXTSIZE
 40
0.2
  9
$TRACEWID
 40
0.05
  9
$TEXTSTYLE
  7
STANDARD
  9
$CLAYER
  8
0
  9
$CELTYPE
  6
CONTINUOUS
  9
$CECOLOR
 62
   256
  9
$CELTSCALE
 40
1.0
  9
$DELOBJ
 70
     1
  9
$DISPSILH
 70
     0
  9
$DIMSCALE
 40
1.0
  9
$DIMASZ
 40
0.18
  9
$DIMEXO
 40
0.0625
  9
$DIMDLI
 40
0.38
  9
$DIMRND
 40
0.0
  9
$DIMDLE
 40
0.0
  9
$DIMEXE
 40
0.18
  9
$DIMTP
 40
0.0
  9
$DIMTM
 40
0.0
  9
$DIMTXT
 40
0.18
  9
$DIMCEN
 40
0.09
  9
$DIMTSZ
 40
0.0
  9
$DIMTOL
 70
     0
  9
$DIMLIM
 70
     0
  9
$DIMTIH
 70
     1
  9
$DIMTOH
 70
     1
  9
$DIMSE1
 70
     0
  9
$DIMSE2
 70
     0
  9
$DIMTAD
 70
     0
  9
$DIMZIN
 70
     0
  9
$DIMBLK
  1

  9
$DIMASO
 70
     1
  9
$DIMSHO
 70
     1
  9
$DIMPOST
  1

  9
$DIMAPOST
  1

  9
$DIMALT
 70
     0
  9
$DIMALTD
 70
     2
  9
$DIMALTF
 40
25.4
  9
$DIMLFAC
 40
1.0
  9
$DIMTOFL
 70
     0
  9
$DIMTVP
 40
0.0
  9
$DIMTIX
 70
     0
  9
$DIMSOXD
 70
     0
  9
$DIMSAH
 70
     0
  9
$DIMBLK1
  1

  9
$DIMBLK2
  1

  9
$DIMSTYLE
  2
STANDARD
  9
$DIMCLRD
 70
     0
  9
$DIMCLRE
 70
     0
  9
$DIMCLRT
 70
     0
  9
$DIMTFAC
 40
1.0
  9
$DIMGAP
 40
0.09
  9
$DIMJUST
 70
     0
  9
$DIMSD1
 70
     0
  9
$DIMSD2
 70
     0
  9
$DIMTOLJ
 70
     1
  9
$DIMTZIN
 70
     0
  9
$DIMALTZ
 70
     0
  9
$DIMALTTZ
 70
     0
  9
$DIMFIT
 70
     3
  9
$DIMUPT
 70
     0
  9
$DIMUNIT
 70
     2
  9
$DIMDEC
 70
     4
  9
$DIMTDEC
 70
     4
  9
$DIMALTU
 70
     2
  9
$DIMALTTD
 70
     2
  9
$DIMTXSTY
  7
STANDARD
  9
$DIMAUNIT
 70
     0
  9
$LUNITS
 70
     2
  9
$LUPREC
 70
     4
  9
$SKETCHINC
 40
0.1
  9
$FILLETRAD
 40
0.0
  9
$AUNITS
 70
     0
  9
$AUPREC
 70
     0
  9
$MENU
  1
acad
  9
$ELEVATION
 40
0.0
  9
$PELEVATION
 40
0.0
  9
$THICKNESS
 40
0.0
  9
$LIMCHECK
 70
     0
  9
$BLIPMODE
 70
     1
  9
$CHAMFERA
 40
0.0
  9
$CHAMFERB
 40
0.0
  9
$CHAMFERC
 40
0.0
  9
$CHAMFERD
 40
0.0
  9
$SKPOLY
 70
     0
  9
$TDCREATE
 40
2451803.452291667
  9
$TDUPDATE
 40
2451803.452291667
  9
$TDINDWG
 40
0.0000000000
  9
$TDUSRTIMER
 40
0.0000000000
  9
$USRTIMER
 70
     1
  9
$ANGBASE
 50
0.0
  9
$ANGDIR
 70
     0
  9
$PDMODE
 70
     0
  9
$PDSIZE
 40
0.0
  9
$PLINEWID
 40
0.0
  9
$COORDS
 70
     0
  9
$SPLFRAME
 70
     0
  9
$SPLINETYPE
 70
     6
  9
$SPLINESEGS
 70
    10
  9
$ATTDIA
 70
     0
  9
$ATTREQ
 70
     1
  9
$HANDLING
 70
     1
  9
$HANDSEED
  5
4A6
  9
$SURFTAB1
 70
     6
  9
$SURFTAB2
 70
     6
  9
$SURFTYPE
 70
     6
  9
$SURFU
 70
     6
  9
$SURFV
 70
     6
  9
$UCSNAME
  2

  9
$UCSORG
 10
0.0
 20
0.0
 30
0.0
  9
$UCSXDIR
 10
1.0
 20
0.0
 30
0.0
  9
$UCSYDIR
 10
0.0
 20
1.0
 30
0.0
  9
$PUCSNAME
  2

  9
$PUCSORG
 10
0.0
 20
0.0
 30
0.0
  9
$PUCSXDIR
 10
1.0
 20
0.0
 30
0.0
  9
$PUCSYDIR
 10
0.0
 20
1.0
 30
0.0
  9
$USERI1
 70
     0
  9
$USERI2
 70
     0
  9
$USERI3
 70
     0
  9
$USERI4
 70
     0
  9
$USERI5
 70
     0
  9
$USERR1
 40
0.0
  9
$USERR2
 40
0.0
  9
$USERR3
 40
0.0
  9
$USERR4
 40
0.0
  9
$USERR5
 40
0.0
  9
$WORLDVIEW
 70
     1
  9
$SHADEDGE
 70
     3
  9
$SHADEDIF
 70
    70
  9
$TILEMODE
 70
     1
  9
$MAXACTVP
 70
    16
  9
$PINSBASE
 10
0.0
 20
0.0
 30
0.0
  9
$PLIMCHECK
 70
     0
  9
$PEXTMIN
 10
-1.000000E+20
 20
-1.000000E+20
 30
-1.000000E+20
  9
$PEXTMAX
 10
-1.000000E+20
 20
-1.000000E+20
 30
-1.000000E+20
  9
$PLIMMIN
 10
0.0
 20
0.0
  9
$PLIMMAX
 10
12.0
 20
9.0
  9
$UNITMODE
 70
     0
  9
$VISRETAIN
 70
     0
  9
$PLINEGEN
 70
     1
  9
$PSLTSCALE
 70
     0
  9
$TREEDEPTH
 70
  3020
  9
$PICKSTYLE
 70
     1
  9
$CMLSTYLE
  2
STANDARD
  9
$CMLJUST
 70
     0
  9
$CMLSCALE
 40
1.0
  9
$PROXYGRAPHICS
 70
     0
  9
$MEASUREMENT
 70
     0
  0
ENDSEC
  0
SECTION
  2
CLASSES
  0
CLASS
  1
LWPOLYLINE
  2
AcDbPolyline
  3
"AutoCAD"
 90
        0
280
     0
281
     1
  0
CLASS
  1
IMAGE
  2
AcDbRasterImage
  3
ISM
 90
      127
280
     0
281
     1
  0
CLASS
  1
OLE2FRAME
  2
AcDbOle2Frame
  3
""
 90
        0
280
     0
281
     1
  0
CLASS
  1
HATCH
  2
AcDbHatch
  3
"ACAD_SEDONA"
 90
        0
280
     0
281
     1
  0
CLASS
  1
DICTIONARYVAR
  2
AcDbDictionaryVar
  3
"AutoCAD"
 90
        0
280
     0
281
     0
  0
CLASS
  1
RASTERVARIABLES
  2
AcDbRasterVariables
  3
ISM
 90
        0
280
     0
281
     0
  0
CLASS
  1
IMAGEDEF
  2
AcDbRasterImageDef
  3
ISM
 90
        0
280
     0
281
     0
  0
CLASS
  1
IMAGEDEF_REACTOR
  2
AcDbRasterImageDefReactor
  3
ISM
 90
        1
280
     0
281
     0
  0
CLASS
  1
IDBUFFER
  2
AcDbIdBuffer
  3
"Acad"
 90
        0
280
     0
281
     0
  0
CLASS
  1
SPATIAL_FILTER
  2
AcDbSpatialFilter
  3
"Acad"
 90
        0
280
     0
281
     0
  0
CLASS
  1
XRECORD
  2
AcDbXrecord
  3
"<Built In>"
 90
        0
280
     0
281
     0
  0
CLASS
  1
SORTENTSTABLE
  2
AcDbSortentsTable
  3
"AutoCAD"
 90
        0
280
     0
281
     0
  0
CLASS
  1
LAYER_INDEX
  2
AcDbLayerIndex
  3
"Acad"
 90
        0
280
     0
281
     0
  0
CLASS
  1
SPATIAL_INDEX
  2
AcDbSpatialIndex
  3
"Acad"
 90
        0
280
     0
281
     0
  0
CLASS
  1
OBJECT_PTR
  2
CAseDLPNTableRecord
  3
"ASE-LPNTableRecord"
 90
        1
280
     0
281
     0
  0
ENDSEC
  0
SECTION
  2
TABLES
  0
TABLE
  2
VPORT
  5
7
100
AcDbSymbolTable
 70
     1
  0
VPORT
  5
4A5
100
AcDbSymbolTableRecord
100
AcDbViewportTableRecord
  2
*ACTIVE
 70
     0
 10
0.0
 20
0.0
 11
1.0
 21
1.0
 12
0.0
 22
0.0
 13
0.0
 23
0.0
 14
0.0
 24
0.0
 15
0.0
 25
0.0
 16
0.0
 26
0.0
 36
1.0
 17
308.779037
 27
217.630833
 37
0.0
 40
471.033333
 41
1.548658
 42
50.0
 43
0.0
 44
0.0
 50
0.0
 51
0.0
 71
     0
 72
   100
 73
     1
 74
     0
 75
     0
 76
     0
 77
     0
 78
     0
  0
ENDTAB
  0
TABLE
  2
LTYPE
  5
4
100
AcDbSymbolTable
 70
     9
  0
LTYPE
  5
11
100
AcDbSymbolTableRecord
100
AcDbLinetypeTableRecord
  2
BYBLOCK
 70
     0
  3

 72
    65
 73
     0
 40
0.0
  0
LTYPE
  5
12
100
AcDbSymbolTableRecord
100
AcDbLinetypeTableRecord
  2
BYLAYER
 70
     0
  3

 72
    65
 73
     0
 40
0.0
  0
LTYPE
  5
13
100
AcDbSymbolTableRecord
100
AcDbLinetypeTableRecord
  2
CONTINUOUS
 70
     0
  3
Solid line
 72
    65
 73
     0
 40
0.0
  0
LTYPE
  5
22
100
AcDbSymbolTableRecord
100
AcDbLinetypeTableRecord
  2
DOT
 70
    64
  3
. . . . . . . . . . . . . . . . . . . . . . . . . . . . . . . . .
 72
    65
 73
     2
 40
0.25
 49
0.0
 74
     0
 49
-0.25
 74
     0
  0
LTYPE
  5
23
100
AcDbSymbolTableRecord
100
AcDbLinetypeTableRecord
  2
HIDDEN
 70
    64
  3
__ __ __ __ __ __ __ __ __ __ __ __ __ __ __ __ __ __ __ __ __ 
 72
    65
 73
     2
 40
0.375
 49
0.25
 74
     0
 49
-0.125
 74
     0
  0
LTYPE
  5
24
100
AcDbSymbolTableRecord
100
AcDbLinetypeTableRecord
  2
DASHED
 70
    64
  3
__ __ __ __ __ __ __ __ __ __ __ __ __ __ __ __ __ __ __ __ __
 72
    65
 73
     2
 40
0.75
 49
0.5
 74
     0
 49
-0.25
 74
     0
  0
LTYPE
  5
25
100
AcDbSymbolTableRecord
100
AcDbLinetypeTableRecord
  2
DASHDOT
 70
    64
  3
__ . __ . __ . __ . __ . __ . __ . __ . __ . __ . __ . __ . _
 72
    65
 73
     4
 40
1.0
 49
0.5
 74
     0
 49
-0.25
 74
     0
 49
0.0
 74
     0
 49
-0.25
 74
     0
  0
LTYPE
  5
26
100
AcDbSymbolTableRecord
100
AcDbLinetypeTableRecord
  2
DIVIDE
 70
    64
  3
____ . . ____ . . ____ . . ____ . . ____ . . ____ . . ____ . .
 72
    65
 73
     6
 40
1.25
 49
0.5
 74
     0
 49
-0.25
 74
     0
 49
0.0
 74
     0
 49
-0.25
 74
     0
 49
0.0
 74
     0
 49
-0.25
 74
     0
  0
LTYPE
  5
27
100
AcDbSymbolTableRecord
100
AcDbLinetypeTableRecord
  2
CENTER
 70
    64
  3
____ _ ____ _ ____ _ ____ _ ____ _ ____ _ ____ _ ____ _ ____ _
 72
    65
 73
     4
 40
2.0
 49
1.25
 74
     0
 49
-0.25
 74
     0
 49
0.25
 74
     0
 49
-0.25
 74
     0
  0
ENDTAB
  0
TABLE
  2
LAYER
  5
2
100
AcDbSymbolTable
 70
     5
  0
LAYER
  5
14
102
{ACAD_XDICTIONARY
360
5F205F5F5F5F205F
102
}
100
AcDbSymbolTableRecord
100
AcDbLayerTableRecord
  2
0
 70
     0
 62
     7
  6
CONTINUOUS
  0
LAYER
  5
1E
102
{ACAD_XDICTIONARY
360
5F205F5F5F5F205F
102
}
100
AcDbSymbolTableRecord
100
AcDbLayerTableRecord
  2
CONSTRUCTION_CLASS
 70
    64
 62
     7
  6
CONTINUOUS
  0
LAYER
  5
1F
102
{ACAD_XDICTIONARY
360
5F205F5F5F5F205F
102
}
100
AcDbSymbolTableRecord
100
AcDbLayerTableRecord
  2
PATTERN_CLASS
 70
    64
 62
     7
  6
CONTINUOUS
  0
LAYER
  5
2A
102
{ACAD_XDICTIONARY
360
5F205F5F5F5F205F
102
}
100
AcDbSymbolTableRecord
100
AcDbLayerTableRecord
  2
61
 70
    64
 62
     7
  6
CONTINUOUS
  0
LAYER
  5
2D
102
{ACAD_XDICTIONARY
360
5F205F5F5F5F205F
102
}
100
AcDbSymbolTableRecord
100
AcDbLayerTableRecord
  2
1
 70
    64
 62
     7
  6
CONTINUOUS
  0
ENDTAB
  0
TABLE
  2
STYLE
  5
3
100
AcDbSymbolTable
 70
     4
  0
STYLE
  5
17
100
AcDbSymbolTableRecord
100
AcDbTextStyleTableRecord
  2
STANDARD
 70
     0
 40
0.0
 41
1.0
 50
0.0
 71
     0
 42
0.0
  3
txt
  4

  0
STYLE
  5
2B
100
AcDbSymbolTableRecord
100
AcDbTextStyleTableRecord
  2
MONOTXT
 70
     0
 40
0.2
 41
1.0
 50
0.0
 71
     0
 42
0.2
  3
MONOTXT
  4

  0
STYLE
  5
54
100
AcDbSymbolTableRecord
100
AcDbTextStyleTableRecord
  2
TXT
 70
     0
 40
0.2
 41
1.0
 50
0.0
 71
     0
 42
0.2
  3
TXT
  4

  0
STYLE
  5
478
100
AcDbSymbolTableRecord
100
AcDbTextStyleTableRecord
  2
ROMANT
 70
     0
 40
0.2
 41
1.0
 50
0.0
 71
     0
 42
0.2
  3
ROMANT
  4

  0
ENDTAB
  0
TABLE
  2
VIEW
  5
5
100
AcDbSymbolTable
 70
     0
  0
ENDTAB
  0
TABLE
  2
UCS
  5
6
100
AcDbSymbolTable
 70
     0
  0
ENDTAB
  0
TABLE
  2
APPID
  5
8
100
AcDbSymbolTable
 70
     1
  0
APPID
  5
16
100
AcDbSymbolTableRecord
100
AcDbRegAppTableRecord
  2
ACAD
 70
     0
  0
ENDTAB
  0
TABLE
  2
DIMSTYLE
  5
9
100
AcDbSymbolTable
 70
     1
  0
DIMSTYLE
105
18
100
AcDbSymbolTableRecord
100
AcDbDimStyleTableRecord
  2
STANDARD
 70
     0
  3

  4

  5

  6

  7

 40
1.0
 41
0.18
 42
0.0625
 43
0.38
 44
0.18
 45
0.0
 46
0.0
 47
0.0
 48
0.0
140
0.18
141
0.09
142
0.0
143
25.4
144
1.0
145
0.0
146
1.0
147
0.09
 71
     0
 72
     0
 73
     1
 74
     1
 75
     0
 76
     0
 77
     0
 78
     0
170
     0
171
     2
172
     0
173
     0
174
     0
175
     0
176
     0
177
     0
178
     0
270
     2
271
     4
272
     4
273
     2
274
     2
340
17
275
     0
280
     0
281
     0
282
     0
283
     1
284
     0
285
     0
286
     0
287
     0
288
     0
  0
ENDTAB
  0
TABLE
  2
BLOCK_RECORD
  5
1
100
AcDbSymbolTable
 70
     2
  0
BLOCK_RECORD
  5
A
100
AcDbSymbolTableRecord
100
AcDbBlockTableRecord
  2
*MODEL_SPACE
  0
BLOCK_RECORD
  5
B
100
AcDbSymbolTableRecord
100
AcDbBlockTableRecord
  2
*PAPER_SPACE
  0
BLOCK_RECORD
  5
194
102
{ACAD_XDICTIONARY
360
7694022400000020
102
}
100
AcDbSymbolTableRecord
100
AcDbBlockTableRecord
  2
LDR
  0
BLOCK_RECORD
  5
48B
102
{ACAD_XDICTIONARY
360
7694022400000020
102
}
100
AcDbSymbolTableRecord
100
AcDbBlockTableRecord
  2
PT
  0
ENDTAB
  0
ENDSEC
  0
SECTION
  2
BLOCKS
  0
BLOCK
  5
D
100
AcDbEntity
  8
0
100
AcDbBlockBegin
  2
*MODEL_SPACE
 70
     0
 10
0.0
 20
0.0
 30
0.0
  3
*MODEL_SPACE
  1

  0
ENDBLK
  5
E
100
AcDbEntity
  8
0
100
AcDbBlockEnd
  0
BLOCK
  5
F
100
AcDbEntity
 67
     1
  8
0
100
AcDbBlockBegin
  2
*PAPER_SPACE
 70
     0
 10
0.0
 20
0.0
 30
0.0
  3
*PAPER_SPACE
  1

  0
ENDBLK
  5
10
100
AcDbEntity
 67
     1
  8
0
100
AcDbBlockEnd
  0
BLOCK
  5
195
100
AcDbEntity
  8
1
  6
CONTINUOUS
 62
     1
100
AcDbBlockBegin
  2
LDR
 70
     0
 10
0.0
 20
0.0
 30
0.0
  3
LNR
  1

  0
ELLIPSE
  5
196
100
AcDbEntity
  8
1
  6
CONTINUOUS
 62
     1
100
AcDbEllipse
 10
-0.004547
 20
-0.001151
 30
0.0
 11
0.007440417051956
 21
0.0006506250108083
 31
0.0
210
0.0
220
0.0
230
1.0
 40
0.122415
 41
0.8963533496766982
 42
3.1415926535897931
  0
ELLIPSE
  5
197
100
AcDbEntity
  8
1
  6
CONTINUOUS
 62
     1
100
AcDbEllipse
 10
-0.004669
 20
0.000882
 30
0.0
 11
0.0073185421713632
 21
-0.000731875170693
 31
0.0
210
0.0
220
0.0
230
1.0
 40
0.07063
 41
3.1407147529760402
 42
5.4181099545465106
  0
ENDBLK
  5
198
100
AcDbEntity
  8
1
  6
CONTINUOUS
 62
     1
100
AcDbBlockEnd
  0
BLOCK
  5
48C
100
AcDbEntity
  8
1
  6
CONTINUOUS
 62
     1
100
AcDbBlockBegin
  2
PT
 70
     0
 10
0.0
 20
0.0
 30
0.0
  3
PT
  1

  0
POINT
  5
48D
100
AcDbEntity
  8
1
  6
CONTINUOUS
 62
     1
100
AcDbPoint
 10
0.0
 20
0.0
 30
0.0
  0
ENDBLK
  5
48E
100
AcDbEntity
  8
1
  6
CONTINUOUS
 62
     1
100
AcDbBlockEnd
  0
ENDSEC
  0
SECTION
  2
ENTITIES
  0
TEXT
  5
2C
100
AcDbEntity
  8
61
  6
CONTINUOUS
 62
     7
100
AcDbText
 10
654.313167
 20
384.969333
 30
0.0
 40
2.40132
  1
     
 41
1.001399
  7
MONOTXT
210
0.0
220
0.0
230
1.0
100
AcDbText
  0
TEXT
  5
2E
100
AcDbEntity
  8
1
  6
CONTINUOUS
 62
     1
100
AcDbText
 10
510.970833
 20
35.034333
 30
0.0
 40
2.00004
  1
04-01-71
  7
MONOTXT
 72
     1
 11
517.443333
 21
37.034333
 31
0.0
210
0.0
220
0.0
230
1.0
100
AcDbText
 73
     3
  0
TEXT
  5
2F
100
AcDbEntity
  8
1
  6
CONTINUOUS
 62
     1
100
AcDbText
 10
510.592833
 20
30.285667
 30
0.0
 40
2.00004
  1
04-19-72
  7
MONOTXT
 72
     1
 11
517.451167
 21
32.285667
 31
0.0
210
0.0
220
0.0
230
1.0
100
AcDbText
 73
     3
  0
TEXT
  5
30
100
AcDbEntity
  8
1
  6
CONTINUOUS
 62
     1
100
AcDbText
 10
510.56725
 20
25.511333
 30
0.0
 40
2.00004
  1
09-19-74
  7
MONOTXT
 72
     1
 11
517.378417
 21
27.511333
 31
0.0
210
0.0
220
0.0
230
1.0
100
AcDbText
 73
     3
  0
TEXT
  5
31
100
AcDbEntity
  8
1
  6
CONTINUOUS
 62
     1
100
AcDbText
 10
511.32675
 20
20.5955
 30
0.0
 40
2.00004
  1
11-08-76
  7
MONOTXT
 72
     1
 11
517.712667
 21
22.5955
 31
0.0
210
0.0
220
0.0
230
1.0
100
AcDbText
 73
     3
  0
TEXT
  5
32
100
AcDbEntity
  8
1
  6
CONTINUOUS
 62
     1
100
AcDbText
 10
511.3275
 20
15.9955
 30
0.0
 40
2.00004
  1
11-17-78
  7
MONOTXT
 72
     1
 11
517.351167
 21
17.9955
 31
0.0
210
0.0
220
0.0
230
1.0
100
AcDbText
 73
     3
  0
TEXT
  5
33
100
AcDbEntity
  8
1
  6
CONTINUOUS
 62
     1
100
AcDbText
 10
510.453833
 20
10.8925
 30
0.0
 40
2.0
  1
03-02-93
  7
MONOTXT
 72
     1
 11
517.67425
 21
12.8925
 31
0.0
210
0.0
220
0.0
230
1.0
100
AcDbText
 73
     3
  0
TEXT
  5
34
100
AcDbEntity
  8
1
  6
CONTINUOUS
 62
     1
100
AcDbText
 10
510.198083
 20
6.698167
 30
0.0
 40
2.00004
  1
09-10-93
  7
MONOTXT
 72
     1
 11
516.94625
 21
8.698167
 31
0.0
210
0.0
220
0.0
230
1.0
100
AcDbText
 73
     3
  0
LWPOLYLINE
  5
35
100
AcDbEntity
  8
1
  6
CONTINUOUS
 62
     7
100
AcDbPolyline
 90
        4
 70
     0
 10
500.54225
 20
125.868167
 10
498.54225
 20
122.404083
 10
502.54225
 20
122.404083
 10
500.54225
 20
125.868167
  0
LWPOLYLINE
  5
36
100
AcDbEntity
  8
1
  6
CONTINUOUS
 62
     7
100
AcDbPolyline
 90
        4
 70
     0
 10
500.700667
 20
130.7585
 10
498.700667
 20
127.294417
 10
502.700667
 20
127.294417
 10
500.700667
 20
130.7585
  0
LWPOLYLINE
  5
37
100
AcDbEntity
  8
1
  6
CONTINUOUS
 62
     7
100
AcDbPolyline
 90
        4
 70
     0
 10
500.859083
 20
135.512667
 10
498.859083
 20
132.048583
 10
502.859083
 20
132.048583
 10
500.859083
 20
135.512667
  0
LWPOLYLINE
  5
38
100
AcDbEntity
  8
1
  6
CONTINUOUS
 62
     7
100
AcDbPolyline
 90
        4
 70
     0
 10
501.0175
 20
140.425333
 10
499.0175
 20
136.96125
 10
503.0175
 20
136.96125
 10
501.0175
 20
140.425333
  0
LWPOLYLINE
  5
39
100
AcDbEntity
  8
1
  6
CONTINUOUS
 62
     7
100
AcDbPolyline
 90
        4
 70
     0
 10
501.175917
 20
145.338083
 10
499.175917
 20
141.874
 10
503.175917
 20
141.874
 10
501.175917
 20
145.338083
  0
LWPOLYLINE
  5
3A
100
AcDbEntity
  8
1
  6
CONTINUOUS
 62
     7
100
AcDbPolyline
 90
        4
 70
     0
 10
501.334333
 20
150.25075
 10
499.334333
 20
146.786667
 10
503.334333
 20
146.786667
 10
501.334333
 20
150.25075
  0
LWPOLYLINE
  5
3B
100
AcDbEntity
  8
1
  6
CONTINUOUS
 62
     7
100
AcDbPolyline
 90
        4
 70
     0
 10
503.911083
 20
47.47375
 10
501.911083
 20
44.009667
 10
505.911083
 20
44.009667
 10
503.911083
 20
47.47375
  0
LWPOLYLINE
  5
3C
100
AcDbEntity
  8
1
  6
CONTINUOUS
 62
     7
100
AcDbPolyline
 90
        4
 70
     0
 10
503.899333
 20
42.481167
 10
501.899333
 20
39.017083
 10
505.899333
 20
39.017083
 10
503.899333
 20
42.481167
  0
LWPOLYLINE
  5
3D
100
AcDbEntity
  8
1
  6
CONTINUOUS
 62
     7
100
AcDbPolyline
 90
        4
 70
     0
 10
503.844083
 20
37.889167
 10
501.844083
 20
34.425083
 10
505.844083
 20
34.425083
 10
503.844083
 20
37.889167
  0
LWPOLYLINE
  5
3E
100
AcDbEntity
  8
1
  6
CONTINUOUS
 62
     7
100
AcDbPolyline
 90
        4
 70
     0
 10
503.844083
 20
33.059167
 10
501.844083
 20
29.595083
 10
505.844083
 20
29.595083
 10
503.844083
 20
33.059167
  0
LWPOLYLINE
  5
3F
100
AcDbEntity
  8
1
  6
CONTINUOUS
 62
     7
100
AcDbPolyline
 90
        4
 70
     0
 10
503.875917
 20
28.348167
 10
501.875917
 20
24.884083
 10
505.875917
 20
24.884083
 10
503.875917
 20
28.348167
  0
LWPOLYLINE
  5
40
100
AcDbEntity
  8
1
  6
CONTINUOUS
 62
     7
100
AcDbPolyline
 90
        4
 70
     0
 10
503.994833
 20
23.541667
 10
501.994833
 20
20.077583
 10
505.994833
 20
20.077583
 10
503.994833
 20
23.541667
  0
LWPOLYLINE
  5
41
100
AcDbEntity
  8
1
  6
CONTINUOUS
 62
     7
100
AcDbPolyline
 90
        4
 70
     0
 10
503.954667
 20
18.94975
 10
501.954667
 20
15.485667
 10
505.954667
 20
15.485667
 10
503.954667
 20
18.94975
  0
TEXT
  5
42
100
AcDbEntity
  8
1
  6
CONTINUOUS
 62
     7
100
AcDbText
 10
503.57925
 20
44.396917
 30
0.0
 40
2.0
  1
1
  7
MONOTXT
210
0.0
220
0.0
230
1.0
100
AcDbText
  0
TEXT
  5
43
100
AcDbEntity
  8
1
  6
CONTINUOUS
 62
     7
100
AcDbText
 10
503.235667
 20
39.293667
 30
0.0
 40
2.0
  1
2
  7
MONOTXT
210
0.0
220
0.0
230
1.0
100
AcDbText
  0
TEXT
  5
44
100
AcDbEntity
  8
1
  6
CONTINUOUS
 62
     7
100
AcDbText
 10
503.125083
 20
34.646417
 30
0.0
 40
2.0
  1
3
  7
MONOTXT
210
0.0
220
0.0
230
1.0
100
AcDbText
  0
TEXT
  5
45
100
AcDbEntity
  8
1
  6
CONTINUOUS
 62
     7
100
AcDbText
 10
502.903833
 20
30.037667
 30
0.0
 40
2.0
  1
4
  7
MONOTXT
210
0.0
220
0.0
230
1.0
100
AcDbText
  0
TEXT
  5
46
100
AcDbEntity
  8
1
  6
CONTINUOUS
 62
     7
100
AcDbText
 10
503.156917
 20
25.16075
 30
0.0
 40
2.0
  1
5
  7
MONOTXT
210
0.0
220
0.0
230
1.0
100
AcDbText
  0
TEXT
  5
47
100
AcDbEntity
  8
1
  6
CONTINUOUS
 62
     7
100
AcDbText
 10
503.275917
 20
20.35425
 30
0.0
 40
2.0
  1
6
  7
MONOTXT
210
0.0
220
0.0
230
1.0
100
AcDbText
  0
TEXT
  5
48
100
AcDbEntity
  8
1
  6
CONTINUOUS
 62
     7
100
AcDbText
 10
503.291
 20
15.651583
 30
0.0
 40
2.0
  1
7
  7
MONOTXT
210
0.0
220
0.0
230
1.0
100
AcDbText
  0
TEXT
  5
49
100
AcDbEntity
  8
1
  6
CONTINUOUS
 62
     7
100
AcDbText
 10
500.961583
 20
147.248083
 30
0.0
 40
2.0
  1
1
  7
MONOTXT
210
0.0
220
0.0
230
1.0
100
AcDbText
  0
TEXT
  5
4A
100
AcDbEntity
  8
1
  6
CONTINUOUS
 62
     7
100
AcDbText
 10
500.470167
 20
142.15725
 30
0.0
 40
2.0
  1
2
  7
MONOTXT
210
0.0
220
0.0
230
1.0
100
AcDbText
  0
TEXT
  5
4B
100
AcDbEntity
  8
1
  6
CONTINUOUS
 62
     7
100
AcDbText
 10
500.32975
 20
137.136583
 30
0.0
 40
2.0
  1
3
  7
MONOTXT
210
0.0
220
0.0
230
1.0
100
AcDbText
  0
TEXT
  5
4C
100
AcDbEntity
  8
1
  6
CONTINUOUS
 62
     7
100
AcDbText
 10
500.049
 20
132.431917
 30
0.0
 40
2.0
  1
4
  7
MONOTXT
210
0.0
220
0.0
230
1.0
100
AcDbText
  0
TEXT
  5
4D
100
AcDbEntity
  8
1
  6
CONTINUOUS
 62
     7
100
AcDbText
 10
500.049
 20
127.55175
 30
0.0
 40
2.0
  1
6
  7
MONOTXT
210
0.0
220
0.0
230
1.0
100
AcDbText
  0
TEXT
  5
4E
100
AcDbEntity
  8
1
  6
CONTINUOUS
 62
     7
100
AcDbText
 10
499.803333
 20
122.531083
 30
0.0
 40
2.0
  1
7
  7
MONOTXT
210
0.0
220
0.0
230
1.0
100
AcDbText
  0
TEXT
  5
4F
100
AcDbEntity
  8
1
  6
CONTINUOUS
 62
     7
100
AcDbText
 10
503.629
 20
147.599167
 30
0.0
 40
2.0
  1
BEVEL WASHER
  7
MONOTXT
210
0.0
220
0.0
230
1.0
100
AcDbText
  0
TEXT
  5
50
100
AcDbEntity
  8
1
  6
CONTINUOUS
 62
     7
100
AcDbText
 10
503.593917
 20
142.508333
 30
0.0
 40
2.0
  1
CHART
  7
MONOTXT
210
0.0
220
0.0
230
1.0
100
AcDbText
  0
TEXT
  5
51
100
AcDbEntity
  8
1
  6
CONTINUOUS
 62
     7
100
AcDbText
 10
503.629
 20
137.873917
 30
0.0
 40
2.0
  1
RESIDUAL TENSION
  7
MONOTXT
210
0.0
220
0.0
230
1.0
100
AcDbText
  0
TEXT
  5
52
100
AcDbEntity
  8
1
  6
CONTINUOUS
 62
     7
100
AcDbText
 10
503.558833
 20
132.712833
 30
0.0
 40
2.0
  1
SAW CUT DETAIL
  7
MONOTXT
210
0.0
220
0.0
230
1.0
100
AcDbText
  0
TEXT
  5
53
100
AcDbEntity
  8
1
  6
CONTINUOUS
 62
     7
100
AcDbText
 10
503.629
 20
123.23325
 30
0.0
 40
2.0
  1
REVISED ALLOWABLE LOADS - NEW W SHAPES
  7
MONOTXT
210
0.0
220
0.0
230
1.0
100
AcDbText
  0
TEXT
  5
55
100
AcDbEntity
  8
1
  6
CONTINUOUS
 62
     7
100
AcDbText
 10
519.9995
 20
65.44975
 30
0.0
 40
6.992667
  1
ROADSIDE SIGN SUPPORTS
  7
TXT
 72
     1
 11
585.293
 21
72.442417
 31
0.0
210
0.0
220
0.0
230
1.0
100
AcDbText
 73
     3
  0
TEXT
  5
56
100
AcDbEntity
  8
1
  6
CONTINUOUS
 62
     7
100
AcDbText
 10
542.199083
 20
56.133833
 30
0.0
 40
6.992667
  1
BREAKAWAY TYPE
  7
TXT
 72
     1
 11
585.292917
 21
63.1265
 31
0.0
210
0.0
220
0.0
230
1.0
100
AcDbText
 73
     3
  0
TEXT
  5
57
100
AcDbEntity
  8
1
  6
CONTINUOUS
 62
     1
100
AcDbText
 10
510.271083
 20
39.6725
 30
0.0
 40
2.0
  1
04-07-70
  7
MONOTXT
 72
     1
 11
517.609583
 21
41.6725
 31
0.0
210
0.0
220
0.0
230
1.0
100
AcDbText
 73
     3
  0
LINE
  5
58
100
AcDbEntity
  8
1
  6
CONTINUOUS
 62
     6
100
AcDbLine
 10
70.14
 20
382.613167
 30
0.0
 11
288.14
 21
382.613167
 31
0.0
  0
LINE
  5
59
100
AcDbEntity
  8
1
  6
CONTINUOUS
 62
     6
100
AcDbLine
 10
61.14
 20
182.613167
 30
0.0
 11
61.14
 21
371.613167
 31
0.0
  0
LINE
  5
5A
100
AcDbEntity
  8
1
  6
CONTINUOUS
 62
     6
100
AcDbLine
 10
40.14
 20
373.613167
 30
0.0
 11
288.14
 21
373.613167
 31
0.0
  0
LINE
  5
5B
100
AcDbEntity
  8
1
  6
CONTINUOUS
 62
     6
100
AcDbLine
 10
70.14
 20
182.613167
 30
0.0
 11
70.14
 21
382.613167
 31
0.0
  0
LINE
  5
5C
100
AcDbEntity
  8
1
  6
CONTINUOUS
 62
     6
100
AcDbLine
 10
40.14
 20
371.613167
 30
0.0
 11
288.14
 21
371.613167
 31
0.0
  0
LINE
  5
5D
100
AcDbEntity
  8
1
  6
CONTINUOUS
 62
     6
100
AcDbLine
 10
40.14
 20
182.613167
 30
0.0
 11
288.14
 21
182.613167
 31
0.0
  0
LINE
  5
5E
100
AcDbEntity
  8
1
  6
CONTINUOUS
 62
     6
100
AcDbLine
 10
40.14
 20
406.613167
 30
0.0
 11
288.14
 21
406.613167
 31
0.0
  0
LINE
  5
5F
100
AcDbEntity
  8
1
  6
CONTINUOUS
 62
     6
100
AcDbLine
 10
40.14
 20
182.613167
 30
0.0
 11
40.14
 21
406.613167
 31
0.0
  0
LINE
  5
60
100
AcDbEntity
  8
1
  6
CONTINUOUS
 62
     6
100
AcDbLine
 10
38.14
 20
408.613167
 30
0.0
 11
290.14
 21
408.613167
 31
0.0
  0
LINE
  5
61
100
AcDbEntity
  8
1
  6
CONTINUOUS
 62
     6
100
AcDbLine
 10
38.14
 20
180.613167
 30
0.0
 11
38.14
 21
408.613167
 31
0.0
  0
LINE
  5
62
100
AcDbEntity
  8
1
  6
CONTINUOUS
 62
     6
100
AcDbLine
 10
38.14
 20
180.613167
 30
0.0
 11
290.14
 21
180.613167
 31
0.0
  0
LINE
  5
63
100
AcDbEntity
  8
1
  6
CONTINUOUS
 62
     6
100
AcDbLine
 10
261.14
 20
182.613167
 30
0.0
 11
261.14
 21
382.613167
 31
0.0
  0
LINE
  5
64
100
AcDbEntity
  8
1
  6
CONTINUOUS
 62
     6
100
AcDbLine
 10
288.14
 20
182.613167
 30
0.0
 11
288.14
 21
406.613167
 31
0.0
  0
LINE
  5
65
100
AcDbEntity
  8
1
  6
CONTINUOUS
 62
     6
100
AcDbLine
 10
290.14
 20
180.613167
 30
0.0
 11
290.14
 21
408.613167
 31
0.0
  0
LINE
  5
66
100
AcDbEntity
  8
1
  6
CONTINUOUS
 62
     6
100
AcDbLine
 10
61.14
 20
362.613167
 30
0.0
 11
70.14
 21
362.613167
 31
0.0
  0
LINE
  5
67
100
AcDbEntity
  8
1
  6
CONTINUOUS
 62
     6
100
AcDbLine
 10
72.14
 20
182.613167
 30
0.0
 11
72.14
 21
373.613167
 31
0.0
  0
LINE
  5
68
100
AcDbEntity
  8
1
  6
CONTINUOUS
 62
     6
100
AcDbLine
 10
72.14
 20
373.613167
 30
0.0
 11
72.14
 21
382.613167
 31
0.0
  0
LINE
  5
69
100
AcDbEntity
  8
1
  6
CONTINUOUS
 62
     6
100
AcDbLine
 10
81.14
 20
281.613167
 30
0.0
 11
81.14
 21
382.613167
 31
0.0
  0
LINE
  5
6A
100
AcDbEntity
  8
1
  6
CONTINUOUS
 62
     6
100
AcDbLine
 10
81.14
 20
182.613167
 30
0.0
 11
81.14
 21
272.613167
 31
0.0
  0
LINE
  5
6B
100
AcDbEntity
  8
1
  6
CONTINUOUS
 62
     1
100
AcDbLine
 10
81.14
 20
272.613167
 30
0.0
 11
81.14
 21
281.613167
 31
0.0
  0
LINE
  5
6C
100
AcDbEntity
  8
1
  6
CONTINUOUS
 62
     6
100
AcDbLine
 10
61.14
 20
272.613167
 30
0.0
 11
72.14
 21
272.613167
 31
0.0
  0
LINE
  5
6D
100
AcDbEntity
  8
1
  6
CONTINUOUS
 62
     1
100
AcDbLine
 10
72.14
 20
272.613167
 30
0.0
 11
81.14
 21
272.613167
 31
0.0
  0
LINE
  5
6E
100
AcDbEntity
  8
1
  6
CONTINUOUS
 62
     1
100
AcDbLine
 10
81.14
 20
281.613167
 30
0.0
 11
90.14
 21
281.613167
 31
0.0
  0
LINE
  5
6F
100
AcDbEntity
  8
1
  6
CONTINUOUS
 62
     6
100
AcDbLine
 10
61.14
 20
281.613167
 30
0.0
 11
81.14
 21
281.613167
 31
0.0
  0
LINE
  5
70
100
AcDbEntity
  8
1
  6
CONTINUOUS
 62
     6
100
AcDbLine
 10
90.14
 20
299.613167
 30
0.0
 11
90.14
 21
382.613167
 31
0.0
  0
LINE
  5
71
100
AcDbEntity
  8
1
  6
CONTINUOUS
 62
     1
100
AcDbLine
 10
90.14
 20
281.613167
 30
0.0
 11
90.14
 21
299.613167
 31
0.0
  0
LINE
  5
72
100
AcDbEntity
  8
1
  6
CONTINUOUS
 62
     6
100
AcDbLine
 10
61.14
 20
299.613167
 30
0.0
 11
90.14
 21
299.613167
 31
0.0
  0
LINE
  5
73
100
AcDbEntity
  8
1
  6
CONTINUOUS
 62
     1
100
AcDbLine
 10
90.14
 20
299.613167
 30
0.0
 11
99.14
 21
299.613167
 31
0.0
  0
LINE
  5
74
100
AcDbEntity
  8
1
  6
CONTINUOUS
 62
     6
100
AcDbLine
 10
99.14
 20
317.613167
 30
0.0
 11
99.14
 21
382.613167
 31
0.0
  0
LINE
  5
75
100
AcDbEntity
  8
1
  6
CONTINUOUS
 62
     1
100
AcDbLine
 10
99.14
 20
299.613167
 30
0.0
 11
99.14
 21
317.613167
 31
0.0
  0
LINE
  5
76
100
AcDbEntity
  8
1
  6
CONTINUOUS
 62
     6
100
AcDbLine
 10
61.14
 20
317.613167
 30
0.0
 11
99.14
 21
317.613167
 31
0.0
  0
LINE
  5
77
100
AcDbEntity
  8
1
  6
CONTINUOUS
 62
     1
100
AcDbLine
 10
99.14
 20
317.613167
 30
0.0
 11
108.14
 21
317.613167
 31
0.0
  0
LINE
  5
78
100
AcDbEntity
  8
1
  6
CONTINUOUS
 62
     1
100
AcDbLine
 10
108.14
 20
317.613167
 30
0.0
 11
108.14
 21
335.613167
 31
0.0
  0
LINE
  5
79
100
AcDbEntity
  8
1
  6
CONTINUOUS
 62
     6
100
AcDbLine
 10
108.14
 20
335.613167
 30
0.0
 11
108.14
 21
382.613167
 31
0.0
  0
LINE
  5
7A
100
AcDbEntity
  8
1
  6
CONTINUOUS
 62
     6
100
AcDbLine
 10
61.14
 20
335.613167
 30
0.0
 11
108.14
 21
335.613167
 31
0.0
  0
LINE
  5
7B
100
AcDbEntity
  8
1
  6
CONTINUOUS
 62
     1
100
AcDbLine
 10
108.14
 20
335.613167
 30
0.0
 11
117.14
 21
335.613167
 31
0.0
  0
LINE
  5
7C
100
AcDbEntity
  8
1
  6
CONTINUOUS
 62
     1
100
AcDbLine
 10
117.14
 20
335.613167
 30
0.0
 11
117.14
 21
344.613167
 31
0.0
  0
LINE
  5
7D
100
AcDbEntity
  8
1
  6
CONTINUOUS
 62
     6
100
AcDbLine
 10
117.14
 20
344.613167
 30
0.0
 11
117.14
 21
382.613167
 31
0.0
  0
LINE
  5
7E
100
AcDbEntity
  8
1
  6
CONTINUOUS
 62
     6
100
AcDbLine
 10
61.14
 20
344.613167
 30
0.0
 11
117.14
 21
344.613167
 31
0.0
  0
LINE
  5
7F
100
AcDbEntity
  8
1
  6
CONTINUOUS
 62
     1
100
AcDbLine
 10
117.14
 20
344.613167
 30
0.0
 11
126.14
 21
344.613167
 31
0.0
  0
LINE
  5
80
100
AcDbEntity
  8
1
  6
CONTINUOUS
 62
     1
100
AcDbLine
 10
126.14
 20
344.613167
 30
0.0
 11
126.14
 21
353.613167
 31
0.0
  0
LINE
  5
81
100
AcDbEntity
  8
1
  6
CONTINUOUS
 62
     6
100
AcDbLine
 10
126.14
 20
353.613167
 30
0.0
 11
126.14
 21
382.613167
 31
0.0
  0
LINE
  5
82
100
AcDbEntity
  8
1
  6
CONTINUOUS
 62
     6
100
AcDbLine
 10
61.14
 20
353.613167
 30
0.0
 11
126.14
 21
353.613167
 31
0.0
  0
LINE
  5
83
100
AcDbEntity
  8
1
  6
CONTINUOUS
 62
     1
100
AcDbLine
 10
126.14
 20
353.613167
 30
0.0
 11
144.14
 21
353.613167
 31
0.0
  0
LINE
  5
84
100
AcDbEntity
  8
1
  6
CONTINUOUS
 62
     6
100
AcDbLine
 10
144.14
 20
362.613167
 30
0.0
 11
144.14
 21
382.613167
 31
0.0
  0
LINE
  5
85
100
AcDbEntity
  8
1
  6
CONTINUOUS
 62
     1
100
AcDbLine
 10
144.14
 20
353.613167
 30
0.0
 11
144.14
 21
362.613167
 31
0.0
  0
LINE
  5
86
100
AcDbEntity
  8
1
  6
CONTINUOUS
 62
     6
100
AcDbLine
 10
70.14
 20
362.613167
 30
0.0
 11
144.14
 21
362.613167
 31
0.0
  0
LINE
  5
87
100
AcDbEntity
  8
1
  6
CONTINUOUS
 62
     1
100
AcDbLine
 10
144.14
 20
362.613167
 30
0.0
 11
162.14
 21
362.613167
 31
0.0
  0
LINE
  5
88
100
AcDbEntity
  8
1
  6
CONTINUOUS
 62
     1
100
AcDbLine
 10
162.14
 20
362.613167
 30
0.0
 11
162.14
 21
371.613167
 31
0.0
  0
LINE
  5
89
100
AcDbEntity
  8
1
  6
CONTINUOUS
 62
     6
100
AcDbLine
 10
162.14
 20
371.613167
 30
0.0
 11
162.14
 21
382.613167
 31
0.0
  0
LINE
  5
8A
100
AcDbEntity
  8
1
  6
CONTINUOUS
 62
     1
100
AcDbLine
 10
90.14
 20
182.613167
 30
0.0
 11
90.14
 21
200.613167
 31
0.0
  0
LINE
  5
8B
100
AcDbEntity
  8
1
  6
CONTINUOUS
 62
     6
100
AcDbLine
 10
90.14
 20
200.613167
 30
0.0
 11
90.14
 21
281.613167
 31
0.0
  0
LINE
  5
8C
100
AcDbEntity
  8
1
  6
CONTINUOUS
 62
     6
100
AcDbLine
 10
61.14
 20
200.613167
 30
0.0
 11
90.14
 21
200.613167
 31
0.0
  0
LINE
  5
8D
100
AcDbEntity
  8
1
  6
CONTINUOUS
 62
     1
100
AcDbLine
 10
90.14
 20
200.613167
 30
0.0
 11
99.14
 21
200.613167
 31
0.0
  0
LINE
  5
8E
100
AcDbEntity
  8
1
  6
CONTINUOUS
 62
     6
100
AcDbLine
 10
99.14
 20
182.613167
 30
0.0
 11
99.14
 21
200.613167
 31
0.0
  0
LINE
  5
8F
100
AcDbEntity
  8
1
  6
CONTINUOUS
 62
     1
100
AcDbLine
 10
99.14
 20
200.613167
 30
0.0
 11
99.14
 21
209.613167
 31
0.0
  0
LINE
  5
90
100
AcDbEntity
  8
1
  6
CONTINUOUS
 62
     6
100
AcDbLine
 10
99.14
 20
209.613167
 30
0.0
 11
99.14
 21
299.613167
 31
0.0
  0
LINE
  5
91
100
AcDbEntity
  8
1
  6
CONTINUOUS
 62
     6
100
AcDbLine
 10
61.14
 20
209.613167
 30
0.0
 11
99.14
 21
209.613167
 31
0.0
  0
LINE
  5
92
100
AcDbEntity
  8
1
  6
CONTINUOUS
 62
     1
100
AcDbLine
 10
99.14
 20
209.613167
 30
0.0
 11
108.14
 21
209.613167
 31
0.0
  0
LINE
  5
93
100
AcDbEntity
  8
1
  6
CONTINUOUS
 62
     6
100
AcDbLine
 10
108.14
 20
227.613167
 30
0.0
 11
108.14
 21
317.613167
 31
0.0
  0
LINE
  5
94
100
AcDbEntity
  8
1
  6
CONTINUOUS
 62
     6
100
AcDbLine
 10
108.14
 20
182.613167
 30
0.0
 11
108.14
 21
209.613167
 31
0.0
  0
LINE
  5
95
100
AcDbEntity
  8
1
  6
CONTINUOUS
 62
     1
100
AcDbLine
 10
108.14
 20
209.613167
 30
0.0
 11
108.14
 21
227.613167
 31
0.0
  0
LINE
  5
96
100
AcDbEntity
  8
1
  6
CONTINUOUS
 62
     6
100
AcDbLine
 10
61.14
 20
227.613167
 30
0.0
 11
108.14
 21
227.613167
 31
0.0
  0
LINE
  5
97
100
AcDbEntity
  8
1
  6
CONTINUOUS
 62
     1
100
AcDbLine
 10
108.14
 20
227.613167
 30
0.0
 11
117.14
 21
227.613167
 31
0.0
  0
LINE
  5
98
100
AcDbEntity
  8
1
  6
CONTINUOUS
 62
     6
100
AcDbLine
 10
117.14
 20
254.613167
 30
0.0
 11
117.14
 21
335.613167
 31
0.0
  0
LINE
  5
99
100
AcDbEntity
  8
1
  6
CONTINUOUS
 62
     6
100
AcDbLine
 10
117.14
 20
182.613167
 30
0.0
 11
117.14
 21
227.613167
 31
0.0
  0
LINE
  5
9A
100
AcDbEntity
  8
1
  6
CONTINUOUS
 62
     1
100
AcDbLine
 10
117.14
 20
227.613167
 30
0.0
 11
117.14
 21
254.613167
 31
0.0
  0
LINE
  5
9B
100
AcDbEntity
  8
1
  6
CONTINUOUS
 62
     6
100
AcDbLine
 10
61.14
 20
254.613167
 30
0.0
 11
117.14
 21
254.613167
 31
0.0
  0
LINE
  5
9C
100
AcDbEntity
  8
1
  6
CONTINUOUS
 62
     1
100
AcDbLine
 10
117.14
 20
254.613167
 30
0.0
 11
126.14
 21
254.613167
 31
0.0
  0
LINE
  5
9D
100
AcDbEntity
  8
1
  6
CONTINUOUS
 62
     6
100
AcDbLine
 10
126.14
 20
272.613167
 30
0.0
 11
126.14
 21
344.613167
 31
0.0
  0
LINE
  5
9E
100
AcDbEntity
  8
1
  6
CONTINUOUS
 62
     6
100
AcDbLine
 10
126.14
 20
182.613167
 30
0.0
 11
126.14
 21
254.613167
 31
0.0
  0
LINE
  5
9F
100
AcDbEntity
  8
1
  6
CONTINUOUS
 62
     1
100
AcDbLine
 10
126.14
 20
254.613167
 30
0.0
 11
126.14
 21
272.613167
 31
0.0
  0
LINE
  5
A0
100
AcDbEntity
  8
1
  6
CONTINUOUS
 62
     6
100
AcDbLine
 10
81.14
 20
272.613167
 30
0.0
 11
126.14
 21
272.613167
 31
0.0
  0
LINE
  5
A1
100
AcDbEntity
  8
1
  6
CONTINUOUS
 62
     1
100
AcDbLine
 10
126.14
 20
272.613167
 30
0.0
 11
135.14
 21
272.613167
 31
0.0
  0
LINE
  5
A2
100
AcDbEntity
  8
1
  6
CONTINUOUS
 62
     6
100
AcDbLine
 10
135.14
 20
281.613167
 30
0.0
 11
135.14
 21
382.613167
 31
0.0
  0
LINE
  5
A3
100
AcDbEntity
  8
1
  6
CONTINUOUS
 62
     6
100
AcDbLine
 10
135.14
 20
182.613167
 30
0.0
 11
135.14
 21
272.613167
 31
0.0
  0
LINE
  5
A4
100
AcDbEntity
  8
1
  6
CONTINUOUS
 62
     1
100
AcDbLine
 10
135.14
 20
272.613167
 30
0.0
 11
135.14
 21
281.613167
 31
0.0
  0
LINE
  5
A5
100
AcDbEntity
  8
1
  6
CONTINUOUS
 62
     6
100
AcDbLine
 10
90.14
 20
281.613167
 30
0.0
 11
135.14
 21
281.613167
 31
0.0
  0
LINE
  5
A6
100
AcDbEntity
  8
1
  6
CONTINUOUS
 62
     1
100
AcDbLine
 10
135.14
 20
281.613167
 30
0.0
 11
144.14
 21
281.613167
 31
0.0
  0
LINE
  5
A7
100
AcDbEntity
  8
1
  6
CONTINUOUS
 62
     6
100
AcDbLine
 10
144.14
 20
290.613167
 30
0.0
 11
144.14
 21
353.613167
 31
0.0
  0
LINE
  5
A8
100
AcDbEntity
  8
1
  6
CONTINUOUS
 62
     6
100
AcDbLine
 10
144.14
 20
182.613167
 30
0.0
 11
144.14
 21
281.613167
 31
0.0
  0
LINE
  5
A9
100
AcDbEntity
  8
1
  6
CONTINUOUS
 62
     1
100
AcDbLine
 10
144.14
 20
281.613167
 30
0.0
 11
144.14
 21
290.613167
 31
0.0
  0
LINE
  5
AA
100
AcDbEntity
  8
1
  6
CONTINUOUS
 62
     6
100
AcDbLine
 10
61.14
 20
290.613167
 30
0.0
 11
144.14
 21
290.613167
 31
0.0
  0
LINE
  5
AB
100
AcDbEntity
  8
1
  6
CONTINUOUS
 62
     1
100
AcDbLine
 10
144.14
 20
290.613167
 30
0.0
 11
153.14
 21
290.613167
 31
0.0
  0
LINE
  5
AC
100
AcDbEntity
  8
1
  6
CONTINUOUS
 62
     6
100
AcDbLine
 10
153.14
 20
299.613167
 30
0.0
 11
153.14
 21
382.613167
 31
0.0
  0
LINE
  5
AD
100
AcDbEntity
  8
1
  6
CONTINUOUS
 62
     1
100
AcDbLine
 10
153.14
 20
290.613167
 30
0.0
 11
153.14
 21
299.613167
 31
0.0
  0
LINE
  5
AE
100
AcDbEntity
  8
1
  6
CONTINUOUS
 62
     6
100
AcDbLine
 10
99.14
 20
299.613167
 30
0.0
 11
153.14
 21
299.613167
 31
0.0
  0
LINE
  5
AF
100
AcDbEntity
  8
1
  6
CONTINUOUS
 62
     1
100
AcDbLine
 10
153.14
 20
299.613167
 30
0.0
 11
162.14
 21
299.613167
 31
0.0
  0
LINE
  5
B0
100
AcDbEntity
  8
1
  6
CONTINUOUS
 62
     6
100
AcDbLine
 10
162.14
 20
308.613167
 30
0.0
 11
162.14
 21
362.613167
 31
0.0
  0
LINE
  5
B1
100
AcDbEntity
  8
1
  6
CONTINUOUS
 62
     1
100
AcDbLine
 10
162.14
 20
299.613167
 30
0.0
 11
162.14
 21
308.613167
 31
0.0
  0
LINE
  5
B2
100
AcDbEntity
  8
1
  6
CONTINUOUS
 62
     6
100
AcDbLine
 10
61.14
 20
308.613167
 30
0.0
 11
162.14
 21
308.613167
 31
0.0
  0
LINE
  5
B3
100
AcDbEntity
  8
1
  6
CONTINUOUS
 62
     1
100
AcDbLine
 10
162.14
 20
308.613167
 30
0.0
 11
171.14
 21
308.613167
 31
0.0
  0
LINE
  5
B4
100
AcDbEntity
  8
1
  6
CONTINUOUS
 62
     6
100
AcDbLine
 10
171.14
 20
308.613167
 30
0.0
 11
288.14
 21
308.613167
 31
0.0
  0
LINE
  5
B5
100
AcDbEntity
  8
1
  6
CONTINUOUS
 62
     6
100
AcDbLine
 10
171.14
 20
317.613167
 30
0.0
 11
171.14
 21
382.613167
 31
0.0
  0
LINE
  5
B6
100
AcDbEntity
  8
1
  6
CONTINUOUS
 62
     1
100
AcDbLine
 10
171.14
 20
308.613167
 30
0.0
 11
171.14
 21
317.613167
 31
0.0
  0
LINE
  5
B7
100
AcDbEntity
  8
1
  6
CONTINUOUS
 62
     6
100
AcDbLine
 10
108.14
 20
317.613167
 30
0.0
 11
171.14
 21
317.613167
 31
0.0
  0
LINE
  5
B8
100
AcDbEntity
  8
1
  6
CONTINUOUS
 62
     1
100
AcDbLine
 10
171.14
 20
317.613167
 30
0.0
 11
180.14
 21
317.613167
 31
0.0
  0
LINE
  5
B9
100
AcDbEntity
  8
1
  6
CONTINUOUS
 62
     6
100
AcDbLine
 10
180.14
 20
317.613167
 30
0.0
 11
288.14
 21
317.613167
 31
0.0
  0
LINE
  5
BA
100
AcDbEntity
  8
1
  6
CONTINUOUS
 62
     6
100
AcDbLine
 10
180.14
 20
326.613167
 30
0.0
 11
180.14
 21
382.613167
 31
0.0
  0
LINE
  5
BB
100
AcDbEntity
  8
1
  6
CONTINUOUS
 62
     1
100
AcDbLine
 10
180.14
 20
317.613167
 30
0.0
 11
180.14
 21
326.613167
 31
0.0
  0
LINE
  5
BC
100
AcDbEntity
  8
1
  6
CONTINUOUS
 62
     6
100
AcDbLine
 10
198.14
 20
326.613167
 30
0.0
 11
288.14
 21
326.613167
 31
0.0
  0
LINE
  5
BD
100
AcDbEntity
  8
1
  6
CONTINUOUS
 62
     6
100
AcDbLine
 10
61.14
 20
326.613167
 30
0.0
 11
180.14
 21
326.613167
 31
0.0
  0
LINE
  5
BE
100
AcDbEntity
  8
1
  6
CONTINUOUS
 62
     1
100
AcDbLine
 10
180.14
 20
326.613167
 30
0.0
 11
198.14
 21
326.613167
 31
0.0
  0
LINE
  5
BF
100
AcDbEntity
  8
1
  6
CONTINUOUS
 62
     1
100
AcDbLine
 10
198.14
 20
326.613167
 30
0.0
 11
198.14
 21
335.613167
 31
0.0
  0
LINE
  5
C0
100
AcDbEntity
  8
1
  6
CONTINUOUS
 62
     6
100
AcDbLine
 10
198.14
 20
335.613167
 30
0.0
 11
198.14
 21
382.613167
 31
0.0
  0
LINE
  5
C1
100
AcDbEntity
  8
1
  6
CONTINUOUS
 62
     6
100
AcDbLine
 10
117.14
 20
335.613167
 30
0.0
 11
198.14
 21
335.613167
 31
0.0
  0
LINE
  5
C2
100
AcDbEntity
  8
1
  6
CONTINUOUS
 62
     1
100
AcDbLine
 10
198.14
 20
335.613167
 30
0.0
 11
216.14
 21
335.613167
 31
0.0
  0
LINE
  5
C3
100
AcDbEntity
  8
1
  6
CONTINUOUS
 62
     6
100
AcDbLine
 10
216.14
 20
335.613167
 30
0.0
 11
288.14
 21
335.613167
 31
0.0
  0
LINE
  5
C4
100
AcDbEntity
  8
1
  6
CONTINUOUS
 62
     1
100
AcDbLine
 10
216.14
 20
335.613167
 30
0.0
 11
216.14
 21
344.613167
 31
0.0
  0
LINE
  5
C5
100
AcDbEntity
  8
1
  6
CONTINUOUS
 62
     6
100
AcDbLine
 10
216.14
 20
344.613167
 30
0.0
 11
216.14
 21
382.613167
 31
0.0
  0
LINE
  5
C6
100
AcDbEntity
  8
1
  6
CONTINUOUS
 62
     6
100
AcDbLine
 10
243.14
 20
344.613167
 30
0.0
 11
288.14
 21
344.613167
 31
0.0
  0
LINE
  5
C7
100
AcDbEntity
  8
1
  6
CONTINUOUS
 62
     6
100
AcDbLine
 10
126.14
 20
344.613167
 30
0.0
 11
216.14
 21
344.613167
 31
0.0
  0
LINE
  5
C8
100
AcDbEntity
  8
1
  6
CONTINUOUS
 62
     1
100
AcDbLine
 10
216.14
 20
344.613167
 30
0.0
 11
243.14
 21
344.613167
 31
0.0
  0
LINE
  5
C9
100
AcDbEntity
  8
1
  6
CONTINUOUS
 62
     6
100
AcDbLine
 10
243.14
 20
353.613167
 30
0.0
 11
243.14
 21
382.613167
 31
0.0
  0
LINE
  5
CA
100
AcDbEntity
  8
1
  6
CONTINUOUS
 62
     1
100
AcDbLine
 10
243.14
 20
344.613167
 30
0.0
 11
243.14
 21
353.613167
 31
0.0
  0
LINE
  5
CB
100
AcDbEntity
  8
1
  6
CONTINUOUS
 62
     6
100
AcDbLine
 10
270.14
 20
353.613167
 30
0.0
 11
288.14
 21
353.613167
 31
0.0
  0
LINE
  5
CC
100
AcDbEntity
  8
1
  6
CONTINUOUS
 62
     6
100
AcDbLine
 10
144.14
 20
353.613167
 30
0.0
 11
243.14
 21
353.613167
 31
0.0
  0
LINE
  5
CD
100
AcDbEntity
  8
1
  6
CONTINUOUS
 62
     1
100
AcDbLine
 10
243.14
 20
353.613167
 30
0.0
 11
270.14
 21
353.613167
 31
0.0
  0
LINE
  5
CE
100
AcDbEntity
  8
1
  6
CONTINUOUS
 62
     1
100
AcDbLine
 10
270.14
 20
353.613167
 30
0.0
 11
270.14
 21
362.613167
 31
0.0
  0
LINE
  5
CF
100
AcDbEntity
  8
1
  6
CONTINUOUS
 62
     6
100
AcDbLine
 10
270.14
 20
362.613167
 30
0.0
 11
270.14
 21
382.613167
 31
0.0
  0
LINE
  5
D0
100
AcDbEntity
  8
1
  6
CONTINUOUS
 62
     6
100
AcDbLine
 10
162.14
 20
362.613167
 30
0.0
 11
270.14
 21
362.613167
 31
0.0
  0
LINE
  5
D1
100
AcDbEntity
  8
1
  6
CONTINUOUS
 62
     1
100
AcDbLine
 10
270.14
 20
362.613167
 30
0.0
 11
288.14
 21
362.613167
 31
0.0
  0
LINE
  5
D2
100
AcDbEntity
  8
1
  6
CONTINUOUS
 62
     1
100
AcDbLine
 10
153.14
 20
182.613167
 30
0.0
 11
153.14
 21
191.613167
 31
0.0
  0
LINE
  5
D3
100
AcDbEntity
  8
1
  6
CONTINUOUS
 62
     6
100
AcDbLine
 10
153.14
 20
191.613167
 30
0.0
 11
153.14
 21
290.613167
 31
0.0
  0
LINE
  5
D4
100
AcDbEntity
  8
1
  6
CONTINUOUS
 62
     6
100
AcDbLine
 10
61.14
 20
191.613167
 30
0.0
 11
153.14
 21
191.613167
 31
0.0
  0
LINE
  5
D5
100
AcDbEntity
  8
1
  6
CONTINUOUS
 62
     1
100
AcDbLine
 10
153.14
 20
191.613167
 30
0.0
 11
162.14
 21
191.613167
 31
0.0
  0
LINE
  5
D6
100
AcDbEntity
  8
1
  6
CONTINUOUS
 62
     6
100
AcDbLine
 10
162.14
 20
209.613167
 30
0.0
 11
162.14
 21
299.613167
 31
0.0
  0
LINE
  5
D7
100
AcDbEntity
  8
1
  6
CONTINUOUS
 62
     6
100
AcDbLine
 10
162.14
 20
182.613167
 30
0.0
 11
162.14
 21
191.613167
 31
0.0
  0
LINE
  5
D8
100
AcDbEntity
  8
1
  6
CONTINUOUS
 62
     1
100
AcDbLine
 10
162.14
 20
191.613167
 30
0.0
 11
162.14
 21
209.613167
 31
0.0
  0
LINE
  5
D9
100
AcDbEntity
  8
1
  6
CONTINUOUS
 62
     6
100
AcDbLine
 10
108.14
 20
209.613167
 30
0.0
 11
162.14
 21
209.613167
 31
0.0
  0
LINE
  5
DA
100
AcDbEntity
  8
1
  6
CONTINUOUS
 62
     1
100
AcDbLine
 10
162.14
 20
209.613167
 30
0.0
 11
171.14
 21
209.613167
 31
0.0
  0
LINE
  5
DB
100
AcDbEntity
  8
1
  6
CONTINUOUS
 62
     6
100
AcDbLine
 10
171.14
 20
218.613167
 30
0.0
 11
171.14
 21
308.613167
 31
0.0
  0
LINE
  5
DC
100
AcDbEntity
  8
1
  6
CONTINUOUS
 62
     6
100
AcDbLine
 10
171.14
 20
182.613167
 30
0.0
 11
171.14
 21
209.613167
 31
0.0
  0
LINE
  5
DD
100
AcDbEntity
  8
1
  6
CONTINUOUS
 62
     1
100
AcDbLine
 10
171.14
 20
209.613167
 30
0.0
 11
171.14
 21
218.613167
 31
0.0
  0
LINE
  5
DE
100
AcDbEntity
  8
1
  6
CONTINUOUS
 62
     6
100
AcDbLine
 10
61.14
 20
218.613167
 30
0.0
 11
171.14
 21
218.613167
 31
0.0
  0
LINE
  5
DF
100
AcDbEntity
  8
1
  6
CONTINUOUS
 62
     1
100
AcDbLine
 10
171.14
 20
218.613167
 30
0.0
 11
180.14
 21
218.613167
 31
0.0
  0
LINE
  5
E0
100
AcDbEntity
  8
1
  6
CONTINUOUS
 62
     6
100
AcDbLine
 10
180.14
 20
182.613167
 30
0.0
 11
180.14
 21
218.613167
 31
0.0
  0
LINE
  5
E1
100
AcDbEntity
  8
1
  6
CONTINUOUS
 62
     1
100
AcDbLine
 10
180.14
 20
218.613167
 30
0.0
 11
180.14
 21
227.613167
 31
0.0
  0
LINE
  5
E2
100
AcDbEntity
  8
1
  6
CONTINUOUS
 62
     6
100
AcDbLine
 10
180.14
 20
227.613167
 30
0.0
 11
180.14
 21
317.613167
 31
0.0
  0
LINE
  5
E3
100
AcDbEntity
  8
1
  6
CONTINUOUS
 62
     6
100
AcDbLine
 10
117.14
 20
227.613167
 30
0.0
 11
180.14
 21
227.613167
 31
0.0
  0
LINE
  5
E4
100
AcDbEntity
  8
1
  6
CONTINUOUS
 62
     1
100
AcDbLine
 10
180.14
 20
227.613167
 30
0.0
 11
189.14
 21
227.613167
 31
0.0
  0
LINE
  5
E5
100
AcDbEntity
  8
1
  6
CONTINUOUS
 62
     6
100
AcDbLine
 10
189.14
 20
182.613167
 30
0.0
 11
189.14
 21
227.613167
 31
0.0
  0
LINE
  5
E6
100
AcDbEntity
  8
1
  6
CONTINUOUS
 62
     1
100
AcDbLine
 10
189.14
 20
227.613167
 30
0.0
 11
189.14
 21
236.613167
 31
0.0
  0
LINE
  5
E7
100
AcDbEntity
  8
1
  6
CONTINUOUS
 62
     6
100
AcDbLine
 10
189.14
 20
236.613167
 30
0.0
 11
189.14
 21
382.613167
 31
0.0
  0
LINE
  5
E8
100
AcDbEntity
  8
1
  6
CONTINUOUS
 62
     6
100
AcDbLine
 10
61.14
 20
236.613167
 30
0.0
 11
189.14
 21
236.613167
 31
0.0
  0
LINE
  5
E9
100
AcDbEntity
  8
1
  6
CONTINUOUS
 62
     1
100
AcDbLine
 10
189.14
 20
236.613167
 30
0.0
 11
198.14
 21
236.613167
 31
0.0
  0
LINE
  5
EA
100
AcDbEntity
  8
1
  6
CONTINUOUS
 62
     6
100
AcDbLine
 10
198.14
 20
182.613167
 30
0.0
 11
198.14
 21
236.613167
 31
0.0
  0
LINE
  5
EB
100
AcDbEntity
  8
1
  6
CONTINUOUS
 62
     1
100
AcDbLine
 10
198.14
 20
236.613167
 30
0.0
 11
198.14
 21
245.613167
 31
0.0
  0
LINE
  5
EC
100
AcDbEntity
  8
1
  6
CONTINUOUS
 62
     6
100
AcDbLine
 10
198.14
 20
245.613167
 30
0.0
 11
198.14
 21
326.613167
 31
0.0
  0
LINE
  5
ED
100
AcDbEntity
  8
1
  6
CONTINUOUS
 62
     6
100
AcDbLine
 10
61.14
 20
245.613167
 30
0.0
 11
198.14
 21
245.613167
 31
0.0
  0
LINE
  5
EE
100
AcDbEntity
  8
1
  6
CONTINUOUS
 62
     1
100
AcDbLine
 10
198.14
 20
245.613167
 30
0.0
 11
207.14
 21
245.613167
 31
0.0
  0
LINE
  5
EF
100
AcDbEntity
  8
1
  6
CONTINUOUS
 62
     6
100
AcDbLine
 10
207.14
 20
254.613167
 30
0.0
 11
207.14
 21
382.613167
 31
0.0
  0
LINE
  5
F0
100
AcDbEntity
  8
1
  6
CONTINUOUS
 62
     6
100
AcDbLine
 10
207.14
 20
182.613167
 30
0.0
 11
207.14
 21
245.613167
 31
0.0
  0
LINE
  5
F1
100
AcDbEntity
  8
1
  6
CONTINUOUS
 62
     1
100
AcDbLine
 10
207.14
 20
245.613167
 30
0.0
 11
207.14
 21
254.613167
 31
0.0
  0
LINE
  5
F2
100
AcDbEntity
  8
1
  6
CONTINUOUS
 62
     6
100
AcDbLine
 10
126.14
 20
254.613167
 30
0.0
 11
207.14
 21
254.613167
 31
0.0
  0
LINE
  5
F3
100
AcDbEntity
  8
1
  6
CONTINUOUS
 62
     1
100
AcDbLine
 10
207.14
 20
254.613167
 30
0.0
 11
216.14
 21
254.613167
 31
0.0
  0
LINE
  5
F4
100
AcDbEntity
  8
1
  6
CONTINUOUS
 62
     6
100
AcDbLine
 10
216.14
 20
254.613167
 30
0.0
 11
288.14
 21
254.613167
 31
0.0
  0
LINE
  5
F5
100
AcDbEntity
  8
1
  6
CONTINUOUS
 62
     1
100
AcDbLine
 10
216.14
 20
254.613167
 30
0.0
 11
216.14
 21
263.613167
 31
0.0
  0
LINE
  5
F6
100
AcDbEntity
  8
1
  6
CONTINUOUS
 62
     6
100
AcDbLine
 10
216.14
 20
263.613167
 30
0.0
 11
216.14
 21
335.613167
 31
0.0
  0
LINE
  5
F7
100
AcDbEntity
  8
1
  6
CONTINUOUS
 62
     6
100
AcDbLine
 10
61.14
 20
263.613167
 30
0.0
 11
216.14
 21
263.613167
 31
0.0
  0
LINE
  5
F8
100
AcDbEntity
  8
1
  6
CONTINUOUS
 62
     1
100
AcDbLine
 10
216.14
 20
263.613167
 30
0.0
 11
225.14
 21
263.613167
 31
0.0
  0
LINE
  5
F9
100
AcDbEntity
  8
1
  6
CONTINUOUS
 62
     6
100
AcDbLine
 10
225.14
 20
263.613167
 30
0.0
 11
288.14
 21
263.613167
 31
0.0
  0
LINE
  5
FA
100
AcDbEntity
  8
1
  6
CONTINUOUS
 62
     1
100
AcDbLine
 10
225.14
 20
263.613167
 30
0.0
 11
225.14
 21
272.613167
 31
0.0
  0
LINE
  5
FB
100
AcDbEntity
  8
1
  6
CONTINUOUS
 62
     6
100
AcDbLine
 10
225.14
 20
272.613167
 30
0.0
 11
225.14
 21
382.613167
 31
0.0
  0
LINE
  5
FC
100
AcDbEntity
  8
1
  6
CONTINUOUS
 62
     6
100
AcDbLine
 10
135.14
 20
272.613167
 30
0.0
 11
225.14
 21
272.613167
 31
0.0
  0
LINE
  5
FD
100
AcDbEntity
  8
1
  6
CONTINUOUS
 62
     1
100
AcDbLine
 10
225.14
 20
272.613167
 30
0.0
 11
234.14
 21
272.613167
 31
0.0
  0
LINE
  5
FE
100
AcDbEntity
  8
1
  6
CONTINUOUS
 62
     6
100
AcDbLine
 10
234.14
 20
272.613167
 30
0.0
 11
288.14
 21
272.613167
 31
0.0
  0
LINE
  5
FF
100
AcDbEntity
  8
1
  6
CONTINUOUS
 62
     1
100
AcDbLine
 10
234.14
 20
272.613167
 30
0.0
 11
234.14
 21
281.613167
 31
0.0
  0
LINE
  5
100
100
AcDbEntity
  8
1
  6
CONTINUOUS
 62
     6
100
AcDbLine
 10
234.14
 20
281.613167
 30
0.0
 11
234.14
 21
382.613167
 31
0.0
  0
LINE
  5
101
100
AcDbEntity
  8
1
  6
CONTINUOUS
 62
     6
100
AcDbLine
 10
144.14
 20
281.613167
 30
0.0
 11
234.14
 21
281.613167
 31
0.0
  0
LINE
  5
102
100
AcDbEntity
  8
1
  6
CONTINUOUS
 62
     1
100
AcDbLine
 10
234.14
 20
281.613167
 30
0.0
 11
252.14
 21
281.613167
 31
0.0
  0
LINE
  5
103
100
AcDbEntity
  8
1
  6
CONTINUOUS
 62
     6
100
AcDbLine
 10
252.14
 20
281.613167
 30
0.0
 11
288.14
 21
281.613167
 31
0.0
  0
LINE
  5
104
100
AcDbEntity
  8
1
  6
CONTINUOUS
 62
     6
100
AcDbLine
 10
252.14
 20
290.613167
 30
0.0
 11
252.14
 21
382.613167
 31
0.0
  0
LINE
  5
105
100
AcDbEntity
  8
1
  6
CONTINUOUS
 62
     1
100
AcDbLine
 10
252.14
 20
281.613167
 30
0.0
 11
252.14
 21
290.613167
 31
0.0
  0
LINE
  5
106
100
AcDbEntity
  8
1
  6
CONTINUOUS
 62
     6
100
AcDbLine
 10
153.14
 20
290.613167
 30
0.0
 11
252.14
 21
290.613167
 31
0.0
  0
LINE
  5
107
100
AcDbEntity
  8
1
  6
CONTINUOUS
 62
     1
100
AcDbLine
 10
252.14
 20
290.613167
 30
0.0
 11
270.14
 21
290.613167
 31
0.0
  0
LINE
  5
108
100
AcDbEntity
  8
1
  6
CONTINUOUS
 62
     6
100
AcDbLine
 10
270.14
 20
290.613167
 30
0.0
 11
288.14
 21
290.613167
 31
0.0
  0
LINE
  5
109
100
AcDbEntity
  8
1
  6
CONTINUOUS
 62
     6
100
AcDbLine
 10
270.14
 20
299.613167
 30
0.0
 11
270.14
 21
353.613167
 31
0.0
  0
LINE
  5
10A
100
AcDbEntity
  8
1
  6
CONTINUOUS
 62
     1
100
AcDbLine
 10
270.14
 20
290.613167
 30
0.0
 11
270.14
 21
299.613167
 31
0.0
  0
LINE
  5
10B
100
AcDbEntity
  8
1
  6
CONTINUOUS
 62
     6
100
AcDbLine
 10
162.14
 20
299.613167
 30
0.0
 11
270.14
 21
299.613167
 31
0.0
  0
LINE
  5
10C
100
AcDbEntity
  8
1
  6
CONTINUOUS
 62
     1
100
AcDbLine
 10
270.14
 20
299.613167
 30
0.0
 11
288.14
 21
299.613167
 31
0.0
  0
LINE
  5
10D
100
AcDbEntity
  8
1
  6
CONTINUOUS
 62
     1
100
AcDbLine
 10
216.14
 20
182.613167
 30
0.0
 11
216.14
 21
191.613167
 31
0.0
  0
LINE
  5
10E
100
AcDbEntity
  8
1
  6
CONTINUOUS
 62
     6
100
AcDbLine
 10
216.14
 20
191.613167
 30
0.0
 11
216.14
 21
254.613167
 31
0.0
  0
LINE
  5
10F
100
AcDbEntity
  8
1
  6
CONTINUOUS
 62
     6
100
AcDbLine
 10
162.14
 20
191.613167
 30
0.0
 11
216.14
 21
191.613167
 31
0.0
  0
LINE
  5
110
100
AcDbEntity
  8
1
  6
CONTINUOUS
 62
     1
100
AcDbLine
 10
216.14
 20
191.613167
 30
0.0
 11
225.14
 21
191.613167
 31
0.0
  0
LINE
  5
111
100
AcDbEntity
  8
1
  6
CONTINUOUS
 62
     6
100
AcDbLine
 10
225.14
 20
191.613167
 30
0.0
 11
288.14
 21
191.613167
 31
0.0
  0
LINE
  5
112
100
AcDbEntity
  8
1
  6
CONTINUOUS
 62
     6
100
AcDbLine
 10
225.14
 20
182.613167
 30
0.0
 11
225.14
 21
191.613167
 31
0.0
  0
LINE
  5
113
100
AcDbEntity
  8
1
  6
CONTINUOUS
 62
     1
100
AcDbLine
 10
225.14
 20
191.613167
 30
0.0
 11
225.14
 21
200.613167
 31
0.0
  0
LINE
  5
114
100
AcDbEntity
  8
1
  6
CONTINUOUS
 62
     6
100
AcDbLine
 10
225.14
 20
200.613167
 30
0.0
 11
225.14
 21
263.613167
 31
0.0
  0
LINE
  5
115
100
AcDbEntity
  8
1
  6
CONTINUOUS
 62
     6
100
AcDbLine
 10
99.14
 20
200.613167
 30
0.0
 11
225.14
 21
200.613167
 31
0.0
  0
LINE
  5
116
100
AcDbEntity
  8
1
  6
CONTINUOUS
 62
     1
100
AcDbLine
 10
225.14
 20
200.613167
 30
0.0
 11
234.14
 21
200.613167
 31
0.0
  0
LINE
  5
117
100
AcDbEntity
  8
1
  6
CONTINUOUS
 62
     6
100
AcDbLine
 10
234.14
 20
200.613167
 30
0.0
 11
288.14
 21
200.613167
 31
0.0
  0
LINE
  5
118
100
AcDbEntity
  8
1
  6
CONTINUOUS
 62
     6
100
AcDbLine
 10
234.14
 20
182.613167
 30
0.0
 11
234.14
 21
200.613167
 31
0.0
  0
LINE
  5
119
100
AcDbEntity
  8
1
  6
CONTINUOUS
 62
     1
100
AcDbLine
 10
234.14
 20
200.613167
 30
0.0
 11
234.14
 21
209.613167
 31
0.0
  0
LINE
  5
11A
100
AcDbEntity
  8
1
  6
CONTINUOUS
 62
     6
100
AcDbLine
 10
234.14
 20
209.613167
 30
0.0
 11
234.14
 21
272.613167
 31
0.0
  0
LINE
  5
11B
100
AcDbEntity
  8
1
  6
CONTINUOUS
 62
     6
100
AcDbLine
 10
171.14
 20
209.613167
 30
0.0
 11
234.14
 21
209.613167
 31
0.0
  0
LINE
  5
11C
100
AcDbEntity
  8
1
  6
CONTINUOUS
 62
     1
100
AcDbLine
 10
234.14
 20
209.613167
 30
0.0
 11
243.14
 21
209.613167
 31
0.0
  0
LINE
  5
11D
100
AcDbEntity
  8
1
  6
CONTINUOUS
 62
     6
100
AcDbLine
 10
243.14
 20
209.613167
 30
0.0
 11
288.14
 21
209.613167
 31
0.0
  0
LINE
  5
11E
100
AcDbEntity
  8
1
  6
CONTINUOUS
 62
     6
100
AcDbLine
 10
243.14
 20
182.613167
 30
0.0
 11
243.14
 21
209.613167
 31
0.0
  0
LINE
  5
11F
100
AcDbEntity
  8
1
  6
CONTINUOUS
 62
     1
100
AcDbLine
 10
243.14
 20
209.613167
 30
0.0
 11
243.14
 21
218.613167
 31
0.0
  0
LINE
  5
120
100
AcDbEntity
  8
1
  6
CONTINUOUS
 62
     6
100
AcDbLine
 10
243.14
 20
218.613167
 30
0.0
 11
243.14
 21
344.613167
 31
0.0
  0
LINE
  5
121
100
AcDbEntity
  8
1
  6
CONTINUOUS
 62
     6
100
AcDbLine
 10
180.14
 20
218.613167
 30
0.0
 11
243.14
 21
218.613167
 31
0.0
  0
LINE
  5
122
100
AcDbEntity
  8
1
  6
CONTINUOUS
 62
     1
100
AcDbLine
 10
243.14
 20
218.613167
 30
0.0
 11
252.14
 21
218.613167
 31
0.0
  0
LINE
  5
123
100
AcDbEntity
  8
1
  6
CONTINUOUS
 62
     6
100
AcDbLine
 10
252.14
 20
218.613167
 30
0.0
 11
288.14
 21
218.613167
 31
0.0
  0
LINE
  5
124
100
AcDbEntity
  8
1
  6
CONTINUOUS
 62
     6
100
AcDbLine
 10
252.14
 20
227.613167
 30
0.0
 11
252.14
 21
281.613167
 31
0.0
  0
LINE
  5
125
100
AcDbEntity
  8
1
  6
CONTINUOUS
 62
     6
100
AcDbLine
 10
252.14
 20
182.613167
 30
0.0
 11
252.14
 21
218.613167
 31
0.0
  0
LINE
  5
126
100
AcDbEntity
  8
1
  6
CONTINUOUS
 62
     1
100
AcDbLine
 10
252.14
 20
218.613167
 30
0.0
 11
252.14
 21
227.613167
 31
0.0
  0
LINE
  5
127
100
AcDbEntity
  8
1
  6
CONTINUOUS
 62
     6
100
AcDbLine
 10
189.14
 20
227.613167
 30
0.0
 11
252.14
 21
227.613167
 31
0.0
  0
LINE
  5
128
100
AcDbEntity
  8
1
  6
CONTINUOUS
 62
     1
100
AcDbLine
 10
252.14
 20
227.613167
 30
0.0
 11
270.14
 21
227.613167
 31
0.0
  0
LINE
  5
129
100
AcDbEntity
  8
1
  6
CONTINUOUS
 62
     6
100
AcDbLine
 10
270.14
 20
227.613167
 30
0.0
 11
288.14
 21
227.613167
 31
0.0
  0
LINE
  5
12A
100
AcDbEntity
  8
1
  6
CONTINUOUS
 62
     6
100
AcDbLine
 10
270.14
 20
236.613167
 30
0.0
 11
270.14
 21
290.613167
 31
0.0
  0
LINE
  5
12B
100
AcDbEntity
  8
1
  6
CONTINUOUS
 62
     6
100
AcDbLine
 10
270.14
 20
182.613167
 30
0.0
 11
270.14
 21
227.613167
 31
0.0
  0
LINE
  5
12C
100
AcDbEntity
  8
1
  6
CONTINUOUS
 62
     1
100
AcDbLine
 10
270.14
 20
227.613167
 30
0.0
 11
270.14
 21
236.613167
 31
0.0
  0
LINE
  5
12D
100
AcDbEntity
  8
1
  6
CONTINUOUS
 62
     6
100
AcDbLine
 10
198.14
 20
236.613167
 30
0.0
 11
270.14
 21
236.613167
 31
0.0
  0
LINE
  5
12E
100
AcDbEntity
  8
1
  6
CONTINUOUS
 62
     1
100
AcDbLine
 10
270.14
 20
236.613167
 30
0.0
 11
279.14
 21
236.613167
 31
0.0
  0
LINE
  5
12F
100
AcDbEntity
  8
1
  6
CONTINUOUS
 62
     6
100
AcDbLine
 10
279.14
 20
236.613167
 30
0.0
 11
288.14
 21
236.613167
 31
0.0
  0
LINE
  5
130
100
AcDbEntity
  8
1
  6
CONTINUOUS
 62
     6
100
AcDbLine
 10
279.14
 20
245.613167
 30
0.0
 11
279.14
 21
382.613167
 31
0.0
  0
LINE
  5
131
100
AcDbEntity
  8
1
  6
CONTINUOUS
 62
     6
100
AcDbLine
 10
279.14
 20
182.613167
 30
0.0
 11
279.14
 21
236.613167
 31
0.0
  0
LINE
  5
132
100
AcDbEntity
  8
1
  6
CONTINUOUS
 62
     1
100
AcDbLine
 10
279.14
 20
236.613167
 30
0.0
 11
279.14
 21
245.613167
 31
0.0
  0
LINE
  5
133
100
AcDbEntity
  8
1
  6
CONTINUOUS
 62
     6
100
AcDbLine
 10
207.14
 20
245.613167
 30
0.0
 11
279.14
 21
245.613167
 31
0.0
  0
LINE
  5
134
100
AcDbEntity
  8
1
  6
CONTINUOUS
 62
     1
100
AcDbLine
 10
279.14
 20
245.613167
 30
0.0
 11
288.14
 21
245.613167
 31
0.0
  0
TEXT
  5
135
100
AcDbEntity
  8
1
  6
CONTINUOUS
 62
     7
100
AcDbText
 10
115.414667
 20
393.8125
 30
0.0
 40
2.5
  1
TOTAL SQUARE FEET OF SIGN AREA PER POLE
  7
MONOTXT
 72
     4
 11
161.841833
 21
395.0625
 31
0.0
210
0.0
220
0.0
230
1.0
100
AcDbText
  0
TEXT
  5
136
100
AcDbEntity
  8
1
  6
CONTINUOUS
 62
     7
100
AcDbText
 10
49.921083
 20
232.338417
 30
0.0
 40
2.5
  1
DIMENSION FROM BOTTOM OF BASE PLATE TO
 50
90.0
  7
MONOTXT
 72
     4
 11
48.671083
 21
277.997833
 31
0.0
210
0.0
220
0.0
230
1.0
100
AcDbText
  0
TEXT
  5
137
100
AcDbEntity
  8
1
  6
CONTINUOUS
 62
     7
100
AcDbText
 10
54.421083
 20
231.108
 30
0.0
 40
2.5
  1
CENTER OF PRESSURE ON SIGN ("CP" IN FEET)
 50
90.0
  7
MONOTXT
 72
     4
 11
53.171083
 21
277.987833
 31
0.0
210
0.0
220
0.0
230
1.0
100
AcDbText
  0
TEXT
  5
138
100
AcDbEntity
  8
1
  6
CONTINUOUS
 62
     7
100
AcDbText
 10
215.428917
 20
172.88025
 30
0.0
 40
2.5
  1
REDESIGN USING ADDITIONAL SUPPORT
  7
MONOTXT
 72
     4
 11
252.584417
 21
174.13025
 31
0.0
210
0.0
220
0.0
230
1.0
100
AcDbText
  0
TEXT
  5
139
100
AcDbEntity
  8
1
  6
CONTINUOUS
 62
     7
100
AcDbText
 10
210.33075
 20
171.331667
 30
0.0
 40
6.0
  1
*
  7
MONOTXT
 72
     4
 11
211.48825
 21
174.331667
 31
0.0
210
0.0
220
0.0
230
1.0
100
AcDbText
  0
LINE
  5
13A
100
AcDbEntity
  8
1
  6
CONTINUOUS
 62
    30
100
AcDbLine
 10
116.79275
 20
119.45125
 30
0.0
 11
116.79275
 21
91.45125
 31
0.0
  0
LINE
  5
13B
100
AcDbEntity
  8
1
  6
CONTINUOUS
 62
    30
100
AcDbLine
 10
129.29275
 20
119.45125
 30
0.0
 11
129.29275
 21
91.45125
 31
0.0
  0
LINE
  5
13C
100
AcDbEntity
  8
1
  6
CONTINUOUS
 62
    30
100
AcDbLine
 10
116.79275
 20
119.45125
 30
0.0
 11
120.79275
 21
119.45125
 31
0.0
  0
LINE
  5
13D
100
AcDbEntity
  8
1
  6
CONTINUOUS
 62
    30
100
AcDbLine
 10
122.79275
 20
119.45125
 30
0.0
 11
129.29275
 21
119.45125
 31
0.0
  0
LINE
  5
13E
100
AcDbEntity
  8
1
  6
CONTINUOUS
 62
    30
100
AcDbLine
 10
119.54275
 20
119.45125
 30
0.0
 11
119.54275
 21
91.45125
 31
0.0
  0
LINE
  5
13F
100
AcDbEntity
  8
1
  6
CONTINUOUS
 62
    30
100
AcDbLine
 10
118.54275
 20
119.45125
 30
0.0
 11
118.54275
 21
91.45125
 31
0.0
  0
LINE
  5
140
100
AcDbEntity
  8
1
  6
CONTINUOUS
 62
    30
100
AcDbLine
 10
121.79275
 20
117.45125
 30
0.0
 11
124.79275
 21
117.45125
 31
0.0
  0
LINE
  5
141
100
AcDbEntity
  8
1
  6
CONTINUOUS
 62
    30
100
AcDbLine
 10
121.79275
 20
114.95125
 30
0.0
 11
124.79275
 21
114.95125
 31
0.0
  0
LINE
  5
142
100
AcDbEntity
  8
1
  6
CONTINUOUS
 62
    30
100
AcDbLine
 10
124.79275
 20
117.45125
 30
0.0
 11
124.79275
 21
114.95125
 31
0.0
  0
LINE
  5
143
100
AcDbEntity
  8
1
  6
CONTINUOUS
 62
    30
100
AcDbLine
 10
121.79275
 20
117.45125
 30
0.0
 11
121.79275
 21
114.95125
 31
0.0
  0
LINE
  5
144
100
AcDbEntity
  8
1
  6
CONTINUOUS
 62
    30
100
AcDbLine
 10
122.79275
 20
119.45125
 30
0.0
 11
122.79275
 21
117.45125
 31
0.0
  0
LINE
  5
145
100
AcDbEntity
  8
1
  6
CONTINUOUS
 62
    30
100
AcDbLine
 10
122.79275
 20
114.95125
 30
0.0
 11
122.79275
 21
91.45125
 31
0.0
  0
LINE
  5
146
100
AcDbEntity
  8
1
  6
CONTINUOUS
 62
    30
100
AcDbLine
 10
124.04275
 20
117.45125
 30
0.0
 11
124.04275
 21
114.95125
 31
0.0
  0
LINE
  5
147
100
AcDbEntity
  8
1
  6
CONTINUOUS
 62
    30
100
AcDbLine
 10
123.54275
 20
116.45125
 30
0.0
 11
123.54275
 21
115.45125
 31
0.0
  0
LINE
  5
148
100
AcDbEntity
  8
1
  6
CONTINUOUS
 62
    30
100
AcDbLine
 10
123.54275
 20
116.45125
 30
0.0
 11
124.04275
 21
116.45125
 31
0.0
  0
LINE
  5
149
100
AcDbEntity
  8
1
  6
CONTINUOUS
 62
    30
100
AcDbLine
 10
123.54275
 20
115.45125
 30
0.0
 11
124.04275
 21
115.45125
 31
0.0
  0
LINE
  5
14A
100
AcDbEntity
  8
1
  6
CONTINUOUS
 62
    30
100
AcDbLine
 10
121.79275
 20
116.95125
 30
0.0
 11
120.79275
 21
116.95125
 31
0.0
  0
LINE
  5
14B
100
AcDbEntity
  8
1
  6
CONTINUOUS
 62
    30
100
AcDbLine
 10
121.79275
 20
115.45125
 30
0.0
 11
120.79275
 21
115.45125
 31
0.0
  0
ARC
  5
14C
100
AcDbEntity
  8
1
  6
CONTINUOUS
 62
    30
100
AcDbCircle
 10
120.77727
 20
116.20125
 30
0.0
 40
0.75016
210
0.0
220
0.0
230
1.0
100
AcDbArc
 50
88.817583
 51
271.182419
  0
LINE
  5
14D
100
AcDbEntity
  8
1
  6
CONTINUOUS
 62
    30
100
AcDbLine
 10
120.79275
 20
119.45125
 30
0.0
 11
120.79275
 21
116.95125
 31
0.0
  0
LINE
  5
14E
100
AcDbEntity
  8
1
  6
CONTINUOUS
 62
    30
100
AcDbLine
 10
120.79275
 20
115.45125
 30
0.0
 11
120.79275
 21
91.45125
 31
0.0
  0
CIRCLE
  5
14F
100
AcDbEntity
  8
1
  6
CONTINUOUS
 62
    30
100
AcDbCircle
 10
120.79275
 20
116.20125
 30
0.0
 40
0.375
210
0.0
220
0.0
230
1.0
  0
ELLIPSE
  5
150
100
AcDbEntity
  8
1
  6
CONTINUOUS
 62
    30
100
AcDbEllipse
 10
119.54275
 20
117.95125
 30
0.0
 11
1.0
 21
0.0
 31
0.0
210
0.0
220
0.0
230
1.0
 40
0.5
 41
0.0
 42
6.2831753071795866
  0
ELLIPSE
  5
151
100
AcDbEntity
  8
1
  6
CONTINUOUS
 62
    30
100
AcDbEllipse
 10
119.54275
 20
92.95125
 30
0.0
 11
1.0
 21
0.0
 31
0.0
210
0.0
220
0.0
230
1.0
 40
0.5
 41
0.0
 42
6.2831753071795866
  0
ELLIPSE
  5
152
100
AcDbEntity
  8
1
  6
CONTINUOUS
 62
    30
100
AcDbEllipse
 10
119.54275
 20
101.07625
 30
0.0
 11
1.0
 21
0.0
 31
0.0
210
0.0
220
0.0
230
1.0
 40
0.5
 41
0.0
 42
6.2831753071795866
  0
ELLIPSE
  5
153
100
AcDbEntity
  8
1
  6
CONTINUOUS
 62
    30
100
AcDbEllipse
 10
119.54275
 20
109.82625
 30
0.0
 11
1.0
 21
0.0
 31
0.0
210
0.0
220
0.0
230
1.0
 40
0.5
 41
0.0
 42
6.2831753071795866
  0
LINE
  5
154
100
AcDbEntity
  8
1
  6
CONTINUOUS
 62
    30
100
AcDbLine
 10
128.29275
 20
91.45125
 30
0.0
 11
134.29275
 21
91.45125
 31
0.0
  0
LINE
  5
155
100
AcDbEntity
  8
1
  6
CONTINUOUS
 62
    30
100
AcDbLine
 10
117.29275
 20
91.45125
 30
0.0
 11
117.63475
 21
92.390917
 31
0.0
  0
LINE
  5
156
100
AcDbEntity
  8
1
  6
CONTINUOUS
 62
    30
100
AcDbLine
 10
117.63475
 20
92.390917
 30
0.0
 11
117.982083
 21
90.421333
 31
0.0
  0
LINE
  5
157
100
AcDbEntity
  8
1
  6
CONTINUOUS
 62
    30
100
AcDbLine
 10
117.982083
 20
90.421333
 30
0.0
 11
118.356917
 21
91.45125
 31
0.0
  0
LINE
  5
158
100
AcDbEntity
  8
1
  6
CONTINUOUS
 62
    30
100
AcDbLine
 10
127.95075
 20
90.511583
 30
0.0
 11
128.29275
 21
91.45125
 31
0.0
  0
LINE
  5
159
100
AcDbEntity
  8
1
  6
CONTINUOUS
 62
    30
100
AcDbLine
 10
127.228583
 20
91.45125
 30
0.0
 11
127.603417
 21
92.481167
 31
0.0
  0
LINE
  5
15A
100
AcDbEntity
  8
1
  6
CONTINUOUS
 62
    30
100
AcDbLine
 10
127.603417
 20
92.481167
 30
0.0
 11
127.95075
 21
90.511583
 31
0.0
  0
LINE
  5
15B
100
AcDbEntity
  8
1
  6
CONTINUOUS
 62
    30
100
AcDbLine
 10
111.79275
 20
91.45125
 30
0.0
 11
117.29275
 21
91.45125
 31
0.0
  0
LINE
  5
15C
100
AcDbEntity
  8
1
  6
CONTINUOUS
 62
    30
100
AcDbLine
 10
118.356917
 20
91.45125
 30
0.0
 11
127.228583
 21
91.45125
 31
0.0
  0
TEXT
  5
15D
100
AcDbEntity
  8
1
  6
CONTINUOUS
 62
     7
100
AcDbText
 10
43.722917
 20
77.066917
 30
0.0
 40
2.5
  1
NOTE:
  7
MONOTXT
 11
43.722917
 21
79.566917
 31
0.0
210
0.0
220
0.0
230
1.0
100
AcDbText
 73
     3
  0
TEXT
  5
15E
100
AcDbEntity
  8
1
  6
CONTINUOUS
 62
     7
100
AcDbText
 10
43.722917
 20
72.566917
 30
0.0
 40
2.5
  1
POST SHALL NOT EXTEND
  7
MONOTXT
 11
43.722917
 21
75.066917
 31
0.0
210
0.0
220
0.0
230
1.0
100
AcDbText
 73
     3
  0
TEXT
  5
15F
100
AcDbEntity
  8
1
  6
CONTINUOUS
 62
     7
100
AcDbText
 10
43.722917
 20
68.066917
 30
0.0
 40
2.5
  1
ABOVE TOP OF SIGN.
  7
MONOTXT
 11
43.722917
 21
70.566917
 31
0.0
210
0.0
220
0.0
230
1.0
100
AcDbText
 73
     3
  0
LINE
  5
160
100
AcDbEntity
  8
1
  6
CONTINUOUS
 62
   120
100
AcDbLine
 10
178.29275
 20
113.95125
 30
0.0
 11
217.79275
 21
113.95125
 31
0.0
  0
LINE
  5
161
100
AcDbEntity
  8
1
  6
CONTINUOUS
 62
   120
100
AcDbLine
 10
217.79275
 20
113.95125
 30
0.0
 11
217.79275
 21
96.95125
 31
0.0
  0
LINE
  5
162
100
AcDbEntity
  8
1
  6
CONTINUOUS
 62
   120
100
AcDbLine
 10
217.79275
 20
96.95125
 30
0.0
 11
178.29275
 21
96.95125
 31
0.0
  0
LINE
  5
163
100
AcDbEntity
  8
1
  6
CONTINUOUS
 62
   120
100
AcDbLine
 10
178.29275
 20
96.95125
 30
0.0
 11
178.29275
 21
113.95125
 31
0.0
  0
LINE
  5
164
100
AcDbEntity
  8
1
  6
HIDDEN
 62
   120
100
AcDbLine
 10
187.29275
 20
96.95125
 30
0.0
 11
187.29275
 21
113.95125
 31
0.0
  0
LINE
  5
165
100
AcDbEntity
  8
1
  6
HIDDEN
 62
   120
100
AcDbLine
 10
208.79275
 20
113.95125
 30
0.0
 11
208.79275
 21
96.95125
 31
0.0
  0
LINE
  5
166
100
AcDbEntity
  8
1
  6
HIDDEN
 62
   120
100
AcDbLine
 10
188.79275
 20
96.95125
 30
0.0
 11
188.79275
 21
113.95125
 31
0.0
  0
LINE
  5
167
100
AcDbEntity
  8
1
  6
HIDDEN
 62
   120
100
AcDbLine
 10
207.29275
 20
113.95125
 30
0.0
 11
207.29275
 21
96.95125
 31
0.0
  0
LINE
  5
168
100
AcDbEntity
  8
1
  6
CONTINUOUS
 62
   120
100
AcDbLine
 10
187.29275
 20
96.95125
 30
0.0
 11
187.29275
 21
81.95125
 31
0.0
  0
LINE
  5
169
100
AcDbEntity
  8
1
  6
CONTINUOUS
 62
   120
100
AcDbLine
 10
188.79275
 20
96.95125
 30
0.0
 11
188.79275
 21
81.95125
 31
0.0
  0
LINE
  5
16A
100
AcDbEntity
  8
1
  6
CONTINUOUS
 62
   120
100
AcDbLine
 10
208.79275
 20
96.95125
 30
0.0
 11
208.79275
 21
81.95125
 31
0.0
  0
LINE
  5
16B
100
AcDbEntity
  8
1
  6
CONTINUOUS
 62
   120
100
AcDbLine
 10
207.29275
 20
96.95125
 30
0.0
 11
207.29275
 21
81.95125
 31
0.0
  0
TEXT
  5
16C
100
AcDbEntity
  8
1
  6
CONTINUOUS
 62
     7
100
AcDbText
 10
110.415583
 20
417.142083
 30
0.0
 40
3.5
  1
SECTION MODULUS REQUIRED PER POLE
  7
MONOTXT
 72
     4
 11
164.99625
 21
418.892083
 31
0.0
210
0.0
220
0.0
230
1.0
100
AcDbText
  0
TEXT
  5
16D
100
AcDbEntity
  8
1
  6
CONTINUOUS
 62
     7
100
AcDbText
 10
263.052083
 20
200.586
 30
0.0
 40
7.0
  1
*
  7
TXT
 72
     4
 11
265.217833
 21
204.086
 31
0.0
210
0.0
220
0.0
230
1.0
100
AcDbText
  0
CIRCLE
  5
16E
100
AcDbEntity
  8
1
  6
CONTINUOUS
 62
     7
100
AcDbCircle
 10
255.76775
 20
233.783417
 30
0.0
 40
2.0
210
0.0
220
0.0
230
1.0
  0
LINE
  5
16F
100
AcDbEntity
  8
1
  6
HIDDEN
 62
   120
100
AcDbLine
 10
186.29275
 20
108.95125
 30
0.0
 11
189.79275
 21
108.95125
 31
0.0
  0
LINE
  5
170
100
AcDbEntity
  8
1
  6
HIDDEN
 62
   120
100
AcDbLine
 10
206.29275
 20
108.95125
 30
0.0
 11
209.79275
 21
108.95125
 31
0.0
  0
LINE
  5
171
100
AcDbEntity
  8
1
  6
HIDDEN
 62
   120
100
AcDbLine
 10
186.29275
 20
107.95125
 30
0.0
 11
189.79275
 21
107.95125
 31
0.0
  0
LINE
  5
172
100
AcDbEntity
  8
1
  6
HIDDEN
 62
   120
100
AcDbLine
 10
206.29275
 20
107.95125
 30
0.0
 11
209.79275
 21
107.95125
 31
0.0
  0
LINE
  5
173
100
AcDbEntity
  8
1
  6
HIDDEN
 62
   120
100
AcDbLine
 10
186.29275
 20
108.95125
 30
0.0
 11
186.29275
 21
107.95125
 31
0.0
  0
LINE
  5
174
100
AcDbEntity
  8
1
  6
HIDDEN
 62
   120
100
AcDbLine
 10
189.79275
 20
108.95125
 30
0.0
 11
189.79275
 21
107.95125
 31
0.0
  0
LINE
  5
175
100
AcDbEntity
  8
1
  6
HIDDEN
 62
   120
100
AcDbLine
 10
206.29275
 20
108.95125
 30
0.0
 11
206.29275
 21
107.95125
 31
0.0
  0
LINE
  5
176
100
AcDbEntity
  8
1
  6
HIDDEN
 62
   120
100
AcDbLine
 10
209.79275
 20
108.95125
 30
0.0
 11
209.79275
 21
107.95125
 31
0.0
  0
LINE
  5
177
100
AcDbEntity
  8
1
  6
HIDDEN
 62
   120
100
AcDbLine
 10
209.79275
 20
100.45125
 30
0.0
 11
206.29275
 21
100.45125
 31
0.0
  0
LINE
  5
178
100
AcDbEntity
  8
1
  6
HIDDEN
 62
   120
100
AcDbLine
 10
189.79275
 20
100.45125
 30
0.0
 11
186.29275
 21
100.45125
 31
0.0
  0
LINE
  5
179
100
AcDbEntity
  8
1
  6
HIDDEN
 62
   120
100
AcDbLine
 10
189.79275
 20
101.45125
 30
0.0
 11
186.29275
 21
101.45125
 31
0.0
  0
LINE
  5
17A
100
AcDbEntity
  8
1
  6
HIDDEN
 62
   120
100
AcDbLine
 10
209.79275
 20
101.45125
 30
0.0
 11
206.29275
 21
101.45125
 31
0.0
  0
LINE
  5
17B
100
AcDbEntity
  8
1
  6
HIDDEN
 62
   120
100
AcDbLine
 10
186.29275
 20
101.45125
 30
0.0
 11
186.29275
 21
100.45125
 31
0.0
  0
LINE
  5
17C
100
AcDbEntity
  8
1
  6
HIDDEN
 62
   120
100
AcDbLine
 10
189.79275
 20
101.45125
 30
0.0
 11
189.79275
 21
100.45125
 31
0.0
  0
LINE
  5
17D
100
AcDbEntity
  8
1
  6
HIDDEN
 62
   120
100
AcDbLine
 10
206.29275
 20
101.45125
 30
0.0
 11
206.29275
 21
100.45125
 31
0.0
  0
LINE
  5
17E
100
AcDbEntity
  8
1
  6
HIDDEN
 62
   120
100
AcDbLine
 10
209.79275
 20
101.45125
 30
0.0
 11
209.79275
 21
100.45125
 31
0.0
  0
LINE
  5
17F
100
AcDbEntity
  8
1
  6
HIDDEN
 62
   120
100
AcDbLine
 10
206.29275
 20
105.20125
 30
0.0
 11
206.29275
 21
104.20125
 31
0.0
  0
LINE
  5
180
100
AcDbEntity
  8
1
  6
HIDDEN
 62
   120
100
AcDbLine
 10
209.79275
 20
104.20125
 30
0.0
 11
206.29275
 21
104.20125
 31
0.0
  0
LINE
  5
181
100
AcDbEntity
  8
1
  6
HIDDEN
 62
   120
100
AcDbLine
 10
209.79275
 20
105.20125
 30
0.0
 11
206.29275
 21
105.20125
 31
0.0
  0
LINE
  5
182
100
AcDbEntity
  8
1
  6
HIDDEN
 62
   120
100
AcDbLine
 10
209.79275
 20
105.20125
 30
0.0
 11
209.79275
 21
104.20125
 31
0.0
  0
LINE
  5
183
100
AcDbEntity
  8
1
  6
CONTINUOUS
 62
   120
100
AcDbLine
 10
183.29275
 20
81.95125
 30
0.0
 11
187.29275
 21
81.95125
 31
0.0
  0
LINE
  5
184
100
AcDbEntity
  8
1
  6
CONTINUOUS
 62
   120
100
AcDbLine
 10
188.79275
 20
81.95125
 30
0.0
 11
192.79275
 21
81.95125
 31
0.0
  0
LINE
  5
185
100
AcDbEntity
  8
1
  6
CONTINUOUS
 62
   120
100
AcDbLine
 10
203.29275
 20
81.95125
 30
0.0
 11
207.29275
 21
81.95125
 31
0.0
  0
LINE
  5
186
100
AcDbEntity
  8
1
  6
CONTINUOUS
 62
   120
100
AcDbLine
 10
208.79275
 20
81.95125
 30
0.0
 11
212.79275
 21
81.95125
 31
0.0
  0
LINE
  5
187
100
AcDbEntity
  8
1
  6
CONTINUOUS
 62
   120
100
AcDbLine
 10
187.29275
 20
81.95125
 30
0.0
 11
187.63475
 21
82.890917
 31
0.0
  0
LINE
  5
188
100
AcDbEntity
  8
1
  6
CONTINUOUS
 62
   120
100
AcDbLine
 10
188.79275
 20
81.95125
 30
0.0
 11
188.45075
 21
81.011583
 31
0.0
  0
LINE
  5
189
100
AcDbEntity
  8
1
  6
CONTINUOUS
 62
   120
100
AcDbLine
 10
188.45075
 20
81.011583
 30
0.0
 11
187.63475
 21
82.890917
 31
0.0
  0
LINE
  5
18A
100
AcDbEntity
  8
1
  6
CONTINUOUS
 62
   120
100
AcDbLine
 10
208.79275
 20
81.95125
 30
0.0
 11
208.45075
 21
81.011583
 31
0.0
  0
LINE
  5
18B
100
AcDbEntity
  8
1
  6
CONTINUOUS
 62
   120
100
AcDbLine
 10
207.29275
 20
81.95125
 30
0.0
 11
207.63475
 21
82.890917
 31
0.0
  0
LINE
  5
18C
100
AcDbEntity
  8
1
  6
CONTINUOUS
 62
   120
100
AcDbLine
 10
208.45075
 20
81.011583
 30
0.0
 11
207.63475
 21
82.890917
 31
0.0
  0
LINE
  5
18D
100
AcDbEntity
  8
1
  6
CONTINUOUS
 62
     7
100
AcDbLine
 10
188.04275
 20
95.45125
 30
0.0
 11
188.04275
 21
91.95125
 31
0.0
  0
LINE
  5
18E
100
AcDbEntity
  8
1
  6
CONTINUOUS
 62
     7
100
AcDbLine
 10
188.04275
 20
90.45125
 30
0.0
 11
188.04275
 21
88.45125
 31
0.0
  0
LINE
  5
18F
100
AcDbEntity
  8
1
  6
CONTINUOUS
 62
     7
100
AcDbLine
 10
188.04275
 20
86.95125
 30
0.0
 11
188.04275
 21
83.45125
 31
0.0
  0
LINE
  5
190
100
AcDbEntity
  8
1
  6
CONTINUOUS
 62
     7
100
AcDbLine
 10
208.04275
 20
95.45125
 30
0.0
 11
208.04275
 21
91.95125
 31
0.0
  0
LINE
  5
191
100
AcDbEntity
  8
1
  6
CONTINUOUS
 62
     7
100
AcDbLine
 10
208.04275
 20
90.45125
 30
0.0
 11
208.04275
 21
88.45125
 31
0.0
  0
LINE
  5
192
100
AcDbEntity
  8
1
  6
CONTINUOUS
 62
     7
100
AcDbLine
 10
208.04275
 20
86.95125
 30
0.0
 11
208.04275
 21
83.45125
 31
0.0
  0
LINE
  5
193
100
AcDbEntity
  8
1
  6
CONTINUOUS
 62
     7
100
AcDbLine
 10
188.04275
 20
89.45125
 30
0.0
 11
208.04275
 21
89.45125
 31
0.0
  0
INSERT
  5
199
100
AcDbEntity
  8
1
  6
CONTINUOUS
 62
     1
100
AcDbBlockReference
  2
LDR
 10
188.04275
 20
89.45125
 30
0.0
 41
240.0
 42
240.0
 50
180.0
210
0.0
220
0.0
230
1.0
  0
INSERT
  5
19A
100
AcDbEntity
  8
1
  6
CONTINUOUS
 62
     1
100
AcDbBlockReference
  2
LDR
 10
208.04275
 20
89.45125
 30
0.0
 41
240.0
 42
240.0
210
0.0
220
0.0
230
1.0
  0
LINE
  5
19B
100
AcDbEntity
  8
1
  6
CONTINUOUS
 62
     7
100
AcDbLine
 10
178.29275
 20
95.95125
 30
0.0
 11
178.29275
 21
88.45125
 31
0.0
  0
LINE
  5
19C
100
AcDbEntity
  8
1
  6
CONTINUOUS
 62
     7
100
AcDbLine
 10
217.79275
 20
95.95125
 30
0.0
 11
217.79275
 21
88.45125
 31
0.0
  0
LINE
  5
19D
100
AcDbEntity
  8
1
  6
CONTINUOUS
 62
     7
100
AcDbLine
 10
178.29275
 20
89.45125
 30
0.0
 11
174.29275
 21
89.45125
 31
0.0
  0
LINE
  5
19E
100
AcDbEntity
  8
1
  6
CONTINUOUS
 62
     7
100
AcDbLine
 10
217.79275
 20
89.45125
 30
0.0
 11
221.79275
 21
89.45125
 31
0.0
  0
INSERT
  5
19F
100
AcDbEntity
  8
1
  6
CONTINUOUS
 62
     1
100
AcDbBlockReference
  2
LDR
 10
178.29275
 20
89.45125
 30
0.0
 41
240.0
 42
240.0
210
0.0
220
0.0
230
1.0
  0
INSERT
  5
1A0
100
AcDbEntity
  8
1
  6
CONTINUOUS
 62
     1
100
AcDbBlockReference
  2
LDR
 10
178.29275
 20
89.45125
 30
0.0
 41
240.0
 42
240.0
210
0.0
220
0.0
230
1.0
  0
INSERT
  5
1A1
100
AcDbEntity
  8
1
  6
CONTINUOUS
 62
     1
100
AcDbBlockReference
  2
LDR
 10
217.79275
 20
89.45125
 30
0.0
 41
240.0
 42
240.0
 50
180.0
210
0.0
220
0.0
230
1.0
  0
LINE
  5
1A2
100
AcDbEntity
  8
1
  6
CONTINUOUS
 62
     7
100
AcDbLine
 10
218.79275
 20
113.95125
 30
0.0
 11
229.79275
 21
113.95125
 31
0.0
  0
LINE
  5
1A3
100
AcDbEntity
  8
1
  6
CONTINUOUS
 62
     7
100
AcDbLine
 10
218.79275
 20
96.95125
 30
0.0
 11
229.79275
 21
96.95125
 31
0.0
  0
LINE
  5
1A4
100
AcDbEntity
  8
1
  6
CONTINUOUS
 62
     7
100
AcDbLine
 10
228.79275
 20
113.95125
 30
0.0
 11
228.79275
 21
96.95125
 31
0.0
  0
INSERT
  5
1A5
100
AcDbEntity
  8
1
  6
CONTINUOUS
 62
     1
100
AcDbBlockReference
  2
LDR
 10
228.79275
 20
113.95125
 30
0.0
 41
240.0
 42
240.0
 50
90.0
210
0.0
220
0.0
230
1.0
  0
INSERT
  5
1A6
100
AcDbEntity
  8
1
  6
CONTINUOUS
 62
     1
100
AcDbBlockReference
  2
LDR
 10
228.79275
 20
96.95125
 30
0.0
 41
240.0
 42
240.0
 50
270.0
210
0.0
220
0.0
230
1.0
  0
LINE
  5
1A7
100
AcDbEntity
  8
1
  6
CONTINUOUS
 62
     7
100
AcDbLine
 10
178.29275
 20
114.95125
 30
0.0
 11
178.29275
 21
123.95125
 31
0.0
  0
LINE
  5
1A8
100
AcDbEntity
  8
1
  6
CONTINUOUS
 62
     7
100
AcDbLine
 10
217.79275
 20
114.95125
 30
0.0
 11
217.79275
 21
123.95125
 31
0.0
  0
LINE
  5
1A9
100
AcDbEntity
  8
1
  6
CONTINUOUS
 62
     7
100
AcDbLine
 10
178.29275
 20
122.95125
 30
0.0
 11
217.79275
 21
122.95125
 31
0.0
  0
INSERT
  5
1AA
100
AcDbEntity
  8
1
  6
CONTINUOUS
 62
     1
100
AcDbBlockReference
  2
LDR
 10
178.29275
 20
122.95125
 30
0.0
 41
240.0
 42
240.0
 50
180.0
210
0.0
220
0.0
230
1.0
  0
INSERT
  5
1AB
100
AcDbEntity
  8
1
  6
CONTINUOUS
 62
     1
100
AcDbBlockReference
  2
LDR
 10
178.29275
 20
122.95125
 30
0.0
 41
240.0
 42
240.0
 50
180.0
210
0.0
220
0.0
230
1.0
  0
INSERT
  5
1AC
100
AcDbEntity
  8
1
  6
CONTINUOUS
 62
     1
100
AcDbBlockReference
  2
LDR
 10
217.79275
 20
122.95125
 30
0.0
 41
240.0
 42
240.0
210
0.0
220
0.0
230
1.0
  0
LINE
  5
1AD
100
AcDbEntity
  8
1
  6
CONTINUOUS
 62
   120
100
AcDbLine
 10
273.29275
 20
113.95125
 30
0.0
 11
332.79275
 21
113.95125
 31
0.0
  0
LINE
  5
1AE
100
AcDbEntity
  8
1
  6
CONTINUOUS
 62
   120
100
AcDbLine
 10
332.79275
 20
113.95125
 30
0.0
 11
332.79275
 21
96.95125
 31
0.0
  0
LINE
  5
1AF
100
AcDbEntity
  8
1
  6
CONTINUOUS
 62
   120
100
AcDbLine
 10
332.79275
 20
96.95125
 30
0.0
 11
273.29275
 21
96.95125
 31
0.0
  0
LINE
  5
1B0
100
AcDbEntity
  8
1
  6
HIDDEN
 62
   120
100
AcDbLine
 10
302.29275
 20
96.95125
 30
0.0
 11
302.29275
 21
113.95125
 31
0.0
  0
LINE
  5
1B1
100
AcDbEntity
  8
1
  6
HIDDEN
 62
   120
100
AcDbLine
 10
323.79275
 20
113.95125
 30
0.0
 11
323.79275
 21
96.95125
 31
0.0
  0
LINE
  5
1B2
100
AcDbEntity
  8
1
  6
HIDDEN
 62
   120
100
AcDbLine
 10
303.79275
 20
96.95125
 30
0.0
 11
303.79275
 21
113.95125
 31
0.0
  0
LINE
  5
1B3
100
AcDbEntity
  8
1
  6
HIDDEN
 62
   120
100
AcDbLine
 10
322.29275
 20
113.95125
 30
0.0
 11
322.29275
 21
96.95125
 31
0.0
  0
LINE
  5
1B4
100
AcDbEntity
  8
1
  6
CONTINUOUS
 62
   120
100
AcDbLine
 10
302.29275
 20
96.95125
 30
0.0
 11
302.29275
 21
81.95125
 31
0.0
  0
LINE
  5
1B5
100
AcDbEntity
  8
1
  6
CONTINUOUS
 62
   120
100
AcDbLine
 10
303.79275
 20
96.95125
 30
0.0
 11
303.79275
 21
81.95125
 31
0.0
  0
LINE
  5
1B6
100
AcDbEntity
  8
1
  6
CONTINUOUS
 62
   120
100
AcDbLine
 10
323.79275
 20
96.95125
 30
0.0
 11
323.79275
 21
81.95125
 31
0.0
  0
LINE
  5
1B7
100
AcDbEntity
  8
1
  6
CONTINUOUS
 62
   120
100
AcDbLine
 10
322.29275
 20
96.95125
 30
0.0
 11
322.29275
 21
81.95125
 31
0.0
  0
LINE
  5
1B8
100
AcDbEntity
  8
1
  6
HIDDEN
 62
   120
100
AcDbLine
 10
301.29275
 20
108.95125
 30
0.0
 11
304.79275
 21
108.95125
 31
0.0
  0
LINE
  5
1B9
100
AcDbEntity
  8
1
  6
HIDDEN
 62
   120
100
AcDbLine
 10
321.29275
 20
108.95125
 30
0.0
 11
324.79275
 21
108.95125
 31
0.0
  0
LINE
  5
1BA
100
AcDbEntity
  8
1
  6
HIDDEN
 62
   120
100
AcDbLine
 10
301.29275
 20
107.95125
 30
0.0
 11
304.79275
 21
107.95125
 31
0.0
  0
LINE
  5
1BB
100
AcDbEntity
  8
1
  6
HIDDEN
 62
   120
100
AcDbLine
 10
321.29275
 20
107.95125
 30
0.0
 11
324.79275
 21
107.95125
 31
0.0
  0
LINE
  5
1BC
100
AcDbEntity
  8
1
  6
HIDDEN
 62
   120
100
AcDbLine
 10
301.29275
 20
108.95125
 30
0.0
 11
301.29275
 21
107.95125
 31
0.0
  0
LINE
  5
1BD
100
AcDbEntity
  8
1
  6
HIDDEN
 62
   120
100
AcDbLine
 10
304.79275
 20
108.95125
 30
0.0
 11
304.79275
 21
107.95125
 31
0.0
  0
LINE
  5
1BE
100
AcDbEntity
  8
1
  6
HIDDEN
 62
   120
100
AcDbLine
 10
321.29275
 20
108.95125
 30
0.0
 11
321.29275
 21
107.95125
 31
0.0
  0
LINE
  5
1BF
100
AcDbEntity
  8
1
  6
HIDDEN
 62
   120
100
AcDbLine
 10
324.79275
 20
108.95125
 30
0.0
 11
324.79275
 21
107.95125
 31
0.0
  0
LINE
  5
1C0
100
AcDbEntity
  8
1
  6
HIDDEN
 62
   120
100
AcDbLine
 10
324.79275
 20
100.45125
 30
0.0
 11
321.29275
 21
100.45125
 31
0.0
  0
LINE
  5
1C1
100
AcDbEntity
  8
1
  6
HIDDEN
 62
   120
100
AcDbLine
 10
304.79275
 20
100.45125
 30
0.0
 11
301.29275
 21
100.45125
 31
0.0
  0
LINE
  5
1C2
100
AcDbEntity
  8
1
  6
HIDDEN
 62
   120
100
AcDbLine
 10
304.79275
 20
101.45125
 30
0.0
 11
301.29275
 21
101.45125
 31
0.0
  0
LINE
  5
1C3
100
AcDbEntity
  8
1
  6
HIDDEN
 62
   120
100
AcDbLine
 10
324.79275
 20
101.45125
 30
0.0
 11
321.29275
 21
101.45125
 31
0.0
  0
LINE
  5
1C4
100
AcDbEntity
  8
1
  6
HIDDEN
 62
   120
100
AcDbLine
 10
301.29275
 20
101.45125
 30
0.0
 11
301.29275
 21
100.45125
 31
0.0
  0
LINE
  5
1C5
100
AcDbEntity
  8
1
  6
HIDDEN
 62
   120
100
AcDbLine
 10
304.79275
 20
101.45125
 30
0.0
 11
304.79275
 21
100.45125
 31
0.0
  0
LINE
  5
1C6
100
AcDbEntity
  8
1
  6
HIDDEN
 62
   120
100
AcDbLine
 10
321.29275
 20
101.45125
 30
0.0
 11
321.29275
 21
100.45125
 31
0.0
  0
LINE
  5
1C7
100
AcDbEntity
  8
1
  6
HIDDEN
 62
   120
100
AcDbLine
 10
324.79275
 20
101.45125
 30
0.0
 11
324.79275
 21
100.45125
 31
0.0
  0
LINE
  5
1C8
100
AcDbEntity
  8
1
  6
HIDDEN
 62
   120
100
AcDbLine
 10
321.29275
 20
105.20125
 30
0.0
 11
321.29275
 21
104.20125
 31
0.0
  0
LINE
  5
1C9
100
AcDbEntity
  8
1
  6
HIDDEN
 62
   120
100
AcDbLine
 10
324.79275
 20
104.20125
 30
0.0
 11
321.29275
 21
104.20125
 31
0.0
  0
LINE
  5
1CA
100
AcDbEntity
  8
1
  6
HIDDEN
 62
   120
100
AcDbLine
 10
324.79275
 20
105.20125
 30
0.0
 11
321.29275
 21
105.20125
 31
0.0
  0
LINE
  5
1CB
100
AcDbEntity
  8
1
  6
HIDDEN
 62
   120
100
AcDbLine
 10
324.79275
 20
105.20125
 30
0.0
 11
324.79275
 21
104.20125
 31
0.0
  0
LINE
  5
1CC
100
AcDbEntity
  8
1
  6
CONTINUOUS
 62
   120
100
AcDbLine
 10
298.29275
 20
81.95125
 30
0.0
 11
302.29275
 21
81.95125
 31
0.0
  0
LINE
  5
1CD
100
AcDbEntity
  8
1
  6
CONTINUOUS
 62
   120
100
AcDbLine
 10
303.79275
 20
81.95125
 30
0.0
 11
307.79275
 21
81.95125
 31
0.0
  0
LINE
  5
1CE
100
AcDbEntity
  8
1
  6
CONTINUOUS
 62
   120
100
AcDbLine
 10
318.29275
 20
81.95125
 30
0.0
 11
322.29275
 21
81.95125
 31
0.0
  0
LINE
  5
1CF
100
AcDbEntity
  8
1
  6
CONTINUOUS
 62
   120
100
AcDbLine
 10
323.79275
 20
81.95125
 30
0.0
 11
327.79275
 21
81.95125
 31
0.0
  0
LINE
  5
1D0
100
AcDbEntity
  8
1
  6
CONTINUOUS
 62
   120
100
AcDbLine
 10
302.29275
 20
81.95125
 30
0.0
 11
302.63475
 21
82.890917
 31
0.0
  0
LINE
  5
1D1
100
AcDbEntity
  8
1
  6
CONTINUOUS
 62
   120
100
AcDbLine
 10
303.79275
 20
81.95125
 30
0.0
 11
303.45075
 21
81.011583
 31
0.0
  0
LINE
  5
1D2
100
AcDbEntity
  8
1
  6
CONTINUOUS
 62
   120
100
AcDbLine
 10
303.45075
 20
81.011583
 30
0.0
 11
302.63475
 21
82.890917
 31
0.0
  0
LINE
  5
1D3
100
AcDbEntity
  8
1
  6
CONTINUOUS
 62
   120
100
AcDbLine
 10
323.79275
 20
81.95125
 30
0.0
 11
323.45075
 21
81.011583
 31
0.0
  0
LINE
  5
1D4
100
AcDbEntity
  8
1
  6
CONTINUOUS
 62
   120
100
AcDbLine
 10
322.29275
 20
81.95125
 30
0.0
 11
322.63475
 21
82.890917
 31
0.0
  0
LINE
  5
1D5
100
AcDbEntity
  8
1
  6
CONTINUOUS
 62
   120
100
AcDbLine
 10
323.45075
 20
81.011583
 30
0.0
 11
322.63475
 21
82.890917
 31
0.0
  0
LINE
  5
1D6
100
AcDbEntity
  8
1
  6
CONTINUOUS
 62
     7
100
AcDbLine
 10
303.04275
 20
95.45125
 30
0.0
 11
303.04275
 21
91.95125
 31
0.0
  0
LINE
  5
1D7
100
AcDbEntity
  8
1
  6
CONTINUOUS
 62
     7
100
AcDbLine
 10
303.04275
 20
90.45125
 30
0.0
 11
303.04275
 21
88.45125
 31
0.0
  0
LINE
  5
1D8
100
AcDbEntity
  8
1
  6
CONTINUOUS
 62
     7
100
AcDbLine
 10
303.04275
 20
86.95125
 30
0.0
 11
303.04275
 21
83.45125
 31
0.0
  0
LINE
  5
1D9
100
AcDbEntity
  8
1
  6
CONTINUOUS
 62
     7
100
AcDbLine
 10
323.04275
 20
95.45125
 30
0.0
 11
323.04275
 21
91.95125
 31
0.0
  0
LINE
  5
1DA
100
AcDbEntity
  8
1
  6
CONTINUOUS
 62
     7
100
AcDbLine
 10
323.04275
 20
90.45125
 30
0.0
 11
323.04275
 21
88.45125
 31
0.0
  0
LINE
  5
1DB
100
AcDbEntity
  8
1
  6
CONTINUOUS
 62
     7
100
AcDbLine
 10
323.04275
 20
86.95125
 30
0.0
 11
323.04275
 21
83.45125
 31
0.0
  0
LINE
  5
1DC
100
AcDbEntity
  8
1
  6
CONTINUOUS
 62
     7
100
AcDbLine
 10
303.04275
 20
89.45125
 30
0.0
 11
323.04275
 21
89.45125
 31
0.0
  0
INSERT
  5
1DD
100
AcDbEntity
  8
1
  6
CONTINUOUS
 62
     1
100
AcDbBlockReference
  2
LDR
 10
303.04275
 20
89.45125
 30
0.0
 41
240.0
 42
240.0
 50
180.0
210
0.0
220
0.0
230
1.0
  0
INSERT
  5
1DE
100
AcDbEntity
  8
1
  6
CONTINUOUS
 62
     1
100
AcDbBlockReference
  2
LDR
 10
323.04275
 20
89.45125
 30
0.0
 41
240.0
 42
240.0
210
0.0
220
0.0
230
1.0
  0
LINE
  5
1DF
100
AcDbEntity
  8
1
  6
CONTINUOUS
 62
     7
100
AcDbLine
 10
273.29275
 20
95.95125
 30
0.0
 11
273.29275
 21
88.45125
 31
0.0
  0
LINE
  5
1E0
100
AcDbEntity
  8
1
  6
CONTINUOUS
 62
     7
100
AcDbLine
 10
332.79275
 20
95.95125
 30
0.0
 11
332.79275
 21
88.45125
 31
0.0
  0
LINE
  5
1E1
100
AcDbEntity
  8
1
  6
CONTINUOUS
 62
     7
100
AcDbLine
 10
273.29275
 20
89.45125
 30
0.0
 11
269.29275
 21
89.45125
 31
0.0
  0
LINE
  5
1E2
100
AcDbEntity
  8
1
  6
CONTINUOUS
 62
     7
100
AcDbLine
 10
332.79275
 20
89.45125
 30
0.0
 11
336.79275
 21
89.45125
 31
0.0
  0
INSERT
  5
1E3
100
AcDbEntity
  8
1
  6
CONTINUOUS
 62
     1
100
AcDbBlockReference
  2
LDR
 10
273.29275
 20
89.45125
 30
0.0
 41
240.0
 42
240.0
210
0.0
220
0.0
230
1.0
  0
INSERT
  5
1E4
100
AcDbEntity
  8
1
  6
CONTINUOUS
 62
     1
100
AcDbBlockReference
  2
LDR
 10
273.29275
 20
89.45125
 30
0.0
 41
240.0
 42
240.0
210
0.0
220
0.0
230
1.0
  0
INSERT
  5
1E5
100
AcDbEntity
  8
1
  6
CONTINUOUS
 62
     1
100
AcDbBlockReference
  2
LDR
 10
332.79275
 20
89.45125
 30
0.0
 41
240.0
 42
240.0
 50
180.0
210
0.0
220
0.0
230
1.0
  0
LINE
  5
1E6
100
AcDbEntity
  8
1
  6
CONTINUOUS
 62
     7
100
AcDbLine
 10
333.79275
 20
113.95125
 30
0.0
 11
344.79275
 21
113.95125
 31
0.0
  0
LINE
  5
1E7
100
AcDbEntity
  8
1
  6
CONTINUOUS
 62
     7
100
AcDbLine
 10
333.79275
 20
96.95125
 30
0.0
 11
344.79275
 21
96.95125
 31
0.0
  0
LINE
  5
1E8
100
AcDbEntity
  8
1
  6
CONTINUOUS
 62
     7
100
AcDbLine
 10
343.79275
 20
113.95125
 30
0.0
 11
343.79275
 21
96.95125
 31
0.0
  0
INSERT
  5
1E9
100
AcDbEntity
  8
1
  6
CONTINUOUS
 62
     1
100
AcDbBlockReference
  2
LDR
 10
343.79275
 20
113.95125
 30
0.0
 41
240.0
 42
240.0
 50
90.0
210
0.0
220
0.0
230
1.0
  0
INSERT
  5
1EA
100
AcDbEntity
  8
1
  6
CONTINUOUS
 62
     1
100
AcDbBlockReference
  2
LDR
 10
343.79275
 20
96.95125
 30
0.0
 41
240.0
 42
240.0
 50
270.0
210
0.0
220
0.0
230
1.0
  0
LINE
  5
1EB
100
AcDbEntity
  8
1
  6
CONTINUOUS
 62
     7
100
AcDbLine
 10
273.29275
 20
114.95125
 30
0.0
 11
273.29275
 21
123.95125
 31
0.0
  0
LINE
  5
1EC
100
AcDbEntity
  8
1
  6
CONTINUOUS
 62
     7
100
AcDbLine
 10
332.79275
 20
114.95125
 30
0.0
 11
332.79275
 21
123.95125
 31
0.0
  0
LINE
  5
1ED
100
AcDbEntity
  8
1
  6
CONTINUOUS
 62
     7
100
AcDbLine
 10
273.29275
 20
122.95125
 30
0.0
 11
332.79275
 21
122.95125
 31
0.0
  0
INSERT
  5
1EE
100
AcDbEntity
  8
1
  6
CONTINUOUS
 62
     1
100
AcDbBlockReference
  2
LDR
 10
332.79275
 20
122.95125
 30
0.0
 41
240.0
 42
240.0
210
0.0
220
0.0
230
1.0
  0
LINE
  5
1EF
100
AcDbEntity
  8
1
  6
HIDDEN
 62
   120
100
AcDbLine
 10
283.79275
 20
96.95125
 30
0.0
 11
283.79275
 21
113.95125
 31
0.0
  0
LINE
  5
1F0
100
AcDbEntity
  8
1
  6
CONTINUOUS
 62
   120
100
AcDbLine
 10
283.79275
 20
96.95125
 30
0.0
 11
283.79275
 21
81.95125
 31
0.0
  0
LINE
  5
1F1
100
AcDbEntity
  8
1
  6
HIDDEN
 62
   120
100
AcDbLine
 10
282.29275
 20
96.95125
 30
0.0
 11
282.29275
 21
113.95125
 31
0.0
  0
LINE
  5
1F2
100
AcDbEntity
  8
1
  6
CONTINUOUS
 62
   120
100
AcDbLine
 10
282.29275
 20
96.95125
 30
0.0
 11
282.29275
 21
81.95125
 31
0.0
  0
LINE
  5
1F3
100
AcDbEntity
  8
1
  6
CONTINUOUS
 62
   120
100
AcDbLine
 10
273.29275
 20
96.95125
 30
0.0
 11
273.29275
 21
113.95125
 31
0.0
  0
LINE
  5
1F4
100
AcDbEntity
  8
1
  6
CONTINUOUS
 62
     7
100
AcDbLine
 10
283.04275
 20
95.45125
 30
0.0
 11
283.04275
 21
91.95125
 31
0.0
  0
LINE
  5
1F5
100
AcDbEntity
  8
1
  6
CONTINUOUS
 62
     7
100
AcDbLine
 10
283.04275
 20
90.45125
 30
0.0
 11
283.04275
 21
88.45125
 31
0.0
  0
LINE
  5
1F6
100
AcDbEntity
  8
1
  6
CONTINUOUS
 62
     7
100
AcDbLine
 10
283.04275
 20
86.95125
 30
0.0
 11
283.04275
 21
83.45125
 31
0.0
  0
LINE
  5
1F7
100
AcDbEntity
  8
1
  6
CONTINUOUS
 62
   120
100
AcDbLine
 10
283.79275
 20
81.95125
 30
0.0
 11
287.79275
 21
81.95125
 31
0.0
  0
LINE
  5
1F8
100
AcDbEntity
  8
1
  6
CONTINUOUS
 62
   120
100
AcDbLine
 10
278.29275
 20
81.95125
 30
0.0
 11
282.29275
 21
81.95125
 31
0.0
  0
LINE
  5
1F9
100
AcDbEntity
  8
1
  6
CONTINUOUS
 62
   120
100
AcDbLine
 10
282.29275
 20
81.95125
 30
0.0
 11
282.63475
 21
82.890917
 31
0.0
  0
LINE
  5
1FA
100
AcDbEntity
  8
1
  6
CONTINUOUS
 62
   120
100
AcDbLine
 10
283.79275
 20
81.95125
 30
0.0
 11
283.45075
 21
81.011583
 31
0.0
  0
LINE
  5
1FB
100
AcDbEntity
  8
1
  6
CONTINUOUS
 62
   120
100
AcDbLine
 10
283.45075
 20
81.011583
 30
0.0
 11
282.63475
 21
82.890917
 31
0.0
  0
LINE
  5
1FC
100
AcDbEntity
  8
1
  6
CONTINUOUS
 62
     7
100
AcDbLine
 10
303.04275
 20
89.45125
 30
0.0
 11
283.04275
 21
89.45125
 31
0.0
  0
INSERT
  5
1FD
100
AcDbEntity
  8
1
  6
CONTINUOUS
 62
     1
100
AcDbBlockReference
  2
LDR
 10
303.04275
 20
89.45125
 30
0.0
 41
240.0
 42
240.0
210
0.0
220
0.0
230
1.0
  0
INSERT
  5
1FE
100
AcDbEntity
  8
1
  6
CONTINUOUS
 62
     1
100
AcDbBlockReference
  2
LDR
 10
303.04275
 20
89.45125
 30
0.0
 41
240.0
 42
240.0
210
0.0
220
0.0
230
1.0
  0
INSERT
  5
1FF
100
AcDbEntity
  8
1
  6
CONTINUOUS
 62
     1
100
AcDbBlockReference
  2
LDR
 10
283.04275
 20
89.45125
 30
0.0
 41
240.0
 42
240.0
 50
180.0
210
0.0
220
0.0
230
1.0
  0
INSERT
  5
200
100
AcDbEntity
  8
1
  6
CONTINUOUS
 62
     1
100
AcDbBlockReference
  2
LDR
 10
273.29275
 20
122.95125
 30
0.0
 41
240.0
 42
240.0
 50
180.0
210
0.0
220
0.0
230
1.0
  0
LINE
  5
201
100
AcDbEntity
  8
1
  6
HIDDEN
 62
   120
100
AcDbLine
 10
281.29275
 20
107.95125
 30
0.0
 11
284.79275
 21
107.95125
 31
0.0
  0
LINE
  5
202
100
AcDbEntity
  8
1
  6
HIDDEN
 62
   120
100
AcDbLine
 10
281.29275
 20
108.95125
 30
0.0
 11
284.79275
 21
108.95125
 31
0.0
  0
LINE
  5
203
100
AcDbEntity
  8
1
  6
HIDDEN
 62
   120
100
AcDbLine
 10
281.29275
 20
108.95125
 30
0.0
 11
281.29275
 21
107.95125
 31
0.0
  0
LINE
  5
204
100
AcDbEntity
  8
1
  6
HIDDEN
 62
   120
100
AcDbLine
 10
284.79275
 20
100.45125
 30
0.0
 11
281.29275
 21
100.45125
 31
0.0
  0
LINE
  5
205
100
AcDbEntity
  8
1
  6
HIDDEN
 62
   120
100
AcDbLine
 10
284.79275
 20
101.45125
 30
0.0
 11
281.29275
 21
101.45125
 31
0.0
  0
LINE
  5
206
100
AcDbEntity
  8
1
  6
HIDDEN
 62
   120
100
AcDbLine
 10
281.29275
 20
101.45125
 30
0.0
 11
281.29275
 21
100.45125
 31
0.0
  0
LINE
  5
207
100
AcDbEntity
  8
1
  6
HIDDEN
 62
   120
100
AcDbLine
 10
284.79275
 20
101.45125
 30
0.0
 11
284.79275
 21
100.45125
 31
0.0
  0
LINE
  5
208
100
AcDbEntity
  8
1
  6
HIDDEN
 62
   120
100
AcDbLine
 10
284.79275
 20
108.95125
 30
0.0
 11
284.79275
 21
107.95125
 31
0.0
  0
TEXT
  5
209
100
AcDbEntity
  8
1
  6
CONTINUOUS
 62
     7
100
AcDbText
 10
186.545333
 20
123.975
 30
0.0
 40
2.5
  1
"L" LENGTH
  7
MONOTXT
 72
     4
 11
197.539333
 21
125.225
 31
0.0
210
0.0
220
0.0
230
1.0
100
AcDbText
  0
TEXT
  5
20A
100
AcDbEntity
  8
1
  6
CONTINUOUS
 62
     7
100
AcDbText
 10
291.130917
 20
123.821333
 30
0.0
 40
2.5
  1
"L" LENGTH
  7
MONOTXT
 72
     4
 11
302.124917
 21
125.071333
 31
0.0
210
0.0
220
0.0
230
1.0
100
AcDbText
  0
TEXT
  5
20B
100
AcDbEntity
  8
1
  6
CONTINUOUS
 62
     7
100
AcDbText
 10
230.0545
 20
104.157167
 30
0.0
 40
2.5
  1
"W" WIDTH
  7
MONOTXT
 72
     4
 11
239.9265
 21
105.407167
 31
0.0
210
0.0
220
0.0
230
1.0
100
AcDbText
  0
TEXT
  5
20C
100
AcDbEntity
  8
1
  6
CONTINUOUS
 62
     7
100
AcDbText
 10
178.81375
 20
87.872667
 30
0.0
 40
2.5
  1
.20L
  7
MONOTXT
 72
     4
 11
182.642417
 21
89.122667
 31
0.0
210
0.0
220
0.0
230
1.0
100
AcDbText
  0
TEXT
  5
20D
100
AcDbEntity
  8
1
  6
CONTINUOUS
 62
     7
100
AcDbText
 10
209.3755
 20
88.333583
 30
0.0
 40
2.5
  1
.20L
  7
MONOTXT
 72
     4
 11
213.204167
 21
89.583583
 31
0.0
210
0.0
220
0.0
230
1.0
100
AcDbText
  0
TEXT
  5
20E
100
AcDbEntity
  8
1
  6
CONTINUOUS
 62
     7
100
AcDbText
 10
193.76975
 20
90.33075
 30
0.0
 40
2.5
  1
.60L
  7
MONOTXT
 72
     4
 11
197.539417
 21
91.58075
 31
0.0
210
0.0
220
0.0
230
1.0
100
AcDbText
  0
TEXT
  5
20F
100
AcDbEntity
  8
1
  6
CONTINUOUS
 62
     7
100
AcDbText
 10
274.338167
 20
88.247833
 30
0.0
 40
2.5
  1
.14L
  7
MONOTXT
 72
     4
 11
277.694417
 21
89.497833
 31
0.0
210
0.0
220
0.0
230
1.0
100
AcDbText
  0
TEXT
  5
210
100
AcDbEntity
  8
1
  6
CONTINUOUS
 62
     7
100
AcDbText
 10
324.77325
 20
88.436833
 30
0.0
 40
2.5
  1
.14L
  7
MONOTXT
 72
     4
 11
328.1295
 21
89.686833
 31
0.0
210
0.0
220
0.0
230
1.0
100
AcDbText
  0
TEXT
  5
211
100
AcDbEntity
  8
1
  6
CONTINUOUS
 62
     7
100
AcDbText
 10
160.281917
 20
69.185
 30
0.0
 40
3.5
  1
POST SPACING AND CLAMP SPACING DETAIL
  7
MONOTXT
 72
     4
 11
220.56725
 21
70.935
 31
0.0
210
0.0
220
0.0
230
1.0
100
AcDbText
  0
LINE
  5
212
100
AcDbEntity
  8
1
  6
CONTINUOUS
 62
     7
100
AcDbLine
 10
158.497
 20
67.80875
 30
0.0
 11
282.535833
 21
67.80875
 31
0.0
  0
LINE
  5
213
100
AcDbEntity
  8
1
  6
CONTINUOUS
 62
     2
100
AcDbLine
 10
397.206083
 20
177.733
 30
0.0
 11
397.206083
 21
128.733
 31
0.0
  0
LINE
  5
214
100
AcDbEntity
  8
1
  6
CONTINUOUS
 62
     2
100
AcDbLine
 10
400.206083
 20
177.733
 30
0.0
 11
400.206083
 21
128.733
 31
0.0
  0
LINE
  5
215
100
AcDbEntity
  8
1
  6
CONTINUOUS
 62
     2
100
AcDbLine
 10
395.706083
 20
172.233
 30
0.0
 11
395.706083
 21
134.233
 31
0.0
  0
LINE
  5
216
100
AcDbEntity
  8
1
  6
CONTINUOUS
 62
     2
100
AcDbLine
 10
395.706083
 20
172.233
 30
0.0
 11
397.206083
 21
172.233
 31
0.0
  0
LINE
  5
217
100
AcDbEntity
  8
1
  6
CONTINUOUS
 62
     2
100
AcDbLine
 10
395.706083
 20
134.233
 30
0.0
 11
397.206083
 21
134.233
 31
0.0
  0
LINE
  5
218
100
AcDbEntity
  8
1
  6
CONTINUOUS
 62
     2
100
AcDbLine
 10
394.706083
 20
168.233
 30
0.0
 11
395.706083
 21
168.233
 31
0.0
  0
LINE
  5
219
100
AcDbEntity
  8
1
  6
CONTINUOUS
 62
     2
100
AcDbLine
 10
394.706083
 20
138.233
 30
0.0
 11
395.706083
 21
138.233
 31
0.0
  0
LINE
  5
21A
100
AcDbEntity
  8
1
  6
CONTINUOUS
 62
     2
100
AcDbLine
 10
394.706083
 20
168.233
 30
0.0
 11
394.706083
 21
157.983
 31
0.0
  0
LINE
  5
21B
100
AcDbEntity
  8
1
  6
CONTINUOUS
 62
     2
100
AcDbLine
 10
394.706083
 20
148.483
 30
0.0
 11
394.706083
 21
138.233
 31
0.0
  0
LINE
  5
21C
100
AcDbEntity
  8
1
  6
CONTINUOUS
 62
     2
100
AcDbLine
 10
394.706083
 20
157.983
 30
0.0
 11
395.706083
 21
157.983
 31
0.0
  0
LINE
  5
21D
100
AcDbEntity
  8
1
  6
CONTINUOUS
 62
     2
100
AcDbLine
 10
394.706083
 20
148.483
 30
0.0
 11
395.706083
 21
148.483
 31
0.0
  0
LINE
  5
21E
100
AcDbEntity
  8
1
  6
CONTINUOUS
 62
     2
100
AcDbLine
 10
394.706083
 20
167.233
 30
0.0
 11
390.706083
 21
167.233
 31
0.0
  0
LINE
  5
21F
100
AcDbEntity
  8
1
  6
CONTINUOUS
 62
     2
100
AcDbLine
 10
394.706083
 20
158.983
 30
0.0
 11
390.706083
 21
158.983
 31
0.0
  0
LINE
  5
220
100
AcDbEntity
  8
1
  6
CONTINUOUS
 62
     2
100
AcDbLine
 10
394.706083
 20
147.483
 30
0.0
 11
390.706083
 21
147.483
 31
0.0
  0
LINE
  5
221
100
AcDbEntity
  8
1
  6
CONTINUOUS
 62
     2
100
AcDbLine
 10
394.706083
 20
139.233
 30
0.0
 11
390.706083
 21
139.233
 31
0.0
  0
LINE
  5
222
100
AcDbEntity
  8
1
  6
CONTINUOUS
 62
     2
100
AcDbLine
 10
394.706083
 20
165.233
 30
0.0
 11
390.706083
 21
165.233
 31
0.0
  0
LINE
  5
223
100
AcDbEntity
  8
1
  6
CONTINUOUS
 62
     2
100
AcDbLine
 10
394.706083
 20
160.983
 30
0.0
 11
390.706083
 21
160.983
 31
0.0
  0
LINE
  5
224
100
AcDbEntity
  8
1
  6
CONTINUOUS
 62
     2
100
AcDbLine
 10
394.706083
 20
145.483
 30
0.0
 11
390.706083
 21
145.483
 31
0.0
  0
LINE
  5
225
100
AcDbEntity
  8
1
  6
CONTINUOUS
 62
     2
100
AcDbLine
 10
394.706083
 20
141.233
 30
0.0
 11
390.706083
 21
141.233
 31
0.0
  0
ARC
  5
226
100
AcDbEntity
  8
1
  6
CONTINUOUS
 62
     2
100
AcDbCircle
 10
392.463896
 20
163.108
 30
0.0
 40
2.757813
210
0.0
220
0.0
230
1.0
100
AcDbArc
 50
129.597753
 51
230.402247
  0
ARC
  5
227
100
AcDbEntity
  8
1
  6
CONTINUOUS
 62
     2
100
AcDbCircle
 10
390.663218
 20
166.233
 30
0.0
 40
1.000918
210
0.0
220
0.0
230
1.0
100
AcDbArc
 50
87.545528
 51
272.454475
  0
ARC
  5
228
100
AcDbEntity
  8
1
  6
CONTINUOUS
 62
     2
100
AcDbCircle
 10
390.663218
 20
159.983
 30
0.0
 40
1.000918
210
0.0
220
0.0
230
1.0
100
AcDbArc
 50
87.545528
 51
272.454475
  0
LINE
  5
229
100
AcDbEntity
  8
1
  6
CONTINUOUS
 62
     2
100
AcDbLine
 10
389.662333
 20
166.233
 30
0.0
 11
389.662333
 21
159.983
 31
0.0
  0
ARC
  5
22A
100
AcDbEntity
  8
1
  6
CONTINUOUS
 62
     2
100
AcDbCircle
 10
390.663218
 20
140.233
 30
0.0
 40
1.000918
210
0.0
220
0.0
230
1.0
100
AcDbArc
 50
87.545528
 51
272.454475
  0
ARC
  5
22B
100
AcDbEntity
  8
1
  6
CONTINUOUS
 62
     2
100
AcDbCircle
 10
392.463896
 20
143.358
 30
0.0
 40
2.757813
210
0.0
220
0.0
230
1.0
100
AcDbArc
 50
129.597753
 51
230.402247
  0
ARC
  5
22C
100
AcDbEntity
  8
1
  6
CONTINUOUS
 62
     2
100
AcDbCircle
 10
390.663218
 20
146.483
 30
0.0
 40
1.000918
210
0.0
220
0.0
230
1.0
100
AcDbArc
 50
87.545528
 51
272.454475
  0
LINE
  5
22D
100
AcDbEntity
  8
1
  6
CONTINUOUS
 62
     2
100
AcDbLine
 10
389.662333
 20
146.483
 30
0.0
 11
389.662333
 21
140.233
 31
0.0
  0
LINE
  5
22E
100
AcDbEntity
  8
1
  6
CONTINUOUS
 62
     2
100
AcDbLine
 10
406.249833
 20
166.233
 30
0.0
 11
406.249833
 21
159.983
 31
0.0
  0
LINE
  5
22F
100
AcDbEntity
  8
1
  6
CONTINUOUS
 62
     2
100
AcDbLine
 10
401.206083
 20
168.233
 30
0.0
 11
400.206083
 21
168.233
 31
0.0
  0
LINE
  5
230
100
AcDbEntity
  8
1
  6
CONTINUOUS
 62
     2
100
AcDbLine
 10
401.206083
 20
138.233
 30
0.0
 11
400.206083
 21
138.233
 31
0.0
  0
LINE
  5
231
100
AcDbEntity
  8
1
  6
CONTINUOUS
 62
     2
100
AcDbLine
 10
401.206083
 20
168.233
 30
0.0
 11
401.206083
 21
157.983
 31
0.0
  0
LINE
  5
232
100
AcDbEntity
  8
1
  6
CONTINUOUS
 62
     2
100
AcDbLine
 10
401.206083
 20
148.483
 30
0.0
 11
401.206083
 21
138.233
 31
0.0
  0
LINE
  5
233
100
AcDbEntity
  8
1
  6
CONTINUOUS
 62
     2
100
AcDbLine
 10
401.206083
 20
157.983
 30
0.0
 11
400.206083
 21
157.983
 31
0.0
  0
LINE
  5
234
100
AcDbEntity
  8
1
  6
CONTINUOUS
 62
     2
100
AcDbLine
 10
401.206083
 20
148.483
 30
0.0
 11
400.206083
 21
148.483
 31
0.0
  0
LINE
  5
235
100
AcDbEntity
  8
1
  6
CONTINUOUS
 62
     2
100
AcDbLine
 10
401.206083
 20
167.233
 30
0.0
 11
405.206083
 21
167.233
 31
0.0
  0
LINE
  5
236
100
AcDbEntity
  8
1
  6
CONTINUOUS
 62
     2
100
AcDbLine
 10
401.206083
 20
158.983
 30
0.0
 11
405.206083
 21
158.983
 31
0.0
  0
LINE
  5
237
100
AcDbEntity
  8
1
  6
CONTINUOUS
 62
     2
100
AcDbLine
 10
401.206083
 20
147.483
 30
0.0
 11
405.206083
 21
147.483
 31
0.0
  0
LINE
  5
238
100
AcDbEntity
  8
1
  6
CONTINUOUS
 62
     2
100
AcDbLine
 10
401.206083
 20
139.233
 30
0.0
 11
405.206083
 21
139.233
 31
0.0
  0
LINE
  5
239
100
AcDbEntity
  8
1
  6
CONTINUOUS
 62
     2
100
AcDbLine
 10
401.206083
 20
165.233
 30
0.0
 11
405.206083
 21
165.233
 31
0.0
  0
LINE
  5
23A
100
AcDbEntity
  8
1
  6
CONTINUOUS
 62
     2
100
AcDbLine
 10
401.206083
 20
160.983
 30
0.0
 11
405.206083
 21
160.983
 31
0.0
  0
LINE
  5
23B
100
AcDbEntity
  8
1
  6
CONTINUOUS
 62
     2
100
AcDbLine
 10
401.206083
 20
145.483
 30
0.0
 11
405.206083
 21
145.483
 31
0.0
  0
LINE
  5
23C
100
AcDbEntity
  8
1
  6
CONTINUOUS
 62
     2
100
AcDbLine
 10
401.206083
 20
141.233
 30
0.0
 11
405.206083
 21
141.233
 31
0.0
  0
ARC
  5
23D
100
AcDbEntity
  8
1
  6
CONTINUOUS
 62
     2
100
AcDbCircle
 10
403.448271
 20
163.108
 30
0.0
 40
2.757813
210
0.0
220
0.0
230
1.0
100
AcDbArc
 50
309.597753
 51
50.402247
  0
ARC
  5
23E
100
AcDbEntity
  8
1
  6
CONTINUOUS
 62
     2
100
AcDbCircle
 10
405.248948
 20
166.233
 30
0.0
 40
1.000918
210
0.0
220
0.0
230
1.0
100
AcDbArc
 50
267.545525
 51
92.454472
  0
ARC
  5
23F
100
AcDbEntity
  8
1
  6
CONTINUOUS
 62
     2
100
AcDbCircle
 10
405.248948
 20
159.983
 30
0.0
 40
1.000918
210
0.0
220
0.0
230
1.0
100
AcDbArc
 50
267.545525
 51
92.454472
  0
ARC
  5
240
100
AcDbEntity
  8
1
  6
CONTINUOUS
 62
     2
100
AcDbCircle
 10
405.248948
 20
140.233
 30
0.0
 40
1.000918
210
0.0
220
0.0
230
1.0
100
AcDbArc
 50
267.545525
 51
92.454472
  0
ARC
  5
241
100
AcDbEntity
  8
1
  6
CONTINUOUS
 62
     2
100
AcDbCircle
 10
403.448271
 20
143.358
 30
0.0
 40
2.757813
210
0.0
220
0.0
230
1.0
100
AcDbArc
 50
309.597753
 51
50.402247
  0
ARC
  5
242
100
AcDbEntity
  8
1
  6
CONTINUOUS
 62
     2
100
AcDbCircle
 10
405.248948
 20
146.483
 30
0.0
 40
1.000918
210
0.0
220
0.0
230
1.0
100
AcDbArc
 50
267.545525
 51
92.454472
  0
LINE
  5
243
100
AcDbEntity
  8
1
  6
CONTINUOUS
 62
     2
100
AcDbLine
 10
406.249833
 20
146.483
 30
0.0
 11
406.249833
 21
140.233
 31
0.0
  0
LINE
  5
244
100
AcDbEntity
  8
1
  6
CONTINUOUS
 62
     2
100
AcDbLine
 10
406.249833
 20
165.233
 30
0.0
 11
410.206083
 21
165.233
 31
0.0
  0
LINE
  5
245
100
AcDbEntity
  8
1
  6
CONTINUOUS
 62
     2
100
AcDbLine
 10
406.249833
 20
160.983
 30
0.0
 11
410.206083
 21
160.983
 31
0.0
  0
LINE
  5
246
100
AcDbEntity
  8
1
  6
CONTINUOUS
 62
     2
100
AcDbLine
 10
410.206083
 20
165.233
 30
0.0
 11
410.206083
 21
160.983
 31
0.0
  0
LINE
  5
247
100
AcDbEntity
  8
1
  6
CONTINUOUS
 62
     2
100
AcDbLine
 10
408.956083
 20
165.233
 30
0.0
 11
408.956083
 21
160.983
 31
0.0
  0
LINE
  5
248
100
AcDbEntity
  8
1
  6
CONTINUOUS
 62
     2
100
AcDbLine
 10
407.706083
 20
165.233
 30
0.0
 11
407.706083
 21
160.983
 31
0.0
  0
LINE
  5
249
100
AcDbEntity
  8
1
  6
CONTINUOUS
 62
     2
100
AcDbLine
 10
406.456083
 20
165.233
 30
0.0
 11
406.456083
 21
160.983
 31
0.0
  0
LINE
  5
24A
100
AcDbEntity
  8
1
  6
CONTINUOUS
 62
     2
100
AcDbLine
 10
411.206083
 20
164.358
 30
0.0
 11
411.206083
 21
161.858
 31
0.0
  0
LINE
  5
24B
100
AcDbEntity
  8
1
  6
CONTINUOUS
 62
     2
100
AcDbLine
 10
410.206083
 20
165.233
 30
0.0
 11
411.206083
 21
164.358
 31
0.0
  0
LINE
  5
24C
100
AcDbEntity
  8
1
  6
CONTINUOUS
 62
     2
100
AcDbLine
 10
411.206083
 20
161.858
 30
0.0
 11
410.206083
 21
160.983
 31
0.0
  0
LINE
  5
24D
100
AcDbEntity
  8
1
  6
CONTINUOUS
 62
     2
100
AcDbLine
 10
409.581083
 20
164.233
 30
0.0
 11
409.581083
 21
161.983
 31
0.0
  0
LINE
  5
24E
100
AcDbEntity
  8
1
  6
CONTINUOUS
 62
     2
100
AcDbLine
 10
408.331083
 20
164.233
 30
0.0
 11
408.331083
 21
161.983
 31
0.0
  0
LINE
  5
24F
100
AcDbEntity
  8
1
  6
CONTINUOUS
 62
     2
100
AcDbLine
 10
407.081083
 20
164.233
 30
0.0
 11
407.081083
 21
161.983
 31
0.0
  0
LINE
  5
250
100
AcDbEntity
  8
1
  6
HIDDEN
 62
     2
100
AcDbLine
 10
395.706083
 20
165.233
 30
0.0
 11
400.206083
 21
165.233
 31
0.0
  0
LINE
  5
251
100
AcDbEntity
  8
1
  6
HIDDEN
 62
     2
100
AcDbLine
 10
395.706083
 20
160.983
 30
0.0
 11
400.206083
 21
160.983
 31
0.0
  0
LINE
  5
252
100
AcDbEntity
  8
1
  6
HIDDEN
 62
     2
100
AcDbLine
 10
395.706083
 20
156.983
 30
0.0
 11
397.206083
 21
156.983
 31
0.0
  0
LINE
  5
253
100
AcDbEntity
  8
1
  6
HIDDEN
 62
     2
100
AcDbLine
 10
395.706083
 20
149.483
 30
0.0
 11
397.206083
 21
149.483
 31
0.0
  0
LINE
  5
254
100
AcDbEntity
  8
1
  6
HIDDEN
 62
     2
100
AcDbLine
 10
395.706083
 20
145.483
 30
0.0
 11
400.206083
 21
145.483
 31
0.0
  0
LINE
  5
255
100
AcDbEntity
  8
1
  6
HIDDEN
 62
     2
100
AcDbLine
 10
395.706083
 20
141.233
 30
0.0
 11
400.206083
 21
141.233
 31
0.0
  0
LINE
  5
256
100
AcDbEntity
  8
1
  6
CONTINUOUS
 62
     2
100
AcDbLine
 10
406.249833
 20
141.233
 30
0.0
 11
410.206083
 21
141.233
 31
0.0
  0
LINE
  5
257
100
AcDbEntity
  8
1
  6
CONTINUOUS
 62
     2
100
AcDbLine
 10
406.249833
 20
145.483
 30
0.0
 11
410.206083
 21
145.483
 31
0.0
  0
LINE
  5
258
100
AcDbEntity
  8
1
  6
CONTINUOUS
 62
     2
100
AcDbLine
 10
410.206083
 20
145.483
 30
0.0
 11
410.206083
 21
141.233
 31
0.0
  0
LINE
  5
259
100
AcDbEntity
  8
1
  6
CONTINUOUS
 62
     2
100
AcDbLine
 10
408.956083
 20
145.483
 30
0.0
 11
408.956083
 21
141.233
 31
0.0
  0
LINE
  5
25A
100
AcDbEntity
  8
1
  6
CONTINUOUS
 62
     2
100
AcDbLine
 10
407.706083
 20
145.483
 30
0.0
 11
407.706083
 21
141.233
 31
0.0
  0
LINE
  5
25B
100
AcDbEntity
  8
1
  6
CONTINUOUS
 62
     2
100
AcDbLine
 10
406.456083
 20
145.483
 30
0.0
 11
406.456083
 21
141.233
 31
0.0
  0
LINE
  5
25C
100
AcDbEntity
  8
1
  6
CONTINUOUS
 62
     2
100
AcDbLine
 10
411.206083
 20
144.608
 30
0.0
 11
411.206083
 21
142.108
 31
0.0
  0
LINE
  5
25D
100
AcDbEntity
  8
1
  6
CONTINUOUS
 62
     2
100
AcDbLine
 10
410.206083
 20
145.483
 30
0.0
 11
411.206083
 21
144.608
 31
0.0
  0
LINE
  5
25E
100
AcDbEntity
  8
1
  6
CONTINUOUS
 62
     2
100
AcDbLine
 10
411.206083
 20
142.108
 30
0.0
 11
410.206083
 21
141.233
 31
0.0
  0
LINE
  5
25F
100
AcDbEntity
  8
1
  6
CONTINUOUS
 62
     2
100
AcDbLine
 10
409.581083
 20
144.483
 30
0.0
 11
409.581083
 21
142.233
 31
0.0
  0
LINE
  5
260
100
AcDbEntity
  8
1
  6
CONTINUOUS
 62
     2
100
AcDbLine
 10
408.331083
 20
144.483
 30
0.0
 11
408.331083
 21
142.233
 31
0.0
  0
LINE
  5
261
100
AcDbEntity
  8
1
  6
CONTINUOUS
 62
     2
100
AcDbLine
 10
407.081083
 20
144.483
 30
0.0
 11
407.081083
 21
142.233
 31
0.0
  0
LINE
  5
262
100
AcDbEntity
  8
1
  6
CONTINUOUS
 62
     7
100
AcDbLine
 10
385.162333
 20
163.108
 30
0.0
 11
391.162333
 21
163.108
 31
0.0
  0
LINE
  5
263
100
AcDbEntity
  8
1
  6
CONTINUOUS
 62
     7
100
AcDbLine
 10
391.662333
 20
163.108
 30
0.0
 11
392.662333
 21
163.108
 31
0.0
  0
LINE
  5
264
100
AcDbEntity
  8
1
  6
CONTINUOUS
 62
     7
100
AcDbLine
 10
393.162333
 20
163.108
 30
0.0
 11
402.706083
 21
163.108
 31
0.0
  0
LINE
  5
265
100
AcDbEntity
  8
1
  6
CONTINUOUS
 62
     7
100
AcDbLine
 10
403.206083
 20
163.108
 30
0.0
 11
404.206083
 21
163.108
 31
0.0
  0
LINE
  5
266
100
AcDbEntity
  8
1
  6
CONTINUOUS
 62
     7
100
AcDbLine
 10
404.706083
 20
163.108
 30
0.0
 11
415.706083
 21
163.108
 31
0.0
  0
LINE
  5
267
100
AcDbEntity
  8
1
  6
CONTINUOUS
 62
     7
100
AcDbLine
 10
385.162333
 20
143.358
 30
0.0
 11
391.162333
 21
143.358
 31
0.0
  0
LINE
  5
268
100
AcDbEntity
  8
1
  6
CONTINUOUS
 62
     7
100
AcDbLine
 10
391.662333
 20
143.358
 30
0.0
 11
392.662333
 21
143.358
 31
0.0
  0
LINE
  5
269
100
AcDbEntity
  8
1
  6
CONTINUOUS
 62
     7
100
AcDbLine
 10
393.162333
 20
143.358
 30
0.0
 11
402.706083
 21
143.358
 31
0.0
  0
LINE
  5
26A
100
AcDbEntity
  8
1
  6
CONTINUOUS
 62
     7
100
AcDbLine
 10
403.206083
 20
143.358
 30
0.0
 11
404.206083
 21
143.358
 31
0.0
  0
LINE
  5
26B
100
AcDbEntity
  8
1
  6
CONTINUOUS
 62
     7
100
AcDbLine
 10
404.706083
 20
143.358
 30
0.0
 11
415.706083
 21
143.358
 31
0.0
  0
INSERT
  5
26C
100
AcDbEntity
  8
1
  6
CONTINUOUS
 62
     1
100
AcDbBlockReference
  2
LDR
 10
386.162333
 20
163.108
 30
0.0
 41
240.0
 42
240.0
 50
90.0
210
0.0
220
0.0
230
1.0
  0
INSERT
  5
26D
100
AcDbEntity
  8
1
  6
CONTINUOUS
 62
     1
100
AcDbBlockReference
  2
LDR
 10
386.162333
 20
163.108
 30
0.0
 41
240.0
 42
240.0
 50
90.0
210
0.0
220
0.0
230
1.0
  0
INSERT
  5
26E
100
AcDbEntity
  8
1
  6
CONTINUOUS
 62
     1
100
AcDbBlockReference
  2
LDR
 10
386.162333
 20
143.358
 30
0.0
 41
240.0
 42
240.0
 50
270.0
210
0.0
220
0.0
230
1.0
  0
LINE
  5
26F
100
AcDbEntity
  8
1
  6
CONTINUOUS
 62
     7
100
AcDbLine
 10
391.706083
 20
170.733
 30
0.0
 11
395.706083
 21
170.733
 31
0.0
  0
LINE
  5
270
100
AcDbEntity
  8
1
  6
CONTINUOUS
 62
     7
100
AcDbLine
 10
397.206083
 20
170.733
 30
0.0
 11
401.206083
 21
170.733
 31
0.0
  0
INSERT
  5
271
100
AcDbEntity
  8
1
  6
CONTINUOUS
 62
     1
100
AcDbBlockReference
  2
LDR
 10
395.706083
 20
170.733
 30
0.0
 41
240.0
 42
240.0
210
0.0
220
0.0
230
1.0
  0
INSERT
  5
272
100
AcDbEntity
  8
1
  6
CONTINUOUS
 62
     1
100
AcDbBlockReference
  2
LDR
 10
395.706083
 20
170.733
 30
0.0
 41
240.0
 42
240.0
210
0.0
220
0.0
230
1.0
  0
INSERT
  5
273
100
AcDbEntity
  8
1
  6
CONTINUOUS
 62
     1
100
AcDbBlockReference
  2
LDR
 10
397.206083
 20
170.733
 30
0.0
 41
240.0
 42
240.0
 50
180.0
210
0.0
220
0.0
230
1.0
  0
LINE
  5
274
100
AcDbEntity
  8
1
  6
CONTINUOUS
 62
     7
100
AcDbLine
 10
396.456083
 20
134.233
 30
0.0
 11
395.121083
 21
130.856083
 31
0.0
  0
LINE
  5
275
100
AcDbEntity
  8
1
  6
CONTINUOUS
 62
     7
100
AcDbLine
 10
395.121083
 20
130.856083
 30
0.0
 11
388.079833
 21
130.856083
 31
0.0
  0
INSERT
  5
276
100
AcDbEntity
  8
1
  6
CONTINUOUS
 62
     1
100
AcDbBlockReference
  2
LDR
 10
396.456083
 20
134.233
 30
0.0
 41
239.999998
 42
239.999998
 50
68.429961
210
0.0
220
0.0
230
1.0
  0
LINE
  5
277
100
AcDbEntity
  8
1
  6
CONTINUOUS
 62
     7
100
AcDbLine
 10
386.162333
 20
163.108
 30
0.0
 11
386.162333
 21
153.233
 31
0.0
  0
LINE
  5
278
100
AcDbEntity
  8
1
  6
CONTINUOUS
 62
     7
100
AcDbLine
 10
386.162333
 20
153.233
 30
0.0
 11
386.162333
 21
143.358
 31
0.0
  0
INSERT
  5
279
100
AcDbEntity
  8
1
  6
CONTINUOUS
 62
     1
100
AcDbBlockReference
  2
LDR
 10
386.162333
 20
153.233
 30
0.0
 41
240.0
 42
240.0
 50
270.0
210
0.0
220
0.0
230
1.0
  0
INSERT
  5
27A
100
AcDbEntity
  8
1
  6
CONTINUOUS
 62
     1
100
AcDbBlockReference
  2
LDR
 10
386.162333
 20
153.233
 30
0.0
 41
240.0
 42
240.0
 50
270.0
210
0.0
220
0.0
230
1.0
  0
INSERT
  5
27B
100
AcDbEntity
  8
1
  6
CONTINUOUS
 62
     1
100
AcDbBlockReference
  2
LDR
 10
386.162333
 20
153.233
 30
0.0
 41
240.0
 42
240.0
 50
90.0
210
0.0
220
0.0
230
1.0
  0
LINE
  5
27C
100
AcDbEntity
  8
1
  6
CONTINUOUS
 62
     7
100
AcDbLine
 10
385.162333
 20
153.233
 30
0.0
 11
401.162333
 21
153.233
 31
0.0
  0
LINE
  5
27D
100
AcDbEntity
  8
1
  6
CONTINUOUS
 62
     7
100
AcDbLine
 10
401.662333
 20
153.233
 30
0.0
 11
402.662333
 21
153.233
 31
0.0
  0
LINE
  5
27E
100
AcDbEntity
  8
1
  6
CONTINUOUS
 62
     7
100
AcDbLine
 10
403.162333
 20
153.233
 30
0.0
 11
420.162333
 21
153.233
 31
0.0
  0
LINE
  5
27F
100
AcDbEntity
  8
1
  6
CONTINUOUS
 62
     7
100
AcDbLine
 10
420.662333
 20
153.233
 30
0.0
 11
421.662333
 21
153.233
 31
0.0
  0
LINE
  5
280
100
AcDbEntity
  8
1
  6
CONTINUOUS
 62
     7
100
AcDbLine
 10
422.162333
 20
153.233
 30
0.0
 11
439.162333
 21
153.233
 31
0.0
  0
LINE
  5
281
100
AcDbEntity
  8
1
  6
CONTINUOUS
 62
     2
100
AcDbLine
 10
445.118583
 20
177.733
 30
0.0
 11
445.118583
 21
128.733
 31
0.0
  0
LINE
  5
282
100
AcDbEntity
  8
1
  6
CONTINUOUS
 62
     2
100
AcDbLine
 10
442.118583
 20
177.733
 30
0.0
 11
442.118583
 21
128.733
 31
0.0
  0
LINE
  5
283
100
AcDbEntity
  8
1
  6
CONTINUOUS
 62
     2
100
AcDbLine
 10
446.618583
 20
172.233
 30
0.0
 11
446.618583
 21
134.233
 31
0.0
  0
LINE
  5
284
100
AcDbEntity
  8
1
  6
CONTINUOUS
 62
     2
100
AcDbLine
 10
446.618583
 20
172.233
 30
0.0
 11
445.118583
 21
172.233
 31
0.0
  0
LINE
  5
285
100
AcDbEntity
  8
1
  6
CONTINUOUS
 62
     2
100
AcDbLine
 10
446.618583
 20
134.233
 30
0.0
 11
445.118583
 21
134.233
 31
0.0
  0
LINE
  5
286
100
AcDbEntity
  8
1
  6
CONTINUOUS
 62
     2
100
AcDbLine
 10
447.618583
 20
168.233
 30
0.0
 11
446.618583
 21
168.233
 31
0.0
  0
LINE
  5
287
100
AcDbEntity
  8
1
  6
CONTINUOUS
 62
     2
100
AcDbLine
 10
447.618583
 20
138.233
 30
0.0
 11
446.618583
 21
138.233
 31
0.0
  0
LINE
  5
288
100
AcDbEntity
  8
1
  6
CONTINUOUS
 62
     2
100
AcDbLine
 10
447.618583
 20
168.233
 30
0.0
 11
447.618583
 21
157.983
 31
0.0
  0
LINE
  5
289
100
AcDbEntity
  8
1
  6
CONTINUOUS
 62
     2
100
AcDbLine
 10
447.618583
 20
148.483
 30
0.0
 11
447.618583
 21
138.233
 31
0.0
  0
LINE
  5
28A
100
AcDbEntity
  8
1
  6
CONTINUOUS
 62
     2
100
AcDbLine
 10
447.618583
 20
157.983
 30
0.0
 11
446.618583
 21
157.983
 31
0.0
  0
LINE
  5
28B
100
AcDbEntity
  8
1
  6
CONTINUOUS
 62
     2
100
AcDbLine
 10
447.618583
 20
148.483
 30
0.0
 11
446.618583
 21
148.483
 31
0.0
  0
LINE
  5
28C
100
AcDbEntity
  8
1
  6
CONTINUOUS
 62
     2
100
AcDbLine
 10
447.618583
 20
167.233
 30
0.0
 11
451.618583
 21
167.233
 31
0.0
  0
LINE
  5
28D
100
AcDbEntity
  8
1
  6
CONTINUOUS
 62
     2
100
AcDbLine
 10
447.618583
 20
158.983
 30
0.0
 11
451.618583
 21
158.983
 31
0.0
  0
LINE
  5
28E
100
AcDbEntity
  8
1
  6
CONTINUOUS
 62
     2
100
AcDbLine
 10
447.618583
 20
147.483
 30
0.0
 11
451.618583
 21
147.483
 31
0.0
  0
LINE
  5
28F
100
AcDbEntity
  8
1
  6
CONTINUOUS
 62
     2
100
AcDbLine
 10
447.618583
 20
139.233
 30
0.0
 11
451.618583
 21
139.233
 31
0.0
  0
LINE
  5
290
100
AcDbEntity
  8
1
  6
CONTINUOUS
 62
     2
100
AcDbLine
 10
447.618583
 20
165.233
 30
0.0
 11
451.618583
 21
165.233
 31
0.0
  0
LINE
  5
291
100
AcDbEntity
  8
1
  6
CONTINUOUS
 62
     2
100
AcDbLine
 10
447.618583
 20
160.983
 30
0.0
 11
451.618583
 21
160.983
 31
0.0
  0
LINE
  5
292
100
AcDbEntity
  8
1
  6
CONTINUOUS
 62
     2
100
AcDbLine
 10
447.618583
 20
145.483
 30
0.0
 11
451.618583
 21
145.483
 31
0.0
  0
LINE
  5
293
100
AcDbEntity
  8
1
  6
CONTINUOUS
 62
     2
100
AcDbLine
 10
447.618583
 20
141.233
 30
0.0
 11
451.618583
 21
141.233
 31
0.0
  0
ARC
  5
294
100
AcDbEntity
  8
1
  6
CONTINUOUS
 62
     2
100
AcDbCircle
 10
449.860771
 20
163.108
 30
0.0
 40
2.757813
210
0.0
220
0.0
230
1.0
100
AcDbArc
 50
309.597753
 51
50.402247
  0
ARC
  5
295
100
AcDbEntity
  8
1
  6
CONTINUOUS
 62
     2
100
AcDbCircle
 10
451.661448
 20
166.233
 30
0.0
 40
1.000918
210
0.0
220
0.0
230
1.0
100
AcDbArc
 50
267.545525
 51
92.454472
  0
ARC
  5
296
100
AcDbEntity
  8
1
  6
CONTINUOUS
 62
     2
100
AcDbCircle
 10
451.661448
 20
159.983
 30
0.0
 40
1.000918
210
0.0
220
0.0
230
1.0
100
AcDbArc
 50
267.545525
 51
92.454472
  0
LINE
  5
297
100
AcDbEntity
  8
1
  6
CONTINUOUS
 62
     2
100
AcDbLine
 10
452.662333
 20
166.233
 30
0.0
 11
452.662333
 21
159.983
 31
0.0
  0
ARC
  5
298
100
AcDbEntity
  8
1
  6
CONTINUOUS
 62
     2
100
AcDbCircle
 10
451.661448
 20
140.233
 30
0.0
 40
1.000918
210
0.0
220
0.0
230
1.0
100
AcDbArc
 50
267.545525
 51
92.454472
  0
ARC
  5
299
100
AcDbEntity
  8
1
  6
CONTINUOUS
 62
     2
100
AcDbCircle
 10
449.860771
 20
143.358
 30
0.0
 40
2.757813
210
0.0
220
0.0
230
1.0
100
AcDbArc
 50
309.597753
 51
50.402247
  0
ARC
  5
29A
100
AcDbEntity
  8
1
  6
CONTINUOUS
 62
     2
100
AcDbCircle
 10
451.661448
 20
146.483
 30
0.0
 40
1.000918
210
0.0
220
0.0
230
1.0
100
AcDbArc
 50
267.545525
 51
92.454472
  0
LINE
  5
29B
100
AcDbEntity
  8
1
  6
CONTINUOUS
 62
     2
100
AcDbLine
 10
452.662333
 20
146.483
 30
0.0
 11
452.662333
 21
140.233
 31
0.0
  0
LINE
  5
29C
100
AcDbEntity
  8
1
  6
CONTINUOUS
 62
     2
100
AcDbLine
 10
436.074833
 20
166.233
 30
0.0
 11
436.074833
 21
159.983
 31
0.0
  0
LINE
  5
29D
100
AcDbEntity
  8
1
  6
CONTINUOUS
 62
     2
100
AcDbLine
 10
441.118583
 20
168.233
 30
0.0
 11
442.118583
 21
168.233
 31
0.0
  0
LINE
  5
29E
100
AcDbEntity
  8
1
  6
CONTINUOUS
 62
     2
100
AcDbLine
 10
441.118583
 20
138.233
 30
0.0
 11
442.118583
 21
138.233
 31
0.0
  0
LINE
  5
29F
100
AcDbEntity
  8
1
  6
CONTINUOUS
 62
     2
100
AcDbLine
 10
441.118583
 20
168.233
 30
0.0
 11
441.118583
 21
157.983
 31
0.0
  0
LINE
  5
2A0
100
AcDbEntity
  8
1
  6
CONTINUOUS
 62
     2
100
AcDbLine
 10
441.118583
 20
148.483
 30
0.0
 11
441.118583
 21
138.233
 31
0.0
  0
LINE
  5
2A1
100
AcDbEntity
  8
1
  6
CONTINUOUS
 62
     2
100
AcDbLine
 10
441.118583
 20
157.983
 30
0.0
 11
442.118583
 21
157.983
 31
0.0
  0
LINE
  5
2A2
100
AcDbEntity
  8
1
  6
CONTINUOUS
 62
     2
100
AcDbLine
 10
441.118583
 20
148.483
 30
0.0
 11
442.118583
 21
148.483
 31
0.0
  0
LINE
  5
2A3
100
AcDbEntity
  8
1
  6
CONTINUOUS
 62
     2
100
AcDbLine
 10
441.118583
 20
167.233
 30
0.0
 11
437.118583
 21
167.233
 31
0.0
  0
LINE
  5
2A4
100
AcDbEntity
  8
1
  6
CONTINUOUS
 62
     2
100
AcDbLine
 10
441.118583
 20
158.983
 30
0.0
 11
437.118583
 21
158.983
 31
0.0
  0
LINE
  5
2A5
100
AcDbEntity
  8
1
  6
CONTINUOUS
 62
     2
100
AcDbLine
 10
441.118583
 20
147.483
 30
0.0
 11
437.118583
 21
147.483
 31
0.0
  0
LINE
  5
2A6
100
AcDbEntity
  8
1
  6
CONTINUOUS
 62
     2
100
AcDbLine
 10
441.118583
 20
139.233
 30
0.0
 11
437.118583
 21
139.233
 31
0.0
  0
LINE
  5
2A7
100
AcDbEntity
  8
1
  6
CONTINUOUS
 62
     2
100
AcDbLine
 10
441.118583
 20
165.233
 30
0.0
 11
437.118583
 21
165.233
 31
0.0
  0
LINE
  5
2A8
100
AcDbEntity
  8
1
  6
CONTINUOUS
 62
     2
100
AcDbLine
 10
441.118583
 20
160.983
 30
0.0
 11
437.118583
 21
160.983
 31
0.0
  0
LINE
  5
2A9
100
AcDbEntity
  8
1
  6
CONTINUOUS
 62
     2
100
AcDbLine
 10
441.118583
 20
145.483
 30
0.0
 11
437.118583
 21
145.483
 31
0.0
  0
LINE
  5
2AA
100
AcDbEntity
  8
1
  6
CONTINUOUS
 62
     2
100
AcDbLine
 10
441.118583
 20
141.233
 30
0.0
 11
437.118583
 21
141.233
 31
0.0
  0
ARC
  5
2AB
100
AcDbEntity
  8
1
  6
CONTINUOUS
 62
     2
100
AcDbCircle
 10
438.876396
 20
163.108
 30
0.0
 40
2.757813
210
0.0
220
0.0
230
1.0
100
AcDbArc
 50
129.597753
 51
230.402247
  0
ARC
  5
2AC
100
AcDbEntity
  8
1
  6
CONTINUOUS
 62
     2
100
AcDbCircle
 10
437.075718
 20
166.233
 30
0.0
 40
1.000918
210
0.0
220
0.0
230
1.0
100
AcDbArc
 50
87.545528
 51
272.454475
  0
ARC
  5
2AD
100
AcDbEntity
  8
1
  6
CONTINUOUS
 62
     2
100
AcDbCircle
 10
437.075718
 20
159.983
 30
0.0
 40
1.000918
210
0.0
220
0.0
230
1.0
100
AcDbArc
 50
87.545528
 51
272.454475
  0
ARC
  5
2AE
100
AcDbEntity
  8
1
  6
CONTINUOUS
 62
     2
100
AcDbCircle
 10
437.075718
 20
140.233
 30
0.0
 40
1.000918
210
0.0
220
0.0
230
1.0
100
AcDbArc
 50
87.545528
 51
272.454475
  0
ARC
  5
2AF
100
AcDbEntity
  8
1
  6
CONTINUOUS
 62
     2
100
AcDbCircle
 10
438.876396
 20
143.358
 30
0.0
 40
2.757813
210
0.0
220
0.0
230
1.0
100
AcDbArc
 50
129.597753
 51
230.402247
  0
ARC
  5
2B0
100
AcDbEntity
  8
1
  6
CONTINUOUS
 62
     2
100
AcDbCircle
 10
437.075718
 20
146.483
 30
0.0
 40
1.000918
210
0.0
220
0.0
230
1.0
100
AcDbArc
 50
87.545528
 51
272.454475
  0
LINE
  5
2B1
100
AcDbEntity
  8
1
  6
CONTINUOUS
 62
     2
100
AcDbLine
 10
436.074833
 20
146.483
 30
0.0
 11
436.074833
 21
140.233
 31
0.0
  0
LINE
  5
2B2
100
AcDbEntity
  8
1
  6
CONTINUOUS
 62
     2
100
AcDbLine
 10
436.074833
 20
165.233
 30
0.0
 11
430.868583
 21
165.233
 31
0.0
  0
LINE
  5
2B3
100
AcDbEntity
  8
1
  6
CONTINUOUS
 62
     2
100
AcDbLine
 10
436.074833
 20
160.983
 30
0.0
 11
430.868583
 21
160.983
 31
0.0
  0
LINE
  5
2B4
100
AcDbEntity
  8
1
  6
CONTINUOUS
 62
     2
100
AcDbLine
 10
430.868583
 20
165.233
 30
0.0
 11
430.868583
 21
160.983
 31
0.0
  0
LINE
  5
2B5
100
AcDbEntity
  8
1
  6
CONTINUOUS
 62
     2
100
AcDbLine
 10
433.368583
 20
165.233
 30
0.0
 11
433.368583
 21
160.983
 31
0.0
  0
LINE
  5
2B6
100
AcDbEntity
  8
1
  6
CONTINUOUS
 62
     2
100
AcDbLine
 10
434.618583
 20
165.233
 30
0.0
 11
434.618583
 21
160.983
 31
0.0
  0
LINE
  5
2B7
100
AcDbEntity
  8
1
  6
CONTINUOUS
 62
     2
100
AcDbLine
 10
435.868583
 20
165.233
 30
0.0
 11
435.868583
 21
160.983
 31
0.0
  0
LINE
  5
2B8
100
AcDbEntity
  8
1
  6
CONTINUOUS
 62
     2
100
AcDbLine
 10
429.868583
 20
164.358
 30
0.0
 11
429.868583
 21
161.858
 31
0.0
  0
LINE
  5
2B9
100
AcDbEntity
  8
1
  6
CONTINUOUS
 62
     2
100
AcDbLine
 10
430.868583
 20
165.233
 30
0.0
 11
429.868583
 21
164.358
 31
0.0
  0
LINE
  5
2BA
100
AcDbEntity
  8
1
  6
CONTINUOUS
 62
     2
100
AcDbLine
 10
429.868583
 20
161.858
 30
0.0
 11
430.868583
 21
160.983
 31
0.0
  0
LINE
  5
2BB
100
AcDbEntity
  8
1
  6
CONTINUOUS
 62
     2
100
AcDbLine
 10
432.743583
 20
164.233
 30
0.0
 11
432.743583
 21
161.983
 31
0.0
  0
LINE
  5
2BC
100
AcDbEntity
  8
1
  6
CONTINUOUS
 62
     2
100
AcDbLine
 10
433.993583
 20
164.233
 30
0.0
 11
433.993583
 21
161.983
 31
0.0
  0
LINE
  5
2BD
100
AcDbEntity
  8
1
  6
CONTINUOUS
 62
     2
100
AcDbLine
 10
435.243583
 20
164.233
 30
0.0
 11
435.243583
 21
161.983
 31
0.0
  0
LINE
  5
2BE
100
AcDbEntity
  8
1
  6
HIDDEN
 62
     2
100
AcDbLine
 10
446.618583
 20
165.233
 30
0.0
 11
442.118583
 21
165.233
 31
0.0
  0
LINE
  5
2BF
100
AcDbEntity
  8
1
  6
HIDDEN
 62
     2
100
AcDbLine
 10
446.618583
 20
160.983
 30
0.0
 11
442.118583
 21
160.983
 31
0.0
  0
LINE
  5
2C0
100
AcDbEntity
  8
1
  6
HIDDEN
 62
     2
100
AcDbLine
 10
446.618583
 20
156.983
 30
0.0
 11
445.118583
 21
156.983
 31
0.0
  0
LINE
  5
2C1
100
AcDbEntity
  8
1
  6
HIDDEN
 62
     2
100
AcDbLine
 10
446.618583
 20
149.483
 30
0.0
 11
445.118583
 21
149.483
 31
0.0
  0
LINE
  5
2C2
100
AcDbEntity
  8
1
  6
HIDDEN
 62
     2
100
AcDbLine
 10
446.618583
 20
145.483
 30
0.0
 11
442.118583
 21
145.483
 31
0.0
  0
LINE
  5
2C3
100
AcDbEntity
  8
1
  6
HIDDEN
 62
     2
100
AcDbLine
 10
446.618583
 20
141.233
 30
0.0
 11
442.118583
 21
141.233
 31
0.0
  0
LINE
  5
2C4
100
AcDbEntity
  8
1
  6
CONTINUOUS
 62
     2
100
AcDbLine
 10
436.074833
 20
141.233
 30
0.0
 11
430.868583
 21
141.233
 31
0.0
  0
LINE
  5
2C5
100
AcDbEntity
  8
1
  6
CONTINUOUS
 62
     2
100
AcDbLine
 10
436.074833
 20
145.483
 30
0.0
 11
430.868583
 21
145.483
 31
0.0
  0
LINE
  5
2C6
100
AcDbEntity
  8
1
  6
CONTINUOUS
 62
     2
100
AcDbLine
 10
430.868583
 20
145.483
 30
0.0
 11
430.868583
 21
141.233
 31
0.0
  0
LINE
  5
2C7
100
AcDbEntity
  8
1
  6
CONTINUOUS
 62
     2
100
AcDbLine
 10
433.368583
 20
145.483
 30
0.0
 11
433.368583
 21
141.233
 31
0.0
  0
LINE
  5
2C8
100
AcDbEntity
  8
1
  6
CONTINUOUS
 62
     2
100
AcDbLine
 10
434.618583
 20
145.483
 30
0.0
 11
434.618583
 21
141.233
 31
0.0
  0
LINE
  5
2C9
100
AcDbEntity
  8
1
  6
CONTINUOUS
 62
     2
100
AcDbLine
 10
435.868583
 20
145.483
 30
0.0
 11
435.868583
 21
141.233
 31
0.0
  0
LINE
  5
2CA
100
AcDbEntity
  8
1
  6
CONTINUOUS
 62
     2
100
AcDbLine
 10
429.868583
 20
144.608
 30
0.0
 11
429.868583
 21
142.108
 31
0.0
  0
LINE
  5
2CB
100
AcDbEntity
  8
1
  6
CONTINUOUS
 62
     2
100
AcDbLine
 10
430.868583
 20
145.483
 30
0.0
 11
429.868583
 21
144.608
 31
0.0
  0
LINE
  5
2CC
100
AcDbEntity
  8
1
  6
CONTINUOUS
 62
     2
100
AcDbLine
 10
429.868583
 20
142.108
 30
0.0
 11
430.868583
 21
141.233
 31
0.0
  0
LINE
  5
2CD
100
AcDbEntity
  8
1
  6
CONTINUOUS
 62
     2
100
AcDbLine
 10
432.743583
 20
144.483
 30
0.0
 11
432.743583
 21
142.233
 31
0.0
  0
LINE
  5
2CE
100
AcDbEntity
  8
1
  6
CONTINUOUS
 62
     2
100
AcDbLine
 10
433.993583
 20
144.483
 30
0.0
 11
433.993583
 21
142.233
 31
0.0
  0
LINE
  5
2CF
100
AcDbEntity
  8
1
  6
CONTINUOUS
 62
     2
100
AcDbLine
 10
435.243583
 20
144.483
 30
0.0
 11
435.243583
 21
142.233
 31
0.0
  0
LINE
  5
2D0
100
AcDbEntity
  8
1
  6
CONTINUOUS
 62
     7
100
AcDbLine
 10
457.162333
 20
163.108
 30
0.0
 11
451.162333
 21
163.108
 31
0.0
  0
LINE
  5
2D1
100
AcDbEntity
  8
1
  6
CONTINUOUS
 62
     7
100
AcDbLine
 10
450.662333
 20
163.108
 30
0.0
 11
449.662333
 21
163.108
 31
0.0
  0
LINE
  5
2D2
100
AcDbEntity
  8
1
  6
CONTINUOUS
 62
     7
100
AcDbLine
 10
449.162333
 20
163.108
 30
0.0
 11
439.618583
 21
163.108
 31
0.0
  0
LINE
  5
2D3
100
AcDbEntity
  8
1
  6
CONTINUOUS
 62
     7
100
AcDbLine
 10
439.118583
 20
163.108
 30
0.0
 11
438.118583
 21
163.108
 31
0.0
  0
LINE
  5
2D4
100
AcDbEntity
  8
1
  6
CONTINUOUS
 62
     7
100
AcDbLine
 10
437.618583
 20
163.108
 30
0.0
 11
426.618583
 21
163.108
 31
0.0
  0
LINE
  5
2D5
100
AcDbEntity
  8
1
  6
CONTINUOUS
 62
     7
100
AcDbLine
 10
457.162333
 20
143.358
 30
0.0
 11
451.162333
 21
143.358
 31
0.0
  0
LINE
  5
2D6
100
AcDbEntity
  8
1
  6
CONTINUOUS
 62
     7
100
AcDbLine
 10
450.662333
 20
143.358
 30
0.0
 11
449.662333
 21
143.358
 31
0.0
  0
LINE
  5
2D7
100
AcDbEntity
  8
1
  6
CONTINUOUS
 62
     7
100
AcDbLine
 10
449.162333
 20
143.358
 30
0.0
 11
439.618583
 21
143.358
 31
0.0
  0
LINE
  5
2D8
100
AcDbEntity
  8
1
  6
CONTINUOUS
 62
     7
100
AcDbLine
 10
439.118583
 20
143.358
 30
0.0
 11
438.118583
 21
143.358
 31
0.0
  0
LINE
  5
2D9
100
AcDbEntity
  8
1
  6
CONTINUOUS
 62
     7
100
AcDbLine
 10
437.618583
 20
143.358
 30
0.0
 11
426.618583
 21
143.358
 31
0.0
  0
INSERT
  5
2DA
100
AcDbEntity
  8
1
  6
CONTINUOUS
 62
     1
100
AcDbBlockReference
  2
LDR
 10
456.162333
 20
163.108
 30
0.0
 41
240.0
 42
-240.0
 50
90.0
210
0.0
220
0.0
230
1.0
  0
INSERT
  5
2DB
100
AcDbEntity
  8
1
  6
CONTINUOUS
 62
     1
100
AcDbBlockReference
  2
LDR
 10
456.162333
 20
163.108
 30
0.0
 41
240.0
 42
-240.0
 50
90.0
210
0.0
220
0.0
230
1.0
  0
INSERT
  5
2DC
100
AcDbEntity
  8
1
  6
CONTINUOUS
 62
     1
100
AcDbBlockReference
  2
LDR
 10
456.162333
 20
143.358
 30
0.0
 41
240.0
 42
-240.0
 50
270.0
210
0.0
220
0.0
230
1.0
  0
LINE
  5
2DD
100
AcDbEntity
  8
1
  6
CONTINUOUS
 62
     7
100
AcDbLine
 10
450.618583
 20
170.733
 30
0.0
 11
446.618583
 21
170.733
 31
0.0
  0
LINE
  5
2DE
100
AcDbEntity
  8
1
  6
CONTINUOUS
 62
     7
100
AcDbLine
 10
445.118583
 20
170.733
 30
0.0
 11
441.118583
 21
170.733
 31
0.0
  0
INSERT
  5
2DF
100
AcDbEntity
  8
1
  6
CONTINUOUS
 62
     1
100
AcDbBlockReference
  2
LDR
 10
446.618583
 20
170.733
 30
0.0
 41
240.0
 42
-240.0
 50
180.0
210
0.0
220
0.0
230
1.0
  0
INSERT
  5
2E0
100
AcDbEntity
  8
1
  6
CONTINUOUS
 62
     1
100
AcDbBlockReference
  2
LDR
 10
446.618583
 20
170.733
 30
0.0
 41
240.0
 42
-240.0
 50
180.0
210
0.0
220
0.0
230
1.0
  0
INSERT
  5
2E1
100
AcDbEntity
  8
1
  6
CONTINUOUS
 62
     1
100
AcDbBlockReference
  2
LDR
 10
445.118583
 20
170.733
 30
0.0
 41
240.0
 42
-240.0
210
0.0
220
0.0
230
1.0
  0
LINE
  5
2E2
100
AcDbEntity
  8
1
  6
CONTINUOUS
 62
     7
100
AcDbLine
 10
445.868583
 20
134.233
 30
0.0
 11
447.203583
 21
130.856083
 31
0.0
  0
LINE
  5
2E3
100
AcDbEntity
  8
1
  6
CONTINUOUS
 62
     7
100
AcDbLine
 10
447.203583
 20
130.856083
 30
0.0
 11
454.244833
 21
130.856083
 31
0.0
  0
INSERT
  5
2E4
100
AcDbEntity
  8
1
  6
CONTINUOUS
 62
     1
100
AcDbBlockReference
  2
LDR
 10
445.868583
 20
134.233
 30
0.0
 41
239.999998
 42
-239.999998
 50
111.570039
210
0.0
220
0.0
230
1.0
  0
LINE
  5
2E5
100
AcDbEntity
  8
1
  6
CONTINUOUS
 62
     7
100
AcDbLine
 10
456.162333
 20
163.108
 30
0.0
 11
456.162333
 21
153.233
 31
0.0
  0
LINE
  5
2E6
100
AcDbEntity
  8
1
  6
CONTINUOUS
 62
     7
100
AcDbLine
 10
456.162333
 20
153.233
 30
0.0
 11
456.162333
 21
143.358
 31
0.0
  0
INSERT
  5
2E7
100
AcDbEntity
  8
1
  6
CONTINUOUS
 62
     1
100
AcDbBlockReference
  2
LDR
 10
456.162333
 20
153.233
 30
0.0
 41
240.0
 42
-240.0
 50
270.0
210
0.0
220
0.0
230
1.0
  0
INSERT
  5
2E8
100
AcDbEntity
  8
1
  6
CONTINUOUS
 62
     1
100
AcDbBlockReference
  2
LDR
 10
456.162333
 20
153.233
 30
0.0
 41
240.0
 42
-240.0
 50
270.0
210
0.0
220
0.0
230
1.0
  0
INSERT
  5
2E9
100
AcDbEntity
  8
1
  6
CONTINUOUS
 62
     1
100
AcDbBlockReference
  2
LDR
 10
456.162333
 20
153.233
 30
0.0
 41
240.0
 42
-240.0
 50
90.0
210
0.0
220
0.0
230
1.0
  0
LINE
  5
2EA
100
AcDbEntity
  8
1
  6
CONTINUOUS
 62
     7
100
AcDbLine
 10
457.162333
 20
153.233
 30
0.0
 11
441.162333
 21
153.233
 31
0.0
  0
LINE
  5
2EB
100
AcDbEntity
  8
1
  6
CONTINUOUS
 62
     7
100
AcDbLine
 10
440.662333
 20
153.233
 30
0.0
 11
439.662333
 21
153.233
 31
0.0
  0
LINE
  5
2EC
100
AcDbEntity
  8
1
  6
CONTINUOUS
 62
     2
100
AcDbLine
 10
432.118583
 20
165.233
 30
0.0
 11
432.118583
 21
160.983
 31
0.0
  0
LINE
  5
2ED
100
AcDbEntity
  8
1
  6
CONTINUOUS
 62
     2
100
AcDbLine
 10
432.118583
 20
145.483
 30
0.0
 11
432.118583
 21
141.233
 31
0.0
  0
LINE
  5
2EE
100
AcDbEntity
  8
1
  6
CONTINUOUS
 62
     2
100
AcDbLine
 10
431.493583
 20
144.483
 30
0.0
 11
431.493583
 21
142.233
 31
0.0
  0
LINE
  5
2EF
100
AcDbEntity
  8
1
  6
CONTINUOUS
 62
     2
100
AcDbLine
 10
431.493583
 20
164.233
 30
0.0
 11
431.493583
 21
161.983
 31
0.0
  0
LINE
  5
2F0
100
AcDbEntity
  8
1
  6
CONTINUOUS
 62
     2
100
AcDbLine
 10
392.206083
 20
177.733
 30
0.0
 11
419.662333
 21
177.733
 31
0.0
  0
LINE
  5
2F1
100
AcDbEntity
  8
1
  6
CONTINUOUS
 62
     2
100
AcDbLine
 10
422.662333
 20
177.733
 30
0.0
 11
450.118583
 21
177.733
 31
0.0
  0
LINE
  5
2F2
100
AcDbEntity
  8
1
  6
CONTINUOUS
 62
     2
100
AcDbLine
 10
392.206083
 20
128.733
 30
0.0
 11
419.662333
 21
128.733
 31
0.0
  0
LINE
  5
2F3
100
AcDbEntity
  8
1
  6
CONTINUOUS
 62
     2
100
AcDbLine
 10
422.662333
 20
128.733
 30
0.0
 11
450.118583
 21
128.733
 31
0.0
  0
LINE
  5
2F4
100
AcDbEntity
  8
1
  6
CONTINUOUS
 62
     2
100
AcDbLine
 10
419.662333
 20
177.733
 30
0.0
 11
420.346333
 21
179.612417
 31
0.0
  0
LINE
  5
2F5
100
AcDbEntity
  8
1
  6
CONTINUOUS
 62
     2
100
AcDbLine
 10
422.662333
 20
177.733
 30
0.0
 11
421.978333
 21
175.853583
 31
0.0
  0
LINE
  5
2F6
100
AcDbEntity
  8
1
  6
CONTINUOUS
 62
     2
100
AcDbLine
 10
421.978333
 20
175.853583
 30
0.0
 11
420.346333
 21
179.612417
 31
0.0
  0
LINE
  5
2F7
100
AcDbEntity
  8
1
  6
CONTINUOUS
 62
     2
100
AcDbLine
 10
422.662333
 20
128.733
 30
0.0
 11
421.978333
 21
126.853583
 31
0.0
  0
LINE
  5
2F8
100
AcDbEntity
  8
1
  6
CONTINUOUS
 62
     2
100
AcDbLine
 10
419.662333
 20
128.733
 30
0.0
 11
420.346333
 21
130.612417
 31
0.0
  0
LINE
  5
2F9
100
AcDbEntity
  8
1
  6
CONTINUOUS
 62
     2
100
AcDbLine
 10
421.978333
 20
126.853583
 30
0.0
 11
420.346333
 21
130.612417
 31
0.0
  0
ARC
  5
2FA
100
AcDbEntity
  8
1
  6
CONTINUOUS
 62
     7
100
AcDbCircle
 10
421.162333
 20
119.409062
 30
0.0
 40
51.365001
210
0.0
220
0.0
230
1.0
100
AcDbArc
 50
63.141342
 51
116.858656
  0
INSERT
  5
2FB
100
AcDbEntity
  8
1
  6
CONTINUOUS
 62
     1
100
AcDbBlockReference
  2
LDR
 10
397.956083
 20
165.233
 30
0.0
 41
240.0
 42
240.0
 50
206.858656
210
0.0
220
0.0
230
1.0
  0
INSERT
  5
2FC
100
AcDbEntity
  8
1
  6
CONTINUOUS
 62
     1
100
AcDbBlockReference
  2
LDR
 10
397.956083
 20
165.233
 30
0.0
 41
240.0
 42
240.0
 50
206.858656
210
0.0
220
0.0
230
1.0
  0
INSERT
  5
2FD
100
AcDbEntity
  8
1
  6
CONTINUOUS
 62
     1
100
AcDbBlockReference
  2
LDR
 10
444.368583
 20
165.233
 30
0.0
 41
240.0
 42
240.0
 50
333.141342
210
0.0
220
0.0
230
1.0
  0
ARC
  5
2FE
100
AcDbEntity
  8
1
  6
CONTINUOUS
 62
     7
100
AcDbCircle
 10
421.117706
 20
216.090417
 30
0.0
 40
68.376554
210
0.0
220
0.0
230
1.0
100
AcDbArc
 50
248.928114
 51
291.344939
  0
INSERT
  5
2FF
100
AcDbEntity
  8
1
  6
CONTINUOUS
 62
     1
100
AcDbBlockReference
  2
LDR
 10
397.956083
 20
151.537667
 30
0.0
 41
240.0
 42
-240.0
 50
153.141344
210
0.0
220
0.0
230
1.0
  0
INSERT
  5
300
100
AcDbEntity
  8
1
  6
CONTINUOUS
 62
     1
100
AcDbBlockReference
  2
LDR
 10
396.533667
 20
152.286167
 30
0.0
 41
240.000002
 42
240.000002
 50
158.928114
210
0.0
220
0.0
230
1.0
  0
INSERT
  5
301
100
AcDbEntity
  8
1
  6
CONTINUOUS
 62
     1
100
AcDbBlockReference
  2
LDR
 10
396.533667
 20
152.286167
 30
0.0
 41
240.000002
 42
240.000002
 50
158.928114
210
0.0
220
0.0
230
1.0
  0
INSERT
  5
302
100
AcDbEntity
  8
1
  6
CONTINUOUS
 62
     1
100
AcDbBlockReference
  2
LDR
 10
446.0055
 20
152.404083
 30
0.0
 41
240.000001
 42
240.000001
 50
21.344939
210
0.0
220
0.0
230
1.0
  0
TEXT
  5
303
100
AcDbEntity
  8
1
  6
CONTINUOUS
 62
     7
100
AcDbText
 10
410.719417
 20
171.774083
 30
0.0
 40
2.5
  1
HOLE DIAM.
  7
MONOTXT
 72
     4
 11
421.16225
 21
173.024083
 31
0.0
210
0.0
220
0.0
230
1.0
100
AcDbText
  0
TEXT
  5
304
100
AcDbEntity
  8
1
  6
CONTINUOUS
 62
     7
100
AcDbText
 10
419.626917
 20
167.274083
 30
0.0
 40
2.5
  1
D1
  7
MONOTXT
 72
     4
 11
421.162333
 21
168.524083
 31
0.0
210
0.0
220
0.0
230
1.0
100
AcDbText
  0
TEXT
  5
305
100
AcDbEntity
  8
1
  6
CONTINUOUS
 62
     7
100
AcDbText
 10
410.391833
 20
149.025
 30
0.0
 40
2.5
  1
HOLE DIAM.
  7
MONOTXT
 72
     4
 11
420.834667
 21
150.275
 31
0.0
210
0.0
220
0.0
230
1.0
100
AcDbText
  0
TEXT
  5
306
100
AcDbEntity
  8
1
  6
CONTINUOUS
 62
     7
100
AcDbText
 10
418.767833
 20
144.525
 30
0.0
 40
2.5
  1
D2
  7
MONOTXT
 72
     4
 11
420.844583
 21
145.775
 31
0.0
210
0.0
220
0.0
230
1.0
100
AcDbText
  0
TEXT
  5
307
100
AcDbEntity
  8
1
  6
CONTINUOUS
 62
     7
100
AcDbText
 10
407.248917
 20
157.712
 30
0.0
 40
2.5
  1
CUT COLUMN
  7
MONOTXT
 11
407.248917
 21
160.212
 31
0.0
210
0.0
220
0.0
230
1.0
100
AcDbText
 73
     3
  0
TEXT
  5
308
100
AcDbEntity
  8
1
  6
CONTINUOUS
 62
     7
100
AcDbText
 10
407.248917
 20
154.212
 30
0.0
 40
2.5
  1
FULL WIDTH
  7
MONOTXT
 11
407.248917
 21
156.712
 31
0.0
210
0.0
220
0.0
230
1.0
100
AcDbText
 73
     3
  0
LINE
  5
309
100
AcDbEntity
  8
1
  6
CONTINUOUS
 62
     7
100
AcDbLine
 10
430.257167
 20
155.53575
 30
0.0
 11
433.7905
 21
155.53575
 31
0.0
  0
LINE
  5
30A
100
AcDbEntity
  8
1
  6
CONTINUOUS
 62
     7
100
AcDbLine
 10
433.7905
 20
155.53575
 30
0.0
 11
437.4755
 21
153.233
 31
0.0
  0
INSERT
  5
30B
100
AcDbEntity
  8
1
  6
CONTINUOUS
 62
     1
100
AcDbBlockReference
  2
LDR
 10
437.4755
 20
153.233
 30
0.0
 41
239.999997
 42
239.999997
 50
327.99881
210
0.0
220
0.0
230
1.0
  0
TEXT
  5
30C
100
AcDbEntity
  8
1
  6
CONTINUOUS
 62
     7
100
AcDbText
 10
386.4235
 20
169.477
 30
0.0
 40
2.5
  1
T3
  7
MONOTXT
 72
     4
 11
388.50025
 21
170.727
 31
0.0
210
0.0
220
0.0
230
1.0
100
AcDbText
  0
TEXT
  5
30D
100
AcDbEntity
  8
1
  6
CONTINUOUS
 62
     7
100
AcDbText
 10
451.113083
 20
169.5565
 30
0.0
 40
2.5
  1
T3
  7
MONOTXT
 72
     4
 11
453.189833
 21
170.8065
 31
0.0
210
0.0
220
0.0
230
1.0
100
AcDbText
  0
TEXT
  5
30E
100
AcDbEntity
  8
1
  6
CONTINUOUS
 62
     7
100
AcDbText
 10
455.01275
 20
129.241583
 30
0.0
 40
2.5
  1
PLATE
  7
MONOTXT
 72
     4
 11
460.57375
 21
130.491583
 31
0.0
210
0.0
220
0.0
230
1.0
100
AcDbText
  0
TEXT
  5
30F
100
AcDbEntity
  8
1
  6
CONTINUOUS
 62
     7
100
AcDbText
 10
457.493083
 20
125.741583
 30
0.0
 40
2.5
  1
FxN
  7
MONOTXT
 72
     4
 11
460.57375
 21
126.991583
 31
0.0
210
0.0
220
0.0
230
1.0
100
AcDbText
  0
ARC
  5
310
100
AcDbEntity
  8
1
  6
CONTINUOUS
 62
     7
100
AcDbCircle
 10
452.04427
 20
122.431157
 30
0.0
 40
17.812569
210
0.0
220
0.0
230
1.0
100
AcDbArc
 50
31.018567
 51
88.011544
  0
INSERT
  5
311
100
AcDbEntity
  8
1
  6
CONTINUOUS
 62
     1
100
AcDbBlockReference
  2
LDR
 10
452.662333
 20
140.233
 30
0.0
 41
240.000001
 42
240.000001
 50
178.011544
210
0.0
220
0.0
230
1.0
  0
INSERT
  5
312
100
AcDbEntity
  8
1
  6
CONTINUOUS
 62
     1
100
AcDbBlockReference
  2
LDR
 10
452.662333
 20
140.233
 30
0.0
 41
240.000001
 42
240.000001
 50
178.011544
210
0.0
220
0.0
230
1.0
  0
ARC
  5
313
100
AcDbEntity
  8
1
  6
CONTINUOUS
 62
     7
100
AcDbCircle
 10
458.30271
 20
126.839534
 30
0.0
 40
10.192399
210
0.0
220
0.0
230
1.0
100
AcDbArc
 50
273.866481
 51
27.908836
  0
TEXT
  5
314
100
AcDbEntity
  8
1
  6
CONTINUOUS
 62
     7
100
AcDbText
 10
376.62025
 20
129.41375
 30
0.0
 40
2.5
  1
PLATE
  7
MONOTXT
 72
     4
 11
382.18125
 21
130.66375
 31
0.0
210
0.0
220
0.0
230
1.0
100
AcDbText
  0
TEXT
  5
315
100
AcDbEntity
  8
1
  6
CONTINUOUS
 62
     7
100
AcDbText
 10
379.100583
 20
125.91375
 30
0.0
 40
2.5
  1
FxN
  7
MONOTXT
 72
     4
 11
382.18125
 21
127.16375
 31
0.0
210
0.0
220
0.0
230
1.0
100
AcDbText
  0
TEXT
  5
316
100
AcDbEntity
  8
1
  6
CONTINUOUS
 62
     7
100
AcDbText
 10
347.545667
 20
106.455583
 30
0.0
 40
2.5
  1
"W"
  7
MONOTXT
 72
     4
 11
350.646
 21
107.705583
 31
0.0
210
0.0
220
0.0
230
1.0
100
AcDbText
  0
TEXT
  5
317
100
AcDbEntity
  8
1
  6
CONTINUOUS
 62
     7
100
AcDbText
 10
345.331083
 20
101.955583
 30
0.0
 40
2.5
  1
WIDTH
  7
MONOTXT
 72
     4
 11
350.655833
 21
103.205583
 31
0.0
210
0.0
220
0.0
230
1.0
100
AcDbText
  0
TEXT
  5
318
100
AcDbEntity
  8
1
  6
CONTINUOUS
 62
     7
100
AcDbText
 10
395.9635
 20
90.020417
 30
0.0
 40
3.5
  1
HINGE PLATE DETAIL
  7
MONOTXT
 72
     4
 11
423.50875
 21
91.770417
 31
0.0
210
0.0
220
0.0
230
1.0
100
AcDbText
  0
LINE
  5
319
100
AcDbEntity
  8
1
  6
CONTINUOUS
 62
     7
100
AcDbLine
 10
394.2715
 20
88.666
 30
0.0
 11
452.5065
 21
88.666
 31
0.0
  0
LINE
  5
31A
100
AcDbEntity
  8
1
  6
CONTINUOUS
 62
     4
100
AcDbLine
 10
577.95625
 20
282.859333
 30
0.0
 11
577.95625
 21
183.859333
 31
0.0
  0
LINE
  5
31B
100
AcDbEntity
  8
1
  6
CONTINUOUS
 62
     4
100
AcDbLine
 10
582.45625
 20
282.859333
 30
0.0
 11
582.45625
 21
183.859333
 31
0.0
  0
LINE
  5
31C
100
AcDbEntity
  8
1
  6
CONTINUOUS
 62
     4
100
AcDbLine
 10
576.45625
 20
282.859333
 30
0.0
 11
582.45625
 21
282.859333
 31
0.0
  0
LINE
  5
31D
100
AcDbEntity
  8
1
  6
CONTINUOUS
 62
     4
100
AcDbLine
 10
578.70625
 20
282.859333
 30
0.0
 11
578.70625
 21
183.859333
 31
0.0
  0
LINE
  5
31E
100
AcDbEntity
  8
1
  6
CONTINUOUS
 62
     4
100
AcDbLine
 10
581.70625
 20
282.859333
 30
0.0
 11
581.70625
 21
183.859333
 31
0.0
  0
LINE
  5
31F
100
AcDbEntity
  8
1
  6
HIDDEN
 62
     4
100
AcDbLine
 10
577.95625
 20
183.859333
 30
0.0
 11
577.95625
 21
181.053167
 31
0.0
  0
LINE
  5
320
100
AcDbEntity
  8
1
  6
HIDDEN
 62
     4
100
AcDbLine
 10
578.70625
 20
183.859333
 30
0.0
 11
578.70625
 21
180.9875
 31
0.0
  0
LINE
  5
321
100
AcDbEntity
  8
1
  6
HIDDEN
 62
     4
100
AcDbLine
 10
581.70625
 20
183.859333
 30
0.0
 11
581.70625
 21
180.725083
 31
0.0
  0
LINE
  5
322
100
AcDbEntity
  8
1
  6
HIDDEN
 62
     4
100
AcDbLine
 10
582.45625
 20
183.859333
 30
0.0
 11
582.45625
 21
180.659417
 31
0.0
  0
LINE
  5
323
100
AcDbEntity
  8
1
  6
CONTINUOUS
 62
     4
100
AcDbLine
 10
574.95625
 20
183.859333
 30
0.0
 11
585.45625
 21
183.859333
 31
0.0
  0
LINE
  5
324
100
AcDbEntity
  8
1
  6
CONTINUOUS
 62
     4
100
AcDbLine
 10
574.95625
 20
183.859333
 30
0.0
 11
574.95625
 21
181.315583
 31
0.0
  0
LINE
  5
325
100
AcDbEntity
  8
1
  6
CONTINUOUS
 62
     4
100
AcDbLine
 10
585.45625
 20
183.859333
 30
0.0
 11
585.45625
 21
180.397
 31
0.0
  0
LINE
  5
326
100
AcDbEntity
  8
1
  6
CONTINUOUS
 62
     4
100
AcDbLine
 10
576.70625
 20
183.359333
 30
0.0
 11
576.70625
 21
182.359333
 31
0.0
  0
LINE
  5
327
100
AcDbEntity
  8
1
  6
CONTINUOUS
 62
     4
100
AcDbLine
 10
583.70625
 20
183.359333
 30
0.0
 11
583.70625
 21
182.359333
 31
0.0
  0
LINE
  5
328
100
AcDbEntity
  8
1
  6
CONTINUOUS
 62
     4
100
AcDbLine
 10
576.70625
 20
182.359333
 30
0.0
 11
577.70625
 21
182.359333
 31
0.0
  0
LINE
  5
329
100
AcDbEntity
  8
1
  6
CONTINUOUS
 62
     4
100
AcDbLine
 10
583.70625
 20
182.359333
 30
0.0
 11
582.70625
 21
182.359333
 31
0.0
  0
LINE
  5
32A
100
AcDbEntity
  8
1
  6
CONTINUOUS
 62
     4
100
AcDbLine
 10
576.95625
 20
188.359333
 30
0.0
 11
577.95625
 21
188.359333
 31
0.0
  0
LINE
  5
32B
100
AcDbEntity
  8
1
  6
CONTINUOUS
 62
     4
100
AcDbLine
 10
583.45625
 20
188.359333
 30
0.0
 11
582.45625
 21
188.359333
 31
0.0
  0
LINE
  5
32C
100
AcDbEntity
  8
1
  6
CONTINUOUS
 62
     4
100
AcDbLine
 10
576.45625
 20
185.609333
 30
0.0
 11
577.95625
 21
185.609333
 31
0.0
  0
LINE
  5
32D
100
AcDbEntity
  8
1
  6
CONTINUOUS
 62
     4
100
AcDbLine
 10
583.95625
 20
185.609333
 30
0.0
 11
582.45625
 21
185.609333
 31
0.0
  0
LINE
  5
32E
100
AcDbEntity
  8
1
  6
CONTINUOUS
 62
     4
100
AcDbLine
 10
576.95625
 20
188.359333
 30
0.0
 11
576.45625
 21
185.609333
 31
0.0
  0
LINE
  5
32F
100
AcDbEntity
  8
1
  6
CONTINUOUS
 62
     4
100
AcDbLine
 10
583.45625
 20
188.359333
 30
0.0
 11
583.95625
 21
185.609333
 31
0.0
  0
LINE
  5
330
100
AcDbEntity
  8
1
  6
CONTINUOUS
 62
     4
100
AcDbLine
 10
576.774417
 20
183.859333
 30
0.0
 11
576.45625
 21
185.609333
 31
0.0
  0
LINE
  5
331
100
AcDbEntity
  8
1
  6
CONTINUOUS
 62
     4
100
AcDbLine
 10
583.638083
 20
183.859333
 30
0.0
 11
583.95625
 21
185.609333
 31
0.0
  0
LINE
  5
332
100
AcDbEntity
  8
1
  6
CONTINUOUS
 62
     4
100
AcDbLine
 10
576.501667
 20
185.859333
 30
0.0
 11
577.95625
 21
185.859333
 31
0.0
  0
LINE
  5
333
100
AcDbEntity
  8
1
  6
CONTINUOUS
 62
     4
100
AcDbLine
 10
576.501667
 20
185.359333
 30
0.0
 11
577.95625
 21
185.359333
 31
0.0
  0
LINE
  5
334
100
AcDbEntity
  8
1
  6
CONTINUOUS
 62
     4
100
AcDbLine
 10
583.910833
 20
185.859333
 30
0.0
 11
582.45625
 21
185.859333
 31
0.0
  0
LINE
  5
335
100
AcDbEntity
  8
1
  6
CONTINUOUS
 62
     4
100
AcDbLine
 10
583.910833
 20
185.359333
 30
0.0
 11
582.45625
 21
185.359333
 31
0.0
  0
LINE
  5
336
100
AcDbEntity
  8
1
  6
CONTINUOUS
 62
     4
100
AcDbLine
 10
576.979
 20
184.859333
 30
0.0
 11
576.979
 21
185.359333
 31
0.0
  0
LINE
  5
337
100
AcDbEntity
  8
1
  6
CONTINUOUS
 62
     4
100
AcDbLine
 10
576.979
 20
185.859333
 30
0.0
 11
576.979
 21
186.359333
 31
0.0
  0
LINE
  5
338
100
AcDbEntity
  8
1
  6
CONTINUOUS
 62
     4
100
AcDbLine
 10
577.479
 20
184.859333
 30
0.0
 11
577.479
 21
185.359333
 31
0.0
  0
LINE
  5
339
100
AcDbEntity
  8
1
  6
CONTINUOUS
 62
     4
100
AcDbLine
 10
577.479
 20
185.859333
 30
0.0
 11
577.479
 21
186.359333
 31
0.0
  0
LINE
  5
33A
100
AcDbEntity
  8
1
  6
CONTINUOUS
 62
     4
100
AcDbLine
 10
582.933583
 20
184.859333
 30
0.0
 11
582.933583
 21
185.359333
 31
0.0
  0
LINE
  5
33B
100
AcDbEntity
  8
1
  6
CONTINUOUS
 62
     4
100
AcDbLine
 10
582.933583
 20
185.859333
 30
0.0
 11
582.933583
 21
186.359333
 31
0.0
  0
LINE
  5
33C
100
AcDbEntity
  8
1
  6
CONTINUOUS
 62
     4
100
AcDbLine
 10
583.433583
 20
184.859333
 30
0.0
 11
583.433583
 21
185.359333
 31
0.0
  0
LINE
  5
33D
100
AcDbEntity
  8
1
  6
CONTINUOUS
 62
     4
100
AcDbLine
 10
583.433583
 20
185.859333
 30
0.0
 11
583.433583
 21
186.359333
 31
0.0
  0
LINE
  5
33E
100
AcDbEntity
  8
1
  6
CONTINUOUS
 62
     4
100
AcDbLine
 10
576.979
 20
186.359333
 30
0.0
 11
577.479
 21
186.359333
 31
0.0
  0
LINE
  5
33F
100
AcDbEntity
  8
1
  6
CONTINUOUS
 62
     4
100
AcDbLine
 10
576.979
 20
184.859333
 30
0.0
 11
577.479
 21
184.859333
 31
0.0
  0
LINE
  5
340
100
AcDbEntity
  8
1
  6
CONTINUOUS
 62
     4
100
AcDbLine
 10
582.933583
 20
186.359333
 30
0.0
 11
583.433583
 21
186.359333
 31
0.0
  0
LINE
  5
341
100
AcDbEntity
  8
1
  6
CONTINUOUS
 62
     4
100
AcDbLine
 10
582.933583
 20
184.859333
 30
0.0
 11
583.433583
 21
184.859333
 31
0.0
  0
LINE
  5
342
100
AcDbEntity
  8
1
  6
CONTINUOUS
 62
     4
100
AcDbLine
 10
577.45625
 20
230.359333
 30
0.0
 11
577.95625
 21
230.359333
 31
0.0
  0
LINE
  5
343
100
AcDbEntity
  8
1
  6
CONTINUOUS
 62
     4
100
AcDbLine
 10
582.45625
 20
230.359333
 30
0.0
 11
582.95625
 21
230.359333
 31
0.0
  0
LINE
  5
344
100
AcDbEntity
  8
1
  6
CONTINUOUS
 62
     4
100
AcDbLine
 10
577.45625
 20
227.859333
 30
0.0
 11
577.95625
 21
227.859333
 31
0.0
  0
LINE
  5
345
100
AcDbEntity
  8
1
  6
CONTINUOUS
 62
     4
100
AcDbLine
 10
582.45625
 20
227.859333
 30
0.0
 11
582.95625
 21
227.859333
 31
0.0
  0
LINE
  5
346
100
AcDbEntity
  8
1
  6
CONTINUOUS
 62
     4
100
AcDbLine
 10
577.45625
 20
230.359333
 30
0.0
 11
577.45625
 21
227.859333
 31
0.0
  0
LINE
  5
347
100
AcDbEntity
  8
1
  6
CONTINUOUS
 62
     4
100
AcDbLine
 10
582.95625
 20
230.359333
 30
0.0
 11
582.95625
 21
227.859333
 31
0.0
  0
LINE
  5
348
100
AcDbEntity
  8
1
  6
CONTINUOUS
 62
     4
100
AcDbLine
 10
576.95625
 20
229.984333
 30
0.0
 11
577.45625
 21
229.984333
 31
0.0
  0
LINE
  5
349
100
AcDbEntity
  8
1
  6
CONTINUOUS
 62
     4
100
AcDbLine
 10
576.95625
 20
228.234333
 30
0.0
 11
577.45625
 21
228.234333
 31
0.0
  0
LINE
  5
34A
100
AcDbEntity
  8
1
  6
CONTINUOUS
 62
     4
100
AcDbLine
 10
582.95625
 20
229.984333
 30
0.0
 11
583.45625
 21
229.984333
 31
0.0
  0
LINE
  5
34B
100
AcDbEntity
  8
1
  6
CONTINUOUS
 62
     4
100
AcDbLine
 10
582.95625
 20
228.234333
 30
0.0
 11
583.45625
 21
228.234333
 31
0.0
  0
LINE
  5
34C
100
AcDbEntity
  8
1
  6
CONTINUOUS
 62
     4
100
AcDbLine
 10
576.95625
 20
229.484333
 30
0.0
 11
577.45625
 21
229.484333
 31
0.0
  0
LINE
  5
34D
100
AcDbEntity
  8
1
  6
CONTINUOUS
 62
     4
100
AcDbLine
 10
576.95625
 20
228.734333
 30
0.0
 11
577.45625
 21
228.734333
 31
0.0
  0
LINE
  5
34E
100
AcDbEntity
  8
1
  6
CONTINUOUS
 62
     4
100
AcDbLine
 10
582.95625
 20
229.484333
 30
0.0
 11
583.45625
 21
229.484333
 31
0.0
  0
LINE
  5
34F
100
AcDbEntity
  8
1
  6
CONTINUOUS
 62
     4
100
AcDbLine
 10
582.95625
 20
228.734333
 30
0.0
 11
583.45625
 21
228.734333
 31
0.0
  0
LINE
  5
350
100
AcDbEntity
  8
1
  6
CONTINUOUS
 62
     4
100
AcDbLine
 10
576.95625
 20
229.984333
 30
0.0
 11
576.95625
 21
229.484333
 31
0.0
  0
LINE
  5
351
100
AcDbEntity
  8
1
  6
CONTINUOUS
 62
     4
100
AcDbLine
 10
576.95625
 20
228.734333
 30
0.0
 11
576.95625
 21
228.234333
 31
0.0
  0
LINE
  5
352
100
AcDbEntity
  8
1
  6
CONTINUOUS
 62
     4
100
AcDbLine
 10
583.45625
 20
229.984333
 30
0.0
 11
583.45625
 21
229.484333
 31
0.0
  0
LINE
  5
353
100
AcDbEntity
  8
1
  6
CONTINUOUS
 62
     4
100
AcDbLine
 10
583.45625
 20
228.734333
 30
0.0
 11
583.45625
 21
228.234333
 31
0.0
  0
LINE
  5
354
100
AcDbEntity
  8
1
  6
CONTINUOUS
 62
     4
100
AcDbLine
 10
578.70625
 20
229.109333
 30
0.0
 11
581.70625
 21
229.109333
 31
0.0
  0
LINE
  5
355
100
AcDbEntity
  8
1
  6
CONTINUOUS
 62
     4
100
AcDbLine
 10
579.20625
 20
228.734333
 30
0.0
 11
579.20625
 21
228.234333
 31
0.0
  0
LINE
  5
356
100
AcDbEntity
  8
1
  6
CONTINUOUS
 62
     4
100
AcDbLine
 10
579.20625
 20
229.984333
 30
0.0
 11
578.70625
 21
229.984333
 31
0.0
  0
LINE
  5
357
100
AcDbEntity
  8
1
  6
CONTINUOUS
 62
     4
100
AcDbLine
 10
579.20625
 20
228.234333
 30
0.0
 11
578.70625
 21
228.234333
 31
0.0
  0
LINE
  5
358
100
AcDbEntity
  8
1
  6
CONTINUOUS
 62
     4
100
AcDbLine
 10
579.20625
 20
229.484333
 30
0.0
 11
578.70625
 21
229.484333
 31
0.0
  0
LINE
  5
359
100
AcDbEntity
  8
1
  6
CONTINUOUS
 62
     4
100
AcDbLine
 10
579.20625
 20
228.734333
 30
0.0
 11
578.70625
 21
228.734333
 31
0.0
  0
LINE
  5
35A
100
AcDbEntity
  8
1
  6
CONTINUOUS
 62
     4
100
AcDbLine
 10
579.20625
 20
229.984333
 30
0.0
 11
579.20625
 21
229.484333
 31
0.0
  0
LINE
  5
35B
100
AcDbEntity
  8
1
  6
CONTINUOUS
 62
     4
100
AcDbLine
 10
581.20625
 20
228.734333
 30
0.0
 11
581.20625
 21
228.234333
 31
0.0
  0
LINE
  5
35C
100
AcDbEntity
  8
1
  6
CONTINUOUS
 62
     4
100
AcDbLine
 10
581.70625
 20
229.984333
 30
0.0
 11
581.20625
 21
229.984333
 31
0.0
  0
LINE
  5
35D
100
AcDbEntity
  8
1
  6
CONTINUOUS
 62
     4
100
AcDbLine
 10
581.70625
 20
228.234333
 30
0.0
 11
581.20625
 21
228.234333
 31
0.0
  0
LINE
  5
35E
100
AcDbEntity
  8
1
  6
CONTINUOUS
 62
     4
100
AcDbLine
 10
581.70625
 20
229.484333
 30
0.0
 11
581.20625
 21
229.484333
 31
0.0
  0
LINE
  5
35F
100
AcDbEntity
  8
1
  6
CONTINUOUS
 62
     4
100
AcDbLine
 10
581.70625
 20
228.734333
 30
0.0
 11
581.20625
 21
228.734333
 31
0.0
  0
LINE
  5
360
100
AcDbEntity
  8
1
  6
CONTINUOUS
 62
     4
100
AcDbLine
 10
581.20625
 20
229.984333
 30
0.0
 11
581.20625
 21
229.484333
 31
0.0
  0
LINE
  5
361
100
AcDbEntity
  8
1
  6
CONTINUOUS
 62
     7
100
AcDbLine
 10
576.45625
 20
229.734333
 30
0.0
 11
579.70625
 21
229.734333
 31
0.0
  0
LINE
  5
362
100
AcDbEntity
  8
1
  6
CONTINUOUS
 62
     7
100
AcDbLine
 10
576.45625
 20
228.484333
 30
0.0
 11
579.70625
 21
228.484333
 31
0.0
  0
LINE
  5
363
100
AcDbEntity
  8
1
  6
CONTINUOUS
 62
     7
100
AcDbLine
 10
580.70625
 20
229.734333
 30
0.0
 11
583.95625
 21
229.734333
 31
0.0
  0
LINE
  5
364
100
AcDbEntity
  8
1
  6
CONTINUOUS
 62
     7
100
AcDbLine
 10
580.70625
 20
228.484333
 30
0.0
 11
583.95625
 21
228.484333
 31
0.0
  0
LINE
  5
365
100
AcDbEntity
  8
1
  6
CONTINUOUS
 62
     7
100
AcDbLine
 10
575.45625
 20
230.859333
 30
0.0
 11
554.45625
 21
230.859333
 31
0.0
  0
LINE
  5
366
100
AcDbEntity
  8
1
  6
CONTINUOUS
 62
     7
100
AcDbLine
 10
555.45625
 20
230.859333
 30
0.0
 11
555.45625
 21
234.859333
 31
0.0
  0
LINE
  5
367
100
AcDbEntity
  8
1
  6
CONTINUOUS
 62
     7
100
AcDbLine
 10
555.45625
 20
229.109333
 30
0.0
 11
555.45625
 21
225.109333
 31
0.0
  0
INSERT
  5
368
100
AcDbEntity
  8
1
  6
CONTINUOUS
 62
     1
100
AcDbBlockReference
  2
LDR
 10
555.45625
 20
230.859333
 30
0.0
 41
240.0
 42
240.0
 50
270.0
210
0.0
220
0.0
230
1.0
  0
INSERT
  5
369
100
AcDbEntity
  8
1
  6
CONTINUOUS
 62
     1
100
AcDbBlockReference
  2
LDR
 10
555.45625
 20
230.859333
 30
0.0
 41
240.0
 42
240.0
 50
270.0
210
0.0
220
0.0
230
1.0
  0
INSERT
  5
36A
100
AcDbEntity
  8
1
  6
CONTINUOUS
 62
     1
100
AcDbBlockReference
  2
LDR
 10
555.45625
 20
229.109333
 30
0.0
 41
240.0
 42
240.0
 50
90.0
210
0.0
220
0.0
230
1.0
  0
LINE
  5
36B
100
AcDbEntity
  8
1
  6
CONTINUOUS
 62
     7
100
AcDbLine
 10
550.20625
 20
229.109333
 30
0.0
 11
546.70625
 21
229.109333
 31
0.0
  0
LINE
  5
36C
100
AcDbEntity
  8
1
  6
CONTINUOUS
 62
     7
100
AcDbLine
 10
552.20625
 20
229.109333
 30
0.0
 11
551.20625
 21
229.109333
 31
0.0
  0
LINE
  5
36D
100
AcDbEntity
  8
1
  6
CONTINUOUS
 62
     7
100
AcDbLine
 10
566.70625
 20
229.109333
 30
0.0
 11
553.20625
 21
229.109333
 31
0.0
  0
LINE
  5
36E
100
AcDbEntity
  8
1
  6
CONTINUOUS
 62
     7
100
AcDbLine
 10
568.70625
 20
229.109333
 30
0.0
 11
567.70625
 21
229.109333
 31
0.0
  0
LINE
  5
36F
100
AcDbEntity
  8
1
  6
CONTINUOUS
 62
     7
100
AcDbLine
 10
575.45625
 20
229.109333
 30
0.0
 11
571.70625
 21
229.109333
 31
0.0
  0
LINE
  5
370
100
AcDbEntity
  8
1
  6
CONTINUOUS
 62
     7
100
AcDbLine
 10
570.70625
 20
229.109333
 30
0.0
 11
569.70625
 21
229.109333
 31
0.0
  0
LINE
  5
371
100
AcDbEntity
  8
1
  6
CONTINUOUS
 62
     4
100
AcDbLine
 10
576.45625
 20
282.859333
 30
0.0
 11
576.45625
 21
261.859333
 31
0.0
  0
LINE
  5
372
100
AcDbEntity
  8
1
  6
CONTINUOUS
 62
     4
100
AcDbLine
 10
576.45625
 20
260.859333
 30
0.0
 11
576.45625
 21
259.859333
 31
0.0
  0
LINE
  5
373
100
AcDbEntity
  8
1
  6
CONTINUOUS
 62
     4
100
AcDbLine
 10
576.45625
 20
258.859333
 30
0.0
 11
576.45625
 21
257.859333
 31
0.0
  0
LINE
  5
374
100
AcDbEntity
  8
1
  6
CONTINUOUS
 62
     4
100
AcDbLine
 10
576.45625
 20
256.859333
 30
0.0
 11
576.45625
 21
243.859333
 31
0.0
  0
LINE
  5
375
100
AcDbEntity
  8
1
  6
CONTINUOUS
 62
     4
100
AcDbLine
 10
576.45625
 20
242.859333
 30
0.0
 11
576.45625
 21
241.859333
 31
0.0
  0
LINE
  5
376
100
AcDbEntity
  8
1
  6
CONTINUOUS
 62
     4
100
AcDbLine
 10
576.45625
 20
240.859333
 30
0.0
 11
576.45625
 21
239.859333
 31
0.0
  0
LINE
  5
377
100
AcDbEntity
  8
1
  6
CONTINUOUS
 62
     4
100
AcDbLine
 10
576.45625
 20
238.859333
 30
0.0
 11
576.45625
 21
230.859333
 31
0.0
  0
CIRCLE
  5
378
100
AcDbEntity
  8
1
  6
CONTINUOUS
 62
     4
100
AcDbCircle
 10
580.20625
 20
229.109333
 30
0.0
 40
7.5
210
0.0
220
0.0
230
1.0
  0
LINE
  5
379
100
AcDbEntity
  8
PATTERN_CLASS
  6
CONTINUOUS
 62
     4
100
AcDbLine
 10
533.248083
 20
131.324667
 30
0.0
 11
540.2215
 21
130.7145
 31
0.0
  0
LINE
  5
37A
100
AcDbEntity
  8
1
  6
CONTINUOUS
 62
     4
100
AcDbLine
 10
563.022833
 20
182.359667
 30
0.0
 11
597.391583
 21
179.35275
 31
0.0
  0
LINE
  5
37B
100
AcDbEntity
  8
PATTERN_CLASS
  6
CONTINUOUS
 62
     4
100
AcDbLine
 10
563.869083
 20
130.102
 30
0.0
 11
570.869083
 21
130.102
 31
0.0
  0
LINE
  5
37C
100
AcDbEntity
  8
1
  6
CONTINUOUS
 62
     7
100
AcDbLine
 10
564.334333
 20
182.20475
 30
0.0
 11
562.904333
 21
181.004833
 31
0.0
  0
LINE
  5
37D
100
AcDbEntity
  8
1
  6
CONTINUOUS
 62
     7
100
AcDbLine
 10
565.748917
 20
182.081
 30
0.0
 11
562.910583
 21
179.699333
 31
0.0
  0
LINE
  5
37E
100
AcDbEntity
  8
1
  6
CONTINUOUS
 62
     7
100
AcDbLine
 10
565.649333
 20
182.089667
 30
0.0
 11
567.64925
 21
179.706333
 31
0.0
  0
LINE
  5
37F
100
AcDbEntity
  8
1
  6
CONTINUOUS
 62
     7
100
AcDbLine
 10
565.0875
 20
181.175167
 30
0.0
 11
566.780083
 21
179.180083
 31
0.0
  0
LINE
  5
380
100
AcDbEntity
  8
1
  6
CONTINUOUS
 62
     7
100
AcDbLine
 10
564.545583
 20
180.258917
 30
0.0
 11
565.709167
 21
178.87225
 31
0.0
  0
LINE
  5
381
100
AcDbEntity
  8
1
  6
CONTINUOUS
 62
     7
100
AcDbLine
 10
563.967333
 20
179.386
 30
0.0
 11
564.750833
 21
178.47425
 31
0.0
  0
LINE
  5
382
100
AcDbEntity
  8
1
  6
CONTINUOUS
 62
     7
100
AcDbLine
 10
570.012667
 20
181.707917
 30
0.0
 11
567.64925
 21
179.706333
 31
0.0
  0
LINE
  5
383
100
AcDbEntity
  8
1
  6
CONTINUOUS
 62
     7
100
AcDbLine
 10
568.598083
 20
181.83175
 30
0.0
 11
567.103083
 21
180.57725
 31
0.0
  0
LINE
  5
384
100
AcDbEntity
  8
1
  6
CONTINUOUS
 62
     7
100
AcDbLine
 10
567.163583
 20
181.95725
 30
0.0
 11
566.555167
 21
181.42825
 31
0.0
  0
LINE
  5
385
100
AcDbEntity
  8
1
  6
CONTINUOUS
 62
     7
100
AcDbLine
 10
568.87425
 20
179.940417
 30
0.0
 11
570.037833
 21
178.55375
 31
0.0
  0
LINE
  5
386
100
AcDbEntity
  8
1
  6
CONTINUOUS
 62
     7
100
AcDbLine
 10
568.276083
 20
179.06925
 30
0.0
 11
569.057833
 21
178.137583
 31
0.0
  0
LINE
  5
387
100
AcDbEntity
  8
1
  6
CONTINUOUS
 62
     7
100
AcDbLine
 10
591.72975
 20
179.807917
 30
0.0
 11
590.299667
 21
178.608
 31
0.0
  0
LINE
  5
388
100
AcDbEntity
  8
1
  6
CONTINUOUS
 62
     7
100
AcDbLine
 10
593.144333
 20
179.684167
 30
0.0
 11
590.305917
 21
177.3025
 31
0.0
  0
LINE
  5
389
100
AcDbEntity
  8
1
  6
CONTINUOUS
 62
     7
100
AcDbLine
 10
593.044667
 20
179.692917
 30
0.0
 11
595.044583
 21
177.309583
 31
0.0
  0
LINE
  5
38A
100
AcDbEntity
  8
1
  6
CONTINUOUS
 62
     7
100
AcDbLine
 10
592.482833
 20
178.778417
 30
0.0
 11
594.175417
 21
176.783333
 31
0.0
  0
LINE
  5
38B
100
AcDbEntity
  8
1
  6
CONTINUOUS
 62
     7
100
AcDbLine
 10
591.940917
 20
177.862167
 30
0.0
 11
593.1045
 21
176.475417
 31
0.0
  0
LINE
  5
38C
100
AcDbEntity
  8
1
  6
CONTINUOUS
 62
     7
100
AcDbLine
 10
591.362667
 20
176.98925
 30
0.0
 11
592.146167
 21
176.0775
 31
0.0
  0
LINE
  5
38D
100
AcDbEntity
  8
1
  6
CONTINUOUS
 62
     7
100
AcDbLine
 10
597.408
 20
179.311167
 30
0.0
 11
595.044583
 21
177.309583
 31
0.0
  0
LINE
  5
38E
100
AcDbEntity
  8
1
  6
CONTINUOUS
 62
     7
100
AcDbLine
 10
595.993417
 20
179.434917
 30
0.0
 11
594.498417
 21
178.180417
 31
0.0
  0
LINE
  5
38F
100
AcDbEntity
  8
1
  6
CONTINUOUS
 62
     7
100
AcDbLine
 10
594.558917
 20
179.560417
 30
0.0
 11
593.9505
 21
179.031417
 31
0.0
  0
LINE
  5
390
100
AcDbEntity
  8
1
  6
CONTINUOUS
 62
     7
100
AcDbLine
 10
596.269667
 20
177.543667
 30
0.0
 11
597.43325
 21
176.157
 31
0.0
  0
LINE
  5
391
100
AcDbEntity
  8
1
  6
CONTINUOUS
 62
     7
100
AcDbLine
 10
595.671417
 20
176.6725
 30
0.0
 11
596.45325
 21
175.740833
 31
0.0
  0
LINE
  5
392
100
AcDbEntity
  8
1
  6
CONTINUOUS
 62
     7
100
AcDbLine
 10
585.945333
 20
233.93775
 30
0.0
 11
589.287667
 21
238.82425
 31
0.0
  0
LINE
  5
393
100
AcDbEntity
  8
1
  6
CONTINUOUS
 62
     7
100
AcDbLine
 10
589.287667
 20
238.82425
 30
0.0
 11
591.940667
 21
238.82425
 31
0.0
  0
INSERT
  5
394
100
AcDbEntity
  8
1
  6
CONTINUOUS
 62
     1
100
AcDbBlockReference
  2
LDR
 10
585.945333
 20
233.93775
 30
0.0
 41
240.000001
 42
240.000001
 50
235.628133
210
0.0
220
0.0
230
1.0
  0
INSERT
  5
395
100
AcDbEntity
  8
1
  6
CONTINUOUS
 62
     1
100
AcDbBlockReference
  2
LDR
 10
585.945333
 20
233.93775
 30
0.0
 41
240.000001
 42
240.000001
 50
235.628133
210
0.0
220
0.0
230
1.0
  0
LINE
  5
396
100
AcDbEntity
  8
1
  6
CONTINUOUS
 62
     7
100
AcDbLine
 10
561.368
 20
229.093417
 30
0.0
 11
558.462333
 21
220.5
 31
0.0
  0
LINE
  5
397
100
AcDbEntity
  8
1
  6
CONTINUOUS
 62
     7
100
AcDbLine
 10
558.462333
 20
220.5
 30
0.0
 11
555.935667
 21
220.5
 31
0.0
  0
INSERT
  5
398
100
AcDbEntity
  8
1
  6
CONTINUOUS
 62
     1
100
AcDbBlockReference
  2
LDR
 10
561.368
 20
229.093417
 30
0.0
 41
239.999998
 42
239.999998
 50
71.318213
210
0.0
220
0.0
230
1.0
  0
LINE
  5
399
100
AcDbEntity
  8
1
  6
CONTINUOUS
 62
     7
100
AcDbLine
 10
567.179333
 20
230.989083
 30
0.0
 11
570.590333
 21
245.90125
 31
0.0
  0
LINE
  5
39A
100
AcDbEntity
  8
1
  6
CONTINUOUS
 62
     7
100
AcDbLine
 10
570.590333
 20
245.90125
 30
0.0
 11
568.442667
 21
245.90125
 31
0.0
  0
INSERT
  5
39B
100
AcDbEntity
  8
1
  6
CONTINUOUS
 62
     1
100
AcDbBlockReference
  2
LDR
 10
567.179333
 20
230.989083
 30
0.0
 41
240.000001
 42
240.000001
 50
257.115853
210
0.0
220
0.0
230
1.0
  0
LINE
  5
39C
100
AcDbEntity
  8
1
  6
CONTINUOUS
 62
     7
100
AcDbLine
 10
597.371833
 20
264.205083
 30
0.0
 11
580.20625
 21
229.109333
 31
0.0
  0
INSERT
  5
39D
100
AcDbEntity
  8
1
  6
CONTINUOUS
 62
     1
100
AcDbBlockReference
  2
LDR
 10
580.20625
 20
229.109333
 30
0.0
 41
239.999999
 42
239.999999
 50
243.936411
210
0.0
220
0.0
230
1.0
  0
TEXT
  5
39E
100
AcDbEntity
  8
1
  6
CONTINUOUS
 62
     7
100
AcDbText
 10
603.498833
 20
263.202167
 30
0.0
 40
2.5
  1
POST SHALL BE SAW CUT
  7
MONOTXT
 72
     4
 11
629.433833
 21
264.452167
 31
0.0
210
0.0
220
0.0
230
1.0
100
AcDbText
  0
TEXT
  5
39F
100
AcDbEntity
  8
1
  6
CONTINUOUS
 62
     7
100
AcDbText
 10
609.286167
 20
258.702167
 30
0.0
 40
2.5
  1
BEFORE GALVANIZING
  7
MONOTXT
 72
     4
 11
629.43375
 21
259.952167
 31
0.0
210
0.0
220
0.0
230
1.0
100
AcDbText
  0
TEXT
  5
3A0
100
AcDbEntity
  8
1
  6
CONTINUOUS
 62
     7
100
AcDbText
 10
549.655
 20
235.590167
 30
0.0
 40
2.5
  1
100mm
  7
MONOTXT
 72
     4
 11
555.796667
 21
236.840167
 31
0.0
210
0.0
220
0.0
230
1.0
100
AcDbText
  0
TEXT
  5
3A1
100
AcDbEntity
  8
1
  6
CONTINUOUS
 62
     7
100
AcDbText
 10
535.123417
 20
219.02025
 30
0.0
 40
2.5
  1
C COLUMN
  7
MONOTXT
 72
     4
 11
544.936417
 21
220.27025
 31
0.0
210
0.0
220
0.0
230
1.0
100
AcDbText
  0
TEXT
  5
3A2
100
AcDbEntity
  8
1
  6
CONTINUOUS
 62
     7
100
AcDbText
 10
541.560417
 20
214.52025
 30
0.0
 40
2.5
  1
CUT
  7
MONOTXT
 72
     4
 11
544.936417
 21
215.77025
 31
0.0
210
0.0
220
0.0
230
1.0
100
AcDbText
  0
TEXT
  5
3A3
100
AcDbEntity
  8
1
  6
CONTINUOUS
 62
     7
100
AcDbText
 10
536.037417
 20
217.89125
 30
0.0
 40
2.5
  1
L
  7
MONOTXT
 72
     4
 11
536.755917
 21
219.14125
 31
0.0
210
0.0
220
0.0
230
1.0
100
AcDbText
  0
TEXT
  5
3A4
100
AcDbEntity
  8
1
  6
CONTINUOUS
 62
     7
100
AcDbText
 10
593.00675
 20
237.4045
 30
0.0
 40
2.5
  1
SEE HINGE
  7
MONOTXT
 72
     4
 11
602.760667
 21
238.6545
 31
0.0
210
0.0
220
0.0
230
1.0
100
AcDbText
  0
TEXT
  5
3A5
100
AcDbEntity
  8
1
  6
CONTINUOUS
 62
     7
100
AcDbText
 10
589.640583
 20
232.9045
 30
0.0
 40
2.5
  1
PLATE DETAIL
  7
MONOTXT
 72
     4
 11
602.760583
 21
234.1545
 31
0.0
210
0.0
220
0.0
230
1.0
100
AcDbText
  0
TEXT
  5
3A6
100
AcDbEntity
  8
1
  6
CONTINUOUS
 62
     7
100
AcDbText
 10
552.561083
 20
246.82075
 30
0.0
 40
2.5
  1
BOTTOM
  7
MONOTXT
 72
     4
 11
559.95275
 21
248.07075
 31
0.0
210
0.0
220
0.0
230
1.0
100
AcDbText
  0
TEXT
  5
3A7
100
AcDbEntity
  8
1
  6
CONTINUOUS
 62
     7
100
AcDbText
 10
552.443
 20
242.32075
 30
0.0
 40
2.5
  1
OF SIGN
  7
MONOTXT
 72
     4
 11
559.952833
 21
243.57075
 31
0.0
210
0.0
220
0.0
230
1.0
100
AcDbText
  0
LINE
  5
3A8
100
AcDbEntity
  8
1
  6
CONTINUOUS
 62
     7
100
AcDbLine
 10
540.138833
 20
163.227667
 30
0.0
 11
606.16325
 21
163.227667
 31
0.0
  0
CIRCLE
  5
3A9
100
AcDbEntity
  8
1
  6
CONTINUOUS
 62
     7
100
AcDbCircle
 10
338.033
 20
226.852417
 30
0.0
 40
2.0
210
0.0
220
0.0
230
1.0
  0
TEXT
  5
3AA
100
AcDbEntity
  8
1
  6
CONTINUOUS
 62
     7
100
AcDbText
 10
335.546833
 20
222.024167
 30
0.0
 40
7.0
  1
*
  7
TXT
 72
     4
 11
337.712583
 21
225.524167
 31
0.0
210
0.0
220
0.0
230
1.0
100
AcDbText
  0
LINE
  5
3AB
100
AcDbEntity
  8
1
  6
CONTINUOUS
 62
     7
100
AcDbLine
 10
301.920583
 20
336.352917
 30
0.0
 11
362.565167
 21
336.352917
 31
0.0
  0
LINE
  5
3AC
100
AcDbEntity
  8
1
  6
CONTINUOUS
 62
     7
100
AcDbLine
 10
316.635333
 20
349.935
 30
0.0
 11
363.062667
 21
349.935
 31
0.0
  0
LINE
  5
3AD
100
AcDbEntity
  8
1
  6
CONTINUOUS
 62
     7
100
AcDbLine
 10
388.090167
 20
302.632833
 30
0.0
 11
445.84575
 21
302.632833
 31
0.0
  0
LINE
  5
3AE
100
AcDbEntity
  8
1
  6
CONTINUOUS
 62
     7
100
AcDbLine
 10
388.090167
 20
293.5905
 30
0.0
 11
445.84575
 21
293.5905
 31
0.0
  0
LINE
  5
3AF
100
AcDbEntity
  8
1
  6
CONTINUOUS
 62
     7
100
AcDbLine
 10
388.090167
 20
284.801667
 30
0.0
 11
445.84575
 21
284.801667
 31
0.0
  0
LINE
  5
3B0
100
AcDbEntity
  8
1
  6
CONTINUOUS
 62
     7
100
AcDbLine
 10
388.090167
 20
275.928333
 30
0.0
 11
445.84575
 21
275.928333
 31
0.0
  0
INSERT
  5
3B1
100
AcDbEntity
  8
1
  6
CONTINUOUS
 62
     1
100
AcDbBlockReference
  2
LDR
 10
388.090167
 20
302.632833
 30
0.0
 41
240.0
 42
240.0
 50
180.0
210
0.0
220
0.0
230
1.0
  0
INSERT
  5
3B2
100
AcDbEntity
  8
1
  6
CONTINUOUS
 62
     1
100
AcDbBlockReference
  2
LDR
 10
388.090167
 20
293.5905
 30
0.0
 41
240.0
 42
240.0
 50
180.0
210
0.0
220
0.0
230
1.0
  0
INSERT
  5
3B3
100
AcDbEntity
  8
1
  6
CONTINUOUS
 62
     1
100
AcDbBlockReference
  2
LDR
 10
388.090167
 20
284.801667
 30
0.0
 41
240.0
 42
240.0
 50
180.0
210
0.0
220
0.0
230
1.0
  0
INSERT
  5
3B4
100
AcDbEntity
  8
1
  6
CONTINUOUS
 62
     1
100
AcDbBlockReference
  2
LDR
 10
388.090167
 20
284.801667
 30
0.0
 41
240.0
 42
240.0
 50
180.0
210
0.0
220
0.0
230
1.0
  0
INSERT
  5
3B5
100
AcDbEntity
  8
1
  6
CONTINUOUS
 62
     1
100
AcDbBlockReference
  2
LDR
 10
388.090167
 20
275.928333
 30
0.0
 41
240.0
 42
240.0
 50
180.0
210
0.0
220
0.0
230
1.0
  0
INSERT
  5
3B6
100
AcDbEntity
  8
1
  6
CONTINUOUS
 62
     1
100
AcDbBlockReference
  2
LDR
 10
445.84575
 20
275.928333
 30
0.0
 41
240.0
 42
240.0
210
0.0
220
0.0
230
1.0
  0
INSERT
  5
3B7
100
AcDbEntity
  8
1
  6
CONTINUOUS
 62
     1
100
AcDbBlockReference
  2
LDR
 10
445.84575
 20
284.801667
 30
0.0
 41
240.0
 42
240.0
210
0.0
220
0.0
230
1.0
  0
INSERT
  5
3B8
100
AcDbEntity
  8
1
  6
CONTINUOUS
 62
     1
100
AcDbBlockReference
  2
LDR
 10
445.84575
 20
284.801667
 30
0.0
 41
240.0
 42
240.0
210
0.0
220
0.0
230
1.0
  0
INSERT
  5
3B9
100
AcDbEntity
  8
1
  6
CONTINUOUS
 62
     1
100
AcDbBlockReference
  2
LDR
 10
445.84575
 20
293.5905
 30
0.0
 41
240.0
 42
240.0
210
0.0
220
0.0
230
1.0
  0
INSERT
  5
3BA
100
AcDbEntity
  8
1
  6
CONTINUOUS
 62
     1
100
AcDbBlockReference
  2
LDR
 10
445.84575
 20
293.5905
 30
0.0
 41
240.0
 42
240.0
210
0.0
220
0.0
230
1.0
  0
INSERT
  5
3BB
100
AcDbEntity
  8
1
  6
CONTINUOUS
 62
     1
100
AcDbBlockReference
  2
LDR
 10
445.84575
 20
302.632833
 30
0.0
 41
240.0
 42
240.0
210
0.0
220
0.0
230
1.0
  0
INSERT
  5
3BC
100
AcDbEntity
  8
1
  6
CONTINUOUS
 62
     1
100
AcDbBlockReference
  2
LDR
 10
445.84575
 20
302.632833
 30
0.0
 41
240.0
 42
240.0
210
0.0
220
0.0
230
1.0
  0
TEXT
  5
3BD
100
AcDbEntity
  8
1
  6
CONTINUOUS
 62
     7
100
AcDbText
 10
379.322083
 20
301.426083
 30
0.0
 40
2.5
  1
/
  7
MONOTXT
 72
     4
 11
380.020917
 21
302.676083
 31
0.0
210
0.0
220
0.0
230
1.0
100
AcDbText
  0
TEXT
  5
3BE
100
AcDbEntity
  8
1
  6
CONTINUOUS
 62
     7
100
AcDbText
 10
384.289417
 20
292.420667
 30
0.0
 40
2.5
  1
/
  7
MONOTXT
 72
     4
 11
384.98825
 21
293.670667
 31
0.0
210
0.0
220
0.0
230
1.0
100
AcDbText
  0
TEXT
  5
3BF
100
AcDbEntity
  8
1
  6
CONTINUOUS
 62
     7
100
AcDbText
 10
381.762083
 20
283.285083
 30
0.0
 40
2.5
  1
/
  7
MONOTXT
 72
     4
 11
382.460917
 21
284.535083
 31
0.0
210
0.0
220
0.0
230
1.0
100
AcDbText
  0
TEXT
  5
3C0
100
AcDbEntity
  8
1
  6
CONTINUOUS
 62
     7
100
AcDbText
 10
385.266
 20
274.4115
 30
0.0
 40
2.5
  1
/
  7
MONOTXT
 72
     4
 11
385.964833
 21
275.6615
 31
0.0
210
0.0
220
0.0
230
1.0
100
AcDbText
  0
TEXT
  5
3C1
100
AcDbEntity
  8
1
  6
CONTINUOUS
 62
     7
100
AcDbText
 10
379.629667
 20
114.694083
 30
0.0
 40
2.5
  1
H.S. BOLT, GALV. A-325, WITH HEX. HEAD,
  7
MONOTXT
 11
379.629667
 21
117.194083
 31
0.0
210
0.0
220
0.0
230
1.0
100
AcDbText
 73
     3
  0
TEXT
  5
3C2
100
AcDbEntity
  8
1
  6
CONTINUOUS
 62
     7
100
AcDbText
 10
379.629667
 20
111.194083
 30
0.0
 40
2.5
  1
HEX. NUT AND WASHERS TYP. (USE
  7
MONOTXT
 11
379.629667
 21
113.694083
 31
0.0
210
0.0
220
0.0
230
1.0
100
AcDbText
 73
     3
  0
TEXT
  5
3C3
100
AcDbEntity
  8
1
  6
CONTINUOUS
 62
     7
100
AcDbText
 10
379.629667
 20
107.694083
 30
0.0
 40
2.5
  1
BEVELED WASHERS WHERE NECESSARY)
  7
MONOTXT
 11
379.629667
 21
110.194083
 31
0.0
210
0.0
220
0.0
230
1.0
100
AcDbText
 73
     3
  0
TEXT
  5
3C4
100
AcDbEntity
  8
1
  6
CONTINUOUS
 62
     7
100
AcDbText
 10
379.629667
 20
104.194083
 30
0.0
 40
2.5
  1
FOR TIGHTENING PROCEDURE SEE NOTE 1.
  7
MONOTXT
 11
379.629667
 21
106.694083
 31
0.0
210
0.0
220
0.0
230
1.0
100
AcDbText
 73
     3
  0
TEXT
  5
3C5
100
AcDbEntity
  8
1
  6
CONTINUOUS
 62
     7
100
AcDbText
 10
385.676083
 20
157.13125
 30
0.0
 40
2.5
  1
M
 50
90.0
  7
MONOTXT
 72
     4
 11
384.426083
 21
158.085917
 31
0.0
210
0.0
220
0.0
230
1.0
100
AcDbText
  0
TEXT
  5
3C6
100
AcDbEntity
  8
1
  6
CONTINUOUS
 62
     7
100
AcDbText
 10
385.575083
 20
147.22625
 30
0.0
 40
2.5
  1
M
 50
90.0
  7
MONOTXT
 72
     4
 11
384.325083
 21
148.180917
 31
0.0
210
0.0
220
0.0
230
1.0
100
AcDbText
  0
TEXT
  5
3C7
100
AcDbEntity
  8
1
  6
CONTINUOUS
 62
     7
100
AcDbText
 10
459.2315
 20
157.434417
 30
0.0
 40
2.5
  1
M
 50
90.0
  7
MONOTXT
 72
     4
 11
457.9815
 21
158.389083
 31
0.0
210
0.0
220
0.0
230
1.0
100
AcDbText
  0
TEXT
  5
3C8
100
AcDbEntity
  8
1
  6
CONTINUOUS
 62
     7
100
AcDbText
 10
459.2315
 20
147.327333
 30
0.0
 40
2.5
  1
M
 50
90.0
  7
MONOTXT
 72
     4
 11
457.9815
 21
148.282
 31
0.0
210
0.0
220
0.0
230
1.0
100
AcDbText
  0
LWPOLYLINE
  5
3C9
100
AcDbEntity
  8
1
  6
CONTINUOUS
 62
     7
100
AcDbPolyline
 90
        4
 70
     0
 10
503.954667
 20
14.04425
 10
501.954667
 20
10.580167
 10
505.954667
 20
10.580167
 10
503.954667
 20
14.04425
  0
TEXT
  5
3CA
100
AcDbEntity
  8
1
  6
CONTINUOUS
 62
     7
100
AcDbText
 10
503.291
 20
10.746083
 30
0.0
 40
2.0
  1
8
  7
MONOTXT
210
0.0
220
0.0
230
1.0
100
AcDbText
  0
LWPOLYLINE
  5
3CB
100
AcDbEntity
  8
1
  6
CONTINUOUS
 62
     7
100
AcDbPolyline
 90
        4
 70
     0
 10
500.54225
 20
121.217417
 10
498.54225
 20
117.753333
 10
502.54225
 20
117.753333
 10
500.54225
 20
121.217417
  0
TEXT
  5
3CC
100
AcDbEntity
  8
1
  6
CONTINUOUS
 62
     7
100
AcDbText
 10
499.803333
 20
117.880333
 30
0.0
 40
2.0
  1
8
  7
MONOTXT
210
0.0
220
0.0
230
1.0
100
AcDbText
  0
TEXT
  5
3CD
100
AcDbEntity
  8
1
  6
CONTINUOUS
 62
     7
100
AcDbText
 10
369.444417
 20
61.382917
 30
0.0
 40
2.5
  1
NOTE:
  7
MONOTXT
 11
369.444417
 21
63.882917
 31
0.0
210
0.0
220
0.0
230
1.0
100
AcDbText
 73
     3
  0
TEXT
  5
3CE
100
AcDbEntity
  8
1
  6
CONTINUOUS
 62
     7
100
AcDbText
 10
369.444417
 20
56.882917
 30
0.0
 40
2.5
  1
 
  7
MONOTXT
 11
369.444417
 21
59.382917
 31
0.0
210
0.0
220
0.0
230
1.0
100
AcDbText
 73
     3
  0
TEXT
  5
3CF
100
AcDbEntity
  8
1
  6
CONTINUOUS
 62
     7
100
AcDbText
 10
369.444417
 20
52.382917
 30
0.0
 40
2.5
  1
1.    PROCEDURE FOR ASSEMBLY OF HINGE PLATE
  7
MONOTXT
 11
369.444417
 21
54.882917
 31
0.0
210
0.0
220
0.0
230
1.0
100
AcDbText
 73
     3
  0
TEXT
  5
3D0
100
AcDbEntity
  8
1
  6
CONTINUOUS
 62
     7
100
AcDbText
 10
369.444417
 20
47.882917
 30
0.0
 40
2.5
  1
 
  7
MONOTXT
 11
369.444417
 21
50.382917
 31
0.0
210
0.0
220
0.0
230
1.0
100
AcDbText
 73
     3
  0
TEXT
  5
3D1
100
AcDbEntity
  8
1
  6
CONTINUOUS
 62
     7
100
AcDbText
 10
369.444417
 20
43.382917
 30
0.0
 40
2.5
  1
   A.   TIGHTEN BOLTS IN SYSTEMATIC ORDER TO THE
  7
MONOTXT
 11
369.444417
 21
45.882917
 31
0.0
210
0.0
220
0.0
230
1.0
100
AcDbText
 73
     3
  0
TEXT
  5
3D2
100
AcDbEntity
  8
1
  6
CONTINUOUS
 62
     7
100
AcDbText
 10
369.444417
 20
38.882917
 30
0.0
 40
2.5
  1
      PRESCRIBED TENSION.
  7
MONOTXT
 11
369.444417
 21
41.382917
 31
0.0
210
0.0
220
0.0
230
1.0
100
AcDbText
 73
     3
  0
TEXT
  5
3D3
100
AcDbEntity
  8
1
  6
CONTINUOUS
 62
     7
100
AcDbText
 10
369.444417
 20
34.382917
 30
0.0
 40
2.5
  1
 
  7
MONOTXT
 11
369.444417
 21
36.882917
 31
0.0
210
0.0
220
0.0
230
1.0
100
AcDbText
 73
     3
  0
TEXT
  5
3D4
100
AcDbEntity
  8
1
  6
CONTINUOUS
 62
     7
100
AcDbText
 10
369.444417
 20
29.882917
 30
0.0
 40
2.5
  1
   B.   CONNECTING BOLTS ARE TO BE TENSIONED
  7
MONOTXT
 11
369.444417
 21
32.382917
 31
0.0
210
0.0
220
0.0
230
1.0
100
AcDbText
 73
     3
  0
TEXT
  5
3D5
100
AcDbEntity
  8
1
  6
CONTINUOUS
 62
     7
100
AcDbText
 10
369.444417
 20
25.382917
 30
0.0
 40
2.5
  1
      (TIGHTENED) USING THE TURN OF NUT METHOD
  7
MONOTXT
 11
369.444417
 21
27.882917
 31
0.0
210
0.0
220
0.0
230
1.0
100
AcDbText
 73
     3
  0
TEXT
  5
3D6
100
AcDbEntity
  8
1
  6
CONTINUOUS
 62
     7
100
AcDbText
 10
369.444417
 20
20.882917
 30
0.0
 40
2.5
  1
      IN ACCORDANCE WITH SECTION 615 OF THE
  7
MONOTXT
 11
369.444417
 21
23.382917
 31
0.0
210
0.0
220
0.0
230
1.0
100
AcDbText
 73
     3
  0
TEXT
  5
3D7
100
AcDbEntity
  8
1
  6
CONTINUOUS
 62
     7
100
AcDbText
 10
369.444417
 20
16.382917
 30
0.0
 40
2.5
  1
      SPECIFICATIONS.
  7
MONOTXT
 11
369.444417
 21
18.882917
 31
0.0
210
0.0
220
0.0
230
1.0
100
AcDbText
 73
     3
  0
TEXT
  5
3D8
100
AcDbEntity
  8
1
  6
CONTINUOUS
 62
     7
100
AcDbText
 10
503.792583
 20
118.16375
 30
0.0
 40
2.0
  1
W10 BEHIND GR, DELETED S3, DELETED BURR NOTE, SUBSTITUTED A572 GR50 NOTES, SUBSITUTED
  7
MONOTXT
210
0.0
220
0.0
230
1.0
100
AcDbText
  0
TEXT
  5
3D9
100
AcDbEntity
  8
1
  6
CONTINUOUS
 62
     7
100
AcDbText
 10
503.792583
 20
114.16375
 30
0.0
 40
2.0
  1
615 NOTE FOR HINGE PLATE
  7
MONOTXT
210
0.0
220
0.0
230
1.0
100
AcDbText
  0
TEXT
  5
3DA
100
AcDbEntity
  8
1
  6
CONTINUOUS
 62
     7
100
AcDbText
 10
371.99425
 20
314.92675
 30
0.0
 40
2.5
  1
BOLT SIZE                   MINIMUM RESIDUAL
  7
MONOTXT
 11
371.99425
 21
317.42675
 31
0.0
210
0.0
220
0.0
230
1.0
100
AcDbText
 73
     3
  0
TEXT
  5
3DB
100
AcDbEntity
  8
1
  6
CONTINUOUS
 62
     7
100
AcDbText
 10
371.99425
 20
310.42675
 30
0.0
 40
2.5
  1
                            BOLT TENSION
  7
MONOTXT
 11
371.99425
 21
312.92675
 31
0.0
210
0.0
220
0.0
230
1.0
100
AcDbText
 73
     3
  0
TEXT
  5
3DC
100
AcDbEntity
  8
1
  6
CONTINUOUS
 62
     7
100
AcDbText
 10
371.99425
 20
305.92675
 30
0.0
 40
2.5
  1
 
  7
MONOTXT
 11
371.99425
 21
308.42675
 31
0.0
210
0.0
220
0.0
230
1.0
100
AcDbText
 73
     3
  0
TEXT
  5
3DD
100
AcDbEntity
  8
1
  6
CONTINUOUS
 62
     7
100
AcDbText
 10
371.99425
 20
296.92675
 30
0.0
 40
2.5
  1
   
  7
MONOTXT
 11
371.99425
 21
299.42675
 31
0.0
210
0.0
220
0.0
230
1.0
100
AcDbText
 73
     3
  0
TEXT
  5
3DE
100
AcDbEntity
  8
1
  6
CONTINUOUS
 62
     7
100
AcDbText
 10
371.99425
 20
287.92675
 30
0.0
 40
2.5
  1
 
  7
MONOTXT
 11
371.99425
 21
290.42675
 31
0.0
210
0.0
220
0.0
230
1.0
100
AcDbText
 73
     3
  0
TEXT
  5
3DF
100
AcDbEntity
  8
1
  6
CONTINUOUS
 62
     7
100
AcDbText
 10
371.99425
 20
278.92675
 30
0.0
 40
2.5
  1
 
  7
MONOTXT
 11
371.99425
 21
281.42675
 31
0.0
210
0.0
220
0.0
230
1.0
100
AcDbText
 73
     3
  0
TEXT
  5
3E0
100
AcDbEntity
  8
1
  6
CONTINUOUS
 62
     7
100
AcDbText
 10
342.723417
 20
225.602083
 30
0.0
 40
2.5
  1
CAN BE USED IF THE SUPPORTS ARE LOCATED BEHIND GUARDRAIL (OR ON BENCH).
  7
MONOTXT
 11
342.723417
 21
228.102083
 31
0.0
210
0.0
220
0.0
230
1.0
100
AcDbText
 73
     3
  0
LWPOLYLINE
  5
3E1
100
AcDbEntity
  8
1
  6
CONTINUOUS
 62
     7
100
AcDbPolyline
 90
        4
 70
     0
 10
500.346083
 20
112.704667
 10
498.346083
 20
109.240583
 10
502.346083
 20
109.240583
 10
500.346083
 20
112.704667
  0
TEXT
  5
3E2
100
AcDbEntity
  8
1
  6
CONTINUOUS
 62
     7
100
AcDbText
 10
499.607167
 20
109.367583
 30
0.0
 40
2.0
  1
9
  7
MONOTXT
210
0.0
220
0.0
230
1.0
100
AcDbText
  0
TEXT
  5
3E3
100
AcDbEntity
  8
1
  6
CONTINUOUS
 62
     7
100
AcDbText
 10
503.432833
 20
110.06975
 30
0.0
 40
2.0
  1
CHANGED NOTES 2, 4 AND 7, REVISED LAST NOTE
  7
MONOTXT
210
0.0
220
0.0
230
1.0
100
AcDbText
  0
LWPOLYLINE
  5
3E4
100
AcDbEntity
  8
1
  6
CONTINUOUS
 62
     7
100
AcDbPolyline
 90
        4
 70
     0
 10
503.780333
 20
9.54475
 10
501.780333
 20
6.080667
 10
505.780333
 20
6.080667
 10
503.780333
 20
9.54475
  0
TEXT
  5
3E5
100
AcDbEntity
  8
1
  6
CONTINUOUS
 62
     7
100
AcDbText
 10
503.116667
 20
6.246583
 30
0.0
 40
2.0
  1
9
  7
MONOTXT
210
0.0
220
0.0
230
1.0
100
AcDbText
  0
TEXT
  5
3E6
100
AcDbEntity
  8
1
  6
CONTINUOUS
 62
     7
100
AcDbText
 10
288.079583
 20
90.137417
 30
0.0
 40
2.5
  1
0.36L
  7
MONOTXT
 72
     4
 11
293.089417
 21
91.387417
 31
0.0
210
0.0
220
0.0
230
1.0
100
AcDbText
  0
TEXT
  5
3E7
100
AcDbEntity
  8
1
  6
CONTINUOUS
 62
     7
100
AcDbText
 10
307.819083
 20
90.042917
 30
0.0
 40
2.5
  1
0.36L
  7
MONOTXT
 72
     4
 11
312.828917
 21
91.292917
 31
0.0
210
0.0
220
0.0
230
1.0
100
AcDbText
  0
TEXT
  5
3E8
100
AcDbEntity
  8
1
  6
CONTINUOUS
 62
     7
100
AcDbText
 10
393.963083
 20
84.052917
 30
0.0
 40
2.5
  1
S AND W SHAPES (SIDE VIEW)
  7
MONOTXT
 72
     4
 11
424.01225
 21
85.302917
 31
0.0
210
0.0
220
0.0
230
1.0
100
AcDbText
  0
LINE
  5
3E9
100
AcDbEntity
  8
1
  6
CONTINUOUS
 62
     7
100
AcDbLine
 10
602.122917
 20
264.205083
 30
0.0
 11
597.371833
 21
264.205083
 31
0.0
  0
TEXT
  5
3EA
100
AcDbEntity
  8
1
  6
CONTINUOUS
 62
     7
100
AcDbText
 10
541.891083
 20
165.150917
 30
0.0
 40
3.5
  1
FOR W AND S SHAPES
  7
MONOTXT
 72
     4
 11
573.404833
 21
166.900917
 31
0.0
210
0.0
220
0.0
230
1.0
100
AcDbText
  0
TEXT
  5
3EB
100
AcDbEntity
  8
1
  6
CONTINUOUS
 62
     7
100
AcDbText
 10
73.714667
 20
377.0625
 30
0.0
 40
2.5
  1
1.39
 41
0.8
  7
MONOTXT
 72
     4
 11
76.399667
 21
378.3125
 31
0.0
210
0.0
220
0.0
230
1.0
100
AcDbText
  0
TEXT
  5
3EC
100
AcDbEntity
  8
1
  6
CONTINUOUS
 62
     7
100
AcDbText
 10
82.777667
 20
376.888167
 30
0.0
 40
2.5
  1
1.86
 41
0.8
  7
MONOTXT
 72
     4
 11
85.462667
 21
378.138167
 31
0.0
210
0.0
220
0.0
230
1.0
100
AcDbText
  0
TEXT
  5
3ED
100
AcDbEntity
  8
1
  6
CONTINUOUS
 62
     7
100
AcDbText
 10
91.368167
 20
376.888167
 30
0.0
 40
2.5
  1
2.32
 41
0.8
  7
MONOTXT
 72
     4
 11
94.525667
 21
378.138167
 31
0.0
210
0.0
220
0.0
230
1.0
100
AcDbText
  0
TEXT
  5
3EE
100
AcDbEntity
  8
1
  6
CONTINUOUS
 62
     7
100
AcDbText
 10
100.462833
 20
376.975333
 30
0.0
 40
2.5
  1
2.79
 41
0.8
  7
MONOTXT
 72
     4
 11
103.588833
 21
378.225333
 31
0.0
210
0.0
220
0.0
230
1.0
100
AcDbText
  0
TEXT
  5
3EF
100
AcDbEntity
  8
1
  6
CONTINUOUS
 62
     7
100
AcDbText
 10
109.32
 20
376.888167
 30
0.0
 40
2.5
  1
3.25
 41
0.8
  7
MONOTXT
 72
     4
 11
112.4775
 21
378.138167
 31
0.0
210
0.0
220
0.0
230
1.0
100
AcDbText
  0
TEXT
  5
3F0
100
AcDbEntity
  8
1
  6
CONTINUOUS
 62
     7
100
AcDbText
 10
118.3675
 20
376.888167
 30
0.0
 40
2.5
  1
3.72
 41
0.8
  7
MONOTXT
 72
     4
 11
121.540667
 21
378.138167
 31
0.0
210
0.0
220
0.0
230
1.0
100
AcDbText
  0
TEXT
  5
3F1
100
AcDbEntity
  8
1
  6
CONTINUOUS
 62
     7
100
AcDbText
 10
127.824167
 20
376.888167
 30
0.0
 40
2.5
  1
4.18
 41
0.8
  7
MONOTXT
 72
     4
 11
130.603667
 21
378.138167
 31
0.0
210
0.0
220
0.0
230
1.0
100
AcDbText
  0
TEXT
  5
3F2
100
AcDbEntity
  8
1
  6
CONTINUOUS
 62
     7
100
AcDbText
 10
136.335
 20
376.888167
 30
0.0
 40
2.5
  1
4.65
 41
0.8
  7
MONOTXT
 72
     4
 11
139.4925
 21
378.138167
 31
0.0
210
0.0
220
0.0
230
1.0
100
AcDbText
  0
TEXT
  5
3F3
100
AcDbEntity
  8
1
  6
CONTINUOUS
 62
     7
100
AcDbText
 10
146.256333
 20
376.713833
 30
0.0
 40
2.5
  1
5.11
 41
0.8
  7
MONOTXT
 72
     4
 11
148.5555
 21
377.963833
 31
0.0
210
0.0
220
0.0
230
1.0
100
AcDbText
  0
TEXT
  5
3F4
100
AcDbEntity
  8
1
  6
CONTINUOUS
 62
     7
100
AcDbText
 10
154.45325
 20
376.5395
 30
0.0
 40
2.5
  1
5.57
 41
0.8
  7
MONOTXT
 72
     4
 11
157.618583
 21
377.7895
 31
0.0
210
0.0
220
0.0
230
1.0
100
AcDbText
  0
TEXT
  5
3F5
100
AcDbEntity
  8
1
  6
CONTINUOUS
 62
     7
100
AcDbText
 10
163.26275
 20
376.888167
 30
0.0
 40
2.5
  1
6.04
 41
0.8
  7
MONOTXT
 72
     4
 11
166.42025
 21
378.138167
 31
0.0
210
0.0
220
0.0
230
1.0
100
AcDbText
  0
TEXT
  5
3F6
100
AcDbEntity
  8
1
  6
CONTINUOUS
 62
     7
100
AcDbText
 10
172.642333
 20
376.888167
 30
0.0
 40
2.5
  1
6.50
 41
0.8
  7
MONOTXT
 72
     4
 11
175.744667
 21
378.138167
 31
0.0
210
0.0
220
0.0
230
1.0
100
AcDbText
  0
TEXT
  5
3F7
100
AcDbEntity
  8
1
  6
CONTINUOUS
 62
     7
100
AcDbText
 10
181.562667
 20
377.0625
 30
0.0
 40
2.5
  1
6.97
 41
0.8
  7
MONOTXT
 72
     4
 11
184.6335
 21
378.3125
 31
0.0
210
0.0
220
0.0
230
1.0
100
AcDbText
  0
TEXT
  5
3F8
100
AcDbEntity
  8
1
  6
CONTINUOUS
 62
     7
100
AcDbText
 10
190.650417
 20
377.0625
 30
0.0
 40
2.5
  1
7.43
 41
0.8
  7
MONOTXT
 72
     4
 11
193.870833
 21
378.3125
 31
0.0
210
0.0
220
0.0
230
1.0
100
AcDbText
  0
TEXT
  5
3F9
100
AcDbEntity
  8
1
  6
CONTINUOUS
 62
     7
100
AcDbText
 10
199.641583
 20
377.0625
 30
0.0
 40
2.5
  1
7.90
 41
0.8
  7
MONOTXT
 72
     4
 11
202.759667
 21
378.3125
 31
0.0
210
0.0
220
0.0
230
1.0
100
AcDbText
  0
TEXT
  5
3FA
100
AcDbEntity
  8
1
  6
CONTINUOUS
 62
     7
100
AcDbText
 10
208.712583
 20
376.888167
 30
0.0
 40
2.5
  1
8.36
 41
0.8
  7
MONOTXT
 72
     4
 11
211.82275
 21
378.138167
 31
0.0
210
0.0
220
0.0
230
1.0
100
AcDbText
  0
TEXT
  5
3FB
100
AcDbEntity
  8
1
  6
CONTINUOUS
 62
     7
100
AcDbText
 10
217.9025
 20
376.5395
 30
0.0
 40
2.5
  1
8.83
 41
0.8
  7
MONOTXT
 72
     4
 11
221.06
 21
377.7895
 31
0.0
210
0.0
220
0.0
230
1.0
100
AcDbText
  0
TEXT
  5
3FC
100
AcDbEntity
  8
1
  6
CONTINUOUS
 62
     7
100
AcDbText
 10
226.885833
 20
376.888167
 30
0.0
 40
2.5
  1
9.29
 41
0.8
  7
MONOTXT
 72
     4
 11
229.948833
 21
378.138167
 31
0.0
210
0.0
220
0.0
230
1.0
100
AcDbText
  0
TEXT
  5
3FD
100
AcDbEntity
  8
1
  6
CONTINUOUS
 62
     7
100
AcDbText
 10
235.363
 20
376.801
 30
0.0
 40
2.5
  1
9.75
 41
0.8
  7
MONOTXT
 72
     4
 11
238.489
 21
378.051
 31
0.0
210
0.0
220
0.0
230
1.0
100
AcDbText
  0
TEXT
  5
3FE
100
AcDbEntity
  8
1
  6
CONTINUOUS
 62
     7
100
AcDbText
 10
243.914833
 20
376.5395
 30
0.0
 40
2.5
  1
10.22
 41
0.8
  7
MONOTXT
 72
     4
 11
247.639167
 21
377.7895
 31
0.0
210
0.0
220
0.0
230
1.0
100
AcDbText
  0
TEXT
  5
3FF
100
AcDbEntity
  8
1
  6
CONTINUOUS
 62
     7
100
AcDbText
 10
252.763667
 20
376.452333
 30
0.0
 40
2.5
  1
10.68
 41
0.8
  7
MONOTXT
 72
     4
 11
256.440833
 21
377.702333
 31
0.0
210
0.0
220
0.0
230
1.0
100
AcDbText
  0
TEXT
  5
400
100
AcDbEntity
  8
1
  6
CONTINUOUS
 62
     7
100
AcDbText
 10
262.629917
 20
376.365167
 30
0.0
 40
2.5
  1
11.15
 41
0.8
  7
MONOTXT
 72
     4
 11
265.503917
 21
377.615167
 31
0.0
210
0.0
220
0.0
230
1.0
100
AcDbText
  0
TEXT
  5
401
100
AcDbEntity
  8
1
  6
CONTINUOUS
 62
     7
100
AcDbText
 10
271.399583
 20
376.278
 30
0.0
 40
2.5
  1
11.61
 41
0.8
  7
MONOTXT
 72
     4
 11
274.218417
 21
377.528
 31
0.0
210
0.0
220
0.0
230
1.0
100
AcDbText
  0
TEXT
  5
402
100
AcDbEntity
  8
1
  6
CONTINUOUS
 62
     7
100
AcDbText
 10
279.818667
 20
376.103667
 30
0.0
 40
2.5
  1
12.08
 41
0.8
  7
MONOTXT
 72
     4
 11
283.543
 21
377.353667
 31
0.0
210
0.0
220
0.0
230
1.0
100
AcDbText
  0
TEXT
  5
403
100
AcDbEntity
  8
1
  6
CONTINUOUS
 62
     7
100
AcDbText
 10
62.849
 20
365.6425
 30
0.0
 40
2.5
  1
1.52
 41
0.8
  7
MONOTXT
 72
     1
 11
65.58125
 21
368.1425
 31
0.0
210
0.0
220
0.0
230
1.0
100
AcDbText
 73
     3
  0
TEXT
  5
404
100
AcDbEntity
  8
1
  6
CONTINUOUS
 62
     7
100
AcDbText
 10
62.849
 20
356.6425
 30
0.0
 40
2.5
  1
1.83
 41
0.8
  7
MONOTXT
 72
     1
 11
65.58125
 21
359.1425
 31
0.0
210
0.0
220
0.0
230
1.0
100
AcDbText
 73
     3
  0
TEXT
  5
405
100
AcDbEntity
  8
1
  6
CONTINUOUS
 62
     7
100
AcDbText
 10
62.849
 20
347.6425
 30
0.0
 40
2.5
  1
2.13
 41
0.8
  7
MONOTXT
 72
     1
 11
65.58125
 21
350.1425
 31
0.0
210
0.0
220
0.0
230
1.0
100
AcDbText
 73
     3
  0
TEXT
  5
406
100
AcDbEntity
  8
1
  6
CONTINUOUS
 62
     7
100
AcDbText
 10
62.329333
 20
338.6425
 30
0.0
 40
2.5
  1
2.44
 41
0.8
  7
MONOTXT
 72
     1
 11
65.58125
 21
341.1425
 31
0.0
210
0.0
220
0.0
230
1.0
100
AcDbText
 73
     3
  0
TEXT
  5
407
100
AcDbEntity
  8
1
  6
CONTINUOUS
 62
     7
100
AcDbText
 10
62.360833
 20
329.6425
 30
0.0
 40
2.5
  1
2.74
 41
0.8
  7
MONOTXT
 72
     1
 11
65.58125
 21
332.1425
 31
0.0
210
0.0
220
0.0
230
1.0
100
AcDbText
 73
     3
  0
TEXT
  5
408
100
AcDbEntity
  8
1
  6
CONTINUOUS
 62
     7
100
AcDbText
 10
62.376583
 20
320.6425
 30
0.0
 40
2.5
  1
3.04
 41
0.8
  7
MONOTXT
 72
     1
 11
65.58125
 21
323.1425
 31
0.0
210
0.0
220
0.0
230
1.0
100
AcDbText
 73
     3
  0
TEXT
  5
409
100
AcDbEntity
  8
1
  6
CONTINUOUS
 62
     7
100
AcDbText
 10
62.42375
 20
311.6425
 30
0.0
 40
2.5
  1
3.35
 41
0.8
  7
MONOTXT
 72
     1
 11
65.58125
 21
314.1425
 31
0.0
210
0.0
220
0.0
230
1.0
100
AcDbText
 73
     3
  0
TEXT
  5
40A
100
AcDbEntity
  8
1
  6
CONTINUOUS
 62
     7
100
AcDbText
 10
62.51825
 20
302.6425
 30
0.0
 40
2.5
  1
3.66
 41
0.8
  7
MONOTXT
 72
     1
 11
65.58125
 21
305.1425
 31
0.0
210
0.0
220
0.0
230
1.0
100
AcDbText
 73
     3
  0
TEXT
  5
40B
100
AcDbEntity
  8
1
  6
CONTINUOUS
 62
     7
100
AcDbText
 10
62.51825
 20
293.6425
 30
0.0
 40
2.5
  1
3.96
 41
0.8
  7
MONOTXT
 72
     1
 11
65.58125
 21
296.1425
 31
0.0
210
0.0
220
0.0
230
1.0
100
AcDbText
 73
     3
  0
TEXT
  5
40C
100
AcDbEntity
  8
1
  6
CONTINUOUS
 62
     7
100
AcDbText
 10
62.36875
 20
284.6425
 30
0.0
 40
2.5
  1
4.27
 41
0.8
  7
MONOTXT
 72
     1
 11
65.58125
 21
287.1425
 31
0.0
210
0.0
220
0.0
230
1.0
100
AcDbText
 73
     3
  0
TEXT
  5
40D
100
AcDbEntity
  8
1
  6
CONTINUOUS
 62
     7
100
AcDbText
 10
62.36875
 20
275.6425
 30
0.0
 40
2.5
  1
4.57
 41
0.8
  7
MONOTXT
 72
     1
 11
65.58125
 21
278.1425
 31
0.0
210
0.0
220
0.0
230
1.0
100
AcDbText
 73
     3
  0
TEXT
  5
40E
100
AcDbEntity
  8
1
  6
CONTINUOUS
 62
     7
100
AcDbText
 10
62.36875
 20
266.6425
 30
0.0
 40
2.5
  1
4.87
 41
0.8
  7
MONOTXT
 72
     1
 11
65.58125
 21
269.1425
 31
0.0
210
0.0
220
0.0
230
1.0
100
AcDbText
 73
     3
  0
TEXT
  5
40F
100
AcDbEntity
  8
1
  6
CONTINUOUS
 62
     7
100
AcDbText
 10
62.849
 20
257.6425
 30
0.0
 40
2.5
  1
5.18
 41
0.8
  7
MONOTXT
 72
     1
 11
65.58125
 21
260.1425
 31
0.0
210
0.0
220
0.0
230
1.0
100
AcDbText
 73
     3
  0
TEXT
  5
410
100
AcDbEntity
  8
1
  6
CONTINUOUS
 62
     7
100
AcDbText
 10
62.376583
 20
248.6425
 30
0.0
 40
2.5
  1
5.48
 41
0.8
  7
MONOTXT
 72
     1
 11
65.58125
 21
251.1425
 31
0.0
210
0.0
220
0.0
230
1.0
100
AcDbText
 73
     3
  0
TEXT
  5
411
100
AcDbEntity
  8
1
  6
CONTINUOUS
 62
     7
100
AcDbText
 10
62.45525
 20
239.6425
 30
0.0
 40
2.5
  1
5.79
 41
0.8
  7
MONOTXT
 72
     1
 11
65.58125
 21
242.1425
 31
0.0
210
0.0
220
0.0
230
1.0
100
AcDbText
 73
     3
  0
TEXT
  5
412
100
AcDbEntity
  8
1
  6
CONTINUOUS
 62
     7
100
AcDbText
 10
62.51825
 20
230.6425
 30
0.0
 40
2.5
  1
6.09
 41
0.8
  7
MONOTXT
 72
     1
 11
65.58125
 21
233.1425
 31
0.0
210
0.0
220
0.0
230
1.0
100
AcDbText
 73
     3
  0
TEXT
  5
413
100
AcDbEntity
  8
1
  6
CONTINUOUS
 62
     7
100
AcDbText
 10
62.431667
 20
221.6425
 30
0.0
 40
2.5
  1
6.40
 41
0.8
  7
MONOTXT
 72
     1
 11
65.58125
 21
224.1425
 31
0.0
210
0.0
220
0.0
230
1.0
100
AcDbText
 73
     3
  0
TEXT
  5
414
100
AcDbEntity
  8
1
  6
CONTINUOUS
 62
     7
100
AcDbText
 10
62.463167
 20
212.6425
 30
0.0
 40
2.5
  1
6.70
 41
0.8
  7
MONOTXT
 72
     1
 11
65.58125
 21
215.1425
 31
0.0
210
0.0
220
0.0
230
1.0
100
AcDbText
 73
     3
  0
TEXT
  5
415
100
AcDbEntity
  8
1
  6
CONTINUOUS
 62
     7
100
AcDbText
 10
62.841083
 20
203.6425
 30
0.0
 40
2.5
  1
7.01
 41
0.8
  7
MONOTXT
 72
     1
 11
65.58125
 21
206.1425
 31
0.0
210
0.0
220
0.0
230
1.0
100
AcDbText
 73
     3
  0
TEXT
  5
416
100
AcDbEntity
  8
1
  6
CONTINUOUS
 62
     7
100
AcDbText
 10
62.408083
 20
194.6425
 30
0.0
 40
2.5
  1
7.32
 41
0.8
  7
MONOTXT
 72
     1
 11
65.58125
 21
197.1425
 31
0.0
210
0.0
220
0.0
230
1.0
100
AcDbText
 73
     3
  0
TEXT
  5
417
100
AcDbEntity
  8
1
  6
CONTINUOUS
 62
     7
100
AcDbText
 10
62.45525
 20
185.6425
 30
0.0
 40
2.5
  1
7.62
 41
0.8
  7
MONOTXT
 72
     1
 11
65.58125
 21
188.1425
 31
0.0
210
0.0
220
0.0
230
1.0
100
AcDbText
 73
     3
  0
TEXT
  5
418
100
AcDbEntity
  8
1
  6
CONTINUOUS
 62
     7
100
AcDbText
 10
74.620333
 20
345.904917
 30
0.0
 40
7.0
  1
S100X11.5
  7
TXT
 72
     4
 11
95.336083
 21
349.404917
 31
0.0
210
0.0
220
0.0
230
1.0
100
AcDbText
  0
TEXT
  5
419
100
AcDbEntity
  8
1
  6
CONTINUOUS
 62
     7
100
AcDbText
 10
112.922167
 20
310.0975
 30
0.0
 40
7.0
  1
W150X18.0
  7
TXT
 72
     4
 11
135.802667
 21
313.5975
 31
0.0
210
0.0
220
0.0
230
1.0
100
AcDbText
  0
TEXT
  5
41A
100
AcDbEntity
  8
1
  6
CONTINUOUS
 62
     7
100
AcDbText
 10
156.586167
 20
274.071167
 30
0.0
 40
7.0
  1
W200X26.6
  7
TXT
 72
     4
 11
180.735083
 21
277.571167
 31
0.0
210
0.0
220
0.0
230
1.0
100
AcDbText
  0
TEXT
  5
41B
100
AcDbEntity
  8
1
  6
CONTINUOUS
 62
     7
100
AcDbText
 10
199.812917
 20
228.780833
 30
0.0
 40
7.0
  1
W250X32.7 *
  7
TXT
 72
     4
 11
228.79925
 21
232.280833
 31
0.0
210
0.0
220
0.0
230
1.0
100
AcDbText
  0
TEXT
  5
41C
100
AcDbEntity
  8
1
  6
CONTINUOUS
 62
     7
100
AcDbText
 10
302.967417
 20
395.6115
 30
0.0
 40
2.5
  1
GENERAL NOTES:
  7
MONOTXT
 11
302.967417
 21
398.1115
 31
0.0
210
0.0
220
0.0
230
1.0
100
AcDbText
 73
     3
  0
TEXT
  5
41D
100
AcDbEntity
  8
1
  6
CONTINUOUS
 62
     7
100
AcDbText
 10
302.967417
 20
391.1115
 30
0.0
 40
2.5
  1
 
  7
MONOTXT
 11
302.967417
 21
393.6115
 31
0.0
210
0.0
220
0.0
230
1.0
100
AcDbText
 73
     3
  0
TEXT
  5
41E
100
AcDbEntity
  8
1
  6
CONTINUOUS
 62
     7
100
AcDbText
 10
302.967417
 20
386.6115
 30
0.0
 40
2.5
  1
MATERIALS AND FABRICATION SHALL CONFORM TO THE REQUIREMENTS OF THE WEST VIRGINIA DIVISION OF HIGHWAYS SPECIFICATIONS.
  7
MONOTXT
 11
302.967417
 21
389.1115
 31
0.0
210
0.0
220
0.0
230
1.0
100
AcDbText
 73
     3
  0
TEXT
  5
41F
100
AcDbEntity
  8
1
  6
CONTINUOUS
 62
     7
100
AcDbText
 10
302.967417
 20
382.1115
 30
0.0
 40
2.5
  1
ALL STEEL PLATES AND SHAPES SHALL CONFORM TO ASTM A 572M, GRADE 345. ASTM A 588M MAY BE SUBSITITUTED WHEN APPROVED BY THE ENGINEER.
  7
MONOTXT
 11
302.967417
 21
384.6115
 31
0.0
210
0.0
220
0.0
230
1.0
100
AcDbText
 73
     3
  0
TEXT
  5
420
100
AcDbEntity
  8
1
  6
CONTINUOUS
 62
     7
100
AcDbText
 10
302.967417
 20
377.6115
 30
0.0
 40
2.5
  1
FLANGE HOLES FOR HINGE BOLTS SHALL BE DRILLED.
  7
MONOTXT
 11
302.967417
 21
380.1115
 31
0.0
210
0.0
220
0.0
230
1.0
100
AcDbText
 73
     3
  0
TEXT
  5
421
100
AcDbEntity
  8
1
  6
CONTINUOUS
 62
     7
100
AcDbText
 10
302.967417
 20
373.1115
 30
0.0
 40
2.5
  1
ALL HOLES SHALL BE DRILLED. ALL PLATE CUTS SHALL BE SAW CUTS. FLAME CUTTING WILL BE PERMITTED PROVIDED
  7
MONOTXT
 11
302.967417
 21
375.6115
 31
0.0
210
0.0
220
0.0
230
1.0
100
AcDbText
 73
     3
  0
TEXT
  5
422
100
AcDbEntity
  8
1
  6
CONTINUOUS
 62
     7
100
AcDbText
 10
302.967417
 20
368.6115
 30
0.0
 40
2.5
  1
ALL EDGES ARE GROUND. METAL PROJECTING BEYOND THE PLANE OF THE PLATE FACE WILL NOT BE TOLERATED.
  7
MONOTXT
 11
302.967417
 21
371.1115
 31
0.0
210
0.0
220
0.0
230
1.0
100
AcDbText
 73
     3
  0
TEXT
  5
423
100
AcDbEntity
  8
1
  6
CONTINUOUS
 62
     7
100
AcDbText
 10
302.967417
 20
364.1115
 30
0.0
 40
2.5
  1
 
  7
MONOTXT
 11
302.967417
 21
366.6115
 31
0.0
210
0.0
220
0.0
230
1.0
100
AcDbText
 73
     3
  0
TEXT
  5
424
100
AcDbEntity
  8
1
  6
CONTINUOUS
 62
     7
100
AcDbText
 10
302.967417
 20
359.6115
 30
0.0
 40
2.5
  1
ALL HIGH STRENGTH BOLTS, NUTS, AND WASHERS SHALL CONFORM TO ASTM A 325M. NUTS AND WASHERS SHALL BE THOSE RECOMMENDED IN ASTM A 325M.
  7
MONOTXT
 11
302.967417
 21
362.1115
 31
0.0
210
0.0
220
0.0
230
1.0
100
AcDbText
 73
     3
  0
TEXT
  5
425
100
AcDbEntity
  8
1
  6
CONTINUOUS
 62
     7
100
AcDbText
 10
302.967417
 20
355.1115
 30
0.0
 40
2.5
  1
HIGH STRENGTH BOLTS IN THE BASE CONNECTION SHALL BE TIGHTENED ONLY TO THE TORQUE SPECIFIED IN THE TABLE ON SHEET
  7
MONOTXT
 11
302.967417
 21
357.6115
 31
0.0
210
0.0
220
0.0
230
1.0
100
AcDbText
 73
     3
  0
TEXT
  5
426
100
AcDbEntity
  8
1
  6
CONTINUOUS
 62
     7
100
AcDbText
 10
302.967417
 20
350.6115
 30
0.0
 40
2.5
  1
TE1-3A. DO NOT OVERTIGHTEN.
  7
MONOTXT
 11
302.967417
 21
353.1115
 31
0.0
210
0.0
220
0.0
230
1.0
100
AcDbText
 73
     3
  0
TEXT
  5
427
100
AcDbEntity
  8
1
  6
CONTINUOUS
 62
     7
100
AcDbText
 10
302.967417
 20
346.1115
 30
0.0
 40
2.5
  1
ALL SHAPES AND PLATES SHALL BE GALVANIZED PER ASTM A 123 AND ALL BOLTS SHALL BE GALVANIZED PER ASTM A 153.
  7
MONOTXT
 11
302.967417
 21
348.6115
 31
0.0
210
0.0
220
0.0
230
1.0
100
AcDbText
 73
     3
  0
TEXT
  5
428
100
AcDbEntity
  8
1
  6
CONTINUOUS
 62
     7
100
AcDbText
 10
302.967417
 20
341.6115
 30
0.0
 40
2.5
  1
 
  7
MONOTXT
 11
302.967417
 21
344.1115
 31
0.0
210
0.0
220
0.0
230
1.0
100
AcDbText
 73
     3
  0
TEXT
  5
429
100
AcDbEntity
  8
1
  6
CONTINUOUS
 62
     7
100
AcDbText
 10
302.967417
 20
337.1115
 30
0.0
 40
2.5
  1
FABRICATOR NOTE: IMPORTANT-ALL HINGE BOLTS SHALL BE TIGHTENED IN THE SHOP FOLLOWING METHOD IN NOTE 1 BELOW.
  7
MONOTXT
 11
302.967417
 21
339.6115
 31
0.0
210
0.0
220
0.0
230
1.0
100
AcDbText
 73
     3
  0
TEXT
  5
42A
100
AcDbEntity
  8
1
  6
CONTINUOUS
 62
     7
100
AcDbText
 10
302.967417
 20
332.6115
 30
0.0
 40
2.5
  1
TIGHTENING SHALL BE TO SUCH A DEGREE AS TO OBTAIN THE FOLLOWING MINIMUM RESIDUAL TENSIONS ON EACH BOLT
  7
MONOTXT
 11
302.967417
 21
335.1115
 31
0.0
210
0.0
220
0.0
230
1.0
100
AcDbText
 73
     3
  0
TEXT
  5
42B
100
AcDbEntity
  8
1
  6
CONTINUOUS
 62
     7
100
AcDbText
 10
302.967417
 20
328.1115
 30
0.0
 40
2.5
  1
(SEE TABLE 615.5.6.3 A).
  7
MONOTXT
 11
302.967417
 21
330.6115
 31
0.0
210
0.0
220
0.0
230
1.0
100
AcDbText
 73
     3
  0
TEXT
  5
42C
100
AcDbEntity
  8
1
  6
CONTINUOUS
 62
     7
100
AcDbText
 10
302.967417
 20
323.6115
 30
0.0
 40
2.5
  1
 
  7
MONOTXT
 11
302.967417
 21
326.1115
 31
0.0
210
0.0
220
0.0
230
1.0
100
AcDbText
 73
     3
  0
TEXT
  5
42D
100
AcDbEntity
  8
1
  6
CONTINUOUS
 62
     7
100
AcDbText
 10
302.967417
 20
319.1115
 30
0.0
 40
2.5
  1
 
  7
MONOTXT
 11
302.967417
 21
321.6115
 31
0.0
210
0.0
220
0.0
230
1.0
100
AcDbText
 73
     3
  0
TEXT
  5
42E
100
AcDbEntity
  8
1
  6
CONTINUOUS
 62
     7
100
AcDbText
 10
302.967417
 20
314.6115
 30
0.0
 40
2.5
  1
 
  7
MONOTXT
 11
302.967417
 21
317.1115
 31
0.0
210
0.0
220
0.0
230
1.0
100
AcDbText
 73
     3
  0
TEXT
  5
42F
100
AcDbEntity
  8
1
  6
CONTINUOUS
 62
     7
100
AcDbText
 10
302.967417
 20
310.1115
 30
0.0
 40
2.5
  1
 
  7
MONOTXT
 11
302.967417
 21
312.6115
 31
0.0
210
0.0
220
0.0
230
1.0
100
AcDbText
 73
     3
  0
TEXT
  5
430
100
AcDbEntity
  8
1
  6
CONTINUOUS
 62
     7
100
AcDbText
 10
302.967417
 20
305.6115
 30
0.0
 40
2.5
  1
 
  7
MONOTXT
 11
302.967417
 21
308.1115
 31
0.0
210
0.0
220
0.0
230
1.0
100
AcDbText
 73
     3
  0
TEXT
  5
431
100
AcDbEntity
  8
1
  6
CONTINUOUS
 62
     7
100
AcDbText
 10
302.967417
 20
301.1115
 30
0.0
 40
2.5
  1
 
  7
MONOTXT
 11
302.967417
 21
303.6115
 31
0.0
210
0.0
220
0.0
230
1.0
100
AcDbText
 73
     3
  0
TEXT
  5
432
100
AcDbEntity
  8
1
  6
CONTINUOUS
 62
     7
100
AcDbText
 10
302.967417
 20
296.6115
 30
0.0
 40
2.5
  1
 
  7
MONOTXT
 11
302.967417
 21
299.1115
 31
0.0
210
0.0
220
0.0
230
1.0
100
AcDbText
 73
     3
  0
TEXT
  5
433
100
AcDbEntity
  8
1
  6
CONTINUOUS
 62
     7
100
AcDbText
 10
302.967417
 20
292.1115
 30
0.0
 40
2.5
  1
 
  7
MONOTXT
 11
302.967417
 21
294.6115
 31
0.0
210
0.0
220
0.0
230
1.0
100
AcDbText
 73
     3
  0
TEXT
  5
434
100
AcDbEntity
  8
1
  6
CONTINUOUS
 62
     7
100
AcDbText
 10
302.967417
 20
287.6115
 30
0.0
 40
2.5
  1
 
  7
MONOTXT
 11
302.967417
 21
290.1115
 31
0.0
210
0.0
220
0.0
230
1.0
100
AcDbText
 73
     3
  0
TEXT
  5
435
100
AcDbEntity
  8
1
  6
CONTINUOUS
 62
     7
100
AcDbText
 10
302.967417
 20
283.1115
 30
0.0
 40
2.5
  1
 
  7
MONOTXT
 11
302.967417
 21
285.6115
 31
0.0
210
0.0
220
0.0
230
1.0
100
AcDbText
 73
     3
  0
TEXT
  5
436
100
AcDbEntity
  8
1
  6
CONTINUOUS
 62
     7
100
AcDbText
 10
302.967417
 20
278.6115
 30
0.0
 40
2.5
  1
 
  7
MONOTXT
 11
302.967417
 21
281.1115
 31
0.0
210
0.0
220
0.0
230
1.0
100
AcDbText
 73
     3
  0
TEXT
  5
437
100
AcDbEntity
  8
1
  6
CONTINUOUS
 62
     7
100
AcDbText
 10
302.967417
 20
274.1115
 30
0.0
 40
2.5
  1
 
  7
MONOTXT
 11
302.967417
 21
276.6115
 31
0.0
210
0.0
220
0.0
230
1.0
100
AcDbText
 73
     3
  0
TEXT
  5
438
100
AcDbEntity
  8
1
  6
CONTINUOUS
 62
     7
100
AcDbText
 10
302.967417
 20
269.6115
 30
0.0
 40
2.5
  1
 
  7
MONOTXT
 11
302.967417
 21
272.1115
 31
0.0
210
0.0
220
0.0
230
1.0
100
AcDbText
 73
     3
  0
TEXT
  5
439
100
AcDbEntity
  8
1
  6
CONTINUOUS
 62
     7
100
AcDbText
 10
302.967417
 20
265.1115
 30
0.0
 40
2.5
  1
 
  7
MONOTXT
 11
302.967417
 21
267.6115
 31
0.0
210
0.0
220
0.0
230
1.0
100
AcDbText
 73
     3
  0
TEXT
  5
43A
100
AcDbEntity
  8
1
  6
CONTINUOUS
 62
     7
100
AcDbText
 10
302.967417
 20
260.6115
 30
0.0
 40
2.5
  1
FOR BASE CONNECTIONS TO BE USED IN CONJUNCTION WITH THE POLE SELECTION CHART SHOWN, SEE SHEET TE1-3A.
  7
MONOTXT
 11
302.967417
 21
263.1115
 31
0.0
210
0.0
220
0.0
230
1.0
100
AcDbText
 73
     3
  0
TEXT
  5
43B
100
AcDbEntity
  8
1
  6
CONTINUOUS
 62
     7
100
AcDbText
 10
358.1935
 20
301.312083
 30
0.0
 40
2.5
  1
12.7mm  0
  7
MONOTXT
 11
358.1935
 21
303.812083
 31
0.0
210
0.0
220
0.0
230
1.0
100
AcDbText
 73
     3
  0
TEXT
  5
43C
100
AcDbEntity
  8
1
  6
CONTINUOUS
 62
     7
100
AcDbText
 10
358.1935
 20
292.312083
 30
0.0
 40
2.5
  1
15.875mm  0
  7
MONOTXT
 11
358.1935
 21
294.812083
 31
0.0
210
0.0
220
0.0
230
1.0
100
AcDbText
 73
     3
  0
TEXT
  5
43D
100
AcDbEntity
  8
1
  6
CONTINUOUS
 62
     7
100
AcDbText
 10
358.1935
 20
283.312083
 30
0.0
 40
2.5
  1
19.05mm  0
  7
MONOTXT
 11
358.1935
 21
285.812083
 31
0.0
210
0.0
220
0.0
230
1.0
100
AcDbText
 73
     3
  0
TEXT
  5
43E
100
AcDbEntity
  8
1
  6
CONTINUOUS
 62
     7
100
AcDbText
 10
358.1935
 20
274.312083
 30
0.0
 40
2.5
  1
22.225mm  0
  7
MONOTXT
 11
358.1935
 21
276.812083
 31
0.0
210
0.0
220
0.0
230
1.0
100
AcDbText
 73
     3
  0
TEXT
  5
43F
100
AcDbEntity
  8
1
  6
CONTINUOUS
 62
     7
100
AcDbText
 10
447.342833
 20
301.835167
 30
0.0
 40
2.5
  1
53 380 NEWTON
  7
MONOTXT
 11
447.342833
 21
304.335167
 31
0.0
210
0.0
220
0.0
230
1.0
100
AcDbText
 73
     3
  0
TEXT
  5
440
100
AcDbEntity
  8
1
  6
CONTINUOUS
 62
     7
100
AcDbText
 10
447.342833
 20
292.835167
 30
0.0
 40
2.5
  1
84 520 NEWTON
  7
MONOTXT
 11
447.342833
 21
295.335167
 31
0.0
210
0.0
220
0.0
230
1.0
100
AcDbText
 73
     3
  0
TEXT
  5
441
100
AcDbEntity
  8
1
  6
CONTINUOUS
 62
     7
100
AcDbText
 10
447.342833
 20
283.835167
 30
0.0
 40
2.5
  1
124 550 NEWTON
  7
MONOTXT
 11
447.342833
 21
286.335167
 31
0.0
210
0.0
220
0.0
230
1.0
100
AcDbText
 73
     3
  0
TEXT
  5
442
100
AcDbEntity
  8
1
  6
CONTINUOUS
 62
     7
100
AcDbText
 10
447.342833
 20
274.835167
 30
0.0
 40
2.5
  1
173 480 NEWTON
  7
MONOTXT
 11
447.342833
 21
277.335167
 31
0.0
210
0.0
220
0.0
230
1.0
100
AcDbText
 73
     3
  0
LINE
  5
443
100
AcDbEntity
  8
61
  6
CONTINUOUS
 62
     2
100
AcDbLine
 10
677.969083
 20
436.505833
 30
0.0
 11
563.719083
 21
436.505833
 31
0.0
  0
LINE
  5
444
100
AcDbEntity
  8
61
  6
CONTINUOUS
 62
     2
100
AcDbLine
 10
563.719083
 20
436.505833
 30
0.0
 11
563.719083
 21
415.339167
 31
0.0
  0
LINE
  5
445
100
AcDbEntity
  8
61
  6
CONTINUOUS
 62
     2
100
AcDbLine
 10
677.969083
 20
436.505833
 30
0.0
 11
677.969083
 21
415.339167
 31
0.0
  0
LINE
  5
446
100
AcDbEntity
  8
61
  6
CONTINUOUS
 62
     2
100
AcDbLine
 10
677.969083
 20
415.339167
 30
0.0
 11
563.719083
 21
415.339167
 31
0.0
  0
LINE
  5
447
100
AcDbEntity
  8
61
  6
CONTINUOUS
 62
     2
100
AcDbLine
 10
677.969083
 20
425.9225
 30
0.0
 11
563.719083
 21
425.9225
 31
0.0
  0
LINE
  5
448
100
AcDbEntity
  8
61
  6
CONTINUOUS
 62
     2
100
AcDbLine
 10
574.302417
 20
436.505833
 30
0.0
 11
574.302417
 21
415.339167
 31
0.0
  0
LINE
  5
449
100
AcDbEntity
  8
61
  6
CONTINUOUS
 62
     2
100
AcDbLine
 10
584.88575
 20
436.505833
 30
0.0
 11
584.88575
 21
415.339167
 31
0.0
  0
LINE
  5
44A
100
AcDbEntity
  8
61
  6
CONTINUOUS
 62
     2
100
AcDbLine
 10
599.38575
 20
436.505833
 30
0.0
 11
599.38575
 21
415.339167
 31
0.0
  0
LINE
  5
44B
100
AcDbEntity
  8
61
  6
CONTINUOUS
 62
     2
100
AcDbLine
 10
667.38575
 20
436.505833
 30
0.0
 11
667.38575
 21
415.339167
 31
0.0
  0
LINE
  5
44C
100
AcDbEntity
  8
61
  6
CONTINUOUS
 62
     2
100
AcDbLine
 10
656.802417
 20
436.505833
 30
0.0
 11
656.802417
 21
415.339167
 31
0.0
  0
LINE
  5
44D
100
AcDbEntity
  8
61
  6
CONTINUOUS
 62
     2
100
AcDbLine
 10
633.552417
 20
436.505833
 30
0.0
 11
633.552417
 21
415.339167
 31
0.0
  0
LINE
  5
44E
100
AcDbEntity
  8
61
  6
CONTINUOUS
 62
     2
100
AcDbLine
 10
622.969083
 20
436.505833
 30
0.0
 11
622.969083
 21
415.339167
 31
0.0
  0
TEXT
  5
44F
100
AcDbEntity
  8
61
  6
CONTINUOUS
 62
     2
100
AcDbText
 10
565.88575
 20
433.255833
 30
0.0
 40
1.2705
  1
PUBLIC
 50
0.033272
 41
1.001968
  7
MONOTXT
210
0.0
220
0.0
230
1.0
100
AcDbText
  0
TEXT
  5
450
100
AcDbEntity
  8
61
  6
CONTINUOUS
 62
     2
100
AcDbText
 10
565.969083
 20
430.589167
 30
0.0
 40
1.2705
  1
ROADS
 50
0.124322
 41
0.996852
  7
MONOTXT
210
0.0
220
0.0
230
1.0
100
AcDbText
  0
TEXT
  5
451
100
AcDbEntity
  8
61
  6
CONTINUOUS
 62
     2
100
AcDbText
 10
567.219083
 20
428.005833
 30
0.0
 40
1.2705
  1
DIV.
 50
359.931522
 41
0.994884
  7
MONOTXT
210
0.0
220
0.0
230
1.0
100
AcDbText
  0
TEXT
  5
452
100
AcDbEntity
  8
61
  6
CONTINUOUS
 62
     2
100
AcDbText
 10
576.63575
 20
433.339167
 30
0.0
 40
1.2705
  1
STATE
 50
0.058969
 41
0.998032
  7
MONOTXT
210
0.0
220
0.0
230
1.0
100
AcDbText
  0
TEXT
  5
453
100
AcDbEntity
  8
61
  6
CONTINUOUS
 62
     2
100
AcDbText
 10
577.552417
 20
430.6725
 30
0.0
 40
1.2705
  1
DIST.
 50
0.055889
 41
0.999606
  7
MONOTXT
210
0.0
220
0.0
230
1.0
100
AcDbText
  0
TEXT
  5
454
100
AcDbEntity
  8
61
  6
CONTINUOUS
 62
     2
100
AcDbText
 10
578.13575
 20
428.005833
 30
0.0
 40
1.2705
  1
NO.
 50
359.852072
 41
0.997639
  7
MONOTXT
210
0.0
220
0.0
230
1.0
100
AcDbText
  0
TEXT
  5
455
100
AcDbEntity
  8
61
  6
CONTINUOUS
 62
     2
100
AcDbText
 10
589.302417
 20
433.255833
 30
0.0
 40
1.2705
  1
STATE
 50
0.058969
 41
0.998032
  7
MONOTXT
210
0.0
220
0.0
230
1.0
100
AcDbText
  0
TEXT
  5
456
100
AcDbEntity
  8
61
  6
CONTINUOUS
 62
     2
100
AcDbText
 10
588.13575
 20
430.755833
 30
0.0
 40
1.2705
  1
PROJECT
 50
359.908431
  7
MONOTXT
210
0.0
220
0.0
230
1.0
100
AcDbText
  0
TEXT
  5
457
100
AcDbEntity
  8
61
  6
CONTINUOUS
 62
     2
100
AcDbText
 10
591.052417
 20
428.005833
 30
0.0
 40
1.2705
  1
NO.
 50
0.225453
 41
0.993703
  7
MONOTXT
210
0.0
220
0.0
230
1.0
100
AcDbText
  0
TEXT
  5
458
100
AcDbEntity
  8
61
  6
CONTINUOUS
 62
     2
100
AcDbText
 10
607.63575
 20
432.089167
 30
0.0
 40
1.2695
  1
FEDERAL
 50
0.006714
 41
0.998425
  7
MONOTXT
210
0.0
220
0.0
230
1.0
100
AcDbText
  0
TEXT
  5
459
100
AcDbEntity
  8
61
  6
CONTINUOUS
 62
     2
100
AcDbText
 10
605.969083
 20
429.255833
 30
0.0
 40
1.2705
  1
PROJECT NO.
 50
359.921531
 41
1.000787
  7
MONOTXT
210
0.0
220
0.0
230
1.0
100
AcDbText
  0
TEXT
  5
45A
100
AcDbEntity
  8
61
  6
CONTINUOUS
 62
     2
100
AcDbText
 10
625.302417
 20
432.005833
 30
0.0
 40
1.2705
  1
FISCAL
 50
359.941939
 41
0.998819
  7
MONOTXT
210
0.0
220
0.0
230
1.0
100
AcDbText
  0
TEXT
  5
45B
100
AcDbEntity
  8
61
  6
CONTINUOUS
 62
     2
100
AcDbText
 10
625.88575
 20
429.005833
 30
0.0
 40
1.2695
  1
YEAR
 50
0.104606
 41
0.993304
  7
MONOTXT
210
0.0
220
0.0
230
1.0
100
AcDbText
  0
TEXT
  5
45C
100
AcDbEntity
  8
61
  6
CONTINUOUS
 62
     2
100
AcDbText
 10
640.802417
 20
430.4225
 30
0.0
 40
1.2695
  1
COUNTY
 50
0.068575
 41
1.001969
  7
MONOTXT
210
0.0
220
0.0
230
1.0
100
AcDbText
  0
TEXT
  5
45D
100
AcDbEntity
  8
61
  6
CONTINUOUS
 62
     2
100
AcDbText
 10
659.469083
 20
432.1725
 30
0.0
 40
1.2705
  1
SHEET
 50
0.058969
 41
0.997639
  7
MONOTXT
210
0.0
220
0.0
230
1.0
100
AcDbText
  0
TEXT
  5
45E
100
AcDbEntity
  8
61
  6
CONTINUOUS
 62
     2
100
AcDbText
 10
660.969083
 20
429.255833
 30
0.0
 40
1.2705
  1
NO.
 50
359.852072
 41
0.997639
  7
MONOTXT
210
0.0
220
0.0
230
1.0
100
AcDbText
  0
TEXT
  5
45F
100
AcDbEntity
  8
61
  6
CONTINUOUS
 62
     2
100
AcDbText
 10
669.802417
 20
432.005833
 30
0.0
 40
1.2705
  1
TOTAL
 50
359.926039
 41
0.998426
  7
MONOTXT
210
0.0
220
0.0
230
1.0
100
AcDbText
  0
TEXT
  5
460
100
AcDbEntity
  8
61
  6
CONTINUOUS
 62
     2
100
AcDbText
 10
669.302417
 20
429.1725
 30
0.0
 40
1.2695
  1
SHEETS
 50
359.958675
  7
MONOTXT
210
0.0
220
0.0
230
1.0
100
AcDbText
  0
TEXT
  5
461
100
AcDbEntity
  8
61
  6
CONTINUOUS
 62
     2
100
AcDbText
 10
577.052417
 20
419.755833
 30
0.0
 40
2.541
  1
  
 50
0.029406
 41
0.996655
  7
MONOTXT
210
0.0
220
0.0
230
1.0
100
AcDbText
  0
TEXT
  5
462
100
AcDbEntity
  8
61
  6
CONTINUOUS
 62
     2
100
AcDbText
 10
658.719083
 20
419.505833
 30
0.0
 40
2.541
  1
   
 50
0.011508
 41
1.000984
  7
MONOTXT
210
0.0
220
0.0
230
1.0
100
AcDbText
  0
TEXT
  5
463
100
AcDbEntity
  8
61
  6
CONTINUOUS
 62
     2
100
AcDbText
 10
669.219083
 20
419.4225
 30
0.0
 40
2.541
  1
   
 50
359.922128
 41
1.00059
  7
MONOTXT
210
0.0
220
0.0
230
1.0
100
AcDbText
  0
TEXT
  5
464
100
AcDbEntity
  8
61
  6
CONTINUOUS
 62
     2
100
AcDbText
 10
588.052417
 20
423.089167
 30
0.0
 40
2.1235
  1
    
 50
0.054383
 41
0.993643
  7
MONOTXT
210
0.0
220
0.0
230
1.0
100
AcDbText
  0
TEXT
  5
465
100
AcDbEntity
  8
61
  6
CONTINUOUS
 62
     2
100
AcDbText
 10
584.969083
 20
419.839167
 30
0.0
 40
2.1055
  1
       
 50
0.064678
 41
1.00095
  7
MONOTXT
210
0.0
220
0.0
230
1.0
100
AcDbText
  0
TEXT
  5
466
100
AcDbEntity
  8
61
  6
CONTINUOUS
 62
     2
100
AcDbText
 10
586.052417
 20
416.755833
 30
0.0
 40
2.105499
  1
      
 50
359.958053
 41
1.000237
  7
MONOTXT
210
0.0
220
0.0
230
1.0
100
AcDbText
  0
TEXT
  5
467
100
AcDbEntity
  8
61
  6
CONTINUOUS
 62
     2
100
AcDbText
 10
597.63575
 20
421.6725
 30
0.0
 40
2.541
  1
           
 50
0.011508
 41
0.998819
  7
MONOTXT
210
0.0
220
0.0
230
1.0
100
AcDbText
  0
TEXT
  5
468
100
AcDbEntity
  8
61
  6
CONTINUOUS
 62
     2
100
AcDbText
 10
597.469083
 20
417.839167
 30
0.0
 40
2.541
  1
           
 50
0.011508
 41
0.999606
  7
MONOTXT
210
0.0
220
0.0
230
1.0
100
AcDbText
  0
TEXT
  5
469
100
AcDbEntity
  8
61
  6
CONTINUOUS
 62
     2
100
AcDbText
 10
634.88575
 20
419.6725
 30
0.0
 40
2.1235
  1
          
 50
0.009222
 41
0.992701
  7
MONOTXT
210
0.0
220
0.0
230
1.0
100
AcDbText
  0
LINE
  5
46A
100
AcDbEntity
  8
1
  6
CONTINUOUS
 62
     2
100
AcDbLine
 10
498.88575
 20
0.589167
 30
0.0
 11
498.88575
 21
97.505833
 31
0.0
  0
LINE
  5
46B
100
AcDbEntity
  8
1
  6
CONTINUOUS
 62
     2
100
AcDbLine
 10
498.88575
 20
97.505833
 30
0.0
 11
680.552417
 21
97.505833
 31
0.0
  0
LINE
  5
46C
100
AcDbEntity
  8
1
  6
CONTINUOUS
 62
     2
100
AcDbLine
 10
535.969083
 20
0.589167
 30
0.0
 11
535.969083
 21
53.089167
 31
0.0
  0
LINE
  5
46D
100
AcDbEntity
  8
1
  6
CONTINUOUS
 62
     2
100
AcDbLine
 10
535.969083
 20
53.089167
 30
0.0
 11
498.88575
 21
53.089167
 31
0.0
  0
LINE
  5
46E
100
AcDbEntity
  8
1
  6
CONTINUOUS
 62
     2
100
AcDbLine
 10
535.969083
 20
48.339167
 30
0.0
 11
498.88575
 21
48.339167
 31
0.0
  0
LINE
  5
46F
100
AcDbEntity
  8
1
  6
CONTINUOUS
 62
     2
100
AcDbLine
 10
535.969083
 20
38.6725
 30
0.0
 11
498.88575
 21
38.6725
 31
0.0
  0
LINE
  5
470
100
AcDbEntity
  8
1
  6
CONTINUOUS
 62
     2
100
AcDbLine
 10
535.969083
 20
29.089167
 30
0.0
 11
498.88575
 21
29.089167
 31
0.0
  0
LINE
  5
471
100
AcDbEntity
  8
1
  6
CONTINUOUS
 62
     2
100
AcDbLine
 10
535.969083
 20
33.839167
 30
0.0
 11
498.88575
 21
33.839167
 31
0.0
  0
LINE
  5
472
100
AcDbEntity
  8
1
  6
CONTINUOUS
 62
     2
100
AcDbLine
 10
535.969083
 20
19.589167
 30
0.0
 11
498.88575
 21
19.589167
 31
0.0
  0
LINE
  5
473
100
AcDbEntity
  8
1
  6
CONTINUOUS
 62
     2
100
AcDbLine
 10
535.969083
 20
14.839167
 30
0.0
 11
498.88575
 21
14.839167
 31
0.0
  0
LINE
  5
474
100
AcDbEntity
  8
1
  6
CONTINUOUS
 62
     2
100
AcDbLine
 10
535.969083
 20
10.089167
 30
0.0
 11
498.88575
 21
10.089167
 31
0.0
  0
LINE
  5
475
100
AcDbEntity
  8
1
  6
CONTINUOUS
 62
     2
100
AcDbLine
 10
535.969083
 20
5.339167
 30
0.0
 11
498.88575
 21
5.339167
 31
0.0
  0
TEXT
  5
476
100
AcDbEntity
  8
1
  6
CONTINUOUS
 62
     2
100
AcDbText
 10
509.802417
 20
49.9225
 30
0.0
 40
2.114
  1
REVISIONS
  7
MONOTXT
210
0.0
220
0.0
230
1.0
100
AcDbText
  0
TEXT
  5
477
100
AcDbEntity
  8
1
  6
CONTINUOUS
 62
     2
100
AcDbText
 10
500.969083
 20
54.089167
 30
0.0
 40
2.114
  1
PREPARED: 05/00/67
  7
MONOTXT
210
0.0
220
0.0
230
1.0
100
AcDbText
  0
TEXT
  5
479
100
AcDbEntity
  8
1
  6
CONTINUOUS
 62
     2
100
AcDbText
 10
533.38575
 20
88.4225
 30
0.0
 40
5.0745
  1
WEST VIRGINIA DIVISION OF HIGHWAYS
  7
ROMANT
 72
     1
 11
590.50375
 21
93.497
 31
0.0
210
0.0
220
0.0
230
1.0
100
AcDbText
 73
     3
  0
TEXT
  5
47A
100
AcDbEntity
  8
1
  6
CONTINUOUS
 62
     2
100
AcDbText
 10
544.802417
 20
76.589167
 30
0.0
 40
7.4005
  1
STANDARD DETAIL
  7
TXT
 72
     1
 11
591.8875
 21
83.989667
 31
0.0
210
0.0
220
0.0
230
1.0
100
AcDbText
 73
     3
  0
TEXT
  5
47B
100
AcDbEntity
  8
1
  6
CONTINUOUS
 62
     2
100
AcDbText
 10
539.969083
 20
4.9225
 30
0.0
 40
7.4005
  1
STANDARD SHEET TE1-3B
  7
TXT
210
0.0
220
0.0
230
1.0
100
AcDbText
  0
TEXT
  5
47C
100
AcDbEntity
  8
1
  6
CONTINUOUS
 62
     2
100
AcDbText
 10
508.19625
 20
44.121833
 30
0.0
 40
2.1165
  1
        
  7
MONOTXT
 72
     1
 11
516.3095
 21
46.238333
 31
0.0
210
0.0
220
0.0
230
1.0
100
AcDbText
 73
     3
  0
TEXT
  5
47D
100
AcDbEntity
  8
1
  6
CONTINUOUS
 62
     2
100
AcDbText
 10
508.719083
 20
34.9225
 30
0.0
 40
2.1165
  1
        
  7
MONOTXT
 72
     1
 11
516.832333
 21
37.039
 31
0.0
210
0.0
220
0.0
230
1.0
100
AcDbText
 73
     3
  0
TEXT
  5
47E
100
AcDbEntity
  8
1
  6
CONTINUOUS
 62
     2
100
AcDbText
 10
508.719083
 20
30.339167
 30
0.0
 40
2.1165
  1
        
  7
MONOTXT
 72
     1
 11
516.832333
 21
32.455667
 31
0.0
210
0.0
220
0.0
230
1.0
100
AcDbText
 73
     3
  0
TEXT
  5
47F
100
AcDbEntity
  8
1
  6
CONTINUOUS
 62
     2
100
AcDbText
 10
508.719083
 20
25.6725
 30
0.0
 40
2.1165
  1
        
  7
MONOTXT
 72
     1
 11
516.832333
 21
27.789
 31
0.0
210
0.0
220
0.0
230
1.0
100
AcDbText
 73
     3
  0
TEXT
  5
480
100
AcDbEntity
  8
1
  6
CONTINUOUS
 62
     2
100
AcDbText
 10
508.552417
 20
20.755833
 30
0.0
 40
2.1165
  1
        
  7
MONOTXT
 72
     1
 11
516.665667
 21
22.872333
 31
0.0
210
0.0
220
0.0
230
1.0
100
AcDbText
 73
     3
  0
TEXT
  5
481
100
AcDbEntity
  8
1
  6
CONTINUOUS
 62
     2
100
AcDbText
 10
508.719083
 20
16.005833
 30
0.0
 40
2.1165
  1
        
  7
MONOTXT
 72
     1
 11
516.832333
 21
18.122333
 31
0.0
210
0.0
220
0.0
230
1.0
100
AcDbText
 73
     3
  0
TEXT
  5
482
100
AcDbEntity
  8
1
  6
CONTINUOUS
 62
     2
100
AcDbText
 10
508.63575
 20
11.1725
 30
0.0
 40
2.1165
  1
        
  7
MONOTXT
 72
     1
 11
516.749
 21
13.289
 31
0.0
210
0.0
220
0.0
230
1.0
100
AcDbText
 73
     3
  0
TEXT
  5
483
100
AcDbEntity
  8
1
  6
CONTINUOUS
 62
     2
100
AcDbText
 10
508.719083
 20
6.339167
 30
0.0
 40
2.1165
  1
        
  7
MONOTXT
 72
     1
 11
516.832333
 21
8.455667
 31
0.0
210
0.0
220
0.0
230
1.0
100
AcDbText
 73
     3
  0
TEXT
  5
484
100
AcDbEntity
  8
1
  6
CONTINUOUS
 62
     2
100
AcDbText
 10
510.202667
 20
2.176333
 30
0.0
 40
2.1165
  1
06-06-94
  7
MONOTXT
 72
     1
 11
517.793667
 21
4.292833
 31
0.0
210
0.0
220
0.0
230
1.0
100
AcDbText
 73
     3
  0
LINE
  5
485
100
AcDbEntity
  8
1
  6
CONTINUOUS
 62
     2
100
AcDbLine
 10
680.552417
 20
0.589167
 30
0.0
 11
680.552417
 21
97.505833
 31
0.0
  0
LINE
  5
486
100
AcDbEntity
  8
1
  6
CONTINUOUS
 62
     7
100
AcDbLine
 10
680.552417
 20
439.005833
 30
0.0
 11
20.802417
 21
438.9225
 31
0.0
  0
LINE
  5
487
100
AcDbEntity
  8
1
  6
CONTINUOUS
 62
     7
100
AcDbLine
 10
20.802417
 20
438.9225
 30
0.0
 11
20.88575
 21
0.589167
 31
0.0
  0
LINE
  5
488
100
AcDbEntity
  8
1
  6
CONTINUOUS
 62
     7
100
AcDbLine
 10
680.552417
 20
0.589167
 30
0.0
 11
680.552417
 21
439.005833
 31
0.0
  0
LINE
  5
489
100
AcDbEntity
  8
61
  6
CONTINUOUS
 62
     2
100
AcDbLine
 10
680.552417
 20
0.589167
 30
0.0
 11
553.302417
 21
0.589167
 31
0.0
  0
TEXT
  5
48A
100
AcDbEntity
  8
61
  6
CONTINUOUS
 62
     2
100
AcDbText
 10
655.13575
 20
405.589167
 30
0.0
 40
2.5455
  1
     
 41
1.001375
  7
MONOTXT
210
0.0
220
0.0
230
1.0
100
AcDbText
  0
INSERT
  5
48F
100
AcDbEntity
  8
1
  6
CONTINUOUS
 62
     1
100
AcDbBlockReference
  2
PT
 10
685.802417
 20
-8.8275
 30
0.0
 41
269.385512
 42
269.385512
210
0.0
220
0.0
230
1.0
  0
LINE
  5
490
100
AcDbEntity
  8
1
  6
CONTINUOUS
 62
     7
100
AcDbLine
 10
680.552417
 20
0.589167
 30
0.0
 11
20.88575
 21
0.589167
 31
0.0
  0
LINE
  5
491
100
AcDbEntity
  8
1
  6
CONTINUOUS
 62
     2
100
AcDbLine
 10
680.552417
 20
0.589167
 30
0.0
 11
680.552417
 21
439.005833
 31
0.0
  0
TEXT
  5
492
100
AcDbEntity
  8
CONSTRUCTION_CLASS
  6
CONTINUOUS
 62
     3
100
AcDbText
 10
566.302417
 20
419.1725
 30
0.0
 40
2.54
  1
WV
  7
MONOTXT
210
0.0
220
0.0
230
1.0
100
AcDbText
  0
TEXT
  5
493
100
AcDbEntity
  8
61
  6
CONTINUOUS
 62
     2
100
AcDbText
 10
625.88575
 20
419.589167
 30
0.0
 40
2.541
  1
  
 50
0.029406
 41
0.996655
  7
MONOTXT
210
0.0
220
0.0
230
1.0
100
AcDbText
  0
LINE
  5
494
100
AcDbEntity
  8
61
  6
CONTINUOUS
 62
     2
100
AcDbLine
 10
680.552417
 20
0.589167
 30
0.0
 11
553.302417
 21
0.589167
 31
0.0
  0
LINE
  5
495
100
AcDbEntity
  8
61
  6
CONTINUOUS
 62
     2
100
AcDbLine
 10
680.552417
 20
0.589167
 30
0.0
 11
553.552417
 21
0.589167
 31
0.0
  0
LINE
  5
496
100
AcDbEntity
  8
61
  6
CONTINUOUS
 62
     2
100
AcDbLine
 10
680.552417
 20
0.589167
 30
0.0
 11
553.302417
 21
0.589167
 31
0.0
  0
LINE
  5
497
100
AcDbEntity
  8
61
  6
CONTINUOUS
 62
     2
100
AcDbLine
 10
680.552417
 20
0.589167
 30
0.0
 11
553.552417
 21
0.589167
 31
0.0
  0
TEXT
  5
498
100
AcDbEntity
  8
1
  6
CONTINUOUS
 62
     2
100
AcDbText
 10
631.63575
 20
-2.5775
 30
0.0
 40
1.6925
  1
TRAFFIC ENGINEERING DIVISION
  7
TXT
210
0.0
220
0.0
230
1.0
100
AcDbText
  0
TEXT
  5
499
100
AcDbEntity
  8
1
  6
CONTINUOUS
 62
     7
100
AcDbText
 10
453.052417
 20
-2.5775
 30
0.0
 40
1.8335
  1
$$$$$$$$$FILENAME$$$$$$$$
  7
MONOTXT
210
0.0
220
0.0
230
1.0
100
AcDbText
  0
TEXT
  5
49A
100
AcDbEntity
  8
1
  6
CONTINUOUS
 62
     7
100
AcDbText
 10
553.719083
 20
-2.5775
 30
0.0
 40
1.8335
  1
$USERNAME$
  7
MONOTXT
210
0.0
220
0.0
230
1.0
100
AcDbText
  0
TEXT
  5
49B
100
AcDbEntity
  8
1
  6
CONTINUOUS
 62
     7
100
AcDbText
 10
591.302417
 20
-2.5775
 30
0.0
 40
1.8335
  1
DD-MMM-YYYY HH:MM
  7
MONOTXT
210
0.0
220
0.0
230
1.0
100
AcDbText
  0
TEXT
  5
49C
100
AcDbEntity
  8
1
  6
CONTINUOUS
 62
     7
100
AcDbText
 10
510.323333
 20
44.300667
 30
0.0
 40
2.0
  1
03-19-69
  7
MONOTXT
 72
     1
 11
517.024083
 21
46.300667
 31
0.0
210
0.0
220
0.0
230
1.0
100
AcDbText
 73
     3
  0
LINE
  5
49D
100
AcDbEntity
  8
1
  6
CONTINUOUS
 62
     2
100
AcDbLine
 10
535.969083
 20
24.339167
 30
0.0
 11
498.88575
 21
24.339167
 31
0.0
  0
LINE
  5
49E
100
AcDbEntity
  8
1
  6
CONTINUOUS
 62
     2
100
AcDbLine
 10
535.969083
 20
43.505833
 30
0.0
 11
498.88575
 21
43.505833
 31
0.0
  0
LWPOLYLINE
  5
49F
100
AcDbEntity
  8
1
  6
CONTINUOUS
 62
     7
100
AcDbPolyline
 90
        4
 70
     0
 10
503.780333
 20
5.186333
 10
501.780333
 20
1.72225
 10
505.780333
 20
1.72225
 10
503.780333
 20
5.186333
  0
TEXT
  5
4A0
100
AcDbEntity
  8
1
  6
CONTINUOUS
 62
     7
100
AcDbText
 10
502.789833
 20
1.82275
 30
0.0
 40
2.0
  1
10
 41
0.833292
  7
MONOTXT
210
0.0
220
0.0
230
1.0
100
AcDbText
  0
LWPOLYLINE
  5
4A1
100
AcDbEntity
  8
1
  6
CONTINUOUS
 62
     7
100
AcDbPolyline
 90
        4
 70
     0
 10
500.207333
 20
107.7825
 10
498.207333
 20
104.318417
 10
502.207333
 20
104.318417
 10
500.207333
 20
107.7825
  0
TEXT
  5
4A2
100
AcDbEntity
  8
1
  6
CONTINUOUS
 62
     7
100
AcDbText
 10
499.216833
 20
104.418917
 30
0.0
 40
2.0
  1
10
 41
0.833292
  7
MONOTXT
210
0.0
220
0.0
230
1.0
100
AcDbText
  0
TEXT
  5
4A3
100
AcDbEntity
  8
1
  6
CONTINUOUS
 62
     7
100
AcDbText
 10
503.385833
 20
105.22625
 30
0.0
 40
2.0
  1
ADDED METRIC
  7
MONOTXT
210
0.0
220
0.0
230
1.0
100
AcDbText
  0
TEXT
  5
4A4
100
AcDbEntity
  8
1
  6
CONTINUOUS
 62
     7
100
AcDbText
 10
504.170167
 20
128.412833
 30
0.0
 40
2.0
  1
AASHTO NOTE, A572 GRADE 50 STEEL
  7
MONOTXT
210
0.0
220
0.0
230
1.0
100
AcDbText
  0
ENDSEC
  0
SECTION
  2
OBJECTS
  0
DICTIONARY
  5
19
100
AcDbDictionary
  3
ACAD_GROUP
350
1A
  3
ACAD_MLINESTYLE
350
1B
  0
DICTIONARY
  5
1A
102
{ACAD_REACTORS
330
19
102
}
100
AcDbDictionary
  0
DICTIONARY
  5
1B
102
{ACAD_REACTORS
330
19
102
}
100
AcDbDictionary
  3
STANDARD
350
1C
  0
MLINESTYLE
  5
1C
102
{ACAD_REACTORS
330
1B
102
}
100
AcDbMlineStyle
  2
STANDARD
 70
     0
  3

 62
     0
 51
90.0
 52
90.0
 71
     2
 49
0.5
 62
   256
  6
BYLAYER
 49
-0.5
 62
   256
  6
BYLAYER
  0
ENDSEC
  0
EOF
