  0
SECTION
  2
HEADER
  9
$ACADVER
  1
AC1014
  9
$ACADMAINTVER
 70
     0
  9
$DWGCODEPAGE
  3
ANSI_1252
  9
$INSBASE
 10
0.0
 20
0.0
 30
0.0
  9
$EXTMIN
 10
-289.5778
 20
-309.1885
 30
0.0
  9
$EXTMAX
 10
460.1061
 20
88.7389
 30
0.0
  9
$LIMMIN
 10
0.0
 20
0.0
  9
$LIMMAX
 10
12.0
 20
9.0
  9
$ORTHOMODE
 70
     0
  9
$REGENMODE
 70
     1
  9
$FILLMODE
 70
     1
  9
$QTEXTMODE
 70
     0
  9
$MIRRTEXT
 70
     1
  9
$DRAGMODE
 70
     2
  9
$LTSCALE
 40
1.0
  9
$OSMODE
 70
     0
  9
$ATTMODE
 70
     1
  9
$TEXTSIZE
 40
0.2
  9
$TRACEWID
 40
0.05
  9
$TEXTSTYLE
  7
STANDARD
  9
$CLAYER
  8
0
  9
$CELTYPE
  6
CONTINUOUS
  9
$CECOLOR
 62
   256
  9
$CELTSCALE
 40
1.0
  9
$DELOBJ
 70
     1
  9
$DISPSILH
 70
     0
  9
$DIMSCALE
 40
1.0
  9
$DIMASZ
 40
0.18
  9
$DIMEXO
 40
0.0625
  9
$DIMDLI
 40
0.38
  9
$DIMRND
 40
0.0
  9
$DIMDLE
 40
0.0
  9
$DIMEXE
 40
0.18
  9
$DIMTP
 40
0.0
  9
$DIMTM
 40
0.0
  9
$DIMTXT
 40
0.18
  9
$DIMCEN
 40
0.09
  9
$DIMTSZ
 40
0.0
  9
$DIMTOL
 70
     0
  9
$DIMLIM
 70
     0
  9
$DIMTIH
 70
     1
  9
$DIMTOH
 70
     1
  9
$DIMSE1
 70
     0
  9
$DIMSE2
 70
     0
  9
$DIMTAD
 70
     0
  9
$DIMZIN
 70
     0
  9
$DIMBLK
  1

  9
$DIMASO
 70
     1
  9
$DIMSHO
 70
     1
  9
$DIMPOST
  1

  9
$DIMAPOST
  1

  9
$DIMALT
 70
     0
  9
$DIMALTD
 70
     2
  9
$DIMALTF
 40
25.4
  9
$DIMLFAC
 40
1.0
  9
$DIMTOFL
 70
     0
  9
$DIMTVP
 40
0.0
  9
$DIMTIX
 70
     0
  9
$DIMSOXD
 70
     0
  9
$DIMSAH
 70
     0
  9
$DIMBLK1
  1

  9
$DIMBLK2
  1

  9
$DIMSTYLE
  2
STANDARD
  9
$DIMCLRD
 70
     0
  9
$DIMCLRE
 70
     0
  9
$DIMCLRT
 70
     0
  9
$DIMTFAC
 40
1.0
  9
$DIMGAP
 40
0.09
  9
$DIMJUST
 70
     0
  9
$DIMSD1
 70
     0
  9
$DIMSD2
 70
     0
  9
$DIMTOLJ
 70
     1
  9
$DIMTZIN
 70
     0
  9
$DIMALTZ
 70
     0
  9
$DIMALTTZ
 70
     0
  9
$DIMFIT
 70
     3
  9
$DIMUPT
 70
     0
  9
$DIMUNIT
 70
     2
  9
$DIMDEC
 70
     4
  9
$DIMTDEC
 70
     4
  9
$DIMALTU
 70
     2
  9
$DIMALTTD
 70
     2
  9
$DIMTXSTY
  7
STANDARD
  9
$DIMAUNIT
 70
     0
  9
$LUNITS
 70
     2
  9
$LUPREC
 70
     4
  9
$SKETCHINC
 40
0.1
  9
$FILLETRAD
 40
0.0
  9
$AUNITS
 70
     0
  9
$AUPREC
 70
     0
  9
$MENU
  1
acad
  9
$ELEVATION
 40
0.0
  9
$PELEVATION
 40
0.0
  9
$THICKNESS
 40
0.0
  9
$LIMCHECK
 70
     0
  9
$BLIPMODE
 70
     1
  9
$CHAMFERA
 40
0.0
  9
$CHAMFERB
 40
0.0
  9
$CHAMFERC
 40
0.0
  9
$CHAMFERD
 40
0.0
  9
$SKPOLY
 70
     0
  9
$TDCREATE
 40
2451803.453194445
  9
$TDUPDATE
 40
2451803.453194445
  9
$TDINDWG
 40
0.0000000000
  9
$TDUSRTIMER
 40
0.0000000000
  9
$USRTIMER
 70
     1
  9
$ANGBASE
 50
0.0
  9
$ANGDIR
 70
     0
  9
$PDMODE
 70
     0
  9
$PDSIZE
 40
0.0
  9
$PLINEWID
 40
0.0
  9
$COORDS
 70
     0
  9
$SPLFRAME
 70
     0
  9
$SPLINETYPE
 70
     6
  9
$SPLINESEGS
 70
    10
  9
$ATTDIA
 70
     0
  9
$ATTREQ
 70
     1
  9
$HANDLING
 70
     1
  9
$HANDSEED
  5
1C7
  9
$SURFTAB1
 70
     6
  9
$SURFTAB2
 70
     6
  9
$SURFTYPE
 70
     6
  9
$SURFU
 70
     6
  9
$SURFV
 70
     6
  9
$UCSNAME
  2

  9
$UCSORG
 10
0.0
 20
0.0
 30
0.0
  9
$UCSXDIR
 10
1.0
 20
0.0
 30
0.0
  9
$UCSYDIR
 10
0.0
 20
1.0
 30
0.0
  9
$PUCSNAME
  2

  9
$PUCSORG
 10
0.0
 20
0.0
 30
0.0
  9
$PUCSXDIR
 10
1.0
 20
0.0
 30
0.0
  9
$PUCSYDIR
 10
0.0
 20
1.0
 30
0.0
  9
$USERI1
 70
     0
  9
$USERI2
 70
     0
  9
$USERI3
 70
     0
  9
$USERI4
 70
     0
  9
$USERI5
 70
     0
  9
$USERR1
 40
0.0
  9
$USERR2
 40
0.0
  9
$USERR3
 40
0.0
  9
$USERR4
 40
0.0
  9
$USERR5
 40
0.0
  9
$WORLDVIEW
 70
     1
  9
$SHADEDGE
 70
     3
  9
$SHADEDIF
 70
    70
  9
$TILEMODE
 70
     1
  9
$MAXACTVP
 70
    16
  9
$PINSBASE
 10
0.0
 20
0.0
 30
0.0
  9
$PLIMCHECK
 70
     0
  9
$PEXTMIN
 10
-1.000000E+20
 20
-1.000000E+20
 30
-1.000000E+20
  9
$PEXTMAX
 10
-1.000000E+20
 20
-1.000000E+20
 30
-1.000000E+20
  9
$PLIMMIN
 10
0.0
 20
0.0
  9
$PLIMMAX
 10
12.0
 20
9.0
  9
$UNITMODE
 70
     0
  9
$VISRETAIN
 70
     0
  9
$PLINEGEN
 70
     1
  9
$PSLTSCALE
 70
     0
  9
$TREEDEPTH
 70
  3020
  9
$PICKSTYLE
 70
     1
  9
$CMLSTYLE
  2
STANDARD
  9
$CMLJUST
 70
     0
  9
$CMLSCALE
 40
1.0
  9
$PROXYGRAPHICS
 70
     0
  9
$MEASUREMENT
 70
     0
  0
ENDSEC
  0
SECTION
  2
CLASSES
  0
CLASS
  1
LWPOLYLINE
  2
AcDbPolyline
  3
"AutoCAD"
 90
        0
280
     0
281
     1
  0
CLASS
  1
IMAGE
  2
AcDbRasterImage
  3
ISM
 90
      127
280
     0
281
     1
  0
CLASS
  1
OLE2FRAME
  2
AcDbOle2Frame
  3
""
 90
        0
280
     0
281
     1
  0
CLASS
  1
HATCH
  2
AcDbHatch
  3
"ACAD_SEDONA"
 90
        0
280
     0
281
     1
  0
CLASS
  1
DICTIONARYVAR
  2
AcDbDictionaryVar
  3
"AutoCAD"
 90
        0
280
     0
281
     0
  0
CLASS
  1
RASTERVARIABLES
  2
AcDbRasterVariables
  3
ISM
 90
        0
280
     0
281
     0
  0
CLASS
  1
IMAGEDEF
  2
AcDbRasterImageDef
  3
ISM
 90
        0
280
     0
281
     0
  0
CLASS
  1
IMAGEDEF_REACTOR
  2
AcDbRasterImageDefReactor
  3
ISM
 90
        1
280
     0
281
     0
  0
CLASS
  1
IDBUFFER
  2
AcDbIdBuffer
  3
"Acad"
 90
        0
280
     0
281
     0
  0
CLASS
  1
SPATIAL_FILTER
  2
AcDbSpatialFilter
  3
"Acad"
 90
        0
280
     0
281
     0
  0
CLASS
  1
XRECORD
  2
AcDbXrecord
  3
"<Built In>"
 90
        0
280
     0
281
     0
  0
CLASS
  1
SORTENTSTABLE
  2
AcDbSortentsTable
  3
"AutoCAD"
 90
        0
280
     0
281
     0
  0
CLASS
  1
LAYER_INDEX
  2
AcDbLayerIndex
  3
"Acad"
 90
        0
280
     0
281
     0
  0
CLASS
  1
SPATIAL_INDEX
  2
AcDbSpatialIndex
  3
"Acad"
 90
        0
280
     0
281
     0
  0
CLASS
  1
OBJECT_PTR
  2
CAseDLPNTableRecord
  3
"ASE-LPNTableRecord"
 90
        1
280
     0
281
     0
  0
ENDSEC
  0
SECTION
  2
TABLES
  0
TABLE
  2
VPORT
  5
7
100
AcDbSymbolTable
 70
     1
  0
VPORT
  5
1C6
100
AcDbSymbolTableRecord
100
AcDbViewportTableRecord
  2
*ACTIVE
 70
     0
 10
0.0
 20
0.0
 11
1.0
 21
1.0
 12
0.0
 22
0.0
 13
0.0
 23
0.0
 14
0.0
 24
0.0
 15
0.0
 25
0.0
 16
0.0
 26
0.0
 36
1.0
 17
31.6376
 27
-66.044
 37
0.0
 40
565.24
 41
1.545
 42
50.0
 43
0.0
 44
0.0
 50
0.0
 51
0.0
 71
     0
 72
   100
 73
     1
 74
     0
 75
     0
 76
     0
 77
     0
 78
     0
  0
ENDTAB
  0
TABLE
  2
LTYPE
  5
4
100
AcDbSymbolTable
 70
     9
  0
LTYPE
  5
11
100
AcDbSymbolTableRecord
100
AcDbLinetypeTableRecord
  2
BYBLOCK
 70
     0
  3

 72
    65
 73
     0
 40
0.0
  0
LTYPE
  5
12
100
AcDbSymbolTableRecord
100
AcDbLinetypeTableRecord
  2
BYLAYER
 70
     0
  3

 72
    65
 73
     0
 40
0.0
  0
LTYPE
  5
13
100
AcDbSymbolTableRecord
100
AcDbLinetypeTableRecord
  2
CONTINUOUS
 70
     0
  3
Solid line
 72
    65
 73
     0
 40
0.0
  0
LTYPE
  5
22
102
{ACAD_XDICTIONARY
360
2100000000000000
102
}
100
AcDbSymbolTableRecord
100
AcDbLinetypeTableRecord
  2
DOT
 70
    64
  3
. . . . . . . . . . . . . . . . . . . . . . . . . . . . . . . . .
 72
    65
 73
     2
 40
0.25
 49
0.0
 74
     0
 49
-0.25
 74
     0
  0
LTYPE
  5
23
102
{ACAD_XDICTIONARY
360
2100000000000000
102
}
100
AcDbSymbolTableRecord
100
AcDbLinetypeTableRecord
  2
HIDDEN
 70
    64
  3
__ __ __ __ __ __ __ __ __ __ __ __ __ __ __ __ __ __ __ __ __ 
 72
    65
 73
     2
 40
0.375
 49
0.25
 74
     0
 49
-0.125
 74
     0
  0
LTYPE
  5
24
102
{ACAD_XDICTIONARY
360
2100000000000000
102
}
100
AcDbSymbolTableRecord
100
AcDbLinetypeTableRecord
  2
DASHED
 70
    64
  3
__ __ __ __ __ __ __ __ __ __ __ __ __ __ __ __ __ __ __ __ __
 72
    65
 73
     2
 40
0.75
 49
0.5
 74
     0
 49
-0.25
 74
     0
  0
LTYPE
  5
25
102
{ACAD_XDICTIONARY
360
2100000000000000
102
}
100
AcDbSymbolTableRecord
100
AcDbLinetypeTableRecord
  2
DASHDOT
 70
    64
  3
__ . __ . __ . __ . __ . __ . __ . __ . __ . __ . __ . __ . _
 72
    65
 73
     4
 40
1.0
 49
0.5
 74
     0
 49
-0.25
 74
     0
 49
0.0
 74
     0
 49
-0.25
 74
     0
  0
LTYPE
  5
26
102
{ACAD_XDICTIONARY
360
2100000000000000
102
}
100
AcDbSymbolTableRecord
100
AcDbLinetypeTableRecord
  2
DIVIDE
 70
    64
  3
____ . . ____ . . ____ . . ____ . . ____ . . ____ . . ____ . .
 72
    65
 73
     6
 40
1.25
 49
0.5
 74
     0
 49
-0.25
 74
     0
 49
0.0
 74
     0
 49
-0.25
 74
     0
 49
0.0
 74
     0
 49
-0.25
 74
     0
  0
LTYPE
  5
27
102
{ACAD_XDICTIONARY
360
2100000000000000
102
}
100
AcDbSymbolTableRecord
100
AcDbLinetypeTableRecord
  2
CENTER
 70
    64
  3
____ _ ____ _ ____ _ ____ _ ____ _ ____ _ ____ _ ____ _ ____ _
 72
    65
 73
     4
 40
2.0
 49
1.25
 74
     0
 49
-0.25
 74
     0
 49
0.25
 74
     0
 49
-0.25
 74
     0
  0
ENDTAB
  0
TABLE
  2
LAYER
  5
2
100
AcDbSymbolTable
 70
     4
  0
LAYER
  5
14
102
{ACAD_XDICTIONARY
360
5F205F5F5F5F205F
102
}
100
AcDbSymbolTableRecord
100
AcDbLayerTableRecord
  2
0
 70
     0
 62
     7
  6
CONTINUOUS
  0
LAYER
  5
2A
102
{ACAD_XDICTIONARY
360
5F205F5F5F5F205F
102
}
100
AcDbSymbolTableRecord
100
AcDbLayerTableRecord
  2
1
 70
    64
 62
     7
  6
CONTINUOUS
  0
LAYER
  5
2D
102
{ACAD_XDICTIONARY
360
5F205F5F5F5F205F
102
}
100
AcDbSymbolTableRecord
100
AcDbLayerTableRecord
  2
4
 70
    64
 62
     7
  6
CONTINUOUS
  0
LAYER
  5
D4
102
{ACAD_XDICTIONARY
360
5F205F5F5F5F205F
102
}
100
AcDbSymbolTableRecord
100
AcDbLayerTableRecord
  2
2
 70
    64
 62
     7
  6
CONTINUOUS
  0
ENDTAB
  0
TABLE
  2
STYLE
  5
3
100
AcDbSymbolTable
 70
     3
  0
STYLE
  5
17
100
AcDbSymbolTableRecord
100
AcDbTextStyleTableRecord
  2
STANDARD
 70
     0
 40
0.0
 41
1.0
 50
0.0
 71
     0
 42
0.0
  3
txt
  4

  0
STYLE
  5
3C
100
AcDbSymbolTableRecord
100
AcDbTextStyleTableRecord
  2
MONOTXT
 70
     0
 40
0.2
 41
1.0
 50
0.0
 71
     0
 42
0.2
  3
MONOTXT
  4

  0
STYLE
  5
46
100
AcDbSymbolTableRecord
100
AcDbTextStyleTableRecord
  2
TXT
 70
     0
 40
0.2
 41
1.0
 50
0.0
 71
     0
 42
0.2
  3
TXT
  4

  0
ENDTAB
  0
TABLE
  2
VIEW
  5
5
100
AcDbSymbolTable
 70
     0
  0
ENDTAB
  0
TABLE
  2
UCS
  5
6
100
AcDbSymbolTable
 70
     0
  0
ENDTAB
  0
TABLE
  2
APPID
  5
8
100
AcDbSymbolTable
 70
     1
  0
APPID
  5
16
100
AcDbSymbolTableRecord
100
AcDbRegAppTableRecord
  2
ACAD
 70
     0
  0
ENDTAB
  0
TABLE
  2
DIMSTYLE
  5
9
100
AcDbSymbolTable
 70
     1
  0
DIMSTYLE
105
18
100
AcDbSymbolTableRecord
100
AcDbDimStyleTableRecord
  2
STANDARD
 70
     0
  3

  4

  5

  6

  7

 40
1.0
 41
0.18
 42
0.0625
 43
0.38
 44
0.18
 45
0.0
 46
0.0
 47
0.0
 48
0.0
140
0.18
141
0.09
142
0.0
143
25.4
144
1.0
145
0.0
146
1.0
147
0.09
 71
     0
 72
     0
 73
     1
 74
     1
 75
     0
 76
     0
 77
     0
 78
     0
170
     0
171
     2
172
     0
173
     0
174
     0
175
     0
176
     0
177
     0
178
     0
270
     2
271
     4
272
     4
273
     2
274
     2
340
17
275
     0
280
     0
281
     0
282
     0
283
     1
284
     0
285
     0
286
     0
287
     0
288
     0
  0
ENDTAB
  0
TABLE
  2
BLOCK_RECORD
  5
1
100
AcDbSymbolTable
 70
     4
  0
BLOCK_RECORD
  5
A
100
AcDbSymbolTableRecord
100
AcDbBlockTableRecord
  2
*MODEL_SPACE
  0
BLOCK_RECORD
  5
B
100
AcDbSymbolTableRecord
100
AcDbBlockTableRecord
  2
*PAPER_SPACE
  0
BLOCK_RECORD
  5
2E
102
{ACAD_XDICTIONARY
360
B0B7022400000000
102
}
100
AcDbSymbolTableRecord
100
AcDbBlockTableRecord
  2
1SPT
  0
BLOCK_RECORD
  5
34
102
{ACAD_XDICTIONARY
360
B0B7022400000000
102
}
100
AcDbSymbolTableRecord
100
AcDbBlockTableRecord
  2
2SPT
  0
BLOCK_RECORD
  5
B2
102
{ACAD_XDICTIONARY
360
B0B7022400000000
102
}
100
AcDbSymbolTableRecord
100
AcDbBlockTableRecord
  2
LDR
  0
BLOCK_RECORD
  5
163
102
{ACAD_XDICTIONARY
360
B0B7022400000000
102
}
100
AcDbSymbolTableRecord
100
AcDbBlockTableRecord
  2
ARROW
  0
ENDTAB
  0
ENDSEC
  0
SECTION
  2
BLOCKS
  0
BLOCK
  5
D
100
AcDbEntity
  8
0
100
AcDbBlockBegin
  2
*MODEL_SPACE
 70
     0
 10
0.0
 20
0.0
 30
0.0
  3
*MODEL_SPACE
  1

  0
ENDBLK
  5
E
100
AcDbEntity
  8
0
100
AcDbBlockEnd
  0
BLOCK
  5
F
100
AcDbEntity
 67
     1
  8
0
100
AcDbBlockBegin
  2
*PAPER_SPACE
 70
     0
 10
0.0
 20
0.0
 30
0.0
  3
*PAPER_SPACE
  1

  0
ENDBLK
  5
10
100
AcDbEntity
 67
     1
  8
0
100
AcDbBlockEnd
  0
BLOCK
  5
2F
100
AcDbEntity
  8
4
  6
CONTINUOUS
 62
     1
100
AcDbBlockBegin
  2
1SPT
 70
     0
 10
0.0
 20
0.0
 30
0.0
  3
1SPT
  1

  0
LINE
  5
30
100
AcDbEntity
  8
4
  6
CONTINUOUS
 62
     1
100
AcDbLine
 10
-0.008
 20
-0.002
 30
0.0
 11
0.008
 21
-0.002
 31
0.0
  0
CIRCLE
  5
31
100
AcDbEntity
  8
4
  6
CONTINUOUS
 62
     1
100
AcDbCircle
 10
0.0
 20
0.0
 30
0.0
 40
0.00205
210
0.0
220
0.0
230
1.0
  0
ENDBLK
  5
32
100
AcDbEntity
  8
4
  6
CONTINUOUS
 62
     1
100
AcDbBlockEnd
  0
BLOCK
  5
35
100
AcDbEntity
  8
1
  6
CONTINUOUS
 62
     1
100
AcDbBlockBegin
  2
2SPT
 70
     0
 10
0.0
 20
0.0
 30
0.0
  3
2SPT
  1

  0
LINE
  5
36
100
AcDbEntity
  8
1
  6
CONTINUOUS
 62
     1
100
AcDbLine
 10
-0.0121
 20
-0.0016
 30
0.0
 11
0.0134
 21
-0.0016
 31
0.0
  0
CIRCLE
  5
37
100
AcDbEntity
  8
4
  6
CONTINUOUS
 62
     1
100
AcDbCircle
 10
0.005657
 20
0.000469
 30
0.0
 40
0.00205
210
0.0
220
0.0
230
1.0
  0
CIRCLE
  5
38
100
AcDbEntity
  8
4
  6
CONTINUOUS
 62
     1
100
AcDbCircle
 10
-0.004627
 20
0.000469
 30
0.0
 40
0.00205
210
0.0
220
0.0
230
1.0
  0
ENDBLK
  5
39
100
AcDbEntity
  8
4
  6
CONTINUOUS
 62
     1
100
AcDbBlockEnd
  0
BLOCK
  5
B3
100
AcDbEntity
  8
1
  6
CONTINUOUS
 62
     1
100
AcDbBlockBegin
  2
LDR
 70
     0
 10
0.0
 20
0.0
 30
0.0
  3
LNR
  1

  0
ELLIPSE
  5
B4
100
AcDbEntity
  8
1
  6
CONTINUOUS
 62
     1
100
AcDbEllipse
 10
-0.005456
 20
-0.001381
 30
0.0
 11
0.0089285005279274
 21
0.0007807495825287
 31
0.0
210
0.0
220
0.0
230
1.0
 40
0.122415
 41
0.8963533496766982
 42
3.1415926535897931
  0
ELLIPSE
  5
B5
100
AcDbEntity
  8
1
  6
CONTINUOUS
 62
     1
100
AcDbEllipse
 10
-0.005603
 20
0.001058
 30
0.0
 11
0.0087822505903313
 21
-0.0008782506333347
 31
0.0
210
0.0
220
0.0
230
1.0
 40
0.07063
 41
3.1407147529760402
 42
5.4181099545465106
  0
ENDBLK
  5
B6
100
AcDbEntity
  8
1
  6
CONTINUOUS
 62
     1
100
AcDbBlockEnd
  0
BLOCK
  5
164
100
AcDbEntity
  8
1
  6
CONTINUOUS
 62
     1
100
AcDbBlockBegin
  2
ARROW
 70
     0
 10
0.0
 20
0.0
 30
0.0
  3
ARROW
  1

  0
POLYLINE
  5
165
100
AcDbEntity
  8
1
  6
CONTINUOUS
 62
     1
100
AcDb2dPolyline
 66
     1
 10
0.0
 20
0.0
 30
0.0
  0
VERTEX
  5
166
100
AcDbEntity
  8
1
  6
CONTINUOUS
 62
     1
100
AcDbVertex
100
AcDb2dVertex
 10
0.002
 20
0.0024
 30
0.0
  0
VERTEX
  5
167
100
AcDbEntity
  8
1
  6
CONTINUOUS
 62
     1
100
AcDbVertex
100
AcDb2dVertex
 10
-0.027965
 20
0.027184
 30
0.0
 42
0.734044
  0
VERTEX
  5
168
100
AcDbEntity
  8
1
  6
CONTINUOUS
 62
     1
100
AcDbVertex
100
AcDb2dVertex
 10
-0.0329
 20
0.024
 30
0.0
  0
VERTEX
  5
169
100
AcDbEntity
  8
1
  6
CONTINUOUS
 62
     1
100
AcDbVertex
100
AcDb2dVertex
 10
-0.0284
 20
0.0077
 30
0.0
  0
VERTEX
  5
16A
100
AcDbEntity
  8
1
  6
CONTINUOUS
 62
     1
100
AcDbVertex
100
AcDb2dVertex
 10
-0.0605
 20
0.0094
 30
0.0
  0
VERTEX
  5
16B
100
AcDbEntity
  8
1
  6
CONTINUOUS
 62
     1
100
AcDbVertex
100
AcDb2dVertex
 10
-0.0605
 20
-0.01
 30
0.0
  0
VERTEX
  5
16C
100
AcDbEntity
  8
1
  6
CONTINUOUS
 62
     1
100
AcDbVertex
100
AcDb2dVertex
 10
-0.0285
 20
-0.008
 30
0.0
  0
VERTEX
  5
16D
100
AcDbEntity
  8
1
  6
CONTINUOUS
 62
     1
100
AcDbVertex
100
AcDb2dVertex
 10
-0.032899
 20
-0.024548
 30
0.0
 42
0.734196
  0
VERTEX
  5
16E
100
AcDbEntity
  8
1
  6
CONTINUOUS
 62
     1
100
AcDbVertex
100
AcDb2dVertex
 10
-0.0279
 20
-0.0277
 30
0.0
  0
VERTEX
  5
16F
100
AcDbEntity
  8
1
  6
CONTINUOUS
 62
     1
100
AcDbVertex
100
AcDb2dVertex
 10
0.002022
 20
-0.002363
 30
0.0
 42
0.467095
  0
VERTEX
  5
170
100
AcDbEntity
  8
1
  6
CONTINUOUS
 62
     1
100
AcDbVertex
100
AcDb2dVertex
 10
0.001994
 20
0.002391
 30
0.0
  0
SEQEND
  5
171
100
AcDbEntity
  8
1
  6
CONTINUOUS
 62
     1
  0
ENDBLK
  5
172
100
AcDbEntity
  8
1
  6
CONTINUOUS
 62
     1
100
AcDbBlockEnd
  0
ENDSEC
  0
SECTION
  2
ENTITIES
  0
LINE
  5
2B
100
AcDbEntity
  8
1
  6
CONTINUOUS
 62
     1
100
AcDbLine
 10
-288.7556
 20
16.515
 30
0.0
 11
43.4841
 21
8.7469
 31
0.0
  0
ARC
  5
2C
100
AcDbEntity
  8
1
  6
CONTINUOUS
 62
     1
100
AcDbCircle
 10
62.953928
 20
1263.936721
 30
0.0
 40
1255.340814
210
0.0
220
0.0
230
1.0
100
AcDbArc
 50
269.111331
 51
288.210061
  0
INSERT
  5
33
100
AcDbEntity
  8
4
  6
CONTINUOUS
 62
     1
100
AcDbBlockReference
  2
1SPT
 10
-6.3799
 20
-36.0791
 30
0.0
 41
320.0
 42
320.0
 50
270.0
210
0.0
220
0.0
230
1.0
  0
INSERT
  5
3A
100
AcDbEntity
  8
1
  6
CONTINUOUS
 62
     1
100
AcDbBlockReference
  2
2SPT
 10
280.5481
 20
-19.3131
 30
0.0
 41
319.999999
 42
319.999999
 50
267.155661
210
0.0
220
0.0
230
1.0
  0
INSERT
  5
3B
100
AcDbEntity
  8
4
  6
CONTINUOUS
 62
     1
100
AcDbBlockReference
  2
1SPT
 10
356.7481
 20
-62.4191
 30
0.0
 41
320.0
 42
320.0
 50
270.0
210
0.0
220
0.0
230
1.0
  0
TEXT
  5
3D
100
AcDbEntity
  8
1
  6
CONTINUOUS
 62
     1
100
AcDbText
 10
272.9756
 20
-279.4911
 30
0.0
 40
2.400048
  1
11-10-70
  7
MONOTXT
 72
     1
 11
280.1757
 21
-277.0911
 31
0.0
210
0.0
220
0.0
230
1.0
100
AcDbText
 73
     3
  0
TEXT
  5
3E
100
AcDbEntity
  8
1
  6
CONTINUOUS
 62
     1
100
AcDbText
 10
272.697
 20
-285.0824
 30
0.0
 40
2.400048
  1
01-19-71
  7
MONOTXT
 72
     1
 11
279.8404
 21
-282.6824
 31
0.0
210
0.0
220
0.0
230
1.0
100
AcDbText
 73
     3
  0
TEXT
  5
3F
100
AcDbEntity
  8
1
  6
CONTINUOUS
 62
     1
100
AcDbText
 10
272.5653
 20
-290.5182
 30
0.0
 40
2.400048
  1
11-15-76
  7
MONOTXT
 72
     1
 11
279.7181
 21
-288.1182
 31
0.0
210
0.0
220
0.0
230
1.0
100
AcDbText
 73
     3
  0
TEXT
  5
40
100
AcDbEntity
  8
1
  6
CONTINUOUS
 62
     1
100
AcDbText
 10
272.074
 20
-296.2653
 30
0.0
 40
2.400048
  1
03-11-93
  7
MONOTXT
 72
     1
 11
279.7182
 21
-293.8653
 31
0.0
210
0.0
220
0.0
230
1.0
100
AcDbText
 73
     3
  0
TEXT
  5
41
100
AcDbEntity
  8
1
  6
CONTINUOUS
 62
     1
100
AcDbText
 10
271.5842
 20
-302.2525
 30
0.0
 40
2.400048
  1
09-13-93
  7
MONOTXT
 72
     1
 11
279.682
 21
-299.8525
 31
0.0
210
0.0
220
0.0
230
1.0
100
AcDbText
 73
     3
  0
TEXT
  5
42
100
AcDbEntity
  8
1
  6
CONTINUOUS
 62
     1
100
AcDbText
 10
270.6611
 20
-307.94
 30
0.0
 40
2.400048
  1
        
  7
MONOTXT
 72
     1
 11
279.8613
 21
-305.54
 31
0.0
210
0.0
220
0.0
230
1.0
100
AcDbText
 73
     3
  0
TEXT
  5
43
100
AcDbEntity
  8
1
  6
CONTINUOUS
 62
     1
100
AcDbText
 10
271.1639
 20
-286.2084
 30
0.0
 40
2.400048
  1
        
  7
MONOTXT
 72
     1
 11
280.3641
 21
-283.8084
 31
0.0
210
0.0
220
0.0
230
1.0
100
AcDbText
 73
     3
  0
TEXT
  5
44
100
AcDbEntity
  8
1
  6
CONTINUOUS
 62
     1
100
AcDbText
 10
271.2839
 20
-291.7044
 30
0.0
 40
2.400048
  1
        
  7
MONOTXT
 72
     1
 11
280.4841
 21
-289.3044
 31
0.0
210
0.0
220
0.0
230
1.0
100
AcDbText
 73
     3
  0
TEXT
  5
45
100
AcDbEntity
  8
1
  6
CONTINUOUS
 62
     1
100
AcDbText
 10
271.2839
 20
-296.5284
 30
0.0
 40
2.400048
  1
        
  7
MONOTXT
 72
     1
 11
280.4841
 21
-294.1284
 31
0.0
210
0.0
220
0.0
230
1.0
100
AcDbText
 73
     3
  0
TEXT
  5
47
100
AcDbEntity
  8
1
  6
CONTINUOUS
 62
     1
100
AcDbText
 10
311.1913
 20
-251.6364
 30
0.0
 40
8.3912
  1
EXIT SIGN LOCATION
  7
TXT
 72
     1
 11
372.6569
 21
-243.2452
 31
0.0
210
0.0
220
0.0
230
1.0
100
AcDbText
 73
     3
  0
LWPOLYLINE
  5
48
100
AcDbEntity
  8
1
  6
CONTINUOUS
 62
     7
100
AcDbPolyline
 90
        4
 70
     0
 10
266.8826
 20
-275.7372
 10
264.4826
 20
-279.8941
 10
269.2826
 20
-279.8941
 10
266.8826
 20
-275.7372
  0
LWPOLYLINE
  5
49
100
AcDbEntity
  8
1
  6
CONTINUOUS
 62
     7
100
AcDbPolyline
 90
        4
 70
     0
 10
266.6844
 20
-281.4305
 10
264.2844
 20
-285.5874
 10
269.0844
 20
-285.5874
 10
266.6844
 20
-281.4305
  0
LWPOLYLINE
  5
4A
100
AcDbEntity
  8
1
  6
CONTINUOUS
 62
     7
100
AcDbPolyline
 90
        4
 70
     0
 10
266.6068
 20
-287.0832
 10
264.2068
 20
-291.2401
 10
269.0068
 20
-291.2401
 10
266.6068
 20
-287.0832
  0
TEXT
  5
4B
100
AcDbEntity
  8
1
  6
CONTINUOUS
 62
     7
100
AcDbText
 10
266.5002
 20
-279.1632
 30
0.0
 40
1.8
  1
1
  7
MONOTXT
210
0.0
220
0.0
230
1.0
100
AcDbText
  0
TEXT
  5
4C
100
AcDbEntity
  8
1
  6
CONTINUOUS
 62
     7
100
AcDbText
 10
266.1124
 20
-284.9864
 30
0.0
 40
1.8
  1
2
  7
MONOTXT
210
0.0
220
0.0
230
1.0
100
AcDbText
  0
TEXT
  5
4D
100
AcDbEntity
  8
1
  6
CONTINUOUS
 62
     7
100
AcDbText
 10
265.9567
 20
-290.7308
 30
0.0
 40
1.8
  1
3
  7
MONOTXT
210
0.0
220
0.0
230
1.0
100
AcDbText
  0
LWPOLYLINE
  5
4E
100
AcDbEntity
  8
1
  6
CONTINUOUS
 62
     7
100
AcDbPolyline
 90
        4
 70
     0
 10
261.8511
 20
-185.9757
 10
259.4511
 20
-190.1326
 10
264.2511
 20
-190.1326
 10
261.8511
 20
-185.9757
  0
LWPOLYLINE
  5
4F
100
AcDbEntity
  8
1
  6
CONTINUOUS
 62
     7
100
AcDbPolyline
 90
        4
 70
     0
 10
261.6599
 20
-175.0968
 10
259.2599
 20
-179.2537
 10
264.0599
 20
-179.2537
 10
261.6599
 20
-175.0968
  0
LWPOLYLINE
  5
50
100
AcDbEntity
  8
1
  6
CONTINUOUS
 62
     7
100
AcDbPolyline
 90
        4
 70
     0
 10
261.773
 20
-180.4788
 10
259.373
 20
-184.6357
 10
264.173
 20
-184.6357
 10
261.773
 20
-180.4788
  0
TEXT
  5
51
100
AcDbEntity
  8
1
  6
CONTINUOUS
 62
     7
100
AcDbText
 10
261.2775
 20
-178.5228
 30
0.0
 40
1.8
  1
1
  7
MONOTXT
210
0.0
220
0.0
230
1.0
100
AcDbText
  0
TEXT
  5
52
100
AcDbEntity
  8
1
  6
CONTINUOUS
 62
     7
100
AcDbText
 10
261.201
 20
-184.0347
 30
0.0
 40
1.8
  1
2
  7
MONOTXT
210
0.0
220
0.0
230
1.0
100
AcDbText
  0
TEXT
  5
53
100
AcDbEntity
  8
1
  6
CONTINUOUS
 62
     7
100
AcDbText
 10
261.201
 20
-189.6233
 30
0.0
 40
1.8
  1
3
  7
MONOTXT
210
0.0
220
0.0
230
1.0
100
AcDbText
  0
TEXT
  5
54
100
AcDbEntity
  8
1
  6
CONTINUOUS
 62
     7
100
AcDbText
 10
266.2137
 20
-177.3743
 30
0.0
 40
1.8
  1
DIM. A LOCATION
  7
MONOTXT
210
0.0
220
0.0
230
1.0
100
AcDbText
  0
TEXT
  5
55
100
AcDbEntity
  8
1
  6
CONTINUOUS
 62
     7
100
AcDbText
 10
266.2137
 20
-183.0394
 30
0.0
 40
1.8
  1
DIM. A LOCATION
  7
MONOTXT
210
0.0
220
0.0
230
1.0
100
AcDbText
  0
TEXT
  5
56
100
AcDbEntity
  8
1
  6
CONTINUOUS
 62
     7
100
AcDbText
 10
266.0606
 20
-188.7045
 30
0.0
 40
1.8
  1
SIGN NUMBERS
  7
MONOTXT
210
0.0
220
0.0
230
1.0
100
AcDbText
  0
LINE
  5
57
100
AcDbEntity
  8
1
  6
CONTINUOUS
 62
     1
100
AcDbLine
 10
-289.3573
 20
-11.4071
 30
0.0
 11
-102.6199
 21
-15.4311
 31
0.0
  0
LINE
  5
58
100
AcDbEntity
  8
1
  6
CONTINUOUS
 62
     1
100
AcDbLine
 10
-102.6199
 20
-15.4311
 30
0.0
 11
458.0681
 21
-58.7131
 31
0.0
  0
LINE
  5
59
100
AcDbEntity
  8
1
  6
CONTINUOUS
 62
     1
100
AcDbLine
 10
460.1061
 20
-65.5051
 30
0.0
 11
-7.7699
 21
-28.9291
 31
0.0
  0
LINE
  5
5A
100
AcDbEntity
  8
1
  6
CONTINUOUS
 62
     1
100
AcDbLine
 10
-7.7699
 20
-28.9291
 30
0.0
 11
-289.5778
 21
-23.9895
 31
0.0
  0
ARC
  5
5B
100
AcDbEntity
  8
1
  6
CONTINUOUS
 62
     1
100
AcDbCircle
 10
102.851696
 20
1063.3784
 30
0.0
 40
1079.283623
210
0.0
220
0.0
230
1.0
100
AcDbArc
 50
268.617611
 51
289.032456
  0
LINE
  5
5C
100
AcDbEntity
  8
1
  6
CONTINUOUS
 62
     1
100
AcDbLine
 10
76.8141
 20
-15.5911
 30
0.0
 11
456.4281
 21
-45.4491
 31
0.0
  0
LINE
  5
5D
100
AcDbEntity
  8
1
  6
CONTINUOUS
 62
     1
100
AcDbLine
 10
457.0661
 20
-38.9631
 30
0.0
 11
222.7601
 21
-21.0291
 31
0.0
  0
ARC
  5
5E
100
AcDbEntity
  8
1
  6
CONTINUOUS
 62
     1
100
AcDbCircle
 10
123.149291
 20
1008.711335
 30
0.0
 40
1034.547088
210
0.0
220
0.0
230
1.0
100
AcDbArc
 50
275.525253
 51
288.812506
  0
LINE
  5
5F
100
AcDbEntity
  8
1
  6
CONTINUOUS
 62
     1
100
AcDbLine
 10
-276.514
 20
-24.2185
 30
0.0
 11
-289.3246
 21
-11.4078
 31
0.0
  0
LINE
  5
60
100
AcDbEntity
  8
1
  6
CONTINUOUS
 62
     1
100
AcDbLine
 10
-259.2406
 20
-24.5213
 30
0.0
 11
-271.9803
 21
-11.7816
 31
0.0
  0
LINE
  5
61
100
AcDbEntity
  8
1
  6
CONTINUOUS
 62
     1
100
AcDbLine
 10
-241.9673
 20
-24.824
 30
0.0
 11
-254.636
 21
-12.1553
 31
0.0
  0
LINE
  5
62
100
AcDbEntity
  8
1
  6
CONTINUOUS
 62
     1
100
AcDbLine
 10
-224.694
 20
-25.1268
 30
0.0
 11
-237.2917
 21
-12.5291
 31
0.0
  0
LINE
  5
63
100
AcDbEntity
  8
1
  6
CONTINUOUS
 62
     1
100
AcDbLine
 10
-207.4206
 20
-25.4296
 30
0.0
 11
-219.9474
 21
-12.9028
 31
0.0
  0
LINE
  5
64
100
AcDbEntity
  8
1
  6
CONTINUOUS
 62
     1
100
AcDbLine
 10
-190.1473
 20
-25.7323
 30
0.0
 11
-202.6031
 21
-13.2766
 31
0.0
  0
LINE
  5
65
100
AcDbEntity
  8
1
  6
CONTINUOUS
 62
     1
100
AcDbLine
 10
-172.874
 20
-26.0351
 30
0.0
 11
-185.2588
 21
-13.6503
 31
0.0
  0
LINE
  5
66
100
AcDbEntity
  8
1
  6
CONTINUOUS
 62
     1
100
AcDbLine
 10
-155.6006
 20
-26.3379
 30
0.0
 11
-167.9144
 21
-14.0241
 31
0.0
  0
LINE
  5
67
100
AcDbEntity
  8
1
  6
CONTINUOUS
 62
     1
100
AcDbLine
 10
-138.3273
 20
-26.6407
 30
0.0
 11
-150.5701
 21
-14.3978
 31
0.0
  0
LINE
  5
68
100
AcDbEntity
  8
1
  6
CONTINUOUS
 62
     1
100
AcDbLine
 10
-121.054
 20
-26.9434
 30
0.0
 11
-133.2258
 21
-14.7716
 31
0.0
  0
LINE
  5
69
100
AcDbEntity
  8
1
  6
CONTINUOUS
 62
     1
100
AcDbLine
 10
-103.7806
 20
-27.2462
 30
0.0
 11
-115.8815
 21
-15.1453
 31
0.0
  0
LINE
  5
6A
100
AcDbEntity
  8
1
  6
CONTINUOUS
 62
     1
100
AcDbLine
 10
-86.5073
 20
-27.549
 30
0.0
 11
-98.291
 21
-15.7653
 31
0.0
  0
LINE
  5
6B
100
AcDbEntity
  8
1
  6
CONTINUOUS
 62
     1
100
AcDbLine
 10
-69.234
 20
-27.8517
 30
0.0
 11
-79.9008
 21
-17.1849
 31
0.0
  0
LINE
  5
6C
100
AcDbEntity
  8
1
  6
CONTINUOUS
 62
     1
100
AcDbLine
 10
-51.9606
 20
-28.1545
 30
0.0
 11
-61.5106
 21
-18.6045
 31
0.0
  0
LINE
  5
6D
100
AcDbEntity
  8
1
  6
CONTINUOUS
 62
     1
100
AcDbLine
 10
-34.6873
 20
-28.4573
 30
0.0
 11
-43.1204
 21
-20.0241
 31
0.0
  0
LINE
  5
6E
100
AcDbEntity
  8
1
  6
CONTINUOUS
 62
     1
100
AcDbLine
 10
-17.414
 20
-28.7601
 30
0.0
 11
-24.7303
 21
-21.4437
 31
0.0
  0
LINE
  5
6F
100
AcDbEntity
  8
1
  6
CONTINUOUS
 62
     1
100
AcDbLine
 10
0.3613
 20
-29.5648
 30
0.0
 11
-6.3401
 21
-22.8634
 31
0.0
  0
LINE
  5
70
100
AcDbEntity
  8
1
  6
CONTINUOUS
 62
     1
100
AcDbLine
 10
18.771
 20
-31.0039
 30
0.0
 11
12.0501
 21
-24.283
 31
0.0
  0
LINE
  5
71
100
AcDbEntity
  8
1
  6
CONTINUOUS
 62
     1
100
AcDbLine
 10
37.1808
 20
-32.4431
 30
0.0
 11
30.4403
 21
-25.7026
 31
0.0
  0
LINE
  5
72
100
AcDbEntity
  8
1
  6
CONTINUOUS
 62
     1
100
AcDbLine
 10
55.5905
 20
-33.8823
 30
0.0
 11
48.8305
 21
-27.1222
 31
0.0
  0
LINE
  5
73
100
AcDbEntity
  8
1
  6
CONTINUOUS
 62
     1
100
AcDbLine
 10
74.0002
 20
-35.3214
 30
0.0
 11
67.2207
 21
-28.5418
 31
0.0
  0
LINE
  5
74
100
AcDbEntity
  8
1
  6
CONTINUOUS
 62
     1
100
AcDbLine
 10
92.41
 20
-36.7606
 30
0.0
 11
85.6108
 21
-29.9615
 31
0.0
  0
LINE
  5
75
100
AcDbEntity
  8
1
  6
CONTINUOUS
 62
     1
100
AcDbLine
 10
110.8197
 20
-38.1998
 30
0.0
 11
104.001
 21
-31.3811
 31
0.0
  0
LINE
  5
76
100
AcDbEntity
  8
1
  6
CONTINUOUS
 62
     1
100
AcDbLine
 10
129.2295
 20
-39.639
 30
0.0
 11
122.3912
 21
-32.8007
 31
0.0
  0
LINE
  5
77
100
AcDbEntity
  8
1
  6
CONTINUOUS
 62
     1
100
AcDbLine
 10
147.6392
 20
-41.0781
 30
0.0
 11
140.7814
 21
-34.2203
 31
0.0
  0
LINE
  5
78
100
AcDbEntity
  8
1
  6
CONTINUOUS
 62
     1
100
AcDbLine
 10
166.0489
 20
-42.5173
 30
0.0
 11
159.1716
 21
-35.6399
 31
0.0
  0
LINE
  5
79
100
AcDbEntity
  8
1
  6
CONTINUOUS
 62
     1
100
AcDbLine
 10
184.4587
 20
-43.9565
 30
0.0
 11
177.5617
 21
-37.0596
 31
0.0
  0
LINE
  5
7A
100
AcDbEntity
  8
1
  6
CONTINUOUS
 62
     1
100
AcDbLine
 10
202.8684
 20
-45.3957
 30
0.0
 11
195.9519
 21
-38.4792
 31
0.0
  0
LINE
  5
7B
100
AcDbEntity
  8
1
  6
CONTINUOUS
 62
     1
100
AcDbLine
 10
221.2781
 20
-46.8348
 30
0.0
 11
214.3421
 21
-39.8988
 31
0.0
  0
LINE
  5
7C
100
AcDbEntity
  8
1
  6
CONTINUOUS
 62
     1
100
AcDbLine
 10
239.6879
 20
-48.274
 30
0.0
 11
232.7323
 21
-41.3184
 31
0.0
  0
LINE
  5
7D
100
AcDbEntity
  8
1
  6
CONTINUOUS
 62
     1
100
AcDbLine
 10
258.0976
 20
-49.7132
 30
0.0
 11
251.1225
 21
-42.738
 31
0.0
  0
LINE
  5
7E
100
AcDbEntity
  8
1
  6
CONTINUOUS
 62
     1
100
AcDbLine
 10
276.5073
 20
-51.1523
 30
0.0
 11
269.5127
 21
-44.1577
 31
0.0
  0
LINE
  5
7F
100
AcDbEntity
  8
1
  6
CONTINUOUS
 62
     1
100
AcDbLine
 10
294.9171
 20
-52.5915
 30
0.0
 11
287.9028
 21
-45.5773
 31
0.0
  0
LINE
  5
80
100
AcDbEntity
  8
1
  6
CONTINUOUS
 62
     1
100
AcDbLine
 10
313.3268
 20
-54.0307
 30
0.0
 11
306.293
 21
-46.9969
 31
0.0
  0
LINE
  5
81
100
AcDbEntity
  8
1
  6
CONTINUOUS
 62
     1
100
AcDbLine
 10
331.7365
 20
-55.4699
 30
0.0
 11
324.6832
 21
-48.4165
 31
0.0
  0
LINE
  5
82
100
AcDbEntity
  8
1
  6
CONTINUOUS
 62
     1
100
AcDbLine
 10
350.1463
 20
-56.909
 30
0.0
 11
343.0734
 21
-49.8361
 31
0.0
  0
LINE
  5
83
100
AcDbEntity
  8
1
  6
CONTINUOUS
 62
     1
100
AcDbLine
 10
368.556
 20
-58.3482
 30
0.0
 11
361.4636
 21
-51.2558
 31
0.0
  0
LINE
  5
84
100
AcDbEntity
  8
1
  6
CONTINUOUS
 62
     1
100
AcDbLine
 10
386.9658
 20
-59.7874
 30
0.0
 11
379.8538
 21
-52.6754
 31
0.0
  0
LINE
  5
85
100
AcDbEntity
  8
1
  6
CONTINUOUS
 62
     1
100
AcDbLine
 10
405.3755
 20
-61.2266
 30
0.0
 11
398.2439
 21
-54.095
 31
0.0
  0
LINE
  5
86
100
AcDbEntity
  8
1
  6
CONTINUOUS
 62
     1
100
AcDbLine
 10
423.7852
 20
-62.6657
 30
0.0
 11
416.6341
 21
-55.5146
 31
0.0
  0
LINE
  5
87
100
AcDbEntity
  8
1
  6
CONTINUOUS
 62
     1
100
AcDbLine
 10
442.195
 20
-64.1049
 30
0.0
 11
435.0243
 21
-56.9342
 31
0.0
  0
LINE
  5
88
100
AcDbEntity
  8
1
  6
CONTINUOUS
 62
     1
100
AcDbLine
 10
459.9091
 20
-64.8484
 30
0.0
 11
453.4145
 21
-58.3539
 31
0.0
  0
LINE
  5
89
100
AcDbEntity
  8
1
  6
CONTINUOUS
 62
     1
100
AcDbLine
 10
86.2274
 20
-16.3315
 30
0.0
 11
85.5747
 21
-15.6788
 31
0.0
  0
LINE
  5
8A
100
AcDbEntity
  8
1
  6
CONTINUOUS
 62
     1
100
AcDbLine
 10
104.6467
 20
-17.7802
 30
0.0
 11
102.7168
 21
-15.8504
 31
0.0
  0
LINE
  5
8B
100
AcDbEntity
  8
1
  6
CONTINUOUS
 62
     1
100
AcDbLine
 10
123.066
 20
-19.229
 30
0.0
 11
119.5008
 21
-15.6638
 31
0.0
  0
LINE
  5
8C
100
AcDbEntity
  8
1
  6
CONTINUOUS
 62
     1
100
AcDbLine
 10
141.4853
 20
-20.6777
 30
0.0
 11
136.1545
 21
-15.3469
 31
0.0
  0
LINE
  5
8D
100
AcDbEntity
  8
1
  6
CONTINUOUS
 62
     1
100
AcDbLine
 10
159.9046
 20
-22.1265
 30
0.0
 11
152.4285
 21
-14.6504
 31
0.0
  0
LINE
  5
8E
100
AcDbEntity
  8
1
  6
CONTINUOUS
 62
     1
100
AcDbLine
 10
233.5819
 20
-27.9214
 30
0.0
 11
227.0152
 21
-21.3548
 31
0.0
  0
LINE
  5
8F
100
AcDbEntity
  8
1
  6
CONTINUOUS
 62
     1
100
AcDbLine
 10
226.2933
 20
-20.6329
 30
0.0
 11
215.5528
 21
-9.8923
 31
0.0
  0
LINE
  5
90
100
AcDbEntity
  8
1
  6
CONTINUOUS
 62
     1
100
AcDbLine
 10
252.0012
 20
-29.3702
 30
0.0
 11
245.3924
 21
-22.7614
 31
0.0
  0
LINE
  5
91
100
AcDbEntity
  8
1
  6
CONTINUOUS
 62
     1
100
AcDbLine
 10
241.5528
 20
-18.9218
 30
0.0
 11
230.8564
 21
-8.2254
 31
0.0
  0
LINE
  5
92
100
AcDbEntity
  8
1
  6
CONTINUOUS
 62
     1
100
AcDbLine
 10
270.4205
 20
-30.8189
 30
0.0
 11
263.7696
 21
-24.168
 31
0.0
  0
LINE
  5
93
100
AcDbEntity
  8
1
  6
CONTINUOUS
 62
     1
100
AcDbLine
 10
256.7383
 20
-17.1367
 30
0.0
 11
245.8821
 21
-6.2806
 31
0.0
  0
LINE
  5
94
100
AcDbEntity
  8
1
  6
CONTINUOUS
 62
     1
100
AcDbLine
 10
288.8398
 20
-32.2677
 30
0.0
 11
282.1467
 21
-25.5746
 31
0.0
  0
LINE
  5
95
100
AcDbEntity
  8
1
  6
CONTINUOUS
 62
     1
100
AcDbLine
 10
271.5844
 20
-15.0123
 30
0.0
 11
260.7789
 21
-4.2068
 31
0.0
  0
LINE
  5
96
100
AcDbEntity
  8
1
  6
CONTINUOUS
 62
     1
100
AcDbLine
 10
307.2591
 20
-33.7164
 30
0.0
 11
300.5239
 21
-26.9812
 31
0.0
  0
LINE
  5
97
100
AcDbEntity
  8
1
  6
CONTINUOUS
 62
     1
100
AcDbLine
 10
286.3998
 20
-12.8572
 30
0.0
 11
275.4645
 21
-1.9218
 31
0.0
  0
LINE
  5
98
100
AcDbEntity
  8
1
  6
CONTINUOUS
 62
     1
100
AcDbLine
 10
325.6784
 20
-35.1652
 30
0.0
 11
318.9011
 21
-28.3878
 31
0.0
  0
LINE
  5
99
100
AcDbEntity
  8
1
  6
CONTINUOUS
 62
     1
100
AcDbLine
 10
300.8512
 20
-10.3379
 30
0.0
 11
289.9724
 21
0.5408
 31
0.0
  0
LINE
  5
9A
100
AcDbEntity
  8
1
  6
CONTINUOUS
 62
     1
100
AcDbLine
 10
344.0977
 20
-36.6139
 30
0.0
 11
337.2782
 21
-29.7944
 31
0.0
  0
LINE
  5
9B
100
AcDbEntity
  8
1
  6
CONTINUOUS
 62
     1
100
AcDbLine
 10
315.3025
 20
-7.8187
 30
0.0
 11
304.3477
 21
3.1361
 31
0.0
  0
LINE
  5
9C
100
AcDbEntity
  8
1
  6
CONTINUOUS
 62
     1
100
AcDbLine
 10
362.517
 20
-38.0627
 30
0.0
 11
355.6554
 21
-31.201
 31
0.0
  0
LINE
  5
9D
100
AcDbEntity
  8
1
  6
CONTINUOUS
 62
     1
100
AcDbLine
 10
329.4022
 20
-4.9478
 30
0.0
 11
318.4828
 21
5.9715
 31
0.0
  0
LINE
  5
9E
100
AcDbEntity
  8
1
  6
CONTINUOUS
 62
     1
100
AcDbLine
 10
380.9363
 20
-39.5114
 30
0.0
 11
374.0326
 21
-32.6076
 31
0.0
  0
LINE
  5
9F
100
AcDbEntity
  8
1
  6
CONTINUOUS
 62
     1
100
AcDbLine
 10
343.4753
 20
-2.0503
 30
0.0
 11
332.5739
 21
8.8511
 31
0.0
  0
LINE
  5
A0
100
AcDbEntity
  8
1
  6
CONTINUOUS
 62
     1
100
AcDbLine
 10
399.3556
 20
-40.9601
 30
0.0
 11
392.4097
 21
-34.0142
 31
0.0
  0
LINE
  5
A1
100
AcDbEntity
  8
1
  6
CONTINUOUS
 62
     1
100
AcDbLine
 10
357.2807
 20
1.1148
 30
0.0
 11
346.3507
 21
12.0448
 31
0.0
  0
LINE
  5
A2
100
AcDbEntity
  8
1
  6
CONTINUOUS
 62
     1
100
AcDbLine
 10
417.7749
 20
-42.4089
 30
0.0
 11
410.7869
 21
-35.4208
 31
0.0
  0
LINE
  5
A3
100
AcDbEntity
  8
1
  6
CONTINUOUS
 62
     1
100
AcDbLine
 10
370.9904
 20
4.3757
 30
0.0
 11
360.1276
 21
15.2385
 31
0.0
  0
LINE
  5
A4
100
AcDbEntity
  8
1
  6
CONTINUOUS
 62
     1
100
AcDbLine
 10
436.1943
 20
-43.8576
 30
0.0
 11
429.1641
 21
-36.8275
 31
0.0
  0
LINE
  5
A5
100
AcDbEntity
  8
1
  6
CONTINUOUS
 62
     1
100
AcDbLine
 10
384.525
 20
7.8116
 30
0.0
 11
373.6121
 21
18.7245
 31
0.0
  0
LINE
  5
A6
100
AcDbEntity
  8
1
  6
CONTINUOUS
 62
     1
100
AcDbLine
 10
454.6136
 20
-45.3064
 30
0.0
 11
447.5412
 21
-38.2341
 31
0.0
  0
LINE
  5
A7
100
AcDbEntity
  8
1
  6
CONTINUOUS
 62
     1
100
AcDbLine
 10
397.8846
 20
11.4225
 30
0.0
 11
387.0438
 21
22.2634
 31
0.0
  0
LINE
  5
A8
100
AcDbEntity
  8
1
  6
CONTINUOUS
 62
     1
100
AcDbLine
 10
411.1689
 20
15.1088
 30
0.0
 11
400.2989
 21
25.9789
 31
0.0
  0
LINE
  5
A9
100
AcDbEntity
  8
1
  6
CONTINUOUS
 62
     1
100
AcDbLine
 10
424.1906
 20
19.0577
 30
0.0
 11
413.3972
 21
29.8511
 31
0.0
  0
LINE
  5
AA
100
AcDbEntity
  8
1
  6
CONTINUOUS
 62
     1
100
AcDbLine
 10
437.2123
 20
23.0066
 30
0.0
 11
426.4397
 21
33.7792
 31
0.0
  0
LINE
  5
AB
100
AcDbEntity
  8
1
  6
CONTINUOUS
 62
     1
100
AcDbLine
 10
449.994
 20
27.1955
 30
0.0
 11
439.2152
 21
37.9742
 31
0.0
  0
LINE
  5
AC
100
AcDbEntity
  8
1
  6
CONTINUOUS
 62
     1
100
AcDbLine
 10
455.4343
 20
38.7257
 30
0.0
 11
451.9908
 21
42.1692
 31
0.0
  0
LINE
  5
AD
100
AcDbEntity
  8
1
  6
CONTINUOUS
 62
     7
100
AcDbLine
 10
-251.3559
 20
-24.6595
 30
0.0
 11
-242.2837
 21
-49.7245
 31
0.0
  0
LINE
  5
AE
100
AcDbEntity
  8
1
  6
CONTINUOUS
 62
     7
100
AcDbLine
 10
-242.2837
 20
-49.7245
 30
0.0
 11
-232.547
 21
-49.7245
 31
0.0
  0
TEXT
  5
AF
100
AcDbEntity
  8
1
  6
CONTINUOUS
 62
     7
100
AcDbText
 10
-231.2487
 20
-50.8067
 30
0.0
 40
3.0
  1
PAVED SHOULDER
  7
MONOTXT
210
0.0
220
0.0
230
1.0
100
AcDbText
  0
LINE
  5
B0
100
AcDbEntity
  8
1
  6
CONTINUOUS
 62
     7
100
AcDbLine
 10
-179.9689
 20
-49.7245
 30
0.0
 11
-189.7056
 21
-49.7245
 31
0.0
  0
LINE
  5
B1
100
AcDbEntity
  8
1
  6
CONTINUOUS
 62
     7
100
AcDbLine
 10
-171.4039
 20
-26.0609
 30
0.0
 11
-179.9689
 21
-49.7245
 31
0.0
  0
INSERT
  5
B7
100
AcDbEntity
  8
1
  6
CONTINUOUS
 62
     1
100
AcDbBlockReference
  2
LDR
 10
-251.3559
 20
-24.6595
 30
0.0
 41
239.999999
 42
239.999999
 50
109.897569
210
0.0
220
0.0
230
1.0
  0
INSERT
  5
B8
100
AcDbEntity
  8
1
  6
CONTINUOUS
 62
     1
100
AcDbBlockReference
  2
LDR
 10
-251.3559
 20
-24.6595
 30
0.0
 41
239.999999
 42
239.999999
 50
109.897569
210
0.0
220
0.0
230
1.0
  0
INSERT
  5
B9
100
AcDbEntity
  8
1
  6
CONTINUOUS
 62
     1
100
AcDbBlockReference
  2
LDR
 10
-171.4039
 20
-26.0609
 30
0.0
 41
239.999999
 42
239.999999
 50
70.102363
210
0.0
220
0.0
230
1.0
  0
LINE
  5
BA
100
AcDbEntity
  8
1
  6
CONTINUOUS
 62
     7
100
AcDbLine
 10
76.8141
 20
-16.7911
 30
0.0
 11
76.8141
 21
-63.9
 31
0.0
  0
LINE
  5
BB
100
AcDbEntity
  8
1
  6
CONTINUOUS
 62
     7
100
AcDbLine
 10
-7.0199
 20
-39.8391
 30
0.0
 11
-7.0199
 21
-63.9
 31
0.0
  0
INSERT
  5
BC
100
AcDbEntity
  8
1
  6
CONTINUOUS
 62
     1
100
AcDbBlockReference
  2
LDR
 10
-7.0199
 20
-62.7
 30
0.0
 41
240.0
 42
240.0
 50
180.0
210
0.0
220
0.0
230
1.0
  0
INSERT
  5
BD
100
AcDbEntity
  8
1
  6
CONTINUOUS
 62
     1
100
AcDbBlockReference
  2
LDR
 10
-7.0199
 20
-62.7
 30
0.0
 41
240.0
 42
240.0
 50
180.0
210
0.0
220
0.0
230
1.0
  0
INSERT
  5
BE
100
AcDbEntity
  8
1
  6
CONTINUOUS
 62
     1
100
AcDbBlockReference
  2
LDR
 10
76.8141
 20
-62.7
 30
0.0
 41
240.0
 42
240.0
210
0.0
220
0.0
230
1.0
  0
LINE
  5
BF
100
AcDbEntity
  8
1
  6
CONTINUOUS
 62
     7
100
AcDbLine
 10
-7.0199
 20
-62.7
 30
0.0
 11
33.0971
 21
-62.7
 31
0.0
  0
LINE
  5
C0
100
AcDbEntity
  8
1
  6
CONTINUOUS
 62
     7
100
AcDbLine
 10
36.6971
 20
-62.7
 30
0.0
 11
76.8141
 21
-62.7
 31
0.0
  0
TEXT
  5
C1
100
AcDbEntity
  8
1
  6
CONTINUOUS
 62
     7
100
AcDbText
 10
33.7514
 20
-64.2
 30
0.0
 40
3.0
  1
A
  7
MONOTXT
 72
     4
 11
34.9088
 21
-62.7
 31
0.0
210
0.0
220
0.0
230
1.0
100
AcDbText
  0
LINE
  5
C2
100
AcDbEntity
  8
1
  6
CONTINUOUS
 62
     2
100
AcDbLine
 10
-30.397
 20
-69.8299
 30
0.0
 11
-55.3583
 21
-69.8299
 31
0.0
  0
ELLIPSE
  5
C3
100
AcDbEntity
  8
1
  6
CONTINUOUS
 62
     2
100
AcDbEllipse
 10
-55.358186
 20
-69.293672
 30
0.0
 11
-0.0000000000000001
 21
-0.5361651511196034
 31
0.0
210
0.0
220
0.0
230
1.0
 40
0.9
 41
4.7123889803846897
 42
6.2831853071795862
  0
LINE
  5
C4
100
AcDbEntity
  8
1
  6
CONTINUOUS
 62
     2
100
AcDbLine
 10
-55.8406
 20
-69.2936
 30
0.0
 11
-55.8406
 21
-47.408
 31
0.0
  0
ELLIPSE
  5
C5
100
AcDbEntity
  8
1
  6
CONTINUOUS
 62
     2
100
AcDbEllipse
 10
-55.358186
 20
-47.408092
 30
0.0
 11
0.0
 21
0.5361651511196055
 31
0.0
210
0.0
220
0.0
230
1.0
 40
0.9
 41
0.0
 42
1.5707963267948966
  0
LINE
  5
C6
100
AcDbEntity
  8
1
  6
CONTINUOUS
 62
     2
100
AcDbLine
 10
-55.3583
 20
-46.872
 30
0.0
 11
-30.397
 21
-46.872
 31
0.0
  0
ELLIPSE
  5
C7
100
AcDbEntity
  8
1
  6
CONTINUOUS
 62
     2
100
AcDbEllipse
 10
-30.396735
 20
-47.408092
 30
0.0
 11
0.0
 21
0.5361651511196041
 31
0.0
210
0.0
220
0.0
230
1.0
 40
0.9
 41
4.7123889803846897
 42
6.2831853071795862
  0
LINE
  5
C8
100
AcDbEntity
  8
1
  6
CONTINUOUS
 62
     2
100
AcDbLine
 10
-29.9141
 20
-47.408
 30
0.0
 11
-29.9141
 21
-69.2936
 31
0.0
  0
ELLIPSE
  5
C9
100
AcDbEntity
  8
1
  6
CONTINUOUS
 62
     2
100
AcDbEllipse
 10
-30.396735
 20
-69.293672
 30
0.0
 11
0.0
 21
0.5361651511196046
 31
0.0
210
0.0
220
0.0
230
1.0
 40
0.9
 41
3.1415926535897931
 42
4.7123889803846897
  0
LINE
  5
CA
100
AcDbEntity
  8
1
  6
CONTINUOUS
 62
     2
100
AcDbLine
 10
-30.2434
 20
-70.0491
 30
0.0
 11
-55.5122
 21
-70.0491
 31
0.0
  0
ELLIPSE
  5
CB
100
AcDbEntity
  8
1
  6
CONTINUOUS
 62
     2
100
AcDbEllipse
 10
-55.511724
 20
-69.46427
 30
0.0
 11
-0.0000000000000001
 21
-0.5849074380356565
 31
0.0
210
0.0
220
0.0
230
1.0
 40
0.9
 41
4.7123889803846897
 42
0.0
  0
LINE
  5
CC
100
AcDbEntity
  8
1
  6
CONTINUOUS
 62
     2
100
AcDbLine
 10
-56.0384
 20
-69.4643
 30
0.0
 11
-56.0384
 21
-47.2376
 31
0.0
  0
ELLIPSE
  5
CD
100
AcDbEntity
  8
1
  6
CONTINUOUS
 62
     2
100
AcDbEllipse
 10
-55.511724
 20
-47.237494
 30
0.0
 11
0.0
 21
0.5849074380356573
 31
0.0
210
0.0
220
0.0
230
1.0
 40
0.9
 41
0.0
 42
1.5707963267948966
  0
LINE
  5
CE
100
AcDbEntity
  8
1
  6
CONTINUOUS
 62
     2
100
AcDbLine
 10
-55.5122
 20
-46.6527
 30
0.0
 11
-30.2434
 21
-46.6527
 31
0.0
  0
ELLIPSE
  5
CF
100
AcDbEntity
  8
1
  6
CONTINUOUS
 62
     2
100
AcDbEllipse
 10
-30.243196
 20
-47.237494
 30
0.0
 11
0.0
 21
0.5849074380356573
 31
0.0
210
0.0
220
0.0
230
1.0
 40
0.9
 41
4.7123889803846897
 42
0.0
  0
LINE
  5
D0
100
AcDbEntity
  8
1
  6
CONTINUOUS
 62
     2
100
AcDbLine
 10
-29.717
 20
-47.2376
 30
0.0
 11
-29.717
 21
-69.4643
 31
0.0
  0
ELLIPSE
  5
D1
100
AcDbEntity
  8
1
  6
CONTINUOUS
 62
     2
100
AcDbEllipse
 10
-30.243196
 20
-69.46427
 30
0.0
 11
0.0
 21
0.5849074380356573
 31
0.0
210
0.0
220
0.0
230
1.0
 40
0.9
 41
3.1415926535897931
 42
4.7123889803846897
  0
TEXT
  5
D2
100
AcDbEntity
  8
1
  6
CONTINUOUS
 62
     2
100
AcDbText
 10
-53.2115
 20
-52.8308
 30
0.0
 40
2.904
  1
M.P.H.
 50
270.0
  7
TXT
 72
     4
 11
-51.7595
 21
-58.542
 31
0.0
210
0.0
220
0.0
230
1.0
100
AcDbText
  0
LINE
  5
D3
100
AcDbEntity
  8
1
  6
CONTINUOUS
 62
     2
100
AcDbLine
 10
-38.349
 20
-46.872
 30
0.0
 11
-38.349
 21
-69.8299
 31
0.0
  0
TEXT
  5
D5
100
AcDbEntity
  8
2
  6
CONTINUOUS
 62
     5
100
AcDbText
 10
-61.5137
 20
-50.1385
 30
0.0
 40
3.0
  1
W13-2
 50
270.0
  7
MONOTXT
 72
     4
 11
-60.0137
 21
-56.6227
 31
0.0
210
0.0
220
0.0
230
1.0
100
AcDbText
  0
TEXT
  5
D6
100
AcDbEntity
  8
1
  6
CONTINUOUS
 62
     2
100
AcDbText
 10
-39.4578
 20
-54.9399
 30
0.0
 40
0.018267
  1
35
 50
269.641906
 41
1.000985
  7
TXT
210
0.0
220
0.0
230
1.0
100
AcDbText
  0
TEXT
  5
D7
100
AcDbEntity
  8
1
  6
CONTINUOUS
 62
     2
100
AcDbText
 10
-47.7233
 20
-52.1784
 30
0.0
 40
6.534
  1
XX
 50
270.0
  7
TXT
 72
     4
 11
-44.4563
 21
-58.1857
 31
0.0
210
0.0
220
0.0
230
1.0
100
AcDbText
  0
POLYLINE
  5
D8
100
AcDbEntity
  8
1
  6
CONTINUOUS
 62
     2
100
AcDb2dPolyline
 66
     1
 10
0.0
 20
0.0
 30
0.0
  0
VERTEX
  5
D9
100
AcDbEntity
  8
1
  6
CONTINUOUS
 62
     2
100
AcDbVertex
100
AcDb2dVertex
 10
320.0136
 20
-86.8543
 30
0.0
  0
VERTEX
  5
DA
100
AcDbEntity
  8
1
  6
CONTINUOUS
 62
     2
100
AcDbVertex
100
AcDb2dVertex
 10
306.7835
 20
-73.6241
 30
0.0
  0
VERTEX
  5
DB
100
AcDbEntity
  8
1
  6
CONTINUOUS
 62
     2
100
AcDbVertex
100
AcDb2dVertex
 10
306.783488
 20
-73.623982
 30
0.0
 42
-0.414214
  0
VERTEX
  5
DC
100
AcDbEntity
  8
1
  6
CONTINUOUS
 62
     2
100
AcDbVertex
100
AcDb2dVertex
 10
306.7835
 20
-72.7392
 30
0.0
  0
VERTEX
  5
DD
100
AcDbEntity
  8
1
  6
CONTINUOUS
 62
     2
100
AcDbVertex
100
AcDb2dVertex
 10
320.0136
 20
-59.509
 30
0.0
  0
VERTEX
  5
DE
100
AcDbEntity
  8
1
  6
CONTINUOUS
 62
     2
100
AcDbVertex
100
AcDb2dVertex
 10
320.013633
 20
-59.509147
 30
0.0
 42
-0.414214
  0
VERTEX
  5
DF
100
AcDbEntity
  8
1
  6
CONTINUOUS
 62
     2
100
AcDbVertex
100
AcDb2dVertex
 10
320.898323
 20
-59.509147
 30
0.0
  0
VERTEX
  5
E0
100
AcDbEntity
  8
1
  6
CONTINUOUS
 62
     2
100
AcDbVertex
100
AcDb2dVertex
 10
320.8981
 20
-59.509
 30
0.0
  0
VERTEX
  5
E1
100
AcDbEntity
  8
1
  6
CONTINUOUS
 62
     2
100
AcDbVertex
100
AcDb2dVertex
 10
334.1287
 20
-72.7392
 30
0.0
  0
VERTEX
  5
E2
100
AcDbEntity
  8
1
  6
CONTINUOUS
 62
     2
100
AcDbVertex
100
AcDb2dVertex
 10
334.128468
 20
-72.739292
 30
0.0
 42
-0.414214
  0
VERTEX
  5
E3
100
AcDbEntity
  8
1
  6
CONTINUOUS
 62
     2
100
AcDbVertex
100
AcDb2dVertex
 10
334.128468
 20
-73.623982
 30
0.0
  0
VERTEX
  5
E4
100
AcDbEntity
  8
1
  6
CONTINUOUS
 62
     2
100
AcDbVertex
100
AcDb2dVertex
 10
334.1287
 20
-73.6241
 30
0.0
  0
VERTEX
  5
E5
100
AcDbEntity
  8
1
  6
CONTINUOUS
 62
     2
100
AcDbVertex
100
AcDb2dVertex
 10
320.8981
 20
-86.8543
 30
0.0
  0
VERTEX
  5
E6
100
AcDbEntity
  8
1
  6
CONTINUOUS
 62
     2
100
AcDbVertex
100
AcDb2dVertex
 10
320.898323
 20
-86.854127
 30
0.0
 42
-0.414214
  0
VERTEX
  5
E7
100
AcDbEntity
  8
1
  6
CONTINUOUS
 62
     2
100
AcDbVertex
100
AcDb2dVertex
 10
320.013633
 20
-86.854127
 30
0.0
  0
SEQEND
  5
E8
100
AcDbEntity
  8
1
  6
CONTINUOUS
 62
     2
  0
POLYLINE
  5
E9
100
AcDbEntity
  8
1
  6
CONTINUOUS
 62
     2
100
AcDb2dPolyline
 66
     1
 10
0.0
 20
0.0
 30
0.0
  0
VERTEX
  5
EA
100
AcDbEntity
  8
1
  6
CONTINUOUS
 62
     2
100
AcDbVertex
100
AcDb2dVertex
 10
319.9732
 20
-87.1759
 30
0.0
  0
VERTEX
  5
EB
100
AcDbEntity
  8
1
  6
CONTINUOUS
 62
     2
100
AcDbVertex
100
AcDb2dVertex
 10
306.4618
 20
-73.6646
 30
0.0
  0
VERTEX
  5
EC
100
AcDbEntity
  8
1
  6
CONTINUOUS
 62
     2
100
AcDbVertex
100
AcDb2dVertex
 10
306.461782
 20
-73.664195
 30
0.0
 42
-0.414214
  0
VERTEX
  5
ED
100
AcDbEntity
  8
1
  6
CONTINUOUS
 62
     2
100
AcDbVertex
100
AcDb2dVertex
 10
306.4618
 20
-72.6991
 30
0.0
  0
VERTEX
  5
EE
100
AcDbEntity
  8
1
  6
CONTINUOUS
 62
     2
100
AcDbVertex
100
AcDb2dVertex
 10
319.9732
 20
-59.1877
 30
0.0
  0
VERTEX
  5
EF
100
AcDbEntity
  8
1
  6
CONTINUOUS
 62
     2
100
AcDbVertex
100
AcDb2dVertex
 10
319.97342
 20
-59.187441
 30
0.0
 42
-0.414214
  0
VERTEX
  5
F0
100
AcDbEntity
  8
1
  6
CONTINUOUS
 62
     2
100
AcDbVertex
100
AcDb2dVertex
 10
320.938536
 20
-59.187441
 30
0.0
  0
VERTEX
  5
F1
100
AcDbEntity
  8
1
  6
CONTINUOUS
 62
     2
100
AcDbVertex
100
AcDb2dVertex
 10
320.9386
 20
-59.1877
 30
0.0
  0
VERTEX
  5
F2
100
AcDbEntity
  8
1
  6
CONTINUOUS
 62
     2
100
AcDbVertex
100
AcDb2dVertex
 10
334.450174
 20
-72.699079
 30
0.0
 42
-0.414214
  0
VERTEX
  5
F3
100
AcDbEntity
  8
1
  6
CONTINUOUS
 62
     2
100
AcDbVertex
100
AcDb2dVertex
 10
334.450174
 20
-73.664195
 30
0.0
  0
VERTEX
  5
F4
100
AcDbEntity
  8
1
  6
CONTINUOUS
 62
     2
100
AcDbVertex
100
AcDb2dVertex
 10
334.4501
 20
-73.6646
 30
0.0
  0
VERTEX
  5
F5
100
AcDbEntity
  8
1
  6
CONTINUOUS
 62
     2
100
AcDbVertex
100
AcDb2dVertex
 10
320.938536
 20
-87.175833
 30
0.0
 42
-0.414214
  0
VERTEX
  5
F6
100
AcDbEntity
  8
1
  6
CONTINUOUS
 62
     2
100
AcDbVertex
100
AcDb2dVertex
 10
319.97342
 20
-87.175833
 30
0.0
  0
SEQEND
  5
F7
100
AcDbEntity
  8
1
  6
CONTINUOUS
 62
     2
  0
LWPOLYLINE
  5
F8
100
AcDbEntity
  8
1
  6
CONTINUOUS
 62
     2
100
AcDbPolyline
 90
        9
 70
     0
 10
311.3473
 20
-71.0775
 10
314.436
 20
-67.9956
 10
318.7959
 20
-67.9956
 10
321.8843
 20
-71.0775
 10
321.8843
 20
-75.4442
 10
318.7959
 20
-78.5328
 10
314.436
 20
-78.5328
 10
311.3473
 20
-75.4442
 10
311.3473
 20
-71.0775
  0
LINE
  5
F9
100
AcDbEntity
  8
1
  6
CONTINUOUS
 62
     7
100
AcDbLine
 10
-42.8778
 20
-46.6527
 30
0.0
 11
-36.6408
 21
-36.0791
 31
0.0
  0
LINE
  5
FA
100
AcDbEntity
  8
1
  6
CONTINUOUS
 62
     7
100
AcDbLine
 10
-7.0199
 20
-36.0791
 30
0.0
 11
-36.6408
 21
-36.0791
 31
0.0
  0
INSERT
  5
FB
100
AcDbEntity
  8
1
  6
CONTINUOUS
 62
     1
100
AcDbBlockReference
  2
LDR
 10
-7.0199
 20
-36.0791
 30
0.0
 41
240.0
 42
240.0
210
0.0
220
0.0
230
1.0
  0
LINE
  5
FC
100
AcDbEntity
  8
1
  6
CONTINUOUS
 62
     7
100
AcDbLine
 10
279.8241
 20
-27.9358
 30
0.0
 11
279.8241
 21
-91.2886
 31
0.0
  0
LINE
  5
FD
100
AcDbEntity
  8
1
  6
CONTINUOUS
 62
     7
100
AcDbLine
 10
356.1081
 20
-66.1791
 30
0.0
 11
356.1081
 21
-91.2886
 31
0.0
  0
INSERT
  5
FE
100
AcDbEntity
  8
1
  6
CONTINUOUS
 62
     1
100
AcDbBlockReference
  2
LDR
 10
279.8241
 20
-90.0886
 30
0.0
 41
240.0
 42
240.0
 50
180.0
210
0.0
220
0.0
230
1.0
  0
INSERT
  5
FF
100
AcDbEntity
  8
1
  6
CONTINUOUS
 62
     1
100
AcDbBlockReference
  2
LDR
 10
279.8241
 20
-90.0886
 30
0.0
 41
240.0
 42
240.0
 50
180.0
210
0.0
220
0.0
230
1.0
  0
INSERT
  5
100
100
AcDbEntity
  8
1
  6
CONTINUOUS
 62
     1
100
AcDbBlockReference
  2
LDR
 10
356.1081
 20
-90.0886
 30
0.0
 41
240.0
 42
240.0
210
0.0
220
0.0
230
1.0
  0
POLYLINE
  5
101
100
AcDbEntity
  8
1
  6
CONTINUOUS
 62
     5
100
AcDb2dPolyline
 66
     1
 10
0.0
 20
0.0
 30
0.0
 70
     1
  0
VERTEX
  5
102
100
AcDbEntity
  8
1
  6
CONTINUOUS
 62
     5
100
AcDbVertex
100
AcDb2dVertex
 10
311.6928
 20
-71.2227
 30
0.0
  0
VERTEX
  5
103
100
AcDbEntity
  8
1
  6
CONTINUOUS
 62
     5
100
AcDbVertex
100
AcDb2dVertex
 10
314.5742
 20
-68.341
 30
0.0
  0
VERTEX
  5
104
100
AcDbEntity
  8
1
  6
CONTINUOUS
 62
     5
100
AcDbVertex
100
AcDb2dVertex
 10
318.6577
 20
-68.341
 30
0.0
  0
VERTEX
  5
105
100
AcDbEntity
  8
1
  6
CONTINUOUS
 62
     5
100
AcDbVertex
100
AcDb2dVertex
 10
321.539
 20
-71.2227
 30
0.0
  0
VERTEX
  5
106
100
AcDbEntity
  8
1
  6
CONTINUOUS
 62
     5
100
AcDbVertex
100
AcDb2dVertex
 10
321.539
 20
-75.2992
 30
0.0
  0
VERTEX
  5
107
100
AcDbEntity
  8
1
  6
CONTINUOUS
 62
     5
100
AcDbVertex
100
AcDb2dVertex
 10
318.6577
 20
-78.1873
 30
0.0
  0
VERTEX
  5
108
100
AcDbEntity
  8
1
  6
CONTINUOUS
 62
     5
100
AcDbVertex
100
AcDb2dVertex
 10
314.5742
 20
-78.1873
 30
0.0
  0
VERTEX
  5
109
100
AcDbEntity
  8
1
  6
CONTINUOUS
 62
     5
100
AcDbVertex
100
AcDb2dVertex
 10
311.6928
 20
-75.2992
 30
0.0
  0
VERTEX
  5
10A
100
AcDbEntity
  8
1
  6
CONTINUOUS
 62
     5
100
AcDbVertex
100
AcDb2dVertex
 10
311.6928
 20
-71.2227
 30
0.0
  0
SEQEND
  5
10B
100
AcDbEntity
  8
1
  6
CONTINUOUS
 62
     5
  0
LINE
  5
10C
100
AcDbEntity
  8
1
  6
CONTINUOUS
 62
     5
100
AcDbLine
 10
311.6928
 20
-71.9809
 30
0.0
 11
315.3326
 21
-68.341
 31
0.0
  0
LINE
  5
10D
100
AcDbEntity
  8
1
  6
CONTINUOUS
 62
     5
100
AcDbLine
 10
311.6928
 20
-72.8077
 30
0.0
 11
316.1592
 21
-68.341
 31
0.0
  0
LINE
  5
10E
100
AcDbEntity
  8
1
  6
CONTINUOUS
 62
     5
100
AcDbLine
 10
311.6928
 20
-73.6343
 30
0.0
 11
316.9858
 21
-68.341
 31
0.0
  0
LINE
  5
10F
100
AcDbEntity
  8
1
  6
CONTINUOUS
 62
     5
100
AcDbLine
 10
311.6928
 20
-74.4611
 30
0.0
 11
317.8128
 21
-68.341
 31
0.0
  0
LINE
  5
110
100
AcDbEntity
  8
1
  6
CONTINUOUS
 62
     5
100
AcDbLine
 10
311.6928
 20
-75.2879
 30
0.0
 11
318.6394
 21
-68.341
 31
0.0
  0
LINE
  5
111
100
AcDbEntity
  8
1
  6
CONTINUOUS
 62
     5
100
AcDbLine
 10
312.0999
 20
-75.7071
 30
0.0
 11
319.0621
 21
-68.7457
 31
0.0
  0
LINE
  5
112
100
AcDbEntity
  8
1
  6
CONTINUOUS
 62
     5
100
AcDbLine
 10
312.5129
 20
-76.1212
 30
0.0
 11
319.4752
 21
-69.1587
 31
0.0
  0
LINE
  5
113
100
AcDbEntity
  8
1
  6
CONTINUOUS
 62
     5
100
AcDbLine
 10
312.9259
 20
-76.535
 30
0.0
 11
319.8888
 21
-69.5721
 31
0.0
  0
LINE
  5
114
100
AcDbEntity
  8
1
  6
CONTINUOUS
 62
     5
100
AcDbLine
 10
313.3388
 20
-76.9489
 30
0.0
 11
320.3022
 21
-69.9858
 31
0.0
  0
LINE
  5
115
100
AcDbEntity
  8
1
  6
CONTINUOUS
 62
     5
100
AcDbLine
 10
313.7516
 20
-77.363
 30
0.0
 11
320.7154
 21
-70.3989
 31
0.0
  0
LINE
  5
116
100
AcDbEntity
  8
1
  6
CONTINUOUS
 62
     5
100
AcDbLine
 10
314.1643
 20
-77.7768
 30
0.0
 11
321.129
 21
-70.8125
 31
0.0
  0
LINE
  5
117
100
AcDbEntity
  8
1
  6
CONTINUOUS
 62
     5
100
AcDbLine
 10
314.5807
 20
-78.1873
 30
0.0
 11
321.539
 21
-71.2288
 31
0.0
  0
LINE
  5
118
100
AcDbEntity
  8
1
  6
CONTINUOUS
 62
     5
100
AcDbLine
 10
315.4075
 20
-78.1873
 30
0.0
 11
321.539
 21
-72.0559
 31
0.0
  0
LINE
  5
119
100
AcDbEntity
  8
1
  6
CONTINUOUS
 62
     5
100
AcDbLine
 10
316.2344
 20
-78.1873
 30
0.0
 11
321.539
 21
-72.8825
 31
0.0
  0
LINE
  5
11A
100
AcDbEntity
  8
1
  6
CONTINUOUS
 62
     5
100
AcDbLine
 10
317.0609
 20
-78.1873
 30
0.0
 11
321.539
 21
-73.7093
 31
0.0
  0
LINE
  5
11B
100
AcDbEntity
  8
1
  6
CONTINUOUS
 62
     5
100
AcDbLine
 10
317.8878
 20
-78.1873
 30
0.0
 11
321.539
 21
-74.536
 31
0.0
  0
LINE
  5
11C
100
AcDbEntity
  8
1
  6
CONTINUOUS
 62
     5
100
AcDbLine
 10
314.5853
 20
-78.1873
 30
0.0
 11
311.6928
 21
-75.2945
 31
0.0
  0
LINE
  5
11D
100
AcDbEntity
  8
1
  6
CONTINUOUS
 62
     5
100
AcDbLine
 10
315.4124
 20
-78.1873
 30
0.0
 11
311.6928
 21
-74.4678
 31
0.0
  0
LINE
  5
11E
100
AcDbEntity
  8
1
  6
CONTINUOUS
 62
     5
100
AcDbLine
 10
316.2389
 20
-78.1873
 30
0.0
 11
311.6928
 21
-73.6411
 31
0.0
  0
LINE
  5
11F
100
AcDbEntity
  8
1
  6
CONTINUOUS
 62
     5
100
AcDbLine
 10
317.0657
 20
-78.1873
 30
0.0
 11
311.6928
 21
-72.8143
 31
0.0
  0
LINE
  5
120
100
AcDbEntity
  8
1
  6
CONTINUOUS
 62
     5
100
AcDbLine
 10
317.8925
 20
-78.1873
 30
0.0
 11
311.6928
 21
-71.9876
 31
0.0
  0
LINE
  5
121
100
AcDbEntity
  8
1
  6
CONTINUOUS
 62
     5
100
AcDbLine
 10
318.6884
 20
-78.1564
 30
0.0
 11
311.7239
 21
-71.1913
 31
0.0
  0
LINE
  5
122
100
AcDbEntity
  8
1
  6
CONTINUOUS
 62
     5
100
AcDbLine
 10
319.1013
 20
-77.7425
 30
0.0
 11
312.137
 21
-70.7783
 31
0.0
  0
LINE
  5
123
100
AcDbEntity
  8
1
  6
CONTINUOUS
 62
     5
100
AcDbLine
 10
319.5144
 20
-77.3285
 30
0.0
 11
312.5502
 21
-70.365
 31
0.0
  0
LINE
  5
124
100
AcDbEntity
  8
1
  6
CONTINUOUS
 62
     5
100
AcDbLine
 10
319.9271
 20
-76.9148
 30
0.0
 11
312.9638
 21
-69.9513
 31
0.0
  0
LINE
  5
125
100
AcDbEntity
  8
1
  6
CONTINUOUS
 62
     5
100
AcDbLine
 10
320.3399
 20
-76.5009
 30
0.0
 11
313.3772
 21
-69.5381
 31
0.0
  0
LINE
  5
126
100
AcDbEntity
  8
1
  6
CONTINUOUS
 62
     5
100
AcDbLine
 10
320.7528
 20
-76.0871
 30
0.0
 11
313.7904
 21
-69.1246
 31
0.0
  0
LINE
  5
127
100
AcDbEntity
  8
1
  6
CONTINUOUS
 62
     5
100
AcDbLine
 10
321.1657
 20
-75.6733
 30
0.0
 11
314.204
 21
-68.711
 31
0.0
  0
LINE
  5
128
100
AcDbEntity
  8
1
  6
CONTINUOUS
 62
     5
100
AcDbLine
 10
321.539
 20
-75.2195
 30
0.0
 11
314.6605
 21
-68.341
 31
0.0
  0
LINE
  5
129
100
AcDbEntity
  8
1
  6
CONTINUOUS
 62
     5
100
AcDbLine
 10
321.539
 20
-74.3929
 30
0.0
 11
315.4872
 21
-68.341
 31
0.0
  0
LINE
  5
12A
100
AcDbEntity
  8
1
  6
CONTINUOUS
 62
     5
100
AcDbLine
 10
321.539
 20
-73.5662
 30
0.0
 11
316.3142
 21
-68.341
 31
0.0
  0
LINE
  5
12B
100
AcDbEntity
  8
1
  6
CONTINUOUS
 62
     5
100
AcDbLine
 10
321.539
 20
-72.7391
 30
0.0
 11
317.1411
 21
-68.341
 31
0.0
  0
LINE
  5
12C
100
AcDbEntity
  8
1
  6
CONTINUOUS
 62
     5
100
AcDbLine
 10
321.539
 20
-71.9125
 30
0.0
 11
317.9676
 21
-68.341
 31
0.0
  0
POLYLINE
  5
12D
100
AcDbEntity
  8
1
  6
CONTINUOUS
 62
     5
100
AcDb2dPolyline
 66
     1
 10
0.0
 20
0.0
 30
0.0
  0
VERTEX
  5
12E
100
AcDbEntity
  8
1
  6
CONTINUOUS
 62
     5
100
AcDbVertex
100
AcDb2dVertex
 10
323.9714
 20
-72.4379
 30
0.0
  0
VERTEX
  5
12F
100
AcDbEntity
  8
1
  6
CONTINUOUS
 62
     5
100
AcDbVertex
100
AcDb2dVertex
 10
326.6154
 20
-72.4379
 30
0.0
  0
VERTEX
  5
130
100
AcDbEntity
  8
1
  6
CONTINUOUS
 62
     5
100
AcDbVertex
100
AcDb2dVertex
 10
325.7864
 20
-69.232
 30
0.0
  0
VERTEX
  5
131
100
AcDbEntity
  8
1
  6
CONTINUOUS
 62
     5
100
AcDbVertex
100
AcDb2dVertex
 10
325.786731
 20
-69.233811
 30
0.0
 42
-0.77931
  0
VERTEX
  5
132
100
AcDbEntity
  8
1
  6
CONTINUOUS
 62
     5
100
AcDbVertex
100
AcDb2dVertex
 10
326.290864
 20
-68.960739
 30
0.0
  0
VERTEX
  5
133
100
AcDbEntity
  8
1
  6
CONTINUOUS
 62
     5
100
AcDbVertex
100
AcDb2dVertex
 10
326.293
 20
-68.9644
 30
0.0
  0
VERTEX
  5
134
100
AcDbEntity
  8
1
  6
CONTINUOUS
 62
     5
100
AcDbVertex
100
AcDb2dVertex
 10
330.2729
 20
-73.3593
 30
0.0
  0
VERTEX
  5
135
100
AcDbEntity
  8
1
  6
CONTINUOUS
 62
     5
100
AcDbVertex
100
AcDb2dVertex
 10
326.293
 20
-77.763
 30
0.0
  0
VERTEX
  5
136
100
AcDbEntity
  8
1
  6
CONTINUOUS
 62
     5
100
AcDbVertex
100
AcDb2dVertex
 10
326.290864
 20
-77.762055
 30
0.0
 42
-0.77931
  0
VERTEX
  5
137
100
AcDbEntity
  8
1
  6
CONTINUOUS
 62
     5
100
AcDbVertex
100
AcDb2dVertex
 10
325.786731
 20
-77.488983
 30
0.0
  0
VERTEX
  5
138
100
AcDbEntity
  8
1
  6
CONTINUOUS
 62
     5
100
AcDbVertex
100
AcDb2dVertex
 10
325.7864
 20
-77.4867
 30
0.0
  0
VERTEX
  5
139
100
AcDbEntity
  8
1
  6
CONTINUOUS
 62
     5
100
AcDbVertex
100
AcDb2dVertex
 10
326.6154
 20
-74.2898
 30
0.0
  0
VERTEX
  5
13A
100
AcDbEntity
  8
1
  6
CONTINUOUS
 62
     5
100
AcDbVertex
100
AcDb2dVertex
 10
323.9714
 20
-74.2898
 30
0.0
  0
VERTEX
  5
13B
100
AcDbEntity
  8
1
  6
CONTINUOUS
 62
     5
100
AcDbVertex
100
AcDb2dVertex
 10
323.9714
 20
-72.4379
 30
0.0
  0
SEQEND
  5
13C
100
AcDbEntity
  8
1
  6
CONTINUOUS
 62
     5
  0
POLYLINE
  5
13D
100
AcDbEntity
  8
1
  6
CONTINUOUS
 62
     5
100
AcDb2dPolyline
 66
     1
 10
0.0
 20
0.0
 30
0.0
  0
VERTEX
  5
13E
100
AcDbEntity
  8
1
  6
CONTINUOUS
 62
     5
100
AcDbVertex
100
AcDb2dVertex
 10
326.6154
 20
-72.4379
 30
0.0
  0
VERTEX
  5
13F
100
AcDbEntity
  8
1
  6
CONTINUOUS
 62
     5
100
AcDbVertex
100
AcDb2dVertex
 10
323.9714
 20
-72.4379
 30
0.0
  0
VERTEX
  5
140
100
AcDbEntity
  8
1
  6
CONTINUOUS
 62
     5
100
AcDbVertex
100
AcDb2dVertex
 10
323.9714
 20
-74.2898
 30
0.0
  0
VERTEX
  5
141
100
AcDbEntity
  8
1
  6
CONTINUOUS
 62
     5
100
AcDbVertex
100
AcDb2dVertex
 10
326.6154
 20
-74.2898
 30
0.0
  0
VERTEX
  5
142
100
AcDbEntity
  8
1
  6
CONTINUOUS
 62
     5
100
AcDbVertex
100
AcDb2dVertex
 10
325.7864
 20
-77.4867
 30
0.0
  0
VERTEX
  5
143
100
AcDbEntity
  8
1
  6
CONTINUOUS
 62
     5
100
AcDbVertex
100
AcDb2dVertex
 10
325.786731
 20
-77.488983
 30
0.0
 42
0.77931
  0
VERTEX
  5
144
100
AcDbEntity
  8
1
  6
CONTINUOUS
 62
     5
100
AcDbVertex
100
AcDb2dVertex
 10
326.290864
 20
-77.762055
 30
0.0
  0
VERTEX
  5
145
100
AcDbEntity
  8
1
  6
CONTINUOUS
 62
     5
100
AcDbVertex
100
AcDb2dVertex
 10
326.293
 20
-77.763
 30
0.0
  0
VERTEX
  5
146
100
AcDbEntity
  8
1
  6
CONTINUOUS
 62
     5
100
AcDbVertex
100
AcDb2dVertex
 10
330.2729
 20
-73.3593
 30
0.0
  0
VERTEX
  5
147
100
AcDbEntity
  8
1
  6
CONTINUOUS
 62
     5
100
AcDbVertex
100
AcDb2dVertex
 10
326.293
 20
-68.9644
 30
0.0
  0
VERTEX
  5
148
100
AcDbEntity
  8
1
  6
CONTINUOUS
 62
     5
100
AcDbVertex
100
AcDb2dVertex
 10
326.290864
 20
-68.960739
 30
0.0
 42
0.77931
  0
VERTEX
  5
149
100
AcDbEntity
  8
1
  6
CONTINUOUS
 62
     5
100
AcDbVertex
100
AcDb2dVertex
 10
325.786731
 20
-69.233811
 30
0.0
  0
VERTEX
  5
14A
100
AcDbEntity
  8
1
  6
CONTINUOUS
 62
     5
100
AcDbVertex
100
AcDb2dVertex
 10
325.7864
 20
-69.232
 30
0.0
  0
VERTEX
  5
14B
100
AcDbEntity
  8
1
  6
CONTINUOUS
 62
     5
100
AcDbVertex
100
AcDb2dVertex
 10
326.6154
 20
-72.4379
 30
0.0
  0
SEQEND
  5
14C
100
AcDbEntity
  8
1
  6
CONTINUOUS
 62
     5
  0
TEXT
  5
14D
100
AcDbEntity
  8
2
  6
CONTINUOUS
 62
     5
100
AcDbText
 10
301.3237
 20
-66.2152
 30
0.0
 40
3.0
  1
W3-1A
 50
270.0
  7
MONOTXT
 72
     4
 11
302.8237
 21
-72.853
 31
0.0
210
0.0
220
0.0
230
1.0
100
AcDbText
  0
LINE
  5
14E
100
AcDbEntity
  8
1
  6
CONTINUOUS
 62
     7
100
AcDbLine
 10
356.1081
 20
-62.4191
 30
0.0
 11
331.0751
 21
-62.4191
 31
0.0
  0
LINE
  5
14F
100
AcDbEntity
  8
1
  6
CONTINUOUS
 62
     7
100
AcDbLine
 10
327.6944
 20
-65.9434
 30
0.0
 11
331.0751
 21
-62.4191
 31
0.0
  0
INSERT
  5
150
100
AcDbEntity
  8
1
  6
CONTINUOUS
 62
     1
100
AcDbBlockReference
  2
LDR
 10
356.1081
 20
-62.4191
 30
0.0
 41
240.0
 42
240.0
210
0.0
220
0.0
230
1.0
  0
LINE
  5
151
100
AcDbEntity
  8
1
  6
CONTINUOUS
 62
     3
100
AcDbLine
 10
226.5792
 20
88.5285
 30
0.0
 11
249.9638
 21
88.5285
 31
0.0
  0
LINE
  5
152
100
AcDbEntity
  8
1
  6
CONTINUOUS
 62
     3
100
AcDbLine
 10
254.6407
 20
83.8515
 30
0.0
 11
254.6407
 21
53.4515
 31
0.0
  0
LINE
  5
153
100
AcDbEntity
  8
1
  6
CONTINUOUS
 62
     3
100
AcDbLine
 10
249.9638
 20
48.7746
 30
0.0
 11
226.5792
 21
48.7746
 31
0.0
  0
LINE
  5
154
100
AcDbEntity
  8
1
  6
CONTINUOUS
 62
     3
100
AcDbLine
 10
221.9022
 20
53.4515
 30
0.0
 11
221.9022
 21
83.8515
 31
0.0
  0
ARC
  5
155
100
AcDbEntity
  8
1
  6
CONTINUOUS
 62
     3
100
AcDbCircle
 10
226.579109
 20
83.851536
 30
0.0
 40
4.676921
210
0.0
220
0.0
230
1.0
100
AcDbArc
 50
90.0
 51
180.0
  0
ARC
  5
156
100
AcDbEntity
  8
1
  6
CONTINUOUS
 62
     3
100
AcDbCircle
 10
249.963714
 20
83.851536
 30
0.0
 40
4.676921
210
0.0
220
0.0
230
1.0
100
AcDbArc
 50
0.0
 51
90.0
  0
ARC
  5
157
100
AcDbEntity
  8
1
  6
CONTINUOUS
 62
     3
100
AcDbCircle
 10
249.963714
 20
53.45155
 30
0.0
 40
4.676921
210
0.0
220
0.0
230
1.0
100
AcDbArc
 50
270.0
 51
0.0
  0
ARC
  5
158
100
AcDbEntity
  8
1
  6
CONTINUOUS
 62
     3
100
AcDbCircle
 10
226.579109
 20
53.45155
 30
0.0
 40
4.676921
210
0.0
220
0.0
230
1.0
100
AcDbArc
 50
180.0
 51
270.0
  0
LINE
  5
159
100
AcDbEntity
  8
1
  6
CONTINUOUS
 62
     3
100
AcDbLine
 10
226.5792
 20
88.7389
 30
0.0
 11
249.9638
 21
88.7389
 31
0.0
  0
ARC
  5
15A
100
AcDbEntity
  8
1
  6
CONTINUOUS
 62
     3
100
AcDbCircle
 10
226.579109
 20
83.851536
 30
0.0
 40
4.887382
210
0.0
220
0.0
230
1.0
100
AcDbArc
 50
90.0
 51
180.0
  0
LINE
  5
15B
100
AcDbEntity
  8
1
  6
CONTINUOUS
 62
     3
100
AcDbLine
 10
221.6916
 20
53.4515
 30
0.0
 11
221.6916
 21
83.8515
 31
0.0
  0
ARC
  5
15C
100
AcDbEntity
  8
1
  6
CONTINUOUS
 62
     3
100
AcDbCircle
 10
226.579109
 20
53.45155
 30
0.0
 40
4.887382
210
0.0
220
0.0
230
1.0
100
AcDbArc
 50
180.0
 51
270.0
  0
LINE
  5
15D
100
AcDbEntity
  8
1
  6
CONTINUOUS
 62
     3
100
AcDbLine
 10
249.9638
 20
48.5641
 30
0.0
 11
226.5792
 21
48.5641
 31
0.0
  0
ARC
  5
15E
100
AcDbEntity
  8
1
  6
CONTINUOUS
 62
     3
100
AcDbCircle
 10
249.963714
 20
53.45155
 30
0.0
 40
4.887382
210
0.0
220
0.0
230
1.0
100
AcDbArc
 50
270.0
 51
0.0
  0
LINE
  5
15F
100
AcDbEntity
  8
1
  6
CONTINUOUS
 62
     3
100
AcDbLine
 10
254.851
 20
83.8515
 30
0.0
 11
254.851
 21
53.4515
 31
0.0
  0
ARC
  5
160
100
AcDbEntity
  8
1
  6
CONTINUOUS
 62
     3
100
AcDbCircle
 10
249.963714
 20
83.851536
 30
0.0
 40
4.887382
210
0.0
220
0.0
230
1.0
100
AcDbArc
 50
0.0
 51
90.0
  0
TEXT
  5
161
100
AcDbEntity
  8
1
  6
CONTINUOUS
 62
     7
100
AcDbText
 10
244.3116
 20
77.0223
 30
0.0
 40
5.808
  1
EXIT
 50
270.0
  7
TXT
 72
     4
 11
247.2156
 21
68.6755
 31
0.0
210
0.0
220
0.0
230
1.0
100
AcDbText
  0
TEXT
  5
162
100
AcDbEntity
  8
1
  6
CONTINUOUS
 62
     7
100
AcDbText
 10
229.9174
 20
81.3633
 30
0.0
 40
5.808
  1
00
 50
270.0
  7
TXT
 72
     4
 11
232.8214
 21
77.2845
 31
0.0
210
0.0
220
0.0
230
1.0
100
AcDbText
  0
INSERT
  5
173
100
AcDbEntity
  8
1
  6
CONTINUOUS
 62
     1
100
AcDbBlockReference
  2
ARROW
 10
236.9809
 20
56.1324
 30
0.0
 41
233.846062
 42
233.846062
 50
315.0
210
0.0
220
0.0
230
1.0
  0
LINE
  5
174
100
AcDbEntity
  8
1
  6
CONTINUOUS
 62
     7
100
AcDbLine
 10
280.0271
 20
-19.4941
 30
0.0
 11
260.6235
 21
-19.4941
 31
0.0
  0
LINE
  5
175
100
AcDbEntity
  8
1
  6
CONTINUOUS
 62
     7
100
AcDbLine
 10
238.2715
 20
48.5641
 30
0.0
 11
260.6235
 21
-19.4941
 31
0.0
  0
INSERT
  5
176
100
AcDbEntity
  8
1
  6
CONTINUOUS
 62
     1
100
AcDbBlockReference
  2
LDR
 10
280.0271
 20
-19.4941
 30
0.0
 41
240.0
 42
240.0
210
0.0
220
0.0
230
1.0
  0
LINE
  5
177
100
AcDbEntity
  8
1
  6
CONTINUOUS
 62
     7
100
AcDbLine
 10
281.5987
 20
-16.4224
 30
0.0
 11
300.6133
 21
-13.4932
 31
0.0
  0
LINE
  5
178
100
AcDbEntity
  8
1
  6
CONTINUOUS
 62
     7
100
AcDbLine
 10
281.1083
 20
-22.4596
 30
0.0
 11
301.6196
 21
-23.959
 31
0.0
  0
LINE
  5
179
100
AcDbEntity
  8
1
  6
CONTINUOUS
 62
     7
100
AcDbLine
 10
290.7223
 20
-8.5258
 30
0.0
 11
291.2704
 21
-12.0839
 31
0.0
  0
LINE
  5
17A
100
AcDbEntity
  8
1
  6
CONTINUOUS
 62
     7
100
AcDbLine
 10
293.4821
 20
-26.4422
 30
0.0
 11
294.0301
 21
-30.0001
 31
0.0
  0
LINE
  5
17B
100
AcDbEntity
  8
1
  6
CONTINUOUS
 62
     7
100
AcDbLine
 10
291.699
 20
-14.8665
 30
0.0
 11
292.2471
 21
-18.4245
 31
0.0
  0
LINE
  5
17C
100
AcDbEntity
  8
1
  6
CONTINUOUS
 62
     7
100
AcDbLine
 10
292.4544
 20
-19.771
 30
0.0
 11
293.0026
 21
-23.3291
 31
0.0
  0
INSERT
  5
17D
100
AcDbEntity
  8
1
  6
CONTINUOUS
 62
     1
100
AcDbBlockReference
  2
LDR
 10
291.2704
 20
-12.0839
 30
0.0
 41
240.000001
 42
240.000001
 50
278.757174
210
0.0
220
0.0
230
1.0
  0
INSERT
  5
17E
100
AcDbEntity
  8
1
  6
CONTINUOUS
 62
     1
100
AcDbBlockReference
  2
LDR
 10
291.699
 20
-14.8665
 30
0.0
 41
240.000001
 42
240.000001
 50
98.757415
210
0.0
220
0.0
230
1.0
  0
INSERT
  5
17F
100
AcDbEntity
  8
1
  6
CONTINUOUS
 62
     1
100
AcDbBlockReference
  2
LDR
 10
293.0026
 20
-23.3291
 30
0.0
 41
239.999998
 42
239.999998
 50
278.758746
210
0.0
220
0.0
230
1.0
  0
INSERT
  5
180
100
AcDbEntity
  8
1
  6
CONTINUOUS
 62
     1
100
AcDbBlockReference
  2
LDR
 10
293.4821
 20
-26.4422
 30
0.0
 41
240.0
 42
240.0
 50
98.756085
210
0.0
220
0.0
230
1.0
  0
LINE
  5
181
100
AcDbEntity
  8
1
  6
CONTINUOUS
 62
     7
100
AcDbLine
 10
291.4947
 20
-13.5401
 30
0.0
 11
301.595
 21
-11.9842
 31
0.0
  0
LINE
  5
182
100
AcDbEntity
  8
1
  6
CONTINUOUS
 62
     7
100
AcDbLine
 10
293.2205
 20
-24.7432
 30
0.0
 11
302.7148
 21
-25.4372
 31
0.0
  0
LINE
  5
183
100
AcDbEntity
  8
1
  6
CONTINUOUS
 62
     7
100
AcDbLine
 10
301.595
 20
-11.9842
 30
0.0
 11
308.5253
 21
-18.8517
 31
0.0
  0
LINE
  5
184
100
AcDbEntity
  8
1
  6
CONTINUOUS
 62
     7
100
AcDbLine
 10
308.5253
 20
-18.8517
 30
0.0
 11
302.7148
 21
-25.4372
 31
0.0
  0
INSERT
  5
185
100
AcDbEntity
  8
1
  6
CONTINUOUS
 62
     1
100
AcDbBlockReference
  2
LDR
 10
291.4947
 20
-13.5401
 30
0.0
 41
239.999999
 42
239.999999
 50
188.757287
210
0.0
220
0.0
230
1.0
  0
INSERT
  5
186
100
AcDbEntity
  8
1
  6
CONTINUOUS
 62
     1
100
AcDbBlockReference
  2
LDR
 10
291.4947
 20
-13.5401
 30
0.0
 41
239.999999
 42
239.999999
 50
188.757287
210
0.0
220
0.0
230
1.0
  0
INSERT
  5
187
100
AcDbEntity
  8
1
  6
CONTINUOUS
 62
     1
100
AcDbBlockReference
  2
LDR
 10
293.2205
 20
-24.7432
 30
0.0
 41
240.0
 42
240.0
 50
175.819316
210
0.0
220
0.0
230
1.0
  0
TEXT
  5
188
100
AcDbEntity
  8
1
  6
CONTINUOUS
 62
     7
100
AcDbText
 10
371.4411
 20
-17.1388
 30
0.0
 40
3.0
  1
PAVED SHOULDER
  7
MONOTXT
 72
     4
 11
391.7206
 21
-15.6388
 31
0.0
210
0.0
220
0.0
230
1.0
100
AcDbText
  0
LINE
  5
189
100
AcDbEntity
  8
1
  6
CONTINUOUS
 62
     7
100
AcDbLine
 10
355.7376
 20
-15.6388
 30
0.0
 11
369.854
 21
-15.6388
 31
0.0
  0
LINE
  5
18A
100
AcDbEntity
  8
1
  6
CONTINUOUS
 62
     7
100
AcDbLine
 10
413.3018
 20
-15.6388
 30
0.0
 11
426.7319
 21
-15.6388
 31
0.0
  0
LINE
  5
18B
100
AcDbEntity
  8
1
  6
CONTINUOUS
 62
     7
100
AcDbLine
 10
355.7376
 20
-15.6388
 30
0.0
 11
334.6473
 21
-3.9862
 31
0.0
  0
LINE
  5
18C
100
AcDbEntity
  8
1
  6
CONTINUOUS
 62
     7
100
AcDbLine
 10
426.7319
 20
-15.6388
 30
0.0
 11
444.7593
 21
-38.0211
 31
0.0
  0
INSERT
  5
18D
100
AcDbEntity
  8
1
  6
CONTINUOUS
 62
     1
100
AcDbBlockReference
  2
LDR
 10
334.6473
 20
-3.9862
 30
0.0
 41
240.000001
 42
240.000001
 50
151.078914
210
0.0
220
0.0
230
1.0
  0
INSERT
  5
18E
100
AcDbEntity
  8
1
  6
CONTINUOUS
 62
     1
100
AcDbBlockReference
  2
LDR
 10
334.6473
 20
-3.9862
 30
0.0
 41
240.000001
 42
240.000001
 50
151.078914
210
0.0
220
0.0
230
1.0
  0
INSERT
  5
18F
100
AcDbEntity
  8
1
  6
CONTINUOUS
 62
     1
100
AcDbBlockReference
  2
LDR
 10
444.7593
 20
-38.0211
 30
0.0
 41
239.999998
 42
239.999998
 50
308.849049
210
0.0
220
0.0
230
1.0
  0
TEXT
  5
190
100
AcDbEntity
  8
2
  6
CONTINUOUS
 62
     5
100
AcDbText
 10
214.1426
 20
73.3523
 30
0.0
 40
3.0
  1
E5-1A
 50
270.0
  7
MONOTXT
 72
     4
 11
215.6426
 21
67.2106
 31
0.0
210
0.0
220
0.0
230
1.0
100
AcDbText
  0
TEXT
  5
191
100
AcDbEntity
  8
1
  6
CONTINUOUS
 62
     7
100
AcDbText
 10
-76.1441
 20
-79.2022
 30
0.0
 40
3.0
  1
ALSO SEE CONTRACT PLANS
  7
MONOTXT
 72
     4
 11
-42.5418
 21
-77.7022
 31
0.0
210
0.0
220
0.0
230
1.0
100
AcDbText
  0
TEXT
  5
192
100
AcDbEntity
  8
1
  6
CONTINUOUS
 62
     7
100
AcDbText
 10
285.1179
 20
-100.676
 30
0.0
 40
3.0
  1
ALSO SEE CONTRACT PLANS
  7
MONOTXT
 72
     4
 11
318.7202
 21
-99.176
 31
0.0
210
0.0
220
0.0
230
1.0
100
AcDbText
  0
LINE
  5
193
100
AcDbEntity
  8
1
  6
CONTINUOUS
 62
     7
100
AcDbLine
 10
279.8241
 20
-90.0886
 30
0.0
 11
316.1661
 21
-90.0886
 31
0.0
  0
LINE
  5
194
100
AcDbEntity
  8
1
  6
CONTINUOUS
 62
     7
100
AcDbLine
 10
319.7661
 20
-90.0886
 30
0.0
 11
356.1081
 21
-90.0886
 31
0.0
  0
TEXT
  5
195
100
AcDbEntity
  8
1
  6
CONTINUOUS
 62
     7
100
AcDbText
 10
316.9739
 20
-91.5886
 30
0.0
 40
3.0
  1
B
  7
MONOTXT
 72
     4
 11
317.9778
 21
-90.0886
 31
0.0
210
0.0
220
0.0
230
1.0
100
AcDbText
  0
TEXT
  5
196
100
AcDbEntity
  8
1
  6
CONTINUOUS
 62
     7
100
AcDbText
 10
167.689
 20
-20.0501
 30
0.0
 40
3.0
  1
SHOULDER MATERIAL
  7
MONOTXT
 72
     4
 11
191.2283
 21
-18.5501
 31
0.0
210
0.0
220
0.0
230
1.0
100
AcDbText
  0
LINE
  5
197
100
AcDbEntity
  8
1
  6
CONTINUOUS
 62
     1
100
AcDbLine
 10
178.324
 20
-23.5752
 30
0.0
 11
175.2952
 21
-20.5465
 31
0.0
  0
LINE
  5
198
100
AcDbEntity
  8
1
  6
CONTINUOUS
 62
     1
100
AcDbLine
 10
171.5224
 20
-16.7737
 30
0.0
 11
168.6081
 21
-13.8594
 31
0.0
  0
LINE
  5
199
100
AcDbEntity
  8
1
  6
CONTINUOUS
 62
     1
100
AcDbLine
 10
196.7433
 20
-25.024
 30
0.0
 11
191.1673
 21
-19.448
 31
0.0
  0
LINE
  5
19A
100
AcDbEntity
  8
1
  6
CONTINUOUS
 62
     1
100
AcDbLine
 10
188.4163
 20
-16.697
 30
0.0
 11
184.4222
 21
-12.7029
 31
0.0
  0
LINE
  5
19B
100
AcDbEntity
  8
1
  6
CONTINUOUS
 62
     1
100
AcDbLine
 10
215.1626
 20
-26.4727
 30
0.0
 11
209.24
 21
-20.5501
 31
0.0
  0
LINE
  5
19C
100
AcDbEntity
  8
1
  6
CONTINUOUS
 62
     1
100
AcDbLine
 10
205.3887
 20
-16.6988
 30
0.0
 11
200.1527
 21
-11.4628
 31
0.0
  0
TEXT
  5
19D
100
AcDbEntity
  8
1
  6
CONTINUOUS
 62
     5
100
AcDbText
 10
-35.8851
 20
-53.1791
 30
0.0
 40
3.63
  1
EXIT
 50
270.0
  7
TXT
 72
     4
 11
-34.0701
 21
-58.3959
 31
0.0
210
0.0
220
0.0
230
1.0
100
AcDbText
  0
LINE
  5
19E
100
AcDbEntity
  8
1
  6
CONTINUOUS
 62
     1
100
AcDbLine
 10
37.9984
 20
-194.7145
 30
0.0
 11
133.9984
 21
-194.7145
 31
0.0
  0
LINE
  5
19F
100
AcDbEntity
  8
1
  6
CONTINUOUS
 62
     1
100
AcDbLine
 10
133.9984
 20
-194.7145
 30
0.0
 11
133.9984
 21
-218.7145
 31
0.0
  0
LINE
  5
1A0
100
AcDbEntity
  8
1
  6
CONTINUOUS
 62
     1
100
AcDbLine
 10
133.9984
 20
-218.7145
 30
0.0
 11
37.9984
 21
-218.7145
 31
0.0
  0
LINE
  5
1A1
100
AcDbEntity
  8
1
  6
CONTINUOUS
 62
     1
100
AcDbLine
 10
37.9984
 20
-218.7145
 30
0.0
 11
37.9984
 21
-194.7145
 31
0.0
  0
LINE
  5
1A2
100
AcDbEntity
  8
1
  6
CONTINUOUS
 62
     1
100
AcDbLine
 10
61.9984
 20
-218.7145
 30
0.0
 11
61.9984
 21
-194.7145
 31
0.0
  0
LINE
  5
1A3
100
AcDbEntity
  8
1
  6
CONTINUOUS
 62
     1
100
AcDbLine
 10
97.9984
 20
-218.7145
 30
0.0
 11
97.9984
 21
-194.7145
 31
0.0
  0
LINE
  5
1A4
100
AcDbEntity
  8
1
  6
CONTINUOUS
 62
     1
100
AcDbLine
 10
37.9984
 20
-204.3145
 30
0.0
 11
133.9984
 21
-204.3145
 31
0.0
  0
LINE
  5
1A5
100
AcDbEntity
  8
1
  6
CONTINUOUS
 62
     1
100
AcDbLine
 10
37.9984
 20
-211.5145
 30
0.0
 11
133.9984
 21
-211.5145
 31
0.0
  0
TEXT
  5
1A6
100
AcDbEntity
  8
1
  6
CONTINUOUS
 62
     7
100
AcDbText
 10
41.8404
 20
-201.3499
 30
0.0
 40
3.6
  1
SIGN
  7
MONOTXT
 72
     4
 11
47.297
 21
-199.5499
 31
0.0
210
0.0
220
0.0
230
1.0
100
AcDbText
  0
TEXT
  5
1A7
100
AcDbEntity
  8
1
  6
CONTINUOUS
 62
     7
100
AcDbText
 10
77.7733
 20
-201.2585
 30
0.0
 40
3.6
  1
A
  7
MONOTXT
 72
     4
 11
79.1623
 21
-199.4585
 31
0.0
210
0.0
220
0.0
230
1.0
100
AcDbText
  0
TEXT
  5
1A8
100
AcDbEntity
  8
1
  6
CONTINUOUS
 62
     7
100
AcDbText
 10
115.1184
 20
-201.2585
 30
0.0
 40
3.6
  1
B
  7
MONOTXT
 72
     4
 11
116.3231
 21
-199.4585
 31
0.0
210
0.0
220
0.0
230
1.0
100
AcDbText
  0
TEXT
  5
1A9
100
AcDbEntity
  8
1
  6
CONTINUOUS
 62
     7
100
AcDbText
 10
43.093
 20
-209.3613
 30
0.0
 40
3.0
  1
W13-2
  7
MONOTXT
 72
     4
 11
49.5772
 21
-207.8613
 31
0.0
210
0.0
220
0.0
230
1.0
100
AcDbText
  0
TEXT
  5
1AA
100
AcDbEntity
  8
1
  6
CONTINUOUS
 62
     7
100
AcDbText
 10
31.3046
 20
-228.3974
 30
0.0
 40
3.0
  1
NOTE:
  7
MONOTXT
 11
31.3046
 21
-225.3974
 31
0.0
210
0.0
220
0.0
230
1.0
100
AcDbText
 73
     3
  0
TEXT
  5
1AB
100
AcDbEntity
  8
1
  6
CONTINUOUS
 62
     7
100
AcDbText
 10
31.3046
 20
-233.7974
 30
0.0
 40
3.0
  1
ONLY ONE SIGN TO BE USED AT ANY OFF-RAMP.
  7
MONOTXT
 11
31.3046
 21
-230.7974
 31
0.0
210
0.0
220
0.0
230
1.0
100
AcDbText
 73
     3
  0
TEXT
  5
1AC
100
AcDbEntity
  8
1
  6
CONTINUOUS
 62
     7
100
AcDbText
 10
55.6699
 20
-199.8492
 30
0.0
 40
4.8
  1
*
  7
MONOTXT
 72
     4
 11
56.5959
 21
-197.4492
 31
0.0
210
0.0
220
0.0
230
1.0
100
AcDbText
  0
TEXT
  5
1AD
100
AcDbEntity
  8
1
  6
CONTINUOUS
 62
     7
100
AcDbText
 10
26.4525
 20
-227.0667
 30
0.0
 40
4.8
  1
*
  7
MONOTXT
 72
     4
 11
27.3785
 21
-224.6667
 31
0.0
210
0.0
220
0.0
230
1.0
100
AcDbText
  0
LWPOLYLINE
  5
1AE
100
AcDbEntity
  8
1
  6
CONTINUOUS
 62
     7
100
AcDbPolyline
 90
        4
 70
     0
 10
266.5256
 20
-292.8679
 10
264.1256
 20
-297.0248
 10
268.9256
 20
-297.0248
 10
266.5256
 20
-292.8679
  0
TEXT
  5
1AF
100
AcDbEntity
  8
1
  6
CONTINUOUS
 62
     7
100
AcDbText
 10
265.8755
 20
-296.5155
 30
0.0
 40
1.8
  1
4
  7
MONOTXT
210
0.0
220
0.0
230
1.0
100
AcDbText
  0
LWPOLYLINE
  5
1B0
100
AcDbEntity
  8
1
  6
CONTINUOUS
 62
     7
100
AcDbPolyline
 90
        4
 70
     0
 10
261.8511
 20
-191.1692
 10
259.4511
 20
-195.3261
 10
264.2511
 20
-195.3261
 10
261.8511
 20
-191.1692
  0
TEXT
  5
1B1
100
AcDbEntity
  8
1
  6
CONTINUOUS
 62
     7
100
AcDbText
 10
261.201
 20
-194.8168
 30
0.0
 40
1.8
  1
4
  7
MONOTXT
210
0.0
220
0.0
230
1.0
100
AcDbText
  0
TEXT
  5
1B2
100
AcDbEntity
  8
1
  6
CONTINUOUS
 62
     7
100
AcDbText
 10
266.0606
 20
-193.898
 30
0.0
 40
1.8
  1
SUBSTITUTED W3-1A FOR W3-1, ADDED NOTE TO SEE CONTRACT PLANS
  7
MONOTXT
210
0.0
220
0.0
230
1.0
100
AcDbText
  0
LWPOLYLINE
  5
1B3
100
AcDbEntity
  8
1
  6
CONTINUOUS
 62
     7
100
AcDbPolyline
 90
        4
 70
     0
 10
261.9819
 20
-196.6712
 10
259.5819
 20
-200.8281
 10
264.3819
 20
-200.8281
 10
261.9819
 20
-196.6712
  0
TEXT
  5
1B4
100
AcDbEntity
  8
1
  6
CONTINUOUS
 62
     7
100
AcDbText
 10
261.4099
 20
-200.2271
 30
0.0
 40
1.8
  1
5
  7
MONOTXT
210
0.0
220
0.0
230
1.0
100
AcDbText
  0
TEXT
  5
1B5
100
AcDbEntity
  8
1
  6
CONTINUOUS
 62
     7
100
AcDbText
 10
266.4226
 20
-199.2318
 30
0.0
 40
1.8
  1
CORRECTED B DIST. AND W3-1A
  7
MONOTXT
210
0.0
220
0.0
230
1.0
100
AcDbText
  0
LWPOLYLINE
  5
1B6
100
AcDbEntity
  8
1
  6
CONTINUOUS
 62
     7
100
AcDbPolyline
 90
        4
 70
     0
 10
266.6748
 20
-298.6202
 10
264.2748
 20
-302.7771
 10
269.0748
 20
-302.7771
 10
266.6748
 20
-298.6202
  0
TEXT
  5
1B7
100
AcDbEntity
  8
1
  6
CONTINUOUS
 62
     7
100
AcDbText
 10
266.1028
 20
-302.1761
 30
0.0
 40
1.8
  1
5
  7
MONOTXT
210
0.0
220
0.0
230
1.0
100
AcDbText
  0
LWPOLYLINE
  5
1B8
100
AcDbEntity
  8
1
  6
CONTINUOUS
 62
     7
100
AcDbPolyline
 90
        4
 70
     0
 10
311.5526
 20
-83.3907
 10
309.1526
 20
-87.5476
 10
313.9526
 20
-87.5476
 10
311.5526
 20
-83.3907
  0
TEXT
  5
1B9
100
AcDbEntity
  8
1
  6
CONTINUOUS
 62
     7
100
AcDbText
 10
310.9806
 20
-86.9466
 30
0.0
 40
1.8
  1
5
  7
MONOTXT
210
0.0
220
0.0
230
1.0
100
AcDbText
  0
LWPOLYLINE
  5
1BA
100
AcDbEntity
  8
1
  6
CONTINUOUS
 62
     7
100
AcDbPolyline
 90
        4
 70
     0
 10
33.8754
 20
-213.0228
 10
31.4754
 20
-217.1797
 10
36.2754
 20
-217.1797
 10
33.8754
 20
-213.0228
  0
TEXT
  5
1BB
100
AcDbEntity
  8
1
  6
CONTINUOUS
 62
     7
100
AcDbText
 10
33.3034
 20
-216.5787
 30
0.0
 40
1.8
  1
5
  7
MONOTXT
210
0.0
220
0.0
230
1.0
100
AcDbText
  0
TEXT
  5
1BC
100
AcDbEntity
  8
1
  6
CONTINUOUS
 62
     7
100
AcDbText
 10
43.0308
 20
-216.7593
 30
0.0
 40
3.0
  1
W3-1A
  7
MONOTXT
 72
     4
 11
49.6686
 21
-215.2593
 31
0.0
210
0.0
220
0.0
230
1.0
100
AcDbText
  0
LWPOLYLINE
  5
1BD
100
AcDbEntity
  8
1
  6
CONTINUOUS
 62
     7
100
AcDbPolyline
 90
        4
 70
     0
 10
261.9819
 20
-202.0958
 10
259.5819
 20
-206.2527
 10
264.3819
 20
-206.2527
 10
261.9819
 20
-202.0958
  0
TEXT
  5
1BE
100
AcDbEntity
  8
1
  6
CONTINUOUS
 62
     7
100
AcDbText
 10
261.4099
 20
-205.6517
 30
0.0
 40
1.8
  1
6
  7
MONOTXT
210
0.0
220
0.0
230
1.0
100
AcDbText
  0
TEXT
  5
1BF
100
AcDbEntity
  8
1
  6
CONTINUOUS
 62
     7
100
AcDbText
 10
265.9141
 20
-205.1649
 30
0.0
 40
1.8
  1
ADDED METRIC
  7
MONOTXT
210
0.0
220
0.0
230
1.0
100
AcDbText
  0
LWPOLYLINE
  5
1C0
100
AcDbEntity
  8
1
  6
CONTINUOUS
 62
     7
100
AcDbPolyline
 90
        4
 70
     0
 10
266.6747
 20
-304.3563
 10
264.2747
 20
-308.5132
 10
269.0747
 20
-308.5132
 10
266.6747
 20
-304.3563
  0
TEXT
  5
1C1
100
AcDbEntity
  8
1
  6
CONTINUOUS
 62
     7
100
AcDbText
 10
266.1027
 20
-307.9122
 30
0.0
 40
1.8
  1
6
  7
MONOTXT
210
0.0
220
0.0
230
1.0
100
AcDbText
  0
TEXT
  5
1C2
100
AcDbEntity
  8
1
  6
CONTINUOUS
 62
     1
100
AcDbText
 10
271.3015
 20
-307.9885
 30
0.0
 40
2.4
  1
05-13-94
  7
MONOTXT
 72
     1
 11
279.5125
 21
-305.5885
 31
0.0
210
0.0
220
0.0
230
1.0
100
AcDbText
 73
     3
  0
TEXT
  5
1C3
100
AcDbEntity
  8
1
  6
CONTINUOUS
 62
     7
100
AcDbText
 10
310.3147
 20
-20.425
 30
0.0
 40
3.0
  1
0.6m
  7
MONOTXT
 72
     4
 11
315.5115
 21
-18.925
 31
0.0
210
0.0
220
0.0
230
1.0
100
AcDbText
  0
TEXT
  5
1C4
100
AcDbEntity
  8
1
  6
CONTINUOUS
 62
     7
100
AcDbText
 10
67.4973
 20
-209.4526
 30
0.0
 40
3.0
  1
0m - 30m
  7
MONOTXT
 72
     4
 11
79.9697
 21
-207.9526
 31
0.0
210
0.0
220
0.0
230
1.0
100
AcDbText
  0
TEXT
  5
1C5
100
AcDbEntity
  8
1
  6
CONTINUOUS
 62
     7
100
AcDbText
 10
101.8714
 20
-216.668
 30
0.0
 40
3.0
  1
30m - 60m
  7
MONOTXT
 72
     4
 11
115.7612
 21
-215.168
 31
0.0
210
0.0
220
0.0
230
1.0
100
AcDbText
  0
ENDSEC
  0
SECTION
  2
OBJECTS
  0
DICTIONARY
  5
19
100
AcDbDictionary
  3
ACAD_GROUP
350
1A
  3
ACAD_MLINESTYLE
350
1B
  0
DICTIONARY
  5
1A
102
{ACAD_REACTORS
330
19
102
}
100
AcDbDictionary
  0
DICTIONARY
  5
1B
102
{ACAD_REACTORS
330
19
102
}
100
AcDbDictionary
  3
STANDARD
350
1C
  0
MLINESTYLE
  5
1C
102
{ACAD_REACTORS
330
1B
102
}
100
AcDbMlineStyle
  2
STANDARD
 70
     0
  3

 62
     0
 51
90.0
 52
90.0
 71
     2
 49
0.5
 62
   256
  6
BYLAYER
 49
-0.5
 62
   256
  6
BYLAYER
  0
ENDSEC
  0
EOF
