  0
SECTION
  2
HEADER
  9
$ACADVER
  1
AC1014
  9
$ACADMAINTVER
 70
     0
  9
$DWGCODEPAGE
  3
ANSI_1252
  9
$INSBASE
 10
0.0
 20
0.0
 30
0.0
  9
$EXTMIN
 10
17.9731
 20
-1.3732
 30
0.0
  9
$EXTMAX
 10
815.9731
 20
536.0268
 30
0.0
  9
$LIMMIN
 10
0.0
 20
0.0
  9
$LIMMAX
 10
12.0
 20
9.0
  9
$ORTHOMODE
 70
     0
  9
$REGENMODE
 70
     1
  9
$FILLMODE
 70
     1
  9
$QTEXTMODE
 70
     0
  9
$MIRRTEXT
 70
     1
  9
$DRAGMODE
 70
     2
  9
$LTSCALE
 40
1.0
  9
$OSMODE
 70
     0
  9
$ATTMODE
 70
     1
  9
$TEXTSIZE
 40
0.2
  9
$TRACEWID
 40
0.05
  9
$TEXTSTYLE
  7
STANDARD
  9
$CLAYER
  8
0
  9
$CELTYPE
  6
CONTINUOUS
  9
$CECOLOR
 62
   256
  9
$CELTSCALE
 40
1.0
  9
$DELOBJ
 70
     1
  9
$DISPSILH
 70
     0
  9
$DIMSCALE
 40
1.0
  9
$DIMASZ
 40
0.18
  9
$DIMEXO
 40
0.0625
  9
$DIMDLI
 40
0.38
  9
$DIMRND
 40
0.0
  9
$DIMDLE
 40
0.0
  9
$DIMEXE
 40
0.18
  9
$DIMTP
 40
0.0
  9
$DIMTM
 40
0.0
  9
$DIMTXT
 40
0.18
  9
$DIMCEN
 40
0.09
  9
$DIMTSZ
 40
0.0
  9
$DIMTOL
 70
     0
  9
$DIMLIM
 70
     0
  9
$DIMTIH
 70
     1
  9
$DIMTOH
 70
     1
  9
$DIMSE1
 70
     0
  9
$DIMSE2
 70
     0
  9
$DIMTAD
 70
     0
  9
$DIMZIN
 70
     0
  9
$DIMBLK
  1

  9
$DIMASO
 70
     1
  9
$DIMSHO
 70
     1
  9
$DIMPOST
  1

  9
$DIMAPOST
  1

  9
$DIMALT
 70
     0
  9
$DIMALTD
 70
     2
  9
$DIMALTF
 40
25.4
  9
$DIMLFAC
 40
1.0
  9
$DIMTOFL
 70
     0
  9
$DIMTVP
 40
0.0
  9
$DIMTIX
 70
     0
  9
$DIMSOXD
 70
     0
  9
$DIMSAH
 70
     0
  9
$DIMBLK1
  1

  9
$DIMBLK2
  1

  9
$DIMSTYLE
  2
STANDARD
  9
$DIMCLRD
 70
     0
  9
$DIMCLRE
 70
     0
  9
$DIMCLRT
 70
     0
  9
$DIMTFAC
 40
1.0
  9
$DIMGAP
 40
0.09
  9
$DIMJUST
 70
     0
  9
$DIMSD1
 70
     0
  9
$DIMSD2
 70
     0
  9
$DIMTOLJ
 70
     1
  9
$DIMTZIN
 70
     0
  9
$DIMALTZ
 70
     0
  9
$DIMALTTZ
 70
     0
  9
$DIMFIT
 70
     3
  9
$DIMUPT
 70
     0
  9
$DIMUNIT
 70
     2
  9
$DIMDEC
 70
     4
  9
$DIMTDEC
 70
     4
  9
$DIMALTU
 70
     2
  9
$DIMALTTD
 70
     2
  9
$DIMTXSTY
  7
STANDARD
  9
$DIMAUNIT
 70
     0
  9
$LUNITS
 70
     2
  9
$LUPREC
 70
     4
  9
$SKETCHINC
 40
0.1
  9
$FILLETRAD
 40
0.0
  9
$AUNITS
 70
     0
  9
$AUPREC
 70
     0
  9
$MENU
  1
acad
  9
$ELEVATION
 40
0.0
  9
$PELEVATION
 40
0.0
  9
$THICKNESS
 40
0.0
  9
$LIMCHECK
 70
     0
  9
$BLIPMODE
 70
     1
  9
$CHAMFERA
 40
0.0
  9
$CHAMFERB
 40
0.0
  9
$CHAMFERC
 40
0.0
  9
$CHAMFERD
 40
0.0
  9
$SKPOLY
 70
     0
  9
$TDCREATE
 40
2451803.475740741
  9
$TDUPDATE
 40
2451803.475740741
  9
$TDINDWG
 40
0.0000000000
  9
$TDUSRTIMER
 40
0.0000000000
  9
$USRTIMER
 70
     1
  9
$ANGBASE
 50
0.0
  9
$ANGDIR
 70
     0
  9
$PDMODE
 70
     0
  9
$PDSIZE
 40
0.0
  9
$PLINEWID
 40
0.0
  9
$COORDS
 70
     0
  9
$SPLFRAME
 70
     0
  9
$SPLINETYPE
 70
     6
  9
$SPLINESEGS
 70
    10
  9
$ATTDIA
 70
     0
  9
$ATTREQ
 70
     1
  9
$HANDLING
 70
     1
  9
$HANDSEED
  5
409
  9
$SURFTAB1
 70
     6
  9
$SURFTAB2
 70
     6
  9
$SURFTYPE
 70
     6
  9
$SURFU
 70
     6
  9
$SURFV
 70
     6
  9
$UCSNAME
  2

  9
$UCSORG
 10
0.0
 20
0.0
 30
0.0
  9
$UCSXDIR
 10
1.0
 20
0.0
 30
0.0
  9
$UCSYDIR
 10
0.0
 20
1.0
 30
0.0
  9
$PUCSNAME
  2

  9
$PUCSORG
 10
0.0
 20
0.0
 30
0.0
  9
$PUCSXDIR
 10
1.0
 20
0.0
 30
0.0
  9
$PUCSYDIR
 10
0.0
 20
1.0
 30
0.0
  9
$USERI1
 70
     0
  9
$USERI2
 70
     0
  9
$USERI3
 70
     0
  9
$USERI4
 70
     0
  9
$USERI5
 70
     0
  9
$USERR1
 40
0.0
  9
$USERR2
 40
0.0
  9
$USERR3
 40
0.0
  9
$USERR4
 40
0.0
  9
$USERR5
 40
0.0
  9
$WORLDVIEW
 70
     1
  9
$SHADEDGE
 70
     3
  9
$SHADEDIF
 70
    70
  9
$TILEMODE
 70
     1
  9
$MAXACTVP
 70
    16
  9
$PINSBASE
 10
0.0
 20
0.0
 30
0.0
  9
$PLIMCHECK
 70
     0
  9
$PEXTMIN
 10
-1.000000E+20
 20
-1.000000E+20
 30
-1.000000E+20
  9
$PEXTMAX
 10
-1.000000E+20
 20
-1.000000E+20
 30
-1.000000E+20
  9
$PLIMMIN
 10
0.0
 20
0.0
  9
$PLIMMAX
 10
12.0
 20
9.0
  9
$UNITMODE
 70
     0
  9
$VISRETAIN
 70
     0
  9
$PLINEGEN
 70
     1
  9
$PSLTSCALE
 70
     0
  9
$TREEDEPTH
 70
  3020
  9
$PICKSTYLE
 70
     1
  9
$CMLSTYLE
  2
STANDARD
  9
$CMLJUST
 70
     0
  9
$CMLSCALE
 40
1.0
  9
$PROXYGRAPHICS
 70
     0
  9
$MEASUREMENT
 70
     0
  0
ENDSEC
  0
SECTION
  2
CLASSES
  0
CLASS
  1
LWPOLYLINE
  2
AcDbPolyline
  3
"AutoCAD"
 90
        0
280
     0
281
     1
  0
CLASS
  1
IMAGE
  2
AcDbRasterImage
  3
ISM
 90
      127
280
     0
281
     1
  0
CLASS
  1
OLE2FRAME
  2
AcDbOle2Frame
  3
""
 90
        0
280
     0
281
     1
  0
CLASS
  1
HATCH
  2
AcDbHatch
  3
"ACAD_SEDONA"
 90
        0
280
     0
281
     1
  0
CLASS
  1
DICTIONARYVAR
  2
AcDbDictionaryVar
  3
"AutoCAD"
 90
        0
280
     0
281
     0
  0
CLASS
  1
RASTERVARIABLES
  2
AcDbRasterVariables
  3
ISM
 90
        0
280
     0
281
     0
  0
CLASS
  1
IMAGEDEF
  2
AcDbRasterImageDef
  3
ISM
 90
        0
280
     0
281
     0
  0
CLASS
  1
IMAGEDEF_REACTOR
  2
AcDbRasterImageDefReactor
  3
ISM
 90
        1
280
     0
281
     0
  0
CLASS
  1
IDBUFFER
  2
AcDbIdBuffer
  3
"Acad"
 90
        0
280
     0
281
     0
  0
CLASS
  1
SPATIAL_FILTER
  2
AcDbSpatialFilter
  3
"Acad"
 90
        0
280
     0
281
     0
  0
CLASS
  1
XRECORD
  2
AcDbXrecord
  3
"<Built In>"
 90
        0
280
     0
281
     0
  0
CLASS
  1
SORTENTSTABLE
  2
AcDbSortentsTable
  3
"AutoCAD"
 90
        0
280
     0
281
     0
  0
CLASS
  1
LAYER_INDEX
  2
AcDbLayerIndex
  3
"Acad"
 90
        0
280
     0
281
     0
  0
CLASS
  1
SPATIAL_INDEX
  2
AcDbSpatialIndex
  3
"Acad"
 90
        0
280
     0
281
     0
  0
CLASS
  1
OBJECT_PTR
  2
CAseDLPNTableRecord
  3
"ASE-LPNTableRecord"
 90
        1
280
     0
281
     0
  0
ENDSEC
  0
SECTION
  2
TABLES
  0
TABLE
  2
VPORT
  5
7
100
AcDbSymbolTable
 70
     1
  0
VPORT
  5
408
100
AcDbSymbolTableRecord
100
AcDbViewportTableRecord
  2
*ACTIVE
 70
     0
 10
0.0
 20
0.0
 11
1.0
 21
1.0
 12
0.0
 22
0.0
 13
0.0
 23
0.0
 14
0.0
 24
0.0
 15
0.0
 25
0.0
 16
0.0
 26
0.0
 36
1.0
 17
363.8155
 27
270.3768
 37
0.0
 40
565.24
 41
1.545
 42
50.0
 43
0.0
 44
0.0
 50
0.0
 51
0.0
 71
     0
 72
   100
 73
     1
 74
     0
 75
     0
 76
     0
 77
     0
 78
     0
  0
ENDTAB
  0
TABLE
  2
LTYPE
  5
4
100
AcDbSymbolTable
 70
     9
  0
LTYPE
  5
11
100
AcDbSymbolTableRecord
100
AcDbLinetypeTableRecord
  2
BYBLOCK
 70
     0
  3

 72
    65
 73
     0
 40
0.0
  0
LTYPE
  5
12
100
AcDbSymbolTableRecord
100
AcDbLinetypeTableRecord
  2
BYLAYER
 70
     0
  3

 72
    65
 73
     0
 40
0.0
  0
LTYPE
  5
13
100
AcDbSymbolTableRecord
100
AcDbLinetypeTableRecord
  2
CONTINUOUS
 70
     0
  3
Solid line
 72
    65
 73
     0
 40
0.0
  0
LTYPE
  5
22
100
AcDbSymbolTableRecord
100
AcDbLinetypeTableRecord
  2
DOT
 70
    64
  3
. . . . . . . . . . . . . . . . . . . . . . . . . . . . . . . . .
 72
    65
 73
     2
 40
0.25
 49
0.0
 74
     0
 49
-0.25
 74
     0
  0
LTYPE
  5
23
100
AcDbSymbolTableRecord
100
AcDbLinetypeTableRecord
  2
HIDDEN
 70
    64
  3
__ __ __ __ __ __ __ __ __ __ __ __ __ __ __ __ __ __ __ __ __ 
 72
    65
 73
     2
 40
0.375
 49
0.25
 74
     0
 49
-0.125
 74
     0
  0
LTYPE
  5
24
100
AcDbSymbolTableRecord
100
AcDbLinetypeTableRecord
  2
DASHED
 70
    64
  3
__ __ __ __ __ __ __ __ __ __ __ __ __ __ __ __ __ __ __ __ __
 72
    65
 73
     2
 40
0.75
 49
0.5
 74
     0
 49
-0.25
 74
     0
  0
LTYPE
  5
25
100
AcDbSymbolTableRecord
100
AcDbLinetypeTableRecord
  2
DASHDOT
 70
    64
  3
__ . __ . __ . __ . __ . __ . __ . __ . __ . __ . __ . __ . _
 72
    65
 73
     4
 40
1.0
 49
0.5
 74
     0
 49
-0.25
 74
     0
 49
0.0
 74
     0
 49
-0.25
 74
     0
  0
LTYPE
  5
26
100
AcDbSymbolTableRecord
100
AcDbLinetypeTableRecord
  2
DIVIDE
 70
    64
  3
____ . . ____ . . ____ . . ____ . . ____ . . ____ . . ____ . .
 72
    65
 73
     6
 40
1.25
 49
0.5
 74
     0
 49
-0.25
 74
     0
 49
0.0
 74
     0
 49
-0.25
 74
     0
 49
0.0
 74
     0
 49
-0.25
 74
     0
  0
LTYPE
  5
27
100
AcDbSymbolTableRecord
100
AcDbLinetypeTableRecord
  2
CENTER
 70
    64
  3
____ _ ____ _ ____ _ ____ _ ____ _ ____ _ ____ _ ____ _ ____ _
 72
    65
 73
     4
 40
2.0
 49
1.25
 74
     0
 49
-0.25
 74
     0
 49
0.25
 74
     0
 49
-0.25
 74
     0
  0
ENDTAB
  0
TABLE
  2
LAYER
  5
2
100
AcDbSymbolTable
 70
     4
  0
LAYER
  5
14
102
{ACAD_XDICTIONARY
360
5F205F5F5F5F205F
102
}
100
AcDbSymbolTableRecord
100
AcDbLayerTableRecord
  2
0
 70
     0
 62
     7
  6
CONTINUOUS
  0
LAYER
  5
1E
102
{ACAD_XDICTIONARY
360
5F205F5F5F5F205F
102
}
100
AcDbSymbolTableRecord
100
AcDbLayerTableRecord
  2
CONSTRUCTION_CLASS
 70
    64
 62
     7
  6
CONTINUOUS
  0
LAYER
  5
2A
102
{ACAD_XDICTIONARY
360
5F205F5F5F5F205F
102
}
100
AcDbSymbolTableRecord
100
AcDbLayerTableRecord
  2
61
 70
    64
 62
     7
  6
CONTINUOUS
  0
LAYER
  5
2D
102
{ACAD_XDICTIONARY
360
5F205F5F5F5F205F
102
}
100
AcDbSymbolTableRecord
100
AcDbLayerTableRecord
  2
1
 70
    64
 62
     7
  6
CONTINUOUS
  0
ENDTAB
  0
TABLE
  2
STYLE
  5
3
100
AcDbSymbolTable
 70
     4
  0
STYLE
  5
17
100
AcDbSymbolTableRecord
100
AcDbTextStyleTableRecord
  2
STANDARD
 70
     0
 40
0.0
 41
1.0
 50
0.0
 71
     0
 42
0.0
  3
txt
  4

  0
STYLE
  5
2B
100
AcDbSymbolTableRecord
100
AcDbTextStyleTableRecord
  2
MONOTXT
 70
     0
 40
0.2
 41
1.0
 50
0.0
 71
     0
 42
0.2
  3
MONOTXT
  4

  0
STYLE
  5
47
100
AcDbSymbolTableRecord
100
AcDbTextStyleTableRecord
  2
TXT
 70
     0
 40
0.2
 41
1.0
 50
0.0
 71
     0
 42
0.2
  3
TXT
  4

  0
STYLE
  5
344
100
AcDbSymbolTableRecord
100
AcDbTextStyleTableRecord
  2
ROMANT
 70
     0
 40
0.2
 41
1.0
 50
0.0
 71
     0
 42
0.2
  3
ROMANT
  4

  0
ENDTAB
  0
TABLE
  2
VIEW
  5
5
100
AcDbSymbolTable
 70
     0
  0
ENDTAB
  0
TABLE
  2
UCS
  5
6
100
AcDbSymbolTable
 70
     0
  0
ENDTAB
  0
TABLE
  2
APPID
  5
8
100
AcDbSymbolTable
 70
     1
  0
APPID
  5
16
100
AcDbSymbolTableRecord
100
AcDbRegAppTableRecord
  2
ACAD
 70
     0
  0
ENDTAB
  0
TABLE
  2
DIMSTYLE
  5
9
100
AcDbSymbolTable
 70
     1
  0
DIMSTYLE
105
18
100
AcDbSymbolTableRecord
100
AcDbDimStyleTableRecord
  2
STANDARD
 70
     0
  3

  4

  5

  6

  7

 40
1.0
 41
0.18
 42
0.0625
 43
0.38
 44
0.18
 45
0.0
 46
0.0
 47
0.0
 48
0.0
140
0.18
141
0.09
142
0.0
143
25.4
144
1.0
145
0.0
146
1.0
147
0.09
 71
     0
 72
     0
 73
     1
 74
     1
 75
     0
 76
     0
 77
     0
 78
     0
170
     0
171
     2
172
     0
173
     0
174
     0
175
     0
176
     0
177
     0
178
     0
270
     2
271
     4
272
     4
273
     2
274
     2
340
17
275
     0
280
     0
281
     0
282
     0
283
     1
284
     0
285
     0
286
     0
287
     0
288
     0
  0
ENDTAB
  0
TABLE
  2
BLOCK_RECORD
  5
1
100
AcDbSymbolTable
 70
     2
  0
BLOCK_RECORD
  5
A
100
AcDbSymbolTableRecord
100
AcDbBlockTableRecord
  2
*MODEL_SPACE
  0
BLOCK_RECORD
  5
B
100
AcDbSymbolTableRecord
100
AcDbBlockTableRecord
  2
*PAPER_SPACE
  0
BLOCK_RECORD
  5
11A
102
{ACAD_XDICTIONARY
360
6A9B022400000000
102
}
100
AcDbSymbolTableRecord
100
AcDbBlockTableRecord
  2
LDR
  0
BLOCK_RECORD
  5
357
102
{ACAD_XDICTIONARY
360
6A9B022400000000
102
}
100
AcDbSymbolTableRecord
100
AcDbBlockTableRecord
  2
PT
  0
ENDTAB
  0
ENDSEC
  0
SECTION
  2
BLOCKS
  0
BLOCK
  5
D
100
AcDbEntity
  8
0
100
AcDbBlockBegin
  2
*MODEL_SPACE
 70
     0
 10
0.0
 20
0.0
 30
0.0
  3
*MODEL_SPACE
  1

  0
ENDBLK
  5
E
100
AcDbEntity
  8
0
100
AcDbBlockEnd
  0
BLOCK
  5
F
100
AcDbEntity
 67
     1
  8
0
100
AcDbBlockBegin
  2
*PAPER_SPACE
 70
     0
 10
0.0
 20
0.0
 30
0.0
  3
*PAPER_SPACE
  1

  0
ENDBLK
  5
10
100
AcDbEntity
 67
     1
  8
0
100
AcDbBlockEnd
  0
BLOCK
  5
11B
100
AcDbEntity
  8
1
  6
CONTINUOUS
 62
     1
100
AcDbBlockBegin
  2
LDR
 70
     0
 10
0.0
 20
0.0
 30
0.0
  3
LNR
  1

  0
ELLIPSE
  5
11C
100
AcDbEntity
  8
1
  6
CONTINUOUS
 62
     1
100
AcDbEllipse
 10
-0.005456
 20
-0.001381
 30
0.0
 11
0.0089285004623472
 21
0.0007807500129699
 31
0.0
210
0.0
220
0.0
230
1.0
 40
0.122415
 41
0.8963533496766982
 42
3.1415926535897931
  0
ELLIPSE
  5
11D
100
AcDbEntity
  8
1
  6
CONTINUOUS
 62
     1
100
AcDbEllipse
 10
-0.005602
 20
0.001058
 30
0.0
 11
0.0087822506056358
 21
-0.0008782502048316
 31
0.0
210
0.0
220
0.0
230
1.0
 40
0.07063
 41
3.1407147529760402
 42
5.4181099545465106
  0
ENDBLK
  5
11E
100
AcDbEntity
  8
1
  6
CONTINUOUS
 62
     1
100
AcDbBlockEnd
  0
BLOCK
  5
358
100
AcDbEntity
  8
1
  6
CONTINUOUS
 62
     1
100
AcDbBlockBegin
  2
PT
 70
     0
 10
0.0
 20
0.0
 30
0.0
  3
PT
  1

  0
POINT
  5
359
100
AcDbEntity
  8
1
  6
CONTINUOUS
 62
     1
100
AcDbPoint
 10
0.0
 20
0.0
 30
0.0
  0
ENDBLK
  5
35A
100
AcDbEntity
  8
1
  6
CONTINUOUS
 62
     1
100
AcDbBlockEnd
  0
ENDSEC
  0
SECTION
  2
ENTITIES
  0
TEXT
  5
2C
100
AcDbEntity
  8
61
  6
CONTINUOUS
 62
     7
100
AcDbText
 10
784.9759
 20
461.5697
 30
0.0
 40
2.881584
  1
     
 41
1.001399
  7
MONOTXT
210
0.0
220
0.0
230
1.0
100
AcDbText
  0
TEXT
  5
2E
100
AcDbEntity
  8
1
  6
CONTINUOUS
 62
     1
100
AcDbText
 10
606.0873
 20
68.6947
 30
0.0
 40
2.400048
  1
04-23-69
  7
MONOTXT
 72
     1
 11
614.752
 21
71.0947
 31
0.0
210
0.0
220
0.0
230
1.0
100
AcDbText
 73
     3
  0
TEXT
  5
2F
100
AcDbEntity
  8
1
  6
CONTINUOUS
 62
     1
100
AcDbText
 10
604.7418
 20
63.5721
 30
0.0
 40
2.400048
  1
05-21-69
  7
MONOTXT
 72
     1
 11
612.8396
 21
65.9721
 31
0.0
210
0.0
220
0.0
230
1.0
100
AcDbText
 73
     3
  0
TEXT
  5
30
100
AcDbEntity
  8
1
  6
CONTINUOUS
 62
     1
100
AcDbText
 10
605.0651
 20
57.2689
 30
0.0
 40
2.400048
  1
11-25-70
  7
MONOTXT
 72
     1
 11
612.7755
 21
59.6689
 31
0.0
210
0.0
220
0.0
230
1.0
100
AcDbText
 73
     3
  0
TEXT
  5
31
100
AcDbEntity
  8
1
  6
CONTINUOUS
 62
     1
100
AcDbText
 10
605.0871
 20
51.5954
 30
0.0
 40
2.400048
  1
04-01-71
  7
MONOTXT
 72
     1
 11
612.8541
 21
53.9954
 31
0.0
210
0.0
220
0.0
230
1.0
100
AcDbText
 73
     3
  0
TEXT
  5
32
100
AcDbEntity
  8
1
  6
CONTINUOUS
 62
     1
100
AcDbText
 10
605.676
 20
45.5245
 30
0.0
 40
2.400048
  1
11-19-73
  7
MONOTXT
 72
     1
 11
612.8288
 21
47.9245
 31
0.0
210
0.0
220
0.0
230
1.0
100
AcDbText
 73
     3
  0
TEXT
  5
33
100
AcDbEntity
  8
1
  6
CONTINUOUS
 62
     1
100
AcDbText
 10
605.4144
 20
40.1485
 30
0.0
 40
2.400048
  1
11-09-76
  7
MONOTXT
 72
     1
 11
613.0208
 21
42.5485
 31
0.0
210
0.0
220
0.0
230
1.0
100
AcDbText
 73
     3
  0
TEXT
  5
34
100
AcDbEntity
  8
1
  6
CONTINUOUS
 62
     1
100
AcDbText
 10
604.7715
 20
34.3137
 30
0.0
 40
2.400048
  1
10-24-78
  7
MONOTXT
 72
     1
 11
613.0583
 21
36.7137
 31
0.0
210
0.0
220
0.0
230
1.0
100
AcDbText
 73
     3
  0
TEXT
  5
35
100
AcDbEntity
  8
1
  6
CONTINUOUS
 62
     1
100
AcDbText
 10
605.2633
 20
28.4242
 30
0.0
 40
2.400048
  1
11-30-84
  7
MONOTXT
 72
     1
 11
613.0209
 21
30.8242
 31
0.0
210
0.0
220
0.0
230
1.0
100
AcDbText
 73
     3
  0
TEXT
  5
36
100
AcDbEntity
  8
1
  6
CONTINUOUS
 62
     1
100
AcDbText
 10
604.0761
 20
22.9705
 30
0.0
 40
2.400048
  1
01-05-93
  7
MONOTXT
 72
     1
 11
612.2305
 21
25.3705
 31
0.0
210
0.0
220
0.0
230
1.0
100
AcDbText
 73
     3
  0
LWPOLYLINE
  5
37
100
AcDbEntity
  8
1
  6
CONTINUOUS
 62
     7
100
AcDbPolyline
 90
        4
 70
     0
 10
597.2033
 20
72.4961
 10
594.8033
 20
68.3392
 10
599.6033
 20
68.3392
 10
597.2033
 20
72.4961
  0
LWPOLYLINE
  5
38
100
AcDbEntity
  8
1
  6
CONTINUOUS
 62
     7
100
AcDbPolyline
 90
        4
 70
     0
 10
597.4458
 20
67.0836
 10
595.0458
 20
62.9267
 10
599.8458
 20
62.9267
 10
597.4458
 20
67.0836
  0
LWPOLYLINE
  5
39
100
AcDbEntity
  8
1
  6
CONTINUOUS
 62
     7
100
AcDbPolyline
 90
        4
 70
     0
 10
597.2949
 20
60.7859
 10
594.8949
 20
56.629
 10
599.6949
 20
56.629
 10
597.2949
 20
60.7859
  0
LWPOLYLINE
  5
3A
100
AcDbEntity
  8
1
  6
CONTINUOUS
 62
     7
100
AcDbPolyline
 90
        4
 70
     0
 10
597.4458
 20
54.9735
 10
595.0458
 20
50.8166
 10
599.8458
 20
50.8166
 10
597.4458
 20
54.9735
  0
LWPOLYLINE
  5
3B
100
AcDbEntity
  8
1
  6
CONTINUOUS
 62
     7
100
AcDbPolyline
 90
        4
 70
     0
 10
597.6754
 20
48.9313
 10
595.2754
 20
44.7744
 10
600.0754
 20
44.7744
 10
597.6754
 20
48.9313
  0
LWPOLYLINE
  5
3C
100
AcDbEntity
  8
1
  6
CONTINUOUS
 62
     7
100
AcDbPolyline
 90
        4
 70
     0
 10
597.6754
 20
43.5846
 10
595.2754
 20
39.4277
 10
600.0754
 20
39.4277
 10
597.6754
 20
43.5846
  0
LWPOLYLINE
  5
3D
100
AcDbEntity
  8
1
  6
CONTINUOUS
 62
     7
100
AcDbPolyline
 90
        4
 70
     0
 10
597.7605
 20
38.0675
 10
595.3605
 20
33.9106
 10
600.1605
 20
33.9106
 10
597.7605
 20
38.0675
  0
LWPOLYLINE
  5
3E
100
AcDbEntity
  8
1
  6
CONTINUOUS
 62
     7
100
AcDbPolyline
 90
        4
 70
     0
 10
597.7475
 20
32.1828
 10
595.3475
 20
28.0259
 10
600.1475
 20
28.0259
 10
597.7475
 20
32.1828
  0
TEXT
  5
3F
100
AcDbEntity
  8
1
  6
CONTINUOUS
 62
     7
100
AcDbText
 10
597.1105
 20
28.3806
 30
0.0
 40
2.1
  1
8
  7
MONOTXT
210
0.0
220
0.0
230
1.0
100
AcDbText
  0
TEXT
  5
40
100
AcDbEntity
  8
1
  6
CONTINUOUS
 62
     7
100
AcDbText
 10
597.1234
 20
34.1931
 30
0.0
 40
2.1
  1
7
  7
MONOTXT
210
0.0
220
0.0
230
1.0
100
AcDbText
  0
TEXT
  5
41
100
AcDbEntity
  8
1
  6
CONTINUOUS
 62
     7
100
AcDbText
 10
596.966
 20
39.8546
 30
0.0
 40
2.1
  1
6
  7
MONOTXT
210
0.0
220
0.0
230
1.0
100
AcDbText
  0
TEXT
  5
42
100
AcDbEntity
  8
1
  6
CONTINUOUS
 62
     7
100
AcDbText
 10
596.966
 20
45.1291
 30
0.0
 40
2.1
  1
5
  7
MONOTXT
210
0.0
220
0.0
230
1.0
100
AcDbText
  0
TEXT
  5
43
100
AcDbEntity
  8
1
  6
CONTINUOUS
 62
     7
100
AcDbText
 10
596.592
 20
51.388
 30
0.0
 40
2.1
  1
4
  7
MONOTXT
210
0.0
220
0.0
230
1.0
100
AcDbText
  0
TEXT
  5
44
100
AcDbEntity
  8
1
  6
CONTINUOUS
 62
     7
100
AcDbText
 10
596.5133
 20
56.9114
 30
0.0
 40
2.1
  1
3
  7
MONOTXT
210
0.0
220
0.0
230
1.0
100
AcDbText
  0
TEXT
  5
45
100
AcDbEntity
  8
1
  6
CONTINUOUS
 62
     7
100
AcDbText
 10
596.8087
 20
63.3536
 30
0.0
 40
2.1
  1
2
  7
MONOTXT
210
0.0
220
0.0
230
1.0
100
AcDbText
  0
TEXT
  5
46
100
AcDbEntity
  8
1
  6
CONTINUOUS
 62
     7
100
AcDbText
 10
596.7829
 20
68.9108
 30
0.0
 40
2.1
  1
1
  7
MONOTXT
210
0.0
220
0.0
230
1.0
100
AcDbText
  0
TEXT
  5
48
100
AcDbEntity
  8
1
  6
CONTINUOUS
 62
     7
100
AcDbText
 10
622.0548
 20
88.235
 30
0.0
 40
8.3912
  1
ROADSIDE SIGN SUPPORTS
  7
TXT
 72
     1
 11
700.407
 21
96.6262
 31
0.0
210
0.0
220
0.0
230
1.0
100
AcDbText
 73
     3
  0
TEXT
  5
49
100
AcDbEntity
  8
1
  6
CONTINUOUS
 62
     7
100
AcDbText
 10
666.9599
 20
76.0242
 30
0.0
 40
8.3912
  1
U-CHANNEL
  7
TXT
 72
     1
 11
700.2068
 21
84.4154
 31
0.0
210
0.0
220
0.0
230
1.0
100
AcDbText
 73
     3
  0
LINE
  5
4A
100
AcDbEntity
  8
1
  6
CONTINUOUS
 62
     4
100
AcDbLine
 10
42.7935
 20
495.4322
 30
0.0
 11
42.7935
 21
245.8322
 31
0.0
  0
LINE
  5
4B
100
AcDbEntity
  8
1
  6
CONTINUOUS
 62
     4
100
AcDbLine
 10
41.5935
 20
244.6322
 30
0.0
 11
382.3935
 21
244.6322
 31
0.0
  0
LINE
  5
4C
100
AcDbEntity
  8
1
  6
CONTINUOUS
 62
     4
100
AcDbLine
 10
353.5935
 20
245.8322
 30
0.0
 11
353.5935
 21
484.6322
 31
0.0
  0
LINE
  5
4D
100
AcDbEntity
  8
1
  6
CONTINUOUS
 62
     4
100
AcDbLine
 10
382.3935
 20
496.6322
 30
0.0
 11
41.5935
 21
496.6322
 31
0.0
  0
LINE
  5
4E
100
AcDbEntity
  8
1
  6
CONTINUOUS
 62
     4
100
AcDbLine
 10
41.5935
 20
496.6322
 30
0.0
 11
41.5935
 21
244.6322
 31
0.0
  0
LINE
  5
4F
100
AcDbEntity
  8
1
  6
CONTINUOUS
 62
     4
100
AcDbLine
 10
70.3935
 20
484.6322
 30
0.0
 11
70.3935
 21
245.8322
 31
0.0
  0
LINE
  5
50
100
AcDbEntity
  8
1
  6
CONTINUOUS
 62
     4
100
AcDbLine
 10
71.5935
 20
484.6322
 30
0.0
 11
71.5935
 21
245.8322
 31
0.0
  0
LINE
  5
51
100
AcDbEntity
  8
1
  6
CONTINUOUS
 62
     4
100
AcDbLine
 10
42.7935
 20
245.8322
 30
0.0
 11
381.1935
 21
245.8322
 31
0.0
  0
LINE
  5
52
100
AcDbEntity
  8
1
  6
CONTINUOUS
 62
     4
100
AcDbLine
 10
381.1935
 20
495.4322
 30
0.0
 11
42.7935
 21
495.4322
 31
0.0
  0
LINE
  5
53
100
AcDbEntity
  8
1
  6
CONTINUOUS
 62
     4
100
AcDbLine
 10
381.1935
 20
475.0322
 30
0.0
 11
42.7935
 21
475.0322
 31
0.0
  0
LINE
  5
54
100
AcDbEntity
  8
1
  6
CONTINUOUS
 62
     4
100
AcDbLine
 10
381.1935
 20
473.8322
 30
0.0
 11
42.7935
 21
473.8322
 31
0.0
  0
LINE
  5
55
100
AcDbEntity
  8
1
  6
CONTINUOUS
 62
     4
100
AcDbLine
 10
59.5935
 20
293.8322
 30
0.0
 11
363.1935
 21
293.8322
 31
0.0
  0
LINE
  5
56
100
AcDbEntity
  8
1
  6
CONTINUOUS
 62
     4
100
AcDbLine
 10
87.1935
 20
484.6322
 30
0.0
 11
87.1935
 21
475.0322
 31
0.0
  0
LINE
  5
57
100
AcDbEntity
  8
1
  6
CONTINUOUS
 62
     4
100
AcDbLine
 10
59.5935
 20
461.8322
 30
0.0
 11
70.3935
 21
461.8322
 31
0.0
  0
LINE
  5
58
100
AcDbEntity
  8
1
  6
CONTINUOUS
 62
     4
100
AcDbLine
 10
87.1935
 20
317.8322
 30
0.0
 11
363.1935
 21
317.8322
 31
0.0
  0
LINE
  5
59
100
AcDbEntity
  8
1
  6
CONTINUOUS
 62
     4
100
AcDbLine
 10
87.1935
 20
475.0322
 30
0.0
 11
87.1935
 21
353.8322
 31
0.0
  0
LINE
  5
5A
100
AcDbEntity
  8
1
  6
CONTINUOUS
 62
     4
100
AcDbLine
 10
59.5935
 20
377.8322
 30
0.0
 11
102.7935
 21
377.8322
 31
0.0
  0
LINE
  5
5B
100
AcDbEntity
  8
1
  6
CONTINUOUS
 62
     4
100
AcDbLine
 10
102.7935
 20
377.8322
 30
0.0
 11
118.3935
 21
377.8322
 31
0.0
  0
LINE
  5
5C
100
AcDbEntity
  8
1
  6
CONTINUOUS
 62
     4
100
AcDbLine
 10
102.7935
 20
484.6322
 30
0.0
 11
102.7935
 21
377.8322
 31
0.0
  0
LINE
  5
5D
100
AcDbEntity
  8
1
  6
CONTINUOUS
 62
     4
100
AcDbLine
 10
102.7935
 20
377.8322
 30
0.0
 11
102.7935
 21
353.8322
 31
0.0
  0
LINE
  5
5E
100
AcDbEntity
  8
1
  6
CONTINUOUS
 62
     4
100
AcDbLine
 10
102.7935
 20
353.8322
 30
0.0
 11
102.7935
 21
245.8322
 31
0.0
  0
LINE
  5
5F
100
AcDbEntity
  8
1
  6
CONTINUOUS
 62
     4
100
AcDbLine
 10
59.5935
 20
353.8322
 30
0.0
 11
71.5935
 21
353.8322
 31
0.0
  0
LINE
  5
60
100
AcDbEntity
  8
1
  6
CONTINUOUS
 62
     4
100
AcDbLine
 10
59.5935
 20
317.8322
 30
0.0
 11
71.5935
 21
317.8322
 31
0.0
  0
LINE
  5
61
100
AcDbEntity
  8
1
  6
CONTINUOUS
 62
     4
100
AcDbLine
 10
71.5935
 20
317.8322
 30
0.0
 11
87.1935
 21
317.8322
 31
0.0
  0
LINE
  5
62
100
AcDbEntity
  8
1
  6
CONTINUOUS
 62
     4
100
AcDbLine
 10
87.1935
 20
353.8322
 30
0.0
 11
87.1935
 21
317.8322
 31
0.0
  0
LINE
  5
63
100
AcDbEntity
  8
1
  6
CONTINUOUS
 62
     4
100
AcDbLine
 10
87.1935
 20
317.8322
 30
0.0
 11
87.1935
 21
245.8322
 31
0.0
  0
LINE
  5
64
100
AcDbEntity
  8
1
  6
CONTINUOUS
 62
     4
100
AcDbLine
 10
71.5935
 20
353.8322
 30
0.0
 11
87.1935
 21
353.8322
 31
0.0
  0
LINE
  5
65
100
AcDbEntity
  8
1
  6
CONTINUOUS
 62
     4
100
AcDbLine
 10
87.1935
 20
353.8322
 30
0.0
 11
102.7935
 21
353.8322
 31
0.0
  0
LINE
  5
66
100
AcDbEntity
  8
1
  6
CONTINUOUS
 62
     4
100
AcDbLine
 10
118.3935
 20
484.6322
 30
0.0
 11
118.3935
 21
401.8322
 31
0.0
  0
LINE
  5
67
100
AcDbEntity
  8
1
  6
CONTINUOUS
 62
     4
100
AcDbLine
 10
118.3935
 20
401.8322
 30
0.0
 11
118.3935
 21
377.8322
 31
0.0
  0
LINE
  5
68
100
AcDbEntity
  8
1
  6
CONTINUOUS
 62
     4
100
AcDbLine
 10
59.5935
 20
401.8322
 30
0.0
 11
118.3935
 21
401.8322
 31
0.0
  0
LINE
  5
69
100
AcDbEntity
  8
1
  6
CONTINUOUS
 62
     4
100
AcDbLine
 10
118.3935
 20
401.8322
 30
0.0
 11
133.9935
 21
401.8322
 31
0.0
  0
LINE
  5
6A
100
AcDbEntity
  8
1
  6
CONTINUOUS
 62
     4
100
AcDbLine
 10
133.9935
 20
484.6322
 30
0.0
 11
133.9935
 21
425.8322
 31
0.0
  0
LINE
  5
6B
100
AcDbEntity
  8
1
  6
CONTINUOUS
 62
     4
100
AcDbLine
 10
133.9935
 20
425.8322
 30
0.0
 11
133.9935
 21
401.8322
 31
0.0
  0
LINE
  5
6C
100
AcDbEntity
  8
1
  6
CONTINUOUS
 62
     4
100
AcDbLine
 10
59.5935
 20
425.8322
 30
0.0
 11
133.9935
 21
425.8322
 31
0.0
  0
LINE
  5
6D
100
AcDbEntity
  8
1
  6
CONTINUOUS
 62
     4
100
AcDbLine
 10
133.9935
 20
425.8322
 30
0.0
 11
149.5935
 21
425.8322
 31
0.0
  0
LINE
  5
6E
100
AcDbEntity
  8
1
  6
CONTINUOUS
 62
     4
100
AcDbLine
 10
149.5935
 20
484.6322
 30
0.0
 11
149.5935
 21
437.8322
 31
0.0
  0
LINE
  5
6F
100
AcDbEntity
  8
1
  6
CONTINUOUS
 62
     4
100
AcDbLine
 10
149.5935
 20
437.8322
 30
0.0
 11
149.5935
 21
425.8322
 31
0.0
  0
LINE
  5
70
100
AcDbEntity
  8
1
  6
CONTINUOUS
 62
     4
100
AcDbLine
 10
59.5935
 20
437.8322
 30
0.0
 11
149.5935
 21
437.8322
 31
0.0
  0
LINE
  5
71
100
AcDbEntity
  8
1
  6
CONTINUOUS
 62
     4
100
AcDbLine
 10
149.5935
 20
437.8322
 30
0.0
 11
165.1935
 21
437.8322
 31
0.0
  0
LINE
  5
72
100
AcDbEntity
  8
1
  6
CONTINUOUS
 62
     4
100
AcDbLine
 10
165.1935
 20
484.6322
 30
0.0
 11
165.1935
 21
461.8322
 31
0.0
  0
LINE
  5
73
100
AcDbEntity
  8
1
  6
CONTINUOUS
 62
     4
100
AcDbLine
 10
165.1935
 20
461.8322
 30
0.0
 11
165.1935
 21
437.8322
 31
0.0
  0
LINE
  5
74
100
AcDbEntity
  8
1
  6
CONTINUOUS
 62
     4
100
AcDbLine
 10
70.3935
 20
461.8322
 30
0.0
 11
165.1935
 21
461.8322
 31
0.0
  0
LINE
  5
75
100
AcDbEntity
  8
1
  6
CONTINUOUS
 62
     4
100
AcDbLine
 10
165.1935
 20
461.8322
 30
0.0
 11
180.7935
 21
461.8322
 31
0.0
  0
LINE
  5
76
100
AcDbEntity
  8
1
  6
CONTINUOUS
 62
     4
100
AcDbLine
 10
180.7935
 20
484.6322
 30
0.0
 11
180.7935
 21
473.8322
 31
0.0
  0
LINE
  5
77
100
AcDbEntity
  8
1
  6
CONTINUOUS
 62
     4
100
AcDbLine
 10
180.7935
 20
473.8322
 30
0.0
 11
180.7935
 21
461.8322
 31
0.0
  0
LINE
  5
78
100
AcDbEntity
  8
1
  6
CONTINUOUS
 62
     4
100
AcDbLine
 10
336.7935
 20
484.6322
 30
0.0
 11
336.7935
 21
473.8322
 31
0.0
  0
LINE
  5
79
100
AcDbEntity
  8
1
  6
CONTINUOUS
 62
     4
100
AcDbLine
 10
336.7935
 20
473.8322
 30
0.0
 11
336.7935
 21
461.8322
 31
0.0
  0
LINE
  5
7A
100
AcDbEntity
  8
1
  6
CONTINUOUS
 62
     4
100
AcDbLine
 10
180.7935
 20
461.8322
 30
0.0
 11
305.5935
 21
461.8322
 31
0.0
  0
LINE
  5
7B
100
AcDbEntity
  8
1
  6
CONTINUOUS
 62
     4
100
AcDbLine
 10
305.5935
 20
461.8322
 30
0.0
 11
336.7935
 21
461.8322
 31
0.0
  0
LINE
  5
7C
100
AcDbEntity
  8
1
  6
CONTINUOUS
 62
     4
100
AcDbLine
 10
336.7935
 20
461.8322
 30
0.0
 11
363.1935
 21
461.8322
 31
0.0
  0
LINE
  5
7D
100
AcDbEntity
  8
1
  6
CONTINUOUS
 62
     4
100
AcDbLine
 10
305.5935
 20
484.6322
 30
0.0
 11
305.5935
 21
461.8322
 31
0.0
  0
LINE
  5
7E
100
AcDbEntity
  8
1
  6
CONTINUOUS
 62
     4
100
AcDbLine
 10
305.5935
 20
461.8322
 30
0.0
 11
305.5935
 21
449.8322
 31
0.0
  0
LINE
  5
7F
100
AcDbEntity
  8
1
  6
CONTINUOUS
 62
     4
100
AcDbLine
 10
59.5935
 20
449.8322
 30
0.0
 11
289.9935
 21
449.8322
 31
0.0
  0
LINE
  5
80
100
AcDbEntity
  8
1
  6
CONTINUOUS
 62
     4
100
AcDbLine
 10
289.9935
 20
449.8322
 30
0.0
 11
305.5935
 21
449.8322
 31
0.0
  0
LINE
  5
81
100
AcDbEntity
  8
1
  6
CONTINUOUS
 62
     4
100
AcDbLine
 10
305.5935
 20
449.8322
 30
0.0
 11
363.1935
 21
449.8322
 31
0.0
  0
LINE
  5
82
100
AcDbEntity
  8
1
  6
CONTINUOUS
 62
     4
100
AcDbLine
 10
289.9935
 20
484.6322
 30
0.0
 11
289.9935
 21
449.8322
 31
0.0
  0
LINE
  5
83
100
AcDbEntity
  8
1
  6
CONTINUOUS
 62
     4
100
AcDbLine
 10
289.9935
 20
449.8322
 30
0.0
 11
289.9935
 21
437.8322
 31
0.0
  0
LINE
  5
84
100
AcDbEntity
  8
1
  6
CONTINUOUS
 62
     4
100
AcDbLine
 10
165.1935
 20
437.8322
 30
0.0
 11
258.7935
 21
437.8322
 31
0.0
  0
LINE
  5
85
100
AcDbEntity
  8
1
  6
CONTINUOUS
 62
     4
100
AcDbLine
 10
258.7935
 20
437.8322
 30
0.0
 11
289.9935
 21
437.8322
 31
0.0
  0
LINE
  5
86
100
AcDbEntity
  8
1
  6
CONTINUOUS
 62
     4
100
AcDbLine
 10
289.9935
 20
437.8322
 30
0.0
 11
363.1935
 21
437.8322
 31
0.0
  0
LINE
  5
87
100
AcDbEntity
  8
1
  6
CONTINUOUS
 62
     4
100
AcDbLine
 10
258.7935
 20
484.6322
 30
0.0
 11
258.7935
 21
437.8322
 31
0.0
  0
LINE
  5
88
100
AcDbEntity
  8
1
  6
CONTINUOUS
 62
     4
100
AcDbLine
 10
258.7935
 20
437.8322
 30
0.0
 11
258.7935
 21
425.8322
 31
0.0
  0
LINE
  5
89
100
AcDbEntity
  8
1
  6
CONTINUOUS
 62
     4
100
AcDbLine
 10
149.5935
 20
425.8322
 30
0.0
 11
243.1935
 21
425.8322
 31
0.0
  0
LINE
  5
8A
100
AcDbEntity
  8
1
  6
CONTINUOUS
 62
     4
100
AcDbLine
 10
243.1935
 20
425.8322
 30
0.0
 11
258.7935
 21
425.8322
 31
0.0
  0
LINE
  5
8B
100
AcDbEntity
  8
1
  6
CONTINUOUS
 62
     4
100
AcDbLine
 10
258.7935
 20
425.8322
 30
0.0
 11
363.1935
 21
425.8322
 31
0.0
  0
LINE
  5
8C
100
AcDbEntity
  8
1
  6
CONTINUOUS
 62
     4
100
AcDbLine
 10
243.1935
 20
484.6322
 30
0.0
 11
243.1935
 21
425.8322
 31
0.0
  0
LINE
  5
8D
100
AcDbEntity
  8
1
  6
CONTINUOUS
 62
     4
100
AcDbLine
 10
243.1935
 20
425.8322
 30
0.0
 11
243.1935
 21
413.8322
 31
0.0
  0
LINE
  5
8E
100
AcDbEntity
  8
1
  6
CONTINUOUS
 62
     4
100
AcDbLine
 10
59.5935
 20
413.8322
 30
0.0
 11
227.5935
 21
413.8322
 31
0.0
  0
LINE
  5
8F
100
AcDbEntity
  8
1
  6
CONTINUOUS
 62
     4
100
AcDbLine
 10
227.5935
 20
413.8322
 30
0.0
 11
243.1935
 21
413.8322
 31
0.0
  0
LINE
  5
90
100
AcDbEntity
  8
1
  6
CONTINUOUS
 62
     4
100
AcDbLine
 10
243.1935
 20
413.8322
 30
0.0
 11
363.1935
 21
413.8322
 31
0.0
  0
LINE
  5
91
100
AcDbEntity
  8
1
  6
CONTINUOUS
 62
     4
100
AcDbLine
 10
227.5935
 20
484.6322
 30
0.0
 11
227.5935
 21
413.8322
 31
0.0
  0
LINE
  5
92
100
AcDbEntity
  8
1
  6
CONTINUOUS
 62
     4
100
AcDbLine
 10
227.5935
 20
413.8322
 30
0.0
 11
227.5935
 21
401.8322
 31
0.0
  0
LINE
  5
93
100
AcDbEntity
  8
1
  6
CONTINUOUS
 62
     4
100
AcDbLine
 10
133.9935
 20
401.8322
 30
0.0
 11
211.9935
 21
401.8322
 31
0.0
  0
LINE
  5
94
100
AcDbEntity
  8
1
  6
CONTINUOUS
 62
     4
100
AcDbLine
 10
211.9935
 20
401.8322
 30
0.0
 11
227.5935
 21
401.8322
 31
0.0
  0
LINE
  5
95
100
AcDbEntity
  8
1
  6
CONTINUOUS
 62
     4
100
AcDbLine
 10
227.5935
 20
401.8322
 30
0.0
 11
363.1935
 21
401.8322
 31
0.0
  0
LINE
  5
96
100
AcDbEntity
  8
1
  6
CONTINUOUS
 62
     4
100
AcDbLine
 10
211.9935
 20
484.6322
 30
0.0
 11
211.9935
 21
401.8322
 31
0.0
  0
LINE
  5
97
100
AcDbEntity
  8
1
  6
CONTINUOUS
 62
     4
100
AcDbLine
 10
211.9935
 20
401.8322
 30
0.0
 11
211.9935
 21
377.8322
 31
0.0
  0
LINE
  5
98
100
AcDbEntity
  8
1
  6
CONTINUOUS
 62
     4
100
AcDbLine
 10
118.3935
 20
377.8322
 30
0.0
 11
196.3935
 21
377.8322
 31
0.0
  0
LINE
  5
99
100
AcDbEntity
  8
1
  6
CONTINUOUS
 62
     4
100
AcDbLine
 10
196.3935
 20
377.8322
 30
0.0
 11
211.9935
 21
377.8322
 31
0.0
  0
LINE
  5
9A
100
AcDbEntity
  8
1
  6
CONTINUOUS
 62
     4
100
AcDbLine
 10
196.3935
 20
484.6322
 30
0.0
 11
196.3935
 21
377.8322
 31
0.0
  0
LINE
  5
9B
100
AcDbEntity
  8
1
  6
CONTINUOUS
 62
     4
100
AcDbLine
 10
196.3935
 20
377.8322
 30
0.0
 11
196.3935
 21
365.8322
 31
0.0
  0
LINE
  5
9C
100
AcDbEntity
  8
1
  6
CONTINUOUS
 62
     4
100
AcDbLine
 10
59.5935
 20
365.8322
 30
0.0
 11
180.7935
 21
365.8322
 31
0.0
  0
LINE
  5
9D
100
AcDbEntity
  8
1
  6
CONTINUOUS
 62
     4
100
AcDbLine
 10
180.7935
 20
365.8322
 30
0.0
 11
196.3935
 21
365.8322
 31
0.0
  0
LINE
  5
9E
100
AcDbEntity
  8
1
  6
CONTINUOUS
 62
     4
100
AcDbLine
 10
180.7935
 20
461.8322
 30
0.0
 11
180.7935
 21
365.8322
 31
0.0
  0
LINE
  5
9F
100
AcDbEntity
  8
1
  6
CONTINUOUS
 62
     4
100
AcDbLine
 10
180.7935
 20
365.8322
 30
0.0
 11
180.7935
 21
353.8322
 31
0.0
  0
LINE
  5
A0
100
AcDbEntity
  8
1
  6
CONTINUOUS
 62
     4
100
AcDbLine
 10
180.7935
 20
353.8322
 30
0.0
 11
180.7935
 21
245.8322
 31
0.0
  0
LINE
  5
A1
100
AcDbEntity
  8
1
  6
CONTINUOUS
 62
     4
100
AcDbLine
 10
102.7935
 20
353.8322
 30
0.0
 11
165.1935
 21
353.8322
 31
0.0
  0
LINE
  5
A2
100
AcDbEntity
  8
1
  6
CONTINUOUS
 62
     4
100
AcDbLine
 10
165.1935
 20
353.8322
 30
0.0
 11
180.7935
 21
353.8322
 31
0.0
  0
LINE
  5
A3
100
AcDbEntity
  8
1
  6
CONTINUOUS
 62
     4
100
AcDbLine
 10
165.1935
 20
437.8322
 30
0.0
 11
165.1935
 21
353.8322
 31
0.0
  0
LINE
  5
A4
100
AcDbEntity
  8
1
  6
CONTINUOUS
 62
     4
100
AcDbLine
 10
165.1935
 20
353.8322
 30
0.0
 11
165.1935
 21
329.8322
 31
0.0
  0
LINE
  5
A5
100
AcDbEntity
  8
1
  6
CONTINUOUS
 62
     4
100
AcDbLine
 10
165.1935
 20
329.8322
 30
0.0
 11
165.1935
 21
245.8322
 31
0.0
  0
LINE
  5
A6
100
AcDbEntity
  8
1
  6
CONTINUOUS
 62
     4
100
AcDbLine
 10
59.5935
 20
329.8322
 30
0.0
 11
149.5935
 21
329.8322
 31
0.0
  0
LINE
  5
A7
100
AcDbEntity
  8
1
  6
CONTINUOUS
 62
     4
100
AcDbLine
 10
149.5935
 20
329.8322
 30
0.0
 11
165.1935
 21
329.8322
 31
0.0
  0
LINE
  5
A8
100
AcDbEntity
  8
1
  6
CONTINUOUS
 62
     4
100
AcDbLine
 10
149.5935
 20
425.8322
 30
0.0
 11
149.5935
 21
329.8322
 31
0.0
  0
LINE
  5
A9
100
AcDbEntity
  8
1
  6
CONTINUOUS
 62
     4
100
AcDbLine
 10
149.5935
 20
329.8322
 30
0.0
 11
149.5935
 21
305.8322
 31
0.0
  0
LINE
  5
AA
100
AcDbEntity
  8
1
  6
CONTINUOUS
 62
     4
100
AcDbLine
 10
149.5935
 20
305.8322
 30
0.0
 11
149.5935
 21
245.8322
 31
0.0
  0
LINE
  5
AB
100
AcDbEntity
  8
1
  6
CONTINUOUS
 62
     4
100
AcDbLine
 10
59.5935
 20
305.8322
 30
0.0
 11
133.9935
 21
305.8322
 31
0.0
  0
LINE
  5
AC
100
AcDbEntity
  8
1
  6
CONTINUOUS
 62
     4
100
AcDbLine
 10
133.9935
 20
305.8322
 30
0.0
 11
149.5935
 21
305.8322
 31
0.0
  0
LINE
  5
AD
100
AcDbEntity
  8
1
  6
CONTINUOUS
 62
     4
100
AcDbLine
 10
133.9935
 20
401.8322
 30
0.0
 11
133.9935
 21
305.8322
 31
0.0
  0
LINE
  5
AE
100
AcDbEntity
  8
1
  6
CONTINUOUS
 62
     4
100
AcDbLine
 10
133.9935
 20
305.8322
 30
0.0
 11
133.9935
 21
281.8322
 31
0.0
  0
LINE
  5
AF
100
AcDbEntity
  8
1
  6
CONTINUOUS
 62
     4
100
AcDbLine
 10
133.9935
 20
281.8322
 30
0.0
 11
133.9935
 21
245.8322
 31
0.0
  0
LINE
  5
B0
100
AcDbEntity
  8
1
  6
CONTINUOUS
 62
     4
100
AcDbLine
 10
59.5935
 20
281.8322
 30
0.0
 11
118.3935
 21
281.8322
 31
0.0
  0
LINE
  5
B1
100
AcDbEntity
  8
1
  6
CONTINUOUS
 62
     4
100
AcDbLine
 10
118.3935
 20
281.8322
 30
0.0
 11
133.9935
 21
281.8322
 31
0.0
  0
LINE
  5
B2
100
AcDbEntity
  8
1
  6
CONTINUOUS
 62
     4
100
AcDbLine
 10
118.3935
 20
377.8322
 30
0.0
 11
118.3935
 21
281.8322
 31
0.0
  0
LINE
  5
B3
100
AcDbEntity
  8
1
  6
CONTINUOUS
 62
     4
100
AcDbLine
 10
118.3935
 20
281.8322
 30
0.0
 11
118.3935
 21
245.8322
 31
0.0
  0
LINE
  5
B4
100
AcDbEntity
  8
1
  6
CONTINUOUS
 62
     4
100
AcDbLine
 10
352.3935
 20
401.8322
 30
0.0
 11
352.3935
 21
484.6322
 31
0.0
  0
LINE
  5
B5
100
AcDbEntity
  8
1
  6
CONTINUOUS
 62
     4
100
AcDbLine
 10
352.3935
 20
245.8322
 30
0.0
 11
352.3935
 21
389.8322
 31
0.0
  0
LINE
  5
B6
100
AcDbEntity
  8
1
  6
CONTINUOUS
 62
     4
100
AcDbLine
 10
352.3935
 20
389.8322
 30
0.0
 11
352.3935
 21
401.8322
 31
0.0
  0
LINE
  5
B7
100
AcDbEntity
  8
1
  6
CONTINUOUS
 62
     4
100
AcDbLine
 10
59.5935
 20
389.8322
 30
0.0
 11
336.7935
 21
389.8322
 31
0.0
  0
LINE
  5
B8
100
AcDbEntity
  8
1
  6
CONTINUOUS
 62
     4
100
AcDbLine
 10
336.7935
 20
389.8322
 30
0.0
 11
352.3935
 21
389.8322
 31
0.0
  0
LINE
  5
B9
100
AcDbEntity
  8
1
  6
CONTINUOUS
 62
     4
100
AcDbLine
 10
336.7935
 20
461.8322
 30
0.0
 11
336.7935
 21
389.8322
 31
0.0
  0
LINE
  5
BA
100
AcDbEntity
  8
1
  6
CONTINUOUS
 62
     4
100
AcDbLine
 10
336.7935
 20
389.8322
 30
0.0
 11
336.7935
 21
377.8322
 31
0.0
  0
LINE
  5
BB
100
AcDbEntity
  8
1
  6
CONTINUOUS
 62
     4
100
AcDbLine
 10
336.7935
 20
377.8322
 30
0.0
 11
336.7935
 21
245.8322
 31
0.0
  0
LINE
  5
BC
100
AcDbEntity
  8
1
  6
CONTINUOUS
 62
     4
100
AcDbLine
 10
211.9935
 20
377.8322
 30
0.0
 11
321.1935
 21
377.8322
 31
0.0
  0
LINE
  5
BD
100
AcDbEntity
  8
1
  6
CONTINUOUS
 62
     4
100
AcDbLine
 10
321.1935
 20
377.8322
 30
0.0
 11
336.7935
 21
377.8322
 31
0.0
  0
LINE
  5
BE
100
AcDbEntity
  8
1
  6
CONTINUOUS
 62
     4
100
AcDbLine
 10
321.1935
 20
484.6322
 30
0.0
 11
321.1935
 21
377.8322
 31
0.0
  0
LINE
  5
BF
100
AcDbEntity
  8
1
  6
CONTINUOUS
 62
     4
100
AcDbLine
 10
321.1935
 20
377.8322
 30
0.0
 11
321.1935
 21
365.8322
 31
0.0
  0
LINE
  5
C0
100
AcDbEntity
  8
1
  6
CONTINUOUS
 62
     4
100
AcDbLine
 10
321.1935
 20
365.8322
 30
0.0
 11
321.1935
 21
245.8322
 31
0.0
  0
LINE
  5
C1
100
AcDbEntity
  8
1
  6
CONTINUOUS
 62
     4
100
AcDbLine
 10
196.3935
 20
365.8322
 30
0.0
 11
305.5935
 21
365.8322
 31
0.0
  0
LINE
  5
C2
100
AcDbEntity
  8
1
  6
CONTINUOUS
 62
     4
100
AcDbLine
 10
305.5935
 20
365.8322
 30
0.0
 11
321.1935
 21
365.8322
 31
0.0
  0
LINE
  5
C3
100
AcDbEntity
  8
1
  6
CONTINUOUS
 62
     4
100
AcDbLine
 10
321.1935
 20
365.8322
 30
0.0
 11
363.1935
 21
365.8322
 31
0.0
  0
LINE
  5
C4
100
AcDbEntity
  8
1
  6
CONTINUOUS
 62
     4
100
AcDbLine
 10
305.5935
 20
449.8322
 30
0.0
 11
305.5935
 21
365.8322
 31
0.0
  0
LINE
  5
C5
100
AcDbEntity
  8
1
  6
CONTINUOUS
 62
     4
100
AcDbLine
 10
305.5935
 20
365.8322
 30
0.0
 11
305.5935
 21
353.8322
 31
0.0
  0
LINE
  5
C6
100
AcDbEntity
  8
1
  6
CONTINUOUS
 62
     4
100
AcDbLine
 10
305.5935
 20
353.8322
 30
0.0
 11
305.5935
 21
245.8322
 31
0.0
  0
LINE
  5
C7
100
AcDbEntity
  8
1
  6
CONTINUOUS
 62
     4
100
AcDbLine
 10
180.7935
 20
353.8322
 30
0.0
 11
289.9935
 21
353.8322
 31
0.0
  0
LINE
  5
C8
100
AcDbEntity
  8
1
  6
CONTINUOUS
 62
     4
100
AcDbLine
 10
289.9935
 20
353.8322
 30
0.0
 11
305.5935
 21
353.8322
 31
0.0
  0
LINE
  5
C9
100
AcDbEntity
  8
1
  6
CONTINUOUS
 62
     4
100
AcDbLine
 10
305.5935
 20
353.8322
 30
0.0
 11
363.1935
 21
353.8322
 31
0.0
  0
LINE
  5
CA
100
AcDbEntity
  8
1
  6
CONTINUOUS
 62
     4
100
AcDbLine
 10
289.9935
 20
437.8322
 30
0.0
 11
289.9935
 21
353.8322
 31
0.0
  0
LINE
  5
CB
100
AcDbEntity
  8
1
  6
CONTINUOUS
 62
     4
100
AcDbLine
 10
289.9935
 20
353.8322
 30
0.0
 11
289.9935
 21
341.8322
 31
0.0
  0
LINE
  5
CC
100
AcDbEntity
  8
1
  6
CONTINUOUS
 62
     4
100
AcDbLine
 10
289.9935
 20
341.8322
 30
0.0
 11
289.9935
 21
245.8322
 31
0.0
  0
LINE
  5
CD
100
AcDbEntity
  8
1
  6
CONTINUOUS
 62
     4
100
AcDbLine
 10
59.5935
 20
341.8322
 30
0.0
 11
274.3935
 21
341.8322
 31
0.0
  0
LINE
  5
CE
100
AcDbEntity
  8
1
  6
CONTINUOUS
 62
     4
100
AcDbLine
 10
274.3935
 20
341.8322
 30
0.0
 11
289.9935
 21
341.8322
 31
0.0
  0
LINE
  5
CF
100
AcDbEntity
  8
1
  6
CONTINUOUS
 62
     4
100
AcDbLine
 10
289.9935
 20
341.8322
 30
0.0
 11
363.1935
 21
341.8322
 31
0.0
  0
LINE
  5
D0
100
AcDbEntity
  8
1
  6
CONTINUOUS
 62
     4
100
AcDbLine
 10
274.3935
 20
484.6322
 30
0.0
 11
274.3935
 21
341.8322
 31
0.0
  0
LINE
  5
D1
100
AcDbEntity
  8
1
  6
CONTINUOUS
 62
     4
100
AcDbLine
 10
274.3935
 20
341.8322
 30
0.0
 11
274.3935
 21
329.8322
 31
0.0
  0
LINE
  5
D2
100
AcDbEntity
  8
1
  6
CONTINUOUS
 62
     4
100
AcDbLine
 10
274.3935
 20
329.8322
 30
0.0
 11
274.3935
 21
245.8322
 31
0.0
  0
LINE
  5
D3
100
AcDbEntity
  8
1
  6
CONTINUOUS
 62
     4
100
AcDbLine
 10
165.1935
 20
329.8322
 30
0.0
 11
258.7935
 21
329.8322
 31
0.0
  0
LINE
  5
D4
100
AcDbEntity
  8
1
  6
CONTINUOUS
 62
     4
100
AcDbLine
 10
258.7935
 20
329.8322
 30
0.0
 11
274.3935
 21
329.8322
 31
0.0
  0
LINE
  5
D5
100
AcDbEntity
  8
1
  6
CONTINUOUS
 62
     4
100
AcDbLine
 10
274.3935
 20
329.8322
 30
0.0
 11
363.1935
 21
329.8322
 31
0.0
  0
LINE
  5
D6
100
AcDbEntity
  8
1
  6
CONTINUOUS
 62
     4
100
AcDbLine
 10
258.7935
 20
305.8322
 30
0.0
 11
258.7935
 21
245.8322
 31
0.0
  0
LINE
  5
D7
100
AcDbEntity
  8
1
  6
CONTINUOUS
 62
     4
100
AcDbLine
 10
258.7935
 20
425.8322
 30
0.0
 11
258.7935
 21
329.8322
 31
0.0
  0
LINE
  5
D8
100
AcDbEntity
  8
1
  6
CONTINUOUS
 62
     4
100
AcDbLine
 10
258.7935
 20
329.8322
 30
0.0
 11
258.7935
 21
305.8322
 31
0.0
  0
LINE
  5
D9
100
AcDbEntity
  8
1
  6
CONTINUOUS
 62
     4
100
AcDbLine
 10
149.5935
 20
305.8322
 30
0.0
 11
243.1935
 21
305.8322
 31
0.0
  0
LINE
  5
DA
100
AcDbEntity
  8
1
  6
CONTINUOUS
 62
     4
100
AcDbLine
 10
243.1935
 20
305.8322
 30
0.0
 11
258.7935
 21
305.8322
 31
0.0
  0
LINE
  5
DB
100
AcDbEntity
  8
1
  6
CONTINUOUS
 62
     4
100
AcDbLine
 10
258.7935
 20
305.8322
 30
0.0
 11
363.1935
 21
305.8322
 31
0.0
  0
LINE
  5
DC
100
AcDbEntity
  8
1
  6
CONTINUOUS
 62
     4
100
AcDbLine
 10
243.1935
 20
413.8322
 30
0.0
 11
243.1935
 21
305.8322
 31
0.0
  0
LINE
  5
DD
100
AcDbEntity
  8
1
  6
CONTINUOUS
 62
     4
100
AcDbLine
 10
243.1935
 20
305.8322
 30
0.0
 11
243.1935
 21
281.8322
 31
0.0
  0
LINE
  5
DE
100
AcDbEntity
  8
1
  6
CONTINUOUS
 62
     4
100
AcDbLine
 10
243.1935
 20
281.8322
 30
0.0
 11
243.1935
 21
245.8322
 31
0.0
  0
LINE
  5
DF
100
AcDbEntity
  8
1
  6
CONTINUOUS
 62
     4
100
AcDbLine
 10
133.9935
 20
281.8322
 30
0.0
 11
227.5935
 21
281.8322
 31
0.0
  0
LINE
  5
E0
100
AcDbEntity
  8
1
  6
CONTINUOUS
 62
     4
100
AcDbLine
 10
227.5935
 20
281.8322
 30
0.0
 11
243.1935
 21
281.8322
 31
0.0
  0
LINE
  5
E1
100
AcDbEntity
  8
1
  6
CONTINUOUS
 62
     4
100
AcDbLine
 10
243.1935
 20
281.8322
 30
0.0
 11
363.1935
 21
281.8322
 31
0.0
  0
LINE
  5
E2
100
AcDbEntity
  8
1
  6
CONTINUOUS
 62
     4
100
AcDbLine
 10
227.5935
 20
269.8322
 30
0.0
 11
227.5935
 21
245.8322
 31
0.0
  0
LINE
  5
E3
100
AcDbEntity
  8
1
  6
CONTINUOUS
 62
     4
100
AcDbLine
 10
227.5935
 20
401.8322
 30
0.0
 11
227.5935
 21
281.8322
 31
0.0
  0
LINE
  5
E4
100
AcDbEntity
  8
1
  6
CONTINUOUS
 62
     4
100
AcDbLine
 10
227.5935
 20
281.8322
 30
0.0
 11
227.5935
 21
269.8322
 31
0.0
  0
LINE
  5
E5
100
AcDbEntity
  8
1
  6
CONTINUOUS
 62
     4
100
AcDbLine
 10
59.5935
 20
269.8322
 30
0.0
 11
211.9935
 21
269.8322
 31
0.0
  0
LINE
  5
E6
100
AcDbEntity
  8
1
  6
CONTINUOUS
 62
     4
100
AcDbLine
 10
211.9935
 20
269.8322
 30
0.0
 11
227.5935
 21
269.8322
 31
0.0
  0
LINE
  5
E7
100
AcDbEntity
  8
1
  6
CONTINUOUS
 62
     4
100
AcDbLine
 10
227.5935
 20
269.8322
 30
0.0
 11
363.1935
 21
269.8322
 31
0.0
  0
LINE
  5
E8
100
AcDbEntity
  8
1
  6
CONTINUOUS
 62
     4
100
AcDbLine
 10
211.9935
 20
377.8322
 30
0.0
 11
211.9935
 21
269.8322
 31
0.0
  0
LINE
  5
E9
100
AcDbEntity
  8
1
  6
CONTINUOUS
 62
     4
100
AcDbLine
 10
211.9935
 20
269.8322
 30
0.0
 11
211.9935
 21
257.8322
 31
0.0
  0
LINE
  5
EA
100
AcDbEntity
  8
1
  6
CONTINUOUS
 62
     4
100
AcDbLine
 10
211.9935
 20
257.8322
 30
0.0
 11
211.9935
 21
245.8322
 31
0.0
  0
LINE
  5
EB
100
AcDbEntity
  8
1
  6
CONTINUOUS
 62
     4
100
AcDbLine
 10
59.5935
 20
257.8322
 30
0.0
 11
196.3935
 21
257.8322
 31
0.0
  0
LINE
  5
EC
100
AcDbEntity
  8
1
  6
CONTINUOUS
 62
     4
100
AcDbLine
 10
196.3935
 20
365.8322
 30
0.0
 11
196.3935
 21
257.8322
 31
0.0
  0
LINE
  5
ED
100
AcDbEntity
  8
1
  6
CONTINUOUS
 62
     4
100
AcDbLine
 10
196.3935
 20
257.8322
 30
0.0
 11
196.3935
 21
245.8322
 31
0.0
  0
LINE
  5
EE
100
AcDbEntity
  8
1
  6
CONTINUOUS
 62
     4
100
AcDbLine
 10
196.3935
 20
257.8322
 30
0.0
 11
211.9935
 21
257.8322
 31
0.0
  0
LINE
  5
EF
100
AcDbEntity
  8
1
  6
CONTINUOUS
 62
     4
100
AcDbLine
 10
211.9935
 20
257.8322
 30
0.0
 11
363.1935
 21
257.8322
 31
0.0
  0
LINE
  5
F0
100
AcDbEntity
  8
1
  6
CONTINUOUS
 62
     4
100
AcDbLine
 10
381.1935
 20
245.8322
 30
0.0
 11
381.1935
 21
495.4322
 31
0.0
  0
LINE
  5
F1
100
AcDbEntity
  8
1
  6
CONTINUOUS
 62
     4
100
AcDbLine
 10
382.3935
 20
244.6322
 30
0.0
 11
382.3935
 21
496.6322
 31
0.0
  0
LINE
  5
F2
100
AcDbEntity
  8
1
  6
CONTINUOUS
 62
     4
100
AcDbLine
 10
336.7935
 20
377.8322
 30
0.0
 11
353.5935
 21
377.8322
 31
0.0
  0
LINE
  5
F3
100
AcDbEntity
  8
1
  6
CONTINUOUS
 62
     4
100
AcDbLine
 10
353.5935
 20
377.8322
 30
0.0
 11
363.1935
 21
377.8322
 31
0.0
  0
LINE
  5
F4
100
AcDbEntity
  8
1
  6
CONTINUOUS
 62
     4
100
AcDbLine
 10
352.3935
 20
389.8322
 30
0.0
 11
363.1935
 21
389.8322
 31
0.0
  0
TEXT
  5
F5
100
AcDbEntity
  8
1
  6
CONTINUOUS
 62
     7
100
AcDbText
 10
160.8122
 20
487.5993
 30
0.0
 40
3.6
  1
TOTAL SQUARE FEET OF SIGN AREA
  7
MONOTXT
 72
     4
 11
212.1192
 21
489.3993
 31
0.0
210
0.0
220
0.0
230
1.0
100
AcDbText
  0
TEXT
  5
F6
100
AcDbEntity
  8
1
  6
CONTINUOUS
 62
     7
100
AcDbText
 10
50.1712
 20
306.8833
 30
0.0
 40
3.6
  1
DIMENSION FROM GROUND TO CENTER
 50
90.0
  7
MONOTXT
 72
     4
 11
48.3712
 21
360.4723
 31
0.0
210
0.0
220
0.0
230
1.0
100
AcDbText
  0
TEXT
  5
F7
100
AcDbEntity
  8
1
  6
CONTINUOUS
 62
     7
100
AcDbText
 10
56.1712
 20
306.0471
 30
0.0
 40
3.6
  1
OF PRESSURE ON SIGN ('CP" IN FEET)
 50
90.0
  7
MONOTXT
 72
     4
 11
54.3712
 21
360.4581
 31
0.0
210
0.0
220
0.0
230
1.0
100
AcDbText
  0
TEXT
  5
F8
100
AcDbEntity
  8
1
  6
CONTINUOUS
 62
     7
100
AcDbText
 10
370.7028
 20
307.1955
 30
0.0
 40
3.6
  1
DIMENSION FROM GROUND TO CENTER
 50
90.0
  7
MONOTXT
 72
     4
 11
368.9028
 21
360.7845
 31
0.0
210
0.0
220
0.0
230
1.0
100
AcDbText
  0
TEXT
  5
F9
100
AcDbEntity
  8
1
  6
CONTINUOUS
 62
     7
100
AcDbText
 10
376.7028
 20
306.3593
 30
0.0
 40
3.6
  1
OF PRESSURE ON SIGN ('CP" IN FEET)
 50
90.0
  7
MONOTXT
 72
     4
 11
374.9028
 21
360.7703
 31
0.0
210
0.0
220
0.0
230
1.0
100
AcDbText
  0
TEXT
  5
FA
100
AcDbEntity
  8
1
  6
CONTINUOUS
 62
     7
100
AcDbText
 10
134.8987
 20
503.8276
 30
0.0
 40
4.2
  1
SIGN POST SECTION REQUIRED (ONE SUPPORT)
  7
MONOTXT
 72
     4
 11
212.4664
 21
505.9276
 31
0.0
210
0.0
220
0.0
230
1.0
100
AcDbText
  0
LINE
  5
FB
100
AcDbEntity
  8
1
  6
CONTINUOUS
 62
     7
100
AcDbLine
 10
132.5574
 20
500.9977
 30
0.0
 11
292.8799
 21
500.9977
 31
0.0
  0
LINE
  5
FC
100
AcDbEntity
  8
1
  6
CONTINUOUS
 62
    30
100
AcDbLine
 10
64.354
 20
168.1227
 30
0.0
 11
90.154
 21
168.1227
 31
0.0
  0
LINE
  5
FD
100
AcDbEntity
  8
1
  6
CONTINUOUS
 62
    30
100
AcDbLine
 10
70.2009
 20
165.7227
 30
0.0
 11
84.3071
 21
165.7227
 31
0.0
  0
LINE
  5
FE
100
AcDbEntity
  8
1
  6
CONTINUOUS
 62
    30
100
AcDbLine
 10
101.4392
 20
142.3227
 30
0.0
 11
110.854
 21
142.3227
 31
0.0
  0
LINE
  5
FF
100
AcDbEntity
  8
1
  6
CONTINUOUS
 62
    30
100
AcDbLine
 10
53.0689
 20
142.3227
 30
0.0
 11
43.654
 21
142.3227
 31
0.0
  0
LINE
  5
100
100
AcDbEntity
  8
1
  6
CONTINUOUS
 62
    30
100
AcDbLine
 10
54.6072
 20
139.9227
 30
0.0
 11
44.854
 21
139.9227
 31
0.0
  0
LINE
  5
101
100
AcDbEntity
  8
1
  6
CONTINUOUS
 62
    30
100
AcDbLine
 10
99.9009
 20
139.9227
 30
0.0
 11
109.654
 21
139.9227
 31
0.0
  0
LINE
  5
102
100
AcDbEntity
  8
1
  6
CONTINUOUS
 62
    30
100
AcDbLine
 10
64.354
 20
168.1227
 30
0.0
 11
56.4802
 21
144.7724
 31
0.0
  0
LINE
  5
103
100
AcDbEntity
  8
1
  6
CONTINUOUS
 62
    30
100
AcDbLine
 10
90.154
 20
168.1227
 30
0.0
 11
98.0279
 21
144.7724
 31
0.0
  0
ARC
  5
104
100
AcDbEntity
  8
1
  6
CONTINUOUS
 62
    30
100
AcDbCircle
 10
53.06891
 20
145.9227
 30
0.0
 40
3.6
210
0.0
220
0.0
230
1.0
100
AcDbArc
 50
270.0
 51
341.365364
  0
ARC
  5
105
100
AcDbEntity
  8
1
  6
CONTINUOUS
 62
    30
100
AcDbCircle
 10
101.439218
 20
145.9227
 30
0.0
 40
3.6
210
0.0
220
0.0
230
1.0
100
AcDbArc
 50
198.634517
 51
270.0
  0
LINE
  5
106
100
AcDbEntity
  8
1
  6
CONTINUOUS
 62
    30
100
AcDbLine
 10
65.6526
 20
162.4565
 30
0.0
 11
59.1555
 21
143.189
 31
0.0
  0
LINE
  5
107
100
AcDbEntity
  8
1
  6
CONTINUOUS
 62
    30
100
AcDbLine
 10
88.8554
 20
162.4565
 30
0.0
 11
95.3526
 21
143.189
 31
0.0
  0
ARC
  5
108
100
AcDbEntity
  8
1
  6
CONTINUOUS
 62
    30
100
AcDbCircle
 10
54.607167
 20
144.7227
 30
0.0
 40
4.8
210
0.0
220
0.0
230
1.0
100
AcDbArc
 50
270.0
 51
341.365917
  0
ARC
  5
109
100
AcDbEntity
  8
1
  6
CONTINUOUS
 62
    30
100
AcDbCircle
 10
99.900924
 20
144.7227
 30
0.0
 40
4.8
210
0.0
220
0.0
230
1.0
100
AcDbArc
 50
198.634392
 51
270.0
  0
ARC
  5
10A
100
AcDbEntity
  8
1
  6
CONTINUOUS
 62
    30
100
AcDbCircle
 10
70.200911
 20
160.9227
 30
0.0
 40
4.8
210
0.0
220
0.0
230
1.0
100
AcDbArc
 50
90.0
 51
161.364747
  0
ARC
  5
10B
100
AcDbEntity
  8
1
  6
CONTINUOUS
 62
    30
100
AcDbCircle
 10
84.30705
 20
160.9227
 30
0.0
 40
4.8
210
0.0
220
0.0
230
1.0
100
AcDbArc
 50
18.63465
 51
90.0
  0
ARC
  5
10C
100
AcDbEntity
  8
1
  6
CONTINUOUS
 62
    30
100
AcDbCircle
 10
45.172146
 20
141.581773
 30
0.0
 40
1.689302
210
0.0
220
0.0
230
1.0
100
AcDbArc
 50
153.985436
 51
259.144667
  0
ARC
  5
10D
100
AcDbEntity
  8
1
  6
CONTINUOUS
 62
    30
100
AcDbCircle
 10
109.335854
 20
141.581773
 30
0.0
 40
1.689302
210
0.0
220
0.0
230
1.0
100
AcDbArc
 50
280.855333
 51
26.014564
  0
ELLIPSE
  5
10E
100
AcDbEntity
  8
1
  6
HIDDEN
 62
    30
100
AcDbEllipse
 10
48.36145
 20
142.3227
 30
0.0
 11
4.7074500000000006
 21
0.0
 31
0.0
210
0.0
220
0.0
230
1.0
 40
0.50983
 41
0.0
 42
3.1415926535897931
  0
ELLIPSE
  5
10F
100
AcDbEntity
  8
1
  6
HIDDEN
 62
    30
100
AcDbEllipse
 10
106.14655
 20
142.3227
 30
0.0
 11
-4.7074500000000006
 21
0.0000000000000006
 31
0.0
210
0.0
220
0.0
230
1.0
 40
0.50983
 41
3.1415926535897931
 42
0.0
  0
ELLIPSE
  5
110
100
AcDbEntity
  8
1
  6
HIDDEN
 62
    30
100
AcDbEllipse
 10
69.06145
 20
168.1227
 30
0.0
 11
4.7074500000000006
 21
0.0
 31
0.0
210
0.0
220
0.0
230
1.0
 40
0.50983
 41
0.0
 42
3.1415926535897931
  0
ELLIPSE
  5
111
100
AcDbEntity
  8
1
  6
HIDDEN
 62
    30
100
AcDbEllipse
 10
85.44655
 20
168.1227
 30
0.0
 11
-4.7074500000000006
 21
0.0000000000000006
 31
0.0
210
0.0
220
0.0
230
1.0
 40
0.50983
 41
3.1415926535897931
 42
0.0
  0
LINE
  5
112
100
AcDbEntity
  8
1
  6
CONTINUOUS
 62
     7
100
AcDbLine
 10
64.354
 20
170.5227
 30
0.0
 11
64.354
 21
187.9227
 31
0.0
  0
LINE
  5
113
100
AcDbEntity
  8
1
  6
CONTINUOUS
 62
     7
100
AcDbLine
 10
90.154
 20
170.5227
 30
0.0
 11
90.154
 21
187.9227
 31
0.0
  0
LINE
  5
114
100
AcDbEntity
  8
1
  6
CONTINUOUS
 62
     7
100
AcDbLine
 10
92.554
 20
168.1227
 30
0.0
 11
128.554
 21
168.1227
 31
0.0
  0
LINE
  5
115
100
AcDbEntity
  8
1
  6
CONTINUOUS
 62
     7
100
AcDbLine
 10
112.054
 20
139.8844
 30
0.0
 11
128.554
 21
139.8844
 31
0.0
  0
LINE
  5
116
100
AcDbEntity
  8
1
  6
CONTINUOUS
 62
     7
100
AcDbLine
 10
43.654
 20
138.7227
 30
0.0
 11
43.654
 21
120.1227
 31
0.0
  0
LINE
  5
117
100
AcDbEntity
  8
1
  6
CONTINUOUS
 62
     7
100
AcDbLine
 10
110.854
 20
138.7227
 30
0.0
 11
110.854
 21
120.1227
 31
0.0
  0
TEXT
  5
118
100
AcDbEntity
  8
1
  6
CONTINUOUS
 62
     7
100
AcDbText
 10
79.3726
 20
188.3051
 30
0.0
 40
3.0
  1
-
  7
MONOTXT
 72
     4
 11
80.0458
 21
189.8051
 31
0.0
210
0.0
220
0.0
230
1.0
100
AcDbText
  0
LINE
  5
119
100
AcDbEntity
  8
1
  6
CONTINUOUS
 62
     7
100
AcDbLine
 10
43.654
 20
121.3227
 30
0.0
 11
110.854
 21
121.3227
 31
0.0
  0
INSERT
  5
11F
100
AcDbEntity
  8
1
  6
CONTINUOUS
 62
     1
100
AcDbBlockReference
  2
LDR
 10
43.654
 20
121.3227
 30
0.0
 41
240.0
 42
240.0
 50
180.0
210
0.0
220
0.0
230
1.0
  0
INSERT
  5
120
100
AcDbEntity
  8
1
  6
CONTINUOUS
 62
     1
100
AcDbBlockReference
  2
LDR
 10
43.654
 20
121.3227
 30
0.0
 41
240.0
 42
240.0
 50
180.0
210
0.0
220
0.0
230
1.0
  0
INSERT
  5
121
100
AcDbEntity
  8
1
  6
CONTINUOUS
 62
     1
100
AcDbBlockReference
  2
LDR
 10
110.854
 20
121.3227
 30
0.0
 41
240.0
 42
240.0
210
0.0
220
0.0
230
1.0
  0
LINE
  5
122
100
AcDbEntity
  8
1
  6
CONTINUOUS
 62
     7
100
AcDbLine
 10
64.354
 20
186.7227
 30
0.0
 11
90.154
 21
186.7227
 31
0.0
  0
INSERT
  5
123
100
AcDbEntity
  8
1
  6
CONTINUOUS
 62
     1
100
AcDbBlockReference
  2
LDR
 10
64.354
 20
186.7227
 30
0.0
 41
240.0
 42
240.0
 50
180.0
210
0.0
220
0.0
230
1.0
  0
INSERT
  5
124
100
AcDbEntity
  8
1
  6
CONTINUOUS
 62
     1
100
AcDbBlockReference
  2
LDR
 10
90.154
 20
186.7227
 30
0.0
 41
240.0
 42
240.0
210
0.0
220
0.0
230
1.0
  0
TEXT
  5
125
100
AcDbEntity
  8
1
  6
CONTINUOUS
 62
     7
100
AcDbText
 10
76.8131
 20
121.581
 30
0.0
 40
3.0
  1
-
  7
MONOTXT
 72
     4
 11
77.4863
 21
123.081
 31
0.0
210
0.0
220
0.0
230
1.0
100
AcDbText
  0
LINE
  5
126
100
AcDbEntity
  8
1
  6
CONTINUOUS
 62
     7
100
AcDbLine
 10
127.354
 20
168.1227
 30
0.0
 11
127.354
 21
139.8844
 31
0.0
  0
INSERT
  5
127
100
AcDbEntity
  8
1
  6
CONTINUOUS
 62
     1
100
AcDbBlockReference
  2
LDR
 10
127.354
 20
168.1227
 30
0.0
 41
240.0
 42
240.0
 50
90.0
210
0.0
220
0.0
230
1.0
  0
INSERT
  5
128
100
AcDbEntity
  8
1
  6
CONTINUOUS
 62
     1
100
AcDbBlockReference
  2
LDR
 10
127.354
 20
168.1227
 30
0.0
 41
240.0
 42
240.0
 50
90.0
210
0.0
220
0.0
230
1.0
  0
INSERT
  5
129
100
AcDbEntity
  8
1
  6
CONTINUOUS
 62
     1
100
AcDbBlockReference
  2
LDR
 10
127.354
 20
139.8844
 30
0.0
 41
240.0
 42
240.0
 50
270.0
210
0.0
220
0.0
230
1.0
  0
TEXT
  5
12A
100
AcDbEntity
  8
1
  6
CONTINUOUS
 62
     7
100
AcDbText
 10
134.037
 20
155.4939
 30
0.0
 40
3.0
  1
-
 50
90.0
  7
MONOTXT
 72
     4
 11
132.537
 21
156.1671
 31
0.0
210
0.0
220
0.0
230
1.0
100
AcDbText
  0
LINE
  5
12B
100
AcDbEntity
  8
1
  6
CONTINUOUS
 62
     7
100
AcDbLine
 10
48.4522
 20
106.5135
 30
0.0
 11
110.3304
 21
106.5135
 31
0.0
  0
LINE
  5
12C
100
AcDbEntity
  8
1
  6
CONTINUOUS
 62
    30
100
AcDbLine
 10
181.1147
 20
168.1227
 30
0.0
 11
209.3147
 21
168.1227
 31
0.0
  0
LINE
  5
12D
100
AcDbEntity
  8
1
  6
CONTINUOUS
 62
    30
100
AcDbLine
 10
186.9616
 20
165.7227
 30
0.0
 11
203.4678
 21
165.7227
 31
0.0
  0
LINE
  5
12E
100
AcDbEntity
  8
1
  6
CONTINUOUS
 62
    30
100
AcDbLine
 10
224.1292
 20
131.8564
 30
0.0
 11
233.544
 21
131.8564
 31
0.0
  0
LINE
  5
12F
100
AcDbEntity
  8
1
  6
CONTINUOUS
 62
    30
100
AcDbLine
 10
166.3003
 20
131.8564
 30
0.0
 11
156.8854
 21
131.8564
 31
0.0
  0
LINE
  5
130
100
AcDbEntity
  8
1
  6
CONTINUOUS
 62
    30
100
AcDbLine
 10
167.8386
 20
129.4564
 30
0.0
 11
158.0854
 21
129.4564
 31
0.0
  0
LINE
  5
131
100
AcDbEntity
  8
1
  6
CONTINUOUS
 62
    30
100
AcDbLine
 10
222.5909
 20
129.4564
 30
0.0
 11
232.344
 21
129.4564
 31
0.0
  0
LINE
  5
132
100
AcDbEntity
  8
1
  6
CONTINUOUS
 62
    30
100
AcDbLine
 10
181.1147
 20
168.1227
 30
0.0
 11
169.7116
 21
134.3061
 31
0.0
  0
LINE
  5
133
100
AcDbEntity
  8
1
  6
CONTINUOUS
 62
    30
100
AcDbLine
 10
209.3147
 20
168.1227
 30
0.0
 11
220.7179
 21
134.3061
 31
0.0
  0
ARC
  5
134
100
AcDbEntity
  8
1
  6
CONTINUOUS
 62
    30
100
AcDbCircle
 10
166.30031
 20
135.4564
 30
0.0
 40
3.6
210
0.0
220
0.0
230
1.0
100
AcDbArc
 50
270.0
 51
341.365364
  0
ARC
  5
135
100
AcDbEntity
  8
1
  6
CONTINUOUS
 62
    30
100
AcDbCircle
 10
224.129218
 20
135.4564
 30
0.0
 40
3.6
210
0.0
220
0.0
230
1.0
100
AcDbArc
 50
198.634517
 51
270.0
  0
LINE
  5
136
100
AcDbEntity
  8
1
  6
CONTINUOUS
 62
    30
100
AcDbLine
 10
182.4133
 20
162.4565
 30
0.0
 11
172.3869
 21
132.7227
 31
0.0
  0
LINE
  5
137
100
AcDbEntity
  8
1
  6
CONTINUOUS
 62
    30
100
AcDbLine
 10
208.0161
 20
162.4565
 30
0.0
 11
218.0426
 21
132.7227
 31
0.0
  0
ARC
  5
138
100
AcDbEntity
  8
1
  6
CONTINUOUS
 62
    30
100
AcDbCircle
 10
167.838567
 20
134.2564
 30
0.0
 40
4.8
210
0.0
220
0.0
230
1.0
100
AcDbArc
 50
270.0
 51
341.365917
  0
ARC
  5
139
100
AcDbEntity
  8
1
  6
CONTINUOUS
 62
    30
100
AcDbCircle
 10
222.590924
 20
134.2564
 30
0.0
 40
4.8
210
0.0
220
0.0
230
1.0
100
AcDbArc
 50
198.634392
 51
270.0
  0
ARC
  5
13A
100
AcDbEntity
  8
1
  6
CONTINUOUS
 62
    30
100
AcDbCircle
 10
186.961611
 20
160.9227
 30
0.0
 40
4.8
210
0.0
220
0.0
230
1.0
100
AcDbArc
 50
90.0
 51
161.364747
  0
ARC
  5
13B
100
AcDbEntity
  8
1
  6
CONTINUOUS
 62
    30
100
AcDbCircle
 10
203.46775
 20
160.9227
 30
0.0
 40
4.8
210
0.0
220
0.0
230
1.0
100
AcDbArc
 50
18.63465
 51
90.0
  0
ARC
  5
13C
100
AcDbEntity
  8
1
  6
CONTINUOUS
 62
    30
100
AcDbCircle
 10
158.403546
 20
131.115473
 30
0.0
 40
1.689302
210
0.0
220
0.0
230
1.0
100
AcDbArc
 50
153.985436
 51
259.144667
  0
ARC
  5
13D
100
AcDbEntity
  8
1
  6
CONTINUOUS
 62
    30
100
AcDbCircle
 10
232.025854
 20
131.115473
 30
0.0
 40
1.689302
210
0.0
220
0.0
230
1.0
100
AcDbArc
 50
280.855333
 51
26.014564
  0
ELLIPSE
  5
13E
100
AcDbEntity
  8
1
  6
HIDDEN
 62
    30
100
AcDbEllipse
 10
161.59285
 20
131.8564
 30
0.0
 11
4.7074500000000006
 21
0.0
 31
0.0
210
0.0
220
0.0
230
1.0
 40
0.50983
 41
0.0
 42
3.1415926535897931
  0
ELLIPSE
  5
13F
100
AcDbEntity
  8
1
  6
HIDDEN
 62
    30
100
AcDbEllipse
 10
228.83655
 20
131.8564
 30
0.0
 11
-4.7074500000000006
 21
0.0000000000000006
 31
0.0
210
0.0
220
0.0
230
1.0
 40
0.50983
 41
3.1415926535897931
 42
0.0
  0
ELLIPSE
  5
140
100
AcDbEntity
  8
1
  6
HIDDEN
 62
    30
100
AcDbEllipse
 10
185.82215
 20
168.1227
 30
0.0
 11
4.7074500000000006
 21
0.0
 31
0.0
210
0.0
220
0.0
230
1.0
 40
0.50983
 41
0.0
 42
3.1415926535897931
  0
ELLIPSE
  5
141
100
AcDbEntity
  8
1
  6
HIDDEN
 62
    30
100
AcDbEllipse
 10
204.60725
 20
168.1227
 30
0.0
 11
-4.7074500000000006
 21
0.0000000000000006
 31
0.0
210
0.0
220
0.0
230
1.0
 40
0.50983
 41
3.1415926535897931
 42
0.0
  0
LINE
  5
142
100
AcDbEntity
  8
1
  6
CONTINUOUS
 62
     7
100
AcDbLine
 10
181.1147
 20
170.5227
 30
0.0
 11
181.1147
 21
187.9227
 31
0.0
  0
LINE
  5
143
100
AcDbEntity
  8
1
  6
CONTINUOUS
 62
     7
100
AcDbLine
 10
209.3147
 20
170.5227
 30
0.0
 11
209.3147
 21
187.9227
 31
0.0
  0
LINE
  5
144
100
AcDbEntity
  8
1
  6
CONTINUOUS
 62
     7
100
AcDbLine
 10
211.7147
 20
168.1227
 30
0.0
 11
251.244
 21
168.1227
 31
0.0
  0
LINE
  5
145
100
AcDbEntity
  8
1
  6
CONTINUOUS
 62
     7
100
AcDbLine
 10
234.744
 20
129.4181
 30
0.0
 11
251.244
 21
129.4181
 31
0.0
  0
LINE
  5
146
100
AcDbEntity
  8
1
  6
CONTINUOUS
 62
     7
100
AcDbLine
 10
156.8854
 20
128.2564
 30
0.0
 11
156.8854
 21
109.6564
 31
0.0
  0
LINE
  5
147
100
AcDbEntity
  8
1
  6
CONTINUOUS
 62
     7
100
AcDbLine
 10
233.544
 20
128.2564
 30
0.0
 11
233.544
 21
109.6564
 31
0.0
  0
TEXT
  5
148
100
AcDbEntity
  8
1
  6
CONTINUOUS
 62
     7
100
AcDbText
 10
196.9782
 20
187.7338
 30
0.0
 40
3.0
  1
-
  7
MONOTXT
 72
     4
 11
197.6514
 21
189.2338
 31
0.0
210
0.0
220
0.0
230
1.0
100
AcDbText
  0
LINE
  5
149
100
AcDbEntity
  8
1
  6
CONTINUOUS
 62
     7
100
AcDbLine
 10
181.1147
 20
186.7227
 30
0.0
 11
209.3147
 21
186.7227
 31
0.0
  0
LINE
  5
14A
100
AcDbEntity
  8
1
  6
CONTINUOUS
 62
     7
100
AcDbLine
 10
250.044
 20
168.1227
 30
0.0
 11
250.044
 21
129.4181
 31
0.0
  0
LINE
  5
14B
100
AcDbEntity
  8
1
  6
CONTINUOUS
 62
     7
100
AcDbLine
 10
156.8854
 20
110.8564
 30
0.0
 11
233.544
 21
110.8564
 31
0.0
  0
INSERT
  5
14C
100
AcDbEntity
  8
1
  6
CONTINUOUS
 62
     1
100
AcDbBlockReference
  2
LDR
 10
181.1147
 20
186.7227
 30
0.0
 41
240.0
 42
240.0
 50
180.0
210
0.0
220
0.0
230
1.0
  0
INSERT
  5
14D
100
AcDbEntity
  8
1
  6
CONTINUOUS
 62
     1
100
AcDbBlockReference
  2
LDR
 10
181.1147
 20
186.7227
 30
0.0
 41
240.0
 42
240.0
 50
180.0
210
0.0
220
0.0
230
1.0
  0
INSERT
  5
14E
100
AcDbEntity
  8
1
  6
CONTINUOUS
 62
     1
100
AcDbBlockReference
  2
LDR
 10
209.3147
 20
186.7227
 30
0.0
 41
240.0
 42
240.0
210
0.0
220
0.0
230
1.0
  0
INSERT
  5
14F
100
AcDbEntity
  8
1
  6
CONTINUOUS
 62
     1
100
AcDbBlockReference
  2
LDR
 10
250.044
 20
168.1227
 30
0.0
 41
240.0
 42
240.0
 50
90.0
210
0.0
220
0.0
230
1.0
  0
INSERT
  5
150
100
AcDbEntity
  8
1
  6
CONTINUOUS
 62
     1
100
AcDbBlockReference
  2
LDR
 10
250.044
 20
168.1227
 30
0.0
 41
240.0
 42
240.0
 50
90.0
210
0.0
220
0.0
230
1.0
  0
INSERT
  5
151
100
AcDbEntity
  8
1
  6
CONTINUOUS
 62
     1
100
AcDbBlockReference
  2
LDR
 10
250.044
 20
129.4181
 30
0.0
 41
240.0
 42
240.0
 50
270.0
210
0.0
220
0.0
230
1.0
  0
INSERT
  5
152
100
AcDbEntity
  8
1
  6
CONTINUOUS
 62
     1
100
AcDbBlockReference
  2
LDR
 10
156.8854
 20
110.8564
 30
0.0
 41
240.0
 42
240.0
 50
180.0
210
0.0
220
0.0
230
1.0
  0
INSERT
  5
153
100
AcDbEntity
  8
1
  6
CONTINUOUS
 62
     1
100
AcDbBlockReference
  2
LDR
 10
156.8854
 20
110.8564
 30
0.0
 41
240.0
 42
240.0
 50
180.0
210
0.0
220
0.0
230
1.0
  0
INSERT
  5
154
100
AcDbEntity
  8
1
  6
CONTINUOUS
 62
     1
100
AcDbBlockReference
  2
LDR
 10
233.544
 20
110.8564
 30
0.0
 41
240.0
 42
240.0
210
0.0
220
0.0
230
1.0
  0
TEXT
  5
155
100
AcDbEntity
  8
1
  6
CONTINUOUS
 62
     7
100
AcDbText
 10
104.7297
 20
92.128
 30
0.0
 40
3.0
  1
-
  7
MONOTXT
 72
     4
 11
105.4029
 21
93.628
 31
0.0
210
0.0
220
0.0
230
1.0
100
AcDbText
  0
TEXT
  5
156
100
AcDbEntity
  8
1
  6
CONTINUOUS
 62
     7
100
AcDbText
 10
105.8361
 20
86.7197
 30
0.0
 40
3.0
  1
-
  7
MONOTXT
 72
     4
 11
106.5093
 21
88.2197
 31
0.0
210
0.0
220
0.0
230
1.0
100
AcDbText
  0
LINE
  5
157
100
AcDbEntity
  8
1
  6
CONTINUOUS
 62
    30
100
AcDbLine
 10
316.4385
 20
137.5227
 30
0.0
 11
330.5447
 21
137.5227
 31
0.0
  0
LINE
  5
158
100
AcDbEntity
  8
1
  6
CONTINUOUS
 62
    30
100
AcDbLine
 10
347.6768
 20
114.1227
 30
0.0
 11
357.0916
 21
114.1227
 31
0.0
  0
LINE
  5
159
100
AcDbEntity
  8
1
  6
CONTINUOUS
 62
    30
100
AcDbLine
 10
299.3065
 20
114.1227
 30
0.0
 11
289.8916
 21
114.1227
 31
0.0
  0
LINE
  5
15A
100
AcDbEntity
  8
1
  6
CONTINUOUS
 62
    30
100
AcDbLine
 10
300.8448
 20
111.7227
 30
0.0
 11
291.0916
 21
111.7227
 31
0.0
  0
LINE
  5
15B
100
AcDbEntity
  8
1
  6
CONTINUOUS
 62
    30
100
AcDbLine
 10
346.1385
 20
111.7227
 30
0.0
 11
355.8916
 21
111.7227
 31
0.0
  0
LINE
  5
15C
100
AcDbEntity
  8
1
  6
CONTINUOUS
 62
    30
100
AcDbLine
 10
310.5916
 20
139.9227
 30
0.0
 11
302.7178
 21
116.5724
 31
0.0
  0
LINE
  5
15D
100
AcDbEntity
  8
1
  6
CONTINUOUS
 62
    30
100
AcDbLine
 10
336.3916
 20
139.9227
 30
0.0
 11
344.2655
 21
116.5724
 31
0.0
  0
ARC
  5
15E
100
AcDbEntity
  8
1
  6
CONTINUOUS
 62
    30
100
AcDbCircle
 10
299.30651
 20
117.7227
 30
0.0
 40
3.6
210
0.0
220
0.0
230
1.0
100
AcDbArc
 50
270.0
 51
341.365364
  0
ARC
  5
15F
100
AcDbEntity
  8
1
  6
CONTINUOUS
 62
    30
100
AcDbCircle
 10
347.676818
 20
117.7227
 30
0.0
 40
3.6
210
0.0
220
0.0
230
1.0
100
AcDbArc
 50
198.634517
 51
270.0
  0
LINE
  5
160
100
AcDbEntity
  8
1
  6
CONTINUOUS
 62
    30
100
AcDbLine
 10
311.8902
 20
134.2565
 30
0.0
 11
305.3931
 21
114.989
 31
0.0
  0
LINE
  5
161
100
AcDbEntity
  8
1
  6
CONTINUOUS
 62
    30
100
AcDbLine
 10
335.093
 20
134.2565
 30
0.0
 11
341.5902
 21
114.989
 31
0.0
  0
ARC
  5
162
100
AcDbEntity
  8
1
  6
CONTINUOUS
 62
    30
100
AcDbCircle
 10
300.844767
 20
116.5227
 30
0.0
 40
4.8
210
0.0
220
0.0
230
1.0
100
AcDbArc
 50
270.0
 51
341.365917
  0
ARC
  5
163
100
AcDbEntity
  8
1
  6
CONTINUOUS
 62
    30
100
AcDbCircle
 10
346.138524
 20
116.5227
 30
0.0
 40
4.8
210
0.0
220
0.0
230
1.0
100
AcDbArc
 50
198.634392
 51
270.0
  0
ARC
  5
164
100
AcDbEntity
  8
1
  6
CONTINUOUS
 62
    30
100
AcDbCircle
 10
316.438511
 20
132.7227
 30
0.0
 40
4.8
210
0.0
220
0.0
230
1.0
100
AcDbArc
 50
90.0
 51
161.364747
  0
ARC
  5
165
100
AcDbEntity
  8
1
  6
CONTINUOUS
 62
    30
100
AcDbCircle
 10
330.54465
 20
132.7227
 30
0.0
 40
4.8
210
0.0
220
0.0
230
1.0
100
AcDbArc
 50
18.63465
 51
90.0
  0
ARC
  5
166
100
AcDbEntity
  8
1
  6
CONTINUOUS
 62
    30
100
AcDbCircle
 10
291.409746
 20
113.381773
 30
0.0
 40
1.689302
210
0.0
220
0.0
230
1.0
100
AcDbArc
 50
153.985436
 51
259.144667
  0
ARC
  5
167
100
AcDbEntity
  8
1
  6
CONTINUOUS
 62
    30
100
AcDbCircle
 10
355.573454
 20
113.381773
 30
0.0
 40
1.689302
210
0.0
220
0.0
230
1.0
100
AcDbArc
 50
280.855333
 51
26.014564
  0
ELLIPSE
  5
168
100
AcDbEntity
  8
1
  6
HIDDEN
 62
    30
100
AcDbEllipse
 10
294.59905
 20
114.1227
 30
0.0
 11
4.7074500000000006
 21
0.0
 31
0.0
210
0.0
220
0.0
230
1.0
 40
0.50983
 41
0.0
 42
3.1415926535897931
  0
ELLIPSE
  5
169
100
AcDbEntity
  8
1
  6
HIDDEN
 62
    30
100
AcDbEllipse
 10
352.38415
 20
114.1227
 30
0.0
 11
-4.7074500000000006
 21
0.0000000000000006
 31
0.0
210
0.0
220
0.0
230
1.0
 40
0.50983
 41
3.1415926535897931
 42
0.0
  0
LINE
  5
16A
100
AcDbEntity
  8
1
  6
CONTINUOUS
 62
    30
100
AcDbLine
 10
316.4385
 20
142.3227
 30
0.0
 11
330.5447
 21
142.3227
 31
0.0
  0
LINE
  5
16B
100
AcDbEntity
  8
1
  6
CONTINUOUS
 62
    30
100
AcDbLine
 10
347.6768
 20
165.7227
 30
0.0
 11
357.0916
 21
165.7227
 31
0.0
  0
LINE
  5
16C
100
AcDbEntity
  8
1
  6
CONTINUOUS
 62
    30
100
AcDbLine
 10
299.3065
 20
165.7227
 30
0.0
 11
289.8916
 21
165.7227
 31
0.0
  0
LINE
  5
16D
100
AcDbEntity
  8
1
  6
CONTINUOUS
 62
    30
100
AcDbLine
 10
300.8448
 20
168.1227
 30
0.0
 11
291.0916
 21
168.1227
 31
0.0
  0
LINE
  5
16E
100
AcDbEntity
  8
1
  6
CONTINUOUS
 62
    30
100
AcDbLine
 10
346.1385
 20
168.1227
 30
0.0
 11
355.8916
 21
168.1227
 31
0.0
  0
LINE
  5
16F
100
AcDbEntity
  8
1
  6
CONTINUOUS
 62
    30
100
AcDbLine
 10
310.5916
 20
139.9227
 30
0.0
 11
302.7178
 21
163.273
 31
0.0
  0
LINE
  5
170
100
AcDbEntity
  8
1
  6
CONTINUOUS
 62
    30
100
AcDbLine
 10
336.3916
 20
139.9227
 30
0.0
 11
344.2655
 21
163.273
 31
0.0
  0
ARC
  5
171
100
AcDbEntity
  8
1
  6
CONTINUOUS
 62
    30
100
AcDbCircle
 10
299.30651
 20
162.1227
 30
0.0
 40
3.6
210
0.0
220
0.0
230
1.0
100
AcDbArc
 50
18.634636
 51
90.0
  0
ARC
  5
172
100
AcDbEntity
  8
1
  6
CONTINUOUS
 62
    30
100
AcDbCircle
 10
347.676818
 20
162.1227
 30
0.0
 40
3.6
210
0.0
220
0.0
230
1.0
100
AcDbArc
 50
90.0
 51
161.365483
  0
LINE
  5
173
100
AcDbEntity
  8
1
  6
CONTINUOUS
 62
    30
100
AcDbLine
 10
311.8902
 20
145.5889
 30
0.0
 11
305.3931
 21
164.8564
 31
0.0
  0
LINE
  5
174
100
AcDbEntity
  8
1
  6
CONTINUOUS
 62
    30
100
AcDbLine
 10
335.093
 20
145.5889
 30
0.0
 11
341.5902
 21
164.8564
 31
0.0
  0
ARC
  5
175
100
AcDbEntity
  8
1
  6
CONTINUOUS
 62
    30
100
AcDbCircle
 10
300.844767
 20
163.3227
 30
0.0
 40
4.8
210
0.0
220
0.0
230
1.0
100
AcDbArc
 50
18.634083
 51
90.0
  0
ARC
  5
176
100
AcDbEntity
  8
1
  6
CONTINUOUS
 62
    30
100
AcDbCircle
 10
346.138524
 20
163.3227
 30
0.0
 40
4.8
210
0.0
220
0.0
230
1.0
100
AcDbArc
 50
90.0
 51
161.365608
  0
ARC
  5
177
100
AcDbEntity
  8
1
  6
CONTINUOUS
 62
    30
100
AcDbCircle
 10
316.438511
 20
147.1227
 30
0.0
 40
4.8
210
0.0
220
0.0
230
1.0
100
AcDbArc
 50
198.635253
 51
270.0
  0
ARC
  5
178
100
AcDbEntity
  8
1
  6
CONTINUOUS
 62
    30
100
AcDbCircle
 10
330.54465
 20
147.1227
 30
0.0
 40
4.8
210
0.0
220
0.0
230
1.0
100
AcDbArc
 50
270.0
 51
341.36535
  0
ARC
  5
179
100
AcDbEntity
  8
1
  6
CONTINUOUS
 62
    30
100
AcDbCircle
 10
291.409746
 20
166.463627
 30
0.0
 40
1.689302
210
0.0
220
0.0
230
1.0
100
AcDbArc
 50
100.855333
 51
206.014564
  0
ARC
  5
17A
100
AcDbEntity
  8
1
  6
CONTINUOUS
 62
    30
100
AcDbCircle
 10
355.573454
 20
166.463627
 30
0.0
 40
1.689302
210
0.0
220
0.0
230
1.0
100
AcDbArc
 50
333.985436
 51
79.144667
  0
ELLIPSE
  5
17B
100
AcDbEntity
  8
1
  6
HIDDEN
 62
    30
100
AcDbEllipse
 10
294.59905
 20
165.7227
 30
0.0
 11
4.7074500000000006
 21
0.0
 31
0.0
210
0.0
220
0.0
230
1.0
 40
0.50983
 41
3.1415926535897931
 42
0.0
  0
ELLIPSE
  5
17C
100
AcDbEntity
  8
1
  6
HIDDEN
 62
    30
100
AcDbEllipse
 10
352.38415
 20
165.7227
 30
0.0
 11
-4.7074500000000006
 21
0.0000000000000006
 31
0.0
210
0.0
220
0.0
230
1.0
 40
0.50983
 41
0.0
 42
3.1415926535897931
  0
LINE
  5
17D
100
AcDbEntity
  8
1
  6
CONTINUOUS
 62
    30
100
AcDbLine
 10
316.5916
 20
141.1227
 30
0.0
 11
330.3916
 21
141.1227
 31
0.0
  0
LINE
  5
17E
100
AcDbEntity
  8
1
  6
CONTINUOUS
 62
    30
100
AcDbLine
 10
316.5916
 20
138.7227
 30
0.0
 11
330.3916
 21
138.7227
 31
0.0
  0
ARC
  5
17F
100
AcDbEntity
  8
1
  6
CONTINUOUS
 62
    30
100
AcDbCircle
 10
316.529846
 20
139.9227
 30
0.0
 40
1.201588
210
0.0
220
0.0
230
1.0
100
AcDbArc
 50
87.054078
 51
272.945922
  0
ARC
  5
180
100
AcDbEntity
  8
1
  6
CONTINUOUS
 62
    30
100
AcDbCircle
 10
330.453354
 20
139.9227
 30
0.0
 40
1.201588
210
0.0
220
0.0
230
1.0
100
AcDbArc
 50
267.054078
 51
92.945922
  0
LINE
  5
181
100
AcDbEntity
  8
1
  6
CONTINUOUS
 62
    30
100
AcDbLine
 10
310.5916
 20
139.9227
 30
0.0
 11
315.3283
 21
139.9227
 31
0.0
  0
LINE
  5
182
100
AcDbEntity
  8
1
  6
CONTINUOUS
 62
    30
100
AcDbLine
 10
331.6549
 20
139.9227
 30
0.0
 11
336.3916
 21
139.9227
 31
0.0
  0
LINE
  5
183
100
AcDbEntity
  8
1
  6
CONTINUOUS
 62
    30
100
AcDbLine
 10
449.402
 20
127.0564
 30
0.0
 11
465.9082
 21
127.0564
 31
0.0
  0
LINE
  5
184
100
AcDbEntity
  8
1
  6
CONTINUOUS
 62
    30
100
AcDbLine
 10
486.5696
 20
93.1901
 30
0.0
 11
495.9844
 21
93.1901
 31
0.0
  0
LINE
  5
185
100
AcDbEntity
  8
1
  6
CONTINUOUS
 62
    30
100
AcDbLine
 10
428.7407
 20
93.1901
 30
0.0
 11
419.3258
 21
93.1901
 31
0.0
  0
LINE
  5
186
100
AcDbEntity
  8
1
  6
CONTINUOUS
 62
    30
100
AcDbLine
 10
430.279
 20
90.7901
 30
0.0
 11
420.5258
 21
90.7901
 31
0.0
  0
LINE
  5
187
100
AcDbEntity
  8
1
  6
CONTINUOUS
 62
    30
100
AcDbLine
 10
485.0313
 20
90.7901
 30
0.0
 11
494.7844
 21
90.7901
 31
0.0
  0
LINE
  5
188
100
AcDbEntity
  8
1
  6
CONTINUOUS
 62
    30
100
AcDbLine
 10
443.5551
 20
129.4564
 30
0.0
 11
432.152
 21
95.6398
 31
0.0
  0
LINE
  5
189
100
AcDbEntity
  8
1
  6
CONTINUOUS
 62
    30
100
AcDbLine
 10
471.7551
 20
129.4564
 30
0.0
 11
483.1583
 21
95.6398
 31
0.0
  0
ARC
  5
18A
100
AcDbEntity
  8
1
  6
CONTINUOUS
 62
    30
100
AcDbCircle
 10
428.74071
 20
96.7901
 30
0.0
 40
3.6
210
0.0
220
0.0
230
1.0
100
AcDbArc
 50
270.0
 51
341.365364
  0
ARC
  5
18B
100
AcDbEntity
  8
1
  6
CONTINUOUS
 62
    30
100
AcDbCircle
 10
486.569618
 20
96.7901
 30
0.0
 40
3.6
210
0.0
220
0.0
230
1.0
100
AcDbArc
 50
198.634517
 51
270.0
  0
LINE
  5
18C
100
AcDbEntity
  8
1
  6
CONTINUOUS
 62
    30
100
AcDbLine
 10
444.8537
 20
123.7902
 30
0.0
 11
434.8273
 21
94.0564
 31
0.0
  0
LINE
  5
18D
100
AcDbEntity
  8
1
  6
CONTINUOUS
 62
    30
100
AcDbLine
 10
470.4565
 20
123.7902
 30
0.0
 11
480.483
 21
94.0564
 31
0.0
  0
ARC
  5
18E
100
AcDbEntity
  8
1
  6
CONTINUOUS
 62
    30
100
AcDbCircle
 10
430.278967
 20
95.5901
 30
0.0
 40
4.8
210
0.0
220
0.0
230
1.0
100
AcDbArc
 50
270.0
 51
341.365917
  0
ARC
  5
18F
100
AcDbEntity
  8
1
  6
CONTINUOUS
 62
    30
100
AcDbCircle
 10
485.031324
 20
95.5901
 30
0.0
 40
4.8
210
0.0
220
0.0
230
1.0
100
AcDbArc
 50
198.634392
 51
270.0
  0
ARC
  5
190
100
AcDbEntity
  8
1
  6
CONTINUOUS
 62
    30
100
AcDbCircle
 10
449.402011
 20
122.2564
 30
0.0
 40
4.8
210
0.0
220
0.0
230
1.0
100
AcDbArc
 50
90.0
 51
161.364747
  0
ARC
  5
191
100
AcDbEntity
  8
1
  6
CONTINUOUS
 62
    30
100
AcDbCircle
 10
465.90815
 20
122.2564
 30
0.0
 40
4.8
210
0.0
220
0.0
230
1.0
100
AcDbArc
 50
18.63465
 51
90.0
  0
ARC
  5
192
100
AcDbEntity
  8
1
  6
CONTINUOUS
 62
    30
100
AcDbCircle
 10
420.843946
 20
92.449173
 30
0.0
 40
1.689302
210
0.0
220
0.0
230
1.0
100
AcDbArc
 50
153.985436
 51
259.144667
  0
ARC
  5
193
100
AcDbEntity
  8
1
  6
CONTINUOUS
 62
    30
100
AcDbCircle
 10
494.466254
 20
92.449173
 30
0.0
 40
1.689302
210
0.0
220
0.0
230
1.0
100
AcDbArc
 50
280.855333
 51
26.014564
  0
ELLIPSE
  5
194
100
AcDbEntity
  8
1
  6
HIDDEN
 62
    30
100
AcDbEllipse
 10
424.03325
 20
93.1901
 30
0.0
 11
4.7074500000000006
 21
0.0
 31
0.0
210
0.0
220
0.0
230
1.0
 40
0.50983
 41
0.0
 42
3.1415926535897931
  0
ELLIPSE
  5
195
100
AcDbEntity
  8
1
  6
HIDDEN
 62
    30
100
AcDbEllipse
 10
491.27695
 20
93.1901
 30
0.0
 11
-4.7074500000000006
 21
0.0000000000000006
 31
0.0
210
0.0
220
0.0
230
1.0
 40
0.50983
 41
3.1415926535897931
 42
0.0
  0
LINE
  5
196
100
AcDbEntity
  8
1
  6
CONTINUOUS
 62
    30
100
AcDbLine
 10
449.402
 20
131.8564
 30
0.0
 11
465.9082
 21
131.8564
 31
0.0
  0
LINE
  5
197
100
AcDbEntity
  8
1
  6
CONTINUOUS
 62
    30
100
AcDbLine
 10
486.5696
 20
165.7227
 30
0.0
 11
495.9844
 21
165.7227
 31
0.0
  0
LINE
  5
198
100
AcDbEntity
  8
1
  6
CONTINUOUS
 62
    30
100
AcDbLine
 10
428.7407
 20
165.7227
 30
0.0
 11
419.3258
 21
165.7227
 31
0.0
  0
LINE
  5
199
100
AcDbEntity
  8
1
  6
CONTINUOUS
 62
    30
100
AcDbLine
 10
430.279
 20
168.1227
 30
0.0
 11
420.5258
 21
168.1227
 31
0.0
  0
LINE
  5
19A
100
AcDbEntity
  8
1
  6
CONTINUOUS
 62
    30
100
AcDbLine
 10
485.0313
 20
168.1227
 30
0.0
 11
494.7844
 21
168.1227
 31
0.0
  0
LINE
  5
19B
100
AcDbEntity
  8
1
  6
CONTINUOUS
 62
    30
100
AcDbLine
 10
443.5551
 20
129.4564
 30
0.0
 11
432.152
 21
163.273
 31
0.0
  0
LINE
  5
19C
100
AcDbEntity
  8
1
  6
CONTINUOUS
 62
    30
100
AcDbLine
 10
471.7551
 20
129.4564
 30
0.0
 11
483.1583
 21
163.273
 31
0.0
  0
ARC
  5
19D
100
AcDbEntity
  8
1
  6
CONTINUOUS
 62
    30
100
AcDbCircle
 10
428.74071
 20
162.1227
 30
0.0
 40
3.6
210
0.0
220
0.0
230
1.0
100
AcDbArc
 50
18.634636
 51
90.0
  0
ARC
  5
19E
100
AcDbEntity
  8
1
  6
CONTINUOUS
 62
    30
100
AcDbCircle
 10
486.569618
 20
162.1227
 30
0.0
 40
3.6
210
0.0
220
0.0
230
1.0
100
AcDbArc
 50
90.0
 51
161.365483
  0
LINE
  5
19F
100
AcDbEntity
  8
1
  6
CONTINUOUS
 62
    30
100
AcDbLine
 10
444.8537
 20
135.1226
 30
0.0
 11
434.8273
 21
164.8564
 31
0.0
  0
LINE
  5
1A0
100
AcDbEntity
  8
1
  6
CONTINUOUS
 62
    30
100
AcDbLine
 10
470.4565
 20
135.1226
 30
0.0
 11
480.483
 21
164.8564
 31
0.0
  0
ARC
  5
1A1
100
AcDbEntity
  8
1
  6
CONTINUOUS
 62
    30
100
AcDbCircle
 10
430.278967
 20
163.3227
 30
0.0
 40
4.8
210
0.0
220
0.0
230
1.0
100
AcDbArc
 50
18.634083
 51
90.0
  0
ARC
  5
1A2
100
AcDbEntity
  8
1
  6
CONTINUOUS
 62
    30
100
AcDbCircle
 10
485.031324
 20
163.3227
 30
0.0
 40
4.8
210
0.0
220
0.0
230
1.0
100
AcDbArc
 50
90.0
 51
161.365608
  0
ARC
  5
1A3
100
AcDbEntity
  8
1
  6
CONTINUOUS
 62
    30
100
AcDbCircle
 10
449.402011
 20
136.6564
 30
0.0
 40
4.8
210
0.0
220
0.0
230
1.0
100
AcDbArc
 50
198.635253
 51
270.0
  0
ARC
  5
1A4
100
AcDbEntity
  8
1
  6
CONTINUOUS
 62
    30
100
AcDbCircle
 10
465.90815
 20
136.6564
 30
0.0
 40
4.8
210
0.0
220
0.0
230
1.0
100
AcDbArc
 50
270.0
 51
341.36535
  0
ARC
  5
1A5
100
AcDbEntity
  8
1
  6
CONTINUOUS
 62
    30
100
AcDbCircle
 10
420.843946
 20
166.463627
 30
0.0
 40
1.689302
210
0.0
220
0.0
230
1.0
100
AcDbArc
 50
100.855333
 51
206.014564
  0
ARC
  5
1A6
100
AcDbEntity
  8
1
  6
CONTINUOUS
 62
    30
100
AcDbCircle
 10
494.466254
 20
166.463627
 30
0.0
 40
1.689302
210
0.0
220
0.0
230
1.0
100
AcDbArc
 50
333.985436
 51
79.144667
  0
ELLIPSE
  5
1A7
100
AcDbEntity
  8
1
  6
HIDDEN
 62
    30
100
AcDbEllipse
 10
424.03325
 20
165.7227
 30
0.0
 11
4.7074500000000006
 21
0.0
 31
0.0
210
0.0
220
0.0
230
1.0
 40
0.50983
 41
3.1415926535897931
 42
0.0
  0
ELLIPSE
  5
1A8
100
AcDbEntity
  8
1
  6
HIDDEN
 62
    30
100
AcDbEllipse
 10
491.27695
 20
165.7227
 30
0.0
 11
-4.7074500000000006
 21
0.0000000000000006
 31
0.0
210
0.0
220
0.0
230
1.0
 40
0.50983
 41
0.0
 42
3.1415926535897931
  0
LINE
  5
1A9
100
AcDbEntity
  8
1
  6
CONTINUOUS
 62
    30
100
AcDbLine
 10
450.7551
 20
130.6564
 30
0.0
 11
464.5551
 21
130.6564
 31
0.0
  0
LINE
  5
1AA
100
AcDbEntity
  8
1
  6
CONTINUOUS
 62
    30
100
AcDbLine
 10
450.7551
 20
128.2564
 30
0.0
 11
464.5551
 21
128.2564
 31
0.0
  0
ARC
  5
1AB
100
AcDbEntity
  8
1
  6
CONTINUOUS
 62
    30
100
AcDbCircle
 10
450.693346
 20
129.4564
 30
0.0
 40
1.201588
210
0.0
220
0.0
230
1.0
100
AcDbArc
 50
87.054078
 51
272.945922
  0
ARC
  5
1AC
100
AcDbEntity
  8
1
  6
CONTINUOUS
 62
    30
100
AcDbCircle
 10
464.616854
 20
129.4564
 30
0.0
 40
1.201588
210
0.0
220
0.0
230
1.0
100
AcDbArc
 50
267.054078
 51
92.945922
  0
LINE
  5
1AD
100
AcDbEntity
  8
1
  6
CONTINUOUS
 62
    30
100
AcDbLine
 10
454.6551
 20
130.6564
 30
0.0
 11
454.6551
 21
128.2564
 31
0.0
  0
LINE
  5
1AE
100
AcDbEntity
  8
1
  6
CONTINUOUS
 62
    30
100
AcDbLine
 10
460.6551
 20
130.6564
 30
0.0
 11
460.6551
 21
128.2564
 31
0.0
  0
LINE
  5
1AF
100
AcDbEntity
  8
1
  6
CONTINUOUS
 62
    30
100
AcDbLine
 10
443.5551
 20
129.4564
 30
0.0
 11
449.4918
 21
129.4564
 31
0.0
  0
LINE
  5
1B0
100
AcDbEntity
  8
1
  6
CONTINUOUS
 62
    30
100
AcDbLine
 10
465.8184
 20
129.4564
 30
0.0
 11
471.7551
 21
129.4564
 31
0.0
  0
LINE
  5
1B1
100
AcDbEntity
  8
1
  6
CONTINUOUS
 62
    30
100
AcDbLine
 10
320.4916
 20
154.3227
 30
0.0
 11
326.4916
 21
154.3227
 31
0.0
  0
LINE
  5
1B2
100
AcDbEntity
  8
1
  6
CONTINUOUS
 62
    30
100
AcDbLine
 10
320.4916
 20
153.1227
 30
0.0
 11
326.4916
 21
153.1227
 31
0.0
  0
LINE
  5
1B3
100
AcDbEntity
  8
1
  6
CONTINUOUS
 62
    30
100
AcDbLine
 10
320.4916
 20
151.9227
 30
0.0
 11
326.4916
 21
151.9227
 31
0.0
  0
LINE
  5
1B4
100
AcDbEntity
  8
1
  6
CONTINUOUS
 62
    30
100
AcDbLine
 10
318.0916
 20
148.3227
 30
0.0
 11
318.0916
 21
142.3227
 31
0.0
  0
LINE
  5
1B5
100
AcDbEntity
  8
1
  6
CONTINUOUS
 62
    30
100
AcDbLine
 10
318.0916
 20
137.5227
 30
0.0
 11
318.0916
 21
132.7227
 31
0.0
  0
LINE
  5
1B6
100
AcDbEntity
  8
1
  6
CONTINUOUS
 62
    30
100
AcDbLine
 10
328.8916
 20
148.3227
 30
0.0
 11
328.8916
 21
142.3227
 31
0.0
  0
LINE
  5
1B7
100
AcDbEntity
  8
1
  6
CONTINUOUS
 62
    30
100
AcDbLine
 10
328.8916
 20
137.5227
 30
0.0
 11
328.8916
 21
132.7227
 31
0.0
  0
LINE
  5
1B8
100
AcDbEntity
  8
1
  6
CONTINUOUS
 62
    30
100
AcDbLine
 10
320.4916
 20
141.1227
 30
0.0
 11
320.4916
 21
138.7227
 31
0.0
  0
LINE
  5
1B9
100
AcDbEntity
  8
1
  6
CONTINUOUS
 62
    30
100
AcDbLine
 10
320.4916
 20
137.5227
 30
0.0
 11
320.4916
 21
131.5227
 31
0.0
  0
LINE
  5
1BA
100
AcDbEntity
  8
1
  6
CONTINUOUS
 62
    30
100
AcDbLine
 10
326.4916
 20
141.1227
 30
0.0
 11
326.4916
 21
138.7227
 31
0.0
  0
LINE
  5
1BB
100
AcDbEntity
  8
1
  6
CONTINUOUS
 62
    30
100
AcDbLine
 10
326.4916
 20
137.5227
 30
0.0
 11
326.4916
 21
131.5227
 31
0.0
  0
LINE
  5
1BC
100
AcDbEntity
  8
1
  6
CONTINUOUS
 62
    30
100
AcDbLine
 10
320.4916
 20
154.3227
 30
0.0
 11
320.4916
 21
149.5227
 31
0.0
  0
LINE
  5
1BD
100
AcDbEntity
  8
1
  6
CONTINUOUS
 62
    30
100
AcDbLine
 10
320.4916
 20
149.5227
 30
0.0
 11
320.4916
 21
142.3227
 31
0.0
  0
LINE
  5
1BE
100
AcDbEntity
  8
1
  6
CONTINUOUS
 62
    30
100
AcDbLine
 10
320.4916
 20
150.7227
 30
0.0
 11
326.2242
 21
150.7227
 31
0.0
  0
LINE
  5
1BF
100
AcDbEntity
  8
1
  6
CONTINUOUS
 62
    30
100
AcDbLine
 10
326.4538
 20
150.7227
 30
0.0
 11
326.4916
 21
150.7227
 31
0.0
  0
LINE
  5
1C0
100
AcDbEntity
  8
1
  6
CONTINUOUS
 62
    30
100
AcDbLine
 10
326.4916
 20
154.3227
 30
0.0
 11
326.4916
 21
149.5227
 31
0.0
  0
LINE
  5
1C1
100
AcDbEntity
  8
1
  6
CONTINUOUS
 62
    30
100
AcDbLine
 10
326.4916
 20
149.5227
 30
0.0
 11
326.4916
 21
142.3227
 31
0.0
  0
LINE
  5
1C2
100
AcDbEntity
  8
1
  6
CONTINUOUS
 62
    30
100
AcDbLine
 10
318.6916
 20
149.5227
 30
0.0
 11
318.0916
 21
148.3227
 31
0.0
  0
LINE
  5
1C3
100
AcDbEntity
  8
1
  6
CONTINUOUS
 62
    30
100
AcDbLine
 10
328.2916
 20
149.5227
 30
0.0
 11
328.8916
 21
148.3227
 31
0.0
  0
LINE
  5
1C4
100
AcDbEntity
  8
1
  6
CONTINUOUS
 62
    30
100
AcDbLine
 10
318.6916
 20
131.5227
 30
0.0
 11
318.0916
 21
132.7227
 31
0.0
  0
LINE
  5
1C5
100
AcDbEntity
  8
1
  6
CONTINUOUS
 62
    30
100
AcDbLine
 10
328.2916
 20
131.5227
 30
0.0
 11
328.8916
 21
132.7227
 31
0.0
  0
LINE
  5
1C6
100
AcDbEntity
  8
1
  6
CONTINUOUS
 62
    30
100
AcDbLine
 10
321.0916
 20
155.5227
 30
0.0
 11
325.8916
 21
155.5227
 31
0.0
  0
LINE
  5
1C7
100
AcDbEntity
  8
1
  6
CONTINUOUS
 62
    30
100
AcDbLine
 10
321.0916
 20
155.5227
 30
0.0
 11
320.4916
 21
154.3227
 31
0.0
  0
LINE
  5
1C8
100
AcDbEntity
  8
1
  6
CONTINUOUS
 62
    30
100
AcDbLine
 10
325.8916
 20
155.5227
 30
0.0
 11
326.4916
 21
154.3227
 31
0.0
  0
LINE
  5
1C9
100
AcDbEntity
  8
1
  6
CONTINUOUS
 62
    30
100
AcDbLine
 10
318.6916
 20
131.5227
 30
0.0
 11
328.2916
 21
131.5227
 31
0.0
  0
LINE
  5
1CA
100
AcDbEntity
  8
1
  6
CONTINUOUS
 62
    30
100
AcDbLine
 10
318.6916
 20
149.5227
 30
0.0
 11
328.2916
 21
149.5227
 31
0.0
  0
POLYLINE
  5
1CB
100
AcDbEntity
  8
1
  6
CONTINUOUS
 62
    30
100
AcDb2dPolyline
 66
     1
 10
0.0
 20
0.0
 30
0.0
 70
     1
  0
VERTEX
  5
1CC
100
AcDbEntity
  8
1
  6
CONTINUOUS
 62
    30
100
AcDbVertex
100
AcDb2dVertex
 10
318.6916
 20
149.5227
 30
0.0
  0
VERTEX
  5
1CD
100
AcDbEntity
  8
1
  6
CONTINUOUS
 62
    30
100
AcDbVertex
100
AcDb2dVertex
 10
322.2916
 20
149.5227
 30
0.0
  0
VERTEX
  5
1CE
100
AcDbEntity
  8
1
  6
CONTINUOUS
 62
    30
100
AcDbVertex
100
AcDb2dVertex
 10
320.4916
 20
147.7227
 30
0.0
  0
VERTEX
  5
1CF
100
AcDbEntity
  8
1
  6
CONTINUOUS
 62
    30
100
AcDbVertex
100
AcDb2dVertex
 10
318.6916
 20
149.5227
 30
0.0
  0
SEQEND
  5
1D0
100
AcDbEntity
  8
1
  6
CONTINUOUS
 62
    30
  0
POLYLINE
  5
1D1
100
AcDbEntity
  8
1
  6
CONTINUOUS
 62
    30
100
AcDb2dPolyline
 66
     1
 10
0.0
 20
0.0
 30
0.0
 70
     1
  0
VERTEX
  5
1D2
100
AcDbEntity
  8
1
  6
CONTINUOUS
 62
    30
100
AcDbVertex
100
AcDb2dVertex
 10
328.2916
 20
149.5227
 30
0.0
  0
VERTEX
  5
1D3
100
AcDbEntity
  8
1
  6
CONTINUOUS
 62
    30
100
AcDbVertex
100
AcDb2dVertex
 10
324.6916
 20
149.5227
 30
0.0
  0
VERTEX
  5
1D4
100
AcDbEntity
  8
1
  6
CONTINUOUS
 62
    30
100
AcDbVertex
100
AcDb2dVertex
 10
326.4916
 20
147.7227
 30
0.0
  0
VERTEX
  5
1D5
100
AcDbEntity
  8
1
  6
CONTINUOUS
 62
    30
100
AcDbVertex
100
AcDb2dVertex
 10
328.2916
 20
149.5227
 30
0.0
  0
SEQEND
  5
1D6
100
AcDbEntity
  8
1
  6
CONTINUOUS
 62
    30
  0
POLYLINE
  5
1D7
100
AcDbEntity
  8
1
  6
CONTINUOUS
 62
    30
100
AcDb2dPolyline
 66
     1
 10
0.0
 20
0.0
 30
0.0
 70
     1
  0
VERTEX
  5
1D8
100
AcDbEntity
  8
1
  6
CONTINUOUS
 62
    30
100
AcDbVertex
100
AcDb2dVertex
 10
320.4916
 20
133.3227
 30
0.0
  0
VERTEX
  5
1D9
100
AcDbEntity
  8
1
  6
CONTINUOUS
 62
    30
100
AcDbVertex
100
AcDb2dVertex
 10
318.6916
 20
131.5227
 30
0.0
  0
VERTEX
  5
1DA
100
AcDbEntity
  8
1
  6
CONTINUOUS
 62
    30
100
AcDbVertex
100
AcDb2dVertex
 10
322.2916
 20
131.5227
 30
0.0
  0
VERTEX
  5
1DB
100
AcDbEntity
  8
1
  6
CONTINUOUS
 62
    30
100
AcDbVertex
100
AcDb2dVertex
 10
320.4916
 20
133.3227
 30
0.0
  0
SEQEND
  5
1DC
100
AcDbEntity
  8
1
  6
CONTINUOUS
 62
    30
  0
POLYLINE
  5
1DD
100
AcDbEntity
  8
1
  6
CONTINUOUS
 62
    30
100
AcDb2dPolyline
 66
     1
 10
0.0
 20
0.0
 30
0.0
 70
     1
  0
VERTEX
  5
1DE
100
AcDbEntity
  8
1
  6
CONTINUOUS
 62
    30
100
AcDbVertex
100
AcDb2dVertex
 10
324.6916
 20
131.5227
 30
0.0
  0
VERTEX
  5
1DF
100
AcDbEntity
  8
1
  6
CONTINUOUS
 62
    30
100
AcDbVertex
100
AcDb2dVertex
 10
326.4916
 20
133.3227
 30
0.0
  0
VERTEX
  5
1E0
100
AcDbEntity
  8
1
  6
CONTINUOUS
 62
    30
100
AcDbVertex
100
AcDb2dVertex
 10
328.2916
 20
131.5227
 30
0.0
  0
VERTEX
  5
1E1
100
AcDbEntity
  8
1
  6
CONTINUOUS
 62
    30
100
AcDbVertex
100
AcDb2dVertex
 10
324.6916
 20
131.5227
 30
0.0
  0
SEQEND
  5
1E2
100
AcDbEntity
  8
1
  6
CONTINUOUS
 62
    30
  0
LINE
  5
1E3
100
AcDbEntity
  8
1
  6
CONTINUOUS
 62
    30
100
AcDbLine
 10
463.0551
 20
137.8564
 30
0.0
 11
463.0551
 21
131.8564
 31
0.0
  0
LINE
  5
1E4
100
AcDbEntity
  8
1
  6
CONTINUOUS
 62
    30
100
AcDbLine
 10
454.6551
 20
143.8564
 30
0.0
 11
460.6551
 21
143.8564
 31
0.0
  0
LINE
  5
1E5
100
AcDbEntity
  8
1
  6
CONTINUOUS
 62
    30
100
AcDbLine
 10
454.6551
 20
142.6564
 30
0.0
 11
460.6551
 21
142.6564
 31
0.0
  0
LINE
  5
1E6
100
AcDbEntity
  8
1
  6
CONTINUOUS
 62
    30
100
AcDbLine
 10
454.6551
 20
141.4564
 30
0.0
 11
460.6551
 21
141.4564
 31
0.0
  0
LINE
  5
1E7
100
AcDbEntity
  8
1
  6
CONTINUOUS
 62
    30
100
AcDbLine
 10
452.2551
 20
137.8564
 30
0.0
 11
452.2551
 21
131.8564
 31
0.0
  0
LINE
  5
1E8
100
AcDbEntity
  8
1
  6
CONTINUOUS
 62
    30
100
AcDbLine
 10
452.2551
 20
127.0564
 30
0.0
 11
452.2551
 21
122.2564
 31
0.0
  0
LINE
  5
1E9
100
AcDbEntity
  8
1
  6
CONTINUOUS
 62
    30
100
AcDbLine
 10
463.0551
 20
127.0564
 30
0.0
 11
463.0551
 21
122.2564
 31
0.0
  0
LINE
  5
1EA
100
AcDbEntity
  8
1
  6
CONTINUOUS
 62
    30
100
AcDbLine
 10
454.6551
 20
127.0564
 30
0.0
 11
454.6551
 21
121.0564
 31
0.0
  0
LINE
  5
1EB
100
AcDbEntity
  8
1
  6
CONTINUOUS
 62
    30
100
AcDbLine
 10
460.6551
 20
127.0564
 30
0.0
 11
460.6551
 21
121.0564
 31
0.0
  0
LINE
  5
1EC
100
AcDbEntity
  8
1
  6
CONTINUOUS
 62
    30
100
AcDbLine
 10
454.6551
 20
143.8564
 30
0.0
 11
454.6551
 21
139.0564
 31
0.0
  0
LINE
  5
1ED
100
AcDbEntity
  8
1
  6
CONTINUOUS
 62
    30
100
AcDbLine
 10
454.6551
 20
139.0564
 30
0.0
 11
454.6551
 21
131.8564
 31
0.0
  0
LINE
  5
1EE
100
AcDbEntity
  8
1
  6
CONTINUOUS
 62
    30
100
AcDbLine
 10
454.6551
 20
140.2564
 30
0.0
 11
460.3877
 21
140.2564
 31
0.0
  0
LINE
  5
1EF
100
AcDbEntity
  8
1
  6
CONTINUOUS
 62
    30
100
AcDbLine
 10
460.6551
 20
143.8564
 30
0.0
 11
460.6551
 21
139.0564
 31
0.0
  0
LINE
  5
1F0
100
AcDbEntity
  8
1
  6
CONTINUOUS
 62
    30
100
AcDbLine
 10
460.6551
 20
139.0564
 30
0.0
 11
460.6551
 21
131.8564
 31
0.0
  0
LINE
  5
1F1
100
AcDbEntity
  8
1
  6
CONTINUOUS
 62
    30
100
AcDbLine
 10
452.8551
 20
139.0564
 30
0.0
 11
452.2551
 21
137.8564
 31
0.0
  0
LINE
  5
1F2
100
AcDbEntity
  8
1
  6
CONTINUOUS
 62
    30
100
AcDbLine
 10
462.4551
 20
139.0564
 30
0.0
 11
463.0551
 21
137.8564
 31
0.0
  0
LINE
  5
1F3
100
AcDbEntity
  8
1
  6
CONTINUOUS
 62
    30
100
AcDbLine
 10
452.8551
 20
121.0564
 30
0.0
 11
452.2551
 21
122.2564
 31
0.0
  0
LINE
  5
1F4
100
AcDbEntity
  8
1
  6
CONTINUOUS
 62
    30
100
AcDbLine
 10
462.4551
 20
121.0564
 30
0.0
 11
463.0551
 21
122.2564
 31
0.0
  0
LINE
  5
1F5
100
AcDbEntity
  8
1
  6
CONTINUOUS
 62
    30
100
AcDbLine
 10
455.2551
 20
145.0564
 30
0.0
 11
460.0551
 21
145.0564
 31
0.0
  0
LINE
  5
1F6
100
AcDbEntity
  8
1
  6
CONTINUOUS
 62
    30
100
AcDbLine
 10
455.2551
 20
145.0564
 30
0.0
 11
454.6551
 21
143.8564
 31
0.0
  0
LINE
  5
1F7
100
AcDbEntity
  8
1
  6
CONTINUOUS
 62
    30
100
AcDbLine
 10
460.0551
 20
145.0564
 30
0.0
 11
460.6551
 21
143.8564
 31
0.0
  0
LINE
  5
1F8
100
AcDbEntity
  8
1
  6
CONTINUOUS
 62
    30
100
AcDbLine
 10
452.8551
 20
121.0564
 30
0.0
 11
462.4551
 21
121.0564
 31
0.0
  0
LINE
  5
1F9
100
AcDbEntity
  8
1
  6
CONTINUOUS
 62
    30
100
AcDbLine
 10
452.8551
 20
139.0564
 30
0.0
 11
462.4551
 21
139.0564
 31
0.0
  0
POLYLINE
  5
1FA
100
AcDbEntity
  8
1
  6
CONTINUOUS
 62
    30
100
AcDb2dPolyline
 66
     1
 10
0.0
 20
0.0
 30
0.0
 70
     1
  0
VERTEX
  5
1FB
100
AcDbEntity
  8
1
  6
CONTINUOUS
 62
    30
100
AcDbVertex
100
AcDb2dVertex
 10
452.8551
 20
139.0564
 30
0.0
  0
VERTEX
  5
1FC
100
AcDbEntity
  8
1
  6
CONTINUOUS
 62
    30
100
AcDbVertex
100
AcDb2dVertex
 10
456.4551
 20
139.0564
 30
0.0
  0
VERTEX
  5
1FD
100
AcDbEntity
  8
1
  6
CONTINUOUS
 62
    30
100
AcDbVertex
100
AcDb2dVertex
 10
454.6551
 20
137.2564
 30
0.0
  0
VERTEX
  5
1FE
100
AcDbEntity
  8
1
  6
CONTINUOUS
 62
    30
100
AcDbVertex
100
AcDb2dVertex
 10
452.8551
 20
139.0564
 30
0.0
  0
SEQEND
  5
1FF
100
AcDbEntity
  8
1
  6
CONTINUOUS
 62
    30
  0
POLYLINE
  5
200
100
AcDbEntity
  8
1
  6
CONTINUOUS
 62
    30
100
AcDb2dPolyline
 66
     1
 10
0.0
 20
0.0
 30
0.0
 70
     1
  0
VERTEX
  5
201
100
AcDbEntity
  8
1
  6
CONTINUOUS
 62
    30
100
AcDbVertex
100
AcDb2dVertex
 10
462.4551
 20
139.0564
 30
0.0
  0
VERTEX
  5
202
100
AcDbEntity
  8
1
  6
CONTINUOUS
 62
    30
100
AcDbVertex
100
AcDb2dVertex
 10
458.8551
 20
139.0564
 30
0.0
  0
VERTEX
  5
203
100
AcDbEntity
  8
1
  6
CONTINUOUS
 62
    30
100
AcDbVertex
100
AcDb2dVertex
 10
460.6551
 20
137.2564
 30
0.0
  0
VERTEX
  5
204
100
AcDbEntity
  8
1
  6
CONTINUOUS
 62
    30
100
AcDbVertex
100
AcDb2dVertex
 10
462.4551
 20
139.0564
 30
0.0
  0
SEQEND
  5
205
100
AcDbEntity
  8
1
  6
CONTINUOUS
 62
    30
  0
POLYLINE
  5
206
100
AcDbEntity
  8
1
  6
CONTINUOUS
 62
    30
100
AcDb2dPolyline
 66
     1
 10
0.0
 20
0.0
 30
0.0
 70
     1
  0
VERTEX
  5
207
100
AcDbEntity
  8
1
  6
CONTINUOUS
 62
    30
100
AcDbVertex
100
AcDb2dVertex
 10
454.6551
 20
122.8564
 30
0.0
  0
VERTEX
  5
208
100
AcDbEntity
  8
1
  6
CONTINUOUS
 62
    30
100
AcDbVertex
100
AcDb2dVertex
 10
452.8551
 20
121.0564
 30
0.0
  0
VERTEX
  5
209
100
AcDbEntity
  8
1
  6
CONTINUOUS
 62
    30
100
AcDbVertex
100
AcDb2dVertex
 10
456.4551
 20
121.0564
 30
0.0
  0
VERTEX
  5
20A
100
AcDbEntity
  8
1
  6
CONTINUOUS
 62
    30
100
AcDbVertex
100
AcDb2dVertex
 10
454.6551
 20
122.8564
 30
0.0
  0
SEQEND
  5
20B
100
AcDbEntity
  8
1
  6
CONTINUOUS
 62
    30
  0
POLYLINE
  5
20C
100
AcDbEntity
  8
1
  6
CONTINUOUS
 62
    30
100
AcDb2dPolyline
 66
     1
 10
0.0
 20
0.0
 30
0.0
 70
     1
  0
VERTEX
  5
20D
100
AcDbEntity
  8
1
  6
CONTINUOUS
 62
    30
100
AcDbVertex
100
AcDb2dVertex
 10
458.8551
 20
121.0564
 30
0.0
  0
VERTEX
  5
20E
100
AcDbEntity
  8
1
  6
CONTINUOUS
 62
    30
100
AcDbVertex
100
AcDb2dVertex
 10
460.6551
 20
122.8564
 30
0.0
  0
VERTEX
  5
20F
100
AcDbEntity
  8
1
  6
CONTINUOUS
 62
    30
100
AcDbVertex
100
AcDb2dVertex
 10
462.4551
 20
121.0564
 30
0.0
  0
VERTEX
  5
210
100
AcDbEntity
  8
1
  6
CONTINUOUS
 62
    30
100
AcDbVertex
100
AcDb2dVertex
 10
458.8551
 20
121.0564
 30
0.0
  0
SEQEND
  5
211
100
AcDbEntity
  8
1
  6
CONTINUOUS
 62
    30
  0
LINE
  5
212
100
AcDbEntity
  8
1
  6
CONTINUOUS
 62
     7
100
AcDbLine
 10
320.4916
 20
152.3402
 30
0.0
 11
296.4274
 21
152.3402
 31
0.0
  0
INSERT
  5
213
100
AcDbEntity
  8
1
  6
CONTINUOUS
 62
     1
100
AcDbBlockReference
  2
LDR
 10
320.4916
 20
152.3402
 30
0.0
 41
240.0
 42
240.0
210
0.0
220
0.0
230
1.0
  0
LINE
  5
214
100
AcDbEntity
  8
1
  6
CONTINUOUS
 62
     7
100
AcDbLine
 10
358.2916
 20
168.1227
 30
0.0
 11
379.8916
 21
168.1227
 31
0.0
  0
LINE
  5
215
100
AcDbEntity
  8
1
  6
CONTINUOUS
 62
     7
100
AcDbLine
 10
358.2916
 20
111.7227
 30
0.0
 11
379.8916
 21
111.7227
 31
0.0
  0
LINE
  5
216
100
AcDbEntity
  8
1
  6
CONTINUOUS
 62
     7
100
AcDbLine
 10
338.7916
 20
139.9227
 30
0.0
 11
379.8916
 21
139.9227
 31
0.0
  0
LINE
  5
217
100
AcDbEntity
  8
1
  6
CONTINUOUS
 62
     7
100
AcDbLine
 10
378.6916
 20
168.1227
 30
0.0
 11
378.6916
 21
139.9227
 31
0.0
  0
LINE
  5
218
100
AcDbEntity
  8
1
  6
CONTINUOUS
 62
     7
100
AcDbLine
 10
378.6916
 20
139.9227
 30
0.0
 11
378.6916
 21
111.7227
 31
0.0
  0
INSERT
  5
219
100
AcDbEntity
  8
1
  6
CONTINUOUS
 62
     1
100
AcDbBlockReference
  2
LDR
 10
378.6916
 20
168.1227
 30
0.0
 41
240.0
 42
240.0
 50
90.0
210
0.0
220
0.0
230
1.0
  0
INSERT
  5
21A
100
AcDbEntity
  8
1
  6
CONTINUOUS
 62
     1
100
AcDbBlockReference
  2
LDR
 10
378.6916
 20
139.9227
 30
0.0
 41
240.0
 42
240.0
 50
270.0
210
0.0
220
0.0
230
1.0
  0
INSERT
  5
21B
100
AcDbEntity
  8
1
  6
CONTINUOUS
 62
     1
100
AcDbBlockReference
  2
LDR
 10
378.6916
 20
139.9227
 30
0.0
 41
240.0
 42
240.0
 50
270.0
210
0.0
220
0.0
230
1.0
  0
INSERT
  5
21C
100
AcDbEntity
  8
1
  6
CONTINUOUS
 62
     1
100
AcDbBlockReference
  2
LDR
 10
378.6916
 20
139.9227
 30
0.0
 41
240.0
 42
240.0
 50
90.0
210
0.0
220
0.0
230
1.0
  0
INSERT
  5
21D
100
AcDbEntity
  8
1
  6
CONTINUOUS
 62
     1
100
AcDbBlockReference
  2
LDR
 10
378.6916
 20
139.9227
 30
0.0
 41
240.0
 42
240.0
 50
90.0
210
0.0
220
0.0
230
1.0
  0
INSERT
  5
21E
100
AcDbEntity
  8
1
  6
CONTINUOUS
 62
     1
100
AcDbBlockReference
  2
LDR
 10
378.6916
 20
111.7227
 30
0.0
 41
240.0
 42
240.0
 50
270.0
210
0.0
220
0.0
230
1.0
  0
LINE
  5
21F
100
AcDbEntity
  8
1
  6
CONTINUOUS
 62
     7
100
AcDbLine
 10
289.8916
 20
110.5227
 30
0.0
 11
289.8916
 21
96.1227
 31
0.0
  0
LINE
  5
220
100
AcDbEntity
  8
1
  6
CONTINUOUS
 62
     7
100
AcDbLine
 10
357.0916
 20
110.5227
 30
0.0
 11
357.0916
 21
96.1227
 31
0.0
  0
LINE
  5
221
100
AcDbEntity
  8
1
  6
CONTINUOUS
 62
     7
100
AcDbLine
 10
289.8916
 20
97.3227
 30
0.0
 11
357.0916
 21
97.3227
 31
0.0
  0
INSERT
  5
222
100
AcDbEntity
  8
1
  6
CONTINUOUS
 62
     1
100
AcDbBlockReference
  2
LDR
 10
289.8916
 20
97.3227
 30
0.0
 41
240.0
 42
240.0
 50
180.0
210
0.0
220
0.0
230
1.0
  0
INSERT
  5
223
100
AcDbEntity
  8
1
  6
CONTINUOUS
 62
     1
100
AcDbBlockReference
  2
LDR
 10
289.8916
 20
97.3227
 30
0.0
 41
240.0
 42
240.0
 50
180.0
210
0.0
220
0.0
230
1.0
  0
INSERT
  5
224
100
AcDbEntity
  8
1
  6
CONTINUOUS
 62
     1
100
AcDbBlockReference
  2
LDR
 10
357.0916
 20
97.3227
 30
0.0
 41
240.0
 42
240.0
210
0.0
220
0.0
230
1.0
  0
LINE
  5
225
100
AcDbEntity
  8
1
  6
CONTINUOUS
 62
     7
100
AcDbLine
 10
454.5727
 20
141.9785
 30
0.0
 11
425.7727
 21
141.9785
 31
0.0
  0
INSERT
  5
226
100
AcDbEntity
  8
1
  6
CONTINUOUS
 62
     1
100
AcDbBlockReference
  2
LDR
 10
454.5727
 20
141.9785
 30
0.0
 41
240.0
 42
240.0
210
0.0
220
0.0
230
1.0
  0
LINE
  5
227
100
AcDbEntity
  8
1
  6
CONTINUOUS
 62
     7
100
AcDbLine
 10
497.1844
 20
168.1227
 30
0.0
 11
518.7844
 21
168.1227
 31
0.0
  0
LINE
  5
228
100
AcDbEntity
  8
1
  6
CONTINUOUS
 62
     7
100
AcDbLine
 10
497.1844
 20
90.7901
 30
0.0
 11
518.7844
 21
90.7901
 31
0.0
  0
LINE
  5
229
100
AcDbEntity
  8
1
  6
CONTINUOUS
 62
     7
100
AcDbLine
 10
474.1551
 20
129.4564
 30
0.0
 11
518.7844
 21
129.4564
 31
0.0
  0
LINE
  5
22A
100
AcDbEntity
  8
1
  6
CONTINUOUS
 62
     7
100
AcDbLine
 10
517.5844
 20
168.1227
 30
0.0
 11
517.5844
 21
129.4564
 31
0.0
  0
LINE
  5
22B
100
AcDbEntity
  8
1
  6
CONTINUOUS
 62
     7
100
AcDbLine
 10
517.5844
 20
129.4564
 30
0.0
 11
517.5844
 21
90.7901
 31
0.0
  0
INSERT
  5
22C
100
AcDbEntity
  8
1
  6
CONTINUOUS
 62
     1
100
AcDbBlockReference
  2
LDR
 10
517.5844
 20
168.1227
 30
0.0
 41
240.0
 42
240.0
 50
90.0
210
0.0
220
0.0
230
1.0
  0
INSERT
  5
22D
100
AcDbEntity
  8
1
  6
CONTINUOUS
 62
     1
100
AcDbBlockReference
  2
LDR
 10
517.5844
 20
168.1227
 30
0.0
 41
240.0
 42
240.0
 50
90.0
210
0.0
220
0.0
230
1.0
  0
INSERT
  5
22E
100
AcDbEntity
  8
1
  6
CONTINUOUS
 62
     1
100
AcDbBlockReference
  2
LDR
 10
517.5844
 20
129.4564
 30
0.0
 41
240.0
 42
240.0
 50
270.0
210
0.0
220
0.0
230
1.0
  0
INSERT
  5
22F
100
AcDbEntity
  8
1
  6
CONTINUOUS
 62
     1
100
AcDbBlockReference
  2
LDR
 10
517.5844
 20
129.4564
 30
0.0
 41
240.0
 42
240.0
 50
270.0
210
0.0
220
0.0
230
1.0
  0
INSERT
  5
230
100
AcDbEntity
  8
1
  6
CONTINUOUS
 62
     1
100
AcDbBlockReference
  2
LDR
 10
517.5844
 20
129.4564
 30
0.0
 41
240.0
 42
240.0
 50
90.0
210
0.0
220
0.0
230
1.0
  0
INSERT
  5
231
100
AcDbEntity
  8
1
  6
CONTINUOUS
 62
     1
100
AcDbBlockReference
  2
LDR
 10
517.5844
 20
129.4564
 30
0.0
 41
240.0
 42
240.0
 50
90.0
210
0.0
220
0.0
230
1.0
  0
INSERT
  5
232
100
AcDbEntity
  8
1
  6
CONTINUOUS
 62
     1
100
AcDbBlockReference
  2
LDR
 10
517.5844
 20
90.7901
 30
0.0
 41
240.0
 42
240.0
 50
270.0
210
0.0
220
0.0
230
1.0
  0
LINE
  5
233
100
AcDbEntity
  8
1
  6
CONTINUOUS
 62
     7
100
AcDbLine
 10
419.3258
 20
89.5901
 30
0.0
 11
419.3258
 21
75.1901
 31
0.0
  0
LINE
  5
234
100
AcDbEntity
  8
1
  6
CONTINUOUS
 62
     7
100
AcDbLine
 10
495.9844
 20
89.5901
 30
0.0
 11
495.9844
 21
75.1901
 31
0.0
  0
LINE
  5
235
100
AcDbEntity
  8
1
  6
CONTINUOUS
 62
     7
100
AcDbLine
 10
419.3258
 20
76.3901
 30
0.0
 11
495.9844
 21
76.3901
 31
0.0
  0
INSERT
  5
236
100
AcDbEntity
  8
1
  6
CONTINUOUS
 62
     1
100
AcDbBlockReference
  2
LDR
 10
419.3258
 20
76.3901
 30
0.0
 41
240.0
 42
240.0
 50
180.0
210
0.0
220
0.0
230
1.0
  0
INSERT
  5
237
100
AcDbEntity
  8
1
  6
CONTINUOUS
 62
     1
100
AcDbBlockReference
  2
LDR
 10
419.3258
 20
76.3901
 30
0.0
 41
240.0
 42
240.0
 50
180.0
210
0.0
220
0.0
230
1.0
  0
INSERT
  5
238
100
AcDbEntity
  8
1
  6
CONTINUOUS
 62
     1
100
AcDbBlockReference
  2
LDR
 10
495.9844
 20
76.3901
 30
0.0
 41
240.0
 42
240.0
210
0.0
220
0.0
230
1.0
  0
LINE
  5
239
100
AcDbEntity
  8
1
  6
CONTINUOUS
 62
     6
100
AcDbLine
 10
445.2598
 20
428.5198
 30
0.0
 11
505.2598
 21
428.5198
 31
0.0
  0
LINE
  5
23A
100
AcDbEntity
  8
1
  6
CONTINUOUS
 62
     6
100
AcDbLine
 10
505.2598
 20
428.5198
 30
0.0
 11
505.2598
 21
356.5198
 31
0.0
  0
LINE
  5
23B
100
AcDbEntity
  8
1
  6
CONTINUOUS
 62
     6
100
AcDbLine
 10
505.2598
 20
356.5198
 30
0.0
 11
445.2598
 21
356.5198
 31
0.0
  0
LINE
  5
23C
100
AcDbEntity
  8
1
  6
CONTINUOUS
 62
     6
100
AcDbLine
 10
445.2598
 20
356.5198
 30
0.0
 11
445.2598
 21
428.5198
 31
0.0
  0
LINE
  5
23D
100
AcDbEntity
  8
1
  6
CONTINUOUS
 62
     6
100
AcDbLine
 10
445.2598
 20
404.5198
 30
0.0
 11
505.2598
 21
404.5198
 31
0.0
  0
LINE
  5
23E
100
AcDbEntity
  8
1
  6
CONTINUOUS
 62
     6
100
AcDbLine
 10
445.2598
 20
392.5198
 30
0.0
 11
505.2598
 21
392.5198
 31
0.0
  0
LINE
  5
23F
100
AcDbEntity
  8
1
  6
CONTINUOUS
 62
     6
100
AcDbLine
 10
445.2598
 20
380.5198
 30
0.0
 11
505.2598
 21
380.5198
 31
0.0
  0
LINE
  5
240
100
AcDbEntity
  8
1
  6
CONTINUOUS
 62
     6
100
AcDbLine
 10
445.2598
 20
368.5198
 30
0.0
 11
505.2598
 21
368.5198
 31
0.0
  0
LINE
  5
241
100
AcDbEntity
  8
1
  6
CONTINUOUS
 62
     6
100
AcDbLine
 10
481.2598
 20
356.5198
 30
0.0
 11
481.2598
 21
428.5198
 31
0.0
  0
TEXT
  5
242
100
AcDbEntity
  8
1
  6
CONTINUOUS
 62
     7
100
AcDbText
 10
457.2354
 20
417.8472
 30
0.0
 40
3.0
  1
POST
  7
MONOTXT
 72
     4
 11
462.8456
 21
419.3472
 31
0.0
210
0.0
220
0.0
230
1.0
100
AcDbText
  0
TEXT
  5
243
100
AcDbEntity
  8
1
  6
CONTINUOUS
 62
     7
100
AcDbText
 10
453.7629
 20
412.4472
 30
0.0
 40
3.0
  1
SECTION
  7
MONOTXT
 72
     4
 11
462.8455
 21
413.9472
 31
0.0
210
0.0
220
0.0
230
1.0
100
AcDbText
  0
TEXT
  5
244
100
AcDbEntity
  8
1
  6
CONTINUOUS
 62
     7
100
AcDbText
 10
486.1955
 20
417.6476
 30
0.0
 40
3.0
  1
DEPTH
  7
MONOTXT
 72
     4
 11
493.0813
 21
419.1476
 31
0.0
210
0.0
220
0.0
230
1.0
100
AcDbText
  0
TEXT
  5
245
100
AcDbEntity
  8
1
  6
CONTINUOUS
 62
     7
100
AcDbText
 10
485.5577
 20
412.2476
 30
0.0
 40
3.0
  1
DRIVEN
  7
MONOTXT
 72
     4
 11
493.0813
 21
413.7476
 31
0.0
210
0.0
220
0.0
230
1.0
100
AcDbText
  0
LINE
  5
246
100
AcDbEntity
  8
1
  6
DASHED
 62
     2
100
AcDbLine
 10
663.5222
 20
447.0224
 30
0.0
 11
639.5222
 21
423.0224
 31
0.0
  0
LINE
  5
247
100
AcDbEntity
  8
1
  6
DASHED
 62
     2
100
AcDbLine
 10
639.5222
 20
423.0224
 30
0.0
 11
663.5222
 21
399.0224
 31
0.0
  0
LINE
  5
248
100
AcDbEntity
  8
1
  6
DASHED
 62
     2
100
AcDbLine
 10
663.5222
 20
399.0224
 30
0.0
 11
687.5222
 21
423.0224
 31
0.0
  0
LINE
  5
249
100
AcDbEntity
  8
1
  6
DASHED
 62
     2
100
AcDbLine
 10
687.5222
 20
423.0224
 30
0.0
 11
663.5222
 21
447.0224
 31
0.0
  0
LINE
  5
24A
100
AcDbEntity
  8
1
  6
CONTINUOUS
 62
     2
100
AcDbLine
 10
639.5222
 20
438.0224
 30
0.0
 11
687.5222
 21
438.0224
 31
0.0
  0
LINE
  5
24B
100
AcDbEntity
  8
1
  6
CONTINUOUS
 62
     2
100
AcDbLine
 10
639.5222
 20
408.0224
 30
0.0
 11
687.5222
 21
408.0224
 31
0.0
  0
LINE
  5
24C
100
AcDbEntity
  8
1
  6
CONTINUOUS
 62
     2
100
AcDbLine
 10
639.5222
 20
438.0224
 30
0.0
 11
639.5222
 21
408.0224
 31
0.0
  0
LINE
  5
24D
100
AcDbEntity
  8
1
  6
CONTINUOUS
 62
     2
100
AcDbLine
 10
687.5222
 20
438.0224
 30
0.0
 11
687.5222
 21
408.0224
 31
0.0
  0
LINE
  5
24E
100
AcDbEntity
  8
1
  6
DASHED
 62
     2
100
AcDbLine
 10
662.3222
 20
438.0224
 30
0.0
 11
662.3222
 21
408.0224
 31
0.0
  0
LINE
  5
24F
100
AcDbEntity
  8
1
  6
DASHED
 62
     2
100
AcDbLine
 10
664.7222
 20
438.0224
 30
0.0
 11
664.7222
 21
408.0224
 31
0.0
  0
LINE
  5
250
100
AcDbEntity
  8
1
  6
CONTINUOUS
 62
     2
100
AcDbLine
 10
662.3222
 20
408.0224
 30
0.0
 11
662.3222
 21
348.0224
 31
0.0
  0
LINE
  5
251
100
AcDbEntity
  8
1
  6
CONTINUOUS
 62
     2
100
AcDbLine
 10
664.7222
 20
408.0224
 30
0.0
 11
664.7222
 21
348.0224
 31
0.0
  0
SPLINE
  5
252
100
AcDbEntity
  8
1
  6
CONTINUOUS
 62
     2
100
AcDbSpline
210
0.0
220
0.0
230
1.0
 70
     8
 71
     3
 72
   101
 73
    97
 74
     0
 42
0.0
 43
0.0
 12
0.9973731531025376
 22
0.0724347531941819
 32
0.0
 13
0.9999959287782667
 23
-0.0028534938043892
 33
0.0
 40
0.0
 40
0.0
 40
0.0
 40
0.0
 40
0.0585076731470456
 40
0.0585076731470456
 40
0.0585076731470456
 40
0.1120958963229103
 40
0.1120958963229103
 40
0.1120958963229103
 40
0.1574443412317425
 40
0.1574443412317425
 40
0.1574443412317425
 40
0.2001140464792712
 40
0.2001140464792712
 40
0.2001140464792712
 40
0.2241043776989717
 40
0.2241043776989717
 40
0.2241043776989717
 40
0.2556960164721985
 40
0.2556960164721985
 40
0.2556960164721985
 40
0.279086780389484
 40
0.279086780389484
 40
0.279086780389484
 40
0.3134541867322216
 40
0.3134541867322216
 40
0.3134541867322216
 40
0.3410632211513646
 40
0.3410632211513646
 40
0.3410632211513646
 40
0.3644540887614381
 40
0.3644540887614381
 40
0.3644540887614381
 40
0.3949540043812141
 40
0.3949540043812141
 40
0.3949540043812141
 40
0.4279474763872019
 40
0.4279474763872019
 40
0.4279474763872019
 40
0.4540461450038592
 40
0.4540461450038592
 40
0.4540461450038592
 40
0.4766998064356983
 40
0.4766998064356983
 40
0.4766998064356983
 40
0.4986769823416904
 40
0.4986769823416904
 40
0.4986769823416904
 40
0.5137861804587327
 40
0.5137861804587327
 40
0.5137861804587327
 40
0.5316963522739354
 40
0.5316963522739354
 40
0.5316963522739354
 40
0.5757365375848188
 40
0.5757365375848188
 40
0.5757365375848188
 40
0.6155948250517046
 40
0.6155948250517046
 40
0.6155948250517046
 40
0.650181161586553
 40
0.650181161586553
 40
0.650181161586553
 40
0.6776856988611115
 40
0.6776856988611115
 40
0.6776856988611115
 40
0.7120255878058611
 40
0.7120255878058611
 40
0.7120255878058611
 40
0.7463654767506107
 40
0.7463654767506107
 40
0.7463654767506107
 40
0.7711291061434068
 40
0.7711291061434068
 40
0.7711291061434068
 40
0.8059061026893829
 40
0.8059061026893829
 40
0.8059061026893829
 40
0.8403540290224297
 40
0.8403540290224297
 40
0.8403540290224297
 40
0.8673416904777961
 40
0.8673416904777961
 40
0.8673416904777961
 40
0.8894900344296177
 40
0.8894900344296177
 40
0.8894900344296177
 40
0.9142535658778171
 40
0.9142535658778171
 40
0.9142535658778171
 40
0.9364019098296389
 40
0.9364019098296389
 40
0.9364019098296389
 40
0.9597927774397124
 40
0.9597927774397124
 40
0.9597927774397124
 40
1.0
 40
1.0
 40
1.0
 40
1.0
 10
635.32220000000007
 20
348.0224
 30
0.0
 10
636.42420000000004
 20
348.10243333333335
 30
0.0
 10
637.52620000000002
 20
348.18246666666664
 30
0.0
 10
638.62819999999999
 20
348.26249999999999
 30
0.0
 10
639.63754148913051
 20
348.33580395993357
 30
0.0
 10
640.65161088310003
 20
348.18174660939189
 30
0.0
 10
641.66320000000007
 20
348.18459999999999
 30
0.0
 10
642.51924617245038
 20
348.18701465044239
 30
0.0
 10
643.37520733034637
 20
348.25711171325514
 30
0.0
 10
644.23120000000006
 20
348.26249999999999
 30
0.0
 10
645.03662905013812
 20
348.26756999981268
 30
0.0
 10
645.84059880167115
 20
348.19752281505237
 30
0.0
 10
646.64359999999999
 20
348.10680000000002
 30
0.0
 10
647.09507405181205
 20
348.05579260799522
 30
0.0
 10
647.51434065203159
 20
347.82267652773692
 30
0.0
 10
647.96660000000008
 20
347.79540000000003
 30
0.0
 10
648.562157177681
 20
347.75948093730091
 30
0.0
 10
649.16079449194081
 20
347.76301735630244
 30
0.0
 10
649.75639999999999
 20
347.79540000000003
 30
0.0
 10
650.19739224883062
 20
347.81937643183966
 30
0.0
 10
650.63821380182151
 20
347.85136798280672
 30
0.0
 10
651.07929999999999
 20
347.8732
 30
0.0
 10
651.72737582422621
 20
347.9052771826357
 30
0.0
 10
652.37690043797409
 20
347.9210519069515
 30
0.0
 10
653.02480000000003
 20
347.9511
 30
0.0
 10
653.54528970846775
 20
347.97523911678218
 30
0.0
 10
654.06179428447547
 20
348.09106706616006
 30
0.0
 10
654.58120000000008
 20
348.10680000000002
 30
0.0
 10
655.0212498091787
 20
348.12012922285447
 30
0.0
 10
655.46405542306741
 20
348.07606911317237
 30
0.0
 10
655.90410000000008
 20
348.02890000000002
 30
0.0
 10
656.47788472184629
 20
347.96739505731898
 30
0.0
 10
657.04121492450736
 20
347.83837616016615
 30
0.0
 10
657.61620000000005
 20
347.79540000000003
 30
0.0
 10
658.23819365495388
 20
347.74891027343671
 30
0.0
 10
658.86114917237364
 20
347.7363173877493
 30
0.0
 10
659.48380000000009
 20
347.7176
 30
0.0
 10
659.97633251101195
 20
347.70279407414449
 30
0.0
 10
660.46994838569617
 20
347.70009064077954
 30
0.0
 10
660.9624
 20
347.7176
 30
0.0
 10
661.38984832335552
 20
347.73279813525721
 30
0.0
 10
661.77969141092206
 20
348.02890000000002
 30
0.0
 10
662.20749999999998
 20
348.02890000000002
 30
0.0
 10
662.62253333333331
 20
348.02890000000002
 30
0.0
 10
663.03756666666675
 20
348.02890000000002
 30
0.0
 10
663.45260000000007
 20
348.02890000000002
 30
0.0
 10
663.73793333333333
 20
348.02890000000002
 30
0.0
 10
664.0232666666667
 20
348.02890000000002
 30
0.0
 10
664.30860000000007
 20
348.02890000000002
 30
0.0
 10
664.64682900361868
 20
348.02890000000002
 30
0.0
 10
664.9828362710989
 20
347.97349604214719
 30
0.0
 10
665.32030000000009
 20
347.9511
 30
0.0
 10
666.15010583937737
 20
347.89602929176959
 30
0.0
 10
666.98028435471474
 20
347.84532409955187
 30
0.0
 10
667.81050000000005
 20
347.79540000000003
 30
0.0
 10
668.56188134900424
 20
347.7502165136587
 30
0.0
 10
669.31595491793007
 20
347.7271367402775
 30
0.0
 10
670.06730000000005
 20
347.7176
 30
0.0
 10
670.71926664266789
 20
347.70932465929565
 30
0.0
 10
671.36107915202751
 20
347.95662516013067
 30
0.0
 10
672.01280000000008
 20
347.9511
 30
0.0
 10
672.53107635279048
 20
347.94670615584118
 30
0.0
 10
673.04968386411065
 20
347.8732
 30
0.0
 10
673.56910000000005
 20
347.8732
 30
0.0
 10
674.21760000000006
 20
347.8732
 30
0.0
 10
674.86610000000007
 20
347.8732
 30
0.0
 10
675.51460000000009
 20
347.8732
 30
0.0
 10
676.16309999999999
 20
347.8732
 30
0.0
 10
676.8116
 20
347.8732
 30
0.0
 10
677.46010000000001
 20
347.8732
 30
0.0
 10
677.92775479314935
 20
347.8732
 30
0.0
 10
678.39469486644919
 20
347.96658347469815
 30
0.0
 10
678.86090000000002
 20
347.9511
 30
0.0
 10
679.5156188242097
 20
347.92935566125396
 30
0.0
 10
680.15623408314605
 20
347.72346251370476
 30
0.0
 10
680.80640000000005
 20
347.6397
 30
0.0
 10
681.450413854918
 20
347.55673007193974
 30
0.0
 10
682.10858232811654
 20
347.45434586066858
 30
0.0
 10
682.7518
 20
347.48400000000004
 30
0.0
 10
683.2557183085529
 20
347.50723204785362
 30
0.0
 10
683.72689644070545
 20
347.7867282941794
 30
0.0
 10
684.23040000000003
 20
347.8732
 30
0.0
 10
684.64361735233217
 20
347.94416595182145
 30
0.0
 10
685.05838809239015
 20
348.00860396894404
 30
0.0
 10
685.47550000000001
 20
348.02890000000002
 30
0.0
 10
685.94186280635631
 20
348.05159250488532
 30
0.0
 10
686.41083655246086
 20
347.93543830685451
 30
0.0
 10
686.87630000000001
 20
347.9511
 30
0.0
 10
687.29260752684297
 20
347.96510771805833
 30
0.0
 10
687.7044044324175
 20
348.11321940316947
 30
0.0
 10
688.12139999999999
 20
348.10680000000002
 30
0.0
 10
688.5617890483428
 20
348.10002046785991
 30
0.0
 10
689.00257125960525
 20
348.03016047535561
 30
0.0
 10
689.4443
 20
348.02890000000002
 30
0.0
 10
690.20360000000005
 20
348.02673333333337
 30
0.0
 10
690.96289999999999
 20
348.02456666666666
 30
0.0
 10
691.72220000000004
 20
348.0224
 30
0.0
  0
LINE
  5
253
100
AcDbEntity
  8
1
  6
DASHED
 62
     2
100
AcDbLine
 10
662.3222
 20
348.0224
 30
0.0
 11
662.3222
 21
331.2224
 31
0.0
  0
LINE
  5
254
100
AcDbEntity
  8
1
  6
DASHED
 62
     2
100
AcDbLine
 10
664.7222
 20
348.0224
 30
0.0
 11
664.7222
 21
331.2224
 31
0.0
  0
LINE
  5
255
100
AcDbEntity
  8
1
  6
DASHED
 62
     2
100
AcDbLine
 10
664.7222
 20
331.2224
 30
0.0
 11
662.3222
 21
331.2224
 31
0.0
  0
LINE
  5
256
100
AcDbEntity
  8
1
  6
DASHED
 62
     2
100
AcDbLine
 10
664.7222
 20
328.8224
 30
0.0
 11
662.3222
 21
328.8224
 31
0.0
  0
LINE
  5
257
100
AcDbEntity
  8
1
  6
DASHED
 62
     2
100
AcDbLine
 10
662.3222
 20
328.8224
 30
0.0
 11
663.5222
 21
320.4224
 31
0.0
  0
LINE
  5
258
100
AcDbEntity
  8
1
  6
DASHED
 62
     2
100
AcDbLine
 10
664.7222
 20
328.8224
 30
0.0
 11
663.5222
 21
320.4224
 31
0.0
  0
SPLINE
  5
259
100
AcDbEntity
  8
1
  6
CONTINUOUS
 62
     7
100
AcDbSpline
210
0.0
220
0.0
230
1.0
 70
     8
 71
     3
 72
   221
 73
   217
 74
     0
 42
0.0
 43
0.0
 12
0.9982697052280206
 22
0.0588013233181089
 32
0.0
 13
0.9628259889882321
 23
0.270122407306082
 33
0.0
 40
0.0
 40
0.0
 40
0.0
 40
0.0
 40
0.0455022034103201
 40
0.0455022034103201
 40
0.0455022034103201
 40
0.0722211681668236
 40
0.0722211681668236
 40
0.0722211681668236
 40
0.0911154900331685
 40
0.0911154900331685
 40
0.0911154900331685
 40
0.1044770242440693
 40
0.1044770242440693
 40
0.1044770242440693
 40
0.1151629686805515
 40
0.1151629686805515
 40
0.1151629686805515
 40
0.128788952479907
 40
0.128788952479907
 40
0.128788952479907
 40
0.1448178691346302
 40
0.1448178691346302
 40
0.1448178691346302
 40
0.1608508894546516
 40
0.1608508894546516
 40
0.1608508894546516
 40
0.1742124236655525
 40
0.1742124236655525
 40
0.1742124236655525
 40
0.1875698542111552
 40
0.1875698542111552
 40
0.1875698542111552
 40
0.2036028745311766
 40
0.2036028745311766
 40
0.2036028745311766
 40
0.2223073809603186
 40
0.2223073809603186
 40
0.2223073809603186
 40
0.2329974290620989
 40
0.2329974290620989
 40
0.2329974290620989
 40
0.2516978318259426
 40
0.2516978318259426
 40
0.2516978318259426
 40
0.262387879927723
 40
0.262387879927723
 40
0.262387879927723
 40
0.2730738243642051
 40
0.2730738243642051
 40
0.2730738243642051
 40
0.286435358575106
 40
0.286435358575106
 40
0.286435358575106
 40
0.2971254066768863
 40
0.2971254066768863
 40
0.2971254066768863
 40
0.3078113511133685
 40
0.3078113511133685
 40
0.3078113511133685
 40
0.3211728853242694
 40
0.3211728853242694
 40
0.3211728853242694
 40
0.3372018019789926
 40
0.3372018019789926
 40
0.3372018019789926
 40
0.3482206025693291
 40
0.3482206025693291
 40
0.3482206025693291
 40
0.364474666018616
 40
0.364474666018616
 40
0.364474666018616
 40
0.374110260891535
 40
0.374110260891535
 40
0.374110260891535
 40
0.3837458557644541
 40
0.3837458557644541
 40
0.3837458557644541
 40
0.3944400075315326
 40
0.3944400075315326
 40
0.3944400075315326
 40
0.4115516329624335
 40
0.4115516329624335
 40
0.4115516329624335
 40
0.425939550507545
 40
0.425939550507545
 40
0.425939550507545
 40
0.4395655343069004
 40
0.4395655343069004
 40
0.4395655343069004
 40
0.455815549911671
 40
0.455815549911671
 40
0.455815549911671
 40
0.4694423388624858
 40
0.4694423388624858
 40
0.4694423388624858
 40
0.4854753591825072
 40
0.4854753591825072
 40
0.4854753591825072
 40
0.4961613036189894
 40
0.4961613036189894
 40
0.4961613036189894
 40
0.5046131776396639
 40
0.5046131776396639
 40
0.5046131776396639
 40
0.515299122076146
 40
0.515299122076146
 40
0.515299122076146
 40
0.5263179226664826
 40
0.5263179226664826
 40
0.5263179226664826
 40
0.5370038671029647
 40
0.5370038671029647
 40
0.5370038671029647
 40
0.5454570391153576
 40
0.5454570391153576
 40
0.5454570391153576
 40
0.5539050199576796
 40
0.5539050199576796
 40
0.5539050199576796
 40
0.568296747337442
 40
0.568296747337442
 40
0.568296747337442
 40
0.5802439964193218
 40
0.5802439964193218
 40
0.5802439964193218
 40
0.5898795912922409
 40
0.5898795912922409
 40
0.5898795912922409
 40
0.5983314653129154
 40
0.5983314653129154
 40
0.5983314653129154
 40
0.6127193828580269
 40
0.6127193828580269
 40
0.6127193828580269
 40
0.6263453666573823
 40
0.6263453666573823
 40
0.6263453666573823
 40
0.6452402691815762
 40
0.6452402691815762
 40
0.6452402691815762
 40
0.6614943326308631
 40
0.6614943326308631
 40
0.6614943326308631
 40
0.6751162924315608
 40
0.6751162924315608
 40
0.6751162924315608
 40
0.6884778266424617
 40
0.6884778266424617
 40
0.6884778266424617
 40
0.7045108469624831
 40
0.7045108469624831
 40
0.7045108469624831
 40
0.7205397636172063
 40
0.7205397636172063
 40
0.7205397636172063
 40
0.7339012978281072
 40
0.7339012978281072
 40
0.7339012978281072
 40
0.7449161172333816
 40
0.7449161172333816
 40
0.7449161172333816
 40
0.7556061653351619
 40
0.7556061653351619
 40
0.7556061653351619
 40
0.7689676995460628
 40
0.7689676995460628
 40
0.7689676995460628
 40
0.7796536439825449
 40
0.7796536439825449
 40
0.7796536439825449
 40
0.7956866643025663
 40
0.7956866643025663
 40
0.7956866643025663
 40
0.809044094848169
 40
0.809044094848169
 40
0.809044094848169
 40
0.827748601277311
 40
0.827748601277311
 40
0.827748601277311
 40
0.8437816215973324
 40
0.8437816215973324
 40
0.8437816215973324
 40
0.8574076053966878
 40
0.8574076053966878
 40
0.8574076053966878
 40
0.8761121118258298
 40
0.8761121118258298
 40
0.8761121118258298
 40
0.8948125145896736
 40
0.8948125145896736
 40
0.8948125145896736
 40
0.9055025626914539
 40
0.9055025626914539
 40
0.9055025626914539
 40
0.9161885071279361
 40
0.9161885071279361
 40
0.9161885071279361
 40
0.9322215274479575
 40
0.9322215274479575
 40
0.9322215274479575
 40
0.9484762658716662
 40
0.9484762658716662
 40
0.9484762658716662
 40
0.9618378000825671
 40
0.9618378000825671
 40
0.9618378000825671
 40
0.9728526194878414
 40
0.9728526194878414
 40
0.9728526194878414
 40
0.9848017043483615
 40
0.9848017043483615
 40
0.9848017043483615
 40
0.9954917524501418
 40
0.9954917524501418
 40
0.9954917524501418
 40
1.0
 40
1.0
 40
1.0
 40
1.0
 10
665.62400000000002
 20
336.71840000000003
 30
0.0
 10
665.99296666666669
 20
336.74013333333335
 30
0.0
 10
666.36193333333335
 20
336.76186666666666
 30
0.0
 10
666.73090000000002
 20
336.78360000000004
 30
0.0
 10
666.94755780169135
 20
336.7963618472042
 30
0.0
 10
667.16528702208768
 20
336.77458661667498
 30
0.0
 10
667.38200000000006
 20
336.78360000000004
 30
0.0
 10
667.53524863049927
 20
336.78997381602176
 30
0.0
 10
667.68432483009371
 20
336.84870000000001
 30
0.0
 10
667.83780000000002
 20
336.84870000000001
 30
0.0
 10
667.94633333333331
 20
336.84870000000001
 30
0.0
 10
668.05486666666673
 20
336.84870000000001
 30
0.0
 10
668.16340000000002
 20
336.84870000000001
 30
0.0
 10
668.25020000000006
 20
336.84870000000001
 30
0.0
 10
668.33699999999999
 20
336.84870000000001
 30
0.0
 10
668.42380000000003
 20
336.84870000000001
 30
0.0
 10
668.53448140966054
 20
336.84870000000001
 30
0.0
 10
668.63871859033952
 20
336.91380000000004
 30
0.0
 10
668.74940000000004
 20
336.91380000000004
 30
0.0
 10
668.87959999999998
 20
336.91380000000004
 30
0.0
 10
669.00980000000004
 20
336.91380000000004
 30
0.0
 10
669.13999999999999
 20
336.91380000000004
 30
0.0
 10
669.27023333333329
 20
336.91380000000004
 30
0.0
 10
669.40046666666672
 20
336.91380000000004
 30
0.0
 10
669.53070000000002
 20
336.91380000000004
 30
0.0
 10
669.63923333333332
 20
336.91380000000004
 30
0.0
 10
669.74776666666673
 20
336.91380000000004
 30
0.0
 10
669.85630000000003
 20
336.91380000000004
 30
0.0
 10
669.96480000000008
 20
336.91380000000004
 30
0.0
 10
670.07330000000002
 20
336.91380000000004
 30
0.0
 10
670.18180000000007
 20
336.91380000000004
 30
0.0
 10
670.31203333333337
 20
336.91380000000004
 30
0.0
 10
670.44226666666668
 20
336.91380000000004
 30
0.0
 10
670.57249999999999
 20
336.91380000000004
 30
0.0
 10
670.72443333333331
 20
336.91380000000004
 30
0.0
 10
670.87636666666674
 20
336.91380000000004
 30
0.0
 10
671.02830000000006
 20
336.91380000000004
 30
0.0
 10
671.11513333333335
 20
336.91380000000004
 30
0.0
 10
671.20196666666675
 20
336.91380000000004
 30
0.0
 10
671.28880000000004
 20
336.91380000000004
 30
0.0
 10
671.44069999999999
 20
336.91380000000004
 30
0.0
 10
671.59260000000006
 20
336.91380000000004
 30
0.0
 10
671.74450000000002
 20
336.91380000000004
 30
0.0
 10
671.8313333333333
 20
336.91380000000004
 30
0.0
 10
671.91816666666671
 20
336.91380000000004
 30
0.0
 10
672.005
 20
336.91380000000004
 30
0.0
 10
672.09180000000003
 20
336.91380000000004
 30
0.0
 10
672.17860000000007
 20
336.91380000000004
 30
0.0
 10
672.2654
 20
336.91380000000004
 30
0.0
 10
672.3739333333333
 20
336.91380000000004
 30
0.0
 10
672.48246666666671
 20
336.91380000000004
 30
0.0
 10
672.59100000000001
 20
336.91380000000004
 30
0.0
 10
672.6778333333333
 20
336.91380000000004
 30
0.0
 10
672.7646666666667
 20
336.91380000000004
 30
0.0
 10
672.85149999999999
 20
336.91380000000004
 30
0.0
 10
672.93830000000003
 20
336.91380000000004
 30
0.0
 10
673.02510000000007
 20
336.91380000000004
 30
0.0
 10
673.11189999999999
 20
336.91380000000004
 30
0.0
 10
673.22043333333329
 20
336.91380000000004
 30
0.0
 10
673.3289666666667
 20
336.91380000000004
 30
0.0
 10
673.4375
 20
336.91380000000004
 30
0.0
 10
673.56770000000006
 20
336.91380000000004
 30
0.0
 10
673.6979
 20
336.91380000000004
 30
0.0
 10
673.82810000000006
 20
336.91380000000004
 30
0.0
 10
673.91760373052432
 20
336.91380000000004
 30
0.0
 10
674.00167276497325
 20
336.86853840998788
 30
0.0
 10
674.08860000000004
 20
336.84870000000001
 30
0.0
 10
674.21682818436659
 20
336.81943594607407
 30
0.0
 10
674.40608953785397
 20
336.89347192245276
 30
0.0
 10
674.47930000000008
 20
336.78360000000004
 30
0.0
 10
674.52269999999999
 20
336.71846666666664
 30
0.0
 10
674.56610000000001
 20
336.65333333333336
 30
0.0
 10
674.60950000000003
 20
336.58820000000003
 30
0.0
 10
674.65290000000005
 20
336.52306666666669
 30
0.0
 10
674.69630000000006
 20
336.45793333333336
 30
0.0
 10
674.73970000000008
 20
336.39280000000002
 30
0.0
 10
674.78786788094692
 20
336.32051118327939
 30
0.0
 10
674.79327508919425
 20
336.20606921067332
 30
0.0
 10
674.73970000000008
 20
336.13220000000001
 30
0.0
 10
674.65397493468515
 20
336.0140024756476
 30
0.0
 10
674.54185433691282
 20
335.93456801883582
 30
0.0
 10
674.41410000000008
 20
335.87170000000003
 30
0.0
 10
674.30668069766932
 20
335.81883886913391
 30
0.0
 10
674.20297137887019
 20
335.76659489530107
 30
0.0
 10
674.08860000000004
 20
335.7414
 30
0.0
 10
673.98028532897774
 20
335.71753933815489
 30
0.0
 10
673.87211067855958
 20
335.69503536596915
 30
0.0
 10
673.76300000000003
 20
335.67630000000003
 30
0.0
 10
673.63287726865462
 20
335.65395665996363
 30
0.0
 10
673.50242240853424
 20
335.63348555436556
 30
0.0
 10
673.37240000000008
 20
335.6112
 30
0.0
 10
673.26336700193622
 20
335.59251198434652
 30
0.0
 10
673.15748794976071
 20
335.54599999999999
 30
0.0
 10
673.04680000000008
 20
335.54599999999999
 30
0.0
 10
672.91656666666677
 20
335.54599999999999
 30
0.0
 10
672.78633333333335
 20
335.54599999999999
 30
0.0
 10
672.65610000000004
 20
335.54599999999999
 30
0.0
 10
672.5693
 20
335.54599999999999
 30
0.0
 10
672.48250000000007
 20
335.54599999999999
 30
0.0
 10
672.39570000000003
 20
335.54599999999999
 30
0.0
 10
672.32704695118855
 20
335.54599999999999
 30
0.0
 10
672.26765825291523
 20
335.4903195845759
 30
0.0
 10
672.20030000000008
 20
335.48090000000002
 30
0.0
 10
672.11513704723598
 20
335.46899055161651
 30
0.0
 10
672.02506295276407
 20
335.49280944838353
 30
0.0
 10
671.93990000000008
 20
335.48090000000002
 30
0.0
 10
671.85208430904549
 20
335.46861958457589
 30
0.0
 10
671.76721392960735
 20
335.42808777836677
 30
0.0
 10
671.67939999999999
 20
335.41579999999999
 30
0.0
 10
671.5942387553763
 20
335.40388341109377
 30
0.0
 10
671.50135176106198
 20
335.4432408858973
 30
0.0
 10
671.41899999999998
 20
335.41579999999999
 30
0.0
 10
671.35385521041974
 20
335.39409274426419
 30
0.0
 10
671.28873811736514
 20
335.37231630924572
 30
0.0
 10
671.22360000000003
 20
335.35060000000004
 30
0.0
 10
671.15850188454715
 20
335.32889702693791
 30
0.0
 10
671.09339603717524
 20
335.30721455205997
 30
0.0
 10
671.02830000000006
 20
335.28550000000001
 30
0.0
 10
670.91740433889299
 20
335.24850773886055
 30
0.0
 10
670.81100976705727
 20
335.19974469220608
 30
0.0
 10
670.70270000000005
 20
335.15520000000004
 30
0.0
 10
670.6127869735169
 20
335.11822135810263
 30
0.0
 10
670.52786043780577
 20
335.08310760421682
 30
0.0
 10
670.44230000000005
 20
335.02500000000003
 30
0.0
 10
670.37329451512267
 20
334.97813554363591
 30
0.0
 10
670.33117566534168
 20
334.89838356458563
 30
0.0
 10
670.31209999999999
 20
334.82960000000003
 30
0.0
 10
670.29536775643294
 20
334.76926641081968
 30
0.0
 10
670.31584248421439
 20
334.68352641669452
 30
0.0
 10
670.37720000000002
 20
334.63420000000002
 30
0.0
 10
670.48165102183691
 20
334.55022993437188
 30
0.0
 10
670.58818933198211
 20
334.5285827135188
 30
0.0
 10
670.70270000000005
 20
334.50390000000004
 30
0.0
 10
670.81114658390447
 20
334.48052439658301
 30
0.0
 10
670.91879915516188
 20
334.45516438194403
 30
0.0
 10
671.02830000000006
 20
334.43880000000001
 30
0.0
 10
671.18014281883802
 20
334.41610781085211
 30
0.0
 10
671.33249964110871
 20
334.39753918867234
 30
0.0
 10
671.48410000000001
 20
334.37360000000001
 30
0.0
 10
671.61451199070484
 20
334.35300666319364
 30
0.0
 10
671.74468465461496
 20
334.33063591196026
 30
0.0
 10
671.87480000000005
 20
334.30850000000004
 30
0.0
 10
671.98384510184917
 20
334.2899486695087
 30
0.0
 10
672.08965127655506
 20
334.24340000000001
 30
0.0
 10
672.20030000000008
 20
334.24340000000001
 30
0.0
 10
672.30883333333338
 20
334.24340000000001
 30
0.0
 10
672.41736666666668
 20
334.24340000000001
 30
0.0
 10
672.52589999999998
 20
334.24340000000001
 30
0.0
 10
672.65613333333329
 20
334.24340000000001
 30
0.0
 10
672.78636666666671
 20
334.24340000000001
 30
0.0
 10
672.91660000000002
 20
334.24340000000001
 30
0.0
 10
673.04680000000008
 20
334.24340000000001
 30
0.0
 10
673.17700000000002
 20
334.24340000000001
 30
0.0
 10
673.30720000000008
 20
334.24340000000001
 30
0.0
 10
673.41573333333338
 20
334.24340000000001
 30
0.0
 10
673.52426666666668
 20
334.24340000000001
 30
0.0
 10
673.63280000000009
 20
334.24340000000001
 30
0.0
 10
673.72227139207598
 20
334.24340000000001
 30
0.0
 10
673.80372860792409
 20
334.30850000000004
 30
0.0
 10
673.89319999999998
 20
334.30850000000004
 30
0.0
 10
673.98003333333338
 20
334.30850000000004
 30
0.0
 10
674.06686666666678
 20
334.30850000000004
 30
0.0
 10
674.15370000000007
 20
334.30850000000004
 30
0.0
 10
674.26223333333337
 20
334.30850000000004
 30
0.0
 10
674.37076666666678
 20
334.30850000000004
 30
0.0
 10
674.47930000000008
 20
334.30850000000004
 30
0.0
 10
674.56610000000001
 20
334.30850000000004
 30
0.0
 10
674.65290000000005
 20
334.30850000000004
 30
0.0
 10
674.73970000000008
 20
334.30850000000004
 30
0.0
 10
674.86993333333328
 20
334.30850000000004
 30
0.0
 10
675.0001666666667
 20
334.30850000000004
 30
0.0
 10
675.13040000000001
 20
334.30850000000004
 30
0.0
 10
675.23890000000006
 20
334.30850000000004
 30
0.0
 10
675.34739999999999
 20
334.30850000000004
 30
0.0
 10
675.45590000000004
 20
334.30850000000004
 30
0.0
 10
675.60783333333336
 20
334.30850000000004
 30
0.0
 10
675.75976666666668
 20
334.30850000000004
 30
0.0
 10
675.9117
 20
334.30850000000004
 30
0.0
 10
676.0419333333333
 20
334.30850000000004
 30
0.0
 10
676.17216666666673
 20
334.30850000000004
 30
0.0
 10
676.30240000000003
 20
334.30850000000004
 30
0.0
 10
676.41308140966055
 20
334.30850000000004
 30
0.0
 10
676.51731859033953
 20
334.37360000000001
 30
0.0
 10
676.62800000000004
 20
334.37360000000001
 30
0.0
 10
676.77993333333336
 20
334.37360000000001
 30
0.0
 10
676.93186666666668
 20
334.37360000000001
 30
0.0
 10
677.0838
 20
334.37360000000001
 30
0.0
 10
677.23570000000007
 20
334.37360000000001
 30
0.0
 10
677.38760000000002
 20
334.37360000000001
 30
0.0
 10
677.53950000000009
 20
334.37360000000001
 30
0.0
 10
677.62633333333338
 20
334.37360000000001
 30
0.0
 10
677.71316666666678
 20
334.37360000000001
 30
0.0
 10
677.80000000000007
 20
334.37360000000001
 30
0.0
 10
677.88679999999999
 20
334.37360000000001
 30
0.0
 10
677.97360000000003
 20
334.37360000000001
 30
0.0
 10
678.06040000000007
 20
334.37360000000001
 30
0.0
 10
678.19063333333338
 20
334.37360000000001
 30
0.0
 10
678.32086666666669
 20
334.37360000000001
 30
0.0
 10
678.4511
 20
334.37360000000001
 30
0.0
 10
678.58313430951421
 20
334.37360000000001
 30
0.0
 10
678.71100190825041
 20
334.42585330704009
 30
0.0
 10
678.84180000000003
 20
334.43880000000001
 30
0.0
 10
678.94931715174232
 20
334.4494422925053
 30
0.0
 10
679.05936057799988
 20
334.42707541373107
 30
0.0
 10
679.16740000000004
 20
334.43880000000001
 30
0.0
 10
679.25646422744569
 20
334.4484653721284
 30
0.0
 10
679.34249469474867
 20
334.47575460998246
 30
0.0
 10
679.42780000000005
 20
334.50390000000004
 30
0.0
 10
679.52034081197314
 20
334.53443265254549
 30
0.0
 10
679.59376073147746
 20
334.61139140977645
 30
0.0
 10
679.68820000000005
 20
334.63420000000002
 30
0.0
 10
679.77268850560426
 20
334.65460532220419
 30
0.0
 10
679.86390958127424
 20
334.61627100655295
 30
0.0
 10
679.94870000000003
 20
334.63420000000002
 30
0.0
 10
679.98445813633703
 20
334.64176108298199
 30
0.0
 10
680.02043880181509
 20
334.64920741312852
 30
0.0
 10
680.0557
 20
334.65910000000002
 30
0.0
  0
INSERT
  5
25A
100
AcDbEntity
  8
1
  6
CONTINUOUS
 62
     1
100
AcDbBlockReference
  2
LDR
 10
665.624
 20
336.7184
 30
0.0
 41
239.999998
 42
239.999998
 50
183.371012
210
0.0
220
0.0
230
1.0
  0
LINE
  5
25B
100
AcDbEntity
  8
1
  6
CONTINUOUS
 62
     7
100
AcDbLine
 10
693.8237
 20
348.0233
 30
0.0
 11
710.6237
 21
348.0233
 31
0.0
  0
LINE
  5
25C
100
AcDbEntity
  8
1
  6
CONTINUOUS
 62
     7
100
AcDbLine
 10
709.4237
 20
423.0224
 30
0.0
 11
709.4237
 21
348.0233
 31
0.0
  0
LINE
  5
25D
100
AcDbEntity
  8
1
  6
CONTINUOUS
 62
     7
100
AcDbLine
 10
688.7222
 20
438.0224
 30
0.0
 11
702.5483
 21
438.0224
 31
0.0
  0
LINE
  5
25E
100
AcDbEntity
  8
1
  6
CONTINUOUS
 62
     7
100
AcDbLine
 10
688.7222
 20
408.0224
 30
0.0
 11
702.5483
 21
408.0224
 31
0.0
  0
LINE
  5
25F
100
AcDbEntity
  8
1
  6
CONTINUOUS
 62
     7
100
AcDbLine
 10
701.3483
 20
438.0224
 30
0.0
 11
701.3483
 21
408.0224
 31
0.0
  0
LINE
  5
260
100
AcDbEntity
  8
1
  6
CONTINUOUS
 62
     7
100
AcDbLine
 10
694.4581
 20
423.0224
 30
0.0
 11
694.4581
 21
408.0224
 31
0.0
  0
LINE
  5
261
100
AcDbEntity
  8
1
  6
CONTINUOUS
 62
     7
100
AcDbLine
 10
688.7222
 20
423.0224
 30
0.0
 11
700.1483
 21
423.0224
 31
0.0
  0
LINE
  5
262
100
AcDbEntity
  8
1
  6
CONTINUOUS
 62
     7
100
AcDbLine
 10
705.9951
 20
423.0224
 30
0.0
 11
710.6237
 21
423.0224
 31
0.0
  0
INSERT
  5
263
100
AcDbEntity
  8
1
  6
CONTINUOUS
 62
     1
100
AcDbBlockReference
  2
LDR
 10
701.3483
 20
438.0224
 30
0.0
 41
240.0
 42
240.0
 50
90.0
210
0.0
220
0.0
230
1.0
  0
INSERT
  5
264
100
AcDbEntity
  8
1
  6
CONTINUOUS
 62
     1
100
AcDbBlockReference
  2
LDR
 10
701.3483
 20
438.0224
 30
0.0
 41
240.0
 42
240.0
 50
90.0
210
0.0
220
0.0
230
1.0
  0
INSERT
  5
265
100
AcDbEntity
  8
1
  6
CONTINUOUS
 62
     1
100
AcDbBlockReference
  2
LDR
 10
701.3483
 20
408.0224
 30
0.0
 41
240.0
 42
240.0
 50
270.0
210
0.0
220
0.0
230
1.0
  0
INSERT
  5
266
100
AcDbEntity
  8
1
  6
CONTINUOUS
 62
     1
100
AcDbBlockReference
  2
LDR
 10
701.3483
 20
408.0224
 30
0.0
 41
240.0
 42
240.0
 50
270.0
210
0.0
220
0.0
230
1.0
  0
INSERT
  5
267
100
AcDbEntity
  8
1
  6
CONTINUOUS
 62
     1
100
AcDbBlockReference
  2
LDR
 10
694.4581
 20
423.0224
 30
0.0
 41
240.0
 42
240.0
 50
90.0
210
0.0
220
0.0
230
1.0
  0
INSERT
  5
268
100
AcDbEntity
  8
1
  6
CONTINUOUS
 62
     1
100
AcDbBlockReference
  2
LDR
 10
694.4581
 20
423.0224
 30
0.0
 41
240.0
 42
240.0
 50
90.0
210
0.0
220
0.0
230
1.0
  0
INSERT
  5
269
100
AcDbEntity
  8
1
  6
CONTINUOUS
 62
     1
100
AcDbBlockReference
  2
LDR
 10
694.4581
 20
408.0224
 30
0.0
 41
240.0
 42
240.0
 50
270.0
210
0.0
220
0.0
230
1.0
  0
INSERT
  5
26A
100
AcDbEntity
  8
1
  6
CONTINUOUS
 62
     1
100
AcDbBlockReference
  2
LDR
 10
694.4581
 20
408.0224
 30
0.0
 41
240.0
 42
240.0
 50
270.0
210
0.0
220
0.0
230
1.0
  0
INSERT
  5
26B
100
AcDbEntity
  8
1
  6
CONTINUOUS
 62
     1
100
AcDbBlockReference
  2
LDR
 10
709.4237
 20
423.0224
 30
0.0
 41
240.0
 42
240.0
 50
90.0
210
0.0
220
0.0
230
1.0
  0
INSERT
  5
26C
100
AcDbEntity
  8
1
  6
CONTINUOUS
 62
     1
100
AcDbBlockReference
  2
LDR
 10
709.4237
 20
423.0224
 30
0.0
 41
240.0
 42
240.0
 50
90.0
210
0.0
220
0.0
230
1.0
  0
INSERT
  5
26D
100
AcDbEntity
  8
1
  6
CONTINUOUS
 62
     1
100
AcDbBlockReference
  2
LDR
 10
709.4237
 20
348.0233
 30
0.0
 41
240.0
 42
240.0
 50
270.0
210
0.0
220
0.0
230
1.0
  0
TEXT
  5
26E
100
AcDbEntity
  8
1
  6
CONTINUOUS
 62
     7
100
AcDbText
 10
698.5864
 20
411.652
 30
0.0
 40
3.0
  1
D/2
 50
90.0
  7
MONOTXT
 72
     4
 11
697.0864
 21
415.5378
 31
0.0
210
0.0
220
0.0
230
1.0
100
AcDbText
  0
TEXT
  5
26F
100
AcDbEntity
  8
1
  6
CONTINUOUS
 62
     7
100
AcDbText
 10
704.9026
 20
422.0285
 30
0.0
 40
3.0
  1
D
 50
90.0
  7
MONOTXT
 72
     4
 11
703.4026
 21
423.0324
 31
0.0
210
0.0
220
0.0
230
1.0
100
AcDbText
  0
TEXT
  5
270
100
AcDbEntity
  8
1
  6
CONTINUOUS
 62
     7
100
AcDbText
 10
713.4053
 20
382.1746
 30
0.0
 40
3.0
  1
"CP"
 50
90.0
  7
MONOTXT
 72
     4
 11
711.9053
 21
387.0289
 31
0.0
210
0.0
220
0.0
230
1.0
100
AcDbText
  0
LINE
  5
271
100
AcDbEntity
  8
1
  6
CONTINUOUS
 62
     7
100
AcDbLine
 10
639.5222
 20
439.2224
 30
0.0
 11
639.5222
 21
454.8224
 31
0.0
  0
LINE
  5
272
100
AcDbEntity
  8
1
  6
CONTINUOUS
 62
     7
100
AcDbLine
 10
687.5222
 20
439.2224
 30
0.0
 11
687.5222
 21
454.8224
 31
0.0
  0
LINE
  5
273
100
AcDbEntity
  8
1
  6
CONTINUOUS
 62
     7
100
AcDbLine
 10
639.5222
 20
453.6224
 30
0.0
 11
687.5222
 21
453.6224
 31
0.0
  0
INSERT
  5
274
100
AcDbEntity
  8
1
  6
CONTINUOUS
 62
     1
100
AcDbBlockReference
  2
LDR
 10
639.5222
 20
453.6224
 30
0.0
 41
240.0
 42
240.0
 50
180.0
210
0.0
220
0.0
230
1.0
  0
INSERT
  5
275
100
AcDbEntity
  8
1
  6
CONTINUOUS
 62
     1
100
AcDbBlockReference
  2
LDR
 10
639.5222
 20
453.6224
 30
0.0
 41
240.0
 42
240.0
 50
180.0
210
0.0
220
0.0
230
1.0
  0
INSERT
  5
276
100
AcDbEntity
  8
1
  6
CONTINUOUS
 62
     1
100
AcDbBlockReference
  2
LDR
 10
687.5222
 20
453.6224
 30
0.0
 41
240.0
 42
240.0
210
0.0
220
0.0
230
1.0
  0
INSERT
  5
277
100
AcDbEntity
  8
1
  6
CONTINUOUS
 62
     1
100
AcDbBlockReference
  2
LDR
 10
687.5222
 20
453.6224
 30
0.0
 41
240.0
 42
240.0
210
0.0
220
0.0
230
1.0
  0
LINE
  5
278
100
AcDbEntity
  8
1
  6
CONTINUOUS
 62
     7
100
AcDbLine
 10
662.6736
 20
447.8709
 30
0.0
 11
658.431
 21
452.1136
 31
0.0
  0
LINE
  5
279
100
AcDbEntity
  8
1
  6
CONTINUOUS
 62
     7
100
AcDbLine
 10
638.6736
 20
423.8709
 30
0.0
 11
634.431
 21
428.1136
 31
0.0
  0
LINE
  5
27A
100
AcDbEntity
  8
1
  6
CONTINUOUS
 62
     7
100
AcDbLine
 10
635.2795
 20
427.265
 30
0.0
 11
659.2795
 21
451.265
 31
0.0
  0
INSERT
  5
27B
100
AcDbEntity
  8
1
  6
CONTINUOUS
 62
     1
100
AcDbBlockReference
  2
LDR
 10
659.2795
 20
451.265
 30
0.0
 41
239.999999
 42
239.999999
 50
45.0
210
0.0
220
0.0
230
1.0
  0
INSERT
  5
27C
100
AcDbEntity
  8
1
  6
CONTINUOUS
 62
     1
100
AcDbBlockReference
  2
LDR
 10
659.2795
 20
451.265
 30
0.0
 41
239.999999
 42
239.999999
 50
45.0
210
0.0
220
0.0
230
1.0
  0
INSERT
  5
27D
100
AcDbEntity
  8
1
  6
CONTINUOUS
 62
     1
100
AcDbBlockReference
  2
LDR
 10
635.2795
 20
427.265
 30
0.0
 41
239.999999
 42
239.999999
 50
225.0
210
0.0
220
0.0
230
1.0
  0
INSERT
  5
27E
100
AcDbEntity
  8
1
  6
CONTINUOUS
 62
     1
100
AcDbBlockReference
  2
LDR
 10
635.2795
 20
427.265
 30
0.0
 41
239.999999
 42
239.999999
 50
225.0
210
0.0
220
0.0
230
1.0
  0
TEXT
  5
27F
100
AcDbEntity
  8
1
  6
CONTINUOUS
 62
     7
100
AcDbText
 10
663.4938
 20
454.4936
 30
0.0
 40
3.0
  1
W
  7
MONOTXT
 72
     4
 11
664.9229
 21
455.9936
 31
0.0
210
0.0
220
0.0
230
1.0
100
AcDbText
  0
TEXT
  5
280
100
AcDbEntity
  8
1
  6
CONTINUOUS
 62
     7
100
AcDbText
 10
645.671
 20
438.4072
 30
0.0
 40
3.0
  1
W
 50
45.0
  7
MONOTXT
 72
     4
 11
645.620866
 21
440.478386
 31
0.0
210
0.0
220
0.0
230
1.0
100
AcDbText
  0
TEXT
  5
281
100
AcDbEntity
  8
1
  6
CONTINUOUS
 62
     7
100
AcDbText
 10
681.1232
 20
333.5851
 30
0.0
 40
3.0
  1
SEE CHART FOR DEPTH
  7
MONOTXT
 72
     4
 11
708.7019
 21
335.0851
 31
0.0
210
0.0
220
0.0
230
1.0
100
AcDbText
  0
LINE
  5
282
100
AcDbEntity
  8
1
  6
CONTINUOUS
 62
    30
100
AcDbLine
 10
658.9432
 20
201.4709
 30
0.0
 11
658.9432
 21
217.9771
 31
0.0
  0
LINE
  5
283
100
AcDbEntity
  8
1
  6
CONTINUOUS
 62
    30
100
AcDbLine
 10
692.8095
 20
238.6385
 30
0.0
 11
692.8095
 21
248.0533
 31
0.0
  0
LINE
  5
284
100
AcDbEntity
  8
1
  6
CONTINUOUS
 62
    30
100
AcDbLine
 10
692.8095
 20
180.8096
 30
0.0
 11
692.8095
 21
171.3947
 31
0.0
  0
LINE
  5
285
100
AcDbEntity
  8
1
  6
CONTINUOUS
 62
    30
100
AcDbLine
 10
695.2095
 20
182.3479
 30
0.0
 11
695.2095
 21
171.3947
 31
0.0
  0
LINE
  5
286
100
AcDbEntity
  8
1
  6
CONTINUOUS
 62
    30
100
AcDbLine
 10
695.2095
 20
237.1002
 30
0.0
 11
695.2095
 21
248.0533
 31
0.0
  0
LINE
  5
287
100
AcDbEntity
  8
1
  6
CONTINUOUS
 62
    30
100
AcDbLine
 10
658.9929
 20
194.798
 30
0.0
 11
690.3598
 21
184.2209
 31
0.0
  0
LINE
  5
288
100
AcDbEntity
  8
1
  6
CONTINUOUS
 62
    30
100
AcDbLine
 10
658.9928
 20
224.6501
 30
0.0
 11
690.3598
 21
235.2272
 31
0.0
  0
ARC
  5
289
100
AcDbEntity
  8
1
  6
CONTINUOUS
 62
    30
100
AcDbCircle
 10
689.2095
 20
180.80961
 30
0.0
 40
3.6
210
0.0
220
0.0
230
1.0
100
AcDbArc
 50
360.0
 51
71.365364
  0
ARC
  5
28A
100
AcDbEntity
  8
1
  6
CONTINUOUS
 62
    30
100
AcDbCircle
 10
689.2095
 20
238.638518
 30
0.0
 40
3.6
210
0.0
220
0.0
230
1.0
100
AcDbArc
 50
288.634517
 51
0.0
  0
LINE
  5
28B
100
AcDbEntity
  8
1
  6
CONTINUOUS
 62
    30
100
AcDbLine
 10
662.2094
 20
196.9226
 30
0.0
 11
691.9432
 21
186.8962
 31
0.0
  0
LINE
  5
28C
100
AcDbEntity
  8
1
  6
CONTINUOUS
 62
    30
100
AcDbLine
 10
662.2094
 20
222.5254
 30
0.0
 11
691.9432
 21
232.5519
 31
0.0
  0
ARC
  5
28D
100
AcDbEntity
  8
1
  6
CONTINUOUS
 62
    30
100
AcDbCircle
 10
690.4095
 20
182.347867
 30
0.0
 40
4.8
210
0.0
220
0.0
230
1.0
100
AcDbArc
 50
0.0
 51
71.365917
  0
ARC
  5
28E
100
AcDbEntity
  8
1
  6
CONTINUOUS
 62
    30
100
AcDbCircle
 10
690.4095
 20
237.100224
 30
0.0
 40
4.8
210
0.0
220
0.0
230
1.0
100
AcDbArc
 50
288.634392
 51
0.0
  0
ARC
  5
28F
100
AcDbEntity
  8
1
  6
CONTINUOUS
 62
    30
100
AcDbCircle
 10
663.7432
 20
201.470911
 30
0.0
 40
4.8
210
0.0
220
0.0
230
1.0
100
AcDbArc
 50
180.0
 51
251.364747
  0
ARC
  5
290
100
AcDbEntity
  8
1
  6
CONTINUOUS
 62
    30
100
AcDbCircle
 10
663.7432
 20
217.97705
 30
0.0
 40
4.8
210
0.0
220
0.0
230
1.0
100
AcDbArc
 50
108.63465
 51
180.0
  0
LINE
  5
291
100
AcDbEntity
  8
1
  6
CONTINUOUS
 62
    30
100
AcDbLine
 10
654.1432
 20
201.4709
 30
0.0
 11
654.1432
 21
217.9771
 31
0.0
  0
LINE
  5
292
100
AcDbEntity
  8
1
  6
CONTINUOUS
 62
    30
100
AcDbLine
 10
620.2769
 20
238.6385
 30
0.0
 11
620.2769
 21
248.0533
 31
0.0
  0
LINE
  5
293
100
AcDbEntity
  8
1
  6
CONTINUOUS
 62
    30
100
AcDbLine
 10
620.2769
 20
180.8096
 30
0.0
 11
620.2769
 21
171.3947
 31
0.0
  0
LINE
  5
294
100
AcDbEntity
  8
1
  6
CONTINUOUS
 62
    30
100
AcDbLine
 10
617.8769
 20
182.3479
 30
0.0
 11
617.8769
 21
171.3947
 31
0.0
  0
LINE
  5
295
100
AcDbEntity
  8
1
  6
CONTINUOUS
 62
    30
100
AcDbLine
 10
617.8769
 20
237.1002
 30
0.0
 11
617.8769
 21
248.0533
 31
0.0
  0
LINE
  5
296
100
AcDbEntity
  8
1
  6
CONTINUOUS
 62
    30
100
AcDbLine
 10
654.0935
 20
194.798
 30
0.0
 11
622.7266
 21
184.2209
 31
0.0
  0
LINE
  5
297
100
AcDbEntity
  8
1
  6
CONTINUOUS
 62
    30
100
AcDbLine
 10
654.0934
 20
224.65
 30
0.0
 11
622.7266
 21
235.2272
 31
0.0
  0
ARC
  5
298
100
AcDbEntity
  8
1
  6
CONTINUOUS
 62
    30
100
AcDbCircle
 10
623.8769
 20
180.80961
 30
0.0
 40
3.6
210
0.0
220
0.0
230
1.0
100
AcDbArc
 50
108.634636
 51
180.0
  0
ARC
  5
299
100
AcDbEntity
  8
1
  6
CONTINUOUS
 62
    30
100
AcDbCircle
 10
623.8769
 20
238.638518
 30
0.0
 40
3.6
210
0.0
220
0.0
230
1.0
100
AcDbArc
 50
180.0
 51
251.365483
  0
LINE
  5
29A
100
AcDbEntity
  8
1
  6
CONTINUOUS
 62
    30
100
AcDbLine
 10
650.877
 20
196.9226
 30
0.0
 11
621.1432
 21
186.8962
 31
0.0
  0
LINE
  5
29B
100
AcDbEntity
  8
1
  6
CONTINUOUS
 62
    30
100
AcDbLine
 10
650.877
 20
222.5254
 30
0.0
 11
621.1432
 21
232.5519
 31
0.0
  0
ARC
  5
29C
100
AcDbEntity
  8
1
  6
CONTINUOUS
 62
    30
100
AcDbCircle
 10
622.6769
 20
182.347867
 30
0.0
 40
4.8
210
0.0
220
0.0
230
1.0
100
AcDbArc
 50
108.634083
 51
180.0
  0
ARC
  5
29D
100
AcDbEntity
  8
1
  6
CONTINUOUS
 62
    30
100
AcDbCircle
 10
622.6769
 20
237.100224
 30
0.0
 40
4.8
210
0.0
220
0.0
230
1.0
100
AcDbArc
 50
180.0
 51
251.365608
  0
ARC
  5
29E
100
AcDbEntity
  8
1
  6
CONTINUOUS
 62
    30
100
AcDbCircle
 10
649.3432
 20
201.470911
 30
0.0
 40
4.8
210
0.0
220
0.0
230
1.0
100
AcDbArc
 50
288.635253
 51
360.0
  0
ARC
  5
29F
100
AcDbEntity
  8
1
  6
CONTINUOUS
 62
    30
100
AcDbCircle
 10
649.3432
 20
217.97705
 30
0.0
 40
4.8
210
0.0
220
0.0
230
1.0
100
AcDbArc
 50
360.0
 51
71.36535
  0
LINE
  5
2A0
100
AcDbEntity
  8
1
  6
CONTINUOUS
 62
    30
100
AcDbLine
 10
656.5432
 20
198.2093
 30
0.0
 11
656.5432
 21
221.2388
 31
0.0
  0
LINE
  5
2A1
100
AcDbEntity
  8
1
  6
CONTINUOUS
 62
    30
100
AcDbLine
 10
646.9432
 20
215.124
 30
0.0
 11
652.9432
 21
215.124
 31
0.0
  0
LINE
  5
2A2
100
AcDbEntity
  8
1
  6
CONTINUOUS
 62
    30
100
AcDbLine
 10
640.9432
 20
206.724
 30
0.0
 11
640.9432
 21
212.724
 31
0.0
  0
LINE
  5
2A3
100
AcDbEntity
  8
1
  6
CONTINUOUS
 62
    30
100
AcDbLine
 10
642.1432
 20
207.924
 30
0.0
 11
642.1432
 21
211.524
 31
0.0
  0
LINE
  5
2A4
100
AcDbEntity
  8
1
  6
CONTINUOUS
 62
    30
100
AcDbLine
 10
643.3432
 20
206.724
 30
0.0
 11
643.3432
 21
212.724
 31
0.0
  0
LINE
  5
2A5
100
AcDbEntity
  8
1
  6
CONTINUOUS
 62
    30
100
AcDbLine
 10
646.9432
 20
204.324
 30
0.0
 11
652.9432
 21
204.324
 31
0.0
  0
LINE
  5
2A6
100
AcDbEntity
  8
1
  6
CONTINUOUS
 62
    30
100
AcDbLine
 10
658.9432
 20
204.324
 30
0.0
 11
663.7432
 21
204.324
 31
0.0
  0
LINE
  5
2A7
100
AcDbEntity
  8
1
  6
CONTINUOUS
 62
    30
100
AcDbLine
 10
658.9432
 20
215.124
 30
0.0
 11
663.7432
 21
215.124
 31
0.0
  0
LINE
  5
2A8
100
AcDbEntity
  8
1
  6
CONTINUOUS
 62
    30
100
AcDbLine
 10
658.9432
 20
206.724
 30
0.0
 11
664.9432
 21
206.724
 31
0.0
  0
LINE
  5
2A9
100
AcDbEntity
  8
1
  6
CONTINUOUS
 62
    30
100
AcDbLine
 10
658.9432
 20
212.724
 30
0.0
 11
664.9432
 21
212.724
 31
0.0
  0
LINE
  5
2AA
100
AcDbEntity
  8
1
  6
CONTINUOUS
 62
    30
100
AcDbLine
 10
640.9432
 20
206.724
 30
0.0
 11
645.7432
 21
206.724
 31
0.0
  0
LINE
  5
2AB
100
AcDbEntity
  8
1
  6
CONTINUOUS
 62
    30
100
AcDbLine
 10
645.7432
 20
206.724
 30
0.0
 11
652.9432
 21
206.724
 31
0.0
  0
LINE
  5
2AC
100
AcDbEntity
  8
1
  6
CONTINUOUS
 62
    30
100
AcDbLine
 10
644.5432
 20
207.924
 30
0.0
 11
644.5432
 21
211.524
 31
0.0
  0
LINE
  5
2AD
100
AcDbEntity
  8
1
  6
CONTINUOUS
 62
    30
100
AcDbLine
 10
640.9432
 20
212.724
 30
0.0
 11
645.7432
 21
212.724
 31
0.0
  0
LINE
  5
2AE
100
AcDbEntity
  8
1
  6
CONTINUOUS
 62
    30
100
AcDbLine
 10
645.7432
 20
212.724
 30
0.0
 11
652.9432
 21
212.724
 31
0.0
  0
LINE
  5
2AF
100
AcDbEntity
  8
1
  6
CONTINUOUS
 62
    30
100
AcDbLine
 10
645.7432
 20
204.924
 30
0.0
 11
646.9432
 21
204.324
 31
0.0
  0
LINE
  5
2B0
100
AcDbEntity
  8
1
  6
CONTINUOUS
 62
    30
100
AcDbLine
 10
645.7432
 20
214.524
 30
0.0
 11
646.9432
 21
215.124
 31
0.0
  0
LINE
  5
2B1
100
AcDbEntity
  8
1
  6
CONTINUOUS
 62
    30
100
AcDbLine
 10
664.9432
 20
204.924
 30
0.0
 11
663.7432
 21
204.324
 31
0.0
  0
LINE
  5
2B2
100
AcDbEntity
  8
1
  6
CONTINUOUS
 62
    30
100
AcDbLine
 10
664.9432
 20
214.524
 30
0.0
 11
663.7432
 21
215.124
 31
0.0
  0
LINE
  5
2B3
100
AcDbEntity
  8
1
  6
CONTINUOUS
 62
    30
100
AcDbLine
 10
664.9432
 20
204.924
 30
0.0
 11
664.9432
 21
214.524
 31
0.0
  0
LINE
  5
2B4
100
AcDbEntity
  8
1
  6
CONTINUOUS
 62
    30
100
AcDbLine
 10
645.7432
 20
204.924
 30
0.0
 11
645.7432
 21
214.524
 31
0.0
  0
POLYLINE
  5
2B5
100
AcDbEntity
  8
1
  6
CONTINUOUS
 62
    30
100
AcDb2dPolyline
 66
     1
 10
0.0
 20
0.0
 30
0.0
 70
     1
  0
VERTEX
  5
2B6
100
AcDbEntity
  8
1
  6
CONTINUOUS
 62
    30
100
AcDbVertex
100
AcDb2dVertex
 10
645.7432
 20
204.924
 30
0.0
  0
VERTEX
  5
2B7
100
AcDbEntity
  8
1
  6
CONTINUOUS
 62
    30
100
AcDbVertex
100
AcDb2dVertex
 10
645.7432
 20
208.524
 30
0.0
  0
VERTEX
  5
2B8
100
AcDbEntity
  8
1
  6
CONTINUOUS
 62
    30
100
AcDbVertex
100
AcDb2dVertex
 10
647.5432
 20
206.724
 30
0.0
  0
VERTEX
  5
2B9
100
AcDbEntity
  8
1
  6
CONTINUOUS
 62
    30
100
AcDbVertex
100
AcDb2dVertex
 10
645.7432
 20
204.924
 30
0.0
  0
SEQEND
  5
2BA
100
AcDbEntity
  8
1
  6
CONTINUOUS
 62
    30
  0
POLYLINE
  5
2BB
100
AcDbEntity
  8
1
  6
CONTINUOUS
 62
    30
100
AcDb2dPolyline
 66
     1
 10
0.0
 20
0.0
 30
0.0
 70
     1
  0
VERTEX
  5
2BC
100
AcDbEntity
  8
1
  6
CONTINUOUS
 62
    30
100
AcDbVertex
100
AcDb2dVertex
 10
645.7432
 20
214.524
 30
0.0
  0
VERTEX
  5
2BD
100
AcDbEntity
  8
1
  6
CONTINUOUS
 62
    30
100
AcDbVertex
100
AcDb2dVertex
 10
645.7432
 20
210.924
 30
0.0
  0
VERTEX
  5
2BE
100
AcDbEntity
  8
1
  6
CONTINUOUS
 62
    30
100
AcDbVertex
100
AcDb2dVertex
 10
647.5432
 20
212.724
 30
0.0
  0
VERTEX
  5
2BF
100
AcDbEntity
  8
1
  6
CONTINUOUS
 62
    30
100
AcDbVertex
100
AcDb2dVertex
 10
645.7432
 20
214.524
 30
0.0
  0
SEQEND
  5
2C0
100
AcDbEntity
  8
1
  6
CONTINUOUS
 62
    30
  0
POLYLINE
  5
2C1
100
AcDbEntity
  8
1
  6
CONTINUOUS
 62
    30
100
AcDb2dPolyline
 66
     1
 10
0.0
 20
0.0
 30
0.0
 70
     1
  0
VERTEX
  5
2C2
100
AcDbEntity
  8
1
  6
CONTINUOUS
 62
    30
100
AcDbVertex
100
AcDb2dVertex
 10
663.1432
 20
206.724
 30
0.0
  0
VERTEX
  5
2C3
100
AcDbEntity
  8
1
  6
CONTINUOUS
 62
    30
100
AcDbVertex
100
AcDb2dVertex
 10
664.9432
 20
204.924
 30
0.0
  0
VERTEX
  5
2C4
100
AcDbEntity
  8
1
  6
CONTINUOUS
 62
    30
100
AcDbVertex
100
AcDb2dVertex
 10
664.9432
 20
208.524
 30
0.0
  0
VERTEX
  5
2C5
100
AcDbEntity
  8
1
  6
CONTINUOUS
 62
    30
100
AcDbVertex
100
AcDb2dVertex
 10
663.1432
 20
206.724
 30
0.0
  0
SEQEND
  5
2C6
100
AcDbEntity
  8
1
  6
CONTINUOUS
 62
    30
  0
POLYLINE
  5
2C7
100
AcDbEntity
  8
1
  6
CONTINUOUS
 62
    30
100
AcDb2dPolyline
 66
     1
 10
0.0
 20
0.0
 30
0.0
 70
     1
  0
VERTEX
  5
2C8
100
AcDbEntity
  8
1
  6
CONTINUOUS
 62
    30
100
AcDbVertex
100
AcDb2dVertex
 10
664.9432
 20
210.924
 30
0.0
  0
VERTEX
  5
2C9
100
AcDbEntity
  8
1
  6
CONTINUOUS
 62
    30
100
AcDbVertex
100
AcDb2dVertex
 10
663.1432
 20
212.724
 30
0.0
  0
VERTEX
  5
2CA
100
AcDbEntity
  8
1
  6
CONTINUOUS
 62
    30
100
AcDbVertex
100
AcDb2dVertex
 10
664.9432
 20
214.524
 30
0.0
  0
VERTEX
  5
2CB
100
AcDbEntity
  8
1
  6
CONTINUOUS
 62
    30
100
AcDbVertex
100
AcDb2dVertex
 10
664.9432
 20
210.924
 30
0.0
  0
SEQEND
  5
2CC
100
AcDbEntity
  8
1
  6
CONTINUOUS
 62
    30
  0
LINE
  5
2CD
100
AcDbEntity
  8
1
  6
CONTINUOUS
 62
    30
100
AcDbLine
 10
654.1432
 20
216.324
 30
0.0
 11
652.9432
 21
216.324
 31
0.0
  0
LINE
  5
2CE
100
AcDbEntity
  8
1
  6
CONTINUOUS
 62
    30
100
AcDbLine
 10
654.1432
 20
203.124
 30
0.0
 11
652.9432
 21
203.124
 31
0.0
  0
LINE
  5
2CF
100
AcDbEntity
  8
1
  6
CONTINUOUS
 62
    30
100
AcDbLine
 10
652.9432
 20
216.324
 30
0.0
 11
652.9432
 21
203.124
 31
0.0
  0
ARC
  5
2D0
100
AcDbEntity
  8
1
  6
CONTINUOUS
 62
    30
100
AcDbCircle
 10
652.9432
 20
221.238734
 30
0.0
 40
3.6
210
0.0
220
0.0
230
1.0
100
AcDbArc
 50
0.0
 51
71.366492
  0
ARC
  5
2D1
100
AcDbEntity
  8
1
  6
CONTINUOUS
 62
    30
100
AcDbCircle
 10
660.1432
 20
221.23884
 30
0.0
 40
3.6
210
0.0
220
0.0
230
1.0
100
AcDbArc
 50
108.635736
 51
180.0
  0
ARC
  5
2D2
100
AcDbEntity
  8
1
  6
CONTINUOUS
 62
    30
100
AcDbCircle
 10
652.9432
 20
198.209246
 30
0.0
 40
3.6
210
0.0
220
0.0
230
1.0
100
AcDbArc
 50
288.633933
 51
0.0
  0
ARC
  5
2D3
100
AcDbEntity
  8
1
  6
CONTINUOUS
 62
    30
100
AcDbCircle
 10
660.1432
 20
198.209263
 30
0.0
 40
3.6
210
0.0
220
0.0
230
1.0
100
AcDbArc
 50
180.0
 51
251.366408
  0
ARC
  5
2D4
100
AcDbEntity
  8
1
  6
CONTINUOUS
 62
    30
100
AcDbCircle
 10
619.0769
 20
247.997399
 30
0.0
 40
1.201301
210
0.0
220
0.0
230
1.0
100
AcDbArc
 50
2.667164
 51
177.332833
  0
ARC
  5
2D5
100
AcDbEntity
  8
1
  6
CONTINUOUS
 62
    30
100
AcDbCircle
 10
694.0095
 20
247.997399
 30
0.0
 40
1.201301
210
0.0
220
0.0
230
1.0
100
AcDbArc
 50
2.667164
 51
177.332833
  0
ARC
  5
2D6
100
AcDbEntity
  8
1
  6
CONTINUOUS
 62
    30
100
AcDbCircle
 10
619.0769
 20
171.450601
 30
0.0
 40
1.201301
210
0.0
220
0.0
230
1.0
100
AcDbArc
 50
182.667167
 51
357.332836
  0
ARC
  5
2D7
100
AcDbEntity
  8
1
  6
CONTINUOUS
 62
    30
100
AcDbCircle
 10
694.0095
 20
171.450601
 30
0.0
 40
1.201301
210
0.0
220
0.0
230
1.0
100
AcDbArc
 50
182.667167
 51
357.332836
  0
LINE
  5
2D8
100
AcDbEntity
  8
1
  6
CONTINUOUS
 62
     7
100
AcDbLine
 10
640.9432
 20
209.724
 30
0.0
 11
612.7524
 21
219.9846
 31
0.0
  0
LINE
  5
2D9
100
AcDbEntity
  8
1
  6
CONTINUOUS
 62
     7
100
AcDbLine
 10
652.9432
 20
203.124
 30
0.0
 11
613.4761
 21
188.7592
 31
0.0
  0
LINE
  5
2DA
100
AcDbEntity
  8
1
  6
CONTINUOUS
 62
     7
100
AcDbLine
 10
664.9001
 20
209.8879
 30
0.0
 11
694.9001
 21
209.8879
 31
0.0
  0
TEXT
  5
2DB
100
AcDbEntity
  8
1
  6
CONTINUOUS
 62
     7
100
AcDbText
 10
537.7926
 20
223.6604
 30
0.0
 40
3.0
  1
/
  7
MONOTXT
 72
     4
 11
538.6312
 21
225.1604
 31
0.0
210
0.0
220
0.0
230
1.0
100
AcDbText
  0
TEXT
  5
2DC
100
AcDbEntity
  8
1
  6
CONTINUOUS
 62
     7
100
AcDbText
 10
579.8806
 20
187.2332
 30
0.0
 40
3.0
  1
LOCK WASHER
  7
MONOTXT
 72
     4
 11
596.1207
 21
188.7332
 31
0.0
210
0.0
220
0.0
230
1.0
100
AcDbText
  0
TEXT
  5
2DD
100
AcDbEntity
  8
1
  6
CONTINUOUS
 62
     7
100
AcDbText
 10
598.105
 20
155.6635
 30
0.0
 40
3.6
  1
STITCH BOLT INSTALLATION ILLUSTRATION
  7
MONOTXT
 72
     4
 11
657.1364
 21
157.4635
 31
0.0
210
0.0
220
0.0
230
1.0
100
AcDbText
  0
LINE
  5
2DE
100
AcDbEntity
  8
1
  6
CONTINUOUS
 62
     7
100
AcDbLine
 10
596.4865
 20
153.5701
 30
0.0
 11
718.4064
 21
153.5701
 31
0.0
  0
TEXT
  5
2DF
100
AcDbEntity
  8
1
  6
CONTINUOUS
 62
     7
100
AcDbText
 10
225.0853
 20
344.6594
 30
0.0
 40
8.4
  1
*
 50
45.0
  7
TXT
 72
     4
 11
223.953151
 21
349.466948
 31
0.0
210
0.0
220
0.0
230
1.0
100
AcDbText
  0
TEXT
  5
2E0
100
AcDbEntity
  8
1
  6
CONTINUOUS
 62
     7
100
AcDbText
 10
319.2563
 20
301.5601
 30
0.0
 40
8.4
  1
*
 50
45.0
  7
TXT
 72
     4
 11
318.124151
 21
306.367648
 31
0.0
210
0.0
220
0.0
230
1.0
100
AcDbText
  0
CIRCLE
  5
2E1
100
AcDbEntity
  8
1
  6
CONTINUOUS
 62
     7
100
AcDbCircle
 10
223.1758
 20
350.9365
 30
0.0
 40
2.772292
210
0.0
220
0.0
230
1.0
  0
CIRCLE
  5
2E2
100
AcDbEntity
  8
1
  6
CONTINUOUS
 62
     7
100
AcDbCircle
 10
317.2376
 20
307.7389
 30
0.0
 40
2.772292
210
0.0
220
0.0
230
1.0
  0
TEXT
  5
2E3
100
AcDbEntity
  8
1
  6
CONTINUOUS
 62
     7
100
AcDbText
 10
408.2071
 20
282.4787
 30
0.0
 40
8.399999
  1
*
 50
270.0
  7
TXT
 72
     4
 11
412.4071
 21
279.8798
 31
0.0
210
0.0
220
0.0
230
1.0
100
AcDbText
  0
CIRCLE
  5
2E4
100
AcDbEntity
  8
1
  6
CONTINUOUS
 62
     7
100
AcDbCircle
 10
414.003547
 20
279.537009
 30
0.0
 40
2.772292
210
0.0
220
0.0
230
1.0
  0
TEXT
  5
2E5
100
AcDbEntity
  8
1
  6
CONTINUOUS
 62
     7
100
AcDbText
 10
560.9268
 20
382.4553
 30
0.0
 40
3.0
  1
SEE TP3-1  FOR TYPICAL INSTALLATIONS
  7
MONOTXT
 72
     4
 11
608.3008
 21
383.9553
 31
0.0
210
0.0
220
0.0
230
1.0
100
AcDbText
  0
LWPOLYLINE
  5
2E6
100
AcDbEntity
  8
1
  6
CONTINUOUS
 62
     7
100
AcDbPolyline
 90
        4
 70
     0
 10
597.574
 20
26.3882
 10
595.174
 20
22.2313
 10
599.974
 20
22.2313
 10
597.574
 20
26.3882
  0
TEXT
  5
2E7
100
AcDbEntity
  8
1
  6
CONTINUOUS
 62
     7
100
AcDbText
 10
596.8491
 20
22.8499
 30
0.0
 40
2.1
  1
9
  7
MONOTXT
210
0.0
220
0.0
230
1.0
100
AcDbText
  0
LWPOLYLINE
  5
2E8
100
AcDbEntity
  8
1
  6
CONTINUOUS
 62
     7
100
AcDbPolyline
 90
        4
 70
     0
 10
597.6349
 20
20.7547
 10
595.2349
 20
16.5978
 10
600.0349
 20
16.5978
 10
597.6349
 20
20.7547
  0
TEXT
  5
2E9
100
AcDbEntity
  8
1
  6
CONTINUOUS
 62
     7
100
AcDbText
 10
596.3427
 20
16.7799
 30
0.0
 40
2.1
  1
10
  7
MONOTXT
210
0.0
220
0.0
230
1.0
100
AcDbText
  0
TEXT
  5
2EA
100
AcDbEntity
  8
1
  6
CONTINUOUS
 62
     1
100
AcDbText
 10
604.0893
 20
17.286
 30
0.0
 40
2.4
  1
09-13-93
  7
MONOTXT
 72
     1
 11
612.1869
 21
19.686
 31
0.0
210
0.0
220
0.0
230
1.0
100
AcDbText
 73
     3
  0
TEXT
  5
2EB
100
AcDbEntity
  8
1
  6
CONTINUOUS
 62
     7
100
AcDbText
 10
610.4791
 20
284.1903
 30
0.0
 40
2.1
  1
10
  7
MONOTXT
210
0.0
220
0.0
230
1.0
100
AcDbText
  0
LWPOLYLINE
  5
2EC
100
AcDbEntity
  8
1
  6
CONTINUOUS
 62
     7
100
AcDbPolyline
 90
        4
 70
     0
 10
611.7713
 20
288.1651
 10
609.3713
 20
284.0082
 10
614.1713
 20
284.0082
 10
611.7713
 20
288.1651
  0
TEXT
  5
2ED
100
AcDbEntity
  8
1
  6
CONTINUOUS
 62
     7
100
AcDbText
 10
516.6015
 20
224.4284
 30
0.0
 40
2.1
  1
10
  7
MONOTXT
210
0.0
220
0.0
230
1.0
100
AcDbText
  0
LWPOLYLINE
  5
2EE
100
AcDbEntity
  8
1
  6
CONTINUOUS
 62
     7
100
AcDbPolyline
 90
        4
 70
     0
 10
517.8937
 20
228.3144
 10
515.4937
 20
224.1575
 10
520.2937
 20
224.1575
 10
517.8937
 20
228.3144
  0
TEXT
  5
2EF
100
AcDbEntity
  8
1
  6
CONTINUOUS
 62
     7
100
AcDbText
 10
529.2825
 20
65.2517
 30
0.0
 40
2.1
  1
4
  7
MONOTXT
210
0.0
220
0.0
230
1.0
100
AcDbText
  0
LWPOLYLINE
  5
2F0
100
AcDbEntity
  8
1
  6
CONTINUOUS
 62
     7
100
AcDbPolyline
 90
        4
 70
     0
 10
530.3844
 20
85.6376
 10
527.9844
 20
81.4807
 10
532.7844
 20
81.4807
 10
530.3844
 20
85.6376
  0
LWPOLYLINE
  5
2F1
100
AcDbEntity
  8
1
  6
CONTINUOUS
 62
     7
100
AcDbPolyline
 90
        4
 70
     0
 10
530.3122
 20
80.1464
 10
527.9122
 20
75.9895
 10
532.7122
 20
75.9895
 10
530.3122
 20
80.1464
  0
LWPOLYLINE
  5
2F2
100
AcDbEntity
  8
1
  6
CONTINUOUS
 62
     7
100
AcDbPolyline
 90
        4
 70
     0
 10
530.24
 20
74.52
 10
527.84
 20
70.3631
 10
532.64
 20
70.3631
 10
530.24
 20
74.52
  0
LWPOLYLINE
  5
2F3
100
AcDbEntity
  8
1
  6
CONTINUOUS
 62
     7
100
AcDbPolyline
 90
        4
 70
     0
 10
530.1363
 20
68.9252
 10
527.7363
 20
64.7683
 10
532.5363
 20
64.7683
 10
530.1363
 20
68.9252
  0
LWPOLYLINE
  5
2F4
100
AcDbEntity
  8
1
  6
CONTINUOUS
 62
     7
100
AcDbPolyline
 90
        4
 70
     0
 10
530.0328
 20
63.4339
 10
527.6328
 20
59.277
 10
532.4328
 20
59.277
 10
530.0328
 20
63.4339
  0
LWPOLYLINE
  5
2F5
100
AcDbEntity
  8
1
  6
CONTINUOUS
 62
     7
100
AcDbPolyline
 90
        4
 70
     0
 10
530.2086
 20
58.1752
 10
527.8086
 20
54.0183
 10
532.6086
 20
54.0183
 10
530.2086
 20
58.1752
  0
LWPOLYLINE
  5
2F6
100
AcDbEntity
  8
1
  6
CONTINUOUS
 62
     7
100
AcDbPolyline
 90
        4
 70
     0
 10
530.1363
 20
52.6211
 10
527.7363
 20
48.4642
 10
532.5363
 20
48.4642
 10
530.1363
 20
52.6211
  0
LWPOLYLINE
  5
2F7
100
AcDbEntity
  8
1
  6
CONTINUOUS
 62
     7
100
AcDbPolyline
 90
        4
 70
     0
 10
530.3687
 20
47.2177
 10
527.9687
 20
43.0608
 10
532.7687
 20
43.0608
 10
530.3687
 20
47.2177
  0
TEXT
  5
2F8
100
AcDbEntity
  8
1
  6
CONTINUOUS
 62
     7
100
AcDbText
 10
529.6438
 20
43.6794
 30
0.0
 40
2.1
  1
8
  7
MONOTXT
210
0.0
220
0.0
230
1.0
100
AcDbText
  0
TEXT
  5
2F9
100
AcDbEntity
  8
1
  6
CONTINUOUS
 62
     7
100
AcDbText
 10
529.4991
 20
48.8346
 30
0.0
 40
2.1
  1
7
  7
MONOTXT
210
0.0
220
0.0
230
1.0
100
AcDbText
  0
TEXT
  5
2FA
100
AcDbEntity
  8
1
  6
CONTINUOUS
 62
     7
100
AcDbText
 10
529.4992
 20
54.4452
 30
0.0
 40
2.1
  1
6
  7
MONOTXT
210
0.0
220
0.0
230
1.0
100
AcDbText
  0
TEXT
  5
2FB
100
AcDbEntity
  8
1
  6
CONTINUOUS
 62
     7
100
AcDbText
 10
529.3233
 20
59.7197
 30
0.0
 40
2.1
  1
5
  7
MONOTXT
210
0.0
220
0.0
230
1.0
100
AcDbText
  0
TEXT
  5
2FC
100
AcDbEntity
  8
1
  6
CONTINUOUS
 62
     7
100
AcDbText
 10
529.4584
 20
70.6455
 30
0.0
 40
2.1
  1
3
  7
MONOTXT
210
0.0
220
0.0
230
1.0
100
AcDbText
  0
TEXT
  5
2FD
100
AcDbEntity
  8
1
  6
CONTINUOUS
 62
     7
100
AcDbText
 10
529.6751
 20
76.4164
 30
0.0
 40
2.1
  1
2
  7
MONOTXT
210
0.0
220
0.0
230
1.0
100
AcDbText
  0
TEXT
  5
2FE
100
AcDbEntity
  8
1
  6
CONTINUOUS
 62
     7
100
AcDbText
 10
529.964
 20
82.0522
 30
0.0
 40
2.1
  1
1
  7
MONOTXT
210
0.0
220
0.0
230
1.0
100
AcDbText
  0
TEXT
  5
2FF
100
AcDbEntity
  8
1
  6
CONTINUOUS
 62
     7
100
AcDbText
 10
535.6232
 20
82.7668
 30
0.0
 40
2.1
  1
REVISION OF NOTES
  7
MONOTXT
 11
535.6232
 21
84.8668
 31
0.0
210
0.0
220
0.0
230
1.0
100
AcDbText
 73
     3
  0
TEXT
  5
300
100
AcDbEntity
  8
1
  6
CONTINUOUS
 62
     7
100
AcDbText
 10
535.6232
 20
77.0668
 30
0.0
 40
2.1
  1
REVISION OF NOTES
  7
MONOTXT
 11
535.6232
 21
79.1668
 31
0.0
210
0.0
220
0.0
230
1.0
100
AcDbText
 73
     3
  0
TEXT
  5
301
100
AcDbEntity
  8
1
  6
CONTINUOUS
 62
     7
100
AcDbText
 10
535.6232
 20
71.3668
 30
0.0
 40
2.1
  1
WIND PRESSURE REDUCTION
  7
MONOTXT
 11
535.6232
 21
73.4668
 31
0.0
210
0.0
220
0.0
230
1.0
100
AcDbText
 73
     3
  0
TEXT
  5
302
100
AcDbEntity
  8
1
  6
CONTINUOUS
 62
     7
100
AcDbText
 10
535.6232
 20
65.6668
 30
0.0
 40
2.1
  1
EMBEDMENT
  7
MONOTXT
 11
535.6232
 21
67.7668
 31
0.0
210
0.0
220
0.0
230
1.0
100
AcDbText
 73
     3
  0
TEXT
  5
303
100
AcDbEntity
  8
1
  6
CONTINUOUS
 62
     7
100
AcDbText
 10
535.6232
 20
59.9668
 30
0.0
 40
2.1
  1
POST SECTION
  7
MONOTXT
 11
535.6232
 21
62.0668
 31
0.0
210
0.0
220
0.0
230
1.0
100
AcDbText
 73
     3
  0
TEXT
  5
304
100
AcDbEntity
  8
1
  6
CONTINUOUS
 62
     7
100
AcDbText
 10
535.5353
 20
55.0585
 30
0.0
 40
2.1
  1
DEPTH, CONC., NOTES
  7
MONOTXT
 11
535.5353
 21
57.1585
 31
0.0
210
0.0
220
0.0
230
1.0
100
AcDbText
 73
     3
  0
TEXT
  5
305
100
AcDbEntity
  8
1
  6
CONTINUOUS
 62
     7
100
AcDbText
 10
535.5353
 20
49.6224
 30
0.0
 40
2.1
  1
REV. OF SEC. MOD.
  7
MONOTXT
 11
535.5353
 21
51.7224
 31
0.0
210
0.0
220
0.0
230
1.0
100
AcDbText
 73
     3
  0
TEXT
  5
306
100
AcDbEntity
  8
1
  6
CONTINUOUS
 62
     7
100
AcDbText
 10
535.5353
 20
43.9225
 30
0.0
 40
2.1
  1
DELETED G.R. FOR 6.0
  7
MONOTXT
 11
535.5353
 21
46.0225
 31
0.0
210
0.0
220
0.0
230
1.0
100
AcDbText
 73
     3
  0
LWPOLYLINE
  5
307
100
AcDbEntity
  8
1
  6
CONTINUOUS
 62
     7
100
AcDbPolyline
 90
        4
 70
     0
 10
530.2808
 20
41.8516
 10
527.8808
 20
37.6947
 10
532.6808
 20
37.6947
 10
530.2808
 20
41.8516
  0
TEXT
  5
308
100
AcDbEntity
  8
1
  6
CONTINUOUS
 62
     7
100
AcDbText
 10
529.5559
 20
38.3133
 30
0.0
 40
2.1
  1
9
  7
MONOTXT
210
0.0
220
0.0
230
1.0
100
AcDbText
  0
TEXT
  5
309
100
AcDbEntity
  8
1
  6
CONTINUOUS
 62
     7
100
AcDbText
 10
535.4474
 20
38.8202
 30
0.0
 40
2.1
  1
4.0BB AND 6.0BB BEHIND GR
  7
MONOTXT
 11
535.4474
 21
40.9202
 31
0.0
210
0.0
220
0.0
230
1.0
100
AcDbText
 73
     3
  0
TEXT
  5
30A
100
AcDbEntity
  8
1
  6
CONTINUOUS
 62
     7
100
AcDbText
 10
528.8134
 20
32.3737
 30
0.0
 40
2.1
  1
10
  7
MONOTXT
210
0.0
220
0.0
230
1.0
100
AcDbText
  0
LWPOLYLINE
  5
30B
100
AcDbEntity
  8
1
  6
CONTINUOUS
 62
     7
100
AcDbPolyline
 90
        4
 70
     0
 10
530.1056
 20
36.3485
 10
527.7056
 20
32.1916
 10
532.5056
 20
32.1916
 10
530.1056
 20
36.3485
  0
TEXT
  5
30C
100
AcDbEntity
  8
1
  6
CONTINUOUS
 62
     7
100
AcDbText
 10
535.4475
 20
33.4785
 30
0.0
 40
2.1
  1
REVISED CLEAR NOTE
  7
MONOTXT
 11
535.4475
 21
35.5785
 31
0.0
210
0.0
220
0.0
230
1.0
100
AcDbText
 73
     3
  0
TEXT
  5
30D
100
AcDbEntity
  8
1
  6
CONTINUOUS
 62
     7
100
AcDbText
 10
535.4475
 20
28.9785
 30
0.0
 40
2.1
  1
ADDED BOLT SPECS
  7
MONOTXT
 11
535.4475
 21
31.0785
 31
0.0
210
0.0
220
0.0
230
1.0
100
AcDbText
 73
     3
  0
LINE
  5
30E
100
AcDbEntity
  8
61
  6
CONTINUOUS
 62
     2
100
AcDbLine
 10
806.5731
 20
533.0268
 30
0.0
 11
669.4731
 21
533.0268
 31
0.0
  0
LINE
  5
30F
100
AcDbEntity
  8
61
  6
CONTINUOUS
 62
     2
100
AcDbLine
 10
669.4731
 20
533.0268
 30
0.0
 11
669.4731
 21
507.6268
 31
0.0
  0
LINE
  5
310
100
AcDbEntity
  8
61
  6
CONTINUOUS
 62
     2
100
AcDbLine
 10
806.5731
 20
533.0268
 30
0.0
 11
806.5731
 21
507.6268
 31
0.0
  0
LINE
  5
311
100
AcDbEntity
  8
61
  6
CONTINUOUS
 62
     2
100
AcDbLine
 10
806.5731
 20
507.6268
 30
0.0
 11
669.4731
 21
507.6268
 31
0.0
  0
LINE
  5
312
100
AcDbEntity
  8
61
  6
CONTINUOUS
 62
     2
100
AcDbLine
 10
806.5731
 20
520.3268
 30
0.0
 11
669.4731
 21
520.3268
 31
0.0
  0
LINE
  5
313
100
AcDbEntity
  8
61
  6
CONTINUOUS
 62
     2
100
AcDbLine
 10
682.1731
 20
533.0268
 30
0.0
 11
682.1731
 21
507.6268
 31
0.0
  0
LINE
  5
314
100
AcDbEntity
  8
61
  6
CONTINUOUS
 62
     2
100
AcDbLine
 10
694.8731
 20
533.0268
 30
0.0
 11
694.8731
 21
507.6268
 31
0.0
  0
LINE
  5
315
100
AcDbEntity
  8
61
  6
CONTINUOUS
 62
     2
100
AcDbLine
 10
712.2731
 20
533.0268
 30
0.0
 11
712.2731
 21
507.6268
 31
0.0
  0
LINE
  5
316
100
AcDbEntity
  8
61
  6
CONTINUOUS
 62
     2
100
AcDbLine
 10
793.8731
 20
533.0268
 30
0.0
 11
793.8731
 21
507.6268
 31
0.0
  0
LINE
  5
317
100
AcDbEntity
  8
61
  6
CONTINUOUS
 62
     2
100
AcDbLine
 10
781.1731
 20
533.0268
 30
0.0
 11
781.1731
 21
507.6268
 31
0.0
  0
LINE
  5
318
100
AcDbEntity
  8
61
  6
CONTINUOUS
 62
     2
100
AcDbLine
 10
753.2731
 20
533.0268
 30
0.0
 11
753.2731
 21
507.6268
 31
0.0
  0
LINE
  5
319
100
AcDbEntity
  8
61
  6
CONTINUOUS
 62
     2
100
AcDbLine
 10
740.5731
 20
533.0268
 30
0.0
 11
740.5731
 21
507.6268
 31
0.0
  0
TEXT
  5
31A
100
AcDbEntity
  8
61
  6
CONTINUOUS
 62
     2
100
AcDbText
 10
672.0731
 20
529.1268
 30
0.0
 40
1.5246
  1
PUBLIC
 50
0.033272
 41
1.001968
  7
MONOTXT
210
0.0
220
0.0
230
1.0
100
AcDbText
  0
TEXT
  5
31B
100
AcDbEntity
  8
61
  6
CONTINUOUS
 62
     2
100
AcDbText
 10
672.1731
 20
525.9268
 30
0.0
 40
1.5246
  1
ROADS
 50
0.124322
 41
0.996852
  7
MONOTXT
210
0.0
220
0.0
230
1.0
100
AcDbText
  0
TEXT
  5
31C
100
AcDbEntity
  8
61
  6
CONTINUOUS
 62
     2
100
AcDbText
 10
673.6731
 20
522.8268
 30
0.0
 40
1.5246
  1
DIV.
 50
359.931522
 41
0.994884
  7
MONOTXT
210
0.0
220
0.0
230
1.0
100
AcDbText
  0
TEXT
  5
31D
100
AcDbEntity
  8
61
  6
CONTINUOUS
 62
     2
100
AcDbText
 10
684.9731
 20
529.2268
 30
0.0
 40
1.5246
  1
STATE
 50
0.058969
 41
0.998032
  7
MONOTXT
210
0.0
220
0.0
230
1.0
100
AcDbText
  0
TEXT
  5
31E
100
AcDbEntity
  8
61
  6
CONTINUOUS
 62
     2
100
AcDbText
 10
686.0731
 20
526.0268
 30
0.0
 40
1.5246
  1
DIST.
 50
0.055889
 41
0.999606
  7
MONOTXT
210
0.0
220
0.0
230
1.0
100
AcDbText
  0
TEXT
  5
31F
100
AcDbEntity
  8
61
  6
CONTINUOUS
 62
     2
100
AcDbText
 10
686.7731
 20
522.8268
 30
0.0
 40
1.5246
  1
NO.
 50
359.852072
 41
0.997639
  7
MONOTXT
210
0.0
220
0.0
230
1.0
100
AcDbText
  0
TEXT
  5
320
100
AcDbEntity
  8
61
  6
CONTINUOUS
 62
     2
100
AcDbText
 10
700.1731
 20
529.1268
 30
0.0
 40
1.5246
  1
STATE
 50
0.058969
 41
0.998032
  7
MONOTXT
210
0.0
220
0.0
230
1.0
100
AcDbText
  0
TEXT
  5
321
100
AcDbEntity
  8
61
  6
CONTINUOUS
 62
     2
100
AcDbText
 10
698.7731
 20
526.1268
 30
0.0
 40
1.5246
  1
PROJECT
 50
359.908431
  7
MONOTXT
210
0.0
220
0.0
230
1.0
100
AcDbText
  0
TEXT
  5
322
100
AcDbEntity
  8
61
  6
CONTINUOUS
 62
     2
100
AcDbText
 10
702.2731
 20
522.8268
 30
0.0
 40
1.5246
  1
NO.
 50
0.225453
 41
0.993703
  7
MONOTXT
210
0.0
220
0.0
230
1.0
100
AcDbText
  0
TEXT
  5
323
100
AcDbEntity
  8
61
  6
CONTINUOUS
 62
     2
100
AcDbText
 10
722.1731
 20
527.7268
 30
0.0
 40
1.5234
  1
FEDERAL
 50
0.006714
 41
0.998425
  7
MONOTXT
210
0.0
220
0.0
230
1.0
100
AcDbText
  0
TEXT
  5
324
100
AcDbEntity
  8
61
  6
CONTINUOUS
 62
     2
100
AcDbText
 10
720.1731
 20
524.3268
 30
0.0
 40
1.5246
  1
PROJECT NO.
 50
359.921531
 41
1.000787
  7
MONOTXT
210
0.0
220
0.0
230
1.0
100
AcDbText
  0
TEXT
  5
325
100
AcDbEntity
  8
61
  6
CONTINUOUS
 62
     2
100
AcDbText
 10
743.3731
 20
527.6268
 30
0.0
 40
1.5246
  1
FISCAL
 50
359.941939
 41
0.998819
  7
MONOTXT
210
0.0
220
0.0
230
1.0
100
AcDbText
  0
TEXT
  5
326
100
AcDbEntity
  8
61
  6
CONTINUOUS
 62
     2
100
AcDbText
 10
744.0731
 20
524.0268
 30
0.0
 40
1.5234
  1
YEAR
 50
0.104606
 41
0.993304
  7
MONOTXT
210
0.0
220
0.0
230
1.0
100
AcDbText
  0
TEXT
  5
327
100
AcDbEntity
  8
61
  6
CONTINUOUS
 62
     2
100
AcDbText
 10
761.9731
 20
525.7268
 30
0.0
 40
1.523399
  1
COUNTY
 50
0.068575
 41
1.001969
  7
MONOTXT
210
0.0
220
0.0
230
1.0
100
AcDbText
  0
TEXT
  5
328
100
AcDbEntity
  8
61
  6
CONTINUOUS
 62
     2
100
AcDbText
 10
784.3731
 20
527.8268
 30
0.0
 40
1.5246
  1
SHEET
 50
0.058969
 41
0.997639
  7
MONOTXT
210
0.0
220
0.0
230
1.0
100
AcDbText
  0
TEXT
  5
329
100
AcDbEntity
  8
61
  6
CONTINUOUS
 62
     2
100
AcDbText
 10
786.1731
 20
524.3268
 30
0.0
 40
1.5246
  1
NO.
 50
359.852072
 41
0.997639
  7
MONOTXT
210
0.0
220
0.0
230
1.0
100
AcDbText
  0
TEXT
  5
32A
100
AcDbEntity
  8
61
  6
CONTINUOUS
 62
     2
100
AcDbText
 10
796.7731
 20
527.6268
 30
0.0
 40
1.5246
  1
TOTAL
 50
359.926039
 41
0.998426
  7
MONOTXT
210
0.0
220
0.0
230
1.0
100
AcDbText
  0
TEXT
  5
32B
100
AcDbEntity
  8
61
  6
CONTINUOUS
 62
     2
100
AcDbText
 10
796.1731
 20
524.2268
 30
0.0
 40
1.523399
  1
SHEETS
 50
359.958675
  7
MONOTXT
210
0.0
220
0.0
230
1.0
100
AcDbText
  0
TEXT
  5
32C
100
AcDbEntity
  8
61
  6
CONTINUOUS
 62
     2
100
AcDbText
 10
685.4731
 20
512.9268
 30
0.0
 40
3.0492
  1
  
 50
0.029406
 41
0.996655
  7
MONOTXT
210
0.0
220
0.0
230
1.0
100
AcDbText
  0
TEXT
  5
32D
100
AcDbEntity
  8
61
  6
CONTINUOUS
 62
     2
100
AcDbText
 10
783.4731
 20
512.6268
 30
0.0
 40
3.049199
  1
   
 50
0.011508
 41
1.000984
  7
MONOTXT
210
0.0
220
0.0
230
1.0
100
AcDbText
  0
TEXT
  5
32E
100
AcDbEntity
  8
61
  6
CONTINUOUS
 62
     2
100
AcDbText
 10
796.0731
 20
512.5268
 30
0.0
 40
3.0492
  1
   
 50
359.922128
 41
1.00059
  7
MONOTXT
210
0.0
220
0.0
230
1.0
100
AcDbText
  0
TEXT
  5
32F
100
AcDbEntity
  8
61
  6
CONTINUOUS
 62
     2
100
AcDbText
 10
698.6731
 20
516.9268
 30
0.0
 40
2.5482
  1
    
 50
0.054383
 41
0.993643
  7
MONOTXT
210
0.0
220
0.0
230
1.0
100
AcDbText
  0
TEXT
  5
330
100
AcDbEntity
  8
61
  6
CONTINUOUS
 62
     2
100
AcDbText
 10
694.9731
 20
513.0268
 30
0.0
 40
2.5266
  1
       
 50
0.064678
 41
1.00095
  7
MONOTXT
210
0.0
220
0.0
230
1.0
100
AcDbText
  0
TEXT
  5
331
100
AcDbEntity
  8
61
  6
CONTINUOUS
 62
     2
100
AcDbText
 10
696.2731
 20
509.3268
 30
0.0
 40
2.526599
  1
      
 50
359.958053
 41
1.000237
  7
MONOTXT
210
0.0
220
0.0
230
1.0
100
AcDbText
  0
TEXT
  5
332
100
AcDbEntity
  8
61
  6
CONTINUOUS
 62
     2
100
AcDbText
 10
710.1731
 20
515.2268
 30
0.0
 40
3.049199
  1
           
 50
0.011508
 41
0.998819
  7
MONOTXT
210
0.0
220
0.0
230
1.0
100
AcDbText
  0
TEXT
  5
333
100
AcDbEntity
  8
61
  6
CONTINUOUS
 62
     2
100
AcDbText
 10
709.9731
 20
510.6268
 30
0.0
 40
3.049199
  1
           
 50
0.011508
 41
0.999606
  7
MONOTXT
210
0.0
220
0.0
230
1.0
100
AcDbText
  0
TEXT
  5
334
100
AcDbEntity
  8
61
  6
CONTINUOUS
 62
     2
100
AcDbText
 10
754.8731
 20
512.8268
 30
0.0
 40
2.5482
  1
          
 50
0.009222
 41
0.992701
  7
MONOTXT
210
0.0
220
0.0
230
1.0
100
AcDbText
  0
LINE
  5
335
100
AcDbEntity
  8
1
  6
CONTINUOUS
 62
     2
100
AcDbLine
 10
591.6731
 20
9.9268
 30
0.0
 11
591.6731
 21
126.2268
 31
0.0
  0
LINE
  5
336
100
AcDbEntity
  8
1
  6
CONTINUOUS
 62
     2
100
AcDbLine
 10
591.6731
 20
126.2268
 30
0.0
 11
809.6731
 21
126.2268
 31
0.0
  0
LINE
  5
337
100
AcDbEntity
  8
1
  6
CONTINUOUS
 62
     2
100
AcDbLine
 10
636.1731
 20
9.9268
 30
0.0
 11
636.1731
 21
78.7268
 31
0.0
  0
LINE
  5
338
100
AcDbEntity
  8
1
  6
CONTINUOUS
 62
     2
100
AcDbLine
 10
636.1731
 20
78.7268
 30
0.0
 11
591.6731
 21
78.7268
 31
0.0
  0
LINE
  5
339
100
AcDbEntity
  8
1
  6
CONTINUOUS
 62
     2
100
AcDbLine
 10
636.1731
 20
73.0268
 30
0.0
 11
591.6731
 21
73.0268
 31
0.0
  0
LINE
  5
33A
100
AcDbEntity
  8
1
  6
CONTINUOUS
 62
     2
100
AcDbLine
 10
636.1731
 20
55.6268
 30
0.0
 11
591.6731
 21
55.6268
 31
0.0
  0
LINE
  5
33B
100
AcDbEntity
  8
1
  6
CONTINUOUS
 62
     2
100
AcDbLine
 10
636.1731
 20
49.8268
 30
0.0
 11
591.6731
 21
49.8268
 31
0.0
  0
LINE
  5
33C
100
AcDbEntity
  8
1
  6
CONTINUOUS
 62
     2
100
AcDbLine
 10
636.1731
 20
44.1268
 30
0.0
 11
591.6731
 21
44.1268
 31
0.0
  0
LINE
  5
33D
100
AcDbEntity
  8
1
  6
CONTINUOUS
 62
     2
100
AcDbLine
 10
636.1731
 20
38.4268
 30
0.0
 11
591.6731
 21
38.4268
 31
0.0
  0
LINE
  5
33E
100
AcDbEntity
  8
1
  6
CONTINUOUS
 62
     2
100
AcDbLine
 10
636.1731
 20
32.7268
 30
0.0
 11
591.6731
 21
32.7268
 31
0.0
  0
LINE
  5
33F
100
AcDbEntity
  8
1
  6
CONTINUOUS
 62
     2
100
AcDbLine
 10
636.1731
 20
27.0268
 30
0.0
 11
591.6731
 21
27.0268
 31
0.0
  0
LINE
  5
340
100
AcDbEntity
  8
1
  6
CONTINUOUS
 62
     2
100
AcDbLine
 10
636.1731
 20
21.3268
 30
0.0
 11
591.6731
 21
21.3268
 31
0.0
  0
LINE
  5
341
100
AcDbEntity
  8
1
  6
CONTINUOUS
 62
     2
100
AcDbLine
 10
636.1731
 20
15.6268
 30
0.0
 11
591.6731
 21
15.6268
 31
0.0
  0
TEXT
  5
342
100
AcDbEntity
  8
1
  6
CONTINUOUS
 62
     2
100
AcDbText
 10
604.7731
 20
74.9268
 30
0.0
 40
2.5368
  1
REVISIONS
  7
MONOTXT
210
0.0
220
0.0
230
1.0
100
AcDbText
  0
TEXT
  5
343
100
AcDbEntity
  8
1
  6
CONTINUOUS
 62
     2
100
AcDbText
 10
594.1731
 20
79.9268
 30
0.0
 40
2.5368
  1
PREPARED:   /  /  
  7
MONOTXT
210
0.0
220
0.0
230
1.0
100
AcDbText
  0
TEXT
  5
345
100
AcDbEntity
  8
1
  6
CONTINUOUS
 62
     2
100
AcDbText
 10
633.0731
 20
115.3268
 30
0.0
 40
6.0894
  1
WEST VIRGINIA DIVISION OF HIGHWAYS
  7
ROMANT
 72
     1
 11
701.6147
 21
121.4162
 31
0.0
210
0.0
220
0.0
230
1.0
100
AcDbText
 73
     3
  0
TEXT
  5
346
100
AcDbEntity
  8
1
  6
CONTINUOUS
 62
     2
100
AcDbText
 10
646.7731
 20
101.1268
 30
0.0
 40
8.8806
  1
STANDARD DETAIL
  7
TXT
 72
     1
 11
703.2752
 21
110.0074
 31
0.0
210
0.0
220
0.0
230
1.0
100
AcDbText
 73
     3
  0
TEXT
  5
347
100
AcDbEntity
  8
1
  6
CONTINUOUS
 62
     2
100
AcDbText
 10
640.9731
 20
15.1268
 30
0.0
 40
8.8806
  1
STANDARD SHEET TE1-7A
  7
TXT
210
0.0
220
0.0
230
1.0
100
AcDbText
  0
TEXT
  5
348
100
AcDbEntity
  8
1
  6
CONTINUOUS
 62
     2
100
AcDbText
 10
603.4731
 20
56.7268
 30
0.0
 40
2.5398
  1
        
  7
MONOTXT
 72
     1
 11
613.209
 21
59.2666
 31
0.0
210
0.0
220
0.0
230
1.0
100
AcDbText
 73
     3
  0
TEXT
  5
349
100
AcDbEntity
  8
1
  6
CONTINUOUS
 62
     2
100
AcDbText
 10
603.4731
 20
51.1268
 30
0.0
 40
2.5398
  1
        
  7
MONOTXT
 72
     1
 11
613.209
 21
53.6666
 31
0.0
210
0.0
220
0.0
230
1.0
100
AcDbText
 73
     3
  0
TEXT
  5
34A
100
AcDbEntity
  8
1
  6
CONTINUOUS
 62
     2
100
AcDbText
 10
603.4731
 20
45.6268
 30
0.0
 40
2.5398
  1
        
  7
MONOTXT
 72
     1
 11
613.209
 21
48.1666
 31
0.0
210
0.0
220
0.0
230
1.0
100
AcDbText
 73
     3
  0
TEXT
  5
34B
100
AcDbEntity
  8
1
  6
CONTINUOUS
 62
     2
100
AcDbText
 10
603.4731
 20
40.0268
 30
0.0
 40
2.5398
  1
        
  7
MONOTXT
 72
     1
 11
613.209
 21
42.5666
 31
0.0
210
0.0
220
0.0
230
1.0
100
AcDbText
 73
     3
  0
TEXT
  5
34C
100
AcDbEntity
  8
1
  6
CONTINUOUS
 62
     2
100
AcDbText
 10
603.2731
 20
34.1268
 30
0.0
 40
2.5398
  1
        
  7
MONOTXT
 72
     1
 11
613.009
 21
36.6666
 31
0.0
210
0.0
220
0.0
230
1.0
100
AcDbText
 73
     3
  0
TEXT
  5
34D
100
AcDbEntity
  8
1
  6
CONTINUOUS
 62
     2
100
AcDbText
 10
603.4731
 20
28.4268
 30
0.0
 40
2.5398
  1
        
  7
MONOTXT
 72
     1
 11
613.209
 21
30.9666
 31
0.0
210
0.0
220
0.0
230
1.0
100
AcDbText
 73
     3
  0
TEXT
  5
34E
100
AcDbEntity
  8
1
  6
CONTINUOUS
 62
     2
100
AcDbText
 10
603.3731
 20
22.6268
 30
0.0
 40
2.5398
  1
        
  7
MONOTXT
 72
     1
 11
613.109
 21
25.1666
 31
0.0
210
0.0
220
0.0
230
1.0
100
AcDbText
 73
     3
  0
TEXT
  5
34F
100
AcDbEntity
  8
1
  6
CONTINUOUS
 62
     2
100
AcDbText
 10
603.4731
 20
16.8268
 30
0.0
 40
2.5398
  1
        
  7
MONOTXT
 72
     1
 11
613.209
 21
19.3666
 31
0.0
210
0.0
220
0.0
230
1.0
100
AcDbText
 73
     3
  0
TEXT
  5
350
100
AcDbEntity
  8
1
  6
CONTINUOUS
 62
     2
100
AcDbText
 10
603.4731
 20
11.7268
 30
0.0
 40
2.5398
  1
        
  7
MONOTXT
 72
     1
 11
613.209
 21
14.2666
 31
0.0
210
0.0
220
0.0
230
1.0
100
AcDbText
 73
     3
  0
LINE
  5
351
100
AcDbEntity
  8
1
  6
CONTINUOUS
 62
     2
100
AcDbLine
 10
809.6731
 20
9.9268
 30
0.0
 11
809.6731
 21
126.2268
 31
0.0
  0
LINE
  5
352
100
AcDbEntity
  8
1
  6
CONTINUOUS
 62
     7
100
AcDbLine
 10
809.6731
 20
536.0268
 30
0.0
 11
17.9731
 21
535.9268
 31
0.0
  0
LINE
  5
353
100
AcDbEntity
  8
1
  6
CONTINUOUS
 62
     7
100
AcDbLine
 10
17.9731
 20
535.9268
 30
0.0
 11
18.0731
 21
9.9268
 31
0.0
  0
LINE
  5
354
100
AcDbEntity
  8
1
  6
CONTINUOUS
 62
     7
100
AcDbLine
 10
809.6731
 20
9.9268
 30
0.0
 11
809.6731
 21
536.0268
 31
0.0
  0
LINE
  5
355
100
AcDbEntity
  8
61
  6
CONTINUOUS
 62
     2
100
AcDbLine
 10
809.6731
 20
9.9268
 30
0.0
 11
656.9731
 21
9.9268
 31
0.0
  0
TEXT
  5
356
100
AcDbEntity
  8
61
  6
CONTINUOUS
 62
     2
100
AcDbText
 10
779.1731
 20
495.9268
 30
0.0
 40
3.0546
  1
     
 41
1.001375
  7
MONOTXT
210
0.0
220
0.0
230
1.0
100
AcDbText
  0
INSERT
  5
35B
100
AcDbEntity
  8
1
  6
CONTINUOUS
 62
     1
100
AcDbBlockReference
  2
PT
 10
815.9731
 20
-1.3732
 30
0.0
 41
269.385512
 42
269.385512
210
0.0
220
0.0
230
1.0
  0
LINE
  5
35C
100
AcDbEntity
  8
1
  6
CONTINUOUS
 62
     7
100
AcDbLine
 10
809.6731
 20
9.9268
 30
0.0
 11
18.0731
 21
9.9268
 31
0.0
  0
LINE
  5
35D
100
AcDbEntity
  8
1
  6
CONTINUOUS
 62
     2
100
AcDbLine
 10
809.6731
 20
9.9268
 30
0.0
 11
809.6731
 21
536.0268
 31
0.0
  0
TEXT
  5
35E
100
AcDbEntity
  8
CONSTRUCTION_CLASS
  6
CONTINUOUS
 62
     3
100
AcDbText
 10
672.5731
 20
512.2268
 30
0.0
 40
3.048
  1
WV
  7
MONOTXT
210
0.0
220
0.0
230
1.0
100
AcDbText
  0
TEXT
  5
35F
100
AcDbEntity
  8
61
  6
CONTINUOUS
 62
     2
100
AcDbText
 10
744.0731
 20
512.7268
 30
0.0
 40
3.0492
  1
  
 50
0.029406
 41
0.996655
  7
MONOTXT
210
0.0
220
0.0
230
1.0
100
AcDbText
  0
LINE
  5
360
100
AcDbEntity
  8
61
  6
CONTINUOUS
 62
     2
100
AcDbLine
 10
809.6731
 20
9.9268
 30
0.0
 11
656.9731
 21
9.9268
 31
0.0
  0
LINE
  5
361
100
AcDbEntity
  8
61
  6
CONTINUOUS
 62
     2
100
AcDbLine
 10
809.6731
 20
9.9268
 30
0.0
 11
657.2731
 21
9.9268
 31
0.0
  0
LINE
  5
362
100
AcDbEntity
  8
61
  6
CONTINUOUS
 62
     2
100
AcDbLine
 10
809.6731
 20
9.9268
 30
0.0
 11
656.9731
 21
9.9268
 31
0.0
  0
LINE
  5
363
100
AcDbEntity
  8
61
  6
CONTINUOUS
 62
     2
100
AcDbLine
 10
809.6731
 20
9.9268
 30
0.0
 11
657.2731
 21
9.9268
 31
0.0
  0
TEXT
  5
364
100
AcDbEntity
  8
1
  6
CONTINUOUS
 62
     2
100
AcDbText
 10
750.9731
 20
6.1268
 30
0.0
 40
2.031
  1
TRAFFIC ENGINEERING DIVISION
  7
TXT
210
0.0
220
0.0
230
1.0
100
AcDbText
  0
TEXT
  5
365
100
AcDbEntity
  8
1
  6
CONTINUOUS
 62
     7
100
AcDbText
 10
536.6731
 20
6.1268
 30
0.0
 40
2.2002
  1
$$$$$$$$$FILENAME$$$$$$$$
  7
MONOTXT
210
0.0
220
0.0
230
1.0
100
AcDbText
  0
TEXT
  5
366
100
AcDbEntity
  8
1
  6
CONTINUOUS
 62
     7
100
AcDbText
 10
657.4731
 20
6.1268
 30
0.0
 40
2.2002
  1
$USERNAME$
  7
MONOTXT
210
0.0
220
0.0
230
1.0
100
AcDbText
  0
TEXT
  5
367
100
AcDbEntity
  8
1
  6
CONTINUOUS
 62
     7
100
AcDbText
 10
702.5731
 20
6.1268
 30
0.0
 40
2.2002
  1
DD-MMM-YYYY HH:MM
  7
MONOTXT
210
0.0
220
0.0
230
1.0
100
AcDbText
  0
LINE
  5
368
100
AcDbEntity
  8
1
  6
CONTINUOUS
 62
     2
100
AcDbLine
 10
636.1731
 20
61.4268
 30
0.0
 11
591.6731
 21
61.4268
 31
0.0
  0
LINE
  5
369
100
AcDbEntity
  8
1
  6
CONTINUOUS
 62
     2
100
AcDbLine
 10
636.1731
 20
67.2268
 30
0.0
 11
591.6731
 21
67.2268
 31
0.0
  0
LWPOLYLINE
  5
36A
100
AcDbEntity
  8
1
  6
CONTINUOUS
 62
     7
100
AcDbPolyline
 90
        4
 70
     0
 10
597.7135
 20
15.0094
 10
595.3135
 20
10.8525
 10
600.1135
 20
10.8525
 10
597.7135
 20
15.0094
  0
TEXT
  5
36B
100
AcDbEntity
  8
1
  6
CONTINUOUS
 62
     7
100
AcDbText
 10
596.4213
 20
11.0346
 30
0.0
 40
2.1
  1
11
  7
MONOTXT
210
0.0
220
0.0
230
1.0
100
AcDbText
  0
TEXT
  5
36C
100
AcDbEntity
  8
1
  6
CONTINUOUS
 62
     1
100
AcDbText
 10
603.601
 20
11.5407
 30
0.0
 40
2.4
  1
02-06-94
  7
MONOTXT
 72
     1
 11
612.2655
 21
13.9407
 31
0.0
210
0.0
220
0.0
230
1.0
100
AcDbText
 73
     3
  0
LWPOLYLINE
  5
36D
100
AcDbEntity
  8
1
  6
CONTINUOUS
 62
     7
100
AcDbPolyline
 90
        4
 70
     0
 10
529.5735
 20
28.0741
 10
527.1735
 20
23.9172
 10
531.9735
 20
23.9172
 10
529.5735
 20
28.0741
  0
TEXT
  5
36E
100
AcDbEntity
  8
1
  6
CONTINUOUS
 62
     7
100
AcDbText
 10
528.2813
 20
24.0993
 30
0.0
 40
2.1
  1
11
  7
MONOTXT
210
0.0
220
0.0
230
1.0
100
AcDbText
  0
TEXT
  5
36F
100
AcDbEntity
  8
1
  6
CONTINUOUS
 62
     7
100
AcDbText
 10
535.5353
 20
23.6171
 30
0.0
 40
2.1
  1
ADDED METRIC
  7
MONOTXT
 11
535.5353
 21
25.7171
 31
0.0
210
0.0
220
0.0
230
1.0
100
AcDbText
 73
     3
  0
TEXT
  5
370
100
AcDbEntity
  8
1
  6
CONTINUOUS
 62
     7
100
AcDbText
 10
74.7769
 20
478.8182
 30
0.0
 40
3.0
  1
0.28
  7
MONOTXT
 72
     4
 11
79.5131
 21
480.3182
 31
0.0
210
0.0
220
0.0
230
1.0
100
AcDbText
  0
TEXT
  5
371
100
AcDbEntity
  8
1
  6
CONTINUOUS
 62
     7
100
AcDbText
 10
90.39
 20
479.1734
 30
0.0
 40
3.0
  1
0.37
  7
MONOTXT
 72
     4
 11
95.138
 21
480.6734
 31
0.0
210
0.0
220
0.0
230
1.0
100
AcDbText
  0
TEXT
  5
372
100
AcDbEntity
  8
1
  6
CONTINUOUS
 62
     7
100
AcDbText
 10
105.6716
 20
478.8182
 30
0.0
 40
3.0
  1
0.46
  7
MONOTXT
 72
     4
 11
110.4078
 21
480.3182
 31
0.0
210
0.0
220
0.0
230
1.0
100
AcDbText
  0
TEXT
  5
373
100
AcDbEntity
  8
1
  6
CONTINUOUS
 62
     7
100
AcDbText
 10
121.0123
 20
478.463
 30
0.0
 40
3.0
  1
0.56
  7
MONOTXT
 72
     4
 11
125.6776
 21
479.963
 31
0.0
210
0.0
220
0.0
230
1.0
100
AcDbText
  0
TEXT
  5
374
100
AcDbEntity
  8
1
  6
CONTINUOUS
 62
     7
100
AcDbText
 10
136.6372
 20
478.463
 30
0.0
 40
3.0
  1
0.65
  7
MONOTXT
 72
     4
 11
141.3025
 21
479.963
 31
0.0
210
0.0
220
0.0
230
1.0
100
AcDbText
  0
TEXT
  5
375
100
AcDbEntity
  8
1
  6
CONTINUOUS
 62
     7
100
AcDbText
 10
152.0969
 20
478.463
 30
0.0
 40
3.0
  1
0.74
  7
MONOTXT
 72
     4
 11
156.9275
 21
479.963
 31
0.0
210
0.0
220
0.0
230
1.0
100
AcDbText
  0
TEXT
  5
376
100
AcDbEntity
  8
1
  6
CONTINUOUS
 62
     7
100
AcDbText
 10
168.1005
 20
478.8182
 30
0.0
 40
3.0
  1
0.84
  7
MONOTXT
 72
     4
 11
172.9075
 21
480.3182
 31
0.0
210
0.0
220
0.0
230
1.0
100
AcDbText
  0
TEXT
  5
377
100
AcDbEntity
  8
1
  6
CONTINUOUS
 62
     7
100
AcDbText
 10
183.8671
 20
479.1734
 30
0.0
 40
3.0
  1
0.93
  7
MONOTXT
 72
     4
 11
188.5324
 21
480.6734
 31
0.0
210
0.0
220
0.0
230
1.0
100
AcDbText
  0
TEXT
  5
378
100
AcDbEntity
  8
1
  6
CONTINUOUS
 62
     7
100
AcDbText
 10
199.3487
 20
479.1734
 30
0.0
 40
3.0
  1
1.02
  7
MONOTXT
 72
     4
 11
203.4471
 21
480.6734
 31
0.0
210
0.0
220
0.0
230
1.0
100
AcDbText
  0
TEXT
  5
379
100
AcDbEntity
  8
1
  6
CONTINUOUS
 62
     7
100
AcDbText
 10
216.6161
 20
478.8182
 30
0.0
 40
3.0
  1
1.11
  7
MONOTXT
 72
     4
 11
219.4271
 21
480.3182
 31
0.0
210
0.0
220
0.0
230
1.0
100
AcDbText
  0
TEXT
  5
37A
100
AcDbEntity
  8
1
  6
CONTINUOUS
 62
     7
100
AcDbText
 10
231.6033
 20
478.8182
 30
0.0
 40
3.0
  1
1.21
  7
MONOTXT
 72
     4
 11
235.0521
 21
480.3182
 31
0.0
210
0.0
220
0.0
230
1.0
100
AcDbText
  0
TEXT
  5
37B
100
AcDbEntity
  8
1
  6
CONTINUOUS
 62
     7
100
AcDbText
 10
246.5904
 20
478.8182
 30
0.0
 40
3.0
  1
1.30
  7
MONOTXT
 72
     4
 11
250.677
 21
480.3182
 31
0.0
210
0.0
220
0.0
230
1.0
100
AcDbText
  0
TEXT
  5
37C
100
AcDbEntity
  8
1
  6
CONTINUOUS
 62
     7
100
AcDbText
 10
261.9193
 20
478.8182
 30
0.0
 40
3.0
  1
1.39
  7
MONOTXT
 72
     4
 11
265.9468
 21
480.3182
 31
0.0
210
0.0
220
0.0
230
1.0
100
AcDbText
  0
TEXT
  5
37D
100
AcDbEntity
  8
1
  6
CONTINUOUS
 62
     7
100
AcDbText
 10
278.1835
 20
478.463
 30
0.0
 40
3.0
  1
1.49
  7
MONOTXT
 72
     4
 11
282.2819
 21
479.963
 31
0.0
210
0.0
220
0.0
230
1.0
100
AcDbText
  0
TEXT
  5
37E
100
AcDbEntity
  8
1
  6
CONTINUOUS
 62
     7
100
AcDbText
 10
293.8085
 20
478.463
 30
0.0
 40
3.0
  1
1.58
  7
MONOTXT
 72
     4
 11
297.9069
 21
479.963
 31
0.0
210
0.0
220
0.0
230
1.0
100
AcDbText
  0
TEXT
  5
37F
100
AcDbEntity
  8
1
  6
CONTINUOUS
 62
     7
100
AcDbText
 10
308.7821
 20
478.463
 30
0.0
 40
3.0
  1
1.67
  7
MONOTXT
 72
     4
 11
312.8215
 21
479.963
 31
0.0
210
0.0
220
0.0
230
1.0
100
AcDbText
  0
TEXT
  5
380
100
AcDbEntity
  8
1
  6
CONTINUOUS
 62
     7
100
AcDbText
 10
324.6678
 20
478.1078
 30
0.0
 40
3.0
  1
1.77
  7
MONOTXT
 72
     4
 11
328.8016
 21
479.6078
 31
0.0
210
0.0
220
0.0
230
1.0
100
AcDbText
  0
TEXT
  5
381
100
AcDbEntity
  8
1
  6
CONTINUOUS
 62
     7
100
AcDbText
 10
340.0439
 20
478.8182
 30
0.0
 40
3.0
  1
1.86
  7
MONOTXT
 72
     4
 11
344.0714
 21
480.3182
 31
0.0
210
0.0
220
0.0
230
1.0
100
AcDbText
  0
TEXT
  5
382
100
AcDbEntity
  8
1
  6
CONTINUOUS
 62
     7
100
AcDbText
 10
58.9166
 20
467.0174
 30
0.0
 40
3.0
  1
1.83
  7
MONOTXT
 11
58.9166
 21
470.0174
 31
0.0
210
0.0
220
0.0
230
1.0
100
AcDbText
 73
     3
  0
TEXT
  5
383
100
AcDbEntity
  8
1
  6
CONTINUOUS
 62
     7
100
AcDbText
 10
58.9166
 20
455.0174
 30
0.0
 40
3.0
  1
1.98
  7
MONOTXT
 11
58.9166
 21
458.0174
 31
0.0
210
0.0
220
0.0
230
1.0
100
AcDbText
 73
     3
  0
TEXT
  5
384
100
AcDbEntity
  8
1
  6
CONTINUOUS
 62
     7
100
AcDbText
 10
58.9166
 20
443.0174
 30
0.0
 40
3.0
  1
2.13
  7
MONOTXT
 11
58.9166
 21
446.0174
 31
0.0
210
0.0
220
0.0
230
1.0
100
AcDbText
 73
     3
  0
TEXT
  5
385
100
AcDbEntity
  8
1
  6
CONTINUOUS
 62
     7
100
AcDbText
 10
58.9166
 20
431.0174
 30
0.0
 40
3.0
  1
2.29
  7
MONOTXT
 11
58.9166
 21
434.0174
 31
0.0
210
0.0
220
0.0
230
1.0
100
AcDbText
 73
     3
  0
TEXT
  5
386
100
AcDbEntity
  8
1
  6
CONTINUOUS
 62
     7
100
AcDbText
 10
58.9166
 20
419.0174
 30
0.0
 40
3.0
  1
2.44
  7
MONOTXT
 11
58.9166
 21
422.0174
 31
0.0
210
0.0
220
0.0
230
1.0
100
AcDbText
 73
     3
  0
TEXT
  5
387
100
AcDbEntity
  8
1
  6
CONTINUOUS
 62
     7
100
AcDbText
 10
58.9166
 20
407.0174
 30
0.0
 40
3.0
  1
2.59
  7
MONOTXT
 11
58.9166
 21
410.0174
 31
0.0
210
0.0
220
0.0
230
1.0
100
AcDbText
 73
     3
  0
TEXT
  5
388
100
AcDbEntity
  8
1
  6
CONTINUOUS
 62
     7
100
AcDbText
 10
58.9166
 20
395.0174
 30
0.0
 40
3.0
  1
2.74
  7
MONOTXT
 11
58.9166
 21
398.0174
 31
0.0
210
0.0
220
0.0
230
1.0
100
AcDbText
 73
     3
  0
TEXT
  5
389
100
AcDbEntity
  8
1
  6
CONTINUOUS
 62
     7
100
AcDbText
 10
58.9166
 20
383.0174
 30
0.0
 40
3.0
  1
2.89
  7
MONOTXT
 11
58.9166
 21
386.0174
 31
0.0
210
0.0
220
0.0
230
1.0
100
AcDbText
 73
     3
  0
TEXT
  5
38A
100
AcDbEntity
  8
1
  6
CONTINUOUS
 62
     7
100
AcDbText
 10
58.9166
 20
371.0174
 30
0.0
 40
3.0
  1
3.04
  7
MONOTXT
 11
58.9166
 21
374.0174
 31
0.0
210
0.0
220
0.0
230
1.0
100
AcDbText
 73
     3
  0
TEXT
  5
38B
100
AcDbEntity
  8
1
  6
CONTINUOUS
 62
     7
100
AcDbText
 10
58.9166
 20
359.0174
 30
0.0
 40
3.0
  1
3.20
  7
MONOTXT
 11
58.9166
 21
362.0174
 31
0.0
210
0.0
220
0.0
230
1.0
100
AcDbText
 73
     3
  0
TEXT
  5
38C
100
AcDbEntity
  8
1
  6
CONTINUOUS
 62
     7
100
AcDbText
 10
58.9166
 20
347.0174
 30
0.0
 40
3.0
  1
3.35
  7
MONOTXT
 11
58.9166
 21
350.0174
 31
0.0
210
0.0
220
0.0
230
1.0
100
AcDbText
 73
     3
  0
TEXT
  5
38D
100
AcDbEntity
  8
1
  6
CONTINUOUS
 62
     7
100
AcDbText
 10
58.9166
 20
335.0174
 30
0.0
 40
3.0
  1
3.50
  7
MONOTXT
 11
58.9166
 21
338.0174
 31
0.0
210
0.0
220
0.0
230
1.0
100
AcDbText
 73
     3
  0
TEXT
  5
38E
100
AcDbEntity
  8
1
  6
CONTINUOUS
 62
     7
100
AcDbText
 10
58.9166
 20
323.0174
 30
0.0
 40
3.0
  1
3.66
  7
MONOTXT
 11
58.9166
 21
326.0174
 31
0.0
210
0.0
220
0.0
230
1.0
100
AcDbText
 73
     3
  0
TEXT
  5
38F
100
AcDbEntity
  8
1
  6
CONTINUOUS
 62
     7
100
AcDbText
 10
58.9166
 20
311.0174
 30
0.0
 40
3.0
  1
3.81
  7
MONOTXT
 11
58.9166
 21
314.0174
 31
0.0
210
0.0
220
0.0
230
1.0
100
AcDbText
 73
     3
  0
TEXT
  5
390
100
AcDbEntity
  8
1
  6
CONTINUOUS
 62
     7
100
AcDbText
 10
58.9166
 20
299.0174
 30
0.0
 40
3.0
  1
3.96
  7
MONOTXT
 11
58.9166
 21
302.0174
 31
0.0
210
0.0
220
0.0
230
1.0
100
AcDbText
 73
     3
  0
TEXT
  5
391
100
AcDbEntity
  8
1
  6
CONTINUOUS
 62
     7
100
AcDbText
 10
58.9166
 20
287.0174
 30
0.0
 40
3.0
  1
4.11
  7
MONOTXT
 11
58.9166
 21
290.0174
 31
0.0
210
0.0
220
0.0
230
1.0
100
AcDbText
 73
     3
  0
TEXT
  5
392
100
AcDbEntity
  8
1
  6
CONTINUOUS
 62
     7
100
AcDbText
 10
58.9166
 20
275.0174
 30
0.0
 40
3.0
  1
4.27
  7
MONOTXT
 11
58.9166
 21
278.0174
 31
0.0
210
0.0
220
0.0
230
1.0
100
AcDbText
 73
     3
  0
TEXT
  5
393
100
AcDbEntity
  8
1
  6
CONTINUOUS
 62
     7
100
AcDbText
 10
58.9166
 20
263.0174
 30
0.0
 40
3.0
  1
4.42
  7
MONOTXT
 11
58.9166
 21
266.0174
 31
0.0
210
0.0
220
0.0
230
1.0
100
AcDbText
 73
     3
  0
TEXT
  5
394
100
AcDbEntity
  8
1
  6
CONTINUOUS
 62
     7
100
AcDbText
 10
58.9166
 20
251.0174
 30
0.0
 40
3.0
  1
4.57
  7
MONOTXT
 11
58.9166
 21
254.0174
 31
0.0
210
0.0
220
0.0
230
1.0
100
AcDbText
 73
     3
  0
TEXT
  5
395
100
AcDbEntity
  8
1
  6
CONTINUOUS
 62
     7
100
AcDbText
 10
355.4349
 20
466.307
 30
0.0
 40
3.0
  1
1.83
  7
MONOTXT
 11
355.4349
 21
469.307
 31
0.0
210
0.0
220
0.0
230
1.0
100
AcDbText
 73
     3
  0
TEXT
  5
396
100
AcDbEntity
  8
1
  6
CONTINUOUS
 62
     7
100
AcDbText
 10
355.4349
 20
454.307
 30
0.0
 40
3.0
  1
1.98
  7
MONOTXT
 11
355.4349
 21
457.307
 31
0.0
210
0.0
220
0.0
230
1.0
100
AcDbText
 73
     3
  0
TEXT
  5
397
100
AcDbEntity
  8
1
  6
CONTINUOUS
 62
     7
100
AcDbText
 10
355.4349
 20
442.307
 30
0.0
 40
3.0
  1
2.13
  7
MONOTXT
 11
355.4349
 21
445.307
 31
0.0
210
0.0
220
0.0
230
1.0
100
AcDbText
 73
     3
  0
TEXT
  5
398
100
AcDbEntity
  8
1
  6
CONTINUOUS
 62
     7
100
AcDbText
 10
355.4349
 20
430.307
 30
0.0
 40
3.0
  1
2.29
  7
MONOTXT
 11
355.4349
 21
433.307
 31
0.0
210
0.0
220
0.0
230
1.0
100
AcDbText
 73
     3
  0
TEXT
  5
399
100
AcDbEntity
  8
1
  6
CONTINUOUS
 62
     7
100
AcDbText
 10
355.4349
 20
418.307
 30
0.0
 40
3.0
  1
2.44
  7
MONOTXT
 11
355.4349
 21
421.307
 31
0.0
210
0.0
220
0.0
230
1.0
100
AcDbText
 73
     3
  0
TEXT
  5
39A
100
AcDbEntity
  8
1
  6
CONTINUOUS
 62
     7
100
AcDbText
 10
355.4349
 20
406.307
 30
0.0
 40
3.0
  1
2.59
  7
MONOTXT
 11
355.4349
 21
409.307
 31
0.0
210
0.0
220
0.0
230
1.0
100
AcDbText
 73
     3
  0
TEXT
  5
39B
100
AcDbEntity
  8
1
  6
CONTINUOUS
 62
     7
100
AcDbText
 10
355.4349
 20
394.307
 30
0.0
 40
3.0
  1
2.74
  7
MONOTXT
 11
355.4349
 21
397.307
 31
0.0
210
0.0
220
0.0
230
1.0
100
AcDbText
 73
     3
  0
TEXT
  5
39C
100
AcDbEntity
  8
1
  6
CONTINUOUS
 62
     7
100
AcDbText
 10
355.4349
 20
382.307
 30
0.0
 40
3.0
  1
2.89
  7
MONOTXT
 11
355.4349
 21
385.307
 31
0.0
210
0.0
220
0.0
230
1.0
100
AcDbText
 73
     3
  0
TEXT
  5
39D
100
AcDbEntity
  8
1
  6
CONTINUOUS
 62
     7
100
AcDbText
 10
355.4349
 20
370.307
 30
0.0
 40
3.0
  1
3.04
  7
MONOTXT
 11
355.4349
 21
373.307
 31
0.0
210
0.0
220
0.0
230
1.0
100
AcDbText
 73
     3
  0
TEXT
  5
39E
100
AcDbEntity
  8
1
  6
CONTINUOUS
 62
     7
100
AcDbText
 10
355.4349
 20
358.307
 30
0.0
 40
3.0
  1
3.20
  7
MONOTXT
 11
355.4349
 21
361.307
 31
0.0
210
0.0
220
0.0
230
1.0
100
AcDbText
 73
     3
  0
TEXT
  5
39F
100
AcDbEntity
  8
1
  6
CONTINUOUS
 62
     7
100
AcDbText
 10
355.4349
 20
346.307
 30
0.0
 40
3.0
  1
3.35
  7
MONOTXT
 11
355.4349
 21
349.307
 31
0.0
210
0.0
220
0.0
230
1.0
100
AcDbText
 73
     3
  0
TEXT
  5
3A0
100
AcDbEntity
  8
1
  6
CONTINUOUS
 62
     7
100
AcDbText
 10
355.4349
 20
334.307
 30
0.0
 40
3.0
  1
3.50
  7
MONOTXT
 11
355.4349
 21
337.307
 31
0.0
210
0.0
220
0.0
230
1.0
100
AcDbText
 73
     3
  0
TEXT
  5
3A1
100
AcDbEntity
  8
1
  6
CONTINUOUS
 62
     7
100
AcDbText
 10
355.4349
 20
322.307
 30
0.0
 40
3.0
  1
3.66
  7
MONOTXT
 11
355.4349
 21
325.307
 31
0.0
210
0.0
220
0.0
230
1.0
100
AcDbText
 73
     3
  0
TEXT
  5
3A2
100
AcDbEntity
  8
1
  6
CONTINUOUS
 62
     7
100
AcDbText
 10
355.4349
 20
310.307
 30
0.0
 40
3.0
  1
3.81
  7
MONOTXT
 11
355.4349
 21
313.307
 31
0.0
210
0.0
220
0.0
230
1.0
100
AcDbText
 73
     3
  0
TEXT
  5
3A3
100
AcDbEntity
  8
1
  6
CONTINUOUS
 62
     7
100
AcDbText
 10
355.4349
 20
298.307
 30
0.0
 40
3.0
  1
3.96
  7
MONOTXT
 11
355.4349
 21
301.307
 31
0.0
210
0.0
220
0.0
230
1.0
100
AcDbText
 73
     3
  0
TEXT
  5
3A4
100
AcDbEntity
  8
1
  6
CONTINUOUS
 62
     7
100
AcDbText
 10
355.4349
 20
286.307
 30
0.0
 40
3.0
  1
4.11
  7
MONOTXT
 11
355.4349
 21
289.307
 31
0.0
210
0.0
220
0.0
230
1.0
100
AcDbText
 73
     3
  0
TEXT
  5
3A5
100
AcDbEntity
  8
1
  6
CONTINUOUS
 62
     7
100
AcDbText
 10
355.4349
 20
274.307
 30
0.0
 40
3.0
  1
4.27
  7
MONOTXT
 11
355.4349
 21
277.307
 31
0.0
210
0.0
220
0.0
230
1.0
100
AcDbText
 73
     3
  0
TEXT
  5
3A6
100
AcDbEntity
  8
1
  6
CONTINUOUS
 62
     7
100
AcDbText
 10
355.4349
 20
262.307
 30
0.0
 40
3.0
  1
4.42
  7
MONOTXT
 11
355.4349
 21
265.307
 31
0.0
210
0.0
220
0.0
230
1.0
100
AcDbText
 73
     3
  0
TEXT
  5
3A7
100
AcDbEntity
  8
1
  6
CONTINUOUS
 62
     7
100
AcDbText
 10
355.4349
 20
250.307
 30
0.0
 40
3.0
  1
4.57
  7
MONOTXT
 11
355.4349
 21
253.307
 31
0.0
210
0.0
220
0.0
230
1.0
100
AcDbText
 73
     3
  0
TEXT
  5
3A8
100
AcDbEntity
  8
1
  6
CONTINUOUS
 62
     7
100
AcDbText
 10
97.9782
 20
410.2565
 30
0.0
 40
8.4
  1
2.98Kg/m
 50
45.0
  7
TXT
 72
     4
 11
111.355105
 21
429.573102
 31
0.0
210
0.0
220
0.0
230
1.0
100
AcDbText
  0
TEXT
  5
3A9
100
AcDbEntity
  8
1
  6
CONTINUOUS
 62
     7
100
AcDbText
 10
143.6869
 20
365.0194
 30
0.0
 40
8.4
  1
4.50Kg/m
 50
45.0
  7
TXT
 72
     4
 11
157.063805
 21
384.336002
 31
0.0
210
0.0
220
0.0
230
1.0
100
AcDbText
  0
TEXT
  5
3AA
100
AcDbEntity
  8
1
  6
CONTINUOUS
 62
     7
100
AcDbText
 10
198.3916
 20
311.7566
 30
0.0
 40
8.4
  1
5.96Kg/m
 50
45.0
  7
TXT
 72
     4
 11
211.768505
 21
331.073202
 31
0.0
210
0.0
220
0.0
230
1.0
100
AcDbText
  0
TEXT
  5
3AB
100
AcDbEntity
  8
1
  6
CONTINUOUS
 62
     7
100
AcDbText
 10
292.4835
 20
269.1948
 30
0.0
 40
8.4
  1
9.00Kg/m
 50
45.0
  7
TXT
 72
     4
 11
305.860405
 21
288.511402
 31
0.0
210
0.0
220
0.0
230
1.0
100
AcDbText
  0
TEXT
  5
3AC
100
AcDbEntity
  8
1
  6
CONTINUOUS
 62
     7
100
AcDbText
 10
452.2197
 20
397.0798
 30
0.0
 40
3.0
  1
2.98Kg/m
  7
MONOTXT
 72
     4
 11
463.1331
 21
398.5798
 31
0.0
210
0.0
220
0.0
230
1.0
100
AcDbText
  0
TEXT
  5
3AD
100
AcDbEntity
  8
1
  6
CONTINUOUS
 62
     7
100
AcDbText
 10
451.6365
 20
385.2045
 30
0.0
 40
3.0
  1
4.50Kg/m
  7
MONOTXT
 72
     4
 11
462.6916
 21
386.7045
 31
0.0
210
0.0
220
0.0
230
1.0
100
AcDbText
  0
TEXT
  5
3AE
100
AcDbEntity
  8
1
  6
CONTINUOUS
 62
     7
100
AcDbText
 10
452.0266
 20
373.4829
 30
0.0
 40
3.0
  1
5.96Kg/m
  7
MONOTXT
 72
     4
 11
462.8691
 21
374.9829
 31
0.0
210
0.0
220
0.0
230
1.0
100
AcDbText
  0
TEXT
  5
3AF
100
AcDbEntity
  8
1
  6
CONTINUOUS
 62
     7
100
AcDbText
 10
452.3108
 20
361.2286
 30
0.0
 40
3.0
  1
9.00Kg/m
  7
MONOTXT
 72
     4
 11
463.2242
 21
362.7286
 31
0.0
210
0.0
220
0.0
230
1.0
100
AcDbText
  0
TEXT
  5
3B0
100
AcDbEntity
  8
1
  6
CONTINUOUS
 62
     7
100
AcDbText
 10
487.6793
 20
397.202
 30
0.0
 40
3.0
  1
0.9m
  7
MONOTXT
 72
     1
 11
492.8761
 21
400.202
 31
0.0
210
0.0
220
0.0
230
1.0
100
AcDbText
 73
     3
  0
TEXT
  5
3B1
100
AcDbEntity
  8
1
  6
CONTINUOUS
 62
     7
100
AcDbText
 10
488.884
 20
385.202
 30
0.0
 40
3.0
  1
1.1m
  7
MONOTXT
 72
     1
 11
492.8761
 21
388.202
 31
0.0
210
0.0
220
0.0
230
1.0
100
AcDbText
 73
     3
  0
TEXT
  5
3B2
100
AcDbEntity
  8
1
  6
CONTINUOUS
 62
     7
100
AcDbText
 10
488.884
 20
373.202
 30
0.0
 40
3.0
  1
1.1m
  7
MONOTXT
 72
     1
 11
492.8761
 21
376.202
 31
0.0
210
0.0
220
0.0
230
1.0
100
AcDbText
 73
     3
  0
TEXT
  5
3B3
100
AcDbEntity
  8
1
  6
CONTINUOUS
 62
     7
100
AcDbText
 10
488.884
 20
361.202
 30
0.0
 40
3.0
  1
1.1m
  7
MONOTXT
 72
     1
 11
492.8761
 21
364.202
 31
0.0
210
0.0
220
0.0
230
1.0
100
AcDbText
 73
     3
  0
TEXT
  5
3B4
100
AcDbEntity
  8
1
  6
CONTINUOUS
 62
     7
100
AcDbText
 10
419.3167
 20
326.7268
 30
0.0
 40
3.0
  1
NOTES:
  7
MONOTXT
 11
419.3167
 21
329.7268
 31
0.0
210
0.0
220
0.0
230
1.0
100
AcDbText
 73
     3
  0
TEXT
  5
3B5
100
AcDbEntity
  8
1
  6
CONTINUOUS
 62
     7
100
AcDbText
 10
419.3167
 20
321.3268
 30
0.0
 40
3.0
  1
 
  7
MONOTXT
 11
419.3167
 21
324.3268
 31
0.0
210
0.0
220
0.0
230
1.0
100
AcDbText
 73
     3
  0
TEXT
  5
3B6
100
AcDbEntity
  8
1
  6
CONTINUOUS
 62
     7
100
AcDbText
 10
419.3167
 20
315.9268
 30
0.0
 40
3.0
  1
ALL SUPPORTS SHALL BE GALVANIZED IN ACCORDANCE WITH ASTM A 123..
  7
MONOTXT
 11
419.3167
 21
318.9268
 31
0.0
210
0.0
220
0.0
230
1.0
100
AcDbText
 73
     3
  0
TEXT
  5
3B7
100
AcDbEntity
  8
1
  6
CONTINUOUS
 62
     7
100
AcDbText
 10
419.3167
 20
310.5268
 30
0.0
 40
3.0
  1
 
  7
MONOTXT
 11
419.3167
 21
313.5268
 31
0.0
210
0.0
220
0.0
230
1.0
100
AcDbText
 73
     3
  0
TEXT
  5
3B8
100
AcDbEntity
  8
1
  6
CONTINUOUS
 62
     7
100
AcDbText
 10
419.3167
 20
305.1268
 30
0.0
 40
3.0
  1
DEPTHS DRIVEN ARE BASED ON AVERAGE SOIL CONDITIONS. DEPENDING UPON
  7
MONOTXT
 11
419.3167
 21
308.1268
 31
0.0
210
0.0
220
0.0
230
1.0
100
AcDbText
 73
     3
  0
TEXT
  5
3B9
100
AcDbEntity
  8
1
  6
CONTINUOUS
 62
     7
100
AcDbText
 10
419.3167
 20
299.7268
 30
0.0
 40
3.0
  1
ACTUAL SOIL BEARING IN THE FIELD, THE ENGINEER MAY REQUIRE THAT THE
  7
MONOTXT
 11
419.3167
 21
302.7268
 31
0.0
210
0.0
220
0.0
230
1.0
100
AcDbText
 73
     3
  0
TEXT
  5
3BA
100
AcDbEntity
  8
1
  6
CONTINUOUS
 62
     7
100
AcDbText
 10
419.3167
 20
294.3268
 30
0.0
 40
3.0
  1
DEPTH DRIVEN BE INCREASED TO 1.5m. WHEN THE POST(S) ARE BEHIND
  7
MONOTXT
 11
419.3167
 21
297.3268
 31
0.0
210
0.0
220
0.0
230
1.0
100
AcDbText
 73
     3
  0
TEXT
  5
3BB
100
AcDbEntity
  8
1
  6
CONTINUOUS
 62
     7
100
AcDbText
 10
419.3167
 20
288.9268
 30
0.0
 40
3.0
  1
GUARDRAIL, THE DEPTH DRIVEN MAY BE INCREASED UP TO 1.5m.
  7
MONOTXT
 11
419.3167
 21
291.9268
 31
0.0
210
0.0
220
0.0
230
1.0
100
AcDbText
 73
     3
  0
TEXT
  5
3BC
100
AcDbEntity
  8
1
  6
CONTINUOUS
 62
     7
100
AcDbText
 10
419.3167
 20
283.5268
 30
0.0
 40
3.0
  1
 
  7
MONOTXT
 11
419.3167
 21
286.5268
 31
0.0
210
0.0
220
0.0
230
1.0
100
AcDbText
 73
     3
  0
TEXT
  5
3BD
100
AcDbEntity
  8
1
  6
CONTINUOUS
 62
     7
100
AcDbText
 10
419.3167
 20
278.1268
 30
0.0
 40
3.0
  1
CAN BE USED IF THE SUPPORTS ARE LOCATED OUTSIDE OF THE CLEAR ZONE
  7
MONOTXT
 11
419.3167
 21
281.1268
 31
0.0
210
0.0
220
0.0
230
1.0
100
AcDbText
 73
     3
  0
TEXT
  5
3BE
100
AcDbEntity
  8
1
  6
CONTINUOUS
 62
     7
100
AcDbText
 10
419.3167
 20
272.7268
 30
0.0
 40
3.0
  1
AS DEFINED IN TABLES 3.1 AND 3.2 OF THE "ROADSIDE DESIGN GUIDE". IF
  7
MONOTXT
 11
419.3167
 21
275.7268
 31
0.0
210
0.0
220
0.0
230
1.0
100
AcDbText
 73
     3
  0
TEXT
  5
3BF
100
AcDbEntity
  8
1
  6
CONTINUOUS
 62
     7
100
AcDbText
 10
419.3167
 20
267.3268
 30
0.0
 40
3.0
  1
USED INSIDE OF THE CLEAR ZONE, THE SUPPORTS MUST BE EITHER BEHIND
  7
MONOTXT
 11
419.3167
 21
270.3268
 31
0.0
210
0.0
220
0.0
230
1.0
100
AcDbText
 73
     3
  0
TEXT
  5
3C0
100
AcDbEntity
  8
1
  6
CONTINUOUS
 62
     7
100
AcDbText
 10
419.3167
 20
261.9268
 30
0.0
 40
3.0
  1
GUARDRAIL, CURB, OR THE OPERATING SPEED MUST BE LESS THAN 55 Kg/h.
  7
MONOTXT
 11
419.3167
 21
264.9268
 31
0.0
210
0.0
220
0.0
230
1.0
100
AcDbText
 73
     3
  0
TEXT
  5
3C1
100
AcDbEntity
  8
1
  6
CONTINUOUS
 62
     7
100
AcDbText
 10
522.6214
 20
223.6887
 30
0.0
 40
3.0
  1
8mm 0 CADMIUM PLATED STEEL
  7
MONOTXT
 11
522.6214
 21
226.6887
 31
0.0
210
0.0
220
0.0
230
1.0
100
AcDbText
 73
     3
  0
TEXT
  5
3C2
100
AcDbEntity
  8
1
  6
CONTINUOUS
 62
     7
100
AcDbText
 10
522.6214
 20
218.2887
 30
0.0
 40
3.0
  1
BOLTS, NUTS AND WASHERS (MEETING
  7
MONOTXT
 11
522.6214
 21
221.2887
 31
0.0
210
0.0
220
0.0
230
1.0
100
AcDbText
 73
     3
  0
TEXT
  5
3C3
100
AcDbEntity
  8
1
  6
CONTINUOUS
 62
     7
100
AcDbText
 10
522.6214
 20
212.8887
 30
0.0
 40
3.0
  1
ASTM B 766, CLASS 8, TYPE 2)
  7
MONOTXT
 11
522.6214
 21
215.8887
 31
0.0
210
0.0
220
0.0
230
1.0
100
AcDbText
 73
     3
  0
TEXT
  5
3C4
100
AcDbEntity
  8
1
  6
CONTINUOUS
 62
     7
100
AcDbText
 10
696.2487
 20
219.3198
 30
0.0
 40
3.0
  1
NOTE:  ALL STITCH BOLTS SHALL
  7
MONOTXT
 11
696.2487
 21
222.3198
 31
0.0
210
0.0
220
0.0
230
1.0
100
AcDbText
 73
     3
  0
TEXT
  5
3C5
100
AcDbEntity
  8
1
  6
CONTINUOUS
 62
     7
100
AcDbText
 10
696.2487
 20
213.9198
 30
0.0
 40
3.0
  1
BE FIRST PLACED IN U-CHANNELS
  7
MONOTXT
 11
696.2487
 21
216.9198
 31
0.0
210
0.0
220
0.0
230
1.0
100
AcDbText
 73
     3
  0
TEXT
  5
3C6
100
AcDbEntity
  8
1
  6
CONTINUOUS
 62
     7
100
AcDbText
 10
696.2487
 20
208.5198
 30
0.0
 40
3.0
  1
ACCORDING TO SPECIFICATIONS
  7
MONOTXT
 11
696.2487
 21
211.5198
 31
0.0
210
0.0
220
0.0
230
1.0
100
AcDbText
 73
     3
  0
TEXT
  5
3C7
100
AcDbEntity
  8
1
  6
CONTINUOUS
 62
     7
100
AcDbText
 10
696.2487
 20
203.1198
 30
0.0
 40
3.0
  1
AFTER WHICH THEY SHALL BE
  7
MONOTXT
 11
696.2487
 21
206.1198
 31
0.0
210
0.0
220
0.0
230
1.0
100
AcDbText
 73
     3
  0
TEXT
  5
3C8
100
AcDbEntity
  8
1
  6
CONTINUOUS
 62
     7
100
AcDbText
 10
696.2487
 20
197.7198
 30
0.0
 40
3.0
  1
TORQUED TO 3.4 N.m.
  7
MONOTXT
 11
696.2487
 21
200.7198
 31
0.0
210
0.0
220
0.0
230
1.0
100
AcDbText
 73
     3
  0
TEXT
  5
3C9
100
AcDbEntity
  8
1
  6
CONTINUOUS
 62
     7
100
AcDbText
 10
56.9916
 20
189.5952
 30
0.0
 40
3.0
  1
32.2mm + 1.6mm
  7
MONOTXT
 72
     4
 11
77.2593
 21
191.0952
 31
0.0
210
0.0
220
0.0
230
1.0
100
AcDbText
  0
TEXT
  5
3CA
100
AcDbEntity
  8
1
  6
CONTINUOUS
 62
     7
100
AcDbText
 10
132.7025
 20
131.519
 30
0.0
 40
3.0
  1
36.51mm + 3.2mm
 50
90.0
  7
MONOTXT
 72
     4
 11
131.2025
 21
153.2749
 31
0.0
210
0.0
220
0.0
230
1.0
100
AcDbText
  0
TEXT
  5
3CB
100
AcDbEntity
  8
1
  6
CONTINUOUS
 62
     7
100
AcDbText
 10
58.9
 20
123.0404
 30
0.0
 40
3.0
  1
78mm + 1.6mm
  7
MONOTXT
 72
     4
 11
76.9472
 21
124.5404
 31
0.0
210
0.0
220
0.0
230
1.0
100
AcDbText
  0
TEXT
  5
3CC
100
AcDbEntity
  8
1
  6
CONTINUOUS
 62
     7
100
AcDbText
 10
49.1312
 20
108.5245
 30
0.0
 40
3.6
  1
SIGN POST 2.98Kg/m
  7
MONOTXT
 72
     4
 11
79.1501
 21
110.3245
 31
0.0
210
0.0
220
0.0
230
1.0
100
AcDbText
  0
TEXT
  5
3CD
100
AcDbEntity
  8
1
  6
CONTINUOUS
 62
     7
100
AcDbText
 10
39.8407
 20
98.7183
 30
0.0
 40
3.0
  1
WT./FT. = 2.98Kg/m
  7
MONOTXT
 11
39.8407
 21
101.7183
 31
0.0
210
0.0
220
0.0
230
1.0
100
AcDbText
 73
     3
  0
TEXT
  5
3CE
100
AcDbEntity
  8
1
  6
CONTINUOUS
 62
     7
100
AcDbText
 10
39.8407
 20
93.3183
 30
0.0
 40
3.0
  1
SEC. MOD. X-X = 3525mm +5%
  7
MONOTXT
 11
39.8407
 21
96.3183
 31
0.0
210
0.0
220
0.0
230
1.0
100
AcDbText
 73
     3
  0
TEXT
  5
3CF
100
AcDbEntity
  8
1
  6
CONTINUOUS
 62
     7
100
AcDbText
 10
39.8407
 20
87.9183
 30
0.0
 40
3.0
  1
SEC. MOD. Y-Y = 4540mm +5%
  7
MONOTXT
 11
39.8407
 21
90.9183
 31
0.0
210
0.0
220
0.0
230
1.0
100
AcDbText
 73
     3
  0
TEXT
  5
3D0
100
AcDbEntity
  8
1
  6
CONTINUOUS
 62
     7
100
AcDbText
 10
100.3873
 20
94.9791
 30
0.0
 40
1.5
  1
3
  7
MONOTXT
 11
100.3873
 21
96.4791
 31
0.0
210
0.0
220
0.0
230
1.0
100
AcDbText
 73
     3
  0
TEXT
  5
3D1
100
AcDbEntity
  8
1
  6
CONTINUOUS
 62
     7
100
AcDbText
 10
101.5414
 20
89.3847
 30
0.0
 40
1.5
  1
3
  7
MONOTXT
 11
101.5414
 21
90.8847
 31
0.0
210
0.0
220
0.0
230
1.0
100
AcDbText
 73
     3
  0
TEXT
  5
3D2
100
AcDbEntity
  8
1
  6
CONTINUOUS
 62
     7
100
AcDbText
 10
174.4212
 20
189.2015
 30
0.0
 40
3.0
  1
34.9mm + 6.4mm
  7
MONOTXT
 72
     4
 11
195.3976
 21
190.7015
 31
0.0
210
0.0
220
0.0
230
1.0
100
AcDbText
  0
TEXT
  5
3D3
100
AcDbEntity
  8
1
  6
CONTINUOUS
 62
     7
100
AcDbText
 10
256.2815
 20
127.2566
 30
0.0
 40
3.0
  1
36.51mm + 3.2mm
 50
90.0
  7
MONOTXT
 72
     4
 11
254.7815
 21
149.0125
 31
0.0
210
0.0
220
0.0
230
1.0
100
AcDbText
  0
TEXT
  5
3D4
100
AcDbEntity
  8
1
  6
CONTINUOUS
 62
     7
100
AcDbText
 10
257.616
 20
151.2315
 30
0.0
 40
3.0
  1
-
 50
90.0
  7
MONOTXT
 72
     4
 11
256.116
 21
151.9047
 31
0.0
210
0.0
220
0.0
230
1.0
100
AcDbText
  0
TEXT
  5
3D5
100
AcDbEntity
  8
1
  6
CONTINUOUS
 62
     7
100
AcDbText
 10
177.069
 20
113.0948
 30
0.0
 40
3.0
  1
89mm + 1.6mm
  7
MONOTXT
 72
     4
 11
195.0218
 21
114.5948
 31
0.0
210
0.0
220
0.0
230
1.0
100
AcDbText
  0
TEXT
  5
3D6
100
AcDbEntity
  8
1
  6
CONTINUOUS
 62
     7
100
AcDbText
 10
194.8877
 20
111.6354
 30
0.0
 40
3.0
  1
-
  7
MONOTXT
 72
     4
 11
195.5609
 21
113.1354
 31
0.0
210
0.0
220
0.0
230
1.0
100
AcDbText
  0
LINE
  5
3D7
100
AcDbEntity
  8
1
  6
CONTINUOUS
 62
     7
100
AcDbLine
 10
167.2371
 20
95.6799
 30
0.0
 11
229.1153
 21
95.6799
 31
0.0
  0
TEXT
  5
3D8
100
AcDbEntity
  8
1
  6
CONTINUOUS
 62
     7
100
AcDbText
 10
223.1595
 20
81.2944
 30
0.0
 40
3.0
  1
-
  7
MONOTXT
 72
     4
 11
223.8327
 21
82.7944
 31
0.0
210
0.0
220
0.0
230
1.0
100
AcDbText
  0
TEXT
  5
3D9
100
AcDbEntity
  8
1
  6
CONTINUOUS
 62
     7
100
AcDbText
 10
224.1771
 20
75.8861
 30
0.0
 40
3.0
  1
-
  7
MONOTXT
 72
     4
 11
224.8503
 21
77.3861
 31
0.0
210
0.0
220
0.0
230
1.0
100
AcDbText
  0
TEXT
  5
3DA
100
AcDbEntity
  8
1
  6
CONTINUOUS
 62
     7
100
AcDbText
 10
167.746
 20
97.6909
 30
0.0
 40
3.6
  1
SIGN POST 4.50Kg/m
  7
MONOTXT
 72
     4
 11
197.935
 21
99.4909
 31
0.0
210
0.0
220
0.0
230
1.0
100
AcDbText
  0
TEXT
  5
3DB
100
AcDbEntity
  8
1
  6
CONTINUOUS
 62
     7
100
AcDbText
 10
158.6256
 20
87.8847
 30
0.0
 40
3.0
  1
WT./FT. = 4.50Kg/m
  7
MONOTXT
 11
158.6256
 21
90.8847
 31
0.0
210
0.0
220
0.0
230
1.0
100
AcDbText
 73
     3
  0
TEXT
  5
3DC
100
AcDbEntity
  8
1
  6
CONTINUOUS
 62
     7
100
AcDbText
 10
158.6256
 20
82.4847
 30
0.0
 40
3.0
  1
SEC. MOD. X-X = 6655mm +5%
  7
MONOTXT
 11
158.6256
 21
85.4847
 31
0.0
210
0.0
220
0.0
230
1.0
100
AcDbText
 73
     3
  0
TEXT
  5
3DD
100
AcDbEntity
  8
1
  6
CONTINUOUS
 62
     7
100
AcDbText
 10
158.6256
 20
77.0847
 30
0.0
 40
3.0
  1
SEC. MOD. Y-Y = 8525mm +5%
  7
MONOTXT
 11
158.6256
 21
80.0847
 31
0.0
210
0.0
220
0.0
230
1.0
100
AcDbText
 73
     3
  0
TEXT
  5
3DE
100
AcDbEntity
  8
1
  6
CONTINUOUS
 62
     7
100
AcDbText
 10
219.1722
 20
84.1455
 30
0.0
 40
1.5
  1
3
  7
MONOTXT
 11
219.1722
 21
85.6455
 31
0.0
210
0.0
220
0.0
230
1.0
100
AcDbText
 73
     3
  0
TEXT
  5
3DF
100
AcDbEntity
  8
1
  6
CONTINUOUS
 62
     7
100
AcDbText
 10
220.3263
 20
78.5511
 30
0.0
 40
1.5
  1
3
  7
MONOTXT
 11
220.3263
 21
80.0511
 31
0.0
210
0.0
220
0.0
230
1.0
100
AcDbText
 73
     3
  0
TEXT
  5
3E0
100
AcDbEntity
  8
1
  6
CONTINUOUS
 62
     7
100
AcDbText
 10
306.0578
 20
98.7093
 30
0.0
 40
3.0
  1
78mm + 1.6mm
  7
MONOTXT
 72
     4
 11
324.105
 21
100.2093
 31
0.0
210
0.0
220
0.0
230
1.0
100
AcDbText
  0
TEXT
  5
3E1
100
AcDbEntity
  8
1
  6
CONTINUOUS
 62
     7
100
AcDbText
 10
323.9709
 20
97.2499
 30
0.0
 40
3.0
  1
-
  7
MONOTXT
 72
     4
 11
324.6441
 21
98.7499
 31
0.0
210
0.0
220
0.0
230
1.0
100
AcDbText
  0
TEXT
  5
3E2
100
AcDbEntity
  8
1
  6
CONTINUOUS
 62
     7
100
AcDbText
 10
440.5619
 20
78.1077
 30
0.0
 40
3.0
  1
89mm + 1.6mm
  7
MONOTXT
 72
     4
 11
458.5147
 21
79.6077
 31
0.0
210
0.0
220
0.0
230
1.0
100
AcDbText
  0
TEXT
  5
3E3
100
AcDbEntity
  8
1
  6
CONTINUOUS
 62
     7
100
AcDbText
 10
458.3806
 20
76.6483
 30
0.0
 40
3.0
  1
-
  7
MONOTXT
 72
     4
 11
459.0538
 21
78.1483
 31
0.0
210
0.0
220
0.0
230
1.0
100
AcDbText
  0
LINE
  5
3E4
100
AcDbEntity
  8
1
  6
CONTINUOUS
 62
     7
100
AcDbLine
 10
286.2928
 20
82.3599
 30
0.0
 11
361.0439
 21
82.3599
 31
0.0
  0
TEXT
  5
3E5
100
AcDbEntity
  8
1
  6
CONTINUOUS
 62
     7
100
AcDbText
 10
349.8456
 20
67.8856
 30
0.0
 40
3.0
  1
-
  7
MONOTXT
 72
     4
 11
350.5188
 21
69.3856
 31
0.0
210
0.0
220
0.0
230
1.0
100
AcDbText
  0
TEXT
  5
3E6
100
AcDbEntity
  8
1
  6
CONTINUOUS
 62
     7
100
AcDbText
 10
350.5081
 20
62.5661
 30
0.0
 40
3.0
  1
-
  7
MONOTXT
 72
     4
 11
351.1813
 21
64.0661
 31
0.0
210
0.0
220
0.0
230
1.0
100
AcDbText
  0
TEXT
  5
3E7
100
AcDbEntity
  8
1
  6
CONTINUOUS
 62
     7
100
AcDbText
 10
345.5032
 20
70.8255
 30
0.0
 40
1.5
  1
3
  7
MONOTXT
 11
345.5032
 21
72.3255
 31
0.0
210
0.0
220
0.0
230
1.0
100
AcDbText
 73
     3
  0
TEXT
  5
3E8
100
AcDbEntity
  8
1
  6
CONTINUOUS
 62
     7
100
AcDbText
 10
346.2134
 20
65.2311
 30
0.0
 40
1.5
  1
3
  7
MONOTXT
 11
346.2134
 21
66.7311
 31
0.0
210
0.0
220
0.0
230
1.0
100
AcDbText
 73
     3
  0
TEXT
  5
3E9
100
AcDbEntity
  8
1
  6
CONTINUOUS
 62
     7
100
AcDbText
 10
511.6985
 20
156.2044
 30
0.0
 40
3.0
  1
-
 50
90.0
  7
MONOTXT
 72
     4
 11
510.1985
 21
156.8776
 31
0.0
210
0.0
220
0.0
230
1.0
100
AcDbText
  0
TEXT
  5
3EA
100
AcDbEntity
  8
1
  6
CONTINUOUS
 62
     7
100
AcDbText
 10
510.5049
 20
137.8364
 30
0.0
 40
3.0
  1
47.6mm+
 50
90.0
  7
MONOTXT
 72
     4
 11
509.0049
 21
147.7694
 31
0.0
210
0.0
220
0.0
230
1.0
100
AcDbText
  0
TEXT
  5
3EB
100
AcDbEntity
  8
1
  6
CONTINUOUS
 62
     7
100
AcDbText
 10
515.9049
 20
140.4938
 30
0.0
 40
3.0
  1
3.2mm
 50
90.0
  7
MONOTXT
 72
     4
 11
514.4049
 21
147.7694
 31
0.0
210
0.0
220
0.0
230
1.0
100
AcDbText
  0
TEXT
  5
3EC
100
AcDbEntity
  8
1
  6
CONTINUOUS
 62
     7
100
AcDbText
 10
371.5674
 20
144.1468
 30
0.0
 40
3.0
  1
36.5mm+
 50
90.0
  7
MONOTXT
 72
     4
 11
370.0674
 21
153.9854
 31
0.0
210
0.0
220
0.0
230
1.0
100
AcDbText
  0
TEXT
  5
3ED
100
AcDbEntity
  8
1
  6
CONTINUOUS
 62
     7
100
AcDbText
 10
376.9674
 20
146.7098
 30
0.0
 40
3.0
  1
3.2mm
 50
90.0
  7
MONOTXT
 72
     4
 11
375.4674
 21
153.9854
 31
0.0
210
0.0
220
0.0
230
1.0
100
AcDbText
  0
TEXT
  5
3EE
100
AcDbEntity
  8
1
  6
CONTINUOUS
 62
     7
100
AcDbText
 10
372.761
 20
162.4204
 30
0.0
 40
3.0
  1
-
 50
90.0
  7
MONOTXT
 72
     4
 11
371.261
 21
163.0936
 31
0.0
210
0.0
220
0.0
230
1.0
100
AcDbText
  0
TEXT
  5
3EF
100
AcDbEntity
  8
1
  6
CONTINUOUS
 62
     7
100
AcDbText
 10
371.6562
 20
115.9973
 30
0.0
 40
3.0
  1
36.5mm+
 50
90.0
  7
MONOTXT
 72
     4
 11
370.1562
 21
125.8359
 31
0.0
210
0.0
220
0.0
230
1.0
100
AcDbText
  0
TEXT
  5
3F0
100
AcDbEntity
  8
1
  6
CONTINUOUS
 62
     7
100
AcDbText
 10
377.0562
 20
118.5603
 30
0.0
 40
3.0
  1
3.2mm
 50
90.0
  7
MONOTXT
 72
     4
 11
375.5562
 21
125.8359
 31
0.0
210
0.0
220
0.0
230
1.0
100
AcDbText
  0
TEXT
  5
3F1
100
AcDbEntity
  8
1
  6
CONTINUOUS
 62
     7
100
AcDbText
 10
372.8498
 20
134.2709
 30
0.0
 40
3.0
  1
-
 50
90.0
  7
MONOTXT
 72
     4
 11
371.3498
 21
134.9441
 31
0.0
210
0.0
220
0.0
230
1.0
100
AcDbText
  0
LINE
  5
3F2
100
AcDbEntity
  8
1
  6
CONTINUOUS
 62
     7
100
AcDbLine
 10
422.3008
 20
63.3569
 30
0.0
 11
496.961
 21
63.3569
 31
0.0
  0
TEXT
  5
3F3
100
AcDbEntity
  8
1
  6
CONTINUOUS
 62
     7
100
AcDbText
 10
488.206
 20
48.9714
 30
0.0
 40
3.0
  1
-
  7
MONOTXT
 72
     4
 11
488.8792
 21
50.4714
 31
0.0
210
0.0
220
0.0
230
1.0
100
AcDbText
  0
TEXT
  5
3F4
100
AcDbEntity
  8
1
  6
CONTINUOUS
 62
     7
100
AcDbText
 10
489.1348
 20
43.6075
 30
0.0
 40
3.0
  1
-
  7
MONOTXT
 72
     4
 11
489.808
 21
45.1075
 31
0.0
210
0.0
220
0.0
230
1.0
100
AcDbText
  0
TEXT
  5
3F5
100
AcDbEntity
  8
1
  6
CONTINUOUS
 62
     7
100
AcDbText
 10
483.686
 20
51.8225
 30
0.0
 40
1.5
  1
3
  7
MONOTXT
 11
483.686
 21
53.3225
 31
0.0
210
0.0
220
0.0
230
1.0
100
AcDbText
 73
     3
  0
TEXT
  5
3F6
100
AcDbEntity
  8
1
  6
CONTINUOUS
 62
     7
100
AcDbText
 10
484.7513
 20
46.5389
 30
0.0
 40
1.5
  1
3
  7
MONOTXT
 11
484.7513
 21
48.0389
 31
0.0
210
0.0
220
0.0
230
1.0
100
AcDbText
 73
     3
  0
TEXT
  5
3F7
100
AcDbEntity
  8
1
  6
CONTINUOUS
 62
     7
100
AcDbText
 10
423.6665
 20
65.3679
 30
0.0
 40
3.6
  1
SIGN POST 9.00Kg/m BB
  7
MONOTXT
 72
     4
 11
459.6523
 21
67.1679
 31
0.0
210
0.0
220
0.0
230
1.0
100
AcDbText
  0
TEXT
  5
3F8
100
AcDbEntity
  8
1
  6
CONTINUOUS
 62
     7
100
AcDbText
 10
420.3429
 20
55.5617
 30
0.0
 40
3.0
  1
WT./FT. = 9.00Kg/m BB
  7
MONOTXT
 11
420.3429
 21
58.5617
 31
0.0
210
0.0
220
0.0
230
1.0
100
AcDbText
 73
     3
  0
TEXT
  5
3F9
100
AcDbEntity
  8
1
  6
CONTINUOUS
 62
     7
100
AcDbText
 10
420.3429
 20
50.1617
 30
0.0
 40
3.0
  1
SEC. MOD. X-X = 21,630mm +10%
  7
MONOTXT
 11
420.3429
 21
53.1617
 31
0.0
210
0.0
220
0.0
230
1.0
100
AcDbText
 73
     3
  0
TEXT
  5
3FA
100
AcDbEntity
  8
1
  6
CONTINUOUS
 62
     7
100
AcDbText
 10
420.3429
 20
44.7617
 30
0.0
 40
3.0
  1
SEC. MOD. Y-Y = 16,455mm +5%
  7
MONOTXT
 11
420.3429
 21
47.7617
 31
0.0
210
0.0
220
0.0
230
1.0
100
AcDbText
 73
     3
  0
TEXT
  5
3FB
100
AcDbEntity
  8
1
  6
CONTINUOUS
 62
     7
100
AcDbText
 10
287.9213
 20
84.3709
 30
0.0
 40
3.6
  1
SIGN POST 5.96Kg/m BB
  7
MONOTXT
 72
     4
 11
323.8221
 21
86.1709
 31
0.0
210
0.0
220
0.0
230
1.0
100
AcDbText
  0
TEXT
  5
3FC
100
AcDbEntity
  8
1
  6
CONTINUOUS
 62
     7
100
AcDbText
 10
284.5127
 20
74.5647
 30
0.0
 40
3.0
  1
WT./FT. = 5.96Kg/m BB
  7
MONOTXT
 11
284.5127
 21
77.5647
 31
0.0
210
0.0
220
0.0
230
1.0
100
AcDbText
 73
     3
  0
TEXT
  5
3FD
100
AcDbEntity
  8
1
  6
CONTINUOUS
 62
     7
100
AcDbText
 10
284.5127
 20
69.1647
 30
0.0
 40
3.0
  1
SEC. MOD. X-X = 11,210mm +5%
  7
MONOTXT
 11
284.5127
 21
72.1647
 31
0.0
210
0.0
220
0.0
230
1.0
100
AcDbText
 73
     3
  0
TEXT
  5
3FE
100
AcDbEntity
  8
1
  6
CONTINUOUS
 62
     7
100
AcDbText
 10
284.5127
 20
63.7647
 30
0.0
 40
3.0
  1
SEC. MOD. Y-Y = 8440mm +5%
  7
MONOTXT
 11
284.5127
 21
66.7647
 31
0.0
210
0.0
220
0.0
230
1.0
100
AcDbText
 73
     3
  0
TEXT
  5
3FF
100
AcDbEntity
  8
1
  6
CONTINUOUS
 62
     7
100
AcDbText
 10
282.1547
 20
151.293
 30
0.0
 40
3.0
  1
STEEL
  7
MONOTXT
 72
     4
 11
288.8279
 21
152.793
 31
0.0
210
0.0
220
0.0
230
1.0
100
AcDbText
  0
TEXT
  5
400
100
AcDbEntity
  8
1
  6
CONTINUOUS
 62
     7
100
AcDbText
 10
283.7964
 20
145.893
 30
0.0
 40
3.0
  1
8mm
  7
MONOTXT
 72
     4
 11
288.8279
 21
147.393
 31
0.0
210
0.0
220
0.0
230
1.0
100
AcDbText
  0
TEXT
  5
401
100
AcDbEntity
  8
1
  6
CONTINUOUS
 62
     7
100
AcDbText
 10
283.3595
 20
140.493
 30
0.0
 40
3.0
  1
BOLT
  7
MONOTXT
 72
     4
 11
288.8279
 21
141.993
 31
0.0
210
0.0
220
0.0
230
1.0
100
AcDbText
  0
TEXT
  5
402
100
AcDbEntity
  8
1
  6
CONTINUOUS
 62
     7
100
AcDbText
 10
411.4965
 20
140.9847
 30
0.0
 40
3.0
  1
STEEL
  7
MONOTXT
 72
     4
 11
418.1697
 21
142.4847
 31
0.0
210
0.0
220
0.0
230
1.0
100
AcDbText
  0
TEXT
  5
403
100
AcDbEntity
  8
1
  6
CONTINUOUS
 62
     7
100
AcDbText
 10
413.1382
 20
135.5847
 30
0.0
 40
3.0
  1
8mm
  7
MONOTXT
 72
     4
 11
418.1697
 21
137.0847
 31
0.0
210
0.0
220
0.0
230
1.0
100
AcDbText
  0
TEXT
  5
404
100
AcDbEntity
  8
1
  6
CONTINUOUS
 62
     7
100
AcDbText
 10
412.7013
 20
130.1847
 30
0.0
 40
3.0
  1
BOLT
  7
MONOTXT
 72
     4
 11
418.1697
 21
131.6847
 31
0.0
210
0.0
220
0.0
230
1.0
100
AcDbText
  0
TEXT
  5
405
100
AcDbEntity
  8
1
  6
CONTINUOUS
 62
     7
100
AcDbText
 10
510.86
 20
98.9421
 30
0.0
 40
3.0
  1
47.6mm+
 50
90.0
  7
MONOTXT
 72
     4
 11
509.36
 21
108.8751
 31
0.0
210
0.0
220
0.0
230
1.0
100
AcDbText
  0
TEXT
  5
406
100
AcDbEntity
  8
1
  6
CONTINUOUS
 62
     7
100
AcDbText
 10
516.26
 20
101.5995
 30
0.0
 40
3.0
  1
3.2mm
 50
90.0
  7
MONOTXT
 72
     4
 11
514.76
 21
108.8751
 31
0.0
210
0.0
220
0.0
230
1.0
100
AcDbText
  0
TEXT
  5
407
100
AcDbEntity
  8
1
  6
CONTINUOUS
 62
     7
100
AcDbText
 10
512.0536
 20
117.3101
 30
0.0
 40
3.0
  1
-
 50
90.0
  7
MONOTXT
 72
     4
 11
510.5536
 21
117.9833
 31
0.0
210
0.0
220
0.0
230
1.0
100
AcDbText
  0
ENDSEC
  0
SECTION
  2
OBJECTS
  0
DICTIONARY
  5
19
100
AcDbDictionary
  3
ACAD_GROUP
350
1A
  3
ACAD_MLINESTYLE
350
1B
  0
DICTIONARY
  5
1A
102
{ACAD_REACTORS
330
19
102
}
100
AcDbDictionary
  0
DICTIONARY
  5
1B
102
{ACAD_REACTORS
330
19
102
}
100
AcDbDictionary
  3
STANDARD
350
1C
  0
MLINESTYLE
  5
1C
102
{ACAD_REACTORS
330
1B
102
}
100
AcDbMlineStyle
  2
STANDARD
 70
     0
  3

 62
     0
 51
90.0
 52
90.0
 71
     2
 49
0.5
 62
   256
  6
BYLAYER
 49
-0.5
 62
   256
  6
BYLAYER
  0
ENDSEC
  0
EOF
