  0
SECTION
  2
HEADER
  9
$ACADVER
  1
AC1014
  9
$ACADMAINTVER
 70
     0
  9
$DWGCODEPAGE
  3
ANSI_1252
  9
$INSBASE
 10
0.0
 20
0.0
 30
0.0
  9
$EXTMIN
 10
13.083333
 20
-12.0
 30
0.0
  9
$EXTMAX
 10
678.083333
 20
435.833333
 30
0.0
  9
$LIMMIN
 10
0.0
 20
0.0
  9
$LIMMAX
 10
12.0
 20
9.0
  9
$ORTHOMODE
 70
     0
  9
$REGENMODE
 70
     1
  9
$FILLMODE
 70
     1
  9
$QTEXTMODE
 70
     0
  9
$MIRRTEXT
 70
     1
  9
$DRAGMODE
 70
     2
  9
$LTSCALE
 40
1.0
  9
$OSMODE
 70
     0
  9
$ATTMODE
 70
     1
  9
$TEXTSIZE
 40
0.2
  9
$TRACEWID
 40
0.05
  9
$TEXTSTYLE
  7
STANDARD
  9
$CLAYER
  8
0
  9
$CELTYPE
  6
CONTINUOUS
  9
$CECOLOR
 62
   256
  9
$CELTSCALE
 40
1.0
  9
$DELOBJ
 70
     1
  9
$DISPSILH
 70
     0
  9
$DIMSCALE
 40
1.0
  9
$DIMASZ
 40
0.18
  9
$DIMEXO
 40
0.0625
  9
$DIMDLI
 40
0.38
  9
$DIMRND
 40
0.0
  9
$DIMDLE
 40
0.0
  9
$DIMEXE
 40
0.18
  9
$DIMTP
 40
0.0
  9
$DIMTM
 40
0.0
  9
$DIMTXT
 40
0.18
  9
$DIMCEN
 40
0.09
  9
$DIMTSZ
 40
0.0
  9
$DIMTOL
 70
     0
  9
$DIMLIM
 70
     0
  9
$DIMTIH
 70
     1
  9
$DIMTOH
 70
     1
  9
$DIMSE1
 70
     0
  9
$DIMSE2
 70
     0
  9
$DIMTAD
 70
     0
  9
$DIMZIN
 70
     0
  9
$DIMBLK
  1

  9
$DIMASO
 70
     1
  9
$DIMSHO
 70
     1
  9
$DIMPOST
  1

  9
$DIMAPOST
  1

  9
$DIMALT
 70
     0
  9
$DIMALTD
 70
     2
  9
$DIMALTF
 40
25.4
  9
$DIMLFAC
 40
1.0
  9
$DIMTOFL
 70
     0
  9
$DIMTVP
 40
0.0
  9
$DIMTIX
 70
     0
  9
$DIMSOXD
 70
     0
  9
$DIMSAH
 70
     0
  9
$DIMBLK1
  1

  9
$DIMBLK2
  1

  9
$DIMSTYLE
  2
STANDARD
  9
$DIMCLRD
 70
     0
  9
$DIMCLRE
 70
     0
  9
$DIMCLRT
 70
     0
  9
$DIMTFAC
 40
1.0
  9
$DIMGAP
 40
0.09
  9
$DIMJUST
 70
     0
  9
$DIMSD1
 70
     0
  9
$DIMSD2
 70
     0
  9
$DIMTOLJ
 70
     1
  9
$DIMTZIN
 70
     0
  9
$DIMALTZ
 70
     0
  9
$DIMALTTZ
 70
     0
  9
$DIMFIT
 70
     3
  9
$DIMUPT
 70
     0
  9
$DIMUNIT
 70
     2
  9
$DIMDEC
 70
     4
  9
$DIMTDEC
 70
     4
  9
$DIMALTU
 70
     2
  9
$DIMALTTD
 70
     2
  9
$DIMTXSTY
  7
STANDARD
  9
$DIMAUNIT
 70
     0
  9
$LUNITS
 70
     2
  9
$LUPREC
 70
     4
  9
$SKETCHINC
 40
0.1
  9
$FILLETRAD
 40
0.0
  9
$AUNITS
 70
     0
  9
$AUPREC
 70
     0
  9
$MENU
  1
acad
  9
$ELEVATION
 40
0.0
  9
$PELEVATION
 40
0.0
  9
$THICKNESS
 40
0.0
  9
$LIMCHECK
 70
     0
  9
$BLIPMODE
 70
     1
  9
$CHAMFERA
 40
0.0
  9
$CHAMFERB
 40
0.0
  9
$CHAMFERC
 40
0.0
  9
$CHAMFERD
 40
0.0
  9
$SKPOLY
 70
     0
  9
$TDCREATE
 40
2451803.476412037
  9
$TDUPDATE
 40
2451803.476412037
  9
$TDINDWG
 40
0.0000000000
  9
$TDUSRTIMER
 40
0.0000000000
  9
$USRTIMER
 70
     1
  9
$ANGBASE
 50
0.0
  9
$ANGDIR
 70
     0
  9
$PDMODE
 70
     0
  9
$PDSIZE
 40
0.0
  9
$PLINEWID
 40
0.0
  9
$COORDS
 70
     0
  9
$SPLFRAME
 70
     0
  9
$SPLINETYPE
 70
     6
  9
$SPLINESEGS
 70
    10
  9
$ATTDIA
 70
     0
  9
$ATTREQ
 70
     1
  9
$HANDLING
 70
     1
  9
$HANDSEED
  5
230
  9
$SURFTAB1
 70
     6
  9
$SURFTAB2
 70
     6
  9
$SURFTYPE
 70
     6
  9
$SURFU
 70
     6
  9
$SURFV
 70
     6
  9
$UCSNAME
  2

  9
$UCSORG
 10
0.0
 20
0.0
 30
0.0
  9
$UCSXDIR
 10
1.0
 20
0.0
 30
0.0
  9
$UCSYDIR
 10
0.0
 20
1.0
 30
0.0
  9
$PUCSNAME
  2

  9
$PUCSORG
 10
0.0
 20
0.0
 30
0.0
  9
$PUCSXDIR
 10
1.0
 20
0.0
 30
0.0
  9
$PUCSYDIR
 10
0.0
 20
1.0
 30
0.0
  9
$USERI1
 70
     0
  9
$USERI2
 70
     0
  9
$USERI3
 70
     0
  9
$USERI4
 70
     0
  9
$USERI5
 70
     0
  9
$USERR1
 40
0.0
  9
$USERR2
 40
0.0
  9
$USERR3
 40
0.0
  9
$USERR4
 40
0.0
  9
$USERR5
 40
0.0
  9
$WORLDVIEW
 70
     1
  9
$SHADEDGE
 70
     3
  9
$SHADEDIF
 70
    70
  9
$TILEMODE
 70
     1
  9
$MAXACTVP
 70
    16
  9
$PINSBASE
 10
0.0
 20
0.0
 30
0.0
  9
$PLIMCHECK
 70
     0
  9
$PEXTMIN
 10
-1.000000E+20
 20
-1.000000E+20
 30
-1.000000E+20
  9
$PEXTMAX
 10
-1.000000E+20
 20
-1.000000E+20
 30
-1.000000E+20
  9
$PLIMMIN
 10
0.0
 20
0.0
  9
$PLIMMAX
 10
12.0
 20
9.0
  9
$UNITMODE
 70
     0
  9
$VISRETAIN
 70
     0
  9
$PLINEGEN
 70
     1
  9
$PSLTSCALE
 70
     0
  9
$TREEDEPTH
 70
  3020
  9
$PICKSTYLE
 70
     1
  9
$CMLSTYLE
  2
STANDARD
  9
$CMLJUST
 70
     0
  9
$CMLSCALE
 40
1.0
  9
$PROXYGRAPHICS
 70
     0
  9
$MEASUREMENT
 70
     0
  0
ENDSEC
  0
SECTION
  2
CLASSES
  0
CLASS
  1
LWPOLYLINE
  2
AcDbPolyline
  3
"AutoCAD"
 90
        0
280
     0
281
     1
  0
CLASS
  1
IMAGE
  2
AcDbRasterImage
  3
ISM
 90
      127
280
     0
281
     1
  0
CLASS
  1
OLE2FRAME
  2
AcDbOle2Frame
  3
""
 90
        0
280
     0
281
     1
  0
CLASS
  1
HATCH
  2
AcDbHatch
  3
"ACAD_SEDONA"
 90
        0
280
     0
281
     1
  0
CLASS
  1
DICTIONARYVAR
  2
AcDbDictionaryVar
  3
"AutoCAD"
 90
        0
280
     0
281
     0
  0
CLASS
  1
RASTERVARIABLES
  2
AcDbRasterVariables
  3
ISM
 90
        0
280
     0
281
     0
  0
CLASS
  1
IMAGEDEF
  2
AcDbRasterImageDef
  3
ISM
 90
        0
280
     0
281
     0
  0
CLASS
  1
IMAGEDEF_REACTOR
  2
AcDbRasterImageDefReactor
  3
ISM
 90
        1
280
     0
281
     0
  0
CLASS
  1
IDBUFFER
  2
AcDbIdBuffer
  3
"Acad"
 90
        0
280
     0
281
     0
  0
CLASS
  1
SPATIAL_FILTER
  2
AcDbSpatialFilter
  3
"Acad"
 90
        0
280
     0
281
     0
  0
CLASS
  1
XRECORD
  2
AcDbXrecord
  3
"<Built In>"
 90
        0
280
     0
281
     0
  0
CLASS
  1
SORTENTSTABLE
  2
AcDbSortentsTable
  3
"AutoCAD"
 90
        0
280
     0
281
     0
  0
CLASS
  1
LAYER_INDEX
  2
AcDbLayerIndex
  3
"Acad"
 90
        0
280
     0
281
     0
  0
CLASS
  1
SPATIAL_INDEX
  2
AcDbSpatialIndex
  3
"Acad"
 90
        0
280
     0
281
     0
  0
CLASS
  1
OBJECT_PTR
  2
CAseDLPNTableRecord
  3
"ASE-LPNTableRecord"
 90
        1
280
     0
281
     0
  0
ENDSEC
  0
SECTION
  2
TABLES
  0
TABLE
  2
VPORT
  5
7
100
AcDbSymbolTable
 70
     1
  0
VPORT
  5
22F
100
AcDbSymbolTableRecord
100
AcDbViewportTableRecord
  2
*ACTIVE
 70
     0
 10
0.0
 20
0.0
 11
1.0
 21
1.0
 12
0.0
 22
0.0
 13
0.0
 23
0.0
 14
0.0
 24
0.0
 15
0.0
 25
0.0
 16
0.0
 26
0.0
 36
1.0
 17
301.173203
 27
214.458333
 37
0.0
 40
471.033333
 41
1.546823
 42
50.0
 43
0.0
 44
0.0
 50
0.0
 51
0.0
 71
     0
 72
   100
 73
     1
 74
     0
 75
     0
 76
     0
 77
     0
 78
     0
  0
ENDTAB
  0
TABLE
  2
LTYPE
  5
4
100
AcDbSymbolTable
 70
     9
  0
LTYPE
  5
11
100
AcDbSymbolTableRecord
100
AcDbLinetypeTableRecord
  2
BYBLOCK
 70
     0
  3

 72
    65
 73
     0
 40
0.0
  0
LTYPE
  5
12
100
AcDbSymbolTableRecord
100
AcDbLinetypeTableRecord
  2
BYLAYER
 70
     0
  3

 72
    65
 73
     0
 40
0.0
  0
LTYPE
  5
13
100
AcDbSymbolTableRecord
100
AcDbLinetypeTableRecord
  2
CONTINUOUS
 70
     0
  3
Solid line
 72
    65
 73
     0
 40
0.0
  0
LTYPE
  5
22
100
AcDbSymbolTableRecord
100
AcDbLinetypeTableRecord
  2
DOT
 70
    64
  3
. . . . . . . . . . . . . . . . . . . . . . . . . . . . . . . . .
 72
    65
 73
     2
 40
0.25
 49
0.0
 74
     0
 49
-0.25
 74
     0
  0
LTYPE
  5
23
100
AcDbSymbolTableRecord
100
AcDbLinetypeTableRecord
  2
HIDDEN
 70
    64
  3
__ __ __ __ __ __ __ __ __ __ __ __ __ __ __ __ __ __ __ __ __ 
 72
    65
 73
     2
 40
0.375
 49
0.25
 74
     0
 49
-0.125
 74
     0
  0
LTYPE
  5
24
100
AcDbSymbolTableRecord
100
AcDbLinetypeTableRecord
  2
DASHED
 70
    64
  3
__ __ __ __ __ __ __ __ __ __ __ __ __ __ __ __ __ __ __ __ __
 72
    65
 73
     2
 40
0.75
 49
0.5
 74
     0
 49
-0.25
 74
     0
  0
LTYPE
  5
25
100
AcDbSymbolTableRecord
100
AcDbLinetypeTableRecord
  2
DASHDOT
 70
    64
  3
__ . __ . __ . __ . __ . __ . __ . __ . __ . __ . __ . __ . _
 72
    65
 73
     4
 40
1.0
 49
0.5
 74
     0
 49
-0.25
 74
     0
 49
0.0
 74
     0
 49
-0.25
 74
     0
  0
LTYPE
  5
26
100
AcDbSymbolTableRecord
100
AcDbLinetypeTableRecord
  2
DIVIDE
 70
    64
  3
____ . . ____ . . ____ . . ____ . . ____ . . ____ . . ____ . .
 72
    65
 73
     6
 40
1.25
 49
0.5
 74
     0
 49
-0.25
 74
     0
 49
0.0
 74
     0
 49
-0.25
 74
     0
 49
0.0
 74
     0
 49
-0.25
 74
     0
  0
LTYPE
  5
27
100
AcDbSymbolTableRecord
100
AcDbLinetypeTableRecord
  2
CENTER
 70
    64
  3
____ _ ____ _ ____ _ ____ _ ____ _ ____ _ ____ _ ____ _ ____ _
 72
    65
 73
     4
 40
2.0
 49
1.25
 74
     0
 49
-0.25
 74
     0
 49
0.25
 74
     0
 49
-0.25
 74
     0
  0
ENDTAB
  0
TABLE
  2
LAYER
  5
2
100
AcDbSymbolTable
 70
     4
  0
LAYER
  5
14
102
{ACAD_XDICTIONARY
360
5F205F5F5F5F205F
102
}
100
AcDbSymbolTableRecord
100
AcDbLayerTableRecord
  2
0
 70
     0
 62
     7
  6
CONTINUOUS
  0
LAYER
  5
1E
102
{ACAD_XDICTIONARY
360
5F205F5F5F5F205F
102
}
100
AcDbSymbolTableRecord
100
AcDbLayerTableRecord
  2
CONSTRUCTION_CLASS
 70
    64
 62
     7
  6
CONTINUOUS
  0
LAYER
  5
2A
102
{ACAD_XDICTIONARY
360
5F205F5F5F5F205F
102
}
100
AcDbSymbolTableRecord
100
AcDbLayerTableRecord
  2
61
 70
    64
 62
     7
  6
CONTINUOUS
  0
LAYER
  5
2D
102
{ACAD_XDICTIONARY
360
5F205F5F5F5F205F
102
}
100
AcDbSymbolTableRecord
100
AcDbLayerTableRecord
  2
1
 70
    64
 62
     7
  6
CONTINUOUS
  0
ENDTAB
  0
TABLE
  2
STYLE
  5
3
100
AcDbSymbolTable
 70
     4
  0
STYLE
  5
17
100
AcDbSymbolTableRecord
100
AcDbTextStyleTableRecord
  2
STANDARD
 70
     0
 40
0.0
 41
1.0
 50
0.0
 71
     0
 42
0.0
  3
txt
  4

  0
STYLE
  5
2B
100
AcDbSymbolTableRecord
100
AcDbTextStyleTableRecord
  2
MONOTXT
 70
     0
 40
0.2
 41
1.0
 50
0.0
 71
     0
 42
0.2
  3
MONOTXT
  4

  0
STYLE
  5
3F
100
AcDbSymbolTableRecord
100
AcDbTextStyleTableRecord
  2
TXT
 70
     0
 40
0.2
 41
1.0
 50
0.0
 71
     0
 42
0.2
  3
TXT
  4

  0
STYLE
  5
20A
100
AcDbSymbolTableRecord
100
AcDbTextStyleTableRecord
  2
ROMANT
 70
     0
 40
0.2
 41
1.0
 50
0.0
 71
     0
 42
0.2
  3
ROMANT
  4

  0
ENDTAB
  0
TABLE
  2
VIEW
  5
5
100
AcDbSymbolTable
 70
     0
  0
ENDTAB
  0
TABLE
  2
UCS
  5
6
100
AcDbSymbolTable
 70
     0
  0
ENDTAB
  0
TABLE
  2
APPID
  5
8
100
AcDbSymbolTable
 70
     1
  0
APPID
  5
16
100
AcDbSymbolTableRecord
100
AcDbRegAppTableRecord
  2
ACAD
 70
     0
  0
ENDTAB
  0
TABLE
  2
DIMSTYLE
  5
9
100
AcDbSymbolTable
 70
     1
  0
DIMSTYLE
105
18
100
AcDbSymbolTableRecord
100
AcDbDimStyleTableRecord
  2
STANDARD
 70
     0
  3

  4

  5

  6

  7

 40
1.0
 41
0.18
 42
0.0625
 43
0.38
 44
0.18
 45
0.0
 46
0.0
 47
0.0
 48
0.0
140
0.18
141
0.09
142
0.0
143
25.4
144
1.0
145
0.0
146
1.0
147
0.09
 71
     0
 72
     0
 73
     1
 74
     1
 75
     0
 76
     0
 77
     0
 78
     0
170
     0
171
     2
172
     0
173
     0
174
     0
175
     0
176
     0
177
     0
178
     0
270
     2
271
     4
272
     4
273
     2
274
     2
340
17
275
     0
280
     0
281
     0
282
     0
283
     1
284
     0
285
     0
286
     0
287
     0
288
     0
  0
ENDTAB
  0
TABLE
  2
BLOCK_RECORD
  5
1
100
AcDbSymbolTable
 70
     2
  0
BLOCK_RECORD
  5
A
100
AcDbSymbolTableRecord
100
AcDbBlockTableRecord
  2
*MODEL_SPACE
  0
BLOCK_RECORD
  5
B
100
AcDbSymbolTableRecord
100
AcDbBlockTableRecord
  2
*PAPER_SPACE
  0
BLOCK_RECORD
  5
149
102
{ACAD_XDICTIONARY
360
6A9B022400000040
102
}
100
AcDbSymbolTableRecord
100
AcDbBlockTableRecord
  2
LDR
  0
BLOCK_RECORD
  5
21D
102
{ACAD_XDICTIONARY
360
6A9B022400000040
102
}
100
AcDbSymbolTableRecord
100
AcDbBlockTableRecord
  2
PT
  0
ENDTAB
  0
ENDSEC
  0
SECTION
  2
BLOCKS
  0
BLOCK
  5
D
100
AcDbEntity
  8
0
100
AcDbBlockBegin
  2
*MODEL_SPACE
 70
     0
 10
0.0
 20
0.0
 30
0.0
  3
*MODEL_SPACE
  1

  0
ENDBLK
  5
E
100
AcDbEntity
  8
0
100
AcDbBlockEnd
  0
BLOCK
  5
F
100
AcDbEntity
 67
     1
  8
0
100
AcDbBlockBegin
  2
*PAPER_SPACE
 70
     0
 10
0.0
 20
0.0
 30
0.0
  3
*PAPER_SPACE
  1

  0
ENDBLK
  5
10
100
AcDbEntity
 67
     1
  8
0
100
AcDbBlockEnd
  0
BLOCK
  5
14A
100
AcDbEntity
  8
1
  6
CONTINUOUS
 62
     1
100
AcDbBlockBegin
  2
LDR
 70
     0
 10
0.0
 20
0.0
 30
0.0
  3
LNR
  1

  0
ELLIPSE
  5
14B
100
AcDbEntity
  8
1
  6
CONTINUOUS
 62
     1
100
AcDbEllipse
 10
-0.004547
 20
-0.001151
 30
0.0
 11
0.007440417051956
 21
0.0006506250108083
 31
0.0
210
0.0
220
0.0
230
1.0
 40
0.122415
 41
0.8963533496766982
 42
3.1415926535897931
  0
ELLIPSE
  5
14C
100
AcDbEntity
  8
1
  6
CONTINUOUS
 62
     1
100
AcDbEllipse
 10
-0.004669
 20
0.000882
 30
0.0
 11
0.0073185421713632
 21
-0.000731875170693
 31
0.0
210
0.0
220
0.0
230
1.0
 40
0.07063
 41
3.1407147529760402
 42
5.4181099545465106
  0
ENDBLK
  5
14D
100
AcDbEntity
  8
1
  6
CONTINUOUS
 62
     1
100
AcDbBlockEnd
  0
BLOCK
  5
21E
100
AcDbEntity
  8
1
  6
CONTINUOUS
 62
     1
100
AcDbBlockBegin
  2
PT
 70
     0
 10
0.0
 20
0.0
 30
0.0
  3
PT
  1

  0
POINT
  5
21F
100
AcDbEntity
  8
1
  6
CONTINUOUS
 62
     1
100
AcDbPoint
 10
0.0
 20
0.0
 30
0.0
  0
ENDBLK
  5
220
100
AcDbEntity
  8
1
  6
CONTINUOUS
 62
     1
100
AcDbBlockEnd
  0
ENDSEC
  0
SECTION
  2
ENTITIES
  0
TEXT
  5
2C
100
AcDbEntity
  8
61
  6
CONTINUOUS
 62
     7
100
AcDbText
 10
654.3615
 20
385.103667
 30
0.0
 40
2.40132
  1
     
 41
1.001399
  7
MONOTXT
210
0.0
220
0.0
230
1.0
100
AcDbText
  0
TEXT
  5
2E
100
AcDbEntity
  8
1
  6
CONTINUOUS
 62
     1
100
AcDbText
 10
500.898
 20
41.750333
 30
0.0
 40
2.00004
  1
05-21-69
  7
MONOTXT
 72
     1
 11
507.646167
 21
43.750333
 31
0.0
210
0.0
220
0.0
230
1.0
100
AcDbText
 73
     3
  0
TEXT
  5
2F
100
AcDbEntity
  8
1
  6
CONTINUOUS
 62
     1
100
AcDbText
 10
501.609667
 20
36.850333
 30
0.0
 40
2.00004
  1
11-25-70
  7
MONOTXT
 72
     1
 11
508.035
 21
38.850333
 31
0.0
210
0.0
220
0.0
230
1.0
100
AcDbText
 73
     3
  0
TEXT
  5
30
100
AcDbEntity
  8
1
  6
CONTINUOUS
 62
     1
100
AcDbText
 10
501.582417
 20
31.783667
 30
0.0
 40
2.00004
  1
01-04-71
  7
MONOTXT
 72
     1
 11
508.054917
 21
33.783667
 31
0.0
210
0.0
220
0.0
230
1.0
100
AcDbText
 73
     3
  0
TEXT
  5
31
100
AcDbEntity
  8
1
  6
CONTINUOUS
 62
     1
100
AcDbText
 10
501.332417
 20
27.300333
 30
0.0
 40
2.00004
  1
04-01-71
  7
MONOTXT
 72
     1
 11
507.804917
 21
29.300333
 31
0.0
210
0.0
220
0.0
230
1.0
100
AcDbText
 73
     3
  0
TEXT
  5
32
100
AcDbEntity
  8
1
  6
CONTINUOUS
 62
     1
100
AcDbText
 10
501.35875
 20
22.367
 30
0.0
 40
2.00004
  1
11-19-73
  7
MONOTXT
 72
     1
 11
507.319417
 21
24.367
 31
0.0
210
0.0
220
0.0
230
1.0
100
AcDbText
 73
     3
  0
TEXT
  5
33
100
AcDbEntity
  8
1
  6
CONTINUOUS
 62
     1
100
AcDbText
 10
501.307417
 20
17.387
 30
0.0
 40
2.00004
  1
11-09-76
  7
MONOTXT
 72
     1
 11
507.646083
 21
19.387
 31
0.0
210
0.0
220
0.0
230
1.0
100
AcDbText
 73
     3
  0
TEXT
  5
34
100
AcDbEntity
  8
1
  6
CONTINUOUS
 62
     1
100
AcDbText
 10
501.223833
 20
12.953667
 30
0.0
 40
2.00004
  1
10-24-78
  7
MONOTXT
 72
     1
 11
508.1295
 21
14.953667
 31
0.0
210
0.0
220
0.0
230
1.0
100
AcDbText
 73
     3
  0
TEXT
  5
35
100
AcDbEntity
  8
1
  6
CONTINUOUS
 62
     1
100
AcDbText
 10
501.514833
 20
8.040333
 30
0.0
 40
2.00004
  1
11-30-84
  7
MONOTXT
 72
     1
 11
507.9795
 21
10.040333
 31
0.0
210
0.0
220
0.0
230
1.0
100
AcDbText
 73
     3
  0
TEXT
  5
36
100
AcDbEntity
  8
1
  6
CONTINUOUS
 62
     1
100
AcDbText
 10
501.734
 20
3.603667
 30
0.0
 40
2.00004
  1
09-13-93
  7
MONOTXT
 72
     1
 11
508.482167
 21
5.603667
 31
0.0
210
0.0
220
0.0
230
1.0
100
AcDbText
 73
     3
  0
LWPOLYLINE
  5
37
100
AcDbEntity
  8
1
  6
CONTINUOUS
 62
     7
100
AcDbPolyline
 90
        4
 70
     0
 10
495.919583
 20
44.61825
 10
493.919583
 20
41.154167
 10
497.919583
 20
41.154167
 10
495.919583
 20
44.61825
  0
LWPOLYLINE
  5
38
100
AcDbEntity
  8
1
  6
CONTINUOUS
 62
     7
100
AcDbPolyline
 90
        4
 70
     0
 10
495.942083
 20
39.77075
 10
493.942083
 20
36.306667
 10
497.942083
 20
36.306667
 10
495.942083
 20
39.77075
  0
LWPOLYLINE
  5
39
100
AcDbEntity
  8
1
  6
CONTINUOUS
 62
     7
100
AcDbPolyline
 90
        4
 70
     0
 10
496.069583
 20
34.889167
 10
494.069583
 20
31.425083
 10
498.069583
 20
31.425083
 10
496.069583
 20
34.889167
  0
LWPOLYLINE
  5
3A
100
AcDbEntity
  8
1
  6
CONTINUOUS
 62
     7
100
AcDbPolyline
 90
        4
 70
     0
 10
496.031333
 20
30.18
 10
494.031333
 20
26.715917
 10
498.031333
 20
26.715917
 10
496.031333
 20
30.18
  0
LWPOLYLINE
  5
3B
100
AcDbEntity
  8
1
  6
CONTINUOUS
 62
     7
100
AcDbPolyline
 90
        4
 70
     0
 10
496.008833
 20
25.332583
 10
494.008833
 20
21.8685
 10
498.008833
 20
21.8685
 10
496.008833
 20
25.332583
  0
LWPOLYLINE
  5
3C
100
AcDbEntity
  8
1
  6
CONTINUOUS
 62
     7
100
AcDbPolyline
 90
        4
 70
     0
 10
495.992083
 20
20.767417
 10
493.992083
 20
17.303333
 10
497.992083
 20
17.303333
 10
495.992083
 20
20.767417
  0
LWPOLYLINE
  5
3D
100
AcDbEntity
  8
1
  6
CONTINUOUS
 62
     7
100
AcDbPolyline
 90
        4
 70
     0
 10
495.975417
 20
16.041583
 10
493.975417
 20
12.5775
 10
497.975417
 20
12.5775
 10
495.975417
 20
16.041583
  0
LWPOLYLINE
  5
3E
100
AcDbEntity
  8
1
  6
CONTINUOUS
 62
     7
100
AcDbPolyline
 90
        4
 70
     0
 10
496.002917
 20
11.149167
 10
494.002917
 20
7.685083
 10
498.002917
 20
7.685083
 10
496.002917
 20
11.149167
  0
TEXT
  5
40
100
AcDbEntity
  8
1
  6
CONTINUOUS
 62
     7
100
AcDbText
 10
517.333583
 20
62.679833
 30
0.0
 40
6.992667
  1
ROADSIDE SIGN SUPPORTS
  7
TXT
 72
     1
 11
582.627083
 21
69.6725
 31
0.0
210
0.0
220
0.0
230
1.0
100
AcDbText
 73
     3
  0
TEXT
  5
41
100
AcDbEntity
  8
1
  6
CONTINUOUS
 62
     7
100
AcDbText
 10
554.92125
 20
52.89925
 30
0.0
 40
6.992667
  1
U-CHANNEL
  7
TXT
 72
     1
 11
582.627
 21
59.891917
 31
0.0
210
0.0
220
0.0
230
1.0
100
AcDbText
 73
     3
  0
TEXT
  5
42
100
AcDbEntity
  8
1
  6
CONTINUOUS
 62
     7
100
AcDbText
 10
495.536167
 20
41.56275
 30
0.0
 40
1.75
  1
1
  7
MONOTXT
210
0.0
220
0.0
230
1.0
100
AcDbText
  0
TEXT
  5
43
100
AcDbEntity
  8
1
  6
CONTINUOUS
 62
     7
100
AcDbText
 10
495.3155
 20
36.812417
 30
0.0
 40
1.75
  1
2
  7
MONOTXT
210
0.0
220
0.0
230
1.0
100
AcDbText
  0
TEXT
  5
44
100
AcDbEntity
  8
1
  6
CONTINUOUS
 62
     7
100
AcDbText
 10
495.398833
 20
31.75125
 30
0.0
 40
1.75
  1
3
  7
MONOTXT
210
0.0
220
0.0
230
1.0
100
AcDbText
  0
TEXT
  5
45
100
AcDbEntity
  8
1
  6
CONTINUOUS
 62
     7
100
AcDbText
 10
495.29975
 20
27.183333
 30
0.0
 40
1.75
  1
4
  7
MONOTXT
210
0.0
220
0.0
230
1.0
100
AcDbText
  0
TEXT
  5
46
100
AcDbEntity
  8
1
  6
CONTINUOUS
 62
     7
100
AcDbText
 10
495.338
 20
22.2505
 30
0.0
 40
1.75
  1
5
  7
MONOTXT
210
0.0
220
0.0
230
1.0
100
AcDbText
  0
TEXT
  5
47
100
AcDbEntity
  8
1
  6
CONTINUOUS
 62
     7
100
AcDbText
 10
495.398833
 20
17.727667
 30
0.0
 40
1.75
  1
6
  7
MONOTXT
210
0.0
220
0.0
230
1.0
100
AcDbText
  0
TEXT
  5
48
100
AcDbEntity
  8
1
  6
CONTINUOUS
 62
     7
100
AcDbText
 10
495.338
 20
12.855667
 30
0.0
 40
1.75
  1
7
  7
MONOTXT
210
0.0
220
0.0
230
1.0
100
AcDbText
  0
TEXT
  5
49
100
AcDbEntity
  8
1
  6
CONTINUOUS
 62
     7
100
AcDbText
 10
495.398833
 20
8.06025
 30
0.0
 40
1.75
  1
8
  7
MONOTXT
210
0.0
220
0.0
230
1.0
100
AcDbText
  0
LWPOLYLINE
  5
4A
100
AcDbEntity
  8
1
  6
CONTINUOUS
 62
     7
100
AcDbPolyline
 90
        4
 70
     0
 10
497.36175
 20
130.4425
 10
495.36175
 20
126.978417
 10
499.36175
 20
126.978417
 10
497.36175
 20
130.4425
  0
LWPOLYLINE
  5
4B
100
AcDbEntity
  8
1
  6
CONTINUOUS
 62
     7
100
AcDbPolyline
 90
        4
 70
     0
 10
497.5
 20
143.88075
 10
495.5
 20
140.416667
 10
499.5
 20
140.416667
 10
497.5
 20
143.88075
  0
LWPOLYLINE
  5
4C
100
AcDbEntity
  8
1
  6
CONTINUOUS
 62
     7
100
AcDbPolyline
 90
        4
 70
     0
 10
497.439167
 20
139.28325
 10
495.439167
 20
135.819167
 10
499.439167
 20
135.819167
 10
497.439167
 20
139.28325
  0
LWPOLYLINE
  5
4D
100
AcDbEntity
  8
1
  6
CONTINUOUS
 62
     7
100
AcDbPolyline
 90
        4
 70
     0
 10
497.483333
 20
134.901667
 10
495.483333
 20
131.437583
 10
499.483333
 20
131.437583
 10
497.483333
 20
134.901667
  0
LWPOLYLINE
  5
4E
100
AcDbEntity
  8
1
  6
CONTINUOUS
 62
     7
100
AcDbPolyline
 90
        4
 70
     0
 10
497.422583
 20
125.845083
 10
495.422583
 20
122.381
 10
499.422583
 20
122.381
 10
497.422583
 20
125.845083
  0
LWPOLYLINE
  5
4F
100
AcDbEntity
  8
1
  6
CONTINUOUS
 62
     7
100
AcDbPolyline
 90
        4
 70
     0
 10
497.405833
 20
121.36325
 10
495.405833
 20
117.899167
 10
499.405833
 20
117.899167
 10
497.405833
 20
121.36325
  0
LWPOLYLINE
  5
50
100
AcDbEntity
  8
1
  6
CONTINUOUS
 62
     7
100
AcDbPolyline
 90
        4
 70
     0
 10
497.389167
 20
116.887417
 10
495.389167
 20
113.423333
 10
499.389167
 20
113.423333
 10
497.389167
 20
116.887417
  0
LWPOLYLINE
  5
51
100
AcDbEntity
  8
1
  6
CONTINUOUS
 62
     7
100
AcDbPolyline
 90
        4
 70
     0
 10
497.416667
 20
112.411667
 10
495.416667
 20
108.947583
 10
499.416667
 20
108.947583
 10
497.416667
 20
112.411667
  0
TEXT
  5
52
100
AcDbEntity
  8
1
  6
CONTINUOUS
 62
     7
100
AcDbText
 10
497.116583
 20
140.82525
 30
0.0
 40
1.75
  1
1
  7
MONOTXT
210
0.0
220
0.0
230
1.0
100
AcDbText
  0
TEXT
  5
53
100
AcDbEntity
  8
1
  6
CONTINUOUS
 62
     7
100
AcDbText
 10
496.812583
 20
136.324917
 30
0.0
 40
1.75
  1
2
  7
MONOTXT
210
0.0
220
0.0
230
1.0
100
AcDbText
  0
TEXT
  5
54
100
AcDbEntity
  8
1
  6
CONTINUOUS
 62
     7
100
AcDbText
 10
496.812583
 20
131.76375
 30
0.0
 40
1.75
  1
3
  7
MONOTXT
210
0.0
220
0.0
230
1.0
100
AcDbText
  0
TEXT
  5
55
100
AcDbEntity
  8
1
  6
CONTINUOUS
 62
     7
100
AcDbText
 10
496.630167
 20
127.445833
 30
0.0
 40
1.75
  1
4
  7
MONOTXT
210
0.0
220
0.0
230
1.0
100
AcDbText
  0
TEXT
  5
56
100
AcDbEntity
  8
1
  6
CONTINUOUS
 62
     7
100
AcDbText
 10
496.75175
 20
122.763
 30
0.0
 40
1.75
  1
5
  7
MONOTXT
210
0.0
220
0.0
230
1.0
100
AcDbText
  0
TEXT
  5
57
100
AcDbEntity
  8
1
  6
CONTINUOUS
 62
     7
100
AcDbText
 10
496.812583
 20
118.3235
 30
0.0
 40
1.75
  1
6
  7
MONOTXT
210
0.0
220
0.0
230
1.0
100
AcDbText
  0
TEXT
  5
58
100
AcDbEntity
  8
1
  6
CONTINUOUS
 62
     7
100
AcDbText
 10
496.75175
 20
113.7015
 30
0.0
 40
1.75
  1
7
  7
MONOTXT
210
0.0
220
0.0
230
1.0
100
AcDbText
  0
TEXT
  5
59
100
AcDbEntity
  8
1
  6
CONTINUOUS
 62
     7
100
AcDbText
 10
496.812583
 20
109.32275
 30
0.0
 40
1.75
  1
8
  7
MONOTXT
210
0.0
220
0.0
230
1.0
100
AcDbText
  0
TEXT
  5
5A
100
AcDbEntity
  8
1
  6
CONTINUOUS
 62
     7
100
AcDbText
 10
500.729333
 20
141.145333
 30
0.0
 40
1.75
  1
REVISION OF NOTES
  7
MONOTXT
210
0.0
220
0.0
230
1.0
100
AcDbText
  0
TEXT
  5
5B
100
AcDbEntity
  8
1
  6
CONTINUOUS
 62
     7
100
AcDbText
 10
500.635833
 20
136.374417
 30
0.0
 40
1.75
  1
WIND PRESSURE REDUCTION
  7
MONOTXT
210
0.0
220
0.0
230
1.0
100
AcDbText
  0
TEXT
  5
5C
100
AcDbEntity
  8
1
  6
CONTINUOUS
 62
     7
100
AcDbText
 10
500.729333
 20
131.97775
 30
0.0
 40
1.75
  1
GENERAL NOTE
  7
MONOTXT
210
0.0
220
0.0
230
1.0
100
AcDbText
  0
TEXT
  5
5D
100
AcDbEntity
  8
1
  6
CONTINUOUS
 62
     7
100
AcDbText
 10
500.729333
 20
127.86175
 30
0.0
 40
1.75
  1
EMBEDMENT
  7
MONOTXT
210
0.0
220
0.0
230
1.0
100
AcDbText
  0
TEXT
  5
5E
100
AcDbEntity
  8
1
  6
CONTINUOUS
 62
     7
100
AcDbText
 10
500.729333
 20
123.3715
 30
0.0
 40
1.75
  1
POST SECTION
  7
MONOTXT
210
0.0
220
0.0
230
1.0
100
AcDbText
  0
TEXT
  5
5F
100
AcDbEntity
  8
1
  6
CONTINUOUS
 62
     7
100
AcDbText
 10
500.729333
 20
118.694167
 30
0.0
 40
1.75
  1
DEPTH, CONC., NOTES
  7
MONOTXT
210
0.0
220
0.0
230
1.0
100
AcDbText
  0
TEXT
  5
60
100
AcDbEntity
  8
1
  6
CONTINUOUS
 62
     7
100
AcDbText
 10
500.822833
 20
114.2975
 30
0.0
 40
1.75
  1
REV. OF SEC. MOD.
  7
MONOTXT
210
0.0
220
0.0
230
1.0
100
AcDbText
  0
TEXT
  5
61
100
AcDbEntity
  8
1
  6
CONTINUOUS
 62
     7
100
AcDbText
 10
500.635833
 20
109.71375
 30
0.0
 40
1.75
  1
CHANGED 3.0# RQMTS. & NOTE
  7
MONOTXT
210
0.0
220
0.0
230
1.0
100
AcDbText
  0
LINE
  5
62
100
AcDbEntity
  8
1
  6
CONTINUOUS
 62
     4
100
AcDbLine
 10
41.926167
 20
407.136667
 30
0.0
 11
341.926167
 21
407.136667
 31
0.0
  0
LINE
  5
63
100
AcDbEntity
  8
1
  6
CONTINUOUS
 62
     4
100
AcDbLine
 10
341.926167
 20
407.136667
 30
0.0
 11
341.926167
 21
195.136667
 31
0.0
  0
LINE
  5
64
100
AcDbEntity
  8
1
  6
CONTINUOUS
 62
     4
100
AcDbLine
 10
341.926167
 20
195.136667
 30
0.0
 11
41.926167
 21
195.136667
 31
0.0
  0
LINE
  5
65
100
AcDbEntity
  8
1
  6
CONTINUOUS
 62
     4
100
AcDbLine
 10
41.926167
 20
195.136667
 30
0.0
 11
41.926167
 21
407.136667
 31
0.0
  0
LINE
  5
66
100
AcDbEntity
  8
1
  6
CONTINUOUS
 62
     4
100
AcDbLine
 10
42.926167
 20
196.136667
 30
0.0
 11
42.926167
 21
406.136667
 31
0.0
  0
LINE
  5
67
100
AcDbEntity
  8
1
  6
CONTINUOUS
 62
     4
100
AcDbLine
 10
42.926167
 20
406.136667
 30
0.0
 11
340.926167
 21
406.136667
 31
0.0
  0
LINE
  5
68
100
AcDbEntity
  8
1
  6
CONTINUOUS
 62
     4
100
AcDbLine
 10
340.926167
 20
406.136667
 30
0.0
 11
340.926167
 21
196.136667
 31
0.0
  0
LINE
  5
69
100
AcDbEntity
  8
1
  6
CONTINUOUS
 62
     4
100
AcDbLine
 10
340.926167
 20
196.136667
 30
0.0
 11
42.926167
 21
196.136667
 31
0.0
  0
LINE
  5
6A
100
AcDbEntity
  8
1
  6
CONTINUOUS
 62
     4
100
AcDbLine
 10
67.426167
 20
196.136667
 30
0.0
 11
67.426167
 21
396.136667
 31
0.0
  0
LINE
  5
6B
100
AcDbEntity
  8
1
  6
CONTINUOUS
 62
     4
100
AcDbLine
 10
68.426167
 20
196.136667
 30
0.0
 11
68.426167
 21
396.136667
 31
0.0
  0
LINE
  5
6C
100
AcDbEntity
  8
1
  6
CONTINUOUS
 62
     4
100
AcDbLine
 10
316.426167
 20
396.136667
 30
0.0
 11
316.426167
 21
196.136667
 31
0.0
  0
LINE
  5
6D
100
AcDbEntity
  8
1
  6
CONTINUOUS
 62
     4
100
AcDbLine
 10
315.426167
 20
396.136667
 30
0.0
 11
315.426167
 21
196.136667
 31
0.0
  0
LINE
  5
6E
100
AcDbEntity
  8
1
  6
CONTINUOUS
 62
     4
100
AcDbLine
 10
94.426167
 20
196.136667
 30
0.0
 11
94.426167
 21
396.136667
 31
0.0
  0
LINE
  5
6F
100
AcDbEntity
  8
1
  6
CONTINUOUS
 62
     4
100
AcDbLine
 10
107.426167
 20
196.136667
 30
0.0
 11
107.426167
 21
396.136667
 31
0.0
  0
LINE
  5
70
100
AcDbEntity
  8
1
  6
CONTINUOUS
 62
     4
100
AcDbLine
 10
42.926167
 20
387.136667
 30
0.0
 11
340.926167
 21
387.136667
 31
0.0
  0
LINE
  5
71
100
AcDbEntity
  8
1
  6
CONTINUOUS
 62
     4
100
AcDbLine
 10
42.926167
 20
386.136667
 30
0.0
 11
340.926167
 21
386.136667
 31
0.0
  0
LINE
  5
72
100
AcDbEntity
  8
1
  6
CONTINUOUS
 62
     4
100
AcDbLine
 10
81.426167
 20
196.136667
 30
0.0
 11
81.426167
 21
386.136667
 31
0.0
  0
LINE
  5
73
100
AcDbEntity
  8
1
  6
CONTINUOUS
 62
     4
100
AcDbLine
 10
81.426167
 20
386.136667
 30
0.0
 11
81.426167
 21
396.136667
 31
0.0
  0
LINE
  5
74
100
AcDbEntity
  8
1
  6
CONTINUOUS
 62
     4
100
AcDbLine
 10
55.176167
 20
296.136667
 30
0.0
 11
328.676167
 21
296.136667
 31
0.0
  0
LINE
  5
75
100
AcDbEntity
  8
1
  6
CONTINUOUS
 62
     4
100
AcDbLine
 10
55.176167
 20
226.136667
 30
0.0
 11
328.676167
 21
226.136667
 31
0.0
  0
LINE
  5
76
100
AcDbEntity
  8
1
  6
CONTINUOUS
 62
     4
100
AcDbLine
 10
55.176167
 20
376.136667
 30
0.0
 11
67.426167
 21
376.136667
 31
0.0
  0
LINE
  5
77
100
AcDbEntity
  8
1
  6
CONTINUOUS
 62
     4
100
AcDbLine
 10
316.426167
 20
376.136667
 30
0.0
 11
328.676167
 21
376.136667
 31
0.0
  0
LINE
  5
78
100
AcDbEntity
  8
1
  6
CONTINUOUS
 62
     4
100
AcDbLine
 10
68.426167
 20
376.136667
 30
0.0
 11
316.426167
 21
376.136667
 31
0.0
  0
TEXT
  5
79
100
AcDbEntity
  8
1
  6
CONTINUOUS
 62
     7
100
AcDbText
 10
122.722333
 20
413.422417
 30
0.0
 40
3.5
  1
SIGN POST SECTION REQUIRED (THREE SUPPORTS)
  7
MONOTXT
 72
     4
 11
192.322667
 21
415.172417
 31
0.0
210
0.0
220
0.0
230
1.0
100
AcDbText
  0
LINE
  5
7A
100
AcDbEntity
  8
1
  6
CONTINUOUS
 62
     7
100
AcDbLine
 10
121.189167
 20
411.614583
 30
0.0
 11
262.807083
 21
411.614583
 31
0.0
  0
TEXT
  5
7B
100
AcDbEntity
  8
1
  6
CONTINUOUS
 62
     7
100
AcDbText
 10
149.305
 20
398.89375
 30
0.0
 40
3.0
  1
TOTAL SQUARE FEET OF SIGN AREA
  7
MONOTXT
 72
     4
 11
192.060833
 21
400.39375
 31
0.0
210
0.0
220
0.0
230
1.0
100
AcDbText
  0
LINE
  5
7C
100
AcDbEntity
  8
1
  6
CONTINUOUS
 62
     1
100
AcDbLine
 10
120.426167
 20
196.136667
 30
0.0
 11
120.426167
 21
236.136667
 31
0.0
  0
LINE
  5
7D
100
AcDbEntity
  8
1
  6
CONTINUOUS
 62
     4
100
AcDbLine
 10
120.426167
 20
236.136667
 30
0.0
 11
120.426167
 21
396.136667
 31
0.0
  0
LINE
  5
7E
100
AcDbEntity
  8
1
  6
CONTINUOUS
 62
     4
100
AcDbLine
 10
55.176167
 20
236.136667
 30
0.0
 11
120.426167
 21
236.136667
 31
0.0
  0
LINE
  5
7F
100
AcDbEntity
  8
1
  6
CONTINUOUS
 62
     1
100
AcDbLine
 10
120.426167
 20
236.136667
 30
0.0
 11
133.426167
 21
236.136667
 31
0.0
  0
LINE
  5
80
100
AcDbEntity
  8
1
  6
CONTINUOUS
 62
     4
100
AcDbLine
 10
133.426167
 20
256.136667
 30
0.0
 11
133.426167
 21
396.136667
 31
0.0
  0
LINE
  5
81
100
AcDbEntity
  8
1
  6
CONTINUOUS
 62
     4
100
AcDbLine
 10
133.426167
 20
196.136667
 30
0.0
 11
133.426167
 21
236.136667
 31
0.0
  0
LINE
  5
82
100
AcDbEntity
  8
1
  6
CONTINUOUS
 62
     1
100
AcDbLine
 10
133.426167
 20
236.136667
 30
0.0
 11
133.426167
 21
256.136667
 31
0.0
  0
LINE
  5
83
100
AcDbEntity
  8
1
  6
CONTINUOUS
 62
     4
100
AcDbLine
 10
55.176167
 20
256.136667
 30
0.0
 11
133.426167
 21
256.136667
 31
0.0
  0
LINE
  5
84
100
AcDbEntity
  8
1
  6
CONTINUOUS
 62
     1
100
AcDbLine
 10
133.426167
 20
256.136667
 30
0.0
 11
146.426167
 21
256.136667
 31
0.0
  0
LINE
  5
85
100
AcDbEntity
  8
1
  6
CONTINUOUS
 62
     4
100
AcDbLine
 10
146.426167
 20
256.136667
 30
0.0
 11
328.676167
 21
256.136667
 31
0.0
  0
LINE
  5
86
100
AcDbEntity
  8
1
  6
CONTINUOUS
 62
     4
100
AcDbLine
 10
146.426167
 20
276.136667
 30
0.0
 11
146.426167
 21
396.136667
 31
0.0
  0
LINE
  5
87
100
AcDbEntity
  8
1
  6
CONTINUOUS
 62
     4
100
AcDbLine
 10
146.426167
 20
196.136667
 30
0.0
 11
146.426167
 21
256.136667
 31
0.0
  0
LINE
  5
88
100
AcDbEntity
  8
1
  6
CONTINUOUS
 62
     1
100
AcDbLine
 10
146.426167
 20
256.136667
 30
0.0
 11
146.426167
 21
276.136667
 31
0.0
  0
LINE
  5
89
100
AcDbEntity
  8
1
  6
CONTINUOUS
 62
     4
100
AcDbLine
 10
55.176167
 20
276.136667
 30
0.0
 11
146.426167
 21
276.136667
 31
0.0
  0
LINE
  5
8A
100
AcDbEntity
  8
1
  6
CONTINUOUS
 62
     1
100
AcDbLine
 10
146.426167
 20
276.136667
 30
0.0
 11
159.426167
 21
276.136667
 31
0.0
  0
LINE
  5
8B
100
AcDbEntity
  8
1
  6
CONTINUOUS
 62
     4
100
AcDbLine
 10
159.426167
 20
306.136667
 30
0.0
 11
159.426167
 21
396.136667
 31
0.0
  0
LINE
  5
8C
100
AcDbEntity
  8
1
  6
CONTINUOUS
 62
     4
100
AcDbLine
 10
159.426167
 20
196.136667
 30
0.0
 11
159.426167
 21
276.136667
 31
0.0
  0
LINE
  5
8D
100
AcDbEntity
  8
1
  6
CONTINUOUS
 62
     1
100
AcDbLine
 10
159.426167
 20
276.136667
 30
0.0
 11
159.426167
 21
306.136667
 31
0.0
  0
LINE
  5
8E
100
AcDbEntity
  8
1
  6
CONTINUOUS
 62
     4
100
AcDbLine
 10
55.176167
 20
306.136667
 30
0.0
 11
159.426167
 21
306.136667
 31
0.0
  0
LINE
  5
8F
100
AcDbEntity
  8
1
  6
CONTINUOUS
 62
     1
100
AcDbLine
 10
159.426167
 20
306.136667
 30
0.0
 11
172.426167
 21
306.136667
 31
0.0
  0
LINE
  5
90
100
AcDbEntity
  8
1
  6
CONTINUOUS
 62
     4
100
AcDbLine
 10
172.426167
 20
316.136667
 30
0.0
 11
172.426167
 21
396.136667
 31
0.0
  0
LINE
  5
91
100
AcDbEntity
  8
1
  6
CONTINUOUS
 62
     4
100
AcDbLine
 10
172.426167
 20
196.136667
 30
0.0
 11
172.426167
 21
306.136667
 31
0.0
  0
LINE
  5
92
100
AcDbEntity
  8
1
  6
CONTINUOUS
 62
     1
100
AcDbLine
 10
172.426167
 20
306.136667
 30
0.0
 11
172.426167
 21
316.136667
 31
0.0
  0
LINE
  5
93
100
AcDbEntity
  8
1
  6
CONTINUOUS
 62
     4
100
AcDbLine
 10
55.176167
 20
316.136667
 30
0.0
 11
172.426167
 21
316.136667
 31
0.0
  0
LINE
  5
94
100
AcDbEntity
  8
1
  6
CONTINUOUS
 62
     1
100
AcDbLine
 10
172.426167
 20
316.136667
 30
0.0
 11
185.426167
 21
316.136667
 31
0.0
  0
LINE
  5
95
100
AcDbEntity
  8
1
  6
CONTINUOUS
 62
     4
100
AcDbLine
 10
185.426167
 20
326.136667
 30
0.0
 11
185.426167
 21
396.136667
 31
0.0
  0
LINE
  5
96
100
AcDbEntity
  8
1
  6
CONTINUOUS
 62
     1
100
AcDbLine
 10
185.426167
 20
316.136667
 30
0.0
 11
185.426167
 21
326.136667
 31
0.0
  0
LINE
  5
97
100
AcDbEntity
  8
1
  6
CONTINUOUS
 62
     4
100
AcDbLine
 10
55.176167
 20
326.136667
 30
0.0
 11
185.426167
 21
326.136667
 31
0.0
  0
LINE
  5
98
100
AcDbEntity
  8
1
  6
CONTINUOUS
 62
     1
100
AcDbLine
 10
185.426167
 20
326.136667
 30
0.0
 11
198.426167
 21
326.136667
 31
0.0
  0
LINE
  5
99
100
AcDbEntity
  8
1
  6
CONTINUOUS
 62
     4
100
AcDbLine
 10
198.426167
 20
346.136667
 30
0.0
 11
198.426167
 21
396.136667
 31
0.0
  0
LINE
  5
9A
100
AcDbEntity
  8
1
  6
CONTINUOUS
 62
     1
100
AcDbLine
 10
198.426167
 20
326.136667
 30
0.0
 11
198.426167
 21
346.136667
 31
0.0
  0
LINE
  5
9B
100
AcDbEntity
  8
1
  6
CONTINUOUS
 62
     4
100
AcDbLine
 10
55.176167
 20
346.136667
 30
0.0
 11
198.426167
 21
346.136667
 31
0.0
  0
LINE
  5
9C
100
AcDbEntity
  8
1
  6
CONTINUOUS
 62
     1
100
AcDbLine
 10
198.426167
 20
346.136667
 30
0.0
 11
211.426167
 21
346.136667
 31
0.0
  0
LINE
  5
9D
100
AcDbEntity
  8
1
  6
CONTINUOUS
 62
     4
100
AcDbLine
 10
211.426167
 20
346.136667
 30
0.0
 11
328.676167
 21
346.136667
 31
0.0
  0
LINE
  5
9E
100
AcDbEntity
  8
1
  6
CONTINUOUS
 62
     4
100
AcDbLine
 10
211.426167
 20
356.136667
 30
0.0
 11
211.426167
 21
396.136667
 31
0.0
  0
LINE
  5
9F
100
AcDbEntity
  8
1
  6
CONTINUOUS
 62
     1
100
AcDbLine
 10
211.426167
 20
346.136667
 30
0.0
 11
211.426167
 21
356.136667
 31
0.0
  0
LINE
  5
A0
100
AcDbEntity
  8
1
  6
CONTINUOUS
 62
     4
100
AcDbLine
 10
55.176167
 20
356.136667
 30
0.0
 11
211.426167
 21
356.136667
 31
0.0
  0
LINE
  5
A1
100
AcDbEntity
  8
1
  6
CONTINUOUS
 62
     1
100
AcDbLine
 10
211.426167
 20
356.136667
 30
0.0
 11
224.426167
 21
356.136667
 31
0.0
  0
LINE
  5
A2
100
AcDbEntity
  8
1
  6
CONTINUOUS
 62
     4
100
AcDbLine
 10
224.426167
 20
356.136667
 30
0.0
 11
328.676167
 21
356.136667
 31
0.0
  0
LINE
  5
A3
100
AcDbEntity
  8
1
  6
CONTINUOUS
 62
     4
100
AcDbLine
 10
224.426167
 20
366.136667
 30
0.0
 11
224.426167
 21
396.136667
 31
0.0
  0
LINE
  5
A4
100
AcDbEntity
  8
1
  6
CONTINUOUS
 62
     1
100
AcDbLine
 10
224.426167
 20
356.136667
 30
0.0
 11
224.426167
 21
366.136667
 31
0.0
  0
LINE
  5
A5
100
AcDbEntity
  8
1
  6
CONTINUOUS
 62
     4
100
AcDbLine
 10
55.176167
 20
366.136667
 30
0.0
 11
224.426167
 21
366.136667
 31
0.0
  0
LINE
  5
A6
100
AcDbEntity
  8
1
  6
CONTINUOUS
 62
     1
100
AcDbLine
 10
224.426167
 20
366.136667
 30
0.0
 11
250.426167
 21
366.136667
 31
0.0
  0
LINE
  5
A7
100
AcDbEntity
  8
1
  6
CONTINUOUS
 62
     4
100
AcDbLine
 10
250.426167
 20
366.136667
 30
0.0
 11
328.676167
 21
366.136667
 31
0.0
  0
LINE
  5
A8
100
AcDbEntity
  8
1
  6
CONTINUOUS
 62
     1
100
AcDbLine
 10
250.426167
 20
366.136667
 30
0.0
 11
250.426167
 21
386.136667
 31
0.0
  0
LINE
  5
A9
100
AcDbEntity
  8
1
  6
CONTINUOUS
 62
     4
100
AcDbLine
 10
250.426167
 20
386.136667
 30
0.0
 11
250.426167
 21
396.136667
 31
0.0
  0
LINE
  5
AA
100
AcDbEntity
  8
1
  6
CONTINUOUS
 62
     1
100
AcDbLine
 10
185.426167
 20
196.136667
 30
0.0
 11
185.426167
 21
216.136667
 31
0.0
  0
LINE
  5
AB
100
AcDbEntity
  8
1
  6
CONTINUOUS
 62
     4
100
AcDbLine
 10
185.426167
 20
216.136667
 30
0.0
 11
185.426167
 21
316.136667
 31
0.0
  0
LINE
  5
AC
100
AcDbEntity
  8
1
  6
CONTINUOUS
 62
     4
100
AcDbLine
 10
55.176167
 20
216.136667
 30
0.0
 11
185.426167
 21
216.136667
 31
0.0
  0
LINE
  5
AD
100
AcDbEntity
  8
1
  6
CONTINUOUS
 62
     1
100
AcDbLine
 10
185.426167
 20
216.136667
 30
0.0
 11
198.426167
 21
216.136667
 31
0.0
  0
LINE
  5
AE
100
AcDbEntity
  8
1
  6
CONTINUOUS
 62
     4
100
AcDbLine
 10
198.426167
 20
236.136667
 30
0.0
 11
198.426167
 21
326.136667
 31
0.0
  0
LINE
  5
AF
100
AcDbEntity
  8
1
  6
CONTINUOUS
 62
     4
100
AcDbLine
 10
198.426167
 20
196.136667
 30
0.0
 11
198.426167
 21
216.136667
 31
0.0
  0
LINE
  5
B0
100
AcDbEntity
  8
1
  6
CONTINUOUS
 62
     1
100
AcDbLine
 10
198.426167
 20
216.136667
 30
0.0
 11
198.426167
 21
236.136667
 31
0.0
  0
LINE
  5
B1
100
AcDbEntity
  8
1
  6
CONTINUOUS
 62
     4
100
AcDbLine
 10
133.426167
 20
236.136667
 30
0.0
 11
198.426167
 21
236.136667
 31
0.0
  0
LINE
  5
B2
100
AcDbEntity
  8
1
  6
CONTINUOUS
 62
     1
100
AcDbLine
 10
198.426167
 20
236.136667
 30
0.0
 11
211.426167
 21
236.136667
 31
0.0
  0
LINE
  5
B3
100
AcDbEntity
  8
1
  6
CONTINUOUS
 62
     4
100
AcDbLine
 10
211.426167
 20
236.136667
 30
0.0
 11
328.676167
 21
236.136667
 31
0.0
  0
LINE
  5
B4
100
AcDbEntity
  8
1
  6
CONTINUOUS
 62
     4
100
AcDbLine
 10
211.426167
 20
246.136667
 30
0.0
 11
211.426167
 21
346.136667
 31
0.0
  0
LINE
  5
B5
100
AcDbEntity
  8
1
  6
CONTINUOUS
 62
     4
100
AcDbLine
 10
211.426167
 20
196.136667
 30
0.0
 11
211.426167
 21
236.136667
 31
0.0
  0
LINE
  5
B6
100
AcDbEntity
  8
1
  6
CONTINUOUS
 62
     1
100
AcDbLine
 10
211.426167
 20
236.136667
 30
0.0
 11
211.426167
 21
246.136667
 31
0.0
  0
LINE
  5
B7
100
AcDbEntity
  8
1
  6
CONTINUOUS
 62
     4
100
AcDbLine
 10
55.176167
 20
246.136667
 30
0.0
 11
211.426167
 21
246.136667
 31
0.0
  0
LINE
  5
B8
100
AcDbEntity
  8
1
  6
CONTINUOUS
 62
     1
100
AcDbLine
 10
211.426167
 20
246.136667
 30
0.0
 11
224.426167
 21
246.136667
 31
0.0
  0
LINE
  5
B9
100
AcDbEntity
  8
1
  6
CONTINUOUS
 62
     4
100
AcDbLine
 10
224.426167
 20
246.136667
 30
0.0
 11
328.676167
 21
246.136667
 31
0.0
  0
LINE
  5
BA
100
AcDbEntity
  8
1
  6
CONTINUOUS
 62
     4
100
AcDbLine
 10
224.426167
 20
266.136667
 30
0.0
 11
224.426167
 21
356.136667
 31
0.0
  0
LINE
  5
BB
100
AcDbEntity
  8
1
  6
CONTINUOUS
 62
     4
100
AcDbLine
 10
224.426167
 20
196.136667
 30
0.0
 11
224.426167
 21
246.136667
 31
0.0
  0
LINE
  5
BC
100
AcDbEntity
  8
1
  6
CONTINUOUS
 62
     1
100
AcDbLine
 10
224.426167
 20
246.136667
 30
0.0
 11
224.426167
 21
266.136667
 31
0.0
  0
LINE
  5
BD
100
AcDbEntity
  8
1
  6
CONTINUOUS
 62
     4
100
AcDbLine
 10
55.176167
 20
266.136667
 30
0.0
 11
224.426167
 21
266.136667
 31
0.0
  0
LINE
  5
BE
100
AcDbEntity
  8
1
  6
CONTINUOUS
 62
     1
100
AcDbLine
 10
224.426167
 20
266.136667
 30
0.0
 11
237.426167
 21
266.136667
 31
0.0
  0
LINE
  5
BF
100
AcDbEntity
  8
1
  6
CONTINUOUS
 62
     4
100
AcDbLine
 10
237.426167
 20
266.136667
 30
0.0
 11
328.676167
 21
266.136667
 31
0.0
  0
LINE
  5
C0
100
AcDbEntity
  8
1
  6
CONTINUOUS
 62
     4
100
AcDbLine
 10
237.426167
 20
276.136667
 30
0.0
 11
237.426167
 21
396.136667
 31
0.0
  0
LINE
  5
C1
100
AcDbEntity
  8
1
  6
CONTINUOUS
 62
     4
100
AcDbLine
 10
237.426167
 20
196.136667
 30
0.0
 11
237.426167
 21
266.136667
 31
0.0
  0
LINE
  5
C2
100
AcDbEntity
  8
1
  6
CONTINUOUS
 62
     1
100
AcDbLine
 10
237.426167
 20
266.136667
 30
0.0
 11
237.426167
 21
276.136667
 31
0.0
  0
LINE
  5
C3
100
AcDbEntity
  8
1
  6
CONTINUOUS
 62
     4
100
AcDbLine
 10
159.426167
 20
276.136667
 30
0.0
 11
237.426167
 21
276.136667
 31
0.0
  0
LINE
  5
C4
100
AcDbEntity
  8
1
  6
CONTINUOUS
 62
     1
100
AcDbLine
 10
237.426167
 20
276.136667
 30
0.0
 11
250.426167
 21
276.136667
 31
0.0
  0
LINE
  5
C5
100
AcDbEntity
  8
1
  6
CONTINUOUS
 62
     4
100
AcDbLine
 10
250.426167
 20
276.136667
 30
0.0
 11
328.676167
 21
276.136667
 31
0.0
  0
LINE
  5
C6
100
AcDbEntity
  8
1
  6
CONTINUOUS
 62
     4
100
AcDbLine
 10
250.426167
 20
286.136667
 30
0.0
 11
250.426167
 21
366.136667
 31
0.0
  0
LINE
  5
C7
100
AcDbEntity
  8
1
  6
CONTINUOUS
 62
     4
100
AcDbLine
 10
250.426167
 20
196.136667
 30
0.0
 11
250.426167
 21
276.136667
 31
0.0
  0
LINE
  5
C8
100
AcDbEntity
  8
1
  6
CONTINUOUS
 62
     1
100
AcDbLine
 10
250.426167
 20
276.136667
 30
0.0
 11
250.426167
 21
286.136667
 31
0.0
  0
LINE
  5
C9
100
AcDbEntity
  8
1
  6
CONTINUOUS
 62
     4
100
AcDbLine
 10
55.176167
 20
286.136667
 30
0.0
 11
250.426167
 21
286.136667
 31
0.0
  0
LINE
  5
CA
100
AcDbEntity
  8
1
  6
CONTINUOUS
 62
     1
100
AcDbLine
 10
250.426167
 20
286.136667
 30
0.0
 11
263.426167
 21
286.136667
 31
0.0
  0
LINE
  5
CB
100
AcDbEntity
  8
1
  6
CONTINUOUS
 62
     4
100
AcDbLine
 10
263.426167
 20
286.136667
 30
0.0
 11
328.676167
 21
286.136667
 31
0.0
  0
LINE
  5
CC
100
AcDbEntity
  8
1
  6
CONTINUOUS
 62
     4
100
AcDbLine
 10
263.426167
 20
306.136667
 30
0.0
 11
263.426167
 21
396.136667
 31
0.0
  0
LINE
  5
CD
100
AcDbEntity
  8
1
  6
CONTINUOUS
 62
     4
100
AcDbLine
 10
263.426167
 20
196.136667
 30
0.0
 11
263.426167
 21
286.136667
 31
0.0
  0
LINE
  5
CE
100
AcDbEntity
  8
1
  6
CONTINUOUS
 62
     1
100
AcDbLine
 10
263.426167
 20
286.136667
 30
0.0
 11
263.426167
 21
306.136667
 31
0.0
  0
LINE
  5
CF
100
AcDbEntity
  8
1
  6
CONTINUOUS
 62
     4
100
AcDbLine
 10
172.426167
 20
306.136667
 30
0.0
 11
263.426167
 21
306.136667
 31
0.0
  0
LINE
  5
D0
100
AcDbEntity
  8
1
  6
CONTINUOUS
 62
     1
100
AcDbLine
 10
263.426167
 20
306.136667
 30
0.0
 11
276.426167
 21
306.136667
 31
0.0
  0
LINE
  5
D1
100
AcDbEntity
  8
1
  6
CONTINUOUS
 62
     4
100
AcDbLine
 10
276.426167
 20
306.136667
 30
0.0
 11
328.676167
 21
306.136667
 31
0.0
  0
LINE
  5
D2
100
AcDbEntity
  8
1
  6
CONTINUOUS
 62
     4
100
AcDbLine
 10
276.426167
 20
316.136667
 30
0.0
 11
276.426167
 21
396.136667
 31
0.0
  0
LINE
  5
D3
100
AcDbEntity
  8
1
  6
CONTINUOUS
 62
     4
100
AcDbLine
 10
276.426167
 20
196.136667
 30
0.0
 11
276.426167
 21
306.136667
 31
0.0
  0
LINE
  5
D4
100
AcDbEntity
  8
1
  6
CONTINUOUS
 62
     1
100
AcDbLine
 10
276.426167
 20
306.136667
 30
0.0
 11
276.426167
 21
316.136667
 31
0.0
  0
LINE
  5
D5
100
AcDbEntity
  8
1
  6
CONTINUOUS
 62
     4
100
AcDbLine
 10
185.426167
 20
316.136667
 30
0.0
 11
276.426167
 21
316.136667
 31
0.0
  0
LINE
  5
D6
100
AcDbEntity
  8
1
  6
CONTINUOUS
 62
     1
100
AcDbLine
 10
276.426167
 20
316.136667
 30
0.0
 11
289.426167
 21
316.136667
 31
0.0
  0
LINE
  5
D7
100
AcDbEntity
  8
1
  6
CONTINUOUS
 62
     4
100
AcDbLine
 10
289.426167
 20
316.136667
 30
0.0
 11
328.676167
 21
316.136667
 31
0.0
  0
LINE
  5
D8
100
AcDbEntity
  8
1
  6
CONTINUOUS
 62
     4
100
AcDbLine
 10
289.426167
 20
326.136667
 30
0.0
 11
289.426167
 21
396.136667
 31
0.0
  0
LINE
  5
D9
100
AcDbEntity
  8
1
  6
CONTINUOUS
 62
     1
100
AcDbLine
 10
289.426167
 20
316.136667
 30
0.0
 11
289.426167
 21
326.136667
 31
0.0
  0
LINE
  5
DA
100
AcDbEntity
  8
1
  6
CONTINUOUS
 62
     4
100
AcDbLine
 10
198.426167
 20
326.136667
 30
0.0
 11
289.426167
 21
326.136667
 31
0.0
  0
LINE
  5
DB
100
AcDbEntity
  8
1
  6
CONTINUOUS
 62
     1
100
AcDbLine
 10
289.426167
 20
326.136667
 30
0.0
 11
302.426167
 21
326.136667
 31
0.0
  0
LINE
  5
DC
100
AcDbEntity
  8
1
  6
CONTINUOUS
 62
     4
100
AcDbLine
 10
302.426167
 20
326.136667
 30
0.0
 11
328.676167
 21
326.136667
 31
0.0
  0
LINE
  5
DD
100
AcDbEntity
  8
1
  6
CONTINUOUS
 62
     4
100
AcDbLine
 10
302.426167
 20
336.136667
 30
0.0
 11
302.426167
 21
396.136667
 31
0.0
  0
LINE
  5
DE
100
AcDbEntity
  8
1
  6
CONTINUOUS
 62
     1
100
AcDbLine
 10
302.426167
 20
326.136667
 30
0.0
 11
302.426167
 21
336.136667
 31
0.0
  0
LINE
  5
DF
100
AcDbEntity
  8
1
  6
CONTINUOUS
 62
     4
100
AcDbLine
 10
55.176167
 20
336.136667
 30
0.0
 11
302.426167
 21
336.136667
 31
0.0
  0
LINE
  5
E0
100
AcDbEntity
  8
1
  6
CONTINUOUS
 62
     1
100
AcDbLine
 10
302.426167
 20
336.136667
 30
0.0
 11
315.426167
 21
336.136667
 31
0.0
  0
LINE
  5
E1
100
AcDbEntity
  8
1
  6
CONTINUOUS
 62
     4
100
AcDbLine
 10
315.426167
 20
336.136667
 30
0.0
 11
328.676167
 21
336.136667
 31
0.0
  0
LINE
  5
E2
100
AcDbEntity
  8
1
  6
CONTINUOUS
 62
     1
100
AcDbLine
 10
289.426167
 20
196.136667
 30
0.0
 11
289.426167
 21
206.136667
 31
0.0
  0
LINE
  5
E3
100
AcDbEntity
  8
1
  6
CONTINUOUS
 62
     4
100
AcDbLine
 10
289.426167
 20
206.136667
 30
0.0
 11
289.426167
 21
316.136667
 31
0.0
  0
LINE
  5
E4
100
AcDbEntity
  8
1
  6
CONTINUOUS
 62
     4
100
AcDbLine
 10
302.426167
 20
206.136667
 30
0.0
 11
328.676167
 21
206.136667
 31
0.0
  0
LINE
  5
E5
100
AcDbEntity
  8
1
  6
CONTINUOUS
 62
     4
100
AcDbLine
 10
302.426167
 20
216.136667
 30
0.0
 11
302.426167
 21
326.136667
 31
0.0
  0
LINE
  5
E6
100
AcDbEntity
  8
1
  6
CONTINUOUS
 62
     4
100
AcDbLine
 10
315.426167
 20
216.136667
 30
0.0
 11
328.676167
 21
216.136667
 31
0.0
  0
LINE
  5
E7
100
AcDbEntity
  8
1
  6
CONTINUOUS
 62
     4
100
AcDbLine
 10
55.176167
 20
206.136667
 30
0.0
 11
289.426167
 21
206.136667
 31
0.0
  0
LINE
  5
E8
100
AcDbEntity
  8
1
  6
CONTINUOUS
 62
     1
100
AcDbLine
 10
289.426167
 20
206.136667
 30
0.0
 11
302.426167
 21
206.136667
 31
0.0
  0
LINE
  5
E9
100
AcDbEntity
  8
1
  6
CONTINUOUS
 62
     4
100
AcDbLine
 10
302.426167
 20
196.136667
 30
0.0
 11
302.426167
 21
206.136667
 31
0.0
  0
LINE
  5
EA
100
AcDbEntity
  8
1
  6
CONTINUOUS
 62
     1
100
AcDbLine
 10
302.426167
 20
206.136667
 30
0.0
 11
302.426167
 21
216.136667
 31
0.0
  0
LINE
  5
EB
100
AcDbEntity
  8
1
  6
CONTINUOUS
 62
     4
100
AcDbLine
 10
198.426167
 20
216.136667
 30
0.0
 11
302.426167
 21
216.136667
 31
0.0
  0
LINE
  5
EC
100
AcDbEntity
  8
1
  6
CONTINUOUS
 62
     1
100
AcDbLine
 10
302.426167
 20
216.136667
 30
0.0
 11
315.426167
 21
216.136667
 31
0.0
  0
CIRCLE
  5
ED
100
AcDbEntity
  8
1
  6
CONTINUOUS
 62
     7
100
AcDbCircle
 10
332.583333
 20
185.583333
 30
0.0
 40
2.103238
210
0.0
220
0.0
230
1.0
  0
LINE
  5
EE
100
AcDbEntity
  8
1
  6
CONTINUOUS
 62
     7
100
AcDbLine
 10
296.666667
 20
196.136667
 30
0.0
 11
296.666667
 21
146.741417
 31
0.0
  0
LINE
  5
EF
100
AcDbEntity
  8
1
  6
CONTINUOUS
 62
    30
100
AcDbLine
 10
370.833333
 20
348.416667
 30
0.0
 11
420.833333
 21
348.416667
 31
0.0
  0
LINE
  5
F0
100
AcDbEntity
  8
1
  6
CONTINUOUS
 62
    30
100
AcDbLine
 10
420.833333
 20
348.416667
 30
0.0
 11
420.833333
 21
288.416667
 31
0.0
  0
LINE
  5
F1
100
AcDbEntity
  8
1
  6
CONTINUOUS
 62
    30
100
AcDbLine
 10
420.833333
 20
288.416667
 30
0.0
 11
370.833333
 21
288.416667
 31
0.0
  0
LINE
  5
F2
100
AcDbEntity
  8
1
  6
CONTINUOUS
 62
    30
100
AcDbLine
 10
370.833333
 20
288.416667
 30
0.0
 11
370.833333
 21
348.416667
 31
0.0
  0
LINE
  5
F3
100
AcDbEntity
  8
1
  6
CONTINUOUS
 62
    30
100
AcDbLine
 10
370.833333
 20
328.416667
 30
0.0
 11
420.833333
 21
328.416667
 31
0.0
  0
LINE
  5
F4
100
AcDbEntity
  8
1
  6
CONTINUOUS
 62
    30
100
AcDbLine
 10
370.833333
 20
318.416667
 30
0.0
 11
420.833333
 21
318.416667
 31
0.0
  0
LINE
  5
F5
100
AcDbEntity
  8
1
  6
CONTINUOUS
 62
    30
100
AcDbLine
 10
370.833333
 20
308.416667
 30
0.0
 11
420.833333
 21
308.416667
 31
0.0
  0
LINE
  5
F6
100
AcDbEntity
  8
1
  6
CONTINUOUS
 62
    30
100
AcDbLine
 10
370.833333
 20
298.416667
 30
0.0
 11
420.833333
 21
298.416667
 31
0.0
  0
LINE
  5
F7
100
AcDbEntity
  8
1
  6
CONTINUOUS
 62
    30
100
AcDbLine
 10
400.833333
 20
348.416667
 30
0.0
 11
400.833333
 21
288.416667
 31
0.0
  0
TEXT
  5
F8
100
AcDbEntity
  8
1
  6
CONTINUOUS
 62
     7
100
AcDbText
 10
380.751333
 20
339.5
 30
0.0
 40
2.5
  1
POST
  7
MONOTXT
 72
     4
 11
385.4265
 21
340.75
 31
0.0
210
0.0
220
0.0
230
1.0
100
AcDbText
  0
TEXT
  5
F9
100
AcDbEntity
  8
1
  6
CONTINUOUS
 62
     7
100
AcDbText
 10
377.857583
 20
335.0
 30
0.0
 40
2.5
  1
SECTION
  7
MONOTXT
 72
     4
 11
385.426417
 21
336.25
 31
0.0
210
0.0
220
0.0
230
1.0
100
AcDbText
  0
TEXT
  5
FA
100
AcDbEntity
  8
1
  6
CONTINUOUS
 62
     7
100
AcDbText
 10
405.188333
 20
339.166667
 30
0.0
 40
2.5
  1
DEPTH
  7
MONOTXT
 72
     4
 11
410.9265
 21
340.416667
 31
0.0
210
0.0
220
0.0
230
1.0
100
AcDbText
  0
TEXT
  5
FB
100
AcDbEntity
  8
1
  6
CONTINUOUS
 62
     7
100
AcDbText
 10
404.656833
 20
334.666667
 30
0.0
 40
2.5
  1
DRIVEN
  7
MONOTXT
 72
     4
 11
410.9265
 21
335.916667
 31
0.0
210
0.0
220
0.0
230
1.0
100
AcDbText
  0
LINE
  5
FC
100
AcDbEntity
  8
1
  6
CONTINUOUS
 62
     6
100
AcDbLine
 10
477.5
 20
354.166667
 30
0.0
 11
527.5
 21
354.166667
 31
0.0
  0
LINE
  5
FD
100
AcDbEntity
  8
1
  6
CONTINUOUS
 62
     6
100
AcDbLine
 10
527.5
 20
354.166667
 30
0.0
 11
527.5
 21
334.166667
 31
0.0
  0
LINE
  5
FE
100
AcDbEntity
  8
1
  6
CONTINUOUS
 62
     6
100
AcDbLine
 10
527.5
 20
334.166667
 30
0.0
 11
477.5
 21
334.166667
 31
0.0
  0
LINE
  5
FF
100
AcDbEntity
  8
1
  6
CONTINUOUS
 62
     6
100
AcDbLine
 10
477.5
 20
334.166667
 30
0.0
 11
477.5
 21
354.166667
 31
0.0
  0
LINE
  5
100
100
AcDbEntity
  8
1
  6
DASHED
 62
     6
100
AcDbLine
 10
483.5
 20
334.166667
 30
0.0
 11
483.5
 21
354.166667
 31
0.0
  0
LINE
  5
101
100
AcDbEntity
  8
1
  6
DASHED
 62
     6
100
AcDbLine
 10
521.5
 20
354.166667
 30
0.0
 11
521.5
 21
334.166667
 31
0.0
  0
LINE
  5
102
100
AcDbEntity
  8
1
  6
DASHED
 62
     6
100
AcDbLine
 10
485.0
 20
334.166667
 30
0.0
 11
485.0
 21
354.166667
 31
0.0
  0
LINE
  5
103
100
AcDbEntity
  8
1
  6
DASHED
 62
     6
100
AcDbLine
 10
520.0
 20
354.166667
 30
0.0
 11
520.0
 21
334.166667
 31
0.0
  0
LINE
  5
104
100
AcDbEntity
  8
1
  6
DASHED
 62
     6
100
AcDbLine
 10
501.75
 20
354.166667
 30
0.0
 11
501.75
 21
334.166667
 31
0.0
  0
LINE
  5
105
100
AcDbEntity
  8
1
  6
DASHED
 62
     6
100
AcDbLine
 10
503.25
 20
354.166667
 30
0.0
 11
503.25
 21
334.166667
 31
0.0
  0
LINE
  5
106
100
AcDbEntity
  8
1
  6
CONTINUOUS
 62
     6
100
AcDbLine
 10
483.5
 20
334.166667
 30
0.0
 11
483.5
 21
297.166667
 31
0.0
  0
LINE
  5
107
100
AcDbEntity
  8
1
  6
CONTINUOUS
 62
     6
100
AcDbLine
 10
485.0
 20
334.166667
 30
0.0
 11
485.0
 21
297.166667
 31
0.0
  0
LINE
  5
108
100
AcDbEntity
  8
1
  6
CONTINUOUS
 62
     6
100
AcDbLine
 10
501.75
 20
334.166667
 30
0.0
 11
501.75
 21
297.166667
 31
0.0
  0
LINE
  5
109
100
AcDbEntity
  8
1
  6
CONTINUOUS
 62
     6
100
AcDbLine
 10
503.25
 20
334.166667
 30
0.0
 11
503.25
 21
297.166667
 31
0.0
  0
LINE
  5
10A
100
AcDbEntity
  8
1
  6
CONTINUOUS
 62
     6
100
AcDbLine
 10
520.0
 20
334.166667
 30
0.0
 11
520.0
 21
297.166667
 31
0.0
  0
LINE
  5
10B
100
AcDbEntity
  8
1
  6
CONTINUOUS
 62
     6
100
AcDbLine
 10
521.5
 20
334.166667
 30
0.0
 11
521.5
 21
297.166667
 31
0.0
  0
LINE
  5
10C
100
AcDbEntity
  8
1
  6
CONTINUOUS
 62
     6
100
AcDbLine
 10
476.5
 20
297.166667
 30
0.0
 11
554.5
 21
297.166667
 31
0.0
  0
LINE
  5
10D
100
AcDbEntity
  8
1
  6
DASHED
 62
     6
100
AcDbLine
 10
483.5
 20
297.166667
 30
0.0
 11
483.5
 21
293.166667
 31
0.0
  0
LINE
  5
10E
100
AcDbEntity
  8
1
  6
DASHED
 62
     6
100
AcDbLine
 10
485.0
 20
297.166667
 30
0.0
 11
485.0
 21
293.166667
 31
0.0
  0
LINE
  5
10F
100
AcDbEntity
  8
1
  6
DASHED
 62
     6
100
AcDbLine
 10
501.75
 20
297.166667
 30
0.0
 11
501.75
 21
293.166667
 31
0.0
  0
LINE
  5
110
100
AcDbEntity
  8
1
  6
DASHED
 62
     6
100
AcDbLine
 10
503.25
 20
297.166667
 30
0.0
 11
503.25
 21
293.166667
 31
0.0
  0
LINE
  5
111
100
AcDbEntity
  8
1
  6
DASHED
 62
     6
100
AcDbLine
 10
520.0
 20
297.166667
 30
0.0
 11
520.0
 21
293.166667
 31
0.0
  0
LINE
  5
112
100
AcDbEntity
  8
1
  6
DASHED
 62
     6
100
AcDbLine
 10
521.5
 20
297.166667
 30
0.0
 11
521.5
 21
293.166667
 31
0.0
  0
LINE
  5
113
100
AcDbEntity
  8
1
  6
CONTINUOUS
 62
     6
100
AcDbLine
 10
484.25
 20
294.166667
 30
0.0
 11
484.25
 21
292.166667
 31
0.0
  0
LINE
  5
114
100
AcDbEntity
  8
1
  6
CONTINUOUS
 62
     6
100
AcDbLine
 10
481.5
 20
293.166667
 30
0.0
 11
483.75
 21
293.166667
 31
0.0
  0
LINE
  5
115
100
AcDbEntity
  8
1
  6
CONTINUOUS
 62
     6
100
AcDbLine
 10
484.75
 20
293.166667
 30
0.0
 11
487.0
 21
293.166667
 31
0.0
  0
LINE
  5
116
100
AcDbEntity
  8
1
  6
CONTINUOUS
 62
     6
100
AcDbLine
 10
483.75
 20
293.166667
 30
0.0
 11
484.25
 21
292.166667
 31
0.0
  0
LINE
  5
117
100
AcDbEntity
  8
1
  6
CONTINUOUS
 62
     6
100
AcDbLine
 10
484.75
 20
293.166667
 30
0.0
 11
484.25
 21
294.166667
 31
0.0
  0
LINE
  5
118
100
AcDbEntity
  8
1
  6
CONTINUOUS
 62
     6
100
AcDbLine
 10
502.5
 20
294.166667
 30
0.0
 11
502.5
 21
292.166667
 31
0.0
  0
LINE
  5
119
100
AcDbEntity
  8
1
  6
CONTINUOUS
 62
     6
100
AcDbLine
 10
499.75
 20
293.166667
 30
0.0
 11
502.0
 21
293.166667
 31
0.0
  0
LINE
  5
11A
100
AcDbEntity
  8
1
  6
CONTINUOUS
 62
     6
100
AcDbLine
 10
503.0
 20
293.166667
 30
0.0
 11
505.25
 21
293.166667
 31
0.0
  0
LINE
  5
11B
100
AcDbEntity
  8
1
  6
CONTINUOUS
 62
     6
100
AcDbLine
 10
502.0
 20
293.166667
 30
0.0
 11
502.5
 21
292.166667
 31
0.0
  0
LINE
  5
11C
100
AcDbEntity
  8
1
  6
CONTINUOUS
 62
     6
100
AcDbLine
 10
503.0
 20
293.166667
 30
0.0
 11
502.5
 21
294.166667
 31
0.0
  0
LINE
  5
11D
100
AcDbEntity
  8
1
  6
CONTINUOUS
 62
     6
100
AcDbLine
 10
520.75
 20
294.166667
 30
0.0
 11
520.75
 21
292.166667
 31
0.0
  0
LINE
  5
11E
100
AcDbEntity
  8
1
  6
CONTINUOUS
 62
     6
100
AcDbLine
 10
518.0
 20
293.166667
 30
0.0
 11
520.25
 21
293.166667
 31
0.0
  0
LINE
  5
11F
100
AcDbEntity
  8
1
  6
CONTINUOUS
 62
     6
100
AcDbLine
 10
521.25
 20
293.166667
 30
0.0
 11
523.5
 21
293.166667
 31
0.0
  0
LINE
  5
120
100
AcDbEntity
  8
1
  6
CONTINUOUS
 62
     6
100
AcDbLine
 10
520.25
 20
293.166667
 30
0.0
 11
520.75
 21
292.166667
 31
0.0
  0
LINE
  5
121
100
AcDbEntity
  8
1
  6
CONTINUOUS
 62
     6
100
AcDbLine
 10
521.25
 20
293.166667
 30
0.0
 11
520.75
 21
294.166667
 31
0.0
  0
LINE
  5
122
100
AcDbEntity
  8
1
  6
CONTINUOUS
 62
     6
100
AcDbLine
 10
481.5
 20
287.166667
 30
0.0
 11
483.75
 21
287.166667
 31
0.0
  0
LINE
  5
123
100
AcDbEntity
  8
1
  6
CONTINUOUS
 62
     6
100
AcDbLine
 10
484.25
 20
288.166667
 30
0.0
 11
484.25
 21
286.166667
 31
0.0
  0
LINE
  5
124
100
AcDbEntity
  8
1
  6
CONTINUOUS
 62
     6
100
AcDbLine
 10
484.75
 20
287.166667
 30
0.0
 11
487.0
 21
287.166667
 31
0.0
  0
LINE
  5
125
100
AcDbEntity
  8
1
  6
CONTINUOUS
 62
     6
100
AcDbLine
 10
483.75
 20
287.166667
 30
0.0
 11
484.25
 21
286.166667
 31
0.0
  0
LINE
  5
126
100
AcDbEntity
  8
1
  6
CONTINUOUS
 62
     6
100
AcDbLine
 10
484.75
 20
287.166667
 30
0.0
 11
484.25
 21
288.166667
 31
0.0
  0
LINE
  5
127
100
AcDbEntity
  8
1
  6
CONTINUOUS
 62
     6
100
AcDbLine
 10
521.25
 20
287.166667
 30
0.0
 11
523.5
 21
287.166667
 31
0.0
  0
LINE
  5
128
100
AcDbEntity
  8
1
  6
CONTINUOUS
 62
     6
100
AcDbLine
 10
520.75
 20
288.166667
 30
0.0
 11
520.75
 21
286.166667
 31
0.0
  0
LINE
  5
129
100
AcDbEntity
  8
1
  6
CONTINUOUS
 62
     6
100
AcDbLine
 10
518.0
 20
287.166667
 30
0.0
 11
520.25
 21
287.166667
 31
0.0
  0
LINE
  5
12A
100
AcDbEntity
  8
1
  6
CONTINUOUS
 62
     6
100
AcDbLine
 10
520.25
 20
287.166667
 30
0.0
 11
520.75
 21
286.166667
 31
0.0
  0
LINE
  5
12B
100
AcDbEntity
  8
1
  6
CONTINUOUS
 62
     6
100
AcDbLine
 10
521.25
 20
287.166667
 30
0.0
 11
520.75
 21
288.166667
 31
0.0
  0
LINE
  5
12C
100
AcDbEntity
  8
1
  6
CONTINUOUS
 62
     6
100
AcDbLine
 10
499.75
 20
287.166667
 30
0.0
 11
502.0
 21
287.166667
 31
0.0
  0
LINE
  5
12D
100
AcDbEntity
  8
1
  6
CONTINUOUS
 62
     6
100
AcDbLine
 10
502.5
 20
288.166667
 30
0.0
 11
502.5
 21
286.166667
 31
0.0
  0
LINE
  5
12E
100
AcDbEntity
  8
1
  6
CONTINUOUS
 62
     6
100
AcDbLine
 10
503.0
 20
287.166667
 30
0.0
 11
505.25
 21
287.166667
 31
0.0
  0
LINE
  5
12F
100
AcDbEntity
  8
1
  6
CONTINUOUS
 62
     6
100
AcDbLine
 10
502.0
 20
287.166667
 30
0.0
 11
502.5
 21
286.166667
 31
0.0
  0
LINE
  5
130
100
AcDbEntity
  8
1
  6
CONTINUOUS
 62
     6
100
AcDbLine
 10
503.0
 20
287.166667
 30
0.0
 11
502.5
 21
288.166667
 31
0.0
  0
LINE
  5
131
100
AcDbEntity
  8
1
  6
DASHED
 62
     6
100
AcDbLine
 10
483.5
 20
287.166667
 30
0.0
 11
483.5
 21
284.166667
 31
0.0
  0
LINE
  5
132
100
AcDbEntity
  8
1
  6
DASHED
 62
     6
100
AcDbLine
 10
485.0
 20
287.166667
 30
0.0
 11
485.0
 21
284.166667
 31
0.0
  0
LINE
  5
133
100
AcDbEntity
  8
1
  6
DASHED
 62
     6
100
AcDbLine
 10
501.75
 20
287.166667
 30
0.0
 11
501.75
 21
284.166667
 31
0.0
  0
LINE
  5
134
100
AcDbEntity
  8
1
  6
DASHED
 62
     6
100
AcDbLine
 10
503.25
 20
287.166667
 30
0.0
 11
503.25
 21
284.166667
 31
0.0
  0
LINE
  5
135
100
AcDbEntity
  8
1
  6
DASHED
 62
     6
100
AcDbLine
 10
520.0
 20
287.166667
 30
0.0
 11
520.0
 21
284.166667
 31
0.0
  0
LINE
  5
136
100
AcDbEntity
  8
1
  6
DASHED
 62
     6
100
AcDbLine
 10
521.5
 20
287.166667
 30
0.0
 11
521.5
 21
284.166667
 31
0.0
  0
LINE
  5
137
100
AcDbEntity
  8
1
  6
DASHED
 62
     6
100
AcDbLine
 10
483.5
 20
284.166667
 30
0.0
 11
484.25
 21
282.666667
 31
0.0
  0
LINE
  5
138
100
AcDbEntity
  8
1
  6
DASHED
 62
     6
100
AcDbLine
 10
484.25
 20
282.666667
 30
0.0
 11
485.0
 21
284.166667
 31
0.0
  0
LINE
  5
139
100
AcDbEntity
  8
1
  6
DASHED
 62
     6
100
AcDbLine
 10
501.75
 20
284.166667
 30
0.0
 11
502.5
 21
282.666667
 31
0.0
  0
LINE
  5
13A
100
AcDbEntity
  8
1
  6
DASHED
 62
     6
100
AcDbLine
 10
502.5
 20
282.666667
 30
0.0
 11
503.25
 21
284.166667
 31
0.0
  0
LINE
  5
13B
100
AcDbEntity
  8
1
  6
DASHED
 62
     6
100
AcDbLine
 10
520.0
 20
284.166667
 30
0.0
 11
520.75
 21
282.666667
 31
0.0
  0
LINE
  5
13C
100
AcDbEntity
  8
1
  6
DASHED
 62
     6
100
AcDbLine
 10
520.75
 20
282.666667
 30
0.0
 11
521.5
 21
284.166667
 31
0.0
  0
LINE
  5
13D
100
AcDbEntity
  8
1
  6
CONTINUOUS
 62
     7
100
AcDbLine
 10
477.5
 20
355.166667
 30
0.0
 11
477.5
 21
365.166667
 31
0.0
  0
LINE
  5
13E
100
AcDbEntity
  8
1
  6
CONTINUOUS
 62
     7
100
AcDbLine
 10
527.5
 20
355.166667
 30
0.0
 11
527.5
 21
365.166667
 31
0.0
  0
LINE
  5
13F
100
AcDbEntity
  8
1
  6
CONTINUOUS
 62
     7
100
AcDbLine
 10
551.5
 20
344.166667
 30
0.0
 11
528.5
 21
344.166667
 31
0.0
  0
LINE
  5
140
100
AcDbEntity
  8
1
  6
CONTINUOUS
 62
     7
100
AcDbLine
 10
528.5
 20
334.166667
 30
0.0
 11
539.5
 21
334.166667
 31
0.0
  0
LINE
  5
141
100
AcDbEntity
  8
1
  6
CONTINUOUS
 62
     7
100
AcDbLine
 10
476.5
 20
354.166667
 30
0.0
 11
467.5
 21
354.166667
 31
0.0
  0
LINE
  5
142
100
AcDbEntity
  8
1
  6
CONTINUOUS
 62
     7
100
AcDbLine
 10
476.5
 20
334.166667
 30
0.0
 11
467.5
 21
334.166667
 31
0.0
  0
LINE
  5
143
100
AcDbEntity
  8
1
  6
CONTINUOUS
 62
     7
100
AcDbLine
 10
522.75
 20
282.666667
 30
0.0
 11
539.75
 21
282.666667
 31
0.0
  0
LINE
  5
144
100
AcDbEntity
  8
1
  6
CONTINUOUS
 62
     7
100
AcDbLine
 10
468.5
 20
354.166667
 30
0.0
 11
468.5
 21
334.166667
 31
0.0
  0
LINE
  5
145
100
AcDbEntity
  8
1
  6
CONTINUOUS
 62
     7
100
AcDbLine
 10
538.5
 20
334.166667
 30
0.0
 11
538.5
 21
344.166667
 31
0.0
  0
LINE
  5
146
100
AcDbEntity
  8
1
  6
CONTINUOUS
 62
     7
100
AcDbLine
 10
550.5
 20
344.166667
 30
0.0
 11
550.5
 21
297.166667
 31
0.0
  0
LINE
  5
147
100
AcDbEntity
  8
1
  6
CONTINUOUS
 62
     7
100
AcDbLine
 10
538.75
 20
282.666667
 30
0.0
 11
538.75
 21
297.166667
 31
0.0
  0
LINE
  5
148
100
AcDbEntity
  8
1
  6
CONTINUOUS
 62
     7
100
AcDbLine
 10
477.5
 20
364.166667
 30
0.0
 11
527.5
 21
364.166667
 31
0.0
  0
INSERT
  5
14E
100
AcDbEntity
  8
1
  6
CONTINUOUS
 62
     1
100
AcDbBlockReference
  2
LDR
 10
477.5
 20
364.166667
 30
0.0
 41
240.0
 42
240.0
 50
180.0
210
0.0
220
0.0
230
1.0
  0
INSERT
  5
14F
100
AcDbEntity
  8
1
  6
CONTINUOUS
 62
     1
100
AcDbBlockReference
  2
LDR
 10
477.5
 20
364.166667
 30
0.0
 41
240.0
 42
240.0
 50
180.0
210
0.0
220
0.0
230
1.0
  0
INSERT
  5
150
100
AcDbEntity
  8
1
  6
CONTINUOUS
 62
     1
100
AcDbBlockReference
  2
LDR
 10
527.5
 20
364.166667
 30
0.0
 41
240.0
 42
240.0
210
0.0
220
0.0
230
1.0
  0
INSERT
  5
151
100
AcDbEntity
  8
1
  6
CONTINUOUS
 62
     1
100
AcDbBlockReference
  2
LDR
 10
527.5
 20
364.166667
 30
0.0
 41
240.0
 42
240.0
210
0.0
220
0.0
230
1.0
  0
INSERT
  5
152
100
AcDbEntity
  8
1
  6
CONTINUOUS
 62
     1
100
AcDbBlockReference
  2
LDR
 10
468.5
 20
354.166667
 30
0.0
 41
240.0
 42
240.0
 50
90.0
210
0.0
220
0.0
230
1.0
  0
INSERT
  5
153
100
AcDbEntity
  8
1
  6
CONTINUOUS
 62
     1
100
AcDbBlockReference
  2
LDR
 10
468.5
 20
354.166667
 30
0.0
 41
240.0
 42
240.0
 50
90.0
210
0.0
220
0.0
230
1.0
  0
INSERT
  5
154
100
AcDbEntity
  8
1
  6
CONTINUOUS
 62
     1
100
AcDbBlockReference
  2
LDR
 10
468.5
 20
334.166667
 30
0.0
 41
240.0
 42
240.0
 50
270.0
210
0.0
220
0.0
230
1.0
  0
INSERT
  5
155
100
AcDbEntity
  8
1
  6
CONTINUOUS
 62
     1
100
AcDbBlockReference
  2
LDR
 10
468.5
 20
334.166667
 30
0.0
 41
240.0
 42
240.0
 50
270.0
210
0.0
220
0.0
230
1.0
  0
INSERT
  5
156
100
AcDbEntity
  8
1
  6
CONTINUOUS
 62
     1
100
AcDbBlockReference
  2
LDR
 10
538.5
 20
344.166667
 30
0.0
 41
240.0
 42
240.0
 50
90.0
210
0.0
220
0.0
230
1.0
  0
INSERT
  5
157
100
AcDbEntity
  8
1
  6
CONTINUOUS
 62
     1
100
AcDbBlockReference
  2
LDR
 10
538.5
 20
344.166667
 30
0.0
 41
240.0
 42
240.0
 50
90.0
210
0.0
220
0.0
230
1.0
  0
INSERT
  5
158
100
AcDbEntity
  8
1
  6
CONTINUOUS
 62
     1
100
AcDbBlockReference
  2
LDR
 10
538.5
 20
334.166667
 30
0.0
 41
240.0
 42
240.0
 50
270.0
210
0.0
220
0.0
230
1.0
  0
INSERT
  5
159
100
AcDbEntity
  8
1
  6
CONTINUOUS
 62
     1
100
AcDbBlockReference
  2
LDR
 10
538.5
 20
334.166667
 30
0.0
 41
240.0
 42
240.0
 50
270.0
210
0.0
220
0.0
230
1.0
  0
INSERT
  5
15A
100
AcDbEntity
  8
1
  6
CONTINUOUS
 62
     1
100
AcDbBlockReference
  2
LDR
 10
550.5
 20
344.166667
 30
0.0
 41
240.0
 42
240.0
 50
90.0
210
0.0
220
0.0
230
1.0
  0
INSERT
  5
15B
100
AcDbEntity
  8
1
  6
CONTINUOUS
 62
     1
100
AcDbBlockReference
  2
LDR
 10
550.5
 20
344.166667
 30
0.0
 41
240.0
 42
240.0
 50
90.0
210
0.0
220
0.0
230
1.0
  0
INSERT
  5
15C
100
AcDbEntity
  8
1
  6
CONTINUOUS
 62
     1
100
AcDbBlockReference
  2
LDR
 10
550.5
 20
297.166667
 30
0.0
 41
240.0
 42
240.0
 50
270.0
210
0.0
220
0.0
230
1.0
  0
INSERT
  5
15D
100
AcDbEntity
  8
1
  6
CONTINUOUS
 62
     1
100
AcDbBlockReference
  2
LDR
 10
550.5
 20
297.166667
 30
0.0
 41
240.0
 42
240.0
 50
270.0
210
0.0
220
0.0
230
1.0
  0
INSERT
  5
15E
100
AcDbEntity
  8
1
  6
CONTINUOUS
 62
     1
100
AcDbBlockReference
  2
LDR
 10
538.75
 20
297.166667
 30
0.0
 41
240.0
 42
240.0
 50
90.0
210
0.0
220
0.0
230
1.0
  0
INSERT
  5
15F
100
AcDbEntity
  8
1
  6
CONTINUOUS
 62
     1
100
AcDbBlockReference
  2
LDR
 10
538.75
 20
297.166667
 30
0.0
 41
240.0
 42
240.0
 50
90.0
210
0.0
220
0.0
230
1.0
  0
INSERT
  5
160
100
AcDbEntity
  8
1
  6
CONTINUOUS
 62
     1
100
AcDbBlockReference
  2
LDR
 10
538.75
 20
282.666667
 30
0.0
 41
240.0
 42
240.0
 50
270.0
210
0.0
220
0.0
230
1.0
  0
TEXT
  5
161
100
AcDbEntity
  8
1
  6
CONTINUOUS
 62
     7
100
AcDbText
 10
501.735583
 20
364.75
 30
0.0
 40
2.5
  1
W
  7
MONOTXT
 72
     4
 11
502.9265
 21
366.0
 31
0.0
210
0.0
220
0.0
230
1.0
100
AcDbText
  0
TEXT
  5
162
100
AcDbEntity
  8
1
  6
CONTINUOUS
 62
     7
100
AcDbText
 10
539.69425
 20
288.5
 30
0.0
 40
2.5
  1
SEE CHART FOR DEPTH
  7
MONOTXT
 72
     4
 11
562.6765
 21
289.75
 31
0.0
210
0.0
220
0.0
230
1.0
100
AcDbText
  0
TEXT
  5
163
100
AcDbEntity
  8
1
  6
CONTINUOUS
 62
     7
100
AcDbText
 10
467.75
 20
343.506583
 30
0.0
 40
2.5
  1
D
 50
90.0
  7
MONOTXT
 72
     4
 11
466.5
 21
344.343167
 31
0.0
210
0.0
220
0.0
230
1.0
100
AcDbText
  0
TEXT
  5
164
100
AcDbEntity
  8
1
  6
CONTINUOUS
 62
     7
100
AcDbText
 10
542.5
 20
336.438333
 30
0.0
 40
2.5
  1
D/2
 50
90.0
  7
MONOTXT
 72
     4
 11
541.25
 21
339.6765
 31
0.0
210
0.0
220
0.0
230
1.0
100
AcDbText
  0
TEXT
  5
165
100
AcDbEntity
  8
1
  6
CONTINUOUS
 62
     7
100
AcDbText
 10
554.083333
 20
318.121417
 30
0.0
 40
2.5
  1
"CP"
 50
90.0
  7
MONOTXT
 72
     4
 11
552.833333
 21
322.166667
 31
0.0
210
0.0
220
0.0
230
1.0
100
AcDbText
  0
TEXT
  5
166
100
AcDbEntity
  8
1
  6
CONTINUOUS
 62
     7
100
AcDbText
 10
505.562333
 20
364.5
 30
0.0
 40
5.0
  1
**
  7
MONOTXT
 72
     4
 11
508.416667
 21
367.0
 31
0.0
210
0.0
220
0.0
230
1.0
100
AcDbText
  0
TEXT
  5
167
100
AcDbEntity
  8
1
  6
CONTINUOUS
 62
     7
100
AcDbText
 10
540.229
 20
357.333333
 30
0.0
 40
5.0
  1
**
  7
MONOTXT
 72
     4
 11
543.083333
 21
359.833333
 31
0.0
210
0.0
220
0.0
230
1.0
100
AcDbText
  0
CIRCLE
  5
168
100
AcDbEntity
  8
1
  6
CONTINUOUS
 62
     7
100
AcDbCircle
 10
421.593741
 20
198.353553
 30
0.0
 40
2.103238
210
0.0
220
0.0
230
1.0
  0
TEXT
  5
169
100
AcDbEntity
  8
1
  6
CONTINUOUS
 62
     7
100
AcDbText
 10
419.140083
 20
193.49825
 30
0.0
 40
7.0
  1
*
  7
TXT
 72
     4
 11
421.305833
 21
196.99825
 31
0.0
210
0.0
220
0.0
230
1.0
100
AcDbText
  0
TEXT
  5
16A
100
AcDbEntity
  8
1
  6
CONTINUOUS
 62
     7
100
AcDbText
 10
471.2815
 20
274.583333
 30
0.0
 40
2.5
  1
SEE TP3-1  FOR TYPICAL INSTALLATIONS
  7
MONOTXT
 72
     4
 11
510.759833
 21
275.833333
 31
0.0
210
0.0
220
0.0
230
1.0
100
AcDbText
  0
LWPOLYLINE
  5
16B
100
AcDbEntity
  8
1
  6
CONTINUOUS
 62
     7
100
AcDbPolyline
 90
        4
 70
     0
 10
497.5
 20
107.547417
 10
495.5
 20
104.083333
 10
499.5
 20
104.083333
 10
497.5
 20
107.547417
  0
TEXT
  5
16C
100
AcDbEntity
  8
1
  6
CONTINUOUS
 62
     7
100
AcDbText
 10
496.895917
 20
104.4585
 30
0.0
 40
1.75
  1
9
  7
MONOTXT
210
0.0
220
0.0
230
1.0
100
AcDbText
  0
TEXT
  5
16D
100
AcDbEntity
  8
1
  6
CONTINUOUS
 62
     7
100
AcDbText
 10
500.719167
 20
104.8495
 30
0.0
 40
1.75
  1
REVISED CLEAR. NOTE
  7
MONOTXT
210
0.0
220
0.0
230
1.0
100
AcDbText
  0
LWPOLYLINE
  5
16E
100
AcDbEntity
  8
1
  6
CONTINUOUS
 62
     7
100
AcDbPolyline
 90
        4
 70
     0
 10
496.083333
 20
6.297417
 10
494.083333
 20
2.833333
 10
498.083333
 20
2.833333
 10
496.083333
 20
6.297417
  0
TEXT
  5
16F
100
AcDbEntity
  8
1
  6
CONTINUOUS
 62
     7
100
AcDbText
 10
495.47925
 20
3.2085
 30
0.0
 40
1.75
  1
9
  7
MONOTXT
210
0.0
220
0.0
230
1.0
100
AcDbText
  0
LWPOLYLINE
  5
170
100
AcDbEntity
  8
1
  6
CONTINUOUS
 62
     7
100
AcDbPolyline
 90
        4
 70
     0
 10
585.583333
 20
202.547417
 10
583.583333
 20
199.083333
 10
587.583333
 20
199.083333
 10
585.583333
 20
202.547417
  0
TEXT
  5
171
100
AcDbEntity
  8
1
  6
CONTINUOUS
 62
     7
100
AcDbText
 10
584.97925
 20
199.4585
 30
0.0
 40
1.75
  1
9
  7
MONOTXT
210
0.0
220
0.0
230
1.0
100
AcDbText
  0
LWPOLYLINE
  5
172
100
AcDbEntity
  8
1
  6
CONTINUOUS
 62
     7
100
AcDbPolyline
 90
        4
 70
     0
 10
497.5
 20
102.964083
 10
495.5
 20
99.5
 10
499.5
 20
99.5
 10
497.5
 20
102.964083
  0
TEXT
  5
173
100
AcDbEntity
  8
1
  6
CONTINUOUS
 62
     7
100
AcDbText
 10
496.47925
 20
99.625167
 30
0.0
 40
1.75
  1
10
  7
MONOTXT
210
0.0
220
0.0
230
1.0
100
AcDbText
  0
TEXT
  5
174
100
AcDbEntity
  8
1
  6
CONTINUOUS
 62
     7
100
AcDbText
 10
500.5525
 20
100.182833
 30
0.0
 40
1.75
  1
ADDED METRIC
  7
MONOTXT
210
0.0
220
0.0
230
1.0
100
AcDbText
  0
LWPOLYLINE
  5
175
100
AcDbEntity
  8
1
  6
CONTINUOUS
 62
     7
100
AcDbPolyline
 90
        4
 70
     0
 10
496.25
 20
1.714083
 10
494.25
 20
-1.75
 10
498.25
 20
-1.75
 10
496.25
 20
1.714083
  0
TEXT
  5
176
100
AcDbEntity
  8
1
  6
CONTINUOUS
 62
     7
100
AcDbText
 10
495.22925
 20
-1.624833
 30
0.0
 40
1.75
  1
10
  7
MONOTXT
210
0.0
220
0.0
230
1.0
100
AcDbText
  0
TEXT
  5
177
100
AcDbEntity
  8
1
  6
CONTINUOUS
 62
     1
100
AcDbText
 10
501.51175
 20
-0.896333
 30
0.0
 40
2.0
  1
06-02-94
  7
MONOTXT
 72
     1
 11
508.732167
 21
1.103667
 31
0.0
210
0.0
220
0.0
230
1.0
100
AcDbText
 73
     3
  0
TEXT
  5
178
100
AcDbEntity
  8
1
  6
CONTINUOUS
 62
     7
100
AcDbText
 10
547.833333
 20
358.416667
 30
0.0
 40
2.5
  1
- TRIPLE SUPPORTS SHALL BE USED FOR SIGNS
  7
MONOTXT
 11
547.833333
 21
360.916667
 31
0.0
210
0.0
220
0.0
230
1.0
100
AcDbText
 73
     3
  0
TEXT
  5
179
100
AcDbEntity
  8
1
  6
CONTINUOUS
 62
     7
100
AcDbText
 10
547.833333
 20
353.916667
 30
0.0
 40
2.5
  1
  WITH WIDTH GREATER THAN 1.83m.
  7
MONOTXT
 11
547.833333
 21
356.416667
 31
0.0
210
0.0
220
0.0
230
1.0
100
AcDbText
 73
     3
  0
TEXT
  5
17A
100
AcDbEntity
  8
1
  6
CONTINUOUS
 62
     7
100
AcDbText
 10
425.25
 20
242.083333
 30
0.0
 40
2.5
  1
NOTES:
  7
MONOTXT
 11
425.25
 21
244.583333
 31
0.0
210
0.0
220
0.0
230
1.0
100
AcDbText
 73
     3
  0
TEXT
  5
17B
100
AcDbEntity
  8
1
  6
CONTINUOUS
 62
     7
100
AcDbText
 10
425.25
 20
237.583333
 30
0.0
 40
2.5
  1
 
  7
MONOTXT
 11
425.25
 21
240.083333
 31
0.0
210
0.0
220
0.0
230
1.0
100
AcDbText
 73
     3
  0
TEXT
  5
17C
100
AcDbEntity
  8
1
  6
CONTINUOUS
 62
     7
100
AcDbText
 10
425.25
 20
233.083333
 30
0.0
 40
2.5
  1
SEE SHEET TE1-7A FOR U-CHANNEL SECTIONS.
  7
MONOTXT
 11
425.25
 21
235.583333
 31
0.0
210
0.0
220
0.0
230
1.0
100
AcDbText
 73
     3
  0
TEXT
  5
17D
100
AcDbEntity
  8
1
  6
CONTINUOUS
 62
     7
100
AcDbText
 10
425.25
 20
228.583333
 30
0.0
 40
2.5
  1
ALL SUPPORTS SHALL BE GALVANIZED IN ACCORDANCE WITH A.S.T.M. A-123.
  7
MONOTXT
 11
425.25
 21
231.083333
 31
0.0
210
0.0
220
0.0
230
1.0
100
AcDbText
 73
     3
  0
TEXT
  5
17E
100
AcDbEntity
  8
1
  6
CONTINUOUS
 62
     7
100
AcDbText
 10
425.25
 20
224.083333
 30
0.0
 40
2.5
  1
 
  7
MONOTXT
 11
425.25
 21
226.583333
 31
0.0
210
0.0
220
0.0
230
1.0
100
AcDbText
 73
     3
  0
TEXT
  5
17F
100
AcDbEntity
  8
1
  6
CONTINUOUS
 62
     7
100
AcDbText
 10
425.25
 20
219.583333
 30
0.0
 40
2.5
  1
DEPTHS DRIVEN ARE BASED ON AVERAGE SOIL CONDITIONS. DEPENDING UPON
  7
MONOTXT
 11
425.25
 21
222.083333
 31
0.0
210
0.0
220
0.0
230
1.0
100
AcDbText
 73
     3
  0
TEXT
  5
180
100
AcDbEntity
  8
1
  6
CONTINUOUS
 62
     7
100
AcDbText
 10
425.25
 20
215.083333
 30
0.0
 40
2.5
  1
ACTUAL SOIL BEARING IN THE FIELD, THE ENGINEER MAY REQUIRE THAT THE
  7
MONOTXT
 11
425.25
 21
217.583333
 31
0.0
210
0.0
220
0.0
230
1.0
100
AcDbText
 73
     3
  0
TEXT
  5
181
100
AcDbEntity
  8
1
  6
CONTINUOUS
 62
     7
100
AcDbText
 10
425.25
 20
210.583333
 30
0.0
 40
2.5
  1
DEPTH DRIVEN BE INCREASED TO 1.5m. WHEN THE POST(S) ARE BEHIND
  7
MONOTXT
 11
425.25
 21
213.083333
 31
0.0
210
0.0
220
0.0
230
1.0
100
AcDbText
 73
     3
  0
TEXT
  5
182
100
AcDbEntity
  8
1
  6
CONTINUOUS
 62
     7
100
AcDbText
 10
425.25
 20
206.083333
 30
0.0
 40
2.5
  1
GUARDRAIL, THE DEPTH DRIVEN MAY BE INCREASED UP TO 1.5m.
  7
MONOTXT
 11
425.25
 21
208.583333
 31
0.0
210
0.0
220
0.0
230
1.0
100
AcDbText
 73
     3
  0
TEXT
  5
183
100
AcDbEntity
  8
1
  6
CONTINUOUS
 62
     7
100
AcDbText
 10
425.25
 20
201.583333
 30
0.0
 40
2.5
  1
 
  7
MONOTXT
 11
425.25
 21
204.083333
 31
0.0
210
0.0
220
0.0
230
1.0
100
AcDbText
 73
     3
  0
TEXT
  5
184
100
AcDbEntity
  8
1
  6
CONTINUOUS
 62
     7
100
AcDbText
 10
425.25
 20
197.083333
 30
0.0
 40
2.5
  1
CAN BE USED IF THE SUPPORTS ARE LOCATED OUTSIDE OF THE CLEAR ZONE
  7
MONOTXT
 11
425.25
 21
199.583333
 31
0.0
210
0.0
220
0.0
230
1.0
100
AcDbText
 73
     3
  0
TEXT
  5
185
100
AcDbEntity
  8
1
  6
CONTINUOUS
 62
     7
100
AcDbText
 10
425.25
 20
192.583333
 30
0.0
 40
2.5
  1
AS DEFINED IN TABLES 3.1 AND 3.2 OF THE "ROADSIDE DESIGN GUIDE". IF
  7
MONOTXT
 11
425.25
 21
195.083333
 31
0.0
210
0.0
220
0.0
230
1.0
100
AcDbText
 73
     3
  0
TEXT
  5
186
100
AcDbEntity
  8
1
  6
CONTINUOUS
 62
     7
100
AcDbText
 10
425.25
 20
188.083333
 30
0.0
 40
2.5
  1
USED INSIDE OF THE CLEAR ZONE, THE SUPPORTS MUST BE EITHER BEHIND
  7
MONOTXT
 11
425.25
 21
190.583333
 31
0.0
210
0.0
220
0.0
230
1.0
100
AcDbText
 73
     3
  0
TEXT
  5
187
100
AcDbEntity
  8
1
  6
CONTINUOUS
 62
     7
100
AcDbText
 10
425.25
 20
183.583333
 30
0.0
 40
2.5
  1
GUARDRAIL, BARRIER CURB, OR THE ROADWAY OPERATING SPEED MUST
  7
MONOTXT
 11
425.25
 21
186.083333
 31
0.0
210
0.0
220
0.0
230
1.0
100
AcDbText
 73
     3
  0
TEXT
  5
188
100
AcDbEntity
  8
1
  6
CONTINUOUS
 62
     7
100
AcDbText
 10
425.25
 20
179.083333
 30
0.0
 40
2.5
  1
BE LESS THAN 55 Km/h.
  7
MONOTXT
 11
425.25
 21
181.583333
 31
0.0
210
0.0
220
0.0
230
1.0
100
AcDbText
 73
     3
  0
TEXT
  5
189
100
AcDbEntity
  8
1
  6
CONTINUOUS
 62
     7
100
AcDbText
 10
376.738833
 20
323.25
 30
0.0
 40
2.5
  1
2.98Kg/m
  7
MONOTXT
 72
     1
 11
385.833333
 21
325.75
 31
0.0
210
0.0
220
0.0
230
1.0
100
AcDbText
 73
     3
  0
TEXT
  5
18A
100
AcDbEntity
  8
1
  6
CONTINUOUS
 62
     7
100
AcDbText
 10
376.62075
 20
312.75
 30
0.0
 40
2.5
  1
4.50Kg/m
  7
MONOTXT
 72
     1
 11
385.833333
 21
315.25
 31
0.0
210
0.0
220
0.0
230
1.0
100
AcDbText
 73
     3
  0
TEXT
  5
18B
100
AcDbEntity
  8
1
  6
CONTINUOUS
 62
     7
100
AcDbText
 10
372.65425
 20
302.25
 30
0.0
 40
2.5
  1
5.96Kg/m BB
  7
MONOTXT
 72
     1
 11
385.833333
 21
304.75
 31
0.0
210
0.0
220
0.0
230
1.0
100
AcDbText
 73
     3
  0
TEXT
  5
18C
100
AcDbEntity
  8
1
  6
CONTINUOUS
 62
     7
100
AcDbText
 10
372.595167
 20
291.75
 30
0.0
 40
2.5
  1
9.00Kg/m BB
  7
MONOTXT
 72
     1
 11
385.833333
 21
294.25
 31
0.0
210
0.0
220
0.0
230
1.0
100
AcDbText
 73
     3
  0
TEXT
  5
18D
100
AcDbEntity
  8
1
  6
CONTINUOUS
 62
     7
100
AcDbText
 10
405.169333
 20
323.25
 30
0.0
 40
2.5
  1
0.9m
  7
MONOTXT
 72
     1
 11
409.5
 21
325.75
 31
0.0
210
0.0
220
0.0
230
1.0
100
AcDbText
 73
     3
  0
TEXT
  5
18E
100
AcDbEntity
  8
1
  6
CONTINUOUS
 62
     7
100
AcDbText
 10
406.17325
 20
312.75
 30
0.0
 40
2.5
  1
1.1m
  7
MONOTXT
 72
     1
 11
409.5
 21
315.25
 31
0.0
210
0.0
220
0.0
230
1.0
100
AcDbText
 73
     3
  0
TEXT
  5
18F
100
AcDbEntity
  8
1
  6
CONTINUOUS
 62
     7
100
AcDbText
 10
406.17325
 20
302.25
 30
0.0
 40
2.5
  1
1.1m
  7
MONOTXT
 72
     1
 11
409.5
 21
304.75
 31
0.0
210
0.0
220
0.0
230
1.0
100
AcDbText
 73
     3
  0
TEXT
  5
190
100
AcDbEntity
  8
1
  6
CONTINUOUS
 62
     7
100
AcDbText
 10
406.17325
 20
291.75
 30
0.0
 40
2.5
  1
1.1m
  7
MONOTXT
 72
     1
 11
409.5
 21
294.25
 31
0.0
210
0.0
220
0.0
230
1.0
100
AcDbText
 73
     3
  0
TEXT
  5
191
100
AcDbEntity
  8
1
  6
CONTINUOUS
 62
     7
100
AcDbText
 10
70.876667
 20
390.583333
 30
0.0
 40
2.5
  1
0.37
  7
MONOTXT
 72
     4
 11
74.833333
 21
391.833333
 31
0.0
210
0.0
220
0.0
230
1.0
100
AcDbText
  0
TEXT
  5
192
100
AcDbEntity
  8
1
  6
CONTINUOUS
 62
     7
100
AcDbText
 10
83.445583
 20
390.833333
 30
0.0
 40
2.5
  1
0.56
  7
MONOTXT
 72
     4
 11
87.333333
 21
392.083333
 31
0.0
210
0.0
220
0.0
230
1.0
100
AcDbText
  0
TEXT
  5
193
100
AcDbEntity
  8
1
  6
CONTINUOUS
 62
     7
100
AcDbText
 10
96.7245
 20
390.583333
 30
0.0
 40
2.5
  1
0.74
  7
MONOTXT
 72
     4
 11
100.75
 21
391.833333
 31
0.0
210
0.0
220
0.0
230
1.0
100
AcDbText
  0
TEXT
  5
194
100
AcDbEntity
  8
1
  6
CONTINUOUS
 62
     7
100
AcDbText
 10
110.11225
 20
390.833333
 30
0.0
 40
2.5
  1
0.93
  7
MONOTXT
 72
     4
 11
114.0
 21
392.083333
 31
0.0
210
0.0
220
0.0
230
1.0
100
AcDbText
  0
TEXT
  5
195
100
AcDbEntity
  8
1
  6
CONTINUOUS
 62
     7
100
AcDbText
 10
123.574167
 20
390.833333
 30
0.0
 40
2.5
  1
1.11
  7
MONOTXT
 72
     4
 11
125.916667
 21
392.083333
 31
0.0
210
0.0
220
0.0
230
1.0
100
AcDbText
  0
TEXT
  5
196
100
AcDbEntity
  8
1
  6
CONTINUOUS
 62
     7
100
AcDbText
 10
136.011167
 20
390.833333
 30
0.0
 40
2.5
  1
1.30
  7
MONOTXT
 72
     4
 11
139.416667
 21
392.083333
 31
0.0
210
0.0
220
0.0
230
1.0
100
AcDbText
  0
TEXT
  5
197
100
AcDbEntity
  8
1
  6
CONTINUOUS
 62
     7
100
AcDbText
 10
149.001333
 20
390.833333
 30
0.0
 40
2.5
  1
1.49
  7
MONOTXT
 72
     4
 11
152.416667
 21
392.083333
 31
0.0
210
0.0
220
0.0
230
1.0
100
AcDbText
  0
TEXT
  5
198
100
AcDbEntity
  8
1
  6
CONTINUOUS
 62
     7
100
AcDbText
 10
162.3005
 20
390.833333
 30
0.0
 40
2.5
  1
1.67
  7
MONOTXT
 72
     4
 11
165.666667
 21
392.083333
 31
0.0
210
0.0
220
0.0
230
1.0
100
AcDbText
  0
TEXT
  5
199
100
AcDbEntity
  8
1
  6
CONTINUOUS
 62
     7
100
AcDbText
 10
175.227083
 20
390.833333
 30
0.0
 40
2.5
  1
1.86
  7
MONOTXT
 72
     4
 11
178.583333
 21
392.083333
 31
0.0
210
0.0
220
0.0
230
1.0
100
AcDbText
  0
TEXT
  5
19A
100
AcDbEntity
  8
1
  6
CONTINUOUS
 62
     7
100
AcDbText
 10
187.8275
 20
390.833333
 30
0.0
 40
2.5
  1
2.04
  7
MONOTXT
 72
     4
 11
191.833333
 21
392.083333
 31
0.0
210
0.0
220
0.0
230
1.0
100
AcDbText
  0
TEXT
  5
19B
100
AcDbEntity
  8
1
  6
CONTINUOUS
 62
     7
100
AcDbText
 10
200.803167
 20
390.833333
 30
0.0
 40
2.5
  1
2.23
  7
MONOTXT
 72
     4
 11
204.75
 21
392.083333
 31
0.0
210
0.0
220
0.0
230
1.0
100
AcDbText
  0
TEXT
  5
19C
100
AcDbEntity
  8
1
  6
CONTINUOUS
 62
     7
100
AcDbText
 10
214.2855
 20
391.083333
 30
0.0
 40
2.5
  1
2.41
  7
MONOTXT
 72
     4
 11
217.75
 21
392.333333
 31
0.0
210
0.0
220
0.0
230
1.0
100
AcDbText
  0
TEXT
  5
19D
100
AcDbEntity
  8
1
  6
CONTINUOUS
 62
     7
100
AcDbText
 10
226.622083
 20
391.333333
 30
0.0
 40
2.5
  1
2.60
  7
MONOTXT
 72
     4
 11
230.5
 21
392.583333
 31
0.0
210
0.0
220
0.0
230
1.0
100
AcDbText
  0
TEXT
  5
19E
100
AcDbEntity
  8
1
  6
CONTINUOUS
 62
     7
100
AcDbText
 10
239.759167
 20
390.833333
 30
0.0
 40
2.5
  1
2.79
  7
MONOTXT
 72
     4
 11
243.666667
 21
392.083333
 31
0.0
210
0.0
220
0.0
230
1.0
100
AcDbText
  0
TEXT
  5
19F
100
AcDbEntity
  8
1
  6
CONTINUOUS
 62
     7
100
AcDbText
 10
252.519
 20
390.583333
 30
0.0
 40
2.5
  1
2.97
  7
MONOTXT
 72
     4
 11
256.416667
 21
391.833333
 31
0.0
210
0.0
220
0.0
230
1.0
100
AcDbText
  0
TEXT
  5
1A0
100
AcDbEntity
  8
1
  6
CONTINUOUS
 62
     7
100
AcDbText
 10
266.227083
 20
390.833333
 30
0.0
 40
2.5
  1
3.16
  7
MONOTXT
 72
     4
 11
269.583333
 21
392.083333
 31
0.0
210
0.0
220
0.0
230
1.0
100
AcDbText
  0
TEXT
  5
1A1
100
AcDbEntity
  8
1
  6
CONTINUOUS
 62
     7
100
AcDbText
 10
278.8275
 20
390.833333
 30
0.0
 40
2.5
  1
3.34
  7
MONOTXT
 72
     4
 11
282.833333
 21
392.083333
 31
0.0
210
0.0
220
0.0
230
1.0
100
AcDbText
  0
TEXT
  5
1A2
100
AcDbEntity
  8
1
  6
CONTINUOUS
 62
     7
100
AcDbText
 10
291.6365
 20
390.833333
 30
0.0
 40
2.5
  1
3.53
  7
MONOTXT
 72
     4
 11
295.583333
 21
392.083333
 31
0.0
210
0.0
220
0.0
230
1.0
100
AcDbText
  0
TEXT
  5
1A3
100
AcDbEntity
  8
1
  6
CONTINUOUS
 62
     7
100
AcDbText
 10
304.7835
 20
390.333333
 30
0.0
 40
2.5
  1
3.72
  7
MONOTXT
 72
     4
 11
308.75
 21
391.583333
 31
0.0
210
0.0
220
0.0
230
1.0
100
AcDbText
  0
TEXT
  5
1A4
100
AcDbEntity
  8
1
  6
CONTINUOUS
 62
     7
100
AcDbText
 10
57.168
 20
379.083333
 30
0.0
 40
2.5
  1
1.83
  7
MONOTXT
 72
     1
 11
60.583333
 21
381.583333
 31
0.0
210
0.0
220
0.0
230
1.0
100
AcDbText
 73
     3
  0
TEXT
  5
1A5
100
AcDbEntity
  8
1
  6
CONTINUOUS
 62
     7
100
AcDbText
 10
57.227083
 20
369.083333
 30
0.0
 40
2.5
  1
1.98
  7
MONOTXT
 72
     1
 11
60.583333
 21
371.583333
 31
0.0
210
0.0
220
0.0
230
1.0
100
AcDbText
 73
     3
  0
TEXT
  5
1A6
100
AcDbEntity
  8
1
  6
CONTINUOUS
 62
     7
100
AcDbText
 10
57.168
 20
359.083333
 30
0.0
 40
2.5
  1
2.13
  7
MONOTXT
 72
     1
 11
60.583333
 21
361.583333
 31
0.0
210
0.0
220
0.0
230
1.0
100
AcDbText
 73
     3
  0
TEXT
  5
1A7
100
AcDbEntity
  8
1
  6
CONTINUOUS
 62
     7
100
AcDbText
 10
56.695583
 20
349.083333
 30
0.0
 40
2.5
  1
2.29
  7
MONOTXT
 72
     1
 11
60.583333
 21
351.583333
 31
0.0
210
0.0
220
0.0
230
1.0
100
AcDbText
 73
     3
  0
TEXT
  5
1A8
100
AcDbEntity
  8
1
  6
CONTINUOUS
 62
     7
100
AcDbText
 10
56.518417
 20
339.083333
 30
0.0
 40
2.5
  1
2.44
  7
MONOTXT
 72
     1
 11
60.583333
 21
341.583333
 31
0.0
210
0.0
220
0.0
230
1.0
100
AcDbText
 73
     3
  0
TEXT
  5
1A9
100
AcDbEntity
  8
1
  6
CONTINUOUS
 62
     7
100
AcDbText
 10
56.695583
 20
329.083333
 30
0.0
 40
2.5
  1
2.59
  7
MONOTXT
 72
     1
 11
60.583333
 21
331.583333
 31
0.0
210
0.0
220
0.0
230
1.0
100
AcDbText
 73
     3
  0
TEXT
  5
1AA
100
AcDbEntity
  8
1
  6
CONTINUOUS
 62
     7
100
AcDbText
 10
56.557833
 20
319.083333
 30
0.0
 40
2.5
  1
2.74
  7
MONOTXT
 72
     1
 11
60.583333
 21
321.583333
 31
0.0
210
0.0
220
0.0
230
1.0
100
AcDbText
 73
     3
  0
TEXT
  5
1AB
100
AcDbEntity
  8
1
  6
CONTINUOUS
 62
     7
100
AcDbText
 10
56.695583
 20
309.083333
 30
0.0
 40
2.5
  1
2.89
  7
MONOTXT
 72
     1
 11
60.583333
 21
311.583333
 31
0.0
210
0.0
220
0.0
230
1.0
100
AcDbText
 73
     3
  0
TEXT
  5
1AC
100
AcDbEntity
  8
1
  6
CONTINUOUS
 62
     7
100
AcDbText
 10
56.5775
 20
299.083333
 30
0.0
 40
2.5
  1
3.04
  7
MONOTXT
 72
     1
 11
60.583333
 21
301.583333
 31
0.0
210
0.0
220
0.0
230
1.0
100
AcDbText
 73
     3
  0
TEXT
  5
1AD
100
AcDbEntity
  8
1
  6
CONTINUOUS
 62
     7
100
AcDbText
 10
56.646333
 20
289.083333
 30
0.0
 40
2.5
  1
3.20
  7
MONOTXT
 72
     1
 11
60.583333
 21
291.583333
 31
0.0
210
0.0
220
0.0
230
1.0
100
AcDbText
 73
     3
  0
TEXT
  5
1AE
100
AcDbEntity
  8
1
  6
CONTINUOUS
 62
     7
100
AcDbText
 10
56.6365
 20
279.083333
 30
0.0
 40
2.5
  1
3.35
  7
MONOTXT
 72
     1
 11
60.583333
 21
281.583333
 31
0.0
210
0.0
220
0.0
230
1.0
100
AcDbText
 73
     3
  0
TEXT
  5
1AF
100
AcDbEntity
  8
1
  6
CONTINUOUS
 62
     7
100
AcDbText
 10
56.646333
 20
269.083333
 30
0.0
 40
2.5
  1
3.50
  7
MONOTXT
 72
     1
 11
60.583333
 21
271.583333
 31
0.0
210
0.0
220
0.0
230
1.0
100
AcDbText
 73
     3
  0
TEXT
  5
1B0
100
AcDbEntity
  8
1
  6
CONTINUOUS
 62
     7
100
AcDbText
 10
56.754667
 20
259.083333
 30
0.0
 40
2.5
  1
3.66
  7
MONOTXT
 72
     1
 11
60.583333
 21
261.583333
 31
0.0
210
0.0
220
0.0
230
1.0
100
AcDbText
 73
     3
  0
TEXT
  5
1B1
100
AcDbEntity
  8
1
  6
CONTINUOUS
 62
     7
100
AcDbText
 10
57.177833
 20
249.083333
 30
0.0
 40
2.5
  1
3.81
  7
MONOTXT
 72
     1
 11
60.583333
 21
251.583333
 31
0.0
210
0.0
220
0.0
230
1.0
100
AcDbText
 73
     3
  0
TEXT
  5
1B2
100
AcDbEntity
  8
1
  6
CONTINUOUS
 62
     7
100
AcDbText
 10
56.754667
 20
239.083333
 30
0.0
 40
2.5
  1
3.96
  7
MONOTXT
 72
     1
 11
60.583333
 21
241.583333
 31
0.0
210
0.0
220
0.0
230
1.0
100
AcDbText
 73
     3
  0
TEXT
  5
1B3
100
AcDbEntity
  8
1
  6
CONTINUOUS
 62
     7
100
AcDbText
 10
57.650333
 20
229.083333
 30
0.0
 40
2.5
  1
4.11
  7
MONOTXT
 72
     1
 11
60.583333
 21
231.583333
 31
0.0
210
0.0
220
0.0
230
1.0
100
AcDbText
 73
     3
  0
TEXT
  5
1B4
100
AcDbEntity
  8
1
  6
CONTINUOUS
 62
     7
100
AcDbText
 10
56.567667
 20
219.083333
 30
0.0
 40
2.5
  1
4.27
  7
MONOTXT
 72
     1
 11
60.583333
 21
221.583333
 31
0.0
210
0.0
220
0.0
230
1.0
100
AcDbText
 73
     3
  0
TEXT
  5
1B5
100
AcDbEntity
  8
1
  6
CONTINUOUS
 62
     7
100
AcDbText
 10
56.518417
 20
209.083333
 30
0.0
 40
2.5
  1
4.42
  7
MONOTXT
 72
     1
 11
60.583333
 21
211.583333
 31
0.0
210
0.0
220
0.0
230
1.0
100
AcDbText
 73
     3
  0
TEXT
  5
1B6
100
AcDbEntity
  8
1
  6
CONTINUOUS
 62
     7
100
AcDbText
 10
56.5085
 20
199.083333
 30
0.0
 40
2.5
  1
4.47
  7
MONOTXT
 72
     1
 11
60.583333
 21
201.583333
 31
0.0
210
0.0
220
0.0
230
1.0
100
AcDbText
 73
     3
  0
TEXT
  5
1B7
100
AcDbEntity
  8
1
  6
CONTINUOUS
 62
     7
100
AcDbText
 10
318.668
 20
379.833333
 30
0.0
 40
2.5
  1
1.83
  7
MONOTXT
 72
     1
 11
322.083333
 21
382.333333
 31
0.0
210
0.0
220
0.0
230
1.0
100
AcDbText
 73
     3
  0
TEXT
  5
1B8
100
AcDbEntity
  8
1
  6
CONTINUOUS
 62
     7
100
AcDbText
 10
318.727083
 20
369.833333
 30
0.0
 40
2.5
  1
1.98
  7
MONOTXT
 72
     1
 11
322.083333
 21
372.333333
 31
0.0
210
0.0
220
0.0
230
1.0
100
AcDbText
 73
     3
  0
TEXT
  5
1B9
100
AcDbEntity
  8
1
  6
CONTINUOUS
 62
     7
100
AcDbText
 10
318.668
 20
359.833333
 30
0.0
 40
2.5
  1
2.13
  7
MONOTXT
 72
     1
 11
322.083333
 21
362.333333
 31
0.0
210
0.0
220
0.0
230
1.0
100
AcDbText
 73
     3
  0
TEXT
  5
1BA
100
AcDbEntity
  8
1
  6
CONTINUOUS
 62
     7
100
AcDbText
 10
318.195583
 20
349.833333
 30
0.0
 40
2.5
  1
2.29
  7
MONOTXT
 72
     1
 11
322.083333
 21
352.333333
 31
0.0
210
0.0
220
0.0
230
1.0
100
AcDbText
 73
     3
  0
TEXT
  5
1BB
100
AcDbEntity
  8
1
  6
CONTINUOUS
 62
     7
100
AcDbText
 10
318.018417
 20
339.833333
 30
0.0
 40
2.5
  1
2.44
  7
MONOTXT
 72
     1
 11
322.083333
 21
342.333333
 31
0.0
210
0.0
220
0.0
230
1.0
100
AcDbText
 73
     3
  0
TEXT
  5
1BC
100
AcDbEntity
  8
1
  6
CONTINUOUS
 62
     7
100
AcDbText
 10
318.195583
 20
329.833333
 30
0.0
 40
2.5
  1
2.59
  7
MONOTXT
 72
     1
 11
322.083333
 21
332.333333
 31
0.0
210
0.0
220
0.0
230
1.0
100
AcDbText
 73
     3
  0
TEXT
  5
1BD
100
AcDbEntity
  8
1
  6
CONTINUOUS
 62
     7
100
AcDbText
 10
318.057833
 20
319.833333
 30
0.0
 40
2.5
  1
2.74
  7
MONOTXT
 72
     1
 11
322.083333
 21
322.333333
 31
0.0
210
0.0
220
0.0
230
1.0
100
AcDbText
 73
     3
  0
TEXT
  5
1BE
100
AcDbEntity
  8
1
  6
CONTINUOUS
 62
     7
100
AcDbText
 10
318.195583
 20
309.833333
 30
0.0
 40
2.5
  1
2.89
  7
MONOTXT
 72
     1
 11
322.083333
 21
312.333333
 31
0.0
210
0.0
220
0.0
230
1.0
100
AcDbText
 73
     3
  0
TEXT
  5
1BF
100
AcDbEntity
  8
1
  6
CONTINUOUS
 62
     7
100
AcDbText
 10
318.0775
 20
299.833333
 30
0.0
 40
2.5
  1
3.04
  7
MONOTXT
 72
     1
 11
322.083333
 21
302.333333
 31
0.0
210
0.0
220
0.0
230
1.0
100
AcDbText
 73
     3
  0
TEXT
  5
1C0
100
AcDbEntity
  8
1
  6
CONTINUOUS
 62
     7
100
AcDbText
 10
318.146333
 20
289.833333
 30
0.0
 40
2.5
  1
3.20
  7
MONOTXT
 72
     1
 11
322.083333
 21
292.333333
 31
0.0
210
0.0
220
0.0
230
1.0
100
AcDbText
 73
     3
  0
TEXT
  5
1C1
100
AcDbEntity
  8
1
  6
CONTINUOUS
 62
     7
100
AcDbText
 10
318.1365
 20
279.833333
 30
0.0
 40
2.5
  1
3.35
  7
MONOTXT
 72
     1
 11
322.083333
 21
282.333333
 31
0.0
210
0.0
220
0.0
230
1.0
100
AcDbText
 73
     3
  0
TEXT
  5
1C2
100
AcDbEntity
  8
1
  6
CONTINUOUS
 62
     7
100
AcDbText
 10
318.146333
 20
269.833333
 30
0.0
 40
2.5
  1
3.50
  7
MONOTXT
 72
     1
 11
322.083333
 21
272.333333
 31
0.0
210
0.0
220
0.0
230
1.0
100
AcDbText
 73
     3
  0
TEXT
  5
1C3
100
AcDbEntity
  8
1
  6
CONTINUOUS
 62
     7
100
AcDbText
 10
318.254667
 20
259.833333
 30
0.0
 40
2.5
  1
3.66
  7
MONOTXT
 72
     1
 11
322.083333
 21
262.333333
 31
0.0
210
0.0
220
0.0
230
1.0
100
AcDbText
 73
     3
  0
TEXT
  5
1C4
100
AcDbEntity
  8
1
  6
CONTINUOUS
 62
     7
100
AcDbText
 10
318.677833
 20
249.833333
 30
0.0
 40
2.5
  1
3.81
  7
MONOTXT
 72
     1
 11
322.083333
 21
252.333333
 31
0.0
210
0.0
220
0.0
230
1.0
100
AcDbText
 73
     3
  0
TEXT
  5
1C5
100
AcDbEntity
  8
1
  6
CONTINUOUS
 62
     7
100
AcDbText
 10
318.254667
 20
239.833333
 30
0.0
 40
2.5
  1
3.96
  7
MONOTXT
 72
     1
 11
322.083333
 21
242.333333
 31
0.0
210
0.0
220
0.0
230
1.0
100
AcDbText
 73
     3
  0
TEXT
  5
1C6
100
AcDbEntity
  8
1
  6
CONTINUOUS
 62
     7
100
AcDbText
 10
319.150333
 20
229.833333
 30
0.0
 40
2.5
  1
4.11
  7
MONOTXT
 72
     1
 11
322.083333
 21
232.333333
 31
0.0
210
0.0
220
0.0
230
1.0
100
AcDbText
 73
     3
  0
TEXT
  5
1C7
100
AcDbEntity
  8
1
  6
CONTINUOUS
 62
     7
100
AcDbText
 10
318.067667
 20
219.833333
 30
0.0
 40
2.5
  1
4.27
  7
MONOTXT
 72
     1
 11
322.083333
 21
222.333333
 31
0.0
210
0.0
220
0.0
230
1.0
100
AcDbText
 73
     3
  0
TEXT
  5
1C8
100
AcDbEntity
  8
1
  6
CONTINUOUS
 62
     7
100
AcDbText
 10
318.018417
 20
209.833333
 30
0.0
 40
2.5
  1
4.42
  7
MONOTXT
 72
     1
 11
322.083333
 21
212.333333
 31
0.0
210
0.0
220
0.0
230
1.0
100
AcDbText
 73
     3
  0
TEXT
  5
1C9
100
AcDbEntity
  8
1
  6
CONTINUOUS
 62
     7
100
AcDbText
 10
318.0085
 20
199.833333
 30
0.0
 40
2.5
  1
4.47
  7
MONOTXT
 72
     1
 11
322.083333
 21
202.333333
 31
0.0
210
0.0
220
0.0
230
1.0
100
AcDbText
 73
     3
  0
TEXT
  5
1CA
100
AcDbEntity
  8
1
  6
CONTINUOUS
 62
     7
100
AcDbText
 10
333.684833
 20
245.8145
 30
0.0
 40
3.0
  1
DIMENSION FROM GROUND TO CENTER
 50
90.0
  7
MONOTXT
 72
     4
 11
332.184833
 21
290.472
 31
0.0
210
0.0
220
0.0
230
1.0
100
AcDbText
  0
TEXT
  5
1CB
100
AcDbEntity
  8
1
  6
CONTINUOUS
 62
     7
100
AcDbText
 10
338.684833
 20
241.373583
 30
0.0
 40
3.0
  1
OF PRESSURE ON SIGN ("CP" IN METERS)
 50
90.0
  7
MONOTXT
 72
     4
 11
337.184833
 21
290.472
 31
0.0
210
0.0
220
0.0
230
1.0
100
AcDbText
  0
TEXT
  5
1CC
100
AcDbEntity
  8
1
  6
CONTINUOUS
 62
     7
100
AcDbText
 10
48.3515
 20
248.397833
 30
0.0
 40
3.0
  1
DIMENSION FROM GROUND TO CENTER
 50
90.0
  7
MONOTXT
 72
     4
 11
46.8515
 21
293.055333
 31
0.0
210
0.0
220
0.0
230
1.0
100
AcDbText
  0
TEXT
  5
1CD
100
AcDbEntity
  8
1
  6
CONTINUOUS
 62
     7
100
AcDbText
 10
53.3515
 20
243.956917
 30
0.0
 40
3.0
  1
OF PRESSURE ON SIGN ("CP" IN METERS)
 50
90.0
  7
MONOTXT
 72
     4
 11
51.8515
 21
293.055333
 31
0.0
210
0.0
220
0.0
230
1.0
100
AcDbText
  0
TEXT
  5
1CE
100
AcDbEntity
  8
1
  6
CONTINUOUS
 62
     7
100
AcDbText
 10
113.11975
 20
322.557917
 30
0.0
 40
7.0
  1
2.98Kg/m
 50
45.0
  7
TXT
 72
     4
 11
124.267171
 21
338.655085
 31
0.0
210
0.0
220
0.0
230
1.0
100
AcDbText
  0
TEXT
  5
1CF
100
AcDbEntity
  8
1
  6
CONTINUOUS
 62
     7
100
AcDbText
 10
192.212833
 20
270.3135
 30
0.0
 40
7.0
  1
4.50Kg/m
 50
45.0
  7
TXT
 72
     4
 11
203.360254
 21
286.410668
 31
0.0
210
0.0
220
0.0
230
1.0
100
AcDbText
  0
TEXT
  5
1D0
100
AcDbEntity
  8
1
  6
CONTINUOUS
 62
     7
100
AcDbText
 10
256.1945
 20
224.24475
 30
0.0
 40
7.0
  1
5.96Kg/m*
 50
45.0
  7
TXT
 72
     4
 11
269.083289
 21
242.083286
 31
0.0
210
0.0
220
0.0
230
1.0
100
AcDbText
  0
TEXT
  5
1D1
100
AcDbEntity
  8
1
  6
CONTINUOUS
 62
     7
100
AcDbText
 10
306.611167
 20
152.74475
 30
0.0
 40
7.0
  1
9.00Kg/m*
 50
45.0
  7
TXT
 72
     4
 11
319.499956
 21
170.583286
 31
0.0
210
0.0
220
0.0
230
1.0
100
AcDbText
  0
CIRCLE
  5
1D2
100
AcDbEntity
  8
1
  6
CONTINUOUS
 62
     7
100
AcDbCircle
 10
282.166667
 20
257.083333
 30
0.0
 40
2.124591
210
0.0
220
0.0
230
1.0
  0
LINE
  5
1D3
100
AcDbEntity
  8
1
  6
CONTINUOUS
 62
     7
100
AcDbLine
 10
304.333333
 20
153.916667
 30
0.0
 11
296.666667
 21
146.741417
 31
0.0
  0
LINE
  5
1D4
100
AcDbEntity
  8
61
  6
CONTINUOUS
 62
     2
100
AcDbLine
 10
670.25
 20
433.333333
 30
0.0
 11
556.0
 21
433.333333
 31
0.0
  0
LINE
  5
1D5
100
AcDbEntity
  8
61
  6
CONTINUOUS
 62
     2
100
AcDbLine
 10
556.0
 20
433.333333
 30
0.0
 11
556.0
 21
412.166667
 31
0.0
  0
LINE
  5
1D6
100
AcDbEntity
  8
61
  6
CONTINUOUS
 62
     2
100
AcDbLine
 10
670.25
 20
433.333333
 30
0.0
 11
670.25
 21
412.166667
 31
0.0
  0
LINE
  5
1D7
100
AcDbEntity
  8
61
  6
CONTINUOUS
 62
     2
100
AcDbLine
 10
670.25
 20
412.166667
 30
0.0
 11
556.0
 21
412.166667
 31
0.0
  0
LINE
  5
1D8
100
AcDbEntity
  8
61
  6
CONTINUOUS
 62
     2
100
AcDbLine
 10
670.25
 20
422.75
 30
0.0
 11
556.0
 21
422.75
 31
0.0
  0
LINE
  5
1D9
100
AcDbEntity
  8
61
  6
CONTINUOUS
 62
     2
100
AcDbLine
 10
566.583333
 20
433.333333
 30
0.0
 11
566.583333
 21
412.166667
 31
0.0
  0
LINE
  5
1DA
100
AcDbEntity
  8
61
  6
CONTINUOUS
 62
     2
100
AcDbLine
 10
577.166667
 20
433.333333
 30
0.0
 11
577.166667
 21
412.166667
 31
0.0
  0
LINE
  5
1DB
100
AcDbEntity
  8
61
  6
CONTINUOUS
 62
     2
100
AcDbLine
 10
591.666667
 20
433.333333
 30
0.0
 11
591.666667
 21
412.166667
 31
0.0
  0
LINE
  5
1DC
100
AcDbEntity
  8
61
  6
CONTINUOUS
 62
     2
100
AcDbLine
 10
659.666667
 20
433.333333
 30
0.0
 11
659.666667
 21
412.166667
 31
0.0
  0
LINE
  5
1DD
100
AcDbEntity
  8
61
  6
CONTINUOUS
 62
     2
100
AcDbLine
 10
649.083333
 20
433.333333
 30
0.0
 11
649.083333
 21
412.166667
 31
0.0
  0
LINE
  5
1DE
100
AcDbEntity
  8
61
  6
CONTINUOUS
 62
     2
100
AcDbLine
 10
625.833333
 20
433.333333
 30
0.0
 11
625.833333
 21
412.166667
 31
0.0
  0
LINE
  5
1DF
100
AcDbEntity
  8
61
  6
CONTINUOUS
 62
     2
100
AcDbLine
 10
615.25
 20
433.333333
 30
0.0
 11
615.25
 21
412.166667
 31
0.0
  0
TEXT
  5
1E0
100
AcDbEntity
  8
61
  6
CONTINUOUS
 62
     2
100
AcDbText
 10
558.166667
 20
430.083333
 30
0.0
 40
1.2705
  1
PUBLIC
 50
0.033272
 41
1.001968
  7
MONOTXT
210
0.0
220
0.0
230
1.0
100
AcDbText
  0
TEXT
  5
1E1
100
AcDbEntity
  8
61
  6
CONTINUOUS
 62
     2
100
AcDbText
 10
558.25
 20
427.416667
 30
0.0
 40
1.2705
  1
ROADS
 50
0.124322
 41
0.996852
  7
MONOTXT
210
0.0
220
0.0
230
1.0
100
AcDbText
  0
TEXT
  5
1E2
100
AcDbEntity
  8
61
  6
CONTINUOUS
 62
     2
100
AcDbText
 10
559.5
 20
424.833333
 30
0.0
 40
1.2705
  1
DIV.
 50
359.931522
 41
0.994884
  7
MONOTXT
210
0.0
220
0.0
230
1.0
100
AcDbText
  0
TEXT
  5
1E3
100
AcDbEntity
  8
61
  6
CONTINUOUS
 62
     2
100
AcDbText
 10
568.916667
 20
430.166667
 30
0.0
 40
1.2705
  1
STATE
 50
0.058969
 41
0.998032
  7
MONOTXT
210
0.0
220
0.0
230
1.0
100
AcDbText
  0
TEXT
  5
1E4
100
AcDbEntity
  8
61
  6
CONTINUOUS
 62
     2
100
AcDbText
 10
569.833333
 20
427.5
 30
0.0
 40
1.2705
  1
DIST.
 50
0.055889
 41
0.999606
  7
MONOTXT
210
0.0
220
0.0
230
1.0
100
AcDbText
  0
TEXT
  5
1E5
100
AcDbEntity
  8
61
  6
CONTINUOUS
 62
     2
100
AcDbText
 10
570.416667
 20
424.833333
 30
0.0
 40
1.2705
  1
NO.
 50
359.852072
 41
0.997639
  7
MONOTXT
210
0.0
220
0.0
230
1.0
100
AcDbText
  0
TEXT
  5
1E6
100
AcDbEntity
  8
61
  6
CONTINUOUS
 62
     2
100
AcDbText
 10
581.583333
 20
430.083333
 30
0.0
 40
1.2705
  1
STATE
 50
0.058969
 41
0.998032
  7
MONOTXT
210
0.0
220
0.0
230
1.0
100
AcDbText
  0
TEXT
  5
1E7
100
AcDbEntity
  8
61
  6
CONTINUOUS
 62
     2
100
AcDbText
 10
580.416667
 20
427.583333
 30
0.0
 40
1.2705
  1
PROJECT
 50
359.908431
  7
MONOTXT
210
0.0
220
0.0
230
1.0
100
AcDbText
  0
TEXT
  5
1E8
100
AcDbEntity
  8
61
  6
CONTINUOUS
 62
     2
100
AcDbText
 10
583.333333
 20
424.833333
 30
0.0
 40
1.2705
  1
NO.
 50
0.225453
 41
0.993703
  7
MONOTXT
210
0.0
220
0.0
230
1.0
100
AcDbText
  0
TEXT
  5
1E9
100
AcDbEntity
  8
61
  6
CONTINUOUS
 62
     2
100
AcDbText
 10
599.916667
 20
428.916667
 30
0.0
 40
1.2695
  1
FEDERAL
 50
0.006714
 41
0.998425
  7
MONOTXT
210
0.0
220
0.0
230
1.0
100
AcDbText
  0
TEXT
  5
1EA
100
AcDbEntity
  8
61
  6
CONTINUOUS
 62
     2
100
AcDbText
 10
598.25
 20
426.083333
 30
0.0
 40
1.2705
  1
PROJECT NO.
 50
359.921531
 41
1.000787
  7
MONOTXT
210
0.0
220
0.0
230
1.0
100
AcDbText
  0
TEXT
  5
1EB
100
AcDbEntity
  8
61
  6
CONTINUOUS
 62
     2
100
AcDbText
 10
617.583333
 20
428.833333
 30
0.0
 40
1.2705
  1
FISCAL
 50
359.941939
 41
0.998819
  7
MONOTXT
210
0.0
220
0.0
230
1.0
100
AcDbText
  0
TEXT
  5
1EC
100
AcDbEntity
  8
61
  6
CONTINUOUS
 62
     2
100
AcDbText
 10
618.166667
 20
425.833333
 30
0.0
 40
1.2695
  1
YEAR
 50
0.104606
 41
0.993304
  7
MONOTXT
210
0.0
220
0.0
230
1.0
100
AcDbText
  0
TEXT
  5
1ED
100
AcDbEntity
  8
61
  6
CONTINUOUS
 62
     2
100
AcDbText
 10
633.083333
 20
427.25
 30
0.0
 40
1.2695
  1
COUNTY
 50
0.068575
 41
1.001969
  7
MONOTXT
210
0.0
220
0.0
230
1.0
100
AcDbText
  0
TEXT
  5
1EE
100
AcDbEntity
  8
61
  6
CONTINUOUS
 62
     2
100
AcDbText
 10
651.75
 20
429.0
 30
0.0
 40
1.2705
  1
SHEET
 50
0.058969
 41
0.997639
  7
MONOTXT
210
0.0
220
0.0
230
1.0
100
AcDbText
  0
TEXT
  5
1EF
100
AcDbEntity
  8
61
  6
CONTINUOUS
 62
     2
100
AcDbText
 10
653.25
 20
426.083333
 30
0.0
 40
1.2705
  1
NO.
 50
359.852072
 41
0.997639
  7
MONOTXT
210
0.0
220
0.0
230
1.0
100
AcDbText
  0
TEXT
  5
1F0
100
AcDbEntity
  8
61
  6
CONTINUOUS
 62
     2
100
AcDbText
 10
662.083333
 20
428.833333
 30
0.0
 40
1.2705
  1
TOTAL
 50
359.926039
 41
0.998426
  7
MONOTXT
210
0.0
220
0.0
230
1.0
100
AcDbText
  0
TEXT
  5
1F1
100
AcDbEntity
  8
61
  6
CONTINUOUS
 62
     2
100
AcDbText
 10
661.583333
 20
426.0
 30
0.0
 40
1.2695
  1
SHEETS
 50
359.958675
  7
MONOTXT
210
0.0
220
0.0
230
1.0
100
AcDbText
  0
TEXT
  5
1F2
100
AcDbEntity
  8
61
  6
CONTINUOUS
 62
     2
100
AcDbText
 10
569.333333
 20
416.583333
 30
0.0
 40
2.541
  1
  
 50
0.029406
 41
0.996655
  7
MONOTXT
210
0.0
220
0.0
230
1.0
100
AcDbText
  0
TEXT
  5
1F3
100
AcDbEntity
  8
61
  6
CONTINUOUS
 62
     2
100
AcDbText
 10
651.0
 20
416.333333
 30
0.0
 40
2.541
  1
   
 50
0.011508
 41
1.000984
  7
MONOTXT
210
0.0
220
0.0
230
1.0
100
AcDbText
  0
TEXT
  5
1F4
100
AcDbEntity
  8
61
  6
CONTINUOUS
 62
     2
100
AcDbText
 10
661.5
 20
416.25
 30
0.0
 40
2.541
  1
   
 50
359.922128
 41
1.00059
  7
MONOTXT
210
0.0
220
0.0
230
1.0
100
AcDbText
  0
TEXT
  5
1F5
100
AcDbEntity
  8
61
  6
CONTINUOUS
 62
     2
100
AcDbText
 10
580.333333
 20
419.916667
 30
0.0
 40
2.1235
  1
    
 50
0.054383
 41
0.993643
  7
MONOTXT
210
0.0
220
0.0
230
1.0
100
AcDbText
  0
TEXT
  5
1F6
100
AcDbEntity
  8
61
  6
CONTINUOUS
 62
     2
100
AcDbText
 10
577.25
 20
416.666667
 30
0.0
 40
2.1055
  1
       
 50
0.064678
 41
1.00095
  7
MONOTXT
210
0.0
220
0.0
230
1.0
100
AcDbText
  0
TEXT
  5
1F7
100
AcDbEntity
  8
61
  6
CONTINUOUS
 62
     2
100
AcDbText
 10
578.333333
 20
413.583333
 30
0.0
 40
2.105499
  1
      
 50
359.958053
 41
1.000237
  7
MONOTXT
210
0.0
220
0.0
230
1.0
100
AcDbText
  0
TEXT
  5
1F8
100
AcDbEntity
  8
61
  6
CONTINUOUS
 62
     2
100
AcDbText
 10
589.916667
 20
418.5
 30
0.0
 40
2.541
  1
           
 50
0.011508
 41
0.998819
  7
MONOTXT
210
0.0
220
0.0
230
1.0
100
AcDbText
  0
TEXT
  5
1F9
100
AcDbEntity
  8
61
  6
CONTINUOUS
 62
     2
100
AcDbText
 10
589.75
 20
414.666667
 30
0.0
 40
2.541
  1
           
 50
0.011508
 41
0.999606
  7
MONOTXT
210
0.0
220
0.0
230
1.0
100
AcDbText
  0
TEXT
  5
1FA
100
AcDbEntity
  8
61
  6
CONTINUOUS
 62
     2
100
AcDbText
 10
627.166667
 20
416.5
 30
0.0
 40
2.1235
  1
          
 50
0.009222
 41
0.992701
  7
MONOTXT
210
0.0
220
0.0
230
1.0
100
AcDbText
  0
LINE
  5
1FB
100
AcDbEntity
  8
1
  6
CONTINUOUS
 62
     2
100
AcDbLine
 10
491.166667
 20
-2.583333
 30
0.0
 11
491.166667
 21
94.333333
 31
0.0
  0
LINE
  5
1FC
100
AcDbEntity
  8
1
  6
CONTINUOUS
 62
     2
100
AcDbLine
 10
491.166667
 20
94.333333
 30
0.0
 11
672.833333
 21
94.333333
 31
0.0
  0
LINE
  5
1FD
100
AcDbEntity
  8
1
  6
CONTINUOUS
 62
     2
100
AcDbLine
 10
528.25
 20
-2.583333
 30
0.0
 11
528.25
 21
50.0
 31
0.0
  0
LINE
  5
1FE
100
AcDbEntity
  8
1
  6
CONTINUOUS
 62
     2
100
AcDbLine
 10
528.25
 20
50.0
 30
0.0
 11
491.166667
 21
50.0
 31
0.0
  0
LINE
  5
1FF
100
AcDbEntity
  8
1
  6
CONTINUOUS
 62
     2
100
AcDbLine
 10
528.25
 20
45.25
 30
0.0
 11
491.166667
 21
45.25
 31
0.0
  0
LINE
  5
200
100
AcDbEntity
  8
1
  6
CONTINUOUS
 62
     2
100
AcDbLine
 10
528.25
 20
35.5
 30
0.0
 11
491.166667
 21
35.5
 31
0.0
  0
LINE
  5
201
100
AcDbEntity
  8
1
  6
CONTINUOUS
 62
     2
100
AcDbLine
 10
528.25
 20
30.666667
 30
0.0
 11
491.166667
 21
30.666667
 31
0.0
  0
LINE
  5
202
100
AcDbEntity
  8
1
  6
CONTINUOUS
 62
     2
100
AcDbLine
 10
528.25
 20
25.916667
 30
0.0
 11
491.166667
 21
25.916667
 31
0.0
  0
LINE
  5
203
100
AcDbEntity
  8
1
  6
CONTINUOUS
 62
     2
100
AcDbLine
 10
528.25
 20
21.166667
 30
0.0
 11
491.166667
 21
21.166667
 31
0.0
  0
LINE
  5
204
100
AcDbEntity
  8
1
  6
CONTINUOUS
 62
     2
100
AcDbLine
 10
528.25
 20
16.416667
 30
0.0
 11
491.166667
 21
16.416667
 31
0.0
  0
LINE
  5
205
100
AcDbEntity
  8
1
  6
CONTINUOUS
 62
     2
100
AcDbLine
 10
528.25
 20
11.666667
 30
0.0
 11
491.166667
 21
11.666667
 31
0.0
  0
LINE
  5
206
100
AcDbEntity
  8
1
  6
CONTINUOUS
 62
     2
100
AcDbLine
 10
528.25
 20
6.916667
 30
0.0
 11
491.166667
 21
6.916667
 31
0.0
  0
LINE
  5
207
100
AcDbEntity
  8
1
  6
CONTINUOUS
 62
     2
100
AcDbLine
 10
528.25
 20
2.166667
 30
0.0
 11
491.166667
 21
2.166667
 31
0.0
  0
TEXT
  5
208
100
AcDbEntity
  8
1
  6
CONTINUOUS
 62
     2
100
AcDbText
 10
502.083333
 20
46.833333
 30
0.0
 40
2.114
  1
REVISIONS
  7
MONOTXT
210
0.0
220
0.0
230
1.0
100
AcDbText
  0
TEXT
  5
209
100
AcDbEntity
  8
1
  6
CONTINUOUS
 62
     2
100
AcDbText
 10
493.25
 20
51.0
 30
0.0
 40
2.114
  1
PREPARED:   /  /  
  7
MONOTXT
210
0.0
220
0.0
230
1.0
100
AcDbText
  0
TEXT
  5
20B
100
AcDbEntity
  8
1
  6
CONTINUOUS
 62
     2
100
AcDbText
 10
525.666667
 20
85.25
 30
0.0
 40
5.0745
  1
WEST VIRGINIA DIVISION OF HIGHWAYS
  7
ROMANT
 72
     1
 11
582.784667
 21
90.3245
 31
0.0
210
0.0
220
0.0
230
1.0
100
AcDbText
 73
     3
  0
TEXT
  5
20C
100
AcDbEntity
  8
1
  6
CONTINUOUS
 62
     2
100
AcDbText
 10
537.083333
 20
73.416667
 30
0.0
 40
7.4005
  1
STANDARD DETAIL
  7
TXT
 72
     1
 11
584.168417
 21
80.817167
 31
0.0
210
0.0
220
0.0
230
1.0
100
AcDbText
 73
     3
  0
TEXT
  5
20D
100
AcDbEntity
  8
1
  6
CONTINUOUS
 62
     2
100
AcDbText
 10
532.25
 20
1.75
 30
0.0
 40
7.4005
  1
STANDARD SHEET TE1-7C
  7
TXT
210
0.0
220
0.0
230
1.0
100
AcDbText
  0
TEXT
  5
20E
100
AcDbEntity
  8
1
  6
CONTINUOUS
 62
     2
100
AcDbText
 10
501.0
 20
36.416667
 30
0.0
 40
2.1165
  1
        
  7
MONOTXT
 72
     1
 11
509.11325
 21
38.533167
 31
0.0
210
0.0
220
0.0
230
1.0
100
AcDbText
 73
     3
  0
TEXT
  5
20F
100
AcDbEntity
  8
1
  6
CONTINUOUS
 62
     2
100
AcDbText
 10
501.0
 20
31.75
 30
0.0
 40
2.1165
  1
        
  7
MONOTXT
 72
     1
 11
509.11325
 21
33.8665
 31
0.0
210
0.0
220
0.0
230
1.0
100
AcDbText
 73
     3
  0
TEXT
  5
210
100
AcDbEntity
  8
1
  6
CONTINUOUS
 62
     2
100
AcDbText
 10
501.0
 20
27.166667
 30
0.0
 40
2.1165
  1
        
  7
MONOTXT
 72
     1
 11
509.11325
 21
29.283167
 31
0.0
210
0.0
220
0.0
230
1.0
100
AcDbText
 73
     3
  0
TEXT
  5
211
100
AcDbEntity
  8
1
  6
CONTINUOUS
 62
     2
100
AcDbText
 10
501.0
 20
22.5
 30
0.0
 40
2.1165
  1
        
  7
MONOTXT
 72
     1
 11
509.11325
 21
24.6165
 31
0.0
210
0.0
220
0.0
230
1.0
100
AcDbText
 73
     3
  0
TEXT
  5
212
100
AcDbEntity
  8
1
  6
CONTINUOUS
 62
     2
100
AcDbText
 10
500.833333
 20
17.583333
 30
0.0
 40
2.1165
  1
        
  7
MONOTXT
 72
     1
 11
508.946583
 21
19.699833
 31
0.0
210
0.0
220
0.0
230
1.0
100
AcDbText
 73
     3
  0
TEXT
  5
213
100
AcDbEntity
  8
1
  6
CONTINUOUS
 62
     2
100
AcDbText
 10
501.0
 20
12.833333
 30
0.0
 40
2.1165
  1
        
  7
MONOTXT
 72
     1
 11
509.11325
 21
14.949833
 31
0.0
210
0.0
220
0.0
230
1.0
100
AcDbText
 73
     3
  0
TEXT
  5
214
100
AcDbEntity
  8
1
  6
CONTINUOUS
 62
     2
100
AcDbText
 10
500.916667
 20
8.0
 30
0.0
 40
2.1165
  1
        
  7
MONOTXT
 72
     1
 11
509.029917
 21
10.1165
 31
0.0
210
0.0
220
0.0
230
1.0
100
AcDbText
 73
     3
  0
TEXT
  5
215
100
AcDbEntity
  8
1
  6
CONTINUOUS
 62
     2
100
AcDbText
 10
501.0
 20
3.166667
 30
0.0
 40
2.1165
  1
        
  7
MONOTXT
 72
     1
 11
509.11325
 21
5.283167
 31
0.0
210
0.0
220
0.0
230
1.0
100
AcDbText
 73
     3
  0
TEXT
  5
216
100
AcDbEntity
  8
1
  6
CONTINUOUS
 62
     2
100
AcDbText
 10
501.0
 20
-1.083333
 30
0.0
 40
2.1165
  1
        
  7
MONOTXT
 72
     1
 11
509.11325
 21
1.033167
 31
0.0
210
0.0
220
0.0
230
1.0
100
AcDbText
 73
     3
  0
LINE
  5
217
100
AcDbEntity
  8
1
  6
CONTINUOUS
 62
     2
100
AcDbLine
 10
672.833333
 20
-2.583333
 30
0.0
 11
672.833333
 21
94.333333
 31
0.0
  0
LINE
  5
218
100
AcDbEntity
  8
1
  6
CONTINUOUS
 62
     7
100
AcDbLine
 10
672.833333
 20
435.833333
 30
0.0
 11
13.083333
 21
435.75
 31
0.0
  0
LINE
  5
219
100
AcDbEntity
  8
1
  6
CONTINUOUS
 62
     7
100
AcDbLine
 10
13.083333
 20
435.75
 30
0.0
 11
13.166667
 21
-2.583333
 31
0.0
  0
LINE
  5
21A
100
AcDbEntity
  8
1
  6
CONTINUOUS
 62
     7
100
AcDbLine
 10
672.833333
 20
-2.583333
 30
0.0
 11
672.833333
 21
435.833333
 31
0.0
  0
LINE
  5
21B
100
AcDbEntity
  8
61
  6
CONTINUOUS
 62
     2
100
AcDbLine
 10
672.833333
 20
-2.583333
 30
0.0
 11
545.583333
 21
-2.583333
 31
0.0
  0
TEXT
  5
21C
100
AcDbEntity
  8
61
  6
CONTINUOUS
 62
     2
100
AcDbText
 10
647.416667
 20
402.416667
 30
0.0
 40
2.5455
  1
     
 41
1.001375
  7
MONOTXT
210
0.0
220
0.0
230
1.0
100
AcDbText
  0
INSERT
  5
221
100
AcDbEntity
  8
1
  6
CONTINUOUS
 62
     1
100
AcDbBlockReference
  2
PT
 10
678.083333
 20
-12.0
 30
0.0
 41
269.385512
 42
269.385512
210
0.0
220
0.0
230
1.0
  0
LINE
  5
222
100
AcDbEntity
  8
1
  6
CONTINUOUS
 62
     7
100
AcDbLine
 10
672.833333
 20
-2.583333
 30
0.0
 11
13.166667
 21
-2.583333
 31
0.0
  0
LINE
  5
223
100
AcDbEntity
  8
1
  6
CONTINUOUS
 62
     2
100
AcDbLine
 10
672.833333
 20
-2.583333
 30
0.0
 11
672.833333
 21
435.833333
 31
0.0
  0
TEXT
  5
224
100
AcDbEntity
  8
CONSTRUCTION_CLASS
  6
CONTINUOUS
 62
     3
100
AcDbText
 10
558.583333
 20
416.0
 30
0.0
 40
2.54
  1
WV
  7
MONOTXT
210
0.0
220
0.0
230
1.0
100
AcDbText
  0
TEXT
  5
225
100
AcDbEntity
  8
61
  6
CONTINUOUS
 62
     2
100
AcDbText
 10
618.166667
 20
416.416667
 30
0.0
 40
2.541
  1
  
 50
0.029406
 41
0.996655
  7
MONOTXT
210
0.0
220
0.0
230
1.0
100
AcDbText
  0
LINE
  5
226
100
AcDbEntity
  8
61
  6
CONTINUOUS
 62
     2
100
AcDbLine
 10
672.833333
 20
-2.583333
 30
0.0
 11
545.583333
 21
-2.583333
 31
0.0
  0
LINE
  5
227
100
AcDbEntity
  8
61
  6
CONTINUOUS
 62
     2
100
AcDbLine
 10
672.833333
 20
-2.583333
 30
0.0
 11
545.833333
 21
-2.583333
 31
0.0
  0
LINE
  5
228
100
AcDbEntity
  8
61
  6
CONTINUOUS
 62
     2
100
AcDbLine
 10
672.833333
 20
-2.583333
 30
0.0
 11
545.583333
 21
-2.583333
 31
0.0
  0
LINE
  5
229
100
AcDbEntity
  8
61
  6
CONTINUOUS
 62
     2
100
AcDbLine
 10
672.833333
 20
-2.583333
 30
0.0
 11
545.833333
 21
-2.583333
 31
0.0
  0
TEXT
  5
22A
100
AcDbEntity
  8
1
  6
CONTINUOUS
 62
     2
100
AcDbText
 10
623.916667
 20
-5.75
 30
0.0
 40
1.6925
  1
TRAFFIC ENGINEERING DIVISION
  7
TXT
210
0.0
220
0.0
230
1.0
100
AcDbText
  0
TEXT
  5
22B
100
AcDbEntity
  8
1
  6
CONTINUOUS
 62
     7
100
AcDbText
 10
445.333333
 20
-5.75
 30
0.0
 40
1.8335
  1
$$$$$$$$$FILENAME$$$$$$$$
  7
MONOTXT
210
0.0
220
0.0
230
1.0
100
AcDbText
  0
TEXT
  5
22C
100
AcDbEntity
  8
1
  6
CONTINUOUS
 62
     7
100
AcDbText
 10
546.0
 20
-5.75
 30
0.0
 40
1.8335
  1
$USERNAME$
  7
MONOTXT
210
0.0
220
0.0
230
1.0
100
AcDbText
  0
TEXT
  5
22D
100
AcDbEntity
  8
1
  6
CONTINUOUS
 62
     7
100
AcDbText
 10
583.583333
 20
-5.75
 30
0.0
 40
1.8335
  1
DD-MMM-YYYY HH:MM
  7
MONOTXT
210
0.0
220
0.0
230
1.0
100
AcDbText
  0
LINE
  5
22E
100
AcDbEntity
  8
1
  6
CONTINUOUS
 62
     2
100
AcDbLine
 10
528.25
 20
40.333333
 30
0.0
 11
491.166667
 21
40.333333
 31
0.0
  0
ENDSEC
  0
SECTION
  2
OBJECTS
  0
DICTIONARY
  5
19
100
AcDbDictionary
  3
ACAD_GROUP
350
1A
  3
ACAD_MLINESTYLE
350
1B
  0
DICTIONARY
  5
1A
102
{ACAD_REACTORS
330
19
102
}
100
AcDbDictionary
  0
DICTIONARY
  5
1B
102
{ACAD_REACTORS
330
19
102
}
100
AcDbDictionary
  3
STANDARD
350
1C
  0
MLINESTYLE
  5
1C
102
{ACAD_REACTORS
330
1B
102
}
100
AcDbMlineStyle
  2
STANDARD
 70
     0
  3

 62
     0
 51
90.0
 52
90.0
 71
     2
 49
0.5
 62
   256
  6
BYLAYER
 49
-0.5
 62
   256
  6
BYLAYER
  0
ENDSEC
  0
EOF
