  0
SECTION
  2
HEADER
  9
$ACADVER
  1
AC1014
  9
$ACADMAINTVER
 70
     0
  9
$DWGCODEPAGE
  3
ANSI_1252
  9
$INSBASE
 10
0.0
 20
0.0
 30
0.0
  9
$EXTMIN
 10
-77.025083
 20
-46.776167
 30
0.0
  9
$EXTMAX
 10
603.054917
 20
393.263833
 30
0.0
  9
$LIMMIN
 10
0.0
 20
0.0
  9
$LIMMAX
 10
12.0
 20
9.0
  9
$ORTHOMODE
 70
     0
  9
$REGENMODE
 70
     1
  9
$FILLMODE
 70
     1
  9
$QTEXTMODE
 70
     0
  9
$MIRRTEXT
 70
     1
  9
$DRAGMODE
 70
     2
  9
$LTSCALE
 40
1.0
  9
$OSMODE
 70
     0
  9
$ATTMODE
 70
     1
  9
$TEXTSIZE
 40
0.2
  9
$TRACEWID
 40
0.05
  9
$TEXTSTYLE
  7
STANDARD
  9
$CLAYER
  8
0
  9
$CELTYPE
  6
CONTINUOUS
  9
$CECOLOR
 62
   256
  9
$CELTSCALE
 40
1.0
  9
$DELOBJ
 70
     1
  9
$DISPSILH
 70
     0
  9
$DIMSCALE
 40
1.0
  9
$DIMASZ
 40
0.18
  9
$DIMEXO
 40
0.0625
  9
$DIMDLI
 40
0.38
  9
$DIMRND
 40
0.0
  9
$DIMDLE
 40
0.0
  9
$DIMEXE
 40
0.18
  9
$DIMTP
 40
0.0
  9
$DIMTM
 40
0.0
  9
$DIMTXT
 40
0.18
  9
$DIMCEN
 40
0.09
  9
$DIMTSZ
 40
0.0
  9
$DIMTOL
 70
     0
  9
$DIMLIM
 70
     0
  9
$DIMTIH
 70
     1
  9
$DIMTOH
 70
     1
  9
$DIMSE1
 70
     0
  9
$DIMSE2
 70
     0
  9
$DIMTAD
 70
     0
  9
$DIMZIN
 70
     0
  9
$DIMBLK
  1

  9
$DIMASO
 70
     1
  9
$DIMSHO
 70
     1
  9
$DIMPOST
  1

  9
$DIMAPOST
  1

  9
$DIMALT
 70
     0
  9
$DIMALTD
 70
     2
  9
$DIMALTF
 40
25.4
  9
$DIMLFAC
 40
1.0
  9
$DIMTOFL
 70
     0
  9
$DIMTVP
 40
0.0
  9
$DIMTIX
 70
     0
  9
$DIMSOXD
 70
     0
  9
$DIMSAH
 70
     0
  9
$DIMBLK1
  1

  9
$DIMBLK2
  1

  9
$DIMSTYLE
  2
STANDARD
  9
$DIMCLRD
 70
     0
  9
$DIMCLRE
 70
     0
  9
$DIMCLRT
 70
     0
  9
$DIMTFAC
 40
1.0
  9
$DIMGAP
 40
0.09
  9
$DIMJUST
 70
     0
  9
$DIMSD1
 70
     0
  9
$DIMSD2
 70
     0
  9
$DIMTOLJ
 70
     1
  9
$DIMTZIN
 70
     0
  9
$DIMALTZ
 70
     0
  9
$DIMALTTZ
 70
     0
  9
$DIMFIT
 70
     3
  9
$DIMUPT
 70
     0
  9
$DIMUNIT
 70
     2
  9
$DIMDEC
 70
     4
  9
$DIMTDEC
 70
     4
  9
$DIMALTU
 70
     2
  9
$DIMALTTD
 70
     2
  9
$DIMTXSTY
  7
STANDARD
  9
$DIMAUNIT
 70
     0
  9
$LUNITS
 70
     2
  9
$LUPREC
 70
     4
  9
$SKETCHINC
 40
0.1
  9
$FILLETRAD
 40
0.0
  9
$AUNITS
 70
     0
  9
$AUPREC
 70
     0
  9
$MENU
  1
acad
  9
$ELEVATION
 40
0.0
  9
$PELEVATION
 40
0.0
  9
$THICKNESS
 40
0.0
  9
$LIMCHECK
 70
     0
  9
$BLIPMODE
 70
     1
  9
$CHAMFERA
 40
0.0
  9
$CHAMFERB
 40
0.0
  9
$CHAMFERC
 40
0.0
  9
$CHAMFERD
 40
0.0
  9
$SKPOLY
 70
     0
  9
$TDCREATE
 40
2451813.692291667
  9
$TDUPDATE
 40
2451813.692291667
  9
$TDINDWG
 40
0.0000000000
  9
$TDUSRTIMER
 40
0.0000000000
  9
$USRTIMER
 70
     1
  9
$ANGBASE
 50
0.0
  9
$ANGDIR
 70
     0
  9
$PDMODE
 70
     0
  9
$PDSIZE
 40
0.0
  9
$PLINEWID
 40
0.0
  9
$COORDS
 70
     0
  9
$SPLFRAME
 70
     0
  9
$SPLINETYPE
 70
     6
  9
$SPLINESEGS
 70
    10
  9
$ATTDIA
 70
     0
  9
$ATTREQ
 70
     1
  9
$HANDLING
 70
     1
  9
$HANDSEED
  5
560
  9
$SURFTAB1
 70
     6
  9
$SURFTAB2
 70
     6
  9
$SURFTYPE
 70
     6
  9
$SURFU
 70
     6
  9
$SURFV
 70
     6
  9
$UCSNAME
  2

  9
$UCSORG
 10
0.0
 20
0.0
 30
0.0
  9
$UCSXDIR
 10
1.0
 20
0.0
 30
0.0
  9
$UCSYDIR
 10
0.0
 20
1.0
 30
0.0
  9
$PUCSNAME
  2

  9
$PUCSORG
 10
0.0
 20
0.0
 30
0.0
  9
$PUCSXDIR
 10
1.0
 20
0.0
 30
0.0
  9
$PUCSYDIR
 10
0.0
 20
1.0
 30
0.0
  9
$USERI1
 70
     0
  9
$USERI2
 70
     0
  9
$USERI3
 70
     0
  9
$USERI4
 70
     0
  9
$USERI5
 70
     0
  9
$USERR1
 40
0.0
  9
$USERR2
 40
0.0
  9
$USERR3
 40
0.0
  9
$USERR4
 40
0.0
  9
$USERR5
 40
0.0
  9
$WORLDVIEW
 70
     1
  9
$SHADEDGE
 70
     3
  9
$SHADEDIF
 70
    70
  9
$TILEMODE
 70
     1
  9
$MAXACTVP
 70
    16
  9
$PINSBASE
 10
0.0
 20
0.0
 30
0.0
  9
$PLIMCHECK
 70
     0
  9
$PEXTMIN
 10
-1.000000E+20
 20
-1.000000E+20
 30
-1.000000E+20
  9
$PEXTMAX
 10
-1.000000E+20
 20
-1.000000E+20
 30
-1.000000E+20
  9
$PLIMMIN
 10
0.0
 20
0.0
  9
$PLIMMAX
 10
12.0
 20
9.0
  9
$UNITMODE
 70
     0
  9
$VISRETAIN
 70
     0
  9
$PLINEGEN
 70
     1
  9
$PSLTSCALE
 70
     0
  9
$TREEDEPTH
 70
  3020
  9
$PICKSTYLE
 70
     1
  9
$CMLSTYLE
  2
STANDARD
  9
$CMLJUST
 70
     0
  9
$CMLSCALE
 40
1.0
  9
$PROXYGRAPHICS
 70
     0
  9
$MEASUREMENT
 70
     0
  0
ENDSEC
  0
SECTION
  2
CLASSES
  0
CLASS
  1
LWPOLYLINE
  2
AcDbPolyline
  3
"AutoCAD"
 90
        0
280
     0
281
     1
  0
CLASS
  1
IMAGE
  2
AcDbRasterImage
  3
ISM
 90
      127
280
     0
281
     1
  0
CLASS
  1
OLE2FRAME
  2
AcDbOle2Frame
  3
""
 90
        0
280
     0
281
     1
  0
CLASS
  1
HATCH
  2
AcDbHatch
  3
"ACAD_SEDONA"
 90
        0
280
     0
281
     1
  0
CLASS
  1
DICTIONARYVAR
  2
AcDbDictionaryVar
  3
"AutoCAD"
 90
        0
280
     0
281
     0
  0
CLASS
  1
RASTERVARIABLES
  2
AcDbRasterVariables
  3
ISM
 90
        0
280
     0
281
     0
  0
CLASS
  1
IMAGEDEF
  2
AcDbRasterImageDef
  3
ISM
 90
        0
280
     0
281
     0
  0
CLASS
  1
IMAGEDEF_REACTOR
  2
AcDbRasterImageDefReactor
  3
ISM
 90
        1
280
     0
281
     0
  0
CLASS
  1
IDBUFFER
  2
AcDbIdBuffer
  3
"Acad"
 90
        0
280
     0
281
     0
  0
CLASS
  1
SPATIAL_FILTER
  2
AcDbSpatialFilter
  3
"Acad"
 90
        0
280
     0
281
     0
  0
CLASS
  1
XRECORD
  2
AcDbXrecord
  3
"<Built In>"
 90
        0
280
     0
281
     0
  0
CLASS
  1
SORTENTSTABLE
  2
AcDbSortentsTable
  3
"AutoCAD"
 90
        0
280
     0
281
     0
  0
CLASS
  1
LAYER_INDEX
  2
AcDbLayerIndex
  3
"Acad"
 90
        0
280
     0
281
     0
  0
CLASS
  1
SPATIAL_INDEX
  2
AcDbSpatialIndex
  3
"Acad"
 90
        0
280
     0
281
     0
  0
CLASS
  1
OBJECT_PTR
  2
CAseDLPNTableRecord
  3
"ASE-LPNTableRecord"
 90
        1
280
     0
281
     0
  0
ENDSEC
  0
SECTION
  2
TABLES
  0
TABLE
  2
VPORT
  5
7
100
AcDbSymbolTable
 70
     1
  0
VPORT
  5
55F
100
AcDbSymbolTableRecord
100
AcDbViewportTableRecord
  2
*ACTIVE
 70
     0
 10
0.0
 20
0.0
 11
1.0
 21
1.0
 12
0.0
 22
0.0
 13
0.0
 23
0.0
 14
0.0
 24
0.0
 15
0.0
 25
0.0
 16
0.0
 26
0.0
 36
1.0
 17
282.08025
 27
108.813107
 37
0.0
 40
834.15638
 41
1.539101
 42
50.0
 43
0.084167
 44
0.0
 50
0.0
 51
0.0
 71
     0
 72
   100
 73
     1
 74
     0
 75
     0
 76
     0
 77
     0
 78
     0
  0
ENDTAB
  0
TABLE
  2
LTYPE
  5
4
100
AcDbSymbolTable
 70
     9
  0
LTYPE
  5
11
100
AcDbSymbolTableRecord
100
AcDbLinetypeTableRecord
  2
BYBLOCK
 70
     0
  3

 72
    65
 73
     0
 40
0.0
  0
LTYPE
  5
12
100
AcDbSymbolTableRecord
100
AcDbLinetypeTableRecord
  2
BYLAYER
 70
     0
  3

 72
    65
 73
     0
 40
0.0
  0
LTYPE
  5
13
100
AcDbSymbolTableRecord
100
AcDbLinetypeTableRecord
  2
CONTINUOUS
 70
     0
  3
Solid line
 72
    65
 73
     0
 40
0.0
  0
LTYPE
  5
22
102
{ACAD_XDICTIONARY
360
B8C89F0200000000
102
}
100
AcDbSymbolTableRecord
100
AcDbLinetypeTableRecord
  2
DOT
 70
    64
  3
. . . . . . . . . . . . . . . . . . . . . . . . . . . . . . . . .
 72
    65
 73
     2
 40
0.25
 49
0.0
 74
     0
 49
-0.25
 74
     0
  0
LTYPE
  5
23
102
{ACAD_XDICTIONARY
360
B8C89F0200000000
102
}
100
AcDbSymbolTableRecord
100
AcDbLinetypeTableRecord
  2
HIDDEN
 70
    64
  3
__ __ __ __ __ __ __ __ __ __ __ __ __ __ __ __ __ __ __ __ __ 
 72
    65
 73
     2
 40
0.375
 49
0.25
 74
     0
 49
-0.125
 74
     0
  0
LTYPE
  5
24
102
{ACAD_XDICTIONARY
360
B8C89F0200000000
102
}
100
AcDbSymbolTableRecord
100
AcDbLinetypeTableRecord
  2
DASHED
 70
    64
  3
__ __ __ __ __ __ __ __ __ __ __ __ __ __ __ __ __ __ __ __ __
 72
    65
 73
     2
 40
0.75
 49
0.5
 74
     0
 49
-0.25
 74
     0
  0
LTYPE
  5
25
102
{ACAD_XDICTIONARY
360
B8C89F0200000000
102
}
100
AcDbSymbolTableRecord
100
AcDbLinetypeTableRecord
  2
DASHDOT
 70
    64
  3
__ . __ . __ . __ . __ . __ . __ . __ . __ . __ . __ . __ . _
 72
    65
 73
     4
 40
1.0
 49
0.5
 74
     0
 49
-0.25
 74
     0
 49
0.0
 74
     0
 49
-0.25
 74
     0
  0
LTYPE
  5
26
102
{ACAD_XDICTIONARY
360
B8C89F0200000000
102
}
100
AcDbSymbolTableRecord
100
AcDbLinetypeTableRecord
  2
DIVIDE
 70
    64
  3
____ . . ____ . . ____ . . ____ . . ____ . . ____ . . ____ . .
 72
    65
 73
     6
 40
1.25
 49
0.5
 74
     0
 49
-0.25
 74
     0
 49
0.0
 74
     0
 49
-0.25
 74
     0
 49
0.0
 74
     0
 49
-0.25
 74
     0
  0
LTYPE
  5
27
102
{ACAD_XDICTIONARY
360
B8C89F0200000000
102
}
100
AcDbSymbolTableRecord
100
AcDbLinetypeTableRecord
  2
CENTER
 70
    64
  3
____ _ ____ _ ____ _ ____ _ ____ _ ____ _ ____ _ ____ _ ____ _
 72
    65
 73
     4
 40
2.0
 49
1.25
 74
     0
 49
-0.25
 74
     0
 49
0.25
 74
     0
 49
-0.25
 74
     0
  0
ENDTAB
  0
TABLE
  2
LAYER
  5
2
100
AcDbSymbolTable
 70
     3
  0
LAYER
  5
14
102
{ACAD_XDICTIONARY
360
5F205F5F5F5F205F
102
}
100
AcDbSymbolTableRecord
100
AcDbLayerTableRecord
  2
0
 70
     0
 62
     7
  6
CONTINUOUS
  0
LAYER
  5
2A
102
{ACAD_XDICTIONARY
360
5F205F5F5F5F205F
102
}
100
AcDbSymbolTableRecord
100
AcDbLayerTableRecord
  2
61
 70
    64
 62
     7
  6
CONTINUOUS
  0
LAYER
  5
62
102
{ACAD_XDICTIONARY
360
5F205F5F5F5F205F
102
}
100
AcDbSymbolTableRecord
100
AcDbLayerTableRecord
  2
1
 70
    64
 62
     7
  6
CONTINUOUS
  0
ENDTAB
  0
TABLE
  2
STYLE
  5
3
100
AcDbSymbolTable
 70
     4
  0
STYLE
  5
17
100
AcDbSymbolTableRecord
100
AcDbTextStyleTableRecord
  2
STANDARD
 70
     0
 40
0.0
 41
1.0
 50
0.0
 71
     0
 42
0.0
  3
txt
  4

  0
STYLE
  5
3B
100
AcDbSymbolTableRecord
100
AcDbTextStyleTableRecord
  2
MONOTXT
 70
     0
 40
0.2
 41
1.0
 50
0.0
 71
     0
 42
0.2
  3
MONOTXT
  4

  0
STYLE
  5
65
100
AcDbSymbolTableRecord
100
AcDbTextStyleTableRecord
  2
TXT
 70
     0
 40
0.2
 41
1.0
 50
0.0
 71
     0
 42
0.2
  3
TXT
  4

  0
STYLE
  5
76
100
AcDbSymbolTableRecord
100
AcDbTextStyleTableRecord
  2
ROMANT
 70
     0
 40
0.2
 41
1.0
 50
0.0
 71
     0
 42
0.2
  3
ROMANT
  4

  0
ENDTAB
  0
TABLE
  2
VIEW
  5
5
100
AcDbSymbolTable
 70
     0
  0
ENDTAB
  0
TABLE
  2
UCS
  5
6
100
AcDbSymbolTable
 70
     0
  0
ENDTAB
  0
TABLE
  2
APPID
  5
8
100
AcDbSymbolTable
 70
     1
  0
APPID
  5
16
100
AcDbSymbolTableRecord
100
AcDbRegAppTableRecord
  2
ACAD
 70
     0
  0
ENDTAB
  0
TABLE
  2
DIMSTYLE
  5
9
100
AcDbSymbolTable
 70
     1
  0
DIMSTYLE
105
18
100
AcDbSymbolTableRecord
100
AcDbDimStyleTableRecord
  2
STANDARD
 70
     0
  3

  4

  5

  6

  7

 40
1.0
 41
0.18
 42
0.0625
 43
0.38
 44
0.18
 45
0.0
 46
0.0
 47
0.0
 48
0.0
140
0.18
141
0.09
142
0.0
143
25.4
144
1.0
145
0.0
146
1.0
147
0.09
 71
     0
 72
     0
 73
     1
 74
     1
 75
     0
 76
     0
 77
     0
 78
     0
170
     0
171
     2
172
     0
173
     0
174
     0
175
     0
176
     0
177
     0
178
     0
270
     2
271
     4
272
     4
273
     2
274
     2
340
17
275
     0
280
     0
281
     0
282
     0
283
     1
284
     0
285
     0
286
     0
287
     0
288
     0
  0
ENDTAB
  0
TABLE
  2
BLOCK_RECORD
  5
1
100
AcDbSymbolTable
 70
     1
  0
BLOCK_RECORD
  5
A
100
AcDbSymbolTableRecord
100
AcDbBlockTableRecord
  2
*MODEL_SPACE
  0
BLOCK_RECORD
  5
B
100
AcDbSymbolTableRecord
100
AcDbBlockTableRecord
  2
*PAPER_SPACE
  0
BLOCK_RECORD
  5
201
102
{ACAD_XDICTIONARY
360
C49F0224000000BF
102
}
100
AcDbSymbolTableRecord
100
AcDbBlockTableRecord
  2
LDR
  0
ENDTAB
  0
ENDSEC
  0
SECTION
  2
BLOCKS
  0
BLOCK
  5
D
100
AcDbEntity
  8
0
100
AcDbBlockBegin
  2
*MODEL_SPACE
 70
     0
 10
0.0
 20
0.0
 30
0.0
  3
*MODEL_SPACE
  1

  0
ENDBLK
  5
E
100
AcDbEntity
  8
0
100
AcDbBlockEnd
  0
BLOCK
  5
F
100
AcDbEntity
 67
     1
  8
0
100
AcDbBlockBegin
  2
*PAPER_SPACE
 70
     0
 10
0.0
 20
0.0
 30
0.0
  3
*PAPER_SPACE
  1

  0
ENDBLK
  5
10
100
AcDbEntity
 67
     1
  8
0
100
AcDbBlockEnd
  0
BLOCK
  5
202
100
AcDbEntity
  8
1
  6
CONTINUOUS
 62
     1
100
AcDbBlockBegin
  2
LDR
 70
     0
 10
0.0
 20
0.0
 30
0.0
  3
LNR
  1

  0
ELLIPSE
  5
203
100
AcDbEntity
  8
1
  6
CONTINUOUS
 62
     1
100
AcDbEllipse
 10
-0.004547
 20
-0.001151
 30
0.0
 11
0.007440417051956
 21
0.0006506250108083
 31
0.0
210
0.0
220
0.0
230
1.0
 40
0.122415
 41
0.8963533496766982
 42
3.1415926535897931
  0
ELLIPSE
  5
204
100
AcDbEntity
  8
1
  6
CONTINUOUS
 62
     1
100
AcDbEllipse
 10
-0.004669
 20
0.000882
 30
0.0
 11
0.0073185421713632
 21
-0.000731875170693
 31
0.0
210
0.0
220
0.0
230
1.0
 40
0.07063
 41
3.1407147529760402
 42
5.4181099545465106
  0
ENDBLK
  5
205
100
AcDbEntity
  8
1
  6
CONTINUOUS
 62
     1
100
AcDbBlockEnd
  0
ENDSEC
  0
SECTION
  2
ENTITIES
  0
LINE
  5
2B
100
AcDbEntity
  8
61
  6
CONTINUOUS
 62
     1
100
AcDbLine
 10
592.074917
 20
383.263833
 30
0.0
 11
-46.965083
 21
383.263833
 31
0.0
  0
LINE
  5
2C
100
AcDbEntity
  8
61
  6
CONTINUOUS
 62
     1
100
AcDbLine
 10
-46.965083
 20
383.263833
 30
0.0
 11
-46.965083
 21
-36.756167
 31
0.0
  0
LINE
  5
2D
100
AcDbEntity
  8
61
  6
CONTINUOUS
 62
     1
100
AcDbLine
 10
592.094917
 20
-36.776167
 30
0.0
 11
-46.965083
 21
-36.756167
 31
0.0
  0
LINE
  5
2E
100
AcDbEntity
  8
61
  6
CONTINUOUS
 62
     1
100
AcDbLine
 10
592.074917
 20
383.263833
 30
0.0
 11
592.094917
 21
-36.776167
 31
0.0
  0
LINE
  5
2F
100
AcDbEntity
  8
61
  6
CONTINUOUS
 62
     7
100
AcDbLine
 10
585.974917
 20
378.523833
 30
0.0
 11
477.994917
 21
378.503833
 31
0.0
  0
LINE
  5
30
100
AcDbEntity
  8
61
  6
CONTINUOUS
 62
     7
100
AcDbLine
 10
477.994917
 20
378.503833
 30
0.0
 11
477.994917
 21
358.503833
 31
0.0
  0
LINE
  5
31
100
AcDbEntity
  8
61
  6
CONTINUOUS
 62
     7
100
AcDbLine
 10
585.974917
 20
378.523833
 30
0.0
 11
585.974917
 21
358.523833
 31
0.0
  0
LINE
  5
32
100
AcDbEntity
  8
61
  6
CONTINUOUS
 62
     7
100
AcDbLine
 10
585.974917
 20
358.523833
 30
0.0
 11
477.994917
 21
358.503833
 31
0.0
  0
LINE
  5
33
100
AcDbEntity
  8
61
  6
CONTINUOUS
 62
     7
100
AcDbLine
 10
585.994917
 20
368.483833
 30
0.0
 11
477.974917
 21
368.503833
 31
0.0
  0
LINE
  5
34
100
AcDbEntity
  8
61
  6
CONTINUOUS
 62
     7
100
AcDbLine
 10
487.994917
 20
378.503833
 30
0.0
 11
487.994917
 21
358.503833
 31
0.0
  0
LINE
  5
35
100
AcDbEntity
  8
61
  6
CONTINUOUS
 62
     7
100
AcDbLine
 10
497.994917
 20
378.503833
 30
0.0
 11
497.994917
 21
358.503833
 31
0.0
  0
LINE
  5
36
100
AcDbEntity
  8
61
  6
CONTINUOUS
 62
     7
100
AcDbLine
 10
511.674917
 20
378.503833
 30
0.0
 11
511.674917
 21
358.503833
 31
0.0
  0
LINE
  5
37
100
AcDbEntity
  8
61
  6
CONTINUOUS
 62
     7
100
AcDbLine
 10
575.974917
 20
378.523833
 30
0.0
 11
575.974917
 21
358.523833
 31
0.0
  0
LINE
  5
38
100
AcDbEntity
  8
61
  6
CONTINUOUS
 62
     7
100
AcDbLine
 10
565.974917
 20
378.523833
 30
0.0
 11
565.974917
 21
358.523833
 31
0.0
  0
LINE
  5
39
100
AcDbEntity
  8
61
  6
CONTINUOUS
 62
     7
100
AcDbLine
 10
543.994917
 20
378.503833
 30
0.0
 11
543.994917
 21
358.503833
 31
0.0
  0
LINE
  5
3A
100
AcDbEntity
  8
61
  6
CONTINUOUS
 62
     7
100
AcDbLine
 10
533.994917
 20
378.503833
 30
0.0
 11
533.994917
 21
358.503833
 31
0.0
  0
TEXT
  5
3C
100
AcDbEntity
  8
61
  6
CONTINUOUS
 62
     7
100
AcDbText
 10
480.034917
 20
375.483833
 30
0.0
 40
1.20072
  1
PUBLIC
 50
0.033272
 41
1.001799
  7
MONOTXT
210
0.0
220
0.0
230
1.0
100
AcDbText
  0
TEXT
  5
3D
100
AcDbEntity
  8
61
  6
CONTINUOUS
 62
     7
100
AcDbText
 10
480.114917
 20
372.963833
 30
0.0
 40
1.20072
  1
ROADS
 50
0.124322
 41
0.996902
  7
MONOTXT
210
0.0
220
0.0
230
1.0
100
AcDbText
  0
TEXT
  5
3E
100
AcDbEntity
  8
61
  6
CONTINUOUS
 62
     7
100
AcDbText
 10
481.314917
 20
370.463833
 30
0.0
 40
1.20072
  1
DIV.
 50
359.931522
 41
0.994903
  7
MONOTXT
210
0.0
220
0.0
230
1.0
100
AcDbText
  0
TEXT
  5
3F
100
AcDbEntity
  8
61
  6
CONTINUOUS
 62
     7
100
AcDbText
 10
490.194917
 20
375.543833
 30
0.0
 40
1.20072
  1
STATE
 50
0.058969
 41
0.998201
  7
MONOTXT
210
0.0
220
0.0
230
1.0
100
AcDbText
  0
TEXT
  5
40
100
AcDbEntity
  8
61
  6
CONTINUOUS
 62
     7
100
AcDbText
 10
491.074917
 20
373.043833
 30
0.0
 40
1.20072
  1
DIST.
 50
0.055889
 41
0.9996
  7
MONOTXT
210
0.0
220
0.0
230
1.0
100
AcDbText
  0
TEXT
  5
41
100
AcDbEntity
  8
61
  6
CONTINUOUS
 62
     7
100
AcDbText
 10
491.654917
 20
370.523833
 30
0.0
 40
1.20072
  1
NO.
 50
359.852072
 41
0.997801
  7
MONOTXT
210
0.0
220
0.0
230
1.0
100
AcDbText
  0
TEXT
  5
42
100
AcDbEntity
  8
61
  6
CONTINUOUS
 62
     7
100
AcDbText
 10
502.194917
 20
375.483833
 30
0.0
 40
1.20072
  1
STATE
 50
0.058969
 41
0.998201
  7
MONOTXT
210
0.0
220
0.0
230
1.0
100
AcDbText
  0
TEXT
  5
43
100
AcDbEntity
  8
61
  6
CONTINUOUS
 62
     7
100
AcDbText
 10
501.114917
 20
373.063833
 30
0.0
 40
1.20072
  1
PROJECT
 50
359.908431
 41
1.0001
  7
MONOTXT
210
0.0
220
0.0
230
1.0
100
AcDbText
  0
TEXT
  5
44
100
AcDbEntity
  8
61
  6
CONTINUOUS
 62
     7
100
AcDbText
 10
503.854917
 20
370.523833
 30
0.0
 40
1.20072
  1
NO.
 50
0.225453
 41
0.993604
  7
MONOTXT
210
0.0
220
0.0
230
1.0
100
AcDbText
  0
TEXT
  5
45
100
AcDbEntity
  8
61
  6
CONTINUOUS
 62
     7
100
AcDbText
 10
519.494917
 20
374.363833
 30
0.0
 40
1.20072
  1
FEDERAL
 50
0.006714
 41
0.998601
  7
MONOTXT
210
0.0
220
0.0
230
1.0
100
AcDbText
  0
TEXT
  5
46
100
AcDbEntity
  8
61
  6
CONTINUOUS
 62
     7
100
AcDbText
 10
517.954917
 20
371.703833
 30
0.0
 40
1.20072
  1
PROJECT NO.
 50
359.921531
 41
1.0007
  7
MONOTXT
210
0.0
220
0.0
230
1.0
100
AcDbText
  0
TEXT
  5
47
100
AcDbEntity
  8
61
  6
CONTINUOUS
 62
     7
100
AcDbText
 10
536.234917
 20
374.303833
 30
0.0
 40
1.20072
  1
FISCAL
 50
359.941939
 41
0.999001
  7
MONOTXT
210
0.0
220
0.0
230
1.0
100
AcDbText
  0
TEXT
  5
48
100
AcDbEntity
  8
61
  6
CONTINUOUS
 62
     7
100
AcDbText
 10
536.754917
 20
371.403833
 30
0.0
 40
1.20072
  1
YEAR
 50
0.104606
 41
0.993304
  7
MONOTXT
210
0.0
220
0.0
230
1.0
100
AcDbText
  0
TEXT
  5
49
100
AcDbEntity
  8
61
  6
CONTINUOUS
 62
     7
100
AcDbText
 10
550.854917
 20
372.763833
 30
0.0
 40
1.20072
  1
COUNTY
 50
0.068575
 41
1.001899
  7
MONOTXT
210
0.0
220
0.0
230
1.0
100
AcDbText
  0
TEXT
  5
4A
100
AcDbEntity
  8
61
  6
CONTINUOUS
 62
     7
100
AcDbText
 10
568.494917
 20
374.423833
 30
0.0
 40
1.20072
  1
SHEET
 50
0.058969
 41
0.997601
  7
MONOTXT
210
0.0
220
0.0
230
1.0
100
AcDbText
  0
TEXT
  5
4B
100
AcDbEntity
  8
61
  6
CONTINUOUS
 62
     7
100
AcDbText
 10
569.914917
 20
371.703833
 30
0.0
 40
1.20072
  1
NO.
 50
359.852072
 41
0.997801
  7
MONOTXT
210
0.0
220
0.0
230
1.0
100
AcDbText
  0
TEXT
  5
4C
100
AcDbEntity
  8
61
  6
CONTINUOUS
 62
     7
100
AcDbText
 10
578.234917
 20
374.283833
 30
0.0
 40
1.20072
  1
TOTAL
 50
359.926039
 41
0.998601
  7
MONOTXT
210
0.0
220
0.0
230
1.0
100
AcDbText
  0
TEXT
  5
4D
100
AcDbEntity
  8
61
  6
CONTINUOUS
 62
     7
100
AcDbText
 10
577.774917
 20
371.583833
 30
0.0
 40
1.20072
  1
SHEETS
 50
359.958675
  7
MONOTXT
210
0.0
220
0.0
230
1.0
100
AcDbText
  0
TEXT
  5
4E
100
AcDbEntity
  8
61
  6
CONTINUOUS
 62
     7
100
AcDbText
 10
490.594917
 20
362.703833
 30
0.0
 40
2.40132
  1
  
 50
0.029406
 41
0.996502
  7
MONOTXT
210
0.0
220
0.0
230
1.0
100
AcDbText
  0
TEXT
  5
4F
100
AcDbEntity
  8
61
  6
CONTINUOUS
 62
     7
100
AcDbText
 10
567.774917
 20
362.423833
 30
0.0
 40
2.40132
  1
   
 50
0.011508
 41
1.000999
  7
MONOTXT
210
0.0
220
0.0
230
1.0
100
AcDbText
  0
TEXT
  5
50
100
AcDbEntity
  8
61
  6
CONTINUOUS
 62
     7
100
AcDbText
 10
577.654917
 20
362.403833
 30
0.0
 40
2.40132
  1
   
 50
359.922128
 41
1.00055
  7
MONOTXT
210
0.0
220
0.0
230
1.0
100
AcDbText
  0
TEXT
  5
51
100
AcDbEntity
  8
61
  6
CONTINUOUS
 62
     7
100
AcDbText
 10
501.034917
 20
365.803833
 30
0.0
 40
2.00676
  1
    
 50
0.054383
 41
0.993721
  7
MONOTXT
210
0.0
220
0.0
230
1.0
100
AcDbText
  0
TEXT
  5
52
100
AcDbEntity
  8
61
  6
CONTINUOUS
 62
     7
100
AcDbText
 10
498.114917
 20
362.783833
 30
0.0
 40
1.9896
  1
       
 50
0.064678
 41
1.000965
  7
MONOTXT
210
0.0
220
0.0
230
1.0
100
AcDbText
  0
TEXT
  5
53
100
AcDbEntity
  8
61
  6
CONTINUOUS
 62
     7
100
AcDbText
 10
499.074917
 20
359.883833
 30
0.0
 40
1.9896
  1
      
 50
359.958053
 41
1.000302
  7
MONOTXT
210
0.0
220
0.0
230
1.0
100
AcDbText
  0
TEXT
  5
54
100
AcDbEntity
  8
61
  6
CONTINUOUS
 62
     7
100
AcDbText
 10
510.034917
 20
364.523833
 30
0.0
 40
2.40132
  1
           
 50
0.011508
 41
0.998751
  7
MONOTXT
210
0.0
220
0.0
230
1.0
100
AcDbText
  0
TEXT
  5
55
100
AcDbEntity
  8
61
  6
CONTINUOUS
 62
     7
100
AcDbText
 10
509.914917
 20
360.863833
 30
0.0
 40
2.40132
  1
           
 50
0.011508
 41
0.9996
  7
MONOTXT
210
0.0
220
0.0
230
1.0
100
AcDbText
  0
TEXT
  5
56
100
AcDbEntity
  8
61
  6
CONTINUOUS
 62
     7
100
AcDbText
 10
545.254917
 20
362.603833
 30
0.0
 40
2.00676
  1
          
 50
0.009222
 41
0.992764
  7
MONOTXT
210
0.0
220
0.0
230
1.0
100
AcDbText
  0
ARC
  5
57
100
AcDbEntity
  8
61
  6
CONTINUOUS
 62
     3
100
AcDbCircle
 10
-65.267327
 20
294.505128
 30
0.0
 40
2.499998
210
0.0
220
0.0
230
1.0
100
AcDbArc
 50
323.130094
 51
316.232156
  0
ARC
  5
58
100
AcDbEntity
  8
61
  6
CONTINUOUS
 62
     3
100
AcDbCircle
 10
-65.267327
 20
239.505128
 30
0.0
 40
2.499998
210
0.0
220
0.0
230
1.0
100
AcDbArc
 50
323.130094
 51
315.375767
  0
ARC
  5
59
100
AcDbEntity
  8
61
  6
CONTINUOUS
 62
     3
100
AcDbCircle
 10
-65.547327
 20
91.065128
 30
0.0
 40
2.499998
210
0.0
220
0.0
230
1.0
100
AcDbArc
 50
322.671753
 51
321.716147
  0
ARC
  5
5A
100
AcDbEntity
  8
61
  6
CONTINUOUS
 62
     3
100
AcDbCircle
 10
-65.547327
 20
36.065128
 30
0.0
 40
2.499998
210
0.0
220
0.0
230
1.0
100
AcDbArc
 50
323.130094
 51
312.314392
  0
LINE
  5
5B
100
AcDbEntity
  8
61
  6
CONTINUOUS
 62
     2
100
AcDbLine
 10
-63.245083
 20
294.503833
 30
0.0
 11
-55.265083
 21
294.523833
 31
0.0
  0
LINE
  5
5C
100
AcDbEntity
  8
61
  6
CONTINUOUS
 62
     2
100
AcDbLine
 10
-63.265083
 20
239.503833
 30
0.0
 11
-55.265083
 21
239.503833
 31
0.0
  0
LINE
  5
5D
100
AcDbEntity
  8
61
  6
CONTINUOUS
 62
     2
100
AcDbLine
 10
-63.545083
 20
91.083833
 30
0.0
 11
-55.545083
 21
91.083833
 31
0.0
  0
LINE
  5
5E
100
AcDbEntity
  8
61
  6
CONTINUOUS
 62
     2
100
AcDbLine
 10
-63.525083
 20
36.063833
 30
0.0
 11
-55.545083
 21
36.063833
 31
0.0
  0
LINE
  5
5F
100
AcDbEntity
  8
61
  6
DASHED
 62
     1
100
AcDbLine
 10
-76.965083
 20
393.263833
 30
0.0
 11
603.054917
 21
393.263833
 31
0.0
  0
LINE
  5
60
100
AcDbEntity
  8
61
  6
DASHED
 62
     1
100
AcDbLine
 10
603.034917
 20
-46.756167
 30
0.0
 11
-77.025083
 21
-46.776167
 31
0.0
  0
TEXT
  5
61
100
AcDbEntity
  8
61
  6
CONTINUOUS
 62
     7
100
AcDbText
 10
578.874917
 20
338.603833
 30
0.0
 40
2.40132
  1
     
 41
1.001399
  7
MONOTXT
210
0.0
220
0.0
230
1.0
100
AcDbText
  0
LINE
  5
63
100
AcDbEntity
  8
1
  6
HIDDEN
 62
     1
100
AcDbLine
 10
603.054917
 20
393.263833
 30
0.0
 11
603.034917
 21
-46.756167
 31
0.0
  0
LINE
  5
64
100
AcDbEntity
  8
1
  6
HIDDEN
 62
     1
100
AcDbLine
 10
-76.965083
 20
393.263833
 30
0.0
 11
-77.025083
 21
-46.776167
 31
0.0
  0
TEXT
  5
66
100
AcDbEntity
  8
1
  6
CONTINUOUS
 62
     1
100
AcDbText
 10
557.814917
 20
-39.276167
 30
0.0
 40
1.2
  1
TRAFFIC ENGINEERING DIVISION
  7
TXT
210
0.0
220
0.0
230
1.0
100
AcDbText
  0
LINE
  5
67
100
AcDbEntity
  8
1
  6
CONTINUOUS
 62
     7
100
AcDbLine
 10
420.434917
 20
-36.776167
 30
0.0
 11
420.434917
 21
54.803833
 31
0.0
  0
LINE
  5
68
100
AcDbEntity
  8
1
  6
CONTINUOUS
 62
     7
100
AcDbLine
 10
420.434917
 20
54.803833
 30
0.0
 11
592.094917
 21
54.803833
 31
0.0
  0
LINE
  5
69
100
AcDbEntity
  8
1
  6
CONTINUOUS
 62
     7
100
AcDbLine
 10
455.434917
 20
-36.816167
 30
0.0
 11
455.434917
 21
8.143833
 31
0.0
  0
LINE
  5
6A
100
AcDbEntity
  8
1
  6
CONTINUOUS
 62
     7
100
AcDbLine
 10
455.434917
 20
8.143833
 30
0.0
 11
420.454917
 21
8.143833
 31
0.0
  0
LINE
  5
6B
100
AcDbEntity
  8
1
  6
CONTINUOUS
 62
     7
100
AcDbLine
 10
455.434917
 20
3.663833
 30
0.0
 11
420.454917
 21
3.663833
 31
0.0
  0
LINE
  5
6C
100
AcDbEntity
  8
1
  6
CONTINUOUS
 62
     7
100
AcDbLine
 10
455.434917
 20
-0.836167
 30
0.0
 11
420.454917
 21
-0.836167
 31
0.0
  0
LINE
  5
6D
100
AcDbEntity
  8
1
  6
CONTINUOUS
 62
     7
100
AcDbLine
 10
455.434917
 20
-5.336167
 30
0.0
 11
420.454917
 21
-5.336167
 31
0.0
  0
LINE
  5
6E
100
AcDbEntity
  8
1
  6
CONTINUOUS
 62
     7
100
AcDbLine
 10
455.434917
 20
-9.856167
 30
0.0
 11
420.454917
 21
-9.856167
 31
0.0
  0
LINE
  5
6F
100
AcDbEntity
  8
1
  6
CONTINUOUS
 62
     7
100
AcDbLine
 10
455.434917
 20
-14.336167
 30
0.0
 11
420.454917
 21
-14.336167
 31
0.0
  0
LINE
  5
70
100
AcDbEntity
  8
1
  6
CONTINUOUS
 62
     7
100
AcDbLine
 10
455.434917
 20
-18.816167
 30
0.0
 11
420.454917
 21
-18.816167
 31
0.0
  0
LINE
  5
71
100
AcDbEntity
  8
1
  6
CONTINUOUS
 62
     7
100
AcDbLine
 10
455.434917
 20
-23.316167
 30
0.0
 11
420.454917
 21
-23.316167
 31
0.0
  0
LINE
  5
72
100
AcDbEntity
  8
1
  6
CONTINUOUS
 62
     7
100
AcDbLine
 10
455.434917
 20
-27.816167
 30
0.0
 11
420.454917
 21
-27.816167
 31
0.0
  0
LINE
  5
73
100
AcDbEntity
  8
1
  6
CONTINUOUS
 62
     7
100
AcDbLine
 10
455.434917
 20
-32.336167
 30
0.0
 11
420.454917
 21
-32.336167
 31
0.0
  0
TEXT
  5
74
100
AcDbEntity
  8
1
  6
CONTINUOUS
 62
     7
100
AcDbText
 10
430.714917
 20
5.143833
 30
0.0
 40
1.99776
  1
REVISIONS
  7
MONOTXT
210
0.0
220
0.0
230
1.0
100
AcDbText
  0
TEXT
  5
75
100
AcDbEntity
  8
1
  6
CONTINUOUS
 62
     7
100
AcDbText
 10
422.394917
 20
9.143833
 30
0.0
 40
1.99776
  1
PREPARED:   /  /  
  7
MONOTXT
210
0.0
220
0.0
230
1.0
100
AcDbText
  0
TEXT
  5
77
100
AcDbEntity
  8
1
  6
CONTINUOUS
 62
     7
100
AcDbText
 10
453.054917
 20
46.203833
 30
0.0
 40
4.79484
  1
WEST VIRGINIA DIVISION OF HIGHWAYS
  7
ROMANT
 72
     1
 11
507.025167
 21
50.998667
 31
0.0
210
0.0
220
0.0
230
1.0
100
AcDbText
 73
     3
  0
TEXT
  5
78
100
AcDbEntity
  8
1
  6
CONTINUOUS
 62
     1
100
AcDbText
 10
430.160083
 20
0.083833
 30
0.0
 40
2.00004
  1
07-22-76
  7
MONOTXT
 72
     1
 11
437.412167
 21
2.083833
 31
0.0
210
0.0
220
0.0
230
1.0
100
AcDbText
 73
     3
  0
TEXT
  5
79
100
AcDbEntity
  8
1
  6
CONTINUOUS
 62
     1
100
AcDbText
 10
430.518083
 20
-4.316167
 30
0.0
 40
2.00004
  1
02-15-77
  7
MONOTXT
 72
     1
 11
437.384333
 21
-2.316167
 31
0.0
210
0.0
220
0.0
230
1.0
100
AcDbText
 73
     3
  0
TEXT
  5
7A
100
AcDbEntity
  8
1
  6
CONTINUOUS
 62
     1
100
AcDbText
 10
430.553833
 20
-8.716167
 30
0.0
 40
2.00004
  1
05-12-78
  7
MONOTXT
 72
     1
 11
437.412167
 21
-6.716167
 31
0.0
210
0.0
220
0.0
230
1.0
100
AcDbText
 73
     3
  0
TEXT
  5
7B
100
AcDbEntity
  8
1
  6
CONTINUOUS
 62
     1
100
AcDbText
 10
430.238833
 20
-13.116167
 30
0.0
 40
2.00004
  1
06-30-89
  7
MONOTXT
 72
     1
 11
437.412167
 21
-11.116167
 31
0.0
210
0.0
220
0.0
230
1.0
100
AcDbText
 73
     3
  0
TEXT
  5
7C
100
AcDbEntity
  8
1
  6
CONTINUOUS
 62
     1
100
AcDbText
 10
430.47275
 20
-22.149583
 30
0.0
 40
2.00004
  1
05-18-94
  7
MONOTXT
 72
     1
 11
437.315417
 21
-20.149583
 31
0.0
210
0.0
220
0.0
230
1.0
100
AcDbText
 73
     3
  0
TEXT
  5
7D
100
AcDbEntity
  8
1
  6
CONTINUOUS
 62
     1
100
AcDbText
 10
429.734917
 20
-22.196167
 30
0.0
 40
2.00004
  1
        
  7
MONOTXT
 72
     1
 11
437.40175
 21
-20.196167
 31
0.0
210
0.0
220
0.0
230
1.0
100
AcDbText
 73
     3
  0
TEXT
  5
7E
100
AcDbEntity
  8
1
  6
CONTINUOUS
 62
     1
100
AcDbText
 10
429.634917
 20
-26.796167
 30
0.0
 40
2.00004
  1
        
  7
MONOTXT
 72
     1
 11
437.30175
 21
-24.796167
 31
0.0
210
0.0
220
0.0
230
1.0
100
AcDbText
 73
     3
  0
TEXT
  5
7F
100
AcDbEntity
  8
1
  6
CONTINUOUS
 62
     1
100
AcDbText
 10
429.734917
 20
-31.376167
 30
0.0
 40
2.00004
  1
        
  7
MONOTXT
 72
     1
 11
437.40175
 21
-29.376167
 31
0.0
210
0.0
220
0.0
230
1.0
100
AcDbText
 73
     3
  0
TEXT
  5
80
100
AcDbEntity
  8
1
  6
CONTINUOUS
 62
     1
100
AcDbText
 10
429.734917
 20
-35.396167
 30
0.0
 40
2.00004
  1
        
  7
MONOTXT
 72
     1
 11
437.40175
 21
-33.396167
 31
0.0
210
0.0
220
0.0
230
1.0
100
AcDbText
 73
     3
  0
LWPOLYLINE
  5
81
100
AcDbEntity
  8
1
  6
CONTINUOUS
 62
     7
100
AcDbPolyline
 90
        4
 70
     0
 10
422.3875
 20
69.520917
 10
420.3875
 20
66.056833
 10
424.3875
 20
66.056833
 10
422.3875
 20
69.520917
  0
LWPOLYLINE
  5
82
100
AcDbEntity
  8
1
  6
CONTINUOUS
 62
     7
100
AcDbPolyline
 90
        4
 70
     0
 10
422.399333
 20
73.9665
 10
420.399333
 20
70.502417
 10
424.399333
 20
70.502417
 10
422.399333
 20
73.9665
  0
LWPOLYLINE
  5
83
100
AcDbEntity
  8
1
  6
CONTINUOUS
 62
     7
100
AcDbPolyline
 90
        4
 70
     0
 10
422.463
 20
78.614917
 10
420.463
 20
75.150833
 10
424.463
 20
75.150833
 10
422.463
 20
78.614917
  0
LWPOLYLINE
  5
84
100
AcDbEntity
  8
1
  6
CONTINUOUS
 62
     7
100
AcDbPolyline
 90
        4
 70
     0
 10
425.21
 20
3.202333
 10
423.21
 20
-0.26175
 10
427.21
 20
-0.26175
 10
425.21
 20
3.202333
  0
LWPOLYLINE
  5
85
100
AcDbEntity
  8
1
  6
CONTINUOUS
 62
     7
100
AcDbPolyline
 90
        4
 70
     0
 10
425.251667
 20
-1.24325
 10
423.251667
 20
-4.707333
 10
427.251667
 20
-4.707333
 10
425.251667
 20
-1.24325
  0
LWPOLYLINE
  5
86
100
AcDbEntity
  8
1
  6
CONTINUOUS
 62
     7
100
AcDbPolyline
 90
        4
 70
     0
 10
425.336417
 20
-5.859833
 10
423.336417
 20
-9.323917
 10
427.336417
 20
-9.323917
 10
425.336417
 20
-5.859833
  0
LWPOLYLINE
  5
87
100
AcDbEntity
  8
1
  6
CONTINUOUS
 62
     7
100
AcDbPolyline
 90
        4
 70
     0
 10
425.46425
 20
-10.3485
 10
423.46425
 20
-13.812583
 10
427.46425
 20
-13.812583
 10
425.46425
 20
-10.3485
  0
TEXT
  5
88
100
AcDbEntity
  8
1
  6
CONTINUOUS
 62
     7
100
AcDbText
 10
424.9015
 20
0.078583
 30
0.0
 40
2.0
  1
1
  7
MONOTXT
210
0.0
220
0.0
230
1.0
100
AcDbText
  0
TEXT
  5
89
100
AcDbEntity
  8
1
  6
CONTINUOUS
 62
     7
100
AcDbText
 10
424.556833
 20
-4.446917
 30
0.0
 40
2.0
  1
2
  7
MONOTXT
210
0.0
220
0.0
230
1.0
100
AcDbText
  0
TEXT
  5
8A
100
AcDbEntity
  8
1
  6
CONTINUOUS
 62
     7
100
AcDbText
 10
424.599917
 20
-9.10175
 30
0.0
 40
2.0
  1
3
  7
MONOTXT
210
0.0
220
0.0
230
1.0
100
AcDbText
  0
TEXT
  5
8B
100
AcDbEntity
  8
1
  6
CONTINUOUS
 62
     7
100
AcDbText
 10
424.556833
 20
-13.368667
 30
0.0
 40
2.0
  1
4
  7
MONOTXT
210
0.0
220
0.0
230
1.0
100
AcDbText
  0
TEXT
  5
8C
100
AcDbEntity
  8
1
  6
CONTINUOUS
 62
     7
100
AcDbText
 10
422.077583
 20
80.060417
 30
0.0
 40
2.0
  1
1
  7
MONOTXT
210
0.0
220
0.0
230
1.0
100
AcDbText
  0
TEXT
  5
8D
100
AcDbEntity
  8
1
  6
CONTINUOUS
 62
     7
100
AcDbText
 10
421.79125
 20
75.445417
 30
0.0
 40
2.0
  1
2
  7
MONOTXT
210
0.0
220
0.0
230
1.0
100
AcDbText
  0
TEXT
  5
8E
100
AcDbEntity
  8
1
  6
CONTINUOUS
 62
     7
100
AcDbText
 10
421.664
 20
70.703
 30
0.0
 40
2.0
  1
3
  7
MONOTXT
210
0.0
220
0.0
230
1.0
100
AcDbText
  0
TEXT
  5
8F
100
AcDbEntity
  8
1
  6
CONTINUOUS
 62
     7
100
AcDbText
 10
421.568583
 20
66.438083
 30
0.0
 40
2.0
  1
4
  7
MONOTXT
210
0.0
220
0.0
230
1.0
100
AcDbText
  0
TEXT
  5
90
100
AcDbEntity
  8
1
  6
CONTINUOUS
 62
     7
100
AcDbText
 10
424.75025
 20
80.537833
 30
0.0
 40
2.0
  1
DELETED SIGNATURE BLOCK
  7
MONOTXT
210
0.0
220
0.0
230
1.0
100
AcDbText
  0
TEXT
  5
91
100
AcDbEntity
  8
1
  6
CONTINUOUS
 62
     7
100
AcDbText
 10
424.75025
 20
75.763667
 30
0.0
 40
2.0
  1
DELETED 2" SIZING FOR WIRE INLET
  7
MONOTXT
210
0.0
220
0.0
230
1.0
100
AcDbText
  0
TEXT
  5
92
100
AcDbEntity
  8
1
  6
CONTINUOUS
 62
     7
100
AcDbText
 10
424.7185
 20
71.148583
 30
0.0
 40
2.0
  1
ADDED MAIN CKT. BKR. AND M-O-A SWITCH
  7
MONOTXT
210
0.0
220
0.0
230
1.0
100
AcDbText
  0
TEXT
  5
93
100
AcDbEntity
  8
1
  6
CONTINUOUS
 62
     7
100
AcDbText
 10
424.782083
 20
66.565417
 30
0.0
 40
2.0
  1
ADDED NOTE - SEE TEL-06
  7
MONOTXT
210
0.0
220
0.0
230
1.0
100
AcDbText
  0
TEXT
  5
94
100
AcDbEntity
  8
1
  6
CONTINUOUS
 62
     7
100
AcDbText
 10
-19.439333
 20
363.056083
 30
0.0
 40
7.0
  1
SIGN LIGHTING ENCLOSURE WIRING DIAGRAM
  7
TXT
 72
     4
 11
93.9225
 21
366.556083
 31
0.0
210
0.0
220
0.0
230
1.0
100
AcDbText
  0
TEXT
  5
95
100
AcDbEntity
  8
1
  6
CONTINUOUS
 62
     7
100
AcDbText
 10
-35.495833
 20
351.056083
 30
0.0
 40
7.0
  1
FOR USE WITH SEPARATE LIGHTING POWER SOURCE
  7
TXT
 72
     4
 11
93.9225
 21
354.556083
 31
0.0
210
0.0
220
0.0
230
1.0
100
AcDbText
  0
TEXT
  5
96
100
AcDbEntity
  8
1
  6
CONTINUOUS
 62
     7
100
AcDbText
 10
35.639917
 20
341.158833
 30
0.0
 40
3.0
  1
SEE TEL-06 FOR DETAILS WHEN SIGN LIGHTING IS
  7
MONOTXT
 11
35.639917
 21
344.158833
 31
0.0
210
0.0
220
0.0
230
1.0
100
AcDbText
 73
     3
  0
TEXT
  5
97
100
AcDbEntity
  8
1
  6
CONTINUOUS
 62
     7
100
AcDbText
 10
35.639917
 20
336.158833
 30
0.0
 40
3.0
  1
INCLUDED WITH ROADWAY LIGHTING CIRCUITS.
  7
MONOTXT
 11
35.639917
 21
339.158833
 31
0.0
210
0.0
220
0.0
230
1.0
100
AcDbText
 73
     3
  0
ARC
  5
98
100
AcDbEntity
  8
1
  6
CONTINUOUS
 62
     7
100
AcDbCircle
 10
43.141788
 20
340.746003
 30
0.0
 40
11.479173
210
0.0
220
0.0
230
1.0
100
AcDbArc
 50
151.160428
 51
213.419569
  0
ARC
  5
99
100
AcDbEntity
  8
1
  6
CONTINUOUS
 62
     7
100
AcDbCircle
 10
146.329129
 20
340.746003
 30
0.0
 40
11.479173
210
0.0
220
0.0
230
1.0
100
AcDbArc
 50
326.580431
 51
28.839572
  0
LINE
  5
9A
100
AcDbEntity
  8
1
  6
CONTINUOUS
 62
   253
100
AcDbLine
 10
-12.925167
 20
176.480167
 30
0.0
 11
30.074833
 21
176.480167
 31
0.0
  0
LINE
  5
9B
100
AcDbEntity
  8
1
  6
CONTINUOUS
 62
   253
100
AcDbLine
 10
30.074833
 20
176.480167
 30
0.0
 11
30.074833
 21
83.480167
 31
0.0
  0
LINE
  5
9C
100
AcDbEntity
  8
1
  6
CONTINUOUS
 62
   253
100
AcDbLine
 10
30.074833
 20
83.480167
 30
0.0
 11
-12.925167
 21
83.480167
 31
0.0
  0
LINE
  5
9D
100
AcDbEntity
  8
1
  6
CONTINUOUS
 62
   253
100
AcDbLine
 10
-12.925167
 20
83.480167
 30
0.0
 11
-12.925167
 21
176.480167
 31
0.0
  0
LINE
  5
9E
100
AcDbEntity
  8
1
  6
CONTINUOUS
 62
   253
100
AcDbLine
 10
25.074833
 20
176.480167
 30
0.0
 11
25.074833
 21
83.480167
 31
0.0
  0
LINE
  5
9F
100
AcDbEntity
  8
1
  6
CONTINUOUS
 62
   253
100
AcDbLine
 10
26.574833
 20
168.980167
 30
0.0
 11
26.574833
 21
156.980167
 31
0.0
  0
LINE
  5
A0
100
AcDbEntity
  8
1
  6
CONTINUOUS
 62
   253
100
AcDbLine
 10
28.074833
 20
168.980167
 30
0.0
 11
28.074833
 21
156.980167
 31
0.0
  0
LINE
  5
A1
100
AcDbEntity
  8
1
  6
CONTINUOUS
 62
   253
100
AcDbLine
 10
26.574833
 20
168.980167
 30
0.0
 11
28.074833
 21
168.980167
 31
0.0
  0
LINE
  5
A2
100
AcDbEntity
  8
1
  6
CONTINUOUS
 62
   253
100
AcDbLine
 10
26.574833
 20
156.980167
 30
0.0
 11
28.074833
 21
156.980167
 31
0.0
  0
LINE
  5
A3
100
AcDbEntity
  8
1
  6
CONTINUOUS
 62
   253
100
AcDbLine
 10
20.074833
 20
106.480167
 30
0.0
 11
20.074833
 21
90.480167
 31
0.0
  0
LINE
  5
A4
100
AcDbEntity
  8
1
  6
CONTINUOUS
 62
   253
100
AcDbLine
 10
18.074833
 20
106.480167
 30
0.0
 11
18.074833
 21
90.480167
 31
0.0
  0
LINE
  5
A5
100
AcDbEntity
  8
1
  6
CONTINUOUS
 62
   253
100
AcDbLine
 10
18.074833
 20
90.480167
 30
0.0
 11
20.074833
 21
90.480167
 31
0.0
  0
LINE
  5
A6
100
AcDbEntity
  8
1
  6
CONTINUOUS
 62
   253
100
AcDbLine
 10
18.074833
 20
106.480167
 30
0.0
 11
20.074833
 21
106.480167
 31
0.0
  0
CIRCLE
  5
A7
100
AcDbEntity
  8
1
  6
CONTINUOUS
 62
   253
100
AcDbCircle
 10
8.641083
 20
97.565333
 30
0.0
 40
2.5
210
0.0
220
0.0
230
1.0
  0
CIRCLE
  5
A8
100
AcDbEntity
  8
1
  6
CONTINUOUS
 62
   253
100
AcDbCircle
 10
36.093667
 20
111.799333
 30
0.0
 40
2.5
210
0.0
220
0.0
230
1.0
  0
CIRCLE
  5
A9
100
AcDbEntity
  8
1
  6
CONTINUOUS
 62
   253
100
AcDbCircle
 10
34.368917
 20
163.415583
 30
0.0
 40
2.5
210
0.0
220
0.0
230
1.0
  0
TEXT
  5
AA
100
AcDbEntity
  8
1
  6
CONTINUOUS
 62
     7
100
AcDbText
 10
33.601167
 20
162.165583
 30
0.0
 40
2.5
  1
9
  7
MONOTXT
 72
     4
 11
34.378667
 21
163.415583
 31
0.0
210
0.0
220
0.0
230
1.0
100
AcDbText
  0
TEXT
  5
AB
100
AcDbEntity
  8
1
  6
CONTINUOUS
 62
     7
100
AcDbText
 10
34.55825
 20
110.549333
 30
0.0
 40
2.5
  1
10
  7
MONOTXT
 72
     4
 11
36.093667
 21
111.799333
 31
0.0
210
0.0
220
0.0
230
1.0
100
AcDbText
  0
TEXT
  5
AC
100
AcDbEntity
  8
1
  6
CONTINUOUS
 62
     7
100
AcDbText
 10
7.637167
 20
96.315333
 30
0.0
 40
2.5
  1
11
  7
MONOTXT
 72
     4
 11
8.641083
 21
97.565333
 31
0.0
210
0.0
220
0.0
230
1.0
100
AcDbText
  0
LINE
  5
AD
100
AcDbEntity
  8
1
  6
CONTINUOUS
 62
   253
100
AcDbLine
 10
64.574833
 20
176.480167
 30
0.0
 11
64.574833
 21
83.480167
 31
0.0
  0
LINE
  5
AE
100
AcDbEntity
  8
1
  6
CONTINUOUS
 62
   253
100
AcDbLine
 10
109.574833
 20
176.480167
 30
0.0
 11
109.574833
 21
83.480167
 31
0.0
  0
LINE
  5
AF
100
AcDbEntity
  8
1
  6
CONTINUOUS
 62
   253
100
AcDbLine
 10
64.574833
 20
176.480167
 30
0.0
 11
109.574833
 21
176.480167
 31
0.0
  0
LINE
  5
B0
100
AcDbEntity
  8
1
  6
CONTINUOUS
 62
   253
100
AcDbLine
 10
64.574833
 20
83.480167
 30
0.0
 11
109.574833
 21
83.480167
 31
0.0
  0
LINE
  5
B1
100
AcDbEntity
  8
1
  6
CONTINUOUS
 62
   253
100
AcDbLine
 10
66.074833
 20
170.980167
 30
0.0
 11
66.074833
 21
90.980167
 31
0.0
  0
LINE
  5
B2
100
AcDbEntity
  8
1
  6
CONTINUOUS
 62
   253
100
AcDbLine
 10
66.074833
 20
170.980167
 30
0.0
 11
82.574833
 21
170.980167
 31
0.0
  0
LINE
  5
B3
100
AcDbEntity
  8
1
  6
CONTINUOUS
 62
   253
100
AcDbLine
 10
66.074833
 20
90.980167
 30
0.0
 11
81.074833
 21
90.980167
 31
0.0
  0
LINE
  5
B4
100
AcDbEntity
  8
1
  6
CONTINUOUS
 62
   253
100
AcDbLine
 10
81.074833
 20
90.980167
 30
0.0
 11
81.074833
 21
76.980167
 31
0.0
  0
CIRCLE
  5
B5
100
AcDbEntity
  8
1
  6
CONTINUOUS
 62
   253
100
AcDbCircle
 10
82.574833
 20
170.980167
 30
0.0
 40
0.485374
210
0.0
220
0.0
230
1.0
  0
LINE
  5
B6
100
AcDbEntity
  8
1
  6
CONTINUOUS
 62
   253
100
AcDbLine
 10
84.074833
 20
170.980167
 30
0.0
 11
91.574833
 21
170.980167
 31
0.0
  0
LINE
  5
B7
100
AcDbEntity
  8
1
  6
CONTINUOUS
 62
   253
100
AcDbLine
 10
91.574833
 20
170.980167
 30
0.0
 11
91.574833
 21
166.480167
 31
0.0
  0
LINE
  5
B8
100
AcDbEntity
  8
1
  6
CONTINUOUS
 62
   253
100
AcDbLine
 10
81.574833
 20
172.980167
 30
0.0
 11
81.574833
 21
164.730167
 31
0.0
  0
LINE
  5
B9
100
AcDbEntity
  8
1
  6
CONTINUOUS
 62
   253
100
AcDbLine
 10
85.324833
 20
172.980167
 30
0.0
 11
85.324833
 21
164.730167
 31
0.0
  0
LINE
  5
BA
100
AcDbEntity
  8
1
  6
CONTINUOUS
 62
   253
100
AcDbLine
 10
81.574833
 20
172.980167
 30
0.0
 11
85.324833
 21
172.980167
 31
0.0
  0
LINE
  5
BB
100
AcDbEntity
  8
1
  6
CONTINUOUS
 62
   253
100
AcDbLine
 10
81.574833
 20
164.730167
 30
0.0
 11
85.324833
 21
164.730167
 31
0.0
  0
LINE
  5
BC
100
AcDbEntity
  8
1
  6
CONTINUOUS
 62
   253
100
AcDbLine
 10
91.574833
 20
154.480167
 30
0.0
 11
95.074833
 21
154.480167
 31
0.0
  0
LINE
  5
BD
100
AcDbEntity
  8
1
  6
CONTINUOUS
 62
   253
100
AcDbLine
 10
95.074833
 20
154.480167
 30
0.0
 11
95.074833
 21
159.980167
 31
0.0
  0
LINE
  5
BE
100
AcDbEntity
  8
1
  6
CONTINUOUS
 62
   253
100
AcDbLine
 10
95.074833
 20
159.980167
 30
0.0
 11
102.324833
 21
159.980167
 31
0.0
  0
LINE
  5
BF
100
AcDbEntity
  8
1
  6
CONTINUOUS
 62
   253
100
AcDbLine
 10
102.324833
 20
159.980167
 30
0.0
 11
102.324833
 21
155.980167
 31
0.0
  0
LINE
  5
C0
100
AcDbEntity
  8
1
  6
CONTINUOUS
 62
   253
100
AcDbLine
 10
100.324833
 20
155.980167
 30
0.0
 11
96.324833
 21
155.980167
 31
0.0
  0
LINE
  5
C1
100
AcDbEntity
  8
1
  6
CONTINUOUS
 62
   253
100
AcDbLine
 10
96.324833
 20
155.980167
 30
0.0
 11
96.324833
 21
149.980167
 31
0.0
  0
LINE
  5
C2
100
AcDbEntity
  8
1
  6
CONTINUOUS
 62
   253
100
AcDbLine
 10
96.324833
 20
149.980167
 30
0.0
 11
89.824833
 21
149.980167
 31
0.0
  0
LINE
  5
C3
100
AcDbEntity
  8
1
  6
CONTINUOUS
 62
   253
100
AcDbLine
 10
104.824833
 20
155.980167
 30
0.0
 11
104.824833
 21
150.480167
 31
0.0
  0
LINE
  5
C4
100
AcDbEntity
  8
1
  6
CONTINUOUS
 62
   253
100
AcDbLine
 10
104.824833
 20
150.480167
 30
0.0
 11
102.824833
 21
150.480167
 31
0.0
  0
LINE
  5
C5
100
AcDbEntity
  8
1
  6
CONTINUOUS
 62
   253
100
AcDbLine
 10
102.824833
 20
150.480167
 30
0.0
 11
102.824833
 21
122.980167
 31
0.0
  0
LINE
  5
C6
100
AcDbEntity
  8
1
  6
CONTINUOUS
 62
   253
100
AcDbLine
 10
93.574833
 20
168.230167
 30
0.0
 11
93.574833
 21
152.730167
 31
0.0
  0
LINE
  5
C7
100
AcDbEntity
  8
1
  6
CONTINUOUS
 62
   253
100
AcDbLine
 10
89.574833
 20
168.230167
 30
0.0
 11
89.574833
 21
152.730167
 31
0.0
  0
LINE
  5
C8
100
AcDbEntity
  8
1
  6
CONTINUOUS
 62
   253
100
AcDbLine
 10
89.574833
 20
168.230167
 30
0.0
 11
93.574833
 21
168.230167
 31
0.0
  0
LINE
  5
C9
100
AcDbEntity
  8
1
  6
CONTINUOUS
 62
   253
100
AcDbLine
 10
89.574833
 20
152.730167
 30
0.0
 11
93.574833
 21
152.730167
 31
0.0
  0
LINE
  5
CA
100
AcDbEntity
  8
1
  6
CONTINUOUS
 62
   253
100
AcDbLine
 10
107.824833
 20
158.980167
 30
0.0
 11
107.824833
 21
148.980167
 31
0.0
  0
LINE
  5
CB
100
AcDbEntity
  8
1
  6
CONTINUOUS
 62
   253
100
AcDbLine
 10
97.824833
 20
158.980167
 30
0.0
 11
97.824833
 21
148.980167
 31
0.0
  0
LINE
  5
CC
100
AcDbEntity
  8
1
  6
CONTINUOUS
 62
   253
100
AcDbLine
 10
97.824833
 20
158.980167
 30
0.0
 11
107.824833
 21
158.980167
 31
0.0
  0
LINE
  5
CD
100
AcDbEntity
  8
1
  6
CONTINUOUS
 62
   253
100
AcDbLine
 10
97.824833
 20
148.980167
 30
0.0
 11
107.824833
 21
148.980167
 31
0.0
  0
LINE
  5
CE
100
AcDbEntity
  8
1
  6
CONTINUOUS
 62
   253
100
AcDbLine
 10
100.824833
 20
122.980167
 30
0.0
 11
100.824833
 21
131.980167
 31
0.0
  0
LINE
  5
CF
100
AcDbEntity
  8
1
  6
CONTINUOUS
 62
   253
100
AcDbLine
 10
100.824833
 20
131.980167
 30
0.0
 11
91.574833
 21
131.980167
 31
0.0
  0
LINE
  5
D0
100
AcDbEntity
  8
1
  6
CONTINUOUS
 62
   253
100
AcDbLine
 10
98.324833
 20
122.980167
 30
0.0
 11
98.324833
 21
144.730167
 31
0.0
  0
LINE
  5
D1
100
AcDbEntity
  8
1
  6
CONTINUOUS
 62
   253
100
AcDbLine
 10
98.324833
 20
144.730167
 30
0.0
 11
74.324833
 21
144.730167
 31
0.0
  0
LINE
  5
D2
100
AcDbEntity
  8
1
  6
CONTINUOUS
 62
   253
100
AcDbLine
 10
102.824833
 20
120.980167
 30
0.0
 11
102.824833
 21
92.980167
 31
0.0
  0
LINE
  5
D3
100
AcDbEntity
  8
1
  6
CONTINUOUS
 62
   253
100
AcDbLine
 10
100.824833
 20
120.980167
 30
0.0
 11
100.824833
 21
94.480167
 31
0.0
  0
LINE
  5
D4
100
AcDbEntity
  8
1
  6
CONTINUOUS
 62
   253
100
AcDbLine
 10
98.324833
 20
120.980167
 30
0.0
 11
98.324833
 21
96.230167
 31
0.0
  0
POLYLINE
  5
D5
100
AcDbEntity
  8
1
  6
CONTINUOUS
 62
   253
100
AcDb2dPolyline
 66
     1
 10
0.0
 20
0.0
 30
0.0
 70
     1
  0
VERTEX
  5
D6
100
AcDbEntity
  8
1
  6
CONTINUOUS
 62
   253
100
AcDbVertex
100
AcDb2dVertex
 10
97.074833
 20
119.89875
 30
0.0
  0
VERTEX
  5
D7
100
AcDbEntity
  8
1
  6
CONTINUOUS
 62
   253
100
AcDbVertex
100
AcDb2dVertex
 10
97.074833
 20
124.14875
 30
0.0
  0
VERTEX
  5
D8
100
AcDbEntity
  8
1
  6
CONTINUOUS
 62
   253
100
AcDbVertex
100
AcDb2dVertex
 10
104.574833
 20
124.14875
 30
0.0
  0
VERTEX
  5
D9
100
AcDbEntity
  8
1
  6
CONTINUOUS
 62
   253
100
AcDbVertex
100
AcDb2dVertex
 10
104.574833
 20
119.89875
 30
0.0
  0
VERTEX
  5
DA
100
AcDbEntity
  8
1
  6
CONTINUOUS
 62
   253
100
AcDbVertex
100
AcDb2dVertex
 10
97.074833
 20
119.89875
 30
0.0
  0
SEQEND
  5
DB
100
AcDbEntity
  8
1
  6
CONTINUOUS
 62
   253
  0
LINE
  5
DC
100
AcDbEntity
  8
1
  6
CONTINUOUS
 62
   253
100
AcDbLine
 10
94.574833
 20
133.980167
 30
0.0
 11
94.574833
 21
113.980167
 31
0.0
  0
LINE
  5
DD
100
AcDbEntity
  8
1
  6
CONTINUOUS
 62
   253
100
AcDbLine
 10
88.574833
 20
133.980167
 30
0.0
 11
88.574833
 21
113.980167
 31
0.0
  0
LINE
  5
DE
100
AcDbEntity
  8
1
  6
CONTINUOUS
 62
   253
100
AcDbLine
 10
88.574833
 20
113.980167
 30
0.0
 11
94.574833
 21
113.980167
 31
0.0
  0
LINE
  5
DF
100
AcDbEntity
  8
1
  6
CONTINUOUS
 62
   253
100
AcDbLine
 10
88.574833
 20
133.980167
 30
0.0
 11
94.574833
 21
133.980167
 31
0.0
  0
LINE
  5
E0
100
AcDbEntity
  8
1
  6
CONTINUOUS
 62
   253
100
AcDbLine
 10
72.324833
 20
154.980167
 30
0.0
 11
72.324833
 21
140.730167
 31
0.0
  0
LINE
  5
E1
100
AcDbEntity
  8
1
  6
CONTINUOUS
 62
   253
100
AcDbLine
 10
76.324833
 20
154.980167
 30
0.0
 11
76.324833
 21
140.730167
 31
0.0
  0
LINE
  5
E2
100
AcDbEntity
  8
1
  6
CONTINUOUS
 62
   253
100
AcDbLine
 10
72.324833
 20
154.980167
 30
0.0
 11
76.324833
 21
154.980167
 31
0.0
  0
LINE
  5
E3
100
AcDbEntity
  8
1
  6
CONTINUOUS
 62
   253
100
AcDbLine
 10
72.324833
 20
140.730167
 30
0.0
 11
76.324833
 21
140.730167
 31
0.0
  0
LINE
  5
E4
100
AcDbEntity
  8
1
  6
CONTINUOUS
 62
   253
100
AcDbLine
 10
98.324833
 20
96.230167
 30
0.0
 11
87.824833
 21
96.230167
 31
0.0
  0
LINE
  5
E5
100
AcDbEntity
  8
1
  6
CONTINUOUS
 62
   253
100
AcDbLine
 10
100.824833
 20
94.480167
 30
0.0
 11
88.824833
 21
94.480167
 31
0.0
  0
LINE
  5
E6
100
AcDbEntity
  8
1
  6
CONTINUOUS
 62
   253
100
AcDbLine
 10
102.824833
 20
92.980167
 30
0.0
 11
91.074833
 21
92.980167
 31
0.0
  0
LINE
  5
E7
100
AcDbEntity
  8
1
  6
CONTINUOUS
 62
   253
100
AcDbLine
 10
87.824833
 20
96.230167
 30
0.0
 11
87.824833
 21
77.230167
 31
0.0
  0
LINE
  5
E8
100
AcDbEntity
  8
1
  6
CONTINUOUS
 62
   253
100
AcDbLine
 10
88.824833
 20
94.480167
 30
0.0
 11
88.824833
 21
79.480167
 31
0.0
  0
LINE
  5
E9
100
AcDbEntity
  8
1
  6
CONTINUOUS
 62
   253
100
AcDbLine
 10
91.074833
 20
92.980167
 30
0.0
 11
91.074833
 21
79.980167
 31
0.0
  0
LINE
  5
EA
100
AcDbEntity
  8
1
  6
CONTINUOUS
 62
   253
100
AcDbLine
 10
86.824833
 20
98.730167
 30
0.0
 11
86.824833
 21
76.980167
 31
0.0
  0
LINE
  5
EB
100
AcDbEntity
  8
1
  6
CONTINUOUS
 62
   253
100
AcDbLine
 10
85.824833
 20
96.480167
 30
0.0
 11
85.824833
 21
76.980167
 31
0.0
  0
LINE
  5
EC
100
AcDbEntity
  8
1
  6
CONTINUOUS
 62
   253
100
AcDbLine
 10
84.324833
 20
94.980167
 30
0.0
 11
84.324833
 21
69.980167
 31
0.0
  0
LINE
  5
ED
100
AcDbEntity
  8
1
  6
CONTINUOUS
 62
   253
100
AcDbLine
 10
83.074833
 20
92.980167
 30
0.0
 11
83.074833
 21
76.980167
 31
0.0
  0
LINE
  5
EE
100
AcDbEntity
  8
1
  6
CONTINUOUS
 62
   253
100
AcDbLine
 10
86.824833
 20
98.730167
 30
0.0
 11
92.074833
 21
98.730167
 31
0.0
  0
LINE
  5
EF
100
AcDbEntity
  8
1
  6
CONTINUOUS
 62
   253
100
AcDbLine
 10
92.074833
 20
98.730167
 30
0.0
 11
92.074833
 21
115.480167
 31
0.0
  0
LINE
  5
F0
100
AcDbEntity
  8
1
  6
CONTINUOUS
 62
   253
100
AcDbLine
 10
83.074833
 20
92.980167
 30
0.0
 11
67.824833
 21
92.980167
 31
0.0
  0
LINE
  5
F1
100
AcDbEntity
  8
1
  6
CONTINUOUS
 62
   253
100
AcDbLine
 10
84.324833
 20
94.980167
 30
0.0
 11
69.574833
 21
94.980167
 31
0.0
  0
LINE
  5
F2
100
AcDbEntity
  8
1
  6
CONTINUOUS
 62
   253
100
AcDbLine
 10
85.824833
 20
96.480167
 30
0.0
 11
71.324833
 21
96.480167
 31
0.0
  0
LINE
  5
F3
100
AcDbEntity
  8
1
  6
CONTINUOUS
 62
   253
100
AcDbLine
 10
67.824833
 20
92.980167
 30
0.0
 11
67.824833
 21
153.230167
 31
0.0
  0
LINE
  5
F4
100
AcDbEntity
  8
1
  6
CONTINUOUS
 62
   253
100
AcDbLine
 10
69.574833
 20
94.980167
 30
0.0
 11
69.574833
 21
150.730167
 31
0.0
  0
LINE
  5
F5
100
AcDbEntity
  8
1
  6
CONTINUOUS
 62
   253
100
AcDbLine
 10
71.324833
 20
96.480167
 30
0.0
 11
71.324833
 21
147.730167
 31
0.0
  0
LINE
  5
F6
100
AcDbEntity
  8
1
  6
CONTINUOUS
 62
   253
100
AcDbLine
 10
74.324833
 20
142.230167
 30
0.0
 11
84.824833
 21
142.230167
 31
0.0
  0
LINE
  5
F7
100
AcDbEntity
  8
1
  6
CONTINUOUS
 62
   253
100
AcDbLine
 10
89.574833
 20
115.480167
 30
0.0
 11
84.824833
 21
115.480167
 31
0.0
  0
LINE
  5
F8
100
AcDbEntity
  8
1
  6
CONTINUOUS
 62
   253
100
AcDbLine
 10
84.824833
 20
142.230167
 30
0.0
 11
84.824833
 21
115.480167
 31
0.0
  0
LINE
  5
F9
100
AcDbEntity
  8
1
  6
CONTINUOUS
 62
   253
100
AcDbLine
 10
74.324833
 20
153.230167
 30
0.0
 11
67.824833
 21
153.230167
 31
0.0
  0
LINE
  5
FA
100
AcDbEntity
  8
1
  6
CONTINUOUS
 62
   253
100
AcDbLine
 10
74.324833
 20
150.730167
 30
0.0
 11
69.574833
 21
150.730167
 31
0.0
  0
LINE
  5
FB
100
AcDbEntity
  8
1
  6
CONTINUOUS
 62
   253
100
AcDbLine
 10
74.324833
 20
147.730167
 30
0.0
 11
71.324833
 21
147.730167
 31
0.0
  0
LINE
  5
FC
100
AcDbEntity
  8
1
  6
CONTINUOUS
 62
   253
100
AcDbLine
 10
89.824833
 20
149.980167
 30
0.0
 11
89.824833
 21
145.980167
 31
0.0
  0
LINE
  5
FD
100
AcDbEntity
  8
1
  6
CONTINUOUS
 62
   253
100
AcDbLine
 10
89.824833
 20
143.480167
 30
0.0
 11
89.824833
 21
131.980167
 31
0.0
  0
ARC
  5
FE
100
AcDbEntity
  8
1
  6
CONTINUOUS
 62
   253
100
AcDbCircle
 10
89.871144
 20
144.730167
 30
0.0
 40
1.250858
210
0.0
220
0.0
230
1.0
100
AcDbArc
 50
92.12175
 51
267.87825
  0
CIRCLE
  5
FF
100
AcDbEntity
  8
1
  6
CONTINUOUS
 62
   253
100
AcDbCircle
 10
77.931167
 20
166.238167
 30
0.0
 40
2.5
210
0.0
220
0.0
230
1.0
  0
CIRCLE
  5
100
100
AcDbEntity
  8
1
  6
CONTINUOUS
 62
   253
100
AcDbCircle
 10
74.505083
 20
158.340667
 30
0.0
 40
2.5
210
0.0
220
0.0
230
1.0
  0
CIRCLE
  5
101
100
AcDbEntity
  8
1
  6
CONTINUOUS
 62
   253
100
AcDbCircle
 10
86.124
 20
154.7645
 30
0.0
 40
2.5
210
0.0
220
0.0
230
1.0
  0
CIRCLE
  5
102
100
AcDbEntity
  8
1
  6
CONTINUOUS
 62
   253
100
AcDbCircle
 10
105.339917
 20
162.810917
 30
0.0
 40
2.5
210
0.0
220
0.0
230
1.0
  0
CIRCLE
  5
103
100
AcDbEntity
  8
1
  6
CONTINUOUS
 62
   253
100
AcDbCircle
 10
91.635583
 20
123.919667
 30
0.0
 40
2.5
210
0.0
220
0.0
230
1.0
  0
CIRCLE
  5
104
100
AcDbEntity
  8
1
  6
CONTINUOUS
 62
   253
100
AcDbCircle
 10
107.127417
 20
122.280583
 30
0.0
 40
2.5
210
0.0
220
0.0
230
1.0
  0
TEXT
  5
105
100
AcDbEntity
  8
1
  6
CONTINUOUS
 62
   253
100
AcDbText
 10
77.635917
 20
164.988167
 30
0.0
 40
2.5
  1
1
  7
MONOTXT
 72
     4
 11
77.931167
 21
166.238167
 31
0.0
210
0.0
220
0.0
230
1.0
100
AcDbText
  0
TEXT
  5
106
100
AcDbEntity
  8
1
  6
CONTINUOUS
 62
   253
100
AcDbText
 10
73.61925
 20
157.090667
 30
0.0
 40
2.5
  1
4
  7
MONOTXT
 72
     4
 11
74.514917
 21
158.340667
 31
0.0
210
0.0
220
0.0
230
1.0
100
AcDbText
  0
TEXT
  5
107
100
AcDbEntity
  8
1
  6
CONTINUOUS
 62
   253
100
AcDbText
 10
85.29725
 20
153.5145
 30
0.0
 40
2.5
  1
2
  7
MONOTXT
 72
     4
 11
86.133833
 21
154.7645
 31
0.0
210
0.0
220
0.0
230
1.0
100
AcDbText
  0
TEXT
  5
108
100
AcDbEntity
  8
1
  6
CONTINUOUS
 62
   253
100
AcDbText
 10
104.513167
 20
161.560917
 30
0.0
 40
2.5
  1
3
  7
MONOTXT
 72
     4
 11
105.34975
 21
162.810917
 31
0.0
210
0.0
220
0.0
230
1.0
100
AcDbText
  0
TEXT
  5
109
100
AcDbEntity
  8
1
  6
CONTINUOUS
 62
   253
100
AcDbText
 10
90.808833
 20
122.669667
 30
0.0
 40
2.5
  1
5
  7
MONOTXT
 72
     4
 11
91.645417
 21
123.919667
 31
0.0
210
0.0
220
0.0
230
1.0
100
AcDbText
  0
TEXT
  5
10A
100
AcDbEntity
  8
1
  6
CONTINUOUS
 62
   253
100
AcDbText
 10
106.359667
 20
121.030583
 30
0.0
 40
2.5
  1
6
  7
MONOTXT
 72
     4
 11
107.137167
 21
122.280583
 31
0.0
210
0.0
220
0.0
230
1.0
100
AcDbText
  0
TEXT
  5
10B
100
AcDbEntity
  8
1
  6
CONTINUOUS
 62
   253
100
AcDbText
 10
98.374417
 20
156.537833
 30
0.0
 40
2.0
  1
M
  7
MONOTXT
 72
     4
 11
99.138167
 21
157.537833
 31
0.0
210
0.0
220
0.0
230
1.0
100
AcDbText
  0
TEXT
  5
10C
100
AcDbEntity
  8
1
  6
CONTINUOUS
 62
   253
100
AcDbText
 10
105.496917
 20
156.482083
 30
0.0
 40
2.0
  1
A
  7
MONOTXT
 72
     4
 11
106.268583
 21
157.482083
 31
0.0
210
0.0
220
0.0
230
1.0
100
AcDbText
  0
TEXT
  5
10D
100
AcDbEntity
  8
1
  6
CONTINUOUS
 62
   253
100
AcDbText
 10
98.155833
 20
151.244
 30
0.0
 40
2.0
  1
OFF
  7
MONOTXT
 72
     4
 11
100.809333
 21
152.244
 31
0.0
210
0.0
220
0.0
230
1.0
100
AcDbText
  0
CIRCLE
  5
10E
100
AcDbEntity
  8
1
  6
CONTINUOUS
 62
   253
100
AcDbCircle
 10
102.946167
 20
151.408167
 30
0.0
 40
0.25
210
0.0
220
0.0
230
1.0
  0
LINE
  5
10F
100
AcDbEntity
  8
1
  6
CONTINUOUS
 62
   253
100
AcDbLine
 10
90.074833
 20
76.980167
 30
0.0
 11
97.574833
 21
76.980167
 31
0.0
  0
LINE
  5
110
100
AcDbEntity
  8
1
  6
CONTINUOUS
 62
   253
100
AcDbLine
 10
97.574833
 20
76.980167
 30
0.0
 11
97.574833
 21
70.480167
 31
0.0
  0
LINE
  5
111
100
AcDbEntity
  8
1
  6
CONTINUOUS
 62
   253
100
AcDbLine
 10
90.074833
 20
76.980167
 30
0.0
 11
90.074833
 21
70.480167
 31
0.0
  0
LINE
  5
112
100
AcDbEntity
  8
1
  6
CONTINUOUS
 62
   253
100
AcDbLine
 10
90.074833
 20
70.480167
 30
0.0
 11
97.574833
 21
70.480167
 31
0.0
  0
LINE
  5
113
100
AcDbEntity
  8
1
  6
CONTINUOUS
 62
   253
100
AcDbLine
 10
91.074833
 20
79.980167
 30
0.0
 11
96.111417
 21
75.636833
 31
0.0
  0
LINE
  5
114
100
AcDbEntity
  8
1
  6
CONTINUOUS
 62
   253
100
AcDbLine
 10
88.824833
 20
79.480167
 30
0.0
 11
92.353417
 21
75.77225
 31
0.0
  0
LINE
  5
115
100
AcDbEntity
  8
1
  6
CONTINUOUS
 62
   253
100
AcDbLine
 10
87.824833
 20
77.230167
 30
0.0
 11
92.18775
 21
72.885667
 31
0.0
  0
LINE
  5
116
100
AcDbEntity
  8
1
  6
CONTINUOUS
 62
   253
100
AcDbLine
 10
82.324833
 20
69.980167
 30
0.0
 11
86.324833
 21
69.980167
 31
0.0
  0
LINE
  5
117
100
AcDbEntity
  8
1
  6
CONTINUOUS
 62
   253
100
AcDbLine
 10
82.824833
 20
69.230167
 30
0.0
 11
85.824833
 21
69.230167
 31
0.0
  0
LINE
  5
118
100
AcDbEntity
  8
1
  6
CONTINUOUS
 62
   253
100
AcDbLine
 10
83.324833
 20
68.480167
 30
0.0
 11
85.324833
 21
68.480167
 31
0.0
  0
LINE
  5
119
100
AcDbEntity
  8
1
  6
CONTINUOUS
 62
   253
100
AcDbLine
 10
83.824833
 20
67.730167
 30
0.0
 11
84.824833
 21
67.730167
 31
0.0
  0
LINE
  5
11A
100
AcDbEntity
  8
1
  6
CONTINUOUS
 62
   253
100
AcDbLine
 10
84.074833
 20
66.980167
 30
0.0
 11
84.574833
 21
66.980167
 31
0.0
  0
CIRCLE
  5
11B
100
AcDbEntity
  8
1
  6
CONTINUOUS
 62
   253
100
AcDbCircle
 10
101.68225
 20
73.2535
 30
0.0
 40
2.5
210
0.0
220
0.0
230
1.0
  0
CIRCLE
  5
11C
100
AcDbEntity
  8
1
  6
CONTINUOUS
 62
   253
100
AcDbCircle
 10
85.88775
 20
93.250583
 30
0.0
 40
6.75
210
0.0
220
0.0
230
1.0
  0
CIRCLE
  5
11D
100
AcDbEntity
  8
1
  6
CONTINUOUS
 62
   253
100
AcDbCircle
 10
96.060333
 20
88.6015
 30
0.0
 40
2.5
210
0.0
220
0.0
230
1.0
  0
TEXT
  5
11E
100
AcDbEntity
  8
1
  6
CONTINUOUS
 62
     7
100
AcDbText
 10
95.213917
 20
87.3515
 30
0.0
 40
2.5
  1
7
  7
MONOTXT
 72
     4
 11
96.060333
 21
88.6015
 31
0.0
210
0.0
220
0.0
230
1.0
100
AcDbText
  0
TEXT
  5
11F
100
AcDbEntity
  8
1
  6
CONTINUOUS
 62
     7
100
AcDbText
 10
100.8555
 20
72.0035
 30
0.0
 40
2.5
  1
8
  7
MONOTXT
 72
     4
 11
101.692083
 21
73.2535
 31
0.0
210
0.0
220
0.0
230
1.0
100
AcDbText
  0
LINE
  5
120
100
AcDbEntity
  8
1
  6
CONTINUOUS
 62
     7
100
AcDbLine
 10
-21.304833
 20
50.726917
 30
0.0
 11
124.093417
 21
50.726917
 31
0.0
  0
LINE
  5
121
100
AcDbEntity
  8
1
  6
CONTINUOUS
 62
     7
100
AcDbLine
 10
25.5885
 20
44.40025
 30
0.0
 11
76.718917
 21
44.40025
 31
0.0
  0
TEXT
  5
122
100
AcDbEntity
  8
1
  6
CONTINUOUS
 62
     7
100
AcDbText
 10
23.845667
 20
39.166833
 30
0.0
 40
2.5
  1
(120 VOLT SYSTEM SHOWN)
  7
MONOTXT
 72
     4
 11
51.3555
 21
40.416833
 31
0.0
210
0.0
220
0.0
230
1.0
100
AcDbText
  0
TEXT
  5
123
100
AcDbEntity
  8
1
  6
CONTINUOUS
 62
     7
100
AcDbText
 10
-15.973083
 20
12.937333
 30
0.0
 40
2.5
  1
WHEN USED ON WOOD POLE, APPROPRIATE CONDUIT HUBS SHALL BE INSTALLED
  7
MONOTXT
 11
-15.973083
 21
15.437333
 31
0.0
210
0.0
220
0.0
230
1.0
100
AcDbText
 73
     3
  0
TEXT
  5
124
100
AcDbEntity
  8
1
  6
CONTINUOUS
 62
     7
100
AcDbText
 10
-15.973083
 20
8.437333
 30
0.0
 40
2.5
  1
ON BOTTOM AS NECESSARY TO FOLLOW CONDUIT ON POLE.
  7
MONOTXT
 11
-15.973083
 21
10.937333
 31
0.0
210
0.0
220
0.0
230
1.0
100
AcDbText
 73
     3
  0
TEXT
  5
125
100
AcDbEntity
  8
1
  6
CONTINUOUS
 62
     7
100
AcDbText
 10
-21.422083
 20
11.258833
 30
0.0
 40
6.0
  1
*
  7
MONOTXT
 72
     4
 11
-20.264583
 21
14.258833
 31
0.0
210
0.0
220
0.0
230
1.0
100
AcDbText
  0
TEXT
  5
126
100
AcDbEntity
  8
1
  6
CONTINUOUS
 62
     7
100
AcDbText
 10
-22.16625
 20
12.90775
 30
0.0
 40
2.5
  1
( )
  7
MONOTXT
 72
     4
 11
-20.266667
 21
14.15775
 31
0.0
210
0.0
220
0.0
230
1.0
100
AcDbText
  0
TEXT
  5
127
100
AcDbEntity
  8
1
  6
CONTINUOUS
 62
     7
100
AcDbText
 10
155.05975
 20
297.92775
 30
0.0
 40
3.0
  1
LEGEND
  7
MONOTXT
 72
     4
 11
163.292
 21
299.42775
 31
0.0
210
0.0
220
0.0
230
1.0
100
AcDbText
  0
LINE
  5
128
100
AcDbEntity
  8
1
  6
CONTINUOUS
 62
     7
100
AcDbLine
 10
152.51825
 20
296.198083
 30
0.0
 11
172.998167
 21
296.198083
 31
0.0
  0
POLYLINE
  5
129
100
AcDbEntity
  8
1
  6
CONTINUOUS
 62
   132
100
AcDb2dPolyline
 66
     1
 10
0.0
 20
0.0
 30
0.0
  0
VERTEX
  5
12A
100
AcDbEntity
  8
1
  6
CONTINUOUS
 62
   132
100
AcDbVertex
100
AcDb2dVertex
 10
249.49925
 20
252.028334
 30
0.0
 42
0.680339
  0
VERTEX
  5
12B
100
AcDbEntity
  8
1
  6
CONTINUOUS
 62
   132
100
AcDbVertex
100
AcDb2dVertex
 10
239.894297
 20
253.029065
 30
0.0
  0
VERTEX
  5
12C
100
AcDbEntity
  8
1
  6
CONTINUOUS
 62
   132
100
AcDbVertex
100
AcDb2dVertex
 10
239.910917
 20
252.966583
 30
0.0
 42
0.613196
  0
VERTEX
  5
12D
100
AcDbEntity
  8
1
  6
CONTINUOUS
 62
   132
100
AcDbVertex
100
AcDb2dVertex
 10
249.119007
 20
251.056269
 30
0.0
  0
VERTEX
  5
12E
100
AcDbEntity
  8
1
  6
CONTINUOUS
 62
   132
100
AcDbVertex
100
AcDb2dVertex
 10
249.131888
 20
251.081573
 30
0.0
 42
0.049025
  0
VERTEX
  5
12F
100
AcDbEntity
  8
1
  6
CONTINUOUS
 62
   132
100
AcDbVertex
100
AcDb2dVertex
 10
249.49925
 20
252.028333
 30
0.0
  0
SEQEND
  5
130
100
AcDbEntity
  8
1
  6
CONTINUOUS
 62
   132
  0
ARC
  5
131
100
AcDbEntity
  8
1
  6
CONTINUOUS
 62
   132
100
AcDbCircle
 10
254.49925
 20
253.423782
 30
0.0
 40
5.191077
210
0.0
220
0.0
230
1.0
100
AcDbArc
 50
195.593869
 51
344.406128
  0
ARC
  5
132
100
AcDbEntity
  8
1
  6
CONTINUOUS
 62
   132
100
AcDbCircle
 10
244.49925
 20
253.423782
 30
0.0
 40
5.191077
210
0.0
220
0.0
230
1.0
100
AcDbArc
 50
195.593869
 51
332.865964
  0
LINE
  5
133
100
AcDbEntity
  8
1
  6
CONTINUOUS
 62
   132
100
AcDbLine
 10
240.07325
 20
252.489083
 30
0.0
 11
243.132333
 21
249.43
 31
0.0
  0
LINE
  5
134
100
AcDbEntity
  8
1
  6
CONTINUOUS
 62
   132
100
AcDbLine
 10
240.298167
 20
253.678417
 30
0.0
 11
244.887333
 21
249.08925
 31
0.0
  0
LINE
  5
135
100
AcDbEntity
  8
1
  6
CONTINUOUS
 62
   132
100
AcDbLine
 10
240.96725
 20
254.4235
 30
0.0
 11
246.171167
 21
249.219583
 31
0.0
  0
LINE
  5
136
100
AcDbEntity
  8
1
  6
CONTINUOUS
 62
   132
100
AcDbLine
 10
241.763417
 20
255.041583
 30
0.0
 11
247.228333
 21
249.576667
 31
0.0
  0
LINE
  5
137
100
AcDbEntity
  8
1
  6
CONTINUOUS
 62
   132
100
AcDbLine
 10
242.71875
 20
255.500417
 30
0.0
 11
248.114417
 21
250.10475
 31
0.0
  0
LINE
  5
138
100
AcDbEntity
  8
1
  6
CONTINUOUS
 62
   132
100
AcDbLine
 10
243.859083
 20
255.774333
 30
0.0
 11
248.8635
 21
250.769917
 31
0.0
  0
LINE
  5
139
100
AcDbEntity
  8
1
  6
CONTINUOUS
 62
   132
100
AcDbLine
 10
245.2915
 20
255.756083
 30
0.0
 11
249.382667
 21
251.664917
 31
0.0
  0
LINE
  5
13A
100
AcDbEntity
  8
1
  6
CONTINUOUS
 62
   132
100
AcDbLine
 10
238.74925
 20
302.278333
 30
0.0
 11
258.24925
 21
302.278333
 31
0.0
  0
LINE
  5
13B
100
AcDbEntity
  8
1
  6
CONTINUOUS
 62
   132
100
AcDbLine
 10
238.74925
 20
261.778333
 30
0.0
 11
258.24925
 21
261.778333
 31
0.0
  0
LINE
  5
13C
100
AcDbEntity
  8
1
  6
CONTINUOUS
 62
   132
100
AcDbLine
 10
238.74925
 20
302.278333
 30
0.0
 11
238.74925
 21
261.778333
 31
0.0
  0
LINE
  5
13D
100
AcDbEntity
  8
1
  6
CONTINUOUS
 62
   132
100
AcDbLine
 10
258.24925
 20
302.278333
 30
0.0
 11
258.24925
 21
261.778333
 31
0.0
  0
LINE
  5
13E
100
AcDbEntity
  8
1
  6
CONTINUOUS
 62
   132
100
AcDbLine
 10
235.99925
 20
303.028333
 30
0.0
 11
262.49925
 21
303.028333
 31
0.0
  0
LINE
  5
13F
100
AcDbEntity
  8
1
  6
CONTINUOUS
 62
   132
100
AcDbLine
 10
237.74925
 20
261.028333
 30
0.0
 11
259.49925
 21
261.028333
 31
0.0
  0
LINE
  5
140
100
AcDbEntity
  8
1
  6
CONTINUOUS
 62
   132
100
AcDbLine
 10
235.99925
 20
306.028333
 30
0.0
 11
262.49925
 21
306.028333
 31
0.0
  0
LINE
  5
141
100
AcDbEntity
  8
1
  6
CONTINUOUS
 62
   132
100
AcDbLine
 10
235.99925
 20
306.028333
 30
0.0
 11
235.99925
 21
303.028333
 31
0.0
  0
LINE
  5
142
100
AcDbEntity
  8
1
  6
CONTINUOUS
 62
   132
100
AcDbLine
 10
262.49925
 20
306.028333
 30
0.0
 11
262.49925
 21
303.028333
 31
0.0
  0
LINE
  5
143
100
AcDbEntity
  8
1
  6
CONTINUOUS
 62
   132
100
AcDbLine
 10
237.99925
 20
305.028333
 30
0.0
 11
237.99925
 21
304.028333
 31
0.0
  0
LINE
  5
144
100
AcDbEntity
  8
1
  6
CONTINUOUS
 62
   132
100
AcDbLine
 10
260.49925
 20
305.028333
 30
0.0
 11
260.49925
 21
304.028333
 31
0.0
  0
LINE
  5
145
100
AcDbEntity
  8
1
  6
CONTINUOUS
 62
   132
100
AcDbLine
 10
235.99925
 20
305.028333
 30
0.0
 11
237.99925
 21
305.028333
 31
0.0
  0
LINE
  5
146
100
AcDbEntity
  8
1
  6
CONTINUOUS
 62
   132
100
AcDbLine
 10
260.49925
 20
305.028333
 30
0.0
 11
262.49925
 21
305.028333
 31
0.0
  0
LINE
  5
147
100
AcDbEntity
  8
1
  6
CONTINUOUS
 62
   132
100
AcDbLine
 10
235.99925
 20
304.028333
 30
0.0
 11
237.99925
 21
304.028333
 31
0.0
  0
LINE
  5
148
100
AcDbEntity
  8
1
  6
CONTINUOUS
 62
   132
100
AcDbLine
 10
260.49925
 20
304.028333
 30
0.0
 11
262.49925
 21
304.028333
 31
0.0
  0
LINE
  5
149
100
AcDbEntity
  8
1
  6
CONTINUOUS
 62
   132
100
AcDbLine
 10
236.49925
 20
306.528333
 30
0.0
 11
237.74925
 21
306.528333
 31
0.0
  0
LINE
  5
14A
100
AcDbEntity
  8
1
  6
CONTINUOUS
 62
   132
100
AcDbLine
 10
260.74925
 20
306.528333
 30
0.0
 11
261.99925
 21
306.528333
 31
0.0
  0
LINE
  5
14B
100
AcDbEntity
  8
1
  6
CONTINUOUS
 62
   132
100
AcDbLine
 10
236.49925
 20
306.528333
 30
0.0
 11
236.49925
 21
306.028333
 31
0.0
  0
LINE
  5
14C
100
AcDbEntity
  8
1
  6
CONTINUOUS
 62
   132
100
AcDbLine
 10
237.74925
 20
306.528333
 30
0.0
 11
237.74925
 21
306.028333
 31
0.0
  0
LINE
  5
14D
100
AcDbEntity
  8
1
  6
CONTINUOUS
 62
   132
100
AcDbLine
 10
261.99925
 20
306.528333
 30
0.0
 11
261.99925
 21
306.028333
 31
0.0
  0
LINE
  5
14E
100
AcDbEntity
  8
1
  6
CONTINUOUS
 62
   132
100
AcDbLine
 10
260.74925
 20
306.528333
 30
0.0
 11
260.74925
 21
306.028333
 31
0.0
  0
LINE
  5
14F
100
AcDbEntity
  8
1
  6
CONTINUOUS
 62
   132
100
AcDbLine
 10
236.49925
 20
302.528333
 30
0.0
 11
236.49925
 21
303.028333
 31
0.0
  0
LINE
  5
150
100
AcDbEntity
  8
1
  6
CONTINUOUS
 62
   132
100
AcDbLine
 10
261.99925
 20
302.528333
 30
0.0
 11
261.99925
 21
303.028333
 31
0.0
  0
LINE
  5
151
100
AcDbEntity
  8
1
  6
CONTINUOUS
 62
   132
100
AcDbLine
 10
236.49925
 20
302.528333
 30
0.0
 11
237.74925
 21
302.528333
 31
0.0
  0
LINE
  5
152
100
AcDbEntity
  8
1
  6
CONTINUOUS
 62
   132
100
AcDbLine
 10
260.74925
 20
302.528333
 30
0.0
 11
261.99925
 21
302.528333
 31
0.0
  0
LINE
  5
153
100
AcDbEntity
  8
1
  6
CONTINUOUS
 62
   132
100
AcDbLine
 10
237.74925
 20
302.528333
 30
0.0
 11
237.74925
 21
303.028333
 31
0.0
  0
LINE
  5
154
100
AcDbEntity
  8
1
  6
CONTINUOUS
 62
   132
100
AcDbLine
 10
260.74925
 20
302.528333
 30
0.0
 11
260.74925
 21
303.028333
 31
0.0
  0
LINE
  5
155
100
AcDbEntity
  8
1
  6
CONTINUOUS
 62
   132
100
AcDbLine
 10
237.12425
 20
302.528333
 30
0.0
 11
237.12425
 21
303.028333
 31
0.0
  0
LINE
  5
156
100
AcDbEntity
  8
1
  6
CONTINUOUS
 62
   132
100
AcDbLine
 10
261.37425
 20
302.528333
 30
0.0
 11
261.37425
 21
303.028333
 31
0.0
  0
LINE
  5
157
100
AcDbEntity
  8
1
  6
CONTINUOUS
 62
   132
100
AcDbLine
 10
239.99925
 20
305.028333
 30
0.0
 11
258.49925
 21
305.028333
 31
0.0
  0
LINE
  5
158
100
AcDbEntity
  8
1
  6
CONTINUOUS
 62
   132
100
AcDbLine
 10
237.74925
 20
303.028333
 30
0.0
 11
239.99925
 21
305.028333
 31
0.0
  0
LINE
  5
159
100
AcDbEntity
  8
1
  6
CONTINUOUS
 62
   132
100
AcDbLine
 10
260.74925
 20
303.028333
 30
0.0
 11
258.49925
 21
305.028333
 31
0.0
  0
CIRCLE
  5
15A
100
AcDbEntity
  8
1
  6
CONTINUOUS
 62
   132
100
AcDbCircle
 10
240.99925
 20
304.028333
 30
0.0
 40
0.5
210
0.0
220
0.0
230
1.0
  0
CIRCLE
  5
15B
100
AcDbEntity
  8
1
  6
CONTINUOUS
 62
   132
100
AcDbCircle
 10
249.49925
 20
304.028333
 30
0.0
 40
0.5
210
0.0
220
0.0
230
1.0
  0
CIRCLE
  5
15C
100
AcDbEntity
  8
1
  6
CONTINUOUS
 62
   132
100
AcDbCircle
 10
257.99925
 20
304.028333
 30
0.0
 40
0.5
210
0.0
220
0.0
230
1.0
  0
LINE
  5
15D
100
AcDbEntity
  8
1
  6
CONTINUOUS
 62
   132
100
AcDbLine
 10
237.74925
 20
302.528333
 30
0.0
 11
237.74925
 21
261.028333
 31
0.0
  0
LINE
  5
15E
100
AcDbEntity
  8
1
  6
CONTINUOUS
 62
   132
100
AcDbLine
 10
235.99925
 20
261.028333
 30
0.0
 11
262.49925
 21
261.028333
 31
0.0
  0
LINE
  5
15F
100
AcDbEntity
  8
1
  6
CONTINUOUS
 62
   132
100
AcDbLine
 10
235.99925
 20
258.028333
 30
0.0
 11
262.49925
 21
258.028333
 31
0.0
  0
LINE
  5
160
100
AcDbEntity
  8
1
  6
CONTINUOUS
 62
   132
100
AcDbLine
 10
235.99925
 20
261.028333
 30
0.0
 11
235.99925
 21
258.028333
 31
0.0
  0
LINE
  5
161
100
AcDbEntity
  8
1
  6
CONTINUOUS
 62
   132
100
AcDbLine
 10
262.49925
 20
261.028333
 30
0.0
 11
262.49925
 21
258.028333
 31
0.0
  0
LINE
  5
162
100
AcDbEntity
  8
1
  6
CONTINUOUS
 62
   132
100
AcDbLine
 10
237.99925
 20
260.028333
 30
0.0
 11
237.99925
 21
259.028333
 31
0.0
  0
LINE
  5
163
100
AcDbEntity
  8
1
  6
CONTINUOUS
 62
   132
100
AcDbLine
 10
260.49925
 20
260.028333
 30
0.0
 11
260.49925
 21
259.028333
 31
0.0
  0
LINE
  5
164
100
AcDbEntity
  8
1
  6
CONTINUOUS
 62
   132
100
AcDbLine
 10
235.99925
 20
260.028333
 30
0.0
 11
237.99925
 21
260.028333
 31
0.0
  0
LINE
  5
165
100
AcDbEntity
  8
1
  6
CONTINUOUS
 62
   132
100
AcDbLine
 10
260.49925
 20
260.028333
 30
0.0
 11
262.49925
 21
260.028333
 31
0.0
  0
LINE
  5
166
100
AcDbEntity
  8
1
  6
CONTINUOUS
 62
   132
100
AcDbLine
 10
235.99925
 20
259.028333
 30
0.0
 11
237.99925
 21
259.028333
 31
0.0
  0
LINE
  5
167
100
AcDbEntity
  8
1
  6
CONTINUOUS
 62
   132
100
AcDbLine
 10
260.49925
 20
259.028333
 30
0.0
 11
262.49925
 21
259.028333
 31
0.0
  0
LINE
  5
168
100
AcDbEntity
  8
1
  6
CONTINUOUS
 62
   132
100
AcDbLine
 10
236.49925
 20
261.528333
 30
0.0
 11
237.74925
 21
261.528333
 31
0.0
  0
LINE
  5
169
100
AcDbEntity
  8
1
  6
CONTINUOUS
 62
   132
100
AcDbLine
 10
260.74925
 20
261.528333
 30
0.0
 11
261.99925
 21
261.528333
 31
0.0
  0
LINE
  5
16A
100
AcDbEntity
  8
1
  6
CONTINUOUS
 62
   132
100
AcDbLine
 10
236.49925
 20
261.528333
 30
0.0
 11
236.49925
 21
261.028333
 31
0.0
  0
LINE
  5
16B
100
AcDbEntity
  8
1
  6
CONTINUOUS
 62
   132
100
AcDbLine
 10
237.74925
 20
261.528333
 30
0.0
 11
237.74925
 21
261.028333
 31
0.0
  0
LINE
  5
16C
100
AcDbEntity
  8
1
  6
CONTINUOUS
 62
   132
100
AcDbLine
 10
261.99925
 20
261.528333
 30
0.0
 11
261.99925
 21
261.028333
 31
0.0
  0
LINE
  5
16D
100
AcDbEntity
  8
1
  6
CONTINUOUS
 62
   132
100
AcDbLine
 10
260.74925
 20
261.528333
 30
0.0
 11
260.74925
 21
261.028333
 31
0.0
  0
LINE
  5
16E
100
AcDbEntity
  8
1
  6
CONTINUOUS
 62
   132
100
AcDbLine
 10
236.49925
 20
257.528333
 30
0.0
 11
236.49925
 21
258.028333
 31
0.0
  0
LINE
  5
16F
100
AcDbEntity
  8
1
  6
CONTINUOUS
 62
   132
100
AcDbLine
 10
261.99925
 20
257.528333
 30
0.0
 11
261.99925
 21
258.028333
 31
0.0
  0
LINE
  5
170
100
AcDbEntity
  8
1
  6
CONTINUOUS
 62
   132
100
AcDbLine
 10
236.49925
 20
257.528333
 30
0.0
 11
237.74925
 21
257.528333
 31
0.0
  0
LINE
  5
171
100
AcDbEntity
  8
1
  6
CONTINUOUS
 62
   132
100
AcDbLine
 10
260.74925
 20
257.528333
 30
0.0
 11
261.99925
 21
257.528333
 31
0.0
  0
LINE
  5
172
100
AcDbEntity
  8
1
  6
CONTINUOUS
 62
   132
100
AcDbLine
 10
260.74925
 20
257.528333
 30
0.0
 11
260.74925
 21
258.028333
 31
0.0
  0
LINE
  5
173
100
AcDbEntity
  8
1
  6
CONTINUOUS
 62
   132
100
AcDbLine
 10
237.12425
 20
257.528333
 30
0.0
 11
237.12425
 21
258.028333
 31
0.0
  0
LINE
  5
174
100
AcDbEntity
  8
1
  6
CONTINUOUS
 62
   132
100
AcDbLine
 10
261.37425
 20
257.528333
 30
0.0
 11
261.37425
 21
258.028333
 31
0.0
  0
LINE
  5
175
100
AcDbEntity
  8
1
  6
CONTINUOUS
 62
   132
100
AcDbLine
 10
237.74925
 20
257.528333
 30
0.0
 11
237.74925
 21
258.028333
 31
0.0
  0
LINE
  5
176
100
AcDbEntity
  8
1
  6
CONTINUOUS
 62
   132
100
AcDbLine
 10
260.74925
 20
302.528333
 30
0.0
 11
260.74925
 21
261.528333
 31
0.0
  0
LINE
  5
177
100
AcDbEntity
  8
1
  6
CONTINUOUS
 62
   132
100
AcDbLine
 10
239.49925
 20
317.028333
 30
0.0
 11
239.49925
 21
306.028333
 31
0.0
  0
LINE
  5
178
100
AcDbEntity
  8
1
  6
CONTINUOUS
 62
   132
100
AcDbLine
 10
259.49925
 20
317.028333
 30
0.0
 11
259.49925
 21
306.028333
 31
0.0
  0
LINE
  5
179
100
AcDbEntity
  8
1
  6
HIDDEN
 62
   132
100
AcDbLine
 10
239.49925
 20
306.028333
 30
0.0
 11
239.49925
 21
258.028333
 31
0.0
  0
LINE
  5
17A
100
AcDbEntity
  8
1
  6
CONTINUOUS
 62
   132
100
AcDbLine
 10
239.49925
 20
258.028333
 30
0.0
 11
239.49925
 21
252.028333
 31
0.0
  0
LINE
  5
17B
100
AcDbEntity
  8
1
  6
HIDDEN
 62
   132
100
AcDbLine
 10
259.49925
 20
306.028333
 30
0.0
 11
259.49925
 21
258.028333
 31
0.0
  0
LINE
  5
17C
100
AcDbEntity
  8
1
  6
CONTINUOUS
 62
   132
100
AcDbLine
 10
259.49925
 20
258.028333
 30
0.0
 11
259.49925
 21
252.028333
 31
0.0
  0
LINE
  5
17D
100
AcDbEntity
  8
1
  6
CONTINUOUS
 62
   132
100
AcDbLine
 10
239.99925
 20
259.028333
 30
0.0
 11
258.49925
 21
259.028333
 31
0.0
  0
LINE
  5
17E
100
AcDbEntity
  8
1
  6
CONTINUOUS
 62
   132
100
AcDbLine
 10
237.74925
 20
261.028333
 30
0.0
 11
239.99925
 21
259.028333
 31
0.0
  0
LINE
  5
17F
100
AcDbEntity
  8
1
  6
CONTINUOUS
 62
   132
100
AcDbLine
 10
260.74925
 20
261.028333
 30
0.0
 11
258.49925
 21
259.028333
 31
0.0
  0
CIRCLE
  5
180
100
AcDbEntity
  8
1
  6
CONTINUOUS
 62
   132
100
AcDbCircle
 10
240.99925
 20
260.028333
 30
0.0
 40
0.5
210
0.0
220
0.0
230
1.0
  0
CIRCLE
  5
181
100
AcDbEntity
  8
1
  6
CONTINUOUS
 62
   132
100
AcDbCircle
 10
249.49925
 20
260.028333
 30
0.0
 40
0.5
210
0.0
220
0.0
230
1.0
  0
CIRCLE
  5
182
100
AcDbEntity
  8
1
  6
CONTINUOUS
 62
   132
100
AcDbCircle
 10
257.99925
 20
260.028333
 30
0.0
 40
0.5
210
0.0
220
0.0
230
1.0
  0
LINE
  5
183
100
AcDbEntity
  8
1
  6
CONTINUOUS
 62
   132
100
AcDbLine
 10
258.74925
 20
297.028333
 30
0.0
 11
260.24925
 21
297.028333
 31
0.0
  0
LINE
  5
184
100
AcDbEntity
  8
1
  6
CONTINUOUS
 62
   132
100
AcDbLine
 10
258.49925
 20
285.778333
 30
0.0
 11
260.49925
 21
285.778333
 31
0.0
  0
LINE
  5
185
100
AcDbEntity
  8
1
  6
CONTINUOUS
 62
   132
100
AcDbLine
 10
258.49925
 20
287.278333
 30
0.0
 11
260.49925
 21
287.278333
 31
0.0
  0
LINE
  5
186
100
AcDbEntity
  8
1
  6
CONTINUOUS
 62
   132
100
AcDbLine
 10
258.49925
 20
287.278333
 30
0.0
 11
258.49925
 21
285.778333
 31
0.0
  0
LINE
  5
187
100
AcDbEntity
  8
1
  6
CONTINUOUS
 62
   132
100
AcDbLine
 10
260.49925
 20
287.278333
 30
0.0
 11
260.49925
 21
285.778333
 31
0.0
  0
LINE
  5
188
100
AcDbEntity
  8
1
  6
CONTINUOUS
 62
   132
100
AcDbLine
 10
258.74925
 20
297.028333
 30
0.0
 11
258.74925
 21
291.028333
 31
0.0
  0
LINE
  5
189
100
AcDbEntity
  8
1
  6
CONTINUOUS
 62
   132
100
AcDbLine
 10
260.24925
 20
297.028333
 30
0.0
 11
260.24925
 21
291.028333
 31
0.0
  0
LINE
  5
18A
100
AcDbEntity
  8
1
  6
CONTINUOUS
 62
   132
100
AcDbLine
 10
258.74925
 20
289.028333
 30
0.0
 11
260.24925
 21
289.028333
 31
0.0
  0
LINE
  5
18B
100
AcDbEntity
  8
1
  6
CONTINUOUS
 62
   132
100
AcDbLine
 10
258.87425
 20
289.028333
 30
0.0
 11
258.87425
 21
287.278333
 31
0.0
  0
LINE
  5
18C
100
AcDbEntity
  8
1
  6
CONTINUOUS
 62
   132
100
AcDbLine
 10
260.12425
 20
289.028333
 30
0.0
 11
260.12425
 21
287.278333
 31
0.0
  0
LINE
  5
18D
100
AcDbEntity
  8
1
  6
CONTINUOUS
 62
   132
100
AcDbLine
 10
259.27425
 20
290.028333
 30
0.0
 11
259.27425
 21
287.278333
 31
0.0
  0
LINE
  5
18E
100
AcDbEntity
  8
1
  6
CONTINUOUS
 62
   132
100
AcDbLine
 10
259.72425
 20
290.028333
 30
0.0
 11
259.72425
 21
287.278333
 31
0.0
  0
LINE
  5
18F
100
AcDbEntity
  8
1
  6
CONTINUOUS
 62
   132
100
AcDbLine
 10
258.74925
 20
291.028333
 30
0.0
 11
259.27425
 21
290.028333
 31
0.0
  0
LINE
  5
190
100
AcDbEntity
  8
1
  6
CONTINUOUS
 62
   132
100
AcDbLine
 10
260.24925
 20
291.028333
 30
0.0
 11
259.72425
 21
290.028333
 31
0.0
  0
LINE
  5
191
100
AcDbEntity
  8
1
  6
CONTINUOUS
 62
   132
100
AcDbLine
 10
260.24925
 20
293.028333
 30
0.0
 11
260.62425
 21
293.028333
 31
0.0
  0
LINE
  5
192
100
AcDbEntity
  8
1
  6
CONTINUOUS
 62
   132
100
AcDbLine
 10
258.74925
 20
293.028333
 30
0.0
 11
258.37425
 21
293.028333
 31
0.0
  0
LINE
  5
193
100
AcDbEntity
  8
1
  6
CONTINUOUS
 62
   132
100
AcDbLine
 10
258.37425
 20
293.028333
 30
0.0
 11
258.37425
 21
291.028333
 31
0.0
  0
LINE
  5
194
100
AcDbEntity
  8
1
  6
CONTINUOUS
 62
   132
100
AcDbLine
 10
260.62425
 20
293.028333
 30
0.0
 11
260.62425
 21
291.028333
 31
0.0
  0
ARC
  5
195
100
AcDbEntity
  8
1
  6
CONTINUOUS
 62
   132
100
AcDbCircle
 10
253.506198
 20
289.080417
 30
0.0
 40
5.24331
210
0.0
220
0.0
230
1.0
100
AcDbArc
 50
359.430847
 51
21.808464
  0
ARC
  5
196
100
AcDbEntity
  8
1
  6
CONTINUOUS
 62
   132
100
AcDbCircle
 10
265.492302
 20
289.080417
 30
0.0
 40
5.24331
210
0.0
220
0.0
230
1.0
100
AcDbArc
 50
158.191536
 51
180.569153
  0
LINE
  5
197
100
AcDbEntity
  8
1
  6
CONTINUOUS
 62
   132
100
AcDbLine
 10
259.27425
 20
295.778333
 30
0.0
 11
259.27425
 21
297.028333
 31
0.0
  0
LINE
  5
198
100
AcDbEntity
  8
1
  6
CONTINUOUS
 62
   132
100
AcDbLine
 10
259.72425
 20
295.778333
 30
0.0
 11
259.72425
 21
297.028333
 31
0.0
  0
ARC
  5
199
100
AcDbEntity
  8
1
  6
CONTINUOUS
 62
   132
100
AcDbCircle
 10
259.533447
 20
294.884764
 30
0.0
 40
0.9199
210
0.0
220
0.0
230
1.0
100
AcDbArc
 50
39.427947
 51
148.651658
  0
LINE
  5
19A
100
AcDbEntity
  8
1
  6
CONTINUOUS
 62
   132
100
AcDbLine
 10
256.49925
 20
271.028333
 30
0.0
 11
256.49925
 21
263.528333
 31
0.0
  0
LINE
  5
19B
100
AcDbEntity
  8
1
  6
CONTINUOUS
 62
   132
100
AcDbLine
 10
254.74925
 20
263.528333
 30
0.0
 11
256.49925
 21
263.528333
 31
0.0
  0
LINE
  5
19C
100
AcDbEntity
  8
1
  6
CONTINUOUS
 62
   132
100
AcDbLine
 10
254.74925
 20
271.028333
 30
0.0
 11
254.74925
 21
263.528333
 31
0.0
  0
LINE
  5
19D
100
AcDbEntity
  8
1
  6
CONTINUOUS
 62
   132
100
AcDbLine
 10
254.74925
 20
271.028333
 30
0.0
 11
256.49925
 21
271.028333
 31
0.0
  0
LINE
  5
19E
100
AcDbEntity
  8
1
  6
CONTINUOUS
 62
   132
100
AcDbLine
 10
254.74925
 20
269.278333
 30
0.0
 11
256.49925
 21
269.278333
 31
0.0
  0
CIRCLE
  5
19F
100
AcDbEntity
  8
1
  6
CONTINUOUS
 62
   132
100
AcDbCircle
 10
255.615083
 20
270.143417
 30
0.0
 40
0.4
210
0.0
220
0.0
230
1.0
  0
LINE
  5
1A0
100
AcDbEntity
  8
1
  6
CONTINUOUS
 62
     7
100
AcDbLine
 10
249.49925
 20
283.028333
 30
0.0
 11
249.49925
 21
281.028333
 31
0.0
  0
LINE
  5
1A1
100
AcDbEntity
  8
1
  6
CONTINUOUS
 62
     7
100
AcDbLine
 10
249.49925
 20
320.028333
 30
0.0
 11
249.49925
 21
301.028333
 31
0.0
  0
LINE
  5
1A2
100
AcDbEntity
  8
1
  6
CONTINUOUS
 62
     7
100
AcDbLine
 10
249.49925
 20
300.028333
 30
0.0
 11
249.49925
 21
298.028333
 31
0.0
  0
LINE
  5
1A3
100
AcDbEntity
  8
1
  6
CONTINUOUS
 62
     7
100
AcDbLine
 10
249.49925
 20
297.028333
 30
0.0
 11
249.49925
 21
284.028333
 31
0.0
  0
LINE
  5
1A4
100
AcDbEntity
  8
1
  6
CONTINUOUS
 62
     7
100
AcDbLine
 10
249.49925
 20
280.028333
 30
0.0
 11
249.49925
 21
267.028333
 31
0.0
  0
LINE
  5
1A5
100
AcDbEntity
  8
1
  6
CONTINUOUS
 62
     7
100
AcDbLine
 10
249.49925
 20
266.028333
 30
0.0
 11
249.49925
 21
264.028333
 31
0.0
  0
LINE
  5
1A6
100
AcDbEntity
  8
1
  6
CONTINUOUS
 62
     7
100
AcDbLine
 10
249.49925
 20
263.028333
 30
0.0
 11
249.49925
 21
244.028333
 31
0.0
  0
ARC
  5
1A7
100
AcDbEntity
  8
1
  6
CONTINUOUS
 62
   132
100
AcDbCircle
 10
331.49925
 20
310.632885
 30
0.0
 40
5.191077
210
0.0
220
0.0
230
1.0
100
AcDbArc
 50
15.593869
 51
164.406128
  0
ARC
  5
1A8
100
AcDbEntity
  8
1
  6
CONTINUOUS
 62
   132
100
AcDbCircle
 10
341.49925
 20
310.632885
 30
0.0
 40
5.191077
210
0.0
220
0.0
230
1.0
100
AcDbArc
 50
15.593869
 51
152.865964
  0
POLYLINE
  5
1A9
100
AcDbEntity
  8
1
  6
CONTINUOUS
 62
   132
100
AcDb2dPolyline
 66
     1
 10
0.0
 20
0.0
 30
0.0
  0
VERTEX
  5
1AA
100
AcDbEntity
  8
1
  6
CONTINUOUS
 62
   132
100
AcDbVertex
100
AcDb2dVertex
 10
336.49925
 20
312.028333
 30
0.0
 42
0.680339
  0
VERTEX
  5
1AB
100
AcDbEntity
  8
1
  6
CONTINUOUS
 62
   132
100
AcDbVertex
100
AcDb2dVertex
 10
346.104203
 20
311.027601
 30
0.0
  0
VERTEX
  5
1AC
100
AcDbEntity
  8
1
  6
CONTINUOUS
 62
   132
100
AcDbVertex
100
AcDb2dVertex
 10
346.087583
 20
311.090083
 30
0.0
 42
0.613196
  0
VERTEX
  5
1AD
100
AcDbEntity
  8
1
  6
CONTINUOUS
 62
   132
100
AcDbVertex
100
AcDb2dVertex
 10
336.879493
 20
313.000398
 30
0.0
  0
VERTEX
  5
1AE
100
AcDbEntity
  8
1
  6
CONTINUOUS
 62
   132
100
AcDbVertex
100
AcDb2dVertex
 10
336.866612
 20
312.975093
 30
0.0
 42
0.049025
  0
VERTEX
  5
1AF
100
AcDbEntity
  8
1
  6
CONTINUOUS
 62
   132
100
AcDbVertex
100
AcDb2dVertex
 10
336.49925
 20
312.028334
 30
0.0
  0
SEQEND
  5
1B0
100
AcDbEntity
  8
1
  6
CONTINUOUS
 62
   132
  0
LINE
  5
1B1
100
AcDbEntity
  8
1
  6
CONTINUOUS
 62
   132
100
AcDbLine
 10
345.92525
 20
311.567583
 30
0.0
 11
342.866167
 21
314.626667
 31
0.0
  0
LINE
  5
1B2
100
AcDbEntity
  8
1
  6
CONTINUOUS
 62
   132
100
AcDbLine
 10
345.700333
 20
310.37825
 30
0.0
 11
341.111167
 21
314.967417
 31
0.0
  0
LINE
  5
1B3
100
AcDbEntity
  8
1
  6
CONTINUOUS
 62
   132
100
AcDbLine
 10
345.03125
 20
309.633167
 30
0.0
 11
339.827333
 21
314.837083
 31
0.0
  0
LINE
  5
1B4
100
AcDbEntity
  8
1
  6
CONTINUOUS
 62
   132
100
AcDbLine
 10
344.235083
 20
309.015083
 30
0.0
 11
338.770167
 21
314.48
 31
0.0
  0
LINE
  5
1B5
100
AcDbEntity
  8
1
  6
CONTINUOUS
 62
   132
100
AcDbLine
 10
343.27975
 20
308.55625
 30
0.0
 11
337.884083
 21
313.951917
 31
0.0
  0
LINE
  5
1B6
100
AcDbEntity
  8
1
  6
CONTINUOUS
 62
   132
100
AcDbLine
 10
342.139417
 20
308.282333
 30
0.0
 11
337.135
 21
313.28675
 31
0.0
  0
LINE
  5
1B7
100
AcDbEntity
  8
1
  6
CONTINUOUS
 62
   132
100
AcDbLine
 10
340.707
 20
308.300583
 30
0.0
 11
336.615833
 21
312.39175
 31
0.0
  0
POLYLINE
  5
1B8
100
AcDbEntity
  8
1
  6
CONTINUOUS
 62
   132
100
AcDb2dPolyline
 66
     1
 10
0.0
 20
0.0
 30
0.0
  0
VERTEX
  5
1B9
100
AcDbEntity
  8
1
  6
CONTINUOUS
 62
   132
100
AcDbVertex
100
AcDb2dVertex
 10
336.49925
 20
252.028334
 30
0.0
 42
-0.680339
  0
VERTEX
  5
1BA
100
AcDbEntity
  8
1
  6
CONTINUOUS
 62
   132
100
AcDbVertex
100
AcDb2dVertex
 10
346.104203
 20
253.029065
 30
0.0
  0
VERTEX
  5
1BB
100
AcDbEntity
  8
1
  6
CONTINUOUS
 62
   132
100
AcDbVertex
100
AcDb2dVertex
 10
346.087583
 20
252.966583
 30
0.0
 42
-0.613196
  0
VERTEX
  5
1BC
100
AcDbEntity
  8
1
  6
CONTINUOUS
 62
   132
100
AcDbVertex
100
AcDb2dVertex
 10
336.879493
 20
251.056269
 30
0.0
  0
VERTEX
  5
1BD
100
AcDbEntity
  8
1
  6
CONTINUOUS
 62
   132
100
AcDbVertex
100
AcDb2dVertex
 10
336.866612
 20
251.081573
 30
0.0
 42
-0.049025
  0
VERTEX
  5
1BE
100
AcDbEntity
  8
1
  6
CONTINUOUS
 62
   132
100
AcDbVertex
100
AcDb2dVertex
 10
336.49925
 20
252.028333
 30
0.0
  0
SEQEND
  5
1BF
100
AcDbEntity
  8
1
  6
CONTINUOUS
 62
   132
  0
ARC
  5
1C0
100
AcDbEntity
  8
1
  6
CONTINUOUS
 62
   132
100
AcDbCircle
 10
331.49925
 20
253.423782
 30
0.0
 40
5.191077
210
0.0
220
0.0
230
1.0
100
AcDbArc
 50
195.593872
 51
344.406131
  0
ARC
  5
1C1
100
AcDbEntity
  8
1
  6
CONTINUOUS
 62
   132
100
AcDbCircle
 10
341.49925
 20
253.423782
 30
0.0
 40
5.191077
210
0.0
220
0.0
230
1.0
100
AcDbArc
 50
207.134036
 51
344.406131
  0
LINE
  5
1C2
100
AcDbEntity
  8
1
  6
CONTINUOUS
 62
   132
100
AcDbLine
 10
345.92525
 20
252.489083
 30
0.0
 11
342.866167
 21
249.43
 31
0.0
  0
LINE
  5
1C3
100
AcDbEntity
  8
1
  6
CONTINUOUS
 62
   132
100
AcDbLine
 10
345.700333
 20
253.678417
 30
0.0
 11
341.111167
 21
249.08925
 31
0.0
  0
LINE
  5
1C4
100
AcDbEntity
  8
1
  6
CONTINUOUS
 62
   132
100
AcDbLine
 10
345.03125
 20
254.4235
 30
0.0
 11
339.827333
 21
249.219583
 31
0.0
  0
LINE
  5
1C5
100
AcDbEntity
  8
1
  6
CONTINUOUS
 62
   132
100
AcDbLine
 10
344.235083
 20
255.041583
 30
0.0
 11
338.770167
 21
249.576667
 31
0.0
  0
LINE
  5
1C6
100
AcDbEntity
  8
1
  6
CONTINUOUS
 62
   132
100
AcDbLine
 10
343.27975
 20
255.500417
 30
0.0
 11
337.884083
 21
250.10475
 31
0.0
  0
LINE
  5
1C7
100
AcDbEntity
  8
1
  6
CONTINUOUS
 62
   132
100
AcDbLine
 10
342.139417
 20
255.774333
 30
0.0
 11
337.135
 21
250.769917
 31
0.0
  0
LINE
  5
1C8
100
AcDbEntity
  8
1
  6
CONTINUOUS
 62
   132
100
AcDbLine
 10
340.707
 20
255.756083
 30
0.0
 11
336.615833
 21
251.664917
 31
0.0
  0
LINE
  5
1C9
100
AcDbEntity
  8
1
  6
CONTINUOUS
 62
   132
100
AcDbLine
 10
346.49925
 20
312.028333
 30
0.0
 11
346.49925
 21
252.028333
 31
0.0
  0
LINE
  5
1CA
100
AcDbEntity
  8
1
  6
CONTINUOUS
 62
     7
100
AcDbLine
 10
336.49925
 20
297.028333
 30
0.0
 11
336.49925
 21
284.028333
 31
0.0
  0
LINE
  5
1CB
100
AcDbEntity
  8
1
  6
CONTINUOUS
 62
     7
100
AcDbLine
 10
336.49925
 20
283.028333
 30
0.0
 11
336.49925
 21
281.028333
 31
0.0
  0
LINE
  5
1CC
100
AcDbEntity
  8
1
  6
CONTINUOUS
 62
     7
100
AcDbLine
 10
336.49925
 20
320.028333
 30
0.0
 11
336.49925
 21
301.028333
 31
0.0
  0
LINE
  5
1CD
100
AcDbEntity
  8
1
  6
CONTINUOUS
 62
     7
100
AcDbLine
 10
336.49925
 20
300.028333
 30
0.0
 11
336.49925
 21
298.028333
 31
0.0
  0
LINE
  5
1CE
100
AcDbEntity
  8
1
  6
CONTINUOUS
 62
     7
100
AcDbLine
 10
336.49925
 20
280.028333
 30
0.0
 11
336.49925
 21
267.028333
 31
0.0
  0
LINE
  5
1CF
100
AcDbEntity
  8
1
  6
CONTINUOUS
 62
     7
100
AcDbLine
 10
336.49925
 20
266.028333
 30
0.0
 11
336.49925
 21
264.028333
 31
0.0
  0
LINE
  5
1D0
100
AcDbEntity
  8
1
  6
CONTINUOUS
 62
     7
100
AcDbLine
 10
336.49925
 20
263.028333
 30
0.0
 11
336.49925
 21
244.028333
 31
0.0
  0
LINE
  5
1D1
100
AcDbEntity
  8
1
  6
CONTINUOUS
 62
   132
100
AcDbLine
 10
325.24925
 20
304.528333
 30
0.0
 11
325.24925
 21
259.528333
 31
0.0
  0
LINE
  5
1D2
100
AcDbEntity
  8
1
  6
CONTINUOUS
 62
   132
100
AcDbLine
 10
313.99925
 20
303.028333
 30
0.0
 11
339.49925
 21
303.028333
 31
0.0
  0
LINE
  5
1D3
100
AcDbEntity
  8
1
  6
CONTINUOUS
 62
   132
100
AcDbLine
 10
313.99925
 20
261.028333
 30
0.0
 11
339.49925
 21
261.028333
 31
0.0
  0
LINE
  5
1D4
100
AcDbEntity
  8
1
  6
CONTINUOUS
 62
   132
100
AcDbLine
 10
325.49925
 20
306.028333
 30
0.0
 11
339.49925
 21
306.028333
 31
0.0
  0
LINE
  5
1D5
100
AcDbEntity
  8
1
  6
CONTINUOUS
 62
   132
100
AcDbLine
 10
325.49925
 20
306.028333
 30
0.0
 11
325.49925
 21
303.028333
 31
0.0
  0
LINE
  5
1D6
100
AcDbEntity
  8
1
  6
CONTINUOUS
 62
   132
100
AcDbLine
 10
339.49925
 20
306.028333
 30
0.0
 11
339.49925
 21
303.028333
 31
0.0
  0
LINE
  5
1D7
100
AcDbEntity
  8
1
  6
CONTINUOUS
 62
   132
100
AcDbLine
 10
325.49925
 20
258.028333
 30
0.0
 11
339.49925
 21
258.028333
 31
0.0
  0
LINE
  5
1D8
100
AcDbEntity
  8
1
  6
CONTINUOUS
 62
   132
100
AcDbLine
 10
339.49925
 20
261.028333
 30
0.0
 11
339.49925
 21
258.028333
 31
0.0
  0
LINE
  5
1D9
100
AcDbEntity
  8
1
  6
CONTINUOUS
 62
   132
100
AcDbLine
 10
325.49925
 20
261.028333
 30
0.0
 11
325.49925
 21
258.028333
 31
0.0
  0
LINE
  5
1DA
100
AcDbEntity
  8
1
  6
CONTINUOUS
 62
   132
100
AcDbLine
 10
313.99925
 20
303.028333
 30
0.0
 11
313.99925
 21
261.028333
 31
0.0
  0
LINE
  5
1DB
100
AcDbEntity
  8
1
  6
HIDDEN
 62
   132
100
AcDbLine
 10
324.49925
 20
303.028333
 30
0.0
 11
324.49925
 21
261.028333
 31
0.0
  0
LINE
  5
1DC
100
AcDbEntity
  8
1
  6
CONTINUOUS
 62
   132
100
AcDbLine
 10
311.99925
 20
302.028333
 30
0.0
 11
311.99925
 21
262.028333
 31
0.0
  0
LINE
  5
1DD
100
AcDbEntity
  8
1
  6
CONTINUOUS
 62
   132
100
AcDbLine
 10
311.99925
 20
302.028333
 30
0.0
 11
313.99925
 21
302.028333
 31
0.0
  0
LINE
  5
1DE
100
AcDbEntity
  8
1
  6
CONTINUOUS
 62
   132
100
AcDbLine
 10
311.99925
 20
262.028333
 30
0.0
 11
313.99925
 21
262.028333
 31
0.0
  0
LINE
  5
1DF
100
AcDbEntity
  8
1
  6
CONTINUOUS
 62
   132
100
AcDbLine
 10
311.99925
 20
263.028333
 30
0.0
 11
310.99925
 21
263.028333
 31
0.0
  0
LINE
  5
1E0
100
AcDbEntity
  8
1
  6
CONTINUOUS
 62
   132
100
AcDbLine
 10
311.99925
 20
267.528333
 30
0.0
 11
310.99925
 21
267.528333
 31
0.0
  0
LINE
  5
1E1
100
AcDbEntity
  8
1
  6
CONTINUOUS
 62
   132
100
AcDbLine
 10
310.99925
 20
267.528333
 30
0.0
 11
310.99925
 21
263.028333
 31
0.0
  0
LINE
  5
1E2
100
AcDbEntity
  8
1
  6
CONTINUOUS
 62
   132
100
AcDbLine
 10
325.49925
 20
305.028333
 30
0.0
 11
326.99925
 21
305.028333
 31
0.0
  0
LINE
  5
1E3
100
AcDbEntity
  8
1
  6
CONTINUOUS
 62
   132
100
AcDbLine
 10
325.49925
 20
304.028333
 30
0.0
 11
326.99925
 21
304.028333
 31
0.0
  0
LINE
  5
1E4
100
AcDbEntity
  8
1
  6
CONTINUOUS
 62
   132
100
AcDbLine
 10
325.49925
 20
260.028333
 30
0.0
 11
326.99925
 21
260.028333
 31
0.0
  0
LINE
  5
1E5
100
AcDbEntity
  8
1
  6
CONTINUOUS
 62
   132
100
AcDbLine
 10
325.49925
 20
259.028333
 30
0.0
 11
326.99925
 21
259.028333
 31
0.0
  0
LINE
  5
1E6
100
AcDbEntity
  8
1
  6
CONTINUOUS
 62
   132
100
AcDbLine
 10
326.99925
 20
306.028333
 30
0.0
 11
326.99925
 21
305.028333
 31
0.0
  0
LINE
  5
1E7
100
AcDbEntity
  8
1
  6
CONTINUOUS
 62
   132
100
AcDbLine
 10
326.99925
 20
304.028333
 30
0.0
 11
326.99925
 21
303.028333
 31
0.0
  0
LINE
  5
1E8
100
AcDbEntity
  8
1
  6
CONTINUOUS
 62
   132
100
AcDbLine
 10
326.99925
 20
261.028333
 30
0.0
 11
326.99925
 21
260.028333
 31
0.0
  0
LINE
  5
1E9
100
AcDbEntity
  8
1
  6
CONTINUOUS
 62
   132
100
AcDbLine
 10
326.99925
 20
259.028333
 30
0.0
 11
326.99925
 21
258.028333
 31
0.0
  0
LINE
  5
1EA
100
AcDbEntity
  8
1
  6
CONTINUOUS
 62
   132
100
AcDbLine
 10
326.49925
 20
258.028333
 30
0.0
 11
326.49925
 21
252.028333
 31
0.0
  0
LINE
  5
1EB
100
AcDbEntity
  8
1
  6
CONTINUOUS
 62
   132
100
AcDbLine
 10
326.49925
 20
312.028333
 30
0.0
 11
326.49925
 21
306.028333
 31
0.0
  0
LINE
  5
1EC
100
AcDbEntity
  8
1
  6
CONTINUOUS
 62
   132
100
AcDbLine
 10
326.49925
 20
303.028333
 30
0.0
 11
326.49925
 21
261.028333
 31
0.0
  0
CIRCLE
  5
1ED
100
AcDbEntity
  8
1
  6
CONTINUOUS
 62
   132
100
AcDbCircle
 10
338.49925
 20
305.278333
 30
0.0
 40
0.375
210
0.0
220
0.0
230
1.0
  0
CIRCLE
  5
1EE
100
AcDbEntity
  8
1
  6
CONTINUOUS
 62
   132
100
AcDbCircle
 10
338.49925
 20
303.778333
 30
0.0
 40
0.375
210
0.0
220
0.0
230
1.0
  0
CIRCLE
  5
1EF
100
AcDbEntity
  8
1
  6
CONTINUOUS
 62
   132
100
AcDbCircle
 10
338.49925
 20
260.278333
 30
0.0
 40
0.375
210
0.0
220
0.0
230
1.0
  0
CIRCLE
  5
1F0
100
AcDbEntity
  8
1
  6
CONTINUOUS
 62
   132
100
AcDbCircle
 10
338.49925
 20
258.778333
 30
0.0
 40
0.375
210
0.0
220
0.0
230
1.0
  0
LINE
  5
1F1
100
AcDbEntity
  8
1
  6
CONTINUOUS
 62
   132
100
AcDbLine
 10
312.99925
 20
296.528333
 30
0.0
 11
313.99925
 21
296.528333
 31
0.0
  0
LINE
  5
1F2
100
AcDbEntity
  8
1
  6
CONTINUOUS
 62
   132
100
AcDbLine
 10
312.99925
 20
288.528333
 30
0.0
 11
313.99925
 21
288.528333
 31
0.0
  0
LINE
  5
1F3
100
AcDbEntity
  8
1
  6
CONTINUOUS
 62
   132
100
AcDbLine
 10
312.49925
 20
287.028333
 30
0.0
 11
313.99925
 21
287.028333
 31
0.0
  0
LINE
  5
1F4
100
AcDbEntity
  8
1
  6
CONTINUOUS
 62
   132
100
AcDbLine
 10
312.49925
 20
285.528333
 30
0.0
 11
313.99925
 21
285.528333
 31
0.0
  0
LINE
  5
1F5
100
AcDbEntity
  8
1
  6
CONTINUOUS
 62
   132
100
AcDbLine
 10
312.49925
 20
287.028333
 30
0.0
 11
312.49925
 21
285.528333
 31
0.0
  0
SPLINE
  5
1F6
100
AcDbEntity
  8
1
  6
CONTINUOUS
 62
   132
100
AcDbSpline
210
0.0
220
0.0
230
1.0
 70
     8
 71
     3
 72
    23
 73
    19
 74
     0
 42
0.0
 43
0.0
 12
-0.8034651650224653
 22
-0.5953517687849954
 32
0.0
 13
0.0516159017580515
 23
-0.9986670109128986
 33
0.0
 40
0.0
 40
0.0
 40
0.0
 40
0.0
 40
0.084708592397746
 40
0.084708592397746
 40
0.084708592397746
 40
0.2328788246300078
 40
0.2328788246300078
 40
0.2328788246300078
 40
0.2938294635203998
 40
0.2938294635203998
 40
0.2938294635203998
 40
0.5118404027381179
 40
0.5118404027381179
 40
0.5118404027381179
 40
0.7321563567662461
 40
0.7321563567662461
 40
0.7321563567662461
 40
1.0
 40
1.0
 40
1.0
 40
1.0
 10
312.99925000000002
 20
292.52833333333331
 30
0.0
 10
312.86605555555553
 20
292.42963888888886
 30
0.0
 10
312.73286111111111
 20
292.33094444444447
 30
0.0
 10
312.59966666666668
 20
292.23224999999996
 30
0.0
 10
312.36668614831837
 20
292.05961605178487
 30
0.0
 10
312.31299347493695
 20
291.73180348586715
 30
0.0
 10
312.18200000000002
 20
291.46916666666664
 30
0.0
 10
312.12811511457056
 20
291.36112956849087
 30
0.0
 10
312.05302931343061
 20
291.25858325746628
 30
0.0
 10
312.03666666666663
 20
291.14216666666664
 30
0.0
 10
311.97814002848799
 20
290.72576265904991
 30
0.0
 10
312.11004972024938
 20
290.29069757103997
 30
0.0
 10
312.18200000000002
 20
289.87049999999999
 30
0.0
 10
312.25471100515745
 20
289.44585970866342
 30
0.0
 10
312.3958286684026
 20
289.02933435381817
 30
0.0
 10
312.4180833333333
 20
288.59875
 30
0.0
 10
312.44513888888889
 20
288.07527777777779
 30
0.0
 10
312.47219444444443
 20
287.55180555555552
 30
0.0
 10
312.49925000000002
 20
287.02833333333331
 30
0.0
  0
LINE
  5
1F7
100
AcDbEntity
  8
1
  6
CONTINUOUS
 62
   132
100
AcDbLine
 10
312.99925
 20
296.528333
 30
0.0
 11
312.99925
 21
296.403333
 31
0.0
  0
LINE
  5
1F8
100
AcDbEntity
  8
1
  6
CONTINUOUS
 62
   132
100
AcDbLine
 10
312.99925
 20
296.403333
 30
0.0
 11
312.99925
 21
288.528333
 31
0.0
  0
POLYLINE
  5
1F9
100
AcDbEntity
  8
1
  6
CONTINUOUS
 62
   132
100
AcDb2dPolyline
 66
     1
 10
0.0
 20
0.0
 30
0.0
  0
VERTEX
  5
1FA
100
AcDbEntity
  8
1
  6
CONTINUOUS
 62
   132
100
AcDbVertex
100
AcDb2dVertex
 10
312.99925
 20
296.403333
 30
0.0
 42
0.585421
  0
VERTEX
  5
1FB
100
AcDbEntity
  8
1
  6
CONTINUOUS
 62
   132
100
AcDbVertex
100
AcDb2dVertex
 10
312.99925
 20
295.653333
 30
0.0
  0
VERTEX
  5
1FC
100
AcDbEntity
  8
1
  6
CONTINUOUS
 62
   132
100
AcDbVertex
100
AcDb2dVertex
 10
312.99925
 20
296.403333
 30
0.0
  0
SEQEND
  5
1FD
100
AcDbEntity
  8
1
  6
CONTINUOUS
 62
   132
  0
LINE
  5
1FE
100
AcDbEntity
  8
1
  6
CONTINUOUS
 62
     7
100
AcDbLine
 10
318.49925
 20
263.278333
 30
0.0
 11
351.49925
 21
263.278333
 31
0.0
  0
LINE
  5
1FF
100
AcDbEntity
  8
1
  6
CONTINUOUS
 62
     7
100
AcDbLine
 10
318.49925
 20
263.278333
 30
0.0
 11
318.49925
 21
256.278333
 31
0.0
  0
LINE
  5
200
100
AcDbEntity
  8
1
  6
CONTINUOUS
 62
     7
100
AcDbLine
 10
351.49925
 20
263.278333
 30
0.0
 11
351.49925
 21
256.278333
 31
0.0
  0
INSERT
  5
206
100
AcDbEntity
  8
1
  6
CONTINUOUS
 62
     1
100
AcDbBlockReference
  2
LDR
 10
318.49925
 20
256.278333
 30
0.0
 41
240.0
 42
240.0
 50
270.0
210
0.0
220
0.0
230
1.0
  0
INSERT
  5
207
100
AcDbEntity
  8
1
  6
CONTINUOUS
 62
     1
100
AcDbBlockReference
  2
LDR
 10
318.49925
 20
256.278333
 30
0.0
 41
240.0
 42
240.0
 50
270.0
210
0.0
220
0.0
230
1.0
  0
INSERT
  5
208
100
AcDbEntity
  8
1
  6
CONTINUOUS
 62
     1
100
AcDbBlockReference
  2
LDR
 10
351.49925
 20
256.278333
 30
0.0
 41
240.0
 42
240.0
 50
270.0
210
0.0
220
0.0
230
1.0
  0
CIRCLE
  5
209
100
AcDbEntity
  8
1
  6
CONTINUOUS
 62
   132
100
AcDbCircle
 10
336.49925
 20
343.778333
 30
0.0
 40
9.0
210
0.0
220
0.0
230
1.0
  0
CIRCLE
  5
20A
100
AcDbEntity
  8
1
  6
CONTINUOUS
 62
   132
100
AcDbCircle
 10
336.49925
 20
343.778333
 30
0.0
 40
10.25
210
0.0
220
0.0
230
1.0
  0
LINE
  5
20B
100
AcDbEntity
  8
1
  6
CONTINUOUS
 62
     7
100
AcDbLine
 10
336.49925
 20
343.778333
 30
0.0
 11
336.49925
 21
344.778333
 31
0.0
  0
LINE
  5
20C
100
AcDbEntity
  8
1
  6
CONTINUOUS
 62
     7
100
AcDbLine
 10
336.49925
 20
345.778333
 30
0.0
 11
336.49925
 21
359.528333
 31
0.0
  0
LINE
  5
20D
100
AcDbEntity
  8
1
  6
CONTINUOUS
 62
     7
100
AcDbLine
 10
336.49925
 20
328.028333
 30
0.0
 11
336.49925
 21
341.778333
 31
0.0
  0
LINE
  5
20E
100
AcDbEntity
  8
1
  6
CONTINUOUS
 62
     7
100
AcDbLine
 10
336.49925
 20
342.778333
 30
0.0
 11
336.49925
 21
343.778333
 31
0.0
  0
LINE
  5
20F
100
AcDbEntity
  8
1
  6
CONTINUOUS
 62
     7
100
AcDbLine
 10
321.99925
 20
343.778333
 30
0.0
 11
334.49925
 21
343.778333
 31
0.0
  0
LINE
  5
210
100
AcDbEntity
  8
1
  6
CONTINUOUS
 62
     7
100
AcDbLine
 10
335.49925
 20
343.778333
 30
0.0
 11
336.49925
 21
343.778333
 31
0.0
  0
LINE
  5
211
100
AcDbEntity
  8
1
  6
CONTINUOUS
 62
     7
100
AcDbLine
 10
336.49925
 20
343.778333
 30
0.0
 11
337.49925
 21
343.778333
 31
0.0
  0
LINE
  5
212
100
AcDbEntity
  8
1
  6
CONTINUOUS
 62
     7
100
AcDbLine
 10
338.49925
 20
343.778333
 30
0.0
 11
350.99925
 21
343.778333
 31
0.0
  0
LINE
  5
213
100
AcDbEntity
  8
1
  6
CONTINUOUS
 62
   132
100
AcDbLine
 10
327.555
 20
344.778333
 30
0.0
 11
328.305
 21
344.778333
 31
0.0
  0
LINE
  5
214
100
AcDbEntity
  8
1
  6
CONTINUOUS
 62
   132
100
AcDbLine
 10
327.555
 20
342.778333
 30
0.0
 11
328.305
 21
342.778333
 31
0.0
  0
LINE
  5
215
100
AcDbEntity
  8
1
  6
CONTINUOUS
 62
   132
100
AcDbLine
 10
328.305
 20
344.778333
 30
0.0
 11
328.305
 21
342.778333
 31
0.0
  0
LINE
  5
216
100
AcDbEntity
  8
1
  6
CONTINUOUS
 62
   132
100
AcDbLine
 10
326.24925
 20
333.246583
 30
0.0
 11
326.24925
 21
354.310083
 31
0.0
  0
LINE
  5
217
100
AcDbEntity
  8
1
  6
CONTINUOUS
 62
   132
100
AcDbLine
 10
325.74925
 20
333.246583
 30
0.0
 11
325.74925
 21
354.310083
 31
0.0
  0
LINE
  5
218
100
AcDbEntity
  8
1
  6
HIDDEN
 62
   132
100
AcDbLine
 10
325.24925
 20
336.778333
 30
0.0
 11
325.24925
 21
350.778333
 31
0.0
  0
CIRCLE
  5
219
100
AcDbEntity
  8
1
  6
CONTINUOUS
 62
   132
100
AcDbCircle
 10
325.99925
 20
332.278333
 30
0.0
 40
0.650976
210
0.0
220
0.0
230
1.0
  0
LINE
  5
21A
100
AcDbEntity
  8
1
  6
CONTINUOUS
 62
   132
100
AcDbLine
 10
339.80575
 20
333.552917
 30
0.0
 11
339.73875
 21
333.881333
 31
0.0
  0
LINE
  5
21B
100
AcDbEntity
  8
1
  6
CONTINUOUS
 62
   132
100
AcDbLine
 10
339.808
 20
333.538333
 30
0.0
 11
326.1355
 21
331.285833
 31
0.0
  0
LINE
  5
21C
100
AcDbEntity
  8
1
  6
CONTINUOUS
 62
   132
100
AcDbLine
 10
339.73875
 20
333.881333
 30
0.0
 11
326.14975
 21
331.642583
 31
0.0
  0
ARC
  5
21D
100
AcDbEntity
  8
1
  6
CONTINUOUS
 62
   132
100
AcDbCircle
 10
325.99925
 20
332.278333
 30
0.0
 40
1.0
210
0.0
220
0.0
230
1.0
100
AcDbArc
 50
15.549647
 51
277.835611
  0
LINE
  5
21E
100
AcDbEntity
  8
1
  6
CONTINUOUS
 62
   132
100
AcDbLine
 10
326.962667
 20
332.546417
 30
0.0
 11
326.631333
 21
332.433917
 31
0.0
  0
LINE
  5
21F
100
AcDbEntity
  8
1
  6
CONTINUOUS
 62
   132
100
AcDbLine
 10
339.808
 20
354.018333
 30
0.0
 11
326.1355
 21
356.270833
 31
0.0
  0
CIRCLE
  5
220
100
AcDbEntity
  8
1
  6
CONTINUOUS
 62
   132
100
AcDbCircle
 10
325.99925
 20
355.278333
 30
0.0
 40
0.650976
210
0.0
220
0.0
230
1.0
  0
LINE
  5
221
100
AcDbEntity
  8
1
  6
CONTINUOUS
 62
   132
100
AcDbLine
 10
339.80575
 20
354.00375
 30
0.0
 11
339.73875
 21
353.675333
 31
0.0
  0
LINE
  5
222
100
AcDbEntity
  8
1
  6
CONTINUOUS
 62
   132
100
AcDbLine
 10
339.73875
 20
353.675333
 30
0.0
 11
326.14975
 21
355.914083
 31
0.0
  0
ARC
  5
223
100
AcDbEntity
  8
1
  6
CONTINUOUS
 62
   132
100
AcDbCircle
 10
325.99925
 20
355.278333
 30
0.0
 40
1.0
210
0.0
220
0.0
230
1.0
100
AcDbArc
 50
82.164389
 51
344.450353
  0
LINE
  5
224
100
AcDbEntity
  8
1
  6
CONTINUOUS
 62
   132
100
AcDbLine
 10
326.962667
 20
355.01025
 30
0.0
 11
326.631333
 21
355.12275
 31
0.0
  0
LINE
  5
225
100
AcDbEntity
  8
1
  6
CONTINUOUS
 62
   132
100
AcDbLine
 10
324.99925
 20
355.278333
 30
0.0
 11
313.34825
 21
355.278333
 31
0.0
  0
LINE
  5
226
100
AcDbEntity
  8
1
  6
CONTINUOUS
 62
   132
100
AcDbLine
 10
324.99925
 20
332.278333
 30
0.0
 11
313.34825
 21
332.278333
 31
0.0
  0
LINE
  5
227
100
AcDbEntity
  8
1
  6
CONTINUOUS
 62
   132
100
AcDbLine
 10
313.34825
 20
355.278333
 30
0.0
 11
313.34825
 21
332.278333
 31
0.0
  0
LINE
  5
228
100
AcDbEntity
  8
1
  6
CONTINUOUS
 62
   132
100
AcDbLine
 10
311.59825
 20
354.778333
 30
0.0
 11
311.59825
 21
334.778333
 31
0.0
  0
LINE
  5
229
100
AcDbEntity
  8
1
  6
CONTINUOUS
 62
   132
100
AcDbLine
 10
311.59825
 20
354.778333
 30
0.0
 11
313.34825
 21
354.778333
 31
0.0
  0
LINE
  5
22A
100
AcDbEntity
  8
1
  6
CONTINUOUS
 62
   132
100
AcDbLine
 10
311.59825
 20
334.778333
 30
0.0
 11
313.34825
 21
334.778333
 31
0.0
  0
LINE
  5
22B
100
AcDbEntity
  8
1
  6
CONTINUOUS
 62
   132
100
AcDbLine
 10
337.760417
 20
354.608833
 30
0.0
 11
337.710417
 21
354.363917
 31
0.0
  0
LINE
  5
22C
100
AcDbEntity
  8
1
  6
CONTINUOUS
 62
   132
100
AcDbLine
 10
338.994667
 20
354.4055
 30
0.0
 11
338.944667
 21
354.160583
 31
0.0
  0
LINE
  5
22D
100
AcDbEntity
  8
1
  6
CONTINUOUS
 62
   132
100
AcDbLine
 10
337.760417
 20
354.608833
 30
0.0
 11
338.994667
 21
354.4055
 31
0.0
  0
LINE
  5
22E
100
AcDbEntity
  8
1
  6
CONTINUOUS
 62
   132
100
AcDbLine
 10
338.377667
 20
354.507167
 30
0.0
 11
338.32775
 21
354.262167
 31
0.0
  0
LINE
  5
22F
100
AcDbEntity
  8
1
  6
HIDDEN
 62
   132
100
AcDbLine
 10
338.32775
 20
354.262167
 30
0.0
 11
337.89925
 21
352.162417
 31
0.0
  0
LINE
  5
230
100
AcDbEntity
  8
1
  6
CONTINUOUS
 62
   132
100
AcDbLine
 10
338.994667
 20
333.151083
 30
0.0
 11
338.944667
 21
333.396083
 31
0.0
  0
LINE
  5
231
100
AcDbEntity
  8
1
  6
CONTINUOUS
 62
   132
100
AcDbLine
 10
337.760417
 20
332.94775
 30
0.0
 11
337.710417
 21
333.19275
 31
0.0
  0
LINE
  5
232
100
AcDbEntity
  8
1
  6
CONTINUOUS
 62
   132
100
AcDbLine
 10
337.760417
 20
332.94775
 30
0.0
 11
338.994667
 21
333.151083
 31
0.0
  0
LINE
  5
233
100
AcDbEntity
  8
1
  6
CONTINUOUS
 62
   132
100
AcDbLine
 10
338.377667
 20
333.049417
 30
0.0
 11
338.327667
 21
333.294417
 31
0.0
  0
LINE
  5
234
100
AcDbEntity
  8
1
  6
HIDDEN
 62
   132
100
AcDbLine
 10
338.32775
 20
333.2945
 30
0.0
 11
337.89925
 21
335.394083
 31
0.0
  0
LINE
  5
235
100
AcDbEntity
  8
1
  6
HIDDEN
 62
   132
100
AcDbLine
 10
324.74925
 20
342.278333
 30
0.0
 11
324.74925
 21
345.278333
 31
0.0
  0
LINE
  5
236
100
AcDbEntity
  8
1
  6
HIDDEN
 62
   132
100
AcDbLine
 10
324.24925
 20
342.278333
 30
0.0
 11
324.24925
 21
345.278333
 31
0.0
  0
LINE
  5
237
100
AcDbEntity
  8
1
  6
HIDDEN
 62
   132
100
AcDbLine
 10
323.74925
 20
342.278333
 30
0.0
 11
323.74925
 21
345.278333
 31
0.0
  0
LINE
  5
238
100
AcDbEntity
  8
1
  6
HIDDEN
 62
   132
100
AcDbLine
 10
323.74925
 20
345.278333
 30
0.0
 11
325.24925
 21
345.278333
 31
0.0
  0
LINE
  5
239
100
AcDbEntity
  8
1
  6
HIDDEN
 62
   132
100
AcDbLine
 10
323.74925
 20
342.278333
 30
0.0
 11
325.24925
 21
342.278333
 31
0.0
  0
LINE
  5
23A
100
AcDbEntity
  8
1
  6
HIDDEN
 62
   132
100
AcDbLine
 10
327.555
 20
344.778333
 30
0.0
 11
324.74925
 21
344.778333
 31
0.0
  0
LINE
  5
23B
100
AcDbEntity
  8
1
  6
HIDDEN
 62
   132
100
AcDbLine
 10
327.555
 20
342.778333
 30
0.0
 11
324.74925
 21
342.778333
 31
0.0
  0
TEXT
  5
23C
100
AcDbEntity
  8
1
  6
HIDDEN
 62
     7
100
AcDbText
 10
315.748083
 20
323.046917
 30
0.0
 40
4.0
  1
TOP VIEW
  7
MONOTXT
 72
     4
 11
330.503917
 21
325.046917
 31
0.0
210
0.0
220
0.0
230
1.0
100
AcDbText
  0
TEXT
  5
23D
100
AcDbEntity
  8
1
  6
HIDDEN
 62
     7
100
AcDbText
 10
231.313083
 20
236.1215
 30
0.0
 40
4.0
  1
FRONT VIEW
  7
MONOTXT
 72
     4
 11
249.942917
 21
238.1215
 31
0.0
210
0.0
220
0.0
230
1.0
100
AcDbText
  0
TEXT
  5
23E
100
AcDbEntity
  8
1
  6
HIDDEN
 62
     7
100
AcDbText
 10
315.917333
 20
236.347833
 30
0.0
 40
4.0
  1
SIDE VIEW
  7
MONOTXT
 72
     4
 11
330.956667
 21
238.347833
 31
0.0
210
0.0
220
0.0
230
1.0
100
AcDbText
  0
LINE
  5
23F
100
AcDbEntity
  8
1
  6
CONTINUOUS
 62
     7
100
AcDbLine
 10
314.873917
 20
321.87775
 30
0.0
 11
347.298167
 21
321.87775
 31
0.0
  0
LINE
  5
240
100
AcDbEntity
  8
1
  6
CONTINUOUS
 62
     7
100
AcDbLine
 10
229.787
 20
234.725917
 30
0.0
 11
270.520083
 21
234.725917
 31
0.0
  0
LINE
  5
241
100
AcDbEntity
  8
1
  6
CONTINUOUS
 62
     7
100
AcDbLine
 10
314.873917
 20
234.725917
 30
0.0
 11
348.376167
 21
234.725917
 31
0.0
  0
TEXT
  5
242
100
AcDbEntity
  8
1
  6
CONTINUOUS
 62
     7
100
AcDbText
 10
317.602333
 20
253.301917
 30
0.0
 40
2.5
  1
C
  7
MONOTXT
 72
     4
 11
318.498
 21
254.551917
 31
0.0
210
0.0
220
0.0
230
1.0
100
AcDbText
  0
TEXT
  5
243
100
AcDbEntity
  8
1
  6
CONTINUOUS
 62
     7
100
AcDbText
 10
350.608417
 20
253.393667
 30
0.0
 40
2.5
  1
C
  7
MONOTXT
 72
     4
 11
351.504083
 21
254.643667
 31
0.0
210
0.0
220
0.0
230
1.0
100
AcDbText
  0
ARC
  5
244
100
AcDbEntity
  8
1
  6
CONTINUOUS
 62
   212
100
AcDbCircle
 10
493.825167
 20
189.241667
 30
0.0
 40
24.5
210
0.0
220
0.0
230
1.0
100
AcDbArc
 50
202.182069
 51
157.817931
  0
ARC
  5
245
100
AcDbEntity
  8
1
  6
CONTINUOUS
 62
   212
100
AcDbCircle
 10
493.825167
 20
189.241667
 30
0.0
 40
23.5
210
0.0
220
0.0
230
1.0
100
AcDbArc
 50
203.17975
 51
156.82025
  0
LINE
  5
246
100
AcDbEntity
  8
1
  6
CONTINUOUS
 62
   212
100
AcDbLine
 10
469.002333
 20
216.348917
 30
0.0
 11
469.002333
 21
161.241667
 31
0.0
  0
LINE
  5
247
100
AcDbEntity
  8
1
  6
CONTINUOUS
 62
   212
100
AcDbLine
 10
468.002333
 20
215.438917
 30
0.0
 11
468.002333
 21
161.976583
 31
0.0
  0
LINE
  5
248
100
AcDbEntity
  8
1
  6
CONTINUOUS
 62
   212
100
AcDbLine
 10
467.502333
 20
217.241667
 30
0.0
 11
467.502333
 21
161.241667
 31
0.0
  0
LINE
  5
249
100
AcDbEntity
  8
1
  6
CONTINUOUS
 62
   212
100
AcDbLine
 10
473.377333
 20
196.491667
 30
0.0
 11
473.377333
 21
181.991667
 31
0.0
  0
LINE
  5
24A
100
AcDbEntity
  8
1
  6
CONTINUOUS
 62
   212
100
AcDbLine
 10
474.377333
 20
195.241667
 30
0.0
 11
474.377333
 21
183.241667
 31
0.0
  0
LINE
  5
24B
100
AcDbEntity
  8
1
  6
CONTINUOUS
 62
   212
100
AcDbLine
 10
475.377333
 20
196.491667
 30
0.0
 11
475.377333
 21
181.991667
 31
0.0
  0
LINE
  5
24C
100
AcDbEntity
  8
1
  6
CONTINUOUS
 62
   212
100
AcDbLine
 10
475.377333
 20
196.491667
 30
0.0
 11
472.627333
 21
196.491667
 31
0.0
  0
LINE
  5
24D
100
AcDbEntity
  8
1
  6
CONTINUOUS
 62
   212
100
AcDbLine
 10
475.377333
 20
181.991667
 30
0.0
 11
472.627333
 21
181.991667
 31
0.0
  0
LINE
  5
24E
100
AcDbEntity
  8
1
  6
CONTINUOUS
 62
   212
100
AcDbLine
 10
467.502333
 20
197.491667
 30
0.0
 11
464.502333
 21
197.491667
 31
0.0
  0
LINE
  5
24F
100
AcDbEntity
  8
1
  6
CONTINUOUS
 62
   212
100
AcDbLine
 10
467.502333
 20
180.991667
 30
0.0
 11
464.502333
 21
180.991667
 31
0.0
  0
LINE
  5
250
100
AcDbEntity
  8
1
  6
CONTINUOUS
 62
   212
100
AcDbLine
 10
464.502333
 20
197.491667
 30
0.0
 11
464.502333
 21
180.991667
 31
0.0
  0
LINE
  5
251
100
AcDbEntity
  8
1
  6
CONTINUOUS
 62
   212
100
AcDbLine
 10
466.252333
 20
197.491667
 30
0.0
 11
466.252333
 21
180.991667
 31
0.0
  0
LINE
  5
252
100
AcDbEntity
  8
1
  6
CONTINUOUS
 62
   212
100
AcDbLine
 10
463.752333
 20
197.491667
 30
0.0
 11
463.752333
 21
180.991667
 31
0.0
  0
LINE
  5
253
100
AcDbEntity
  8
1
  6
CONTINUOUS
 62
   212
100
AcDbLine
 10
462.252333
 20
197.491667
 30
0.0
 11
462.252333
 21
180.991667
 31
0.0
  0
LINE
  5
254
100
AcDbEntity
  8
1
  6
CONTINUOUS
 62
   212
100
AcDbLine
 10
462.252333
 20
197.491667
 30
0.0
 11
463.752333
 21
197.491667
 31
0.0
  0
LINE
  5
255
100
AcDbEntity
  8
1
  6
CONTINUOUS
 62
   212
100
AcDbLine
 10
462.252333
 20
180.991667
 30
0.0
 11
463.752333
 21
180.991667
 31
0.0
  0
LINE
  5
256
100
AcDbEntity
  8
1
  6
CONTINUOUS
 62
   212
100
AcDbLine
 10
467.502333
 20
196.991667
 30
0.0
 11
464.502333
 21
196.991667
 31
0.0
  0
LINE
  5
257
100
AcDbEntity
  8
1
  6
CONTINUOUS
 62
   212
100
AcDbLine
 10
467.502333
 20
196.491667
 30
0.0
 11
463.752333
 21
196.491667
 31
0.0
  0
LINE
  5
258
100
AcDbEntity
  8
1
  6
CONTINUOUS
 62
   212
100
AcDbLine
 10
467.502333
 20
181.491667
 30
0.0
 11
464.502333
 21
181.491667
 31
0.0
  0
LINE
  5
259
100
AcDbEntity
  8
1
  6
CONTINUOUS
 62
   212
100
AcDbLine
 10
467.502333
 20
181.991667
 30
0.0
 11
463.752333
 21
181.991667
 31
0.0
  0
LINE
  5
25A
100
AcDbEntity
  8
1
  6
CONTINUOUS
 62
   212
100
AcDbLine
 10
467.502333
 20
190.241667
 30
0.0
 11
464.502333
 21
190.241667
 31
0.0
  0
LINE
  5
25B
100
AcDbEntity
  8
1
  6
CONTINUOUS
 62
   212
100
AcDbLine
 10
467.502333
 20
188.241667
 30
0.0
 11
464.502333
 21
188.241667
 31
0.0
  0
LINE
  5
25C
100
AcDbEntity
  8
1
  6
HIDDEN
 62
   212
100
AcDbLine
 10
475.377333
 20
195.241667
 30
0.0
 11
469.002333
 21
195.241667
 31
0.0
  0
LINE
  5
25D
100
AcDbEntity
  8
1
  6
HIDDEN
 62
   212
100
AcDbLine
 10
467.502333
 20
195.241667
 30
0.0
 11
462.252333
 21
195.241667
 31
0.0
  0
LINE
  5
25E
100
AcDbEntity
  8
1
  6
HIDDEN
 62
   212
100
AcDbLine
 10
475.377333
 20
183.241667
 30
0.0
 11
469.002333
 21
183.241667
 31
0.0
  0
LINE
  5
25F
100
AcDbEntity
  8
1
  6
HIDDEN
 62
   212
100
AcDbLine
 10
467.502333
 20
183.241667
 30
0.0
 11
462.252333
 21
183.241667
 31
0.0
  0
LINE
  5
260
100
AcDbEntity
  8
1
  6
CONTINUOUS
 62
   212
100
AcDbLine
 10
463.752333
 20
193.741667
 30
0.0
 11
462.252333
 21
193.741667
 31
0.0
  0
LINE
  5
261
100
AcDbEntity
  8
1
  6
CONTINUOUS
 62
   212
100
AcDbLine
 10
463.752333
 20
184.741667
 30
0.0
 11
462.252333
 21
184.741667
 31
0.0
  0
ARC
  5
262
100
AcDbEntity
  8
1
  6
CONTINUOUS
 62
   212
100
AcDbCircle
 10
471.002333
 20
161.241667
 30
0.0
 40
3.5
210
0.0
220
0.0
230
1.0
100
AcDbArc
 50
180.0
 51
101.864289
  0
ARC
  5
263
100
AcDbEntity
  8
1
  6
CONTINUOUS
 62
   212
100
AcDbCircle
 10
471.002333
 20
161.241667
 30
0.0
 40
1.998109
210
0.0
220
0.0
230
1.0
100
AcDbArc
 50
180.0
 51
176.577497
  0
LINE
  5
264
100
AcDbEntity
  8
1
  6
CONTINUOUS
 62
   212
100
AcDbLine
 10
470.28275
 20
164.666917
 30
0.0
 11
470.5915
 21
163.197083
 31
0.0
  0
LINE
  5
265
100
AcDbEntity
  8
1
  6
CONTINUOUS
 62
   212
100
AcDbLine
 10
467.502333
 20
161.476583
 30
0.0
 11
468.002333
 21
161.976583
 31
0.0
  0
LINE
  5
266
100
AcDbEntity
  8
1
  6
CONTINUOUS
 62
   212
100
AcDbLine
 10
467.5165
 20
160.927417
 30
0.0
 11
440.5165
 21
160.927417
 31
0.0
  0
LINE
  5
267
100
AcDbEntity
  8
1
  6
CONTINUOUS
 62
   212
100
AcDbLine
 10
467.758417
 20
159.927417
 30
0.0
 11
440.5165
 21
159.927417
 31
0.0
  0
LINE
  5
268
100
AcDbEntity
  8
1
  6
CONTINUOUS
 62
   212
100
AcDbLine
 10
473.92025
 20
159.308917
 30
0.0
 11
504.657333
 21
166.597417
 31
0.0
  0
LINE
  5
269
100
AcDbEntity
  8
1
  6
CONTINUOUS
 62
   212
100
AcDbLine
 10
471.839167
 20
157.787667
 30
0.0
 11
504.888
 21
165.624333
 31
0.0
  0
LINE
  5
26A
100
AcDbEntity
  8
1
  6
CONTINUOUS
 62
   212
100
AcDbLine
 10
504.657333
 20
166.597417
 30
0.0
 11
504.888
 21
165.624333
 31
0.0
  0
ARC
  5
26B
100
AcDbEntity
  8
1
  6
CONTINUOUS
 62
   212
100
AcDbCircle
 10
471.002333
 20
217.241667
 30
0.0
 40
3.5
210
0.0
220
0.0
230
1.0
100
AcDbArc
 50
258.135711
 51
210.936464
  0
LWPOLYLINE
  5
26C
100
AcDbEntity
  8
1
  6
CONTINUOUS
 62
   212
100
AcDbPolyline
 90
        6
 70
     1
 10
473.42125
 20
216.61025
 10
472.758583
 20
219.020833
 10
470.339667
 20
219.65225
 10
468.583333
 20
217.873083
 10
469.246
 20
215.4625
 10
471.664917
 20
214.831083
  0
LINE
  5
26D
100
AcDbEntity
  8
1
  6
CONTINUOUS
 62
   212
100
AcDbLine
 10
470.28275
 20
213.816417
 30
0.0
 11
470.8925
 21
215.03275
 31
0.0
  0
LINE
  5
26E
100
AcDbEntity
  8
1
  6
CONTINUOUS
 62
   212
100
AcDbLine
 10
468.002333
 20
213.408417
 30
0.0
 11
469.002333
 21
212.908333
 31
0.0
  0
LINE
  5
26F
100
AcDbEntity
  8
1
  6
CONTINUOUS
 62
   212
100
AcDbLine
 10
467.502333
 20
212.92975
 30
0.0
 11
468.002333
 21
213.42975
 31
0.0
  0
LINE
  5
270
100
AcDbEntity
  8
1
  6
CONTINUOUS
 62
   212
100
AcDbLine
 10
468.002333
 20
212.290333
 30
0.0
 11
469.002333
 21
211.79025
 31
0.0
  0
LINE
  5
271
100
AcDbEntity
  8
1
  6
CONTINUOUS
 62
   212
100
AcDbLine
 10
468.002333
 20
211.17225
 30
0.0
 11
469.002333
 21
210.672167
 31
0.0
  0
LINE
  5
272
100
AcDbEntity
  8
1
  6
CONTINUOUS
 62
   212
100
AcDbLine
 10
468.002333
 20
210.054167
 30
0.0
 11
469.002333
 21
209.554083
 31
0.0
  0
LINE
  5
273
100
AcDbEntity
  8
1
  6
CONTINUOUS
 62
   212
100
AcDbLine
 10
468.002333
 20
208.936
 30
0.0
 11
469.002333
 21
208.435917
 31
0.0
  0
LINE
  5
274
100
AcDbEntity
  8
1
  6
CONTINUOUS
 62
   212
100
AcDbLine
 10
468.002333
 20
207.818
 30
0.0
 11
469.002333
 21
207.317917
 31
0.0
  0
LINE
  5
275
100
AcDbEntity
  8
1
  6
CONTINUOUS
 62
   212
100
AcDbLine
 10
468.002333
 20
206.699917
 30
0.0
 11
469.002333
 21
206.199833
 31
0.0
  0
LINE
  5
276
100
AcDbEntity
  8
1
  6
CONTINUOUS
 62
   212
100
AcDbLine
 10
468.002333
 20
205.581833
 30
0.0
 11
469.002333
 21
205.08175
 31
0.0
  0
LINE
  5
277
100
AcDbEntity
  8
1
  6
CONTINUOUS
 62
   212
100
AcDbLine
 10
468.002333
 20
204.46375
 30
0.0
 11
469.002333
 21
203.963667
 31
0.0
  0
LINE
  5
278
100
AcDbEntity
  8
1
  6
CONTINUOUS
 62
   212
100
AcDbLine
 10
468.002333
 20
203.345583
 30
0.0
 11
469.002333
 21
202.8455
 31
0.0
  0
LINE
  5
279
100
AcDbEntity
  8
1
  6
CONTINUOUS
 62
   212
100
AcDbLine
 10
468.002333
 20
202.2275
 30
0.0
 11
469.002333
 21
201.727417
 31
0.0
  0
LINE
  5
27A
100
AcDbEntity
  8
1
  6
CONTINUOUS
 62
   212
100
AcDbLine
 10
468.002333
 20
201.109417
 30
0.0
 11
469.002333
 21
200.609333
 31
0.0
  0
LINE
  5
27B
100
AcDbEntity
  8
1
  6
CONTINUOUS
 62
   212
100
AcDbLine
 10
468.002333
 20
199.991333
 30
0.0
 11
469.002333
 21
199.49125
 31
0.0
  0
LINE
  5
27C
100
AcDbEntity
  8
1
  6
CONTINUOUS
 62
   212
100
AcDbLine
 10
468.002333
 20
198.873167
 30
0.0
 11
469.002333
 21
198.373083
 31
0.0
  0
LINE
  5
27D
100
AcDbEntity
  8
1
  6
CONTINUOUS
 62
   212
100
AcDbLine
 10
468.002333
 20
197.755083
 30
0.0
 11
469.002333
 21
197.255
 31
0.0
  0
LINE
  5
27E
100
AcDbEntity
  8
1
  6
CONTINUOUS
 62
   212
100
AcDbLine
 10
468.002333
 20
196.637
 30
0.0
 11
469.002333
 21
196.136917
 31
0.0
  0
LINE
  5
27F
100
AcDbEntity
  8
1
  6
CONTINUOUS
 62
   212
100
AcDbLine
 10
468.002333
 20
195.518917
 30
0.0
 11
469.002333
 21
195.018833
 31
0.0
  0
LINE
  5
280
100
AcDbEntity
  8
1
  6
CONTINUOUS
 62
   212
100
AcDbLine
 10
468.002333
 20
194.40075
 30
0.0
 11
469.002333
 21
193.900667
 31
0.0
  0
LINE
  5
281
100
AcDbEntity
  8
1
  6
CONTINUOUS
 62
   212
100
AcDbLine
 10
468.002333
 20
193.28275
 30
0.0
 11
469.002333
 21
192.782667
 31
0.0
  0
LINE
  5
282
100
AcDbEntity
  8
1
  6
CONTINUOUS
 62
   212
100
AcDbLine
 10
468.002333
 20
192.164667
 30
0.0
 11
469.002333
 21
191.664583
 31
0.0
  0
LINE
  5
283
100
AcDbEntity
  8
1
  6
CONTINUOUS
 62
   212
100
AcDbLine
 10
468.002333
 20
191.046583
 30
0.0
 11
469.002333
 21
190.5465
 31
0.0
  0
LINE
  5
284
100
AcDbEntity
  8
1
  6
CONTINUOUS
 62
   212
100
AcDbLine
 10
468.002333
 20
189.9285
 30
0.0
 11
469.002333
 21
189.428417
 31
0.0
  0
LINE
  5
285
100
AcDbEntity
  8
1
  6
CONTINUOUS
 62
   212
100
AcDbLine
 10
468.002333
 20
188.8105
 30
0.0
 11
469.002333
 21
188.310417
 31
0.0
  0
LINE
  5
286
100
AcDbEntity
  8
1
  6
CONTINUOUS
 62
   212
100
AcDbLine
 10
468.002333
 20
187.692417
 30
0.0
 11
469.002333
 21
187.192333
 31
0.0
  0
LINE
  5
287
100
AcDbEntity
  8
1
  6
CONTINUOUS
 62
   212
100
AcDbLine
 10
468.002333
 20
186.574333
 30
0.0
 11
469.002333
 21
186.07425
 31
0.0
  0
LINE
  5
288
100
AcDbEntity
  8
1
  6
CONTINUOUS
 62
   212
100
AcDbLine
 10
468.002333
 20
185.45625
 30
0.0
 11
469.002333
 21
184.956167
 31
0.0
  0
LINE
  5
289
100
AcDbEntity
  8
1
  6
CONTINUOUS
 62
   212
100
AcDbLine
 10
468.002333
 20
184.33825
 30
0.0
 11
469.002333
 21
183.838167
 31
0.0
  0
LINE
  5
28A
100
AcDbEntity
  8
1
  6
CONTINUOUS
 62
   212
100
AcDbLine
 10
468.002333
 20
183.220167
 30
0.0
 11
469.002333
 21
182.720083
 31
0.0
  0
LINE
  5
28B
100
AcDbEntity
  8
1
  6
CONTINUOUS
 62
   212
100
AcDbLine
 10
468.002333
 20
182.102
 30
0.0
 11
469.002333
 21
181.601917
 31
0.0
  0
LINE
  5
28C
100
AcDbEntity
  8
1
  6
CONTINUOUS
 62
   212
100
AcDbLine
 10
468.002333
 20
180.983917
 30
0.0
 11
469.002333
 21
180.483833
 31
0.0
  0
LINE
  5
28D
100
AcDbEntity
  8
1
  6
CONTINUOUS
 62
   212
100
AcDbLine
 10
468.002333
 20
179.865833
 30
0.0
 11
469.002333
 21
179.36575
 31
0.0
  0
LINE
  5
28E
100
AcDbEntity
  8
1
  6
CONTINUOUS
 62
   212
100
AcDbLine
 10
468.002333
 20
178.74775
 30
0.0
 11
469.002333
 21
178.247667
 31
0.0
  0
LINE
  5
28F
100
AcDbEntity
  8
1
  6
CONTINUOUS
 62
   212
100
AcDbLine
 10
468.002333
 20
177.629583
 30
0.0
 11
469.002333
 21
177.1295
 31
0.0
  0
LINE
  5
290
100
AcDbEntity
  8
1
  6
CONTINUOUS
 62
   212
100
AcDbLine
 10
468.002333
 20
176.511583
 30
0.0
 11
469.002333
 21
176.0115
 31
0.0
  0
LINE
  5
291
100
AcDbEntity
  8
1
  6
CONTINUOUS
 62
   212
100
AcDbLine
 10
468.002333
 20
175.3935
 30
0.0
 11
469.002333
 21
174.893417
 31
0.0
  0
LINE
  5
292
100
AcDbEntity
  8
1
  6
CONTINUOUS
 62
   212
100
AcDbLine
 10
468.002333
 20
174.275417
 30
0.0
 11
469.002333
 21
173.775333
 31
0.0
  0
LINE
  5
293
100
AcDbEntity
  8
1
  6
CONTINUOUS
 62
   212
100
AcDbLine
 10
468.002333
 20
173.157333
 30
0.0
 11
469.002333
 21
172.65725
 31
0.0
  0
LINE
  5
294
100
AcDbEntity
  8
1
  6
CONTINUOUS
 62
   212
100
AcDbLine
 10
468.002333
 20
172.039333
 30
0.0
 11
469.002333
 21
171.53925
 31
0.0
  0
LINE
  5
295
100
AcDbEntity
  8
1
  6
CONTINUOUS
 62
   212
100
AcDbLine
 10
468.002333
 20
170.92125
 30
0.0
 11
469.002333
 21
170.421167
 31
0.0
  0
LINE
  5
296
100
AcDbEntity
  8
1
  6
CONTINUOUS
 62
   212
100
AcDbLine
 10
468.002333
 20
169.803167
 30
0.0
 11
469.002333
 21
169.303083
 31
0.0
  0
LINE
  5
297
100
AcDbEntity
  8
1
  6
CONTINUOUS
 62
   212
100
AcDbLine
 10
468.002333
 20
168.685083
 30
0.0
 11
469.002333
 21
168.185
 31
0.0
  0
LINE
  5
298
100
AcDbEntity
  8
1
  6
CONTINUOUS
 62
   212
100
AcDbLine
 10
468.002333
 20
167.567
 30
0.0
 11
469.002333
 21
167.066917
 31
0.0
  0
LINE
  5
299
100
AcDbEntity
  8
1
  6
CONTINUOUS
 62
   212
100
AcDbLine
 10
468.002333
 20
166.448917
 30
0.0
 11
469.002333
 21
165.948833
 31
0.0
  0
LINE
  5
29A
100
AcDbEntity
  8
1
  6
CONTINUOUS
 62
   212
100
AcDbLine
 10
468.002333
 20
165.330833
 30
0.0
 11
469.002333
 21
164.83075
 31
0.0
  0
LINE
  5
29B
100
AcDbEntity
  8
1
  6
CONTINUOUS
 62
   212
100
AcDbLine
 10
468.002333
 20
164.212667
 30
0.0
 11
469.002333
 21
163.712583
 31
0.0
  0
LINE
  5
29C
100
AcDbEntity
  8
1
  6
CONTINUOUS
 62
   212
100
AcDbLine
 10
468.002333
 20
163.094667
 30
0.0
 11
469.002333
 21
162.594583
 31
0.0
  0
LINE
  5
29D
100
AcDbEntity
  8
1
  6
CONTINUOUS
 62
   212
100
AcDbLine
 10
468.002333
 20
161.976583
 30
0.0
 11
469.002333
 21
161.4765
 31
0.0
  0
LINE
  5
29E
100
AcDbEntity
  8
1
  6
CONTINUOUS
 62
   212
100
AcDbLine
 10
467.502333
 20
162.594667
 30
0.0
 11
468.002333
 21
163.094667
 31
0.0
  0
LINE
  5
29F
100
AcDbEntity
  8
1
  6
CONTINUOUS
 62
   212
100
AcDbLine
 10
467.502333
 20
163.712667
 30
0.0
 11
468.002333
 21
164.212667
 31
0.0
  0
LINE
  5
2A0
100
AcDbEntity
  8
1
  6
CONTINUOUS
 62
   212
100
AcDbLine
 10
467.502333
 20
164.830833
 30
0.0
 11
468.002333
 21
165.330833
 31
0.0
  0
LINE
  5
2A1
100
AcDbEntity
  8
1
  6
CONTINUOUS
 62
   212
100
AcDbLine
 10
467.502333
 20
165.948917
 30
0.0
 11
468.002333
 21
166.448917
 31
0.0
  0
LINE
  5
2A2
100
AcDbEntity
  8
1
  6
CONTINUOUS
 62
   212
100
AcDbLine
 10
467.502333
 20
167.067
 30
0.0
 11
468.002333
 21
167.567
 31
0.0
  0
LINE
  5
2A3
100
AcDbEntity
  8
1
  6
CONTINUOUS
 62
   212
100
AcDbLine
 10
467.502333
 20
168.185083
 30
0.0
 11
468.002333
 21
168.685083
 31
0.0
  0
LINE
  5
2A4
100
AcDbEntity
  8
1
  6
CONTINUOUS
 62
   212
100
AcDbLine
 10
467.502333
 20
169.303167
 30
0.0
 11
468.002333
 21
169.803167
 31
0.0
  0
LINE
  5
2A5
100
AcDbEntity
  8
1
  6
CONTINUOUS
 62
   212
100
AcDbLine
 10
467.502333
 20
170.42125
 30
0.0
 11
468.002333
 21
170.92125
 31
0.0
  0
LINE
  5
2A6
100
AcDbEntity
  8
1
  6
CONTINUOUS
 62
   212
100
AcDbLine
 10
467.502333
 20
171.539333
 30
0.0
 11
468.002333
 21
172.039333
 31
0.0
  0
LINE
  5
2A7
100
AcDbEntity
  8
1
  6
CONTINUOUS
 62
   212
100
AcDbLine
 10
467.502333
 20
172.657333
 30
0.0
 11
468.002333
 21
173.157333
 31
0.0
  0
LINE
  5
2A8
100
AcDbEntity
  8
1
  6
CONTINUOUS
 62
   212
100
AcDbLine
 10
467.502333
 20
173.775417
 30
0.0
 11
468.002333
 21
174.275417
 31
0.0
  0
LINE
  5
2A9
100
AcDbEntity
  8
1
  6
CONTINUOUS
 62
   212
100
AcDbLine
 10
467.502333
 20
174.8935
 30
0.0
 11
468.002333
 21
175.3935
 31
0.0
  0
LINE
  5
2AA
100
AcDbEntity
  8
1
  6
CONTINUOUS
 62
   212
100
AcDbLine
 10
467.502333
 20
176.011583
 30
0.0
 11
468.002333
 21
176.511583
 31
0.0
  0
LINE
  5
2AB
100
AcDbEntity
  8
1
  6
CONTINUOUS
 62
   212
100
AcDbLine
 10
467.502333
 20
177.129583
 30
0.0
 11
468.002333
 21
177.629583
 31
0.0
  0
LINE
  5
2AC
100
AcDbEntity
  8
1
  6
CONTINUOUS
 62
   212
100
AcDbLine
 10
467.502333
 20
178.24775
 30
0.0
 11
468.002333
 21
178.74775
 31
0.0
  0
LINE
  5
2AD
100
AcDbEntity
  8
1
  6
CONTINUOUS
 62
   212
100
AcDbLine
 10
467.502333
 20
179.365833
 30
0.0
 11
468.002333
 21
179.865833
 31
0.0
  0
LINE
  5
2AE
100
AcDbEntity
  8
1
  6
CONTINUOUS
 62
   212
100
AcDbLine
 10
467.502333
 20
180.483917
 30
0.0
 11
468.002333
 21
180.983917
 31
0.0
  0
LINE
  5
2AF
100
AcDbEntity
  8
1
  6
CONTINUOUS
 62
   212
100
AcDbLine
 10
467.502333
 20
181.602
 30
0.0
 11
468.002333
 21
182.102
 31
0.0
  0
LINE
  5
2B0
100
AcDbEntity
  8
1
  6
CONTINUOUS
 62
   212
100
AcDbLine
 10
467.502333
 20
182.720167
 30
0.0
 11
468.002333
 21
183.220167
 31
0.0
  0
LINE
  5
2B1
100
AcDbEntity
  8
1
  6
CONTINUOUS
 62
   212
100
AcDbLine
 10
467.502333
 20
183.83825
 30
0.0
 11
468.002333
 21
184.33825
 31
0.0
  0
LINE
  5
2B2
100
AcDbEntity
  8
1
  6
CONTINUOUS
 62
   212
100
AcDbLine
 10
467.502333
 20
184.95625
 30
0.0
 11
468.002333
 21
185.45625
 31
0.0
  0
LINE
  5
2B3
100
AcDbEntity
  8
1
  6
CONTINUOUS
 62
   212
100
AcDbLine
 10
467.502333
 20
186.074333
 30
0.0
 11
468.002333
 21
186.574333
 31
0.0
  0
LINE
  5
2B4
100
AcDbEntity
  8
1
  6
CONTINUOUS
 62
   212
100
AcDbLine
 10
467.502333
 20
187.192417
 30
0.0
 11
468.002333
 21
187.692417
 31
0.0
  0
LINE
  5
2B5
100
AcDbEntity
  8
1
  6
CONTINUOUS
 62
   212
100
AcDbLine
 10
467.502333
 20
188.3105
 30
0.0
 11
468.002333
 21
188.8105
 31
0.0
  0
LINE
  5
2B6
100
AcDbEntity
  8
1
  6
CONTINUOUS
 62
   212
100
AcDbLine
 10
467.502333
 20
189.4285
 30
0.0
 11
468.002333
 21
189.9285
 31
0.0
  0
LINE
  5
2B7
100
AcDbEntity
  8
1
  6
CONTINUOUS
 62
   212
100
AcDbLine
 10
467.502333
 20
190.546583
 30
0.0
 11
468.002333
 21
191.046583
 31
0.0
  0
LINE
  5
2B8
100
AcDbEntity
  8
1
  6
CONTINUOUS
 62
   212
100
AcDbLine
 10
467.502333
 20
191.664667
 30
0.0
 11
468.002333
 21
192.164667
 31
0.0
  0
LINE
  5
2B9
100
AcDbEntity
  8
1
  6
CONTINUOUS
 62
   212
100
AcDbLine
 10
467.502333
 20
192.78275
 30
0.0
 11
468.002333
 21
193.28275
 31
0.0
  0
LINE
  5
2BA
100
AcDbEntity
  8
1
  6
CONTINUOUS
 62
   212
100
AcDbLine
 10
467.502333
 20
193.90075
 30
0.0
 11
468.002333
 21
194.40075
 31
0.0
  0
LINE
  5
2BB
100
AcDbEntity
  8
1
  6
CONTINUOUS
 62
   212
100
AcDbLine
 10
467.502333
 20
195.018917
 30
0.0
 11
468.002333
 21
195.518917
 31
0.0
  0
LINE
  5
2BC
100
AcDbEntity
  8
1
  6
CONTINUOUS
 62
   212
100
AcDbLine
 10
467.502333
 20
196.137
 30
0.0
 11
468.002333
 21
196.637
 31
0.0
  0
LINE
  5
2BD
100
AcDbEntity
  8
1
  6
CONTINUOUS
 62
   212
100
AcDbLine
 10
467.502333
 20
197.255083
 30
0.0
 11
468.002333
 21
197.755083
 31
0.0
  0
LINE
  5
2BE
100
AcDbEntity
  8
1
  6
CONTINUOUS
 62
   212
100
AcDbLine
 10
467.502333
 20
198.373167
 30
0.0
 11
468.002333
 21
198.873167
 31
0.0
  0
LINE
  5
2BF
100
AcDbEntity
  8
1
  6
CONTINUOUS
 62
   212
100
AcDbLine
 10
467.502333
 20
199.491333
 30
0.0
 11
468.002333
 21
199.991333
 31
0.0
  0
LINE
  5
2C0
100
AcDbEntity
  8
1
  6
CONTINUOUS
 62
   212
100
AcDbLine
 10
467.502333
 20
200.609417
 30
0.0
 11
468.002333
 21
201.109417
 31
0.0
  0
LINE
  5
2C1
100
AcDbEntity
  8
1
  6
CONTINUOUS
 62
   212
100
AcDbLine
 10
467.502333
 20
201.7275
 30
0.0
 11
468.002333
 21
202.2275
 31
0.0
  0
LINE
  5
2C2
100
AcDbEntity
  8
1
  6
CONTINUOUS
 62
   212
100
AcDbLine
 10
467.502333
 20
202.845583
 30
0.0
 11
468.002333
 21
203.345583
 31
0.0
  0
LINE
  5
2C3
100
AcDbEntity
  8
1
  6
CONTINUOUS
 62
   212
100
AcDbLine
 10
467.502333
 20
203.96375
 30
0.0
 11
468.002333
 21
204.46375
 31
0.0
  0
LINE
  5
2C4
100
AcDbEntity
  8
1
  6
CONTINUOUS
 62
   212
100
AcDbLine
 10
467.502333
 20
205.081833
 30
0.0
 11
468.002333
 21
205.581833
 31
0.0
  0
LINE
  5
2C5
100
AcDbEntity
  8
1
  6
CONTINUOUS
 62
   212
100
AcDbLine
 10
467.502333
 20
206.199917
 30
0.0
 11
468.002333
 21
206.699917
 31
0.0
  0
LINE
  5
2C6
100
AcDbEntity
  8
1
  6
CONTINUOUS
 62
   212
100
AcDbLine
 10
467.502333
 20
207.318
 30
0.0
 11
468.002333
 21
207.818
 31
0.0
  0
LINE
  5
2C7
100
AcDbEntity
  8
1
  6
CONTINUOUS
 62
   212
100
AcDbLine
 10
467.502333
 20
208.436
 30
0.0
 11
468.002333
 21
208.936
 31
0.0
  0
LINE
  5
2C8
100
AcDbEntity
  8
1
  6
CONTINUOUS
 62
   212
100
AcDbLine
 10
467.502333
 20
209.554167
 30
0.0
 11
468.002333
 21
210.054167
 31
0.0
  0
LINE
  5
2C9
100
AcDbEntity
  8
1
  6
CONTINUOUS
 62
   212
100
AcDbLine
 10
467.502333
 20
210.67225
 30
0.0
 11
468.002333
 21
211.17225
 31
0.0
  0
LINE
  5
2CA
100
AcDbEntity
  8
1
  6
CONTINUOUS
 62
   212
100
AcDbLine
 10
467.502333
 20
211.790333
 30
0.0
 11
468.002333
 21
212.290333
 31
0.0
  0
LINE
  5
2CB
100
AcDbEntity
  8
1
  6
CONTINUOUS
 62
   212
100
AcDbLine
 10
468.002333
 20
214.526417
 30
0.0
 11
469.002333
 21
214.026333
 31
0.0
  0
LINE
  5
2CC
100
AcDbEntity
  8
1
  6
CONTINUOUS
 62
   212
100
AcDbLine
 10
467.502333
 20
214.026417
 30
0.0
 11
468.002333
 21
214.526417
 31
0.0
  0
LINE
  5
2CD
100
AcDbEntity
  8
1
  6
CONTINUOUS
 62
   212
100
AcDbLine
 10
473.92025
 20
219.174417
 30
0.0
 11
504.657333
 21
211.885917
 31
0.0
  0
LINE
  5
2CE
100
AcDbEntity
  8
1
  6
CONTINUOUS
 62
   212
100
AcDbLine
 10
471.839167
 20
220.695667
 30
0.0
 11
504.888
 21
212.859
 31
0.0
  0
LINE
  5
2CF
100
AcDbEntity
  8
1
  6
CONTINUOUS
 62
   212
100
AcDbLine
 10
504.657333
 20
211.885917
 30
0.0
 11
504.888
 21
212.859
 31
0.0
  0
LINE
  5
2D0
100
AcDbEntity
  8
1
  6
CONTINUOUS
 62
   212
100
AcDbLine
 10
467.758417
 20
218.555917
 30
0.0
 11
440.5165
 21
218.555917
 31
0.0
  0
LINE
  5
2D1
100
AcDbEntity
  8
1
  6
CONTINUOUS
 62
   212
100
AcDbLine
 10
467.5165
 20
217.555917
 30
0.0
 11
440.5165
 21
217.555917
 31
0.0
  0
LINE
  5
2D2
100
AcDbEntity
  8
1
  6
CONTINUOUS
 62
     7
100
AcDbLine
 10
446.252333
 20
189.241667
 30
0.0
 11
458.252333
 21
189.241667
 31
0.0
  0
LINE
  5
2D3
100
AcDbEntity
  8
1
  6
CONTINUOUS
 62
     7
100
AcDbLine
 10
459.252333
 20
189.241667
 30
0.0
 11
460.252333
 21
189.241667
 31
0.0
  0
LINE
  5
2D4
100
AcDbEntity
  8
1
  6
CONTINUOUS
 62
     7
100
AcDbLine
 10
461.252333
 20
189.241667
 30
0.0
 11
476.252333
 21
189.241667
 31
0.0
  0
LINE
  5
2D5
100
AcDbEntity
  8
1
  6
CONTINUOUS
 62
     7
100
AcDbLine
 10
477.252333
 20
189.241667
 30
0.0
 11
478.252333
 21
189.241667
 31
0.0
  0
LINE
  5
2D6
100
AcDbEntity
  8
1
  6
CONTINUOUS
 62
     7
100
AcDbLine
 10
479.252333
 20
189.241667
 30
0.0
 11
491.252333
 21
189.241667
 31
0.0
  0
LINE
  5
2D7
100
AcDbEntity
  8
1
  6
CONTINUOUS
 62
     7
100
AcDbLine
 10
492.252333
 20
189.241667
 30
0.0
 11
493.252333
 21
189.241667
 31
0.0
  0
LINE
  5
2D8
100
AcDbEntity
  8
1
  6
CONTINUOUS
 62
     7
100
AcDbLine
 10
494.252333
 20
189.241667
 30
0.0
 11
504.252333
 21
189.241667
 31
0.0
  0
LINE
  5
2D9
100
AcDbEntity
  8
1
  6
CONTINUOUS
 62
     7
100
AcDbLine
 10
505.252333
 20
189.241667
 30
0.0
 11
506.252333
 21
189.241667
 31
0.0
  0
LINE
  5
2DA
100
AcDbEntity
  8
1
  6
CONTINUOUS
 62
     7
100
AcDbLine
 10
507.252333
 20
189.241667
 30
0.0
 11
524.325167
 21
189.241667
 31
0.0
  0
LINE
  5
2DB
100
AcDbEntity
  8
1
  6
CONTINUOUS
 62
     7
100
AcDbLine
 10
466.977333
 20
197.491667
 30
0.0
 11
460.33025
 21
210.687917
 31
0.0
  0
LINE
  5
2DC
100
AcDbEntity
  8
1
  6
CONTINUOUS
 62
     7
100
AcDbLine
 10
460.33025
 20
210.687917
 30
0.0
 11
465.2815
 21
197.491667
 31
0.0
  0
LINE
  5
2DD
100
AcDbEntity
  8
1
  6
CONTINUOUS
 62
     7
100
AcDbLine
 10
460.33025
 20
210.687917
 30
0.0
 11
456.98375
 21
210.687917
 31
0.0
  0
INSERT
  5
2DE
100
AcDbEntity
  8
1
  6
CONTINUOUS
 62
     1
100
AcDbBlockReference
  2
LDR
 10
465.2815
 20
197.491667
 30
0.0
 41
239.999999
 42
239.999999
 50
290.566156
210
0.0
220
0.0
230
1.0
  0
INSERT
  5
2DF
100
AcDbEntity
  8
1
  6
CONTINUOUS
 62
     1
100
AcDbBlockReference
  2
LDR
 10
465.2815
 20
197.491667
 30
0.0
 41
239.999999
 42
239.999999
 50
290.566156
210
0.0
220
0.0
230
1.0
  0
INSERT
  5
2E0
100
AcDbEntity
  8
1
  6
CONTINUOUS
 62
     1
100
AcDbBlockReference
  2
LDR
 10
466.977333
 20
197.491667
 30
0.0
 41
240.0
 42
240.0
 50
296.734853
210
0.0
220
0.0
230
1.0
  0
TEXT
  5
2E1
100
AcDbEntity
  8
1
  6
CONTINUOUS
 62
     7
100
AcDbText
 10
420.92375
 20
209.30175
 30
0.0
 40
2.5
  1
STEEL LOCK NUTS
  7
MONOTXT
 72
     4
 11
438.82725
 21
210.55175
 31
0.0
210
0.0
220
0.0
230
1.0
100
AcDbText
  0
LINE
  5
2E2
100
AcDbEntity
  8
1
  6
CONTINUOUS
 62
     7
100
AcDbLine
 10
469.893333
 20
198.491667
 30
0.0
 11
478.88175
 21
226.487333
 31
0.0
  0
LINE
  5
2E3
100
AcDbEntity
  8
1
  6
CONTINUOUS
 62
     7
100
AcDbLine
 10
478.88175
 20
226.487333
 30
0.0
 11
483.579167
 21
226.487333
 31
0.0
  0
INSERT
  5
2E4
100
AcDbEntity
  8
1
  6
CONTINUOUS
 62
     1
100
AcDbBlockReference
  2
LDR
 10
469.893333
 20
198.491667
 30
0.0
 41
239.999999
 42
239.999999
 50
252.200015
210
0.0
220
0.0
230
1.0
  0
TEXT
  5
2E5
100
AcDbEntity
  8
1
  6
CONTINUOUS
 62
     7
100
AcDbText
 10
484.115833
 20
225.3735
 30
0.0
 40
2.5
  1
FIBER WASHER
  7
MONOTXT
 72
     4
 11
497.8855
 21
226.6235
 31
0.0
210
0.0
220
0.0
230
1.0
100
AcDbText
  0
LINE
  5
2E6
100
AcDbEntity
  8
1
  6
CONTINUOUS
 62
     7
100
AcDbLine
 10
467.502333
 20
172.204417
 30
0.0
 11
459.779917
 21
169.197
 31
0.0
  0
LINE
  5
2E7
100
AcDbEntity
  8
1
  6
CONTINUOUS
 62
     7
100
AcDbLine
 10
459.779917
 20
169.197
 30
0.0
 11
455.93075
 21
169.197
 31
0.0
  0
INSERT
  5
2E8
100
AcDbEntity
  8
1
  6
CONTINUOUS
 62
     1
100
AcDbBlockReference
  2
LDR
 10
467.502333
 20
172.204417
 30
0.0
 41
240.000001
 42
240.000001
 50
21.27792
210
0.0
220
0.0
230
1.0
  0
TEXT
  5
2E9
100
AcDbEntity
  8
1
  6
CONTINUOUS
 62
     7
100
AcDbText
 10
417.673
 20
172.239167
 30
0.0
 40
2.5
  1
BACK WALL OF
  7
MONOTXT
 11
417.673
 21
174.739167
 31
0.0
210
0.0
220
0.0
230
1.0
100
AcDbText
 73
     3
  0
TEXT
  5
2EA
100
AcDbEntity
  8
1
  6
CONTINUOUS
 62
     7
100
AcDbText
 10
417.673
 20
167.739167
 30
0.0
 40
2.5
  1
SWITCH ENCLOSURE
  7
MONOTXT
 11
417.673
 21
170.239167
 31
0.0
210
0.0
220
0.0
230
1.0
100
AcDbText
 73
     3
  0
LINE
  5
2EB
100
AcDbEntity
  8
1
  6
CONTINUOUS
 62
     7
100
AcDbLine
 10
475.377333
 20
196.147417
 30
0.0
 11
518.06725
 21
202.582333
 31
0.0
  0
LINE
  5
2EC
100
AcDbEntity
  8
1
  6
CONTINUOUS
 62
     7
100
AcDbLine
 10
518.06725
 20
202.582333
 30
0.0
 11
522.97875
 21
202.582333
 31
0.0
  0
LINE
  5
2ED
100
AcDbEntity
  8
1
  6
CONTINUOUS
 62
     7
100
AcDbLine
 10
472.627333
 20
180.70125
 30
0.0
 11
520.289083
 21
185.152667
 31
0.0
  0
LINE
  5
2EE
100
AcDbEntity
  8
1
  6
CONTINUOUS
 62
     7
100
AcDbLine
 10
520.289083
 20
185.152667
 30
0.0
 11
524.498917
 21
185.152667
 31
0.0
  0
INSERT
  5
2EF
100
AcDbEntity
  8
1
  6
CONTINUOUS
 62
     1
100
AcDbBlockReference
  2
LDR
 10
475.377333
 20
196.147417
 30
0.0
 41
239.999998
 42
239.999998
 50
188.572016
210
0.0
220
0.0
230
1.0
  0
INSERT
  5
2F0
100
AcDbEntity
  8
1
  6
CONTINUOUS
 62
     1
100
AcDbBlockReference
  2
LDR
 10
475.377333
 20
196.147417
 30
0.0
 41
239.999998
 42
239.999998
 50
188.572016
210
0.0
220
0.0
230
1.0
  0
INSERT
  5
2F1
100
AcDbEntity
  8
1
  6
CONTINUOUS
 62
     1
100
AcDbBlockReference
  2
LDR
 10
472.627333
 20
180.70125
 30
0.0
 41
239.999999
 42
239.999999
 50
185.335718
210
0.0
220
0.0
230
1.0
  0
INSERT
  5
2F2
100
AcDbEntity
  8
1
  6
CONTINUOUS
 62
     1
100
AcDbBlockReference
  2
LDR
 10
472.627333
 20
180.70125
 30
0.0
 41
239.999999
 42
239.999999
 50
185.335718
210
0.0
220
0.0
230
1.0
  0
LINE
  5
2F3
100
AcDbEntity
  8
1
  6
CONTINUOUS
 62
     7
100
AcDbLine
 10
433.673583
 20
141.075167
 30
0.0
 11
544.289
 21
141.075167
 31
0.0
  0
LINE
  5
2F4
100
AcDbEntity
  8
1
  6
CONTINUOUS
 62
     2
100
AcDbLine
 10
203.997917
 20
70.673833
 30
0.0
 11
238.277917
 21
70.673833
 31
0.0
  0
LINE
  5
2F5
100
AcDbEntity
  8
1
  6
CONTINUOUS
 62
     2
100
AcDbLine
 10
203.997917
 20
54.553833
 30
0.0
 11
238.277917
 21
54.553833
 31
0.0
  0
LINE
  5
2F6
100
AcDbEntity
  8
1
  6
CONTINUOUS
 62
     2
100
AcDbLine
 10
203.997917
 20
70.673833
 30
0.0
 11
203.997917
 21
54.553833
 31
0.0
  0
LINE
  5
2F7
100
AcDbEntity
  8
1
  6
CONTINUOUS
 62
     2
100
AcDbLine
 10
238.277917
 20
65.633833
 30
0.0
 11
258.437917
 21
65.633833
 31
0.0
  0
LINE
  5
2F8
100
AcDbEntity
  8
1
  6
CONTINUOUS
 62
     2
100
AcDbLine
 10
238.277917
 20
59.593833
 30
0.0
 11
258.437917
 21
59.593833
 31
0.0
  0
LINE
  5
2F9
100
AcDbEntity
  8
1
  6
CONTINUOUS
 62
     2
100
AcDbLine
 10
238.277917
 20
70.673833
 30
0.0
 11
238.277917
 21
65.633833
 31
0.0
  0
LINE
  5
2FA
100
AcDbEntity
  8
1
  6
CONTINUOUS
 62
     2
100
AcDbLine
 10
238.277917
 20
59.593833
 30
0.0
 11
238.277917
 21
54.553833
 31
0.0
  0
LINE
  5
2FB
100
AcDbEntity
  8
1
  6
CONTINUOUS
 62
     2
100
AcDbLine
 10
258.437917
 20
65.633833
 30
0.0
 11
258.437917
 21
59.593833
 31
0.0
  0
LINE
  5
2FC
100
AcDbEntity
  8
1
  6
CONTINUOUS
 62
     2
100
AcDbLine
 10
293.717917
 20
65.633833
 30
0.0
 11
293.717917
 21
59.593833
 31
0.0
  0
LINE
  5
2FD
100
AcDbEntity
  8
1
  6
CONTINUOUS
 62
     2
100
AcDbLine
 10
273.557917
 20
65.633833
 30
0.0
 11
293.717917
 21
65.633833
 31
0.0
  0
LINE
  5
2FE
100
AcDbEntity
  8
1
  6
CONTINUOUS
 62
     2
100
AcDbLine
 10
273.557917
 20
59.593833
 30
0.0
 11
293.717917
 21
59.593833
 31
0.0
  0
LINE
  5
2FF
100
AcDbEntity
  8
1
  6
CONTINUOUS
 62
     2
100
AcDbLine
 10
273.557917
 20
70.673833
 30
0.0
 11
273.557917
 21
65.633833
 31
0.0
  0
LINE
  5
300
100
AcDbEntity
  8
1
  6
CONTINUOUS
 62
     2
100
AcDbLine
 10
273.557917
 20
54.553833
 30
0.0
 11
273.557917
 21
59.593833
 31
0.0
  0
LINE
  5
301
100
AcDbEntity
  8
1
  6
CONTINUOUS
 62
     2
100
AcDbLine
 10
273.557917
 20
70.673833
 30
0.0
 11
375.357917
 21
70.673833
 31
0.0
  0
LINE
  5
302
100
AcDbEntity
  8
1
  6
CONTINUOUS
 62
     2
100
AcDbLine
 10
273.557917
 20
54.553833
 30
0.0
 11
375.357917
 21
54.553833
 31
0.0
  0
LINE
  5
303
100
AcDbEntity
  8
1
  6
CONTINUOUS
 62
     2
100
AcDbLine
 10
375.357917
 20
70.673833
 30
0.0
 11
375.357917
 21
65.633833
 31
0.0
  0
LINE
  5
304
100
AcDbEntity
  8
1
  6
CONTINUOUS
 62
     2
100
AcDbLine
 10
375.357917
 20
54.553833
 30
0.0
 11
375.357917
 21
59.593833
 31
0.0
  0
LINE
  5
305
100
AcDbEntity
  8
1
  6
CONTINUOUS
 62
     2
100
AcDbLine
 10
355.197917
 20
65.633833
 30
0.0
 11
375.357917
 21
65.633833
 31
0.0
  0
LINE
  5
306
100
AcDbEntity
  8
1
  6
CONTINUOUS
 62
     2
100
AcDbLine
 10
355.197917
 20
59.593833
 30
0.0
 11
375.357917
 21
59.593833
 31
0.0
  0
LINE
  5
307
100
AcDbEntity
  8
1
  6
CONTINUOUS
 62
     2
100
AcDbLine
 10
355.197917
 20
65.633833
 30
0.0
 11
355.197917
 21
59.593833
 31
0.0
  0
LINE
  5
308
100
AcDbEntity
  8
1
  6
CONTINUOUS
 62
     2
100
AcDbLine
 10
324.457917
 20
76.733833
 30
0.0
 11
324.457917
 21
48.333833
 31
0.0
  0
LINE
  5
309
100
AcDbEntity
  8
1
  6
CONTINUOUS
 62
     2
100
AcDbLine
 10
298.257917
 20
76.733833
 30
0.0
 11
298.257917
 21
65.633833
 31
0.0
  0
LINE
  5
30A
100
AcDbEntity
  8
1
  6
CONTINUOUS
 62
     2
100
AcDbLine
 10
298.257917
 20
64.633833
 30
0.0
 11
298.257917
 21
63.633833
 31
0.0
  0
LINE
  5
30B
100
AcDbEntity
  8
1
  6
CONTINUOUS
 62
     2
100
AcDbLine
 10
298.257917
 20
62.613833
 30
0.0
 11
298.257917
 21
59.593833
 31
0.0
  0
LINE
  5
30C
100
AcDbEntity
  8
1
  6
CONTINUOUS
 62
     2
100
AcDbLine
 10
350.677917
 20
76.733833
 30
0.0
 11
350.677917
 21
65.633833
 31
0.0
  0
LINE
  5
30D
100
AcDbEntity
  8
1
  6
CONTINUOUS
 62
     2
100
AcDbLine
 10
350.677917
 20
64.633833
 30
0.0
 11
350.677917
 21
63.633833
 31
0.0
  0
LINE
  5
30E
100
AcDbEntity
  8
1
  6
CONTINUOUS
 62
     2
100
AcDbLine
 10
350.677917
 20
62.613833
 30
0.0
 11
350.677917
 21
59.593833
 31
0.0
  0
LINE
  5
30F
100
AcDbEntity
  8
1
  6
CONTINUOUS
 62
     2
100
AcDbLine
 10
298.257917
 20
75.713833
 30
0.0
 11
324.457917
 21
75.713833
 31
0.0
  0
LINE
  5
310
100
AcDbEntity
  8
1
  6
CONTINUOUS
 62
     2
100
AcDbLine
 10
324.457917
 20
75.713833
 30
0.0
 11
350.677917
 21
75.713833
 31
0.0
  0
INSERT
  5
311
100
AcDbEntity
  8
1
  6
CONTINUOUS
 62
     1
100
AcDbBlockReference
  2
LDR
 10
298.257917
 20
75.713833
 30
0.0
 41
241.920018
 42
241.920018
 50
180.0
210
0.0
220
0.0
230
1.0
  0
INSERT
  5
312
100
AcDbEntity
  8
1
  6
CONTINUOUS
 62
     1
100
AcDbBlockReference
  2
LDR
 10
298.257917
 20
75.713833
 30
0.0
 41
241.920018
 42
241.920018
 50
180.0
210
0.0
220
0.0
230
1.0
  0
INSERT
  5
313
100
AcDbEntity
  8
1
  6
CONTINUOUS
 62
     1
100
AcDbBlockReference
  2
LDR
 10
324.457917
 20
75.713833
 30
0.0
 41
241.920018
 42
241.920018
210
0.0
220
0.0
230
1.0
  0
INSERT
  5
314
100
AcDbEntity
  8
1
  6
CONTINUOUS
 62
     1
100
AcDbBlockReference
  2
LDR
 10
324.457917
 20
75.713833
 30
0.0
 41
241.920018
 42
241.920018
210
0.0
220
0.0
230
1.0
  0
INSERT
  5
315
100
AcDbEntity
  8
1
  6
CONTINUOUS
 62
     1
100
AcDbBlockReference
  2
LDR
 10
324.457917
 20
75.713833
 30
0.0
 41
241.920018
 42
241.920018
 50
180.0
210
0.0
220
0.0
230
1.0
  0
INSERT
  5
316
100
AcDbEntity
  8
1
  6
CONTINUOUS
 62
     1
100
AcDbBlockReference
  2
LDR
 10
324.457917
 20
75.713833
 30
0.0
 41
241.920018
 42
241.920018
 50
180.0
210
0.0
220
0.0
230
1.0
  0
INSERT
  5
317
100
AcDbEntity
  8
1
  6
CONTINUOUS
 62
     1
100
AcDbBlockReference
  2
LDR
 10
350.677917
 20
75.713833
 30
0.0
 41
241.920018
 42
241.920018
210
0.0
220
0.0
230
1.0
  0
INSERT
  5
318
100
AcDbEntity
  8
1
  6
CONTINUOUS
 62
     1
100
AcDbBlockReference
  2
LDR
 10
350.677917
 20
75.713833
 30
0.0
 41
241.920018
 42
241.920018
210
0.0
220
0.0
230
1.0
  0
LINE
  5
319
100
AcDbEntity
  8
1
  6
CONTINUOUS
 62
     2
100
AcDbLine
 10
355.197917
 20
66.653833
 30
0.0
 11
355.197917
 21
76.733833
 31
0.0
  0
LINE
  5
31A
100
AcDbEntity
  8
1
  6
CONTINUOUS
 62
     2
100
AcDbLine
 10
375.357917
 20
71.693833
 30
0.0
 11
375.357917
 21
76.733833
 31
0.0
  0
LINE
  5
31B
100
AcDbEntity
  8
1
  6
CONTINUOUS
 62
     2
100
AcDbLine
 10
355.197917
 20
75.713833
 30
0.0
 11
375.357917
 21
75.713833
 31
0.0
  0
INSERT
  5
31C
100
AcDbEntity
  8
1
  6
CONTINUOUS
 62
     1
100
AcDbBlockReference
  2
LDR
 10
355.197917
 20
75.713833
 30
0.0
 41
241.920018
 42
241.920018
 50
180.0
210
0.0
220
0.0
230
1.0
  0
INSERT
  5
31D
100
AcDbEntity
  8
1
  6
CONTINUOUS
 62
     1
100
AcDbBlockReference
  2
LDR
 10
375.357917
 20
75.713833
 30
0.0
 41
241.920018
 42
241.920018
210
0.0
220
0.0
230
1.0
  0
LINE
  5
31E
100
AcDbEntity
  8
1
  6
CONTINUOUS
 62
     2
100
AcDbLine
 10
376.377917
 20
70.673833
 30
0.0
 11
387.457917
 21
70.673833
 31
0.0
  0
LINE
  5
31F
100
AcDbEntity
  8
1
  6
CONTINUOUS
 62
     2
100
AcDbLine
 10
376.377917
 20
54.553833
 30
0.0
 11
387.457917
 21
54.553833
 31
0.0
  0
LINE
  5
320
100
AcDbEntity
  8
1
  6
CONTINUOUS
 62
     2
100
AcDbLine
 10
386.457917
 20
70.673833
 30
0.0
 11
386.457917
 21
54.553833
 31
0.0
  0
INSERT
  5
321
100
AcDbEntity
  8
1
  6
CONTINUOUS
 62
     1
100
AcDbBlockReference
  2
LDR
 10
386.457917
 20
70.673833
 30
0.0
 41
241.920018
 42
241.920018
 50
90.0
210
0.0
220
0.0
230
1.0
  0
INSERT
  5
322
100
AcDbEntity
  8
1
  6
CONTINUOUS
 62
     1
100
AcDbBlockReference
  2
LDR
 10
386.457917
 20
54.553833
 30
0.0
 41
241.920018
 42
241.920018
 50
270.0
210
0.0
220
0.0
230
1.0
  0
LINE
  5
323
100
AcDbEntity
  8
1
  6
CONTINUOUS
 62
     2
100
AcDbLine
 10
376.377917
 20
65.633833
 30
0.0
 11
382.417917
 21
65.633833
 31
0.0
  0
LINE
  5
324
100
AcDbEntity
  8
1
  6
CONTINUOUS
 62
     2
100
AcDbLine
 10
376.377917
 20
59.593833
 30
0.0
 11
382.417917
 21
59.593833
 31
0.0
  0
LINE
  5
325
100
AcDbEntity
  8
1
  6
CONTINUOUS
 62
     2
100
AcDbLine
 10
381.417917
 20
69.673833
 30
0.0
 11
381.417917
 21
65.633833
 31
0.0
  0
LINE
  5
326
100
AcDbEntity
  8
1
  6
CONTINUOUS
 62
     2
100
AcDbLine
 10
381.417917
 20
54.553833
 30
0.0
 11
381.417917
 21
49.513833
 31
0.0
  0
INSERT
  5
327
100
AcDbEntity
  8
1
  6
CONTINUOUS
 62
     1
100
AcDbBlockReference
  2
LDR
 10
381.417917
 20
65.633833
 30
0.0
 41
241.920018
 42
241.920018
 50
270.0
210
0.0
220
0.0
230
1.0
  0
INSERT
  5
328
100
AcDbEntity
  8
1
  6
CONTINUOUS
 62
     1
100
AcDbBlockReference
  2
LDR
 10
381.417917
 20
54.553833
 30
0.0
 41
241.920018
 42
241.920018
 50
90.0
210
0.0
220
0.0
230
1.0
  0
LINE
  5
329
100
AcDbEntity
  8
1
  6
CONTINUOUS
 62
     2
100
AcDbLine
 10
273.557917
 20
53.553833
 30
0.0
 11
273.557917
 21
43.473833
 31
0.0
  0
LINE
  5
32A
100
AcDbEntity
  8
1
  6
CONTINUOUS
 62
     2
100
AcDbLine
 10
375.357917
 20
53.553833
 30
0.0
 11
375.357917
 21
43.473833
 31
0.0
  0
LINE
  5
32B
100
AcDbEntity
  8
1
  6
CONTINUOUS
 62
     2
100
AcDbLine
 10
273.557917
 20
44.473833
 30
0.0
 11
375.357917
 21
44.473833
 31
0.0
  0
LINE
  5
32C
100
AcDbEntity
  8
1
  6
CONTINUOUS
 62
     2
100
AcDbLine
 10
324.457917
 20
49.353833
 30
0.0
 11
375.357917
 21
49.353833
 31
0.0
  0
INSERT
  5
32D
100
AcDbEntity
  8
1
  6
CONTINUOUS
 62
     1
100
AcDbBlockReference
  2
LDR
 10
375.357917
 20
44.473833
 30
0.0
 41
241.920018
 42
241.920018
210
0.0
220
0.0
230
1.0
  0
INSERT
  5
32E
100
AcDbEntity
  8
1
  6
CONTINUOUS
 62
     1
100
AcDbBlockReference
  2
LDR
 10
375.357917
 20
44.473833
 30
0.0
 41
241.920018
 42
241.920018
210
0.0
220
0.0
230
1.0
  0
INSERT
  5
32F
100
AcDbEntity
  8
1
  6
CONTINUOUS
 62
     1
100
AcDbBlockReference
  2
LDR
 10
273.557917
 20
44.473833
 30
0.0
 41
241.920018
 42
241.920018
 50
180.0
210
0.0
220
0.0
230
1.0
  0
LINE
  5
330
100
AcDbEntity
  8
1
  6
CONTINUOUS
 62
     2
100
AcDbLine
 10
259.437917
 20
65.633833
 30
0.0
 11
266.497917
 21
65.633833
 31
0.0
  0
LINE
  5
331
100
AcDbEntity
  8
1
  6
CONTINUOUS
 62
     2
100
AcDbLine
 10
259.437917
 20
59.593833
 30
0.0
 11
266.497917
 21
59.593833
 31
0.0
  0
LINE
  5
332
100
AcDbEntity
  8
1
  6
CONTINUOUS
 62
     2
100
AcDbLine
 10
239.277917
 20
70.673833
 30
0.0
 11
266.497917
 21
70.673833
 31
0.0
  0
LINE
  5
333
100
AcDbEntity
  8
1
  6
CONTINUOUS
 62
     2
100
AcDbLine
 10
265.497917
 20
70.673833
 30
0.0
 11
265.497917
 21
75.713833
 31
0.0
  0
LINE
  5
334
100
AcDbEntity
  8
1
  6
CONTINUOUS
 62
     2
100
AcDbLine
 10
265.497917
 20
59.593833
 30
0.0
 11
265.497917
 21
42.77975
 31
0.0
  0
INSERT
  5
335
100
AcDbEntity
  8
1
  6
CONTINUOUS
 62
     1
100
AcDbBlockReference
  2
LDR
 10
265.497917
 20
70.673833
 30
0.0
 41
241.920018
 42
241.920018
 50
270.0
210
0.0
220
0.0
230
1.0
  0
INSERT
  5
336
100
AcDbEntity
  8
1
  6
CONTINUOUS
 62
     1
100
AcDbBlockReference
  2
LDR
 10
265.497917
 20
59.593833
 30
0.0
 41
241.920018
 42
241.920018
 50
90.0
210
0.0
220
0.0
230
1.0
  0
LINE
  5
337
100
AcDbEntity
  8
1
  6
CONTINUOUS
 62
     2
100
AcDbLine
 10
258.437917
 20
58.593833
 30
0.0
 11
258.437917
 21
43.473833
 31
0.0
  0
LINE
  5
338
100
AcDbEntity
  8
1
  6
CONTINUOUS
 62
     2
100
AcDbLine
 10
203.997917
 20
53.553833
 30
0.0
 11
203.997917
 21
43.473833
 31
0.0
  0
LINE
  5
339
100
AcDbEntity
  8
1
  6
CONTINUOUS
 62
     2
100
AcDbLine
 10
203.997917
 20
44.473833
 30
0.0
 11
258.437917
 21
44.473833
 31
0.0
  0
LINE
  5
33A
100
AcDbEntity
  8
1
  6
CONTINUOUS
 62
     2
100
AcDbLine
 10
238.277917
 20
53.553833
 30
0.0
 11
238.277917
 21
48.513833
 31
0.0
  0
LINE
  5
33B
100
AcDbEntity
  8
1
  6
CONTINUOUS
 62
     2
100
AcDbLine
 10
238.277917
 20
49.513833
 30
0.0
 11
258.437917
 21
49.513833
 31
0.0
  0
INSERT
  5
33C
100
AcDbEntity
  8
1
  6
CONTINUOUS
 62
     1
100
AcDbBlockReference
  2
LDR
 10
238.277917
 20
49.513833
 30
0.0
 41
241.920018
 42
241.920018
 50
180.0
210
0.0
220
0.0
230
1.0
  0
INSERT
  5
33D
100
AcDbEntity
  8
1
  6
CONTINUOUS
 62
     1
100
AcDbBlockReference
  2
LDR
 10
238.277917
 20
49.513833
 30
0.0
 41
241.920018
 42
241.920018
 50
180.0
210
0.0
220
0.0
230
1.0
  0
INSERT
  5
33E
100
AcDbEntity
  8
1
  6
CONTINUOUS
 62
     1
100
AcDbBlockReference
  2
LDR
 10
258.437917
 20
49.513833
 30
0.0
 41
241.920018
 42
241.920018
210
0.0
220
0.0
230
1.0
  0
INSERT
  5
33F
100
AcDbEntity
  8
1
  6
CONTINUOUS
 62
     1
100
AcDbBlockReference
  2
LDR
 10
258.437917
 20
49.513833
 30
0.0
 41
241.920018
 42
241.920018
210
0.0
220
0.0
230
1.0
  0
INSERT
  5
340
100
AcDbEntity
  8
1
  6
CONTINUOUS
 62
     1
100
AcDbBlockReference
  2
LDR
 10
258.437917
 20
44.473833
 30
0.0
 41
241.920018
 42
241.920018
210
0.0
220
0.0
230
1.0
  0
INSERT
  5
341
100
AcDbEntity
  8
1
  6
CONTINUOUS
 62
     1
100
AcDbBlockReference
  2
LDR
 10
258.437917
 20
44.473833
 30
0.0
 41
241.920018
 42
241.920018
210
0.0
220
0.0
230
1.0
  0
INSERT
  5
342
100
AcDbEntity
  8
1
  6
CONTINUOUS
 62
     1
100
AcDbBlockReference
  2
LDR
 10
203.997917
 20
44.473833
 30
0.0
 41
241.920018
 42
241.920018
 50
180.0
210
0.0
220
0.0
230
1.0
  0
INSERT
  5
343
100
AcDbEntity
  8
1
  6
CONTINUOUS
 62
     1
100
AcDbBlockReference
  2
LDR
 10
324.457917
 20
49.353833
 30
0.0
 41
241.920018
 42
241.920018
 50
180.0
210
0.0
220
0.0
230
1.0
  0
INSERT
  5
344
100
AcDbEntity
  8
1
  6
CONTINUOUS
 62
     1
100
AcDbBlockReference
  2
LDR
 10
324.457917
 20
49.353833
 30
0.0
 41
241.920018
 42
241.920018
 50
180.0
210
0.0
220
0.0
230
1.0
  0
INSERT
  5
345
100
AcDbEntity
  8
1
  6
CONTINUOUS
 62
     1
100
AcDbBlockReference
  2
LDR
 10
375.357917
 20
49.353833
 30
0.0
 41
241.920018
 42
241.920018
210
0.0
220
0.0
230
1.0
  0
INSERT
  5
346
100
AcDbEntity
  8
1
  6
CONTINUOUS
 62
     1
100
AcDbBlockReference
  2
LDR
 10
375.357917
 20
49.353833
 30
0.0
 41
241.920018
 42
241.920018
210
0.0
220
0.0
230
1.0
  0
TEXT
  5
347
100
AcDbEntity
  8
1
  6
CONTINUOUS
 62
     7
100
AcDbText
 10
211.017917
 20
60.733833
 30
0.0
 40
3.024
  1
PART "B"
  7
MONOTXT
210
0.0
220
0.0
230
1.0
100
AcDbText
  0
TEXT
  5
348
100
AcDbEntity
  8
1
  6
CONTINUOUS
 62
     7
100
AcDbText
 10
311.977917
 20
60.733833
 30
0.0
 40
3.024
  1
PART "A"
  7
MONOTXT
210
0.0
220
0.0
230
1.0
100
AcDbText
  0
LINE
  5
349
100
AcDbEntity
  8
1
  6
CONTINUOUS
 62
     7
100
AcDbLine
 10
250.546833
 20
25.924917
 30
0.0
 11
341.46825
 21
25.924917
 31
0.0
  0
LINE
  5
34A
100
AcDbEntity
  8
1
  6
CONTINUOUS
 62
     1
100
AcDbLine
 10
256.257917
 20
97.733833
 30
0.0
 11
334.877917
 21
97.733833
 31
0.0
  0
LINE
  5
34B
100
AcDbEntity
  8
1
  6
CONTINUOUS
 62
     1
100
AcDbLine
 10
256.257917
 20
112.853833
 30
0.0
 11
334.877917
 21
112.853833
 31
0.0
  0
LINE
  5
34C
100
AcDbEntity
  8
1
  6
CONTINUOUS
 62
     1
100
AcDbLine
 10
256.257917
 20
112.853833
 30
0.0
 11
256.257917
 21
97.733833
 31
0.0
  0
LINE
  5
34D
100
AcDbEntity
  8
1
  6
CONTINUOUS
 62
     1
100
AcDbLine
 10
334.877917
 20
112.853833
 30
0.0
 11
334.877917
 21
97.733833
 31
0.0
  0
LINE
  5
34E
100
AcDbEntity
  8
1
  6
HIDDEN
 62
     1
100
AcDbLine
 10
258.017917
 20
112.853833
 30
0.0
 11
258.017917
 21
97.733833
 31
0.0
  0
LINE
  5
34F
100
AcDbEntity
  8
1
  6
HIDDEN
 62
     1
100
AcDbLine
 10
262.557917
 20
112.853833
 30
0.0
 11
262.557917
 21
97.733833
 31
0.0
  0
LINE
  5
350
100
AcDbEntity
  8
1
  6
CONTINUOUS
 62
     1
100
AcDbLine
 10
256.757917
 20
116.373833
 30
0.0
 11
256.757917
 21
112.853833
 31
0.0
  0
LINE
  5
351
100
AcDbEntity
  8
1
  6
CONTINUOUS
 62
     1
100
AcDbLine
 10
256.757917
 20
97.733833
 30
0.0
 11
256.757917
 21
94.193833
 31
0.0
  0
LINE
  5
352
100
AcDbEntity
  8
1
  6
CONTINUOUS
 62
     1
100
AcDbLine
 10
263.817917
 20
116.373833
 30
0.0
 11
263.817917
 21
112.853833
 31
0.0
  0
LINE
  5
353
100
AcDbEntity
  8
1
  6
CONTINUOUS
 62
     1
100
AcDbLine
 10
263.817917
 20
97.733833
 30
0.0
 11
263.817917
 21
94.193833
 31
0.0
  0
LINE
  5
354
100
AcDbEntity
  8
1
  6
CONTINUOUS
 62
     1
100
AcDbLine
 10
256.757917
 20
94.193833
 30
0.0
 11
257.517917
 21
93.693833
 31
0.0
  0
LINE
  5
355
100
AcDbEntity
  8
1
  6
CONTINUOUS
 62
     1
100
AcDbLine
 10
258.517917
 20
93.693833
 30
0.0
 11
262.037917
 21
93.693833
 31
0.0
  0
LINE
  5
356
100
AcDbEntity
  8
1
  6
CONTINUOUS
 62
     1
100
AcDbLine
 10
263.057917
 20
93.693833
 30
0.0
 11
263.817917
 21
94.193833
 31
0.0
  0
LINE
  5
357
100
AcDbEntity
  8
1
  6
CONTINUOUS
 62
     1
100
AcDbLine
 10
256.757917
 20
116.373833
 30
0.0
 11
260.277917
 21
116.373833
 31
0.0
  0
LINE
  5
358
100
AcDbEntity
  8
1
  6
CONTINUOUS
 62
     1
100
AcDbLine
 10
260.277917
 20
116.373833
 30
0.0
 11
263.817917
 21
116.373833
 31
0.0
  0
LINE
  5
359
100
AcDbEntity
  8
1
  6
CONTINUOUS
 62
     1
100
AcDbLine
 10
259.517917
 20
116.373833
 30
0.0
 11
260.277917
 21
115.373833
 31
0.0
  0
LINE
  5
35A
100
AcDbEntity
  8
1
  6
CONTINUOUS
 62
     1
100
AcDbLine
 10
260.277917
 20
115.373833
 30
0.0
 11
261.037917
 21
116.373833
 31
0.0
  0
LINE
  5
35B
100
AcDbEntity
  8
1
  6
CONTINUOUS
 62
     1
100
AcDbLine
 10
256.757917
 20
115.373833
 30
0.0
 11
257.517917
 21
116.373833
 31
0.0
  0
LINE
  5
35C
100
AcDbEntity
  8
1
  6
CONTINUOUS
 62
     1
100
AcDbLine
 10
263.057917
 20
116.373833
 30
0.0
 11
263.817917
 21
115.373833
 31
0.0
  0
LINE
  5
35D
100
AcDbEntity
  8
1
  6
CONTINUOUS
 62
     1
100
AcDbLine
 10
257.517917
 20
93.693833
 30
0.0
 11
258.517917
 21
93.693833
 31
0.0
  0
LINE
  5
35E
100
AcDbEntity
  8
1
  6
CONTINUOUS
 62
     1
100
AcDbLine
 10
262.037917
 20
93.693833
 30
0.0
 11
263.057917
 21
93.693833
 31
0.0
  0
LINE
  5
35F
100
AcDbEntity
  8
1
  6
CONTINUOUS
 62
     1
100
AcDbLine
 10
258.017917
 20
94.693833
 30
0.0
 11
258.017917
 21
96.713833
 31
0.0
  0
LINE
  5
360
100
AcDbEntity
  8
1
  6
CONTINUOUS
 62
     1
100
AcDbLine
 10
262.557917
 20
94.693833
 30
0.0
 11
262.557917
 21
96.713833
 31
0.0
  0
LINE
  5
361
100
AcDbEntity
  8
1
  6
CONTINUOUS
 62
     1
100
AcDbLine
 10
257.517917
 20
93.693833
 30
0.0
 11
258.017917
 21
94.693833
 31
0.0
  0
LINE
  5
362
100
AcDbEntity
  8
1
  6
CONTINUOUS
 62
     1
100
AcDbLine
 10
258.017917
 20
94.693833
 30
0.0
 11
258.517917
 21
93.693833
 31
0.0
  0
LINE
  5
363
100
AcDbEntity
  8
1
  6
CONTINUOUS
 62
     1
100
AcDbLine
 10
262.037917
 20
93.693833
 30
0.0
 11
262.557917
 21
94.693833
 31
0.0
  0
LINE
  5
364
100
AcDbEntity
  8
1
  6
CONTINUOUS
 62
     1
100
AcDbLine
 10
262.557917
 20
94.693833
 30
0.0
 11
263.057917
 21
93.693833
 31
0.0
  0
LINE
  5
365
100
AcDbEntity
  8
1
  6
CONTINUOUS
 62
     1
100
AcDbLine
 10
257.517917
 20
97.733833
 30
0.0
 11
258.017917
 21
96.713833
 31
0.0
  0
LINE
  5
366
100
AcDbEntity
  8
1
  6
CONTINUOUS
 62
     1
100
AcDbLine
 10
258.017917
 20
96.713833
 30
0.0
 11
258.517917
 21
97.733833
 31
0.0
  0
LINE
  5
367
100
AcDbEntity
  8
1
  6
CONTINUOUS
 62
     1
100
AcDbLine
 10
262.037917
 20
97.733833
 30
0.0
 11
262.557917
 21
96.713833
 31
0.0
  0
LINE
  5
368
100
AcDbEntity
  8
1
  6
CONTINUOUS
 62
     1
100
AcDbLine
 10
262.557917
 20
96.713833
 30
0.0
 11
263.057917
 21
97.733833
 31
0.0
  0
LINE
  5
369
100
AcDbEntity
  8
1
  6
HIDDEN
 62
     1
100
AcDbLine
 10
328.577917
 20
112.853833
 30
0.0
 11
328.577917
 21
97.733833
 31
0.0
  0
LINE
  5
36A
100
AcDbEntity
  8
1
  6
HIDDEN
 62
     1
100
AcDbLine
 10
333.117917
 20
112.853833
 30
0.0
 11
333.117917
 21
97.733833
 31
0.0
  0
LINE
  5
36B
100
AcDbEntity
  8
1
  6
CONTINUOUS
 62
     1
100
AcDbLine
 10
256.257917
 20
108.053833
 30
0.0
 11
264.317917
 21
108.053833
 31
0.0
  0
LINE
  5
36C
100
AcDbEntity
  8
1
  6
CONTINUOUS
 62
     1
100
AcDbLine
 10
256.257917
 20
102.513833
 30
0.0
 11
264.317917
 21
102.513833
 31
0.0
  0
LINE
  5
36D
100
AcDbEntity
  8
1
  6
CONTINUOUS
 62
     1
100
AcDbLine
 10
260.277917
 20
116.373833
 30
0.0
 11
260.277917
 21
106.793833
 31
0.0
  0
LINE
  5
36E
100
AcDbEntity
  8
1
  6
CONTINUOUS
 62
     1
100
AcDbLine
 10
260.277917
 20
105.793833
 30
0.0
 11
260.277917
 21
104.773833
 31
0.0
  0
LINE
  5
36F
100
AcDbEntity
  8
1
  6
CONTINUOUS
 62
     1
100
AcDbLine
 10
260.277917
 20
103.773833
 30
0.0
 11
260.277917
 21
91.673833
 31
0.0
  0
LINE
  5
370
100
AcDbEntity
  8
1
  6
CONTINUOUS
 62
     1
100
AcDbLine
 10
259.017917
 20
92.693833
 30
0.0
 11
261.537917
 21
92.693833
 31
0.0
  0
LINE
  5
371
100
AcDbEntity
  8
1
  6
CONTINUOUS
 62
     1
100
AcDbLine
 10
259.017917
 20
92.693833
 30
0.0
 11
258.517917
 21
93.693833
 31
0.0
  0
LINE
  5
372
100
AcDbEntity
  8
1
  6
CONTINUOUS
 62
     1
100
AcDbLine
 10
261.537917
 20
92.693833
 30
0.0
 11
262.037917
 21
93.693833
 31
0.0
  0
LINE
  5
373
100
AcDbEntity
  8
1
  6
CONTINUOUS
 62
     1
100
AcDbLine
 10
258.777917
 20
93.193833
 30
0.0
 11
261.797917
 21
93.193833
 31
0.0
  0
LINE
  5
374
100
AcDbEntity
  8
1
  6
CONTINUOUS
 62
     1
100
AcDbLine
 10
326.817917
 20
108.053833
 30
0.0
 11
334.877917
 21
108.053833
 31
0.0
  0
LINE
  5
375
100
AcDbEntity
  8
1
  6
CONTINUOUS
 62
     1
100
AcDbLine
 10
326.817917
 20
102.513833
 30
0.0
 11
334.877917
 21
102.513833
 31
0.0
  0
LINE
  5
376
100
AcDbEntity
  8
1
  6
CONTINUOUS
 62
     1
100
AcDbLine
 10
330.837917
 20
105.793833
 30
0.0
 11
330.837917
 21
104.773833
 31
0.0
  0
LINE
  5
377
100
AcDbEntity
  8
1
  6
CONTINUOUS
 62
     1
100
AcDbLine
 10
330.837917
 20
103.773833
 30
0.0
 11
330.837917
 21
91.673833
 31
0.0
  0
LINE
  5
378
100
AcDbEntity
  8
1
  6
HIDDEN
 62
     1
100
AcDbLine
 10
264.317917
 20
112.853833
 30
0.0
 11
264.317917
 21
108.053833
 31
0.0
  0
LINE
  5
379
100
AcDbEntity
  8
1
  6
HIDDEN
 62
     1
100
AcDbLine
 10
264.317917
 20
102.513833
 30
0.0
 11
264.317917
 21
97.733833
 31
0.0
  0
LINE
  5
37A
100
AcDbEntity
  8
1
  6
HIDDEN
 62
     1
100
AcDbLine
 10
326.817917
 20
112.853833
 30
0.0
 11
326.817917
 21
108.053833
 31
0.0
  0
LINE
  5
37B
100
AcDbEntity
  8
1
  6
HIDDEN
 62
     1
100
AcDbLine
 10
326.817917
 20
102.513833
 30
0.0
 11
326.817917
 21
97.733833
 31
0.0
  0
LINE
  5
37C
100
AcDbEntity
  8
1
  6
CONTINUOUS
 62
     1
100
AcDbLine
 10
264.317917
 20
108.053833
 30
0.0
 11
264.317917
 21
102.513833
 31
0.0
  0
LINE
  5
37D
100
AcDbEntity
  8
1
  6
CONTINUOUS
 62
     1
100
AcDbLine
 10
326.817917
 20
108.053833
 30
0.0
 11
326.817917
 21
102.513833
 31
0.0
  0
LINE
  5
37E
100
AcDbEntity
  8
1
  6
CONTINUOUS
 62
     1
100
AcDbLine
 10
268.337917
 20
113.853833
 30
0.0
 11
268.337917
 21
111.073833
 31
0.0
  0
LINE
  5
37F
100
AcDbEntity
  8
1
  6
CONTINUOUS
 62
     1
100
AcDbLine
 10
268.337917
 20
110.073833
 30
0.0
 11
268.337917
 21
109.073833
 31
0.0
  0
LINE
  5
380
100
AcDbEntity
  8
1
  6
CONTINUOUS
 62
     1
100
AcDbLine
 10
268.337917
 20
108.053833
 30
0.0
 11
268.337917
 21
103.513833
 31
0.0
  0
LINE
  5
381
100
AcDbEntity
  8
1
  6
CONTINUOUS
 62
     1
100
AcDbLine
 10
322.777917
 20
113.853833
 30
0.0
 11
322.777917
 21
111.073833
 31
0.0
  0
LINE
  5
382
100
AcDbEntity
  8
1
  6
CONTINUOUS
 62
     1
100
AcDbLine
 10
322.777917
 20
110.073833
 30
0.0
 11
322.777917
 21
109.073833
 31
0.0
  0
LINE
  5
383
100
AcDbEntity
  8
1
  6
CONTINUOUS
 62
     1
100
AcDbLine
 10
322.777917
 20
108.053833
 30
0.0
 11
322.777917
 21
103.513833
 31
0.0
  0
LINE
  5
384
100
AcDbEntity
  8
1
  6
CONTINUOUS
 62
     1
100
AcDbLine
 10
264.817917
 20
109.573833
 30
0.0
 11
266.837917
 21
109.573833
 31
0.0
  0
LINE
  5
385
100
AcDbEntity
  8
1
  6
CONTINUOUS
 62
     1
100
AcDbLine
 10
267.837917
 20
109.573833
 30
0.0
 11
268.857917
 21
109.573833
 31
0.0
  0
LINE
  5
386
100
AcDbEntity
  8
1
  6
CONTINUOUS
 62
     1
100
AcDbLine
 10
269.857917
 20
109.573833
 30
0.0
 11
273.897917
 21
109.573833
 31
0.0
  0
LINE
  5
387
100
AcDbEntity
  8
1
  6
CONTINUOUS
 62
     1
100
AcDbLine
 10
316.217917
 20
109.573833
 30
0.0
 11
321.257917
 21
109.573833
 31
0.0
  0
LINE
  5
388
100
AcDbEntity
  8
1
  6
CONTINUOUS
 62
     1
100
AcDbLine
 10
322.277917
 20
109.573833
 30
0.0
 11
323.277917
 21
109.573833
 31
0.0
  0
LINE
  5
389
100
AcDbEntity
  8
1
  6
CONTINUOUS
 62
     1
100
AcDbLine
 10
324.297917
 20
109.573833
 30
0.0
 11
326.297917
 21
109.573833
 31
0.0
  0
LINE
  5
38A
100
AcDbEntity
  8
1
  6
CONTINUOUS
 62
     1
100
AcDbLine
 10
268.337917
 20
118.393833
 30
0.0
 11
268.337917
 21
124.933833
 31
0.0
  0
LINE
  5
38B
100
AcDbEntity
  8
1
  6
CONTINUOUS
 62
     1
100
AcDbLine
 10
322.777917
 20
118.393833
 30
0.0
 11
322.777917
 21
124.933833
 31
0.0
  0
LINE
  5
38C
100
AcDbEntity
  8
1
  6
CONTINUOUS
 62
     1
100
AcDbLine
 10
295.557917
 20
104.773833
 30
0.0
 11
295.557917
 21
102.773833
 31
0.0
  0
LINE
  5
38D
100
AcDbEntity
  8
1
  6
CONTINUOUS
 62
     1
100
AcDbLine
 10
295.557917
 20
101.753833
 30
0.0
 11
295.557917
 21
91.673833
 31
0.0
  0
LINE
  5
38E
100
AcDbEntity
  8
1
  6
CONTINUOUS
 62
     1
100
AcDbLine
 10
295.557917
 20
122.173833
 30
0.0
 11
295.557917
 21
118.133833
 31
0.0
  0
LINE
  5
38F
100
AcDbEntity
  8
1
  6
CONTINUOUS
 62
     1
100
AcDbLine
 10
295.557917
 20
117.133833
 30
0.0
 11
295.557917
 21
115.113833
 31
0.0
  0
LINE
  5
390
100
AcDbEntity
  8
1
  6
CONTINUOUS
 62
     1
100
AcDbLine
 10
295.557917
 20
114.113833
 30
0.0
 11
295.557917
 21
105.793833
 31
0.0
  0
LINE
  5
391
100
AcDbEntity
  8
1
  6
CONTINUOUS
 62
     1
100
AcDbLine
 10
260.277917
 20
119.893833
 30
0.0
 11
274.397917
 21
119.893833
 31
0.0
  0
LINE
  5
392
100
AcDbEntity
  8
1
  6
CONTINUOUS
 62
     1
100
AcDbLine
 10
275.397917
 20
119.893833
 30
0.0
 11
277.417917
 21
119.893833
 31
0.0
  0
LINE
  5
393
100
AcDbEntity
  8
1
  6
CONTINUOUS
 62
     1
100
AcDbLine
 10
278.417917
 20
119.893833
 30
0.0
 11
280.437917
 21
119.893833
 31
0.0
  0
LINE
  5
394
100
AcDbEntity
  8
1
  6
CONTINUOUS
 62
     1
100
AcDbLine
 10
281.457917
 20
119.893833
 30
0.0
 11
295.557917
 21
119.893833
 31
0.0
  0
LINE
  5
395
100
AcDbEntity
  8
1
  6
CONTINUOUS
 62
     1
100
AcDbLine
 10
295.557917
 20
119.893833
 30
0.0
 11
309.677917
 21
119.893833
 31
0.0
  0
LINE
  5
396
100
AcDbEntity
  8
1
  6
CONTINUOUS
 62
     1
100
AcDbLine
 10
310.677917
 20
119.893833
 30
0.0
 11
312.697917
 21
119.893833
 31
0.0
  0
LINE
  5
397
100
AcDbEntity
  8
1
  6
CONTINUOUS
 62
     1
100
AcDbLine
 10
313.697917
 20
119.893833
 30
0.0
 11
315.717917
 21
119.893833
 31
0.0
  0
LINE
  5
398
100
AcDbEntity
  8
1
  6
CONTINUOUS
 62
     1
100
AcDbLine
 10
316.737917
 20
119.893833
 30
0.0
 11
330.837917
 21
119.893833
 31
0.0
  0
LINE
  5
399
100
AcDbEntity
  8
1
  6
CONTINUOUS
 62
     1
100
AcDbLine
 10
260.277917
 20
120.913833
 30
0.0
 11
330.837917
 21
120.913833
 31
0.0
  0
CIRCLE
  5
39A
100
AcDbEntity
  8
1
  6
CONTINUOUS
 62
     1
100
AcDbCircle
 10
260.304841
 20
124.992773
 30
0.0
 40
4.032
210
0.0
220
0.0
230
1.0
  0
CIRCLE
  5
39B
100
AcDbEntity
  8
1
  6
CONTINUOUS
 62
     1
100
AcDbCircle
 10
330.838465
 20
124.989413
 30
0.0
 40
4.032
210
0.0
220
0.0
230
1.0
  0
LINE
  5
39C
100
AcDbEntity
  8
1
  6
CONTINUOUS
 62
     1
100
AcDbLine
 10
257.757917
 20
126.513833
 30
0.0
 11
257.757917
 21
123.473833
 31
0.0
  0
LINE
  5
39D
100
AcDbEntity
  8
1
  6
CONTINUOUS
 62
     1
100
AcDbLine
 10
262.797917
 20
126.513833
 30
0.0
 11
262.797917
 21
123.473833
 31
0.0
  0
LINE
  5
39E
100
AcDbEntity
  8
1
  6
CONTINUOUS
 62
     1
100
AcDbLine
 10
259.277917
 20
124.993833
 30
0.0
 11
261.297917
 21
124.993833
 31
0.0
  0
LINE
  5
39F
100
AcDbEntity
  8
1
  6
CONTINUOUS
 62
     1
100
AcDbLine
 10
257.757917
 20
126.513833
 30
0.0
 11
260.277917
 21
127.773833
 31
0.0
  0
LINE
  5
3A0
100
AcDbEntity
  8
1
  6
CONTINUOUS
 62
     1
100
AcDbLine
 10
260.277917
 20
127.773833
 30
0.0
 11
262.797917
 21
126.513833
 31
0.0
  0
LINE
  5
3A1
100
AcDbEntity
  8
1
  6
CONTINUOUS
 62
     1
100
AcDbLine
 10
260.277917
 20
122.213833
 30
0.0
 11
262.797917
 21
123.473833
 31
0.0
  0
LINE
  5
3A2
100
AcDbEntity
  8
1
  6
CONTINUOUS
 62
     1
100
AcDbLine
 10
260.277917
 20
122.213833
 30
0.0
 11
257.757917
 21
123.473833
 31
0.0
  0
LINE
  5
3A3
100
AcDbEntity
  8
1
  6
CONTINUOUS
 62
     1
100
AcDbLine
 10
260.277917
 20
133.513833
 30
0.0
 11
260.277917
 21
126.753833
 31
0.0
  0
LINE
  5
3A4
100
AcDbEntity
  8
1
  6
CONTINUOUS
 62
     1
100
AcDbLine
 10
260.277917
 20
125.993833
 30
0.0
 11
260.277917
 21
123.993833
 31
0.0
  0
CIRCLE
  5
3A5
100
AcDbEntity
  8
1
  6
CONTINUOUS
 62
     1
100
AcDbCircle
 10
330.844345
 20
125.048129
 30
0.0
 40
3.024
210
0.0
220
0.0
230
1.0
  0
LINE
  5
3A6
100
AcDbEntity
  8
1
  6
CONTINUOUS
 62
     1
100
AcDbLine
 10
330.837917
 20
133.513833
 30
0.0
 11
330.837917
 21
126.753833
 31
0.0
  0
LINE
  5
3A7
100
AcDbEntity
  8
1
  6
CONTINUOUS
 62
     1
100
AcDbLine
 10
330.837917
 20
125.993833
 30
0.0
 11
330.837917
 21
123.993833
 31
0.0
  0
LINE
  5
3A8
100
AcDbEntity
  8
1
  6
CONTINUOUS
 62
     1
100
AcDbLine
 10
330.837917
 20
123.233833
 30
0.0
 11
330.837917
 21
106.793833
 31
0.0
  0
LINE
  5
3A9
100
AcDbEntity
  8
1
  6
CONTINUOUS
 62
     1
100
AcDbLine
 10
329.837917
 20
124.993833
 30
0.0
 11
331.857917
 21
124.993833
 31
0.0
  0
LINE
  5
3AA
100
AcDbEntity
  8
1
  6
CONTINUOUS
 62
     1
100
AcDbLine
 10
256.517917
 20
123.553833
 30
0.0
 11
235.377917
 21
153.753833
 31
0.0
  0
LINE
  5
3AB
100
AcDbEntity
  8
1
  6
CONTINUOUS
 62
     1
100
AcDbLine
 10
330.837917
 20
129.013833
 30
0.0
 11
306.777917
 21
154.813833
 31
0.0
  0
LINE
  5
3AC
100
AcDbEntity
  8
1
  6
CONTINUOUS
 62
     1
100
AcDbLine
 10
334.037917
 20
127.453833
 30
0.0
 11
307.697917
 21
155.673833
 31
0.0
  0
LINE
  5
3AD
100
AcDbEntity
  8
1
  6
CONTINUOUS
 62
     1
100
AcDbLine
 10
306.777917
 20
154.813833
 30
0.0
 11
307.697917
 21
155.673833
 31
0.0
  0
CIRCLE
  5
3AE
100
AcDbEntity
  8
1
  6
CONTINUOUS
 62
     1
100
AcDbCircle
 10
295.287145
 20
140.478593
 30
0.0
 40
18.012133
210
0.0
220
0.0
230
1.0
  0
INSERT
  5
3AF
100
AcDbEntity
  8
1
  6
CONTINUOUS
 62
     1
100
AcDbBlockReference
  2
LDR
 10
311.717917
 20
147.853833
 30
0.0
 41
241.91997
 42
241.91997
 50
24.999864
210
0.0
220
0.0
230
1.0
  0
INSERT
  5
3B0
100
AcDbEntity
  8
1
  6
CONTINUOUS
 62
     1
100
AcDbBlockReference
  2
LDR
 10
311.717917
 20
147.853833
 30
0.0
 41
241.91997
 42
241.91997
 50
24.999864
210
0.0
220
0.0
230
1.0
  0
INSERT
  5
3B1
100
AcDbEntity
  8
1
  6
CONTINUOUS
 62
     1
100
AcDbBlockReference
  2
LDR
 10
279.077917
 20
132.633833
 30
0.0
 41
241.91997
 42
241.91997
 50
204.999864
210
0.0
220
0.0
230
1.0
  0
TEXT
  5
3B2
100
AcDbEntity
  8
1
  6
CONTINUOUS
 62
     7
100
AcDbText
 10
287.977917
 20
135.333833
 30
0.0
 40
2.52
  1
POLE DIA.
 50
25.0
  7
MONOTXT
210
0.0
220
0.0
230
1.0
100
AcDbText
  0
LINE
  5
3B3
100
AcDbEntity
  8
1
  6
CONTINUOUS
 62
     1
100
AcDbLine
 10
279.077917
 20
132.633833
 30
0.0
 11
286.677917
 21
136.193833
 31
0.0
  0
LINE
  5
3B4
100
AcDbEntity
  8
1
  6
CONTINUOUS
 62
     1
100
AcDbLine
 10
304.297917
 20
144.413833
 30
0.0
 11
311.717917
 21
147.853833
 31
0.0
  0
LINE
  5
3B5
100
AcDbEntity
  8
1
  6
CONTINUOUS
 62
     1
100
AcDbLine
 10
295.557917
 20
122.173833
 30
0.0
 11
295.557917
 21
136.853833
 31
0.0
  0
LINE
  5
3B6
100
AcDbEntity
  8
1
  6
CONTINUOUS
 62
     1
100
AcDbLine
 10
295.557917
 20
143.373833
 30
0.0
 11
295.557917
 21
161.513833
 31
0.0
  0
LINE
  5
3B7
100
AcDbEntity
  8
1
  6
CONTINUOUS
 62
     1
100
AcDbLine
 10
315.697917
 20
157.453833
 30
0.0
 11
314.317917
 21
158.933833
 31
0.0
  0
LINE
  5
3B8
100
AcDbEntity
  8
1
  6
CONTINUOUS
 62
     1
100
AcDbLine
 10
315.257917
 20
155.713833
 30
0.0
 11
312.517917
 21
158.653833
 31
0.0
  0
LINE
  5
3B9
100
AcDbEntity
  8
1
  6
CONTINUOUS
 62
     1
100
AcDbLine
 10
312.517917
 20
158.653833
 30
0.0
 11
313.077917
 21
159.153833
 31
0.0
  0
LINE
  5
3BA
100
AcDbEntity
  8
1
  6
CONTINUOUS
 62
     1
100
AcDbLine
 10
315.257917
 20
155.713833
 30
0.0
 11
315.777917
 21
156.173833
 31
0.0
  0
ARC
  5
3BB
100
AcDbEntity
  8
1
  6
CONTINUOUS
 62
     1
100
AcDbCircle
 10
313.574607
 20
158.375174
 30
0.0
 40
0.93253
210
0.0
220
0.0
230
1.0
100
AcDbArc
 50
36.551511
 51
122.475736
  0
ARC
  5
3BC
100
AcDbEntity
  8
1
  6
CONTINUOUS
 62
     1
100
AcDbCircle
 10
315.064426
 20
156.768405
 30
0.0
 40
0.93253
210
0.0
220
0.0
230
1.0
100
AcDbArc
 50
320.855919
 51
48.497619
  0
LINE
  5
3BD
100
AcDbEntity
  8
1
  6
CONTINUOUS
 62
     1
100
AcDbLine
 10
311.137917
 20
156.053833
 30
0.0
 11
314.317917
 21
158.933833
 31
0.0
  0
LINE
  5
3BE
100
AcDbEntity
  8
1
  6
CONTINUOUS
 62
     1
100
AcDbLine
 10
312.517917
 20
154.593833
 30
0.0
 11
315.697917
 21
157.453833
 31
0.0
  0
LINE
  5
3BF
100
AcDbEntity
  8
1
  6
CONTINUOUS
 62
     1
100
AcDbLine
 10
311.057917
 20
154.293833
 30
0.0
 11
310.717917
 21
154.673833
 31
0.0
  0
LINE
  5
3C0
100
AcDbEntity
  8
1
  6
CONTINUOUS
 62
     1
100
AcDbLine
 10
311.137917
 20
156.053833
 30
0.0
 11
310.717917
 21
154.673833
 31
0.0
  0
LINE
  5
3C1
100
AcDbEntity
  8
1
  6
CONTINUOUS
 62
     1
100
AcDbLine
 10
312.517917
 20
154.593833
 30
0.0
 11
311.057917
 21
154.293833
 31
0.0
  0
LINE
  5
3C2
100
AcDbEntity
  8
1
  6
CONTINUOUS
 62
     1
100
AcDbLine
 10
313.877917
 20
157.173833
 30
0.0
 11
316.517917
 21
159.533833
 31
0.0
  0
LINE
  5
3C3
100
AcDbEntity
  8
1
  6
CONTINUOUS
 62
     1
100
AcDbLine
 10
308.077917
 20
151.953833
 30
0.0
 11
310.897917
 21
154.473833
 31
0.0
  0
LINE
  5
3C4
100
AcDbEntity
  8
1
  6
CONTINUOUS
 62
     1
100
AcDbLine
 10
310.897917
 20
154.473833
 30
0.0
 11
311.257917
 21
154.813833
 31
0.0
  0
LINE
  5
3C5
100
AcDbEntity
  8
1
  6
CONTINUOUS
 62
     1
100
AcDbLine
 10
312.017917
 20
155.493833
 30
0.0
 11
312.757917
 21
156.173833
 31
0.0
  0
LINE
  5
3C6
100
AcDbEntity
  8
1
  6
CONTINUOUS
 62
     1
100
AcDbLine
 10
313.517917
 20
156.833833
 30
0.0
 11
313.877917
 21
157.173833
 31
0.0
  0
LINE
  5
3C7
100
AcDbEntity
  8
1
  6
CONTINUOUS
 62
     1
100
AcDbLine
 10
250.117917
 20
112.933833
 30
0.0
 11
245.497917
 21
119.533833
 31
0.0
  0
LINE
  5
3C8
100
AcDbEntity
  8
1
  6
CONTINUOUS
 62
     1
100
AcDbLine
 10
244.757917
 20
109.173833
 30
0.0
 11
240.137917
 21
115.773833
 31
0.0
  0
LINE
  5
3C9
100
AcDbEntity
  8
1
  6
CONTINUOUS
 62
     1
100
AcDbLine
 10
250.117917
 20
112.933833
 30
0.0
 11
244.757917
 21
109.173833
 31
0.0
  0
LINE
  5
3CA
100
AcDbEntity
  8
1
  6
CONTINUOUS
 62
     1
100
AcDbLine
 10
245.497917
 20
119.533833
 30
0.0
 11
248.997917
 21
121.993833
 31
0.0
  0
LINE
  5
3CB
100
AcDbEntity
  8
1
  6
CONTINUOUS
 62
     1
100
AcDbLine
 10
239.957917
 20
110.733833
 30
0.0
 11
243.877917
 21
113.493833
 31
0.0
  0
LINE
  5
3CC
100
AcDbEntity
  8
1
  6
CONTINUOUS
 62
     1
100
AcDbLine
 10
244.717917
 20
114.053833
 30
0.0
 11
245.537917
 21
114.633833
 31
0.0
  0
LINE
  5
3CD
100
AcDbEntity
  8
1
  6
CONTINUOUS
 62
     1
100
AcDbLine
 10
246.357917
 20
115.213833
 30
0.0
 11
250.277917
 21
117.973833
 31
0.0
  0
LINE
  5
3CE
100
AcDbEntity
  8
1
  6
HIDDEN
 62
     1
100
AcDbLine
 10
248.717917
 20
113.173833
 30
0.0
 11
244.997917
 21
110.573833
 31
0.0
  0
LINE
  5
3CF
100
AcDbEntity
  8
1
  6
HIDDEN
 62
     1
100
AcDbLine
 10
240.957917
 20
116.353833
 30
0.0
 11
244.677917
 21
118.953833
 31
0.0
  0
LINE
  5
3D0
100
AcDbEntity
  8
1
  6
HIDDEN
 62
     1
100
AcDbLine
 10
241.537917
 20
115.533833
 30
0.0
 11
245.257917
 21
118.133833
 31
0.0
  0
CIRCLE
  5
3D1
100
AcDbEntity
  8
1
  6
CONTINUOUS
 62
     1
100
AcDbCircle
 10
221.709277
 20
139.892105
 30
0.0
 40
1.134
210
0.0
220
0.0
230
1.0
  0
CIRCLE
  5
3D2
100
AcDbEntity
  8
1
  6
CONTINUOUS
 62
     1
100
AcDbCircle
 10
229.141009
 20
145.090613
 30
0.0
 40
1.134
210
0.0
220
0.0
230
1.0
  0
LINE
  5
3D3
100
AcDbEntity
  8
1
  6
CONTINUOUS
 62
     1
100
AcDbLine
 10
218.397917
 20
137.573833
 30
0.0
 11
219.957917
 21
138.653833
 31
0.0
  0
LINE
  5
3D4
100
AcDbEntity
  8
1
  6
CONTINUOUS
 62
     1
100
AcDbLine
 10
221.197917
 20
139.533833
 30
0.0
 11
222.237917
 21
140.253833
 31
0.0
  0
LINE
  5
3D5
100
AcDbEntity
  8
1
  6
CONTINUOUS
 62
     1
100
AcDbLine
 10
220.477917
 20
141.653833
 30
0.0
 11
214.024583
 21
150.864833
 31
0.0
  0
LINE
  5
3D6
100
AcDbEntity
  8
1
  6
CONTINUOUS
 62
     1
100
AcDbLine
 10
224.897917
 20
135.333833
 30
0.0
 11
222.937917
 21
138.133833
 31
0.0
  0
LINE
  5
3D7
100
AcDbEntity
  8
1
  6
CONTINUOUS
 62
     1
100
AcDbLine
 10
222.057917
 20
139.373833
 30
0.0
 11
221.337917
 21
140.413833
 31
0.0
  0
LINE
  5
3D8
100
AcDbEntity
  8
1
  6
CONTINUOUS
 62
     1
100
AcDbLine
 10
223.477917
 20
141.113833
 30
0.0
 11
227.397917
 21
143.853833
 31
0.0
  0
LINE
  5
3D9
100
AcDbEntity
  8
1
  6
CONTINUOUS
 62
     1
100
AcDbLine
 10
228.617917
 20
144.733833
 30
0.0
 11
229.657917
 21
145.453833
 31
0.0
  0
LINE
  5
3DA
100
AcDbEntity
  8
1
  6
CONTINUOUS
 62
     1
100
AcDbLine
 10
227.917917
 20
146.853833
 30
0.0
 11
221.180333
 21
156.457917
 31
0.0
  0
LINE
  5
3DB
100
AcDbEntity
  8
1
  6
CONTINUOUS
 62
     1
100
AcDbLine
 10
232.317917
 20
140.553833
 30
0.0
 11
230.377917
 21
143.333833
 31
0.0
  0
LINE
  5
3DC
100
AcDbEntity
  8
1
  6
CONTINUOUS
 62
     1
100
AcDbLine
 10
229.497917
 20
144.573833
 30
0.0
 11
228.777917
 21
145.613833
 31
0.0
  0
LINE
  5
3DD
100
AcDbEntity
  8
1
  6
CONTINUOUS
 62
     1
100
AcDbLine
 10
230.897917
 20
146.313833
 30
0.0
 11
236.157917
 21
149.993833
 31
0.0
  0
LINE
  5
3DE
100
AcDbEntity
  8
1
  6
CONTINUOUS
 62
     1
100
AcDbLine
 10
236.977917
 20
150.573833
 30
0.0
 11
237.817917
 21
151.153833
 31
0.0
  0
LINE
  5
3DF
100
AcDbEntity
  8
1
  6
CONTINUOUS
 62
     1
100
AcDbLine
 10
238.637917
 20
151.733833
 30
0.0
 11
243.997917
 21
155.493833
 31
0.0
  0
LINE
  5
3E0
100
AcDbEntity
  8
1
  6
CONTINUOUS
 62
     1
100
AcDbLine
 10
236.617917
 20
113.313833
 30
0.0
 11
217.217917
 21
141.033833
 31
0.0
  0
LINE
  5
3E1
100
AcDbEntity
  8
1
  6
CONTINUOUS
 62
     1
100
AcDbLine
 10
216.637917
 20
141.873833
 30
0.0
 11
213.457917
 21
146.413833
 31
0.0
  0
LINE
  5
3E2
100
AcDbEntity
  8
1
  6
CONTINUOUS
 62
     1
100
AcDbLine
 10
248.997917
 20
121.993833
 30
0.0
 11
229.597917
 21
149.713833
 31
0.0
  0
LINE
  5
3E3
100
AcDbEntity
  8
1
  6
CONTINUOUS
 62
     1
100
AcDbLine
 10
229.017917
 20
150.533833
 30
0.0
 11
225.837917
 21
155.073833
 31
0.0
  0
LINE
  5
3E4
100
AcDbEntity
  8
1
  6
CONTINUOUS
 62
     1
100
AcDbLine
 10
210.717917
 20
143.273833
 30
0.0
 11
214.037917
 21
145.573833
 31
0.0
  0
LINE
  5
3E5
100
AcDbEntity
  8
1
  6
CONTINUOUS
 62
     1
100
AcDbLine
 10
216.497917
 20
147.313833
 30
0.0
 11
219.817917
 21
149.633833
 31
0.0
  0
LINE
  5
3E6
100
AcDbEntity
  8
1
  6
CONTINUOUS
 62
     1
100
AcDbLine
 10
220.637917
 20
150.213833
 30
0.0
 11
223.937917
 21
152.513833
 31
0.0
  0
LINE
  5
3E7
100
AcDbEntity
  8
1
  6
CONTINUOUS
 62
     1
100
AcDbLine
 10
226.417917
 20
154.253833
 30
0.0
 11
229.717917
 21
156.573833
 31
0.0
  0
INSERT
  5
3E8
100
AcDbEntity
  8
1
  6
CONTINUOUS
 62
     1
100
AcDbBlockReference
  2
LDR
 10
226.417917
 20
154.253833
 30
0.0
 41
241.920178
 42
241.920178
 50
214.999393
210
0.0
220
0.0
230
1.0
  0
INSERT
  5
3E9
100
AcDbEntity
  8
1
  6
CONTINUOUS
 62
     1
100
AcDbBlockReference
  2
LDR
 10
223.937917
 20
152.513833
 30
0.0
 41
241.919904
 42
241.919904
 50
34.999761
210
0.0
220
0.0
230
1.0
  0
INSERT
  5
3EA
100
AcDbEntity
  8
1
  6
CONTINUOUS
 62
     1
100
AcDbBlockReference
  2
LDR
 10
223.937917
 20
152.513833
 30
0.0
 41
241.919904
 42
241.919904
 50
34.999761
210
0.0
220
0.0
230
1.0
  0
INSERT
  5
3EB
100
AcDbEntity
  8
1
  6
CONTINUOUS
 62
     1
100
AcDbBlockReference
  2
LDR
 10
216.497917
 20
147.313833
 30
0.0
 41
241.920178
 42
241.920178
 50
214.999393
210
0.0
220
0.0
230
1.0
  0
INSERT
  5
3EC
100
AcDbEntity
  8
1
  6
CONTINUOUS
 62
     1
100
AcDbBlockReference
  2
LDR
 10
214.037917
 20
145.573833
 30
0.0
 41
241.919904
 42
241.919904
 50
34.999761
210
0.0
220
0.0
230
1.0
  0
LINE
  5
3ED
100
AcDbEntity
  8
1
  6
CONTINUOUS
 62
     1
100
AcDbLine
 10
256.377917
 20
125.953833
 30
0.0
 11
236.397917
 21
154.473833
 31
0.0
  0
LINE
  5
3EE
100
AcDbEntity
  8
1
  6
CONTINUOUS
 62
     1
100
AcDbLine
 10
241.977917
 20
158.393833
 30
0.0
 11
237.237917
 21
155.053833
 31
0.0
  0
LINE
  5
3EF
100
AcDbEntity
  8
1
  6
CONTINUOUS
 62
     1
100
AcDbLine
 10
236.397917
 20
154.473833
 30
0.0
 11
235.377917
 21
153.753833
 31
0.0
  0
LINE
  5
3F0
100
AcDbEntity
  8
1
  6
CONTINUOUS
 62
     1
100
AcDbLine
 10
238.837917
 20
161.113833
 30
0.0
 11
241.157917
 21
157.813833
 31
0.0
  0
LINE
  5
3F1
100
AcDbEntity
  8
1
  6
CONTINUOUS
 62
     1
100
AcDbLine
 10
243.177917
 20
154.913833
 30
0.0
 11
245.497917
 21
151.613833
 31
0.0
  0
INSERT
  5
3F2
100
AcDbEntity
  8
1
  6
CONTINUOUS
 62
     1
100
AcDbBlockReference
  2
LDR
 10
241.157917
 20
157.813833
 30
0.0
 41
241.919355
 42
241.919355
 50
305.000499
210
0.0
220
0.0
230
1.0
  0
INSERT
  5
3F3
100
AcDbEntity
  8
1
  6
CONTINUOUS
 62
     1
100
AcDbBlockReference
  2
LDR
 10
243.177917
 20
154.913833
 30
0.0
 41
241.920178
 42
241.920178
 50
124.999393
210
0.0
220
0.0
230
1.0
  0
LINE
  5
3F4
100
AcDbEntity
  8
1
  6
CONTINUOUS
 62
     1
100
AcDbLine
 10
211.837917
 20
137.273833
 30
0.0
 11
216.377917
 21
140.453833
 31
0.0
  0
LINE
  5
3F5
100
AcDbEntity
  8
1
  6
CONTINUOUS
 62
     1
100
AcDbLine
 10
217.217917
 20
141.033833
 30
0.0
 11
229.597917
 21
149.713833
 31
0.0
  0
LINE
  5
3F6
100
AcDbEntity
  8
1
  6
CONTINUOUS
 62
     1
100
AcDbLine
 10
231.257917
 20
109.553833
 30
0.0
 11
235.797917
 21
112.733833
 31
0.0
  0
LINE
  5
3F7
100
AcDbEntity
  8
1
  6
CONTINUOUS
 62
     1
100
AcDbLine
 10
236.617917
 20
113.313833
 30
0.0
 11
240.137917
 21
115.773833
 31
0.0
  0
LINE
  5
3F8
100
AcDbEntity
  8
1
  6
CONTINUOUS
 62
     1
100
AcDbLine
 10
212.677917
 20
137.853833
 30
0.0
 11
232.077917
 21
110.133833
 31
0.0
  0
INSERT
  5
3F9
100
AcDbEntity
  8
1
  6
CONTINUOUS
 62
     1
100
AcDbBlockReference
  2
LDR
 10
212.677917
 20
137.853833
 30
0.0
 41
241.919904
 42
241.919904
 50
124.999761
210
0.0
220
0.0
230
1.0
  0
INSERT
  5
3FA
100
AcDbEntity
  8
1
  6
CONTINUOUS
 62
     1
100
AcDbBlockReference
  2
LDR
 10
212.677917
 20
137.853833
 30
0.0
 41
241.919904
 42
241.919904
 50
124.999761
210
0.0
220
0.0
230
1.0
  0
INSERT
  5
3FB
100
AcDbEntity
  8
1
  6
CONTINUOUS
 62
     1
100
AcDbBlockReference
  2
LDR
 10
232.077917
 20
110.133833
 30
0.0
 41
241.919904
 42
241.919904
 50
304.999761
210
0.0
220
0.0
230
1.0
  0
LINE
  5
3FC
100
AcDbEntity
  8
1
  6
CONTINUOUS
 62
     1
100
AcDbLine
 10
317.237917
 20
109.573833
 30
0.0
 11
317.237917
 21
105.533833
 31
0.0
  0
LINE
  5
3FD
100
AcDbEntity
  8
1
  6
CONTINUOUS
 62
     1
100
AcDbLine
 10
317.237917
 20
112.853833
 30
0.0
 11
317.237917
 21
116.873833
 31
0.0
  0
INSERT
  5
3FE
100
AcDbEntity
  8
1
  6
CONTINUOUS
 62
     1
100
AcDbBlockReference
  2
LDR
 10
317.237917
 20
112.853833
 30
0.0
 41
241.920018
 42
241.920018
 50
270.0
210
0.0
220
0.0
230
1.0
  0
INSERT
  5
3FF
100
AcDbEntity
  8
1
  6
CONTINUOUS
 62
     1
100
AcDbBlockReference
  2
LDR
 10
317.237917
 20
109.573833
 30
0.0
 41
241.920018
 42
241.920018
 50
90.0
210
0.0
220
0.0
230
1.0
  0
LINE
  5
400
100
AcDbEntity
  8
1
  6
CONTINUOUS
 62
     1
100
AcDbLine
 10
260.277917
 20
123.233833
 30
0.0
 11
260.277917
 21
119.893833
 31
0.0
  0
LINE
  5
401
100
AcDbEntity
  8
1
  6
CONTINUOUS
 62
     1
100
AcDbLine
 10
260.277917
 20
119.893833
 30
0.0
 11
260.277917
 21
116.373833
 31
0.0
  0
INSERT
  5
402
100
AcDbEntity
  8
1
  6
CONTINUOUS
 62
     1
100
AcDbBlockReference
  2
LDR
 10
260.277917
 20
117.493833
 30
0.0
 41
241.920018
 42
241.920018
 50
180.0
210
0.0
220
0.0
230
1.0
  0
INSERT
  5
403
100
AcDbEntity
  8
1
  6
CONTINUOUS
 62
     1
100
AcDbBlockReference
  2
LDR
 10
330.837917
 20
117.493833
 30
0.0
 41
241.920018
 42
241.920018
210
0.0
220
0.0
230
1.0
  0
LINE
  5
404
100
AcDbEntity
  8
1
  6
CONTINUOUS
 62
     1
100
AcDbLine
 10
313.697917
 20
155.653833
 30
0.0
 11
316.437917
 21
151.013833
 31
0.0
  0
LINE
  5
405
100
AcDbEntity
  8
1
  6
CONTINUOUS
 62
     1
100
AcDbLine
 10
316.437917
 20
151.013833
 30
0.0
 11
321.217917
 21
151.013833
 31
0.0
  0
INSERT
  5
406
100
AcDbEntity
  8
1
  6
CONTINUOUS
 62
     1
100
AcDbBlockReference
  2
LDR
 10
313.697917
 20
155.653833
 30
0.0
 41
241.920247
 42
241.920247
 50
120.649133
210
0.0
220
0.0
230
1.0
  0
LINE
  5
407
100
AcDbEntity
  8
1
  6
CONTINUOUS
 62
     1
100
AcDbLine
 10
327.257917
 20
134.713833
 30
0.0
 11
330.957917
 21
139.173833
 31
0.0
  0
LINE
  5
408
100
AcDbEntity
  8
1
  6
CONTINUOUS
 62
     1
100
AcDbLine
 10
330.957917
 20
139.173833
 30
0.0
 11
336.837917
 21
139.173833
 31
0.0
  0
INSERT
  5
409
100
AcDbEntity
  8
1
  6
CONTINUOUS
 62
     1
100
AcDbBlockReference
  2
LDR
 10
327.257917
 20
134.713833
 30
0.0
 41
241.920207
 42
241.920207
 50
230.299182
210
0.0
220
0.0
230
1.0
  0
LINE
  5
40A
100
AcDbEntity
  8
1
  6
CONTINUOUS
 62
     1
100
AcDbLine
 10
330.837917
 20
119.353833
 30
0.0
 11
339.517917
 21
112.193833
 31
0.0
  0
LINE
  5
40B
100
AcDbEntity
  8
1
  6
CONTINUOUS
 62
     1
100
AcDbLine
 10
339.517917
 20
112.193833
 30
0.0
 11
344.937917
 21
112.193833
 31
0.0
  0
INSERT
  5
40C
100
AcDbEntity
  8
1
  6
CONTINUOUS
 62
     1
100
AcDbBlockReference
  2
LDR
 10
330.837917
 20
119.353833
 30
0.0
 41
241.9203
 42
241.9203
 50
140.496387
210
0.0
220
0.0
230
1.0
  0
LINE
  5
40D
100
AcDbEntity
  8
1
  6
CONTINUOUS
 62
     1
100
AcDbLine
 10
243.857917
 20
110.433833
 30
0.0
 11
236.997917
 21
102.253833
 31
0.0
  0
LINE
  5
40E
100
AcDbEntity
  8
1
  6
CONTINUOUS
 62
     1
100
AcDbLine
 10
256.757917
 20
115.293833
 30
0.0
 11
241.557917
 21
92.533833
 31
0.0
  0
LINE
  5
40F
100
AcDbEntity
  8
1
  6
CONTINUOUS
 62
     1
100
AcDbLine
 10
256.757917
 20
95.793833
 30
0.0
 11
246.788167
 21
81.773833
 31
0.0
  0
LINE
  5
410
100
AcDbEntity
  8
1
  6
CONTINUOUS
 62
     1
100
AcDbLine
 10
236.997917
 20
102.253833
 30
0.0
 11
224.337917
 21
102.253833
 31
0.0
  0
LINE
  5
411
100
AcDbEntity
  8
1
  6
CONTINUOUS
 62
     1
100
AcDbLine
 10
241.557917
 20
92.533833
 30
0.0
 11
234.597917
 21
92.533833
 31
0.0
  0
LINE
  5
412
100
AcDbEntity
  8
1
  6
CONTINUOUS
 62
     1
100
AcDbLine
 10
246.788167
 20
81.773833
 30
0.0
 11
221.901917
 21
81.773833
 31
0.0
  0
INSERT
  5
413
100
AcDbEntity
  8
1
  6
CONTINUOUS
 62
     1
100
AcDbBlockReference
  2
LDR
 10
243.857917
 20
110.433833
 30
0.0
 41
241.919981
 42
241.919981
 50
50.051685
210
0.0
220
0.0
230
1.0
  0
INSERT
  5
414
100
AcDbEntity
  8
1
  6
CONTINUOUS
 62
     1
100
AcDbBlockReference
  2
LDR
 10
243.857917
 20
110.433833
 30
0.0
 41
241.919981
 42
241.919981
 50
50.051685
210
0.0
220
0.0
230
1.0
  0
INSERT
  5
415
100
AcDbEntity
  8
1
  6
CONTINUOUS
 62
     1
100
AcDbBlockReference
  2
LDR
 10
256.757917
 20
115.293833
 30
0.0
 41
241.920304
 42
241.920304
 50
56.270437
210
0.0
220
0.0
230
1.0
  0
INSERT
  5
416
100
AcDbEntity
  8
1
  6
CONTINUOUS
 62
     1
100
AcDbBlockReference
  2
LDR
 10
256.757917
 20
115.293833
 30
0.0
 41
241.920304
 42
241.920304
 50
56.270437
210
0.0
220
0.0
230
1.0
  0
INSERT
  5
417
100
AcDbEntity
  8
1
  6
CONTINUOUS
 62
     1
100
AcDbBlockReference
  2
LDR
 10
256.757917
 20
95.793833
 30
0.0
 41
241.919631
 42
241.919631
 50
54.545584
210
0.0
220
0.0
230
1.0
  0
INSERT
  5
418
100
AcDbEntity
  8
1
  6
CONTINUOUS
 62
     1
100
AcDbBlockReference
  2
LDR
 10
256.757917
 20
95.793833
 30
0.0
 41
241.919631
 42
241.919631
 50
54.545584
210
0.0
220
0.0
230
1.0
  0
LINE
  5
419
100
AcDbEntity
  8
1
  6
CONTINUOUS
 62
     1
100
AcDbLine
 10
263.177917
 20
122.173833
 30
0.0
 11
295.557917
 21
122.173833
 31
0.0
  0
LINE
  5
41A
100
AcDbEntity
  8
1
  6
CONTINUOUS
 62
     1
100
AcDbLine
 10
295.557917
 20
122.173833
 30
0.0
 11
327.957917
 21
122.173833
 31
0.0
  0
ARC
  5
41B
100
AcDbEntity
  8
1
  6
CONTINUOUS
 62
     1
100
AcDbCircle
 10
294.817293
 20
190.992707
 30
0.0
 40
68.826718
210
0.0
220
0.0
230
1.0
100
AcDbArc
 50
212.779058
 51
270.621483
  0
TEXT
  5
41C
100
AcDbEntity
  8
1
  6
CONTINUOUS
 62
     7
100
AcDbText
 10
345.937917
 20
111.433833
 30
0.0
 40
2.52
  1
ENCLOSURE WALL
  7
MONOTXT
210
0.0
220
0.0
230
1.0
100
AcDbText
  0
TEXT
  5
41D
100
AcDbEntity
  8
1
  6
CONTINUOUS
 62
     7
100
AcDbText
 10
173.879917
 20
80.642833
 30
0.0
 40
2.52
  1
HEX. SELF LOCKING NUT
  7
MONOTXT
210
0.0
220
0.0
230
1.0
100
AcDbText
  0
LINE
  5
41E
100
AcDbEntity
  8
1
  6
CONTINUOUS
 62
     1
100
AcDbLine
 10
260.277917
 20
117.493833
 30
0.0
 11
297.157917
 21
117.493833
 31
0.0
  0
TEXT
  5
41F
100
AcDbEntity
  8
1
  6
CONTINUOUS
 62
     7
100
AcDbText
 10
226.717917
 20
138.093833
 30
0.0
 40
3.024
  1
PART "B"
 50
304.999967
  7
MONOTXT
 11
229.195033
 21
139.828327
 31
0.0
210
0.0
220
0.0
230
1.0
100
AcDbText
 73
     3
  0
TEXT
  5
420
100
AcDbEntity
  8
1
  6
CONTINUOUS
 62
     7
100
AcDbText
 10
282.817917
 20
103.913833
 30
0.0
 40
3.024
  1
PART "A"
  7
MONOTXT
 11
282.817917
 21
106.937833
 31
0.0
210
0.0
220
0.0
230
1.0
100
AcDbText
 73
     3
  0
TEXT
  5
421
100
AcDbEntity
  8
1
  6
CONTINUOUS
 62
     7
100
AcDbText
 10
251.986833
 20
26.944917
 30
0.0
 40
3.528
  1
ENCLOSURE MOUNTING BRACKET
  7
MONOTXT
210
0.0
220
0.0
230
1.0
100
AcDbText
  0
CIRCLE
  5
422
100
AcDbEntity
  8
1
  6
CONTINUOUS
 62
   253
100
AcDbCircle
 10
102.946167
 20
151.408167
 30
0.0
 40
0.337655
210
0.0
220
0.0
230
1.0
  0
SPLINE
  5
423
100
AcDbEntity
  8
1
  6
CONTINUOUS
 62
     7
100
AcDbSpline
210
0.0
220
0.0
230
1.0
 70
     8
 71
     3
 72
    14
 73
    10
 74
     0
 42
0.0
 43
0.0
 12
0.7000487982308202
 22
0.7140950077514787
 32
0.0
 13
-0.7504360926848297
 23
-0.660943016300139
 33
0.0
 40
0.0
 40
0.0
 40
0.0
 40
0.0
 40
0.4888046330889659
 40
0.4888046330889659
 40
0.4888046330889659
 40
0.5276557533968748
 40
0.5276557533968748
 40
0.5276557533968748
 40
1.0
 40
1.0
 40
1.0
 40
1.0
 10
102.32483333333333
 20
155.98016666666666
 30
0.0
 10
102.65155555555556
 20
156.31344444444443
 30
0.0
 10
102.97827777777776
 20
156.64672222222222
 30
0.0
 10
103.30499999999999
 20
156.97999999999999
 30
0.0
 10
103.33096850255409
 20
157.00648955055635
 30
0.0
 10
103.3680042997557
 20
156.89893452949318
 30
0.0
 10
103.34016666666666
 20
156.87441666666666
 30
0.0
 10
103.00172222222223
 20
156.57633333333334
 30
0.0
 10
102.66327777777776
 20
156.27824999999999
 30
0.0
 10
102.32483333333333
 20
155.98016666666666
 30
0.0
  0
TEXT
  5
424
100
AcDbEntity
  8
1
  6
CONTINUOUS
 62
     7
100
AcDbText
 10
165.022917
 20
227.506833
 30
0.0
 40
6.0
  1
*
  7
MONOTXT
 72
     4
 11
166.180417
 21
230.506833
 31
0.0
210
0.0
220
0.0
230
1.0
100
AcDbText
  0
LINE
  5
425
100
AcDbEntity
  8
1
  6
CONTINUOUS
 62
   212
100
AcDbLine
 10
470.502333
 20
198.491667
 30
0.0
 11
469.002333
 21
198.491667
 31
0.0
  0
LINE
  5
426
100
AcDbEntity
  8
1
  6
CONTINUOUS
 62
   212
100
AcDbLine
 10
470.502333
 20
179.991667
 30
0.0
 11
469.002333
 21
179.991667
 31
0.0
  0
POLYLINE
  5
427
100
AcDbEntity
  8
1
  6
CONTINUOUS
 62
     7
100
AcDb2dPolyline
 66
     1
 10
0.0
 20
0.0
 30
0.0
 70
     1
  0
VERTEX
  5
428
100
AcDbEntity
  8
1
  6
CONTINUOUS
 62
     7
100
AcDbVertex
100
AcDb2dVertex
 10
470.502333
 20
179.991667
 30
0.0
  0
VERTEX
  5
429
100
AcDbEntity
  8
1
  6
CONTINUOUS
 62
     7
100
AcDbVertex
100
AcDb2dVertex
 10
470.502333
 20
198.491667
 30
0.0
  0
VERTEX
  5
42A
100
AcDbEntity
  8
1
  6
CONTINUOUS
 62
     7
100
AcDbVertex
100
AcDb2dVertex
 10
472.627333
 20
198.491667
 30
0.0
  0
VERTEX
  5
42B
100
AcDbEntity
  8
1
  6
CONTINUOUS
 62
     7
100
AcDbVertex
100
AcDb2dVertex
 10
472.627333
 20
179.991667
 30
0.0
  0
VERTEX
  5
42C
100
AcDbEntity
  8
1
  6
CONTINUOUS
 62
     7
100
AcDbVertex
100
AcDb2dVertex
 10
470.502333
 20
179.991667
 30
0.0
  0
SEQEND
  5
42D
100
AcDbEntity
  8
1
  6
CONTINUOUS
 62
     7
  0
LINE
  5
42E
100
AcDbEntity
  8
1
  6
CONTINUOUS
 62
     7
100
AcDbLine
 10
470.502333
 20
198.457917
 30
0.0
 11
470.536083
 21
198.491667
 31
0.0
  0
LINE
  5
42F
100
AcDbEntity
  8
1
  6
CONTINUOUS
 62
     7
100
AcDbLine
 10
470.502333
 20
197.043667
 30
0.0
 11
471.950333
 21
198.491667
 31
0.0
  0
LINE
  5
430
100
AcDbEntity
  8
1
  6
CONTINUOUS
 62
     7
100
AcDbLine
 10
470.502333
 20
195.6295
 30
0.0
 11
472.627333
 21
197.7545
 31
0.0
  0
LINE
  5
431
100
AcDbEntity
  8
1
  6
CONTINUOUS
 62
     7
100
AcDbLine
 10
470.502333
 20
194.21525
 30
0.0
 11
472.627333
 21
196.34025
 31
0.0
  0
LINE
  5
432
100
AcDbEntity
  8
1
  6
CONTINUOUS
 62
     7
100
AcDbLine
 10
470.502333
 20
192.801
 30
0.0
 11
472.627333
 21
194.926
 31
0.0
  0
LINE
  5
433
100
AcDbEntity
  8
1
  6
CONTINUOUS
 62
     7
100
AcDbLine
 10
470.502333
 20
191.386833
 30
0.0
 11
472.627333
 21
193.511833
 31
0.0
  0
LINE
  5
434
100
AcDbEntity
  8
1
  6
CONTINUOUS
 62
     7
100
AcDbLine
 10
470.502333
 20
189.972583
 30
0.0
 11
472.627333
 21
192.097583
 31
0.0
  0
LINE
  5
435
100
AcDbEntity
  8
1
  6
CONTINUOUS
 62
     7
100
AcDbLine
 10
470.502333
 20
188.558417
 30
0.0
 11
472.627333
 21
190.683417
 31
0.0
  0
LINE
  5
436
100
AcDbEntity
  8
1
  6
CONTINUOUS
 62
     7
100
AcDbLine
 10
470.502333
 20
187.144167
 30
0.0
 11
472.627333
 21
189.269167
 31
0.0
  0
LINE
  5
437
100
AcDbEntity
  8
1
  6
CONTINUOUS
 62
     7
100
AcDbLine
 10
470.502333
 20
185.73
 30
0.0
 11
472.627333
 21
187.855
 31
0.0
  0
LINE
  5
438
100
AcDbEntity
  8
1
  6
CONTINUOUS
 62
     7
100
AcDbLine
 10
470.502333
 20
184.31575
 30
0.0
 11
472.627333
 21
186.44075
 31
0.0
  0
LINE
  5
439
100
AcDbEntity
  8
1
  6
CONTINUOUS
 62
     7
100
AcDbLine
 10
470.502333
 20
182.9015
 30
0.0
 11
472.627333
 21
185.0265
 31
0.0
  0
LINE
  5
43A
100
AcDbEntity
  8
1
  6
CONTINUOUS
 62
     7
100
AcDbLine
 10
470.502333
 20
181.487333
 30
0.0
 11
472.627333
 21
183.612333
 31
0.0
  0
LINE
  5
43B
100
AcDbEntity
  8
1
  6
CONTINUOUS
 62
     7
100
AcDbLine
 10
470.502333
 20
180.073083
 30
0.0
 11
472.627333
 21
182.198083
 31
0.0
  0
LINE
  5
43C
100
AcDbEntity
  8
1
  6
CONTINUOUS
 62
     7
100
AcDbLine
 10
471.835083
 20
179.991667
 30
0.0
 11
472.627333
 21
180.783917
 31
0.0
  0
CIRCLE
  5
43D
100
AcDbEntity
  8
1
  6
CONTINUOUS
 62
   253
100
AcDbCircle
 10
84.074833
 20
170.980167
 30
0.0
 40
0.485374
210
0.0
220
0.0
230
1.0
  0
CIRCLE
  5
43E
100
AcDbEntity
  8
1
  6
CONTINUOUS
 62
   253
100
AcDbCircle
 10
91.574833
 20
166.480167
 30
0.0
 40
0.485374
210
0.0
220
0.0
230
1.0
  0
CIRCLE
  5
43F
100
AcDbEntity
  8
1
  6
CONTINUOUS
 62
   253
100
AcDbCircle
 10
91.574833
 20
154.480167
 30
0.0
 40
0.485374
210
0.0
220
0.0
230
1.0
  0
CIRCLE
  5
440
100
AcDbEntity
  8
1
  6
CONTINUOUS
 62
   253
100
AcDbCircle
 10
102.324833
 20
155.980167
 30
0.0
 40
0.485374
210
0.0
220
0.0
230
1.0
  0
CIRCLE
  5
441
100
AcDbEntity
  8
1
  6
CONTINUOUS
 62
   253
100
AcDbCircle
 10
100.324833
 20
155.980167
 30
0.0
 40
0.485374
210
0.0
220
0.0
230
1.0
  0
CIRCLE
  5
442
100
AcDbEntity
  8
1
  6
CONTINUOUS
 62
   253
100
AcDbCircle
 10
104.824833
 20
155.980167
 30
0.0
 40
0.485374
210
0.0
220
0.0
230
1.0
  0
CIRCLE
  5
443
100
AcDbEntity
  8
1
  6
CONTINUOUS
 62
   253
100
AcDbCircle
 10
102.946167
 20
151.408167
 30
0.0
 40
0.485374
210
0.0
220
0.0
230
1.0
  0
CIRCLE
  5
444
100
AcDbEntity
  8
1
  6
CONTINUOUS
 62
   253
100
AcDbCircle
 10
74.324833
 20
153.230167
 30
0.0
 40
0.485374
210
0.0
220
0.0
230
1.0
  0
CIRCLE
  5
445
100
AcDbEntity
  8
1
  6
CONTINUOUS
 62
   253
100
AcDbCircle
 10
74.324833
 20
150.730167
 30
0.0
 40
0.485374
210
0.0
220
0.0
230
1.0
  0
CIRCLE
  5
446
100
AcDbEntity
  8
1
  6
CONTINUOUS
 62
   253
100
AcDbCircle
 10
74.324833
 20
147.730167
 30
0.0
 40
0.485374
210
0.0
220
0.0
230
1.0
  0
CIRCLE
  5
447
100
AcDbEntity
  8
1
  6
CONTINUOUS
 62
   253
100
AcDbCircle
 10
74.324833
 20
144.730167
 30
0.0
 40
0.485374
210
0.0
220
0.0
230
1.0
  0
CIRCLE
  5
448
100
AcDbEntity
  8
1
  6
CONTINUOUS
 62
   253
100
AcDbCircle
 10
74.324833
 20
142.230167
 30
0.0
 40
0.485374
210
0.0
220
0.0
230
1.0
  0
CIRCLE
  5
449
100
AcDbEntity
  8
1
  6
CONTINUOUS
 62
   253
100
AcDbCircle
 10
89.824833
 20
131.980167
 30
0.0
 40
0.485374
210
0.0
220
0.0
230
1.0
  0
CIRCLE
  5
44A
100
AcDbEntity
  8
1
  6
CONTINUOUS
 62
   253
100
AcDbCircle
 10
91.574833
 20
131.980167
 30
0.0
 40
0.485374
210
0.0
220
0.0
230
1.0
  0
CIRCLE
  5
44B
100
AcDbEntity
  8
1
  6
CONTINUOUS
 62
   253
100
AcDbCircle
 10
98.324833
 20
122.980167
 30
0.0
 40
0.485374
210
0.0
220
0.0
230
1.0
  0
CIRCLE
  5
44C
100
AcDbEntity
  8
1
  6
CONTINUOUS
 62
   253
100
AcDbCircle
 10
100.824833
 20
122.980167
 30
0.0
 40
0.485374
210
0.0
220
0.0
230
1.0
  0
CIRCLE
  5
44D
100
AcDbEntity
  8
1
  6
CONTINUOUS
 62
   253
100
AcDbCircle
 10
102.824833
 20
122.980167
 30
0.0
 40
0.485374
210
0.0
220
0.0
230
1.0
  0
CIRCLE
  5
44E
100
AcDbEntity
  8
1
  6
CONTINUOUS
 62
   253
100
AcDbCircle
 10
89.574833
 20
115.480167
 30
0.0
 40
0.485374
210
0.0
220
0.0
230
1.0
  0
CIRCLE
  5
44F
100
AcDbEntity
  8
1
  6
CONTINUOUS
 62
   253
100
AcDbCircle
 10
92.074833
 20
115.480167
 30
0.0
 40
0.485374
210
0.0
220
0.0
230
1.0
  0
CIRCLE
  5
450
100
AcDbEntity
  8
1
  6
CONTINUOUS
 62
   253
100
AcDbCircle
 10
98.324833
 20
120.980167
 30
0.0
 40
0.485374
210
0.0
220
0.0
230
1.0
  0
CIRCLE
  5
451
100
AcDbEntity
  8
1
  6
CONTINUOUS
 62
   253
100
AcDbCircle
 10
100.824833
 20
120.980167
 30
0.0
 40
0.485374
210
0.0
220
0.0
230
1.0
  0
CIRCLE
  5
452
100
AcDbEntity
  8
1
  6
CONTINUOUS
 62
   253
100
AcDbCircle
 10
102.824833
 20
120.980167
 30
0.0
 40
0.485374
210
0.0
220
0.0
230
1.0
  0
CIRCLE
  5
453
100
AcDbEntity
  8
1
  6
CONTINUOUS
 62
   253
100
AcDbCircle
 10
96.111417
 20
75.636833
 30
0.0
 40
0.485374
210
0.0
220
0.0
230
1.0
  0
CIRCLE
  5
454
100
AcDbEntity
  8
1
  6
CONTINUOUS
 62
   253
100
AcDbCircle
 10
92.353417
 20
75.77225
 30
0.0
 40
0.485374
210
0.0
220
0.0
230
1.0
  0
CIRCLE
  5
455
100
AcDbEntity
  8
1
  6
CONTINUOUS
 62
   253
100
AcDbCircle
 10
92.18775
 20
72.885667
 30
0.0
 40
0.485374
210
0.0
220
0.0
230
1.0
  0
TEXT
  5
456
100
AcDbEntity
  8
1
  6
CONTINUOUS
 62
     7
100
AcDbText
 10
-20.303917
 20
52.226917
 30
0.0
 40
4.0
  1
120 OR 240 VOLT DISTRIBUTION ENCLOSURE
  7
MONOTXT
 72
     4
 11
50.2
 21
54.226917
 31
0.0
210
0.0
220
0.0
230
1.0
100
AcDbText
  0
TEXT
  5
457
100
AcDbEntity
  8
1
  6
CONTINUOUS
 62
     7
100
AcDbText
 10
26.18425
 20
45.226917
 30
0.0
 40
4.0
  1
WIRING DIAGRAM
  7
MONOTXT
 72
     4
 11
50.199917
 21
47.226917
 31
0.0
210
0.0
220
0.0
230
1.0
100
AcDbText
  0
TEXT
  5
458
100
AcDbEntity
  8
1
  6
CONTINUOUS
 62
     7
100
AcDbText
 10
525.200583
 20
183.743417
 30
0.0
 40
2.5
  1
POLE WALL, FIELD DRILLED
  7
MONOTXT
 11
525.200583
 21
186.243417
 31
0.0
210
0.0
220
0.0
230
1.0
100
AcDbText
 73
     3
  0
TEXT
  5
459
100
AcDbEntity
  8
1
  6
CONTINUOUS
 62
     7
100
AcDbText
 10
525.200583
 20
179.243417
 30
0.0
 40
2.5
  1
& TAPPED USE THREAD
  7
MONOTXT
 11
525.200583
 21
181.743417
 31
0.0
210
0.0
220
0.0
230
1.0
100
AcDbText
 73
     3
  0
TEXT
  5
45A
100
AcDbEntity
  8
1
  6
CONTINUOUS
 62
     7
100
AcDbText
 10
525.200583
 20
174.743417
 30
0.0
 40
2.5
  1
DOPE BEFORE INSERTING
  7
MONOTXT
 11
525.200583
 21
177.243417
 31
0.0
210
0.0
220
0.0
230
1.0
100
AcDbText
 73
     3
  0
TEXT
  5
45B
100
AcDbEntity
  8
1
  6
CONTINUOUS
 62
     7
100
AcDbText
 10
525.200583
 20
170.243417
 30
0.0
 40
2.5
  1
NIPPLE
  7
MONOTXT
 11
525.200583
 21
172.743417
 31
0.0
210
0.0
220
0.0
230
1.0
100
AcDbText
 73
     3
  0
LINE
  5
45C
100
AcDbEntity
  8
1
  6
CONTINUOUS
 62
     7
100
AcDbLine
 10
364.682167
 20
346.43025
 30
0.0
 11
426.181
 21
346.43025
 31
0.0
  0
LINE
  5
45D
100
AcDbEntity
  8
1
  6
CONTINUOUS
 62
     7
100
AcDbLine
 10
365.457917
 20
298.698
 30
0.0
 11
418.787833
 21
298.698
 31
0.0
  0
TEXT
  5
45E
100
AcDbEntity
  8
1
  6
CONTINUOUS
 62
     7
100
AcDbText
 10
351.175667
 20
356.944833
 30
0.0
 40
2.5
  1
CHASE
  7
MONOTXT
 11
351.175667
 21
359.444833
 31
0.0
210
0.0
220
0.0
230
1.0
100
AcDbText
 73
     3
  0
TEXT
  5
45F
100
AcDbEntity
  8
1
  6
CONTINUOUS
 62
     7
100
AcDbText
 10
351.175667
 20
352.444833
 30
0.0
 40
2.5
  1
NIPPLE
  7
MONOTXT
 11
351.175667
 21
354.944833
 31
0.0
210
0.0
220
0.0
230
1.0
100
AcDbText
 73
     3
  0
TEXT
  5
460
100
AcDbEntity
  8
1
  6
CONTINUOUS
 62
     7
100
AcDbText
 10
351.175667
 20
347.944833
 30
0.0
 40
2.5
  1
(TYP.)
  7
MONOTXT
 11
351.175667
 21
350.444833
 31
0.0
210
0.0
220
0.0
230
1.0
100
AcDbText
 73
     3
  0
LINE
  5
461
100
AcDbEntity
  8
1
  6
CONTINUOUS
 62
     7
100
AcDbLine
 10
328.305
 20
344.778333
 30
0.0
 11
350.13175
 21
358.027667
 31
0.0
  0
INSERT
  5
462
100
AcDbEntity
  8
1
  6
CONTINUOUS
 62
     1
100
AcDbBlockReference
  2
LDR
 10
328.305
 20
344.778333
 30
0.0
 41
240.000001
 42
240.000001
 50
211.258703
210
0.0
220
0.0
230
1.0
  0
LINE
  5
463
100
AcDbEntity
  8
1
  6
CONTINUOUS
 62
   132
100
AcDbLine
 10
233.49925
 20
317.028333
 30
0.0
 11
265.49925
 21
317.028333
 31
0.0
  0
LINE
  5
464
100
AcDbEntity
  8
1
  6
CONTINUOUS
 62
   132
100
AcDbLine
 10
233.49925
 20
357.028333
 30
0.0
 11
265.49925
 21
357.028333
 31
0.0
  0
LINE
  5
465
100
AcDbEntity
  8
1
  6
CONTINUOUS
 62
     3
100
AcDbLine
 10
233.49925
 20
357.028333
 30
0.0
 11
233.49925
 21
317.028333
 31
0.0
  0
LINE
  5
466
100
AcDbEntity
  8
1
  6
CONTINUOUS
 62
     3
100
AcDbLine
 10
265.49925
 20
357.028333
 30
0.0
 11
265.49925
 21
317.028333
 31
0.0
  0
LINE
  5
467
100
AcDbEntity
  8
1
  6
DASHED
 62
     3
100
AcDbLine
 10
239.49925
 20
317.028333
 30
0.0
 11
239.49925
 21
357.028333
 31
0.0
  0
LINE
  5
468
100
AcDbEntity
  8
1
  6
DASHED
 62
     3
100
AcDbLine
 10
259.49925
 20
317.028333
 30
0.0
 11
259.49925
 21
357.028333
 31
0.0
  0
LINE
  5
469
100
AcDbEntity
  8
1
  6
CONTINUOUS
 62
     3
100
AcDbLine
 10
239.49925
 20
357.028333
 30
0.0
 11
239.49925
 21
366.028333
 31
0.0
  0
LINE
  5
46A
100
AcDbEntity
  8
1
  6
CONTINUOUS
 62
     3
100
AcDbLine
 10
259.49925
 20
357.028333
 30
0.0
 11
259.49925
 21
366.028333
 31
0.0
  0
ARC
  5
46B
100
AcDbEntity
  8
1
  6
CONTINUOUS
 62
   132
100
AcDbCircle
 10
244.49925
 20
364.632885
 30
0.0
 40
5.191077
210
0.0
220
0.0
230
1.0
100
AcDbArc
 50
15.593869
 51
164.406128
  0
ARC
  5
46C
100
AcDbEntity
  8
1
  6
CONTINUOUS
 62
   132
100
AcDbCircle
 10
254.49925
 20
364.632885
 30
0.0
 40
5.191077
210
0.0
220
0.0
230
1.0
100
AcDbArc
 50
15.593869
 51
152.865964
  0
POLYLINE
  5
46D
100
AcDbEntity
  8
1
  6
CONTINUOUS
 62
   132
100
AcDb2dPolyline
 66
     1
 10
0.0
 20
0.0
 30
0.0
  0
VERTEX
  5
46E
100
AcDbEntity
  8
1
  6
CONTINUOUS
 62
   132
100
AcDbVertex
100
AcDb2dVertex
 10
249.49925
 20
366.028333
 30
0.0
 42
0.680339
  0
VERTEX
  5
46F
100
AcDbEntity
  8
1
  6
CONTINUOUS
 62
   132
100
AcDbVertex
100
AcDb2dVertex
 10
259.104203
 20
365.027601
 30
0.0
  0
VERTEX
  5
470
100
AcDbEntity
  8
1
  6
CONTINUOUS
 62
   132
100
AcDbVertex
100
AcDb2dVertex
 10
259.087583
 20
365.090083
 30
0.0
 42
0.613196
  0
VERTEX
  5
471
100
AcDbEntity
  8
1
  6
CONTINUOUS
 62
   132
100
AcDbVertex
100
AcDb2dVertex
 10
249.879493
 20
367.000398
 30
0.0
  0
VERTEX
  5
472
100
AcDbEntity
  8
1
  6
CONTINUOUS
 62
   132
100
AcDbVertex
100
AcDb2dVertex
 10
249.866612
 20
366.975093
 30
0.0
 42
0.049025
  0
VERTEX
  5
473
100
AcDbEntity
  8
1
  6
CONTINUOUS
 62
   132
100
AcDbVertex
100
AcDb2dVertex
 10
249.49925
 20
366.028334
 30
0.0
  0
SEQEND
  5
474
100
AcDbEntity
  8
1
  6
CONTINUOUS
 62
   132
  0
LINE
  5
475
100
AcDbEntity
  8
1
  6
CONTINUOUS
 62
   132
100
AcDbLine
 10
258.92525
 20
365.567583
 30
0.0
 11
255.866167
 21
368.626667
 31
0.0
  0
LINE
  5
476
100
AcDbEntity
  8
1
  6
CONTINUOUS
 62
   132
100
AcDbLine
 10
258.700333
 20
364.37825
 30
0.0
 11
254.111167
 21
368.967417
 31
0.0
  0
LINE
  5
477
100
AcDbEntity
  8
1
  6
CONTINUOUS
 62
   132
100
AcDbLine
 10
258.03125
 20
363.633167
 30
0.0
 11
252.827333
 21
368.837083
 31
0.0
  0
LINE
  5
478
100
AcDbEntity
  8
1
  6
CONTINUOUS
 62
   132
100
AcDbLine
 10
257.235083
 20
363.015083
 30
0.0
 11
251.770167
 21
368.48
 31
0.0
  0
LINE
  5
479
100
AcDbEntity
  8
1
  6
CONTINUOUS
 62
   132
100
AcDbLine
 10
256.27975
 20
362.55625
 30
0.0
 11
250.884083
 21
367.951917
 31
0.0
  0
LINE
  5
47A
100
AcDbEntity
  8
1
  6
CONTINUOUS
 62
   132
100
AcDbLine
 10
255.139417
 20
362.282333
 30
0.0
 11
250.135
 21
367.28675
 31
0.0
  0
LINE
  5
47B
100
AcDbEntity
  8
1
  6
CONTINUOUS
 62
   132
100
AcDbLine
 10
253.707
 20
362.300583
 30
0.0
 11
249.615833
 21
366.39175
 31
0.0
  0
ELLIPSE
  5
47C
100
AcDbEntity
  8
1
  6
CONTINUOUS
 62
     3
100
AcDbEllipse
 10
249.286625
 20
360.232625
 30
0.0
 11
7.8826249991290949
 21
-0.0592917824504186
 31
0.0
210
0.0
220
0.0
230
1.0
 40
0.188081
 41
0.0
 42
6.2831753071795866
  0
LINE
  5
47D
100
AcDbEntity
  8
1
  6
CONTINUOUS
 62
     3
100
AcDbLine
 10
244.49925
 20
357.028333
 30
0.0
 11
244.49925
 21
359.0895
 31
0.0
  0
LINE
  5
47E
100
AcDbEntity
  8
1
  6
CONTINUOUS
 62
     3
100
AcDbLine
 10
254.49925
 20
357.028333
 30
0.0
 11
254.49925
 21
359.082583
 31
0.0
  0
CIRCLE
  5
47F
100
AcDbEntity
  8
1
  6
CONTINUOUS
 62
     3
100
AcDbCircle
 10
236.4255
 20
337.76275
 30
0.0
 40
1.191574
210
0.0
220
0.0
230
1.0
  0
LINE
  5
480
100
AcDbEntity
  8
1
  6
CONTINUOUS
 62
   132
100
AcDbLine
 10
265.49925
 20
354.028333
 30
0.0
 11
266.49925
 21
354.028333
 31
0.0
  0
LINE
  5
481
100
AcDbEntity
  8
1
  6
CONTINUOUS
 62
   132
100
AcDbLine
 10
265.49925
 20
320.028333
 30
0.0
 11
266.49925
 21
320.028333
 31
0.0
  0
LINE
  5
482
100
AcDbEntity
  8
1
  6
CONTINUOUS
 62
     3
100
AcDbLine
 10
266.49925
 20
354.028333
 30
0.0
 11
266.49925
 21
320.028333
 31
0.0
  0
LINE
  5
483
100
AcDbEntity
  8
1
  6
CONTINUOUS
 62
     7
100
AcDbLine
 10
266.49925
 20
317.028333
 30
0.0
 11
275.49925
 21
317.028333
 31
0.0
  0
LINE
  5
484
100
AcDbEntity
  8
1
  6
CONTINUOUS
 62
     7
100
AcDbLine
 10
263.49925
 20
306.028333
 30
0.0
 11
275.49925
 21
306.028333
 31
0.0
  0
LINE
  5
485
100
AcDbEntity
  8
1
  6
CONTINUOUS
 62
     7
100
AcDbLine
 10
274.49925
 20
317.028333
 30
0.0
 11
274.49925
 21
306.028333
 31
0.0
  0
INSERT
  5
486
100
AcDbEntity
  8
1
  6
CONTINUOUS
 62
     1
100
AcDbBlockReference
  2
LDR
 10
274.49925
 20
317.028333
 30
0.0
 41
240.0
 42
240.0
 50
90.0
210
0.0
220
0.0
230
1.0
  0
INSERT
  5
487
100
AcDbEntity
  8
1
  6
CONTINUOUS
 62
     1
100
AcDbBlockReference
  2
LDR
 10
274.49925
 20
317.028333
 30
0.0
 41
240.0
 42
240.0
 50
90.0
210
0.0
220
0.0
230
1.0
  0
INSERT
  5
488
100
AcDbEntity
  8
1
  6
CONTINUOUS
 62
     1
100
AcDbBlockReference
  2
LDR
 10
274.49925
 20
306.028333
 30
0.0
 41
240.0
 42
240.0
 50
270.0
210
0.0
220
0.0
230
1.0
  0
LINE
  5
489
100
AcDbEntity
  8
1
  6
CONTINUOUS
 62
    52
100
AcDbLine
 10
-36.697833
 20
215.075833
 30
0.0
 11
27.652333
 21
215.075833
 31
0.0
  0
LINE
  5
48A
100
AcDbEntity
  8
1
  6
CONTINUOUS
 62
    52
100
AcDbLine
 10
27.652333
 20
215.075833
 30
0.0
 11
27.652333
 21
304.175833
 31
0.0
  0
LINE
  5
48B
100
AcDbEntity
  8
1
  6
CONTINUOUS
 62
    52
100
AcDbLine
 10
27.652333
 20
304.175833
 30
0.0
 11
-36.697833
 21
304.175833
 31
0.0
  0
LINE
  5
48C
100
AcDbEntity
  8
1
  6
CONTINUOUS
 62
    52
100
AcDbLine
 10
-36.697833
 20
304.175833
 30
0.0
 11
-36.697833
 21
215.075833
 31
0.0
  0
LINE
  5
48D
100
AcDbEntity
  8
1
  6
CONTINUOUS
 62
    52
100
AcDbLine
 10
53.445417
 20
215.075833
 30
0.0
 11
117.795417
 21
215.075833
 31
0.0
  0
LINE
  5
48E
100
AcDbEntity
  8
1
  6
CONTINUOUS
 62
    52
100
AcDbLine
 10
117.795417
 20
215.075833
 30
0.0
 11
117.795417
 21
304.175833
 31
0.0
  0
LINE
  5
48F
100
AcDbEntity
  8
1
  6
CONTINUOUS
 62
    52
100
AcDbLine
 10
117.795417
 20
304.175833
 30
0.0
 11
53.445417
 21
304.175833
 31
0.0
  0
LINE
  5
490
100
AcDbEntity
  8
1
  6
CONTINUOUS
 62
    52
100
AcDbLine
 10
53.445417
 20
304.175833
 30
0.0
 11
53.445417
 21
215.075833
 31
0.0
  0
LINE
  5
491
100
AcDbEntity
  8
1
  6
CONTINUOUS
 62
    52
100
AcDbLine
 10
55.095417
 20
302.525833
 30
0.0
 11
55.095417
 21
216.725833
 31
0.0
  0
LINE
  5
492
100
AcDbEntity
  8
1
  6
CONTINUOUS
 62
    52
100
AcDbLine
 10
56.745417
 20
300.875833
 30
0.0
 11
56.745417
 21
218.375833
 31
0.0
  0
LINE
  5
493
100
AcDbEntity
  8
1
  6
CONTINUOUS
 62
    52
100
AcDbLine
 10
116.145417
 20
302.525833
 30
0.0
 11
55.095417
 21
302.525833
 31
0.0
  0
LINE
  5
494
100
AcDbEntity
  8
1
  6
CONTINUOUS
 62
    52
100
AcDbLine
 10
114.495417
 20
300.875833
 30
0.0
 11
56.745417
 21
300.875833
 31
0.0
  0
LINE
  5
495
100
AcDbEntity
  8
1
  6
CONTINUOUS
 62
    52
100
AcDbLine
 10
116.145417
 20
216.725833
 30
0.0
 11
116.145417
 21
302.525833
 31
0.0
  0
LINE
  5
496
100
AcDbEntity
  8
1
  6
CONTINUOUS
 62
    52
100
AcDbLine
 10
114.495417
 20
218.375833
 30
0.0
 11
114.495417
 21
300.875833
 31
0.0
  0
LINE
  5
497
100
AcDbEntity
  8
1
  6
CONTINUOUS
 62
    52
100
AcDbLine
 10
55.095417
 20
216.725833
 30
0.0
 11
116.145417
 21
216.725833
 31
0.0
  0
LINE
  5
498
100
AcDbEntity
  8
1
  6
CONTINUOUS
 62
    52
100
AcDbLine
 10
56.745417
 20
218.375833
 30
0.0
 11
114.495417
 21
218.375833
 31
0.0
  0
LINE
  5
499
100
AcDbEntity
  8
1
  6
CONTINUOUS
 62
    52
100
AcDbLine
 10
30.127333
 20
299.225833
 30
0.0
 11
27.652333
 21
299.225833
 31
0.0
  0
LINE
  5
49A
100
AcDbEntity
  8
1
  6
CONTINUOUS
 62
    52
100
AcDbLine
 10
27.652333
 20
220.025833
 30
0.0
 11
30.127333
 21
220.025833
 31
0.0
  0
LINE
  5
49B
100
AcDbEntity
  8
1
  6
CONTINUOUS
 62
    52
100
AcDbLine
 10
30.127333
 20
299.225833
 30
0.0
 11
30.127333
 21
220.025833
 31
0.0
  0
LINE
  5
49C
100
AcDbEntity
  8
1
  6
CONTINUOUS
 62
    52
100
AcDbLine
 10
30.127333
 20
294.275833
 30
0.0
 11
27.652333
 21
294.275833
 31
0.0
  0
LINE
  5
49D
100
AcDbEntity
  8
1
  6
CONTINUOUS
 62
    52
100
AcDbLine
 10
30.127333
 20
289.325833
 30
0.0
 11
27.652333
 21
289.325833
 31
0.0
  0
LINE
  5
49E
100
AcDbEntity
  8
1
  6
CONTINUOUS
 62
    52
100
AcDbLine
 10
30.127333
 20
284.375833
 30
0.0
 11
27.652333
 21
284.375833
 31
0.0
  0
LINE
  5
49F
100
AcDbEntity
  8
1
  6
CONTINUOUS
 62
    52
100
AcDbLine
 10
30.127333
 20
279.425833
 30
0.0
 11
27.652333
 21
279.425833
 31
0.0
  0
LINE
  5
4A0
100
AcDbEntity
  8
1
  6
CONTINUOUS
 62
    52
100
AcDbLine
 10
30.127333
 20
274.475833
 30
0.0
 11
27.652333
 21
274.475833
 31
0.0
  0
LINE
  5
4A1
100
AcDbEntity
  8
1
  6
CONTINUOUS
 62
    52
100
AcDbLine
 10
30.127333
 20
269.525833
 30
0.0
 11
27.652333
 21
269.525833
 31
0.0
  0
LINE
  5
4A2
100
AcDbEntity
  8
1
  6
CONTINUOUS
 62
    52
100
AcDbLine
 10
30.127333
 20
264.575833
 30
0.0
 11
27.652333
 21
264.575833
 31
0.0
  0
LINE
  5
4A3
100
AcDbEntity
  8
1
  6
CONTINUOUS
 62
    52
100
AcDbLine
 10
30.127333
 20
259.625833
 30
0.0
 11
27.652333
 21
259.625833
 31
0.0
  0
LINE
  5
4A4
100
AcDbEntity
  8
1
  6
CONTINUOUS
 62
    52
100
AcDbLine
 10
30.127333
 20
254.675833
 30
0.0
 11
27.652333
 21
254.675833
 31
0.0
  0
LINE
  5
4A5
100
AcDbEntity
  8
1
  6
CONTINUOUS
 62
    52
100
AcDbLine
 10
30.127333
 20
249.725833
 30
0.0
 11
27.652333
 21
249.725833
 31
0.0
  0
LINE
  5
4A6
100
AcDbEntity
  8
1
  6
CONTINUOUS
 62
    52
100
AcDbLine
 10
30.127333
 20
244.775833
 30
0.0
 11
27.652333
 21
244.775833
 31
0.0
  0
LINE
  5
4A7
100
AcDbEntity
  8
1
  6
CONTINUOUS
 62
    52
100
AcDbLine
 10
30.127333
 20
239.825833
 30
0.0
 11
27.652333
 21
239.825833
 31
0.0
  0
LINE
  5
4A8
100
AcDbEntity
  8
1
  6
CONTINUOUS
 62
    52
100
AcDbLine
 10
30.127333
 20
234.875833
 30
0.0
 11
27.652333
 21
234.875833
 31
0.0
  0
LINE
  5
4A9
100
AcDbEntity
  8
1
  6
CONTINUOUS
 62
    52
100
AcDbLine
 10
30.127333
 20
229.925833
 30
0.0
 11
27.652333
 21
229.925833
 31
0.0
  0
LINE
  5
4AA
100
AcDbEntity
  8
1
  6
CONTINUOUS
 62
    52
100
AcDbLine
 10
30.127333
 20
224.975833
 30
0.0
 11
27.652333
 21
224.975833
 31
0.0
  0
LINE
  5
4AB
100
AcDbEntity
  8
1
  6
CONTINUOUS
 62
    52
100
AcDbLine
 10
-8.647833
 20
305.825833
 30
0.0
 11
-8.647833
 21
304.175833
 31
0.0
  0
LINE
  5
4AC
100
AcDbEntity
  8
1
  6
CONTINUOUS
 62
    52
100
AcDbLine
 10
-0.397667
 20
305.825833
 30
0.0
 11
-0.397667
 21
304.175833
 31
0.0
  0
LINE
  5
4AD
100
AcDbEntity
  8
1
  6
CONTINUOUS
 62
    52
100
AcDbLine
 10
-10.297833
 20
305.825833
 30
0.0
 11
1.252333
 21
305.825833
 31
0.0
  0
LINE
  5
4AE
100
AcDbEntity
  8
1
  6
CONTINUOUS
 62
    52
100
AcDbLine
 10
-8.647833
 20
308.300833
 30
0.0
 11
-0.397667
 21
308.300833
 31
0.0
  0
ARC
  5
4AF
100
AcDbEntity
  8
1
  6
CONTINUOUS
 62
    52
100
AcDbCircle
 10
-8.190478
 20
306.208417
 30
0.0
 40
2.141729
210
0.0
220
0.0
230
1.0
100
AcDbArc
 50
102.327775
 51
190.292089
  0
ARC
  5
4B0
100
AcDbEntity
  8
1
  6
CONTINUOUS
 62
    52
100
AcDbCircle
 10
-0.855014
 20
306.208417
 30
0.0
 40
2.141729
210
0.0
220
0.0
230
1.0
100
AcDbArc
 50
349.707911
 51
77.672225
  0
CIRCLE
  5
4B1
100
AcDbEntity
  8
1
  6
CONTINUOUS
 62
    52
100
AcDbCircle
 10
-30.097746
 20
259.625763
 30
0.0
 40
2.0625
210
0.0
220
0.0
230
1.0
  0
LINE
  5
4B2
100
AcDbEntity
  8
1
  6
CONTINUOUS
 62
    52
100
AcDbLine
 10
98.820417
 20
298.813333
 30
0.0
 11
88.920417
 21
298.813333
 31
0.0
  0
LINE
  5
4B3
100
AcDbEntity
  8
1
  6
CONTINUOUS
 62
    52
100
AcDbLine
 10
82.320417
 20
298.813333
 30
0.0
 11
72.420417
 21
298.813333
 31
0.0
  0
LINE
  5
4B4
100
AcDbEntity
  8
1
  6
CONTINUOUS
 62
    52
100
AcDbLine
 10
82.320417
 20
288.913333
 30
0.0
 11
72.420417
 21
288.913333
 31
0.0
  0
LINE
  5
4B5
100
AcDbEntity
  8
1
  6
CONTINUOUS
 62
    52
100
AcDbLine
 10
98.820417
 20
288.913333
 30
0.0
 11
88.920417
 21
288.913333
 31
0.0
  0
LINE
  5
4B6
100
AcDbEntity
  8
1
  6
CONTINUOUS
 62
    52
100
AcDbLine
 10
82.320417
 20
282.313333
 30
0.0
 11
72.420417
 21
282.313333
 31
0.0
  0
LINE
  5
4B7
100
AcDbEntity
  8
1
  6
CONTINUOUS
 62
    52
100
AcDbLine
 10
98.820417
 20
282.313333
 30
0.0
 11
88.920417
 21
282.313333
 31
0.0
  0
LINE
  5
4B8
100
AcDbEntity
  8
1
  6
CONTINUOUS
 62
    52
100
AcDbLine
 10
82.320417
 20
272.413333
 30
0.0
 11
72.420417
 21
272.413333
 31
0.0
  0
LINE
  5
4B9
100
AcDbEntity
  8
1
  6
CONTINUOUS
 62
    52
100
AcDbLine
 10
98.820417
 20
272.413333
 30
0.0
 11
88.920417
 21
272.413333
 31
0.0
  0
LINE
  5
4BA
100
AcDbEntity
  8
1
  6
CONTINUOUS
 62
    52
100
AcDbLine
 10
82.320417
 20
265.813333
 30
0.0
 11
72.420417
 21
265.813333
 31
0.0
  0
LINE
  5
4BB
100
AcDbEntity
  8
1
  6
CONTINUOUS
 62
    52
100
AcDbLine
 10
98.820417
 20
265.813333
 30
0.0
 11
88.920417
 21
265.813333
 31
0.0
  0
LINE
  5
4BC
100
AcDbEntity
  8
1
  6
CONTINUOUS
 62
    52
100
AcDbLine
 10
82.320417
 20
255.913333
 30
0.0
 11
72.420417
 21
255.913333
 31
0.0
  0
LINE
  5
4BD
100
AcDbEntity
  8
1
  6
CONTINUOUS
 62
    52
100
AcDbLine
 10
98.820417
 20
255.913333
 30
0.0
 11
88.920417
 21
255.913333
 31
0.0
  0
LINE
  5
4BE
100
AcDbEntity
  8
1
  6
CONTINUOUS
 62
    52
100
AcDbLine
 10
82.320417
 20
249.313333
 30
0.0
 11
72.420417
 21
249.313333
 31
0.0
  0
LINE
  5
4BF
100
AcDbEntity
  8
1
  6
CONTINUOUS
 62
    52
100
AcDbLine
 10
98.820417
 20
249.313333
 30
0.0
 11
88.920417
 21
249.313333
 31
0.0
  0
LINE
  5
4C0
100
AcDbEntity
  8
1
  6
CONTINUOUS
 62
    52
100
AcDbLine
 10
82.320417
 20
239.413333
 30
0.0
 11
72.420417
 21
239.413333
 31
0.0
  0
LINE
  5
4C1
100
AcDbEntity
  8
1
  6
CONTINUOUS
 62
    52
100
AcDbLine
 10
98.820417
 20
239.413333
 30
0.0
 11
88.920417
 21
239.413333
 31
0.0
  0
LINE
  5
4C2
100
AcDbEntity
  8
1
  6
CONTINUOUS
 62
    52
100
AcDbLine
 10
72.420417
 20
298.813333
 30
0.0
 11
72.420417
 21
288.913333
 31
0.0
  0
LINE
  5
4C3
100
AcDbEntity
  8
1
  6
CONTINUOUS
 62
    52
100
AcDbLine
 10
72.420417
 20
282.313333
 30
0.0
 11
72.420417
 21
272.413333
 31
0.0
  0
LINE
  5
4C4
100
AcDbEntity
  8
1
  6
CONTINUOUS
 62
    52
100
AcDbLine
 10
72.420417
 20
265.813333
 30
0.0
 11
72.420417
 21
255.913333
 31
0.0
  0
LINE
  5
4C5
100
AcDbEntity
  8
1
  6
CONTINUOUS
 62
    52
100
AcDbLine
 10
72.420417
 20
249.313333
 30
0.0
 11
72.420417
 21
239.413333
 31
0.0
  0
LINE
  5
4C6
100
AcDbEntity
  8
1
  6
CONTINUOUS
 62
    52
100
AcDbLine
 10
82.320417
 20
298.813333
 30
0.0
 11
82.320417
 21
288.913333
 31
0.0
  0
LINE
  5
4C7
100
AcDbEntity
  8
1
  6
CONTINUOUS
 62
    52
100
AcDbLine
 10
82.320417
 20
282.313333
 30
0.0
 11
82.320417
 21
272.413333
 31
0.0
  0
LINE
  5
4C8
100
AcDbEntity
  8
1
  6
CONTINUOUS
 62
    52
100
AcDbLine
 10
82.320417
 20
265.813333
 30
0.0
 11
82.320417
 21
255.913333
 31
0.0
  0
LINE
  5
4C9
100
AcDbEntity
  8
1
  6
CONTINUOUS
 62
    52
100
AcDbLine
 10
82.320417
 20
249.313333
 30
0.0
 11
82.320417
 21
239.413333
 31
0.0
  0
LINE
  5
4CA
100
AcDbEntity
  8
1
  6
CONTINUOUS
 62
    52
100
AcDbLine
 10
88.920417
 20
288.913333
 30
0.0
 11
88.920417
 21
298.813333
 31
0.0
  0
LINE
  5
4CB
100
AcDbEntity
  8
1
  6
CONTINUOUS
 62
    52
100
AcDbLine
 10
88.920417
 20
272.413333
 30
0.0
 11
88.920417
 21
282.313333
 31
0.0
  0
LINE
  5
4CC
100
AcDbEntity
  8
1
  6
CONTINUOUS
 62
    52
100
AcDbLine
 10
88.920417
 20
239.413333
 30
0.0
 11
88.920417
 21
249.313333
 31
0.0
  0
LINE
  5
4CD
100
AcDbEntity
  8
1
  6
CONTINUOUS
 62
    52
100
AcDbLine
 10
88.920417
 20
255.913333
 30
0.0
 11
88.920417
 21
265.813333
 31
0.0
  0
LINE
  5
4CE
100
AcDbEntity
  8
1
  6
CONTINUOUS
 62
    52
100
AcDbLine
 10
98.820417
 20
239.413333
 30
0.0
 11
98.820417
 21
249.313333
 31
0.0
  0
LINE
  5
4CF
100
AcDbEntity
  8
1
  6
CONTINUOUS
 62
    52
100
AcDbLine
 10
98.820417
 20
255.913333
 30
0.0
 11
98.820417
 21
265.813333
 31
0.0
  0
LINE
  5
4D0
100
AcDbEntity
  8
1
  6
CONTINUOUS
 62
    52
100
AcDbLine
 10
98.820417
 20
272.413333
 30
0.0
 11
98.820417
 21
282.313333
 31
0.0
  0
LINE
  5
4D1
100
AcDbEntity
  8
1
  6
CONTINUOUS
 62
    52
100
AcDbLine
 10
98.820417
 20
288.913333
 30
0.0
 11
98.820417
 21
298.813333
 31
0.0
  0
LINE
  5
4D2
100
AcDbEntity
  8
1
  6
CONTINUOUS
 62
    52
100
AcDbLine
 10
109.545417
 20
236.113333
 30
0.0
 11
61.695417
 21
236.113333
 31
0.0
  0
LINE
  5
4D3
100
AcDbEntity
  8
1
  6
CONTINUOUS
 62
    52
100
AcDbLine
 10
109.545417
 20
232.813333
 30
0.0
 11
61.695417
 21
232.813333
 31
0.0
  0
CIRCLE
  5
4D4
100
AcDbEntity
  8
1
  6
CONTINUOUS
 62
    52
100
AcDbCircle
 10
85.257054
 20
225.260525
 30
0.0
 40
5.775
210
0.0
220
0.0
230
1.0
  0
CIRCLE
  5
4D5
100
AcDbEntity
  8
1
  6
CONTINUOUS
 62
    52
100
AcDbCircle
 10
64.108454
 20
294.471288
 30
0.0
 40
4.95
210
0.0
220
0.0
230
1.0
  0
CIRCLE
  5
4D6
100
AcDbEntity
  8
1
  6
CONTINUOUS
 62
    52
100
AcDbCircle
 10
64.388542
 20
277.518775
 30
0.0
 40
4.95
210
0.0
220
0.0
230
1.0
  0
CIRCLE
  5
4D7
100
AcDbEntity
  8
1
  6
CONTINUOUS
 62
    52
100
AcDbCircle
 10
64.528654
 20
260.986738
 30
0.0
 40
4.95
210
0.0
220
0.0
230
1.0
  0
CIRCLE
  5
4D8
100
AcDbEntity
  8
1
  6
CONTINUOUS
 62
    52
100
AcDbCircle
 10
64.528654
 20
244.454562
 30
0.0
 40
4.95
210
0.0
220
0.0
230
1.0
  0
CIRCLE
  5
4D9
100
AcDbEntity
  8
1
  6
CONTINUOUS
 62
    52
100
AcDbCircle
 10
106.545767
 20
244.174338
 30
0.0
 40
4.95
210
0.0
220
0.0
230
1.0
  0
CIRCLE
  5
4DA
100
AcDbEntity
  8
1
  6
CONTINUOUS
 62
    52
100
AcDbCircle
 10
106.545767
 20
260.426288
 30
0.0
 40
4.95
210
0.0
220
0.0
230
1.0
  0
CIRCLE
  5
4DB
100
AcDbEntity
  8
1
  6
CONTINUOUS
 62
    52
100
AcDbCircle
 10
106.405792
 20
277.238687
 30
0.0
 40
4.95
210
0.0
220
0.0
230
1.0
  0
CIRCLE
  5
4DC
100
AcDbEntity
  8
1
  6
CONTINUOUS
 62
    52
100
AcDbCircle
 10
106.405792
 20
293.630612
 30
0.0
 40
4.95
210
0.0
220
0.0
230
1.0
  0
CIRCLE
  5
4DD
100
AcDbEntity
  8
1
  6
CONTINUOUS
 62
    52
100
AcDbCircle
 10
93.940592
 20
277.378663
 30
0.0
 40
4.95
210
0.0
220
0.0
230
1.0
  0
CIRCLE
  5
4DE
100
AcDbEntity
  8
1
  6
CONTINUOUS
 62
    52
100
AcDbCircle
 10
65.789117
 20
227.08185
 30
0.0
 40
4.95
210
0.0
220
0.0
230
1.0
  0
CIRCLE
  5
4DF
100
AcDbEntity
  8
1
  6
CONTINUOUS
 62
    52
100
AcDbCircle
 10
95.901479
 20
223.4392
 30
0.0
 40
4.95
210
0.0
220
0.0
230
1.0
  0
CIRCLE
  5
4E0
100
AcDbEntity
  8
1
  6
CONTINUOUS
 62
    52
100
AcDbCircle
 10
-20.517708
 20
266.642113
 30
0.0
 40
4.95
210
0.0
220
0.0
230
1.0
  0
CIRCLE
  5
4E1
100
AcDbEntity
  8
1
  6
CONTINUOUS
 62
    52
100
AcDbCircle
 10
8.338179
 20
311.521563
 30
0.0
 40
4.95
210
0.0
220
0.0
230
1.0
  0
TEXT
  5
4E2
100
AcDbEntity
  8
1
  6
CONTINUOUS
 62
     7
100
AcDbText
 10
6.757083
 20
310.48925
 30
0.0
 40
2.5
  1
16
  7
MONOTXT
 72
     4
 11
8.24325
 21
311.73925
 31
0.0
210
0.0
220
0.0
230
1.0
100
AcDbText
  0
TEXT
  5
4E3
100
AcDbEntity
  8
1
  6
CONTINUOUS
 62
     7
100
AcDbText
 10
-22.127417
 20
265.418667
 30
0.0
 40
2.5
  1
15
  7
MONOTXT
 72
     4
 11
-20.582167
 21
266.668667
 31
0.0
210
0.0
220
0.0
230
1.0
100
AcDbText
  0
TEXT
  5
4E4
100
AcDbEntity
  8
1
  6
CONTINUOUS
 62
     7
100
AcDbText
 10
104.764333
 20
292.364417
 30
0.0
 40
2.5
  1
13
  7
MONOTXT
 72
     4
 11
106.309583
 21
293.614417
 31
0.0
210
0.0
220
0.0
230
1.0
100
AcDbText
  0
TEXT
  5
4E5
100
AcDbEntity
  8
1
  6
CONTINUOUS
 62
     7
100
AcDbText
 10
92.338667
 20
276.335917
 30
0.0
 40
2.5
  1
12
  7
MONOTXT
 72
     4
 11
93.883917
 21
277.585917
 31
0.0
210
0.0
220
0.0
230
1.0
100
AcDbText
  0
TEXT
  5
4E6
100
AcDbEntity
  8
1
  6
CONTINUOUS
 62
     7
100
AcDbText
 10
64.467833
 20
225.909167
 30
0.0
 40
2.5
  1
14
  7
MONOTXT
 72
     4
 11
66.072167
 21
227.159167
 31
0.0
210
0.0
220
0.0
230
1.0
100
AcDbText
  0
TEXT
  5
4E7
100
AcDbEntity
  8
1
  6
CONTINUOUS
 62
     7
100
AcDbText
 10
95.02175
 20
221.72075
 30
0.0
 40
2.5
  1
7
  7
MONOTXT
 72
     4
 11
95.868167
 21
222.97075
 31
0.0
210
0.0
220
0.0
230
1.0
100
AcDbText
  0
LINE
  5
4E8
100
AcDbEntity
  8
1
  6
CONTINUOUS
 62
     7
100
AcDbLine
 10
-1.43475
 20
194.543583
 30
0.0
 11
97.651917
 21
194.543583
 31
0.0
  0
TEXT
  5
4E9
100
AcDbEntity
  8
1
  6
CONTINUOUS
 62
     7
100
AcDbText
 10
1.363
 20
195.741583
 30
0.0
 40
4.0
  1
REMOTE BALLAST ENCLOSURE
  7
MONOTXT
 72
     4
 11
47.772417
 21
197.741583
 31
0.0
210
0.0
220
0.0
230
1.0
100
AcDbText
  0
TEXT
  5
4EA
100
AcDbEntity
  8
1
  6
HIDDEN
 62
     7
100
AcDbText
 10
435.551583
 20
142.707167
 30
0.0
 40
4.0
  1
CHASE NIPPLE WIRE INLET DETAIL
  7
MONOTXT
 72
     4
 11
488.29175
 21
144.707167
 31
0.0
210
0.0
220
0.0
230
1.0
100
AcDbText
  0
LWPOLYLINE
  5
4EB
100
AcDbEntity
  8
1
  6
CONTINUOUS
 62
     7
100
AcDbPolyline
 90
        4
 70
     0
 10
422.577167
 20
65.34675
 10
420.577167
 20
61.882667
 10
424.577167
 20
61.882667
 10
422.577167
 20
65.34675
  0
TEXT
  5
4EC
100
AcDbEntity
  8
1
  6
CONTINUOUS
 62
     7
100
AcDbText
 10
421.88625
 20
62.199917
 30
0.0
 40
2.0
  1
5
  7
MONOTXT
210
0.0
220
0.0
230
1.0
100
AcDbText
  0
TEXT
  5
4ED
100
AcDbEntity
  8
1
  6
CONTINUOUS
 62
     7
100
AcDbText
 10
424.97175
 20
62.39125
 30
0.0
 40
2.0
  1
ADDED REMOTE BALLAST AND ENCLOSURE DETAILS AND NOTE
  7
MONOTXT
210
0.0
220
0.0
230
1.0
100
AcDbText
  0
LWPOLYLINE
  5
4EE
100
AcDbEntity
  8
1
  6
CONTINUOUS
 62
     7
100
AcDbPolyline
 90
        4
 70
     0
 10
425.514833
 20
-14.80125
 10
423.514833
 20
-18.265333
 10
427.514833
 20
-18.265333
 10
425.514833
 20
-14.80125
  0
TEXT
  5
4EF
100
AcDbEntity
  8
1
  6
CONTINUOUS
 62
     7
100
AcDbText
 10
424.910917
 20
-18.02375
 30
0.0
 40
2.0
  1
5
  7
MONOTXT
210
0.0
220
0.0
230
1.0
100
AcDbText
  0
TEXT
  5
4F0
100
AcDbEntity
  8
1
  6
CONTINUOUS
 62
     7
100
AcDbText
 10
433.08275
 20
24.78475
 30
0.0
 40
6.992667
  1
SIGN LIGHTING - ENCLOSURES
  7
TXT
 72
     1
 11
508.647
 21
31.777417
 31
0.0
210
0.0
220
0.0
230
1.0
100
AcDbText
 73
     3
  0
TEXT
  5
4F1
100
AcDbEntity
  8
1
  6
CONTINUOUS
 62
     7
100
AcDbText
 10
451.258417
 20
15.792083
 30
0.0
 40
6.992667
  1
WITH REMOTE BALLAST
  7
TXT
 72
     1
 11
508.647
 21
22.78475
 31
0.0
210
0.0
220
0.0
230
1.0
100
AcDbText
 73
     3
  0
TEXT
  5
4F2
100
AcDbEntity
  8
1
  6
CONTINUOUS
 62
     1
100
AcDbText
 10
486.414083
 20
-39.446667
 30
0.0
 40
1.2
  1
FILENAME = TE63B.DGN
  7
TXT
210
0.0
220
0.0
230
1.0
100
AcDbText
  0
TEXT
  5
4F3
100
AcDbEntity
  8
1
  6
CONTINUOUS
 62
     7
100
AcDbText
 10
432.979167
 20
288.699167
 30
0.0
 40
4.0
  1
#
  7
MONOTXT
 72
     4
 11
434.00275
 21
290.699167
 31
0.0
210
0.0
220
0.0
230
1.0
100
AcDbText
  0
TEXT
  5
4F4
100
AcDbEntity
  8
1
  6
CONTINUOUS
 62
     7
100
AcDbText
 10
137.632
 20
137.55275
 30
0.0
 40
4.0
  1
#
  7
MONOTXT
 72
     4
 11
138.655583
 21
139.55275
 31
0.0
210
0.0
220
0.0
230
1.0
100
AcDbText
  0
LINE
  5
4F5
100
AcDbEntity
  8
1
  6
DASHED
 62
     7
100
AcDbLine
 10
126.504
 20
176.010333
 30
0.0
 11
196.2305
 21
176.010333
 31
0.0
  0
TEXT
  5
4F6
100
AcDbEntity
  8
1
  6
CONTINUOUS
 62
     7
100
AcDbText
 10
463.814917
 20
35.043833
 30
0.0
 40
6.992667
  1
STANDARD DETAIL
  7
TXT
 72
     1
 11
508.30525
 21
42.0365
 31
0.0
210
0.0
220
0.0
230
1.0
100
AcDbText
 73
     3
  0
TEXT
  5
4F7
100
AcDbEntity
  8
1
  6
CONTINUOUS
 62
     7
100
AcDbText
 10
459.023167
 20
-33.01625
 30
0.0
 40
6.992667
  1
STANDARD SHEET TE6-3B
  7
TXT
 72
     1
 11
520.6455
 21
-26.023583
 31
0.0
210
0.0
220
0.0
230
1.0
100
AcDbText
 73
     3
  0
TEXT
  5
4F8
100
AcDbEntity
  8
1
  6
CONTINUOUS
 62
     7
100
AcDbText
 10
365.557417
 20
347.253333
 30
0.0
 40
2.5
  1
REMOTE BALLAST ENCLOSURE:
  7
MONOTXT
 11
365.557417
 21
349.753333
 31
0.0
210
0.0
220
0.0
230
1.0
100
AcDbText
 73
     3
  0
TEXT
  5
4F9
100
AcDbEntity
  8
1
  6
CONTINUOUS
 62
     7
100
AcDbText
 10
365.557417
 20
342.753333
 30
0.0
 40
2.5
  1
 
  7
MONOTXT
 11
365.557417
 21
345.253333
 31
0.0
210
0.0
220
0.0
230
1.0
100
AcDbText
 73
     3
  0
TEXT
  5
4FA
100
AcDbEntity
  8
1
  6
CONTINUOUS
 62
     7
100
AcDbText
 10
365.557417
 20
338.253333
 30
0.0
 40
2.5
  1
THIS SHALL BE NEMA 3R OF MINIMUM OUTSIDE DIMENSIONS OF 660mm x 430mm AND MUST MEET
  7
MONOTXT
 11
365.557417
 21
340.753333
 31
0.0
210
0.0
220
0.0
230
1.0
100
AcDbText
 73
     3
  0
TEXT
  5
4FB
100
AcDbEntity
  8
1
  6
CONTINUOUS
 62
     7
100
AcDbText
 10
365.557417
 20
333.753333
 30
0.0
 40
2.5
  1
REQUIREMENTS OF POLE MOUNTED DETECTOR AND FLASHER UNIT CABINETS WITH EXCEPTION TO SIZE. SEE
  7
MONOTXT
 11
365.557417
 21
336.253333
 31
0.0
210
0.0
220
0.0
230
1.0
100
AcDbText
 73
     3
  0
TEXT
  5
4FC
100
AcDbEntity
  8
1
  6
CONTINUOUS
 62
     7
100
AcDbText
 10
365.557417
 20
329.253333
 30
0.0
 40
2.5
  1
STANDARD SPECIFICATIONS SECTION 715.42.8. MOUNT APPROXIMATELY 150mm ABOVE DISTRIBUTION ENCLOSURE.
  7
MONOTXT
 11
365.557417
 21
331.753333
 31
0.0
210
0.0
220
0.0
230
1.0
100
AcDbText
 73
     3
  0
TEXT
  5
4FD
100
AcDbEntity
  8
1
  6
CONTINUOUS
 62
     7
100
AcDbText
 10
365.557417
 20
324.753333
 30
0.0
 40
2.5
  1
 
  7
MONOTXT
 11
365.557417
 21
327.253333
 31
0.0
210
0.0
220
0.0
230
1.0
100
AcDbText
 73
     3
  0
TEXT
  5
4FE
100
AcDbEntity
  8
1
  6
CONTINUOUS
 62
     7
100
AcDbText
 10
365.557417
 20
320.253333
 30
0.0
 40
2.5
  1
EACH SIGN LIGHTING FIXTURE MUST BE ON A SEPARATELY WIRED CIRCUIT FROM THE REMOTE BALLAST
  7
MONOTXT
 11
365.557417
 21
322.753333
 31
0.0
210
0.0
220
0.0
230
1.0
100
AcDbText
 73
     3
  0
TEXT
  5
4FF
100
AcDbEntity
  8
1
  6
CONTINUOUS
 62
     7
100
AcDbText
 10
365.557417
 20
315.753333
 30
0.0
 40
2.5
  1
ASSEMBLY. A MINIMUM OF EIGHT (8) FUSED TERMINALS MUST BE PROVIDED ON THE REMOTE BALLAST BACK
  7
MONOTXT
 11
365.557417
 21
318.253333
 31
0.0
210
0.0
220
0.0
230
1.0
100
AcDbText
 73
     3
  0
TEXT
  5
500
100
AcDbEntity
  8
1
  6
CONTINUOUS
 62
     7
100
AcDbText
 10
365.557417
 20
311.253333
 30
0.0
 40
2.5
  1
PANEL FOR FUSING THE LINE SIDE OF EACH BALLAST. NO FUSING IS TO BE INSTALLED IN THE SIGN LIGHT-
  7
MONOTXT
 11
365.557417
 21
313.753333
 31
0.0
210
0.0
220
0.0
230
1.0
100
AcDbText
 73
     3
  0
TEXT
  5
501
100
AcDbEntity
  8
1
  6
CONTINUOUS
 62
     7
100
AcDbText
 10
365.557417
 20
306.753333
 30
0.0
 40
2.5
  1
ING FIXTURE BETWEEN THE FIXTURE AND THE BALLAST ASSEMBLY.
  7
MONOTXT
 11
365.557417
 21
309.253333
 31
0.0
210
0.0
220
0.0
230
1.0
100
AcDbText
 73
     3
  0
TEXT
  5
502
100
AcDbEntity
  8
1
  6
CONTINUOUS
 62
     7
100
AcDbText
 10
365.980333
 20
299.233083
 30
0.0
 40
2.5
  1
DISTRIBUTION ENCLOSURE:
  7
MONOTXT
 11
365.980333
 21
301.733083
 31
0.0
210
0.0
220
0.0
230
1.0
100
AcDbText
 73
     3
  0
TEXT
  5
503
100
AcDbEntity
  8
1
  6
CONTINUOUS
 62
     7
100
AcDbText
 10
365.980333
 20
294.733083
 30
0.0
 40
2.5
  1
 
  7
MONOTXT
 11
365.980333
 21
297.233083
 31
0.0
210
0.0
220
0.0
230
1.0
100
AcDbText
 73
     3
  0
TEXT
  5
504
100
AcDbEntity
  8
1
  6
CONTINUOUS
 62
     7
100
AcDbText
 10
365.980333
 20
290.233083
 30
0.0
 40
2.5
  1
THE ENCLOSURE SHALL BE NEMA  4 WATERTIGHT 1.9mm MIN. GAUGE STAINLESS STEEL AISI 302-303. 
  7
MONOTXT
 11
365.980333
 21
292.733083
 31
0.0
210
0.0
220
0.0
230
1.0
100
AcDbText
 73
     3
  0
TEXT
  5
505
100
AcDbEntity
  8
1
  6
CONTINUOUS
 62
     7
100
AcDbText
 10
365.980333
 20
285.733083
 30
0.0
 40
2.5
  1
A DISCONNECT HANDLE SHALL BE FLANGE MOUNTED AND CAPABLE OF BEING LOCKED IN EITHER POSITION. 
  7
MONOTXT
 11
365.980333
 21
288.233083
 31
0.0
210
0.0
220
0.0
230
1.0
100
AcDbText
 73
     3
  0
TEXT
  5
506
100
AcDbEntity
  8
1
  6
CONTINUOUS
 62
     7
100
AcDbText
 10
365.980333
 20
281.233083
 30
0.0
 40
2.5
  1
THE ENCLOSURE SHALL BE EQUIPPED WITH A DOOR LOCKING MECHANISM WITH A DEFEATER THAT 
  7
MONOTXT
 11
365.980333
 21
283.733083
 31
0.0
210
0.0
220
0.0
230
1.0
100
AcDbText
 73
     3
  0
TEXT
  5
507
100
AcDbEntity
  8
1
  6
CONTINUOUS
 62
     7
100
AcDbText
 10
365.980333
 20
276.733083
 30
0.0
 40
2.5
  1
NECESSITATES TWO HANDS TO OPERATE MECHANISM WITH THE SWITCH IN OFF POSITION. SPACE FOR AN 
  7
MONOTXT
 11
365.980333
 21
279.233083
 31
0.0
210
0.0
220
0.0
230
1.0
100
AcDbText
 73
     3
  0
TEXT
  5
508
100
AcDbEntity
  8
1
  6
CONTINUOUS
 62
     7
100
AcDbText
 10
365.980333
 20
272.233083
 30
0.0
 40
2.5
  1
INSULATED CHASE NIPPLE SHALL BE PROVIDED APPROXIMATELY 60mm ABOVE THE CENTER LINE OF THE 
  7
MONOTXT
 11
365.980333
 21
274.733083
 31
0.0
210
0.0
220
0.0
230
1.0
100
AcDbText
 73
     3
  0
TEXT
  5
509
100
AcDbEntity
  8
1
  6
CONTINUOUS
 62
     7
100
AcDbText
 10
365.980333
 20
267.733083
 30
0.0
 40
2.5
  1
LOWER MOUNTING SLOT THIS ENCLOSURE AND STRUCTURE SHALL BE SHOP DRILLED AND TAPPED FOR THE 
  7
MONOTXT
 11
365.980333
 21
270.233083
 31
0.0
210
0.0
220
0.0
230
1.0
100
AcDbText
 73
     3
  0
TEXT
  5
50A
100
AcDbEntity
  8
1
  6
CONTINUOUS
 62
     7
100
AcDbText
 10
365.980333
 20
263.233083
 30
0.0
 40
2.5
  1
REQUIRED NIPPLE AS SHOWN ON THE DETAIL ON THIS SHEET. THIS ENCLOSURE SHALL BE FLANGE MOUNTED 
  7
MONOTXT
 11
365.980333
 21
265.733083
 31
0.0
210
0.0
220
0.0
230
1.0
100
AcDbText
 73
     3
  0
TEXT
  5
50B
100
AcDbEntity
  8
1
  6
CONTINUOUS
 62
     7
100
AcDbText
 10
365.980333
 20
258.733083
 30
0.0
 40
2.5
  1
ON BRACKETS WHICH ARE ATTACHED TO POLE AS SHOWN ON THIS SHEET ON THE MOUNTING BRACKET DETAIL. 
  7
MONOTXT
 11
365.980333
 21
261.233083
 31
0.0
210
0.0
220
0.0
230
1.0
100
AcDbText
 73
     3
  0
TEXT
  5
50C
100
AcDbEntity
  8
1
  6
CONTINUOUS
 62
     7
100
AcDbText
 10
275.973
 20
310.189417
 30
0.0
 40
2.5
  1
150mm
  7
MONOTXT
 72
     4
 11
282.114667
 21
311.439417
 31
0.0
210
0.0
220
0.0
230
1.0
100
AcDbText
  0
TEXT
  5
50D
100
AcDbEntity
  8
1
  6
CONTINUOUS
 62
     7
100
AcDbText
 10
125.613167
 20
287.238833
 30
0.0
 40
2.5
  1
 1    BARRIER TYPE TERMINAL BLOCK
  7
MONOTXT
 11
125.613167
 21
289.738833
 31
0.0
210
0.0
220
0.0
230
1.0
100
AcDbText
 73
     3
  0
TEXT
  5
50E
100
AcDbEntity
  8
1
  6
CONTINUOUS
 62
     7
100
AcDbText
 10
125.613167
 20
282.738833
 30
0.0
 40
2.5
  1
 
  7
MONOTXT
 11
125.613167
 21
285.238833
 31
0.0
210
0.0
220
0.0
230
1.0
100
AcDbText
 73
     3
  0
TEXT
  5
50F
100
AcDbEntity
  8
1
  6
CONTINUOUS
 62
     7
100
AcDbText
 10
125.613167
 20
278.238833
 30
0.0
 40
2.5
  1
 2  MAIN CIRCUIT BREAKER
  7
MONOTXT
 11
125.613167
 21
280.738833
 31
0.0
210
0.0
220
0.0
230
1.0
100
AcDbText
 73
     3
  0
TEXT
  5
510
100
AcDbEntity
  8
1
  6
CONTINUOUS
 62
     7
100
AcDbText
 10
125.613167
 20
273.738833
 30
0.0
 40
2.5
  1
 
  7
MONOTXT
 11
125.613167
 21
276.238833
 31
0.0
210
0.0
220
0.0
230
1.0
100
AcDbText
 73
     3
  0
TEXT
  5
511
100
AcDbEntity
  8
1
  6
CONTINUOUS
 62
     7
100
AcDbText
 10
125.613167
 20
269.238833
 30
0.0
 40
2.5
  1
 3  MANUAL-OFF-AUTOMATIC SELECTOR
  7
MONOTXT
 11
125.613167
 21
271.738833
 31
0.0
210
0.0
220
0.0
230
1.0
100
AcDbText
 73
     3
  0
TEXT
  5
512
100
AcDbEntity
  8
1
  6
CONTINUOUS
 62
     7
100
AcDbText
 10
125.613167
 20
264.738833
 30
0.0
 40
2.5
  1
    SWITCH
  7
MONOTXT
 11
125.613167
 21
267.238833
 31
0.0
210
0.0
220
0.0
230
1.0
100
AcDbText
 73
     3
  0
TEXT
  5
513
100
AcDbEntity
  8
1
  6
CONTINUOUS
 62
     7
100
AcDbText
 10
125.613167
 20
260.238833
 30
0.0
 40
2.5
  1
 
  7
MONOTXT
 11
125.613167
 21
262.738833
 31
0.0
210
0.0
220
0.0
230
1.0
100
AcDbText
 73
     3
  0
TEXT
  5
514
100
AcDbEntity
  8
1
  6
CONTINUOUS
 62
     7
100
AcDbText
 10
125.613167
 20
255.738833
 30
0.0
 40
2.5
  1
 4  SOLID NEUTRAL GROUNDED
  7
MONOTXT
 11
125.613167
 21
258.238833
 31
0.0
210
0.0
220
0.0
230
1.0
100
AcDbText
 73
     3
  0
TEXT
  5
515
100
AcDbEntity
  8
1
  6
CONTINUOUS
 62
     7
100
AcDbText
 10
125.613167
 20
251.238833
 30
0.0
 40
2.5
  1
 
  7
MONOTXT
 11
125.613167
 21
253.738833
 31
0.0
210
0.0
220
0.0
230
1.0
100
AcDbText
 73
     3
  0
TEXT
  5
516
100
AcDbEntity
  8
1
  6
CONTINUOUS
 62
     7
100
AcDbText
 10
125.613167
 20
246.738833
 30
0.0
 40
2.5
  1
 5  120 VOLT CONTACTOR
  7
MONOTXT
 11
125.613167
 21
249.238833
 31
0.0
210
0.0
220
0.0
230
1.0
100
AcDbText
 73
     3
  0
TEXT
  5
517
100
AcDbEntity
  8
1
  6
CONTINUOUS
 62
     7
100
AcDbText
 10
125.613167
 20
242.238833
 30
0.0
 40
2.5
  1
 
  7
MONOTXT
 11
125.613167
 21
244.738833
 31
0.0
210
0.0
220
0.0
230
1.0
100
AcDbText
 73
     3
  0
TEXT
  5
518
100
AcDbEntity
  8
1
  6
CONTINUOUS
 62
     7
100
AcDbText
 10
125.613167
 20
237.738833
 30
0.0
 40
2.5
  1
 6  P.E. UNIT TERMINAL STRIP
  7
MONOTXT
 11
125.613167
 21
240.238833
 31
0.0
210
0.0
220
0.0
230
1.0
100
AcDbText
 73
     3
  0
TEXT
  5
519
100
AcDbEntity
  8
1
  6
CONTINUOUS
 62
     7
100
AcDbText
 10
125.613167
 20
233.238833
 30
0.0
 40
2.5
  1
 
  7
MONOTXT
 11
125.613167
 21
235.738833
 31
0.0
210
0.0
220
0.0
230
1.0
100
AcDbText
 73
     3
  0
TEXT
  5
51A
100
AcDbEntity
  8
1
  6
CONTINUOUS
 62
     7
100
AcDbText
 10
125.613167
 20
228.738833
 30
0.0
 40
2.5
  1
 7  CHASE NIPPLE
  7
MONOTXT
 11
125.613167
 21
231.238833
 31
0.0
210
0.0
220
0.0
230
1.0
100
AcDbText
 73
     3
  0
TEXT
  5
51B
100
AcDbEntity
  8
1
  6
CONTINUOUS
 62
     7
100
AcDbText
 10
125.613167
 20
224.238833
 30
0.0
 40
2.5
  1
 
  7
MONOTXT
 11
125.613167
 21
226.738833
 31
0.0
210
0.0
220
0.0
230
1.0
100
AcDbText
 73
     3
  0
TEXT
  5
51C
100
AcDbEntity
  8
1
  6
CONTINUOUS
 62
     7
100
AcDbText
 10
125.613167
 20
219.738833
 30
0.0
 40
2.5
  1
 8  120 VOLT P.E. UNIT (PHOTOCELL-
  7
MONOTXT
 11
125.613167
 21
222.238833
 31
0.0
210
0.0
220
0.0
230
1.0
100
AcDbText
 73
     3
  0
TEXT
  5
51D
100
AcDbEntity
  8
1
  6
CONTINUOUS
 62
     7
100
AcDbText
 10
125.613167
 20
215.238833
 30
0.0
 40
2.5
  1
    TWISTLOCK TYPE, STANDARD
  7
MONOTXT
 11
125.613167
 21
217.738833
 31
0.0
210
0.0
220
0.0
230
1.0
100
AcDbText
 73
     3
  0
TEXT
  5
51E
100
AcDbEntity
  8
1
  6
CONTINUOUS
 62
     7
100
AcDbText
 10
125.613167
 20
210.738833
 30
0.0
 40
2.5
  1
    NEMA WITH 70mm ID LOCKING
  7
MONOTXT
 11
125.613167
 21
213.238833
 31
0.0
210
0.0
220
0.0
230
1.0
100
AcDbText
 73
     3
  0
TEXT
  5
51F
100
AcDbEntity
  8
1
  6
CONTINUOUS
 62
     7
100
AcDbText
 10
125.613167
 20
206.238833
 30
0.0
 40
2.5
  1
    BASE)
  7
MONOTXT
 11
125.613167
 21
208.738833
 31
0.0
210
0.0
220
0.0
230
1.0
100
AcDbText
 73
     3
  0
TEXT
  5
520
100
AcDbEntity
  8
1
  6
CONTINUOUS
 62
     7
100
AcDbText
 10
125.613167
 20
201.738833
 30
0.0
 40
2.5
  1
 
  7
MONOTXT
 11
125.613167
 21
204.238833
 31
0.0
210
0.0
220
0.0
230
1.0
100
AcDbText
 73
     3
  0
TEXT
  5
521
100
AcDbEntity
  8
1
  6
CONTINUOUS
 62
     7
100
AcDbText
 10
125.613167
 20
197.238833
 30
0.0
 40
2.5
  1
 9  LOCKABLE SAFETY SWITCH
  7
MONOTXT
 11
125.613167
 21
199.738833
 31
0.0
210
0.0
220
0.0
230
1.0
100
AcDbText
 73
     3
  0
TEXT
  5
522
100
AcDbEntity
  8
1
  6
CONTINUOUS
 62
     7
100
AcDbText
 10
125.613167
 20
192.738833
 30
0.0
 40
2.5
  1
 
  7
MONOTXT
 11
125.613167
 21
195.238833
 31
0.0
210
0.0
220
0.0
230
1.0
100
AcDbText
 73
     3
  0
TEXT
  5
523
100
AcDbEntity
  8
1
  6
CONTINUOUS
 62
     7
100
AcDbText
 10
125.613167
 20
188.238833
 30
0.0
 40
2.5
  1
 10  NEMA R S.S. ENCLOSURE
  7
MONOTXT
 11
125.613167
 21
190.738833
 31
0.0
210
0.0
220
0.0
230
1.0
100
AcDbText
 73
     3
  0
TEXT
  5
524
100
AcDbEntity
  8
1
  6
CONTINUOUS
 62
     7
100
AcDbText
 10
125.613167
 20
183.738833
 30
0.0
 40
2.5
  1
 
  7
MONOTXT
 11
125.613167
 21
186.238833
 31
0.0
210
0.0
220
0.0
230
1.0
100
AcDbText
 73
     3
  0
TEXT
  5
525
100
AcDbEntity
  8
1
  6
CONTINUOUS
 62
     7
100
AcDbText
 10
125.613167
 20
179.238833
 30
0.0
 40
2.5
  1
 11    ENCLOSURE DOOR INTERLOCK
  7
MONOTXT
 11
125.613167
 21
181.738833
 31
0.0
210
0.0
220
0.0
230
1.0
100
AcDbText
 73
     3
  0
TEXT
  5
526
100
AcDbEntity
  8
1
  6
CONTINUOUS
 62
     7
100
AcDbText
 10
125.613167
 20
174.738833
 30
0.0
 40
2.5
  1
 
  7
MONOTXT
 11
125.613167
 21
177.238833
 31
0.0
210
0.0
220
0.0
230
1.0
100
AcDbText
 73
     3
  0
TEXT
  5
527
100
AcDbEntity
  8
1
  6
CONTINUOUS
 62
     7
100
AcDbText
 10
125.613167
 20
170.238833
 30
0.0
 40
2.5
  1
 12  BALLAST
  7
MONOTXT
 11
125.613167
 21
172.738833
 31
0.0
210
0.0
220
0.0
230
1.0
100
AcDbText
 73
     3
  0
TEXT
  5
528
100
AcDbEntity
  8
1
  6
CONTINUOUS
 62
     7
100
AcDbText
 10
125.613167
 20
165.738833
 30
0.0
 40
2.5
  1
 
  7
MONOTXT
 11
125.613167
 21
168.238833
 31
0.0
210
0.0
220
0.0
230
1.0
100
AcDbText
 73
     3
  0
TEXT
  5
529
100
AcDbEntity
  8
1
  6
CONTINUOUS
 62
     7
100
AcDbText
 10
125.613167
 20
161.238833
 30
0.0
 40
2.5
  1
 13  CAPACITOR
  7
MONOTXT
 11
125.613167
 21
163.738833
 31
0.0
210
0.0
220
0.0
230
1.0
100
AcDbText
 73
     3
  0
TEXT
  5
52A
100
AcDbEntity
  8
1
  6
CONTINUOUS
 62
     7
100
AcDbText
 10
125.613167
 20
156.738833
 30
0.0
 40
2.5
  1
 
  7
MONOTXT
 11
125.613167
 21
159.238833
 31
0.0
210
0.0
220
0.0
230
1.0
100
AcDbText
 73
     3
  0
TEXT
  5
52B
100
AcDbEntity
  8
1
  6
CONTINUOUS
 62
     7
100
AcDbText
 10
125.613167
 20
152.238833
 30
0.0
 40
2.5
  1
 14  TERMINAL STRIPS
  7
MONOTXT
 11
125.613167
 21
154.738833
 31
0.0
210
0.0
220
0.0
230
1.0
100
AcDbText
 73
     3
  0
TEXT
  5
52C
100
AcDbEntity
  8
1
  6
CONTINUOUS
 62
     7
100
AcDbText
 10
125.613167
 20
147.738833
 30
0.0
 40
2.5
  1
 
  7
MONOTXT
 11
125.613167
 21
150.238833
 31
0.0
210
0.0
220
0.0
230
1.0
100
AcDbText
 73
     3
  0
TEXT
  5
52D
100
AcDbEntity
  8
1
  6
CONTINUOUS
 62
     7
100
AcDbText
 10
125.613167
 20
143.238833
 30
0.0
 40
2.5
  1
 15  'CORBIN' TYPE LOCK SERIES
  7
MONOTXT
 11
125.613167
 21
145.738833
 31
0.0
210
0.0
220
0.0
230
1.0
100
AcDbText
 73
     3
  0
TEXT
  5
52E
100
AcDbEntity
  8
1
  6
CONTINUOUS
 62
     7
100
AcDbText
 10
125.613167
 20
138.738833
 30
0.0
 40
2.5
  1
      R357SGS
  7
MONOTXT
 11
125.613167
 21
141.238833
 31
0.0
210
0.0
220
0.0
230
1.0
100
AcDbText
 73
     3
  0
TEXT
  5
52F
100
AcDbEntity
  8
1
  6
CONTINUOUS
 62
     7
100
AcDbText
 10
125.613167
 20
134.238833
 30
0.0
 40
2.5
  1
 
  7
MONOTXT
 11
125.613167
 21
136.738833
 31
0.0
210
0.0
220
0.0
230
1.0
100
AcDbText
 73
     3
  0
TEXT
  5
530
100
AcDbEntity
  8
1
  6
CONTINUOUS
 62
     7
100
AcDbText
 10
125.613167
 20
129.738833
 30
0.0
 40
2.5
  1
 16  VENT
  7
MONOTXT
 11
125.613167
 21
132.238833
 31
0.0
210
0.0
220
0.0
230
1.0
100
AcDbText
 73
     3
  0
TEXT
  5
531
100
AcDbEntity
  8
1
  6
CONTINUOUS
 62
     7
100
AcDbText
 10
523.680333
 20
201.135083
 30
0.0
 40
2.5
  1
INSULATED CHASE NIPPLE
  7
MONOTXT
 11
523.680333
 21
203.635083
 31
0.0
210
0.0
220
0.0
230
1.0
100
AcDbText
 73
     3
  0
TEXT
  5
532
100
AcDbEntity
  8
1
  6
CONTINUOUS
 62
     7
100
AcDbText
 10
523.680333
 20
196.635083
 30
0.0
 40
2.5
  1
MIN. OF 38mm OR AS REQ'D.
  7
MONOTXT
 11
523.680333
 21
199.135083
 31
0.0
210
0.0
220
0.0
230
1.0
100
AcDbText
 73
     3
  0
LWPOLYLINE
  5
533
100
AcDbEntity
  8
1
  6
CONTINUOUS
 62
     7
100
AcDbPolyline
 90
        4
 70
     0
 10
422.577167
 20
61.032167
 10
420.577167
 20
57.568083
 10
424.577167
 20
57.568083
 10
422.577167
 20
61.032167
  0
TEXT
  5
534
100
AcDbEntity
  8
1
  6
DASHED
 62
     7
100
AcDbText
 10
422.018417
 20
57.797
 30
0.0
 40
2.0
  1
6
  7
MONOTXT
 72
     4
 11
422.640417
 21
58.797
 31
0.0
210
0.0
220
0.0
230
1.0
100
AcDbText
  0
TEXT
  5
535
100
AcDbEntity
  8
1
  6
CONTINUOUS
 62
     7
100
AcDbText
 10
424.97175
 20
58.076667
 30
0.0
 40
2.0
  1
ADDED METRIC
  7
MONOTXT
210
0.0
220
0.0
230
1.0
100
AcDbText
  0
LWPOLYLINE
  5
536
100
AcDbEntity
  8
1
  6
CONTINUOUS
 62
     7
100
AcDbPolyline
 90
        4
 70
     0
 10
422.3435
 20
83.129583
 10
420.3435
 20
79.6655
 10
424.3435
 20
79.6655
 10
422.3435
 20
83.129583
  0
TEXT
  5
537
100
AcDbEntity
  8
1
  6
CONTINUOUS
 62
     7
100
AcDbText
 10
316.917917
 20
169.753833
 30
0.0
 40
2.52
  1
FIELD DRILL POLE
  7
MONOTXT
 11
316.917917
 21
172.273833
 31
0.0
210
0.0
220
0.0
230
1.0
100
AcDbText
 73
     3
  0
TEXT
  5
538
100
AcDbEntity
  8
1
  6
CONTINUOUS
 62
     7
100
AcDbText
 10
316.917917
 20
165.233833
 30
0.0
 40
2.52
  1
7.4mm DIA. DRILL - 4 HOLES.
  7
MONOTXT
 11
316.917917
 21
167.753833
 31
0.0
210
0.0
220
0.0
230
1.0
100
AcDbText
 73
     3
  0
TEXT
  5
539
100
AcDbEntity
  8
1
  6
CONTINUOUS
 62
     7
100
AcDbText
 10
322.777917
 20
149.913833
 30
0.0
 40
2.52
  1
 7.9mm DIA. x  19mm
  7
MONOTXT
 11
322.777917
 21
152.433833
 31
0.0
210
0.0
220
0.0
230
1.0
100
AcDbText
 73
     3
  0
TEXT
  5
53A
100
AcDbEntity
  8
1
  6
CONTINUOUS
 62
     7
100
AcDbText
 10
322.777917
 20
145.393833
 30
0.0
 40
2.52
  1
HEX. HD. SELF TAPPING SCREWS
  7
MONOTXT
 11
322.777917
 21
147.913833
 31
0.0
210
0.0
220
0.0
230
1.0
100
AcDbText
 73
     3
  0
TEXT
  5
53B
100
AcDbEntity
  8
1
  6
CONTINUOUS
 62
     7
100
AcDbText
 10
337.817917
 20
137.973833
 30
0.0
 40
2.52
  1
 4.8mm x 51mm BAR STOCK
  7
MONOTXT
210
0.0
220
0.0
230
1.0
100
AcDbText
  0
TEXT
  5
53C
100
AcDbEntity
  8
1
  6
CONTINUOUS
 62
     7
100
AcDbText
 10
311.663833
 20
102.377833
 30
0.0
 40
2.52
  1
13mm
  7
MONOTXT
210
0.0
220
0.0
230
1.0
100
AcDbText
  0
TEXT
  5
53D
100
AcDbEntity
  8
1
  6
CONTINUOUS
 62
     7
100
AcDbText
 10
241.736417
 20
144.581583
 30
0.0
 40
2.52
  1
 13mm
 50
35.000567
  7
MONOTXT
 11
240.290984
 21
146.645832
 31
0.0
210
0.0
220
0.0
230
1.0
100
AcDbText
 73
     3
  0
TEXT
  5
53E
100
AcDbEntity
  8
1
  6
CONTINUOUS
 62
     7
100
AcDbText
 10
230.82475
 20
156.2855
 30
0.0
 40
2.52
  1
12.5mm
 50
35.000567
  7
MONOTXT
 11
229.379317
 21
158.349749
 31
0.0
210
0.0
220
0.0
230
1.0
100
AcDbText
 73
     3
  0
TEXT
  5
53F
100
AcDbEntity
  8
1
  6
CONTINUOUS
 62
     7
100
AcDbText
 10
196.881333
 20
132.755083
 30
0.0
 40
2.52
  1
 12.5mm
 50
35.000567
  7
MONOTXT
 11
195.4359
 21
134.819332
 31
0.0
210
0.0
220
0.0
230
1.0
100
AcDbText
 73
     3
  0
TEXT
  5
540
100
AcDbEntity
  8
1
  6
CONTINUOUS
 62
     7
100
AcDbText
 10
216.977917
 20
125.333833
 30
0.0
 40
2.52
  1
114mm
 50
304.99985
  7
MONOTXT
 11
219.042184
 21
126.779241
 31
0.0
210
0.0
220
0.0
230
1.0
100
AcDbText
 73
     3
  0
TEXT
  5
541
100
AcDbEntity
  8
1
  6
CONTINUOUS
 62
     7
100
AcDbText
 10
211.956333
 20
152.249917
 30
0.0
 40
2.52
  1
25mm
 50
35.000567
  7
MONOTXT
 11
210.5109
 21
154.314166
 31
0.0
210
0.0
220
0.0
230
1.0
100
AcDbText
 73
     3
  0
ARC
  5
542
100
AcDbEntity
  8
1
  6
CONTINUOUS
 62
     1
100
AcDbCircle
 10
299.25401
 20
199.232677
 30
0.0
 40
77.150941
210
0.0
220
0.0
230
1.0
100
AcDbArc
 50
206.852594
 51
209.530582
  0
ARC
  5
543
100
AcDbEntity
  8
1
  6
CONTINUOUS
 62
     1
100
AcDbCircle
 10
299.25401
 20
199.232677
 30
0.0
 40
77.150941
210
0.0
220
0.0
230
1.0
100
AcDbArc
 50
212.300432
 51
214.711428
  0
LINE
  5
544
100
AcDbEntity
  8
1
  6
CONTINUOUS
 62
     1
100
AcDbLine
 10
311.485367
 20
117.493833
 30
0.0
 11
330.837917
 21
117.493833
 31
0.0
  0
TEXT
  5
545
100
AcDbEntity
  8
1
  6
CONTINUOUS
 62
     7
100
AcDbText
 10
297.517917
 20
116.013833
 30
0.0
 40
2.52
  1
232mm 
  7
MONOTXT
210
0.0
220
0.0
230
1.0
100
AcDbText
  0
TEXT
  5
546
100
AcDbEntity
  8
1
  6
CONTINUOUS
 62
     7
100
AcDbText
 10
183.147
 20
95.020417
 30
0.0
 40
2.52
  1
16mm x 64mm 
  7
MONOTXT
210
0.0
220
0.0
230
1.0
100
AcDbText
  0
TEXT
  5
547
100
AcDbEntity
  8
1
  6
CONTINUOUS
 62
     7
100
AcDbText
 10
183.147
 20
90.500417
 30
0.0
 40
2.52
  1
HEX. HEAD MACHINE BOLT
  7
MONOTXT
210
0.0
220
0.0
230
1.0
100
AcDbText
  0
TEXT
  5
548
100
AcDbEntity
  8
1
  6
CONTINUOUS
 62
     7
100
AcDbText
 10
168.3045
 20
105.833
 30
0.0
 40
2.52
  1
FORMED HINGE TO BE
  7
MONOTXT
 11
168.3045
 21
108.353
 31
0.0
210
0.0
220
0.0
230
1.0
100
AcDbText
 73
     3
  0
TEXT
  5
549
100
AcDbEntity
  8
1
  6
CONTINUOUS
 62
     7
100
AcDbText
 10
168.3045
 20
101.313
 30
0.0
 40
2.52
  1
SNUG FIT ON  16mm BOLT
  7
MONOTXT
 11
168.3045
 21
103.833
 31
0.0
210
0.0
220
0.0
230
1.0
100
AcDbText
 73
     3
  0
TEXT
  5
54A
100
AcDbEntity
  8
1
  6
CONTINUOUS
 62
     7
100
AcDbText
 10
228.937917
 20
40.433833
 30
0.0
 40
2.52
  1
190.5mm
  7
MONOTXT
210
0.0
220
0.0
230
1.0
100
AcDbText
  0
TEXT
  5
54B
100
AcDbEntity
  8
1
  6
CONTINUOUS
 62
     7
100
AcDbText
 10
246.817917
 20
46.193833
 30
0.0
 40
2.52
  1
76.2mm
  7
MONOTXT
210
0.0
220
0.0
230
1.0
100
AcDbText
  0
TEXT
  5
54C
100
AcDbEntity
  8
1
  6
CONTINUOUS
 62
     7
100
AcDbText
 10
257.177083
 20
38.757417
 30
0.0
 40
3.024
  1
 18mm
  7
MONOTXT
210
0.0
220
0.0
230
1.0
100
AcDbText
  0
TEXT
  5
54D
100
AcDbEntity
  8
1
  6
CONTINUOUS
 62
     7
100
AcDbText
 10
258.590583
 20
76.715333
 30
0.0
 40
3.528
  1
16mm
  7
MONOTXT
210
0.0
220
0.0
230
1.0
100
AcDbText
  0
TEXT
  5
54E
100
AcDbEntity
  8
1
  6
CONTINUOUS
 62
     7
100
AcDbText
 10
304.4525
 20
77.214583
 30
0.0
 40
2.52
  1
88.9mm
  7
MONOTXT
210
0.0
220
0.0
230
1.0
100
AcDbText
  0
TEXT
  5
54F
100
AcDbEntity
  8
1
  6
CONTINUOUS
 62
     7
100
AcDbText
 10
330.532583
 20
77.413833
 30
0.0
 40
2.52
  1
88.9mm
  7
MONOTXT
210
0.0
220
0.0
230
1.0
100
AcDbText
  0
TEXT
  5
550
100
AcDbEntity
  8
1
  6
CONTINUOUS
 62
     7
100
AcDbText
 10
358.503917
 20
78.069083
 30
0.0
 40
2.52
  1
76.2mm
  7
MONOTXT
210
0.0
220
0.0
230
1.0
100
AcDbText
  0
TEXT
  5
551
100
AcDbEntity
  8
1
  6
CONTINUOUS
 62
     7
100
AcDbText
 10
387.15875
 20
60.8985
 30
0.0
 40
2.52
  1
50mm
  7
MONOTXT
210
0.0
220
0.0
230
1.0
100
AcDbText
  0
TEXT
  5
552
100
AcDbEntity
  8
1
  6
CONTINUOUS
 62
     7
100
AcDbText
 10
379.197917
 20
45.393833
 30
0.0
 40
2.52
  1
15.5mm
  7
MONOTXT
210
0.0
220
0.0
230
1.0
100
AcDbText
  0
TEXT
  5
553
100
AcDbEntity
  8
1
  6
CONTINUOUS
 62
     7
100
AcDbText
 10
344.177917
 20
45.913833
 30
0.0
 40
2.52
  1
179.4mm
  7
MONOTXT
210
0.0
220
0.0
230
1.0
100
AcDbText
  0
TEXT
  5
554
100
AcDbEntity
  8
1
  6
CONTINUOUS
 62
     7
100
AcDbText
 10
320.997917
 20
40.613833
 30
0.0
 40
2.52
  1
358.8mm
  7
MONOTXT
210
0.0
220
0.0
230
1.0
100
AcDbText
  0
TEXT
  5
555
100
AcDbEntity
  8
1
  6
CONTINUOUS
 62
     7
100
AcDbText
 10
369.640917
 20
62.489167
 30
0.0
 40
2.52
  1
 19mm
  7
MONOTXT
210
0.0
220
0.0
230
1.0
100
AcDbText
  0
TEXT
  5
556
100
AcDbEntity
  8
1
  6
CONTINUOUS
 62
     7
100
AcDbText
 10
206.358417
 20
13.134833
 30
0.0
 40
2.5
  1
THE ENCLOSURE MOUNTING BRACKET MAY BE FABRICATED FROM EITHER GALVANIZED
  7
MONOTXT
 11
206.358417
 21
15.634833
 31
0.0
210
0.0
220
0.0
230
1.0
100
AcDbText
 73
     3
  0
TEXT
  5
557
100
AcDbEntity
  8
1
  6
CONTINUOUS
 62
     7
100
AcDbText
 10
206.358417
 20
8.634833
 30
0.0
 40
2.5
  1
STEEL OR ALUMINUM. THE BRACKET SHALL BE FIELD MOUNTED WITH  7.94mm HEX HEAD
  7
MONOTXT
 11
206.358417
 21
11.134833
 31
0.0
210
0.0
220
0.0
230
1.0
100
AcDbText
 73
     3
  0
TEXT
  5
558
100
AcDbEntity
  8
1
  6
CONTINUOUS
 62
     7
100
AcDbText
 10
206.358417
 20
4.134833
 30
0.0
 40
2.5
  1
SCREWS (SELF-TAPPING FOR ATTACHING TO STEEL OR ALUM.). STEEL NUTS, BOLTS,
  7
MONOTXT
 11
206.358417
 21
6.634833
 31
0.0
210
0.0
220
0.0
230
1.0
100
AcDbText
 73
     3
  0
TEXT
  5
559
100
AcDbEntity
  8
1
  6
CONTINUOUS
 62
     7
100
AcDbText
 10
206.358417
 20
-0.365167
 30
0.0
 40
2.5
  1
AND SCREWS SHALL BE CADMIUM PLATED. ALUMINUM NUTS, BOLTS, AND SCREWS SHALL
  7
MONOTXT
 11
206.358417
 21
2.134833
 31
0.0
210
0.0
220
0.0
230
1.0
100
AcDbText
 73
     3
  0
TEXT
  5
55A
100
AcDbEntity
  8
1
  6
CONTINUOUS
 62
     7
100
AcDbText
 10
206.358417
 20
-4.865167
 30
0.0
 40
2.5
  1
HAVE AN ANODIC COATING AT LEAST 0.005mm IN THICKNESS AND SHALL BE
  7
MONOTXT
 11
206.358417
 21
-2.365167
 31
0.0
210
0.0
220
0.0
230
1.0
100
AcDbText
 73
     3
  0
TEXT
  5
55B
100
AcDbEntity
  8
1
  6
CONTINUOUS
 62
     7
100
AcDbText
 10
206.358417
 20
-9.365167
 30
0.0
 40
2.5
  1
CHROMATE SEALED.
  7
MONOTXT
 11
206.358417
 21
-6.865167
 31
0.0
210
0.0
220
0.0
230
1.0
100
AcDbText
 73
     3
  0
TEXT
  5
55C
100
AcDbEntity
  8
1
  6
CONTINUOUS
 62
     1
100
AcDbText
 10
430.158167
 20
-17.46275
 30
0.0
 40
2.00004
  1
02-22-93
  7
MONOTXT
 72
     1
 11
437.37875
 21
-15.46275
 31
0.0
210
0.0
220
0.0
230
1.0
100
AcDbText
 73
     3
  0
TEXT
  5
55D
100
AcDbEntity
  8
1
  6
CONTINUOUS
 62
     7
100
AcDbText
 10
424.910917
 20
-22.330583
 30
0.0
 40
2.0
  1
6
  7
MONOTXT
210
0.0
220
0.0
230
1.0
100
AcDbText
  0
LWPOLYLINE
  5
55E
100
AcDbEntity
  8
1
  6
CONTINUOUS
 62
     7
100
AcDbPolyline
 90
        4
 70
     0
 10
425.514833
 20
-19.108083
 10
423.514833
 20
-22.572167
 10
427.514833
 20
-22.572167
 10
425.514833
 20
-19.108083
  0
ENDSEC
  0
SECTION
  2
OBJECTS
  0
DICTIONARY
  5
19
100
AcDbDictionary
  3
ACAD_GROUP
350
1A
  3
ACAD_MLINESTYLE
350
1B
  0
DICTIONARY
  5
1A
102
{ACAD_REACTORS
330
19
102
}
100
AcDbDictionary
  0
DICTIONARY
  5
1B
102
{ACAD_REACTORS
330
19
102
}
100
AcDbDictionary
  3
STANDARD
350
1C
  0
MLINESTYLE
  5
1C
102
{ACAD_REACTORS
330
1B
102
}
100
AcDbMlineStyle
  2
STANDARD
 70
     0
  3

 62
     0
 51
90.0
 52
90.0
 71
     2
 49
0.5
 62
   256
  6
BYLAYER
 49
-0.5
 62
   256
  6
BYLAYER
  0
ENDSEC
  0
EOF
