  0
SECTION
  2
HEADER
  9
$ACADVER
  1
AC1014
  9
$ACADMAINTVER
 70
     0
  9
$DWGCODEPAGE
  3
ANSI_1252
  9
$INSBASE
 10
0.0
 20
0.0
 30
0.0
  9
$EXTMIN
 10
-38.331
 20
-45.10025
 30
0.0
  9
$EXTMAX
 10
600.087417
 20
362.11475
 30
0.0
  9
$LIMMIN
 10
0.0
 20
0.0
  9
$LIMMAX
 10
12.0
 20
9.0
  9
$ORTHOMODE
 70
     0
  9
$REGENMODE
 70
     1
  9
$FILLMODE
 70
     1
  9
$QTEXTMODE
 70
     0
  9
$MIRRTEXT
 70
     1
  9
$DRAGMODE
 70
     2
  9
$LTSCALE
 40
1.0
  9
$OSMODE
 70
     0
  9
$ATTMODE
 70
     1
  9
$TEXTSIZE
 40
0.2
  9
$TRACEWID
 40
0.05
  9
$TEXTSTYLE
  7
STANDARD
  9
$CLAYER
  8
0
  9
$CELTYPE
  6
CONTINUOUS
  9
$CECOLOR
 62
   256
  9
$CELTSCALE
 40
1.0
  9
$DELOBJ
 70
     1
  9
$DISPSILH
 70
     0
  9
$DIMSCALE
 40
1.0
  9
$DIMASZ
 40
0.18
  9
$DIMEXO
 40
0.0625
  9
$DIMDLI
 40
0.38
  9
$DIMRND
 40
0.0
  9
$DIMDLE
 40
0.0
  9
$DIMEXE
 40
0.18
  9
$DIMTP
 40
0.0
  9
$DIMTM
 40
0.0
  9
$DIMTXT
 40
0.18
  9
$DIMCEN
 40
0.09
  9
$DIMTSZ
 40
0.0
  9
$DIMTOL
 70
     0
  9
$DIMLIM
 70
     0
  9
$DIMTIH
 70
     1
  9
$DIMTOH
 70
     1
  9
$DIMSE1
 70
     0
  9
$DIMSE2
 70
     0
  9
$DIMTAD
 70
     0
  9
$DIMZIN
 70
     0
  9
$DIMBLK
  1

  9
$DIMASO
 70
     1
  9
$DIMSHO
 70
     1
  9
$DIMPOST
  1

  9
$DIMAPOST
  1

  9
$DIMALT
 70
     0
  9
$DIMALTD
 70
     2
  9
$DIMALTF
 40
25.4
  9
$DIMLFAC
 40
1.0
  9
$DIMTOFL
 70
     0
  9
$DIMTVP
 40
0.0
  9
$DIMTIX
 70
     0
  9
$DIMSOXD
 70
     0
  9
$DIMSAH
 70
     0
  9
$DIMBLK1
  1

  9
$DIMBLK2
  1

  9
$DIMSTYLE
  2
STANDARD
  9
$DIMCLRD
 70
     0
  9
$DIMCLRE
 70
     0
  9
$DIMCLRT
 70
     0
  9
$DIMTFAC
 40
1.0
  9
$DIMGAP
 40
0.09
  9
$DIMJUST
 70
     0
  9
$DIMSD1
 70
     0
  9
$DIMSD2
 70
     0
  9
$DIMTOLJ
 70
     1
  9
$DIMTZIN
 70
     0
  9
$DIMALTZ
 70
     0
  9
$DIMALTTZ
 70
     0
  9
$DIMFIT
 70
     3
  9
$DIMUPT
 70
     0
  9
$DIMUNIT
 70
     2
  9
$DIMDEC
 70
     4
  9
$DIMTDEC
 70
     4
  9
$DIMALTU
 70
     2
  9
$DIMALTTD
 70
     2
  9
$DIMTXSTY
  7
STANDARD
  9
$DIMAUNIT
 70
     0
  9
$LUNITS
 70
     2
  9
$LUPREC
 70
     4
  9
$SKETCHINC
 40
0.1
  9
$FILLETRAD
 40
0.0
  9
$AUNITS
 70
     0
  9
$AUPREC
 70
     0
  9
$MENU
  1
acad
  9
$ELEVATION
 40
0.0
  9
$PELEVATION
 40
0.0
  9
$THICKNESS
 40
0.0
  9
$LIMCHECK
 70
     0
  9
$BLIPMODE
 70
     1
  9
$CHAMFERA
 40
0.0
  9
$CHAMFERB
 40
0.0
  9
$CHAMFERC
 40
0.0
  9
$CHAMFERD
 40
0.0
  9
$SKPOLY
 70
     0
  9
$TDCREATE
 40
2451803.485023148
  9
$TDUPDATE
 40
2451803.485023148
  9
$TDINDWG
 40
0.0000000000
  9
$TDUSRTIMER
 40
0.0000000000
  9
$USRTIMER
 70
     1
  9
$ANGBASE
 50
0.0
  9
$ANGDIR
 70
     0
  9
$PDMODE
 70
     0
  9
$PDSIZE
 40
0.0
  9
$PLINEWID
 40
0.0
  9
$COORDS
 70
     0
  9
$SPLFRAME
 70
     0
  9
$SPLINETYPE
 70
     6
  9
$SPLINESEGS
 70
    10
  9
$ATTDIA
 70
     0
  9
$ATTREQ
 70
     1
  9
$HANDLING
 70
     1
  9
$HANDSEED
  5
490
  9
$SURFTAB1
 70
     6
  9
$SURFTAB2
 70
     6
  9
$SURFTYPE
 70
     6
  9
$SURFU
 70
     6
  9
$SURFV
 70
     6
  9
$UCSNAME
  2

  9
$UCSORG
 10
0.0
 20
0.0
 30
0.0
  9
$UCSXDIR
 10
1.0
 20
0.0
 30
0.0
  9
$UCSYDIR
 10
0.0
 20
1.0
 30
0.0
  9
$PUCSNAME
  2

  9
$PUCSORG
 10
0.0
 20
0.0
 30
0.0
  9
$PUCSXDIR
 10
1.0
 20
0.0
 30
0.0
  9
$PUCSYDIR
 10
0.0
 20
1.0
 30
0.0
  9
$USERI1
 70
     0
  9
$USERI2
 70
     0
  9
$USERI3
 70
     0
  9
$USERI4
 70
     0
  9
$USERI5
 70
     0
  9
$USERR1
 40
0.0
  9
$USERR2
 40
0.0
  9
$USERR3
 40
0.0
  9
$USERR4
 40
0.0
  9
$USERR5
 40
0.0
  9
$WORLDVIEW
 70
     1
  9
$SHADEDGE
 70
     3
  9
$SHADEDIF
 70
    70
  9
$TILEMODE
 70
     1
  9
$MAXACTVP
 70
    16
  9
$PINSBASE
 10
0.0
 20
0.0
 30
0.0
  9
$PLIMCHECK
 70
     0
  9
$PEXTMIN
 10
-1.000000E+20
 20
-1.000000E+20
 30
-1.000000E+20
  9
$PEXTMAX
 10
-1.000000E+20
 20
-1.000000E+20
 30
-1.000000E+20
  9
$PLIMMIN
 10
0.0
 20
0.0
  9
$PLIMMAX
 10
12.0
 20
9.0
  9
$UNITMODE
 70
     0
  9
$VISRETAIN
 70
     0
  9
$PLINEGEN
 70
     1
  9
$PSLTSCALE
 70
     0
  9
$TREEDEPTH
 70
  3020
  9
$PICKSTYLE
 70
     1
  9
$CMLSTYLE
  2
STANDARD
  9
$CMLJUST
 70
     0
  9
$CMLSCALE
 40
1.0
  9
$PROXYGRAPHICS
 70
     0
  9
$MEASUREMENT
 70
     0
  0
ENDSEC
  0
SECTION
  2
CLASSES
  0
CLASS
  1
LWPOLYLINE
  2
AcDbPolyline
  3
"AutoCAD"
 90
        0
280
     0
281
     1
  0
CLASS
  1
IMAGE
  2
AcDbRasterImage
  3
ISM
 90
      127
280
     0
281
     1
  0
CLASS
  1
OLE2FRAME
  2
AcDbOle2Frame
  3
""
 90
        0
280
     0
281
     1
  0
CLASS
  1
HATCH
  2
AcDbHatch
  3
"ACAD_SEDONA"
 90
        0
280
     0
281
     1
  0
CLASS
  1
DICTIONARYVAR
  2
AcDbDictionaryVar
  3
"AutoCAD"
 90
        0
280
     0
281
     0
  0
CLASS
  1
RASTERVARIABLES
  2
AcDbRasterVariables
  3
ISM
 90
        0
280
     0
281
     0
  0
CLASS
  1
IMAGEDEF
  2
AcDbRasterImageDef
  3
ISM
 90
        0
280
     0
281
     0
  0
CLASS
  1
IMAGEDEF_REACTOR
  2
AcDbRasterImageDefReactor
  3
ISM
 90
        1
280
     0
281
     0
  0
CLASS
  1
IDBUFFER
  2
AcDbIdBuffer
  3
"Acad"
 90
        0
280
     0
281
     0
  0
CLASS
  1
SPATIAL_FILTER
  2
AcDbSpatialFilter
  3
"Acad"
 90
        0
280
     0
281
     0
  0
CLASS
  1
XRECORD
  2
AcDbXrecord
  3
"<Built In>"
 90
        0
280
     0
281
     0
  0
CLASS
  1
SORTENTSTABLE
  2
AcDbSortentsTable
  3
"AutoCAD"
 90
        0
280
     0
281
     0
  0
CLASS
  1
LAYER_INDEX
  2
AcDbLayerIndex
  3
"Acad"
 90
        0
280
     0
281
     0
  0
CLASS
  1
SPATIAL_INDEX
  2
AcDbSpatialIndex
  3
"Acad"
 90
        0
280
     0
281
     0
  0
CLASS
  1
OBJECT_PTR
  2
CAseDLPNTableRecord
  3
"ASE-LPNTableRecord"
 90
        1
280
     0
281
     0
  0
ENDSEC
  0
SECTION
  2
TABLES
  0
TABLE
  2
VPORT
  5
7
100
AcDbSymbolTable
 70
     1
  0
VPORT
  5
48F
100
AcDbSymbolTableRecord
100
AcDbViewportTableRecord
  2
*ACTIVE
 70
     0
 10
0.0
 20
0.0
 11
1.0
 21
1.0
 12
0.0
 22
0.0
 13
0.0
 23
0.0
 14
0.0
 24
0.0
 15
0.0
 25
0.0
 16
0.0
 26
0.0
 36
1.0
 17
241.854111
 27
163.105833
 37
0.0
 40
471.033333
 41
1.541667
 42
50.0
 43
0.0
 44
0.0
 50
0.0
 51
0.0
 71
     0
 72
   100
 73
     1
 74
     0
 75
     0
 76
     0
 77
     0
 78
     0
  0
ENDTAB
  0
TABLE
  2
LTYPE
  5
4
100
AcDbSymbolTable
 70
     9
  0
LTYPE
  5
11
100
AcDbSymbolTableRecord
100
AcDbLinetypeTableRecord
  2
BYBLOCK
 70
     0
  3

 72
    65
 73
     0
 40
0.0
  0
LTYPE
  5
12
100
AcDbSymbolTableRecord
100
AcDbLinetypeTableRecord
  2
BYLAYER
 70
     0
  3

 72
    65
 73
     0
 40
0.0
  0
LTYPE
  5
13
100
AcDbSymbolTableRecord
100
AcDbLinetypeTableRecord
  2
CONTINUOUS
 70
     0
  3
Solid line
 72
    65
 73
     0
 40
0.0
  0
LTYPE
  5
22
100
AcDbSymbolTableRecord
100
AcDbLinetypeTableRecord
  2
DOT
 70
    64
  3
. . . . . . . . . . . . . . . . . . . . . . . . . . . . . . . . .
 72
    65
 73
     2
 40
0.25
 49
0.0
 74
     0
 49
-0.25
 74
     0
  0
LTYPE
  5
23
100
AcDbSymbolTableRecord
100
AcDbLinetypeTableRecord
  2
HIDDEN
 70
    64
  3
__ __ __ __ __ __ __ __ __ __ __ __ __ __ __ __ __ __ __ __ __ 
 72
    65
 73
     2
 40
0.375
 49
0.25
 74
     0
 49
-0.125
 74
     0
  0
LTYPE
  5
24
100
AcDbSymbolTableRecord
100
AcDbLinetypeTableRecord
  2
DASHED
 70
    64
  3
__ __ __ __ __ __ __ __ __ __ __ __ __ __ __ __ __ __ __ __ __
 72
    65
 73
     2
 40
0.75
 49
0.5
 74
     0
 49
-0.25
 74
     0
  0
LTYPE
  5
25
100
AcDbSymbolTableRecord
100
AcDbLinetypeTableRecord
  2
DASHDOT
 70
    64
  3
__ . __ . __ . __ . __ . __ . __ . __ . __ . __ . __ . __ . _
 72
    65
 73
     4
 40
1.0
 49
0.5
 74
     0
 49
-0.25
 74
     0
 49
0.0
 74
     0
 49
-0.25
 74
     0
  0
LTYPE
  5
26
100
AcDbSymbolTableRecord
100
AcDbLinetypeTableRecord
  2
DIVIDE
 70
    64
  3
____ . . ____ . . ____ . . ____ . . ____ . . ____ . . ____ . .
 72
    65
 73
     6
 40
1.25
 49
0.5
 74
     0
 49
-0.25
 74
     0
 49
0.0
 74
     0
 49
-0.25
 74
     0
 49
0.0
 74
     0
 49
-0.25
 74
     0
  0
LTYPE
  5
27
100
AcDbSymbolTableRecord
100
AcDbLinetypeTableRecord
  2
CENTER
 70
    64
  3
____ _ ____ _ ____ _ ____ _ ____ _ ____ _ ____ _ ____ _ ____ _
 72
    65
 73
     4
 40
2.0
 49
1.25
 74
     0
 49
-0.25
 74
     0
 49
0.25
 74
     0
 49
-0.25
 74
     0
  0
ENDTAB
  0
TABLE
  2
LAYER
  5
2
100
AcDbSymbolTable
 70
     3
  0
LAYER
  5
14
102
{ACAD_XDICTIONARY
360
5F205F5F5F5F205F
102
}
100
AcDbSymbolTableRecord
100
AcDbLayerTableRecord
  2
0
 70
     0
 62
     7
  6
CONTINUOUS
  0
LAYER
  5
2A
102
{ACAD_XDICTIONARY
360
5F205F5F5F5F205F
102
}
100
AcDbSymbolTableRecord
100
AcDbLayerTableRecord
  2
61
 70
    64
 62
     7
  6
CONTINUOUS
  0
LAYER
  5
2D
102
{ACAD_XDICTIONARY
360
5F205F5F5F5F205F
102
}
100
AcDbSymbolTableRecord
100
AcDbLayerTableRecord
  2
1
 70
    64
 62
     7
  6
CONTINUOUS
  0
ENDTAB
  0
TABLE
  2
STYLE
  5
3
100
AcDbSymbolTable
 70
     3
  0
STYLE
  5
17
100
AcDbSymbolTableRecord
100
AcDbTextStyleTableRecord
  2
STANDARD
 70
     0
 40
0.0
 41
1.0
 50
0.0
 71
     0
 42
0.0
  3
txt
  4

  0
STYLE
  5
2B
100
AcDbSymbolTableRecord
100
AcDbTextStyleTableRecord
  2
MONOTXT
 70
     0
 40
0.2
 41
1.0
 50
0.0
 71
     0
 42
0.2
  3
MONOTXT
  4

  0
STYLE
  5
37
100
AcDbSymbolTableRecord
100
AcDbTextStyleTableRecord
  2
TXT
 70
     0
 40
0.2
 41
1.0
 50
0.0
 71
     0
 42
0.2
  3
TXT
  4

  0
ENDTAB
  0
TABLE
  2
VIEW
  5
5
100
AcDbSymbolTable
 70
     0
  0
ENDTAB
  0
TABLE
  2
UCS
  5
6
100
AcDbSymbolTable
 70
     0
  0
ENDTAB
  0
TABLE
  2
APPID
  5
8
100
AcDbSymbolTable
 70
     1
  0
APPID
  5
16
100
AcDbSymbolTableRecord
100
AcDbRegAppTableRecord
  2
ACAD
 70
     0
  0
ENDTAB
  0
TABLE
  2
DIMSTYLE
  5
9
100
AcDbSymbolTable
 70
     1
  0
DIMSTYLE
105
18
100
AcDbSymbolTableRecord
100
AcDbDimStyleTableRecord
  2
STANDARD
 70
     0
  3

  4

  5

  6

  7

 40
1.0
 41
0.18
 42
0.0625
 43
0.38
 44
0.18
 45
0.0
 46
0.0
 47
0.0
 48
0.0
140
0.18
141
0.09
142
0.0
143
25.4
144
1.0
145
0.0
146
1.0
147
0.09
 71
     0
 72
     0
 73
     1
 74
     1
 75
     0
 76
     0
 77
     0
 78
     0
170
     0
171
     2
172
     0
173
     0
174
     0
175
     0
176
     0
177
     0
178
     0
270
     2
271
     4
272
     4
273
     2
274
     2
340
17
275
     0
280
     0
281
     0
282
     0
283
     1
284
     0
285
     0
286
     0
287
     0
288
     0
  0
ENDTAB
  0
TABLE
  2
BLOCK_RECORD
  5
1
100
AcDbSymbolTable
 70
     1
  0
BLOCK_RECORD
  5
A
100
AcDbSymbolTableRecord
100
AcDbBlockTableRecord
  2
*MODEL_SPACE
  0
BLOCK_RECORD
  5
B
100
AcDbSymbolTableRecord
100
AcDbBlockTableRecord
  2
*PAPER_SPACE
  0
BLOCK_RECORD
  5
7A
102
{ACAD_XDICTIONARY
360
186E012400000000
102
}
100
AcDbSymbolTableRecord
100
AcDbBlockTableRecord
  2
LDR
  0
ENDTAB
  0
ENDSEC
  0
SECTION
  2
BLOCKS
  0
BLOCK
  5
D
100
AcDbEntity
  8
0
100
AcDbBlockBegin
  2
*MODEL_SPACE
 70
     0
 10
0.0
 20
0.0
 30
0.0
  3
*MODEL_SPACE
  1

  0
ENDBLK
  5
E
100
AcDbEntity
  8
0
100
AcDbBlockEnd
  0
BLOCK
  5
F
100
AcDbEntity
 67
     1
  8
0
100
AcDbBlockBegin
  2
*PAPER_SPACE
 70
     0
 10
0.0
 20
0.0
 30
0.0
  3
*PAPER_SPACE
  1

  0
ENDBLK
  5
10
100
AcDbEntity
 67
     1
  8
0
100
AcDbBlockEnd
  0
BLOCK
  5
7B
100
AcDbEntity
  8
1
  6
CONTINUOUS
 62
     1
100
AcDbBlockBegin
  2
LDR
 70
     0
 10
0.0
 20
0.0
 30
0.0
  3
LNR
  1

  0
ELLIPSE
  5
7C
100
AcDbEntity
  8
1
  6
CONTINUOUS
 62
     1
100
AcDbEllipse
 10
-0.004547
 20
-0.001151
 30
0.0
 11
0.007440417051956
 21
0.0006506250108083
 31
0.0
210
0.0
220
0.0
230
1.0
 40
0.122415
 41
0.8963533496766982
 42
3.1415926535897931
  0
ELLIPSE
  5
7D
100
AcDbEntity
  8
1
  6
CONTINUOUS
 62
     1
100
AcDbEllipse
 10
-0.004669
 20
0.000882
 30
0.0
 11
0.0073185421713632
 21
-0.000731875170693
 31
0.0
210
0.0
220
0.0
230
1.0
 40
0.07063
 41
3.1407147529760402
 42
5.4181099545465106
  0
ENDBLK
  5
7E
100
AcDbEntity
  8
1
  6
CONTINUOUS
 62
     1
100
AcDbBlockEnd
  0
ENDSEC
  0
SECTION
  2
ENTITIES
  0
TEXT
  5
2C
100
AcDbEntity
  8
61
  6
CONTINUOUS
 62
     7
100
AcDbText
 10
588.881167
 20
329.89975
 30
0.0
 40
2.40132
  1
     
 41
1.001399
  7
MONOTXT
210
0.0
220
0.0
230
1.0
100
AcDbText
  0
TEXT
  5
2E
100
AcDbEntity
  8
1
  6
CONTINUOUS
 62
     1
100
AcDbText
 10
443.511083
 20
-14.74875
 30
0.0
 40
2.00004
  1
01-00-74
  7
MONOTXT
 72
     1
 11
450.41675
 21
-12.74875
 31
0.0
210
0.0
220
0.0
230
1.0
100
AcDbText
 73
     3
  0
TEXT
  5
2F
100
AcDbEntity
  8
1
  6
CONTINUOUS
 62
     1
100
AcDbText
 10
443.408
 20
-19.344333
 30
0.0
 40
2.00004
  1
01-00-75
  7
MONOTXT
 72
     1
 11
450.266333
 21
-17.344333
 31
0.0
210
0.0
220
0.0
230
1.0
100
AcDbText
 73
     3
  0
TEXT
  5
30
100
AcDbEntity
  8
1
  6
CONTINUOUS
 62
     1
100
AcDbText
 10
443.555667
 20
-24.200667
 30
0.0
 40
2.00004
  1
07-22-76
  7
MONOTXT
 72
     1
 11
450.80775
 21
-22.200667
 31
0.0
210
0.0
220
0.0
230
1.0
100
AcDbText
 73
     3
  0
TEXT
  5
31
100
AcDbEntity
  8
1
  6
CONTINUOUS
 62
     1
100
AcDbText
 10
443.738167
 20
-28.731083
 30
0.0
 40
2.00004
  1
02-15-77
  7
MONOTXT
 72
     1
 11
450.604417
 21
-26.731083
 31
0.0
210
0.0
220
0.0
230
1.0
100
AcDbText
 73
     3
  0
TEXT
  5
32
100
AcDbEntity
  8
1
  6
CONTINUOUS
 62
     1
100
AcDbText
 10
442.970917
 20
-33.72225
 30
0.0
 40
2.0
  1
02-22-93
  7
MONOTXT
 72
     1
 11
450.191333
 21
-31.72225
 31
0.0
210
0.0
220
0.0
230
1.0
100
AcDbText
 73
     3
  0
TEXT
  5
33
100
AcDbEntity
  8
1
  6
CONTINUOUS
 62
     1
100
AcDbText
 10
442.935
 20
-38.789083
 30
0.0
 40
2.00004
  1
        
  7
MONOTXT
 72
     1
 11
450.601833
 21
-36.789083
 31
0.0
210
0.0
220
0.0
230
1.0
100
AcDbText
 73
     3
  0
TEXT
  5
34
100
AcDbEntity
  8
1
  6
CONTINUOUS
 62
     1
100
AcDbText
 10
439.641167
 20
-35.50025
 30
0.0
 40
2.00004
  1
        
  7
MONOTXT
 72
     1
 11
447.308
 21
-33.50025
 31
0.0
210
0.0
220
0.0
230
1.0
100
AcDbText
 73
     3
  0
TEXT
  5
35
100
AcDbEntity
  8
1
  6
CONTINUOUS
 62
     1
100
AcDbText
 10
439.741167
 20
-40.08025
 30
0.0
 40
2.00004
  1
        
  7
MONOTXT
 72
     1
 11
447.408
 21
-38.08025
 31
0.0
210
0.0
220
0.0
230
1.0
100
AcDbText
 73
     3
  0
TEXT
  5
36
100
AcDbEntity
  8
1
  6
CONTINUOUS
 62
     1
100
AcDbText
 10
439.741167
 20
-44.10025
 30
0.0
 40
2.00004
  1
        
  7
MONOTXT
 72
     1
 11
447.408
 21
-42.10025
 31
0.0
210
0.0
220
0.0
230
1.0
100
AcDbText
 73
     3
  0
TEXT
  5
38
100
AcDbEntity
  8
1
  6
CONTINUOUS
 62
     7
100
AcDbText
 10
456.079417
 20
11.588667
 30
0.0
 40
6.992667
  1
SIGN LIGHTING - FIXTURE
  7
TXT
 72
     1
 11
519.875833
 21
18.581333
 31
0.0
210
0.0
220
0.0
230
1.0
100
AcDbText
 73
     3
  0
TEXT
  5
39
100
AcDbEntity
  8
1
  6
CONTINUOUS
 62
     7
100
AcDbText
 10
501.28375
 20
0.749333
 30
0.0
 40
6.992667
  1
TYPE 3
  7
TXT
 72
     1
 11
517.60625
 21
7.742
 31
0.0
210
0.0
220
0.0
230
1.0
100
AcDbText
 73
     3
  0
LWPOLYLINE
  5
3A
100
AcDbEntity
  8
1
  6
CONTINUOUS
 62
     7
100
AcDbPolyline
 90
        4
 70
     0
 10
437.783417
 20
-21.26175
 10
435.783417
 20
-24.725833
 10
439.783417
 20
-24.725833
 10
437.783417
 20
-21.26175
  0
LWPOLYLINE
  5
3B
100
AcDbEntity
  8
1
  6
CONTINUOUS
 62
     7
100
AcDbPolyline
 90
        4
 70
     0
 10
437.625833
 20
-25.969417
 10
435.625833
 20
-29.4335
 10
439.625833
 20
-29.4335
 10
437.625833
 20
-25.969417
  0
LWPOLYLINE
  5
3C
100
AcDbEntity
  8
1
  6
CONTINUOUS
 62
     7
100
AcDbPolyline
 90
        4
 70
     0
 10
434.313667
 20
57.105333
 10
432.313667
 20
53.64125
 10
436.313667
 20
53.64125
 10
434.313667
 20
57.105333
  0
LWPOLYLINE
  5
3D
100
AcDbEntity
  8
1
  6
CONTINUOUS
 62
     7
100
AcDbPolyline
 90
        4
 70
     0
 10
434.257
 20
61.472833
 10
432.257
 20
58.00875
 10
436.257
 20
58.00875
 10
434.257
 20
61.472833
  0
TEXT
  5
3E
100
AcDbEntity
  8
1
  6
CONTINUOUS
 62
     7
100
AcDbText
 10
437.449667
 20
-24.314
 30
0.0
 40
2.0
  1
1
  7
MONOTXT
210
0.0
220
0.0
230
1.0
100
AcDbText
  0
TEXT
  5
3F
100
AcDbEntity
  8
1
  6
CONTINUOUS
 62
     7
100
AcDbText
 10
436.988333
 20
-29.115583
 30
0.0
 40
2.0
  1
2
  7
MONOTXT
210
0.0
220
0.0
230
1.0
100
AcDbText
  0
TEXT
  5
40
100
AcDbEntity
  8
1
  6
CONTINUOUS
 62
     7
100
AcDbText
 10
433.9735
 20
58.405833
 30
0.0
 40
2.0
  1
1
  7
MONOTXT
210
0.0
220
0.0
230
1.0
100
AcDbText
  0
TEXT
  5
41
100
AcDbEntity
  8
1
  6
CONTINUOUS
 62
     7
100
AcDbText
 10
433.63325
 20
53.868083
 30
0.0
 40
2.0
  1
2
  7
MONOTXT
210
0.0
220
0.0
230
1.0
100
AcDbText
  0
TEXT
  5
42
100
AcDbEntity
  8
1
  6
CONTINUOUS
 62
     7
100
AcDbText
 10
437.205583
 20
58.973
 30
0.0
 40
2.0
  1
ADDED 100W AND 175W LAMPS
  7
MONOTXT
210
0.0
220
0.0
230
1.0
100
AcDbText
  0
TEXT
  5
43
100
AcDbEntity
  8
1
  6
CONTINUOUS
 62
     7
100
AcDbText
 10
437.205583
 20
54.435333
 30
0.0
 40
2.0
  1
SPELLING OF BALLASTS
  7
MONOTXT
210
0.0
220
0.0
230
1.0
100
AcDbText
  0
LINE
  5
44
100
AcDbEntity
  8
1
  6
CONTINUOUS
 62
     7
100
AcDbLine
 10
387.586417
 20
331.87875
 30
0.0
 11
421.120667
 21
331.87875
 31
0.0
  0
LINE
  5
45
100
AcDbEntity
  8
1
  6
CONTINUOUS
 62
     7
100
AcDbLine
 10
387.586417
 20
322.863333
 30
0.0
 11
424.831333
 21
322.863333
 31
0.0
  0
LINE
  5
46
100
AcDbEntity
  8
1
  6
CONTINUOUS
 62
     7
100
AcDbLine
 10
387.868
 20
282.5755
 30
0.0
 11
401.68
 21
282.5755
 31
0.0
  0
LINE
  5
47
100
AcDbEntity
  8
1
  6
CONTINUOUS
 62
     7
100
AcDbLine
 10
387.868
 20
255.810833
 30
0.0
 11
416.926333
 21
255.810833
 31
0.0
  0
LINE
  5
48
100
AcDbEntity
  8
1
  6
CONTINUOUS
 62
     7
100
AcDbLine
 10
387.304667
 20
192.70275
 30
0.0
 11
423.130083
 21
192.70275
 31
0.0
  0
LINE
  5
49
100
AcDbEntity
  8
1
  6
CONTINUOUS
 62
     1
100
AcDbLine
 10
5.051833
 20
334.269833
 30
0.0
 11
61.051833
 21
334.269833
 31
0.0
  0
LINE
  5
4A
100
AcDbEntity
  8
1
  6
CONTINUOUS
 62
     1
100
AcDbLine
 10
66.051833
 20
329.269833
 30
0.0
 11
66.051833
 21
273.269833
 31
0.0
  0
LINE
  5
4B
100
AcDbEntity
  8
1
  6
CONTINUOUS
 62
     1
100
AcDbLine
 10
61.051833
 20
268.269833
 30
0.0
 11
5.051833
 21
268.269833
 31
0.0
  0
LINE
  5
4C
100
AcDbEntity
  8
1
  6
CONTINUOUS
 62
     1
100
AcDbLine
 10
0.051833
 20
273.269833
 30
0.0
 11
0.051833
 21
329.269833
 31
0.0
  0
ARC
  5
4D
100
AcDbEntity
  8
1
  6
CONTINUOUS
 62
     1
100
AcDbCircle
 10
5.051833
 20
329.269833
 30
0.0
 40
5.0
210
0.0
220
0.0
230
1.0
100
AcDbArc
 50
90.0
 51
180.0
  0
ARC
  5
4E
100
AcDbEntity
  8
1
  6
CONTINUOUS
 62
     1
100
AcDbCircle
 10
61.051833
 20
329.269833
 30
0.0
 40
5.0
210
0.0
220
0.0
230
1.0
100
AcDbArc
 50
0.0
 51
90.0
  0
ARC
  5
4F
100
AcDbEntity
  8
1
  6
CONTINUOUS
 62
     1
100
AcDbCircle
 10
61.051833
 20
273.269833
 30
0.0
 40
5.0
210
0.0
220
0.0
230
1.0
100
AcDbArc
 50
270.0
 51
0.0
  0
ARC
  5
50
100
AcDbEntity
  8
1
  6
CONTINUOUS
 62
     1
100
AcDbCircle
 10
5.051833
 20
273.269833
 30
0.0
 40
5.0
210
0.0
220
0.0
230
1.0
100
AcDbArc
 50
180.0
 51
270.0
  0
CIRCLE
  5
51
100
AcDbEntity
  8
1
  6
CONTINUOUS
 62
     1
100
AcDbCircle
 10
19.051833
 20
324.269833
 30
0.0
 40
0.75
210
0.0
220
0.0
230
1.0
  0
CIRCLE
  5
52
100
AcDbEntity
  8
1
  6
CONTINUOUS
 62
     1
100
AcDbCircle
 10
47.051833
 20
324.269833
 30
0.0
 40
0.75
210
0.0
220
0.0
230
1.0
  0
CIRCLE
  5
53
100
AcDbEntity
  8
1
  6
CONTINUOUS
 62
     1
100
AcDbCircle
 10
33.051833
 20
278.269833
 30
0.0
 40
0.75
210
0.0
220
0.0
230
1.0
  0
CIRCLE
  5
54
100
AcDbEntity
  8
1
  6
CONTINUOUS
 62
     1
100
AcDbCircle
 10
19.051833
 20
278.269833
 30
0.0
 40
0.75
210
0.0
220
0.0
230
1.0
  0
CIRCLE
  5
55
100
AcDbEntity
  8
1
  6
CONTINUOUS
 62
     1
100
AcDbCircle
 10
47.051833
 20
278.269833
 30
0.0
 40
0.75
210
0.0
220
0.0
230
1.0
  0
LINE
  5
56
100
AcDbEntity
  8
1
  6
CONTINUOUS
 62
     7
100
AcDbLine
 10
14.051833
 20
324.269833
 30
0.0
 11
17.801833
 21
324.269833
 31
0.0
  0
LINE
  5
57
100
AcDbEntity
  8
1
  6
CONTINUOUS
 62
     7
100
AcDbLine
 10
18.801833
 20
324.269833
 30
0.0
 11
19.301833
 21
324.269833
 31
0.0
  0
LINE
  5
58
100
AcDbEntity
  8
1
  6
CONTINUOUS
 62
     7
100
AcDbLine
 10
19.051833
 20
325.519833
 30
0.0
 11
19.051833
 21
329.269833
 31
0.0
  0
LINE
  5
59
100
AcDbEntity
  8
1
  6
CONTINUOUS
 62
     7
100
AcDbLine
 10
19.051833
 20
324.019833
 30
0.0
 11
19.051833
 21
324.519833
 31
0.0
  0
LINE
  5
5A
100
AcDbEntity
  8
1
  6
CONTINUOUS
 62
     7
100
AcDbLine
 10
20.301833
 20
324.269833
 30
0.0
 11
45.801833
 21
324.269833
 31
0.0
  0
LINE
  5
5B
100
AcDbEntity
  8
1
  6
CONTINUOUS
 62
     7
100
AcDbLine
 10
47.051833
 20
329.269833
 30
0.0
 11
47.051833
 21
325.519833
 31
0.0
  0
LINE
  5
5C
100
AcDbEntity
  8
1
  6
CONTINUOUS
 62
     7
100
AcDbLine
 10
46.801833
 20
324.269833
 30
0.0
 11
47.301833
 21
324.269833
 31
0.0
  0
LINE
  5
5D
100
AcDbEntity
  8
1
  6
CONTINUOUS
 62
     7
100
AcDbLine
 10
48.301833
 20
324.269833
 30
0.0
 11
72.551833
 21
324.269833
 31
0.0
  0
LINE
  5
5E
100
AcDbEntity
  8
1
  6
CONTINUOUS
 62
     7
100
AcDbLine
 10
47.051833
 20
324.519833
 30
0.0
 11
47.051833
 21
324.019833
 31
0.0
  0
LINE
  5
5F
100
AcDbEntity
  8
1
  6
CONTINUOUS
 62
     7
100
AcDbLine
 10
17.801833
 20
278.269833
 30
0.0
 11
14.051833
 21
278.269833
 31
0.0
  0
LINE
  5
60
100
AcDbEntity
  8
1
  6
CONTINUOUS
 62
     7
100
AcDbLine
 10
19.051833
 20
279.519833
 30
0.0
 11
19.051833
 21
323.019833
 31
0.0
  0
LINE
  5
61
100
AcDbEntity
  8
1
  6
CONTINUOUS
 62
     7
100
AcDbLine
 10
19.301833
 20
278.269833
 30
0.0
 11
18.801833
 21
278.269833
 31
0.0
  0
LINE
  5
62
100
AcDbEntity
  8
1
  6
CONTINUOUS
 62
     7
100
AcDbLine
 10
19.051833
 20
261.769833
 30
0.0
 11
19.051833
 21
277.019833
 31
0.0
  0
LINE
  5
63
100
AcDbEntity
  8
1
  6
CONTINUOUS
 62
     7
100
AcDbLine
 10
19.051833
 20
278.019833
 30
0.0
 11
19.051833
 21
278.519833
 31
0.0
  0
LINE
  5
64
100
AcDbEntity
  8
1
  6
CONTINUOUS
 62
     7
100
AcDbLine
 10
31.801833
 20
278.269833
 30
0.0
 11
20.301833
 21
278.269833
 31
0.0
  0
LINE
  5
65
100
AcDbEntity
  8
1
  6
CONTINUOUS
 62
     7
100
AcDbLine
 10
33.051833
 20
282.019833
 30
0.0
 11
33.051833
 21
279.519833
 31
0.0
  0
LINE
  5
66
100
AcDbEntity
  8
1
  6
CONTINUOUS
 62
     7
100
AcDbLine
 10
33.301833
 20
278.269833
 30
0.0
 11
32.801833
 21
278.269833
 31
0.0
  0
LINE
  5
67
100
AcDbEntity
  8
1
  6
CONTINUOUS
 62
     7
100
AcDbLine
 10
33.051833
 20
278.519833
 30
0.0
 11
33.051833
 21
278.019833
 31
0.0
  0
LINE
  5
68
100
AcDbEntity
  8
1
  6
CONTINUOUS
 62
     7
100
AcDbLine
 10
33.051833
 20
277.019833
 30
0.0
 11
33.051833
 21
274.519833
 31
0.0
  0
LINE
  5
69
100
AcDbEntity
  8
1
  6
CONTINUOUS
 62
     7
100
AcDbLine
 10
45.801833
 20
278.269833
 30
0.0
 11
34.301833
 21
278.269833
 31
0.0
  0
LINE
  5
6A
100
AcDbEntity
  8
1
  6
CONTINUOUS
 62
     7
100
AcDbLine
 10
47.051833
 20
323.019833
 30
0.0
 11
47.051833
 21
279.519833
 31
0.0
  0
LINE
  5
6B
100
AcDbEntity
  8
1
  6
CONTINUOUS
 62
     7
100
AcDbLine
 10
72.551833
 20
278.269833
 30
0.0
 11
48.301833
 21
278.269833
 31
0.0
  0
LINE
  5
6C
100
AcDbEntity
  8
1
  6
CONTINUOUS
 62
     7
100
AcDbLine
 10
47.301833
 20
278.269833
 30
0.0
 11
46.801833
 21
278.269833
 31
0.0
  0
LINE
  5
6D
100
AcDbEntity
  8
1
  6
CONTINUOUS
 62
     7
100
AcDbLine
 10
47.051833
 20
278.519833
 30
0.0
 11
47.051833
 21
278.019833
 31
0.0
  0
LINE
  5
6E
100
AcDbEntity
  8
1
  6
CONTINUOUS
 62
     7
100
AcDbLine
 10
47.051833
 20
277.019833
 30
0.0
 11
47.051833
 21
261.769833
 31
0.0
  0
LINE
  5
6F
100
AcDbEntity
  8
1
  6
CONTINUOUS
 62
     7
100
AcDbLine
 10
65.551833
 20
334.269833
 30
0.0
 11
77.051833
 21
334.269833
 31
0.0
  0
LINE
  5
70
100
AcDbEntity
  8
1
  6
CONTINUOUS
 62
     7
100
AcDbLine
 10
65.551833
 20
268.269833
 30
0.0
 11
77.051833
 21
268.269833
 31
0.0
  0
LINE
  5
71
100
AcDbEntity
  8
1
  6
CONTINUOUS
 62
     7
100
AcDbLine
 10
66.051833
 20
268.769833
 30
0.0
 11
66.051833
 21
261.769833
 31
0.0
  0
LINE
  5
72
100
AcDbEntity
  8
1
  6
CONTINUOUS
 62
     7
100
AcDbLine
 10
0.051833
 20
268.769833
 30
0.0
 11
0.051833
 21
261.769833
 31
0.0
  0
LINE
  5
73
100
AcDbEntity
  8
1
  6
CONTINUOUS
 62
     7
100
AcDbLine
 10
76.051833
 20
334.269833
 30
0.0
 11
76.051833
 21
268.269833
 31
0.0
  0
LINE
  5
74
100
AcDbEntity
  8
1
  6
CONTINUOUS
 62
     7
100
AcDbLine
 10
71.551833
 20
324.269833
 30
0.0
 11
71.551833
 21
278.269833
 31
0.0
  0
LINE
  5
75
100
AcDbEntity
  8
1
  6
CONTINUOUS
 62
     7
100
AcDbLine
 10
19.051833
 20
262.769833
 30
0.0
 11
47.051833
 21
262.769833
 31
0.0
  0
LINE
  5
76
100
AcDbEntity
  8
1
  6
CONTINUOUS
 62
     7
100
AcDbLine
 10
47.051833
 20
262.769833
 30
0.0
 11
66.051833
 21
262.769833
 31
0.0
  0
LINE
  5
77
100
AcDbEntity
  8
1
  6
CONTINUOUS
 62
     7
100
AcDbLine
 10
19.051833
 20
262.769833
 30
0.0
 11
0.051833
 21
262.769833
 31
0.0
  0
LINE
  5
78
100
AcDbEntity
  8
1
  6
CONTINUOUS
 62
     7
100
AcDbLine
 10
71.551833
 20
324.269833
 30
0.0
 11
71.551833
 21
334.269833
 31
0.0
  0
LINE
  5
79
100
AcDbEntity
  8
1
  6
CONTINUOUS
 62
     7
100
AcDbLine
 10
71.551833
 20
278.269833
 30
0.0
 11
71.551833
 21
268.269833
 31
0.0
  0
INSERT
  5
7F
100
AcDbEntity
  8
1
  6
CONTINUOUS
 62
     1
100
AcDbBlockReference
  2
LDR
 10
71.551833
 20
334.269833
 30
0.0
 41
240.0
 42
240.0
 50
90.0
210
0.0
220
0.0
230
1.0
  0
INSERT
  5
80
100
AcDbEntity
  8
1
  6
CONTINUOUS
 62
     1
100
AcDbBlockReference
  2
LDR
 10
71.551833
 20
334.269833
 30
0.0
 41
240.0
 42
240.0
 50
90.0
210
0.0
220
0.0
230
1.0
  0
INSERT
  5
81
100
AcDbEntity
  8
1
  6
CONTINUOUS
 62
     1
100
AcDbBlockReference
  2
LDR
 10
76.051833
 20
334.269833
 30
0.0
 41
240.0
 42
240.0
 50
90.0
210
0.0
220
0.0
230
1.0
  0
INSERT
  5
82
100
AcDbEntity
  8
1
  6
CONTINUOUS
 62
     1
100
AcDbBlockReference
  2
LDR
 10
76.051833
 20
334.269833
 30
0.0
 41
240.0
 42
240.0
 50
90.0
210
0.0
220
0.0
230
1.0
  0
INSERT
  5
83
100
AcDbEntity
  8
1
  6
CONTINUOUS
 62
     1
100
AcDbBlockReference
  2
LDR
 10
71.551833
 20
324.269833
 30
0.0
 41
240.0
 42
240.0
 50
270.0
210
0.0
220
0.0
230
1.0
  0
INSERT
  5
84
100
AcDbEntity
  8
1
  6
CONTINUOUS
 62
     1
100
AcDbBlockReference
  2
LDR
 10
71.551833
 20
324.269833
 30
0.0
 41
240.0
 42
240.0
 50
270.0
210
0.0
220
0.0
230
1.0
  0
INSERT
  5
85
100
AcDbEntity
  8
1
  6
CONTINUOUS
 62
     1
100
AcDbBlockReference
  2
LDR
 10
71.551833
 20
324.269833
 30
0.0
 41
240.0
 42
240.0
 50
90.0
210
0.0
220
0.0
230
1.0
  0
INSERT
  5
86
100
AcDbEntity
  8
1
  6
CONTINUOUS
 62
     1
100
AcDbBlockReference
  2
LDR
 10
71.551833
 20
324.269833
 30
0.0
 41
240.0
 42
240.0
 50
90.0
210
0.0
220
0.0
230
1.0
  0
INSERT
  5
87
100
AcDbEntity
  8
1
  6
CONTINUOUS
 62
     1
100
AcDbBlockReference
  2
LDR
 10
71.551833
 20
278.269833
 30
0.0
 41
240.0
 42
240.0
 50
270.0
210
0.0
220
0.0
230
1.0
  0
INSERT
  5
88
100
AcDbEntity
  8
1
  6
CONTINUOUS
 62
     1
100
AcDbBlockReference
  2
LDR
 10
71.551833
 20
278.269833
 30
0.0
 41
240.0
 42
240.0
 50
270.0
210
0.0
220
0.0
230
1.0
  0
INSERT
  5
89
100
AcDbEntity
  8
1
  6
CONTINUOUS
 62
     1
100
AcDbBlockReference
  2
LDR
 10
71.551833
 20
278.269833
 30
0.0
 41
240.0
 42
240.0
 50
90.0
210
0.0
220
0.0
230
1.0
  0
INSERT
  5
8A
100
AcDbEntity
  8
1
  6
CONTINUOUS
 62
     1
100
AcDbBlockReference
  2
LDR
 10
71.551833
 20
278.269833
 30
0.0
 41
240.0
 42
240.0
 50
90.0
210
0.0
220
0.0
230
1.0
  0
INSERT
  5
8B
100
AcDbEntity
  8
1
  6
CONTINUOUS
 62
     1
100
AcDbBlockReference
  2
LDR
 10
71.551833
 20
268.269833
 30
0.0
 41
240.0
 42
240.0
 50
270.0
210
0.0
220
0.0
230
1.0
  0
INSERT
  5
8C
100
AcDbEntity
  8
1
  6
CONTINUOUS
 62
     1
100
AcDbBlockReference
  2
LDR
 10
71.551833
 20
268.269833
 30
0.0
 41
240.0
 42
240.0
 50
270.0
210
0.0
220
0.0
230
1.0
  0
INSERT
  5
8D
100
AcDbEntity
  8
1
  6
CONTINUOUS
 62
     1
100
AcDbBlockReference
  2
LDR
 10
76.051833
 20
268.269833
 30
0.0
 41
240.0
 42
240.0
 50
270.0
210
0.0
220
0.0
230
1.0
  0
INSERT
  5
8E
100
AcDbEntity
  8
1
  6
CONTINUOUS
 62
     1
100
AcDbBlockReference
  2
LDR
 10
76.051833
 20
268.269833
 30
0.0
 41
240.0
 42
240.0
 50
270.0
210
0.0
220
0.0
230
1.0
  0
INSERT
  5
8F
100
AcDbEntity
  8
1
  6
CONTINUOUS
 62
     1
100
AcDbBlockReference
  2
LDR
 10
66.051833
 20
262.769833
 30
0.0
 41
240.0
 42
240.0
210
0.0
220
0.0
230
1.0
  0
INSERT
  5
90
100
AcDbEntity
  8
1
  6
CONTINUOUS
 62
     1
100
AcDbBlockReference
  2
LDR
 10
66.051833
 20
262.769833
 30
0.0
 41
240.0
 42
240.0
210
0.0
220
0.0
230
1.0
  0
INSERT
  5
91
100
AcDbEntity
  8
1
  6
CONTINUOUS
 62
     1
100
AcDbBlockReference
  2
LDR
 10
47.051833
 20
262.769833
 30
0.0
 41
240.0
 42
240.0
 50
180.0
210
0.0
220
0.0
230
1.0
  0
INSERT
  5
92
100
AcDbEntity
  8
1
  6
CONTINUOUS
 62
     1
100
AcDbBlockReference
  2
LDR
 10
47.051833
 20
262.769833
 30
0.0
 41
240.0
 42
240.0
 50
180.0
210
0.0
220
0.0
230
1.0
  0
INSERT
  5
93
100
AcDbEntity
  8
1
  6
CONTINUOUS
 62
     1
100
AcDbBlockReference
  2
LDR
 10
47.051833
 20
262.769833
 30
0.0
 41
240.0
 42
240.0
210
0.0
220
0.0
230
1.0
  0
INSERT
  5
94
100
AcDbEntity
  8
1
  6
CONTINUOUS
 62
     1
100
AcDbBlockReference
  2
LDR
 10
47.051833
 20
262.769833
 30
0.0
 41
240.0
 42
240.0
210
0.0
220
0.0
230
1.0
  0
INSERT
  5
95
100
AcDbEntity
  8
1
  6
CONTINUOUS
 62
     1
100
AcDbBlockReference
  2
LDR
 10
19.051833
 20
262.769833
 30
0.0
 41
240.0
 42
240.0
 50
180.0
210
0.0
220
0.0
230
1.0
  0
INSERT
  5
96
100
AcDbEntity
  8
1
  6
CONTINUOUS
 62
     1
100
AcDbBlockReference
  2
LDR
 10
19.051833
 20
262.769833
 30
0.0
 41
240.0
 42
240.0
 50
180.0
210
0.0
220
0.0
230
1.0
  0
INSERT
  5
97
100
AcDbEntity
  8
1
  6
CONTINUOUS
 62
     1
100
AcDbBlockReference
  2
LDR
 10
19.051833
 20
262.769833
 30
0.0
 41
240.0
 42
240.0
210
0.0
220
0.0
230
1.0
  0
INSERT
  5
98
100
AcDbEntity
  8
1
  6
CONTINUOUS
 62
     1
100
AcDbBlockReference
  2
LDR
 10
19.051833
 20
262.769833
 30
0.0
 41
240.0
 42
240.0
210
0.0
220
0.0
230
1.0
  0
INSERT
  5
99
100
AcDbEntity
  8
1
  6
CONTINUOUS
 62
     1
100
AcDbBlockReference
  2
LDR
 10
0.051833
 20
262.769833
 30
0.0
 41
240.0
 42
240.0
 50
180.0
210
0.0
220
0.0
230
1.0
  0
LINE
  5
9A
100
AcDbEntity
  8
1
  6
CONTINUOUS
 62
     7
100
AcDbLine
 10
19.582167
 20
324.800167
 30
0.0
 11
29.235083
 21
344.332083
 31
0.0
  0
LINE
  5
9B
100
AcDbEntity
  8
1
  6
CONTINUOUS
 62
     7
100
AcDbLine
 10
29.235083
 20
344.332083
 30
0.0
 11
34.543833
 21
344.332083
 31
0.0
  0
INSERT
  5
9C
100
AcDbEntity
  8
1
  6
CONTINUOUS
 62
     1
100
AcDbBlockReference
  2
LDR
 10
19.582167
 20
324.800167
 30
0.0
 41
240.000002
 42
240.000002
 50
243.700844
210
0.0
220
0.0
230
1.0
  0
TEXT
  5
9D
100
AcDbEntity
  8
1
  6
CONTINUOUS
 62
     7
100
AcDbText
 10
53.61825
 20
342.868833
 30
0.0
 40
2.5
  1
/
  7
MONOTXT
210
0.0
220
0.0
230
1.0
100
AcDbText
  0
TEXT
  5
9E
100
AcDbEntity
  8
1
  6
CONTINUOUS
 62
     7
100
AcDbText
 10
-2.53175
 20
245.488917
 30
0.0
 40
4.0
  1
LUMINAIRE MOUNTING PLATE
  7
MONOTXT
210
0.0
220
0.0
230
1.0
100
AcDbText
  0
LINE
  5
9F
100
AcDbEntity
  8
1
  6
CONTINUOUS
 62
     7
100
AcDbLine
 10
-4.92925
 20
243.43325
 30
0.0
 11
85.863833
 21
243.43325
 31
0.0
  0
LINE
  5
A0
100
AcDbEntity
  8
1
  6
CONTINUOUS
 62
   132
100
AcDbLine
 10
146.291583
 20
62.41875
 30
0.0
 11
223.291583
 21
62.41875
 31
0.0
  0
LINE
  5
A1
100
AcDbEntity
  8
1
  6
CONTINUOUS
 62
   132
100
AcDbLine
 10
223.291583
 20
62.41875
 30
0.0
 11
223.291583
 21
-15.58125
 31
0.0
  0
LINE
  5
A2
100
AcDbEntity
  8
1
  6
CONTINUOUS
 62
   132
100
AcDbLine
 10
146.291583
 20
-15.58125
 30
0.0
 11
146.291583
 21
62.41875
 31
0.0
  0
LINE
  5
A3
100
AcDbEntity
  8
1
  6
CONTINUOUS
 62
   132
100
AcDbLine
 10
146.291583
 20
52.41875
 30
0.0
 11
223.291583
 21
52.41875
 31
0.0
  0
LINE
  5
A4
100
AcDbEntity
  8
1
  6
CONTINUOUS
 62
   132
100
AcDbLine
 10
149.791583
 20
48.91875
 30
0.0
 11
219.791583
 21
48.91875
 31
0.0
  0
LINE
  5
A5
100
AcDbEntity
  8
1
  6
CONTINUOUS
 62
   132
100
AcDbLine
 10
149.791583
 20
-10.58125
 30
0.0
 11
149.791583
 21
48.91875
 31
0.0
  0
LINE
  5
A6
100
AcDbEntity
  8
1
  6
CONTINUOUS
 62
   132
100
AcDbLine
 10
219.791583
 20
-10.58125
 30
0.0
 11
149.791583
 21
-10.58125
 31
0.0
  0
LINE
  5
A7
100
AcDbEntity
  8
1
  6
CONTINUOUS
 62
   132
100
AcDbLine
 10
219.791583
 20
48.91875
 30
0.0
 11
219.791583
 21
-10.58125
 31
0.0
  0
LINE
  5
A8
100
AcDbEntity
  8
1
  6
CONTINUOUS
 62
   132
100
AcDbLine
 10
160.791583
 20
-2.58125
 30
0.0
 11
160.791583
 21
36.91875
 31
0.0
  0
LINE
  5
A9
100
AcDbEntity
  8
1
  6
CONTINUOUS
 62
   132
100
AcDbLine
 10
208.791583
 20
36.91875
 30
0.0
 11
208.791583
 21
-2.58125
 31
0.0
  0
LINE
  5
AA
100
AcDbEntity
  8
1
  6
CONTINUOUS
 62
   132
100
AcDbLine
 10
160.791583
 20
36.91875
 30
0.0
 11
208.791583
 21
36.91875
 31
0.0
  0
LINE
  5
AB
100
AcDbEntity
  8
1
  6
CONTINUOUS
 62
   132
100
AcDbLine
 10
208.791583
 20
-2.58125
 30
0.0
 11
160.791583
 21
-2.58125
 31
0.0
  0
LINE
  5
AC
100
AcDbEntity
  8
1
  6
CONTINUOUS
 62
   132
100
AcDbLine
 10
160.791583
 20
36.91875
 30
0.0
 11
149.791583
 21
48.91875
 31
0.0
  0
LINE
  5
AD
100
AcDbEntity
  8
1
  6
CONTINUOUS
 62
   132
100
AcDbLine
 10
208.791583
 20
36.91875
 30
0.0
 11
219.791583
 21
48.91875
 31
0.0
  0
LINE
  5
AE
100
AcDbEntity
  8
1
  6
CONTINUOUS
 62
   132
100
AcDbLine
 10
208.791583
 20
-2.58125
 30
0.0
 11
219.791583
 21
-10.58125
 31
0.0
  0
LINE
  5
AF
100
AcDbEntity
  8
1
  6
CONTINUOUS
 62
   132
100
AcDbLine
 10
160.791583
 20
-2.58125
 30
0.0
 11
149.791583
 21
-10.58125
 31
0.0
  0
LINE
  5
B0
100
AcDbEntity
  8
1
  6
CONTINUOUS
 62
   132
100
AcDbLine
 10
183.791583
 20
62.91875
 30
0.0
 11
185.791583
 21
62.91875
 31
0.0
  0
LINE
  5
B1
100
AcDbEntity
  8
1
  6
CONTINUOUS
 62
   132
100
AcDbLine
 10
183.791583
 20
62.91875
 30
0.0
 11
183.791583
 21
60.91875
 31
0.0
  0
LINE
  5
B2
100
AcDbEntity
  8
1
  6
CONTINUOUS
 62
   132
100
AcDbLine
 10
185.791583
 20
62.91875
 30
0.0
 11
185.791583
 21
60.91875
 31
0.0
  0
ARC
  5
B3
100
AcDbEntity
  8
1
  6
CONTINUOUS
 62
   132
100
AcDbCircle
 10
184.791583
 20
60.934985
 30
0.0
 40
1.000132
210
0.0
220
0.0
230
1.0
100
AcDbArc
 50
180.930106
 51
359.069894
  0
LINE
  5
B4
100
AcDbEntity
  8
1
  6
CONTINUOUS
 62
   132
100
AcDbLine
 10
184.791583
 20
-13.58125
 30
0.0
 11
184.791583
 21
-16.08125
 31
0.0
  0
LINE
  5
B5
100
AcDbEntity
  8
1
  6
CONTINUOUS
 62
   132
100
AcDbLine
 10
186.791583
 20
-13.58125
 30
0.0
 11
186.791583
 21
-16.08125
 31
0.0
  0
LINE
  5
B6
100
AcDbEntity
  8
1
  6
CONTINUOUS
 62
   132
100
AcDbLine
 10
184.791583
 20
-13.58125
 30
0.0
 11
186.791583
 21
-13.58125
 31
0.0
  0
LINE
  5
B7
100
AcDbEntity
  8
1
  6
CONTINUOUS
 62
   132
100
AcDbLine
 10
184.791583
 20
-16.08125
 30
0.0
 11
186.791583
 21
-16.08125
 31
0.0
  0
LINE
  5
B8
100
AcDbEntity
  8
1
  6
CONTINUOUS
 62
   132
100
AcDbLine
 10
184.791583
 20
-14.83125
 30
0.0
 11
186.791583
 21
-14.83125
 31
0.0
  0
LINE
  5
B9
100
AcDbEntity
  8
1
  6
CONTINUOUS
 62
   132
100
AcDbLine
 10
184.791583
 20
-14.08125
 30
0.0
 11
146.291583
 21
-14.08125
 31
0.0
  0
LINE
  5
BA
100
AcDbEntity
  8
1
  6
CONTINUOUS
 62
   132
100
AcDbLine
 10
223.291583
 20
-14.08125
 30
0.0
 11
186.791583
 21
-14.08125
 31
0.0
  0
LINE
  5
BB
100
AcDbEntity
  8
1
  6
CONTINUOUS
 62
   132
100
AcDbLine
 10
186.791583
 20
-14.227833
 30
0.0
 11
184.791583
 21
-14.227833
 31
0.0
  0
LINE
  5
BC
100
AcDbEntity
  8
1
  6
CONTINUOUS
 62
   132
100
AcDbLine
 10
184.791583
 20
-15.58125
 30
0.0
 11
146.291583
 21
-15.58125
 31
0.0
  0
LINE
  5
BD
100
AcDbEntity
  8
1
  6
CONTINUOUS
 62
   132
100
AcDbLine
 10
223.291583
 20
-15.58125
 30
0.0
 11
186.791583
 21
-15.58125
 31
0.0
  0
LINE
  5
BE
100
AcDbEntity
  8
1
  6
CONTINUOUS
 62
   132
100
AcDbLine
 10
186.791583
 20
-15.45375
 30
0.0
 11
184.791583
 21
-15.45375
 31
0.0
  0
LINE
  5
BF
100
AcDbEntity
  8
1
  6
CONTINUOUS
 62
   132
100
AcDbLine
 10
137.291583
 20
31.41875
 30
0.0
 11
137.291583
 21
34.16875
 31
0.0
  0
LINE
  5
C0
100
AcDbEntity
  8
1
  6
CONTINUOUS
 62
   132
100
AcDbLine
 10
137.291583
 20
36.16875
 30
0.0
 11
137.291583
 21
38.91875
 31
0.0
  0
LINE
  5
C1
100
AcDbEntity
  8
1
  6
CONTINUOUS
 62
   132
100
AcDbLine
 10
137.291583
 20
36.16875
 30
0.0
 11
136.291583
 21
35.16875
 31
0.0
  0
LINE
  5
C2
100
AcDbEntity
  8
1
  6
CONTINUOUS
 62
   132
100
AcDbLine
 10
136.291583
 20
35.16875
 30
0.0
 11
137.291583
 21
34.16875
 31
0.0
  0
LINE
  5
C3
100
AcDbEntity
  8
1
  6
DASHED
 62
   132
100
AcDbLine
 10
146.291583
 20
36.91875
 30
0.0
 11
137.291583
 21
36.91875
 31
0.0
  0
LINE
  5
C4
100
AcDbEntity
  8
1
  6
DASHED
 62
   132
100
AcDbLine
 10
146.291583
 20
33.41875
 30
0.0
 11
137.291583
 21
33.41875
 31
0.0
  0
TEXT
  5
C5
100
AcDbEntity
  8
1
  6
CONTINUOUS
 62
     7
100
AcDbText
 10
174.24325
 20
-31.242083
 30
0.0
 40
4.0
  1
TOP VIEW
  7
MONOTXT
210
0.0
220
0.0
230
1.0
100
AcDbText
  0
LINE
  5
C6
100
AcDbEntity
  8
1
  6
CONTINUOUS
 62
     7
100
AcDbLine
 10
173.475
 20
-32.238083
 30
0.0
 11
204.966417
 21
-32.238083
 31
0.0
  0
LINE
  5
C7
100
AcDbEntity
  8
1
  6
CONTINUOUS
 62
    32
100
AcDbLine
 10
294.771917
 20
14.854583
 30
0.0
 11
341.771917
 21
14.854583
 31
0.0
  0
LINE
  5
C8
100
AcDbEntity
  8
1
  6
CONTINUOUS
 62
    32
100
AcDbLine
 10
342.271917
 20
14.104583
 30
0.0
 11
356.55025
 21
42.7425
 31
0.0
  0
LINE
  5
C9
100
AcDbEntity
  8
1
  6
CONTINUOUS
 62
    32
100
AcDbLine
 10
341.771917
 20
14.854583
 30
0.0
 11
355.487083
 21
42.363083
 31
0.0
  0
LINE
  5
CA
100
AcDbEntity
  8
1
  6
CONTINUOUS
 62
    32
100
AcDbLine
 10
356.55025
 20
42.7425
 30
0.0
 11
338.006583
 21
50.234667
 31
0.0
  0
LINE
  5
CB
100
AcDbEntity
  8
1
  6
CONTINUOUS
 62
    32
100
AcDbLine
 10
355.487083
 20
42.363083
 30
0.0
 11
338.0065
 21
49.42575
 31
0.0
  0
LINE
  5
CC
100
AcDbEntity
  8
1
  6
CONTINUOUS
 62
    32
100
AcDbLine
 10
338.006583
 20
50.234667
 30
0.0
 11
331.516333
 21
47.612417
 31
0.0
  0
LINE
  5
CD
100
AcDbEntity
  8
1
  6
CONTINUOUS
 62
    32
100
AcDbLine
 10
338.0065
 20
49.42575
 30
0.0
 11
331.79725
 21
46.917
 31
0.0
  0
LINE
  5
CE
100
AcDbEntity
  8
1
  6
CONTINUOUS
 62
    32
100
AcDbLine
 10
281.448417
 20
27.383667
 30
0.0
 11
276.8125
 21
25.510667
 31
0.0
  0
LINE
  5
CF
100
AcDbEntity
  8
1
  6
CONTINUOUS
 62
    32
100
AcDbLine
 10
281.729333
 20
26.68825
 30
0.0
 11
277.353417
 21
24.920333
 31
0.0
  0
LINE
  5
D0
100
AcDbEntity
  8
1
  6
CONTINUOUS
 62
    32
100
AcDbLine
 10
276.8125
 20
25.510667
 30
0.0
 11
274.134333
 21
20.254583
 31
0.0
  0
LINE
  5
D1
100
AcDbEntity
  8
1
  6
CONTINUOUS
 62
    32
100
AcDbLine
 10
277.353417
 20
24.920333
 30
0.0
 11
275.210833
 21
20.715167
 31
0.0
  0
LINE
  5
D2
100
AcDbEntity
  8
1
  6
CONTINUOUS
 62
    32
100
AcDbLine
 10
275.210833
 20
20.715167
 30
0.0
 11
294.771917
 21
14.854583
 31
0.0
  0
LINE
  5
D3
100
AcDbEntity
  8
1
  6
CONTINUOUS
 62
    32
100
AcDbLine
 10
274.134333
 20
20.254583
 30
0.0
 11
294.66175
 21
14.104583
 31
0.0
  0
LINE
  5
D4
100
AcDbEntity
  8
1
  6
CONTINUOUS
 62
    32
100
AcDbLine
 10
331.516333
 20
47.612417
 30
0.0
 11
331.79725
 21
46.917
 31
0.0
  0
LINE
  5
D5
100
AcDbEntity
  8
1
  6
CONTINUOUS
 62
    32
100
AcDbLine
 10
281.448417
 20
27.383667
 30
0.0
 11
281.729333
 21
26.68825
 31
0.0
  0
LINE
  5
D6
100
AcDbEntity
  8
1
  6
CONTINUOUS
 62
    32
100
AcDbLine
 10
282.269333
 20
26.0975
 30
0.0
 11
279.488667
 21
24.974083
 31
0.0
  0
LINE
  5
D7
100
AcDbEntity
  8
1
  6
CONTINUOUS
 62
    32
100
AcDbLine
 10
335.04225
 20
47.419167
 30
0.0
 11
331.81925
 21
46.117
 31
0.0
  0
LINE
  5
D8
100
AcDbEntity
  8
1
  6
CONTINUOUS
 62
    32
100
AcDbLine
 10
279.20775
 20
25.6695
 30
0.0
 11
279.488667
 21
24.974083
 31
0.0
  0
LINE
  5
D9
100
AcDbEntity
  8
1
  6
CONTINUOUS
 62
    32
100
AcDbLine
 10
334.761333
 20
48.114583
 30
0.0
 11
335.04225
 21
47.419167
 31
0.0
  0
ARC
  5
DA
100
AcDbEntity
  8
1
  6
CONTINUOUS
 62
    32
100
AcDbCircle
 10
336.818171
 20
-37.585693
 30
0.0
 40
85.362916
210
0.0
220
0.0
230
1.0
100
AcDbArc
 50
93.560897
 51
130.4391
  0
ARC
  5
DB
100
AcDbEntity
  8
1
  6
CONTINUOUS
 62
    32
100
AcDbCircle
 10
337.390807
 20
-39.003015
 30
0.0
 40
85.302142
210
0.0
220
0.0
230
1.0
100
AcDbArc
 50
93.744961
 51
130.255042
  0
LINE
  5
DC
100
AcDbEntity
  8
1
  6
CONTINUOUS
 62
    32
100
AcDbLine
 10
278.445083
 20
18.963083
 30
0.0
 11
271.750917
 21
16.9165
 31
0.0
  0
LINE
  5
DD
100
AcDbEntity
  8
1
  6
CONTINUOUS
 62
    32
100
AcDbLine
 10
271.750917
 20
16.9165
 30
0.0
 11
271.507167
 21
18.901583
 31
0.0
  0
ARC
  5
DE
100
AcDbEntity
  8
1
  6
CONTINUOUS
 62
    32
100
AcDbCircle
 10
270.868152
 20
23.369512
 30
0.0
 40
4.513394
210
0.0
220
0.0
230
1.0
100
AcDbArc
 50
278.139406
 51
316.357847
  0
LINE
  5
DF
100
AcDbEntity
  8
1
  6
CONTINUOUS
 62
    32
100
AcDbLine
 10
344.949083
 20
19.474167
 30
0.0
 11
354.949083
 21
19.474167
 31
0.0
  0
LINE
  5
E0
100
AcDbEntity
  8
1
  6
CONTINUOUS
 62
    32
100
AcDbLine
 10
354.949083
 20
19.474167
 30
0.0
 11
354.949083
 21
39.531083
 31
0.0
  0
LINE
  5
E1
100
AcDbEntity
  8
1
  6
CONTINUOUS
 62
    32
100
AcDbLine
 10
355.949083
 20
18.474167
 30
0.0
 11
355.949083
 21
41.53675
 31
0.0
  0
LINE
  5
E2
100
AcDbEntity
  8
1
  6
CONTINUOUS
 62
    32
100
AcDbLine
 10
344.4505
 20
18.474167
 30
0.0
 11
355.949083
 21
18.474167
 31
0.0
  0
LINE
  5
E3
100
AcDbEntity
  8
1
  6
CONTINUOUS
 62
    32
100
AcDbLine
 10
334.021917
 20
14.854583
 30
0.0
 11
334.021917
 21
23.354583
 31
0.0
  0
LINE
  5
E4
100
AcDbEntity
  8
1
  6
CONTINUOUS
 62
    32
100
AcDbLine
 10
334.021917
 20
23.354583
 30
0.0
 11
346.009833
 21
23.354583
 31
0.0
  0
CIRCLE
  5
E5
100
AcDbEntity
  8
1
  6
CONTINUOUS
 62
    32
100
AcDbCircle
 10
338.521917
 20
19.104583
 30
0.0
 40
2.0
210
0.0
220
0.0
230
1.0
  0
LINE
  5
E6
100
AcDbEntity
  8
1
  6
CONTINUOUS
 62
     7
100
AcDbLine
 10
333.021917
 20
19.104583
 30
0.0
 11
337.021917
 21
19.104583
 31
0.0
  0
LINE
  5
E7
100
AcDbEntity
  8
1
  6
CONTINUOUS
 62
     7
100
AcDbLine
 10
338.521917
 20
20.604583
 30
0.0
 11
338.521917
 21
24.354583
 31
0.0
  0
LINE
  5
E8
100
AcDbEntity
  8
1
  6
CONTINUOUS
 62
     7
100
AcDbLine
 10
337.521917
 20
19.104583
 30
0.0
 11
339.521917
 21
19.104583
 31
0.0
  0
LINE
  5
E9
100
AcDbEntity
  8
1
  6
CONTINUOUS
 62
     7
100
AcDbLine
 10
340.021917
 20
19.104583
 30
0.0
 11
342.71125
 21
19.104583
 31
0.0
  0
LINE
  5
EA
100
AcDbEntity
  8
1
  6
CONTINUOUS
 62
     7
100
AcDbLine
 10
338.521917
 20
14.487417
 30
0.0
 11
338.521917
 21
17.604583
 31
0.0
  0
LINE
  5
EB
100
AcDbEntity
  8
1
  6
CONTINUOUS
 62
     7
100
AcDbLine
 10
338.521917
 20
18.104583
 30
0.0
 11
338.521917
 21
20.104583
 31
0.0
  0
ARC
  5
EC
100
AcDbEntity
  8
1
  6
CONTINUOUS
 62
    32
100
AcDbCircle
 10
303.791862
 20
44.157281
 30
0.0
 40
28.095817
210
0.0
220
0.0
230
1.0
100
AcDbArc
 50
220.000367
 51
3.9997
  0
LINE
  5
ED
100
AcDbEntity
  8
1
  6
CONTINUOUS
 62
    32
100
AcDbLine
 10
301.16175
 20
14.104583
 30
0.0
 11
301.16175
 21
13.104583
 31
0.0
  0
LINE
  5
EE
100
AcDbEntity
  8
1
  6
CONTINUOUS
 62
    32
100
AcDbLine
 10
304.66175
 20
14.104583
 30
0.0
 11
304.66175
 21
13.104583
 31
0.0
  0
LINE
  5
EF
100
AcDbEntity
  8
1
  6
CONTINUOUS
 62
    32
100
AcDbLine
 10
321.66175
 20
14.104583
 30
0.0
 11
321.66175
 21
13.104583
 31
0.0
  0
LINE
  5
F0
100
AcDbEntity
  8
1
  6
CONTINUOUS
 62
    32
100
AcDbLine
 10
325.16175
 20
14.104583
 30
0.0
 11
325.16175
 21
13.104583
 31
0.0
  0
LINE
  5
F1
100
AcDbEntity
  8
1
  6
CONTINUOUS
 62
    32
100
AcDbLine
 10
301.16175
 20
13.104583
 30
0.0
 11
304.66175
 21
13.104583
 31
0.0
  0
LINE
  5
F2
100
AcDbEntity
  8
1
  6
CONTINUOUS
 62
    32
100
AcDbLine
 10
321.66175
 20
13.104583
 30
0.0
 11
325.16175
 21
13.104583
 31
0.0
  0
LINE
  5
F3
100
AcDbEntity
  8
1
  6
CONTINUOUS
 62
    32
100
AcDbLine
 10
302.41175
 20
14.104583
 30
0.0
 11
302.41175
 21
13.104583
 31
0.0
  0
LINE
  5
F4
100
AcDbEntity
  8
1
  6
CONTINUOUS
 62
    32
100
AcDbLine
 10
303.41175
 20
14.104583
 30
0.0
 11
303.41175
 21
13.104583
 31
0.0
  0
LINE
  5
F5
100
AcDbEntity
  8
1
  6
CONTINUOUS
 62
    32
100
AcDbLine
 10
322.91175
 20
14.104583
 30
0.0
 11
322.91175
 21
13.104583
 31
0.0
  0
LINE
  5
F6
100
AcDbEntity
  8
1
  6
CONTINUOUS
 62
    32
100
AcDbLine
 10
323.91175
 20
14.104583
 30
0.0
 11
323.91175
 21
13.104583
 31
0.0
  0
LINE
  5
F7
100
AcDbEntity
  8
1
  6
CONTINUOUS
 62
    32
100
AcDbLine
 10
294.66175
 20
14.104583
 30
0.0
 11
304.66175
 21
14.104583
 31
0.0
  0
LINE
  5
F8
100
AcDbEntity
  8
1
  6
CONTINUOUS
 62
    32
100
AcDbLine
 10
304.66175
 20
14.104583
 30
0.0
 11
321.66175
 21
14.104583
 31
0.0
  0
LINE
  5
F9
100
AcDbEntity
  8
1
  6
CONTINUOUS
 62
    32
100
AcDbLine
 10
321.66175
 20
14.104583
 30
0.0
 11
342.271917
 21
14.104583
 31
0.0
  0
CIRCLE
  5
FA
100
AcDbEntity
  8
1
  6
CONTINUOUS
 62
    32
100
AcDbCircle
 10
313.16175
 20
26.604583
 30
0.0
 40
7.5
210
0.0
220
0.0
230
1.0
  0
LINE
  5
FB
100
AcDbEntity
  8
1
  6
CONTINUOUS
 62
     7
100
AcDbLine
 10
303.16175
 20
26.604583
 30
0.0
 11
311.16175
 21
26.604583
 31
0.0
  0
LINE
  5
FC
100
AcDbEntity
  8
1
  6
CONTINUOUS
 62
     7
100
AcDbLine
 10
313.16175
 20
28.604583
 30
0.0
 11
313.16175
 21
36.03925
 31
0.0
  0
LINE
  5
FD
100
AcDbEntity
  8
1
  6
CONTINUOUS
 62
     7
100
AcDbLine
 10
312.16175
 20
26.604583
 30
0.0
 11
314.16175
 21
26.604583
 31
0.0
  0
LINE
  5
FE
100
AcDbEntity
  8
1
  6
CONTINUOUS
 62
     7
100
AcDbLine
 10
315.16175
 20
26.604583
 30
0.0
 11
323.16175
 21
26.604583
 31
0.0
  0
LINE
  5
FF
100
AcDbEntity
  8
1
  6
CONTINUOUS
 62
     7
100
AcDbLine
 10
313.16175
 20
17.169917
 30
0.0
 11
313.16175
 21
24.604583
 31
0.0
  0
LINE
  5
100
100
AcDbEntity
  8
1
  6
CONTINUOUS
 62
     7
100
AcDbLine
 10
313.16175
 20
25.604583
 30
0.0
 11
313.16175
 21
27.604583
 31
0.0
  0
LINE
  5
101
100
AcDbEntity
  8
1
  6
CONTINUOUS
 62
     7
100
AcDbLine
 10
302.91175
 20
14.604583
 30
0.0
 11
302.91175
 21
12.604583
 31
0.0
  0
LINE
  5
102
100
AcDbEntity
  8
1
  6
CONTINUOUS
 62
     7
100
AcDbLine
 10
323.41175
 20
14.604583
 30
0.0
 11
323.41175
 21
12.604583
 31
0.0
  0
LINE
  5
103
100
AcDbEntity
  8
1
  6
CONTINUOUS
 62
     7
100
AcDbLine
 10
302.91175
 20
15.604583
 30
0.0
 11
302.91175
 21
17.604583
 31
0.0
  0
LINE
  5
104
100
AcDbEntity
  8
1
  6
CONTINUOUS
 62
     7
100
AcDbLine
 10
323.41175
 20
15.604583
 30
0.0
 11
323.41175
 21
17.604583
 31
0.0
  0
LINE
  5
105
100
AcDbEntity
  8
1
  6
CONTINUOUS
 62
     7
100
AcDbLine
 10
302.91175
 20
11.604583
 30
0.0
 11
302.91175
 21
2.604583
 31
0.0
  0
LINE
  5
106
100
AcDbEntity
  8
1
  6
CONTINUOUS
 62
     7
100
AcDbLine
 10
323.41175
 20
11.604583
 30
0.0
 11
323.41175
 21
2.604583
 31
0.0
  0
LINE
  5
107
100
AcDbEntity
  8
1
  6
CONTINUOUS
 62
     7
100
AcDbLine
 10
302.91175
 20
3.604583
 30
0.0
 11
323.41175
 21
3.604583
 31
0.0
  0
INSERT
  5
108
100
AcDbEntity
  8
1
  6
CONTINUOUS
 62
     1
100
AcDbBlockReference
  2
LDR
 10
302.91175
 20
3.604583
 30
0.0
 41
240.0
 42
240.0
 50
180.0
210
0.0
220
0.0
230
1.0
  0
INSERT
  5
109
100
AcDbEntity
  8
1
  6
CONTINUOUS
 62
     1
100
AcDbBlockReference
  2
LDR
 10
302.91175
 20
3.604583
 30
0.0
 41
240.0
 42
240.0
 50
180.0
210
0.0
220
0.0
230
1.0
  0
INSERT
  5
10A
100
AcDbEntity
  8
1
  6
CONTINUOUS
 62
     1
100
AcDbBlockReference
  2
LDR
 10
323.41175
 20
3.604583
 30
0.0
 41
240.0
 42
240.0
210
0.0
220
0.0
230
1.0
  0
LINE
  5
10B
100
AcDbEntity
  8
1
  6
CONTINUOUS
 62
     7
100
AcDbLine
 10
341.006583
 20
50.234667
 30
0.0
 11
386.006583
 21
50.234667
 31
0.0
  0
LINE
  5
10C
100
AcDbEntity
  8
1
  6
CONTINUOUS
 62
     7
100
AcDbLine
 10
344.271917
 20
14.104583
 30
0.0
 11
386.006583
 21
14.104583
 31
0.0
  0
LINE
  5
10D
100
AcDbEntity
  8
1
  6
CONTINUOUS
 62
     7
100
AcDbLine
 10
385.006583
 20
50.234667
 30
0.0
 11
385.006583
 21
14.104583
 31
0.0
  0
INSERT
  5
10E
100
AcDbEntity
  8
1
  6
CONTINUOUS
 62
     1
100
AcDbBlockReference
  2
LDR
 10
385.006583
 20
50.234667
 30
0.0
 41
240.0
 42
240.0
 50
90.0
210
0.0
220
0.0
230
1.0
  0
INSERT
  5
10F
100
AcDbEntity
  8
1
  6
CONTINUOUS
 62
     1
100
AcDbBlockReference
  2
LDR
 10
385.006583
 20
50.234667
 30
0.0
 41
240.0
 42
240.0
 50
90.0
210
0.0
220
0.0
230
1.0
  0
INSERT
  5
110
100
AcDbEntity
  8
1
  6
CONTINUOUS
 62
     1
100
AcDbBlockReference
  2
LDR
 10
385.006583
 20
14.104583
 30
0.0
 41
240.0
 42
240.0
 50
270.0
210
0.0
220
0.0
230
1.0
  0
LINE
  5
111
100
AcDbEntity
  8
1
  6
CONTINUOUS
 62
     7
100
AcDbLine
 10
309.392167
 20
16.780083
 30
0.0
 11
289.228667
 21
37.812167
 31
0.0
  0
LINE
  5
112
100
AcDbEntity
  8
1
  6
CONTINUOUS
 62
     7
100
AcDbLine
 10
289.228667
 20
37.812167
 30
0.0
 11
283.196833
 21
37.812167
 31
0.0
  0
INSERT
  5
113
100
AcDbEntity
  8
1
  6
CONTINUOUS
 62
     1
100
AcDbBlockReference
  2
LDR
 10
309.392167
 20
16.780083
 30
0.0
 41
239.999999
 42
239.999999
 50
313.792133
210
0.0
220
0.0
230
1.0
  0
LINE
  5
114
100
AcDbEntity
  8
1
  6
CONTINUOUS
 62
     7
100
AcDbLine
 10
271.507167
 20
18.901583
 30
0.0
 11
265.446
 21
23.675833
 31
0.0
  0
LINE
  5
115
100
AcDbEntity
  8
1
  6
CONTINUOUS
 62
     7
100
AcDbLine
 10
265.446
 20
23.675833
 30
0.0
 11
261.654583
 21
23.675833
 31
0.0
  0
INSERT
  5
116
100
AcDbEntity
  8
1
  6
CONTINUOUS
 62
     1
100
AcDbBlockReference
  2
LDR
 10
271.507167
 20
18.901583
 30
0.0
 41
240.000001
 42
240.000001
 50
321.77326
210
0.0
220
0.0
230
1.0
  0
INSERT
  5
117
100
AcDbEntity
  8
1
  6
CONTINUOUS
 62
     1
100
AcDbBlockReference
  2
LDR
 10
271.507167
 20
18.901583
 30
0.0
 41
240.000001
 42
240.000001
 50
321.77326
210
0.0
220
0.0
230
1.0
  0
LINE
  5
118
100
AcDbEntity
  8
1
  6
CONTINUOUS
 62
     7
100
AcDbLine
 10
315.251667
 20
45.225083
 30
0.0
 11
313.355917
 21
58.844167
 31
0.0
  0
LINE
  5
119
100
AcDbEntity
  8
1
  6
CONTINUOUS
 62
     7
100
AcDbLine
 10
313.355917
 20
58.844167
 30
0.0
 11
308.5305
 21
58.844167
 31
0.0
  0
INSERT
  5
11A
100
AcDbEntity
  8
1
  6
CONTINUOUS
 62
     1
100
AcDbBlockReference
  2
LDR
 10
315.251667
 20
45.225083
 30
0.0
 41
239.999998
 42
239.999998
 50
277.924541
210
0.0
220
0.0
230
1.0
  0
LINE
  5
11B
100
AcDbEntity
  8
1
  6
CONTINUOUS
 62
     7
100
AcDbLine
 10
339.936167
 20
17.690333
 30
0.0
 11
348.68525
 21
5.057333
 31
0.0
  0
LINE
  5
11C
100
AcDbEntity
  8
1
  6
CONTINUOUS
 62
     7
100
AcDbLine
 10
348.68525
 20
5.057333
 30
0.0
 11
353.21875
 21
5.057333
 31
0.0
  0
INSERT
  5
11D
100
AcDbEntity
  8
1
  6
CONTINUOUS
 62
     1
100
AcDbBlockReference
  2
LDR
 10
339.936167
 20
17.690333
 30
0.0
 41
240.000001
 42
240.000001
 50
124.704842
210
0.0
220
0.0
230
1.0
  0
TEXT
  5
11E
100
AcDbEntity
  8
1
  6
CONTINUOUS
 62
     7
100
AcDbText
 10
270.960833
 20
57.723333
 30
0.0
 40
2.5
  1
PRISMATIC LENS IN
  7
MONOTXT
 11
270.960833
 21
60.223333
 31
0.0
210
0.0
220
0.0
230
1.0
100
AcDbText
 73
     3
  0
TEXT
  5
11F
100
AcDbEntity
  8
1
  6
CONTINUOUS
 62
     7
100
AcDbText
 10
270.960833
 20
53.223333
 30
0.0
 40
2.5
  1
HINGED CAST FRAME
  7
MONOTXT
 11
270.960833
 21
55.723333
 31
0.0
210
0.0
220
0.0
230
1.0
100
AcDbText
 73
     3
  0
TEXT
  5
120
100
AcDbEntity
  8
1
  6
CONTINUOUS
 62
     7
100
AcDbText
 10
240.284667
 20
41.173583
 30
0.0
 40
2.5
  1
ASSYMETRIC POLISHED
  7
MONOTXT
 11
240.284667
 21
43.673583
 31
0.0
210
0.0
220
0.0
230
1.0
100
AcDbText
 73
     3
  0
TEXT
  5
121
100
AcDbEntity
  8
1
  6
CONTINUOUS
 62
     7
100
AcDbText
 10
240.284667
 20
36.673583
 30
0.0
 40
2.5
  1
ALUMINUM REFLECTOR
  7
MONOTXT
 11
240.284667
 21
39.173583
 31
0.0
210
0.0
220
0.0
230
1.0
100
AcDbText
 73
     3
  0
TEXT
  5
122
100
AcDbEntity
  8
1
  6
CONTINUOUS
 62
     7
100
AcDbText
 10
240.284667
 20
32.173583
 30
0.0
 40
2.5
  1
OR APPROVED EQUAL
  7
MONOTXT
 11
240.284667
 21
34.673583
 31
0.0
210
0.0
220
0.0
230
1.0
100
AcDbText
 73
     3
  0
TEXT
  5
123
100
AcDbEntity
  8
1
  6
CONTINUOUS
 62
     7
100
AcDbText
 10
249.073917
 20
22.382667
 30
0.0
 40
2.5
  1
LATCH
  7
MONOTXT
 11
249.073917
 21
24.882667
 31
0.0
210
0.0
220
0.0
230
1.0
100
AcDbText
 73
     3
  0
TEXT
  5
124
100
AcDbEntity
  8
1
  6
CONTINUOUS
 62
     7
100
AcDbText
 10
249.073917
 20
17.882667
 30
0.0
 40
2.5
  1
(TYP.)
  7
MONOTXT
 11
249.073917
 21
20.382667
 31
0.0
210
0.0
220
0.0
230
1.0
100
AcDbText
 73
     3
  0
TEXT
  5
125
100
AcDbEntity
  8
1
  6
CONTINUOUS
 62
     7
100
AcDbText
 10
297.500917
 20
-11.492417
 30
0.0
 40
4.0
  1
SECTIONAL END VIEW
  7
MONOTXT
210
0.0
220
0.0
230
1.0
100
AcDbText
  0
LINE
  5
126
100
AcDbEntity
  8
1
  6
CONTINUOUS
 62
     7
100
AcDbLine
 10
296.639167
 20
-12.871583
 30
0.0
 11
364.03125
 21
-12.871583
 31
0.0
  0
LINE
  5
127
100
AcDbEntity
  8
1
  6
CONTINUOUS
 62
     2
100
AcDbLine
 10
186.642083
 20
129.77525
 30
0.0
 11
234.142083
 21
129.77525
 31
0.0
  0
LINE
  5
128
100
AcDbEntity
  8
1
  6
CONTINUOUS
 62
     2
100
AcDbLine
 10
234.142083
 20
129.77525
 30
0.0
 11
248.66975
 21
158.2875
 31
0.0
  0
LINE
  5
129
100
AcDbEntity
  8
1
  6
CONTINUOUS
 62
     2
100
AcDbLine
 10
248.66975
 20
158.2875
 30
0.0
 11
230.589667
 21
165.592333
 31
0.0
  0
LINE
  5
12A
100
AcDbEntity
  8
1
  6
CONTINUOUS
 62
     2
100
AcDbLine
 10
230.58975
 20
165.592333
 30
0.0
 11
168.973333
 21
141.940083
 31
0.0
  0
LINE
  5
12B
100
AcDbEntity
  8
1
  6
CONTINUOUS
 62
     2
100
AcDbLine
 10
168.973333
 20
141.940083
 30
0.0
 11
166.626
 21
137.525333
 31
0.0
  0
LINE
  5
12C
100
AcDbEntity
  8
1
  6
CONTINUOUS
 62
     2
100
AcDbLine
 10
166.626
 20
137.525333
 30
0.0
 11
186.642083
 21
129.77525
 31
0.0
  0
LINE
  5
12D
100
AcDbEntity
  8
1
  6
CONTINUOUS
 62
     2
100
AcDbLine
 10
166.626
 20
137.525333
 30
0.0
 11
248.66975
 21
158.2875
 31
0.0
  0
LINE
  5
12E
100
AcDbEntity
  8
1
  6
CONTINUOUS
 62
     2
100
AcDbLine
 10
170.391833
 20
136.06725
 30
0.0
 11
164.242583
 21
134.18725
 31
0.0
  0
LINE
  5
12F
100
AcDbEntity
  8
1
  6
CONTINUOUS
 62
     2
100
AcDbLine
 10
164.242583
 20
134.18725
 30
0.0
 11
163.998833
 21
136.172333
 31
0.0
  0
ARC
  5
130
100
AcDbEntity
  8
1
  6
CONTINUOUS
 62
     2
100
AcDbCircle
 10
163.359818
 20
140.640262
 30
0.0
 40
4.513394
210
0.0
220
0.0
230
1.0
100
AcDbArc
 50
278.139406
 51
316.357847
  0
CIRCLE
  5
131
100
AcDbEntity
  8
1
  6
CONTINUOUS
 62
     2
100
AcDbCircle
 10
231.56625
 20
133.26925
 30
0.0
 40
2.0
210
0.0
220
0.0
230
1.0
  0
LINE
  5
132
100
AcDbEntity
  8
1
  6
CONTINUOUS
 62
     2
100
AcDbLine
 10
230.339917
 20
134.849083
 30
0.0
 11
233.146083
 21
132.042917
 31
0.0
  0
LINE
  5
133
100
AcDbEntity
  8
1
  6
CONTINUOUS
 62
     2
100
AcDbLine
 10
229.986333
 20
134.4955
 30
0.0
 11
232.7925
 21
131.689333
 31
0.0
  0
LINE
  5
134
100
AcDbEntity
  8
1
  6
CONTINUOUS
 62
     2
100
AcDbLine
 10
227.114333
 20
176.040833
 30
0.0
 11
163.164083
 21
151.492667
 31
0.0
  0
LINE
  5
135
100
AcDbEntity
  8
1
  6
CONTINUOUS
 62
     2
100
AcDbLine
 10
227.383083
 20
175.340583
 30
0.0
 11
163.432833
 21
150.792417
 31
0.0
  0
LINE
  5
136
100
AcDbEntity
  8
1
  6
CONTINUOUS
 62
     2
100
AcDbLine
 10
230.518833
 20
167.17175
 30
0.0
 11
227.114333
 21
176.040833
 31
0.0
  0
LINE
  5
137
100
AcDbEntity
  8
1
  6
CONTINUOUS
 62
     2
100
AcDbLine
 10
166.792583
 20
142.040083
 30
0.0
 11
163.164083
 21
151.492667
 31
0.0
  0
LINE
  5
138
100
AcDbEntity
  8
1
  6
CONTINUOUS
 62
     2
100
AcDbLine
 10
230.518833
 20
167.17175
 30
0.0
 11
230.383167
 21
165.513083
 31
0.0
  0
LINE
  5
139
100
AcDbEntity
  8
1
  6
CONTINUOUS
 62
     2
100
AcDbLine
 10
166.568583
 20
142.623583
 30
0.0
 11
168.973333
 21
141.940083
 31
0.0
  0
LINE
  5
13A
100
AcDbEntity
  8
1
  6
CONTINUOUS
 62
     2
100
AcDbLine
 10
166.792583
 20
142.040083
 30
0.0
 11
168.836583
 21
141.459083
 31
0.0
  0
ARC
  5
13B
100
AcDbEntity
  8
1
  6
CONTINUOUS
 62
     2
100
AcDbCircle
 10
223.119848
 20
91.572068
 30
0.0
 40
71.894296
210
0.0
220
0.0
230
1.0
100
AcDbArc
 50
88.510886
 51
133.488919
  0
LINE
  5
13C
100
AcDbEntity
  8
1
  6
CONTINUOUS
 62
     2
100
AcDbLine
 10
192.642083
 20
129.77525
 30
0.0
 11
192.642083
 21
128.77525
 31
0.0
  0
LINE
  5
13D
100
AcDbEntity
  8
1
  6
CONTINUOUS
 62
     2
100
AcDbLine
 10
196.142083
 20
129.77525
 30
0.0
 11
196.142083
 21
128.77525
 31
0.0
  0
LINE
  5
13E
100
AcDbEntity
  8
1
  6
CONTINUOUS
 62
     2
100
AcDbLine
 10
213.142083
 20
129.77525
 30
0.0
 11
213.142083
 21
128.77525
 31
0.0
  0
LINE
  5
13F
100
AcDbEntity
  8
1
  6
CONTINUOUS
 62
     2
100
AcDbLine
 10
216.642083
 20
129.77525
 30
0.0
 11
216.642083
 21
128.77525
 31
0.0
  0
LINE
  5
140
100
AcDbEntity
  8
1
  6
CONTINUOUS
 62
     2
100
AcDbLine
 10
192.642083
 20
128.77525
 30
0.0
 11
196.142083
 21
128.77525
 31
0.0
  0
LINE
  5
141
100
AcDbEntity
  8
1
  6
CONTINUOUS
 62
     2
100
AcDbLine
 10
213.142083
 20
128.77525
 30
0.0
 11
216.642083
 21
128.77525
 31
0.0
  0
LINE
  5
142
100
AcDbEntity
  8
1
  6
CONTINUOUS
 62
     2
100
AcDbLine
 10
198.871917
 20
153.952583
 30
0.0
 11
174.619833
 21
144.643083
 31
0.0
  0
LINE
  5
143
100
AcDbEntity
  8
1
  6
CONTINUOUS
 62
     2
100
AcDbLine
 10
201.627
 20
155.54575
 30
0.0
 11
175.66525
 21
145.579917
 31
0.0
  0
LINE
  5
144
100
AcDbEntity
  8
1
  6
CONTINUOUS
 62
     2
100
AcDbLine
 10
201.535333
 20
156.046083
 30
0.0
 11
176.788667
 21
146.546667
 31
0.0
  0
LINE
  5
145
100
AcDbEntity
  8
1
  6
CONTINUOUS
 62
     2
100
AcDbLine
 10
199.199583
 20
155.685
 30
0.0
 11
178.005
 21
147.54925
 31
0.0
  0
LINE
  5
146
100
AcDbEntity
  8
1
  6
CONTINUOUS
 62
     2
100
AcDbLine
 10
198.758583
 20
156.051333
 30
0.0
 11
179.334333
 21
148.595
 31
0.0
  0
LINE
  5
147
100
AcDbEntity
  8
1
  6
CONTINUOUS
 62
     2
100
AcDbLine
 10
199.704
 20
156.949833
 30
0.0
 11
180.806417
 21
149.69575
 31
0.0
  0
LINE
  5
148
100
AcDbEntity
  8
1
  6
CONTINUOUS
 62
     2
100
AcDbLine
 10
199.650833
 20
157.464917
 30
0.0
 11
182.46575
 21
150.86825
 31
0.0
  0
LINE
  5
149
100
AcDbEntity
  8
1
  6
CONTINUOUS
 62
     2
100
AcDbLine
 10
198.697583
 20
157.634667
 30
0.0
 11
184.389583
 21
152.142333
 31
0.0
  0
LINE
  5
14A
100
AcDbEntity
  8
1
  6
CONTINUOUS
 62
     2
100
AcDbLine
 10
174.681583
 20
144.13125
 30
0.0
 11
174.520083
 21
144.551833
 31
0.0
  0
LINE
  5
14B
100
AcDbEntity
  8
1
  6
CONTINUOUS
 62
     2
100
AcDbLine
 10
175.148333
 20
144.310417
 30
0.0
 11
174.916917
 21
144.913083
 31
0.0
  0
LINE
  5
14C
100
AcDbEntity
  8
1
  6
CONTINUOUS
 62
     2
100
AcDbLine
 10
175.615083
 20
144.489667
 30
0.0
 11
175.31525
 21
145.270417
 31
0.0
  0
LINE
  5
14D
100
AcDbEntity
  8
1
  6
CONTINUOUS
 62
     2
100
AcDbLine
 10
176.081833
 20
144.668917
 30
0.0
 11
175.715167
 21
145.62375
 31
0.0
  0
LINE
  5
14E
100
AcDbEntity
  8
1
  6
CONTINUOUS
 62
     2
100
AcDbLine
 10
176.548583
 20
144.848167
 30
0.0
 11
176.116583
 21
145.973167
 31
0.0
  0
LINE
  5
14F
100
AcDbEntity
  8
1
  6
CONTINUOUS
 62
     2
100
AcDbLine
 10
177.015417
 20
145.027417
 30
0.0
 11
176.519583
 21
146.31875
 31
0.0
  0
LINE
  5
150
100
AcDbEntity
  8
1
  6
CONTINUOUS
 62
     2
100
AcDbLine
 10
177.482167
 20
145.206583
 30
0.0
 11
176.923917
 21
146.660417
 31
0.0
  0
LINE
  5
151
100
AcDbEntity
  8
1
  6
CONTINUOUS
 62
     2
100
AcDbLine
 10
177.948917
 20
145.385833
 30
0.0
 11
177.32975
 21
146.99825
 31
0.0
  0
LINE
  5
152
100
AcDbEntity
  8
1
  6
CONTINUOUS
 62
     2
100
AcDbLine
 10
178.415667
 20
145.565083
 30
0.0
 11
177.737083
 21
147.33225
 31
0.0
  0
LINE
  5
153
100
AcDbEntity
  8
1
  6
CONTINUOUS
 62
     2
100
AcDbLine
 10
178.8825
 20
145.744333
 30
0.0
 11
178.145917
 21
147.6625
 31
0.0
  0
LINE
  5
154
100
AcDbEntity
  8
1
  6
CONTINUOUS
 62
     2
100
AcDbLine
 10
179.34925
 20
145.923583
 30
0.0
 11
178.556167
 21
147.989
 31
0.0
  0
LINE
  5
155
100
AcDbEntity
  8
1
  6
CONTINUOUS
 62
     2
100
AcDbLine
 10
179.816
 20
146.102833
 30
0.0
 11
178.967833
 21
148.31175
 31
0.0
  0
LINE
  5
156
100
AcDbEntity
  8
1
  6
CONTINUOUS
 62
     2
100
AcDbLine
 10
180.28275
 20
146.282
 30
0.0
 11
179.380833
 21
148.63075
 31
0.0
  0
LINE
  5
157
100
AcDbEntity
  8
1
  6
CONTINUOUS
 62
     2
100
AcDbLine
 10
180.749583
 20
146.46125
 30
0.0
 11
179.795417
 21
148.946167
 31
0.0
  0
LINE
  5
158
100
AcDbEntity
  8
1
  6
CONTINUOUS
 62
     2
100
AcDbLine
 10
181.216333
 20
146.6405
 30
0.0
 11
180.211333
 21
149.257833
 31
0.0
  0
LINE
  5
159
100
AcDbEntity
  8
1
  6
CONTINUOUS
 62
     2
100
AcDbLine
 10
181.683083
 20
146.81975
 30
0.0
 11
180.628583
 21
149.565917
 31
0.0
  0
LINE
  5
15A
100
AcDbEntity
  8
1
  6
CONTINUOUS
 62
     2
100
AcDbLine
 10
182.149833
 20
146.999
 30
0.0
 11
181.04725
 21
149.870333
 31
0.0
  0
LINE
  5
15B
100
AcDbEntity
  8
1
  6
CONTINUOUS
 62
     2
100
AcDbLine
 10
182.616667
 20
147.17825
 30
0.0
 11
181.467417
 21
150.17125
 31
0.0
  0
LINE
  5
15C
100
AcDbEntity
  8
1
  6
CONTINUOUS
 62
     2
100
AcDbLine
 10
183.083417
 20
147.357417
 30
0.0
 11
181.88875
 21
150.4685
 31
0.0
  0
LINE
  5
15D
100
AcDbEntity
  8
1
  6
CONTINUOUS
 62
     2
100
AcDbLine
 10
183.550167
 20
147.536667
 30
0.0
 11
182.311583
 21
150.76225
 31
0.0
  0
LINE
  5
15E
100
AcDbEntity
  8
1
  6
CONTINUOUS
 62
     2
100
AcDbLine
 10
184.016917
 20
147.715917
 30
0.0
 11
182.73575
 21
151.052417
 31
0.0
  0
LINE
  5
15F
100
AcDbEntity
  8
1
  6
CONTINUOUS
 62
     2
100
AcDbLine
 10
184.48375
 20
147.895167
 30
0.0
 11
183.161333
 21
151.339167
 31
0.0
  0
LINE
  5
160
100
AcDbEntity
  8
1
  6
CONTINUOUS
 62
     2
100
AcDbLine
 10
184.9505
 20
148.074417
 30
0.0
 11
183.588167
 21
151.622333
 31
0.0
  0
LINE
  5
161
100
AcDbEntity
  8
1
  6
CONTINUOUS
 62
     2
100
AcDbLine
 10
185.41725
 20
148.253583
 30
0.0
 11
184.01625
 21
151.902
 31
0.0
  0
LINE
  5
162
100
AcDbEntity
  8
1
  6
CONTINUOUS
 62
     2
100
AcDbLine
 10
185.884
 20
148.432833
 30
0.0
 11
184.445833
 21
152.17825
 31
0.0
  0
LINE
  5
163
100
AcDbEntity
  8
1
  6
CONTINUOUS
 62
     2
100
AcDbLine
 10
186.350833
 20
148.612083
 30
0.0
 11
184.876667
 21
152.451083
 31
0.0
  0
LINE
  5
164
100
AcDbEntity
  8
1
  6
CONTINUOUS
 62
     2
100
AcDbLine
 10
186.817583
 20
148.791333
 30
0.0
 11
185.308833
 21
152.720417
 31
0.0
  0
LINE
  5
165
100
AcDbEntity
  8
1
  6
CONTINUOUS
 62
     2
100
AcDbLine
 10
187.284333
 20
148.970583
 30
0.0
 11
185.742333
 21
152.986333
 31
0.0
  0
LINE
  5
166
100
AcDbEntity
  8
1
  6
CONTINUOUS
 62
     2
100
AcDbLine
 10
187.751083
 20
149.149833
 30
0.0
 11
186.177083
 21
153.248833
 31
0.0
  0
LINE
  5
167
100
AcDbEntity
  8
1
  6
CONTINUOUS
 62
     2
100
AcDbLine
 10
188.217917
 20
149.329
 30
0.0
 11
186.61325
 21
153.508
 31
0.0
  0
LINE
  5
168
100
AcDbEntity
  8
1
  6
CONTINUOUS
 62
     2
100
AcDbLine
 10
188.684667
 20
149.50825
 30
0.0
 11
187.050583
 21
153.763667
 31
0.0
  0
LINE
  5
169
100
AcDbEntity
  8
1
  6
CONTINUOUS
 62
     2
100
AcDbLine
 10
189.151417
 20
149.6875
 30
0.0
 11
187.48925
 21
154.016083
 31
0.0
  0
LINE
  5
16A
100
AcDbEntity
  8
1
  6
CONTINUOUS
 62
     2
100
AcDbLine
 10
189.618167
 20
149.86675
 30
0.0
 11
187.92925
 21
154.265083
 31
0.0
  0
LINE
  5
16B
100
AcDbEntity
  8
1
  6
CONTINUOUS
 62
     2
100
AcDbLine
 10
190.085
 20
150.046
 30
0.0
 11
188.370583
 21
154.51075
 31
0.0
  0
LINE
  5
16C
100
AcDbEntity
  8
1
  6
CONTINUOUS
 62
     2
100
AcDbLine
 10
190.55175
 20
150.22525
 30
0.0
 11
188.813083
 21
154.753083
 31
0.0
  0
LINE
  5
16D
100
AcDbEntity
  8
1
  6
CONTINUOUS
 62
     2
100
AcDbLine
 10
191.0185
 20
150.404417
 30
0.0
 11
189.372417
 21
154.691083
 31
0.0
  0
LINE
  5
16E
100
AcDbEntity
  8
1
  6
CONTINUOUS
 62
     2
100
AcDbLine
 10
191.48525
 20
150.583667
 30
0.0
 11
189.749167
 21
155.104833
 31
0.0
  0
LINE
  5
16F
100
AcDbEntity
  8
1
  6
CONTINUOUS
 62
     2
100
AcDbLine
 10
191.952083
 20
150.762917
 30
0.0
 11
190.220667
 21
155.272
 31
0.0
  0
LINE
  5
170
100
AcDbEntity
  8
1
  6
CONTINUOUS
 62
     2
100
AcDbLine
 10
192.418833
 20
150.942167
 30
0.0
 11
190.77875
 21
155.213417
 31
0.0
  0
LINE
  5
171
100
AcDbEntity
  8
1
  6
CONTINUOUS
 62
     2
100
AcDbLine
 10
192.885583
 20
151.121417
 30
0.0
 11
191.284667
 21
155.2905
 31
0.0
  0
LINE
  5
172
100
AcDbEntity
  8
1
  6
CONTINUOUS
 62
     2
100
AcDbLine
 10
193.352333
 20
151.300667
 30
0.0
 11
191.655083
 21
155.720833
 31
0.0
  0
LINE
  5
173
100
AcDbEntity
  8
1
  6
CONTINUOUS
 62
     2
100
AcDbLine
 10
193.819167
 20
151.479833
 30
0.0
 11
192.144333
 21
155.841417
 31
0.0
  0
LINE
  5
174
100
AcDbEntity
  8
1
  6
CONTINUOUS
 62
     2
100
AcDbLine
 10
194.285917
 20
151.659083
 30
0.0
 11
192.51825
 21
156.262583
 31
0.0
  0
LINE
  5
175
100
AcDbEntity
  8
1
  6
CONTINUOUS
 62
     2
100
AcDbLine
 10
194.752667
 20
151.838333
 30
0.0
 11
193.020667
 21
156.348833
 31
0.0
  0
LINE
  5
176
100
AcDbEntity
  8
1
  6
CONTINUOUS
 62
     2
100
AcDbLine
 10
195.219417
 20
152.017583
 30
0.0
 11
193.444417
 21
156.640083
 31
0.0
  0
LINE
  5
177
100
AcDbEntity
  8
1
  6
CONTINUOUS
 62
     2
100
AcDbLine
 10
195.68625
 20
152.196833
 30
0.0
 11
193.911833
 21
156.817833
 31
0.0
  0
LINE
  5
178
100
AcDbEntity
  8
1
  6
CONTINUOUS
 62
     2
100
AcDbLine
 10
194.561917
 20
156.519583
 30
0.0
 11
196.153917
 21
152.373667
 31
0.0
  0
LINE
  5
179
100
AcDbEntity
  8
1
  6
CONTINUOUS
 62
     2
100
AcDbLine
 10
196.61975
 20
152.55525
 30
0.0
 11
194.927417
 21
156.9625
 31
0.0
  0
LINE
  5
17A
100
AcDbEntity
  8
1
  6
CONTINUOUS
 62
     2
100
AcDbLine
 10
197.0865
 20
152.7345
 30
0.0
 11
195.436917
 21
157.030333
 31
0.0
  0
LINE
  5
17B
100
AcDbEntity
  8
1
  6
CONTINUOUS
 62
     2
100
AcDbLine
 10
197.553333
 20
152.91375
 30
0.0
 11
195.88075
 21
157.2695
 31
0.0
  0
LINE
  5
17C
100
AcDbEntity
  8
1
  6
CONTINUOUS
 62
     2
100
AcDbLine
 10
198.020083
 20
153.093
 30
0.0
 11
196.417583
 21
157.266167
 31
0.0
  0
LINE
  5
17D
100
AcDbEntity
  8
1
  6
CONTINUOUS
 62
     2
100
AcDbLine
 10
198.486833
 20
153.27225
 30
0.0
 11
196.80225
 21
157.659333
 31
0.0
  0
LINE
  5
17E
100
AcDbEntity
  8
1
  6
CONTINUOUS
 62
     2
100
AcDbLine
 10
198.953583
 20
153.451417
 30
0.0
 11
197.162167
 21
158.11675
 31
0.0
  0
LINE
  5
17F
100
AcDbEntity
  8
1
  6
CONTINUOUS
 62
     2
100
AcDbLine
 10
230.518833
 20
167.17175
 30
0.0
 11
229.948333
 21
165.346083
 31
0.0
  0
LINE
  5
180
100
AcDbEntity
  8
1
  6
CONTINUOUS
 62
    92
100
AcDbLine
 10
352.193833
 20
151.992917
 30
0.0
 11
269.193833
 21
151.992917
 31
0.0
  0
LINE
  5
181
100
AcDbEntity
  8
1
  6
CONTINUOUS
 62
    92
100
AcDbLine
 10
352.193833
 20
151.242917
 30
0.0
 11
269.193833
 21
151.242917
 31
0.0
  0
LINE
  5
182
100
AcDbEntity
  8
1
  6
CONTINUOUS
 62
    92
100
AcDbLine
 10
352.00125
 20
150.492917
 30
0.0
 11
269.193833
 21
150.492917
 31
0.0
  0
LINE
  5
183
100
AcDbEntity
  8
1
  6
CONTINUOUS
 62
    92
100
AcDbLine
 10
351.693833
 20
154.992917
 30
0.0
 11
270.193833
 21
154.992917
 31
0.0
  0
LINE
  5
184
100
AcDbEntity
  8
1
  6
CONTINUOUS
 62
    92
100
AcDbLine
 10
352.193833
 20
151.992917
 30
0.0
 11
352.193833
 21
154.492917
 31
0.0
  0
LINE
  5
185
100
AcDbEntity
  8
1
  6
CONTINUOUS
 62
    92
100
AcDbLine
 10
269.193833
 20
151.992917
 30
0.0
 11
269.193833
 21
153.992917
 31
0.0
  0
ARC
  5
186
100
AcDbEntity
  8
1
  6
CONTINUOUS
 62
    92
100
AcDbCircle
 10
270.193833
 20
153.992917
 30
0.0
 40
1.0
210
0.0
220
0.0
230
1.0
100
AcDbArc
 50
90.0
 51
180.0
  0
ARC
  5
187
100
AcDbEntity
  8
1
  6
CONTINUOUS
 62
    92
100
AcDbCircle
 10
351.693833
 20
154.492917
 30
0.0
 40
0.5
210
0.0
220
0.0
230
1.0
100
AcDbArc
 50
0.0
 51
90.0
  0
ARC
  5
188
100
AcDbEntity
  8
1
  6
CONTINUOUS
 62
    92
100
AcDbCircle
 10
351.679925
 20
150.975151
 30
0.0
 40
0.579483
210
0.0
220
0.0
230
1.0
100
AcDbArc
 50
303.676514
 51
27.521183
  0
LINE
  5
189
100
AcDbEntity
  8
1
  6
CONTINUOUS
 62
    92
100
AcDbLine
 10
269.193833
 20
151.242917
 30
0.0
 11
269.193833
 21
150.242917
 31
0.0
  0
LINE
  5
18A
100
AcDbEntity
  8
1
  6
CONTINUOUS
 62
    92
100
AcDbLine
 10
269.693833
 20
149.742917
 30
0.0
 11
273.193833
 21
149.742917
 31
0.0
  0
ARC
  5
18B
100
AcDbEntity
  8
1
  6
CONTINUOUS
 62
    92
100
AcDbCircle
 10
269.693833
 20
150.242917
 30
0.0
 40
0.5
210
0.0
220
0.0
230
1.0
100
AcDbArc
 50
180.0
 51
270.0
  0
ARC
  5
18C
100
AcDbEntity
  8
1
  6
CONTINUOUS
 62
    92
100
AcDbCircle
 10
271.585033
 20
148.49025
 30
0.0
 40
2.066321
210
0.0
220
0.0
230
1.0
100
AcDbArc
 50
352.480211
 51
78.089147
  0
LINE
  5
18D
100
AcDbEntity
  8
1
  6
CONTINUOUS
 62
    92
100
AcDbLine
 10
273.633583
 20
148.219833
 30
0.0
 11
274.05475
 21
136.1585
 31
0.0
  0
ARC
  5
18E
100
AcDbEntity
  8
1
  6
CONTINUOUS
 62
    92
100
AcDbCircle
 10
276.053536
 20
136.228333
 30
0.0
 40
2.0
210
0.0
220
0.0
230
1.0
100
AcDbArc
 50
182.000239
 51
270.0
  0
LINE
  5
18F
100
AcDbEntity
  8
1
  6
CONTINUOUS
 62
    92
100
AcDbLine
 10
273.0535
 20
134.228333
 30
0.0
 11
307.0535
 21
134.228333
 31
0.0
  0
ARC
  5
190
100
AcDbEntity
  8
1
  6
CONTINUOUS
 62
    92
100
AcDbCircle
 10
248.295537
 20
381.541653
 30
0.0
 40
252.269168
210
0.0
220
0.0
230
1.0
100
AcDbArc
 50
281.3757
 51
292.093078
  0
ARC
  5
191
100
AcDbEntity
  8
1
  6
CONTINUOUS
 62
    92
100
AcDbCircle
 10
352.486215
 20
134.224906
 30
0.0
 40
16.456707
210
0.0
220
0.0
230
1.0
100
AcDbArc
 50
98.684892
 51
124.449111
  0
LINE
  5
192
100
AcDbEntity
  8
1
  6
CONTINUOUS
 62
    92
100
AcDbLine
 10
343.177083
 20
147.795583
 30
0.0
 11
357.177083
 21
147.795583
 31
0.0
  0
LINE
  5
193
100
AcDbEntity
  8
1
  6
CONTINUOUS
 62
    92
100
AcDbLine
 10
357.177083
 20
147.795583
 30
0.0
 11
357.177083
 21
149.295583
 31
0.0
  0
LINE
  5
194
100
AcDbEntity
  8
1
  6
CONTINUOUS
 62
    92
100
AcDbLine
 10
357.177083
 20
149.295583
 30
0.0
 11
356.677083
 21
149.295583
 31
0.0
  0
ARC
  5
195
100
AcDbEntity
  8
1
  6
CONTINUOUS
 62
    92
100
AcDbCircle
 10
351.060599
 20
149.411049
 30
0.0
 40
5.617671
210
0.0
220
0.0
230
1.0
100
AcDbArc
 50
358.822256
 51
83.527756
  0
ARC
  5
196
100
AcDbEntity
  8
1
  6
CONTINUOUS
 62
    92
100
AcDbCircle
 10
355.093121
 20
149.412465
 30
0.0
 40
1.588269
210
0.0
220
0.0
230
1.0
100
AcDbArc
 50
181.505403
 51
355.779769
  0
ARC
  5
197
100
AcDbEntity
  8
1
  6
CONTINUOUS
 62
    92
100
AcDbCircle
 10
349.011989
 20
148.762284
 30
0.0
 40
4.534437
210
0.0
220
0.0
230
1.0
100
AcDbArc
 50
7.711661
 51
45.435925
  0
CIRCLE
  5
198
100
AcDbEntity
  8
1
  6
CONTINUOUS
 62
    92
100
AcDbCircle
 10
355.181417
 20
149.183167
 30
0.0
 40
0.75
210
0.0
220
0.0
230
1.0
  0
ARC
  5
199
100
AcDbEntity
  8
1
  6
CONTINUOUS
 62
    92
100
AcDbCircle
 10
304.986616
 20
134.903996
 30
0.0
 40
2.174519
210
0.0
220
0.0
230
1.0
100
AcDbArc
 50
341.897464
 51
34.760464
  0
LINE
  5
19A
100
AcDbEntity
  8
1
  6
CONTINUOUS
 62
    92
100
AcDbLine
 10
273.0535
 20
134.228333
 30
0.0
 11
273.0535
 21
129.228333
 31
0.0
  0
LINE
  5
19B
100
AcDbEntity
  8
1
  6
CONTINUOUS
 62
    92
100
AcDbLine
 10
278.0535
 20
134.228333
 30
0.0
 11
278.0535
 21
129.228333
 31
0.0
  0
LINE
  5
19C
100
AcDbEntity
  8
1
  6
CONTINUOUS
 62
    92
100
AcDbLine
 10
326.435167
 20
139.968667
 30
0.0
 11
326.435167
 21
129.342583
 31
0.0
  0
LINE
  5
19D
100
AcDbEntity
  8
1
  6
CONTINUOUS
 62
    92
100
AcDbLine
 10
321.435167
 20
139.968667
 30
0.0
 11
321.435167
 21
129.342583
 31
0.0
  0
LINE
  5
19E
100
AcDbEntity
  8
1
  6
CONTINUOUS
 62
    92
100
AcDbLine
 10
326.435167
 20
129.342583
 30
0.0
 11
321.435167
 21
129.342583
 31
0.0
  0
LINE
  5
19F
100
AcDbEntity
  8
1
  6
CONTINUOUS
 62
    92
100
AcDbLine
 10
278.0535
 20
129.228333
 30
0.0
 11
273.0535
 21
129.228333
 31
0.0
  0
LINE
  5
1A0
100
AcDbEntity
  8
1
  6
CONTINUOUS
 62
    92
100
AcDbLine
 10
326.435167
 20
130.842583
 30
0.0
 11
321.435167
 21
130.842583
 31
0.0
  0
LINE
  5
1A1
100
AcDbEntity
  8
1
  6
CONTINUOUS
 62
    92
100
AcDbLine
 10
278.0535
 20
130.728333
 30
0.0
 11
273.0535
 21
130.728333
 31
0.0
  0
LINE
  5
1A2
100
AcDbEntity
  8
1
  6
CONTINUOUS
 62
    92
100
AcDbLine
 10
320.93275
 20
139.956083
 30
0.0
 11
326.93275
 21
139.956083
 31
0.0
  0
ARC
  5
1A3
100
AcDbEntity
  8
1
  6
CONTINUOUS
 62
    92
100
AcDbCircle
 10
326.770804
 20
141.504253
 30
0.0
 40
1.556617
210
0.0
220
0.0
230
1.0
100
AcDbArc
 50
275.971692
 51
28.288089
  0
LINE
  5
1A4
100
AcDbEntity
  8
1
  6
CONTINUOUS
 62
    92
100
AcDbLine
 10
347.414
 20
156.071833
 30
0.0
 11
344.982917
 21
169.859167
 31
0.0
  0
ARC
  5
1A5
100
AcDbEntity
  8
1
  6
CONTINUOUS
 62
    92
100
AcDbCircle
 10
349.378909
 20
157.275646
 30
0.0
 40
2.304351
210
0.0
220
0.0
230
1.0
100
AcDbArc
 50
211.493961
 51
277.854925
  0
ARC
  5
1A6
100
AcDbEntity
  8
1
  6
CONTINUOUS
 62
    92
100
AcDbCircle
 10
311.212177
 20
183.068189
 30
0.0
 40
29.055052
210
0.0
220
0.0
230
1.0
100
AcDbArc
 50
284.921731
 51
342.798728
  0
ARC
  5
1A7
100
AcDbEntity
  8
1
  6
CONTINUOUS
 62
    92
100
AcDbCircle
 10
340.191372
 20
169.843072
 30
0.0
 40
4.791572
210
0.0
220
0.0
230
1.0
100
AcDbArc
 50
0.192461
 51
104.796514
  0
LINE
  5
1A8
100
AcDbEntity
  8
1
  6
CONTINUOUS
 62
    92
100
AcDbLine
 10
281.193833
 20
155.992917
 30
0.0
 11
273.693833
 21
155.992917
 31
0.0
  0
ARC
  5
1A9
100
AcDbEntity
  8
1
  6
CONTINUOUS
 62
    92
100
AcDbCircle
 10
357.619083
 20
-127.300382
 30
0.0
 40
300.550093
210
0.0
220
0.0
230
1.0
100
AcDbArc
 50
93.676292
 51
104.844661
  0
LINE
  5
1AA
100
AcDbEntity
  8
1
  6
CONTINUOUS
 62
    92
100
AcDbLine
 10
281.693833
 20
155.492917
 30
0.0
 11
281.693833
 21
154.992917
 31
0.0
  0
LINE
  5
1AB
100
AcDbEntity
  8
1
  6
CONTINUOUS
 62
    92
100
AcDbLine
 10
273.193833
 20
155.492917
 30
0.0
 11
273.193833
 21
154.992917
 31
0.0
  0
ARC
  5
1AC
100
AcDbEntity
  8
1
  6
CONTINUOUS
 62
    92
100
AcDbCircle
 10
281.193833
 20
155.492917
 30
0.0
 40
0.5
210
0.0
220
0.0
230
1.0
100
AcDbArc
 50
0.0
 51
90.0
  0
ARC
  5
1AD
100
AcDbEntity
  8
1
  6
CONTINUOUS
 62
    92
100
AcDbCircle
 10
273.693833
 20
155.492917
 30
0.0
 40
0.5
210
0.0
220
0.0
230
1.0
100
AcDbArc
 50
90.0
 51
180.0
  0
LINE
  5
1AE
100
AcDbEntity
  8
1
  6
CONTINUOUS
 62
    92
100
AcDbLine
 10
272.193833
 20
155.492917
 30
0.0
 11
272.193833
 21
154.992917
 31
0.0
  0
LINE
  5
1AF
100
AcDbEntity
  8
1
  6
CONTINUOUS
 62
    92
100
AcDbLine
 10
270.193833
 20
155.492917
 30
0.0
 11
270.193833
 21
154.992917
 31
0.0
  0
LINE
  5
1B0
100
AcDbEntity
  8
1
  6
CONTINUOUS
 62
    92
100
AcDbLine
 10
272.193833
 20
155.492917
 30
0.0
 11
270.193833
 21
155.492917
 31
0.0
  0
LINE
  5
1B1
100
AcDbEntity
  8
1
  6
CONTINUOUS
 62
    92
100
AcDbLine
 10
271.693833
 20
155.492917
 30
0.0
 11
271.693833
 21
154.992917
 31
0.0
  0
LINE
  5
1B2
100
AcDbEntity
  8
1
  6
CONTINUOUS
 62
    92
100
AcDbLine
 10
270.693833
 20
155.492917
 30
0.0
 11
270.693833
 21
154.992917
 31
0.0
  0
ARC
  5
1B3
100
AcDbEntity
  8
1
  6
CONTINUOUS
 62
    92
100
AcDbCircle
 10
295.326304
 20
147.509571
 30
0.0
 40
22.2791
210
0.0
220
0.0
230
1.0
100
AcDbArc
 50
140.992475
 51
157.610131
  0
ARC
  5
1B4
100
AcDbEntity
  8
1
  6
CONTINUOUS
 62
    92
100
AcDbCircle
 10
281.89935
 20
158.385424
 30
0.0
 40
5.0
210
0.0
220
0.0
230
1.0
100
AcDbArc
 50
104.844661
 51
140.992475
  0
LINE
  5
1B5
100
AcDbEntity
  8
1
  6
CONTINUOUS
 62
     7
100
AcDbLine
 10
195.13925
 20
163.76675
 30
0.0
 11
192.234333
 21
172.02425
 31
0.0
  0
LINE
  5
1B6
100
AcDbEntity
  8
1
  6
CONTINUOUS
 62
     7
100
AcDbLine
 10
192.234333
 20
172.02425
 30
0.0
 11
186.802583
 21
172.02425
 31
0.0
  0
INSERT
  5
1B7
100
AcDbEntity
  8
1
  6
CONTINUOUS
 62
     1
100
AcDbBlockReference
  2
LDR
 10
195.13925
 20
163.76675
 30
0.0
 41
239.999998
 42
239.999998
 50
289.381428
210
0.0
220
0.0
230
1.0
  0
INSERT
  5
1B8
100
AcDbEntity
  8
1
  6
CONTINUOUS
 62
     1
100
AcDbBlockReference
  2
LDR
 10
195.13925
 20
163.76675
 30
0.0
 41
239.999998
 42
239.999998
 50
289.381428
210
0.0
220
0.0
230
1.0
  0
TEXT
  5
1B9
100
AcDbEntity
  8
1
  6
CONTINUOUS
 62
     7
100
AcDbText
 10
159.191333
 20
170.429833
 30
0.0
 40
2.5
  1
CLEAR SHIELD
  7
MONOTXT
 11
159.191333
 21
172.929833
 31
0.0
210
0.0
220
0.0
230
1.0
100
AcDbText
 73
     3
  0
TEXT
  5
1BA
100
AcDbEntity
  8
1
  6
CONTINUOUS
 62
     7
100
AcDbText
 10
159.191333
 20
165.929833
 30
0.0
 40
2.5
  1
(IF APPLICABLE)
  7
MONOTXT
 11
159.191333
 21
168.429833
 31
0.0
210
0.0
220
0.0
230
1.0
100
AcDbText
 73
     3
  0
TEXT
  5
1BB
100
AcDbEntity
  8
1
  6
CONTINUOUS
 62
     7
100
AcDbText
 10
204.866417
 20
106.824167
 30
0.0
 40
4.0
  1
END VIEW WITH IMPACT SHIELD
  7
MONOTXT
 72
     4
 11
254.110417
 21
108.824167
 31
0.0
210
0.0
220
0.0
230
1.0
100
AcDbText
  0
TEXT
  5
1BC
100
AcDbEntity
  8
1
  6
CONTINUOUS
 62
     7
100
AcDbText
 10
231.90575
 20
98.824167
 30
0.0
 40
4.0
  1
(AS REQUIRED)
  7
MONOTXT
 72
     4
 11
254.09475
 21
100.824167
 31
0.0
210
0.0
220
0.0
230
1.0
100
AcDbText
  0
LINE
  5
1BD
100
AcDbEntity
  8
1
  6
CONTINUOUS
 62
     7
100
AcDbLine
 10
203.17225
 20
105.503333
 30
0.0
 11
304.9695
 21
105.503333
 31
0.0
  0
LINE
  5
1BE
100
AcDbEntity
  8
1
  6
CONTINUOUS
 62
     7
100
AcDbLine
 10
230.783583
 20
97.126667
 30
0.0
 11
277.700583
 21
97.126667
 31
0.0
  0
LINE
  5
1BF
100
AcDbEntity
  8
1
  6
CONTINUOUS
 62
    52
100
AcDbLine
 10
151.024
 20
265.728667
 30
0.0
 11
214.859917
 21
308.7865
 31
0.0
  0
LINE
  5
1C0
100
AcDbEntity
  8
1
  6
CONTINUOUS
 62
    52
100
AcDbLine
 10
151.024
 20
265.728667
 30
0.0
 11
163.49325
 21
268.607417
 31
0.0
  0
LINE
  5
1C1
100
AcDbEntity
  8
1
  6
CONTINUOUS
 62
    52
100
AcDbLine
 10
164.7925
 20
269.106167
 30
0.0
 11
196.560667
 21
286.7155
 31
0.0
  0
LINE
  5
1C2
100
AcDbEntity
  8
1
  6
CONTINUOUS
 62
    52
100
AcDbLine
 10
214.859917
 20
308.7865
 30
0.0
 11
198.026167
 21
287.94675
 31
0.0
  0
ARC
  5
1C3
100
AcDbEntity
  8
1
  6
CONTINUOUS
 62
    52
100
AcDbCircle
 10
162.368421
 20
273.479258
 30
0.0
 40
5.0
210
0.0
220
0.0
230
1.0
100
AcDbArc
 50
283.000608
 51
299.000531
  0
ARC
  5
1C4
100
AcDbEntity
  8
1
  6
CONTINUOUS
 62
    52
100
AcDbCircle
 10
194.136638
 20
291.088622
 30
0.0
 40
5.0
210
0.0
220
0.0
230
1.0
100
AcDbArc
 50
299.000192
 51
321.069789
  0
LINE
  5
1C5
100
AcDbEntity
  8
1
  6
CONTINUOUS
 62
    52
100
AcDbLine
 10
152.63475
 20
271.332583
 30
0.0
 11
120.47
 21
305.825083
 31
0.0
  0
LINE
  5
1C6
100
AcDbEntity
  8
1
  6
CONTINUOUS
 62
    52
100
AcDbLine
 10
152.63475
 20
271.332583
 30
0.0
 11
197.065333
 21
308.61425
 31
0.0
  0
LINE
  5
1C7
100
AcDbEntity
  8
1
  6
CONTINUOUS
 62
    52
100
AcDbLine
 10
197.065333
 20
308.61425
 30
0.0
 11
214.859917
 21
308.7865
 31
0.0
  0
LINE
  5
1C8
100
AcDbEntity
  8
1
  6
CONTINUOUS
 62
    52
100
AcDbLine
 10
197.065333
 20
308.61425
 30
0.0
 11
165.693417
 21
342.256583
 31
0.0
  0
LINE
  5
1C9
100
AcDbEntity
  8
1
  6
CONTINUOUS
 62
    52
100
AcDbLine
 10
214.859917
 20
308.7865
 30
0.0
 11
182.369083
 21
343.628583
 31
0.0
  0
LINE
  5
1CA
100
AcDbEntity
  8
1
  6
CONTINUOUS
 62
    52
100
AcDbLine
 10
164.707
 20
341.463
 30
0.0
 11
121.69575
 21
306.85875
 31
0.0
  0
ARC
  5
1CB
100
AcDbEntity
  8
1
  6
CONTINUOUS
 62
    52
100
AcDbCircle
 10
128.914115
 20
297.055626
 30
0.0
 40
12.17399
210
0.0
220
0.0
230
1.0
100
AcDbArc
 50
126.365447
 51
158.259064
  0
ARC
  5
1CC
100
AcDbEntity
  8
1
  6
CONTINUOUS
 62
    52
100
AcDbCircle
 10
156.068082
 20
267.318704
 30
0.0
 40
5.28876
210
0.0
220
0.0
230
1.0
100
AcDbArc
 50
124.210581
 51
197.496325
  0
ARC
  5
1CD
100
AcDbEntity
  8
1
  6
CONTINUOUS
 62
    52
100
AcDbCircle
 10
167.841254
 20
337.567289
 30
0.0
 40
5.0
210
0.0
220
0.0
230
1.0
100
AcDbArc
 50
100.400803
 51
128.817589
  0
LINE
  5
1CE
100
AcDbEntity
  8
1
  6
CONTINUOUS
 62
    52
100
AcDbLine
 10
164.57075
 20
339.428167
 30
0.0
 11
123.814
 21
306.63775
 31
0.0
  0
LINE
  5
1CF
100
AcDbEntity
  8
1
  6
CONTINUOUS
 62
    52
100
AcDbLine
 10
153.228667
 20
275.094417
 30
0.0
 11
193.2485
 21
308.675
 31
0.0
  0
LINE
  5
1D0
100
AcDbEntity
  8
1
  6
CONTINUOUS
 62
    52
100
AcDbLine
 10
153.228667
 20
275.094417
 30
0.0
 11
123.814
 21
306.63775
 31
0.0
  0
LINE
  5
1D1
100
AcDbEntity
  8
1
  6
CONTINUOUS
 62
    52
100
AcDbLine
 10
193.2485
 20
308.675
 30
0.0
 11
164.57075
 21
339.428167
 31
0.0
  0
LINE
  5
1D2
100
AcDbEntity
  8
1
  6
CONTINUOUS
 62
    52
100
AcDbLine
 10
161.056167
 20
331.46675
 30
0.0
 11
133.970833
 21
309.6755
 31
0.0
  0
LINE
  5
1D3
100
AcDbEntity
  8
1
  6
CONTINUOUS
 62
    52
100
AcDbLine
 10
153.686667
 20
288.532833
 30
0.0
 11
180.282333
 21
310.849167
 31
0.0
  0
LINE
  5
1D4
100
AcDbEntity
  8
1
  6
CONTINUOUS
 62
    52
100
AcDbLine
 10
153.686667
 20
288.532833
 30
0.0
 11
133.970833
 21
309.6755
 31
0.0
  0
LINE
  5
1D5
100
AcDbEntity
  8
1
  6
CONTINUOUS
 62
    52
100
AcDbLine
 10
180.282333
 20
310.849167
 30
0.0
 11
161.056167
 21
331.46675
 31
0.0
  0
LINE
  5
1D6
100
AcDbEntity
  8
1
  6
CONTINUOUS
 62
    52
100
AcDbLine
 10
164.57075
 20
339.428167
 30
0.0
 11
161.056167
 21
331.46675
 31
0.0
  0
LINE
  5
1D7
100
AcDbEntity
  8
1
  6
CONTINUOUS
 62
    52
100
AcDbLine
 10
123.814
 20
306.63775
 30
0.0
 11
133.970833
 21
309.6755
 31
0.0
  0
LINE
  5
1D8
100
AcDbEntity
  8
1
  6
CONTINUOUS
 62
    52
100
AcDbLine
 10
193.2485
 20
308.675
 30
0.0
 11
180.282333
 21
310.849167
 31
0.0
  0
LINE
  5
1D9
100
AcDbEntity
  8
1
  6
CONTINUOUS
 62
    52
100
AcDbLine
 10
153.228667
 20
275.094417
 30
0.0
 11
153.686667
 21
288.532833
 31
0.0
  0
LINE
  5
1DA
100
AcDbEntity
  8
1
  6
CONTINUOUS
 62
    52
100
AcDbLine
 10
125.083583
 20
307.0175
 30
0.0
 11
124.155917
 21
306.271083
 31
0.0
  0
LINE
  5
1DB
100
AcDbEntity
  8
1
  6
CONTINUOUS
 62
    52
100
AcDbLine
 10
126.35325
 20
307.397167
 30
0.0
 11
124.497833
 21
305.904417
 31
0.0
  0
LINE
  5
1DC
100
AcDbEntity
  8
1
  6
CONTINUOUS
 62
    52
100
AcDbLine
 10
127.622833
 20
307.776917
 30
0.0
 11
124.83975
 21
305.53775
 31
0.0
  0
LINE
  5
1DD
100
AcDbEntity
  8
1
  6
CONTINUOUS
 62
    52
100
AcDbLine
 10
128.892667
 20
308.156667
 30
0.0
 11
125.181667
 21
305.171083
 31
0.0
  0
LINE
  5
1DE
100
AcDbEntity
  8
1
  6
CONTINUOUS
 62
    52
100
AcDbLine
 10
130.162167
 20
308.536417
 30
0.0
 11
125.523583
 21
304.8045
 31
0.0
  0
LINE
  5
1DF
100
AcDbEntity
  8
1
  6
CONTINUOUS
 62
    52
100
AcDbLine
 10
131.43175
 20
308.916083
 30
0.0
 11
125.8655
 21
304.437833
 31
0.0
  0
LINE
  5
1E0
100
AcDbEntity
  8
1
  6
CONTINUOUS
 62
    52
100
AcDbLine
 10
132.701333
 20
309.295833
 30
0.0
 11
126.207333
 21
304.071167
 31
0.0
  0
LINE
  5
1E1
100
AcDbEntity
  8
1
  6
CONTINUOUS
 62
    52
100
AcDbLine
 10
133.970833
 20
309.6755
 30
0.0
 11
126.54925
 21
303.7045
 31
0.0
  0
LINE
  5
1E2
100
AcDbEntity
  8
1
  6
CONTINUOUS
 62
    52
100
AcDbLine
 10
134.28425
 20
309.285917
 30
0.0
 11
126.891167
 21
303.337917
 31
0.0
  0
LINE
  5
1E3
100
AcDbEntity
  8
1
  6
CONTINUOUS
 62
    52
100
AcDbLine
 10
134.597667
 20
308.896333
 30
0.0
 11
127.233083
 21
302.97125
 31
0.0
  0
LINE
  5
1E4
100
AcDbEntity
  8
1
  6
CONTINUOUS
 62
    52
100
AcDbLine
 10
134.996583
 20
308.5755
 30
0.0
 11
127.575
 21
302.604583
 31
0.0
  0
LINE
  5
1E5
100
AcDbEntity
  8
1
  6
CONTINUOUS
 62
    52
100
AcDbLine
 10
135.3385
 20
308.208833
 30
0.0
 11
127.916917
 21
302.237917
 31
0.0
  0
LINE
  5
1E6
100
AcDbEntity
  8
1
  6
CONTINUOUS
 62
    52
100
AcDbLine
 10
135.680417
 20
307.84225
 30
0.0
 11
128.258833
 21
301.87125
 31
0.0
  0
LINE
  5
1E7
100
AcDbEntity
  8
1
  6
CONTINUOUS
 62
    52
100
AcDbLine
 10
136.022333
 20
307.475583
 30
0.0
 11
128.60075
 21
301.504583
 31
0.0
  0
LINE
  5
1E8
100
AcDbEntity
  8
1
  6
CONTINUOUS
 62
    52
100
AcDbLine
 10
136.364167
 20
307.108917
 30
0.0
 11
128.942583
 21
301.138
 31
0.0
  0
LINE
  5
1E9
100
AcDbEntity
  8
1
  6
CONTINUOUS
 62
    52
100
AcDbLine
 10
136.706083
 20
306.742333
 30
0.0
 11
129.2845
 21
300.771333
 31
0.0
  0
LINE
  5
1EA
100
AcDbEntity
  8
1
  6
CONTINUOUS
 62
    52
100
AcDbLine
 10
137.048
 20
306.375667
 30
0.0
 11
129.626417
 21
300.404667
 31
0.0
  0
LINE
  5
1EB
100
AcDbEntity
  8
1
  6
CONTINUOUS
 62
    52
100
AcDbLine
 10
137.389917
 20
306.008917
 30
0.0
 11
129.968417
 21
300.038
 31
0.0
  0
LINE
  5
1EC
100
AcDbEntity
  8
1
  6
CONTINUOUS
 62
    52
100
AcDbLine
 10
137.731833
 20
305.64225
 30
0.0
 11
130.310333
 21
299.671333
 31
0.0
  0
LINE
  5
1ED
100
AcDbEntity
  8
1
  6
CONTINUOUS
 62
    52
100
AcDbLine
 10
138.07375
 20
305.275667
 30
0.0
 11
130.65225
 21
299.304667
 31
0.0
  0
LINE
  5
1EE
100
AcDbEntity
  8
1
  6
CONTINUOUS
 62
    52
100
AcDbLine
 10
138.415667
 20
304.909
 30
0.0
 11
130.994083
 21
298.938083
 31
0.0
  0
LINE
  5
1EF
100
AcDbEntity
  8
1
  6
CONTINUOUS
 62
    52
100
AcDbLine
 10
138.757583
 20
304.542333
 30
0.0
 11
131.336
 21
298.571417
 31
0.0
  0
LINE
  5
1F0
100
AcDbEntity
  8
1
  6
CONTINUOUS
 62
    52
100
AcDbLine
 10
139.0995
 20
304.175667
 30
0.0
 11
131.677917
 21
298.20475
 31
0.0
  0
LINE
  5
1F1
100
AcDbEntity
  8
1
  6
CONTINUOUS
 62
    52
100
AcDbLine
 10
139.441417
 20
303.809083
 30
0.0
 11
132.019833
 21
297.838083
 31
0.0
  0
LINE
  5
1F2
100
AcDbEntity
  8
1
  6
CONTINUOUS
 62
    52
100
AcDbLine
 10
139.783333
 20
303.442417
 30
0.0
 11
132.36175
 21
297.471417
 31
0.0
  0
LINE
  5
1F3
100
AcDbEntity
  8
1
  6
CONTINUOUS
 62
    52
100
AcDbLine
 10
140.12525
 20
303.07575
 30
0.0
 11
132.703667
 21
297.10475
 31
0.0
  0
LINE
  5
1F4
100
AcDbEntity
  8
1
  6
CONTINUOUS
 62
    52
100
AcDbLine
 10
140.467083
 20
302.709083
 30
0.0
 11
133.045583
 21
296.738083
 31
0.0
  0
LINE
  5
1F5
100
AcDbEntity
  8
1
  6
CONTINUOUS
 62
    52
100
AcDbLine
 10
140.809
 20
302.342417
 30
0.0
 11
133.3875
 21
296.3715
 31
0.0
  0
LINE
  5
1F6
100
AcDbEntity
  8
1
  6
CONTINUOUS
 62
    52
100
AcDbLine
 10
141.150917
 20
301.97575
 30
0.0
 11
133.729417
 21
296.004833
 31
0.0
  0
LINE
  5
1F7
100
AcDbEntity
  8
1
  6
CONTINUOUS
 62
    52
100
AcDbLine
 10
141.492833
 20
301.609083
 30
0.0
 11
134.071333
 21
295.638167
 31
0.0
  0
LINE
  5
1F8
100
AcDbEntity
  8
1
  6
CONTINUOUS
 62
    52
100
AcDbLine
 10
141.83475
 20
301.242417
 30
0.0
 11
134.41325
 21
295.2715
 31
0.0
  0
LINE
  5
1F9
100
AcDbEntity
  8
1
  6
CONTINUOUS
 62
    52
100
AcDbLine
 10
142.176667
 20
300.875833
 30
0.0
 11
134.755167
 21
294.904833
 31
0.0
  0
LINE
  5
1FA
100
AcDbEntity
  8
1
  6
CONTINUOUS
 62
    52
100
AcDbLine
 10
143.892667
 20
298.302333
 30
0.0
 11
133.580167
 21
309.361167
 31
0.0
  0
LINE
  5
1FB
100
AcDbEntity
  8
1
  6
CONTINUOUS
 62
    52
100
AcDbLine
 10
143.526917
 20
297.961333
 30
0.0
 11
133.1895
 21
309.046917
 31
0.0
  0
LINE
  5
1FC
100
AcDbEntity
  8
1
  6
CONTINUOUS
 62
    52
100
AcDbLine
 10
142.3835
 20
298.454417
 30
0.0
 11
132.798917
 21
308.732667
 31
0.0
  0
LINE
  5
1FD
100
AcDbEntity
  8
1
  6
CONTINUOUS
 62
    52
100
AcDbLine
 10
141.65075
 20
298.507083
 30
0.0
 11
132.408333
 21
308.418417
 31
0.0
  0
LINE
  5
1FE
100
AcDbEntity
  8
1
  6
CONTINUOUS
 62
    52
100
AcDbLine
 10
141.419833
 20
298.0215
 30
0.0
 11
132.01775
 21
308.104167
 31
0.0
  0
LINE
  5
1FF
100
AcDbEntity
  8
1
  6
CONTINUOUS
 62
    52
100
AcDbLine
 10
141.513583
 20
297.187833
 30
0.0
 11
131.627083
 21
307.789833
 31
0.0
  0
LINE
  5
200
100
AcDbEntity
  8
1
  6
CONTINUOUS
 62
    52
100
AcDbLine
 10
140.78775
 20
297.233083
 30
0.0
 11
131.2365
 21
307.475583
 31
0.0
  0
LINE
  5
201
100
AcDbEntity
  8
1
  6
CONTINUOUS
 62
    52
100
AcDbLine
 10
140.526417
 20
296.78025
 30
0.0
 11
130.845917
 21
307.161333
 31
0.0
  0
LINE
  5
202
100
AcDbEntity
  8
1
  6
CONTINUOUS
 62
    52
100
AcDbLine
 10
140.0595
 20
296.54775
 30
0.0
 11
130.45525
 21
306.847083
 31
0.0
  0
LINE
  5
203
100
AcDbEntity
  8
1
  6
CONTINUOUS
 62
    52
100
AcDbLine
 10
140.0315
 20
295.844583
 30
0.0
 11
130.064667
 21
306.532833
 31
0.0
  0
LINE
  5
204
100
AcDbEntity
  8
1
  6
CONTINUOUS
 62
    52
100
AcDbLine
 10
139.287417
 20
295.909417
 30
0.0
 11
129.674083
 21
306.218583
 31
0.0
  0
LINE
  5
205
100
AcDbEntity
  8
1
  6
CONTINUOUS
 62
    52
100
AcDbLine
 10
139.211417
 20
295.25775
 30
0.0
 11
129.283417
 21
305.90425
 31
0.0
  0
LINE
  5
206
100
AcDbEntity
  8
1
  6
CONTINUOUS
 62
    52
100
AcDbLine
 10
139.163417
 20
294.576083
 30
0.0
 11
128.892833
 21
305.59
 31
0.0
  0
LINE
  5
207
100
AcDbEntity
  8
1
  6
CONTINUOUS
 62
    52
100
AcDbLine
 10
137.872667
 20
295.227167
 30
0.0
 11
128.50225
 21
305.27575
 31
0.0
  0
LINE
  5
208
100
AcDbEntity
  8
1
  6
CONTINUOUS
 62
    52
100
AcDbLine
 10
137.443333
 20
294.954417
 30
0.0
 11
128.111667
 21
304.9615
 31
0.0
  0
LINE
  5
209
100
AcDbEntity
  8
1
  6
CONTINUOUS
 62
    52
100
AcDbLine
 10
136.904833
 20
294.79875
 30
0.0
 11
127.721
 21
304.64725
 31
0.0
  0
LINE
  5
20A
100
AcDbEntity
  8
1
  6
CONTINUOUS
 62
    52
100
AcDbLine
 10
135.8545
 20
295.191833
 30
0.0
 11
127.330417
 21
304.332917
 31
0.0
  0
LINE
  5
20B
100
AcDbEntity
  8
1
  6
CONTINUOUS
 62
    52
100
AcDbLine
 10
135.985
 20
294.31875
 30
0.0
 11
126.93975
 21
304.018667
 31
0.0
  0
LINE
  5
20C
100
AcDbEntity
  8
1
  6
CONTINUOUS
 62
    52
100
AcDbLine
 10
133.587167
 20
313.858833
 30
0.0
 11
125.53425
 21
307.38
 31
0.0
  0
LINE
  5
20D
100
AcDbEntity
  8
1
  6
CONTINUOUS
 62
    52
100
AcDbLine
 10
134.198083
 20
313.708667
 30
0.0
 11
126.893333
 21
307.831667
 31
0.0
  0
LINE
  5
20E
100
AcDbEntity
  8
1
  6
CONTINUOUS
 62
    52
100
AcDbLine
 10
136.627167
 20
315.662917
 30
0.0
 11
135.540917
 21
314.789
 31
0.0
  0
LINE
  5
20F
100
AcDbEntity
  8
1
  6
CONTINUOUS
 62
    52
100
AcDbLine
 10
142.800667
 20
312.28725
 30
0.0
 11
136.914583
 21
307.551667
 31
0.0
  0
LINE
  5
210
100
AcDbEntity
  8
1
  6
CONTINUOUS
 62
    52
100
AcDbLine
 10
143.196667
 20
311.964167
 30
0.0
 11
137.88375
 21
307.68975
 31
0.0
  0
LINE
  5
211
100
AcDbEntity
  8
1
  6
CONTINUOUS
 62
    52
100
AcDbLine
 10
143.358167
 20
311.452417
 30
0.0
 11
137.67275
 21
306.87825
 31
0.0
  0
LINE
  5
212
100
AcDbEntity
  8
1
  6
CONTINUOUS
 62
    52
100
AcDbLine
 10
143.385167
 20
310.832333
 30
0.0
 11
136.87775
 21
305.596917
 31
0.0
  0
LINE
  5
213
100
AcDbEntity
  8
1
  6
CONTINUOUS
 62
    52
100
AcDbLine
 10
143.949417
 20
310.644583
 30
0.0
 11
137.191167
 21
305.207333
 31
0.0
  0
LINE
  5
214
100
AcDbEntity
  8
1
  6
CONTINUOUS
 62
    52
100
AcDbLine
 10
143.968167
 20
310.017917
 30
0.0
 11
137.504667
 21
304.81775
 31
0.0
  0
LINE
  5
215
100
AcDbEntity
  8
1
  6
CONTINUOUS
 62
    52
100
AcDbLine
 10
144.431583
 20
309.749
 30
0.0
 11
137.818083
 21
304.428167
 31
0.0
  0
LINE
  5
216
100
AcDbEntity
  8
1
  6
CONTINUOUS
 62
    52
100
AcDbLine
 10
145.20475
 20
309.729417
 30
0.0
 11
138.1315
 21
304.038667
 31
0.0
  0
LINE
  5
217
100
AcDbEntity
  8
1
  6
CONTINUOUS
 62
    52
100
AcDbLine
 10
153.686667
 20
288.532833
 30
0.0
 11
147.553
 21
281.180833
 31
0.0
  0
LINE
  5
218
100
AcDbEntity
  8
1
  6
CONTINUOUS
 62
    52
100
AcDbLine
 10
153.658917
 20
287.719083
 30
0.0
 11
147.936917
 21
280.8605
 31
0.0
  0
LINE
  5
219
100
AcDbEntity
  8
1
  6
CONTINUOUS
 62
    52
100
AcDbLine
 10
153.631167
 20
286.905333
 30
0.0
 11
148.240333
 21
280.44375
 31
0.0
  0
LINE
  5
21A
100
AcDbEntity
  8
1
  6
CONTINUOUS
 62
    52
100
AcDbLine
 10
153.6035
 20
286.091583
 30
0.0
 11
148.584083
 21
280.075167
 31
0.0
  0
LINE
  5
21B
100
AcDbEntity
  8
1
  6
CONTINUOUS
 62
    52
100
AcDbLine
 10
153.57575
 20
285.277917
 30
0.0
 11
148.927667
 21
279.706667
 31
0.0
  0
LINE
  5
21C
100
AcDbEntity
  8
1
  6
CONTINUOUS
 62
    52
100
AcDbLine
 10
153.548
 20
284.464167
 30
0.0
 11
149.271417
 21
279.338083
 31
0.0
  0
LINE
  5
21D
100
AcDbEntity
  8
1
  6
CONTINUOUS
 62
    52
100
AcDbLine
 10
153.52025
 20
283.650333
 30
0.0
 11
149.615083
 21
278.9695
 31
0.0
  0
LINE
  5
21E
100
AcDbEntity
  8
1
  6
CONTINUOUS
 62
    52
100
AcDbLine
 10
153.4925
 20
282.836667
 30
0.0
 11
149.95875
 21
278.601
 31
0.0
  0
LINE
  5
21F
100
AcDbEntity
  8
1
  6
CONTINUOUS
 62
    52
100
AcDbLine
 10
153.464833
 20
282.022917
 30
0.0
 11
150.302417
 21
278.232417
 31
0.0
  0
LINE
  5
220
100
AcDbEntity
  8
1
  6
CONTINUOUS
 62
    52
100
AcDbLine
 10
153.437083
 20
281.209083
 30
0.0
 11
150.646167
 21
277.863833
 31
0.0
  0
LINE
  5
221
100
AcDbEntity
  8
1
  6
CONTINUOUS
 62
    52
100
AcDbLine
 10
153.409333
 20
280.3955
 30
0.0
 11
150.98975
 21
277.495333
 31
0.0
  0
LINE
  5
222
100
AcDbEntity
  8
1
  6
CONTINUOUS
 62
    52
100
AcDbLine
 10
153.381583
 20
279.581667
 30
0.0
 11
151.3335
 21
277.12675
 31
0.0
  0
LINE
  5
223
100
AcDbEntity
  8
1
  6
CONTINUOUS
 62
    52
100
AcDbLine
 10
153.353833
 20
278.767917
 30
0.0
 11
151.677167
 21
276.758167
 31
0.0
  0
LINE
  5
224
100
AcDbEntity
  8
1
  6
CONTINUOUS
 62
    52
100
AcDbLine
 10
153.326167
 20
277.954167
 30
0.0
 11
152.020833
 21
276.389583
 31
0.0
  0
LINE
  5
225
100
AcDbEntity
  8
1
  6
CONTINUOUS
 62
    52
100
AcDbLine
 10
153.298417
 20
277.1405
 30
0.0
 11
152.3645
 21
276.021083
 31
0.0
  0
LINE
  5
226
100
AcDbEntity
  8
1
  6
CONTINUOUS
 62
    52
100
AcDbLine
 10
153.270667
 20
276.326833
 30
0.0
 11
152.708167
 21
275.652583
 31
0.0
  0
LINE
  5
227
100
AcDbEntity
  8
1
  6
CONTINUOUS
 62
    52
100
AcDbLine
 10
153.25275
 20
275.801583
 30
0.0
 11
147.87575
 21
281.56775
 31
0.0
  0
LINE
  5
228
100
AcDbEntity
  8
1
  6
CONTINUOUS
 62
    52
100
AcDbLine
 10
153.276833
 20
276.50875
 30
0.0
 11
148.241417
 21
281.908667
 31
0.0
  0
LINE
  5
229
100
AcDbEntity
  8
1
  6
CONTINUOUS
 62
    52
100
AcDbLine
 10
153.301
 20
277.216083
 30
0.0
 11
148.521417
 21
282.341583
 31
0.0
  0
LINE
  5
22A
100
AcDbEntity
  8
1
  6
CONTINUOUS
 62
    52
100
AcDbLine
 10
153.325083
 20
277.923333
 30
0.0
 11
148.844167
 21
282.7285
 31
0.0
  0
LINE
  5
22B
100
AcDbEntity
  8
1
  6
CONTINUOUS
 62
    52
100
AcDbLine
 10
153.349167
 20
278.630583
 30
0.0
 11
149.167
 21
283.115417
 31
0.0
  0
LINE
  5
22C
100
AcDbEntity
  8
1
  6
CONTINUOUS
 62
    52
100
AcDbLine
 10
153.37325
 20
279.337917
 30
0.0
 11
149.489833
 21
283.502417
 31
0.0
  0
LINE
  5
22D
100
AcDbEntity
  8
1
  6
CONTINUOUS
 62
    52
100
AcDbLine
 10
153.397417
 20
280.045167
 30
0.0
 11
149.812667
 21
283.889333
 31
0.0
  0
LINE
  5
22E
100
AcDbEntity
  8
1
  6
CONTINUOUS
 62
    52
100
AcDbLine
 10
153.4215
 20
280.7525
 30
0.0
 11
150.1355
 21
284.276333
 31
0.0
  0
LINE
  5
22F
100
AcDbEntity
  8
1
  6
CONTINUOUS
 62
    52
100
AcDbLine
 10
153.445583
 20
281.459833
 30
0.0
 11
150.458333
 21
284.66325
 31
0.0
  0
LINE
  5
230
100
AcDbEntity
  8
1
  6
CONTINUOUS
 62
    52
100
AcDbLine
 10
153.46975
 20
282.167083
 30
0.0
 11
150.781167
 21
285.05025
 31
0.0
  0
LINE
  5
231
100
AcDbEntity
  8
1
  6
CONTINUOUS
 62
    52
100
AcDbLine
 10
153.493833
 20
282.874417
 30
0.0
 11
151.104
 21
285.437167
 31
0.0
  0
LINE
  5
232
100
AcDbEntity
  8
1
  6
CONTINUOUS
 62
    52
100
AcDbLine
 10
153.517917
 20
283.581667
 30
0.0
 11
151.426833
 21
285.824083
 31
0.0
  0
LINE
  5
233
100
AcDbEntity
  8
1
  6
CONTINUOUS
 62
    52
100
AcDbLine
 10
153.542
 20
284.289
 30
0.0
 11
151.749667
 21
286.211083
 31
0.0
  0
LINE
  5
234
100
AcDbEntity
  8
1
  6
CONTINUOUS
 62
    52
100
AcDbLine
 10
153.566167
 20
284.99625
 30
0.0
 11
152.0725
 21
286.598
 31
0.0
  0
LINE
  5
235
100
AcDbEntity
  8
1
  6
CONTINUOUS
 62
    52
100
AcDbLine
 10
153.59025
 20
285.7035
 30
0.0
 11
152.395333
 21
286.984917
 31
0.0
  0
LINE
  5
236
100
AcDbEntity
  8
1
  6
CONTINUOUS
 62
    52
100
AcDbLine
 10
153.614333
 20
286.410917
 30
0.0
 11
152.718167
 21
287.371917
 31
0.0
  0
LINE
  5
237
100
AcDbEntity
  8
1
  6
CONTINUOUS
 62
    52
100
AcDbLine
 10
153.638417
 20
287.11825
 30
0.0
 11
153.041
 21
287.758917
 31
0.0
  0
LINE
  5
238
100
AcDbEntity
  8
1
  6
CONTINUOUS
 62
    52
100
AcDbLine
 10
153.662583
 20
287.8255
 30
0.0
 11
153.363833
 21
288.145833
 31
0.0
  0
LINE
  5
239
100
AcDbEntity
  8
1
  6
CONTINUOUS
 62
    52
100
AcDbLine
 10
154.329333
 20
287.766667
 30
0.0
 11
181.387333
 21
310.470917
 31
0.0
  0
LINE
  5
23A
100
AcDbEntity
  8
1
  6
CONTINUOUS
 62
    52
100
AcDbLine
 10
155.136583
 20
287.791333
 30
0.0
 11
182.131417
 21
310.442583
 31
0.0
  0
LINE
  5
23B
100
AcDbEntity
  8
1
  6
CONTINUOUS
 62
    52
100
AcDbLine
 10
153.986
 20
286.173167
 30
0.0
 11
182.77975
 21
310.333917
 31
0.0
  0
LINE
  5
23C
100
AcDbEntity
  8
1
  6
CONTINUOUS
 62
    52
100
AcDbLine
 10
154.265083
 20
285.754667
 30
0.0
 11
183.428083
 21
310.225167
 31
0.0
  0
LINE
  5
23D
100
AcDbEntity
  8
1
  6
CONTINUOUS
 62
    52
100
AcDbLine
 10
156.877833
 20
287.29425
 30
0.0
 11
184.076417
 21
310.1165
 31
0.0
  0
LINE
  5
23E
100
AcDbEntity
  8
1
  6
CONTINUOUS
 62
    52
100
AcDbLine
 10
155.799667
 20
285.736917
 30
0.0
 11
184.724667
 21
310.00775
 31
0.0
  0
LINE
  5
23F
100
AcDbEntity
  8
1
  6
CONTINUOUS
 62
    52
100
AcDbLine
 10
156.87775
 20
285.988833
 30
0.0
 11
185.373
 21
309.899083
 31
0.0
  0
LINE
  5
240
100
AcDbEntity
  8
1
  6
CONTINUOUS
 62
    52
100
AcDbLine
 10
157.393667
 20
285.769
 30
0.0
 11
186.021333
 21
309.790333
 31
0.0
  0
LINE
  5
241
100
AcDbEntity
  8
1
  6
CONTINUOUS
 62
    52
100
AcDbLine
 10
153.750167
 20
282.059083
 30
0.0
 11
186.669583
 21
309.681667
 31
0.0
  0
LINE
  5
242
100
AcDbEntity
  8
1
  6
CONTINUOUS
 62
    52
100
AcDbLine
 10
153.742667
 20
281.400083
 30
0.0
 11
187.317917
 21
309.572917
 31
0.0
  0
LINE
  5
243
100
AcDbEntity
  8
1
  6
CONTINUOUS
 62
    52
100
AcDbLine
 10
156.525667
 20
283.0825
 30
0.0
 11
187.96625
 21
309.46425
 31
0.0
  0
LINE
  5
244
100
AcDbEntity
  8
1
  6
CONTINUOUS
 62
    52
100
AcDbLine
 10
156.1135
 20
282.084
 30
0.0
 11
188.51875
 21
309.275083
 31
0.0
  0
LINE
  5
245
100
AcDbEntity
  8
1
  6
CONTINUOUS
 62
    52
100
AcDbLine
 10
153.83775
 20
279.52175
 30
0.0
 11
189.262833
 21
309.246833
 31
0.0
  0
LINE
  5
246
100
AcDbEntity
  8
1
  6
CONTINUOUS
 62
    52
100
AcDbLine
 10
155.964083
 20
280.65325
 30
0.0
 11
189.815333
 21
309.057667
 31
0.0
  0
LINE
  5
247
100
AcDbEntity
  8
1
  6
CONTINUOUS
 62
    52
100
AcDbLine
 10
153.816333
 20
278.198333
 30
0.0
 11
190.463667
 21
308.949
 31
0.0
  0
LINE
  5
248
100
AcDbEntity
  8
1
  6
CONTINUOUS
 62
    52
100
AcDbLine
 10
153.904167
 20
277.619333
 30
0.0
 11
191.20775
 21
308.920667
 31
0.0
  0
LINE
  5
249
100
AcDbEntity
  8
1
  6
CONTINUOUS
 62
    52
100
AcDbLine
 10
155.290083
 20
278.129583
 30
0.0
 11
191.856083
 21
308.812
 31
0.0
  0
LINE
  5
24A
100
AcDbEntity
  8
1
  6
CONTINUOUS
 62
    52
100
AcDbLine
 10
154.008
 20
288.14975
 30
0.0
 11
180.834833
 21
310.660083
 31
0.0
  0
LINE
  5
24B
100
AcDbEntity
  8
1
  6
CONTINUOUS
 62
    52
100
AcDbLine
 10
181.057333
 20
310.71925
 30
0.0
 11
187.742833
 21
314.579167
 31
0.0
  0
LINE
  5
24C
100
AcDbEntity
  8
1
  6
CONTINUOUS
 62
    52
100
AcDbLine
 10
180.282333
 20
310.849167
 30
0.0
 11
187.392833
 21
314.954417
 31
0.0
  0
LINE
  5
24D
100
AcDbEntity
  8
1
  6
CONTINUOUS
 62
    52
100
AcDbLine
 10
181.832167
 20
310.58925
 30
0.0
 11
188.09275
 21
314.203833
 31
0.0
  0
LINE
  5
24E
100
AcDbEntity
  8
1
  6
CONTINUOUS
 62
    52
100
AcDbLine
 10
182.607167
 20
310.459333
 30
0.0
 11
188.44275
 21
313.8285
 31
0.0
  0
LINE
  5
24F
100
AcDbEntity
  8
1
  6
CONTINUOUS
 62
    52
100
AcDbLine
 10
183.382
 20
310.329417
 30
0.0
 11
188.792667
 21
313.45325
 31
0.0
  0
LINE
  5
250
100
AcDbEntity
  8
1
  6
CONTINUOUS
 62
    52
100
AcDbLine
 10
184.156833
 20
310.1995
 30
0.0
 11
189.142667
 21
313.078
 31
0.0
  0
LINE
  5
251
100
AcDbEntity
  8
1
  6
CONTINUOUS
 62
    52
100
AcDbLine
 10
184.931917
 20
310.0695
 30
0.0
 11
189.492667
 21
312.702667
 31
0.0
  0
LINE
  5
252
100
AcDbEntity
  8
1
  6
CONTINUOUS
 62
    52
100
AcDbLine
 10
185.706833
 20
309.939583
 30
0.0
 11
189.842583
 21
312.327417
 31
0.0
  0
LINE
  5
253
100
AcDbEntity
  8
1
  6
CONTINUOUS
 62
    52
100
AcDbLine
 10
186.48175
 20
309.809667
 30
0.0
 11
190.1925
 21
311.952167
 31
0.0
  0
LINE
  5
254
100
AcDbEntity
  8
1
  6
CONTINUOUS
 62
    52
100
AcDbLine
 10
187.256667
 20
309.67975
 30
0.0
 11
190.5425
 21
311.576833
 31
0.0
  0
LINE
  5
255
100
AcDbEntity
  8
1
  6
CONTINUOUS
 62
    52
100
AcDbLine
 10
188.031667
 20
309.54975
 30
0.0
 11
190.8925
 21
311.2015
 31
0.0
  0
LINE
  5
256
100
AcDbEntity
  8
1
  6
CONTINUOUS
 62
    52
100
AcDbLine
 10
188.806667
 20
309.419833
 30
0.0
 11
191.2425
 21
310.826167
 31
0.0
  0
LINE
  5
257
100
AcDbEntity
  8
1
  6
CONTINUOUS
 62
    52
100
AcDbLine
 10
189.581583
 20
309.289833
 30
0.0
 11
191.5925
 21
310.450833
 31
0.0
  0
LINE
  5
258
100
AcDbEntity
  8
1
  6
CONTINUOUS
 62
    52
100
AcDbLine
 10
190.356333
 20
309.16
 30
0.0
 11
191.942333
 21
310.075667
 31
0.0
  0
LINE
  5
259
100
AcDbEntity
  8
1
  6
CONTINUOUS
 62
    52
100
AcDbLine
 10
191.131333
 20
309.03
 30
0.0
 11
192.292417
 21
309.700333
 31
0.0
  0
LINE
  5
25A
100
AcDbEntity
  8
1
  6
CONTINUOUS
 62
    52
100
AcDbLine
 10
191.90625
 20
308.900083
 30
0.0
 11
192.642333
 21
309.325083
 31
0.0
  0
LINE
  5
25B
100
AcDbEntity
  8
1
  6
CONTINUOUS
 62
    52
100
AcDbLine
 10
192.681333
 20
308.770083
 30
0.0
 11
192.992333
 21
308.949667
 31
0.0
  0
LINE
  5
25C
100
AcDbEntity
  8
1
  6
CONTINUOUS
 62
    52
100
AcDbLine
 10
154.420167
 20
276.7465
 30
0.0
 11
192.449917
 21
308.657583
 31
0.0
  0
LINE
  5
25D
100
AcDbEntity
  8
1
  6
CONTINUOUS
 62
    52
100
AcDbLine
 10
187.037167
 20
303.463
 30
0.0
 11
192.867167
 21
308.355
 31
0.0
  0
LINE
  5
25E
100
AcDbEntity
  8
1
  6
CONTINUOUS
 62
    52
100
AcDbLine
 10
168.699
 20
335.001083
 30
0.0
 11
161.056167
 21
331.46675
 31
0.0
  0
LINE
  5
25F
100
AcDbEntity
  8
1
  6
CONTINUOUS
 62
    52
100
AcDbLine
 10
168.340167
 20
335.385917
 30
0.0
 11
161.36175
 21
332.158917
 31
0.0
  0
LINE
  5
260
100
AcDbEntity
  8
1
  6
CONTINUOUS
 62
    52
100
AcDbLine
 10
167.98125
 20
335.770833
 30
0.0
 11
161.667333
 21
332.851083
 31
0.0
  0
LINE
  5
261
100
AcDbEntity
  8
1
  6
CONTINUOUS
 62
    52
100
AcDbLine
 10
167.622333
 20
336.15575
 30
0.0
 11
161.972833
 21
333.543167
 31
0.0
  0
LINE
  5
262
100
AcDbEntity
  8
1
  6
CONTINUOUS
 62
    52
100
AcDbLine
 10
167.263417
 20
336.540667
 30
0.0
 11
162.278417
 21
334.235583
 31
0.0
  0
LINE
  5
263
100
AcDbEntity
  8
1
  6
CONTINUOUS
 62
    52
100
AcDbLine
 10
166.9045
 20
336.925583
 30
0.0
 11
162.584
 21
334.927667
 31
0.0
  0
LINE
  5
264
100
AcDbEntity
  8
1
  6
CONTINUOUS
 62
    52
100
AcDbLine
 10
166.545583
 20
337.310417
 30
0.0
 11
162.8895
 21
335.61975
 31
0.0
  0
LINE
  5
265
100
AcDbEntity
  8
1
  6
CONTINUOUS
 62
    52
100
AcDbLine
 10
166.186583
 20
337.695417
 30
0.0
 11
163.195167
 21
336.312083
 31
0.0
  0
LINE
  5
266
100
AcDbEntity
  8
1
  6
CONTINUOUS
 62
    52
100
AcDbLine
 10
165.82775
 20
338.080167
 30
0.0
 11
163.500667
 21
337.004167
 31
0.0
  0
LINE
  5
267
100
AcDbEntity
  8
1
  6
CONTINUOUS
 62
    52
100
AcDbLine
 10
170.679167
 20
332.877667
 30
0.0
 11
163.449583
 21
328.900167
 31
0.0
  0
LINE
  5
268
100
AcDbEntity
  8
1
  6
CONTINUOUS
 62
    52
100
AcDbLine
 10
163.449583
 20
328.900167
 30
0.0
 11
144.971417
 21
314.033667
 31
0.0
  0
LINE
  5
269
100
AcDbEntity
  8
1
  6
CONTINUOUS
 62
    52
100
AcDbLine
 10
171.030833
 20
332.5005
 30
0.0
 11
163.801167
 21
328.523083
 31
0.0
  0
LINE
  5
26A
100
AcDbEntity
  8
1
  6
CONTINUOUS
 62
    52
100
AcDbLine
 10
163.791417
 20
328.5335
 30
0.0
 11
145.056333
 21
313.460417
 31
0.0
  0
LINE
  5
26B
100
AcDbEntity
  8
1
  6
CONTINUOUS
 62
    52
100
AcDbLine
 10
171.382667
 20
332.123333
 30
0.0
 11
164.152917
 21
328.145917
 31
0.0
  0
LINE
  5
26C
100
AcDbEntity
  8
1
  6
CONTINUOUS
 62
    52
100
AcDbLine
 10
164.133417
 20
328.166833
 30
0.0
 11
145.6115
 21
313.265333
 31
0.0
  0
LINE
  5
26D
100
AcDbEntity
  8
1
  6
CONTINUOUS
 62
    52
100
AcDbLine
 10
171.734333
 20
331.746167
 30
0.0
 11
164.504583
 21
327.76875
 31
0.0
  0
LINE
  5
26E
100
AcDbEntity
  8
1
  6
CONTINUOUS
 62
    52
100
AcDbLine
 10
164.47525
 20
327.80025
 30
0.0
 11
145.554833
 21
312.578
 31
0.0
  0
LINE
  5
26F
100
AcDbEntity
  8
1
  6
CONTINUOUS
 62
    52
100
AcDbLine
 10
172.086
 20
331.369
 30
0.0
 11
164.856417
 21
327.3915
 31
0.0
  0
LINE
  5
270
100
AcDbEntity
  8
1
  6
CONTINUOUS
 62
    52
100
AcDbLine
 10
164.817167
 20
327.433583
 30
0.0
 11
146.529
 21
312.72
 31
0.0
  0
LINE
  5
271
100
AcDbEntity
  8
1
  6
CONTINUOUS
 62
    52
100
AcDbLine
 10
172.43775
 20
330.991833
 30
0.0
 11
165.208167
 21
327.014333
 31
0.0
  0
LINE
  5
272
100
AcDbEntity
  8
1
  6
CONTINUOUS
 62
    52
100
AcDbLine
 10
165.159083
 20
327.066833
 30
0.0
 11
146.656917
 21
312.181083
 31
0.0
  0
LINE
  5
273
100
AcDbEntity
  8
1
  6
CONTINUOUS
 62
    52
100
AcDbLine
 10
172.7895
 20
330.614667
 30
0.0
 11
165.559833
 21
326.637083
 31
0.0
  0
LINE
  5
274
100
AcDbEntity
  8
1
  6
CONTINUOUS
 62
    52
100
AcDbLine
 10
165.501083
 20
326.700167
 30
0.0
 11
146.86125
 21
311.70375
 31
0.0
  0
LINE
  5
275
100
AcDbEntity
  8
1
  6
CONTINUOUS
 62
    52
100
AcDbLine
 10
173.141167
 20
330.2375
 30
0.0
 11
165.911583
 21
326.259917
 31
0.0
  0
LINE
  5
276
100
AcDbEntity
  8
1
  6
CONTINUOUS
 62
    52
100
AcDbLine
 10
165.842917
 20
326.333583
 30
0.0
 11
147.592667
 21
311.650583
 31
0.0
  0
LINE
  5
277
100
AcDbEntity
  8
1
  6
CONTINUOUS
 62
    52
100
AcDbLine
 10
173.492917
 20
329.86025
 30
0.0
 11
166.26325
 21
325.882833
 31
0.0
  0
LINE
  5
278
100
AcDbEntity
  8
1
  6
CONTINUOUS
 62
    52
100
AcDbLine
 10
165.468833
 20
338.465083
 30
0.0
 11
163.806167
 21
337.69625
 31
0.0
  0
LINE
  5
279
100
AcDbEntity
  8
1
  6
CONTINUOUS
 62
    52
100
AcDbLine
 10
165.109917
 20
338.85
 30
0.0
 11
164.11175
 21
338.388417
 31
0.0
  0
LINE
  5
27A
100
AcDbEntity
  8
1
  6
CONTINUOUS
 62
    52
100
AcDbLine
 10
164.751
 20
339.234833
 30
0.0
 11
164.417333
 21
339.080583
 31
0.0
  0
ARC
  5
27B
100
AcDbEntity
  8
1
  6
CONTINUOUS
 62
    52
100
AcDbCircle
 10
167.841318
 20
337.56734
 30
0.0
 40
5.0
210
0.0
220
0.0
230
1.0
100
AcDbArc
 50
100.400839
 51
128.818575
  0
LINE
  5
27C
100
AcDbEntity
  8
1
  6
CONTINUOUS
 62
    52
100
AcDbLine
 10
166.938583
 20
342.485167
 30
0.0
 11
182.36925
 21
343.628583
 31
0.0
  0
LINE
  5
27D
100
AcDbEntity
  8
1
  6
CONTINUOUS
 62
    52
100
AcDbLine
 10
163.546917
 20
337.962667
 30
0.0
 11
157.813083
 21
333.349583
 31
0.0
  0
LINE
  5
27E
100
AcDbEntity
  8
1
  6
CONTINUOUS
 62
    52
100
AcDbLine
 10
156.5375
 20
332.323333
 30
0.0
 11
135.164417
 21
315.127917
 31
0.0
  0
LINE
  5
27F
100
AcDbEntity
  8
1
  6
CONTINUOUS
 62
    52
100
AcDbLine
 10
162.717833
 20
336.653917
 30
0.0
 11
158.228167
 21
333.04175
 31
0.0
  0
LINE
  5
280
100
AcDbEntity
  8
1
  6
CONTINUOUS
 62
    52
100
AcDbLine
 10
156.83575
 20
331.921583
 30
0.0
 11
137.93475
 21
316.714917
 31
0.0
  0
LINE
  5
281
100
AcDbEntity
  8
1
  6
CONTINUOUS
 62
    52
100
AcDbLine
 10
162.863083
 20
336.129
 30
0.0
 11
158.792583
 21
332.854083
 31
0.0
  0
LINE
  5
282
100
AcDbEntity
  8
1
  6
CONTINUOUS
 62
    52
100
AcDbLine
 10
157.037
 20
331.441667
 30
0.0
 11
135.6335
 21
314.22175
 31
0.0
  0
LINE
  5
283
100
AcDbEntity
  8
1
  6
CONTINUOUS
 62
    52
100
AcDbLine
 10
162.034
 20
334.82025
 30
0.0
 11
159.100583
 21
332.460167
 31
0.0
  0
LINE
  5
284
100
AcDbEntity
  8
1
  6
CONTINUOUS
 62
    52
100
AcDbLine
 10
157.522833
 20
331.190833
 30
0.0
 11
137.36475
 21
314.972833
 31
0.0
  0
LINE
  5
285
100
AcDbEntity
  8
1
  6
CONTINUOUS
 62
    52
100
AcDbLine
 10
161.984417
 20
334.138667
 30
0.0
 11
159.116167
 21
331.831083
 31
0.0
  0
LINE
  5
286
100
AcDbEntity
  8
1
  6
CONTINUOUS
 62
    52
100
AcDbLine
 10
157.550417
 20
330.571333
 30
0.0
 11
137.241833
 21
314.232333
 31
0.0
  0
LINE
  5
287
100
AcDbEntity
  8
1
  6
CONTINUOUS
 62
    52
100
AcDbLine
 10
161.35025
 20
332.986667
 30
0.0
 11
159.236417
 21
331.286
 31
0.0
  0
LINE
  5
288
100
AcDbEntity
  8
1
  6
CONTINUOUS
 62
    52
100
AcDbLine
 10
157.546167
 20
329.926167
 30
0.0
 11
138.414917
 21
314.534333
 31
0.0
  0
LINE
  5
289
100
AcDbEntity
  8
1
  6
CONTINUOUS
 62
    52
100
AcDbLine
 10
192.642667
 20
332.6115
 30
0.0
 11
188.705083
 21
331.907083
 31
0.0
  0
LINE
  5
28A
100
AcDbEntity
  8
1
  6
CONTINUOUS
 62
    52
100
AcDbLine
 10
193.860583
 20
331.3055
 30
0.0
 11
188.969167
 21
330.4305
 31
0.0
  0
ARC
  5
28B
100
AcDbEntity
  8
1
  6
CONTINUOUS
 62
    52
100
AcDbCircle
 10
188.76522
 20
331.155932
 30
0.0
 40
0.753555
210
0.0
220
0.0
230
1.0
100
AcDbArc
 50
94.577292
 51
285.702711
  0
LINE
  5
28C
100
AcDbEntity
  8
1
  6
CONTINUOUS
 62
    52
100
AcDbLine
 10
192.642667
 20
332.6115
 30
0.0
 11
192.642667
 21
333.478083
 31
0.0
  0
LINE
  5
28D
100
AcDbEntity
  8
1
  6
CONTINUOUS
 62
    52
100
AcDbLine
 10
193.860583
 20
331.3055
 30
0.0
 11
193.860583
 21
332.172083
 31
0.0
  0
LINE
  5
28E
100
AcDbEntity
  8
1
  6
CONTINUOUS
 62
    52
100
AcDbLine
 10
192.642667
 20
333.1115
 30
0.0
 11
193.860583
 21
331.8055
 31
0.0
  0
LINE
  5
28F
100
AcDbEntity
  8
1
  6
CONTINUOUS
 62
    52
100
AcDbLine
 10
192.642667
 20
333.478083
 30
0.0
 11
193.860583
 21
332.172083
 31
0.0
  0
ARC
  5
290
100
AcDbEntity
  8
1
  6
CONTINUOUS
 62
    52
100
AcDbCircle
 10
193.602918
 20
331.32712
 30
0.0
 40
0.543358
210
0.0
220
0.0
230
1.0
100
AcDbArc
 50
329.793853
 51
61.692203
  0
LINE
  5
291
100
AcDbEntity
  8
1
  6
CONTINUOUS
 62
    52
100
AcDbLine
 10
134.136333
 20
288.39
 30
0.0
 11
131.684083
 21
286.012417
 31
0.0
  0
ARC
  5
292
100
AcDbEntity
  8
1
  6
CONTINUOUS
 62
    52
100
AcDbCircle
 10
132.774041
 20
290.603384
 30
0.0
 40
2.599021
210
0.0
220
0.0
230
1.0
100
AcDbArc
 50
301.611436
 51
335.479747
  0
LINE
  5
293
100
AcDbEntity
  8
1
  6
CONTINUOUS
 62
    52
100
AcDbLine
 10
135.180417
 20
287.313
 30
0.0
 11
132.744667
 21
284.951417
 31
0.0
  0
ARC
  5
294
100
AcDbEntity
  8
1
  6
CONTINUOUS
 62
    52
100
AcDbCircle
 10
133.97522
 20
289.387621
 30
0.0
 40
2.399281
210
0.0
220
0.0
230
1.0
100
AcDbArc
 50
300.153325
 51
336.937856
  0
ARC
  5
295
100
AcDbEntity
  8
1
  6
CONTINUOUS
 62
    52
100
AcDbCircle
 10
135.220521
 20
288.559516
 30
0.0
 40
0.968699
210
0.0
220
0.0
230
1.0
100
AcDbArc
 50
353.374608
 51
94.847211
  0
ARC
  5
296
100
AcDbEntity
  8
1
  6
CONTINUOUS
 62
    52
100
AcDbCircle
 10
135.218915
 20
288.196204
 30
0.0
 40
1.249972
210
0.0
220
0.0
230
1.0
100
AcDbArc
 50
356.049319
 51
56.104456
  0
LINE
  5
297
100
AcDbEntity
  8
1
  6
CONTINUOUS
 62
    52
100
AcDbLine
 10
136.465917
 20
288.110083
 30
0.0
 11
133.18125
 21
284.291083
 31
0.0
  0
ARC
  5
298
100
AcDbEntity
  8
1
  6
CONTINUOUS
 62
    52
100
AcDbCircle
 10
133.115329
 20
284.788314
 30
0.0
 40
0.501581
210
0.0
220
0.0
230
1.0
100
AcDbArc
 50
193.010783
 51
277.552033
  0
LINE
  5
299
100
AcDbEntity
  8
1
  6
CONTINUOUS
 62
    52
100
AcDbLine
 10
132.744667
 20
284.951417
 30
0.0
 11
131.684083
 21
286.012417
 31
0.0
  0
LINE
  5
29A
100
AcDbEntity
  8
1
  6
CONTINUOUS
 62
    52
100
AcDbLine
 10
132.433083
 20
284.609333
 30
0.0
 11
131.3325
 21
285.710333
 31
0.0
  0
ARC
  5
29B
100
AcDbEntity
  8
1
  6
CONTINUOUS
 62
    52
100
AcDbCircle
 10
132.434872
 20
284.920647
 30
0.0
 40
0.311319
210
0.0
220
0.0
230
1.0
100
AcDbArc
 50
269.670739
 51
5.672211
  0
ARC
  5
29C
100
AcDbEntity
  8
1
  6
CONTINUOUS
 62
    52
100
AcDbCircle
 10
131.645443
 20
285.70175
 30
0.0
 40
0.313061
210
0.0
220
0.0
230
1.0
100
AcDbArc
 50
82.910075
 51
178.428822
  0
LINE
  5
29D
100
AcDbEntity
  8
1
  6
CONTINUOUS
 62
    52
100
AcDbLine
 10
135.138667
 20
289.52475
 30
0.0
 11
136.18275
 21
288.44775
 31
0.0
  0
LINE
  5
29E
100
AcDbEntity
  8
1
  6
CONTINUOUS
 62
    52
100
AcDbLine
 10
134.136333
 20
288.39
 30
0.0
 11
135.180417
 21
287.313
 31
0.0
  0
LINE
  5
29F
100
AcDbEntity
  8
1
  6
CONTINUOUS
 62
    52
100
AcDbLine
 10
133.18125
 20
284.291083
 30
0.0
 11
132.085333
 21
283.874167
 31
0.0
  0
LINE
  5
2A0
100
AcDbEntity
  8
1
  6
CONTINUOUS
 62
    52
100
AcDbLine
 10
133.766917
 20
284.234583
 30
0.0
 11
131.996083
 21
283.560917
 31
0.0
  0
ARC
  5
2A1
100
AcDbEntity
  8
1
  6
CONTINUOUS
 62
    52
100
AcDbCircle
 10
132.231282
 20
283.663244
 30
0.0
 40
0.256494
210
0.0
220
0.0
230
1.0
100
AcDbArc
 50
124.681431
 51
203.512347
  0
LINE
  5
2A2
100
AcDbEntity
  8
1
  6
CONTINUOUS
 62
    52
100
AcDbLine
 10
131.996083
 20
283.560917
 30
0.0
 11
130.731417
 21
284.7185
 31
0.0
  0
ARC
  5
2A3
100
AcDbEntity
  8
1
  6
CONTINUOUS
 62
    52
100
AcDbCircle
 10
131.964112
 20
284.375224
 30
0.0
 40
1.2796
210
0.0
220
0.0
230
1.0
100
AcDbArc
 50
111.868008
 51
164.438772
  0
LINE
  5
2A4
100
AcDbEntity
  8
1
  6
CONTINUOUS
 62
    52
100
AcDbLine
 10
132.315167
 20
283.961583
 30
0.0
 11
130.975583
 21
285.18775
 31
0.0
  0
LINE
  5
2A5
100
AcDbEntity
  8
1
  6
CONTINUOUS
 62
    52
100
AcDbLine
 10
151.024
 20
265.728667
 30
0.0
 11
133.437
 21
284.588417
 31
0.0
  0
LINE
  5
2A6
100
AcDbEntity
  8
1
  6
CONTINUOUS
 62
    52
100
AcDbLine
 10
131.907333
 20
286.228833
 30
0.0
 11
117.606083
 21
301.565
 31
0.0
  0
LINE
  5
2A7
100
AcDbEntity
  8
1
  6
CONTINUOUS
 62
    52
100
AcDbLine
 10
186.672583
 20
289.773917
 30
0.0
 11
186.62475
 21
286.395333
 31
0.0
  0
LINE
  5
2A8
100
AcDbEntity
  8
1
  6
CONTINUOUS
 62
    52
100
AcDbLine
 10
174.555667
 20
281.600917
 30
0.0
 11
174.494833
 21
277.304583
 31
0.0
  0
LINE
  5
2A9
100
AcDbEntity
  8
1
  6
CONTINUOUS
 62
    52
100
AcDbLine
 10
186.62475
 20
286.395333
 30
0.0
 11
174.494833
 21
277.304583
 31
0.0
  0
LINE
  5
2AA
100
AcDbEntity
  8
1
  6
CONTINUOUS
 62
    52
100
AcDbLine
 10
174.555667
 20
281.600917
 30
0.0
 11
172.933667
 21
277.688917
 31
0.0
  0
LINE
  5
2AB
100
AcDbEntity
  8
1
  6
CONTINUOUS
 62
    52
100
AcDbLine
 10
172.933667
 20
277.688917
 30
0.0
 11
174.494833
 21
277.304583
 31
0.0
  0
ELLIPSE
  5
2AC
100
AcDbEntity
  8
1
  6
CONTINUOUS
 62
    52
100
AcDbEllipse
 10
196.108385
 20
288.304576
 30
0.0
 11
1.005796408462061
 21
0.7217766525135798
 31
0.0
210
0.0
220
0.0
230
1.0
 40
0.545523
 41
0.0
 42
6.2831753071795866
  0
LINE
  5
2AD
100
AcDbEntity
  8
1
  6
CONTINUOUS
 62
    52
100
AcDbLine
 10
195.047083
 20
287.696917
 30
0.0
 11
197.023917
 21
289.115417
 31
0.0
  0
LINE
  5
2AE
100
AcDbEntity
  8
1
  6
CONTINUOUS
 62
    52
100
AcDbLine
 10
195.192833
 20
287.493667
 30
0.0
 11
197.169667
 21
288.91225
 31
0.0
  0
TEXT
  5
2AF
100
AcDbEntity
  8
1
  6
CONTINUOUS
 62
     7
100
AcDbText
 10
168.457833
 20
242.23875
 30
0.0
 40
4.0
  1
 3/4  FRONT VIEW (TILTED FORWARD)
  7
MONOTXT
210
0.0
220
0.0
230
1.0
100
AcDbText
  0
LINE
  5
2B0
100
AcDbEntity
  8
1
  6
CONTINUOUS
 62
     7
100
AcDbLine
 10
167.143167
 20
240.134583
 30
0.0
 11
284.12175
 21
240.134583
 31
0.0
  0
LINE
  5
2B1
100
AcDbEntity
  8
1
  6
CONTINUOUS
 62
    92
100
AcDbLine
 10
243.028333
 20
311.151417
 30
0.0
 11
294.807583
 21
273.124
 31
0.0
  0
LINE
  5
2B2
100
AcDbEntity
  8
1
  6
CONTINUOUS
 62
    92
100
AcDbLine
 10
301.283667
 20
273.599417
 30
0.0
 11
348.185333
 21
319.997833
 31
0.0
  0
LINE
  5
2B3
100
AcDbEntity
  8
1
  6
CONTINUOUS
 62
    92
100
AcDbLine
 10
294.834167
 20
261.693667
 30
0.0
 11
245.00325
 21
296.898167
 31
0.0
  0
LINE
  5
2B4
100
AcDbEntity
  8
1
  6
CONTINUOUS
 62
    92
100
AcDbLine
 10
341.542083
 20
313.425917
 30
0.0
 11
315.90575
 21
276.668417
 31
0.0
  0
LINE
  5
2B5
100
AcDbEntity
  8
1
  6
CONTINUOUS
 62
    92
100
AcDbLine
 10
315.90575
 20
276.668417
 30
0.0
 11
301.227417
 21
262.214667
 31
0.0
  0
ARC
  5
2B6
100
AcDbEntity
  8
1
  6
CONTINUOUS
 62
    92
100
AcDbCircle
 10
297.882484
 20
277.163758
 30
0.0
 40
5.0
210
0.0
220
0.0
230
1.0
100
AcDbArc
 50
233.705636
 51
314.69135
  0
ARC
  5
2B7
100
AcDbEntity
  8
1
  6
CONTINUOUS
 62
    92
100
AcDbCircle
 10
297.842473
 20
265.788972
 30
0.0
 40
5.0
210
0.0
220
0.0
230
1.0
100
AcDbArc
 50
234.759658
 51
314.557994
  0
ARC
  5
2B8
100
AcDbEntity
  8
1
  6
CONTINUOUS
 62
    92
100
AcDbCircle
 10
297.882497
 20
283.762971
 30
0.0
 40
5.0
210
0.0
220
0.0
230
1.0
100
AcDbArc
 50
233.705933
 51
314.690881
  0
ARC
  5
2B9
100
AcDbEntity
  8
1
  6
CONTINUOUS
 62
    92
100
AcDbCircle
 10
322.146796
 20
327.466304
 30
0.0
 40
18.568403
210
0.0
220
0.0
230
1.0
100
AcDbArc
 50
320.7657
 51
15.073122
  0
LINE
  5
2BA
100
AcDbEntity
  8
1
  6
CONTINUOUS
 62
    92
100
AcDbLine
 10
343.5585
 20
326.638417
 30
0.0
 11
341.350667
 21
333.36525
 31
0.0
  0
ARC
  5
2BB
100
AcDbEntity
  8
1
  6
CONTINUOUS
 62
    92
100
AcDbCircle
 10
341.264584
 20
321.85958
 30
0.0
 40
7.16679
210
0.0
220
0.0
230
1.0
100
AcDbArc
 50
344.943342
 51
75.454614
  0
LINE
  5
2BC
100
AcDbEntity
  8
1
  6
CONTINUOUS
 62
    92
100
AcDbLine
 10
338.855167
 20
336.268583
 30
0.0
 11
288.7545
 21
361.587917
 31
0.0
  0
ARC
  5
2BD
100
AcDbEntity
  8
1
  6
CONTINUOUS
 62
    92
100
AcDbCircle
 10
336.599977
 20
331.806064
 30
0.0
 40
5.0
210
0.0
220
0.0
230
1.0
100
AcDbArc
 50
18.170128
 51
63.189583
  0
ARC
  5
2BE
100
AcDbEntity
  8
1
  6
CONTINUOUS
 62
    92
100
AcDbCircle
 10
338.807842
 20
325.079216
 30
0.0
 40
5.0
210
0.0
220
0.0
230
1.0
100
AcDbArc
 50
314.691181
 51
18.170569
  0
LINE
  5
2BF
100
AcDbEntity
  8
1
  6
CONTINUOUS
 62
    92
100
AcDbLine
 10
248.26275
 20
320.484917
 30
0.0
 11
246.398833
 21
314.394167
 31
0.0
  0
LINE
  5
2C0
100
AcDbEntity
  8
1
  6
CONTINUOUS
 62
    92
100
AcDbLine
 10
337.503583
 20
335.457333
 30
0.0
 11
288.0895
 21
360.429667
 31
0.0
  0
LINE
  5
2C1
100
AcDbEntity
  8
1
  6
CONTINUOUS
 62
    92
100
AcDbLine
 10
292.626667
 20
300.152917
 30
0.0
 11
263.600917
 21
320.535333
 31
0.0
  0
LINE
  5
2C2
100
AcDbEntity
  8
1
  6
CONTINUOUS
 62
    92
100
AcDbLine
 10
293.479
 20
298.943417
 30
0.0
 11
261.884333
 21
321.129583
 31
0.0
  0
LINE
  5
2C3
100
AcDbEntity
  8
1
  6
CONTINUOUS
 62
    92
100
AcDbLine
 10
293.163583
 20
298.553917
 30
0.0
 11
262.440833
 21
320.127917
 31
0.0
  0
LINE
  5
2C4
100
AcDbEntity
  8
1
  6
CONTINUOUS
 62
    92
100
AcDbLine
 10
308.926417
 20
295.460167
 30
0.0
 11
313.868417
 21
293.555667
 31
0.0
  0
LINE
  5
2C5
100
AcDbEntity
  8
1
  6
CONTINUOUS
 62
    92
100
AcDbLine
 10
308.634333
 20
295.036833
 30
0.0
 11
313.606333
 21
293.120833
 31
0.0
  0
LINE
  5
2C6
100
AcDbEntity
  8
1
  6
CONTINUOUS
 62
    92
100
AcDbLine
 10
307.97275
 20
294.755833
 30
0.0
 11
313.587583
 21
292.592083
 31
0.0
  0
LINE
  5
2C7
100
AcDbEntity
  8
1
  6
CONTINUOUS
 62
    92
100
AcDbLine
 10
307.786417
 20
294.291833
 30
0.0
 11
313.015417
 21
292.27675
 31
0.0
  0
LINE
  5
2C8
100
AcDbEntity
  8
1
  6
CONTINUOUS
 62
    92
100
AcDbLine
 10
307.388667
 20
293.909333
 30
0.0
 11
312.300917
 21
292.01625
 31
0.0
  0
LINE
  5
2C9
100
AcDbEntity
  8
1
  6
CONTINUOUS
 62
    92
100
AcDbLine
 10
307.149583
 20
293.465583
 30
0.0
 11
311.889583
 21
291.639
 31
0.0
  0
LINE
  5
2CA
100
AcDbEntity
  8
1
  6
CONTINUOUS
 62
    92
100
AcDbLine
 10
307.022667
 20
292.978667
 30
0.0
 11
311.6985
 21
291.17675
 31
0.0
  0
LINE
  5
2CB
100
AcDbEntity
  8
1
  6
CONTINUOUS
 62
    92
100
AcDbLine
 10
306.742833
 20
292.550667
 30
0.0
 11
311.519167
 21
290.710083
 31
0.0
  0
LINE
  5
2CC
100
AcDbEntity
  8
1
  6
CONTINUOUS
 62
    92
100
AcDbLine
 10
303.672167
 20
288.911417
 30
0.0
 11
307.988917
 21
287.247917
 31
0.0
  0
LINE
  5
2CD
100
AcDbEntity
  8
1
  6
CONTINUOUS
 62
    92
100
AcDbLine
 10
303.412833
 20
288.4755
 30
0.0
 11
307.5775
 21
286.870583
 31
0.0
  0
LINE
  5
2CE
100
AcDbEntity
  8
1
  6
CONTINUOUS
 62
    92
100
AcDbLine
 10
302.9775
 20
288.107417
 30
0.0
 11
307.338333
 21
286.426833
 31
0.0
  0
LINE
  5
2CF
100
AcDbEntity
  8
1
  6
CONTINUOUS
 62
    92
100
AcDbLine
 10
302.665
 20
287.692
 30
0.0
 11
306.95
 21
286.04075
 31
0.0
  0
LINE
  5
2D0
100
AcDbEntity
  8
1
  6
CONTINUOUS
 62
    92
100
AcDbLine
 10
302.342167
 20
287.280583
 30
0.0
 11
306.253833
 21
285.773167
 31
0.0
  0
LINE
  5
2D1
100
AcDbEntity
  8
1
  6
CONTINUOUS
 62
    92
100
AcDbLine
 10
301.986667
 20
286.88175
 30
0.0
 11
306.186917
 21
285.263083
 31
0.0
  0
LINE
  5
2D2
100
AcDbEntity
  8
1
  6
CONTINUOUS
 62
    92
100
AcDbLine
 10
301.711
 20
286.452083
 30
0.0
 11
305.5735
 21
284.963667
 31
0.0
  0
LINE
  5
2D3
100
AcDbEntity
  8
1
  6
CONTINUOUS
 62
    92
100
AcDbLine
 10
301.28175
 20
286.081667
 30
0.0
 11
305.364167
 21
284.5085
 31
0.0
  0
LINE
  5
2D4
100
AcDbEntity
  8
1
  6
CONTINUOUS
 62
    92
100
AcDbLine
 10
300.825833
 20
285.7215
 30
0.0
 11
304.769
 21
284.201917
 31
0.0
  0
LINE
  5
2D5
100
AcDbEntity
  8
1
  6
CONTINUOUS
 62
    92
100
AcDbLine
 10
300.29025
 20
285.392167
 30
0.0
 11
304.63775
 21
283.71675
 31
0.0
  0
LINE
  5
2D6
100
AcDbEntity
  8
1
  6
CONTINUOUS
 62
    92
100
AcDbLine
 10
299.633667
 20
285.10925
 30
0.0
 11
304.143667
 21
283.37125
 31
0.0
  0
LINE
  5
2D7
100
AcDbEntity
  8
1
  6
CONTINUOUS
 62
    92
100
AcDbLine
 10
298.91775
 20
284.84925
 30
0.0
 11
303.505083
 21
283.0815
 31
0.0
  0
LINE
  5
2D8
100
AcDbEntity
  8
1
  6
CONTINUOUS
 62
    92
100
AcDbLine
 10
298.7195
 20
284.389917
 30
0.0
 11
303.438167
 21
282.5715
 31
0.0
  0
LINE
  5
2D9
100
AcDbEntity
  8
1
  6
CONTINUOUS
 62
    92
100
AcDbLine
 10
298.927583
 20
283.773917
 30
0.0
 11
302.962417
 21
282.219
 31
0.0
  0
LINE
  5
2DA
100
AcDbEntity
  8
1
  6
CONTINUOUS
 62
    92
100
AcDbLine
 10
298.683667
 20
283.331917
 30
0.0
 11
302.443083
 21
281.88325
 31
0.0
  0
LINE
  5
2DB
100
AcDbEntity
  8
1
  6
CONTINUOUS
 62
    92
100
AcDbLine
 10
298.69275
 20
282.79275
 30
0.0
 11
302.1925
 21
281.444083
 31
0.0
  0
LINE
  5
2DC
100
AcDbEntity
  8
1
  6
CONTINUOUS
 62
    92
100
AcDbLine
 10
299.83775
 20
281.8155
 30
0.0
 11
301.66175
 21
281.112667
 31
0.0
  0
LINE
  5
2DD
100
AcDbEntity
  8
1
  6
CONTINUOUS
 62
    92
100
AcDbLine
 10
299.03425
 20
281.589417
 30
0.0
 11
301.328333
 21
280.705333
 31
0.0
  0
LINE
  5
2DE
100
AcDbEntity
  8
1
  6
CONTINUOUS
 62
    92
100
AcDbLine
 10
298.919167
 20
281.097833
 30
0.0
 11
300.910083
 21
280.330583
 31
0.0
  0
LINE
  5
2DF
100
AcDbEntity
  8
1
  6
CONTINUOUS
 62
    92
100
AcDbLine
 10
299.061083
 20
280.50725
 30
0.0
 11
300.3265
 21
280.019667
 31
0.0
  0
LINE
  5
2E0
100
AcDbEntity
  8
1
  6
CONTINUOUS
 62
    92
100
AcDbLine
 10
299.219333
 20
279.910417
 30
0.0
 11
299.820917
 21
279.678583
 31
0.0
  0
LINE
  5
2E1
100
AcDbEntity
  8
1
  6
CONTINUOUS
 62
    92
100
AcDbLine
 10
298.760417
 20
279.5515
 30
0.0
 11
299.591083
 21
279.231417
 31
0.0
  0
LINE
  5
2E2
100
AcDbEntity
  8
1
  6
CONTINUOUS
 62
    92
100
AcDbLine
 10
289.12025
 20
291.006917
 30
0.0
 11
275.385
 21
300.652
 31
0.0
  0
LINE
  5
2E3
100
AcDbEntity
  8
1
  6
CONTINUOUS
 62
    92
100
AcDbLine
 10
289.605333
 20
293.110083
 30
0.0
 11
276.648417
 21
302.208583
 31
0.0
  0
LINE
  5
2E4
100
AcDbEntity
  8
1
  6
CONTINUOUS
 62
    92
100
AcDbLine
 10
292.801583
 20
296.364333
 30
0.0
 11
278.882333
 21
306.1385
 31
0.0
  0
LINE
  5
2E5
100
AcDbEntity
  8
1
  6
CONTINUOUS
 62
    92
100
AcDbLine
 10
275.969
 20
308.184333
 30
0.0
 11
260.445
 21
319.085417
 31
0.0
  0
LINE
  5
2E6
100
AcDbEntity
  8
1
  6
CONTINUOUS
 62
    92
100
AcDbLine
 10
292.088583
 20
298.087
 30
0.0
 11
277.787
 21
308.129667
 31
0.0
  0
LINE
  5
2E7
100
AcDbEntity
  8
1
  6
CONTINUOUS
 62
    92
100
AcDbLine
 10
277.787
 20
308.129667
 30
0.0
 11
262.496083
 21
318.867333
 31
0.0
  0
LINE
  5
2E8
100
AcDbEntity
  8
1
  6
CONTINUOUS
 62
    92
100
AcDbLine
 10
271.994333
 20
308.531667
 30
0.0
 11
259.01625
 21
317.645
 31
0.0
  0
LINE
  5
2E9
100
AcDbEntity
  8
1
  6
CONTINUOUS
 62
    92
100
AcDbLine
 10
268.34525
 20
307.42825
 30
0.0
 11
258.720417
 21
314.186917
 31
0.0
  0
LINE
  5
2EA
100
AcDbEntity
  8
1
  6
CONTINUOUS
 62
    92
100
AcDbLine
 10
268.298
 20
309.90525
 30
0.0
 11
258.043833
 21
317.105833
 31
0.0
  0
LINE
  5
2EB
100
AcDbEntity
  8
1
  6
CONTINUOUS
 62
    92
100
AcDbLine
 10
268.49425
 20
312.211333
 30
0.0
 11
262.1785
 21
316.646333
 31
0.0
  0
ARC
  5
2EC
100
AcDbEntity
  8
1
  6
CONTINUOUS
 62
    92
100
AcDbCircle
 10
297.653049
 20
290.011232
 30
0.0
 40
5.0
210
0.0
220
0.0
230
1.0
100
AcDbArc
 50
233.705347
 51
319.976217
  0
LINE
  5
2ED
100
AcDbEntity
  8
1
  6
CONTINUOUS
 62
    92
100
AcDbLine
 10
290.623333
 20
293.006333
 30
0.0
 11
276.824917
 21
302.695583
 31
0.0
  0
LINE
  5
2EE
100
AcDbEntity
  8
1
  6
CONTINUOUS
 62
    92
100
AcDbLine
 10
289.371833
 20
294.495917
 30
0.0
 11
276.865333
 21
303.278167
 31
0.0
  0
LINE
  5
2EF
100
AcDbEntity
  8
1
  6
CONTINUOUS
 62
    92
100
AcDbLine
 10
279.28975
 20
302.797583
 30
0.0
 11
277.443917
 21
304.09375
 31
0.0
  0
LINE
  5
2F0
100
AcDbEntity
  8
1
  6
CONTINUOUS
 62
    92
100
AcDbLine
 10
291.316333
 20
293.7415
 30
0.0
 11
277.407417
 21
303.5085
 31
0.0
  0
LINE
  5
2F1
100
AcDbEntity
  8
1
  6
CONTINUOUS
 62
    92
100
AcDbLine
 10
291.037917
 20
296.991833
 30
0.0
 11
279.828
 21
304.863583
 31
0.0
  0
LINE
  5
2F2
100
AcDbEntity
  8
1
  6
CONTINUOUS
 62
    92
100
AcDbLine
 10
289.689833
 20
291.828917
 30
0.0
 11
275.910083
 21
301.505167
 31
0.0
  0
LINE
  5
2F3
100
AcDbEntity
  8
1
  6
CONTINUOUS
 62
    92
100
AcDbLine
 10
288.077
 20
292.350333
 30
0.0
 11
275.614833
 21
301.101417
 31
0.0
  0
LINE
  5
2F4
100
AcDbEntity
  8
1
  6
CONTINUOUS
 62
    92
100
AcDbLine
 10
290.047917
 20
295.243167
 30
0.0
 11
279.28975
 21
302.797583
 31
0.0
  0
LINE
  5
2F5
100
AcDbEntity
  8
1
  6
CONTINUOUS
 62
    92
100
AcDbLine
 10
291.041
 20
295.15675
 30
0.0
 11
280.266833
 21
302.7225
 31
0.0
  0
LINE
  5
2F6
100
AcDbEntity
  8
1
  6
CONTINUOUS
 62
    92
100
AcDbLine
 10
280.266833
 20
302.722583
 30
0.0
 11
277.879333
 21
304.399
 31
0.0
  0
LINE
  5
2F7
100
AcDbEntity
  8
1
  6
CONTINUOUS
 62
    92
100
AcDbLine
 10
291.40375
 20
295.513
 30
0.0
 11
282.138583
 21
302.01925
 31
0.0
  0
LINE
  5
2F8
100
AcDbEntity
  8
1
  6
CONTINUOUS
 62
    92
100
AcDbLine
 10
282.138583
 20
302.01925
 30
0.0
 11
278.039167
 21
304.897667
 31
0.0
  0
LINE
  5
2F9
100
AcDbEntity
  8
1
  6
CONTINUOUS
 62
    92
100
AcDbLine
 10
273.273
 20
304.578833
 30
0.0
 11
268.997
 21
307.581417
 31
0.0
  0
LINE
  5
2FA
100
AcDbEntity
  8
1
  6
CONTINUOUS
 62
    92
100
AcDbLine
 10
269.087083
 20
309.962083
 30
0.0
 11
259.172083
 21
316.9245
 31
0.0
  0
LINE
  5
2FB
100
AcDbEntity
  8
1
  6
CONTINUOUS
 62
    92
100
AcDbLine
 10
268.896333
 20
311.318
 30
0.0
 11
259.664833
 21
317.800417
 31
0.0
  0
LINE
  5
2FC
100
AcDbEntity
  8
1
  6
CONTINUOUS
 62
    92
100
AcDbLine
 10
273.559583
 20
308.65425
 30
0.0
 11
268.49425
 21
312.211333
 31
0.0
  0
LINE
  5
2FD
100
AcDbEntity
  8
1
  6
CONTINUOUS
 62
    92
100
AcDbLine
 10
274.647417
 20
306.668583
 30
0.0
 11
271.994333
 21
308.531667
 31
0.0
  0
LINE
  5
2FE
100
AcDbEntity
  8
1
  6
CONTINUOUS
 62
    92
100
AcDbLine
 10
274.679083
 20
307.25725
 30
0.0
 11
272.482
 21
308.800083
 31
0.0
  0
LINE
  5
2FF
100
AcDbEntity
  8
1
  6
CONTINUOUS
 62
    92
100
AcDbLine
 10
272.482
 20
308.800083
 30
0.0
 11
268.896333
 21
311.318083
 31
0.0
  0
LINE
  5
300
100
AcDbEntity
  8
1
  6
CONTINUOUS
 62
    92
100
AcDbLine
 10
269.47925
 20
307.853833
 30
0.0
 11
257.920167
 21
315.97075
 31
0.0
  0
LINE
  5
301
100
AcDbEntity
  8
1
  6
CONTINUOUS
 62
    92
100
AcDbLine
 10
268.997
 20
307.5815
 30
0.0
 11
257.756333
 21
315.475
 31
0.0
  0
LINE
  5
302
100
AcDbEntity
  8
1
  6
CONTINUOUS
 62
    92
100
AcDbLine
 10
275.384917
 20
300.651833
 30
0.0
 11
268.528583
 21
305.466667
 31
0.0
  0
LINE
  5
303
100
AcDbEntity
  8
1
  6
CONTINUOUS
 62
    92
100
AcDbLine
 10
268.528583
 20
305.466667
 30
0.0
 11
256.068917
 21
314.216083
 31
0.0
  0
LINE
  5
304
100
AcDbEntity
  8
1
  6
CONTINUOUS
 62
    92
100
AcDbLine
 10
278.244083
 20
308.419583
 30
0.0
 11
260.966583
 21
320.552083
 31
0.0
  0
LINE
  5
305
100
AcDbEntity
  8
1
  6
CONTINUOUS
 62
    92
100
AcDbLine
 10
293.97125
 20
297.37575
 30
0.0
 11
278.244167
 21
308.419667
 31
0.0
  0
LINE
  5
306
100
AcDbEntity
  8
1
  6
CONTINUOUS
 62
    92
100
AcDbLine
 10
290.201917
 20
292.080083
 30
0.0
 11
276.034417
 21
302.02875
 31
0.0
  0
LINE
  5
307
100
AcDbEntity
  8
1
  6
CONTINUOUS
 62
    92
100
AcDbLine
 10
273.574167
 20
303.756333
 30
0.0
 11
268.34525
 21
307.428167
 31
0.0
  0
LINE
  5
308
100
AcDbEntity
  8
1
  6
CONTINUOUS
 62
    92
100
AcDbLine
 10
275.910083
 20
301.505167
 30
0.0
 11
256.494083
 21
315.139417
 31
0.0
  0
LINE
  5
309
100
AcDbEntity
  8
1
  6
CONTINUOUS
 62
    92
100
AcDbLine
 10
275.67225
 20
301.061083
 30
0.0
 11
256.959167
 21
314.20175
 31
0.0
  0
LINE
  5
30A
100
AcDbEntity
  8
1
  6
CONTINUOUS
 62
    92
100
AcDbLine
 10
273.714833
 20
304.879583
 30
0.0
 11
269.47925
 21
307.853833
 31
0.0
  0
LINE
  5
30B
100
AcDbEntity
  8
1
  6
CONTINUOUS
 62
    92
100
AcDbLine
 10
274.09575
 20
305.223
 30
0.0
 11
259.998
 21
315.12275
 31
0.0
  0
LINE
  5
30C
100
AcDbEntity
  8
1
  6
CONTINUOUS
 62
    92
100
AcDbLine
 10
273.932083
 20
305.948917
 30
0.0
 11
268.298
 21
309.90525
 31
0.0
  0
LINE
  5
30D
100
AcDbEntity
  8
1
  6
CONTINUOUS
 62
    92
100
AcDbLine
 10
273.95175
 20
306.546083
 30
0.0
 11
269.087083
 21
309.962083
 31
0.0
  0
LINE
  5
30E
100
AcDbEntity
  8
1
  6
CONTINUOUS
 62
    92
100
AcDbLine
 10
290.788917
 20
296.55575
 30
0.0
 11
278.76775
 21
304.997083
 31
0.0
  0
LINE
  5
30F
100
AcDbEntity
  8
1
  6
CONTINUOUS
 62
    92
100
AcDbLine
 10
275.164083
 20
307.527667
 30
0.0
 11
273.559583
 21
308.654333
 31
0.0
  0
LINE
  5
310
100
AcDbEntity
  8
1
  6
CONTINUOUS
 62
    92
100
AcDbLine
 10
278.7025
 20
302.082417
 30
0.0
 11
279.041667
 21
301.833333
 31
0.0
  0
LINE
  5
311
100
AcDbEntity
  8
1
  6
CONTINUOUS
 62
    92
100
AcDbLine
 10
275.57575
 20
307.849583
 30
0.0
 11
260.136917
 21
318.690917
 31
0.0
  0
LINE
  5
312
100
AcDbEntity
  8
1
  6
CONTINUOUS
 62
    92
100
AcDbLine
 10
292.668333
 20
297.068833
 30
0.0
 11
279.424833
 21
306.368583
 31
0.0
  0
LINE
  5
313
100
AcDbEntity
  8
1
  6
CONTINUOUS
 62
    92
100
AcDbLine
 10
275.597667
 20
309.056
 30
0.0
 11
262.138167
 21
318.5075
 31
0.0
  0
LINE
  5
314
100
AcDbEntity
  8
1
  6
CONTINUOUS
 62
    92
100
AcDbLine
 10
306.165667
 20
292.23725
 30
0.0
 11
307.38025
 21
291.769167
 31
0.0
  0
LINE
  5
315
100
AcDbEntity
  8
1
  6
CONTINUOUS
 62
    92
100
AcDbLine
 10
309.534
 20
290.939167
 30
0.0
 11
311.066333
 21
290.348667
 31
0.0
  0
LINE
  5
316
100
AcDbEntity
  8
1
  6
CONTINUOUS
 62
    92
100
AcDbLine
 10
306.046167
 20
291.747417
 30
0.0
 11
307.066
 21
291.354417
 31
0.0
  0
LINE
  5
317
100
AcDbEntity
  8
1
  6
CONTINUOUS
 62
    92
100
AcDbLine
 10
309.468083
 20
290.42875
 30
0.0
 11
310.537833
 21
290.0165
 31
0.0
  0
LINE
  5
318
100
AcDbEntity
  8
1
  6
CONTINUOUS
 62
    92
100
AcDbLine
 10
305.40725
 20
291.457833
 30
0.0
 11
306.769583
 21
290.932833
 31
0.0
  0
LINE
  5
319
100
AcDbEntity
  8
1
  6
CONTINUOUS
 62
    92
100
AcDbLine
 10
309.25325
 20
289.97575
 30
0.0
 11
310.08975
 21
289.653417
 31
0.0
  0
LINE
  5
31A
100
AcDbEntity
  8
1
  6
CONTINUOUS
 62
    92
100
AcDbLine
 10
305.257333
 20
290.97975
 30
0.0
 11
306.593667
 21
290.464833
 31
0.0
  0
LINE
  5
31B
100
AcDbEntity
  8
1
  6
CONTINUOUS
 62
    92
100
AcDbLine
 10
309.077333
 20
289.507667
 30
0.0
 11
309.712833
 21
289.26275
 31
0.0
  0
LINE
  5
31C
100
AcDbEntity
  8
1
  6
CONTINUOUS
 62
    92
100
AcDbLine
 10
305.065583
 20
290.51775
 30
0.0
 11
306.222667
 21
290.071833
 31
0.0
  0
LINE
  5
31D
100
AcDbEntity
  8
1
  6
CONTINUOUS
 62
    92
100
AcDbLine
 10
308.361917
 20
289.247417
 30
0.0
 11
309.64125
 21
288.754417
 31
0.0
  0
LINE
  5
31E
100
AcDbEntity
  8
1
  6
CONTINUOUS
 62
    92
100
AcDbLine
 10
304.648583
 20
290.142667
 30
0.0
 11
305.727333
 21
289.726917
 31
0.0
  0
LINE
  5
31F
100
AcDbEntity
  8
1
  6
CONTINUOUS
 62
    92
100
AcDbLine
 10
307.966083
 20
288.864167
 30
0.0
 11
309.301083
 21
288.34975
 31
0.0
  0
LINE
  5
320
100
AcDbEntity
  8
1
  6
CONTINUOUS
 62
    92
100
AcDbLine
 10
304.270667
 20
289.7525
 30
0.0
 11
305.625917
 21
289.230167
 31
0.0
  0
LINE
  5
321
100
AcDbEntity
  8
1
  6
CONTINUOUS
 62
    92
100
AcDbLine
 10
307.524083
 20
288.498667
 30
0.0
 11
308.859833
 21
287.983917
 31
0.0
  0
LINE
  5
322
100
AcDbEntity
  8
1
  6
CONTINUOUS
 62
    92
100
AcDbLine
 10
303.9805
 20
289.328417
 30
0.0
 11
305.329417
 21
288.808583
 31
0.0
  0
LINE
  5
323
100
AcDbEntity
  8
1
  6
CONTINUOUS
 62
    92
100
AcDbLine
 10
307.0715
 20
288.13725
 30
0.0
 11
308.46
 21
287.602167
 31
0.0
  0
LINE
  5
324
100
AcDbEntity
  8
1
  6
CONTINUOUS
 62
    92
100
AcDbLine
 10
248.83125
 20
318.87575
 30
0.0
 11
247.376083
 21
314.1205
 31
0.0
  0
LINE
  5
325
100
AcDbEntity
  8
1
  6
CONTINUOUS
 62
    92
100
AcDbLine
 10
249.060667
 20
317.916833
 30
0.0
 11
247.7035
 21
313.481667
 31
0.0
  0
LINE
  5
326
100
AcDbEntity
  8
1
  6
CONTINUOUS
 62
    92
100
AcDbLine
 10
249.441667
 20
317.453167
 30
0.0
 11
248.2075
 21
313.42025
 31
0.0
  0
LINE
  5
327
100
AcDbEntity
  8
1
  6
CONTINUOUS
 62
    92
100
AcDbLine
 10
249.755583
 20
316.770083
 30
0.0
 11
248.591917
 21
312.967417
 31
0.0
  0
LINE
  5
328
100
AcDbEntity
  8
1
  6
CONTINUOUS
 62
    92
100
AcDbLine
 10
250.150083
 20
316.350833
 30
0.0
 11
249.0255
 21
312.67575
 31
0.0
  0
LINE
  5
329
100
AcDbEntity
  8
1
  6
CONTINUOUS
 62
    92
100
AcDbLine
 10
250.531083
 20
315.887167
 30
0.0
 11
249.423417
 21
312.267417
 31
0.0
  0
LINE
  5
32A
100
AcDbEntity
  8
1
  6
CONTINUOUS
 62
    92
100
AcDbLine
 10
250.94875
 20
315.543083
 30
0.0
 11
249.798667
 21
311.784917
 31
0.0
  0
LINE
  5
32B
100
AcDbEntity
  8
1
  6
CONTINUOUS
 62
    92
100
AcDbLine
 10
251.39225
 20
315.283917
 30
0.0
 11
250.250417
 21
311.5525
 31
0.0
  0
LINE
  5
32C
100
AcDbEntity
  8
1
  6
CONTINUOUS
 62
    92
100
AcDbLine
 10
251.852
 20
315.07725
 30
0.0
 11
250.72125
 21
311.382333
 31
0.0
  0
LINE
  5
32D
100
AcDbEntity
  8
1
  6
CONTINUOUS
 62
    92
100
AcDbLine
 10
247.682083
 20
322.471583
 30
0.0
 11
245.953333
 21
316.822583
 31
0.0
  0
LINE
  5
32E
100
AcDbEntity
  8
1
  6
CONTINUOUS
 62
    92
100
AcDbLine
 10
247.203917
 20
322.617833
 30
0.0
 11
245.475167
 21
316.968833
 31
0.0
  0
LINE
  5
32F
100
AcDbEntity
  8
1
  6
CONTINUOUS
 62
    92
100
AcDbLine
 10
246.136083
 20
320.836917
 30
0.0
 11
245.512583
 21
318.799667
 31
0.0
  0
LINE
  5
330
100
AcDbEntity
  8
1
  6
CONTINUOUS
 62
    92
100
AcDbLine
 10
248.29275
 20
317.792
 30
0.0
 11
255.595417
 21
312.42875
 31
0.0
  0
LINE
  5
331
100
AcDbEntity
  8
1
  6
CONTINUOUS
 62
    92
100
AcDbLine
 10
295.600917
 20
299.286167
 30
0.0
 11
265.30925
 21
320.557333
 31
0.0
  0
LINE
  5
332
100
AcDbEntity
  8
1
  6
CONTINUOUS
 62
    92
100
AcDbLine
 10
295.3
 20
298.8865
 30
0.0
 11
265.021917
 21
320.148167
 31
0.0
  0
LINE
  5
333
100
AcDbEntity
  8
1
  6
CONTINUOUS
 62
    92
100
AcDbLine
 10
293.449417
 20
299.57525
 30
0.0
 11
264.734667
 21
319.739083
 31
0.0
  0
LINE
  5
334
100
AcDbEntity
  8
1
  6
CONTINUOUS
 62
    92
100
AcDbLine
 10
247.99675
 20
317.389
 30
0.0
 11
256.441
 21
311.187417
 31
0.0
  0
LINE
  5
335
100
AcDbEntity
  8
1
  6
CONTINUOUS
 62
    92
100
AcDbLine
 10
247.70075
 20
316.986
 30
0.0
 11
257.820083
 21
309.55425
 31
0.0
  0
LINE
  5
336
100
AcDbEntity
  8
1
  6
CONTINUOUS
 62
    92
100
AcDbLine
 10
247.404833
 20
316.583
 30
0.0
 11
259.090333
 21
308.001
 31
0.0
  0
LINE
  5
337
100
AcDbEntity
  8
1
  6
CONTINUOUS
 62
    92
100
AcDbLine
 10
247.7455
 20
315.712417
 30
0.0
 11
258.006667
 21
308.176417
 31
0.0
  0
LINE
  5
338
100
AcDbEntity
  8
1
  6
CONTINUOUS
 62
    92
100
AcDbLine
 10
247.575917
 20
315.216583
 30
0.0
 11
257.53875
 21
307.89975
 31
0.0
  0
LINE
  5
339
100
AcDbEntity
  8
1
  6
CONTINUOUS
 62
    92
100
AcDbLine
 10
247.420333
 20
314.7105
 30
0.0
 11
255.958667
 21
308.439833
 31
0.0
  0
LINE
  5
33A
100
AcDbEntity
  8
1
  6
CONTINUOUS
 62
    92
100
AcDbLine
 10
247.299167
 20
314.179083
 30
0.0
 11
254.528917
 21
308.8695
 31
0.0
  0
LINE
  5
33B
100
AcDbEntity
  8
1
  6
CONTINUOUS
 62
    92
100
AcDbLine
 10
252.330083
 20
314.930917
 30
0.0
 11
251.132167
 21
311.016667
 31
0.0
  0
LINE
  5
33C
100
AcDbEntity
  8
1
  6
CONTINUOUS
 62
    92
100
AcDbLine
 10
252.808167
 20
314.784583
 30
0.0
 11
251.53825
 21
310.635
 31
0.0
  0
LINE
  5
33D
100
AcDbEntity
  8
1
  6
CONTINUOUS
 62
    92
100
AcDbLine
 10
253.286333
 20
314.63825
 30
0.0
 11
251.974083
 21
310.350167
 31
0.0
  0
LINE
  5
33E
100
AcDbEntity
  8
1
  6
CONTINUOUS
 62
    92
100
AcDbLine
 10
253.764417
 20
314.491917
 30
0.0
 11
252.43825
 21
310.158333
 31
0.0
  0
LINE
  5
33F
100
AcDbEntity
  8
1
  6
CONTINUOUS
 62
    92
100
AcDbLine
 10
253.95075
 20
313.392333
 30
0.0
 11
252.834
 21
309.743
 31
0.0
  0
LINE
  5
340
100
AcDbEntity
  8
1
  6
CONTINUOUS
 62
    92
100
AcDbLine
 10
254.42525
 20
313.234083
 30
0.0
 11
253.24675
 21
309.383
 31
0.0
  0
LINE
  5
341
100
AcDbEntity
  8
1
  6
CONTINUOUS
 62
    92
100
AcDbLine
 10
331.522583
 20
324.823917
 30
0.0
 11
336.504333
 21
315.767167
 31
0.0
  0
LINE
  5
342
100
AcDbEntity
  8
1
  6
CONTINUOUS
 62
    92
100
AcDbLine
 10
331.867333
 20
325.234417
 30
0.0
 11
336.866083
 21
316.146917
 31
0.0
  0
LINE
  5
343
100
AcDbEntity
  8
1
  6
CONTINUOUS
 62
    92
100
AcDbLine
 10
332.212167
 20
325.645
 30
0.0
 11
337.1945
 21
316.587333
 31
0.0
  0
LINE
  5
344
100
AcDbEntity
  8
1
  6
CONTINUOUS
 62
    92
100
AcDbLine
 10
332.557
 20
326.055583
 30
0.0
 11
337.514083
 21
317.043667
 31
0.0
  0
LINE
  5
345
100
AcDbEntity
  8
1
  6
CONTINUOUS
 62
    92
100
AcDbLine
 10
332.90175
 20
326.466167
 30
0.0
 11
337.8245
 21
317.51675
 31
0.0
  0
LINE
  5
346
100
AcDbEntity
  8
1
  6
CONTINUOUS
 62
    92
100
AcDbLine
 10
333.2465
 20
326.87675
 30
0.0
 11
338.125333
 21
318.00725
 31
0.0
  0
LINE
  5
347
100
AcDbEntity
  8
1
  6
CONTINUOUS
 62
    92
100
AcDbLine
 10
333.591333
 20
327.287333
 30
0.0
 11
338.415917
 21
318.516417
 31
0.0
  0
LINE
  5
348
100
AcDbEntity
  8
1
  6
CONTINUOUS
 62
    92
100
AcDbLine
 10
333.936167
 20
327.698
 30
0.0
 11
338.695833
 21
319.045167
 31
0.0
  0
LINE
  5
349
100
AcDbEntity
  8
1
  6
CONTINUOUS
 62
    92
100
AcDbLine
 10
334.281
 20
328.108583
 30
0.0
 11
338.964167
 21
319.594667
 31
0.0
  0
LINE
  5
34A
100
AcDbEntity
  8
1
  6
CONTINUOUS
 62
    92
100
AcDbLine
 10
334.62575
 20
328.519083
 30
0.0
 11
339.220167
 21
320.166583
 31
0.0
  0
LINE
  5
34B
100
AcDbEntity
  8
1
  6
CONTINUOUS
 62
    92
100
AcDbLine
 10
334.970583
 20
328.929667
 30
0.0
 11
339.462917
 21
320.76275
 31
0.0
  0
LINE
  5
34C
100
AcDbEntity
  8
1
  6
CONTINUOUS
 62
    92
100
AcDbLine
 10
335.315333
 20
329.34025
 30
0.0
 11
339.691167
 21
321.385167
 31
0.0
  0
LINE
  5
34D
100
AcDbEntity
  8
1
  6
CONTINUOUS
 62
    92
100
AcDbLine
 10
335.660167
 20
329.750833
 30
0.0
 11
339.903583
 21
322.0365
 31
0.0
  0
LINE
  5
34E
100
AcDbEntity
  8
1
  6
CONTINUOUS
 62
    92
100
AcDbLine
 10
336.005
 20
330.1615
 30
0.0
 11
340.098333
 21
322.719917
 31
0.0
  0
LINE
  5
34F
100
AcDbEntity
  8
1
  6
CONTINUOUS
 62
    92
100
AcDbLine
 10
336.34975
 20
330.572083
 30
0.0
 11
340.27325
 21
323.43925
 31
0.0
  0
LINE
  5
350
100
AcDbEntity
  8
1
  6
CONTINUOUS
 62
    92
100
AcDbLine
 10
336.694583
 20
330.982667
 30
0.0
 11
340.425583
 21
324.19975
 31
0.0
  0
LINE
  5
351
100
AcDbEntity
  8
1
  6
CONTINUOUS
 62
    92
100
AcDbLine
 10
337.039417
 20
331.39325
 30
0.0
 11
340.55175
 21
325.007917
 31
0.0
  0
LINE
  5
352
100
AcDbEntity
  8
1
  6
CONTINUOUS
 62
    92
100
AcDbLine
 10
337.4775
 20
331.634167
 30
0.0
 11
340.646667
 21
325.872667
 31
0.0
  0
LINE
  5
353
100
AcDbEntity
  8
1
  6
CONTINUOUS
 62
    92
100
AcDbLine
 10
337.729
 20
332.214417
 30
0.0
 11
340.7035
 21
326.806833
 31
0.0
  0
LINE
  5
354
100
AcDbEntity
  8
1
  6
CONTINUOUS
 62
    92
100
AcDbLine
 10
338.07375
 20
332.625
 30
0.0
 11
340.711667
 21
327.829417
 31
0.0
  0
LINE
  5
355
100
AcDbEntity
  8
1
  6
CONTINUOUS
 62
    92
100
AcDbLine
 10
338.418583
 20
333.035583
 30
0.0
 11
340.654083
 21
328.9715
 31
0.0
  0
LINE
  5
356
100
AcDbEntity
  8
1
  6
CONTINUOUS
 62
    92
100
AcDbLine
 10
338.763333
 20
333.446083
 30
0.0
 11
340.499167
 21
330.290417
 31
0.0
  0
LINE
  5
357
100
AcDbEntity
  8
1
  6
CONTINUOUS
 62
    92
100
AcDbLine
 10
339.108167
 20
333.856667
 30
0.0
 11
340.172917
 21
331.920917
 31
0.0
  0
LINE
  5
358
100
AcDbEntity
  8
1
  6
CONTINUOUS
 62
    92
100
AcDbLine
 10
330.830833
 20
323.222833
 30
0.0
 11
339.387583
 21
333.412
 31
0.0
  0
LINE
  5
359
100
AcDbEntity
  8
1
  6
CONTINUOUS
 62
    92
100
AcDbLine
 10
330.777417
 20
322.381667
 30
0.0
 11
339.770417
 21
333.090417
 31
0.0
  0
LINE
  5
35A
100
AcDbEntity
  8
1
  6
CONTINUOUS
 62
    92
100
AcDbLine
 10
331.025083
 20
321.899083
 30
0.0
 11
339.753167
 21
332.292333
 31
0.0
  0
LINE
  5
35B
100
AcDbEntity
  8
1
  6
CONTINUOUS
 62
    92
100
AcDbLine
 10
331.448
 20
321.625083
 30
0.0
 11
339.859667
 21
331.641667
 31
0.0
  0
LINE
  5
35C
100
AcDbEntity
  8
1
  6
CONTINUOUS
 62
    92
100
AcDbLine
 10
331.749083
 20
321.206333
 30
0.0
 11
339.920583
 21
330.93675
 31
0.0
  0
LINE
  5
35D
100
AcDbEntity
  8
1
  6
CONTINUOUS
 62
    92
100
AcDbLine
 10
332.08025
 20
320.823167
 30
0.0
 11
340.09
 21
330.361083
 31
0.0
  0
LINE
  5
35E
100
AcDbEntity
  8
1
  6
CONTINUOUS
 62
    92
100
AcDbLine
 10
331.901
 20
319.832167
 30
0.0
 11
339.889917
 21
329.345167
 31
0.0
  0
LINE
  5
35F
100
AcDbEntity
  8
1
  6
CONTINUOUS
 62
    92
100
AcDbLine
 10
333.074333
 20
319.674333
 30
0.0
 11
339.940333
 21
327.85025
 31
0.0
  0
LINE
  5
360
100
AcDbEntity
  8
1
  6
CONTINUOUS
 62
    92
100
AcDbLine
 10
333.775333
 20
319.7315
 30
0.0
 11
340.068917
 21
327.225833
 31
0.0
  0
LINE
  5
361
100
AcDbEntity
  8
1
  6
CONTINUOUS
 62
    92
100
AcDbLine
 10
333.756
 20
318.931
 30
0.0
 11
340.086917
 21
326.46975
 31
0.0
  0
LINE
  5
362
100
AcDbEntity
  8
1
  6
CONTINUOUS
 62
    92
100
AcDbLine
 10
333.611417
 20
317.981417
 30
0.0
 11
339.989667
 21
325.576583
 31
0.0
  0
LINE
  5
363
100
AcDbEntity
  8
1
  6
CONTINUOUS
 62
    92
100
AcDbLine
 10
333.39975
 20
316.951917
 30
0.0
 11
339.533333
 21
324.25575
 31
0.0
  0
LINE
  5
364
100
AcDbEntity
  8
1
  6
CONTINUOUS
 62
    92
100
AcDbLine
 10
333.687417
 20
316.516917
 30
0.0
 11
339.924833
 21
323.944333
 31
0.0
  0
LINE
  5
365
100
AcDbEntity
  8
1
  6
CONTINUOUS
 62
    92
100
AcDbLine
 10
334.175
 20
316.320083
 30
0.0
 11
339.405667
 21
322.548667
 31
0.0
  0
LINE
  5
366
100
AcDbEntity
  8
1
  6
CONTINUOUS
 62
    92
100
AcDbLine
 10
334.415
 20
315.828333
 30
0.0
 11
339.49425
 21
321.876667
 31
0.0
  0
LINE
  5
367
100
AcDbEntity
  8
1
  6
CONTINUOUS
 62
    92
100
AcDbLine
 10
334.712583
 20
315.40525
 30
0.0
 11
338.8075
 21
320.281333
 31
0.0
  0
LINE
  5
368
100
AcDbEntity
  8
1
  6
CONTINUOUS
 62
    92
100
AcDbLine
 10
335.475417
 20
315.536083
 30
0.0
 11
337.874
 21
318.392333
 31
0.0
  0
LINE
  5
369
100
AcDbEntity
  8
1
  6
CONTINUOUS
 62
    92
100
AcDbLine
 10
332.96775
 20
320.324917
 30
0.0
 11
339.970833
 21
328.664083
 31
0.0
  0
LINE
  5
36A
100
AcDbEntity
  8
1
  6
CONTINUOUS
 62
    92
100
AcDbLine
 10
292.217833
 20
346.824833
 30
0.0
 11
299.032583
 21
353.730917
 31
0.0
  0
LINE
  5
36B
100
AcDbEntity
  8
1
  6
CONTINUOUS
 62
    92
100
AcDbLine
 10
292.42325
 20
346.32125
 30
0.0
 11
299.388417
 21
353.379667
 31
0.0
  0
LINE
  5
36C
100
AcDbEntity
  8
1
  6
CONTINUOUS
 62
    92
100
AcDbLine
 10
292.603417
 20
345.791917
 30
0.0
 11
299.744333
 21
353.0285
 31
0.0
  0
LINE
  5
36D
100
AcDbEntity
  8
1
  6
CONTINUOUS
 62
    92
100
AcDbLine
 10
293.079333
 20
345.562333
 30
0.0
 11
300.4735
 21
353.055667
 31
0.0
  0
LINE
  5
36E
100
AcDbEntity
  8
1
  6
CONTINUOUS
 62
    92
100
AcDbLine
 10
293.530583
 20
345.307667
 30
0.0
 11
300.78175
 21
352.656083
 31
0.0
  0
LINE
  5
36F
100
AcDbEntity
  8
1
  6
CONTINUOUS
 62
    92
100
AcDbLine
 10
293.610667
 20
344.677083
 30
0.0
 11
301.710667
 21
352.885583
 31
0.0
  0
LINE
  5
370
100
AcDbEntity
  8
1
  6
CONTINUOUS
 62
    92
100
AcDbLine
 10
294.513667
 20
344.880333
 30
0.0
 11
302.15675
 21
352.625833
 31
0.0
  0
LINE
  5
371
100
AcDbEntity
  8
1
  6
CONTINUOUS
 62
    92
100
AcDbLine
 10
295.263583
 20
344.928333
 30
0.0
 11
302.319917
 21
352.079167
 31
0.0
  0
LINE
  5
372
100
AcDbEntity
  8
1
  6
CONTINUOUS
 62
    92
100
AcDbLine
 10
295.170417
 20
344.122083
 30
0.0
 11
303.009083
 21
352.065833
 31
0.0
  0
LINE
  5
373
100
AcDbEntity
  8
1
  6
CONTINUOUS
 62
    92
100
AcDbLine
 10
295.92025
 20
344.17025
 30
0.0
 11
303.41325
 21
351.763667
 31
0.0
  0
LINE
  5
374
100
AcDbEntity
  8
1
  6
CONTINUOUS
 62
    92
100
AcDbLine
 10
295.878083
 20
343.415583
 30
0.0
 11
304.34225
 21
351.993083
 31
0.0
  0
LINE
  5
375
100
AcDbEntity
  8
1
  6
CONTINUOUS
 62
    92
100
AcDbLine
 10
296.749667
 20
343.586917
 30
0.0
 11
304.309333
 21
351.247917
 31
0.0
  0
LINE
  5
376
100
AcDbEntity
  8
1
  6
CONTINUOUS
 62
    92
100
AcDbLine
 10
296.483083
 20
342.604917
 30
0.0
 11
304.858
 21
351.092083
 31
0.0
  0
LINE
  5
377
100
AcDbEntity
  8
1
  6
CONTINUOUS
 62
    92
100
AcDbLine
 10
301.143417
 20
339.497167
 30
0.0
 11
310.25925
 21
348.735083
 31
0.0
  0
LINE
  5
378
100
AcDbEntity
  8
1
  6
CONTINUOUS
 62
    92
100
AcDbLine
 10
302.018417
 20
339.672083
 30
0.0
 11
310.860167
 21
348.63225
 31
0.0
  0
LINE
  5
379
100
AcDbEntity
  8
1
  6
CONTINUOUS
 62
    92
100
AcDbLine
 10
302.2485
 20
339.1935
 30
0.0
 11
311.41025
 21
348.477917
 31
0.0
  0
LINE
  5
37A
100
AcDbEntity
  8
1
  6
CONTINUOUS
 62
    92
100
AcDbLine
 10
302.677083
 20
338.915833
 30
0.0
 11
311.8875
 21
348.249667
 31
0.0
  0
LINE
  5
37B
100
AcDbEntity
  8
1
  6
CONTINUOUS
 62
    92
100
AcDbLine
 10
302.705917
 20
338.23325
 30
0.0
 11
312.142
 21
347.79575
 31
0.0
  0
LINE
  5
37C
100
AcDbEntity
  8
1
  6
CONTINUOUS
 62
    92
100
AcDbLine
 10
302.990083
 20
337.809333
 30
0.0
 11
312.64525
 21
347.593833
 31
0.0
  0
LINE
  5
37D
100
AcDbEntity
  8
1
  6
CONTINUOUS
 62
    92
100
AcDbLine
 10
304.00675
 20
338.127667
 30
0.0
 11
313.073833
 21
347.31625
 31
0.0
  0
LINE
  5
37E
100
AcDbEntity
  8
1
  6
CONTINUOUS
 62
    92
100
AcDbLine
 10
304.114917
 20
337.5255
 30
0.0
 11
313.673667
 21
347.212333
 31
0.0
  0
LINE
  5
37F
100
AcDbEntity
  8
1
  6
CONTINUOUS
 62
    92
100
AcDbLine
 10
304.243667
 20
336.944167
 30
0.0
 11
314.102917
 21
346.9355
 31
0.0
  0
LINE
  5
380
100
AcDbEntity
  8
1
  6
CONTINUOUS
 62
    92
100
AcDbLine
 10
304.37525
 20
336.365583
 30
0.0
 11
314.533167
 21
346.659583
 31
0.0
  0
LINE
  5
381
100
AcDbEntity
  8
1
  6
CONTINUOUS
 62
    92
100
AcDbLine
 10
305.422917
 20
336.715417
 30
0.0
 11
315.15775
 21
346.580583
 31
0.0
  0
LINE
  5
382
100
AcDbEntity
  8
1
  6
CONTINUOUS
 62
    92
100
AcDbLine
 10
304.834167
 20
335.407
 30
0.0
 11
315.635833
 21
346.353417
 31
0.0
  0
LINE
  5
383
100
AcDbEntity
  8
1
  6
CONTINUOUS
 62
    92
100
AcDbLine
 10
305.607833
 20
335.479083
 30
0.0
 11
315.987417
 21
345.99775
 31
0.0
  0
LINE
  5
384
100
AcDbEntity
  8
1
  6
CONTINUOUS
 62
    92
100
AcDbLine
 10
308.36025
 20
332.573583
 30
0.0
 11
319.7335
 21
344.099167
 31
0.0
  0
LINE
  5
385
100
AcDbEntity
  8
1
  6
CONTINUOUS
 62
    92
100
AcDbLine
 10
309.037833
 20
332.548417
 30
0.0
 11
320.384
 21
344.046583
 31
0.0
  0
LINE
  5
386
100
AcDbEntity
  8
1
  6
CONTINUOUS
 62
    92
100
AcDbLine
 10
309.5645
 20
332.370167
 30
0.0
 11
320.76425
 21
343.72
 31
0.0
  0
LINE
  5
387
100
AcDbEntity
  8
1
  6
CONTINUOUS
 62
    92
100
AcDbLine
 10
309.920667
 20
332.019333
 30
0.0
 11
321.266833
 21
343.5175
 31
0.0
  0
LINE
  5
388
100
AcDbEntity
  8
1
  6
CONTINUOUS
 62
    92
100
AcDbLine
 10
310.07275
 20
331.461667
 30
0.0
 11
321.49625
 21
343.038167
 31
0.0
  0
LINE
  5
389
100
AcDbEntity
  8
1
  6
CONTINUOUS
 62
    92
100
AcDbLine
 10
310.401333
 20
331.082667
 30
0.0
 11
322.124583
 21
342.963
 31
0.0
  0
LINE
  5
38A
100
AcDbEntity
  8
1
  6
CONTINUOUS
 62
    92
100
AcDbLine
 10
311.204667
 20
331.184917
 30
0.0
 11
322.627167
 21
342.760417
 31
0.0
  0
LINE
  5
38B
100
AcDbEntity
  8
1
  6
CONTINUOUS
 62
    92
100
AcDbLine
 10
311.730167
 20
331.005583
 30
0.0
 11
322.981
 21
342.407167
 31
0.0
  0
LINE
  5
38C
100
AcDbEntity
  8
1
  6
CONTINUOUS
 62
    92
100
AcDbLine
 10
311.659333
 20
330.221917
 30
0.0
 11
323.485333
 21
342.20625
 31
0.0
  0
LINE
  5
38D
100
AcDbEntity
  8
1
  6
CONTINUOUS
 62
    92
100
AcDbLine
 10
312.238833
 20
330.097417
 30
0.0
 11
323.765417
 21
341.778417
 31
0.0
  0
LINE
  5
38E
100
AcDbEntity
  8
1
  6
CONTINUOUS
 62
    92
100
AcDbLine
 10
313.013417
 20
330.1705
 30
0.0
 11
324.268333
 21
341.576167
 31
0.0
  0
LINE
  5
38F
100
AcDbEntity
  8
1
  6
CONTINUOUS
 62
    92
100
AcDbLine
 10
313.517417
 20
329.96925
 30
0.0
 11
324.86925
 21
341.47325
 31
0.0
  0
LINE
  5
390
100
AcDbEntity
  8
1
  6
CONTINUOUS
 62
    92
100
AcDbLine
 10
280.46275
 20
337.377917
 30
0.0
 11
305.996333
 21
320.15375
 31
0.0
  0
LINE
  5
391
100
AcDbEntity
  8
1
  6
CONTINUOUS
 62
    92
100
AcDbLine
 10
280.292167
 20
338.096
 30
0.0
 11
307.32725
 21
319.858917
 31
0.0
  0
LINE
  5
392
100
AcDbEntity
  8
1
  6
CONTINUOUS
 62
    92
100
AcDbLine
 10
280.794167
 20
338.3605
 30
0.0
 11
307.896
 21
320.0785
 31
0.0
  0
LINE
  5
393
100
AcDbEntity
  8
1
  6
CONTINUOUS
 62
    92
100
AcDbLine
 10
281.492417
 20
338.492583
 30
0.0
 11
308.130667
 21
320.52325
 31
0.0
  0
LINE
  5
394
100
AcDbEntity
  8
1
  6
CONTINUOUS
 62
    92
100
AcDbLine
 10
283.66675
 20
342.454
 30
0.0
 11
311.085
 21
323.9585
 31
0.0
  0
LINE
  5
395
100
AcDbEntity
  8
1
  6
CONTINUOUS
 62
    92
100
AcDbLine
 10
284.512333
 20
342.48675
 30
0.0
 11
310.081417
 21
325.238667
 31
0.0
  0
LINE
  5
396
100
AcDbEntity
  8
1
  6
CONTINUOUS
 62
    92
100
AcDbLine
 10
285.01425
 20
342.75125
 30
0.0
 11
311.648333
 21
324.78475
 31
0.0
  0
LINE
  5
397
100
AcDbEntity
  8
1
  6
CONTINUOUS
 62
    92
100
AcDbLine
 10
285.347167
 20
343.129833
 30
0.0
 11
311.21475
 21
325.680417
 31
0.0
  0
LINE
  5
398
100
AcDbEntity
  8
1
  6
CONTINUOUS
 62
    92
100
AcDbLine
 10
285.518917
 20
343.617167
 30
0.0
 11
312.942667
 21
325.117917
 31
0.0
  0
LINE
  5
399
100
AcDbEntity
  8
1
  6
CONTINUOUS
 62
    92
100
AcDbLine
 10
281.62475
 20
339.0065
 30
0.0
 11
291.16375
 21
332.571833
 31
0.0
  0
LINE
  5
39A
100
AcDbEntity
  8
1
  6
CONTINUOUS
 62
    92
100
AcDbLine
 10
293.33475
 20
331.107333
 30
0.0
 11
308.098
 21
321.1485
 31
0.0
  0
LINE
  5
39B
100
AcDbEntity
  8
1
  6
CONTINUOUS
 62
    92
100
AcDbLine
 10
281.957583
 20
339.385
 30
0.0
 11
292.343333
 21
332.379083
 31
0.0
  0
LINE
  5
39C
100
AcDbEntity
  8
1
  6
CONTINUOUS
 62
    92
100
AcDbLine
 10
293.551583
 20
331.564083
 30
0.0
 11
308.10075
 21
321.749667
 31
0.0
  0
LINE
  5
39D
100
AcDbEntity
  8
1
  6
CONTINUOUS
 62
    92
100
AcDbLine
 10
282.14725
 20
339.860333
 30
0.0
 11
292.363917
 21
332.968417
 31
0.0
  0
LINE
  5
39E
100
AcDbEntity
  8
1
  6
CONTINUOUS
 62
    92
100
AcDbLine
 10
293.656667
 20
332.096333
 30
0.0
 11
307.114917
 21
323.017833
 31
0.0
  0
LINE
  5
39F
100
AcDbEntity
  8
1
  6
CONTINUOUS
 62
    92
100
AcDbLine
 10
282.580917
 20
340.773917
 30
0.0
 11
292.298583
 21
334.218667
 31
0.0
  0
LINE
  5
3A0
100
AcDbEntity
  8
1
  6
CONTINUOUS
 62
    92
100
AcDbLine
 10
294.304667
 20
332.8655
 30
0.0
 11
309.54925
 21
322.582
 31
0.0
  0
LINE
  5
3A1
100
AcDbEntity
  8
1
  6
CONTINUOUS
 62
    92
100
AcDbLine
 10
282.315
 20
340.350167
 30
0.0
 11
292.398083
 21
333.5485
 31
0.0
  0
LINE
  5
3A2
100
AcDbEntity
  8
1
  6
CONTINUOUS
 62
    92
100
AcDbLine
 10
294.185833
 20
332.3425
 30
0.0
 11
307.950917
 21
323.057
 31
0.0
  0
LINE
  5
3A3
100
AcDbEntity
  8
1
  6
CONTINUOUS
 62
    92
100
AcDbLine
 10
282.797917
 20
341.23075
 30
0.0
 11
293.313333
 21
334.137417
 31
0.0
  0
LINE
  5
3A4
100
AcDbEntity
  8
1
  6
CONTINUOUS
 62
    92
100
AcDbLine
 10
295.737917
 20
332.501833
 30
0.0
 11
309.017417
 21
323.543917
 31
0.0
  0
LINE
  5
3A5
100
AcDbEntity
  8
1
  6
CONTINUOUS
 62
    92
100
AcDbLine
 10
283.12125
 20
341.61575
 30
0.0
 11
292.84825
 21
335.054167
 31
0.0
  0
LINE
  5
3A6
100
AcDbEntity
  8
1
  6
CONTINUOUS
 62
    92
100
AcDbLine
 10
294.011583
 20
334.2695
 30
0.0
 11
310.45625
 21
323.176417
 31
0.0
  0
LINE
  5
3A7
100
AcDbEntity
  8
1
  6
CONTINUOUS
 62
    92
100
AcDbLine
 10
283.76625
 20
341.78375
 30
0.0
 11
294.326667
 21
334.660083
 31
0.0
  0
LINE
  5
3A8
100
AcDbEntity
  8
1
  6
CONTINUOUS
 62
    92
100
AcDbLine
 10
295.28525
 20
334.013333
 30
0.0
 11
311.176333
 21
323.29375
 31
0.0
  0
LINE
  5
3A9
100
AcDbEntity
  8
1
  6
CONTINUOUS
 62
    92
100
AcDbLine
 10
323.749083
 20
330.24475
 30
0.0
 11
330.805417
 21
337.395583
 31
0.0
  0
LINE
  5
3AA
100
AcDbEntity
  8
1
  6
CONTINUOUS
 62
    92
100
AcDbLine
 10
320.90875
 20
331.637667
 30
0.0
 11
327.873917
 21
338.696083
 31
0.0
  0
LINE
  5
3AB
100
AcDbEntity
  8
1
  6
CONTINUOUS
 62
    92
100
AcDbLine
 10
321.088917
 20
331.108333
 30
0.0
 11
328.229833
 21
338.344917
 31
0.0
  0
LINE
  5
3AC
100
AcDbEntity
  8
1
  6
CONTINUOUS
 62
    92
100
AcDbLine
 10
321.564833
 20
330.87875
 30
0.0
 11
328.959
 21
338.372083
 31
0.0
  0
LINE
  5
3AD
100
AcDbEntity
  8
1
  6
CONTINUOUS
 62
    92
100
AcDbLine
 10
322.016083
 20
330.624083
 30
0.0
 11
329.26725
 21
337.9725
 31
0.0
  0
LINE
  5
3AE
100
AcDbEntity
  8
1
  6
CONTINUOUS
 62
    92
100
AcDbLine
 10
322.096167
 20
329.9935
 30
0.0
 11
330.196167
 21
338.202
 31
0.0
  0
LINE
  5
3AF
100
AcDbEntity
  8
1
  6
CONTINUOUS
 62
    92
100
AcDbLine
 10
322.999167
 20
330.19675
 30
0.0
 11
330.64225
 21
337.94225
 31
0.0
  0
LINE
  5
3B0
100
AcDbEntity
  8
1
  6
CONTINUOUS
 62
    92
100
AcDbLine
 10
323.655917
 20
329.4385
 30
0.0
 11
331.494583
 21
337.38225
 31
0.0
  0
LINE
  5
3B1
100
AcDbEntity
  8
1
  6
CONTINUOUS
 62
    92
100
AcDbLine
 10
324.40575
 20
329.486667
 30
0.0
 11
331.89875
 21
337.080083
 31
0.0
  0
LINE
  5
3B2
100
AcDbEntity
  8
1
  6
CONTINUOUS
 62
    92
100
AcDbLine
 10
324.363583
 20
328.732
 30
0.0
 11
332.82775
 21
337.3095
 31
0.0
  0
LINE
  5
3B3
100
AcDbEntity
  8
1
  6
CONTINUOUS
 62
    92
100
AcDbLine
 10
325.235167
 20
328.903333
 30
0.0
 11
332.794833
 21
336.564333
 31
0.0
  0
LINE
  5
3B4
100
AcDbEntity
  8
1
  6
CONTINUOUS
 62
    92
100
AcDbLine
 10
324.968583
 20
327.921333
 30
0.0
 11
333.3435
 21
336.4085
 31
0.0
  0
LINE
  5
3B5
100
AcDbEntity
  8
1
  6
CONTINUOUS
 62
    92
100
AcDbLine
 10
298.248583
 20
285.046833
 30
0.0
 11
298.248583
 21
278.776417
 31
0.0
  0
LINE
  5
3B6
100
AcDbEntity
  8
1
  6
CONTINUOUS
 62
    92
100
AcDbLine
 10
298.248583
 20
272.177167
 30
0.0
 11
298.248583
 21
260.8055
 31
0.0
  0
LINE
  5
3B7
100
AcDbEntity
  8
1
  6
CONTINUOUS
 62
    92
100
AcDbLine
 10
250.5945
 20
316.630583
 30
0.0
 11
294.693333
 21
285.981333
 31
0.0
  0
LINE
  5
3B8
100
AcDbEntity
  8
1
  6
CONTINUOUS
 62
    92
100
AcDbLine
 10
247.91625
 20
312.964333
 30
0.0
 11
294.922833
 21
279.733
 31
0.0
  0
LINE
  5
3B9
100
AcDbEntity
  8
1
  6
CONTINUOUS
 62
    92
100
AcDbLine
 10
301.398917
 20
280.208417
 30
0.0
 11
342.32425
 21
321.524667
 31
0.0
  0
LINE
  5
3BA
100
AcDbEntity
  8
1
  6
CONTINUOUS
 62
    92
100
AcDbLine
 10
301.481917
 20
286.795667
 30
0.0
 11
339.241417
 21
334.004
 31
0.0
  0
LINE
  5
3BB
100
AcDbEntity
  8
1
  6
CONTINUOUS
 62
    92
100
AcDbLine
 10
276.26475
 20
323.198833
 30
0.0
 11
291.681167
 21
311.876833
 31
0.0
  0
LINE
  5
3BC
100
AcDbEntity
  8
1
  6
CONTINUOUS
 62
    92
100
AcDbLine
 10
276.217167
 20
323.854083
 30
0.0
 11
293.38325
 21
311.247
 31
0.0
  0
LINE
  5
3BD
100
AcDbEntity
  8
1
  6
CONTINUOUS
 62
    92
100
AcDbLine
 10
276.993917
 20
323.904083
 30
0.0
 11
294.923917
 21
310.736
 31
0.0
  0
LINE
  5
3BE
100
AcDbEntity
  8
1
  6
CONTINUOUS
 62
    92
100
AcDbLine
 10
277.432083
 20
324.2025
 30
0.0
 11
294.854583
 21
311.407167
 31
0.0
  0
LINE
  5
3BF
100
AcDbEntity
  8
1
  6
CONTINUOUS
 62
    92
100
AcDbLine
 10
277.933167
 20
324.454917
 30
0.0
 11
295.544083
 21
311.521167
 31
0.0
  0
LINE
  5
3C0
100
AcDbEntity
  8
1
  6
CONTINUOUS
 62
    92
100
AcDbLine
 10
278.447083
 20
324.697833
 30
0.0
 11
294.947917
 21
312.579417
 31
0.0
  0
LINE
  5
3C1
100
AcDbEntity
  8
1
  6
CONTINUOUS
 62
    92
100
AcDbLine
 10
278.948083
 20
324.950167
 30
0.0
 11
294.743917
 21
313.3495
 31
0.0
  0
LINE
  5
3C2
100
AcDbEntity
  8
1
  6
CONTINUOUS
 62
    92
100
AcDbLine
 10
278.93775
 20
325.57825
 30
0.0
 11
294.60025
 21
314.075417
 31
0.0
  0
LINE
  5
3C3
100
AcDbEntity
  8
1
  6
CONTINUOUS
 62
    92
100
AcDbLine
 10
279.451583
 20
325.821167
 30
0.0
 11
295.444833
 21
314.0755
 31
0.0
  0
LINE
  5
3C4
100
AcDbEntity
  8
1
  6
CONTINUOUS
 62
    92
100
AcDbLine
 10
280.027083
 20
326.018917
 30
0.0
 11
295.015333
 21
315.011333
 31
0.0
  0
LINE
  5
3C5
100
AcDbEntity
  8
1
  6
CONTINUOUS
 62
    92
100
AcDbLine
 10
280.347417
 20
326.404
 30
0.0
 11
296.098333
 21
314.836333
 31
0.0
  0
LINE
  5
3C6
100
AcDbEntity
  8
1
  6
CONTINUOUS
 62
    92
100
AcDbLine
 10
280.543417
 20
326.880417
 30
0.0
 11
295.841833
 21
315.645
 31
0.0
  0
LINE
  5
3C7
100
AcDbEntity
  8
1
  6
CONTINUOUS
 62
    92
100
AcDbLine
 10
280.503583
 20
327.530083
 30
0.0
 11
296.723667
 21
315.617833
 31
0.0
  0
LINE
  5
3C8
100
AcDbEntity
  8
1
  6
CONTINUOUS
 62
    92
100
AcDbLine
 10
281.45325
 20
327.453
 30
0.0
 11
298.116833
 21
315.215
 31
0.0
  0
LINE
  5
3C9
100
AcDbEntity
  8
1
  6
CONTINUOUS
 62
    92
100
AcDbLine
 10
281.254417
 20
328.21925
 30
0.0
 11
296.65675
 21
316.907583
 31
0.0
  0
LINE
  5
3CA
100
AcDbEntity
  8
1
  6
CONTINUOUS
 62
    92
100
AcDbLine
 10
280.607
 20
329.315083
 30
0.0
 11
297.63075
 21
316.812583
 31
0.0
  0
LINE
  5
3CB
100
AcDbEntity
  8
1
  6
CONTINUOUS
 62
    92
100
AcDbLine
 10
297.748583
 20
284.41
 30
0.0
 11
297.748583
 21
279.426833
 31
0.0
  0
LINE
  5
3CC
100
AcDbEntity
  8
1
  6
CONTINUOUS
 62
    92
100
AcDbLine
 10
297.248583
 20
284.50175
 30
0.0
 11
297.248583
 21
279.426833
 31
0.0
  0
LINE
  5
3CD
100
AcDbEntity
  8
1
  6
CONTINUOUS
 62
    92
100
AcDbLine
 10
296.748583
 20
284.532333
 30
0.0
 11
296.748583
 21
279.5185
 31
0.0
  0
LINE
  5
3CE
100
AcDbEntity
  8
1
  6
CONTINUOUS
 62
    92
100
AcDbLine
 10
296.248583
 20
285.046833
 30
0.0
 11
296.248583
 21
279.549083
 31
0.0
  0
LINE
  5
3CF
100
AcDbEntity
  8
1
  6
CONTINUOUS
 62
    92
100
AcDbLine
 10
295.748583
 20
285.046833
 30
0.0
 11
295.748583
 21
279.793667
 31
0.0
  0
LINE
  5
3D0
100
AcDbEntity
  8
1
  6
CONTINUOUS
 62
    92
100
AcDbLine
 10
295.248583
 20
285.046833
 30
0.0
 11
295.248583
 21
280.007667
 31
0.0
  0
LINE
  5
3D1
100
AcDbEntity
  8
1
  6
CONTINUOUS
 62
    92
100
AcDbLine
 10
294.748583
 20
285.046833
 30
0.0
 11
294.748583
 21
280.46625
 31
0.0
  0
TEXT
  5
3D2
100
AcDbEntity
  8
1
  6
CONTINUOUS
 62
     7
100
AcDbText
 10
493.534667
 20
170.55275
 30
0.0
 40
4.0
  1
-
  7
MONOTXT
210
0.0
220
0.0
230
1.0
100
AcDbText
  0
TEXT
  5
3D3
100
AcDbEntity
  8
1
  6
CONTINUOUS
 62
     7
100
AcDbText
 10
516.118083
 20
170.513333
 30
0.0
 40
4.0
  1
-
  7
MONOTXT
210
0.0
220
0.0
230
1.0
100
AcDbText
  0
CIRCLE
  5
3D4
100
AcDbEntity
  8
1
  6
CONTINUOUS
 62
   132
100
AcDbCircle
 10
501.246167
 20
174.00475
 30
0.0
 40
0.567895
210
0.0
220
0.0
230
1.0
  0
CIRCLE
  5
3D5
100
AcDbEntity
  8
1
  6
CONTINUOUS
 62
   132
100
AcDbCircle
 10
524.179917
 20
174.00475
 30
0.0
 40
0.567895
210
0.0
220
0.0
230
1.0
  0
ARC
  5
3D6
100
AcDbEntity
  8
1
  6
CONTINUOUS
 62
    92
100
AcDbCircle
 10
335.248375
 20
330.994788
 30
0.0
 40
5.0
210
0.0
220
0.0
230
1.0
100
AcDbArc
 50
15.073122
 51
63.189267
  0
LINE
  5
3D7
100
AcDbEntity
  8
1
  6
CONTINUOUS
 62
    92
100
AcDbLine
 10
243.028333
 20
311.151417
 30
0.0
 11
242.88875
 21
301.050917
 31
0.0
  0
LINE
  5
3D8
100
AcDbEntity
  8
1
  6
CONTINUOUS
 62
    92
100
AcDbLine
 10
242.429
 20
318.693333
 30
0.0
 11
284.721667
 21
361.552667
 31
0.0
  0
ARC
  5
3D9
100
AcDbEntity
  8
1
  6
CONTINUOUS
 62
    92
100
AcDbCircle
 10
245.987994
 20
315.181405
 30
0.0
 40
5.0
210
0.0
220
0.0
230
1.0
100
AcDbArc
 50
135.381364
 51
233.705928
  0
ARC
  5
3DA
100
AcDbEntity
  8
1
  6
CONTINUOUS
 62
    92
100
AcDbCircle
 10
252.078121
 20
318.90125
 30
0.0
 40
7.250389
210
0.0
220
0.0
230
1.0
100
AcDbArc
 50
157.678969
 51
234.968947
  0
ARC
  5
3DB
100
AcDbEntity
  8
1
  6
CONTINUOUS
 62
    92
100
AcDbCircle
 10
255.445116
 20
322.197522
 30
0.0
 40
7.383717
210
0.0
220
0.0
230
1.0
100
AcDbArc
 50
157.889156
 51
228.933531
  0
ARC
  5
3DC
100
AcDbEntity
  8
1
  6
CONTINUOUS
 62
    92
100
AcDbCircle
 10
285.10025
 20
356.088248
 30
0.0
 40
5.271009
210
0.0
220
0.0
230
1.0
100
AcDbArc
 50
55.45095
 51
174.186381
  0
ARC
  5
3DD
100
AcDbEntity
  8
1
  6
CONTINUOUS
 62
    92
100
AcDbCircle
 10
286.768351
 20
358.107517
 30
0.0
 40
4.00724
210
0.0
220
0.0
230
1.0
100
AcDbArc
 50
60.288025
 51
120.713567
  0
ARC
  5
3DE
100
AcDbEntity
  8
1
  6
CONTINUOUS
 62
    92
100
AcDbCircle
 10
247.888272
 20
300.981878
 30
0.0
 40
5.0
210
0.0
220
0.0
230
1.0
100
AcDbArc
 50
179.208508
 51
234.759428
  0
LINE
  5
3DF
100
AcDbEntity
  8
1
  6
CONTINUOUS
 62
    92
100
AcDbLine
 10
286.1275
 20
347.68125
 30
0.0
 11
294.502417
 21
356.168417
 31
0.0
  0
LINE
  5
3E0
100
AcDbEntity
  8
1
  6
CONTINUOUS
 62
    92
100
AcDbLine
 10
284.908
 20
350.004667
 30
0.0
 11
291.964333
 21
357.1555
 31
0.0
  0
LINE
  5
3E1
100
AcDbEntity
  8
1
  6
CONTINUOUS
 62
    92
100
AcDbLine
 10
282.067667
 20
351.397583
 30
0.0
 11
289.032833
 21
358.456
 31
0.0
  0
LINE
  5
3E2
100
AcDbEntity
  8
1
  6
CONTINUOUS
 62
    92
100
AcDbLine
 10
282.247833
 20
350.86825
 30
0.0
 11
289.38875
 21
358.104833
 31
0.0
  0
LINE
  5
3E3
100
AcDbEntity
  8
1
  6
CONTINUOUS
 62
    92
100
AcDbLine
 10
282.72375
 20
350.638667
 30
0.0
 11
290.117917
 21
358.132
 31
0.0
  0
LINE
  5
3E4
100
AcDbEntity
  8
1
  6
CONTINUOUS
 62
    92
100
AcDbLine
 10
283.175
 20
350.384
 30
0.0
 11
290.426167
 21
357.732417
 31
0.0
  0
LINE
  5
3E5
100
AcDbEntity
  8
1
  6
CONTINUOUS
 62
    92
100
AcDbLine
 10
283.255083
 20
349.753417
 30
0.0
 11
291.355083
 21
357.961917
 31
0.0
  0
LINE
  5
3E6
100
AcDbEntity
  8
1
  6
CONTINUOUS
 62
    92
100
AcDbLine
 10
284.158083
 20
349.956667
 30
0.0
 11
291.801167
 21
357.702167
 31
0.0
  0
LINE
  5
3E7
100
AcDbEntity
  8
1
  6
CONTINUOUS
 62
    92
100
AcDbLine
 10
284.814833
 20
349.198417
 30
0.0
 11
292.6535
 21
357.142167
 31
0.0
  0
LINE
  5
3E8
100
AcDbEntity
  8
1
  6
CONTINUOUS
 62
    92
100
AcDbLine
 10
285.564667
 20
349.246583
 30
0.0
 11
293.057667
 21
356.84
 31
0.0
  0
LINE
  5
3E9
100
AcDbEntity
  8
1
  6
CONTINUOUS
 62
    92
100
AcDbLine
 10
285.5225
 20
348.491917
 30
0.0
 11
293.986667
 21
357.069417
 31
0.0
  0
LINE
  5
3EA
100
AcDbEntity
  8
1
  6
CONTINUOUS
 62
    92
100
AcDbLine
 10
286.394083
 20
348.66325
 30
0.0
 11
293.95375
 21
356.32425
 31
0.0
  0
LINE
  5
3EB
100
AcDbEntity
  8
1
  6
CONTINUOUS
 62
     1
100
AcDbLine
 10
-0.255417
 20
224.582583
 30
0.0
 11
86.542917
 21
224.582583
 31
0.0
  0
LINE
  5
3EC
100
AcDbEntity
  8
1
  6
CONTINUOUS
 62
     1
100
AcDbLine
 10
91.542917
 20
219.582583
 30
0.0
 11
91.542917
 21
148.220667
 31
0.0
  0
LINE
  5
3ED
100
AcDbEntity
  8
1
  6
CONTINUOUS
 62
     1
100
AcDbLine
 10
86.542917
 20
143.220667
 30
0.0
 11
-0.255417
 21
143.220667
 31
0.0
  0
LINE
  5
3EE
100
AcDbEntity
  8
1
  6
CONTINUOUS
 62
     1
100
AcDbLine
 10
-5.255417
 20
148.220667
 30
0.0
 11
-5.255417
 21
219.582583
 31
0.0
  0
LINE
  5
3EF
100
AcDbEntity
  8
1
  6
CONTINUOUS
 62
     7
100
AcDbLine
 10
-7.4295
 20
99.306417
 30
0.0
 11
105.358333
 21
99.306417
 31
0.0
  0
ARC
  5
3F0
100
AcDbEntity
  8
1
  6
CONTINUOUS
 62
   212
100
AcDbCircle
 10
86.542917
 20
219.582583
 30
0.0
 40
5.0
210
0.0
220
0.0
230
1.0
100
AcDbArc
 50
0.0
 51
90.0
  0
ARC
  5
3F1
100
AcDbEntity
  8
1
  6
CONTINUOUS
 62
   212
100
AcDbCircle
 10
86.542917
 20
148.220667
 30
0.0
 40
5.0
210
0.0
220
0.0
230
1.0
100
AcDbArc
 50
270.0
 51
0.0
  0
LINE
  5
3F2
100
AcDbEntity
  8
1
  6
CONTINUOUS
 62
     7
100
AcDbLine
 10
92.542917
 20
216.582583
 30
0.0
 11
106.344
 21
216.582583
 31
0.0
  0
LINE
  5
3F3
100
AcDbEntity
  8
1
  6
CONTINUOUS
 62
     7
100
AcDbLine
 10
90.542917
 20
224.582583
 30
0.0
 11
119.084667
 21
224.582583
 31
0.0
  0
LINE
  5
3F4
100
AcDbEntity
  8
1
  6
CONTINUOUS
 62
     7
100
AcDbLine
 10
90.542917
 20
143.220667
 30
0.0
 11
119.084667
 21
143.220667
 31
0.0
  0
LINE
  5
3F5
100
AcDbEntity
  8
1
  6
CONTINUOUS
 62
     7
100
AcDbLine
 10
118.084667
 20
224.582583
 30
0.0
 11
118.084667
 21
143.220667
 31
0.0
  0
LINE
  5
3F6
100
AcDbEntity
  8
1
  6
CONTINUOUS
 62
     7
100
AcDbLine
 10
105.344
 20
216.582583
 30
0.0
 11
105.344
 21
151.220667
 31
0.0
  0
ARC
  5
3F7
100
AcDbEntity
  8
1
  6
CONTINUOUS
 62
   212
100
AcDbCircle
 10
-0.255417
 20
219.582583
 30
0.0
 40
5.0
210
0.0
220
0.0
230
1.0
100
AcDbArc
 50
90.0
 51
180.0
  0
ARC
  5
3F8
100
AcDbEntity
  8
1
  6
CONTINUOUS
 62
   212
100
AcDbCircle
 10
-0.255417
 20
148.220667
 30
0.0
 40
5.0
210
0.0
220
0.0
230
1.0
100
AcDbArc
 50
180.0
 51
270.0
  0
CIRCLE
  5
3F9
100
AcDbEntity
  8
1
  6
CONTINUOUS
 62
   212
100
AcDbCircle
 10
83.542917
 20
216.582583
 30
0.0
 40
1.5
210
0.0
220
0.0
230
1.0
  0
CIRCLE
  5
3FA
100
AcDbEntity
  8
1
  6
CONTINUOUS
 62
   212
100
AcDbCircle
 10
83.542917
 20
151.220667
 30
0.0
 40
1.5
210
0.0
220
0.0
230
1.0
  0
CIRCLE
  5
3FB
100
AcDbEntity
  8
1
  6
CONTINUOUS
 62
   212
100
AcDbCircle
 10
2.744583
 20
216.582583
 30
0.0
 40
1.5
210
0.0
220
0.0
230
1.0
  0
CIRCLE
  5
3FC
100
AcDbEntity
  8
1
  6
CONTINUOUS
 62
   212
100
AcDbCircle
 10
2.744583
 20
151.220667
 30
0.0
 40
1.5
210
0.0
220
0.0
230
1.0
  0
CIRCLE
  5
3FD
100
AcDbEntity
  8
1
  6
CONTINUOUS
 62
   212
100
AcDbCircle
 10
28.744583
 20
216.582583
 30
0.0
 40
1.5
210
0.0
220
0.0
230
1.0
  0
CIRCLE
  5
3FE
100
AcDbEntity
  8
1
  6
CONTINUOUS
 62
   212
100
AcDbCircle
 10
57.542917
 20
216.582583
 30
0.0
 40
1.5
210
0.0
220
0.0
230
1.0
  0
CIRCLE
  5
3FF
100
AcDbEntity
  8
1
  6
CONTINUOUS
 62
   212
100
AcDbCircle
 10
28.744583
 20
151.220667
 30
0.0
 40
1.5
210
0.0
220
0.0
230
1.0
  0
CIRCLE
  5
400
100
AcDbEntity
  8
1
  6
CONTINUOUS
 62
   212
100
AcDbCircle
 10
57.542917
 20
151.220667
 30
0.0
 40
1.5
210
0.0
220
0.0
230
1.0
  0
LINE
  5
401
100
AcDbEntity
  8
1
  6
CONTINUOUS
 62
     7
100
AcDbLine
 10
92.542917
 20
151.220667
 30
0.0
 11
106.344
 21
151.220667
 31
0.0
  0
LINE
  5
402
100
AcDbEntity
  8
1
  6
CONTINUOUS
 62
     7
100
AcDbLine
 10
-5.255417
 20
144.220667
 30
0.0
 11
-5.255417
 21
111.868833
 31
0.0
  0
LINE
  5
403
100
AcDbEntity
  8
1
  6
CONTINUOUS
 62
     7
100
AcDbLine
 10
91.542917
 20
144.220667
 30
0.0
 11
91.542917
 21
111.868833
 31
0.0
  0
LINE
  5
404
100
AcDbEntity
  8
1
  6
CONTINUOUS
 62
     7
100
AcDbLine
 10
2.744583
 20
142.220667
 30
0.0
 11
2.744583
 21
122.899667
 31
0.0
  0
LINE
  5
405
100
AcDbEntity
  8
1
  6
CONTINUOUS
 62
     7
100
AcDbLine
 10
83.542917
 20
142.220667
 30
0.0
 11
83.542917
 21
122.899667
 31
0.0
  0
LINE
  5
406
100
AcDbEntity
  8
1
  6
CONTINUOUS
 62
     7
100
AcDbLine
 10
28.744583
 20
142.220667
 30
0.0
 11
28.744583
 21
133.587917
 31
0.0
  0
LINE
  5
407
100
AcDbEntity
  8
1
  6
CONTINUOUS
 62
     7
100
AcDbLine
 10
57.542917
 20
142.220667
 30
0.0
 11
57.542917
 21
133.587917
 31
0.0
  0
LINE
  5
408
100
AcDbEntity
  8
1
  6
CONTINUOUS
 62
     7
100
AcDbLine
 10
28.744583
 20
134.587917
 30
0.0
 11
57.542917
 21
134.587917
 31
0.0
  0
LINE
  5
409
100
AcDbEntity
  8
1
  6
CONTINUOUS
 62
     7
100
AcDbLine
 10
2.744583
 20
123.899667
 30
0.0
 11
83.542917
 21
123.899667
 31
0.0
  0
LINE
  5
40A
100
AcDbEntity
  8
1
  6
CONTINUOUS
 62
     7
100
AcDbLine
 10
-5.255417
 20
112.868833
 30
0.0
 11
91.542917
 21
112.868833
 31
0.0
  0
INSERT
  5
40B
100
AcDbEntity
  8
1
  6
CONTINUOUS
 62
     1
100
AcDbBlockReference
  2
LDR
 10
118.084667
 20
224.582583
 30
0.0
 41
240.0
 42
240.0
 50
90.0
210
0.0
220
0.0
230
1.0
  0
INSERT
  5
40C
100
AcDbEntity
  8
1
  6
CONTINUOUS
 62
     1
100
AcDbBlockReference
  2
LDR
 10
118.084667
 20
224.582583
 30
0.0
 41
240.0
 42
240.0
 50
90.0
210
0.0
220
0.0
230
1.0
  0
INSERT
  5
40D
100
AcDbEntity
  8
1
  6
CONTINUOUS
 62
     1
100
AcDbBlockReference
  2
LDR
 10
118.084667
 20
143.220667
 30
0.0
 41
240.0
 42
240.0
 50
270.0
210
0.0
220
0.0
230
1.0
  0
INSERT
  5
40E
100
AcDbEntity
  8
1
  6
CONTINUOUS
 62
     1
100
AcDbBlockReference
  2
LDR
 10
118.084667
 20
143.220667
 30
0.0
 41
240.0
 42
240.0
 50
270.0
210
0.0
220
0.0
230
1.0
  0
INSERT
  5
40F
100
AcDbEntity
  8
1
  6
CONTINUOUS
 62
     1
100
AcDbBlockReference
  2
LDR
 10
105.344
 20
216.582583
 30
0.0
 41
240.0
 42
240.0
 50
90.0
210
0.0
220
0.0
230
1.0
  0
INSERT
  5
410
100
AcDbEntity
  8
1
  6
CONTINUOUS
 62
     1
100
AcDbBlockReference
  2
LDR
 10
105.344
 20
216.582583
 30
0.0
 41
240.0
 42
240.0
 50
90.0
210
0.0
220
0.0
230
1.0
  0
INSERT
  5
411
100
AcDbEntity
  8
1
  6
CONTINUOUS
 62
     1
100
AcDbBlockReference
  2
LDR
 10
105.344
 20
151.220667
 30
0.0
 41
240.0
 42
240.0
 50
270.0
210
0.0
220
0.0
230
1.0
  0
INSERT
  5
412
100
AcDbEntity
  8
1
  6
CONTINUOUS
 62
     1
100
AcDbBlockReference
  2
LDR
 10
105.344
 20
151.220667
 30
0.0
 41
240.0
 42
240.0
 50
270.0
210
0.0
220
0.0
230
1.0
  0
INSERT
  5
413
100
AcDbEntity
  8
1
  6
CONTINUOUS
 62
     1
100
AcDbBlockReference
  2
LDR
 10
57.542917
 20
134.587917
 30
0.0
 41
240.0
 42
240.0
210
0.0
220
0.0
230
1.0
  0
INSERT
  5
414
100
AcDbEntity
  8
1
  6
CONTINUOUS
 62
     1
100
AcDbBlockReference
  2
LDR
 10
57.542917
 20
134.587917
 30
0.0
 41
240.0
 42
240.0
210
0.0
220
0.0
230
1.0
  0
INSERT
  5
415
100
AcDbEntity
  8
1
  6
CONTINUOUS
 62
     1
100
AcDbBlockReference
  2
LDR
 10
28.744583
 20
134.587917
 30
0.0
 41
240.0
 42
240.0
 50
180.0
210
0.0
220
0.0
230
1.0
  0
INSERT
  5
416
100
AcDbEntity
  8
1
  6
CONTINUOUS
 62
     1
100
AcDbBlockReference
  2
LDR
 10
28.744583
 20
134.587917
 30
0.0
 41
240.0
 42
240.0
 50
180.0
210
0.0
220
0.0
230
1.0
  0
INSERT
  5
417
100
AcDbEntity
  8
1
  6
CONTINUOUS
 62
     1
100
AcDbBlockReference
  2
LDR
 10
2.744583
 20
123.899667
 30
0.0
 41
240.0
 42
240.0
 50
180.0
210
0.0
220
0.0
230
1.0
  0
INSERT
  5
418
100
AcDbEntity
  8
1
  6
CONTINUOUS
 62
     1
100
AcDbBlockReference
  2
LDR
 10
2.744583
 20
123.899667
 30
0.0
 41
240.0
 42
240.0
 50
180.0
210
0.0
220
0.0
230
1.0
  0
INSERT
  5
419
100
AcDbEntity
  8
1
  6
CONTINUOUS
 62
     1
100
AcDbBlockReference
  2
LDR
 10
83.542917
 20
123.899667
 30
0.0
 41
240.0
 42
240.0
210
0.0
220
0.0
230
1.0
  0
INSERT
  5
41A
100
AcDbEntity
  8
1
  6
CONTINUOUS
 62
     1
100
AcDbBlockReference
  2
LDR
 10
83.542917
 20
123.899667
 30
0.0
 41
240.0
 42
240.0
210
0.0
220
0.0
230
1.0
  0
INSERT
  5
41B
100
AcDbEntity
  8
1
  6
CONTINUOUS
 62
     1
100
AcDbBlockReference
  2
LDR
 10
91.542917
 20
112.868833
 30
0.0
 41
240.0
 42
240.0
210
0.0
220
0.0
230
1.0
  0
INSERT
  5
41C
100
AcDbEntity
  8
1
  6
CONTINUOUS
 62
     1
100
AcDbBlockReference
  2
LDR
 10
91.542917
 20
112.868833
 30
0.0
 41
240.0
 42
240.0
210
0.0
220
0.0
230
1.0
  0
INSERT
  5
41D
100
AcDbEntity
  8
1
  6
CONTINUOUS
 62
     1
100
AcDbBlockReference
  2
LDR
 10
-5.255417
 20
112.868833
 30
0.0
 41
240.0
 42
240.0
 50
180.0
210
0.0
220
0.0
230
1.0
  0
INSERT
  5
41E
100
AcDbEntity
  8
1
  6
CONTINUOUS
 62
     1
100
AcDbBlockReference
  2
LDR
 10
-5.255417
 20
112.868833
 30
0.0
 41
240.0
 42
240.0
 50
180.0
210
0.0
220
0.0
230
1.0
  0
INSERT
  5
41F
100
AcDbEntity
  8
1
  6
CONTINUOUS
 62
     1
100
AcDbBlockReference
  2
LDR
 10
-5.255417
 20
112.868833
 30
0.0
 41
240.0
 42
240.0
 50
180.0
210
0.0
220
0.0
230
1.0
  0
TEXT
  5
420
100
AcDbEntity
  8
1
  6
CONTINUOUS
 62
     7
100
AcDbText
 10
-5.032083
 20
100.949583
 30
0.0
 40
4.0
  1
LUMINAIRE MOUNTING PLATE (ALT.)
  7
MONOTXT
210
0.0
220
0.0
230
1.0
100
AcDbText
  0
LINE
  5
421
100
AcDbEntity
  8
1
  6
CONTINUOUS
 62
     7
100
AcDbLine
 10
-7.04225
 20
229.637583
 30
0.0
 11
-10.926583
 21
229.637583
 31
0.0
  0
LINE
  5
422
100
AcDbEntity
  8
1
  6
CONTINUOUS
 62
     7
100
AcDbLine
 10
1.683917
 20
217.64325
 30
0.0
 11
-7.04225
 21
229.637583
 31
0.0
  0
LINE
  5
423
100
AcDbEntity
  8
1
  6
CONTINUOUS
 62
     7
100
AcDbLine
 10
2.244583
 20
216.582583
 30
0.0
 11
3.244583
 21
216.582583
 31
0.0
  0
LINE
  5
424
100
AcDbEntity
  8
1
  6
CONTINUOUS
 62
     7
100
AcDbLine
 10
3.744583
 20
216.582583
 30
0.0
 11
27.744583
 21
216.582583
 31
0.0
  0
LINE
  5
425
100
AcDbEntity
  8
1
  6
CONTINUOUS
 62
     7
100
AcDbLine
 10
28.244583
 20
216.582583
 30
0.0
 11
29.244583
 21
216.582583
 31
0.0
  0
LINE
  5
426
100
AcDbEntity
  8
1
  6
CONTINUOUS
 62
     7
100
AcDbLine
 10
29.744583
 20
216.582583
 30
0.0
 11
56.542917
 21
216.582583
 31
0.0
  0
LINE
  5
427
100
AcDbEntity
  8
1
  6
CONTINUOUS
 62
     7
100
AcDbLine
 10
57.042917
 20
216.582583
 30
0.0
 11
58.042917
 21
216.582583
 31
0.0
  0
LINE
  5
428
100
AcDbEntity
  8
1
  6
CONTINUOUS
 62
     7
100
AcDbLine
 10
58.542917
 20
216.582583
 30
0.0
 11
82.542917
 21
216.582583
 31
0.0
  0
LINE
  5
429
100
AcDbEntity
  8
1
  6
CONTINUOUS
 62
     7
100
AcDbLine
 10
83.042917
 20
216.582583
 30
0.0
 11
84.042917
 21
216.582583
 31
0.0
  0
LINE
  5
42A
100
AcDbEntity
  8
1
  6
CONTINUOUS
 62
     7
100
AcDbLine
 10
2.744583
 20
216.082583
 30
0.0
 11
2.744583
 21
217.082583
 31
0.0
  0
LINE
  5
42B
100
AcDbEntity
  8
1
  6
CONTINUOUS
 62
     7
100
AcDbLine
 10
2.744583
 20
150.720667
 30
0.0
 11
2.744583
 21
151.720667
 31
0.0
  0
LINE
  5
42C
100
AcDbEntity
  8
1
  6
CONTINUOUS
 62
     7
100
AcDbLine
 10
2.744583
 20
152.220667
 30
0.0
 11
2.744583
 21
215.582583
 31
0.0
  0
LINE
  5
42D
100
AcDbEntity
  8
1
  6
CONTINUOUS
 62
     7
100
AcDbLine
 10
3.244583
 20
151.220667
 30
0.0
 11
2.244583
 21
151.220667
 31
0.0
  0
LINE
  5
42E
100
AcDbEntity
  8
1
  6
CONTINUOUS
 62
     7
100
AcDbLine
 10
27.744583
 20
151.220667
 30
0.0
 11
3.744583
 21
151.220667
 31
0.0
  0
LINE
  5
42F
100
AcDbEntity
  8
1
  6
CONTINUOUS
 62
     7
100
AcDbLine
 10
29.244583
 20
151.220667
 30
0.0
 11
28.244583
 21
151.220667
 31
0.0
  0
LINE
  5
430
100
AcDbEntity
  8
1
  6
CONTINUOUS
 62
     7
100
AcDbLine
 10
56.542917
 20
151.220667
 30
0.0
 11
29.744583
 21
151.220667
 31
0.0
  0
LINE
  5
431
100
AcDbEntity
  8
1
  6
CONTINUOUS
 62
     7
100
AcDbLine
 10
58.042917
 20
151.220667
 30
0.0
 11
57.042917
 21
151.220667
 31
0.0
  0
LINE
  5
432
100
AcDbEntity
  8
1
  6
CONTINUOUS
 62
     7
100
AcDbLine
 10
84.042917
 20
151.220667
 30
0.0
 11
83.042917
 21
151.220667
 31
0.0
  0
LINE
  5
433
100
AcDbEntity
  8
1
  6
CONTINUOUS
 62
     7
100
AcDbLine
 10
82.542917
 20
151.220667
 30
0.0
 11
58.542917
 21
151.220667
 31
0.0
  0
LINE
  5
434
100
AcDbEntity
  8
1
  6
CONTINUOUS
 62
     7
100
AcDbLine
 10
83.542917
 20
151.720667
 30
0.0
 11
83.542917
 21
150.720667
 31
0.0
  0
LINE
  5
435
100
AcDbEntity
  8
1
  6
CONTINUOUS
 62
     7
100
AcDbLine
 10
83.542917
 20
217.082583
 30
0.0
 11
83.542917
 21
216.082583
 31
0.0
  0
LINE
  5
436
100
AcDbEntity
  8
1
  6
CONTINUOUS
 62
     7
100
AcDbLine
 10
83.542917
 20
215.582583
 30
0.0
 11
83.542917
 21
152.220667
 31
0.0
  0
LINE
  5
437
100
AcDbEntity
  8
1
  6
CONTINUOUS
 62
     7
100
AcDbLine
 10
57.542917
 20
217.082583
 30
0.0
 11
57.542917
 21
216.082583
 31
0.0
  0
LINE
  5
438
100
AcDbEntity
  8
1
  6
CONTINUOUS
 62
     7
100
AcDbLine
 10
57.542917
 20
215.582583
 30
0.0
 11
57.542917
 21
152.220667
 31
0.0
  0
LINE
  5
439
100
AcDbEntity
  8
1
  6
CONTINUOUS
 62
     7
100
AcDbLine
 10
57.542917
 20
151.720667
 30
0.0
 11
57.542917
 21
150.720667
 31
0.0
  0
LINE
  5
43A
100
AcDbEntity
  8
1
  6
CONTINUOUS
 62
     7
100
AcDbLine
 10
28.744583
 20
151.720667
 30
0.0
 11
28.744583
 21
150.720667
 31
0.0
  0
LINE
  5
43B
100
AcDbEntity
  8
1
  6
CONTINUOUS
 62
     7
100
AcDbLine
 10
28.744583
 20
217.082583
 30
0.0
 11
28.744583
 21
216.082583
 31
0.0
  0
LINE
  5
43C
100
AcDbEntity
  8
1
  6
CONTINUOUS
 62
     7
100
AcDbLine
 10
28.744583
 20
215.582583
 30
0.0
 11
28.744583
 21
152.220667
 31
0.0
  0
LINE
  5
43D
100
AcDbEntity
  8
1
  6
CONTINUOUS
 62
     7
100
AcDbLine
 10
2.744583
 20
217.582583
 30
0.0
 11
2.744583
 21
219.082583
 31
0.0
  0
LINE
  5
43E
100
AcDbEntity
  8
1
  6
CONTINUOUS
 62
     7
100
AcDbLine
 10
1.744583
 20
216.582583
 30
0.0
 11
0.244583
 21
216.582583
 31
0.0
  0
LINE
  5
43F
100
AcDbEntity
  8
1
  6
CONTINUOUS
 62
     7
100
AcDbLine
 10
28.744583
 20
217.582583
 30
0.0
 11
28.744583
 21
219.082583
 31
0.0
  0
LINE
  5
440
100
AcDbEntity
  8
1
  6
CONTINUOUS
 62
     7
100
AcDbLine
 10
57.542917
 20
217.582583
 30
0.0
 11
57.542917
 21
219.082583
 31
0.0
  0
LINE
  5
441
100
AcDbEntity
  8
1
  6
CONTINUOUS
 62
     7
100
AcDbLine
 10
83.542917
 20
217.582583
 30
0.0
 11
83.542917
 21
219.082583
 31
0.0
  0
LINE
  5
442
100
AcDbEntity
  8
1
  6
CONTINUOUS
 62
     7
100
AcDbLine
 10
84.542917
 20
216.582583
 30
0.0
 11
86.042917
 21
216.582583
 31
0.0
  0
LINE
  5
443
100
AcDbEntity
  8
1
  6
CONTINUOUS
 62
     7
100
AcDbLine
 10
1.744583
 20
151.220667
 30
0.0
 11
0.244583
 21
151.220667
 31
0.0
  0
LINE
  5
444
100
AcDbEntity
  8
1
  6
CONTINUOUS
 62
     7
100
AcDbLine
 10
2.744583
 20
150.220667
 30
0.0
 11
2.744583
 21
148.720667
 31
0.0
  0
LINE
  5
445
100
AcDbEntity
  8
1
  6
CONTINUOUS
 62
     7
100
AcDbLine
 10
28.744583
 20
150.220667
 30
0.0
 11
28.744583
 21
148.720667
 31
0.0
  0
LINE
  5
446
100
AcDbEntity
  8
1
  6
CONTINUOUS
 62
     7
100
AcDbLine
 10
57.542917
 20
150.220667
 30
0.0
 11
57.542917
 21
148.720667
 31
0.0
  0
LINE
  5
447
100
AcDbEntity
  8
1
  6
CONTINUOUS
 62
     7
100
AcDbLine
 10
83.542917
 20
150.220667
 30
0.0
 11
83.542917
 21
148.720667
 31
0.0
  0
LINE
  5
448
100
AcDbEntity
  8
1
  6
CONTINUOUS
 62
     7
100
AcDbLine
 10
84.542917
 20
151.220667
 30
0.0
 11
86.042917
 21
151.220667
 31
0.0
  0
LWPOLYLINE
  5
449
100
AcDbEntity
  8
1
  6
CONTINUOUS
 62
     7
100
AcDbPolyline
 90
        4
 70
     0
 10
434.313667
 20
52.887
 10
432.313667
 20
49.422917
 10
436.313667
 20
49.422917
 10
434.313667
 20
52.887
  0
TEXT
  5
44A
100
AcDbEntity
  8
1
  6
CONTINUOUS
 62
     7
100
AcDbText
 10
433.63325
 20
49.64975
 30
0.0
 40
2.0
  1
3
  7
MONOTXT
210
0.0
220
0.0
230
1.0
100
AcDbText
  0
LWPOLYLINE
  5
44B
100
AcDbEntity
  8
1
  6
CONTINUOUS
 62
     7
100
AcDbPolyline
 90
        4
 70
     0
 10
437.401667
 20
-30.75675
 10
435.401667
 20
-34.220833
 10
439.401667
 20
-34.220833
 10
437.401667
 20
-30.75675
  0
TEXT
  5
44C
100
AcDbEntity
  8
1
  6
CONTINUOUS
 62
     7
100
AcDbText
 10
436.764167
 20
-33.902917
 30
0.0
 40
2.0
  1
3
  7
MONOTXT
210
0.0
220
0.0
230
1.0
100
AcDbText
  0
TEXT
  5
44D
100
AcDbEntity
  8
1
  6
CONTINUOUS
 62
     7
100
AcDbText
 10
302.873083
 20
119.038
 30
0.0
 40
4.0
  1
(ALT.)
  7
MONOTXT
210
0.0
220
0.0
230
1.0
100
AcDbText
  0
TEXT
  5
44E
100
AcDbEntity
  8
1
  6
CONTINUOUS
 62
     7
100
AcDbText
 10
437.205583
 20
50.217
 30
0.0
 40
2.0
  1
ADDED ALT LUM. AND PLATE, REVISED TO REMOTE BALLAST, UPDATED LUMINAIRE NOMENCLATURE
  7
MONOTXT
210
0.0
220
0.0
230
1.0
100
AcDbText
  0
TEXT
  5
44F
100
AcDbEntity
  8
1
  6
CONTINUOUS
 62
     7
100
AcDbText
 10
388.994583
 20
333.323
 30
0.0
 40
2.5
  1
GENERAL NOTES
  7
MONOTXT
 11
388.994583
 21
335.823
 31
0.0
210
0.0
220
0.0
230
1.0
100
AcDbText
 73
     3
  0
TEXT
  5
450
100
AcDbEntity
  8
1
  6
CONTINUOUS
 62
     7
100
AcDbText
 10
388.994583
 20
328.823
 30
0.0
 40
2.5
  1
 
  7
MONOTXT
 11
388.994583
 21
331.323
 31
0.0
210
0.0
220
0.0
230
1.0
100
AcDbText
 73
     3
  0
TEXT
  5
451
100
AcDbEntity
  8
1
  6
CONTINUOUS
 62
     7
100
AcDbText
 10
388.994583
 20
324.323
 30
0.0
 40
2.5
  1
SIGN ILLUMINATION
  7
MONOTXT
 11
388.994583
 21
326.823
 31
0.0
210
0.0
220
0.0
230
1.0
100
AcDbText
 73
     3
  0
TEXT
  5
452
100
AcDbEntity
  8
1
  6
CONTINUOUS
 62
     7
100
AcDbText
 10
388.994583
 20
319.823
 30
0.0
 40
2.5
  1
 
  7
MONOTXT
 11
388.994583
 21
322.323
 31
0.0
210
0.0
220
0.0
230
1.0
100
AcDbText
 73
     3
  0
TEXT
  5
453
100
AcDbEntity
  8
1
  6
CONTINUOUS
 62
     7
100
AcDbText
 10
388.994583
 20
315.323
 30
0.0
 40
2.5
  1
SIGN ILLUMINATION SHALL BE BY ATTACHED EXTERNAL MERCURY VAPOR FIXTURES AS SHOWN ON
  7
MONOTXT
 11
388.994583
 21
317.823
 31
0.0
210
0.0
220
0.0
230
1.0
100
AcDbText
 73
     3
  0
TEXT
  5
454
100
AcDbEntity
  8
1
  6
CONTINUOUS
 62
     7
100
AcDbText
 10
388.994583
 20
310.823
 30
0.0
 40
2.5
  1
SIGN ILLUMINATION DETAIL SHEET TE6-3D.
  7
MONOTXT
 11
388.994583
 21
313.323
 31
0.0
210
0.0
220
0.0
230
1.0
100
AcDbText
 73
     3
  0
TEXT
  5
455
100
AcDbEntity
  8
1
  6
CONTINUOUS
 62
     7
100
AcDbText
 10
388.994583
 20
306.323
 30
0.0
 40
2.5
  1
 
  7
MONOTXT
 11
388.994583
 21
308.823
 31
0.0
210
0.0
220
0.0
230
1.0
100
AcDbText
 73
     3
  0
TEXT
  5
456
100
AcDbEntity
  8
1
  6
CONTINUOUS
 62
     7
100
AcDbText
 10
388.994583
 20
301.823
 30
0.0
 40
2.5
  1
GENERALLY, THE LUMINAIRE SHALL BE OF THE INTEGRAL BALLAST TYPE, COMPLETE WITH HOUSING,
  7
MONOTXT
 11
388.994583
 21
304.323
 31
0.0
210
0.0
220
0.0
230
1.0
100
AcDbText
 73
     3
  0
TEXT
  5
457
100
AcDbEntity
  8
1
  6
CONTINUOUS
 62
     7
100
AcDbText
 10
388.994583
 20
297.323
 30
0.0
 40
2.5
  1
MOUNTING BRACKET REFLECTOR, LENSE REFRACTOR, FUSE HOLDER, FUSE, LAMP SOCKET, BALLAST
  7
MONOTXT
 11
388.994583
 21
299.823
 31
0.0
210
0.0
220
0.0
230
1.0
100
AcDbText
 73
     3
  0
TEXT
  5
458
100
AcDbEntity
  8
1
  6
CONTINUOUS
 62
     7
100
AcDbText
 10
388.994583
 20
292.823
 30
0.0
 40
2.5
  1
AND LAMP.
  7
MONOTXT
 11
388.994583
 21
295.323
 31
0.0
210
0.0
220
0.0
230
1.0
100
AcDbText
 73
     3
  0
TEXT
  5
459
100
AcDbEntity
  8
1
  6
CONTINUOUS
 62
     7
100
AcDbText
 10
388.994583
 20
288.323
 30
0.0
 40
2.5
  1
 
  7
MONOTXT
 11
388.994583
 21
290.823
 31
0.0
210
0.0
220
0.0
230
1.0
100
AcDbText
 73
     3
  0
TEXT
  5
45A
100
AcDbEntity
  8
1
  6
CONTINUOUS
 62
     7
100
AcDbText
 10
388.994583
 20
283.823
 30
0.0
 40
2.5
  1
LAMPS
  7
MONOTXT
 11
388.994583
 21
286.323
 31
0.0
210
0.0
220
0.0
230
1.0
100
AcDbText
 73
     3
  0
TEXT
  5
45B
100
AcDbEntity
  8
1
  6
CONTINUOUS
 62
     7
100
AcDbText
 10
388.994583
 20
279.323
 30
0.0
 40
2.5
  1
 
  7
MONOTXT
 11
388.994583
 21
281.823
 31
0.0
210
0.0
220
0.0
230
1.0
100
AcDbText
 73
     3
  0
TEXT
  5
45C
100
AcDbEntity
  8
1
  6
CONTINUOUS
 62
     7
100
AcDbText
 10
388.994583
 20
274.823
 30
0.0
 40
2.5
  1
LAMPS SHALL BE 100, 175 OR 250 WATT DELUXE WHITE MERCURY VAPOR (AS INDICATED ON THE
  7
MONOTXT
 11
388.994583
 21
277.323
 31
0.0
210
0.0
220
0.0
230
1.0
100
AcDbText
 73
     3
  0
TEXT
  5
45D
100
AcDbEntity
  8
1
  6
CONTINUOUS
 62
     7
100
AcDbText
 10
388.994583
 20
270.323
 30
0.0
 40
2.5
  1
PLANS) HEAVY GLASS TYPE WITH RATED LIFE OF 24,000 HOURS MINIMUM A.N.S.I. CODE H38T-100,
  7
MONOTXT
 11
388.994583
 21
272.823
 31
0.0
210
0.0
220
0.0
230
1.0
100
AcDbText
 73
     3
  0
TEXT
  5
45E
100
AcDbEntity
  8
1
  6
CONTINUOUS
 62
     7
100
AcDbText
 10
388.994583
 20
265.823
 30
0.0
 40
2.5
  1
H39KB-175, OR H37KB-250.
  7
MONOTXT
 11
388.994583
 21
268.323
 31
0.0
210
0.0
220
0.0
230
1.0
100
AcDbText
 73
     3
  0
TEXT
  5
45F
100
AcDbEntity
  8
1
  6
CONTINUOUS
 62
     7
100
AcDbText
 10
388.994583
 20
261.323
 30
0.0
 40
2.5
  1
 
  7
MONOTXT
 11
388.994583
 21
263.823
 31
0.0
210
0.0
220
0.0
230
1.0
100
AcDbText
 73
     3
  0
TEXT
  5
460
100
AcDbEntity
  8
1
  6
CONTINUOUS
 62
     7
100
AcDbText
 10
388.994583
 20
256.823
 30
0.0
 40
2.5
  1
LAMP FIXTURE
  7
MONOTXT
 11
388.994583
 21
259.323
 31
0.0
210
0.0
220
0.0
230
1.0
100
AcDbText
 73
     3
  0
TEXT
  5
461
100
AcDbEntity
  8
1
  6
CONTINUOUS
 62
     7
100
AcDbText
 10
388.994583
 20
252.323
 30
0.0
 40
2.5
  1
 
  7
MONOTXT
 11
388.994583
 21
254.823
 31
0.0
210
0.0
220
0.0
230
1.0
100
AcDbText
 73
     3
  0
TEXT
  5
462
100
AcDbEntity
  8
1
  6
CONTINUOUS
 62
     7
100
AcDbText
 10
388.994583
 20
247.823
 30
0.0
 40
2.5
  1
LUMINAIRE HOUSING SHALL BE CAST ALUMINUM WITH CAPTIVE CLOSED CELL NEOPRONE GASKET.
  7
MONOTXT
 11
388.994583
 21
250.323
 31
0.0
210
0.0
220
0.0
230
1.0
100
AcDbText
 73
     3
  0
TEXT
  5
463
100
AcDbEntity
  8
1
  6
CONTINUOUS
 62
     7
100
AcDbText
 10
388.994583
 20
243.323
 30
0.0
 40
2.5
  1
CLOSURE SHALL BE POSITIVE BY THE USE OF STAINLESS STEEL PRESSURE LATHES AND STAINLESS
  7
MONOTXT
 11
388.994583
 21
245.823
 31
0.0
210
0.0
220
0.0
230
1.0
100
AcDbText
 73
     3
  0
TEXT
  5
464
100
AcDbEntity
  8
1
  6
CONTINUOUS
 62
     7
100
AcDbText
 10
388.994583
 20
238.823
 30
0.0
 40
2.5
  1
STEEL HINGES.
  7
MONOTXT
 11
388.994583
 21
241.323
 31
0.0
210
0.0
220
0.0
230
1.0
100
AcDbText
 73
     3
  0
TEXT
  5
465
100
AcDbEntity
  8
1
  6
CONTINUOUS
 62
     7
100
AcDbText
 10
388.994583
 20
234.323
 30
0.0
 40
2.5
  1
 
  7
MONOTXT
 11
388.994583
 21
236.823
 31
0.0
210
0.0
220
0.0
230
1.0
100
AcDbText
 73
     3
  0
TEXT
  5
466
100
AcDbEntity
  8
1
  6
CONTINUOUS
 62
     7
100
AcDbText
 10
388.994583
 20
229.823
 30
0.0
 40
2.5
  1
LENSE REFRACTOR SHALL BE MOLDED PRISMATIC THERMAL SHOCK RESISTANT BOROSILICATE GLASS.
  7
MONOTXT
 11
388.994583
 21
232.323
 31
0.0
210
0.0
220
0.0
230
1.0
100
AcDbText
 73
     3
  0
TEXT
  5
467
100
AcDbEntity
  8
1
  6
CONTINUOUS
 62
     7
100
AcDbText
 10
388.994583
 20
225.323
 30
0.0
 40
2.5
  1
 
  7
MONOTXT
 11
388.994583
 21
227.823
 31
0.0
210
0.0
220
0.0
230
1.0
100
AcDbText
 73
     3
  0
TEXT
  5
468
100
AcDbEntity
  8
1
  6
CONTINUOUS
 62
     7
100
AcDbText
 10
388.994583
 20
220.823
 30
0.0
 40
2.5
  1
LAMP SOCKET SHALL BE OF A HEAVY DUTY MOGUL TYPE AND BE PROVIDED WITH ADJUSTABLE
  7
MONOTXT
 11
388.994583
 21
223.323
 31
0.0
210
0.0
220
0.0
230
1.0
100
AcDbText
 73
     3
  0
TEXT
  5
469
100
AcDbEntity
  8
1
  6
CONTINUOUS
 62
     7
100
AcDbText
 10
388.994583
 20
216.323
 30
0.0
 40
2.5
  1
SETTINGS OR POSITIONS FOR VARYING THE BEAM PATTERN.
  7
MONOTXT
 11
388.994583
 21
218.823
 31
0.0
210
0.0
220
0.0
230
1.0
100
AcDbText
 73
     3
  0
TEXT
  5
46A
100
AcDbEntity
  8
1
  6
CONTINUOUS
 62
     7
100
AcDbText
 10
388.994583
 20
211.823
 30
0.0
 40
2.5
  1
 
  7
MONOTXT
 11
388.994583
 21
214.323
 31
0.0
210
0.0
220
0.0
230
1.0
100
AcDbText
 73
     3
  0
TEXT
  5
46B
100
AcDbEntity
  8
1
  6
CONTINUOUS
 62
     7
100
AcDbText
 10
388.994583
 20
207.323
 30
0.0
 40
2.5
  1
FINAL FIELD AIMING (ADJUSTING AIMING ANGLE) OF FIXTURE SHALLL BE DONE AT NIGHT ACCORDING
  7
MONOTXT
 11
388.994583
 21
209.823
 31
0.0
210
0.0
220
0.0
230
1.0
100
AcDbText
 73
     3
  0
TEXT
  5
46C
100
AcDbEntity
  8
1
  6
CONTINUOUS
 62
     7
100
AcDbText
 10
388.994583
 20
202.823
 30
0.0
 40
2.5
  1
TO THE MANUFACTURER'S RECOMMENDATIONNS.
  7
MONOTXT
 11
388.994583
 21
205.323
 31
0.0
210
0.0
220
0.0
230
1.0
100
AcDbText
 73
     3
  0
TEXT
  5
46D
100
AcDbEntity
  8
1
  6
CONTINUOUS
 62
     7
100
AcDbText
 10
388.994583
 20
198.323
 30
0.0
 40
2.5
  1
 
  7
MONOTXT
 11
388.994583
 21
200.823
 31
0.0
210
0.0
220
0.0
230
1.0
100
AcDbText
 73
     3
  0
TEXT
  5
46E
100
AcDbEntity
  8
1
  6
CONTINUOUS
 62
     7
100
AcDbText
 10
388.994583
 20
193.823
 30
0.0
 40
2.5
  1
REMOTE BALLAST
  7
MONOTXT
 11
388.994583
 21
196.323
 31
0.0
210
0.0
220
0.0
230
1.0
100
AcDbText
 73
     3
  0
TEXT
  5
46F
100
AcDbEntity
  8
1
  6
CONTINUOUS
 62
     7
100
AcDbText
 10
388.994583
 20
189.323
 30
0.0
 40
2.5
  1
 
  7
MONOTXT
 11
388.994583
 21
191.823
 31
0.0
210
0.0
220
0.0
230
1.0
100
AcDbText
 73
     3
  0
TEXT
  5
470
100
AcDbEntity
  8
1
  6
CONTINUOUS
 62
     7
100
AcDbText
 10
388.994583
 20
184.823
 30
0.0
 40
2.5
  1
BALLASTS FOR LUMINAIRES SHALL BE 250 WATT (UNLESS OTHERWISE INDICATED), HIGH
  7
MONOTXT
 11
388.994583
 21
187.323
 31
0.0
210
0.0
220
0.0
230
1.0
100
AcDbText
 73
     3
  0
TEXT
  5
471
100
AcDbEntity
  8
1
  6
CONTINUOUS
 62
     7
100
AcDbText
 10
388.994583
 20
180.323
 30
0.0
 40
2.5
  1
POWER FACTOR CONSTANT WATTAGE, AUTO TRANSFORMER TYPE FOR USE WITH APPROPRIATE
  7
MONOTXT
 11
388.994583
 21
182.823
 31
0.0
210
0.0
220
0.0
230
1.0
100
AcDbText
 73
     3
  0
TEXT
  5
472
100
AcDbEntity
  8
1
  6
CONTINUOUS
 62
     7
100
AcDbText
 10
388.994583
 20
175.823
 30
0.0
 40
2.5
  1
LINE VOLTAGE, 60 HERTZ, OUTDOOR ENCLOSED SYSTEM AND SHALL PROVIDE FOR LAMP OPERATION
  7
MONOTXT
 11
388.994583
 21
178.323
 31
0.0
210
0.0
220
0.0
230
1.0
100
AcDbText
 73
     3
  0
TEXT
  5
473
100
AcDbEntity
  8
1
  6
CONTINUOUS
 62
     7
100
AcDbText
 10
388.994583
 20
171.323
 30
0.0
 40
2.5
  1
THROUGHOUT AN AMBIENT TEMPERATURE RANGE OF  29 C TO  66 C. BALLASTS SHALL BE MOUNTED.
  7
MONOTXT
 11
388.994583
 21
173.823
 31
0.0
210
0.0
220
0.0
230
1.0
100
AcDbText
 73
     3
  0
TEXT
  5
474
100
AcDbEntity
  8
1
  6
CONTINUOUS
 62
     7
100
AcDbText
 10
388.994583
 20
166.823
 30
0.0
 40
2.5
  1
REMOTE AS SHOWN ON STANDARD DETAILS.
  7
MONOTXT
 11
388.994583
 21
169.323
 31
0.0
210
0.0
220
0.0
230
1.0
100
AcDbText
 73
     3
  0
LWPOLYLINE
  5
475
100
AcDbEntity
  8
1
  6
CONTINUOUS
 62
     7
100
AcDbPolyline
 90
        4
 70
     0
 10
434.172417
 20
48.649
 10
432.172417
 20
45.184917
 10
436.172417
 20
45.184917
 10
434.172417
 20
48.649
  0
TEXT
  5
476
100
AcDbEntity
  8
1
  6
CONTINUOUS
 62
     7
100
AcDbText
 10
433.492
 20
45.41175
 30
0.0
 40
2.0
  1
4
  7
MONOTXT
210
0.0
220
0.0
230
1.0
100
AcDbText
  0
TEXT
  5
477
100
AcDbEntity
  8
1
  6
CONTINUOUS
 62
     7
100
AcDbText
 10
437.064333
 20
45.979
 30
0.0
 40
2.0
  1
ADDED METRIC
  7
MONOTXT
210
0.0
220
0.0
230
1.0
100
AcDbText
  0
LWPOLYLINE
  5
478
100
AcDbEntity
  8
1
  6
CONTINUOUS
 62
     7
100
AcDbPolyline
 90
        4
 70
     0
 10
437.450583
 20
-35.510917
 10
435.450583
 20
-38.975
 10
439.450583
 20
-38.975
 10
437.450583
 20
-35.510917
  0
TEXT
  5
479
100
AcDbEntity
  8
1
  6
CONTINUOUS
 62
     7
100
AcDbText
 10
436.813083
 20
-38.657083
 30
0.0
 40
2.0
  1
4
  7
MONOTXT
210
0.0
220
0.0
230
1.0
100
AcDbText
  0
TEXT
  5
47A
100
AcDbEntity
  8
1
  6
CONTINUOUS
 62
     1
100
AcDbText
 10
443.303833
 20
-38.547
 30
0.0
 40
2.0
  1
05-19-94
  7
MONOTXT
 72
     1
 11
450.099083
 21
-36.547
 31
0.0
210
0.0
220
0.0
230
1.0
100
AcDbText
 73
     3
  0
TEXT
  5
47B
100
AcDbEntity
  8
1
  6
CONTINUOUS
 62
     7
100
AcDbText
 10
74.600583
 20
294.886583
 30
0.0
 40
2.5
  1
114.3mm
 50
90.0
  7
MONOTXT
210
0.0
220
0.0
230
1.0
100
AcDbText
  0
TEXT
  5
47C
100
AcDbEntity
  8
1
  6
CONTINUOUS
 62
     7
100
AcDbText
 10
72.570333
 20
335.155083
 30
0.0
 40
2.5
  1
31.8mm
 50
90.0
  7
MONOTXT
210
0.0
220
0.0
230
1.0
100
AcDbText
  0
TEXT
  5
47D
100
AcDbEntity
  8
1
  6
CONTINUOUS
 62
     7
100
AcDbText
 10
72.422417
 20
253.311417
 30
0.0
 40
2.5
  1
31.8mm
 50
90.0
  7
MONOTXT
210
0.0
220
0.0
230
1.0
100
AcDbText
  0
TEXT
  5
47E
100
AcDbEntity
  8
1
  6
CONTINUOUS
 62
     7
100
AcDbText
 10
79.566917
 20
295.08
 30
0.0
 40
2.5
  1
177.9mm
 50
90.0
  7
MONOTXT
210
0.0
220
0.0
230
1.0
100
AcDbText
  0
TEXT
  5
47F
100
AcDbEntity
  8
1
  6
CONTINUOUS
 62
     7
100
AcDbText
 10
2.708167
 20
258.812583
 30
0.0
 40
2.5
  1
31.8mm
 50
360.0
  7
MONOTXT
210
0.0
220
0.0
230
1.0
100
AcDbText
  0
TEXT
  5
480
100
AcDbEntity
  8
1
  6
CONTINUOUS
 62
     7
100
AcDbText
 10
25.186167
 20
259.593417
 30
0.0
 40
2.5
  1
114.3mm
 50
360.0
  7
MONOTXT
210
0.0
220
0.0
230
1.0
100
AcDbText
  0
TEXT
  5
481
100
AcDbEntity
  8
1
  6
CONTINUOUS
 62
     7
100
AcDbText
 10
49.4645
 20
258.960583
 30
0.0
 40
2.5
  1
31.8mm
 50
360.0
  7
MONOTXT
210
0.0
220
0.0
230
1.0
100
AcDbText
  0
TEXT
  5
482
100
AcDbEntity
  8
1
  6
CONTINUOUS
 62
     7
100
AcDbText
 10
108.625583
 20
176.59775
 30
0.0
 40
2.5
  1
254.0mm
 50
90.0
  7
MONOTXT
210
0.0
220
0.0
230
1.0
100
AcDbText
  0
TEXT
  5
483
100
AcDbEntity
  8
1
  6
CONTINUOUS
 62
     7
100
AcDbText
 10
121.556583
 20
176.508
 30
0.0
 40
2.5
  1
305mm
 50
90.0
  7
MONOTXT
210
0.0
220
0.0
230
1.0
100
AcDbText
  0
TEXT
  5
484
100
AcDbEntity
  8
1
  6
CONTINUOUS
 62
     7
100
AcDbText
 10
35.386
 20
131.553
 30
0.0
 40
2.5
  1
114.3mm
  7
MONOTXT
210
0.0
220
0.0
230
1.0
100
AcDbText
  0
TEXT
  5
485
100
AcDbEntity
  8
1
  6
CONTINUOUS
 62
     7
100
AcDbText
 10
34.874333
 20
120.4425
 30
0.0
 40
2.5
  1
304.8mm
  7
MONOTXT
210
0.0
220
0.0
230
1.0
100
AcDbText
  0
TEXT
  5
486
100
AcDbEntity
  8
1
  6
CONTINUOUS
 62
     7
100
AcDbText
 10
35.492833
 20
109.3635
 30
0.0
 40
2.5
  1
355mm
  7
MONOTXT
210
0.0
220
0.0
230
1.0
100
AcDbText
  0
TEXT
  5
487
100
AcDbEntity
  8
1
  6
CONTINUOUS
 62
     7
100
AcDbText
 10
389.7765
 20
12.7305
 30
0.0
 40
2.5
  1
200mm TO 275mm
 50
90.0
  7
MONOTXT
210
0.0
220
0.0
230
1.0
100
AcDbText
  0
TEXT
  5
488
100
AcDbEntity
  8
1
  6
CONTINUOUS
 62
     7
100
AcDbText
 10
305.451083
 20
0.057917
 30
0.0
 40
2.5
  1
114.3mm
  7
MONOTXT
210
0.0
220
0.0
230
1.0
100
AcDbText
  0
TEXT
  5
489
100
AcDbEntity
  8
1
  6
CONTINUOUS
 62
     7
100
AcDbText
 10
34.749583
 20
342.915583
 30
0.0
 40
2.5
  1
7.94mm 0
  7
MONOTXT
210
0.0
220
0.0
230
1.0
100
AcDbText
  0
TEXT
  5
48A
100
AcDbEntity
  8
1
  6
CONTINUOUS
 62
     7
100
AcDbText
 10
34.749583
 20
338.415583
 30
0.0
 40
2.5
  1
HOLES
  7
MONOTXT
210
0.0
220
0.0
230
1.0
100
AcDbText
  0
TEXT
  5
48B
100
AcDbEntity
  8
1
  6
CONTINUOUS
 62
     7
100
AcDbText
 10
-38.331
 20
228.487
 30
0.0
 40
2.5
  1
9.525mm DIA.
  7
MONOTXT
 72
     4
 11
-24.777833
 21
229.737
 31
0.0
210
0.0
220
0.0
230
1.0
100
AcDbText
  0
TEXT
  5
48C
100
AcDbEntity
  8
1
  6
CONTINUOUS
 62
     7
100
AcDbText
 10
-30.516
 20
223.987
 30
0.0
 40
2.5
  1
HOLES
  7
MONOTXT
 72
     4
 11
-24.777833
 21
225.237
 31
0.0
210
0.0
220
0.0
230
1.0
100
AcDbText
  0
TEXT
  5
48D
100
AcDbEntity
  8
1
  6
CONTINUOUS
 62
     7
100
AcDbText
 10
353.904167
 20
4.134917
 30
0.0
 40
2.5
  1
19.05mm CONDUIT ENTRY HOLE
  7
MONOTXT
 11
353.904167
 21
6.634917
 31
0.0
210
0.0
220
0.0
230
1.0
100
AcDbText
 73
     3
  0
TEXT
  5
48E
100
AcDbEntity
  8
1
  6
CONTINUOUS
 62
     7
100
AcDbText
 10
353.904167
 20
-0.365083
 30
0.0
 40
2.5
  1
EACH END AS NEEDED
  7
MONOTXT
 11
353.904167
 21
2.134917
 31
0.0
210
0.0
220
0.0
230
1.0
100
AcDbText
 73
     3
  0
ENDSEC
  0
SECTION
  2
OBJECTS
  0
DICTIONARY
  5
19
100
AcDbDictionary
  3
ACAD_GROUP
350
1A
  3
ACAD_MLINESTYLE
350
1B
  0
DICTIONARY
  5
1A
102
{ACAD_REACTORS
330
19
102
}
100
AcDbDictionary
  0
DICTIONARY
  5
1B
102
{ACAD_REACTORS
330
19
102
}
100
AcDbDictionary
  3
STANDARD
350
1C
  0
MLINESTYLE
  5
1C
102
{ACAD_REACTORS
330
1B
102
}
100
AcDbMlineStyle
  2
STANDARD
 70
     0
  3

 62
     0
 51
90.0
 52
90.0
 71
     2
 49
0.5
 62
   256
  6
BYLAYER
 49
-0.5
 62
   256
  6
BYLAYER
  0
ENDSEC
  0
EOF
