  0
SECTION
  2
HEADER
  9
$ACADVER
  1
AC1014
  9
$ACADMAINTVER
 70
     0
  9
$DWGCODEPAGE
  3
ANSI_1252
  9
$INSBASE
 10
0.0
 20
0.0
 30
0.0
  9
$EXTMIN
 10
-261.880417
 20
-208.162917
 30
0.0
  9
$EXTMAX
 10
418.199583
 20
231.877083
 30
0.0
  9
$LIMMIN
 10
0.0
 20
0.0
  9
$LIMMAX
 10
12.0
 20
9.0
  9
$ORTHOMODE
 70
     0
  9
$REGENMODE
 70
     1
  9
$FILLMODE
 70
     1
  9
$QTEXTMODE
 70
     0
  9
$MIRRTEXT
 70
     1
  9
$DRAGMODE
 70
     2
  9
$LTSCALE
 40
1.0
  9
$OSMODE
 70
     0
  9
$ATTMODE
 70
     1
  9
$TEXTSIZE
 40
0.2
  9
$TRACEWID
 40
0.05
  9
$TEXTSTYLE
  7
STANDARD
  9
$CLAYER
  8
0
  9
$CELTYPE
  6
CONTINUOUS
  9
$CECOLOR
 62
   256
  9
$CELTSCALE
 40
1.0
  9
$DELOBJ
 70
     1
  9
$DISPSILH
 70
     0
  9
$DIMSCALE
 40
1.0
  9
$DIMASZ
 40
0.18
  9
$DIMEXO
 40
0.0625
  9
$DIMDLI
 40
0.38
  9
$DIMRND
 40
0.0
  9
$DIMDLE
 40
0.0
  9
$DIMEXE
 40
0.18
  9
$DIMTP
 40
0.0
  9
$DIMTM
 40
0.0
  9
$DIMTXT
 40
0.18
  9
$DIMCEN
 40
0.09
  9
$DIMTSZ
 40
0.0
  9
$DIMTOL
 70
     0
  9
$DIMLIM
 70
     0
  9
$DIMTIH
 70
     1
  9
$DIMTOH
 70
     1
  9
$DIMSE1
 70
     0
  9
$DIMSE2
 70
     0
  9
$DIMTAD
 70
     0
  9
$DIMZIN
 70
     0
  9
$DIMBLK
  1

  9
$DIMASO
 70
     1
  9
$DIMSHO
 70
     1
  9
$DIMPOST
  1

  9
$DIMAPOST
  1

  9
$DIMALT
 70
     0
  9
$DIMALTD
 70
     2
  9
$DIMALTF
 40
25.4
  9
$DIMLFAC
 40
1.0
  9
$DIMTOFL
 70
     0
  9
$DIMTVP
 40
0.0
  9
$DIMTIX
 70
     0
  9
$DIMSOXD
 70
     0
  9
$DIMSAH
 70
     0
  9
$DIMBLK1
  1

  9
$DIMBLK2
  1

  9
$DIMSTYLE
  2
STANDARD
  9
$DIMCLRD
 70
     0
  9
$DIMCLRE
 70
     0
  9
$DIMCLRT
 70
     0
  9
$DIMTFAC
 40
1.0
  9
$DIMGAP
 40
0.09
  9
$DIMJUST
 70
     0
  9
$DIMSD1
 70
     0
  9
$DIMSD2
 70
     0
  9
$DIMTOLJ
 70
     1
  9
$DIMTZIN
 70
     0
  9
$DIMALTZ
 70
     0
  9
$DIMALTTZ
 70
     0
  9
$DIMFIT
 70
     3
  9
$DIMUPT
 70
     0
  9
$DIMUNIT
 70
     2
  9
$DIMDEC
 70
     4
  9
$DIMTDEC
 70
     4
  9
$DIMALTU
 70
     2
  9
$DIMALTTD
 70
     2
  9
$DIMTXSTY
  7
STANDARD
  9
$DIMAUNIT
 70
     0
  9
$LUNITS
 70
     2
  9
$LUPREC
 70
     4
  9
$SKETCHINC
 40
0.1
  9
$FILLETRAD
 40
0.0
  9
$AUNITS
 70
     0
  9
$AUPREC
 70
     0
  9
$MENU
  1
acad
  9
$ELEVATION
 40
0.0
  9
$PELEVATION
 40
0.0
  9
$THICKNESS
 40
0.0
  9
$LIMCHECK
 70
     0
  9
$BLIPMODE
 70
     1
  9
$CHAMFERA
 40
0.0
  9
$CHAMFERB
 40
0.0
  9
$CHAMFERC
 40
0.0
  9
$CHAMFERD
 40
0.0
  9
$SKPOLY
 70
     0
  9
$TDCREATE
 40
2451813.692951389
  9
$TDUPDATE
 40
2451813.692951389
  9
$TDINDWG
 40
0.0000000000
  9
$TDUSRTIMER
 40
0.0000000000
  9
$USRTIMER
 70
     1
  9
$ANGBASE
 50
0.0
  9
$ANGDIR
 70
     0
  9
$PDMODE
 70
     0
  9
$PDSIZE
 40
0.0
  9
$PLINEWID
 40
0.0
  9
$COORDS
 70
     0
  9
$SPLFRAME
 70
     0
  9
$SPLINETYPE
 70
     6
  9
$SPLINESEGS
 70
    10
  9
$ATTDIA
 70
     0
  9
$ATTREQ
 70
     1
  9
$HANDLING
 70
     1
  9
$HANDSEED
  5
4C7
  9
$SURFTAB1
 70
     6
  9
$SURFTAB2
 70
     6
  9
$SURFTYPE
 70
     6
  9
$SURFU
 70
     6
  9
$SURFV
 70
     6
  9
$UCSNAME
  2

  9
$UCSORG
 10
0.0
 20
0.0
 30
0.0
  9
$UCSXDIR
 10
1.0
 20
0.0
 30
0.0
  9
$UCSYDIR
 10
0.0
 20
1.0
 30
0.0
  9
$PUCSNAME
  2

  9
$PUCSORG
 10
0.0
 20
0.0
 30
0.0
  9
$PUCSXDIR
 10
1.0
 20
0.0
 30
0.0
  9
$PUCSYDIR
 10
0.0
 20
1.0
 30
0.0
  9
$USERI1
 70
     0
  9
$USERI2
 70
     0
  9
$USERI3
 70
     0
  9
$USERI4
 70
     0
  9
$USERI5
 70
     0
  9
$USERR1
 40
0.0
  9
$USERR2
 40
0.0
  9
$USERR3
 40
0.0
  9
$USERR4
 40
0.0
  9
$USERR5
 40
0.0
  9
$WORLDVIEW
 70
     1
  9
$SHADEDGE
 70
     3
  9
$SHADEDIF
 70
    70
  9
$TILEMODE
 70
     1
  9
$MAXACTVP
 70
    16
  9
$PINSBASE
 10
0.0
 20
0.0
 30
0.0
  9
$PLIMCHECK
 70
     0
  9
$PEXTMIN
 10
-1.000000E+20
 20
-1.000000E+20
 30
-1.000000E+20
  9
$PEXTMAX
 10
-1.000000E+20
 20
-1.000000E+20
 30
-1.000000E+20
  9
$PLIMMIN
 10
0.0
 20
0.0
  9
$PLIMMAX
 10
12.0
 20
9.0
  9
$UNITMODE
 70
     0
  9
$VISRETAIN
 70
     0
  9
$PLINEGEN
 70
     1
  9
$PSLTSCALE
 70
     0
  9
$TREEDEPTH
 70
  3020
  9
$PICKSTYLE
 70
     1
  9
$CMLSTYLE
  2
STANDARD
  9
$CMLJUST
 70
     0
  9
$CMLSCALE
 40
1.0
  9
$PROXYGRAPHICS
 70
     0
  9
$MEASUREMENT
 70
     0
  0
ENDSEC
  0
SECTION
  2
CLASSES
  0
CLASS
  1
LWPOLYLINE
  2
AcDbPolyline
  3
"AutoCAD"
 90
        0
280
     0
281
     1
  0
CLASS
  1
IMAGE
  2
AcDbRasterImage
  3
ISM
 90
      127
280
     0
281
     1
  0
CLASS
  1
OLE2FRAME
  2
AcDbOle2Frame
  3
""
 90
        0
280
     0
281
     1
  0
CLASS
  1
HATCH
  2
AcDbHatch
  3
"ACAD_SEDONA"
 90
        0
280
     0
281
     1
  0
CLASS
  1
DICTIONARYVAR
  2
AcDbDictionaryVar
  3
"AutoCAD"
 90
        0
280
     0
281
     0
  0
CLASS
  1
RASTERVARIABLES
  2
AcDbRasterVariables
  3
ISM
 90
        0
280
     0
281
     0
  0
CLASS
  1
IMAGEDEF
  2
AcDbRasterImageDef
  3
ISM
 90
        0
280
     0
281
     0
  0
CLASS
  1
IMAGEDEF_REACTOR
  2
AcDbRasterImageDefReactor
  3
ISM
 90
        1
280
     0
281
     0
  0
CLASS
  1
IDBUFFER
  2
AcDbIdBuffer
  3
"Acad"
 90
        0
280
     0
281
     0
  0
CLASS
  1
SPATIAL_FILTER
  2
AcDbSpatialFilter
  3
"Acad"
 90
        0
280
     0
281
     0
  0
CLASS
  1
XRECORD
  2
AcDbXrecord
  3
"<Built In>"
 90
        0
280
     0
281
     0
  0
CLASS
  1
SORTENTSTABLE
  2
AcDbSortentsTable
  3
"AutoCAD"
 90
        0
280
     0
281
     0
  0
CLASS
  1
LAYER_INDEX
  2
AcDbLayerIndex
  3
"Acad"
 90
        0
280
     0
281
     0
  0
CLASS
  1
SPATIAL_INDEX
  2
AcDbSpatialIndex
  3
"Acad"
 90
        0
280
     0
281
     0
  0
CLASS
  1
OBJECT_PTR
  2
CAseDLPNTableRecord
  3
"ASE-LPNTableRecord"
 90
        1
280
     0
281
     0
  0
ENDSEC
  0
SECTION
  2
TABLES
  0
TABLE
  2
VPORT
  5
7
100
AcDbSymbolTable
 70
     1
  0
VPORT
  5
4C6
100
AcDbSymbolTableRecord
100
AcDbViewportTableRecord
  2
*ACTIVE
 70
     0
 10
0.0
 20
0.0
 11
1.0
 21
1.0
 12
0.0
 22
0.0
 13
0.0
 23
0.0
 14
0.0
 24
0.0
 15
0.0
 25
0.0
 16
0.0
 26
0.0
 36
1.0
 17
58.19579
 27
11.857042
 37
0.0
 40
457.641583
 41
1.545
 42
50.0
 43
0.0
 44
0.0
 50
0.0
 51
0.0
 71
     0
 72
   100
 73
     1
 74
     0
 75
     0
 76
     0
 77
     0
 78
     0
  0
ENDTAB
  0
TABLE
  2
LTYPE
  5
4
100
AcDbSymbolTable
 70
     9
  0
LTYPE
  5
11
100
AcDbSymbolTableRecord
100
AcDbLinetypeTableRecord
  2
BYBLOCK
 70
     0
  3

 72
    65
 73
     0
 40
0.0
  0
LTYPE
  5
12
100
AcDbSymbolTableRecord
100
AcDbLinetypeTableRecord
  2
BYLAYER
 70
     0
  3

 72
    65
 73
     0
 40
0.0
  0
LTYPE
  5
13
100
AcDbSymbolTableRecord
100
AcDbLinetypeTableRecord
  2
CONTINUOUS
 70
     0
  3
Solid line
 72
    65
 73
     0
 40
0.0
  0
LTYPE
  5
22
100
AcDbSymbolTableRecord
100
AcDbLinetypeTableRecord
  2
DOT
 70
    64
  3
. . . . . . . . . . . . . . . . . . . . . . . . . . . . . . . . .
 72
    65
 73
     2
 40
0.25
 49
0.0
 74
     0
 49
-0.25
 74
     0
  0
LTYPE
  5
23
100
AcDbSymbolTableRecord
100
AcDbLinetypeTableRecord
  2
HIDDEN
 70
    64
  3
__ __ __ __ __ __ __ __ __ __ __ __ __ __ __ __ __ __ __ __ __ 
 72
    65
 73
     2
 40
0.375
 49
0.25
 74
     0
 49
-0.125
 74
     0
  0
LTYPE
  5
24
100
AcDbSymbolTableRecord
100
AcDbLinetypeTableRecord
  2
DASHED
 70
    64
  3
__ __ __ __ __ __ __ __ __ __ __ __ __ __ __ __ __ __ __ __ __
 72
    65
 73
     2
 40
0.75
 49
0.5
 74
     0
 49
-0.25
 74
     0
  0
LTYPE
  5
25
100
AcDbSymbolTableRecord
100
AcDbLinetypeTableRecord
  2
DASHDOT
 70
    64
  3
__ . __ . __ . __ . __ . __ . __ . __ . __ . __ . __ . __ . _
 72
    65
 73
     4
 40
1.0
 49
0.5
 74
     0
 49
-0.25
 74
     0
 49
0.0
 74
     0
 49
-0.25
 74
     0
  0
LTYPE
  5
26
100
AcDbSymbolTableRecord
100
AcDbLinetypeTableRecord
  2
DIVIDE
 70
    64
  3
____ . . ____ . . ____ . . ____ . . ____ . . ____ . . ____ . .
 72
    65
 73
     6
 40
1.25
 49
0.5
 74
     0
 49
-0.25
 74
     0
 49
0.0
 74
     0
 49
-0.25
 74
     0
 49
0.0
 74
     0
 49
-0.25
 74
     0
  0
LTYPE
  5
27
100
AcDbSymbolTableRecord
100
AcDbLinetypeTableRecord
  2
CENTER
 70
    64
  3
____ _ ____ _ ____ _ ____ _ ____ _ ____ _ ____ _ ____ _ ____ _
 72
    65
 73
     4
 40
2.0
 49
1.25
 74
     0
 49
-0.25
 74
     0
 49
0.25
 74
     0
 49
-0.25
 74
     0
  0
ENDTAB
  0
TABLE
  2
LAYER
  5
2
100
AcDbSymbolTable
 70
     4
  0
LAYER
  5
14
102
{ACAD_XDICTIONARY
360
5F205F5F5F5F205F
102
}
100
AcDbSymbolTableRecord
100
AcDbLayerTableRecord
  2
0
 70
     0
 62
     7
  6
CONTINUOUS
  0
LAYER
  5
2A
102
{ACAD_XDICTIONARY
360
5F205F5F5F5F205F
102
}
100
AcDbSymbolTableRecord
100
AcDbLayerTableRecord
  2
1
 70
    64
 62
     7
  6
CONTINUOUS
  0
LAYER
  5
348
102
{ACAD_XDICTIONARY
360
5F205F5F5F5F205F
102
}
100
AcDbSymbolTableRecord
100
AcDbLayerTableRecord
  2
61
 70
    64
 62
     7
  6
CONTINUOUS
  0
LAYER
  5
48B
102
{ACAD_XDICTIONARY
360
5F205F5F5F5F205F
102
}
100
AcDbSymbolTableRecord
100
AcDbLayerTableRecord
  2
DEFPOINTS
 70
    64
 62
     7
  6
CONTINUOUS
  0
ENDTAB
  0
TABLE
  2
STYLE
  5
3
100
AcDbSymbolTable
 70
     4
  0
STYLE
  5
17
100
AcDbSymbolTableRecord
100
AcDbTextStyleTableRecord
  2
STANDARD
 70
     0
 40
0.0
 41
1.0
 50
0.0
 71
     0
 42
0.0
  3
txt
  4

  0
STYLE
  5
359
100
AcDbSymbolTableRecord
100
AcDbTextStyleTableRecord
  2
MONOTXT
 70
     0
 40
0.0
 41
1.0
 50
0.0
 71
     0
 42
0.2
  3
MONOTXT
  4

  0
STYLE
  5
382
100
AcDbSymbolTableRecord
100
AcDbTextStyleTableRecord
  2
TXT
 70
     0
 40
0.2
 41
1.0
 50
0.0
 71
     0
 42
0.2
  3
TXT
  4

  0
STYLE
  5
393
100
AcDbSymbolTableRecord
100
AcDbTextStyleTableRecord
  2
ROMANT
 70
     0
 40
0.2
 41
1.0
 50
0.0
 71
     0
 42
0.2
  3
ROMANT
  4

  0
ENDTAB
  0
TABLE
  2
VIEW
  5
5
100
AcDbSymbolTable
 70
     0
  0
ENDTAB
  0
TABLE
  2
UCS
  5
6
100
AcDbSymbolTable
 70
     0
  0
ENDTAB
  0
TABLE
  2
APPID
  5
8
100
AcDbSymbolTable
 70
     1
  0
APPID
  5
16
100
AcDbSymbolTableRecord
100
AcDbRegAppTableRecord
  2
ACAD
 70
     0
  0
ENDTAB
  0
TABLE
  2
DIMSTYLE
  5
9
100
AcDbSymbolTable
 70
     2
  0
DIMSTYLE
105
18
100
AcDbSymbolTableRecord
100
AcDbDimStyleTableRecord
  2
STANDARD
 70
     0
  3

  4

  5

  6

  7

 40
1.0
 41
0.18
 42
0.0625
 43
0.38
 44
0.18
 45
0.0
 46
0.0
 47
0.0
 48
0.0
140
0.18
141
0.09
142
0.0
143
25.4
144
1.0
145
0.0
146
1.0
147
0.09
 71
     0
 72
     0
 73
     1
 74
     1
 75
     0
 76
     0
 77
     0
 78
     0
170
     0
171
     2
172
     0
173
     0
174
     0
175
     0
176
     0
177
     0
178
     0
270
     2
271
     4
272
     4
273
     2
274
     2
340
17
275
     0
280
     0
281
     0
282
     0
283
     1
284
     0
285
     0
286
     0
287
     0
288
     0
  0
DIMSTYLE
105
48A
100
AcDbSymbolTableRecord
100
AcDbDimStyleTableRecord
  2
MSADIM
 70
     0
  3

  4

  5

  6

  7

 40
1.0
 41
1.5
 42
0.75
 43
0.0
 44
0.75
 45
0.0
 46
0.0
 47
0.0
 48
0.0
140
1.5
141
0.75
142
0.0
143
25.4
144
1.0
145
0.75
146
1.0
147
0.75
 71
     0
 72
     0
 73
     1
 74
     1
 75
     1
 76
     1
 77
     0
 78
     8
170
     0
171
     2
172
     0
173
     1
174
     0
175
     0
176
     0
177
     0
178
     0
270
     2
271
     4
272
     4
273
     7
274
     4
340
359
275
     0
280
     0
281
     0
282
     0
283
     1
284
     8
285
     0
286
     8
287
     3
288
     0
  0
ENDTAB
  0
TABLE
  2
BLOCK_RECORD
  5
1
100
AcDbSymbolTable
 70
     3
  0
BLOCK_RECORD
  5
A
100
AcDbSymbolTableRecord
100
AcDbBlockTableRecord
  2
*MODEL_SPACE
  0
BLOCK_RECORD
  5
B
100
AcDbSymbolTableRecord
100
AcDbBlockTableRecord
  2
*PAPER_SPACE
  0
BLOCK_RECORD
  5
3A1
102
{ACAD_XDICTIONARY
360
B995022400000001
102
}
100
AcDbSymbolTableRecord
100
AcDbBlockTableRecord
  2
LDR
  0
BLOCK_RECORD
  5
4B3
102
{ACAD_XDICTIONARY
360
B995022400000001
102
}
100
AcDbSymbolTableRecord
100
AcDbBlockTableRecord
  2
*O1
  0
BLOCK_RECORD
  5
4B9
102
{ACAD_XDICTIONARY
360
B995022400000001
102
}
100
AcDbSymbolTableRecord
100
AcDbBlockTableRecord
  2
*O2
  0
ENDTAB
  0
ENDSEC
  0
SECTION
  2
BLOCKS
  0
BLOCK
  5
D
100
AcDbEntity
  8
0
100
AcDbBlockBegin
  2
*MODEL_SPACE
 70
     0
 10
0.0
 20
0.0
 30
0.0
  3
*MODEL_SPACE
  1

  0
ENDBLK
  5
E
100
AcDbEntity
  8
0
100
AcDbBlockEnd
  0
BLOCK
  5
F
100
AcDbEntity
 67
     1
  8
0
100
AcDbBlockBegin
  2
*PAPER_SPACE
 70
     0
 10
0.0
 20
0.0
 30
0.0
  3
*PAPER_SPACE
  1

  0
ENDBLK
  5
10
100
AcDbEntity
 67
     1
  8
0
100
AcDbBlockEnd
  0
BLOCK
  5
3A2
100
AcDbEntity
  8
1
  6
CONTINUOUS
 62
     1
100
AcDbBlockBegin
  2
LDR
 70
     0
 10
0.0
 20
0.0
 30
0.0
  3
LNR
  1

  0
ELLIPSE
  5
3A3
100
AcDbEntity
  8
1
  6
CONTINUOUS
 62
     1
100
AcDbEllipse
 10
-0.004547
 20
-0.001151
 30
0.0
 11
0.007440417051956
 21
0.0006506250108083
 31
0.0
210
0.0
220
0.0
230
1.0
 40
0.122415
 41
0.8963533496766982
 42
3.1415926535897931
  0
ELLIPSE
  5
3A4
100
AcDbEntity
  8
1
  6
CONTINUOUS
 62
     1
100
AcDbEllipse
 10
-0.004669
 20
0.000882
 30
0.0
 11
0.0073185421713632
 21
-0.000731875170693
 31
0.0
210
0.0
220
0.0
230
1.0
 40
0.07063
 41
3.1407147529760402
 42
5.4181099545465106
  0
ENDBLK
  5
3A5
100
AcDbEntity
  8
1
  6
CONTINUOUS
 62
     1
100
AcDbBlockEnd
  0
BLOCK
  5
4B4
100
AcDbEntity
  8
1
  6
CONTINUOUS
 62
     7
100
AcDbBlockBegin
  2
*O1
 70
     1
 10
0.0
 20
0.0
 30
0.0
  3
*O1
  1

  0
TEXT
  5
4B5
100
AcDbEntity
  8
1
  6
CONTINUOUS
 62
     7
100
AcDbText
 10
1.125
 20
-1.125
 30
0.0
 40
2.25
  1
139.7mm
  7
MONOTXT
 11
1.125
 21
1.125
 31
0.0
210
0.0
220
0.0
230
1.0
100
AcDbText
 73
     3
  0
ENDBLK
  5
4B6
100
AcDbEntity
  8
1
  6
CONTINUOUS
 62
     7
100
AcDbBlockEnd
  0
BLOCK
  5
4BA
100
AcDbEntity
  8
1
  6
CONTINUOUS
 62
     7
100
AcDbBlockBegin
  2
*O2
 70
     1
 10
0.0
 20
0.0
 30
0.0
  3
*O2
  1

  0
TEXT
  5
4BB
100
AcDbEntity
  8
1
  6
CONTINUOUS
 62
     7
100
AcDbText
 10
1.125
 20
-1.125
 30
0.0
 40
2.25
  1
88.9mm
  7
MONOTXT
 11
1.125
 21
1.125
 31
0.0
210
0.0
220
0.0
230
1.0
100
AcDbText
 73
     3
  0
ENDBLK
  5
4BC
100
AcDbEntity
  8
1
  6
CONTINUOUS
 62
     7
100
AcDbBlockEnd
  0
ENDSEC
  0
SECTION
  2
ENTITIES
  0
LINE
  5
2B
100
AcDbEntity
  8
1
  6
CONTINUOUS
 62
     5
100
AcDbLine
 10
-91.027917
 20
142.662333
 30
0.0
 11
-57.514583
 21
142.662333
 31
0.0
  0
LINE
  5
2C
100
AcDbEntity
  8
1
  6
CONTINUOUS
 62
     5
100
AcDbLine
 10
-91.027917
 20
142.662333
 30
0.0
 11
-91.027917
 21
112.554
 31
0.0
  0
LINE
  5
2D
100
AcDbEntity
  8
1
  6
CONTINUOUS
 62
     5
100
AcDbLine
 10
-72.919583
 20
142.662333
 30
0.0
 11
-72.919583
 21
104.312333
 31
0.0
  0
LINE
  5
2E
100
AcDbEntity
  8
1
  6
CONTINUOUS
 62
     5
100
AcDbLine
 10
-72.072917
 20
142.662333
 30
0.0
 11
-72.072917
 21
104.497333
 31
0.0
  0
LINE
  5
2F
100
AcDbEntity
  8
1
  6
CONTINUOUS
 62
     5
100
AcDbLine
 10
-76.11125
 20
104.312333
 30
0.0
 11
-72.919583
 21
104.312333
 31
0.0
  0
LINE
  5
30
100
AcDbEntity
  8
1
  6
CONTINUOUS
 62
     5
100
AcDbLine
 10
-102.514583
 20
102.855667
 30
0.0
 11
-57.514583
 21
102.855667
 31
0.0
  0
LINE
  5
31
100
AcDbEntity
  8
1
  6
CONTINUOUS
 62
     5
100
AcDbLine
 10
-102.514583
 20
99.152333
 30
0.0
 11
-57.514583
 21
99.152333
 31
0.0
  0
LINE
  5
32
100
AcDbEntity
  8
1
  6
CONTINUOUS
 62
     5
100
AcDbLine
 10
-102.514583
 20
103.819
 30
0.0
 11
-102.514583
 21
99.152333
 31
0.0
  0
LINE
  5
33
100
AcDbEntity
  8
1
  6
CONTINUOUS
 62
     5
100
AcDbLine
 10
-72.072917
 20
108.470667
 30
0.0
 11
-71.067917
 21
108.470667
 31
0.0
  0
LINE
  5
34
100
AcDbEntity
  8
1
  6
CONTINUOUS
 62
     5
100
AcDbLine
 10
-71.067917
 20
104.347333
 30
0.0
 11
-64.352917
 21
104.347333
 31
0.0
  0
LINE
  5
35
100
AcDbEntity
  8
1
  6
CONTINUOUS
 62
     5
100
AcDbLine
 10
-71.067917
 20
104.347333
 30
0.0
 11
-71.067917
 21
108.470667
 31
0.0
  0
LINE
  5
36
100
AcDbEntity
  8
1
  6
CONTINUOUS
 62
     5
100
AcDbLine
 10
-103.857917
 20
89.197333
 30
0.0
 11
-103.857917
 21
112.554
 31
0.0
  0
LINE
  5
37
100
AcDbEntity
  8
1
  6
CONTINUOUS
 62
     5
100
AcDbLine
 10
-103.239583
 20
89.197333
 30
0.0
 11
-103.239583
 21
112.554
 31
0.0
  0
LWPOLYLINE
  5
38
100
AcDbEntity
  8
1
  6
CONTINUOUS
 62
     5
100
AcDbPolyline
 90
        4
 70
     1
 10
-77.332917
 20
142.659
 10
-74.89625
 20
142.659
 10
-74.89625
 20
139.982333
 10
-77.332917
 20
139.982333
  0
LINE
  5
39
100
AcDbEntity
  8
1
  6
CONTINUOUS
 62
     5
100
AcDbLine
 10
-76.71125
 20
142.062333
 30
0.0
 11
-75.51125
 21
142.062333
 31
0.0
  0
LINE
  5
3A
100
AcDbEntity
  8
1
  6
CONTINUOUS
 62
     5
100
AcDbLine
 10
-91.027917
 20
141.000667
 30
0.0
 11
-77.332917
 21
141.000667
 31
0.0
  0
LINE
  5
3B
100
AcDbEntity
  8
1
  6
CONTINUOUS
 62
     5
100
AcDbLine
 10
-76.71125
 20
141.000667
 30
0.0
 11
-75.51125
 21
141.000667
 31
0.0
  0
LINE
  5
3C
100
AcDbEntity
  8
1
  6
CONTINUOUS
 62
     5
100
AcDbLine
 10
-76.11125
 20
142.062333
 30
0.0
 11
-76.11125
 21
141.000667
 31
0.0
  0
LWPOLYLINE
  5
3D
100
AcDbEntity
  8
1
  6
CONTINUOUS
 62
     5
100
AcDbPolyline
 90
        4
 70
     1
 10
-77.329583
 20
127.377333
 10
-74.892917
 20
127.377333
 10
-74.892917
 20
124.700667
 10
-77.329583
 20
124.700667
  0
LINE
  5
3E
100
AcDbEntity
  8
1
  6
CONTINUOUS
 62
     5
100
AcDbLine
 10
-76.707917
 20
126.780667
 30
0.0
 11
-75.507917
 21
126.780667
 31
0.0
  0
LINE
  5
3F
100
AcDbEntity
  8
1
  6
CONTINUOUS
 62
     5
100
AcDbLine
 10
-76.707917
 20
125.719
 30
0.0
 11
-75.507917
 21
125.719
 31
0.0
  0
LINE
  5
40
100
AcDbEntity
  8
1
  6
CONTINUOUS
 62
     5
100
AcDbLine
 10
-76.107917
 20
126.780667
 30
0.0
 11
-76.107917
 21
125.719
 31
0.0
  0
LINE
  5
41
100
AcDbEntity
  8
1
  6
CONTINUOUS
 62
     5
100
AcDbLine
 10
-76.11125
 20
139.982333
 30
0.0
 11
-76.11125
 21
127.377333
 31
0.0
  0
LINE
  5
42
100
AcDbEntity
  8
1
  6
CONTINUOUS
 62
     5
100
AcDbLine
 10
-91.027917
 20
126.047333
 30
0.0
 11
-77.332917
 21
126.047333
 31
0.0
  0
LINE
  5
43
100
AcDbEntity
  8
1
  6
CONTINUOUS
 62
     5
100
AcDbLine
 10
-76.11125
 20
124.700667
 30
0.0
 11
-76.11125
 21
114.004
 31
0.0
  0
LINE
  5
44
100
AcDbEntity
  8
1
  6
CONTINUOUS
 62
     5
100
AcDbLine
 10
-76.11125
 20
111.327333
 30
0.0
 11
-76.11125
 21
104.312333
 31
0.0
  0
LWPOLYLINE
  5
45
100
AcDbEntity
  8
1
  6
CONTINUOUS
 62
     5
100
AcDbPolyline
 90
        4
 70
     1
 10
-77.329583
 20
114.004
 10
-74.892917
 20
114.004
 10
-74.892917
 20
111.327333
 10
-77.329583
 20
111.327333
  0
LINE
  5
46
100
AcDbEntity
  8
1
  6
CONTINUOUS
 62
     5
100
AcDbLine
 10
-76.707917
 20
113.407333
 30
0.0
 11
-75.507917
 21
113.407333
 31
0.0
  0
LINE
  5
47
100
AcDbEntity
  8
1
  6
CONTINUOUS
 62
     5
100
AcDbLine
 10
-76.707917
 20
112.345667
 30
0.0
 11
-75.507917
 21
112.345667
 31
0.0
  0
LINE
  5
48
100
AcDbEntity
  8
1
  6
CONTINUOUS
 62
     5
100
AcDbLine
 10
-76.107917
 20
113.407333
 30
0.0
 11
-76.107917
 21
112.345667
 31
0.0
  0
LINE
  5
49
100
AcDbEntity
  8
1
  6
CONTINUOUS
 62
     5
100
AcDbLine
 10
-133.362917
 20
112.554
 30
0.0
 11
-77.329583
 21
112.554
 31
0.0
  0
LWPOLYLINE
  5
4A
100
AcDbEntity
  8
1
  6
CONTINUOUS
 62
     5
100
AcDbPolyline
 90
        4
 70
     1
 10
-107.72125
 20
112.554
 10
-105.284583
 20
112.554
 10
-105.284583
 20
109.877333
 10
-107.72125
 20
109.877333
  0
LINE
  5
4B
100
AcDbEntity
  8
1
  6
CONTINUOUS
 62
     5
100
AcDbLine
 10
-107.099583
 20
111.957333
 30
0.0
 11
-105.899583
 21
111.957333
 31
0.0
  0
LINE
  5
4C
100
AcDbEntity
  8
1
  6
CONTINUOUS
 62
     5
100
AcDbLine
 10
-107.099583
 20
110.895667
 30
0.0
 11
-105.899583
 21
110.895667
 31
0.0
  0
LINE
  5
4D
100
AcDbEntity
  8
1
  6
CONTINUOUS
 62
     5
100
AcDbLine
 10
-106.499583
 20
111.957333
 30
0.0
 11
-106.499583
 21
110.895667
 31
0.0
  0
LWPOLYLINE
  5
4E
100
AcDbEntity
  8
1
  6
CONTINUOUS
 62
     5
100
AcDbPolyline
 90
        4
 70
     1
 10
-102.26125
 20
112.554
 10
-99.824583
 20
112.554
 10
-99.824583
 20
109.877333
 10
-102.26125
 20
109.877333
  0
LINE
  5
4F
100
AcDbEntity
  8
1
  6
CONTINUOUS
 62
     5
100
AcDbLine
 10
-101.639583
 20
111.957333
 30
0.0
 11
-100.439583
 21
111.957333
 31
0.0
  0
LINE
  5
50
100
AcDbEntity
  8
1
  6
CONTINUOUS
 62
     5
100
AcDbLine
 10
-101.639583
 20
110.895667
 30
0.0
 11
-100.439583
 21
110.895667
 31
0.0
  0
LINE
  5
51
100
AcDbEntity
  8
1
  6
CONTINUOUS
 62
     5
100
AcDbLine
 10
-101.039583
 20
111.957333
 30
0.0
 11
-101.039583
 21
110.895667
 31
0.0
  0
LWPOLYLINE
  5
52
100
AcDbEntity
  8
1
  6
CONTINUOUS
 62
     5
100
AcDbPolyline
 90
        4
 70
     1
 10
-107.724583
 20
97.175667
 10
-105.287917
 20
97.175667
 10
-105.287917
 20
94.499
 10
-107.724583
 20
94.499
  0
LINE
  5
53
100
AcDbEntity
  8
1
  6
CONTINUOUS
 62
     5
100
AcDbLine
 10
-107.102917
 20
96.579
 30
0.0
 11
-105.902917
 21
96.579
 31
0.0
  0
LINE
  5
54
100
AcDbEntity
  8
1
  6
CONTINUOUS
 62
     5
100
AcDbLine
 10
-107.102917
 20
95.517333
 30
0.0
 11
-105.902917
 21
95.517333
 31
0.0
  0
LINE
  5
55
100
AcDbEntity
  8
1
  6
CONTINUOUS
 62
     5
100
AcDbLine
 10
-106.502917
 20
96.579
 30
0.0
 11
-106.502917
 21
95.517333
 31
0.0
  0
LINE
  5
56
100
AcDbEntity
  8
1
  6
CONTINUOUS
 62
     5
100
AcDbLine
 10
-133.362917
 20
111.054
 30
0.0
 11
-107.72125
 21
111.054
 31
0.0
  0
LINE
  5
57
100
AcDbEntity
  8
1
  6
CONTINUOUS
 62
     5
100
AcDbLine
 10
-105.284583
 20
111.054
 30
0.0
 11
-102.26125
 21
111.054
 31
0.0
  0
LINE
  5
58
100
AcDbEntity
  8
1
  6
CONTINUOUS
 62
     5
100
AcDbLine
 10
-106.502917
 20
89.197333
 30
0.0
 11
-106.502917
 21
94.499
 31
0.0
  0
LINE
  5
59
100
AcDbEntity
  8
1
  6
CONTINUOUS
 62
     5
100
AcDbLine
 10
-106.502917
 20
97.175667
 30
0.0
 11
-106.502917
 21
109.877333
 31
0.0
  0
LINE
  5
5A
100
AcDbEntity
  8
1
  6
CONTINUOUS
 62
     5
100
AcDbLine
 10
-91.027917
 20
129.039
 30
0.0
 11
-76.11125
 21
129.039
 31
0.0
  0
LINE
  5
5B
100
AcDbEntity
  8
1
  6
CONTINUOUS
 62
     5
100
AcDbLine
 10
-72.919583
 20
129.039
 30
0.0
 11
-57.514583
 21
129.039
 31
0.0
  0
LINE
  5
5C
100
AcDbEntity
  8
1
  6
CONTINUOUS
 62
     5
100
AcDbLine
 10
-74.114583
 20
105.175667
 30
0.0
 11
-57.514583
 21
105.175667
 31
0.0
  0
LINE
  5
5D
100
AcDbEntity
  8
1
  6
CONTINUOUS
 62
     5
100
AcDbLine
 10
-99.824583
 20
111.054
 30
0.0
 11
-74.514583
 21
111.054
 31
0.0
  0
LINE
  5
5E
100
AcDbEntity
  8
1
  6
CONTINUOUS
 62
     5
100
AcDbLine
 10
-73.914583
 20
111.054
 30
0.0
 11
-57.514583
 21
111.054
 31
0.0
  0
LINE
  5
5F
100
AcDbEntity
  8
1
  6
CONTINUOUS
 62
     5
100
AcDbLine
 10
-74.892917
 20
112.554
 30
0.0
 11
-74.514583
 21
112.554
 31
0.0
  0
LINE
  5
60
100
AcDbEntity
  8
1
  6
CONTINUOUS
 62
     5
100
AcDbLine
 10
-73.914583
 20
112.554
 30
0.0
 11
-57.514583
 21
112.554
 31
0.0
  0
LINE
  5
61
100
AcDbEntity
  8
1
  6
CONTINUOUS
 62
     5
100
AcDbLine
 10
-91.027917
 20
114.004
 30
0.0
 11
-74.514583
 21
114.004
 31
0.0
  0
LINE
  5
62
100
AcDbEntity
  8
1
  6
CONTINUOUS
 62
     5
100
AcDbLine
 10
-73.914583
 20
114.004
 30
0.0
 11
-57.514583
 21
114.004
 31
0.0
  0
LINE
  5
63
100
AcDbEntity
  8
1
  6
CONTINUOUS
 62
     5
100
AcDbLine
 10
-91.027917
 20
120.015667
 30
0.0
 11
-74.914583
 21
120.015667
 31
0.0
  0
LINE
  5
64
100
AcDbEntity
  8
1
  6
CONTINUOUS
 62
     5
100
AcDbLine
 10
-74.114583
 20
120.015667
 30
0.0
 11
-57.514583
 21
120.015667
 31
0.0
  0
LINE
  5
65
100
AcDbEntity
  8
1
  6
CONTINUOUS
 62
     5
100
AcDbLine
 10
-74.89625
 20
126.047333
 30
0.0
 11
-74.714583
 21
126.047333
 31
0.0
  0
LINE
  5
66
100
AcDbEntity
  8
1
  6
CONTINUOUS
 62
     5
100
AcDbLine
 10
-74.114583
 20
126.047333
 30
0.0
 11
-57.514583
 21
126.047333
 31
0.0
  0
LINE
  5
67
100
AcDbEntity
  8
1
  6
CONTINUOUS
 62
     5
100
AcDbLine
 10
-91.027917
 20
127.377333
 30
0.0
 11
-74.714583
 21
127.377333
 31
0.0
  0
LINE
  5
68
100
AcDbEntity
  8
1
  6
CONTINUOUS
 62
     5
100
AcDbLine
 10
-74.114583
 20
127.377333
 30
0.0
 11
-57.514583
 21
127.377333
 31
0.0
  0
LINE
  5
69
100
AcDbEntity
  8
1
  6
CONTINUOUS
 62
     5
100
AcDbLine
 10
-76.11125
 20
129.039
 30
0.0
 11
-74.914583
 21
129.039
 31
0.0
  0
LINE
  5
6A
100
AcDbEntity
  8
1
  6
CONTINUOUS
 62
     5
100
AcDbLine
 10
-74.114583
 20
129.039
 30
0.0
 11
-72.919583
 21
129.039
 31
0.0
  0
LINE
  5
6B
100
AcDbEntity
  8
1
  6
CONTINUOUS
 62
     5
100
AcDbLine
 10
-74.89625
 20
141.000667
 30
0.0
 11
-74.714583
 21
141.000667
 31
0.0
  0
LINE
  5
6C
100
AcDbEntity
  8
1
  6
CONTINUOUS
 62
     5
100
AcDbLine
 10
-74.114583
 20
141.000667
 30
0.0
 11
-57.514583
 21
141.000667
 31
0.0
  0
LINE
  5
6D
100
AcDbEntity
  8
1
  6
CONTINUOUS
 62
     5
100
AcDbLine
 10
-91.027917
 20
134.964
 30
0.0
 11
-74.914583
 21
134.964
 31
0.0
  0
LINE
  5
6E
100
AcDbEntity
  8
1
  6
CONTINUOUS
 62
     5
100
AcDbLine
 10
-74.114583
 20
134.964
 30
0.0
 11
-57.514583
 21
134.964
 31
0.0
  0
LINE
  5
6F
100
AcDbEntity
  8
1
  6
CONTINUOUS
 62
     5
100
AcDbLine
 10
-74.184583
 20
107.549
 30
0.0
 11
-74.184583
 21
111.137333
 31
0.0
  0
LINE
  5
70
100
AcDbEntity
  8
1
  6
CONTINUOUS
 62
     5
100
AcDbLine
 10
-74.184583
 20
113.937333
 30
0.0
 11
-74.184583
 21
117.319
 31
0.0
  0
LINE
  5
71
100
AcDbEntity
  8
1
  6
CONTINUOUS
 62
     5
100
AcDbLine
 10
-74.184583
 20
113.137333
 30
0.0
 11
-74.184583
 21
111.937333
 31
0.0
  0
LINE
  5
72
100
AcDbEntity
  8
1
  6
CONTINUOUS
 62
     5
100
AcDbLine
 10
-133.362917
 20
105.175667
 30
0.0
 11
-105.257917
 21
105.175667
 31
0.0
  0
LINE
  5
73
100
AcDbEntity
  8
1
  6
CONTINUOUS
 62
     5
100
AcDbLine
 10
-104.257917
 20
105.175667
 30
0.0
 11
-102.839583
 21
105.175667
 31
0.0
  0
LINE
  5
74
100
AcDbEntity
  8
1
  6
CONTINUOUS
 62
     5
100
AcDbLine
 10
-101.839583
 20
105.175667
 30
0.0
 11
-74.914583
 21
105.175667
 31
0.0
  0
LINE
  5
75
100
AcDbEntity
  8
1
  6
CONTINUOUS
 62
     5
100
AcDbLine
 10
-133.362917
 20
103.819
 30
0.0
 11
-105.257917
 21
103.819
 31
0.0
  0
LINE
  5
76
100
AcDbEntity
  8
1
  6
CONTINUOUS
 62
     5
100
AcDbLine
 10
-104.257917
 20
103.819
 30
0.0
 11
-102.839583
 21
103.819
 31
0.0
  0
LINE
  5
77
100
AcDbEntity
  8
1
  6
CONTINUOUS
 62
     5
100
AcDbLine
 10
-102.514583
 20
103.819
 30
0.0
 11
-57.514583
 21
103.819
 31
0.0
  0
LINE
  5
78
100
AcDbEntity
  8
1
  6
CONTINUOUS
 62
     5
100
AcDbLine
 10
-133.362917
 20
97.940667
 30
0.0
 11
-105.242917
 21
97.940667
 31
0.0
  0
LINE
  5
79
100
AcDbEntity
  8
1
  6
CONTINUOUS
 62
     5
100
AcDbLine
 10
-104.257917
 20
97.940667
 30
0.0
 11
-102.839583
 21
97.940667
 31
0.0
  0
LINE
  5
7A
100
AcDbEntity
  8
1
  6
CONTINUOUS
 62
     5
100
AcDbLine
 10
-101.839583
 20
97.940667
 30
0.0
 11
-57.514583
 21
97.940667
 31
0.0
  0
LINE
  5
7B
100
AcDbEntity
  8
1
  6
CONTINUOUS
 62
     5
100
AcDbLine
 10
-133.362917
 20
96.734
 30
0.0
 11
-107.724583
 21
96.734
 31
0.0
  0
LINE
  5
7C
100
AcDbEntity
  8
1
  6
CONTINUOUS
 62
     5
100
AcDbLine
 10
-104.257917
 20
96.734
 30
0.0
 11
-102.839583
 21
96.734
 31
0.0
  0
LINE
  5
7D
100
AcDbEntity
  8
1
  6
CONTINUOUS
 62
     5
100
AcDbLine
 10
-101.839583
 20
96.734
 30
0.0
 11
-57.514583
 21
96.734
 31
0.0
  0
LINE
  5
7E
100
AcDbEntity
  8
1
  6
CONTINUOUS
 62
     5
100
AcDbLine
 10
-133.362917
 20
95.377333
 30
0.0
 11
-107.724583
 21
95.377333
 31
0.0
  0
LINE
  5
7F
100
AcDbEntity
  8
1
  6
CONTINUOUS
 62
     5
100
AcDbLine
 10
-104.257917
 20
95.377333
 30
0.0
 11
-102.839583
 21
95.377333
 31
0.0
  0
LINE
  5
80
100
AcDbEntity
  8
1
  6
CONTINUOUS
 62
     5
100
AcDbLine
 10
-101.839583
 20
95.377333
 30
0.0
 11
-57.514583
 21
95.377333
 31
0.0
  0
LINE
  5
81
100
AcDbEntity
  8
1
  6
CONTINUOUS
 62
     5
100
AcDbLine
 10
-101.042917
 20
89.197333
 30
0.0
 11
-101.042917
 21
100.434
 31
0.0
  0
LINE
  5
82
100
AcDbEntity
  8
1
  6
CONTINUOUS
 62
     5
100
AcDbLine
 10
-101.042917
 20
101.339
 30
0.0
 11
-101.042917
 21
109.877333
 31
0.0
  0
LINE
  5
83
100
AcDbEntity
  8
1
  6
CONTINUOUS
 62
     5
100
AcDbLine
 10
-57.514583
 20
142.662333
 30
0.0
 11
-57.514583
 21
141.000667
 31
0.0
  0
LINE
  5
84
100
AcDbEntity
  8
1
  6
CONTINUOUS
 62
     5
100
AcDbLine
 10
-58.914583
 20
137.982333
 30
0.0
 11
-56.114583
 21
137.982333
 31
0.0
  0
LINE
  5
85
100
AcDbEntity
  8
1
  6
CONTINUOUS
 62
     5
100
AcDbLine
 10
-56.114583
 20
137.982333
 30
0.0
 11
-57.53125
 21
138.609
 31
0.0
  0
LINE
  5
86
100
AcDbEntity
  8
1
  6
CONTINUOUS
 62
     5
100
AcDbLine
 10
-57.497917
 20
137.355667
 30
0.0
 11
-58.914583
 21
137.982333
 31
0.0
  0
LINE
  5
87
100
AcDbEntity
  8
1
  6
CONTINUOUS
 62
     5
100
AcDbLine
 10
-57.514583
 20
141.000667
 30
0.0
 11
-57.514583
 21
138.602333
 31
0.0
  0
LINE
  5
88
100
AcDbEntity
  8
1
  6
CONTINUOUS
 62
     5
100
AcDbLine
 10
-57.514583
 20
137.362333
 30
0.0
 11
-57.514583
 21
134.964
 31
0.0
  0
LINE
  5
89
100
AcDbEntity
  8
1
  6
CONTINUOUS
 62
     5
100
AcDbLine
 10
-57.514583
 20
134.964
 30
0.0
 11
-57.514583
 21
129.039
 31
0.0
  0
LINE
  5
8A
100
AcDbEntity
  8
1
  6
CONTINUOUS
 62
     5
100
AcDbLine
 10
-57.514583
 20
129.039
 30
0.0
 11
-57.514583
 21
126.047333
 31
0.0
  0
LINE
  5
8B
100
AcDbEntity
  8
1
  6
CONTINUOUS
 62
     5
100
AcDbLine
 10
-57.514583
 20
126.047333
 30
0.0
 11
-57.514583
 21
120.015667
 31
0.0
  0
LINE
  5
8C
100
AcDbEntity
  8
1
  6
CONTINUOUS
 62
     5
100
AcDbLine
 10
-58.914583
 20
132.002333
 30
0.0
 11
-56.114583
 21
132.002333
 31
0.0
  0
LINE
  5
8D
100
AcDbEntity
  8
1
  6
CONTINUOUS
 62
     5
100
AcDbLine
 10
-56.114583
 20
132.002333
 30
0.0
 11
-57.53125
 21
132.629
 31
0.0
  0
LINE
  5
8E
100
AcDbEntity
  8
1
  6
CONTINUOUS
 62
     5
100
AcDbLine
 10
-57.497917
 20
131.375667
 30
0.0
 11
-58.914583
 21
132.002333
 31
0.0
  0
LINE
  5
8F
100
AcDbEntity
  8
1
  6
CONTINUOUS
 62
     5
100
AcDbLine
 10
-58.914583
 20
123.032333
 30
0.0
 11
-56.114583
 21
123.032333
 31
0.0
  0
LINE
  5
90
100
AcDbEntity
  8
1
  6
CONTINUOUS
 62
     5
100
AcDbLine
 10
-56.114583
 20
123.032333
 30
0.0
 11
-57.53125
 21
123.659
 31
0.0
  0
LINE
  5
91
100
AcDbEntity
  8
1
  6
CONTINUOUS
 62
     5
100
AcDbLine
 10
-57.497917
 20
122.405667
 30
0.0
 11
-58.914583
 21
123.032333
 31
0.0
  0
LINE
  5
92
100
AcDbEntity
  8
1
  6
CONTINUOUS
 62
     5
100
AcDbLine
 10
-58.914583
 20
117.010667
 30
0.0
 11
-56.114583
 21
117.010667
 31
0.0
  0
LINE
  5
93
100
AcDbEntity
  8
1
  6
CONTINUOUS
 62
     5
100
AcDbLine
 10
-56.114583
 20
117.010667
 30
0.0
 11
-57.53125
 21
117.637333
 31
0.0
  0
LINE
  5
94
100
AcDbEntity
  8
1
  6
CONTINUOUS
 62
     5
100
AcDbLine
 10
-57.497917
 20
116.384
 30
0.0
 11
-58.914583
 21
117.010667
 31
0.0
  0
LINE
  5
95
100
AcDbEntity
  8
1
  6
CONTINUOUS
 62
     5
100
AcDbLine
 10
-57.514583
 20
114.004
 30
0.0
 11
-57.514583
 21
111.054
 31
0.0
  0
LINE
  5
96
100
AcDbEntity
  8
1
  6
CONTINUOUS
 62
     5
100
AcDbLine
 10
-57.514583
 20
105.175667
 30
0.0
 11
-57.514583
 21
102.855667
 31
0.0
  0
LINE
  5
97
100
AcDbEntity
  8
1
  6
CONTINUOUS
 62
     5
100
AcDbLine
 10
-57.514583
 20
99.152333
 30
0.0
 11
-57.514583
 21
95.377333
 31
0.0
  0
LINE
  5
98
100
AcDbEntity
  8
1
  6
CONTINUOUS
 62
     5
100
AcDbLine
 10
-58.914583
 20
108.115667
 30
0.0
 11
-56.114583
 21
108.115667
 31
0.0
  0
LINE
  5
99
100
AcDbEntity
  8
1
  6
CONTINUOUS
 62
     5
100
AcDbLine
 10
-56.114583
 20
108.115667
 30
0.0
 11
-57.53125
 21
108.742333
 31
0.0
  0
LINE
  5
9A
100
AcDbEntity
  8
1
  6
CONTINUOUS
 62
     5
100
AcDbLine
 10
-57.497917
 20
107.489
 30
0.0
 11
-58.914583
 21
108.115667
 31
0.0
  0
LINE
  5
9B
100
AcDbEntity
  8
1
  6
CONTINUOUS
 62
     5
100
AcDbLine
 10
-58.914583
 20
101.004
 30
0.0
 11
-56.114583
 21
101.004
 31
0.0
  0
LINE
  5
9C
100
AcDbEntity
  8
1
  6
CONTINUOUS
 62
     5
100
AcDbLine
 10
-56.114583
 20
101.004
 30
0.0
 11
-57.53125
 21
101.630667
 31
0.0
  0
LINE
  5
9D
100
AcDbEntity
  8
1
  6
CONTINUOUS
 62
     5
100
AcDbLine
 10
-57.497917
 20
100.377333
 30
0.0
 11
-58.914583
 21
101.004
 31
0.0
  0
LINE
  5
9E
100
AcDbEntity
  8
1
  6
CONTINUOUS
 62
     5
100
AcDbLine
 10
-58.914583
 20
92.287333
 30
0.0
 11
-56.114583
 21
92.287333
 31
0.0
  0
LINE
  5
9F
100
AcDbEntity
  8
1
  6
CONTINUOUS
 62
     5
100
AcDbLine
 10
-56.114583
 20
92.287333
 30
0.0
 11
-57.53125
 21
92.914
 31
0.0
  0
LINE
  5
A0
100
AcDbEntity
  8
1
  6
CONTINUOUS
 62
     5
100
AcDbLine
 10
-57.497917
 20
91.660667
 30
0.0
 11
-58.914583
 21
92.287333
 31
0.0
  0
LINE
  5
A1
100
AcDbEntity
  8
1
  6
CONTINUOUS
 62
     5
100
AcDbLine
 10
-57.514583
 20
95.377333
 30
0.0
 11
-57.514583
 21
92.907333
 31
0.0
  0
LINE
  5
A2
100
AcDbEntity
  8
1
  6
CONTINUOUS
 62
     5
100
AcDbLine
 10
-57.514583
 20
91.667333
 30
0.0
 11
-57.514583
 21
89.197333
 31
0.0
  0
LINE
  5
A3
100
AcDbEntity
  8
1
  6
CONTINUOUS
 62
     5
100
AcDbLine
 10
-57.514583
 20
102.855667
 30
0.0
 11
-57.514583
 21
101.624
 31
0.0
  0
LINE
  5
A4
100
AcDbEntity
  8
1
  6
CONTINUOUS
 62
     5
100
AcDbLine
 10
-57.514583
 20
100.384
 30
0.0
 11
-57.514583
 21
99.152333
 31
0.0
  0
LINE
  5
A5
100
AcDbEntity
  8
1
  6
CONTINUOUS
 62
     5
100
AcDbLine
 10
-57.514583
 20
111.054
 30
0.0
 11
-57.514583
 21
108.735667
 31
0.0
  0
LINE
  5
A6
100
AcDbEntity
  8
1
  6
CONTINUOUS
 62
     5
100
AcDbLine
 10
-57.514583
 20
107.495667
 30
0.0
 11
-57.514583
 21
105.175667
 31
0.0
  0
LINE
  5
A7
100
AcDbEntity
  8
1
  6
CONTINUOUS
 62
     5
100
AcDbLine
 10
-57.514583
 20
120.015667
 30
0.0
 11
-57.514583
 21
117.630667
 31
0.0
  0
LINE
  5
A8
100
AcDbEntity
  8
1
  6
CONTINUOUS
 62
     5
100
AcDbLine
 10
-57.514583
 20
116.390667
 30
0.0
 11
-57.514583
 21
114.004
 31
0.0
  0
LINE
  5
A9
100
AcDbEntity
  8
1
  6
CONTINUOUS
 62
     5
100
AcDbLine
 10
-68.87125
 20
87.797333
 30
0.0
 11
-68.87125
 21
90.597333
 31
0.0
  0
LINE
  5
AA
100
AcDbEntity
  8
1
  6
CONTINUOUS
 62
     5
100
AcDbLine
 10
-68.87125
 20
90.597333
 30
0.0
 11
-69.497917
 21
89.180667
 31
0.0
  0
LINE
  5
AB
100
AcDbEntity
  8
1
  6
CONTINUOUS
 62
     5
100
AcDbLine
 10
-68.244583
 20
89.214
 30
0.0
 11
-68.87125
 21
87.797333
 31
0.0
  0
LINE
  5
AC
100
AcDbEntity
  8
1
  6
CONTINUOUS
 62
     5
100
AcDbLine
 10
-125.309583
 20
87.797333
 30
0.0
 11
-125.309583
 21
90.597333
 31
0.0
  0
LINE
  5
AD
100
AcDbEntity
  8
1
  6
CONTINUOUS
 62
     5
100
AcDbLine
 10
-125.309583
 20
90.597333
 30
0.0
 11
-125.93625
 21
89.180667
 31
0.0
  0
LINE
  5
AE
100
AcDbEntity
  8
1
  6
CONTINUOUS
 62
     5
100
AcDbLine
 10
-124.682917
 20
89.214
 30
0.0
 11
-125.309583
 21
87.797333
 31
0.0
  0
LINE
  5
AF
100
AcDbEntity
  8
1
  6
CONTINUOUS
 62
     5
100
AcDbLine
 10
-95.649583
 20
87.797333
 30
0.0
 11
-95.649583
 21
90.597333
 31
0.0
  0
LINE
  5
B0
100
AcDbEntity
  8
1
  6
CONTINUOUS
 62
     5
100
AcDbLine
 10
-95.649583
 20
90.597333
 30
0.0
 11
-96.27625
 21
89.180667
 31
0.0
  0
LINE
  5
B1
100
AcDbEntity
  8
1
  6
CONTINUOUS
 62
     5
100
AcDbLine
 10
-95.022917
 20
89.214
 30
0.0
 11
-95.649583
 21
87.797333
 31
0.0
  0
LINE
  5
B2
100
AcDbEntity
  8
1
  6
CONTINUOUS
 62
     5
100
AcDbLine
 10
-133.362917
 20
89.197333
 30
0.0
 11
-125.929583
 21
89.197333
 31
0.0
  0
LINE
  5
B3
100
AcDbEntity
  8
1
  6
CONTINUOUS
 62
     5
100
AcDbLine
 10
-124.689583
 20
89.197333
 30
0.0
 11
-96.269583
 21
89.197333
 31
0.0
  0
LINE
  5
B4
100
AcDbEntity
  8
1
  6
CONTINUOUS
 62
     5
100
AcDbLine
 10
-95.029583
 20
89.197333
 30
0.0
 11
-91.079583
 21
89.197333
 31
0.0
  0
LINE
  5
B5
100
AcDbEntity
  8
1
  6
CONTINUOUS
 62
     5
100
AcDbLine
 10
-91.079583
 20
89.197333
 30
0.0
 11
-69.49125
 21
89.197333
 31
0.0
  0
LINE
  5
B6
100
AcDbEntity
  8
1
  6
CONTINUOUS
 62
     5
100
AcDbLine
 10
-68.25125
 20
89.197333
 30
0.0
 11
-57.514583
 21
89.197333
 31
0.0
  0
LINE
  5
B7
100
AcDbEntity
  8
1
  6
CONTINUOUS
 62
     5
100
AcDbLine
 10
-133.362917
 20
111.054
 30
0.0
 11
-133.362917
 21
112.554
 31
0.0
  0
LINE
  5
B8
100
AcDbEntity
  8
1
  6
CONTINUOUS
 62
     5
100
AcDbLine
 10
-133.362917
 20
103.819
 30
0.0
 11
-133.362917
 21
105.175667
 31
0.0
  0
LINE
  5
B9
100
AcDbEntity
  8
1
  6
CONTINUOUS
 62
     5
100
AcDbLine
 10
-133.362917
 20
95.377333
 30
0.0
 11
-133.362917
 21
97.940667
 31
0.0
  0
LINE
  5
BA
100
AcDbEntity
  8
1
  6
CONTINUOUS
 62
     5
100
AcDbLine
 10
-134.762917
 20
108.115667
 30
0.0
 11
-131.962917
 21
108.115667
 31
0.0
  0
LINE
  5
BB
100
AcDbEntity
  8
1
  6
CONTINUOUS
 62
     5
100
AcDbLine
 10
-131.962917
 20
108.115667
 30
0.0
 11
-133.379583
 21
108.742333
 31
0.0
  0
LINE
  5
BC
100
AcDbEntity
  8
1
  6
CONTINUOUS
 62
     5
100
AcDbLine
 10
-133.34625
 20
107.489
 30
0.0
 11
-134.762917
 21
108.115667
 31
0.0
  0
LINE
  5
BD
100
AcDbEntity
  8
1
  6
CONTINUOUS
 62
     5
100
AcDbLine
 10
-134.762917
 20
100.880667
 30
0.0
 11
-131.962917
 21
100.880667
 31
0.0
  0
LINE
  5
BE
100
AcDbEntity
  8
1
  6
CONTINUOUS
 62
     5
100
AcDbLine
 10
-131.962917
 20
100.880667
 30
0.0
 11
-133.379583
 21
101.507333
 31
0.0
  0
LINE
  5
BF
100
AcDbEntity
  8
1
  6
CONTINUOUS
 62
     5
100
AcDbLine
 10
-133.34625
 20
100.254
 30
0.0
 11
-134.762917
 21
100.880667
 31
0.0
  0
LINE
  5
C0
100
AcDbEntity
  8
1
  6
CONTINUOUS
 62
     5
100
AcDbLine
 10
-134.762917
 20
92.287333
 30
0.0
 11
-131.962917
 21
92.287333
 31
0.0
  0
LINE
  5
C1
100
AcDbEntity
  8
1
  6
CONTINUOUS
 62
     5
100
AcDbLine
 10
-131.962917
 20
92.287333
 30
0.0
 11
-133.379583
 21
92.914
 31
0.0
  0
LINE
  5
C2
100
AcDbEntity
  8
1
  6
CONTINUOUS
 62
     5
100
AcDbLine
 10
-133.34625
 20
91.660667
 30
0.0
 11
-134.762917
 21
92.287333
 31
0.0
  0
LINE
  5
C3
100
AcDbEntity
  8
1
  6
CONTINUOUS
 62
     5
100
AcDbLine
 10
-133.362917
 20
105.175667
 30
0.0
 11
-133.362917
 21
107.495667
 31
0.0
  0
LINE
  5
C4
100
AcDbEntity
  8
1
  6
CONTINUOUS
 62
     5
100
AcDbLine
 10
-133.362917
 20
108.735667
 30
0.0
 11
-133.362917
 21
111.054
 31
0.0
  0
LINE
  5
C5
100
AcDbEntity
  8
1
  6
CONTINUOUS
 62
     5
100
AcDbLine
 10
-133.362917
 20
97.940667
 30
0.0
 11
-133.362917
 21
100.260667
 31
0.0
  0
LINE
  5
C6
100
AcDbEntity
  8
1
  6
CONTINUOUS
 62
     5
100
AcDbLine
 10
-133.362917
 20
101.500667
 30
0.0
 11
-133.362917
 21
103.819
 31
0.0
  0
LINE
  5
C7
100
AcDbEntity
  8
1
  6
CONTINUOUS
 62
     5
100
AcDbLine
 10
-133.362917
 20
89.197333
 30
0.0
 11
-133.362917
 21
91.667333
 31
0.0
  0
LINE
  5
C8
100
AcDbEntity
  8
1
  6
CONTINUOUS
 62
     5
100
AcDbLine
 10
-133.362917
 20
92.907333
 30
0.0
 11
-133.362917
 21
95.377333
 31
0.0
  0
LINE
  5
C9
100
AcDbEntity
  8
1
  6
CONTINUOUS
 62
     5
100
AcDbLine
 10
-72.919583
 20
143.262333
 30
0.0
 11
-72.919583
 21
151.755667
 31
0.0
  0
LINE
  5
CA
100
AcDbEntity
  8
1
  6
CONTINUOUS
 62
     5
100
AcDbLine
 10
-91.027917
 20
151.155667
 30
0.0
 11
-72.919583
 21
151.155667
 31
0.0
  0
LINE
  5
CB
100
AcDbEntity
  8
1
  6
CONTINUOUS
 62
     5
100
AcDbLine
 10
-72.919583
 20
151.155667
 30
0.0
 11
-57.514583
 21
151.155667
 31
0.0
  0
LINE
  5
CC
100
AcDbEntity
  8
1
  6
CONTINUOUS
 62
     5
100
AcDbLine
 10
-133.962917
 20
103.819
 30
0.0
 11
-142.45625
 21
103.819
 31
0.0
  0
LINE
  5
CD
100
AcDbEntity
  8
1
  6
CONTINUOUS
 62
     5
100
AcDbLine
 10
-133.962917
 20
112.422333
 30
0.0
 11
-142.45625
 21
112.422333
 31
0.0
  0
LINE
  5
CE
100
AcDbEntity
  8
1
  6
CONTINUOUS
 62
     5
100
AcDbLine
 10
-133.962917
 20
89.049
 30
0.0
 11
-142.45625
 21
89.049
 31
0.0
  0
LINE
  5
CF
100
AcDbEntity
  8
1
  6
CONTINUOUS
 62
     5
100
AcDbLine
 10
-142.45625
 20
112.422333
 30
0.0
 11
-150.949583
 21
112.422333
 31
0.0
  0
LINE
  5
D0
100
AcDbEntity
  8
1
  6
CONTINUOUS
 62
     5
100
AcDbLine
 10
-142.45625
 20
89.049
 30
0.0
 11
-150.949583
 21
89.049
 31
0.0
  0
LINE
  5
D1
100
AcDbEntity
  8
1
  6
CONTINUOUS
 62
     5
100
AcDbLine
 10
-91.627917
 20
142.662333
 30
0.0
 11
-150.949583
 21
142.662333
 31
0.0
  0
LINE
  5
D2
100
AcDbEntity
  8
1
  6
CONTINUOUS
 62
     5
100
AcDbLine
 10
-150.349583
 20
142.662333
 30
0.0
 11
-150.349583
 21
112.422333
 31
0.0
  0
LINE
  5
D3
100
AcDbEntity
  8
1
  6
CONTINUOUS
 62
     5
100
AcDbLine
 10
-150.349583
 20
112.422333
 30
0.0
 11
-150.349583
 21
89.049
 31
0.0
  0
LINE
  5
D4
100
AcDbEntity
  8
1
  6
CONTINUOUS
 62
     5
100
AcDbLine
 10
-141.85625
 20
103.819
 30
0.0
 11
-141.85625
 21
112.422333
 31
0.0
  0
LINE
  5
D5
100
AcDbEntity
  8
1
  6
CONTINUOUS
 62
     5
100
AcDbLine
 10
-103.239583
 20
79.994
 30
0.0
 11
-103.239583
 21
88.597333
 31
0.0
  0
LINE
  5
D6
100
AcDbEntity
  8
1
  6
CONTINUOUS
 62
     5
100
AcDbLine
 10
-72.072917
 20
79.994
 30
0.0
 11
-72.072917
 21
100.898333
 31
0.0
  0
LINE
  5
D7
100
AcDbEntity
  8
1
  6
CONTINUOUS
 62
     5
100
AcDbLine
 10
-103.239583
 20
80.594
 30
0.0
 11
-72.072917
 21
80.594
 31
0.0
  0
LINE
  5
D8
100
AcDbEntity
  8
1
  6
CONTINUOUS
 62
     5
100
AcDbLine
 10
-69.709583
 20
100.645667
 30
0.0
 11
-69.709583
 21
108.649
 31
0.0
  0
LINE
  5
D9
100
AcDbEntity
  8
1
  6
CONTINUOUS
 62
     5
100
AcDbLine
 10
-65.709583
 20
100.645667
 30
0.0
 11
-65.709583
 21
108.649
 31
0.0
  0
LINE
  5
DA
100
AcDbEntity
  8
1
  6
CONTINUOUS
 62
     5
100
AcDbLine
 10
-73.166417
 20
101.645667
 30
0.0
 11
-69.709583
 21
101.645667
 31
0.0
  0
LINE
  5
DB
100
AcDbEntity
  8
1
  6
CONTINUOUS
 62
     5
100
AcDbLine
 10
-76.114583
 20
142.659
 30
0.0
 11
-73.59125
 21
146.212333
 31
0.0
  0
LINE
  5
DC
100
AcDbEntity
  8
1
  6
CONTINUOUS
 62
     5
100
AcDbLine
 10
-73.59125
 20
146.212333
 30
0.0
 11
-76.20625
 21
146.212333
 31
0.0
  0
LINE
  5
DD
100
AcDbEntity
  8
1
  6
CONTINUOUS
 62
     5
100
AcDbLine
 10
-74.499583
 20
137.500667
 30
0.0
 11
-70.107917
 21
146.212333
 31
0.0
  0
LINE
  5
DE
100
AcDbEntity
  8
1
  6
CONTINUOUS
 62
     5
100
AcDbLine
 10
-70.107917
 20
146.212333
 30
0.0
 11
-66.869583
 21
146.212333
 31
0.0
  0
LINE
  5
DF
100
AcDbEntity
  8
1
  6
CONTINUOUS
 62
     5
100
AcDbLine
 10
-65.21625
 20
151.155667
 30
0.0
 11
-62.989583
 21
158.407333
 31
0.0
  0
LINE
  5
E0
100
AcDbEntity
  8
1
  6
CONTINUOUS
 62
     5
100
AcDbLine
 10
-62.989583
 20
158.407333
 30
0.0
 11
-59.732917
 21
158.407333
 31
0.0
  0
LINE
  5
E1
100
AcDbEntity
  8
1
  6
CONTINUOUS
 62
     5
100
AcDbLine
 10
-72.007917
 20
123.077333
 30
0.0
 11
-52.147917
 21
131.897333
 31
0.0
  0
LINE
  5
E2
100
AcDbEntity
  8
1
  6
CONTINUOUS
 62
     5
100
AcDbLine
 10
-52.147917
 20
131.897333
 30
0.0
 11
-71.067917
 21
108.470667
 31
0.0
  0
LINE
  5
E3
100
AcDbEntity
  8
1
  6
CONTINUOUS
 62
     5
100
AcDbLine
 10
-52.147917
 20
131.897333
 30
0.0
 11
-47.53125
 21
131.897333
 31
0.0
  0
LINE
  5
E4
100
AcDbEntity
  8
1
  6
CONTINUOUS
 62
     5
100
AcDbLine
 10
-63.264583
 20
111.884
 30
0.0
 11
-52.517917
 21
118.555667
 31
0.0
  0
LINE
  5
E5
100
AcDbEntity
  8
1
  6
CONTINUOUS
 62
     5
100
AcDbLine
 10
-52.517917
 20
118.555667
 30
0.0
 11
-47.552917
 21
118.555667
 31
0.0
  0
LINE
  5
E6
100
AcDbEntity
  8
1
  6
CONTINUOUS
 62
     5
100
AcDbLine
 10
-57.427917
 20
106.222333
 30
0.0
 11
-45.839583
 21
106.222333
 31
0.0
  0
LINE
  5
E7
100
AcDbEntity
  8
1
  6
CONTINUOUS
 62
     5
100
AcDbLine
 10
-65.709583
 20
101.645667
 30
0.0
 11
-45.839583
 21
101.645667
 31
0.0
  0
LINE
  5
E8
100
AcDbEntity
  8
1
  6
CONTINUOUS
 62
     5
100
AcDbLine
 10
-68.059583
 20
99.197333
 30
0.0
 11
-57.49125
 21
93.564
 31
0.0
  0
LINE
  5
E9
100
AcDbEntity
  8
1
  6
CONTINUOUS
 62
     5
100
AcDbLine
 10
-57.49125
 20
93.564
 30
0.0
 11
-45.839583
 21
93.564
 31
0.0
  0
LINE
  5
EA
100
AcDbEntity
  8
1
  6
CONTINUOUS
 62
     5
100
AcDbLine
 10
-106.502917
 20
91.849
 30
0.0
 11
-113.974583
 21
82.654
 31
0.0
  0
LINE
  5
EB
100
AcDbEntity
  8
1
  6
CONTINUOUS
 62
     5
100
AcDbLine
 10
-113.974583
 20
82.654
 30
0.0
 11
-117.507917
 21
82.654
 31
0.0
  0
LINE
  5
EC
100
AcDbEntity
  8
1
  6
CONTINUOUS
 62
     5
100
AcDbLine
 10
-74.184583
 20
117.045667
 30
0.0
 11
-114.252917
 21
117.045667
 31
0.0
  0
LINE
  5
ED
100
AcDbEntity
  8
1
  6
CONTINUOUS
 62
     5
100
AcDbLine
 10
-132.542917
 20
-111.449333
 30
0.0
 11
-25.40625
 21
-111.449333
 31
0.0
  0
LINE
  5
EE
100
AcDbEntity
  8
1
  6
CONTINUOUS
 62
     5
100
AcDbLine
 10
-132.542917
 20
-45.017667
 30
0.0
 11
-132.542917
 21
-126.036
 31
0.0
  0
LINE
  5
EF
100
AcDbEntity
  8
1
  6
CONTINUOUS
 62
     5
100
AcDbLine
 10
-78.779583
 20
-15.642667
 30
0.0
 11
-78.779583
 21
-45.017667
 31
0.0
  0
LWPOLYLINE
  5
F0
100
AcDbEntity
  8
1
  6
CONTINUOUS
 62
     5
100
AcDbPolyline
 90
        4
 70
     1
 10
-55.314583
 20
-15.196
 10
-52.877917
 20
-15.196
 10
-52.877917
 20
-17.872667
 10
-55.314583
 20
-17.872667
  0
LINE
  5
F1
100
AcDbEntity
  8
1
  6
CONTINUOUS
 62
     5
100
AcDbLine
 10
-54.692917
 20
-15.792667
 30
0.0
 11
-53.492917
 21
-15.792667
 31
0.0
  0
LINE
  5
F2
100
AcDbEntity
  8
1
  6
CONTINUOUS
 62
     5
100
AcDbLine
 10
-54.692917
 20
-16.854333
 30
0.0
 11
-53.492917
 21
-16.854333
 31
0.0
  0
LINE
  5
F3
100
AcDbEntity
  8
1
  6
CONTINUOUS
 62
     5
100
AcDbLine
 10
-54.092917
 20
-15.792667
 30
0.0
 11
-54.092917
 21
-16.854333
 31
0.0
  0
LINE
  5
F4
100
AcDbEntity
  8
1
  6
CONTINUOUS
 62
     5
100
AcDbLine
 10
-78.779583
 20
-15.642667
 30
0.0
 11
-55.314583
 21
-15.642667
 31
0.0
  0
LINE
  5
F5
100
AcDbEntity
  8
1
  6
CONTINUOUS
 62
     5
100
AcDbLine
 10
-52.877917
 20
-15.642667
 30
0.0
 11
-25.40625
 21
-15.642667
 31
0.0
  0
LINE
  5
F6
100
AcDbEntity
  8
1
  6
CONTINUOUS
 62
     5
100
AcDbLine
 10
-78.779583
 20
-17.019333
 30
0.0
 11
-55.314583
 21
-17.019333
 31
0.0
  0
LWPOLYLINE
  5
F7
100
AcDbEntity
  8
1
  6
CONTINUOUS
 62
     5
100
AcDbPolyline
 90
        4
 70
     1
 10
-55.324583
 20
-29.764333
 10
-52.887917
 20
-29.764333
 10
-52.887917
 20
-32.441
 10
-55.324583
 20
-32.441
  0
LINE
  5
F8
100
AcDbEntity
  8
1
  6
CONTINUOUS
 62
     5
100
AcDbLine
 10
-54.702917
 20
-30.361
 30
0.0
 11
-53.502917
 21
-30.361
 31
0.0
  0
LINE
  5
F9
100
AcDbEntity
  8
1
  6
CONTINUOUS
 62
     5
100
AcDbLine
 10
-54.702917
 20
-31.422667
 30
0.0
 11
-53.502917
 21
-31.422667
 31
0.0
  0
LINE
  5
FA
100
AcDbEntity
  8
1
  6
CONTINUOUS
 62
     5
100
AcDbLine
 10
-54.102917
 20
-30.361
 30
0.0
 11
-54.102917
 21
-31.422667
 31
0.0
  0
LWPOLYLINE
  5
FB
100
AcDbEntity
  8
1
  6
CONTINUOUS
 62
     5
100
AcDbPolyline
 90
        4
 70
     1
 10
-55.324583
 20
-43.259333
 10
-52.887917
 20
-43.259333
 10
-52.887917
 20
-45.936
 10
-55.324583
 20
-45.936
  0
LINE
  5
FC
100
AcDbEntity
  8
1
  6
CONTINUOUS
 62
     5
100
AcDbLine
 10
-54.702917
 20
-43.856
 30
0.0
 11
-53.502917
 21
-43.856
 31
0.0
  0
LINE
  5
FD
100
AcDbEntity
  8
1
  6
CONTINUOUS
 62
     5
100
AcDbLine
 10
-54.702917
 20
-44.917667
 30
0.0
 11
-53.502917
 21
-44.917667
 31
0.0
  0
LINE
  5
FE
100
AcDbEntity
  8
1
  6
CONTINUOUS
 62
     5
100
AcDbLine
 10
-54.102917
 20
-43.856
 30
0.0
 11
-54.102917
 21
-44.917667
 31
0.0
  0
LINE
  5
FF
100
AcDbEntity
  8
1
  6
CONTINUOUS
 62
     5
100
AcDbLine
 10
-54.094583
 20
-17.872667
 30
0.0
 11
-54.094583
 21
-29.764333
 31
0.0
  0
LINE
  5
100
100
AcDbEntity
  8
1
  6
CONTINUOUS
 62
     5
100
AcDbLine
 10
-54.094583
 20
-32.441
 30
0.0
 11
-54.094583
 21
-43.259333
 31
0.0
  0
LINE
  5
101
100
AcDbEntity
  8
1
  6
CONTINUOUS
 62
     5
100
AcDbLine
 10
-54.094583
 20
-45.936
 30
0.0
 11
-54.094583
 21
-90.564333
 31
0.0
  0
LINE
  5
102
100
AcDbEntity
  8
1
  6
CONTINUOUS
 62
     5
100
AcDbLine
 10
-78.779583
 20
-30.207667
 30
0.0
 11
-55.324583
 21
-30.207667
 31
0.0
  0
LINE
  5
103
100
AcDbEntity
  8
1
  6
CONTINUOUS
 62
     5
100
AcDbLine
 10
-78.779583
 20
-31.617667
 30
0.0
 11
-55.324583
 21
-31.617667
 31
0.0
  0
LINE
  5
104
100
AcDbEntity
  8
1
  6
CONTINUOUS
 62
     5
100
AcDbLine
 10
-78.779583
 20
-43.747667
 30
0.0
 11
-55.324583
 21
-43.747667
 31
0.0
  0
LINE
  5
105
100
AcDbEntity
  8
1
  6
CONTINUOUS
 62
     5
100
AcDbLine
 10
-50.769583
 20
-15.642667
 30
0.0
 11
-50.769583
 21
-90.564333
 31
0.0
  0
LINE
  5
106
100
AcDbEntity
  8
1
  6
CONTINUOUS
 62
     5
100
AcDbLine
 10
-49.737917
 20
-15.642667
 30
0.0
 11
-49.737917
 21
-90.564333
 31
0.0
  0
LINE
  5
107
100
AcDbEntity
  8
1
  6
CONTINUOUS
 62
     5
100
AcDbLine
 10
-52.447917
 20
-69.816
 30
0.0
 11
-52.447917
 21
-74.094333
 31
0.0
  0
LINE
  5
108
100
AcDbEntity
  8
1
  6
CONTINUOUS
 62
     5
100
AcDbLine
 10
-52.447917
 20
-74.294333
 30
0.0
 11
-52.447917
 21
-74.694333
 31
0.0
  0
LINE
  5
109
100
AcDbEntity
  8
1
  6
CONTINUOUS
 62
     5
100
AcDbLine
 10
-52.447917
 20
-74.894333
 30
0.0
 11
-52.447917
 21
-79.581
 31
0.0
  0
LWPOLYLINE
  5
10A
100
AcDbEntity
  8
1
  6
CONTINUOUS
 62
     5
100
AcDbPolyline
 90
        4
 70
     1
 10
-94.099583
 20
-44.607667
 10
-91.662917
 20
-44.607667
 10
-91.662917
 20
-47.284333
 10
-94.099583
 20
-47.284333
  0
LINE
  5
10B
100
AcDbEntity
  8
1
  6
CONTINUOUS
 62
     5
100
AcDbLine
 10
-93.477917
 20
-45.204333
 30
0.0
 11
-92.277917
 21
-45.204333
 31
0.0
  0
LINE
  5
10C
100
AcDbEntity
  8
1
  6
CONTINUOUS
 62
     5
100
AcDbLine
 10
-93.477917
 20
-46.266
 30
0.0
 11
-92.277917
 21
-46.266
 31
0.0
  0
LINE
  5
10D
100
AcDbEntity
  8
1
  6
CONTINUOUS
 62
     5
100
AcDbLine
 10
-92.877917
 20
-45.204333
 30
0.0
 11
-92.877917
 21
-46.266
 31
0.0
  0
LWPOLYLINE
  5
10E
100
AcDbEntity
  8
1
  6
CONTINUOUS
 62
     5
100
AcDbPolyline
 90
        4
 70
     1
 10
-94.099583
 20
-59.362667
 10
-91.662917
 20
-59.362667
 10
-91.662917
 20
-62.039333
 10
-94.099583
 20
-62.039333
  0
LINE
  5
10F
100
AcDbEntity
  8
1
  6
CONTINUOUS
 62
     5
100
AcDbLine
 10
-93.477917
 20
-59.959333
 30
0.0
 11
-92.277917
 21
-59.959333
 31
0.0
  0
LINE
  5
110
100
AcDbEntity
  8
1
  6
CONTINUOUS
 62
     5
100
AcDbLine
 10
-93.477917
 20
-61.021
 30
0.0
 11
-92.277917
 21
-61.021
 31
0.0
  0
LINE
  5
111
100
AcDbEntity
  8
1
  6
CONTINUOUS
 62
     5
100
AcDbLine
 10
-92.877917
 20
-59.959333
 30
0.0
 11
-92.877917
 21
-61.021
 31
0.0
  0
LWPOLYLINE
  5
112
100
AcDbEntity
  8
1
  6
CONTINUOUS
 62
     5
100
AcDbPolyline
 90
        4
 70
     1
 10
-94.129583
 20
-74.072667
 10
-91.692917
 20
-74.072667
 10
-91.692917
 20
-76.749333
 10
-94.129583
 20
-76.749333
  0
LINE
  5
113
100
AcDbEntity
  8
1
  6
CONTINUOUS
 62
     5
100
AcDbLine
 10
-93.507917
 20
-74.669333
 30
0.0
 11
-92.307917
 21
-74.669333
 31
0.0
  0
LINE
  5
114
100
AcDbEntity
  8
1
  6
CONTINUOUS
 62
     5
100
AcDbLine
 10
-93.507917
 20
-75.731
 30
0.0
 11
-92.307917
 21
-75.731
 31
0.0
  0
LINE
  5
115
100
AcDbEntity
  8
1
  6
CONTINUOUS
 62
     5
100
AcDbLine
 10
-92.907917
 20
-74.669333
 30
0.0
 11
-92.907917
 21
-75.731
 31
0.0
  0
LWPOLYLINE
  5
116
100
AcDbEntity
  8
1
  6
CONTINUOUS
 62
     5
100
AcDbPolyline
 90
        4
 70
     1
 10
-94.069583
 20
-88.694333
 10
-91.632917
 20
-88.694333
 10
-91.632917
 20
-91.371
 10
-94.069583
 20
-91.371
  0
LINE
  5
117
100
AcDbEntity
  8
1
  6
CONTINUOUS
 62
     5
100
AcDbLine
 10
-93.447917
 20
-89.291
 30
0.0
 11
-92.247917
 21
-89.291
 31
0.0
  0
LINE
  5
118
100
AcDbEntity
  8
1
  6
CONTINUOUS
 62
     5
100
AcDbLine
 10
-93.447917
 20
-90.352667
 30
0.0
 11
-92.247917
 21
-90.352667
 31
0.0
  0
LINE
  5
119
100
AcDbEntity
  8
1
  6
CONTINUOUS
 62
     5
100
AcDbLine
 10
-92.847917
 20
-89.291
 30
0.0
 11
-92.847917
 21
-90.352667
 31
0.0
  0
LWPOLYLINE
  5
11A
100
AcDbEntity
  8
1
  6
CONTINUOUS
 62
     5
100
AcDbPolyline
 90
        4
 70
     1
 10
-94.069583
 20
-88.694333
 10
-91.632917
 20
-88.694333
 10
-91.632917
 20
-91.371
 10
-94.069583
 20
-91.371
  0
LINE
  5
11B
100
AcDbEntity
  8
1
  6
CONTINUOUS
 62
     5
100
AcDbLine
 10
-93.447917
 20
-89.291
 30
0.0
 11
-92.247917
 21
-89.291
 31
0.0
  0
LINE
  5
11C
100
AcDbEntity
  8
1
  6
CONTINUOUS
 62
     5
100
AcDbLine
 10
-93.447917
 20
-90.352667
 30
0.0
 11
-92.247917
 21
-90.352667
 31
0.0
  0
LINE
  5
11D
100
AcDbEntity
  8
1
  6
CONTINUOUS
 62
     5
100
AcDbLine
 10
-92.847917
 20
-89.291
 30
0.0
 11
-92.847917
 21
-90.352667
 31
0.0
  0
LWPOLYLINE
  5
11E
100
AcDbEntity
  8
1
  6
CONTINUOUS
 62
     5
100
AcDbPolyline
 90
        4
 70
     1
 10
-94.069583
 20
-103.552667
 10
-91.632917
 20
-103.552667
 10
-91.632917
 20
-106.229333
 10
-94.069583
 20
-106.229333
  0
LINE
  5
11F
100
AcDbEntity
  8
1
  6
CONTINUOUS
 62
     5
100
AcDbLine
 10
-93.447917
 20
-104.149333
 30
0.0
 11
-92.247917
 21
-104.149333
 31
0.0
  0
LINE
  5
120
100
AcDbEntity
  8
1
  6
CONTINUOUS
 62
     5
100
AcDbLine
 10
-93.447917
 20
-105.211
 30
0.0
 11
-92.247917
 21
-105.211
 31
0.0
  0
LINE
  5
121
100
AcDbEntity
  8
1
  6
CONTINUOUS
 62
     5
100
AcDbLine
 10
-92.847917
 20
-104.149333
 30
0.0
 11
-92.847917
 21
-105.211
 31
0.0
  0
LWPOLYLINE
  5
122
100
AcDbEntity
  8
1
  6
CONTINUOUS
 62
     5
100
AcDbPolyline
 90
        4
 70
     1
 10
-94.069583
 20
-117.981
 10
-91.632917
 20
-117.981
 10
-91.632917
 20
-120.657667
 10
-94.069583
 20
-120.657667
  0
LINE
  5
123
100
AcDbEntity
  8
1
  6
CONTINUOUS
 62
     5
100
AcDbLine
 10
-93.447917
 20
-118.577667
 30
0.0
 11
-92.247917
 21
-118.577667
 31
0.0
  0
LINE
  5
124
100
AcDbEntity
  8
1
  6
CONTINUOUS
 62
     5
100
AcDbLine
 10
-93.447917
 20
-119.639333
 30
0.0
 11
-92.247917
 21
-119.639333
 31
0.0
  0
LINE
  5
125
100
AcDbEntity
  8
1
  6
CONTINUOUS
 62
     5
100
AcDbLine
 10
-92.847917
 20
-118.577667
 30
0.0
 11
-92.847917
 21
-119.639333
 31
0.0
  0
LINE
  5
126
100
AcDbEntity
  8
1
  6
CONTINUOUS
 62
     5
100
AcDbLine
 10
-132.542917
 20
-45.017667
 30
0.0
 11
-94.099583
 21
-45.017667
 31
0.0
  0
LINE
  5
127
100
AcDbEntity
  8
1
  6
CONTINUOUS
 62
     5
100
AcDbLine
 10
-91.662917
 20
-45.017667
 30
0.0
 11
-55.324583
 21
-45.017667
 31
0.0
  0
LINE
  5
128
100
AcDbEntity
  8
1
  6
CONTINUOUS
 62
     5
100
AcDbLine
 10
-132.542917
 20
-46.427667
 30
0.0
 11
-94.099583
 21
-46.427667
 31
0.0
  0
LINE
  5
129
100
AcDbEntity
  8
1
  6
CONTINUOUS
 62
     5
100
AcDbLine
 10
-132.542917
 20
-59.826
 30
0.0
 11
-94.099583
 21
-59.826
 31
0.0
  0
LINE
  5
12A
100
AcDbEntity
  8
1
  6
CONTINUOUS
 62
     5
100
AcDbLine
 10
-132.542917
 20
-61.096
 30
0.0
 11
-94.099583
 21
-61.096
 31
0.0
  0
LINE
  5
12B
100
AcDbEntity
  8
1
  6
CONTINUOUS
 62
     5
100
AcDbLine
 10
-132.542917
 20
-74.494333
 30
0.0
 11
-94.129583
 21
-74.494333
 31
0.0
  0
LINE
  5
12C
100
AcDbEntity
  8
1
  6
CONTINUOUS
 62
     5
100
AcDbLine
 10
-132.542917
 20
-75.906
 30
0.0
 11
-94.129583
 21
-75.906
 31
0.0
  0
LINE
  5
12D
100
AcDbEntity
  8
1
  6
CONTINUOUS
 62
     5
100
AcDbLine
 10
-132.542917
 20
-104.046
 30
0.0
 11
-94.069583
 21
-104.046
 31
0.0
  0
LINE
  5
12E
100
AcDbEntity
  8
1
  6
CONTINUOUS
 62
     5
100
AcDbLine
 10
-91.262917
 20
-104.046
 30
0.0
 11
-25.40625
 21
-104.046
 31
0.0
  0
LINE
  5
12F
100
AcDbEntity
  8
1
  6
CONTINUOUS
 62
     5
100
AcDbLine
 10
-132.542917
 20
-105.371
 30
0.0
 11
-94.069583
 21
-105.371
 31
0.0
  0
LINE
  5
130
100
AcDbEntity
  8
1
  6
CONTINUOUS
 62
     5
100
AcDbLine
 10
-91.262917
 20
-105.371
 30
0.0
 11
-25.40625
 21
-105.371
 31
0.0
  0
LINE
  5
131
100
AcDbEntity
  8
1
  6
CONTINUOUS
 62
     5
100
AcDbLine
 10
-132.542917
 20
-118.521
 30
0.0
 11
-94.069583
 21
-118.521
 31
0.0
  0
LINE
  5
132
100
AcDbEntity
  8
1
  6
CONTINUOUS
 62
     5
100
AcDbLine
 10
-91.262917
 20
-118.521
 30
0.0
 11
-25.40625
 21
-118.521
 31
0.0
  0
LINE
  5
133
100
AcDbEntity
  8
1
  6
CONTINUOUS
 62
     5
100
AcDbLine
 10
-132.542917
 20
-119.847667
 30
0.0
 11
-94.069583
 21
-119.847667
 31
0.0
  0
LINE
  5
134
100
AcDbEntity
  8
1
  6
CONTINUOUS
 62
     5
100
AcDbLine
 10
-91.262917
 20
-119.847667
 30
0.0
 11
-25.40625
 21
-119.847667
 31
0.0
  0
LINE
  5
135
100
AcDbEntity
  8
1
  6
CONTINUOUS
 62
     5
100
AcDbLine
 10
-132.542917
 20
-89.237667
 30
0.0
 11
-94.069583
 21
-89.237667
 31
0.0
  0
LINE
  5
136
100
AcDbEntity
  8
1
  6
CONTINUOUS
 62
     5
100
AcDbLine
 10
-132.542917
 20
-90.564333
 30
0.0
 11
-94.069583
 21
-90.564333
 31
0.0
  0
LINE
  5
137
100
AcDbEntity
  8
1
  6
CONTINUOUS
 62
     5
100
AcDbLine
 10
-91.262917
 20
-90.564333
 30
0.0
 11
-25.40625
 21
-90.564333
 31
0.0
  0
LINE
  5
138
100
AcDbEntity
  8
1
  6
CONTINUOUS
 62
     5
100
AcDbLine
 10
-92.877917
 20
-47.284333
 30
0.0
 11
-92.877917
 21
-59.362667
 31
0.0
  0
LINE
  5
139
100
AcDbEntity
  8
1
  6
CONTINUOUS
 62
     5
100
AcDbLine
 10
-92.88125
 20
-62.039333
 30
0.0
 11
-92.88125
 21
-74.072667
 31
0.0
  0
LINE
  5
13A
100
AcDbEntity
  8
1
  6
CONTINUOUS
 62
     5
100
AcDbLine
 10
-92.91125
 20
-76.749333
 30
0.0
 11
-92.91125
 21
-88.694333
 31
0.0
  0
LINE
  5
13B
100
AcDbEntity
  8
1
  6
CONTINUOUS
 62
     5
100
AcDbLine
 10
-92.85125
 20
-91.371
 30
0.0
 11
-92.85125
 21
-103.552667
 31
0.0
  0
LINE
  5
13C
100
AcDbEntity
  8
1
  6
CONTINUOUS
 62
     5
100
AcDbLine
 10
-92.85125
 20
-106.229333
 30
0.0
 11
-92.85125
 21
-117.981
 31
0.0
  0
LINE
  5
13D
100
AcDbEntity
  8
1
  6
CONTINUOUS
 62
     5
100
AcDbLine
 10
-92.85125
 20
-120.657667
 30
0.0
 11
-92.85125
 21
-126.036
 31
0.0
  0
LINE
  5
13E
100
AcDbEntity
  8
1
  6
HIDDEN
 62
     5
100
AcDbLine
 10
-90.837917
 20
-45.017667
 30
0.0
 11
-90.837917
 21
-126.036
 31
0.0
  0
LINE
  5
13F
100
AcDbEntity
  8
1
  6
CONTINUOUS
 62
     5
100
AcDbLine
 10
-90.00625
 20
-45.017667
 30
0.0
 11
-90.00625
 21
-126.036
 31
0.0
  0
LINE
  5
140
100
AcDbEntity
  8
1
  6
CONTINUOUS
 62
     5
100
AcDbLine
 10
-132.542917
 20
-52.632667
 30
0.0
 11
-92.877917
 21
-52.632667
 31
0.0
  0
LINE
  5
141
100
AcDbEntity
  8
1
  6
CONTINUOUS
 62
     5
100
AcDbLine
 10
-91.877917
 20
-52.632667
 30
0.0
 11
-91.00625
 21
-52.632667
 31
0.0
  0
LINE
  5
142
100
AcDbEntity
  8
1
  6
CONTINUOUS
 62
     5
100
AcDbLine
 10
-132.542917
 20
-58.416
 30
0.0
 11
-92.877917
 21
-58.416
 31
0.0
  0
LINE
  5
143
100
AcDbEntity
  8
1
  6
CONTINUOUS
 62
     5
100
AcDbLine
 10
-91.877917
 20
-58.416
 30
0.0
 11
-91.00625
 21
-58.416
 31
0.0
  0
LINE
  5
144
100
AcDbEntity
  8
1
  6
CONTINUOUS
 62
     5
100
AcDbLine
 10
-132.542917
 20
-67.301
 30
0.0
 11
-92.88125
 21
-67.301
 31
0.0
  0
LINE
  5
145
100
AcDbEntity
  8
1
  6
CONTINUOUS
 62
     5
100
AcDbLine
 10
-91.877917
 20
-67.301
 30
0.0
 11
-91.00625
 21
-67.301
 31
0.0
  0
LINE
  5
146
100
AcDbEntity
  8
1
  6
CONTINUOUS
 62
     5
100
AcDbLine
 10
-132.542917
 20
-73.366
 30
0.0
 11
-92.88125
 21
-73.366
 31
0.0
  0
LINE
  5
147
100
AcDbEntity
  8
1
  6
CONTINUOUS
 62
     5
100
AcDbLine
 10
-91.877917
 20
-73.366
 30
0.0
 11
-91.00625
 21
-73.366
 31
0.0
  0
LINE
  5
148
100
AcDbEntity
  8
1
  6
CONTINUOUS
 62
     5
100
AcDbLine
 10
-132.542917
 20
-82.054333
 30
0.0
 11
-92.91125
 21
-82.054333
 31
0.0
  0
LINE
  5
149
100
AcDbEntity
  8
1
  6
CONTINUOUS
 62
     5
100
AcDbLine
 10
-91.877917
 20
-82.054333
 30
0.0
 11
-91.00625
 21
-82.054333
 31
0.0
  0
LINE
  5
14A
100
AcDbEntity
  8
1
  6
CONTINUOUS
 62
     5
100
AcDbLine
 10
-132.542917
 20
-87.911
 30
0.0
 11
-92.91125
 21
-87.911
 31
0.0
  0
LINE
  5
14B
100
AcDbEntity
  8
1
  6
CONTINUOUS
 62
     5
100
AcDbLine
 10
-91.877917
 20
-87.911
 30
0.0
 11
-91.00625
 21
-87.911
 31
0.0
  0
LINE
  5
14C
100
AcDbEntity
  8
1
  6
CONTINUOUS
 62
     5
100
AcDbLine
 10
-132.542917
 20
-96.531
 30
0.0
 11
-92.85125
 21
-96.531
 31
0.0
  0
LINE
  5
14D
100
AcDbEntity
  8
1
  6
CONTINUOUS
 62
     5
100
AcDbLine
 10
-91.877917
 20
-96.531
 30
0.0
 11
-91.00625
 21
-96.531
 31
0.0
  0
LINE
  5
14E
100
AcDbEntity
  8
1
  6
CONTINUOUS
 62
     5
100
AcDbLine
 10
-90.00625
 20
-96.531
 30
0.0
 11
-25.40625
 21
-96.531
 31
0.0
  0
LINE
  5
14F
100
AcDbEntity
  8
1
  6
CONTINUOUS
 62
     5
100
AcDbLine
 10
-132.542917
 20
-102.719333
 30
0.0
 11
-92.85125
 21
-102.719333
 31
0.0
  0
LINE
  5
150
100
AcDbEntity
  8
1
  6
CONTINUOUS
 62
     5
100
AcDbLine
 10
-91.877917
 20
-102.719333
 30
0.0
 11
-91.00625
 21
-102.719333
 31
0.0
  0
LINE
  5
151
100
AcDbEntity
  8
1
  6
CONTINUOUS
 62
     5
100
AcDbLine
 10
-90.00625
 20
-102.719333
 30
0.0
 11
-25.40625
 21
-102.719333
 31
0.0
  0
LINE
  5
152
100
AcDbEntity
  8
1
  6
CONTINUOUS
 62
     5
100
AcDbLine
 10
-132.542917
 20
-117.306
 30
0.0
 11
-92.85125
 21
-117.306
 31
0.0
  0
LINE
  5
153
100
AcDbEntity
  8
1
  6
CONTINUOUS
 62
     5
100
AcDbLine
 10
-91.877917
 20
-117.306
 30
0.0
 11
-91.00625
 21
-117.306
 31
0.0
  0
LINE
  5
154
100
AcDbEntity
  8
1
  6
CONTINUOUS
 62
     5
100
AcDbLine
 10
-90.00625
 20
-117.306
 30
0.0
 11
-25.40625
 21
-117.306
 31
0.0
  0
POINT
  5
155
100
AcDbEntity
  8
1
  6
CONTINUOUS
 62
     5
100
AcDbPoint
 10
-52.877917
 20
-17.019333
 30
0.0
  0
LINE
  5
156
100
AcDbEntity
  8
1
  6
CONTINUOUS
 62
     5
100
AcDbLine
 10
-51.969583
 20
-17.019333
 30
0.0
 11
-25.40625
 21
-17.019333
 31
0.0
  0
LINE
  5
157
100
AcDbEntity
  8
1
  6
CONTINUOUS
 62
     5
100
AcDbLine
 10
-78.779583
 20
-22.944333
 30
0.0
 11
-52.877917
 21
-22.944333
 31
0.0
  0
LINE
  5
158
100
AcDbEntity
  8
1
  6
CONTINUOUS
 62
     5
100
AcDbLine
 10
-51.969583
 20
-22.944333
 30
0.0
 11
-25.40625
 21
-22.944333
 31
0.0
  0
LINE
  5
159
100
AcDbEntity
  8
1
  6
CONTINUOUS
 62
     5
100
AcDbLine
 10
-78.779583
 20
-28.937667
 30
0.0
 11
-52.877917
 21
-28.937667
 31
0.0
  0
LINE
  5
15A
100
AcDbEntity
  8
1
  6
CONTINUOUS
 62
     5
100
AcDbLine
 10
-51.969583
 20
-28.937667
 30
0.0
 11
-25.40625
 21
-28.937667
 31
0.0
  0
LINE
  5
15B
100
AcDbEntity
  8
1
  6
CONTINUOUS
 62
     5
100
AcDbLine
 10
-52.887917
 20
-30.207667
 30
0.0
 11
-52.877917
 21
-30.207667
 31
0.0
  0
LINE
  5
15C
100
AcDbEntity
  8
1
  6
CONTINUOUS
 62
     5
100
AcDbLine
 10
-51.969583
 20
-30.207667
 30
0.0
 11
-25.40625
 21
-30.207667
 31
0.0
  0
LINE
  5
15D
100
AcDbEntity
  8
1
  6
CONTINUOUS
 62
     5
100
AcDbLine
 10
-52.887917
 20
-31.617667
 30
0.0
 11
-52.877917
 21
-31.617667
 31
0.0
  0
LINE
  5
15E
100
AcDbEntity
  8
1
  6
CONTINUOUS
 62
     5
100
AcDbLine
 10
-51.969583
 20
-31.617667
 30
0.0
 11
-25.40625
 21
-31.617667
 31
0.0
  0
LINE
  5
15F
100
AcDbEntity
  8
1
  6
CONTINUOUS
 62
     5
100
AcDbLine
 10
-78.779583
 20
-37.682667
 30
0.0
 11
-53.19125
 21
-37.682667
 31
0.0
  0
LINE
  5
160
100
AcDbEntity
  8
1
  6
CONTINUOUS
 62
     5
100
AcDbLine
 10
-51.70125
 20
-37.682667
 30
0.0
 11
-25.40625
 21
-37.682667
 31
0.0
  0
LINE
  5
161
100
AcDbEntity
  8
1
  6
CONTINUOUS
 62
     5
100
AcDbLine
 10
-51.70125
 20
-43.747667
 30
0.0
 11
-25.40625
 21
-43.747667
 31
0.0
  0
LINE
  5
162
100
AcDbEntity
  8
1
  6
CONTINUOUS
 62
     5
100
AcDbLine
 10
-52.887917
 20
-45.017667
 30
0.0
 11
-25.40625
 21
-45.017667
 31
0.0
  0
LINE
  5
163
100
AcDbEntity
  8
1
  6
CONTINUOUS
 62
     5
100
AcDbLine
 10
-91.662917
 20
-46.427667
 30
0.0
 11
-53.19125
 21
-46.427667
 31
0.0
  0
LINE
  5
164
100
AcDbEntity
  8
1
  6
CONTINUOUS
 62
     5
100
AcDbLine
 10
-51.70125
 20
-46.427667
 30
0.0
 11
-25.40625
 21
-46.427667
 31
0.0
  0
LINE
  5
165
100
AcDbEntity
  8
1
  6
CONTINUOUS
 62
     5
100
AcDbLine
 10
-90.00625
 20
-52.632667
 30
0.0
 11
-53.19125
 21
-52.632667
 31
0.0
  0
LINE
  5
166
100
AcDbEntity
  8
1
  6
CONTINUOUS
 62
     5
100
AcDbLine
 10
-51.70125
 20
-52.632667
 30
0.0
 11
-25.40625
 21
-52.632667
 31
0.0
  0
LINE
  5
167
100
AcDbEntity
  8
1
  6
CONTINUOUS
 62
     5
100
AcDbLine
 10
-90.00625
 20
-58.416
 30
0.0
 11
-53.19125
 21
-58.416
 31
0.0
  0
LINE
  5
168
100
AcDbEntity
  8
1
  6
CONTINUOUS
 62
     5
100
AcDbLine
 10
-51.70125
 20
-58.416
 30
0.0
 11
-25.40625
 21
-58.416
 31
0.0
  0
LINE
  5
169
100
AcDbEntity
  8
1
  6
CONTINUOUS
 62
     5
100
AcDbLine
 10
-91.262917
 20
-59.826
 30
0.0
 11
-53.19125
 21
-59.826
 31
0.0
  0
LINE
  5
16A
100
AcDbEntity
  8
1
  6
CONTINUOUS
 62
     5
100
AcDbLine
 10
-51.70125
 20
-59.826
 30
0.0
 11
-25.40625
 21
-59.826
 31
0.0
  0
LINE
  5
16B
100
AcDbEntity
  8
1
  6
CONTINUOUS
 62
     5
100
AcDbLine
 10
-91.262917
 20
-61.096
 30
0.0
 11
-53.19125
 21
-61.096
 31
0.0
  0
LINE
  5
16C
100
AcDbEntity
  8
1
  6
CONTINUOUS
 62
     5
100
AcDbLine
 10
-51.70125
 20
-61.096
 30
0.0
 11
-25.40625
 21
-61.096
 31
0.0
  0
LINE
  5
16D
100
AcDbEntity
  8
1
  6
CONTINUOUS
 62
     5
100
AcDbLine
 10
-90.00625
 20
-67.301
 30
0.0
 11
-53.19125
 21
-67.301
 31
0.0
  0
LINE
  5
16E
100
AcDbEntity
  8
1
  6
CONTINUOUS
 62
     5
100
AcDbLine
 10
-51.70125
 20
-67.301
 30
0.0
 11
-25.40625
 21
-67.301
 31
0.0
  0
LINE
  5
16F
100
AcDbEntity
  8
1
  6
CONTINUOUS
 62
     5
100
AcDbLine
 10
-90.00625
 20
-73.366
 30
0.0
 11
-53.19125
 21
-73.366
 31
0.0
  0
LINE
  5
170
100
AcDbEntity
  8
1
  6
CONTINUOUS
 62
     5
100
AcDbLine
 10
-51.70125
 20
-73.366
 30
0.0
 11
-25.40625
 21
-73.366
 31
0.0
  0
LINE
  5
171
100
AcDbEntity
  8
1
  6
CONTINUOUS
 62
     5
100
AcDbLine
 10
-91.262917
 20
-74.494333
 30
0.0
 11
-53.19125
 21
-74.494333
 31
0.0
  0
LINE
  5
172
100
AcDbEntity
  8
1
  6
CONTINUOUS
 62
     5
100
AcDbLine
 10
-51.70125
 20
-74.494333
 30
0.0
 11
-25.40625
 21
-74.494333
 31
0.0
  0
LINE
  5
173
100
AcDbEntity
  8
1
  6
CONTINUOUS
 62
     5
100
AcDbLine
 10
-91.262917
 20
-75.906
 30
0.0
 11
-53.19125
 21
-75.906
 31
0.0
  0
LINE
  5
174
100
AcDbEntity
  8
1
  6
CONTINUOUS
 62
     5
100
AcDbLine
 10
-51.70125
 20
-75.906
 30
0.0
 11
-25.40625
 21
-75.906
 31
0.0
  0
LINE
  5
175
100
AcDbEntity
  8
1
  6
CONTINUOUS
 62
     5
100
AcDbLine
 10
-90.00625
 20
-82.054333
 30
0.0
 11
-53.19125
 21
-82.054333
 31
0.0
  0
LINE
  5
176
100
AcDbEntity
  8
1
  6
CONTINUOUS
 62
     5
100
AcDbLine
 10
-51.70125
 20
-82.054333
 30
0.0
 11
-25.40625
 21
-82.054333
 31
0.0
  0
LINE
  5
177
100
AcDbEntity
  8
1
  6
CONTINUOUS
 62
     5
100
AcDbLine
 10
-90.00625
 20
-87.911
 30
0.0
 11
-53.19125
 21
-87.911
 31
0.0
  0
LINE
  5
178
100
AcDbEntity
  8
1
  6
CONTINUOUS
 62
     5
100
AcDbLine
 10
-51.70125
 20
-87.911
 30
0.0
 11
-25.40625
 21
-87.911
 31
0.0
  0
LINE
  5
179
100
AcDbEntity
  8
1
  6
CONTINUOUS
 62
     5
100
AcDbLine
 10
-91.262917
 20
-89.237667
 30
0.0
 11
-53.19125
 21
-89.237667
 31
0.0
  0
LINE
  5
17A
100
AcDbEntity
  8
1
  6
CONTINUOUS
 62
     5
100
AcDbLine
 10
-51.70125
 20
-89.237667
 30
0.0
 11
-25.40625
 21
-89.237667
 31
0.0
  0
LINE
  5
17B
100
AcDbEntity
  8
1
  6
CONTINUOUS
 62
     5
100
AcDbLine
 10
-26.80625
 20
-19.981
 30
0.0
 11
-24.00625
 21
-19.981
 31
0.0
  0
LINE
  5
17C
100
AcDbEntity
  8
1
  6
CONTINUOUS
 62
     5
100
AcDbLine
 10
-24.00625
 20
-19.981
 30
0.0
 11
-25.422917
 21
-19.354333
 31
0.0
  0
LINE
  5
17D
100
AcDbEntity
  8
1
  6
CONTINUOUS
 62
     5
100
AcDbLine
 10
-25.389583
 20
-20.607667
 30
0.0
 11
-26.80625
 21
-19.981
 31
0.0
  0
LINE
  5
17E
100
AcDbEntity
  8
1
  6
CONTINUOUS
 62
     5
100
AcDbLine
 10
-25.40625
 20
-15.642667
 30
0.0
 11
-25.40625
 21
-17.019333
 31
0.0
  0
LINE
  5
17F
100
AcDbEntity
  8
1
  6
CONTINUOUS
 62
     5
100
AcDbLine
 10
-25.40625
 20
-22.944333
 30
0.0
 11
-25.40625
 21
-28.937667
 31
0.0
  0
LINE
  5
180
100
AcDbEntity
  8
1
  6
CONTINUOUS
 62
     5
100
AcDbLine
 10
-25.40625
 20
-28.937667
 30
0.0
 11
-25.40625
 21
-46.427667
 31
0.0
  0
LINE
  5
181
100
AcDbEntity
  8
1
  6
CONTINUOUS
 62
     5
100
AcDbLine
 10
-26.80625
 20
-49.529333
 30
0.0
 11
-24.00625
 21
-49.529333
 31
0.0
  0
LINE
  5
182
100
AcDbEntity
  8
1
  6
CONTINUOUS
 62
     5
100
AcDbLine
 10
-24.00625
 20
-49.529333
 30
0.0
 11
-25.422917
 21
-48.902667
 31
0.0
  0
LINE
  5
183
100
AcDbEntity
  8
1
  6
CONTINUOUS
 62
     5
100
AcDbLine
 10
-25.389583
 20
-50.156
 30
0.0
 11
-26.80625
 21
-49.529333
 31
0.0
  0
LINE
  5
184
100
AcDbEntity
  8
1
  6
CONTINUOUS
 62
     5
100
AcDbLine
 10
-25.40625
 20
-52.632667
 30
0.0
 11
-25.40625
 21
-67.301
 31
0.0
  0
LINE
  5
185
100
AcDbEntity
  8
1
  6
CONTINUOUS
 62
     5
100
AcDbLine
 10
-25.40625
 20
-73.366
 30
0.0
 11
-25.40625
 21
-75.906
 31
0.0
  0
LINE
  5
186
100
AcDbEntity
  8
1
  6
CONTINUOUS
 62
     5
100
AcDbLine
 10
-26.80625
 20
-70.332667
 30
0.0
 11
-24.00625
 21
-70.332667
 31
0.0
  0
LINE
  5
187
100
AcDbEntity
  8
1
  6
CONTINUOUS
 62
     5
100
AcDbLine
 10
-24.00625
 20
-70.332667
 30
0.0
 11
-25.422917
 21
-69.706
 31
0.0
  0
LINE
  5
188
100
AcDbEntity
  8
1
  6
CONTINUOUS
 62
     5
100
AcDbLine
 10
-25.389583
 20
-70.959333
 30
0.0
 11
-26.80625
 21
-70.332667
 31
0.0
  0
LINE
  5
189
100
AcDbEntity
  8
1
  6
CONTINUOUS
 62
     5
100
AcDbLine
 10
-26.80625
 20
-78.979333
 30
0.0
 11
-24.00625
 21
-78.979333
 31
0.0
  0
LINE
  5
18A
100
AcDbEntity
  8
1
  6
CONTINUOUS
 62
     5
100
AcDbLine
 10
-24.00625
 20
-78.979333
 30
0.0
 11
-25.422917
 21
-78.352667
 31
0.0
  0
LINE
  5
18B
100
AcDbEntity
  8
1
  6
CONTINUOUS
 62
     5
100
AcDbLine
 10
-25.389583
 20
-79.606
 30
0.0
 11
-26.80625
 21
-78.979333
 31
0.0
  0
LINE
  5
18C
100
AcDbEntity
  8
1
  6
CONTINUOUS
 62
     5
100
AcDbLine
 10
-25.40625
 20
-82.054333
 30
0.0
 11
-25.40625
 21
-90.564333
 31
0.0
  0
LINE
  5
18D
100
AcDbEntity
  8
1
  6
CONTINUOUS
 62
     5
100
AcDbLine
 10
-26.80625
 20
-93.547667
 30
0.0
 11
-24.00625
 21
-93.547667
 31
0.0
  0
LINE
  5
18E
100
AcDbEntity
  8
1
  6
CONTINUOUS
 62
     5
100
AcDbLine
 10
-24.00625
 20
-93.547667
 30
0.0
 11
-25.422917
 21
-92.921
 31
0.0
  0
LINE
  5
18F
100
AcDbEntity
  8
1
  6
CONTINUOUS
 62
     5
100
AcDbLine
 10
-25.389583
 20
-94.174333
 30
0.0
 11
-26.80625
 21
-93.547667
 31
0.0
  0
LINE
  5
190
100
AcDbEntity
  8
1
  6
CONTINUOUS
 62
     5
100
AcDbLine
 10
-25.40625
 20
-96.531
 30
0.0
 11
-25.40625
 21
-111.449333
 31
0.0
  0
LINE
  5
191
100
AcDbEntity
  8
1
  6
CONTINUOUS
 62
     5
100
AcDbLine
 10
-25.40625
 20
-117.306
 30
0.0
 11
-25.40625
 21
-126.036
 31
0.0
  0
LINE
  5
192
100
AcDbEntity
  8
1
  6
CONTINUOUS
 62
     5
100
AcDbLine
 10
-26.80625
 20
-114.377667
 30
0.0
 11
-24.00625
 21
-114.377667
 31
0.0
  0
LINE
  5
193
100
AcDbEntity
  8
1
  6
CONTINUOUS
 62
     5
100
AcDbLine
 10
-24.00625
 20
-114.377667
 30
0.0
 11
-25.422917
 21
-113.751
 31
0.0
  0
LINE
  5
194
100
AcDbEntity
  8
1
  6
CONTINUOUS
 62
     5
100
AcDbLine
 10
-25.389583
 20
-115.004333
 30
0.0
 11
-26.80625
 21
-114.377667
 31
0.0
  0
LINE
  5
195
100
AcDbEntity
  8
1
  6
CONTINUOUS
 62
     5
100
AcDbLine
 10
-25.40625
 20
-67.301
 30
0.0
 11
-25.40625
 21
-69.712667
 31
0.0
  0
LINE
  5
196
100
AcDbEntity
  8
1
  6
CONTINUOUS
 62
     5
100
AcDbLine
 10
-25.40625
 20
-70.952667
 30
0.0
 11
-25.40625
 21
-73.366
 31
0.0
  0
LINE
  5
197
100
AcDbEntity
  8
1
  6
CONTINUOUS
 62
     5
100
AcDbLine
 10
-25.40625
 20
-75.906
 30
0.0
 11
-25.40625
 21
-78.359333
 31
0.0
  0
LINE
  5
198
100
AcDbEntity
  8
1
  6
CONTINUOUS
 62
     5
100
AcDbLine
 10
-25.40625
 20
-79.599333
 30
0.0
 11
-25.40625
 21
-82.054333
 31
0.0
  0
LINE
  5
199
100
AcDbEntity
  8
1
  6
CONTINUOUS
 62
     5
100
AcDbLine
 10
-25.40625
 20
-90.564333
 30
0.0
 11
-25.40625
 21
-92.927667
 31
0.0
  0
LINE
  5
19A
100
AcDbEntity
  8
1
  6
CONTINUOUS
 62
     5
100
AcDbLine
 10
-25.40625
 20
-94.167667
 30
0.0
 11
-25.40625
 21
-96.531
 31
0.0
  0
LINE
  5
19B
100
AcDbEntity
  8
1
  6
CONTINUOUS
 62
     5
100
AcDbLine
 10
-25.40625
 20
-111.449333
 30
0.0
 11
-25.40625
 21
-113.757667
 31
0.0
  0
LINE
  5
19C
100
AcDbEntity
  8
1
  6
CONTINUOUS
 62
     5
100
AcDbLine
 10
-25.40625
 20
-114.997667
 30
0.0
 11
-25.40625
 21
-117.306
 31
0.0
  0
LINE
  5
19D
100
AcDbEntity
  8
1
  6
CONTINUOUS
 62
     5
100
AcDbLine
 10
-25.40625
 20
-17.019333
 30
0.0
 11
-25.40625
 21
-19.361
 31
0.0
  0
LINE
  5
19E
100
AcDbEntity
  8
1
  6
CONTINUOUS
 62
     5
100
AcDbLine
 10
-25.40625
 20
-20.601
 30
0.0
 11
-25.40625
 21
-22.944333
 31
0.0
  0
LINE
  5
19F
100
AcDbEntity
  8
1
  6
CONTINUOUS
 62
     5
100
AcDbLine
 10
-25.40625
 20
-46.427667
 30
0.0
 11
-25.40625
 21
-48.909333
 31
0.0
  0
LINE
  5
1A0
100
AcDbEntity
  8
1
  6
CONTINUOUS
 62
     5
100
AcDbLine
 10
-25.40625
 20
-50.149333
 30
0.0
 11
-25.40625
 21
-52.632667
 31
0.0
  0
LINE
  5
1A1
100
AcDbEntity
  8
1
  6
CONTINUOUS
 62
     5
100
AcDbLine
 10
-120.26625
 20
-127.436
 30
0.0
 11
-120.26625
 21
-124.636
 31
0.0
  0
LINE
  5
1A2
100
AcDbEntity
  8
1
  6
CONTINUOUS
 62
     5
100
AcDbLine
 10
-120.26625
 20
-124.636
 30
0.0
 11
-120.892917
 21
-126.052667
 31
0.0
  0
LINE
  5
1A3
100
AcDbEntity
  8
1
  6
CONTINUOUS
 62
     5
100
AcDbLine
 10
-119.639583
 20
-126.019333
 30
0.0
 11
-120.26625
 21
-127.436
 31
0.0
  0
LINE
  5
1A4
100
AcDbEntity
  8
1
  6
CONTINUOUS
 62
     5
100
AcDbLine
 10
-102.58125
 20
-127.436
 30
0.0
 11
-102.58125
 21
-124.636
 31
0.0
  0
LINE
  5
1A5
100
AcDbEntity
  8
1
  6
CONTINUOUS
 62
     5
100
AcDbLine
 10
-102.58125
 20
-124.636
 30
0.0
 11
-103.207917
 21
-126.052667
 31
0.0
  0
LINE
  5
1A6
100
AcDbEntity
  8
1
  6
CONTINUOUS
 62
     5
100
AcDbLine
 10
-101.954583
 20
-126.019333
 30
0.0
 11
-102.58125
 21
-127.436
 31
0.0
  0
LINE
  5
1A7
100
AcDbEntity
  8
1
  6
CONTINUOUS
 62
     5
100
AcDbLine
 10
-74.877917
 20
-127.436
 30
0.0
 11
-74.877917
 21
-124.636
 31
0.0
  0
LINE
  5
1A8
100
AcDbEntity
  8
1
  6
CONTINUOUS
 62
     5
100
AcDbLine
 10
-74.877917
 20
-124.636
 30
0.0
 11
-75.504583
 21
-126.052667
 31
0.0
  0
LINE
  5
1A9
100
AcDbEntity
  8
1
  6
CONTINUOUS
 62
     5
100
AcDbLine
 10
-74.25125
 20
-126.019333
 30
0.0
 11
-74.877917
 21
-127.436
 31
0.0
  0
LINE
  5
1AA
100
AcDbEntity
  8
1
  6
CONTINUOUS
 62
     5
100
AcDbLine
 10
-42.61625
 20
-127.436
 30
0.0
 11
-42.61625
 21
-124.636
 31
0.0
  0
LINE
  5
1AB
100
AcDbEntity
  8
1
  6
CONTINUOUS
 62
     5
100
AcDbLine
 10
-42.61625
 20
-124.636
 30
0.0
 11
-43.242917
 21
-126.052667
 31
0.0
  0
LINE
  5
1AC
100
AcDbEntity
  8
1
  6
CONTINUOUS
 62
     5
100
AcDbLine
 10
-41.989583
 20
-126.019333
 30
0.0
 11
-42.61625
 21
-127.436
 31
0.0
  0
LINE
  5
1AD
100
AcDbEntity
  8
1
  6
CONTINUOUS
 62
     5
100
AcDbLine
 10
-132.542917
 20
-126.036
 30
0.0
 11
-120.88625
 21
-126.036
 31
0.0
  0
LINE
  5
1AE
100
AcDbEntity
  8
1
  6
CONTINUOUS
 62
     5
100
AcDbLine
 10
-119.64625
 20
-126.036
 30
0.0
 11
-103.20125
 21
-126.036
 31
0.0
  0
LINE
  5
1AF
100
AcDbEntity
  8
1
  6
CONTINUOUS
 62
     5
100
AcDbLine
 10
-101.96125
 20
-126.036
 30
0.0
 11
-92.85125
 21
-126.036
 31
0.0
  0
LINE
  5
1B0
100
AcDbEntity
  8
1
  6
CONTINUOUS
 62
     5
100
AcDbLine
 10
-92.85125
 20
-126.036
 30
0.0
 11
-75.497917
 21
-126.036
 31
0.0
  0
LINE
  5
1B1
100
AcDbEntity
  8
1
  6
CONTINUOUS
 62
     5
100
AcDbLine
 10
-74.257917
 20
-126.036
 30
0.0
 11
-43.23625
 21
-126.036
 31
0.0
  0
LINE
  5
1B2
100
AcDbEntity
  8
1
  6
CONTINUOUS
 62
     5
100
AcDbLine
 10
-41.99625
 20
-126.036
 30
0.0
 11
-25.40625
 21
-126.036
 31
0.0
  0
LINE
  5
1B3
100
AcDbEntity
  8
1
  6
CONTINUOUS
 62
     5
100
AcDbLine
 10
-54.09625
 20
-14.596
 30
0.0
 11
-54.09625
 21
-6.102667
 31
0.0
  0
LINE
  5
1B4
100
AcDbEntity
  8
1
  6
CONTINUOUS
 62
     5
100
AcDbLine
 10
-78.779583
 20
-6.702667
 30
0.0
 11
-54.09625
 21
-6.702667
 31
0.0
  0
LINE
  5
1B5
100
AcDbEntity
  8
1
  6
CONTINUOUS
 62
     5
100
AcDbLine
 10
-54.09625
 20
-6.702667
 30
0.0
 11
-25.40625
 21
-6.702667
 31
0.0
  0
LINE
  5
1B6
100
AcDbEntity
  8
1
  6
CONTINUOUS
 62
     5
100
AcDbLine
 10
-79.379583
 20
-15.642667
 30
0.0
 11
-142.082917
 21
-15.642667
 31
0.0
  0
LINE
  5
1B7
100
AcDbEntity
  8
1
  6
CONTINUOUS
 62
     5
100
AcDbLine
 10
-133.142917
 20
-45.017667
 30
0.0
 11
-142.082917
 21
-45.017667
 31
0.0
  0
LINE
  5
1B8
100
AcDbEntity
  8
1
  6
CONTINUOUS
 62
     5
100
AcDbLine
 10
-133.142917
 20
-126.036
 30
0.0
 11
-142.082917
 21
-126.036
 31
0.0
  0
LINE
  5
1B9
100
AcDbEntity
  8
1
  6
CONTINUOUS
 62
     5
100
AcDbLine
 10
-141.482917
 20
-15.642667
 30
0.0
 11
-141.482917
 21
-45.017667
 31
0.0
  0
LINE
  5
1BA
100
AcDbEntity
  8
1
  6
CONTINUOUS
 62
     5
100
AcDbLine
 10
-141.482917
 20
-45.017667
 30
0.0
 11
-141.482917
 21
-126.036
 31
0.0
  0
LINE
  5
1BB
100
AcDbEntity
  8
1
  6
CONTINUOUS
 62
     5
100
AcDbLine
 10
-132.542917
 20
-135.576
 30
0.0
 11
-132.542917
 21
-126.636
 31
0.0
  0
LINE
  5
1BC
100
AcDbEntity
  8
1
  6
CONTINUOUS
 62
     5
100
AcDbLine
 10
-90.00625
 20
-135.576
 30
0.0
 11
-90.00625
 21
-126.636
 31
0.0
  0
LINE
  5
1BD
100
AcDbEntity
  8
1
  6
CONTINUOUS
 62
     5
100
AcDbLine
 10
-25.40625
 20
-135.576
 30
0.0
 11
-25.40625
 21
-126.636
 31
0.0
  0
LINE
  5
1BE
100
AcDbEntity
  8
1
  6
CONTINUOUS
 62
     5
100
AcDbLine
 10
-132.542917
 20
-134.976
 30
0.0
 11
-90.00625
 21
-134.976
 31
0.0
  0
LINE
  5
1BF
100
AcDbEntity
  8
1
  6
CONTINUOUS
 62
     5
100
AcDbLine
 10
-90.00625
 20
-134.976
 30
0.0
 11
-25.40625
 21
-134.976
 31
0.0
  0
LINE
  5
1C0
100
AcDbEntity
  8
1
  6
CONTINUOUS
 62
     5
100
AcDbLine
 10
-39.75125
 20
-6.702667
 30
0.0
 11
-37.524583
 21
0.549
 31
0.0
  0
LINE
  5
1C1
100
AcDbEntity
  8
1
  6
CONTINUOUS
 62
     5
100
AcDbLine
 10
-55.314583
 20
-15.196
 30
0.0
 11
-57.837917
 21
-11.642667
 31
0.0
  0
LINE
  5
1C2
100
AcDbEntity
  8
1
  6
CONTINUOUS
 62
     5
100
AcDbLine
 10
-60.452917
 20
-11.642667
 30
0.0
 11
-57.837917
 21
-11.642667
 31
0.0
  0
LINE
  5
1C3
100
AcDbEntity
  8
1
  6
CONTINUOUS
 62
     5
100
AcDbLine
 10
-52.28125
 20
-20.287667
 30
0.0
 11
-47.889583
 21
-11.576
 31
0.0
  0
LINE
  5
1C4
100
AcDbEntity
  8
1
  6
CONTINUOUS
 62
     5
100
AcDbLine
 10
-47.889583
 20
-11.576
 30
0.0
 11
-44.65125
 21
-11.576
 31
0.0
  0
LINE
  5
1C5
100
AcDbEntity
  8
1
  6
CONTINUOUS
 62
     5
100
AcDbLine
 10
-37.524583
 20
0.549
 30
0.0
 11
-34.267917
 21
0.549
 31
0.0
  0
LINE
  5
1C6
100
AcDbEntity
  8
1
  6
CONTINUOUS
 62
     5
100
AcDbLine
 10
-25.40625
 20
-34.187667
 30
0.0
 11
-14.117917
 21
-34.187667
 31
0.0
  0
LINE
  5
1C7
100
AcDbEntity
  8
1
  6
CONTINUOUS
 62
     5
100
AcDbLine
 10
-30.57125
 20
-44.967667
 30
0.0
 11
-17.722917
 21
-52.014333
 31
0.0
  0
LINE
  5
1C8
100
AcDbEntity
  8
1
  6
CONTINUOUS
 62
     5
100
AcDbLine
 10
-17.722917
 20
-52.014333
 30
0.0
 11
-12.334583
 21
-52.014333
 31
0.0
  0
LINE
  5
1C9
100
AcDbEntity
  8
1
  6
CONTINUOUS
 62
     5
100
AcDbLine
 10
-52.447917
 20
-77.237667
 30
0.0
 11
-12.327917
 21
-82.324333
 31
0.0
  0
LINE
  5
1CA
100
AcDbEntity
  8
1
  6
CONTINUOUS
 62
     5
100
AcDbLine
 10
-49.737917
 20
-99.104333
 30
0.0
 11
-49.737917
 21
-91.164333
 31
0.0
  0
LINE
  5
1CB
100
AcDbEntity
  8
1
  6
CONTINUOUS
 62
     5
100
AcDbLine
 10
-49.737917
 20
-98.504333
 30
0.0
 11
-90.00625
 21
-98.504333
 31
0.0
  0
LINE
  5
1CC
100
AcDbEntity
  8
1
  6
CONTINUOUS
 62
     5
100
AcDbLine
 10
-90.00625
 20
-108.451
 30
0.0
 11
-13.347917
 21
-105.242667
 31
0.0
  0
LINE
  5
1CD
100
AcDbEntity
  8
1
  6
CONTINUOUS
 62
     5
100
AcDbLine
 10
-90.00625
 20
-122.977667
 30
0.0
 11
-84.714583
 21
-129.919333
 31
0.0
  0
LINE
  5
1CE
100
AcDbEntity
  8
1
  6
CONTINUOUS
 62
     5
100
AcDbLine
 10
-84.714583
 20
-129.919333
 30
0.0
 11
-81.012917
 21
-129.919333
 31
0.0
  0
LINE
  5
1CF
100
AcDbEntity
  8
1
  6
CONTINUOUS
 62
     5
100
AcDbLine
 10
197.320417
 20
142.565667
 30
0.0
 11
302.252083
 21
142.565667
 31
0.0
  0
LINE
  5
1D0
100
AcDbEntity
  8
1
  6
CONTINUOUS
 62
     5
100
AcDbLine
 10
302.252083
 20
142.565667
 30
0.0
 11
302.252083
 21
61.802333
 31
0.0
  0
LINE
  5
1D1
100
AcDbEntity
  8
1
  6
CONTINUOUS
 62
     5
100
AcDbLine
 10
197.320417
 20
142.565667
 30
0.0
 11
197.320417
 21
113.184
 31
0.0
  0
LINE
  5
1D2
100
AcDbEntity
  8
1
  6
CONTINUOUS
 62
     5
100
AcDbLine
 10
131.867083
 20
113.184
 30
0.0
 11
131.867083
 21
61.802333
 31
0.0
  0
LINE
  5
1D3
100
AcDbEntity
  8
1
  6
CONTINUOUS
 62
     5
100
AcDbLine
 10
223.90875
 20
142.565667
 30
0.0
 11
223.90875
 21
67.679
 31
0.0
  0
LINE
  5
1D4
100
AcDbEntity
  8
1
  6
CONTINUOUS
 62
     5
100
AcDbLine
 10
226.602083
 20
142.565667
 30
0.0
 11
226.602083
 21
67.679
 31
0.0
  0
LINE
  5
1D5
100
AcDbEntity
  8
1
  6
CONTINUOUS
 62
     5
100
AcDbLine
 10
227.612083
 20
142.565667
 30
0.0
 11
227.612083
 21
67.679
 31
0.0
  0
LINE
  5
1D6
100
AcDbEntity
  8
1
  6
CONTINUOUS
 62
     5
100
AcDbLine
 10
254.380417
 20
111.174
 30
0.0
 11
254.380417
 21
41.267333
 31
0.0
  0
LINE
  5
1D7
100
AcDbEntity
  8
1
  6
HIDDEN
 62
     5
100
AcDbLine
 10
259.472083
 20
113.184
 30
0.0
 11
259.472083
 21
41.267333
 31
0.0
  0
LINE
  5
1D8
100
AcDbEntity
  8
1
  6
HIDDEN
 62
     5
100
AcDbLine
 10
260.357083
 20
113.184
 30
0.0
 11
260.357083
 21
41.267333
 31
0.0
  0
LINE
  5
1D9
100
AcDbEntity
  8
1
  6
CONTINUOUS
 62
     5
100
AcDbLine
 10
265.450417
 20
111.240667
 30
0.0
 11
265.450417
 21
41.267333
 31
0.0
  0
LINE
  5
1DA
100
AcDbEntity
  8
1
  6
CONTINUOUS
 62
     5
100
AcDbLine
 10
272.42375
 20
142.565667
 30
0.0
 11
272.42375
 21
67.679
 31
0.0
  0
LINE
  5
1DB
100
AcDbEntity
  8
1
  6
CONTINUOUS
 62
     5
100
AcDbLine
 10
275.52375
 20
142.565667
 30
0.0
 11
275.52375
 21
67.679
 31
0.0
  0
LINE
  5
1DC
100
AcDbEntity
  8
1
  6
CONTINUOUS
 62
     5
100
AcDbLine
 10
271.425417
 20
142.565667
 30
0.0
 11
271.425417
 21
67.679
 31
0.0
  0
LWPOLYLINE
  5
1DD
100
AcDbEntity
  8
1
  6
CONTINUOUS
 62
     5
100
AcDbPolyline
 90
        4
 70
     1
 10
222.21375
 20
142.567333
 10
224.650417
 20
142.567333
 10
224.650417
 20
139.890667
 10
222.21375
 20
139.890667
  0
CIRCLE
  5
1DE
100
AcDbEntity
  8
1
  6
CONTINUOUS
 62
     5
100
AcDbCircle
 10
-76.847917
 20
141.529
 30
0.0
 40
0.169648
210
0.0
220
0.0
230
1.0
  0
CIRCLE
  5
1DF
100
AcDbEntity
  8
1
  6
CONTINUOUS
 62
     5
100
AcDbCircle
 10
-76.89625
 20
126.237333
 30
0.0
 40
0.169648
210
0.0
220
0.0
230
1.0
  0
CIRCLE
  5
1E0
100
AcDbEntity
  8
1
  6
CONTINUOUS
 62
     5
100
AcDbCircle
 10
-76.94125
 20
112.895667
 30
0.0
 40
0.169648
210
0.0
220
0.0
230
1.0
  0
CIRCLE
  5
1E1
100
AcDbEntity
  8
1
  6
CONTINUOUS
 62
     5
100
AcDbCircle
 10
-101.857917
 20
111.462333
 30
0.0
 40
0.169648
210
0.0
220
0.0
230
1.0
  0
CIRCLE
  5
1E2
100
AcDbEntity
  8
1
  6
CONTINUOUS
 62
     5
100
AcDbCircle
 10
-107.354583
 20
111.529
 30
0.0
 40
0.169648
210
0.0
220
0.0
230
1.0
  0
CIRCLE
  5
1E3
100
AcDbEntity
  8
1
  6
CONTINUOUS
 62
     5
100
AcDbCircle
 10
-107.287917
 20
96.069
 30
0.0
 40
0.169648
210
0.0
220
0.0
230
1.0
  0
CIRCLE
  5
1E4
100
AcDbEntity
  8
1
  6
CONTINUOUS
 62
     5
100
AcDbCircle
 10
-54.879583
 20
-44.486
 30
0.0
 40
0.169648
210
0.0
220
0.0
230
1.0
  0
CIRCLE
  5
1E5
100
AcDbEntity
  8
1
  6
CONTINUOUS
 62
     5
100
AcDbCircle
 10
-54.869583
 20
-16.266
 30
0.0
 40
0.169648
210
0.0
220
0.0
230
1.0
  0
CIRCLE
  5
1E6
100
AcDbEntity
  8
1
  6
CONTINUOUS
 62
     5
100
AcDbCircle
 10
-54.717917
 20
-31.141
 30
0.0
 40
0.169648
210
0.0
220
0.0
230
1.0
  0
CIRCLE
  5
1E7
100
AcDbEntity
  8
1
  6
CONTINUOUS
 62
     5
100
AcDbCircle
 10
-93.572917
 20
-45.746
 30
0.0
 40
0.169648
210
0.0
220
0.0
230
1.0
  0
CIRCLE
  5
1E8
100
AcDbEntity
  8
1
  6
CONTINUOUS
 62
     5
100
AcDbCircle
 10
-93.617917
 20
-60.579333
 30
0.0
 40
0.169648
210
0.0
220
0.0
230
1.0
  0
CIRCLE
  5
1E9
100
AcDbEntity
  8
1
  6
CONTINUOUS
 62
     5
100
AcDbCircle
 10
-93.617917
 20
-75.232667
 30
0.0
 40
0.169648
210
0.0
220
0.0
230
1.0
  0
CIRCLE
  5
1EA
100
AcDbEntity
  8
1
  6
CONTINUOUS
 62
     5
100
AcDbCircle
 10
-93.617917
 20
-89.826
 30
0.0
 40
0.169648
210
0.0
220
0.0
230
1.0
  0
CIRCLE
  5
1EB
100
AcDbEntity
  8
1
  6
CONTINUOUS
 62
     5
100
AcDbCircle
 10
-93.617917
 20
-104.596
 30
0.0
 40
0.169648
210
0.0
220
0.0
230
1.0
  0
CIRCLE
  5
1EC
100
AcDbEntity
  8
1
  6
CONTINUOUS
 62
     5
100
AcDbCircle
 10
-93.719583
 20
-119.137667
 30
0.0
 40
0.169648
210
0.0
220
0.0
230
1.0
  0
CIRCLE
  5
1ED
100
AcDbEntity
  8
1
  6
CONTINUOUS
 62
     5
100
AcDbCircle
 10
223.045417
 20
142.000667
 30
0.0
 40
0.169648
210
0.0
220
0.0
230
1.0
  0
LINE
  5
1EE
100
AcDbEntity
  8
1
  6
CONTINUOUS
 62
     5
100
AcDbLine
 10
197.320417
 20
141.132333
 30
0.0
 11
223.90875
 21
141.132333
 31
0.0
  0
LWPOLYLINE
  5
1EF
100
AcDbEntity
  8
1
  6
CONTINUOUS
 62
     5
100
AcDbPolyline
 90
        4
 70
     1
 10
275.177083
 20
142.545667
 10
277.61375
 20
142.545667
 10
277.61375
 20
139.869
 10
275.177083
 20
139.869
  0
CIRCLE
  5
1F0
100
AcDbEntity
  8
1
  6
CONTINUOUS
 62
     5
100
AcDbCircle
 10
276.79375
 20
142.100667
 30
0.0
 40
0.169648
210
0.0
220
0.0
230
1.0
  0
LINE
  5
1F1
100
AcDbEntity
  8
1
  6
CONTINUOUS
 62
     5
100
AcDbLine
 10
227.612083
 20
141.132333
 30
0.0
 11
271.425417
 21
141.132333
 31
0.0
  0
LINE
  5
1F2
100
AcDbEntity
  8
1
  6
CONTINUOUS
 62
     5
100
AcDbLine
 10
275.52375
 20
141.132333
 30
0.0
 11
302.252083
 21
141.132333
 31
0.0
  0
LWPOLYLINE
  5
1F3
100
AcDbEntity
  8
1
  6
CONTINUOUS
 62
     5
100
AcDbPolyline
 90
        4
 70
     1
 10
222.20875
 20
130.049
 10
224.645417
 20
130.049
 10
224.645417
 20
127.372333
 10
222.20875
 20
127.372333
  0
CIRCLE
  5
1F4
100
AcDbEntity
  8
1
  6
CONTINUOUS
 62
     5
100
AcDbCircle
 10
223.125417
 20
128.615667
 30
0.0
 40
0.169648
210
0.0
220
0.0
230
1.0
  0
LINE
  5
1F5
100
AcDbEntity
  8
1
  6
CONTINUOUS
 62
     5
100
AcDbLine
 10
197.320417
 20
129.339
 30
0.0
 11
223.90875
 21
129.339
 31
0.0
  0
LINE
  5
1F6
100
AcDbEntity
  8
1
  6
CONTINUOUS
 62
     5
100
AcDbLine
 10
197.320417
 20
127.924
 30
0.0
 11
223.90875
 21
127.924
 31
0.0
  0
LINE
  5
1F7
100
AcDbEntity
  8
1
  6
CONTINUOUS
 62
     5
100
AcDbLine
 10
197.320417
 20
126.509
 30
0.0
 11
223.90875
 21
126.509
 31
0.0
  0
LINE
  5
1F8
100
AcDbEntity
  8
1
  6
CONTINUOUS
 62
     5
100
AcDbLine
 10
197.320417
 20
135.235667
 30
0.0
 11
223.90875
 21
135.235667
 31
0.0
  0
LINE
  5
1F9
100
AcDbEntity
  8
1
  6
CONTINUOUS
 62
     5
100
AcDbLine
 10
197.320417
 20
120.612333
 30
0.0
 11
223.90875
 21
120.612333
 31
0.0
  0
LWPOLYLINE
  5
1FA
100
AcDbEntity
  8
1
  6
CONTINUOUS
 62
     5
100
AcDbPolyline
 90
        4
 70
     1
 10
222.06375
 20
115.345667
 10
224.500417
 20
115.345667
 10
224.500417
 20
112.669
 10
222.06375
 20
112.669
  0
CIRCLE
  5
1FB
100
AcDbEntity
  8
1
  6
CONTINUOUS
 62
     5
100
AcDbCircle
 10
222.980417
 20
113.912333
 30
0.0
 40
0.169648
210
0.0
220
0.0
230
1.0
  0
LINE
  5
1FC
100
AcDbEntity
  8
1
  6
CONTINUOUS
 62
     5
100
AcDbLine
 10
197.320417
 20
114.599
 30
0.0
 11
223.90875
 21
114.599
 31
0.0
  0
LWPOLYLINE
  5
1FD
100
AcDbEntity
  8
1
  6
CONTINUOUS
 62
     5
100
AcDbPolyline
 90
        4
 70
     1
 10
222.030417
 20
100.572333
 10
224.467083
 20
100.572333
 10
224.467083
 20
97.895667
 10
222.030417
 20
97.895667
  0
CIRCLE
  5
1FE
100
AcDbEntity
  8
1
  6
CONTINUOUS
 62
     5
100
AcDbCircle
 10
222.947083
 20
99.139
 30
0.0
 40
0.169648
210
0.0
220
0.0
230
1.0
  0
LWPOLYLINE
  5
1FF
100
AcDbEntity
  8
1
  6
CONTINUOUS
 62
     5
100
AcDbPolyline
 90
        4
 70
     1
 10
222.07875
 20
85.660667
 10
224.515417
 20
85.660667
 10
224.515417
 20
82.984
 10
222.07875
 20
82.984
  0
CIRCLE
  5
200
100
AcDbEntity
  8
1
  6
CONTINUOUS
 62
     5
100
AcDbCircle
 10
222.995417
 20
84.227333
 30
0.0
 40
0.169648
210
0.0
220
0.0
230
1.0
  0
LWPOLYLINE
  5
201
100
AcDbEntity
  8
1
  6
CONTINUOUS
 62
     5
100
AcDbPolyline
 90
        4
 70
     1
 10
222.002083
 20
71.035667
 10
224.43875
 20
71.035667
 10
224.43875
 20
68.359
 10
222.002083
 20
68.359
  0
CIRCLE
  5
202
100
AcDbEntity
  8
1
  6
CONTINUOUS
 62
     5
100
AcDbCircle
 10
222.91875
 20
69.602333
 30
0.0
 40
0.169648
210
0.0
220
0.0
230
1.0
  0
LINE
  5
203
100
AcDbEntity
  8
1
  6
CONTINUOUS
 62
     5
100
AcDbLine
 10
225.255417
 20
142.565667
 30
0.0
 11
225.255417
 21
131.540667
 31
0.0
  0
LINE
  5
204
100
AcDbEntity
  8
1
  6
CONTINUOUS
 62
     5
100
AcDbLine
 10
225.255417
 20
130.202333
 30
0.0
 11
225.255417
 21
128.432333
 31
0.0
  0
LINE
  5
205
100
AcDbEntity
  8
1
  6
CONTINUOUS
 62
     5
100
AcDbLine
 10
225.255417
 20
126.999
 30
0.0
 11
225.255417
 21
115.152333
 31
0.0
  0
LINE
  5
206
100
AcDbEntity
  8
1
  6
CONTINUOUS
 62
     5
100
AcDbLine
 10
225.255417
 20
114.134
 30
0.0
 11
225.255417
 21
112.214
 31
0.0
  0
LINE
  5
207
100
AcDbEntity
  8
1
  6
CONTINUOUS
 62
     5
100
AcDbLine
 10
225.255417
 20
111.504
 30
0.0
 11
225.255417
 21
100.052333
 31
0.0
  0
LINE
  5
208
100
AcDbEntity
  8
1
  6
CONTINUOUS
 62
     5
100
AcDbLine
 10
225.255417
 20
98.729
 30
0.0
 11
225.255417
 21
97.140667
 31
0.0
  0
LINE
  5
209
100
AcDbEntity
  8
1
  6
CONTINUOUS
 62
     5
100
AcDbLine
 10
225.255417
 20
96.104
 30
0.0
 11
225.255417
 21
84.550667
 31
0.0
  0
LINE
  5
20A
100
AcDbEntity
  8
1
  6
CONTINUOUS
 62
     5
100
AcDbLine
 10
225.255417
 20
83.310667
 30
0.0
 11
225.255417
 21
81.800667
 31
0.0
  0
LINE
  5
20B
100
AcDbEntity
  8
1
  6
CONTINUOUS
 62
     5
100
AcDbLine
 10
225.255417
 20
80.669
 30
0.0
 11
225.255417
 21
67.679
 31
0.0
  0
LINE
  5
20C
100
AcDbEntity
  8
1
  6
CONTINUOUS
 62
     5
100
AcDbLine
 10
273.752083
 20
142.565667
 30
0.0
 11
273.752083
 21
131.540667
 31
0.0
  0
LINE
  5
20D
100
AcDbEntity
  8
1
  6
CONTINUOUS
 62
     5
100
AcDbLine
 10
273.752083
 20
130.202333
 30
0.0
 11
273.752083
 21
128.432333
 31
0.0
  0
LINE
  5
20E
100
AcDbEntity
  8
1
  6
CONTINUOUS
 62
     5
100
AcDbLine
 10
273.752083
 20
126.999
 30
0.0
 11
273.752083
 21
115.152333
 31
0.0
  0
LINE
  5
20F
100
AcDbEntity
  8
1
  6
CONTINUOUS
 62
     5
100
AcDbLine
 10
273.752083
 20
114.134
 30
0.0
 11
273.752083
 21
112.214
 31
0.0
  0
LINE
  5
210
100
AcDbEntity
  8
1
  6
CONTINUOUS
 62
     5
100
AcDbLine
 10
273.752083
 20
111.504
 30
0.0
 11
273.752083
 21
100.052333
 31
0.0
  0
LINE
  5
211
100
AcDbEntity
  8
1
  6
CONTINUOUS
 62
     5
100
AcDbLine
 10
273.752083
 20
98.729
 30
0.0
 11
273.752083
 21
97.140667
 31
0.0
  0
LINE
  5
212
100
AcDbEntity
  8
1
  6
CONTINUOUS
 62
     5
100
AcDbLine
 10
273.752083
 20
96.104
 30
0.0
 11
273.752083
 21
84.550667
 31
0.0
  0
LINE
  5
213
100
AcDbEntity
  8
1
  6
CONTINUOUS
 62
     5
100
AcDbLine
 10
273.752083
 20
83.310667
 30
0.0
 11
273.752083
 21
81.800667
 31
0.0
  0
LINE
  5
214
100
AcDbEntity
  8
1
  6
CONTINUOUS
 62
     5
100
AcDbLine
 10
273.752083
 20
80.669
 30
0.0
 11
273.752083
 21
67.679
 31
0.0
  0
LWPOLYLINE
  5
215
100
AcDbEntity
  8
1
  6
CONTINUOUS
 62
     5
100
AcDbPolyline
 90
        4
 70
     1
 10
277.540417
 20
129.932333
 10
275.10375
 20
129.932333
 10
275.10375
 20
127.255667
 10
277.540417
 20
127.255667
  0
CIRCLE
  5
216
100
AcDbEntity
  8
1
  6
CONTINUOUS
 62
     5
100
AcDbCircle
 10
276.720417
 20
128.717333
 30
0.0
 40
0.169648
210
0.0
220
0.0
230
1.0
  0
LINE
  5
217
100
AcDbEntity
  8
1
  6
CONTINUOUS
 62
     5
100
AcDbLine
 10
227.612083
 20
129.339
 30
0.0
 11
271.425417
 21
129.339
 31
0.0
  0
LINE
  5
218
100
AcDbEntity
  8
1
  6
CONTINUOUS
 62
     5
100
AcDbLine
 10
275.52375
 20
129.339
 30
0.0
 11
302.252083
 21
129.339
 31
0.0
  0
LINE
  5
219
100
AcDbEntity
  8
1
  6
CONTINUOUS
 62
     5
100
AcDbLine
 10
227.612083
 20
127.924
 30
0.0
 11
271.425417
 21
127.924
 31
0.0
  0
LINE
  5
21A
100
AcDbEntity
  8
1
  6
CONTINUOUS
 62
     5
100
AcDbLine
 10
275.52375
 20
127.924
 30
0.0
 11
302.252083
 21
127.924
 31
0.0
  0
LINE
  5
21B
100
AcDbEntity
  8
1
  6
CONTINUOUS
 62
     5
100
AcDbLine
 10
227.612083
 20
126.509
 30
0.0
 11
271.425417
 21
126.509
 31
0.0
  0
LINE
  5
21C
100
AcDbEntity
  8
1
  6
CONTINUOUS
 62
     5
100
AcDbLine
 10
275.52375
 20
126.509
 30
0.0
 11
302.252083
 21
126.509
 31
0.0
  0
LINE
  5
21D
100
AcDbEntity
  8
1
  6
CONTINUOUS
 62
     5
100
AcDbLine
 10
227.612083
 20
135.235667
 30
0.0
 11
271.425417
 21
135.235667
 31
0.0
  0
LINE
  5
21E
100
AcDbEntity
  8
1
  6
CONTINUOUS
 62
     5
100
AcDbLine
 10
275.52375
 20
135.235667
 30
0.0
 11
302.252083
 21
135.235667
 31
0.0
  0
LINE
  5
21F
100
AcDbEntity
  8
1
  6
CONTINUOUS
 62
     5
100
AcDbLine
 10
227.612083
 20
120.612333
 30
0.0
 11
271.425417
 21
120.612333
 31
0.0
  0
LINE
  5
220
100
AcDbEntity
  8
1
  6
CONTINUOUS
 62
     5
100
AcDbLine
 10
275.52375
 20
120.612333
 30
0.0
 11
302.252083
 21
120.612333
 31
0.0
  0
LWPOLYLINE
  5
221
100
AcDbEntity
  8
1
  6
CONTINUOUS
 62
     5
100
AcDbPolyline
 90
        4
 70
     1
 10
277.540417
 20
115.285667
 10
275.10375
 20
115.285667
 10
275.10375
 20
112.609
 10
277.540417
 20
112.609
  0
CIRCLE
  5
222
100
AcDbEntity
  8
1
  6
CONTINUOUS
 62
     5
100
AcDbCircle
 10
276.720417
 20
114.070667
 30
0.0
 40
0.169648
210
0.0
220
0.0
230
1.0
  0
LINE
  5
223
100
AcDbEntity
  8
1
  6
CONTINUOUS
 62
     5
100
AcDbLine
 10
227.612083
 20
114.599
 30
0.0
 11
271.425417
 21
114.599
 31
0.0
  0
LINE
  5
224
100
AcDbEntity
  8
1
  6
CONTINUOUS
 62
     5
100
AcDbLine
 10
275.52375
 20
114.599
 30
0.0
 11
302.252083
 21
114.599
 31
0.0
  0
LINE
  5
225
100
AcDbEntity
  8
1
  6
CONTINUOUS
 62
     5
100
AcDbLine
 10
275.52375
 20
113.184
 30
0.0
 11
302.252083
 21
113.184
 31
0.0
  0
LINE
  5
226
100
AcDbEntity
  8
1
  6
CONTINUOUS
 62
     5
100
AcDbLine
 10
275.52375
 20
111.885667
 30
0.0
 11
302.252083
 21
111.885667
 31
0.0
  0
LWPOLYLINE
  5
227
100
AcDbEntity
  8
1
  6
CONTINUOUS
 62
     5
100
AcDbPolyline
 90
        4
 70
     1
 10
277.45375
 20
100.575667
 10
275.017083
 20
100.575667
 10
275.017083
 20
97.899
 10
277.45375
 20
97.899
  0
CIRCLE
  5
228
100
AcDbEntity
  8
1
  6
CONTINUOUS
 62
     5
100
AcDbCircle
 10
276.63375
 20
99.360667
 30
0.0
 40
0.169648
210
0.0
220
0.0
230
1.0
  0
LINE
  5
229
100
AcDbEntity
  8
1
  6
CONTINUOUS
 62
     5
100
AcDbLine
 10
275.52375
 20
105.814
 30
0.0
 11
302.252083
 21
105.814
 31
0.0
  0
LINE
  5
22A
100
AcDbEntity
  8
1
  6
CONTINUOUS
 62
     5
100
AcDbLine
 10
275.52375
 20
99.937333
 30
0.0
 11
302.252083
 21
99.937333
 31
0.0
  0
LINE
  5
22B
100
AcDbEntity
  8
1
  6
CONTINUOUS
 62
     5
100
AcDbLine
 10
275.52375
 20
98.562333
 30
0.0
 11
302.252083
 21
98.562333
 31
0.0
  0
LINE
  5
22C
100
AcDbEntity
  8
1
  6
CONTINUOUS
 62
     5
100
AcDbLine
 10
275.52375
 20
97.312333
 30
0.0
 11
302.252083
 21
97.312333
 31
0.0
  0
LINE
  5
22D
100
AcDbEntity
  8
1
  6
CONTINUOUS
 62
     5
100
AcDbLine
 10
275.52375
 20
91.060667
 30
0.0
 11
302.252083
 21
91.060667
 31
0.0
  0
LWPOLYLINE
  5
22E
100
AcDbEntity
  8
1
  6
CONTINUOUS
 62
     5
100
AcDbPolyline
 90
        4
 70
     1
 10
277.46375
 20
85.592333
 10
275.027083
 20
85.592333
 10
275.027083
 20
82.915667
 10
277.46375
 20
82.915667
  0
CIRCLE
  5
22F
100
AcDbEntity
  8
1
  6
CONTINUOUS
 62
     5
100
AcDbCircle
 10
276.64375
 20
84.377333
 30
0.0
 40
0.169648
210
0.0
220
0.0
230
1.0
  0
LINE
  5
230
100
AcDbEntity
  8
1
  6
CONTINUOUS
 62
     5
100
AcDbLine
 10
275.52375
 20
84.934
 30
0.0
 11
302.252083
 21
84.934
 31
0.0
  0
LINE
  5
231
100
AcDbEntity
  8
1
  6
CONTINUOUS
 62
     5
100
AcDbLine
 10
275.52375
 20
83.684
 30
0.0
 11
302.252083
 21
83.684
 31
0.0
  0
LINE
  5
232
100
AcDbEntity
  8
1
  6
CONTINUOUS
 62
     5
100
AcDbLine
 10
275.52375
 20
82.307333
 30
0.0
 11
302.252083
 21
82.307333
 31
0.0
  0
LWPOLYLINE
  5
233
100
AcDbEntity
  8
1
  6
CONTINUOUS
 62
     5
100
AcDbPolyline
 90
        4
 70
     1
 10
277.482083
 20
70.919
 10
275.045417
 20
70.919
 10
275.045417
 20
68.242333
 10
277.482083
 20
68.242333
  0
CIRCLE
  5
234
100
AcDbEntity
  8
1
  6
CONTINUOUS
 62
     5
100
AcDbCircle
 10
276.662083
 20
69.704
 30
0.0
 40
0.169648
210
0.0
220
0.0
230
1.0
  0
LINE
  5
235
100
AcDbEntity
  8
1
  6
CONTINUOUS
 62
     5
100
AcDbLine
 10
275.52375
 20
76.430667
 30
0.0
 11
302.252083
 21
76.430667
 31
0.0
  0
LINE
  5
236
100
AcDbEntity
  8
1
  6
CONTINUOUS
 62
     5
100
AcDbLine
 10
275.52375
 20
70.304
 30
0.0
 11
302.252083
 21
70.304
 31
0.0
  0
LINE
  5
237
100
AcDbEntity
  8
1
  6
CONTINUOUS
 62
     5
100
AcDbLine
 10
275.52375
 20
68.804
 30
0.0
 11
302.252083
 21
68.804
 31
0.0
  0
LINE
  5
238
100
AcDbEntity
  8
1
  6
CONTINUOUS
 62
     5
100
AcDbLine
 10
271.425417
 20
67.679
 30
0.0
 11
302.252083
 21
67.679
 31
0.0
  0
LINE
  5
239
100
AcDbEntity
  8
1
  6
CONTINUOUS
 62
     5
100
AcDbLine
 10
217.285417
 20
117.114
 30
0.0
 11
217.285417
 21
96.112333
 31
0.0
  0
LINE
  5
23A
100
AcDbEntity
  8
1
  6
CONTINUOUS
 62
     5
100
AcDbLine
 10
217.285417
 20
92.260667
 30
0.0
 11
217.285417
 21
75.230667
 31
0.0
  0
LINE
  5
23B
100
AcDbEntity
  8
1
  6
CONTINUOUS
 62
     5
100
AcDbLine
 10
217.285417
 20
71.504
 30
0.0
 11
217.285417
 21
53.575667
 31
0.0
  0
LINE
  5
23C
100
AcDbEntity
  8
1
  6
CONTINUOUS
 62
     5
100
AcDbLine
 10
217.285417
 20
94.912333
 30
0.0
 11
217.285417
 21
93.460667
 31
0.0
  0
LINE
  5
23D
100
AcDbEntity
  8
1
  6
CONTINUOUS
 62
     5
100
AcDbLine
 10
217.285417
 20
74.030667
 30
0.0
 11
217.285417
 21
72.704
 31
0.0
  0
LWPOLYLINE
  5
23E
100
AcDbEntity
  8
1
  6
CONTINUOUS
 62
     5
100
AcDbPolyline
 90
        4
 70
     1
 10
255.62875
 20
113.850667
 10
253.192083
 20
113.850667
 10
253.192083
 20
111.174
 10
255.62875
 20
111.174
  0
CIRCLE
  5
23F
100
AcDbEntity
  8
1
  6
CONTINUOUS
 62
     5
100
AcDbCircle
 10
253.580417
 20
112.547333
 30
0.0
 40
0.169648
210
0.0
220
0.0
230
1.0
  0
LWPOLYLINE
  5
240
100
AcDbEntity
  8
1
  6
CONTINUOUS
 62
     5
100
AcDbPolyline
 90
        4
 70
     1
 10
266.685417
 20
113.917333
 10
264.24875
 20
113.917333
 10
264.24875
 20
111.240667
 10
266.685417
 20
111.240667
  0
CIRCLE
  5
241
100
AcDbEntity
  8
1
  6
CONTINUOUS
 62
     5
100
AcDbCircle
 10
266.30375
 20
112.527333
 30
0.0
 40
0.169648
210
0.0
220
0.0
230
1.0
  0
LINE
  5
242
100
AcDbEntity
  8
1
  6
CONTINUOUS
 62
     5
100
AcDbLine
 10
227.612083
 20
113.184
 30
0.0
 11
253.192083
 21
113.184
 31
0.0
  0
LINE
  5
243
100
AcDbEntity
  8
1
  6
CONTINUOUS
 62
     5
100
AcDbLine
 10
227.612083
 20
111.885667
 30
0.0
 11
253.192083
 21
111.885667
 31
0.0
  0
LINE
  5
244
100
AcDbEntity
  8
1
  6
CONTINUOUS
 62
     5
100
AcDbLine
 10
255.62875
 20
113.184
 30
0.0
 11
264.24875
 21
113.184
 31
0.0
  0
LINE
  5
245
100
AcDbEntity
  8
1
  6
CONTINUOUS
 62
     5
100
AcDbLine
 10
266.685417
 20
113.184
 30
0.0
 11
271.425417
 21
113.184
 31
0.0
  0
LINE
  5
246
100
AcDbEntity
  8
1
  6
CONTINUOUS
 62
     5
100
AcDbLine
 10
266.685417
 20
111.885667
 30
0.0
 11
271.425417
 21
111.885667
 31
0.0
  0
LINE
  5
247
100
AcDbEntity
  8
1
  6
CONTINUOUS
 62
     5
100
AcDbLine
 10
253.992083
 20
113.184
 30
0.0
 11
254.82875
 21
113.184
 31
0.0
  0
LINE
  5
248
100
AcDbEntity
  8
1
  6
CONTINUOUS
 62
     5
100
AcDbLine
 10
253.992083
 20
111.885667
 30
0.0
 11
254.82875
 21
111.885667
 31
0.0
  0
LINE
  5
249
100
AcDbEntity
  8
1
  6
CONTINUOUS
 62
     5
100
AcDbLine
 10
265.04875
 20
113.184
 30
0.0
 11
265.885417
 21
113.184
 31
0.0
  0
LINE
  5
24A
100
AcDbEntity
  8
1
  6
CONTINUOUS
 62
     5
100
AcDbLine
 10
265.04875
 20
111.885667
 30
0.0
 11
265.885417
 21
111.885667
 31
0.0
  0
LINE
  5
24B
100
AcDbEntity
  8
1
  6
CONTINUOUS
 62
     5
100
AcDbLine
 10
265.450417
 20
105.814
 30
0.0
 11
271.425417
 21
105.814
 31
0.0
  0
LINE
  5
24C
100
AcDbEntity
  8
1
  6
HIDDEN
 62
     5
100
AcDbLine
 10
255.62875
 20
111.885667
 30
0.0
 11
259.472083
 21
111.885667
 31
0.0
  0
LINE
  5
24D
100
AcDbEntity
  8
1
  6
HIDDEN
 62
     5
100
AcDbLine
 10
260.357083
 20
111.885667
 30
0.0
 11
264.24875
 21
111.885667
 31
0.0
  0
LINE
  5
24E
100
AcDbEntity
  8
1
  6
HIDDEN
 62
     5
100
AcDbLine
 10
254.380417
 20
105.814
 30
0.0
 11
259.472083
 21
105.814
 31
0.0
  0
LINE
  5
24F
100
AcDbEntity
  8
1
  6
HIDDEN
 62
     5
100
AcDbLine
 10
260.357083
 20
105.814
 30
0.0
 11
265.450417
 21
105.814
 31
0.0
  0
LINE
  5
250
100
AcDbEntity
  8
1
  6
CONTINUOUS
 62
     5
100
AcDbLine
 10
227.612083
 20
99.937333
 30
0.0
 11
254.380417
 21
99.937333
 31
0.0
  0
LINE
  5
251
100
AcDbEntity
  8
1
  6
CONTINUOUS
 62
     5
100
AcDbLine
 10
265.450417
 20
99.937333
 30
0.0
 11
271.425417
 21
99.937333
 31
0.0
  0
LINE
  5
252
100
AcDbEntity
  8
1
  6
CONTINUOUS
 62
     5
100
AcDbLine
 10
227.612083
 20
98.562333
 30
0.0
 11
253.192083
 21
98.562333
 31
0.0
  0
LINE
  5
253
100
AcDbEntity
  8
1
  6
CONTINUOUS
 62
     5
100
AcDbLine
 10
266.685417
 20
98.562333
 30
0.0
 11
271.425417
 21
98.562333
 31
0.0
  0
LINE
  5
254
100
AcDbEntity
  8
1
  6
CONTINUOUS
 62
     5
100
AcDbLine
 10
227.612083
 20
97.312333
 30
0.0
 11
253.192083
 21
97.312333
 31
0.0
  0
LINE
  5
255
100
AcDbEntity
  8
1
  6
CONTINUOUS
 62
     5
100
AcDbLine
 10
266.685417
 20
97.312333
 30
0.0
 11
271.425417
 21
97.312333
 31
0.0
  0
LWPOLYLINE
  5
256
100
AcDbEntity
  8
1
  6
CONTINUOUS
 62
     5
100
AcDbPolyline
 90
        4
 70
     1
 10
255.62875
 20
99.229
 10
253.192083
 20
99.229
 10
253.192083
 20
96.552333
 10
255.62875
 20
96.552333
  0
CIRCLE
  5
257
100
AcDbEntity
  8
1
  6
CONTINUOUS
 62
     5
100
AcDbCircle
 10
253.580417
 20
97.925667
 30
0.0
 40
0.169648
210
0.0
220
0.0
230
1.0
  0
LWPOLYLINE
  5
258
100
AcDbEntity
  8
1
  6
CONTINUOUS
 62
     5
100
AcDbPolyline
 90
        4
 70
     1
 10
266.685417
 20
99.295667
 10
264.24875
 20
99.295667
 10
264.24875
 20
96.619
 10
266.685417
 20
96.619
  0
CIRCLE
  5
259
100
AcDbEntity
  8
1
  6
CONTINUOUS
 62
     5
100
AcDbCircle
 10
266.30375
 20
97.905667
 30
0.0
 40
0.169648
210
0.0
220
0.0
230
1.0
  0
LINE
  5
25A
100
AcDbEntity
  8
1
  6
CONTINUOUS
 62
     5
100
AcDbLine
 10
253.992083
 20
98.562333
 30
0.0
 11
254.82875
 21
98.562333
 31
0.0
  0
LINE
  5
25B
100
AcDbEntity
  8
1
  6
CONTINUOUS
 62
     5
100
AcDbLine
 10
253.992083
 20
97.264
 30
0.0
 11
254.82875
 21
97.264
 31
0.0
  0
LINE
  5
25C
100
AcDbEntity
  8
1
  6
CONTINUOUS
 62
     5
100
AcDbLine
 10
265.04875
 20
98.562333
 30
0.0
 11
265.885417
 21
98.562333
 31
0.0
  0
LINE
  5
25D
100
AcDbEntity
  8
1
  6
CONTINUOUS
 62
     5
100
AcDbLine
 10
265.04875
 20
97.264
 30
0.0
 11
265.885417
 21
97.264
 31
0.0
  0
LINE
  5
25E
100
AcDbEntity
  8
1
  6
HIDDEN
 62
     5
100
AcDbLine
 10
255.62875
 20
98.562333
 30
0.0
 11
259.472083
 21
98.562333
 31
0.0
  0
LINE
  5
25F
100
AcDbEntity
  8
1
  6
HIDDEN
 62
     5
100
AcDbLine
 10
260.357083
 20
98.562333
 30
0.0
 11
264.24875
 21
98.562333
 31
0.0
  0
LINE
  5
260
100
AcDbEntity
  8
1
  6
HIDDEN
 62
     5
100
AcDbLine
 10
254.380417
 20
99.937333
 30
0.0
 11
259.472083
 21
99.937333
 31
0.0
  0
LINE
  5
261
100
AcDbEntity
  8
1
  6
HIDDEN
 62
     5
100
AcDbLine
 10
260.357083
 20
99.937333
 30
0.0
 11
265.450417
 21
99.937333
 31
0.0
  0
LINE
  5
262
100
AcDbEntity
  8
1
  6
HIDDEN
 62
     5
100
AcDbLine
 10
255.62875
 20
97.264
 30
0.0
 11
259.472083
 21
97.264
 31
0.0
  0
LINE
  5
263
100
AcDbEntity
  8
1
  6
HIDDEN
 62
     5
100
AcDbLine
 10
260.357083
 20
97.264
 30
0.0
 11
264.24875
 21
97.264
 31
0.0
  0
LINE
  5
264
100
AcDbEntity
  8
1
  6
CONTINUOUS
 62
     5
100
AcDbLine
 10
265.450417
 20
91.060667
 30
0.0
 11
271.425417
 21
91.060667
 31
0.0
  0
LINE
  5
265
100
AcDbEntity
  8
1
  6
HIDDEN
 62
     5
100
AcDbLine
 10
254.380417
 20
91.060667
 30
0.0
 11
259.472083
 21
91.060667
 31
0.0
  0
LINE
  5
266
100
AcDbEntity
  8
1
  6
HIDDEN
 62
     5
100
AcDbLine
 10
260.357083
 20
91.060667
 30
0.0
 11
265.450417
 21
91.060667
 31
0.0
  0
LINE
  5
267
100
AcDbEntity
  8
1
  6
CONTINUOUS
 62
     5
100
AcDbLine
 10
227.612083
 20
84.934
 30
0.0
 11
254.380417
 21
84.934
 31
0.0
  0
LINE
  5
268
100
AcDbEntity
  8
1
  6
CONTINUOUS
 62
     5
100
AcDbLine
 10
265.450417
 20
84.934
 30
0.0
 11
271.425417
 21
84.934
 31
0.0
  0
LINE
  5
269
100
AcDbEntity
  8
1
  6
CONTINUOUS
 62
     5
100
AcDbLine
 10
227.612083
 20
83.684
 30
0.0
 11
253.192083
 21
83.684
 31
0.0
  0
LINE
  5
26A
100
AcDbEntity
  8
1
  6
CONTINUOUS
 62
     5
100
AcDbLine
 10
266.685417
 20
83.684
 30
0.0
 11
271.425417
 21
83.684
 31
0.0
  0
LINE
  5
26B
100
AcDbEntity
  8
1
  6
CONTINUOUS
 62
     5
100
AcDbLine
 10
227.612083
 20
82.307333
 30
0.0
 11
253.192083
 21
82.307333
 31
0.0
  0
LINE
  5
26C
100
AcDbEntity
  8
1
  6
CONTINUOUS
 62
     5
100
AcDbLine
 10
266.685417
 20
82.307333
 30
0.0
 11
271.425417
 21
82.307333
 31
0.0
  0
LINE
  5
26D
100
AcDbEntity
  8
1
  6
HIDDEN
 62
     5
100
AcDbLine
 10
254.380417
 20
84.934
 30
0.0
 11
259.472083
 21
84.934
 31
0.0
  0
LWPOLYLINE
  5
26E
100
AcDbEntity
  8
1
  6
CONTINUOUS
 62
     5
100
AcDbPolyline
 90
        4
 70
     1
 10
255.62875
 20
84.225667
 10
253.192083
 20
84.225667
 10
253.192083
 20
81.549
 10
255.62875
 20
81.549
  0
CIRCLE
  5
26F
100
AcDbEntity
  8
1
  6
CONTINUOUS
 62
     5
100
AcDbCircle
 10
253.580417
 20
82.922333
 30
0.0
 40
0.169648
210
0.0
220
0.0
230
1.0
  0
LWPOLYLINE
  5
270
100
AcDbEntity
  8
1
  6
CONTINUOUS
 62
     5
100
AcDbPolyline
 90
        4
 70
     1
 10
266.685417
 20
84.292333
 10
264.24875
 20
84.292333
 10
264.24875
 20
81.615667
 10
266.685417
 20
81.615667
  0
CIRCLE
  5
271
100
AcDbEntity
  8
1
  6
CONTINUOUS
 62
     5
100
AcDbCircle
 10
266.30375
 20
82.902333
 30
0.0
 40
0.169648
210
0.0
220
0.0
230
1.0
  0
LINE
  5
272
100
AcDbEntity
  8
1
  6
CONTINUOUS
 62
     5
100
AcDbLine
 10
253.992083
 20
83.559
 30
0.0
 11
254.82875
 21
83.559
 31
0.0
  0
LINE
  5
273
100
AcDbEntity
  8
1
  6
CONTINUOUS
 62
     5
100
AcDbLine
 10
253.992083
 20
82.260667
 30
0.0
 11
254.82875
 21
82.260667
 31
0.0
  0
LINE
  5
274
100
AcDbEntity
  8
1
  6
CONTINUOUS
 62
     5
100
AcDbLine
 10
265.04875
 20
83.559
 30
0.0
 11
265.885417
 21
83.559
 31
0.0
  0
LINE
  5
275
100
AcDbEntity
  8
1
  6
CONTINUOUS
 62
     5
100
AcDbLine
 10
265.04875
 20
82.260667
 30
0.0
 11
265.885417
 21
82.260667
 31
0.0
  0
LINE
  5
276
100
AcDbEntity
  8
1
  6
HIDDEN
 62
     5
100
AcDbLine
 10
255.62875
 20
83.559
 30
0.0
 11
259.472083
 21
83.559
 31
0.0
  0
LINE
  5
277
100
AcDbEntity
  8
1
  6
HIDDEN
 62
     5
100
AcDbLine
 10
260.357083
 20
83.559
 30
0.0
 11
264.24875
 21
83.559
 31
0.0
  0
LINE
  5
278
100
AcDbEntity
  8
1
  6
HIDDEN
 62
     5
100
AcDbLine
 10
260.357083
 20
84.934
 30
0.0
 11
265.450417
 21
84.934
 31
0.0
  0
LINE
  5
279
100
AcDbEntity
  8
1
  6
HIDDEN
 62
     5
100
AcDbLine
 10
255.62875
 20
82.260667
 30
0.0
 11
259.472083
 21
82.260667
 31
0.0
  0
LINE
  5
27A
100
AcDbEntity
  8
1
  6
HIDDEN
 62
     5
100
AcDbLine
 10
260.357083
 20
82.260667
 30
0.0
 11
264.24875
 21
82.260667
 31
0.0
  0
LINE
  5
27B
100
AcDbEntity
  8
1
  6
CONTINUOUS
 62
     5
100
AcDbLine
 10
265.450417
 20
76.430667
 30
0.0
 11
271.425417
 21
76.430667
 31
0.0
  0
LINE
  5
27C
100
AcDbEntity
  8
1
  6
HIDDEN
 62
     5
100
AcDbLine
 10
254.380417
 20
76.430667
 30
0.0
 11
259.472083
 21
76.430667
 31
0.0
  0
LINE
  5
27D
100
AcDbEntity
  8
1
  6
HIDDEN
 62
     5
100
AcDbLine
 10
260.357083
 20
76.430667
 30
0.0
 11
265.450417
 21
76.430667
 31
0.0
  0
LINE
  5
27E
100
AcDbEntity
  8
1
  6
CONTINUOUS
 62
     5
100
AcDbLine
 10
227.612083
 20
70.304
 30
0.0
 11
254.380417
 21
70.304
 31
0.0
  0
LINE
  5
27F
100
AcDbEntity
  8
1
  6
CONTINUOUS
 62
     5
100
AcDbLine
 10
265.450417
 20
70.304
 30
0.0
 11
271.425417
 21
70.304
 31
0.0
  0
LINE
  5
280
100
AcDbEntity
  8
1
  6
CONTINUOUS
 62
     5
100
AcDbLine
 10
227.612083
 20
68.804
 30
0.0
 11
253.192083
 21
68.804
 31
0.0
  0
LINE
  5
281
100
AcDbEntity
  8
1
  6
CONTINUOUS
 62
     5
100
AcDbLine
 10
266.685417
 20
68.804
 30
0.0
 11
271.425417
 21
68.804
 31
0.0
  0
LINE
  5
282
100
AcDbEntity
  8
1
  6
CONTINUOUS
 62
     5
100
AcDbLine
 10
266.685417
 20
67.679
 30
0.0
 11
271.425417
 21
67.679
 31
0.0
  0
LINE
  5
283
100
AcDbEntity
  8
1
  6
HIDDEN
 62
     5
100
AcDbLine
 10
254.380417
 20
70.304
 30
0.0
 11
259.472083
 21
70.304
 31
0.0
  0
LWPOLYLINE
  5
284
100
AcDbEntity
  8
1
  6
CONTINUOUS
 62
     5
100
AcDbPolyline
 90
        4
 70
     1
 10
255.62875
 20
69.595667
 10
253.192083
 20
69.595667
 10
253.192083
 20
66.919
 10
255.62875
 20
66.919
  0
CIRCLE
  5
285
100
AcDbEntity
  8
1
  6
CONTINUOUS
 62
     5
100
AcDbCircle
 10
253.580417
 20
68.292333
 30
0.0
 40
0.169648
210
0.0
220
0.0
230
1.0
  0
LWPOLYLINE
  5
286
100
AcDbEntity
  8
1
  6
CONTINUOUS
 62
     5
100
AcDbPolyline
 90
        4
 70
     1
 10
266.685417
 20
69.662333
 10
264.24875
 20
69.662333
 10
264.24875
 20
66.985667
 10
266.685417
 20
66.985667
  0
CIRCLE
  5
287
100
AcDbEntity
  8
1
  6
CONTINUOUS
 62
     5
100
AcDbCircle
 10
266.30375
 20
68.272333
 30
0.0
 40
0.169648
210
0.0
220
0.0
230
1.0
  0
LINE
  5
288
100
AcDbEntity
  8
1
  6
CONTINUOUS
 62
     5
100
AcDbLine
 10
253.992083
 20
68.929
 30
0.0
 11
254.82875
 21
68.929
 31
0.0
  0
LINE
  5
289
100
AcDbEntity
  8
1
  6
CONTINUOUS
 62
     5
100
AcDbLine
 10
253.992083
 20
67.630667
 30
0.0
 11
254.82875
 21
67.630667
 31
0.0
  0
LINE
  5
28A
100
AcDbEntity
  8
1
  6
CONTINUOUS
 62
     5
100
AcDbLine
 10
265.04875
 20
68.929
 30
0.0
 11
265.885417
 21
68.929
 31
0.0
  0
LINE
  5
28B
100
AcDbEntity
  8
1
  6
CONTINUOUS
 62
     5
100
AcDbLine
 10
265.04875
 20
67.630667
 30
0.0
 11
265.885417
 21
67.630667
 31
0.0
  0
LINE
  5
28C
100
AcDbEntity
  8
1
  6
HIDDEN
 62
     5
100
AcDbLine
 10
255.62875
 20
68.929
 30
0.0
 11
259.472083
 21
68.929
 31
0.0
  0
LINE
  5
28D
100
AcDbEntity
  8
1
  6
HIDDEN
 62
     5
100
AcDbLine
 10
260.357083
 20
68.929
 30
0.0
 11
264.24875
 21
68.929
 31
0.0
  0
LINE
  5
28E
100
AcDbEntity
  8
1
  6
HIDDEN
 62
     5
100
AcDbLine
 10
260.357083
 20
70.304
 30
0.0
 11
265.450417
 21
70.304
 31
0.0
  0
LINE
  5
28F
100
AcDbEntity
  8
1
  6
HIDDEN
 62
     5
100
AcDbLine
 10
255.62875
 20
67.630667
 30
0.0
 11
259.472083
 21
67.630667
 31
0.0
  0
LINE
  5
290
100
AcDbEntity
  8
1
  6
HIDDEN
 62
     5
100
AcDbLine
 10
260.357083
 20
67.630667
 30
0.0
 11
264.24875
 21
67.630667
 31
0.0
  0
LINE
  5
291
100
AcDbEntity
  8
1
  6
CONTINUOUS
 62
     5
100
AcDbLine
 10
131.867083
 20
113.184
 30
0.0
 11
167.67875
 21
113.184
 31
0.0
  0
LINE
  5
292
100
AcDbEntity
  8
1
  6
CONTINUOUS
 62
     5
100
AcDbLine
 10
181.172083
 20
113.184
 30
0.0
 11
223.90875
 21
113.184
 31
0.0
  0
LINE
  5
293
100
AcDbEntity
  8
1
  6
CONTINUOUS
 62
     5
100
AcDbLine
 10
131.867083
 20
111.885667
 30
0.0
 11
167.67875
 21
111.885667
 31
0.0
  0
LINE
  5
294
100
AcDbEntity
  8
1
  6
CONTINUOUS
 62
     5
100
AcDbLine
 10
181.172083
 20
111.885667
 30
0.0
 11
223.90875
 21
111.885667
 31
0.0
  0
LINE
  5
295
100
AcDbEntity
  8
1
  6
CONTINUOUS
 62
     5
100
AcDbLine
 10
131.867083
 20
105.814
 30
0.0
 11
168.867083
 21
105.814
 31
0.0
  0
LINE
  5
296
100
AcDbEntity
  8
1
  6
CONTINUOUS
 62
     5
100
AcDbLine
 10
179.937083
 20
105.814
 30
0.0
 11
254.380417
 21
105.814
 31
0.0
  0
LINE
  5
297
100
AcDbEntity
  8
1
  6
CONTINUOUS
 62
     5
100
AcDbLine
 10
131.867083
 20
99.937333
 30
0.0
 11
168.867083
 21
99.937333
 31
0.0
  0
LINE
  5
298
100
AcDbEntity
  8
1
  6
CONTINUOUS
 62
     5
100
AcDbLine
 10
179.937083
 20
99.937333
 30
0.0
 11
223.90875
 21
99.937333
 31
0.0
  0
LINE
  5
299
100
AcDbEntity
  8
1
  6
CONTINUOUS
 62
     5
100
AcDbLine
 10
131.867083
 20
98.562333
 30
0.0
 11
167.67875
 21
98.562333
 31
0.0
  0
LINE
  5
29A
100
AcDbEntity
  8
1
  6
CONTINUOUS
 62
     5
100
AcDbLine
 10
181.172083
 20
98.562333
 30
0.0
 11
223.90875
 21
98.562333
 31
0.0
  0
LINE
  5
29B
100
AcDbEntity
  8
1
  6
CONTINUOUS
 62
     5
100
AcDbLine
 10
131.867083
 20
97.312333
 30
0.0
 11
167.67875
 21
97.312333
 31
0.0
  0
LINE
  5
29C
100
AcDbEntity
  8
1
  6
CONTINUOUS
 62
     5
100
AcDbLine
 10
181.172083
 20
97.312333
 30
0.0
 11
223.90875
 21
97.312333
 31
0.0
  0
LINE
  5
29D
100
AcDbEntity
  8
1
  6
CONTINUOUS
 62
     5
100
AcDbLine
 10
131.867083
 20
91.060667
 30
0.0
 11
168.867083
 21
91.060667
 31
0.0
  0
LINE
  5
29E
100
AcDbEntity
  8
1
  6
CONTINUOUS
 62
     5
100
AcDbLine
 10
179.937083
 20
91.060667
 30
0.0
 11
254.380417
 21
91.060667
 31
0.0
  0
LINE
  5
29F
100
AcDbEntity
  8
1
  6
CONTINUOUS
 62
     5
100
AcDbLine
 10
131.867083
 20
84.934
 30
0.0
 11
168.867083
 21
84.934
 31
0.0
  0
LINE
  5
2A0
100
AcDbEntity
  8
1
  6
CONTINUOUS
 62
     5
100
AcDbLine
 10
179.937083
 20
84.934
 30
0.0
 11
223.90875
 21
84.934
 31
0.0
  0
LINE
  5
2A1
100
AcDbEntity
  8
1
  6
CONTINUOUS
 62
     5
100
AcDbLine
 10
131.867083
 20
83.684
 30
0.0
 11
167.67875
 21
83.684
 31
0.0
  0
LINE
  5
2A2
100
AcDbEntity
  8
1
  6
CONTINUOUS
 62
     5
100
AcDbLine
 10
181.172083
 20
83.684
 30
0.0
 11
223.90875
 21
83.684
 31
0.0
  0
LINE
  5
2A3
100
AcDbEntity
  8
1
  6
CONTINUOUS
 62
     5
100
AcDbLine
 10
131.867083
 20
82.307333
 30
0.0
 11
167.67875
 21
82.307333
 31
0.0
  0
LINE
  5
2A4
100
AcDbEntity
  8
1
  6
CONTINUOUS
 62
     5
100
AcDbLine
 10
181.172083
 20
82.307333
 30
0.0
 11
223.90875
 21
82.307333
 31
0.0
  0
LINE
  5
2A5
100
AcDbEntity
  8
1
  6
CONTINUOUS
 62
     5
100
AcDbLine
 10
131.867083
 20
76.430667
 30
0.0
 11
168.867083
 21
76.430667
 31
0.0
  0
LINE
  5
2A6
100
AcDbEntity
  8
1
  6
CONTINUOUS
 62
     5
100
AcDbLine
 10
179.937083
 20
76.430667
 30
0.0
 11
254.380417
 21
76.430667
 31
0.0
  0
LINE
  5
2A7
100
AcDbEntity
  8
1
  6
CONTINUOUS
 62
     5
100
AcDbLine
 10
131.867083
 20
70.304
 30
0.0
 11
168.867083
 21
70.304
 31
0.0
  0
LINE
  5
2A8
100
AcDbEntity
  8
1
  6
CONTINUOUS
 62
     5
100
AcDbLine
 10
179.937083
 20
70.304
 30
0.0
 11
223.90875
 21
70.304
 31
0.0
  0
LINE
  5
2A9
100
AcDbEntity
  8
1
  6
CONTINUOUS
 62
     5
100
AcDbLine
 10
131.867083
 20
68.804
 30
0.0
 11
167.67875
 21
68.804
 31
0.0
  0
LINE
  5
2AA
100
AcDbEntity
  8
1
  6
CONTINUOUS
 62
     5
100
AcDbLine
 10
181.172083
 20
68.804
 30
0.0
 11
223.90875
 21
68.804
 31
0.0
  0
LINE
  5
2AB
100
AcDbEntity
  8
1
  6
CONTINUOUS
 62
     5
100
AcDbLine
 10
131.867083
 20
67.679
 30
0.0
 11
167.67875
 21
67.679
 31
0.0
  0
LINE
  5
2AC
100
AcDbEntity
  8
1
  6
CONTINUOUS
 62
     5
100
AcDbLine
 10
181.172083
 20
67.679
 30
0.0
 11
253.192083
 21
67.679
 31
0.0
  0
LINE
  5
2AD
100
AcDbEntity
  8
1
  6
HIDDEN
 62
     5
100
AcDbLine
 10
173.95875
 20
113.184
 30
0.0
 11
173.95875
 21
41.267333
 31
0.0
  0
LINE
  5
2AE
100
AcDbEntity
  8
1
  6
CONTINUOUS
 62
     5
100
AcDbLine
 10
168.867083
 20
111.174
 30
0.0
 11
168.867083
 21
41.267333
 31
0.0
  0
LINE
  5
2AF
100
AcDbEntity
  8
1
  6
HIDDEN
 62
     5
100
AcDbLine
 10
174.84375
 20
113.184
 30
0.0
 11
174.84375
 21
41.267333
 31
0.0
  0
LINE
  5
2B0
100
AcDbEntity
  8
1
  6
CONTINUOUS
 62
     5
100
AcDbLine
 10
179.937083
 20
111.240667
 30
0.0
 11
179.937083
 21
41.267333
 31
0.0
  0
LWPOLYLINE
  5
2B1
100
AcDbEntity
  8
1
  6
CONTINUOUS
 62
     5
100
AcDbPolyline
 90
        4
 70
     1
 10
170.115417
 20
113.850667
 10
167.67875
 20
113.850667
 10
167.67875
 20
111.174
 10
170.115417
 20
111.174
  0
CIRCLE
  5
2B2
100
AcDbEntity
  8
1
  6
CONTINUOUS
 62
     5
100
AcDbCircle
 10
168.067083
 20
112.547333
 30
0.0
 40
0.169648
210
0.0
220
0.0
230
1.0
  0
LWPOLYLINE
  5
2B3
100
AcDbEntity
  8
1
  6
CONTINUOUS
 62
     5
100
AcDbPolyline
 90
        4
 70
     1
 10
181.172083
 20
113.917333
 10
178.735417
 20
113.917333
 10
178.735417
 20
111.240667
 10
181.172083
 20
111.240667
  0
CIRCLE
  5
2B4
100
AcDbEntity
  8
1
  6
CONTINUOUS
 62
     5
100
AcDbCircle
 10
180.790417
 20
112.527333
 30
0.0
 40
0.169648
210
0.0
220
0.0
230
1.0
  0
LINE
  5
2B5
100
AcDbEntity
  8
1
  6
CONTINUOUS
 62
     5
100
AcDbLine
 10
170.115417
 20
113.184
 30
0.0
 11
178.735417
 21
113.184
 31
0.0
  0
LINE
  5
2B6
100
AcDbEntity
  8
1
  6
CONTINUOUS
 62
     5
100
AcDbLine
 10
168.47875
 20
113.184
 30
0.0
 11
169.315417
 21
113.184
 31
0.0
  0
LINE
  5
2B7
100
AcDbEntity
  8
1
  6
CONTINUOUS
 62
     5
100
AcDbLine
 10
168.47875
 20
111.885667
 30
0.0
 11
169.315417
 21
111.885667
 31
0.0
  0
LINE
  5
2B8
100
AcDbEntity
  8
1
  6
CONTINUOUS
 62
     5
100
AcDbLine
 10
179.535417
 20
113.184
 30
0.0
 11
180.372083
 21
113.184
 31
0.0
  0
LINE
  5
2B9
100
AcDbEntity
  8
1
  6
CONTINUOUS
 62
     5
100
AcDbLine
 10
179.535417
 20
111.885667
 30
0.0
 11
180.372083
 21
111.885667
 31
0.0
  0
LINE
  5
2BA
100
AcDbEntity
  8
1
  6
HIDDEN
 62
     5
100
AcDbLine
 10
170.115417
 20
111.885667
 30
0.0
 11
173.95875
 21
111.885667
 31
0.0
  0
LINE
  5
2BB
100
AcDbEntity
  8
1
  6
HIDDEN
 62
     5
100
AcDbLine
 10
174.84375
 20
111.885667
 30
0.0
 11
178.735417
 21
111.885667
 31
0.0
  0
LINE
  5
2BC
100
AcDbEntity
  8
1
  6
HIDDEN
 62
     5
100
AcDbLine
 10
168.867083
 20
105.814
 30
0.0
 11
173.95875
 21
105.814
 31
0.0
  0
LINE
  5
2BD
100
AcDbEntity
  8
1
  6
HIDDEN
 62
     5
100
AcDbLine
 10
174.84375
 20
105.814
 30
0.0
 11
179.937083
 21
105.814
 31
0.0
  0
LWPOLYLINE
  5
2BE
100
AcDbEntity
  8
1
  6
CONTINUOUS
 62
     5
100
AcDbPolyline
 90
        4
 70
     1
 10
170.115417
 20
99.229
 10
167.67875
 20
99.229
 10
167.67875
 20
96.552333
 10
170.115417
 20
96.552333
  0
CIRCLE
  5
2BF
100
AcDbEntity
  8
1
  6
CONTINUOUS
 62
     5
100
AcDbCircle
 10
168.067083
 20
97.925667
 30
0.0
 40
0.169648
210
0.0
220
0.0
230
1.0
  0
LWPOLYLINE
  5
2C0
100
AcDbEntity
  8
1
  6
CONTINUOUS
 62
     5
100
AcDbPolyline
 90
        4
 70
     1
 10
181.172083
 20
99.295667
 10
178.735417
 20
99.295667
 10
178.735417
 20
96.619
 10
181.172083
 20
96.619
  0
CIRCLE
  5
2C1
100
AcDbEntity
  8
1
  6
CONTINUOUS
 62
     5
100
AcDbCircle
 10
180.790417
 20
97.905667
 30
0.0
 40
0.169648
210
0.0
220
0.0
230
1.0
  0
LINE
  5
2C2
100
AcDbEntity
  8
1
  6
CONTINUOUS
 62
     5
100
AcDbLine
 10
168.47875
 20
98.562333
 30
0.0
 11
169.315417
 21
98.562333
 31
0.0
  0
LINE
  5
2C3
100
AcDbEntity
  8
1
  6
CONTINUOUS
 62
     5
100
AcDbLine
 10
168.47875
 20
97.264
 30
0.0
 11
169.315417
 21
97.264
 31
0.0
  0
LINE
  5
2C4
100
AcDbEntity
  8
1
  6
CONTINUOUS
 62
     5
100
AcDbLine
 10
179.535417
 20
98.562333
 30
0.0
 11
180.372083
 21
98.562333
 31
0.0
  0
LINE
  5
2C5
100
AcDbEntity
  8
1
  6
CONTINUOUS
 62
     5
100
AcDbLine
 10
179.535417
 20
97.264
 30
0.0
 11
180.372083
 21
97.264
 31
0.0
  0
LINE
  5
2C6
100
AcDbEntity
  8
1
  6
HIDDEN
 62
     5
100
AcDbLine
 10
170.115417
 20
98.562333
 30
0.0
 11
173.95875
 21
98.562333
 31
0.0
  0
LINE
  5
2C7
100
AcDbEntity
  8
1
  6
HIDDEN
 62
     5
100
AcDbLine
 10
174.84375
 20
98.562333
 30
0.0
 11
178.735417
 21
98.562333
 31
0.0
  0
LINE
  5
2C8
100
AcDbEntity
  8
1
  6
HIDDEN
 62
     5
100
AcDbLine
 10
168.867083
 20
99.937333
 30
0.0
 11
173.95875
 21
99.937333
 31
0.0
  0
LINE
  5
2C9
100
AcDbEntity
  8
1
  6
HIDDEN
 62
     5
100
AcDbLine
 10
174.84375
 20
99.937333
 30
0.0
 11
179.937083
 21
99.937333
 31
0.0
  0
LINE
  5
2CA
100
AcDbEntity
  8
1
  6
HIDDEN
 62
     5
100
AcDbLine
 10
170.115417
 20
97.264
 30
0.0
 11
173.95875
 21
97.264
 31
0.0
  0
LINE
  5
2CB
100
AcDbEntity
  8
1
  6
HIDDEN
 62
     5
100
AcDbLine
 10
174.84375
 20
97.264
 30
0.0
 11
178.735417
 21
97.264
 31
0.0
  0
LINE
  5
2CC
100
AcDbEntity
  8
1
  6
HIDDEN
 62
     5
100
AcDbLine
 10
168.867083
 20
91.060667
 30
0.0
 11
173.95875
 21
91.060667
 31
0.0
  0
LINE
  5
2CD
100
AcDbEntity
  8
1
  6
HIDDEN
 62
     5
100
AcDbLine
 10
174.84375
 20
91.060667
 30
0.0
 11
179.937083
 21
91.060667
 31
0.0
  0
LINE
  5
2CE
100
AcDbEntity
  8
1
  6
HIDDEN
 62
     5
100
AcDbLine
 10
168.867083
 20
84.934
 30
0.0
 11
173.95875
 21
84.934
 31
0.0
  0
LWPOLYLINE
  5
2CF
100
AcDbEntity
  8
1
  6
CONTINUOUS
 62
     5
100
AcDbPolyline
 90
        4
 70
     1
 10
170.115417
 20
84.225667
 10
167.67875
 20
84.225667
 10
167.67875
 20
81.549
 10
170.115417
 20
81.549
  0
CIRCLE
  5
2D0
100
AcDbEntity
  8
1
  6
CONTINUOUS
 62
     5
100
AcDbCircle
 10
168.067083
 20
82.922333
 30
0.0
 40
0.169648
210
0.0
220
0.0
230
1.0
  0
LWPOLYLINE
  5
2D1
100
AcDbEntity
  8
1
  6
CONTINUOUS
 62
     5
100
AcDbPolyline
 90
        4
 70
     1
 10
181.172083
 20
84.292333
 10
178.735417
 20
84.292333
 10
178.735417
 20
81.615667
 10
181.172083
 20
81.615667
  0
CIRCLE
  5
2D2
100
AcDbEntity
  8
1
  6
CONTINUOUS
 62
     5
100
AcDbCircle
 10
180.790417
 20
82.902333
 30
0.0
 40
0.169648
210
0.0
220
0.0
230
1.0
  0
LINE
  5
2D3
100
AcDbEntity
  8
1
  6
CONTINUOUS
 62
     5
100
AcDbLine
 10
168.47875
 20
83.559
 30
0.0
 11
169.315417
 21
83.559
 31
0.0
  0
LINE
  5
2D4
100
AcDbEntity
  8
1
  6
CONTINUOUS
 62
     5
100
AcDbLine
 10
168.47875
 20
82.260667
 30
0.0
 11
169.315417
 21
82.260667
 31
0.0
  0
LINE
  5
2D5
100
AcDbEntity
  8
1
  6
CONTINUOUS
 62
     5
100
AcDbLine
 10
179.535417
 20
83.559
 30
0.0
 11
180.372083
 21
83.559
 31
0.0
  0
LINE
  5
2D6
100
AcDbEntity
  8
1
  6
CONTINUOUS
 62
     5
100
AcDbLine
 10
179.535417
 20
82.260667
 30
0.0
 11
180.372083
 21
82.260667
 31
0.0
  0
LINE
  5
2D7
100
AcDbEntity
  8
1
  6
HIDDEN
 62
     5
100
AcDbLine
 10
170.115417
 20
83.559
 30
0.0
 11
173.95875
 21
83.559
 31
0.0
  0
LINE
  5
2D8
100
AcDbEntity
  8
1
  6
HIDDEN
 62
     5
100
AcDbLine
 10
174.84375
 20
83.559
 30
0.0
 11
178.735417
 21
83.559
 31
0.0
  0
LINE
  5
2D9
100
AcDbEntity
  8
1
  6
HIDDEN
 62
     5
100
AcDbLine
 10
174.84375
 20
84.934
 30
0.0
 11
179.937083
 21
84.934
 31
0.0
  0
LINE
  5
2DA
100
AcDbEntity
  8
1
  6
HIDDEN
 62
     5
100
AcDbLine
 10
170.115417
 20
82.260667
 30
0.0
 11
173.95875
 21
82.260667
 31
0.0
  0
LINE
  5
2DB
100
AcDbEntity
  8
1
  6
HIDDEN
 62
     5
100
AcDbLine
 10
174.84375
 20
82.260667
 30
0.0
 11
178.735417
 21
82.260667
 31
0.0
  0
LINE
  5
2DC
100
AcDbEntity
  8
1
  6
HIDDEN
 62
     5
100
AcDbLine
 10
168.867083
 20
76.430667
 30
0.0
 11
173.95875
 21
76.430667
 31
0.0
  0
LINE
  5
2DD
100
AcDbEntity
  8
1
  6
HIDDEN
 62
     5
100
AcDbLine
 10
174.84375
 20
76.430667
 30
0.0
 11
179.937083
 21
76.430667
 31
0.0
  0
LINE
  5
2DE
100
AcDbEntity
  8
1
  6
HIDDEN
 62
     5
100
AcDbLine
 10
168.867083
 20
70.304
 30
0.0
 11
173.95875
 21
70.304
 31
0.0
  0
LWPOLYLINE
  5
2DF
100
AcDbEntity
  8
1
  6
CONTINUOUS
 62
     5
100
AcDbPolyline
 90
        4
 70
     1
 10
170.115417
 20
69.595667
 10
167.67875
 20
69.595667
 10
167.67875
 20
66.919
 10
170.115417
 20
66.919
  0
CIRCLE
  5
2E0
100
AcDbEntity
  8
1
  6
CONTINUOUS
 62
     5
100
AcDbCircle
 10
168.067083
 20
68.292333
 30
0.0
 40
0.169648
210
0.0
220
0.0
230
1.0
  0
LWPOLYLINE
  5
2E1
100
AcDbEntity
  8
1
  6
CONTINUOUS
 62
     5
100
AcDbPolyline
 90
        4
 70
     1
 10
181.172083
 20
69.662333
 10
178.735417
 20
69.662333
 10
178.735417
 20
66.985667
 10
181.172083
 20
66.985667
  0
CIRCLE
  5
2E2
100
AcDbEntity
  8
1
  6
CONTINUOUS
 62
     5
100
AcDbCircle
 10
180.790417
 20
68.272333
 30
0.0
 40
0.169648
210
0.0
220
0.0
230
1.0
  0
LINE
  5
2E3
100
AcDbEntity
  8
1
  6
CONTINUOUS
 62
     5
100
AcDbLine
 10
168.47875
 20
68.929
 30
0.0
 11
169.315417
 21
68.929
 31
0.0
  0
LINE
  5
2E4
100
AcDbEntity
  8
1
  6
CONTINUOUS
 62
     5
100
AcDbLine
 10
168.47875
 20
67.630667
 30
0.0
 11
169.315417
 21
67.630667
 31
0.0
  0
LINE
  5
2E5
100
AcDbEntity
  8
1
  6
CONTINUOUS
 62
     5
100
AcDbLine
 10
179.535417
 20
68.929
 30
0.0
 11
180.372083
 21
68.929
 31
0.0
  0
LINE
  5
2E6
100
AcDbEntity
  8
1
  6
CONTINUOUS
 62
     5
100
AcDbLine
 10
179.535417
 20
67.630667
 30
0.0
 11
180.372083
 21
67.630667
 31
0.0
  0
LINE
  5
2E7
100
AcDbEntity
  8
1
  6
HIDDEN
 62
     5
100
AcDbLine
 10
170.115417
 20
68.929
 30
0.0
 11
173.95875
 21
68.929
 31
0.0
  0
LINE
  5
2E8
100
AcDbEntity
  8
1
  6
HIDDEN
 62
     5
100
AcDbLine
 10
174.84375
 20
68.929
 30
0.0
 11
178.735417
 21
68.929
 31
0.0
  0
LINE
  5
2E9
100
AcDbEntity
  8
1
  6
HIDDEN
 62
     5
100
AcDbLine
 10
174.84375
 20
70.304
 30
0.0
 11
179.937083
 21
70.304
 31
0.0
  0
LINE
  5
2EA
100
AcDbEntity
  8
1
  6
HIDDEN
 62
     5
100
AcDbLine
 10
170.115417
 20
67.630667
 30
0.0
 11
173.95875
 21
67.630667
 31
0.0
  0
LINE
  5
2EB
100
AcDbEntity
  8
1
  6
HIDDEN
 62
     5
100
AcDbLine
 10
174.84375
 20
67.630667
 30
0.0
 11
178.735417
 21
67.630667
 31
0.0
  0
LINE
  5
2EC
100
AcDbEntity
  8
1
  6
CONTINUOUS
 62
     5
100
AcDbLine
 10
197.320417
 20
143.165667
 30
0.0
 11
197.320417
 21
151.659
 31
0.0
  0
LINE
  5
2ED
100
AcDbEntity
  8
1
  6
CONTINUOUS
 62
     5
100
AcDbLine
 10
225.255417
 20
143.165667
 30
0.0
 11
225.255417
 21
151.659
 31
0.0
  0
LINE
  5
2EE
100
AcDbEntity
  8
1
  6
CONTINUOUS
 62
     5
100
AcDbLine
 10
273.752083
 20
143.165667
 30
0.0
 11
273.752083
 21
151.659
 31
0.0
  0
LINE
  5
2EF
100
AcDbEntity
  8
1
  6
CONTINUOUS
 62
     5
100
AcDbLine
 10
302.252083
 20
143.165667
 30
0.0
 11
302.252083
 21
151.659
 31
0.0
  0
LINE
  5
2F0
100
AcDbEntity
  8
1
  6
CONTINUOUS
 62
     5
100
AcDbLine
 10
174.37875
 20
114.475667
 30
0.0
 11
174.37875
 21
160.752333
 31
0.0
  0
LINE
  5
2F1
100
AcDbEntity
  8
1
  6
CONTINUOUS
 62
     5
100
AcDbLine
 10
131.267083
 20
113.184
 30
0.0
 11
122.77375
 21
113.184
 31
0.0
  0
LINE
  5
2F2
100
AcDbEntity
  8
1
  6
CONTINUOUS
 62
     5
100
AcDbLine
 10
131.267083
 20
61.802333
 30
0.0
 11
122.77375
 21
61.802333
 31
0.0
  0
LINE
  5
2F3
100
AcDbEntity
  8
1
  6
CONTINUOUS
 62
     5
100
AcDbLine
 10
174.37875
 20
160.152333
 30
0.0
 11
259.91375
 21
160.152333
 31
0.0
  0
LINE
  5
2F4
100
AcDbEntity
  8
1
  6
CONTINUOUS
 62
     5
100
AcDbLine
 10
197.320417
 20
151.059
 30
0.0
 11
225.255417
 21
151.059
 31
0.0
  0
LINE
  5
2F5
100
AcDbEntity
  8
1
  6
CONTINUOUS
 62
     5
100
AcDbLine
 10
225.255417
 20
151.059
 30
0.0
 11
273.752083
 21
151.059
 31
0.0
  0
LINE
  5
2F6
100
AcDbEntity
  8
1
  6
CONTINUOUS
 62
     5
100
AcDbLine
 10
273.752083
 20
151.059
 30
0.0
 11
302.252083
 21
151.059
 31
0.0
  0
LINE
  5
2F7
100
AcDbEntity
  8
1
  6
CONTINUOUS
 62
     5
100
AcDbLine
 10
123.37375
 20
142.565667
 30
0.0
 11
123.37375
 21
113.184
 31
0.0
  0
LINE
  5
2F8
100
AcDbEntity
  8
1
  6
CONTINUOUS
 62
     5
100
AcDbLine
 10
123.37375
 20
113.184
 30
0.0
 11
123.37375
 21
61.802333
 31
0.0
  0
LINE
  5
2F9
100
AcDbEntity
  8
1
  6
CONTINUOUS
 62
     5
100
AcDbLine
 10
311.345417
 20
113.184
 30
0.0
 11
302.852083
 21
113.184
 31
0.0
  0
LINE
  5
2FA
100
AcDbEntity
  8
1
  6
CONTINUOUS
 62
     5
100
AcDbLine
 10
311.345417
 20
142.565667
 30
0.0
 11
302.852083
 21
142.565667
 31
0.0
  0
LINE
  5
2FB
100
AcDbEntity
  8
1
  6
CONTINUOUS
 62
     5
100
AcDbLine
 10
310.745417
 20
142.565667
 30
0.0
 11
310.745417
 21
113.184
 31
0.0
  0
LINE
  5
2FC
100
AcDbEntity
  8
1
  6
CONTINUOUS
 62
     5
100
AcDbLine
 10
224.650417
 20
141.229
 30
0.0
 11
239.332167
 21
145.094583
 31
0.0
  0
LINE
  5
2FD
100
AcDbEntity
  8
1
  6
CONTINUOUS
 62
     5
100
AcDbLine
 10
275.177083
 20
141.207333
 30
0.0
 11
260.650583
 21
145.032
 31
0.0
  0
LINE
  5
2FE
100
AcDbEntity
  8
1
  6
CONTINUOUS
 62
     5
100
AcDbLine
 10
302.252083
 20
106.842333
 30
0.0
 11
319.03375
 21
106.842333
 31
0.0
  0
LINE
  5
2FF
100
AcDbEntity
  8
1
  6
CONTINUOUS
 62
     5
100
AcDbLine
 10
267.215417
 20
113.914
 30
0.0
 11
304.85375
 21
94.154
 31
0.0
  0
LINE
  5
300
100
AcDbEntity
  8
1
  6
CONTINUOUS
 62
     5
100
AcDbLine
 10
304.85375
 20
94.154
 30
0.0
 11
319.03375
 21
94.154
 31
0.0
  0
LINE
  5
301
100
AcDbEntity
  8
1
  6
CONTINUOUS
 62
     5
100
AcDbLine
 10
254.380417
 20
64.340667
 30
0.0
 11
283.332083
 21
43.507333
 31
0.0
  0
LINE
  5
302
100
AcDbEntity
  8
1
  6
CONTINUOUS
 62
     5
100
AcDbLine
 10
283.332083
 20
43.507333
 30
0.0
 11
298.305417
 21
43.507333
 31
0.0
  0
LINE
  5
303
100
AcDbEntity
  8
1
  6
CONTINUOUS
 62
     5
100
AcDbLine
 10
168.867083
 20
49.872333
 30
0.0
 11
155.997083
 21
49.872333
 31
0.0
  0
LINE
  5
304
100
AcDbEntity
  8
1
  6
CONTINUOUS
 62
     5
100
AcDbLine
 10
145.18875
 20
-57.467333
 30
0.0
 11
198.855417
 21
-57.467333
 31
0.0
  0
LINE
  5
305
100
AcDbEntity
  8
1
  6
CONTINUOUS
 62
     5
100
AcDbLine
 10
108.68875
 20
-72.494
 30
0.0
 11
198.855417
 21
-72.494
 31
0.0
  0
LINE
  5
306
100
AcDbEntity
  8
1
  6
CONTINUOUS
 62
     5
100
AcDbLine
 10
114.01375
 20
-74.170667
 30
0.0
 11
197.002083
 21
-74.170667
 31
0.0
  0
LINE
  5
307
100
AcDbEntity
  8
1
  6
CONTINUOUS
 62
     5
100
AcDbLine
 10
150.36375
 20
-59.085667
 30
0.0
 11
193.002083
 21
-59.085667
 31
0.0
  0
LINE
  5
308
100
AcDbEntity
  8
1
  6
CONTINUOUS
 62
     5
100
AcDbLine
 10
198.855417
 20
-57.467333
 30
0.0
 11
198.855417
 21
-87.410667
 31
0.0
  0
ARC
  5
309
100
AcDbEntity
  8
1
  6
CONTINUOUS
 62
     5
100
AcDbCircle
 10
193.002083
 20
-63.085667
 30
0.0
 40
4.0
210
0.0
220
0.0
230
1.0
100
AcDbArc
 50
0.0
 51
90.0
  0
ARC
  5
30A
100
AcDbEntity
  8
1
  6
CONTINUOUS
 62
     5
100
AcDbCircle
 10
193.855417
 20
-62.467333
 30
0.0
 40
5.0
210
0.0
220
0.0
230
1.0
100
AcDbArc
 50
0.0
 51
90.0
  0
LINE
  5
30B
100
AcDbEntity
  8
1
  6
CONTINUOUS
 62
     5
100
AcDbLine
 10
145.18875
 20
-57.467333
 30
0.0
 11
145.18875
 21
-72.494
 31
0.0
  0
LINE
  5
30C
100
AcDbEntity
  8
1
  6
CONTINUOUS
 62
     5
100
AcDbLine
 10
146.36375
 20
-63.085667
 30
0.0
 11
146.36375
 21
-72.494
 31
0.0
  0
ARC
  5
30D
100
AcDbEntity
  8
1
  6
CONTINUOUS
 62
     5
100
AcDbCircle
 10
150.18875
 20
-62.467333
 30
0.0
 40
5.0
210
0.0
220
0.0
230
1.0
100
AcDbArc
 50
90.0
 51
180.0
  0
ARC
  5
30E
100
AcDbEntity
  8
1
  6
CONTINUOUS
 62
     5
100
AcDbCircle
 10
150.36375
 20
-63.085667
 30
0.0
 40
4.0
210
0.0
220
0.0
230
1.0
100
AcDbArc
 50
90.0
 51
180.0
  0
LINE
  5
30F
100
AcDbEntity
  8
1
  6
CONTINUOUS
 62
     5
100
AcDbLine
 10
108.68875
 20
-72.494
 30
0.0
 11
108.68875
 21
-87.410667
 31
0.0
  0
LINE
  5
310
100
AcDbEntity
  8
1
  6
CONTINUOUS
 62
     5
100
AcDbLine
 10
110.01375
 20
-78.170667
 30
0.0
 11
110.01375
 21
-87.359
 31
0.0
  0
ARC
  5
311
100
AcDbEntity
  8
1
  6
CONTINUOUS
 62
     5
100
AcDbCircle
 10
114.01375
 20
-78.170667
 30
0.0
 40
4.0
210
0.0
220
0.0
230
1.0
100
AcDbArc
 50
90.0
 51
180.0
  0
ARC
  5
312
100
AcDbEntity
  8
1
  6
CONTINUOUS
 62
     5
100
AcDbCircle
 10
113.68875
 20
-77.494
 30
0.0
 40
5.0
210
0.0
220
0.0
230
1.0
100
AcDbArc
 50
90.0
 51
180.0
  0
LINE
  5
313
100
AcDbEntity
  8
1
  6
CONTINUOUS
 62
     5
100
AcDbLine
 10
197.002083
 20
-63.085667
 30
0.0
 11
197.002083
 21
-72.494
 31
0.0
  0
LINE
  5
314
100
AcDbEntity
  8
1
  6
CONTINUOUS
 62
     5
100
AcDbLine
 10
197.002083
 20
-74.170667
 30
0.0
 11
197.002083
 21
-87.410667
 31
0.0
  0
LINE
  5
315
100
AcDbEntity
  8
1
  6
CONTINUOUS
 62
     5
100
AcDbLine
 10
146.170417
 20
60.419
 30
0.0
 11
146.170417
 21
63.219
 31
0.0
  0
LINE
  5
316
100
AcDbEntity
  8
1
  6
CONTINUOUS
 62
     5
100
AcDbLine
 10
146.170417
 20
63.219
 30
0.0
 11
145.54375
 21
61.802333
 31
0.0
  0
LINE
  5
317
100
AcDbEntity
  8
1
  6
CONTINUOUS
 62
     5
100
AcDbLine
 10
146.797083
 20
61.835667
 30
0.0
 11
146.170417
 21
60.419
 31
0.0
  0
LINE
  5
318
100
AcDbEntity
  8
1
  6
CONTINUOUS
 62
     5
100
AcDbLine
 10
131.867083
 20
61.802333
 30
0.0
 11
145.54375
 21
61.802333
 31
0.0
  0
LINE
  5
319
100
AcDbEntity
  8
1
  6
CONTINUOUS
 62
     5
100
AcDbLine
 10
146.782083
 20
61.802333
 30
0.0
 11
168.867083
 21
61.802333
 31
0.0
  0
LINE
  5
31A
100
AcDbEntity
  8
1
  6
CONTINUOUS
 62
     5
100
AcDbLine
 10
179.937083
 20
61.802333
 30
0.0
 11
197.712083
 21
61.802333
 31
0.0
  0
LINE
  5
31B
100
AcDbEntity
  8
1
  6
CONTINUOUS
 62
     5
100
AcDbLine
 10
198.33875
 20
60.419
 30
0.0
 11
198.33875
 21
63.219
 31
0.0
  0
LINE
  5
31C
100
AcDbEntity
  8
1
  6
CONTINUOUS
 62
     5
100
AcDbLine
 10
198.33875
 20
63.219
 30
0.0
 11
197.712083
 21
61.802333
 31
0.0
  0
LINE
  5
31D
100
AcDbEntity
  8
1
  6
CONTINUOUS
 62
     5
100
AcDbLine
 10
198.965417
 20
61.835667
 30
0.0
 11
198.33875
 21
60.419
 31
0.0
  0
LINE
  5
31E
100
AcDbEntity
  8
1
  6
CONTINUOUS
 62
     5
100
AcDbLine
 10
198.950417
 20
61.802333
 30
0.0
 11
229.987083
 21
61.802333
 31
0.0
  0
LINE
  5
31F
100
AcDbEntity
  8
1
  6
CONTINUOUS
 62
     5
100
AcDbLine
 10
231.225417
 20
61.802333
 30
0.0
 11
254.380417
 21
61.802333
 31
0.0
  0
LINE
  5
320
100
AcDbEntity
  8
1
  6
CONTINUOUS
 62
     5
100
AcDbLine
 10
265.450417
 20
61.802333
 30
0.0
 11
277.07375
 21
61.802333
 31
0.0
  0
LINE
  5
321
100
AcDbEntity
  8
1
  6
CONTINUOUS
 62
     5
100
AcDbLine
 10
278.312083
 20
61.802333
 30
0.0
 11
302.252083
 21
61.802333
 31
0.0
  0
LINE
  5
322
100
AcDbEntity
  8
1
  6
CONTINUOUS
 62
     5
100
AcDbLine
 10
230.61375
 20
60.419
 30
0.0
 11
230.61375
 21
63.219
 31
0.0
  0
LINE
  5
323
100
AcDbEntity
  8
1
  6
CONTINUOUS
 62
     5
100
AcDbLine
 10
230.61375
 20
63.219
 30
0.0
 11
229.987083
 21
61.802333
 31
0.0
  0
LINE
  5
324
100
AcDbEntity
  8
1
  6
CONTINUOUS
 62
     5
100
AcDbLine
 10
231.240417
 20
61.835667
 30
0.0
 11
230.61375
 21
60.419
 31
0.0
  0
LINE
  5
325
100
AcDbEntity
  8
1
  6
CONTINUOUS
 62
     5
100
AcDbLine
 10
277.700417
 20
60.419
 30
0.0
 11
277.700417
 21
63.219
 31
0.0
  0
LINE
  5
326
100
AcDbEntity
  8
1
  6
CONTINUOUS
 62
     5
100
AcDbLine
 10
277.700417
 20
63.219
 30
0.0
 11
277.07375
 21
61.802333
 31
0.0
  0
LINE
  5
327
100
AcDbEntity
  8
1
  6
CONTINUOUS
 62
     5
100
AcDbLine
 10
278.327083
 20
61.835667
 30
0.0
 11
277.700417
 21
60.419
 31
0.0
  0
LINE
  5
328
100
AcDbEntity
  8
1
  6
CONTINUOUS
 62
     5
100
AcDbLine
 10
225.757083
 20
67.559
 30
0.0
 11
230.641667
 21
32.268917
 31
0.0
  0
LINE
  5
329
100
AcDbEntity
  8
1
  6
CONTINUOUS
 62
     5
100
AcDbLine
 10
230.641667
 20
32.268917
 30
0.0
 11
236.793333
 21
32.268917
 31
0.0
  0
LINE
  5
32A
100
AcDbEntity
  8
1
  6
CONTINUOUS
 62
     5
100
AcDbLine
 10
122.897083
 20
-88.794
 30
0.0
 11
122.897083
 21
-85.994
 31
0.0
  0
LINE
  5
32B
100
AcDbEntity
  8
1
  6
CONTINUOUS
 62
     5
100
AcDbLine
 10
122.897083
 20
-85.994
 30
0.0
 11
122.270417
 21
-87.410667
 31
0.0
  0
LINE
  5
32C
100
AcDbEntity
  8
1
  6
CONTINUOUS
 62
     5
100
AcDbLine
 10
123.52375
 20
-87.377333
 30
0.0
 11
122.897083
 21
-88.794
 31
0.0
  0
LINE
  5
32D
100
AcDbEntity
  8
1
  6
CONTINUOUS
 62
     5
100
AcDbLine
 10
152.622083
 20
-88.794
 30
0.0
 11
152.622083
 21
-85.994
 31
0.0
  0
LINE
  5
32E
100
AcDbEntity
  8
1
  6
CONTINUOUS
 62
     5
100
AcDbLine
 10
152.622083
 20
-85.994
 30
0.0
 11
151.995417
 21
-87.410667
 31
0.0
  0
LINE
  5
32F
100
AcDbEntity
  8
1
  6
CONTINUOUS
 62
     5
100
AcDbLine
 10
153.24875
 20
-87.377333
 30
0.0
 11
152.622083
 21
-88.794
 31
0.0
  0
LINE
  5
330
100
AcDbEntity
  8
1
  6
CONTINUOUS
 62
     5
100
AcDbLine
 10
183.157083
 20
-88.794
 30
0.0
 11
183.157083
 21
-85.994
 31
0.0
  0
LINE
  5
331
100
AcDbEntity
  8
1
  6
CONTINUOUS
 62
     5
100
AcDbLine
 10
183.157083
 20
-85.994
 30
0.0
 11
182.530417
 21
-87.410667
 31
0.0
  0
LINE
  5
332
100
AcDbEntity
  8
1
  6
CONTINUOUS
 62
     5
100
AcDbLine
 10
183.78375
 20
-87.377333
 30
0.0
 11
183.157083
 21
-88.794
 31
0.0
  0
LINE
  5
333
100
AcDbEntity
  8
1
  6
CONTINUOUS
 62
     5
100
AcDbLine
 10
108.68875
 20
-87.410667
 30
0.0
 11
122.270417
 21
-87.410667
 31
0.0
  0
LINE
  5
334
100
AcDbEntity
  8
1
  6
CONTINUOUS
 62
     5
100
AcDbLine
 10
123.50875
 20
-87.410667
 30
0.0
 11
151.995417
 21
-87.410667
 31
0.0
  0
LINE
  5
335
100
AcDbEntity
  8
1
  6
CONTINUOUS
 62
     5
100
AcDbLine
 10
153.23375
 20
-87.410667
 30
0.0
 11
182.530417
 21
-87.410667
 31
0.0
  0
LINE
  5
336
100
AcDbEntity
  8
1
  6
CONTINUOUS
 62
     5
100
AcDbLine
 10
183.76875
 20
-87.410667
 30
0.0
 11
198.855417
 21
-87.410667
 31
0.0
  0
LINE
  5
337
100
AcDbEntity
  8
1
  6
CONTINUOUS
 62
     5
100
AcDbLine
 10
145.18875
 20
-56.867333
 30
0.0
 11
145.18875
 21
-32.774
 31
0.0
  0
LINE
  5
338
100
AcDbEntity
  8
1
  6
CONTINUOUS
 62
     5
100
AcDbLine
 10
198.855417
 20
-56.867333
 30
0.0
 11
198.855417
 21
-32.774
 31
0.0
  0
LINE
  5
339
100
AcDbEntity
  8
1
  6
CONTINUOUS
 62
     5
100
AcDbLine
 10
199.455417
 20
-57.467333
 30
0.0
 11
222.482083
 21
-57.467333
 31
0.0
  0
LINE
  5
33A
100
AcDbEntity
  8
1
  6
CONTINUOUS
 62
     5
100
AcDbLine
 10
199.455417
 20
-72.494
 30
0.0
 11
222.482083
 21
-72.494
 31
0.0
  0
LINE
  5
33B
100
AcDbEntity
  8
1
  6
CONTINUOUS
 62
     5
100
AcDbLine
 10
199.455417
 20
-60.770667
 30
0.0
 11
210.867083
 21
-60.770667
 31
0.0
  0
LINE
  5
33C
100
AcDbEntity
  8
1
  6
CONTINUOUS
 62
     5
100
AcDbLine
 10
199.455417
 20
-70.662333
 30
0.0
 11
210.867083
 21
-70.662333
 31
0.0
  0
LINE
  5
33D
100
AcDbEntity
  8
1
  6
CONTINUOUS
 62
     5
100
AcDbLine
 10
150.077083
 20
-56.867333
 30
0.0
 11
150.077083
 21
-45.470667
 31
0.0
  0
LINE
  5
33E
100
AcDbEntity
  8
1
  6
CONTINUOUS
 62
     5
100
AcDbLine
 10
166.297083
 20
-56.867333
 30
0.0
 11
166.297083
 21
-45.470667
 31
0.0
  0
LINE
  5
33F
100
AcDbEntity
  8
1
  6
CONTINUOUS
 62
     5
100
AcDbLine
 10
183.702083
 20
-56.867333
 30
0.0
 11
183.702083
 21
-45.470667
 31
0.0
  0
LINE
  5
340
100
AcDbEntity
  8
1
  6
CONTINUOUS
 62
     5
100
AcDbLine
 10
191.615417
 20
-56.867333
 30
0.0
 11
191.615417
 21
-45.470667
 31
0.0
  0
LINE
  5
341
100
AcDbEntity
  8
1
  6
CONTINUOUS
 62
     5
100
AcDbLine
 10
144.58875
 20
-57.467333
 30
0.0
 11
133.03875
 21
-57.467333
 31
0.0
  0
LINE
  5
342
100
AcDbEntity
  8
1
  6
CONTINUOUS
 62
     5
100
AcDbLine
 10
144.58875
 20
-61.562333
 30
0.0
 11
133.03875
 21
-61.562333
 31
0.0
  0
LINE
  5
343
100
AcDbEntity
  8
1
  6
CONTINUOUS
 62
     5
100
AcDbLine
 10
144.58875
 20
-68.157333
 30
0.0
 11
133.03875
 21
-68.157333
 31
0.0
  0
LINE
  5
344
100
AcDbEntity
  8
1
  6
CONTINUOUS
 62
     5
100
AcDbLine
 10
145.18875
 20
-33.374
 30
0.0
 11
198.855417
 21
-33.374
 31
0.0
  0
LINE
  5
345
100
AcDbEntity
  8
1
  6
CONTINUOUS
 62
     5
100
AcDbLine
 10
221.882083
 20
-57.467333
 30
0.0
 11
221.882083
 21
-72.494
 31
0.0
  0
LINE
  5
346
100
AcDbEntity
  8
1
  6
CONTINUOUS
 62
     5
100
AcDbLine
 10
199.26375
 20
-74.355667
 30
0.0
 11
208.362083
 21
-80.819
 31
0.0
  0
LINE
  5
347
100
AcDbEntity
  8
1
  6
CONTINUOUS
 62
     5
100
AcDbLine
 10
208.362083
 20
-80.819
 30
0.0
 11
214.16375
 21
-80.819
 31
0.0
  0
LINE
  5
349
100
AcDbEntity
  8
61
  6
CONTINUOUS
 62
     1
100
AcDbLine
 10
407.219583
 20
221.877083
 30
0.0
 11
-231.820417
 21
221.877083
 31
0.0
  0
LINE
  5
34A
100
AcDbEntity
  8
61
  6
CONTINUOUS
 62
     1
100
AcDbLine
 10
-231.820417
 20
221.877083
 30
0.0
 11
-231.820417
 21
-198.142917
 31
0.0
  0
LINE
  5
34B
100
AcDbEntity
  8
61
  6
CONTINUOUS
 62
     1
100
AcDbLine
 10
407.239583
 20
-198.162917
 30
0.0
 11
-231.820417
 21
-198.142917
 31
0.0
  0
LINE
  5
34C
100
AcDbEntity
  8
61
  6
CONTINUOUS
 62
     1
100
AcDbLine
 10
407.219583
 20
221.877083
 30
0.0
 11
407.239583
 21
-198.162917
 31
0.0
  0
LINE
  5
34D
100
AcDbEntity
  8
61
  6
CONTINUOUS
 62
     1
100
AcDbLine
 10
401.119583
 20
217.137083
 30
0.0
 11
293.139583
 21
217.117083
 31
0.0
  0
LINE
  5
34E
100
AcDbEntity
  8
61
  6
CONTINUOUS
 62
     1
100
AcDbLine
 10
293.139583
 20
217.117083
 30
0.0
 11
293.139583
 21
197.117083
 31
0.0
  0
LINE
  5
34F
100
AcDbEntity
  8
61
  6
CONTINUOUS
 62
     1
100
AcDbLine
 10
401.119583
 20
217.137083
 30
0.0
 11
401.119583
 21
197.137083
 31
0.0
  0
LINE
  5
350
100
AcDbEntity
  8
61
  6
CONTINUOUS
 62
     1
100
AcDbLine
 10
401.119583
 20
197.137083
 30
0.0
 11
293.139583
 21
197.117083
 31
0.0
  0
LINE
  5
351
100
AcDbEntity
  8
61
  6
CONTINUOUS
 62
     1
100
AcDbLine
 10
401.139583
 20
207.097083
 30
0.0
 11
293.119583
 21
207.117083
 31
0.0
  0
LINE
  5
352
100
AcDbEntity
  8
61
  6
CONTINUOUS
 62
     1
100
AcDbLine
 10
303.139583
 20
217.117083
 30
0.0
 11
303.139583
 21
197.117083
 31
0.0
  0
LINE
  5
353
100
AcDbEntity
  8
61
  6
CONTINUOUS
 62
     1
100
AcDbLine
 10
313.139583
 20
217.117083
 30
0.0
 11
313.139583
 21
197.117083
 31
0.0
  0
LINE
  5
354
100
AcDbEntity
  8
61
  6
CONTINUOUS
 62
     1
100
AcDbLine
 10
326.819583
 20
217.117083
 30
0.0
 11
326.819583
 21
197.117083
 31
0.0
  0
LINE
  5
355
100
AcDbEntity
  8
61
  6
CONTINUOUS
 62
     1
100
AcDbLine
 10
391.119583
 20
217.137083
 30
0.0
 11
391.119583
 21
197.137083
 31
0.0
  0
LINE
  5
356
100
AcDbEntity
  8
61
  6
CONTINUOUS
 62
     1
100
AcDbLine
 10
381.119583
 20
217.137083
 30
0.0
 11
381.119583
 21
197.137083
 31
0.0
  0
LINE
  5
357
100
AcDbEntity
  8
61
  6
CONTINUOUS
 62
     1
100
AcDbLine
 10
359.139583
 20
217.117083
 30
0.0
 11
359.139583
 21
197.117083
 31
0.0
  0
LINE
  5
358
100
AcDbEntity
  8
61
  6
CONTINUOUS
 62
     1
100
AcDbLine
 10
349.139583
 20
217.117083
 30
0.0
 11
349.139583
 21
197.117083
 31
0.0
  0
TEXT
  5
35A
100
AcDbEntity
  8
61
  6
CONTINUOUS
 62
     1
100
AcDbText
 10
295.179583
 20
214.097083
 30
0.0
 40
1.20072
  1
PUBLIC
 50
0.033272
 41
1.001799
  7
MONOTXT
210
0.0
220
0.0
230
1.0
100
AcDbText
  0
TEXT
  5
35B
100
AcDbEntity
  8
61
  6
CONTINUOUS
 62
     1
100
AcDbText
 10
295.259583
 20
211.577083
 30
0.0
 40
1.20072
  1
ROADS
 50
0.124322
 41
0.996902
  7
MONOTXT
210
0.0
220
0.0
230
1.0
100
AcDbText
  0
TEXT
  5
35C
100
AcDbEntity
  8
61
  6
CONTINUOUS
 62
     1
100
AcDbText
 10
296.459583
 20
209.077083
 30
0.0
 40
1.20072
  1
DIV.
 50
359.931522
 41
0.994903
  7
MONOTXT
210
0.0
220
0.0
230
1.0
100
AcDbText
  0
TEXT
  5
35D
100
AcDbEntity
  8
61
  6
CONTINUOUS
 62
     1
100
AcDbText
 10
305.339583
 20
214.157083
 30
0.0
 40
1.20072
  1
STATE
 50
0.058969
 41
0.998201
  7
MONOTXT
210
0.0
220
0.0
230
1.0
100
AcDbText
  0
TEXT
  5
35E
100
AcDbEntity
  8
61
  6
CONTINUOUS
 62
     1
100
AcDbText
 10
306.219583
 20
211.657083
 30
0.0
 40
1.20072
  1
DIST.
 50
0.055889
 41
0.9996
  7
MONOTXT
210
0.0
220
0.0
230
1.0
100
AcDbText
  0
TEXT
  5
35F
100
AcDbEntity
  8
61
  6
CONTINUOUS
 62
     1
100
AcDbText
 10
306.799583
 20
209.137083
 30
0.0
 40
1.20072
  1
NO.
 50
359.852072
 41
0.997801
  7
MONOTXT
210
0.0
220
0.0
230
1.0
100
AcDbText
  0
TEXT
  5
360
100
AcDbEntity
  8
61
  6
CONTINUOUS
 62
     1
100
AcDbText
 10
317.339583
 20
214.097083
 30
0.0
 40
1.20072
  1
STATE
 50
0.058969
 41
0.998201
  7
MONOTXT
210
0.0
220
0.0
230
1.0
100
AcDbText
  0
TEXT
  5
361
100
AcDbEntity
  8
61
  6
CONTINUOUS
 62
     1
100
AcDbText
 10
316.259583
 20
211.677083
 30
0.0
 40
1.20072
  1
PROJECT
 50
359.908431
 41
1.0001
  7
MONOTXT
210
0.0
220
0.0
230
1.0
100
AcDbText
  0
TEXT
  5
362
100
AcDbEntity
  8
61
  6
CONTINUOUS
 62
     1
100
AcDbText
 10
318.999583
 20
209.137083
 30
0.0
 40
1.20072
  1
NO.
 50
0.225453
 41
0.993604
  7
MONOTXT
210
0.0
220
0.0
230
1.0
100
AcDbText
  0
TEXT
  5
363
100
AcDbEntity
  8
61
  6
CONTINUOUS
 62
     1
100
AcDbText
 10
334.639583
 20
212.977083
 30
0.0
 40
1.20072
  1
FEDERAL
 50
0.006714
 41
0.998601
  7
MONOTXT
210
0.0
220
0.0
230
1.0
100
AcDbText
  0
TEXT
  5
364
100
AcDbEntity
  8
61
  6
CONTINUOUS
 62
     1
100
AcDbText
 10
333.099583
 20
210.317083
 30
0.0
 40
1.20072
  1
PROJECT NO.
 50
359.921531
 41
1.0007
  7
MONOTXT
210
0.0
220
0.0
230
1.0
100
AcDbText
  0
TEXT
  5
365
100
AcDbEntity
  8
61
  6
CONTINUOUS
 62
     1
100
AcDbText
 10
351.379583
 20
212.917083
 30
0.0
 40
1.20072
  1
FISCAL
 50
359.941939
 41
0.999001
  7
MONOTXT
210
0.0
220
0.0
230
1.0
100
AcDbText
  0
TEXT
  5
366
100
AcDbEntity
  8
61
  6
CONTINUOUS
 62
     1
100
AcDbText
 10
351.899583
 20
210.017083
 30
0.0
 40
1.20072
  1
YEAR
 50
0.104606
 41
0.993304
  7
MONOTXT
210
0.0
220
0.0
230
1.0
100
AcDbText
  0
TEXT
  5
367
100
AcDbEntity
  8
61
  6
CONTINUOUS
 62
     1
100
AcDbText
 10
365.999583
 20
211.377083
 30
0.0
 40
1.20072
  1
COUNTY
 50
0.068575
 41
1.001899
  7
MONOTXT
210
0.0
220
0.0
230
1.0
100
AcDbText
  0
TEXT
  5
368
100
AcDbEntity
  8
61
  6
CONTINUOUS
 62
     1
100
AcDbText
 10
383.639583
 20
213.037083
 30
0.0
 40
1.20072
  1
SHEET
 50
0.058969
 41
0.997601
  7
MONOTXT
210
0.0
220
0.0
230
1.0
100
AcDbText
  0
TEXT
  5
369
100
AcDbEntity
  8
61
  6
CONTINUOUS
 62
     1
100
AcDbText
 10
385.059583
 20
210.317083
 30
0.0
 40
1.20072
  1
NO.
 50
359.852072
 41
0.997801
  7
MONOTXT
210
0.0
220
0.0
230
1.0
100
AcDbText
  0
TEXT
  5
36A
100
AcDbEntity
  8
61
  6
CONTINUOUS
 62
     1
100
AcDbText
 10
393.379583
 20
212.897083
 30
0.0
 40
1.20072
  1
TOTAL
 50
359.926039
 41
0.998601
  7
MONOTXT
210
0.0
220
0.0
230
1.0
100
AcDbText
  0
TEXT
  5
36B
100
AcDbEntity
  8
61
  6
CONTINUOUS
 62
     1
100
AcDbText
 10
392.919583
 20
210.197083
 30
0.0
 40
1.20072
  1
SHEETS
 50
359.958675
  7
MONOTXT
210
0.0
220
0.0
230
1.0
100
AcDbText
  0
TEXT
  5
36C
100
AcDbEntity
  8
61
  6
CONTINUOUS
 62
     1
100
AcDbText
 10
305.739583
 20
201.317083
 30
0.0
 40
2.40132
  1
  
 50
0.029406
 41
0.996502
  7
MONOTXT
210
0.0
220
0.0
230
1.0
100
AcDbText
  0
TEXT
  5
36D
100
AcDbEntity
  8
61
  6
CONTINUOUS
 62
     1
100
AcDbText
 10
382.919583
 20
201.037083
 30
0.0
 40
2.40132
  1
   
 50
0.011508
 41
1.000999
  7
MONOTXT
210
0.0
220
0.0
230
1.0
100
AcDbText
  0
TEXT
  5
36E
100
AcDbEntity
  8
61
  6
CONTINUOUS
 62
     1
100
AcDbText
 10
392.799583
 20
201.017083
 30
0.0
 40
2.40132
  1
   
 50
359.922128
 41
1.00055
  7
MONOTXT
210
0.0
220
0.0
230
1.0
100
AcDbText
  0
TEXT
  5
36F
100
AcDbEntity
  8
61
  6
CONTINUOUS
 62
     1
100
AcDbText
 10
316.179583
 20
204.417083
 30
0.0
 40
2.00676
  1
    
 50
0.054383
 41
0.993721
  7
MONOTXT
210
0.0
220
0.0
230
1.0
100
AcDbText
  0
TEXT
  5
370
100
AcDbEntity
  8
61
  6
CONTINUOUS
 62
     1
100
AcDbText
 10
313.259583
 20
201.397083
 30
0.0
 40
1.9896
  1
       
 50
0.064678
 41
1.000965
  7
MONOTXT
210
0.0
220
0.0
230
1.0
100
AcDbText
  0
TEXT
  5
371
100
AcDbEntity
  8
61
  6
CONTINUOUS
 62
     1
100
AcDbText
 10
314.219583
 20
198.497083
 30
0.0
 40
1.9896
  1
      
 50
359.958053
 41
1.000302
  7
MONOTXT
210
0.0
220
0.0
230
1.0
100
AcDbText
  0
TEXT
  5
372
100
AcDbEntity
  8
61
  6
CONTINUOUS
 62
     1
100
AcDbText
 10
325.179583
 20
203.137083
 30
0.0
 40
2.40132
  1
           
 50
0.011508
 41
0.998751
  7
MONOTXT
210
0.0
220
0.0
230
1.0
100
AcDbText
  0
TEXT
  5
373
100
AcDbEntity
  8
61
  6
CONTINUOUS
 62
     1
100
AcDbText
 10
325.059583
 20
199.477083
 30
0.0
 40
2.40132
  1
           
 50
0.011508
 41
0.9996
  7
MONOTXT
210
0.0
220
0.0
230
1.0
100
AcDbText
  0
TEXT
  5
374
100
AcDbEntity
  8
61
  6
CONTINUOUS
 62
     1
100
AcDbText
 10
360.399583
 20
201.217083
 30
0.0
 40
2.00676
  1
          
 50
0.009222
 41
0.992764
  7
MONOTXT
210
0.0
220
0.0
230
1.0
100
AcDbText
  0
ARC
  5
375
100
AcDbEntity
  8
61
  6
CONTINUOUS
 62
     1
100
AcDbCircle
 10
-250.12266
 20
133.118378
 30
0.0
 40
2.499998
210
0.0
220
0.0
230
1.0
100
AcDbArc
 50
323.130094
 51
316.232156
  0
ARC
  5
376
100
AcDbEntity
  8
61
  6
CONTINUOUS
 62
     1
100
AcDbCircle
 10
-250.12266
 20
78.118378
 30
0.0
 40
2.499998
210
0.0
220
0.0
230
1.0
100
AcDbArc
 50
323.130094
 51
315.375767
  0
ARC
  5
377
100
AcDbEntity
  8
61
  6
CONTINUOUS
 62
     1
100
AcDbCircle
 10
-250.40266
 20
-70.321622
 30
0.0
 40
2.499998
210
0.0
220
0.0
230
1.0
100
AcDbArc
 50
322.671753
 51
321.716147
  0
ARC
  5
378
100
AcDbEntity
  8
61
  6
CONTINUOUS
 62
     1
100
AcDbCircle
 10
-250.40266
 20
-125.321622
 30
0.0
 40
2.499998
210
0.0
220
0.0
230
1.0
100
AcDbArc
 50
323.130094
 51
312.314392
  0
LINE
  5
379
100
AcDbEntity
  8
61
  6
CONTINUOUS
 62
     1
100
AcDbLine
 10
-248.100417
 20
133.117083
 30
0.0
 11
-240.120417
 21
133.137083
 31
0.0
  0
LINE
  5
37A
100
AcDbEntity
  8
61
  6
CONTINUOUS
 62
     1
100
AcDbLine
 10
-248.120417
 20
78.117083
 30
0.0
 11
-240.120417
 21
78.117083
 31
0.0
  0
LINE
  5
37B
100
AcDbEntity
  8
61
  6
CONTINUOUS
 62
     1
100
AcDbLine
 10
-248.400417
 20
-70.302917
 30
0.0
 11
-240.400417
 21
-70.302917
 31
0.0
  0
LINE
  5
37C
100
AcDbEntity
  8
61
  6
CONTINUOUS
 62
     1
100
AcDbLine
 10
-248.380417
 20
-125.322917
 30
0.0
 11
-240.400417
 21
-125.322917
 31
0.0
  0
LINE
  5
37D
100
AcDbEntity
  8
61
  6
DASHED
 62
     1
100
AcDbLine
 10
-261.820417
 20
231.877083
 30
0.0
 11
418.199583
 21
231.877083
 31
0.0
  0
LINE
  5
37E
100
AcDbEntity
  8
61
  6
DASHED
 62
     1
100
AcDbLine
 10
418.179583
 20
-208.142917
 30
0.0
 11
-261.880417
 21
-208.162917
 31
0.0
  0
TEXT
  5
37F
100
AcDbEntity
  8
61
  6
CONTINUOUS
 62
     1
100
AcDbText
 10
380.659583
 20
189.297083
 30
0.0
 40
2.40132
  1
     
 41
1.001399
  7
MONOTXT
210
0.0
220
0.0
230
1.0
100
AcDbText
  0
LINE
  5
380
100
AcDbEntity
  8
1
  6
HIDDEN
 62
     1
100
AcDbLine
 10
418.199583
 20
231.877083
 30
0.0
 11
418.179583
 21
-208.142917
 31
0.0
  0
LINE
  5
381
100
AcDbEntity
  8
1
  6
HIDDEN
 62
     1
100
AcDbLine
 10
-261.820417
 20
231.877083
 30
0.0
 11
-261.880417
 21
-208.162917
 31
0.0
  0
TEXT
  5
383
100
AcDbEntity
  8
1
  6
CONTINUOUS
 62
     1
100
AcDbText
 10
372.959583
 20
-200.662917
 30
0.0
 40
1.2
  1
TRAFFIC ENGINEERING DIVISION
  7
TXT
210
0.0
220
0.0
230
1.0
100
AcDbText
  0
LINE
  5
384
100
AcDbEntity
  8
1
  6
CONTINUOUS
 62
     1
100
AcDbLine
 10
235.579583
 20
-198.162917
 30
0.0
 11
235.579583
 21
-106.582917
 31
0.0
  0
LINE
  5
385
100
AcDbEntity
  8
1
  6
CONTINUOUS
 62
     1
100
AcDbLine
 10
235.579583
 20
-106.582917
 30
0.0
 11
407.239583
 21
-106.582917
 31
0.0
  0
LINE
  5
386
100
AcDbEntity
  8
1
  6
CONTINUOUS
 62
     1
100
AcDbLine
 10
270.579583
 20
-198.202917
 30
0.0
 11
270.579583
 21
-153.242917
 31
0.0
  0
LINE
  5
387
100
AcDbEntity
  8
1
  6
CONTINUOUS
 62
     1
100
AcDbLine
 10
270.579583
 20
-153.242917
 30
0.0
 11
235.599583
 21
-153.242917
 31
0.0
  0
LINE
  5
388
100
AcDbEntity
  8
1
  6
CONTINUOUS
 62
     1
100
AcDbLine
 10
270.579583
 20
-157.722917
 30
0.0
 11
235.599583
 21
-157.722917
 31
0.0
  0
LINE
  5
389
100
AcDbEntity
  8
1
  6
CONTINUOUS
 62
     1
100
AcDbLine
 10
270.579583
 20
-162.222917
 30
0.0
 11
235.599583
 21
-162.222917
 31
0.0
  0
LINE
  5
38A
100
AcDbEntity
  8
1
  6
CONTINUOUS
 62
     1
100
AcDbLine
 10
270.579583
 20
-166.722917
 30
0.0
 11
235.599583
 21
-166.722917
 31
0.0
  0
LINE
  5
38B
100
AcDbEntity
  8
1
  6
CONTINUOUS
 62
     1
100
AcDbLine
 10
270.579583
 20
-171.242917
 30
0.0
 11
235.599583
 21
-171.242917
 31
0.0
  0
LINE
  5
38C
100
AcDbEntity
  8
1
  6
CONTINUOUS
 62
     1
100
AcDbLine
 10
270.579583
 20
-175.722917
 30
0.0
 11
235.599583
 21
-175.722917
 31
0.0
  0
LINE
  5
38D
100
AcDbEntity
  8
1
  6
CONTINUOUS
 62
     1
100
AcDbLine
 10
270.579583
 20
-180.202917
 30
0.0
 11
235.599583
 21
-180.202917
 31
0.0
  0
LINE
  5
38E
100
AcDbEntity
  8
1
  6
CONTINUOUS
 62
     1
100
AcDbLine
 10
270.579583
 20
-184.702917
 30
0.0
 11
235.599583
 21
-184.702917
 31
0.0
  0
LINE
  5
38F
100
AcDbEntity
  8
1
  6
CONTINUOUS
 62
     1
100
AcDbLine
 10
270.579583
 20
-189.202917
 30
0.0
 11
235.599583
 21
-189.202917
 31
0.0
  0
LINE
  5
390
100
AcDbEntity
  8
1
  6
CONTINUOUS
 62
     1
100
AcDbLine
 10
270.579583
 20
-193.722917
 30
0.0
 11
235.599583
 21
-193.722917
 31
0.0
  0
TEXT
  5
391
100
AcDbEntity
  8
1
  6
CONTINUOUS
 62
     1
100
AcDbText
 10
245.859583
 20
-156.242917
 30
0.0
 40
1.99776
  1
REVISIONS
  7
MONOTXT
210
0.0
220
0.0
230
1.0
100
AcDbText
  0
TEXT
  5
392
100
AcDbEntity
  8
1
  6
CONTINUOUS
 62
     1
100
AcDbText
 10
237.539583
 20
-152.242917
 30
0.0
 40
1.99776
  1
PREPARED: 03/29/67
  7
MONOTXT
210
0.0
220
0.0
230
1.0
100
AcDbText
  0
TEXT
  5
394
100
AcDbEntity
  8
1
  6
CONTINUOUS
 62
     1
100
AcDbText
 10
268.199583
 20
-115.182917
 30
0.0
 40
4.79484
  1
WEST VIRGINIA DIVISION OF HIGHWAYS
  7
ROMANT
 72
     1
 11
322.169833
 21
-110.388083
 31
0.0
210
0.0
220
0.0
230
1.0
100
AcDbText
 73
     3
  0
TEXT
  5
395
100
AcDbEntity
  8
1
  6
CONTINUOUS
 62
     1
100
AcDbText
 10
278.959583
 20
-126.342917
 30
0.0
 40
6.99264
  1
STANDARD DETAIL
  7
TXT
 72
     1
 11
323.449667
 21
-119.35025
 31
0.0
210
0.0
220
0.0
230
1.0
100
AcDbText
 73
     3
  0
TEXT
  5
396
100
AcDbEntity
  8
1
  6
CONTINUOUS
 62
     1
100
AcDbText
 10
274.419583
 20
-194.122917
 30
0.0
 40
6.99264
  1
STANDARD SHEET TE8-1 
  7
TXT
210
0.0
220
0.0
230
1.0
100
AcDbText
  0
TEXT
  5
397
100
AcDbEntity
  8
1
  6
CONTINUOUS
 62
     1
100
AcDbText
 10
245.3835
 20
-161.302917
 30
0.0
 40
2.00004
  1
05-28-69
  7
MONOTXT
 72
     1
 11
252.556833
 21
-159.302917
 31
0.0
210
0.0
220
0.0
230
1.0
100
AcDbText
 73
     3
  0
TEXT
  5
398
100
AcDbEntity
  8
1
  6
CONTINUOUS
 62
     1
100
AcDbText
 10
246.056417
 20
-165.702917
 30
0.0
 40
2.00004
  1
04-01-71
  7
MONOTXT
 72
     1
 11
252.528917
 21
-163.702917
 31
0.0
210
0.0
220
0.0
230
1.0
100
AcDbText
 73
     3
  0
TEXT
  5
399
100
AcDbEntity
  8
1
  6
CONTINUOUS
 62
     1
100
AcDbText
 10
246.076417
 20
-170.102917
 30
0.0
 40
2.00004
  1
04-11-75
  7
MONOTXT
 72
     1
 11
252.556833
 21
-168.102917
 31
0.0
210
0.0
220
0.0
230
1.0
100
AcDbText
 73
     3
  0
TEXT
  5
39A
100
AcDbEntity
  8
1
  6
CONTINUOUS
 62
     1
100
AcDbText
 10
246.170917
 20
-174.502917
 30
0.0
 40
2.00004
  1
10-21-76
  7
MONOTXT
 72
     1
 11
252.556833
 21
-172.502917
 31
0.0
210
0.0
220
0.0
230
1.0
100
AcDbText
 73
     3
  0
TEXT
  5
39B
100
AcDbEntity
  8
1
  6
CONTINUOUS
 62
     1
100
AcDbText
 10
245.58575
 20
-179.102917
 30
0.0
 40
2.00004
  1
05-15-79
  7
MONOTXT
 72
     1
 11
252.396917
 21
-177.102917
 31
0.0
210
0.0
220
0.0
230
1.0
100
AcDbText
 73
     3
  0
TEXT
  5
39C
100
AcDbEntity
  8
1
  6
CONTINUOUS
 62
     1
100
AcDbText
 10
244.879583
 20
-183.582917
 30
0.0
 40
2.00004
  1
        
  7
MONOTXT
 72
     1
 11
252.546417
 21
-181.582917
 31
0.0
210
0.0
220
0.0
230
1.0
100
AcDbText
 73
     3
  0
TEXT
  5
39D
100
AcDbEntity
  8
1
  6
CONTINUOUS
 62
     1
100
AcDbText
 10
244.779583
 20
-188.182917
 30
0.0
 40
2.00004
  1
        
  7
MONOTXT
 72
     1
 11
252.446417
 21
-186.182917
 31
0.0
210
0.0
220
0.0
230
1.0
100
AcDbText
 73
     3
  0
TEXT
  5
39E
100
AcDbEntity
  8
1
  6
CONTINUOUS
 62
     1
100
AcDbText
 10
244.879583
 20
-192.762917
 30
0.0
 40
2.00004
  1
        
  7
MONOTXT
 72
     1
 11
252.546417
 21
-190.762917
 31
0.0
210
0.0
220
0.0
230
1.0
100
AcDbText
 73
     3
  0
TEXT
  5
39F
100
AcDbEntity
  8
1
  6
CONTINUOUS
 62
     1
100
AcDbText
 10
244.879583
 20
-196.782917
 30
0.0
 40
2.00004
  1
        
  7
MONOTXT
 72
     1
 11
252.546417
 21
-194.782917
 31
0.0
210
0.0
220
0.0
230
1.0
100
AcDbText
 73
     3
  0
TEXT
  5
3A0
100
AcDbEntity
  8
1
  6
CONTINUOUS
 62
     1
100
AcDbText
 10
287.699583
 20
-200.562917
 30
0.0
 40
1.2
  1
CATALOG:dt standa  FILENAME:te81.dgn     DATE:05/17/94
  7
MONOTXT
210
0.0
220
0.0
230
1.0
100
AcDbText
  0
INSERT
  5
3A6
100
AcDbEntity
  8
1
  6
CONTINUOUS
 62
     1
100
AcDbBlockReference
  2
LDR
 10
-150.349583
 20
142.662333
 30
0.0
 41
240.0
 42
240.0
 50
90.0
210
0.0
220
0.0
230
1.0
  0
INSERT
  5
3A7
100
AcDbEntity
  8
1
  6
CONTINUOUS
 62
     1
100
AcDbBlockReference
  2
LDR
 10
-150.349583
 20
142.662333
 30
0.0
 41
240.0
 42
240.0
 50
90.0
210
0.0
220
0.0
230
1.0
  0
INSERT
  5
3A8
100
AcDbEntity
  8
1
  6
CONTINUOUS
 62
     1
100
AcDbBlockReference
  2
LDR
 10
-150.349583
 20
112.422333
 30
0.0
 41
240.0
 42
240.0
 50
270.0
210
0.0
220
0.0
230
1.0
  0
INSERT
  5
3A9
100
AcDbEntity
  8
1
  6
CONTINUOUS
 62
     1
100
AcDbBlockReference
  2
LDR
 10
-150.349583
 20
112.422333
 30
0.0
 41
240.0
 42
240.0
 50
270.0
210
0.0
220
0.0
230
1.0
  0
INSERT
  5
3AA
100
AcDbEntity
  8
1
  6
CONTINUOUS
 62
     1
100
AcDbBlockReference
  2
LDR
 10
-150.349583
 20
112.422333
 30
0.0
 41
240.0
 42
240.0
 50
90.0
210
0.0
220
0.0
230
1.0
  0
INSERT
  5
3AB
100
AcDbEntity
  8
1
  6
CONTINUOUS
 62
     1
100
AcDbBlockReference
  2
LDR
 10
-150.349583
 20
112.422333
 30
0.0
 41
240.0
 42
240.0
 50
90.0
210
0.0
220
0.0
230
1.0
  0
INSERT
  5
3AC
100
AcDbEntity
  8
1
  6
CONTINUOUS
 62
     1
100
AcDbBlockReference
  2
LDR
 10
-150.349583
 20
89.049
 30
0.0
 41
240.0
 42
240.0
 50
270.0
210
0.0
220
0.0
230
1.0
  0
INSERT
  5
3AD
100
AcDbEntity
  8
1
  6
CONTINUOUS
 62
     1
100
AcDbBlockReference
  2
LDR
 10
-150.349583
 20
89.049
 30
0.0
 41
240.0
 42
240.0
 50
270.0
210
0.0
220
0.0
230
1.0
  0
INSERT
  5
3AE
100
AcDbEntity
  8
1
  6
CONTINUOUS
 62
     1
100
AcDbBlockReference
  2
LDR
 10
-141.85625
 20
112.422333
 30
0.0
 41
240.0
 42
240.0
 50
90.0
210
0.0
220
0.0
230
1.0
  0
INSERT
  5
3AF
100
AcDbEntity
  8
1
  6
CONTINUOUS
 62
     1
100
AcDbBlockReference
  2
LDR
 10
-141.85625
 20
112.422333
 30
0.0
 41
240.0
 42
240.0
 50
90.0
210
0.0
220
0.0
230
1.0
  0
INSERT
  5
3B0
100
AcDbEntity
  8
1
  6
CONTINUOUS
 62
     1
100
AcDbBlockReference
  2
LDR
 10
-141.85625
 20
103.819
 30
0.0
 41
240.0
 42
240.0
 50
270.0
210
0.0
220
0.0
230
1.0
  0
INSERT
  5
3B1
100
AcDbEntity
  8
1
  6
CONTINUOUS
 62
     1
100
AcDbBlockReference
  2
LDR
 10
-141.85625
 20
103.819
 30
0.0
 41
240.0
 42
240.0
 50
270.0
210
0.0
220
0.0
230
1.0
  0
INSERT
  5
3B2
100
AcDbEntity
  8
1
  6
CONTINUOUS
 62
     1
100
AcDbBlockReference
  2
LDR
 10
-91.027917
 20
151.155667
 30
0.0
 41
240.0
 42
240.0
 50
180.0
210
0.0
220
0.0
230
1.0
  0
INSERT
  5
3B3
100
AcDbEntity
  8
1
  6
CONTINUOUS
 62
     1
100
AcDbBlockReference
  2
LDR
 10
-91.027917
 20
151.155667
 30
0.0
 41
240.0
 42
240.0
 50
180.0
210
0.0
220
0.0
230
1.0
  0
INSERT
  5
3B4
100
AcDbEntity
  8
1
  6
CONTINUOUS
 62
     1
100
AcDbBlockReference
  2
LDR
 10
-72.919583
 20
151.155667
 30
0.0
 41
240.0
 42
240.0
210
0.0
220
0.0
230
1.0
  0
INSERT
  5
3B5
100
AcDbEntity
  8
1
  6
CONTINUOUS
 62
     1
100
AcDbBlockReference
  2
LDR
 10
-72.919583
 20
151.155667
 30
0.0
 41
240.0
 42
240.0
210
0.0
220
0.0
230
1.0
  0
INSERT
  5
3B6
100
AcDbEntity
  8
1
  6
CONTINUOUS
 62
     1
100
AcDbBlockReference
  2
LDR
 10
-72.919583
 20
151.155667
 30
0.0
 41
240.0
 42
240.0
 50
180.0
210
0.0
220
0.0
230
1.0
  0
INSERT
  5
3B7
100
AcDbEntity
  8
1
  6
CONTINUOUS
 62
     1
100
AcDbBlockReference
  2
LDR
 10
-72.919583
 20
151.155667
 30
0.0
 41
240.0
 42
240.0
 50
180.0
210
0.0
220
0.0
230
1.0
  0
INSERT
  5
3B8
100
AcDbEntity
  8
1
  6
CONTINUOUS
 62
     1
100
AcDbBlockReference
  2
LDR
 10
-57.514583
 20
151.155667
 30
0.0
 41
240.0
 42
240.0
210
0.0
220
0.0
230
1.0
  0
INSERT
  5
3B9
100
AcDbEntity
  8
1
  6
CONTINUOUS
 62
     1
100
AcDbBlockReference
  2
LDR
 10
-57.514583
 20
151.155667
 30
0.0
 41
240.0
 42
240.0
210
0.0
220
0.0
230
1.0
  0
INSERT
  5
3BA
100
AcDbEntity
  8
1
  6
CONTINUOUS
 62
     1
100
AcDbBlockReference
  2
LDR
 10
-65.21625
 20
151.155667
 30
0.0
 41
239.999999
 42
239.999999
 50
252.93059
210
0.0
220
0.0
230
1.0
  0
INSERT
  5
3BB
100
AcDbEntity
  8
1
  6
CONTINUOUS
 62
     1
100
AcDbBlockReference
  2
LDR
 10
-65.21625
 20
151.155667
 30
0.0
 41
239.999999
 42
239.999999
 50
252.93059
210
0.0
220
0.0
230
1.0
  0
INSERT
  5
3BC
100
AcDbEntity
  8
1
  6
CONTINUOUS
 62
     1
100
AcDbBlockReference
  2
LDR
 10
-74.499583
 20
137.500667
 30
0.0
 41
240.000001
 42
240.000001
 50
243.246722
210
0.0
220
0.0
230
1.0
  0
INSERT
  5
3BD
100
AcDbEntity
  8
1
  6
CONTINUOUS
 62
     1
100
AcDbBlockReference
  2
LDR
 10
-76.114583
 20
142.659
 30
0.0
 41
239.999999
 42
239.999999
 50
234.620245
210
0.0
220
0.0
230
1.0
  0
INSERT
  5
3BE
100
AcDbEntity
  8
1
  6
CONTINUOUS
 62
     1
100
AcDbBlockReference
  2
LDR
 10
-72.007917
 20
123.077333
 30
0.0
 41
240.0
 42
240.0
 50
203.946426
210
0.0
220
0.0
230
1.0
  0
INSERT
  5
3BF
100
AcDbEntity
  8
1
  6
CONTINUOUS
 62
     1
100
AcDbBlockReference
  2
LDR
 10
-71.067917
 20
108.470667
 30
0.0
 41
239.999999
 42
239.999999
 50
231.074734
210
0.0
220
0.0
230
1.0
  0
INSERT
  5
3C0
100
AcDbEntity
  8
1
  6
CONTINUOUS
 62
     1
100
AcDbBlockReference
  2
LDR
 10
-63.264583
 20
111.884
 30
0.0
 41
240.000001
 42
240.000001
 50
211.832534
210
0.0
220
0.0
230
1.0
  0
INSERT
  5
3C1
100
AcDbEntity
  8
1
  6
CONTINUOUS
 62
     1
100
AcDbBlockReference
  2
LDR
 10
-57.427917
 20
106.222333
 30
0.0
 41
240.0
 42
240.0
 50
180.0
210
0.0
220
0.0
230
1.0
  0
INSERT
  5
3C2
100
AcDbEntity
  8
1
  6
CONTINUOUS
 62
     1
100
AcDbBlockReference
  2
LDR
 10
-57.427917
 20
106.222333
 30
0.0
 41
240.0
 42
240.0
 50
180.0
210
0.0
220
0.0
230
1.0
  0
INSERT
  5
3C3
100
AcDbEntity
  8
1
  6
CONTINUOUS
 62
     1
100
AcDbBlockReference
  2
LDR
 10
-68.059583
 20
99.197333
 30
0.0
 41
239.999998
 42
239.999998
 50
151.940646
210
0.0
220
0.0
230
1.0
  0
INSERT
  5
3C4
100
AcDbEntity
  8
1
  6
CONTINUOUS
 62
     1
100
AcDbBlockReference
  2
LDR
 10
-65.709583
 20
101.645667
 30
0.0
 41
240.0
 42
240.0
 50
180.0
210
0.0
220
0.0
230
1.0
  0
INSERT
  5
3C5
100
AcDbEntity
  8
1
  6
CONTINUOUS
 62
     1
100
AcDbBlockReference
  2
LDR
 10
-106.502917
 20
91.849
 30
0.0
 41
240.000002
 42
240.000002
 50
50.903404
210
0.0
220
0.0
230
1.0
  0
INSERT
  5
3C6
100
AcDbEntity
  8
1
  6
CONTINUOUS
 62
     1
100
AcDbBlockReference
  2
LDR
 10
-103.239583
 20
80.594
 30
0.0
 41
240.0
 42
240.0
 50
180.0
210
0.0
220
0.0
230
1.0
  0
INSERT
  5
3C7
100
AcDbEntity
  8
1
  6
CONTINUOUS
 62
     1
100
AcDbBlockReference
  2
LDR
 10
-103.239583
 20
80.594
 30
0.0
 41
240.0
 42
240.0
 50
180.0
210
0.0
220
0.0
230
1.0
  0
INSERT
  5
3C8
100
AcDbEntity
  8
1
  6
CONTINUOUS
 62
     1
100
AcDbBlockReference
  2
LDR
 10
-72.072917
 20
80.594
 30
0.0
 41
240.0
 42
240.0
210
0.0
220
0.0
230
1.0
  0
INSERT
  5
3C9
100
AcDbEntity
  8
1
  6
CONTINUOUS
 62
     1
100
AcDbBlockReference
  2
LDR
 10
-74.184583
 20
117.045667
 30
0.0
 41
240.0
 42
240.0
210
0.0
220
0.0
230
1.0
  0
INSERT
  5
3CA
100
AcDbEntity
  8
1
  6
CONTINUOUS
 62
     1
100
AcDbBlockReference
  2
LDR
 10
-69.709583
 20
101.645667
 30
0.0
 41
240.0
 42
240.0
210
0.0
220
0.0
230
1.0
  0
LINE
  5
3CB
100
AcDbEntity
  8
1
  6
CONTINUOUS
 62
     5
100
AcDbLine
 10
-57.514583
 20
143.262333
 30
0.0
 11
-57.514583
 21
144.293417
 31
0.0
  0
LINE
  5
3CC
100
AcDbEntity
  8
1
  6
CONTINUOUS
 62
     5
100
AcDbLine
 10
-57.514583
 20
147.961833
 30
0.0
 11
-57.514583
 21
151.755667
 31
0.0
  0
TEXT
  5
3CD
100
AcDbEntity
  8
1
  6
CONTINUOUS
 62
     7
100
AcDbText
 10
-96.77775
 20
144.266167
 30
0.0
 40
2.5
  1
POST CLIP
  7
MONOTXT
 72
     4
 11
-86.787583
 21
145.516167
 31
0.0
210
0.0
220
0.0
230
1.0
100
AcDbText
  0
LINE
  5
3CE
100
AcDbEntity
  8
1
  6
CONTINUOUS
 62
     5
100
AcDbLine
 10
-91.027917
 20
143.262333
 30
0.0
 11
-91.027917
 21
143.834833
 31
0.0
  0
LINE
  5
3CF
100
AcDbEntity
  8
1
  6
CONTINUOUS
 62
     5
100
AcDbLine
 10
-91.027917
 20
147.121167
 30
0.0
 11
-91.027917
 21
151.755667
 31
0.0
  0
LINE
  5
3D0
100
AcDbEntity
  8
1
  6
CONTINUOUS
 62
     5
100
AcDbLine
 10
-81.57225
 20
151.155667
 30
0.0
 11
-83.798917
 21
158.407333
 31
0.0
  0
LINE
  5
3D1
100
AcDbEntity
  8
1
  6
CONTINUOUS
 62
     5
100
AcDbLine
 10
-83.798917
 20
158.407333
 30
0.0
 11
-87.055583
 21
158.407333
 31
0.0
  0
INSERT
  5
3D2
100
AcDbEntity
  8
1
  6
CONTINUOUS
 62
     1
100
AcDbBlockReference
  2
LDR
 10
-81.57225
 20
151.155667
 30
0.0
 41
239.999999
 42
-239.999999
 50
287.06941
210
0.0
220
0.0
230
1.0
  0
INSERT
  5
3D3
100
AcDbEntity
  8
1
  6
CONTINUOUS
 62
     1
100
AcDbBlockReference
  2
LDR
 10
-81.57225
 20
151.155667
 30
0.0
 41
239.999999
 42
-239.999999
 50
287.06941
210
0.0
220
0.0
230
1.0
  0
TEXT
  5
3D4
100
AcDbEntity
  8
1
  6
CONTINUOUS
 62
     7
100
AcDbText
 10
-44.810667
 20
92.5075
 30
0.0
 40
2.5
  1
SIGN SUPPORT FRAME ANGLE (STEEL)
  7
MONOTXT
 72
     4
 11
-7.733917
 21
93.7575
 31
0.0
210
0.0
220
0.0
230
1.0
100
AcDbText
  0
TEXT
  5
3D5
100
AcDbEntity
  8
1
  6
CONTINUOUS
 62
     7
100
AcDbText
 10
-159.368417
 20
81.321167
 30
0.0
 40
2.5
  1
STEEL SIGN SUPPORT
  7
MONOTXT
 72
     4
 11
-138.453083
 21
82.571167
 31
0.0
210
0.0
220
0.0
230
1.0
100
AcDbText
  0
TEXT
  5
3D6
100
AcDbEntity
  8
1
  6
CONTINUOUS
 62
     7
100
AcDbText
 10
-156.236833
 20
89.565833
 30
0.0
 40
2.5
  1
SIGN DEPTH
 50
90.0
  7
MONOTXT
 72
     4
 11
-157.486833
 21
100.737
 31
0.0
210
0.0
220
0.0
230
1.0
100
AcDbText
  0
TEXT
  5
3D7
100
AcDbEntity
  8
1
  6
CONTINUOUS
 62
     7
100
AcDbText
 10
-151.736833
 20
94.5265
 30
0.0
 40
2.5
  1
VARIES
 50
90.0
  7
MONOTXT
 72
     4
 11
-152.986833
 21
100.737083
 31
0.0
210
0.0
220
0.0
230
1.0
100
AcDbText
  0
TEXT
  5
3D8
100
AcDbEntity
  8
1
  6
CONTINUOUS
 62
     7
100
AcDbText
 10
-144.849333
 20
91.600917
 30
0.0
 40
2.5
  1
VARIES
 50
90.0
  7
MONOTXT
 72
     4
 11
-146.099333
 21
97.8115
 31
0.0
210
0.0
220
0.0
230
1.0
100
AcDbText
  0
LINE
  5
3D9
100
AcDbEntity
  8
1
  6
CONTINUOUS
 62
     7
100
AcDbLine
 10
-141.85625
 20
108.120667
 30
0.0
 11
-146.163917
 21
108.125833
 31
0.0
  0
LINE
  5
3DA
100
AcDbEntity
  8
1
  6
CONTINUOUS
 62
     7
100
AcDbLine
 10
-146.163917
 20
108.125833
 30
0.0
 11
-146.163917
 21
104.68525
 31
0.0
  0
INSERT
  5
3DB
100
AcDbEntity
  8
1
  6
CONTINUOUS
 62
     1
100
AcDbBlockReference
  2
LDR
 10
-141.85625
 20
108.120667
 30
0.0
 41
240.0
 42
240.0
 50
359.931279
210
0.0
220
0.0
230
1.0
  0
INSERT
  5
3DC
100
AcDbEntity
  8
1
  6
CONTINUOUS
 62
     1
100
AcDbBlockReference
  2
LDR
 10
-39.75125
 20
-6.702667
 30
0.0
 41
239.999999
 42
239.999999
 50
252.93059
210
0.0
220
0.0
230
1.0
  0
INSERT
  5
3DD
100
AcDbEntity
  8
1
  6
CONTINUOUS
 62
     1
100
AcDbBlockReference
  2
LDR
 10
-52.28125
 20
-20.287667
 30
0.0
 41
240.000001
 42
240.000001
 50
243.246722
210
0.0
220
0.0
230
1.0
  0
INSERT
  5
3DE
100
AcDbEntity
  8
1
  6
CONTINUOUS
 62
     1
100
AcDbBlockReference
  2
LDR
 10
-78.779583
 20
-6.702667
 30
0.0
 41
240.0
 42
240.0
 50
180.0
210
0.0
220
0.0
230
1.0
  0
INSERT
  5
3DF
100
AcDbEntity
  8
1
  6
CONTINUOUS
 62
     1
100
AcDbBlockReference
  2
LDR
 10
-54.09625
 20
-6.702667
 30
0.0
 41
240.0
 42
240.0
210
0.0
220
0.0
230
1.0
  0
INSERT
  5
3E0
100
AcDbEntity
  8
1
  6
CONTINUOUS
 62
     1
100
AcDbBlockReference
  2
LDR
 10
-54.09625
 20
-6.702667
 30
0.0
 41
240.0
 42
240.0
 50
180.0
210
0.0
220
0.0
230
1.0
  0
INSERT
  5
3E1
100
AcDbEntity
  8
1
  6
CONTINUOUS
 62
     1
100
AcDbBlockReference
  2
LDR
 10
-25.40625
 20
-6.702667
 30
0.0
 41
240.0
 42
240.0
210
0.0
220
0.0
230
1.0
  0
INSERT
  5
3E2
100
AcDbEntity
  8
1
  6
CONTINUOUS
 62
     1
100
AcDbBlockReference
  2
LDR
 10
-25.40625
 20
-34.187667
 30
0.0
 41
240.0
 42
240.0
 50
180.0
210
0.0
220
0.0
230
1.0
  0
INSERT
  5
3E3
100
AcDbEntity
  8
1
  6
CONTINUOUS
 62
     1
100
AcDbBlockReference
  2
LDR
 10
-141.482917
 20
-15.642667
 30
0.0
 41
240.0
 42
240.0
 50
90.0
210
0.0
220
0.0
230
1.0
  0
INSERT
  5
3E4
100
AcDbEntity
  8
1
  6
CONTINUOUS
 62
     1
100
AcDbBlockReference
  2
LDR
 10
-141.482917
 20
-15.642667
 30
0.0
 41
240.0
 42
240.0
 50
90.0
210
0.0
220
0.0
230
1.0
  0
INSERT
  5
3E5
100
AcDbEntity
  8
1
  6
CONTINUOUS
 62
     1
100
AcDbBlockReference
  2
LDR
 10
-141.482917
 20
-45.017667
 30
0.0
 41
240.0
 42
240.0
 50
270.0
210
0.0
220
0.0
230
1.0
  0
INSERT
  5
3E6
100
AcDbEntity
  8
1
  6
CONTINUOUS
 62
     1
100
AcDbBlockReference
  2
LDR
 10
-141.482917
 20
-45.017667
 30
0.0
 41
240.0
 42
240.0
 50
270.0
210
0.0
220
0.0
230
1.0
  0
INSERT
  5
3E7
100
AcDbEntity
  8
1
  6
CONTINUOUS
 62
     1
100
AcDbBlockReference
  2
LDR
 10
-141.482917
 20
-45.017667
 30
0.0
 41
240.0
 42
240.0
 50
90.0
210
0.0
220
0.0
230
1.0
  0
INSERT
  5
3E8
100
AcDbEntity
  8
1
  6
CONTINUOUS
 62
     1
100
AcDbBlockReference
  2
LDR
 10
-141.482917
 20
-45.017667
 30
0.0
 41
240.0
 42
240.0
 50
90.0
210
0.0
220
0.0
230
1.0
  0
INSERT
  5
3E9
100
AcDbEntity
  8
1
  6
CONTINUOUS
 62
     1
100
AcDbBlockReference
  2
LDR
 10
-141.482917
 20
-126.036
 30
0.0
 41
240.0
 42
240.0
 50
270.0
210
0.0
220
0.0
230
1.0
  0
INSERT
  5
3EA
100
AcDbEntity
  8
1
  6
CONTINUOUS
 62
     1
100
AcDbBlockReference
  2
LDR
 10
-141.482917
 20
-126.036
 30
0.0
 41
240.0
 42
240.0
 50
270.0
210
0.0
220
0.0
230
1.0
  0
INSERT
  5
3EB
100
AcDbEntity
  8
1
  6
CONTINUOUS
 62
     1
100
AcDbBlockReference
  2
LDR
 10
-30.57125
 20
-44.967667
 30
0.0
 41
240.000002
 42
240.000002
 50
151.25744
210
0.0
220
0.0
230
1.0
  0
INSERT
  5
3EC
100
AcDbEntity
  8
1
  6
CONTINUOUS
 62
     1
100
AcDbBlockReference
  2
LDR
 10
-52.447917
 20
-77.237667
 30
0.0
 41
239.999999
 42
239.999999
 50
172.774232
210
0.0
220
0.0
230
1.0
  0
INSERT
  5
3ED
100
AcDbEntity
  8
1
  6
CONTINUOUS
 62
     1
100
AcDbBlockReference
  2
LDR
 10
-52.447917
 20
-77.237667
 30
0.0
 41
239.999999
 42
239.999999
 50
172.774232
210
0.0
220
0.0
230
1.0
  0
INSERT
  5
3EE
100
AcDbEntity
  8
1
  6
CONTINUOUS
 62
     1
100
AcDbBlockReference
  2
LDR
 10
-90.00625
 20
-108.451
 30
0.0
 41
239.999998
 42
239.999998
 50
182.396566
210
0.0
220
0.0
230
1.0
  0
INSERT
  5
3EF
100
AcDbEntity
  8
1
  6
CONTINUOUS
 62
     1
100
AcDbBlockReference
  2
LDR
 10
-90.00625
 20
-108.451
 30
0.0
 41
239.999998
 42
239.999998
 50
182.396566
210
0.0
220
0.0
230
1.0
  0
INSERT
  5
3F0
100
AcDbEntity
  8
1
  6
CONTINUOUS
 62
     1
100
AcDbBlockReference
  2
LDR
 10
-90.00625
 20
-122.977667
 30
0.0
 41
240.0
 42
240.0
 50
127.318452
210
0.0
220
0.0
230
1.0
  0
INSERT
  5
3F1
100
AcDbEntity
  8
1
  6
CONTINUOUS
 62
     1
100
AcDbBlockReference
  2
LDR
 10
-132.542917
 20
-134.976
 30
0.0
 41
240.0
 42
240.0
 50
180.0
210
0.0
220
0.0
230
1.0
  0
INSERT
  5
3F2
100
AcDbEntity
  8
1
  6
CONTINUOUS
 62
     1
100
AcDbBlockReference
  2
LDR
 10
-132.542917
 20
-134.976
 30
0.0
 41
240.0
 42
240.0
 50
180.0
210
0.0
220
0.0
230
1.0
  0
INSERT
  5
3F3
100
AcDbEntity
  8
1
  6
CONTINUOUS
 62
     1
100
AcDbBlockReference
  2
LDR
 10
-90.00625
 20
-134.976
 30
0.0
 41
240.0
 42
240.0
210
0.0
220
0.0
230
1.0
  0
INSERT
  5
3F4
100
AcDbEntity
  8
1
  6
CONTINUOUS
 62
     1
100
AcDbBlockReference
  2
LDR
 10
-90.00625
 20
-134.976
 30
0.0
 41
240.0
 42
240.0
210
0.0
220
0.0
230
1.0
  0
INSERT
  5
3F5
100
AcDbEntity
  8
1
  6
CONTINUOUS
 62
     1
100
AcDbBlockReference
  2
LDR
 10
-90.00625
 20
-134.976
 30
0.0
 41
240.0
 42
240.0
 50
180.0
210
0.0
220
0.0
230
1.0
  0
INSERT
  5
3F6
100
AcDbEntity
  8
1
  6
CONTINUOUS
 62
     1
100
AcDbBlockReference
  2
LDR
 10
-90.00625
 20
-134.976
 30
0.0
 41
240.0
 42
240.0
 50
180.0
210
0.0
220
0.0
230
1.0
  0
INSERT
  5
3F7
100
AcDbEntity
  8
1
  6
CONTINUOUS
 62
     1
100
AcDbBlockReference
  2
LDR
 10
-25.40625
 20
-134.976
 30
0.0
 41
240.0
 42
240.0
210
0.0
220
0.0
230
1.0
  0
TEXT
  5
3F8
100
AcDbEntity
  8
1
  6
CONTINUOUS
 62
     7
100
AcDbText
 10
-142.704083
 20
-104.018333
 30
0.0
 40
2.5
  1
SIGN DEPTH VARIES
 50
90.0
  7
MONOTXT
 72
     4
 11
-143.954083
 21
-84.992833
 31
0.0
210
0.0
220
0.0
230
1.0
100
AcDbText
  0
TEXT
  5
3F9
100
AcDbEntity
  8
1
  6
CONTINUOUS
 62
     7
100
AcDbText
 10
-81.593417
 20
-13.058583
 30
0.0
 40
2.5
  1
POST CLIP
  7
MONOTXT
 72
     4
 11
-71.60325
 21
-11.808583
 31
0.0
210
0.0
220
0.0
230
1.0
100
AcDbText
  0
LINE
  5
3FA
100
AcDbEntity
  8
1
  6
CONTINUOUS
 62
     5
100
AcDbLine
 10
-78.779583
 20
-15.042667
 30
0.0
 11
-78.779583
 21
-13.532
 31
0.0
  0
LINE
  5
3FB
100
AcDbEntity
  8
1
  6
CONTINUOUS
 62
     5
100
AcDbLine
 10
-78.779583
 20
-10.078167
 30
0.0
 11
-78.779583
 21
-6.102667
 31
0.0
  0
LINE
  5
3FC
100
AcDbEntity
  8
1
  6
CONTINUOUS
 62
     5
100
AcDbLine
 10
-25.40625
 20
-15.042667
 30
0.0
 11
-25.40625
 21
-13.19775
 31
0.0
  0
LINE
  5
3FD
100
AcDbEntity
  8
1
  6
CONTINUOUS
 62
     5
100
AcDbLine
 10
-25.40625
 20
-9.521083
 30
0.0
 11
-25.40625
 21
-6.102667
 31
0.0
  0
TEXT
  5
3FE
100
AcDbEntity
  8
1
  6
CONTINUOUS
 62
     7
100
AcDbText
 10
-11.583167
 20
-105.9205
 30
0.0
 40
2.5
  1
SIGN SUPPORT
  7
MONOTXT
 72
     4
 11
2.2455
 21
-104.6705
 31
0.0
210
0.0
220
0.0
230
1.0
100
AcDbText
  0
INSERT
  5
3FF
100
AcDbEntity
  8
1
  6
CONTINUOUS
 62
     1
100
AcDbBlockReference
  2
LDR
 10
-89.99725
 20
-98.512417
 30
0.0
 41
240.0
 42
240.0
 50
180.0
210
0.0
220
0.0
230
1.0
  0
INSERT
  5
400
100
AcDbEntity
  8
1
  6
CONTINUOUS
 62
     1
100
AcDbBlockReference
  2
LDR
 10
-49.746917
 20
-98.49625
 30
0.0
 41
240.0
 42
240.0
210
0.0
220
0.0
230
1.0
  0
TEXT
  5
401
100
AcDbEntity
  8
1
  6
CONTINUOUS
 62
     7
100
AcDbText
 10
-80.639
 20
-131.015583
 30
0.0
 40
2.5
  1
ALUMINUM SIGN SUPPORT
  7
MONOTXT
 72
     4
 11
-56.2985
 21
-129.765583
 31
0.0
210
0.0
220
0.0
230
1.0
100
AcDbText
  0
TEXT
  5
402
100
AcDbEntity
  8
1
  6
CONTINUOUS
 62
     7
100
AcDbText
 10
-72.083583
 20
-138.7985
 30
0.0
 40
2.5
  1
SPACING VARIES
  7
MONOTXT
 72
     4
 11
-56.660417
 21
-137.5485
 31
0.0
210
0.0
220
0.0
230
1.0
100
AcDbText
  0
TEXT
  5
403
100
AcDbEntity
  8
1
  6
CONTINUOUS
 62
     7
100
AcDbText
 10
-129.107417
 20
-138.6175
 30
0.0
 40
2.5
  1
VARIES 1.22M MAX.
  7
MONOTXT
 72
     4
 11
-110.770833
 21
-137.3675
 31
0.0
210
0.0
220
0.0
230
1.0
100
AcDbText
  0
INSERT
  5
404
100
AcDbEntity
  8
1
  6
CONTINUOUS
 62
     1
100
AcDbBlockReference
  2
LDR
 10
174.37875
 20
160.152333
 30
0.0
 41
240.0
 42
240.0
 50
180.0
210
0.0
220
0.0
230
1.0
  0
INSERT
  5
405
100
AcDbEntity
  8
1
  6
CONTINUOUS
 62
     1
100
AcDbBlockReference
  2
LDR
 10
174.37875
 20
160.152333
 30
0.0
 41
240.0
 42
240.0
 50
180.0
210
0.0
220
0.0
230
1.0
  0
INSERT
  5
406
100
AcDbEntity
  8
1
  6
CONTINUOUS
 62
     1
100
AcDbBlockReference
  2
LDR
 10
259.91375
 20
160.152333
 30
0.0
 41
240.0
 42
240.0
210
0.0
220
0.0
230
1.0
  0
INSERT
  5
407
100
AcDbEntity
  8
1
  6
CONTINUOUS
 62
     1
100
AcDbBlockReference
  2
LDR
 10
259.91375
 20
160.152333
 30
0.0
 41
240.0
 42
240.0
210
0.0
220
0.0
230
1.0
  0
INSERT
  5
408
100
AcDbEntity
  8
1
  6
CONTINUOUS
 62
     1
100
AcDbBlockReference
  2
LDR
 10
123.37375
 20
142.565667
 30
0.0
 41
240.0
 42
240.0
 50
90.0
210
0.0
220
0.0
230
1.0
  0
INSERT
  5
409
100
AcDbEntity
  8
1
  6
CONTINUOUS
 62
     1
100
AcDbBlockReference
  2
LDR
 10
123.37375
 20
142.565667
 30
0.0
 41
240.0
 42
240.0
 50
90.0
210
0.0
220
0.0
230
1.0
  0
INSERT
  5
40A
100
AcDbEntity
  8
1
  6
CONTINUOUS
 62
     1
100
AcDbBlockReference
  2
LDR
 10
123.37375
 20
113.184
 30
0.0
 41
240.0
 42
240.0
 50
270.0
210
0.0
220
0.0
230
1.0
  0
INSERT
  5
40B
100
AcDbEntity
  8
1
  6
CONTINUOUS
 62
     1
100
AcDbBlockReference
  2
LDR
 10
123.37375
 20
113.184
 30
0.0
 41
240.0
 42
240.0
 50
90.0
210
0.0
220
0.0
230
1.0
  0
INSERT
  5
40C
100
AcDbEntity
  8
1
  6
CONTINUOUS
 62
     1
100
AcDbBlockReference
  2
LDR
 10
123.37375
 20
113.184
 30
0.0
 41
240.0
 42
240.0
 50
90.0
210
0.0
220
0.0
230
1.0
  0
INSERT
  5
40D
100
AcDbEntity
  8
1
  6
CONTINUOUS
 62
     1
100
AcDbBlockReference
  2
LDR
 10
123.37375
 20
61.802333
 30
0.0
 41
240.0
 42
240.0
 50
270.0
210
0.0
220
0.0
230
1.0
  0
INSERT
  5
40E
100
AcDbEntity
  8
1
  6
CONTINUOUS
 62
     1
100
AcDbBlockReference
  2
LDR
 10
123.37375
 20
61.802333
 30
0.0
 41
240.0
 42
240.0
 50
270.0
210
0.0
220
0.0
230
1.0
  0
INSERT
  5
40F
100
AcDbEntity
  8
1
  6
CONTINUOUS
 62
     1
100
AcDbBlockReference
  2
LDR
 10
168.867083
 20
49.872333
 30
0.0
 41
240.0
 42
240.0
210
0.0
220
0.0
230
1.0
  0
INSERT
  5
410
100
AcDbEntity
  8
1
  6
CONTINUOUS
 62
     1
100
AcDbBlockReference
  2
LDR
 10
168.867083
 20
49.872333
 30
0.0
 41
240.0
 42
240.0
210
0.0
220
0.0
230
1.0
  0
INSERT
  5
411
100
AcDbEntity
  8
1
  6
CONTINUOUS
 62
     1
100
AcDbBlockReference
  2
LDR
 10
197.320417
 20
151.059
 30
0.0
 41
240.0
 42
240.0
 50
180.0
210
0.0
220
0.0
230
1.0
  0
INSERT
  5
412
100
AcDbEntity
  8
1
  6
CONTINUOUS
 62
     1
100
AcDbBlockReference
  2
LDR
 10
197.320417
 20
151.059
 30
0.0
 41
240.0
 42
240.0
 50
180.0
210
0.0
220
0.0
230
1.0
  0
INSERT
  5
413
100
AcDbEntity
  8
1
  6
CONTINUOUS
 62
     1
100
AcDbBlockReference
  2
LDR
 10
225.255417
 20
151.059
 30
0.0
 41
240.0
 42
240.0
210
0.0
220
0.0
230
1.0
  0
INSERT
  5
414
100
AcDbEntity
  8
1
  6
CONTINUOUS
 62
     1
100
AcDbBlockReference
  2
LDR
 10
225.255417
 20
151.059
 30
0.0
 41
240.0
 42
240.0
210
0.0
220
0.0
230
1.0
  0
INSERT
  5
415
100
AcDbEntity
  8
1
  6
CONTINUOUS
 62
     1
100
AcDbBlockReference
  2
LDR
 10
225.255417
 20
151.059
 30
0.0
 41
240.0
 42
240.0
 50
180.0
210
0.0
220
0.0
230
1.0
  0
INSERT
  5
416
100
AcDbEntity
  8
1
  6
CONTINUOUS
 62
     1
100
AcDbBlockReference
  2
LDR
 10
225.255417
 20
151.059
 30
0.0
 41
240.0
 42
240.0
 50
180.0
210
0.0
220
0.0
230
1.0
  0
INSERT
  5
417
100
AcDbEntity
  8
1
  6
CONTINUOUS
 62
     1
100
AcDbBlockReference
  2
LDR
 10
273.752083
 20
151.059
 30
0.0
 41
240.0
 42
240.0
210
0.0
220
0.0
230
1.0
  0
INSERT
  5
418
100
AcDbEntity
  8
1
  6
CONTINUOUS
 62
     1
100
AcDbBlockReference
  2
LDR
 10
273.752083
 20
151.059
 30
0.0
 41
240.0
 42
240.0
210
0.0
220
0.0
230
1.0
  0
INSERT
  5
419
100
AcDbEntity
  8
1
  6
CONTINUOUS
 62
     1
100
AcDbBlockReference
  2
LDR
 10
273.752083
 20
151.059
 30
0.0
 41
240.0
 42
240.0
 50
180.0
210
0.0
220
0.0
230
1.0
  0
INSERT
  5
41A
100
AcDbEntity
  8
1
  6
CONTINUOUS
 62
     1
100
AcDbBlockReference
  2
LDR
 10
273.752083
 20
151.059
 30
0.0
 41
240.0
 42
240.0
 50
180.0
210
0.0
220
0.0
230
1.0
  0
INSERT
  5
41B
100
AcDbEntity
  8
1
  6
CONTINUOUS
 62
     1
100
AcDbBlockReference
  2
LDR
 10
302.252083
 20
151.059
 30
0.0
 41
240.0
 42
240.0
210
0.0
220
0.0
230
1.0
  0
INSERT
  5
41C
100
AcDbEntity
  8
1
  6
CONTINUOUS
 62
     1
100
AcDbBlockReference
  2
LDR
 10
310.745417
 20
142.565667
 30
0.0
 41
240.0
 42
240.0
 50
90.0
210
0.0
220
0.0
230
1.0
  0
INSERT
  5
41D
100
AcDbEntity
  8
1
  6
CONTINUOUS
 62
     1
100
AcDbBlockReference
  2
LDR
 10
310.745417
 20
142.565667
 30
0.0
 41
240.0
 42
240.0
 50
90.0
210
0.0
220
0.0
230
1.0
  0
INSERT
  5
41E
100
AcDbEntity
  8
1
  6
CONTINUOUS
 62
     1
100
AcDbBlockReference
  2
LDR
 10
310.745417
 20
113.184
 30
0.0
 41
240.0
 42
240.0
 50
270.0
210
0.0
220
0.0
230
1.0
  0
INSERT
  5
41F
100
AcDbEntity
  8
1
  6
CONTINUOUS
 62
     1
100
AcDbBlockReference
  2
LDR
 10
310.745417
 20
113.184
 30
0.0
 41
240.0
 42
240.0
 50
270.0
210
0.0
220
0.0
230
1.0
  0
INSERT
  5
420
100
AcDbEntity
  8
1
  6
CONTINUOUS
 62
     1
100
AcDbBlockReference
  2
LDR
 10
267.215417
 20
113.914
 30
0.0
 41
239.999998
 42
239.999998
 50
152.300676
210
0.0
220
0.0
230
1.0
  0
INSERT
  5
421
100
AcDbEntity
  8
1
  6
CONTINUOUS
 62
     1
100
AcDbBlockReference
  2
LDR
 10
267.215417
 20
113.914
 30
0.0
 41
239.999998
 42
239.999998
 50
152.300676
210
0.0
220
0.0
230
1.0
  0
INSERT
  5
422
100
AcDbEntity
  8
1
  6
CONTINUOUS
 62
     1
100
AcDbBlockReference
  2
LDR
 10
254.380417
 20
64.340667
 30
0.0
 41
240.000001
 42
240.000001
 50
144.261583
210
0.0
220
0.0
230
1.0
  0
INSERT
  5
423
100
AcDbEntity
  8
1
  6
CONTINUOUS
 62
     1
100
AcDbBlockReference
  2
LDR
 10
254.380417
 20
64.340667
 30
0.0
 41
240.000001
 42
240.000001
 50
144.261583
210
0.0
220
0.0
230
1.0
  0
INSERT
  5
424
100
AcDbEntity
  8
1
  6
CONTINUOUS
 62
     1
100
AcDbBlockReference
  2
LDR
 10
225.757083
 20
67.559
 30
0.0
 41
239.999998
 42
239.999998
 50
97.880352
210
0.0
220
0.0
230
1.0
  0
INSERT
  5
425
100
AcDbEntity
  8
1
  6
CONTINUOUS
 62
     1
100
AcDbBlockReference
  2
LDR
 10
225.757083
 20
67.559
 30
0.0
 41
239.999998
 42
239.999998
 50
97.880352
210
0.0
220
0.0
230
1.0
  0
INSERT
  5
426
100
AcDbEntity
  8
1
  6
CONTINUOUS
 62
     1
100
AcDbBlockReference
  2
LDR
 10
224.650417
 20
141.229
 30
0.0
 41
239.999999
 42
239.999999
 50
194.750669
210
0.0
220
0.0
230
1.0
  0
INSERT
  5
427
100
AcDbEntity
  8
1
  6
CONTINUOUS
 62
     1
100
AcDbBlockReference
  2
LDR
 10
275.177083
 20
141.207333
 30
0.0
 41
239.999999
 42
239.999999
 50
345.249331
210
0.0
220
0.0
230
1.0
  0
INSERT
  5
428
100
AcDbEntity
  8
1
  6
CONTINUOUS
 62
     1
100
AcDbBlockReference
  2
LDR
 10
302.252083
 20
106.842333
 30
0.0
 41
240.0
 42
240.0
 50
180.0
210
0.0
220
0.0
230
1.0
  0
LINE
  5
429
100
AcDbEntity
  8
1
  6
CONTINUOUS
 62
     5
100
AcDbLine
 10
196.720417
 20
142.565667
 30
0.0
 11
175.37875
 21
142.565667
 31
0.0
  0
LINE
  5
42A
100
AcDbEntity
  8
1
  6
CONTINUOUS
 62
     5
100
AcDbLine
 10
173.37875
 20
142.565667
 30
0.0
 11
122.77375
 21
142.565667
 31
0.0
  0
TEXT
  5
42B
100
AcDbEntity
  8
1
  6
CONTINUOUS
 62
     7
100
AcDbText
 10
195.860167
 20
161.327417
 30
0.0
 40
2.5
  1
POST SPACING VARIES
  7
MONOTXT
 72
     4
 11
217.60225
 21
162.577417
 31
0.0
210
0.0
220
0.0
230
1.0
100
AcDbText
  0
TEXT
  5
42C
100
AcDbEntity
  8
1
  6
CONTINUOUS
 62
     7
100
AcDbText
 10
277.855583
 20
174.84425
 30
0.0
 40
2.5
  1
1.83m MAX.
  7
MONOTXT
 72
     4
 11
288.96775
 21
176.09425
 31
0.0
210
0.0
220
0.0
230
1.0
100
AcDbText
  0
TEXT
  5
42D
100
AcDbEntity
  8
1
  6
CONTINUOUS
 62
     7
100
AcDbText
 10
265.355583
 20
170.34425
 30
0.0
 40
2.5
  1
(2.13m ALLOWABLE FOR
  7
MONOTXT
 72
     4
 11
288.96775
 21
171.59425
 31
0.0
210
0.0
220
0.0
230
1.0
100
AcDbText
  0
TEXT
  5
42E
100
AcDbEntity
  8
1
  6
CONTINUOUS
 62
     7
100
AcDbText
 10
269.725667
 20
165.84425
 30
0.0
 40
2.5
  1
2.90m EXIT PANEL)
  7
MONOTXT
 72
     4
 11
288.96775
 21
167.09425
 31
0.0
210
0.0
220
0.0
230
1.0
100
AcDbText
  0
LINE
  5
42F
100
AcDbEntity
  8
1
  6
CONTINUOUS
 62
     7
100
AcDbLine
 10
249.50375
 20
151.059
 30
0.0
 11
258.246917
 21
171.042167
 31
0.0
  0
LINE
  5
430
100
AcDbEntity
  8
1
  6
CONTINUOUS
 62
     7
100
AcDbLine
 10
258.246917
 20
171.042167
 30
0.0
 11
265.458917
 21
171.042167
 31
0.0
  0
INSERT
  5
431
100
AcDbEntity
  8
1
  6
CONTINUOUS
 62
     1
100
AcDbBlockReference
  2
LDR
 10
249.50375
 20
151.059
 30
0.0
 41
239.999999
 42
239.999999
 50
246.369344
210
0.0
220
0.0
230
1.0
  0
TEXT
  5
432
100
AcDbEntity
  8
1
  6
CONTINUOUS
 62
     7
100
AcDbText
 10
239.9885
 20
144.029833
 30
0.0
 40
2.5
  1
POST CLIP
  7
MONOTXT
 72
     4
 11
249.978667
 21
145.279833
 31
0.0
210
0.0
220
0.0
230
1.0
100
AcDbText
  0
LINE
  5
433
100
AcDbEntity
  8
1
  6
CONTINUOUS
 62
     5
100
AcDbLine
 10
259.91375
 20
152.059
 30
0.0
 11
259.91375
 21
160.752333
 31
0.0
  0
LINE
  5
434
100
AcDbEntity
  8
1
  6
CONTINUOUS
 62
     5
100
AcDbLine
 10
259.91375
 20
115.199
 30
0.0
 11
259.91375
 21
143.633167
 31
0.0
  0
LINE
  5
435
100
AcDbEntity
  8
1
  6
CONTINUOUS
 62
     5
100
AcDbLine
 10
259.91375
 20
147.116083
 30
0.0
 11
259.91375
 21
150.059
 31
0.0
  0
TEXT
  5
436
100
AcDbEntity
  8
1
  6
CONTINUOUS
 62
     7
100
AcDbText
 10
145.947
 20
48.842833
 30
0.0
 40
2.5
  1
POST
  7
MONOTXT
 72
     4
 11
150.622167
 21
50.092833
 31
0.0
210
0.0
220
0.0
230
1.0
100
AcDbText
  0
TEXT
  5
437
100
AcDbEntity
  8
1
  6
CONTINUOUS
 62
     7
100
AcDbText
 10
122.01875
 20
68.09525
 30
0.0
 40
2.5
  1
SIGN DEPTH VARIES
 50
90.0
  7
MONOTXT
 72
     4
 11
120.76875
 21
87.12075
 31
0.0
210
0.0
220
0.0
230
1.0
100
AcDbText
  0
TEXT
  5
438
100
AcDbEntity
  8
1
  6
CONTINUOUS
 62
     7
100
AcDbText
 10
315.941
 20
115.708
 30
0.0
 40
2.5
  1
EXIT NUMBER
 50
90.0
  7
MONOTXT
 72
     4
 11
314.691
 21
128.119333
 31
0.0
210
0.0
220
0.0
230
1.0
100
AcDbText
  0
TEXT
  5
439
100
AcDbEntity
  8
1
  6
CONTINUOUS
 62
     7
100
AcDbText
 10
320.441
 20
122.558417
 30
0.0
 40
2.5
  1
PANEL
 50
90.0
  7
MONOTXT
 72
     4
 11
319.191
 21
128.119417
 31
0.0
210
0.0
220
0.0
230
1.0
100
AcDbText
  0
INSERT
  5
43A
100
AcDbEntity
  8
1
  6
CONTINUOUS
 62
     1
100
AcDbBlockReference
  2
LDR
 10
145.18875
 20
-33.374
 30
0.0
 41
240.0
 42
240.0
 50
180.0
210
0.0
220
0.0
230
1.0
  0
INSERT
  5
43B
100
AcDbEntity
  8
1
  6
CONTINUOUS
 62
     1
100
AcDbBlockReference
  2
LDR
 10
145.18875
 20
-33.374
 30
0.0
 41
240.0
 42
240.0
 50
180.0
210
0.0
220
0.0
230
1.0
  0
INSERT
  5
43C
100
AcDbEntity
  8
1
  6
CONTINUOUS
 62
     1
100
AcDbBlockReference
  2
LDR
 10
198.855417
 20
-33.374
 30
0.0
 41
240.0
 42
240.0
210
0.0
220
0.0
230
1.0
  0
INSERT
  5
43D
100
AcDbEntity
  8
1
  6
CONTINUOUS
 62
     1
100
AcDbBlockReference
  2
LDR
 10
198.855417
 20
-33.374
 30
0.0
 41
240.0
 42
240.0
210
0.0
220
0.0
230
1.0
  0
INSERT
  5
43E
100
AcDbEntity
  8
1
  6
CONTINUOUS
 62
     1
100
AcDbBlockReference
  2
LDR
 10
221.882083
 20
-57.467333
 30
0.0
 41
240.0
 42
240.0
 50
90.0
210
0.0
220
0.0
230
1.0
  0
INSERT
  5
43F
100
AcDbEntity
  8
1
  6
CONTINUOUS
 62
     1
100
AcDbBlockReference
  2
LDR
 10
221.882083
 20
-72.494
 30
0.0
 41
240.0
 42
240.0
 50
270.0
210
0.0
220
0.0
230
1.0
  0
INSERT
  5
440
100
AcDbEntity
  8
1
  6
CONTINUOUS
 62
     1
100
AcDbBlockReference
  2
LDR
 10
221.882083
 20
-72.494
 30
0.0
 41
240.0
 42
240.0
 50
270.0
210
0.0
220
0.0
230
1.0
  0
INSERT
  5
441
100
AcDbEntity
  8
1
  6
CONTINUOUS
 62
     1
100
AcDbBlockReference
  2
LDR
 10
199.26375
 20
-74.355667
 30
0.0
 41
239.999999
 42
239.999999
 50
144.610527
210
0.0
220
0.0
230
1.0
  0
TEXT
  5
442
100
AcDbEntity
  8
1
  6
CONTINUOUS
 62
     7
100
AcDbText
 10
157.901917
 20
-23.449917
 30
0.0
 40
2.5
  1
1  DIGIT   2.29m
  7
MONOTXT
 11
157.901917
 21
-20.949917
 31
0.0
210
0.0
220
0.0
230
1.0
100
AcDbText
 73
     3
  0
TEXT
  5
443
100
AcDbEntity
  8
1
  6
CONTINUOUS
 62
     7
100
AcDbText
 10
157.901917
 20
-27.949917
 30
0.0
 40
2.5
  1
2 DIGIT   2.59m
  7
MONOTXT
 11
157.901917
 21
-25.449917
 31
0.0
210
0.0
220
0.0
230
1.0
100
AcDbText
 73
     3
  0
TEXT
  5
444
100
AcDbEntity
  8
1
  6
CONTINUOUS
 62
     7
100
AcDbText
 10
157.901917
 20
-32.449917
 30
0.0
 40
2.5
  1
3 DIGIT   2.90m
  7
MONOTXT
 11
157.901917
 21
-29.949917
 31
0.0
210
0.0
220
0.0
230
1.0
100
AcDbText
 73
     3
  0
TEXT
  5
445
100
AcDbEntity
  8
1
  6
CONTINUOUS
 62
     7
100
AcDbText
 10
170.778583
 20
-43.806
 30
0.0
 40
2.5
  1
VARIES
  7
MONOTXT
 72
     4
 11
176.989167
 21
-42.556
 31
0.0
210
0.0
220
0.0
230
1.0
100
AcDbText
  0
LINE
  5
446
100
AcDbEntity
  8
1
  6
CONTINUOUS
 62
     7
100
AcDbLine
 10
191.45175
 20
-36.3045
 30
0.0
 11
195.071583
 21
-36.3045
 31
0.0
  0
LINE
  5
447
100
AcDbEntity
  8
1
  6
CONTINUOUS
 62
     7
100
AcDbLine
 10
184.2155
 20
-42.227
 30
0.0
 11
187.614333
 21
-42.227
 31
0.0
  0
LINE
  5
448
100
AcDbEntity
  8
1
  6
CONTINUOUS
 62
     7
100
AcDbLine
 10
151.652417
 20
-36.962583
 30
0.0
 11
147.650833
 21
-36.962583
 31
0.0
  0
LINE
  5
449
100
AcDbEntity
  8
1
  6
CONTINUOUS
 62
     7
100
AcDbLine
 10
147.650833
 20
-36.962583
 30
0.0
 11
147.650833
 21
-47.713
 31
0.0
  0
LINE
  5
44A
100
AcDbEntity
  8
1
  6
CONTINUOUS
 62
     7
100
AcDbLine
 10
187.614333
 20
-42.227
 30
0.0
 11
187.614333
 21
-47.713
 31
0.0
  0
LINE
  5
44B
100
AcDbEntity
  8
1
  6
CONTINUOUS
 62
     7
100
AcDbLine
 10
195.071583
 20
-36.3045
 30
0.0
 11
195.071583
 21
-47.713
 31
0.0
  0
INSERT
  5
44C
100
AcDbEntity
  8
1
  6
CONTINUOUS
 62
     1
100
AcDbBlockReference
  2
LDR
 10
147.650833
 20
-47.713
 30
0.0
 41
240.0
 42
240.0
 50
270.0
210
0.0
220
0.0
230
1.0
  0
INSERT
  5
44D
100
AcDbEntity
  8
1
  6
CONTINUOUS
 62
     1
100
AcDbBlockReference
  2
LDR
 10
147.650833
 20
-47.713
 30
0.0
 41
240.0
 42
240.0
 50
270.0
210
0.0
220
0.0
230
1.0
  0
INSERT
  5
44E
100
AcDbEntity
  8
1
  6
CONTINUOUS
 62
     1
100
AcDbBlockReference
  2
LDR
 10
187.614333
 20
-47.713
 30
0.0
 41
240.0
 42
240.0
 50
270.0
210
0.0
220
0.0
230
1.0
  0
INSERT
  5
44F
100
AcDbEntity
  8
1
  6
CONTINUOUS
 62
     1
100
AcDbBlockReference
  2
LDR
 10
187.614333
 20
-47.713
 30
0.0
 41
240.0
 42
240.0
 50
270.0
210
0.0
220
0.0
230
1.0
  0
INSERT
  5
450
100
AcDbEntity
  8
1
  6
CONTINUOUS
 62
     1
100
AcDbBlockReference
  2
LDR
 10
195.071583
 20
-47.713
 30
0.0
 41
240.0
 42
240.0
 50
270.0
210
0.0
220
0.0
230
1.0
  0
TEXT
  5
451
100
AcDbEntity
  8
1
  6
CONTINUOUS
 62
     7
100
AcDbText
 10
214.147333
 20
-82.01675
 30
0.0
 40
2.5
  1
THERE IS NO BORDER RADIUS IN THE TOP RIGHT
  7
MONOTXT
 11
214.147333
 21
-79.51675
 31
0.0
210
0.0
220
0.0
230
1.0
100
AcDbText
 73
     3
  0
TEXT
  5
452
100
AcDbEntity
  8
1
  6
CONTINUOUS
 62
     7
100
AcDbText
 10
214.147333
 20
-86.51675
 30
0.0
 40
2.5
  1
(OR TOP LEFT DEPENDING ON WHICH SIDE OF THE
  7
MONOTXT
 11
214.147333
 21
-84.01675
 31
0.0
210
0.0
220
0.0
230
1.0
100
AcDbText
 73
     3
  0
TEXT
  5
453
100
AcDbEntity
  8
1
  6
CONTINUOUS
 62
     7
100
AcDbText
 10
214.147333
 20
-91.01675
 30
0.0
 40
2.5
  1
SIGN THE EXIT PANEL IS ATTACHED) CORNER OF
  7
MONOTXT
 11
214.147333
 21
-88.51675
 31
0.0
210
0.0
220
0.0
230
1.0
100
AcDbText
 73
     3
  0
TEXT
  5
454
100
AcDbEntity
  8
1
  6
CONTINUOUS
 62
     7
100
AcDbText
 10
214.147333
 20
-95.51675
 30
0.0
 40
2.5
  1
THE SIGN PANEL.
  7
MONOTXT
 11
214.147333
 21
-93.01675
 31
0.0
210
0.0
220
0.0
230
1.0
100
AcDbText
 73
     3
  0
TEXT
  5
455
100
AcDbEntity
  8
1
  6
CONTINUOUS
 62
     7
100
AcDbText
 10
150.423
 20
-67.9405
 30
0.0
 40
6.5
  1
EXIT
  7
TXT
 72
     4
 11
159.764333
 21
-64.6905
 31
0.0
210
0.0
220
0.0
230
1.0
100
AcDbText
  0
TEXT
  5
456
100
AcDbEntity
  8
1
  6
CONTINUOUS
 62
     7
100
AcDbText
 10
185.518167
 20
-70.21125
 30
0.0
 40
10.0
  1
4
  7
TXT
 72
     4
 11
189.003
 21
-65.21125
 31
0.0
210
0.0
220
0.0
230
1.0
100
AcDbText
  0
TEXT
  5
457
100
AcDbEntity
  8
1
  6
CONTINUOUS
 62
     7
100
AcDbText
 10
-145.4815
 20
57.886167
 30
0.0
 40
4.0
  1
OVERHEAD SIGN WITH STEEL FRAME
  7
MONOTXT
 72
     4
 11
-89.150833
 21
59.886167
 31
0.0
210
0.0
220
0.0
230
1.0
100
AcDbText
  0
TEXT
  5
458
100
AcDbEntity
  8
1
  6
CONTINUOUS
 62
     7
100
AcDbText
 10
-136.580167
 20
-162.943167
 30
0.0
 40
4.0
  1
OVERHEAD SIGN WITH ALUMINUM FRAME
  7
MONOTXT
 72
     4
 11
-74.769167
 21
-160.943167
 31
0.0
210
0.0
220
0.0
230
1.0
100
AcDbText
  0
TEXT
  5
459
100
AcDbEntity
  8
1
  6
CONTINUOUS
 62
     7
100
AcDbText
 10
110.67225
 20
15.41975
 30
0.0
 40
4.0
  1
GROUND MOUNT SIGN SHOWING ATTACHMENT OF AUXILIARY SUPPORTS
  7
MONOTXT
 72
     4
 11
221.711583
 21
17.41975
 31
0.0
210
0.0
220
0.0
230
1.0
100
AcDbText
  0
LINE
  5
45A
100
AcDbEntity
  8
1
  6
CONTINUOUS
 62
     7
100
AcDbLine
 10
-148.5455
 20
55.646
 30
0.0
 11
-28.942583
 21
55.646
 31
0.0
  0
LINE
  5
45B
100
AcDbEntity
  8
1
  6
CONTINUOUS
 62
     7
100
AcDbLine
 10
-138.75525
 20
-164.527333
 30
0.0
 11
-9.868833
 21
-164.527333
 31
0.0
  0
LINE
  5
45C
100
AcDbEntity
  8
1
  6
CONTINUOUS
 62
     7
100
AcDbLine
 10
107.6275
 20
13.181833
 30
0.0
 11
335.198417
 21
13.181833
 31
0.0
  0
TEXT
  5
45D
100
AcDbEntity
  8
1
  6
CONTINUOUS
 62
     7
100
AcDbText
 10
174.062667
 20
-23.688667
 30
0.0
 40
4.0
  1
=
  7
MONOTXT
 11
174.062667
 21
-19.688667
 31
0.0
210
0.0
220
0.0
230
1.0
100
AcDbText
 73
     3
  0
TEXT
  5
45E
100
AcDbEntity
  8
1
  6
CONTINUOUS
 62
     7
100
AcDbText
 10
174.062667
 20
-28.288667
 30
0.0
 40
4.0
  1
=
  7
MONOTXT
 11
174.062667
 21
-24.288667
 31
0.0
210
0.0
220
0.0
230
1.0
100
AcDbText
 73
     3
  0
TEXT
  5
45F
100
AcDbEntity
  8
1
  6
CONTINUOUS
 62
     7
100
AcDbText
 10
174.062667
 20
-32.888667
 30
0.0
 40
4.0
  1
=
  7
MONOTXT
 11
174.062667
 21
-28.888667
 31
0.0
210
0.0
220
0.0
230
1.0
100
AcDbText
 73
     3
  0
TEXT
  5
460
100
AcDbEntity
  8
1
  6
CONTINUOUS
 62
     1
100
AcDbText
 10
272.802833
 20
-135.762167
 30
0.0
 40
6.992667
  1
EXIT NUMBER PANEL
  7
TXT
 72
     1
 11
323.449833
 21
-128.7695
 31
0.0
210
0.0
220
0.0
230
1.0
100
AcDbText
 73
     3
  0
TEXT
  5
461
100
AcDbEntity
  8
1
  6
CONTINUOUS
 62
     1
100
AcDbText
 10
297.673417
 20
-145.346667
 30
0.0
 40
6.992667
  1
ALUMINUM
  7
TXT
 72
     1
 11
323.449833
 21
-138.354
 31
0.0
210
0.0
220
0.0
230
1.0
100
AcDbText
 73
     3
  0
LWPOLYLINE
  5
462
100
AcDbEntity
  8
1
  6
CONTINUOUS
 62
     7
100
AcDbPolyline
 90
        4
 70
     0
 10
240.007917
 20
-158.178417
 10
238.007917
 20
-161.6425
 10
242.007917
 20
-161.6425
 10
240.007917
 20
-158.178417
  0
LWPOLYLINE
  5
463
100
AcDbEntity
  8
1
  6
CONTINUOUS
 62
     7
100
AcDbPolyline
 90
        4
 70
     0
 10
239.991167
 20
-162.666333
 10
237.991167
 20
-166.130417
 10
241.991167
 20
-166.130417
 10
239.991167
 20
-162.666333
  0
LWPOLYLINE
  5
464
100
AcDbEntity
  8
1
  6
CONTINUOUS
 62
     7
100
AcDbPolyline
 90
        4
 70
     0
 10
239.916083
 20
-167.097
 10
237.916083
 20
-170.561083
 10
241.916083
 20
-170.561083
 10
239.916083
 20
-167.097
  0
LWPOLYLINE
  5
465
100
AcDbEntity
  8
1
  6
CONTINUOUS
 62
     7
100
AcDbPolyline
 90
        4
 70
     0
 10
239.953583
 20
-171.677833
 10
237.953583
 20
-175.141917
 10
241.953583
 20
-175.141917
 10
239.953583
 20
-171.677833
  0
LWPOLYLINE
  5
466
100
AcDbEntity
  8
1
  6
CONTINUOUS
 62
     7
100
AcDbPolyline
 90
        4
 70
     0
 10
239.991167
 20
-176.146083
 10
237.991167
 20
-179.610167
 10
241.991167
 20
-179.610167
 10
239.991167
 20
-176.146083
  0
TEXT
  5
467
100
AcDbEntity
  8
1
  6
CONTINUOUS
 62
     7
100
AcDbText
 10
239.653333
 20
-161.022
 30
0.0
 40
1.5
  1
1
  7
MONOTXT
 11
239.653333
 21
-159.522
 31
0.0
210
0.0
220
0.0
230
1.0
100
AcDbText
 73
     3
  0
TEXT
  5
468
100
AcDbEntity
  8
1
  6
CONTINUOUS
 62
     7
100
AcDbText
 10
239.465583
 20
-165.62275
 30
0.0
 40
1.5
  1
2
  7
MONOTXT
 11
239.465583
 21
-164.12275
 31
0.0
210
0.0
220
0.0
230
1.0
100
AcDbText
 73
     3
  0
TEXT
  5
469
100
AcDbEntity
  8
1
  6
CONTINUOUS
 62
     7
100
AcDbText
 10
239.353
 20
-170.03575
 30
0.0
 40
1.5
  1
3
  7
MONOTXT
 11
239.353
 21
-168.53575
 31
0.0
210
0.0
220
0.0
230
1.0
100
AcDbText
 73
     3
  0
TEXT
  5
46A
100
AcDbEntity
  8
1
  6
CONTINUOUS
 62
     7
100
AcDbText
 10
239.353
 20
-174.598917
 30
0.0
 40
1.5
  1
4
  7
MONOTXT
 11
239.353
 21
-173.098917
 31
0.0
210
0.0
220
0.0
230
1.0
100
AcDbText
 73
     3
  0
TEXT
  5
46B
100
AcDbEntity
  8
1
  6
CONTINUOUS
 62
     7
100
AcDbText
 10
239.540667
 20
-179.162167
 30
0.0
 40
1.5
  1
5
  7
MONOTXT
 11
239.540667
 21
-177.662167
 31
0.0
210
0.0
220
0.0
230
1.0
100
AcDbText
 73
     3
  0
LWPOLYLINE
  5
46C
100
AcDbEntity
  8
1
  6
CONTINUOUS
 62
     7
100
AcDbPolyline
 90
        4
 70
     0
 10
202.68075
 20
-186.659417
 10
200.68075
 20
-190.1235
 10
204.68075
 20
-190.1235
 10
202.68075
 20
-186.659417
  0
LWPOLYLINE
  5
46D
100
AcDbEntity
  8
1
  6
CONTINUOUS
 62
     7
100
AcDbPolyline
 90
        4
 70
     0
 10
202.39725
 20
-157.427417
 10
200.39725
 20
-160.8915
 10
204.39725
 20
-160.8915
 10
202.39725
 20
-157.427417
  0
LWPOLYLINE
  5
46E
100
AcDbEntity
  8
1
  6
CONTINUOUS
 62
     7
100
AcDbPolyline
 90
        4
 70
     0
 10
202.3805
 20
-164.018
 10
200.3805
 20
-167.482083
 10
204.3805
 20
-167.482083
 10
202.3805
 20
-164.018
  0
LWPOLYLINE
  5
46F
100
AcDbEntity
  8
1
  6
CONTINUOUS
 62
     7
100
AcDbPolyline
 90
        4
 70
     0
 10
202.305333
 20
-171.903083
 10
200.305333
 20
-175.367167
 10
204.305333
 20
-175.367167
 10
202.305333
 20
-171.903083
  0
LWPOLYLINE
  5
470
100
AcDbEntity
  8
1
  6
CONTINUOUS
 62
     7
100
AcDbPolyline
 90
        4
 70
     0
 10
202.493
 20
-180.0885
 10
200.493
 20
-183.552583
 10
204.493
 20
-183.552583
 10
202.493
 20
-180.0885
  0
TEXT
  5
471
100
AcDbEntity
  8
1
  6
CONTINUOUS
 62
     7
100
AcDbText
 10
202.042667
 20
-160.271
 30
0.0
 40
1.5
  1
1
  7
MONOTXT
 11
202.042667
 21
-158.771
 31
0.0
210
0.0
220
0.0
230
1.0
100
AcDbText
 73
     3
  0
TEXT
  5
472
100
AcDbEntity
  8
1
  6
CONTINUOUS
 62
     7
100
AcDbText
 10
201.854917
 20
-166.974417
 30
0.0
 40
1.5
  1
2
  7
MONOTXT
 11
201.854917
 21
-165.474417
 31
0.0
210
0.0
220
0.0
230
1.0
100
AcDbText
 73
     3
  0
TEXT
  5
473
100
AcDbEntity
  8
1
  6
CONTINUOUS
 62
     7
100
AcDbText
 10
201.74225
 20
-174.841833
 30
0.0
 40
1.5
  1
3
  7
MONOTXT
 11
201.74225
 21
-173.341833
 31
0.0
210
0.0
220
0.0
230
1.0
100
AcDbText
 73
     3
  0
TEXT
  5
474
100
AcDbEntity
  8
1
  6
CONTINUOUS
 62
     7
100
AcDbText
 10
201.892417
 20
-183.009583
 30
0.0
 40
1.5
  1
4
  7
MONOTXT
 11
201.892417
 21
-181.509583
 31
0.0
210
0.0
220
0.0
230
1.0
100
AcDbText
 73
     3
  0
TEXT
  5
475
100
AcDbEntity
  8
1
  6
CONTINUOUS
 62
     7
100
AcDbText
 10
202.23025
 20
-189.6755
 30
0.0
 40
1.5
  1
5
  7
MONOTXT
 11
202.23025
 21
-188.1755
 31
0.0
210
0.0
220
0.0
230
1.0
100
AcDbText
 73
     3
  0
TEXT
  5
476
100
AcDbEntity
  8
1
  6
CONTINUOUS
 62
     7
100
AcDbText
 10
206.732667
 20
-159.521
 30
0.0
 40
1.5
  1
LEGEND HEIGHT
  7
MONOTXT
 72
     4
 11
215.561333
 21
-158.771
 31
0.0
210
0.0
220
0.0
230
1.0
100
AcDbText
  0
TEXT
  5
477
100
AcDbEntity
  8
1
  6
CONTINUOUS
 62
     7
100
AcDbText
 10
206.922167
 20
-165.15225
 30
0.0
 40
1.5
  1
LEGEND HEIGHT &
  7
MONOTXT
 11
206.922167
 21
-163.65225
 31
0.0
210
0.0
220
0.0
230
1.0
100
AcDbText
 73
     3
  0
TEXT
  5
478
100
AcDbEntity
  8
1
  6
CONTINUOUS
 62
     7
100
AcDbText
 10
206.922167
 20
-167.65225
 30
0.0
 40
1.5
  1
AUXILIARY SUPPORT
  7
MONOTXT
 11
206.922167
 21
-166.15225
 31
0.0
210
0.0
220
0.0
230
1.0
100
AcDbText
 73
     3
  0
TEXT
  5
479
100
AcDbEntity
  8
1
  6
CONTINUOUS
 62
     7
100
AcDbText
 10
207.072333
 20
-172.962167
 30
0.0
 40
1.5
  1
LEGEND SIZE ON
  7
MONOTXT
 11
207.072333
 21
-171.462167
 31
0.0
210
0.0
220
0.0
230
1.0
100
AcDbText
 73
     3
  0
TEXT
  5
47A
100
AcDbEntity
  8
1
  6
CONTINUOUS
 62
     7
100
AcDbText
 10
207.072333
 20
-175.462167
 30
0.0
 40
1.5
  1
EXIT PANEL.
  7
MONOTXT
 11
207.072333
 21
-173.962167
 31
0.0
210
0.0
220
0.0
230
1.0
100
AcDbText
 73
     3
  0
TEXT
  5
47B
100
AcDbEntity
  8
1
  6
CONTINUOUS
 62
     7
100
AcDbText
 10
207.297583
 20
-181.147667
 30
0.0
 40
1.5
  1
LENGTH OF AUXILIARY
  7
MONOTXT
 11
207.297583
 21
-179.647667
 31
0.0
210
0.0
220
0.0
230
1.0
100
AcDbText
 73
     3
  0
TEXT
  5
47C
100
AcDbEntity
  8
1
  6
CONTINUOUS
 62
     7
100
AcDbText
 10
207.297583
 20
-183.647667
 30
0.0
 40
1.5
  1
SUPPORTS
  7
MONOTXT
 11
207.297583
 21
-182.147667
 31
0.0
210
0.0
220
0.0
230
1.0
100
AcDbText
 73
     3
  0
TEXT
  5
47D
100
AcDbEntity
  8
1
  6
CONTINUOUS
 62
     7
100
AcDbText
 10
207.547
 20
-189.183833
 30
0.0
 40
1.5
  1
MOVED EXIT PANEL
  7
MONOTXT
 72
     4
 11
218.714333
 21
-188.433833
 31
0.0
210
0.0
220
0.0
230
1.0
100
AcDbText
  0
INSERT
  5
47E
100
AcDbEntity
  8
1
  6
CONTINUOUS
 62
     1
100
AcDbBlockReference
  2
LDR
 10
-55.314583
 20
-15.196
 30
0.0
 41
239.999999
 42
239.999999
 50
305.379755
210
0.0
220
0.0
230
1.0
  0
TEXT
  5
47F
100
AcDbEntity
  8
1
  6
CONTINUOUS
 62
     7
100
AcDbText
 10
238.464
 20
35.87
 30
0.0
 40
2.5
  1
AUXILIARY SUPPORT 76.2mm x
  7
MONOTXT
 11
238.464
 21
38.37
 31
0.0
210
0.0
220
0.0
230
1.0
100
AcDbText
 73
     3
  0
TEXT
  5
480
100
AcDbEntity
  8
1
  6
CONTINUOUS
 62
     7
100
AcDbText
 10
238.464
 20
31.37
 30
0.0
 40
2.5
  1
76.2mm x 4.7625mm (TYPE)
  7
MONOTXT
 11
238.464
 21
33.87
 31
0.0
210
0.0
220
0.0
230
1.0
100
AcDbText
 73
     3
  0
TEXT
  5
481
100
AcDbEntity
  8
1
  6
CONTINUOUS
 62
     7
100
AcDbText
 10
238.464
 20
26.87
 30
0.0
 40
2.5
  1
(ALUMINUM 6061-T6)
  7
MONOTXT
 11
238.464
 21
29.37
 31
0.0
210
0.0
220
0.0
230
1.0
100
AcDbText
 73
     3
  0
TEXT
  5
482
100
AcDbEntity
  8
1
  6
CONTINUOUS
 62
     7
100
AcDbText
 10
299.68825
 20
42.793583
 30
0.0
 40
2.5
  1
11.11mm HOLES FOR POST CLIP BOLTS
  7
MONOTXT
 72
     4
 11
338.005083
 21
44.043583
 31
0.0
210
0.0
220
0.0
230
1.0
100
AcDbText
  0
TEXT
  5
483
100
AcDbEntity
  8
1
  6
CONTINUOUS
 62
     7
100
AcDbText
 10
320.812667
 20
93.176917
 30
0.0
 40
2.5
  1
STITCH BOLTS AT 609.6mm MAX. C.C.
  7
MONOTXT
 72
     4
 11
358.6965
 21
94.426917
 31
0.0
210
0.0
220
0.0
230
1.0
100
AcDbText
  0
TEXT
  5
484
100
AcDbEntity
  8
1
  6
CONTINUOUS
 62
     7
100
AcDbText
 10
319.083583
 20
105.40425
 30
0.0
 40
2.5
  1
304.8mm EXTRUDED ALUMINUM PANEL
  7
MONOTXT
 72
     4
 11
356.868917
 21
106.65425
 31
0.0
210
0.0
220
0.0
230
1.0
100
AcDbText
  0
TEXT
  5
485
100
AcDbEntity
  8
1
  6
CONTINUOUS
 62
     7
100
AcDbText
 10
278.009167
 20
156.799083
 30
0.0
 40
2.5
  1
304.8mm (MIN.)
  7
MONOTXT
 11
278.009167
 21
159.299083
 31
0.0
210
0.0
220
0.0
230
1.0
100
AcDbText
 73
     3
  0
TEXT
  5
486
100
AcDbEntity
  8
1
  6
CONTINUOUS
 62
     7
100
AcDbText
 10
278.009167
 20
152.299083
 30
0.0
 40
2.5
  1
609.6mm (MAX.)
  7
MONOTXT
 11
278.009167
 21
154.799083
 31
0.0
210
0.0
220
0.0
230
1.0
100
AcDbText
 73
     3
  0
TEXT
  5
487
100
AcDbEntity
  8
1
  6
CONTINUOUS
 62
     7
100
AcDbText
 10
200.015667
 20
156.641833
 30
0.0
 40
2.5
  1
304.8mm (MIN.)
  7
MONOTXT
 11
200.015667
 21
159.141833
 31
0.0
210
0.0
220
0.0
230
1.0
100
AcDbText
 73
     3
  0
TEXT
  5
488
100
AcDbEntity
  8
1
  6
CONTINUOUS
 62
     7
100
AcDbText
 10
200.015667
 20
152.141833
 30
0.0
 40
2.5
  1
609.6mm (MAX.)
  7
MONOTXT
 11
200.015667
 21
154.641833
 31
0.0
210
0.0
220
0.0
230
1.0
100
AcDbText
 73
     3
  0
TEXT
  5
489
100
AcDbEntity
  8
1
  6
CONTINUOUS
 62
     7
100
AcDbText
 10
122.01875
 20
119.34525
 30
0.0
 40
2.5
  1
609.6mm
 50
90.0
  7
MONOTXT
 72
     4
 11
120.76875
 21
127.711417
 31
0.0
210
0.0
220
0.0
230
1.0
100
AcDbText
  0
LEADER
  5
48C
100
AcDbEntity
  8
1
  6
CONTINUOUS
 62
     7
100
AcDbLeader
  3
MSADIM
 73
     0
 74
     0
 75
     1
 40
0.0
 76
     3
 10
273.752083
 20
151.059
 30
0.0
 10
275.237615
 20
155.19947
 30
0.0
 10
276.737615
 20
155.19947
 30
0.0
 77
     7
340
400A2CC511540
  0
TEXT
  5
48D
100
AcDbEntity
  8
1
  6
CONTINUOUS
 62
     7
100
AcDbText
 10
-121.25075
 20
159.871
 30
0.0
 40
2.5
  1
304.8mm (MIN.)
  7
MONOTXT
 11
-121.25075
 21
162.371
 31
0.0
210
0.0
220
0.0
230
1.0
100
AcDbText
 73
     3
  0
TEXT
  5
48E
100
AcDbEntity
  8
1
  6
CONTINUOUS
 62
     7
100
AcDbText
 10
-121.25075
 20
155.371
 30
0.0
 40
2.5
  1
609.6mm (MAX.)
  7
MONOTXT
 11
-121.25075
 21
157.871
 31
0.0
210
0.0
220
0.0
230
1.0
100
AcDbText
 73
     3
  0
TEXT
  5
48F
100
AcDbEntity
  8
1
  6
CONTINUOUS
 62
     7
100
AcDbText
 10
-43.058333
 20
105.045417
 30
0.0
 40
2.5
  1
304.8mm EXTRUDED ALUMINUM PANEL
  7
MONOTXT
 72
     4
 11
-5.273
 21
106.295417
 31
0.0
210
0.0
220
0.0
230
1.0
100
AcDbText
  0
TEXT
  5
490
100
AcDbEntity
  8
1
  6
CONTINUOUS
 62
     7
100
AcDbText
 10
-45.990417
 20
117.217
 30
0.0
 40
2.5
  1
STITCH BOLTS AT 609.6mm MAX. C.C.
  7
MONOTXT
 72
     4
 11
-8.106583
 21
118.467
 31
0.0
210
0.0
220
0.0
230
1.0
100
AcDbText
  0
TEXT
  5
491
100
AcDbEntity
  8
1
  6
CONTINUOUS
 62
     7
100
AcDbText
 10
-44.1935
 20
131.624
 30
0.0
 40
2.5
  1
4.76mm
  7
MONOTXT
 72
     4
 11
-36.870667
 21
132.874
 31
0.0
210
0.0
220
0.0
230
1.0
100
AcDbText
  0
TEXT
  5
492
100
AcDbEntity
  8
1
  6
CONTINUOUS
 62
     7
100
AcDbText
 10
-101.89925
 20
76.645167
 30
0.0
 40
2.5
  1
127.0 mm MIN.
  7
MONOTXT
 72
     4
 11
-87.381583
 21
77.895167
 31
0.0
210
0.0
220
0.0
230
1.0
100
AcDbText
  0
TEXT
  5
493
100
AcDbEntity
  8
1
  6
CONTINUOUS
 62
     7
100
AcDbText
 10
-151.051833
 20
118.248417
 30
0.0
 40
2.5
  1
 11.11mm HOLES IN FOR
  7
MONOTXT
 72
     4
 11
-127.666
 21
119.498417
 31
0.0
210
0.0
220
0.0
230
1.0
100
AcDbText
  0
TEXT
  5
494
100
AcDbEntity
  8
1
  6
CONTINUOUS
 62
     7
100
AcDbText
 10
-143.856917
 20
113.748417
 30
0.0
 40
2.5
  1
POST CLIP BOLT
  7
MONOTXT
 72
     4
 11
-127.666
 21
114.998417
 31
0.0
210
0.0
220
0.0
230
1.0
100
AcDbText
  0
TEXT
  5
495
100
AcDbEntity
  8
1
  6
CONTINUOUS
 62
     7
100
AcDbText
 10
-151.846667
 20
122.5745
 30
0.0
 40
2.5
  1
609.6mm
 50
90.0
  7
MONOTXT
 72
     4
 11
-153.096667
 21
130.940667
 31
0.0
210
0.0
220
0.0
230
1.0
100
AcDbText
  0
TEXT
  5
496
100
AcDbEntity
  8
1
  6
CONTINUOUS
 62
     7
100
AcDbText
 10
-65.403083
 20
145.6555
 30
0.0
 40
2.5
  1
AUXILIARY SUPPORT 76.2mm x 76.2mm x 6.35mm (ASTM A-36 STEEL)
  7
MONOTXT
 72
     4
 11
6.8705
 21
146.9055
 31
0.0
210
0.0
220
0.0
230
1.0
100
AcDbText
  0
TEXT
  5
497
100
AcDbEntity
  8
1
  6
CONTINUOUS
 62
     7
100
AcDbText
 10
-78.5825
 20
0.201583
 30
0.0
 40
2.5
  1
304.8mm (MIN.)
  7
MONOTXT
 11
-78.5825
 21
2.701583
 31
0.0
210
0.0
220
0.0
230
1.0
100
AcDbText
 73
     3
  0
TEXT
  5
498
100
AcDbEntity
  8
1
  6
CONTINUOUS
 62
     7
100
AcDbText
 10
-78.5825
 20
-4.298333
 30
0.0
 40
2.5
  1
609.6mm (MAX.)
  7
MONOTXT
 11
-78.5825
 21
-1.798333
 31
0.0
210
0.0
220
0.0
230
1.0
100
AcDbText
 73
     3
  0
TEXT
  5
499
100
AcDbEntity
  8
1
  6
CONTINUOUS
 62
     7
100
AcDbText
 10
-142.88275
 20
-38.17125
 30
0.0
 40
2.5
  1
609.6mm
 50
90.0
  7
MONOTXT
 72
     4
 11
-144.13275
 21
-29.805083
 31
0.0
210
0.0
220
0.0
230
1.0
100
AcDbText
  0
TEXT
  5
49A
100
AcDbEntity
  8
1
  6
CONTINUOUS
 62
     7
100
AcDbText
 10
-10.49325
 20
-53.216583
 30
0.0
 40
2.5
  1
STITCH BOLTS AT 609.6mm MAX. C.C.
  7
MONOTXT
 72
     4
 11
27.390583
 21
-51.966583
 31
0.0
210
0.0
220
0.0
230
1.0
100
AcDbText
  0
TEXT
  5
49B
100
AcDbEntity
  8
1
  6
CONTINUOUS
 62
     7
100
AcDbText
 10
-11.863917
 20
-35.24825
 30
0.0
 40
2.5
  1
304.8mm EXTRUDED ALUMINUM PANEL
  7
MONOTXT
 72
     4
 11
25.921417
 21
-33.99825
 31
0.0
210
0.0
220
0.0
230
1.0
100
AcDbText
  0
TEXT
  5
49C
100
AcDbEntity
  8
1
  6
CONTINUOUS
 62
     7
100
AcDbText
 10
-45.76775
 20
100.754167
 30
0.0
 40
2.5
  1
 20.64mm HOLES FOR  19mm HIGH STRENGTH BOLTS
  7
MONOTXT
 72
     4
 11
9.035417
 21
102.004167
 31
0.0
210
0.0
220
0.0
230
1.0
100
AcDbText
  0
TEXT
  5
49D
100
AcDbEntity
  8
1
  6
CONTINUOUS
 62
     7
100
AcDbText
 10
-42.652333
 20
-13.29625
 30
0.0
 40
2.5
  1
AUXILIARY SUPPORT 76.2mm x 76.2mm x 4.76mm ALUMINUM (6061-T6)
  7
MONOTXT
 72
     4
 11
29.818167
 21
-12.04625
 31
0.0
210
0.0
220
0.0
230
1.0
100
AcDbText
  0
TEXT
  5
49E
100
AcDbEntity
  8
1
  6
CONTINUOUS
 62
     7
100
AcDbText
 10
-32.152667
 20
0.3665
 30
0.0
 40
2.5
  1
1.83m MAX. SPACING BETWEEN AUXILARY SUPPORTS
  7
MONOTXT
 72
     4
 11
19.3335
 21
1.6165
 31
0.0
210
0.0
220
0.0
230
1.0
100
AcDbText
  0
TEXT
  5
49F
100
AcDbEntity
  8
1
  6
CONTINUOUS
 62
     7
100
AcDbText
 10
-25.1645
 20
-4.133417
 30
0.0
 40
2.5
  1
(2.13m ALLOWABLE FOR 2.90m EXIT PANEL)
  7
MONOTXT
 72
     4
 11
19.3335
 21
-2.883417
 31
0.0
210
0.0
220
0.0
230
1.0
100
AcDbText
  0
TEXT
  5
4A0
100
AcDbEntity
  8
1
  6
CONTINUOUS
 62
     7
100
AcDbText
 10
-55.817417
 20
158.600583
 30
0.0
 40
2.5
  1
1.83m MAX. SPACING BETWEEN AUXILARY SUPPORTS
  7
MONOTXT
 72
     4
 11
-4.33125
 21
159.850583
 31
0.0
210
0.0
220
0.0
230
1.0
100
AcDbText
  0
TEXT
  5
4A1
100
AcDbEntity
  8
1
  6
CONTINUOUS
 62
     7
100
AcDbText
 10
-48.82925
 20
154.100667
 30
0.0
 40
2.5
  1
(2.13m ALLOWABLE FOR 2.90m EXIT PANEL)
  7
MONOTXT
 72
     4
 11
-4.33125
 21
155.350667
 31
0.0
210
0.0
220
0.0
230
1.0
100
AcDbText
  0
TEXT
  5
4A2
100
AcDbEntity
  8
1
  6
CONTINUOUS
 62
     7
100
AcDbText
 10
-81.157333
 20
-101.461
 30
0.0
 40
2.5
  1
127mm MIN.
  7
MONOTXT
 72
     4
 11
-69.749833
 21
-100.211
 31
0.0
210
0.0
220
0.0
230
1.0
100
AcDbText
  0
TEXT
  5
4A3
100
AcDbEntity
  8
1
  6
CONTINUOUS
 62
     7
100
AcDbText
 10
-10.833833
 20
-83.4385
 30
0.0
 40
2.5
  1
11.11mm HOLES FOR POST CLIP BOLTS
  7
MONOTXT
 72
     4
 11
27.483
 21
-82.1885
 31
0.0
210
0.0
220
0.0
230
1.0
100
AcDbText
  0
TEXT
  5
4A4
100
AcDbEntity
  8
1
  6
CONTINUOUS
 62
     7
100
AcDbText
 10
116.128917
 20
-104.82925
 30
0.0
 40
2.5
  1
NOTE:  USE 50mm BORDER AND 75mm BORDER
  7
MONOTXT
 11
116.128917
 21
-102.32925
 31
0.0
210
0.0
220
0.0
230
1.0
100
AcDbText
 73
     3
  0
TEXT
  5
4A5
100
AcDbEntity
  8
1
  6
CONTINUOUS
 62
     7
100
AcDbText
 10
116.128917
 20
-109.32925
 30
0.0
 40
2.5
  1
      RADIUS ON ALL EXIT PANELS.
  7
MONOTXT
 11
116.128917
 21
-106.82925
 31
0.0
210
0.0
220
0.0
230
1.0
100
AcDbText
 73
     3
  0
TEXT
  5
4A6
100
AcDbEntity
  8
1
  6
CONTINUOUS
 62
     7
100
AcDbText
 10
116.128917
 20
-113.82925
 30
0.0
 40
2.5
  1
 
  7
MONOTXT
 11
116.128917
 21
-111.32925
 31
0.0
210
0.0
220
0.0
230
1.0
100
AcDbText
 73
     3
  0
TEXT
  5
4A7
100
AcDbEntity
  8
1
  6
CONTINUOUS
 62
     7
100
AcDbText
 10
116.128917
 20
-118.32925
 30
0.0
 40
2.5
  1
NOTE:  RIGHT EXIT SHOWN USE OPPOSITE
  7
MONOTXT
 11
116.128917
 21
-115.82925
 31
0.0
210
0.0
220
0.0
230
1.0
100
AcDbText
 73
     3
  0
TEXT
  5
4A8
100
AcDbEntity
  8
1
  6
CONTINUOUS
 62
     7
100
AcDbText
 10
116.128917
 20
-122.82925
 30
0.0
 40
2.5
  1
      FOR LEFT EXIT.
  7
MONOTXT
 11
116.128917
 21
-120.32925
 31
0.0
210
0.0
220
0.0
230
1.0
100
AcDbText
 73
     3
  0
TEXT
  5
4A9
100
AcDbEntity
  8
1
  6
CONTINUOUS
 62
     7
100
AcDbText
 10
169.193
 20
-49.78175
 30
0.0
 40
2.5
  1
381mm
  7
MONOTXT
 72
     4
 11
175.334667
 21
-48.53175
 31
0.0
210
0.0
220
0.0
230
1.0
100
AcDbText
  0
TEXT
  5
4AA
100
AcDbEntity
  8
1
  6
CONTINUOUS
 62
     7
100
AcDbText
 10
172.1555
 20
-54.28175
 30
0.0
 40
2.5
  1
MIN.
  7
MONOTXT
 72
     4
 11
175.334667
 21
-53.03175
 31
0.0
210
0.0
220
0.0
230
1.0
100
AcDbText
  0
TEXT
  5
4AB
100
AcDbEntity
  8
1
  6
CONTINUOUS
 62
     7
100
AcDbText
 10
199.885667
 20
-66.714667
 30
0.0
 40
2.25
  1
381mm E
  7
MONOTXT
 72
     4
 11
207.97325
 21
-65.589667
 31
0.0
210
0.0
220
0.0
230
1.0
100
AcDbText
  0
TEXT
  5
4AC
100
AcDbEntity
  8
1
  6
CONTINUOUS
 62
     7
100
AcDbText
 10
129.021083
 20
-70.9605
 30
0.0
 40
2.25
  1
152.4mm
  7
MONOTXT
 72
     4
 11
136.284917
 21
-69.8355
 31
0.0
210
0.0
220
0.0
230
1.0
100
AcDbText
  0
TEXT
  5
4AD
100
AcDbEntity
  8
1
  6
CONTINUOUS
 62
     7
100
AcDbText
 10
126.062417
 20
-65.80575
 30
0.0
 40
2.25
  1
254mm E
  7
MONOTXT
 72
     4
 11
134.6815
 21
-64.68075
 31
0.0
210
0.0
220
0.0
230
1.0
100
AcDbText
  0
TEXT
  5
4AE
100
AcDbEntity
  8
1
  6
CONTINUOUS
 62
     7
100
AcDbText
 10
127.051917
 20
-60.571
 30
0.0
 40
2.25
  1
203.2mm
  7
MONOTXT
 72
     4
 11
134.740917
 21
-59.446
 31
0.0
210
0.0
220
0.0
230
1.0
100
AcDbText
  0
TEXT
  5
4AF
100
AcDbEntity
  8
1
  6
CONTINUOUS
 62
     7
100
AcDbText
 10
153.626583
 20
-36.668
 30
0.0
 40
2.25
  1
254mm
  7
MONOTXT
 72
     4
 11
159.685583
 21
-35.543
 31
0.0
210
0.0
220
0.0
230
1.0
100
AcDbText
  0
TEXT
  5
4B0
100
AcDbEntity
  8
1
  6
CONTINUOUS
 62
     7
100
AcDbText
 10
156.824417
 20
-39.918
 30
0.0
 40
2.25
  1
MIN.
  7
MONOTXT
 72
     4
 11
159.685583
 21
-38.793
 31
0.0
210
0.0
220
0.0
230
1.0
100
AcDbText
  0
TEXT
  5
4B1
100
AcDbEntity
  8
1
  6
CONTINUOUS
 62
     7
100
AcDbText
 10
178.514917
 20
-36.492167
 30
0.0
 40
2.25
  1
381mm 
  7
MONOTXT
 72
     4
 11
185.40075
 21
-35.367167
 31
0.0
210
0.0
220
0.0
230
1.0
100
AcDbText
  0
TEXT
  5
4B2
100
AcDbEntity
  8
1
  6
CONTINUOUS
 62
     7
100
AcDbText
 10
182.539583
 20
-39.742167
 30
0.0
 40
2.25
  1
MIN.
  7
MONOTXT
 72
     4
 11
185.40075
 21
-38.617167
 31
0.0
210
0.0
220
0.0
230
1.0
100
AcDbText
  0
INSERT
  5
4B7
100
AcDbEntity
  8
1
  6
CONTINUOUS
 62
     7
100
AcDbBlockReference
  2
*O1
 10
221.117917
 20
-55.036
 30
0.0
210
0.0
220
0.0
230
1.0
  0
LEADER
  5
4B8
100
AcDbEntity
  8
1
  6
CONTINUOUS
 62
     7
100
AcDbLeader
  3
MSADIM
 73
     0
 74
     0
 75
     1
 40
0.0
 76
     3
 10
208.532225
 20
-59.17239
 30
0.0
 10
218.867923
 20
-55.035959
 30
0.0
 10
221.117923
 20
-55.035959
 30
0.0
 77
     7
340
80
1001
ACAD
1000
DSTYLE
1002
{
1070
    41
1040
2.25
1070
   141
1040
1.125
1070
    44
1040
1.125
1070
    42
1040
1.125
1070
   147
1040
1.125
1070
   140
1040
2.25
1070
   145
1040
1.125
1002
}
  0
INSERT
  5
4BD
100
AcDbEntity
  8
1
  6
CONTINUOUS
 62
     7
100
AcDbBlockReference
  2
*O2
 10
221.796583
 20
-74.359917
 30
0.0
210
0.0
220
0.0
230
1.0
  0
LEADER
  5
4BE
100
AcDbEntity
  8
1
  6
CONTINUOUS
 62
     7
100
AcDbLeader
  3
MSADIM
 73
     0
 74
     0
 75
     1
 40
0.0
 76
     3
 10
209.210865
 20
-71.705158
 30
0.0
 10
219.546563
 20
-74.359882
 30
0.0
 10
221.796563
 20
-74.359882
 30
0.0
 77
     7
340
80
1001
ACAD
1000
DSTYLE
1002
{
1070
    41
1040
2.25
1070
   141
1040
1.125
1070
    44
1040
1.125
1070
    42
1040
1.125
1070
   147
1040
1.125
1070
   140
1040
2.25
1070
   145
1040
1.125
1002
}
  0
TEXT
  5
4BF
100
AcDbEntity
  8
1
  6
CONTINUOUS
 62
     7
100
AcDbText
 10
222.962583
 20
-66.006917
 30
0.0
 40
2.25
  1
609.6mm
  7
MONOTXT
 72
     4
 11
230.492083
 21
-64.881917
 31
0.0
210
0.0
220
0.0
230
1.0
100
AcDbText
  0
LWPOLYLINE
  5
4C0
100
AcDbEntity
  8
1
  6
CONTINUOUS
 62
     7
100
AcDbPolyline
 90
        4
 70
     0
 10
202.9275
 20
-191.598417
 10
200.9275
 20
-195.0625
 10
204.9275
 20
-195.0625
 10
202.9275
 20
-191.598417
  0
TEXT
  5
4C1
100
AcDbEntity
  8
1
  6
CONTINUOUS
 62
     7
100
AcDbText
 10
202.477
 20
-194.6145
 30
0.0
 40
1.5
  1
6
  7
MONOTXT
 11
202.477
 21
-193.1145
 31
0.0
210
0.0
220
0.0
230
1.0
100
AcDbText
 73
     3
  0
TEXT
  5
4C2
100
AcDbEntity
  8
1
  6
CONTINUOUS
 62
     7
100
AcDbText
 10
207.31525
 20
-194.61675
 30
0.0
 40
1.5
  1
ADDED METRIC
  7
MONOTXT
 72
     4
 11
215.506167
 21
-193.86675
 31
0.0
210
0.0
220
0.0
230
1.0
100
AcDbText
  0
TEXT
  5
4C3
100
AcDbEntity
  8
1
  6
CONTINUOUS
 62
     1
100
AcDbText
 10
246.032167
 20
-183.795
 30
0.0
 40
2.00004
  1
05-17-94
  7
MONOTXT
 72
     1
 11
252.8905
 21
-181.795
 31
0.0
210
0.0
220
0.0
230
1.0
100
AcDbText
 73
     3
  0
LWPOLYLINE
  5
4C4
100
AcDbEntity
  8
1
  6
CONTINUOUS
 62
     7
100
AcDbPolyline
 90
        4
 70
     0
 10
239.991167
 20
-180.34425
 10
237.991167
 20
-183.808333
 10
241.991167
 20
-183.808333
 10
239.991167
 20
-180.34425
  0
TEXT
  5
4C5
100
AcDbEntity
  8
1
  6
CONTINUOUS
 62
     7
100
AcDbText
 10
239.540667
 20
-183.360333
 30
0.0
 40
1.5
  1
6
  7
MONOTXT
 11
239.540667
 21
-181.860333
 31
0.0
210
0.0
220
0.0
230
1.0
100
AcDbText
 73
     3
  0
ENDSEC
  0
SECTION
  2
OBJECTS
  0
DICTIONARY
  5
19
100
AcDbDictionary
  3
ACAD_GROUP
350
1A
  3
ACAD_MLINESTYLE
350
1B
  0
DICTIONARY
  5
1A
102
{ACAD_REACTORS
330
19
102
}
100
AcDbDictionary
  0
DICTIONARY
  5
1B
102
{ACAD_REACTORS
330
19
102
}
100
AcDbDictionary
  3
STANDARD
350
1C
  0
MLINESTYLE
  5
1C
102
{ACAD_REACTORS
330
1B
102
}
100
AcDbMlineStyle
  2
STANDARD
 70
     0
  3

 62
     0
 51
90.0
 52
90.0
 71
     2
 49
0.5
 62
   256
  6
BYLAYER
 49
-0.5
 62
   256
  6
BYLAYER
  0
ENDSEC
  0
EOF
