  0
SECTION
  2
HEADER
  9
$ACADVER
  1
AC1014
  9
$ACADMAINTVER
 70
     0
  9
$DWGCODEPAGE
  3
ANSI_1252
  9
$INSBASE
 10
0.0
 20
0.0
 30
0.0
  9
$EXTMIN
 10
47.6504
 20
-20.2799
 30
0.0
  9
$EXTMAX
 10
845.6504
 20
517.1201
 30
0.0
  9
$LIMMIN
 10
0.0
 20
0.0
  9
$LIMMAX
 10
12.0
 20
9.0
  9
$ORTHOMODE
 70
     0
  9
$REGENMODE
 70
     1
  9
$FILLMODE
 70
     1
  9
$QTEXTMODE
 70
     0
  9
$MIRRTEXT
 70
     1
  9
$DRAGMODE
 70
     2
  9
$LTSCALE
 40
1.0
  9
$OSMODE
 70
     0
  9
$ATTMODE
 70
     1
  9
$TEXTSIZE
 40
0.2
  9
$TRACEWID
 40
0.05
  9
$TEXTSTYLE
  7
STANDARD
  9
$CLAYER
  8
0
  9
$CELTYPE
  6
CONTINUOUS
  9
$CECOLOR
 62
   256
  9
$CELTSCALE
 40
1.0
  9
$DELOBJ
 70
     1
  9
$DISPSILH
 70
     0
  9
$DIMSCALE
 40
1.0
  9
$DIMASZ
 40
0.18
  9
$DIMEXO
 40
0.0625
  9
$DIMDLI
 40
0.38
  9
$DIMRND
 40
0.0
  9
$DIMDLE
 40
0.0
  9
$DIMEXE
 40
0.18
  9
$DIMTP
 40
0.0
  9
$DIMTM
 40
0.0
  9
$DIMTXT
 40
0.18
  9
$DIMCEN
 40
0.09
  9
$DIMTSZ
 40
0.0
  9
$DIMTOL
 70
     0
  9
$DIMLIM
 70
     0
  9
$DIMTIH
 70
     1
  9
$DIMTOH
 70
     1
  9
$DIMSE1
 70
     0
  9
$DIMSE2
 70
     0
  9
$DIMTAD
 70
     0
  9
$DIMZIN
 70
     0
  9
$DIMBLK
  1

  9
$DIMASO
 70
     1
  9
$DIMSHO
 70
     1
  9
$DIMPOST
  1

  9
$DIMAPOST
  1

  9
$DIMALT
 70
     0
  9
$DIMALTD
 70
     2
  9
$DIMALTF
 40
25.4
  9
$DIMLFAC
 40
1.0
  9
$DIMTOFL
 70
     0
  9
$DIMTVP
 40
0.0
  9
$DIMTIX
 70
     0
  9
$DIMSOXD
 70
     0
  9
$DIMSAH
 70
     0
  9
$DIMBLK1
  1

  9
$DIMBLK2
  1

  9
$DIMSTYLE
  2
STANDARD
  9
$DIMCLRD
 70
     0
  9
$DIMCLRE
 70
     0
  9
$DIMCLRT
 70
     0
  9
$DIMTFAC
 40
1.0
  9
$DIMGAP
 40
0.09
  9
$DIMJUST
 70
     0
  9
$DIMSD1
 70
     0
  9
$DIMSD2
 70
     0
  9
$DIMTOLJ
 70
     1
  9
$DIMTZIN
 70
     0
  9
$DIMALTZ
 70
     0
  9
$DIMALTTZ
 70
     0
  9
$DIMFIT
 70
     3
  9
$DIMUPT
 70
     0
  9
$DIMUNIT
 70
     2
  9
$DIMDEC
 70
     4
  9
$DIMTDEC
 70
     4
  9
$DIMALTU
 70
     2
  9
$DIMALTTD
 70
     2
  9
$DIMTXSTY
  7
STANDARD
  9
$DIMAUNIT
 70
     0
  9
$LUNITS
 70
     2
  9
$LUPREC
 70
     4
  9
$SKETCHINC
 40
0.1
  9
$FILLETRAD
 40
0.0
  9
$AUNITS
 70
     0
  9
$AUPREC
 70
     0
  9
$MENU
  1
acad
  9
$ELEVATION
 40
0.0
  9
$PELEVATION
 40
0.0
  9
$THICKNESS
 40
0.0
  9
$LIMCHECK
 70
     0
  9
$BLIPMODE
 70
     1
  9
$CHAMFERA
 40
0.0
  9
$CHAMFERB
 40
0.0
  9
$CHAMFERC
 40
0.0
  9
$CHAMFERD
 40
0.0
  9
$SKPOLY
 70
     0
  9
$TDCREATE
 40
2451803.538865741
  9
$TDUPDATE
 40
2451803.538865741
  9
$TDINDWG
 40
0.0000000000
  9
$TDUSRTIMER
 40
0.0000000000
  9
$USRTIMER
 70
     1
  9
$ANGBASE
 50
0.0
  9
$ANGDIR
 70
     0
  9
$PDMODE
 70
     0
  9
$PDSIZE
 40
0.0
  9
$PLINEWID
 40
0.0
  9
$COORDS
 70
     0
  9
$SPLFRAME
 70
     0
  9
$SPLINETYPE
 70
     6
  9
$SPLINESEGS
 70
    10
  9
$ATTDIA
 70
     0
  9
$ATTREQ
 70
     1
  9
$HANDLING
 70
     1
  9
$HANDSEED
  5
49B
  9
$SURFTAB1
 70
     6
  9
$SURFTAB2
 70
     6
  9
$SURFTYPE
 70
     6
  9
$SURFU
 70
     6
  9
$SURFV
 70
     6
  9
$UCSNAME
  2

  9
$UCSORG
 10
0.0
 20
0.0
 30
0.0
  9
$UCSXDIR
 10
1.0
 20
0.0
 30
0.0
  9
$UCSYDIR
 10
0.0
 20
1.0
 30
0.0
  9
$PUCSNAME
  2

  9
$PUCSORG
 10
0.0
 20
0.0
 30
0.0
  9
$PUCSXDIR
 10
1.0
 20
0.0
 30
0.0
  9
$PUCSYDIR
 10
0.0
 20
1.0
 30
0.0
  9
$USERI1
 70
     0
  9
$USERI2
 70
     0
  9
$USERI3
 70
     0
  9
$USERI4
 70
     0
  9
$USERI5
 70
     0
  9
$USERR1
 40
0.0
  9
$USERR2
 40
0.0
  9
$USERR3
 40
0.0
  9
$USERR4
 40
0.0
  9
$USERR5
 40
0.0
  9
$WORLDVIEW
 70
     1
  9
$SHADEDGE
 70
     3
  9
$SHADEDIF
 70
    70
  9
$TILEMODE
 70
     1
  9
$MAXACTVP
 70
    16
  9
$PINSBASE
 10
0.0
 20
0.0
 30
0.0
  9
$PLIMCHECK
 70
     0
  9
$PEXTMIN
 10
-1.000000E+20
 20
-1.000000E+20
 30
-1.000000E+20
  9
$PEXTMAX
 10
-1.000000E+20
 20
-1.000000E+20
 30
-1.000000E+20
  9
$PLIMMIN
 10
0.0
 20
0.0
  9
$PLIMMAX
 10
12.0
 20
9.0
  9
$UNITMODE
 70
     0
  9
$VISRETAIN
 70
     0
  9
$PLINEGEN
 70
     1
  9
$PSLTSCALE
 70
     0
  9
$TREEDEPTH
 70
  3020
  9
$PICKSTYLE
 70
     1
  9
$CMLSTYLE
  2
STANDARD
  9
$CMLJUST
 70
     0
  9
$CMLSCALE
 40
1.0
  9
$PROXYGRAPHICS
 70
     0
  9
$MEASUREMENT
 70
     0
  0
ENDSEC
  0
SECTION
  2
CLASSES
  0
CLASS
  1
LWPOLYLINE
  2
AcDbPolyline
  3
"AutoCAD"
 90
        0
280
     0
281
     1
  0
CLASS
  1
IMAGE
  2
AcDbRasterImage
  3
ISM
 90
      127
280
     0
281
     1
  0
CLASS
  1
OLE2FRAME
  2
AcDbOle2Frame
  3
""
 90
        0
280
     0
281
     1
  0
CLASS
  1
HATCH
  2
AcDbHatch
  3
"ACAD_SEDONA"
 90
        0
280
     0
281
     1
  0
CLASS
  1
DICTIONARYVAR
  2
AcDbDictionaryVar
  3
"AutoCAD"
 90
        0
280
     0
281
     0
  0
CLASS
  1
RASTERVARIABLES
  2
AcDbRasterVariables
  3
ISM
 90
        0
280
     0
281
     0
  0
CLASS
  1
IMAGEDEF
  2
AcDbRasterImageDef
  3
ISM
 90
        0
280
     0
281
     0
  0
CLASS
  1
IMAGEDEF_REACTOR
  2
AcDbRasterImageDefReactor
  3
ISM
 90
        1
280
     0
281
     0
  0
CLASS
  1
IDBUFFER
  2
AcDbIdBuffer
  3
"Acad"
 90
        0
280
     0
281
     0
  0
CLASS
  1
SPATIAL_FILTER
  2
AcDbSpatialFilter
  3
"Acad"
 90
        0
280
     0
281
     0
  0
CLASS
  1
XRECORD
  2
AcDbXrecord
  3
"<Built In>"
 90
        0
280
     0
281
     0
  0
CLASS
  1
SORTENTSTABLE
  2
AcDbSortentsTable
  3
"AutoCAD"
 90
        0
280
     0
281
     0
  0
CLASS
  1
LAYER_INDEX
  2
AcDbLayerIndex
  3
"Acad"
 90
        0
280
     0
281
     0
  0
CLASS
  1
SPATIAL_INDEX
  2
AcDbSpatialIndex
  3
"Acad"
 90
        0
280
     0
281
     0
  0
CLASS
  1
OBJECT_PTR
  2
CAseDLPNTableRecord
  3
"ASE-LPNTableRecord"
 90
        1
280
     0
281
     0
  0
ENDSEC
  0
SECTION
  2
TABLES
  0
TABLE
  2
VPORT
  5
7
100
AcDbSymbolTable
 70
     1
  0
VPORT
  5
49A
100
AcDbSymbolTableRecord
100
AcDbViewportTableRecord
  2
*ACTIVE
 70
     0
 10
0.0
 20
0.0
 11
1.0
 21
1.0
 12
0.0
 22
0.0
 13
0.0
 23
0.0
 14
0.0
 24
0.0
 15
0.0
 25
0.0
 16
0.0
 26
0.0
 36
1.0
 17
393.4928
 27
251.4701
 37
0.0
 40
565.24
 41
1.545
 42
50.0
 43
0.0
 44
0.0
 50
0.0
 51
0.0
 71
     0
 72
   100
 73
     1
 74
     0
 75
     0
 76
     0
 77
     0
 78
     0
  0
ENDTAB
  0
TABLE
  2
LTYPE
  5
4
100
AcDbSymbolTable
 70
     9
  0
LTYPE
  5
11
100
AcDbSymbolTableRecord
100
AcDbLinetypeTableRecord
  2
BYBLOCK
 70
     0
  3

 72
    65
 73
     0
 40
0.0
  0
LTYPE
  5
12
100
AcDbSymbolTableRecord
100
AcDbLinetypeTableRecord
  2
BYLAYER
 70
     0
  3

 72
    65
 73
     0
 40
0.0
  0
LTYPE
  5
13
100
AcDbSymbolTableRecord
100
AcDbLinetypeTableRecord
  2
CONTINUOUS
 70
     0
  3
Solid line
 72
    65
 73
     0
 40
0.0
  0
LTYPE
  5
22
102
{ACAD_XDICTIONARY
360
2100000000000000
102
}
100
AcDbSymbolTableRecord
100
AcDbLinetypeTableRecord
  2
DOT
 70
    64
  3
. . . . . . . . . . . . . . . . . . . . . . . . . . . . . . . . .
 72
    65
 73
     2
 40
0.25
 49
0.0
 74
     0
 49
-0.25
 74
     0
  0
LTYPE
  5
23
102
{ACAD_XDICTIONARY
360
2100000000000000
102
}
100
AcDbSymbolTableRecord
100
AcDbLinetypeTableRecord
  2
HIDDEN
 70
    64
  3
__ __ __ __ __ __ __ __ __ __ __ __ __ __ __ __ __ __ __ __ __ 
 72
    65
 73
     2
 40
0.375
 49
0.25
 74
     0
 49
-0.125
 74
     0
  0
LTYPE
  5
24
102
{ACAD_XDICTIONARY
360
2100000000000000
102
}
100
AcDbSymbolTableRecord
100
AcDbLinetypeTableRecord
  2
DASHED
 70
    64
  3
__ __ __ __ __ __ __ __ __ __ __ __ __ __ __ __ __ __ __ __ __
 72
    65
 73
     2
 40
0.75
 49
0.5
 74
     0
 49
-0.25
 74
     0
  0
LTYPE
  5
25
102
{ACAD_XDICTIONARY
360
2100000000000000
102
}
100
AcDbSymbolTableRecord
100
AcDbLinetypeTableRecord
  2
DASHDOT
 70
    64
  3
__ . __ . __ . __ . __ . __ . __ . __ . __ . __ . __ . __ . _
 72
    65
 73
     4
 40
1.0
 49
0.5
 74
     0
 49
-0.25
 74
     0
 49
0.0
 74
     0
 49
-0.25
 74
     0
  0
LTYPE
  5
26
102
{ACAD_XDICTIONARY
360
2100000000000000
102
}
100
AcDbSymbolTableRecord
100
AcDbLinetypeTableRecord
  2
DIVIDE
 70
    64
  3
____ . . ____ . . ____ . . ____ . . ____ . . ____ . . ____ . .
 72
    65
 73
     6
 40
1.25
 49
0.5
 74
     0
 49
-0.25
 74
     0
 49
0.0
 74
     0
 49
-0.25
 74
     0
 49
0.0
 74
     0
 49
-0.25
 74
     0
  0
LTYPE
  5
27
102
{ACAD_XDICTIONARY
360
2100000000000000
102
}
100
AcDbSymbolTableRecord
100
AcDbLinetypeTableRecord
  2
CENTER
 70
    64
  3
____ _ ____ _ ____ _ ____ _ ____ _ ____ _ ____ _ ____ _ ____ _
 72
    65
 73
     4
 40
2.0
 49
1.25
 74
     0
 49
-0.25
 74
     0
 49
0.25
 74
     0
 49
-0.25
 74
     0
  0
ENDTAB
  0
TABLE
  2
LAYER
  5
2
100
AcDbSymbolTable
 70
     4
  0
LAYER
  5
14
102
{ACAD_XDICTIONARY
360
5F205F5F5F5F205F
102
}
100
AcDbSymbolTableRecord
100
AcDbLayerTableRecord
  2
0
 70
     0
 62
     7
  6
CONTINUOUS
  0
LAYER
  5
1E
102
{ACAD_XDICTIONARY
360
5F205F5F5F5F205F
102
}
100
AcDbSymbolTableRecord
100
AcDbLayerTableRecord
  2
CONSTRUCTION_CLASS
 70
    64
 62
     7
  6
CONTINUOUS
  0
LAYER
  5
2A
102
{ACAD_XDICTIONARY
360
5F205F5F5F5F205F
102
}
100
AcDbSymbolTableRecord
100
AcDbLayerTableRecord
  2
61
 70
    64
 62
     7
  6
CONTINUOUS
  0
LAYER
  5
2D
102
{ACAD_XDICTIONARY
360
5F205F5F5F5F205F
102
}
100
AcDbSymbolTableRecord
100
AcDbLayerTableRecord
  2
1
 70
    64
 62
     7
  6
CONTINUOUS
  0
ENDTAB
  0
TABLE
  2
STYLE
  5
3
100
AcDbSymbolTable
 70
     4
  0
STYLE
  5
17
100
AcDbSymbolTableRecord
100
AcDbTextStyleTableRecord
  2
STANDARD
 70
     0
 40
0.0
 41
1.0
 50
0.0
 71
     0
 42
0.0
  3
txt
  4

  0
STYLE
  5
2B
100
AcDbSymbolTableRecord
100
AcDbTextStyleTableRecord
  2
MONOTXT
 70
     0
 40
0.2
 41
1.0
 50
0.0
 71
     0
 42
0.2
  3
MONOTXT
  4

  0
STYLE
  5
33A
100
AcDbSymbolTableRecord
100
AcDbTextStyleTableRecord
  2
TXT
 70
     0
 40
0.2
 41
1.0
 50
0.0
 71
     0
 42
0.2
  3
TXT
  4

  0
STYLE
  5
3BA
100
AcDbSymbolTableRecord
100
AcDbTextStyleTableRecord
  2
ROMANT
 70
     0
 40
0.2
 41
1.0
 50
0.0
 71
     0
 42
0.2
  3
ROMANT
  4

  0
ENDTAB
  0
TABLE
  2
VIEW
  5
5
100
AcDbSymbolTable
 70
     0
  0
ENDTAB
  0
TABLE
  2
UCS
  5
6
100
AcDbSymbolTable
 70
     0
  0
ENDTAB
  0
TABLE
  2
APPID
  5
8
100
AcDbSymbolTable
 70
     1
  0
APPID
  5
16
100
AcDbSymbolTableRecord
100
AcDbRegAppTableRecord
  2
ACAD
 70
     0
  0
ENDTAB
  0
TABLE
  2
DIMSTYLE
  5
9
100
AcDbSymbolTable
 70
     1
  0
DIMSTYLE
105
18
100
AcDbSymbolTableRecord
100
AcDbDimStyleTableRecord
  2
STANDARD
 70
     0
  3

  4

  5

  6

  7

 40
1.0
 41
0.18
 42
0.0625
 43
0.38
 44
0.18
 45
0.0
 46
0.0
 47
0.0
 48
0.0
140
0.18
141
0.09
142
0.0
143
25.4
144
1.0
145
0.0
146
1.0
147
0.09
 71
     0
 72
     0
 73
     1
 74
     1
 75
     0
 76
     0
 77
     0
 78
     0
170
     0
171
     2
172
     0
173
     0
174
     0
175
     0
176
     0
177
     0
178
     0
270
     2
271
     4
272
     4
273
     2
274
     2
340
17
275
     0
280
     0
281
     0
282
     0
283
     1
284
     0
285
     0
286
     0
287
     0
288
     0
  0
ENDTAB
  0
TABLE
  2
BLOCK_RECORD
  5
1
100
AcDbSymbolTable
 70
     2
  0
BLOCK_RECORD
  5
A
100
AcDbSymbolTableRecord
100
AcDbBlockTableRecord
  2
*MODEL_SPACE
  0
BLOCK_RECORD
  5
B
100
AcDbSymbolTableRecord
100
AcDbBlockTableRecord
  2
*PAPER_SPACE
  0
BLOCK_RECORD
  5
8A
102
{ACAD_XDICTIONARY
360
17B0022400000000
102
}
100
AcDbSymbolTableRecord
100
AcDbBlockTableRecord
  2
LDR
  0
BLOCK_RECORD
  5
3CC
102
{ACAD_XDICTIONARY
360
17B0022400000000
102
}
100
AcDbSymbolTableRecord
100
AcDbBlockTableRecord
  2
PT
  0
ENDTAB
  0
ENDSEC
  0
SECTION
  2
BLOCKS
  0
BLOCK
  5
D
100
AcDbEntity
  8
0
100
AcDbBlockBegin
  2
*MODEL_SPACE
 70
     0
 10
0.0
 20
0.0
 30
0.0
  3
*MODEL_SPACE
  1

  0
ENDBLK
  5
E
100
AcDbEntity
  8
0
100
AcDbBlockEnd
  0
BLOCK
  5
F
100
AcDbEntity
 67
     1
  8
0
100
AcDbBlockBegin
  2
*PAPER_SPACE
 70
     0
 10
0.0
 20
0.0
 30
0.0
  3
*PAPER_SPACE
  1

  0
ENDBLK
  5
10
100
AcDbEntity
 67
     1
  8
0
100
AcDbBlockEnd
  0
BLOCK
  5
8B
100
AcDbEntity
  8
1
  6
CONTINUOUS
 62
     1
100
AcDbBlockBegin
  2
LDR
 70
     0
 10
0.0
 20
0.0
 30
0.0
  3
LNR
  1

  0
ELLIPSE
  5
8C
100
AcDbEntity
  8
1
  6
CONTINUOUS
 62
     1
100
AcDbEllipse
 10
-0.005456
 20
-0.001381
 30
0.0
 11
0.0089285005164888
 21
0.0007807500177043
 31
0.0
210
0.0
220
0.0
230
1.0
 40
0.122415
 41
0.8963533496766982
 42
3.1415926535897931
  0
ELLIPSE
  5
8D
100
AcDbEntity
  8
1
  6
CONTINUOUS
 62
     1
100
AcDbEllipse
 10
-0.005603
 20
0.001058
 30
0.0
 11
-0.0087822506588906
 21
0.0008782502101573
 31
0.0
210
0.0
220
0.0
230
1.0
 40
0.07063
 41
6.2823074065658329
 42
2.276517300956717
  0
ENDBLK
  5
8E
100
AcDbEntity
  8
1
  6
CONTINUOUS
 62
     1
100
AcDbBlockEnd
  0
BLOCK
  5
3CD
100
AcDbEntity
  8
1
  6
CONTINUOUS
 62
     1
100
AcDbBlockBegin
  2
PT
 70
     0
 10
0.0
 20
0.0
 30
0.0
  3
PT
  1

  0
POINT
  5
3CE
100
AcDbEntity
  8
1
  6
CONTINUOUS
 62
     1
100
AcDbPoint
 10
0.0
 20
0.0
 30
0.0
  0
ENDBLK
  5
3CF
100
AcDbEntity
  8
1
  6
CONTINUOUS
 62
     1
100
AcDbBlockEnd
  0
ENDSEC
  0
SECTION
  2
ENTITIES
  0
TEXT
  5
2C
100
AcDbEntity
  8
61
  6
CONTINUOUS
 62
     7
100
AcDbText
 10
785.8722
 20
462.7694
 30
0.0
 40
2.881584
  1
     
 41
1.001399
  7
MONOTXT
210
0.0
220
0.0
230
1.0
100
AcDbText
  0
TEXT
  5
2E
100
AcDbEntity
  8
1
  6
CONTINUOUS
 62
     1
100
AcDbText
 10
635.6789
 20
38.4681
 30
0.0
 40
2.400048
  1
10-24-77
  7
MONOTXT
 72
     1
 11
643.9751
 21
40.8681
 31
0.0
210
0.0
220
0.0
230
1.0
100
AcDbText
 73
     3
  0
TEXT
  5
2F
100
AcDbEntity
  8
1
  6
CONTINUOUS
 62
     1
100
AcDbText
 10
635.3838
 20
32.3204
 30
0.0
 40
2.400048
  1
05-23-80
  7
MONOTXT
 72
     1
 11
644.0958
 21
34.7204
 31
0.0
210
0.0
220
0.0
230
1.0
100
AcDbText
 73
     3
  0
TEXT
  5
30
100
AcDbEntity
  8
1
  6
CONTINUOUS
 62
     1
100
AcDbText
 10
636.0626
 20
26.7512
 30
0.0
 40
2.400048
  1
09-15-84
  7
MONOTXT
 72
     1
 11
644.2738
 21
29.1512
 31
0.0
210
0.0
220
0.0
230
1.0
100
AcDbText
 73
     3
  0
TEXT
  5
31
100
AcDbEntity
  8
1
  6
CONTINUOUS
 62
     1
100
AcDbText
 10
634.8088
 20
21.1819
 30
0.0
 40
2.400048
  1
        
  7
MONOTXT
 72
     1
 11
644.009
 21
23.5819
 31
0.0
210
0.0
220
0.0
230
1.0
100
AcDbText
 73
     3
  0
TEXT
  5
32
100
AcDbEntity
  8
1
  6
CONTINUOUS
 62
     1
100
AcDbText
 10
606.7122
 20
35.1854
 30
0.0
 40
2.400048
  1
        
  7
MONOTXT
 72
     1
 11
615.9124
 21
37.5854
 31
0.0
210
0.0
220
0.0
230
1.0
100
AcDbText
 73
     3
  0
TEXT
  5
33
100
AcDbEntity
  8
1
  6
CONTINUOUS
 62
     1
100
AcDbText
 10
606.9042
 20
29.8094
 30
0.0
 40
2.400048
  1
        
  7
MONOTXT
 72
     1
 11
616.1044
 21
32.2094
 31
0.0
210
0.0
220
0.0
230
1.0
100
AcDbText
 73
     3
  0
TEXT
  5
34
100
AcDbEntity
  8
1
  6
CONTINUOUS
 62
     1
100
AcDbText
 10
606.7842
 20
24.2894
 30
0.0
 40
2.400048
  1
        
  7
MONOTXT
 72
     1
 11
615.9844
 21
26.6894
 31
0.0
210
0.0
220
0.0
230
1.0
100
AcDbText
 73
     3
  0
TEXT
  5
35
100
AcDbEntity
  8
1
  6
CONTINUOUS
 62
     1
100
AcDbText
 10
606.9042
 20
18.7934
 30
0.0
 40
2.400048
  1
        
  7
MONOTXT
 72
     1
 11
616.1044
 21
21.1934
 31
0.0
210
0.0
220
0.0
230
1.0
100
AcDbText
 73
     3
  0
TEXT
  5
36
100
AcDbEntity
  8
1
  6
CONTINUOUS
 62
     1
100
AcDbText
 10
606.9042
 20
13.9694
 30
0.0
 40
2.400048
  1
        
  7
MONOTXT
 72
     1
 11
616.1044
 21
16.3694
 31
0.0
210
0.0
220
0.0
230
1.0
100
AcDbText
 73
     3
  0
LINE
  5
37
100
AcDbEntity
  8
1
  6
CONTINUOUS
 62
     4
100
AcDbLine
 10
127.6642
 20
126.9013
 30
0.0
 11
188.0482
 21
126.9013
 31
0.0
  0
LINE
  5
38
100
AcDbEntity
  8
1
  6
DASHED
 62
     4
100
AcDbLine
 10
187.8802
 20
126.9013
 30
0.0
 11
187.8802
 21
60.3493
 31
0.0
  0
LINE
  5
39
100
AcDbEntity
  8
1
  6
CONTINUOUS
 62
     4
100
AcDbLine
 10
188.0482
 20
126.9013
 30
0.0
 11
246.4642
 21
111.2293
 31
0.0
  0
LINE
  5
3A
100
AcDbEntity
  8
1
  6
CONTINUOUS
 62
     4
100
AcDbLine
 10
246.4642
 20
111.2293
 30
0.0
 11
158.8642
 21
126.9013
 31
0.0
  0
LINE
  5
3B
100
AcDbEntity
  8
1
  6
CONTINUOUS
 62
     4
100
AcDbLine
 10
173.3602
 20
108.7093
 30
0.0
 11
173.3602
 21
114.4213
 31
0.0
  0
LINE
  5
3C
100
AcDbEntity
  8
1
  6
CONTINUOUS
 62
     4
100
AcDbLine
 10
173.3602
 20
43.7173
 30
0.0
 11
173.3602
 21
69.7093
 31
0.0
  0
LINE
  5
3D
100
AcDbEntity
  8
1
  6
CONTINUOUS
 62
     4
100
AcDbLine
 10
173.3602
 20
115.5493
 30
0.0
 11
173.3602
 21
155.6773
 31
0.0
  0
LINE
  5
3E
100
AcDbEntity
  8
1
  6
CONTINUOUS
 62
     4
100
AcDbLine
 10
173.3602
 20
77.4613
 30
0.0
 11
173.3602
 21
107.3413
 31
0.0
  0
LINE
  5
3F
100
AcDbEntity
  8
1
  6
CONTINUOUS
 62
     4
100
AcDbLine
 10
173.3602
 20
71.0773
 30
0.0
 11
173.3602
 21
76.3333
 31
0.0
  0
LINE
  5
40
100
AcDbEntity
  8
1
  6
CONTINUOUS
 62
     4
100
AcDbLine
 10
164.9602
 20
60.4933
 30
0.0
 11
165.3682
 21
59.3413
 31
0.0
  0
LINE
  5
41
100
AcDbEntity
  8
1
  6
CONTINUOUS
 62
     4
100
AcDbLine
 10
165.3682
 20
59.3413
 30
0.0
 11
167.5042
 21
61.4773
 31
0.0
  0
LINE
  5
42
100
AcDbEntity
  8
1
  6
CONTINUOUS
 62
     4
100
AcDbLine
 10
167.5042
 20
61.4773
 30
0.0
 11
167.8642
 21
60.4933
 31
0.0
  0
LINE
  5
43
100
AcDbEntity
  8
1
  6
CONTINUOUS
 62
     4
100
AcDbLine
 10
158.8642
 20
60.4933
 30
0.0
 11
164.9602
 21
60.4933
 31
0.0
  0
LINE
  5
44
100
AcDbEntity
  8
1
  6
CONTINUOUS
 62
     4
100
AcDbLine
 10
167.8642
 20
60.4933
 30
0.0
 11
177.5362
 21
60.4933
 31
0.0
  0
LINE
  5
45
100
AcDbEntity
  8
1
  6
CONTINUOUS
 62
     4
100
AcDbLine
 10
177.5362
 20
60.4933
 30
0.0
 11
177.9682
 21
59.3413
 31
0.0
  0
LINE
  5
46
100
AcDbEntity
  8
1
  6
CONTINUOUS
 62
     4
100
AcDbLine
 10
177.9682
 20
59.3413
 30
0.0
 11
180.1042
 21
61.4773
 31
0.0
  0
LINE
  5
47
100
AcDbEntity
  8
1
  6
CONTINUOUS
 62
     4
100
AcDbLine
 10
180.1042
 20
61.4773
 30
0.0
 11
180.5122
 21
60.3493
 31
0.0
  0
LINE
  5
48
100
AcDbEntity
  8
1
  6
CONTINUOUS
 62
     4
100
AcDbLine
 10
180.5122
 20
60.3493
 30
0.0
 11
187.8802
 21
60.3493
 31
0.0
  0
LINE
  5
49
100
AcDbEntity
  8
1
  6
CONTINUOUS
 62
     4
100
AcDbLine
 10
164.4322
 20
58.9573
 30
0.0
 11
164.8642
 21
57.8053
 31
0.0
  0
LINE
  5
4A
100
AcDbEntity
  8
1
  6
CONTINUOUS
 62
     4
100
AcDbLine
 10
164.8642
 20
57.8053
 30
0.0
 11
167.0002
 21
59.9413
 31
0.0
  0
LINE
  5
4B
100
AcDbEntity
  8
1
  6
CONTINUOUS
 62
     4
100
AcDbLine
 10
167.0002
 20
59.9413
 30
0.0
 11
167.3602
 21
58.9573
 31
0.0
  0
LINE
  5
4C
100
AcDbEntity
  8
1
  6
CONTINUOUS
 62
     4
100
AcDbLine
 10
158.8402
 20
58.9573
 30
0.0
 11
164.4322
 21
58.9573
 31
0.0
  0
LINE
  5
4D
100
AcDbEntity
  8
1
  6
CONTINUOUS
 62
     4
100
AcDbLine
 10
167.3602
 20
58.9573
 30
0.0
 11
177.0322
 21
58.9573
 31
0.0
  0
LINE
  5
4E
100
AcDbEntity
  8
1
  6
CONTINUOUS
 62
     4
100
AcDbLine
 10
177.0322
 20
58.9573
 30
0.0
 11
177.4402
 21
57.8053
 31
0.0
  0
LINE
  5
4F
100
AcDbEntity
  8
1
  6
CONTINUOUS
 62
     4
100
AcDbLine
 10
177.4402
 20
57.8053
 30
0.0
 11
179.5762
 21
59.9413
 31
0.0
  0
LINE
  5
50
100
AcDbEntity
  8
1
  6
CONTINUOUS
 62
     4
100
AcDbLine
 10
179.5762
 20
59.9413
 30
0.0
 11
180.0082
 21
58.8133
 31
0.0
  0
LINE
  5
51
100
AcDbEntity
  8
1
  6
CONTINUOUS
 62
     4
100
AcDbLine
 10
180.0082
 20
58.8133
 30
0.0
 11
187.8562
 21
58.8133
 31
0.0
  0
LINE
  5
52
100
AcDbEntity
  8
1
  6
DASHED
 62
     4
100
AcDbLine
 10
158.8402
 20
58.9573
 30
0.0
 11
158.8402
 21
57.0853
 31
0.0
  0
LINE
  5
53
100
AcDbEntity
  8
1
  6
DASHED
 62
     4
100
AcDbLine
 10
158.8642
 20
126.9013
 30
0.0
 11
158.8642
 21
60.4933
 31
0.0
  0
LINE
  5
54
100
AcDbEntity
  8
1
  6
DASHED
 62
     4
100
AcDbLine
 10
187.8562
 20
58.8133
 30
0.0
 11
187.8562
 21
57.0853
 31
0.0
  0
LINE
  5
55
100
AcDbEntity
  8
1
  6
DASHED
 62
     4
100
AcDbLine
 10
158.8402
 20
57.0853
 30
0.0
 11
187.8562
 21
57.0853
 31
0.0
  0
LINE
  5
56
100
AcDbEntity
  8
1
  6
CONTINUOUS
 62
     4
100
AcDbLine
 10
142.6882
 20
121.1173
 30
0.0
 11
185.6482
 21
121.1173
 31
0.0
  0
LINE
  5
57
100
AcDbEntity
  8
1
  6
CONTINUOUS
 62
     4
100
AcDbLine
 10
157.2082
 20
57.0613
 30
0.0
 11
142.6882
 21
57.0613
 31
0.0
  0
LINE
  5
58
100
AcDbEntity
  8
1
  6
CONTINUOUS
 62
     4
100
AcDbLine
 10
158.3602
 20
127.7413
 30
0.0
 11
152.6482
 21
137.0773
 31
0.0
  0
LINE
  5
59
100
AcDbEntity
  8
1
  6
CONTINUOUS
 62
     4
100
AcDbLine
 10
152.6482
 20
137.0773
 30
0.0
 11
144.6802
 21
137.0773
 31
0.0
  0
LINE
  5
5A
100
AcDbEntity
  8
1
  6
CONTINUOUS
 62
     4
100
AcDbLine
 10
139.9042
 20
126.7333
 30
0.0
 11
133.9042
 21
108.4933
 31
0.0
  0
LINE
  5
5B
100
AcDbEntity
  8
1
  6
CONTINUOUS
 62
     4
100
AcDbLine
 10
188.0002
 20
127.2853
 30
0.0
 11
195.7522
 21
139.5973
 31
0.0
  0
LINE
  5
5C
100
AcDbEntity
  8
1
  6
CONTINUOUS
 62
     4
100
AcDbLine
 10
195.7522
 20
139.5973
 30
0.0
 11
205.4242
 21
139.5973
 31
0.0
  0
LINE
  5
5D
100
AcDbEntity
  8
1
  6
CONTINUOUS
 62
     4
100
AcDbLine
 10
208.0642
 20
122.2693
 30
0.0
 11
212.6242
 21
126.5893
 31
0.0
  0
LINE
  5
5E
100
AcDbEntity
  8
1
  6
CONTINUOUS
 62
     4
100
AcDbLine
 10
212.6242
 20
126.5893
 30
0.0
 11
218.6722
 21
126.5893
 31
0.0
  0
LINE
  5
5F
100
AcDbEntity
  8
1
  6
CONTINUOUS
 62
     4
100
AcDbLine
 10
145.8082
 20
120.9013
 30
0.0
 11
145.8082
 21
56.8213
 31
0.0
  0
LINE
  5
60
100
AcDbEntity
  8
1
  6
CONTINUOUS
 62
     4
100
AcDbLine
 10
164.6242
 20
125.8693
 30
0.0
 11
165.6562
 21
126.9013
 31
0.0
  0
LINE
  5
61
100
AcDbEntity
  8
1
  6
CONTINUOUS
 62
     4
100
AcDbLine
 10
167.5282
 20
125.3413
 30
0.0
 11
169.0882
 21
126.9013
 31
0.0
  0
LINE
  5
62
100
AcDbEntity
  8
1
  6
CONTINUOUS
 62
     4
100
AcDbLine
 10
173.3362
 20
124.3093
 30
0.0
 11
175.9282
 21
126.9013
 31
0.0
  0
LINE
  5
63
100
AcDbEntity
  8
1
  6
CONTINUOUS
 62
     4
100
AcDbLine
 10
170.4322
 20
124.8133
 30
0.0
 11
172.4962
 21
126.9013
 31
0.0
  0
LINE
  5
64
100
AcDbEntity
  8
1
  6
CONTINUOUS
 62
     4
100
AcDbLine
 10
179.1442
 20
123.2773
 30
0.0
 11
182.7682
 21
126.9013
 31
0.0
  0
LINE
  5
65
100
AcDbEntity
  8
1
  6
CONTINUOUS
 62
     4
100
AcDbLine
 10
176.2402
 20
123.7813
 30
0.0
 11
179.3362
 21
126.9013
 31
0.0
  0
LINE
  5
66
100
AcDbEntity
  8
1
  6
CONTINUOUS
 62
     4
100
AcDbLine
 10
182.0482
 20
122.7493
 30
0.0
 11
186.1762
 21
126.9013
 31
0.0
  0
LINE
  5
67
100
AcDbEntity
  8
1
  6
CONTINUOUS
 62
     4
100
AcDbLine
 10
184.9522
 20
122.2213
 30
0.0
 11
189.2722
 21
126.5653
 31
0.0
  0
LINE
  5
68
100
AcDbEntity
  8
1
  6
CONTINUOUS
 62
     4
100
AcDbLine
 10
199.4482
 20
119.6293
 30
0.0
 11
202.7602
 21
122.9413
 31
0.0
  0
LINE
  5
69
100
AcDbEntity
  8
1
  6
CONTINUOUS
 62
     4
100
AcDbLine
 10
211.0642
 20
117.5653
 30
0.0
 11
213.5602
 21
120.0613
 31
0.0
  0
LINE
  5
6A
100
AcDbEntity
  8
1
  6
CONTINUOUS
 62
     4
100
AcDbLine
 10
213.9682
 20
117.0373
 30
0.0
 11
216.2482
 21
119.3413
 31
0.0
  0
LINE
  5
6B
100
AcDbEntity
  8
1
  6
CONTINUOUS
 62
     4
100
AcDbLine
 10
216.8722
 20
116.5333
 30
0.0
 11
218.9602
 21
118.6213
 31
0.0
  0
LINE
  5
6C
100
AcDbEntity
  8
1
  6
CONTINUOUS
 62
     4
100
AcDbLine
 10
219.7762
 20
116.0053
 30
0.0
 11
221.6482
 21
117.8773
 31
0.0
  0
LINE
  5
6D
100
AcDbEntity
  8
1
  6
CONTINUOUS
 62
     4
100
AcDbLine
 10
225.5842
 20
114.9733
 30
0.0
 11
227.0482
 21
116.4373
 31
0.0
  0
LINE
  5
6E
100
AcDbEntity
  8
1
  6
CONTINUOUS
 62
     4
100
AcDbLine
 10
228.4882
 20
114.4453
 30
0.0
 11
229.7602
 21
115.7173
 31
0.0
  0
LINE
  5
6F
100
AcDbEntity
  8
1
  6
CONTINUOUS
 62
     4
100
AcDbLine
 10
222.6802
 20
115.5013
 30
0.0
 11
224.3602
 21
117.1573
 31
0.0
  0
LINE
  5
70
100
AcDbEntity
  8
1
  6
CONTINUOUS
 62
     4
100
AcDbLine
 10
231.3922
 20
113.9413
 30
0.0
 11
232.4482
 21
114.9973
 31
0.0
  0
LINE
  5
71
100
AcDbEntity
  8
1
  6
CONTINUOUS
 62
     4
100
AcDbLine
 10
234.2962
 20
113.4133
 30
0.0
 11
235.1362
 21
114.2773
 31
0.0
  0
LINE
  5
72
100
AcDbEntity
  8
1
  6
CONTINUOUS
 62
     4
100
AcDbLine
 10
237.2002
 20
112.8853
 30
0.0
 11
237.8482
 21
113.5573
 31
0.0
  0
TEXT
  5
73
100
AcDbEntity
  8
1
  6
CONTINUOUS
 62
     4
100
AcDbText
 10
173.1682
 20
157.6213
 30
0.0
 40
2.4192
  1
L POLE FDN.
  7
MONOTXT
 11
173.1682
 21
158.8309
 31
0.0
210
0.0
220
0.0
230
1.0
100
AcDbText
 73
     2
  0
TEXT
  5
74
100
AcDbEntity
  8
1
  6
CONTINUOUS
 62
     4
100
AcDbText
 10
172.2562
 20
158.8693
 30
0.0
 40
2.4192
  1
C
  7
MONOTXT
 11
172.2562
 21
160.0789
 31
0.0
210
0.0
220
0.0
230
1.0
100
AcDbText
 73
     2
  0
TEXT
  5
75
100
AcDbEntity
  8
1
  6
CONTINUOUS
 62
     4
100
AcDbText
 10
207.1522
 20
138.2533
 30
0.0
 40
2.4192
  1
CONC. POLE FDN.
  7
MONOTXT
 11
207.1522
 21
139.4629
 31
0.0
210
0.0
220
0.0
230
1.0
100
AcDbText
 73
     2
  0
TEXT
  5
76
100
AcDbEntity
  8
1
  6
CONTINUOUS
 62
     4
100
AcDbText
 10
132.4402
 20
135.7333
 30
0.0
 40
2.4192
  1
FLUSH
  7
MONOTXT
 72
     2
 11
143.317
 21
136.9429
 31
0.0
210
0.0
220
0.0
230
1.0
100
AcDbText
 73
     2
  0
TEXT
  5
77
100
AcDbEntity
  8
1
  6
CONTINUOUS
 62
     4
100
AcDbText
 10
104.0482
 20
107.3173
 30
0.0
 40
2.4192
  1
SHOULDER OR
  7
MONOTXT
 11
104.0482
 21
108.5269
 31
0.0
210
0.0
220
0.0
230
1.0
100
AcDbText
 73
     2
  0
TEXT
  5
78
100
AcDbEntity
  8
1
  6
CONTINUOUS
 62
     4
100
AcDbText
 10
104.0482
 20
103.6933
 30
0.0
 40
2.4192
  1
FINISHED GRADE
  7
MONOTXT
 11
104.0482
 21
104.9029
 31
0.0
210
0.0
220
0.0
230
1.0
100
AcDbText
 73
     2
  0
TEXT
  5
79
100
AcDbEntity
  8
1
  6
CONTINUOUS
 62
     4
100
AcDbText
 10
144.2722
 20
85.3333
 30
0.0
 40
2.4192
  1
DEPTH
 50
90.0
  7
MONOTXT
 72
     4
 11
143.0626
 21
90.886
 31
0.0
210
0.0
220
0.0
230
1.0
100
AcDbText
  0
TEXT
  5
7A
100
AcDbEntity
  8
1
  6
CONTINUOUS
 62
     4
100
AcDbText
 10
189.1522
 20
118.2133
 30
0.0
 40
2.4192
  1
SLOPE VARIES
 50
350.0
  7
MONOTXT
 72
     4
 11
202.259287
 21
117.130427
 31
0.0
210
0.0
220
0.0
230
1.0
100
AcDbText
  0
LINE
  5
7B
100
AcDbEntity
  8
1
  6
CONTINUOUS
 62
     4
100
AcDbLine
 10
187.8562
 20
121.7173
 30
0.0
 11
189.2722
 21
123.1573
 31
0.0
  0
LINE
  5
7C
100
AcDbEntity
  8
1
  6
CONTINUOUS
 62
     4
100
AcDbLine
 10
190.6642
 20
124.5253
 30
0.0
 11
191.9842
 21
125.8453
 31
0.0
  0
LINE
  5
7D
100
AcDbEntity
  8
1
  6
CONTINUOUS
 62
     4
100
AcDbLine
 10
190.7602
 20
121.1893
 30
0.0
 11
191.2642
 21
121.7173
 31
0.0
  0
LINE
  5
7E
100
AcDbEntity
  8
1
  6
CONTINUOUS
 62
     4
100
AcDbLine
 10
192.1522
 20
122.5813
 30
0.0
 11
194.6722
 21
125.1253
 31
0.0
  0
LINE
  5
7F
100
AcDbEntity
  8
1
  6
CONTINUOUS
 62
     4
100
AcDbLine
 10
193.6642
 20
120.6853
 30
0.0
 11
193.8562
 21
120.8773
 31
0.0
  0
LINE
  5
80
100
AcDbEntity
  8
1
  6
CONTINUOUS
 62
     4
100
AcDbLine
 10
195.8002
 20
122.8213
 30
0.0
 11
197.3602
 21
124.4053
 31
0.0
  0
LINE
  5
81
100
AcDbEntity
  8
1
  6
CONTINUOUS
 62
     4
100
AcDbLine
 10
196.5442
 20
120.1573
 30
0.0
 11
197.8642
 21
121.4533
 31
0.0
  0
LINE
  5
82
100
AcDbEntity
  8
1
  6
CONTINUOUS
 62
     4
100
AcDbLine
 10
199.2562
 20
122.8693
 30
0.0
 11
200.0722
 21
123.6613
 31
0.0
  0
LINE
  5
83
100
AcDbEntity
  8
1
  6
CONTINUOUS
 62
     4
100
AcDbLine
 10
202.3522
 20
119.1253
 30
0.0
 11
202.5682
 21
119.3413
 31
0.0
  0
LINE
  5
84
100
AcDbEntity
  8
1
  6
CONTINUOUS
 62
     4
100
AcDbLine
 10
205.2562
 20
118.5973
 30
0.0
 11
205.7602
 21
119.1013
 31
0.0
  0
LINE
  5
85
100
AcDbEntity
  8
1
  6
CONTINUOUS
 62
     4
100
AcDbLine
 10
207.8722
 20
121.2133
 30
0.0
 11
208.1602
 21
121.5013
 31
0.0
  0
LINE
  5
86
100
AcDbEntity
  8
1
  6
CONTINUOUS
 62
     4
100
AcDbLine
 10
208.1602
 20
118.0933
 30
0.0
 11
209.7202
 21
119.6293
 31
0.0
  0
LINE
  5
87
100
AcDbEntity
  8
1
  6
CONTINUOUS
 62
     4
100
AcDbLine
 10
209.4322
 20
119.3413
 30
0.0
 11
210.8722
 21
120.7813
 31
0.0
  0
TEXT
  5
88
100
AcDbEntity
  8
1
  6
CONTINUOUS
 62
     4
100
AcDbText
 10
189.4402
 20
122.0053
 30
0.0
 40
2.177136
  1
SLOPE LINE
 50
350.0
  7
MONOTXT
 72
     4
 11
198.956742
 21
121.43267
 31
0.0
210
0.0
220
0.0
230
1.0
100
AcDbText
  0
LINE
  5
89
100
AcDbEntity
  8
1
  6
CONTINUOUS
 62
     4
100
AcDbLine
 10
204.8962
 20
121.6693
 30
0.0
 11
205.4722
 21
122.2213
 31
0.0
  0
INSERT
  5
8F
100
AcDbEntity
  8
1
  6
CONTINUOUS
 62
     1
100
AcDbBlockReference
  2
LDR
 10
139.9042
 20
126.7333
 30
0.0
 41
241.919346
 42
241.919346
 50
71.802179
210
0.0
220
0.0
230
1.0
  0
INSERT
  5
90
100
AcDbEntity
  8
1
  6
CONTINUOUS
 62
     1
100
AcDbBlockReference
  2
LDR
 10
158.3602
 20
127.7413
 30
0.0
 41
241.91987
 42
241.91987
 50
301.373027
210
0.0
220
0.0
230
1.0
  0
INSERT
  5
91
100
AcDbEntity
  8
1
  6
CONTINUOUS
 62
     1
100
AcDbBlockReference
  2
LDR
 10
158.3602
 20
127.7413
 30
0.0
 41
241.91987
 42
241.91987
 50
301.373027
210
0.0
220
0.0
230
1.0
  0
INSERT
  5
92
100
AcDbEntity
  8
1
  6
CONTINUOUS
 62
     1
100
AcDbBlockReference
  2
LDR
 10
188.0002
 20
127.2853
 30
0.0
 41
241.919974
 42
241.919974
 50
237.804307
210
0.0
220
0.0
230
1.0
  0
INSERT
  5
93
100
AcDbEntity
  8
1
  6
CONTINUOUS
 62
     1
100
AcDbBlockReference
  2
LDR
 10
208.0642
 20
122.2693
 30
0.0
 41
241.919868
 42
241.919868
 50
223.531928
210
0.0
220
0.0
230
1.0
  0
INSERT
  5
94
100
AcDbEntity
  8
1
  6
CONTINUOUS
 62
     1
100
AcDbBlockReference
  2
LDR
 10
145.8082
 20
120.9013
 30
0.0
 41
241.919608
 42
241.919608
 50
90.0
210
0.0
220
0.0
230
1.0
  0
INSERT
  5
95
100
AcDbEntity
  8
1
  6
CONTINUOUS
 62
     1
100
AcDbBlockReference
  2
LDR
 10
145.8082
 20
56.8213
 30
0.0
 41
241.919608
 42
241.919608
 50
270.0
210
0.0
220
0.0
230
1.0
  0
TEXT
  5
96
100
AcDbEntity
  8
1
  6
CONTINUOUS
 62
     4
100
AcDbText
 10
138.4642
 20
36.3973
 30
0.0
 40
4.8384
  1
FOOTER IN SLOPE
  7
MONOTXT
 72
     4
 11
172.1996
 21
38.8165
 31
0.0
210
0.0
220
0.0
230
1.0
100
AcDbText
  0
LINE
  5
97
100
AcDbEntity
  8
1
  6
CONTINUOUS
 62
     4
100
AcDbLine
 10
135.3202
 20
34.0693
 30
0.0
 11
209.5522
 21
34.0693
 31
0.0
  0
LINE
  5
98
100
AcDbEntity
  8
1
  6
CONTINUOUS
 62
     5
100
AcDbLine
 10
133.9042
 20
108.4933
 30
0.0
 11
130.8802
 21
108.5173
 31
0.0
  0
LINE
  5
99
100
AcDbEntity
  8
1
  6
CONTINUOUS
 62
     4
100
AcDbLine
 10
397.8621
 20
224.2035
 30
0.0
 11
397.8621
 21
180.6675
 31
0.0
  0
LINE
  5
9A
100
AcDbEntity
  8
1
  6
CONTINUOUS
 62
     4
100
AcDbLine
 10
441.3981
 20
224.2035
 30
0.0
 11
441.3981
 21
180.6675
 31
0.0
  0
LINE
  5
9B
100
AcDbEntity
  8
1
  6
CONTINUOUS
 62
     4
100
AcDbLine
 10
397.8621
 20
224.2035
 30
0.0
 11
441.3981
 21
224.2035
 31
0.0
  0
LINE
  5
9C
100
AcDbEntity
  8
1
  6
CONTINUOUS
 62
     4
100
AcDbLine
 10
397.8621
 20
180.6675
 30
0.0
 11
441.3981
 21
180.6675
 31
0.0
  0
ARC
  5
9D
100
AcDbEntity
  8
1
  6
HIDDEN
 62
     4
100
AcDbCircle
 10
419.712569
 20
202.621874
 30
0.0
 40
21.168
210
0.0
220
0.0
230
1.0
100
AcDbArc
 50
144.727969
 51
134.599747
  0
ARC
  5
9E
100
AcDbEntity
  8
1
  6
HIDDEN
 62
     4
100
AcDbCircle
 10
413.199899
 20
208.152046
 30
0.0
 40
12.679895
210
0.0
220
0.0
230
1.0
100
AcDbArc
 50
131.189658
 51
148.137789
  0
ARC
  5
9F
100
AcDbEntity
  8
1
  6
CONTINUOUS
 62
     4
100
AcDbCircle
 10
420.256788
 20
202.848977
 30
0.0
 40
9.072
210
0.0
220
0.0
230
1.0
100
AcDbArc
 50
61.93145
 51
122.730561
  0
ARC
  5
A0
100
AcDbEntity
  8
1
  6
CONTINUOUS
 62
     4
100
AcDbCircle
 10
420.256788
 20
202.848977
 30
0.0
 40
9.072
210
0.0
220
0.0
230
1.0
100
AcDbArc
 50
150.003069
 51
209.996931
  0
ARC
  5
A1
100
AcDbEntity
  8
1
  6
CONTINUOUS
 62
     4
100
AcDbCircle
 10
420.256788
 20
202.848977
 30
0.0
 40
9.072
210
0.0
220
0.0
230
1.0
100
AcDbArc
 50
237.9532
 51
298.033622
  0
ARC
  5
A2
100
AcDbEntity
  8
1
  6
CONTINUOUS
 62
     4
100
AcDbCircle
 10
420.256788
 20
202.848977
 30
0.0
 40
9.072
210
0.0
220
0.0
230
1.0
100
AcDbArc
 50
328.650811
 51
32.730644
  0
CIRCLE
  5
A3
100
AcDbEntity
  8
1
  6
CONTINUOUS
 62
     4
100
AcDbCircle
 10
413.57395
 20
209.278001
 30
0.0
 40
1.2096
210
0.0
220
0.0
230
1.0
  0
CIRCLE
  5
A4
100
AcDbEntity
  8
1
  6
CONTINUOUS
 62
     4
100
AcDbCircle
 10
426.376558
 20
209.393316
 30
0.0
 40
1.2096
210
0.0
220
0.0
230
1.0
  0
CIRCLE
  5
A5
100
AcDbEntity
  8
1
  6
CONTINUOUS
 62
     4
100
AcDbCircle
 10
426.491873
 20
195.898716
 30
0.0
 40
1.2096
210
0.0
220
0.0
230
1.0
  0
CIRCLE
  5
A6
100
AcDbEntity
  8
1
  6
CONTINUOUS
 62
     4
100
AcDbCircle
 10
413.57395
 20
196.244762
 30
0.0
 40
1.2096
210
0.0
220
0.0
230
1.0
  0
LINE
  5
A7
100
AcDbEntity
  8
1
  6
HIDDEN
 62
     4
100
AcDbLine
 10
397.8621
 20
203.6595
 30
0.0
 11
441.3981
 21
203.6595
 31
0.0
  0
LINE
  5
A8
100
AcDbEntity
  8
1
  6
HIDDEN
 62
     4
100
AcDbLine
 10
397.8621
 20
201.8355
 30
0.0
 11
441.3981
 21
201.8355
 31
0.0
  0
LINE
  5
A9
100
AcDbEntity
  8
1
  6
CONTINUOUS
 62
     4
100
AcDbLine
 10
395.4141
 20
201.8355
 30
0.0
 11
397.8381
 21
201.8355
 31
0.0
  0
LINE
  5
AA
100
AcDbEntity
  8
1
  6
CONTINUOUS
 62
     4
100
AcDbLine
 10
395.4141
 20
203.6595
 30
0.0
 11
397.8381
 21
203.6595
 31
0.0
  0
LINE
  5
AB
100
AcDbEntity
  8
1
  6
CONTINUOUS
 62
     4
100
AcDbLine
 10
441.3021
 20
203.6355
 30
0.0
 11
444.9261
 21
203.6355
 31
0.0
  0
LINE
  5
AC
100
AcDbEntity
  8
1
  6
CONTINUOUS
 62
     4
100
AcDbLine
 10
441.3021
 20
201.8355
 30
0.0
 11
444.9501
 21
201.8355
 31
0.0
  0
CIRCLE
  5
AD
100
AcDbEntity
  8
1
  6
CONTINUOUS
 62
     4
100
AcDbCircle
 10
395.328041
 20
202.752511
 30
0.0
 40
0.9072
210
0.0
220
0.0
230
1.0
  0
LINE
  5
AE
100
AcDbEntity
  8
1
  6
CONTINUOUS
 62
     4
100
AcDbLine
 10
409.0941
 20
213.6915
 30
0.0
 11
411.9261
 21
210.8595
 31
0.0
  0
LINE
  5
AF
100
AcDbEntity
  8
1
  6
CONTINUOUS
 62
     4
100
AcDbLine
 10
428.0781
 20
210.8115
 30
0.0
 11
431.3421
 21
214.0755
 31
0.0
  0
LINE
  5
B0
100
AcDbEntity
  8
1
  6
CONTINUOUS
 62
     4
100
AcDbLine
 10
428.2701
 20
194.5155
 30
0.0
 11
431.3421
 21
191.4435
 31
0.0
  0
LINE
  5
B1
100
AcDbEntity
  8
1
  6
CONTINUOUS
 62
     4
100
AcDbLine
 10
409.0941
 20
191.8275
 30
0.0
 11
411.9741
 21
194.7075
 31
0.0
  0
LINE
  5
B2
100
AcDbEntity
  8
1
  6
CONTINUOUS
 62
     4
100
AcDbLine
 10
413.1501
 20
209.6355
 30
0.0
 11
413.6541
 21
209.1315
 31
0.0
  0
LINE
  5
B3
100
AcDbEntity
  8
1
  6
CONTINUOUS
 62
     4
100
AcDbLine
 10
413.3661
 20
196.0995
 30
0.0
 11
413.7741
 21
196.5075
 31
0.0
  0
LINE
  5
B4
100
AcDbEntity
  8
1
  6
CONTINUOUS
 62
     4
100
AcDbLine
 10
426.5421
 20
196.2435
 30
0.0
 11
426.9021
 21
195.8835
 31
0.0
  0
LINE
  5
B5
100
AcDbEntity
  8
1
  6
CONTINUOUS
 62
     4
100
AcDbLine
 10
413.1021
 20
209.1315
 30
0.0
 11
413.6061
 21
209.6355
 31
0.0
  0
LINE
  5
B6
100
AcDbEntity
  8
1
  6
CONTINUOUS
 62
     4
100
AcDbLine
 10
426.3021
 20
209.2995
 30
0.0
 11
426.7101
 21
209.7075
 31
0.0
  0
CIRCLE
  5
B7
100
AcDbEntity
  8
1
  6
HIDDEN
 62
     4
100
AcDbCircle
 10
419.973338
 20
202.68054
 30
0.0
 40
17.5392
210
0.0
220
0.0
230
1.0
  0
CIRCLE
  5
B8
100
AcDbEntity
  8
1
  6
HIDDEN
 62
     4
100
AcDbCircle
 10
419.973338
 20
202.58982
 30
0.0
 40
18.7488
210
0.0
220
0.0
230
1.0
  0
LINE
  5
B9
100
AcDbEntity
  8
1
  6
CONTINUOUS
 62
     4
100
AcDbLine
 10
426.4461
 20
195.7875
 30
0.0
 11
426.9261
 21
196.2915
 31
0.0
  0
LINE
  5
BA
100
AcDbEntity
  8
1
  6
CONTINUOUS
 62
     4
100
AcDbLine
 10
426.2301
 20
209.8035
 30
0.0
 11
426.7101
 21
209.3235
 31
0.0
  0
LINE
  5
BB
100
AcDbEntity
  8
1
  6
CONTINUOUS
 62
     4
100
AcDbLine
 10
413.3421
 20
196.5555
 30
0.0
 11
413.8461
 21
196.0755
 31
0.0
  0
ELLIPSE
  5
BC
100
AcDbEntity
  8
1
  6
CONTINUOUS
 62
     4
100
AcDbEllipse
 10
444.40718
 20
203.11739
 30
0.0
 11
0.5237342441373067
 21
0.5251851842547083
 31
0.0
210
0.0
220
0.0
230
1.0
 40
0.896364
 41
4.6732248100786666
 42
0.0
  0
ELLIPSE
  5
BD
100
AcDbEntity
  8
1
  6
CONTINUOUS
 62
     4
100
AcDbEllipse
 10
445.44477
 20
202.36895
 30
0.0
 11
-0.5251851842666609
 21
-0.5237342441492268
 31
0.0
210
0.0
220
0.0
230
1.0
 40
0.84388
 41
4.7124091486338244
 42
0.0517675322042512
  0
ELLIPSE
  5
BE
100
AcDbEntity
  8
1
  6
CONTINUOUS
 62
     4
100
AcDbEllipse
 10
444.492255
 20
202.317945
 30
0.0
 11
0.5237342441373067
 21
0.5251851842547083
 31
0.0
210
0.0
220
0.0
230
1.0
 40
0.896364
 41
4.6732248100786666
 42
0.0
  0
LINE
  5
BF
100
AcDbEntity
  8
1
  6
CONTINUOUS
 62
     4
100
AcDbLine
 10
415.1901
 20
197.9235
 30
0.0
 11
417.9501
 21
200.6835
 31
0.0
  0
LINE
  5
C0
100
AcDbEntity
  8
1
  6
CONTINUOUS
 62
     4
100
AcDbLine
 10
422.3901
 20
205.1235
 30
0.0
 11
424.9581
 21
207.6675
 31
0.0
  0
LINE
  5
C1
100
AcDbEntity
  8
1
  6
CONTINUOUS
 62
     4
100
AcDbLine
 10
415.0221
 20
207.7635
 30
0.0
 11
417.3501
 21
205.4355
 31
0.0
  0
LINE
  5
C2
100
AcDbEntity
  8
1
  6
CONTINUOUS
 62
     4
100
AcDbLine
 10
422.6541
 20
200.1315
 30
0.0
 11
425.1261
 21
197.6595
 31
0.0
  0
CIRCLE
  5
C3
100
AcDbEntity
  8
1
  6
CONTINUOUS
 62
     4
100
AcDbCircle
 10
418.823412
 20
202.843231
 30
0.0
 40
0.9072
210
0.0
220
0.0
230
1.0
  0
CIRCLE
  5
C4
100
AcDbEntity
  8
1
  6
CONTINUOUS
 62
     4
100
AcDbCircle
 10
421.726351
 20
202.843231
 30
0.0
 40
0.9072
210
0.0
220
0.0
230
1.0
  0
CIRCLE
  5
C5
100
AcDbEntity
  8
1
  6
CONTINUOUS
 62
     4
100
AcDbCircle
 10
428.013046
 20
189.168401
 30
0.0
 40
0.48384
210
0.0
220
0.0
230
1.0
  0
CIRCLE
  5
C6
100
AcDbEntity
  8
1
  6
CONTINUOUS
 62
     4
100
AcDbCircle
 10
412.319191
 20
188.714801
 30
0.0
 40
0.48384
210
0.0
220
0.0
230
1.0
  0
CIRCLE
  5
C7
100
AcDbEntity
  8
1
  6
CONTINUOUS
 62
     4
100
AcDbCircle
 10
411.593532
 20
216.564631
 30
0.0
 40
0.48384
210
0.0
220
0.0
230
1.0
  0
CIRCLE
  5
C8
100
AcDbEntity
  8
1
  6
CONTINUOUS
 62
     4
100
AcDbCircle
 10
427.015226
 20
217.19957
 30
0.0
 40
0.48384
210
0.0
220
0.0
230
1.0
  0
CIRCLE
  5
C9
100
AcDbEntity
  8
1
  6
CONTINUOUS
 62
     4
100
AcDbCircle
 10
403.973354
 20
200.326457
 30
0.0
 40
0.48384
210
0.0
220
0.0
230
1.0
  0
CIRCLE
  5
CA
100
AcDbEntity
  8
1
  6
CONTINUOUS
 62
     4
100
AcDbCircle
 10
435.905383
 20
205.043695
 30
0.0
 40
0.48384
210
0.0
220
0.0
230
1.0
  0
LINE
  5
CB
100
AcDbEntity
  8
1
  6
CONTINUOUS
 62
     4
100
AcDbLine
 10
420.3021
 20
212.2995
 30
0.0
 11
430.8381
 21
228.9795
 31
0.0
  0
LINE
  5
CC
100
AcDbEntity
  8
1
  6
CONTINUOUS
 62
     4
100
AcDbLine
 10
430.8381
 20
228.9795
 30
0.0
 11
435.1821
 21
228.9795
 31
0.0
  0
LINE
  5
CD
100
AcDbEntity
  8
1
  6
CONTINUOUS
 62
     4
100
AcDbLine
 10
394.5501
 20
201.9555
 30
0.0
 11
390.3741
 21
198.7875
 31
0.0
  0
LINE
  5
CE
100
AcDbEntity
  8
1
  6
CONTINUOUS
 62
     4
100
AcDbLine
 10
390.3741
 20
198.7875
 30
0.0
 11
386.2941
 21
198.7875
 31
0.0
  0
LINE
  5
CF
100
AcDbEntity
  8
1
  6
CONTINUOUS
 62
     4
100
AcDbLine
 10
444.3501
 20
203.7795
 30
0.0
 11
446.9661
 21
208.3155
 31
0.0
  0
LINE
  5
D0
100
AcDbEntity
  8
1
  6
CONTINUOUS
 62
     4
100
AcDbLine
 10
446.9661
 20
208.3155
 30
0.0
 11
451.4301
 21
208.3155
 31
0.0
  0
LINE
  5
D1
100
AcDbEntity
  8
1
  6
CONTINUOUS
 62
     4
100
AcDbLine
 10
442.7181
 20
151.2675
 30
0.0
 11
442.7181
 21
65.6355
 31
0.0
  0
LINE
  5
D2
100
AcDbEntity
  8
1
  6
CONTINUOUS
 62
     4
100
AcDbLine
 10
397.7181
 20
150.2595
 30
0.0
 11
397.7181
 21
65.6355
 31
0.0
  0
LINE
  5
D3
100
AcDbEntity
  8
1
  6
CONTINUOUS
 62
     4
100
AcDbLine
 10
397.7181
 20
65.6355
 30
0.0
 11
442.7181
 21
65.6355
 31
0.0
  0
LINE
  5
D4
100
AcDbEntity
  8
1
  6
CONTINUOUS
 62
     4
100
AcDbLine
 10
363.3981
 20
153.8835
 30
0.0
 11
404.6541
 21
153.8835
 31
0.0
  0
LINE
  5
D5
100
AcDbEntity
  8
1
  6
CONTINUOUS
 62
     4
100
AcDbLine
 10
401.3421
 20
153.8835
 30
0.0
 11
470.2701
 21
153.8835
 31
0.0
  0
LINE
  5
D6
100
AcDbEntity
  8
1
  6
CONTINUOUS
 62
     4
100
AcDbLine
 10
459.9261
 20
153.8835
 30
0.0
 11
479.5101
 21
153.8835
 31
0.0
  0
ARC
  5
D7
100
AcDbEntity
  8
1
  6
CONTINUOUS
 62
     4
100
AcDbCircle
 10
401.342676
 20
150.254057
 30
0.0
 40
3.6288
210
0.0
220
0.0
230
1.0
100
AcDbArc
 50
90.0
 51
180.0
  0
ARC
  5
D8
100
AcDbEntity
  8
1
  6
CONTINUOUS
 62
     4
100
AcDbCircle
 10
439.08018
 20
150.254057
 30
0.0
 40
3.6288
210
0.0
220
0.0
230
1.0
100
AcDbArc
 50
0.0
 51
90.0
  0
LINE
  5
D9
100
AcDbEntity
  8
1
  6
HIDDEN
 62
     4
100
AcDbLine
 10
401.9421
 20
150.6675
 30
0.0
 11
401.9421
 21
65.6355
 31
0.0
  0
LINE
  5
DA
100
AcDbEntity
  8
1
  6
DASHED
 62
     4
100
AcDbLine
 10
411.6141
 20
153.8835
 30
0.0
 11
411.6141
 21
94.6515
 31
0.0
  0
LINE
  5
DB
100
AcDbEntity
  8
1
  6
DASHED
 62
     4
100
AcDbLine
 10
414.0381
 20
153.8835
 30
0.0
 11
414.0381
 21
95.8755
 31
0.0
  0
LINE
  5
DC
100
AcDbEntity
  8
1
  6
DASHED
 62
     4
100
AcDbLine
 10
425.5341
 20
153.8835
 30
0.0
 11
425.5341
 21
95.8755
 31
0.0
  0
LINE
  5
DD
100
AcDbEntity
  8
1
  6
DASHED
 62
     4
100
AcDbLine
 10
427.9581
 20
153.9795
 30
0.0
 11
427.9581
 21
94.6515
 31
0.0
  0
LINE
  5
DE
100
AcDbEntity
  8
1
  6
HIDDEN
 62
     4
100
AcDbLine
 10
438.2301
 20
150.6675
 30
0.0
 11
438.2301
 21
65.6355
 31
0.0
  0
LINE
  5
DF
100
AcDbEntity
  8
1
  6
HIDDEN
 62
     4
100
AcDbLine
 10
439.4541
 20
150.6675
 30
0.0
 11
439.4541
 21
65.6355
 31
0.0
  0
LINE
  5
E0
100
AcDbEntity
  8
1
  6
HIDDEN
 62
     4
100
AcDbLine
 10
400.7421
 20
150.6675
 30
0.0
 11
400.7421
 21
65.6355
 31
0.0
  0
LINE
  5
E1
100
AcDbEntity
  8
1
  6
HIDDEN
 62
     4
100
AcDbLine
 10
401.9421
 20
69.2595
 30
0.0
 11
438.2301
 21
69.2595
 31
0.0
  0
LINE
  5
E2
100
AcDbEntity
  8
1
  6
HIDDEN
 62
     4
100
AcDbLine
 10
401.9421
 20
70.4595
 30
0.0
 11
438.2301
 21
70.4595
 31
0.0
  0
LINE
  5
E3
100
AcDbEntity
  8
1
  6
HIDDEN
 62
     4
100
AcDbLine
 10
401.9421
 20
84.3795
 30
0.0
 11
438.2301
 21
84.3795
 31
0.0
  0
LINE
  5
E4
100
AcDbEntity
  8
1
  6
HIDDEN
 62
     4
100
AcDbLine
 10
401.9421
 20
85.5795
 30
0.0
 11
438.2301
 21
85.5795
 31
0.0
  0
LINE
  5
E5
100
AcDbEntity
  8
1
  6
HIDDEN
 62
     4
100
AcDbLine
 10
401.9421
 20
99.4995
 30
0.0
 11
438.2301
 21
99.4995
 31
0.0
  0
LINE
  5
E6
100
AcDbEntity
  8
1
  6
HIDDEN
 62
     4
100
AcDbLine
 10
401.9421
 20
100.6995
 30
0.0
 11
438.2301
 21
100.6995
 31
0.0
  0
LINE
  5
E7
100
AcDbEntity
  8
1
  6
HIDDEN
 62
     4
100
AcDbLine
 10
401.9421
 20
114.6195
 30
0.0
 11
438.2301
 21
114.6195
 31
0.0
  0
LINE
  5
E8
100
AcDbEntity
  8
1
  6
HIDDEN
 62
     4
100
AcDbLine
 10
401.9421
 20
115.8195
 30
0.0
 11
438.2301
 21
115.8195
 31
0.0
  0
LINE
  5
E9
100
AcDbEntity
  8
1
  6
HIDDEN
 62
     4
100
AcDbLine
 10
401.9421
 20
129.7395
 30
0.0
 11
438.2301
 21
129.7395
 31
0.0
  0
LINE
  5
EA
100
AcDbEntity
  8
1
  6
HIDDEN
 62
     4
100
AcDbLine
 10
401.9421
 20
130.9395
 30
0.0
 11
438.2301
 21
130.9395
 31
0.0
  0
LINE
  5
EB
100
AcDbEntity
  8
1
  6
HIDDEN
 62
     4
100
AcDbLine
 10
401.9421
 20
144.8595
 30
0.0
 11
438.2301
 21
144.8595
 31
0.0
  0
LINE
  5
EC
100
AcDbEntity
  8
1
  6
HIDDEN
 62
     4
100
AcDbLine
 10
401.9421
 20
146.0595
 30
0.0
 11
438.2301
 21
146.0595
 31
0.0
  0
LINE
  5
ED
100
AcDbEntity
  8
1
  6
DASHED
 62
     4
100
AcDbLine
 10
397.7181
 20
125.0355
 30
0.0
 11
409.9101
 21
126.0915
 31
0.0
  0
LINE
  5
EE
100
AcDbEntity
  8
1
  6
HIDDEN
 62
     4
100
AcDbLine
 10
420.6861
 20
131.6115
 30
0.0
 11
420.6861
 21
65.6355
 31
0.0
  0
LINE
  5
EF
100
AcDbEntity
  8
1
  6
DASHED
 62
     4
100
AcDbLine
 10
419.4621
 20
153.8835
 30
0.0
 11
419.4621
 21
133.9635
 31
0.0
  0
LINE
  5
F0
100
AcDbEntity
  8
1
  6
DASHED
 62
     4
100
AcDbLine
 10
420.6381
 20
153.8835
 30
0.0
 11
420.6381
 21
134.0355
 31
0.0
  0
LINE
  5
F1
100
AcDbEntity
  8
1
  6
DASHED
 62
     4
100
AcDbLine
 10
417.6381
 20
153.8835
 30
0.0
 11
417.6381
 21
134.5155
 31
0.0
  0
LINE
  5
F2
100
AcDbEntity
  8
1
  6
DASHED
 62
     4
100
AcDbLine
 10
422.4621
 20
153.8835
 30
0.0
 11
422.4621
 21
134.5875
 31
0.0
  0
LINE
  5
F3
100
AcDbEntity
  8
1
  6
DASHED
 62
     4
100
AcDbLine
 10
397.7181
 20
123.2115
 30
0.0
 11
410.6301
 21
124.3395
 31
0.0
  0
LINE
  5
F4
100
AcDbEntity
  8
1
  6
DASHED
 62
     4
100
AcDbLine
 10
442.8381
 20
125.0595
 30
0.0
 11
430.1901
 21
126.1635
 31
0.0
  0
LINE
  5
F5
100
AcDbEntity
  8
1
  6
DASHED
 62
     4
100
AcDbLine
 10
442.6941
 20
123.2355
 30
0.0
 11
429.4701
 21
124.3875
 31
0.0
  0
ARC
  5
F6
100
AcDbEntity
  8
1
  6
DASHED
 62
     4
100
AcDbCircle
 10
409.180783
 20
134.527175
 30
0.0
 40
8.4672
210
0.0
220
0.0
230
1.0
100
AcDbArc
 50
275.000406
 51
360.0
  0
ARC
  5
F7
100
AcDbEntity
  8
1
  6
DASHED
 62
     4
100
AcDbCircle
 10
409.785583
 20
133.972897
 30
0.0
 40
9.6768
210
0.0
220
0.0
230
1.0
100
AcDbArc
 50
275.000133
 51
0.0
  0
ARC
  5
F8
100
AcDbEntity
  8
1
  6
DASHED
 62
     4
100
AcDbCircle
 10
430.318543
 20
134.036382
 30
0.0
 40
9.6768
210
0.0
220
0.0
230
1.0
100
AcDbArc
 50
180.0
 51
264.999903
  0
ARC
  5
F9
100
AcDbEntity
  8
1
  6
DASHED
 62
     4
100
AcDbCircle
 10
430.923343
 20
134.59063
 30
0.0
 40
8.4672
210
0.0
220
0.0
230
1.0
100
AcDbArc
 50
180.0
 51
264.999903
  0
LINE
  5
FA
100
AcDbEntity
  8
1
  6
HIDDEN
 62
     4
100
AcDbLine
 10
419.4861
 20
131.6115
 30
0.0
 11
419.4861
 21
65.6355
 31
0.0
  0
LINE
  5
FB
100
AcDbEntity
  8
1
  6
HIDDEN
 62
     4
100
AcDbLine
 10
400.7421
 20
150.6675
 30
0.0
 11
401.9421
 21
150.6675
 31
0.0
  0
LINE
  5
FC
100
AcDbEntity
  8
1
  6
HIDDEN
 62
     4
100
AcDbLine
 10
438.2301
 20
150.6675
 30
0.0
 11
439.4541
 21
150.6675
 31
0.0
  0
ARC
  5
FD
100
AcDbEntity
  8
1
  6
DASHED
 62
     4
100
AcDbCircle
 10
415.253076
 20
94.655599
 30
0.0
 40
3.6288
210
0.0
220
0.0
230
1.0
100
AcDbArc
 50
180.0
 51
270.0
  0
ARC
  5
FE
100
AcDbEntity
  8
1
  6
DASHED
 62
     4
100
AcDbCircle
 10
424.325076
 20
94.655599
 30
0.0
 40
3.6288
210
0.0
220
0.0
230
1.0
100
AcDbArc
 50
270.0
 51
0.0
  0
ARC
  5
FF
100
AcDbEntity
  8
1
  6
DASHED
 62
     4
100
AcDbCircle
 10
416.462676
 20
95.865199
 30
0.0
 40
2.4192
210
0.0
220
0.0
230
1.0
100
AcDbArc
 50
180.0
 51
270.0
  0
ARC
  5
100
100
AcDbEntity
  8
1
  6
DASHED
 62
     4
100
AcDbCircle
 10
423.115476
 20
95.865199
 30
0.0
 40
2.4192
210
0.0
220
0.0
230
1.0
100
AcDbArc
 50
270.0
 51
0.0
  0
LINE
  5
101
100
AcDbEntity
  8
1
  6
DASHED
 62
     4
100
AcDbLine
 10
416.4621
 20
93.4515
 30
0.0
 11
417.5661
 21
93.4515
 31
0.0
  0
LINE
  5
102
100
AcDbEntity
  8
1
  6
DASHED
 62
     4
100
AcDbLine
 10
422.2221
 20
93.4515
 30
0.0
 11
423.1101
 21
93.4515
 31
0.0
  0
LINE
  5
103
100
AcDbEntity
  8
1
  6
DASHED
 62
     4
100
AcDbLine
 10
415.2621
 20
91.0275
 30
0.0
 11
417.5661
 21
91.0275
 31
0.0
  0
LINE
  5
104
100
AcDbEntity
  8
1
  6
DASHED
 62
     4
100
AcDbLine
 10
422.2221
 20
91.0275
 30
0.0
 11
424.3341
 21
91.0275
 31
0.0
  0
LINE
  5
105
100
AcDbEntity
  8
1
  6
DASHED
 62
     4
100
AcDbLine
 10
417.5661
 20
93.4515
 30
0.0
 11
417.5661
 21
91.0275
 31
0.0
  0
LINE
  5
106
100
AcDbEntity
  8
1
  6
DASHED
 62
     4
100
AcDbLine
 10
422.2221
 20
93.4515
 30
0.0
 11
422.2221
 21
91.0275
 31
0.0
  0
LINE
  5
107
100
AcDbEntity
  8
1
  6
CONTINUOUS
 62
     4
100
AcDbLine
 10
394.0701
 20
124.6995
 30
0.0
 11
397.6941
 21
125.0115
 31
0.0
  0
LINE
  5
108
100
AcDbEntity
  8
1
  6
CONTINUOUS
 62
     4
100
AcDbLine
 10
394.2381
 20
122.8995
 30
0.0
 11
397.7181
 21
123.1875
 31
0.0
  0
LINE
  5
109
100
AcDbEntity
  8
1
  6
CONTINUOUS
 62
     4
100
AcDbLine
 10
446.3181
 20
124.7475
 30
0.0
 11
442.6941
 21
125.0595
 31
0.0
  0
LINE
  5
10A
100
AcDbEntity
  8
1
  6
CONTINUOUS
 62
     4
100
AcDbLine
 10
446.1501
 20
122.9475
 30
0.0
 11
442.6941
 21
123.2355
 31
0.0
  0
ELLIPSE
  5
10B
100
AcDbEntity
  8
1
  6
CONTINUOUS
 62
     4
100
AcDbEllipse
 10
394.28166
 20
124.384375
 30
0.0
 11
-0.3589408117284428
 21
-0.2265112092740246
 31
0.0
210
0.0
220
0.0
230
1.0
 40
0.884789
 41
4.7123889803846897
 42
0.7457186361484069
  0
ARC
  5
10C
100
AcDbEntity
  8
1
  6
CONTINUOUS
 62
     4
100
AcDbCircle
 10
394.516349
 20
123.473177
 30
0.0
 40
0.64152
210
0.0
220
0.0
230
1.0
100
AcDbArc
 50
124.398842
 51
244.424081
  0
ELLIPSE
  5
10D
100
AcDbEntity
  8
1
  6
CONTINUOUS
 62
     4
100
AcDbEllipse
 10
393.878085
 20
123.424224
 30
0.0
 11
-0.58422683119193
 21
0.2650028027778597
 31
0.0
210
0.0
220
0.0
230
1.0
 40
0.984898
 41
2.6109211251232605
 42
4.7123117980466578
  0
ELLIPSE
  5
10E
100
AcDbEntity
  8
1
  6
CONTINUOUS
 62
     4
100
AcDbEllipse
 10
446.094929
 20
124.429735
 30
0.0
 11
-0.3589408117358139
 21
0.2265112092786761
 31
0.0
210
0.0
220
0.0
230
1.0
 40
0.884789
 41
2.3958740174413866
 42
4.7123889803846897
  0
ARC
  5
10F
100
AcDbEntity
  8
1
  6
CONTINUOUS
 62
     4
100
AcDbCircle
 10
445.86024
 20
123.518537
 30
0.0
 40
0.64152
210
0.0
220
0.0
230
1.0
100
AcDbArc
 50
295.575919
 51
55.601158
  0
ELLIPSE
  5
110
100
AcDbEntity
  8
1
  6
CONTINUOUS
 62
     4
100
AcDbEllipse
 10
446.498504
 20
123.469584
 30
0.0
 11
-0.5842268324651436
 21
-0.2650028033553841
 31
0.0
210
0.0
220
0.0
230
1.0
 40
0.984898
 41
4.7124661627227225
 42
0.5306715284665335
  0
LINE
  5
111
100
AcDbEntity
  8
1
  6
CONTINUOUS
 62
     4
100
AcDbLine
 10
411.6141
 20
161.2035
 30
0.0
 11
411.6141
 21
153.8835
 31
0.0
  0
LINE
  5
112
100
AcDbEntity
  8
1
  6
CONTINUOUS
 62
     4
100
AcDbLine
 10
414.0141
 20
161.2035
 30
0.0
 11
414.0141
 21
153.8835
 31
0.0
  0
LINE
  5
113
100
AcDbEntity
  8
1
  6
CONTINUOUS
 62
     4
100
AcDbLine
 10
425.5581
 20
161.2035
 30
0.0
 11
425.5581
 21
153.9315
 31
0.0
  0
LINE
  5
114
100
AcDbEntity
  8
1
  6
CONTINUOUS
 62
     4
100
AcDbLine
 10
427.9821
 20
161.2035
 30
0.0
 11
427.9821
 21
153.9315
 31
0.0
  0
LINE
  5
115
100
AcDbEntity
  8
1
  6
CONTINUOUS
 62
     4
100
AcDbLine
 10
417.6621
 20
162.3315
 30
0.0
 11
417.6621
 21
153.8595
 31
0.0
  0
LINE
  5
116
100
AcDbEntity
  8
1
  6
CONTINUOUS
 62
     4
100
AcDbLine
 10
419.4621
 20
162.3315
 30
0.0
 11
419.4621
 21
153.8595
 31
0.0
  0
LINE
  5
117
100
AcDbEntity
  8
1
  6
CONTINUOUS
 62
     4
100
AcDbLine
 10
420.6861
 20
162.3315
 30
0.0
 11
420.6861
 21
153.8595
 31
0.0
  0
LINE
  5
118
100
AcDbEntity
  8
1
  6
CONTINUOUS
 62
     4
100
AcDbLine
 10
422.4861
 20
162.3315
 30
0.0
 11
422.4861
 21
153.8595
 31
0.0
  0
LINE
  5
119
100
AcDbEntity
  8
1
  6
CONTINUOUS
 62
     4
100
AcDbLine
 10
417.6621
 20
162.3315
 30
0.0
 11
419.4621
 21
162.3315
 31
0.0
  0
LINE
  5
11A
100
AcDbEntity
  8
1
  6
CONTINUOUS
 62
     4
100
AcDbLine
 10
420.6861
 20
162.3315
 30
0.0
 11
422.4861
 21
162.3315
 31
0.0
  0
ARC
  5
11B
100
AcDbEntity
  8
1
  6
CONTINUOUS
 62
     4
100
AcDbCircle
 10
412.813212
 20
159.43384
 30
0.0
 40
2.13396
210
0.0
220
0.0
230
1.0
100
AcDbArc
 50
55.470286
 51
124.529711
  0
ARC
  5
11C
100
AcDbEntity
  8
1
  6
CONTINUOUS
 62
     4
100
AcDbCircle
 10
426.761614
 20
159.43384
 30
0.0
 40
2.13396
210
0.0
220
0.0
230
1.0
100
AcDbArc
 50
55.470286
 51
124.529711
  0
LINE
  5
11D
100
AcDbEntity
  8
1
  6
CONTINUOUS
 62
     4
100
AcDbLine
 10
382.7901
 20
123.7635
 30
0.0
 11
385.1901
 21
123.7635
 31
0.0
  0
LINE
  5
11E
100
AcDbEntity
  8
1
  6
CONTINUOUS
 62
     4
100
AcDbLine
 10
382.7901
 20
124.8675
 30
0.0
 11
385.1901
 21
124.8675
 31
0.0
  0
LINE
  5
11F
100
AcDbEntity
  8
1
  6
CONTINUOUS
 62
     4
100
AcDbLine
 10
382.7901
 20
124.8675
 30
0.0
 11
382.7901
 21
123.7635
 31
0.0
  0
LINE
  5
120
100
AcDbEntity
  8
1
  6
CONTINUOUS
 62
     4
100
AcDbLine
 10
385.1901
 20
124.8675
 30
0.0
 11
385.1901
 21
123.7635
 31
0.0
  0
LINE
  5
121
100
AcDbEntity
  8
1
  6
CONTINUOUS
 62
     4
100
AcDbLine
 10
382.8861
 20
124.8675
 30
0.0
 11
382.8861
 21
123.7635
 31
0.0
  0
LINE
  5
122
100
AcDbEntity
  8
1
  6
CONTINUOUS
 62
     4
100
AcDbLine
 10
382.9101
 20
124.8675
 30
0.0
 11
382.9101
 21
123.7635
 31
0.0
  0
LINE
  5
123
100
AcDbEntity
  8
1
  6
CONTINUOUS
 62
     4
100
AcDbLine
 10
382.9821
 20
124.8675
 30
0.0
 11
382.9821
 21
123.7635
 31
0.0
  0
LINE
  5
124
100
AcDbEntity
  8
1
  6
CONTINUOUS
 62
     4
100
AcDbLine
 10
382.8621
 20
124.8675
 30
0.0
 11
382.8621
 21
123.7635
 31
0.0
  0
LINE
  5
125
100
AcDbEntity
  8
1
  6
CONTINUOUS
 62
     4
100
AcDbLine
 10
382.8381
 20
124.8675
 30
0.0
 11
382.8381
 21
123.7635
 31
0.0
  0
LINE
  5
126
100
AcDbEntity
  8
1
  6
CONTINUOUS
 62
     4
100
AcDbLine
 10
382.8381
 20
124.8675
 30
0.0
 11
382.8381
 21
123.7635
 31
0.0
  0
LINE
  5
127
100
AcDbEntity
  8
1
  6
CONTINUOUS
 62
     4
100
AcDbLine
 10
383.0301
 20
124.8675
 30
0.0
 11
383.0301
 21
123.7635
 31
0.0
  0
LINE
  5
128
100
AcDbEntity
  8
1
  6
CONTINUOUS
 62
     4
100
AcDbLine
 10
383.0781
 20
124.8675
 30
0.0
 11
383.0781
 21
123.7635
 31
0.0
  0
LINE
  5
129
100
AcDbEntity
  8
1
  6
CONTINUOUS
 62
     4
100
AcDbLine
 10
383.1021
 20
124.8675
 30
0.0
 11
383.1021
 21
123.7635
 31
0.0
  0
LINE
  5
12A
100
AcDbEntity
  8
1
  6
CONTINUOUS
 62
     4
100
AcDbLine
 10
383.1501
 20
124.8675
 30
0.0
 11
383.1501
 21
123.7635
 31
0.0
  0
LINE
  5
12B
100
AcDbEntity
  8
1
  6
CONTINUOUS
 62
     4
100
AcDbLine
 10
383.2461
 20
124.8675
 30
0.0
 11
383.2461
 21
123.7635
 31
0.0
  0
LINE
  5
12C
100
AcDbEntity
  8
1
  6
CONTINUOUS
 62
     4
100
AcDbLine
 10
383.2461
 20
124.8675
 30
0.0
 11
383.2461
 21
123.7635
 31
0.0
  0
LINE
  5
12D
100
AcDbEntity
  8
1
  6
CONTINUOUS
 62
     4
100
AcDbLine
 10
383.2701
 20
124.8675
 30
0.0
 11
383.2701
 21
123.7635
 31
0.0
  0
LINE
  5
12E
100
AcDbEntity
  8
1
  6
CONTINUOUS
 62
     4
100
AcDbLine
 10
383.1981
 20
124.8675
 30
0.0
 11
383.1981
 21
123.7635
 31
0.0
  0
LINE
  5
12F
100
AcDbEntity
  8
1
  6
CONTINUOUS
 62
     4
100
AcDbLine
 10
383.1741
 20
124.8675
 30
0.0
 11
383.1741
 21
123.7635
 31
0.0
  0
LINE
  5
130
100
AcDbEntity
  8
1
  6
CONTINUOUS
 62
     4
100
AcDbLine
 10
383.2461
 20
124.8675
 30
0.0
 11
383.2461
 21
123.7635
 31
0.0
  0
LINE
  5
131
100
AcDbEntity
  8
1
  6
CONTINUOUS
 62
     4
100
AcDbLine
 10
383.2941
 20
124.8675
 30
0.0
 11
383.2941
 21
123.7635
 31
0.0
  0
LINE
  5
132
100
AcDbEntity
  8
1
  6
CONTINUOUS
 62
     4
100
AcDbLine
 10
383.3661
 20
124.8675
 30
0.0
 11
383.3661
 21
123.7635
 31
0.0
  0
LINE
  5
133
100
AcDbEntity
  8
1
  6
CONTINUOUS
 62
     4
100
AcDbLine
 10
383.3661
 20
124.8675
 30
0.0
 11
383.3661
 21
123.7635
 31
0.0
  0
LINE
  5
134
100
AcDbEntity
  8
1
  6
CONTINUOUS
 62
     4
100
AcDbLine
 10
383.3661
 20
124.8675
 30
0.0
 11
383.3661
 21
123.7635
 31
0.0
  0
LINE
  5
135
100
AcDbEntity
  8
1
  6
CONTINUOUS
 62
     4
100
AcDbLine
 10
383.3181
 20
124.8675
 30
0.0
 11
383.3181
 21
123.7635
 31
0.0
  0
LINE
  5
136
100
AcDbEntity
  8
1
  6
CONTINUOUS
 62
     4
100
AcDbLine
 10
383.4381
 20
124.8675
 30
0.0
 11
383.4381
 21
123.7635
 31
0.0
  0
LINE
  5
137
100
AcDbEntity
  8
1
  6
CONTINUOUS
 62
     4
100
AcDbLine
 10
383.4861
 20
124.8675
 30
0.0
 11
383.4861
 21
123.7635
 31
0.0
  0
LINE
  5
138
100
AcDbEntity
  8
1
  6
CONTINUOUS
 62
     4
100
AcDbLine
 10
383.4861
 20
124.8675
 30
0.0
 11
383.4861
 21
123.7635
 31
0.0
  0
LINE
  5
139
100
AcDbEntity
  8
1
  6
CONTINUOUS
 62
     4
100
AcDbLine
 10
383.4381
 20
124.8675
 30
0.0
 11
383.4381
 21
123.7635
 31
0.0
  0
LINE
  5
13A
100
AcDbEntity
  8
1
  6
CONTINUOUS
 62
     4
100
AcDbLine
 10
383.4141
 20
124.8675
 30
0.0
 11
383.4141
 21
123.7635
 31
0.0
  0
LINE
  5
13B
100
AcDbEntity
  8
1
  6
CONTINUOUS
 62
     4
100
AcDbLine
 10
383.3181
 20
124.8675
 30
0.0
 11
383.3181
 21
123.7635
 31
0.0
  0
LINE
  5
13C
100
AcDbEntity
  8
1
  6
CONTINUOUS
 62
     4
100
AcDbLine
 10
383.5101
 20
124.8675
 30
0.0
 11
383.5101
 21
123.7635
 31
0.0
  0
LINE
  5
13D
100
AcDbEntity
  8
1
  6
CONTINUOUS
 62
     4
100
AcDbLine
 10
383.5821
 20
124.8675
 30
0.0
 11
383.5821
 21
123.7635
 31
0.0
  0
LINE
  5
13E
100
AcDbEntity
  8
1
  6
CONTINUOUS
 62
     4
100
AcDbLine
 10
383.6061
 20
124.8675
 30
0.0
 11
383.6061
 21
123.7635
 31
0.0
  0
LINE
  5
13F
100
AcDbEntity
  8
1
  6
CONTINUOUS
 62
     4
100
AcDbLine
 10
383.6301
 20
124.8675
 30
0.0
 11
383.6301
 21
123.7635
 31
0.0
  0
LINE
  5
140
100
AcDbEntity
  8
1
  6
CONTINUOUS
 62
     4
100
AcDbLine
 10
383.5581
 20
124.8675
 30
0.0
 11
383.5581
 21
123.7635
 31
0.0
  0
LINE
  5
141
100
AcDbEntity
  8
1
  6
CONTINUOUS
 62
     4
100
AcDbLine
 10
383.5581
 20
124.8675
 30
0.0
 11
383.5581
 21
123.7635
 31
0.0
  0
LINE
  5
142
100
AcDbEntity
  8
1
  6
CONTINUOUS
 62
     4
100
AcDbLine
 10
383.6781
 20
124.8675
 30
0.0
 11
383.6781
 21
123.7635
 31
0.0
  0
LINE
  5
143
100
AcDbEntity
  8
1
  6
CONTINUOUS
 62
     4
100
AcDbLine
 10
383.6781
 20
124.8675
 30
0.0
 11
383.6781
 21
123.7635
 31
0.0
  0
LINE
  5
144
100
AcDbEntity
  8
1
  6
CONTINUOUS
 62
     4
100
AcDbLine
 10
383.7261
 20
124.8675
 30
0.0
 11
383.7261
 21
123.7635
 31
0.0
  0
LINE
  5
145
100
AcDbEntity
  8
1
  6
CONTINUOUS
 62
     4
100
AcDbLine
 10
383.7501
 20
124.8675
 30
0.0
 11
383.7501
 21
123.7635
 31
0.0
  0
LINE
  5
146
100
AcDbEntity
  8
1
  6
CONTINUOUS
 62
     4
100
AcDbLine
 10
383.7741
 20
124.8675
 30
0.0
 11
383.7741
 21
123.7635
 31
0.0
  0
LINE
  5
147
100
AcDbEntity
  8
1
  6
CONTINUOUS
 62
     4
100
AcDbLine
 10
383.7741
 20
124.8675
 30
0.0
 11
383.7741
 21
123.7635
 31
0.0
  0
LINE
  5
148
100
AcDbEntity
  8
1
  6
CONTINUOUS
 62
     4
100
AcDbLine
 10
383.7981
 20
124.8675
 30
0.0
 11
383.7981
 21
123.7635
 31
0.0
  0
LINE
  5
149
100
AcDbEntity
  8
1
  6
CONTINUOUS
 62
     4
100
AcDbLine
 10
383.8221
 20
124.8675
 30
0.0
 11
383.8221
 21
123.7635
 31
0.0
  0
LINE
  5
14A
100
AcDbEntity
  8
1
  6
CONTINUOUS
 62
     4
100
AcDbLine
 10
383.8461
 20
124.8675
 30
0.0
 11
383.8461
 21
123.7635
 31
0.0
  0
LINE
  5
14B
100
AcDbEntity
  8
1
  6
CONTINUOUS
 62
     4
100
AcDbLine
 10
383.8701
 20
124.8675
 30
0.0
 11
383.8701
 21
123.7635
 31
0.0
  0
LINE
  5
14C
100
AcDbEntity
  8
1
  6
CONTINUOUS
 62
     4
100
AcDbLine
 10
383.8701
 20
124.8675
 30
0.0
 11
383.8701
 21
123.7635
 31
0.0
  0
LINE
  5
14D
100
AcDbEntity
  8
1
  6
CONTINUOUS
 62
     4
100
AcDbLine
 10
383.8701
 20
124.8675
 30
0.0
 11
383.8701
 21
123.7635
 31
0.0
  0
LINE
  5
14E
100
AcDbEntity
  8
1
  6
CONTINUOUS
 62
     4
100
AcDbLine
 10
383.8941
 20
124.8675
 30
0.0
 11
383.8941
 21
123.7635
 31
0.0
  0
LINE
  5
14F
100
AcDbEntity
  8
1
  6
CONTINUOUS
 62
     4
100
AcDbLine
 10
383.8941
 20
124.8675
 30
0.0
 11
383.8941
 21
123.7635
 31
0.0
  0
LINE
  5
150
100
AcDbEntity
  8
1
  6
CONTINUOUS
 62
     4
100
AcDbLine
 10
383.8941
 20
124.8675
 30
0.0
 11
383.8941
 21
123.7635
 31
0.0
  0
LINE
  5
151
100
AcDbEntity
  8
1
  6
CONTINUOUS
 62
     4
100
AcDbLine
 10
383.9421
 20
124.8675
 30
0.0
 11
383.9421
 21
123.7635
 31
0.0
  0
LINE
  5
152
100
AcDbEntity
  8
1
  6
CONTINUOUS
 62
     4
100
AcDbLine
 10
383.9421
 20
124.8675
 30
0.0
 11
383.9421
 21
123.7635
 31
0.0
  0
LINE
  5
153
100
AcDbEntity
  8
1
  6
CONTINUOUS
 62
     4
100
AcDbLine
 10
383.9661
 20
124.8675
 30
0.0
 11
383.9661
 21
123.7635
 31
0.0
  0
LINE
  5
154
100
AcDbEntity
  8
1
  6
CONTINUOUS
 62
     4
100
AcDbLine
 10
383.9661
 20
124.8675
 30
0.0
 11
383.9661
 21
123.7635
 31
0.0
  0
LINE
  5
155
100
AcDbEntity
  8
1
  6
CONTINUOUS
 62
     4
100
AcDbLine
 10
383.9901
 20
124.8675
 30
0.0
 11
383.9901
 21
123.7635
 31
0.0
  0
LINE
  5
156
100
AcDbEntity
  8
1
  6
CONTINUOUS
 62
     4
100
AcDbLine
 10
384.0141
 20
124.8675
 30
0.0
 11
384.0141
 21
123.7635
 31
0.0
  0
LINE
  5
157
100
AcDbEntity
  8
1
  6
CONTINUOUS
 62
     4
100
AcDbLine
 10
384.0621
 20
124.8675
 30
0.0
 11
384.0621
 21
123.7635
 31
0.0
  0
LINE
  5
158
100
AcDbEntity
  8
1
  6
CONTINUOUS
 62
     4
100
AcDbLine
 10
384.0621
 20
124.8675
 30
0.0
 11
384.0621
 21
123.7635
 31
0.0
  0
LINE
  5
159
100
AcDbEntity
  8
1
  6
CONTINUOUS
 62
     4
100
AcDbLine
 10
384.0621
 20
124.8675
 30
0.0
 11
384.0621
 21
123.7635
 31
0.0
  0
LINE
  5
15A
100
AcDbEntity
  8
1
  6
CONTINUOUS
 62
     4
100
AcDbLine
 10
384.0861
 20
124.8675
 30
0.0
 11
384.0861
 21
123.7635
 31
0.0
  0
LINE
  5
15B
100
AcDbEntity
  8
1
  6
CONTINUOUS
 62
     4
100
AcDbLine
 10
384.1101
 20
124.8675
 30
0.0
 11
384.1101
 21
123.7635
 31
0.0
  0
LINE
  5
15C
100
AcDbEntity
  8
1
  6
CONTINUOUS
 62
     4
100
AcDbLine
 10
384.1341
 20
124.8675
 30
0.0
 11
384.1341
 21
123.7635
 31
0.0
  0
LINE
  5
15D
100
AcDbEntity
  8
1
  6
CONTINUOUS
 62
     4
100
AcDbLine
 10
384.1341
 20
124.8675
 30
0.0
 11
384.1341
 21
123.7635
 31
0.0
  0
LINE
  5
15E
100
AcDbEntity
  8
1
  6
CONTINUOUS
 62
     4
100
AcDbLine
 10
384.1581
 20
124.8675
 30
0.0
 11
384.1581
 21
123.7635
 31
0.0
  0
LINE
  5
15F
100
AcDbEntity
  8
1
  6
CONTINUOUS
 62
     4
100
AcDbLine
 10
384.1581
 20
124.8675
 30
0.0
 11
384.1581
 21
123.7635
 31
0.0
  0
LINE
  5
160
100
AcDbEntity
  8
1
  6
CONTINUOUS
 62
     4
100
AcDbLine
 10
384.2061
 20
124.8675
 30
0.0
 11
384.2061
 21
123.7635
 31
0.0
  0
LINE
  5
161
100
AcDbEntity
  8
1
  6
CONTINUOUS
 62
     4
100
AcDbLine
 10
384.2301
 20
124.8675
 30
0.0
 11
384.2301
 21
123.7635
 31
0.0
  0
LINE
  5
162
100
AcDbEntity
  8
1
  6
CONTINUOUS
 62
     4
100
AcDbLine
 10
384.2301
 20
124.8675
 30
0.0
 11
384.2301
 21
123.7635
 31
0.0
  0
LINE
  5
163
100
AcDbEntity
  8
1
  6
CONTINUOUS
 62
     4
100
AcDbLine
 10
384.2541
 20
124.8675
 30
0.0
 11
384.2541
 21
123.7635
 31
0.0
  0
LINE
  5
164
100
AcDbEntity
  8
1
  6
CONTINUOUS
 62
     4
100
AcDbLine
 10
384.3021
 20
124.8675
 30
0.0
 11
384.3021
 21
123.7635
 31
0.0
  0
LINE
  5
165
100
AcDbEntity
  8
1
  6
CONTINUOUS
 62
     4
100
AcDbLine
 10
384.3021
 20
124.8675
 30
0.0
 11
384.3021
 21
123.7635
 31
0.0
  0
LINE
  5
166
100
AcDbEntity
  8
1
  6
CONTINUOUS
 62
     4
100
AcDbLine
 10
384.3021
 20
124.8675
 30
0.0
 11
384.3021
 21
123.7635
 31
0.0
  0
LINE
  5
167
100
AcDbEntity
  8
1
  6
CONTINUOUS
 62
     4
100
AcDbLine
 10
384.3261
 20
124.8675
 30
0.0
 11
384.3261
 21
123.7635
 31
0.0
  0
LINE
  5
168
100
AcDbEntity
  8
1
  6
CONTINUOUS
 62
     4
100
AcDbLine
 10
384.3261
 20
124.8675
 30
0.0
 11
384.3261
 21
123.7635
 31
0.0
  0
LINE
  5
169
100
AcDbEntity
  8
1
  6
CONTINUOUS
 62
     4
100
AcDbLine
 10
384.3501
 20
124.8675
 30
0.0
 11
384.3501
 21
123.7635
 31
0.0
  0
LINE
  5
16A
100
AcDbEntity
  8
1
  6
CONTINUOUS
 62
     4
100
AcDbLine
 10
384.3501
 20
124.8675
 30
0.0
 11
384.3501
 21
123.7635
 31
0.0
  0
LINE
  5
16B
100
AcDbEntity
  8
1
  6
CONTINUOUS
 62
     4
100
AcDbLine
 10
384.3741
 20
124.8675
 30
0.0
 11
384.3741
 21
123.7635
 31
0.0
  0
LINE
  5
16C
100
AcDbEntity
  8
1
  6
CONTINUOUS
 62
     4
100
AcDbLine
 10
384.3981
 20
124.8675
 30
0.0
 11
384.3981
 21
123.7635
 31
0.0
  0
LINE
  5
16D
100
AcDbEntity
  8
1
  6
CONTINUOUS
 62
     4
100
AcDbLine
 10
384.3981
 20
124.8675
 30
0.0
 11
384.3981
 21
123.7635
 31
0.0
  0
LINE
  5
16E
100
AcDbEntity
  8
1
  6
CONTINUOUS
 62
     4
100
AcDbLine
 10
384.3981
 20
124.8675
 30
0.0
 11
384.3981
 21
123.7635
 31
0.0
  0
LINE
  5
16F
100
AcDbEntity
  8
1
  6
CONTINUOUS
 62
     4
100
AcDbLine
 10
384.4221
 20
124.8675
 30
0.0
 11
384.4221
 21
123.7635
 31
0.0
  0
LINE
  5
170
100
AcDbEntity
  8
1
  6
CONTINUOUS
 62
     4
100
AcDbLine
 10
384.4461
 20
124.8675
 30
0.0
 11
384.4461
 21
123.7635
 31
0.0
  0
LINE
  5
171
100
AcDbEntity
  8
1
  6
CONTINUOUS
 62
     4
100
AcDbLine
 10
384.4701
 20
124.8675
 30
0.0
 11
384.4701
 21
123.7635
 31
0.0
  0
LINE
  5
172
100
AcDbEntity
  8
1
  6
CONTINUOUS
 62
     4
100
AcDbLine
 10
384.4941
 20
124.8675
 30
0.0
 11
384.4941
 21
123.7635
 31
0.0
  0
LINE
  5
173
100
AcDbEntity
  8
1
  6
CONTINUOUS
 62
     4
100
AcDbLine
 10
384.4941
 20
124.8675
 30
0.0
 11
384.4941
 21
123.7635
 31
0.0
  0
LINE
  5
174
100
AcDbEntity
  8
1
  6
CONTINUOUS
 62
     4
100
AcDbLine
 10
384.4941
 20
124.8675
 30
0.0
 11
384.4941
 21
123.7635
 31
0.0
  0
LINE
  5
175
100
AcDbEntity
  8
1
  6
CONTINUOUS
 62
     4
100
AcDbLine
 10
384.5421
 20
124.8675
 30
0.0
 11
384.5421
 21
123.7635
 31
0.0
  0
LINE
  5
176
100
AcDbEntity
  8
1
  6
CONTINUOUS
 62
     4
100
AcDbLine
 10
384.5661
 20
124.8675
 30
0.0
 11
384.5661
 21
123.7635
 31
0.0
  0
LINE
  5
177
100
AcDbEntity
  8
1
  6
CONTINUOUS
 62
     4
100
AcDbLine
 10
384.5901
 20
124.8675
 30
0.0
 11
384.5901
 21
123.7635
 31
0.0
  0
LINE
  5
178
100
AcDbEntity
  8
1
  6
CONTINUOUS
 62
     4
100
AcDbLine
 10
384.5901
 20
124.8675
 30
0.0
 11
384.5901
 21
123.7635
 31
0.0
  0
LINE
  5
179
100
AcDbEntity
  8
1
  6
CONTINUOUS
 62
     4
100
AcDbLine
 10
384.6141
 20
124.8675
 30
0.0
 11
384.6141
 21
123.7635
 31
0.0
  0
LINE
  5
17A
100
AcDbEntity
  8
1
  6
CONTINUOUS
 62
     4
100
AcDbLine
 10
384.6381
 20
124.8675
 30
0.0
 11
384.6381
 21
123.7635
 31
0.0
  0
LINE
  5
17B
100
AcDbEntity
  8
1
  6
CONTINUOUS
 62
     4
100
AcDbLine
 10
384.6381
 20
124.8675
 30
0.0
 11
384.6381
 21
123.7635
 31
0.0
  0
LINE
  5
17C
100
AcDbEntity
  8
1
  6
CONTINUOUS
 62
     4
100
AcDbLine
 10
384.6861
 20
124.8675
 30
0.0
 11
384.6861
 21
123.7635
 31
0.0
  0
LINE
  5
17D
100
AcDbEntity
  8
1
  6
CONTINUOUS
 62
     4
100
AcDbLine
 10
384.7101
 20
124.8675
 30
0.0
 11
384.7101
 21
123.7635
 31
0.0
  0
LINE
  5
17E
100
AcDbEntity
  8
1
  6
CONTINUOUS
 62
     4
100
AcDbLine
 10
384.7341
 20
124.8675
 30
0.0
 11
384.7341
 21
123.7635
 31
0.0
  0
LINE
  5
17F
100
AcDbEntity
  8
1
  6
CONTINUOUS
 62
     4
100
AcDbLine
 10
384.7341
 20
124.8675
 30
0.0
 11
384.7341
 21
123.7635
 31
0.0
  0
LINE
  5
180
100
AcDbEntity
  8
1
  6
CONTINUOUS
 62
     4
100
AcDbLine
 10
384.7341
 20
124.8675
 30
0.0
 11
384.7341
 21
123.7635
 31
0.0
  0
LINE
  5
181
100
AcDbEntity
  8
1
  6
CONTINUOUS
 62
     4
100
AcDbLine
 10
384.7341
 20
124.8675
 30
0.0
 11
384.7341
 21
123.7635
 31
0.0
  0
LINE
  5
182
100
AcDbEntity
  8
1
  6
CONTINUOUS
 62
     4
100
AcDbLine
 10
384.7821
 20
124.8675
 30
0.0
 11
384.7821
 21
123.7635
 31
0.0
  0
LINE
  5
183
100
AcDbEntity
  8
1
  6
CONTINUOUS
 62
     4
100
AcDbLine
 10
384.7821
 20
124.8675
 30
0.0
 11
384.7821
 21
123.7635
 31
0.0
  0
LINE
  5
184
100
AcDbEntity
  8
1
  6
CONTINUOUS
 62
     4
100
AcDbLine
 10
384.8061
 20
124.8675
 30
0.0
 11
384.8061
 21
123.7635
 31
0.0
  0
LINE
  5
185
100
AcDbEntity
  8
1
  6
CONTINUOUS
 62
     4
100
AcDbLine
 10
384.7821
 20
124.8675
 30
0.0
 11
384.7821
 21
123.7635
 31
0.0
  0
LINE
  5
186
100
AcDbEntity
  8
1
  6
CONTINUOUS
 62
     4
100
AcDbLine
 10
384.8301
 20
124.8675
 30
0.0
 11
384.8301
 21
123.7635
 31
0.0
  0
LINE
  5
187
100
AcDbEntity
  8
1
  6
CONTINUOUS
 62
     4
100
AcDbLine
 10
384.8301
 20
124.8675
 30
0.0
 11
384.8301
 21
123.7635
 31
0.0
  0
LINE
  5
188
100
AcDbEntity
  8
1
  6
CONTINUOUS
 62
     4
100
AcDbLine
 10
384.8541
 20
124.8675
 30
0.0
 11
384.8541
 21
123.7635
 31
0.0
  0
LINE
  5
189
100
AcDbEntity
  8
1
  6
CONTINUOUS
 62
     4
100
AcDbLine
 10
384.8781
 20
124.8675
 30
0.0
 11
384.8781
 21
123.7635
 31
0.0
  0
LINE
  5
18A
100
AcDbEntity
  8
1
  6
CONTINUOUS
 62
     4
100
AcDbLine
 10
384.9021
 20
124.8675
 30
0.0
 11
384.9021
 21
123.7635
 31
0.0
  0
LINE
  5
18B
100
AcDbEntity
  8
1
  6
CONTINUOUS
 62
     4
100
AcDbLine
 10
384.9021
 20
124.8675
 30
0.0
 11
384.9021
 21
123.7635
 31
0.0
  0
LINE
  5
18C
100
AcDbEntity
  8
1
  6
CONTINUOUS
 62
     4
100
AcDbLine
 10
384.9021
 20
124.8675
 30
0.0
 11
384.9021
 21
123.7635
 31
0.0
  0
LINE
  5
18D
100
AcDbEntity
  8
1
  6
CONTINUOUS
 62
     4
100
AcDbLine
 10
384.9741
 20
124.8675
 30
0.0
 11
384.9741
 21
123.7635
 31
0.0
  0
LINE
  5
18E
100
AcDbEntity
  8
1
  6
CONTINUOUS
 62
     4
100
AcDbLine
 10
384.9741
 20
124.8675
 30
0.0
 11
384.9741
 21
123.7635
 31
0.0
  0
LINE
  5
18F
100
AcDbEntity
  8
1
  6
CONTINUOUS
 62
     4
100
AcDbLine
 10
384.9741
 20
124.8675
 30
0.0
 11
384.9741
 21
123.7635
 31
0.0
  0
LINE
  5
190
100
AcDbEntity
  8
1
  6
CONTINUOUS
 62
     4
100
AcDbLine
 10
384.9741
 20
124.8675
 30
0.0
 11
384.9741
 21
123.7635
 31
0.0
  0
LINE
  5
191
100
AcDbEntity
  8
1
  6
CONTINUOUS
 62
     4
100
AcDbLine
 10
384.9501
 20
124.8675
 30
0.0
 11
384.9501
 21
123.7635
 31
0.0
  0
LINE
  5
192
100
AcDbEntity
  8
1
  6
CONTINUOUS
 62
     4
100
AcDbLine
 10
384.9021
 20
124.8675
 30
0.0
 11
384.9021
 21
123.7635
 31
0.0
  0
LINE
  5
193
100
AcDbEntity
  8
1
  6
CONTINUOUS
 62
     4
100
AcDbLine
 10
385.0221
 20
124.8675
 30
0.0
 11
385.0221
 21
123.7635
 31
0.0
  0
LINE
  5
194
100
AcDbEntity
  8
1
  6
CONTINUOUS
 62
     4
100
AcDbLine
 10
385.0221
 20
124.8675
 30
0.0
 11
385.0221
 21
123.7635
 31
0.0
  0
LINE
  5
195
100
AcDbEntity
  8
1
  6
CONTINUOUS
 62
     4
100
AcDbLine
 10
385.0221
 20
124.8675
 30
0.0
 11
385.0221
 21
123.7635
 31
0.0
  0
LINE
  5
196
100
AcDbEntity
  8
1
  6
CONTINUOUS
 62
     4
100
AcDbLine
 10
385.0461
 20
124.8675
 30
0.0
 11
385.0461
 21
123.7635
 31
0.0
  0
LINE
  5
197
100
AcDbEntity
  8
1
  6
CONTINUOUS
 62
     4
100
AcDbLine
 10
385.0461
 20
124.8675
 30
0.0
 11
385.0461
 21
123.7635
 31
0.0
  0
LINE
  5
198
100
AcDbEntity
  8
1
  6
CONTINUOUS
 62
     4
100
AcDbLine
 10
385.0461
 20
124.8675
 30
0.0
 11
385.0461
 21
123.7635
 31
0.0
  0
LINE
  5
199
100
AcDbEntity
  8
1
  6
CONTINUOUS
 62
     4
100
AcDbLine
 10
385.0701
 20
124.8675
 30
0.0
 11
385.0701
 21
123.7635
 31
0.0
  0
LINE
  5
19A
100
AcDbEntity
  8
1
  6
CONTINUOUS
 62
     4
100
AcDbLine
 10
385.0701
 20
124.8675
 30
0.0
 11
385.0701
 21
123.7635
 31
0.0
  0
LINE
  5
19B
100
AcDbEntity
  8
1
  6
CONTINUOUS
 62
     4
100
AcDbLine
 10
385.1181
 20
124.8675
 30
0.0
 11
385.1181
 21
123.7635
 31
0.0
  0
LINE
  5
19C
100
AcDbEntity
  8
1
  6
CONTINUOUS
 62
     4
100
AcDbLine
 10
385.1181
 20
124.8675
 30
0.0
 11
385.1181
 21
123.7635
 31
0.0
  0
LINE
  5
19D
100
AcDbEntity
  8
1
  6
CONTINUOUS
 62
     4
100
AcDbLine
 10
385.1181
 20
124.8675
 30
0.0
 11
385.1181
 21
123.7635
 31
0.0
  0
LINE
  5
19E
100
AcDbEntity
  8
1
  6
CONTINUOUS
 62
     4
100
AcDbLine
 10
385.1421
 20
124.8675
 30
0.0
 11
385.1421
 21
123.7635
 31
0.0
  0
LINE
  5
19F
100
AcDbEntity
  8
1
  6
CONTINUOUS
 62
     4
100
AcDbLine
 10
385.1421
 20
124.8675
 30
0.0
 11
385.1421
 21
123.7635
 31
0.0
  0
LINE
  5
1A0
100
AcDbEntity
  8
1
  6
CONTINUOUS
 62
     4
100
AcDbLine
 10
385.1661
 20
124.8675
 30
0.0
 11
385.1661
 21
123.7635
 31
0.0
  0
LINE
  5
1A1
100
AcDbEntity
  8
1
  6
CONTINUOUS
 62
     4
100
AcDbLine
 10
385.1661
 20
124.8675
 30
0.0
 11
385.1661
 21
123.7635
 31
0.0
  0
LINE
  5
1A2
100
AcDbEntity
  8
1
  6
CONTINUOUS
 62
     4
100
AcDbLine
 10
385.1901
 20
124.8675
 30
0.0
 11
385.1901
 21
123.7635
 31
0.0
  0
ARC
  5
1A3
100
AcDbEntity
  8
1
  6
CONTINUOUS
 62
     4
100
AcDbCircle
 10
384.076048
 20
52.792016
 30
0.0
 40
0.671542
210
0.0
220
0.0
230
1.0
100
AcDbArc
 50
191.118106
 51
254.886
  0
ARC
  5
1A4
100
AcDbEntity
  8
1
  6
CONTINUOUS
 62
     4
100
AcDbCircle
 10
383.726456
 20
52.791915
 30
0.0
 40
0.671542
210
0.0
220
0.0
230
1.0
100
AcDbArc
 50
285.114
 51
348.881894
  0
LINE
  5
1A5
100
AcDbEntity
  8
1
  6
CONTINUOUS
 62
     4
100
AcDbLine
 10
383.8941
 20
52.1475
 30
0.0
 11
383.8941
 21
52.0275
 31
0.0
  0
LINE
  5
1A6
100
AcDbEntity
  8
1
  6
CONTINUOUS
 62
     4
100
AcDbLine
 10
411.6141
 20
161.2035
 30
0.0
 11
414.0141
 21
161.2035
 31
0.0
  0
LINE
  5
1A7
100
AcDbEntity
  8
1
  6
CONTINUOUS
 62
     4
100
AcDbLine
 10
411.6141
 20
158.7795
 30
0.0
 11
414.0141
 21
158.7795
 31
0.0
  0
LINE
  5
1A8
100
AcDbEntity
  8
1
  6
CONTINUOUS
 62
     4
100
AcDbLine
 10
411.6141
 20
156.3555
 30
0.0
 11
414.0141
 21
156.3555
 31
0.0
  0
LINE
  5
1A9
100
AcDbEntity
  8
1
  6
CONTINUOUS
 62
     4
100
AcDbLine
 10
411.6141
 20
159.9795
 30
0.0
 11
414.0141
 21
159.9795
 31
0.0
  0
LINE
  5
1AA
100
AcDbEntity
  8
1
  6
CONTINUOUS
 62
     4
100
AcDbLine
 10
411.6141
 20
157.5555
 30
0.0
 11
414.0141
 21
157.5555
 31
0.0
  0
LINE
  5
1AB
100
AcDbEntity
  8
1
  6
CONTINUOUS
 62
     4
100
AcDbLine
 10
411.6141
 20
155.1555
 30
0.0
 11
414.0141
 21
155.1555
 31
0.0
  0
LINE
  5
1AC
100
AcDbEntity
  8
1
  6
CONTINUOUS
 62
     4
100
AcDbLine
 10
412.2621
 20
160.6035
 30
0.0
 11
413.4621
 21
160.6035
 31
0.0
  0
LINE
  5
1AD
100
AcDbEntity
  8
1
  6
CONTINUOUS
 62
     4
100
AcDbLine
 10
412.1661
 20
159.4275
 30
0.0
 11
413.3661
 21
159.4275
 31
0.0
  0
LINE
  5
1AE
100
AcDbEntity
  8
1
  6
CONTINUOUS
 62
     4
100
AcDbLine
 10
412.1901
 20
158.2275
 30
0.0
 11
413.3901
 21
158.2275
 31
0.0
  0
LINE
  5
1AF
100
AcDbEntity
  8
1
  6
CONTINUOUS
 62
     4
100
AcDbLine
 10
412.1421
 20
157.0515
 30
0.0
 11
413.3421
 21
157.0515
 31
0.0
  0
LINE
  5
1B0
100
AcDbEntity
  8
1
  6
CONTINUOUS
 62
     4
100
AcDbLine
 10
412.1661
 20
155.8035
 30
0.0
 11
413.3661
 21
155.8035
 31
0.0
  0
LINE
  5
1B1
100
AcDbEntity
  8
1
  6
CONTINUOUS
 62
     4
100
AcDbLine
 10
412.1661
 20
154.6035
 30
0.0
 11
413.3661
 21
154.6035
 31
0.0
  0
LINE
  5
1B2
100
AcDbEntity
  8
1
  6
CONTINUOUS
 62
     4
100
AcDbLine
 10
425.5581
 20
161.2035
 30
0.0
 11
427.9821
 21
161.2035
 31
0.0
  0
LINE
  5
1B3
100
AcDbEntity
  8
1
  6
CONTINUOUS
 62
     4
100
AcDbLine
 10
425.5581
 20
159.9795
 30
0.0
 11
427.9821
 21
159.9795
 31
0.0
  0
LINE
  5
1B4
100
AcDbEntity
  8
1
  6
CONTINUOUS
 62
     4
100
AcDbLine
 10
425.5581
 20
158.7795
 30
0.0
 11
427.9821
 21
158.7795
 31
0.0
  0
LINE
  5
1B5
100
AcDbEntity
  8
1
  6
CONTINUOUS
 62
     4
100
AcDbLine
 10
425.5581
 20
157.5555
 30
0.0
 11
427.9821
 21
157.5555
 31
0.0
  0
LINE
  5
1B6
100
AcDbEntity
  8
1
  6
CONTINUOUS
 62
     4
100
AcDbLine
 10
425.5581
 20
156.3555
 30
0.0
 11
427.9821
 21
156.3555
 31
0.0
  0
LINE
  5
1B7
100
AcDbEntity
  8
1
  6
CONTINUOUS
 62
     4
100
AcDbLine
 10
425.5581
 20
155.1555
 30
0.0
 11
427.9821
 21
155.1555
 31
0.0
  0
LINE
  5
1B8
100
AcDbEntity
  8
1
  6
CONTINUOUS
 62
     4
100
AcDbLine
 10
426.1581
 20
160.6275
 30
0.0
 11
427.3581
 21
160.6275
 31
0.0
  0
LINE
  5
1B9
100
AcDbEntity
  8
1
  6
CONTINUOUS
 62
     4
100
AcDbLine
 10
426.1341
 20
159.4275
 30
0.0
 11
427.3581
 21
159.4275
 31
0.0
  0
LINE
  5
1BA
100
AcDbEntity
  8
1
  6
CONTINUOUS
 62
     4
100
AcDbLine
 10
426.1821
 20
158.2035
 30
0.0
 11
427.3821
 21
158.2035
 31
0.0
  0
LINE
  5
1BB
100
AcDbEntity
  8
1
  6
CONTINUOUS
 62
     4
100
AcDbLine
 10
426.0861
 20
156.9555
 30
0.0
 11
427.3101
 21
156.9555
 31
0.0
  0
LINE
  5
1BC
100
AcDbEntity
  8
1
  6
CONTINUOUS
 62
     4
100
AcDbLine
 10
426.1101
 20
155.8035
 30
0.0
 11
427.3341
 21
155.8035
 31
0.0
  0
LINE
  5
1BD
100
AcDbEntity
  8
1
  6
CONTINUOUS
 62
     4
100
AcDbLine
 10
426.0861
 20
154.6035
 30
0.0
 11
427.3101
 21
154.6035
 31
0.0
  0
LINE
  5
1BE
100
AcDbEntity
  8
1
  6
CONTINUOUS
 62
     4
100
AcDbLine
 10
445.5021
 20
65.5635
 30
0.0
 11
472.1181
 21
65.5635
 31
0.0
  0
LINE
  5
1BF
100
AcDbEntity
  8
1
  6
CONTINUOUS
 62
     4
100
AcDbLine
 10
445.5021
 20
69.1635
 30
0.0
 11
459.4221
 21
69.1635
 31
0.0
  0
LINE
  5
1C0
100
AcDbEntity
  8
1
  6
CONTINUOUS
 62
     4
100
AcDbLine
 10
386.6781
 20
122.8995
 30
0.0
 11
392.7261
 21
122.8995
 31
0.0
  0
LINE
  5
1C1
100
AcDbEntity
  8
1
  6
CONTINUOUS
 62
     4
100
AcDbLine
 10
375.4701
 20
122.8515
 30
0.0
 11
381.5181
 21
122.8515
 31
0.0
  0
LINE
  5
1C2
100
AcDbEntity
  8
1
  6
CONTINUOUS
 62
     4
100
AcDbLine
 10
383.4141
 20
122.4675
 30
0.0
 11
383.4141
 21
52.6515
 31
0.0
  0
LINE
  5
1C3
100
AcDbEntity
  8
1
  6
CONTINUOUS
 62
     4
100
AcDbLine
 10
384.3741
 20
122.4675
 30
0.0
 11
384.3741
 21
52.6515
 31
0.0
  0
LINE
  5
1C4
100
AcDbEntity
  8
1
  6
CONTINUOUS
 62
     4
100
AcDbLine
 10
383.4141
 20
125.0115
 30
0.0
 11
383.4141
 21
122.1795
 31
0.0
  0
LINE
  5
1C5
100
AcDbEntity
  8
1
  6
CONTINUOUS
 62
     4
100
AcDbLine
 10
384.3741
 20
125.0115
 30
0.0
 11
384.3741
 21
122.2275
 31
0.0
  0
LINE
  5
1C6
100
AcDbEntity
  8
1
  6
CONTINUOUS
 62
     4
100
AcDbLine
 10
383.5101
 20
124.8675
 30
0.0
 11
383.5101
 21
124.4355
 31
0.0
  0
LINE
  5
1C7
100
AcDbEntity
  8
1
  6
CONTINUOUS
 62
     4
100
AcDbLine
 10
384.4701
 20
124.8675
 30
0.0
 11
384.4701
 21
124.4355
 31
0.0
  0
LINE
  5
1C8
100
AcDbEntity
  8
1
  6
CONTINUOUS
 62
     4
100
AcDbLine
 10
383.4141
 20
125.8995
 30
0.0
 11
384.3741
 21
125.8995
 31
0.0
  0
LINE
  5
1C9
100
AcDbEntity
  8
1
  6
CONTINUOUS
 62
     4
100
AcDbLine
 10
383.4141
 20
125.8995
 30
0.0
 11
383.4141
 21
124.9635
 31
0.0
  0
LINE
  5
1CA
100
AcDbEntity
  8
1
  6
CONTINUOUS
 62
     4
100
AcDbLine
 10
384.3741
 20
125.8755
 30
0.0
 11
384.3741
 21
125.4915
 31
0.0
  0
LINE
  5
1CB
100
AcDbEntity
  8
1
  6
CONTINUOUS
 62
     4
100
AcDbLine
 10
384.3741
 20
125.8755
 30
0.0
 11
384.3741
 21
124.9635
 31
0.0
  0
SPLINE
  5
1CC
100
AcDbEntity
  8
1
  6
CONTINUOUS
 62
     4
100
AcDbSpline
210
0.0
220
0.0
230
1.0
 70
     8
 71
     3
 72
   149
 73
   145
 74
     0
 42
0.0
 43
0.0
 12
0.8638638705268855
 22
0.5037253350768736
 32
0.0
 13
0.8944271909996847
 23
-0.4472135955004203
 33
0.0
 40
0.0
 40
0.0
 40
0.0
 40
0.0
 40
0.0368488863062334
 40
0.0368488863062334
 40
0.0368488863062334
 40
0.0860057955926895
 40
0.0860057955926895
 40
0.0860057955926895
 40
0.1010799601787942
 40
0.1010799601787942
 40
0.1010799601787942
 40
0.1376268013390535
 40
0.1376268013390535
 40
0.1376268013390535
 40
0.1534191811845821
 40
0.1534191811845821
 40
0.1534191811845821
 40
0.1703954794210737
 40
0.1703954794210737
 40
0.1703954794210737
 40
0.1991320182664891
 40
0.1991320182664891
 40
0.1991320182664891
 40
0.2157786482619586
 40
0.2157786482619586
 40
0.2157786482619586
 40
0.2346121601878783
 40
0.2346121601878783
 40
0.2346121601878783
 40
0.2512587901833478
 40
0.2512587901833478
 40
0.2512587901833478
 40
0.2587033894365792
 40
0.2587033894365792
 40
0.2587033894365792
 40
0.2776834678681316
 40
0.2776834678681316
 40
0.2776834678681316
 40
0.2861716169863774
 40
0.2861716169863774
 40
0.2861716169863774
 40
0.3098309235319262
 40
0.3098309235319262
 40
0.3098309235319262
 40
0.3264775535273957
 40
0.3264775535273957
 40
0.3264775535273957
 40
0.3477956415265091
 40
0.3477956415265091
 40
0.3477956415265091
 40
0.3577836195237908
 40
0.3577836195237908
 40
0.3577836195237908
 40
0.3744302495192602
 40
0.3744302495192602
 40
0.3744302495192602
 40
0.398438360724197
 40
0.398438360724197
 40
0.398438360724197
 40
0.4270783058884244
 40
0.4270783058884244
 40
0.4270783058884244
 40
0.4376065591187768
 40
0.4376065591187768
 40
0.4376065591187768
 40
0.4565866375503292
 40
0.4565866375503292
 40
0.4565866375503292
 40
0.4692643332526056
 40
0.4692643332526056
 40
0.4692643332526056
 40
0.498384042867067
 40
0.498384042867067
 40
0.498384042867067
 40
0.533143226765692
 40
0.533143226765692
 40
0.533143226765692
 40
0.5482173913517967
 40
0.5482173913517967
 40
0.5482173913517967
 40
0.59162649147379
 40
0.59162649147379
 40
0.59162649147379
 40
0.6176293587792007
 40
0.6176293587792007
 40
0.6176293587792007
 40
0.6393339088401973
 40
0.6393339088401973
 40
0.6393339088401973
 40
0.6679738540044246
 40
0.6679738540044246
 40
0.6679738540044246
 40
0.6985783108840442
 40
0.6985783108840442
 40
0.6985783108840442
 40
0.7280762143900061
 40
0.7280762143900061
 40
0.7280762143900061
 40
0.7517355209355551
 40
0.7517355209355551
 40
0.7517355209355551
 40
0.7644132166378314
 40
0.7644132166378314
 40
0.7644132166378314
 40
0.7903092955359711
 40
0.7903092955359711
 40
0.7903092955359711
 40
0.8053834601220757
 40
0.8053834601220757
 40
0.8053834601220757
 40
0.8148002160850356
 40
0.8148002160850356
 40
0.8148002160850356
 40
0.8463849757760927
 40
0.8463849757760927
 40
0.8463849757760927
 40
0.8581559207297925
 40
0.8581559207297925
 40
0.8581559207297925
 40
0.8605101097205326
 40
0.8605101097205326
 40
0.8605101097205326
 40
0.889629819334994
 40
0.889629819334994
 40
0.889629819334994
 40
0.9067685738877154
 40
0.9067685738877154
 40
0.9067685738877154
 40
0.9417661092682361
 40
0.9417661092682361
 40
0.9417661092682361
 40
0.9560860818503498
 40
0.9560860818503498
 40
0.9560860818503498
 40
0.9645742309685956
 40
0.9645742309685956
 40
0.9645742309685956
 40
0.9712328829667835
 40
0.9712328829667835
 40
0.9712328829667835
 40
0.9782954499390033
 40
0.9782954499390033
 40
0.9782954499390033
 40
1.0
 40
1.0
 40
1.0
 40
1.0
 10
384.56610000000001
 20
124.86750000000001
 30
0.0
 10
384.6749232103316
 20
124.93095560910537
 30
0.0
 10
384.78819203379231
 20
124.98143826035569
 30
0.0
 10
384.90210000000002
 20
125.0355
 30
0.0
 10
385.05405475693203
 20
125.10761908684236
 30
0.0
 10
385.22963347810685
 20
125.15486915514367
 30
0.0
 10
385.38210000000004
 20
125.1795
 30
0.0
 10
385.42885447415733
 20
125.1870531479633
 30
0.0
 10
385.45534552584269
 20
125.0900050852262
 30
0.0
 10
385.50210000000004
 20
125.0835
 30
0.0
 10
385.61545476210307
 20
125.06772862407149
 30
0.0
 10
385.74877265641226
 20
125.18849327213259
 30
0.0
 10
385.8621
 20
125.1795
 30
0.0
 10
385.91107026391353
 20
125.17561388658875
 30
0.0
 10
385.96094044821945
 20
125.11082393830121
 30
0.0
 10
386.0061
 20
125.1075
 30
0.0
 10
386.05464505950033
 20
125.10392687369017
 30
0.0
 10
386.10229788659956
 20
125.20948171920669
 30
0.0
 10
386.15010000000001
 20
125.20350000000001
 30
0.0
 10
386.23101677405106
 20
125.19337447652305
 30
0.0
 10
386.30075564383196
 20
125.02946614272329
 30
0.0
 10
386.39010000000002
 20
125.0355
 30
0.0
 10
386.44185579589856
 20
125.03899531967198
 30
0.0
 10
386.50156306784231
 20
125.05817877593287
 30
0.0
 10
386.55810000000002
 20
125.0595
 30
0.0
 10
386.62206423698598
 20
125.06099479439574
 30
0.0
 10
386.68622597869944
 20
125.0573633565733
 30
0.0
 10
386.75010000000003
 20
125.0595
 30
0.0
 10
386.80655719200411
 20
125.06138854382002
 30
0.0
 10
386.86235927079349
 20
125.0793385812627
 30
0.0
 10
386.91810000000004
 20
125.0835
 30
0.0
 10
386.94302801192424
 20
125.0853610430359
 30
0.0
 10
386.96718413956501
 20
125.06126505248207
 30
0.0
 10
386.99010000000004
 20
125.0595
 30
0.0
 10
387.04852420976442
 20
125.05499998147575
 30
0.0
 10
387.10287138907927
 20
125.16693755807866
 30
0.0
 10
387.15809999999999
 20
125.1555
 30
0.0
 10
387.18279898566436
 20
125.1503849685279
 30
0.0
 10
387.20197815465474
 20
125.11087378189302
 30
0.0
 10
387.23009999999999
 20
125.1075
 30
0.0
 10
387.30848497537949
 20
125.09809614305632
 30
0.0
 10
387.39049940475303
 20
125.09366968470619
 30
0.0
 10
387.4701
 20
125.0835
 30
0.0
 10
387.52610678337487
 20
125.07634463481006
 30
0.0
 10
387.58209612050098
 20
125.06680514355587
 30
0.0
 10
387.63810000000001
 20
125.0595
 30
0.0
 10
387.70981995964218
 20
125.0501448516479
 30
0.0
 10
387.78238500854076
 20
125.08905529144086
 30
0.0
 10
387.85410000000002
 20
125.0835
 30
0.0
 10
387.8877
 20
125.08089722771189
 30
0.0
 10
387.89280370399035
 20
125.00850595033293
 30
0.0
 10
387.92610000000002
 20
125.01150000000001
 30
0.0
 10
387.9815938266828
 20
125.01649008277846
 30
0.0
 10
388.03861930709212
 20
125.02532857282746
 30
0.0
 10
388.09410000000003
 20
125.0355
 30
0.0
 10
388.17411539323109
 20
125.05016944088608
 30
0.0
 10
388.25405615213151
 20
125.07226639640271
 30
0.0
 10
388.33410000000003
 20
125.0835
 30
0.0
 10
388.42958653761718
 20
125.09690087890617
 30
0.0
 10
388.52660192956654
 20
125.06601390952865
 30
0.0
 10
388.62210000000005
 20
125.0355
 30
0.0
 10
388.65720578888221
 20
125.02428286376866
 30
0.0
 10
388.68403308984279
 20
124.99733214480307
 30
0.0
 10
388.71809999999999
 20
124.98750000000001
 30
0.0
 10
388.77951499568434
 20
124.96977484888237
 30
0.0
 10
388.84898611566723
 20
124.97700203853729
 30
0.0
 10
388.9101
 20
124.96350000000001
 30
0.0
 10
388.95092086549585
 20
124.95448134728193
 30
0.0
 10
388.9893537802368
 20
124.92471336617042
 30
0.0
 10
389.0301
 20
124.91550000000001
 30
0.0
 10
389.12369098966064
 20
124.89433759369571
 30
0.0
 10
389.22471713045832
 20
124.98891929856062
 30
0.0
 10
389.31810000000002
 20
124.98750000000001
 30
0.0
 10
389.42956788132017
 20
124.98580583270478
 30
0.0
 10
389.5298017954849
 20
124.81581118521588
 30
0.0
 10
389.63010000000003
 20
124.81950000000001
 30
0.0
 10
389.67359675317351
 20
124.82109974415241
 30
0.0
 10
389.70174737638456
 20
124.9171861572312
 30
0.0
 10
389.75010000000003
 20
124.91550000000001
 30
0.0
 10
389.88934114120531
 20
124.91064436984865
 30
0.0
 10
390.03678557559385
 20
124.82738552549908
 30
0.0
 10
390.18209999999999
 20
124.81950000000001
 30
0.0
 10
390.2691460729381
 20
124.81477642193435
 30
0.0
 10
390.35976929037793
 20
124.85344032291928
 30
0.0
 10
390.4461
 20
124.84350000000001
 30
0.0
 10
390.51816009963392
 20
124.83520282900383
 30
0.0
 10
390.54225805536544
 20
124.69828794651011
 30
0.0
 10
390.61410000000001
 20
124.6995
 30
0.0
 10
390.70889806533853
 20
124.70109934877199
 30
0.0
 10
390.80523877607004
 20
124.74157930254103
 30
0.0
 10
390.90210000000002
 20
124.7475
 30
0.0
 10
391.00560526630113
 20
124.75382681833159
 30
0.0
 10
391.11142148917889
 20
124.76255693962361
 30
0.0
 10
391.21410000000003
 20
124.7475
 30
0.0
 10
391.31306600407748
 20
124.73298746825148
 30
0.0
 10
391.38250039064536
 20
124.63232780693575
 30
0.0
 10
391.47810000000004
 20
124.60350000000001
 30
0.0
 10
391.55477732938709
 20
124.58037815606318
 30
0.0
 10
391.64142267061294
 20
124.56836962704372
 30
0.0
 10
391.71809999999999
 20
124.57950000000001
 30
0.0
 10
391.75918708120258
 20
124.58546414274109
 30
0.0
 10
391.79738211389292
 20
124.61837694681127
 30
0.0
 10
391.8381
 20
124.62750000000001
 30
0.0
 10
391.92127233793565
 20
124.64613519291801
 30
0.0
 10
392.01884523165785
 20
124.64799675056862
 30
0.0
 10
392.10210000000001
 20
124.62750000000001
 30
0.0
 10
392.15056278409577
 20
124.61556879633142
 30
0.0
 10
392.17452465051082
 20
124.54485079733588
 30
0.0
 10
392.22210000000001
 20
124.53150000000001
 30
0.0
 10
392.25182008521159
 20
124.52315982302338
 30
0.0
 10
392.28754150592624
 20
124.54064585925602
 30
0.0
 10
392.31810000000002
 20
124.53150000000001
 30
0.0
 10
392.42059630505861
 20
124.50082385548637
 30
0.0
 10
392.51482840204369
 20
124.44303544186894
 30
0.0
 10
392.60610000000003
 20
124.3875
 30
0.0
 10
392.64011491624092
 20
124.36680316280344
 30
0.0
 10
392.65968787122097
 20
124.30757806032028
 30
0.0
 10
392.67810000000003
 20
124.2915
 30
0.0
 10
392.68178242575584
 20
124.28828438793596
 30
0.0
 10
392.67044876429327
 20
124.31522142015677
 30
0.0
 10
392.67810000000003
 20
124.3155
 30
0.0
 10
392.772740558956
 20
124.31894584235638
 30
0.0
 10
392.87093580213462
 20
124.21873335510779
 30
0.0
 10
392.96610000000004
 20
124.24350000000001
 30
0.0
 10
393.022110030698
 20
124.2580767060703
 30
0.0
 10
393.07828640001435
 20
124.27367661651485
 30
0.0
 10
393.13410000000005
 20
124.2915
 30
0.0
 10
393.24807201787354
 20
124.32789555559324
 30
0.0
 10
393.35786731750795
 20
124.3765314880529
 30
0.0
 10
393.4701
 20
124.4115
 30
0.0
 10
393.51602234620606
 20
124.42580809703814
 30
0.0
 10
393.57086005790438
 20
124.42150143558179
 30
0.0
 10
393.61410000000001
 20
124.3875
 30
0.0
 10
393.63973043150173
 20
124.36734568379602
 30
0.0
 10
393.64348090876257
 20
124.33774975519835
 30
0.0
 10
393.66210000000001
 20
124.3155
 30
0.0
 10
393.67670601685307
 20
124.29804585601092
 30
0.0
 10
393.68836816073275
 20
124.27765253461752
 30
0.0
 10
393.71010000000001
 20
124.26750000000001
 30
0.0
 10
393.73315009637031
 20
124.25673161088859
 30
0.0
 10
393.75854679083551
 20
124.27142732188854
 30
0.0
 10
393.78210000000001
 20
124.26750000000001
 30
0.0
 10
393.8544832863347
 20
124.2554306270835
 30
0.0
 10
393.9321303099901
 20
124.25248484500496
 30
0.0
 10
393.99810000000002
 20
124.21950000000001
 30
0.0
  0
LINE
  5
1CD
100
AcDbEntity
  8
1
  6
CONTINUOUS
 62
     4
100
AcDbLine
 10
376.7661
 20
122.7555
 30
0.0
 11
376.7661
 21
153.9795
 31
0.0
  0
LINE
  5
1CE
100
AcDbEntity
  8
1
  6
CONTINUOUS
 62
     4
100
AcDbLine
 10
469.2141
 20
65.3235
 30
0.0
 11
469.2141
 21
153.8835
 31
0.0
  0
LINE
  5
1CF
100
AcDbEntity
  8
1
  6
CONTINUOUS
 62
     4
100
AcDbLine
 10
457.0701
 20
73.1235
 30
0.0
 11
457.0701
 21
69.1635
 31
0.0
  0
LINE
  5
1D0
100
AcDbEntity
  8
1
  6
CONTINUOUS
 62
     4
100
AcDbLine
 10
457.2381
 20
65.5635
 30
0.0
 11
457.2381
 21
61.5075
 31
0.0
  0
LINE
  5
1D1
100
AcDbEntity
  8
1
  6
CONTINUOUS
 62
     4
100
AcDbLine
 10
423.3501
 20
154.7235
 30
0.0
 11
431.9181
 21
163.2915
 31
0.0
  0
LINE
  5
1D2
100
AcDbEntity
  8
1
  6
CONTINUOUS
 62
     4
100
AcDbLine
 10
423.0861
 20
162.6675
 30
0.0
 11
427.3581
 21
166.9395
 31
0.0
  0
LINE
  5
1D3
100
AcDbEntity
  8
1
  6
CONTINUOUS
 62
     4
100
AcDbLine
 10
442.7661
 20
155.5395
 30
0.0
 11
442.7661
 21
161.5875
 31
0.0
  0
LINE
  5
1D4
100
AcDbEntity
  8
1
  6
CONTINUOUS
 62
     4
100
AcDbLine
 10
439.1421
 20
155.5395
 30
0.0
 11
439.1421
 21
161.5875
 31
0.0
  0
LINE
  5
1D5
100
AcDbEntity
  8
1
  6
CONTINUOUS
 62
     4
100
AcDbLine
 10
435.5181
 20
160.4355
 30
0.0
 11
439.1421
 21
160.4355
 31
0.0
  0
LINE
  5
1D6
100
AcDbEntity
  8
1
  6
CONTINUOUS
 62
     4
100
AcDbLine
 10
442.8141
 20
160.5315
 30
0.0
 11
446.9421
 21
160.5315
 31
0.0
  0
LINE
  5
1D7
100
AcDbEntity
  8
1
  6
CONTINUOUS
 62
     4
100
AcDbLine
 10
424.7421
 20
168.3795
 30
0.0
 11
426.7581
 21
166.3635
 31
0.0
  0
LINE
  5
1D8
100
AcDbEntity
  8
1
  6
CONTINUOUS
 62
     4
100
AcDbLine
 10
430.8621
 20
162.2355
 30
0.0
 11
432.9741
 21
160.1475
 31
0.0
  0
LINE
  5
1D9
100
AcDbEntity
  8
1
  6
CONTINUOUS
 62
     4
100
AcDbLine
 10
382.1661
 20
150.8835
 30
0.0
 11
384.2541
 21
153.8595
 31
0.0
  0
LINE
  5
1DA
100
AcDbEntity
  8
1
  6
CONTINUOUS
 62
     4
100
AcDbLine
 10
382.8861
 20
150.9315
 30
0.0
 11
384.9741
 21
153.9075
 31
0.0
  0
LINE
  5
1DB
100
AcDbEntity
  8
1
  6
CONTINUOUS
 62
     4
100
AcDbLine
 10
383.7981
 20
150.9795
 30
0.0
 11
385.8861
 21
153.9555
 31
0.0
  0
LINE
  5
1DC
100
AcDbEntity
  8
1
  6
CONTINUOUS
 62
     4
100
AcDbLine
 10
385.9341
 20
153.9315
 30
0.0
 11
388.9101
 21
151.8435
 31
0.0
  0
LINE
  5
1DD
100
AcDbEntity
  8
1
  6
CONTINUOUS
 62
     4
100
AcDbLine
 10
385.5261
 20
153.3795
 30
0.0
 11
388.5021
 21
151.3155
 31
0.0
  0
LINE
  5
1DE
100
AcDbEntity
  8
1
  6
CONTINUOUS
 62
     4
100
AcDbLine
 10
385.1661
 20
152.8035
 30
0.0
 11
388.1421
 21
150.7155
 31
0.0
  0
LINE
  5
1DF
100
AcDbEntity
  8
1
  6
CONTINUOUS
 62
     4
100
AcDbLine
 10
384.7581
 20
152.2515
 30
0.0
 11
387.7341
 21
150.1635
 31
0.0
  0
LINE
  5
1E0
100
AcDbEntity
  8
1
  6
CONTINUOUS
 62
     4
100
AcDbLine
 10
384.3501
 20
151.6275
 30
0.0
 11
387.3261
 21
149.5395
 31
0.0
  0
LINE
  5
1E1
100
AcDbEntity
  8
1
  6
CONTINUOUS
 62
     4
100
AcDbLine
 10
381.4701
 20
151.1235
 30
0.0
 11
383.5581
 21
154.0995
 31
0.0
  0
LINE
  5
1E2
100
AcDbEntity
  8
1
  6
CONTINUOUS
 62
     4
100
AcDbLine
 10
388.3341
 20
150.9315
 30
0.0
 11
390.4221
 21
153.9075
 31
0.0
  0
LINE
  5
1E3
100
AcDbEntity
  8
1
  6
CONTINUOUS
 62
     4
100
AcDbLine
 10
388.8861
 20
151.0755
 30
0.0
 11
390.9501
 21
154.0515
 31
0.0
  0
LINE
  5
1E4
100
AcDbEntity
  8
1
  6
CONTINUOUS
 62
     4
100
AcDbLine
 10
389.2941
 20
150.8835
 30
0.0
 11
391.3581
 21
153.8595
 31
0.0
  0
LINE
  5
1E5
100
AcDbEntity
  8
1
  6
CONTINUOUS
 62
     4
100
AcDbLine
 10
389.8701
 20
150.9315
 30
0.0
 11
391.9581
 21
153.9075
 31
0.0
  0
LINE
  5
1E6
100
AcDbEntity
  8
1
  6
CONTINUOUS
 62
     4
100
AcDbLine
 10
391.8381
 20
153.7155
 30
0.0
 11
394.8141
 21
151.6275
 31
0.0
  0
LINE
  5
1E7
100
AcDbEntity
  8
1
  6
CONTINUOUS
 62
     4
100
AcDbLine
 10
391.4301
 20
153.0195
 30
0.0
 11
394.4061
 21
150.9555
 31
0.0
  0
LINE
  5
1E8
100
AcDbEntity
  8
1
  6
CONTINUOUS
 62
     4
100
AcDbLine
 10
391.0221
 20
152.4435
 30
0.0
 11
393.9981
 21
150.3555
 31
0.0
  0
LINE
  5
1E9
100
AcDbEntity
  8
1
  6
CONTINUOUS
 62
     4
100
AcDbLine
 10
390.6141
 20
151.8915
 30
0.0
 11
393.5901
 21
149.8035
 31
0.0
  0
LINE
  5
1EA
100
AcDbEntity
  8
1
  6
CONTINUOUS
 62
     4
100
AcDbLine
 10
394.2381
 20
150.8835
 30
0.0
 11
396.3021
 21
153.8595
 31
0.0
  0
LINE
  5
1EB
100
AcDbEntity
  8
1
  6
CONTINUOUS
 62
     4
100
AcDbLine
 10
394.8141
 20
150.8115
 30
0.0
 11
396.9021
 21
153.7875
 31
0.0
  0
LINE
  5
1EC
100
AcDbEntity
  8
1
  6
CONTINUOUS
 62
     4
100
AcDbLine
 10
395.5821
 20
150.8595
 30
0.0
 11
397.6701
 21
153.8115
 31
0.0
  0
LINE
  5
1ED
100
AcDbEntity
  8
1
  6
CONTINUOUS
 62
     4
100
AcDbLine
 10
396.3981
 20
151.0275
 30
0.0
 11
398.4861
 21
154.0035
 31
0.0
  0
ARC
  5
1EE
100
AcDbEntity
  8
1
  6
CONTINUOUS
 62
     4
100
AcDbCircle
 10
401.342676
 20
150.254057
 30
0.0
 40
3.6288
210
0.0
220
0.0
230
1.0
100
AcDbArc
 50
90.0
 51
180.0
  0
LINE
  5
1EF
100
AcDbEntity
  8
1
  6
CONTINUOUS
 62
     4
100
AcDbLine
 10
394.7901
 20
150.7155
 30
0.0
 11
397.7661
 21
148.6275
 31
0.0
  0
LINE
  5
1F0
100
AcDbEntity
  8
1
  6
CONTINUOUS
 62
     4
100
AcDbLine
 10
394.7901
 20
150.1635
 30
0.0
 11
397.7661
 21
148.0755
 31
0.0
  0
LINE
  5
1F1
100
AcDbEntity
  8
1
  6
CONTINUOUS
 62
     4
100
AcDbLine
 10
394.6941
 20
149.3475
 30
0.0
 11
397.6701
 21
147.2595
 31
0.0
  0
LINE
  5
1F2
100
AcDbEntity
  8
1
  6
CONTINUOUS
 62
     4
100
AcDbLine
 10
394.5981
 20
148.5315
 30
0.0
 11
397.5741
 21
146.4435
 31
0.0
  0
LINE
  5
1F3
100
AcDbEntity
  8
1
  6
CONTINUOUS
 62
     4
100
AcDbLine
 10
395.4141
 20
143.4195
 30
0.0
 11
397.5021
 21
146.3715
 31
0.0
  0
LINE
  5
1F4
100
AcDbEntity
  8
1
  6
CONTINUOUS
 62
     4
100
AcDbLine
 10
394.6941
 20
143.9475
 30
0.0
 11
396.7581
 21
146.9235
 31
0.0
  0
LINE
  5
1F5
100
AcDbEntity
  8
1
  6
CONTINUOUS
 62
     4
100
AcDbLine
 10
393.9021
 20
144.4995
 30
0.0
 11
395.9901
 21
147.4755
 31
0.0
  0
LINE
  5
1F6
100
AcDbEntity
  8
1
  6
CONTINUOUS
 62
     4
100
AcDbLine
 10
393.1341
 20
145.0995
 30
0.0
 11
395.2221
 21
148.0515
 31
0.0
  0
LINE
  5
1F7
100
AcDbEntity
  8
1
  6
CONTINUOUS
 62
     4
100
AcDbLine
 10
394.5981
 20
144.2355
 30
0.0
 11
397.5741
 21
142.1475
 31
0.0
  0
LINE
  5
1F8
100
AcDbEntity
  8
1
  6
CONTINUOUS
 62
     4
100
AcDbLine
 10
394.5981
 20
143.4195
 30
0.0
 11
397.5741
 21
141.3315
 31
0.0
  0
LINE
  5
1F9
100
AcDbEntity
  8
1
  6
CONTINUOUS
 62
     4
100
AcDbLine
 10
394.5981
 20
142.6755
 30
0.0
 11
397.5741
 21
140.6115
 31
0.0
  0
LINE
  5
1FA
100
AcDbEntity
  8
1
  6
CONTINUOUS
 62
     4
100
AcDbLine
 10
394.6941
 20
141.7635
 30
0.0
 11
397.6701
 21
139.6995
 31
0.0
  0
LINE
  5
1FB
100
AcDbEntity
  8
1
  6
CONTINUOUS
 62
     4
100
AcDbLine
 10
395.5101
 20
136.5555
 30
0.0
 11
397.5741
 21
139.5315
 31
0.0
  0
LINE
  5
1FC
100
AcDbEntity
  8
1
  6
CONTINUOUS
 62
     4
100
AcDbLine
 10
394.7661
 20
137.1555
 30
0.0
 11
396.8541
 21
140.1315
 31
0.0
  0
LINE
  5
1FD
100
AcDbEntity
  8
1
  6
CONTINUOUS
 62
     4
100
AcDbLine
 10
393.9501
 20
137.8275
 30
0.0
 11
396.0381
 21
140.8035
 31
0.0
  0
LINE
  5
1FE
100
AcDbEntity
  8
1
  6
CONTINUOUS
 62
     4
100
AcDbLine
 10
393.0621
 20
138.4995
 30
0.0
 11
395.1261
 21
141.4755
 31
0.0
  0
LINE
  5
1FF
100
AcDbEntity
  8
1
  6
CONTINUOUS
 62
     4
100
AcDbLine
 10
394.8381
 20
136.8675
 30
0.0
 11
397.8141
 21
134.8035
 31
0.0
  0
LINE
  5
200
100
AcDbEntity
  8
1
  6
CONTINUOUS
 62
     4
100
AcDbLine
 10
394.8381
 20
135.9555
 30
0.0
 11
397.8141
 21
133.8915
 31
0.0
  0
LINE
  5
201
100
AcDbEntity
  8
1
  6
CONTINUOUS
 62
     4
100
AcDbLine
 10
394.8381
 20
135.1395
 30
0.0
 11
397.8141
 21
133.0755
 31
0.0
  0
LINE
  5
202
100
AcDbEntity
  8
1
  6
CONTINUOUS
 62
     4
100
AcDbLine
 10
394.8381
 20
134.2035
 30
0.0
 11
397.8141
 21
132.1155
 31
0.0
  0
LINE
  5
203
100
AcDbEntity
  8
1
  6
CONTINUOUS
 62
     4
100
AcDbLine
 10
395.4141
 20
129.1155
 30
0.0
 11
397.5021
 21
132.0915
 31
0.0
  0
LINE
  5
204
100
AcDbEntity
  8
1
  6
CONTINUOUS
 62
     4
100
AcDbLine
 10
394.5981
 20
129.8355
 30
0.0
 11
396.6861
 21
132.8115
 31
0.0
  0
LINE
  5
205
100
AcDbEntity
  8
1
  6
CONTINUOUS
 62
     4
100
AcDbLine
 10
393.7821
 20
130.7475
 30
0.0
 11
395.8701
 21
133.7235
 31
0.0
  0
LINE
  5
206
100
AcDbEntity
  8
1
  6
CONTINUOUS
 62
     4
100
AcDbLine
 10
394.4781
 20
130.0275
 30
0.0
 11
397.4301
 21
127.9395
 31
0.0
  0
LINE
  5
207
100
AcDbEntity
  8
1
  6
CONTINUOUS
 62
     4
100
AcDbLine
 10
394.4781
 20
128.8515
 30
0.0
 11
397.4301
 21
126.7635
 31
0.0
  0
LINE
  5
208
100
AcDbEntity
  8
1
  6
CONTINUOUS
 62
     4
100
AcDbLine
 10
394.3821
 20
127.9395
 30
0.0
 11
397.3581
 21
125.8515
 31
0.0
  0
LINE
  5
209
100
AcDbEntity
  8
1
  6
CONTINUOUS
 62
     4
100
AcDbLine
 10
394.1181
 20
127.3875
 30
0.0
 11
397.0701
 21
125.2995
 31
0.0
  0
LINE
  5
20A
100
AcDbEntity
  8
1
  6
CONTINUOUS
 62
     4
100
AcDbLine
 10
392.9661
 20
119.9475
 30
0.0
 11
395.0301
 21
122.9235
 31
0.0
  0
LINE
  5
20B
100
AcDbEntity
  8
1
  6
CONTINUOUS
 62
     4
100
AcDbLine
 10
393.9501
 20
120.0435
 30
0.0
 11
396.0381
 21
123.0195
 31
0.0
  0
LINE
  5
20C
100
AcDbEntity
  8
1
  6
CONTINUOUS
 62
     4
100
AcDbLine
 10
395.1261
 20
120.0435
 30
0.0
 11
397.2141
 21
123.0195
 31
0.0
  0
LINE
  5
20D
100
AcDbEntity
  8
1
  6
CONTINUOUS
 62
     4
100
AcDbLine
 10
394.6461
 20
120.2115
 30
0.0
 11
397.6221
 21
118.1475
 31
0.0
  0
LINE
  5
20E
100
AcDbEntity
  8
1
  6
CONTINUOUS
 62
     4
100
AcDbLine
 10
394.6461
 20
119.0355
 30
0.0
 11
397.6221
 21
116.9715
 31
0.0
  0
LINE
  5
20F
100
AcDbEntity
  8
1
  6
CONTINUOUS
 62
     4
100
AcDbLine
 10
394.5501
 20
117.8595
 30
0.0
 11
397.5261
 21
115.7715
 31
0.0
  0
LINE
  5
210
100
AcDbEntity
  8
1
  6
CONTINUOUS
 62
     4
100
AcDbLine
 10
395.4141
 20
112.6035
 30
0.0
 11
397.5021
 21
115.5795
 31
0.0
  0
LINE
  5
211
100
AcDbEntity
  8
1
  6
CONTINUOUS
 62
     4
100
AcDbLine
 10
394.5981
 20
113.2275
 30
0.0
 11
396.6861
 21
116.2035
 31
0.0
  0
LINE
  5
212
100
AcDbEntity
  8
1
  6
CONTINUOUS
 62
     4
100
AcDbLine
 10
393.8781
 20
113.9715
 30
0.0
 11
395.9421
 21
116.9235
 31
0.0
  0
LINE
  5
213
100
AcDbEntity
  8
1
  6
CONTINUOUS
 62
     4
100
AcDbLine
 10
392.9661
 20
114.6915
 30
0.0
 11
395.0301
 21
117.6675
 31
0.0
  0
LINE
  5
214
100
AcDbEntity
  8
1
  6
CONTINUOUS
 62
     4
100
AcDbLine
 10
394.6461
 20
113.5155
 30
0.0
 11
397.6221
 21
111.4275
 31
0.0
  0
LINE
  5
215
100
AcDbEntity
  8
1
  6
CONTINUOUS
 62
     4
100
AcDbLine
 10
394.7421
 20
112.3155
 30
0.0
 11
397.7181
 21
110.2515
 31
0.0
  0
LINE
  5
216
100
AcDbEntity
  8
1
  6
CONTINUOUS
 62
     4
100
AcDbLine
 10
394.4781
 20
110.6835
 30
0.0
 11
397.4301
 21
108.6195
 31
0.0
  0
LINE
  5
217
100
AcDbEntity
  8
1
  6
CONTINUOUS
 62
     4
100
AcDbLine
 10
394.2861
 20
109.2435
 30
0.0
 11
397.2621
 21
107.1555
 31
0.0
  0
LINE
  5
218
100
AcDbEntity
  8
1
  6
CONTINUOUS
 62
     4
100
AcDbLine
 10
395.2221
 20
104.3475
 30
0.0
 11
397.3101
 21
107.3235
 31
0.0
  0
LINE
  5
219
100
AcDbEntity
  8
1
  6
CONTINUOUS
 62
     4
100
AcDbLine
 10
394.2381
 20
104.8035
 30
0.0
 11
396.3021
 21
107.7795
 31
0.0
  0
LINE
  5
21A
100
AcDbEntity
  8
1
  6
CONTINUOUS
 62
     4
100
AcDbLine
 10
393.4221
 20
105.2595
 30
0.0
 11
395.4861
 21
108.2115
 31
0.0
  0
LINE
  5
21B
100
AcDbEntity
  8
1
  6
CONTINUOUS
 62
     4
100
AcDbLine
 10
392.6781
 20
105.9795
 30
0.0
 11
394.7661
 21
108.9555
 31
0.0
  0
LINE
  5
21C
100
AcDbEntity
  8
1
  6
CONTINUOUS
 62
     4
100
AcDbLine
 10
394.4781
 20
104.7075
 30
0.0
 11
397.4301
 21
102.6195
 31
0.0
  0
LINE
  5
21D
100
AcDbEntity
  8
1
  6
CONTINUOUS
 62
     4
100
AcDbLine
 10
394.6461
 20
103.5315
 30
0.0
 11
397.6221
 21
101.4435
 31
0.0
  0
LINE
  5
21E
100
AcDbEntity
  8
1
  6
CONTINUOUS
 62
     4
100
AcDbLine
 10
394.8381
 20
102.7875
 30
0.0
 11
397.8141
 21
100.7235
 31
0.0
  0
LINE
  5
21F
100
AcDbEntity
  8
1
  6
CONTINUOUS
 62
     4
100
AcDbLine
 10
394.9341
 20
101.8035
 30
0.0
 11
397.8861
 21
99.7155
 31
0.0
  0
LINE
  5
220
100
AcDbEntity
  8
1
  6
CONTINUOUS
 62
     4
100
AcDbLine
 10
392.8701
 20
98.3475
 30
0.0
 11
394.9581
 21
101.3235
 31
0.0
  0
LINE
  5
221
100
AcDbEntity
  8
1
  6
CONTINUOUS
 62
     4
100
AcDbLine
 10
393.5901
 20
97.9875
 30
0.0
 11
395.6781
 21
100.9635
 31
0.0
  0
LINE
  5
222
100
AcDbEntity
  8
1
  6
CONTINUOUS
 62
     4
100
AcDbLine
 10
394.5021
 20
97.4355
 30
0.0
 11
396.5901
 21
100.4115
 31
0.0
  0
LINE
  5
223
100
AcDbEntity
  8
1
  6
CONTINUOUS
 62
     4
100
AcDbLine
 10
395.5101
 20
97.0035
 30
0.0
 11
397.5741
 21
99.9555
 31
0.0
  0
LINE
  5
224
100
AcDbEntity
  8
1
  6
CONTINUOUS
 62
     4
100
AcDbLine
 10
394.3821
 20
97.5315
 30
0.0
 11
397.3581
 21
95.4435
 31
0.0
  0
LINE
  5
225
100
AcDbEntity
  8
1
  6
CONTINUOUS
 62
     4
100
AcDbLine
 10
394.3821
 20
96.4515
 30
0.0
 11
397.3581
 21
94.3635
 31
0.0
  0
LINE
  5
226
100
AcDbEntity
  8
1
  6
CONTINUOUS
 62
     4
100
AcDbLine
 10
394.5501
 20
95.5395
 30
0.0
 11
397.5261
 21
93.4515
 31
0.0
  0
LINE
  5
227
100
AcDbEntity
  8
1
  6
CONTINUOUS
 62
     4
100
AcDbLine
 10
394.6461
 20
94.3635
 30
0.0
 11
397.6221
 21
92.2755
 31
0.0
  0
LINE
  5
228
100
AcDbEntity
  8
1
  6
CONTINUOUS
 62
     4
100
AcDbLine
 10
392.6781
 20
91.0995
 30
0.0
 11
394.7661
 21
94.0755
 31
0.0
  0
LINE
  5
229
100
AcDbEntity
  8
1
  6
CONTINUOUS
 62
     4
100
AcDbLine
 10
393.4941
 20
90.8115
 30
0.0
 11
395.5821
 21
93.7875
 31
0.0
  0
LINE
  5
22A
100
AcDbEntity
  8
1
  6
CONTINUOUS
 62
     4
100
AcDbLine
 10
394.1421
 20
89.9955
 30
0.0
 11
396.2301
 21
92.9715
 31
0.0
  0
LINE
  5
22B
100
AcDbEntity
  8
1
  6
CONTINUOUS
 62
     4
100
AcDbLine
 10
395.4141
 20
89.3715
 30
0.0
 11
397.5021
 21
92.3475
 31
0.0
  0
LINE
  5
22C
100
AcDbEntity
  8
1
  6
CONTINUOUS
 62
     4
100
AcDbLine
 10
394.6461
 20
89.6355
 30
0.0
 11
397.6221
 21
87.5715
 31
0.0
  0
LINE
  5
22D
100
AcDbEntity
  8
1
  6
CONTINUOUS
 62
     4
100
AcDbLine
 10
394.5501
 20
88.7235
 30
0.0
 11
397.5261
 21
86.6595
 31
0.0
  0
LINE
  5
22E
100
AcDbEntity
  8
1
  6
CONTINUOUS
 62
     4
100
AcDbLine
 10
394.6461
 20
87.7395
 30
0.0
 11
397.6221
 21
85.6515
 31
0.0
  0
LINE
  5
22F
100
AcDbEntity
  8
1
  6
CONTINUOUS
 62
     4
100
AcDbLine
 10
394.6461
 20
86.8275
 30
0.0
 11
397.6221
 21
84.7395
 31
0.0
  0
LINE
  5
230
100
AcDbEntity
  8
1
  6
CONTINUOUS
 62
     4
100
AcDbLine
 10
392.6781
 20
83.9235
 30
0.0
 11
394.7661
 21
86.8995
 31
0.0
  0
LINE
  5
231
100
AcDbEntity
  8
1
  6
CONTINUOUS
 62
     4
100
AcDbLine
 10
393.3261
 20
83.4675
 30
0.0
 11
395.4141
 21
86.4435
 31
0.0
  0
LINE
  5
232
100
AcDbEntity
  8
1
  6
CONTINUOUS
 62
     4
100
AcDbLine
 10
393.8781
 20
82.9155
 30
0.0
 11
395.9421
 21
85.8915
 31
0.0
  0
LINE
  5
233
100
AcDbEntity
  8
1
  6
CONTINUOUS
 62
     4
100
AcDbLine
 10
394.5021
 20
82.4835
 30
0.0
 11
396.5901
 21
85.4355
 31
0.0
  0
LINE
  5
234
100
AcDbEntity
  8
1
  6
CONTINUOUS
 62
     4
100
AcDbLine
 10
395.3181
 20
81.7395
 30
0.0
 11
397.4061
 21
84.7155
 31
0.0
  0
LINE
  5
235
100
AcDbEntity
  8
1
  6
CONTINUOUS
 62
     4
100
AcDbLine
 10
394.7421
 20
82.1955
 30
0.0
 11
397.7181
 21
80.1075
 31
0.0
  0
LINE
  5
236
100
AcDbEntity
  8
1
  6
CONTINUOUS
 62
     4
100
AcDbLine
 10
394.7421
 20
81.3795
 30
0.0
 11
397.7181
 21
79.2915
 31
0.0
  0
LINE
  5
237
100
AcDbEntity
  8
1
  6
CONTINUOUS
 62
     4
100
AcDbLine
 10
394.7421
 20
80.2995
 30
0.0
 11
397.7181
 21
78.2115
 31
0.0
  0
LINE
  5
238
100
AcDbEntity
  8
1
  6
CONTINUOUS
 62
     4
100
AcDbLine
 10
394.4781
 20
79.1955
 30
0.0
 11
397.4301
 21
77.1315
 31
0.0
  0
LINE
  5
239
100
AcDbEntity
  8
1
  6
CONTINUOUS
 62
     4
100
AcDbLine
 10
392.7741
 20
76.1235
 30
0.0
 11
394.8621
 21
79.0995
 31
0.0
  0
LINE
  5
23A
100
AcDbEntity
  8
1
  6
CONTINUOUS
 62
     4
100
AcDbLine
 10
393.4941
 20
75.6675
 30
0.0
 11
395.5821
 21
78.6435
 31
0.0
  0
LINE
  5
23B
100
AcDbEntity
  8
1
  6
CONTINUOUS
 62
     4
100
AcDbLine
 10
394.3101
 20
75.2115
 30
0.0
 11
396.3981
 21
78.1875
 31
0.0
  0
LINE
  5
23C
100
AcDbEntity
  8
1
  6
CONTINUOUS
 62
     4
100
AcDbLine
 10
395.1261
 20
74.2995
 30
0.0
 11
397.2141
 21
77.2755
 31
0.0
  0
LINE
  5
23D
100
AcDbEntity
  8
1
  6
CONTINUOUS
 62
     4
100
AcDbLine
 10
394.3821
 20
74.8515
 30
0.0
 11
397.3581
 21
72.7635
 31
0.0
  0
LINE
  5
23E
100
AcDbEntity
  8
1
  6
CONTINUOUS
 62
     4
100
AcDbLine
 10
394.4781
 20
73.9395
 30
0.0
 11
397.4301
 21
71.8515
 31
0.0
  0
LINE
  5
23F
100
AcDbEntity
  8
1
  6
CONTINUOUS
 62
     4
100
AcDbLine
 10
394.3821
 20
72.7635
 30
0.0
 11
397.3581
 21
70.6755
 31
0.0
  0
LINE
  5
240
100
AcDbEntity
  8
1
  6
CONTINUOUS
 62
     4
100
AcDbLine
 10
394.4781
 20
71.9475
 30
0.0
 11
397.4301
 21
69.8595
 31
0.0
  0
LINE
  5
241
100
AcDbEntity
  8
1
  6
CONTINUOUS
 62
     4
100
AcDbLine
 10
392.6781
 20
68.5875
 30
0.0
 11
394.7661
 21
71.5635
 31
0.0
  0
LINE
  5
242
100
AcDbEntity
  8
1
  6
CONTINUOUS
 62
     4
100
AcDbLine
 10
393.6861
 20
68.1315
 30
0.0
 11
395.7741
 21
71.1075
 31
0.0
  0
LINE
  5
243
100
AcDbEntity
  8
1
  6
CONTINUOUS
 62
     4
100
AcDbLine
 10
394.5021
 20
67.4115
 30
0.0
 11
396.5901
 21
70.3875
 31
0.0
  0
LINE
  5
244
100
AcDbEntity
  8
1
  6
CONTINUOUS
 62
     4
100
AcDbLine
 10
395.5101
 20
66.8595
 30
0.0
 11
397.5741
 21
69.8355
 31
0.0
  0
LINE
  5
245
100
AcDbEntity
  8
1
  6
CONTINUOUS
 62
     4
100
AcDbLine
 10
394.5501
 20
67.5795
 30
0.0
 11
397.5261
 21
65.5155
 31
0.0
  0
LINE
  5
246
100
AcDbEntity
  8
1
  6
CONTINUOUS
 62
     4
100
AcDbLine
 10
394.3821
 20
66.8595
 30
0.0
 11
397.3581
 21
64.7715
 31
0.0
  0
LINE
  5
247
100
AcDbEntity
  8
1
  6
CONTINUOUS
 62
     4
100
AcDbLine
 10
394.0221
 20
66.0435
 30
0.0
 11
396.9981
 21
63.9555
 31
0.0
  0
LINE
  5
248
100
AcDbEntity
  8
1
  6
CONTINUOUS
 62
     4
100
AcDbLine
 10
393.7341
 20
65.2275
 30
0.0
 11
396.7101
 21
63.1395
 31
0.0
  0
LINE
  5
249
100
AcDbEntity
  8
1
  6
CONTINUOUS
 62
     4
100
AcDbLine
 10
396.0381
 20
62.4195
 30
0.0
 11
398.1261
 21
65.3955
 31
0.0
  0
LINE
  5
24A
100
AcDbEntity
  8
1
  6
CONTINUOUS
 62
     4
100
AcDbLine
 10
397.1421
 20
62.4195
 30
0.0
 11
399.2061
 21
65.3955
 31
0.0
  0
LINE
  5
24B
100
AcDbEntity
  8
1
  6
CONTINUOUS
 62
     4
100
AcDbLine
 10
398.3181
 20
62.5155
 30
0.0
 11
400.4061
 21
65.4915
 31
0.0
  0
LINE
  5
24C
100
AcDbEntity
  8
1
  6
CONTINUOUS
 62
     4
100
AcDbLine
 10
399.3021
 20
62.5155
 30
0.0
 11
401.3901
 21
65.4915
 31
0.0
  0
LINE
  5
24D
100
AcDbEntity
  8
1
  6
CONTINUOUS
 62
     4
100
AcDbLine
 10
401.4621
 20
65.5875
 30
0.0
 11
404.4381
 21
63.5235
 31
0.0
  0
LINE
  5
24E
100
AcDbEntity
  8
1
  6
CONTINUOUS
 62
     4
100
AcDbLine
 10
401.0061
 20
65.0595
 30
0.0
 11
403.9821
 21
62.9715
 31
0.0
  0
LINE
  5
24F
100
AcDbEntity
  8
1
  6
CONTINUOUS
 62
     4
100
AcDbLine
 10
400.4541
 20
64.1475
 30
0.0
 11
403.4301
 21
62.0595
 31
0.0
  0
LINE
  5
250
100
AcDbEntity
  8
1
  6
CONTINUOUS
 62
     4
100
AcDbLine
 10
399.9261
 20
63.3315
 30
0.0
 11
402.8781
 21
61.2435
 31
0.0
  0
LINE
  5
251
100
AcDbEntity
  8
1
  6
CONTINUOUS
 62
     4
100
AcDbLine
 10
403.9341
 20
62.7795
 30
0.0
 11
406.0221
 21
65.7555
 31
0.0
  0
LINE
  5
252
100
AcDbEntity
  8
1
  6
CONTINUOUS
 62
     4
100
AcDbLine
 10
404.9421
 20
62.8755
 30
0.0
 11
407.0301
 21
65.8515
 31
0.0
  0
LINE
  5
253
100
AcDbEntity
  8
1
  6
CONTINUOUS
 62
     4
100
AcDbLine
 10
405.9261
 20
62.7795
 30
0.0
 11
408.0141
 21
65.7555
 31
0.0
  0
LINE
  5
254
100
AcDbEntity
  8
1
  6
CONTINUOUS
 62
     4
100
AcDbLine
 10
406.8381
 20
62.6115
 30
0.0
 11
408.9261
 21
65.5635
 31
0.0
  0
LINE
  5
255
100
AcDbEntity
  8
1
  6
CONTINUOUS
 62
     4
100
AcDbLine
 10
408.9021
 20
65.4915
 30
0.0
 11
411.8781
 21
63.4275
 31
0.0
  0
LINE
  5
256
100
AcDbEntity
  8
1
  6
CONTINUOUS
 62
     4
100
AcDbLine
 10
408.4461
 20
64.8675
 30
0.0
 11
411.4221
 21
62.7795
 31
0.0
  0
LINE
  5
257
100
AcDbEntity
  8
1
  6
CONTINUOUS
 62
     4
100
AcDbLine
 10
407.8941
 20
64.3155
 30
0.0
 11
410.8701
 21
62.2515
 31
0.0
  0
LINE
  5
258
100
AcDbEntity
  8
1
  6
CONTINUOUS
 62
     4
100
AcDbLine
 10
407.5341
 20
63.6915
 30
0.0
 11
410.5101
 21
61.6035
 31
0.0
  0
LINE
  5
259
100
AcDbEntity
  8
1
  6
CONTINUOUS
 62
     4
100
AcDbLine
 10
411.2061
 20
62.7795
 30
0.0
 11
413.2701
 21
65.7555
 31
0.0
  0
LINE
  5
25A
100
AcDbEntity
  8
1
  6
CONTINUOUS
 62
     4
100
AcDbLine
 10
411.9261
 20
62.6115
 30
0.0
 11
414.0141
 21
65.5635
 31
0.0
  0
LINE
  5
25B
100
AcDbEntity
  8
1
  6
CONTINUOUS
 62
     4
100
AcDbLine
 10
412.9341
 20
62.6115
 30
0.0
 11
414.9981
 21
65.5635
 31
0.0
  0
LINE
  5
25C
100
AcDbEntity
  8
1
  6
CONTINUOUS
 62
     4
100
AcDbLine
 10
416.6061
 20
63.7875
 30
0.0
 11
419.5821
 21
61.6995
 31
0.0
  0
LINE
  5
25D
100
AcDbEntity
  8
1
  6
CONTINUOUS
 62
     4
100
AcDbLine
 10
416.6061
 20
64.6755
 30
0.0
 11
419.5821
 21
62.6115
 31
0.0
  0
LINE
  5
25E
100
AcDbEntity
  8
1
  6
CONTINUOUS
 62
     4
100
AcDbLine
 10
417.3261
 20
65.6835
 30
0.0
 11
420.3021
 21
63.5955
 31
0.0
  0
LINE
  5
25F
100
AcDbEntity
  8
1
  6
CONTINUOUS
 62
     4
100
AcDbLine
 10
419.6301
 20
62.6115
 30
0.0
 11
421.7181
 21
65.5635
 31
0.0
  0
LINE
  5
260
100
AcDbEntity
  8
1
  6
CONTINUOUS
 62
     4
100
AcDbLine
 10
420.8301
 20
62.8755
 30
0.0
 11
422.8941
 21
65.8515
 31
0.0
  0
LINE
  5
261
100
AcDbEntity
  8
1
  6
CONTINUOUS
 62
     4
100
AcDbLine
 10
421.9101
 20
62.6115
 30
0.0
 11
423.9981
 21
65.5635
 31
0.0
  0
LINE
  5
262
100
AcDbEntity
  8
1
  6
CONTINUOUS
 62
     4
100
AcDbLine
 10
424.0461
 20
65.5875
 30
0.0
 11
427.0221
 21
63.5235
 31
0.0
  0
LINE
  5
263
100
AcDbEntity
  8
1
  6
CONTINUOUS
 62
     4
100
AcDbLine
 10
423.4221
 20
64.6755
 30
0.0
 11
426.3981
 21
62.6115
 31
0.0
  0
LINE
  5
264
100
AcDbEntity
  8
1
  6
CONTINUOUS
 62
     4
100
AcDbLine
 10
422.9661
 20
64.1475
 30
0.0
 11
425.9421
 21
62.0595
 31
0.0
  0
LINE
  5
265
100
AcDbEntity
  8
1
  6
CONTINUOUS
 62
     4
100
AcDbLine
 10
422.3181
 20
63.1395
 30
0.0
 11
425.2941
 21
61.0515
 31
0.0
  0
LINE
  5
266
100
AcDbEntity
  8
1
  6
CONTINUOUS
 62
     4
100
AcDbLine
 10
426.4461
 20
62.6835
 30
0.0
 11
428.5341
 21
65.6595
 31
0.0
  0
LINE
  5
267
100
AcDbEntity
  8
1
  6
CONTINUOUS
 62
     4
100
AcDbLine
 10
427.4541
 20
62.7795
 30
0.0
 11
429.5181
 21
65.7555
 31
0.0
  0
LINE
  5
268
100
AcDbEntity
  8
1
  6
CONTINUOUS
 62
     4
100
AcDbLine
 10
428.5341
 20
62.6115
 30
0.0
 11
430.6221
 21
65.5635
 31
0.0
  0
LINE
  5
269
100
AcDbEntity
  8
1
  6
CONTINUOUS
 62
     4
100
AcDbLine
 10
429.8061
 20
62.6835
 30
0.0
 11
431.8941
 21
65.6595
 31
0.0
  0
LINE
  5
26A
100
AcDbEntity
  8
1
  6
CONTINUOUS
 62
     4
100
AcDbLine
 10
432.0381
 20
65.5875
 30
0.0
 11
435.0141
 21
63.5235
 31
0.0
  0
LINE
  5
26B
100
AcDbEntity
  8
1
  6
CONTINUOUS
 62
     4
100
AcDbLine
 10
431.4141
 20
64.9635
 30
0.0
 11
434.3661
 21
62.8755
 31
0.0
  0
LINE
  5
26C
100
AcDbEntity
  8
1
  6
CONTINUOUS
 62
     4
100
AcDbLine
 10
430.8621
 20
64.1475
 30
0.0
 11
433.8381
 21
62.0595
 31
0.0
  0
LINE
  5
26D
100
AcDbEntity
  8
1
  6
CONTINUOUS
 62
     4
100
AcDbLine
 10
430.3101
 20
63.4275
 30
0.0
 11
433.2861
 21
61.3395
 31
0.0
  0
LINE
  5
26E
100
AcDbEntity
  8
1
  6
CONTINUOUS
 62
     4
100
AcDbLine
 10
434.0781
 20
62.7795
 30
0.0
 11
436.1421
 21
65.7555
 31
0.0
  0
LINE
  5
26F
100
AcDbEntity
  8
1
  6
CONTINUOUS
 62
     4
100
AcDbLine
 10
434.7021
 20
62.5155
 30
0.0
 11
436.7901
 21
65.4915
 31
0.0
  0
LINE
  5
270
100
AcDbEntity
  8
1
  6
CONTINUOUS
 62
     4
100
AcDbLine
 10
435.9741
 20
62.7795
 30
0.0
 11
438.0621
 21
65.7555
 31
0.0
  0
LINE
  5
271
100
AcDbEntity
  8
1
  6
CONTINUOUS
 62
     4
100
AcDbLine
 10
436.6941
 20
62.5155
 30
0.0
 11
438.7821
 21
65.4915
 31
0.0
  0
LINE
  5
272
100
AcDbEntity
  8
1
  6
CONTINUOUS
 62
     4
100
AcDbLine
 10
438.7581
 20
65.6835
 30
0.0
 11
441.7341
 21
63.5955
 31
0.0
  0
LINE
  5
273
100
AcDbEntity
  8
1
  6
CONTINUOUS
 62
     4
100
AcDbLine
 10
438.2061
 20
64.7715
 30
0.0
 11
441.1821
 21
62.7075
 31
0.0
  0
LINE
  5
274
100
AcDbEntity
  8
1
  6
CONTINUOUS
 62
     4
100
AcDbLine
 10
437.7501
 20
63.7875
 30
0.0
 11
440.7261
 21
61.6995
 31
0.0
  0
LINE
  5
275
100
AcDbEntity
  8
1
  6
CONTINUOUS
 62
     4
100
AcDbLine
 10
437.0301
 20
62.8755
 30
0.0
 11
440.0061
 21
60.7875
 31
0.0
  0
LINE
  5
276
100
AcDbEntity
  8
1
  6
CONTINUOUS
 62
     4
100
AcDbLine
 10
440.7021
 20
62.6835
 30
0.0
 11
442.7661
 21
65.6595
 31
0.0
  0
LINE
  5
277
100
AcDbEntity
  8
1
  6
CONTINUOUS
 62
     4
100
AcDbLine
 10
441.5901
 20
62.5155
 30
0.0
 11
443.6781
 21
65.4915
 31
0.0
  0
LINE
  5
278
100
AcDbEntity
  8
1
  6
CONTINUOUS
 62
     4
100
AcDbLine
 10
442.1421
 20
62.0595
 30
0.0
 11
444.2301
 21
65.0355
 31
0.0
  0
LINE
  5
279
100
AcDbEntity
  8
1
  6
CONTINUOUS
 62
     4
100
AcDbLine
 10
442.9341
 20
66.4035
 30
0.0
 11
445.9101
 21
64.3395
 31
0.0
  0
LINE
  5
27A
100
AcDbEntity
  8
1
  6
CONTINUOUS
 62
     4
100
AcDbLine
 10
442.9341
 20
67.8675
 30
0.0
 11
445.9101
 21
65.7795
 31
0.0
  0
LINE
  5
27B
100
AcDbEntity
  8
1
  6
CONTINUOUS
 62
     4
100
AcDbLine
 10
443.0061
 20
69.1395
 30
0.0
 11
445.9821
 21
67.0515
 31
0.0
  0
LINE
  5
27C
100
AcDbEntity
  8
1
  6
CONTINUOUS
 62
     4
100
AcDbLine
 10
442.6941
 20
69.4035
 30
0.0
 11
444.7581
 21
72.3795
 31
0.0
  0
LINE
  5
27D
100
AcDbEntity
  8
1
  6
CONTINUOUS
 62
     4
100
AcDbLine
 10
443.0541
 20
68.8515
 30
0.0
 11
445.1421
 21
71.8275
 31
0.0
  0
LINE
  5
27E
100
AcDbEntity
  8
1
  6
CONTINUOUS
 62
     4
100
AcDbLine
 10
443.8701
 20
68.6835
 30
0.0
 11
445.9581
 21
71.6595
 31
0.0
  0
LINE
  5
27F
100
AcDbEntity
  8
1
  6
CONTINUOUS
 62
     4
100
AcDbLine
 10
442.8381
 20
74.2035
 30
0.0
 11
445.8141
 21
72.1395
 31
0.0
  0
LINE
  5
280
100
AcDbEntity
  8
1
  6
CONTINUOUS
 62
     4
100
AcDbLine
 10
442.8381
 20
75.4035
 30
0.0
 11
445.8141
 21
73.3155
 31
0.0
  0
LINE
  5
281
100
AcDbEntity
  8
1
  6
CONTINUOUS
 62
     4
100
AcDbLine
 10
442.8381
 20
76.2195
 30
0.0
 11
445.8141
 21
74.1315
 31
0.0
  0
LINE
  5
282
100
AcDbEntity
  8
1
  6
CONTINUOUS
 62
     4
100
AcDbLine
 10
442.7421
 20
77.4915
 30
0.0
 11
445.7181
 21
75.4035
 31
0.0
  0
LINE
  5
283
100
AcDbEntity
  8
1
  6
CONTINUOUS
 62
     4
100
AcDbLine
 10
442.8621
 20
77.6595
 30
0.0
 11
444.9501
 21
80.6355
 31
0.0
  0
LINE
  5
284
100
AcDbEntity
  8
1
  6
CONTINUOUS
 62
     4
100
AcDbLine
 10
443.3181
 20
77.1315
 30
0.0
 11
445.4061
 21
80.0835
 31
0.0
  0
LINE
  5
285
100
AcDbEntity
  8
1
  6
CONTINUOUS
 62
     4
100
AcDbLine
 10
444.0381
 20
76.3875
 30
0.0
 11
446.1261
 21
79.3635
 31
0.0
  0
LINE
  5
286
100
AcDbEntity
  8
1
  6
CONTINUOUS
 62
     4
100
AcDbLine
 10
444.9501
 20
75.5715
 30
0.0
 11
447.0381
 21
78.5475
 31
0.0
  0
LINE
  5
287
100
AcDbEntity
  8
1
  6
CONTINUOUS
 62
     4
100
AcDbLine
 10
442.7421
 20
82.5555
 30
0.0
 11
445.7181
 21
80.4915
 31
0.0
  0
LINE
  5
288
100
AcDbEntity
  8
1
  6
CONTINUOUS
 62
     4
100
AcDbLine
 10
442.9341
 20
83.4675
 30
0.0
 11
445.9101
 21
81.3795
 31
0.0
  0
LINE
  5
289
100
AcDbEntity
  8
1
  6
CONTINUOUS
 62
     4
100
AcDbLine
 10
442.9341
 20
84.6435
 30
0.0
 11
445.9101
 21
82.5795
 31
0.0
  0
LINE
  5
28A
100
AcDbEntity
  8
1
  6
CONTINUOUS
 62
     4
100
AcDbLine
 10
442.8381
 20
86.0115
 30
0.0
 11
445.8141
 21
83.9235
 31
0.0
  0
LINE
  5
28B
100
AcDbEntity
  8
1
  6
CONTINUOUS
 62
     4
100
AcDbLine
 10
442.8621
 20
86.3715
 30
0.0
 11
444.9501
 21
89.3475
 31
0.0
  0
LINE
  5
28C
100
AcDbEntity
  8
1
  6
CONTINUOUS
 62
     4
100
AcDbLine
 10
443.5101
 20
85.9155
 30
0.0
 11
445.5981
 21
88.8915
 31
0.0
  0
LINE
  5
28D
100
AcDbEntity
  8
1
  6
CONTINUOUS
 62
     4
100
AcDbLine
 10
444.1341
 20
85.2915
 30
0.0
 11
446.2221
 21
88.2675
 31
0.0
  0
LINE
  5
28E
100
AcDbEntity
  8
1
  6
CONTINUOUS
 62
     4
100
AcDbLine
 10
445.0461
 20
84.3795
 30
0.0
 11
447.1341
 21
87.3555
 31
0.0
  0
LINE
  5
28F
100
AcDbEntity
  8
1
  6
CONTINUOUS
 62
     4
100
AcDbLine
 10
442.5741
 20
91.2675
 30
0.0
 11
445.5261
 21
89.2035
 31
0.0
  0
LINE
  5
290
100
AcDbEntity
  8
1
  6
CONTINUOUS
 62
     4
100
AcDbLine
 10
442.6461
 20
92.0835
 30
0.0
 11
445.6221
 21
90.0195
 31
0.0
  0
LINE
  5
291
100
AcDbEntity
  8
1
  6
CONTINUOUS
 62
     4
100
AcDbLine
 10
442.5741
 20
93.3555
 30
0.0
 11
445.5261
 21
91.2915
 31
0.0
  0
LINE
  5
292
100
AcDbEntity
  8
1
  6
CONTINUOUS
 62
     4
100
AcDbLine
 10
442.6461
 20
94.3635
 30
0.0
 11
445.6221
 21
92.2755
 31
0.0
  0
LINE
  5
293
100
AcDbEntity
  8
1
  6
CONTINUOUS
 62
     4
100
AcDbLine
 10
442.7901
 20
94.3635
 30
0.0
 11
444.8541
 21
97.3395
 31
0.0
  0
LINE
  5
294
100
AcDbEntity
  8
1
  6
CONTINUOUS
 62
     4
100
AcDbLine
 10
443.4141
 20
93.8115
 30
0.0
 11
445.5021
 21
96.7875
 31
0.0
  0
LINE
  5
295
100
AcDbEntity
  8
1
  6
CONTINUOUS
 62
     4
100
AcDbLine
 10
444.3261
 20
93.1875
 30
0.0
 11
446.4141
 21
96.1635
 31
0.0
  0
LINE
  5
296
100
AcDbEntity
  8
1
  6
CONTINUOUS
 62
     4
100
AcDbLine
 10
445.2381
 20
92.4675
 30
0.0
 11
447.3021
 21
95.4195
 31
0.0
  0
LINE
  5
297
100
AcDbEntity
  8
1
  6
CONTINUOUS
 62
     4
100
AcDbLine
 10
442.7421
 20
99.1635
 30
0.0
 11
445.7181
 21
97.0995
 31
0.0
  0
LINE
  5
298
100
AcDbEntity
  8
1
  6
CONTINUOUS
 62
     4
100
AcDbLine
 10
442.8381
 20
100.2675
 30
0.0
 11
445.8141
 21
98.1795
 31
0.0
  0
LINE
  5
299
100
AcDbEntity
  8
1
  6
CONTINUOUS
 62
     4
100
AcDbLine
 10
442.7421
 20
101.3475
 30
0.0
 11
445.7181
 21
99.2595
 31
0.0
  0
LINE
  5
29A
100
AcDbEntity
  8
1
  6
CONTINUOUS
 62
     4
100
AcDbLine
 10
442.7421
 20
102.1635
 30
0.0
 11
445.7181
 21
100.0755
 31
0.0
  0
LINE
  5
29B
100
AcDbEntity
  8
1
  6
CONTINUOUS
 62
     4
100
AcDbLine
 10
442.6941
 20
102.3555
 30
0.0
 11
444.7581
 21
105.3075
 31
0.0
  0
LINE
  5
29C
100
AcDbEntity
  8
1
  6
CONTINUOUS
 62
     4
100
AcDbLine
 10
443.4141
 20
101.8995
 30
0.0
 11
445.5021
 21
104.8755
 31
0.0
  0
LINE
  5
29D
100
AcDbEntity
  8
1
  6
CONTINUOUS
 62
     4
100
AcDbLine
 10
444.0381
 20
101.3475
 30
0.0
 11
446.1261
 21
104.3235
 31
0.0
  0
LINE
  5
29E
100
AcDbEntity
  8
1
  6
CONTINUOUS
 62
     4
100
AcDbLine
 10
444.8781
 20
100.6275
 30
0.0
 11
446.9421
 21
103.6035
 31
0.0
  0
LINE
  5
29F
100
AcDbEntity
  8
1
  6
CONTINUOUS
 62
     4
100
AcDbLine
 10
442.9341
 20
106.8915
 30
0.0
 11
445.9101
 21
104.8035
 31
0.0
  0
LINE
  5
2A0
100
AcDbEntity
  8
1
  6
CONTINUOUS
 62
     4
100
AcDbLine
 10
442.9341
 20
108.0675
 30
0.0
 11
445.9101
 21
105.9795
 31
0.0
  0
LINE
  5
2A1
100
AcDbEntity
  8
1
  6
CONTINUOUS
 62
     4
100
AcDbLine
 10
442.9341
 20
108.9795
 30
0.0
 11
445.9101
 21
106.8915
 31
0.0
  0
LINE
  5
2A2
100
AcDbEntity
  8
1
  6
CONTINUOUS
 62
     4
100
AcDbLine
 10
442.8381
 20
110.6115
 30
0.0
 11
445.8141
 21
108.5235
 31
0.0
  0
LINE
  5
2A3
100
AcDbEntity
  8
1
  6
CONTINUOUS
 62
     4
100
AcDbLine
 10
442.8621
 20
110.8755
 30
0.0
 11
444.9501
 21
113.8515
 31
0.0
  0
LINE
  5
2A4
100
AcDbEntity
  8
1
  6
CONTINUOUS
 62
     4
100
AcDbLine
 10
443.2221
 20
110.2515
 30
0.0
 11
445.3101
 21
113.2035
 31
0.0
  0
LINE
  5
2A5
100
AcDbEntity
  8
1
  6
CONTINUOUS
 62
     4
100
AcDbLine
 10
444.1341
 20
109.6995
 30
0.0
 11
446.2221
 21
112.6755
 31
0.0
  0
LINE
  5
2A6
100
AcDbEntity
  8
1
  6
CONTINUOUS
 62
     4
100
AcDbLine
 10
445.0461
 20
108.8835
 30
0.0
 11
447.1341
 21
111.8595
 31
0.0
  0
LINE
  5
2A7
100
AcDbEntity
  8
1
  6
CONTINUOUS
 62
     4
100
AcDbLine
 10
442.4781
 20
115.7715
 30
0.0
 11
445.4541
 21
113.6835
 31
0.0
  0
LINE
  5
2A8
100
AcDbEntity
  8
1
  6
CONTINUOUS
 62
     4
100
AcDbLine
 10
442.8381
 20
116.4915
 30
0.0
 11
445.8141
 21
114.4275
 31
0.0
  0
LINE
  5
2A9
100
AcDbEntity
  8
1
  6
CONTINUOUS
 62
     4
100
AcDbLine
 10
442.8381
 20
117.0435
 30
0.0
 11
445.8141
 21
114.9555
 31
0.0
  0
LINE
  5
2AA
100
AcDbEntity
  8
1
  6
CONTINUOUS
 62
     4
100
AcDbLine
 10
442.5741
 20
118.1235
 30
0.0
 11
445.5261
 21
116.0595
 31
0.0
  0
LINE
  5
2AB
100
AcDbEntity
  8
1
  6
CONTINUOUS
 62
     4
100
AcDbLine
 10
442.5981
 20
117.4995
 30
0.0
 11
444.6861
 21
120.4755
 31
0.0
  0
LINE
  5
2AC
100
AcDbEntity
  8
1
  6
CONTINUOUS
 62
     4
100
AcDbLine
 10
443.3181
 20
117.1395
 30
0.0
 11
445.4061
 21
120.1155
 31
0.0
  0
LINE
  5
2AD
100
AcDbEntity
  8
1
  6
CONTINUOUS
 62
     4
100
AcDbLine
 10
444.2301
 20
116.6835
 30
0.0
 11
446.3181
 21
119.6595
 31
0.0
  0
LINE
  5
2AE
100
AcDbEntity
  8
1
  6
CONTINUOUS
 62
     4
100
AcDbLine
 10
445.2381
 20
116.4195
 30
0.0
 11
447.3021
 21
119.3955
 31
0.0
  0
LINE
  5
2AF
100
AcDbEntity
  8
1
  6
CONTINUOUS
 62
     4
100
AcDbLine
 10
442.8381
 20
121.5795
 30
0.0
 11
445.8141
 21
119.4915
 31
0.0
  0
LINE
  5
2B0
100
AcDbEntity
  8
1
  6
CONTINUOUS
 62
     4
100
AcDbLine
 10
442.9341
 20
122.3955
 30
0.0
 11
445.9101
 21
120.3075
 31
0.0
  0
LINE
  5
2B1
100
AcDbEntity
  8
1
  6
CONTINUOUS
 62
     4
100
AcDbLine
 10
443.2941
 20
123.1155
 30
0.0
 11
446.2701
 21
121.0515
 31
0.0
  0
LINE
  5
2B2
100
AcDbEntity
  8
1
  6
CONTINUOUS
 62
     4
100
AcDbLine
 10
444.4701
 20
123.2115
 30
0.0
 11
447.4461
 21
121.1235
 31
0.0
  0
LINE
  5
2B3
100
AcDbEntity
  8
1
  6
CONTINUOUS
 62
     4
100
AcDbLine
 10
442.8621
 20
125.4915
 30
0.0
 11
444.9501
 21
128.4675
 31
0.0
  0
LINE
  5
2B4
100
AcDbEntity
  8
1
  6
CONTINUOUS
 62
     4
100
AcDbLine
 10
443.6781
 20
125.2035
 30
0.0
 11
445.7661
 21
128.1795
 31
0.0
  0
LINE
  5
2B5
100
AcDbEntity
  8
1
  6
CONTINUOUS
 62
     4
100
AcDbLine
 10
444.7821
 20
125.0355
 30
0.0
 11
446.8461
 21
128.0115
 31
0.0
  0
LINE
  5
2B6
100
AcDbEntity
  8
1
  6
CONTINUOUS
 62
     4
100
AcDbLine
 10
445.6941
 20
125.1315
 30
0.0
 11
447.7581
 21
128.1075
 31
0.0
  0
LINE
  5
2B7
100
AcDbEntity
  8
1
  6
CONTINUOUS
 62
     4
100
AcDbLine
 10
442.7421
 20
130.3875
 30
0.0
 11
445.7181
 21
128.2995
 31
0.0
  0
LINE
  5
2B8
100
AcDbEntity
  8
1
  6
CONTINUOUS
 62
     4
100
AcDbLine
 10
442.7421
 20
131.2995
 30
0.0
 11
445.7181
 21
129.2115
 31
0.0
  0
LINE
  5
2B9
100
AcDbEntity
  8
1
  6
CONTINUOUS
 62
     4
100
AcDbLine
 10
442.6461
 20
132.2835
 30
0.0
 11
445.6221
 21
130.2195
 31
0.0
  0
LINE
  5
2BA
100
AcDbEntity
  8
1
  6
CONTINUOUS
 62
     4
100
AcDbLine
 10
442.3821
 20
133.3875
 30
0.0
 11
445.3581
 21
131.2995
 31
0.0
  0
LINE
  5
2BB
100
AcDbEntity
  8
1
  6
CONTINUOUS
 62
     4
100
AcDbLine
 10
442.7901
 20
133.2915
 30
0.0
 11
444.8541
 21
136.2675
 31
0.0
  0
LINE
  5
2BC
100
AcDbEntity
  8
1
  6
CONTINUOUS
 62
     4
100
AcDbLine
 10
443.6061
 20
133.0275
 30
0.0
 11
445.6701
 21
135.9795
 31
0.0
  0
LINE
  5
2BD
100
AcDbEntity
  8
1
  6
CONTINUOUS
 62
     4
100
AcDbLine
 10
444.0381
 20
132.6675
 30
0.0
 11
446.1261
 21
135.6195
 31
0.0
  0
LINE
  5
2BE
100
AcDbEntity
  8
1
  6
CONTINUOUS
 62
     4
100
AcDbLine
 10
444.9501
 20
131.7555
 30
0.0
 11
447.0381
 21
134.7315
 31
0.0
  0
LINE
  5
2BF
100
AcDbEntity
  8
1
  6
CONTINUOUS
 62
     4
100
AcDbLine
 10
442.7421
 20
137.9235
 30
0.0
 11
445.7181
 21
135.8355
 31
0.0
  0
LINE
  5
2C0
100
AcDbEntity
  8
1
  6
CONTINUOUS
 62
     4
100
AcDbLine
 10
442.7421
 20
139.0995
 30
0.0
 11
445.7181
 21
137.0115
 31
0.0
  0
LINE
  5
2C1
100
AcDbEntity
  8
1
  6
CONTINUOUS
 62
     4
100
AcDbLine
 10
442.7421
 20
140.0835
 30
0.0
 11
445.7181
 21
138.0195
 31
0.0
  0
LINE
  5
2C2
100
AcDbEntity
  8
1
  6
CONTINUOUS
 62
     4
100
AcDbLine
 10
442.5741
 20
141.2835
 30
0.0
 11
445.5261
 21
139.1955
 31
0.0
  0
LINE
  5
2C3
100
AcDbEntity
  8
1
  6
CONTINUOUS
 62
     4
100
AcDbLine
 10
442.7901
 20
141.3555
 30
0.0
 11
444.8541
 21
144.3315
 31
0.0
  0
LINE
  5
2C4
100
AcDbEntity
  8
1
  6
CONTINUOUS
 62
     4
100
AcDbLine
 10
443.4141
 20
140.8275
 30
0.0
 11
445.5021
 21
143.8035
 31
0.0
  0
LINE
  5
2C5
100
AcDbEntity
  8
1
  6
CONTINUOUS
 62
     4
100
AcDbLine
 10
444.1341
 20
140.3715
 30
0.0
 11
446.2221
 21
143.3475
 31
0.0
  0
LINE
  5
2C6
100
AcDbEntity
  8
1
  6
CONTINUOUS
 62
     4
100
AcDbLine
 10
444.9501
 20
139.8195
 30
0.0
 11
447.0381
 21
142.7955
 31
0.0
  0
LINE
  5
2C7
100
AcDbEntity
  8
1
  6
CONTINUOUS
 62
     4
100
AcDbLine
 10
442.6461
 20
146.2755
 30
0.0
 11
445.6221
 21
144.1875
 31
0.0
  0
LINE
  5
2C8
100
AcDbEntity
  8
1
  6
CONTINUOUS
 62
     4
100
AcDbLine
 10
442.7421
 20
147.8115
 30
0.0
 11
445.7181
 21
145.7235
 31
0.0
  0
LINE
  5
2C9
100
AcDbEntity
  8
1
  6
CONTINUOUS
 62
     4
100
AcDbLine
 10
442.7421
 20
147.1635
 30
0.0
 11
445.7181
 21
145.0995
 31
0.0
  0
LINE
  5
2CA
100
AcDbEntity
  8
1
  6
CONTINUOUS
 62
     4
100
AcDbLine
 10
442.8381
 20
148.6275
 30
0.0
 11
445.8141
 21
146.5395
 31
0.0
  0
LINE
  5
2CB
100
AcDbEntity
  8
1
  6
CONTINUOUS
 62
     4
100
AcDbLine
 10
442.8621
 20
148.7235
 30
0.0
 11
444.9501
 21
151.6995
 31
0.0
  0
LINE
  5
2CC
100
AcDbEntity
  8
1
  6
CONTINUOUS
 62
     4
100
AcDbLine
 10
443.6061
 20
148.1715
 30
0.0
 11
445.6701
 21
151.1475
 31
0.0
  0
LINE
  5
2CD
100
AcDbEntity
  8
1
  6
CONTINUOUS
 62
     4
100
AcDbLine
 10
444.2301
 20
147.8115
 30
0.0
 11
446.3181
 21
150.7875
 31
0.0
  0
LINE
  5
2CE
100
AcDbEntity
  8
1
  6
CONTINUOUS
 62
     4
100
AcDbLine
 10
445.3101
 20
147.0915
 30
0.0
 11
447.3981
 21
150.0675
 31
0.0
  0
LINE
  5
2CF
100
AcDbEntity
  8
1
  6
CONTINUOUS
 62
     4
100
AcDbLine
 10
441.4701
 20
153.2595
 30
0.0
 11
444.4461
 21
151.1715
 31
0.0
  0
LINE
  5
2D0
100
AcDbEntity
  8
1
  6
CONTINUOUS
 62
     4
100
AcDbLine
 10
442.2861
 20
153.7875
 30
0.0
 11
445.2621
 21
151.7235
 31
0.0
  0
LINE
  5
2D1
100
AcDbEntity
  8
1
  6
CONTINUOUS
 62
     4
100
AcDbLine
 10
444.2061
 20
154.0755
 30
0.0
 11
447.1821
 21
151.9875
 31
0.0
  0
LINE
  5
2D2
100
AcDbEntity
  8
1
  6
CONTINUOUS
 62
     4
100
AcDbLine
 10
446.6781
 20
151.2675
 30
0.0
 11
448.7661
 21
154.2195
 31
0.0
  0
LINE
  5
2D3
100
AcDbEntity
  8
1
  6
CONTINUOUS
 62
     4
100
AcDbLine
 10
447.6861
 20
151.0755
 30
0.0
 11
449.7501
 21
154.0515
 31
0.0
  0
LINE
  5
2D4
100
AcDbEntity
  8
1
  6
CONTINUOUS
 62
     4
100
AcDbLine
 10
448.7661
 20
150.9795
 30
0.0
 11
450.8541
 21
153.9555
 31
0.0
  0
LINE
  5
2D5
100
AcDbEntity
  8
1
  6
CONTINUOUS
 62
     4
100
AcDbLine
 10
449.7741
 20
150.9795
 30
0.0
 11
451.8381
 21
153.9555
 31
0.0
  0
LINE
  5
2D6
100
AcDbEntity
  8
1
  6
CONTINUOUS
 62
     4
100
AcDbLine
 10
451.8141
 20
153.9795
 30
0.0
 11
454.7901
 21
151.8915
 31
0.0
  0
LINE
  5
2D7
100
AcDbEntity
  8
1
  6
CONTINUOUS
 62
     4
100
AcDbLine
 10
451.1901
 20
153.0675
 30
0.0
 11
454.1661
 21
150.9795
 31
0.0
  0
LINE
  5
2D8
100
AcDbEntity
  8
1
  6
CONTINUOUS
 62
     4
100
AcDbLine
 10
450.8301
 20
152.5155
 30
0.0
 11
453.8061
 21
150.4515
 31
0.0
  0
LINE
  5
2D9
100
AcDbEntity
  8
1
  6
CONTINUOUS
 62
     4
100
AcDbLine
 10
450.3741
 20
151.7955
 30
0.0
 11
453.3501
 21
149.7315
 31
0.0
  0
LINE
  5
2DA
100
AcDbEntity
  8
1
  6
CONTINUOUS
 62
     4
100
AcDbLine
 10
454.0221
 20
151.0755
 30
0.0
 11
456.1101
 21
154.0515
 31
0.0
  0
LINE
  5
2DB
100
AcDbEntity
  8
1
  6
CONTINUOUS
 62
     4
100
AcDbLine
 10
455.0301
 20
150.9795
 30
0.0
 11
457.1181
 21
153.9555
 31
0.0
  0
LINE
  5
2DC
100
AcDbEntity
  8
1
  6
CONTINUOUS
 62
     4
100
AcDbLine
 10
455.8461
 20
150.9795
 30
0.0
 11
457.9341
 21
153.9555
 31
0.0
  0
LINE
  5
2DD
100
AcDbEntity
  8
1
  6
CONTINUOUS
 62
     4
100
AcDbLine
 10
456.4701
 20
150.9795
 30
0.0
 11
458.5581
 21
153.9555
 31
0.0
  0
LINE
  5
2DE
100
AcDbEntity
  8
1
  6
CONTINUOUS
 62
     4
100
AcDbLine
 10
458.4381
 20
154.0755
 30
0.0
 11
461.4141
 21
151.9875
 31
0.0
  0
LINE
  5
2DF
100
AcDbEntity
  8
1
  6
CONTINUOUS
 62
     4
100
AcDbLine
 10
457.8141
 20
153.0675
 30
0.0
 11
460.7901
 21
150.9795
 31
0.0
  0
LINE
  5
2E0
100
AcDbEntity
  8
1
  6
CONTINUOUS
 62
     4
100
AcDbLine
 10
457.2621
 20
152.1555
 30
0.0
 11
460.2381
 21
150.0915
 31
0.0
  0
LINE
  5
2E1
100
AcDbEntity
  8
1
  6
CONTINUOUS
 62
     4
100
AcDbLine
 10
456.8061
 20
151.3395
 30
0.0
 11
459.7821
 21
149.2755
 31
0.0
  0
LINE
  5
2E2
100
AcDbEntity
  8
1
  6
CONTINUOUS
 62
     4
100
AcDbLine
 10
382.5981
 20
123.7155
 30
0.0
 11
379.2621
 21
118.0755
 31
0.0
  0
LINE
  5
2E3
100
AcDbEntity
  8
1
  6
CONTINUOUS
 62
     4
100
AcDbLine
 10
379.2621
 20
118.0755
 30
0.0
 11
373.7901
 21
118.0755
 31
0.0
  0
LINE
  5
2E4
100
AcDbEntity
  8
1
  6
CONTINUOUS
 62
     4
100
AcDbLine
 10
394.1421
 20
122.9955
 30
0.0
 11
379.1661
 21
107.0115
 31
0.0
  0
LINE
  5
2E5
100
AcDbEntity
  8
1
  6
CONTINUOUS
 62
     4
100
AcDbLine
 10
379.1661
 20
107.0115
 30
0.0
 11
373.7616
 21
107.0115
 31
0.0
  0
LINE
  5
2E6
100
AcDbEntity
  8
1
  6
CONTINUOUS
 62
     4
100
AcDbLine
 10
383.2461
 20
100.4835
 30
0.0
 11
377.6061
 21
95.2995
 31
0.0
  0
LINE
  5
2E7
100
AcDbEntity
  8
1
  6
CONTINUOUS
 62
     4
100
AcDbLine
 10
377.6061
 20
95.2995
 30
0.0
 11
352.9821
 21
95.2995
 31
0.0
  0
CIRCLE
  5
2E8
100
AcDbEntity
  8
1
  6
CONTINUOUS
 62
     4
100
AcDbCircle
 10
430.521655
 20
166.273092
 30
0.0
 40
0.095084
210
0.0
220
0.0
230
1.0
  0
SPLINE
  5
2E9
100
AcDbEntity
  8
1
  6
CONTINUOUS
 62
     4
100
AcDbSpline
210
0.0
220
0.0
230
1.0
 70
     8
 71
     3
 72
    86
 73
    82
 74
     0
 42
0.0
 43
0.0
 12
0.3826834323670447
 22
-0.9238795325104771
 32
0.0
 13
0.8006501199586966
 23
-0.5991321936018166
 33
0.0
 40
0.0
 40
0.0
 40
0.0
 40
0.0
 40
0.0203169981731973
 40
0.0203169981731973
 40
0.0203169981731973
 40
0.0406339963463947
 40
0.0406339963463947
 40
0.0406339963463947
 40
0.0693665707096398
 40
0.0693665707096398
 40
0.0693665707096398
 40
0.0896835688828371
 40
0.0896835688828371
 40
0.0896835688828371
 40
0.1100005670560345
 40
0.1100005670560345
 40
0.1100005670560345
 40
0.1554307560700428
 40
0.1554307560700428
 40
0.1554307560700428
 40
0.1757477542432401
 40
0.1757477542432401
 40
0.1757477542432401
 40
0.2163817505896348
 40
0.2163817505896348
 40
0.2163817505896348
 40
0.2570157469360295
 40
0.2570157469360295
 40
0.2570157469360295
 40
0.3302697256130008
 40
0.3302697256130008
 40
0.3302697256130008
 40
0.3505867237861981
 40
0.3505867237861981
 40
0.3505867237861981
 40
0.3912207201325928
 40
0.3912207201325928
 40
0.3912207201325928
 40
0.4199532944958379
 40
0.4199532944958379
 40
0.4199532944958379
 40
0.4809042890154299
 40
0.4809042890154299
 40
0.4809042890154299
 40
0.5012212871886272
 40
0.5012212871886272
 40
0.5012212871886272
 40
0.541855283535022
 40
0.541855283535022
 40
0.541855283535022
 40
0.5872854725490303
 40
0.5872854725490303
 40
0.5872854725490303
 40
0.6327156615630386
 40
0.6327156615630386
 40
0.6327156615630386
 40
0.7059696402400099
 40
0.7059696402400099
 40
0.7059696402400099
 40
0.7872376329327993
 40
0.7872376329327993
 40
0.7872376329327993
 40
0.8075546311059966
 40
0.8075546311059966
 40
0.8075546311059966
 40
0.8278716292791939
 40
0.8278716292791939
 40
0.8278716292791939
 40
0.8685056256255886
 40
0.8685056256255886
 40
0.8685056256255886
 40
0.9139358146395969
 40
0.9139358146395969
 40
0.9139358146395969
 40
0.9342528128127943
 40
0.9342528128127943
 40
0.9342528128127943
 40
0.9545698109859917
 40
0.9545698109859917
 40
0.9545698109859917
 40
1.0
 40
1.0
 40
1.0
 40
1.0
 10
430.50210000000004
 20
166.31550000000001
 30
0.0
 10
430.50492842712481
 20
166.30867157287526
 30
0.0
 10
430.50210000000004
 20
166.29949999999999
 30
0.0
 10
430.50210000000004
 20
166.29150000000001
 30
0.0
 10
430.50210000000004
 20
166.2835
 30
0.0
 10
430.50210000000004
 20
166.27549999999999
 30
0.0
 10
430.50210000000004
 20
166.26750000000001
 30
0.0
 10
430.50210000000004
 20
166.25618629150102
 30
0.0
 10
430.51478629150103
 20
166.24350000000001
 30
0.0
 10
430.52610000000004
 20
166.24350000000001
 30
0.0
 10
430.53410000000002
 20
166.24350000000001
 30
0.0
 10
430.5421
 20
166.24350000000001
 30
0.0
 10
430.55010000000004
 20
166.24350000000001
 30
0.0
 10
430.55810000000002
 20
166.24350000000001
 30
0.0
 10
430.56610000000001
 20
166.24350000000001
 30
0.0
 10
430.57410000000004
 20
166.24350000000001
 30
0.0
 10
430.59198854382004
 20
166.24350000000001
 30
0.0
 10
430.56798854382004
 20
166.29150000000001
 30
0.0
 10
430.55010000000004
 20
166.29150000000001
 30
0.0
 10
430.5421
 20
166.29150000000001
 30
0.0
 10
430.53410000000002
 20
166.29150000000001
 30
0.0
 10
430.52610000000004
 20
166.29150000000001
 30
0.0
 10
430.51010000000002
 20
166.29150000000001
 30
0.0
 10
430.4941
 20
166.29150000000001
 30
0.0
 10
430.47810000000004
 20
166.29150000000001
 30
0.0
 10
430.46210000000002
 20
166.29150000000001
 30
0.0
 10
430.47239137324283
 20
166.24914961718088
 30
0.0
 10
430.47810000000004
 20
166.24350000000001
 30
0.0
 10
430.48839137324285
 20
166.2333150077838
 30
0.0
 10
430.52610000000004
 20
166.34434441020372
 30
0.0
 10
430.52610000000004
 20
166.31550000000001
 30
0.0
 10
430.52610000000004
 20
166.3075
 30
0.0
 10
430.52610000000004
 20
166.29949999999999
 30
0.0
 10
430.52610000000004
 20
166.29150000000001
 30
0.0
 10
430.52610000000004
 20
166.27549999999999
 30
0.0
 10
430.52610000000004
 20
166.2595
 30
0.0
 10
430.52610000000004
 20
166.24350000000001
 30
0.0
 10
430.52610000000004
 20
166.23218629150102
 30
0.0
 10
430.50678629150104
 20
166.22312465471458
 30
0.0
 10
430.50210000000004
 20
166.21950000000001
 30
0.0
 10
430.4921588745031
 20
166.21181094621559
 30
0.0
 10
430.47810000000004
 20
166.29150000000001
 30
0.0
 10
430.50210000000004
 20
166.29150000000001
 30
0.0
 10
430.51010000000002
 20
166.29150000000001
 30
0.0
 10
430.5181
 20
166.29150000000001
 30
0.0
 10
430.52610000000004
 20
166.29150000000001
 30
0.0
 10
430.5421
 20
166.29150000000001
 30
0.0
 10
430.573255417528
 20
166.29150000000001
 30
0.0
 10
430.57410000000004
 20
166.29150000000001
 30
0.0
 10
430.57504427191003
 20
166.29150000000001
 30
0.0
 10
430.5421
 20
166.31609974159821
 30
0.0
 10
430.52610000000004
 20
166.31550000000001
 30
0.0
 10
430.51010000000002
 20
166.31490025840182
 30
0.0
 10
430.4941
 20
166.30175836714756
 30
0.0
 10
430.47810000000004
 20
166.29150000000001
 30
0.0
 10
430.45230077520546
 20
166.27495887999598
 30
0.0
 10
430.52610000000004
 20
166.2349725950063
 30
0.0
 10
430.52610000000004
 20
166.21950000000001
 30
0.0
 10
430.52610000000004
 20
166.20233469702779
 30
0.0
 10
430.52610000000004
 20
166.32490153127648
 30
0.0
 10
430.52610000000004
 20
166.31550000000001
 30
0.0
 10
430.52610000000004
 20
166.3131496171809
 30
0.0
 10
430.52610000000004
 20
166.29416666666668
 30
0.0
 10
430.52610000000004
 20
166.29150000000001
 30
0.0
 10
430.52610000000004
 20
166.28883333333334
 30
0.0
 10
430.50457213595502
 20
166.28873606797751
 30
0.0
 10
430.50210000000004
 20
166.29150000000001
 30
0.0
 10
430.49715572809004
 20
166.29702786404499
 30
0.0
 10
430.4991760960379
 20
166.33950000000002
 30
0.0
 10
430.50210000000004
 20
166.33950000000002
 30
0.0
 10
430.50536902400944
 20
166.33950000000002
 30
0.0
 10
430.54398854382003
 20
166.29150000000001
 30
0.0
 10
430.52610000000004
 20
166.29150000000001
 30
0.0
 10
430.5181
 20
166.29150000000001
 30
0.0
 10
430.51010000000002
 20
166.29150000000001
 30
0.0
 10
430.50210000000004
 20
166.29150000000001
 30
0.0
 10
430.4941
 20
166.29150000000001
 30
0.0
 10
430.48610000000002
 20
166.29150000000001
 30
0.0
 10
430.47810000000004
 20
166.29150000000001
 30
0.0
 10
430.46021145617999
 20
166.29150000000001
 30
0.0
 10
430.51300218839816
 20
166.27730118581243
 30
0.0
 10
430.52610000000004
 20
166.26750000000001
 30
0.0
  0
LINE
  5
2EA
100
AcDbEntity
  8
1
  6
CONTINUOUS
 62
     4
100
AcDbLine
 10
430.5021
 20
166.2915
 30
0.0
 11
434.9661
 21
168.4755
 31
0.0
  0
ELLIPSE
  5
2EB
100
AcDbEntity
  8
1
  6
CONTINUOUS
 62
     1
100
AcDbEllipse
 10
469.558632
 20
152.562941
 30
0.0
 11
-0.1888790431376895
 21
2.1599828318510337
 31
0.0
210
0.0
220
0.0
230
1.0
 40
0.122415
 41
0.8963533496766982
 42
3.1415926535897931
  0
ELLIPSE
  5
2EC
100
AcDbEntity
  8
1
  6
CONTINUOUS
 62
     1
100
AcDbEllipse
 10
468.968469
 20
152.5275
 30
0.0
 11
0.2124662895528719
 21
2.1246020665154202
 31
0.0
210
0.0
220
0.0
230
1.0
 40
0.07063
 41
3.1407147529760402
 42
5.4181099545465106
  0
ELLIPSE
  5
2ED
100
AcDbEntity
  8
1
  6
CONTINUOUS
 62
     1
100
AcDbEllipse
 10
468.890208
 20
66.644328
 30
0.0
 11
0.1888790431376902
 21
-2.1599828318510337
 31
0.0
210
0.0
220
0.0
230
1.0
 40
0.122415
 41
0.8963533496766982
 42
3.1415926535897931
  0
ELLIPSE
  5
2EE
100
AcDbEntity
  8
1
  6
CONTINUOUS
 62
     1
100
AcDbEllipse
 10
469.480371
 20
66.679769
 30
0.0
 11
0.2124662895528719
 21
2.1246020665154202
 31
0.0
210
0.0
220
0.0
230
1.0
 40
0.07063
 41
6.2823074065658329
 42
2.276517300956717
  0
ELLIPSE
  5
2EF
100
AcDbEntity
  8
1
  6
CONTINUOUS
 62
     1
100
AcDbEllipse
 10
456.730502
 20
70.481884
 30
0.0
 11
0.1888790431376902
 21
-2.1599828318510337
 31
0.0
210
0.0
220
0.0
230
1.0
 40
0.122415
 41
0.8963533496766982
 42
3.1415926535897931
  0
ELLIPSE
  5
2F0
100
AcDbEntity
  8
1
  6
CONTINUOUS
 62
     1
100
AcDbEllipse
 10
457.320666
 20
70.517326
 30
0.0
 11
0.2124662895528719
 21
2.1246020665154202
 31
0.0
210
0.0
220
0.0
230
1.0
 40
0.07063
 41
6.2823074065658329
 42
2.276517300956717
  0
ELLIPSE
  5
2F1
100
AcDbEntity
  8
1
  6
CONTINUOUS
 62
     1
100
AcDbEllipse
 10
457.580468
 20
64.235328
 30
0.0
 11
-0.1888790431376895
 21
2.1599828318510337
 31
0.0
210
0.0
220
0.0
230
1.0
 40
0.122415
 41
0.8963533496766982
 42
3.1415926535897931
  0
ELLIPSE
  5
2F2
100
AcDbEntity
  8
1
  6
CONTINUOUS
 62
     1
100
AcDbEllipse
 10
456.990304
 20
64.199887
 30
0.0
 11
0.2124662895528719
 21
2.1246020665154202
 31
0.0
210
0.0
220
0.0
230
1.0
 40
0.07063
 41
3.1407147529760402
 42
5.4181099545465106
  0
ELLIPSE
  5
2F3
100
AcDbEntity
  8
1
  6
CONTINUOUS
 62
     1
100
AcDbEllipse
 10
425.592573
 20
167.048814
 30
0.0
 11
1.6608961598655541
 21
-1.3937808554137112
 31
0.0
210
0.0
220
0.0
230
1.0
 40
0.122415
 41
0.8963533496766982
 42
3.1415926535897931
  0
ELLIPSE
  5
2F4
100
AcDbEntity
  8
1
  6
CONTINUOUS
 62
     1
100
AcDbEllipse
 10
425.984821
 20
167.491184
 30
0.0
 11
-1.3520841744318819
 21
1.6525568826629209
 31
0.0
210
0.0
220
0.0
230
1.0
 40
0.07063
 41
6.2823074065658329
 42
2.276517300956717
  0
INSERT
  5
2F5
100
AcDbEntity
  8
1
  6
CONTINUOUS
 62
     1
100
AcDbBlockReference
  2
LDR
 10
426.7581
 20
166.3635
 30
0.0
 41
241.920279
 42
241.920279
 50
315.0
210
0.0
220
0.0
230
1.0
  0
ELLIPSE
  5
2F6
100
AcDbEntity
  8
1
  6
CONTINUOUS
 62
     1
100
AcDbEllipse
 10
432.037851
 20
161.548832
 30
0.0
 11
-1.6608961598509298
 21
1.3937808554014395
 31
0.0
210
0.0
220
0.0
230
1.0
 40
0.122415
 41
0.8963533496766982
 42
3.1415926535897931
  0
ELLIPSE
  5
2F7
100
AcDbEntity
  8
1
  6
CONTINUOUS
 62
     1
100
AcDbEllipse
 10
431.645603
 20
161.106463
 30
0.0
 11
1.3520841744199741
 21
-1.652556882648367
 31
0.0
210
0.0
220
0.0
230
1.0
 40
0.07063
 41
6.2823074065658329
 42
2.276517300956717
  0
INSERT
  5
2F8
100
AcDbEntity
  8
1
  6
CONTINUOUS
 62
     1
100
AcDbBlockReference
  2
LDR
 10
430.8621
 20
162.2355
 30
0.0
 41
241.920279
 42
241.920279
 50
135.0
210
0.0
220
0.0
230
1.0
  0
ELLIPSE
  5
2F9
100
AcDbEntity
  8
1
  6
CONTINUOUS
 62
     1
100
AcDbEllipse
 10
437.821954
 20
160.102862
 30
0.0
 11
2.1599828318510337
 21
0.1888790431376894
 31
0.0
210
0.0
220
0.0
230
1.0
 40
0.122415
 41
0.8963533496766982
 42
3.1415926535897931
  0
ELLIPSE
  5
2FA
100
AcDbEntity
  8
1
  6
CONTINUOUS
 62
     1
100
AcDbEllipse
 10
437.786513
 20
160.693026
 30
0.0
 11
-2.1246020665154202
 21
0.2124662895528715
 31
0.0
210
0.0
220
0.0
230
1.0
 40
0.07063
 41
6.2823074065658329
 42
2.276517300956717
  0
ELLIPSE
  5
2FB
100
AcDbEntity
  8
1
  6
CONTINUOUS
 62
     1
100
AcDbEllipse
 10
444.137659
 20
160.862007
 30
0.0
 11
-2.1599828318510337
 21
-0.1888790431376894
 31
0.0
210
0.0
220
0.0
230
1.0
 40
0.122415
 41
0.8963533496766982
 42
3.1415926535897931
  0
ELLIPSE
  5
2FC
100
AcDbEntity
  8
1
  6
CONTINUOUS
 62
     1
100
AcDbEllipse
 10
444.1731
 20
160.271843
 30
0.0
 11
2.1246020665154202
 21
-0.2124662895528718
 31
0.0
210
0.0
220
0.0
230
1.0
 40
0.07063
 41
6.2823074065658329
 42
2.276517300956717
  0
ELLIPSE
  5
2FD
100
AcDbEntity
  8
1
  6
CONTINUOUS
 62
     1
100
AcDbEllipse
 10
420.724196
 20
213.595433
 30
0.0
 11
-0.9932660991504102
 21
-1.9273358770860196
 31
0.0
210
0.0
220
0.0
230
1.0
 40
0.122415
 41
0.8963533496766982
 42
3.1415926535897931
  0
ELLIPSE
  5
2FE
100
AcDbEntity
  8
1
  6
CONTINUOUS
 62
     1
100
AcDbEllipse
 10
421.242166
 20
213.310377
 30
0.0
 11
1.313763626656222
 21
1.683181807919081
 31
0.0
210
0.0
220
0.0
230
1.0
 40
0.07063
 41
6.2823074065658329
 42
2.276517300956717
  0
ELLIPSE
  5
2FF
100
AcDbEntity
  8
1
  6
CONTINUOUS
 62
     1
100
AcDbEllipse
 10
444.715065
 20
205.083063
 30
0.0
 11
-0.9203214381362128
 21
-1.9632140936030538
 31
0.0
210
0.0
220
0.0
230
1.0
 40
0.122415
 41
0.8963533496766982
 42
3.1415926535897931
  0
ELLIPSE
  5
300
100
AcDbEntity
  8
1
  6
CONTINUOUS
 62
     1
100
AcDbEllipse
 10
445.243356
 20
204.817623
 30
0.0
 11
-1.249745879303388
 21
-1.7312455349803919
 31
0.0
210
0.0
220
0.0
230
1.0
 40
0.07063
 41
3.1407147529760402
 42
5.4181099545465106
  0
ELLIPSE
  5
301
100
AcDbEntity
  8
1
  6
CONTINUOUS
 62
     1
100
AcDbEllipse
 10
393.690816
 20
200.894109
 30
0.0
 11
1.6046165849769594
 21
1.4582204024192085
 31
0.0
210
0.0
220
0.0
230
1.0
 40
0.122415
 41
0.8963533496766982
 42
3.1415926535897931
  0
ELLIPSE
  5
302
100
AcDbEntity
  8
1
  6
CONTINUOUS
 62
     1
100
AcDbEllipse
 10
393.305257
 20
201.34232
 30
0.0
 11
1.8194804281419534
 21
1.1173928748804998
 31
0.0
210
0.0
220
0.0
230
1.0
 40
0.07063
 41
3.1407147529760402
 42
5.4181099545465106
  0
ELLIPSE
  5
303
100
AcDbEntity
  8
1
  6
CONTINUOUS
 62
     1
100
AcDbEllipse
 10
382.218982
 20
122.407913
 30
0.0
 11
0.9447078955695114
 21
1.95159630018004
 31
0.0
210
0.0
220
0.0
230
1.0
 40
0.122415
 41
0.8963533496766982
 42
3.1415926535897931
  0
ELLIPSE
  5
304
100
AcDbEntity
  8
1
  6
CONTINUOUS
 62
     1
100
AcDbEllipse
 10
381.694039
 20
122.679913
 30
0.0
 11
1.271216888851354
 21
1.7155417473023036
 31
0.0
210
0.0
220
0.0
230
1.0
 40
0.07063
 41
3.1407147529760402
 42
5.4181099545465106
  0
ELLIPSE
  5
305
100
AcDbEntity
  8
1
  6
CONTINUOUS
 62
     1
100
AcDbEllipse
 10
393.47413
 20
121.795141
 30
0.0
 11
1.3395107498135415
 21
1.7049668846928037
 31
0.0
210
0.0
220
0.0
230
1.0
 40
0.122415
 41
0.8963533496766982
 42
3.1415926535897931
  0
ELLIPSE
  5
306
100
AcDbEntity
  8
1
  6
CONTINUOUS
 62
     1
100
AcDbEllipse
 10
393.019345
 20
122.172924
 30
0.0
 11
-1.6081080467131879
 21
-1.404658099066626
 31
0.0
210
0.0
220
0.0
230
1.0
 40
0.07063
 41
6.2823074065658329
 42
2.276517300956717
  0
ELLIPSE
  5
307
100
AcDbEntity
  8
1
  6
CONTINUOUS
 62
     1
100
AcDbEllipse
 10
382.498162
 20
99.342577
 30
0.0
 11
1.4622574046548285
 21
1.6009386026203374
 31
0.0
210
0.0
220
0.0
230
1.0
 40
0.122415
 41
0.8963533496766982
 42
3.1415926535897931
  0
ELLIPSE
  5
308
100
AcDbEntity
  8
1
  6
CONTINUOUS
 62
     1
100
AcDbEllipse
 10
382.072644
 20
99.753045
 30
0.0
 11
-1.7078452088247171
 21
-1.2815383755207872
 31
0.0
210
0.0
220
0.0
230
1.0
 40
0.07063
 41
6.2823074065658329
 42
2.276517300956717
  0
ELLIPSE
  5
309
100
AcDbEntity
  8
1
  6
CONTINUOUS
 62
     1
100
AcDbEllipse
 10
376.422436
 20
124.085006
 30
0.0
 11
0.1888790431376902
 21
-2.1599828318510337
 31
0.0
210
0.0
220
0.0
230
1.0
 40
0.122415
 41
0.8963533496766982
 42
3.1415926535897931
  0
ELLIPSE
  5
30A
100
AcDbEntity
  8
1
  6
CONTINUOUS
 62
     1
100
AcDbEllipse
 10
377.0126
 20
124.120447
 30
0.0
 11
0.2124662895528719
 21
2.1246020665154202
 31
0.0
210
0.0
220
0.0
230
1.0
 40
0.07063
 41
6.2823074065658329
 42
2.276517300956717
  0
ELLIPSE
  5
30B
100
AcDbEntity
  8
1
  6
CONTINUOUS
 62
     1
100
AcDbEllipse
 10
377.090861
 20
152.667471
 30
0.0
 11
-0.1888790431376895
 21
2.1599828318510337
 31
0.0
210
0.0
220
0.0
230
1.0
 40
0.122415
 41
0.8963533496766982
 42
3.1415926535897931
  0
ELLIPSE
  5
30C
100
AcDbEntity
  8
1
  6
CONTINUOUS
 62
     1
100
AcDbEllipse
 10
376.500697
 20
152.63203
 30
0.0
 11
0.2124662895528719
 21
2.1246020665154202
 31
0.0
210
0.0
220
0.0
230
1.0
 40
0.07063
 41
3.1407147529760402
 42
5.4181099545465106
  0
LINE
  5
30D
100
AcDbEntity
  8
1
  6
CONTINUOUS
 62
     4
100
AcDbLine
 10
425.2701
 20
128.4195
 30
0.0
 11
433.8141
 21
136.9635
 31
0.0
  0
LINE
  5
30E
100
AcDbEntity
  8
1
  6
CONTINUOUS
 62
     4
100
AcDbLine
 10
414.1581
 20
127.7715
 30
0.0
 11
405.6141
 21
136.3395
 31
0.0
  0
ELLIPSE
  5
30F
100
AcDbEntity
  8
1
  6
CONTINUOUS
 62
     1
100
AcDbEllipse
 10
425.956086
 20
129.58256
 30
0.0
 11
-1.3937808554217039
 21
-1.6608961598750787
 31
0.0
210
0.0
220
0.0
230
1.0
 40
0.122415
 41
0.8963533496766982
 42
3.1415926535897931
  0
ELLIPSE
  5
310
100
AcDbEntity
  8
1
  6
CONTINUOUS
 62
     1
100
AcDbEllipse
 10
426.398456
 20
129.190311
 30
0.0
 11
-1.6525568826723831
 21
-1.3520841744396237
 31
0.0
210
0.0
220
0.0
230
1.0
 40
0.07063
 41
3.1407147529760402
 42
5.4181099545465106
  0
ELLIPSE
  5
311
100
AcDbEntity
  8
1
  6
CONTINUOUS
 62
     1
100
AcDbEllipse
 10
412.98965
 20
128.47467
 30
0.0
 11
1.6608961598750787
 21
-1.3937808554217039
 31
0.0
210
0.0
220
0.0
230
1.0
 40
0.122415
 41
0.8963533496766982
 42
3.1415926535897931
  0
ELLIPSE
  5
312
100
AcDbEntity
  8
1
  6
CONTINUOUS
 62
     1
100
AcDbEllipse
 10
413.381898
 20
128.91704
 30
0.0
 11
-1.3520841744396244
 21
1.652556882672384
 31
0.0
210
0.0
220
0.0
230
1.0
 40
0.07063
 41
6.2823074065658329
 42
2.276517300956717
  0
TEXT
  5
313
100
AcDbEntity
  8
1
  6
CONTINUOUS
 62
     4
100
AcDbText
 10
433.3101
 20
135.8355
 30
0.0
 40
2.4192
  1
+
  7
MONOTXT
 11
433.3101
 21
137.0451
 31
0.0
210
0.0
220
0.0
230
1.0
100
AcDbText
 73
     2
  0
TEXT
  5
314
100
AcDbEntity
  8
1
  6
CONTINUOUS
 62
     4
100
AcDbText
 10
404.9901
 20
135.1635
 30
0.0
 40
2.4192
  1
+
  7
MONOTXT
 11
404.9901
 21
136.3731
 31
0.0
210
0.0
220
0.0
230
1.0
100
AcDbText
 73
     2
  0
LINE
  5
315
100
AcDbEntity
  8
1
  6
CONTINUOUS
 62
     4
100
AcDbLine
 10
405.2541
 20
136.5315
 30
0.0
 11
391.2621
 21
164.4915
 31
0.0
  0
POINT
  5
316
100
AcDbEntity
  8
1
  6
CONTINUOUS
 62
     4
100
AcDbPoint
 10
391.2621
 20
164.4915
 30
0.0
  0
LINE
  5
317
100
AcDbEntity
  8
1
  6
CONTINUOUS
 62
     4
100
AcDbLine
 10
391.2621
 20
164.4915
 30
0.0
 11
385.6461
 21
164.4915
 31
0.0
  0
ELLIPSE
  5
318
100
AcDbEntity
  8
1
  6
CONTINUOUS
 62
     1
100
AcDbEllipse
 10
404.356238
 20
137.559124
 30
0.0
 11
1.1349122024882923
 21
-1.8474781242198655
 31
0.0
210
0.0
220
0.0
230
1.0
 40
0.122415
 41
0.8963533496766982
 42
3.1415926535897931
  0
ELLIPSE
  5
319
100
AcDbEntity
  8
1
  6
CONTINUOUS
 62
     1
100
AcDbEllipse
 10
404.868246
 20
137.854753
 30
0.0
 11
0.7601152616344346
 21
-1.9953196872352104
 31
0.0
210
0.0
220
0.0
230
1.0
 40
0.07063
 41
3.1407147529760402
 42
5.4181099545465106
  0
TEXT
  5
31A
100
AcDbEntity
  8
1
  6
CONTINUOUS
 62
     4
100
AcDbText
 10
452.2461
 20
207.1395
 30
0.0
 40
2.4192
  1
CONDUIT
  7
MONOTXT
 11
452.2461
 21
208.3491
 31
0.0
210
0.0
220
0.0
230
1.0
100
AcDbText
 73
     2
  0
TEXT
  5
31B
100
AcDbEntity
  8
1
  6
CONTINUOUS
 62
     4
100
AcDbText
 10
352.0701
 20
197.8035
 30
0.0
 40
2.4192
  1
TRAFFIC LIGHTING
  7
MONOTXT
 11
352.0701
 21
199.0131
 31
0.0
210
0.0
220
0.0
230
1.0
100
AcDbText
 73
     2
  0
TEXT
  5
31C
100
AcDbEntity
  8
1
  6
CONTINUOUS
 62
     4
100
AcDbText
 10
352.0701
 20
194.1795
 30
0.0
 40
2.4192
  1
GROUND ROD
  7
MONOTXT
 11
352.0701
 21
195.3891
 31
0.0
210
0.0
220
0.0
230
1.0
100
AcDbText
 73
     2
  0
TEXT
  5
31D
100
AcDbEntity
  8
1
  6
CONTINUOUS
 62
     4
100
AcDbText
 10
407.5581
 20
135.4995
 30
0.0
 40
2.419055
  1
R
 50
315.0
  7
MONOTXT
 11
408.413416
 21
136.354816
 31
0.0
210
0.0
220
0.0
230
1.0
100
AcDbText
 73
     2
  0
TEXT
  5
31E
100
AcDbEntity
  8
1
  6
CONTINUOUS
 62
     4
100
AcDbText
 10
430.9101
 20
135.1875
 30
0.0
 40
2.4192
  1
R
 50
45.0
  7
MONOTXT
 11
430.054784
 21
136.042816
 31
0.0
210
0.0
220
0.0
230
1.0
100
AcDbText
 73
     2
  0
TEXT
  5
31F
100
AcDbEntity
  8
1
  6
CONTINUOUS
 62
     4
100
AcDbText
 10
361.6941
 20
163.0515
 30
0.0
 40
2.4192
  1
SEE NOTE 5
  7
MONOTXT
 11
361.6941
 21
164.2611
 31
0.0
210
0.0
220
0.0
230
1.0
100
AcDbText
 73
     2
  0
TEXT
  5
320
100
AcDbEntity
  8
1
  6
CONTINUOUS
 62
     4
100
AcDbText
 10
333.1821
 20
117.1155
 30
0.0
 40
2.4192
  1
GROUND WIRE CLAMP
  7
MONOTXT
 11
333.1821
 21
118.3251
 31
0.0
210
0.0
220
0.0
230
1.0
100
AcDbText
 73
     2
  0
TEXT
  5
321
100
AcDbEntity
  8
1
  6
CONTINUOUS
 62
     4
100
AcDbText
 10
471.5421
 20
109.0755
 30
0.0
 40
2.4192
  1
DEPTH
  7
MONOTXT
 11
471.5421
 21
110.2851
 31
0.0
210
0.0
220
0.0
230
1.0
100
AcDbText
 73
     2
  0
TEXT
  5
322
100
AcDbEntity
  8
1
  6
CONTINUOUS
 62
     4
100
AcDbText
 10
384.2301
 20
38.7223
 30
0.0
 40
4.8384
  1
FOUNDATION DETAILS
  7
MONOTXT
 11
384.2301
 21
41.1415
 31
0.0
210
0.0
220
0.0
230
1.0
100
AcDbText
 73
     2
  0
LINE
  5
323
100
AcDbEntity
  8
1
  6
CONTINUOUS
 62
     4
100
AcDbLine
 10
381.3261
 20
35.3143
 30
0.0
 11
465.5661
 21
35.3143
 31
0.0
  0
TEXT
  5
324
100
AcDbEntity
  8
1
  6
CONTINUOUS
 62
     4
100
AcDbText
 10
220.5922
 20
127.5013
 30
0.0
 40
2.4192
  1
SITE GRADE AS REQUIRED
  7
MONOTXT
 11
220.5922
 21
128.7109
 31
0.0
210
0.0
220
0.0
230
1.0
100
AcDbText
 73
     2
  0
TEXT
  5
325
100
AcDbEntity
  8
1
  6
CONTINUOUS
 62
     4
100
AcDbText
 10
220.5922
 20
123.8821
 30
0.0
 40
2.4192
  1
WITH EXCAVATED MATERIAL
  7
MONOTXT
 11
220.5922
 21
125.0917
 31
0.0
210
0.0
220
0.0
230
1.0
100
AcDbText
 73
     2
  0
TEXT
  5
326
100
AcDbEntity
  8
1
  6
CONTINUOUS
 62
     4
100
AcDbText
 10
437.0541
 20
229.7091
 30
0.0
 40
2.4
  1
B.C.  (NOTE - 3 ANCHOR BOLTS MAY BE
  7
MONOTXT
 11
437.0541
 21
232.1091
 31
0.0
210
0.0
220
0.0
230
1.0
100
AcDbText
 73
     3
  0
TEXT
  5
327
100
AcDbEntity
  8
1
  6
CONTINUOUS
 62
     4
100
AcDbText
 10
437.0541
 20
224.9091
 30
0.0
 40
2.4
  1
     USED ON SOME TYPE VII  POLES)
  7
MONOTXT
 11
437.0541
 21
227.3091
 31
0.0
210
0.0
220
0.0
230
1.0
100
AcDbText
 73
     3
  0
LINE
  5
328
100
AcDbEntity
  8
1
  6
CONTINUOUS
 62
     7
100
AcDbLine
 10
626.0056
 20
117.3009
 30
0.0
 11
621.2056
 21
117.3009
 31
0.0
  0
LINE
  5
329
100
AcDbEntity
  8
1
  6
CONTINUOUS
 62
     7
100
AcDbLine
 10
623.6056
 20
121.4578
 30
0.0
 11
621.2056
 21
117.3009
 31
0.0
  0
LINE
  5
32A
100
AcDbEntity
  8
1
  6
CONTINUOUS
 62
     7
100
AcDbLine
 10
623.6056
 20
121.4578
 30
0.0
 11
626.0056
 21
117.3009
 31
0.0
  0
LINE
  5
32B
100
AcDbEntity
  8
1
  6
CONTINUOUS
 62
     7
100
AcDbLine
 10
626.1988
 20
123.6797
 30
0.0
 11
621.3988
 21
123.6797
 31
0.0
  0
LINE
  5
32C
100
AcDbEntity
  8
1
  6
CONTINUOUS
 62
     7
100
AcDbLine
 10
623.7988
 20
127.8366
 30
0.0
 11
621.3988
 21
123.6797
 31
0.0
  0
LINE
  5
32D
100
AcDbEntity
  8
1
  6
CONTINUOUS
 62
     7
100
AcDbLine
 10
623.7988
 20
127.8366
 30
0.0
 11
626.1988
 21
123.6797
 31
0.0
  0
LINE
  5
32E
100
AcDbEntity
  8
1
  6
CONTINUOUS
 62
     7
100
AcDbLine
 10
630.5891
 20
31.8012
 30
0.0
 11
625.7891
 21
31.8012
 31
0.0
  0
LINE
  5
32F
100
AcDbEntity
  8
1
  6
CONTINUOUS
 62
     7
100
AcDbLine
 10
628.1891
 20
35.9581
 30
0.0
 11
625.7891
 21
31.8012
 31
0.0
  0
LINE
  5
330
100
AcDbEntity
  8
1
  6
CONTINUOUS
 62
     7
100
AcDbLine
 10
628.1891
 20
35.9581
 30
0.0
 11
630.5891
 21
31.8012
 31
0.0
  0
LINE
  5
331
100
AcDbEntity
  8
1
  6
CONTINUOUS
 62
     7
100
AcDbLine
 10
630.678
 20
26.0167
 30
0.0
 11
625.878
 21
26.0167
 31
0.0
  0
LINE
  5
332
100
AcDbEntity
  8
1
  6
CONTINUOUS
 62
     7
100
AcDbLine
 10
628.278
 20
30.1736
 30
0.0
 11
625.878
 21
26.0167
 31
0.0
  0
LINE
  5
333
100
AcDbEntity
  8
1
  6
CONTINUOUS
 62
     7
100
AcDbLine
 10
628.278
 20
30.1736
 30
0.0
 11
630.678
 21
26.0167
 31
0.0
  0
TEXT
  5
334
100
AcDbEntity
  8
1
  6
CONTINUOUS
 62
     7
100
AcDbText
 10
623.329
 20
124.1375
 30
0.0
 40
2.4
  1
1
  7
MONOTXT
210
0.0
220
0.0
230
1.0
100
AcDbText
  0
TEXT
  5
335
100
AcDbEntity
  8
1
  6
CONTINUOUS
 62
     7
100
AcDbText
 10
622.7492
 20
117.6182
 30
0.0
 40
2.4
  1
2
  7
MONOTXT
210
0.0
220
0.0
230
1.0
100
AcDbText
  0
TEXT
  5
336
100
AcDbEntity
  8
1
  6
CONTINUOUS
 62
     7
100
AcDbText
 10
627.6798
 20
124.3843
 30
0.0
 40
2.4
  1
DELETED ALLOY
  7
MONOTXT
210
0.0
220
0.0
230
1.0
100
AcDbText
  0
TEXT
  5
337
100
AcDbEntity
  8
1
  6
CONTINUOUS
 62
     7
100
AcDbText
 10
627.2627
 20
118.2919
 30
0.0
 40
2.4
  1
CHANGED GROUND ROD
  7
MONOTXT
210
0.0
220
0.0
230
1.0
100
AcDbText
  0
TEXT
  5
338
100
AcDbEntity
  8
1
  6
CONTINUOUS
 62
     7
100
AcDbText
 10
627.8327
 20
32.1954
 30
0.0
 40
2.4
  1
1
  7
MONOTXT
210
0.0
220
0.0
230
1.0
100
AcDbText
  0
TEXT
  5
339
100
AcDbEntity
  8
1
  6
CONTINUOUS
 62
     7
100
AcDbText
 10
627.4797
 20
26.3477
 30
0.0
 40
2.4
  1
2
  7
MONOTXT
210
0.0
220
0.0
230
1.0
100
AcDbText
  0
TEXT
  5
33B
100
AcDbEntity
  8
1
  6
CONTINUOUS
 62
     7
100
AcDbText
 10
634.8052
 20
65.8263
 30
0.0
 40
8.3912
  1
ALUMINUM POLE FOUNDATIONS
  7
TXT
 72
     1
 11
728.8298
 21
74.2175
 31
0.0
210
0.0
220
0.0
230
1.0
100
AcDbText
 73
     3
  0
LINE
  5
33C
100
AcDbEntity
  8
1
  6
CONTINUOUS
 62
    30
100
AcDbLine
 10
219.8007
 20
460.3781
 30
0.0
 11
453.8007
 21
460.3781
 31
0.0
  0
LINE
  5
33D
100
AcDbEntity
  8
1
  6
CONTINUOUS
 62
    30
100
AcDbLine
 10
219.8007
 20
459.1781
 30
0.0
 11
453.8007
 21
459.1781
 31
0.0
  0
LINE
  5
33E
100
AcDbEntity
  8
1
  6
CONTINUOUS
 62
    30
100
AcDbLine
 10
219.8007
 20
451.9781
 30
0.0
 11
453.8007
 21
451.9781
 31
0.0
  0
LINE
  5
33F
100
AcDbEntity
  8
1
  6
CONTINUOUS
 62
    30
100
AcDbLine
 10
219.8007
 20
450.7781
 30
0.0
 11
453.8007
 21
450.7781
 31
0.0
  0
LINE
  5
340
100
AcDbEntity
  8
1
  6
CONTINUOUS
 62
    30
100
AcDbLine
 10
219.8007
 20
442.3781
 30
0.0
 11
453.8007
 21
442.3781
 31
0.0
  0
LINE
  5
341
100
AcDbEntity
  8
1
  6
CONTINUOUS
 62
    30
100
AcDbLine
 10
219.8007
 20
433.9781
 30
0.0
 11
453.8007
 21
433.9781
 31
0.0
  0
LINE
  5
342
100
AcDbEntity
  8
1
  6
CONTINUOUS
 62
    30
100
AcDbLine
 10
219.8007
 20
425.5781
 30
0.0
 11
453.8007
 21
425.5781
 31
0.0
  0
LINE
  5
343
100
AcDbEntity
  8
1
  6
CONTINUOUS
 62
    30
100
AcDbLine
 10
219.8007
 20
417.1781
 30
0.0
 11
453.8007
 21
417.1781
 31
0.0
  0
LINE
  5
344
100
AcDbEntity
  8
1
  6
CONTINUOUS
 62
    30
100
AcDbLine
 10
219.8007
 20
408.7781
 30
0.0
 11
453.8007
 21
408.7781
 31
0.0
  0
LINE
  5
345
100
AcDbEntity
  8
1
  6
CONTINUOUS
 62
    30
100
AcDbLine
 10
219.8007
 20
400.3781
 30
0.0
 11
453.8007
 21
400.3781
 31
0.0
  0
LINE
  5
346
100
AcDbEntity
  8
1
  6
CONTINUOUS
 62
    30
100
AcDbLine
 10
219.8007
 20
391.9781
 30
0.0
 11
453.8007
 21
391.9781
 31
0.0
  0
LINE
  5
347
100
AcDbEntity
  8
1
  6
CONTINUOUS
 62
    30
100
AcDbLine
 10
219.8007
 20
383.5781
 30
0.0
 11
453.8007
 21
383.5781
 31
0.0
  0
LINE
  5
348
100
AcDbEntity
  8
1
  6
CONTINUOUS
 62
    30
100
AcDbLine
 10
219.8007
 20
375.1781
 30
0.0
 11
453.8007
 21
375.1781
 31
0.0
  0
LINE
  5
349
100
AcDbEntity
  8
1
  6
CONTINUOUS
 62
    30
100
AcDbLine
 10
219.8007
 20
366.7781
 30
0.0
 11
453.8007
 21
366.7781
 31
0.0
  0
LINE
  5
34A
100
AcDbEntity
  8
1
  6
CONTINUOUS
 62
    30
100
AcDbLine
 10
219.8007
 20
358.3781
 30
0.0
 11
453.8007
 21
358.3781
 31
0.0
  0
LINE
  5
34B
100
AcDbEntity
  8
1
  6
CONTINUOUS
 62
    30
100
AcDbLine
 10
219.8007
 20
349.9781
 30
0.0
 11
453.8007
 21
349.9781
 31
0.0
  0
LINE
  5
34C
100
AcDbEntity
  8
1
  6
CONTINUOUS
 62
    30
100
AcDbLine
 10
219.8007
 20
341.5781
 30
0.0
 11
453.8007
 21
341.5781
 31
0.0
  0
LINE
  5
34D
100
AcDbEntity
  8
1
  6
CONTINUOUS
 62
    30
100
AcDbLine
 10
219.8007
 20
333.1781
 30
0.0
 11
453.8007
 21
333.1781
 31
0.0
  0
LINE
  5
34E
100
AcDbEntity
  8
1
  6
CONTINUOUS
 62
    30
100
AcDbLine
 10
219.8007
 20
324.7781
 30
0.0
 11
453.8007
 21
324.7781
 31
0.0
  0
LINE
  5
34F
100
AcDbEntity
  8
1
  6
CONTINUOUS
 62
    30
100
AcDbLine
 10
219.8007
 20
316.3781
 30
0.0
 11
453.8007
 21
316.3781
 31
0.0
  0
LINE
  5
350
100
AcDbEntity
  8
1
  6
CONTINUOUS
 62
    30
100
AcDbLine
 10
453.8007
 20
477.1781
 30
0.0
 11
453.8007
 21
316.3781
 31
0.0
  0
LINE
  5
351
100
AcDbEntity
  8
1
  6
CONTINUOUS
 62
    30
100
AcDbLine
 10
236.6007
 20
459.1781
 30
0.0
 11
236.6007
 21
316.3781
 31
0.0
  0
LINE
  5
352
100
AcDbEntity
  8
1
  6
CONTINUOUS
 62
    30
100
AcDbLine
 10
253.4007
 20
459.1781
 30
0.0
 11
253.4007
 21
316.3781
 31
0.0
  0
LINE
  5
353
100
AcDbEntity
  8
1
  6
CONTINUOUS
 62
    30
100
AcDbLine
 10
270.2007
 20
459.1781
 30
0.0
 11
270.2007
 21
316.3781
 31
0.0
  0
LINE
  5
354
100
AcDbEntity
  8
1
  6
CONTINUOUS
 62
    30
100
AcDbLine
 10
287.0007
 20
459.1781
 30
0.0
 11
287.0007
 21
316.3781
 31
0.0
  0
LINE
  5
355
100
AcDbEntity
  8
1
  6
CONTINUOUS
 62
    30
100
AcDbLine
 10
303.8007
 20
459.1781
 30
0.0
 11
303.8007
 21
316.3781
 31
0.0
  0
LINE
  5
356
100
AcDbEntity
  8
1
  6
CONTINUOUS
 62
    30
100
AcDbLine
 10
320.6007
 20
459.1781
 30
0.0
 11
320.6007
 21
316.3781
 31
0.0
  0
LINE
  5
357
100
AcDbEntity
  8
1
  6
CONTINUOUS
 62
    30
100
AcDbLine
 10
337.4007
 20
477.1781
 30
0.0
 11
337.4007
 21
316.3781
 31
0.0
  0
LINE
  5
358
100
AcDbEntity
  8
1
  6
CONTINUOUS
 62
    30
100
AcDbLine
 10
355.4007
 20
459.1781
 30
0.0
 11
355.4007
 21
316.3781
 31
0.0
  0
LINE
  5
359
100
AcDbEntity
  8
1
  6
CONTINUOUS
 62
    30
100
AcDbLine
 10
373.4007
 20
459.1781
 30
0.0
 11
373.4007
 21
316.3781
 31
0.0
  0
LINE
  5
35A
100
AcDbEntity
  8
1
  6
CONTINUOUS
 62
    30
100
AcDbLine
 10
391.4007
 20
477.1781
 30
0.0
 11
391.4007
 21
316.3781
 31
0.0
  0
LINE
  5
35B
100
AcDbEntity
  8
1
  6
CONTINUOUS
 62
    30
100
AcDbLine
 10
405.8007
 20
459.1781
 30
0.0
 11
405.8007
 21
316.3781
 31
0.0
  0
LINE
  5
35C
100
AcDbEntity
  8
1
  6
CONTINUOUS
 62
    30
100
AcDbLine
 10
420.2007
 20
477.1781
 30
0.0
 11
420.2007
 21
316.3781
 31
0.0
  0
LINE
  5
35D
100
AcDbEntity
  8
1
  6
CONTINUOUS
 62
    30
100
AcDbLine
 10
437.0007
 20
459.1781
 30
0.0
 11
437.0007
 21
316.3781
 31
0.0
  0
LINE
  5
35E
100
AcDbEntity
  8
1
  6
CONTINUOUS
 62
    30
100
AcDbLine
 10
219.8007
 20
477.1781
 30
0.0
 11
337.4007
 21
477.1781
 31
0.0
  0
LINE
  5
35F
100
AcDbEntity
  8
1
  6
CONTINUOUS
 62
    30
100
AcDbLine
 10
337.4007
 20
477.1781
 30
0.0
 11
391.4007
 21
477.1781
 31
0.0
  0
LINE
  5
360
100
AcDbEntity
  8
1
  6
CONTINUOUS
 62
    30
100
AcDbLine
 10
391.4007
 20
477.1781
 30
0.0
 11
420.2007
 21
477.1781
 31
0.0
  0
LINE
  5
361
100
AcDbEntity
  8
1
  6
CONTINUOUS
 62
    30
100
AcDbLine
 10
420.2007
 20
477.1781
 30
0.0
 11
453.8007
 21
477.1781
 31
0.0
  0
LINE
  5
362
100
AcDbEntity
  8
1
  6
CONTINUOUS
 62
    30
100
AcDbLine
 10
219.8007
 20
477.1781
 30
0.0
 11
219.8007
 21
460.3781
 31
0.0
  0
LINE
  5
363
100
AcDbEntity
  8
1
  6
CONTINUOUS
 62
    30
100
AcDbLine
 10
219.8007
 20
460.3781
 30
0.0
 11
219.8007
 21
316.3781
 31
0.0
  0
TEXT
  5
364
100
AcDbEntity
  8
1
  6
CONTINUOUS
 62
     6
100
AcDbText
 10
266.2382
 20
469.7288
 30
0.0
 40
3.0
  1
POLE SIZE
  7
MONOTXT
210
0.0
220
0.0
230
1.0
100
AcDbText
  0
TEXT
  5
365
100
AcDbEntity
  8
1
  6
CONTINUOUS
 62
     6
100
AcDbText
 10
351.2663
 20
467.4579
 30
0.0
 40
3.0
  1
FOUNDATION
  7
MONOTXT
210
0.0
220
0.0
230
1.0
100
AcDbText
  0
TEXT
  5
366
100
AcDbEntity
  8
1
  6
CONTINUOUS
 62
     6
100
AcDbText
 10
392.7484
 20
467.4579
 30
0.0
 40
3.0
  1
ANCHORAGE
  7
MONOTXT
210
0.0
220
0.0
230
1.0
100
AcDbText
  0
TEXT
  5
367
100
AcDbEntity
  8
1
  6
CONTINUOUS
 62
     6
100
AcDbText
 10
422.4694
 20
470.2901
 30
0.0
 40
3.0
  1
REINFORCING
  7
MONOTXT
 72
     4
 11
436.5126
 21
471.7901
 31
0.0
210
0.0
220
0.0
230
1.0
100
AcDbText
  0
TEXT
  5
368
100
AcDbEntity
  8
1
  6
CONTINUOUS
 62
     6
100
AcDbText
 10
429.8395
 20
463.6901
 30
0.0
 40
3.0
  1
STEEL
  7
MONOTXT
 72
     4
 11
436.5127
 21
465.1901
 31
0.0
210
0.0
220
0.0
230
1.0
100
AcDbText
  0
TEXT
  5
369
100
AcDbEntity
  8
1
  6
CONTINUOUS
 62
     6
100
AcDbText
 10
359.2222
 20
456.2802
 30
0.0
 40
2.1
  1
DEPTH
  7
MONOTXT
210
0.0
220
0.0
230
1.0
100
AcDbText
  0
TEXT
  5
36A
100
AcDbEntity
  8
1
  6
CONTINUOUS
 62
     6
100
AcDbText
 10
376.0381
 20
456.4129
 30
0.0
 40
2.1
  1
VOLUME
  7
MONOTXT
210
0.0
220
0.0
230
1.0
100
AcDbText
  0
TEXT
  5
36B
100
AcDbEntity
  8
1
  6
CONTINUOUS
 62
     6
100
AcDbText
 10
382.3256
 20
453.459
 30
0.0
 40
2.1
  1
3
  7
MONOTXT
210
0.0
220
0.0
230
1.0
100
AcDbText
  0
TEXT
  5
36C
100
AcDbEntity
  8
1
  6
CONTINUOUS
 62
     6
100
AcDbText
 10
392.0416
 20
454.4086
 30
0.0
 40
2.1
  1
B.C.
  7
MONOTXT
210
0.0
220
0.0
230
1.0
100
AcDbText
  0
TEXT
  5
36D
100
AcDbEntity
  8
1
  6
CONTINUOUS
 62
     6
100
AcDbText
 10
408.111
 20
454.149
 30
0.0
 40
2.1
  1
A.B.
  7
MONOTXT
210
0.0
220
0.0
230
1.0
100
AcDbText
  0
TEXT
  5
36E
100
AcDbEntity
  8
1
  6
CONTINUOUS
 62
     6
100
AcDbText
 10
421.3431
 20
454.4532
 30
0.0
 40
2.1
  1
NO BARS
  7
MONOTXT
210
0.0
220
0.0
230
1.0
100
AcDbText
  0
TEXT
  5
36F
100
AcDbEntity
  8
1
  6
CONTINUOUS
 62
     6
100
AcDbText
 10
441.7816
 20
454.4699
 30
0.0
 40
2.1
  1
SIZE
  7
MONOTXT
210
0.0
220
0.0
230
1.0
100
AcDbText
  0
LINE
  5
370
100
AcDbEntity
  8
1
  6
CONTINUOUS
 62
     6
100
AcDbLine
 10
426.0354
 20
446.6682
 30
0.0
 11
429.0354
 21
446.6682
 31
0.0
  0
LINE
  5
371
100
AcDbEntity
  8
1
  6
CONTINUOUS
 62
     6
100
AcDbLine
 10
443.6912
 20
446.6682
 30
0.0
 11
446.6912
 21
446.6682
 31
0.0
  0
LINE
  5
372
100
AcDbEntity
  8
1
  6
CONTINUOUS
 62
     6
100
AcDbLine
 10
426.1015
 20
438.2012
 30
0.0
 11
429.1015
 21
438.2012
 31
0.0
  0
LINE
  5
373
100
AcDbEntity
  8
1
  6
CONTINUOUS
 62
     6
100
AcDbLine
 10
443.6912
 20
438.2012
 30
0.0
 11
446.6912
 21
438.2012
 31
0.0
  0
TEXT
  5
374
100
AcDbEntity
  8
1
  6
CONTINUOUS
 62
     6
100
AcDbText
 10
414.9302
 20
452.2536
 30
0.0
 40
6.0
  1
*
  7
MONOTXT
210
0.0
220
0.0
230
1.0
100
AcDbText
  0
TEXT
  5
375
100
AcDbEntity
  8
1
  6
CONTINUOUS
 62
     6
100
AcDbText
 10
398.3759
 20
452.3872
 30
0.0
 40
6.0
  1
**
  7
MONOTXT
210
0.0
220
0.0
230
1.0
100
AcDbText
  0
TEXT
  5
376
100
AcDbEntity
  8
1
  6
CONTINUOUS
 62
     6
100
AcDbText
 10
223.7519
 20
308.0703
 30
0.0
 40
6.0
  1
*
  7
MONOTXT
210
0.0
220
0.0
230
1.0
100
AcDbText
  0
TEXT
  5
377
100
AcDbEntity
  8
1
  6
CONTINUOUS
 62
     6
100
AcDbText
 10
219.1371
 20
288.883
 30
0.0
 40
6.0
  1
**
  7
MONOTXT
210
0.0
220
0.0
230
1.0
100
AcDbText
  0
TEXT
  5
378
100
AcDbEntity
  8
1
  6
CONTINUOUS
 62
     6
100
AcDbText
 10
228.8785
 20
290.7153
 30
0.0
 40
2.4
  1
WHEN USING TRANSFORMER BASE(S), SEE TEL-18
  7
MONOTXT
 11
228.8785
 21
293.1153
 31
0.0
210
0.0
220
0.0
230
1.0
100
AcDbText
 73
     3
  0
TEXT
  5
379
100
AcDbEntity
  8
1
  6
CONTINUOUS
 62
     6
100
AcDbText
 10
228.8785
 20
285.9153
 30
0.0
 40
2.4
  1
FOR ANCHOR BOLT-BOLT CIRCLE IN FOUNDATION.
  7
MONOTXT
 11
228.8785
 21
288.3153
 31
0.0
210
0.0
220
0.0
230
1.0
100
AcDbText
 73
     3
  0
LINE
  5
37A
100
AcDbEntity
  8
1
  6
CONTINUOUS
 62
     7
100
AcDbLine
 10
626.0056
 20
111.3677
 30
0.0
 11
621.2056
 21
111.3677
 31
0.0
  0
LINE
  5
37B
100
AcDbEntity
  8
1
  6
CONTINUOUS
 62
     7
100
AcDbLine
 10
623.6056
 20
115.5246
 30
0.0
 11
621.2056
 21
111.3677
 31
0.0
  0
LINE
  5
37C
100
AcDbEntity
  8
1
  6
CONTINUOUS
 62
     7
100
AcDbLine
 10
623.6056
 20
115.5246
 30
0.0
 11
626.0056
 21
111.3677
 31
0.0
  0
TEXT
  5
37D
100
AcDbEntity
  8
1
  6
CONTINUOUS
 62
     7
100
AcDbText
 10
622.7492
 20
111.685
 30
0.0
 40
2.4
  1
3
  7
MONOTXT
210
0.0
220
0.0
230
1.0
100
AcDbText
  0
TEXT
  5
37E
100
AcDbEntity
  8
1
  6
CONTINUOUS
 62
     7
100
AcDbText
 10
627.2627
 20
112.3587
 30
0.0
 40
2.4
  1
ADDED METRIC
  7
MONOTXT
210
0.0
220
0.0
230
1.0
100
AcDbText
  0
LINE
  5
37F
100
AcDbEntity
  8
1
  6
CONTINUOUS
 62
     7
100
AcDbLine
 10
630.7379
 20
20.218
 30
0.0
 11
625.9379
 21
20.218
 31
0.0
  0
TEXT
  5
380
100
AcDbEntity
  8
1
  6
CONTINUOUS
 62
     1
100
AcDbText
 10
635.5369
 20
20.9525
 30
0.0
 40
2.4
  1
04-27-94
  7
MONOTXT
 72
     1
 11
644.3337
 21
23.3525
 31
0.0
210
0.0
220
0.0
230
1.0
100
AcDbText
 73
     3
  0
LINE
  5
381
100
AcDbEntity
  8
1
  6
CONTINUOUS
 62
     7
100
AcDbLine
 10
628.3379
 20
24.3749
 30
0.0
 11
625.9379
 21
20.218
 31
0.0
  0
LINE
  5
382
100
AcDbEntity
  8
1
  6
CONTINUOUS
 62
     7
100
AcDbLine
 10
628.3379
 20
24.3749
 30
0.0
 11
630.7379
 21
20.218
 31
0.0
  0
TEXT
  5
383
100
AcDbEntity
  8
1
  6
CONTINUOUS
 62
     7
100
AcDbText
 10
627.5396
 20
20.549
 30
0.0
 40
2.4
  1
3
  7
MONOTXT
210
0.0
220
0.0
230
1.0
100
AcDbText
  0
LINE
  5
384
100
AcDbEntity
  8
61
  6
CONTINUOUS
 62
     2
100
AcDbLine
 10
836.2504
 20
514.1201
 30
0.0
 11
699.1504
 21
514.1201
 31
0.0
  0
LINE
  5
385
100
AcDbEntity
  8
61
  6
CONTINUOUS
 62
     2
100
AcDbLine
 10
699.1504
 20
514.1201
 30
0.0
 11
699.1504
 21
488.7201
 31
0.0
  0
LINE
  5
386
100
AcDbEntity
  8
61
  6
CONTINUOUS
 62
     2
100
AcDbLine
 10
836.2504
 20
514.1201
 30
0.0
 11
836.2504
 21
488.7201
 31
0.0
  0
LINE
  5
387
100
AcDbEntity
  8
61
  6
CONTINUOUS
 62
     2
100
AcDbLine
 10
836.2504
 20
488.7201
 30
0.0
 11
699.1504
 21
488.7201
 31
0.0
  0
LINE
  5
388
100
AcDbEntity
  8
61
  6
CONTINUOUS
 62
     2
100
AcDbLine
 10
836.2504
 20
501.4201
 30
0.0
 11
699.1504
 21
501.4201
 31
0.0
  0
LINE
  5
389
100
AcDbEntity
  8
61
  6
CONTINUOUS
 62
     2
100
AcDbLine
 10
711.8504
 20
514.1201
 30
0.0
 11
711.8504
 21
488.7201
 31
0.0
  0
LINE
  5
38A
100
AcDbEntity
  8
61
  6
CONTINUOUS
 62
     2
100
AcDbLine
 10
724.5504
 20
514.1201
 30
0.0
 11
724.5504
 21
488.7201
 31
0.0
  0
LINE
  5
38B
100
AcDbEntity
  8
61
  6
CONTINUOUS
 62
     2
100
AcDbLine
 10
741.9504
 20
514.1201
 30
0.0
 11
741.9504
 21
488.7201
 31
0.0
  0
LINE
  5
38C
100
AcDbEntity
  8
61
  6
CONTINUOUS
 62
     2
100
AcDbLine
 10
823.5504
 20
514.1201
 30
0.0
 11
823.5504
 21
488.7201
 31
0.0
  0
LINE
  5
38D
100
AcDbEntity
  8
61
  6
CONTINUOUS
 62
     2
100
AcDbLine
 10
810.8504
 20
514.1201
 30
0.0
 11
810.8504
 21
488.7201
 31
0.0
  0
LINE
  5
38E
100
AcDbEntity
  8
61
  6
CONTINUOUS
 62
     2
100
AcDbLine
 10
782.9504
 20
514.1201
 30
0.0
 11
782.9504
 21
488.7201
 31
0.0
  0
LINE
  5
38F
100
AcDbEntity
  8
61
  6
CONTINUOUS
 62
     2
100
AcDbLine
 10
770.2504
 20
514.1201
 30
0.0
 11
770.2504
 21
488.7201
 31
0.0
  0
TEXT
  5
390
100
AcDbEntity
  8
61
  6
CONTINUOUS
 62
     2
100
AcDbText
 10
701.7504
 20
510.2201
 30
0.0
 40
1.5246
  1
PUBLIC
 50
0.033272
 41
1.001968
  7
MONOTXT
210
0.0
220
0.0
230
1.0
100
AcDbText
  0
TEXT
  5
391
100
AcDbEntity
  8
61
  6
CONTINUOUS
 62
     2
100
AcDbText
 10
701.8504
 20
507.0201
 30
0.0
 40
1.5246
  1
ROADS
 50
0.124322
 41
0.996852
  7
MONOTXT
210
0.0
220
0.0
230
1.0
100
AcDbText
  0
TEXT
  5
392
100
AcDbEntity
  8
61
  6
CONTINUOUS
 62
     2
100
AcDbText
 10
703.3504
 20
503.9201
 30
0.0
 40
1.5246
  1
DIV.
 50
359.931522
 41
0.994884
  7
MONOTXT
210
0.0
220
0.0
230
1.0
100
AcDbText
  0
TEXT
  5
393
100
AcDbEntity
  8
61
  6
CONTINUOUS
 62
     2
100
AcDbText
 10
714.6504
 20
510.3201
 30
0.0
 40
1.5246
  1
STATE
 50
0.058969
 41
0.998032
  7
MONOTXT
210
0.0
220
0.0
230
1.0
100
AcDbText
  0
TEXT
  5
394
100
AcDbEntity
  8
61
  6
CONTINUOUS
 62
     2
100
AcDbText
 10
715.7504
 20
507.1201
 30
0.0
 40
1.5246
  1
DIST.
 50
0.055889
 41
0.999606
  7
MONOTXT
210
0.0
220
0.0
230
1.0
100
AcDbText
  0
TEXT
  5
395
100
AcDbEntity
  8
61
  6
CONTINUOUS
 62
     2
100
AcDbText
 10
716.4504
 20
503.9201
 30
0.0
 40
1.5246
  1
NO.
 50
359.852072
 41
0.997639
  7
MONOTXT
210
0.0
220
0.0
230
1.0
100
AcDbText
  0
TEXT
  5
396
100
AcDbEntity
  8
61
  6
CONTINUOUS
 62
     2
100
AcDbText
 10
729.8504
 20
510.2201
 30
0.0
 40
1.5246
  1
STATE
 50
0.058969
 41
0.998032
  7
MONOTXT
210
0.0
220
0.0
230
1.0
100
AcDbText
  0
TEXT
  5
397
100
AcDbEntity
  8
61
  6
CONTINUOUS
 62
     2
100
AcDbText
 10
728.4504
 20
507.2201
 30
0.0
 40
1.5246
  1
PROJECT
 50
359.908431
  7
MONOTXT
210
0.0
220
0.0
230
1.0
100
AcDbText
  0
TEXT
  5
398
100
AcDbEntity
  8
61
  6
CONTINUOUS
 62
     2
100
AcDbText
 10
731.9504
 20
503.9201
 30
0.0
 40
1.5246
  1
NO.
 50
0.225453
 41
0.993703
  7
MONOTXT
210
0.0
220
0.0
230
1.0
100
AcDbText
  0
TEXT
  5
399
100
AcDbEntity
  8
61
  6
CONTINUOUS
 62
     2
100
AcDbText
 10
751.8504
 20
508.8201
 30
0.0
 40
1.5234
  1
FEDERAL
 50
0.006714
 41
0.998425
  7
MONOTXT
210
0.0
220
0.0
230
1.0
100
AcDbText
  0
TEXT
  5
39A
100
AcDbEntity
  8
61
  6
CONTINUOUS
 62
     2
100
AcDbText
 10
749.8504
 20
505.4201
 30
0.0
 40
1.5246
  1
PROJECT NO.
 50
359.921531
 41
1.000787
  7
MONOTXT
210
0.0
220
0.0
230
1.0
100
AcDbText
  0
TEXT
  5
39B
100
AcDbEntity
  8
61
  6
CONTINUOUS
 62
     2
100
AcDbText
 10
773.0504
 20
508.7201
 30
0.0
 40
1.5246
  1
FISCAL
 50
359.941939
 41
0.998819
  7
MONOTXT
210
0.0
220
0.0
230
1.0
100
AcDbText
  0
TEXT
  5
39C
100
AcDbEntity
  8
61
  6
CONTINUOUS
 62
     2
100
AcDbText
 10
773.7504
 20
505.1201
 30
0.0
 40
1.5234
  1
YEAR
 50
0.104606
 41
0.993304
  7
MONOTXT
210
0.0
220
0.0
230
1.0
100
AcDbText
  0
TEXT
  5
39D
100
AcDbEntity
  8
61
  6
CONTINUOUS
 62
     2
100
AcDbText
 10
791.6504
 20
506.8201
 30
0.0
 40
1.523399
  1
COUNTY
 50
0.068575
 41
1.001969
  7
MONOTXT
210
0.0
220
0.0
230
1.0
100
AcDbText
  0
TEXT
  5
39E
100
AcDbEntity
  8
61
  6
CONTINUOUS
 62
     2
100
AcDbText
 10
814.0504
 20
508.9201
 30
0.0
 40
1.5246
  1
SHEET
 50
0.058969
 41
0.997639
  7
MONOTXT
210
0.0
220
0.0
230
1.0
100
AcDbText
  0
TEXT
  5
39F
100
AcDbEntity
  8
61
  6
CONTINUOUS
 62
     2
100
AcDbText
 10
815.8504
 20
505.4201
 30
0.0
 40
1.5246
  1
NO.
 50
359.852072
 41
0.997639
  7
MONOTXT
210
0.0
220
0.0
230
1.0
100
AcDbText
  0
TEXT
  5
3A0
100
AcDbEntity
  8
61
  6
CONTINUOUS
 62
     2
100
AcDbText
 10
826.4504
 20
508.7201
 30
0.0
 40
1.5246
  1
TOTAL
 50
359.926039
 41
0.998426
  7
MONOTXT
210
0.0
220
0.0
230
1.0
100
AcDbText
  0
TEXT
  5
3A1
100
AcDbEntity
  8
61
  6
CONTINUOUS
 62
     2
100
AcDbText
 10
825.8504
 20
505.3201
 30
0.0
 40
1.523399
  1
SHEETS
 50
359.958675
  7
MONOTXT
210
0.0
220
0.0
230
1.0
100
AcDbText
  0
TEXT
  5
3A2
100
AcDbEntity
  8
61
  6
CONTINUOUS
 62
     2
100
AcDbText
 10
715.1504
 20
494.0201
 30
0.0
 40
3.0492
  1
  
 50
0.029406
 41
0.996655
  7
MONOTXT
210
0.0
220
0.0
230
1.0
100
AcDbText
  0
TEXT
  5
3A3
100
AcDbEntity
  8
61
  6
CONTINUOUS
 62
     2
100
AcDbText
 10
813.1504
 20
493.7201
 30
0.0
 40
3.049199
  1
   
 50
0.011508
 41
1.000984
  7
MONOTXT
210
0.0
220
0.0
230
1.0
100
AcDbText
  0
TEXT
  5
3A4
100
AcDbEntity
  8
61
  6
CONTINUOUS
 62
     2
100
AcDbText
 10
825.7504
 20
493.6201
 30
0.0
 40
3.0492
  1
   
 50
359.922128
 41
1.00059
  7
MONOTXT
210
0.0
220
0.0
230
1.0
100
AcDbText
  0
TEXT
  5
3A5
100
AcDbEntity
  8
61
  6
CONTINUOUS
 62
     2
100
AcDbText
 10
728.3504
 20
498.0201
 30
0.0
 40
2.5482
  1
    
 50
0.054383
 41
0.993643
  7
MONOTXT
210
0.0
220
0.0
230
1.0
100
AcDbText
  0
TEXT
  5
3A6
100
AcDbEntity
  8
61
  6
CONTINUOUS
 62
     2
100
AcDbText
 10
724.6504
 20
494.1201
 30
0.0
 40
2.5266
  1
       
 50
0.064678
 41
1.00095
  7
MONOTXT
210
0.0
220
0.0
230
1.0
100
AcDbText
  0
TEXT
  5
3A7
100
AcDbEntity
  8
61
  6
CONTINUOUS
 62
     2
100
AcDbText
 10
725.9504
 20
490.4201
 30
0.0
 40
2.526599
  1
      
 50
359.958053
 41
1.000237
  7
MONOTXT
210
0.0
220
0.0
230
1.0
100
AcDbText
  0
TEXT
  5
3A8
100
AcDbEntity
  8
61
  6
CONTINUOUS
 62
     2
100
AcDbText
 10
739.8504
 20
496.3201
 30
0.0
 40
3.049199
  1
           
 50
0.011508
 41
0.998819
  7
MONOTXT
210
0.0
220
0.0
230
1.0
100
AcDbText
  0
TEXT
  5
3A9
100
AcDbEntity
  8
61
  6
CONTINUOUS
 62
     2
100
AcDbText
 10
739.6504
 20
491.7201
 30
0.0
 40
3.049199
  1
           
 50
0.011508
 41
0.999606
  7
MONOTXT
210
0.0
220
0.0
230
1.0
100
AcDbText
  0
TEXT
  5
3AA
100
AcDbEntity
  8
61
  6
CONTINUOUS
 62
     2
100
AcDbText
 10
784.5504
 20
493.9201
 30
0.0
 40
2.5482
  1
          
 50
0.009222
 41
0.992701
  7
MONOTXT
210
0.0
220
0.0
230
1.0
100
AcDbText
  0
LINE
  5
3AB
100
AcDbEntity
  8
1
  6
CONTINUOUS
 62
     2
100
AcDbLine
 10
621.3504
 20
-8.9799
 30
0.0
 11
621.3504
 21
107.3201
 31
0.0
  0
LINE
  5
3AC
100
AcDbEntity
  8
1
  6
CONTINUOUS
 62
     2
100
AcDbLine
 10
621.3504
 20
107.3201
 30
0.0
 11
839.3504
 21
107.3201
 31
0.0
  0
LINE
  5
3AD
100
AcDbEntity
  8
1
  6
CONTINUOUS
 62
     2
100
AcDbLine
 10
665.8504
 20
-8.9799
 30
0.0
 11
665.8504
 21
48.1201
 31
0.0
  0
LINE
  5
3AE
100
AcDbEntity
  8
1
  6
CONTINUOUS
 62
     2
100
AcDbLine
 10
665.8504
 20
48.1201
 30
0.0
 11
621.3504
 21
48.1201
 31
0.0
  0
LINE
  5
3AF
100
AcDbEntity
  8
1
  6
CONTINUOUS
 62
     2
100
AcDbLine
 10
665.8504
 20
42.4201
 30
0.0
 11
621.3504
 21
42.4201
 31
0.0
  0
LINE
  5
3B0
100
AcDbEntity
  8
1
  6
CONTINUOUS
 62
     2
100
AcDbLine
 10
665.8504
 20
36.7201
 30
0.0
 11
621.3504
 21
36.7201
 31
0.0
  0
LINE
  5
3B1
100
AcDbEntity
  8
1
  6
CONTINUOUS
 62
     2
100
AcDbLine
 10
665.8504
 20
30.9201
 30
0.0
 11
621.3504
 21
30.9201
 31
0.0
  0
LINE
  5
3B2
100
AcDbEntity
  8
1
  6
CONTINUOUS
 62
     2
100
AcDbLine
 10
665.8504
 20
25.2201
 30
0.0
 11
621.3504
 21
25.2201
 31
0.0
  0
LINE
  5
3B3
100
AcDbEntity
  8
1
  6
CONTINUOUS
 62
     2
100
AcDbLine
 10
665.8504
 20
19.5201
 30
0.0
 11
621.3504
 21
19.5201
 31
0.0
  0
LINE
  5
3B4
100
AcDbEntity
  8
1
  6
CONTINUOUS
 62
     2
100
AcDbLine
 10
665.8504
 20
13.8201
 30
0.0
 11
621.3504
 21
13.8201
 31
0.0
  0
LINE
  5
3B5
100
AcDbEntity
  8
1
  6
CONTINUOUS
 62
     2
100
AcDbLine
 10
665.8504
 20
8.1201
 30
0.0
 11
621.3504
 21
8.1201
 31
0.0
  0
LINE
  5
3B6
100
AcDbEntity
  8
1
  6
CONTINUOUS
 62
     2
100
AcDbLine
 10
665.8504
 20
2.4201
 30
0.0
 11
621.3504
 21
2.4201
 31
0.0
  0
LINE
  5
3B7
100
AcDbEntity
  8
1
  6
CONTINUOUS
 62
     2
100
AcDbLine
 10
665.8504
 20
-3.2799
 30
0.0
 11
621.3504
 21
-3.2799
 31
0.0
  0
TEXT
  5
3B8
100
AcDbEntity
  8
1
  6
CONTINUOUS
 62
     2
100
AcDbText
 10
634.4504
 20
44.3201
 30
0.0
 40
2.5368
  1
REVISIONS
  7
MONOTXT
210
0.0
220
0.0
230
1.0
100
AcDbText
  0
TEXT
  5
3B9
100
AcDbEntity
  8
1
  6
CONTINUOUS
 62
     2
100
AcDbText
 10
623.8504
 20
49.3201
 30
0.0
 40
2.5368
  1
PREPARED: 05/01/77
  7
MONOTXT
210
0.0
220
0.0
230
1.0
100
AcDbText
  0
TEXT
  5
3BB
100
AcDbEntity
  8
1
  6
CONTINUOUS
 62
     2
100
AcDbText
 10
662.7504
 20
96.4201
 30
0.0
 40
6.0894
  1
WEST VIRGINIA DIVISION OF HIGHWAYS
  7
ROMANT
 72
     1
 11
731.292
 21
102.5095
 31
0.0
210
0.0
220
0.0
230
1.0
100
AcDbText
 73
     3
  0
TEXT
  5
3BC
100
AcDbEntity
  8
1
  6
CONTINUOUS
 62
     2
100
AcDbText
 10
676.4504
 20
82.2201
 30
0.0
 40
8.8806
  1
STANDARD DETAIL
  7
TXT
 72
     1
 11
732.9525
 21
91.1007
 31
0.0
210
0.0
220
0.0
230
1.0
100
AcDbText
 73
     3
  0
TEXT
  5
3BD
100
AcDbEntity
  8
1
  6
CONTINUOUS
 62
     2
100
AcDbText
 10
633.1504
 20
37.8201
 30
0.0
 40
2.5398
  1
        
  7
MONOTXT
 72
     1
 11
642.8863
 21
40.3599
 31
0.0
210
0.0
220
0.0
230
1.0
100
AcDbText
 73
     3
  0
TEXT
  5
3BE
100
AcDbEntity
  8
1
  6
CONTINUOUS
 62
     2
100
AcDbText
 10
633.1504
 20
32.2201
 30
0.0
 40
2.5398
  1
        
  7
MONOTXT
 72
     1
 11
642.8863
 21
34.7599
 31
0.0
210
0.0
220
0.0
230
1.0
100
AcDbText
 73
     3
  0
TEXT
  5
3BF
100
AcDbEntity
  8
1
  6
CONTINUOUS
 62
     2
100
AcDbText
 10
633.1504
 20
26.7201
 30
0.0
 40
2.5398
  1
        
  7
MONOTXT
 72
     1
 11
642.8863
 21
29.2599
 31
0.0
210
0.0
220
0.0
230
1.0
100
AcDbText
 73
     3
  0
TEXT
  5
3C0
100
AcDbEntity
  8
1
  6
CONTINUOUS
 62
     2
100
AcDbText
 10
633.1504
 20
21.1201
 30
0.0
 40
2.5398
  1
        
  7
MONOTXT
 72
     1
 11
642.8863
 21
23.6599
 31
0.0
210
0.0
220
0.0
230
1.0
100
AcDbText
 73
     3
  0
TEXT
  5
3C1
100
AcDbEntity
  8
1
  6
CONTINUOUS
 62
     2
100
AcDbText
 10
632.9504
 20
15.2201
 30
0.0
 40
2.5398
  1
        
  7
MONOTXT
 72
     1
 11
642.6863
 21
17.7599
 31
0.0
210
0.0
220
0.0
230
1.0
100
AcDbText
 73
     3
  0
TEXT
  5
3C2
100
AcDbEntity
  8
1
  6
CONTINUOUS
 62
     2
100
AcDbText
 10
633.1504
 20
9.5201
 30
0.0
 40
2.5398
  1
        
  7
MONOTXT
 72
     1
 11
642.8863
 21
12.0599
 31
0.0
210
0.0
220
0.0
230
1.0
100
AcDbText
 73
     3
  0
TEXT
  5
3C3
100
AcDbEntity
  8
1
  6
CONTINUOUS
 62
     2
100
AcDbText
 10
633.0504
 20
3.7201
 30
0.0
 40
2.5398
  1
        
  7
MONOTXT
 72
     1
 11
642.7863
 21
6.2599
 31
0.0
210
0.0
220
0.0
230
1.0
100
AcDbText
 73
     3
  0
TEXT
  5
3C4
100
AcDbEntity
  8
1
  6
CONTINUOUS
 62
     2
100
AcDbText
 10
633.1504
 20
-2.0799
 30
0.0
 40
2.5398
  1
        
  7
MONOTXT
 72
     1
 11
642.8863
 21
0.4599
 31
0.0
210
0.0
220
0.0
230
1.0
100
AcDbText
 73
     3
  0
TEXT
  5
3C5
100
AcDbEntity
  8
1
  6
CONTINUOUS
 62
     2
100
AcDbText
 10
633.1504
 20
-7.1799
 30
0.0
 40
2.5398
  1
        
  7
MONOTXT
 72
     1
 11
642.8863
 21
-4.6401
 31
0.0
210
0.0
220
0.0
230
1.0
100
AcDbText
 73
     3
  0
LINE
  5
3C6
100
AcDbEntity
  8
1
  6
CONTINUOUS
 62
     2
100
AcDbLine
 10
839.3504
 20
-8.9799
 30
0.0
 11
839.3504
 21
107.3201
 31
0.0
  0
LINE
  5
3C7
100
AcDbEntity
  8
1
  6
CONTINUOUS
 62
     7
100
AcDbLine
 10
839.3504
 20
517.1201
 30
0.0
 11
47.6504
 21
517.0201
 31
0.0
  0
LINE
  5
3C8
100
AcDbEntity
  8
1
  6
CONTINUOUS
 62
     7
100
AcDbLine
 10
47.6504
 20
517.0201
 30
0.0
 11
47.7504
 21
-8.9799
 31
0.0
  0
LINE
  5
3C9
100
AcDbEntity
  8
1
  6
CONTINUOUS
 62
     7
100
AcDbLine
 10
839.3504
 20
-8.9799
 30
0.0
 11
839.3504
 21
517.1201
 31
0.0
  0
LINE
  5
3CA
100
AcDbEntity
  8
61
  6
CONTINUOUS
 62
     2
100
AcDbLine
 10
839.3504
 20
-8.9799
 30
0.0
 11
686.6504
 21
-8.9799
 31
0.0
  0
TEXT
  5
3CB
100
AcDbEntity
  8
61
  6
CONTINUOUS
 62
     2
100
AcDbText
 10
808.8504
 20
477.0201
 30
0.0
 40
3.0546
  1
     
 41
1.001375
  7
MONOTXT
210
0.0
220
0.0
230
1.0
100
AcDbText
  0
INSERT
  5
3D0
100
AcDbEntity
  8
1
  6
CONTINUOUS
 62
     1
100
AcDbBlockReference
  2
PT
 10
845.6504
 20
-20.2799
 30
0.0
 41
269.385512
 42
269.385512
210
0.0
220
0.0
230
1.0
  0
LINE
  5
3D1
100
AcDbEntity
  8
1
  6
CONTINUOUS
 62
     7
100
AcDbLine
 10
839.3504
 20
-8.9799
 30
0.0
 11
47.7504
 21
-8.9799
 31
0.0
  0
LINE
  5
3D2
100
AcDbEntity
  8
1
  6
CONTINUOUS
 62
     2
100
AcDbLine
 10
839.3504
 20
-8.9799
 30
0.0
 11
839.3504
 21
517.1201
 31
0.0
  0
TEXT
  5
3D3
100
AcDbEntity
  8
CONSTRUCTION_CLASS
  6
CONTINUOUS
 62
     3
100
AcDbText
 10
702.2504
 20
493.3201
 30
0.0
 40
3.048
  1
WV
  7
MONOTXT
210
0.0
220
0.0
230
1.0
100
AcDbText
  0
TEXT
  5
3D4
100
AcDbEntity
  8
61
  6
CONTINUOUS
 62
     2
100
AcDbText
 10
773.7504
 20
493.8201
 30
0.0
 40
3.0492
  1
  
 50
0.029406
 41
0.996655
  7
MONOTXT
210
0.0
220
0.0
230
1.0
100
AcDbText
  0
LINE
  5
3D5
100
AcDbEntity
  8
61
  6
CONTINUOUS
 62
     2
100
AcDbLine
 10
839.3504
 20
-8.9799
 30
0.0
 11
686.6504
 21
-8.9799
 31
0.0
  0
LINE
  5
3D6
100
AcDbEntity
  8
61
  6
CONTINUOUS
 62
     2
100
AcDbLine
 10
839.3504
 20
-8.9799
 30
0.0
 11
686.9504
 21
-8.9799
 31
0.0
  0
LINE
  5
3D7
100
AcDbEntity
  8
61
  6
CONTINUOUS
 62
     2
100
AcDbLine
 10
839.3504
 20
-8.9799
 30
0.0
 11
686.6504
 21
-8.9799
 31
0.0
  0
LINE
  5
3D8
100
AcDbEntity
  8
61
  6
CONTINUOUS
 62
     2
100
AcDbLine
 10
839.3504
 20
-8.9799
 30
0.0
 11
686.9504
 21
-8.9799
 31
0.0
  0
TEXT
  5
3D9
100
AcDbEntity
  8
1
  6
CONTINUOUS
 62
     2
100
AcDbText
 10
780.6504
 20
-12.7799
 30
0.0
 40
2.031
  1
TRAFFIC ENGINEERING DIVISION
  7
TXT
210
0.0
220
0.0
230
1.0
100
AcDbText
  0
TEXT
  5
3DA
100
AcDbEntity
  8
1
  6
CONTINUOUS
 62
     7
100
AcDbText
 10
566.3504
 20
-12.7799
 30
0.0
 40
2.2002
  1
$$$$$$$$$FILENAME$$$$$$$$
  7
MONOTXT
210
0.0
220
0.0
230
1.0
100
AcDbText
  0
TEXT
  5
3DB
100
AcDbEntity
  8
1
  6
CONTINUOUS
 62
     7
100
AcDbText
 10
687.1504
 20
-12.7799
 30
0.0
 40
2.2002
  1
$USERNAME$
  7
MONOTXT
210
0.0
220
0.0
230
1.0
100
AcDbText
  0
TEXT
  5
3DC
100
AcDbEntity
  8
1
  6
CONTINUOUS
 62
     7
100
AcDbText
 10
732.2504
 20
-12.7799
 30
0.0
 40
2.2002
  1
DD-MMM-YYYY HH:MM
  7
MONOTXT
210
0.0
220
0.0
230
1.0
100
AcDbText
  0
TEXT
  5
3DD
100
AcDbEntity
  8
1
  6
CONTINUOUS
 62
     2
100
AcDbText
 10
670.6504
 20
-3.7799
 30
0.0
 40
8.8806
  1
STANDARD SHEET TEL-15B
  7
TXT
210
0.0
220
0.0
230
1.0
100
AcDbText
  0
TEXT
  5
3DE
100
AcDbEntity
  8
1
  6
CONTINUOUS
 62
     4
100
AcDbText
 10
435.7341
 20
169.1715
 30
0.0
 40
2.4192
  1
EXCEPT USE 75mm WHEN USING
  7
MONOTXT
 11
435.7341
 21
170.3811
 31
0.0
210
0.0
220
0.0
230
1.0
100
AcDbText
 73
     2
  0
TEXT
  5
3DF
100
AcDbEntity
  8
1
  6
CONTINUOUS
 62
     4
100
AcDbText
 10
435.7341
 20
165.5523
 30
0.0
 40
2.4192
  1
TRANSFORMER BASES
  7
MONOTXT
 11
435.7341
 21
166.7619
 31
0.0
210
0.0
220
0.0
230
1.0
100
AcDbText
 73
     2
  0
TEXT
  5
3E0
100
AcDbEntity
  8
1
  6
CONTINUOUS
 62
     4
100
AcDbText
 10
419.6419
 20
165.7922
 30
0.0
 40
2.4192
  1
100mm
 50
45.0
  7
MONOTXT
 11
418.786584
 21
166.647516
 31
0.0
210
0.0
220
0.0
230
1.0
100
AcDbText
 73
     2
  0
TEXT
  5
3E1
100
AcDbEntity
  8
1
  6
CONTINUOUS
 62
     4
100
AcDbText
 10
447.5421
 20
159.1875
 30
0.0
 40
2.4192
  1
75mm
  7
MONOTXT
 11
447.5421
 21
160.3971
 31
0.0
210
0.0
220
0.0
230
1.0
100
AcDbText
 73
     2
  0
TEXT
  5
3E2
100
AcDbEntity
  8
1
  6
CONTINUOUS
 62
     4
100
AcDbText
 10
362.3179
 20
139.9731
 30
0.0
 40
2.4192
  1
450mm
  7
MONOTXT
 72
     4
 11
368.8325
 21
141.1827
 31
0.0
210
0.0
220
0.0
230
1.0
100
AcDbText
  0
TEXT
  5
3E3
100
AcDbEntity
  8
1
  6
CONTINUOUS
 62
     4
100
AcDbText
 10
365.7561
 20
136.3539
 30
0.0
 40
2.4192
  1
MIN.
  7
MONOTXT
 72
     4
 11
368.8325
 21
137.5635
 31
0.0
210
0.0
220
0.0
230
1.0
100
AcDbText
  0
TEXT
  5
3E4
100
AcDbEntity
  8
1
  6
CONTINUOUS
 62
     4
100
AcDbText
 10
452.0215
 20
74.3187
 30
0.0
 40
2.4192
  1
75mm
  7
MONOTXT
 11
452.0215
 21
75.5283
 31
0.0
210
0.0
220
0.0
230
1.0
100
AcDbText
 73
     2
  0
TEXT
  5
3E5
100
AcDbEntity
  8
1
  6
CONTINUOUS
 62
     4
100
AcDbText
 10
319.1894
 20
94.1523
 30
0.0
 40
2.4192
  1
TRAFFIC LIGHTING
  7
MONOTXT
 11
319.1894
 21
95.3619
 31
0.0
210
0.0
220
0.0
230
1.0
100
AcDbText
 73
     2
  0
TEXT
  5
3E6
100
AcDbEntity
  8
1
  6
CONTINUOUS
 62
     4
100
AcDbText
 10
319.1894
 20
90.5331
 30
0.0
 40
2.4192
  1
GROUND ROD
  7
MONOTXT
 11
319.1894
 21
91.7427
 31
0.0
210
0.0
220
0.0
230
1.0
100
AcDbText
 73
     2
  0
TEXT
  5
3E7
100
AcDbEntity
  8
1
  6
CONTINUOUS
 62
     4
100
AcDbText
 10
319.1894
 20
86.9139
 30
0.0
 40
2.4192
  1
19mmx2.4m
  7
MONOTXT
 11
319.1894
 21
88.1235
 31
0.0
210
0.0
220
0.0
230
1.0
100
AcDbText
 73
     2
  0
TEXT
  5
3E8
100
AcDbEntity
  8
1
  6
CONTINUOUS
 62
     6
100
AcDbText
 10
228.8052
 20
309.8072
 30
0.0
 40
2.4
  1
MINIMUM SIZES
  7
MONOTXT
210
0.0
220
0.0
230
1.0
100
AcDbText
  0
TEXT
  5
3E9
100
AcDbEntity
  8
1
  6
CONTINUOUS
 62
     6
100
AcDbText
 10
228.8052
 20
305.0072
 30
0.0
 40
2.4
  1
19.05mmx660mmx102mm
  7
MONOTXT
210
0.0
220
0.0
230
1.0
100
AcDbText
  0
TEXT
  5
3EA
100
AcDbEntity
  8
1
  6
CONTINUOUS
 62
     6
100
AcDbText
 10
228.8052
 20
300.2072
 30
0.0
 40
2.4
  1
25.4mmx915mmx102mm
  7
MONOTXT
210
0.0
220
0.0
230
1.0
100
AcDbText
  0
TEXT
  5
3EB
100
AcDbEntity
  8
1
  6
CONTINUOUS
 62
     6
100
AcDbText
 10
228.8052
 20
295.4072
 30
0.0
 40
2.4
  1
31.75mmx1065mmx152mm
  7
MONOTXT
210
0.0
220
0.0
230
1.0
100
AcDbText
  0
TEXT
  5
3EC
100
AcDbEntity
  8
1
  6
CONTINUOUS
 62
    30
100
AcDbText
 10
613.9179
 20
453.4472
 30
0.0
 40
2.4
  1
FOUNDATION NOTE:
  7
MONOTXT
 11
613.9179
 21
455.8472
 31
0.0
210
0.0
220
0.0
230
1.0
100
AcDbText
 73
     3
  0
TEXT
  5
3ED
100
AcDbEntity
  8
1
  6
CONTINUOUS
 62
    30
100
AcDbText
 10
613.9179
 20
448.6472
 30
0.0
 40
2.4
  1
 
  7
MONOTXT
 11
613.9179
 21
451.0472
 31
0.0
210
0.0
220
0.0
230
1.0
100
AcDbText
 73
     3
  0
TEXT
  5
3EE
100
AcDbEntity
  8
1
  6
CONTINUOUS
 62
    30
100
AcDbText
 10
613.9179
 20
443.8472
 30
0.0
 40
2.4
  1
1.   CONCRETE:
  7
MONOTXT
 11
613.9179
 21
446.2472
 31
0.0
210
0.0
220
0.0
230
1.0
100
AcDbText
 73
     3
  0
TEXT
  5
3EF
100
AcDbEntity
  8
1
  6
CONTINUOUS
 62
    30
100
AcDbText
 10
613.9179
 20
439.0472
 30
0.0
 40
2.4
  1
     A.   ALL EXPOSED CONCRETE SHALL HAVE A NORMAL FINISH.
  7
MONOTXT
 11
613.9179
 21
441.4472
 31
0.0
210
0.0
220
0.0
230
1.0
100
AcDbText
 73
     3
  0
TEXT
  5
3F0
100
AcDbEntity
  8
1
  6
CONTINUOUS
 62
    30
100
AcDbText
 10
613.9179
 20
434.2472
 30
0.0
 40
2.4
  1
     B.   ALL OUTSIDE CONCRETE CORNERS AND EDGES SHALL HAVE A 19mm CHAMFER.
  7
MONOTXT
 11
613.9179
 21
436.6472
 31
0.0
210
0.0
220
0.0
230
1.0
100
AcDbText
 73
     3
  0
TEXT
  5
3F1
100
AcDbEntity
  8
1
  6
CONTINUOUS
 62
    30
100
AcDbText
 10
613.9179
 20
429.4472
 30
0.0
 40
2.4
  1
     C.   CONCRETE TO BE RODDED OR VIBRATED WHILE POURING.
  7
MONOTXT
 11
613.9179
 21
431.8472
 31
0.0
210
0.0
220
0.0
230
1.0
100
AcDbText
 73
     3
  0
TEXT
  5
3F2
100
AcDbEntity
  8
1
  6
CONTINUOUS
 62
    30
100
AcDbText
 10
613.9179
 20
424.6472
 30
0.0
 40
2.4
  1
     D.   ALL CONCRETE SHALL BE CLASS "B".
  7
MONOTXT
 11
613.9179
 21
427.0472
 31
0.0
210
0.0
220
0.0
230
1.0
100
AcDbText
 73
     3
  0
TEXT
  5
3F3
100
AcDbEntity
  8
1
  6
CONTINUOUS
 62
    30
100
AcDbText
 10
613.9179
 20
419.8472
 30
0.0
 40
2.4
  1
 
  7
MONOTXT
 11
613.9179
 21
422.2472
 31
0.0
210
0.0
220
0.0
230
1.0
100
AcDbText
 73
     3
  0
TEXT
  5
3F4
100
AcDbEntity
  8
1
  6
CONTINUOUS
 62
    30
100
AcDbText
 10
613.9179
 20
415.0472
 30
0.0
 40
2.4
  1
2.   STEEL:
  7
MONOTXT
 11
613.9179
 21
417.4472
 31
0.0
210
0.0
220
0.0
230
1.0
100
AcDbText
 73
     3
  0
TEXT
  5
3F5
100
AcDbEntity
  8
1
  6
CONTINUOUS
 62
    30
100
AcDbText
 10
613.9179
 20
410.2472
 30
0.0
 40
2.4
  1
     A.   REINFORCING STEEL SHALL NOT BE CLOSER THAN 75mm TO THE OUTSIDE
  7
MONOTXT
 11
613.9179
 21
412.6472
 31
0.0
210
0.0
220
0.0
230
1.0
100
AcDbText
 73
     3
  0
TEXT
  5
3F6
100
AcDbEntity
  8
1
  6
CONTINUOUS
 62
    30
100
AcDbText
 10
613.9179
 20
405.4472
 30
0.0
 40
2.4
  1
        SURFACE OF THE FOOTING AND SHALL BE TIED OR WELDED.
  7
MONOTXT
 11
613.9179
 21
407.8472
 31
0.0
210
0.0
220
0.0
230
1.0
100
AcDbText
 73
     3
  0
TEXT
  5
3F7
100
AcDbEntity
  8
1
  6
CONTINUOUS
 62
    30
100
AcDbText
 10
613.9179
 20
400.6472
 30
0.0
 40
2.4
  1
     B.   VERTICAL BARS SHALL BE TIED WITH #13 HOOP BARS AT 300mm ON CENTER.
  7
MONOTXT
 11
613.9179
 21
403.0472
 31
0.0
210
0.0
220
0.0
230
1.0
100
AcDbText
 73
     3
  0
TEXT
  5
3F8
100
AcDbEntity
  8
1
  6
CONTINUOUS
 62
    30
100
AcDbText
 10
613.9179
 20
395.8472
 30
0.0
 40
2.4
  1
        THE #13 HOOP BARS SHALL HAVE A 300mm MINIMUM LAP.
  7
MONOTXT
 11
613.9179
 21
398.2472
 31
0.0
210
0.0
220
0.0
230
1.0
100
AcDbText
 73
     3
  0
TEXT
  5
3F9
100
AcDbEntity
  8
1
  6
CONTINUOUS
 62
    30
100
AcDbText
 10
613.9179
 20
391.0472
 30
0.0
 40
2.4
  1
 
  7
MONOTXT
 11
613.9179
 21
393.4472
 31
0.0
210
0.0
220
0.0
230
1.0
100
AcDbText
 73
     3
  0
TEXT
  5
3FA
100
AcDbEntity
  8
1
  6
CONTINUOUS
 62
    30
100
AcDbText
 10
613.9179
 20
386.2472
 30
0.0
 40
2.4
  1
3.   FOOTINGS:
  7
MONOTXT
 11
613.9179
 21
388.6472
 31
0.0
210
0.0
220
0.0
230
1.0
100
AcDbText
 73
     3
  0
TEXT
  5
3FB
100
AcDbEntity
  8
1
  6
CONTINUOUS
 62
    30
100
AcDbText
 10
613.9179
 20
381.4472
 30
0.0
 40
2.4
  1
     A.   ALL FOOTING IN SIDEWALKS SHALL BE FINISHED FLUSH WITH THE EXISTING
  7
MONOTXT
 11
613.9179
 21
383.8472
 31
0.0
210
0.0
220
0.0
230
1.0
100
AcDbText
 73
     3
  0
TEXT
  5
3FC
100
AcDbEntity
  8
1
  6
CONTINUOUS
 62
    30
100
AcDbText
 10
613.9179
 20
376.6472
 30
0.0
 40
2.4
  1
        SIDEWALKS, UNLESS OTHERWISE SPECIFIED BY THE PROJECT ENGINEER.
  7
MONOTXT
 11
613.9179
 21
379.0472
 31
0.0
210
0.0
220
0.0
230
1.0
100
AcDbText
 73
     3
  0
TEXT
  5
3FD
100
AcDbEntity
  8
1
  6
CONTINUOUS
 62
    30
100
AcDbText
 10
613.9179
 20
371.8472
 30
0.0
 40
2.4
  1
     B.   FOOTINGS MAY BE EITHER CIRCULAR OR SQUARE IN CROSS-SECTION.
  7
MONOTXT
 11
613.9179
 21
374.2472
 31
0.0
210
0.0
220
0.0
230
1.0
100
AcDbText
 73
     3
  0
TEXT
  5
3FE
100
AcDbEntity
  8
1
  6
CONTINUOUS
 62
    30
100
AcDbText
 10
613.9179
 20
367.0472
 30
0.0
 40
2.4
  1
        CIRCULAR FOOTINGS SHALL BE SQUARE FOR THE TOP 300mm.
  7
MONOTXT
 11
613.9179
 21
369.4472
 31
0.0
210
0.0
220
0.0
230
1.0
100
AcDbText
 73
     3
  0
TEXT
  5
3FF
100
AcDbEntity
  8
1
  6
CONTINUOUS
 62
    30
100
AcDbText
 10
613.9179
 20
362.2472
 30
0.0
 40
2.4
  1
     C.   WITH PERMISSION OF THE PROJECT ENGINEER, THE DEPTH OF THE FOOTING
  7
MONOTXT
 11
613.9179
 21
364.6472
 31
0.0
210
0.0
220
0.0
230
1.0
100
AcDbText
 73
     3
  0
TEXT
  5
400
100
AcDbEntity
  8
1
  6
CONTINUOUS
 62
    30
100
AcDbText
 10
613.9179
 20
357.4472
 30
0.0
 40
2.4
  1
        MAY BE REDUCED 0.3m WHEN THE FOOTING IS PLACED IN A CONCRETE
  7
MONOTXT
 11
613.9179
 21
359.8472
 31
0.0
210
0.0
220
0.0
230
1.0
100
AcDbText
 73
     3
  0
TEXT
  5
401
100
AcDbEntity
  8
1
  6
CONTINUOUS
 62
    30
100
AcDbText
 10
613.9179
 20
352.6472
 30
0.0
 40
2.4
  1
        OR ASPHALTIC CONCRETE SIDEWALK OR PAVED SURFACE. THE FOOTINGS MAY BE
  7
MONOTXT
 11
613.9179
 21
355.0472
 31
0.0
210
0.0
220
0.0
230
1.0
100
AcDbText
 73
     3
  0
TEXT
  5
402
100
AcDbEntity
  8
1
  6
CONTINUOUS
 62
    30
100
AcDbText
 10
613.9179
 20
347.8472
 30
0.0
 40
2.4
  1
        REDUCED BY 0.3m WHEN THE FOOTING IS IN ROCK.
  7
MONOTXT
 11
613.9179
 21
350.2472
 31
0.0
210
0.0
220
0.0
230
1.0
100
AcDbText
 73
     3
  0
TEXT
  5
403
100
AcDbEntity
  8
1
  6
CONTINUOUS
 62
    30
100
AcDbText
 10
613.9179
 20
343.0472
 30
0.0
 40
2.4
  1
 
  7
MONOTXT
 11
613.9179
 21
345.4472
 31
0.0
210
0.0
220
0.0
230
1.0
100
AcDbText
 73
     3
  0
TEXT
  5
404
100
AcDbEntity
  8
1
  6
CONTINUOUS
 62
    30
100
AcDbText
 10
613.9179
 20
338.2472
 30
0.0
 40
2.4
  1
4.   FORMS:
  7
MONOTXT
 11
613.9179
 21
340.6472
 31
0.0
210
0.0
220
0.0
230
1.0
100
AcDbText
 73
     3
  0
TEXT
  5
405
100
AcDbEntity
  8
1
  6
CONTINUOUS
 62
    30
100
AcDbText
 10
613.9179
 20
333.4472
 30
0.0
 40
2.4
  1
     A.   NO FORMS MAY EXTEND TO A DEPTH GREATER THAN 12" UNLESS APPROVAL
  7
MONOTXT
 11
613.9179
 21
335.8472
 31
0.0
210
0.0
220
0.0
230
1.0
100
AcDbText
 73
     3
  0
TEXT
  5
406
100
AcDbEntity
  8
1
  6
CONTINUOUS
 62
    30
100
AcDbText
 10
613.9179
 20
328.6472
 30
0.0
 40
2.4
  1
        IS GRANTED BY THE PROJECT ENGINEER.
  7
MONOTXT
 11
613.9179
 21
331.0472
 31
0.0
210
0.0
220
0.0
230
1.0
100
AcDbText
 73
     3
  0
TEXT
  5
407
100
AcDbEntity
  8
1
  6
CONTINUOUS
 62
    30
100
AcDbText
 10
613.9179
 20
323.8472
 30
0.0
 40
2.4
  1
 
  7
MONOTXT
 11
613.9179
 21
326.2472
 31
0.0
210
0.0
220
0.0
230
1.0
100
AcDbText
 73
     3
  0
TEXT
  5
408
100
AcDbEntity
  8
1
  6
CONTINUOUS
 62
    30
100
AcDbText
 10
613.9179
 20
319.0472
 30
0.0
 40
2.4
  1
5.   CONDUIT:
  7
MONOTXT
 11
613.9179
 21
321.4472
 31
0.0
210
0.0
220
0.0
230
1.0
100
AcDbText
 73
     3
  0
TEXT
  5
409
100
AcDbEntity
  8
1
  6
CONTINUOUS
 62
    30
100
AcDbText
 10
613.9179
 20
314.2472
 30
0.0
 40
2.4
  1
     A.   THE RADIUS (R) OF THE CURVE OF THE INNER EDGE OF ANY BEND SHALL NOT
  7
MONOTXT
 11
613.9179
 21
316.6472
 31
0.0
210
0.0
220
0.0
230
1.0
100
AcDbText
 73
     3
  0
TEXT
  5
40A
100
AcDbEntity
  8
1
  6
CONTINUOUS
 62
    30
100
AcDbText
 10
613.9179
 20
309.4472
 30
0.0
 40
2.4
  1
        BE LESS THAN THE SIZE SPECIFIED IN THE N.E.C.
  7
MONOTXT
 11
613.9179
 21
311.8472
 31
0.0
210
0.0
220
0.0
230
1.0
100
AcDbText
 73
     3
  0
TEXT
  5
40B
100
AcDbEntity
  8
1
  6
CONTINUOUS
 62
     6
100
AcDbText
 10
222.1402
 20
454.6441
 30
0.0
 40
2.1
  1
3.18mm
  7
MONOTXT
210
0.0
220
0.0
230
1.0
100
AcDbText
  0
TEXT
  5
40C
100
AcDbEntity
  8
1
  6
CONTINUOUS
 62
     6
100
AcDbText
 10
238.6529
 20
454.4665
 30
0.0
 40
2.1
  1
3.43mm
  7
MONOTXT
210
0.0
220
0.0
230
1.0
100
AcDbText
  0
TEXT
  5
40D
100
AcDbEntity
  8
1
  6
CONTINUOUS
 62
     6
100
AcDbText
 10
255.6982
 20
454.4664
 30
0.0
 40
2.1
  1
3.96mm
  7
MONOTXT
210
0.0
220
0.0
230
1.0
100
AcDbText
  0
TEXT
  5
40E
100
AcDbEntity
  8
1
  6
CONTINUOUS
 62
     6
100
AcDbText
 10
272.3885
 20
454.644
 30
0.0
 40
2.1
  1
4.78mm
  7
MONOTXT
210
0.0
220
0.0
230
1.0
100
AcDbText
  0
TEXT
  5
40F
100
AcDbEntity
  8
1
  6
CONTINUOUS
 62
     6
100
AcDbText
 10
289.0788
 20
454.2888
 30
0.0
 40
2.1
  1
5.56mm
  7
MONOTXT
210
0.0
220
0.0
230
1.0
100
AcDbText
  0
TEXT
  5
410
100
AcDbEntity
  8
1
  6
CONTINUOUS
 62
     6
100
AcDbText
 10
305.769
 20
454.1112
 30
0.0
 40
2.1
  1
6.35mm
  7
MONOTXT
210
0.0
220
0.0
230
1.0
100
AcDbText
  0
TEXT
  5
411
100
AcDbEntity
  8
1
  6
CONTINUOUS
 62
     6
100
AcDbText
 10
322.9919
 20
454.2888
 30
0.0
 40
2.1
  1
6.86mm
  7
MONOTXT
210
0.0
220
0.0
230
1.0
100
AcDbText
  0
TEXT
  5
412
100
AcDbEntity
  8
1
  6
CONTINUOUS
 62
     6
100
AcDbText
 10
261.285
 20
464.3612
 30
0.0
 40
2.4
  1
BASE O.D. (mm)
  7
MONOTXT
210
0.0
220
0.0
230
1.0
100
AcDbText
  0
TEXT
  5
413
100
AcDbEntity
  8
1
  6
CONTINUOUS
 62
     6
100
AcDbText
 10
222.1402
 20
445.4088
 30
0.0
 40
2.1
  1
101.6mm
  7
MONOTXT
210
0.0
220
0.0
230
1.0
100
AcDbText
  0
TEXT
  5
414
100
AcDbEntity
  8
1
  6
CONTINUOUS
 62
     6
100
AcDbText
 10
221.0748
 20
437.2392
 30
0.0
 40
2.1
  1
127.0mm
  7
MONOTXT
210
0.0
220
0.0
230
1.0
100
AcDbText
  0
TEXT
  5
415
100
AcDbEntity
  8
1
  6
CONTINUOUS
 62
     6
100
AcDbText
 10
237.8232
 20
413.4081
 30
0.0
 40
2.1
  1
203.2mm&
 41
0.857143
  7
MONOTXT
 72
     4
 11
244.8673
 21
414.4581
 31
0.0
210
0.0
220
0.0
230
1.0
100
AcDbText
  0
TEXT
  5
416
100
AcDbEntity
  8
1
  6
CONTINUOUS
 62
     6
100
AcDbText
 10
238.7587
 20
410.3081
 30
0.0
 40
2.1
  1
228.6mm
 41
0.857143
  7
MONOTXT
 72
     4
 11
244.8673
 21
411.3581
 31
0.0
210
0.0
220
0.0
230
1.0
100
AcDbText
  0
TEXT
  5
417
100
AcDbEntity
  8
1
  6
CONTINUOUS
 62
     6
100
AcDbText
 10
237.912
 20
346.0729
 30
0.0
 40
2.1
  1
330.2mm&
 41
0.857143
  7
MONOTXT
 72
     4
 11
244.9561
 21
347.1229
 31
0.0
210
0.0
220
0.0
230
1.0
100
AcDbText
  0
TEXT
  5
418
100
AcDbEntity
  8
1
  6
CONTINUOUS
 62
     6
100
AcDbText
 10
238.8049
 20
342.9729
 30
0.0
 40
2.1
  1
342.9mm
 41
0.857143
  7
MONOTXT
 72
     4
 11
244.9561
 21
344.0229
 31
0.0
210
0.0
220
0.0
230
1.0
100
AcDbText
  0
TEXT
  5
419
100
AcDbEntity
  8
1
  6
CONTINUOUS
 62
     6
100
AcDbText
 10
271.5588
 20
413.5606
 30
0.0
 40
2.1
  1
203.2mm&
 41
0.857143
  7
MONOTXT
 72
     4
 11
278.6029
 21
414.6106
 31
0.0
210
0.0
220
0.0
230
1.0
100
AcDbText
  0
TEXT
  5
41A
100
AcDbEntity
  8
1
  6
CONTINUOUS
 62
     6
100
AcDbText
 10
272.4943
 20
410.4606
 30
0.0
 40
2.1
  1
228.6mm
 41
0.857143
  7
MONOTXT
 72
     4
 11
278.6029
 21
411.5106
 31
0.0
210
0.0
220
0.0
230
1.0
100
AcDbText
  0
TEXT
  5
41B
100
AcDbEntity
  8
1
  6
CONTINUOUS
 62
     6
100
AcDbText
 10
288.3379
 20
413.7382
 30
0.0
 40
2.1
  1
203.2mm&
 41
0.857143
  7
MONOTXT
 72
     4
 11
295.382
 21
414.7882
 31
0.0
210
0.0
220
0.0
230
1.0
100
AcDbText
  0
TEXT
  5
41C
100
AcDbEntity
  8
1
  6
CONTINUOUS
 62
     6
100
AcDbText
 10
289.2734
 20
410.6382
 30
0.0
 40
2.1
  1
228.6mm
 41
0.857143
  7
MONOTXT
 72
     4
 11
295.382
 21
411.6882
 31
0.0
210
0.0
220
0.0
230
1.0
100
AcDbText
  0
TEXT
  5
41D
100
AcDbEntity
  8
1
  6
CONTINUOUS
 62
     6
100
AcDbText
 10
238.1646
 20
369.8153
 30
0.0
 40
2.1
  1
292.1mm
  7
MONOTXT
210
0.0
220
0.0
230
1.0
100
AcDbText
  0
TEXT
  5
41E
100
AcDbEntity
  8
1
  6
CONTINUOUS
 62
     6
100
AcDbText
 10
237.6319
 20
361.3794
 30
0.0
 40
2.1
  1
304.8mm
  7
MONOTXT
210
0.0
220
0.0
230
1.0
100
AcDbText
  0
TEXT
  5
41F
100
AcDbEntity
  8
1
  6
CONTINUOUS
 62
     6
100
AcDbText
 10
255.1656
 20
428.8228
 30
0.0
 40
2.1
  1
152.4mm
  7
MONOTXT
210
0.0
220
0.0
230
1.0
100
AcDbText
  0
TEXT
  5
420
100
AcDbEntity
  8
1
  6
CONTINUOUS
 62
     6
100
AcDbText
 10
254.8105
 20
420.298
 30
0.0
 40
2.1
  1
177.8mm
  7
MONOTXT
210
0.0
220
0.0
230
1.0
100
AcDbText
  0
TEXT
  5
421
100
AcDbEntity
  8
1
  6
CONTINUOUS
 62
     6
100
AcDbText
 10
271.9446
 20
420.2092
 30
0.0
 40
2.1
  1
177.8mm
  7
MONOTXT
210
0.0
220
0.0
230
1.0
100
AcDbText
  0
TEXT
  5
422
100
AcDbEntity
  8
1
  6
CONTINUOUS
 62
     6
100
AcDbText
 10
254.4554
 20
411.6844
 30
0.0
 40
2.1
  1
203.2mm
  7
MONOTXT
210
0.0
220
0.0
230
1.0
100
AcDbText
  0
TEXT
  5
423
100
AcDbEntity
  8
1
  6
CONTINUOUS
 62
     6
100
AcDbText
 10
271.5008
 20
395.0789
 30
0.0
 40
2.1
  1
254.0mm
  7
MONOTXT
210
0.0
220
0.0
230
1.0
100
AcDbText
  0
TEXT
  5
424
100
AcDbEntity
  8
1
  6
CONTINUOUS
 62
     6
100
AcDbText
 10
287.836
 20
386.5541
 30
0.0
 40
2.1
  1
254.0mm
  7
MONOTXT
210
0.0
220
0.0
230
1.0
100
AcDbText
  0
TEXT
  5
425
100
AcDbEntity
  8
1
  6
CONTINUOUS
 62
     6
100
AcDbText
 10
305.1477
 20
386.1989
 30
0.0
 40
2.1
  1
254.0mm
  7
MONOTXT
210
0.0
220
0.0
230
1.0
100
AcDbText
  0
TEXT
  5
426
100
AcDbEntity
  8
1
  6
CONTINUOUS
 62
     6
100
AcDbText
 10
288.1911
 20
378.2069
 30
0.0
 40
2.1
  1
279.4mm
  7
MONOTXT
210
0.0
220
0.0
230
1.0
100
AcDbText
  0
TEXT
  5
427
100
AcDbEntity
  8
1
  6
CONTINUOUS
 62
     6
100
AcDbText
 10
304.7925
 20
411.9508
 30
0.0
 40
2.1
  1
203.2mm
  7
MONOTXT
210
0.0
220
0.0
230
1.0
100
AcDbText
  0
TEXT
  5
428
100
AcDbEntity
  8
1
  6
CONTINUOUS
 62
     6
100
AcDbText
 10
304.9701
 20
403.6037
 30
0.0
 40
2.1
  1
228.6mm
  7
MONOTXT
210
0.0
220
0.0
230
1.0
100
AcDbText
  0
TEXT
  5
429
100
AcDbEntity
  8
1
  6
CONTINUOUS
 62
     6
100
AcDbText
 10
288.0135
 20
353.0981
 30
0.0
 40
2.1
  1
304.8mm
  7
MONOTXT
210
0.0
220
0.0
230
1.0
100
AcDbText
  0
TEXT
  5
42A
100
AcDbEntity
  8
1
  6
CONTINUOUS
 62
     6
100
AcDbText
 10
321.6603
 20
336.2934
 30
0.0
 40
2.1
  1
228.6mm
  7
MONOTXT
210
0.0
220
0.0
230
1.0
100
AcDbText
  0
TEXT
  5
42B
100
AcDbEntity
  8
1
  6
CONTINUOUS
 62
     6
100
AcDbText
 10
338.3778
 20
456.0411
 30
0.0
 40
2.1
  1
DIAMETER OR
 41
0.761905
  7
MONOTXT
 72
     4
 11
346.3588
 21
457.0911
 31
0.0
210
0.0
220
0.0
230
1.0
100
AcDbText
  0
TEXT
  5
42C
100
AcDbEntity
  8
1
  6
CONTINUOUS
 62
     6
100
AcDbText
 10
338.3148
 20
452.9411
 30
0.0
 40
2.1
  1
SIDE (METER)
 41
0.761905
  7
MONOTXT
 72
     4
 11
346.3588
 21
453.9911
 31
0.0
210
0.0
220
0.0
230
1.0
100
AcDbText
  0
TEXT
  5
42D
100
AcDbEntity
  8
1
  6
CONTINUOUS
 62
     6
100
AcDbText
 10
358.4232
 20
453.014
 30
0.0
 40
2.1
  1
(METER)
  7
MONOTXT
210
0.0
220
0.0
230
1.0
100
AcDbText
  0
TEXT
  5
42E
100
AcDbEntity
  8
1
  6
CONTINUOUS
 62
     6
100
AcDbText
 10
377.7727
 20
452.8404
 30
0.0
 40
2.1
  1
(m )
  7
MONOTXT
210
0.0
220
0.0
230
1.0
100
AcDbText
  0
TEXT
  5
42F
100
AcDbEntity
  8
1
  6
CONTINUOUS
 62
     6
100
AcDbText
 10
343.7545
 20
445.231
 30
0.0
 40
2.1
  1
0.5
  7
MONOTXT
210
0.0
220
0.0
230
1.0
100
AcDbText
  0
TEXT
  5
430
100
AcDbEntity
  8
1
  6
CONTINUOUS
 62
     6
100
AcDbText
 10
343.7545
 20
437.239
 30
0.0
 40
2.1
  1
0.5
  7
MONOTXT
210
0.0
220
0.0
230
1.0
100
AcDbText
  0
TEXT
  5
431
100
AcDbEntity
  8
1
  6
CONTINUOUS
 62
     6
100
AcDbText
 10
343.577
 20
428.3591
 30
0.0
 40
2.1
  1
0.6
  7
MONOTXT
210
0.0
220
0.0
230
1.0
100
AcDbText
  0
TEXT
  5
432
100
AcDbEntity
  8
1
  6
CONTINUOUS
 62
     6
100
AcDbText
 10
343.7545
 20
420.3671
 30
0.0
 40
2.1
  1
0.6
  7
MONOTXT
210
0.0
220
0.0
230
1.0
100
AcDbText
  0
TEXT
  5
433
100
AcDbEntity
  8
1
  6
CONTINUOUS
 62
     6
100
AcDbText
 10
343.577
 20
411.8423
 30
0.0
 40
2.1
  1
0.6
  7
MONOTXT
210
0.0
220
0.0
230
1.0
100
AcDbText
  0
TEXT
  5
434
100
AcDbEntity
  8
1
  6
CONTINUOUS
 62
     6
100
AcDbText
 10
343.3994
 20
402.9624
 30
0.0
 40
2.1
  1
0.6
  7
MONOTXT
210
0.0
220
0.0
230
1.0
100
AcDbText
  0
TEXT
  5
435
100
AcDbEntity
  8
1
  6
CONTINUOUS
 62
     6
100
AcDbText
 10
343.3994
 20
394.7928
 30
0.0
 40
2.1
  1
0.6
  7
MONOTXT
210
0.0
220
0.0
230
1.0
100
AcDbText
  0
TEXT
  5
436
100
AcDbEntity
  8
1
  6
CONTINUOUS
 62
     6
100
AcDbText
 10
343.3994
 20
386.4456
 30
0.0
 40
2.1
  1
0.6
  7
MONOTXT
210
0.0
220
0.0
230
1.0
100
AcDbText
  0
TEXT
  5
437
100
AcDbEntity
  8
1
  6
CONTINUOUS
 62
     6
100
AcDbText
 10
342.6892
 20
378.276
 30
0.0
 40
2.1
  1
0.75
  7
MONOTXT
210
0.0
220
0.0
230
1.0
100
AcDbText
  0
TEXT
  5
438
100
AcDbEntity
  8
1
  6
CONTINUOUS
 62
     6
100
AcDbText
 10
342.3341
 20
369.7513
 30
0.0
 40
2.1
  1
0.75
  7
MONOTXT
210
0.0
220
0.0
230
1.0
100
AcDbText
  0
TEXT
  5
439
100
AcDbEntity
  8
1
  6
CONTINUOUS
 62
     6
100
AcDbText
 10
342.5116
 20
361.4041
 30
0.0
 40
2.1
  1
0.75
  7
MONOTXT
210
0.0
220
0.0
230
1.0
100
AcDbText
  0
TEXT
  5
43A
100
AcDbEntity
  8
1
  6
CONTINUOUS
 62
     6
100
AcDbText
 10
342.3341
 20
352.7017
 30
0.0
 40
2.1
  1
0.75
  7
MONOTXT
210
0.0
220
0.0
230
1.0
100
AcDbText
  0
TEXT
  5
43B
100
AcDbEntity
  8
1
  6
CONTINUOUS
 62
     6
100
AcDbText
 10
342.3341
 20
344.5322
 30
0.0
 40
2.1
  1
0.75
  7
MONOTXT
210
0.0
220
0.0
230
1.0
100
AcDbText
  0
TEXT
  5
43C
100
AcDbEntity
  8
1
  6
CONTINUOUS
 62
     6
100
AcDbText
 10
343.3994
 20
336.0074
 30
0.0
 40
2.1
  1
0.6
  7
MONOTXT
210
0.0
220
0.0
230
1.0
100
AcDbText
  0
TEXT
  5
43D
100
AcDbEntity
  8
1
  6
CONTINUOUS
 62
     6
100
AcDbText
 10
361.6877
 20
445.231
 30
0.0
 40
2.1
  1
1.3
  7
MONOTXT
210
0.0
220
0.0
230
1.0
100
AcDbText
  0
TEXT
  5
43E
100
AcDbEntity
  8
1
  6
CONTINUOUS
 62
     6
100
AcDbText
 10
361.8652
 20
436.8838
 30
0.0
 40
2.1
  1
1.3
  7
MONOTXT
210
0.0
220
0.0
230
1.0
100
AcDbText
  0
TEXT
  5
43F
100
AcDbEntity
  8
1
  6
CONTINUOUS
 62
     6
100
AcDbText
 10
362.2203
 20
428.5367
 30
0.0
 40
2.1
  1
1.3
  7
MONOTXT
210
0.0
220
0.0
230
1.0
100
AcDbText
  0
TEXT
  5
440
100
AcDbEntity
  8
1
  6
CONTINUOUS
 62
     6
100
AcDbText
 10
362.0428
 20
420.3671
 30
0.0
 40
2.1
  1
1.3
  7
MONOTXT
210
0.0
220
0.0
230
1.0
100
AcDbText
  0
TEXT
  5
441
100
AcDbEntity
  8
1
  6
CONTINUOUS
 62
     6
100
AcDbText
 10
362.2203
 20
412.0199
 30
0.0
 40
2.1
  1
1.3
  7
MONOTXT
210
0.0
220
0.0
230
1.0
100
AcDbText
  0
TEXT
  5
442
100
AcDbEntity
  8
1
  6
CONTINUOUS
 62
     6
100
AcDbText
 10
362.0428
 20
403.14
 30
0.0
 40
2.1
  1
1.4
  7
MONOTXT
210
0.0
220
0.0
230
1.0
100
AcDbText
  0
TEXT
  5
443
100
AcDbEntity
  8
1
  6
CONTINUOUS
 62
     6
100
AcDbText
 10
362.0428
 20
386.6232
 30
0.0
 40
2.1
  1
1.4
  7
MONOTXT
210
0.0
220
0.0
230
1.0
100
AcDbText
  0
TEXT
  5
444
100
AcDbEntity
  8
1
  6
CONTINUOUS
 62
     6
100
AcDbText
 10
362.0428
 20
378.276
 30
0.0
 40
2.1
  1
1.4
  7
MONOTXT
210
0.0
220
0.0
230
1.0
100
AcDbText
  0
TEXT
  5
445
100
AcDbEntity
  8
1
  6
CONTINUOUS
 62
     6
100
AcDbText
 10
361.8652
 20
369.9289
 30
0.0
 40
2.1
  1
1.4
  7
MONOTXT
210
0.0
220
0.0
230
1.0
100
AcDbText
  0
TEXT
  5
446
100
AcDbEntity
  8
1
  6
CONTINUOUS
 62
     6
100
AcDbText
 10
361.5101
 20
361.7593
 30
0.0
 40
2.1
  1
1.4
  7
MONOTXT
210
0.0
220
0.0
230
1.0
100
AcDbText
  0
TEXT
  5
447
100
AcDbEntity
  8
1
  6
CONTINUOUS
 62
     6
100
AcDbText
 10
362.0428
 20
395.148
 30
0.0
 40
2.1
  1
1.3
  7
MONOTXT
210
0.0
220
0.0
230
1.0
100
AcDbText
  0
TEXT
  5
448
100
AcDbEntity
  8
1
  6
CONTINUOUS
 62
     6
100
AcDbText
 10
361.6877
 20
353.2345
 30
0.0
 40
2.1
  1
1.6
  7
MONOTXT
210
0.0
220
0.0
230
1.0
100
AcDbText
  0
TEXT
  5
449
100
AcDbEntity
  8
1
  6
CONTINUOUS
 62
     6
100
AcDbText
 10
362.0428
 20
344.3546
 30
0.0
 40
2.1
  1
1.6
  7
MONOTXT
210
0.0
220
0.0
230
1.0
100
AcDbText
  0
TEXT
  5
44A
100
AcDbEntity
  8
1
  6
CONTINUOUS
 62
     6
100
AcDbText
 10
361.6877
 20
335.8298
 30
0.0
 40
2.1
  1
1.6
  7
MONOTXT
210
0.0
220
0.0
230
1.0
100
AcDbText
  0
TEXT
  5
44B
100
AcDbEntity
  8
1
  6
CONTINUOUS
 62
     6
100
AcDbText
 10
378.5555
 20
445.231
 30
0.0
 40
2.1
  1
0.26
  7
MONOTXT
210
0.0
220
0.0
230
1.0
100
AcDbText
  0
TEXT
  5
44C
100
AcDbEntity
  8
1
  6
CONTINUOUS
 62
     6
100
AcDbText
 10
378.733
 20
437.0614
 30
0.0
 40
2.1
  1
0.26
  7
MONOTXT
210
0.0
220
0.0
230
1.0
100
AcDbText
  0
TEXT
  5
44D
100
AcDbEntity
  8
1
  6
CONTINUOUS
 62
     6
100
AcDbText
 10
378.733
 20
428.5367
 30
0.0
 40
2.1
  1
0.37
  7
MONOTXT
210
0.0
220
0.0
230
1.0
100
AcDbText
  0
TEXT
  5
44E
100
AcDbEntity
  8
1
  6
CONTINUOUS
 62
     6
100
AcDbText
 10
378.733
 20
420.0119
 30
0.0
 40
2.1
  1
0.37
  7
MONOTXT
210
0.0
220
0.0
230
1.0
100
AcDbText
  0
TEXT
  5
44F
100
AcDbEntity
  8
1
  6
CONTINUOUS
 62
     6
100
AcDbText
 10
378.9106
 20
411.4871
 30
0.0
 40
2.1
  1
0.37
  7
MONOTXT
210
0.0
220
0.0
230
1.0
100
AcDbText
  0
TEXT
  5
450
100
AcDbEntity
  8
1
  6
CONTINUOUS
 62
     6
100
AcDbText
 10
378.9106
 20
394.6152
 30
0.0
 40
2.1
  1
0.37
  7
MONOTXT
210
0.0
220
0.0
230
1.0
100
AcDbText
  0
TEXT
  5
451
100
AcDbEntity
  8
1
  6
CONTINUOUS
 62
     6
100
AcDbText
 10
378.5555
 20
403.14
 30
0.0
 40
2.1
  1
0.40
  7
MONOTXT
210
0.0
220
0.0
230
1.0
100
AcDbText
  0
TEXT
  5
452
100
AcDbEntity
  8
1
  6
CONTINUOUS
 62
     6
100
AcDbText
 10
378.733
 20
378.6312
 30
0.0
 40
2.1
  1
0.62
  7
MONOTXT
210
0.0
220
0.0
230
1.0
100
AcDbText
  0
TEXT
  5
453
100
AcDbEntity
  8
1
  6
CONTINUOUS
 62
     6
100
AcDbText
 10
378.9106
 20
369.5737
 30
0.0
 40
2.1
  1
0.62
  7
MONOTXT
210
0.0
220
0.0
230
1.0
100
AcDbText
  0
TEXT
  5
454
100
AcDbEntity
  8
1
  6
CONTINUOUS
 62
     6
100
AcDbText
 10
378.0228
 20
361.4041
 30
0.0
 40
2.1
  1
0.62
  7
MONOTXT
210
0.0
220
0.0
230
1.0
100
AcDbText
  0
TEXT
  5
455
100
AcDbEntity
  8
1
  6
CONTINUOUS
 62
     6
100
AcDbText
 10
378.9106
 20
353.0569
 30
0.0
 40
2.1
  1
0.71
  7
MONOTXT
210
0.0
220
0.0
230
1.0
100
AcDbText
  0
TEXT
  5
456
100
AcDbEntity
  8
1
  6
CONTINUOUS
 62
     6
100
AcDbText
 10
378.9106
 20
344.5322
 30
0.0
 40
2.1
  1
0.71
  7
MONOTXT
210
0.0
220
0.0
230
1.0
100
AcDbText
  0
TEXT
  5
457
100
AcDbEntity
  8
1
  6
CONTINUOUS
 62
     6
100
AcDbText
 10
378.5555
 20
336.0074
 30
0.0
 40
2.1
  1
0.45
  7
MONOTXT
210
0.0
220
0.0
230
1.0
100
AcDbText
  0
TEXT
  5
458
100
AcDbEntity
  8
1
  6
CONTINUOUS
 62
     6
100
AcDbText
 10
378.3779
 20
386.6232
 30
0.0
 40
2.1
  1
0.40
  7
MONOTXT
210
0.0
220
0.0
230
1.0
100
AcDbText
  0
TEXT
  5
459
100
AcDbEntity
  8
1
  6
CONTINUOUS
 62
     6
100
AcDbText
 10
394.358
 20
445.231
 30
0.0
 40
2.1
  1
177.8
  7
MONOTXT
210
0.0
220
0.0
230
1.0
100
AcDbText
  0
TEXT
  5
45A
100
AcDbEntity
  8
1
  6
CONTINUOUS
 62
     6
100
AcDbText
 10
394.0028
 20
436.7062
 30
0.0
 40
2.1
  1
203.2
  7
MONOTXT
210
0.0
220
0.0
230
1.0
100
AcDbText
  0
TEXT
  5
45B
100
AcDbEntity
  8
1
  6
CONTINUOUS
 62
     6
100
AcDbText
 10
394.0028
 20
428.3591
 30
0.0
 40
2.1
  1
254.0
  7
MONOTXT
210
0.0
220
0.0
230
1.0
100
AcDbText
  0
TEXT
  5
45C
100
AcDbEntity
  8
1
  6
CONTINUOUS
 62
     6
100
AcDbText
 10
394.0028
 20
420.1895
 30
0.0
 40
2.1
  1
279.4
  7
MONOTXT
210
0.0
220
0.0
230
1.0
100
AcDbText
  0
TEXT
  5
45D
100
AcDbEntity
  8
1
  6
CONTINUOUS
 62
     6
100
AcDbText
 10
394.0028
 20
411.6647
 30
0.0
 40
2.1
  1
304.8
  7
MONOTXT
210
0.0
220
0.0
230
1.0
100
AcDbText
  0
TEXT
  5
45E
100
AcDbEntity
  8
1
  6
CONTINUOUS
 62
     6
100
AcDbText
 10
394.0028
 20
403.3176
 30
0.0
 40
2.1
  1
304.8
  7
MONOTXT
210
0.0
220
0.0
230
1.0
100
AcDbText
  0
TEXT
  5
45F
100
AcDbEntity
  8
1
  6
CONTINUOUS
 62
     6
100
AcDbText
 10
394.5355
 20
394.9704
 30
0.0
 40
2.1
  1
381.0
  7
MONOTXT
210
0.0
220
0.0
230
1.0
100
AcDbText
  0
TEXT
  5
460
100
AcDbEntity
  8
1
  6
CONTINUOUS
 62
     6
100
AcDbText
 10
394.358
 20
386.6232
 30
0.0
 40
2.1
  1
381.0
  7
MONOTXT
210
0.0
220
0.0
230
1.0
100
AcDbText
  0
TEXT
  5
461
100
AcDbEntity
  8
1
  6
CONTINUOUS
 62
     6
100
AcDbText
 10
394.5355
 20
377.7432
 30
0.0
 40
2.1
  1
381.0
  7
MONOTXT
210
0.0
220
0.0
230
1.0
100
AcDbText
  0
TEXT
  5
462
100
AcDbEntity
  8
1
  6
CONTINUOUS
 62
     6
100
AcDbText
 10
394.1804
 20
369.3961
 30
0.0
 40
2.1
  1
381.0
  7
MONOTXT
210
0.0
220
0.0
230
1.0
100
AcDbText
  0
TEXT
  5
463
100
AcDbEntity
  8
1
  6
CONTINUOUS
 62
     6
100
AcDbText
 10
393.6477
 20
361.4041
 30
0.0
 40
2.1
  1
406.4
  7
MONOTXT
210
0.0
220
0.0
230
1.0
100
AcDbText
  0
TEXT
  5
464
100
AcDbEntity
  8
1
  6
CONTINUOUS
 62
     6
100
AcDbText
 10
394.5355
 20
353.2345
 30
0.0
 40
2.1
  1
419.1
  7
MONOTXT
210
0.0
220
0.0
230
1.0
100
AcDbText
  0
TEXT
  5
465
100
AcDbEntity
  8
1
  6
CONTINUOUS
 62
     6
100
AcDbText
 10
393.8253
 20
344.5322
 30
0.0
 40
2.1
  1
406.4
  7
MONOTXT
210
0.0
220
0.0
230
1.0
100
AcDbText
  0
TEXT
  5
466
100
AcDbEntity
  8
1
  6
CONTINUOUS
 62
     6
100
AcDbText
 10
393.6477
 20
335.8298
 30
0.0
 40
2.1
  1
304.8
  7
MONOTXT
210
0.0
220
0.0
230
1.0
100
AcDbText
  0
TEXT
  5
467
100
AcDbEntity
  8
1
  6
CONTINUOUS
 62
     6
100
AcDbText
 10
408.9175
 20
445.5862
 30
0.0
 40
2.1
  1
19.05
  7
MONOTXT
210
0.0
220
0.0
230
1.0
100
AcDbText
  0
TEXT
  5
468
100
AcDbEntity
  8
1
  6
CONTINUOUS
 62
     6
100
AcDbText
 10
408.74
 20
436.7062
 30
0.0
 40
2.1
  1
19.05
  7
MONOTXT
210
0.0
220
0.0
230
1.0
100
AcDbText
  0
TEXT
  5
469
100
AcDbEntity
  8
1
  6
CONTINUOUS
 62
     6
100
AcDbText
 10
409.2727
 20
428.7143
 30
0.0
 40
2.1
  1
25.4
  7
MONOTXT
210
0.0
220
0.0
230
1.0
100
AcDbText
  0
TEXT
  5
46A
100
AcDbEntity
  8
1
  6
CONTINUOUS
 62
     6
100
AcDbText
 10
409.2727
 20
420.1895
 30
0.0
 40
2.1
  1
25.4
  7
MONOTXT
210
0.0
220
0.0
230
1.0
100
AcDbText
  0
TEXT
  5
46B
100
AcDbEntity
  8
1
  6
CONTINUOUS
 62
     6
100
AcDbText
 10
409.8053
 20
411.3095
 30
0.0
 40
2.1
  1
25.4
  7
MONOTXT
210
0.0
220
0.0
230
1.0
100
AcDbText
  0
TEXT
  5
46C
100
AcDbEntity
  8
1
  6
CONTINUOUS
 62
     6
100
AcDbText
 10
409.9829
 20
403.4952
 30
0.0
 40
2.1
  1
25.4
  7
MONOTXT
210
0.0
220
0.0
230
1.0
100
AcDbText
  0
TEXT
  5
46D
100
AcDbEntity
  8
1
  6
CONTINUOUS
 62
     6
100
AcDbText
 10
409.2727
 20
394.6152
 30
0.0
 40
2.1
  1
25.4
  7
MONOTXT
210
0.0
220
0.0
230
1.0
100
AcDbText
  0
TEXT
  5
46E
100
AcDbEntity
  8
1
  6
CONTINUOUS
 62
     6
100
AcDbText
 10
409.2727
 20
386.4456
 30
0.0
 40
2.1
  1
25.4
  7
MONOTXT
210
0.0
220
0.0
230
1.0
100
AcDbText
  0
TEXT
  5
46F
100
AcDbEntity
  8
1
  6
CONTINUOUS
 62
     6
100
AcDbText
 10
409.6278
 20
378.276
 30
0.0
 40
2.1
  1
25.4
  7
MONOTXT
210
0.0
220
0.0
230
1.0
100
AcDbText
  0
TEXT
  5
470
100
AcDbEntity
  8
1
  6
CONTINUOUS
 62
     6
100
AcDbText
 10
409.2727
 20
369.5737
 30
0.0
 40
2.1
  1
31.75
  7
MONOTXT
210
0.0
220
0.0
230
1.0
100
AcDbText
  0
TEXT
  5
471
100
AcDbEntity
  8
1
  6
CONTINUOUS
 62
     6
100
AcDbText
 10
408.74
 20
360.8713
 30
0.0
 40
2.1
  1
31.75
  7
MONOTXT
210
0.0
220
0.0
230
1.0
100
AcDbText
  0
TEXT
  5
472
100
AcDbEntity
  8
1
  6
CONTINUOUS
 62
     6
100
AcDbText
 10
409.6278
 20
352.7017
 30
0.0
 40
2.1
  1
25.4
  7
MONOTXT
210
0.0
220
0.0
230
1.0
100
AcDbText
  0
TEXT
  5
473
100
AcDbEntity
  8
1
  6
CONTINUOUS
 62
     6
100
AcDbText
 10
408.9175
 20
344.5322
 30
0.0
 40
2.1
  1
31.75
  7
MONOTXT
210
0.0
220
0.0
230
1.0
100
AcDbText
  0
TEXT
  5
474
100
AcDbEntity
  8
1
  6
CONTINUOUS
 62
     6
100
AcDbText
 10
408.74
 20
336.0074
 30
0.0
 40
2.1
  1
31.75
  7
MONOTXT
210
0.0
220
0.0
230
1.0
100
AcDbText
  0
TEXT
  5
475
100
AcDbEntity
  8
1
  6
CONTINUOUS
 62
     6
100
AcDbText
 10
427.0282
 20
428.8919
 30
0.0
 40
2.1
  1
4
  7
MONOTXT
210
0.0
220
0.0
230
1.0
100
AcDbText
  0
TEXT
  5
476
100
AcDbEntity
  8
1
  6
CONTINUOUS
 62
     6
100
AcDbText
 10
427.0282
 20
420.3671
 30
0.0
 40
2.1
  1
4
  7
MONOTXT
210
0.0
220
0.0
230
1.0
100
AcDbText
  0
TEXT
  5
477
100
AcDbEntity
  8
1
  6
CONTINUOUS
 62
     6
100
AcDbText
 10
427.0282
 20
411.8423
 30
0.0
 40
2.1
  1
4
  7
MONOTXT
210
0.0
220
0.0
230
1.0
100
AcDbText
  0
TEXT
  5
478
100
AcDbEntity
  8
1
  6
CONTINUOUS
 62
     6
100
AcDbText
 10
427.2058
 20
395.148
 30
0.0
 40
2.1
  1
4
  7
MONOTXT
210
0.0
220
0.0
230
1.0
100
AcDbText
  0
TEXT
  5
479
100
AcDbEntity
  8
1
  6
CONTINUOUS
 62
     6
100
AcDbText
 10
427.3834
 20
369.7513
 30
0.0
 40
2.1
  1
4
  7
MONOTXT
210
0.0
220
0.0
230
1.0
100
AcDbText
  0
TEXT
  5
47A
100
AcDbEntity
  8
1
  6
CONTINUOUS
 62
     6
100
AcDbText
 10
427.2058
 20
403.6728
 30
0.0
 40
2.1
  1
6
  7
MONOTXT
210
0.0
220
0.0
230
1.0
100
AcDbText
  0
TEXT
  5
47B
100
AcDbEntity
  8
1
  6
CONTINUOUS
 62
     6
100
AcDbText
 10
427.3834
 20
386.6232
 30
0.0
 40
2.1
  1
6
  7
MONOTXT
210
0.0
220
0.0
230
1.0
100
AcDbText
  0
TEXT
  5
47C
100
AcDbEntity
  8
1
  6
CONTINUOUS
 62
     6
100
AcDbText
 10
427.3834
 20
377.7432
 30
0.0
 40
2.1
  1
6
  7
MONOTXT
210
0.0
220
0.0
230
1.0
100
AcDbText
  0
TEXT
  5
47D
100
AcDbEntity
  8
1
  6
CONTINUOUS
 62
     6
100
AcDbText
 10
427.2058
 20
360.8713
 30
0.0
 40
2.1
  1
6
  7
MONOTXT
210
0.0
220
0.0
230
1.0
100
AcDbText
  0
TEXT
  5
47E
100
AcDbEntity
  8
1
  6
CONTINUOUS
 62
     6
100
AcDbText
 10
427.916
 20
352.5241
 30
0.0
 40
2.1
  1
6
  7
MONOTXT
210
0.0
220
0.0
230
1.0
100
AcDbText
  0
TEXT
  5
47F
100
AcDbEntity
  8
1
  6
CONTINUOUS
 62
     6
100
AcDbText
 10
427.3834
 20
345.2426
 30
0.0
 40
2.1
  1
6
  7
MONOTXT
210
0.0
220
0.0
230
1.0
100
AcDbText
  0
TEXT
  5
480
100
AcDbEntity
  8
1
  6
CONTINUOUS
 62
     6
100
AcDbText
 10
427.5609
 20
336.5402
 30
0.0
 40
2.1
  1
6
  7
MONOTXT
210
0.0
220
0.0
230
1.0
100
AcDbText
  0
TEXT
  5
481
100
AcDbEntity
  8
1
  6
CONTINUOUS
 62
     6
100
AcDbText
 10
444.9614
 20
428.5367
 30
0.0
 40
2.1
  1
13
  7
MONOTXT
210
0.0
220
0.0
230
1.0
100
AcDbText
  0
TEXT
  5
482
100
AcDbEntity
  8
1
  6
CONTINUOUS
 62
     6
100
AcDbText
 10
445.1389
 20
420.1895
 30
0.0
 40
2.1
  1
13
  7
MONOTXT
210
0.0
220
0.0
230
1.0
100
AcDbText
  0
TEXT
  5
483
100
AcDbEntity
  8
1
  6
CONTINUOUS
 62
     6
100
AcDbText
 10
445.4941
 20
411.4871
 30
0.0
 40
2.1
  1
13
  7
MONOTXT
210
0.0
220
0.0
230
1.0
100
AcDbText
  0
TEXT
  5
484
100
AcDbEntity
  8
1
  6
CONTINUOUS
 62
     6
100
AcDbText
 10
445.3165
 20
403.4952
 30
0.0
 40
2.1
  1
16
  7
MONOTXT
210
0.0
220
0.0
230
1.0
100
AcDbText
  0
TEXT
  5
485
100
AcDbEntity
  8
1
  6
CONTINUOUS
 62
     6
100
AcDbText
 10
445.3165
 20
394.9704
 30
0.0
 40
2.1
  1
13
  7
MONOTXT
210
0.0
220
0.0
230
1.0
100
AcDbText
  0
TEXT
  5
486
100
AcDbEntity
  8
1
  6
CONTINUOUS
 62
     6
100
AcDbText
 10
445.4941
 20
386.4456
 30
0.0
 40
2.1
  1
16
  7
MONOTXT
210
0.0
220
0.0
230
1.0
100
AcDbText
  0
TEXT
  5
487
100
AcDbEntity
  8
1
  6
CONTINUOUS
 62
     6
100
AcDbText
 10
445.3164
 20
378.0984
 30
0.0
 40
2.1
  1
16
  7
MONOTXT
210
0.0
220
0.0
230
1.0
100
AcDbText
  0
TEXT
  5
488
100
AcDbEntity
  8
1
  6
CONTINUOUS
 62
     6
100
AcDbText
 10
445.3165
 20
369.5737
 30
0.0
 40
2.1
  1
13
  7
MONOTXT
210
0.0
220
0.0
230
1.0
100
AcDbText
  0
TEXT
  5
489
100
AcDbEntity
  8
1
  6
CONTINUOUS
 62
     6
100
AcDbText
 10
445.4941
 20
361.2265
 30
0.0
 40
2.1
  1
16
  7
MONOTXT
210
0.0
220
0.0
230
1.0
100
AcDbText
  0
TEXT
  5
48A
100
AcDbEntity
  8
1
  6
CONTINUOUS
 62
     6
100
AcDbText
 10
445.494
 20
352.7017
 30
0.0
 40
2.1
  1
16
  7
MONOTXT
210
0.0
220
0.0
230
1.0
100
AcDbText
  0
TEXT
  5
48B
100
AcDbEntity
  8
1
  6
CONTINUOUS
 62
     6
100
AcDbText
 10
445.3165
 20
344.7098
 30
0.0
 40
2.1
  1
16
  7
MONOTXT
210
0.0
220
0.0
230
1.0
100
AcDbText
  0
TEXT
  5
48C
100
AcDbEntity
  8
1
  6
CONTINUOUS
 62
     6
100
AcDbText
 10
445.3165
 20
336.185
 30
0.0
 40
2.1
  1
16
  7
MONOTXT
210
0.0
220
0.0
230
1.0
100
AcDbText
  0
TEXT
  5
48D
100
AcDbEntity
  8
1
  6
CONTINUOUS
 62
     6
100
AcDbText
 10
442.2981
 20
426.7607
 30
0.0
 40
4.0
  1
#
  7
MONOTXT
210
0.0
220
0.0
230
1.0
100
AcDbText
  0
TEXT
  5
48E
100
AcDbEntity
  8
1
  6
CONTINUOUS
 62
     6
100
AcDbText
 10
442.2981
 20
418.5911
 30
0.0
 40
4.0
  1
#
  7
MONOTXT
210
0.0
220
0.0
230
1.0
100
AcDbText
  0
TEXT
  5
48F
100
AcDbEntity
  8
1
  6
CONTINUOUS
 62
     6
100
AcDbText
 10
442.6532
 20
409.8887
 30
0.0
 40
4.0
  1
#
  7
MONOTXT
210
0.0
220
0.0
230
1.0
100
AcDbText
  0
TEXT
  5
490
100
AcDbEntity
  8
1
  6
CONTINUOUS
 62
     6
100
AcDbText
 10
442.2981
 20
401.7192
 30
0.0
 40
4.0
  1
#
  7
MONOTXT
210
0.0
220
0.0
230
1.0
100
AcDbText
  0
TEXT
  5
491
100
AcDbEntity
  8
1
  6
CONTINUOUS
 62
     6
100
AcDbText
 10
442.1205
 20
393.372
 30
0.0
 40
4.0
  1
#
  7
MONOTXT
210
0.0
220
0.0
230
1.0
100
AcDbText
  0
TEXT
  5
492
100
AcDbEntity
  8
1
  6
CONTINUOUS
 62
     6
100
AcDbText
 10
442.2981
 20
384.6696
 30
0.0
 40
4.0
  1
#
  7
MONOTXT
210
0.0
220
0.0
230
1.0
100
AcDbText
  0
TEXT
  5
493
100
AcDbEntity
  8
1
  6
CONTINUOUS
 62
     6
100
AcDbText
 10
442.2981
 20
376.3225
 30
0.0
 40
4.0
  1
#
  7
MONOTXT
210
0.0
220
0.0
230
1.0
100
AcDbText
  0
TEXT
  5
494
100
AcDbEntity
  8
1
  6
CONTINUOUS
 62
     6
100
AcDbText
 10
442.1205
 20
367.9753
 30
0.0
 40
4.0
  1
#
  7
MONOTXT
210
0.0
220
0.0
230
1.0
100
AcDbText
  0
TEXT
  5
495
100
AcDbEntity
  8
1
  6
CONTINUOUS
 62
     6
100
AcDbText
 10
442.6532
 20
359.6281
 30
0.0
 40
4.0
  1
#
  7
MONOTXT
210
0.0
220
0.0
230
1.0
100
AcDbText
  0
TEXT
  5
496
100
AcDbEntity
  8
1
  6
CONTINUOUS
 62
     6
100
AcDbText
 10
442.4756
 20
351.1033
 30
0.0
 40
4.0
  1
#
  7
MONOTXT
210
0.0
220
0.0
230
1.0
100
AcDbText
  0
TEXT
  5
497
100
AcDbEntity
  8
1
  6
CONTINUOUS
 62
     6
100
AcDbText
 10
442.4756
 20
343.289
 30
0.0
 40
4.0
  1
#
  7
MONOTXT
210
0.0
220
0.0
230
1.0
100
AcDbText
  0
TEXT
  5
498
100
AcDbEntity
  8
1
  6
CONTINUOUS
 62
     6
100
AcDbText
 10
442.4756
 20
334.409
 30
0.0
 40
4.0
  1
#
  7
MONOTXT
210
0.0
220
0.0
230
1.0
100
AcDbText
  0
TEXT
  5
499
100
AcDbEntity
  8
1
  6
CONTINUOUS
 62
     4
100
AcDbText
 10
341.1741
 20
105.7875
 30
0.0
 40
2.4192
  1
12.7mm CONDUIT
  7
MONOTXT
 11
341.1741
 21
106.9971
 31
0.0
210
0.0
220
0.0
230
1.0
100
AcDbText
 73
     2
  0
ENDSEC
  0
SECTION
  2
OBJECTS
  0
DICTIONARY
  5
19
100
AcDbDictionary
  3
ACAD_GROUP
350
1A
  3
ACAD_MLINESTYLE
350
1B
  0
DICTIONARY
  5
1A
102
{ACAD_REACTORS
330
19
102
}
100
AcDbDictionary
  0
DICTIONARY
  5
1B
102
{ACAD_REACTORS
330
19
102
}
100
AcDbDictionary
  3
STANDARD
350
1C
  0
MLINESTYLE
  5
1C
102
{ACAD_REACTORS
330
1B
102
}
100
AcDbMlineStyle
  2
STANDARD
 70
     0
  3

 62
     0
 51
90.0
 52
90.0
 71
     2
 49
0.5
 62
   256
  6
BYLAYER
 49
-0.5
 62
   256
  6
BYLAYER
  0
ENDSEC
  0
EOF
