  0
SECTION
  2
HEADER
  9
$ACADVER
  1
AC1014
  9
$ACADMAINTVER
 70
     0
  9
$DWGCODEPAGE
  3
ANSI_1252
  9
$INSBASE
 10
0.0
 20
0.0
 30
0.0
  9
$EXTMIN
 10
-1148.5016
 20
197.7293
 30
0.0
  9
$EXTMAX
 10
-401.0321
 20
693.6142
 30
0.0
  9
$LIMMIN
 10
0.0
 20
0.0
  9
$LIMMAX
 10
12.0
 20
9.0
  9
$ORTHOMODE
 70
     0
  9
$REGENMODE
 70
     1
  9
$FILLMODE
 70
     1
  9
$QTEXTMODE
 70
     0
  9
$MIRRTEXT
 70
     1
  9
$DRAGMODE
 70
     2
  9
$LTSCALE
 40
1.0
  9
$OSMODE
 70
     0
  9
$ATTMODE
 70
     1
  9
$TEXTSIZE
 40
0.2
  9
$TRACEWID
 40
0.05
  9
$TEXTSTYLE
  7
STANDARD
  9
$CLAYER
  8
0
  9
$CELTYPE
  6
CONTINUOUS
  9
$CECOLOR
 62
   256
  9
$CELTSCALE
 40
1.0
  9
$DELOBJ
 70
     1
  9
$DISPSILH
 70
     0
  9
$DIMSCALE
 40
1.0
  9
$DIMASZ
 40
0.18
  9
$DIMEXO
 40
0.0625
  9
$DIMDLI
 40
0.38
  9
$DIMRND
 40
0.0
  9
$DIMDLE
 40
0.0
  9
$DIMEXE
 40
0.18
  9
$DIMTP
 40
0.0
  9
$DIMTM
 40
0.0
  9
$DIMTXT
 40
0.18
  9
$DIMCEN
 40
0.09
  9
$DIMTSZ
 40
0.0
  9
$DIMTOL
 70
     0
  9
$DIMLIM
 70
     0
  9
$DIMTIH
 70
     1
  9
$DIMTOH
 70
     1
  9
$DIMSE1
 70
     0
  9
$DIMSE2
 70
     0
  9
$DIMTAD
 70
     0
  9
$DIMZIN
 70
     0
  9
$DIMBLK
  1

  9
$DIMASO
 70
     1
  9
$DIMSHO
 70
     1
  9
$DIMPOST
  1

  9
$DIMAPOST
  1

  9
$DIMALT
 70
     0
  9
$DIMALTD
 70
     2
  9
$DIMALTF
 40
25.4
  9
$DIMLFAC
 40
1.0
  9
$DIMTOFL
 70
     0
  9
$DIMTVP
 40
0.0
  9
$DIMTIX
 70
     0
  9
$DIMSOXD
 70
     0
  9
$DIMSAH
 70
     0
  9
$DIMBLK1
  1

  9
$DIMBLK2
  1

  9
$DIMSTYLE
  2
STANDARD
  9
$DIMCLRD
 70
     0
  9
$DIMCLRE
 70
     0
  9
$DIMCLRT
 70
     0
  9
$DIMTFAC
 40
1.0
  9
$DIMGAP
 40
0.09
  9
$DIMJUST
 70
     0
  9
$DIMSD1
 70
     0
  9
$DIMSD2
 70
     0
  9
$DIMTOLJ
 70
     1
  9
$DIMTZIN
 70
     0
  9
$DIMALTZ
 70
     0
  9
$DIMALTTZ
 70
     0
  9
$DIMFIT
 70
     3
  9
$DIMUPT
 70
     0
  9
$DIMUNIT
 70
     2
  9
$DIMDEC
 70
     4
  9
$DIMTDEC
 70
     4
  9
$DIMALTU
 70
     2
  9
$DIMALTTD
 70
     2
  9
$DIMTXSTY
  7
STANDARD
  9
$DIMAUNIT
 70
     0
  9
$LUNITS
 70
     2
  9
$LUPREC
 70
     4
  9
$SKETCHINC
 40
0.1
  9
$FILLETRAD
 40
0.0
  9
$AUNITS
 70
     0
  9
$AUPREC
 70
     0
  9
$MENU
  1
acad
  9
$ELEVATION
 40
0.0
  9
$PELEVATION
 40
0.0
  9
$THICKNESS
 40
0.0
  9
$LIMCHECK
 70
     0
  9
$BLIPMODE
 70
     1
  9
$CHAMFERA
 40
0.0
  9
$CHAMFERB
 40
0.0
  9
$CHAMFERC
 40
0.0
  9
$CHAMFERD
 40
0.0
  9
$SKPOLY
 70
     0
  9
$TDCREATE
 40
2451803.541435185
  9
$TDUPDATE
 40
2451803.541435185
  9
$TDINDWG
 40
0.0000000000
  9
$TDUSRTIMER
 40
0.0000000000
  9
$USRTIMER
 70
     1
  9
$ANGBASE
 50
0.0
  9
$ANGDIR
 70
     0
  9
$PDMODE
 70
     0
  9
$PDSIZE
 40
0.0
  9
$PLINEWID
 40
0.0
  9
$COORDS
 70
     0
  9
$SPLFRAME
 70
     0
  9
$SPLINETYPE
 70
     6
  9
$SPLINESEGS
 70
    10
  9
$ATTDIA
 70
     0
  9
$ATTREQ
 70
     1
  9
$HANDLING
 70
     1
  9
$HANDSEED
  5
250
  9
$SURFTAB1
 70
     6
  9
$SURFTAB2
 70
     6
  9
$SURFTYPE
 70
     6
  9
$SURFU
 70
     6
  9
$SURFV
 70
     6
  9
$UCSNAME
  2

  9
$UCSORG
 10
0.0
 20
0.0
 30
0.0
  9
$UCSXDIR
 10
1.0
 20
0.0
 30
0.0
  9
$UCSYDIR
 10
0.0
 20
1.0
 30
0.0
  9
$PUCSNAME
  2

  9
$PUCSORG
 10
0.0
 20
0.0
 30
0.0
  9
$PUCSXDIR
 10
1.0
 20
0.0
 30
0.0
  9
$PUCSYDIR
 10
0.0
 20
1.0
 30
0.0
  9
$USERI1
 70
     0
  9
$USERI2
 70
     0
  9
$USERI3
 70
     0
  9
$USERI4
 70
     0
  9
$USERI5
 70
     0
  9
$USERR1
 40
0.0
  9
$USERR2
 40
0.0
  9
$USERR3
 40
0.0
  9
$USERR4
 40
0.0
  9
$USERR5
 40
0.0
  9
$WORLDVIEW
 70
     1
  9
$SHADEDGE
 70
     3
  9
$SHADEDIF
 70
    70
  9
$TILEMODE
 70
     1
  9
$MAXACTVP
 70
    16
  9
$PINSBASE
 10
0.0
 20
0.0
 30
0.0
  9
$PLIMCHECK
 70
     0
  9
$PEXTMIN
 10
-1.000000E+20
 20
-1.000000E+20
 30
-1.000000E+20
  9
$PEXTMAX
 10
-1.000000E+20
 20
-1.000000E+20
 30
-1.000000E+20
  9
$PLIMMIN
 10
0.0
 20
0.0
  9
$PLIMMAX
 10
12.0
 20
9.0
  9
$UNITMODE
 70
     0
  9
$VISRETAIN
 70
     0
  9
$PLINEGEN
 70
     1
  9
$PSLTSCALE
 70
     0
  9
$TREEDEPTH
 70
  3020
  9
$PICKSTYLE
 70
     1
  9
$CMLSTYLE
  2
STANDARD
  9
$CMLJUST
 70
     0
  9
$CMLSCALE
 40
1.0
  9
$PROXYGRAPHICS
 70
     0
  9
$MEASUREMENT
 70
     0
  0
ENDSEC
  0
SECTION
  2
CLASSES
  0
CLASS
  1
LWPOLYLINE
  2
AcDbPolyline
  3
"AutoCAD"
 90
        0
280
     0
281
     1
  0
CLASS
  1
IMAGE
  2
AcDbRasterImage
  3
ISM
 90
      127
280
     0
281
     1
  0
CLASS
  1
OLE2FRAME
  2
AcDbOle2Frame
  3
""
 90
        0
280
     0
281
     1
  0
CLASS
  1
HATCH
  2
AcDbHatch
  3
"ACAD_SEDONA"
 90
        0
280
     0
281
     1
  0
CLASS
  1
DICTIONARYVAR
  2
AcDbDictionaryVar
  3
"AutoCAD"
 90
        0
280
     0
281
     0
  0
CLASS
  1
RASTERVARIABLES
  2
AcDbRasterVariables
  3
ISM
 90
        0
280
     0
281
     0
  0
CLASS
  1
IMAGEDEF
  2
AcDbRasterImageDef
  3
ISM
 90
        0
280
     0
281
     0
  0
CLASS
  1
IMAGEDEF_REACTOR
  2
AcDbRasterImageDefReactor
  3
ISM
 90
        1
280
     0
281
     0
  0
CLASS
  1
IDBUFFER
  2
AcDbIdBuffer
  3
"Acad"
 90
        0
280
     0
281
     0
  0
CLASS
  1
SPATIAL_FILTER
  2
AcDbSpatialFilter
  3
"Acad"
 90
        0
280
     0
281
     0
  0
CLASS
  1
XRECORD
  2
AcDbXrecord
  3
"<Built In>"
 90
        0
280
     0
281
     0
  0
CLASS
  1
SORTENTSTABLE
  2
AcDbSortentsTable
  3
"AutoCAD"
 90
        0
280
     0
281
     0
  0
CLASS
  1
LAYER_INDEX
  2
AcDbLayerIndex
  3
"Acad"
 90
        0
280
     0
281
     0
  0
CLASS
  1
SPATIAL_INDEX
  2
AcDbSpatialIndex
  3
"Acad"
 90
        0
280
     0
281
     0
  0
CLASS
  1
OBJECT_PTR
  2
CAseDLPNTableRecord
  3
"ASE-LPNTableRecord"
 90
        1
280
     0
281
     0
  0
ENDSEC
  0
SECTION
  2
TABLES
  0
TABLE
  2
VPORT
  5
7
100
AcDbSymbolTable
 70
     1
  0
VPORT
  5
24F
100
AcDbSymbolTableRecord
100
AcDbViewportTableRecord
  2
*ACTIVE
 70
     0
 10
0.0
 20
0.0
 11
1.0
 21
1.0
 12
0.0
 22
0.0
 13
0.0
 23
0.0
 14
0.0
 24
0.0
 15
0.0
 25
0.0
 16
0.0
 26
0.0
 36
1.0
 17
-824.3991
 27
461.673
 37
0.0
 40
565.24
 41
1.545
 42
50.0
 43
0.0
 44
0.0
 50
0.0
 51
0.0
 71
     0
 72
   100
 73
     1
 74
     0
 75
     0
 76
     0
 77
     0
 78
     0
  0
ENDTAB
  0
TABLE
  2
LTYPE
  5
4
100
AcDbSymbolTable
 70
     9
  0
LTYPE
  5
11
100
AcDbSymbolTableRecord
100
AcDbLinetypeTableRecord
  2
BYBLOCK
 70
     0
  3

 72
    65
 73
     0
 40
0.0
  0
LTYPE
  5
12
100
AcDbSymbolTableRecord
100
AcDbLinetypeTableRecord
  2
BYLAYER
 70
     0
  3

 72
    65
 73
     0
 40
0.0
  0
LTYPE
  5
13
100
AcDbSymbolTableRecord
100
AcDbLinetypeTableRecord
  2
CONTINUOUS
 70
     0
  3
Solid line
 72
    65
 73
     0
 40
0.0
  0
LTYPE
  5
22
100
AcDbSymbolTableRecord
100
AcDbLinetypeTableRecord
  2
DOT
 70
    64
  3
. . . . . . . . . . . . . . . . . . . . . . . . . . . . . . . . .
 72
    65
 73
     2
 40
0.25
 49
0.0
 74
     0
 49
-0.25
 74
     0
  0
LTYPE
  5
23
100
AcDbSymbolTableRecord
100
AcDbLinetypeTableRecord
  2
HIDDEN
 70
    64
  3
__ __ __ __ __ __ __ __ __ __ __ __ __ __ __ __ __ __ __ __ __ 
 72
    65
 73
     2
 40
0.375
 49
0.25
 74
     0
 49
-0.125
 74
     0
  0
LTYPE
  5
24
100
AcDbSymbolTableRecord
100
AcDbLinetypeTableRecord
  2
DASHED
 70
    64
  3
__ __ __ __ __ __ __ __ __ __ __ __ __ __ __ __ __ __ __ __ __
 72
    65
 73
     2
 40
0.75
 49
0.5
 74
     0
 49
-0.25
 74
     0
  0
LTYPE
  5
25
100
AcDbSymbolTableRecord
100
AcDbLinetypeTableRecord
  2
DASHDOT
 70
    64
  3
__ . __ . __ . __ . __ . __ . __ . __ . __ . __ . __ . __ . _
 72
    65
 73
     4
 40
1.0
 49
0.5
 74
     0
 49
-0.25
 74
     0
 49
0.0
 74
     0
 49
-0.25
 74
     0
  0
LTYPE
  5
26
100
AcDbSymbolTableRecord
100
AcDbLinetypeTableRecord
  2
DIVIDE
 70
    64
  3
____ . . ____ . . ____ . . ____ . . ____ . . ____ . . ____ . .
 72
    65
 73
     6
 40
1.25
 49
0.5
 74
     0
 49
-0.25
 74
     0
 49
0.0
 74
     0
 49
-0.25
 74
     0
 49
0.0
 74
     0
 49
-0.25
 74
     0
  0
LTYPE
  5
27
100
AcDbSymbolTableRecord
100
AcDbLinetypeTableRecord
  2
CENTER
 70
    64
  3
____ _ ____ _ ____ _ ____ _ ____ _ ____ _ ____ _ ____ _ ____ _
 72
    65
 73
     4
 40
2.0
 49
1.25
 74
     0
 49
-0.25
 74
     0
 49
0.25
 74
     0
 49
-0.25
 74
     0
  0
ENDTAB
  0
TABLE
  2
LAYER
  5
2
100
AcDbSymbolTable
 70
     2
  0
LAYER
  5
14
102
{ACAD_XDICTIONARY
360
5F205F5F5F5F205F
102
}
100
AcDbSymbolTableRecord
100
AcDbLayerTableRecord
  2
0
 70
     0
 62
     7
  6
CONTINUOUS
  0
LAYER
  5
2A
102
{ACAD_XDICTIONARY
360
5F205F5F5F5F205F
102
}
100
AcDbSymbolTableRecord
100
AcDbLayerTableRecord
  2
1
 70
    64
 62
     7
  6
CONTINUOUS
  0
ENDTAB
  0
TABLE
  2
STYLE
  5
3
100
AcDbSymbolTable
 70
     3
  0
STYLE
  5
17
100
AcDbSymbolTableRecord
100
AcDbTextStyleTableRecord
  2
STANDARD
 70
     0
 40
0.0
 41
1.0
 50
0.0
 71
     0
 42
0.0
  3
txt
  4

  0
STYLE
  5
2B
100
AcDbSymbolTableRecord
100
AcDbTextStyleTableRecord
  2
MONOTXT
 70
     0
 40
0.2
 41
1.0
 50
0.0
 71
     0
 42
0.2
  3
MONOTXT
  4

  0
STYLE
  5
75
100
AcDbSymbolTableRecord
100
AcDbTextStyleTableRecord
  2
TXT
 70
     0
 40
0.2
 41
1.0
 50
0.0
 71
     0
 42
0.2
  3
TXT
  4

  0
ENDTAB
  0
TABLE
  2
VIEW
  5
5
100
AcDbSymbolTable
 70
     0
  0
ENDTAB
  0
TABLE
  2
UCS
  5
6
100
AcDbSymbolTable
 70
     0
  0
ENDTAB
  0
TABLE
  2
APPID
  5
8
100
AcDbSymbolTable
 70
     1
  0
APPID
  5
16
100
AcDbSymbolTableRecord
100
AcDbRegAppTableRecord
  2
ACAD
 70
     0
  0
ENDTAB
  0
TABLE
  2
DIMSTYLE
  5
9
100
AcDbSymbolTable
 70
     1
  0
DIMSTYLE
105
18
100
AcDbSymbolTableRecord
100
AcDbDimStyleTableRecord
  2
STANDARD
 70
     0
  3

  4

  5

  6

  7

 40
1.0
 41
0.18
 42
0.0625
 43
0.38
 44
0.18
 45
0.0
 46
0.0
 47
0.0
 48
0.0
140
0.18
141
0.09
142
0.0
143
25.4
144
1.0
145
0.0
146
1.0
147
0.09
 71
     0
 72
     0
 73
     1
 74
     1
 75
     0
 76
     0
 77
     0
 78
     0
170
     0
171
     2
172
     0
173
     0
174
     0
175
     0
176
     0
177
     0
178
     0
270
     2
271
     4
272
     4
273
     2
274
     2
340
17
275
     0
280
     0
281
     0
282
     0
283
     1
284
     0
285
     0
286
     0
287
     0
288
     0
  0
ENDTAB
  0
TABLE
  2
BLOCK_RECORD
  5
1
100
AcDbSymbolTable
 70
     2
  0
BLOCK_RECORD
  5
A
100
AcDbSymbolTableRecord
100
AcDbBlockTableRecord
  2
*MODEL_SPACE
  0
BLOCK_RECORD
  5
B
100
AcDbSymbolTableRecord
100
AcDbBlockTableRecord
  2
*PAPER_SPACE
  0
BLOCK_RECORD
  5
CD
102
{ACAD_XDICTIONARY
360
6E0002000200E6FF
102
}
100
AcDbSymbolTableRecord
100
AcDbBlockTableRecord
  2
PT
  0
BLOCK_RECORD
  5
156
102
{ACAD_XDICTIONARY
360
6E0002000200E6FF
102
}
100
AcDbSymbolTableRecord
100
AcDbBlockTableRecord
  2
LDR
  0
ENDTAB
  0
ENDSEC
  0
SECTION
  2
BLOCKS
  0
BLOCK
  5
D
100
AcDbEntity
  8
0
100
AcDbBlockBegin
  2
*MODEL_SPACE
 70
     0
 10
0.0
 20
0.0
 30
0.0
  3
*MODEL_SPACE
  1

  0
ENDBLK
  5
E
100
AcDbEntity
  8
0
100
AcDbBlockEnd
  0
BLOCK
  5
F
100
AcDbEntity
 67
     1
  8
0
100
AcDbBlockBegin
  2
*PAPER_SPACE
 70
     0
 10
0.0
 20
0.0
 30
0.0
  3
*PAPER_SPACE
  1

  0
ENDBLK
  5
10
100
AcDbEntity
 67
     1
  8
0
100
AcDbBlockEnd
  0
BLOCK
  5
CE
100
AcDbEntity
  8
1
  6
CONTINUOUS
 62
    20
100
AcDbBlockBegin
  2
PT
 70
     0
 10
0.0
 20
0.0
 30
0.0
  3
PT
  1

  0
POINT
  5
CF
100
AcDbEntity
  8
1
  6
CONTINUOUS
 62
    20
100
AcDbPoint
 10
0.0012
 20
-0.0025
 30
0.0
  0
ENDBLK
  5
D0
100
AcDbEntity
  8
1
  6
CONTINUOUS
 62
    20
100
AcDbBlockEnd
  0
BLOCK
  5
157
100
AcDbEntity
  8
1
  6
CONTINUOUS
 62
    20
100
AcDbBlockBegin
  2
LDR
 70
     0
 10
0.0
 20
0.0
 30
0.0
  3
LNR
  1

  0
ELLIPSE
  5
158
100
AcDbEntity
  8
1
  6
CONTINUOUS
 62
    20
100
AcDbEllipse
 10
-0.005456
 20
-0.001381
 30
0.0
 11
0.0089284852176049
 21
0.0007807486798981
 31
0.0
210
0.0
220
0.0
230
1.0
 40
0.122415
 41
0.8963533496766982
 42
3.1415926535897931
  0
ELLIPSE
  5
159
100
AcDbEntity
  8
1
  6
CONTINUOUS
 62
    20
100
AcDbEllipse
 10
-0.005602
 20
0.001058
 30
0.0
 11
-0.0087822356106042
 21
0.0008782487052855
 31
0.0
210
0.0
220
0.0
230
1.0
 40
0.07063
 41
6.2823074065658329
 42
2.2765173009567174
  0
ENDBLK
  5
15A
100
AcDbEntity
  8
1
  6
CONTINUOUS
 62
    20
100
AcDbBlockEnd
  0
ENDSEC
  0
SECTION
  2
ENTITIES
  0
TEXT
  5
2C
100
AcDbEntity
  8
1
  6
CONTINUOUS
 62
    20
100
AcDbText
 10
-584.5967
 20
247.9171
 30
0.0
 40
2.400048
  1
        
  7
MONOTXT
 72
     1
 11
-575.3965
 21
250.3171
 31
0.0
210
0.0
220
0.0
230
1.0
100
AcDbText
 73
     3
  0
TEXT
  5
2D
100
AcDbEntity
  8
1
  6
CONTINUOUS
 62
    20
100
AcDbText
 10
-583.9953
 20
236.2253
 30
0.0
 40
2.400048
  1
        
  7
MONOTXT
 72
     1
 11
-574.7951
 21
238.6253
 31
0.0
210
0.0
220
0.0
230
1.0
100
AcDbText
 73
     3
  0
TEXT
  5
2E
100
AcDbEntity
  8
1
  6
CONTINUOUS
 62
    20
100
AcDbText
 10
-583.9713
 20
230.9453
 30
0.0
 40
2.400048
  1
        
  7
MONOTXT
 72
     1
 11
-574.7711
 21
233.3453
 31
0.0
210
0.0
220
0.0
230
1.0
100
AcDbText
 73
     3
  0
TEXT
  5
2F
100
AcDbEntity
  8
1
  6
CONTINUOUS
 62
    20
100
AcDbText
 10
-583.9713
 20
231.217
 30
0.0
 40
2.400048
  1
        
  7
MONOTXT
 72
     1
 11
-574.7711
 21
233.617
 31
0.0
210
0.0
220
0.0
230
1.0
100
AcDbText
 73
     3
  0
TEXT
  5
30
100
AcDbEntity
  8
1
  6
CONTINUOUS
 62
    20
100
AcDbText
 10
-587.1953
 20
225.6949
 30
0.0
 40
2.400048
  1
01-25-93
  7
MONOTXT
 72
     1
 11
-579.0409
 21
228.0949
 31
0.0
210
0.0
220
0.0
230
1.0
100
AcDbText
 73
     3
  0
TEXT
  5
31
100
AcDbEntity
  8
1
  6
CONTINUOUS
 62
    20
100
AcDbText
 10
-582.9912
 20
219.7737
 30
0.0
 40
2.400048
  1
09-14-93
  7
MONOTXT
 72
     1
 11
-574.8368
 21
222.1737
 31
0.0
210
0.0
220
0.0
230
1.0
100
AcDbText
 73
     3
  0
TEXT
  5
32
100
AcDbEntity
  8
1
  6
CONTINUOUS
 62
    20
100
AcDbText
 10
-584.0913
 20
209.2493
 30
0.0
 40
2.400048
  1
        
  7
MONOTXT
 72
     1
 11
-574.8911
 21
211.6493
 31
0.0
210
0.0
220
0.0
230
1.0
100
AcDbText
 73
     3
  0
TEXT
  5
33
100
AcDbEntity
  8
1
  6
CONTINUOUS
 62
    20
100
AcDbText
 10
-583.9713
 20
203.7533
 30
0.0
 40
2.400048
  1
        
  7
MONOTXT
 72
     1
 11
-574.7711
 21
206.1533
 31
0.0
210
0.0
220
0.0
230
1.0
100
AcDbText
 73
     3
  0
TEXT
  5
34
100
AcDbEntity
  8
1
  6
CONTINUOUS
 62
    20
100
AcDbText
 10
-583.9713
 20
198.9293
 30
0.0
 40
2.400048
  1
        
  7
MONOTXT
 72
     1
 11
-574.7711
 21
201.3293
 31
0.0
210
0.0
220
0.0
230
1.0
100
AcDbText
 73
     3
  0
TEXT
  5
35
100
AcDbEntity
  8
1
  6
CONTINUOUS
 62
     7
100
AcDbText
 10
-1123.8809
 20
673.2503
 30
0.0
 40
3.0
  1
MATERIAL
  7
MONOTXT
 11
-1123.8809
 21
676.2503
 31
0.0
210
0.0
220
0.0
230
1.0
100
AcDbText
 73
     3
  0
TEXT
  5
36
100
AcDbEntity
  8
1
  6
CONTINUOUS
 62
     7
100
AcDbText
 10
-1138.3209
 20
661.996
 30
0.0
 40
3.0
  1
DESIGNATOR
 50
90.0
  7
MONOTXT
 11
-1141.3209
 21
661.996
 31
0.0
210
0.0
220
0.0
230
1.0
100
AcDbText
 73
     3
  0
TEXT
  5
37
100
AcDbEntity
  8
1
  6
CONTINUOUS
 62
     7
100
AcDbText
 10
-1072.9795
 20
673.8605
 30
0.0
 40
3.0
  1
TOP B.C.
  7
MONOTXT
 72
     4
 11
-1062.8811
 21
675.3605
 31
0.0
210
0.0
220
0.0
230
1.0
100
AcDbText
  0
TEXT
  5
38
100
AcDbEntity
  8
1
  6
CONTINUOUS
 62
     7
100
AcDbText
 10
-1010.1378
 20
673.9312
 30
0.0
 40
3.0
  1
BOTTOM B.C.
  7
MONOTXT
 72
     4
 11
-995.1496
 21
675.4312
 31
0.0
210
0.0
220
0.0
230
1.0
100
AcDbText
  0
TEXT
  5
39
100
AcDbEntity
  8
1
  6
CONTINUOUS
 62
     7
100
AcDbText
 10
-971.1921
 20
678.8184
 30
0.0
 40
3.0
  1
BOTTOM
  7
MONOTXT
 72
     4
 11
-962.3221
 21
680.3184
 31
0.0
210
0.0
220
0.0
230
1.0
100
AcDbText
  0
TEXT
  5
3A
100
AcDbEntity
  8
1
  6
CONTINUOUS
 62
     7
100
AcDbText
 10
-973.4599
 20
673.4184
 30
0.0
 40
3.0
  1
DIMENSION
  7
MONOTXT
 72
     4
 11
-962.3221
 21
674.9184
 31
0.0
210
0.0
220
0.0
230
1.0
100
AcDbText
  0
TEXT
  5
3B
100
AcDbEntity
  8
1
  6
CONTINUOUS
 62
     7
100
AcDbText
 10
-965.1567
 20
668.0184
 30
0.0
 40
3.0
  1
(N)
  7
MONOTXT
 72
     4
 11
-962.3339
 21
669.5184
 31
0.0
210
0.0
220
0.0
230
1.0
100
AcDbText
  0
TEXT
  5
3C
100
AcDbEntity
  8
1
  6
CONTINUOUS
 62
     7
100
AcDbText
 10
-929.3598
 20
674.5388
 30
0.0
 40
3.0
  1
CONNECTING BOLTS
  7
MONOTXT
 72
     4
 11
-906.6708
 21
676.0388
 31
0.0
210
0.0
220
0.0
230
1.0
100
AcDbText
  0
TEXT
  5
3D
100
AcDbEntity
  8
1
  6
CONTINUOUS
 62
     7
100
AcDbText
 10
-811.8457
 20
674.349
 30
0.0
 40
3.0
  1
SPECIAL DETAILS
  7
MONOTXT
 72
     4
 11
-792.6292
 21
675.849
 31
0.0
210
0.0
220
0.0
230
1.0
100
AcDbText
  0
TEXT
  5
3E
100
AcDbEntity
  8
1
  6
CONTINUOUS
 62
     7
100
AcDbText
 10
-715.3013
 20
665.7041
 30
0.0
 40
3.0
  1
WEIGHT
  7
MONOTXT
 72
     4
 11
-707.4234
 21
667.2041
 31
0.0
210
0.0
220
0.0
230
1.0
100
AcDbText
  0
TEXT
  5
3F
100
AcDbEntity
  8
1
  6
CONTINUOUS
 62
     7
100
AcDbText
 10
-726.9116
 20
660.3041
 30
0.0
 40
3.0
  1
(WITH LUMINAIRE)
  7
MONOTXT
 72
     4
 11
-707.4352
 21
661.8041
 31
0.0
210
0.0
220
0.0
230
1.0
100
AcDbText
  0
TEXT
  5
40
100
AcDbEntity
  8
1
  6
CONTINUOUS
 62
     7
100
AcDbText
 10
-670.1452
 20
665.4773
 30
0.0
 40
3.0
  1
WALL THICK & O.D.
  7
MONOTXT
 72
     4
 11
-647.6688
 21
666.9773
 31
0.0
210
0.0
220
0.0
230
1.0
100
AcDbText
  0
TEXT
  5
41
100
AcDbEntity
  8
1
  6
CONTINUOUS
 62
     7
100
AcDbText
 10
-666.9798
 20
660.0773
 30
0.0
 40
3.0
  1
VS. T-BASE MAX.
  7
MONOTXT
 72
     4
 11
-647.6688
 21
661.5773
 31
0.0
210
0.0
220
0.0
230
1.0
100
AcDbText
  0
LINE
  5
42
100
AcDbEntity
  8
1
  6
CONTINUOUS
 62
     4
100
AcDbLine
 10
-978.1016
 20
693.6142
 30
0.0
 11
-978.1016
 21
489.0142
 31
0.0
  0
LINE
  5
43
100
AcDbEntity
  8
1
  6
CONTINUOUS
 62
     4
100
AcDbLine
 10
-1148.5016
 20
693.6142
 30
0.0
 11
-1148.5016
 21
489.0142
 31
0.0
  0
LINE
  5
44
100
AcDbEntity
  8
1
  6
CONTINUOUS
 62
     4
100
AcDbLine
 10
-624.1016
 20
693.6142
 30
0.0
 11
-1148.5016
 21
693.6142
 31
0.0
  0
LINE
  5
45
100
AcDbEntity
  8
1
  6
CONTINUOUS
 62
     4
100
AcDbLine
 10
-1130.5016
 20
693.6142
 30
0.0
 11
-1130.5016
 21
489.0142
 31
0.0
  0
LINE
  5
46
100
AcDbEntity
  8
1
  6
CONTINUOUS
 62
     4
100
AcDbLine
 10
-1096.9016
 20
693.6142
 30
0.0
 11
-1096.9016
 21
489.0142
 31
0.0
  0
LINE
  5
47
100
AcDbEntity
  8
1
  6
CONTINUOUS
 62
     4
100
AcDbLine
 10
-1078.9016
 20
693.6142
 30
0.0
 11
-1078.9016
 21
489.0142
 31
0.0
  0
LINE
  5
48
100
AcDbEntity
  8
1
  6
CONTINUOUS
 62
     4
100
AcDbLine
 10
-944.5016
 20
693.6142
 30
0.0
 11
-944.5016
 21
489.0142
 31
0.0
  0
LINE
  5
49
100
AcDbEntity
  8
1
  6
CONTINUOUS
 62
     4
100
AcDbLine
 10
-865.3016
 20
693.6142
 30
0.0
 11
-865.3016
 21
489.0142
 31
0.0
  0
LINE
  5
4A
100
AcDbEntity
  8
1
  6
CONTINUOUS
 62
     4
100
AcDbLine
 10
-838.9016
 20
693.6142
 30
0.0
 11
-838.9016
 21
489.0142
 31
0.0
  0
LINE
  5
4B
100
AcDbEntity
  8
1
  6
CONTINUOUS
 62
     4
100
AcDbLine
 10
-742.9016
 20
693.6142
 30
0.0
 11
-742.9016
 21
489.0142
 31
0.0
  0
LINE
  5
4C
100
AcDbEntity
  8
1
  6
CONTINUOUS
 62
     4
100
AcDbLine
 10
-672.1016
 20
670.8142
 30
0.0
 11
-672.1016
 21
489.0142
 31
0.0
  0
LINE
  5
4D
100
AcDbEntity
  8
1
  6
CONTINUOUS
 62
     4
100
AcDbLine
 10
-624.1016
 20
693.6142
 30
0.0
 11
-624.1016
 21
489.0142
 31
0.0
  0
LINE
  5
4E
100
AcDbEntity
  8
1
  6
CONTINUOUS
 62
     4
100
AcDbLine
 10
-624.1016
 20
657.6142
 30
0.0
 11
-1148.5016
 21
657.6142
 31
0.0
  0
LINE
  5
4F
100
AcDbEntity
  8
1
  6
CONTINUOUS
 62
     4
100
AcDbLine
 10
-624.1016
 20
655.8142
 30
0.0
 11
-1148.5016
 21
655.8142
 31
0.0
  0
LINE
  5
50
100
AcDbEntity
  8
1
  6
CONTINUOUS
 62
     4
100
AcDbLine
 10
-624.1016
 20
670.8142
 30
0.0
 11
-742.9016
 21
670.8142
 31
0.0
  0
LINE
  5
51
100
AcDbEntity
  8
1
  6
CONTINUOUS
 62
     4
100
AcDbLine
 10
-1045.3016
 20
693.6142
 30
0.0
 11
-1045.3016
 21
489.0142
 31
0.0
  0
LINE
  5
52
100
AcDbEntity
  8
1
  6
CONTINUOUS
 62
     4
100
AcDbLine
 10
-1011.7016
 20
693.6142
 30
0.0
 11
-1011.7016
 21
489.0142
 31
0.0
  0
LINE
  5
53
100
AcDbEntity
  8
1
  6
CONTINUOUS
 62
     7
100
AcDbLine
 10
-671.2606
 20
649.8035
 30
0.0
 11
-625.2983
 21
649.8035
 31
0.0
  0
LINE
  5
54
100
AcDbEntity
  8
1
  6
CONTINUOUS
 62
     7
100
AcDbLine
 10
-671.2606
 20
638.9505
 30
0.0
 11
-648.1901
 21
638.9505
 31
0.0
  0
LINE
  5
55
100
AcDbEntity
  8
1
  6
CONTINUOUS
 62
     7
100
AcDbLine
 10
-671.2606
 20
633.3229
 30
0.0
 11
-648.1901
 21
633.3229
 31
0.0
  0
TEXT
  5
56
100
AcDbEntity
  8
1
  6
CONTINUOUS
 62
     7
100
AcDbText
 10
-1121.7482
 20
651.2218
 30
0.0
 40
3.0
  1
356-T6
  7
MONOTXT
 72
     4
 11
-1113.705
 21
652.7218
 31
0.0
210
0.0
220
0.0
230
1.0
100
AcDbText
  0
TEXT
  5
57
100
AcDbEntity
  8
1
  6
CONTINUOUS
 62
     7
100
AcDbText
 10
-1122.7167
 20
645.8218
 30
0.0
 40
3.0
  1
MEETING
  7
MONOTXT
 72
     4
 11
-1113.7049
 21
647.3218
 31
0.0
210
0.0
220
0.0
230
1.0
100
AcDbText
  0
TEXT
  5
58
100
AcDbEntity
  8
1
  6
CONTINUOUS
 62
     7
100
AcDbText
 10
-1127.4175
 20
640.4218
 30
0.0
 40
3.0
  1
ASTM B-108
  7
MONOTXT
 72
     4
 11
-1113.7049
 21
641.9218
 31
0.0
210
0.0
220
0.0
230
1.0
100
AcDbText
  0
TEXT
  5
59
100
AcDbEntity
  8
1
  6
CONTINUOUS
 62
     7
100
AcDbText
 10
-859.7116
 20
676.7769
 30
0.0
 40
3.0
  1
ANCHOR
  7
MONOTXT
 72
     4
 11
-851.125
 21
678.2769
 31
0.0
210
0.0
220
0.0
230
1.0
100
AcDbText
  0
TEXT
  5
5A
100
AcDbEntity
  8
1
  6
CONTINUOUS
 62
     7
100
AcDbText
 10
-858.0817
 20
671.3769
 30
0.0
 40
3.0
  1
BOLTS
  7
MONOTXT
 72
     4
 11
-851.1251
 21
672.8769
 31
0.0
210
0.0
220
0.0
230
1.0
100
AcDbText
  0
TEXT
  5
5B
100
AcDbEntity
  8
1
  6
CONTINUOUS
 62
     7
100
AcDbText
 10
-852.9967
 20
679.8102
 30
0.0
 40
7.2
  1
*
  7
MONOTXT
 11
-852.9967
 21
687.0102
 31
0.0
210
0.0
220
0.0
230
1.0
100
AcDbText
 73
     3
  0
TEXT
  5
5C
100
AcDbEntity
  8
1
  6
CONTINUOUS
 62
     7
100
AcDbText
 10
-1147.2207
 20
651.586
 30
0.0
 40
3.0
  1
AT-UA1
  7
MONOTXT
 72
     4
 11
-1139.8271
 21
653.086
 31
0.0
210
0.0
220
0.0
230
1.0
100
AcDbText
  0
TEXT
  5
5D
100
AcDbEntity
  8
1
  6
CONTINUOUS
 62
     7
100
AcDbText
 10
-1139.8342
 20
645.2438
 30
0.0
 40
7.2
  1
*
  7
MONOTXT
 11
-1139.8342
 21
652.4438
 31
0.0
210
0.0
220
0.0
230
1.0
100
AcDbText
 73
     3
  0
TEXT
  5
5E
100
AcDbEntity
  8
1
  6
CONTINUOUS
 62
     7
100
AcDbText
 10
-1143.1591
 20
645.2784
 30
0.0
 40
7.2
  1
*
  7
MONOTXT
 11
-1143.1591
 21
652.4784
 31
0.0
210
0.0
220
0.0
230
1.0
100
AcDbText
 73
     3
  0
TEXT
  5
5F
100
AcDbEntity
  8
1
  6
CONTINUOUS
 62
     7
100
AcDbText
 10
-698.9468
 20
686.4536
 30
0.0
 40
3.0
  1
MAX. LIMITATION
  7
MONOTXT
 72
     4
 11
-681.4075
 21
687.9536
 31
0.0
210
0.0
220
0.0
230
1.0
100
AcDbText
  0
TEXT
  5
60
100
AcDbEntity
  8
1
  6
CONTINUOUS
 62
     7
100
AcDbText
 10
-723.2539
 20
681.0536
 30
0.0
 40
3.0
  1
(TO TYPE 1, 2, AND 5, FOR TYPE 3
  7
MONOTXT
 72
     4
 11
-681.4075
 21
682.5536
 31
0.0
210
0.0
220
0.0
230
1.0
100
AcDbText
  0
TEXT
  5
61
100
AcDbEntity
  8
1
  6
CONTINUOUS
 62
     7
100
AcDbText
 10
-708.3838
 20
675.6536
 30
0.0
 40
3.0
  1
SEE CONTRACT PLANS)
  7
MONOTXT
 72
     4
 11
-681.4192
 21
677.1536
 31
0.0
210
0.0
220
0.0
230
1.0
100
AcDbText
  0
LINE
  5
62
100
AcDbEntity
  8
1
  6
CONTINUOUS
 62
     4
100
AcDbLine
 10
-594.4336
 20
362.2171
 30
0.0
 11
-596.4622
 21
357.8668
 31
0.0
  0
LINE
  5
63
100
AcDbEntity
  8
1
  6
CONTINUOUS
 62
     4
100
AcDbLine
 10
-594.4336
 20
362.2171
 30
0.0
 11
-592.405
 21
357.8668
 31
0.0
  0
LINE
  5
64
100
AcDbEntity
  8
1
  6
CONTINUOUS
 62
     4
100
AcDbLine
 10
-596.4622
 20
357.8668
 30
0.0
 11
-592.405
 21
357.8668
 31
0.0
  0
LINE
  5
65
100
AcDbEntity
  8
1
  6
CONTINUOUS
 62
     4
100
AcDbLine
 10
-594.7699
 20
356.4998
 30
0.0
 11
-596.7985
 21
352.1495
 31
0.0
  0
LINE
  5
66
100
AcDbEntity
  8
1
  6
CONTINUOUS
 62
     4
100
AcDbLine
 10
-594.7699
 20
356.4998
 30
0.0
 11
-592.7413
 21
352.1495
 31
0.0
  0
LINE
  5
67
100
AcDbEntity
  8
1
  6
CONTINUOUS
 62
     4
100
AcDbLine
 10
-596.7985
 20
352.1495
 30
0.0
 11
-592.7413
 21
352.1495
 31
0.0
  0
LINE
  5
68
100
AcDbEntity
  8
1
  6
CONTINUOUS
 62
     4
100
AcDbLine
 10
-595.1062
 20
351.1187
 30
0.0
 11
-597.1348
 21
346.7684
 31
0.0
  0
LINE
  5
69
100
AcDbEntity
  8
1
  6
CONTINUOUS
 62
     4
100
AcDbLine
 10
-595.1062
 20
351.1187
 30
0.0
 11
-593.0776
 21
346.7684
 31
0.0
  0
LINE
  5
6A
100
AcDbEntity
  8
1
  6
CONTINUOUS
 62
     4
100
AcDbLine
 10
-597.1348
 20
346.7684
 30
0.0
 11
-593.0776
 21
346.7684
 31
0.0
  0
TEXT
  5
6B
100
AcDbEntity
  8
1
  6
CONTINUOUS
 62
     4
100
AcDbText
 10
-594.9228
 20
358.2808
 30
0.0
 40
2.4
  1
1
  7
MONOTXT
 11
-594.9228
 21
360.6808
 31
0.0
210
0.0
220
0.0
230
1.0
100
AcDbText
 73
     3
  0
TEXT
  5
6C
100
AcDbEntity
  8
1
  6
CONTINUOUS
 62
     4
100
AcDbText
 10
-595.6105
 20
352.4869
 30
0.0
 40
2.4
  1
2
  7
MONOTXT
 11
-595.6105
 21
354.8869
 31
0.0
210
0.0
220
0.0
230
1.0
100
AcDbText
 73
     3
  0
TEXT
  5
6D
100
AcDbEntity
  8
1
  6
CONTINUOUS
 62
     4
100
AcDbText
 10
-595.8935
 20
346.9529
 30
0.0
 40
2.4
  1
3
  7
MONOTXT
 11
-595.8935
 21
349.3529
 31
0.0
210
0.0
220
0.0
230
1.0
100
AcDbText
 73
     3
  0
TEXT
  5
6E
100
AcDbEntity
  8
1
  6
CONTINUOUS
 62
     4
100
AcDbText
 10
-589.725
 20
359.5653
 30
0.0
 40
2.4
  1
CHANGED AT-VA
  7
MONOTXT
 11
-589.725
 21
361.9653
 31
0.0
210
0.0
220
0.0
230
1.0
100
AcDbText
 73
     3
  0
TEXT
  5
6F
100
AcDbEntity
  8
1
  6
CONTINUOUS
 62
     4
100
AcDbText
 10
-589.4265
 20
347.7253
 30
0.0
 40
2.4
  1
UPDATE RIBS
  7
MONOTXT
 11
-589.4265
 21
350.1253
 31
0.0
210
0.0
220
0.0
230
1.0
100
AcDbText
 73
     3
  0
LINE
  5
70
100
AcDbEntity
  8
1
  6
CONTINUOUS
 62
     4
100
AcDbLine
 10
-594.9072
 20
345.9449
 30
0.0
 11
-596.9358
 21
341.5946
 31
0.0
  0
LINE
  5
71
100
AcDbEntity
  8
1
  6
CONTINUOUS
 62
     4
100
AcDbLine
 10
-594.9072
 20
345.9449
 30
0.0
 11
-592.8786
 21
341.5946
 31
0.0
  0
LINE
  5
72
100
AcDbEntity
  8
1
  6
CONTINUOUS
 62
     4
100
AcDbLine
 10
-596.9358
 20
341.5946
 30
0.0
 11
-592.8786
 21
341.5946
 31
0.0
  0
TEXT
  5
73
100
AcDbEntity
  8
1
  6
CONTINUOUS
 62
     4
100
AcDbText
 10
-595.9086
 20
341.9242
 30
0.0
 40
2.4
  1
4
  7
MONOTXT
 11
-595.9086
 21
344.3242
 31
0.0
210
0.0
220
0.0
230
1.0
100
AcDbText
 73
     3
  0
TEXT
  5
74
100
AcDbEntity
  8
1
  6
CONTINUOUS
 62
     4
100
AcDbText
 10
-589.6254
 20
342.6511
 30
0.0
 40
2.4
  1
BOTTOM 4 WT.
  7
MONOTXT
 11
-589.6254
 21
345.0511
 31
0.0
210
0.0
220
0.0
230
1.0
100
AcDbText
 73
     3
  0
TEXT
  5
76
100
AcDbEntity
  8
1
  6
CONTINUOUS
 62
     4
100
AcDbText
 10
-558.5594
 20
280.2314
 30
0.0
 40
6.0
  1
ALUMINUM TRANSFORMER BASE
  7
TXT
 11
-558.5594
 21
286.2314
 31
0.0
210
0.0
220
0.0
230
1.0
100
AcDbText
 73
     3
  0
TEXT
  5
77
100
AcDbEntity
  8
1
  6
CONTINUOUS
 62
     4
100
AcDbText
 10
-586.5258
 20
237.7018
 30
0.0
 40
2.4
  1
9/25/91
  7
MONOTXT
 11
-586.5258
 21
240.1018
 31
0.0
210
0.0
220
0.0
230
1.0
100
AcDbText
 73
     3
  0
LINE
  5
78
100
AcDbEntity
  8
1
  6
CONTINUOUS
 62
     4
100
AcDbLine
 10
-591.4024
 20
240.6063
 30
0.0
 11
-593.431
 21
236.256
 31
0.0
  0
LINE
  5
79
100
AcDbEntity
  8
1
  6
CONTINUOUS
 62
     4
100
AcDbLine
 10
-591.4024
 20
240.6063
 30
0.0
 11
-589.3738
 21
236.256
 31
0.0
  0
LINE
  5
7A
100
AcDbEntity
  8
1
  6
CONTINUOUS
 62
     4
100
AcDbLine
 10
-593.431
 20
236.256
 30
0.0
 11
-589.3738
 21
236.256
 31
0.0
  0
LINE
  5
7B
100
AcDbEntity
  8
1
  6
CONTINUOUS
 62
     4
100
AcDbLine
 10
-591.5469
 20
246.3001
 30
0.0
 11
-593.5755
 21
241.9498
 31
0.0
  0
LINE
  5
7C
100
AcDbEntity
  8
1
  6
CONTINUOUS
 62
     4
100
AcDbLine
 10
-591.5469
 20
246.3001
 30
0.0
 11
-589.5183
 21
241.9498
 31
0.0
  0
LINE
  5
7D
100
AcDbEntity
  8
1
  6
CONTINUOUS
 62
     4
100
AcDbLine
 10
-593.5755
 20
241.9498
 30
0.0
 11
-589.5183
 21
241.9498
 31
0.0
  0
TEXT
  5
7E
100
AcDbEntity
  8
1
  6
CONTINUOUS
 62
     4
100
AcDbText
 10
-592.196
 20
248.104
 30
0.0
 40
2.4
  1
1
  7
MONOTXT
 11
-592.196
 21
250.504
 31
0.0
210
0.0
220
0.0
230
1.0
100
AcDbText
 73
     3
  0
TEXT
  5
7F
100
AcDbEntity
  8
1
  6
CONTINUOUS
 62
     4
100
AcDbText
 10
-592.257
 20
242.3307
 30
0.0
 40
2.4
  1
2
  7
MONOTXT
 11
-592.257
 21
244.7307
 31
0.0
210
0.0
220
0.0
230
1.0
100
AcDbText
 73
     3
  0
TEXT
  5
80
100
AcDbEntity
  8
1
  6
CONTINUOUS
 62
     4
100
AcDbText
 10
-592.1685
 20
236.4875
 30
0.0
 40
2.4
  1
3
  7
MONOTXT
 11
-592.1685
 21
238.8875
 31
0.0
210
0.0
220
0.0
230
1.0
100
AcDbText
 73
     3
  0
TEXT
  5
81
100
AcDbEntity
  8
1
  6
CONTINUOUS
 62
     4
100
AcDbText
 10
-586.4786
 20
248.4403
 30
0.0
 40
2.4
  1
9/15/84
  7
MONOTXT
 11
-586.4786
 21
250.8403
 31
0.0
210
0.0
220
0.0
230
1.0
100
AcDbText
 73
     3
  0
TEXT
  5
82
100
AcDbEntity
  8
1
  6
CONTINUOUS
 62
     4
100
AcDbText
 10
-587.0067
 20
242.723
 30
0.0
 40
2.4
  1
10/25/89
  7
MONOTXT
 11
-587.0067
 21
245.123
 31
0.0
210
0.0
220
0.0
230
1.0
100
AcDbText
 73
     3
  0
LINE
  5
83
100
AcDbEntity
  8
1
  6
CONTINUOUS
 62
     4
100
AcDbLine
 10
-591.6915
 20
252.0173
 30
0.0
 11
-593.7201
 21
247.667
 31
0.0
  0
LINE
  5
84
100
AcDbEntity
  8
1
  6
CONTINUOUS
 62
     4
100
AcDbLine
 10
-591.6915
 20
252.0173
 30
0.0
 11
-589.6629
 21
247.667
 31
0.0
  0
LINE
  5
85
100
AcDbEntity
  8
1
  6
CONTINUOUS
 62
     4
100
AcDbLine
 10
-593.7201
 20
247.667
 30
0.0
 11
-589.6629
 21
247.667
 31
0.0
  0
LINE
  5
86
100
AcDbEntity
  8
1
  6
CONTINUOUS
 62
     4
100
AcDbLine
 10
-591.2883
 20
234.8124
 30
0.0
 11
-593.3169
 21
230.4621
 31
0.0
  0
LINE
  5
87
100
AcDbEntity
  8
1
  6
CONTINUOUS
 62
     4
100
AcDbLine
 10
-591.2883
 20
234.8124
 30
0.0
 11
-589.2597
 21
230.4621
 31
0.0
  0
LINE
  5
88
100
AcDbEntity
  8
1
  6
CONTINUOUS
 62
     4
100
AcDbLine
 10
-593.3169
 20
230.4621
 30
0.0
 11
-589.2597
 21
230.4621
 31
0.0
  0
TEXT
  5
89
100
AcDbEntity
  8
1
  6
CONTINUOUS
 62
     4
100
AcDbText
 10
-592.1292
 20
231.067
 30
0.0
 40
2.4
  1
4
  7
MONOTXT
 11
-592.1292
 21
233.467
 31
0.0
210
0.0
220
0.0
230
1.0
100
AcDbText
 73
     3
  0
TEXT
  5
8A
100
AcDbEntity
  8
1
  6
CONTINUOUS
 62
     4
100
AcDbText
 10
-586.6399
 20
231.1095
 30
0.0
 40
2.4
  1
2/6/92
  7
MONOTXT
 11
-586.6399
 21
233.5095
 31
0.0
210
0.0
220
0.0
230
1.0
100
AcDbText
 73
     3
  0
LINE
  5
8B
100
AcDbEntity
  8
1
  6
CONTINUOUS
 62
     4
100
AcDbLine
 10
-596.9358
 20
336.1998
 30
0.0
 11
-592.8786
 21
336.1998
 31
0.0
  0
LINE
  5
8C
100
AcDbEntity
  8
1
  6
CONTINUOUS
 62
     4
100
AcDbLine
 10
-594.9072
 20
340.5501
 30
0.0
 11
-596.9358
 21
336.1998
 31
0.0
  0
LINE
  5
8D
100
AcDbEntity
  8
1
  6
CONTINUOUS
 62
     4
100
AcDbLine
 10
-594.9072
 20
340.5501
 30
0.0
 11
-592.8786
 21
336.1998
 31
0.0
  0
TEXT
  5
8E
100
AcDbEntity
  8
1
  6
CONTINUOUS
 62
     4
100
AcDbText
 10
-595.7175
 20
336.4529
 30
0.0
 40
2.4
  1
5
  7
MONOTXT
 11
-595.7175
 21
338.8529
 31
0.0
210
0.0
220
0.0
230
1.0
100
AcDbText
 73
     3
  0
TEXT
  5
8F
100
AcDbEntity
  8
1
  6
CONTINUOUS
 62
     4
100
AcDbText
 10
-589.6254
 20
337.2563
 30
0.0
 40
2.4
  1
ADDED UA1, AA,AB,AC AND AD AND ATTENDANT 85 AASHTO DETAILS.
  7
MONOTXT
 11
-589.6254
 21
339.6563
 31
0.0
210
0.0
220
0.0
230
1.0
100
AcDbText
 73
     3
  0
LINE
  5
90
100
AcDbEntity
  8
1
  6
CONTINUOUS
 62
     4
100
AcDbLine
 10
-593.292
 20
224.7125
 30
0.0
 11
-589.2348
 21
224.7125
 31
0.0
  0
LINE
  5
91
100
AcDbEntity
  8
1
  6
CONTINUOUS
 62
     4
100
AcDbLine
 10
-591.2634
 20
229.0628
 30
0.0
 11
-593.292
 21
224.7125
 31
0.0
  0
LINE
  5
92
100
AcDbEntity
  8
1
  6
CONTINUOUS
 62
     4
100
AcDbLine
 10
-591.2634
 20
229.0628
 30
0.0
 11
-589.2348
 21
224.7125
 31
0.0
  0
TEXT
  5
93
100
AcDbEntity
  8
1
  6
CONTINUOUS
 62
     4
100
AcDbText
 10
-592.0525
 20
224.9549
 30
0.0
 40
2.4
  1
5
  7
MONOTXT
 11
-592.0525
 21
227.3549
 31
0.0
210
0.0
220
0.0
230
1.0
100
AcDbText
 73
     3
  0
LINE
  5
94
100
AcDbEntity
  8
1
  6
CONTINUOUS
 62
     4
100
AcDbLine
 10
-594.9754
 20
335.2886
 30
0.0
 11
-597.004
 21
330.9383
 31
0.0
  0
LINE
  5
95
100
AcDbEntity
  8
1
  6
CONTINUOUS
 62
     4
100
AcDbLine
 10
-594.9754
 20
335.2886
 30
0.0
 11
-592.9468
 21
330.9383
 31
0.0
  0
LINE
  5
96
100
AcDbEntity
  8
1
  6
CONTINUOUS
 62
     4
100
AcDbLine
 10
-597.004
 20
330.9383
 30
0.0
 11
-592.9468
 21
330.9383
 31
0.0
  0
TEXT
  5
97
100
AcDbEntity
  8
1
  6
CONTINUOUS
 62
     4
100
AcDbText
 10
-595.7627
 20
331.1228
 30
0.0
 40
2.4
  1
6
  7
MONOTXT
 11
-595.7627
 21
333.5228
 31
0.0
210
0.0
220
0.0
230
1.0
100
AcDbText
 73
     3
  0
LINE
  5
98
100
AcDbEntity
  8
1
  6
CONTINUOUS
 62
     4
100
AcDbLine
 10
-591.1388
 20
223.2834
 30
0.0
 11
-593.1674
 21
218.9331
 31
0.0
  0
LINE
  5
99
100
AcDbEntity
  8
1
  6
CONTINUOUS
 62
     4
100
AcDbLine
 10
-591.1388
 20
223.2834
 30
0.0
 11
-589.1102
 21
218.9331
 31
0.0
  0
LINE
  5
9A
100
AcDbEntity
  8
1
  6
CONTINUOUS
 62
     4
100
AcDbLine
 10
-593.1674
 20
218.9331
 30
0.0
 11
-589.1102
 21
218.9331
 31
0.0
  0
TEXT
  5
9B
100
AcDbEntity
  8
1
  6
CONTINUOUS
 62
     4
100
AcDbText
 10
-591.9261
 20
219.1176
 30
0.0
 40
2.4
  1
6
  7
MONOTXT
 11
-591.9261
 21
221.5176
 31
0.0
210
0.0
220
0.0
230
1.0
100
AcDbText
 73
     3
  0
TEXT
  5
9C
100
AcDbEntity
  8
1
  6
CONTINUOUS
 62
   253
100
AcDbText
 10
-617.7558
 20
610.7291
 30
0.0
 40
6.0
  1
*
  7
MONOTXT
 11
-617.7558
 21
616.7291
 31
0.0
210
0.0
220
0.0
230
1.0
100
AcDbText
 73
     3
  0
TEXT
  5
9D
100
AcDbEntity
  8
1
  6
CONTINUOUS
 62
     7
100
AcDbText
 10
-1092.9865
 20
675.7084
 30
0.0
 40
3.0
  1
HGT.
  7
MONOTXT
 72
     4
 11
-1088.2503
 21
677.2084
 31
0.0
210
0.0
220
0.0
230
1.0
100
AcDbText
  0
TEXT
  5
9E
100
AcDbEntity
  8
1
  6
CONTINUOUS
 62
     7
100
AcDbText
 10
-1091.0731
 20
670.3084
 30
0.0
 40
3.0
  1
(H)
  7
MONOTXT
 72
     4
 11
-1088.2503
 21
671.8084
 31
0.0
210
0.0
220
0.0
230
1.0
100
AcDbText
  0
TEXT
  5
9F
100
AcDbEntity
  8
1
  6
CONTINUOUS
 62
     7
100
AcDbText
 10
-1033.3026
 20
678.9704
 30
0.0
 40
3.0
  1
TOP
  7
MONOTXT
 72
     4
 11
-1029.1806
 21
680.4704
 31
0.0
210
0.0
220
0.0
230
1.0
100
AcDbText
  0
TEXT
  5
A0
100
AcDbEntity
  8
1
  6
CONTINUOUS
 62
     7
100
AcDbText
 10
-1040.3184
 20
673.5704
 30
0.0
 40
3.0
  1
DIMENSION
  7
MONOTXT
 72
     4
 11
-1029.1806
 21
675.0704
 31
0.0
210
0.0
220
0.0
230
1.0
100
AcDbText
  0
TEXT
  5
A1
100
AcDbEntity
  8
1
  6
CONTINUOUS
 62
     7
100
AcDbText
 10
-1032.0152
 20
668.1704
 30
0.0
 40
3.0
  1
(S)
  7
MONOTXT
 72
     4
 11
-1029.1924
 21
669.6704
 31
0.0
210
0.0
220
0.0
230
1.0
100
AcDbText
  0
LINE
  5
A2
100
AcDbEntity
  8
1
  6
CONTINUOUS
 62
     4
100
AcDbLine
 10
-624.1016
 20
628.2142
 30
0.0
 11
-1148.5016
 21
628.2142
 31
0.0
  0
LINE
  5
A3
100
AcDbEntity
  8
1
  6
CONTINUOUS
 62
     4
100
AcDbLine
 10
-624.1016
 20
593.4142
 30
0.0
 11
-1148.5016
 21
593.4142
 31
0.0
  0
LINE
  5
A4
100
AcDbEntity
  8
1
  6
CONTINUOUS
 62
     4
100
AcDbLine
 10
-624.1016
 20
558.6142
 30
0.0
 11
-1148.5016
 21
558.6142
 31
0.0
  0
LINE
  5
A5
100
AcDbEntity
  8
1
  6
CONTINUOUS
 62
     4
100
AcDbLine
 10
-624.1016
 20
523.8142
 30
0.0
 11
-1148.5016
 21
523.8142
 31
0.0
  0
LINE
  5
A6
100
AcDbEntity
  8
1
  6
CONTINUOUS
 62
     4
100
AcDbLine
 10
-624.1016
 20
489.0142
 30
0.0
 11
-1148.5016
 21
489.0142
 31
0.0
  0
TEXT
  5
A7
100
AcDbEntity
  8
1
  6
CONTINUOUS
 62
     7
100
AcDbText
 10
-1122.9434
 20
624.0926
 30
0.0
 40
3.0
  1
356-T6
  7
MONOTXT
 72
     4
 11
-1114.9002
 21
625.5926
 31
0.0
210
0.0
220
0.0
230
1.0
100
AcDbText
  0
TEXT
  5
A8
100
AcDbEntity
  8
1
  6
CONTINUOUS
 62
     7
100
AcDbText
 10
-1077.4396
 20
623.7695
 30
0.0
 40
3.0
  1
266.7mm TO
  7
MONOTXT
 72
     4
 11
-1062.1916
 21
625.2695
 31
0.0
210
0.0
220
0.0
230
1.0
100
AcDbText
  0
TEXT
  5
A9
100
AcDbEntity
  8
1
  6
CONTINUOUS
 62
     7
100
AcDbText
 10
-1072.4436
 20
618.3695
 30
0.0
 40
3.0
  1
342.9mm
  7
MONOTXT
 72
     4
 11
-1062.1916
 21
619.8695
 31
0.0
210
0.0
220
0.0
230
1.0
100
AcDbText
  0
TEXT
  5
AA
100
AcDbEntity
  8
1
  6
CONTINUOUS
 62
     7
100
AcDbText
 10
-1072.0538
 20
612.9695
 30
0.0
 40
3.0
  1
SLOTTED
  7
MONOTXT
 72
     4
 11
-1062.1916
 21
614.4695
 31
0.0
210
0.0
220
0.0
230
1.0
100
AcDbText
  0
TEXT
  5
AB
100
AcDbEntity
  8
1
  6
CONTINUOUS
 62
     7
100
AcDbText
 10
-1123.2855
 20
588.7233
 30
0.0
 40
3.0
  1
356-T6
  7
MONOTXT
 72
     4
 11
-1115.2423
 21
590.2233
 31
0.0
210
0.0
220
0.0
230
1.0
100
AcDbText
  0
TEXT
  5
AC
100
AcDbEntity
  8
1
  6
CONTINUOUS
 62
     7
100
AcDbText
 10
-1123.2967
 20
553.9561
 30
0.0
 40
3.0
  1
356-T6
  7
MONOTXT
 72
     4
 11
-1115.2535
 21
555.4561
 31
0.0
210
0.0
220
0.0
230
1.0
100
AcDbText
  0
TEXT
  5
AD
100
AcDbEntity
  8
1
  6
CONTINUOUS
 62
     7
100
AcDbText
 10
-1122.3883
 20
519.1587
 30
0.0
 40
3.0
  1
356-T6
  7
MONOTXT
 72
     4
 11
-1114.3451
 21
520.6587
 31
0.0
210
0.0
220
0.0
230
1.0
100
AcDbText
  0
TEXT
  5
AE
100
AcDbEntity
  8
1
  6
CONTINUOUS
 62
     7
100
AcDbText
 10
-1146.6463
 20
624.0253
 30
0.0
 40
3.0
  1
AT-AA
  7
MONOTXT
 72
     4
 11
-1139.9377
 21
625.5253
 31
0.0
210
0.0
220
0.0
230
1.0
100
AcDbText
  0
TEXT
  5
AF
100
AcDbEntity
  8
1
  6
CONTINUOUS
 62
     7
100
AcDbText
 10
-1146.9551
 20
554.6358
 30
0.0
 40
3.0
  1
AT-AC
  7
MONOTXT
 72
     4
 11
-1140.3291
 21
556.1358
 31
0.0
210
0.0
220
0.0
230
1.0
100
AcDbText
  0
TEXT
  5
B0
100
AcDbEntity
  8
1
  6
CONTINUOUS
 62
     7
100
AcDbText
 10
-1146.5006
 20
519.4633
 30
0.0
 40
3.0
  1
AT-AD
  7
MONOTXT
 72
     4
 11
-1139.9456
 21
520.9633
 31
0.0
210
0.0
220
0.0
230
1.0
100
AcDbText
  0
TEXT
  5
B1
100
AcDbEntity
  8
1
  6
CONTINUOUS
 62
     7
100
AcDbText
 10
-1138.9727
 20
616.8776
 30
0.0
 40
7.2
  1
*
  7
MONOTXT
 11
-1138.9727
 21
624.0776
 31
0.0
210
0.0
220
0.0
230
1.0
100
AcDbText
 73
     3
  0
TEXT
  5
B2
100
AcDbEntity
  8
1
  6
CONTINUOUS
 62
     7
100
AcDbText
 10
-1139.7045
 20
580.8254
 30
0.0
 40
7.2
  1
*
  7
MONOTXT
 11
-1139.7045
 21
588.0254
 31
0.0
210
0.0
220
0.0
230
1.0
100
AcDbText
 73
     3
  0
TEXT
  5
B3
100
AcDbEntity
  8
1
  6
CONTINUOUS
 62
     7
100
AcDbText
 10
-1140.0432
 20
546.0067
 30
0.0
 40
7.2
  1
*
  7
MONOTXT
 11
-1140.0432
 21
553.2067
 31
0.0
210
0.0
220
0.0
230
1.0
100
AcDbText
 73
     3
  0
TEXT
  5
B4
100
AcDbEntity
  8
1
  6
CONTINUOUS
 62
     7
100
AcDbText
 10
-1139.1359
 20
512.093
 30
0.0
 40
7.2
  1
*
  7
MONOTXT
 11
-1139.1359
 21
519.293
 31
0.0
210
0.0
220
0.0
230
1.0
100
AcDbText
 73
     3
  0
TEXT
  5
B5
100
AcDbEntity
  8
1
  6
CONTINUOUS
 62
     7
100
AcDbText
 10
-1146.3253
 20
589.1076
 30
0.0
 40
3.0
  1
AT-AB
  7
MONOTXT
 11
-1146.3253
 21
592.1076
 31
0.0
210
0.0
220
0.0
230
1.0
100
AcDbText
 73
     3
  0
TEXT
  5
B6
100
AcDbEntity
  8
1
  6
CONTINUOUS
 62
     7
100
AcDbText
 10
-1126.9626
 20
484.9448
 30
0.0
 40
3.0
  1
- MEETS 1985 AASHTO
  7
MONOTXT
 11
-1126.9626
 21
487.9448
 31
0.0
210
0.0
220
0.0
230
1.0
100
AcDbText
 73
     3
  0
TEXT
  5
B7
100
AcDbEntity
  8
1
  6
CONTINUOUS
 62
     7
100
AcDbText
 10
-1131.93
 20
482.9751
 30
0.0
 40
7.2
  1
*
  7
MONOTXT
 11
-1131.93
 21
490.1751
 31
0.0
210
0.0
220
0.0
230
1.0
100
AcDbText
 73
     3
  0
TEXT
  5
B8
100
AcDbEntity
  8
1
  6
CONTINUOUS
 62
     7
100
AcDbText
 10
-1142.9967
 20
616.932
 30
0.0
 40
7.2
  1
*
  7
MONOTXT
 11
-1142.9967
 21
624.132
 31
0.0
210
0.0
220
0.0
230
1.0
100
AcDbText
 73
     3
  0
TEXT
  5
B9
100
AcDbEntity
  8
1
  6
CONTINUOUS
 62
     7
100
AcDbText
 10
-1142.9944
 20
580.7982
 30
0.0
 40
7.2
  1
*
  7
MONOTXT
 11
-1142.9944
 21
587.9982
 31
0.0
210
0.0
220
0.0
230
1.0
100
AcDbText
 73
     3
  0
TEXT
  5
BA
100
AcDbEntity
  8
1
  6
CONTINUOUS
 62
     7
100
AcDbText
 10
-1143.4691
 20
546.0611
 30
0.0
 40
7.2
  1
*
  7
MONOTXT
 11
-1143.4691
 21
553.2611
 31
0.0
210
0.0
220
0.0
230
1.0
100
AcDbText
 73
     3
  0
TEXT
  5
BB
100
AcDbEntity
  8
1
  6
CONTINUOUS
 62
     7
100
AcDbText
 10
-1142.4802
 20
512.1202
 30
0.0
 40
7.2
  1
*
  7
MONOTXT
 11
-1142.4802
 21
519.3202
 31
0.0
210
0.0
220
0.0
230
1.0
100
AcDbText
 73
     3
  0
TEXT
  5
BC
100
AcDbEntity
  8
1
  6
CONTINUOUS
 62
     7
100
AcDbText
 10
-1135.1655
 20
482.9479
 30
0.0
 40
7.2
  1
*
  7
MONOTXT
 11
-1135.1655
 21
490.1479
 31
0.0
210
0.0
220
0.0
230
1.0
100
AcDbText
 73
     3
  0
LINE
  5
BD
100
AcDbEntity
  8
1
  6
CONTINUOUS
 62
     4
100
AcDbLine
 10
-529.7215
 20
454.6463
 30
0.0
 11
-505.7215
 21
454.6463
 31
0.0
  0
LINE
  5
BE
100
AcDbEntity
  8
1
  6
CONTINUOUS
 62
     4
100
AcDbLine
 10
-505.7215
 20
454.6463
 30
0.0
 11
-503.2114
 21
425.9559
 31
0.0
  0
LINE
  5
BF
100
AcDbEntity
  8
1
  6
CONTINUOUS
 62
     4
100
AcDbLine
 10
-503.2114
 20
425.9559
 30
0.0
 11
-503.2114
 21
419.9559
 31
0.0
  0
LINE
  5
C0
100
AcDbEntity
  8
1
  6
CONTINUOUS
 62
     4
100
AcDbLine
 10
-529.7215
 20
454.6463
 30
0.0
 11
-532.7545
 21
419.9787
 31
0.0
  0
LINE
  5
C1
100
AcDbEntity
  8
1
  6
CONTINUOUS
 62
     4
100
AcDbLine
 10
-539.19
 20
419.9836
 30
0.0
 11
-500.79
 21
419.9836
 31
0.0
  0
LINE
  5
C2
100
AcDbEntity
  8
1
  6
CONTINUOUS
 62
     4
100
AcDbLine
 10
-539.19
 20
419.9836
 30
0.0
 11
-540.99
 21
416.8659
 31
0.0
  0
LINE
  5
C3
100
AcDbEntity
  8
1
  6
CONTINUOUS
 62
     4
100
AcDbLine
 10
-506.7538
 20
452.6773
 30
0.0
 11
-504.4068
 21
425.8513
 31
0.0
  0
LINE
  5
C4
100
AcDbEntity
  8
1
  6
CONTINUOUS
 62
     4
100
AcDbLine
 10
-504.4068
 20
425.9559
 30
0.0
 11
-504.4068
 21
421.1559
 31
0.0
  0
LINE
  5
C5
100
AcDbEntity
  8
1
  6
CONTINUOUS
 62
     4
100
AcDbLine
 10
-517.4537
 20
458.1869
 30
0.0
 11
-517.4537
 21
438.9205
 31
0.0
  0
LINE
  5
C6
100
AcDbEntity
  8
1
  6
CONTINUOUS
 62
     4
100
AcDbLine
 10
-517.4537
 20
437.9325
 30
0.0
 11
-517.4537
 21
435.7095
 31
0.0
  0
LINE
  5
C7
100
AcDbEntity
  8
1
  6
CONTINUOUS
 62
     4
100
AcDbLine
 10
-517.4537
 20
434.7215
 30
0.0
 11
-517.4537
 21
408.9869
 31
0.0
  0
LINE
  5
C8
100
AcDbEntity
  8
1
  6
CONTINUOUS
 62
     4
100
AcDbLine
 10
-506.7538
 20
452.6773
 30
0.0
 11
-517.4859
 21
452.6773
 31
0.0
  0
LINE
  5
C9
100
AcDbEntity
  8
1
  6
CONTINUOUS
 62
     4
100
AcDbLine
 10
-504.4068
 20
421.1559
 30
0.0
 11
-517.4016
 21
421.1559
 31
0.0
  0
LINE
  5
CA
100
AcDbEntity
  8
1
  6
CONTINUOUS
 62
     4
100
AcDbLine
 10
-500.79
 20
419.9836
 30
0.0
 11
-497.3959
 21
416.5895
 31
0.0
  0
SPLINE
  5
CB
100
AcDbEntity
  8
1
  6
CONTINUOUS
 62
     4
100
AcDbSpline
210
0.0
220
0.0
230
1.0
 70
     8
 71
     3
 72
   113
 73
   109
 74
     0
 42
0.0
 43
0.0
 12
0.7896808355896636
 22
-0.6135178708908246
 32
0.0
 13
0.7256328183292836
 23
-0.6880821266124423
 33
0.0
 40
0.0
 40
0.0
 40
0.0
 40
0.0
 40
0.0595869515210512
 40
0.0595869515210512
 40
0.0595869515210512
 40
0.0931248890625902
 40
0.0931248890625902
 40
0.0931248890625902
 40
0.1302434908131538
 40
0.1302434908131538
 40
0.1302434908131538
 40
0.1425869769579777
 40
0.1425869769579777
 40
0.1425869769579777
 40
0.1758066554455947
 40
0.1758066554455947
 40
0.1758066554455947
 40
0.2114170344964508
 40
0.2114170344964508
 40
0.2114170344964508
 40
0.2373719788007075
 40
0.2373719788007075
 40
0.2373719788007075
 40
0.2740361999036383
 40
0.2740361999036383
 40
0.2740361999036383
 40
0.2987279704459137
 40
0.2987279704459137
 40
0.2987279704459137
 40
0.328867837399897
 40
0.328867837399897
 40
0.328867837399897
 40
0.3587013891223022
 40
0.3587013891223022
 40
0.3587013891223022
 40
0.3990107494117804
 40
0.3990107494117804
 40
0.3990107494117804
 40
0.4154815315452343
 40
0.4154815315452343
 40
0.4154815315452343
 40
0.4397989116391599
 40
0.4397989116391599
 40
0.4397989116391599
 40
0.4748921483506483
 40
0.4748921483506483
 40
0.4748921483506483
 40
0.5076958590732135
 40
0.5076958590732135
 40
0.5076958590732135
 40
0.5262552597106379
 40
0.5262552597106379
 40
0.5262552597106379
 40
0.5379672155289573
 40
0.5379672155289573
 40
0.5379672155289573
 40
0.5872574054778132
 40
0.5872574054778132
 40
0.5872574054778132
 40
0.6047171238677584
 40
0.6047171238677584
 40
0.6047171238677584
 40
0.6363370726840762
 40
0.6363370726840762
 40
0.6363370726840762
 40
0.6622921596598399
 40
0.6622921596598399
 40
0.6622921596598399
 40
0.6849893303119523
 40
0.6849893303119523
 40
0.6849893303119523
 40
0.7094950738697976
 40
0.7094950738697976
 40
0.7094950738697976
 40
0.7290154428496704
 40
0.7290154428496704
 40
0.7290154428496704
 40
0.7494492872534064
 40
0.7494492872534064
 40
0.7494492872534064
 40
0.77913055404217
 40
0.77913055404217
 40
0.77913055404217
 40
0.7966781219248194
 40
0.7966781219248194
 40
0.7966781219248194
 40
0.8115939050297401
 40
0.8115939050297401
 40
0.8115939050297401
 40
0.8392004119720696
 40
0.8392004119720696
 40
0.8392004119720696
 40
0.8659077803798589
 40
0.8659077803798589
 40
0.8659077803798589
 40
0.8938984308640017
 40
0.8938984308640017
 40
0.8938984308640017
 40
0.900881385178169
 40
0.900881385178169
 40
0.900881385178169
 40
0.936875208144258
 40
0.936875208144258
 40
0.936875208144258
 40
0.9508432373174798
 40
0.9508432373174798
 40
0.9508432373174798
 40
1.0
 40
1.0
 40
1.0
 40
1.0
 10
-540.99000000000001
 20
410.86590000000001
 30
0.0
 10
-540.22057800580785
 20
410.26812160343951
 30
0.0
 10
-538.99032684815927
 20
410.41903146958009
 30
0.0
 10
-538.202
 20
410.51510000000002
 30
0.0
 10
-537.7582978819861
 20
410.56917124027473
 30
0.0
 10
-537.32622497641296
 20
411.42010878162989
 30
0.0
 10
-536.96699999999998
 20
411.50310000000002
 30
0.0
 10
-536.5694225156418
 20
411.59495174191642
 30
0.0
 10
-536.2069130803178
 20
410.07598267402579
 30
0.0
 10
-535.8143
 20
410.18580000000003
 30
0.0
 10
-535.68373974480107
 20
410.2223188497868
 30
0.0
 10
-535.58114999896952
 20
410.58614150578831
 30
0.0
 10
-535.40269999999998
 20
410.59739999999999
 30
0.0
 10
-534.92244251663362
 20
410.62769967009149
 30
0.0
 10
-534.35460782802818
 20
410.48196701407977
 30
0.0
 10
-533.8383
 20
410.51510000000002
 30
0.0
 10
-533.28483535795488
 20
410.55061744753181
 30
0.0
 10
-532.7317647572828
 20
410.8658712298614
 30
0.0
 10
-532.19159999999999
 20
410.84440000000001
 30
0.0
 10
-531.79789606973929
 20
410.8287505014535
 30
0.0
 10
-531.6896366435318
 20
410.05952604243294
 30
0.0
 10
-531.28589999999997
 20
410.02110000000005
 30
0.0
 10
-530.71557746752683
 20
409.96681897749596
 30
0.0
 10
-530.12755169455636
 20
409.94331943169777
 30
0.0
 10
-529.55690000000004
 20
410.02110000000005
 30
0.0
 10
-529.17259071215267
 20
410.07348185586369
 30
0.0
 10
-528.78808908194014
 20
410.12533140537329
 30
0.0
 10
-528.40420000000006
 20
410.18580000000003
 30
0.0
 10
-527.93560801163073
 20
410.25961064042468
 30
0.0
 10
-527.46561924003515
 20
410.34651002744204
 30
0.0
 10
-527.00450000000001
 20
410.43280000000004
 30
0.0
 10
-526.54806717238387
 20
410.51821299679136
 30
0.0
 10
-526.12875920822739
 20
410.89682932811246
 30
0.0
 10
-525.68720000000008
 20
410.92680000000001
 30
0.0
 10
-525.0905908741679
 20
410.9672946290832
 30
0.0
 10
-524.4687773909601
 20
410.65642656902037
 30
0.0
 10
-523.87580000000003
 20
410.35040000000004
 30
0.0
 10
-523.63350388449669
 20
410.22535467779232
 30
0.0
 10
-523.45056794655875
 20
410.05536840190888
 30
0.0
 10
-523.21710000000007
 20
409.93880000000001
 30
0.0
 10
-522.87240909520767
 20
409.76669899634447
 30
0.0
 10
-522.51502791706844
 20
409.63998492152319
 30
0.0
 10
-522.14679999999998
 20
409.52710000000002
 30
0.0
 10
-521.61539779270856
 20
409.36419193766483
 30
0.0
 10
-521.03464348511
 20
409.26450387775293
 30
0.0
 10
-520.50009999999997
 20
409.36240000000004
 30
0.0
 10
-520.0004307902791
 20
409.45390925864882
 30
0.0
 10
-519.53645066915283
 20
409.7159708615311
 30
0.0
 10
-519.10040000000004
 20
410.02110000000005
 30
0.0
 10
-518.85369501179093
 20
410.19373333331072
 30
0.0
 10
-518.69649715240678
 20
410.45470567226414
 30
0.0
 10
-518.44169999999997
 20
410.59739999999999
 30
0.0
 10
-518.28090962481929
 20
410.68744760954394
 30
0.0
 10
-518.11500341878855
 20
410.76393102817212
 30
0.0
 10
-517.94770000000005
 20
410.84440000000001
 30
0.0
 10
-517.24359750686381
 20
411.18305658032824
 30
0.0
 10
-516.50928350439767
 20
411.52888121832757
 30
0.0
 10
-515.80700000000002
 20
411.75010000000003
 30
0.0
 10
-515.55823503826196
 20
411.82846077796773
 30
0.0
 10
-515.40505082188497
 20
411.31137642341042
 30
0.0
 10
-515.14830000000006
 20
411.2561
 30
0.0
 10
-514.68331839690472
 20
411.15599313458841
 30
0.0
 10
-514.13667323707671
 20
411.24845266972426
 30
0.0
 10
-513.66629999999998
 20
411.09140000000002
 30
0.0
 10
-513.28019633012002
 20
410.96248405120616
 30
0.0
 10
-512.89469088040369
 20
410.82526312706409
 30
0.0
 10
-512.5136
 20
410.6798
 30
0.0
 10
-512.18034414327474
 20
410.55259559411047
 30
0.0
 10
-511.87030988083268
 20
410.38720888120497
 30
0.0
 10
-511.5256
 20
410.2681
 30
0.0
 10
-511.15342268895898
 20
410.13950019595359
 30
0.0
 10
-510.75384938912032
 20
410.17703675868069
 30
0.0
 10
-510.37290000000002
 20
410.18580000000003
 30
0.0
 10
-510.0694498059371
 20
410.19278047392891
 30
0.0
 10
-509.76661058381706
 20
410.36301950256666
 30
0.0
 10
-509.46720000000005
 20
410.35040000000004
 30
0.0
 10
-509.15377819486628
 20
410.33718995503801
 30
0.0
 10
-508.88084945244429
 20
410.03870797753484
 30
0.0
 10
-508.5616
 20
410.02110000000005
 30
0.0
 10
-508.09787286266146
 20
409.99552345803875
 30
0.0
 10
-507.62729565756354
 20
410.04782152017447
 30
0.0
 10
-507.1619
 20
410.02110000000005
 30
0.0
 10
-506.88675804088138
 20
410.00530223461067
 30
0.0
 10
-506.61229216088338
 20
409.97300422897013
 30
0.0
 10
-506.33850000000001
 20
409.93880000000001
 30
0.0
 10
-506.10577119593586
 20
409.90972572235648
 30
0.0
 10
-505.89219626362717
 20
409.72072787645919
 30
0.0
 10
-505.67990000000003
 20
409.6918
 30
0.0
 10
-505.28697672976818
 20
409.63825955786029
 30
0.0
 10
-505.02590153777493
 20
410.47578180386591
 30
0.0
 10
-504.60950000000003
 20
410.43280000000004
 30
0.0
 10
-504.20666057891151
 20
410.39121810508385
 30
0.0
 10
-503.79341125216655
 20
410.21624030526669
 30
0.0
 10
-503.37450000000001
 20
410.18580000000003
 30
0.0
 10
-502.93546017158144
 20
410.15389704601591
 30
0.0
 10
-502.49655006574608
 20
410.12110684373073
 30
0.0
 10
-502.05710000000005
 20
410.10340000000002
 30
0.0
 10
-501.94746840232773
 20
410.0989825935203
 30
0.0
 10
-501.8373657067126
 20
410.09795035296281
 30
0.0
 10
-501.7278
 20
410.10340000000002
 30
0.0
 10
-501.16304066274273
 20
410.13149034999515
 30
0.0
 10
-500.63324106122138
 20
410.42358176904844
 30
0.0
 10
-500.08110000000005
 20
410.51510000000002
 30
0.0
 10
-499.86683205579914
 20
410.5506152416296
 30
0.0
 10
-499.63845687402181
 20
410.56679856893521
 30
0.0
 10
-499.42240000000004
 20
410.51510000000002
 30
0.0
 10
-498.66204531069445
 20
410.333160640291
 30
0.0
 10
-497.97599455268346
 20
409.9395753044297
 30
0.0
 10
-497.39590000000004
 20
409.3895
 30
0.0
  0
LINE
  5
CC
100
AcDbEntity
  8
1
  6
CONTINUOUS
 62
     4
100
AcDbLine
 10
-527.4162
 20
460.7393
 30
0.0
 11
-525.6162
 21
460.7393
 31
0.0
  0
INSERT
  5
D1
100
AcDbEntity
  8
1
  6
CONTINUOUS
 62
    20
100
AcDbBlockReference
  2
PT
 10
-526.5162
 20
459.5394
 30
0.0
 41
240.00041
 42
240.00041
210
0.0
220
0.0
230
1.0
  0
LINE
  5
D2
100
AcDbEntity
  8
1
  6
CONTINUOUS
 62
     4
100
AcDbLine
 10
-528.3631
 20
458.9541
 30
0.0
 11
-524.7631
 21
458.9541
 31
0.0
  0
LINE
  5
D3
100
AcDbEntity
  8
1
  6
CONTINUOUS
 62
     4
100
AcDbLine
 10
-528.3631
 20
460.1541
 30
0.0
 11
-524.7631
 21
460.1541
 31
0.0
  0
LINE
  5
D4
100
AcDbEntity
  8
1
  6
CONTINUOUS
 62
     4
100
AcDbLine
 10
-528.3631
 20
460.1541
 30
0.0
 11
-528.3631
 21
458.9541
 31
0.0
  0
LINE
  5
D5
100
AcDbEntity
  8
1
  6
CONTINUOUS
 62
     4
100
AcDbLine
 10
-524.7631
 20
460.1541
 30
0.0
 11
-524.7631
 21
458.9541
 31
0.0
  0
LINE
  5
D6
100
AcDbEntity
  8
1
  6
CONTINUOUS
 62
     4
100
AcDbLine
 10
-527.4162
 20
460.7393
 30
0.0
 11
-527.4162
 21
460.1541
 31
0.0
  0
LINE
  5
D7
100
AcDbEntity
  8
1
  6
CONTINUOUS
 62
     4
100
AcDbLine
 10
-527.4162
 20
458.9541
 30
0.0
 11
-527.4162
 21
454.6463
 31
0.0
  0
LINE
  5
D8
100
AcDbEntity
  8
1
  6
CONTINUOUS
 62
     4
100
AcDbLine
 10
-525.6162
 20
460.7393
 30
0.0
 11
-525.6162
 21
460.1541
 31
0.0
  0
LINE
  5
D9
100
AcDbEntity
  8
1
  6
CONTINUOUS
 62
     4
100
AcDbLine
 10
-525.6162
 20
458.9541
 30
0.0
 11
-525.6162
 21
454.6463
 31
0.0
  0
LINE
  5
DA
100
AcDbEntity
  8
1
  6
CONTINUOUS
 62
     4
100
AcDbLine
 10
-527.8794
 20
460.1582
 30
0.0
 11
-526.6753
 21
460.1582
 31
0.0
  0
LINE
  5
DB
100
AcDbEntity
  8
1
  6
CONTINUOUS
 62
     4
100
AcDbLine
 10
-526.6753
 20
460.1582
 30
0.0
 11
-524.965
 21
460.1582
 31
0.0
  0
LINE
  5
DC
100
AcDbEntity
  8
1
  6
CONTINUOUS
 62
     4
100
AcDbLine
 10
-527.9103
 20
460.1479
 30
0.0
 11
-527.9103
 21
458.9639
 31
0.0
  0
LINE
  5
DD
100
AcDbEntity
  8
1
  6
CONTINUOUS
 62
     4
100
AcDbLine
 10
-525.1727
 20
460.1685
 30
0.0
 11
-525.1727
 21
458.9541
 31
0.0
  0
LINE
  5
DE
100
AcDbEntity
  8
1
  6
CONTINUOUS
 62
     4
100
AcDbLine
 10
-527.3134
 20
460.5802
 30
0.0
 11
-525.7079
 21
460.5802
 31
0.0
  0
LINE
  5
DF
100
AcDbEntity
  8
1
  6
CONTINUOUS
 62
     4
100
AcDbLine
 10
-527.3134
 20
460.2202
 30
0.0
 11
-525.7079
 21
460.2202
 31
0.0
  0
LINE
  5
E0
100
AcDbEntity
  8
1
  6
CONTINUOUS
 62
     4
100
AcDbLine
 10
-527.3134
 20
458.9002
 30
0.0
 11
-525.7079
 21
458.9002
 31
0.0
  0
LINE
  5
E1
100
AcDbEntity
  8
1
  6
CONTINUOUS
 62
     4
100
AcDbLine
 10
-527.3134
 20
458.5402
 30
0.0
 11
-525.7079
 21
458.5402
 31
0.0
  0
LINE
  5
E2
100
AcDbEntity
  8
1
  6
CONTINUOUS
 62
     4
100
AcDbLine
 10
-527.3134
 20
458.1802
 30
0.0
 11
-525.7079
 21
458.1802
 31
0.0
  0
LINE
  5
E3
100
AcDbEntity
  8
1
  6
CONTINUOUS
 62
     4
100
AcDbLine
 10
-527.3134
 20
457.8202
 30
0.0
 11
-525.7079
 21
457.8202
 31
0.0
  0
LINE
  5
E4
100
AcDbEntity
  8
1
  6
CONTINUOUS
 62
     4
100
AcDbLine
 10
-527.3134
 20
457.4602
 30
0.0
 11
-525.7079
 21
457.4602
 31
0.0
  0
LINE
  5
E5
100
AcDbEntity
  8
1
  6
CONTINUOUS
 62
     4
100
AcDbLine
 10
-527.3134
 20
457.1002
 30
0.0
 11
-525.7079
 21
457.1002
 31
0.0
  0
LINE
  5
E6
100
AcDbEntity
  8
1
  6
CONTINUOUS
 62
     4
100
AcDbLine
 10
-527.3134
 20
456.7402
 30
0.0
 11
-525.7079
 21
456.7402
 31
0.0
  0
LINE
  5
E7
100
AcDbEntity
  8
1
  6
CONTINUOUS
 62
     4
100
AcDbLine
 10
-527.3134
 20
456.3802
 30
0.0
 11
-525.7079
 21
456.3802
 31
0.0
  0
LINE
  5
E8
100
AcDbEntity
  8
1
  6
CONTINUOUS
 62
     4
100
AcDbLine
 10
-527.3134
 20
456.0202
 30
0.0
 11
-525.7079
 21
456.0202
 31
0.0
  0
LINE
  5
E9
100
AcDbEntity
  8
1
  6
CONTINUOUS
 62
     4
100
AcDbLine
 10
-527.3134
 20
455.6602
 30
0.0
 11
-525.7079
 21
455.6602
 31
0.0
  0
LINE
  5
EA
100
AcDbEntity
  8
1
  6
CONTINUOUS
 62
     4
100
AcDbLine
 10
-527.3134
 20
455.3002
 30
0.0
 11
-525.7079
 21
455.3002
 31
0.0
  0
LINE
  5
EB
100
AcDbEntity
  8
1
  6
CONTINUOUS
 62
     4
100
AcDbLine
 10
-527.3134
 20
454.9402
 30
0.0
 11
-525.7079
 21
454.9402
 31
0.0
  0
LINE
  5
EC
100
AcDbEntity
  8
1
  6
CONTINUOUS
 62
     4
100
AcDbLine
 10
-526.5162
 20
460.7393
 30
0.0
 11
-526.5162
 21
460.1541
 31
0.0
  0
LINE
  5
ED
100
AcDbEntity
  8
1
  6
CONTINUOUS
 62
     4
100
AcDbLine
 10
-526.5162
 20
458.9541
 30
0.0
 11
-526.5162
 21
454.6521
 31
0.0
  0
LINE
  5
EE
100
AcDbEntity
  8
1
  6
CONTINUOUS
 62
     4
100
AcDbLine
 10
-510.2491
 20
460.7393
 30
0.0
 11
-508.4491
 21
460.7393
 31
0.0
  0
LINE
  5
EF
100
AcDbEntity
  8
1
  6
CONTINUOUS
 62
     4
100
AcDbLine
 10
-511.196
 20
458.9541
 30
0.0
 11
-507.596
 21
458.9541
 31
0.0
  0
LINE
  5
F0
100
AcDbEntity
  8
1
  6
CONTINUOUS
 62
     4
100
AcDbLine
 10
-511.196
 20
460.1541
 30
0.0
 11
-507.596
 21
460.1541
 31
0.0
  0
LINE
  5
F1
100
AcDbEntity
  8
1
  6
CONTINUOUS
 62
     4
100
AcDbLine
 10
-511.196
 20
460.1541
 30
0.0
 11
-511.196
 21
458.9541
 31
0.0
  0
LINE
  5
F2
100
AcDbEntity
  8
1
  6
CONTINUOUS
 62
     4
100
AcDbLine
 10
-507.596
 20
460.1541
 30
0.0
 11
-507.596
 21
458.9541
 31
0.0
  0
LINE
  5
F3
100
AcDbEntity
  8
1
  6
CONTINUOUS
 62
     4
100
AcDbLine
 10
-510.2491
 20
460.7393
 30
0.0
 11
-510.2491
 21
460.1541
 31
0.0
  0
LINE
  5
F4
100
AcDbEntity
  8
1
  6
CONTINUOUS
 62
     4
100
AcDbLine
 10
-510.2491
 20
458.9541
 30
0.0
 11
-510.2491
 21
454.6463
 31
0.0
  0
LINE
  5
F5
100
AcDbEntity
  8
1
  6
CONTINUOUS
 62
     4
100
AcDbLine
 10
-508.4491
 20
460.7393
 30
0.0
 11
-508.4491
 21
460.1541
 31
0.0
  0
LINE
  5
F6
100
AcDbEntity
  8
1
  6
CONTINUOUS
 62
     4
100
AcDbLine
 10
-508.4491
 20
458.9541
 30
0.0
 11
-508.4491
 21
454.6463
 31
0.0
  0
LINE
  5
F7
100
AcDbEntity
  8
1
  6
CONTINUOUS
 62
     4
100
AcDbLine
 10
-510.7123
 20
460.1582
 30
0.0
 11
-509.5082
 21
460.1582
 31
0.0
  0
LINE
  5
F8
100
AcDbEntity
  8
1
  6
CONTINUOUS
 62
     4
100
AcDbLine
 10
-510.7432
 20
460.1479
 30
0.0
 11
-510.7432
 21
458.9639
 31
0.0
  0
LINE
  5
F9
100
AcDbEntity
  8
1
  6
CONTINUOUS
 62
     4
100
AcDbLine
 10
-508.0056
 20
460.1685
 30
0.0
 11
-508.0056
 21
458.9541
 31
0.0
  0
LINE
  5
FA
100
AcDbEntity
  8
1
  6
CONTINUOUS
 62
     4
100
AcDbLine
 10
-510.1463
 20
460.5802
 30
0.0
 11
-508.5408
 21
460.5802
 31
0.0
  0
LINE
  5
FB
100
AcDbEntity
  8
1
  6
CONTINUOUS
 62
     4
100
AcDbLine
 10
-510.1463
 20
460.2202
 30
0.0
 11
-508.5408
 21
460.2202
 31
0.0
  0
LINE
  5
FC
100
AcDbEntity
  8
1
  6
CONTINUOUS
 62
     4
100
AcDbLine
 10
-510.1463
 20
458.9002
 30
0.0
 11
-508.5408
 21
458.9002
 31
0.0
  0
LINE
  5
FD
100
AcDbEntity
  8
1
  6
CONTINUOUS
 62
     4
100
AcDbLine
 10
-510.1463
 20
458.5402
 30
0.0
 11
-508.5408
 21
458.5402
 31
0.0
  0
LINE
  5
FE
100
AcDbEntity
  8
1
  6
CONTINUOUS
 62
     4
100
AcDbLine
 10
-510.1463
 20
458.1802
 30
0.0
 11
-508.5408
 21
458.1802
 31
0.0
  0
LINE
  5
FF
100
AcDbEntity
  8
1
  6
CONTINUOUS
 62
     4
100
AcDbLine
 10
-510.1463
 20
457.8202
 30
0.0
 11
-508.5408
 21
457.8202
 31
0.0
  0
LINE
  5
100
100
AcDbEntity
  8
1
  6
CONTINUOUS
 62
     4
100
AcDbLine
 10
-510.1463
 20
457.4602
 30
0.0
 11
-508.5408
 21
457.4602
 31
0.0
  0
LINE
  5
101
100
AcDbEntity
  8
1
  6
CONTINUOUS
 62
     4
100
AcDbLine
 10
-510.1463
 20
457.1002
 30
0.0
 11
-508.5408
 21
457.1002
 31
0.0
  0
LINE
  5
102
100
AcDbEntity
  8
1
  6
CONTINUOUS
 62
     4
100
AcDbLine
 10
-510.1463
 20
456.7402
 30
0.0
 11
-508.5408
 21
456.7402
 31
0.0
  0
LINE
  5
103
100
AcDbEntity
  8
1
  6
CONTINUOUS
 62
     4
100
AcDbLine
 10
-510.1463
 20
456.3802
 30
0.0
 11
-508.5408
 21
456.3802
 31
0.0
  0
LINE
  5
104
100
AcDbEntity
  8
1
  6
CONTINUOUS
 62
     4
100
AcDbLine
 10
-510.1463
 20
456.0202
 30
0.0
 11
-508.5408
 21
456.0202
 31
0.0
  0
LINE
  5
105
100
AcDbEntity
  8
1
  6
CONTINUOUS
 62
     4
100
AcDbLine
 10
-510.1463
 20
455.6602
 30
0.0
 11
-508.5408
 21
455.6602
 31
0.0
  0
LINE
  5
106
100
AcDbEntity
  8
1
  6
CONTINUOUS
 62
     4
100
AcDbLine
 10
-510.1463
 20
455.3002
 30
0.0
 11
-508.5408
 21
455.3002
 31
0.0
  0
LINE
  5
107
100
AcDbEntity
  8
1
  6
CONTINUOUS
 62
     4
100
AcDbLine
 10
-510.1463
 20
454.9402
 30
0.0
 11
-508.5408
 21
454.9402
 31
0.0
  0
LINE
  5
108
100
AcDbEntity
  8
1
  6
CONTINUOUS
 62
     4
100
AcDbLine
 10
-509.3491
 20
460.7393
 30
0.0
 11
-509.3491
 21
460.1541
 31
0.0
  0
LINE
  5
109
100
AcDbEntity
  8
1
  6
CONTINUOUS
 62
     4
100
AcDbLine
 10
-509.3491
 20
458.9541
 30
0.0
 11
-509.3491
 21
454.6521
 31
0.0
  0
LINE
  5
10A
100
AcDbEntity
  8
1
  6
CONTINUOUS
 62
     4
100
AcDbLine
 10
-511.196
 20
451.0086
 30
0.0
 11
-507.596
 21
451.0086
 31
0.0
  0
LINE
  5
10B
100
AcDbEntity
  8
1
  6
CONTINUOUS
 62
     4
100
AcDbLine
 10
-511.196
 20
452.2086
 30
0.0
 11
-507.596
 21
452.2086
 31
0.0
  0
LINE
  5
10C
100
AcDbEntity
  8
1
  6
CONTINUOUS
 62
     4
100
AcDbLine
 10
-511.196
 20
452.2086
 30
0.0
 11
-511.196
 21
451.0086
 31
0.0
  0
LINE
  5
10D
100
AcDbEntity
  8
1
  6
CONTINUOUS
 62
     4
100
AcDbLine
 10
-507.596
 20
452.2086
 30
0.0
 11
-507.596
 21
451.0086
 31
0.0
  0
LINE
  5
10E
100
AcDbEntity
  8
1
  6
CONTINUOUS
 62
     4
100
AcDbLine
 10
-510.7432
 20
452.2024
 30
0.0
 11
-510.7432
 21
451.0184
 31
0.0
  0
LINE
  5
10F
100
AcDbEntity
  8
1
  6
CONTINUOUS
 62
     4
100
AcDbLine
 10
-508.0056
 20
452.223
 30
0.0
 11
-508.0056
 21
451.0086
 31
0.0
  0
LWPOLYLINE
  5
110
100
AcDbEntity
  8
1
  6
CONTINUOUS
 62
     4
100
AcDbPolyline
 90
        4
 70
     1
 10
-511.7212
 20
452.6079
 10
-511.7212
 20
452.1962
 10
-507.1104
 20
452.1962
 10
-507.1104
 20
452.6079
  0
SPLINE
  5
111
100
AcDbEntity
  8
1
  6
CONTINUOUS
 62
     4
100
AcDbSpline
210
0.0
220
0.0
230
1.0
 70
     8
 71
     3
 72
    23
 73
    19
 74
     0
 42
0.0
 43
0.0
 12
-0.9418531452523431
 22
0.3360247800062796
 32
0.0
 13
-0.1484566558874391
 23
0.9889189154438894
 33
0.0
 40
0.0
 40
0.0
 40
0.0
 40
0.0
 40
0.2820102386222252
 40
0.2820102386222252
 40
0.2820102386222252
 40
0.4106180453085403
 40
0.4106180453085403
 40
0.4106180453085403
 40
0.5354242463116288
 40
0.5354242463116288
 40
0.5354242463116288
 40
0.6246037140650105
 40
0.6246037140650105
 40
0.6246037140650105
 40
0.8208020078321008
 40
0.8208020078321008
 40
0.8208020078321008
 40
1.0
 40
1.0
 40
1.0
 40
1.0
 10
-506.82220000000001
 20
452.67010000000005
 30
0.0
 10
-507.0306597228344
 20
452.74447213843661
 30
0.0
 10
-507.23937902626881
 20
452.88068949197094
 30
0.0
 10
-507.35740000000004
 20
453.04070000000002
 30
0.0
 10
-507.41122222520966
 20
453.1136711112083
 30
0.0
 10
-507.20936082302251
 20
453.19592632197094
 30
0.0
 10
-507.1927
 20
453.28770000000003
 30
0.0
 10
-507.17653166558398
 20
453.37676087742273
 30
0.0
 10
-507.16501994668442
 20
453.48853380415761
 30
0.0
 10
-507.1927
 20
453.57580000000002
 30
0.0
 10
-507.21247860396545
 20
453.6381554986495
 30
0.0
 10
-507.31033859847975
 20
453.6722129253842
 30
0.0
 10
-507.31620000000004
 20
453.7405
 30
0.0
 10
-507.329095311066
 20
453.89073421717455
 30
0.0
 10
-507.30325225204928
 20
454.04313325023242
 30
0.0
 10
-507.31620000000004
 20
454.1934
 30
0.0
 10
-507.32802584410553
 20
454.33064635077579
 30
0.0
 10
-507.33685489335585
 20
454.46814224539958
 30
0.0
 10
-507.35740000000004
 20
454.60500000000002
 30
0.0
  0
LINE
  5
112
100
AcDbEntity
  8
1
  6
CONTINUOUS
 62
     4
100
AcDbLine
 10
-509.4259
 20
421.7792
 30
0.0
 11
-505.8259
 21
421.7792
 31
0.0
  0
LINE
  5
113
100
AcDbEntity
  8
1
  6
CONTINUOUS
 62
     4
100
AcDbLine
 10
-509.4259
 20
422.9792
 30
0.0
 11
-505.8259
 21
422.9792
 31
0.0
  0
LINE
  5
114
100
AcDbEntity
  8
1
  6
CONTINUOUS
 62
     4
100
AcDbLine
 10
-509.4259
 20
422.9792
 30
0.0
 11
-509.4259
 21
421.7792
 31
0.0
  0
LINE
  5
115
100
AcDbEntity
  8
1
  6
CONTINUOUS
 62
     4
100
AcDbLine
 10
-505.8259
 20
422.9792
 30
0.0
 11
-505.8259
 21
421.7792
 31
0.0
  0
LINE
  5
116
100
AcDbEntity
  8
1
  6
CONTINUOUS
 62
     4
100
AcDbLine
 10
-508.9731
 20
422.973
 30
0.0
 11
-508.9731
 21
421.789
 31
0.0
  0
LINE
  5
117
100
AcDbEntity
  8
1
  6
CONTINUOUS
 62
     4
100
AcDbLine
 10
-506.2355
 20
422.9936
 30
0.0
 11
-506.2355
 21
421.7792
 31
0.0
  0
LWPOLYLINE
  5
118
100
AcDbEntity
  8
1
  6
CONTINUOUS
 62
     4
100
AcDbPolyline
 90
        4
 70
     1
 10
-509.9098
 20
421.6906
 10
-509.9098
 20
421.2789
 10
-505.299
 20
421.2789
 10
-505.299
 20
421.6906
  0
LINE
  5
119
100
AcDbEntity
  8
1
  6
CONTINUOUS
 62
     4
100
AcDbLine
 10
-508.5612
 20
423.5226
 30
0.0
 11
-506.7612
 21
423.5226
 31
0.0
  0
LINE
  5
11A
100
AcDbEntity
  8
1
  6
CONTINUOUS
 62
     4
100
AcDbLine
 10
-508.5612
 20
423.5226
 30
0.0
 11
-508.5612
 21
422.9374
 31
0.0
  0
LINE
  5
11B
100
AcDbEntity
  8
1
  6
CONTINUOUS
 62
     4
100
AcDbLine
 10
-508.6024
 20
420.0082
 30
0.0
 11
-508.6024
 21
415.7004
 31
0.0
  0
LINE
  5
11C
100
AcDbEntity
  8
1
  6
CONTINUOUS
 62
     4
100
AcDbLine
 10
-506.7612
 20
423.5226
 30
0.0
 11
-506.7612
 21
422.9374
 31
0.0
  0
LINE
  5
11D
100
AcDbEntity
  8
1
  6
CONTINUOUS
 62
     4
100
AcDbLine
 10
-506.8024
 20
420.0082
 30
0.0
 11
-506.8024
 21
415.7004
 31
0.0
  0
LINE
  5
11E
100
AcDbEntity
  8
1
  6
CONTINUOUS
 62
     4
100
AcDbLine
 10
-508.4584
 20
423.3635
 30
0.0
 11
-506.8529
 21
423.3635
 31
0.0
  0
LINE
  5
11F
100
AcDbEntity
  8
1
  6
CONTINUOUS
 62
     4
100
AcDbLine
 10
-508.4996
 20
419.5943
 30
0.0
 11
-506.8941
 21
419.5943
 31
0.0
  0
LINE
  5
120
100
AcDbEntity
  8
1
  6
CONTINUOUS
 62
     4
100
AcDbLine
 10
-508.4996
 20
419.2343
 30
0.0
 11
-506.8941
 21
419.2343
 31
0.0
  0
LINE
  5
121
100
AcDbEntity
  8
1
  6
CONTINUOUS
 62
     4
100
AcDbLine
 10
-508.4996
 20
418.8743
 30
0.0
 11
-506.8941
 21
418.8743
 31
0.0
  0
LINE
  5
122
100
AcDbEntity
  8
1
  6
CONTINUOUS
 62
     4
100
AcDbLine
 10
-508.4996
 20
418.5143
 30
0.0
 11
-506.8941
 21
418.5143
 31
0.0
  0
LINE
  5
123
100
AcDbEntity
  8
1
  6
CONTINUOUS
 62
     4
100
AcDbLine
 10
-508.4996
 20
418.1543
 30
0.0
 11
-506.8941
 21
418.1543
 31
0.0
  0
LINE
  5
124
100
AcDbEntity
  8
1
  6
CONTINUOUS
 62
     4
100
AcDbLine
 10
-508.4996
 20
417.7943
 30
0.0
 11
-506.8941
 21
417.7943
 31
0.0
  0
LINE
  5
125
100
AcDbEntity
  8
1
  6
CONTINUOUS
 62
     4
100
AcDbLine
 10
-508.4996
 20
417.4343
 30
0.0
 11
-506.8941
 21
417.4343
 31
0.0
  0
LINE
  5
126
100
AcDbEntity
  8
1
  6
CONTINUOUS
 62
     4
100
AcDbLine
 10
-508.4996
 20
417.0743
 30
0.0
 11
-506.8941
 21
417.0743
 31
0.0
  0
LINE
  5
127
100
AcDbEntity
  8
1
  6
CONTINUOUS
 62
     4
100
AcDbLine
 10
-508.4996
 20
416.7143
 30
0.0
 11
-506.8941
 21
416.7143
 31
0.0
  0
LINE
  5
128
100
AcDbEntity
  8
1
  6
CONTINUOUS
 62
     4
100
AcDbLine
 10
-508.4996
 20
416.3543
 30
0.0
 11
-506.8941
 21
416.3543
 31
0.0
  0
LINE
  5
129
100
AcDbEntity
  8
1
  6
CONTINUOUS
 62
     4
100
AcDbLine
 10
-508.4996
 20
415.9943
 30
0.0
 11
-506.8941
 21
415.9943
 31
0.0
  0
LINE
  5
12A
100
AcDbEntity
  8
1
  6
CONTINUOUS
 62
     4
100
AcDbLine
 10
-507.6612
 20
423.5226
 30
0.0
 11
-507.6612
 21
422.9374
 31
0.0
  0
LINE
  5
12B
100
AcDbEntity
  8
1
  6
CONTINUOUS
 62
     4
100
AcDbLine
 10
-507.7024
 20
420.0082
 30
0.0
 11
-507.7024
 21
415.7062
 31
0.0
  0
LINE
  5
12C
100
AcDbEntity
  8
1
  6
CONTINUOUS
 62
     4
100
AcDbLine
 10
-508.6024
 20
416.056
 30
0.0
 11
-508.6024
 21
410.0211
 31
0.0
  0
LINE
  5
12D
100
AcDbEntity
  8
1
  6
CONTINUOUS
 62
     4
100
AcDbLine
 10
-506.8024
 20
416.056
 30
0.0
 11
-506.8024
 21
409.9852
 31
0.0
  0
LINE
  5
12E
100
AcDbEntity
  8
1
  6
CONTINUOUS
 62
     4
100
AcDbLine
 10
-508.4996
 20
415.6421
 30
0.0
 11
-506.8941
 21
415.6421
 31
0.0
  0
LINE
  5
12F
100
AcDbEntity
  8
1
  6
CONTINUOUS
 62
     4
100
AcDbLine
 10
-508.4996
 20
415.2821
 30
0.0
 11
-506.8941
 21
415.2821
 31
0.0
  0
LINE
  5
130
100
AcDbEntity
  8
1
  6
CONTINUOUS
 62
     4
100
AcDbLine
 10
-508.4996
 20
414.9221
 30
0.0
 11
-506.8941
 21
414.9221
 31
0.0
  0
LINE
  5
131
100
AcDbEntity
  8
1
  6
CONTINUOUS
 62
     4
100
AcDbLine
 10
-508.4996
 20
414.5621
 30
0.0
 11
-506.8941
 21
414.5621
 31
0.0
  0
LINE
  5
132
100
AcDbEntity
  8
1
  6
CONTINUOUS
 62
     4
100
AcDbLine
 10
-508.4996
 20
414.2021
 30
0.0
 11
-506.8941
 21
414.2021
 31
0.0
  0
LINE
  5
133
100
AcDbEntity
  8
1
  6
CONTINUOUS
 62
     4
100
AcDbLine
 10
-508.4996
 20
413.8421
 30
0.0
 11
-506.8941
 21
413.8421
 31
0.0
  0
LINE
  5
134
100
AcDbEntity
  8
1
  6
CONTINUOUS
 62
     4
100
AcDbLine
 10
-508.4996
 20
413.4821
 30
0.0
 11
-506.8941
 21
413.4821
 31
0.0
  0
LINE
  5
135
100
AcDbEntity
  8
1
  6
CONTINUOUS
 62
     4
100
AcDbLine
 10
-508.4996
 20
413.1221
 30
0.0
 11
-506.8941
 21
413.1221
 31
0.0
  0
LINE
  5
136
100
AcDbEntity
  8
1
  6
CONTINUOUS
 62
     4
100
AcDbLine
 10
-508.4996
 20
412.7621
 30
0.0
 11
-506.8941
 21
412.7621
 31
0.0
  0
LINE
  5
137
100
AcDbEntity
  8
1
  6
CONTINUOUS
 62
     4
100
AcDbLine
 10
-508.4996
 20
412.4021
 30
0.0
 11
-506.8941
 21
412.4021
 31
0.0
  0
LINE
  5
138
100
AcDbEntity
  8
1
  6
CONTINUOUS
 62
     4
100
AcDbLine
 10
-508.4996
 20
412.0421
 30
0.0
 11
-506.8941
 21
412.0421
 31
0.0
  0
LINE
  5
139
100
AcDbEntity
  8
1
  6
CONTINUOUS
 62
     4
100
AcDbLine
 10
-507.7024
 20
416.056
 30
0.0
 11
-507.7024
 21
410.0211
 31
0.0
  0
LINE
  5
13A
100
AcDbEntity
  8
1
  6
CONTINUOUS
 62
     4
100
AcDbLine
 10
-508.4996
 20
411.6557
 30
0.0
 11
-506.8941
 21
411.6557
 31
0.0
  0
LINE
  5
13B
100
AcDbEntity
  8
1
  6
CONTINUOUS
 62
     4
100
AcDbLine
 10
-508.4996
 20
411.2028
 30
0.0
 11
-506.8941
 21
411.2028
 31
0.0
  0
LINE
  5
13C
100
AcDbEntity
  8
1
  6
CONTINUOUS
 62
     4
100
AcDbLine
 10
-508.4996
 20
410.7912
 30
0.0
 11
-506.8941
 21
410.7912
 31
0.0
  0
LINE
  5
13D
100
AcDbEntity
  8
1
  6
CONTINUOUS
 62
     4
100
AcDbLine
 10
-508.4996
 20
410.4206
 30
0.0
 11
-506.8941
 21
410.4206
 31
0.0
  0
LINE
  5
13E
100
AcDbEntity
  8
1
  6
CONTINUOUS
 62
     4
100
AcDbLine
 10
-514.7164
 20
429.0912
 30
0.0
 11
-514.7164
 21
411.1543
 31
0.0
  0
LINE
  5
13F
100
AcDbEntity
  8
1
  6
CONTINUOUS
 62
     4
100
AcDbLine
 10
-512.9164
 20
429.0912
 30
0.0
 11
-512.9164
 21
410.5543
 31
0.0
  0
LINE
  5
140
100
AcDbEntity
  8
1
  6
CONTINUOUS
 62
     4
100
AcDbLine
 10
-555.2267
 20
404.5543
 30
0.0
 11
-518.9164
 21
404.5543
 31
0.0
  0
LINE
  5
141
100
AcDbEntity
  8
1
  6
CONTINUOUS
 62
     4
100
AcDbLine
 10
-555.2267
 20
406.3543
 30
0.0
 11
-519.5164
 21
406.3543
 31
0.0
  0
ARC
  5
142
100
AcDbEntity
  8
1
  6
CONTINUOUS
 62
     4
100
AcDbCircle
 10
-518.9164
 20
410.5543
 30
0.0
 40
6.0
210
0.0
220
0.0
230
1.0
100
AcDbArc
 50
270.0
 51
360.0
  0
ARC
  5
143
100
AcDbEntity
  8
1
  6
CONTINUOUS
 62
     4
100
AcDbCircle
 10
-519.5164
 20
411.1543
 30
0.0
 40
4.8
210
0.0
220
0.0
230
1.0
100
AcDbArc
 50
270.0
 51
360.0
  0
LINE
  5
144
100
AcDbEntity
  8
1
  6
CONTINUOUS
 62
     4
100
AcDbLine
 10
-514.9222
 20
428.9066
 30
0.0
 11
-512.9392
 21
428.9066
 31
0.0
  0
LINE
  5
145
100
AcDbEntity
  8
1
  6
CONTINUOUS
 62
     4
100
AcDbLine
 10
-555.2267
 20
406.3543
 30
0.0
 11
-555.2267
 21
404.5543
 31
0.0
  0
LWPOLYLINE
  5
146
100
AcDbEntity
  8
1
  6
CONTINUOUS
 62
     4
100
AcDbPolyline
 90
        4
 70
     1
 10
-563.2137
 20
404.1653
 10
-563.2137
 20
402.889
 10
-559.7143
 20
402.889
 10
-559.7143
 20
404.1653
  0
LINE
  5
147
100
AcDbEntity
  8
1
  6
CONTINUOUS
 62
     4
100
AcDbLine
 10
-561.9375
 20
406.4296
 30
0.0
 11
-561.9375
 21
404.1653
 31
0.0
  0
LINE
  5
148
100
AcDbEntity
  8
1
  6
CONTINUOUS
 62
     4
100
AcDbLine
 10
-561.9375
 20
402.889
 30
0.0
 11
-561.9375
 21
393.2296
 31
0.0
  0
LINE
  5
149
100
AcDbEntity
  8
1
  6
CONTINUOUS
 62
     4
100
AcDbLine
 10
-561.1141
 20
406.4296
 30
0.0
 11
-561.1141
 21
404.1653
 31
0.0
  0
LINE
  5
14A
100
AcDbEntity
  8
1
  6
CONTINUOUS
 62
     4
100
AcDbLine
 10
-561.1141
 20
402.889
 30
0.0
 11
-561.1141
 21
393.2296
 31
0.0
  0
LINE
  5
14B
100
AcDbEntity
  8
1
  6
CONTINUOUS
 62
     4
100
AcDbLine
 10
-561.9375
 20
406.4296
 30
0.0
 11
-561.1141
 21
406.4296
 31
0.0
  0
ELLIPSE
  5
14C
100
AcDbEntity
  8
1
  6
CONTINUOUS
 62
     4
100
AcDbEllipse
 10
-561.53095
 20
393.2248
 30
0.0
 11
-0.4168500000240073
 21
-0.0047999988976274
 31
0.0
210
0.0
220
0.0
230
1.0
 40
0.4836
 41
0.0
 42
6.2831753071795866
  0
LINE
  5
14D
100
AcDbEntity
  8
1
  6
CONTINUOUS
 62
     4
100
AcDbLine
 10
-529.8869
 20
469.9811
 30
0.0
 11
-529.8869
 21
455.5811
 31
0.0
  0
LINE
  5
14E
100
AcDbEntity
  8
1
  6
CONTINUOUS
 62
     4
100
AcDbLine
 10
-505.6793
 20
469.9811
 30
0.0
 11
-505.6793
 21
455.5811
 31
0.0
  0
LINE
  5
14F
100
AcDbEntity
  8
1
  6
CONTINUOUS
 62
     4
100
AcDbLine
 10
-567.3513
 20
454.6661
 30
0.0
 11
-530.6939
 21
454.6661
 31
0.0
  0
LINE
  5
150
100
AcDbEntity
  8
1
  6
CONTINUOUS
 62
     4
100
AcDbLine
 10
-567.3513
 20
420.6602
 30
0.0
 11
-540.4586
 21
420.6602
 31
0.0
  0
SPLINE
  5
151
100
AcDbEntity
  8
1
  6
CONTINUOUS
 62
     4
100
AcDbSpline
210
0.0
220
0.0
230
1.0
 70
     8
 71
     3
 72
   116
 73
   112
 74
     0
 42
0.0
 43
0.0
 12
0.0134590718136711
 22
-0.9999094225908236
 32
0.0
 13
-1.0
 23
0.0
 33
0.0
 40
0.0
 40
0.0
 40
0.0
 40
0.0
 40
0.0517055126011685
 40
0.0517055126011685
 40
0.0517055126011685
 40
0.0865165535354899
 40
0.0865165535354899
 40
0.0865165535354899
 40
0.1126245700286439
 40
0.1126245700286439
 40
0.1126245700286439
 40
0.1409586168936329
 40
0.1409586168936329
 40
0.1409586168936329
 40
0.1582323769786237
 40
0.1582323769786237
 40
0.1582323769786237
 40
0.1867793913359509
 40
0.1867793913359509
 40
0.1867793913359509
 40
0.2041841719499835
 40
0.2041841719499835
 40
0.2041841719499835
 40
0.2275677840552261
 40
0.2275677840552261
 40
0.2275677840552261
 40
0.2485271967439083
 40
0.2485271967439083
 40
0.2485271967439083
 40
0.2694866094325905
 40
0.2694866094325905
 40
0.2694866094325905
 40
0.2957965755590922
 40
0.2957965755590922
 40
0.2957965755590922
 40
0.3167183614602096
 40
0.3167183614602096
 40
0.3167183614602096
 40
0.3444859460866951
 40
0.3444859460866951
 40
0.3444859460866951
 40
0.3636323462768052
 40
0.3636323462768052
 40
0.3636323462768052
 40
0.3758145934893342
 40
0.3758145934893342
 40
0.3758145934893342
 40
0.3997124087639646
 40
0.3997124087639646
 40
0.3997124087639646
 40
0.4195573197744781
 40
0.4195573197744781
 40
0.4195573197744781
 40
0.449324593586188
 40
0.449324593586188
 40
0.449324593586188
 40
0.4827584881161389
 40
0.4827584881161389
 40
0.4827584881161389
 40
0.4976306780822422
 40
0.4976306780822422
 40
0.4976306780822422
 40
0.5383186288861256
 40
0.5383186288861256
 40
0.5383186288861256
 40
0.5792308827970872
 40
0.5792308827970872
 40
0.5792308827970872
 40
0.5986909644370909
 40
0.5986909644370909
 40
0.5986909644370909
 40
0.6283308088017303
 40
0.6283308088017303
 40
0.6283308088017303
 40
0.6665632255369949
 40
0.6665632255369949
 40
0.6665632255369949
 40
0.707473995578601
 40
0.707473995578601
 40
0.707473995578601
 40
0.7409095407852112
 40
0.7409095407852112
 40
0.7409095407852112
 40
0.7876767649956965
 40
0.7876767649956965
 40
0.7876767649956965
 40
0.8173179748235285
 40
0.8173179748235285
 40
0.8173179748235285
 40
0.8483062914463732
 40
0.8483062914463732
 40
0.8483062914463732
 40
0.8679979116122173
 40
0.8679979116122173
 40
0.8679979116122173
 40
0.9013198927615896
 40
0.9013198927615896
 40
0.9013198927615896
 40
0.9124639740634057
 40
0.9124639740634057
 40
0.9124639740634057
 40
0.9361372526612053
 40
0.9361372526612053
 40
0.9361372526612053
 40
0.959651584676434
 40
0.959651584676434
 40
0.959651584676434
 40
0.9879573544563483
 40
0.9879573544563483
 40
0.9879573544563483
 40
1.0
 40
1.0
 40
1.0
 40
1.0
 10
-513.93410000000006
 20
430.41020000000003
 30
0.0
 10
-513.91858080549616
 20
429.25723870888766
 30
0.0
 10
-513.88422711681017
 20
428.09370611551032
 30
0.0
 10
-513.85180000000003
 20
426.952
 30
0.0
 10
-513.82996825259295
 20
426.18333963241867
 30
0.0
 10
-513.54680896037098
 20
425.41499827483352
 30
0.0
 10
-513.52240000000006
 20
424.6465
 30
0.0
 10
-513.50409346498009
 20
424.07013212659547
 30
0.0
 10
-513.76373335561641
 20
423.49378086950753
 30
0.0
 10
-513.76949999999999
 20
422.91740000000004
 30
0.0
 10
-513.77575832193202
 20
422.29187555339979
 30
0.0
 10
-513.65936659822307
 20
421.65425108794449
 30
0.0
 10
-513.68709999999999
 20
421.02360000000004
 30
0.0
 10
-513.70400757874859
 20
420.63912560273513
 30
0.0
 10
-513.73537914272936
 20
420.25402519280669
 30
0.0
 10
-513.76949999999999
 20
419.87090000000001
 30
0.0
 10
-513.82588891576574
 20
419.2377384691062
 30
0.0
 10
-513.9843127430712
 20
418.60797886476894
 30
0.0
 10
-514.01650000000006
 20
417.97710000000001
 30
0.0
 10
-514.03612419391402
 20
417.59246053830742
 30
0.0
 10
-513.86158009575104
 20
417.21054499709447
 30
0.0
 10
-513.85180000000003
 20
416.82440000000003
 30
0.0
 10
-513.83866027876684
 20
416.30560777683593
 30
0.0
 10
-513.86852567881374
 20
415.78056770723344
 30
0.0
 10
-513.85180000000003
 20
415.26000000000005
 30
0.0
 10
-513.83680828686443
 20
414.79340000000002
 30
0.0
 10
-513.77972028213014
 20
414.32679999999999
 30
0.0
 10
-513.76949999999999
 20
413.86020000000002
 30
0.0
 10
-513.75927971786984
 20
413.39359999999999
 30
0.0
 10
-513.80123009704437
 20
412.92700000000002
 30
0.0
 10
-513.85180000000003
 20
412.46039999999999
 30
0.0
 10
-513.91527947118288
 20
411.87468558247463
 30
0.0
 10
-514.11159799881409
 20
411.31171198330605
 30
0.0
 10
-514.18110000000001
 20
410.73130000000003
 30
0.0
 10
-514.2363682577211
 20
410.26975416634957
 30
0.0
 10
-514.15233980025823
 20
409.79744973338006
 30
0.0
 10
-514.18110000000001
 20
409.33160000000004
 30
0.0
 10
-514.21927079880197
 20
408.7133199948421
 30
0.0
 10
-514.15496596271601
 20
407.95819880753174
 30
0.0
 10
-514.59280000000001
 20
407.52010000000001
 30
0.0
 10
-514.89469682709012
 20
407.21802060762059
 30
0.0
 10
-515.19667735656992
 20
406.91630580891177
 30
0.0
 10
-515.49860000000001
 20
406.61440000000005
 30
0.0
 10
-515.69070380253231
 20
406.42230690873777
 30
0.0
 10
-515.8825909483644
 20
406.23013520944386
 30
0.0
 10
-516.07490000000007
 20
406.03810000000004
 30
0.0
 10
-516.45215110248125
 20
405.66138609151903
 30
0.0
 10
-517.11058303416576
 20
405.77481432161596
 30
0.0
 10
-517.63940000000002
 20
405.70870000000002
 30
0.0
 10
-518.07853326415955
 20
405.65379821027943
 30
0.0
 10
-518.51766544226427
 20
405.59889061675023
 30
0.0
 10
-518.95680000000004
 20
405.54400000000004
 30
0.0
 10
-519.6154997852185
 20
405.46166433129218
 30
0.0
 10
-520.2741999605588
 20
405.37933290754717
 30
0.0
 10
-520.93290000000002
 20
405.29700000000003
 30
0.0
 10
-521.67273623038034
 20
405.20452563487379
 30
0.0
 10
-522.41608494871718
 20
405.11784278948704
 30
0.0
 10
-523.15600000000006
 20
405.05000000000001
 30
0.0
 10
-523.48513177947609
 20
405.01982191673255
 30
0.0
 10
-523.73252960947957
 20
405.41157917652293
 30
0.0
 10
-524.06180000000006
 20
405.46170000000001
 30
0.0
 10
-524.96263151716096
 20
405.59882261640911
 30
0.0
 10
-525.87648443961314
 20
405.64489594489578
 30
0.0
 10
-526.77890000000002
 20
405.62640000000005
 30
0.0
 10
-527.68629036521418
 20
405.60780209130843
 30
0.0
 10
-528.5944656041554
 20
405.28262953922444
 30
0.0
 10
-529.49610000000007
 20
405.29700000000003
 30
0.0
 10
-529.92496610429146
 20
405.30383536870164
 30
0.0
 10
-530.29936054698646
 20
405.70099697786276
 30
0.0
 10
-530.73120000000006
 20
405.70870000000002
 30
0.0
 10
-531.38893897636297
 20
405.72043254981702
 30
0.0
 10
-532.04777711403131
 20
405.5322679482008
 30
0.0
 10
-532.70730000000003
 20
405.54400000000004
 30
0.0
 10
-533.55801815872564
 20
405.55913316628892
 30
0.0
 10
-534.41138329928492
 20
405.71519843708114
 30
0.0
 10
-535.25980000000004
 20
405.70870000000002
 30
0.0
 10
-536.16765211886434
 20
405.70174631807879
 30
0.0
 10
-537.07071900265464
 20
405.35731743705469
 30
0.0
 10
-537.9769
 20
405.3793
 30
0.0
 10
-538.71750340764299
 20
405.39726590424402
 30
0.0
 10
-539.45789379769326
 20
405.6046144915187
 30
0.0
 10
-540.20010000000002
 20
405.62640000000005
 30
0.0
 10
-541.23824439570831
 20
405.65687199480044
 30
0.0
 10
-542.28821601530512
 20
405.59581009937892
 30
0.0
 10
-543.32889999999998
 20
405.62640000000005
 30
0.0
 10
-543.98848869433812
 20
405.64578797262897
 30
0.0
 10
-544.64715881098289
 20
405.791
 30
0.0
 10
-545.30510000000004
 20
405.791
 30
0.0
 10
-545.99294270287555
 20
405.791
 30
0.0
 10
-546.67454472470797
 20
405.56603706142454
 30
0.0
 10
-547.36350000000004
 20
405.54400000000004
 30
0.0
 10
-547.80129872774069
 20
405.52999648220901
 30
0.0
 10
-548.24258065682181
 20
405.56883361108089
 30
0.0
 10
-548.68090000000007
 20
405.54400000000004
 30
0.0
 10
-549.42262001936774
 20
405.50197678843392
 30
0.0
 10
-550.16380792939879
 20
405.44009100304203
 30
0.0
 10
-550.90409999999997
 20
405.3793
 30
0.0
 10
-551.15168056806078
 20
405.35896927964814
 30
0.0
 10
-551.39860819521516
 20
405.31630138543613
 30
0.0
 10
-551.64510000000007
 20
405.29700000000003
 30
0.0
 10
-552.16872047697882
 20
405.25599822853252
 30
0.0
 10
-552.68615779305605
 20
405.56044367489409
 30
0.0
 10
-553.20950000000005
 20
405.54400000000004
 30
0.0
 10
-553.72932839473731
 20
405.52766673084966
 30
0.0
 10
-554.25026504851121
 20
405.38990883930734
 30
0.0
 10
-554.774
 20
405.3793
 30
0.0
 10
-555.40445469260783
 20
405.36652943254904
 30
0.0
 10
-556.03669760578714
 20
405.36879163897623
 30
0.0
 10
-556.66770000000008
 20
405.3793
 30
0.0
 10
-556.93615898309031
 20
405.38377076578513
 30
0.0
 10
-557.20421680178811
 20
405.42959999999999
 30
0.0
 10
-557.47180000000003
 20
405.42959999999999
 30
0.0
  0
LINE
  5
152
100
AcDbEntity
  8
1
  6
CONTINUOUS
 62
     4
100
AcDbLine
 10
-567.3513
 20
406.4363
 30
0.0
 11
-562.5513
 21
406.4363
 31
0.0
  0
LINE
  5
153
100
AcDbEntity
  8
1
  6
CONTINUOUS
 62
     4
100
AcDbLine
 10
-567.3513
 20
420.6401
 30
0.0
 11
-562.5513
 21
420.6401
 31
0.0
  0
LINE
  5
154
100
AcDbEntity
  8
1
  6
CONTINUOUS
 62
     4
100
AcDbLine
 10
-565.4164
 20
454.6883
 30
0.0
 11
-565.4164
 21
406.4363
 31
0.0
  0
LINE
  5
155
100
AcDbEntity
  8
1
  6
CONTINUOUS
 62
     4
100
AcDbLine
 10
-529.8869
 20
468.5213
 30
0.0
 11
-505.6793
 21
468.5213
 31
0.0
  0
INSERT
  5
15B
100
AcDbEntity
  8
1
  6
CONTINUOUS
 62
    20
100
AcDbBlockReference
  2
LDR
 10
-529.8869
 20
468.5213
 30
0.0
 41
240.00041
 42
240.00041
 50
180.0
210
0.0
220
0.0
230
1.0
  0
INSERT
  5
15C
100
AcDbEntity
  8
1
  6
CONTINUOUS
 62
    20
100
AcDbBlockReference
  2
LDR
 10
-505.6793
 20
468.5213
 30
0.0
 41
240.00041
 42
240.00041
210
0.0
220
0.0
230
1.0
  0
INSERT
  5
15D
100
AcDbEntity
  8
1
  6
CONTINUOUS
 62
    20
100
AcDbBlockReference
  2
LDR
 10
-565.4164
 20
454.6883
 30
0.0
 41
240.00041
 42
240.00041
 50
90.0
210
0.0
220
0.0
230
1.0
  0
INSERT
  5
15E
100
AcDbEntity
  8
1
  6
CONTINUOUS
 62
    20
100
AcDbBlockReference
  2
LDR
 10
-565.4164
 20
406.4363
 30
0.0
 41
240.00041
 42
240.00041
 50
270.0
210
0.0
220
0.0
230
1.0
  0
INSERT
  5
15F
100
AcDbEntity
  8
1
  6
CONTINUOUS
 62
    20
100
AcDbBlockReference
  2
LDR
 10
-565.4164
 20
406.4363
 30
0.0
 41
240.00041
 42
240.00041
 50
270.0
210
0.0
220
0.0
230
1.0
  0
INSERT
  5
160
100
AcDbEntity
  8
1
  6
CONTINUOUS
 62
    20
100
AcDbBlockReference
  2
LDR
 10
-565.3753
 20
420.7043
 30
0.0
 41
240.00041
 42
240.00041
 50
270.0
210
0.0
220
0.0
230
1.0
  0
INSERT
  5
161
100
AcDbEntity
  8
1
  6
CONTINUOUS
 62
    20
100
AcDbBlockReference
  2
LDR
 10
-565.3754
 20
420.5397
 30
0.0
 41
240.00041
 42
240.00041
 50
90.0
210
0.0
220
0.0
230
1.0
  0
LINE
  5
162
100
AcDbEntity
  8
1
  6
CONTINUOUS
 62
     4
100
AcDbLine
 10
-532.6868
 20
416.0114
 30
0.0
 11
-532.6868
 21
399.2114
 31
0.0
  0
LINE
  5
163
100
AcDbEntity
  8
1
  6
CONTINUOUS
 62
     4
100
AcDbLine
 10
-503.1269
 20
418.7699
 30
0.0
 11
-503.1269
 21
399.2114
 31
0.0
  0
SPLINE
  5
164
100
AcDbEntity
  8
1
  6
CONTINUOUS
 62
     4
100
AcDbSpline
210
0.0
220
0.0
230
1.0
 70
     8
 71
     3
 72
    11
 73
     7
 74
     0
 42
0.0
 43
0.0
 12
-0.9804227885623157
 22
0.1969039249677187
 32
0.0
 13
-0.5523837888294567
 23
-0.8335899170685871
 33
0.0
 40
0.0
 40
0.0
 40
0.0
 40
0.0
 40
0.5074580115753937
 40
0.5074580115753937
 40
0.5074580115753937
 40
1.0
 40
1.0
 40
1.0
 40
1.0
 10
-557.47180000000003
 20
405.42959999999999
 30
0.0
 10
-557.89111517565993
 20
405.51381346876997
 30
0.0
 10
-558.38272340014714
 20
405.38357622057742
 30
0.0
 10
-558.78830000000005
 20
405.10160000000002
 30
0.0
 10
-559.18195523923828
 20
404.827912078628
 30
0.0
 10
-559.46663282185307
 20
404.53904895257079
 30
0.0
 10
-559.71429999999998
 20
404.1653
 30
0.0
  0
LINE
  5
165
100
AcDbEntity
  8
1
  6
CONTINUOUS
 62
     4
100
AcDbLine
 10
-532.6867
 20
400.4906
 30
0.0
 11
-503.1269
 21
400.4906
 31
0.0
  0
INSERT
  5
166
100
AcDbEntity
  8
1
  6
CONTINUOUS
 62
    20
100
AcDbBlockReference
  2
LDR
 10
-532.6867
 20
400.4906
 30
0.0
 41
240.00041
 42
240.00041
 50
180.0
210
0.0
220
0.0
230
1.0
  0
INSERT
  5
167
100
AcDbEntity
  8
1
  6
CONTINUOUS
 62
    20
100
AcDbBlockReference
  2
LDR
 10
-503.1269
 20
400.4906
 30
0.0
 41
240.00041
 42
240.00041
210
0.0
220
0.0
230
1.0
  0
TEXT
  5
168
100
AcDbEntity
  8
1
  6
CONTINUOUS
 62
     4
100
AcDbText
 10
-512.5548
 20
484.2595
 30
0.0
 40
2.4
  1
GALV. CONNECTING BOLT AND
  7
MONOTXT
 11
-512.5548
 21
486.6595
 31
0.0
210
0.0
220
0.0
230
1.0
100
AcDbText
 73
     3
  0
TEXT
  5
169
100
AcDbEntity
  8
1
  6
CONTINUOUS
 62
     4
100
AcDbText
 10
-512.5548
 20
480.6595
 30
0.0
 40
2.4
  1
HEX. NUTS FURNISH NUTS
  7
MONOTXT
 11
-512.5548
 21
483.0595
 31
0.0
210
0.0
220
0.0
230
1.0
100
AcDbText
 73
     3
  0
TEXT
  5
16A
100
AcDbEntity
  8
1
  6
CONTINUOUS
 62
     4
100
AcDbText
 10
-512.5548
 20
477.0595
 30
0.0
 40
2.4
  1
COVERS. SAME DIAMETER AS
  7
MONOTXT
 11
-512.5548
 21
479.4595
 31
0.0
210
0.0
220
0.0
230
1.0
100
AcDbText
 73
     3
  0
TEXT
  5
16B
100
AcDbEntity
  8
1
  6
CONTINUOUS
 62
     4
100
AcDbText
 10
-512.5548
 20
473.4595
 30
0.0
 40
2.4
  1
ANCHOR BOLT FOR ANCHOR BASE.
  7
MONOTXT
 11
-512.5548
 21
475.8595
 31
0.0
210
0.0
220
0.0
230
1.0
100
AcDbText
 73
     3
  0
LINE
  5
16C
100
AcDbEntity
  8
1
  6
CONTINUOUS
 62
     4
100
AcDbLine
 10
-527.0465
 20
461.299
 30
0.0
 11
-523.5013
 21
481.4049
 31
0.0
  0
LINE
  5
16D
100
AcDbEntity
  8
1
  6
CONTINUOUS
 62
     4
100
AcDbLine
 10
-523.5013
 20
481.4049
 30
0.0
 11
-513.9998
 21
481.4049
 31
0.0
  0
INSERT
  5
16E
100
AcDbEntity
  8
1
  6
CONTINUOUS
 62
    20
100
AcDbBlockReference
  2
LDR
 10
-527.0465
 20
461.299
 30
0.0
 41
240.00041
 42
240.00041
 50
260.000035
210
0.0
220
0.0
230
1.0
  0
TEXT
  5
16F
100
AcDbEntity
  8
1
  6
CONTINUOUS
 62
     4
100
AcDbText
 10
-521.1181
 20
470.0972
 30
0.0
 40
2.4
  1
"S"
  7
MONOTXT
 11
-521.1181
 21
472.4972
 31
0.0
210
0.0
220
0.0
230
1.0
100
AcDbText
 73
     3
  0
LINE
  5
170
100
AcDbEntity
  8
1
  6
CONTINUOUS
 62
     4
100
AcDbLine
 10
-502.6741
 20
434.2917
 30
0.0
 11
-494.779
 21
442.1868
 31
0.0
  0
LINE
  5
171
100
AcDbEntity
  8
1
  6
CONTINUOUS
 62
     4
100
AcDbLine
 10
-494.779
 20
442.1868
 30
0.0
 11
-489.9906
 21
442.1868
 31
0.0
  0
INSERT
  5
172
100
AcDbEntity
  8
1
  6
CONTINUOUS
 62
    20
100
AcDbBlockReference
  2
LDR
 10
-502.6741
 20
434.2917
 30
0.0
 41
240.000408
 42
240.000408
 50
225.0
210
0.0
220
0.0
230
1.0
  0
TEXT
  5
173
100
AcDbEntity
  8
1
  6
CONTINUOUS
 62
     4
100
AcDbText
 10
-485.3828
 20
422.3404
 30
0.0
 40
2.4
  1
ANCHOR BOLT
  7
MONOTXT
 11
-485.3828
 21
424.7404
 31
0.0
210
0.0
220
0.0
230
1.0
100
AcDbText
 73
     3
  0
LINE
  5
174
100
AcDbEntity
  8
1
  6
CONTINUOUS
 62
     4
100
AcDbLine
 10
-505.803
 20
423.2583
 30
0.0
 11
-487.853
 21
423.2583
 31
0.0
  0
INSERT
  5
175
100
AcDbEntity
  8
1
  6
CONTINUOUS
 62
    20
100
AcDbBlockReference
  2
LDR
 10
-505.803
 20
423.2583
 30
0.0
 41
240.00041
 42
240.00041
 50
180.0
210
0.0
220
0.0
230
1.0
  0
TEXT
  5
176
100
AcDbEntity
  8
1
  6
CONTINUOUS
 62
     4
100
AcDbText
 10
-484.7001
 20
399.8503
 30
0.0
 40
2.4
  1
CONCRETE
  7
MONOTXT
 11
-484.7001
 21
402.2503
 31
0.0
210
0.0
220
0.0
230
1.0
100
AcDbText
 73
     3
  0
TEXT
  5
177
100
AcDbEntity
  8
1
  6
CONTINUOUS
 62
     4
100
AcDbText
 10
-484.7001
 20
396.2503
 30
0.0
 40
2.4
  1
FOUNDATION
  7
MONOTXT
 11
-484.7001
 21
398.6503
 31
0.0
210
0.0
220
0.0
230
1.0
100
AcDbText
 73
     3
  0
LINE
  5
178
100
AcDbEntity
  8
1
  6
CONTINUOUS
 62
     4
100
AcDbLine
 10
-497.2157
 20
399.7801
 30
0.0
 11
-486.3158
 21
399.7801
 31
0.0
  0
INSERT
  5
179
100
AcDbEntity
  8
1
  6
CONTINUOUS
 62
    20
100
AcDbBlockReference
  2
LDR
 10
-497.2157
 20
399.7801
 30
0.0
 41
240.00041
 42
240.00041
 50
180.0
210
0.0
220
0.0
230
1.0
  0
TEXT
  5
17A
100
AcDbEntity
  8
1
  6
CONTINUOUS
 62
     4
100
AcDbText
 10
-561.2997
 20
441.9371
 30
0.0
 40
2.4
  1
GROUND
  7
MONOTXT
 11
-561.2997
 21
444.3371
 31
0.0
210
0.0
220
0.0
230
1.0
100
AcDbText
 73
     3
  0
TEXT
  5
17B
100
AcDbEntity
  8
1
  6
CONTINUOUS
 62
     4
100
AcDbText
 10
-561.2997
 20
438.3371
 30
0.0
 40
2.4
  1
WIRE
  7
MONOTXT
 11
-561.2997
 21
440.7371
 31
0.0
210
0.0
220
0.0
230
1.0
100
AcDbText
 73
     3
  0
LINE
  5
17C
100
AcDbEntity
  8
1
  6
CONTINUOUS
 62
     4
100
AcDbLine
 10
-514.8603
 20
431.1628
 30
0.0
 11
-539.916
 21
440.2823
 31
0.0
  0
LINE
  5
17D
100
AcDbEntity
  8
1
  6
CONTINUOUS
 62
     4
100
AcDbLine
 10
-539.916
 20
440.2823
 30
0.0
 11
-547.6435
 21
440.2823
 31
0.0
  0
INSERT
  5
17E
100
AcDbEntity
  8
1
  6
CONTINUOUS
 62
    20
100
AcDbBlockReference
  2
LDR
 10
-514.8603
 20
431.1628
 30
0.0
 41
240.000407
 42
240.000407
 50
340.000059
210
0.0
220
0.0
230
1.0
  0
TEXT
  5
17F
100
AcDbEntity
  8
1
  6
CONTINUOUS
 62
     4
100
AcDbText
 10
-572.6625
 20
436.6673
 30
0.0
 40
2.4
  1
"H"
  7
MONOTXT
 11
-572.6625
 21
439.0673
 31
0.0
210
0.0
220
0.0
230
1.0
100
AcDbText
 73
     3
  0
TEXT
  5
180
100
AcDbEntity
  8
1
  6
CONTINUOUS
 62
     4
100
AcDbText
 10
-521.4474
 20
396.4858
 30
0.0
 40
2.4
  1
"W"
  7
MONOTXT
 11
-521.4474
 21
398.8858
 31
0.0
210
0.0
220
0.0
230
1.0
100
AcDbText
 73
     3
  0
LINE
  5
181
100
AcDbEntity
  8
1
  6
CONTINUOUS
 62
     4
100
AcDbLine
 10
-563.9203
 20
402.7266
 30
0.0
 11
-578.3252
 21
392.6402
 31
0.0
  0
LINE
  5
182
100
AcDbEntity
  8
1
  6
CONTINUOUS
 62
     4
100
AcDbLine
 10
-578.3252
 20
392.6402
 30
0.0
 11
-582.0637
 21
392.6402
 31
0.0
  0
INSERT
  5
183
100
AcDbEntity
  8
1
  6
CONTINUOUS
 62
    20
100
AcDbBlockReference
  2
LDR
 10
-563.9203
 20
402.7266
 30
0.0
 41
240.000408
 42
-240.000408
 50
34.999948
210
0.0
220
0.0
230
1.0
  0
TEXT
  5
184
100
AcDbEntity
  8
1
  6
CONTINUOUS
 62
     4
100
AcDbText
 10
-605.134
 20
383.9637
 30
0.0
 40
2.4
  1
GROUND ROD
  7
MONOTXT
 11
-605.134
 21
386.3637
 31
0.0
210
0.0
220
0.0
230
1.0
100
AcDbText
 73
     3
  0
LINE
  5
185
100
AcDbEntity
  8
1
  6
CONTINUOUS
 62
     4
100
AcDbLine
 10
-562.2735
 20
395.316
 30
0.0
 11
-576.6784
 21
385.2296
 31
0.0
  0
LINE
  5
186
100
AcDbEntity
  8
1
  6
CONTINUOUS
 62
     4
100
AcDbLine
 10
-576.6784
 20
385.2296
 30
0.0
 11
-580.7492
 21
385.2296
 31
0.0
  0
INSERT
  5
187
100
AcDbEntity
  8
1
  6
CONTINUOUS
 62
    20
100
AcDbBlockReference
  2
LDR
 10
-562.2735
 20
395.316
 30
0.0
 41
240.000408
 42
-240.000408
 50
34.999948
210
0.0
220
0.0
230
1.0
  0
TEXT
  5
188
100
AcDbEntity
  8
1
  6
CONTINUOUS
 62
     4
100
AcDbText
 10
-589.2957
 20
331.8952
 30
0.0
 40
2.4
  1
MOVED TORQUE NOTE FOR AT-UA1, DELETED AT-UA, AT-UB, AT-VA,
  7
MONOTXT
 11
-589.2957
 21
334.2952
 31
0.0
210
0.0
220
0.0
230
1.0
100
AcDbText
 73
     3
  0
TEXT
  5
189
100
AcDbEntity
  8
1
  6
CONTINUOUS
 62
     4
100
AcDbText
 10
-589.2957
 20
327.0952
 30
0.0
 40
2.4
  1
AT-VB, AT-HA, AT-HB, DETAILS "A", "C", "D". 
  7
MONOTXT
 11
-589.2957
 21
329.4952
 31
0.0
210
0.0
220
0.0
230
1.0
100
AcDbText
 73
     3
  0
SPLINE
  5
18A
100
AcDbEntity
  8
1
  6
CONTINUOUS
 62
     4
100
AcDbSpline
210
0.0
220
0.0
230
1.0
 70
     8
 71
     3
 72
   113
 73
   109
 74
     0
 42
0.0
 43
0.0
 12
0.7896808355896636
 22
-0.6135178708908246
 32
0.0
 13
0.725632818329319
 23
-0.6880821266124049
 33
0.0
 40
0.0
 40
0.0
 40
0.0
 40
0.0
 40
0.0595869515210512
 40
0.0595869515210512
 40
0.0595869515210512
 40
0.0931248890625902
 40
0.0931248890625902
 40
0.0931248890625902
 40
0.1302434908131538
 40
0.1302434908131538
 40
0.1302434908131538
 40
0.1425869769579777
 40
0.1425869769579777
 40
0.1425869769579777
 40
0.1758066554455947
 40
0.1758066554455947
 40
0.1758066554455947
 40
0.2114170344964508
 40
0.2114170344964508
 40
0.2114170344964508
 40
0.2373719788007075
 40
0.2373719788007075
 40
0.2373719788007075
 40
0.2740361999036383
 40
0.2740361999036383
 40
0.2740361999036383
 40
0.2987279704459137
 40
0.2987279704459137
 40
0.2987279704459137
 40
0.328867837399897
 40
0.328867837399897
 40
0.328867837399897
 40
0.3587013891223022
 40
0.3587013891223022
 40
0.3587013891223022
 40
0.3990107494117804
 40
0.3990107494117804
 40
0.3990107494117804
 40
0.4154815315452343
 40
0.4154815315452343
 40
0.4154815315452343
 40
0.4397989116391599
 40
0.4397989116391599
 40
0.4397989116391599
 40
0.4748921483506483
 40
0.4748921483506483
 40
0.4748921483506483
 40
0.5076958590732135
 40
0.5076958590732135
 40
0.5076958590732135
 40
0.5262552597106379
 40
0.5262552597106379
 40
0.5262552597106379
 40
0.5379672155289573
 40
0.5379672155289573
 40
0.5379672155289573
 40
0.5872574054778132
 40
0.5872574054778132
 40
0.5872574054778132
 40
0.6047171238677584
 40
0.6047171238677584
 40
0.6047171238677584
 40
0.6363370726840762
 40
0.6363370726840762
 40
0.6363370726840762
 40
0.6622921596598399
 40
0.6622921596598399
 40
0.6622921596598399
 40
0.6849893303119523
 40
0.6849893303119523
 40
0.6849893303119523
 40
0.7094950738697976
 40
0.7094950738697976
 40
0.7094950738697976
 40
0.7290154428496704
 40
0.7290154428496704
 40
0.7290154428496704
 40
0.7494492872534064
 40
0.7494492872534064
 40
0.7494492872534064
 40
0.77913055404217
 40
0.77913055404217
 40
0.77913055404217
 40
0.7966781219248194
 40
0.7966781219248194
 40
0.7966781219248194
 40
0.8115939050297401
 40
0.8115939050297401
 40
0.8115939050297401
 40
0.8392004119720696
 40
0.8392004119720696
 40
0.8392004119720696
 40
0.8659077803798589
 40
0.8659077803798589
 40
0.8659077803798589
 40
0.8938984308640017
 40
0.8938984308640017
 40
0.8938984308640017
 40
0.900881385178169
 40
0.900881385178169
 40
0.900881385178169
 40
0.936875208144258
 40
0.936875208144258
 40
0.936875208144258
 40
0.9508432373174798
 40
0.9508432373174798
 40
0.9508432373174798
 40
1.0
 40
1.0
 40
1.0
 40
1.0
 10
-540.99000000000001
 20
408.58010000000002
 30
0.0
 10
-540.22057800580785
 20
407.98232160343952
 30
0.0
 10
-538.99032684815927
 20
408.1332314695801
 30
0.0
 10
-538.202
 20
408.22930000000002
 30
0.0
 10
-537.7582978819861
 20
408.28337124027473
 30
0.0
 10
-537.32622497641296
 20
409.1343087816299
 30
0.0
 10
-536.96699999999998
 20
409.21730000000002
 30
0.0
 10
-536.5694225156418
 20
409.30915174191642
 30
0.0
 10
-536.2069130803178
 20
407.7901826740258
 30
0.0
 10
-535.8143
 20
407.90000000000003
 30
0.0
 10
-535.68373974480107
 20
407.93651884978681
 30
0.0
 10
-535.58114999896952
 20
408.30034150578831
 30
0.0
 10
-535.40269999999998
 20
408.3116
 30
0.0
 10
-534.92244251663362
 20
408.34189967009149
 30
0.0
 10
-534.35460782802818
 20
408.19616701407978
 30
0.0
 10
-533.8383
 20
408.22930000000002
 30
0.0
 10
-533.28483535795488
 20
408.26481744753181
 30
0.0
 10
-532.7317647572828
 20
408.58007122986135
 30
0.0
 10
-532.19159999999999
 20
408.55860000000001
 30
0.0
 10
-531.79789606973929
 20
408.5429505014535
 30
0.0
 10
-531.6896366435318
 20
407.77372604243294
 30
0.0
 10
-531.28589999999997
 20
407.7353
 30
0.0
 10
-530.71557746752683
 20
407.68101897749597
 30
0.0
 10
-530.12755169455636
 20
407.65751943169778
 30
0.0
 10
-529.55690000000004
 20
407.7353
 30
0.0
 10
-529.17259071215267
 20
407.7876818558637
 30
0.0
 10
-528.78808908194014
 20
407.83953140537324
 30
0.0
 10
-528.40420000000006
 20
407.90000000000003
 30
0.0
 10
-527.93560801163073
 20
407.97381064042469
 30
0.0
 10
-527.46561924003515
 20
408.06071002744204
 30
0.0
 10
-527.00450000000001
 20
408.14699999999999
 30
0.0
 10
-526.54806717238387
 20
408.23241299679137
 30
0.0
 10
-526.12875920822739
 20
408.61102932811247
 30
0.0
 10
-525.68720000000008
 20
408.64100000000002
 30
0.0
 10
-525.0905908741679
 20
408.6814946290832
 30
0.0
 10
-524.4687773909601
 20
408.37062656902037
 30
0.0
 10
-523.87580000000003
 20
408.06460000000004
 30
0.0
 10
-523.63350388449669
 20
407.93955467779233
 30
0.0
 10
-523.45056794655875
 20
407.76956840190888
 30
0.0
 10
-523.21710000000007
 20
407.65300000000002
 30
0.0
 10
-522.87240909520767
 20
407.48089899634448
 30
0.0
 10
-522.51502791706844
 20
407.3541849215232
 30
0.0
 10
-522.14679999999998
 20
407.24130000000002
 30
0.0
 10
-521.61539779270856
 20
407.07839193766483
 30
0.0
 10
-521.03464348511
 20
406.97870387775293
 30
0.0
 10
-520.50009999999997
 20
407.07660000000004
 30
0.0
 10
-520.0004307902791
 20
407.16810925864883
 30
0.0
 10
-519.53645066915283
 20
407.43017086153111
 30
0.0
 10
-519.10040000000004
 20
407.7353
 30
0.0
 10
-518.85369501179093
 20
407.90793333331072
 30
0.0
 10
-518.69649715240678
 20
408.16890567226415
 30
0.0
 10
-518.44169999999997
 20
408.3116
 30
0.0
 10
-518.28090962481929
 20
408.40164760954389
 30
0.0
 10
-518.11500341878855
 20
408.47813102817213
 30
0.0
 10
-517.94770000000005
 20
408.55860000000001
 30
0.0
 10
-517.24359750686381
 20
408.89725658032819
 30
0.0
 10
-516.50928350439767
 20
409.24308121832757
 30
0.0
 10
-515.80700000000002
 20
409.46430000000004
 30
0.0
 10
-515.55823503826196
 20
409.54266077796774
 30
0.0
 10
-515.40505082188497
 20
409.02557642341043
 30
0.0
 10
-515.14830000000006
 20
408.97030000000001
 30
0.0
 10
-514.68331839690472
 20
408.87019313458842
 30
0.0
 10
-514.13667323707671
 20
408.96265266972426
 30
0.0
 10
-513.66629999999998
 20
408.80560000000003
 30
0.0
 10
-513.28019633012002
 20
408.67668405120617
 30
0.0
 10
-512.89469088040369
 20
408.5394631270641
 30
0.0
 10
-512.5136
 20
408.39400000000001
 30
0.0
 10
-512.18034414327474
 20
408.26679559411048
 30
0.0
 10
-511.87030988083268
 20
408.10140888120497
 30
0.0
 10
-511.5256
 20
407.98230000000001
 30
0.0
 10
-511.15342268895898
 20
407.85370019595359
 30
0.0
 10
-510.75384938912032
 20
407.89123675868063
 30
0.0
 10
-510.37290000000002
 20
407.90000000000003
 30
0.0
 10
-510.0694498059371
 20
407.90698047392891
 30
0.0
 10
-509.76661058381706
 20
408.07721950256661
 30
0.0
 10
-509.46720000000005
 20
408.06460000000004
 30
0.0
 10
-509.15377819486628
 20
408.05138995503802
 30
0.0
 10
-508.88084945244429
 20
407.75290797753485
 30
0.0
 10
-508.5616
 20
407.7353
 30
0.0
 10
-508.09787286266146
 20
407.70972345803875
 30
0.0
 10
-507.62729565756354
 20
407.76202152017447
 30
0.0
 10
-507.1619
 20
407.7353
 30
0.0
 10
-506.88675804088138
 20
407.71950223461067
 30
0.0
 10
-506.61229216088338
 20
407.68720422897013
 30
0.0
 10
-506.33850000000001
 20
407.65300000000002
 30
0.0
 10
-506.10577119593586
 20
407.62392572235649
 30
0.0
 10
-505.89219626362717
 20
407.4349278764592
 30
0.0
 10
-505.67990000000003
 20
407.40600000000001
 30
0.0
 10
-505.28697672976818
 20
407.3524595578603
 30
0.0
 10
-505.02590153777493
 20
408.18998180386592
 30
0.0
 10
-504.60950000000003
 20
408.14699999999999
 30
0.0
 10
-504.20666057891151
 20
408.10541810508386
 30
0.0
 10
-503.79341125216655
 20
407.9304403052667
 30
0.0
 10
-503.37450000000001
 20
407.90000000000003
 30
0.0
 10
-502.93546017158144
 20
407.86809704601592
 30
0.0
 10
-502.49655006574608
 20
407.83530684373073
 30
0.0
 10
-502.05710000000005
 20
407.81760000000003
 30
0.0
 10
-501.94746840232773
 20
407.81318259352031
 30
0.0
 10
-501.8373657067126
 20
407.81215035296282
 30
0.0
 10
-501.7278
 20
407.81760000000003
 30
0.0
 10
-501.16304066274273
 20
407.84569034999515
 30
0.0
 10
-500.63324106122138
 20
408.13778176904844
 30
0.0
 10
-500.08110000000005
 20
408.22930000000002
 30
0.0
 10
-499.86683205579914
 20
408.26481524162961
 30
0.0
 10
-499.63845687402181
 20
408.28099856893522
 30
0.0
 10
-499.42240000000004
 20
408.22930000000002
 30
0.0
 10
-498.66204531069445
 20
408.047360640291
 30
0.0
 10
-497.97599455268346
 20
407.6537753044297
 30
0.0
 10
-497.39590000000004
 20
407.1037
 30
0.0
  0
SPLINE
  5
18B
100
AcDbEntity
  8
1
  6
CONTINUOUS
 62
     4
100
AcDbSpline
210
0.0
220
0.0
230
1.0
 70
     8
 71
     3
 72
   113
 73
   109
 74
     0
 42
0.0
 43
0.0
 12
0.7896808355896636
 22
-0.6135178708908246
 32
0.0
 13
0.725632818329319
 23
-0.6880821266124049
 33
0.0
 40
0.0
 40
0.0
 40
0.0
 40
0.0
 40
0.0595869515210512
 40
0.0595869515210512
 40
0.0595869515210512
 40
0.0931248890625902
 40
0.0931248890625902
 40
0.0931248890625902
 40
0.1302434908131538
 40
0.1302434908131538
 40
0.1302434908131538
 40
0.1425869769579777
 40
0.1425869769579777
 40
0.1425869769579777
 40
0.1758066554455947
 40
0.1758066554455947
 40
0.1758066554455947
 40
0.2114170344964508
 40
0.2114170344964508
 40
0.2114170344964508
 40
0.2373719788007075
 40
0.2373719788007075
 40
0.2373719788007075
 40
0.2740361999036383
 40
0.2740361999036383
 40
0.2740361999036383
 40
0.2987279704459137
 40
0.2987279704459137
 40
0.2987279704459137
 40
0.328867837399897
 40
0.328867837399897
 40
0.328867837399897
 40
0.3587013891223022
 40
0.3587013891223022
 40
0.3587013891223022
 40
0.3990107494117804
 40
0.3990107494117804
 40
0.3990107494117804
 40
0.4154815315452343
 40
0.4154815315452343
 40
0.4154815315452343
 40
0.4397989116391599
 40
0.4397989116391599
 40
0.4397989116391599
 40
0.4748921483506483
 40
0.4748921483506483
 40
0.4748921483506483
 40
0.5076958590732135
 40
0.5076958590732135
 40
0.5076958590732135
 40
0.5262552597106379
 40
0.5262552597106379
 40
0.5262552597106379
 40
0.5379672155289573
 40
0.5379672155289573
 40
0.5379672155289573
 40
0.5872574054778132
 40
0.5872574054778132
 40
0.5872574054778132
 40
0.6047171238677584
 40
0.6047171238677584
 40
0.6047171238677584
 40
0.6363370726840762
 40
0.6363370726840762
 40
0.6363370726840762
 40
0.6622921596598399
 40
0.6622921596598399
 40
0.6622921596598399
 40
0.6849893303119523
 40
0.6849893303119523
 40
0.6849893303119523
 40
0.7094950738697976
 40
0.7094950738697976
 40
0.7094950738697976
 40
0.7290154428496704
 40
0.7290154428496704
 40
0.7290154428496704
 40
0.7494492872534064
 40
0.7494492872534064
 40
0.7494492872534064
 40
0.77913055404217
 40
0.77913055404217
 40
0.77913055404217
 40
0.7966781219248194
 40
0.7966781219248194
 40
0.7966781219248194
 40
0.8115939050297401
 40
0.8115939050297401
 40
0.8115939050297401
 40
0.8392004119720696
 40
0.8392004119720696
 40
0.8392004119720696
 40
0.8659077803798589
 40
0.8659077803798589
 40
0.8659077803798589
 40
0.8938984308640017
 40
0.8938984308640017
 40
0.8938984308640017
 40
0.900881385178169
 40
0.900881385178169
 40
0.900881385178169
 40
0.936875208144258
 40
0.936875208144258
 40
0.936875208144258
 40
0.9508432373174798
 40
0.9508432373174798
 40
0.9508432373174798
 40
1.0
 40
1.0
 40
1.0
 40
1.0
 10
-540.99000000000001
 20
374.30080000000004
 30
0.0
 10
-540.22057800580785
 20
373.70302160343954
 30
0.0
 10
-538.99032684815927
 20
373.85393146958006
 30
0.0
 10
-538.202
 20
373.95000000000005
 30
0.0
 10
-537.7582978819861
 20
374.0040712402747
 30
0.0
 10
-537.32622497641296
 20
374.85500878162992
 30
0.0
 10
-536.96699999999998
 20
374.93800000000005
 30
0.0
 10
-536.5694225156418
 20
375.02985174191645
 30
0.0
 10
-536.2069130803178
 20
373.51088267402582
 30
0.0
 10
-535.8143
 20
373.6207
 30
0.0
 10
-535.68373974480107
 20
373.65721884978683
 30
0.0
 10
-535.58114999896952
 20
374.02104150578833
 30
0.0
 10
-535.40269999999998
 20
374.03230000000002
 30
0.0
 10
-534.92244251663362
 20
374.06259967009146
 30
0.0
 10
-534.35460782802818
 20
373.9168670140798
 30
0.0
 10
-533.8383
 20
373.95000000000005
 30
0.0
 10
-533.28483535795488
 20
373.98551744753178
 30
0.0
 10
-532.7317647572828
 20
374.30077122986137
 30
0.0
 10
-532.19159999999999
 20
374.27930000000003
 30
0.0
 10
-531.79789606973929
 20
374.26365050145353
 30
0.0
 10
-531.6896366435318
 20
373.49442604243291
 30
0.0
 10
-531.28589999999997
 20
373.45600000000002
 30
0.0
 10
-530.71557746752683
 20
373.40171897749593
 30
0.0
 10
-530.12755169455636
 20
373.3782194316978
 30
0.0
 10
-529.55690000000004
 20
373.45600000000002
 30
0.0
 10
-529.17259071215267
 20
373.50838185586366
 30
0.0
 10
-528.78808908194014
 20
373.56023140537326
 30
0.0
 10
-528.40420000000006
 20
373.6207
 30
0.0
 10
-527.93560801163073
 20
373.69451064042471
 30
0.0
 10
-527.46561924003515
 20
373.78141002744206
 30
0.0
 10
-527.00450000000001
 20
373.86770000000001
 30
0.0
 10
-526.54806717238387
 20
373.95311299679139
 30
0.0
 10
-526.12875920822739
 20
374.33172932811249
 30
0.0
 10
-525.68720000000008
 20
374.36170000000004
 30
0.0
 10
-525.0905908741679
 20
374.40219462908323
 30
0.0
 10
-524.4687773909601
 20
374.0913265690204
 30
0.0
 10
-523.87580000000003
 20
373.78530000000001
 30
0.0
 10
-523.63350388449669
 20
373.66025467779235
 30
0.0
 10
-523.45056794655875
 20
373.49026840190891
 30
0.0
 10
-523.21710000000007
 20
373.37370000000004
 30
0.0
 10
-522.87240909520767
 20
373.20159899634444
 30
0.0
 10
-522.51502791706844
 20
373.07488492152322
 30
0.0
 10
-522.14679999999998
 20
372.96200000000005
 30
0.0
 10
-521.61539779270856
 20
372.7990919376648
 30
0.0
 10
-521.03464348511
 20
372.69940387775296
 30
0.0
 10
-520.50009999999997
 20
372.79730000000001
 30
0.0
 10
-520.0004307902791
 20
372.88880925864879
 30
0.0
 10
-519.53645066915283
 20
373.15087086153113
 30
0.0
 10
-519.10040000000004
 20
373.45600000000002
 30
0.0
 10
-518.85369501179093
 20
373.62863333331075
 30
0.0
 10
-518.69649715240678
 20
373.88960567226417
 30
0.0
 10
-518.44169999999997
 20
374.03230000000002
 30
0.0
 10
-518.28090962481929
 20
374.12234760954391
 30
0.0
 10
-518.11500341878855
 20
374.19883102817209
 30
0.0
 10
-517.94770000000005
 20
374.27930000000003
 30
0.0
 10
-517.24359750686381
 20
374.61795658032821
 30
0.0
 10
-516.50928350439767
 20
374.96378121832754
 30
0.0
 10
-515.80700000000002
 20
375.185
 30
0.0
 10
-515.55823503826196
 20
375.2633607779677
 30
0.0
 10
-515.40505082188497
 20
374.74627642341045
 30
0.0
 10
-515.14830000000006
 20
374.69100000000003
 30
0.0
 10
-514.68331839690472
 20
374.59089313458844
 30
0.0
 10
-514.13667323707671
 20
374.68335266972429
 30
0.0
 10
-513.66629999999998
 20
374.52629999999999
 30
0.0
 10
-513.28019633012002
 20
374.39738405120619
 30
0.0
 10
-512.89469088040369
 20
374.26016312706406
 30
0.0
 10
-512.5136
 20
374.11470000000003
 30
0.0
 10
-512.18034414327474
 20
373.9874955941105
 30
0.0
 10
-511.87030988083268
 20
373.82210888120494
 30
0.0
 10
-511.5256
 20
373.70300000000003
 30
0.0
 10
-511.15342268895898
 20
373.57440019595361
 30
0.0
 10
-510.75384938912032
 20
373.61193675868066
 30
0.0
 10
-510.37290000000002
 20
373.6207
 30
0.0
 10
-510.0694498059371
 20
373.62768047392893
 30
0.0
 10
-509.76661058381706
 20
373.79791950256663
 30
0.0
 10
-509.46720000000005
 20
373.78530000000001
 30
0.0
 10
-509.15377819486628
 20
373.77208995503804
 30
0.0
 10
-508.88084945244429
 20
373.47360797753487
 30
0.0
 10
-508.5616
 20
373.45600000000002
 30
0.0
 10
-508.09787286266146
 20
373.43042345803877
 30
0.0
 10
-507.62729565756354
 20
373.48272152017444
 30
0.0
 10
-507.1619
 20
373.45600000000002
 30
0.0
 10
-506.88675804088138
 20
373.44020223461064
 30
0.0
 10
-506.61229216088338
 20
373.40790422897015
 30
0.0
 10
-506.33850000000001
 20
373.37370000000004
 30
0.0
 10
-506.10577119593586
 20
373.34462572235651
 30
0.0
 10
-505.89219626362717
 20
373.15562787645916
 30
0.0
 10
-505.67990000000003
 20
373.12670000000003
 30
0.0
 10
-505.28697672976818
 20
373.07315955786032
 30
0.0
 10
-505.02590153777493
 20
373.91068180386594
 30
0.0
 10
-504.60950000000003
 20
373.86770000000001
 30
0.0
 10
-504.20666057891151
 20
373.82611810508388
 30
0.0
 10
-503.79341125216655
 20
373.65114030526667
 30
0.0
 10
-503.37450000000001
 20
373.6207
 30
0.0
 10
-502.93546017158144
 20
373.58879704601588
 30
0.0
 10
-502.49655006574608
 20
373.55600684373076
 30
0.0
 10
-502.05710000000005
 20
373.53829999999999
 30
0.0
 10
-501.94746840232773
 20
373.53388259352033
 30
0.0
 10
-501.8373657067126
 20
373.53285035296278
 30
0.0
 10
-501.7278
 20
373.53829999999999
 30
0.0
 10
-501.16304066274273
 20
373.56639034999512
 30
0.0
 10
-500.63324106122138
 20
373.85848176904847
 30
0.0
 10
-500.08110000000005
 20
373.95000000000005
 30
0.0
 10
-499.86683205579914
 20
373.98551524162963
 30
0.0
 10
-499.63845687402181
 20
374.00169856893518
 30
0.0
 10
-499.42240000000004
 20
373.95000000000005
 30
0.0
 10
-498.66204531069445
 20
373.76806064029103
 30
0.0
 10
-497.97599455268346
 20
373.37447530442972
 30
0.0
 10
-497.39590000000004
 20
372.82440000000003
 30
0.0
  0
LINE
  5
18C
100
AcDbEntity
  8
1
  6
CONTINUOUS
 62
     4
100
AcDbLine
 10
-540.99
 20
416.8659
 30
0.0
 11
-540.99
 21
410.6191
 31
0.0
  0
LINE
  5
18D
100
AcDbEntity
  8
1
  6
CONTINUOUS
 62
     4
100
AcDbLine
 10
-540.99
 20
408.4603
 30
0.0
 11
-540.99
 21
374.3008
 31
0.0
  0
LINE
  5
18E
100
AcDbEntity
  8
1
  6
CONTINUOUS
 62
     4
100
AcDbLine
 10
-497.3959
 20
416.5895
 30
0.0
 11
-497.3959
 21
409.3492
 31
0.0
  0
LINE
  5
18F
100
AcDbEntity
  8
1
  6
CONTINUOUS
 62
     4
100
AcDbLine
 10
-497.3959
 20
407.0635
 30
0.0
 11
-497.3959
 21
373.1023
 31
0.0
  0
LINE
  5
190
100
AcDbEntity
  8
1
  6
CONTINUOUS
 62
     4
100
AcDbLine
 10
-539.19
 20
419.9836
 30
0.0
 11
-607.1114
 21
445.7187
 31
0.0
  0
LINE
  5
191
100
AcDbEntity
  8
1
  6
CONTINUOUS
 62
     4
100
AcDbLine
 10
-500.79
 20
419.9836
 30
0.0
 11
-457.5044
 21
411.635
 31
0.0
  0
LINE
  5
192
100
AcDbEntity
  8
1
  6
CONTINUOUS
 62
     4
100
AcDbLine
 10
-597.7797
 20
442.183
 30
0.0
 11
-597.7797
 21
436.265
 31
0.0
  0
LINE
  5
193
100
AcDbEntity
  8
1
  6
CONTINUOUS
 62
     4
100
AcDbLine
 10
-597.7797
 20
436.265
 30
0.0
 11
-582.1607
 21
436.265
 31
0.0
  0
TEXT
  5
194
100
AcDbEntity
  8
1
  6
CONTINUOUS
 62
     4
100
AcDbText
 10
-601.215
 20
438.0219
 30
0.0
 40
2.4
  1
1
  7
MONOTXT
 11
-601.215
 21
440.4219
 31
0.0
210
0.0
220
0.0
230
1.0
100
AcDbText
 73
     3
  0
TEXT
  5
195
100
AcDbEntity
  8
1
  6
CONTINUOUS
 62
     4
100
AcDbText
 10
-591.821
 20
431.4185
 30
0.0
 40
2.4
  1
6
  7
MONOTXT
 11
-591.821
 21
433.8185
 31
0.0
210
0.0
220
0.0
230
1.0
100
AcDbText
 73
     3
  0
TEXT
  5
196
100
AcDbEntity
  8
1
  6
CONTINUOUS
 62
     4
100
AcDbText
 10
-459.684
 20
406.2638
 30
0.0
 40
2.4
  1
GROUND LINE
  7
MONOTXT
 11
-459.684
 21
408.6638
 31
0.0
210
0.0
220
0.0
230
1.0
100
AcDbText
 73
     3
  0
LINE
  5
197
100
AcDbEntity
  8
1
  6
CONTINUOUS
 62
     4
100
AcDbLine
 10
-470.7882
 20
414.1971
 30
0.0
 11
-468.1705
 21
407.5053
 31
0.0
  0
LINE
  5
198
100
AcDbEntity
  8
1
  6
CONTINUOUS
 62
     4
100
AcDbLine
 10
-468.1705
 20
407.5053
 30
0.0
 11
-460.5511
 21
407.5053
 31
0.0
  0
INSERT
  5
199
100
AcDbEntity
  8
1
  6
CONTINUOUS
 62
    20
100
AcDbBlockReference
  2
LDR
 10
-470.7882
 20
414.1971
 30
0.0
 41
240.000001
 42
240.000001
 50
111.364456
210
0.0
220
0.0
230
1.0
  0
TEXT
  5
19A
100
AcDbEntity
  8
1
  6
CONTINUOUS
 62
     4
100
AcDbText
 10
-604.9422
 20
395.9648
 30
0.0
 40
2.4
  1
GROUND
  7
MONOTXT
 11
-604.9422
 21
398.3648
 31
0.0
210
0.0
220
0.0
230
1.0
100
AcDbText
 73
     3
  0
TEXT
  5
19B
100
AcDbEntity
  8
1
  6
CONTINUOUS
 62
     4
100
AcDbText
 10
-604.9422
 20
391.1648
 30
0.0
 40
2.4
  1
WIRE CLAMP
  7
MONOTXT
 11
-604.9422
 21
393.5648
 31
0.0
210
0.0
220
0.0
230
1.0
100
AcDbText
 73
     3
  0
TEXT
  5
19C
100
AcDbEntity
  8
1
  6
CONTINUOUS
 62
   253
100
AcDbText
 10
-613.0872
 20
660.9222
 30
0.0
 40
3.0
  1
NOTES:
  7
MONOTXT
 11
-613.0872
 21
663.9222
 31
0.0
210
0.0
220
0.0
230
1.0
100
AcDbText
 73
     3
  0
TEXT
  5
19D
100
AcDbEntity
  8
1
  6
CONTINUOUS
 62
   253
100
AcDbText
 10
-613.0872
 20
655.5222
 30
0.0
 40
3.0
  1
 
  7
MONOTXT
 11
-613.0872
 21
658.5222
 31
0.0
210
0.0
220
0.0
230
1.0
100
AcDbText
 73
     3
  0
TEXT
  5
19E
100
AcDbEntity
  8
1
  6
CONTINUOUS
 62
   253
100
AcDbText
 10
-613.0872
 20
650.1222
 30
0.0
 40
3.0
  1
1.   THE TRANSFORMER BASE SHALL BE CERTIFIED FOR CONFORMANCE TO THE LATEST
  7
MONOTXT
 11
-613.0872
 21
653.1222
 31
0.0
210
0.0
220
0.0
230
1.0
100
AcDbText
 73
     3
  0
TEXT
  5
19F
100
AcDbEntity
  8
1
  6
CONTINUOUS
 62
   253
100
AcDbText
 10
-613.0872
 20
644.7222
 30
0.0
 40
3.0
  1
   AASHTO BREAKAWAY PERFORMANCE CRITERIA.
  7
MONOTXT
 11
-613.0872
 21
647.7222
 31
0.0
210
0.0
220
0.0
230
1.0
100
AcDbText
 73
     3
  0
TEXT
  5
1A0
100
AcDbEntity
  8
1
  6
CONTINUOUS
 62
   253
100
AcDbText
 10
-613.0872
 20
639.3222
 30
0.0
 40
3.0
  1
 
  7
MONOTXT
 11
-613.0872
 21
642.3222
 31
0.0
210
0.0
220
0.0
230
1.0
100
AcDbText
 73
     3
  0
TEXT
  5
1A1
100
AcDbEntity
  8
1
  6
CONTINUOUS
 62
   253
100
AcDbText
 10
-613.0872
 20
633.9222
 30
0.0
 40
3.0
  1
2.   FOR POLE BASE B.C. AT TOP OF ALUMINUM TRANSFORMER BASE AND POLE FOUND-
  7
MONOTXT
 11
-613.0872
 21
636.9222
 31
0.0
210
0.0
220
0.0
230
1.0
100
AcDbText
 73
     3
  0
TEXT
  5
1A2
100
AcDbEntity
  8
1
  6
CONTINUOUS
 62
   253
100
AcDbText
 10
-613.0872
 20
628.5222
 30
0.0
 40
3.0
  1
   ATION B.C. AND DIMENSIONS, REFER TO APPROPRIATE PORTION OF TES-40 FOR
  7
MONOTXT
 11
-613.0872
 21
631.5222
 31
0.0
210
0.0
220
0.0
230
1.0
100
AcDbText
 73
     3
  0
TEXT
  5
1A3
100
AcDbEntity
  8
1
  6
CONTINUOUS
 62
   253
100
AcDbText
 10
-613.0872
 20
623.1222
 30
0.0
 40
3.0
  1
   STEEL POLES AND THE APPROPRIATE PORTION OF TEL-15B FOR ALUMINUM POLES.
  7
MONOTXT
 11
-613.0872
 21
626.1222
 31
0.0
210
0.0
220
0.0
230
1.0
100
AcDbText
 73
     3
  0
TEXT
  5
1A4
100
AcDbEntity
  8
1
  6
CONTINUOUS
 62
   253
100
AcDbText
 10
-613.0872
 20
617.7222
 30
0.0
 40
3.0
  1
 
  7
MONOTXT
 11
-613.0872
 21
620.7222
 31
0.0
210
0.0
220
0.0
230
1.0
100
AcDbText
 73
     3
  0
TEXT
  5
1A5
100
AcDbEntity
  8
1
  6
CONTINUOUS
 62
   253
100
AcDbText
 10
-613.0872
 20
612.3222
 30
0.0
 40
3.0
  1
3.   OTHER APPROVED GALVANIZED CONNECTING HARDWARE (E.G. NUTS, WASHERS,
  7
MONOTXT
 11
-613.0872
 21
615.3222
 31
0.0
210
0.0
220
0.0
230
1.0
100
AcDbText
 73
     3
  0
TEXT
  5
1A6
100
AcDbEntity
  8
1
  6
CONTINUOUS
 62
   253
100
AcDbText
 10
-613.0872
 20
606.9222
 30
0.0
 40
3.0
  1
   PLATES, CLIPS, CONNECTING BOLT COVER, ANCHOR BOLTS ETC.) SHALL BE SUPPLIED
  7
MONOTXT
 11
-613.0872
 21
609.9222
 31
0.0
210
0.0
220
0.0
230
1.0
100
AcDbText
 73
     3
  0
TEXT
  5
1A7
100
AcDbEntity
  8
1
  6
CONTINUOUS
 62
   253
100
AcDbText
 10
-613.0872
 20
601.5222
 30
0.0
 40
3.0
  1
   AS REQUIRED IN ACCORDANCE WITH THE APPROPRIATE POLE SPECIFICATIONS, THE
  7
MONOTXT
 11
-613.0872
 21
604.5222
 31
0.0
210
0.0
220
0.0
230
1.0
100
AcDbText
 73
     3
  0
TEXT
  5
1A8
100
AcDbEntity
  8
1
  6
CONTINUOUS
 62
   253
100
AcDbText
 10
-613.0872
 20
596.1222
 30
0.0
 40
3.0
  1
   CHARTS ON TES-40 OR TEL-15B, AND THE MANUFACTURERS RECOMMENDATIONS.
  7
MONOTXT
 11
-613.0872
 21
599.1222
 31
0.0
210
0.0
220
0.0
230
1.0
100
AcDbText
 73
     3
  0
TEXT
  5
1A9
100
AcDbEntity
  8
1
  6
CONTINUOUS
 62
   253
100
AcDbText
 10
-613.0872
 20
590.7222
 30
0.0
 40
3.0
  1
 
  7
MONOTXT
 11
-613.0872
 21
593.7222
 31
0.0
210
0.0
220
0.0
230
1.0
100
AcDbText
 73
     3
  0
TEXT
  5
1AA
100
AcDbEntity
  8
1
  6
CONTINUOUS
 62
   253
100
AcDbText
 10
-613.0872
 20
585.3222
 30
0.0
 40
3.0
  1
4.   SHIM AS REQUIRED WITH 1.6mm GALVANIZED STEEL SHIMS.
  7
MONOTXT
 11
-613.0872
 21
588.3222
 31
0.0
210
0.0
220
0.0
230
1.0
100
AcDbText
 73
     3
  0
TEXT
  5
1AB
100
AcDbEntity
  8
1
  6
CONTINUOUS
 62
   253
100
AcDbText
 10
-613.0872
 20
579.9222
 30
0.0
 40
3.0
  1
 
  7
MONOTXT
 11
-613.0872
 21
582.9222
 31
0.0
210
0.0
220
0.0
230
1.0
100
AcDbText
 73
     3
  0
TEXT
  5
1AC
100
AcDbEntity
  8
1
  6
CONTINUOUS
 62
   253
100
AcDbText
 10
-613.0872
 20
574.5222
 30
0.0
 40
3.0
  1
5.   GROUNDING SHALL COMPLY WITH THAT ILLUSTRATED ON TEL-01 AND TES-40 OR
  7
MONOTXT
 11
-613.0872
 21
577.5222
 31
0.0
210
0.0
220
0.0
230
1.0
100
AcDbText
 73
     3
  0
TEXT
  5
1AD
100
AcDbEntity
  8
1
  6
CONTINUOUS
 62
   253
100
AcDbText
 10
-613.0872
 20
569.1222
 30
0.0
 40
3.0
  1
   TEL-15B.
  7
MONOTXT
 11
-613.0872
 21
572.1222
 31
0.0
210
0.0
220
0.0
230
1.0
100
AcDbText
 73
     3
  0
TEXT
  5
1AE
100
AcDbEntity
  8
1
  6
CONTINUOUS
 62
   253
100
AcDbText
 10
-613.0872
 20
563.7222
 30
0.0
 40
3.0
  1
 
  7
MONOTXT
 11
-613.0872
 21
566.7222
 31
0.0
210
0.0
220
0.0
230
1.0
100
AcDbText
 73
     3
  0
TEXT
  5
1AF
100
AcDbEntity
  8
1
  6
CONTINUOUS
 62
   253
100
AcDbText
 10
-613.0872
 20
558.3222
 30
0.0
 40
3.0
  1
6.   ONE SIDE OF TRANSFORMER BASE NEAR THE DOOR SHALL BE TAPPED FOR GROUND-
  7
MONOTXT
 11
-613.0872
 21
561.3222
 31
0.0
210
0.0
220
0.0
230
1.0
100
AcDbText
 73
     3
  0
TEXT
  5
1B0
100
AcDbEntity
  8
1
  6
CONTINUOUS
 62
   253
100
AcDbText
 10
-613.0872
 20
552.9222
 30
0.0
 40
3.0
  1
   ING LUG.
  7
MONOTXT
 11
-613.0872
 21
555.9222
 31
0.0
210
0.0
220
0.0
230
1.0
100
AcDbText
 73
     3
  0
TEXT
  5
1B1
100
AcDbEntity
  8
1
  6
CONTINUOUS
 62
   253
100
AcDbText
 10
-613.0872
 20
547.5222
 30
0.0
 40
3.0
  1
 
  7
MONOTXT
 11
-613.0872
 21
550.5222
 31
0.0
210
0.0
220
0.0
230
1.0
100
AcDbText
 73
     3
  0
TEXT
  5
1B2
100
AcDbEntity
  8
1
  6
CONTINUOUS
 62
   253
100
AcDbText
 10
-613.0872
 20
542.1222
 30
0.0
 40
3.0
  1
7.   MAXIMUM SLOPE TO THE TRANSFORMER BASE SHALL BE 6:1.
  7
MONOTXT
 11
-613.0872
 21
545.1222
 31
0.0
210
0.0
220
0.0
230
1.0
100
AcDbText
 73
     3
  0
TEXT
  5
1B3
100
AcDbEntity
  8
1
  6
CONTINUOUS
 62
     4
100
AcDbText
 10
-579.8742
 20
413.4781
 30
0.0
 40
2.4
  1
450mm
  7
MONOTXT
 11
-579.8742
 21
415.8781
 31
0.0
210
0.0
220
0.0
230
1.0
100
AcDbText
 73
     3
  0
TEXT
  5
1B4
100
AcDbEntity
  8
1
  6
CONTINUOUS
 62
     4
100
AcDbText
 10
-487.5237
 20
445.56
 30
0.0
 40
2.4
  1
DOOR OPENING
  7
MONOTXT
 11
-487.5237
 21
447.96
 31
0.0
210
0.0
220
0.0
230
1.0
100
AcDbText
 73
     3
  0
TEXT
  5
1B5
100
AcDbEntity
  8
1
  6
CONTINUOUS
 62
     4
100
AcDbText
 10
-487.5237
 20
441.96
 30
0.0
 40
2.4
  1
200mmX230mmx
  7
MONOTXT
 11
-487.5237
 21
444.36
 31
0.0
210
0.0
220
0.0
230
1.0
100
AcDbText
 73
     3
  0
TEXT
  5
1B6
100
AcDbEntity
  8
1
  6
CONTINUOUS
 62
     4
100
AcDbText
 10
-487.5237
 20
438.36
 30
0.0
 40
2.4
  1
345mm NOM. WITH
  7
MONOTXT
 11
-487.5237
 21
440.76
 31
0.0
210
0.0
220
0.0
230
1.0
100
AcDbText
 73
     3
  0
TEXT
  5
1B7
100
AcDbEntity
  8
1
  6
CONTINUOUS
 62
     4
100
AcDbText
 10
-487.5237
 20
434.76
 30
0.0
 40
2.4
  1
S.S. SCREW OR
  7
MONOTXT
 11
-487.5237
 21
437.16
 31
0.0
210
0.0
220
0.0
230
1.0
100
AcDbText
 73
     3
  0
TEXT
  5
1B8
100
AcDbEntity
  8
1
  6
CONTINUOUS
 62
     4
100
AcDbText
 10
-487.5237
 20
431.16
 30
0.0
 40
2.4
  1
BOLT.
  7
MONOTXT
 11
-487.5237
 21
433.56
 31
0.0
210
0.0
220
0.0
230
1.0
100
AcDbText
 73
     3
  0
LINE
  5
1B9
100
AcDbEntity
  8
1
  6
CONTINUOUS
 62
     4
100
AcDbLine
 10
-594.519
 20
324.3971
 30
0.0
 11
-592.4904
 21
320.0468
 31
0.0
  0
LINE
  5
1BA
100
AcDbEntity
  8
1
  6
CONTINUOUS
 62
     4
100
AcDbLine
 10
-594.519
 20
324.3971
 30
0.0
 11
-596.5476
 21
320.0468
 31
0.0
  0
LINE
  5
1BB
100
AcDbEntity
  8
1
  6
CONTINUOUS
 62
     4
100
AcDbLine
 10
-596.5476
 20
320.0468
 30
0.0
 11
-592.4904
 21
320.0468
 31
0.0
  0
TEXT
  5
1BC
100
AcDbEntity
  8
1
  6
CONTINUOUS
 62
     4
100
AcDbText
 10
-595.3069
 20
320.2047
 30
0.0
 40
2.4
  1
7
  7
MONOTXT
 11
-595.3069
 21
322.6047
 31
0.0
210
0.0
220
0.0
230
1.0
100
AcDbText
 73
     3
  0
TEXT
  5
1BD
100
AcDbEntity
  8
1
  6
CONTINUOUS
 62
     4
100
AcDbText
 10
-589.8104
 20
321.7453
 30
0.0
 40
2.4
  1
ADDED METRIC
  7
MONOTXT
 11
-589.8104
 21
324.1453
 31
0.0
210
0.0
220
0.0
230
1.0
100
AcDbText
 73
     3
  0
LINE
  5
1BE
100
AcDbEntity
  8
1
  6
CONTINUOUS
 62
     4
100
AcDbLine
 10
-591.1101
 20
217.6768
 30
0.0
 11
-589.0815
 21
213.3265
 31
0.0
  0
TEXT
  5
1BF
100
AcDbEntity
  8
1
  6
CONTINUOUS
 62
    20
100
AcDbText
 10
-583.0757
 20
214.1671
 30
0.0
 40
2.4
  1
04-21-94
  7
MONOTXT
 72
     1
 11
-574.8081
 21
216.5671
 31
0.0
210
0.0
220
0.0
230
1.0
100
AcDbText
 73
     3
  0
LINE
  5
1C0
100
AcDbEntity
  8
1
  6
CONTINUOUS
 62
     4
100
AcDbLine
 10
-591.1101
 20
217.6768
 30
0.0
 11
-593.1387
 21
213.3265
 31
0.0
  0
LINE
  5
1C1
100
AcDbEntity
  8
1
  6
CONTINUOUS
 62
     4
100
AcDbLine
 10
-593.1387
 20
213.3265
 30
0.0
 11
-589.0815
 21
213.3265
 31
0.0
  0
TEXT
  5
1C2
100
AcDbEntity
  8
1
  6
CONTINUOUS
 62
     4
100
AcDbText
 10
-591.8974
 20
213.511
 30
0.0
 40
2.4
  1
7
  7
MONOTXT
 11
-591.8974
 21
215.911
 31
0.0
210
0.0
220
0.0
230
1.0
100
AcDbText
 73
     3
  0
TEXT
  5
1C3
100
AcDbEntity
  8
1
  6
CONTINUOUS
 62
     7
100
AcDbText
 10
-1094.5149
 20
650.7605
 30
0.0
 40
3.0
  1
508.0
  7
MONOTXT
 72
     4
 11
-1088.3023
 21
652.2605
 31
0.0
210
0.0
220
0.0
230
1.0
100
AcDbText
  0
TEXT
  5
1C4
100
AcDbEntity
  8
1
  6
CONTINUOUS
 62
     7
100
AcDbText
 10
-1091.8456
 20
645.3605
 30
0.0
 40
3.0
  1
mm
  7
MONOTXT
 72
     4
 11
-1088.3023
 21
646.8605
 31
0.0
210
0.0
220
0.0
230
1.0
100
AcDbText
  0
TEXT
  5
1C5
100
AcDbEntity
  8
1
  6
CONTINUOUS
 62
     7
100
AcDbText
 10
-1094.4303
 20
623.3466
 30
0.0
 40
3.0
  1
431.8
  7
MONOTXT
 72
     4
 11
-1088.7729
 21
624.8466
 31
0.0
210
0.0
220
0.0
230
1.0
100
AcDbText
  0
TEXT
  5
1C6
100
AcDbEntity
  8
1
  6
CONTINUOUS
 62
     7
100
AcDbText
 10
-1092.3162
 20
617.9466
 30
0.0
 40
3.0
  1
mm
  7
MONOTXT
 72
     4
 11
-1088.7729
 21
619.4466
 31
0.0
210
0.0
220
0.0
230
1.0
100
AcDbText
  0
TEXT
  5
1C7
100
AcDbEntity
  8
1
  6
CONTINUOUS
 62
     7
100
AcDbText
 10
-1094.0726
 20
588.2853
 30
0.0
 40
3.0
  1
431.8
  7
MONOTXT
 72
     4
 11
-1088.4152
 21
589.7853
 31
0.0
210
0.0
220
0.0
230
1.0
100
AcDbText
  0
TEXT
  5
1C8
100
AcDbEntity
  8
1
  6
CONTINUOUS
 62
     7
100
AcDbText
 10
-1091.9585
 20
582.8853
 30
0.0
 40
3.0
  1
mm
  7
MONOTXT
 72
     4
 11
-1088.4152
 21
584.3853
 31
0.0
210
0.0
220
0.0
230
1.0
100
AcDbText
  0
TEXT
  5
1C9
100
AcDbEntity
  8
1
  6
CONTINUOUS
 62
     7
100
AcDbText
 10
-1093.8938
 20
553.5817
 30
0.0
 40
3.0
  1
431.8
  7
MONOTXT
 72
     4
 11
-1088.2364
 21
555.0817
 31
0.0
210
0.0
220
0.0
230
1.0
100
AcDbText
  0
TEXT
  5
1CA
100
AcDbEntity
  8
1
  6
CONTINUOUS
 62
     7
100
AcDbText
 10
-1091.7797
 20
548.1817
 30
0.0
 40
3.0
  1
mm
  7
MONOTXT
 72
     4
 11
-1088.2364
 21
549.6817
 31
0.0
210
0.0
220
0.0
230
1.0
100
AcDbText
  0
TEXT
  5
1CB
100
AcDbEntity
  8
1
  6
CONTINUOUS
 62
     7
100
AcDbText
 10
-1093.7149
 20
519.2359
 30
0.0
 40
3.0
  1
431.8
  7
MONOTXT
 72
     4
 11
-1088.0575
 21
520.7359
 31
0.0
210
0.0
220
0.0
230
1.0
100
AcDbText
  0
TEXT
  5
1CC
100
AcDbEntity
  8
1
  6
CONTINUOUS
 62
     7
100
AcDbText
 10
-1091.6008
 20
513.8359
 30
0.0
 40
3.0
  1
mm
  7
MONOTXT
 72
     4
 11
-1088.0575
 21
515.3359
 31
0.0
210
0.0
220
0.0
230
1.0
100
AcDbText
  0
TEXT
  5
1CD
100
AcDbEntity
  8
1
  6
CONTINUOUS
 62
     7
100
AcDbText
 10
-1077.6702
 20
651.0551
 30
0.0
 40
3.0
  1
279.4mm TO
  7
MONOTXT
 72
     4
 11
-1062.2805
 21
652.5551
 31
0.0
210
0.0
220
0.0
230
1.0
100
AcDbText
  0
TEXT
  5
1CE
100
AcDbEntity
  8
1
  6
CONTINUOUS
 62
     7
100
AcDbText
 10
-1071.9183
 20
645.6551
 30
0.0
 40
3.0
  1
317.5mm
  7
MONOTXT
 72
     4
 11
-1062.2805
 21
647.1551
 31
0.0
210
0.0
220
0.0
230
1.0
100
AcDbText
  0
TEXT
  5
1CF
100
AcDbEntity
  8
1
  6
CONTINUOUS
 62
     7
100
AcDbText
 10
-1072.1427
 20
640.2551
 30
0.0
 40
3.0
  1
SLOTTED
  7
MONOTXT
 72
     4
 11
-1062.2805
 21
641.7551
 31
0.0
210
0.0
220
0.0
230
1.0
100
AcDbText
  0
TEXT
  5
1D0
100
AcDbEntity
  8
1
  6
CONTINUOUS
 62
     7
100
AcDbText
 10
-1077.4396
 20
587.8138
 30
0.0
 40
3.0
  1
266.7mm TO
  7
MONOTXT
 72
     4
 11
-1062.1916
 21
589.3138
 31
0.0
210
0.0
220
0.0
230
1.0
100
AcDbText
  0
TEXT
  5
1D1
100
AcDbEntity
  8
1
  6
CONTINUOUS
 62
     7
100
AcDbText
 10
-1072.4436
 20
582.4138
 30
0.0
 40
3.0
  1
342.9mm
  7
MONOTXT
 72
     4
 11
-1062.1916
 21
583.9138
 31
0.0
210
0.0
220
0.0
230
1.0
100
AcDbText
  0
TEXT
  5
1D2
100
AcDbEntity
  8
1
  6
CONTINUOUS
 62
     7
100
AcDbText
 10
-1072.0538
 20
577.0138
 30
0.0
 40
3.0
  1
SLOTTED
  7
MONOTXT
 72
     4
 11
-1062.1916
 21
578.5138
 31
0.0
210
0.0
220
0.0
230
1.0
100
AcDbText
  0
TEXT
  5
1D3
100
AcDbEntity
  8
1
  6
CONTINUOUS
 62
     7
100
AcDbText
 10
-1077.5174
 20
553.4029
 30
0.0
 40
3.0
  1
254.0mm TO
  7
MONOTXT
 72
     4
 11
-1062.0804
 21
554.9029
 31
0.0
210
0.0
220
0.0
230
1.0
100
AcDbText
  0
TEXT
  5
1D4
100
AcDbEntity
  8
1
  6
CONTINUOUS
 62
     7
100
AcDbText
 10
-1072.4032
 20
548.0029
 30
0.0
 40
3.0
  1
304.8mm
  7
MONOTXT
 72
     4
 11
-1062.0804
 21
549.5029
 31
0.0
210
0.0
220
0.0
230
1.0
100
AcDbText
  0
TEXT
  5
1D5
100
AcDbEntity
  8
1
  6
CONTINUOUS
 62
     7
100
AcDbText
 10
-1071.9426
 20
542.6029
 30
0.0
 40
3.0
  1
SLOTTED
  7
MONOTXT
 72
     4
 11
-1062.0804
 21
544.1029
 31
0.0
210
0.0
220
0.0
230
1.0
100
AcDbText
  0
TEXT
  5
1D6
100
AcDbEntity
  8
1
  6
CONTINUOUS
 62
     7
100
AcDbText
 10
-1040.9018
 20
552.8631
 30
0.0
 40
3.0
  1
305.82mm
  7
MONOTXT
 72
     4
 11
-1029.1616
 21
554.3631
 31
0.0
210
0.0
220
0.0
230
1.0
100
AcDbText
  0
TEXT
  5
1D7
100
AcDbEntity
  8
1
  6
CONTINUOUS
 62
     7
100
AcDbText
 10
-1032.4804
 20
547.4631
 30
0.0
 40
3.0
  1
SQ.
  7
MONOTXT
 72
     4
 11
-1029.1616
 21
548.9631
 31
0.0
210
0.0
220
0.0
230
1.0
100
AcDbText
  0
TEXT
  5
1D8
100
AcDbEntity
  8
1
  6
CONTINUOUS
 62
     7
100
AcDbText
 10
-1040.6827
 20
519.1864
 30
0.0
 40
3.0
  1
383.29mm
  7
MONOTXT
 72
     4
 11
-1029.0134
 21
520.6864
 31
0.0
210
0.0
220
0.0
230
1.0
100
AcDbText
  0
TEXT
  5
1D9
100
AcDbEntity
  8
1
  6
CONTINUOUS
 62
     7
100
AcDbText
 10
-1032.3322
 20
513.7864
 30
0.0
 40
3.0
  1
SQ.
  7
MONOTXT
 72
     4
 11
-1029.0134
 21
515.2864
 31
0.0
210
0.0
220
0.0
230
1.0
100
AcDbText
  0
TEXT
  5
1DA
100
AcDbEntity
  8
1
  6
CONTINUOUS
 62
     7
100
AcDbText
 10
-1007.4712
 20
651.2344
 30
0.0
 40
3.0
  1
381.0mm TO
 41
0.833333
  7
MONOTXT
 72
     4
 11
-995.1976
 21
652.7344
 31
0.0
210
0.0
220
0.0
230
1.0
100
AcDbText
  0
TEXT
  5
1DB
100
AcDbEntity
  8
1
  6
CONTINUOUS
 62
     7
100
AcDbText
 10
-1003.7015
 20
645.8344
 30
0.0
 40
3.0
  1
393.7mm
 41
0.833333
  7
MONOTXT
 72
     4
 11
-995.1976
 21
647.3344
 31
0.0
210
0.0
220
0.0
230
1.0
100
AcDbText
  0
TEXT
  5
1DC
100
AcDbEntity
  8
1
  6
CONTINUOUS
 62
     7
100
AcDbText
 10
-1003.4161
 20
640.4344
 30
0.0
 40
3.0
  1
SLOTTED
 41
0.833333
  7
MONOTXT
 72
     4
 11
-995.1976
 21
641.9344
 31
0.0
210
0.0
220
0.0
230
1.0
100
AcDbText
  0
TEXT
  5
1DD
100
AcDbEntity
  8
1
  6
CONTINUOUS
 62
     7
100
AcDbText
 10
-1009.5578
 20
635.0344
 30
0.0
 40
3.0
  1
(USE 381.0mm)
 41
0.833333
  7
MONOTXT
 72
     4
 11
-995.1976
 21
636.5344
 31
0.0
210
0.0
220
0.0
230
1.0
100
AcDbText
  0
TEXT
  5
1DE
100
AcDbEntity
  8
1
  6
CONTINUOUS
 62
     4
100
AcDbText
 10
-1008.5762
 20
623.3293
 30
0.0
 40
3.0
  1
330.2mm TO
 41
0.833333
  7
MONOTXT
 72
     4
 11
-995.7711
 21
624.8293
 31
0.0
210
0.0
220
0.0
230
1.0
100
AcDbText
  0
TEXT
  5
1DF
100
AcDbEntity
  8
1
  6
CONTINUOUS
 62
     4
100
AcDbText
 10
-1003.7829
 20
617.9293
 30
0.0
 40
3.0
  1
381.0mm
 41
0.833333
  7
MONOTXT
 72
     4
 11
-995.7711
 21
619.4293
 31
0.0
210
0.0
220
0.0
230
1.0
100
AcDbText
  0
TEXT
  5
1E0
100
AcDbEntity
  8
1
  6
CONTINUOUS
 62
     4
100
AcDbText
 10
-1003.9896
 20
612.5293
 30
0.0
 40
3.0
  1
SLOTTED
 41
0.833333
  7
MONOTXT
 72
     4
 11
-995.7711
 21
614.0293
 31
0.0
210
0.0
220
0.0
230
1.0
100
AcDbText
  0
TEXT
  5
1E1
100
AcDbEntity
  8
1
  6
CONTINUOUS
 62
     4
100
AcDbText
 10
-1010.1313
 20
607.1293
 30
0.0
 40
3.0
  1
(USE 381.0mm)
 41
0.833333
  7
MONOTXT
 72
     4
 11
-995.7711
 21
608.6293
 31
0.0
210
0.0
220
0.0
230
1.0
100
AcDbText
  0
TEXT
  5
1E2
100
AcDbEntity
  8
1
  6
CONTINUOUS
 62
     4
100
AcDbText
 10
-1007.7625
 20
588.4301
 30
0.0
 40
3.0
  1
266.7mm TO
 41
0.833333
  7
MONOTXT
 72
     4
 11
-995.0558
 21
589.9301
 31
0.0
210
0.0
220
0.0
230
1.0
100
AcDbText
  0
TEXT
  5
1E3
100
AcDbEntity
  8
1
  6
CONTINUOUS
 62
     4
100
AcDbText
 10
-1003.0676
 20
583.0301
 30
0.0
 40
3.0
  1
381.0mm
 41
0.833333
  7
MONOTXT
 72
     4
 11
-995.0558
 21
584.5301
 31
0.0
210
0.0
220
0.0
230
1.0
100
AcDbText
  0
TEXT
  5
1E4
100
AcDbEntity
  8
1
  6
CONTINUOUS
 62
     4
100
AcDbText
 10
-1003.2743
 20
577.6301
 30
0.0
 40
3.0
  1
SLOTTED
 41
0.833333
  7
MONOTXT
 72
     4
 11
-995.0558
 21
579.1301
 31
0.0
210
0.0
220
0.0
230
1.0
100
AcDbText
  0
TEXT
  5
1E5
100
AcDbEntity
  8
1
  6
CONTINUOUS
 62
     4
100
AcDbText
 10
-1007.92
 20
553.3855
 30
0.0
 40
3.0
  1
254.0mm TO
 41
0.833333
  7
MONOTXT
 72
     4
 11
-995.0558
 21
554.8855
 31
0.0
210
0.0
220
0.0
230
1.0
100
AcDbText
  0
TEXT
  5
1E6
100
AcDbEntity
  8
1
  6
CONTINUOUS
 62
     4
100
AcDbText
 10
-1003.6581
 20
547.9855
 30
0.0
 40
3.0
  1
304.8mm
 41
0.833333
  7
MONOTXT
 72
     4
 11
-995.0558
 21
549.4855
 31
0.0
210
0.0
220
0.0
230
1.0
100
AcDbText
  0
TEXT
  5
1E7
100
AcDbEntity
  8
1
  6
CONTINUOUS
 62
     4
100
AcDbText
 10
-1003.2743
 20
542.5855
 30
0.0
 40
3.0
  1
SLOTTED
 41
0.833333
  7
MONOTXT
 72
     4
 11
-995.0558
 21
544.0855
 31
0.0
210
0.0
220
0.0
230
1.0
100
AcDbText
  0
TEXT
  5
1E8
100
AcDbEntity
  8
1
  6
CONTINUOUS
 62
     4
100
AcDbText
 10
-1010.0066
 20
537.1855
 30
0.0
 40
3.0
  1
(USE 304.8mm)
 41
0.833333
  7
MONOTXT
 72
     4
 11
-995.0558
 21
538.6855
 31
0.0
210
0.0
220
0.0
230
1.0
100
AcDbText
  0
TEXT
  5
1E9
100
AcDbEntity
  8
1
  6
CONTINUOUS
 62
     4
100
AcDbText
 10
-1007.3294
 20
519.2019
 30
0.0
 40
3.0
  1
381.0mm TO
 41
0.833333
  7
MONOTXT
 72
     4
 11
-995.0558
 21
520.7019
 31
0.0
210
0.0
220
0.0
230
1.0
100
AcDbText
  0
TEXT
  5
1EA
100
AcDbEntity
  8
1
  6
CONTINUOUS
 62
     4
100
AcDbText
 10
-1004.3668
 20
513.8019
 30
0.0
 40
3.0
  1
438.15mm
 41
0.833333
  7
MONOTXT
 72
     4
 11
-995.0558
 21
515.3019
 31
0.0
210
0.0
220
0.0
230
1.0
100
AcDbText
  0
TEXT
  5
1EB
100
AcDbEntity
  8
1
  6
CONTINUOUS
 62
     4
100
AcDbText
 10
-1006.9751
 20
508.4019
 30
0.0
 40
3.0
  1
(SEE PLANS)
 41
0.833333
  7
MONOTXT
 72
     4
 11
-995.0558
 21
509.9019
 31
0.0
210
0.0
220
0.0
230
1.0
100
AcDbText
  0
TEXT
  5
1EC
100
AcDbEntity
  8
1
  6
CONTINUOUS
 62
     7
100
AcDbText
 10
-973.6784
 20
553.8388
 30
0.0
 40
3.0
  1
332.23mm
  7
MONOTXT
 72
     4
 11
-961.9382
 21
555.3388
 31
0.0
210
0.0
220
0.0
230
1.0
100
AcDbText
  0
TEXT
  5
1ED
100
AcDbEntity
  8
1
  6
CONTINUOUS
 62
     7
100
AcDbText
 10
-965.257
 20
548.4388
 30
0.0
 40
3.0
  1
SQ.
  7
MONOTXT
 72
     4
 11
-961.9382
 21
549.9388
 31
0.0
210
0.0
220
0.0
230
1.0
100
AcDbText
  0
TEXT
  5
1EE
100
AcDbEntity
  8
1
  6
CONTINUOUS
 62
     7
100
AcDbText
 10
-973.8723
 20
518.917
 30
0.0
 40
3.0
  1
442.98mm
  7
MONOTXT
 72
     4
 11
-962.0613
 21
520.417
 31
0.0
210
0.0
220
0.0
230
1.0
100
AcDbText
  0
TEXT
  5
1EF
100
AcDbEntity
  8
1
  6
CONTINUOUS
 62
     7
100
AcDbText
 10
-965.3801
 20
513.517
 30
0.0
 40
3.0
  1
SQ.
  7
MONOTXT
 72
     4
 11
-962.0613
 21
515.017
 31
0.0
210
0.0
220
0.0
230
1.0
100
AcDbText
  0
TEXT
  5
1F0
100
AcDbEntity
  8
1
  6
CONTINUOUS
 62
     7
100
AcDbText
 10
-941.8551
 20
648.5475
 30
0.0
 40
3.0
  1
TOP WASHERS-3.97mmX50.8mm O.D.
 41
0.833333
  7
MONOTXT
 11
-941.8551
 21
650.0475
 31
0.0
210
0.0
220
0.0
230
1.0
100
AcDbText
 73
     2
  0
TEXT
  5
1F1
100
AcDbEntity
  8
1
  6
CONTINUOUS
 62
     7
100
AcDbText
 10
-941.8551
 20
643.1475
 30
0.0
 40
3.0
  1
OUTSIDE, 3.97mmX63.5mm O.D.
 41
0.833333
  7
MONOTXT
 11
-941.8551
 21
644.6475
 31
0.0
210
0.0
220
0.0
230
1.0
100
AcDbText
 73
     2
  0
TEXT
  5
1F2
100
AcDbEntity
  8
1
  6
CONTINUOUS
 62
     7
100
AcDbText
 10
-941.8551
 20
637.7475
 30
0.0
 40
3.0
  1
INSIDE; BOTTOM WASHERS-
 41
0.833333
  7
MONOTXT
 11
-941.8551
 21
639.2475
 31
0.0
210
0.0
220
0.0
230
1.0
100
AcDbText
 73
     2
  0
TEXT
  5
1F3
100
AcDbEntity
  8
1
  6
CONTINUOUS
 62
     7
100
AcDbText
 10
-941.8551
 20
632.3475
 30
0.0
 40
3.0
  1
9.5mmX63.5mm O.D.
 41
0.833333
  7
MONOTXT
 11
-941.8551
 21
633.8475
 31
0.0
210
0.0
220
0.0
230
1.0
100
AcDbText
 73
     2
  0
TEXT
  5
1F4
100
AcDbEntity
  8
1
  6
CONTINUOUS
 62
     7
100
AcDbText
 10
-941.5848
 20
623.6118
 30
0.0
 40
3.0
  1
25.4mm-A307 OR 31.75mm-A325
 41
0.833333
  7
MONOTXT
 11
-941.5848
 21
625.1118
 31
0.0
210
0.0
220
0.0
230
1.0
100
AcDbText
 73
     2
  0
TEXT
  5
1F5
100
AcDbEntity
  8
1
  6
CONTINUOUS
 62
     7
100
AcDbText
 10
-941.5848
 20
618.2118
 30
0.0
 40
3.0
  1
AS REQUIRED.
 41
0.833333
  7
MONOTXT
 11
-941.5848
 21
619.7118
 31
0.0
210
0.0
220
0.0
230
1.0
100
AcDbText
 73
     2
  0
TEXT
  5
1F6
100
AcDbEntity
  8
1
  6
CONTINUOUS
 62
     7
100
AcDbText
 10
-941.9424
 20
552.7736
 30
0.0
 40
3.0
  1
25.4mm-A307 OR 31.75mm-A325
 41
0.833333
  7
MONOTXT
 11
-941.9424
 21
554.2736
 31
0.0
210
0.0
220
0.0
230
1.0
100
AcDbText
 73
     2
  0
TEXT
  5
1F7
100
AcDbEntity
  8
1
  6
CONTINUOUS
 62
     7
100
AcDbText
 10
-941.9424
 20
547.3736
 30
0.0
 40
3.0
  1
AS REQUIRED.
 41
0.833333
  7
MONOTXT
 11
-941.9424
 21
548.8736
 31
0.0
210
0.0
220
0.0
230
1.0
100
AcDbText
 73
     2
  0
TEXT
  5
1F8
100
AcDbEntity
  8
1
  6
CONTINUOUS
 62
     7
100
AcDbText
 10
-941.7635
 20
588.0138
 30
0.0
 40
3.0
  1
25.4mm-A307 OR 31.75mm-A325
 41
0.833333
  7
MONOTXT
 11
-941.7635
 21
589.5138
 31
0.0
210
0.0
220
0.0
230
1.0
100
AcDbText
 73
     2
  0
TEXT
  5
1F9
100
AcDbEntity
  8
1
  6
CONTINUOUS
 62
     7
100
AcDbText
 10
-941.7635
 20
582.6138
 30
0.0
 40
3.0
  1
AS REQUIRED.
 41
0.833333
  7
MONOTXT
 11
-941.7635
 21
584.1138
 31
0.0
210
0.0
220
0.0
230
1.0
100
AcDbText
 73
     2
  0
TEXT
  5
1FA
100
AcDbEntity
  8
1
  6
CONTINUOUS
 62
     7
100
AcDbText
 10
-941.9424
 20
517.8912
 30
0.0
 40
3.0
  1
25.4mm-A307 OR 31.75mm-A325
 41
0.833333
  7
MONOTXT
 11
-941.9424
 21
519.3912
 31
0.0
210
0.0
220
0.0
230
1.0
100
AcDbText
 73
     2
  0
TEXT
  5
1FB
100
AcDbEntity
  8
1
  6
CONTINUOUS
 62
     7
100
AcDbText
 10
-941.9424
 20
512.4912
 30
0.0
 40
3.0
  1
AS REQUIRED.
 41
0.833333
  7
MONOTXT
 11
-941.9424
 21
513.9912
 31
0.0
210
0.0
220
0.0
230
1.0
100
AcDbText
 73
     2
  0
TEXT
  5
1FC
100
AcDbEntity
  8
1
  6
CONTINUOUS
 62
     4
100
AcDbText
 10
-862.9245
 20
649.7413
 30
0.0
 40
3.0
  1
25.4mmX
  7
MONOTXT
 72
     4
 11
-852.6135
 21
651.2413
 31
0.0
210
0.0
220
0.0
230
1.0
100
AcDbText
  0
TEXT
  5
1FD
100
AcDbEntity
  8
1
  6
CONTINUOUS
 62
     4
100
AcDbText
 10
-863.0072
 20
645.5413
 30
0.0
 40
3.0
  1
1016.0mm
  7
MONOTXT
 72
     4
 11
-852.6135
 21
647.0413
 31
0.0
210
0.0
220
0.0
230
1.0
100
AcDbText
  0
TEXT
  5
1FE
100
AcDbEntity
  8
1
  6
CONTINUOUS
 62
     4
100
AcDbText
 10
-857.3497
 20
641.3413
 30
0.0
 40
3.0
  1
MAX.
  7
MONOTXT
 72
     4
 11
-852.6135
 21
642.8413
 31
0.0
210
0.0
220
0.0
230
1.0
100
AcDbText
  0
TEXT
  5
1FF
100
AcDbEntity
  8
1
  6
CONTINUOUS
 62
     4
100
AcDbText
 10
-861.2709
 20
637.1413
 30
0.0
 40
3.0
  1
TORQUE
  7
MONOTXT
 72
     4
 11
-852.6135
 21
638.6413
 31
0.0
210
0.0
220
0.0
230
1.0
100
AcDbText
  0
TEXT
  5
200
100
AcDbEntity
  8
1
  6
CONTINUOUS
 62
     4
100
AcDbText
 10
-863.2671
 20
632.9413
 30
0.0
 40
3.0
  1
271.16N.m
  7
MONOTXT
 72
     4
 11
-852.6135
 21
634.4413
 31
0.0
210
0.0
220
0.0
230
1.0
100
AcDbText
  0
TEXT
  5
201
100
AcDbEntity
  8
1
  6
CONTINUOUS
 62
     4
100
AcDbText
 10
-862.3879
 20
619.2845
 30
0.0
 40
3.0
  1
25.4mmX
  7
MONOTXT
 72
     4
 11
-852.0769
 21
620.7845
 31
0.0
210
0.0
220
0.0
230
1.0
100
AcDbText
  0
TEXT
  5
202
100
AcDbEntity
  8
1
  6
CONTINUOUS
 62
     4
100
AcDbText
 10
-862.4706
 20
615.0845
 30
0.0
 40
3.0
  1
1016.0mm
  7
MONOTXT
 72
     4
 11
-852.0769
 21
616.5845
 31
0.0
210
0.0
220
0.0
230
1.0
100
AcDbText
  0
TEXT
  5
203
100
AcDbEntity
  8
1
  6
CONTINUOUS
 62
     4
100
AcDbText
 10
-854.7107
 20
610.8845
 30
0.0
 40
3.0
  1
OR
  7
MONOTXT
 72
     4
 11
-852.0769
 21
612.3845
 31
0.0
210
0.0
220
0.0
230
1.0
100
AcDbText
  0
TEXT
  5
204
100
AcDbEntity
  8
1
  6
CONTINUOUS
 62
     4
100
AcDbText
 10
-861.6792
 20
606.6845
 30
0.0
 40
3.0
  1
31.8mmX
  7
MONOTXT
 72
     4
 11
-852.0769
 21
608.1845
 31
0.0
210
0.0
220
0.0
230
1.0
100
AcDbText
  0
TEXT
  5
205
100
AcDbEntity
  8
1
  6
CONTINUOUS
 62
     4
100
AcDbText
 10
-862.4706
 20
602.4845
 30
0.0
 40
3.0
  1
1219.2mm
  7
MONOTXT
 72
     4
 11
-852.0769
 21
603.9845
 31
0.0
210
0.0
220
0.0
230
1.0
100
AcDbText
  0
TEXT
  5
206
100
AcDbEntity
  8
1
  6
CONTINUOUS
 62
     4
100
AcDbText
 10
-863.3091
 20
598.2845
 30
0.0
 40
3.0
  1
AS REQ'D.
  7
MONOTXT
 72
     4
 11
-852.0769
 21
599.7845
 31
0.0
210
0.0
220
0.0
230
1.0
100
AcDbText
  0
TEXT
  5
207
100
AcDbEntity
  8
1
  6
CONTINUOUS
 62
     4
100
AcDbText
 10
-862.9244
 20
585.4752
 30
0.0
 40
3.0
  1
25.4mmX
  7
MONOTXT
 72
     4
 11
-852.6134
 21
586.9752
 31
0.0
210
0.0
220
0.0
230
1.0
100
AcDbText
  0
TEXT
  5
208
100
AcDbEntity
  8
1
  6
CONTINUOUS
 62
     4
100
AcDbText
 10
-863.0071
 20
581.2752
 30
0.0
 40
3.0
  1
1016.0mm
  7
MONOTXT
 72
     4
 11
-852.6134
 21
582.7752
 31
0.0
210
0.0
220
0.0
230
1.0
100
AcDbText
  0
TEXT
  5
209
100
AcDbEntity
  8
1
  6
CONTINUOUS
 62
     4
100
AcDbText
 10
-855.2472
 20
577.0752
 30
0.0
 40
3.0
  1
OR
  7
MONOTXT
 72
     4
 11
-852.6134
 21
578.5752
 31
0.0
210
0.0
220
0.0
230
1.0
100
AcDbText
  0
TEXT
  5
20A
100
AcDbEntity
  8
1
  6
CONTINUOUS
 62
     4
100
AcDbText
 10
-862.2157
 20
572.8752
 30
0.0
 40
3.0
  1
31.8mmX
  7
MONOTXT
 72
     4
 11
-852.6134
 21
574.3752
 31
0.0
210
0.0
220
0.0
230
1.0
100
AcDbText
  0
TEXT
  5
20B
100
AcDbEntity
  8
1
  6
CONTINUOUS
 62
     4
100
AcDbText
 10
-863.0071
 20
568.6752
 30
0.0
 40
3.0
  1
1219.2mm
  7
MONOTXT
 72
     4
 11
-852.6134
 21
570.1752
 31
0.0
210
0.0
220
0.0
230
1.0
100
AcDbText
  0
TEXT
  5
20C
100
AcDbEntity
  8
1
  6
CONTINUOUS
 62
     4
100
AcDbText
 10
-863.8456
 20
564.4752
 30
0.0
 40
3.0
  1
AS REQ'D.
  7
MONOTXT
 72
     4
 11
-852.6134
 21
565.9752
 31
0.0
210
0.0
220
0.0
230
1.0
100
AcDbText
  0
TEXT
  5
20D
100
AcDbEntity
  8
1
  6
CONTINUOUS
 62
     4
100
AcDbText
 10
-862.3879
 20
550.9505
 30
0.0
 40
3.0
  1
25.4mmX
  7
MONOTXT
 72
     4
 11
-852.0769
 21
552.4505
 31
0.0
210
0.0
220
0.0
230
1.0
100
AcDbText
  0
TEXT
  5
20E
100
AcDbEntity
  8
1
  6
CONTINUOUS
 62
     4
100
AcDbText
 10
-862.4706
 20
546.7505
 30
0.0
 40
3.0
  1
1016.0mm
  7
MONOTXT
 72
     4
 11
-852.0769
 21
548.2505
 31
0.0
210
0.0
220
0.0
230
1.0
100
AcDbText
  0
TEXT
  5
20F
100
AcDbEntity
  8
1
  6
CONTINUOUS
 62
     4
100
AcDbText
 10
-854.7107
 20
542.5505
 30
0.0
 40
3.0
  1
OR
  7
MONOTXT
 72
     4
 11
-852.0769
 21
544.0505
 31
0.0
210
0.0
220
0.0
230
1.0
100
AcDbText
  0
TEXT
  5
210
100
AcDbEntity
  8
1
  6
CONTINUOUS
 62
     4
100
AcDbText
 10
-861.6792
 20
538.3505
 30
0.0
 40
3.0
  1
31.8mmX
  7
MONOTXT
 72
     4
 11
-852.0769
 21
539.8505
 31
0.0
210
0.0
220
0.0
230
1.0
100
AcDbText
  0
TEXT
  5
211
100
AcDbEntity
  8
1
  6
CONTINUOUS
 62
     4
100
AcDbText
 10
-862.4706
 20
534.1505
 30
0.0
 40
3.0
  1
1219.2mm
  7
MONOTXT
 72
     4
 11
-852.0769
 21
535.6505
 31
0.0
210
0.0
220
0.0
230
1.0
100
AcDbText
  0
TEXT
  5
212
100
AcDbEntity
  8
1
  6
CONTINUOUS
 62
     4
100
AcDbText
 10
-863.3091
 20
529.9505
 30
0.0
 40
3.0
  1
AS REQ'D.
  7
MONOTXT
 72
     4
 11
-852.0769
 21
531.4505
 31
0.0
210
0.0
220
0.0
230
1.0
100
AcDbText
  0
TEXT
  5
213
100
AcDbEntity
  8
1
  6
CONTINUOUS
 62
     4
100
AcDbText
 10
-862.2091
 20
515.3525
 30
0.0
 40
3.0
  1
25.4mmX
  7
MONOTXT
 72
     4
 11
-851.8981
 21
516.8525
 31
0.0
210
0.0
220
0.0
230
1.0
100
AcDbText
  0
TEXT
  5
214
100
AcDbEntity
  8
1
  6
CONTINUOUS
 62
     4
100
AcDbText
 10
-862.2918
 20
511.1525
 30
0.0
 40
3.0
  1
1016.0mm
  7
MONOTXT
 72
     4
 11
-851.8981
 21
512.6525
 31
0.0
210
0.0
220
0.0
230
1.0
100
AcDbText
  0
TEXT
  5
215
100
AcDbEntity
  8
1
  6
CONTINUOUS
 62
     4
100
AcDbText
 10
-854.5319
 20
506.9525
 30
0.0
 40
3.0
  1
OR
  7
MONOTXT
 72
     4
 11
-851.8981
 21
508.4525
 31
0.0
210
0.0
220
0.0
230
1.0
100
AcDbText
  0
TEXT
  5
216
100
AcDbEntity
  8
1
  6
CONTINUOUS
 62
     4
100
AcDbText
 10
-861.5004
 20
502.7525
 30
0.0
 40
3.0
  1
31.8mmX
  7
MONOTXT
 72
     4
 11
-851.8981
 21
504.2525
 31
0.0
210
0.0
220
0.0
230
1.0
100
AcDbText
  0
TEXT
  5
217
100
AcDbEntity
  8
1
  6
CONTINUOUS
 62
     4
100
AcDbText
 10
-862.2918
 20
498.5525
 30
0.0
 40
3.0
  1
1219.2mm
  7
MONOTXT
 72
     4
 11
-851.8981
 21
500.0525
 31
0.0
210
0.0
220
0.0
230
1.0
100
AcDbText
  0
TEXT
  5
218
100
AcDbEntity
  8
1
  6
CONTINUOUS
 62
     4
100
AcDbText
 10
-863.1303
 20
494.3525
 30
0.0
 40
3.0
  1
AS REQ'D.
  7
MONOTXT
 72
     4
 11
-851.8981
 21
495.8525
 31
0.0
210
0.0
220
0.0
230
1.0
100
AcDbText
  0
TEXT
  5
219
100
AcDbEntity
  8
1
  6
CONTINUOUS
 62
     7
100
AcDbText
 10
-836.6773
 20
623.0895
 30
0.0
 40
3.0
  1
TOP WASHERS-63.5mmDIAM.X9.5mmTHICK
 41
0.833333
  7
MONOTXT
 11
-836.6773
 21
626.0895
 31
0.0
210
0.0
220
0.0
230
1.0
100
AcDbText
 73
     3
  0
TEXT
  5
21A
100
AcDbEntity
  8
1
  6
CONTINUOUS
 62
     7
100
AcDbText
 10
-836.6773
 20
617.6895
 30
0.0
 40
3.0
  1
BOTTOM WASHERS-69.9mmDIAM.X12.7mm
 41
0.833333
  7
MONOTXT
 11
-836.6773
 21
620.6895
 31
0.0
210
0.0
220
0.0
230
1.0
100
AcDbText
 73
     3
  0
TEXT
  5
21B
100
AcDbEntity
  8
1
  6
CONTINUOUS
 62
     7
100
AcDbText
 10
-836.6773
 20
612.2895
 30
0.0
 40
3.0
  1
THICK
 41
0.833333
  7
MONOTXT
 11
-836.6773
 21
615.2895
 31
0.0
210
0.0
220
0.0
230
1.0
100
AcDbText
 73
     3
  0
TEXT
  5
21C
100
AcDbEntity
  8
1
  6
CONTINUOUS
 62
     7
100
AcDbText
 10
-836.6773
 20
606.8895
 30
0.0
 40
3.0
  1
UPPER CORNER STIFFENER RIBS
 41
0.833333
  7
MONOTXT
 11
-836.6773
 21
609.8895
 31
0.0
210
0.0
220
0.0
230
1.0
100
AcDbText
 73
     3
  0
TEXT
  5
21D
100
AcDbEntity
  8
1
  6
CONTINUOUS
 62
     7
100
AcDbText
 10
-836.6773
 20
601.4895
 30
0.0
 40
3.0
  1
PERMITTED (INSIDE TOP) PER
 41
0.833333
  7
MONOTXT
 11
-836.6773
 21
604.4895
 31
0.0
210
0.0
220
0.0
230
1.0
100
AcDbText
 73
     3
  0
TEXT
  5
21E
100
AcDbEntity
  8
1
  6
CONTINUOUS
 62
     7
100
AcDbText
 10
-836.6773
 20
596.0895
 30
0.0
 40
3.0
  1
MANUF'S. RECOMMENDATIONS
 41
0.833333
  7
MONOTXT
 11
-836.6773
 21
599.0895
 31
0.0
210
0.0
220
0.0
230
1.0
100
AcDbText
 73
     3
  0
TEXT
  5
21F
100
AcDbEntity
  8
1
  6
CONTINUOUS
 62
     7
100
AcDbText
 10
-836.3196
 20
552.9668
 30
0.0
 40
3.0
  1
TOP WASHERS-63.5mmDIAM.X9.5mmTHICK
 41
0.833333
  7
MONOTXT
 11
-836.3196
 21
555.9668
 31
0.0
210
0.0
220
0.0
230
1.0
100
AcDbText
 73
     3
  0
TEXT
  5
220
100
AcDbEntity
  8
1
  6
CONTINUOUS
 62
     7
100
AcDbText
 10
-836.3196
 20
547.5668
 30
0.0
 40
3.0
  1
BOTTOM WASHERS-69.9mmDIAM.X12.7mm
 41
0.833333
  7
MONOTXT
 11
-836.3196
 21
550.5668
 31
0.0
210
0.0
220
0.0
230
1.0
100
AcDbText
 73
     3
  0
TEXT
  5
221
100
AcDbEntity
  8
1
  6
CONTINUOUS
 62
     7
100
AcDbText
 10
-836.3196
 20
542.1668
 30
0.0
 40
3.0
  1
THICK
 41
0.833333
  7
MONOTXT
 11
-836.3196
 21
545.1668
 31
0.0
210
0.0
220
0.0
230
1.0
100
AcDbText
 73
     3
  0
TEXT
  5
222
100
AcDbEntity
  8
1
  6
CONTINUOUS
 62
     7
100
AcDbText
 10
-836.3196
 20
536.7668
 30
0.0
 40
3.0
  1
UPPER CORNER STIFFENER RIBS
 41
0.833333
  7
MONOTXT
 11
-836.3196
 21
539.7668
 31
0.0
210
0.0
220
0.0
230
1.0
100
AcDbText
 73
     3
  0
TEXT
  5
223
100
AcDbEntity
  8
1
  6
CONTINUOUS
 62
     7
100
AcDbText
 10
-836.3196
 20
531.3668
 30
0.0
 40
3.0
  1
PERMITTED (INSIDE TOP) PER
 41
0.833333
  7
MONOTXT
 11
-836.3196
 21
534.3668
 31
0.0
210
0.0
220
0.0
230
1.0
100
AcDbText
 73
     3
  0
TEXT
  5
224
100
AcDbEntity
  8
1
  6
CONTINUOUS
 62
     7
100
AcDbText
 10
-836.3196
 20
525.9668
 30
0.0
 40
3.0
  1
MANUF'S. RECOMMENDATIONS
 41
0.833333
  7
MONOTXT
 11
-836.3196
 21
528.9668
 31
0.0
210
0.0
220
0.0
230
1.0
100
AcDbText
 73
     3
  0
TEXT
  5
225
100
AcDbEntity
  8
1
  6
CONTINUOUS
 62
     7
100
AcDbText
 10
-836.4358
 20
589.3213
 30
0.0
 40
3.0
  1
TOP WASHERS-63.5mmDIA.X9.5mmTHICK
 41
0.833333
  7
MONOTXT
 11
-836.4358
 21
590.8213
 31
0.0
210
0.0
220
0.0
230
1.0
100
AcDbText
 73
     2
  0
TEXT
  5
226
100
AcDbEntity
  8
1
  6
CONTINUOUS
 62
     7
100
AcDbText
 10
-836.4358
 20
585.1213
 30
0.0
 40
3.0
  1
BOTTOM WASHERS-69.9mmDIA.X12.7mm
 41
0.833333
  7
MONOTXT
 11
-836.4358
 21
586.6213
 31
0.0
210
0.0
220
0.0
230
1.0
100
AcDbText
 73
     2
  0
TEXT
  5
227
100
AcDbEntity
  8
1
  6
CONTINUOUS
 62
     7
100
AcDbText
 10
-836.4358
 20
580.9213
 30
0.0
 40
3.0
  1
THICK ALSO-BOTTOM MTG. SHALL
 41
0.833333
  7
MONOTXT
 11
-836.4358
 21
582.4213
 31
0.0
210
0.0
220
0.0
230
1.0
100
AcDbText
 73
     2
  0
TEXT
  5
228
100
AcDbEntity
  8
1
  6
CONTINUOUS
 62
     7
100
AcDbText
 10
-836.4358
 20
576.7213
 30
0.0
 40
3.0
  1
HAVE FOUR-69.9mmX108.0mmX15.9mmRECT.
 41
0.833333
  7
MONOTXT
 11
-836.4358
 21
578.2213
 31
0.0
210
0.0
220
0.0
230
1.0
100
AcDbText
 73
     2
  0
TEXT
  5
229
100
AcDbEntity
  8
1
  6
CONTINUOUS
 62
     7
100
AcDbText
 10
-836.4358
 20
572.5213
 30
0.0
 40
3.0
  1
WASHERS & FOUR-63.5mmDIA.X9.5mm
 41
0.833333
  7
MONOTXT
 11
-836.4358
 21
574.0213
 31
0.0
210
0.0
220
0.0
230
1.0
100
AcDbText
 73
     2
  0
TEXT
  5
22A
100
AcDbEntity
  8
1
  6
CONTINUOUS
 62
     7
100
AcDbText
 10
-836.4358
 20
568.3213
 30
0.0
 40
3.0
  1
WASHERS ON TOP. UPPER CORNER
 41
0.833333
  7
MONOTXT
 11
-836.4358
 21
569.8213
 31
0.0
210
0.0
220
0.0
230
1.0
100
AcDbText
 73
     2
  0
TEXT
  5
22B
100
AcDbEntity
  8
1
  6
CONTINUOUS
 62
     7
100
AcDbText
 10
-836.4358
 20
564.1213
 30
0.0
 40
3.0
  1
STIFFENER RIBS PERMITTED (INSIDE
 41
0.833333
  7
MONOTXT
 11
-836.4358
 21
565.6213
 31
0.0
210
0.0
220
0.0
230
1.0
100
AcDbText
 73
     2
  0
TEXT
  5
22C
100
AcDbEntity
  8
1
  6
CONTINUOUS
 62
     7
100
AcDbText
 10
-836.4358
 20
559.9213
 30
0.0
 40
3.0
  1
TOP) PER MANUF'S. RECOMMENDATIONS
 41
0.833333
  7
MONOTXT
 11
-836.4358
 21
561.4213
 31
0.0
210
0.0
220
0.0
230
1.0
100
AcDbText
 73
     2
  0
TEXT
  5
22D
100
AcDbEntity
  8
1
  6
CONTINUOUS
 62
     7
100
AcDbText
 10
-837.4333
 20
519.1692
 30
0.0
 40
3.0
  1
TOP WASHERS-69.9mmDIA.X12.7mmTHICK
 41
0.833333
  7
MONOTXT
 11
-837.4333
 21
522.1692
 31
0.0
210
0.0
220
0.0
230
1.0
100
AcDbText
 73
     3
  0
TEXT
  5
22E
100
AcDbEntity
  8
1
  6
CONTINUOUS
 62
     7
100
AcDbText
 10
-837.4333
 20
513.7692
 30
0.0
 40
3.0
  1
BOTTOM WASHERS-69.9mmDIA.X12.7mm
 41
0.833333
  7
MONOTXT
 11
-837.4333
 21
516.7692
 31
0.0
210
0.0
220
0.0
230
1.0
100
AcDbText
 73
     3
  0
TEXT
  5
22F
100
AcDbEntity
  8
1
  6
CONTINUOUS
 62
     7
100
AcDbText
 10
-837.4333
 20
508.3692
 30
0.0
 40
3.0
  1
THICK
 41
0.833333
  7
MONOTXT
 11
-837.4333
 21
511.3692
 31
0.0
210
0.0
220
0.0
230
1.0
100
AcDbText
 73
     3
  0
TEXT
  5
230
100
AcDbEntity
  8
1
  6
CONTINUOUS
 62
     7
100
AcDbText
 10
-837.4333
 20
502.9692
 30
0.0
 40
3.0
  1
UPPER CORNER STIFFENER RIBS
 41
0.833333
  7
MONOTXT
 11
-837.4333
 21
505.9692
 31
0.0
210
0.0
220
0.0
230
1.0
100
AcDbText
 73
     3
  0
TEXT
  5
231
100
AcDbEntity
  8
1
  6
CONTINUOUS
 62
     7
100
AcDbText
 10
-837.4333
 20
497.5692
 30
0.0
 40
3.0
  1
PERMITTED (INSIDE TOP) PER
 41
0.833333
  7
MONOTXT
 11
-837.4333
 21
500.5692
 31
0.0
210
0.0
220
0.0
230
1.0
100
AcDbText
 73
     3
  0
TEXT
  5
232
100
AcDbEntity
  8
1
  6
CONTINUOUS
 62
     7
100
AcDbText
 10
-837.4333
 20
492.1692
 30
0.0
 40
3.0
  1
MANUF'S RECOMMENDATIONS
 41
0.833333
  7
MONOTXT
 11
-837.4333
 21
495.1692
 31
0.0
210
0.0
220
0.0
230
1.0
100
AcDbText
 73
     3
  0
TEXT
  5
233
100
AcDbEntity
  8
1
  6
CONTINUOUS
 62
     4
100
AcDbText
 10
-741.1389
 20
646.7214
 30
0.0
 40
3.0
  1
STEEL TYPE 1-15.2m-6.1m,13.7m-7.3m
 41
0.75
  7
MONOTXT
 11
-741.1389
 21
648.2214
 31
0.0
210
0.0
220
0.0
230
1.0
100
AcDbText
 73
     2
  0
TEXT
  5
234
100
AcDbEntity
  8
1
  6
CONTINUOUS
 62
     4
100
AcDbText
 10
-741.1389
 20
641.3214
 30
0.0
 40
3.0
  1
STEEL TYPE 2-15.2m-2.4m
 41
0.75
  7
MONOTXT
 11
-741.1389
 21
642.8214
 31
0.0
210
0.0
220
0.0
230
1.0
100
AcDbText
 73
     2
  0
TEXT
  5
235
100
AcDbEntity
  8
1
  6
CONTINUOUS
 62
     4
100
AcDbText
 10
-741.1389
 20
635.9214
 30
0.0
 40
3.0
  1
ALUM.-TRUSS ARM-15.2m-7.6m
 41
0.75
  7
MONOTXT
 11
-741.1389
 21
637.4214
 31
0.0
210
0.0
220
0.0
230
1.0
100
AcDbText
 73
     2
  0
TEXT
  5
236
100
AcDbEntity
  8
1
  6
CONTINUOUS
 62
     4
100
AcDbText
 10
-741.1389
 20
630.5214
 30
0.0
 40
3.0
  1
ALUM. SINGLE ARM-15.2m-2.4m   
 41
0.75
  7
MONOTXT
 11
-741.1389
 21
632.0214
 31
0.0
210
0.0
220
0.0
230
1.0
100
AcDbText
 73
     2
  0
TEXT
  5
237
100
AcDbEntity
  8
1
  6
CONTINUOUS
 62
     7
100
AcDbText
 10
-715.177
 20
651.3739
 30
0.0
 40
3.0
  1
408kg
  7
MONOTXT
 11
-715.177
 21
654.3739
 31
0.0
210
0.0
220
0.0
230
1.0
100
AcDbText
 73
     3
  0
TEXT
  5
238
100
AcDbEntity
  8
1
  6
CONTINUOUS
 62
     7
100
AcDbText
 10
-715.8359
 20
624.2113
 30
0.0
 40
3.0
  1
431kg
  7
MONOTXT
 11
-715.8359
 21
627.2113
 31
0.0
210
0.0
220
0.0
230
1.0
100
AcDbText
 73
     3
  0
TEXT
  5
239
100
AcDbEntity
  8
1
  6
CONTINUOUS
 62
     7
100
AcDbText
 10
-716.9511
 20
589.0851
 30
0.0
 40
3.0
  1
373kg
  7
MONOTXT
 11
-716.9511
 21
592.0851
 31
0.0
210
0.0
220
0.0
230
1.0
100
AcDbText
 73
     3
  0
TEXT
  5
23A
100
AcDbEntity
  8
1
  6
CONTINUOUS
 62
     7
100
AcDbText
 10
-716.5457
 20
554.1105
 30
0.0
 40
3.0
  1
249kg
  7
MONOTXT
 11
-716.5457
 21
557.1105
 31
0.0
210
0.0
220
0.0
230
1.0
100
AcDbText
 73
     3
  0
TEXT
  5
23B
100
AcDbEntity
  8
1
  6
CONTINUOUS
 62
     7
100
AcDbText
 10
-716.343
 20
518.2236
 30
0.0
 40
3.0
  1
353kg
  7
MONOTXT
 11
-716.343
 21
521.2236
 31
0.0
210
0.0
220
0.0
230
1.0
100
AcDbText
 73
     3
  0
TEXT
  5
23C
100
AcDbEntity
  8
1
  6
CONTINUOUS
 62
     7
100
AcDbText
 10
-670.6454
 20
650.8206
 30
0.0
 40
3.0
  1
15.2m-6.1m,13.7m-7.3m
 41
0.833333
  7
MONOTXT
 11
-670.6454
 21
652.3206
 31
0.0
210
0.0
220
0.0
230
1.0
100
AcDbText
 73
     2
  0
TEXT
  5
23D
100
AcDbEntity
  8
1
  6
CONTINUOUS
 62
     7
100
AcDbText
 10
-670.6454
 20
645.4206
 30
0.0
 40
3.0
  1
15.2m-2.4m
 41
0.833333
  7
MONOTXT
 11
-670.6454
 21
646.9206
 31
0.0
210
0.0
220
0.0
230
1.0
100
AcDbText
 73
     2
  0
TEXT
  5
23E
100
AcDbEntity
  8
1
  6
CONTINUOUS
 62
     7
100
AcDbText
 10
-670.6454
 20
640.0206
 30
0.0
 40
3.0
  1
12.2m-4.6m
 41
0.833333
  7
MONOTXT
 11
-670.6454
 21
641.5206
 31
0.0
210
0.0
220
0.0
230
1.0
100
AcDbText
 73
     2
  0
TEXT
  5
23F
100
AcDbEntity
  8
1
  6
CONTINUOUS
 62
     7
100
AcDbText
 10
-670.6454
 20
634.6206
 30
0.0
 40
3.0
  1
12.2m-2.4m
 41
0.833333
  7
MONOTXT
 11
-670.6454
 21
636.1206
 31
0.0
210
0.0
220
0.0
230
1.0
100
AcDbText
 73
     2
  0
TEXT
  5
240
100
AcDbEntity
  8
1
  6
CONTINUOUS
 62
     7
100
AcDbText
 10
-1077.4739
 20
519.4685
 30
0.0
 40
3.0
  1
330.2mm TO
  7
MONOTXT
 72
     4
 11
-1062.1078
 21
520.9685
 31
0.0
210
0.0
220
0.0
230
1.0
100
AcDbText
  0
TEXT
  5
241
100
AcDbEntity
  8
1
  6
CONTINUOUS
 62
     7
100
AcDbText
 10
-1074.7928
 20
514.0685
 30
0.0
 40
3.0
  1
384.175mm
  7
MONOTXT
 72
     4
 11
-1062.1078
 21
515.5685
 31
0.0
210
0.0
220
0.0
230
1.0
100
AcDbText
  0
TEXT
  5
242
100
AcDbEntity
  8
1
  6
CONTINUOUS
 62
     7
100
AcDbText
 10
-1071.97
 20
508.6685
 30
0.0
 40
3.0
  1
SLOTTED
  7
MONOTXT
 72
     4
 11
-1062.1078
 21
510.1685
 31
0.0
210
0.0
220
0.0
230
1.0
100
AcDbText
  0
TEXT
  5
243
100
AcDbEntity
  8
1
  6
CONTINUOUS
 62
     7
100
AcDbText
 10
-1042.1534
 20
650.3953
 30
0.0
 40
3.0
  1
320.675mm
  7
MONOTXT
 72
     4
 11
-1028.9723
 21
651.8953
 31
0.0
210
0.0
220
0.0
230
1.0
100
AcDbText
  0
TEXT
  5
244
100
AcDbEntity
  8
1
  6
CONTINUOUS
 62
     7
100
AcDbText
 10
-1032.2911
 20
644.9953
 30
0.0
 40
3.0
  1
SQ.
  7
MONOTXT
 72
     4
 11
-1028.9723
 21
646.4953
 31
0.0
210
0.0
220
0.0
230
1.0
100
AcDbText
  0
TEXT
  5
245
100
AcDbEntity
  8
1
  6
CONTINUOUS
 62
     7
100
AcDbText
 10
-1041.9855
 20
622.679
 30
0.0
 40
3.0
  1
333.375mm
  7
MONOTXT
 72
     4
 11
-1028.7335
 21
624.179
 31
0.0
210
0.0
220
0.0
230
1.0
100
AcDbText
  0
TEXT
  5
246
100
AcDbEntity
  8
1
  6
CONTINUOUS
 62
     7
100
AcDbText
 10
-1032.0523
 20
617.279
 30
0.0
 40
3.0
  1
SQ.
  7
MONOTXT
 72
     4
 11
-1028.7335
 21
618.779
 31
0.0
210
0.0
220
0.0
230
1.0
100
AcDbText
  0
TEXT
  5
247
100
AcDbEntity
  8
1
  6
CONTINUOUS
 62
     7
100
AcDbText
 10
-1042.3432
 20
588.3332
 30
0.0
 40
3.0
  1
333.375mm
  7
MONOTXT
 72
     4
 11
-1029.0912
 21
589.8332
 31
0.0
210
0.0
220
0.0
230
1.0
100
AcDbText
  0
TEXT
  5
248
100
AcDbEntity
  8
1
  6
CONTINUOUS
 62
     7
100
AcDbText
 10
-1032.41
 20
582.9332
 30
0.0
 40
3.0
  1
SQ.
  7
MONOTXT
 72
     4
 11
-1029.0912
 21
584.4332
 31
0.0
210
0.0
220
0.0
230
1.0
100
AcDbText
  0
TEXT
  5
249
100
AcDbEntity
  8
1
  6
CONTINUOUS
 62
     7
100
AcDbText
 10
-974.6447
 20
651.444
 30
0.0
 40
3.0
  1
371.425mm
  7
MONOTXT
 72
     4
 11
-961.9597
 21
652.944
 31
0.0
210
0.0
220
0.0
230
1.0
100
AcDbText
  0
TEXT
  5
24A
100
AcDbEntity
  8
1
  6
CONTINUOUS
 62
     7
100
AcDbText
 10
-965.2785
 20
646.044
 30
0.0
 40
3.0
  1
SQ.
  7
MONOTXT
 72
     4
 11
-961.9597
 21
647.544
 31
0.0
210
0.0
220
0.0
230
1.0
100
AcDbText
  0
TEXT
  5
24B
100
AcDbEntity
  8
1
  6
CONTINUOUS
 62
     7
100
AcDbText
 10
-974.5728
 20
623.8508
 30
0.0
 40
3.0
  1
390.525mm
  7
MONOTXT
 72
     4
 11
-961.4154
 21
625.3508
 31
0.0
210
0.0
220
0.0
230
1.0
100
AcDbText
  0
TEXT
  5
24C
100
AcDbEntity
  8
1
  6
CONTINUOUS
 62
     7
100
AcDbText
 10
-964.7342
 20
618.4508
 30
0.0
 40
3.0
  1
SQ.
  7
MONOTXT
 72
     4
 11
-961.4154
 21
619.9508
 31
0.0
210
0.0
220
0.0
230
1.0
100
AcDbText
  0
TEXT
  5
24D
100
AcDbEntity
  8
1
  6
CONTINUOUS
 62
     7
100
AcDbText
 10
-974.9305
 20
588.7895
 30
0.0
 40
3.0
  1
390.525mm
  7
MONOTXT
 72
     4
 11
-961.7731
 21
590.2895
 31
0.0
210
0.0
220
0.0
230
1.0
100
AcDbText
  0
TEXT
  5
24E
100
AcDbEntity
  8
1
  6
CONTINUOUS
 62
     7
100
AcDbText
 10
-965.0919
 20
583.3895
 30
0.0
 40
3.0
  1
SQ.
  7
MONOTXT
 72
     4
 11
-961.7731
 21
584.8895
 31
0.0
210
0.0
220
0.0
230
1.0
100
AcDbText
  0
ENDSEC
  0
SECTION
  2
OBJECTS
  0
DICTIONARY
  5
19
100
AcDbDictionary
  3
ACAD_GROUP
350
1A
  3
ACAD_MLINESTYLE
350
1B
  0
DICTIONARY
  5
1A
102
{ACAD_REACTORS
330
19
102
}
100
AcDbDictionary
  0
DICTIONARY
  5
1B
102
{ACAD_REACTORS
330
19
102
}
100
AcDbDictionary
  3
STANDARD
350
1C
  0
MLINESTYLE
  5
1C
102
{ACAD_REACTORS
330
1B
102
}
100
AcDbMlineStyle
  2
STANDARD
 70
     0
  3

 62
     0
 51
90.0
 52
90.0
 71
     2
 49
0.5
 62
   256
  6
BYLAYER
 49
-0.5
 62
   256
  6
BYLAYER
  0
ENDSEC
  0
EOF
