  0
SECTION
  2
HEADER
  9
$ACADVER
  1
AC1014
  9
$ACADMAINTVER
 70
     0
  9
$DWGCODEPAGE
  3
ANSI_1252
  9
$INSBASE
 10
0.0
 20
0.0
 30
0.0
  9
$EXTMIN
 10
43.4946
 20
11.9567
 30
0.0
  9
$EXTMAX
 10
799.6919
 20
504.55
 30
0.0
  9
$LIMMIN
 10
0.0
 20
0.0
  9
$LIMMAX
 10
12.0
 20
9.0
  9
$ORTHOMODE
 70
     0
  9
$REGENMODE
 70
     1
  9
$FILLMODE
 70
     1
  9
$QTEXTMODE
 70
     0
  9
$MIRRTEXT
 70
     1
  9
$DRAGMODE
 70
     2
  9
$LTSCALE
 40
1.0
  9
$OSMODE
 70
     0
  9
$ATTMODE
 70
     1
  9
$TEXTSIZE
 40
0.2
  9
$TRACEWID
 40
0.05
  9
$TEXTSTYLE
  7
STANDARD
  9
$CLAYER
  8
0
  9
$CELTYPE
  6
CONTINUOUS
  9
$CECOLOR
 62
   256
  9
$CELTSCALE
 40
1.0
  9
$DELOBJ
 70
     1
  9
$DISPSILH
 70
     0
  9
$DIMSCALE
 40
1.0
  9
$DIMASZ
 40
0.18
  9
$DIMEXO
 40
0.0625
  9
$DIMDLI
 40
0.38
  9
$DIMRND
 40
0.0
  9
$DIMDLE
 40
0.0
  9
$DIMEXE
 40
0.18
  9
$DIMTP
 40
0.0
  9
$DIMTM
 40
0.0
  9
$DIMTXT
 40
0.18
  9
$DIMCEN
 40
0.09
  9
$DIMTSZ
 40
0.0
  9
$DIMTOL
 70
     0
  9
$DIMLIM
 70
     0
  9
$DIMTIH
 70
     1
  9
$DIMTOH
 70
     1
  9
$DIMSE1
 70
     0
  9
$DIMSE2
 70
     0
  9
$DIMTAD
 70
     0
  9
$DIMZIN
 70
     0
  9
$DIMBLK
  1

  9
$DIMASO
 70
     1
  9
$DIMSHO
 70
     1
  9
$DIMPOST
  1

  9
$DIMAPOST
  1

  9
$DIMALT
 70
     0
  9
$DIMALTD
 70
     2
  9
$DIMALTF
 40
25.4
  9
$DIMLFAC
 40
1.0
  9
$DIMTOFL
 70
     0
  9
$DIMTVP
 40
0.0
  9
$DIMTIX
 70
     0
  9
$DIMSOXD
 70
     0
  9
$DIMSAH
 70
     0
  9
$DIMBLK1
  1

  9
$DIMBLK2
  1

  9
$DIMSTYLE
  2
STANDARD
  9
$DIMCLRD
 70
     0
  9
$DIMCLRE
 70
     0
  9
$DIMCLRT
 70
     0
  9
$DIMTFAC
 40
1.0
  9
$DIMGAP
 40
0.09
  9
$DIMJUST
 70
     0
  9
$DIMSD1
 70
     0
  9
$DIMSD2
 70
     0
  9
$DIMTOLJ
 70
     1
  9
$DIMTZIN
 70
     0
  9
$DIMALTZ
 70
     0
  9
$DIMALTTZ
 70
     0
  9
$DIMFIT
 70
     3
  9
$DIMUPT
 70
     0
  9
$DIMUNIT
 70
     2
  9
$DIMDEC
 70
     4
  9
$DIMTDEC
 70
     4
  9
$DIMALTU
 70
     2
  9
$DIMALTTD
 70
     2
  9
$DIMTXSTY
  7
STANDARD
  9
$DIMAUNIT
 70
     0
  9
$LUNITS
 70
     2
  9
$LUPREC
 70
     4
  9
$SKETCHINC
 40
0.1
  9
$FILLETRAD
 40
0.0
  9
$AUNITS
 70
     0
  9
$AUPREC
 70
     0
  9
$MENU
  1
acad
  9
$ELEVATION
 40
0.0
  9
$PELEVATION
 40
0.0
  9
$THICKNESS
 40
0.0
  9
$LIMCHECK
 70
     0
  9
$BLIPMODE
 70
     1
  9
$CHAMFERA
 40
0.0
  9
$CHAMFERB
 40
0.0
  9
$CHAMFERC
 40
0.0
  9
$CHAMFERD
 40
0.0
  9
$SKPOLY
 70
     0
  9
$TDCREATE
 40
2451803.542407407
  9
$TDUPDATE
 40
2451803.542407407
  9
$TDINDWG
 40
0.0000000000
  9
$TDUSRTIMER
 40
0.0000000000
  9
$USRTIMER
 70
     1
  9
$ANGBASE
 50
0.0
  9
$ANGDIR
 70
     0
  9
$PDMODE
 70
     0
  9
$PDSIZE
 40
0.0
  9
$PLINEWID
 40
0.0
  9
$COORDS
 70
     0
  9
$SPLFRAME
 70
     0
  9
$SPLINETYPE
 70
     6
  9
$SPLINESEGS
 70
    10
  9
$ATTDIA
 70
     0
  9
$ATTREQ
 70
     1
  9
$HANDLING
 70
     1
  9
$HANDSEED
  5
335
  9
$SURFTAB1
 70
     6
  9
$SURFTAB2
 70
     6
  9
$SURFTYPE
 70
     6
  9
$SURFU
 70
     6
  9
$SURFV
 70
     6
  9
$UCSNAME
  2

  9
$UCSORG
 10
0.0
 20
0.0
 30
0.0
  9
$UCSXDIR
 10
1.0
 20
0.0
 30
0.0
  9
$UCSYDIR
 10
0.0
 20
1.0
 30
0.0
  9
$PUCSNAME
  2

  9
$PUCSORG
 10
0.0
 20
0.0
 30
0.0
  9
$PUCSXDIR
 10
1.0
 20
0.0
 30
0.0
  9
$PUCSYDIR
 10
0.0
 20
1.0
 30
0.0
  9
$USERI1
 70
     0
  9
$USERI2
 70
     0
  9
$USERI3
 70
     0
  9
$USERI4
 70
     0
  9
$USERI5
 70
     0
  9
$USERR1
 40
0.0
  9
$USERR2
 40
0.0
  9
$USERR3
 40
0.0
  9
$USERR4
 40
0.0
  9
$USERR5
 40
0.0
  9
$WORLDVIEW
 70
     1
  9
$SHADEDGE
 70
     3
  9
$SHADEDIF
 70
    70
  9
$TILEMODE
 70
     1
  9
$MAXACTVP
 70
    16
  9
$PINSBASE
 10
0.0
 20
0.0
 30
0.0
  9
$PLIMCHECK
 70
     0
  9
$PEXTMIN
 10
-1.000000E+20
 20
-1.000000E+20
 30
-1.000000E+20
  9
$PEXTMAX
 10
-1.000000E+20
 20
-1.000000E+20
 30
-1.000000E+20
  9
$PLIMMIN
 10
0.0
 20
0.0
  9
$PLIMMAX
 10
12.0
 20
9.0
  9
$UNITMODE
 70
     0
  9
$VISRETAIN
 70
     0
  9
$PLINEGEN
 70
     1
  9
$PSLTSCALE
 70
     0
  9
$TREEDEPTH
 70
  3020
  9
$PICKSTYLE
 70
     1
  9
$CMLSTYLE
  2
STANDARD
  9
$CMLJUST
 70
     0
  9
$CMLSCALE
 40
1.0
  9
$PROXYGRAPHICS
 70
     0
  9
$MEASUREMENT
 70
     0
  0
ENDSEC
  0
SECTION
  2
CLASSES
  0
CLASS
  1
LWPOLYLINE
  2
AcDbPolyline
  3
"AutoCAD"
 90
        0
280
     0
281
     1
  0
CLASS
  1
IMAGE
  2
AcDbRasterImage
  3
ISM
 90
      127
280
     0
281
     1
  0
CLASS
  1
OLE2FRAME
  2
AcDbOle2Frame
  3
""
 90
        0
280
     0
281
     1
  0
CLASS
  1
HATCH
  2
AcDbHatch
  3
"ACAD_SEDONA"
 90
        0
280
     0
281
     1
  0
CLASS
  1
DICTIONARYVAR
  2
AcDbDictionaryVar
  3
"AutoCAD"
 90
        0
280
     0
281
     0
  0
CLASS
  1
RASTERVARIABLES
  2
AcDbRasterVariables
  3
ISM
 90
        0
280
     0
281
     0
  0
CLASS
  1
IMAGEDEF
  2
AcDbRasterImageDef
  3
ISM
 90
        0
280
     0
281
     0
  0
CLASS
  1
IMAGEDEF_REACTOR
  2
AcDbRasterImageDefReactor
  3
ISM
 90
        1
280
     0
281
     0
  0
CLASS
  1
IDBUFFER
  2
AcDbIdBuffer
  3
"Acad"
 90
        0
280
     0
281
     0
  0
CLASS
  1
SPATIAL_FILTER
  2
AcDbSpatialFilter
  3
"Acad"
 90
        0
280
     0
281
     0
  0
CLASS
  1
XRECORD
  2
AcDbXrecord
  3
"<Built In>"
 90
        0
280
     0
281
     0
  0
CLASS
  1
SORTENTSTABLE
  2
AcDbSortentsTable
  3
"AutoCAD"
 90
        0
280
     0
281
     0
  0
CLASS
  1
LAYER_INDEX
  2
AcDbLayerIndex
  3
"Acad"
 90
        0
280
     0
281
     0
  0
CLASS
  1
SPATIAL_INDEX
  2
AcDbSpatialIndex
  3
"Acad"
 90
        0
280
     0
281
     0
  0
CLASS
  1
OBJECT_PTR
  2
CAseDLPNTableRecord
  3
"ASE-LPNTableRecord"
 90
        1
280
     0
281
     0
  0
ENDSEC
  0
SECTION
  2
TABLES
  0
TABLE
  2
VPORT
  5
7
100
AcDbSymbolTable
 70
     1
  0
VPORT
  5
334
100
AcDbSymbolTableRecord
100
AcDbViewportTableRecord
  2
*ACTIVE
 70
     0
 10
0.0
 20
0.0
 11
1.0
 21
1.0
 12
0.0
 22
0.0
 13
0.0
 23
0.0
 14
0.0
 24
0.0
 15
0.0
 25
0.0
 16
0.0
 26
0.0
 36
1.0
 17
368.5758
 27
253.5664
 37
0.0
 40
565.24
 41
1.545
 42
50.0
 43
0.0
 44
0.0
 50
0.0
 51
0.0
 71
     0
 72
   100
 73
     1
 74
     0
 75
     0
 76
     0
 77
     0
 78
     0
  0
ENDTAB
  0
TABLE
  2
LTYPE
  5
4
100
AcDbSymbolTable
 70
     9
  0
LTYPE
  5
11
100
AcDbSymbolTableRecord
100
AcDbLinetypeTableRecord
  2
BYBLOCK
 70
     0
  3

 72
    65
 73
     0
 40
0.0
  0
LTYPE
  5
12
100
AcDbSymbolTableRecord
100
AcDbLinetypeTableRecord
  2
BYLAYER
 70
     0
  3

 72
    65
 73
     0
 40
0.0
  0
LTYPE
  5
13
100
AcDbSymbolTableRecord
100
AcDbLinetypeTableRecord
  2
CONTINUOUS
 70
     0
  3
Solid line
 72
    65
 73
     0
 40
0.0
  0
LTYPE
  5
22
102
{ACAD_XDICTIONARY
360
F0DABB0200000000
102
}
100
AcDbSymbolTableRecord
100
AcDbLinetypeTableRecord
  2
DOT
 70
    64
  3
. . . . . . . . . . . . . . . . . . . . . . . . . . . . . . . . .
 72
    65
 73
     2
 40
0.25
 49
0.0
 74
     0
 49
-0.25
 74
     0
  0
LTYPE
  5
23
102
{ACAD_XDICTIONARY
360
F0DABB0200000000
102
}
100
AcDbSymbolTableRecord
100
AcDbLinetypeTableRecord
  2
HIDDEN
 70
    64
  3
__ __ __ __ __ __ __ __ __ __ __ __ __ __ __ __ __ __ __ __ __ 
 72
    65
 73
     2
 40
0.375
 49
0.25
 74
     0
 49
-0.125
 74
     0
  0
LTYPE
  5
24
102
{ACAD_XDICTIONARY
360
F0DABB0200000000
102
}
100
AcDbSymbolTableRecord
100
AcDbLinetypeTableRecord
  2
DASHED
 70
    64
  3
__ __ __ __ __ __ __ __ __ __ __ __ __ __ __ __ __ __ __ __ __
 72
    65
 73
     2
 40
0.75
 49
0.5
 74
     0
 49
-0.25
 74
     0
  0
LTYPE
  5
25
102
{ACAD_XDICTIONARY
360
F0DABB0200000000
102
}
100
AcDbSymbolTableRecord
100
AcDbLinetypeTableRecord
  2
DASHDOT
 70
    64
  3
__ . __ . __ . __ . __ . __ . __ . __ . __ . __ . __ . __ . _
 72
    65
 73
     4
 40
1.0
 49
0.5
 74
     0
 49
-0.25
 74
     0
 49
0.0
 74
     0
 49
-0.25
 74
     0
  0
LTYPE
  5
26
102
{ACAD_XDICTIONARY
360
F0DABB0200000000
102
}
100
AcDbSymbolTableRecord
100
AcDbLinetypeTableRecord
  2
DIVIDE
 70
    64
  3
____ . . ____ . . ____ . . ____ . . ____ . . ____ . . ____ . .
 72
    65
 73
     6
 40
1.25
 49
0.5
 74
     0
 49
-0.25
 74
     0
 49
0.0
 74
     0
 49
-0.25
 74
     0
 49
0.0
 74
     0
 49
-0.25
 74
     0
  0
LTYPE
  5
27
102
{ACAD_XDICTIONARY
360
F0DABB0200000000
102
}
100
AcDbSymbolTableRecord
100
AcDbLinetypeTableRecord
  2
CENTER
 70
    64
  3
____ _ ____ _ ____ _ ____ _ ____ _ ____ _ ____ _ ____ _ ____ _
 72
    65
 73
     4
 40
2.0
 49
1.25
 74
     0
 49
-0.25
 74
     0
 49
0.25
 74
     0
 49
-0.25
 74
     0
  0
ENDTAB
  0
TABLE
  2
LAYER
  5
2
100
AcDbSymbolTable
 70
     3
  0
LAYER
  5
14
102
{ACAD_XDICTIONARY
360
5F205F5F5F5F205F
102
}
100
AcDbSymbolTableRecord
100
AcDbLayerTableRecord
  2
0
 70
     0
 62
     7
  6
CONTINUOUS
  0
LAYER
  5
2A
102
{ACAD_XDICTIONARY
360
5F205F5F5F5F205F
102
}
100
AcDbSymbolTableRecord
100
AcDbLayerTableRecord
  2
61
 70
    64
 62
     7
  6
CONTINUOUS
  0
LAYER
  5
2D
102
{ACAD_XDICTIONARY
360
5F205F5F5F5F205F
102
}
100
AcDbSymbolTableRecord
100
AcDbLayerTableRecord
  2
1
 70
    64
 62
     7
  6
CONTINUOUS
  0
ENDTAB
  0
TABLE
  2
STYLE
  5
3
100
AcDbSymbolTable
 70
     3
  0
STYLE
  5
17
100
AcDbSymbolTableRecord
100
AcDbTextStyleTableRecord
  2
STANDARD
 70
     0
 40
0.0
 41
1.0
 50
0.0
 71
     0
 42
0.0
  3
txt
  4

  0
STYLE
  5
2B
100
AcDbSymbolTableRecord
100
AcDbTextStyleTableRecord
  2
MONOTXT
 70
     0
 40
0.2
 41
1.0
 50
0.0
 71
     0
 42
0.2
  3
MONOTXT
  4

  0
STYLE
  5
12A
100
AcDbSymbolTableRecord
100
AcDbTextStyleTableRecord
  2
TXT
 70
     0
 40
0.2
 41
1.0
 50
0.0
 71
     0
 42
0.2
  3
TXT
  4

  0
ENDTAB
  0
TABLE
  2
VIEW
  5
5
100
AcDbSymbolTable
 70
     0
  0
ENDTAB
  0
TABLE
  2
UCS
  5
6
100
AcDbSymbolTable
 70
     0
  0
ENDTAB
  0
TABLE
  2
APPID
  5
8
100
AcDbSymbolTable
 70
     1
  0
APPID
  5
16
100
AcDbSymbolTableRecord
100
AcDbRegAppTableRecord
  2
ACAD
 70
     0
  0
ENDTAB
  0
TABLE
  2
DIMSTYLE
  5
9
100
AcDbSymbolTable
 70
     1
  0
DIMSTYLE
105
18
100
AcDbSymbolTableRecord
100
AcDbDimStyleTableRecord
  2
STANDARD
 70
     0
  3

  4

  5

  6

  7

 40
1.0
 41
0.18
 42
0.0625
 43
0.38
 44
0.18
 45
0.0
 46
0.0
 47
0.0
 48
0.0
140
0.18
141
0.09
142
0.0
143
25.4
144
1.0
145
0.0
146
1.0
147
0.09
 71
     0
 72
     0
 73
     1
 74
     1
 75
     0
 76
     0
 77
     0
 78
     0
170
     0
171
     2
172
     0
173
     0
174
     0
175
     0
176
     0
177
     0
178
     0
270
     2
271
     4
272
     4
273
     2
274
     2
340
17
275
     0
280
     0
281
     0
282
     0
283
     1
284
     0
285
     0
286
     0
287
     0
288
     0
  0
ENDTAB
  0
TABLE
  2
BLOCK_RECORD
  5
1
100
AcDbSymbolTable
 70
     1
  0
BLOCK_RECORD
  5
A
100
AcDbSymbolTableRecord
100
AcDbBlockTableRecord
  2
*MODEL_SPACE
  0
BLOCK_RECORD
  5
B
100
AcDbSymbolTableRecord
100
AcDbBlockTableRecord
  2
*PAPER_SPACE
  0
BLOCK_RECORD
  5
63
102
{ACAD_XDICTIONARY
360
F19E022400000000
102
}
100
AcDbSymbolTableRecord
100
AcDbBlockTableRecord
  2
LDR
  0
ENDTAB
  0
ENDSEC
  0
SECTION
  2
BLOCKS
  0
BLOCK
  5
D
100
AcDbEntity
  8
0
100
AcDbBlockBegin
  2
*MODEL_SPACE
 70
     0
 10
0.0
 20
0.0
 30
0.0
  3
*MODEL_SPACE
  1

  0
ENDBLK
  5
E
100
AcDbEntity
  8
0
100
AcDbBlockEnd
  0
BLOCK
  5
F
100
AcDbEntity
 67
     1
  8
0
100
AcDbBlockBegin
  2
*PAPER_SPACE
 70
     0
 10
0.0
 20
0.0
 30
0.0
  3
*PAPER_SPACE
  1

  0
ENDBLK
  5
10
100
AcDbEntity
 67
     1
  8
0
100
AcDbBlockEnd
  0
BLOCK
  5
64
100
AcDbEntity
  8
1
  6
CONTINUOUS
 62
     1
100
AcDbBlockBegin
  2
LDR
 70
     0
 10
0.0
 20
0.0
 30
0.0
  3
LNR
  1

  0
ELLIPSE
  5
65
100
AcDbEntity
  8
1
  6
CONTINUOUS
 62
     1
100
AcDbEllipse
 10
-0.005456
 20
-0.001381
 30
0.0
 11
0.0089285004623472
 21
0.0007807500129699
 31
0.0
210
0.0
220
0.0
230
1.0
 40
0.122415
 41
0.8963533496766982
 42
3.1415926535897931
  0
ELLIPSE
  5
66
100
AcDbEntity
  8
1
  6
CONTINUOUS
 62
     1
100
AcDbEllipse
 10
-0.005603
 20
0.001058
 30
0.0
 11
0.0087822506056358
 21
-0.0008782502048316
 31
0.0
210
0.0
220
0.0
230
1.0
 40
0.07063
 41
3.1407147529760402
 42
5.4181099545465106
  0
ENDBLK
  5
67
100
AcDbEntity
  8
1
  6
CONTINUOUS
 62
     1
100
AcDbBlockEnd
  0
ENDSEC
  0
SECTION
  2
ENTITIES
  0
TEXT
  5
2C
100
AcDbEntity
  8
61
  6
CONTINUOUS
 62
     7
100
AcDbText
 10
785.2919
 20
461.9567
 30
0.0
 40
2.881584
  1
     
 41
1.001399
  7
MONOTXT
210
0.0
220
0.0
230
1.0
100
AcDbText
  0
TEXT
  5
2E
100
AcDbEntity
  8
1
  6
CONTINUOUS
 62
     1
100
AcDbText
 10
609.7489
 20
34.6314
 30
0.0
 40
2.4
  1
12-03-80 
  7
MONOTXT
 72
     1
 11
619.141
 21
37.0314
 31
0.0
210
0.0
220
0.0
230
1.0
100
AcDbText
 73
     3
  0
TEXT
  5
2F
100
AcDbEntity
  8
1
  6
CONTINUOUS
 62
     1
100
AcDbText
 10
609.8939
 20
29.0842
 30
0.0
 40
2.400048
  1
07-03-89
  7
MONOTXT
 72
     1
 11
618.5775
 21
31.4842
 31
0.0
210
0.0
220
0.0
230
1.0
100
AcDbText
 73
     3
  0
TEXT
  5
30
100
AcDbEntity
  8
1
  6
CONTINUOUS
 62
     1
100
AcDbText
 10
610.9187
 20
23.4386
 30
0.0
 40
2.4
  1
01-26-93
  7
MONOTXT
 72
     1
 11
619.0163
 21
25.8386
 31
0.0
210
0.0
220
0.0
230
1.0
100
AcDbText
 73
     3
  0
TEXT
  5
31
100
AcDbEntity
  8
1
  6
CONTINUOUS
 62
     1
100
AcDbText
 10
606.1319
 20
34.3727
 30
0.0
 40
2.400048
  1
        
  7
MONOTXT
 72
     1
 11
615.3321
 21
36.7727
 31
0.0
210
0.0
220
0.0
230
1.0
100
AcDbText
 73
     3
  0
TEXT
  5
32
100
AcDbEntity
  8
1
  6
CONTINUOUS
 62
     1
100
AcDbText
 10
606.3239
 20
28.9967
 30
0.0
 40
2.400048
  1
        
  7
MONOTXT
 72
     1
 11
615.5241
 21
31.3967
 31
0.0
210
0.0
220
0.0
230
1.0
100
AcDbText
 73
     3
  0
TEXT
  5
33
100
AcDbEntity
  8
1
  6
CONTINUOUS
 62
     1
100
AcDbText
 10
606.2039
 20
23.4767
 30
0.0
 40
2.400048
  1
        
  7
MONOTXT
 72
     1
 11
615.4041
 21
25.8767
 31
0.0
210
0.0
220
0.0
230
1.0
100
AcDbText
 73
     3
  0
TEXT
  5
34
100
AcDbEntity
  8
1
  6
CONTINUOUS
 62
     1
100
AcDbText
 10
606.3239
 20
17.9807
 30
0.0
 40
2.400048
  1
        
  7
MONOTXT
 72
     1
 11
615.5241
 21
20.3807
 31
0.0
210
0.0
220
0.0
230
1.0
100
AcDbText
 73
     3
  0
TEXT
  5
35
100
AcDbEntity
  8
1
  6
CONTINUOUS
 62
     1
100
AcDbText
 10
606.3239
 20
13.1567
 30
0.0
 40
2.400048
  1
        
  7
MONOTXT
 72
     1
 11
615.5241
 21
15.5567
 31
0.0
210
0.0
220
0.0
230
1.0
100
AcDbText
 73
     3
  0
LINE
  5
36
100
AcDbEntity
  8
1
  6
CONTINUOUS
 62
     3
100
AcDbLine
 10
87.2513
 20
417.8184
 30
0.0
 11
87.2513
 21
175.4184
 31
0.0
  0
LINE
  5
37
100
AcDbEntity
  8
1
  6
CONTINUOUS
 62
     3
100
AcDbLine
 10
298.4513
 20
417.8184
 30
0.0
 11
298.4513
 21
175.4184
 31
0.0
  0
LINE
  5
38
100
AcDbEntity
  8
1
  6
CONTINUOUS
 62
     3
100
AcDbLine
 10
87.2513
 20
417.8184
 30
0.0
 11
298.4513
 21
417.8184
 31
0.0
  0
LINE
  5
39
100
AcDbEntity
  8
1
  6
CONTINUOUS
 62
     3
100
AcDbLine
 10
87.2513
 20
175.4184
 30
0.0
 11
298.4513
 21
175.4184
 31
0.0
  0
LINE
  5
3A
100
AcDbEntity
  8
1
  6
CONTINUOUS
 62
     3
100
AcDbLine
 10
106.4513
 20
456.1221
 30
0.0
 11
106.4513
 21
258.2184
 31
0.0
  0
LINE
  5
3B
100
AcDbEntity
  8
1
  6
CONTINUOUS
 62
     3
100
AcDbLine
 10
114.2513
 20
456.044
 30
0.0
 11
114.2513
 21
264.2184
 31
0.0
  0
LINE
  5
3C
100
AcDbEntity
  8
1
  6
CONTINUOUS
 62
     3
100
AcDbLine
 10
101.6513
 20
420.5184
 30
0.0
 11
119.0513
 21
420.5184
 31
0.0
  0
LINE
  5
3D
100
AcDbEntity
  8
1
  6
CONTINUOUS
 62
     3
100
AcDbLine
 10
101.6513
 20
415.1184
 30
0.0
 11
119.0513
 21
415.1184
 31
0.0
  0
LINE
  5
3E
100
AcDbEntity
  8
1
  6
CONTINUOUS
 62
     3
100
AcDbLine
 10
104.0513
 20
424.1184
 30
0.0
 11
116.6513
 21
424.1184
 31
0.0
  0
LINE
  5
3F
100
AcDbEntity
  8
1
  6
CONTINUOUS
 62
     3
100
AcDbLine
 10
104.0513
 20
411.5184
 30
0.0
 11
116.6513
 21
411.5184
 31
0.0
  0
LINE
  5
40
100
AcDbEntity
  8
1
  6
CONTINUOUS
 62
     3
100
AcDbLine
 10
101.6513
 20
420.5184
 30
0.0
 11
101.6513
 21
415.1184
 31
0.0
  0
LINE
  5
41
100
AcDbEntity
  8
1
  6
CONTINUOUS
 62
     3
100
AcDbLine
 10
119.0513
 20
420.5184
 30
0.0
 11
119.0513
 21
415.1184
 31
0.0
  0
LINE
  5
42
100
AcDbEntity
  8
1
  6
CONTINUOUS
 62
     3
100
AcDbLine
 10
104.0513
 20
424.1184
 30
0.0
 11
104.0513
 21
420.5184
 31
0.0
  0
LINE
  5
43
100
AcDbEntity
  8
1
  6
CONTINUOUS
 62
     3
100
AcDbLine
 10
116.6513
 20
424.1184
 30
0.0
 11
116.6513
 21
420.5184
 31
0.0
  0
LINE
  5
44
100
AcDbEntity
  8
1
  6
CONTINUOUS
 62
     3
100
AcDbLine
 10
104.0513
 20
411.5184
 30
0.0
 11
104.0513
 21
415.1184
 31
0.0
  0
LINE
  5
45
100
AcDbEntity
  8
1
  6
CONTINUOUS
 62
     3
100
AcDbLine
 10
116.6513
 20
411.5184
 30
0.0
 11
116.6513
 21
415.1184
 31
0.0
  0
LINE
  5
46
100
AcDbEntity
  8
1
  6
CONTINUOUS
 62
     3
100
AcDbLine
 10
110.3513
 20
437.6379
 30
0.0
 11
110.3513
 21
455.0379
 31
0.0
  0
CIRCLE
  5
47
100
AcDbEntity
  8
1
  6
CONTINUOUS
 62
     3
100
AcDbCircle
 10
110.4189
 20
462.8376
 30
0.0
 40
7.8
210
0.0
220
0.0
230
1.0
  0
LINE
  5
48
100
AcDbEntity
  8
1
  6
CONTINUOUS
 62
     3
100
AcDbLine
 10
108.2513
 20
437.6379
 30
0.0
 11
112.4513
 21
437.6379
 31
0.0
  0
LINE
  5
49
100
AcDbEntity
  8
1
  6
CONTINUOUS
 62
     3
100
AcDbLine
 10
108.7013
 20
437.0379
 30
0.0
 11
112.0013
 21
437.0379
 31
0.0
  0
LINE
  5
4A
100
AcDbEntity
  8
1
  6
CONTINUOUS
 62
     3
100
AcDbLine
 10
109.3013
 20
436.4379
 30
0.0
 11
111.4013
 21
436.4379
 31
0.0
  0
LINE
  5
4B
100
AcDbEntity
  8
1
  6
CONTINUOUS
 62
     3
100
AcDbLine
 10
109.7513
 20
435.8379
 30
0.0
 11
110.9513
 21
435.8379
 31
0.0
  0
LINE
  5
4C
100
AcDbEntity
  8
1
  6
CONTINUOUS
 62
     3
100
AcDbLine
 10
110.0513
 20
435.2379
 30
0.0
 11
110.6513
 21
435.2379
 31
0.0
  0
LINE
  5
4D
100
AcDbEntity
  8
1
  6
CONTINUOUS
 62
     3
100
AcDbLine
 10
106.4513
 20
258.2184
 30
0.0
 11
149.6513
 21
258.2184
 31
0.0
  0
LINE
  5
4E
100
AcDbEntity
  8
1
  6
CONTINUOUS
 62
     3
100
AcDbLine
 10
114.2513
 20
264.2184
 30
0.0
 11
141.8513
 21
264.2184
 31
0.0
  0
LINE
  5
4F
100
AcDbEntity
  8
1
  6
CONTINUOUS
 62
     3
100
AcDbLine
 10
141.8513
 20
264.2184
 30
0.0
 11
141.8513
 21
308.0184
 31
0.0
  0
LINE
  5
50
100
AcDbEntity
  8
1
  6
CONTINUOUS
 62
     3
100
AcDbLine
 10
149.6513
 20
258.2184
 30
0.0
 11
149.6513
 21
303.8184
 31
0.0
  0
LINE
  5
51
100
AcDbEntity
  8
1
  6
CONTINUOUS
 62
     3
100
AcDbLine
 10
141.8513
 20
308.0184
 30
0.0
 11
161.6513
 21
308.0184
 31
0.0
  0
LINE
  5
52
100
AcDbEntity
  8
1
  6
CONTINUOUS
 62
     3
100
AcDbLine
 10
149.6513
 20
303.8184
 30
0.0
 11
154.4513
 21
303.8184
 31
0.0
  0
LINE
  5
53
100
AcDbEntity
  8
1
  6
CONTINUOUS
 62
     3
100
AcDbLine
 10
152.6513
 20
299.9184
 30
0.0
 11
154.4513
 21
299.9184
 31
0.0
  0
LINE
  5
54
100
AcDbEntity
  8
1
  6
CONTINUOUS
 62
     3
100
AcDbLine
 10
152.6513
 20
296.0184
 30
0.0
 11
154.4513
 21
296.0184
 31
0.0
  0
LINE
  5
55
100
AcDbEntity
  8
1
  6
CONTINUOUS
 62
     3
100
AcDbLine
 10
152.6513
 20
292.1184
 30
0.0
 11
154.4513
 21
292.1184
 31
0.0
  0
LINE
  5
56
100
AcDbEntity
  8
1
  6
CONTINUOUS
 62
     3
100
AcDbLine
 10
152.6513
 20
288.2184
 30
0.0
 11
154.4513
 21
288.2184
 31
0.0
  0
ARC
  5
57
100
AcDbEntity
  8
1
  6
CONTINUOUS
 62
     3
100
AcDbCircle
 10
154.367755
 20
301.8684
 30
0.0
 40
1.951789
210
0.0
220
0.0
230
1.0
100
AcDbArc
 50
272.453244
 51
87.546753
  0
ARC
  5
58
100
AcDbEntity
  8
1
  6
CONTINUOUS
 62
     3
100
AcDbCircle
 10
154.367755
 20
297.9684
 30
0.0
 40
1.951789
210
0.0
220
0.0
230
1.0
100
AcDbArc
 50
272.453244
 51
87.546753
  0
ARC
  5
59
100
AcDbEntity
  8
1
  6
CONTINUOUS
 62
     3
100
AcDbCircle
 10
154.367755
 20
294.0684
 30
0.0
 40
1.951789
210
0.0
220
0.0
230
1.0
100
AcDbArc
 50
272.453244
 51
87.546753
  0
ARC
  5
5A
100
AcDbEntity
  8
1
  6
CONTINUOUS
 62
     3
100
AcDbCircle
 10
154.367755
 20
290.1684
 30
0.0
 40
1.951789
210
0.0
220
0.0
230
1.0
100
AcDbArc
 50
272.453244
 51
87.546753
  0
LINE
  5
5B
100
AcDbEntity
  8
1
  6
CONTINUOUS
 62
     3
100
AcDbLine
 10
152.6513
 20
288.2184
 30
0.0
 11
152.6513
 21
284.6184
 31
0.0
  0
LINE
  5
5C
100
AcDbEntity
  8
1
  6
CONTINUOUS
 62
     3
100
AcDbLine
 10
152.0513
 20
282.8184
 30
0.0
 11
153.2513
 21
282.8184
 31
0.0
  0
LINE
  5
5D
100
AcDbEntity
  8
1
  6
CONTINUOUS
 62
     3
100
AcDbLine
 10
150.5513
 20
284.6184
 30
0.0
 11
154.7513
 21
284.6184
 31
0.0
  0
LINE
  5
5E
100
AcDbEntity
  8
1
  6
CONTINUOUS
 62
     3
100
AcDbLine
 10
151.0013
 20
284.0184
 30
0.0
 11
154.3013
 21
284.0184
 31
0.0
  0
LINE
  5
5F
100
AcDbEntity
  8
1
  6
CONTINUOUS
 62
     3
100
AcDbLine
 10
151.6013
 20
283.4184
 30
0.0
 11
153.7013
 21
283.4184
 31
0.0
  0
LINE
  5
60
100
AcDbEntity
  8
1
  6
CONTINUOUS
 62
     3
100
AcDbLine
 10
152.3513
 20
282.2184
 30
0.0
 11
152.9513
 21
282.2184
 31
0.0
  0
CIRCLE
  5
61
100
AcDbEntity
  8
1
  6
CONTINUOUS
 62
     3
100
AcDbCircle
 10
161.6513
 20
308.0184
 30
0.0
 40
0.9
210
0.0
220
0.0
230
1.0
  0
LINE
  5
62
100
AcDbEntity
  8
1
  6
CONTINUOUS
 62
     3
100
AcDbLine
 10
161.6513
 20
308.9184
 30
0.0
 11
161.6513
 21
320.0184
 31
0.0
  0
INSERT
  5
68
100
AcDbEntity
  8
1
  6
CONTINUOUS
 62
     1
100
AcDbBlockReference
  2
LDR
 10
161.6513
 20
320.0184
 30
0.0
 41
240.0
 42
240.0
 50
90.0
210
0.0
220
0.0
230
1.0
  0
INSERT
  5
69
100
AcDbEntity
  8
1
  6
CONTINUOUS
 62
     1
100
AcDbBlockReference
  2
LDR
 10
161.6513
 20
308.9184
 30
0.0
 41
240.0
 42
240.0
 50
270.0
210
0.0
220
0.0
230
1.0
  0
LINE
  5
6A
100
AcDbEntity
  8
1
  6
CONTINUOUS
 62
     3
100
AcDbLine
 10
173.0513
 20
314.4684
 30
0.0
 11
161.6513
 21
314.4684
 31
0.0
  0
CIRCLE
  5
6B
100
AcDbEntity
  8
1
  6
CONTINUOUS
 62
     3
100
AcDbCircle
 10
173.0513
 20
314.4684
 30
0.0
 40
0.9
210
0.0
220
0.0
230
1.0
  0
LINE
  5
6C
100
AcDbEntity
  8
1
  6
CONTINUOUS
 62
     3
100
AcDbLine
 10
173.0513
 20
314.4684
 30
0.0
 11
173.0513
 21
294.0684
 31
0.0
  0
LINE
  5
6D
100
AcDbEntity
  8
1
  6
CONTINUOUS
 62
     3
100
AcDbLine
 10
173.0513
 20
294.0684
 30
0.0
 11
161.6513
 21
294.0684
 31
0.0
  0
LINE
  5
6E
100
AcDbEntity
  8
1
  6
CONTINUOUS
 62
     3
100
AcDbLine
 10
161.6513
 20
286.8684
 30
0.0
 11
161.6513
 21
301.2684
 31
0.0
  0
INSERT
  5
6F
100
AcDbEntity
  8
1
  6
CONTINUOUS
 62
     1
100
AcDbBlockReference
  2
LDR
 10
161.6513
 20
301.2684
 30
0.0
 41
240.0
 42
240.0
 50
90.0
210
0.0
220
0.0
230
1.0
  0
INSERT
  5
70
100
AcDbEntity
  8
1
  6
CONTINUOUS
 62
     1
100
AcDbBlockReference
  2
LDR
 10
161.6513
 20
286.8684
 30
0.0
 41
240.0
 42
240.0
 50
270.0
210
0.0
220
0.0
230
1.0
  0
CIRCLE
  5
71
100
AcDbEntity
  8
1
  6
CONTINUOUS
 62
     3
100
AcDbCircle
 10
161.568
 20
285.943
 30
0.0
 40
0.9
210
0.0
220
0.0
230
1.0
  0
CIRCLE
  5
72
100
AcDbEntity
  8
1
  6
CONTINUOUS
 62
     3
100
AcDbCircle
 10
173.0513
 20
294.0684
 30
0.0
 40
0.9
210
0.0
220
0.0
230
1.0
  0
LINE
  5
73
100
AcDbEntity
  8
1
  6
CONTINUOUS
 62
     3
100
AcDbLine
 10
185.0513
 20
304.2684
 30
0.0
 11
174.8513
 21
304.2684
 31
0.0
  0
LINE
  5
74
100
AcDbEntity
  8
1
  6
CONTINUOUS
 62
     3
100
AcDbLine
 10
171.2513
 20
304.2684
 30
0.0
 11
161.0513
 21
304.2684
 31
0.0
  0
ARC
  5
75
100
AcDbEntity
  8
1
  6
CONTINUOUS
 62
     3
100
AcDbCircle
 10
173.0513
 20
306.150803
 30
0.0
 40
2.604504
210
0.0
220
0.0
230
1.0
100
AcDbArc
 50
313.718078
 51
226.281922
  0
CIRCLE
  5
76
100
AcDbEntity
  8
1
  6
CONTINUOUS
 62
     3
100
AcDbCircle
 10
161.0513
 20
304.2684
 30
0.0
 40
0.9
210
0.0
220
0.0
230
1.0
  0
CIRCLE
  5
77
100
AcDbEntity
  8
1
  6
CONTINUOUS
 62
     3
100
AcDbCircle
 10
185.0513
 20
304.2684
 30
0.0
 40
0.9
210
0.0
220
0.0
230
1.0
  0
LINE
  5
78
100
AcDbEntity
  8
1
  6
CONTINUOUS
 62
     3
100
AcDbLine
 10
185.0513
 20
304.2684
 30
0.0
 11
185.0513
 21
324.0684
 31
0.0
  0
LINE
  5
79
100
AcDbEntity
  8
1
  6
CONTINUOUS
 62
     3
100
AcDbLine
 10
185.0513
 20
324.0684
 30
0.0
 11
174.8513
 21
324.0684
 31
0.0
  0
LINE
  5
7A
100
AcDbEntity
  8
1
  6
CONTINUOUS
 62
     3
100
AcDbLine
 10
171.2513
 20
324.0684
 30
0.0
 11
161.0513
 21
324.0684
 31
0.0
  0
ARC
  5
7B
100
AcDbEntity
  8
1
  6
CONTINUOUS
 62
     3
100
AcDbCircle
 10
173.0513
 20
325.950803
 30
0.0
 40
2.604504
210
0.0
220
0.0
230
1.0
100
AcDbArc
 50
313.718078
 51
226.281922
  0
CIRCLE
  5
7C
100
AcDbEntity
  8
1
  6
CONTINUOUS
 62
     3
100
AcDbCircle
 10
161.0513
 20
324.0684
 30
0.0
 40
0.9
210
0.0
220
0.0
230
1.0
  0
LINE
  5
7D
100
AcDbEntity
  8
1
  6
CONTINUOUS
 62
     3
100
AcDbLine
 10
173.0513
 20
314.4684
 30
0.0
 11
173.0513
 21
346.2684
 31
0.0
  0
CIRCLE
  5
7E
100
AcDbEntity
  8
1
  6
CONTINUOUS
 62
     3
100
AcDbCircle
 10
185.0513
 20
324.0684
 30
0.0
 40
0.9
210
0.0
220
0.0
230
1.0
  0
LINE
  5
7F
100
AcDbEntity
  8
1
  6
CONTINUOUS
 62
     3
100
AcDbLine
 10
173.0513
 20
337.5684
 30
0.0
 11
162.2513
 21
337.5684
 31
0.0
  0
CIRCLE
  5
80
100
AcDbEntity
  8
1
  6
CONTINUOUS
 62
     3
100
AcDbCircle
 10
162.2513
 20
337.5684
 30
0.0
 40
0.9
210
0.0
220
0.0
230
1.0
  0
LINE
  5
81
100
AcDbEntity
  8
1
  6
CONTINUOUS
 62
     3
100
AcDbLine
 10
162.2513
 20
337.5684
 30
0.0
 11
154.2624
 21
340.1641
 31
0.0
  0
LINE
  5
82
100
AcDbEntity
  8
1
  6
CONTINUOUS
 62
     3
100
AcDbLine
 10
153.8513
 20
337.5684
 30
0.0
 11
147.8513
 21
337.5684
 31
0.0
  0
CIRCLE
  5
83
100
AcDbEntity
  8
1
  6
CONTINUOUS
 62
     3
100
AcDbCircle
 10
153.8513
 20
337.5684
 30
0.0
 40
0.9
210
0.0
220
0.0
230
1.0
  0
CIRCLE
  5
84
100
AcDbEntity
  8
1
  6
CONTINUOUS
 62
     3
100
AcDbCircle
 10
147.8513
 20
337.5684
 30
0.0
 40
0.9
210
0.0
220
0.0
230
1.0
  0
LINE
  5
85
100
AcDbEntity
  8
1
  6
CONTINUOUS
 62
     3
100
AcDbLine
 10
147.8513
 20
337.5684
 30
0.0
 11
147.8513
 21
331.5684
 31
0.0
  0
LINE
  5
86
100
AcDbEntity
  8
1
  6
CONTINUOUS
 62
     3
100
AcDbLine
 10
147.8513
 20
331.5684
 30
0.0
 11
152.6513
 21
331.5684
 31
0.0
  0
LINE
  5
87
100
AcDbEntity
  8
1
  6
CONTINUOUS
 62
     3
100
AcDbLine
 10
150.8513
 20
327.6684
 30
0.0
 11
152.6513
 21
327.6684
 31
0.0
  0
LINE
  5
88
100
AcDbEntity
  8
1
  6
CONTINUOUS
 62
     3
100
AcDbLine
 10
150.8513
 20
323.7684
 30
0.0
 11
152.6513
 21
323.7684
 31
0.0
  0
LINE
  5
89
100
AcDbEntity
  8
1
  6
CONTINUOUS
 62
     3
100
AcDbLine
 10
150.8513
 20
319.8684
 30
0.0
 11
152.6513
 21
319.8684
 31
0.0
  0
LINE
  5
8A
100
AcDbEntity
  8
1
  6
CONTINUOUS
 62
     3
100
AcDbLine
 10
150.8513
 20
315.9684
 30
0.0
 11
152.6513
 21
315.9684
 31
0.0
  0
ARC
  5
8B
100
AcDbEntity
  8
1
  6
CONTINUOUS
 62
     3
100
AcDbCircle
 10
152.567755
 20
329.6184
 30
0.0
 40
1.951789
210
0.0
220
0.0
230
1.0
100
AcDbArc
 50
272.453244
 51
87.546753
  0
ARC
  5
8C
100
AcDbEntity
  8
1
  6
CONTINUOUS
 62
     3
100
AcDbCircle
 10
152.567755
 20
325.7184
 30
0.0
 40
1.951789
210
0.0
220
0.0
230
1.0
100
AcDbArc
 50
272.453244
 51
87.546753
  0
ARC
  5
8D
100
AcDbEntity
  8
1
  6
CONTINUOUS
 62
     3
100
AcDbCircle
 10
152.567755
 20
321.8184
 30
0.0
 40
1.951789
210
0.0
220
0.0
230
1.0
100
AcDbArc
 50
272.453244
 51
87.546753
  0
ARC
  5
8E
100
AcDbEntity
  8
1
  6
CONTINUOUS
 62
     3
100
AcDbCircle
 10
152.567755
 20
317.9184
 30
0.0
 40
1.951789
210
0.0
220
0.0
230
1.0
100
AcDbArc
 50
272.453244
 51
87.546753
  0
LINE
  5
8F
100
AcDbEntity
  8
1
  6
CONTINUOUS
 62
     3
100
AcDbLine
 10
150.8513
 20
315.9684
 30
0.0
 11
150.8513
 21
312.3684
 31
0.0
  0
LINE
  5
90
100
AcDbEntity
  8
1
  6
CONTINUOUS
 62
     3
100
AcDbLine
 10
150.2513
 20
310.5684
 30
0.0
 11
151.4513
 21
310.5684
 31
0.0
  0
LINE
  5
91
100
AcDbEntity
  8
1
  6
CONTINUOUS
 62
     3
100
AcDbLine
 10
148.7513
 20
312.3684
 30
0.0
 11
152.9513
 21
312.3684
 31
0.0
  0
LINE
  5
92
100
AcDbEntity
  8
1
  6
CONTINUOUS
 62
     3
100
AcDbLine
 10
149.2013
 20
311.7684
 30
0.0
 11
152.5013
 21
311.7684
 31
0.0
  0
LINE
  5
93
100
AcDbEntity
  8
1
  6
CONTINUOUS
 62
     3
100
AcDbLine
 10
149.8013
 20
311.1684
 30
0.0
 11
151.9013
 21
311.1684
 31
0.0
  0
LINE
  5
94
100
AcDbEntity
  8
1
  6
CONTINUOUS
 62
     3
100
AcDbLine
 10
150.5513
 20
309.9684
 30
0.0
 11
151.1513
 21
309.9684
 31
0.0
  0
LINE
  5
95
100
AcDbEntity
  8
1
  6
CONTINUOUS
 62
     3
100
AcDbLine
 10
173.0513
 20
357.0684
 30
0.0
 11
173.0513
 21
364.2684
 31
0.0
  0
LINE
  5
96
100
AcDbEntity
  8
1
  6
CONTINUOUS
 62
     3
100
AcDbLine
 10
173.0513
 20
364.2684
 30
0.0
 11
201.8513
 21
364.2684
 31
0.0
  0
CIRCLE
  5
97
100
AcDbEntity
  8
1
  6
CONTINUOUS
 62
     3
100
AcDbCircle
 10
201.8513
 20
364.2684
 30
0.0
 40
0.9
210
0.0
220
0.0
230
1.0
  0
ARC
  5
98
100
AcDbEntity
  8
1
  6
CONTINUOUS
 62
     3
100
AcDbCircle
 10
169.047745
 20
351.6684
 30
0.0
 40
6.502844
210
0.0
220
0.0
230
1.0
100
AcDbArc
 50
323.148894
 51
36.851106
  0
LINE
  5
99
100
AcDbEntity
  8
1
  6
HIDDEN
 62
     3
100
AcDbLine
 10
169.4513
 20
344.7684
 30
0.0
 11
176.6513
 21
344.7684
 31
0.0
  0
LINE
  5
9A
100
AcDbEntity
  8
1
  6
HIDDEN
 62
     3
100
AcDbLine
 10
169.4513
 20
358.5684
 30
0.0
 11
176.6513
 21
358.5684
 31
0.0
  0
LINE
  5
9B
100
AcDbEntity
  8
1
  6
HIDDEN
 62
     3
100
AcDbLine
 10
169.4513
 20
358.5684
 30
0.0
 11
169.4513
 21
344.7684
 31
0.0
  0
LINE
  5
9C
100
AcDbEntity
  8
1
  6
HIDDEN
 62
     3
100
AcDbLine
 10
176.6513
 20
358.5684
 30
0.0
 11
176.6513
 21
344.7684
 31
0.0
  0
LINE
  5
9D
100
AcDbEntity
  8
1
  6
CONTINUOUS
 62
     3
100
AcDbLine
 10
201.8513
 20
377.6184
 30
0.0
 11
201.8513
 21
247.8684
 31
0.0
  0
LINE
  5
9E
100
AcDbEntity
  8
1
  6
HIDDEN
 62
     3
100
AcDbLine
 10
150.8513
 20
333.9684
 30
0.0
 11
150.8513
 21
341.1684
 31
0.0
  0
LINE
  5
9F
100
AcDbEntity
  8
1
  6
HIDDEN
 62
     3
100
AcDbLine
 10
164.6513
 20
333.9684
 30
0.0
 11
164.6513
 21
341.1684
 31
0.0
  0
LINE
  5
A0
100
AcDbEntity
  8
1
  6
HIDDEN
 62
     3
100
AcDbLine
 10
150.8513
 20
341.1684
 30
0.0
 11
164.6513
 21
341.1684
 31
0.0
  0
LINE
  5
A1
100
AcDbEntity
  8
1
  6
HIDDEN
 62
     3
100
AcDbLine
 10
150.8513
 20
333.9684
 30
0.0
 11
164.6513
 21
333.9684
 31
0.0
  0
LINE
  5
A2
100
AcDbEntity
  8
1
  6
CONTINUOUS
 62
     3
100
AcDbLine
 10
185.0513
 20
304.2684
 30
0.0
 11
185.0513
 21
269.4684
 31
0.0
  0
LINE
  5
A3
100
AcDbEntity
  8
1
  6
CONTINUOUS
 62
     3
100
AcDbLine
 10
185.0513
 20
269.4684
 30
0.0
 11
201.8513
 21
269.4684
 31
0.0
  0
CIRCLE
  5
A4
100
AcDbEntity
  8
1
  6
CONTINUOUS
 62
     3
100
AcDbCircle
 10
185.0513
 20
269.4684
 30
0.0
 40
0.9
210
0.0
220
0.0
230
1.0
  0
ARC
  5
A5
100
AcDbEntity
  8
1
  6
CONTINUOUS
 62
     3
100
AcDbCircle
 10
202.367755
 20
255.8184
 30
0.0
 40
1.951789
210
0.0
220
0.0
230
1.0
100
AcDbArc
 50
272.453244
 51
87.546753
  0
LINE
  5
A6
100
AcDbEntity
  8
1
  6
CONTINUOUS
 62
     3
100
AcDbLine
 10
201.8513
 20
269.4684
 30
0.0
 11
202.4513
 21
269.4684
 31
0.0
  0
LINE
  5
A7
100
AcDbEntity
  8
1
  6
CONTINUOUS
 62
     3
100
AcDbLine
 10
200.6513
 20
265.5684
 30
0.0
 11
202.4513
 21
265.5684
 31
0.0
  0
LINE
  5
A8
100
AcDbEntity
  8
1
  6
CONTINUOUS
 62
     3
100
AcDbLine
 10
200.6513
 20
261.6684
 30
0.0
 11
202.4513
 21
261.6684
 31
0.0
  0
LINE
  5
A9
100
AcDbEntity
  8
1
  6
CONTINUOUS
 62
     3
100
AcDbLine
 10
200.6513
 20
257.7684
 30
0.0
 11
202.4513
 21
257.7684
 31
0.0
  0
LINE
  5
AA
100
AcDbEntity
  8
1
  6
CONTINUOUS
 62
     3
100
AcDbLine
 10
178.4513
 20
253.8684
 30
0.0
 11
202.4513
 21
253.8684
 31
0.0
  0
ARC
  5
AB
100
AcDbEntity
  8
1
  6
CONTINUOUS
 62
     3
100
AcDbCircle
 10
202.367755
 20
267.5184
 30
0.0
 40
1.951789
210
0.0
220
0.0
230
1.0
100
AcDbArc
 50
272.453244
 51
87.546753
  0
ARC
  5
AC
100
AcDbEntity
  8
1
  6
CONTINUOUS
 62
     3
100
AcDbCircle
 10
202.367755
 20
263.6184
 30
0.0
 40
1.951789
210
0.0
220
0.0
230
1.0
100
AcDbArc
 50
272.453244
 51
87.546753
  0
ARC
  5
AD
100
AcDbEntity
  8
1
  6
CONTINUOUS
 62
     3
100
AcDbCircle
 10
202.367755
 20
259.7184
 30
0.0
 40
1.951789
210
0.0
220
0.0
230
1.0
100
AcDbArc
 50
272.453244
 51
87.546753
  0
LINE
  5
AE
100
AcDbEntity
  8
1
  6
CONTINUOUS
 62
     3
100
AcDbLine
 10
177.4013
 20
249.6684
 30
0.0
 11
179.5013
 21
249.6684
 31
0.0
  0
LINE
  5
AF
100
AcDbEntity
  8
1
  6
CONTINUOUS
 62
     3
100
AcDbLine
 10
178.4513
 20
253.8684
 30
0.0
 11
178.4513
 21
250.8684
 31
0.0
  0
LINE
  5
B0
100
AcDbEntity
  8
1
  6
CONTINUOUS
 62
     3
100
AcDbLine
 10
177.8513
 20
249.0684
 30
0.0
 11
179.0513
 21
249.0684
 31
0.0
  0
LINE
  5
B1
100
AcDbEntity
  8
1
  6
CONTINUOUS
 62
     3
100
AcDbLine
 10
176.3513
 20
250.8684
 30
0.0
 11
180.5513
 21
250.8684
 31
0.0
  0
LINE
  5
B2
100
AcDbEntity
  8
1
  6
CONTINUOUS
 62
     3
100
AcDbLine
 10
176.8013
 20
250.2684
 30
0.0
 11
180.1013
 21
250.2684
 31
0.0
  0
LINE
  5
B3
100
AcDbEntity
  8
1
  6
CONTINUOUS
 62
     3
100
AcDbLine
 10
178.1513
 20
248.4684
 30
0.0
 11
178.7513
 21
248.4684
 31
0.0
  0
CIRCLE
  5
B4
100
AcDbEntity
  8
1
  6
CONTINUOUS
 62
     3
100
AcDbCircle
 10
201.8513
 20
378.5184
 30
0.0
 40
0.9
210
0.0
220
0.0
230
1.0
  0
CIRCLE
  5
B5
100
AcDbEntity
  8
1
  6
CONTINUOUS
 62
     3
100
AcDbCircle
 10
201.8513
 20
388.2684
 30
0.0
 40
0.9
210
0.0
220
0.0
230
1.0
  0
ARC
  5
B6
100
AcDbEntity
  8
1
  6
CONTINUOUS
 62
     3
100
AcDbCircle
 10
193.433436
 20
383.3934
 30
0.0
 40
10.963821
210
0.0
220
0.0
230
1.0
100
AcDbArc
 50
338.742742
 51
21.257258
  0
LINE
  5
B7
100
AcDbEntity
  8
1
  6
CONTINUOUS
 62
     3
100
AcDbLine
 10
201.8513
 20
409.7184
 30
0.0
 11
292.4513
 21
409.7184
 31
0.0
  0
LINE
  5
B8
100
AcDbEntity
  8
1
  6
CONTINUOUS
 62
     3
100
AcDbLine
 10
237.8513
 20
401.9184
 30
0.0
 11
285.2513
 21
401.9184
 31
0.0
  0
LINE
  5
B9
100
AcDbEntity
  8
1
  6
CONTINUOUS
 62
     3
100
AcDbLine
 10
201.8513
 20
389.1684
 30
0.0
 11
201.8513
 21
401.9184
 31
0.0
  0
LINE
  5
BA
100
AcDbEntity
  8
1
  6
CONTINUOUS
 62
     3
100
AcDbLine
 10
201.8513
 20
401.9184
 30
0.0
 11
201.8513
 21
409.7184
 31
0.0
  0
LINE
  5
BB
100
AcDbEntity
  8
1
  6
CONTINUOUS
 62
     3
100
AcDbLine
 10
201.8513
 20
242.3184
 30
0.0
 11
201.8513
 21
178.4184
 31
0.0
  0
CIRCLE
  5
BC
100
AcDbEntity
  8
1
  6
CONTINUOUS
 62
     3
100
AcDbCircle
 10
201.8513
 20
243.2184
 30
0.0
 40
0.9
210
0.0
220
0.0
230
1.0
  0
ARC
  5
BD
100
AcDbEntity
  8
1
  6
CONTINUOUS
 62
     3
100
AcDbCircle
 10
201.8513
 20
242.3934
 30
0.0
 40
5.475
210
0.0
220
0.0
230
1.0
100
AcDbArc
 50
48.887911
 51
131.112092
  0
LINE
  5
BE
100
AcDbEntity
  8
1
  6
CONTINUOUS
 62
     3
100
AcDbLine
 10
237.8513
 20
389.1684
 30
0.0
 11
237.8513
 21
401.9184
 31
0.0
  0
LINE
  5
BF
100
AcDbEntity
  8
1
  6
CONTINUOUS
 62
     3
100
AcDbLine
 10
237.8513
 20
377.6184
 30
0.0
 11
237.8513
 21
247.8684
 31
0.0
  0
CIRCLE
  5
C0
100
AcDbEntity
  8
1
  6
CONTINUOUS
 62
     3
100
AcDbCircle
 10
237.8513
 20
378.5184
 30
0.0
 40
0.9
210
0.0
220
0.0
230
1.0
  0
CIRCLE
  5
C1
100
AcDbEntity
  8
1
  6
CONTINUOUS
 62
     3
100
AcDbCircle
 10
237.8513
 20
388.2684
 30
0.0
 40
0.9
210
0.0
220
0.0
230
1.0
  0
ARC
  5
C2
100
AcDbEntity
  8
1
  6
CONTINUOUS
 62
     3
100
AcDbCircle
 10
229.433436
 20
383.3934
 30
0.0
 40
10.963821
210
0.0
220
0.0
230
1.0
100
AcDbArc
 50
338.742742
 51
21.257258
  0
LINE
  5
C3
100
AcDbEntity
  8
1
  6
CONTINUOUS
 62
     3
100
AcDbLine
 10
237.8513
 20
242.3184
 30
0.0
 11
237.8513
 21
178.4184
 31
0.0
  0
CIRCLE
  5
C4
100
AcDbEntity
  8
1
  6
CONTINUOUS
 62
     3
100
AcDbCircle
 10
237.8513
 20
243.2184
 30
0.0
 40
0.9
210
0.0
220
0.0
230
1.0
  0
ARC
  5
C5
100
AcDbEntity
  8
1
  6
CONTINUOUS
 62
     3
100
AcDbCircle
 10
237.8513
 20
242.3934
 30
0.0
 40
5.475
210
0.0
220
0.0
230
1.0
100
AcDbArc
 50
48.887911
 51
131.112092
  0
LINE
  5
C6
100
AcDbEntity
  8
1
  6
CONTINUOUS
 62
     3
100
AcDbLine
 10
285.2513
 20
401.9184
 30
0.0
 11
285.2513
 21
167.6184
 31
0.0
  0
LINE
  5
C7
100
AcDbEntity
  8
1
  6
CONTINUOUS
 62
     3
100
AcDbLine
 10
292.4513
 20
409.7184
 30
0.0
 11
292.4513
 21
167.6184
 31
0.0
  0
LINE
  5
C8
100
AcDbEntity
  8
1
  6
CONTINUOUS
 62
     3
100
AcDbLine
 10
282.8513
 20
165.2184
 30
0.0
 11
294.8513
 21
165.2184
 31
0.0
  0
LINE
  5
C9
100
AcDbEntity
  8
1
  6
CONTINUOUS
 62
     3
100
AcDbLine
 10
288.8513
 20
195.8184
 30
0.0
 11
288.8513
 21
167.6184
 31
0.0
  0
LINE
  5
CA
100
AcDbEntity
  8
1
  6
CONTINUOUS
 62
     3
100
AcDbLine
 10
294.8513
 20
165.2184
 30
0.0
 11
294.8513
 21
167.6184
 31
0.0
  0
LINE
  5
CB
100
AcDbEntity
  8
1
  6
CONTINUOUS
 62
     3
100
AcDbLine
 10
282.8513
 20
165.2184
 30
0.0
 11
282.8513
 21
167.6184
 31
0.0
  0
LINE
  5
CC
100
AcDbEntity
  8
1
  6
CONTINUOUS
 62
     3
100
AcDbLine
 10
288.8513
 20
195.8184
 30
0.0
 11
287.3513
 21
195.8184
 31
0.0
  0
LINE
  5
CD
100
AcDbEntity
  8
1
  6
CONTINUOUS
 62
     3
100
AcDbLine
 10
273.8513
 20
195.8184
 30
0.0
 11
283.1513
 21
195.8184
 31
0.0
  0
LINE
  5
CE
100
AcDbEntity
  8
1
  6
CONTINUOUS
 62
     3
100
AcDbLine
 10
273.8513
 20
195.8184
 30
0.0
 11
273.8513
 21
190.4184
 31
0.0
  0
ARC
  5
CF
100
AcDbEntity
  8
1
  6
CONTINUOUS
 62
     3
100
AcDbCircle
 10
285.2513
 20
195.841338
 30
0.0
 40
2.100125
210
0.0
220
0.0
230
1.0
100
AcDbArc
 50
180.625817
 51
359.374183
  0
LINE
  5
D0
100
AcDbEntity
  8
1
  6
CONTINUOUS
 62
     3
100
AcDbLine
 10
271.0425
 20
190.4184
 30
0.0
 11
284.2425
 21
190.4184
 31
0.0
  0
LINE
  5
D1
100
AcDbEntity
  8
1
  6
CONTINUOUS
 62
     3
100
AcDbLine
 10
271.0425
 20
187.4184
 30
0.0
 11
284.2425
 21
187.4184
 31
0.0
  0
LINE
  5
D2
100
AcDbEntity
  8
1
  6
CONTINUOUS
 62
     3
100
AcDbLine
 10
271.0425
 20
190.4184
 30
0.0
 11
271.0425
 21
187.4184
 31
0.0
  0
LINE
  5
D3
100
AcDbEntity
  8
1
  6
CONTINUOUS
 62
     3
100
AcDbLine
 10
284.2425
 20
190.4184
 30
0.0
 11
284.2425
 21
187.4184
 31
0.0
  0
CIRCLE
  5
D4
100
AcDbEntity
  8
1
  6
CONTINUOUS
 62
     3
100
AcDbCircle
 10
272.2425
 20
188.9184
 30
0.0
 40
0.6
210
0.0
220
0.0
230
1.0
  0
CIRCLE
  5
D5
100
AcDbEntity
  8
1
  6
CONTINUOUS
 62
     3
100
AcDbCircle
 10
274.6425
 20
188.9184
 30
0.0
 40
0.6
210
0.0
220
0.0
230
1.0
  0
CIRCLE
  5
D6
100
AcDbEntity
  8
1
  6
CONTINUOUS
 62
     3
100
AcDbCircle
 10
277.0425
 20
188.9184
 30
0.0
 40
0.6
210
0.0
220
0.0
230
1.0
  0
CIRCLE
  5
D7
100
AcDbEntity
  8
1
  6
CONTINUOUS
 62
     3
100
AcDbCircle
 10
279.4425
 20
188.9184
 30
0.0
 40
0.6
210
0.0
220
0.0
230
1.0
  0
CIRCLE
  5
D8
100
AcDbEntity
  8
1
  6
CONTINUOUS
 62
     3
100
AcDbCircle
 10
281.8425
 20
188.9184
 30
0.0
 40
0.6
210
0.0
220
0.0
230
1.0
  0
LINE
  5
D9
100
AcDbEntity
  8
1
  6
CONTINUOUS
 62
     3
100
AcDbLine
 10
273.8513
 20
187.4184
 30
0.0
 11
273.8513
 21
183.2184
 31
0.0
  0
LINE
  5
DA
100
AcDbEntity
  8
1
  6
CONTINUOUS
 62
     3
100
AcDbLine
 10
272.8013
 20
182.0184
 30
0.0
 11
274.9013
 21
182.0184
 31
0.0
  0
LINE
  5
DB
100
AcDbEntity
  8
1
  6
CONTINUOUS
 62
     3
100
AcDbLine
 10
273.2513
 20
181.4184
 30
0.0
 11
274.4513
 21
181.4184
 31
0.0
  0
LINE
  5
DC
100
AcDbEntity
  8
1
  6
CONTINUOUS
 62
     3
100
AcDbLine
 10
271.7513
 20
183.2184
 30
0.0
 11
275.9513
 21
183.2184
 31
0.0
  0
LINE
  5
DD
100
AcDbEntity
  8
1
  6
CONTINUOUS
 62
     3
100
AcDbLine
 10
272.2013
 20
182.6184
 30
0.0
 11
275.5013
 21
182.6184
 31
0.0
  0
LINE
  5
DE
100
AcDbEntity
  8
1
  6
CONTINUOUS
 62
     3
100
AcDbLine
 10
273.5513
 20
180.8184
 30
0.0
 11
274.1513
 21
180.8184
 31
0.0
  0
LINE
  5
DF
100
AcDbEntity
  8
1
  6
CONTINUOUS
 62
     3
100
AcDbLine
 10
204.3973
 20
383.3934
 30
0.0
 11
213.3973
 21
383.3934
 31
0.0
  0
LINE
  5
E0
100
AcDbEntity
  8
1
  6
CONTINUOUS
 62
     3
100
AcDbLine
 10
214.5973
 20
383.3934
 30
0.0
 11
225.3973
 21
383.3934
 31
0.0
  0
LINE
  5
E1
100
AcDbEntity
  8
1
  6
CONTINUOUS
 62
     3
100
AcDbLine
 10
226.5973
 20
383.3934
 30
0.0
 11
239.1973
 21
383.3934
 31
0.0
  0
LINE
  5
E2
100
AcDbEntity
  8
1
  6
DASHED
 62
     3
100
AcDbLine
 10
195.8513
 20
395.3934
 30
0.0
 11
243.8513
 21
395.3934
 31
0.0
  0
LINE
  5
E3
100
AcDbEntity
  8
1
  6
DASHED
 62
     3
100
AcDbLine
 10
195.8513
 20
371.3934
 30
0.0
 11
243.8513
 21
371.3934
 31
0.0
  0
LINE
  5
E4
100
AcDbEntity
  8
1
  6
DASHED
 62
     3
100
AcDbLine
 10
195.8513
 20
395.3934
 30
0.0
 11
195.8513
 21
371.3934
 31
0.0
  0
LINE
  5
E5
100
AcDbEntity
  8
1
  6
DASHED
 62
     3
100
AcDbLine
 10
243.8513
 20
395.3934
 30
0.0
 11
243.8513
 21
371.3934
 31
0.0
  0
LINE
  5
E6
100
AcDbEntity
  8
1
  6
DASHED
 62
     3
100
AcDbLine
 10
139.1513
 20
368.4684
 30
0.0
 11
188.9513
 21
368.4684
 31
0.0
  0
LINE
  5
E7
100
AcDbEntity
  8
1
  6
DASHED
 62
     3
100
AcDbLine
 10
139.1513
 20
277.2684
 30
0.0
 11
188.9513
 21
277.2684
 31
0.0
  0
LINE
  5
E8
100
AcDbEntity
  8
1
  6
DASHED
 62
     3
100
AcDbLine
 10
139.1513
 20
368.4684
 30
0.0
 11
139.1513
 21
277.2684
 31
0.0
  0
LINE
  5
E9
100
AcDbEntity
  8
1
  6
DASHED
 62
     3
100
AcDbLine
 10
188.9513
 20
368.4684
 30
0.0
 11
188.9513
 21
277.2684
 31
0.0
  0
LINE
  5
EA
100
AcDbEntity
  8
1
  6
DASHED
 62
     3
100
AcDbLine
 10
172.1513
 20
273.0684
 30
0.0
 11
267.5513
 21
273.0684
 31
0.0
  0
LINE
  5
EB
100
AcDbEntity
  8
1
  6
DASHED
 62
     3
100
AcDbLine
 10
172.1513
 20
273.0684
 30
0.0
 11
172.1513
 21
237.0684
 31
0.0
  0
LINE
  5
EC
100
AcDbEntity
  8
1
  6
DASHED
 62
     3
100
AcDbLine
 10
267.5513
 20
273.0684
 30
0.0
 11
267.5513
 21
237.0684
 31
0.0
  0
LINE
  5
ED
100
AcDbEntity
  8
1
  6
CONTINUOUS
 62
     3
100
AcDbLine
 10
269.9513
 20
222.0684
 30
0.0
 11
269.9513
 21
167.6184
 31
0.0
  0
LINE
  5
EE
100
AcDbEntity
  8
1
  6
CONTINUOUS
 62
     3
100
AcDbLine
 10
169.7513
 20
222.0684
 30
0.0
 11
169.7513
 21
167.6184
 31
0.0
  0
LINE
  5
EF
100
AcDbEntity
  8
1
  6
CONTINUOUS
 62
     3
100
AcDbLine
 10
169.7513
 20
222.0684
 30
0.0
 11
193.4513
 21
222.0684
 31
0.0
  0
LINE
  5
F0
100
AcDbEntity
  8
1
  6
CONTINUOUS
 62
     3
100
AcDbLine
 10
185.3513
 20
207.6684
 30
0.0
 11
193.4513
 21
207.6684
 31
0.0
  0
LINE
  5
F1
100
AcDbEntity
  8
1
  6
CONTINUOUS
 62
     3
100
AcDbLine
 10
246.2513
 20
214.8684
 30
0.0
 11
261.5513
 21
214.8684
 31
0.0
  0
LINE
  5
F2
100
AcDbEntity
  8
1
  6
CONTINUOUS
 62
     3
100
AcDbLine
 10
246.2513
 20
200.4684
 30
0.0
 11
248.3513
 21
200.4684
 31
0.0
  0
CIRCLE
  5
F3
100
AcDbEntity
  8
1
  6
CONTINUOUS
 62
     3
100
AcDbCircle
 10
201.8513
 20
222.0684
 30
0.0
 40
0.9
210
0.0
220
0.0
230
1.0
  0
CIRCLE
  5
F4
100
AcDbEntity
  8
1
  6
CONTINUOUS
 62
     3
100
AcDbCircle
 10
201.8513
 20
207.6684
 30
0.0
 40
0.9
210
0.0
220
0.0
230
1.0
  0
CIRCLE
  5
F5
100
AcDbEntity
  8
1
  6
CONTINUOUS
 62
     3
100
AcDbCircle
 10
237.8513
 20
200.4684
 30
0.0
 40
0.9
210
0.0
220
0.0
230
1.0
  0
CIRCLE
  5
F6
100
AcDbEntity
  8
1
  6
CONTINUOUS
 62
     3
100
AcDbCircle
 10
237.8513
 20
214.8684
 30
0.0
 40
0.9
210
0.0
220
0.0
230
1.0
  0
CIRCLE
  5
F7
100
AcDbEntity
  8
1
  6
CONTINUOUS
 62
     3
100
AcDbCircle
 10
198.2513
 20
222.0684
 30
0.0
 40
0.9
210
0.0
220
0.0
230
1.0
  0
CIRCLE
  5
F8
100
AcDbEntity
  8
1
  6
CONTINUOUS
 62
     3
100
AcDbCircle
 10
198.2513
 20
207.6684
 30
0.0
 40
0.9
210
0.0
220
0.0
230
1.0
  0
CIRCLE
  5
F9
100
AcDbEntity
  8
1
  6
CONTINUOUS
 62
     3
100
AcDbCircle
 10
241.4513
 20
214.8684
 30
0.0
 40
0.9
210
0.0
220
0.0
230
1.0
  0
CIRCLE
  5
FA
100
AcDbEntity
  8
1
  6
CONTINUOUS
 62
     3
100
AcDbCircle
 10
241.4513
 20
200.4684
 30
0.0
 40
0.9
210
0.0
220
0.0
230
1.0
  0
LINE
  5
FB
100
AcDbEntity
  8
1
  6
CONTINUOUS
 62
     3
100
AcDbLine
 10
178.1513
 20
214.8684
 30
0.0
 11
193.4513
 21
214.8684
 31
0.0
  0
LINE
  5
FC
100
AcDbEntity
  8
1
  6
CONTINUOUS
 62
     3
100
AcDbLine
 10
198.2513
 20
214.8684
 30
0.0
 11
241.4513
 21
214.8684
 31
0.0
  0
LINE
  5
FD
100
AcDbEntity
  8
1
  6
CONTINUOUS
 62
     3
100
AcDbLine
 10
191.3513
 20
200.4684
 30
0.0
 11
193.4513
 21
200.4684
 31
0.0
  0
LINE
  5
FE
100
AcDbEntity
  8
1
  6
CONTINUOUS
 62
     3
100
AcDbLine
 10
198.2513
 20
200.4684
 30
0.0
 11
241.4513
 21
200.4684
 31
0.0
  0
LINE
  5
FF
100
AcDbEntity
  8
1
  6
CONTINUOUS
 62
     3
100
AcDbLine
 10
198.2513
 20
207.6684
 30
0.0
 11
241.4513
 21
207.6684
 31
0.0
  0
LINE
  5
100
100
AcDbEntity
  8
1
  6
CONTINUOUS
 62
     3
100
AcDbLine
 10
246.2513
 20
207.6684
 30
0.0
 11
254.3513
 21
207.6684
 31
0.0
  0
LINE
  5
101
100
AcDbEntity
  8
1
  6
CONTINUOUS
 62
     3
100
AcDbLine
 10
198.2513
 20
222.0684
 30
0.0
 11
241.4513
 21
222.0684
 31
0.0
  0
LINE
  5
102
100
AcDbEntity
  8
1
  6
CONTINUOUS
 62
     3
100
AcDbLine
 10
246.2513
 20
222.0684
 30
0.0
 11
269.9513
 21
222.0684
 31
0.0
  0
CIRCLE
  5
103
100
AcDbEntity
  8
1
  6
CONTINUOUS
 62
     3
100
AcDbCircle
 10
198.2513
 20
214.8684
 30
0.0
 40
0.9
210
0.0
220
0.0
230
1.0
  0
CIRCLE
  5
104
100
AcDbEntity
  8
1
  6
CONTINUOUS
 62
     3
100
AcDbCircle
 10
198.2513
 20
200.4684
 30
0.0
 40
0.9
210
0.0
220
0.0
230
1.0
  0
CIRCLE
  5
105
100
AcDbEntity
  8
1
  6
CONTINUOUS
 62
     3
100
AcDbCircle
 10
241.4513
 20
222.0684
 30
0.0
 40
0.9
210
0.0
220
0.0
230
1.0
  0
CIRCLE
  5
106
100
AcDbEntity
  8
1
  6
CONTINUOUS
 62
     3
100
AcDbCircle
 10
241.4513
 20
207.6684
 30
0.0
 40
0.9
210
0.0
220
0.0
230
1.0
  0
LINE
  5
107
100
AcDbEntity
  8
1
  6
DASHED
 62
     3
100
AcDbLine
 10
172.1513
 20
237.0684
 30
0.0
 11
201.8513
 21
237.0684
 31
0.0
  0
LINE
  5
108
100
AcDbEntity
  8
1
  6
DASHED
 62
     3
100
AcDbLine
 10
201.8513
 20
237.0684
 30
0.0
 11
237.8513
 21
237.0684
 31
0.0
  0
LINE
  5
109
100
AcDbEntity
  8
1
  6
DASHED
 62
     3
100
AcDbLine
 10
237.8513
 20
237.0684
 30
0.0
 11
267.5513
 21
237.0684
 31
0.0
  0
LINE
  5
10A
100
AcDbEntity
  8
1
  6
CONTINUOUS
 62
     3
100
AcDbLine
 10
178.1513
 20
214.8684
 30
0.0
 11
178.1513
 21
167.6184
 31
0.0
  0
LINE
  5
10B
100
AcDbEntity
  8
1
  6
CONTINUOUS
 62
     3
100
AcDbLine
 10
261.5513
 20
214.8684
 30
0.0
 11
261.5513
 21
167.6184
 31
0.0
  0
LINE
  5
10C
100
AcDbEntity
  8
1
  6
CONTINUOUS
 62
     3
100
AcDbLine
 10
185.3513
 20
207.6684
 30
0.0
 11
185.3513
 21
167.6184
 31
0.0
  0
LINE
  5
10D
100
AcDbEntity
  8
1
  6
CONTINUOUS
 62
     3
100
AcDbLine
 10
254.3513
 20
207.6684
 30
0.0
 11
254.3513
 21
167.6184
 31
0.0
  0
LINE
  5
10E
100
AcDbEntity
  8
1
  6
CONTINUOUS
 62
     3
100
AcDbLine
 10
191.3513
 20
200.4684
 30
0.0
 11
191.3513
 21
167.6184
 31
0.0
  0
LINE
  5
10F
100
AcDbEntity
  8
1
  6
CONTINUOUS
 62
     3
100
AcDbLine
 10
248.3513
 20
200.4684
 30
0.0
 11
248.3513
 21
167.6184
 31
0.0
  0
LINE
  5
110
100
AcDbEntity
  8
1
  6
CONTINUOUS
 62
     3
100
AcDbLine
 10
167.3513
 20
165.2184
 30
0.0
 11
193.7513
 21
165.2184
 31
0.0
  0
LINE
  5
111
100
AcDbEntity
  8
1
  6
CONTINUOUS
 62
     3
100
AcDbLine
 10
245.9513
 20
165.2184
 30
0.0
 11
272.3513
 21
165.2184
 31
0.0
  0
LINE
  5
112
100
AcDbEntity
  8
1
  6
CONTINUOUS
 62
     3
100
AcDbLine
 10
167.3513
 20
165.2184
 30
0.0
 11
167.3513
 21
167.6184
 31
0.0
  0
LINE
  5
113
100
AcDbEntity
  8
1
  6
CONTINUOUS
 62
     3
100
AcDbLine
 10
193.7513
 20
165.2184
 30
0.0
 11
193.7513
 21
167.6184
 31
0.0
  0
LINE
  5
114
100
AcDbEntity
  8
1
  6
CONTINUOUS
 62
     3
100
AcDbLine
 10
245.9513
 20
165.2184
 30
0.0
 11
245.9513
 21
167.6184
 31
0.0
  0
LINE
  5
115
100
AcDbEntity
  8
1
  6
CONTINUOUS
 62
     3
100
AcDbLine
 10
272.3513
 20
165.2184
 30
0.0
 11
272.3513
 21
167.6184
 31
0.0
  0
CIRCLE
  5
116
100
AcDbEntity
  8
1
  6
CONTINUOUS
 62
     3
100
AcDbCircle
 10
193.4513
 20
222.0684
 30
0.0
 40
0.9
210
0.0
220
0.0
230
1.0
  0
CIRCLE
  5
117
100
AcDbEntity
  8
1
  6
CONTINUOUS
 62
     3
100
AcDbCircle
 10
193.4513
 20
214.8684
 30
0.0
 40
0.9
210
0.0
220
0.0
230
1.0
  0
CIRCLE
  5
118
100
AcDbEntity
  8
1
  6
CONTINUOUS
 62
     3
100
AcDbCircle
 10
193.4513
 20
207.6684
 30
0.0
 40
0.9
210
0.0
220
0.0
230
1.0
  0
CIRCLE
  5
119
100
AcDbEntity
  8
1
  6
CONTINUOUS
 62
     3
100
AcDbCircle
 10
193.4513
 20
200.4684
 30
0.0
 40
0.9
210
0.0
220
0.0
230
1.0
  0
CIRCLE
  5
11A
100
AcDbEntity
  8
1
  6
CONTINUOUS
 62
     3
100
AcDbCircle
 10
246.2513
 20
222.0684
 30
0.0
 40
0.9
210
0.0
220
0.0
230
1.0
  0
CIRCLE
  5
11B
100
AcDbEntity
  8
1
  6
CONTINUOUS
 62
     3
100
AcDbCircle
 10
246.2513
 20
214.8684
 30
0.0
 40
0.9
210
0.0
220
0.0
230
1.0
  0
CIRCLE
  5
11C
100
AcDbEntity
  8
1
  6
CONTINUOUS
 62
     3
100
AcDbCircle
 10
246.2513
 20
207.6684
 30
0.0
 40
0.9
210
0.0
220
0.0
230
1.0
  0
CIRCLE
  5
11D
100
AcDbEntity
  8
1
  6
CONTINUOUS
 62
     3
100
AcDbCircle
 10
246.2513
 20
200.4684
 30
0.0
 40
0.9
210
0.0
220
0.0
230
1.0
  0
ARC
  5
11E
100
AcDbEntity
  8
1
  6
CONTINUOUS
 62
     3
100
AcDbCircle
 10
195.8513
 20
220.837207
 30
0.0
 40
3.775001
210
0.0
220
0.0
230
1.0
100
AcDbArc
 50
53.414164
 51
126.585836
  0
ARC
  5
11F
100
AcDbEntity
  8
1
  6
CONTINUOUS
 62
     3
100
AcDbCircle
 10
195.8513
 20
213.637207
 30
0.0
 40
3.775001
210
0.0
220
0.0
230
1.0
100
AcDbArc
 50
53.414164
 51
126.585836
  0
ARC
  5
120
100
AcDbEntity
  8
1
  6
CONTINUOUS
 62
     3
100
AcDbCircle
 10
195.8513
 20
206.437207
 30
0.0
 40
3.775001
210
0.0
220
0.0
230
1.0
100
AcDbArc
 50
53.414164
 51
126.585836
  0
ARC
  5
121
100
AcDbEntity
  8
1
  6
CONTINUOUS
 62
     3
100
AcDbCircle
 10
195.8513
 20
199.237207
 30
0.0
 40
3.775001
210
0.0
220
0.0
230
1.0
100
AcDbArc
 50
53.414164
 51
126.585836
  0
ARC
  5
122
100
AcDbEntity
  8
1
  6
CONTINUOUS
 62
     3
100
AcDbCircle
 10
243.8513
 20
199.237207
 30
0.0
 40
3.775001
210
0.0
220
0.0
230
1.0
100
AcDbArc
 50
53.414164
 51
126.585836
  0
ARC
  5
123
100
AcDbEntity
  8
1
  6
CONTINUOUS
 62
     3
100
AcDbCircle
 10
243.8513
 20
206.437207
 30
0.0
 40
3.775001
210
0.0
220
0.0
230
1.0
100
AcDbArc
 50
53.414164
 51
126.585836
  0
ARC
  5
124
100
AcDbEntity
  8
1
  6
CONTINUOUS
 62
     3
100
AcDbCircle
 10
243.8513
 20
213.637207
 30
0.0
 40
3.775001
210
0.0
220
0.0
230
1.0
100
AcDbArc
 50
53.414164
 51
126.585836
  0
ARC
  5
125
100
AcDbEntity
  8
1
  6
CONTINUOUS
 62
     3
100
AcDbCircle
 10
243.8513
 20
220.837207
 30
0.0
 40
3.775001
210
0.0
220
0.0
230
1.0
100
AcDbArc
 50
53.414164
 51
126.585836
  0
LINE
  5
126
100
AcDbEntity
  8
1
  6
CONTINUOUS
 62
     3
100
AcDbLine
 10
195.8513
 20
224.0122
 30
0.0
 11
195.8513
 21
221.6122
 31
0.0
  0
LINE
  5
127
100
AcDbEntity
  8
1
  6
CONTINUOUS
 62
     3
100
AcDbLine
 10
195.8513
 20
220.4122
 30
0.0
 11
195.8513
 21
218.0122
 31
0.0
  0
LINE
  5
128
100
AcDbEntity
  8
1
  6
CONTINUOUS
 62
     3
100
AcDbLine
 10
243.8513
 20
224.0122
 30
0.0
 11
243.8513
 21
221.6122
 31
0.0
  0
LINE
  5
129
100
AcDbEntity
  8
1
  6
CONTINUOUS
 62
     3
100
AcDbLine
 10
243.8513
 20
220.4122
 30
0.0
 11
243.8513
 21
218.0122
 31
0.0
  0
TEXT
  5
12B
100
AcDbEntity
  8
1
  6
CONTINUOUS
 62
     7
100
AcDbText
 10
108.5289
 20
460.591
 30
0.0
 40
4.8
  1
P
  7
TXT
210
0.0
220
0.0
230
1.0
100
AcDbText
  0
LINE
  5
12C
100
AcDbEntity
  8
1
  6
CONTINUOUS
 62
     7
100
AcDbLine
 10
117.6957
 20
465.6463
 30
0.0
 11
170.1542
 21
501.2826
 31
0.0
  0
LINE
  5
12D
100
AcDbEntity
  8
1
  6
CONTINUOUS
 62
     7
100
AcDbLine
 10
170.1542
 20
501.2826
 30
0.0
 11
189.5943
 21
501.2826
 31
0.0
  0
LINE
  5
12E
100
AcDbEntity
  8
1
  6
CONTINUOUS
 62
     7
100
AcDbLine
 10
116.6513
 20
424.1184
 30
0.0
 11
148.77
 21
440.9986
 31
0.0
  0
LINE
  5
12F
100
AcDbEntity
  8
1
  6
CONTINUOUS
 62
     7
100
AcDbLine
 10
148.77
 20
440.9986
 30
0.0
 11
168.5989
 21
440.9986
 31
0.0
  0
LINE
  5
130
100
AcDbEntity
  8
1
  6
CONTINUOUS
 62
     7
100
AcDbLine
 10
178.7572
 20
368.4684
 30
0.0
 11
174.0422
 21
386.5486
 31
0.0
  0
LINE
  5
131
100
AcDbEntity
  8
1
  6
CONTINUOUS
 62
     7
100
AcDbLine
 10
174.0422
 20
386.5486
 30
0.0
 11
162.7669
 21
386.5486
 31
0.0
  0
LINE
  5
132
100
AcDbEntity
  8
1
  6
CONTINUOUS
 62
     7
100
AcDbLine
 10
243.8513
 20
379.5479
 30
0.0
 11
258.8011
 21
379.5479
 31
0.0
  0
LINE
  5
133
100
AcDbEntity
  8
1
  6
CONTINUOUS
 62
     7
100
AcDbLine
 10
158.8553
 20
338.6718
 30
0.0
 11
167.4325
 21
352.7118
 31
0.0
  0
LINE
  5
134
100
AcDbEntity
  8
1
  6
CONTINUOUS
 62
     7
100
AcDbLine
 10
167.4325
 20
352.7118
 30
0.0
 11
154.7387
 21
352.7118
 31
0.0
  0
LINE
  5
135
100
AcDbEntity
  8
1
  6
CONTINUOUS
 62
     7
100
AcDbLine
 10
150.714
 20
323.1532
 30
0.0
 11
61.6783
 21
303.7068
 31
0.0
  0
LINE
  5
136
100
AcDbEntity
  8
1
  6
CONTINUOUS
 62
     7
100
AcDbLine
 10
61.6783
 20
303.7068
 30
0.0
 11
153.0469
 21
295.5393
 31
0.0
  0
LINE
  5
137
100
AcDbEntity
  8
1
  6
CONTINUOUS
 62
     7
100
AcDbLine
 10
241.1206
 20
273.4144
 30
0.0
 11
244.9135
 21
292.3849
 31
0.0
  0
LINE
  5
138
100
AcDbEntity
  8
1
  6
CONTINUOUS
 62
     7
100
AcDbLine
 10
244.9135
 20
292.3849
 30
0.0
 11
251.5231
 21
292.3849
 31
0.0
  0
INSERT
  5
139
100
AcDbEntity
  8
1
  6
CONTINUOUS
 62
     1
100
AcDbBlockReference
  2
LDR
 10
117.6957
 20
465.6463
 30
0.0
 41
239.999999
 42
239.999999
 50
214.189195
210
0.0
220
0.0
230
1.0
  0
INSERT
  5
13A
100
AcDbEntity
  8
1
  6
CONTINUOUS
 62
     1
100
AcDbBlockReference
  2
LDR
 10
116.6513
 20
424.1184
 30
0.0
 41
239.999997
 42
239.999997
 50
207.724475
210
0.0
220
0.0
230
1.0
  0
INSERT
  5
13B
100
AcDbEntity
  8
1
  6
CONTINUOUS
 62
     1
100
AcDbBlockReference
  2
LDR
 10
116.6513
 20
424.1184
 30
0.0
 41
239.999997
 42
239.999997
 50
207.724475
210
0.0
220
0.0
230
1.0
  0
INSERT
  5
13C
100
AcDbEntity
  8
1
  6
CONTINUOUS
 62
     1
100
AcDbBlockReference
  2
LDR
 10
178.7572
 20
368.4684
 30
0.0
 41
240.000001
 42
240.000001
 50
284.616204
210
0.0
220
0.0
230
1.0
  0
INSERT
  5
13D
100
AcDbEntity
  8
1
  6
CONTINUOUS
 62
     1
100
AcDbBlockReference
  2
LDR
 10
178.7572
 20
368.4684
 30
0.0
 41
240.000001
 42
240.000001
 50
284.616204
210
0.0
220
0.0
230
1.0
  0
INSERT
  5
13E
100
AcDbEntity
  8
1
  6
CONTINUOUS
 62
     1
100
AcDbBlockReference
  2
LDR
 10
158.8553
 20
338.6718
 30
0.0
 41
239.999999
 42
239.999999
 50
238.578754
210
0.0
220
0.0
230
1.0
  0
INSERT
  5
13F
100
AcDbEntity
  8
1
  6
CONTINUOUS
 62
     1
100
AcDbBlockReference
  2
LDR
 10
158.8553
 20
338.6718
 30
0.0
 41
239.999999
 42
239.999999
 50
238.578754
210
0.0
220
0.0
230
1.0
  0
INSERT
  5
140
100
AcDbEntity
  8
1
  6
CONTINUOUS
 62
     1
100
AcDbBlockReference
  2
LDR
 10
243.8513
 20
379.5479
 30
0.0
 41
240.0
 42
240.0
 50
180.0
210
0.0
220
0.0
230
1.0
  0
INSERT
  5
141
100
AcDbEntity
  8
1
  6
CONTINUOUS
 62
     1
100
AcDbBlockReference
  2
LDR
 10
243.8513
 20
379.5479
 30
0.0
 41
240.0
 42
240.0
 50
180.0
210
0.0
220
0.0
230
1.0
  0
TEXT
  5
142
100
AcDbEntity
  8
1
  6
CONTINUOUS
 62
     7
100
AcDbText
 10
190.687
 20
500.05
 30
0.0
 40
3.0
  1
PHOTOCELL
  7
MONOTXT
210
0.0
220
0.0
230
1.0
100
AcDbText
  0
TEXT
  5
143
100
AcDbEntity
  8
1
  6
CONTINUOUS
 62
     7
100
AcDbText
 10
169.6383
 20
439.9589
 30
0.0
 40
3.0
  1
MEYERS HUB
  7
MONOTXT
210
0.0
220
0.0
230
1.0
100
AcDbText
  0
TEXT
  5
144
100
AcDbEntity
  8
1
  6
CONTINUOUS
 62
     7
100
AcDbText
 10
133.9265
 20
384.6749
 30
0.0
 40
3.0
  1
PHOTO-CELL
  7
MONOTXT
 11
133.9265
 21
387.6749
 31
0.0
210
0.0
220
0.0
230
1.0
100
AcDbText
 73
     3
  0
TEXT
  5
145
100
AcDbEntity
  8
1
  6
CONTINUOUS
 62
     7
100
AcDbText
 10
133.9265
 20
379.2749
 30
0.0
 40
3.0
  1
ISOLATION
  7
MONOTXT
 11
133.9265
 21
382.2749
 31
0.0
210
0.0
220
0.0
230
1.0
100
AcDbText
 73
     3
  0
TEXT
  5
146
100
AcDbEntity
  8
1
  6
CONTINUOUS
 62
     7
100
AcDbText
 10
133.9265
 20
373.8749
 30
0.0
 40
3.0
  1
SYSTEM
  7
MONOTXT
 11
133.9265
 21
376.8749
 31
0.0
210
0.0
220
0.0
230
1.0
100
AcDbText
 73
     3
  0
TEXT
  5
147
100
AcDbEntity
  8
1
  6
CONTINUOUS
 62
     7
100
AcDbText
 10
259.9822
 20
378.0507
 30
0.0
 40
3.0
  1
MAIN
  7
MONOTXT
 11
259.9822
 21
381.0507
 31
0.0
210
0.0
220
0.0
230
1.0
100
AcDbText
 73
     3
  0
TEXT
  5
148
100
AcDbEntity
  8
1
  6
CONTINUOUS
 62
     7
100
AcDbText
 10
259.9822
 20
372.6507
 30
0.0
 40
3.0
  1
BREAKER
  7
MONOTXT
 11
259.9822
 21
375.6507
 31
0.0
210
0.0
220
0.0
230
1.0
100
AcDbText
 73
     3
  0
TEXT
  5
149
100
AcDbEntity
  8
1
  6
CONTINUOUS
 62
     7
100
AcDbText
 10
142.4406
 20
351.3173
 30
0.0
 40
3.0
  1
HAND
  7
MONOTXT
 11
142.4406
 21
354.3173
 31
0.0
210
0.0
220
0.0
230
1.0
100
AcDbText
 73
     3
  0
TEXT
  5
14A
100
AcDbEntity
  8
1
  6
CONTINUOUS
 62
     7
100
AcDbText
 10
142.4406
 20
345.9173
 30
0.0
 40
3.0
  1
SWITCH
  7
MONOTXT
 11
142.4406
 21
348.9173
 31
0.0
210
0.0
220
0.0
230
1.0
100
AcDbText
 73
     3
  0
INSERT
  5
14B
100
AcDbEntity
  8
1
  6
CONTINUOUS
 62
     1
100
AcDbBlockReference
  2
LDR
 10
241.1206
 20
273.4144
 30
0.0
 41
239.999999
 42
239.999999
 50
258.693553
210
0.0
220
0.0
230
1.0
  0
TEXT
  5
14C
100
AcDbEntity
  8
1
  6
CONTINUOUS
 62
     7
100
AcDbText
 10
252.16
 20
291.1596
 30
0.0
 40
3.0
  1
HEAVY DUTY
  7
MONOTXT
 11
252.16
 21
294.1596
 31
0.0
210
0.0
220
0.0
230
1.0
100
AcDbText
 73
     3
  0
TEXT
  5
14D
100
AcDbEntity
  8
1
  6
CONTINUOUS
 62
     7
100
AcDbText
 10
252.16
 20
285.7596
 30
0.0
 40
3.0
  1
LIGHTING
  7
MONOTXT
 11
252.16
 21
288.7596
 31
0.0
210
0.0
220
0.0
230
1.0
100
AcDbText
 73
     3
  0
TEXT
  5
14E
100
AcDbEntity
  8
1
  6
CONTINUOUS
 62
     7
100
AcDbText
 10
252.16
 20
280.3596
 30
0.0
 40
3.0
  1
CONTACTOR
  7
MONOTXT
 11
252.16
 21
283.3596
 31
0.0
210
0.0
220
0.0
230
1.0
100
AcDbText
 73
     3
  0
INSERT
  5
14F
100
AcDbEntity
  8
1
  6
CONTINUOUS
 62
     1
100
AcDbBlockReference
  2
LDR
 10
150.714
 20
323.1532
 30
0.0
 41
240.0
 42
240.0
 50
12.320564
210
0.0
220
0.0
230
1.0
  0
INSERT
  5
150
100
AcDbEntity
  8
1
  6
CONTINUOUS
 62
     1
100
AcDbBlockReference
  2
LDR
 10
150.714
 20
323.1532
 30
0.0
 41
240.0
 42
240.0
 50
12.320564
210
0.0
220
0.0
230
1.0
  0
INSERT
  5
151
100
AcDbEntity
  8
1
  6
CONTINUOUS
 62
     1
100
AcDbBlockReference
  2
LDR
 10
153.0469
 20
295.5393
 30
0.0
 41
240.000001
 42
240.000001
 50
354.89187
210
0.0
220
0.0
230
1.0
  0
INSERT
  5
152
100
AcDbEntity
  8
1
  6
CONTINUOUS
 62
     1
100
AcDbBlockReference
  2
LDR
 10
153.0469
 20
295.5393
 30
0.0
 41
240.000001
 42
240.000001
 50
354.89187
210
0.0
220
0.0
230
1.0
  0
LINE
  5
153
100
AcDbEntity
  8
1
  6
CONTINUOUS
 62
     7
100
AcDbLine
 10
180.3612
 20
165.2203
 30
0.0
 11
189.0632
 21
153.5747
 31
0.0
  0
LINE
  5
154
100
AcDbEntity
  8
1
  6
CONTINUOUS
 62
     7
100
AcDbLine
 10
189.0632
 20
153.5747
 30
0.0
 11
201.0577
 21
153.5747
 31
0.0
  0
INSERT
  5
155
100
AcDbEntity
  8
1
  6
CONTINUOUS
 62
     1
100
AcDbBlockReference
  2
LDR
 10
180.3612
 20
165.2203
 30
0.0
 41
239.999998
 42
239.999998
 50
126.768373
210
0.0
220
0.0
230
1.0
  0
LINE
  5
156
100
AcDbEntity
  8
1
  6
CONTINUOUS
 62
     7
100
AcDbLine
 10
258.6788
 20
165.2203
 30
0.0
 11
249.9768
 21
153.5747
 31
0.0
  0
LINE
  5
157
100
AcDbEntity
  8
1
  6
CONTINUOUS
 62
     7
100
AcDbLine
 10
249.9768
 20
153.5747
 30
0.0
 11
237.9823
 21
153.5747
 31
0.0
  0
INSERT
  5
158
100
AcDbEntity
  8
1
  6
CONTINUOUS
 62
     1
100
AcDbBlockReference
  2
LDR
 10
258.6788
 20
165.2203
 30
0.0
 41
239.999998
 42
-239.999998
 50
53.231627
210
0.0
220
0.0
230
1.0
  0
TEXT
  5
159
100
AcDbEntity
  8
1
  6
CONTINUOUS
 62
     7
100
AcDbText
 10
201.6457
 20
151.9863
 30
0.0
 40
3.0
  1
12OV OR 24OV
  7
MONOTXT
 11
201.6457
 21
154.9863
 31
0.0
210
0.0
220
0.0
230
1.0
100
AcDbText
 73
     3
  0
TEXT
  5
15A
100
AcDbEntity
  8
1
  6
CONTINUOUS
 62
     7
100
AcDbText
 10
201.6457
 20
146.5863
 30
0.0
 40
3.0
  1
CIRCUITS AS
  7
MONOTXT
 11
201.6457
 21
149.5863
 31
0.0
210
0.0
220
0.0
230
1.0
100
AcDbText
 73
     3
  0
TEXT
  5
15B
100
AcDbEntity
  8
1
  6
CONTINUOUS
 62
     7
100
AcDbText
 10
201.6457
 20
141.1863
 30
0.0
 40
3.0
  1
REQUIRED
  7
MONOTXT
 11
201.6457
 21
144.1863
 31
0.0
210
0.0
220
0.0
230
1.0
100
AcDbText
 73
     3
  0
LINE
  5
15C
100
AcDbEntity
  8
1
  6
CONTINUOUS
 62
     7
100
AcDbLine
 10
289.2
 20
165.2203
 30
0.0
 11
297.902
 21
153.5747
 31
0.0
  0
LINE
  5
15D
100
AcDbEntity
  8
1
  6
CONTINUOUS
 62
     7
100
AcDbLine
 10
297.902
 20
153.5747
 30
0.0
 11
303.4717
 21
153.5747
 31
0.0
  0
INSERT
  5
15E
100
AcDbEntity
  8
1
  6
CONTINUOUS
 62
     1
100
AcDbBlockReference
  2
LDR
 10
289.2
 20
165.2203
 30
0.0
 41
239.999998
 42
239.999998
 50
126.768373
210
0.0
220
0.0
230
1.0
  0
TEXT
  5
15F
100
AcDbEntity
  8
1
  6
CONTINUOUS
 62
     7
100
AcDbText
 10
303.5617
 20
152.2251
 30
0.0
 40
3.0
  1
120/240V 3-WIRE
  7
MONOTXT
 11
303.5617
 21
155.2251
 31
0.0
210
0.0
220
0.0
230
1.0
100
AcDbText
 73
     3
  0
TEXT
  5
160
100
AcDbEntity
  8
1
  6
CONTINUOUS
 62
     7
100
AcDbText
 10
303.5617
 20
146.8251
 30
0.0
 40
3.0
  1
SINGLE 0 60Hz
  7
MONOTXT
 11
303.5617
 21
149.8251
 31
0.0
210
0.0
220
0.0
230
1.0
100
AcDbText
 73
     3
  0
TEXT
  5
161
100
AcDbEntity
  8
1
  6
CONTINUOUS
 62
     7
100
AcDbText
 10
303.5617
 20
141.4251
 30
0.0
 40
3.0
  1
SERVICE
  7
MONOTXT
 11
303.5617
 21
144.4251
 31
0.0
210
0.0
220
0.0
230
1.0
100
AcDbText
 73
     3
  0
TEXT
  5
162
100
AcDbEntity
  8
1
  6
CONTINUOUS
 62
     7
100
AcDbText
 10
322.1658
 20
146.8431
 30
0.0
 40
3.0
  1
/
  7
MONOTXT
210
0.0
220
0.0
230
1.0
100
AcDbText
  0
TEXT
  5
163
100
AcDbEntity
  8
1
  6
CONTINUOUS
 62
     7
100
AcDbText
 10
336.7728
 20
146.356
 30
0.0
 40
3.0
  1
-
  7
MONOTXT
210
0.0
220
0.0
230
1.0
100
AcDbText
  0
LINE
  5
164
100
AcDbEntity
  8
1
  6
CONTINUOUS
 62
     3
100
AcDbLine
 10
374.9252
 20
416.3574
 30
0.0
 11
374.9252
 21
173.9574
 31
0.0
  0
LINE
  5
165
100
AcDbEntity
  8
1
  6
CONTINUOUS
 62
     3
100
AcDbLine
 10
586.1252
 20
416.3574
 30
0.0
 11
586.1252
 21
173.9574
 31
0.0
  0
LINE
  5
166
100
AcDbEntity
  8
1
  6
CONTINUOUS
 62
     3
100
AcDbLine
 10
374.9252
 20
416.3574
 30
0.0
 11
586.1252
 21
416.3574
 31
0.0
  0
LINE
  5
167
100
AcDbEntity
  8
1
  6
CONTINUOUS
 62
     3
100
AcDbLine
 10
374.9252
 20
173.9574
 30
0.0
 11
586.1252
 21
173.9574
 31
0.0
  0
LINE
  5
168
100
AcDbEntity
  8
1
  6
CONTINUOUS
 62
     3
100
AcDbLine
 10
394.1252
 20
454.6611
 30
0.0
 11
394.1252
 21
256.7574
 31
0.0
  0
LINE
  5
169
100
AcDbEntity
  8
1
  6
CONTINUOUS
 62
     3
100
AcDbLine
 10
401.9252
 20
454.583
 30
0.0
 11
401.9252
 21
262.7574
 31
0.0
  0
LINE
  5
16A
100
AcDbEntity
  8
1
  6
CONTINUOUS
 62
     3
100
AcDbLine
 10
389.3252
 20
419.0574
 30
0.0
 11
406.7252
 21
419.0574
 31
0.0
  0
LINE
  5
16B
100
AcDbEntity
  8
1
  6
CONTINUOUS
 62
     3
100
AcDbLine
 10
389.3252
 20
413.6574
 30
0.0
 11
406.7252
 21
413.6574
 31
0.0
  0
LINE
  5
16C
100
AcDbEntity
  8
1
  6
CONTINUOUS
 62
     3
100
AcDbLine
 10
391.7252
 20
422.6574
 30
0.0
 11
404.3252
 21
422.6574
 31
0.0
  0
LINE
  5
16D
100
AcDbEntity
  8
1
  6
CONTINUOUS
 62
     3
100
AcDbLine
 10
391.7252
 20
410.0574
 30
0.0
 11
404.3252
 21
410.0574
 31
0.0
  0
LINE
  5
16E
100
AcDbEntity
  8
1
  6
CONTINUOUS
 62
     3
100
AcDbLine
 10
389.3252
 20
419.0574
 30
0.0
 11
389.3252
 21
413.6574
 31
0.0
  0
LINE
  5
16F
100
AcDbEntity
  8
1
  6
CONTINUOUS
 62
     3
100
AcDbLine
 10
406.7252
 20
419.0574
 30
0.0
 11
406.7252
 21
413.6574
 31
0.0
  0
LINE
  5
170
100
AcDbEntity
  8
1
  6
CONTINUOUS
 62
     3
100
AcDbLine
 10
391.7252
 20
422.6574
 30
0.0
 11
391.7252
 21
419.0574
 31
0.0
  0
LINE
  5
171
100
AcDbEntity
  8
1
  6
CONTINUOUS
 62
     3
100
AcDbLine
 10
404.3252
 20
422.6574
 30
0.0
 11
404.3252
 21
419.0574
 31
0.0
  0
LINE
  5
172
100
AcDbEntity
  8
1
  6
CONTINUOUS
 62
     3
100
AcDbLine
 10
391.7252
 20
410.0574
 30
0.0
 11
391.7252
 21
413.6574
 31
0.0
  0
LINE
  5
173
100
AcDbEntity
  8
1
  6
CONTINUOUS
 62
     3
100
AcDbLine
 10
404.3252
 20
410.0574
 30
0.0
 11
404.3252
 21
413.6574
 31
0.0
  0
LINE
  5
174
100
AcDbEntity
  8
1
  6
CONTINUOUS
 62
     3
100
AcDbLine
 10
398.0252
 20
436.1769
 30
0.0
 11
398.0252
 21
453.5769
 31
0.0
  0
CIRCLE
  5
175
100
AcDbEntity
  8
1
  6
CONTINUOUS
 62
     3
100
AcDbCircle
 10
398.0928
 20
461.3766
 30
0.0
 40
7.8
210
0.0
220
0.0
230
1.0
  0
LINE
  5
176
100
AcDbEntity
  8
1
  6
CONTINUOUS
 62
     3
100
AcDbLine
 10
395.9252
 20
436.1769
 30
0.0
 11
400.1252
 21
436.1769
 31
0.0
  0
LINE
  5
177
100
AcDbEntity
  8
1
  6
CONTINUOUS
 62
     3
100
AcDbLine
 10
396.3752
 20
435.5769
 30
0.0
 11
399.6752
 21
435.5769
 31
0.0
  0
LINE
  5
178
100
AcDbEntity
  8
1
  6
CONTINUOUS
 62
     3
100
AcDbLine
 10
396.9752
 20
434.9769
 30
0.0
 11
399.0752
 21
434.9769
 31
0.0
  0
LINE
  5
179
100
AcDbEntity
  8
1
  6
CONTINUOUS
 62
     3
100
AcDbLine
 10
397.4252
 20
434.3769
 30
0.0
 11
398.6252
 21
434.3769
 31
0.0
  0
LINE
  5
17A
100
AcDbEntity
  8
1
  6
CONTINUOUS
 62
     3
100
AcDbLine
 10
397.7252
 20
433.7769
 30
0.0
 11
398.3252
 21
433.7769
 31
0.0
  0
LINE
  5
17B
100
AcDbEntity
  8
1
  6
CONTINUOUS
 62
     3
100
AcDbLine
 10
394.1252
 20
256.7574
 30
0.0
 11
437.3252
 21
256.7574
 31
0.0
  0
LINE
  5
17C
100
AcDbEntity
  8
1
  6
CONTINUOUS
 62
     3
100
AcDbLine
 10
401.9252
 20
262.7574
 30
0.0
 11
429.5252
 21
262.7574
 31
0.0
  0
LINE
  5
17D
100
AcDbEntity
  8
1
  6
CONTINUOUS
 62
     3
100
AcDbLine
 10
429.5252
 20
262.7574
 30
0.0
 11
429.5252
 21
306.5574
 31
0.0
  0
LINE
  5
17E
100
AcDbEntity
  8
1
  6
CONTINUOUS
 62
     3
100
AcDbLine
 10
437.3252
 20
256.7574
 30
0.0
 11
437.3252
 21
302.3574
 31
0.0
  0
LINE
  5
17F
100
AcDbEntity
  8
1
  6
CONTINUOUS
 62
     3
100
AcDbLine
 10
429.5252
 20
306.5574
 30
0.0
 11
449.3252
 21
306.5574
 31
0.0
  0
LINE
  5
180
100
AcDbEntity
  8
1
  6
CONTINUOUS
 62
     3
100
AcDbLine
 10
437.3252
 20
302.3574
 30
0.0
 11
442.1252
 21
302.3574
 31
0.0
  0
LINE
  5
181
100
AcDbEntity
  8
1
  6
CONTINUOUS
 62
     3
100
AcDbLine
 10
440.3252
 20
298.4574
 30
0.0
 11
442.1252
 21
298.4574
 31
0.0
  0
LINE
  5
182
100
AcDbEntity
  8
1
  6
CONTINUOUS
 62
     3
100
AcDbLine
 10
440.3252
 20
294.5574
 30
0.0
 11
442.1252
 21
294.5574
 31
0.0
  0
LINE
  5
183
100
AcDbEntity
  8
1
  6
CONTINUOUS
 62
     3
100
AcDbLine
 10
440.3252
 20
290.6574
 30
0.0
 11
442.1252
 21
290.6574
 31
0.0
  0
LINE
  5
184
100
AcDbEntity
  8
1
  6
CONTINUOUS
 62
     3
100
AcDbLine
 10
440.3252
 20
286.7574
 30
0.0
 11
442.1252
 21
286.7574
 31
0.0
  0
ARC
  5
185
100
AcDbEntity
  8
1
  6
CONTINUOUS
 62
     3
100
AcDbCircle
 10
442.041655
 20
300.4074
 30
0.0
 40
1.951789
210
0.0
220
0.0
230
1.0
100
AcDbArc
 50
272.453244
 51
87.546753
  0
ARC
  5
186
100
AcDbEntity
  8
1
  6
CONTINUOUS
 62
     3
100
AcDbCircle
 10
442.041655
 20
296.5074
 30
0.0
 40
1.951789
210
0.0
220
0.0
230
1.0
100
AcDbArc
 50
272.453244
 51
87.546753
  0
ARC
  5
187
100
AcDbEntity
  8
1
  6
CONTINUOUS
 62
     3
100
AcDbCircle
 10
442.041655
 20
292.6074
 30
0.0
 40
1.951789
210
0.0
220
0.0
230
1.0
100
AcDbArc
 50
272.453244
 51
87.546753
  0
ARC
  5
188
100
AcDbEntity
  8
1
  6
CONTINUOUS
 62
     3
100
AcDbCircle
 10
442.041655
 20
288.7074
 30
0.0
 40
1.951789
210
0.0
220
0.0
230
1.0
100
AcDbArc
 50
272.453244
 51
87.546753
  0
LINE
  5
189
100
AcDbEntity
  8
1
  6
CONTINUOUS
 62
     3
100
AcDbLine
 10
440.3252
 20
286.7574
 30
0.0
 11
440.3252
 21
283.1574
 31
0.0
  0
LINE
  5
18A
100
AcDbEntity
  8
1
  6
CONTINUOUS
 62
     3
100
AcDbLine
 10
439.7252
 20
281.3574
 30
0.0
 11
440.9252
 21
281.3574
 31
0.0
  0
LINE
  5
18B
100
AcDbEntity
  8
1
  6
CONTINUOUS
 62
     3
100
AcDbLine
 10
438.2252
 20
283.1574
 30
0.0
 11
442.4252
 21
283.1574
 31
0.0
  0
LINE
  5
18C
100
AcDbEntity
  8
1
  6
CONTINUOUS
 62
     3
100
AcDbLine
 10
438.6752
 20
282.5574
 30
0.0
 11
441.9752
 21
282.5574
 31
0.0
  0
LINE
  5
18D
100
AcDbEntity
  8
1
  6
CONTINUOUS
 62
     3
100
AcDbLine
 10
439.2752
 20
281.9574
 30
0.0
 11
441.3752
 21
281.9574
 31
0.0
  0
LINE
  5
18E
100
AcDbEntity
  8
1
  6
CONTINUOUS
 62
     3
100
AcDbLine
 10
440.0252
 20
280.7574
 30
0.0
 11
440.6252
 21
280.7574
 31
0.0
  0
CIRCLE
  5
18F
100
AcDbEntity
  8
1
  6
CONTINUOUS
 62
     3
100
AcDbCircle
 10
449.3252
 20
306.5574
 30
0.0
 40
0.9
210
0.0
220
0.0
230
1.0
  0
LINE
  5
190
100
AcDbEntity
  8
1
  6
CONTINUOUS
 62
     3
100
AcDbLine
 10
449.3252
 20
307.4574
 30
0.0
 11
449.3252
 21
318.5574
 31
0.0
  0
INSERT
  5
191
100
AcDbEntity
  8
1
  6
CONTINUOUS
 62
     1
100
AcDbBlockReference
  2
LDR
 10
449.3252
 20
318.5574
 30
0.0
 41
240.0
 42
240.0
 50
90.0
210
0.0
220
0.0
230
1.0
  0
INSERT
  5
192
100
AcDbEntity
  8
1
  6
CONTINUOUS
 62
     1
100
AcDbBlockReference
  2
LDR
 10
449.3252
 20
307.4574
 30
0.0
 41
240.0
 42
240.0
 50
270.0
210
0.0
220
0.0
230
1.0
  0
LINE
  5
193
100
AcDbEntity
  8
1
  6
CONTINUOUS
 62
     3
100
AcDbLine
 10
460.7252
 20
313.0074
 30
0.0
 11
449.3252
 21
313.0074
 31
0.0
  0
CIRCLE
  5
194
100
AcDbEntity
  8
1
  6
CONTINUOUS
 62
     3
100
AcDbCircle
 10
460.7252
 20
313.0074
 30
0.0
 40
0.9
210
0.0
220
0.0
230
1.0
  0
LINE
  5
195
100
AcDbEntity
  8
1
  6
CONTINUOUS
 62
     3
100
AcDbLine
 10
460.7252
 20
313.0074
 30
0.0
 11
460.7252
 21
292.6074
 31
0.0
  0
LINE
  5
196
100
AcDbEntity
  8
1
  6
CONTINUOUS
 62
     3
100
AcDbLine
 10
460.7252
 20
292.6074
 30
0.0
 11
449.3252
 21
292.6074
 31
0.0
  0
LINE
  5
197
100
AcDbEntity
  8
1
  6
CONTINUOUS
 62
     3
100
AcDbLine
 10
449.3252
 20
285.4074
 30
0.0
 11
449.3252
 21
299.8074
 31
0.0
  0
INSERT
  5
198
100
AcDbEntity
  8
1
  6
CONTINUOUS
 62
     1
100
AcDbBlockReference
  2
LDR
 10
449.3252
 20
299.8074
 30
0.0
 41
240.0
 42
240.0
 50
90.0
210
0.0
220
0.0
230
1.0
  0
INSERT
  5
199
100
AcDbEntity
  8
1
  6
CONTINUOUS
 62
     1
100
AcDbBlockReference
  2
LDR
 10
449.3252
 20
285.4074
 30
0.0
 41
240.0
 42
240.0
 50
270.0
210
0.0
220
0.0
230
1.0
  0
CIRCLE
  5
19A
100
AcDbEntity
  8
1
  6
CONTINUOUS
 62
     3
100
AcDbCircle
 10
449.2419
 20
284.482
 30
0.0
 40
0.9
210
0.0
220
0.0
230
1.0
  0
CIRCLE
  5
19B
100
AcDbEntity
  8
1
  6
CONTINUOUS
 62
     3
100
AcDbCircle
 10
460.7252
 20
292.6074
 30
0.0
 40
0.9
210
0.0
220
0.0
230
1.0
  0
LINE
  5
19C
100
AcDbEntity
  8
1
  6
CONTINUOUS
 62
     3
100
AcDbLine
 10
472.7252
 20
302.8074
 30
0.0
 11
462.5252
 21
302.8074
 31
0.0
  0
LINE
  5
19D
100
AcDbEntity
  8
1
  6
CONTINUOUS
 62
     3
100
AcDbLine
 10
458.9252
 20
302.8074
 30
0.0
 11
448.7252
 21
302.8074
 31
0.0
  0
ARC
  5
19E
100
AcDbEntity
  8
1
  6
CONTINUOUS
 62
     3
100
AcDbCircle
 10
460.7252
 20
304.689803
 30
0.0
 40
2.604504
210
0.0
220
0.0
230
1.0
100
AcDbArc
 50
313.718078
 51
226.281922
  0
CIRCLE
  5
19F
100
AcDbEntity
  8
1
  6
CONTINUOUS
 62
     3
100
AcDbCircle
 10
448.7252
 20
302.8074
 30
0.0
 40
0.9
210
0.0
220
0.0
230
1.0
  0
CIRCLE
  5
1A0
100
AcDbEntity
  8
1
  6
CONTINUOUS
 62
     3
100
AcDbCircle
 10
472.7252
 20
302.8074
 30
0.0
 40
0.9
210
0.0
220
0.0
230
1.0
  0
LINE
  5
1A1
100
AcDbEntity
  8
1
  6
CONTINUOUS
 62
     3
100
AcDbLine
 10
472.7252
 20
302.8074
 30
0.0
 11
472.7252
 21
322.6074
 31
0.0
  0
LINE
  5
1A2
100
AcDbEntity
  8
1
  6
CONTINUOUS
 62
     3
100
AcDbLine
 10
472.7252
 20
322.6074
 30
0.0
 11
462.5252
 21
322.6074
 31
0.0
  0
LINE
  5
1A3
100
AcDbEntity
  8
1
  6
CONTINUOUS
 62
     3
100
AcDbLine
 10
458.9252
 20
322.6074
 30
0.0
 11
448.7252
 21
322.6074
 31
0.0
  0
ARC
  5
1A4
100
AcDbEntity
  8
1
  6
CONTINUOUS
 62
     3
100
AcDbCircle
 10
460.7252
 20
324.489803
 30
0.0
 40
2.604504
210
0.0
220
0.0
230
1.0
100
AcDbArc
 50
313.718078
 51
226.281922
  0
CIRCLE
  5
1A5
100
AcDbEntity
  8
1
  6
CONTINUOUS
 62
     3
100
AcDbCircle
 10
448.7252
 20
322.6074
 30
0.0
 40
0.9
210
0.0
220
0.0
230
1.0
  0
LINE
  5
1A6
100
AcDbEntity
  8
1
  6
CONTINUOUS
 62
     3
100
AcDbLine
 10
460.7252
 20
313.0074
 30
0.0
 11
460.7252
 21
344.8074
 31
0.0
  0
CIRCLE
  5
1A7
100
AcDbEntity
  8
1
  6
CONTINUOUS
 62
     3
100
AcDbCircle
 10
472.7252
 20
322.6074
 30
0.0
 40
0.9
210
0.0
220
0.0
230
1.0
  0
LINE
  5
1A8
100
AcDbEntity
  8
1
  6
CONTINUOUS
 62
     3
100
AcDbLine
 10
460.7252
 20
336.1074
 30
0.0
 11
449.9252
 21
336.1074
 31
0.0
  0
CIRCLE
  5
1A9
100
AcDbEntity
  8
1
  6
CONTINUOUS
 62
     3
100
AcDbCircle
 10
449.9252
 20
336.1074
 30
0.0
 40
0.9
210
0.0
220
0.0
230
1.0
  0
LINE
  5
1AA
100
AcDbEntity
  8
1
  6
CONTINUOUS
 62
     3
100
AcDbLine
 10
449.9252
 20
336.1074
 30
0.0
 11
441.9363
 21
338.7031
 31
0.0
  0
LINE
  5
1AB
100
AcDbEntity
  8
1
  6
CONTINUOUS
 62
     3
100
AcDbLine
 10
441.5252
 20
336.1074
 30
0.0
 11
435.5252
 21
336.1074
 31
0.0
  0
CIRCLE
  5
1AC
100
AcDbEntity
  8
1
  6
CONTINUOUS
 62
     3
100
AcDbCircle
 10
441.5252
 20
336.1074
 30
0.0
 40
0.9
210
0.0
220
0.0
230
1.0
  0
CIRCLE
  5
1AD
100
AcDbEntity
  8
1
  6
CONTINUOUS
 62
     3
100
AcDbCircle
 10
435.5252
 20
336.1074
 30
0.0
 40
0.9
210
0.0
220
0.0
230
1.0
  0
LINE
  5
1AE
100
AcDbEntity
  8
1
  6
CONTINUOUS
 62
     3
100
AcDbLine
 10
435.5252
 20
336.1074
 30
0.0
 11
435.5252
 21
330.1074
 31
0.0
  0
LINE
  5
1AF
100
AcDbEntity
  8
1
  6
CONTINUOUS
 62
     3
100
AcDbLine
 10
435.5252
 20
330.1074
 30
0.0
 11
440.3252
 21
330.1074
 31
0.0
  0
LINE
  5
1B0
100
AcDbEntity
  8
1
  6
CONTINUOUS
 62
     3
100
AcDbLine
 10
438.5252
 20
326.2074
 30
0.0
 11
440.3252
 21
326.2074
 31
0.0
  0
LINE
  5
1B1
100
AcDbEntity
  8
1
  6
CONTINUOUS
 62
     3
100
AcDbLine
 10
438.5252
 20
322.3074
 30
0.0
 11
440.3252
 21
322.3074
 31
0.0
  0
LINE
  5
1B2
100
AcDbEntity
  8
1
  6
CONTINUOUS
 62
     3
100
AcDbLine
 10
438.5252
 20
318.4074
 30
0.0
 11
440.3252
 21
318.4074
 31
0.0
  0
LINE
  5
1B3
100
AcDbEntity
  8
1
  6
CONTINUOUS
 62
     3
100
AcDbLine
 10
438.5252
 20
314.5074
 30
0.0
 11
440.3252
 21
314.5074
 31
0.0
  0
ARC
  5
1B4
100
AcDbEntity
  8
1
  6
CONTINUOUS
 62
     3
100
AcDbCircle
 10
440.241655
 20
328.1574
 30
0.0
 40
1.951789
210
0.0
220
0.0
230
1.0
100
AcDbArc
 50
272.453244
 51
87.546753
  0
ARC
  5
1B5
100
AcDbEntity
  8
1
  6
CONTINUOUS
 62
     3
100
AcDbCircle
 10
440.241655
 20
324.2574
 30
0.0
 40
1.951789
210
0.0
220
0.0
230
1.0
100
AcDbArc
 50
272.453244
 51
87.546753
  0
ARC
  5
1B6
100
AcDbEntity
  8
1
  6
CONTINUOUS
 62
     3
100
AcDbCircle
 10
440.241655
 20
320.3574
 30
0.0
 40
1.951789
210
0.0
220
0.0
230
1.0
100
AcDbArc
 50
272.453244
 51
87.546753
  0
ARC
  5
1B7
100
AcDbEntity
  8
1
  6
CONTINUOUS
 62
     3
100
AcDbCircle
 10
440.241655
 20
316.4574
 30
0.0
 40
1.951789
210
0.0
220
0.0
230
1.0
100
AcDbArc
 50
272.453244
 51
87.546753
  0
LINE
  5
1B8
100
AcDbEntity
  8
1
  6
CONTINUOUS
 62
     3
100
AcDbLine
 10
438.5252
 20
314.5074
 30
0.0
 11
438.5252
 21
310.9074
 31
0.0
  0
LINE
  5
1B9
100
AcDbEntity
  8
1
  6
CONTINUOUS
 62
     3
100
AcDbLine
 10
437.9252
 20
309.1074
 30
0.0
 11
439.1252
 21
309.1074
 31
0.0
  0
LINE
  5
1BA
100
AcDbEntity
  8
1
  6
CONTINUOUS
 62
     3
100
AcDbLine
 10
436.4252
 20
310.9074
 30
0.0
 11
440.6252
 21
310.9074
 31
0.0
  0
LINE
  5
1BB
100
AcDbEntity
  8
1
  6
CONTINUOUS
 62
     3
100
AcDbLine
 10
436.8752
 20
310.3074
 30
0.0
 11
440.1752
 21
310.3074
 31
0.0
  0
LINE
  5
1BC
100
AcDbEntity
  8
1
  6
CONTINUOUS
 62
     3
100
AcDbLine
 10
437.4752
 20
309.7074
 30
0.0
 11
439.5752
 21
309.7074
 31
0.0
  0
LINE
  5
1BD
100
AcDbEntity
  8
1
  6
CONTINUOUS
 62
     3
100
AcDbLine
 10
438.2252
 20
308.5074
 30
0.0
 11
438.8252
 21
308.5074
 31
0.0
  0
LINE
  5
1BE
100
AcDbEntity
  8
1
  6
CONTINUOUS
 62
     3
100
AcDbLine
 10
460.7252
 20
355.6074
 30
0.0
 11
460.7252
 21
362.8074
 31
0.0
  0
LINE
  5
1BF
100
AcDbEntity
  8
1
  6
CONTINUOUS
 62
     3
100
AcDbLine
 10
460.7252
 20
362.8074
 30
0.0
 11
489.5252
 21
362.8074
 31
0.0
  0
CIRCLE
  5
1C0
100
AcDbEntity
  8
1
  6
CONTINUOUS
 62
     3
100
AcDbCircle
 10
489.5252
 20
362.8074
 30
0.0
 40
0.9
210
0.0
220
0.0
230
1.0
  0
ARC
  5
1C1
100
AcDbEntity
  8
1
  6
CONTINUOUS
 62
     3
100
AcDbCircle
 10
456.721645
 20
350.2074
 30
0.0
 40
6.502844
210
0.0
220
0.0
230
1.0
100
AcDbArc
 50
323.148894
 51
36.851106
  0
LINE
  5
1C2
100
AcDbEntity
  8
1
  6
HIDDEN
 62
     3
100
AcDbLine
 10
457.1252
 20
343.3074
 30
0.0
 11
464.3252
 21
343.3074
 31
0.0
  0
LINE
  5
1C3
100
AcDbEntity
  8
1
  6
HIDDEN
 62
     3
100
AcDbLine
 10
457.1252
 20
357.1074
 30
0.0
 11
464.3252
 21
357.1074
 31
0.0
  0
LINE
  5
1C4
100
AcDbEntity
  8
1
  6
HIDDEN
 62
     3
100
AcDbLine
 10
457.1252
 20
357.1074
 30
0.0
 11
457.1252
 21
343.3074
 31
0.0
  0
LINE
  5
1C5
100
AcDbEntity
  8
1
  6
HIDDEN
 62
     3
100
AcDbLine
 10
464.3252
 20
357.1074
 30
0.0
 11
464.3252
 21
343.3074
 31
0.0
  0
LINE
  5
1C6
100
AcDbEntity
  8
1
  6
CONTINUOUS
 62
     3
100
AcDbLine
 10
489.5252
 20
376.1574
 30
0.0
 11
489.5252
 21
246.4074
 31
0.0
  0
LINE
  5
1C7
100
AcDbEntity
  8
1
  6
HIDDEN
 62
     3
100
AcDbLine
 10
438.5252
 20
332.5074
 30
0.0
 11
438.5252
 21
339.7074
 31
0.0
  0
LINE
  5
1C8
100
AcDbEntity
  8
1
  6
HIDDEN
 62
     3
100
AcDbLine
 10
452.3252
 20
332.5074
 30
0.0
 11
452.3252
 21
339.7074
 31
0.0
  0
LINE
  5
1C9
100
AcDbEntity
  8
1
  6
HIDDEN
 62
     3
100
AcDbLine
 10
438.5252
 20
339.7074
 30
0.0
 11
452.3252
 21
339.7074
 31
0.0
  0
LINE
  5
1CA
100
AcDbEntity
  8
1
  6
HIDDEN
 62
     3
100
AcDbLine
 10
438.5252
 20
332.5074
 30
0.0
 11
452.3252
 21
332.5074
 31
0.0
  0
LINE
  5
1CB
100
AcDbEntity
  8
1
  6
CONTINUOUS
 62
     3
100
AcDbLine
 10
472.7252
 20
302.8074
 30
0.0
 11
472.7252
 21
268.0074
 31
0.0
  0
LINE
  5
1CC
100
AcDbEntity
  8
1
  6
CONTINUOUS
 62
     3
100
AcDbLine
 10
472.7252
 20
268.0074
 30
0.0
 11
489.5252
 21
268.0074
 31
0.0
  0
CIRCLE
  5
1CD
100
AcDbEntity
  8
1
  6
CONTINUOUS
 62
     3
100
AcDbCircle
 10
472.7252
 20
268.0074
 30
0.0
 40
0.9
210
0.0
220
0.0
230
1.0
  0
ARC
  5
1CE
100
AcDbEntity
  8
1
  6
CONTINUOUS
 62
     3
100
AcDbCircle
 10
490.041655
 20
254.3574
 30
0.0
 40
1.951789
210
0.0
220
0.0
230
1.0
100
AcDbArc
 50
272.453244
 51
87.546753
  0
LINE
  5
1CF
100
AcDbEntity
  8
1
  6
CONTINUOUS
 62
     3
100
AcDbLine
 10
489.5252
 20
268.0074
 30
0.0
 11
490.1252
 21
268.0074
 31
0.0
  0
LINE
  5
1D0
100
AcDbEntity
  8
1
  6
CONTINUOUS
 62
     3
100
AcDbLine
 10
488.3252
 20
264.1074
 30
0.0
 11
490.1252
 21
264.1074
 31
0.0
  0
LINE
  5
1D1
100
AcDbEntity
  8
1
  6
CONTINUOUS
 62
     3
100
AcDbLine
 10
488.3252
 20
260.2074
 30
0.0
 11
490.1252
 21
260.2074
 31
0.0
  0
LINE
  5
1D2
100
AcDbEntity
  8
1
  6
CONTINUOUS
 62
     3
100
AcDbLine
 10
488.3252
 20
256.3074
 30
0.0
 11
490.1252
 21
256.3074
 31
0.0
  0
LINE
  5
1D3
100
AcDbEntity
  8
1
  6
CONTINUOUS
 62
     3
100
AcDbLine
 10
466.1252
 20
252.4074
 30
0.0
 11
490.1252
 21
252.4074
 31
0.0
  0
ARC
  5
1D4
100
AcDbEntity
  8
1
  6
CONTINUOUS
 62
     3
100
AcDbCircle
 10
490.041655
 20
266.0574
 30
0.0
 40
1.951789
210
0.0
220
0.0
230
1.0
100
AcDbArc
 50
272.453244
 51
87.546753
  0
ARC
  5
1D5
100
AcDbEntity
  8
1
  6
CONTINUOUS
 62
     3
100
AcDbCircle
 10
490.041655
 20
262.1574
 30
0.0
 40
1.951789
210
0.0
220
0.0
230
1.0
100
AcDbArc
 50
272.453244
 51
87.546753
  0
ARC
  5
1D6
100
AcDbEntity
  8
1
  6
CONTINUOUS
 62
     3
100
AcDbCircle
 10
490.041655
 20
258.2574
 30
0.0
 40
1.951789
210
0.0
220
0.0
230
1.0
100
AcDbArc
 50
272.453244
 51
87.546753
  0
LINE
  5
1D7
100
AcDbEntity
  8
1
  6
CONTINUOUS
 62
     3
100
AcDbLine
 10
465.0752
 20
248.2074
 30
0.0
 11
467.1752
 21
248.2074
 31
0.0
  0
LINE
  5
1D8
100
AcDbEntity
  8
1
  6
CONTINUOUS
 62
     3
100
AcDbLine
 10
466.1252
 20
252.4074
 30
0.0
 11
466.1252
 21
249.4074
 31
0.0
  0
LINE
  5
1D9
100
AcDbEntity
  8
1
  6
CONTINUOUS
 62
     3
100
AcDbLine
 10
465.5252
 20
247.6074
 30
0.0
 11
466.7252
 21
247.6074
 31
0.0
  0
LINE
  5
1DA
100
AcDbEntity
  8
1
  6
CONTINUOUS
 62
     3
100
AcDbLine
 10
464.0252
 20
249.4074
 30
0.0
 11
468.2252
 21
249.4074
 31
0.0
  0
LINE
  5
1DB
100
AcDbEntity
  8
1
  6
CONTINUOUS
 62
     3
100
AcDbLine
 10
464.4752
 20
248.8074
 30
0.0
 11
467.7752
 21
248.8074
 31
0.0
  0
LINE
  5
1DC
100
AcDbEntity
  8
1
  6
CONTINUOUS
 62
     3
100
AcDbLine
 10
465.8252
 20
247.0074
 30
0.0
 11
466.4252
 21
247.0074
 31
0.0
  0
CIRCLE
  5
1DD
100
AcDbEntity
  8
1
  6
CONTINUOUS
 62
     3
100
AcDbCircle
 10
489.5252
 20
377.0574
 30
0.0
 40
0.9
210
0.0
220
0.0
230
1.0
  0
CIRCLE
  5
1DE
100
AcDbEntity
  8
1
  6
CONTINUOUS
 62
     3
100
AcDbCircle
 10
489.5252
 20
386.8074
 30
0.0
 40
0.9
210
0.0
220
0.0
230
1.0
  0
ARC
  5
1DF
100
AcDbEntity
  8
1
  6
CONTINUOUS
 62
     3
100
AcDbCircle
 10
481.107336
 20
381.9324
 30
0.0
 40
10.963821
210
0.0
220
0.0
230
1.0
100
AcDbArc
 50
338.742742
 51
21.257258
  0
LINE
  5
1E0
100
AcDbEntity
  8
1
  6
CONTINUOUS
 62
     3
100
AcDbLine
 10
489.5252
 20
400.7855
 30
0.0
 11
489.5252
 21
405.3267
 31
0.0
  0
LINE
  5
1E1
100
AcDbEntity
  8
1
  6
CONTINUOUS
 62
     3
100
AcDbLine
 10
489.5252
 20
240.8574
 30
0.0
 11
489.5252
 21
176.9574
 31
0.0
  0
CIRCLE
  5
1E2
100
AcDbEntity
  8
1
  6
CONTINUOUS
 62
     3
100
AcDbCircle
 10
489.5252
 20
241.7574
 30
0.0
 40
0.9
210
0.0
220
0.0
230
1.0
  0
ARC
  5
1E3
100
AcDbEntity
  8
1
  6
CONTINUOUS
 62
     3
100
AcDbCircle
 10
489.5252
 20
240.9324
 30
0.0
 40
5.475
210
0.0
220
0.0
230
1.0
100
AcDbArc
 50
48.887911
 51
131.112092
  0
LINE
  5
1E4
100
AcDbEntity
  8
1
  6
CONTINUOUS
 62
     3
100
AcDbLine
 10
525.5252
 20
387.7074
 30
0.0
 11
525.5252
 21
398.9855
 31
0.0
  0
LINE
  5
1E5
100
AcDbEntity
  8
1
  6
CONTINUOUS
 62
     3
100
AcDbLine
 10
525.5252
 20
376.1574
 30
0.0
 11
525.5252
 21
246.4074
 31
0.0
  0
CIRCLE
  5
1E6
100
AcDbEntity
  8
1
  6
CONTINUOUS
 62
     3
100
AcDbCircle
 10
525.5252
 20
377.0574
 30
0.0
 40
0.9
210
0.0
220
0.0
230
1.0
  0
CIRCLE
  5
1E7
100
AcDbEntity
  8
1
  6
CONTINUOUS
 62
     3
100
AcDbCircle
 10
525.5252
 20
386.8074
 30
0.0
 40
0.9
210
0.0
220
0.0
230
1.0
  0
ARC
  5
1E8
100
AcDbEntity
  8
1
  6
CONTINUOUS
 62
     3
100
AcDbCircle
 10
517.107336
 20
381.9324
 30
0.0
 40
10.963821
210
0.0
220
0.0
230
1.0
100
AcDbArc
 50
338.742742
 51
21.257258
  0
LINE
  5
1E9
100
AcDbEntity
  8
1
  6
CONTINUOUS
 62
     3
100
AcDbLine
 10
525.5252
 20
240.8574
 30
0.0
 11
525.5252
 21
176.9574
 31
0.0
  0
CIRCLE
  5
1EA
100
AcDbEntity
  8
1
  6
CONTINUOUS
 62
     3
100
AcDbCircle
 10
525.5252
 20
241.7574
 30
0.0
 40
0.9
210
0.0
220
0.0
230
1.0
  0
ARC
  5
1EB
100
AcDbEntity
  8
1
  6
CONTINUOUS
 62
     3
100
AcDbCircle
 10
525.5252
 20
240.9324
 30
0.0
 40
5.475
210
0.0
220
0.0
230
1.0
100
AcDbArc
 50
48.887911
 51
131.112092
  0
LINE
  5
1EC
100
AcDbEntity
  8
1
  6
CONTINUOUS
 62
     3
100
AcDbLine
 10
572.9252
 20
398.9855
 30
0.0
 11
572.9252
 21
166.1574
 31
0.0
  0
LINE
  5
1ED
100
AcDbEntity
  8
1
  6
CONTINUOUS
 62
     3
100
AcDbLine
 10
580.1252
 20
405.3267
 30
0.0
 11
580.1252
 21
166.1574
 31
0.0
  0
LINE
  5
1EE
100
AcDbEntity
  8
1
  6
CONTINUOUS
 62
     3
100
AcDbLine
 10
570.5252
 20
163.7574
 30
0.0
 11
582.5252
 21
163.7574
 31
0.0
  0
LINE
  5
1EF
100
AcDbEntity
  8
1
  6
CONTINUOUS
 62
     3
100
AcDbLine
 10
576.5252
 20
194.3574
 30
0.0
 11
576.5252
 21
166.1574
 31
0.0
  0
LINE
  5
1F0
100
AcDbEntity
  8
1
  6
CONTINUOUS
 62
     3
100
AcDbLine
 10
582.5252
 20
163.7574
 30
0.0
 11
582.5252
 21
166.1574
 31
0.0
  0
LINE
  5
1F1
100
AcDbEntity
  8
1
  6
CONTINUOUS
 62
     3
100
AcDbLine
 10
570.5252
 20
163.7574
 30
0.0
 11
570.5252
 21
166.1574
 31
0.0
  0
LINE
  5
1F2
100
AcDbEntity
  8
1
  6
CONTINUOUS
 62
     3
100
AcDbLine
 10
576.5252
 20
194.3574
 30
0.0
 11
575.0252
 21
194.3574
 31
0.0
  0
LINE
  5
1F3
100
AcDbEntity
  8
1
  6
CONTINUOUS
 62
     3
100
AcDbLine
 10
561.5252
 20
194.3574
 30
0.0
 11
570.8252
 21
194.3574
 31
0.0
  0
LINE
  5
1F4
100
AcDbEntity
  8
1
  6
CONTINUOUS
 62
     3
100
AcDbLine
 10
561.5252
 20
228.1074
 30
0.0
 11
561.5252
 21
188.9574
 31
0.0
  0
ARC
  5
1F5
100
AcDbEntity
  8
1
  6
CONTINUOUS
 62
     3
100
AcDbCircle
 10
572.9252
 20
194.380338
 30
0.0
 40
2.100125
210
0.0
220
0.0
230
1.0
100
AcDbArc
 50
180.625817
 51
359.374183
  0
LINE
  5
1F6
100
AcDbEntity
  8
1
  6
CONTINUOUS
 62
     3
100
AcDbLine
 10
558.7164
 20
188.9574
 30
0.0
 11
571.9164
 21
188.9574
 31
0.0
  0
LINE
  5
1F7
100
AcDbEntity
  8
1
  6
CONTINUOUS
 62
     3
100
AcDbLine
 10
558.7164
 20
185.9574
 30
0.0
 11
571.9164
 21
185.9574
 31
0.0
  0
LINE
  5
1F8
100
AcDbEntity
  8
1
  6
CONTINUOUS
 62
     3
100
AcDbLine
 10
558.7164
 20
188.9574
 30
0.0
 11
558.7164
 21
185.9574
 31
0.0
  0
LINE
  5
1F9
100
AcDbEntity
  8
1
  6
CONTINUOUS
 62
     3
100
AcDbLine
 10
571.9164
 20
188.9574
 30
0.0
 11
571.9164
 21
185.9574
 31
0.0
  0
CIRCLE
  5
1FA
100
AcDbEntity
  8
1
  6
CONTINUOUS
 62
     3
100
AcDbCircle
 10
559.9164
 20
187.4574
 30
0.0
 40
0.6
210
0.0
220
0.0
230
1.0
  0
CIRCLE
  5
1FB
100
AcDbEntity
  8
1
  6
CONTINUOUS
 62
     3
100
AcDbCircle
 10
562.3164
 20
187.4574
 30
0.0
 40
0.6
210
0.0
220
0.0
230
1.0
  0
CIRCLE
  5
1FC
100
AcDbEntity
  8
1
  6
CONTINUOUS
 62
     3
100
AcDbCircle
 10
564.7164
 20
187.4574
 30
0.0
 40
0.6
210
0.0
220
0.0
230
1.0
  0
CIRCLE
  5
1FD
100
AcDbEntity
  8
1
  6
CONTINUOUS
 62
     3
100
AcDbCircle
 10
567.1164
 20
187.4574
 30
0.0
 40
0.6
210
0.0
220
0.0
230
1.0
  0
CIRCLE
  5
1FE
100
AcDbEntity
  8
1
  6
CONTINUOUS
 62
     3
100
AcDbCircle
 10
569.5164
 20
187.4574
 30
0.0
 40
0.6
210
0.0
220
0.0
230
1.0
  0
LINE
  5
1FF
100
AcDbEntity
  8
1
  6
CONTINUOUS
 62
     3
100
AcDbLine
 10
561.5252
 20
185.9574
 30
0.0
 11
561.5252
 21
181.7574
 31
0.0
  0
LINE
  5
200
100
AcDbEntity
  8
1
  6
CONTINUOUS
 62
     3
100
AcDbLine
 10
560.4752
 20
180.5574
 30
0.0
 11
562.5752
 21
180.5574
 31
0.0
  0
LINE
  5
201
100
AcDbEntity
  8
1
  6
CONTINUOUS
 62
     3
100
AcDbLine
 10
560.9252
 20
179.9574
 30
0.0
 11
562.1252
 21
179.9574
 31
0.0
  0
LINE
  5
202
100
AcDbEntity
  8
1
  6
CONTINUOUS
 62
     3
100
AcDbLine
 10
559.4252
 20
181.7574
 30
0.0
 11
563.6252
 21
181.7574
 31
0.0
  0
LINE
  5
203
100
AcDbEntity
  8
1
  6
CONTINUOUS
 62
     3
100
AcDbLine
 10
559.8752
 20
181.1574
 30
0.0
 11
563.1752
 21
181.1574
 31
0.0
  0
LINE
  5
204
100
AcDbEntity
  8
1
  6
CONTINUOUS
 62
     3
100
AcDbLine
 10
561.2252
 20
179.3574
 30
0.0
 11
561.8252
 21
179.3574
 31
0.0
  0
LINE
  5
205
100
AcDbEntity
  8
1
  6
CONTINUOUS
 62
     3
100
AcDbLine
 10
492.0712
 20
381.9324
 30
0.0
 11
501.0712
 21
381.9324
 31
0.0
  0
LINE
  5
206
100
AcDbEntity
  8
1
  6
CONTINUOUS
 62
     3
100
AcDbLine
 10
502.2712
 20
381.9324
 30
0.0
 11
513.0712
 21
381.9324
 31
0.0
  0
LINE
  5
207
100
AcDbEntity
  8
1
  6
CONTINUOUS
 62
     3
100
AcDbLine
 10
514.2712
 20
381.9324
 30
0.0
 11
526.8712
 21
381.9324
 31
0.0
  0
LINE
  5
208
100
AcDbEntity
  8
1
  6
DASHED
 62
     3
100
AcDbLine
 10
483.5252
 20
393.9324
 30
0.0
 11
531.5252
 21
393.9324
 31
0.0
  0
LINE
  5
209
100
AcDbEntity
  8
1
  6
DASHED
 62
     3
100
AcDbLine
 10
483.5252
 20
369.9324
 30
0.0
 11
531.5252
 21
369.9324
 31
0.0
  0
LINE
  5
20A
100
AcDbEntity
  8
1
  6
DASHED
 62
     3
100
AcDbLine
 10
483.5252
 20
393.9324
 30
0.0
 11
483.5252
 21
369.9324
 31
0.0
  0
LINE
  5
20B
100
AcDbEntity
  8
1
  6
DASHED
 62
     3
100
AcDbLine
 10
531.5252
 20
393.9324
 30
0.0
 11
531.5252
 21
369.9324
 31
0.0
  0
LINE
  5
20C
100
AcDbEntity
  8
1
  6
DASHED
 62
     3
100
AcDbLine
 10
426.8252
 20
367.0074
 30
0.0
 11
476.6252
 21
367.0074
 31
0.0
  0
LINE
  5
20D
100
AcDbEntity
  8
1
  6
DASHED
 62
     3
100
AcDbLine
 10
426.8252
 20
275.8074
 30
0.0
 11
476.6252
 21
275.8074
 31
0.0
  0
LINE
  5
20E
100
AcDbEntity
  8
1
  6
DASHED
 62
     3
100
AcDbLine
 10
426.8252
 20
367.0074
 30
0.0
 11
426.8252
 21
275.8074
 31
0.0
  0
LINE
  5
20F
100
AcDbEntity
  8
1
  6
DASHED
 62
     3
100
AcDbLine
 10
476.6252
 20
367.0074
 30
0.0
 11
476.6252
 21
275.8074
 31
0.0
  0
LINE
  5
210
100
AcDbEntity
  8
1
  6
DASHED
 62
     3
100
AcDbLine
 10
459.8252
 20
271.6074
 30
0.0
 11
555.2252
 21
271.6074
 31
0.0
  0
LINE
  5
211
100
AcDbEntity
  8
1
  6
DASHED
 62
     3
100
AcDbLine
 10
459.8252
 20
271.6074
 30
0.0
 11
459.8252
 21
235.6074
 31
0.0
  0
LINE
  5
212
100
AcDbEntity
  8
1
  6
DASHED
 62
     3
100
AcDbLine
 10
555.2252
 20
271.6074
 30
0.0
 11
555.2252
 21
235.6074
 31
0.0
  0
LINE
  5
213
100
AcDbEntity
  8
1
  6
CONTINUOUS
 62
     3
100
AcDbLine
 10
557.6252
 20
220.6074
 30
0.0
 11
557.6252
 21
166.1574
 31
0.0
  0
LINE
  5
214
100
AcDbEntity
  8
1
  6
CONTINUOUS
 62
     3
100
AcDbLine
 10
457.4252
 20
220.6074
 30
0.0
 11
457.4252
 21
166.1574
 31
0.0
  0
LINE
  5
215
100
AcDbEntity
  8
1
  6
CONTINUOUS
 62
     3
100
AcDbLine
 10
457.4252
 20
220.6074
 30
0.0
 11
481.1252
 21
220.6074
 31
0.0
  0
LINE
  5
216
100
AcDbEntity
  8
1
  6
CONTINUOUS
 62
     3
100
AcDbLine
 10
473.0252
 20
206.2074
 30
0.0
 11
481.1252
 21
206.2074
 31
0.0
  0
LINE
  5
217
100
AcDbEntity
  8
1
  6
CONTINUOUS
 62
     3
100
AcDbLine
 10
533.9252
 20
213.4074
 30
0.0
 11
549.2252
 21
213.4074
 31
0.0
  0
LINE
  5
218
100
AcDbEntity
  8
1
  6
CONTINUOUS
 62
     3
100
AcDbLine
 10
533.9252
 20
199.0074
 30
0.0
 11
536.0252
 21
199.0074
 31
0.0
  0
CIRCLE
  5
219
100
AcDbEntity
  8
1
  6
CONTINUOUS
 62
     3
100
AcDbCircle
 10
489.5252
 20
220.6074
 30
0.0
 40
0.9
210
0.0
220
0.0
230
1.0
  0
CIRCLE
  5
21A
100
AcDbEntity
  8
1
  6
CONTINUOUS
 62
     3
100
AcDbCircle
 10
489.5252
 20
206.2074
 30
0.0
 40
0.9
210
0.0
220
0.0
230
1.0
  0
CIRCLE
  5
21B
100
AcDbEntity
  8
1
  6
CONTINUOUS
 62
     3
100
AcDbCircle
 10
525.5252
 20
199.0074
 30
0.0
 40
0.9
210
0.0
220
0.0
230
1.0
  0
CIRCLE
  5
21C
100
AcDbEntity
  8
1
  6
CONTINUOUS
 62
     3
100
AcDbCircle
 10
525.5252
 20
213.4074
 30
0.0
 40
0.9
210
0.0
220
0.0
230
1.0
  0
CIRCLE
  5
21D
100
AcDbEntity
  8
1
  6
CONTINUOUS
 62
     3
100
AcDbCircle
 10
485.9252
 20
220.6074
 30
0.0
 40
0.9
210
0.0
220
0.0
230
1.0
  0
CIRCLE
  5
21E
100
AcDbEntity
  8
1
  6
CONTINUOUS
 62
     3
100
AcDbCircle
 10
485.9252
 20
206.2074
 30
0.0
 40
0.9
210
0.0
220
0.0
230
1.0
  0
CIRCLE
  5
21F
100
AcDbEntity
  8
1
  6
CONTINUOUS
 62
     3
100
AcDbCircle
 10
529.1252
 20
213.4074
 30
0.0
 40
0.9
210
0.0
220
0.0
230
1.0
  0
CIRCLE
  5
220
100
AcDbEntity
  8
1
  6
CONTINUOUS
 62
     3
100
AcDbCircle
 10
529.1252
 20
199.0074
 30
0.0
 40
0.9
210
0.0
220
0.0
230
1.0
  0
LINE
  5
221
100
AcDbEntity
  8
1
  6
CONTINUOUS
 62
     3
100
AcDbLine
 10
465.8252
 20
213.4074
 30
0.0
 11
481.1252
 21
213.4074
 31
0.0
  0
LINE
  5
222
100
AcDbEntity
  8
1
  6
CONTINUOUS
 62
     3
100
AcDbLine
 10
485.9252
 20
213.4074
 30
0.0
 11
529.1252
 21
213.4074
 31
0.0
  0
LINE
  5
223
100
AcDbEntity
  8
1
  6
CONTINUOUS
 62
     3
100
AcDbLine
 10
479.0252
 20
199.0074
 30
0.0
 11
481.1252
 21
199.0074
 31
0.0
  0
LINE
  5
224
100
AcDbEntity
  8
1
  6
CONTINUOUS
 62
     3
100
AcDbLine
 10
485.9252
 20
199.0074
 30
0.0
 11
529.1252
 21
199.0074
 31
0.0
  0
LINE
  5
225
100
AcDbEntity
  8
1
  6
CONTINUOUS
 62
     3
100
AcDbLine
 10
485.9252
 20
206.2074
 30
0.0
 11
529.1252
 21
206.2074
 31
0.0
  0
LINE
  5
226
100
AcDbEntity
  8
1
  6
CONTINUOUS
 62
     3
100
AcDbLine
 10
533.9252
 20
206.2074
 30
0.0
 11
542.0252
 21
206.2074
 31
0.0
  0
LINE
  5
227
100
AcDbEntity
  8
1
  6
CONTINUOUS
 62
     3
100
AcDbLine
 10
485.9252
 20
220.6074
 30
0.0
 11
529.1252
 21
220.6074
 31
0.0
  0
LINE
  5
228
100
AcDbEntity
  8
1
  6
CONTINUOUS
 62
     3
100
AcDbLine
 10
533.9252
 20
220.6074
 30
0.0
 11
557.6252
 21
220.6074
 31
0.0
  0
CIRCLE
  5
229
100
AcDbEntity
  8
1
  6
CONTINUOUS
 62
     3
100
AcDbCircle
 10
485.9252
 20
213.4074
 30
0.0
 40
0.9
210
0.0
220
0.0
230
1.0
  0
CIRCLE
  5
22A
100
AcDbEntity
  8
1
  6
CONTINUOUS
 62
     3
100
AcDbCircle
 10
485.9252
 20
199.0074
 30
0.0
 40
0.9
210
0.0
220
0.0
230
1.0
  0
CIRCLE
  5
22B
100
AcDbEntity
  8
1
  6
CONTINUOUS
 62
     3
100
AcDbCircle
 10
529.1252
 20
220.6074
 30
0.0
 40
0.9
210
0.0
220
0.0
230
1.0
  0
CIRCLE
  5
22C
100
AcDbEntity
  8
1
  6
CONTINUOUS
 62
     3
100
AcDbCircle
 10
529.1252
 20
206.2074
 30
0.0
 40
0.9
210
0.0
220
0.0
230
1.0
  0
LINE
  5
22D
100
AcDbEntity
  8
1
  6
DASHED
 62
     3
100
AcDbLine
 10
459.8252
 20
235.6074
 30
0.0
 11
489.5252
 21
235.6074
 31
0.0
  0
LINE
  5
22E
100
AcDbEntity
  8
1
  6
DASHED
 62
     3
100
AcDbLine
 10
489.5252
 20
235.6074
 30
0.0
 11
525.5252
 21
235.6074
 31
0.0
  0
LINE
  5
22F
100
AcDbEntity
  8
1
  6
DASHED
 62
     3
100
AcDbLine
 10
525.5252
 20
235.6074
 30
0.0
 11
555.2252
 21
235.6074
 31
0.0
  0
LINE
  5
230
100
AcDbEntity
  8
1
  6
CONTINUOUS
 62
     3
100
AcDbLine
 10
465.8252
 20
213.4074
 30
0.0
 11
465.8252
 21
166.1574
 31
0.0
  0
LINE
  5
231
100
AcDbEntity
  8
1
  6
CONTINUOUS
 62
     3
100
AcDbLine
 10
549.2252
 20
213.4074
 30
0.0
 11
549.2252
 21
166.1574
 31
0.0
  0
LINE
  5
232
100
AcDbEntity
  8
1
  6
CONTINUOUS
 62
     3
100
AcDbLine
 10
473.0252
 20
206.2074
 30
0.0
 11
473.0252
 21
166.1574
 31
0.0
  0
LINE
  5
233
100
AcDbEntity
  8
1
  6
CONTINUOUS
 62
     3
100
AcDbLine
 10
542.0252
 20
206.2074
 30
0.0
 11
542.0252
 21
166.1574
 31
0.0
  0
LINE
  5
234
100
AcDbEntity
  8
1
  6
CONTINUOUS
 62
     3
100
AcDbLine
 10
479.0252
 20
199.0074
 30
0.0
 11
479.0252
 21
166.1574
 31
0.0
  0
LINE
  5
235
100
AcDbEntity
  8
1
  6
CONTINUOUS
 62
     3
100
AcDbLine
 10
536.0252
 20
199.0074
 30
0.0
 11
536.0252
 21
166.1574
 31
0.0
  0
LINE
  5
236
100
AcDbEntity
  8
1
  6
CONTINUOUS
 62
     3
100
AcDbLine
 10
455.0252
 20
163.7574
 30
0.0
 11
481.4252
 21
163.7574
 31
0.0
  0
LINE
  5
237
100
AcDbEntity
  8
1
  6
CONTINUOUS
 62
     3
100
AcDbLine
 10
533.6252
 20
163.7574
 30
0.0
 11
560.0252
 21
163.7574
 31
0.0
  0
LINE
  5
238
100
AcDbEntity
  8
1
  6
CONTINUOUS
 62
     3
100
AcDbLine
 10
455.0252
 20
163.7574
 30
0.0
 11
455.0252
 21
166.1574
 31
0.0
  0
LINE
  5
239
100
AcDbEntity
  8
1
  6
CONTINUOUS
 62
     3
100
AcDbLine
 10
481.4252
 20
163.7574
 30
0.0
 11
481.4252
 21
166.1574
 31
0.0
  0
LINE
  5
23A
100
AcDbEntity
  8
1
  6
CONTINUOUS
 62
     3
100
AcDbLine
 10
533.6252
 20
163.7574
 30
0.0
 11
533.6252
 21
166.1574
 31
0.0
  0
LINE
  5
23B
100
AcDbEntity
  8
1
  6
CONTINUOUS
 62
     3
100
AcDbLine
 10
560.0252
 20
163.7574
 30
0.0
 11
560.0252
 21
166.1574
 31
0.0
  0
CIRCLE
  5
23C
100
AcDbEntity
  8
1
  6
CONTINUOUS
 62
     3
100
AcDbCircle
 10
481.1252
 20
220.6074
 30
0.0
 40
0.9
210
0.0
220
0.0
230
1.0
  0
CIRCLE
  5
23D
100
AcDbEntity
  8
1
  6
CONTINUOUS
 62
     3
100
AcDbCircle
 10
481.1252
 20
213.4074
 30
0.0
 40
0.9
210
0.0
220
0.0
230
1.0
  0
CIRCLE
  5
23E
100
AcDbEntity
  8
1
  6
CONTINUOUS
 62
     3
100
AcDbCircle
 10
481.1252
 20
206.2074
 30
0.0
 40
0.9
210
0.0
220
0.0
230
1.0
  0
CIRCLE
  5
23F
100
AcDbEntity
  8
1
  6
CONTINUOUS
 62
     3
100
AcDbCircle
 10
481.1252
 20
199.0074
 30
0.0
 40
0.9
210
0.0
220
0.0
230
1.0
  0
CIRCLE
  5
240
100
AcDbEntity
  8
1
  6
CONTINUOUS
 62
     3
100
AcDbCircle
 10
533.9252
 20
220.6074
 30
0.0
 40
0.9
210
0.0
220
0.0
230
1.0
  0
CIRCLE
  5
241
100
AcDbEntity
  8
1
  6
CONTINUOUS
 62
     3
100
AcDbCircle
 10
533.9252
 20
213.4074
 30
0.0
 40
0.9
210
0.0
220
0.0
230
1.0
  0
CIRCLE
  5
242
100
AcDbEntity
  8
1
  6
CONTINUOUS
 62
     3
100
AcDbCircle
 10
533.9252
 20
206.2074
 30
0.0
 40
0.9
210
0.0
220
0.0
230
1.0
  0
CIRCLE
  5
243
100
AcDbEntity
  8
1
  6
CONTINUOUS
 62
     3
100
AcDbCircle
 10
533.9252
 20
199.0074
 30
0.0
 40
0.9
210
0.0
220
0.0
230
1.0
  0
ARC
  5
244
100
AcDbEntity
  8
1
  6
CONTINUOUS
 62
     3
100
AcDbCircle
 10
483.5252
 20
219.376207
 30
0.0
 40
3.775001
210
0.0
220
0.0
230
1.0
100
AcDbArc
 50
53.414164
 51
126.585836
  0
ARC
  5
245
100
AcDbEntity
  8
1
  6
CONTINUOUS
 62
     3
100
AcDbCircle
 10
483.5252
 20
212.176207
 30
0.0
 40
3.775001
210
0.0
220
0.0
230
1.0
100
AcDbArc
 50
53.414164
 51
126.585836
  0
ARC
  5
246
100
AcDbEntity
  8
1
  6
CONTINUOUS
 62
     3
100
AcDbCircle
 10
483.5252
 20
204.976207
 30
0.0
 40
3.775001
210
0.0
220
0.0
230
1.0
100
AcDbArc
 50
53.414164
 51
126.585836
  0
ARC
  5
247
100
AcDbEntity
  8
1
  6
CONTINUOUS
 62
     3
100
AcDbCircle
 10
483.5252
 20
197.776207
 30
0.0
 40
3.775001
210
0.0
220
0.0
230
1.0
100
AcDbArc
 50
53.414164
 51
126.585836
  0
ARC
  5
248
100
AcDbEntity
  8
1
  6
CONTINUOUS
 62
     3
100
AcDbCircle
 10
531.5252
 20
197.776207
 30
0.0
 40
3.775001
210
0.0
220
0.0
230
1.0
100
AcDbArc
 50
53.414164
 51
126.585836
  0
ARC
  5
249
100
AcDbEntity
  8
1
  6
CONTINUOUS
 62
     3
100
AcDbCircle
 10
531.5252
 20
204.976207
 30
0.0
 40
3.775001
210
0.0
220
0.0
230
1.0
100
AcDbArc
 50
53.414164
 51
126.585836
  0
ARC
  5
24A
100
AcDbEntity
  8
1
  6
CONTINUOUS
 62
     3
100
AcDbCircle
 10
531.5252
 20
212.176207
 30
0.0
 40
3.775001
210
0.0
220
0.0
230
1.0
100
AcDbArc
 50
53.414164
 51
126.585836
  0
ARC
  5
24B
100
AcDbEntity
  8
1
  6
CONTINUOUS
 62
     3
100
AcDbCircle
 10
531.5252
 20
219.376207
 30
0.0
 40
3.775001
210
0.0
220
0.0
230
1.0
100
AcDbArc
 50
53.414164
 51
126.585836
  0
LINE
  5
24C
100
AcDbEntity
  8
1
  6
CONTINUOUS
 62
     3
100
AcDbLine
 10
483.5252
 20
222.5512
 30
0.0
 11
483.5252
 21
220.1512
 31
0.0
  0
LINE
  5
24D
100
AcDbEntity
  8
1
  6
CONTINUOUS
 62
     3
100
AcDbLine
 10
483.5252
 20
218.9512
 30
0.0
 11
483.5252
 21
216.5512
 31
0.0
  0
LINE
  5
24E
100
AcDbEntity
  8
1
  6
CONTINUOUS
 62
     3
100
AcDbLine
 10
531.5252
 20
222.5512
 30
0.0
 11
531.5252
 21
220.1512
 31
0.0
  0
LINE
  5
24F
100
AcDbEntity
  8
1
  6
CONTINUOUS
 62
     3
100
AcDbLine
 10
531.5252
 20
218.9512
 30
0.0
 11
531.5252
 21
216.5512
 31
0.0
  0
TEXT
  5
250
100
AcDbEntity
  8
1
  6
CONTINUOUS
 62
     7
100
AcDbText
 10
396.2028
 20
459.13
 30
0.0
 40
4.8
  1
P
  7
TXT
210
0.0
220
0.0
230
1.0
100
AcDbText
  0
LINE
  5
251
100
AcDbEntity
  8
1
  6
CONTINUOUS
 62
     7
100
AcDbLine
 10
405.3696
 20
464.1853
 30
0.0
 11
457.8281
 21
499.8216
 31
0.0
  0
LINE
  5
252
100
AcDbEntity
  8
1
  6
CONTINUOUS
 62
     7
100
AcDbLine
 10
457.8281
 20
499.8216
 30
0.0
 11
477.2682
 21
499.8216
 31
0.0
  0
LINE
  5
253
100
AcDbEntity
  8
1
  6
CONTINUOUS
 62
     7
100
AcDbLine
 10
404.3252
 20
422.6574
 30
0.0
 11
436.4439
 21
439.5376
 31
0.0
  0
LINE
  5
254
100
AcDbEntity
  8
1
  6
CONTINUOUS
 62
     7
100
AcDbLine
 10
436.4439
 20
439.5376
 30
0.0
 11
456.2728
 21
439.5376
 31
0.0
  0
LINE
  5
255
100
AcDbEntity
  8
1
  6
CONTINUOUS
 62
     7
100
AcDbLine
 10
466.4311
 20
367.0074
 30
0.0
 11
461.7161
 21
385.0876
 31
0.0
  0
LINE
  5
256
100
AcDbEntity
  8
1
  6
CONTINUOUS
 62
     7
100
AcDbLine
 10
461.7161
 20
385.0876
 30
0.0
 11
450.4408
 21
385.0876
 31
0.0
  0
LINE
  5
257
100
AcDbEntity
  8
1
  6
CONTINUOUS
 62
     7
100
AcDbLine
 10
531.5252
 20
378.0869
 30
0.0
 11
546.475
 21
378.0869
 31
0.0
  0
LINE
  5
258
100
AcDbEntity
  8
1
  6
CONTINUOUS
 62
     7
100
AcDbLine
 10
446.5292
 20
337.2108
 30
0.0
 11
455.1064
 21
351.2508
 31
0.0
  0
LINE
  5
259
100
AcDbEntity
  8
1
  6
CONTINUOUS
 62
     7
100
AcDbLine
 10
455.1064
 20
351.2508
 30
0.0
 11
442.4126
 21
351.2508
 31
0.0
  0
LINE
  5
25A
100
AcDbEntity
  8
1
  6
CONTINUOUS
 62
     7
100
AcDbLine
 10
528.7945
 20
271.9534
 30
0.0
 11
532.5874
 21
290.9239
 31
0.0
  0
LINE
  5
25B
100
AcDbEntity
  8
1
  6
CONTINUOUS
 62
     7
100
AcDbLine
 10
532.5874
 20
290.9239
 30
0.0
 11
539.197
 21
290.9239
 31
0.0
  0
INSERT
  5
25C
100
AcDbEntity
  8
1
  6
CONTINUOUS
 62
     1
100
AcDbBlockReference
  2
LDR
 10
405.3696
 20
464.1853
 30
0.0
 41
239.999999
 42
239.999999
 50
214.189195
210
0.0
220
0.0
230
1.0
  0
INSERT
  5
25D
100
AcDbEntity
  8
1
  6
CONTINUOUS
 62
     1
100
AcDbBlockReference
  2
LDR
 10
404.3252
 20
422.6574
 30
0.0
 41
239.999997
 42
239.999997
 50
207.724475
210
0.0
220
0.0
230
1.0
  0
INSERT
  5
25E
100
AcDbEntity
  8
1
  6
CONTINUOUS
 62
     1
100
AcDbBlockReference
  2
LDR
 10
404.3252
 20
422.6574
 30
0.0
 41
239.999997
 42
239.999997
 50
207.724475
210
0.0
220
0.0
230
1.0
  0
INSERT
  5
25F
100
AcDbEntity
  8
1
  6
CONTINUOUS
 62
     1
100
AcDbBlockReference
  2
LDR
 10
466.4311
 20
367.0074
 30
0.0
 41
240.000001
 42
240.000001
 50
284.616204
210
0.0
220
0.0
230
1.0
  0
INSERT
  5
260
100
AcDbEntity
  8
1
  6
CONTINUOUS
 62
     1
100
AcDbBlockReference
  2
LDR
 10
466.4311
 20
367.0074
 30
0.0
 41
240.000001
 42
240.000001
 50
284.616204
210
0.0
220
0.0
230
1.0
  0
INSERT
  5
261
100
AcDbEntity
  8
1
  6
CONTINUOUS
 62
     1
100
AcDbBlockReference
  2
LDR
 10
446.5292
 20
337.2108
 30
0.0
 41
239.999999
 42
239.999999
 50
238.578754
210
0.0
220
0.0
230
1.0
  0
INSERT
  5
262
100
AcDbEntity
  8
1
  6
CONTINUOUS
 62
     1
100
AcDbBlockReference
  2
LDR
 10
446.5292
 20
337.2108
 30
0.0
 41
239.999999
 42
239.999999
 50
238.578754
210
0.0
220
0.0
230
1.0
  0
INSERT
  5
263
100
AcDbEntity
  8
1
  6
CONTINUOUS
 62
     1
100
AcDbBlockReference
  2
LDR
 10
531.5252
 20
378.0869
 30
0.0
 41
240.0
 42
240.0
 50
180.0
210
0.0
220
0.0
230
1.0
  0
INSERT
  5
264
100
AcDbEntity
  8
1
  6
CONTINUOUS
 62
     1
100
AcDbBlockReference
  2
LDR
 10
531.5252
 20
378.0869
 30
0.0
 41
240.0
 42
240.0
 50
180.0
210
0.0
220
0.0
230
1.0
  0
TEXT
  5
265
100
AcDbEntity
  8
1
  6
CONTINUOUS
 62
     7
100
AcDbText
 10
478.3609
 20
498.589
 30
0.0
 40
3.0
  1
PHOTOCELL
  7
MONOTXT
210
0.0
220
0.0
230
1.0
100
AcDbText
  0
TEXT
  5
266
100
AcDbEntity
  8
1
  6
CONTINUOUS
 62
     7
100
AcDbText
 10
457.3122
 20
438.4979
 30
0.0
 40
3.0
  1
MEYERS HUB
  7
MONOTXT
210
0.0
220
0.0
230
1.0
100
AcDbText
  0
TEXT
  5
267
100
AcDbEntity
  8
1
  6
CONTINUOUS
 62
     7
100
AcDbText
 10
421.6004
 20
383.2139
 30
0.0
 40
3.0
  1
PHOTO-CELL
  7
MONOTXT
 11
421.6004
 21
386.2139
 31
0.0
210
0.0
220
0.0
230
1.0
100
AcDbText
 73
     3
  0
TEXT
  5
268
100
AcDbEntity
  8
1
  6
CONTINUOUS
 62
     7
100
AcDbText
 10
421.6004
 20
377.8139
 30
0.0
 40
3.0
  1
ISOLATION
  7
MONOTXT
 11
421.6004
 21
380.8139
 31
0.0
210
0.0
220
0.0
230
1.0
100
AcDbText
 73
     3
  0
TEXT
  5
269
100
AcDbEntity
  8
1
  6
CONTINUOUS
 62
     7
100
AcDbText
 10
421.6004
 20
372.4139
 30
0.0
 40
3.0
  1
SYSTEM
  7
MONOTXT
 11
421.6004
 21
375.4139
 31
0.0
210
0.0
220
0.0
230
1.0
100
AcDbText
 73
     3
  0
TEXT
  5
26A
100
AcDbEntity
  8
1
  6
CONTINUOUS
 62
     7
100
AcDbText
 10
430.1145
 20
349.8563
 30
0.0
 40
3.0
  1
HAND
  7
MONOTXT
 11
430.1145
 21
352.8563
 31
0.0
210
0.0
220
0.0
230
1.0
100
AcDbText
 73
     3
  0
TEXT
  5
26B
100
AcDbEntity
  8
1
  6
CONTINUOUS
 62
     7
100
AcDbText
 10
430.1145
 20
344.4563
 30
0.0
 40
3.0
  1
SWITCH
  7
MONOTXT
 11
430.1145
 21
347.4563
 31
0.0
210
0.0
220
0.0
230
1.0
100
AcDbText
 73
     3
  0
INSERT
  5
26C
100
AcDbEntity
  8
1
  6
CONTINUOUS
 62
     1
100
AcDbBlockReference
  2
LDR
 10
528.7945
 20
271.9534
 30
0.0
 41
239.999999
 42
239.999999
 50
258.693553
210
0.0
220
0.0
230
1.0
  0
TEXT
  5
26D
100
AcDbEntity
  8
1
  6
CONTINUOUS
 62
     7
100
AcDbText
 10
539.8339
 20
289.6986
 30
0.0
 40
3.0
  1
HEAVY DUTY
  7
MONOTXT
 11
539.8339
 21
292.6986
 31
0.0
210
0.0
220
0.0
230
1.0
100
AcDbText
 73
     3
  0
TEXT
  5
26E
100
AcDbEntity
  8
1
  6
CONTINUOUS
 62
     7
100
AcDbText
 10
539.8339
 20
284.2986
 30
0.0
 40
3.0
  1
LIGHTING
  7
MONOTXT
 11
539.8339
 21
287.2986
 31
0.0
210
0.0
220
0.0
230
1.0
100
AcDbText
 73
     3
  0
TEXT
  5
26F
100
AcDbEntity
  8
1
  6
CONTINUOUS
 62
     7
100
AcDbText
 10
539.8339
 20
278.8986
 30
0.0
 40
3.0
  1
CONTACTOR
  7
MONOTXT
 11
539.8339
 21
281.8986
 31
0.0
210
0.0
220
0.0
230
1.0
100
AcDbText
 73
     3
  0
LINE
  5
270
100
AcDbEntity
  8
1
  6
CONTINUOUS
 62
     7
100
AcDbLine
 10
468.0351
 20
163.7593
 30
0.0
 11
476.7371
 21
152.1137
 31
0.0
  0
LINE
  5
271
100
AcDbEntity
  8
1
  6
CONTINUOUS
 62
     7
100
AcDbLine
 10
476.7371
 20
152.1137
 30
0.0
 11
488.7316
 21
152.1137
 31
0.0
  0
INSERT
  5
272
100
AcDbEntity
  8
1
  6
CONTINUOUS
 62
     1
100
AcDbBlockReference
  2
LDR
 10
468.0351
 20
163.7593
 30
0.0
 41
239.999998
 42
239.999998
 50
126.768373
210
0.0
220
0.0
230
1.0
  0
LINE
  5
273
100
AcDbEntity
  8
1
  6
CONTINUOUS
 62
     7
100
AcDbLine
 10
546.3527
 20
163.7593
 30
0.0
 11
537.6507
 21
152.1137
 31
0.0
  0
LINE
  5
274
100
AcDbEntity
  8
1
  6
CONTINUOUS
 62
     7
100
AcDbLine
 10
537.6507
 20
152.1137
 30
0.0
 11
525.6562
 21
152.1137
 31
0.0
  0
INSERT
  5
275
100
AcDbEntity
  8
1
  6
CONTINUOUS
 62
     1
100
AcDbBlockReference
  2
LDR
 10
546.3527
 20
163.7593
 30
0.0
 41
239.999998
 42
-239.999998
 50
53.231627
210
0.0
220
0.0
230
1.0
  0
TEXT
  5
276
100
AcDbEntity
  8
1
  6
CONTINUOUS
 62
     7
100
AcDbText
 10
489.3196
 20
150.5253
 30
0.0
 40
3.0
  1
12OV OR 24OV
  7
MONOTXT
 11
489.3196
 21
153.5253
 31
0.0
210
0.0
220
0.0
230
1.0
100
AcDbText
 73
     3
  0
TEXT
  5
277
100
AcDbEntity
  8
1
  6
CONTINUOUS
 62
     7
100
AcDbText
 10
489.3196
 20
145.1253
 30
0.0
 40
3.0
  1
CIRCUITS AS
  7
MONOTXT
 11
489.3196
 21
148.1253
 31
0.0
210
0.0
220
0.0
230
1.0
100
AcDbText
 73
     3
  0
TEXT
  5
278
100
AcDbEntity
  8
1
  6
CONTINUOUS
 62
     7
100
AcDbText
 10
489.3196
 20
139.7253
 30
0.0
 40
3.0
  1
REQUIRED
  7
MONOTXT
 11
489.3196
 21
142.7253
 31
0.0
210
0.0
220
0.0
230
1.0
100
AcDbText
 73
     3
  0
LINE
  5
279
100
AcDbEntity
  8
1
  6
CONTINUOUS
 62
     7
100
AcDbLine
 10
576.8739
 20
163.7593
 30
0.0
 11
581.5032
 21
157.564
 31
0.0
  0
LINE
  5
27A
100
AcDbEntity
  8
1
  6
CONTINUOUS
 62
     7
100
AcDbLine
 10
581.5032
 20
157.564
 30
0.0
 11
591.1456
 21
157.564
 31
0.0
  0
INSERT
  5
27B
100
AcDbEntity
  8
1
  6
CONTINUOUS
 62
     1
100
AcDbBlockReference
  2
LDR
 10
576.8739
 20
163.7593
 30
0.0
 41
239.999998
 42
239.999998
 50
126.768373
210
0.0
220
0.0
230
1.0
  0
TEXT
  5
27C
100
AcDbEntity
  8
1
  6
CONTINUOUS
 62
     7
100
AcDbText
 10
592.0602
 20
161.4877
 30
0.0
 40
3.0
  1
120/240V 3-WIRE
  7
MONOTXT
 11
592.0602
 21
164.4877
 31
0.0
210
0.0
220
0.0
230
1.0
100
AcDbText
 73
     3
  0
TEXT
  5
27D
100
AcDbEntity
  8
1
  6
CONTINUOUS
 62
     7
100
AcDbText
 10
592.0602
 20
156.0877
 30
0.0
 40
3.0
  1
SINGLE 0 60Hz
  7
MONOTXT
 11
592.0602
 21
159.0877
 31
0.0
210
0.0
220
0.0
230
1.0
100
AcDbText
 73
     3
  0
TEXT
  5
27E
100
AcDbEntity
  8
1
  6
CONTINUOUS
 62
     7
100
AcDbText
 10
592.0602
 20
150.6877
 30
0.0
 40
3.0
  1
SERVICE
  7
MONOTXT
 11
592.0602
 21
153.6877
 31
0.0
210
0.0
220
0.0
230
1.0
100
AcDbText
 73
     3
  0
TEXT
  5
27F
100
AcDbEntity
  8
1
  6
CONTINUOUS
 62
     7
100
AcDbText
 10
610.6549
 20
156.0317
 30
0.0
 40
3.0
  1
/
  7
MONOTXT
210
0.0
220
0.0
230
1.0
100
AcDbText
  0
TEXT
  5
280
100
AcDbEntity
  8
1
  6
CONTINUOUS
 62
     7
100
AcDbText
 10
625.262
 20
155.5446
 30
0.0
 40
3.0
  1
-
  7
MONOTXT
210
0.0
220
0.0
230
1.0
100
AcDbText
  0
LINE
  5
281
100
AcDbEntity
  8
1
  6
CONTINUOUS
 62
     3
100
AcDbLine
 10
380.9252
 20
405.3267
 30
0.0
 11
392.9252
 21
405.3267
 31
0.0
  0
LINE
  5
282
100
AcDbEntity
  8
1
  6
CONTINUOUS
 62
     3
100
AcDbLine
 10
403.1252
 20
405.3267
 30
0.0
 11
580.1252
 21
405.3267
 31
0.0
  0
LINE
  5
283
100
AcDbEntity
  8
1
  6
CONTINUOUS
 62
     3
100
AcDbLine
 10
388.1252
 20
398.9855
 30
0.0
 11
392.9252
 21
398.9855
 31
0.0
  0
LINE
  5
284
100
AcDbEntity
  8
1
  6
CONTINUOUS
 62
     3
100
AcDbLine
 10
403.1252
 20
398.9855
 30
0.0
 11
572.9252
 21
398.9855
 31
0.0
  0
ARC
  5
285
100
AcDbEntity
  8
1
  6
CONTINUOUS
 62
     3
100
AcDbCircle
 10
398.0252
 20
406.911388
 30
0.0
 40
5.340528
210
0.0
220
0.0
230
1.0
100
AcDbArc
 50
197.261225
 51
342.738778
  0
ARC
  5
286
100
AcDbEntity
  8
1
  6
CONTINUOUS
 62
     3
100
AcDbCircle
 10
398.0252
 20
400.570188
 30
0.0
 40
5.340528
210
0.0
220
0.0
230
1.0
100
AcDbArc
 50
197.261225
 51
342.738778
  0
CIRCLE
  5
287
100
AcDbEntity
  8
1
  6
CONTINUOUS
 62
     3
100
AcDbCircle
 10
489.5252
 20
405.3267
 30
0.0
 40
0.9
210
0.0
220
0.0
230
1.0
  0
CIRCLE
  5
288
100
AcDbEntity
  8
1
  6
CONTINUOUS
 62
     3
100
AcDbCircle
 10
525.5252
 20
398.9855
 30
0.0
 40
0.9
210
0.0
220
0.0
230
1.0
  0
LINE
  5
289
100
AcDbEntity
  8
1
  6
CONTINUOUS
 62
     3
100
AcDbLine
 10
489.5252
 20
387.7074
 30
0.0
 11
489.5252
 21
397.1855
 31
0.0
  0
ARC
  5
28A
100
AcDbEntity
  8
1
  6
CONTINUOUS
 62
     3
100
AcDbCircle
 10
489.376602
 20
398.9855
 30
0.0
 40
1.806123
210
0.0
220
0.0
230
1.0
100
AcDbArc
 50
274.719331
 51
85.280669
  0
LINE
  5
28B
100
AcDbEntity
  8
1
  6
CONTINUOUS
 62
     3
100
AcDbLine
 10
380.9252
 20
220.6074
 30
0.0
 11
380.9252
 21
405.3267
 31
0.0
  0
LINE
  5
28C
100
AcDbEntity
  8
1
  6
CONTINUOUS
 62
     3
100
AcDbLine
 10
388.1252
 20
220.6074
 30
0.0
 11
388.1252
 21
398.9855
 31
0.0
  0
LINE
  5
28D
100
AcDbEntity
  8
1
  6
CONTINUOUS
 62
     3
100
AcDbLine
 10
386.3914
 20
218.2259
 30
0.0
 11
383.9914
 21
218.2259
 31
0.0
  0
CIRCLE
  5
28E
100
AcDbEntity
  8
1
  6
CONTINUOUS
 62
     3
100
AcDbCircle
 10
388.0476
 20
215.8259
 30
0.0
 40
0.9
210
0.0
220
0.0
230
1.0
  0
CIRCLE
  5
28F
100
AcDbEntity
  8
1
  6
CONTINUOUS
 62
     3
100
AcDbCircle
 10
380.8476
 20
215.8259
 30
0.0
 40
0.9
210
0.0
220
0.0
230
1.0
  0
CIRCLE
  5
290
100
AcDbEntity
  8
1
  6
CONTINUOUS
 62
     3
100
AcDbCircle
 10
388.0476
 20
220.6259
 30
0.0
 40
0.9
210
0.0
220
0.0
230
1.0
  0
CIRCLE
  5
291
100
AcDbEntity
  8
1
  6
CONTINUOUS
 62
     3
100
AcDbCircle
 10
380.8476
 20
220.6259
 30
0.0
 40
0.9
210
0.0
220
0.0
230
1.0
  0
ARC
  5
292
100
AcDbEntity
  8
1
  6
CONTINUOUS
 62
     3
100
AcDbCircle
 10
386.816407
 20
218.2259
 30
0.0
 40
3.775001
210
0.0
220
0.0
230
1.0
100
AcDbArc
 50
323.414164
 51
36.585836
  0
ARC
  5
293
100
AcDbEntity
  8
1
  6
CONTINUOUS
 62
     3
100
AcDbCircle
 10
379.616407
 20
218.2259
 30
0.0
 40
3.775001
210
0.0
220
0.0
230
1.0
100
AcDbArc
 50
323.414164
 51
36.585836
  0
LINE
  5
294
100
AcDbEntity
  8
1
  6
CONTINUOUS
 62
     3
100
AcDbLine
 10
389.9914
 20
218.2259
 30
0.0
 11
387.5914
 21
218.2259
 31
0.0
  0
LINE
  5
295
100
AcDbEntity
  8
1
  6
CONTINUOUS
 62
     3
100
AcDbLine
 10
380.9252
 20
166.1574
 30
0.0
 11
380.9252
 21
215.7309
 31
0.0
  0
LINE
  5
296
100
AcDbEntity
  8
1
  6
CONTINUOUS
 62
     3
100
AcDbLine
 10
388.1252
 20
166.1574
 30
0.0
 11
388.1252
 21
215.8466
 31
0.0
  0
LINE
  5
297
100
AcDbEntity
  8
1
  6
CONTINUOUS
 62
     3
100
AcDbLine
 10
388.1252
 20
219.6942
 30
0.0
 11
388.1252
 21
220.6074
 31
0.0
  0
CIRCLE
  5
298
100
AcDbEntity
  8
1
  6
CONTINUOUS
 62
     3
100
AcDbCircle
 10
561.5252
 20
194.3574
 30
0.0
 40
0.9
210
0.0
220
0.0
230
1.0
  0
LINE
  5
299
100
AcDbEntity
  8
1
  6
CONTINUOUS
 62
     3
100
AcDbLine
 10
400.7252
 20
228.1074
 30
0.0
 11
400.7252
 21
166.1574
 31
0.0
  0
LINE
  5
29A
100
AcDbEntity
  8
1
  6
CONTINUOUS
 62
     3
100
AcDbLine
 10
378.5252
 20
163.7574
 30
0.0
 11
404.3252
 21
163.7574
 31
0.0
  0
LINE
  5
29B
100
AcDbEntity
  8
1
  6
CONTINUOUS
 62
     3
100
AcDbLine
 10
378.5252
 20
163.7574
 30
0.0
 11
378.5252
 21
166.1574
 31
0.0
  0
LINE
  5
29C
100
AcDbEntity
  8
1
  6
CONTINUOUS
 62
     3
100
AcDbLine
 10
404.3252
 20
163.7574
 30
0.0
 11
404.3252
 21
166.1574
 31
0.0
  0
LINE
  5
29D
100
AcDbEntity
  8
1
  6
CONTINUOUS
 62
     3
100
AcDbLine
 10
400.7252
 20
228.1074
 30
0.0
 11
487.7252
 21
228.1074
 31
0.0
  0
LINE
  5
29E
100
AcDbEntity
  8
1
  6
CONTINUOUS
 62
     3
100
AcDbLine
 10
491.3252
 20
228.1074
 30
0.0
 11
523.7252
 21
228.1074
 31
0.0
  0
LINE
  5
29F
100
AcDbEntity
  8
1
  6
CONTINUOUS
 62
     3
100
AcDbLine
 10
527.3252
 20
228.1074
 30
0.0
 11
561.5252
 21
228.1074
 31
0.0
  0
ARC
  5
2A0
100
AcDbEntity
  8
1
  6
CONTINUOUS
 62
     3
100
AcDbCircle
 10
489.5252
 20
227.958802
 30
0.0
 40
1.806123
210
0.0
220
0.0
230
1.0
100
AcDbArc
 50
4.719331
 51
175.280669
  0
ARC
  5
2A1
100
AcDbEntity
  8
1
  6
CONTINUOUS
 62
     3
100
AcDbCircle
 10
525.5252
 20
227.958802
 30
0.0
 40
1.806123
210
0.0
220
0.0
230
1.0
100
AcDbArc
 50
4.719331
 51
175.280669
  0
TEXT
  5
2A2
100
AcDbEntity
  8
1
  6
CONTINUOUS
 62
     7
100
AcDbText
 10
547.6561
 20
376.5897
 30
0.0
 40
3.0
  1
LIGHTING
  7
MONOTXT
 11
547.6561
 21
379.5897
 31
0.0
210
0.0
220
0.0
230
1.0
100
AcDbText
 73
     3
  0
TEXT
  5
2A3
100
AcDbEntity
  8
1
  6
CONTINUOUS
 62
     7
100
AcDbText
 10
547.6561
 20
371.1897
 30
0.0
 40
3.0
  1
MAIN
  7
MONOTXT
 11
547.6561
 21
374.1897
 31
0.0
210
0.0
220
0.0
230
1.0
100
AcDbText
 73
     3
  0
TEXT
  5
2A4
100
AcDbEntity
  8
1
  6
CONTINUOUS
 62
     7
100
AcDbText
 10
547.6561
 20
365.7897
 30
0.0
 40
3.0
  1
BREAKER
  7
MONOTXT
 11
547.6561
 21
368.7897
 31
0.0
210
0.0
220
0.0
230
1.0
100
AcDbText
 73
     3
  0
TEXT
  5
2A5
100
AcDbEntity
  8
1
  6
CONTINUOUS
 62
     7
100
AcDbText
 10
603.8808
 20
206.1738
 30
0.0
 40
3.0
  1
NOTICE
  7
MONOTXT
 11
603.8808
 21
209.1738
 31
0.0
210
0.0
220
0.0
230
1.0
100
AcDbText
 73
     3
  0
TEXT
  5
2A6
100
AcDbEntity
  8
1
  6
CONTINUOUS
 62
     7
100
AcDbText
 10
603.8808
 20
200.7738
 30
0.0
 40
3.0
  1
ENCLOSURE POWER-OFF
  7
MONOTXT
 11
603.8808
 21
203.7738
 31
0.0
210
0.0
220
0.0
230
1.0
100
AcDbText
 73
     3
  0
TEXT
  5
2A7
100
AcDbEntity
  8
1
  6
CONTINUOUS
 62
     7
100
AcDbText
 10
603.8808
 20
195.3738
 30
0.0
 40
3.0
  1
DOOR INTERLOCK SHALL
  7
MONOTXT
 11
603.8808
 21
198.3738
 31
0.0
210
0.0
220
0.0
230
1.0
100
AcDbText
 73
     3
  0
TEXT
  5
2A8
100
AcDbEntity
  8
1
  6
CONTINUOUS
 62
     7
100
AcDbText
 10
603.8808
 20
189.9738
 30
0.0
 40
3.0
  1
NOT BE USED FOR THIS
  7
MONOTXT
 11
603.8808
 21
192.9738
 31
0.0
210
0.0
220
0.0
230
1.0
100
AcDbText
 73
     3
  0
TEXT
  5
2A9
100
AcDbEntity
  8
1
  6
CONTINUOUS
 62
     7
100
AcDbText
 10
603.8808
 20
184.5738
 30
0.0
 40
3.0
  1
CONTROL CABINET
  7
MONOTXT
 11
603.8808
 21
187.5738
 31
0.0
210
0.0
220
0.0
230
1.0
100
AcDbText
 73
     3
  0
LINE
  5
2AA
100
AcDbEntity
  8
1
  6
CONTINUOUS
 62
     7
100
AcDbLine
 10
591.1978
 20
197.7048
 30
0.0
 11
601.9978
 21
197.7048
 31
0.0
  0
LINE
  5
2AB
100
AcDbEntity
  8
1
  6
CONTINUOUS
 62
     7
100
AcDbLine
 10
591.1978
 20
195.0927
 30
0.0
 11
601.9978
 21
195.0927
 31
0.0
  0
LINE
  5
2AC
100
AcDbEntity
  8
1
  6
CONTINUOUS
 62
     7
100
AcDbLine
 10
588.5022
 20
196.3988
 30
0.0
 11
592.7448
 21
200.6414
 31
0.0
  0
LINE
  5
2AD
100
AcDbEntity
  8
1
  6
CONTINUOUS
 62
     7
100
AcDbLine
 10
588.5022
 20
196.3988
 30
0.0
 11
592.7448
 21
192.1562
 31
0.0
  0
LINE
  5
2AE
100
AcDbEntity
  8
1
  6
CONTINUOUS
 62
     7
100
AcDbLine
 10
389.6568
 20
163.7574
 30
0.0
 11
377.3986
 21
129.2001
 31
0.0
  0
LINE
  5
2AF
100
AcDbEntity
  8
1
  6
CONTINUOUS
 62
     7
100
AcDbLine
 10
377.3986
 20
129.2001
 30
0.0
 11
402.6694
 21
129.2001
 31
0.0
  0
INSERT
  5
2B0
100
AcDbEntity
  8
1
  6
CONTINUOUS
 62
     1
100
AcDbBlockReference
  2
LDR
 10
389.6568
 20
163.7574
 30
0.0
 41
239.999999
 42
239.999999
 50
70.469335
210
0.0
220
0.0
230
1.0
  0
TEXT
  5
2B1
100
AcDbEntity
  8
1
  6
CONTINUOUS
 62
     7
100
AcDbText
 10
315.9086
 20
246.429
 30
0.0
 40
3.0
  1
BREAKER (TYP)
  7
MONOTXT
 11
315.9086
 21
249.429
 31
0.0
210
0.0
220
0.0
230
1.0
100
AcDbText
 73
     3
  0
TEXT
  5
2B2
100
AcDbEntity
  8
1
  6
CONTINUOUS
 62
     7
100
AcDbText
 10
315.9086
 20
241.029
 30
0.0
 40
3.0
  1
SIZE AS REQUIRED
  7
MONOTXT
 11
315.9086
 21
244.029
 31
0.0
210
0.0
220
0.0
230
1.0
100
AcDbText
 73
     3
  0
LINE
  5
2B3
100
AcDbEntity
  8
1
  6
CONTINUOUS
 62
     7
100
AcDbLine
 10
244.8846
 20
225.1292
 30
0.0
 11
314.2853
 21
244.9318
 31
0.0
  0
LINE
  5
2B4
100
AcDbEntity
  8
1
  6
CONTINUOUS
 62
     7
100
AcDbLine
 10
483.6028
 20
223.6446
 30
0.0
 11
359.3904
 21
245.8573
 31
0.0
  0
LINE
  5
2B5
100
AcDbEntity
  8
1
  6
CONTINUOUS
 62
     7
100
AcDbLine
 10
359.3904
 20
245.8573
 30
0.0
 11
385.8335
 21
220.0305
 31
0.0
  0
INSERT
  5
2B6
100
AcDbEntity
  8
1
  6
CONTINUOUS
 62
     1
100
AcDbBlockReference
  2
LDR
 10
385.8335
 20
220.0305
 30
0.0
 41
239.999999
 42
239.999999
 50
315.675528
210
0.0
220
0.0
230
1.0
  0
INSERT
  5
2B7
100
AcDbEntity
  8
1
  6
CONTINUOUS
 62
     1
100
AcDbBlockReference
  2
LDR
 10
483.6028
 20
223.6446
 30
0.0
 41
239.999998
 42
239.999998
 50
349.861063
210
0.0
220
0.0
230
1.0
  0
INSERT
  5
2B8
100
AcDbEntity
  8
1
  6
CONTINUOUS
 62
     1
100
AcDbBlockReference
  2
LDR
 10
244.8846
 20
225.1292
 30
0.0
 41
240.000002
 42
240.000002
 50
195.925418
210
0.0
220
0.0
230
1.0
  0
TEXT
  5
2B9
100
AcDbEntity
  8
1
  6
CONTINUOUS
 62
     7
100
AcDbText
 10
173.1586
 20
88.4342
 30
0.0
 40
4.8
  1
TYPICAL WIRING
  7
MONOTXT
 72
     4
 11
201.5239
 21
90.8342
 31
0.0
210
0.0
220
0.0
230
1.0
100
AcDbText
  0
TEXT
  5
2BA
100
AcDbEntity
  8
1
  6
CONTINUOUS
 62
     7
100
AcDbText
 10
139.4075
 20
78.8342
 30
0.0
 40
4.8
  1
SINGLE PHASE - POWER SERVICE
  7
MONOTXT
 72
     4
 11
201.524
 21
81.2342
 31
0.0
210
0.0
220
0.0
230
1.0
100
AcDbText
  0
TEXT
  5
2BB
100
AcDbEntity
  8
1
  6
CONTINUOUS
 62
     7
100
AcDbText
 10
174.1791
 20
69.2342
 30
0.0
 40
4.8
  1
LIGHTING ONLY
  7
MONOTXT
 72
     4
 11
201.5239
 21
71.6342
 31
0.0
210
0.0
220
0.0
230
1.0
100
AcDbText
  0
TEXT
  5
2BC
100
AcDbEntity
  8
1
  6
CONTINUOUS
 62
     7
100
AcDbText
 10
459.8979
 20
87.274
 30
0.0
 40
4.8
  1
TYPICAL WIRING
  7
MONOTXT
 72
     4
 11
488.2632
 21
89.674
 31
0.0
210
0.0
220
0.0
230
1.0
100
AcDbText
  0
TEXT
  5
2BD
100
AcDbEntity
  8
1
  6
CONTINUOUS
 62
     7
100
AcDbText
 10
426.1468
 20
77.674
 30
0.0
 40
4.8
  1
SINGLE PHASE - POWER SERVICE
  7
MONOTXT
 72
     4
 11
488.2633
 21
80.074
 31
0.0
210
0.0
220
0.0
230
1.0
100
AcDbText
  0
TEXT
  5
2BE
100
AcDbEntity
  8
1
  6
CONTINUOUS
 62
     7
100
AcDbText
 10
419.9861
 20
68.074
 30
0.0
 40
4.8
  1
LIGHTING WITH SEPARATE FEED FOR
  7
MONOTXT
 72
     4
 11
488.2632
 21
70.474
 31
0.0
210
0.0
220
0.0
230
1.0
100
AcDbText
  0
TEXT
  5
2BF
100
AcDbEntity
  8
1
  6
CONTINUOUS
 62
     7
100
AcDbText
 10
456.8365
 20
58.474
 30
0.0
 40
4.8
  1
TRAFFIC SIGNALS
  7
MONOTXT
 72
     4
 11
488.2632
 21
60.874
 31
0.0
210
0.0
220
0.0
230
1.0
100
AcDbText
  0
LINE
  5
2C0
100
AcDbEntity
  8
1
  6
CONTINUOUS
 62
     7
100
AcDbLine
 10
172.267
 20
86.5761
 30
0.0
 11
231.6026
 21
86.5761
 31
0.0
  0
LINE
  5
2C1
100
AcDbEntity
  8
1
  6
CONTINUOUS
 62
     7
100
AcDbLine
 10
138.1893
 20
76.7428
 30
0.0
 11
265.5603
 21
76.7428
 31
0.0
  0
LINE
  5
2C2
100
AcDbEntity
  8
1
  6
CONTINUOUS
 62
     7
100
AcDbLine
 10
172.9223
 20
67.2373
 30
0.0
 11
230.4226
 21
67.2373
 31
0.0
  0
LINE
  5
2C3
100
AcDbEntity
  8
1
  6
CONTINUOUS
 62
     7
100
AcDbLine
 10
459.362
 20
85.2617
 30
0.0
 11
518.0345
 21
85.2617
 31
0.0
  0
LINE
  5
2C4
100
AcDbEntity
  8
1
  6
CONTINUOUS
 62
     7
100
AcDbLine
 10
424.6048
 20
75.5021
 30
0.0
 11
552.3681
 21
75.5021
 31
0.0
  0
LINE
  5
2C5
100
AcDbEntity
  8
1
  6
CONTINUOUS
 62
     7
100
AcDbLine
 10
418.6595
 20
66.2
 30
0.0
 11
558.4983
 21
66.2
 31
0.0
  0
LINE
  5
2C6
100
AcDbEntity
  8
1
  6
CONTINUOUS
 62
     7
100
AcDbLine
 10
455.5509
 20
56.4405
 30
0.0
 11
522.2867
 21
56.4405
 31
0.0
  0
LINE
  5
2C7
100
AcDbEntity
  8
1
  6
CONTINUOUS
 62
     7
100
AcDbLine
 10
602.344
 20
205.7126
 30
0.0
 11
620.1222
 21
205.7126
 31
0.0
  0
LINE
  5
2C8
100
AcDbEntity
  8
1
  6
CONTINUOUS
 62
     7
100
AcDbLine
 10
683.7609
 20
304.2721
 30
0.0
 11
694.1129
 21
304.2721
 31
0.0
  0
LINE
  5
2C9
100
AcDbEntity
  8
1
  6
CONTINUOUS
 62
     7
100
AcDbLine
 10
611.4954
 20
482.4244
 30
0.0
 11
628.1807
 21
482.4244
 31
0.0
  0
LINE
  5
2CA
100
AcDbEntity
  8
1
  6
CONTINUOUS
 62
     7
100
AcDbLine
 10
599.2623
 20
128.8349
 30
0.0
 11
596.8623
 21
124.678
 31
0.0
  0
LINE
  5
2CB
100
AcDbEntity
  8
1
  6
CONTINUOUS
 62
     7
100
AcDbLine
 10
599.2623
 20
128.8349
 30
0.0
 11
601.6623
 21
124.678
 31
0.0
  0
LINE
  5
2CC
100
AcDbEntity
  8
1
  6
CONTINUOUS
 62
     7
100
AcDbLine
 10
601.6623
 20
124.678
 30
0.0
 11
596.8623
 21
124.678
 31
0.0
  0
LINE
  5
2CD
100
AcDbEntity
  8
1
  6
CONTINUOUS
 62
     7
100
AcDbLine
 10
599.2704
 20
134.2122
 30
0.0
 11
596.8704
 21
130.0553
 31
0.0
  0
LINE
  5
2CE
100
AcDbEntity
  8
1
  6
CONTINUOUS
 62
     7
100
AcDbLine
 10
599.2704
 20
134.2122
 30
0.0
 11
601.6704
 21
130.0553
 31
0.0
  0
LINE
  5
2CF
100
AcDbEntity
  8
1
  6
CONTINUOUS
 62
     7
100
AcDbLine
 10
601.6704
 20
130.0553
 30
0.0
 11
596.8704
 21
130.0553
 31
0.0
  0
LINE
  5
2D0
100
AcDbEntity
  8
1
  6
CONTINUOUS
 62
     7
100
AcDbLine
 10
599.2548
 20
139.7376
 30
0.0
 11
596.8548
 21
135.5807
 31
0.0
  0
LINE
  5
2D1
100
AcDbEntity
  8
1
  6
CONTINUOUS
 62
     7
100
AcDbLine
 10
599.2548
 20
139.7376
 30
0.0
 11
601.6548
 21
135.5807
 31
0.0
  0
LINE
  5
2D2
100
AcDbEntity
  8
1
  6
CONTINUOUS
 62
     7
100
AcDbLine
 10
601.6548
 20
135.5807
 30
0.0
 11
596.8548
 21
135.5807
 31
0.0
  0
TEXT
  5
2D3
100
AcDbEntity
  8
1
  6
CONTINUOUS
 62
     7
100
AcDbText
 10
598.7968
 20
136.0629
 30
0.0
 40
2.28
  1
1
  7
MONOTXT
210
0.0
220
0.0
230
1.0
100
AcDbText
  0
TEXT
  5
2D4
100
AcDbEntity
  8
1
  6
CONTINUOUS
 62
     7
100
AcDbText
 10
598.5196
 20
130.5173
 30
0.0
 40
2.28
  1
2
  7
MONOTXT
210
0.0
220
0.0
230
1.0
100
AcDbText
  0
TEXT
  5
2D5
100
AcDbEntity
  8
1
  6
CONTINUOUS
 62
     7
100
AcDbText
 10
598.4272
 20
125.064
 30
0.0
 40
2.28
  1
3
  7
MONOTXT
210
0.0
220
0.0
230
1.0
100
AcDbText
  0
TEXT
  5
2D6
100
AcDbEntity
  8
1
  6
CONTINUOUS
 62
     7
100
AcDbText
 10
602.4003
 20
136.6175
 30
0.0
 40
2.28
  1
COORDINATED VOLTAGES WITH TEL-01.
  7
MONOTXT
210
0.0
220
0.0
230
1.0
100
AcDbText
  0
TEXT
  5
2D7
100
AcDbEntity
  8
1
  6
CONTINUOUS
 62
     7
100
AcDbText
 10
602.6775
 20
131.3491
 30
0.0
 40
2.28
  1
COMPLETELY CHANGED TYPICAL WIRING.
  7
MONOTXT
210
0.0
220
0.0
230
1.0
100
AcDbText
  0
TEXT
  5
2D8
100
AcDbEntity
  8
1
  6
CONTINUOUS
 62
     7
100
AcDbText
 10
602.7699
 20
125.8959
 30
0.0
 40
2.28
  1
MODIFIED PHOTOELECTRIC CELL WIRING SCHEME.
  7
MONOTXT
210
0.0
220
0.0
230
1.0
100
AcDbText
  0
LINE
  5
2D9
100
AcDbEntity
  8
1
  6
CONTINUOUS
 62
     7
100
AcDbLine
 10
604.2962
 20
39.7254
 30
0.0
 11
599.4962
 21
39.7254
 31
0.0
  0
LINE
  5
2DA
100
AcDbEntity
  8
1
  6
CONTINUOUS
 62
     7
100
AcDbLine
 10
601.8962
 20
43.8823
 30
0.0
 11
599.4962
 21
39.7254
 31
0.0
  0
LINE
  5
2DB
100
AcDbEntity
  8
1
  6
CONTINUOUS
 62
     7
100
AcDbLine
 10
601.8962
 20
43.8823
 30
0.0
 11
604.2962
 21
39.7254
 31
0.0
  0
LINE
  5
2DC
100
AcDbEntity
  8
1
  6
CONTINUOUS
 62
     7
100
AcDbLine
 10
604.2577
 20
33.949
 30
0.0
 11
599.4577
 21
33.949
 31
0.0
  0
LINE
  5
2DD
100
AcDbEntity
  8
1
  6
CONTINUOUS
 62
     7
100
AcDbLine
 10
601.8577
 20
38.1059
 30
0.0
 11
599.4577
 21
33.949
 31
0.0
  0
LINE
  5
2DE
100
AcDbEntity
  8
1
  6
CONTINUOUS
 62
     7
100
AcDbLine
 10
601.8577
 20
38.1059
 30
0.0
 11
604.2577
 21
33.949
 31
0.0
  0
LINE
  5
2DF
100
AcDbEntity
  8
1
  6
CONTINUOUS
 62
     7
100
AcDbLine
 10
604.1979
 20
28.271
 30
0.0
 11
599.3979
 21
28.271
 31
0.0
  0
LINE
  5
2E0
100
AcDbEntity
  8
1
  6
CONTINUOUS
 62
     7
100
AcDbLine
 10
601.7979
 20
32.4279
 30
0.0
 11
599.3979
 21
28.271
 31
0.0
  0
LINE
  5
2E1
100
AcDbEntity
  8
1
  6
CONTINUOUS
 62
     7
100
AcDbLine
 10
601.7979
 20
32.4279
 30
0.0
 11
604.1979
 21
28.271
 31
0.0
  0
TEXT
  5
2E2
100
AcDbEntity
  8
1
  6
CONTINUOUS
 62
     1
100
AcDbText
 10
609.4882
 20
40.1295
 30
0.0
 40
2.4
  1
12-10-76
  7
MONOTXT
 72
     1
 11
617.1512
 21
42.5295
 31
0.0
210
0.0
220
0.0
230
1.0
100
AcDbText
 73
     3
  0
TEXT
  5
2E3
100
AcDbEntity
  8
1
  6
CONTINUOUS
 62
     7
100
AcDbText
 10
601.3276
 20
40.1532
 30
0.0
 40
2.28
  1
1
  7
MONOTXT
210
0.0
220
0.0
230
1.0
100
AcDbText
  0
TEXT
  5
2E4
100
AcDbEntity
  8
1
  6
CONTINUOUS
 62
     7
100
AcDbText
 10
601.0924
 20
34.3768
 30
0.0
 40
2.28
  1
2
  7
MONOTXT
210
0.0
220
0.0
230
1.0
100
AcDbText
  0
TEXT
  5
2E5
100
AcDbEntity
  8
1
  6
CONTINUOUS
 62
     7
100
AcDbText
 10
600.9835
 20
28.5512
 30
0.0
 40
2.28
  1
3
  7
MONOTXT
210
0.0
220
0.0
230
1.0
100
AcDbText
  0
TEXT
  5
2E6
100
AcDbEntity
  8
1
  6
CONTINUOUS
 62
     7
100
AcDbText
 10
43.4946
 20
310.7311
 30
0.0
 40
3.0
  1
JACK
  7
MONOTXT
 11
43.4946
 21
313.7311
 31
0.0
210
0.0
220
0.0
230
1.0
100
AcDbText
 73
     3
  0
TEXT
  5
2E7
100
AcDbEntity
  8
1
  6
CONTINUOUS
 62
     7
100
AcDbText
 10
43.4946
 20
305.3311
 30
0.0
 40
3.0
  1
MOUNTED
  7
MONOTXT
 11
43.4946
 21
308.3311
 31
0.0
210
0.0
220
0.0
230
1.0
100
AcDbText
 73
     3
  0
TEXT
  5
2E8
100
AcDbEntity
  8
1
  6
CONTINUOUS
 62
     7
100
AcDbText
 10
43.4946
 20
299.9311
 30
0.0
 40
3.0
  1
RELAYS
  7
MONOTXT
 11
43.4946
 21
302.9311
 31
0.0
210
0.0
220
0.0
230
1.0
100
AcDbText
 73
     3
  0
TEXT
  5
2E9
100
AcDbEntity
  8
1
  6
CONTINUOUS
 62
     7
100
AcDbText
 10
43.4946
 20
294.5311
 30
0.0
 40
3.0
  1
(TYP)
  7
MONOTXT
 11
43.4946
 21
297.5311
 31
0.0
210
0.0
220
0.0
230
1.0
100
AcDbText
 73
     3
  0
TEXT
  5
2EA
100
AcDbEntity
  8
1
  6
CONTINUOUS
 62
     7
100
AcDbText
 10
612.4373
 20
70.6424
 30
0.0
 40
7.2
  1
CONTROL STATION (POLE MOUNTED)
  7
TXT
210
0.0
220
0.0
230
1.0
100
AcDbText
  0
LINE
  5
2EB
100
AcDbEntity
  8
1
  6
CONTINUOUS
 62
     7
100
AcDbLine
 10
601.8712
 20
119.3502
 30
0.0
 11
597.0712
 21
119.3502
 31
0.0
  0
LINE
  5
2EC
100
AcDbEntity
  8
1
  6
CONTINUOUS
 62
     7
100
AcDbLine
 10
599.4712
 20
123.5071
 30
0.0
 11
597.0712
 21
119.3502
 31
0.0
  0
LINE
  5
2ED
100
AcDbEntity
  8
1
  6
CONTINUOUS
 62
     7
100
AcDbLine
 10
599.4712
 20
123.5071
 30
0.0
 11
601.8712
 21
119.3502
 31
0.0
  0
TEXT
  5
2EE
100
AcDbEntity
  8
1
  6
CONTINUOUS
 62
     7
100
AcDbText
 10
598.6361
 20
119.7362
 30
0.0
 40
2.28
  1
4
  7
MONOTXT
210
0.0
220
0.0
230
1.0
100
AcDbText
  0
TEXT
  5
2EF
100
AcDbEntity
  8
1
  6
CONTINUOUS
 62
     7
100
AcDbText
 10
602.9788
 20
120.5681
 30
0.0
 40
2.28
  1
REVISED PE CELL, ADDED COMBINATION SIGNAL AND LIGHTING CONTROLLER
  7
MONOTXT
210
0.0
220
0.0
230
1.0
100
AcDbText
  0
LINE
  5
2F0
100
AcDbEntity
  8
1
  6
CONTINUOUS
 62
     7
100
AcDbLine
 10
604.5191
 20
22.5829
 30
0.0
 11
599.7191
 21
22.5829
 31
0.0
  0
LINE
  5
2F1
100
AcDbEntity
  8
1
  6
CONTINUOUS
 62
     7
100
AcDbLine
 10
602.1191
 20
26.7398
 30
0.0
 11
599.7191
 21
22.5829
 31
0.0
  0
LINE
  5
2F2
100
AcDbEntity
  8
1
  6
CONTINUOUS
 62
     7
100
AcDbLine
 10
602.1191
 20
26.7398
 30
0.0
 11
604.5191
 21
22.5829
 31
0.0
  0
TEXT
  5
2F3
100
AcDbEntity
  8
1
  6
CONTINUOUS
 62
     7
100
AcDbText
 10
601.3047
 20
22.8631
 30
0.0
 40
2.28
  1
4
  7
MONOTXT
210
0.0
220
0.0
230
1.0
100
AcDbText
  0
LINE
  5
2F4
100
AcDbEntity
  8
1
  6
CONTINUOUS
 62
     7
100
AcDbLine
 10
599.4132
 20
117.8554
 30
0.0
 11
601.8132
 21
113.6985
 31
0.0
  0
LINE
  5
2F5
100
AcDbEntity
  8
1
  6
CONTINUOUS
 62
     7
100
AcDbLine
 10
599.4132
 20
117.8554
 30
0.0
 11
597.0132
 21
113.6985
 31
0.0
  0
LINE
  5
2F6
100
AcDbEntity
  8
1
  6
CONTINUOUS
 62
     7
100
AcDbLine
 10
601.8132
 20
113.6985
 30
0.0
 11
597.0132
 21
113.6985
 31
0.0
  0
TEXT
  5
2F7
100
AcDbEntity
  8
1
  6
CONTINUOUS
 62
     7
100
AcDbText
 10
598.9552
 20
114.1807
 30
0.0
 40
2.28
  1
5
  7
MONOTXT
210
0.0
220
0.0
230
1.0
100
AcDbText
  0
TEXT
  5
2F8
100
AcDbEntity
  8
1
  6
CONTINUOUS
 62
     7
100
AcDbText
 10
602.5587
 20
114.7353
 30
0.0
 40
2.28
  1
ADDED METRIC
  7
MONOTXT
210
0.0
220
0.0
230
1.0
100
AcDbText
  0
LINE
  5
2F9
100
AcDbEntity
  8
1
  6
CONTINUOUS
 62
     7
100
AcDbLine
 10
601.961
 20
20.7156
 30
0.0
 11
604.361
 21
16.5587
 31
0.0
  0
TEXT
  5
2FA
100
AcDbEntity
  8
1
  6
CONTINUOUS
 62
     1
100
AcDbText
 10
610.5338
 20
17.4144
 30
0.0
 40
2.4
  1
04-14-94
  7
MONOTXT
 72
     1
 11
618.8582
 21
19.8144
 31
0.0
210
0.0
220
0.0
230
1.0
100
AcDbText
 73
     3
  0
LINE
  5
2FB
100
AcDbEntity
  8
1
  6
CONTINUOUS
 62
     7
100
AcDbLine
 10
604.361
 20
16.5587
 30
0.0
 11
599.561
 21
16.5587
 31
0.0
  0
LINE
  5
2FC
100
AcDbEntity
  8
1
  6
CONTINUOUS
 62
     7
100
AcDbLine
 10
601.961
 20
20.7156
 30
0.0
 11
599.561
 21
16.5587
 31
0.0
  0
TEXT
  5
2FD
100
AcDbEntity
  8
1
  6
CONTINUOUS
 62
     7
100
AcDbText
 10
601.1466
 20
16.8389
 30
0.0
 40
2.28
  1
5
  7
MONOTXT
210
0.0
220
0.0
230
1.0
100
AcDbText
  0
TEXT
  5
2FE
100
AcDbEntity
  8
1
  6
CONTINUOUS
 62
     7
100
AcDbText
 10
403.5984
 20
128.2447
 30
0.0
 40
3.0
  1
120/240V 3-WIRE POWER SERVICE
  7
MONOTXT
 11
403.5984
 21
131.2447
 31
0.0
210
0.0
220
0.0
230
1.0
100
AcDbText
 73
     3
  0
TEXT
  5
2FF
100
AcDbEntity
  8
1
  6
CONTINUOUS
 62
     7
100
AcDbText
 10
403.5984
 20
122.8447
 30
0.0
 40
3.0
  1
FOR SIGNALS 8.39mm2 AWG (NOMINAL) OR
  7
MONOTXT
 11
403.5984
 21
125.8447
 31
0.0
210
0.0
220
0.0
230
1.0
100
AcDbText
 73
     3
  0
TEXT
  5
300
100
AcDbEntity
  8
1
  6
CONTINUOUS
 62
     7
100
AcDbText
 10
403.5984
 20
117.4447
 30
0.0
 40
3.0
  1
AS SHOWN ON PLANS (SEE NOTE 14)
  7
MONOTXT
 11
403.5984
 21
120.4447
 31
0.0
210
0.0
220
0.0
230
1.0
100
AcDbText
 73
     3
  0
TEXT
  5
301
100
AcDbEntity
  8
1
  6
CONTINUOUS
 62
     7
100
AcDbText
 10
612.3447
 20
483.707
 30
0.0
 40
3.0
  1
NOTES:
  7
MONOTXT
 11
612.3447
 21
486.707
 31
0.0
210
0.0
220
0.0
230
1.0
100
AcDbText
 73
     3
  0
TEXT
  5
302
100
AcDbEntity
  8
1
  6
CONTINUOUS
 62
     7
100
AcDbText
 10
612.3447
 20
478.307
 30
0.0
 40
3.0
  1
 
  7
MONOTXT
 11
612.3447
 21
481.307
 31
0.0
210
0.0
220
0.0
230
1.0
100
AcDbText
 73
     3
  0
TEXT
  5
303
100
AcDbEntity
  8
1
  6
CONTINUOUS
 62
     7
100
AcDbText
 10
612.3447
 20
472.907
 30
0.0
 40
3.0
  1
1.   COMPONENT SIZES FOR CONTROL CENTERS NOT SPECIFIED ON THIS
  7
MONOTXT
 11
612.3447
 21
475.907
 31
0.0
210
0.0
220
0.0
230
1.0
100
AcDbText
 73
     3
  0
TEXT
  5
304
100
AcDbEntity
  8
1
  6
CONTINUOUS
 62
     7
100
AcDbText
 10
612.3447
 20
467.507
 30
0.0
 40
3.0
  1
   SHEET WILL BE DETERMINED BY EVALUATION OF THE CIRCUIT LOAD.
  7
MONOTXT
 11
612.3447
 21
470.507
 31
0.0
210
0.0
220
0.0
230
1.0
100
AcDbText
 73
     3
  0
TEXT
  5
305
100
AcDbEntity
  8
1
  6
CONTINUOUS
 62
     7
100
AcDbText
 10
612.3447
 20
462.107
 30
0.0
 40
3.0
  1
 
  7
MONOTXT
 11
612.3447
 21
465.107
 31
0.0
210
0.0
220
0.0
230
1.0
100
AcDbText
 73
     3
  0
TEXT
  5
306
100
AcDbEntity
  8
1
  6
CONTINUOUS
 62
     7
100
AcDbText
 10
612.3447
 20
456.707
 30
0.0
 40
3.0
  1
2.   FOR INTERNAL CONTROL CENTER WIRING  10 AWG STRANDED
  7
MONOTXT
 11
612.3447
 21
459.707
 31
0.0
210
0.0
220
0.0
230
1.0
100
AcDbText
 73
     3
  0
TEXT
  5
307
100
AcDbEntity
  8
1
  6
CONTINUOUS
 62
     7
100
AcDbText
 10
612.3447
 20
451.307
 30
0.0
 40
3.0
  1
   COPPER WIRE SHALL BE USED UNLESS OTHERWISE SPECIFIED.
  7
MONOTXT
 11
612.3447
 21
454.307
 31
0.0
210
0.0
220
0.0
230
1.0
100
AcDbText
 73
     3
  0
TEXT
  5
308
100
AcDbEntity
  8
1
  6
CONTINUOUS
 62
     7
100
AcDbText
 10
612.3447
 20
445.907
 30
0.0
 40
3.0
  1
 
  7
MONOTXT
 11
612.3447
 21
448.907
 31
0.0
210
0.0
220
0.0
230
1.0
100
AcDbText
 73
     3
  0
TEXT
  5
309
100
AcDbEntity
  8
1
  6
CONTINUOUS
 62
     7
100
AcDbText
 10
612.3447
 20
440.507
 30
0.0
 40
3.0
  1
3.   LIGHTNING PROTECTION FOR CONTROL STATION SHALL BE PROVIDED
  7
MONOTXT
 11
612.3447
 21
443.507
 31
0.0
210
0.0
220
0.0
230
1.0
100
AcDbText
 73
     3
  0
TEXT
  5
30A
100
AcDbEntity
  8
1
  6
CONTINUOUS
 62
     7
100
AcDbText
 10
612.3447
 20
435.107
 30
0.0
 40
3.0
  1
   ON THE SERVICE POLE AT THE WEATHERHEAD AS PER TEL-21.
  7
MONOTXT
 11
612.3447
 21
438.107
 31
0.0
210
0.0
220
0.0
230
1.0
100
AcDbText
 73
     3
  0
TEXT
  5
30B
100
AcDbEntity
  8
1
  6
CONTINUOUS
 62
     7
100
AcDbText
 10
612.3447
 20
429.707
 30
0.0
 40
3.0
  1
 
  7
MONOTXT
 11
612.3447
 21
432.707
 31
0.0
210
0.0
220
0.0
230
1.0
100
AcDbText
 73
     3
  0
TEXT
  5
30C
100
AcDbEntity
  8
1
  6
CONTINUOUS
 62
     7
100
AcDbText
 10
612.3447
 20
424.307
 30
0.0
 40
3.0
  1
4.   CONDUIT HUBS SHALL BE MOUNTED TO ACCOMMODATE ALL CIRCUITS
  7
MONOTXT
 11
612.3447
 21
427.307
 31
0.0
210
0.0
220
0.0
230
1.0
100
AcDbText
 73
     3
  0
TEXT
  5
30D
100
AcDbEntity
  8
1
  6
CONTINUOUS
 62
     7
100
AcDbText
 10
612.3447
 20
418.907
 30
0.0
 40
3.0
  1
   TO BE SERVED. SIZES SHALL BE COMPATIBLE TO CONDUIT SIZE 
  7
MONOTXT
 11
612.3447
 21
421.907
 31
0.0
210
0.0
220
0.0
230
1.0
100
AcDbText
 73
     3
  0
TEXT
  5
30E
100
AcDbEntity
  8
1
  6
CONTINUOUS
 62
     7
100
AcDbText
 10
612.3447
 20
413.507
 30
0.0
 40
3.0
  1
   INDICATED ON PLAN SHEETS. REDUCERS SHALL NOT BE USED.
  7
MONOTXT
 11
612.3447
 21
416.507
 31
0.0
210
0.0
220
0.0
230
1.0
100
AcDbText
 73
     3
  0
TEXT
  5
30F
100
AcDbEntity
  8
1
  6
CONTINUOUS
 62
     7
100
AcDbText
 10
612.3447
 20
408.107
 30
0.0
 40
3.0
  1
 
  7
MONOTXT
 11
612.3447
 21
411.107
 31
0.0
210
0.0
220
0.0
230
1.0
100
AcDbText
 73
     3
  0
TEXT
  5
310
100
AcDbEntity
  8
1
  6
CONTINUOUS
 62
     7
100
AcDbText
 10
612.3447
 20
402.707
 30
0.0
 40
3.0
  1
5.   IN THE EVENT THAT A CONTROL STATION COMPONENT SIZE FALLS
  7
MONOTXT
 11
612.3447
 21
405.707
 31
0.0
210
0.0
220
0.0
230
1.0
100
AcDbText
 73
     3
  0
TEXT
  5
311
100
AcDbEntity
  8
1
  6
CONTINUOUS
 62
     7
100
AcDbText
 10
612.3447
 20
397.307
 30
0.0
 40
3.0
  1
   BETWEEN TWO TRADE SIZES, THE HIGHER TRADE SIZE SHALL BE USED.
  7
MONOTXT
 11
612.3447
 21
400.307
 31
0.0
210
0.0
220
0.0
230
1.0
100
AcDbText
 73
     3
  0
TEXT
  5
312
100
AcDbEntity
  8
1
  6
CONTINUOUS
 62
     7
100
AcDbText
 10
612.3447
 20
391.907
 30
0.0
 40
3.0
  1
 
  7
MONOTXT
 11
612.3447
 21
394.907
 31
0.0
210
0.0
220
0.0
230
1.0
100
AcDbText
 73
     3
  0
TEXT
  5
313
100
AcDbEntity
  8
1
  6
CONTINUOUS
 62
     7
100
AcDbText
 10
612.3447
 20
386.507
 30
0.0
 40
3.0
  1
6.   GROUNDING SYSTEMS SHALL BE INSTALLED IN STRICT COMPLIANCE WITH
  7
MONOTXT
 11
612.3447
 21
389.507
 31
0.0
210
0.0
220
0.0
230
1.0
100
AcDbText
 73
     3
  0
TEXT
  5
314
100
AcDbEntity
  8
1
  6
CONTINUOUS
 62
     7
100
AcDbText
 10
612.3447
 20
381.107
 30
0.0
 40
3.0
  1
   NATIONAL ELECTRIC CODE, STATE AND LOCAL REGULATIONS.
  7
MONOTXT
 11
612.3447
 21
384.107
 31
0.0
210
0.0
220
0.0
230
1.0
100
AcDbText
 73
     3
  0
TEXT
  5
315
100
AcDbEntity
  8
1
  6
CONTINUOUS
 62
     7
100
AcDbText
 10
612.3447
 20
375.707
 30
0.0
 40
3.0
  1
 
  7
MONOTXT
 11
612.3447
 21
378.707
 31
0.0
210
0.0
220
0.0
230
1.0
100
AcDbText
 73
     3
  0
TEXT
  5
316
100
AcDbEntity
  8
1
  6
CONTINUOUS
 62
     7
100
AcDbText
 10
612.3447
 20
370.307
 30
0.0
 40
3.0
  1
7.   ALL WIRING SHALL BE NEAT AND OF GOOD WORKMANSHIP. NATIONAL
  7
MONOTXT
 11
612.3447
 21
373.307
 31
0.0
210
0.0
220
0.0
230
1.0
100
AcDbText
 73
     3
  0
TEXT
  5
317
100
AcDbEntity
  8
1
  6
CONTINUOUS
 62
     7
100
AcDbText
 10
612.3447
 20
364.907
 30
0.0
 40
3.0
  1
   ELECTRIC CODE STANDARDS SHALL BE ADHERED TO BY THE CON-
  7
MONOTXT
 11
612.3447
 21
367.907
 31
0.0
210
0.0
220
0.0
230
1.0
100
AcDbText
 73
     3
  0
TEXT
  5
318
100
AcDbEntity
  8
1
  6
CONTINUOUS
 62
     7
100
AcDbText
 10
612.3447
 20
359.507
 30
0.0
 40
3.0
  1
   TRACTOR.
  7
MONOTXT
 11
612.3447
 21
362.507
 31
0.0
210
0.0
220
0.0
230
1.0
100
AcDbText
 73
     3
  0
TEXT
  5
319
100
AcDbEntity
  8
1
  6
CONTINUOUS
 62
     7
100
AcDbText
 10
612.3447
 20
354.107
 30
0.0
 40
3.0
  1
 
  7
MONOTXT
 11
612.3447
 21
357.107
 31
0.0
210
0.0
220
0.0
230
1.0
100
AcDbText
 73
     3
  0
TEXT
  5
31A
100
AcDbEntity
  8
1
  6
CONTINUOUS
 62
     7
100
AcDbText
 10
612.3447
 20
348.707
 30
0.0
 40
3.0
  1
8.   LUMINAIRE WIRING AT POLE BASE SHALL BE PERFORMED IN ACCORD-
  7
MONOTXT
 11
612.3447
 21
351.707
 31
0.0
210
0.0
220
0.0
230
1.0
100
AcDbText
 73
     3
  0
TEXT
  5
31B
100
AcDbEntity
  8
1
  6
CONTINUOUS
 62
     7
100
AcDbText
 10
612.3447
 20
343.307
 30
0.0
 40
3.0
  1
   ANCE WITH STANDARD DRAWING TEL-01.
  7
MONOTXT
 11
612.3447
 21
346.307
 31
0.0
210
0.0
220
0.0
230
1.0
100
AcDbText
 73
     3
  0
TEXT
  5
31C
100
AcDbEntity
  8
1
  6
CONTINUOUS
 62
     7
100
AcDbText
 10
612.3447
 20
337.907
 30
0.0
 40
3.0
  1
 
  7
MONOTXT
 11
612.3447
 21
340.907
 31
0.0
210
0.0
220
0.0
230
1.0
100
AcDbText
 73
     3
  0
TEXT
  5
31D
100
AcDbEntity
  8
1
  6
CONTINUOUS
 62
     7
100
AcDbText
 10
612.3447
 20
332.507
 30
0.0
 40
3.0
  1
9.   CONTROL CABINET MOUNTING SHALL BE IN ACCORDANCE WITH STAND-
  7
MONOTXT
 11
612.3447
 21
335.507
 31
0.0
210
0.0
220
0.0
230
1.0
100
AcDbText
 73
     3
  0
TEXT
  5
31E
100
AcDbEntity
  8
1
  6
CONTINUOUS
 62
     7
100
AcDbText
 10
612.3447
 20
327.107
 30
0.0
 40
3.0
  1
   ARD DRAWING TEL-21 OR AS OTHERWISE DIRECTED ON THE CONTRACT 
  7
MONOTXT
 11
612.3447
 21
330.107
 31
0.0
210
0.0
220
0.0
230
1.0
100
AcDbText
 73
     3
  0
TEXT
  5
31F
100
AcDbEntity
  8
1
  6
CONTINUOUS
 62
     7
100
AcDbText
 10
612.3447
 20
321.707
 30
0.0
 40
3.0
  1
   PLANS.
  7
MONOTXT
 11
612.3447
 21
324.707
 31
0.0
210
0.0
220
0.0
230
1.0
100
AcDbText
 73
     3
  0
TEXT
  5
320
100
AcDbEntity
  8
1
  6
CONTINUOUS
 62
     7
100
AcDbText
 10
612.3447
 20
316.307
 30
0.0
 40
3.0
  1
 
  7
MONOTXT
 11
612.3447
 21
319.307
 31
0.0
210
0.0
220
0.0
230
1.0
100
AcDbText
 73
     3
  0
TEXT
  5
321
100
AcDbEntity
  8
1
  6
CONTINUOUS
 62
     7
100
AcDbText
 10
612.3447
 20
310.907
 30
0.0
 40
3.0
  1
10.  ENCLOSURES WILL BE NEMA TYPE 4 STAINLESS STEEL CABINET, WITH
  7
MONOTXT
 11
612.3447
 21
313.907
 31
0.0
210
0.0
220
0.0
230
1.0
100
AcDbText
 73
     3
  0
TEXT
  5
322
100
AcDbEntity
  8
1
  6
CONTINUOUS
 62
     7
100
AcDbText
 10
612.3447
 20
305.507
 30
0.0
 40
3.0
  1
   75mm LETTERING D.O.H. -    VOLTS.
  7
MONOTXT
 11
612.3447
 21
308.507
 31
0.0
210
0.0
220
0.0
230
1.0
100
AcDbText
 73
     3
  0
TEXT
  5
323
100
AcDbEntity
  8
1
  6
CONTINUOUS
 62
     7
100
AcDbText
 10
612.3447
 20
300.107
 30
0.0
 40
3.0
  1
 
  7
MONOTXT
 11
612.3447
 21
303.107
 31
0.0
210
0.0
220
0.0
230
1.0
100
AcDbText
 73
     3
  0
TEXT
  5
324
100
AcDbEntity
  8
1
  6
CONTINUOUS
 62
     7
100
AcDbText
 10
612.3447
 20
294.707
 30
0.0
 40
3.0
  1
11.  ENCLOSURE SIZE WILL BE DETERMINED BY COMPONENT SIZE AND
  7
MONOTXT
 11
612.3447
 21
297.707
 31
0.0
210
0.0
220
0.0
230
1.0
100
AcDbText
 73
     3
  0
TEXT
  5
325
100
AcDbEntity
  8
1
  6
CONTINUOUS
 62
     7
100
AcDbText
 10
612.3447
 20
289.307
 30
0.0
 40
3.0
  1
   APPROVED BY THE ENGINEER.
  7
MONOTXT
 11
612.3447
 21
292.307
 31
0.0
210
0.0
220
0.0
230
1.0
100
AcDbText
 73
     3
  0
TEXT
  5
326
100
AcDbEntity
  8
1
  6
CONTINUOUS
 62
     7
100
AcDbText
 10
612.3447
 20
283.907
 30
0.0
 40
3.0
  1
 
  7
MONOTXT
 11
612.3447
 21
286.907
 31
0.0
210
0.0
220
0.0
230
1.0
100
AcDbText
 73
     3
  0
TEXT
  5
327
100
AcDbEntity
  8
1
  6
CONTINUOUS
 62
     7
100
AcDbText
 10
612.3447
 20
278.507
 30
0.0
 40
3.0
  1
12.  PHOTOELECTRIC UNIT SHALL BE MOUNTED OUTSIDE THE LIGHT ENVELOPE
  7
MONOTXT
 11
612.3447
 21
281.507
 31
0.0
210
0.0
220
0.0
230
1.0
100
AcDbText
 73
     3
  0
TEXT
  5
328
100
AcDbEntity
  8
1
  6
CONTINUOUS
 62
     7
100
AcDbText
 10
612.3447
 20
273.107
 30
0.0
 40
3.0
  1
   CAST BY THE LIGHTING SYSTEM. PHOTOELECTRIC UNIT WILL BE PHOTO-
  7
MONOTXT
 11
612.3447
 21
276.107
 31
0.0
210
0.0
220
0.0
230
1.0
100
AcDbText
 73
     3
  0
TEXT
  5
329
100
AcDbEntity
  8
1
  6
CONTINUOUS
 62
     7
100
AcDbText
 10
612.3447
 20
267.707
 30
0.0
 40
3.0
  1
   CELL TWISTLOCK TYPE, STANDARD NEMA WITH 70mm I.D. LOCKING BASE.
  7
MONOTXT
 11
612.3447
 21
270.707
 31
0.0
210
0.0
220
0.0
230
1.0
100
AcDbText
 73
     3
  0
TEXT
  5
32A
100
AcDbEntity
  8
1
  6
CONTINUOUS
 62
     7
100
AcDbText
 10
612.3447
 20
262.307
 30
0.0
 40
3.0
  1
 
  7
MONOTXT
 11
612.3447
 21
265.307
 31
0.0
210
0.0
220
0.0
230
1.0
100
AcDbText
 73
     3
  0
TEXT
  5
32B
100
AcDbEntity
  8
1
  6
CONTINUOUS
 62
     7
100
AcDbText
 10
612.3447
 20
256.907
 30
0.0
 40
3.0
  1
13.  IN CASES WHERE THE LINE-SIDE OF THE ELECTRICAL SERVICE DOES NOT
  7
MONOTXT
 11
612.3447
 21
259.907
 31
0.0
210
0.0
220
0.0
230
1.0
100
AcDbText
 73
     3
  0
TEXT
  5
32C
100
AcDbEntity
  8
1
  6
CONTINUOUS
 62
     7
100
AcDbText
 10
612.3447
 20
251.507
 30
0.0
 40
3.0
  1
   HAVE A LIGHTNING ARRESTER INSTALLED BY THE SERVING UTILITY
  7
MONOTXT
 11
612.3447
 21
254.507
 31
0.0
210
0.0
220
0.0
230
1.0
100
AcDbText
 73
     3
  0
TEXT
  5
32D
100
AcDbEntity
  8
1
  6
CONTINUOUS
 62
     7
100
AcDbText
 10
612.3447
 20
246.107
 30
0.0
 40
3.0
  1
   COMPANY: THE UNIT MUST BE INSTALLED BY THE CONTRACTOR ON THE
  7
MONOTXT
 11
612.3447
 21
249.107
 31
0.0
210
0.0
220
0.0
230
1.0
100
AcDbText
 73
     3
  0
TEXT
  5
32E
100
AcDbEntity
  8
1
  6
CONTINUOUS
 62
     7
100
AcDbText
 10
612.3447
 20
240.707
 30
0.0
 40
3.0
  1
   LOAD-SIDE OF THE SYSTEM WITHIN THE CONTROL CENTER ENCLOSURE.
  7
MONOTXT
 11
612.3447
 21
243.707
 31
0.0
210
0.0
220
0.0
230
1.0
100
AcDbText
 73
     3
  0
TEXT
  5
32F
100
AcDbEntity
  8
1
  6
CONTINUOUS
 62
     7
100
AcDbText
 10
612.3447
 20
235.307
 30
0.0
 40
3.0
  1
 
  7
MONOTXT
 11
612.3447
 21
238.307
 31
0.0
210
0.0
220
0.0
230
1.0
100
AcDbText
 73
     3
  0
TEXT
  5
330
100
AcDbEntity
  8
1
  6
CONTINUOUS
 62
     7
100
AcDbText
 10
612.3447
 20
229.907
 30
0.0
 40
3.0
  1
14.  TRAFFIC SIGNAL FEED GOES TO EXTERNAL ENCLOSED CIRCUIT BREAKER
  7
MONOTXT
 11
612.3447
 21
232.907
 31
0.0
210
0.0
220
0.0
230
1.0
100
AcDbText
 73
     3
  0
TEXT
  5
331
100
AcDbEntity
  8
1
  6
CONTINUOUS
 62
     7
100
AcDbText
 10
612.3447
 20
224.507
 30
0.0
 40
3.0
  1
   AT SIGNAL (SEE STANDARD SPECIFICATIONS). NOTE ONLY 120V IS TO BE
  7
MONOTXT
 11
612.3447
 21
227.507
 31
0.0
210
0.0
220
0.0
230
1.0
100
AcDbText
 73
     3
  0
TEXT
  5
332
100
AcDbEntity
  8
1
  6
CONTINUOUS
 62
     7
100
AcDbText
 10
612.3447
 20
219.107
 30
0.0
 40
3.0
  1
   BROUGHT INTO THE SIGNAL CONTROLLER CABINET.
  7
MONOTXT
 11
612.3447
 21
222.107
 31
0.0
210
0.0
220
0.0
230
1.0
100
AcDbText
 73
     3
  0
TEXT
  5
333
100
AcDbEntity
  8
1
  6
CONTINUOUS
 62
     7
100
AcDbText
 10
719.1794
 20
454.5213
 30
0.0
 40
6.0
  1
#
  7
MONOTXT
 11
719.1794
 21
460.5213
 31
0.0
210
0.0
220
0.0
230
1.0
100
AcDbText
 73
     3
  0
ENDSEC
  0
SECTION
  2
OBJECTS
  0
DICTIONARY
  5
19
100
AcDbDictionary
  3
ACAD_GROUP
350
1A
  3
ACAD_MLINESTYLE
350
1B
  0
DICTIONARY
  5
1A
102
{ACAD_REACTORS
330
19
102
}
100
AcDbDictionary
  0
DICTIONARY
  5
1B
102
{ACAD_REACTORS
330
19
102
}
100
AcDbDictionary
  3
STANDARD
350
1C
  0
MLINESTYLE
  5
1C
102
{ACAD_REACTORS
330
1B
102
}
100
AcDbMlineStyle
  2
STANDARD
 70
     0
  3

 62
     0
 51
90.0
 52
90.0
 71
     2
 49
0.5
 62
   256
  6
BYLAYER
 49
-0.5
 62
   256
  6
BYLAYER
  0
ENDSEC
  0
EOF
