  0
SECTION
  2
HEADER
  9
$ACADVER
  1
AC1014
  9
$ACADMAINTVER
 70
     0
  9
$DWGCODEPAGE
  3
ANSI_1252
  9
$INSBASE
 10
0.0
 20
0.0
 30
0.0
  9
$EXTMIN
 10
55.0029
 20
12.3614
 30
0.0
  9
$EXTMAX
 10
798.7382
 20
499.2131
 30
0.0
  9
$LIMMIN
 10
0.0
 20
0.0
  9
$LIMMAX
 10
12.0
 20
9.0
  9
$ORTHOMODE
 70
     0
  9
$REGENMODE
 70
     1
  9
$FILLMODE
 70
     1
  9
$QTEXTMODE
 70
     0
  9
$MIRRTEXT
 70
     1
  9
$DRAGMODE
 70
     2
  9
$LTSCALE
 40
1.0
  9
$OSMODE
 70
     0
  9
$ATTMODE
 70
     1
  9
$TEXTSIZE
 40
0.2
  9
$TRACEWID
 40
0.05
  9
$TEXTSTYLE
  7
STANDARD
  9
$CLAYER
  8
0
  9
$CELTYPE
  6
CONTINUOUS
  9
$CECOLOR
 62
   256
  9
$CELTSCALE
 40
1.0
  9
$DELOBJ
 70
     1
  9
$DISPSILH
 70
     0
  9
$DIMSCALE
 40
1.0
  9
$DIMASZ
 40
0.18
  9
$DIMEXO
 40
0.0625
  9
$DIMDLI
 40
0.38
  9
$DIMRND
 40
0.0
  9
$DIMDLE
 40
0.0
  9
$DIMEXE
 40
0.18
  9
$DIMTP
 40
0.0
  9
$DIMTM
 40
0.0
  9
$DIMTXT
 40
0.18
  9
$DIMCEN
 40
0.09
  9
$DIMTSZ
 40
0.0
  9
$DIMTOL
 70
     0
  9
$DIMLIM
 70
     0
  9
$DIMTIH
 70
     1
  9
$DIMTOH
 70
     1
  9
$DIMSE1
 70
     0
  9
$DIMSE2
 70
     0
  9
$DIMTAD
 70
     0
  9
$DIMZIN
 70
     0
  9
$DIMBLK
  1

  9
$DIMASO
 70
     1
  9
$DIMSHO
 70
     1
  9
$DIMPOST
  1

  9
$DIMAPOST
  1

  9
$DIMALT
 70
     0
  9
$DIMALTD
 70
     2
  9
$DIMALTF
 40
25.4
  9
$DIMLFAC
 40
1.0
  9
$DIMTOFL
 70
     0
  9
$DIMTVP
 40
0.0
  9
$DIMTIX
 70
     0
  9
$DIMSOXD
 70
     0
  9
$DIMSAH
 70
     0
  9
$DIMBLK1
  1

  9
$DIMBLK2
  1

  9
$DIMSTYLE
  2
STANDARD
  9
$DIMCLRD
 70
     0
  9
$DIMCLRE
 70
     0
  9
$DIMCLRT
 70
     0
  9
$DIMTFAC
 40
1.0
  9
$DIMGAP
 40
0.09
  9
$DIMJUST
 70
     0
  9
$DIMSD1
 70
     0
  9
$DIMSD2
 70
     0
  9
$DIMTOLJ
 70
     1
  9
$DIMTZIN
 70
     0
  9
$DIMALTZ
 70
     0
  9
$DIMALTTZ
 70
     0
  9
$DIMFIT
 70
     3
  9
$DIMUPT
 70
     0
  9
$DIMUNIT
 70
     2
  9
$DIMDEC
 70
     4
  9
$DIMTDEC
 70
     4
  9
$DIMALTU
 70
     2
  9
$DIMALTTD
 70
     2
  9
$DIMTXSTY
  7
STANDARD
  9
$DIMAUNIT
 70
     0
  9
$LUNITS
 70
     2
  9
$LUPREC
 70
     4
  9
$SKETCHINC
 40
0.1
  9
$FILLETRAD
 40
0.0
  9
$AUNITS
 70
     0
  9
$AUPREC
 70
     0
  9
$MENU
  1
acad
  9
$ELEVATION
 40
0.0
  9
$PELEVATION
 40
0.0
  9
$THICKNESS
 40
0.0
  9
$LIMCHECK
 70
     0
  9
$BLIPMODE
 70
     1
  9
$CHAMFERA
 40
0.0
  9
$CHAMFERB
 40
0.0
  9
$CHAMFERC
 40
0.0
  9
$CHAMFERD
 40
0.0
  9
$SKPOLY
 70
     0
  9
$TDCREATE
 40
2451803.542870370
  9
$TDUPDATE
 40
2451803.542870370
  9
$TDINDWG
 40
0.0000000000
  9
$TDUSRTIMER
 40
0.0000000000
  9
$USRTIMER
 70
     1
  9
$ANGBASE
 50
0.0
  9
$ANGDIR
 70
     0
  9
$PDMODE
 70
     0
  9
$PDSIZE
 40
0.0
  9
$PLINEWID
 40
0.0
  9
$COORDS
 70
     0
  9
$SPLFRAME
 70
     0
  9
$SPLINETYPE
 70
     6
  9
$SPLINESEGS
 70
    10
  9
$ATTDIA
 70
     0
  9
$ATTREQ
 70
     1
  9
$HANDLING
 70
     1
  9
$HANDSEED
  5
4FB
  9
$SURFTAB1
 70
     6
  9
$SURFTAB2
 70
     6
  9
$SURFTYPE
 70
     6
  9
$SURFU
 70
     6
  9
$SURFV
 70
     6
  9
$UCSNAME
  2

  9
$UCSORG
 10
0.0
 20
0.0
 30
0.0
  9
$UCSXDIR
 10
1.0
 20
0.0
 30
0.0
  9
$UCSYDIR
 10
0.0
 20
1.0
 30
0.0
  9
$PUCSNAME
  2

  9
$PUCSORG
 10
0.0
 20
0.0
 30
0.0
  9
$PUCSXDIR
 10
1.0
 20
0.0
 30
0.0
  9
$PUCSYDIR
 10
0.0
 20
1.0
 30
0.0
  9
$USERI1
 70
     0
  9
$USERI2
 70
     0
  9
$USERI3
 70
     0
  9
$USERI4
 70
     0
  9
$USERI5
 70
     0
  9
$USERR1
 40
0.0
  9
$USERR2
 40
0.0
  9
$USERR3
 40
0.0
  9
$USERR4
 40
0.0
  9
$USERR5
 40
0.0
  9
$WORLDVIEW
 70
     1
  9
$SHADEDGE
 70
     3
  9
$SHADEDIF
 70
    70
  9
$TILEMODE
 70
     1
  9
$MAXACTVP
 70
    16
  9
$PINSBASE
 10
0.0
 20
0.0
 30
0.0
  9
$PLIMCHECK
 70
     0
  9
$PEXTMIN
 10
-1.000000E+20
 20
-1.000000E+20
 30
-1.000000E+20
  9
$PEXTMAX
 10
-1.000000E+20
 20
-1.000000E+20
 30
-1.000000E+20
  9
$PLIMMIN
 10
0.0
 20
0.0
  9
$PLIMMAX
 10
12.0
 20
9.0
  9
$UNITMODE
 70
     0
  9
$VISRETAIN
 70
     0
  9
$PLINEGEN
 70
     1
  9
$PSLTSCALE
 70
     0
  9
$TREEDEPTH
 70
  3020
  9
$PICKSTYLE
 70
     1
  9
$CMLSTYLE
  2
STANDARD
  9
$CMLJUST
 70
     0
  9
$CMLSCALE
 40
1.0
  9
$PROXYGRAPHICS
 70
     0
  9
$MEASUREMENT
 70
     0
  0
ENDSEC
  0
SECTION
  2
CLASSES
  0
CLASS
  1
LWPOLYLINE
  2
AcDbPolyline
  3
"AutoCAD"
 90
        0
280
     0
281
     1
  0
CLASS
  1
IMAGE
  2
AcDbRasterImage
  3
ISM
 90
      127
280
     0
281
     1
  0
CLASS
  1
OLE2FRAME
  2
AcDbOle2Frame
  3
""
 90
        0
280
     0
281
     1
  0
CLASS
  1
HATCH
  2
AcDbHatch
  3
"ACAD_SEDONA"
 90
        0
280
     0
281
     1
  0
CLASS
  1
DICTIONARYVAR
  2
AcDbDictionaryVar
  3
"AutoCAD"
 90
        0
280
     0
281
     0
  0
CLASS
  1
RASTERVARIABLES
  2
AcDbRasterVariables
  3
ISM
 90
        0
280
     0
281
     0
  0
CLASS
  1
IMAGEDEF
  2
AcDbRasterImageDef
  3
ISM
 90
        0
280
     0
281
     0
  0
CLASS
  1
IMAGEDEF_REACTOR
  2
AcDbRasterImageDefReactor
  3
ISM
 90
        1
280
     0
281
     0
  0
CLASS
  1
IDBUFFER
  2
AcDbIdBuffer
  3
"Acad"
 90
        0
280
     0
281
     0
  0
CLASS
  1
SPATIAL_FILTER
  2
AcDbSpatialFilter
  3
"Acad"
 90
        0
280
     0
281
     0
  0
CLASS
  1
XRECORD
  2
AcDbXrecord
  3
"<Built In>"
 90
        0
280
     0
281
     0
  0
CLASS
  1
SORTENTSTABLE
  2
AcDbSortentsTable
  3
"AutoCAD"
 90
        0
280
     0
281
     0
  0
CLASS
  1
LAYER_INDEX
  2
AcDbLayerIndex
  3
"Acad"
 90
        0
280
     0
281
     0
  0
CLASS
  1
SPATIAL_INDEX
  2
AcDbSpatialIndex
  3
"Acad"
 90
        0
280
     0
281
     0
  0
CLASS
  1
OBJECT_PTR
  2
CAseDLPNTableRecord
  3
"ASE-LPNTableRecord"
 90
        1
280
     0
281
     0
  0
ENDSEC
  0
SECTION
  2
TABLES
  0
TABLE
  2
VPORT
  5
7
100
AcDbSymbolTable
 70
     1
  0
VPORT
  5
4FA
100
AcDbSymbolTableRecord
100
AcDbViewportTableRecord
  2
*ACTIVE
 70
     0
 10
0.0
 20
0.0
 11
1.0
 21
1.0
 12
0.0
 22
0.0
 13
0.0
 23
0.0
 14
0.0
 24
0.0
 15
0.0
 25
0.0
 16
0.0
 26
0.0
 36
1.0
 17
373.3388
 27
261.3941
 37
0.0
 40
565.24
 41
1.545
 42
50.0
 43
0.0
 44
0.0
 50
0.0
 51
0.0
 71
     0
 72
   100
 73
     1
 74
     0
 75
     0
 76
     0
 77
     0
 78
     0
  0
ENDTAB
  0
TABLE
  2
LTYPE
  5
4
100
AcDbSymbolTable
 70
     9
  0
LTYPE
  5
11
100
AcDbSymbolTableRecord
100
AcDbLinetypeTableRecord
  2
BYBLOCK
 70
     0
  3

 72
    65
 73
     0
 40
0.0
  0
LTYPE
  5
12
100
AcDbSymbolTableRecord
100
AcDbLinetypeTableRecord
  2
BYLAYER
 70
     0
  3

 72
    65
 73
     0
 40
0.0
  0
LTYPE
  5
13
100
AcDbSymbolTableRecord
100
AcDbLinetypeTableRecord
  2
CONTINUOUS
 70
     0
  3
Solid line
 72
    65
 73
     0
 40
0.0
  0
LTYPE
  5
22
102
{ACAD_XDICTIONARY
360
2100000000000000
102
}
100
AcDbSymbolTableRecord
100
AcDbLinetypeTableRecord
  2
DOT
 70
    64
  3
. . . . . . . . . . . . . . . . . . . . . . . . . . . . . . . . .
 72
    65
 73
     2
 40
0.25
 49
0.0
 74
     0
 49
-0.25
 74
     0
  0
LTYPE
  5
23
102
{ACAD_XDICTIONARY
360
2100000000000000
102
}
100
AcDbSymbolTableRecord
100
AcDbLinetypeTableRecord
  2
HIDDEN
 70
    64
  3
__ __ __ __ __ __ __ __ __ __ __ __ __ __ __ __ __ __ __ __ __ 
 72
    65
 73
     2
 40
0.375
 49
0.25
 74
     0
 49
-0.125
 74
     0
  0
LTYPE
  5
24
102
{ACAD_XDICTIONARY
360
2100000000000000
102
}
100
AcDbSymbolTableRecord
100
AcDbLinetypeTableRecord
  2
DASHED
 70
    64
  3
__ __ __ __ __ __ __ __ __ __ __ __ __ __ __ __ __ __ __ __ __
 72
    65
 73
     2
 40
0.75
 49
0.5
 74
     0
 49
-0.25
 74
     0
  0
LTYPE
  5
25
102
{ACAD_XDICTIONARY
360
2100000000000000
102
}
100
AcDbSymbolTableRecord
100
AcDbLinetypeTableRecord
  2
DASHDOT
 70
    64
  3
__ . __ . __ . __ . __ . __ . __ . __ . __ . __ . __ . __ . _
 72
    65
 73
     4
 40
1.0
 49
0.5
 74
     0
 49
-0.25
 74
     0
 49
0.0
 74
     0
 49
-0.25
 74
     0
  0
LTYPE
  5
26
102
{ACAD_XDICTIONARY
360
2100000000000000
102
}
100
AcDbSymbolTableRecord
100
AcDbLinetypeTableRecord
  2
DIVIDE
 70
    64
  3
____ . . ____ . . ____ . . ____ . . ____ . . ____ . . ____ . .
 72
    65
 73
     6
 40
1.25
 49
0.5
 74
     0
 49
-0.25
 74
     0
 49
0.0
 74
     0
 49
-0.25
 74
     0
 49
0.0
 74
     0
 49
-0.25
 74
     0
  0
LTYPE
  5
27
102
{ACAD_XDICTIONARY
360
2100000000000000
102
}
100
AcDbSymbolTableRecord
100
AcDbLinetypeTableRecord
  2
CENTER
 70
    64
  3
____ _ ____ _ ____ _ ____ _ ____ _ ____ _ ____ _ ____ _ ____ _
 72
    65
 73
     4
 40
2.0
 49
1.25
 74
     0
 49
-0.25
 74
     0
 49
0.25
 74
     0
 49
-0.25
 74
     0
  0
ENDTAB
  0
TABLE
  2
LAYER
  5
2
100
AcDbSymbolTable
 70
     3
  0
LAYER
  5
14
102
{ACAD_XDICTIONARY
360
5F205F5F5F5F205F
102
}
100
AcDbSymbolTableRecord
100
AcDbLayerTableRecord
  2
0
 70
     0
 62
     7
  6
CONTINUOUS
  0
LAYER
  5
2A
102
{ACAD_XDICTIONARY
360
5F205F5F5F5F205F
102
}
100
AcDbSymbolTableRecord
100
AcDbLayerTableRecord
  2
61
 70
    64
 62
     7
  6
CONTINUOUS
  0
LAYER
  5
2D
102
{ACAD_XDICTIONARY
360
5F205F5F5F5F205F
102
}
100
AcDbSymbolTableRecord
100
AcDbLayerTableRecord
  2
1
 70
    64
 62
     7
  6
CONTINUOUS
  0
ENDTAB
  0
TABLE
  2
STYLE
  5
3
100
AcDbSymbolTable
 70
     3
  0
STYLE
  5
17
100
AcDbSymbolTableRecord
100
AcDbTextStyleTableRecord
  2
STANDARD
 70
     0
 40
0.0
 41
1.0
 50
0.0
 71
     0
 42
0.0
  3
txt
  4

  0
STYLE
  5
2B
100
AcDbSymbolTableRecord
100
AcDbTextStyleTableRecord
  2
MONOTXT
 70
     0
 40
0.2
 41
1.0
 50
0.0
 71
     0
 42
0.2
  3
MONOTXT
  4

  0
STYLE
  5
4B
100
AcDbSymbolTableRecord
100
AcDbTextStyleTableRecord
  2
TXT
 70
     0
 40
0.2
 41
1.0
 50
0.0
 71
     0
 42
0.2
  3
TXT
  4

  0
ENDTAB
  0
TABLE
  2
VIEW
  5
5
100
AcDbSymbolTable
 70
     0
  0
ENDTAB
  0
TABLE
  2
UCS
  5
6
100
AcDbSymbolTable
 70
     0
  0
ENDTAB
  0
TABLE
  2
APPID
  5
8
100
AcDbSymbolTable
 70
     1
  0
APPID
  5
16
100
AcDbSymbolTableRecord
100
AcDbRegAppTableRecord
  2
ACAD
 70
     0
  0
ENDTAB
  0
TABLE
  2
DIMSTYLE
  5
9
100
AcDbSymbolTable
 70
     1
  0
DIMSTYLE
105
18
100
AcDbSymbolTableRecord
100
AcDbDimStyleTableRecord
  2
STANDARD
 70
     0
  3

  4

  5

  6

  7

 40
1.0
 41
0.18
 42
0.0625
 43
0.38
 44
0.18
 45
0.0
 46
0.0
 47
0.0
 48
0.0
140
0.18
141
0.09
142
0.0
143
25.4
144
1.0
145
0.0
146
1.0
147
0.09
 71
     0
 72
     0
 73
     1
 74
     1
 75
     0
 76
     0
 77
     0
 78
     0
170
     0
171
     2
172
     0
173
     0
174
     0
175
     0
176
     0
177
     0
178
     0
270
     2
271
     4
272
     4
273
     2
274
     2
340
17
275
     0
280
     0
281
     0
282
     0
283
     1
284
     0
285
     0
286
     0
287
     0
288
     0
  0
ENDTAB
  0
TABLE
  2
BLOCK_RECORD
  5
1
100
AcDbSymbolTable
 70
     1
  0
BLOCK_RECORD
  5
A
100
AcDbSymbolTableRecord
100
AcDbBlockTableRecord
  2
*MODEL_SPACE
  0
BLOCK_RECORD
  5
B
100
AcDbSymbolTableRecord
100
AcDbBlockTableRecord
  2
*PAPER_SPACE
  0
BLOCK_RECORD
  5
14E
102
{ACAD_XDICTIONARY
360
F4C8022400000000
102
}
100
AcDbSymbolTableRecord
100
AcDbBlockTableRecord
  2
LDR
  0
ENDTAB
  0
ENDSEC
  0
SECTION
  2
BLOCKS
  0
BLOCK
  5
D
100
AcDbEntity
  8
0
100
AcDbBlockBegin
  2
*MODEL_SPACE
 70
     0
 10
0.0
 20
0.0
 30
0.0
  3
*MODEL_SPACE
  1

  0
ENDBLK
  5
E
100
AcDbEntity
  8
0
100
AcDbBlockEnd
  0
BLOCK
  5
F
100
AcDbEntity
 67
     1
  8
0
100
AcDbBlockBegin
  2
*PAPER_SPACE
 70
     0
 10
0.0
 20
0.0
 30
0.0
  3
*PAPER_SPACE
  1

  0
ENDBLK
  5
10
100
AcDbEntity
 67
     1
  8
0
100
AcDbBlockEnd
  0
BLOCK
  5
14F
100
AcDbEntity
  8
1
  6
CONTINUOUS
 62
     1
100
AcDbBlockBegin
  2
LDR
 70
     0
 10
0.0
 20
0.0
 30
0.0
  3
LNR
  1

  0
ELLIPSE
  5
150
100
AcDbEntity
  8
1
  6
CONTINUOUS
 62
     1
100
AcDbEllipse
 10
-0.005456
 20
-0.001381
 30
0.0
 11
0.0089285004623472
 21
0.0007807500129699
 31
0.0
210
0.0
220
0.0
230
1.0
 40
0.122415
 41
0.8963533496766982
 42
3.1415926535897931
  0
ELLIPSE
  5
151
100
AcDbEntity
  8
1
  6
CONTINUOUS
 62
     1
100
AcDbEllipse
 10
-0.005602
 20
0.001058
 30
0.0
 11
-0.0087822506056358
 21
0.0008782502048316
 31
0.0
210
0.0
220
0.0
230
1.0
 40
0.07063
 41
6.2823074065658329
 42
2.276517300956717
  0
ENDBLK
  5
152
100
AcDbEntity
  8
1
  6
CONTINUOUS
 62
     1
100
AcDbBlockEnd
  0
ENDSEC
  0
SECTION
  2
ENTITIES
  0
TEXT
  5
2C
100
AcDbEntity
  8
61
  6
CONTINUOUS
 62
     7
100
AcDbText
 10
785.2907
 20
462.3614
 30
0.0
 40
2.881584
  1
     
 41
1.001399
  7
MONOTXT
210
0.0
220
0.0
230
1.0
100
AcDbText
  0
TEXT
  5
2E
100
AcDbEntity
  8
1
  6
CONTINUOUS
 62
     1
100
AcDbText
 10
616.577
 20
48.1427
 30
0.0
 40
2.400048
  1
12-10-75
  7
MONOTXT
 72
     1
 11
624.2968
 21
50.5427
 31
0.0
210
0.0
220
0.0
230
1.0
100
AcDbText
 73
     3
  0
TEXT
  5
2F
100
AcDbEntity
  8
1
  6
CONTINUOUS
 62
     1
100
AcDbText
 10
615.7543
 20
42.4014
 30
0.0
 40
2.400048
  1
09-15-84
  7
MONOTXT
 72
     1
 11
623.9655
 21
44.8014
 31
0.0
210
0.0
220
0.0
230
1.0
100
AcDbText
 73
     3
  0
TEXT
  5
30
100
AcDbEntity
  8
1
  6
CONTINUOUS
 62
     1
100
AcDbText
 10
606.3227
 20
45.5774
 30
0.0
 40
2.400048
  1
        
  7
MONOTXT
 72
     1
 11
615.5229
 21
47.9774
 31
0.0
210
0.0
220
0.0
230
1.0
100
AcDbText
 73
     3
  0
TEXT
  5
31
100
AcDbEntity
  8
1
  6
CONTINUOUS
 62
     1
100
AcDbText
 10
606.3227
 20
40.2974
 30
0.0
 40
2.400048
  1
        
  7
MONOTXT
 72
     1
 11
615.5229
 21
42.6974
 31
0.0
210
0.0
220
0.0
230
1.0
100
AcDbText
 73
     3
  0
TEXT
  5
32
100
AcDbEntity
  8
1
  6
CONTINUOUS
 62
     1
100
AcDbText
 10
606.1307
 20
34.7774
 30
0.0
 40
2.400048
  1
        
  7
MONOTXT
 72
     1
 11
615.3309
 21
37.1774
 31
0.0
210
0.0
220
0.0
230
1.0
100
AcDbText
 73
     3
  0
TEXT
  5
33
100
AcDbEntity
  8
1
  6
CONTINUOUS
 62
     1
100
AcDbText
 10
606.3227
 20
29.4014
 30
0.0
 40
2.400048
  1
        
  7
MONOTXT
 72
     1
 11
615.5229
 21
31.8014
 31
0.0
210
0.0
220
0.0
230
1.0
100
AcDbText
 73
     3
  0
TEXT
  5
34
100
AcDbEntity
  8
1
  6
CONTINUOUS
 62
     1
100
AcDbText
 10
606.2027
 20
23.8814
 30
0.0
 40
2.400048
  1
        
  7
MONOTXT
 72
     1
 11
615.4029
 21
26.2814
 31
0.0
210
0.0
220
0.0
230
1.0
100
AcDbText
 73
     3
  0
TEXT
  5
35
100
AcDbEntity
  8
1
  6
CONTINUOUS
 62
     1
100
AcDbText
 10
606.3227
 20
18.3854
 30
0.0
 40
2.400048
  1
        
  7
MONOTXT
 72
     1
 11
615.5229
 21
20.7854
 31
0.0
210
0.0
220
0.0
230
1.0
100
AcDbText
 73
     3
  0
TEXT
  5
36
100
AcDbEntity
  8
1
  6
CONTINUOUS
 62
     1
100
AcDbText
 10
606.3227
 20
13.5614
 30
0.0
 40
2.400048
  1
        
  7
MONOTXT
 72
     1
 11
615.5229
 21
15.9614
 31
0.0
210
0.0
220
0.0
230
1.0
100
AcDbText
 73
     3
  0
LINE
  5
37
100
AcDbEntity
  8
1
  6
CONTINUOUS
 62
     7
100
AcDbLine
 10
606.0287
 20
126.4311
 30
0.0
 11
601.2287
 21
126.4311
 31
0.0
  0
LINE
  5
38
100
AcDbEntity
  8
1
  6
CONTINUOUS
 62
     7
100
AcDbLine
 10
603.6287
 20
130.588
 30
0.0
 11
601.2287
 21
126.4311
 31
0.0
  0
LINE
  5
39
100
AcDbEntity
  8
1
  6
CONTINUOUS
 62
     7
100
AcDbLine
 10
603.6287
 20
130.588
 30
0.0
 11
606.0287
 21
126.4311
 31
0.0
  0
LINE
  5
3A
100
AcDbEntity
  8
1
  6
CONTINUOUS
 62
     7
100
AcDbLine
 10
606.2277
 20
132.2021
 30
0.0
 11
601.4277
 21
132.2021
 31
0.0
  0
LINE
  5
3B
100
AcDbEntity
  8
1
  6
CONTINUOUS
 62
     7
100
AcDbLine
 10
603.8277
 20
136.359
 30
0.0
 11
601.4277
 21
132.2021
 31
0.0
  0
LINE
  5
3C
100
AcDbEntity
  8
1
  6
CONTINUOUS
 62
     7
100
AcDbLine
 10
603.8277
 20
136.359
 30
0.0
 11
606.2277
 21
132.2021
 31
0.0
  0
LINE
  5
3D
100
AcDbEntity
  8
1
  6
CONTINUOUS
 62
     7
100
AcDbLine
 10
609.9408
 20
47.665
 30
0.0
 11
605.1408
 21
47.665
 31
0.0
  0
LINE
  5
3E
100
AcDbEntity
  8
1
  6
CONTINUOUS
 62
     7
100
AcDbLine
 10
607.5408
 20
51.8219
 30
0.0
 11
605.1408
 21
47.665
 31
0.0
  0
LINE
  5
3F
100
AcDbEntity
  8
1
  6
CONTINUOUS
 62
     7
100
AcDbLine
 10
607.5408
 20
51.8219
 30
0.0
 11
609.9408
 21
47.665
 31
0.0
  0
LINE
  5
40
100
AcDbEntity
  8
1
  6
CONTINUOUS
 62
     7
100
AcDbLine
 10
609.7519
 20
41.8132
 30
0.0
 11
604.9519
 21
41.8132
 31
0.0
  0
LINE
  5
41
100
AcDbEntity
  8
1
  6
CONTINUOUS
 62
     7
100
AcDbLine
 10
607.3519
 20
45.9701
 30
0.0
 11
604.9519
 21
41.8132
 31
0.0
  0
LINE
  5
42
100
AcDbEntity
  8
1
  6
CONTINUOUS
 62
     7
100
AcDbLine
 10
607.3519
 20
45.9701
 30
0.0
 11
609.7519
 21
41.8132
 31
0.0
  0
TEXT
  5
43
100
AcDbEntity
  8
1
  6
CONTINUOUS
 62
     7
100
AcDbText
 10
603.4206
 20
132.7535
 30
0.0
 40
2.4
  1
1
  7
MONOTXT
210
0.0
220
0.0
230
1.0
100
AcDbText
  0
TEXT
  5
44
100
AcDbEntity
  8
1
  6
CONTINUOUS
 62
     7
100
AcDbText
 10
602.8255
 20
126.7148
 30
0.0
 40
2.4
  1
2
  7
MONOTXT
210
0.0
220
0.0
230
1.0
100
AcDbText
  0
TEXT
  5
45
100
AcDbEntity
  8
1
  6
CONTINUOUS
 62
     7
100
AcDbText
 10
602.8255
 20
126.7148
 30
0.0
 40
2.4
  1
2
  7
MONOTXT
210
0.0
220
0.0
230
1.0
100
AcDbText
  0
TEXT
  5
46
100
AcDbEntity
  8
1
  6
CONTINUOUS
 62
     7
100
AcDbText
 10
602.8255
 20
126.7148
 30
0.0
 40
2.4
  1
2
  7
MONOTXT
210
0.0
220
0.0
230
1.0
100
AcDbText
  0
TEXT
  5
47
100
AcDbEntity
  8
1
  6
CONTINUOUS
 62
     7
100
AcDbText
 10
606.9911
 20
133.0511
 30
0.0
 40
2.4
  1
SIGNATURE BLOCK
  7
MONOTXT
210
0.0
220
0.0
230
1.0
100
AcDbText
  0
TEXT
  5
48
100
AcDbEntity
  8
1
  6
CONTINUOUS
 62
     7
100
AcDbText
 10
606.9911
 20
127.0125
 30
0.0
 40
2.4
  1
CHANGED GROUND RODS
  7
MONOTXT
210
0.0
220
0.0
230
1.0
100
AcDbText
  0
TEXT
  5
49
100
AcDbEntity
  8
1
  6
CONTINUOUS
 62
     7
100
AcDbText
 10
607.1941
 20
48.1749
 30
0.0
 40
2.4
  1
1
  7
MONOTXT
210
0.0
220
0.0
230
1.0
100
AcDbText
  0
TEXT
  5
4A
100
AcDbEntity
  8
1
  6
CONTINUOUS
 62
     7
100
AcDbText
 10
606.5239
 20
42.1343
 30
0.0
 40
2.4
  1
2
  7
MONOTXT
210
0.0
220
0.0
230
1.0
100
AcDbText
  0
TEXT
  5
4C
100
AcDbEntity
  8
1
  6
CONTINUOUS
 62
     7
100
AcDbText
 10
624.7961
 20
80.3666
 30
0.0
 40
6.0
  1
CONTROL STATION (GROUND MOUNTED)
  7
TXT
 72
     4
 11
709.3697
 21
83.3666
 31
0.0
210
0.0
220
0.0
230
1.0
100
AcDbText
  0
TEXT
  5
4D
100
AcDbEntity
  8
1
  6
CONTINUOUS
 62
     7
100
AcDbText
 10
685.6342
 20
70.7666
 30
0.0
 40
6.0
  1
ENCLOSURE
  7
TXT
 72
     4
 11
709.3696
 21
73.7666
 31
0.0
210
0.0
220
0.0
230
1.0
100
AcDbText
  0
LINE
  5
4E
100
AcDbEntity
  8
1
  6
CONTINUOUS
 62
    52
100
AcDbLine
 10
133.2988
 20
459.7323
 30
0.0
 11
313.2988
 21
459.7323
 31
0.0
  0
LINE
  5
4F
100
AcDbEntity
  8
1
  6
CONTINUOUS
 62
    52
100
AcDbLine
 10
133.2988
 20
338.5323
 30
0.0
 11
313.2988
 21
338.5323
 31
0.0
  0
LINE
  5
50
100
AcDbEntity
  8
1
  6
CONTINUOUS
 62
    52
100
AcDbLine
 10
133.2988
 20
459.7323
 30
0.0
 11
133.2988
 21
338.5323
 31
0.0
  0
LINE
  5
51
100
AcDbEntity
  8
1
  6
CONTINUOUS
 62
    52
100
AcDbLine
 10
313.2988
 20
459.7323
 30
0.0
 11
313.2988
 21
338.5323
 31
0.0
  0
LINE
  5
52
100
AcDbEntity
  8
1
  6
CONTINUOUS
 62
    52
100
AcDbLine
 10
138.9988
 20
455.5323
 30
0.0
 11
307.5988
 21
455.5323
 31
0.0
  0
LINE
  5
53
100
AcDbEntity
  8
1
  6
CONTINUOUS
 62
    52
100
AcDbLine
 10
137.4988
 20
454.0323
 30
0.0
 11
137.4988
 21
346.0323
 31
0.0
  0
LINE
  5
54
100
AcDbEntity
  8
1
  6
CONTINUOUS
 62
    52
100
AcDbLine
 10
309.0988
 20
454.0323
 30
0.0
 11
309.0988
 21
346.0323
 31
0.0
  0
CIRCLE
  5
55
100
AcDbEntity
  8
1
  6
CONTINUOUS
 62
    52
100
AcDbCircle
 10
309.0988
 20
455.5323
 30
0.0
 40
1.5
210
0.0
220
0.0
230
1.0
  0
CIRCLE
  5
56
100
AcDbEntity
  8
1
  6
CONTINUOUS
 62
    52
100
AcDbCircle
 10
309.0988
 20
344.5323
 30
0.0
 40
1.5
210
0.0
220
0.0
230
1.0
  0
CIRCLE
  5
57
100
AcDbEntity
  8
1
  6
CONTINUOUS
 62
    52
100
AcDbCircle
 10
137.4988
 20
344.5323
 30
0.0
 40
1.5
210
0.0
220
0.0
230
1.0
  0
CIRCLE
  5
58
100
AcDbEntity
  8
1
  6
CONTINUOUS
 62
    52
100
AcDbCircle
 10
137.4988
 20
455.5323
 30
0.0
 40
1.5
210
0.0
220
0.0
230
1.0
  0
LINE
  5
59
100
AcDbEntity
  8
1
  6
CONTINUOUS
 62
    52
100
AcDbLine
 10
172.5988
 20
345.4323
 30
0.0
 11
172.5988
 21
343.6323
 31
0.0
  0
LINE
  5
5A
100
AcDbEntity
  8
1
  6
CONTINUOUS
 62
    52
100
AcDbLine
 10
138.9988
 20
344.5323
 30
0.0
 11
165.3988
 21
344.5323
 31
0.0
  0
LINE
  5
5B
100
AcDbEntity
  8
1
  6
CONTINUOUS
 62
    52
100
AcDbLine
 10
273.9988
 20
345.4323
 30
0.0
 11
273.9988
 21
343.6323
 31
0.0
  0
LINE
  5
5C
100
AcDbEntity
  8
1
  6
CONTINUOUS
 62
    52
100
AcDbLine
 10
281.1988
 20
344.5323
 30
0.0
 11
307.5988
 21
344.5323
 31
0.0
  0
LINE
  5
5D
100
AcDbEntity
  8
1
  6
CONTINUOUS
 62
    52
100
AcDbLine
 10
172.5988
 20
345.4323
 30
0.0
 11
168.7576
 21
345.4323
 31
0.0
  0
LINE
  5
5E
100
AcDbEntity
  8
1
  6
CONTINUOUS
 62
    52
100
AcDbLine
 10
172.5988
 20
343.6323
 30
0.0
 11
168.7576
 21
343.6323
 31
0.0
  0
CIRCLE
  5
5F
100
AcDbEntity
  8
1
  6
CONTINUOUS
 62
    52
100
AcDbCircle
 10
167.1988
 20
344.5323
 30
0.0
 40
1.8
210
0.0
220
0.0
230
1.0
  0
LINE
  5
60
100
AcDbEntity
  8
1
  6
CONTINUOUS
 62
    52
100
AcDbLine
 10
273.9988
 20
345.4323
 30
0.0
 11
277.84
 21
345.4323
 31
0.0
  0
LINE
  5
61
100
AcDbEntity
  8
1
  6
CONTINUOUS
 62
    52
100
AcDbLine
 10
273.9988
 20
343.6323
 30
0.0
 11
277.84
 21
343.6323
 31
0.0
  0
CIRCLE
  5
62
100
AcDbEntity
  8
1
  6
CONTINUOUS
 62
    52
100
AcDbCircle
 10
279.3988
 20
344.5323
 30
0.0
 40
1.8
210
0.0
220
0.0
230
1.0
  0
LINE
  5
63
100
AcDbEntity
  8
1
  6
CONTINUOUS
 62
    52
100
AcDbLine
 10
170.4988
 20
345.4323
 30
0.0
 11
170.4988
 21
343.6323
 31
0.0
  0
ARC
  5
64
100
AcDbEntity
  8
1
  6
CONTINUOUS
 62
    52
100
AcDbCircle
 10
275.583265
 20
344.5323
 30
0.0
 40
0.925449
210
0.0
220
0.0
230
1.0
100
AcDbArc
 50
283.467742
 51
76.532258
  0
LINE
  5
65
100
AcDbEntity
  8
1
  6
CONTINUOUS
 62
    52
100
AcDbLine
 10
172.5988
 20
345.1323
 30
0.0
 11
242.7988
 21
345.1323
 31
0.0
  0
LINE
  5
66
100
AcDbEntity
  8
1
  6
CONTINUOUS
 62
    52
100
AcDbLine
 10
242.7988
 20
345.1323
 30
0.0
 11
273.9988
 21
345.1323
 31
0.0
  0
LINE
  5
67
100
AcDbEntity
  8
1
  6
CONTINUOUS
 62
    52
100
AcDbLine
 10
172.5988
 20
343.9323
 30
0.0
 11
242.7988
 21
343.9323
 31
0.0
  0
LINE
  5
68
100
AcDbEntity
  8
1
  6
CONTINUOUS
 62
    52
100
AcDbLine
 10
242.7988
 20
343.9323
 30
0.0
 11
273.9988
 21
343.9323
 31
0.0
  0
POLYLINE
  5
69
100
AcDbEntity
  8
1
  6
CONTINUOUS
 62
    52
100
AcDb2dPolyline
 66
     1
 10
0.0
 20
0.0
 30
0.0
 70
     1
  0
VERTEX
  5
6A
100
AcDbEntity
  8
1
  6
CONTINUOUS
 62
    52
100
AcDbVertex
100
AcDb2dVertex
 10
238.2988
 20
343.9323
 30
0.0
  0
VERTEX
  5
6B
100
AcDbEntity
  8
1
  6
CONTINUOUS
 62
    52
100
AcDbVertex
100
AcDb2dVertex
 10
242.7988
 20
343.9323
 30
0.0
  0
VERTEX
  5
6C
100
AcDbEntity
  8
1
  6
CONTINUOUS
 62
    52
100
AcDbVertex
100
AcDb2dVertex
 10
242.7988
 20
343.3323
 30
0.0
  0
VERTEX
  5
6D
100
AcDbEntity
  8
1
  6
CONTINUOUS
 62
    52
100
AcDbVertex
100
AcDb2dVertex
 10
238.2988
 20
343.3323
 30
0.0
  0
VERTEX
  5
6E
100
AcDbEntity
  8
1
  6
CONTINUOUS
 62
    52
100
AcDbVertex
100
AcDb2dVertex
 10
238.2988
 20
343.9323
 30
0.0
  0
SEQEND
  5
6F
100
AcDbEntity
  8
1
  6
CONTINUOUS
 62
    52
  0
POLYLINE
  5
70
100
AcDbEntity
  8
1
  6
CONTINUOUS
 62
    52
100
AcDb2dPolyline
 66
     1
 10
0.0
 20
0.0
 30
0.0
 70
     1
  0
VERTEX
  5
71
100
AcDbEntity
  8
1
  6
CONTINUOUS
 62
    52
100
AcDbVertex
100
AcDb2dVertex
 10
238.2988
 20
345.1323
 30
0.0
  0
VERTEX
  5
72
100
AcDbEntity
  8
1
  6
CONTINUOUS
 62
    52
100
AcDbVertex
100
AcDb2dVertex
 10
238.2988
 20
345.7323
 30
0.0
  0
VERTEX
  5
73
100
AcDbEntity
  8
1
  6
CONTINUOUS
 62
    52
100
AcDbVertex
100
AcDb2dVertex
 10
242.7988
 20
345.7323
 30
0.0
  0
VERTEX
  5
74
100
AcDbEntity
  8
1
  6
CONTINUOUS
 62
    52
100
AcDbVertex
100
AcDb2dVertex
 10
242.7988
 20
345.1323
 30
0.0
  0
VERTEX
  5
75
100
AcDbEntity
  8
1
  6
CONTINUOUS
 62
    52
100
AcDbVertex
100
AcDb2dVertex
 10
238.2988
 20
345.1323
 30
0.0
  0
SEQEND
  5
76
100
AcDbEntity
  8
1
  6
CONTINUOUS
 62
    52
  0
LINE
  5
77
100
AcDbEntity
  8
1
  6
CONTINUOUS
 62
    52
100
AcDbLine
 10
115.2988
 20
477.7323
 30
0.0
 11
132.9988
 21
477.7323
 31
0.0
  0
LINE
  5
78
100
AcDbEntity
  8
1
  6
CONTINUOUS
 62
    52
100
AcDbLine
 10
135.3988
 20
477.7323
 30
0.0
 11
152.7988
 21
477.7323
 31
0.0
  0
LINE
  5
79
100
AcDbEntity
  8
1
  6
CONTINUOUS
 62
    52
100
AcDbLine
 10
155.1988
 20
477.7323
 30
0.0
 11
172.5988
 21
477.7323
 31
0.0
  0
LINE
  5
7A
100
AcDbEntity
  8
1
  6
CONTINUOUS
 62
    52
100
AcDbLine
 10
174.9988
 20
477.7323
 30
0.0
 11
192.3988
 21
477.7323
 31
0.0
  0
LINE
  5
7B
100
AcDbEntity
  8
1
  6
CONTINUOUS
 62
    52
100
AcDbLine
 10
194.7988
 20
477.7323
 30
0.0
 11
212.1988
 21
477.7323
 31
0.0
  0
LINE
  5
7C
100
AcDbEntity
  8
1
  6
CONTINUOUS
 62
    52
100
AcDbLine
 10
214.5988
 20
477.7323
 30
0.0
 11
231.9988
 21
477.7323
 31
0.0
  0
LINE
  5
7D
100
AcDbEntity
  8
1
  6
CONTINUOUS
 62
    52
100
AcDbLine
 10
234.3988
 20
477.7323
 30
0.0
 11
251.7988
 21
477.7323
 31
0.0
  0
LINE
  5
7E
100
AcDbEntity
  8
1
  6
CONTINUOUS
 62
    52
100
AcDbLine
 10
313.5988
 20
477.7323
 30
0.0
 11
331.2988
 21
477.7323
 31
0.0
  0
LINE
  5
7F
100
AcDbEntity
  8
1
  6
CONTINUOUS
 62
    52
100
AcDbLine
 10
254.1988
 20
477.7323
 30
0.0
 11
271.5988
 21
477.7323
 31
0.0
  0
LINE
  5
80
100
AcDbEntity
  8
1
  6
CONTINUOUS
 62
    52
100
AcDbLine
 10
293.7988
 20
477.7323
 30
0.0
 11
311.1988
 21
477.7323
 31
0.0
  0
LINE
  5
81
100
AcDbEntity
  8
1
  6
CONTINUOUS
 62
    52
100
AcDbLine
 10
273.9988
 20
477.7323
 30
0.0
 11
291.3988
 21
477.7323
 31
0.0
  0
LINE
  5
82
100
AcDbEntity
  8
1
  6
CONTINUOUS
 62
    52
100
AcDbLine
 10
115.2988
 20
319.3323
 30
0.0
 11
132.9988
 21
319.3323
 31
0.0
  0
LINE
  5
83
100
AcDbEntity
  8
1
  6
CONTINUOUS
 62
    52
100
AcDbLine
 10
135.3988
 20
319.3323
 30
0.0
 11
152.7988
 21
319.3323
 31
0.0
  0
LINE
  5
84
100
AcDbEntity
  8
1
  6
CONTINUOUS
 62
    52
100
AcDbLine
 10
155.1988
 20
319.3323
 30
0.0
 11
172.5988
 21
319.3323
 31
0.0
  0
LINE
  5
85
100
AcDbEntity
  8
1
  6
CONTINUOUS
 62
    52
100
AcDbLine
 10
174.9988
 20
319.3323
 30
0.0
 11
192.3988
 21
319.3323
 31
0.0
  0
LINE
  5
86
100
AcDbEntity
  8
1
  6
CONTINUOUS
 62
    52
100
AcDbLine
 10
194.7988
 20
319.3323
 30
0.0
 11
212.1988
 21
319.3323
 31
0.0
  0
LINE
  5
87
100
AcDbEntity
  8
1
  6
CONTINUOUS
 62
    52
100
AcDbLine
 10
214.5988
 20
319.3323
 30
0.0
 11
231.9988
 21
319.3323
 31
0.0
  0
LINE
  5
88
100
AcDbEntity
  8
1
  6
CONTINUOUS
 62
    52
100
AcDbLine
 10
234.3988
 20
319.3323
 30
0.0
 11
251.7988
 21
319.3323
 31
0.0
  0
LINE
  5
89
100
AcDbEntity
  8
1
  6
CONTINUOUS
 62
    52
100
AcDbLine
 10
254.1988
 20
319.3323
 30
0.0
 11
271.5988
 21
319.3323
 31
0.0
  0
LINE
  5
8A
100
AcDbEntity
  8
1
  6
CONTINUOUS
 62
    52
100
AcDbLine
 10
273.9988
 20
319.3323
 30
0.0
 11
291.3988
 21
319.3323
 31
0.0
  0
LINE
  5
8B
100
AcDbEntity
  8
1
  6
CONTINUOUS
 62
    52
100
AcDbLine
 10
293.7988
 20
319.3323
 30
0.0
 11
311.1988
 21
319.3323
 31
0.0
  0
LINE
  5
8C
100
AcDbEntity
  8
1
  6
CONTINUOUS
 62
    52
100
AcDbLine
 10
313.5988
 20
319.3323
 30
0.0
 11
331.2988
 21
319.3323
 31
0.0
  0
LINE
  5
8D
100
AcDbEntity
  8
1
  6
CONTINUOUS
 62
    52
100
AcDbLine
 10
115.2988
 20
477.7323
 30
0.0
 11
115.2988
 21
459.1323
 31
0.0
  0
LINE
  5
8E
100
AcDbEntity
  8
1
  6
CONTINUOUS
 62
    52
100
AcDbLine
 10
115.2988
 20
319.3323
 30
0.0
 11
115.2988
 21
337.9323
 31
0.0
  0
LINE
  5
8F
100
AcDbEntity
  8
1
  6
CONTINUOUS
 62
    52
100
AcDbLine
 10
115.2988
 20
456.7323
 30
0.0
 11
115.2988
 21
439.3323
 31
0.0
  0
LINE
  5
90
100
AcDbEntity
  8
1
  6
CONTINUOUS
 62
    52
100
AcDbLine
 10
115.2988
 20
357.7323
 30
0.0
 11
115.2988
 21
340.3323
 31
0.0
  0
LINE
  5
91
100
AcDbEntity
  8
1
  6
CONTINUOUS
 62
    52
100
AcDbLine
 10
115.2988
 20
436.9323
 30
0.0
 11
115.2988
 21
419.5323
 31
0.0
  0
LINE
  5
92
100
AcDbEntity
  8
1
  6
CONTINUOUS
 62
    52
100
AcDbLine
 10
115.2988
 20
377.5323
 30
0.0
 11
115.2988
 21
360.1323
 31
0.0
  0
LINE
  5
93
100
AcDbEntity
  8
1
  6
CONTINUOUS
 62
    52
100
AcDbLine
 10
115.2988
 20
397.3323
 30
0.0
 11
115.2988
 21
379.9323
 31
0.0
  0
LINE
  5
94
100
AcDbEntity
  8
1
  6
CONTINUOUS
 62
    52
100
AcDbLine
 10
115.2988
 20
417.1323
 30
0.0
 11
115.2988
 21
399.7323
 31
0.0
  0
LINE
  5
95
100
AcDbEntity
  8
1
  6
CONTINUOUS
 62
    52
100
AcDbLine
 10
331.2988
 20
477.7323
 30
0.0
 11
331.2988
 21
459.1323
 31
0.0
  0
LINE
  5
96
100
AcDbEntity
  8
1
  6
CONTINUOUS
 62
    52
100
AcDbLine
 10
331.2988
 20
456.7323
 30
0.0
 11
331.2988
 21
439.3323
 31
0.0
  0
LINE
  5
97
100
AcDbEntity
  8
1
  6
CONTINUOUS
 62
    52
100
AcDbLine
 10
331.2988
 20
436.9323
 30
0.0
 11
331.2988
 21
419.5323
 31
0.0
  0
LINE
  5
98
100
AcDbEntity
  8
1
  6
CONTINUOUS
 62
    52
100
AcDbLine
 10
331.2988
 20
417.1323
 30
0.0
 11
331.2988
 21
399.7323
 31
0.0
  0
LINE
  5
99
100
AcDbEntity
  8
1
  6
CONTINUOUS
 62
    52
100
AcDbLine
 10
331.2988
 20
397.3323
 30
0.0
 11
331.2988
 21
379.9323
 31
0.0
  0
LINE
  5
9A
100
AcDbEntity
  8
1
  6
CONTINUOUS
 62
    52
100
AcDbLine
 10
331.2988
 20
377.5323
 30
0.0
 11
331.2988
 21
360.1323
 31
0.0
  0
LINE
  5
9B
100
AcDbEntity
  8
1
  6
CONTINUOUS
 62
    52
100
AcDbLine
 10
331.2988
 20
357.7323
 30
0.0
 11
331.2988
 21
340.3323
 31
0.0
  0
LINE
  5
9C
100
AcDbEntity
  8
1
  6
CONTINUOUS
 62
    52
100
AcDbLine
 10
331.2988
 20
319.3323
 30
0.0
 11
331.2988
 21
337.9323
 31
0.0
  0
CIRCLE
  5
9D
100
AcDbEntity
  8
1
  6
CONTINUOUS
 62
    52
100
AcDbCircle
 10
115.2988
 20
477.7323
 30
0.0
 40
0.9
210
0.0
220
0.0
230
1.0
  0
CIRCLE
  5
9E
100
AcDbEntity
  8
1
  6
CONTINUOUS
 62
    52
100
AcDbCircle
 10
331.2988
 20
477.7323
 30
0.0
 40
0.9
210
0.0
220
0.0
230
1.0
  0
CIRCLE
  5
9F
100
AcDbEntity
  8
1
  6
CONTINUOUS
 62
    52
100
AcDbCircle
 10
331.2988
 20
319.3323
 30
0.0
 40
0.9
210
0.0
220
0.0
230
1.0
  0
CIRCLE
  5
A0
100
AcDbEntity
  8
1
  6
CONTINUOUS
 62
    52
100
AcDbCircle
 10
115.2988
 20
319.3323
 30
0.0
 40
0.9
210
0.0
220
0.0
230
1.0
  0
LINE
  5
A1
100
AcDbEntity
  8
1
  6
CONTINUOUS
 62
    52
100
AcDbLine
 10
159.6988
 20
429.7323
 30
0.0
 11
219.6988
 21
429.7323
 31
0.0
  0
LINE
  5
A2
100
AcDbEntity
  8
1
  6
CONTINUOUS
 62
    52
100
AcDbLine
 10
159.6988
 20
429.7323
 30
0.0
 11
159.6988
 21
375.1323
 31
0.0
  0
LINE
  5
A3
100
AcDbEntity
  8
1
  6
CONTINUOUS
 62
    52
100
AcDbLine
 10
159.6988
 20
375.1323
 30
0.0
 11
219.6988
 21
375.1323
 31
0.0
  0
LINE
  5
A4
100
AcDbEntity
  8
1
  6
CONTINUOUS
 62
    52
100
AcDbLine
 10
219.6988
 20
375.1323
 30
0.0
 11
219.6988
 21
429.7323
 31
0.0
  0
LINE
  5
A5
100
AcDbEntity
  8
1
  6
CONTINUOUS
 62
    52
100
AcDbLine
 10
223.8988
 20
375.1323
 30
0.0
 11
223.8988
 21
417.7323
 31
0.0
  0
LINE
  5
A6
100
AcDbEntity
  8
1
  6
CONTINUOUS
 62
    52
100
AcDbLine
 10
223.8988
 20
375.1323
 30
0.0
 11
285.6988
 21
375.1323
 31
0.0
  0
LINE
  5
A7
100
AcDbEntity
  8
1
  6
CONTINUOUS
 62
    52
100
AcDbLine
 10
285.6988
 20
375.1323
 30
0.0
 11
285.6988
 21
417.7323
 31
0.0
  0
LINE
  5
A8
100
AcDbEntity
  8
1
  6
CONTINUOUS
 62
    52
100
AcDbLine
 10
285.6988
 20
417.7323
 30
0.0
 11
223.8988
 21
417.7323
 31
0.0
  0
LINE
  5
A9
100
AcDbEntity
  8
1
  6
CONTINUOUS
 62
    52
100
AcDbLine
 10
167.4988
 20
413.5323
 30
0.0
 11
211.8988
 21
413.5323
 31
0.0
  0
LINE
  5
AA
100
AcDbEntity
  8
1
  6
CONTINUOUS
 62
    52
100
AcDbLine
 10
167.4988
 20
378.1323
 30
0.0
 11
211.8988
 21
378.1323
 31
0.0
  0
LINE
  5
AB
100
AcDbEntity
  8
1
  6
CONTINUOUS
 62
    52
100
AcDbLine
 10
167.4988
 20
413.5323
 30
0.0
 11
167.4988
 21
378.1323
 31
0.0
  0
LINE
  5
AC
100
AcDbEntity
  8
1
  6
CONTINUOUS
 62
    52
100
AcDbLine
 10
211.8988
 20
378.1323
 30
0.0
 11
211.8988
 21
413.5323
 31
0.0
  0
LINE
  5
AD
100
AcDbEntity
  8
1
  6
CONTINUOUS
 62
    52
100
AcDbLine
 10
174.6988
 20
426.1323
 30
0.0
 11
204.6988
 21
426.1323
 31
0.0
  0
LINE
  5
AE
100
AcDbEntity
  8
1
  6
CONTINUOUS
 62
    52
100
AcDbLine
 10
174.6988
 20
417.7323
 30
0.0
 11
204.6988
 21
417.7323
 31
0.0
  0
LINE
  5
AF
100
AcDbEntity
  8
1
  6
CONTINUOUS
 62
    52
100
AcDbLine
 10
174.6988
 20
426.1323
 30
0.0
 11
174.6988
 21
417.7323
 31
0.0
  0
LINE
  5
B0
100
AcDbEntity
  8
1
  6
CONTINUOUS
 62
    52
100
AcDbLine
 10
204.6988
 20
417.7323
 30
0.0
 11
204.6988
 21
426.1323
 31
0.0
  0
LINE
  5
B1
100
AcDbEntity
  8
1
  6
CONTINUOUS
 62
    52
100
AcDbLine
 10
279.6988
 20
408.7323
 30
0.0
 11
229.8988
 21
408.7323
 31
0.0
  0
LINE
  5
B2
100
AcDbEntity
  8
1
  6
CONTINUOUS
 62
    52
100
AcDbLine
 10
229.8988
 20
378.1323
 30
0.0
 11
279.6988
 21
378.1323
 31
0.0
  0
LINE
  5
B3
100
AcDbEntity
  8
1
  6
CONTINUOUS
 62
    52
100
AcDbLine
 10
229.8988
 20
378.1323
 30
0.0
 11
229.8988
 21
408.7323
 31
0.0
  0
LINE
  5
B4
100
AcDbEntity
  8
1
  6
CONTINUOUS
 62
    52
100
AcDbLine
 10
279.6988
 20
378.1323
 30
0.0
 11
279.6988
 21
408.7323
 31
0.0
  0
CIRCLE
  5
B5
100
AcDbEntity
  8
1
  6
CONTINUOUS
 62
    52
100
AcDbCircle
 10
274.8988
 20
382.9323
 30
0.0
 40
1.2
210
0.0
220
0.0
230
1.0
  0
LINE
  5
B6
100
AcDbEntity
  8
1
  6
DASHED
 62
    52
100
AcDbLine
 10
255.6988
 20
394.3323
 30
0.0
 11
255.6988
 21
450.7323
 31
0.0
  0
LINE
  5
B7
100
AcDbEntity
  8
1
  6
DASHED
 62
    52
100
AcDbLine
 10
258.6988
 20
394.3323
 30
0.0
 11
258.6988
 21
450.7323
 31
0.0
  0
LINE
  5
B8
100
AcDbEntity
  8
1
  6
DASHED
 62
    52
100
AcDbLine
 10
260.4988
 20
394.3323
 30
0.0
 11
260.4988
 21
450.7323
 31
0.0
  0
LINE
  5
B9
100
AcDbEntity
  8
1
  6
DASHED
 62
    52
100
AcDbLine
 10
263.4988
 20
394.3323
 30
0.0
 11
263.4988
 21
450.7323
 31
0.0
  0
LINE
  5
BA
100
AcDbEntity
  8
1
  6
DASHED
 62
    52
100
AcDbLine
 10
265.2988
 20
394.3323
 30
0.0
 11
265.2988
 21
450.7323
 31
0.0
  0
LINE
  5
BB
100
AcDbEntity
  8
1
  6
DASHED
 62
    52
100
AcDbLine
 10
268.2988
 20
394.3323
 30
0.0
 11
268.2988
 21
450.7323
 31
0.0
  0
LINE
  5
BC
100
AcDbEntity
  8
1
  6
DASHED
 62
    52
100
AcDbLine
 10
270.0988
 20
394.3323
 30
0.0
 11
270.0988
 21
450.7323
 31
0.0
  0
LINE
  5
BD
100
AcDbEntity
  8
1
  6
DASHED
 62
    52
100
AcDbLine
 10
273.0988
 20
394.3323
 30
0.0
 11
273.0988
 21
450.7323
 31
0.0
  0
CIRCLE
  5
BE
100
AcDbEntity
  8
1
  6
DASHED
 62
    52
100
AcDbCircle
 10
257.1988
 20
394.3323
 30
0.0
 40
1.5
210
0.0
220
0.0
230
1.0
  0
CIRCLE
  5
BF
100
AcDbEntity
  8
1
  6
DASHED
 62
    52
100
AcDbCircle
 10
261.9988
 20
394.3323
 30
0.0
 40
1.5
210
0.0
220
0.0
230
1.0
  0
CIRCLE
  5
C0
100
AcDbEntity
  8
1
  6
DASHED
 62
    52
100
AcDbCircle
 10
266.7988
 20
394.3323
 30
0.0
 40
1.5
210
0.0
220
0.0
230
1.0
  0
CIRCLE
  5
C1
100
AcDbEntity
  8
1
  6
DASHED
 62
    52
100
AcDbCircle
 10
271.5988
 20
394.3323
 30
0.0
 40
1.5
210
0.0
220
0.0
230
1.0
  0
ARC
  5
C2
100
AcDbEntity
  8
1
  6
CONTINUOUS
 62
    52
100
AcDbCircle
 10
256.4488
 20
450.306651
 30
0.0
 40
0.862367
210
0.0
220
0.0
230
1.0
100
AcDbArc
 50
29.576294
 51
150.423708
  0
ARC
  5
C3
100
AcDbEntity
  8
1
  6
CONTINUOUS
 62
    52
100
AcDbCircle
 10
257.9488
 20
450.306651
 30
0.0
 40
0.862367
210
0.0
220
0.0
230
1.0
100
AcDbArc
 50
29.576294
 51
150.423708
  0
ARC
  5
C4
100
AcDbEntity
  8
1
  6
CONTINUOUS
 62
    52
100
AcDbCircle
 10
257.9488
 20
451.157949
 30
0.0
 40
0.862367
210
0.0
220
0.0
230
1.0
100
AcDbArc
 50
209.576292
 51
330.423706
  0
ARC
  5
C5
100
AcDbEntity
  8
1
  6
CONTINUOUS
 62
    52
100
AcDbCircle
 10
261.2488
 20
450.306651
 30
0.0
 40
0.862367
210
0.0
220
0.0
230
1.0
100
AcDbArc
 50
29.576294
 51
150.423708
  0
ARC
  5
C6
100
AcDbEntity
  8
1
  6
CONTINUOUS
 62
    52
100
AcDbCircle
 10
262.7488
 20
450.306651
 30
0.0
 40
0.862367
210
0.0
220
0.0
230
1.0
100
AcDbArc
 50
29.576294
 51
150.423708
  0
ARC
  5
C7
100
AcDbEntity
  8
1
  6
CONTINUOUS
 62
    52
100
AcDbCircle
 10
262.7488
 20
451.157949
 30
0.0
 40
0.862367
210
0.0
220
0.0
230
1.0
100
AcDbArc
 50
209.576292
 51
330.423706
  0
ARC
  5
C8
100
AcDbEntity
  8
1
  6
CONTINUOUS
 62
    52
100
AcDbCircle
 10
266.0488
 20
450.306651
 30
0.0
 40
0.862367
210
0.0
220
0.0
230
1.0
100
AcDbArc
 50
29.576294
 51
150.423708
  0
ARC
  5
C9
100
AcDbEntity
  8
1
  6
CONTINUOUS
 62
    52
100
AcDbCircle
 10
267.5488
 20
450.306651
 30
0.0
 40
0.862367
210
0.0
220
0.0
230
1.0
100
AcDbArc
 50
29.576294
 51
150.423708
  0
ARC
  5
CA
100
AcDbEntity
  8
1
  6
CONTINUOUS
 62
    52
100
AcDbCircle
 10
267.5488
 20
451.157949
 30
0.0
 40
0.862367
210
0.0
220
0.0
230
1.0
100
AcDbArc
 50
209.576292
 51
330.423706
  0
ARC
  5
CB
100
AcDbEntity
  8
1
  6
CONTINUOUS
 62
    52
100
AcDbCircle
 10
270.8488
 20
450.306651
 30
0.0
 40
0.862367
210
0.0
220
0.0
230
1.0
100
AcDbArc
 50
29.576294
 51
150.423708
  0
ARC
  5
CC
100
AcDbEntity
  8
1
  6
CONTINUOUS
 62
    52
100
AcDbCircle
 10
272.3488
 20
450.306651
 30
0.0
 40
0.862367
210
0.0
220
0.0
230
1.0
100
AcDbArc
 50
29.576294
 51
150.423708
  0
ARC
  5
CD
100
AcDbEntity
  8
1
  6
CONTINUOUS
 62
    52
100
AcDbCircle
 10
272.3488
 20
451.157949
 30
0.0
 40
0.862367
210
0.0
220
0.0
230
1.0
100
AcDbArc
 50
209.576292
 51
330.423706
  0
CIRCLE
  5
CE
100
AcDbEntity
  8
1
  6
DASHED
 62
    52
100
AcDbCircle
 10
240.6988
 20
394.3323
 30
0.0
 40
1.2
210
0.0
220
0.0
230
1.0
  0
LINE
  5
CF
100
AcDbEntity
  8
1
  6
CONTINUOUS
 62
    52
100
AcDbLine
 10
184.2988
 20
422.5323
 30
0.0
 11
184.2988
 21
413.5323
 31
0.0
  0
LINE
  5
D0
100
AcDbEntity
  8
1
  6
CONTINUOUS
 62
    52
100
AcDbLine
 10
187.8988
 20
422.5323
 30
0.0
 11
187.8988
 21
413.5323
 31
0.0
  0
LINE
  5
D1
100
AcDbEntity
  8
1
  6
CONTINUOUS
 62
    52
100
AcDbLine
 10
190.2988
 20
422.5323
 30
0.0
 11
190.2988
 21
413.5323
 31
0.0
  0
LINE
  5
D2
100
AcDbEntity
  8
1
  6
CONTINUOUS
 62
    52
100
AcDbLine
 10
193.8988
 20
422.5323
 30
0.0
 11
193.8988
 21
413.5323
 31
0.0
  0
LINE
  5
D3
100
AcDbEntity
  8
1
  6
CONTINUOUS
 62
    52
100
AcDbLine
 10
196.8988
 20
422.5323
 30
0.0
 11
196.8988
 21
413.5323
 31
0.0
  0
LINE
  5
D4
100
AcDbEntity
  8
1
  6
CONTINUOUS
 62
    52
100
AcDbLine
 10
199.8988
 20
422.5323
 30
0.0
 11
199.8988
 21
413.5323
 31
0.0
  0
CIRCLE
  5
D5
100
AcDbEntity
  8
1
  6
DASHED
 62
    52
100
AcDbCircle
 10
186.0988
 20
422.5323
 30
0.0
 40
1.8
210
0.0
220
0.0
230
1.0
  0
CIRCLE
  5
D6
100
AcDbEntity
  8
1
  6
DASHED
 62
    52
100
AcDbCircle
 10
192.0988
 20
422.5323
 30
0.0
 40
1.8
210
0.0
220
0.0
230
1.0
  0
ARC
  5
D7
100
AcDbEntity
  8
1
  6
CONTINUOUS
 62
    52
100
AcDbCircle
 10
198.3988
 20
422.610408
 30
0.0
 40
1.502032
210
0.0
220
0.0
230
1.0
100
AcDbArc
 50
357.019192
 51
182.980806
  0
LINE
  5
D8
100
AcDbEntity
  8
1
  6
CONTINUOUS
 62
    52
100
AcDbLine
 10
184.2988
 20
412.9323
 30
0.0
 11
184.2988
 21
412.3323
 31
0.0
  0
LINE
  5
D9
100
AcDbEntity
  8
1
  6
CONTINUOUS
 62
    52
100
AcDbLine
 10
187.8988
 20
412.9323
 30
0.0
 11
187.8988
 21
412.3323
 31
0.0
  0
LINE
  5
DA
100
AcDbEntity
  8
1
  6
CONTINUOUS
 62
    52
100
AcDbLine
 10
190.2988
 20
412.9323
 30
0.0
 11
190.2988
 21
412.3323
 31
0.0
  0
LINE
  5
DB
100
AcDbEntity
  8
1
  6
CONTINUOUS
 62
    52
100
AcDbLine
 10
193.8988
 20
412.9323
 30
0.0
 11
193.8988
 21
412.3323
 31
0.0
  0
LINE
  5
DC
100
AcDbEntity
  8
1
  6
CONTINUOUS
 62
    52
100
AcDbLine
 10
196.8988
 20
412.9323
 30
0.0
 11
196.8988
 21
412.3323
 31
0.0
  0
LINE
  5
DD
100
AcDbEntity
  8
1
  6
CONTINUOUS
 62
    52
100
AcDbLine
 10
199.8988
 20
412.9323
 30
0.0
 11
199.8988
 21
412.3323
 31
0.0
  0
LINE
  5
DE
100
AcDbEntity
  8
1
  6
DASHED
 62
    52
100
AcDbLine
 10
183.9988
 20
412.3323
 30
0.0
 11
188.1988
 21
412.3323
 31
0.0
  0
LINE
  5
DF
100
AcDbEntity
  8
1
  6
DASHED
 62
    52
100
AcDbLine
 10
189.9988
 20
412.3323
 30
0.0
 11
194.1988
 21
412.3323
 31
0.0
  0
LINE
  5
E0
100
AcDbEntity
  8
1
  6
DASHED
 62
    52
100
AcDbLine
 10
196.5988
 20
412.3323
 30
0.0
 11
200.1988
 21
412.3323
 31
0.0
  0
LINE
  5
E1
100
AcDbEntity
  8
1
  6
DASHED
 62
    52
100
AcDbLine
 10
183.9988
 20
411.1323
 30
0.0
 11
188.1988
 21
411.1323
 31
0.0
  0
LINE
  5
E2
100
AcDbEntity
  8
1
  6
DASHED
 62
    52
100
AcDbLine
 10
189.9988
 20
411.1323
 30
0.0
 11
194.1988
 21
411.1323
 31
0.0
  0
LINE
  5
E3
100
AcDbEntity
  8
1
  6
DASHED
 62
    52
100
AcDbLine
 10
196.5988
 20
411.1323
 30
0.0
 11
200.1988
 21
411.1323
 31
0.0
  0
LINE
  5
E4
100
AcDbEntity
  8
1
  6
DASHED
 62
    52
100
AcDbLine
 10
183.9988
 20
412.3323
 30
0.0
 11
183.9988
 21
411.1323
 31
0.0
  0
LINE
  5
E5
100
AcDbEntity
  8
1
  6
DASHED
 62
    52
100
AcDbLine
 10
188.1988
 20
412.3323
 30
0.0
 11
188.1988
 21
411.1323
 31
0.0
  0
LINE
  5
E6
100
AcDbEntity
  8
1
  6
DASHED
 62
    52
100
AcDbLine
 10
189.9988
 20
412.3323
 30
0.0
 11
189.9988
 21
411.1323
 31
0.0
  0
LINE
  5
E7
100
AcDbEntity
  8
1
  6
DASHED
 62
    52
100
AcDbLine
 10
194.1988
 20
412.3323
 30
0.0
 11
194.1988
 21
411.1323
 31
0.0
  0
LINE
  5
E8
100
AcDbEntity
  8
1
  6
DASHED
 62
    52
100
AcDbLine
 10
196.5988
 20
412.3323
 30
0.0
 11
196.5988
 21
411.1323
 31
0.0
  0
LINE
  5
E9
100
AcDbEntity
  8
1
  6
DASHED
 62
    52
100
AcDbLine
 10
200.1988
 20
412.3323
 30
0.0
 11
200.1988
 21
411.1323
 31
0.0
  0
LINE
  5
EA
100
AcDbEntity
  8
1
  6
DASHED
 62
    52
100
AcDbLine
 10
199.2164
 20
423.7859
 30
0.0
 11
241.6319
 21
395.1106
 31
0.0
  0
LINE
  5
EB
100
AcDbEntity
  8
1
  6
DASHED
 62
    52
100
AcDbLine
 10
196.8988
 20
422.4795
 30
0.0
 11
240.2987
 21
393.1387
 31
0.0
  0
CIRCLE
  5
EC
100
AcDbEntity
  8
1
  6
CONTINUOUS
 62
    52
100
AcDbCircle
 10
176.7988
 20
419.8323
 30
0.0
 40
0.9
210
0.0
220
0.0
230
1.0
  0
CIRCLE
  5
ED
100
AcDbEntity
  8
1
  6
CONTINUOUS
 62
    52
100
AcDbCircle
 10
203.1988
 20
424.6323
 30
0.0
 40
0.9
210
0.0
220
0.0
230
1.0
  0
CIRCLE
  5
EE
100
AcDbEntity
  8
1
  6
CONTINUOUS
 62
    52
100
AcDbCircle
 10
236.4988
 20
406.9323
 30
0.0
 40
0.9
210
0.0
220
0.0
230
1.0
  0
CIRCLE
  5
EF
100
AcDbEntity
  8
1
  6
CONTINUOUS
 62
    52
100
AcDbCircle
 10
233.4988
 20
380.5323
 30
0.0
 40
0.9
210
0.0
220
0.0
230
1.0
  0
LINE
  5
F0
100
AcDbEntity
  8
1
  6
CONTINUOUS
 62
    52
100
AcDbLine
 10
236.4988
 20
406.9323
 30
0.0
 11
246.6662
 21
414.5256
 31
0.0
  0
LINE
  5
F1
100
AcDbEntity
  8
1
  6
CONTINUOUS
 62
    52
100
AcDbLine
 10
248.5891
 20
415.9618
 30
0.0
 11
258.7566
 21
423.5552
 31
0.0
  0
LINE
  5
F2
100
AcDbEntity
  8
1
  6
CONTINUOUS
 62
    52
100
AcDbLine
 10
260.6795
 20
424.9913
 30
0.0
 11
270.8469
 21
432.5847
 31
0.0
  0
LINE
  5
F3
100
AcDbEntity
  8
1
  6
CONTINUOUS
 62
    52
100
AcDbLine
 10
272.7699
 20
434.0207
 30
0.0
 11
282.9373
 21
441.6142
 31
0.0
  0
LINE
  5
F4
100
AcDbEntity
  8
1
  6
CONTINUOUS
 62
    52
100
AcDbLine
 10
284.8602
 20
443.0503
 30
0.0
 11
295.0276
 21
450.6437
 31
0.0
  0
LINE
  5
F5
100
AcDbEntity
  8
1
  6
CONTINUOUS
 62
    52
100
AcDbLine
 10
296.9505
 20
452.0798
 30
0.0
 11
307.118
 21
459.6732
 31
0.0
  0
LINE
  5
F6
100
AcDbEntity
  8
1
  6
CONTINUOUS
 62
    52
100
AcDbLine
 10
309.0409
 20
461.1093
 30
0.0
 11
319.2084
 21
468.7027
 31
0.0
  0
LINE
  5
F7
100
AcDbEntity
  8
1
  6
CONTINUOUS
 62
    52
100
AcDbLine
 10
321.1312
 20
470.1387
 30
0.0
 11
331.2988
 21
477.7323
 31
0.0
  0
LINE
  5
F8
100
AcDbEntity
  8
1
  6
CONTINUOUS
 62
    52
100
AcDbLine
 10
115.2988
 20
477.7323
 30
0.0
 11
124.4887
 21
472.1805
 31
0.0
  0
LINE
  5
F9
100
AcDbEntity
  8
1
  6
CONTINUOUS
 62
    52
100
AcDbLine
 10
126.543
 20
470.9396
 30
0.0
 11
135.733
 21
465.3879
 31
0.0
  0
LINE
  5
FA
100
AcDbEntity
  8
1
  6
CONTINUOUS
 62
    52
100
AcDbLine
 10
137.7873
 20
464.147
 30
0.0
 11
146.9773
 21
458.5952
 31
0.0
  0
LINE
  5
FB
100
AcDbEntity
  8
1
  6
CONTINUOUS
 62
    52
100
AcDbLine
 10
149.0315
 20
457.3543
 30
0.0
 11
158.2216
 21
451.8027
 31
0.0
  0
LINE
  5
FC
100
AcDbEntity
  8
1
  6
CONTINUOUS
 62
    52
100
AcDbLine
 10
160.2759
 20
450.5618
 30
0.0
 11
169.4658
 21
445.01
 31
0.0
  0
LINE
  5
FD
100
AcDbEntity
  8
1
  6
CONTINUOUS
 62
    52
100
AcDbLine
 10
171.5202
 20
443.7691
 30
0.0
 11
180.7102
 21
438.2175
 31
0.0
  0
LINE
  5
FE
100
AcDbEntity
  8
1
  6
CONTINUOUS
 62
    52
100
AcDbLine
 10
182.7645
 20
436.9765
 30
0.0
 11
191.9545
 21
431.4248
 31
0.0
  0
LINE
  5
FF
100
AcDbEntity
  8
1
  6
CONTINUOUS
 62
    52
100
AcDbLine
 10
194.0088
 20
430.1839
 30
0.0
 11
203.1988
 21
424.6323
 31
0.0
  0
LINE
  5
100
100
AcDbEntity
  8
1
  6
CONTINUOUS
 62
    52
100
AcDbLine
 10
233.4988
 20
380.5323
 30
0.0
 11
243.9436
 21
373.9961
 31
0.0
  0
LINE
  5
101
100
AcDbEntity
  8
1
  6
CONTINUOUS
 62
    52
100
AcDbLine
 10
245.9781
 20
372.7231
 30
0.0
 11
256.4229
 21
366.1871
 31
0.0
  0
LINE
  5
102
100
AcDbEntity
  8
1
  6
CONTINUOUS
 62
    52
100
AcDbLine
 10
258.4574
 20
364.9139
 30
0.0
 11
268.9022
 21
358.3778
 31
0.0
  0
LINE
  5
103
100
AcDbEntity
  8
1
  6
CONTINUOUS
 62
    52
100
AcDbLine
 10
270.9367
 20
357.1047
 30
0.0
 11
281.3815
 21
350.5688
 31
0.0
  0
LINE
  5
104
100
AcDbEntity
  8
1
  6
CONTINUOUS
 62
    52
100
AcDbLine
 10
283.416
 20
349.2957
 30
0.0
 11
293.8608
 21
342.7596
 31
0.0
  0
LINE
  5
105
100
AcDbEntity
  8
1
  6
CONTINUOUS
 62
    52
100
AcDbLine
 10
295.8953
 20
341.4865
 30
0.0
 11
306.3401
 21
334.9505
 31
0.0
  0
LINE
  5
106
100
AcDbEntity
  8
1
  6
CONTINUOUS
 62
    52
100
AcDbLine
 10
308.3746
 20
333.6773
 30
0.0
 11
318.8194
 21
327.1413
 31
0.0
  0
LINE
  5
107
100
AcDbEntity
  8
1
  6
CONTINUOUS
 62
    52
100
AcDbLine
 10
320.8539
 20
325.8683
 30
0.0
 11
331.2988
 21
319.3323
 31
0.0
  0
LINE
  5
108
100
AcDbEntity
  8
1
  6
CONTINUOUS
 62
    52
100
AcDbLine
 10
220.9084
 20
415.219
 30
0.0
 11
226.5842
 21
412.2021
 31
0.0
  0
LINE
  5
109
100
AcDbEntity
  8
1
  6
CONTINUOUS
 62
    52
100
AcDbLine
 10
229.7632
 20
410.5123
 30
0.0
 11
236.4988
 21
406.9323
 31
0.0
  0
LINE
  5
10A
100
AcDbEntity
  8
1
  6
CONTINUOUS
 62
    52
100
AcDbLine
 10
203.1988
 20
424.6323
 30
0.0
 11
209.9343
 21
421.0521
 31
0.0
  0
LINE
  5
10B
100
AcDbEntity
  8
1
  6
CONTINUOUS
 62
    52
100
AcDbLine
 10
212.0536
 20
419.9256
 30
0.0
 11
218.7891
 21
416.3455
 31
0.0
  0
LINE
  5
10C
100
AcDbEntity
  8
1
  6
CONTINUOUS
 62
    52
100
AcDbLine
 10
236.4988
 20
406.9323
 30
0.0
 11
235.1342
 21
394.9246
 31
0.0
  0
LINE
  5
10D
100
AcDbEntity
  8
1
  6
CONTINUOUS
 62
    52
100
AcDbLine
 10
234.8633
 20
392.5399
 30
0.0
 11
233.4988
 21
380.5323
 31
0.0
  0
LINE
  5
10E
100
AcDbEntity
  8
1
  6
CONTINUOUS
 62
    52
100
AcDbLine
 10
176.7988
 20
419.8323
 30
0.0
 11
189.4944
 21
411.0326
 31
0.0
  0
LINE
  5
10F
100
AcDbEntity
  8
1
  6
CONTINUOUS
 62
    52
100
AcDbLine
 10
191.4669
 20
409.6654
 30
0.0
 11
204.1625
 21
400.8658
 31
0.0
  0
LINE
  5
110
100
AcDbEntity
  8
1
  6
CONTINUOUS
 62
    52
100
AcDbLine
 10
206.135
 20
399.4987
 30
0.0
 11
218.8306
 21
390.699
 31
0.0
  0
LINE
  5
111
100
AcDbEntity
  8
1
  6
CONTINUOUS
 62
    52
100
AcDbLine
 10
220.8031
 20
389.3319
 30
0.0
 11
233.4988
 21
380.5323
 31
0.0
  0
LINE
  5
112
100
AcDbEntity
  8
1
  6
CONTINUOUS
 62
    52
100
AcDbLine
 10
176.7988
 20
419.8323
 30
0.0
 11
162.3633
 21
396.2426
 31
0.0
  0
LINE
  5
113
100
AcDbEntity
  8
1
  6
CONTINUOUS
 62
    52
100
AcDbLine
 10
161.1106
 20
394.1955
 30
0.0
 11
146.6751
 21
370.6058
 31
0.0
  0
LINE
  5
114
100
AcDbEntity
  8
1
  6
CONTINUOUS
 62
    52
100
AcDbLine
 10
145.4223
 20
368.5587
 30
0.0
 11
130.9869
 21
344.969
 31
0.0
  0
LINE
  5
115
100
AcDbEntity
  8
1
  6
CONTINUOUS
 62
    52
100
AcDbLine
 10
129.7341
 20
342.9219
 30
0.0
 11
115.2988
 21
319.3323
 31
0.0
  0
ARC
  5
116
100
AcDbEntity
  8
1
  6
CONTINUOUS
 62
    52
100
AcDbCircle
 10
194.421005
 20
397.910171
 30
0.0
 40
28.126888
210
0.0
220
0.0
230
1.0
100
AcDbArc
 50
117.912425
 51
128.794222
  0
ARC
  5
117
100
AcDbEntity
  8
1
  6
CONTINUOUS
 62
    52
100
AcDbCircle
 10
194.421005
 20
397.910171
 30
0.0
 40
28.126888
210
0.0
220
0.0
230
1.0
100
AcDbArc
 50
102.750156
 51
112.847622
  0
ARC
  5
118
100
AcDbEntity
  8
1
  6
CONTINUOUS
 62
    52
100
AcDbCircle
 10
194.421005
 20
397.910171
 30
0.0
 40
28.126888
210
0.0
220
0.0
230
1.0
100
AcDbArc
 50
87.762414
 51
97.859744
  0
ARC
  5
119
100
AcDbEntity
  8
1
  6
CONTINUOUS
 62
    52
100
AcDbCircle
 10
194.421005
 20
397.910171
 30
0.0
 40
28.126888
210
0.0
220
0.0
230
1.0
100
AcDbArc
 50
71.815469
 51
82.697597
  0
LINE
  5
11A
100
AcDbEntity
  8
1
  6
DASHED
 62
    52
100
AcDbLine
 10
184.2988
 20
425.5323
 30
0.0
 11
184.2988
 21
448.9323
 31
0.0
  0
LINE
  5
11B
100
AcDbEntity
  8
1
  6
DASHED
 62
    52
100
AcDbLine
 10
187.8988
 20
425.5323
 30
0.0
 11
187.8988
 21
448.9323
 31
0.0
  0
LINE
  5
11C
100
AcDbEntity
  8
1
  6
DASHED
 62
    52
100
AcDbLine
 10
190.2988
 20
425.5323
 30
0.0
 11
190.2988
 21
448.9323
 31
0.0
  0
LINE
  5
11D
100
AcDbEntity
  8
1
  6
DASHED
 62
    52
100
AcDbLine
 10
193.8988
 20
425.5323
 30
0.0
 11
193.8988
 21
448.9323
 31
0.0
  0
ARC
  5
11E
100
AcDbEntity
  8
1
  6
CONTINUOUS
 62
    52
100
AcDbCircle
 10
185.1988
 20
448.34518
 30
0.0
 40
1.074574
210
0.0
220
0.0
230
1.0
100
AcDbArc
 50
33.118644
 51
146.881353
  0
ARC
  5
11F
100
AcDbEntity
  8
1
  6
CONTINUOUS
 62
    52
100
AcDbCircle
 10
186.9988
 20
448.34518
 30
0.0
 40
1.074574
210
0.0
220
0.0
230
1.0
100
AcDbArc
 50
33.118644
 51
146.881353
  0
ARC
  5
120
100
AcDbEntity
  8
1
  6
CONTINUOUS
 62
    52
100
AcDbCircle
 10
186.9988
 20
449.51942
 30
0.0
 40
1.074574
210
0.0
220
0.0
230
1.0
100
AcDbArc
 50
213.118647
 51
326.881356
  0
ARC
  5
121
100
AcDbEntity
  8
1
  6
CONTINUOUS
 62
    52
100
AcDbCircle
 10
191.1988
 20
448.34518
 30
0.0
 40
1.074574
210
0.0
220
0.0
230
1.0
100
AcDbArc
 50
33.118644
 51
146.881353
  0
ARC
  5
122
100
AcDbEntity
  8
1
  6
CONTINUOUS
 62
    52
100
AcDbCircle
 10
192.9988
 20
448.34518
 30
0.0
 40
1.074574
210
0.0
220
0.0
230
1.0
100
AcDbArc
 50
33.118644
 51
146.881353
  0
ARC
  5
123
100
AcDbEntity
  8
1
  6
CONTINUOUS
 62
    52
100
AcDbCircle
 10
192.9988
 20
449.51942
 30
0.0
 40
1.074574
210
0.0
220
0.0
230
1.0
100
AcDbArc
 50
213.118647
 51
326.881356
  0
LINE
  5
124
100
AcDbEntity
  8
1
  6
CONTINUOUS
 62
    52
100
AcDbLine
 10
236.4988
 20
406.9323
 30
0.0
 11
247.8988
 21
421.3323
 31
0.0
  0
ARC
  5
125
100
AcDbEntity
  8
1
  6
CONTINUOUS
 62
    52
100
AcDbCircle
 10
213.770573
 20
441.210011
 30
0.0
 40
39.684849
210
0.0
220
0.0
230
1.0
100
AcDbArc
 50
332.900844
 51
5.092075
  0
POLYLINE
  5
126
100
AcDbEntity
  8
1
  6
CONTINUOUS
 62
    52
100
AcDb2dPolyline
 66
     1
 10
0.0
 20
0.0
 30
0.0
 70
     1
  0
VERTEX
  5
127
100
AcDbEntity
  8
1
  6
CONTINUOUS
 62
    52
100
AcDbVertex
100
AcDb2dVertex
 10
321.8553
 20
472.1772
 30
0.0
  0
VERTEX
  5
128
100
AcDbEntity
  8
1
  6
CONTINUOUS
 62
    52
100
AcDbVertex
100
AcDb2dVertex
 10
323.7781
 20
473.6133
 30
0.0
  0
VERTEX
  5
129
100
AcDbEntity
  8
1
  6
CONTINUOUS
 62
    52
100
AcDbVertex
100
AcDb2dVertex
 10
325.2143
 20
471.6904
 30
0.0
  0
VERTEX
  5
12A
100
AcDbEntity
  8
1
  6
CONTINUOUS
 62
    52
100
AcDbVertex
100
AcDb2dVertex
 10
323.2915
 20
470.2543
 30
0.0
  0
VERTEX
  5
12B
100
AcDbEntity
  8
1
  6
CONTINUOUS
 62
    52
100
AcDbVertex
100
AcDb2dVertex
 10
321.8553
 20
472.1772
 30
0.0
  0
SEQEND
  5
12C
100
AcDbEntity
  8
1
  6
CONTINUOUS
 62
    52
  0
POLYLINE
  5
12D
100
AcDbEntity
  8
1
  6
CONTINUOUS
 62
    52
100
AcDb2dPolyline
 66
     1
 10
0.0
 20
0.0
 30
0.0
 70
     1
  0
VERTEX
  5
12E
100
AcDbEntity
  8
1
  6
CONTINUOUS
 62
    52
100
AcDbVertex
100
AcDb2dVertex
 10
309.3852
 20
453.7528
 30
0.0
  0
VERTEX
  5
12F
100
AcDbEntity
  8
1
  6
CONTINUOUS
 62
    52
100
AcDbVertex
100
AcDb2dVertex
 10
310.8273
 20
454.8299
 30
0.0
  0
VERTEX
  5
130
100
AcDbEntity
  8
1
  6
CONTINUOUS
 62
    52
100
AcDbVertex
100
AcDb2dVertex
 10
311.5454
 20
453.8684
 30
0.0
  0
VERTEX
  5
131
100
AcDbEntity
  8
1
  6
CONTINUOUS
 62
    52
100
AcDbVertex
100
AcDb2dVertex
 10
310.1033
 20
452.7913
 30
0.0
  0
VERTEX
  5
132
100
AcDbEntity
  8
1
  6
CONTINUOUS
 62
    52
100
AcDbVertex
100
AcDb2dVertex
 10
309.3852
 20
453.7527
 30
0.0
  0
VERTEX
  5
133
100
AcDbEntity
  8
1
  6
CONTINUOUS
 62
    52
100
AcDbVertex
100
AcDb2dVertex
 10
309.3852
 20
453.7528
 30
0.0
  0
SEQEND
  5
134
100
AcDbEntity
  8
1
  6
CONTINUOUS
 62
    52
  0
SPLINE
  5
135
100
AcDbEntity
  8
1
  6
CONTINUOUS
 62
    52
100
AcDbSpline
210
0.0
220
0.0
230
1.0
 70
     8
 71
     3
 72
   164
 73
   160
 74
     0
 42
0.0
 43
0.0
 12
0.9136508104981902
 22
0.4064999341648163
 32
0.0
 13
0.8319817479292675
 23
0.5548030020760167
 33
0.0
 40
0.0
 40
0.0
 40
0.0
 40
0.0
 40
0.0203929468422191
 40
0.0203929468422191
 40
0.0203929468422191
 40
0.0389086227298843
 40
0.0389086227298843
 40
0.0389086227298843
 40
0.0538384578178343
 40
0.0538384578178343
 40
0.0538384578178343
 40
0.0684787263795378
 40
0.0684787263795378
 40
0.0684787263795378
 40
0.088971356341246
 40
0.088971356341246
 40
0.088971356341246
 40
0.1065424874742699
 40
0.1065424874742699
 40
0.1065424874742699
 40
0.1198032262578625
 40
0.1198032262578625
 40
0.1198032262578625
 40
0.1376178845309585
 40
0.1376178845309585
 40
0.1376178845309585
 40
0.1567060993284508
 40
0.1567060993284508
 40
0.1567060993284508
 40
0.1772080930684968
 40
0.1772080930684968
 40
0.1772080930684968
 40
0.1950158237786122
 40
0.1950158237786122
 40
0.1950158237786122
 40
0.2125822723985921
 40
0.2125822723985921
 40
0.2125822723985921
 40
0.2357261274482102
 40
0.2357261274482102
 40
0.2357261274482102
 40
0.2489868662318029
 40
0.2489868662318029
 40
0.2489868662318029
 40
0.2639148688850516
 40
0.2639148688850516
 40
0.2639148688850516
 40
0.2778023658949161
 40
0.2778023658949161
 40
0.2778023658949161
 40
0.3019504398142198
 40
0.3019504398142198
 40
0.3019504398142198
 40
0.3269648914426594
 40
0.3269648914426594
 40
0.3269648914426594
 40
0.3511038808420613
 40
0.3511038808420613
 40
0.3511038808420613
 40
0.3689169985222571
 40
0.3689169985222571
 40
0.3689169985222571
 40
0.3930593956981789
 40
0.3930593956981789
 40
0.3930593956981789
 40
0.4218243413083773
 40
0.4218243413083773
 40
0.4218243413083773
 40
0.4483406485937851
 40
0.4483406485937851
 40
0.4483406485937851
 40
0.4793927130904923
 40
0.4793927130904923
 40
0.4793927130904923
 40
0.5046661135121497
 40
0.5046661135121497
 40
0.5046661135121497
 40
0.5179258207795703
 40
0.5179258207795703
 40
0.5179258207795703
 40
0.5328556558675204
 40
0.5328556558675204
 40
0.5328556558675204
 40
0.5548622508330958
 40
0.5548622508330958
 40
0.5548622508330958
 40
0.5681178196575746
 40
0.5681178196575746
 40
0.5681178196575746
 40
0.5838888274961263
 40
0.5838888274961263
 40
0.5838888274961263
 40
0.6058954224617017
 40
0.6058954224617017
 40
0.6058954224617017
 40
0.6208252575496517
 40
0.6208252575496517
 40
0.6208252575496517
 40
0.638632988259767
 40
0.638632988259767
 40
0.638632988259767
 40
0.6518978638733516
 40
0.6518978638733516
 40
0.6518978638733516
 40
0.6694643124933315
 40
0.6694643124933315
 40
0.6694643124933315
 40
0.6843886393209713
 40
0.6843886393209713
 40
0.6843886393209713
 40
0.706785228849132
 40
0.706785228849132
 40
0.706785228849132
 40
0.721715063937082
 40
0.721715063937082
 40
0.721715063937082
 40
0.7408075880324113
 40
0.7408075880324113
 40
0.7408075880324113
 40
0.7593232639200765
 40
0.7593232639200765
 40
0.7593232639200765
 40
0.7788542037918639
 40
0.7788542037918639
 40
0.7788542037918639
 40
0.8030022777111676
 40
0.8030022777111676
 40
0.8030022777111676
 40
0.822533217582955
 40
0.822533217582955
 40
0.822533217582955
 40
0.8438438538706832
 40
0.8438438538706832
 40
0.8438438538706832
 40
0.8629363779660125
 40
0.8629363779660125
 40
0.8629363779660125
 40
0.8842528013914065
 40
0.8842528013914065
 40
0.8842528013914065
 40
0.9073936945965434
 40
0.9073936945965434
 40
0.9073936945965434
 40
0.9240906863839099
 40
0.9240906863839099
 40
0.9240906863839099
 40
0.9407786435490538
 40
0.9407786435490538
 40
0.9407786435490538
 40
0.9614884059695034
 40
0.9614884059695034
 40
0.9614884059695034
 40
0.9781763631346473
 40
0.9781763631346473
 40
0.9781763631346473
 40
0.9931061982225973
 40
0.9931061982225973
 40
0.9931061982225973
 40
1.0
 40
1.0
 40
1.0
 40
1.0
 10
309.46280000000002
 20
453.1123
 30
0.0
 10
309.5566
 20
453.1540333333333
 30
0.0
 10
309.65039999999999
 20
453.19576666666671
 30
0.0
 10
309.74420000000003
 20
453.23750000000001
 30
0.0
 10
309.82936524912759
 20
453.27539157494942
 30
0.0
 10
309.91171024960545
 20
453.31878403767553
 30
0.0
 10
309.99430000000001
 20
453.36260000000004
 30
0.0
 10
310.06089499555009
 20
453.39793033823298
 30
0.0
 10
310.12875979810468
 20
453.43454241791471
 30
0.0
 10
310.18190000000004
 20
453.48770000000002
 30
0.0
 10
310.23400953922726
 20
453.53982658232565
 30
0.0
 10
310.28609523998892
 20
453.59197142425285
 30
0.0
 10
310.33820000000003
 20
453.64410000000004
 30
0.0
 10
310.41113333190242
 20
453.71706666783916
 30
0.0
 10
310.48406666884097
 20
453.790033330906
 30
0.0
 10
310.55700000000002
 20
453.863
 30
0.0
 10
310.61953570811352
 20
453.92556429327942
 30
0.0
 10
310.68207113770973
 20
453.98812804472902
 30
0.0
 10
310.74459999999999
 20
454.05070000000001
 30
0.0
 10
310.79178984241764
 20
454.09792236421464
 30
0.0
 10
310.82957874450437
 20
454.15370065124699
 30
0.0
 10
310.86970000000002
 20
454.20710000000003
 30
0.0
 10
310.92359944465443
 20
454.27883741716551
 30
0.0
 10
310.97116100796046
 20
454.35500362942247
 30
0.0
 10
311.02600000000001
 20
454.42610000000002
 30
0.0
 10
311.08475939034491
 20
454.50227899664998
 30
0.0
 10
311.14892887639667
 20
454.57354829288045
 30
0.0
 10
311.21360000000004
 20
454.64500000000004
 30
0.0
 10
311.28306102531565
 20
454.72174381641355
 30
0.0
 10
311.35573103075069
 20
454.79480236831387
 30
0.0
 10
311.4325
 20
454.86400000000003
 30
0.0
 10
311.49918039940991
 20
454.92410404678054
 30
0.0
 10
311.58182813862675
 20
454.96459321898772
 30
0.0
 10
311.65129999999999
 20
455.0204
 30
0.0
 10
311.71983056704499
 20
455.07545063880724
 30
0.0
 10
311.76835129526273
 20
455.15499152962576
 30
0.0
 10
311.83890000000002
 20
455.20800000000003
 30
0.0
 10
311.93184815541264
 20
455.27783883773463
 30
0.0
 10
312.05769549403306
 20
455.29597150005236
 30
0.0
 10
312.1515
 20
455.36440000000005
 30
0.0
 10
312.20524718462786
 20
455.40360748990236
 30
0.0
 10
312.25358720068164
 20
455.45067423368062
 30
0.0
 10
312.30790000000002
 20
455.48950000000002
 30
0.0
 10
312.36904151146189
 20
455.53320730410195
 30
0.0
 10
312.43017259834318
 20
455.57708442460023
 30
0.0
 10
312.49540000000002
 20
455.61470000000003
 30
0.0
 10
312.55608094751267
 20
455.649693709676
 30
0.0
 10
312.62187193310496
 20
455.67479184061102
 30
0.0
 10
312.68299999999999
 20
455.70850000000002
 30
0.0
 10
312.78929165765999
 20
455.76711294688539
 30
0.0
 10
312.88881735643326
 20
455.83854556360166
 30
0.0
 10
312.9957
 20
455.89620000000002
 30
0.0
 10
313.10641734857012
 20
455.95592294582468
 30
0.0
 10
313.2286070554494
 20
455.99285005803046
 30
0.0
 10
313.33960000000002
 20
456.05260000000004
 30
0.0
 10
313.44670838485337
 20
456.11025879809171
 30
0.0
 10
313.55091349037514
 20
456.17278390135749
 30
0.0
 10
313.65219999999999
 20
456.24020000000002
 30
0.0
 10
313.72694333268521
 20
456.2899490130506
 30
0.0
 10
313.79471156950206
 20
456.3496130359851
 30
0.0
 10
313.87110000000001
 20
456.39660000000003
 30
0.0
 10
313.97463043536993
 20
456.46028216769838
 30
0.0
 10
314.07923475745815
 20
456.52219476684223
 30
0.0
 10
314.18369999999999
 20
456.58430000000004
 30
0.0
 10
314.30816721831206
 20
456.65829653153224
 30
0.0
 10
314.43682768000139
 20
456.7249989321752
 30
0.0
 10
314.55889999999999
 20
456.80330000000004
 30
0.0
 10
314.6714295765197
 20
456.8754800487078
 30
0.0
 10
314.76531154944934
 20
456.97277875762165
 30
0.0
 10
314.8716
 20
457.05350000000004
 30
0.0
 10
314.99606966262041
 20
457.14802904575322
 30
0.0
 10
315.12066875873967
 20
457.24251223506872
 30
0.0
 10
315.24670000000003
 20
457.33500000000004
 30
0.0
 10
315.34927733511887
 20
457.41027616456739
 30
0.0
 10
315.45651528714791
 20
457.47912119379276
 30
0.0
 10
315.55940000000004
 20
457.5539
 30
0.0
 10
315.61337853679964
 20
457.59313275315446
 30
0.0
 10
315.66247353971977
 20
457.63892863219542
 30
0.0
 10
315.71570000000003
 20
457.67910000000001
 30
0.0
 10
315.77563060467122
 20
457.72433115665262
 30
0.0
 10
315.84462591017746
 20
457.75722560235516
 30
0.0
 10
315.9033
 20
457.80420000000004
 30
0.0
 10
315.98978567931874
 20
457.87344031890729
 30
0.0
 10
316.06889133288149
 20
457.95129328456181
 30
0.0
 10
316.15340000000003
 20
458.0231
 30
0.0
 10
316.20430339759548
 20
458.0663524368282
 30
0.0
 10
316.25626196826244
 20
458.10824168378986
 30
0.0
 10
316.30970000000002
 20
458.14820000000003
 30
0.0
 10
316.37327868368908
 20
458.19574099401626
 30
0.0
 10
316.46402901087185
 20
458.19632371137396
 30
0.0
 10
316.52860000000004
 20
458.24209999999999
 30
0.0
 10
316.6187012553425
 20
458.30597545127966
 30
0.0
 10
316.68740423783532
 20
458.39847862844999
 30
0.0
 10
316.77870000000001
 20
458.46100000000001
 30
0.0
 10
316.84063737265944
 20
458.50341609245663
 30
0.0
 10
316.90474783618919
 20
458.54298411032772
 30
0.0
 10
316.96629999999999
 20
458.58610000000004
 30
0.0
 10
317.0397170438797
 20
458.637526968087
 30
0.0
 10
317.11275730084526
 20
458.68941156578916
 30
0.0
 10
317.18510000000003
 20
458.74250000000001
 30
0.0
 10
317.23898765820087
 20
458.78204526760271
 30
0.0
 10
317.29039097062997
 20
458.82474812115123
 30
0.0
 10
317.3415
 20
458.86770000000001
 30
0.0
 10
317.40918281622834
 20
458.92458044086555
 30
0.0
 10
317.45554557839392
 20
459.0062009077908
 30
0.0
 10
317.52910000000003
 20
459.05530000000005
 30
0.0
 10
317.59159130096901
 20
459.09701423119856
 30
0.0
 10
317.65409486760961
 20
459.13870769249183
 30
0.0
 10
317.71660000000003
 20
459.18040000000002
 30
0.0
 10
317.81039999578672
 20
459.24296667443201
 30
0.0
 10
317.90419999278834
 20
459.30553334561483
 30
0.0
 10
317.99799999999999
 20
459.36810000000003
 30
0.0
 10
318.06052820935787
 20
459.40980768191292
 30
0.0
 10
318.12306942830253
 20
459.45149637047149
 30
0.0
 10
318.18560000000002
 20
459.4932
 30
0.0
 10
318.26556514628567
 20
459.54653130251916
 30
0.0
 10
318.3235994168424
 20
459.62884278447638
 30
0.0
 10
318.40450000000004
 20
459.68090000000001
 30
0.0
 10
318.48295630935917
 20
459.73138439511922
 30
0.0
 10
318.5752815841081
 20
459.75712492146465
 30
0.0
 10
318.65460000000002
 20
459.80600000000004
 30
0.0
 10
318.73826765657969
 20
459.85755502968919
 30
0.0
 10
318.82055561778861
 20
459.91155438359795
 30
0.0
 10
318.90469999999999
 20
459.9624
 30
0.0
 10
319.00873619973612
 20
460.02526557182665
 30
0.0
 10
319.11347634423635
 20
460.08704171775497
 30
0.0
 10
319.2174
 20
460.15010000000001
 30
0.0
 10
319.30145335675059
 20
460.20110148041044
 30
0.0
 10
319.38393646611979
 20
460.25474175016836
 30
0.0
 10
319.46750000000003
 20
460.30650000000003
 30
0.0
 10
319.55867800214071
 20
460.36297456007213
 30
0.0
 10
319.6573160326173
 20
460.40702363776836
 30
0.0
 10
319.74880000000002
 20
460.46290000000005
 30
0.0
 10
319.8307618817575
 20
460.51296048518992
 30
0.0
 10
319.88534918800866
 20
460.60089724515956
 30
0.0
 10
319.96770000000004
 20
460.6506
 30
0.0
 10
320.059643043731
 20
460.7060921372522
 30
0.0
 10
320.15352313350576
 20
460.75805609992915
 30
0.0
 10
320.2491
 20
460.80700000000002
 30
0.0
 10
320.35285727748919
 20
460.86013300181656
 30
0.0
 10
320.46056216242374
 20
460.90547941544673
 30
0.0
 10
320.56170000000003
 20
460.9633
 30
0.0
 10
320.63467460942553
 20
461.00501964395971
 30
0.0
 10
320.70763161749869
 20
461.04677013028595
 30
0.0
 10
320.78059999999999
 20
461.08850000000001
 30
0.0
 10
320.85352889983415
 20
461.13020728998168
 30
0.0
 10
320.92647280848126
 20
461.17188926151948
 30
0.0
 10
320.99940000000004
 20
461.21360000000004
 30
0.0
 10
321.08990267779325
 20
461.2653630453965
 30
0.0
 10
321.16155248493538
 20
461.34565230692004
 30
0.0
 10
321.24960000000004
 20
461.40130000000005
 30
0.0
 10
321.32054881776361
 20
461.44614099332506
 30
0.0
 10
321.39849271496644
 20
461.47980553150637
 30
0.0
 10
321.46840000000003
 20
461.52640000000002
 30
0.0
 10
321.53094236073775
 20
461.56808561338795
 30
0.0
 10
321.59348365212441
 20
461.60977452823494
 30
0.0
 10
321.65600000000001
 20
461.6515
 30
0.0
 10
321.68486671604626
 20
461.67076659803831
 30
0.0
 10
321.71372545177917
 20
461.69004514726271
 30
0.0
 10
321.74260000000004
 20
461.70930000000004
 30
0.0
  0
SPLINE
  5
136
100
AcDbEntity
  8
1
  6
CONTINUOUS
 62
    52
100
AcDbSpline
210
0.0
220
0.0
230
1.0
 70
     8
 71
     3
 72
    98
 73
    94
 74
     0
 42
0.0
 43
0.0
 12
0.7833179379920261
 22
0.6216212737832583
 32
0.0
 13
-0.9895227927227944
 23
-0.1443767387153542
 33
0.0
 40
0.0
 40
0.0
 40
0.0
 40
0.0
 40
0.0189547128858423
 40
0.0189547128858423
 40
0.0189547128858423
 40
0.0547349462386103
 40
0.0547349462386103
 40
0.0547349462386103
 40
0.0826821055745722
 40
0.0826821055745722
 40
0.0826821055745722
 40
0.1106292649105341
 40
0.1106292649105341
 40
0.1106292649105341
 40
0.1436238350507911
 40
0.1436238350507911
 40
0.1436238350507911
 40
0.1793972012365625
 40
0.1793972012365625
 40
0.1793972012365625
 40
0.2051980586052507
 40
0.2051980586052507
 40
0.2051980586052507
 40
0.2359723248583672
 40
0.2359723248583672
 40
0.2359723248583672
 40
0.2777035969889855
 40
0.2777035969889855
 40
0.2777035969889855
 40
0.3034949353082148
 40
0.3034949353082148
 40
0.3034949353082148
 40
0.3264113592300738
 40
0.3264113592300738
 40
0.3264113592300738
 40
0.3493277831519328
 40
0.3493277831519328
 40
0.3493277831519328
 40
0.3823235952996924
 40
0.3823235952996924
 40
0.3823235952996924
 40
0.410263428960298
 40
0.410263428960298
 40
0.410263428960298
 40
0.433172707341533
 40
0.433172707341533
 40
0.433172707341533
 40
0.4798375859744566
 40
0.4798375859744566
 40
0.4798375859744566
 40
0.5118403995854944
 40
0.5118403995854944
 40
0.5118403995854944
 40
0.5456120192393924
 40
0.5456120192393924
 40
0.5456120192393924
 40
0.5728620327580971
 40
0.5728620327580971
 40
0.5728620327580971
 40
0.6068133777754969
 40
0.6068133777754969
 40
0.6068133777754969
 40
0.6392208327991514
 40
0.6392208327991514
 40
0.6392208327991514
 40
0.6678610373090576
 40
0.6678610373090576
 40
0.6678610373090576
 40
0.700268492332712
 40
0.700268492332712
 40
0.700268492332712
 40
0.7388164549818749
 40
0.7388164549818749
 40
0.7388164549818749
 40
0.7825018240619793
 40
0.7825018240619793
 40
0.7825018240619793
 40
0.8162540383992379
 40
0.8162540383992379
 40
0.8162540383992379
 40
0.8420548957679261
 40
0.8420548957679261
 40
0.8420548957679261
 40
0.8744408688421318
 40
0.8744408688421318
 40
0.8744408688421318
 40
0.9175207474111677
 40
0.9175207474111677
 40
0.9175207474111677
 40
0.9676039176628095
 40
0.9676039176628095
 40
0.9676039176628095
 40
1.0
 40
1.0
 40
1.0
 40
1.0
 10
321.37620000000004
 20
461.44080000000002
 30
0.0
 10
321.41945323107439
 20
461.47512466855619
 30
0.0
 10
321.46213994892508
 20
461.51016174094616
 30
0.0
 10
321.50530000000003
 20
461.5446
 30
0.0
 10
321.58677191193453
 20
461.60960805117088
 30
0.0
 10
321.67533972510421
 20
461.66555465355174
 30
0.0
 10
321.75540000000001
 20
461.73230000000001
 30
0.0
 10
321.81793333333337
 20
461.78443333333331
 30
0.0
 10
321.88046666666668
 20
461.83656666666673
 30
0.0
 10
321.94300000000004
 20
461.88870000000003
 30
0.0
 10
322.00553333333335
 20
461.94083333333333
 30
0.0
 10
322.06806666666665
 20
461.99296666666675
 30
0.0
 10
322.13060000000002
 20
462.04510000000005
 30
0.0
 10
322.2044271975326
 20
462.10664890028835
 30
0.0
 10
322.27567586568966
 20
462.17116079515529
 30
0.0
 10
322.34950000000003
 20
462.2328
 30
0.0
 10
322.42954158801905
 20
462.29963044625032
 30
0.0
 10
322.51393498372454
 20
462.36095866875297
 30
0.0
 10
322.59960000000001
 20
462.42040000000003
 30
0.0
 10
322.66138425745379
 20
462.46327092529526
 30
0.0
 10
322.72525180874322
 20
462.50298952047996
 30
0.0
 10
322.78720000000004
 20
462.5455
 30
0.0
 10
322.86108941012282
 20
462.59620485823808
 30
0.0
 10
322.93141778930965
 20
462.65215453758782
 30
0.0
 10
323.00600000000003
 20
462.70190000000002
 30
0.0
 10
323.10713679087661
 20
462.76935705688368
 30
0.0
 10
323.21500932811972
 20
462.82591306128535
 30
0.0
 10
323.31870000000004
 20
462.88960000000003
 30
0.0
 10
323.3827843440057
 20
462.92896068322494
 30
0.0
 10
323.45926864580707
 20
462.9560264284911
 30
0.0
 10
323.50620000000004
 20
463.0147
 30
0.0
 10
323.54790000000003
 20
463.06683333333331
 30
0.0
 10
323.58960000000002
 20
463.11896666666672
 30
0.0
 10
323.63130000000001
 20
463.17110000000002
 30
0.0
 10
323.673
 20
463.22323333333333
 30
0.0
 10
323.71469999999999
 20
463.27536666666674
 30
0.0
 10
323.75640000000004
 20
463.32750000000004
 30
0.0
 10
323.81644101561631
 20
463.4025632681246
 30
0.0
 10
323.88209173533932
 20
463.47296906715997
 30
0.0
 10
323.94400000000002
 20
463.54650000000004
 30
0.0
 10
323.9964220046196
 20
463.60876372071891
 30
0.0
 10
324.04833697031233
 20
463.67143703531241
 30
0.0
 10
324.1003
 20
463.73410000000001
 30
0.0
 10
324.14290710808478
 20
463.78548052429585
 30
0.0
 10
324.18450648632711
 20
463.83752266363064
 30
0.0
 10
324.2253
 20
463.89050000000003
 30
0.0
 10
324.30839403434186
 20
463.99841177839977
 30
0.0
 10
324.37750324736066
 20
464.11593638940519
 30
0.0
 10
324.44420000000002
 20
464.2346
 30
0.0
 10
324.48994068990879
 20
464.31597960546634
 30
0.0
 10
324.52445678352342
 20
464.40320759504124
 30
0.0
 10
324.56920000000002
 20
464.48480000000001
 30
0.0
 10
324.61641618877968
 20
464.57090204403914
 30
0.0
 10
324.68037664885867
 20
464.647388476027
 30
0.0
 10
324.72560000000004
 20
464.73510000000005
 30
0.0
 10
324.7620903117645
 20
464.80587363296479
 30
0.0
 10
324.79058813308842
 20
464.87959909964133
 30
0.0
 10
324.81940000000003
 20
464.95400000000001
 30
0.0
 10
324.85529728986518
 20
465.04669759209287
 30
0.0
 10
324.89036164219607
 20
465.13795989566967
 30
0.0
 10
324.91320000000002
 20
465.2355
 30
0.0
 10
324.9349998153819
 20
465.32860460432335
 30
0.0
 10
324.94077592520739
 20
465.42266027503126
 30
0.0
 10
324.94440000000003
 20
465.517
 30
0.0
 10
324.94760278908495
 20
465.60037307000943
 30
0.0
 10
324.94712658043466
 20
465.68390988850774
 30
0.0
 10
324.94440000000003
 20
465.76730000000003
 30
0.0
 10
324.94131477298032
 20
465.86165900803957
 30
0.0
 10
324.93230102121305
 20
465.95529272516791
 30
0.0
 10
324.91320000000002
 20
466.04880000000003
 30
0.0
 10
324.89047975085538
 20
466.16002486893899
 30
0.0
 10
324.84086065632755
 20
466.25959596138023
 30
0.0
 10
324.78810000000004
 20
466.36160000000001
 30
0.0
 10
324.72830776751408
 20
466.47719843292685
 30
0.0
 10
324.6745547752933
 20
466.60016155154688
 30
0.0
 10
324.56920000000002
 20
466.67440000000005
 30
0.0
 10
324.48780073447858
 20
466.73175815164251
 30
0.0
 10
324.40148430052767
 20
466.77771347397925
 30
0.0
 10
324.31909999999999
 20
466.83080000000001
 30
0.0
 10
324.25612381816808
 20
466.8713803859971
 30
0.0
 10
324.20443639983716
 20
466.92989615146666
 30
0.0
 10
324.13150000000002
 20
466.95590000000004
 30
0.0
 10
324.03994814776883
 20
466.98854077338189
 30
0.0
 10
323.94421553661567
 20
466.9789705053746
 30
0.0
 10
323.85020000000003
 20
466.98720000000003
 30
0.0
 10
323.72514036718536
 20
466.99814688828206
 30
0.0
 10
323.60019904570032
 20
467.01009009129507
 30
0.0
 10
323.47500000000002
 20
467.01840000000004
 30
0.0
 10
323.32944793881899
 20
467.02806081117842
 30
0.0
 10
323.18305590467929
 20
467.02541911859487
 30
0.0
 10
323.03730000000002
 20
467.01840000000004
 30
0.0
 10
322.94301842266782
 20
467.01385971345678
 30
0.0
 10
322.8495836602828
 20
467.00086895380485
 30
0.0
 10
322.7559
 20
466.98720000000003
 30
0.0
  0
SPLINE
  5
137
100
AcDbEntity
  8
1
  6
CONTINUOUS
 62
    52
100
AcDbSpline
210
0.0
220
0.0
230
1.0
 70
     8
 71
     3
 72
    17
 73
    13
 74
     0
 42
0.0
 43
0.0
 12
-0.9895227927227076
 22
-0.1443767387159494
 32
0.0
 13
-0.8056945981197938
 23
-0.5923311696682725
 33
0.0
 40
0.0
 40
0.0
 40
0.0
 40
0.0
 40
0.3249864185353251
 40
0.3249864185353251
 40
0.3249864185353251
 40
0.5614369023928886
 40
0.5614369023928886
 40
0.5614369023928886
 40
0.8767378610668019
 40
0.8767378610668019
 40
0.8767378610668019
 40
1.0
 40
1.0
 40
1.0
 40
1.0
 10
322.7559
 20
466.98720000000003
 30
0.0
 10
322.66051074279301
 20
466.9732821903595
 30
0.0
 10
322.56054185599749
 20
466.96748575840178
 30
0.0
 10
322.47450000000003
 20
466.9246
 30
0.0
 10
322.41189849629933
 20
466.89339759354135
 30
0.0
 10
322.34942389692532
 20
466.86208852930565
 30
0.0
 10
322.2869
 20
466.83080000000001
 30
0.0
 10
322.20352590695973
 20
466.78907750857343
 30
0.0
 10
322.12014601617562
 20
466.7473837105037
 30
0.0
 10
322.03680000000003
 20
466.7056
 30
0.0
 10
322.00421713609569
 20
466.68926529061338
 30
0.0
 10
321.97369278741678
 20
466.66890901188992
 30
0.0
 10
321.9443
 20
466.64730000000003
 30
0.0
  0
SPLINE
  5
138
100
AcDbEntity
  8
1
  6
CONTINUOUS
 62
    52
100
AcDbSpline
210
0.0
220
0.0
230
1.0
 70
     8
 71
     3
 72
   131
 73
   127
 74
     0
 42
0.0
 43
0.0
 12
-0.894641544781729
 22
-0.4467846308352176
 32
0.0
 13
0.8944271909999159
 23
0.4472135954999579
 33
0.0
 40
0.0
 40
0.0
 40
0.0
 40
0.0
 40
0.0243130399016047
 40
0.0243130399016047
 40
0.0243130399016047
 40
0.0462155814803515
 40
0.0462155814803515
 40
0.0462155814803515
 40
0.0658106302057081
 40
0.0658106302057081
 40
0.0658106302057081
 40
0.0850256298442792
 40
0.0850256298442792
 40
0.0850256298442792
 40
0.106935715953127
 40
0.106935715953127
 40
0.106935715953127
 40
0.1293402696004261
 40
0.1293402696004261
 40
0.1293402696004261
 40
0.1512428111791728
 40
0.1512428111791728
 40
0.1512428111791728
 40
0.1756969046632527
 40
0.1756969046632527
 40
0.1756969046632527
 40
0.2040589368702803
 40
0.2040589368702803
 40
0.2040589368702803
 40
0.2274382245072661
 40
0.2274382245072661
 40
0.2274382245072661
 40
0.2486644447647567
 40
0.2486644447647567
 40
0.2486644447647567
 40
0.2682594934901132
 40
0.2682594934901132
 40
0.2682594934901132
 40
0.2954422953444849
 40
0.2954422953444849
 40
0.2954422953444849
 40
0.3295004459207732
 40
0.3295004459207732
 40
0.3295004459207732
 40
0.3545532677927858
 40
0.3545532677927858
 40
0.3545532677927858
 40
0.3719576678459684
 40
0.3719576678459684
 40
0.3719576678459684
 40
0.3991317809358298
 40
0.3991317809358298
 40
0.3991317809358298
 40
0.4165307541454507
 40
0.4165307541454507
 40
0.4165307541454507
 40
0.4454261422924583
 40
0.4454261422924583
 40
0.4454261422924583
 40
0.4688003790328567
 40
0.4688003790328567
 40
0.4688003790328567
 40
0.4957026089318145
 40
0.4957026089318145
 40
0.4957026089318145
 40
0.5226048360236153
 40
0.5226048360236153
 40
0.5226048360236153
 40
0.5456665221496145
 40
0.5456665221496145
 40
0.5456665221496145
 40
0.574550466024229
 40
0.574550466024229
 40
0.574550466024229
 40
0.5996089437457932
 40
0.5996089437457932
 40
0.5996089437457932
 40
0.6188239433843643
 40
0.6188239433843643
 40
0.6188239433843643
 40
0.6477070688903975
 40
0.6477070688903975
 40
0.6477070688903975
 40
0.6707687550163968
 40
0.6707687550163968
 40
0.6707687550163968
 40
0.6979446049698433
 40
0.6979446049698433
 40
0.6979446049698433
 40
0.7175468843403767
 40
0.7175468843403767
 40
0.7175468843403767
 40
0.7349458575499976
 40
0.7349458575499976
 40
0.7349458575499976
 40
0.7638355228204758
 40
0.7638355228204758
 40
0.7638355228204758
 40
0.7872077401890637
 40
0.7872077401890637
 40
0.7872077401890637
 40
0.8139729914241166
 40
0.8139729914241166
 40
0.8139729914241166
 40
0.8358830775329643
 40
0.8358830775329643
 40
0.8358830775329643
 40
0.8668579488840688
 40
0.8668579488840688
 40
0.8668579488840688
 40
0.8957533370310762
 40
0.8957533370310762
 40
0.8957533370310762
 40
0.9250133283132833
 40
0.9250133283132833
 40
0.9250133283132833
 40
0.9507902061547415
 40
0.9507902061547415
 40
0.9507902061547415
 40
0.9726927477334882
 40
0.9726927477334882
 40
0.9726927477334882
 40
0.9939178543684357
 40
0.9939178543684357
 40
0.9939178543684357
 40
1.0
 40
1.0
 40
1.0
 40
1.0
 10
322.12510000000003
 20
466.74980000000005
 30
0.0
 10
322.04166666666669
 20
466.70813333333331
 30
0.0
 10
321.95823333333334
 20
466.66646666666674
 30
0.0
 10
321.87479999999999
 20
466.62480000000005
 30
0.0
 10
321.79963860266827
 20
466.58726434412114
 30
0.0
 10
321.72840227600699
 20
466.54260439319631
 30
0.0
 10
321.65600000000001
 20
466.49970000000002
 30
0.0
 10
321.59122550243399
 20
466.46131570235167
 30
0.0
 10
321.52921257830576
 20
466.41878551468693
 30
0.0
 10
321.46840000000003
 20
466.37460000000004
 30
0.0
 10
321.4087668913233
 20
466.33127147039858
 30
0.0
 10
321.37075462582442
 20
466.26448516756273
 30
0.0
 10
321.31210000000004
 20
466.21820000000002
 30
0.0
 10
321.24521850498735
 20
466.16542289742728
 30
0.0
 10
321.17368996582462
 20
466.12118209510464
 30
0.0
 10
321.09320000000002
 20
466.09310000000005
 30
0.0
 10
321.01089353399948
 20
466.06438414725648
 30
0.0
 10
320.92824329050359
 20
466.04449545296728
 30
0.0
 10
320.84309999999999
 20
466.03050000000002
 30
0.0
 10
320.75986448949789
 20
466.01681813892145
 30
0.0
 10
320.67658968206581
 20
466.00665441421739
 30
0.0
 10
320.59300000000002
 20
465.99930000000001
 30
0.0
 10
320.4996724794384
 20
465.99108882815284
 30
0.0
 10
320.40519953325747
 20
465.99131108950576
 30
0.0
 10
320.3116
 20
465.99930000000001
 30
0.0
 10
320.20304259309637
 20
466.00856559542626
 30
0.0
 10
320.10013608250472
 20
466.04246517824618
 30
0.0
 10
319.99900000000002
 20
466.09310000000005
 30
0.0
 10
319.91563187087252
 20
466.13483911282486
 30
0.0
 10
319.84326887151121
 20
466.18356888777896
 30
0.0
 10
319.7801
 20
466.24950000000001
 30
0.0
 10
319.72274853570678
 20
466.30935932212975
 30
0.0
 10
319.67424755179331
 20
466.37190818717994
 30
0.0
 10
319.62380000000002
 20
466.43720000000002
 30
0.0
 10
319.57722919165667
 20
466.49747433231437
 30
0.0
 10
319.53410550647595
 20
466.5579426890003
 30
0.0
 10
319.49870000000004
 20
466.62480000000005
 30
0.0
 10
319.44958448716932
 20
466.7175463392868
 30
0.0
 10
319.46060479125254
 20
466.84078836907088
 30
0.0
 10
319.49870000000004
 20
466.93760000000003
 30
0.0
 10
319.54643063360834
 20
467.05889820617409
 30
0.0
 10
319.60245108166481
 20
467.18017195585566
 30
0.0
 10
319.68630000000002
 20
467.2817
 30
0.0
 10
319.74797839356131
 20
467.35638297490982
 30
0.0
 10
319.81260948812877
 20
467.42680989948542
 30
0.0
 10
319.87389999999999
 20
467.50060000000002
 30
0.0
 10
319.91647901938234
 20
467.55186258574315
 30
0.0
 10
319.95578582110812
 20
467.60615375515317
 30
0.0
 10
319.99900000000002
 20
467.65700000000004
 30
0.0
 10
320.06647184509131
 20
467.73638806298641
 30
0.0
 10
320.17629699403966
 20
467.77089741675519
 30
0.0
 10
320.2491
 20
467.84470000000005
 30
0.0
 10
320.29571412669094
 20
467.89195413353622
 30
0.0
 10
320.32810688619139
 20
467.95336802502567
 30
0.0
 10
320.3741
 20
468.00110000000001
 30
0.0
 10
320.45048317845419
 20
468.08037099647152
 30
0.0
 10
320.55048845352701
 20
468.13789326479167
 30
0.0
 10
320.62430000000001
 20
468.2201
 30
0.0
 10
320.68400809433871
 20
468.28659918252146
 30
0.0
 10
320.71725244462147
 20
468.3755535040541
 30
0.0
 10
320.78059999999999
 20
468.43900000000002
 30
0.0
 10
320.85350892606493
 20
468.51202280023853
 30
0.0
 10
320.9264333756314
 20
468.58503326682143
 30
0.0
 10
320.99940000000004
 20
468.65800000000002
 30
0.0
 10
321.07236661675483
 20
468.73096672556477
 30
0.0
 10
321.14533346168179
 20
468.80393319622954
 30
0.0
 10
321.2183
 20
468.87690000000003
 30
0.0
 10
321.28084989219491
 20
468.93945011975143
 30
0.0
 10
321.3433746894882
 20
469.00202590618937
 30
0.0
 10
321.40590000000003
 20
469.06460000000004
 30
0.0
 10
321.48421073364278
 20
469.14297183299431
 30
0.0
 10
321.54638123297281
 20
469.2364356045523
 30
0.0
 10
321.62470000000002
 20
469.31480000000005
 30
0.0
 10
321.69264602175002
 20
469.3827856070215
 30
0.0
 10
321.77409185132188
 20
469.43626673365799
 30
0.0
 10
321.84360000000004
 20
469.5025
 30
0.0
 10
321.89689928922928
 20
469.55328808868467
 30
0.0
 10
321.94600453090271
 20
469.60869398019128
 30
0.0
 10
321.99990000000003
 20
469.65890000000002
 30
0.0
 10
322.08091325149235
 20
469.73436743682385
 30
0.0
 10
322.168141672395
 20
469.80297621908505
 30
0.0
 10
322.25
 20
469.87780000000004
 30
0.0
 10
322.31535965290988
 20
469.93754293017082
 30
0.0
 10
322.37981396512959
 20
469.99798363845287
 30
0.0
 10
322.43760000000003
 20
470.06550000000004
 30
0.0
 10
322.50569496081351
 20
470.14506116048
 30
0.0
 10
322.56552579141936
 20
470.23014405409128
 30
0.0
 10
322.62520000000001
 20
470.31570000000005
 30
0.0
 10
322.66824375060276
 20
470.37741257040295
 30
0.0
 10
322.70560989283723
 20
470.44285956175247
 30
0.0
 10
322.75030000000004
 20
470.5034
 30
0.0
 10
322.78996691641129
 20
470.55713566222875
 30
0.0
 10
322.83292673518633
 20
470.60810387684586
 30
0.0
 10
322.87530000000004
 20
470.65980000000002
 30
0.0
 10
322.94565756777928
 20
470.74563746153945
 30
0.0
 10
323.01686441703214
 20
470.82925879787007
 30
0.0
 10
323.0942
 20
470.91000000000003
 30
0.0
 10
323.15676576663418
 20
470.97532096890416
 30
0.0
 10
323.23312483408762
 20
471.02456118131283
 30
0.0
 10
323.31299999999999
 20
471.06640000000004
 30
0.0
 10
323.40447094815056
 20
471.11431271944298
 30
0.0
 10
323.50320685058466
 20
471.14436637228908
 30
0.0
 10
323.59440000000001
 20
471.19160000000005
 30
0.0
 10
323.66905088740174
 20
471.23026553843613
 30
0.0
 10
323.74400512069957
 20
471.26837442504012
 30
0.0
 10
323.81330000000003
 20
471.31670000000003
 30
0.0
 10
323.91126401351221
 20
471.38501915036369
 30
0.0
 10
324.00218600874007
 20
471.46109373647209
 30
0.0
 10
324.09460000000001
 20
471.53560000000004
 30
0.0
 10
324.18080982206516
 20
471.6051043210872
 30
0.0
 10
324.24883227005103
 20
471.69578531878074
 30
0.0
 10
324.34480000000002
 20
471.75460000000004
 30
0.0
 10
324.44197865451031
 20
471.81415680716208
 30
0.0
 10
324.55163966014663
 20
471.8418148783386
 30
0.0
 10
324.6574
 20
471.87970000000001
 30
0.0
 10
324.75057061425542
 20
471.91307527149809
 30
0.0
 10
324.84634199983071
 20
471.9372904298101
 30
0.0
 10
324.93880000000001
 20
471.9735
 30
0.0
 10
325.01736130620054
 20
472.00426717131967
 30
0.0
 10
325.08793901503589
 20
472.05106215167262
 30
0.0
 10
325.1576
 20
472.09860000000003
 30
0.0
 10
325.22510640462633
 20
472.14466752583115
 30
0.0
 10
325.2723807595633
 20
472.21859037978169
 30
0.0
 10
325.34520000000003
 20
472.255
 30
0.0
 10
325.36606666666665
 20
472.26543333333331
 30
0.0
 10
325.38693333333339
 20
472.27586666666673
 30
0.0
 10
325.40780000000001
 20
472.28630000000004
 30
0.0
  0
SPLINE
  5
139
100
AcDbEntity
  8
1
  6
CONTINUOUS
 62
    52
100
AcDbSpline
210
0.0
220
0.0
230
1.0
 70
     8
 71
     3
 72
   164
 73
   160
 74
     0
 42
0.0
 43
0.0
 12
-0.4119388756314116
 22
-0.9112114808009875
 32
0.0
 13
-0.559538555397227
 23
-0.8288043225176763
 33
0.0
 40
0.0
 40
0.0
 40
0.0
 40
0.0
 40
0.0203824984951064
 40
0.0203824984951064
 40
0.0203824984951064
 40
0.0389073716791473
 40
0.0389073716791473
 40
0.0389073716791473
 40
0.0538355911679038
 40
0.0538355911679038
 40
0.0538355911679038
 40
0.0684761814448305
 40
0.0684761814448305
 40
0.0684761814448305
 40
0.0889644798650832
 40
0.0889644798650832
 40
0.0889644798650832
 40
0.1065405848628635
 40
0.1065405848628635
 40
0.1065405848628635
 40
0.1197953099647063
 40
0.1197953099647063
 40
0.1197953099647063
 40
0.1376087677815446
 40
0.1376087677815446
 40
0.1376087677815446
 40
0.1567059276523741
 40
0.1567059276523741
 40
0.1567059276523741
 40
0.1771988806010661
 40
0.1771988806010661
 40
0.1771988806010661
 40
0.1950099694825615
 40
0.1950099694825615
 40
0.1950099694825615
 40
0.2125767682669982
 40
0.2125767682669982
 40
0.2125767682669982
 40
0.2357239381873097
 40
0.2357239381873097
 40
0.2357239381873097
 40
0.2489807666982745
 40
0.2489807666982745
 40
0.2489807666982745
 40
0.2639201049058191
 40
0.2639201049058191
 40
0.2639201049058191
 40
0.2778018859543555
 40
0.2778018859543555
 40
0.2778018859543555
 40
0.3019548993139768
 40
0.3019548993139768
 40
0.3019548993139768
 40
0.3269587744731908
 40
0.3269587744731908
 40
0.3269587744731908
 40
0.3511061304118407
 40
0.3511061304118407
 40
0.3511061304118407
 40
0.368917219293336
 40
0.368917219293336
 40
0.368917219293336
 40
0.3930623601898772
 40
0.3930623601898772
 40
0.3930623601898772
 40
0.4218235092228496
 40
0.4218235092228496
 40
0.4218235092228496
 40
0.4483329999434951
 40
0.4483329999434951
 40
0.4483329999434951
 40
0.4793988188947875
 40
0.4793988188947875
 40
0.4793988188947875
 40
0.5046612364499175
 40
0.5046612364499175
 40
0.5046612364499175
 40
0.5179264025543543
 40
0.5179264025543543
 40
0.5179264025543543
 40
0.532863814110257
 40
0.532863814110257
 40
0.532863814110257
 40
0.5548576949957569
 40
0.5548576949957569
 40
0.5548576949957569
 40
0.5681196698294601
 40
0.5681196698294601
 40
0.5681196698294601
 40
0.5838857317131913
 40
0.5838857317131913
 40
0.5838857317131913
 40
0.6058977400583514
 40
0.6058977400583514
 40
0.6058977400583514
 40
0.620825959547108
 40
0.620825959547108
 40
0.620825959547108
 40
0.6386370484286034
 40
0.6386370484286034
 40
0.6386370484286034
 40
0.651898044738594
 40
0.651898044738594
 40
0.651898044738594
 40
0.6694694411090352
 40
0.6694694411090352
 40
0.6694694411090352
 40
0.684395877897105
 40
0.684395877897105
 40
0.684395877897105
 40
0.7067873148364304
 40
0.7067873148364304
 40
0.7067873148364304
 40
0.7217192385487055
 40
0.7217192385487055
 40
0.7217192385487055
 40
0.7408078245898683
 40
0.7408078245898683
 40
0.7408078245898683
 40
0.7593237973895072
 40
0.7593237973895072
 40
0.7593237973895072
 40
0.778853661906177
 40
0.778853661906177
 40
0.778853661906177
 40
0.8030066752657984
 40
0.8030066752657984
 40
0.8030066752657984
 40
0.8225400828365677
 40
0.8225400828365677
 40
0.8225400828365677
 40
0.8438472022022978
 40
0.8438472022022978
 40
0.8438472022022978
 40
0.8629414521327288
 40
0.8629414521327288
 40
0.8629414521327288
 40
0.8842550723151114
 40
0.8842550723151114
 40
0.8842550723151114
 40
0.9074022422354229
 40
0.9074022422354229
 40
0.9074022422354229
 40
0.9240986935705946
 40
0.9240986935705946
 40
0.9240986935705946
 40
0.9407836876043055
 40
0.9407836876043055
 40
0.9407836876043055
 40
0.9614924135123916
 40
0.9614924135123916
 40
0.9614924135123916
 40
0.9781740873462651
 40
0.9781740873462651
 40
0.9781740873462651
 40
0.9931060110585401
 40
0.9931060110585401
 40
0.9931060110585401
 40
1.0
 40
1.0
 40
1.0
 40
1.0
 10
139.94150000000002
 20
344.13380000000001
 30
0.0
 10
139.89922992799421
 20
344.04029832491062
 30
0.0
 10
139.85712705975686
 20
343.94672336328722
 30
0.0
 10
139.81489999999999
 20
343.85320000000002
 30
0.0
 10
139.77652144071206
 20
343.76820019268706
 30
0.0
 10
139.73261972926255
 20
343.68607631718481
 30
0.0
 10
139.6883
 20
343.6037
 30
0.0
 10
139.65258506475914
 20
343.5373172652092
 30
0.0
 10
139.61563933621682
 20
343.4696664259983
 30
0.0
 10
139.56220000000002
 20
343.41680000000002
 30
0.0
 10
139.50979030527319
 20
343.36495217695392
 30
0.0
 10
139.45722658962717
 20
343.31330725088077
 30
0.0
 10
139.40479999999999
 20
343.26150000000001
 30
0.0
 10
139.33143331237878
 20
343.18900002586645
 30
0.0
 10
139.25806662320514
 20
343.11650003944163
 30
0.0
 10
139.18470000000002
 20
343.04400000000004
 30
0.0
 10
139.12176166093758
 20
342.98180506904816
 30
0.0
 10
139.05884444403304
 20
342.91959050434383
 30
0.0
 10
138.99590000000001
 20
342.85740000000004
 30
0.0
 10
138.94843150214732
 20
342.81050007313189
 30
0.0
 10
138.89250028900855
 20
342.77300226759485
 30
0.0
 10
138.8389
 20
342.73320000000001
 30
0.0
 10
138.7668648216098
 20
342.67970843307825
 30
0.0
 10
138.69040753605248
 20
342.63262293910759
 30
0.0
 10
138.619
 20
342.57820000000004
 30
0.0
 10
138.54244657921006
 20
342.51985514750345
 30
0.0
 10
138.47075654154847
 20
342.45609090230278
 30
0.0
 10
138.3989
 20
342.39179999999999
 30
0.0
 10
138.32179153282644
 20
342.32281013738015
 30
0.0
 10
138.24838714460631
 20
342.25055371634329
 30
0.0
 10
138.1788
 20
342.17420000000004
 30
0.0
 10
138.11831955968984
 20
342.10783851312073
 30
0.0
 10
138.07740527309593
 20
342.02536795252217
 30
0.0
 10
138.02119999999999
 20
341.95620000000002
 30
0.0
 10
137.96576561697776
 20
341.88798072871498
 30
0.0
 10
137.8858081757744
 20
341.84004524195763
 30
0.0
 10
137.83240000000001
 20
341.76980000000003
 30
0.0
 10
137.76202587350409
 20
341.67724024727335
 30
0.0
 10
137.74329348008808
 20
341.55140832359155
 30
0.0
 10
137.67430000000002
 20
341.45800000000003
 30
0.0
 10
137.63478610966047
 20
341.4045032601561
 30
0.0
 10
137.58743580215446
 20
341.35646528047101
 30
0.0
 10
137.54830000000001
 20
341.30240000000003
 30
0.0
 10
137.50419722052109
 20
341.24147294572197
 30
0.0
 10
137.45991724446969
 20
341.18056172755712
 30
0.0
 10
137.42189999999999
 20
341.1155
 30
0.0
 10
137.38657399984757
 20
341.05504399826555
 30
0.0
 10
137.36113667296013
 20
340.98941238175945
 30
0.0
 10
137.3271
 20
340.92850000000004
 30
0.0
 10
137.2678793413649
 20
340.82251809715501
 30
0.0
 10
137.1958669762578
 20
340.72337752929457
 30
0.0
 10
137.13760000000002
 20
340.61680000000001
 30
0.0
 10
137.0772803960416
 20
340.50646795995266
 30
0.0
 10
137.03977315369943
 20
340.38449532066591
 30
0.0
 10
136.9794
 20
340.27390000000003
 30
0.0
 10
136.92109495639232
 20
340.16709317280771
 30
0.0
 10
136.85793413049399
 20
340.06322282910611
 30
0.0
 10
136.78990000000002
 20
339.96230000000003
 30
0.0
 10
136.73971802776742
 20
339.88785932484092
 30
0.0
 10
136.67975772008029
 20
339.82038507726219
 30
0.0
 10
136.63230000000001
 20
339.74430000000001
 30
0.0
 10
136.56796517209639
 20
339.64115723748608
 30
0.0
 10
136.5054292956917
 20
339.53690760116507
 30
0.0
 10
136.4427
 20
339.43280000000004
 30
0.0
 10
136.36797827317918
 20
339.30878936591824
 30
0.0
 10
136.30066689238632
 20
339.18045682499735
 30
0.0
 10
136.2216
 20
339.05889999999999
 30
0.0
 10
136.14872311154113
 20
338.94685963886548
 30
0.0
 10
136.05098725997536
 20
338.85351303563493
 30
0.0
 10
135.96970000000002
 20
338.74770000000001
 30
0.0
 10
135.87444146304614
 20
338.62370031089392
 30
0.0
 10
135.77923579532526
 20
338.49956495172688
 30
0.0
 10
135.68600000000001
 20
338.37400000000002
 30
0.0
 10
135.61018157086784
 20
338.27189181975893
 30
0.0
 10
135.54072925105291
 20
338.16511388923448
 30
0.0
 10
135.46540000000002
 20
338.06270000000001
 30
0.0
 10
135.42584499598826
 20
338.00892299116339
 30
0.0
 10
135.37969733928074
 20
337.96011281934955
 30
0.0
 10
135.33920000000001
 20
337.90710000000001
 30
0.0
 10
135.29359744824961
 20
337.84740423033315
 30
0.0
 10
135.26032667380389
 20
337.77853845373198
 30
0.0
 10
135.21299999999999
 20
337.7201
 30
0.0
 10
135.14331609108089
 20
337.63405507945248
 30
0.0
 10
135.06503612145545
 20
337.5554581754663
 30
0.0
 10
134.99280000000002
 20
337.47140000000002
 30
0.0
 10
134.94924272014504
 20
337.42071420182714
 30
0.0
 10
134.90705713199162
 20
337.36895339745217
 30
0.0
 10
134.86680000000001
 20
337.31569999999999
 30
0.0
 10
134.81894163484699
 20
337.25239145279807
 30
0.0
 10
134.81781803887426
 20
337.16169606316106
 30
0.0
 10
134.77170000000001
 20
337.09739999999999
 30
0.0
 10
134.70731165343327
 20
337.00763214996243
 30
0.0
 10
134.61423316784973
 20
336.93957623329504
 30
0.0
 10
134.55119999999999
 20
336.84860000000003
 30
0.0
 10
134.50845183499945
 20
336.78690126003988
 30
0.0
 10
134.46853895393392
 20
336.72301460777487
 30
0.0
 10
134.42510000000001
 20
336.6617
 30
0.0
 10
134.3732723141853
 20
336.58854459592561
 30
0.0
 10
134.32099833064197
 20
336.51576282198459
 30
0.0
 10
134.26750000000001
 20
336.44370000000004
 30
0.0
 10
134.22766856858368
 20
336.3900466370427
 30
0.0
 10
134.18465303930969
 20
336.33892901060045
 30
0.0
 10
134.1414
 20
336.28810000000004
 30
0.0
 10
134.0840878433437
 20
336.22074935216784
 30
0.0
 10
134.00227653150233
 20
336.17476583244633
 30
0.0
 10
133.95269999999999
 20
336.10150000000004
 30
0.0
 10
133.91058604684338
 20
336.03926261182215
 30
0.0
 10
133.86854112155905
 20
335.97698391987728
 30
0.0
 10
133.82650000000001
 20
335.91470000000004
 30
0.0
 10
133.76343329924524
 20
335.82126668540076
 30
0.0
 10
133.70036672024295
 20
335.72783330148366
 30
0.0
 10
133.63730000000001
 20
335.63440000000003
 30
0.0
 10
133.59524341122446
 20
335.57209319344173
 30
0.0
 10
133.55317143983942
 20
335.50979632491874
 30
0.0
 10
133.5111
 20
335.44749999999999
 30
0.0
 10
133.45731695672143
 20
335.36786198542313
 30
0.0
 10
133.37460586419195
 20
335.31038719438402
 30
0.0
 10
133.32210000000001
 20
335.22980000000001
 30
0.0
 10
133.27116918977114
 20
335.15163023425652
 30
0.0
 10
133.24492336660035
 20
335.05944212781662
 30
0.0
 10
133.19560000000001
 20
334.98040000000003
 30
0.0
 10
133.1435758002653
 20
334.89702970862663
 30
0.0
 10
133.08911979364112
 20
334.81504955613553
 30
0.0
 10
133.0378
 20
334.7312
 30
0.0
 10
132.97433168149894
 20
334.6275014081429
 30
0.0
 10
132.91196078503398
 20
334.52308473897551
 30
0.0
 10
132.84829999999999
 20
334.41950000000003
 30
0.0
 10
132.79681524148029
 20
334.33572730901551
 30
0.0
 10
132.74265033686092
 20
334.25357059956821
 30
0.0
 10
132.69040000000001
 20
334.1703
 30
0.0
 10
132.63340512287158
 20
334.07946809582626
 30
0.0
 10
132.58890188644605
 20
333.98103962855481
 30
0.0
 10
132.5325
 20
333.88990000000001
 30
0.0
 10
132.4819557805838
 20
333.80822575693031
 30
0.0
 10
132.39382773763268
 20
333.75404180743203
 30
0.0
 10
132.34360000000001
 20
333.67200000000003
 30
0.0
 10
132.28753417251667
 20
333.58042227743681
 30
0.0
 10
132.23498653298523
 20
333.48688232729893
 30
0.0
 10
132.18550000000002
 20
333.39160000000004
 30
0.0
 10
132.13175628222825
 20
333.28812080681189
 30
0.0
 10
132.08576156975505
 20
333.18066346653006
 30
0.0
 10
132.0274
 20
333.07980000000003
 30
0.0
 10
131.98530279707566
 20
333.00704544874327
 30
0.0
 10
131.94314268111293
 20
332.93432863561316
 30
0.0
 10
131.90100000000001
 20
332.86160000000001
 30
0.0
 10
131.85888623769097
 20
332.78892127163277
 30
0.0
 10
131.81676206628859
 20
332.71625000111237
 30
0.0
 10
131.77459999999999
 20
332.64359999999999
 30
0.0
 10
131.72227018359584
 20
332.55342981730661
 30
0.0
 10
131.64175137523335
 20
332.48212166287249
 30
0.0
 10
131.5856
 20
332.39440000000002
 30
0.0
 10
131.54036791130832
 20
332.32373683246868
 30
0.0
 10
131.50623562457477
 20
332.2460389384529
 30
0.0
 10
131.45930000000001
 20
332.1764
 30
0.0
 10
131.41728747940297
 20
332.11406552884699
 30
0.0
 10
131.37526130932338
 20
332.05173610356786
 30
0.0
 10
131.3331
 20
331.98950000000002
 30
0.0
 10
131.31363435003865
 20
331.96076592540766
 30
0.0
 10
131.2941197410623
 20
331.9320650693225
 30
0.0
 10
131.2747
 20
331.9033
 30
0.0
  0
POLYLINE
  5
13A
100
AcDbEntity
  8
1
  6
CONTINUOUS
 62
    52
100
AcDb2dPolyline
 66
     1
 10
0.0
 20
0.0
 30
0.0
 70
     1
  0
VERTEX
  5
13B
100
AcDbEntity
  8
1
  6
CONTINUOUS
 62
    52
100
AcDbVertex
100
AcDb2dVertex
 10
121.9961
 20
326.7013
 30
0.0
  0
VERTEX
  5
13C
100
AcDbEntity
  8
1
  6
CONTINUOUS
 62
    52
100
AcDbVertex
100
AcDb2dVertex
 10
120.5251
 20
324.8051
 30
0.0
  0
VERTEX
  5
13D
100
AcDbEntity
  8
1
  6
CONTINUOUS
 62
    52
100
AcDbVertex
100
AcDb2dVertex
 10
118.6288
 20
326.2761
 30
0.0
  0
VERTEX
  5
13E
100
AcDbEntity
  8
1
  6
CONTINUOUS
 62
    52
100
AcDbVertex
100
AcDb2dVertex
 10
120.0997
 20
328.1724
 30
0.0
  0
VERTEX
  5
13F
100
AcDbEntity
  8
1
  6
CONTINUOUS
 62
    52
100
AcDbVertex
100
AcDb2dVertex
 10
121.9961
 20
326.7013
 30
0.0
  0
SEQEND
  5
140
100
AcDbEntity
  8
1
  6
CONTINUOUS
 62
    52
  0
POLYLINE
  5
141
100
AcDbEntity
  8
1
  6
CONTINUOUS
 62
    52
100
AcDb2dPolyline
 66
     1
 10
0.0
 20
0.0
 30
0.0
 70
     1
  0
VERTEX
  5
142
100
AcDbEntity
  8
1
  6
CONTINUOUS
 62
    52
100
AcDbVertex
100
AcDb2dVertex
 10
140.3185
 20
343.6398
 30
0.0
  0
VERTEX
  5
143
100
AcDbEntity
  8
1
  6
CONTINUOUS
 62
    52
100
AcDbVertex
100
AcDb2dVertex
 10
139.2153
 20
342.2176
 30
0.0
  0
VERTEX
  5
144
100
AcDbEntity
  8
1
  6
CONTINUOUS
 62
    52
100
AcDbVertex
100
AcDb2dVertex
 10
138.2671
 20
342.9532
 30
0.0
  0
VERTEX
  5
145
100
AcDbEntity
  8
1
  6
CONTINUOUS
 62
    52
100
AcDbVertex
100
AcDb2dVertex
 10
139.3703
 20
344.3754
 30
0.0
  0
VERTEX
  5
146
100
AcDbEntity
  8
1
  6
CONTINUOUS
 62
    52
100
AcDbVertex
100
AcDb2dVertex
 10
140.3185
 20
343.6399
 30
0.0
  0
SEQEND
  5
147
100
AcDbEntity
  8
1
  6
CONTINUOUS
 62
    52
  0
SPLINE
  5
148
100
AcDbEntity
  8
1
  6
CONTINUOUS
 62
    52
100
AcDbSpline
210
0.0
220
0.0
230
1.0
 70
     8
 71
     3
 72
    92
 73
    88
 74
     0
 42
0.0
 43
0.0
 12
-0.6260776958164234
 22
-0.7797606804662556
 32
0.0
 13
-0.0810320135955654
 23
0.9967114992677911
 33
0.0
 40
0.0
 40
0.0
 40
0.0
 40
0.0
 40
0.0212111635627239
 40
0.0212111635627239
 40
0.0212111635627239
 40
0.0612554999426353
 40
0.0612554999426353
 40
0.0612554999426353
 40
0.0925068496827881
 40
0.0925068496827881
 40
0.0925068496827881
 40
0.1237762388714219
 40
0.1237762388714219
 40
0.1237762388714219
 40
0.1606938029640805
 40
0.1606938029640805
 40
0.1606938029640805
 40
0.2007124607330197
 40
0.2007124607330197
 40
0.2007124607330197
 40
0.2295752598360691
 40
0.2295752598360691
 40
0.2295752598360691
 40
0.2640165478332261
 40
0.2640165478332261
 40
0.2640165478332261
 40
0.3107082725292699
 40
0.3107082725292699
 40
0.3107082725292699
 40
0.3395464129658486
 40
0.3395464129658486
 40
0.3395464129658486
 40
0.3651915955051661
 40
0.3651915955051661
 40
0.3651915955051661
 40
0.3908309461567939
 40
0.3908309461567939
 40
0.3908309461567939
 40
0.4277443682917514
 40
0.4277443682917514
 40
0.4277443682917514
 40
0.459000523801978
 40
0.459000523801978
 40
0.459000523801978
 40
0.4846398744536059
 40
0.4846398744536059
 40
0.4846398744536059
 40
0.5368414185204411
 40
0.5368414185204411
 40
0.5368414185204411
 40
0.5726581618241811
 40
0.5726581618241811
 40
0.5726581618241811
 40
0.6104450674893472
 40
0.6104450674893472
 40
0.6104450674893472
 40
0.640926092729709
 40
0.640926092729709
 40
0.640926092729709
 40
0.6788911724488489
 40
0.6788911724488489
 40
0.6788911724488489
 40
0.7151660604101149
 40
0.7151660604101149
 40
0.7151660604101149
 40
0.7471963193030551
 40
0.7471963193030551
 40
0.7471963193030551
 40
0.7834640842596915
 40
0.7834640842596915
 40
0.7834640842596915
 40
0.8265826216024867
 40
0.8265826216024867
 40
0.8265826216024867
 40
0.8754646984368054
 40
0.8754646984368054
 40
0.8754646984368054
 40
0.9132298173099644
 40
0.9132298173099644
 40
0.9132298173099644
 40
0.9420926362859545
 40
0.9420926362859545
 40
0.9420926362859545
 40
0.9783166000490916
 40
0.9783166000490916
 40
0.9783166000490916
 40
1.0
 40
1.0
 40
1.0
 40
1.0
 10
131.5454
 20
332.2681
 30
0.0
 10
131.51082159882066
 20
332.22503365565774
 30
0.0
 10
131.47549694160742
 20
332.18256794723902
 30
0.0
 10
131.4408
 20
332.13960000000003
 30
0.0
 10
131.37529600268402
 20
332.05848125666915
 30
0.0
 10
131.31882298530172
 20
331.97020585605316
 30
0.0
 10
131.2516
 20
331.89050000000003
 30
0.0
 10
131.19913792385745
 20
331.82829605784394
 30
0.0
 10
131.14666909105796
 20
331.76609798291264
 30
0.0
 10
131.0942
 20
331.70390000000003
 30
0.0
 10
131.04170062181933
 20
331.64166611408422
 30
0.0
 10
130.98920061779683
 20
331.57943278418031
 30
0.0
 10
130.9367
 20
331.5172
 30
0.0
 10
130.87471622056879
 20
331.44372613759799
 30
0.0
 10
130.8098732382673
 20
331.37276937719531
 30
0.0
 10
130.74780000000001
 20
331.29930000000002
 30
0.0
 10
130.68051257896124
 20
331.21965915871658
 30
0.0
 10
130.6187349217395
 20
331.13560669010627
 30
0.0
 10
130.55880000000002
 20
331.05029999999999
 30
0.0
 10
130.51557292288484
 20
330.98877395200265
 30
0.0
 10
130.47555721610479
 20
330.92509802180359
 30
0.0
 10
130.43270000000001
 20
330.86340000000001
 30
0.0
 10
130.38155950883174
 20
330.78977722591617
 30
0.0
 10
130.32509041294009
 20
330.7198176167575
 30
0.0
 10
130.2749
 20
330.64550000000003
 30
0.0
 10
130.20685733726415
 20
330.54474831783324
 30
0.0
 10
130.14978244607929
 20
330.43713525523953
 30
0.0
 10
130.0855
 20
330.3338
 30
0.0
 10
130.0457973284943
 20
330.26997720009177
 30
0.0
 10
130.01791266400755
 20
330.19428558677322
 30
0.0
 10
129.95930000000001
 20
330.1472
 30
0.0
 10
129.90717692809477
 20
330.10532772774218
 30
0.0
 10
129.85460788351841
 20
330.06428261764057
 30
0.0
 10
129.8022
 20
330.02289999999999
 30
0.0
 10
129.74980403438823
 20
329.98152679304616
 30
0.0
 10
129.69729385234302
 20
329.94030332541377
 30
0.0
 10
129.64500000000001
 20
329.89879999999999
 30
0.0
 10
129.56971162500062
 20
329.83904693558674
 30
0.0
 10
129.49885260709044
 20
329.77391522868271
 30
0.0
 10
129.42500000000001
 20
329.7124
 30
0.0
 10
129.36246587450998
 20
329.66031245452882
 30
0.0
 10
129.29953258177017
 20
329.60872518053264
 30
0.0
 10
129.23660000000001
 20
329.55709999999999
 30
0.0
 10
129.18497655159192
 20
329.51475198616009
 30
0.0
 10
129.13266179977779
 20
329.47346353391362
 30
0.0
 10
129.07939999999999
 20
329.43299999999999
 30
0.0
 10
128.97095933681956
 20
329.35061651933421
 30
0.0
 10
128.85312104471382
 20
329.2821173003889
 30
0.0
 10
128.73410000000001
 20
329.21610000000004
 30
0.0
 10
128.65243677944855
 20
329.17080393177247
 30
0.0
 10
128.56497482425641
 20
329.13678973606415
 30
0.0
 10
128.48310000000001
 20
329.09250000000003
 30
0.0
 10
128.39672150840204
 20
329.04577402984694
 30
0.0
 10
128.31988090336824
 20
328.98221953770252
 30
0.0
 10
128.2319
 20
328.9375
 30
0.0
 10
128.16092969721839
 20
328.90142672717036
 30
0.0
 10
128.08705564572088
 20
328.87336502819682
 30
0.0
 10
128.01250000000002
 20
328.84500000000003
 30
0.0
 10
127.91963858831897
 20
328.80967046143513
 30
0.0
 10
127.82822046128074
 20
328.77518423574367
 30
0.0
 10
127.73060000000001
 20
328.75290000000001
 30
0.0
 10
127.63732556670807
 20
328.73160785045405
 30
0.0
 10
127.54318339177128
 20
328.72630850177421
 30
0.0
 10
127.44880000000001
 20
328.72320000000002
 30
0.0
 10
127.36546068061034
 20
328.72045523296714
 30
0.0
 10
127.28195758498867
 20
328.721401525754
 30
0.0
 10
127.1986
 20
328.72460000000001
 30
0.0
 10
127.10421445944515
 20
328.72822162268375
 30
0.0
 10
127.01063730548789
 20
328.73774661417195
 30
0.0
 10
126.91720000000001
 20
328.75740000000002
 30
0.0
 10
126.80611292444664
 20
328.78076579747204
 30
0.0
 10
126.70688165957147
 20
328.83095488235784
 30
0.0
 10
126.60520000000001
 20
328.8843
 30
0.0
 10
126.48992682511707
 20
328.9447756167537
 30
0.0
 10
126.36721462583952
 20
328.9992128241505
 30
0.0
 10
126.29360000000001
 20
329.10500000000002
 30
0.0
 10
126.2367271076093
 20
329.18672863204552
 30
0.0
 10
126.19122085758455
 20
329.27330602049949
 30
0.0
 10
126.13860000000001
 20
329.35599999999999
 30
0.0
 10
126.09838335744355
 20
329.41920068443966
 30
0.0
 10
126.03840576562847
 20
329.47097748535754
 30
0.0
 10
126.0146
 20
329.54430000000002
 30
0.0
 10
125.98472283546536
 20
329.63632261621228
 30
0.0
 10
125.99270383384984
 20
329.73170191634659
 30
0.0
 10
125.98490000000001
 20
329.82570000000004
 30
0.0
 10
125.980228682095
 20
329.88196656585137
 30
0.0
 10
125.97547505726801
 20
329.93822579445475
 30
0.0
 10
125.9709
 20
329.99450000000002
 30
0.0
  0
SPLINE
  5
149
100
AcDbEntity
  8
1
  6
CONTINUOUS
 62
    52
100
AcDbSpline
210
0.0
220
0.0
230
1.0
 70
     8
 71
     3
 72
    47
 73
    43
 74
     0
 42
0.0
 43
0.0
 12
0.0519220951406865
 22
-0.9986511383041635
 32
0.0
 13
0.0948824956630782
 23
-0.9954884790979481
 33
0.0
 40
0.0
 40
0.0
 40
0.0
 40
0.0
 40
0.0664948081981903
 40
0.0664948081981903
 40
0.0664948081981903
 40
0.1341344681241216
 40
0.1341344681241216
 40
0.1341344681241216
 40
0.2065508243992058
 40
0.2065508243992058
 40
0.2065508243992058
 40
0.2839003218242047
 40
0.2839003218242047
 40
0.2839003218242047
 40
0.3676357726981474
 40
0.3676357726981474
 40
0.3676357726981474
 40
0.4538413942725318
 40
0.4538413942725318
 40
0.4538413942725318
 40
0.5441356729476763
 40
0.5441356729476763
 40
0.5441356729476763
 40
0.6124480672341811
 40
0.6124480672341811
 40
0.6124480672341811
 40
0.6913161033967993
 40
0.6913161033967993
 40
0.6913161033967993
 40
0.7662112298852821
 40
0.7662112298852821
 40
0.7662112298852821
 40
0.8348240870176694
 40
0.8348240870176694
 40
0.8348240870176694
 40
0.9072232532562983
 40
0.9072232532562983
 40
0.9072232532562983
 40
0.9792556465103812
 40
0.9792556465103812
 40
0.9792556465103812
 40
1.0
 40
1.0
 40
1.0
 40
1.0
 10
126.58340000000001
 20
332.98970000000003
 30
0.0
 10
126.58696666666668
 20
332.92110000000002
 30
0.0
 10
126.59053333333333
 20
332.85250000000002
 30
0.0
 10
126.59410000000001
 20
332.78390000000002
 30
0.0
 10
126.59772807453604
 20
332.71411890284895
 30
0.0
 10
126.64105936605999
 20
332.6443954907943
 30
0.0
 10
126.6259
 20
332.57670000000002
 30
0.0
 10
126.60967008319223
 20
332.50422387009422
 30
0.0
 10
126.58219565364871
 20
332.43350692650569
 30
0.0
 10
126.5622
 20
332.36150000000004
 30
0.0
 10
126.54084220405491
 20
332.28458782348599
 30
0.0
 10
126.52197004383892
 20
332.20678765736812
 30
0.0
 10
126.49850000000001
 20
332.13040000000001
 30
0.0
 10
126.4730922757315
 20
332.04770579843614
 30
0.0
 10
126.44507933083408
 20
331.96583863029934
 30
0.0
 10
126.41890000000001
 20
331.88339999999999
 30
0.0
 10
126.3919483867538
 20
331.79852945481849
 30
0.0
 10
126.36862026685998
 20
331.71246976704782
 30
0.0
 10
126.33920000000001
 20
331.6284
 30
0.0
 10
126.30838435565992
 20
331.54034287756031
 30
0.0
 10
126.27525439971227
 20
331.45314270181774
 30
0.0
 10
126.2436
 20
331.36540000000002
 30
0.0
 10
126.21965177353677
 20
331.29901800846881
 30
0.0
 10
126.19574987609678
 20
331.2326201272661
 30
0.0
 10
126.17190000000001
 20
331.1662
 30
0.0
 10
126.14436483730925
 20
331.08951662425454
 30
0.0
 10
126.11796689408615
 20
331.01247940943557
 30
0.0
 10
126.09230000000001
 20
330.93510000000003
 30
0.0
 10
126.06792605368814
 20
330.86161851194407
 30
0.0
 10
126.04867246707266
 20
330.78674321351673
 30
0.0
 10
126.02860000000001
 20
330.71190000000001
 30
0.0
 10
126.0102112291931
 20
330.64333470133346
 30
0.0
 10
125.9945605671378
 20
330.57477764522895
 30
0.0
 10
125.9808
 20
330.50470000000001
 30
0.0
 10
125.96628007429827
 20
330.43075521328529
 30
0.0
 10
125.95780530366551
 20
330.35628348341322
 30
0.0
 10
125.9569
 20
330.28160000000003
 30
0.0
 10
125.95599928258795
 20
330.20729486188458
 30
0.0
 10
125.95773948271965
 20
330.13257755835133
 30
0.0
 10
125.96480000000001
 20
330.05850000000004
 30
0.0
 10
125.96683333333333
 20
330.03716666666668
 30
0.0
 10
125.96886666666668
 20
330.01583333333338
 30
0.0
 10
125.9709
 20
329.99450000000002
 30
0.0
  0
SPLINE
  5
14A
100
AcDbEntity
  8
1
  6
CONTINUOUS
 62
    52
100
AcDbSpline
210
0.0
220
0.0
230
1.0
 70
     8
 71
     3
 72
   125
 73
   121
 74
     0
 42
0.0
 43
0.0
 12
-0.7659941508229411
 22
0.6428475409496729
 32
0.0
 13
-0.4725642202107296
 23
-0.8812962372418397
 33
0.0
 40
0.0
 40
0.0
 40
0.0
 40
0.0
 40
0.0092932797057843
 40
0.0092932797057843
 40
0.0092932797057843
 40
0.0306387999998059
 40
0.0306387999998059
 40
0.0306387999998059
 40
0.0488791804363361
 40
0.0488791804363361
 40
0.0488791804363361
 40
0.0671184668658257
 40
0.0671184668658257
 40
0.0671184668658257
 40
0.0876090208778366
 40
0.0876090208778366
 40
0.0876090208778366
 40
0.1098903636131865
 40
0.1098903636131865
 40
0.1098903636131865
 40
0.1293581825725475
 40
0.1293581825725475
 40
0.1293581825725475
 40
0.1658531655371348
 40
0.1658531655371348
 40
0.1658531655371348
 40
0.1911531807480457
 40
0.1911531807480457
 40
0.1911531807480457
 40
0.2195122465898003
 40
0.2195122465898003
 40
0.2195122465898003
 40
0.2498730525228899
 40
0.2498730525228899
 40
0.2498730525228899
 40
0.2756812228712039
 40
0.2756812228712039
 40
0.2756812228712039
 40
0.2939248849352335
 40
0.2939248849352335
 40
0.2939248849352335
 40
0.3215453628599237
 40
0.3215453628599237
 40
0.3215453628599237
 40
0.3428983623334623
 40
0.3428983623334623
 40
0.3428983623334623
 40
0.3724096248837502
 40
0.3724096248837502
 40
0.3724096248837502
 40
0.3977096400946611
 40
0.3977096400946611
 40
0.3977096400946611
 40
0.42000351903169
 40
0.42000351903169
 40
0.42000351903169
 40
0.4545484099157839
 40
0.4545484099157839
 40
0.4545484099157839
 40
0.4821739445508821
 40
0.4821739445508821
 40
0.4821739445508821
 40
0.5035222709830641
 40
0.5035222709830641
 40
0.5035222709830641
 40
0.5339688908237823
 40
0.5339688908237823
 40
0.5339688908237823
 40
0.5615893687484725
 40
0.5615893687484725
 40
0.5615893687484725
 40
0.5871914330645727
 40
0.5871914330645727
 40
0.5871914330645727
 40
0.6191986925405962
 40
0.6191986925405962
 40
0.6191986925405962
 40
0.6468242271756944
 40
0.6468242271756944
 40
0.6468242271756944
 40
0.6772649479065466
 40
0.6772649479065466
 40
0.6772649479065466
 40
0.7080472460484992
 40
0.7080472460484992
 40
0.7080472460484992
 40
0.7262909081125288
 40
0.7262909081125288
 40
0.7262909081125288
 40
0.7526820460565424
 40
0.7526820460565424
 40
0.7526820460565424
 40
0.774035045530081
 40
0.774035045530081
 40
0.774035045530081
 40
0.7942782126980168
 40
0.7942782126980168
 40
0.7942782126980168
 40
0.8206693506420303
 40
0.8206693506420303
 40
0.8206693506420303
 40
0.8451516637441973
 40
0.8451516637441973
 40
0.8451516637441973
 40
0.8777874079580162
 40
0.8777874079580162
 40
0.8777874079580162
 40
0.9072939369681408
 40
0.9072939369681408
 40
0.9072939369681408
 40
0.9331021073164548
 40
0.9331021073164548
 40
0.9331021073164548
 40
0.9638844054584075
 40
0.9638844054584075
 40
0.9638844054584075
 40
0.986515190547808
 40
0.986515190547808
 40
0.986515190547808
 40
1.0
 40
1.0
 40
1.0
 40
1.0
 10
126.58340000000001
 20
332.98970000000003
 30
0.0
 10
126.55649710272495
 20
333.01227779819749
 30
0.0
 10
126.52924938521444
 20
333.03437088941087
 30
0.0
 10
126.50200000000001
 20
333.0566
 30
0.0
 10
126.43941151417918
 20
333.10765753256345
 30
0.0
 10
126.37683484117122
 20
333.17472690516524
 30
0.0
 10
126.2968
 20
333.18490000000003
 30
0.0
 10
126.22840785349659
 20
333.19359321138336
 30
0.0
 10
126.16000405764305
 20
333.20205415238257
 30
0.0
 10
126.0916
 20
333.2106
 30
0.0
 10
126.02320004504116
 20
333.21914533506146
 30
0.0
 10
125.95480008182389
 20
333.22769253898412
 30
0.0
 10
125.88640000000001
 20
333.2362
 30
0.0
 10
125.80955732435824
 20
333.24575753341145
 30
0.0
 10
125.73236855771289
 20
333.23227105932278
 30
0.0
 10
125.6555
 20
333.2106
 30
0.0
 10
125.57191345182913
 20
333.18703498072693
 30
0.0
 10
125.49993628581139
 20
333.14960720267277
 30
0.0
 10
125.4247
 20
333.10790000000003
 30
0.0
 10
125.35896399796692
 20
333.07145927555268
 30
0.0
 10
125.28927897772171
 20
333.04073372144722
 30
0.0
 10
125.24510000000001
 20
332.9796
 30
0.0
 10
125.16228070510559
 20
332.86499681165952
 30
0.0
 10
125.1021556950416
 20
332.74348369958182
 30
0.0
 10
125.0399
 20
332.62030000000004
 30
0.0
 10
124.99674146412546
 20
332.53490334489868
 30
0.0
 10
124.95627811233551
 20
332.44826110696607
 30
0.0
 10
124.91170000000001
 20
332.36369999999999
 30
0.0
 10
124.8617319026576
 20
332.26891452338623
 30
0.0
 10
124.80855928057414
 20
332.17574066043511
 30
0.0
 10
124.7578
 20
332.08140000000003
 30
0.0
 10
124.70345784799068
 20
331.98040025272161
 30
0.0
 10
124.65924247080996
 20
331.87404965093936
 30
0.0
 10
124.60390000000001
 20
331.77350000000001
 30
0.0
 10
124.55685619235841
 20
331.68802787763201
 30
0.0
 10
124.47631523645074
 20
331.62474701729531
 30
0.0
 10
124.4243
 20
331.54250000000002
 30
0.0
 10
124.38753069852764
 20
331.48436000909567
 30
0.0
 10
124.35979162577759
 20
331.4202933351624
 30
0.0
 10
124.32170000000001
 20
331.36290000000002
 30
0.0
 10
124.26403016895331
 20
331.27600783211653
 30
0.0
 10
124.19788580976967
 20
331.19457836782084
 30
0.0
 10
124.1422
 20
331.10630000000003
 30
0.0
 10
124.09915009080086
 20
331.03805324674892
 30
0.0
 10
124.05684541215203
 20
330.96930842895949
 30
0.0
 10
124.01390000000001
 20
330.90100000000001
 30
0.0
 10
123.95454658995946
 20
330.80659321729399
 30
0.0
 10
123.89273862819881
 20
330.71383102852855
 30
0.0
 10
123.8343
 20
330.61869999999999
 30
0.0
 10
123.78420054458651
 20
330.53714413756614
 30
0.0
 10
123.74713815401009
 20
330.44846555772165
 30
0.0
 10
123.70610000000001
 20
330.3621
 30
0.0
 10
123.66993798074141
 20
330.28599635847553
 30
0.0
 10
123.64220571953192
 20
330.20614647937765
 30
0.0
 10
123.60350000000001
 20
330.1311
 30
0.0
 10
123.5435245752838
 20
330.01481371134389
 30
0.0
 10
123.4714137082523
 20
329.90580514574702
 30
0.0
 10
123.39830000000001
 20
329.79750000000001
 30
0.0
 10
123.3398309984217
 20
329.71088842073544
 30
0.0
 10
123.27736870269932
 20
329.62714839462672
 30
0.0
 10
123.21870000000001
 20
329.54090000000002
 30
0.0
 10
123.17336228497942
 20
329.47424938465213
 30
0.0
 10
123.1367580455062
 20
329.40170136948495
 30
0.0
 10
123.09050000000001
 20
329.3356
 30
0.0
 10
123.02452756274241
 20
329.2413273517879
 30
0.0
 10
122.93095002222339
 20
329.16876247876507
 30
0.0
 10
122.8596
 20
329.07900000000001
 30
0.0
 10
122.7948728899281
 20
328.99756953001133
 30
0.0
 10
122.7538774552157
 20
328.89624434744098
 30
0.0
 10
122.68010000000001
 20
328.82240000000002
 30
0.0
 10
122.61171395835871
 20
328.75395195439711
 30
0.0
 10
122.54329499442066
 20
328.68553833545053
 30
0.0
 10
122.47490000000001
 20
328.61709999999999
 30
0.0
 10
122.38939375697778
 20
328.53153957276936
 30
0.0
 10
122.3038825226388
 20
328.44598508927299
 30
0.0
 10
122.2184
 20
328.36040000000003
 30
0.0
 10
122.1446198504804
 20
328.28653132499738
 30
0.0
 10
122.10486544905902
 20
328.18434096212223
 30
0.0
 10
122.03880000000001
 20
328.10380000000004
 30
0.0
 10
121.96600213703275
 20
328.01505149367273
 30
0.0
 10
121.88020308426992
 20
327.93694943202274
 30
0.0
 10
121.80800000000001
 20
327.84720000000004
 30
0.0
 10
121.73498671997893
 20
327.75644348345691
 30
0.0
 10
121.6624818608593
 20
327.66493856693057
 30
0.0
 10
121.6028
 20
327.56490000000002
 30
0.0
 10
121.56742851162547
 20
327.50561041089804
 30
0.0
 10
121.53547934430473
 20
327.44452991824352
 30
0.0
 10
121.50020000000001
 20
327.38530000000003
 30
0.0
 10
121.44916517821628
 20
327.29961846647399
 30
0.0
 10
121.39788170648805
 20
327.21405466192203
 30
0.0
 10
121.3463
 20
327.12870000000004
 30
0.0
 10
121.30456537855929
 20
327.05963977020048
 30
0.0
 10
121.259506693471
 20
326.99260479236295
 30
0.0
 10
121.218
 20
326.92340000000002
 30
0.0
 10
121.17865063666758
 20
326.85779215964197
 30
0.0
 10
121.15307082508083
 20
326.78470520377778
 30
0.0
 10
121.11540000000001
 20
326.71809999999999
 30
0.0
 10
121.06628832034409
 20
326.63126639801931
 30
0.0
 10
121.01679233664191
 20
326.5445091766511
 30
0.0
 10
120.9615
 20
326.4615
 30
0.0
 10
120.91020686134532
 20
326.38449473188933
 30
0.0
 10
120.85890796197849
 20
326.30749474236376
 30
0.0
 10
120.80760000000001
 20
326.23050000000001
 30
0.0
 10
120.73920476641753
 20
326.1278634269317
 30
0.0
 10
120.67079641940077
 20
326.02523553897925
 30
0.0
 10
120.6024
 20
325.92259999999999
 30
0.0
 10
120.54056163896814
 20
325.82980547113868
 30
0.0
 10
120.48627121041066
 20
325.73211662012432
 30
0.0
 10
120.42290000000001
 20
325.64030000000002
 30
0.0
 10
120.36747175925721
 20
325.55999170714182
 30
0.0
 10
120.30098224660559
 20
325.48793198021502
 30
0.0
 10
120.2433
 20
325.40930000000003
 30
0.0
 10
120.17450038776298
 20
325.31551291529763
 30
0.0
 10
120.10676872252863
 20
325.22087852899455
 30
0.0
 10
120.0381
 20
325.12700000000001
 30
0.0
 10
119.98761555940554
 20
325.05798160493453
 30
0.0
 10
119.93219620374553
 20
324.99271191015572
 30
0.0
 10
119.88420000000001
 20
324.92170000000004
 30
0.0
 10
119.85560091873171
 20
324.87938674955365
 30
0.0
 10
119.83288328164281
 20
324.83361348389172
 30
0.0
 10
119.80880000000001
 20
324.78870000000001
 30
0.0
  0
LINE
  5
14B
100
AcDbEntity
  8
1
  6
CONTINUOUS
 62
     7
100
AcDbLine
 10
133.2988
 20
460.9323
 30
0.0
 11
133.2988
 21
494.5323
 31
0.0
  0
LINE
  5
14C
100
AcDbEntity
  8
1
  6
CONTINUOUS
 62
     7
100
AcDbLine
 10
313.2988
 20
460.9323
 30
0.0
 11
313.2988
 21
494.5323
 31
0.0
  0
LINE
  5
14D
100
AcDbEntity
  8
1
  6
CONTINUOUS
 62
     7
100
AcDbLine
 10
133.2988
 20
493.3323
 30
0.0
 11
313.2988
 21
493.3323
 31
0.0
  0
INSERT
  5
153
100
AcDbEntity
  8
1
  6
CONTINUOUS
 62
     1
100
AcDbBlockReference
  2
LDR
 10
133.2988
 20
493.3323
 30
0.0
 41
240.0
 42
240.0
 50
180.0
210
0.0
220
0.0
230
1.0
  0
INSERT
  5
154
100
AcDbEntity
  8
1
  6
CONTINUOUS
 62
     1
100
AcDbBlockReference
  2
LDR
 10
133.2988
 20
493.3323
 30
0.0
 41
240.0
 42
240.0
 50
180.0
210
0.0
220
0.0
230
1.0
  0
INSERT
  5
155
100
AcDbEntity
  8
1
  6
CONTINUOUS
 62
     1
100
AcDbBlockReference
  2
LDR
 10
313.2988
 20
493.3323
 30
0.0
 41
240.0
 42
240.0
210
0.0
220
0.0
230
1.0
  0
LINE
  5
156
100
AcDbEntity
  8
1
  6
CONTINUOUS
 62
     7
100
AcDbLine
 10
132.0988
 20
459.7323
 30
0.0
 11
98.4988
 21
459.7323
 31
0.0
  0
LINE
  5
157
100
AcDbEntity
  8
1
  6
CONTINUOUS
 62
     7
100
AcDbLine
 10
132.0988
 20
338.5323
 30
0.0
 11
98.4988
 21
338.5323
 31
0.0
  0
LINE
  5
158
100
AcDbEntity
  8
1
  6
CONTINUOUS
 62
     7
100
AcDbLine
 10
99.6988
 20
459.7323
 30
0.0
 11
99.6988
 21
338.5323
 31
0.0
  0
INSERT
  5
159
100
AcDbEntity
  8
1
  6
CONTINUOUS
 62
     1
100
AcDbBlockReference
  2
LDR
 10
99.6988
 20
459.7323
 30
0.0
 41
240.0
 42
240.0
 50
90.0
210
0.0
220
0.0
230
1.0
  0
INSERT
  5
15A
100
AcDbEntity
  8
1
  6
CONTINUOUS
 62
     1
100
AcDbBlockReference
  2
LDR
 10
99.6988
 20
459.7323
 30
0.0
 41
240.0
 42
240.0
 50
90.0
210
0.0
220
0.0
230
1.0
  0
INSERT
  5
15B
100
AcDbEntity
  8
1
  6
CONTINUOUS
 62
     1
100
AcDbBlockReference
  2
LDR
 10
99.6988
 20
338.5323
 30
0.0
 41
240.0
 42
240.0
 50
270.0
210
0.0
220
0.0
230
1.0
  0
LINE
  5
15C
100
AcDbEntity
  8
1
  6
CONTINUOUS
 62
     7
100
AcDbLine
 10
170.4988
 20
459.7323
 30
0.0
 11
170.4988
 21
465.7323
 31
0.0
  0
LINE
  5
15D
100
AcDbEntity
  8
1
  6
CONTINUOUS
 62
     7
100
AcDbLine
 10
170.4988
 20
455.5323
 30
0.0
 11
170.4988
 21
449.5323
 31
0.0
  0
INSERT
  5
15E
100
AcDbEntity
  8
1
  6
CONTINUOUS
 62
     1
100
AcDbBlockReference
  2
LDR
 10
170.4988
 20
459.7323
 30
0.0
 41
240.0
 42
240.0
 50
270.0
210
0.0
220
0.0
230
1.0
  0
INSERT
  5
15F
100
AcDbEntity
  8
1
  6
CONTINUOUS
 62
     1
100
AcDbBlockReference
  2
LDR
 10
170.4988
 20
459.7323
 30
0.0
 41
240.0
 42
240.0
 50
270.0
210
0.0
220
0.0
230
1.0
  0
INSERT
  5
160
100
AcDbEntity
  8
1
  6
CONTINUOUS
 62
     1
100
AcDbBlockReference
  2
LDR
 10
170.4988
 20
455.5323
 30
0.0
 41
240.0
 42
240.0
 50
90.0
210
0.0
220
0.0
230
1.0
  0
LINE
  5
161
100
AcDbEntity
  8
1
  6
CONTINUOUS
 62
     7
100
AcDbLine
 10
189.0311
 20
448.7657
 30
0.0
 11
192.6936
 21
469.5366
 31
0.0
  0
LINE
  5
162
100
AcDbEntity
  8
1
  6
CONTINUOUS
 62
     7
100
AcDbLine
 10
192.6936
 20
469.5366
 30
0.0
 11
205.0384
 21
469.5366
 31
0.0
  0
LINE
  5
163
100
AcDbEntity
  8
1
  6
CONTINUOUS
 62
     7
100
AcDbLine
 10
264.6748
 20
451.5985
 30
0.0
 11
282.1891
 21
469.1128
 31
0.0
  0
LINE
  5
164
100
AcDbEntity
  8
1
  6
CONTINUOUS
 62
     7
100
AcDbLine
 10
282.1891
 20
469.1128
 30
0.0
 11
260.8102
 21
469.1128
 31
0.0
  0
LINE
  5
165
100
AcDbEntity
  8
1
  6
CONTINUOUS
 62
    52
100
AcDbLine
 10
223.2988
 20
457.3323
 30
0.0
 11
223.2988
 21
453.7323
 31
0.0
  0
LINE
  5
166
100
AcDbEntity
  8
1
  6
CONTINUOUS
 62
    52
100
AcDbLine
 10
222.3988
 20
457.3323
 30
0.0
 11
224.1988
 21
457.3323
 31
0.0
  0
LINE
  5
167
100
AcDbEntity
  8
1
  6
CONTINUOUS
 62
    52
100
AcDbLine
 10
222.3988
 20
453.7323
 30
0.0
 11
224.1988
 21
453.7323
 31
0.0
  0
LINE
  5
168
100
AcDbEntity
  8
1
  6
CONTINUOUS
 62
     7
100
AcDbLine
 10
196.8594
 20
434.795
 30
0.0
 11
196.8594
 21
449.195
 31
0.0
  0
LINE
  5
169
100
AcDbEntity
  8
1
  6
CONTINUOUS
 62
     7
100
AcDbLine
 10
250.8075
 20
439.55
 30
0.0
 11
250.8075
 21
450.35
 31
0.0
  0
INSERT
  5
16A
100
AcDbEntity
  8
1
  6
CONTINUOUS
 62
     1
100
AcDbBlockReference
  2
LDR
 10
196.8594
 20
434.795
 30
0.0
 41
240.0
 42
240.0
 50
270.0
210
0.0
220
0.0
230
1.0
  0
INSERT
  5
16B
100
AcDbEntity
  8
1
  6
CONTINUOUS
 62
     1
100
AcDbBlockReference
  2
LDR
 10
196.8594
 20
434.795
 30
0.0
 41
240.0
 42
240.0
 50
270.0
210
0.0
220
0.0
230
1.0
  0
INSERT
  5
16C
100
AcDbEntity
  8
1
  6
CONTINUOUS
 62
     1
100
AcDbBlockReference
  2
LDR
 10
250.8075
 20
450.35
 30
0.0
 41
240.0
 42
240.0
 50
90.0
210
0.0
220
0.0
230
1.0
  0
INSERT
  5
16D
100
AcDbEntity
  8
1
  6
CONTINUOUS
 62
     1
100
AcDbBlockReference
  2
LDR
 10
250.8075
 20
450.35
 30
0.0
 41
240.0
 42
240.0
 50
90.0
210
0.0
220
0.0
230
1.0
  0
INSERT
  5
16E
100
AcDbEntity
  8
1
  6
CONTINUOUS
 62
     1
100
AcDbBlockReference
  2
LDR
 10
189.0311
 20
448.7657
 30
0.0
 41
239.999998
 42
239.999998
 50
260.000074
210
0.0
220
0.0
230
1.0
  0
INSERT
  5
16F
100
AcDbEntity
  8
1
  6
CONTINUOUS
 62
     1
100
AcDbBlockReference
  2
LDR
 10
189.0311
 20
448.7657
 30
0.0
 41
239.999998
 42
239.999998
 50
260.000074
210
0.0
220
0.0
230
1.0
  0
INSERT
  5
170
100
AcDbEntity
  8
1
  6
CONTINUOUS
 62
     1
100
AcDbBlockReference
  2
LDR
 10
264.6748
 20
451.5985
 30
0.0
 41
239.999999
 42
239.999999
 50
225.0
210
0.0
220
0.0
230
1.0
  0
LINE
  5
171
100
AcDbEntity
  8
1
  6
CONTINUOUS
 62
     7
100
AcDbLine
 10
137.4988
 20
400.0323
 30
0.0
 11
133.2988
 21
400.0323
 31
0.0
  0
LINE
  5
172
100
AcDbEntity
  8
1
  6
CONTINUOUS
 62
     7
100
AcDbLine
 10
137.4988
 20
400.0323
 30
0.0
 11
159.6988
 21
400.0323
 31
0.0
  0
LINE
  5
173
100
AcDbEntity
  8
1
  6
CONTINUOUS
 62
     7
100
AcDbLine
 10
133.2988
 20
400.0323
 30
0.0
 11
121.2988
 21
400.0323
 31
0.0
  0
INSERT
  5
174
100
AcDbEntity
  8
1
  6
CONTINUOUS
 62
     1
100
AcDbBlockReference
  2
LDR
 10
133.2988
 20
400.0323
 30
0.0
 41
240.0
 42
240.0
210
0.0
220
0.0
230
1.0
  0
INSERT
  5
175
100
AcDbEntity
  8
1
  6
CONTINUOUS
 62
     1
100
AcDbBlockReference
  2
LDR
 10
133.2988
 20
400.0323
 30
0.0
 41
240.0
 42
240.0
210
0.0
220
0.0
230
1.0
  0
INSERT
  5
176
100
AcDbEntity
  8
1
  6
CONTINUOUS
 62
     1
100
AcDbBlockReference
  2
LDR
 10
137.4988
 20
400.0323
 30
0.0
 41
240.0
 42
240.0
 50
180.0
210
0.0
220
0.0
230
1.0
  0
INSERT
  5
177
100
AcDbEntity
  8
1
  6
CONTINUOUS
 62
     1
100
AcDbBlockReference
  2
LDR
 10
137.4988
 20
400.0323
 30
0.0
 41
240.0
 42
240.0
 50
180.0
210
0.0
220
0.0
230
1.0
  0
INSERT
  5
178
100
AcDbEntity
  8
1
  6
CONTINUOUS
 62
     1
100
AcDbBlockReference
  2
LDR
 10
159.6988
 20
400.0323
 30
0.0
 41
240.0
 42
240.0
210
0.0
220
0.0
230
1.0
  0
LINE
  5
179
100
AcDbEntity
  8
1
  6
CONTINUOUS
 62
     7
100
AcDbLine
 10
279.6988
 20
403.9323
 30
0.0
 11
294.9723
 21
419.2058
 31
0.0
  0
LINE
  5
17A
100
AcDbEntity
  8
1
  6
CONTINUOUS
 62
     7
100
AcDbLine
 10
294.9723
 20
419.2058
 30
0.0
 11
340.4435
 21
419.2058
 31
0.0
  0
INSERT
  5
17B
100
AcDbEntity
  8
1
  6
CONTINUOUS
 62
     1
100
AcDbBlockReference
  2
LDR
 10
279.6988
 20
403.9323
 30
0.0
 41
239.999999
 42
239.999999
 50
225.0
210
0.0
220
0.0
230
1.0
  0
INSERT
  5
17C
100
AcDbEntity
  8
1
  6
CONTINUOUS
 62
     1
100
AcDbBlockReference
  2
LDR
 10
279.6988
 20
403.9323
 30
0.0
 41
239.999999
 42
239.999999
 50
225.0
210
0.0
220
0.0
230
1.0
  0
LINE
  5
17D
100
AcDbEntity
  8
1
  6
CONTINUOUS
 62
     7
100
AcDbLine
 10
285.6988
 20
379.9323
 30
0.0
 11
309.0988
 21
379.9323
 31
0.0
  0
LINE
  5
17E
100
AcDbEntity
  8
1
  6
CONTINUOUS
 62
     7
100
AcDbLine
 10
309.0988
 20
379.9323
 30
0.0
 11
313.2988
 21
379.9323
 31
0.0
  0
LINE
  5
17F
100
AcDbEntity
  8
1
  6
CONTINUOUS
 62
     7
100
AcDbLine
 10
313.2988
 20
379.9323
 30
0.0
 11
325.2988
 21
379.9323
 31
0.0
  0
INSERT
  5
180
100
AcDbEntity
  8
1
  6
CONTINUOUS
 62
     1
100
AcDbBlockReference
  2
LDR
 10
285.6988
 20
379.9323
 30
0.0
 41
240.0
 42
240.0
 50
180.0
210
0.0
220
0.0
230
1.0
  0
INSERT
  5
181
100
AcDbEntity
  8
1
  6
CONTINUOUS
 62
     1
100
AcDbBlockReference
  2
LDR
 10
309.0988
 20
379.9323
 30
0.0
 41
240.0
 42
240.0
210
0.0
220
0.0
230
1.0
  0
INSERT
  5
182
100
AcDbEntity
  8
1
  6
CONTINUOUS
 62
     1
100
AcDbBlockReference
  2
LDR
 10
309.0988
 20
379.9323
 30
0.0
 41
240.0
 42
240.0
210
0.0
220
0.0
230
1.0
  0
INSERT
  5
183
100
AcDbEntity
  8
1
  6
CONTINUOUS
 62
     1
100
AcDbBlockReference
  2
LDR
 10
313.2988
 20
379.9323
 30
0.0
 41
240.0
 42
240.0
 50
180.0
210
0.0
220
0.0
230
1.0
  0
LINE
  5
184
100
AcDbEntity
  8
1
  6
CONTINUOUS
 62
     7
100
AcDbLine
 10
313.2988
 20
364.9323
 30
0.0
 11
331.2988
 21
364.9323
 31
0.0
  0
INSERT
  5
185
100
AcDbEntity
  8
1
  6
CONTINUOUS
 62
     1
100
AcDbBlockReference
  2
LDR
 10
313.2988
 20
364.9323
 30
0.0
 41
240.0
 42
240.0
 50
180.0
210
0.0
220
0.0
230
1.0
  0
INSERT
  5
186
100
AcDbEntity
  8
1
  6
CONTINUOUS
 62
     1
100
AcDbBlockReference
  2
LDR
 10
331.2988
 20
364.9323
 30
0.0
 41
240.0
 42
240.0
210
0.0
220
0.0
230
1.0
  0
LINE
  5
187
100
AcDbEntity
  8
1
  6
CONTINUOUS
 62
     7
100
AcDbLine
 10
267.6988
 20
378.1323
 30
0.0
 11
267.6988
 21
385.3323
 31
0.0
  0
LINE
  5
188
100
AcDbEntity
  8
1
  6
CONTINUOUS
 62
     7
100
AcDbLine
 10
267.6988
 20
375.1323
 30
0.0
 11
267.6988
 21
364.3323
 31
0.0
  0
INSERT
  5
189
100
AcDbEntity
  8
1
  6
CONTINUOUS
 62
     1
100
AcDbBlockReference
  2
LDR
 10
267.6988
 20
378.1323
 30
0.0
 41
240.0
 42
240.0
 50
270.0
210
0.0
220
0.0
230
1.0
  0
INSERT
  5
18A
100
AcDbEntity
  8
1
  6
CONTINUOUS
 62
     1
100
AcDbBlockReference
  2
LDR
 10
267.6988
 20
378.1323
 30
0.0
 41
240.0
 42
240.0
 50
270.0
210
0.0
220
0.0
230
1.0
  0
INSERT
  5
18B
100
AcDbEntity
  8
1
  6
CONTINUOUS
 62
     1
100
AcDbBlockReference
  2
LDR
 10
267.6988
 20
375.1323
 30
0.0
 41
240.0
 42
240.0
 50
90.0
210
0.0
220
0.0
230
1.0
  0
LINE
  5
18C
100
AcDbEntity
  8
1
  6
CONTINUOUS
 62
     7
100
AcDbLine
 10
177.0988
 20
378.1323
 30
0.0
 11
175.1491
 21
367.0752
 31
0.0
  0
LINE
  5
18D
100
AcDbEntity
  8
1
  6
CONTINUOUS
 62
     7
100
AcDbLine
 10
175.1491
 20
367.0752
 30
0.0
 11
179.0938
 21
367.0752
 31
0.0
  0
INSERT
  5
18E
100
AcDbEntity
  8
1
  6
CONTINUOUS
 62
     1
100
AcDbBlockReference
  2
LDR
 10
177.0988
 20
378.1323
 30
0.0
 41
240.0
 42
240.0
 50
79.999841
210
0.0
220
0.0
230
1.0
  0
LINE
  5
18F
100
AcDbEntity
  8
1
  6
CONTINUOUS
 62
     7
100
AcDbLine
 10
162.0988
 20
375.1323
 30
0.0
 11
162.0988
 21
344.5323
 31
0.0
  0
INSERT
  5
190
100
AcDbEntity
  8
1
  6
CONTINUOUS
 62
     1
100
AcDbBlockReference
  2
LDR
 10
162.0988
 20
375.1323
 30
0.0
 41
240.0
 42
240.0
 50
90.0
210
0.0
220
0.0
230
1.0
  0
INSERT
  5
191
100
AcDbEntity
  8
1
  6
CONTINUOUS
 62
     1
100
AcDbBlockReference
  2
LDR
 10
162.0988
 20
375.1323
 30
0.0
 41
240.0
 42
240.0
 50
90.0
210
0.0
220
0.0
230
1.0
  0
INSERT
  5
192
100
AcDbEntity
  8
1
  6
CONTINUOUS
 62
     1
100
AcDbBlockReference
  2
LDR
 10
162.0988
 20
344.5323
 30
0.0
 41
240.0
 42
240.0
 50
270.0
210
0.0
220
0.0
230
1.0
  0
LINE
  5
193
100
AcDbEntity
  8
1
  6
CONTINUOUS
 62
     7
100
AcDbLine
 10
146.1988
 20
344.5323
 30
0.0
 11
146.1988
 21
354.1323
 31
0.0
  0
LINE
  5
194
100
AcDbEntity
  8
1
  6
CONTINUOUS
 62
     7
100
AcDbLine
 10
146.1988
 20
338.5323
 30
0.0
 11
146.1988
 21
331.3323
 31
0.0
  0
INSERT
  5
195
100
AcDbEntity
  8
1
  6
CONTINUOUS
 62
     1
100
AcDbBlockReference
  2
LDR
 10
146.1988
 20
344.5323
 30
0.0
 41
240.0
 42
240.0
 50
270.0
210
0.0
220
0.0
230
1.0
  0
INSERT
  5
196
100
AcDbEntity
  8
1
  6
CONTINUOUS
 62
     1
100
AcDbBlockReference
  2
LDR
 10
146.1988
 20
338.5323
 30
0.0
 41
240.0
 42
240.0
 50
90.0
210
0.0
220
0.0
230
1.0
  0
LINE
  5
197
100
AcDbEntity
  8
1
  6
CONTINUOUS
 62
     7
100
AcDbLine
 10
260.7988
 20
345.1323
 30
0.0
 11
264.903
 21
356.4086
 31
0.0
  0
LINE
  5
198
100
AcDbEntity
  8
1
  6
CONTINUOUS
 62
     7
100
AcDbLine
 10
264.903
 20
356.4086
 30
0.0
 11
255.8515
 21
356.4086
 31
0.0
  0
LINE
  5
199
100
AcDbEntity
  8
1
  6
CONTINUOUS
 62
     7
100
AcDbLine
 10
220.4854
 20
345.1323
 30
0.0
 11
216.3812
 21
356.4086
 31
0.0
  0
LINE
  5
19A
100
AcDbEntity
  8
1
  6
CONTINUOUS
 62
     7
100
AcDbLine
 10
216.3812
 20
356.4086
 30
0.0
 11
224.0177
 21
356.4086
 31
0.0
  0
INSERT
  5
19B
100
AcDbEntity
  8
1
  6
CONTINUOUS
 62
     1
100
AcDbBlockReference
  2
LDR
 10
220.4854
 20
345.1323
 30
0.0
 41
239.999999
 42
239.999999
 50
289.999832
210
0.0
220
0.0
230
1.0
  0
INSERT
  5
19C
100
AcDbEntity
  8
1
  6
CONTINUOUS
 62
     1
100
AcDbBlockReference
  2
LDR
 10
220.4854
 20
345.1323
 30
0.0
 41
239.999999
 42
239.999999
 50
289.999832
210
0.0
220
0.0
230
1.0
  0
INSERT
  5
19D
100
AcDbEntity
  8
1
  6
CONTINUOUS
 62
     1
100
AcDbBlockReference
  2
LDR
 10
260.7988
 20
345.1323
 30
0.0
 41
239.999999
 42
239.999999
 50
250.000168
210
0.0
220
0.0
230
1.0
  0
LINE
  5
19E
100
AcDbEntity
  8
1
  6
CONTINUOUS
 62
     7
100
AcDbLine
 10
137.4988
 20
341.8323
 30
0.0
 11
137.4988
 21
325.0323
 31
0.0
  0
LINE
  5
19F
100
AcDbEntity
  8
1
  6
CONTINUOUS
 62
     7
100
AcDbLine
 10
168.9988
 20
341.8323
 30
0.0
 11
168.9988
 21
325.0323
 31
0.0
  0
LINE
  5
1A0
100
AcDbEntity
  8
1
  6
CONTINUOUS
 62
     7
100
AcDbLine
 10
240.7615
 20
341.8323
 30
0.0
 11
240.7615
 21
325.0323
 31
0.0
  0
LINE
  5
1A1
100
AcDbEntity
  8
1
  6
CONTINUOUS
 62
     7
100
AcDbLine
 10
277.5988
 20
341.8323
 30
0.0
 11
277.5988
 21
325.0323
 31
0.0
  0
LINE
  5
1A2
100
AcDbEntity
  8
1
  6
CONTINUOUS
 62
     7
100
AcDbLine
 10
309.0988
 20
341.8323
 30
0.0
 11
309.0988
 21
325.0323
 31
0.0
  0
LINE
  5
1A3
100
AcDbEntity
  8
1
  6
CONTINUOUS
 62
     7
100
AcDbLine
 10
137.4988
 20
326.2323
 30
0.0
 11
168.9988
 21
326.2323
 31
0.0
  0
LINE
  5
1A4
100
AcDbEntity
  8
1
  6
CONTINUOUS
 62
     7
100
AcDbLine
 10
168.9988
 20
326.2323
 30
0.0
 11
240.7615
 21
326.2323
 31
0.0
  0
LINE
  5
1A5
100
AcDbEntity
  8
1
  6
CONTINUOUS
 62
     7
100
AcDbLine
 10
240.7615
 20
326.2323
 30
0.0
 11
277.5988
 21
326.2323
 31
0.0
  0
LINE
  5
1A6
100
AcDbEntity
  8
1
  6
CONTINUOUS
 62
     7
100
AcDbLine
 10
277.5988
 20
326.2323
 30
0.0
 11
309.0988
 21
326.2323
 31
0.0
  0
INSERT
  5
1A7
100
AcDbEntity
  8
1
  6
CONTINUOUS
 62
     1
100
AcDbBlockReference
  2
LDR
 10
137.4988
 20
326.2323
 30
0.0
 41
240.0
 42
240.0
 50
180.0
210
0.0
220
0.0
230
1.0
  0
INSERT
  5
1A8
100
AcDbEntity
  8
1
  6
CONTINUOUS
 62
     1
100
AcDbBlockReference
  2
LDR
 10
168.9988
 20
326.2323
 30
0.0
 41
240.0
 42
240.0
210
0.0
220
0.0
230
1.0
  0
INSERT
  5
1A9
100
AcDbEntity
  8
1
  6
CONTINUOUS
 62
     1
100
AcDbBlockReference
  2
LDR
 10
168.9988
 20
326.2323
 30
0.0
 41
240.0
 42
240.0
210
0.0
220
0.0
230
1.0
  0
INSERT
  5
1AA
100
AcDbEntity
  8
1
  6
CONTINUOUS
 62
     1
100
AcDbBlockReference
  2
LDR
 10
168.9988
 20
326.2323
 30
0.0
 41
240.0
 42
240.0
 50
180.0
210
0.0
220
0.0
230
1.0
  0
INSERT
  5
1AB
100
AcDbEntity
  8
1
  6
CONTINUOUS
 62
     1
100
AcDbBlockReference
  2
LDR
 10
168.9988
 20
326.2323
 30
0.0
 41
240.0
 42
240.0
 50
180.0
210
0.0
220
0.0
230
1.0
  0
INSERT
  5
1AC
100
AcDbEntity
  8
1
  6
CONTINUOUS
 62
     1
100
AcDbBlockReference
  2
LDR
 10
240.7615
 20
326.2323
 30
0.0
 41
240.0
 42
240.0
210
0.0
220
0.0
230
1.0
  0
INSERT
  5
1AD
100
AcDbEntity
  8
1
  6
CONTINUOUS
 62
     1
100
AcDbBlockReference
  2
LDR
 10
240.7615
 20
326.2323
 30
0.0
 41
240.0
 42
240.0
210
0.0
220
0.0
230
1.0
  0
INSERT
  5
1AE
100
AcDbEntity
  8
1
  6
CONTINUOUS
 62
     1
100
AcDbBlockReference
  2
LDR
 10
240.7615
 20
326.2323
 30
0.0
 41
240.0
 42
240.0
 50
180.0
210
0.0
220
0.0
230
1.0
  0
INSERT
  5
1AF
100
AcDbEntity
  8
1
  6
CONTINUOUS
 62
     1
100
AcDbBlockReference
  2
LDR
 10
240.7615
 20
326.2323
 30
0.0
 41
240.0
 42
240.0
 50
180.0
210
0.0
220
0.0
230
1.0
  0
INSERT
  5
1B0
100
AcDbEntity
  8
1
  6
CONTINUOUS
 62
     1
100
AcDbBlockReference
  2
LDR
 10
277.5988
 20
326.2323
 30
0.0
 41
240.0
 42
240.0
210
0.0
220
0.0
230
1.0
  0
INSERT
  5
1B1
100
AcDbEntity
  8
1
  6
CONTINUOUS
 62
     1
100
AcDbBlockReference
  2
LDR
 10
277.5988
 20
326.2323
 30
0.0
 41
240.0
 42
240.0
210
0.0
220
0.0
230
1.0
  0
INSERT
  5
1B2
100
AcDbEntity
  8
1
  6
CONTINUOUS
 62
     1
100
AcDbBlockReference
  2
LDR
 10
277.5988
 20
326.2323
 30
0.0
 41
240.0
 42
240.0
 50
180.0
210
0.0
220
0.0
230
1.0
  0
INSERT
  5
1B3
100
AcDbEntity
  8
1
  6
CONTINUOUS
 62
     1
100
AcDbBlockReference
  2
LDR
 10
277.5988
 20
326.2323
 30
0.0
 41
240.0
 42
240.0
 50
180.0
210
0.0
220
0.0
230
1.0
  0
INSERT
  5
1B4
100
AcDbEntity
  8
1
  6
CONTINUOUS
 62
     1
100
AcDbBlockReference
  2
LDR
 10
309.0988
 20
326.2323
 30
0.0
 41
240.0
 42
240.0
210
0.0
220
0.0
230
1.0
  0
LINE
  5
1B5
100
AcDbEntity
  8
1
  6
CONTINUOUS
 62
     7
100
AcDbLine
 10
155.4687
 20
307.5959
 30
0.0
 11
165.4083
 21
307.5959
 31
0.0
  0
INSERT
  5
1B6
100
AcDbEntity
  8
1
  6
CONTINUOUS
 62
     1
100
AcDbBlockReference
  2
LDR
 10
167.1988
 20
342.7323
 30
0.0
 41
239.999999
 42
239.999999
 50
71.538687
210
0.0
220
0.0
230
1.0
  0
LINE
  5
1B7
100
AcDbEntity
  8
1
  6
CONTINUOUS
 62
     7
100
AcDbLine
 10
167.1988
 20
342.7323
 30
0.0
 11
162.1769
 21
327.6898
 31
0.0
  0
LINE
  5
1B8
100
AcDbEntity
  8
1
  6
CONTINUOUS
 62
     7
100
AcDbLine
 10
161.1323
 20
324.5607
 30
0.0
 11
155.4687
 21
307.5959
 31
0.0
  0
LINE
  5
1B9
100
AcDbEntity
  8
1
  6
CONTINUOUS
 62
     7
100
AcDbLine
 10
239.6275
 20
343.2212
 30
0.0
 11
234.6056
 21
328.1787
 31
0.0
  0
LINE
  5
1BA
100
AcDbEntity
  8
1
  6
CONTINUOUS
 62
     7
100
AcDbLine
 10
227.8974
 20
308.0848
 30
0.0
 11
237.837
 21
308.0848
 31
0.0
  0
INSERT
  5
1BB
100
AcDbEntity
  8
1
  6
CONTINUOUS
 62
     1
100
AcDbBlockReference
  2
LDR
 10
239.6275
 20
343.2212
 30
0.0
 41
239.999999
 42
239.999999
 50
71.538687
210
0.0
220
0.0
230
1.0
  0
LINE
  5
1BC
100
AcDbEntity
  8
1
  6
CONTINUOUS
 62
     7
100
AcDbLine
 10
233.561
 20
325.0496
 30
0.0
 11
227.8974
 21
308.0848
 31
0.0
  0
TEXT
  5
1BD
100
AcDbEntity
  8
1
  6
CONTINUOUS
 62
     7
100
AcDbText
 10
215.2895
 20
494.7131
 30
0.0
 40
3.0
  1
4.80m
  7
MONOTXT
210
0.0
220
0.0
230
1.0
100
AcDbText
  0
TEXT
  5
1BE
100
AcDbEntity
  8
1
  6
CONTINUOUS
 62
     7
100
AcDbText
 10
211.1737
 20
472.7538
 30
0.0
 40
3.0
  1
METAL CONDUITS
  7
MONOTXT
210
0.0
220
0.0
230
1.0
100
AcDbText
  0
TEXT
  5
1BF
100
AcDbEntity
  8
1
  6
CONTINUOUS
 62
     7
100
AcDbText
 10
206.4212
 20
467.7468
 30
0.0
 40
3.0
  1
SIZE AND POSITION AS
  7
MONOTXT
 72
     4
 11
232.7243
 21
469.2468
 31
0.0
210
0.0
220
0.0
230
1.0
100
AcDbText
  0
TEXT
  5
1C0
100
AcDbEntity
  8
1
  6
CONTINUOUS
 62
     7
100
AcDbText
 10
211.8779
 20
462.3468
 30
0.0
 40
3.0
  1
SHOWN ON PLANS
  7
MONOTXT
 72
     4
 11
232.7243
 21
463.8468
 31
0.0
210
0.0
220
0.0
230
1.0
100
AcDbText
  0
TEXT
  5
1C1
100
AcDbEntity
  8
1
  6
CONTINUOUS
 62
     7
100
AcDbText
 10
341.5994
 20
417.7013
 30
0.0
 40
3.0
  1
OUTDOOR TYPE CONTROL PANEL
  7
MONOTXT
 72
     4
 11
380.0206
 21
419.2013
 31
0.0
210
0.0
220
0.0
230
1.0
100
AcDbText
  0
TEXT
  5
1C2
100
AcDbEntity
  8
1
  6
CONTINUOUS
 62
     7
100
AcDbText
 10
347.3277
 20
412.3013
 30
0.0
 40
3.0
  1
CABINET. SIZE AS REQUIRED.
  7
MONOTXT
 72
     4
 11
380.0087
 21
413.8013
 31
0.0
210
0.0
220
0.0
230
1.0
100
AcDbText
  0
TEXT
  5
1C3
100
AcDbEntity
  8
1
  6
CONTINUOUS
 62
     7
100
AcDbText
 10
315.6723
 20
366.1692
 30
0.0
 40
3.0
  1
0.45m
  7
MONOTXT
210
0.0
220
0.0
230
1.0
100
AcDbText
  0
TEXT
  5
1C4
100
AcDbEntity
  8
1
  6
CONTINUOUS
 62
     7
100
AcDbText
 10
179.9519
 20
365.7689
 30
0.0
 40
3.0
  1
TRANSFORMER
  7
MONOTXT
 72
     4
 11
195.9085
 21
367.2689
 31
0.0
210
0.0
220
0.0
230
1.0
100
AcDbText
  0
TEXT
  5
1C5
100
AcDbEntity
  8
1
  6
CONTINUOUS
 62
     7
100
AcDbText
 10
174.7787
 20
360.3689
 30
0.0
 40
3.0
  1
SIZE AS REQUIRED
  7
MONOTXT
 72
     4
 11
195.9085
 21
361.8689
 31
0.0
210
0.0
220
0.0
230
1.0
100
AcDbText
  0
TEXT
  5
1C6
100
AcDbEntity
  8
1
  6
CONTINUOUS
 62
     7
100
AcDbText
 10
180.5307
 20
354.9689
 30
0.0
 40
3.0
  1
(SEE NOTE 1)
  7
MONOTXT
 72
     4
 11
195.8968
 21
356.4689
 31
0.0
210
0.0
220
0.0
230
1.0
100
AcDbText
  0
TEXT
  5
1C7
100
AcDbEntity
  8
1
  6
CONTINUOUS
 62
     7
100
AcDbText
 10
247.1605
 20
357.7291
 30
0.0
 40
3.0
  1
/
  7
MONOTXT
210
0.0
220
0.0
230
1.0
100
AcDbText
  0
TEXT
  5
1C8
100
AcDbEntity
  8
1
  6
CONTINUOUS
 62
     7
100
AcDbText
 10
145.0734
 20
322.2782
 30
0.0
 40
3.0
  1
0.95m
  7
MONOTXT
210
0.0
220
0.0
230
1.0
100
AcDbText
  0
TEXT
  5
1C9
100
AcDbEntity
  8
1
  6
CONTINUOUS
 62
     7
100
AcDbText
 10
201.3751
 20
327.4536
 30
0.0
 40
3.0
  1
1.80m
  7
MONOTXT
210
0.0
220
0.0
230
1.0
100
AcDbText
  0
TEXT
  5
1CA
100
AcDbEntity
  8
1
  6
CONTINUOUS
 62
     7
100
AcDbText
 10
253.8761
 20
327.2706
 30
0.0
 40
3.0
  1
0.90m
  7
MONOTXT
210
0.0
220
0.0
230
1.0
100
AcDbText
  0
TEXT
  5
1CB
100
AcDbEntity
  8
1
  6
CONTINUOUS
 62
     7
100
AcDbText
 10
286.8035
 20
327.8195
 30
0.0
 40
3.0
  1
0.95m
  7
MONOTXT
210
0.0
220
0.0
230
1.0
100
AcDbText
  0
TEXT
  5
1CC
100
AcDbEntity
  8
1
  6
CONTINUOUS
 62
     7
100
AcDbText
 10
181.2676
 20
300.4334
 30
0.0
 40
3.0
  1
/
  7
MONOTXT
210
0.0
220
0.0
230
1.0
100
AcDbText
  0
TEXT
  5
1CD
100
AcDbEntity
  8
1
  6
CONTINUOUS
 62
     7
100
AcDbText
 10
238.6469
 20
306.5915
 30
0.0
 40
3.0
  1
LOCKING DEVICE
  7
MONOTXT
210
0.0
220
0.0
230
1.0
100
AcDbText
  0
TEXT
  5
1CE
100
AcDbEntity
  8
1
  6
CONTINUOUS
 62
     7
100
AcDbText
 10
202.7886
 20
437.2297
 30
0.0
 40
3.0
  1
FROM
 50
90.0
  7
MONOTXT
 72
     4
 11
201.2886
 21
442.9107
 31
0.0
210
0.0
220
0.0
230
1.0
100
AcDbText
  0
TEXT
  5
1CF
100
AcDbEntity
  8
1
  6
CONTINUOUS
 62
     7
100
AcDbText
 10
208.1886
 20
432.4108
 30
0.0
 40
3.0
  1
METERING
 50
90.0
  7
MONOTXT
 72
     4
 11
206.6886
 21
442.9108
 31
0.0
210
0.0
220
0.0
230
1.0
100
AcDbText
  0
TEXT
  5
1D0
100
AcDbEntity
  8
1
  6
CONTINUOUS
 62
     7
100
AcDbText
 10
213.5886
 20
437.5132
 30
0.0
 40
3.0
  1
POLE
 50
90.0
  7
MONOTXT
 72
     4
 11
212.0886
 21
442.9108
 31
0.0
210
0.0
220
0.0
230
1.0
100
AcDbText
  0
TEXT
  5
1D1
100
AcDbEntity
  8
1
  6
CONTINUOUS
 62
     7
100
AcDbText
 10
237.6868
 20
437.8508
 30
0.0
 40
3.0
  1
TO
 50
90.0
  7
MONOTXT
 72
     4
 11
236.1868
 21
440.4846
 31
0.0
210
0.0
220
0.0
230
1.0
100
AcDbText
  0
TEXT
  5
1D2
100
AcDbEntity
  8
1
  6
CONTINUOUS
 62
     7
100
AcDbText
 10
243.0868
 20
431.0476
 30
0.0
 40
3.0
  1
LIGHTING
 50
90.0
  7
MONOTXT
 72
     4
 11
241.5868
 21
440.4846
 31
0.0
210
0.0
220
0.0
230
1.0
100
AcDbText
  0
TEXT
  5
1D3
100
AcDbEntity
  8
1
  6
CONTINUOUS
 62
     7
100
AcDbText
 10
248.4868
 20
427.7169
 30
0.0
 40
3.0
  1
STANDARDS
 50
90.0
  7
MONOTXT
 72
     4
 11
246.9868
 21
440.4845
 31
0.0
210
0.0
220
0.0
230
1.0
100
AcDbText
  0
TEXT
  5
1D4
100
AcDbEntity
  8
1
  6
CONTINUOUS
 62
     7
100
AcDbText
 10
160.8157
 20
353.7154
 30
0.0
 40
3.0
  1
0.75m
 50
90.0
  7
MONOTXT
210
0.0
220
0.0
230
1.0
100
AcDbText
  0
TEXT
  5
1D5
100
AcDbEntity
  8
1
  6
CONTINUOUS
 62
     7
100
AcDbText
 10
222.1203
 20
287.4995
 30
0.0
 40
3.6
  1
PLAN
  7
MONOTXT
210
0.0
220
0.0
230
1.0
100
AcDbText
  0
LINE
  5
1D6
100
AcDbEntity
  8
1
  6
CONTINUOUS
 62
     7
100
AcDbLine
 10
221.3008
 20
286.633
 30
0.0
 11
235.959
 21
286.633
 31
0.0
  0
LINE
  5
1D7
100
AcDbEntity
  8
1
  6
CONTINUOUS
 62
     6
100
AcDbLine
 10
140.2191
 20
118.6292
 30
0.0
 11
140.2191
 21
130.6292
 31
0.0
  0
LINE
  5
1D8
100
AcDbEntity
  8
1
  6
CONTINUOUS
 62
     6
100
AcDbLine
 10
320.8191
 20
118.6292
 30
0.0
 11
320.8191
 21
130.6292
 31
0.0
  0
LINE
  5
1D9
100
AcDbEntity
  8
1
  6
CONTINUOUS
 62
     6
100
AcDbLine
 10
140.2191
 20
130.6292
 30
0.0
 11
166.6191
 21
130.6292
 31
0.0
  0
LINE
  5
1DA
100
AcDbEntity
  8
1
  6
CONTINUOUS
 62
     6
100
AcDbLine
 10
320.8191
 20
130.6292
 30
0.0
 11
294.4191
 21
130.6292
 31
0.0
  0
LINE
  5
1DB
100
AcDbEntity
  8
1
  6
CONTINUOUS
 62
     6
100
AcDbLine
 10
294.4191
 20
130.6292
 30
0.0
 11
294.4191
 21
131.8292
 31
0.0
  0
LINE
  5
1DC
100
AcDbEntity
  8
1
  6
CONTINUOUS
 62
     6
100
AcDbLine
 10
294.4191
 20
131.8292
 30
0.0
 11
232.0191
 21
131.8292
 31
0.0
  0
LINE
  5
1DD
100
AcDbEntity
  8
1
  6
CONTINUOUS
 62
     6
100
AcDbLine
 10
232.0191
 20
131.8292
 30
0.0
 11
232.0191
 21
130.6292
 31
0.0
  0
LINE
  5
1DE
100
AcDbEntity
  8
1
  6
CONTINUOUS
 62
     6
100
AcDbLine
 10
232.0191
 20
130.6292
 30
0.0
 11
227.8191
 21
130.6292
 31
0.0
  0
LINE
  5
1DF
100
AcDbEntity
  8
1
  6
CONTINUOUS
 62
     6
100
AcDbLine
 10
227.8191
 20
130.6292
 30
0.0
 11
227.8191
 21
131.8292
 31
0.0
  0
LINE
  5
1E0
100
AcDbEntity
  8
1
  6
CONTINUOUS
 62
     6
100
AcDbLine
 10
227.8191
 20
131.8292
 30
0.0
 11
166.6191
 21
131.8292
 31
0.0
  0
LINE
  5
1E1
100
AcDbEntity
  8
1
  6
CONTINUOUS
 62
     6
100
AcDbLine
 10
166.6191
 20
131.8292
 30
0.0
 11
166.6191
 21
130.6292
 31
0.0
  0
LINE
  5
1E2
100
AcDbEntity
  8
1
  6
HIDDEN
 62
     6
100
AcDbLine
 10
142.9191
 20
118.6292
 30
0.0
 11
142.9191
 21
130.6292
 31
0.0
  0
LINE
  5
1E3
100
AcDbEntity
  8
1
  6
HIDDEN
 62
     6
100
AcDbLine
 10
318.1191
 20
118.6292
 30
0.0
 11
318.1191
 21
130.6292
 31
0.0
  0
LINE
  5
1E4
100
AcDbEntity
  8
1
  6
HIDDEN
 62
     6
100
AcDbLine
 10
142.9191
 20
118.6292
 30
0.0
 11
142.9191
 21
113.8292
 31
0.0
  0
LINE
  5
1E5
100
AcDbEntity
  8
1
  6
HIDDEN
 62
     6
100
AcDbLine
 10
140.2191
 20
118.6292
 30
0.0
 11
140.2191
 21
113.8292
 31
0.0
  0
LINE
  5
1E6
100
AcDbEntity
  8
1
  6
HIDDEN
 62
     6
100
AcDbLine
 10
146.2191
 20
118.6292
 30
0.0
 11
146.2191
 21
130.6292
 31
0.0
  0
LINE
  5
1E7
100
AcDbEntity
  8
1
  6
HIDDEN
 62
     6
100
AcDbLine
 10
146.2191
 20
118.6292
 30
0.0
 11
146.2191
 21
113.8292
 31
0.0
  0
LINE
  5
1E8
100
AcDbEntity
  8
1
  6
HIDDEN
 62
     6
100
AcDbLine
 10
148.9191
 20
118.6292
 30
0.0
 11
148.9191
 21
113.8292
 31
0.0
  0
LINE
  5
1E9
100
AcDbEntity
  8
1
  6
HIDDEN
 62
     6
100
AcDbLine
 10
314.8191
 20
118.6292
 30
0.0
 11
314.8191
 21
130.6292
 31
0.0
  0
LINE
  5
1EA
100
AcDbEntity
  8
1
  6
HIDDEN
 62
     6
100
AcDbLine
 10
320.8191
 20
118.6292
 30
0.0
 11
320.8191
 21
113.8292
 31
0.0
  0
LINE
  5
1EB
100
AcDbEntity
  8
1
  6
HIDDEN
 62
     6
100
AcDbLine
 10
318.1191
 20
118.6292
 30
0.0
 11
318.1191
 21
113.8292
 31
0.0
  0
LINE
  5
1EC
100
AcDbEntity
  8
1
  6
HIDDEN
 62
     6
100
AcDbLine
 10
314.8191
 20
118.6292
 30
0.0
 11
314.8191
 21
113.8292
 31
0.0
  0
LINE
  5
1ED
100
AcDbEntity
  8
1
  6
HIDDEN
 62
     6
100
AcDbLine
 10
312.1191
 20
118.6292
 30
0.0
 11
312.1191
 21
113.8292
 31
0.0
  0
LINE
  5
1EE
100
AcDbEntity
  8
1
  6
CONTINUOUS
 62
     6
100
AcDbLine
 10
142.9191
 20
205.0292
 30
0.0
 11
146.2191
 21
205.0292
 31
0.0
  0
LINE
  5
1EF
100
AcDbEntity
  8
1
  6
CONTINUOUS
 62
     6
100
AcDbLine
 10
314.8191
 20
205.0292
 30
0.0
 11
318.1191
 21
205.0292
 31
0.0
  0
LINE
  5
1F0
100
AcDbEntity
  8
1
  6
CONTINUOUS
 62
     6
100
AcDbLine
 10
142.9191
 20
203.8292
 30
0.0
 11
146.2191
 21
203.8292
 31
0.0
  0
LINE
  5
1F1
100
AcDbEntity
  8
1
  6
CONTINUOUS
 62
     6
100
AcDbLine
 10
314.8191
 20
203.8292
 30
0.0
 11
318.1191
 21
203.8292
 31
0.0
  0
LINE
  5
1F2
100
AcDbEntity
  8
1
  6
CONTINUOUS
 62
     6
100
AcDbLine
 10
142.9191
 20
130.6292
 30
0.0
 11
142.9191
 21
167.2292
 31
0.0
  0
LINE
  5
1F3
100
AcDbEntity
  8
1
  6
CONTINUOUS
 62
     6
100
AcDbLine
 10
142.9191
 20
169.0292
 30
0.0
 11
142.9191
 21
205.0292
 31
0.0
  0
LINE
  5
1F4
100
AcDbEntity
  8
1
  6
CONTINUOUS
 62
     6
100
AcDbLine
 10
142.6191
 20
169.0292
 30
0.0
 11
142.6191
 21
167.2292
 31
0.0
  0
LINE
  5
1F5
100
AcDbEntity
  8
1
  6
CONTINUOUS
 62
     6
100
AcDbLine
 10
146.2191
 20
169.0292
 30
0.0
 11
146.2191
 21
205.0292
 31
0.0
  0
LINE
  5
1F6
100
AcDbEntity
  8
1
  6
CONTINUOUS
 62
     6
100
AcDbLine
 10
146.2191
 20
130.6292
 30
0.0
 11
146.2191
 21
167.2292
 31
0.0
  0
LINE
  5
1F7
100
AcDbEntity
  8
1
  6
CONTINUOUS
 62
     6
100
AcDbLine
 10
146.2191
 20
167.5292
 30
0.0
 11
146.2191
 21
168.7292
 31
0.0
  0
LINE
  5
1F8
100
AcDbEntity
  8
1
  6
CONTINUOUS
 62
     6
100
AcDbLine
 10
146.8191
 20
169.0292
 30
0.0
 11
146.8191
 21
203.8292
 31
0.0
  0
LINE
  5
1F9
100
AcDbEntity
  8
1
  6
CONTINUOUS
 62
     6
100
AcDbLine
 10
147.4191
 20
169.0292
 30
0.0
 11
147.4191
 21
203.8292
 31
0.0
  0
LINE
  5
1FA
100
AcDbEntity
  8
1
  6
CONTINUOUS
 62
     6
100
AcDbLine
 10
146.8191
 20
167.5292
 30
0.0
 11
146.8191
 21
168.7292
 31
0.0
  0
LINE
  5
1FB
100
AcDbEntity
  8
1
  6
CONTINUOUS
 62
     6
100
AcDbLine
 10
147.4191
 20
167.5292
 30
0.0
 11
147.4191
 21
168.7292
 31
0.0
  0
LINE
  5
1FC
100
AcDbEntity
  8
1
  6
CONTINUOUS
 62
     6
100
AcDbLine
 10
146.8191
 20
132.7292
 30
0.0
 11
146.8191
 21
167.2292
 31
0.0
  0
LINE
  5
1FD
100
AcDbEntity
  8
1
  6
CONTINUOUS
 62
     6
100
AcDbLine
 10
147.4191
 20
132.7292
 30
0.0
 11
147.4191
 21
167.2292
 31
0.0
  0
LINE
  5
1FE
100
AcDbEntity
  8
1
  6
CONTINUOUS
 62
     6
100
AcDbLine
 10
318.4191
 20
169.0292
 30
0.0
 11
318.4191
 21
167.2292
 31
0.0
  0
LINE
  5
1FF
100
AcDbEntity
  8
1
  6
CONTINUOUS
 62
     6
100
AcDbLine
 10
318.1191
 20
130.6292
 30
0.0
 11
318.1191
 21
167.2292
 31
0.0
  0
LINE
  5
200
100
AcDbEntity
  8
1
  6
CONTINUOUS
 62
     6
100
AcDbLine
 10
318.1191
 20
169.0292
 30
0.0
 11
318.1191
 21
205.0292
 31
0.0
  0
LINE
  5
201
100
AcDbEntity
  8
1
  6
CONTINUOUS
 62
     6
100
AcDbLine
 10
314.8191
 20
130.6292
 30
0.0
 11
314.8191
 21
167.2292
 31
0.0
  0
LINE
  5
202
100
AcDbEntity
  8
1
  6
CONTINUOUS
 62
     6
100
AcDbLine
 10
314.8191
 20
169.0292
 30
0.0
 11
314.8191
 21
205.0292
 31
0.0
  0
LINE
  5
203
100
AcDbEntity
  8
1
  6
CONTINUOUS
 62
     6
100
AcDbLine
 10
314.8191
 20
168.7292
 30
0.0
 11
314.8191
 21
167.5292
 31
0.0
  0
LINE
  5
204
100
AcDbEntity
  8
1
  6
CONTINUOUS
 62
     6
100
AcDbLine
 10
314.2191
 20
169.0292
 30
0.0
 11
314.2191
 21
203.8292
 31
0.0
  0
LINE
  5
205
100
AcDbEntity
  8
1
  6
CONTINUOUS
 62
     6
100
AcDbLine
 10
313.6191
 20
169.0292
 30
0.0
 11
313.6191
 21
203.8292
 31
0.0
  0
LINE
  5
206
100
AcDbEntity
  8
1
  6
CONTINUOUS
 62
     6
100
AcDbLine
 10
314.2191
 20
168.7292
 30
0.0
 11
314.2191
 21
167.5292
 31
0.0
  0
LINE
  5
207
100
AcDbEntity
  8
1
  6
CONTINUOUS
 62
     6
100
AcDbLine
 10
313.6191
 20
168.7292
 30
0.0
 11
313.6191
 21
167.5292
 31
0.0
  0
LINE
  5
208
100
AcDbEntity
  8
1
  6
CONTINUOUS
 62
     6
100
AcDbLine
 10
314.2191
 20
132.7292
 30
0.0
 11
314.2191
 21
167.2292
 31
0.0
  0
LINE
  5
209
100
AcDbEntity
  8
1
  6
CONTINUOUS
 62
     6
100
AcDbLine
 10
313.6191
 20
132.7292
 30
0.0
 11
313.6191
 21
167.2292
 31
0.0
  0
LINE
  5
20A
100
AcDbEntity
  8
1
  6
CONTINUOUS
 62
     6
100
AcDbLine
 10
146.8191
 20
203.8292
 30
0.0
 11
147.4191
 21
203.8292
 31
0.0
  0
LINE
  5
20B
100
AcDbEntity
  8
1
  6
CONTINUOUS
 62
     6
100
AcDbLine
 10
146.8191
 20
132.7292
 30
0.0
 11
147.4191
 21
132.7292
 31
0.0
  0
LINE
  5
20C
100
AcDbEntity
  8
1
  6
CONTINUOUS
 62
     6
100
AcDbLine
 10
147.4191
 20
133.6292
 30
0.0
 11
170.2191
 21
133.6292
 31
0.0
  0
LINE
  5
20D
100
AcDbEntity
  8
1
  6
CONTINUOUS
 62
     6
100
AcDbLine
 10
170.2191
 20
132.7292
 30
0.0
 11
170.8191
 21
132.7292
 31
0.0
  0
LINE
  5
20E
100
AcDbEntity
  8
1
  6
CONTINUOUS
 62
     6
100
AcDbLine
 10
170.2191
 20
203.8292
 30
0.0
 11
170.8191
 21
203.8292
 31
0.0
  0
LINE
  5
20F
100
AcDbEntity
  8
1
  6
CONTINUOUS
 62
     6
100
AcDbLine
 10
171.4191
 20
205.0292
 30
0.0
 11
175.0191
 21
205.0292
 31
0.0
  0
LINE
  5
210
100
AcDbEntity
  8
1
  6
CONTINUOUS
 62
     6
100
AcDbLine
 10
171.4191
 20
203.8292
 30
0.0
 11
175.0191
 21
203.8292
 31
0.0
  0
LINE
  5
211
100
AcDbEntity
  8
1
  6
CONTINUOUS
 62
     6
100
AcDbLine
 10
175.6191
 20
203.8292
 30
0.0
 11
176.2191
 21
203.8292
 31
0.0
  0
LINE
  5
212
100
AcDbEntity
  8
1
  6
CONTINUOUS
 62
     6
100
AcDbLine
 10
170.2191
 20
132.7292
 30
0.0
 11
170.2191
 21
167.2292
 31
0.0
  0
LINE
  5
213
100
AcDbEntity
  8
1
  6
CONTINUOUS
 62
     6
100
AcDbLine
 10
170.2191
 20
169.0292
 30
0.0
 11
170.2191
 21
203.8292
 31
0.0
  0
LINE
  5
214
100
AcDbEntity
  8
1
  6
CONTINUOUS
 62
     6
100
AcDbLine
 10
170.8191
 20
132.7292
 30
0.0
 11
170.8191
 21
167.2292
 31
0.0
  0
LINE
  5
215
100
AcDbEntity
  8
1
  6
CONTINUOUS
 62
     6
100
AcDbLine
 10
170.8191
 20
169.0292
 30
0.0
 11
170.8191
 21
203.8292
 31
0.0
  0
LINE
  5
216
100
AcDbEntity
  8
1
  6
CONTINUOUS
 62
     6
100
AcDbLine
 10
171.4191
 20
131.8292
 30
0.0
 11
171.4191
 21
167.2292
 31
0.0
  0
LINE
  5
217
100
AcDbEntity
  8
1
  6
CONTINUOUS
 62
     6
100
AcDbLine
 10
171.4191
 20
169.0292
 30
0.0
 11
171.4191
 21
205.0292
 31
0.0
  0
LINE
  5
218
100
AcDbEntity
  8
1
  6
CONTINUOUS
 62
     6
100
AcDbLine
 10
175.0191
 20
131.8292
 30
0.0
 11
175.0191
 21
167.2292
 31
0.0
  0
LINE
  5
219
100
AcDbEntity
  8
1
  6
CONTINUOUS
 62
     6
100
AcDbLine
 10
175.0191
 20
169.0292
 30
0.0
 11
175.0191
 21
205.0292
 31
0.0
  0
LINE
  5
21A
100
AcDbEntity
  8
1
  6
CONTINUOUS
 62
     6
100
AcDbLine
 10
175.6191
 20
132.7292
 30
0.0
 11
175.6191
 21
167.2292
 31
0.0
  0
LINE
  5
21B
100
AcDbEntity
  8
1
  6
CONTINUOUS
 62
     6
100
AcDbLine
 10
175.6191
 20
169.0292
 30
0.0
 11
175.6191
 21
203.8292
 31
0.0
  0
LINE
  5
21C
100
AcDbEntity
  8
1
  6
CONTINUOUS
 62
     6
100
AcDbLine
 10
176.2191
 20
132.7292
 30
0.0
 11
176.2191
 21
167.2292
 31
0.0
  0
LINE
  5
21D
100
AcDbEntity
  8
1
  6
CONTINUOUS
 62
     6
100
AcDbLine
 10
176.2191
 20
169.0292
 30
0.0
 11
176.2191
 21
203.8292
 31
0.0
  0
LINE
  5
21E
100
AcDbEntity
  8
1
  6
CONTINUOUS
 62
     6
100
AcDbLine
 10
170.2191
 20
168.7292
 30
0.0
 11
170.2191
 21
167.5292
 31
0.0
  0
LINE
  5
21F
100
AcDbEntity
  8
1
  6
CONTINUOUS
 62
     6
100
AcDbLine
 10
170.8191
 20
168.7292
 30
0.0
 11
170.8191
 21
167.5292
 31
0.0
  0
LINE
  5
220
100
AcDbEntity
  8
1
  6
CONTINUOUS
 62
     6
100
AcDbLine
 10
171.4191
 20
168.7292
 30
0.0
 11
171.4191
 21
167.5292
 31
0.0
  0
LINE
  5
221
100
AcDbEntity
  8
1
  6
CONTINUOUS
 62
     6
100
AcDbLine
 10
175.0191
 20
168.7292
 30
0.0
 11
175.0191
 21
167.5292
 31
0.0
  0
LINE
  5
222
100
AcDbEntity
  8
1
  6
CONTINUOUS
 62
     6
100
AcDbLine
 10
175.6191
 20
168.7292
 30
0.0
 11
175.6191
 21
167.5292
 31
0.0
  0
LINE
  5
223
100
AcDbEntity
  8
1
  6
CONTINUOUS
 62
     6
100
AcDbLine
 10
176.2191
 20
168.7292
 30
0.0
 11
176.2191
 21
167.5292
 31
0.0
  0
LINE
  5
224
100
AcDbEntity
  8
1
  6
CONTINUOUS
 62
     6
100
AcDbLine
 10
175.6191
 20
132.7292
 30
0.0
 11
176.2191
 21
132.7292
 31
0.0
  0
LINE
  5
225
100
AcDbEntity
  8
1
  6
HIDDEN
 62
     6
100
AcDbLine
 10
171.4191
 20
118.6292
 30
0.0
 11
171.4191
 21
131.8292
 31
0.0
  0
LINE
  5
226
100
AcDbEntity
  8
1
  6
HIDDEN
 62
     6
100
AcDbLine
 10
175.0191
 20
118.6292
 30
0.0
 11
175.0191
 21
131.8292
 31
0.0
  0
LINE
  5
227
100
AcDbEntity
  8
1
  6
HIDDEN
 62
     6
100
AcDbLine
 10
171.4191
 20
118.6292
 30
0.0
 11
171.4191
 21
113.8292
 31
0.0
  0
LINE
  5
228
100
AcDbEntity
  8
1
  6
HIDDEN
 62
     6
100
AcDbLine
 10
175.0191
 20
118.6292
 30
0.0
 11
175.0191
 21
113.8292
 31
0.0
  0
LINE
  5
229
100
AcDbEntity
  8
1
  6
HIDDEN
 62
     6
100
AcDbLine
 10
177.7191
 20
118.6292
 30
0.0
 11
177.7191
 21
113.8292
 31
0.0
  0
LINE
  5
22A
100
AcDbEntity
  8
1
  6
HIDDEN
 62
     6
100
AcDbLine
 10
168.7191
 20
118.6292
 30
0.0
 11
168.7191
 21
113.8292
 31
0.0
  0
LINE
  5
22B
100
AcDbEntity
  8
1
  6
CONTINUOUS
 62
     6
100
AcDbLine
 10
176.2191
 20
133.6292
 30
0.0
 11
246.5363
 21
133.6292
 31
0.0
  0
LINE
  5
22C
100
AcDbEntity
  8
1
  6
CONTINUOUS
 62
     6
100
AcDbLine
 10
176.2191
 20
134.8292
 30
0.0
 11
246.5363
 21
134.8292
 31
0.0
  0
LINE
  5
22D
100
AcDbEntity
  8
1
  6
CONTINUOUS
 62
     6
100
AcDbLine
 10
231.8363
 20
130.6292
 30
0.0
 11
231.8363
 21
203.8292
 31
0.0
  0
LINE
  5
22E
100
AcDbEntity
  8
1
  6
CONTINUOUS
 62
     6
100
AcDbLine
 10
231.2363
 20
130.6292
 30
0.0
 11
231.2363
 21
203.8292
 31
0.0
  0
LINE
  5
22F
100
AcDbEntity
  8
1
  6
CONTINUOUS
 62
     6
100
AcDbLine
 10
231.2363
 20
203.8292
 30
0.0
 11
231.8363
 21
203.8292
 31
0.0
  0
LINE
  5
230
100
AcDbEntity
  8
1
  6
CONTINUOUS
 62
     6
100
AcDbLine
 10
247.4363
 20
203.8292
 30
0.0
 11
248.6363
 21
203.8292
 31
0.0
  0
LINE
  5
231
100
AcDbEntity
  8
1
  6
CONTINUOUS
 62
     6
100
AcDbLine
 10
249.2363
 20
203.8292
 30
0.0
 11
250.4363
 21
203.8292
 31
0.0
  0
LINE
  5
232
100
AcDbEntity
  8
1
  6
CONTINUOUS
 62
     6
100
AcDbLine
 10
142.6191
 20
169.0292
 30
0.0
 11
245.9363
 21
169.0292
 31
0.0
  0
LINE
  5
233
100
AcDbEntity
  8
1
  6
CONTINUOUS
 62
     6
100
AcDbLine
 10
251.9363
 20
169.0292
 30
0.0
 11
318.4191
 21
169.0292
 31
0.0
  0
LINE
  5
234
100
AcDbEntity
  8
1
  6
CONTINUOUS
 62
     6
100
AcDbLine
 10
142.6191
 20
167.2292
 30
0.0
 11
245.9363
 21
167.2292
 31
0.0
  0
LINE
  5
235
100
AcDbEntity
  8
1
  6
CONTINUOUS
 62
     6
100
AcDbLine
 10
251.9363
 20
167.2292
 30
0.0
 11
318.4191
 21
167.2292
 31
0.0
  0
LINE
  5
236
100
AcDbEntity
  8
1
  6
CONTINUOUS
 62
     6
100
AcDbLine
 10
245.9363
 20
169.6292
 30
0.0
 11
245.9363
 21
166.6292
 31
0.0
  0
LINE
  5
237
100
AcDbEntity
  8
1
  6
CONTINUOUS
 62
     6
100
AcDbLine
 10
251.9363
 20
169.6292
 30
0.0
 11
251.9363
 21
166.6292
 31
0.0
  0
LINE
  5
238
100
AcDbEntity
  8
1
  6
CONTINUOUS
 62
     6
100
AcDbLine
 10
245.9363
 20
169.6292
 30
0.0
 11
251.9363
 21
169.6292
 31
0.0
  0
LINE
  5
239
100
AcDbEntity
  8
1
  6
CONTINUOUS
 62
     6
100
AcDbLine
 10
245.9363
 20
166.6292
 30
0.0
 11
251.9363
 21
166.6292
 31
0.0
  0
LINE
  5
23A
100
AcDbEntity
  8
1
  6
CONTINUOUS
 62
     6
100
AcDbLine
 10
247.4363
 20
131.8292
 30
0.0
 11
247.4363
 21
166.6292
 31
0.0
  0
LINE
  5
23B
100
AcDbEntity
  8
1
  6
CONTINUOUS
 62
     6
100
AcDbLine
 10
247.4363
 20
169.6292
 30
0.0
 11
247.4363
 21
203.8292
 31
0.0
  0
LINE
  5
23C
100
AcDbEntity
  8
1
  6
CONTINUOUS
 62
     6
100
AcDbLine
 10
248.6363
 20
132.7292
 30
0.0
 11
248.6363
 21
166.6292
 31
0.0
  0
LINE
  5
23D
100
AcDbEntity
  8
1
  6
CONTINUOUS
 62
     6
100
AcDbLine
 10
248.6363
 20
169.6292
 30
0.0
 11
248.6363
 21
203.8292
 31
0.0
  0
LINE
  5
23E
100
AcDbEntity
  8
1
  6
CONTINUOUS
 62
     6
100
AcDbLine
 10
249.2363
 20
132.7292
 30
0.0
 11
249.2363
 21
166.6292
 31
0.0
  0
LINE
  5
23F
100
AcDbEntity
  8
1
  6
CONTINUOUS
 62
     6
100
AcDbLine
 10
249.2363
 20
169.6292
 30
0.0
 11
249.2363
 21
203.8292
 31
0.0
  0
LINE
  5
240
100
AcDbEntity
  8
1
  6
CONTINUOUS
 62
     6
100
AcDbLine
 10
250.4363
 20
131.8292
 30
0.0
 11
250.4363
 21
166.6292
 31
0.0
  0
LINE
  5
241
100
AcDbEntity
  8
1
  6
CONTINUOUS
 62
     6
100
AcDbLine
 10
250.4363
 20
169.6292
 30
0.0
 11
250.4363
 21
203.8292
 31
0.0
  0
LINE
  5
242
100
AcDbEntity
  8
1
  6
CONTINUOUS
 62
     6
100
AcDbLine
 10
247.4363
 20
132.7292
 30
0.0
 11
248.6363
 21
132.7292
 31
0.0
  0
LINE
  5
243
100
AcDbEntity
  8
1
  6
CONTINUOUS
 62
     6
100
AcDbLine
 10
249.2363
 20
132.7292
 30
0.0
 11
250.4363
 21
132.7292
 31
0.0
  0
LINE
  5
244
100
AcDbEntity
  8
1
  6
CONTINUOUS
 62
     6
100
AcDbLine
 10
246.5363
 20
135.7292
 30
0.0
 11
246.5363
 21
133.6292
 31
0.0
  0
LINE
  5
245
100
AcDbEntity
  8
1
  6
CONTINUOUS
 62
     6
100
AcDbLine
 10
246.5363
 20
134.2292
 30
0.0
 11
251.3363
 21
134.2292
 31
0.0
  0
LINE
  5
246
100
AcDbEntity
  8
1
  6
CONTINUOUS
 62
     6
100
AcDbLine
 10
251.3363
 20
135.7292
 30
0.0
 11
251.3363
 21
133.6292
 31
0.0
  0
LINE
  5
247
100
AcDbEntity
  8
1
  6
CONTINUOUS
 62
     6
100
AcDbLine
 10
246.5363
 20
135.7292
 30
0.0
 11
248.3363
 21
135.7292
 31
0.0
  0
LINE
  5
248
100
AcDbEntity
  8
1
  6
CONTINUOUS
 62
     6
100
AcDbLine
 10
249.5363
 20
135.7292
 30
0.0
 11
251.3363
 21
135.7292
 31
0.0
  0
LINE
  5
249
100
AcDbEntity
  8
1
  6
CONTINUOUS
 62
     6
100
AcDbLine
 10
251.3363
 20
134.8292
 30
0.0
 11
284.9363
 21
134.8292
 31
0.0
  0
LINE
  5
24A
100
AcDbEntity
  8
1
  6
CONTINUOUS
 62
     6
100
AcDbLine
 10
284.9363
 20
132.7292
 30
0.0
 11
284.3363
 21
132.7292
 31
0.0
  0
LINE
  5
24B
100
AcDbEntity
  8
1
  6
CONTINUOUS
 62
     6
100
AcDbLine
 10
289.7363
 20
132.7292
 30
0.0
 11
290.3363
 21
132.7292
 31
0.0
  0
LINE
  5
24C
100
AcDbEntity
  8
1
  6
CONTINUOUS
 62
     6
100
AcDbLine
 10
251.3363
 20
133.6292
 30
0.0
 11
284.3363
 21
133.6292
 31
0.0
  0
LINE
  5
24D
100
AcDbEntity
  8
1
  6
CONTINUOUS
 62
     6
100
AcDbLine
 10
290.3363
 20
133.6292
 30
0.0
 11
313.6191
 21
133.6292
 31
0.0
  0
LINE
  5
24E
100
AcDbEntity
  8
1
  6
CONTINUOUS
 62
     6
100
AcDbLine
 10
313.6191
 20
132.7292
 30
0.0
 11
314.2191
 21
132.7292
 31
0.0
  0
LINE
  5
24F
100
AcDbEntity
  8
1
  6
CONTINUOUS
 62
     6
100
AcDbLine
 10
285.5363
 20
205.0292
 30
0.0
 11
289.1363
 21
205.0292
 31
0.0
  0
LINE
  5
250
100
AcDbEntity
  8
1
  6
CONTINUOUS
 62
     6
100
AcDbLine
 10
284.3363
 20
203.8292
 30
0.0
 11
284.9363
 21
203.8292
 31
0.0
  0
LINE
  5
251
100
AcDbEntity
  8
1
  6
CONTINUOUS
 62
     6
100
AcDbLine
 10
289.7363
 20
203.8292
 30
0.0
 11
290.3363
 21
203.8292
 31
0.0
  0
LINE
  5
252
100
AcDbEntity
  8
1
  6
CONTINUOUS
 62
     6
100
AcDbLine
 10
285.5363
 20
203.8292
 30
0.0
 11
289.1363
 21
203.8292
 31
0.0
  0
LINE
  5
253
100
AcDbEntity
  8
1
  6
CONTINUOUS
 62
     6
100
AcDbLine
 10
313.6191
 20
203.8292
 30
0.0
 11
314.2191
 21
203.8292
 31
0.0
  0
LINE
  5
254
100
AcDbEntity
  8
1
  6
CONTINUOUS
 62
     6
100
AcDbLine
 10
147.4191
 20
202.9292
 30
0.0
 11
170.2191
 21
202.9292
 31
0.0
  0
LINE
  5
255
100
AcDbEntity
  8
1
  6
CONTINUOUS
 62
     6
100
AcDbLine
 10
147.4191
 20
201.7292
 30
0.0
 11
170.2191
 21
201.7292
 31
0.0
  0
LINE
  5
256
100
AcDbEntity
  8
1
  6
CONTINUOUS
 62
     6
100
AcDbLine
 10
176.2191
 20
202.9292
 30
0.0
 11
231.2363
 21
202.9292
 31
0.0
  0
LINE
  5
257
100
AcDbEntity
  8
1
  6
CONTINUOUS
 62
     6
100
AcDbLine
 10
176.2191
 20
201.7292
 30
0.0
 11
231.2363
 21
201.7292
 31
0.0
  0
LINE
  5
258
100
AcDbEntity
  8
1
  6
CONTINUOUS
 62
     6
100
AcDbLine
 10
231.8363
 20
202.9292
 30
0.0
 11
247.4363
 21
202.9292
 31
0.0
  0
LINE
  5
259
100
AcDbEntity
  8
1
  6
CONTINUOUS
 62
     6
100
AcDbLine
 10
231.8363
 20
201.7292
 30
0.0
 11
247.4363
 21
201.7292
 31
0.0
  0
LINE
  5
25A
100
AcDbEntity
  8
1
  6
CONTINUOUS
 62
     6
100
AcDbLine
 10
250.4363
 20
202.9292
 30
0.0
 11
284.3363
 21
202.9292
 31
0.0
  0
LINE
  5
25B
100
AcDbEntity
  8
1
  6
CONTINUOUS
 62
     6
100
AcDbLine
 10
290.3363
 20
202.9292
 30
0.0
 11
313.6191
 21
202.9292
 31
0.0
  0
LINE
  5
25C
100
AcDbEntity
  8
1
  6
CONTINUOUS
 62
     6
100
AcDbLine
 10
250.4363
 20
201.7292
 30
0.0
 11
284.3363
 21
201.7292
 31
0.0
  0
LINE
  5
25D
100
AcDbEntity
  8
1
  6
CONTINUOUS
 62
     6
100
AcDbLine
 10
290.3363
 20
201.7292
 30
0.0
 11
313.6191
 21
201.7292
 31
0.0
  0
LINE
  5
25E
100
AcDbEntity
  8
1
  6
CONTINUOUS
 62
     6
100
AcDbLine
 10
284.3363
 20
131.8292
 30
0.0
 11
284.3363
 21
167.2292
 31
0.0
  0
LINE
  5
25F
100
AcDbEntity
  8
1
  6
CONTINUOUS
 62
     6
100
AcDbLine
 10
284.3363
 20
169.0292
 30
0.0
 11
284.3363
 21
203.8292
 31
0.0
  0
LINE
  5
260
100
AcDbEntity
  8
1
  6
CONTINUOUS
 62
     6
100
AcDbLine
 10
284.9363
 20
132.7292
 30
0.0
 11
284.9363
 21
167.2292
 31
0.0
  0
LINE
  5
261
100
AcDbEntity
  8
1
  6
CONTINUOUS
 62
     6
100
AcDbLine
 10
284.9363
 20
169.0292
 30
0.0
 11
284.9363
 21
203.8292
 31
0.0
  0
LINE
  5
262
100
AcDbEntity
  8
1
  6
CONTINUOUS
 62
     6
100
AcDbLine
 10
285.5363
 20
131.8292
 30
0.0
 11
285.5363
 21
167.2292
 31
0.0
  0
LINE
  5
263
100
AcDbEntity
  8
1
  6
CONTINUOUS
 62
     6
100
AcDbLine
 10
285.5363
 20
169.0292
 30
0.0
 11
285.5363
 21
205.0292
 31
0.0
  0
LINE
  5
264
100
AcDbEntity
  8
1
  6
CONTINUOUS
 62
     6
100
AcDbLine
 10
289.1363
 20
131.8292
 30
0.0
 11
289.1363
 21
167.2292
 31
0.0
  0
LINE
  5
265
100
AcDbEntity
  8
1
  6
CONTINUOUS
 62
     6
100
AcDbLine
 10
289.1363
 20
169.0292
 30
0.0
 11
289.1363
 21
205.0292
 31
0.0
  0
LINE
  5
266
100
AcDbEntity
  8
1
  6
CONTINUOUS
 62
     6
100
AcDbLine
 10
289.7363
 20
132.7292
 30
0.0
 11
289.7363
 21
167.2292
 31
0.0
  0
LINE
  5
267
100
AcDbEntity
  8
1
  6
CONTINUOUS
 62
     6
100
AcDbLine
 10
289.7363
 20
169.0292
 30
0.0
 11
289.7363
 21
203.8292
 31
0.0
  0
LINE
  5
268
100
AcDbEntity
  8
1
  6
CONTINUOUS
 62
     6
100
AcDbLine
 10
290.3363
 20
132.7292
 30
0.0
 11
290.3363
 21
167.2292
 31
0.0
  0
LINE
  5
269
100
AcDbEntity
  8
1
  6
CONTINUOUS
 62
     6
100
AcDbLine
 10
290.3363
 20
169.0292
 30
0.0
 11
290.3363
 21
203.8292
 31
0.0
  0
LINE
  5
26A
100
AcDbEntity
  8
1
  6
CONTINUOUS
 62
     6
100
AcDbLine
 10
284.3363
 20
168.7292
 30
0.0
 11
284.3363
 21
167.5292
 31
0.0
  0
LINE
  5
26B
100
AcDbEntity
  8
1
  6
CONTINUOUS
 62
     6
100
AcDbLine
 10
284.9363
 20
168.7292
 30
0.0
 11
284.9363
 21
167.5292
 31
0.0
  0
LINE
  5
26C
100
AcDbEntity
  8
1
  6
CONTINUOUS
 62
     6
100
AcDbLine
 10
285.5363
 20
168.7292
 30
0.0
 11
285.5363
 21
167.5292
 31
0.0
  0
LINE
  5
26D
100
AcDbEntity
  8
1
  6
CONTINUOUS
 62
     6
100
AcDbLine
 10
289.1363
 20
168.7292
 30
0.0
 11
289.1363
 21
167.5292
 31
0.0
  0
LINE
  5
26E
100
AcDbEntity
  8
1
  6
CONTINUOUS
 62
     6
100
AcDbLine
 10
289.7363
 20
168.7292
 30
0.0
 11
289.7363
 21
167.5292
 31
0.0
  0
LINE
  5
26F
100
AcDbEntity
  8
1
  6
CONTINUOUS
 62
     6
100
AcDbLine
 10
290.3363
 20
168.7292
 30
0.0
 11
290.3363
 21
167.5292
 31
0.0
  0
LINE
  5
270
100
AcDbEntity
  8
1
  6
HIDDEN
 62
     6
100
AcDbLine
 10
285.5363
 20
118.6292
 30
0.0
 11
285.5363
 21
131.8292
 31
0.0
  0
LINE
  5
271
100
AcDbEntity
  8
1
  6
HIDDEN
 62
     6
100
AcDbLine
 10
289.1363
 20
118.6292
 30
0.0
 11
289.1363
 21
131.8292
 31
0.0
  0
LINE
  5
272
100
AcDbEntity
  8
1
  6
HIDDEN
 62
     6
100
AcDbLine
 10
285.5363
 20
118.6292
 30
0.0
 11
285.5363
 21
113.8292
 31
0.0
  0
LINE
  5
273
100
AcDbEntity
  8
1
  6
HIDDEN
 62
     6
100
AcDbLine
 10
289.1363
 20
118.6292
 30
0.0
 11
289.1363
 21
113.8292
 31
0.0
  0
LINE
  5
274
100
AcDbEntity
  8
1
  6
HIDDEN
 62
     6
100
AcDbLine
 10
282.8363
 20
118.6292
 30
0.0
 11
282.8363
 21
113.8292
 31
0.0
  0
CIRCLE
  5
275
100
AcDbEntity
  8
1
  6
CONTINUOUS
 62
     6
100
AcDbCircle
 10
144.5691
 20
206.2292
 30
0.0
 40
1.2
210
0.0
220
0.0
230
1.0
  0
CIRCLE
  5
276
100
AcDbEntity
  8
1
  6
CONTINUOUS
 62
     6
100
AcDbCircle
 10
173.2191
 20
206.8292
 30
0.0
 40
1.8
210
0.0
220
0.0
230
1.0
  0
CIRCLE
  5
277
100
AcDbEntity
  8
1
  6
CONTINUOUS
 62
     6
100
AcDbCircle
 10
287.3363
 20
206.8292
 30
0.0
 40
1.8
210
0.0
220
0.0
230
1.0
  0
CIRCLE
  5
278
100
AcDbEntity
  8
1
  6
CONTINUOUS
 62
     6
100
AcDbCircle
 10
316.4691
 20
206.2292
 30
0.0
 40
1.2
210
0.0
220
0.0
230
1.0
  0
LINE
  5
279
100
AcDbEntity
  8
1
  6
DASHED
 62
     6
100
AcDbLine
 10
174.1191
 20
131.8292
 30
0.0
 11
174.1191
 21
179.8292
 31
0.0
  0
LINE
  5
27A
100
AcDbEntity
  8
1
  6
CONTINUOUS
 62
     6
100
AcDbLine
 10
174.1191
 20
179.8292
 30
0.0
 11
219.1191
 21
179.8292
 31
0.0
  0
LINE
  5
27B
100
AcDbEntity
  8
1
  6
CONTINUOUS
 62
     6
100
AcDbLine
 10
219.1191
 20
179.8292
 30
0.0
 11
219.1191
 21
131.8292
 31
0.0
  0
LINE
  5
27C
100
AcDbEntity
  8
1
  6
CONTINUOUS
 62
     6
100
AcDbLine
 10
174.1191
 20
176.8292
 30
0.0
 11
219.1191
 21
176.8292
 31
0.0
  0
LINE
  5
27D
100
AcDbEntity
  8
1
  6
CONTINUOUS
 62
     6
100
AcDbLine
 10
196.6191
 20
176.8292
 30
0.0
 11
196.6191
 21
131.8292
 31
0.0
  0
LINE
  5
27E
100
AcDbEntity
  8
1
  6
CONTINUOUS
 62
     6
100
AcDbLine
 10
237.8363
 20
131.8292
 30
0.0
 11
237.8363
 21
209.9546
 31
0.0
  0
LINE
  5
27F
100
AcDbEntity
  8
1
  6
CONTINUOUS
 62
     6
100
AcDbLine
 10
237.8363
 20
209.9546
 30
0.0
 11
288.2363
 21
209.9546
 31
0.0
  0
LINE
  5
280
100
AcDbEntity
  8
1
  6
CONTINUOUS
 62
     6
100
AcDbLine
 10
288.2363
 20
209.9546
 30
0.0
 11
288.2363
 21
208.388
 31
0.0
  0
LINE
  5
281
100
AcDbEntity
  8
1
  6
DASHED
 62
     6
100
AcDbLine
 10
288.2363
 20
208.388
 30
0.0
 11
288.2363
 21
131.8292
 31
0.0
  0
LINE
  5
282
100
AcDbEntity
  8
1
  6
CONTINUOUS
 62
     6
100
AcDbLine
 10
263.0363
 20
209.9546
 30
0.0
 11
263.0363
 21
131.8292
 31
0.0
  0
LINE
  5
283
100
AcDbEntity
  8
1
  6
CONTINUOUS
 62
     6
100
AcDbLine
 10
284.3363
 20
209.9546
 30
0.0
 11
284.3363
 21
252.4292
 31
0.0
  0
LINE
  5
284
100
AcDbEntity
  8
1
  6
CONTINUOUS
 62
     6
100
AcDbLine
 10
283.1363
 20
209.9546
 30
0.0
 11
283.1363
 21
252.4292
 31
0.0
  0
LINE
  5
285
100
AcDbEntity
  8
1
  6
CONTINUOUS
 62
     6
100
AcDbLine
 10
282.5363
 20
252.4292
 30
0.0
 11
284.9363
 21
252.4292
 31
0.0
  0
LINE
  5
286
100
AcDbEntity
  8
1
  6
CONTINUOUS
 62
     6
100
AcDbLine
 10
282.5363
 20
254.8292
 30
0.0
 11
284.9363
 21
254.8292
 31
0.0
  0
LINE
  5
287
100
AcDbEntity
  8
1
  6
CONTINUOUS
 62
     6
100
AcDbLine
 10
282.5363
 20
254.8292
 30
0.0
 11
282.5363
 21
252.4292
 31
0.0
  0
LINE
  5
288
100
AcDbEntity
  8
1
  6
CONTINUOUS
 62
     6
100
AcDbLine
 10
284.9363
 20
254.8292
 30
0.0
 11
284.9363
 21
252.4292
 31
0.0
  0
LINE
  5
289
100
AcDbEntity
  8
1
  6
DASHED
 62
     6
100
AcDbLine
 10
195.4191
 20
161.8292
 30
0.0
 11
195.4191
 21
90.4292
 31
0.0
  0
LINE
  5
28A
100
AcDbEntity
  8
1
  6
DASHED
 62
     6
100
AcDbLine
 10
191.5191
 20
161.8292
 30
0.0
 11
191.5191
 21
90.4292
 31
0.0
  0
LINE
  5
28B
100
AcDbEntity
  8
1
  6
DASHED
 62
     6
100
AcDbLine
 10
197.5191
 20
161.8292
 30
0.0
 11
197.5191
 21
90.4292
 31
0.0
  0
LINE
  5
28C
100
AcDbEntity
  8
1
  6
DASHED
 62
     6
100
AcDbLine
 10
201.4191
 20
161.8292
 30
0.0
 11
201.4191
 21
90.4292
 31
0.0
  0
CIRCLE
  5
28D
100
AcDbEntity
  8
1
  6
DASHED
 62
     6
100
AcDbCircle
 10
193.4691
 20
161.8292
 30
0.0
 40
1.95
210
0.0
220
0.0
230
1.0
  0
CIRCLE
  5
28E
100
AcDbEntity
  8
1
  6
DASHED
 62
     6
100
AcDbCircle
 10
199.4691
 20
161.8292
 30
0.0
 40
1.95
210
0.0
220
0.0
230
1.0
  0
CIRCLE
  5
28F
100
AcDbEntity
  8
1
  6
DASHED
 62
     6
100
AcDbCircle
 10
205.3191
 20
161.8292
 30
0.0
 40
1.5
210
0.0
220
0.0
230
1.0
  0
ARC
  5
290
100
AcDbEntity
  8
1
  6
CONTINUOUS
 62
     6
100
AcDbCircle
 10
192.4941
 20
91.23716
 30
0.0
 40
1.266264
210
0.0
220
0.0
230
1.0
100
AcDbArc
 50
219.647747
 51
320.352247
  0
ARC
  5
291
100
AcDbEntity
  8
1
  6
CONTINUOUS
 62
     6
100
AcDbCircle
 10
194.4441
 20
90.782108
 30
0.0
 40
1.036903
210
0.0
220
0.0
230
1.0
100
AcDbArc
 50
199.898047
 51
340.10195
  0
ARC
  5
292
100
AcDbEntity
  8
1
  6
CONTINUOUS
 62
     6
100
AcDbCircle
 10
200.4441
 20
90.782108
 30
0.0
 40
1.036903
210
0.0
220
0.0
230
1.0
100
AcDbArc
 50
199.898047
 51
340.10195
  0
ARC
  5
293
100
AcDbEntity
  8
1
  6
CONTINUOUS
 62
     6
100
AcDbCircle
 10
198.4941
 20
91.173685
 30
0.0
 40
1.226737
210
0.0
220
0.0
230
1.0
100
AcDbArc
 50
217.364436
 51
322.635558
  0
ARC
  5
294
100
AcDbEntity
  8
1
  6
CONTINUOUS
 62
     6
100
AcDbCircle
 10
194.4441
 20
90.076292
 30
0.0
 40
1.036903
210
0.0
220
0.0
230
1.0
100
AcDbArc
 50
19.89805
 51
160.101953
  0
ARC
  5
295
100
AcDbEntity
  8
1
  6
CONTINUOUS
 62
     6
100
AcDbCircle
 10
200.4441
 20
90.076292
 30
0.0
 40
1.036903
210
0.0
220
0.0
230
1.0
100
AcDbArc
 50
19.89805
 51
160.101953
  0
LINE
  5
296
100
AcDbEntity
  8
1
  6
DASHED
 62
     6
100
AcDbLine
 10
203.8191
 20
161.8292
 30
0.0
 11
203.8191
 21
131.8292
 31
0.0
  0
LINE
  5
297
100
AcDbEntity
  8
1
  6
DASHED
 62
     6
100
AcDbLine
 10
203.8191
 20
131.8292
 30
0.0
 11
203.8191
 21
112.0292
 31
0.0
  0
LINE
  5
298
100
AcDbEntity
  8
1
  6
DASHED
 62
     6
100
AcDbLine
 10
206.8191
 20
161.8292
 30
0.0
 11
206.8191
 21
131.8292
 31
0.0
  0
LINE
  5
299
100
AcDbEntity
  8
1
  6
DASHED
 62
     6
100
AcDbLine
 10
206.8191
 20
131.8292
 30
0.0
 11
206.8191
 21
112.9292
 31
0.0
  0
LINE
  5
29A
100
AcDbEntity
  8
1
  6
DASHED
 62
     6
100
AcDbLine
 10
247.4363
 20
131.8292
 30
0.0
 11
247.4363
 21
112.9292
 31
0.0
  0
LINE
  5
29B
100
AcDbEntity
  8
1
  6
DASHED
 62
     6
100
AcDbLine
 10
250.4363
 20
131.8292
 30
0.0
 11
250.4363
 21
112.0292
 31
0.0
  0
LINE
  5
29C
100
AcDbEntity
  8
1
  6
DASHED
 62
     6
100
AcDbLine
 10
218.2191
 20
97.6292
 30
0.0
 11
236.0363
 21
97.6292
 31
0.0
  0
LINE
  5
29D
100
AcDbEntity
  8
1
  6
DASHED
 62
     6
100
AcDbLine
 10
218.8191
 20
100.9292
 30
0.0
 11
235.4363
 21
100.9292
 31
0.0
  0
ARC
  5
29E
100
AcDbEntity
  8
1
  6
DASHED
 62
     6
100
AcDbCircle
 10
218.8191
 20
112.9292
 30
0.0
 40
12.0
210
0.0
220
0.0
230
1.0
100
AcDbArc
 50
180.0
 51
270.0
  0
ARC
  5
29F
100
AcDbEntity
  8
1
  6
DASHED
 62
     6
100
AcDbCircle
 10
235.4363
 20
112.9292
 30
0.0
 40
12.0
210
0.0
220
0.0
230
1.0
100
AcDbArc
 50
270.0
 51
0.0
  0
ARC
  5
2A0
100
AcDbEntity
  8
1
  6
DASHED
 62
     6
100
AcDbCircle
 10
218.2191
 20
112.0292
 30
0.0
 40
14.4
210
0.0
220
0.0
230
1.0
100
AcDbArc
 50
180.0
 51
270.0
  0
ARC
  5
2A1
100
AcDbEntity
  8
1
  6
DASHED
 62
     6
100
AcDbCircle
 10
236.0363
 20
112.0292
 30
0.0
 40
14.4
210
0.0
220
0.0
230
1.0
100
AcDbArc
 50
270.0
 51
0.0
  0
LINE
  5
2A2
100
AcDbEntity
  8
1
  6
CONTINUOUS
 62
     6
100
AcDbLine
 10
121.3191
 20
97.7792
 30
0.0
 11
121.3191
 21
102.5792
 31
0.0
  0
LINE
  5
2A3
100
AcDbEntity
  8
1
  6
CONTINUOUS
 62
     6
100
AcDbLine
 10
122.8191
 20
97.7792
 30
0.0
 11
122.8191
 21
102.5792
 31
0.0
  0
LINE
  5
2A4
100
AcDbEntity
  8
1
  6
CONTINUOUS
 62
     6
100
AcDbLine
 10
122.8191
 20
102.5792
 30
0.0
 11
121.3191
 21
102.5792
 31
0.0
  0
LINE
  5
2A5
100
AcDbEntity
  8
1
  6
CONTINUOUS
 62
     6
100
AcDbLine
 10
122.8191
 20
95.0792
 30
0.0
 11
122.8191
 21
71.0792
 31
0.0
  0
LINE
  5
2A6
100
AcDbEntity
  8
1
  6
CONTINUOUS
 62
     6
100
AcDbLine
 10
121.3191
 20
95.0792
 30
0.0
 11
121.3191
 21
71.0792
 31
0.0
  0
LINE
  5
2A7
100
AcDbEntity
  8
1
  6
CONTINUOUS
 62
     6
100
AcDbLine
 10
121.3191
 20
68.6792
 30
0.0
 11
121.3191
 21
56.6792
 31
0.0
  0
LINE
  5
2A8
100
AcDbEntity
  8
1
  6
CONTINUOUS
 62
     6
100
AcDbLine
 10
122.8191
 20
68.6792
 30
0.0
 11
122.8191
 21
56.6792
 31
0.0
  0
LINE
  5
2A9
100
AcDbEntity
  8
1
  6
CONTINUOUS
 62
     6
100
AcDbLine
 10
121.3191
 20
56.6792
 30
0.0
 11
122.0691
 21
53.0792
 31
0.0
  0
LINE
  5
2AA
100
AcDbEntity
  8
1
  6
CONTINUOUS
 62
     6
100
AcDbLine
 10
122.8191
 20
56.6792
 30
0.0
 11
122.0691
 21
53.0792
 31
0.0
  0
ARC
  5
2AB
100
AcDbEntity
  8
1
  6
CONTINUOUS
 62
     6
100
AcDbCircle
 10
121.6941
 20
71.295188
 30
0.0
 40
0.432754
210
0.0
220
0.0
230
1.0
100
AcDbArc
 50
209.940603
 51
330.0594
  0
ARC
  5
2AC
100
AcDbEntity
  8
1
  6
CONTINUOUS
 62
     6
100
AcDbCircle
 10
122.4441
 20
71.295188
 30
0.0
 40
0.432754
210
0.0
220
0.0
230
1.0
100
AcDbArc
 50
209.940603
 51
330.0594
  0
ARC
  5
2AD
100
AcDbEntity
  8
1
  6
CONTINUOUS
 62
     6
100
AcDbCircle
 10
122.4441
 20
70.863212
 30
0.0
 40
0.432754
210
0.0
220
0.0
230
1.0
100
AcDbArc
 50
29.9406
 51
150.059397
  0
ARC
  5
2AE
100
AcDbEntity
  8
1
  6
CONTINUOUS
 62
     6
100
AcDbCircle
 10
121.6941
 20
68.463212
 30
0.0
 40
0.432754
210
0.0
220
0.0
230
1.0
100
AcDbArc
 50
29.9406
 51
150.059397
  0
ARC
  5
2AF
100
AcDbEntity
  8
1
  6
CONTINUOUS
 62
     6
100
AcDbCircle
 10
122.4441
 20
68.463212
 30
0.0
 40
0.432754
210
0.0
220
0.0
230
1.0
100
AcDbArc
 50
29.9406
 51
150.059397
  0
ARC
  5
2B0
100
AcDbEntity
  8
1
  6
CONTINUOUS
 62
     6
100
AcDbCircle
 10
121.6941
 20
68.895188
 30
0.0
 40
0.432754
210
0.0
220
0.0
230
1.0
100
AcDbArc
 50
209.940603
 51
330.0594
  0
POLYLINE
  5
2B1
100
AcDbEntity
  8
1
  6
CONTINUOUS
 62
     6
100
AcDb2dPolyline
 66
     1
 10
0.0
 20
0.0
 30
0.0
 70
     1
  0
VERTEX
  5
2B2
100
AcDbEntity
  8
1
  6
CONTINUOUS
 62
     6
100
AcDbVertex
100
AcDb2dVertex
 10
120.7191
 20
97.7792
 30
0.0
  0
VERTEX
  5
2B3
100
AcDbEntity
  8
1
  6
CONTINUOUS
 62
     6
100
AcDbVertex
100
AcDb2dVertex
 10
123.4191
 20
97.7792
 30
0.0
  0
VERTEX
  5
2B4
100
AcDbEntity
  8
1
  6
CONTINUOUS
 62
     6
100
AcDbVertex
100
AcDb2dVertex
 10
123.4191
 20
95.0792
 30
0.0
  0
VERTEX
  5
2B5
100
AcDbEntity
  8
1
  6
CONTINUOUS
 62
     6
100
AcDbVertex
100
AcDb2dVertex
 10
120.7191
 20
95.0792
 30
0.0
  0
VERTEX
  5
2B6
100
AcDbEntity
  8
1
  6
CONTINUOUS
 62
     6
100
AcDbVertex
100
AcDb2dVertex
 10
120.7191
 20
97.7792
 30
0.0
  0
SEQEND
  5
2B7
100
AcDbEntity
  8
1
  6
CONTINUOUS
 62
     6
  0
LINE
  5
2B8
100
AcDbEntity
  8
1
  6
CONTINUOUS
 62
     6
100
AcDbLine
 10
338.5191
 20
95.0792
 30
0.0
 11
338.5191
 21
71.0792
 31
0.0
  0
LINE
  5
2B9
100
AcDbEntity
  8
1
  6
CONTINUOUS
 62
     6
100
AcDbLine
 10
337.0191
 20
97.7792
 30
0.0
 11
337.0191
 21
102.5792
 31
0.0
  0
LINE
  5
2BA
100
AcDbEntity
  8
1
  6
CONTINUOUS
 62
     6
100
AcDbLine
 10
338.5191
 20
97.7792
 30
0.0
 11
338.5191
 21
102.5792
 31
0.0
  0
LINE
  5
2BB
100
AcDbEntity
  8
1
  6
CONTINUOUS
 62
     6
100
AcDbLine
 10
338.5191
 20
102.5792
 30
0.0
 11
337.0191
 21
102.5792
 31
0.0
  0
LINE
  5
2BC
100
AcDbEntity
  8
1
  6
CONTINUOUS
 62
     6
100
AcDbLine
 10
337.0191
 20
95.0792
 30
0.0
 11
337.0191
 21
71.0792
 31
0.0
  0
LINE
  5
2BD
100
AcDbEntity
  8
1
  6
CONTINUOUS
 62
     6
100
AcDbLine
 10
337.0191
 20
68.6792
 30
0.0
 11
337.0191
 21
56.6792
 31
0.0
  0
LINE
  5
2BE
100
AcDbEntity
  8
1
  6
CONTINUOUS
 62
     6
100
AcDbLine
 10
338.5191
 20
68.6792
 30
0.0
 11
338.5191
 21
56.6792
 31
0.0
  0
LINE
  5
2BF
100
AcDbEntity
  8
1
  6
CONTINUOUS
 62
     6
100
AcDbLine
 10
337.0191
 20
56.6792
 30
0.0
 11
337.7691
 21
53.0792
 31
0.0
  0
LINE
  5
2C0
100
AcDbEntity
  8
1
  6
CONTINUOUS
 62
     6
100
AcDbLine
 10
338.5191
 20
56.6792
 30
0.0
 11
337.7691
 21
53.0792
 31
0.0
  0
ARC
  5
2C1
100
AcDbEntity
  8
1
  6
CONTINUOUS
 62
     6
100
AcDbCircle
 10
337.3941
 20
71.295188
 30
0.0
 40
0.432754
210
0.0
220
0.0
230
1.0
100
AcDbArc
 50
209.940603
 51
330.0594
  0
ARC
  5
2C2
100
AcDbEntity
  8
1
  6
CONTINUOUS
 62
     6
100
AcDbCircle
 10
338.1441
 20
71.295188
 30
0.0
 40
0.432754
210
0.0
220
0.0
230
1.0
100
AcDbArc
 50
209.940603
 51
330.0594
  0
ARC
  5
2C3
100
AcDbEntity
  8
1
  6
CONTINUOUS
 62
     6
100
AcDbCircle
 10
338.1441
 20
70.863212
 30
0.0
 40
0.432754
210
0.0
220
0.0
230
1.0
100
AcDbArc
 50
29.9406
 51
150.059397
  0
ARC
  5
2C4
100
AcDbEntity
  8
1
  6
CONTINUOUS
 62
     6
100
AcDbCircle
 10
337.3941
 20
68.463212
 30
0.0
 40
0.432754
210
0.0
220
0.0
230
1.0
100
AcDbArc
 50
29.9406
 51
150.059397
  0
ARC
  5
2C5
100
AcDbEntity
  8
1
  6
CONTINUOUS
 62
     6
100
AcDbCircle
 10
338.1441
 20
68.463212
 30
0.0
 40
0.432754
210
0.0
220
0.0
230
1.0
100
AcDbArc
 50
29.9406
 51
150.059397
  0
ARC
  5
2C6
100
AcDbEntity
  8
1
  6
CONTINUOUS
 62
     6
100
AcDbCircle
 10
337.3941
 20
68.895188
 30
0.0
 40
0.432754
210
0.0
220
0.0
230
1.0
100
AcDbArc
 50
209.940603
 51
330.0594
  0
POLYLINE
  5
2C7
100
AcDbEntity
  8
1
  6
CONTINUOUS
 62
     6
100
AcDb2dPolyline
 66
     1
 10
0.0
 20
0.0
 30
0.0
 70
     1
  0
VERTEX
  5
2C8
100
AcDbEntity
  8
1
  6
CONTINUOUS
 62
     6
100
AcDbVertex
100
AcDb2dVertex
 10
336.4191
 20
97.7792
 30
0.0
  0
VERTEX
  5
2C9
100
AcDbEntity
  8
1
  6
CONTINUOUS
 62
     6
100
AcDbVertex
100
AcDb2dVertex
 10
339.1191
 20
97.7792
 30
0.0
  0
VERTEX
  5
2CA
100
AcDbEntity
  8
1
  6
CONTINUOUS
 62
     6
100
AcDbVertex
100
AcDb2dVertex
 10
339.1191
 20
95.0792
 30
0.0
  0
VERTEX
  5
2CB
100
AcDbEntity
  8
1
  6
CONTINUOUS
 62
     6
100
AcDbVertex
100
AcDb2dVertex
 10
336.4191
 20
95.0792
 30
0.0
  0
VERTEX
  5
2CC
100
AcDbEntity
  8
1
  6
CONTINUOUS
 62
     6
100
AcDbVertex
100
AcDb2dVertex
 10
336.4191
 20
97.7792
 30
0.0
  0
SEQEND
  5
2CD
100
AcDbEntity
  8
1
  6
CONTINUOUS
 62
     6
  0
LINE
  5
2CE
100
AcDbEntity
  8
1
  6
CONTINUOUS
 62
     6
100
AcDbLine
 10
211.3191
 20
96.4292
 30
0.0
 11
229.3191
 21
96.4292
 31
0.0
  0
LINE
  5
2CF
100
AcDbEntity
  8
1
  6
CONTINUOUS
 62
     6
100
AcDbLine
 10
230.5191
 20
96.4292
 30
0.0
 11
248.5191
 21
96.4292
 31
0.0
  0
LINE
  5
2D0
100
AcDbEntity
  8
1
  6
CONTINUOUS
 62
     6
100
AcDbLine
 10
192.1191
 20
96.4292
 30
0.0
 11
210.1191
 21
96.4292
 31
0.0
  0
LINE
  5
2D1
100
AcDbEntity
  8
1
  6
CONTINUOUS
 62
     6
100
AcDbLine
 10
249.7191
 20
96.4292
 30
0.0
 11
267.7191
 21
96.4292
 31
0.0
  0
LINE
  5
2D2
100
AcDbEntity
  8
1
  6
CONTINUOUS
 62
     6
100
AcDbLine
 10
172.9191
 20
96.4292
 30
0.0
 11
190.9191
 21
96.4292
 31
0.0
  0
LINE
  5
2D3
100
AcDbEntity
  8
1
  6
CONTINUOUS
 62
     6
100
AcDbLine
 10
268.9191
 20
96.4292
 30
0.0
 11
286.9191
 21
96.4292
 31
0.0
  0
LINE
  5
2D4
100
AcDbEntity
  8
1
  6
CONTINUOUS
 62
     6
100
AcDbLine
 10
153.7191
 20
96.4292
 30
0.0
 11
171.7191
 21
96.4292
 31
0.0
  0
LINE
  5
2D5
100
AcDbEntity
  8
1
  6
CONTINUOUS
 62
     6
100
AcDbLine
 10
288.1191
 20
96.4292
 30
0.0
 11
306.1191
 21
96.4292
 31
0.0
  0
LINE
  5
2D6
100
AcDbEntity
  8
1
  6
CONTINUOUS
 62
     6
100
AcDbLine
 10
123.4191
 20
96.4292
 30
0.0
 11
133.3191
 21
96.4292
 31
0.0
  0
LINE
  5
2D7
100
AcDbEntity
  8
1
  6
CONTINUOUS
 62
     6
100
AcDbLine
 10
134.5191
 20
96.4292
 30
0.0
 11
152.5191
 21
96.4292
 31
0.0
  0
LINE
  5
2D8
100
AcDbEntity
  8
1
  6
CONTINUOUS
 62
     6
100
AcDbLine
 10
307.3191
 20
96.4292
 30
0.0
 11
325.3191
 21
96.4292
 31
0.0
  0
LINE
  5
2D9
100
AcDbEntity
  8
1
  6
CONTINUOUS
 62
     6
100
AcDbLine
 10
326.5191
 20
96.4292
 30
0.0
 11
336.4191
 21
96.4292
 31
0.0
  0
LINE
  5
2DA
100
AcDbEntity
  8
1
  6
DASHED
 62
     6
100
AcDbLine
 10
184.3191
 20
135.4292
 30
0.0
 11
184.3191
 21
117.4292
 31
0.0
  0
LINE
  5
2DB
100
AcDbEntity
  8
1
  6
DASHED
 62
     6
100
AcDbLine
 10
182.8191
 20
135.4292
 30
0.0
 11
182.8191
 21
117.4292
 31
0.0
  0
LINE
  5
2DC
100
AcDbEntity
  8
1
  6
CONTINUOUS
 62
     6
100
AcDbLine
 10
182.8191
 20
135.4292
 30
0.0
 11
184.3191
 21
135.4292
 31
0.0
  0
LINE
  5
2DD
100
AcDbEntity
  8
1
  6
DASHED
 62
     6
100
AcDbLine
 10
184.3191
 20
114.7292
 30
0.0
 11
184.3191
 21
105.7292
 31
0.0
  0
LINE
  5
2DE
100
AcDbEntity
  8
1
  6
DASHED
 62
     6
100
AcDbLine
 10
182.8191
 20
114.7292
 30
0.0
 11
182.8191
 21
105.7292
 31
0.0
  0
LINE
  5
2DF
100
AcDbEntity
  8
1
  6
DASHED
 62
     6
100
AcDbLine
 10
182.8191
 20
103.3292
 30
0.0
 11
182.8191
 21
92.8292
 31
0.0
  0
LINE
  5
2E0
100
AcDbEntity
  8
1
  6
DASHED
 62
     6
100
AcDbLine
 10
184.3191
 20
103.3292
 30
0.0
 11
184.3191
 21
92.8292
 31
0.0
  0
ARC
  5
2E1
100
AcDbEntity
  8
1
  6
CONTINUOUS
 62
     6
100
AcDbCircle
 10
183.9441
 20
103.113212
 30
0.0
 40
0.432754
210
0.0
220
0.0
230
1.0
100
AcDbArc
 50
29.940603
 51
150.0594
  0
ARC
  5
2E2
100
AcDbEntity
  8
1
  6
CONTINUOUS
 62
     6
100
AcDbCircle
 10
183.9441
 20
105.945188
 30
0.0
 40
0.432754
210
0.0
220
0.0
230
1.0
100
AcDbArc
 50
209.9406
 51
330.059397
  0
ARC
  5
2E3
100
AcDbEntity
  8
1
  6
CONTINUOUS
 62
     6
100
AcDbCircle
 10
183.1941
 20
105.945188
 30
0.0
 40
0.432754
210
0.0
220
0.0
230
1.0
100
AcDbArc
 50
209.9406
 51
330.059397
  0
ARC
  5
2E4
100
AcDbEntity
  8
1
  6
CONTINUOUS
 62
     6
100
AcDbCircle
 10
183.1941
 20
105.513212
 30
0.0
 40
0.432754
210
0.0
220
0.0
230
1.0
100
AcDbArc
 50
29.940603
 51
150.0594
  0
ARC
  5
2E5
100
AcDbEntity
  8
1
  6
CONTINUOUS
 62
     6
100
AcDbCircle
 10
183.1941
 20
103.113212
 30
0.0
 40
0.432754
210
0.0
220
0.0
230
1.0
100
AcDbArc
 50
29.940603
 51
150.0594
  0
ARC
  5
2E6
100
AcDbEntity
  8
1
  6
CONTINUOUS
 62
     6
100
AcDbCircle
 10
183.9441
 20
103.545188
 30
0.0
 40
0.432754
210
0.0
220
0.0
230
1.0
100
AcDbArc
 50
209.9406
 51
330.059397
  0
LINE
  5
2E7
100
AcDbEntity
  8
1
  6
CONTINUOUS
 62
     6
100
AcDbLine
 10
182.8191
 20
92.8292
 30
0.0
 11
183.5691
 21
90.4292
 31
0.0
  0
LINE
  5
2E8
100
AcDbEntity
  8
1
  6
CONTINUOUS
 62
     6
100
AcDbLine
 10
183.5691
 20
90.4292
 30
0.0
 11
184.3191
 21
92.8292
 31
0.0
  0
POLYLINE
  5
2E9
100
AcDbEntity
  8
1
  6
CONTINUOUS
 62
     6
100
AcDb2dPolyline
 66
     1
 10
0.0
 20
0.0
 30
0.0
 70
     1
  0
VERTEX
  5
2EA
100
AcDbEntity
  8
1
  6
CONTINUOUS
 62
     6
100
AcDbVertex
100
AcDb2dVertex
 10
182.2191
 20
114.7292
 30
0.0
  0
VERTEX
  5
2EB
100
AcDbEntity
  8
1
  6
CONTINUOUS
 62
     6
100
AcDbVertex
100
AcDb2dVertex
 10
182.2191
 20
117.4292
 30
0.0
  0
VERTEX
  5
2EC
100
AcDbEntity
  8
1
  6
CONTINUOUS
 62
     6
100
AcDbVertex
100
AcDb2dVertex
 10
184.9191
 20
117.4292
 30
0.0
  0
VERTEX
  5
2ED
100
AcDbEntity
  8
1
  6
CONTINUOUS
 62
     6
100
AcDbVertex
100
AcDb2dVertex
 10
184.9191
 20
114.7292
 30
0.0
  0
VERTEX
  5
2EE
100
AcDbEntity
  8
1
  6
CONTINUOUS
 62
     6
100
AcDbVertex
100
AcDb2dVertex
 10
182.2191
 20
114.7292
 30
0.0
  0
SEQEND
  5
2EF
100
AcDbEntity
  8
1
  6
CONTINUOUS
 62
     6
  0
LINE
  5
2F0
100
AcDbEntity
  8
1
  6
CONTINUOUS
 62
     6
100
AcDbLine
 10
208.9191
 20
135.4292
 30
0.0
 11
210.4191
 21
135.4292
 31
0.0
  0
LINE
  5
2F1
100
AcDbEntity
  8
1
  6
DASHED
 62
     6
100
AcDbLine
 10
208.9191
 20
135.4292
 30
0.0
 11
208.9191
 21
110.8292
 31
0.0
  0
LINE
  5
2F2
100
AcDbEntity
  8
1
  6
DASHED
 62
     6
100
AcDbLine
 10
210.4191
 20
135.4292
 30
0.0
 11
210.4191
 21
110.8292
 31
0.0
  0
LINE
  5
2F3
100
AcDbEntity
  8
1
  6
CONTINUOUS
 62
     6
100
AcDbLine
 10
208.9191
 20
135.4292
 30
0.0
 11
210.4191
 21
135.4292
 31
0.0
  0
LINE
  5
2F4
100
AcDbEntity
  8
1
  6
DASHED
 62
     6
100
AcDbLine
 10
208.9191
 20
108.4292
 30
0.0
 11
208.9191
 21
92.8292
 31
0.0
  0
LINE
  5
2F5
100
AcDbEntity
  8
1
  6
DASHED
 62
     6
100
AcDbLine
 10
210.4191
 20
108.4292
 30
0.0
 11
210.4191
 21
92.8292
 31
0.0
  0
ARC
  5
2F6
100
AcDbEntity
  8
1
  6
CONTINUOUS
 62
     6
100
AcDbCircle
 10
209.2941
 20
108.213212
 30
0.0
 40
0.432754
210
0.0
220
0.0
230
1.0
100
AcDbArc
 50
29.9406
 51
150.059397
  0
ARC
  5
2F7
100
AcDbEntity
  8
1
  6
CONTINUOUS
 62
     6
100
AcDbCircle
 10
209.2941
 20
111.045188
 30
0.0
 40
0.432754
210
0.0
220
0.0
230
1.0
100
AcDbArc
 50
209.940603
 51
330.0594
  0
ARC
  5
2F8
100
AcDbEntity
  8
1
  6
CONTINUOUS
 62
     6
100
AcDbCircle
 10
210.0441
 20
111.045188
 30
0.0
 40
0.432754
210
0.0
220
0.0
230
1.0
100
AcDbArc
 50
209.940603
 51
330.0594
  0
ARC
  5
2F9
100
AcDbEntity
  8
1
  6
CONTINUOUS
 62
     6
100
AcDbCircle
 10
210.0441
 20
110.613212
 30
0.0
 40
0.432754
210
0.0
220
0.0
230
1.0
100
AcDbArc
 50
29.9406
 51
150.059397
  0
ARC
  5
2FA
100
AcDbEntity
  8
1
  6
CONTINUOUS
 62
     6
100
AcDbCircle
 10
210.0441
 20
108.213212
 30
0.0
 40
0.432754
210
0.0
220
0.0
230
1.0
100
AcDbArc
 50
29.9406
 51
150.059397
  0
ARC
  5
2FB
100
AcDbEntity
  8
1
  6
CONTINUOUS
 62
     6
100
AcDbCircle
 10
209.2941
 20
108.645188
 30
0.0
 40
0.432754
210
0.0
220
0.0
230
1.0
100
AcDbArc
 50
209.940603
 51
330.0594
  0
LINE
  5
2FC
100
AcDbEntity
  8
1
  6
CONTINUOUS
 62
     6
100
AcDbLine
 10
208.9191
 20
92.8292
 30
0.0
 11
209.6691
 21
90.4292
 31
0.0
  0
LINE
  5
2FD
100
AcDbEntity
  8
1
  6
CONTINUOUS
 62
     6
100
AcDbLine
 10
209.6691
 20
90.4292
 30
0.0
 11
210.4191
 21
92.8292
 31
0.0
  0
POLYLINE
  5
2FE
100
AcDbEntity
  8
1
  6
CONTINUOUS
 62
     6
100
AcDb2dPolyline
 66
     1
 10
0.0
 20
0.0
 30
0.0
 70
     1
  0
VERTEX
  5
2FF
100
AcDbEntity
  8
1
  6
CONTINUOUS
 62
     6
100
AcDbVertex
100
AcDb2dVertex
 10
208.3191
 20
112.0292
 30
0.0
  0
VERTEX
  5
300
100
AcDbEntity
  8
1
  6
CONTINUOUS
 62
     6
100
AcDbVertex
100
AcDb2dVertex
 10
208.3191
 20
114.7292
 30
0.0
  0
VERTEX
  5
301
100
AcDbEntity
  8
1
  6
CONTINUOUS
 62
     6
100
AcDbVertex
100
AcDb2dVertex
 10
211.0191
 20
114.7292
 30
0.0
  0
VERTEX
  5
302
100
AcDbEntity
  8
1
  6
CONTINUOUS
 62
     6
100
AcDbVertex
100
AcDb2dVertex
 10
211.0191
 20
112.0292
 30
0.0
  0
VERTEX
  5
303
100
AcDbEntity
  8
1
  6
CONTINUOUS
 62
     6
100
AcDbVertex
100
AcDb2dVertex
 10
208.3191
 20
112.0292
 30
0.0
  0
SEQEND
  5
304
100
AcDbEntity
  8
1
  6
CONTINUOUS
 62
     6
  0
LINE
  5
305
100
AcDbEntity
  8
1
  6
DASHED
 62
     6
100
AcDbLine
 10
167.8191
 20
130.6292
 30
0.0
 11
226.6191
 21
130.6292
 31
0.0
  0
LINE
  5
306
100
AcDbEntity
  8
1
  6
DASHED
 62
     6
100
AcDbLine
 10
233.2191
 20
130.6292
 30
0.0
 11
293.2191
 21
130.6292
 31
0.0
  0
LINE
  5
307
100
AcDbEntity
  8
1
  6
DASHED
 62
     6
100
AcDbLine
 10
181.6191
 20
131.8292
 30
0.0
 11
181.6191
 21
118.6292
 31
0.0
  0
LINE
  5
308
100
AcDbEntity
  8
1
  6
DASHED
 62
     6
100
AcDbLine
 10
211.6191
 20
131.8292
 30
0.0
 11
211.6191
 21
118.6292
 31
0.0
  0
LINE
  5
309
100
AcDbEntity
  8
1
  6
CONTINUOUS
 62
     6
100
AcDbLine
 10
239.8191
 20
135.4292
 30
0.0
 11
241.3191
 21
135.4292
 31
0.0
  0
LINE
  5
30A
100
AcDbEntity
  8
1
  6
DASHED
 62
     6
100
AcDbLine
 10
239.8191
 20
135.4292
 30
0.0
 11
239.8191
 21
107.2292
 31
0.0
  0
LINE
  5
30B
100
AcDbEntity
  8
1
  6
DASHED
 62
     6
100
AcDbLine
 10
241.3191
 20
135.4292
 30
0.0
 11
241.3191
 21
107.2292
 31
0.0
  0
LINE
  5
30C
100
AcDbEntity
  8
1
  6
DASHED
 62
     6
100
AcDbLine
 10
239.8191
 20
104.8292
 30
0.0
 11
239.8191
 21
92.8292
 31
0.0
  0
LINE
  5
30D
100
AcDbEntity
  8
1
  6
DASHED
 62
     6
100
AcDbLine
 10
241.3191
 20
104.8292
 30
0.0
 11
241.3191
 21
92.8292
 31
0.0
  0
LINE
  5
30E
100
AcDbEntity
  8
1
  6
CONTINUOUS
 62
     6
100
AcDbLine
 10
239.8191
 20
92.8292
 30
0.0
 11
240.5691
 21
90.4292
 31
0.0
  0
LINE
  5
30F
100
AcDbEntity
  8
1
  6
CONTINUOUS
 62
     6
100
AcDbLine
 10
240.5691
 20
90.4292
 30
0.0
 11
241.3191
 21
92.8292
 31
0.0
  0
LINE
  5
310
100
AcDbEntity
  8
1
  6
DASHED
 62
     6
100
AcDbLine
 10
242.5191
 20
135.4292
 30
0.0
 11
242.5191
 21
109.0292
 31
0.0
  0
LINE
  5
311
100
AcDbEntity
  8
1
  6
DASHED
 62
     6
100
AcDbLine
 10
244.0191
 20
135.4292
 30
0.0
 11
244.0191
 21
109.0292
 31
0.0
  0
LINE
  5
312
100
AcDbEntity
  8
1
  6
DASHED
 62
     6
100
AcDbLine
 10
242.5191
 20
106.6292
 30
0.0
 11
242.5191
 21
92.8292
 31
0.0
  0
LINE
  5
313
100
AcDbEntity
  8
1
  6
DASHED
 62
     6
100
AcDbLine
 10
244.0191
 20
106.6292
 30
0.0
 11
244.0191
 21
92.8292
 31
0.0
  0
LINE
  5
314
100
AcDbEntity
  8
1
  6
CONTINUOUS
 62
     6
100
AcDbLine
 10
242.5191
 20
92.8292
 30
0.0
 11
243.2691
 21
90.4292
 31
0.0
  0
LINE
  5
315
100
AcDbEntity
  8
1
  6
CONTINUOUS
 62
     6
100
AcDbLine
 10
243.2691
 20
90.4292
 30
0.0
 11
244.0191
 21
92.8292
 31
0.0
  0
ARC
  5
316
100
AcDbEntity
  8
1
  6
CONTINUOUS
 62
     6
100
AcDbCircle
 10
240.9441
 20
107.445188
 30
0.0
 40
0.432754
210
0.0
220
0.0
230
1.0
100
AcDbArc
 50
209.9406
 51
330.059397
  0
ARC
  5
317
100
AcDbEntity
  8
1
  6
CONTINUOUS
 62
     6
100
AcDbCircle
 10
240.9441
 20
104.613212
 30
0.0
 40
0.432754
210
0.0
220
0.0
230
1.0
100
AcDbArc
 50
29.940603
 51
150.0594
  0
ARC
  5
318
100
AcDbEntity
  8
1
  6
CONTINUOUS
 62
     6
100
AcDbCircle
 10
240.1941
 20
107.445188
 30
0.0
 40
0.432754
210
0.0
220
0.0
230
1.0
100
AcDbArc
 50
209.9406
 51
330.059397
  0
ARC
  5
319
100
AcDbEntity
  8
1
  6
CONTINUOUS
 62
     6
100
AcDbCircle
 10
240.1941
 20
107.013212
 30
0.0
 40
0.432754
210
0.0
220
0.0
230
1.0
100
AcDbArc
 50
29.940603
 51
150.0594
  0
ARC
  5
31A
100
AcDbEntity
  8
1
  6
CONTINUOUS
 62
     6
100
AcDbCircle
 10
240.1941
 20
104.613212
 30
0.0
 40
0.432754
210
0.0
220
0.0
230
1.0
100
AcDbArc
 50
29.940603
 51
150.0594
  0
ARC
  5
31B
100
AcDbEntity
  8
1
  6
CONTINUOUS
 62
     6
100
AcDbCircle
 10
240.9441
 20
105.045188
 30
0.0
 40
0.432754
210
0.0
220
0.0
230
1.0
100
AcDbArc
 50
209.9406
 51
330.059397
  0
POLYLINE
  5
31C
100
AcDbEntity
  8
1
  6
CONTINUOUS
 62
     6
100
AcDb2dPolyline
 66
     1
 10
0.0
 20
0.0
 30
0.0
 70
     1
  0
VERTEX
  5
31D
100
AcDbEntity
  8
1
  6
CONTINUOUS
 62
     6
100
AcDbVertex
100
AcDb2dVertex
 10
239.2191
 20
114.7292
 30
0.0
  0
VERTEX
  5
31E
100
AcDbEntity
  8
1
  6
CONTINUOUS
 62
     6
100
AcDbVertex
100
AcDb2dVertex
 10
239.2191
 20
117.4292
 30
0.0
  0
VERTEX
  5
31F
100
AcDbEntity
  8
1
  6
CONTINUOUS
 62
     6
100
AcDbVertex
100
AcDb2dVertex
 10
241.9191
 20
117.4292
 30
0.0
  0
VERTEX
  5
320
100
AcDbEntity
  8
1
  6
CONTINUOUS
 62
     6
100
AcDbVertex
100
AcDb2dVertex
 10
241.9191
 20
114.7292
 30
0.0
  0
VERTEX
  5
321
100
AcDbEntity
  8
1
  6
CONTINUOUS
 62
     6
100
AcDbVertex
100
AcDb2dVertex
 10
239.2191
 20
114.7292
 30
0.0
  0
SEQEND
  5
322
100
AcDbEntity
  8
1
  6
CONTINUOUS
 62
     6
  0
ARC
  5
323
100
AcDbEntity
  8
1
  6
CONTINUOUS
 62
     6
100
AcDbCircle
 10
243.6441
 20
109.245188
 30
0.0
 40
0.432754
210
0.0
220
0.0
230
1.0
100
AcDbArc
 50
209.9406
 51
330.059397
  0
ARC
  5
324
100
AcDbEntity
  8
1
  6
CONTINUOUS
 62
     6
100
AcDbCircle
 10
243.6441
 20
106.413212
 30
0.0
 40
0.432754
210
0.0
220
0.0
230
1.0
100
AcDbArc
 50
29.940603
 51
150.0594
  0
ARC
  5
325
100
AcDbEntity
  8
1
  6
CONTINUOUS
 62
     6
100
AcDbCircle
 10
242.8941
 20
109.245188
 30
0.0
 40
0.432754
210
0.0
220
0.0
230
1.0
100
AcDbArc
 50
209.9406
 51
330.059397
  0
ARC
  5
326
100
AcDbEntity
  8
1
  6
CONTINUOUS
 62
     6
100
AcDbCircle
 10
242.8941
 20
108.813212
 30
0.0
 40
0.432754
210
0.0
220
0.0
230
1.0
100
AcDbArc
 50
29.940603
 51
150.0594
  0
ARC
  5
327
100
AcDbEntity
  8
1
  6
CONTINUOUS
 62
     6
100
AcDbCircle
 10
242.8941
 20
106.413212
 30
0.0
 40
0.432754
210
0.0
220
0.0
230
1.0
100
AcDbArc
 50
29.940603
 51
150.0594
  0
ARC
  5
328
100
AcDbEntity
  8
1
  6
CONTINUOUS
 62
     6
100
AcDbCircle
 10
243.6441
 20
106.845188
 30
0.0
 40
0.432754
210
0.0
220
0.0
230
1.0
100
AcDbArc
 50
209.9406
 51
330.059397
  0
POLYLINE
  5
329
100
AcDbEntity
  8
1
  6
CONTINUOUS
 62
     6
100
AcDb2dPolyline
 66
     1
 10
0.0
 20
0.0
 30
0.0
 70
     1
  0
VERTEX
  5
32A
100
AcDbEntity
  8
1
  6
CONTINUOUS
 62
     6
100
AcDbVertex
100
AcDb2dVertex
 10
241.9191
 20
114.1292
 30
0.0
  0
VERTEX
  5
32B
100
AcDbEntity
  8
1
  6
CONTINUOUS
 62
     6
100
AcDbVertex
100
AcDb2dVertex
 10
244.6191
 20
114.1292
 30
0.0
  0
VERTEX
  5
32C
100
AcDbEntity
  8
1
  6
CONTINUOUS
 62
     6
100
AcDbVertex
100
AcDb2dVertex
 10
244.6191
 20
111.4292
 30
0.0
  0
VERTEX
  5
32D
100
AcDbEntity
  8
1
  6
CONTINUOUS
 62
     6
100
AcDbVertex
100
AcDb2dVertex
 10
241.9191
 20
111.4292
 30
0.0
  0
VERTEX
  5
32E
100
AcDbEntity
  8
1
  6
CONTINUOUS
 62
     6
100
AcDbVertex
100
AcDb2dVertex
 10
241.9191
 20
114.1292
 30
0.0
  0
SEQEND
  5
32F
100
AcDbEntity
  8
1
  6
CONTINUOUS
 62
     6
  0
LINE
  5
330
100
AcDbEntity
  8
1
  6
CONTINUOUS
 62
     6
100
AcDbLine
 10
263.3363
 20
135.1292
 30
0.0
 11
263.3363
 21
133.9292
 31
0.0
  0
LINE
  5
331
100
AcDbEntity
  8
1
  6
CONTINUOUS
 62
     6
100
AcDbLine
 10
267.5363
 20
135.1292
 30
0.0
 11
267.5363
 21
133.9292
 31
0.0
  0
LINE
  5
332
100
AcDbEntity
  8
1
  6
CONTINUOUS
 62
     6
100
AcDbLine
 10
268.1363
 20
135.1292
 30
0.0
 11
268.1363
 21
133.9292
 31
0.0
  0
LINE
  5
333
100
AcDbEntity
  8
1
  6
CONTINUOUS
 62
     6
100
AcDbLine
 10
272.3363
 20
135.1292
 30
0.0
 11
272.3363
 21
133.9292
 31
0.0
  0
LINE
  5
334
100
AcDbEntity
  8
1
  6
CONTINUOUS
 62
     6
100
AcDbLine
 10
272.9363
 20
135.1292
 30
0.0
 11
272.9363
 21
133.9292
 31
0.0
  0
LINE
  5
335
100
AcDbEntity
  8
1
  6
CONTINUOUS
 62
     6
100
AcDbLine
 10
277.1363
 20
135.1292
 30
0.0
 11
277.1363
 21
133.9292
 31
0.0
  0
LINE
  5
336
100
AcDbEntity
  8
1
  6
CONTINUOUS
 62
     6
100
AcDbLine
 10
277.7363
 20
135.1292
 30
0.0
 11
277.7363
 21
133.9292
 31
0.0
  0
LINE
  5
337
100
AcDbEntity
  8
1
  6
CONTINUOUS
 62
     6
100
AcDbLine
 10
281.9363
 20
135.1292
 30
0.0
 11
281.9363
 21
133.9292
 31
0.0
  0
LINE
  5
338
100
AcDbEntity
  8
1
  6
DASHED
 62
     6
100
AcDbLine
 10
263.3363
 20
135.1292
 30
0.0
 11
267.5363
 21
135.1292
 31
0.0
  0
LINE
  5
339
100
AcDbEntity
  8
1
  6
DASHED
 62
     6
100
AcDbLine
 10
263.9363
 20
133.9292
 30
0.0
 11
266.9363
 21
133.9292
 31
0.0
  0
LINE
  5
33A
100
AcDbEntity
  8
1
  6
DASHED
 62
     6
100
AcDbLine
 10
268.1363
 20
135.1292
 30
0.0
 11
272.3363
 21
135.1292
 31
0.0
  0
LINE
  5
33B
100
AcDbEntity
  8
1
  6
DASHED
 62
     6
100
AcDbLine
 10
268.7363
 20
133.9292
 30
0.0
 11
271.7363
 21
133.9292
 31
0.0
  0
LINE
  5
33C
100
AcDbEntity
  8
1
  6
DASHED
 62
     6
100
AcDbLine
 10
272.9363
 20
135.1292
 30
0.0
 11
277.1363
 21
135.1292
 31
0.0
  0
LINE
  5
33D
100
AcDbEntity
  8
1
  6
DASHED
 62
     6
100
AcDbLine
 10
273.5363
 20
133.9292
 30
0.0
 11
276.5363
 21
133.9292
 31
0.0
  0
LINE
  5
33E
100
AcDbEntity
  8
1
  6
DASHED
 62
     6
100
AcDbLine
 10
277.7363
 20
135.1292
 30
0.0
 11
281.9363
 21
135.1292
 31
0.0
  0
LINE
  5
33F
100
AcDbEntity
  8
1
  6
DASHED
 62
     6
100
AcDbLine
 10
278.3363
 20
133.9292
 30
0.0
 11
281.3363
 21
133.9292
 31
0.0
  0
LINE
  5
340
100
AcDbEntity
  8
1
  6
DASHED
 62
     6
100
AcDbLine
 10
263.9363
 20
133.9292
 30
0.0
 11
263.9363
 21
91.6292
 31
0.0
  0
LINE
  5
341
100
AcDbEntity
  8
1
  6
DASHED
 62
     6
100
AcDbLine
 10
266.9363
 20
133.9292
 30
0.0
 11
266.9363
 21
91.6292
 31
0.0
  0
LINE
  5
342
100
AcDbEntity
  8
1
  6
DASHED
 62
     6
100
AcDbLine
 10
268.7363
 20
133.9292
 30
0.0
 11
268.7363
 21
91.6292
 31
0.0
  0
LINE
  5
343
100
AcDbEntity
  8
1
  6
DASHED
 62
     6
100
AcDbLine
 10
271.7363
 20
133.9292
 30
0.0
 11
271.7363
 21
91.6292
 31
0.0
  0
LINE
  5
344
100
AcDbEntity
  8
1
  6
DASHED
 62
     6
100
AcDbLine
 10
273.5363
 20
133.9292
 30
0.0
 11
273.5363
 21
91.6292
 31
0.0
  0
LINE
  5
345
100
AcDbEntity
  8
1
  6
DASHED
 62
     6
100
AcDbLine
 10
276.5363
 20
133.9292
 30
0.0
 11
276.5363
 21
91.6292
 31
0.0
  0
LINE
  5
346
100
AcDbEntity
  8
1
  6
DASHED
 62
     6
100
AcDbLine
 10
278.3363
 20
133.9292
 30
0.0
 11
278.3363
 21
91.6292
 31
0.0
  0
LINE
  5
347
100
AcDbEntity
  8
1
  6
DASHED
 62
     6
100
AcDbLine
 10
281.3363
 20
133.9292
 30
0.0
 11
281.3363
 21
91.6292
 31
0.0
  0
ARC
  5
348
100
AcDbEntity
  8
1
  6
CONTINUOUS
 62
     6
100
AcDbCircle
 10
264.6863
 20
92.013424
 30
0.0
 40
0.842691
210
0.0
220
0.0
230
1.0
100
AcDbArc
 50
207.125994
 51
332.874006
  0
ARC
  5
349
100
AcDbEntity
  8
1
  6
CONTINUOUS
 62
     6
100
AcDbCircle
 10
266.1863
 20
92.013424
 30
0.0
 40
0.842691
210
0.0
220
0.0
230
1.0
100
AcDbArc
 50
207.125994
 51
332.874006
  0
ARC
  5
34A
100
AcDbEntity
  8
1
  6
CONTINUOUS
 62
     6
100
AcDbCircle
 10
269.4863
 20
92.013424
 30
0.0
 40
0.842691
210
0.0
220
0.0
230
1.0
100
AcDbArc
 50
207.125994
 51
332.874006
  0
ARC
  5
34B
100
AcDbEntity
  8
1
  6
CONTINUOUS
 62
     6
100
AcDbCircle
 10
270.9863
 20
92.013424
 30
0.0
 40
0.842691
210
0.0
220
0.0
230
1.0
100
AcDbArc
 50
207.125994
 51
332.874006
  0
ARC
  5
34C
100
AcDbEntity
  8
1
  6
CONTINUOUS
 62
     6
100
AcDbCircle
 10
274.2863
 20
92.013424
 30
0.0
 40
0.842691
210
0.0
220
0.0
230
1.0
100
AcDbArc
 50
207.125994
 51
332.874006
  0
ARC
  5
34D
100
AcDbEntity
  8
1
  6
CONTINUOUS
 62
     6
100
AcDbCircle
 10
275.7863
 20
92.013424
 30
0.0
 40
0.842691
210
0.0
220
0.0
230
1.0
100
AcDbArc
 50
207.125994
 51
332.874006
  0
ARC
  5
34E
100
AcDbEntity
  8
1
  6
CONTINUOUS
 62
     6
100
AcDbCircle
 10
279.0863
 20
92.013424
 30
0.0
 40
0.842691
210
0.0
220
0.0
230
1.0
100
AcDbArc
 50
207.125994
 51
332.874006
  0
ARC
  5
34F
100
AcDbEntity
  8
1
  6
CONTINUOUS
 62
     6
100
AcDbCircle
 10
280.5863
 20
92.013424
 30
0.0
 40
0.842691
210
0.0
220
0.0
230
1.0
100
AcDbArc
 50
207.125994
 51
332.874006
  0
ARC
  5
350
100
AcDbEntity
  8
1
  6
CONTINUOUS
 62
     6
100
AcDbCircle
 10
266.1863
 20
91.244976
 30
0.0
 40
0.842691
210
0.0
220
0.0
230
1.0
100
AcDbArc
 50
27.125994
 51
152.874006
  0
ARC
  5
351
100
AcDbEntity
  8
1
  6
CONTINUOUS
 62
     6
100
AcDbCircle
 10
270.9863
 20
91.244976
 30
0.0
 40
0.842691
210
0.0
220
0.0
230
1.0
100
AcDbArc
 50
27.125994
 51
152.874006
  0
ARC
  5
352
100
AcDbEntity
  8
1
  6
CONTINUOUS
 62
     6
100
AcDbCircle
 10
275.7863
 20
91.244976
 30
0.0
 40
0.842691
210
0.0
220
0.0
230
1.0
100
AcDbArc
 50
27.125994
 51
152.874006
  0
ARC
  5
353
100
AcDbEntity
  8
1
  6
CONTINUOUS
 62
     6
100
AcDbCircle
 10
280.5863
 20
91.244976
 30
0.0
 40
0.842691
210
0.0
220
0.0
230
1.0
100
AcDbArc
 50
27.125994
 51
152.874006
  0
LINE
  5
354
100
AcDbEntity
  8
1
  6
CONTINUOUS
 62
     6
100
AcDbLine
 10
134.5191
 20
100.1386
 30
0.0
 11
152.5191
 21
106.1539
 31
0.0
  0
LINE
  5
355
100
AcDbEntity
  8
1
  6
CONTINUOUS
 62
     6
100
AcDbLine
 10
153.7191
 20
106.5549
 30
0.0
 11
171.7191
 21
112.5702
 31
0.0
  0
LINE
  5
356
100
AcDbEntity
  8
1
  6
CONTINUOUS
 62
     6
100
AcDbLine
 10
172.9191
 20
112.9713
 30
0.0
 11
182.2191
 21
116.0792
 31
0.0
  0
LINE
  5
357
100
AcDbEntity
  8
1
  6
CONTINUOUS
 62
     6
100
AcDbLine
 10
140.2191
 20
118.6292
 30
0.0
 11
192.1191
 21
118.6292
 31
0.0
  0
LINE
  5
358
100
AcDbEntity
  8
1
  6
CONTINUOUS
 62
     6
100
AcDbLine
 10
184.9191
 20
116.0792
 30
0.0
 11
190.9191
 21
116.0792
 31
0.0
  0
LINE
  5
359
100
AcDbEntity
  8
1
  6
CONTINUOUS
 62
     6
100
AcDbLine
 10
184.9191
 20
116.0792
 30
0.0
 11
190.9191
 21
115.3869
 31
0.0
  0
LINE
  5
35A
100
AcDbEntity
  8
1
  6
CONTINUOUS
 62
     6
100
AcDbLine
 10
192.1191
 20
115.2484
 30
0.0
 11
208.3191
 21
113.3792
 31
0.0
  0
LINE
  5
35B
100
AcDbEntity
  8
1
  6
CONTINUOUS
 62
     6
100
AcDbLine
 10
192.1191
 20
118.6292
 30
0.0
 11
211.3191
 21
118.6292
 31
0.0
  0
LINE
  5
35C
100
AcDbEntity
  8
1
  6
CONTINUOUS
 62
     6
100
AcDbLine
 10
192.1191
 20
116.0792
 30
0.0
 11
210.1191
 21
116.0792
 31
0.0
  0
LINE
  5
35D
100
AcDbEntity
  8
1
  6
CONTINUOUS
 62
     6
100
AcDbLine
 10
211.3191
 20
118.6292
 30
0.0
 11
230.5191
 21
118.6292
 31
0.0
  0
LINE
  5
35E
100
AcDbEntity
  8
1
  6
CONTINUOUS
 62
     6
100
AcDbLine
 10
211.3191
 20
116.0792
 30
0.0
 11
229.3191
 21
116.0792
 31
0.0
  0
LINE
  5
35F
100
AcDbEntity
  8
1
  6
CONTINUOUS
 62
     6
100
AcDbLine
 10
230.5191
 20
116.0792
 30
0.0
 11
241.9191
 21
116.0792
 31
0.0
  0
LINE
  5
360
100
AcDbEntity
  8
1
  6
CONTINUOUS
 62
     6
100
AcDbLine
 10
208.3191
 20
113.3792
 30
0.0
 11
229.3191
 21
113.3792
 31
0.0
  0
LINE
  5
361
100
AcDbEntity
  8
1
  6
CONTINUOUS
 62
     6
100
AcDbLine
 10
230.5191
 20
113.3792
 30
0.0
 11
244.6191
 21
113.3792
 31
0.0
  0
LINE
  5
362
100
AcDbEntity
  8
1
  6
CONTINUOUS
 62
     6
100
AcDbLine
 10
241.9191
 20
116.0792
 30
0.0
 11
248.5191
 21
114.7069
 31
0.0
  0
LINE
  5
363
100
AcDbEntity
  8
1
  6
CONTINUOUS
 62
     6
100
AcDbLine
 10
244.6191
 20
112.7792
 30
0.0
 11
248.5191
 21
112.0272
 31
0.0
  0
LINE
  5
364
100
AcDbEntity
  8
1
  6
CONTINUOUS
 62
     6
100
AcDbLine
 10
249.7191
 20
114.4573
 30
0.0
 11
267.7191
 21
110.7145
 31
0.0
  0
LINE
  5
365
100
AcDbEntity
  8
1
  6
CONTINUOUS
 62
     6
100
AcDbLine
 10
249.7191
 20
111.7959
 30
0.0
 11
267.7191
 21
108.3252
 31
0.0
  0
LINE
  5
366
100
AcDbEntity
  8
1
  6
CONTINUOUS
 62
     6
100
AcDbLine
 10
268.9191
 20
110.4649
 30
0.0
 11
286.9191
 21
106.722
 31
0.0
  0
LINE
  5
367
100
AcDbEntity
  8
1
  6
CONTINUOUS
 62
     6
100
AcDbLine
 10
268.9191
 20
108.0939
 30
0.0
 11
286.9191
 21
104.6234
 31
0.0
  0
LINE
  5
368
100
AcDbEntity
  8
1
  6
CONTINUOUS
 62
     6
100
AcDbLine
 10
288.1191
 20
104.392
 30
0.0
 11
307.3191
 21
100.69
 31
0.0
  0
LINE
  5
369
100
AcDbEntity
  8
1
  6
CONTINUOUS
 62
     6
100
AcDbLine
 10
288.1191
 20
106.4726
 30
0.0
 11
306.1191
 21
102.7297
 31
0.0
  0
LINE
  5
36A
100
AcDbEntity
  8
1
  6
CONTINUOUS
 62
     6
100
AcDbLine
 10
171.7191
 20
106.0721
 30
0.0
 11
153.7191
 21
102.4785
 31
0.0
  0
LINE
  5
36B
100
AcDbEntity
  8
1
  6
CONTINUOUS
 62
     6
100
AcDbLine
 10
208.3191
 20
113.3792
 30
0.0
 11
192.1191
 21
110.1449
 31
0.0
  0
LINE
  5
36C
100
AcDbEntity
  8
1
  6
CONTINUOUS
 62
     6
100
AcDbLine
 10
190.9191
 20
109.9054
 30
0.0
 11
172.9191
 21
106.3117
 31
0.0
  0
LINE
  5
36D
100
AcDbEntity
  8
1
  6
CONTINUOUS
 62
     6
100
AcDbLine
 10
260.9363
 20
100.0292
 30
0.0
 11
260.9363
 21
91.6292
 31
0.0
  0
ARC
  5
36E
100
AcDbEntity
  8
1
  6
CONTINUOUS
 62
     6
100
AcDbCircle
 10
243.206945
 20
94.155735
 30
0.0
 40
18.676927
210
0.0
220
0.0
230
1.0
100
AcDbArc
 50
44.634625
 51
85.663753
  0
ARC
  5
36F
100
AcDbEntity
  8
1
  6
CONTINUOUS
 62
     6
100
AcDbCircle
 10
243.206945
 20
94.155735
 30
0.0
 40
18.676927
210
0.0
220
0.0
230
1.0
100
AcDbArc
 50
18.329247
 51
40.576022
  0
POLYLINE
  5
370
100
AcDbEntity
  8
1
  6
CONTINUOUS
 62
     6
100
AcDb2dPolyline
 66
     1
 10
0.0
 20
0.0
 30
0.0
 70
     1
  0
VERTEX
  5
371
100
AcDbEntity
  8
1
  6
CONTINUOUS
 62
     6
100
AcDbVertex
100
AcDb2dVertex
 10
128.0364
 20
99.0792
 30
0.0
  0
VERTEX
  5
372
100
AcDbEntity
  8
1
  6
CONTINUOUS
 62
     6
100
AcDbVertex
100
AcDb2dVertex
 10
130.0281
 20
99.7447
 30
0.0
  0
VERTEX
  5
373
100
AcDbEntity
  8
1
  6
CONTINUOUS
 62
     6
100
AcDbVertex
100
AcDb2dVertex
 10
130.6936
 20
97.753
 30
0.0
  0
VERTEX
  5
374
100
AcDbEntity
  8
1
  6
CONTINUOUS
 62
     6
100
AcDbVertex
100
AcDb2dVertex
 10
128.7019
 20
97.0875
 30
0.0
  0
VERTEX
  5
375
100
AcDbEntity
  8
1
  6
CONTINUOUS
 62
     6
100
AcDbVertex
100
AcDb2dVertex
 10
128.0364
 20
99.0792
 30
0.0
  0
SEQEND
  5
376
100
AcDbEntity
  8
1
  6
CONTINUOUS
 62
     6
  0
POLYLINE
  5
377
100
AcDbEntity
  8
1
  6
CONTINUOUS
 62
     6
100
AcDb2dPolyline
 66
     1
 10
0.0
 20
0.0
 30
0.0
 70
     1
  0
VERTEX
  5
378
100
AcDbEntity
  8
1
  6
CONTINUOUS
 62
     6
100
AcDbVertex
100
AcDb2dVertex
 10
144.1196
 20
141.1303
 30
0.0
  0
VERTEX
  5
379
100
AcDbEntity
  8
1
  6
CONTINUOUS
 62
     6
100
AcDbVertex
100
AcDb2dVertex
 10
146.2196
 20
141.1294
 30
0.0
  0
VERTEX
  5
37A
100
AcDbEntity
  8
1
  6
CONTINUOUS
 62
     6
100
AcDbVertex
100
AcDb2dVertex
 10
146.2191
 20
139.0292
 30
0.0
  0
VERTEX
  5
37B
100
AcDbEntity
  8
1
  6
CONTINUOUS
 62
     6
100
AcDbVertex
100
AcDb2dVertex
 10
144.1185
 20
139.0301
 30
0.0
  0
VERTEX
  5
37C
100
AcDbEntity
  8
1
  6
CONTINUOUS
 62
     6
100
AcDbVertex
100
AcDb2dVertex
 10
144.1196
 20
141.1303
 30
0.0
  0
SEQEND
  5
37D
100
AcDbEntity
  8
1
  6
CONTINUOUS
 62
     6
  0
LINE
  5
37E
100
AcDbEntity
  8
1
  6
CONTINUOUS
 62
     6
100
AcDbLine
 10
123.4191
 20
96.4292
 30
0.0
 11
128.3691
 21
98.0834
 31
0.0
  0
LINE
  5
37F
100
AcDbEntity
  8
1
  6
CONTINUOUS
 62
     6
100
AcDbLine
 10
130.3608
 20
98.749
 30
0.0
 11
133.3191
 21
99.7376
 31
0.0
  0
SPLINE
  5
380
100
AcDbEntity
  8
1
  6
CONTINUOUS
 62
     6
100
AcDbSpline
210
0.0
220
0.0
230
1.0
 70
     8
 71
     3
 72
    32
 73
    28
 74
     0
 42
0.0
 43
0.0
 12
0.4921062396176602
 22
0.8705351508867208
 32
0.0
 13
0.670785444542276
 23
0.7416514595079157
 33
0.0
 40
0.0
 40
0.0
 40
0.0
 40
0.0
 40
0.1656327040343342
 40
0.1656327040343342
 40
0.1656327040343342
 40
0.29889879278379
 40
0.29889879278379
 40
0.29889879278379
 40
0.4282485119046021
 40
0.4282485119046021
 40
0.4282485119046021
 40
0.5131788380944093
 40
0.5131788380944093
 40
0.5131788380944093
 40
0.6046804637638255
 40
0.6046804637638255
 40
0.6046804637638255
 40
0.7034459371855417
 40
0.7034459371855417
 40
0.7034459371855417
 40
0.8099388128046133
 40
0.8099388128046133
 40
0.8099388128046133
 40
0.9149778825140563
 40
0.9149778825140563
 40
0.9149778825140563
 40
1.0
 40
1.0
 40
1.0
 40
1.0
 10
130.36080000000001
 20
98.749000000000009
 30
0.0
 10
130.92356666666669
 20
99.744533333333337
 30
0.0
 10
131.48633333333333
 20
100.74006666666666
 30
0.0
 10
132.04910000000001
 20
101.73560000000001
 30
0.0
 10
132.5018953158918
 20
102.53659418968334
 30
0.0
 10
132.75713299190394
 20
103.43358465368136
 30
0.0
 10
133.10599999999999
 20
104.2856
 30
0.0
 10
133.4446146463155
 20
105.11257666576027
 30
0.0
 10
133.77372055146645
 20
105.94298793512242
 30
0.0
 10
134.10079999999999
 20
106.77330000000001
 30
0.0
 10
134.31555859741133
 20
107.31847841235917
 30
0.0
 10
134.14080368357403
 20
107.96831493195705
 30
0.0
 10
134.34950000000001
 20
108.51480000000001
 30
0.0
 10
134.57434374052113
 20
109.10356816295558
 30
0.0
 10
135.36975649457804
 20
109.35555081627922
 30
0.0
 10
135.59290000000001
 20
109.9452
 30
0.0
 10
135.8337577311359
 20
110.58165842745258
 30
0.0
 10
136.03393275774926
 20
111.23642261214103
 30
0.0
 10
136.27690000000001
 20
111.87320000000001
 30
0.0
 10
136.53887697851394
 20
112.55979879624888
 30
0.0
 10
136.79720117830968
 20
113.24649016556526
 30
0.0
 10
137.08510000000001
 20
113.9256
 30
0.0
 10
137.36906852113347
 20
114.59543884907681
 30
0.0
 10
137.71772794340728
 20
115.25353395994604
 30
0.0
 10
138.20420000000001
 20
115.79140000000001
 30
0.0
 10
138.59796666666668
 20
116.22676666666668
 30
0.0
 10
138.99173333333334
 20
116.66213333333333
 30
0.0
 10
139.38550000000001
 20
117.09750000000001
 30
0.0
  0
SPLINE
  5
381
100
AcDbEntity
  8
1
  6
CONTINUOUS
 62
     6
100
AcDbSpline
210
0.0
220
0.0
230
1.0
 70
     8
 71
     3
 72
    41
 73
    37
 74
     0
 42
0.0
 43
0.0
 12
-0.0962829470043603
 22
-0.9953540044206161
 32
0.0
 13
-0.4060627189356642
 23
-0.9138452102465579
 33
0.0
 40
0.0
 40
0.0
 40
0.0
 40
0.0
 40
0.0996716514640063
 40
0.0996716514640063
 40
0.0996716514640063
 40
0.2149225768303719
 40
0.2149225768303719
 40
0.2149225768303719
 40
0.3154178283520709
 40
0.3154178283520709
 40
0.3154178283520709
 40
0.4082803610523816
 40
0.4082803610523816
 40
0.4082803610523816
 40
0.5656156436484533
 40
0.5656156436484533
 40
0.5656156436484533
 40
0.6781717037631602
 40
0.6781717037631602
 40
0.6781717037631602
 40
0.6996351359055298
 40
0.6996351359055298
 40
0.6996351359055298
 40
0.7814107741230298
 40
0.7814107741230298
 40
0.7814107741230298
 40
0.8486884603112176
 40
0.8486884603112176
 40
0.8486884603112176
 40
0.9195255629610302
 40
0.9195255629610302
 40
0.9195255629610302
 40
0.9684844522567684
 40
0.9684844522567684
 40
0.9684844522567684
 40
1.0
 40
1.0
 40
1.0
 40
1.0
 10
145.292
 20
139.05190000000002
 30
0.0
 10
145.22983333333335
 20
138.40923333333333
 30
0.0
 10
145.16766666666669
 20
137.76656666666668
 30
0.0
 10
145.10550000000001
 20
137.12390000000002
 30
0.0
 10
145.03361631236126
 20
136.38078069829766
 30
0.0
 10
145.21657004588042
 20
135.62890426402632
 30
0.0
 10
145.1677
 20
134.88500000000002
 30
0.0
 10
145.12508682759366
 20
134.23633843061356
 30
0.0
 10
144.89550403463198
 20
133.60608933231342
 30
0.0
 10
144.85680000000002
 20
132.95690000000002
 30
0.0
 10
144.82103557703252
 20
132.35701727233072
 30
0.0
 10
144.82707696480864
 20
131.7540283493089
 30
0.0
 10
144.7946
 20
131.1533
 30
0.0
 10
144.73957487536205
 20
130.13549699750158
 30
0.0
 10
144.66385457231434
 20
129.12052648376928
 30
0.0
 10
144.54600000000002
 20
128.10580000000002
 30
0.0
 10
144.46168803826248
 20
127.37987499943709
 30
0.0
 10
144.27606544943222
 20
126.67118704802695
 30
0.0
 10
143.9864
 20
125.99120000000001
 30
0.0
 10
143.93116339424515
 20
125.86153256274125
 30
0.0
 10
143.8680806470658
 20
125.73954372841811
 30
0.0
 10
143.79990000000001
 20
125.61810000000001
 30
0.0
 10
143.54013185616799
 20
125.15539961112326
 30
0.0
 10
143.24585797276856
 20
124.71559220181635
 30
0.0
 10
142.99160000000001
 20
124.24980000000001
 30
0.0
 10
142.782419265057
 20
123.86658780788777
 30
0.0
 10
142.59904199990763
 20
123.47320699803288
 30
0.0
 10
142.43210000000002
 20
123.0681
 30
0.0
 10
142.25632570908661
 20
122.64156027145549
 30
0.0
 10
142.12275021263375
 20
122.20331996271555
 30
0.0
 10
141.99680000000001
 20
121.7621
 30
0.0
 10
141.90974982027154
 20
121.45715190780531
 30
0.0
 10
141.93908379762536
 20
121.11892827314399
 30
0.0
 10
141.81030000000001
 20
120.82910000000001
 30
0.0
 10
141.72740000000002
 20
120.64253333333333
 30
0.0
 10
141.64449999999999
 20
120.45596666666668
 30
0.0
 10
141.5616
 20
120.2694
 30
0.0
  0
POLYLINE
  5
382
100
AcDbEntity
  8
1
  6
CONTINUOUS
 62
     6
100
AcDb2dPolyline
 66
     1
 10
0.0
 20
0.0
 30
0.0
 70
     1
  0
VERTEX
  5
383
100
AcDbEntity
  8
1
  6
CONTINUOUS
 62
     6
100
AcDbVertex
100
AcDb2dVertex
 10
325.1778
 20
99.8389
 30
0.0
  0
VERTEX
  5
384
100
AcDbEntity
  8
1
  6
CONTINUOUS
 62
     6
100
AcDbVertex
100
AcDb2dVertex
 10
327.2339
 20
99.4115
 30
0.0
  0
VERTEX
  5
385
100
AcDbEntity
  8
1
  6
CONTINUOUS
 62
     6
100
AcDbVertex
100
AcDb2dVertex
 10
326.8064
 20
97.3554
 30
0.0
  0
VERTEX
  5
386
100
AcDbEntity
  8
1
  6
CONTINUOUS
 62
     6
100
AcDbVertex
100
AcDb2dVertex
 10
324.7503
 20
97.7828
 30
0.0
  0
VERTEX
  5
387
100
AcDbEntity
  8
1
  6
CONTINUOUS
 62
     6
100
AcDbVertex
100
AcDb2dVertex
 10
325.1778
 20
99.8389
 30
0.0
  0
SEQEND
  5
388
100
AcDbEntity
  8
1
  6
CONTINUOUS
 62
     6
  0
LINE
  5
389
100
AcDbEntity
  8
1
  6
CONTINUOUS
 62
     6
100
AcDbLine
 10
307.3191
 20
102.4801
 30
0.0
 11
324.9641
 21
98.8109
 31
0.0
  0
LINE
  5
38A
100
AcDbEntity
  8
1
  6
CONTINUOUS
 62
     6
100
AcDbLine
 10
327.0201
 20
98.3834
 30
0.0
 11
336.4191
 21
96.429
 31
0.0
  0
SPLINE
  5
38B
100
AcDbEntity
  8
1
  6
CONTINUOUS
 62
     6
100
AcDbSpline
210
0.0
220
0.0
230
1.0
 70
     8
 71
     3
 72
    41
 73
    37
 74
     0
 42
0.0
 43
0.0
 12
-0.2122033572996333
 22
0.9772255293179584
 32
0.0
 13
-0.594714607257422
 23
0.8039368979681492
 33
0.0
 40
0.0
 40
0.0
 40
0.0
 40
0.0
 40
0.1491764499250521
 40
0.1491764499250521
 40
0.1491764499250521
 40
0.2059078699954756
 40
0.2059078699954756
 40
0.2059078699954756
 40
0.2681563500940603
 40
0.2681563500940603
 40
0.2681563500940603
 40
0.344434796135612
 40
0.344434796135612
 40
0.344434796135612
 40
0.4117968992468038
 40
0.4117968992468038
 40
0.4117968992468038
 40
0.4823458567559408
 40
0.4823458567559408
 40
0.4823458567559408
 40
0.5254971496397013
 40
0.5254971496397013
 40
0.5254971496397013
 40
0.5946991578363314
 40
0.5946991578363314
 40
0.5946991578363314
 40
0.6869953010377705
 40
0.6869953010377705
 40
0.6869953010377705
 40
0.7563105777761813
 40
0.7563105777761813
 40
0.7563105777761813
 40
0.8897879186645364
 40
0.8897879186645364
 40
0.8897879186645364
 40
1.0
 40
1.0
 40
1.0
 40
1.0
 10
324.96410000000003
 20
98.810900000000004
 30
0.0
 10
324.76943333333338
 20
99.707366666666672
 30
0.0
 10
324.57476666666668
 20
100.60383333333334
 30
0.0
 10
324.38010000000003
 20
101.50030000000001
 30
0.0
 10
324.30606876755064
 20
101.84122396669414
 30
0.0
 10
324.42819345755419
 20
102.19868938332223
 30
0.0
 10
324.41270000000003
 20
102.54640000000001
 30
0.0
 10
324.39569982297252
 20
102.9279250415989
 30
0.0
 10
324.30437967185503
 20
103.3084028492456
 30
0.0
 10
324.31470000000002
 20
103.6906
 30
0.0
 10
324.32734639059925
 20
104.15893922201609
 30
0.0
 10
324.36178730861678
 20
104.6276940931396
 30
0.0
 10
324.38010000000003
 20
105.0963
 30
0.0
 10
324.3962720835861
 20
105.51012960789801
 30
0.0
 10
324.4147083532801
 20
105.92467044647688
 30
0.0
 10
324.41270000000003
 20
106.3386
 30
0.0
 10
324.41059663291855
 20
106.77211227373462
 30
0.0
 10
324.26336288580313
 20
107.1927120830216
 30
0.0
 10
324.15129999999999
 20
107.61360000000001
 30
0.0
 10
324.08275669932738
 20
107.8710362317745
 30
0.0
 10
323.93722078576349
 20
108.10063028580899
 30
0.0
 10
323.88980000000004
 20
108.36550000000001
 30
0.0
 10
323.81375097838821
 20
108.79027327809996
 30
0.0
 10
323.81509143537329
 20
109.21564496167994
 30
0.0
 10
323.8245
 20
109.6405
 30
0.0
 10
323.83704839636511
 20
110.20713791237422
 30
0.0
 10
323.95607678423886
 20
110.77391315444086
 30
0.0
 10
323.92250000000001
 20
111.3404
 30
0.0
 10
323.89728351737381
 20
111.76583698042616
 30
0.0
 10
323.85863074682561
 20
112.19040392514884
 30
0.0
 10
323.8245
 20
112.61540000000001
 30
0.0
 10
323.75877594113189
 20
113.43379601063999
 30
0.0
 10
324.08385217184446
 20
114.40731450537804
 30
0.0
 10
323.59570000000002
 20
115.0672
 30
0.0
 10
323.19263333333339
 20
115.61206666666668
 30
0.0
 10
322.78956666666664
 20
116.15693333333333
 30
0.0
 10
322.38650000000001
 20
116.70180000000001
 30
0.0
  0
LINE
  5
38C
100
AcDbEntity
  8
1
  6
CONTINUOUS
 62
     6
100
AcDbLine
 10
323.2689
 20
117.6826
 30
0.0
 11
321.3734
 21
115.7538
 31
0.0
  0
LINE
  5
38D
100
AcDbEntity
  8
1
  6
CONTINUOUS
 62
     6
100
AcDbLine
 10
291.8363
 20
118.6292
 30
0.0
 11
320.8191
 21
118.6292
 31
0.0
  0
LINE
  5
38E
100
AcDbEntity
  8
1
  6
CONTINUOUS
 62
     6
100
AcDbLine
 10
230.5191
 20
118.6292
 30
0.0
 11
291.8363
 21
118.6292
 31
0.0
  0
LINE
  5
38F
100
AcDbEntity
  8
1
  6
HIDDEN
 62
     6
100
AcDbLine
 10
291.8363
 20
118.6292
 30
0.0
 11
291.8363
 21
113.8292
 31
0.0
  0
LINE
  5
390
100
AcDbEntity
  8
1
  6
HIDDEN
 62
     6
100
AcDbLine
 10
299.0363
 20
118.6292
 30
0.0
 11
301.3855
 21
118.6292
 31
0.0
  0
CIRCLE
  5
391
100
AcDbEntity
  8
1
  6
CONTINUOUS
 62
     7
100
AcDbCircle
 10
292.196505
 20
113.955281
 30
0.0
 40
0.031752
210
0.0
220
0.0
230
1.0
  0
CIRCLE
  5
392
100
AcDbEntity
  8
1
  6
CONTINUOUS
 62
     7
100
AcDbCircle
 10
292.101047
 20
115.41306
 30
0.0
 40
0.031752
210
0.0
220
0.0
230
1.0
  0
CIRCLE
  5
393
100
AcDbEntity
  8
1
  6
CONTINUOUS
 62
     7
100
AcDbCircle
 10
292.403246
 20
117.417569
 30
0.0
 40
0.031752
210
0.0
220
0.0
230
1.0
  0
CIRCLE
  5
394
100
AcDbEntity
  8
1
  6
CONTINUOUS
 62
     7
100
AcDbCircle
 10
292.379558
 20
116.444446
 30
0.0
 40
0.031752
210
0.0
220
0.0
230
1.0
  0
CIRCLE
  5
395
100
AcDbEntity
  8
1
  6
CONTINUOUS
 62
     7
100
AcDbCircle
 10
292.196505
 20
118.515281
 30
0.0
 40
0.031752
210
0.0
220
0.0
230
1.0
  0
CIRCLE
  5
396
100
AcDbEntity
  8
1
  6
CONTINUOUS
 62
     7
100
AcDbCircle
 10
292.21233
 20
118.13345
 30
0.0
 40
0.031752
210
0.0
220
0.0
230
1.0
  0
LWPOLYLINE
  5
397
100
AcDbEntity
  8
1
  6
CONTINUOUS
 62
     7
100
AcDbPolyline
 90
        4
 70
     0
 10
293.0689
 20
114.9525
 10
292.6129
 20
114.4725
 10
293.3089
 20
114.4245
 10
293.0689
 20
114.9045
  0
LINE
  5
398
100
AcDbEntity
  8
1
  6
CONTINUOUS
 62
     7
100
AcDbLine
 10
296.5489
 20
114.3285
 30
0.0
 11
295.7958
 21
113.9177
 31
0.0
  0
LINE
  5
399
100
AcDbEntity
  8
1
  6
CONTINUOUS
 62
     7
100
AcDbLine
 10
296.8063
 20
113.8775
 30
0.0
 11
296.5009
 21
114.3525
 31
0.0
  0
CIRCLE
  5
39A
100
AcDbEntity
  8
1
  6
CONTINUOUS
 62
     7
100
AcDbCircle
 10
292.539628
 20
115.037066
 30
0.0
 40
0.031752
210
0.0
220
0.0
230
1.0
  0
ARC
  5
39B
100
AcDbEntity
  8
1
  6
CONTINUOUS
 62
     7
100
AcDbCircle
 10
292.476023
 20
113.859823
 30
0.0
 40
0.031752
210
0.0
220
0.0
230
1.0
100
AcDbArc
 50
31.474108
 51
156.624014
  0
CIRCLE
  5
39C
100
AcDbEntity
  8
1
  6
CONTINUOUS
 62
     7
100
AcDbCircle
 10
295.068297
 20
114.162122
 30
0.0
 40
0.031752
210
0.0
220
0.0
230
1.0
  0
CIRCLE
  5
39D
100
AcDbEntity
  8
1
  6
CONTINUOUS
 62
     7
100
AcDbCircle
 10
297.549287
 20
114.448394
 30
0.0
 40
0.031752
210
0.0
220
0.0
230
1.0
  0
CIRCLE
  5
39E
100
AcDbEntity
  8
1
  6
CONTINUOUS
 62
     7
100
AcDbCircle
 10
296.61094
 20
115.180202
 30
0.0
 40
0.031752
210
0.0
220
0.0
230
1.0
  0
CIRCLE
  5
39F
100
AcDbEntity
  8
1
  6
CONTINUOUS
 62
     7
100
AcDbCircle
 10
295.656767
 20
115.100671
 30
0.0
 40
0.031752
210
0.0
220
0.0
230
1.0
  0
CIRCLE
  5
3A0
100
AcDbEntity
  8
1
  6
CONTINUOUS
 62
     7
100
AcDbCircle
 10
294.686668
 20
114.989287
 30
0.0
 40
0.031752
210
0.0
220
0.0
230
1.0
  0
CIRCLE
  5
3A1
100
AcDbEntity
  8
1
  6
CONTINUOUS
 62
     7
100
AcDbCircle
 10
294.145876
 20
114.782546
 30
0.0
 40
0.031752
210
0.0
220
0.0
230
1.0
  0
CIRCLE
  5
3A2
100
AcDbEntity
  8
1
  6
CONTINUOUS
 62
     7
100
AcDbCircle
 10
297.358372
 20
114.703015
 30
0.0
 40
0.031752
210
0.0
220
0.0
230
1.0
  0
LWPOLYLINE
  5
3A3
100
AcDbEntity
  8
1
  6
CONTINUOUS
 62
     7
100
AcDbPolyline
 90
        4
 70
     0
 10
296.0735
 20
118.6292
 10
295.7569
 20
118.4565
 10
296.9329
 20
118.2405
 10
296.683
 20
118.6292
  0
LWPOLYLINE
  5
3A4
100
AcDbEntity
  8
1
  6
CONTINUOUS
 62
     7
100
AcDbPolyline
 90
        3
 70
     0
 10
298.6129
 20
115.9365
 10
298.3249
 20
116.8965
 10
299.1164
 20
116.7341
  0
LINE
  5
3A5
100
AcDbEntity
  8
1
  6
CONTINUOUS
 62
     7
100
AcDbLine
 10
299.0824
 20
116.5133
 30
0.0
 11
298.5889
 21
115.9845
 31
0.0
  0
LWPOLYLINE
  5
3A6
100
AcDbEntity
  8
1
  6
CONTINUOUS
 62
     7
100
AcDbPolyline
 90
        4
 70
     0
 10
293.4049
 20
116.4405
 10
294.6529
 20
116.2965
 10
293.8369
 20
116.0085
 10
293.4049
 20
116.4405
  0
CIRCLE
  5
3A7
100
AcDbEntity
  8
1
  6
CONTINUOUS
 62
     7
100
AcDbCircle
 10
292.476023
 20
118.419823
 30
0.0
 40
0.031752
210
0.0
220
0.0
230
1.0
  0
CIRCLE
  5
3A8
100
AcDbEntity
  8
1
  6
CONTINUOUS
 62
     7
100
AcDbCircle
 10
293.41427
 20
118.212982
 30
0.0
 40
0.031752
210
0.0
220
0.0
230
1.0
  0
CIRCLE
  5
3A9
100
AcDbEntity
  8
1
  6
CONTINUOUS
 62
     7
100
AcDbCircle
 10
294.273086
 20
118.483428
 30
0.0
 40
0.031752
210
0.0
220
0.0
230
1.0
  0
CIRCLE
  5
3AA
100
AcDbEntity
  8
1
  6
CONTINUOUS
 62
     7
100
AcDbCircle
 10
295.481778
 20
117.608484
 30
0.0
 40
0.031752
210
0.0
220
0.0
230
1.0
  0
CIRCLE
  5
3AB
100
AcDbEntity
  8
1
  6
CONTINUOUS
 62
     7
100
AcDbCircle
 10
296.436052
 20
116.415314
 30
0.0
 40
0.031752
210
0.0
220
0.0
230
1.0
  0
CIRCLE
  5
3AC
100
AcDbEntity
  8
1
  6
CONTINUOUS
 62
     7
100
AcDbCircle
 10
296.054322
 20
116.240326
 30
0.0
 40
0.031752
210
0.0
220
0.0
230
1.0
  0
CIRCLE
  5
3AD
100
AcDbEntity
  8
1
  6
CONTINUOUS
 62
     7
100
AcDbCircle
 10
294.114124
 20
117.131196
 30
0.0
 40
0.031752
210
0.0
220
0.0
230
1.0
  0
CIRCLE
  5
3AE
100
AcDbEntity
  8
1
  6
CONTINUOUS
 62
     7
100
AcDbCircle
 10
293.302986
 20
116.86075
 30
0.0
 40
0.031752
210
0.0
220
0.0
230
1.0
  0
CIRCLE
  5
3AF
100
AcDbEntity
  8
1
  6
CONTINUOUS
 62
     7
100
AcDbCircle
 10
292.650911
 20
115.747111
 30
0.0
 40
0.031752
210
0.0
220
0.0
230
1.0
  0
CIRCLE
  5
3B0
100
AcDbEntity
  8
1
  6
CONTINUOUS
 62
     7
100
AcDbCircle
 10
293.621111
 20
115.699433
 30
0.0
 40
0.031752
210
0.0
220
0.0
230
1.0
  0
CIRCLE
  5
3B1
100
AcDbEntity
  8
1
  6
CONTINUOUS
 62
     7
100
AcDbCircle
 10
294.813878
 20
115.603975
 30
0.0
 40
0.031752
210
0.0
220
0.0
230
1.0
  0
CIRCLE
  5
3B2
100
AcDbEntity
  8
1
  6
CONTINUOUS
 62
     7
100
AcDbCircle
 10
296.133854
 20
115.333529
 30
0.0
 40
0.031752
210
0.0
220
0.0
230
1.0
  0
CIRCLE
  5
3B3
100
AcDbEntity
  8
1
  6
CONTINUOUS
 62
     7
100
AcDbCircle
 10
297.278942
 20
115.524343
 30
0.0
 40
0.031752
210
0.0
220
0.0
230
1.0
  0
CIRCLE
  5
3B4
100
AcDbEntity
  8
1
  6
CONTINUOUS
 62
     7
100
AcDbCircle
 10
297.756028
 20
116.208473
 30
0.0
 40
0.031752
210
0.0
220
0.0
230
1.0
  0
CIRCLE
  5
3B5
100
AcDbEntity
  8
1
  6
CONTINUOUS
 62
     7
100
AcDbCircle
 10
297.803706
 20
116.924354
 30
0.0
 40
0.031752
210
0.0
220
0.0
230
1.0
  0
CIRCLE
  5
3B6
100
AcDbEntity
  8
1
  6
CONTINUOUS
 62
     7
100
AcDbCircle
 10
297.962769
 20
117.576631
 30
0.0
 40
0.031752
210
0.0
220
0.0
230
1.0
  0
CIRCLE
  5
3B7
100
AcDbEntity
  8
1
  6
CONTINUOUS
 62
     7
100
AcDbCircle
 10
298.614844
 20
117.863004
 30
0.0
 40
0.031752
210
0.0
220
0.0
230
1.0
  0
CIRCLE
  5
3B8
100
AcDbEntity
  8
1
  6
CONTINUOUS
 62
     7
100
AcDbCircle
 10
298.75798
 20
115.524343
 30
0.0
 40
0.031752
210
0.0
220
0.0
230
1.0
  0
CIRCLE
  5
3B9
100
AcDbEntity
  8
1
  6
CONTINUOUS
 62
     7
100
AcDbCircle
 10
297.819633
 20
118.260761
 30
0.0
 40
0.031752
210
0.0
220
0.0
230
1.0
  0
CIRCLE
  5
3BA
100
AcDbEntity
  8
1
  6
CONTINUOUS
 62
     7
100
AcDbCircle
 10
294.686668
 20
118.43575
 30
0.0
 40
0.031752
210
0.0
220
0.0
230
1.0
  0
CIRCLE
  5
3BB
100
AcDbEntity
  8
1
  6
CONTINUOUS
 62
     7
100
AcDbCircle
 10
295.338642
 20
116.733439
 30
0.0
 40
0.031752
210
0.0
220
0.0
230
1.0
  0
CIRCLE
  5
3BC
100
AcDbEntity
  8
1
  6
CONTINUOUS
 62
     7
100
AcDbCircle
 10
296.388273
 20
117.003886
 30
0.0
 40
0.031752
210
0.0
220
0.0
230
1.0
  0
CIRCLE
  5
3BD
100
AcDbEntity
  8
1
  6
CONTINUOUS
 62
     7
100
AcDbCircle
 10
296.881286
 20
117.210727
 30
0.0
 40
0.031752
210
0.0
220
0.0
230
1.0
  0
CIRCLE
  5
3BE
100
AcDbEntity
  8
1
  6
CONTINUOUS
 62
     7
100
AcDbCircle
 10
297.358473
 20
118.372044
 30
0.0
 40
0.031752
210
0.0
220
0.0
230
1.0
  0
CIRCLE
  5
3BF
100
AcDbEntity
  8
1
  6
CONTINUOUS
 62
     7
100
AcDbCircle
 10
299.060178
 20
118.197055
 30
0.0
 40
0.031752
210
0.0
220
0.0
230
1.0
  0
CIRCLE
  5
3C0
100
AcDbEntity
  8
1
  6
CONTINUOUS
 62
     7
100
AcDbCircle
 10
297.978695
 20
115.699433
 30
0.0
 40
0.031752
210
0.0
220
0.0
230
1.0
  0
CIRCLE
  5
3C1
100
AcDbEntity
  8
1
  6
CONTINUOUS
 62
     7
100
AcDbCircle
 10
292.90533
 20
117.481174
 30
0.0
 40
0.031752
210
0.0
220
0.0
230
1.0
  0
CIRCLE
  5
3C2
100
AcDbEntity
  8
1
  6
CONTINUOUS
 62
     7
100
AcDbCircle
 10
295.004692
 20
117.353964
 30
0.0
 40
0.031752
210
0.0
220
0.0
230
1.0
  0
CIRCLE
  5
3C3
100
AcDbEntity
  8
1
  6
CONTINUOUS
 62
     7
100
AcDbCircle
 10
292.650911
 20
116.463094
 30
0.0
 40
0.031752
210
0.0
220
0.0
230
1.0
  0
CIRCLE
  5
3C4
100
AcDbEntity
  8
1
  6
CONTINUOUS
 62
     7
100
AcDbCircle
 10
296.849534
 20
115.763038
 30
0.0
 40
0.031752
210
0.0
220
0.0
230
1.0
  0
CIRCLE
  5
3C5
100
AcDbEntity
  8
1
  6
CONTINUOUS
 62
     7
100
AcDbCircle
 10
294.177628
 20
117.608484
 30
0.0
 40
0.031752
210
0.0
220
0.0
230
1.0
  0
LINE
  5
3C6
100
AcDbEntity
  8
1
  6
CONTINUOUS
 62
     6
100
AcDbLine
 10
148.0191
 20
195.1292
 30
0.0
 11
148.0191
 21
201.7292
 31
0.0
  0
LINE
  5
3C7
100
AcDbEntity
  8
1
  6
CONTINUOUS
 62
     6
100
AcDbLine
 10
148.6191
 20
195.3092
 30
0.0
 11
148.6191
 21
201.7292
 31
0.0
  0
LINE
  5
3C8
100
AcDbEntity
  8
1
  6
CONTINUOUS
 62
     6
100
AcDbLine
 10
149.2191
 20
195.4292
 30
0.0
 11
149.2191
 21
201.7292
 31
0.0
  0
LINE
  5
3C9
100
AcDbEntity
  8
1
  6
CONTINUOUS
 62
     6
100
AcDbLine
 10
149.8191
 20
195.7292
 30
0.0
 11
149.8191
 21
201.7292
 31
0.0
  0
LINE
  5
3CA
100
AcDbEntity
  8
1
  6
CONTINUOUS
 62
     6
100
AcDbLine
 10
150.4191
 20
198.1292
 30
0.0
 11
150.4191
 21
201.7292
 31
0.0
  0
LINE
  5
3CB
100
AcDbEntity
  8
1
  6
CONTINUOUS
 62
     6
100
AcDbLine
 10
151.0191
 20
198.1292
 30
0.0
 11
151.0191
 21
201.7292
 31
0.0
  0
LINE
  5
3CC
100
AcDbEntity
  8
1
  6
CONTINUOUS
 62
     6
100
AcDbLine
 10
151.6191
 20
199.9292
 30
0.0
 11
151.6191
 21
201.7292
 31
0.0
  0
LINE
  5
3CD
100
AcDbEntity
  8
1
  6
CONTINUOUS
 62
     6
100
AcDbLine
 10
152.2191
 20
200.5292
 30
0.0
 11
152.2191
 21
201.7292
 31
0.0
  0
LINE
  5
3CE
100
AcDbEntity
  8
1
  6
CONTINUOUS
 62
     6
100
AcDbLine
 10
152.8191
 20
201.1292
 30
0.0
 11
152.8191
 21
201.7292
 31
0.0
  0
LINE
  5
3CF
100
AcDbEntity
  8
1
  6
CONTINUOUS
 62
     6
100
AcDbLine
 10
147.4191
 20
201.1292
 30
0.0
 11
152.8191
 21
201.1292
 31
0.0
  0
LINE
  5
3D0
100
AcDbEntity
  8
1
  6
CONTINUOUS
 62
     6
100
AcDbLine
 10
147.4191
 20
200.5292
 30
0.0
 11
152.2191
 21
200.5292
 31
0.0
  0
LINE
  5
3D1
100
AcDbEntity
  8
1
  6
CONTINUOUS
 62
     6
100
AcDbLine
 10
147.4191
 20
199.9292
 30
0.0
 11
151.6191
 21
199.9292
 31
0.0
  0
LINE
  5
3D2
100
AcDbEntity
  8
1
  6
CONTINUOUS
 62
     6
100
AcDbLine
 10
147.4191
 20
199.3292
 30
0.0
 11
151.6191
 21
199.3292
 31
0.0
  0
LINE
  5
3D3
100
AcDbEntity
  8
1
  6
CONTINUOUS
 62
     6
100
AcDbLine
 10
147.4191
 20
198.7292
 30
0.0
 11
151.3191
 21
198.7292
 31
0.0
  0
LINE
  5
3D4
100
AcDbEntity
  8
1
  6
CONTINUOUS
 62
     6
100
AcDbLine
 10
147.4191
 20
198.1292
 30
0.0
 11
151.0191
 21
198.1292
 31
0.0
  0
LINE
  5
3D5
100
AcDbEntity
  8
1
  6
CONTINUOUS
 62
     6
100
AcDbLine
 10
147.4191
 20
197.5292
 30
0.0
 11
150.4191
 21
197.5292
 31
0.0
  0
LINE
  5
3D6
100
AcDbEntity
  8
1
  6
CONTINUOUS
 62
     6
100
AcDbLine
 10
147.4191
 20
196.3292
 30
0.0
 11
150.1191
 21
196.3292
 31
0.0
  0
LINE
  5
3D7
100
AcDbEntity
  8
1
  6
CONTINUOUS
 62
     6
100
AcDbLine
 10
147.4191
 20
195.7292
 30
0.0
 11
149.8191
 21
195.7292
 31
0.0
  0
LINE
  5
3D8
100
AcDbEntity
  8
1
  6
CONTINUOUS
 62
     6
100
AcDbLine
 10
147.4191
 20
196.9292
 30
0.0
 11
150.2391
 21
196.9292
 31
0.0
  0
LINE
  5
3D9
100
AcDbEntity
  8
1
  6
CONTINUOUS
 62
     6
100
AcDbLine
 10
176.8191
 20
196.5479
 30
0.0
 11
176.8191
 21
201.7292
 31
0.0
  0
LINE
  5
3DA
100
AcDbEntity
  8
1
  6
CONTINUOUS
 62
     6
100
AcDbLine
 10
177.4191
 20
196.5804
 30
0.0
 11
177.4191
 21
201.7292
 31
0.0
  0
LINE
  5
3DB
100
AcDbEntity
  8
1
  6
CONTINUOUS
 62
     6
100
AcDbLine
 10
178.0191
 20
196.9292
 30
0.0
 11
178.0191
 21
201.7292
 31
0.0
  0
LINE
  5
3DC
100
AcDbEntity
  8
1
  6
CONTINUOUS
 62
     6
100
AcDbLine
 10
178.6191
 20
197.1979
 30
0.0
 11
178.6191
 21
201.7292
 31
0.0
  0
LINE
  5
3DD
100
AcDbEntity
  8
1
  6
CONTINUOUS
 62
     6
100
AcDbLine
 10
179.2191
 20
197.2954
 30
0.0
 11
179.2191
 21
201.7292
 31
0.0
  0
LINE
  5
3DE
100
AcDbEntity
  8
1
  6
CONTINUOUS
 62
     6
100
AcDbLine
 10
179.8191
 20
197.2304
 30
0.0
 11
179.8191
 21
201.7292
 31
0.0
  0
LINE
  5
3DF
100
AcDbEntity
  8
1
  6
CONTINUOUS
 62
     6
100
AcDbLine
 10
180.4191
 20
197.2954
 30
0.0
 11
180.4191
 21
201.7292
 31
0.0
  0
LINE
  5
3E0
100
AcDbEntity
  8
1
  6
CONTINUOUS
 62
     6
100
AcDbLine
 10
181.0191
 20
197.2629
 30
0.0
 11
181.0191
 21
201.7292
 31
0.0
  0
LINE
  5
3E1
100
AcDbEntity
  8
1
  6
CONTINUOUS
 62
     6
100
AcDbLine
 10
181.6191
 20
197.5292
 30
0.0
 11
181.6191
 21
201.7292
 31
0.0
  0
LINE
  5
3E2
100
AcDbEntity
  8
1
  6
CONTINUOUS
 62
     6
100
AcDbLine
 10
182.2191
 20
198.1292
 30
0.0
 11
182.2191
 21
201.7292
 31
0.0
  0
LINE
  5
3E3
100
AcDbEntity
  8
1
  6
CONTINUOUS
 62
     6
100
AcDbLine
 10
182.8191
 20
198.7292
 30
0.0
 11
182.8191
 21
201.7292
 31
0.0
  0
LINE
  5
3E4
100
AcDbEntity
  8
1
  6
CONTINUOUS
 62
     6
100
AcDbLine
 10
183.4191
 20
199.1155
 30
0.0
 11
183.4191
 21
201.7292
 31
0.0
  0
LINE
  5
3E5
100
AcDbEntity
  8
1
  6
CONTINUOUS
 62
     6
100
AcDbLine
 10
184.0191
 20
199.7981
 30
0.0
 11
184.0191
 21
201.7292
 31
0.0
  0
LINE
  5
3E6
100
AcDbEntity
  8
1
  6
CONTINUOUS
 62
     6
100
AcDbLine
 10
184.6191
 20
200.4156
 30
0.0
 11
184.6191
 21
201.7292
 31
0.0
  0
LINE
  5
3E7
100
AcDbEntity
  8
1
  6
CONTINUOUS
 62
     6
100
AcDbLine
 10
185.2191
 20
200.8292
 30
0.0
 11
185.2191
 21
201.7292
 31
0.0
  0
LINE
  5
3E8
100
AcDbEntity
  8
1
  6
CONTINUOUS
 62
     6
100
AcDbLine
 10
176.2191
 20
196.9292
 30
0.0
 11
178.0191
 21
196.9292
 31
0.0
  0
LINE
  5
3E9
100
AcDbEntity
  8
1
  6
CONTINUOUS
 62
     6
100
AcDbLine
 10
176.2191
 20
197.5292
 30
0.0
 11
181.7701
 21
197.5292
 31
0.0
  0
LINE
  5
3EA
100
AcDbEntity
  8
1
  6
CONTINUOUS
 62
     6
100
AcDbLine
 10
176.2191
 20
198.1292
 30
0.0
 11
182.5191
 21
198.1292
 31
0.0
  0
LINE
  5
3EB
100
AcDbEntity
  8
1
  6
CONTINUOUS
 62
     6
100
AcDbLine
 10
176.2191
 20
198.7292
 30
0.0
 11
183.1191
 21
198.7292
 31
0.0
  0
LINE
  5
3EC
100
AcDbEntity
  8
1
  6
CONTINUOUS
 62
     6
100
AcDbLine
 10
176.2191
 20
199.3292
 30
0.0
 11
183.7191
 21
199.3292
 31
0.0
  0
LINE
  5
3ED
100
AcDbEntity
  8
1
  6
CONTINUOUS
 62
     6
100
AcDbLine
 10
176.2191
 20
199.9292
 30
0.0
 11
184.3191
 21
199.9292
 31
0.0
  0
LINE
  5
3EE
100
AcDbEntity
  8
1
  6
CONTINUOUS
 62
     6
100
AcDbLine
 10
176.2191
 20
200.5292
 30
0.0
 11
184.9191
 21
200.5292
 31
0.0
  0
LINE
  5
3EF
100
AcDbEntity
  8
1
  6
CONTINUOUS
 62
     6
100
AcDbLine
 10
176.2191
 20
201.1292
 30
0.0
 11
185.5191
 21
201.1292
 31
0.0
  0
LINE
  5
3F0
100
AcDbEntity
  8
1
  6
CONTINUOUS
 62
     6
100
AcDbLine
 10
250.4363
 20
201.1292
 30
0.0
 11
257.9033
 21
201.1292
 31
0.0
  0
LINE
  5
3F1
100
AcDbEntity
  8
1
  6
CONTINUOUS
 62
     6
100
AcDbLine
 10
250.4363
 20
200.5292
 30
0.0
 11
257.9033
 21
200.5292
 31
0.0
  0
LINE
  5
3F2
100
AcDbEntity
  8
1
  6
CONTINUOUS
 62
     6
100
AcDbLine
 10
250.4363
 20
199.9292
 30
0.0
 11
257.8003
 21
199.9292
 31
0.0
  0
LINE
  5
3F3
100
AcDbEntity
  8
1
  6
CONTINUOUS
 62
     6
100
AcDbLine
 10
250.4363
 20
199.3292
 30
0.0
 11
257.7746
 21
199.3292
 31
0.0
  0
LINE
  5
3F4
100
AcDbEntity
  8
1
  6
CONTINUOUS
 62
     6
100
AcDbLine
 10
250.4363
 20
198.7292
 30
0.0
 11
257.208
 21
198.7292
 31
0.0
  0
LINE
  5
3F5
100
AcDbEntity
  8
1
  6
CONTINUOUS
 62
     6
100
AcDbLine
 10
250.4363
 20
198.1292
 30
0.0
 11
257.2595
 21
198.1292
 31
0.0
  0
LINE
  5
3F6
100
AcDbEntity
  8
1
  6
CONTINUOUS
 62
     6
100
AcDbLine
 10
250.4363
 20
197.5292
 30
0.0
 11
256.1007
 21
197.5292
 31
0.0
  0
LINE
  5
3F7
100
AcDbEntity
  8
1
  6
CONTINUOUS
 62
     6
100
AcDbLine
 10
250.4363
 20
196.9292
 30
0.0
 11
256.1265
 21
196.9292
 31
0.0
  0
LINE
  5
3F8
100
AcDbEntity
  8
1
  6
CONTINUOUS
 62
     6
100
AcDbLine
 10
250.4363
 20
196.3292
 30
0.0
 11
255.663
 21
196.3292
 31
0.0
  0
LINE
  5
3F9
100
AcDbEntity
  8
1
  6
CONTINUOUS
 62
     6
100
AcDbLine
 10
250.4363
 20
195.7292
 30
0.0
 11
255.56
 21
195.7292
 31
0.0
  0
LINE
  5
3FA
100
AcDbEntity
  8
1
  6
CONTINUOUS
 62
     6
100
AcDbLine
 10
250.4363
 20
195.1292
 30
0.0
 11
255.5342
 21
195.1292
 31
0.0
  0
LINE
  5
3FB
100
AcDbEntity
  8
1
  6
CONTINUOUS
 62
     6
100
AcDbLine
 10
250.4363
 20
194.5292
 30
0.0
 11
255.1479
 21
194.5292
 31
0.0
  0
LINE
  5
3FC
100
AcDbEntity
  8
1
  6
CONTINUOUS
 62
     6
100
AcDbLine
 10
250.4363
 20
193.9292
 30
0.0
 11
254.8647
 21
193.9292
 31
0.0
  0
LINE
  5
3FD
100
AcDbEntity
  8
1
  6
CONTINUOUS
 62
     6
100
AcDbLine
 10
250.4363
 20
193.3292
 30
0.0
 11
254.2981
 21
193.3292
 31
0.0
  0
LINE
  5
3FE
100
AcDbEntity
  8
1
  6
CONTINUOUS
 62
     6
100
AcDbLine
 10
250.4363
 20
192.7292
 30
0.0
 11
254.6587
 21
192.7292
 31
0.0
  0
LINE
  5
3FF
100
AcDbEntity
  8
1
  6
CONTINUOUS
 62
     6
100
AcDbLine
 10
250.4363
 20
192.1292
 30
0.0
 11
254.4269
 21
192.1292
 31
0.0
  0
LINE
  5
400
100
AcDbEntity
  8
1
  6
CONTINUOUS
 62
     6
100
AcDbLine
 10
250.4363
 20
191.5292
 30
0.0
 11
253.6544
 21
191.5292
 31
0.0
  0
LINE
  5
401
100
AcDbEntity
  8
1
  6
CONTINUOUS
 62
     6
100
AcDbLine
 10
250.4363
 20
190.9292
 30
0.0
 11
253.6801
 21
190.9292
 31
0.0
  0
LINE
  5
402
100
AcDbEntity
  8
1
  6
CONTINUOUS
 62
     6
100
AcDbLine
 10
250.4363
 20
190.3292
 30
0.0
 11
253.7831
 21
190.3292
 31
0.0
  0
LINE
  5
403
100
AcDbEntity
  8
1
  6
CONTINUOUS
 62
     6
100
AcDbLine
 10
250.4363
 20
189.7292
 30
0.0
 11
253.9376
 21
189.7292
 31
0.0
  0
LINE
  5
404
100
AcDbEntity
  8
1
  6
CONTINUOUS
 62
     6
100
AcDbLine
 10
250.4363
 20
189.1292
 30
0.0
 11
252.547
 21
189.1292
 31
0.0
  0
LINE
  5
405
100
AcDbEntity
  8
1
  6
CONTINUOUS
 62
     6
100
AcDbLine
 10
250.4363
 20
188.5292
 30
0.0
 11
252.4955
 21
188.5292
 31
0.0
  0
LINE
  5
406
100
AcDbEntity
  8
1
  6
CONTINUOUS
 62
     6
100
AcDbLine
 10
250.4363
 20
187.9292
 30
0.0
 11
252.6243
 21
187.9292
 31
0.0
  0
LINE
  5
407
100
AcDbEntity
  8
1
  6
CONTINUOUS
 62
     6
100
AcDbLine
 10
257.6363
 20
198.7292
 30
0.0
 11
257.6363
 21
201.7292
 31
0.0
  0
LINE
  5
408
100
AcDbEntity
  8
1
  6
CONTINUOUS
 62
     6
100
AcDbLine
 10
257.0363
 20
197.8933
 30
0.0
 11
257.0363
 21
201.7292
 31
0.0
  0
LINE
  5
409
100
AcDbEntity
  8
1
  6
CONTINUOUS
 62
     6
100
AcDbLine
 10
256.4363
 20
197.5584
 30
0.0
 11
256.4363
 21
201.7292
 31
0.0
  0
LINE
  5
40A
100
AcDbEntity
  8
1
  6
CONTINUOUS
 62
     6
100
AcDbLine
 10
255.8363
 20
196.6568
 30
0.0
 11
255.8363
 21
201.7292
 31
0.0
  0
LINE
  5
40B
100
AcDbEntity
  8
1
  6
CONTINUOUS
 62
     6
100
AcDbLine
 10
255.2363
 20
194.7248
 30
0.0
 11
255.2363
 21
201.7292
 31
0.0
  0
LINE
  5
40C
100
AcDbEntity
  8
1
  6
CONTINUOUS
 62
     6
100
AcDbLine
 10
254.6363
 20
193.5657
 30
0.0
 11
254.6363
 21
201.7292
 31
0.0
  0
LINE
  5
40D
100
AcDbEntity
  8
1
  6
CONTINUOUS
 62
     6
100
AcDbLine
 10
254.0363
 20
191.5822
 30
0.0
 11
254.0363
 21
201.7292
 31
0.0
  0
LINE
  5
40E
100
AcDbEntity
  8
1
  6
CONTINUOUS
 62
     6
100
AcDbLine
 10
253.4363
 20
189.135
 30
0.0
 11
253.4363
 21
201.7292
 31
0.0
  0
LINE
  5
40F
100
AcDbEntity
  8
1
  6
CONTINUOUS
 62
     6
100
AcDbLine
 10
252.8363
 20
189.1865
 30
0.0
 11
252.8363
 21
201.7292
 31
0.0
  0
LINE
  5
410
100
AcDbEntity
  8
1
  6
CONTINUOUS
 62
     6
100
AcDbLine
 10
252.2363
 20
187.5379
 30
0.0
 11
252.2363
 21
201.7292
 31
0.0
  0
LINE
  5
411
100
AcDbEntity
  8
1
  6
CONTINUOUS
 62
     6
100
AcDbLine
 10
251.6363
 20
187.203
 30
0.0
 11
251.6363
 21
201.7292
 31
0.0
  0
LINE
  5
412
100
AcDbEntity
  8
1
  6
CONTINUOUS
 62
     6
100
AcDbLine
 10
251.0363
 20
187.1
 30
0.0
 11
251.0363
 21
201.7292
 31
0.0
  0
LINE
  5
413
100
AcDbEntity
  8
1
  6
CONTINUOUS
 62
     6
100
AcDbLine
 10
292.7537
 20
195.7018
 30
0.0
 11
292.7537
 21
201.7018
 31
0.0
  0
LINE
  5
414
100
AcDbEntity
  8
1
  6
CONTINUOUS
 62
     6
100
AcDbLine
 10
290.9537
 20
195.1018
 30
0.0
 11
290.9537
 21
201.7018
 31
0.0
  0
LINE
  5
415
100
AcDbEntity
  8
1
  6
CONTINUOUS
 62
     6
100
AcDbLine
 10
291.5537
 20
195.2818
 30
0.0
 11
291.5537
 21
201.7018
 31
0.0
  0
LINE
  5
416
100
AcDbEntity
  8
1
  6
CONTINUOUS
 62
     6
100
AcDbLine
 10
292.1537
 20
195.4018
 30
0.0
 11
292.1537
 21
201.7018
 31
0.0
  0
LINE
  5
417
100
AcDbEntity
  8
1
  6
CONTINUOUS
 62
     6
100
AcDbLine
 10
293.3537
 20
198.1018
 30
0.0
 11
293.3537
 21
201.7018
 31
0.0
  0
LINE
  5
418
100
AcDbEntity
  8
1
  6
CONTINUOUS
 62
     6
100
AcDbLine
 10
293.9537
 20
198.1018
 30
0.0
 11
293.9537
 21
201.7018
 31
0.0
  0
LINE
  5
419
100
AcDbEntity
  8
1
  6
CONTINUOUS
 62
     6
100
AcDbLine
 10
294.5537
 20
199.9018
 30
0.0
 11
294.5537
 21
201.7018
 31
0.0
  0
LINE
  5
41A
100
AcDbEntity
  8
1
  6
CONTINUOUS
 62
     6
100
AcDbLine
 10
295.1537
 20
200.5018
 30
0.0
 11
295.1537
 21
201.7018
 31
0.0
  0
LINE
  5
41B
100
AcDbEntity
  8
1
  6
CONTINUOUS
 62
     6
100
AcDbLine
 10
295.7537
 20
201.1018
 30
0.0
 11
295.7537
 21
201.7018
 31
0.0
  0
LINE
  5
41C
100
AcDbEntity
  8
1
  6
CONTINUOUS
 62
     6
100
AcDbLine
 10
290.3537
 20
201.1018
 30
0.0
 11
295.7537
 21
201.1018
 31
0.0
  0
LINE
  5
41D
100
AcDbEntity
  8
1
  6
CONTINUOUS
 62
     6
100
AcDbLine
 10
290.3537
 20
200.5018
 30
0.0
 11
295.1537
 21
200.5018
 31
0.0
  0
LINE
  5
41E
100
AcDbEntity
  8
1
  6
CONTINUOUS
 62
     6
100
AcDbLine
 10
290.3537
 20
199.9018
 30
0.0
 11
294.5537
 21
199.9018
 31
0.0
  0
LINE
  5
41F
100
AcDbEntity
  8
1
  6
CONTINUOUS
 62
     6
100
AcDbLine
 10
290.3537
 20
199.3018
 30
0.0
 11
294.5537
 21
199.3018
 31
0.0
  0
LINE
  5
420
100
AcDbEntity
  8
1
  6
CONTINUOUS
 62
     6
100
AcDbLine
 10
290.3537
 20
198.7018
 30
0.0
 11
294.2537
 21
198.7018
 31
0.0
  0
LINE
  5
421
100
AcDbEntity
  8
1
  6
CONTINUOUS
 62
     6
100
AcDbLine
 10
290.3537
 20
198.1018
 30
0.0
 11
293.9537
 21
198.1018
 31
0.0
  0
LINE
  5
422
100
AcDbEntity
  8
1
  6
CONTINUOUS
 62
     6
100
AcDbLine
 10
290.3537
 20
197.5018
 30
0.0
 11
293.3537
 21
197.5018
 31
0.0
  0
LINE
  5
423
100
AcDbEntity
  8
1
  6
CONTINUOUS
 62
     6
100
AcDbLine
 10
290.3537
 20
196.3018
 30
0.0
 11
293.0537
 21
196.3018
 31
0.0
  0
LINE
  5
424
100
AcDbEntity
  8
1
  6
CONTINUOUS
 62
     6
100
AcDbLine
 10
290.3537
 20
195.7018
 30
0.0
 11
292.7537
 21
195.7018
 31
0.0
  0
LINE
  5
425
100
AcDbEntity
  8
1
  6
CONTINUOUS
 62
     6
100
AcDbLine
 10
290.3537
 20
196.9018
 30
0.0
 11
293.1737
 21
196.9018
 31
0.0
  0
LINE
  5
426
100
AcDbEntity
  8
1
  6
CONTINUOUS
 62
     7
100
AcDbLine
 10
161.0309
 20
202.9292
 30
0.0
 11
155.2933
 21
218.7129
 31
0.0
  0
LINE
  5
427
100
AcDbEntity
  8
1
  6
CONTINUOUS
 62
     7
100
AcDbLine
 10
155.2933
 20
218.7129
 30
0.0
 11
150.9326
 21
218.7129
 31
0.0
  0
ARC
  5
428
100
AcDbEntity
  8
1
  6
CONTINUOUS
 62
     7
100
AcDbCircle
 10
187.945463
 20
197.002392
 30
0.0
 40
1.306702
210
0.0
220
0.0
230
1.0
100
AcDbArc
 50
17.973011
 51
102.524289
  0
ARC
  5
429
100
AcDbEntity
  8
1
  6
CONTINUOUS
 62
     7
100
AcDbCircle
 10
190.48823
 20
197.539664
 30
0.0
 40
1.306702
210
0.0
220
0.0
230
1.0
100
AcDbArc
 50
185.890856
 51
270.442133
  0
LINE
  5
42A
100
AcDbEntity
  8
1
  6
CONTINUOUS
 62
     7
100
AcDbLine
 10
189.1884
 20
197.4056
 30
0.0
 11
195.2461
 21
212.3072
 31
0.0
  0
LINE
  5
42B
100
AcDbEntity
  8
1
  6
CONTINUOUS
 62
     7
100
AcDbLine
 10
195.2461
 20
212.3072
 30
0.0
 11
199.003
 21
212.3072
 31
0.0
  0
LINE
  5
42C
100
AcDbEntity
  8
1
  6
CONTINUOUS
 62
     7
100
AcDbLine
 10
146.8191
 20
185.9913
 30
0.0
 11
136.9847
 21
196.0604
 31
0.0
  0
LINE
  5
42D
100
AcDbEntity
  8
1
  6
CONTINUOUS
 62
     7
100
AcDbLine
 10
136.9847
 20
196.0604
 30
0.0
 11
107.3045
 21
196.0604
 31
0.0
  0
LINE
  5
42E
100
AcDbEntity
  8
1
  6
CONTINUOUS
 62
     7
100
AcDbLine
 10
142.6191
 20
168.0606
 30
0.0
 11
131.3457
 21
178.9039
 31
0.0
  0
LINE
  5
42F
100
AcDbEntity
  8
1
  6
CONTINUOUS
 62
     7
100
AcDbLine
 10
131.3457
 20
178.9039
 30
0.0
 11
110.0885
 21
178.9039
 31
0.0
  0
LINE
  5
430
100
AcDbEntity
  8
1
  6
CONTINUOUS
 62
     7
100
AcDbLine
 10
158.1354
 20
133.6292
 30
0.0
 11
151.7177
 21
155.2821
 31
0.0
  0
LINE
  5
431
100
AcDbEntity
  8
1
  6
CONTINUOUS
 62
     7
100
AcDbLine
 10
151.7177
 20
155.2821
 30
0.0
 11
115.4538
 21
155.2821
 31
0.0
  0
LINE
  5
432
100
AcDbEntity
  8
1
  6
CONTINUOUS
 62
     7
100
AcDbLine
 10
142.9191
 20
127.5582
 30
0.0
 11
135.6147
 21
135.6063
 31
0.0
  0
LINE
  5
433
100
AcDbEntity
  8
1
  6
CONTINUOUS
 62
     7
100
AcDbLine
 10
135.6147
 20
135.6063
 30
0.0
 11
107.3045
 21
135.6063
 31
0.0
  0
LINE
  5
434
100
AcDbEntity
  8
1
  6
CONTINUOUS
 62
     7
100
AcDbLine
 10
139.0191
 20
118.6292
 30
0.0
 11
126.4191
 21
118.6292
 31
0.0
  0
LINE
  5
435
100
AcDbEntity
  8
1
  6
CONTINUOUS
 62
     7
100
AcDbLine
 10
139.0191
 20
130.6292
 30
0.0
 11
126.4191
 21
130.6292
 31
0.0
  0
LINE
  5
436
100
AcDbEntity
  8
1
  6
CONTINUOUS
 62
     7
100
AcDbLine
 10
141.7191
 20
205.0292
 30
0.0
 11
126.4191
 21
205.0292
 31
0.0
  0
LINE
  5
437
100
AcDbEntity
  8
1
  6
CONTINUOUS
 62
     7
100
AcDbLine
 10
127.6191
 20
205.0292
 30
0.0
 11
127.6191
 21
130.6292
 31
0.0
  0
LINE
  5
438
100
AcDbEntity
  8
1
  6
CONTINUOUS
 62
     7
100
AcDbLine
 10
127.6191
 20
130.6292
 30
0.0
 11
127.6191
 21
118.6292
 31
0.0
  0
ARC
  5
439
100
AcDbEntity
  8
1
  6
CONTINUOUS
 62
     7
100
AcDbCircle
 10
133.43541
 20
148.713149
 30
0.0
 40
40.314824
210
0.0
220
0.0
230
1.0
100
AcDbArc
 50
273.196131
 51
333.348139
  0
ARC
  5
43A
100
AcDbEntity
  8
1
  6
CONTINUOUS
 62
     7
100
AcDbCircle
 10
133.43541
 20
148.713149
 30
0.0
 40
40.314824
210
0.0
220
0.0
230
1.0
100
AcDbArc
 50
261.869994
 51
269.719603
  0
LINE
  5
43B
100
AcDbEntity
  8
1
  6
CONTINUOUS
 62
     7
100
AcDbLine
 10
139.7296
 20
96.4292
 30
0.0
 11
138.6201
 21
82.8645
 31
0.0
  0
LINE
  5
43C
100
AcDbEntity
  8
1
  6
CONTINUOUS
 62
     7
100
AcDbLine
 10
138.6201
 20
82.8645
 30
0.0
 11
147.9138
 21
82.8645
 31
0.0
  0
LINE
  5
43D
100
AcDbEntity
  8
1
  6
CONTINUOUS
 62
     7
100
AcDbLine
 10
239.8191
 20
93.5831
 30
0.0
 11
233.2911
 21
79.0715
 31
0.0
  0
LINE
  5
43E
100
AcDbEntity
  8
1
  6
CONTINUOUS
 62
     7
100
AcDbLine
 10
233.2911
 20
79.0715
 30
0.0
 11
238.6729
 21
79.0715
 31
0.0
  0
LINE
  5
43F
100
AcDbEntity
  8
1
  6
CONTINUOUS
 62
     7
100
AcDbLine
 10
248.8083
 20
204.1715
 30
0.0
 11
275.8618
 21
232.3328
 31
0.0
  0
LINE
  5
440
100
AcDbEntity
  8
1
  6
CONTINUOUS
 62
     7
100
AcDbLine
 10
275.8618
 20
232.3328
 30
0.0
 11
260.4854
 21
232.3328
 31
0.0
  0
LINE
  5
441
100
AcDbEntity
  8
1
  6
CONTINUOUS
 62
     7
100
AcDbLine
 10
283.1363
 20
247.8558
 30
0.0
 11
257.3226
 21
247.8558
 31
0.0
  0
LINE
  5
442
100
AcDbEntity
  8
1
  6
CONTINUOUS
 62
     7
100
AcDbLine
 10
284.9363
 20
254.8292
 30
0.0
 11
291.6545
 21
261.4557
 31
0.0
  0
LINE
  5
443
100
AcDbEntity
  8
1
  6
CONTINUOUS
 62
     7
100
AcDbLine
 10
291.6545
 20
261.4557
 30
0.0
 11
314.1065
 21
261.4557
 31
0.0
  0
LINE
  5
444
100
AcDbEntity
  8
1
  6
CONTINUOUS
 62
     7
100
AcDbLine
 10
311.3066
 20
253.6292
 30
0.0
 11
286.1363
 21
253.6292
 31
0.0
  0
LINE
  5
445
100
AcDbEntity
  8
1
  6
CONTINUOUS
 62
     7
100
AcDbLine
 10
317.6389
 20
206.4966
 30
0.0
 11
328.9088
 21
206.4458
 31
0.0
  0
LINE
  5
446
100
AcDbEntity
  8
1
  6
CONTINUOUS
 62
     7
100
AcDbLine
 10
328.9088
 20
206.4458
 30
0.0
 11
318.1191
 21
196.7622
 31
0.0
  0
ARC
  5
447
100
AcDbEntity
  8
1
  6
CONTINUOUS
 62
     7
100
AcDbCircle
 10
322.958439
 20
81.673639
 30
0.0
 40
68.847494
210
0.0
220
0.0
230
1.0
100
AcDbArc
 50
84.363856
 51
129.064742
  0
ARC
  5
448
100
AcDbEntity
  8
1
  6
CONTINUOUS
 62
     7
100
AcDbCircle
 10
340.984179
 20
174.123775
 30
0.0
 40
69.055672
210
0.0
220
0.0
230
1.0
100
AcDbArc
 50
219.038908
 51
253.642681
  0
ARC
  5
449
100
AcDbEntity
  8
1
  6
CONTINUOUS
 62
     7
100
AcDbCircle
 10
340.984179
 20
174.123775
 30
0.0
 40
69.055672
210
0.0
220
0.0
230
1.0
100
AcDbArc
 50
256.722447
 51
272.248242
  0
LINE
  5
44A
100
AcDbEntity
  8
1
  6
CONTINUOUS
 62
     6
100
AcDbLine
 10
320.8191
 20
128.2292
 30
0.0
 11
348.4023
 21
129.1924
 31
0.0
  0
LINE
  5
44B
100
AcDbEntity
  8
1
  6
CONTINUOUS
 62
     7
100
AcDbLine
 10
322.0191
 20
130.6292
 30
0.0
 11
334.0191
 21
130.6292
 31
0.0
  0
LINE
  5
44C
100
AcDbEntity
  8
1
  6
CONTINUOUS
 62
     7
100
AcDbLine
 10
332.8191
 20
130.6292
 30
0.0
 11
332.8191
 21
136.6292
 31
0.0
  0
LINE
  5
44D
100
AcDbEntity
  8
1
  6
CONTINUOUS
 62
     7
100
AcDbLine
 10
332.8191
 20
128.6901
 30
0.0
 11
332.8191
 21
122.6901
 31
0.0
  0
LINE
  5
44E
100
AcDbEntity
  8
1
  6
CONTINUOUS
 62
     7
100
AcDbLine
 10
322.6349
 20
116.366
 30
0.0
 11
334.8486
 21
120.5312
 31
0.0
  0
LINE
  5
44F
100
AcDbEntity
  8
1
  6
CONTINUOUS
 62
     7
100
AcDbLine
 10
334.8486
 20
120.5312
 30
0.0
 11
342.0146
 21
120.5312
 31
0.0
  0
LINE
  5
450
100
AcDbEntity
  8
1
  6
CONTINUOUS
 62
     7
100
AcDbLine
 10
295.3744
 20
114.1177
 30
0.0
 11
331.7524
 21
81.3256
 31
0.0
  0
LINE
  5
451
100
AcDbEntity
  8
1
  6
CONTINUOUS
 62
     7
100
AcDbLine
 10
331.7524
 20
81.3256
 30
0.0
 11
316.4408
 21
47.7112
 31
0.0
  0
LINE
  5
452
100
AcDbEntity
  8
1
  6
CONTINUOUS
 62
     7
100
AcDbLine
 10
316.4408
 20
47.7112
 30
0.0
 11
320.7568
 21
47.7112
 31
0.0
  0
LINE
  5
453
100
AcDbEntity
  8
1
  6
CONTINUOUS
 62
     7
100
AcDbLine
 10
338.7403
 20
84.6151
 30
0.0
 11
350.7636
 21
84.6151
 31
0.0
  0
LINE
  5
454
100
AcDbEntity
  8
1
  6
CONTINUOUS
 62
     7
100
AcDbLine
 10
310.1066
 20
253.6292
 30
0.0
 11
310.1066
 21
130.6292
 31
0.0
  0
LINE
  5
455
100
AcDbEntity
  8
1
  6
CONTINUOUS
 62
     7
100
AcDbLine
 10
348.4023
 20
129.1924
 30
0.0
 11
352.7726
 21
135.3229
 31
0.0
  0
LINE
  5
456
100
AcDbEntity
  8
1
  6
CONTINUOUS
 62
     7
100
AcDbLine
 10
352.7726
 20
135.3229
 30
0.0
 11
357.012
 21
135.3229
 31
0.0
  0
INSERT
  5
457
100
AcDbEntity
  8
1
  6
CONTINUOUS
 62
     1
100
AcDbBlockReference
  2
LDR
 10
284.9363
 20
254.8292
 30
0.0
 41
240.000002
 42
240.000002
 50
224.60629
210
0.0
220
0.0
230
1.0
  0
INSERT
  5
458
100
AcDbEntity
  8
1
  6
CONTINUOUS
 62
     1
100
AcDbBlockReference
  2
LDR
 10
284.9363
 20
254.8292
 30
0.0
 41
240.000002
 42
240.000002
 50
224.60629
210
0.0
220
0.0
230
1.0
  0
INSERT
  5
459
100
AcDbEntity
  8
1
  6
CONTINUOUS
 62
     1
100
AcDbBlockReference
  2
LDR
 10
310.1066
 20
253.6292
 30
0.0
 41
240.0
 42
240.0
 50
90.0
210
0.0
220
0.0
230
1.0
  0
INSERT
  5
45A
100
AcDbEntity
  8
1
  6
CONTINUOUS
 62
     1
100
AcDbBlockReference
  2
LDR
 10
310.1066
 20
253.6292
 30
0.0
 41
240.0
 42
240.0
 50
90.0
210
0.0
220
0.0
230
1.0
  0
INSERT
  5
45B
100
AcDbEntity
  8
1
  6
CONTINUOUS
 62
     1
100
AcDbBlockReference
  2
LDR
 10
317.6389
 20
206.4966
 30
0.0
 41
239.999998
 42
239.999998
 50
179.741737
210
0.0
220
0.0
230
1.0
  0
INSERT
  5
45C
100
AcDbEntity
  8
1
  6
CONTINUOUS
 62
     1
100
AcDbBlockReference
  2
LDR
 10
317.6389
 20
206.4966
 30
0.0
 41
239.999998
 42
239.999998
 50
179.741737
210
0.0
220
0.0
230
1.0
  0
INSERT
  5
45D
100
AcDbEntity
  8
1
  6
CONTINUOUS
 62
     1
100
AcDbBlockReference
  2
LDR
 10
318.1191
 20
196.7622
 30
0.0
 41
240.000001
 42
240.000001
 50
221.907518
210
0.0
220
0.0
230
1.0
  0
INSERT
  5
45E
100
AcDbEntity
  8
1
  6
CONTINUOUS
 62
     1
100
AcDbBlockReference
  2
LDR
 10
318.1191
 20
196.7622
 30
0.0
 41
240.000001
 42
240.000001
 50
221.907518
210
0.0
220
0.0
230
1.0
  0
INSERT
  5
45F
100
AcDbEntity
  8
1
  6
CONTINUOUS
 62
     1
100
AcDbBlockReference
  2
LDR
 10
310.1066
 20
130.6292
 30
0.0
 41
240.0
 42
240.0
 50
270.0
210
0.0
220
0.0
230
1.0
  0
INSERT
  5
460
100
AcDbEntity
  8
1
  6
CONTINUOUS
 62
     1
100
AcDbBlockReference
  2
LDR
 10
310.1066
 20
130.6292
 30
0.0
 41
240.0
 42
240.0
 50
270.0
210
0.0
220
0.0
230
1.0
  0
INSERT
  5
461
100
AcDbEntity
  8
1
  6
CONTINUOUS
 62
     1
100
AcDbBlockReference
  2
LDR
 10
279.5709
 20
135.1292
 30
0.0
 41
239.999999
 42
239.999999
 50
219.064742
210
0.0
220
0.0
230
1.0
  0
INSERT
  5
462
100
AcDbEntity
  8
1
  6
CONTINUOUS
 62
     1
100
AcDbBlockReference
  2
LDR
 10
332.8191
 20
130.6292
 30
0.0
 41
240.0
 42
240.0
 50
270.0
210
0.0
220
0.0
230
1.0
  0
INSERT
  5
463
100
AcDbEntity
  8
1
  6
CONTINUOUS
 62
     1
100
AcDbBlockReference
  2
LDR
 10
332.8191
 20
130.6292
 30
0.0
 41
240.0
 42
240.0
 50
270.0
210
0.0
220
0.0
230
1.0
  0
INSERT
  5
464
100
AcDbEntity
  8
1
  6
CONTINUOUS
 62
     1
100
AcDbBlockReference
  2
LDR
 10
287.3474
 20
130.6292
 30
0.0
 41
240.000001
 42
240.000001
 50
129.038908
210
0.0
220
0.0
230
1.0
  0
INSERT
  5
465
100
AcDbEntity
  8
1
  6
CONTINUOUS
 62
     1
100
AcDbBlockReference
  2
LDR
 10
287.3474
 20
130.6292
 30
0.0
 41
240.000001
 42
240.000001
 50
129.038908
210
0.0
220
0.0
230
1.0
  0
INSERT
  5
466
100
AcDbEntity
  8
1
  6
CONTINUOUS
 62
     1
100
AcDbBlockReference
  2
LDR
 10
295.3744
 20
114.1177
 30
0.0
 41
239.999998
 42
239.999998
 50
137.967657
210
0.0
220
0.0
230
1.0
  0
INSERT
  5
467
100
AcDbEntity
  8
1
  6
CONTINUOUS
 62
     1
100
AcDbBlockReference
  2
LDR
 10
295.3744
 20
114.1177
 30
0.0
 41
239.999998
 42
239.999998
 50
137.967657
210
0.0
220
0.0
230
1.0
  0
INSERT
  5
468
100
AcDbEntity
  8
1
  6
CONTINUOUS
 62
     1
100
AcDbBlockReference
  2
LDR
 10
322.6349
 20
116.366
 30
0.0
 41
240.000002
 42
240.000002
 50
198.830756
210
0.0
220
0.0
230
1.0
  0
INSERT
  5
469
100
AcDbEntity
  8
1
  6
CONTINUOUS
 62
     1
100
AcDbBlockReference
  2
LDR
 10
322.6349
 20
116.366
 30
0.0
 41
240.000002
 42
240.000002
 50
198.830756
210
0.0
220
0.0
230
1.0
  0
INSERT
  5
46A
100
AcDbEntity
  8
1
  6
CONTINUOUS
 62
     1
100
AcDbBlockReference
  2
LDR
 10
332.8191
 20
128.6901
 30
0.0
 41
240.0
 42
240.0
 50
90.0
210
0.0
220
0.0
230
1.0
  0
INSERT
  5
46B
100
AcDbEntity
  8
1
  6
CONTINUOUS
 62
     1
100
AcDbBlockReference
  2
LDR
 10
332.8191
 20
128.6901
 30
0.0
 41
240.0
 42
240.0
 50
90.0
210
0.0
220
0.0
230
1.0
  0
INSERT
  5
46C
100
AcDbEntity
  8
1
  6
CONTINUOUS
 62
     1
100
AcDbBlockReference
  2
LDR
 10
348.4023
 20
129.1924
 30
0.0
 41
240.000001
 42
240.000001
 50
234.515756
210
0.0
220
0.0
230
1.0
  0
INSERT
  5
46D
100
AcDbEntity
  8
1
  6
CONTINUOUS
 62
     1
100
AcDbBlockReference
  2
LDR
 10
338.7403
 20
84.6151
 30
0.0
 41
240.0
 42
240.0
 50
180.0
210
0.0
220
0.0
230
1.0
  0
INSERT
  5
46E
100
AcDbEntity
  8
1
  6
CONTINUOUS
 62
     1
100
AcDbBlockReference
  2
LDR
 10
338.7403
 20
84.6151
 30
0.0
 41
240.0
 42
240.0
 50
180.0
210
0.0
220
0.0
230
1.0
  0
INSERT
  5
46F
100
AcDbEntity
  8
1
  6
CONTINUOUS
 62
     1
100
AcDbBlockReference
  2
LDR
 10
239.8191
 20
93.5831
 30
0.0
 41
240.0
 42
240.0
 50
65.779544
210
0.0
220
0.0
230
1.0
  0
INSERT
  5
470
100
AcDbEntity
  8
1
  6
CONTINUOUS
 62
     1
100
AcDbBlockReference
  2
LDR
 10
283.1363
 20
247.8558
 30
0.0
 41
240.0
 42
240.0
210
0.0
220
0.0
230
1.0
  0
INSERT
  5
471
100
AcDbEntity
  8
1
  6
CONTINUOUS
 62
     1
100
AcDbBlockReference
  2
LDR
 10
283.1363
 20
247.8558
 30
0.0
 41
240.0
 42
240.0
210
0.0
220
0.0
230
1.0
  0
INSERT
  5
472
100
AcDbEntity
  8
1
  6
CONTINUOUS
 62
     1
100
AcDbBlockReference
  2
LDR
 10
248.8083
 20
204.1715
 30
0.0
 41
240.000002
 42
240.000002
 50
226.149397
210
0.0
220
0.0
230
1.0
  0
INSERT
  5
473
100
AcDbEntity
  8
1
  6
CONTINUOUS
 62
     1
100
AcDbBlockReference
  2
LDR
 10
248.8083
 20
204.1715
 30
0.0
 41
240.000002
 42
240.000002
 50
226.149397
210
0.0
220
0.0
230
1.0
  0
INSERT
  5
474
100
AcDbEntity
  8
1
  6
CONTINUOUS
 62
     1
100
AcDbBlockReference
  2
LDR
 10
189.1884
 20
197.4056
 30
0.0
 41
239.999999
 42
239.999999
 50
247.877599
210
0.0
220
0.0
230
1.0
  0
INSERT
  5
475
100
AcDbEntity
  8
1
  6
CONTINUOUS
 62
     1
100
AcDbBlockReference
  2
LDR
 10
161.0309
 20
202.9292
 30
0.0
 41
240.0
 42
240.0
 50
289.976928
210
0.0
220
0.0
230
1.0
  0
INSERT
  5
476
100
AcDbEntity
  8
1
  6
CONTINUOUS
 62
     1
100
AcDbBlockReference
  2
LDR
 10
161.0309
 20
202.9292
 30
0.0
 41
240.0
 42
240.0
 50
289.976928
210
0.0
220
0.0
230
1.0
  0
INSERT
  5
477
100
AcDbEntity
  8
1
  6
CONTINUOUS
 62
     1
100
AcDbBlockReference
  2
LDR
 10
146.8191
 20
185.9913
 30
0.0
 41
239.999999
 42
239.999999
 50
314.324405
210
0.0
220
0.0
230
1.0
  0
INSERT
  5
478
100
AcDbEntity
  8
1
  6
CONTINUOUS
 62
     1
100
AcDbBlockReference
  2
LDR
 10
146.8191
 20
185.9913
 30
0.0
 41
239.999999
 42
239.999999
 50
314.324405
210
0.0
220
0.0
230
1.0
  0
INSERT
  5
479
100
AcDbEntity
  8
1
  6
CONTINUOUS
 62
     1
100
AcDbBlockReference
  2
LDR
 10
127.6191
 20
205.0292
 30
0.0
 41
240.0
 42
240.0
 50
90.0
210
0.0
220
0.0
230
1.0
  0
INSERT
  5
47A
100
AcDbEntity
  8
1
  6
CONTINUOUS
 62
     1
100
AcDbBlockReference
  2
LDR
 10
127.6191
 20
205.0292
 30
0.0
 41
240.0
 42
240.0
 50
90.0
210
0.0
220
0.0
230
1.0
  0
INSERT
  5
47B
100
AcDbEntity
  8
1
  6
CONTINUOUS
 62
     1
100
AcDbBlockReference
  2
LDR
 10
142.6191
 20
168.0606
 30
0.0
 41
240.000001
 42
240.000001
 50
316.114082
210
0.0
220
0.0
230
1.0
  0
INSERT
  5
47C
100
AcDbEntity
  8
1
  6
CONTINUOUS
 62
     1
100
AcDbBlockReference
  2
LDR
 10
158.1354
 20
133.6292
 30
0.0
 41
240.0
 42
240.0
 50
286.509289
210
0.0
220
0.0
230
1.0
  0
INSERT
  5
47D
100
AcDbEntity
  8
1
  6
CONTINUOUS
 62
     1
100
AcDbBlockReference
  2
LDR
 10
158.1354
 20
133.6292
 30
0.0
 41
240.0
 42
240.0
 50
286.509289
210
0.0
220
0.0
230
1.0
  0
INSERT
  5
47E
100
AcDbEntity
  8
1
  6
CONTINUOUS
 62
     1
100
AcDbBlockReference
  2
LDR
 10
127.6191
 20
130.6292
 30
0.0
 41
240.0
 42
240.0
 50
270.0
210
0.0
220
0.0
230
1.0
  0
INSERT
  5
47F
100
AcDbEntity
  8
1
  6
CONTINUOUS
 62
     1
100
AcDbBlockReference
  2
LDR
 10
127.6191
 20
130.6292
 30
0.0
 41
240.0
 42
240.0
 50
270.0
210
0.0
220
0.0
230
1.0
  0
INSERT
  5
480
100
AcDbEntity
  8
1
  6
CONTINUOUS
 62
     1
100
AcDbBlockReference
  2
LDR
 10
127.6191
 20
130.6292
 30
0.0
 41
240.0
 42
240.0
 50
90.0
210
0.0
220
0.0
230
1.0
  0
INSERT
  5
481
100
AcDbEntity
  8
1
  6
CONTINUOUS
 62
     1
100
AcDbBlockReference
  2
LDR
 10
127.6191
 20
118.6292
 30
0.0
 41
240.0
 42
240.0
 50
270.0
210
0.0
220
0.0
230
1.0
  0
INSERT
  5
482
100
AcDbEntity
  8
1
  6
CONTINUOUS
 62
     1
100
AcDbBlockReference
  2
LDR
 10
169.4667
 20
130.6292
 30
0.0
 41
240.0
 42
240.0
 50
63.348139
210
0.0
220
0.0
230
1.0
  0
INSERT
  5
483
100
AcDbEntity
  8
1
  6
CONTINUOUS
 62
     1
100
AcDbBlockReference
  2
LDR
 10
169.4667
 20
130.6292
 30
0.0
 41
240.0
 42
240.0
 50
63.348139
210
0.0
220
0.0
230
1.0
  0
INSERT
  5
484
100
AcDbEntity
  8
1
  6
CONTINUOUS
 62
     1
100
AcDbBlockReference
  2
LDR
 10
142.9191
 20
127.5582
 30
0.0
 41
240.000002
 42
240.000002
 50
312.226668
210
0.0
220
0.0
230
1.0
  0
INSERT
  5
485
100
AcDbEntity
  8
1
  6
CONTINUOUS
 62
     1
100
AcDbBlockReference
  2
LDR
 10
139.7296
 20
96.4292
 30
0.0
 41
239.999998
 42
239.999998
 50
85.324005
210
0.0
220
0.0
230
1.0
  0
TEXT
  5
486
100
AcDbEntity
  8
1
  6
CONTINUOUS
 62
     7
100
AcDbText
 10
221.5012
 20
246.0319
 30
0.0
 40
3.0
  1
METAL CONDUIT
  7
MONOTXT
 72
     4
 11
239.3004
 21
247.5319
 31
0.0
210
0.0
220
0.0
230
1.0
100
AcDbText
  0
TEXT
  5
487
100
AcDbEntity
  8
1
  6
CONTINUOUS
 62
     7
100
AcDbText
 10
223.2847
 20
240.6319
 30
0.0
 40
3.0
  1
(SEE NOTE 3)
  7
MONOTXT
 72
     4
 11
239.2886
 21
242.1319
 31
0.0
210
0.0
220
0.0
230
1.0
100
AcDbText
  0
TEXT
  5
488
100
AcDbEntity
  8
1
  6
CONTINUOUS
 62
     7
100
AcDbText
 10
234.7464
 20
230.7757
 30
0.0
 40
3.0
  1
GATE WITH
  7
MONOTXT
 11
234.7464
 21
233.7757
 31
0.0
210
0.0
220
0.0
230
1.0
100
AcDbText
 73
     3
  0
TEXT
  5
489
100
AcDbEntity
  8
1
  6
CONTINUOUS
 62
     7
100
AcDbText
 10
234.7464
 20
225.3757
 30
0.0
 40
3.0
  1
PLUNGER ROD
  7
MONOTXT
 11
234.7464
 21
228.3757
 31
0.0
210
0.0
220
0.0
230
1.0
100
AcDbText
 73
     3
  0
TEXT
  5
48A
100
AcDbEntity
  8
1
  6
CONTINUOUS
 62
     7
100
AcDbText
 10
352.3154
 20
199.3891
 30
0.0
 40
3.0
  1
/
  7
MONOTXT
210
0.0
220
0.0
230
1.0
100
AcDbText
  0
TEXT
  5
48B
100
AcDbEntity
  8
1
  6
CONTINUOUS
 62
     7
100
AcDbText
 10
330.5611
 20
148.4432
 30
0.0
 40
3.0
  1
GROUNDED TYPE
  7
MONOTXT
 11
330.5611
 21
151.4432
 31
0.0
210
0.0
220
0.0
230
1.0
100
AcDbText
 73
     3
  0
TEXT
  5
48C
100
AcDbEntity
  8
1
  6
CONTINUOUS
 62
     7
100
AcDbText
 10
330.5611
 20
143.0432
 30
0.0
 40
3.0
  1
INSULATED BUSHINGS
  7
MONOTXT
 11
330.5611
 21
146.0432
 31
0.0
210
0.0
220
0.0
230
1.0
100
AcDbText
 73
     3
  0
TEXT
  5
48D
100
AcDbEntity
  8
1
  6
CONTINUOUS
 62
     7
100
AcDbText
 10
357.9208
 20
134.0269
 30
0.0
 40
3.0
  1
FINISHED GROUND LINE
  7
MONOTXT
210
0.0
220
0.0
230
1.0
100
AcDbText
  0
TEXT
  5
48E
100
AcDbEntity
  8
1
  6
CONTINUOUS
 62
     7
100
AcDbText
 10
343.1436
 20
119.0985
 30
0.0
 40
3.0
  1
CONNECT TO END POST
  7
MONOTXT
210
0.0
220
0.0
230
1.0
100
AcDbText
  0
TEXT
  5
48F
100
AcDbEntity
  8
1
  6
CONTINUOUS
 62
     7
100
AcDbText
 10
251.7625
 20
78.0691
 30
0.0
 40
3.0
  1
/
  7
MONOTXT
 72
     4
 11
252.6011
 21
79.5691
 31
0.0
210
0.0
220
0.0
230
1.0
100
AcDbText
  0
TEXT
  5
490
100
AcDbEntity
  8
1
  6
CONTINUOUS
 62
     7
100
AcDbText
 10
69.3656
 20
194.4812
 30
0.0
 40
3.0
  1
STRETCHER BAR
  7
MONOTXT
 11
69.3656
 21
197.4812
 31
0.0
210
0.0
220
0.0
230
1.0
100
AcDbText
 73
     3
  0
TEXT
  5
491
100
AcDbEntity
  8
1
  6
CONTINUOUS
 62
     7
100
AcDbText
 10
69.3656
 20
189.0812
 30
0.0
 40
3.0
  1
& POST BANDS
  7
MONOTXT
 11
69.3656
 21
192.0812
 31
0.0
210
0.0
220
0.0
230
1.0
100
AcDbText
 73
     3
  0
TEXT
  5
492
100
AcDbEntity
  8
1
  6
CONTINUOUS
 62
     7
100
AcDbText
 10
78.0118
 20
153.5525
 30
0.0
 40
3.0
  1
4.55mm GUAGE
  7
MONOTXT
 11
78.0118
 21
156.5525
 31
0.0
210
0.0
220
0.0
230
1.0
100
AcDbText
 73
     3
  0
TEXT
  5
493
100
AcDbEntity
  8
1
  6
CONTINUOUS
 62
     7
100
AcDbText
 10
78.0118
 20
148.1525
 30
0.0
 40
3.0
  1
TENSION WIRE
  7
MONOTXT
 11
78.0118
 21
151.1525
 31
0.0
210
0.0
220
0.0
230
1.0
100
AcDbText
 73
     3
  0
TEXT
  5
494
100
AcDbEntity
  8
1
  6
CONTINUOUS
 62
     7
100
AcDbText
 10
106.4346
 20
217.3431
 30
0.0
 40
3.0
  1
/
  7
MONOTXT
 72
     4
 11
107.2732
 21
218.8431
 31
0.0
210
0.0
220
0.0
230
1.0
100
AcDbText
  0
TEXT
  5
495
100
AcDbEntity
  8
1
  6
CONTINUOUS
 62
     7
100
AcDbText
 10
199.4555
 20
216.0437
 30
0.0
 40
3.0
  1
3.8mmX51mm
  7
MONOTXT
 11
199.4555
 21
219.0437
 31
0.0
210
0.0
220
0.0
230
1.0
100
AcDbText
 73
     3
  0
TEXT
  5
496
100
AcDbEntity
  8
1
  6
CONTINUOUS
 62
     7
100
AcDbText
 10
199.4555
 20
210.6437
 30
0.0
 40
3.0
  1
WIRE MESH
  7
MONOTXT
 11
199.4555
 21
213.6437
 31
0.0
210
0.0
220
0.0
230
1.0
100
AcDbText
 73
     3
  0
TEXT
  5
497
100
AcDbEntity
  8
1
  6
CONTINUOUS
 62
     7
100
AcDbText
 10
199.4555
 20
205.2437
 30
0.0
 40
3.0
  1
FENCE
  7
MONOTXT
 11
199.4555
 21
208.2437
 31
0.0
210
0.0
220
0.0
230
1.0
100
AcDbText
 73
     3
  0
TEXT
  5
498
100
AcDbEntity
  8
1
  6
CONTINUOUS
 62
     7
100
AcDbText
 10
126.0418
 20
158.4112
 30
0.0
 40
3.0
  1
1.80m
 50
90.0
  7
MONOTXT
 72
     4
 11
124.5418
 21
164.5293
 31
0.0
210
0.0
220
0.0
230
1.0
100
AcDbText
  0
TEXT
  5
499
100
AcDbEntity
  8
1
  6
CONTINUOUS
 62
     7
100
AcDbText
 10
126.1096
 20
116.0822
 30
0.0
 40
3.0
  1
355mm
 50
90.0
  7
MONOTXT
 72
     4
 11
124.6096
 21
124.09
 31
0.0
210
0.0
220
0.0
230
1.0
100
AcDbText
  0
TEXT
  5
49A
100
AcDbEntity
  8
1
  6
CONTINUOUS
 62
     7
100
AcDbText
 10
131.5096
 20
120.275
 30
0.0
 40
3.0
  1
MIN.
 50
90.0
  7
MONOTXT
 72
     4
 11
130.0096
 21
124.09
 31
0.0
210
0.0
220
0.0
230
1.0
100
AcDbText
  0
TEXT
  5
49B
100
AcDbEntity
  8
1
  6
CONTINUOUS
 62
     7
100
AcDbText
 10
300.6915
 20
171.1717
 30
0.0
 40
3.0
  1
1.80m (MIN.)
 50
90.0
  7
MONOTXT
 72
     4
 11
299.1915
 21
185.4748
 31
0.0
210
0.0
220
0.0
230
1.0
100
AcDbText
  0
LINE
  5
49C
100
AcDbEntity
  8
1
  6
CONTINUOUS
 62
     7
100
AcDbLine
 10
222.0911
 20
46.1401
 30
0.0
 11
252.318
 21
46.1401
 31
0.0
  0
TEXT
  5
49D
100
AcDbEntity
  8
1
  6
CONTINUOUS
 62
     7
100
AcDbText
 10
222.9106
 20
47.0066
 30
0.0
 40
3.6
  1
ELEVATION
  7
MONOTXT
210
0.0
220
0.0
230
1.0
100
AcDbText
  0
TEXT
  5
49E
100
AcDbEntity
  8
1
  6
CONTINUOUS
 62
     7
100
AcDbText
 10
184.2099
 20
34.4795
 30
0.0
 40
4.8
  1
CONTROL STATION ENCLOSURE
  7
MONOTXT
 72
     4
 11
241.4886
 21
36.8795
 31
0.0
210
0.0
220
0.0
230
1.0
100
AcDbText
  0
LINE
  5
49F
100
AcDbEntity
  8
1
  6
CONTINUOUS
 62
     7
100
AcDbLine
 10
183.1363
 20
32.5959
 30
0.0
 11
300.5039
 21
32.5959
 31
0.0
  0
TEXT
  5
4A0
100
AcDbEntity
  8
1
  6
CONTINUOUS
 62
     7
100
AcDbText
 10
569.0573
 20
450.8665
 30
0.0
 40
3.0
  1
GENERAL NOTES:
  7
MONOTXT
 72
     4
 11
588.262
 21
452.3665
 31
0.0
210
0.0
220
0.0
230
1.0
100
AcDbText
  0
LINE
  5
4A1
100
AcDbEntity
  8
1
  6
CONTINUOUS
 62
     7
100
AcDbLine
 10
567.1685
 20
448.8517
 30
0.0
 11
608.049
 21
448.8517
 31
0.0
  0
LINE
  5
4A2
100
AcDbEntity
  8
1
  6
CONTINUOUS
 62
     7
100
AcDbLine
 10
302.706
 20
209.9546
 30
0.0
 11
289.4363
 21
209.9546
 31
0.0
  0
LINE
  5
4A3
100
AcDbEntity
  8
1
  6
CONTINUOUS
 62
     7
100
AcDbLine
 10
301.506
 20
209.9546
 30
0.0
 11
301.506
 21
130.6292
 31
0.0
  0
INSERT
  5
4A4
100
AcDbEntity
  8
1
  6
CONTINUOUS
 62
     1
100
AcDbBlockReference
  2
LDR
 10
301.506
 20
209.9546
 30
0.0
 41
240.0
 42
240.0
 50
90.0
210
0.0
220
0.0
230
1.0
  0
INSERT
  5
4A5
100
AcDbEntity
  8
1
  6
CONTINUOUS
 62
     1
100
AcDbBlockReference
  2
LDR
 10
301.506
 20
209.9546
 30
0.0
 41
240.0
 42
240.0
 50
90.0
210
0.0
220
0.0
230
1.0
  0
INSERT
  5
4A6
100
AcDbEntity
  8
1
  6
CONTINUOUS
 62
     1
100
AcDbBlockReference
  2
LDR
 10
301.506
 20
130.6292
 30
0.0
 41
240.0
 42
240.0
 50
270.0
210
0.0
220
0.0
230
1.0
  0
TEXT
  5
4A7
100
AcDbEntity
  8
1
  6
CONTINUOUS
 62
     7
100
AcDbText
 10
309.1847
 20
171.9173
 30
0.0
 40
3.0
  1
3.0m (MIN.)
 50
90.0
  7
MONOTXT
 72
     4
 11
307.6847
 21
185.37
 31
0.0
210
0.0
220
0.0
230
1.0
100
AcDbText
  0
LINE
  5
4A8
100
AcDbEntity
  8
1
  6
CONTINUOUS
 62
     7
100
AcDbLine
 10
603.8384
 20
124.9261
 30
0.0
 11
606.2384
 21
120.7692
 31
0.0
  0
LINE
  5
4A9
100
AcDbEntity
  8
1
  6
CONTINUOUS
 62
     7
100
AcDbLine
 10
606.2384
 20
120.7692
 30
0.0
 11
601.4384
 21
120.7692
 31
0.0
  0
LINE
  5
4AA
100
AcDbEntity
  8
1
  6
CONTINUOUS
 62
     7
100
AcDbLine
 10
603.8384
 20
124.9261
 30
0.0
 11
601.4384
 21
120.7692
 31
0.0
  0
TEXT
  5
4AB
100
AcDbEntity
  8
1
  6
CONTINUOUS
 62
     7
100
AcDbText
 10
603.0352
 20
121.0529
 30
0.0
 40
2.4
  1
3
  7
MONOTXT
210
0.0
220
0.0
230
1.0
100
AcDbText
  0
TEXT
  5
4AC
100
AcDbEntity
  8
1
  6
CONTINUOUS
 62
     7
100
AcDbText
 10
607.2008
 20
121.3506
 30
0.0
 40
2.4
  1
ADDED METRIC
  7
MONOTXT
210
0.0
220
0.0
230
1.0
100
AcDbText
  0
LINE
  5
4AD
100
AcDbEntity
  8
1
  6
CONTINUOUS
 62
     7
100
AcDbLine
 10
609.6958
 20
35.9975
 30
0.0
 11
604.8958
 21
35.9975
 31
0.0
  0
TEXT
  5
4AE
100
AcDbEntity
  8
1
  6
CONTINUOUS
 62
     1
100
AcDbText
 10
615.6418
 20
36.5857
 30
0.0
 40
2.4
  1
04-15-94
  7
MONOTXT
 72
     1
 11
623.9094
 21
38.9857
 31
0.0
210
0.0
220
0.0
230
1.0
100
AcDbText
 73
     3
  0
LINE
  5
4AF
100
AcDbEntity
  8
1
  6
CONTINUOUS
 62
     7
100
AcDbLine
 10
607.2958
 20
40.1544
 30
0.0
 11
604.8958
 21
35.9975
 31
0.0
  0
LINE
  5
4B0
100
AcDbEntity
  8
1
  6
CONTINUOUS
 62
     7
100
AcDbLine
 10
607.2958
 20
40.1544
 30
0.0
 11
609.6958
 21
35.9975
 31
0.0
  0
TEXT
  5
4B1
100
AcDbEntity
  8
1
  6
CONTINUOUS
 62
     7
100
AcDbText
 10
606.4678
 20
36.3186
 30
0.0
 40
2.4
  1
3
  7
MONOTXT
210
0.0
220
0.0
230
1.0
100
AcDbText
  0
TEXT
  5
4B2
100
AcDbEntity
  8
1
  6
CONTINUOUS
 62
     7
100
AcDbText
 10
171.7487
 20
466.3517
 30
0.0
 40
3.0
  1
0.10m
 50
90.0
 41
0.833333
  7
MONOTXT
210
0.0
220
0.0
230
1.0
100
AcDbText
  0
TEXT
  5
4B3
100
AcDbEntity
  8
1
  6
CONTINUOUS
 62
     7
100
AcDbText
 10
98.6948
 20
392.9884
 30
0.0
 40
3.0
  1
3.0m
 50
90.0
  7
MONOTXT
210
0.0
220
0.0
230
1.0
100
AcDbText
  0
TEXT
  5
4B4
100
AcDbEntity
  8
1
  6
CONTINUOUS
 62
     7
100
AcDbText
 10
118.1102
 20
401.801
 30
0.0
 40
3.0
  1
0.10m
  7
MONOTXT
210
0.0
220
0.0
230
1.0
100
AcDbText
  0
TEXT
  5
4B5
100
AcDbEntity
  8
1
  6
CONTINUOUS
 62
     7
100
AcDbText
 10
140.9214
 20
401.9799
 30
0.0
 40
3.0
  1
0.57m
  7
MONOTXT
210
0.0
220
0.0
230
1.0
100
AcDbText
  0
TEXT
  5
4B6
100
AcDbEntity
  8
1
  6
CONTINUOUS
 62
     7
100
AcDbText
 10
144.8128
 20
348.0128
 30
0.0
 40
3.0
  1
150mm
 50
90.0
  7
MONOTXT
210
0.0
220
0.0
230
1.0
100
AcDbText
  0
TEXT
  5
4B7
100
AcDbEntity
  8
1
  6
CONTINUOUS
 62
     7
100
AcDbText
 10
230.3604
 20
357.5224
 30
0.0
 40
3.0
  1
51mm 0
  7
MONOTXT
 72
     4
 11
239.7147
 21
359.0224
 31
0.0
210
0.0
220
0.0
230
1.0
100
AcDbText
  0
TEXT
  5
4B8
100
AcDbEntity
  8
1
  6
CONTINUOUS
 62
     7
100
AcDbText
 10
225.5297
 20
352.1224
 30
0.0
 40
3.0
  1
GATE FRAME
  7
MONOTXT
 72
     4
 11
239.7147
 21
353.6224
 31
0.0
210
0.0
220
0.0
230
1.0
100
AcDbText
  0
TEXT
  5
4B9
100
AcDbEntity
  8
1
  6
CONTINUOUS
 62
     7
100
AcDbText
 10
289.3599
 20
382.3026
 30
0.0
 40
3.0
  1
0.57m
  7
MONOTXT
210
0.0
220
0.0
230
1.0
100
AcDbText
  0
TEXT
  5
4BA
100
AcDbEntity
  8
1
  6
CONTINUOUS
 62
     7
100
AcDbText
 10
316.2667
 20
382.4815
 30
0.0
 40
3.0
  1
0.10m
  7
MONOTXT
210
0.0
220
0.0
230
1.0
100
AcDbText
  0
TEXT
  5
4BB
100
AcDbEntity
  8
1
  6
CONTINUOUS
 62
     7
100
AcDbText
 10
166.697
 20
305.7798
 30
0.0
 40
3.0
  1
GATE POST
  7
MONOTXT
 72
     4
 11
179.6064
 21
307.2798
 31
0.0
210
0.0
220
0.0
230
1.0
100
AcDbText
  0
TEXT
  5
4BC
100
AcDbEntity
  8
1
  6
CONTINUOUS
 62
     7
100
AcDbText
 10
158.7364
 20
300.3798
 30
0.0
 40
3.0
  1
76.2mm 0 (TYP.)
  7
MONOTXT
 72
     4
 11
179.6064
 21
301.8798
 31
0.0
210
0.0
220
0.0
230
1.0
100
AcDbText
  0
TEXT
  5
4BD
100
AcDbEntity
  8
1
  6
CONTINUOUS
 62
     7
100
AcDbText
 10
329.9807
 20
204.8769
 30
0.0
 40
3.0
  1
END POST AND CAP
  7
MONOTXT
 11
329.9807
 21
207.8769
 31
0.0
210
0.0
220
0.0
230
1.0
100
AcDbText
 73
     3
  0
TEXT
  5
4BE
100
AcDbEntity
  8
1
  6
CONTINUOUS
 62
     7
100
AcDbText
 10
329.9807
 20
199.4769
 30
0.0
 40
3.0
  1
63.5mm 0 PIPE (TYP.)
  7
MONOTXT
 11
329.9807
 21
202.4769
 31
0.0
210
0.0
220
0.0
230
1.0
100
AcDbText
 73
     3
  0
TEXT
  5
4BF
100
AcDbEntity
  8
1
  6
CONTINUOUS
 62
     7
100
AcDbText
 10
84.8819
 20
217.3431
 30
0.0
 40
3.0
  1
41.3mm 0 TOP RAIL (TYP.)
  7
MONOTXT
 72
     4
 11
117.4213
 21
218.8431
 31
0.0
210
0.0
220
0.0
230
1.0
100
AcDbText
  0
TEXT
  5
4C0
100
AcDbEntity
  8
1
  6
CONTINUOUS
 62
     7
100
AcDbText
 10
61.849
 20
177.3674
 30
0.0
 40
3.0
  1
41.3mm BRACE RAIL
  7
MONOTXT
 72
     4
 11
85.5773
 21
178.8674
 31
0.0
210
0.0
220
0.0
230
1.0
100
AcDbText
  0
TEXT
  5
4C1
100
AcDbEntity
  8
1
  6
CONTINUOUS
 62
     7
100
AcDbText
 10
78.8805
 20
171.9674
 30
0.0
 40
3.0
  1
(TYP.)
  7
MONOTXT
 72
     4
 11
85.5773
 21
173.4674
 31
0.0
210
0.0
220
0.0
230
1.0
100
AcDbText
  0
TEXT
  5
4C2
100
AcDbEntity
  8
1
  6
CONTINUOUS
 62
     7
100
AcDbText
 10
55.0029
 20
133.7587
 30
0.0
 40
3.0
  1
ALL POSTS 0.9m MIN.
  7
MONOTXT
 11
55.0029
 21
136.7587
 31
0.0
210
0.0
220
0.0
230
1.0
100
AcDbText
 73
     3
  0
TEXT
  5
4C3
100
AcDbEntity
  8
1
  6
CONTINUOUS
 62
     7
100
AcDbText
 10
55.0029
 20
128.3587
 30
0.0
 40
3.0
  1
IN GROUND IN CONC.
  7
MONOTXT
 11
55.0029
 21
131.3587
 31
0.0
210
0.0
220
0.0
230
1.0
100
AcDbText
 73
     3
  0
TEXT
  5
4C4
100
AcDbEntity
  8
1
  6
CONTINUOUS
 62
     7
100
AcDbText
 10
55.0029
 20
122.9587
 30
0.0
 40
3.0
  1
WITH 0.9m DEPTH, 0.3m
  7
MONOTXT
 11
55.0029
 21
125.9587
 31
0.0
210
0.0
220
0.0
230
1.0
100
AcDbText
 73
     3
  0
TEXT
  5
4C5
100
AcDbEntity
  8
1
  6
CONTINUOUS
 62
     7
100
AcDbText
 10
67.4798
 20
107.4997
 30
0.0
 40
3.0
  1
LEVELING CONCRETE PAD
  7
MONOTXT
 11
67.4798
 21
110.4997
 31
0.0
210
0.0
220
0.0
230
1.0
100
AcDbText
 73
     3
  0
TEXT
  5
4C6
100
AcDbEntity
  8
1
  6
CONTINUOUS
 62
     7
100
AcDbText
 10
67.4798
 20
102.0997
 30
0.0
 40
3.0
  1
(1.35mX1.5m)
  7
MONOTXT
 11
67.4798
 21
105.0997
 31
0.0
210
0.0
220
0.0
230
1.0
100
AcDbText
 73
     3
  0
TEXT
  5
4C7
100
AcDbEntity
  8
1
  6
CONTINUOUS
 62
     7
100
AcDbText
 10
67.4798
 20
96.6997
 30
0.0
 40
3.0
  1
FOR TRANSFORMER
  7
MONOTXT
 11
67.4798
 21
99.6997
 31
0.0
210
0.0
220
0.0
230
1.0
100
AcDbText
 73
     3
  0
TEXT
  5
4C8
100
AcDbEntity
  8
1
  6
CONTINUOUS
 62
     7
100
AcDbText
 10
322.2591
 20
46.1733
 30
0.0
 40
3.0
  1
150mm CLASS 2 AGGR.
  7
MONOTXT
 11
322.2591
 21
49.1733
 31
0.0
210
0.0
220
0.0
230
1.0
100
AcDbText
 73
     3
  0
TEXT
  5
4C9
100
AcDbEntity
  8
1
  6
CONTINUOUS
 62
     7
100
AcDbText
 10
322.2591
 20
40.7733
 30
0.0
 40
3.0
  1
BASE COURSE (TYP.)
  7
MONOTXT
 11
322.2591
 21
43.7733
 31
0.0
210
0.0
220
0.0
230
1.0
100
AcDbText
 73
     3
  0
TEXT
  5
4CA
100
AcDbEntity
  8
1
  6
CONTINUOUS
 62
     7
100
AcDbText
 10
239.1168
 20
78.0353
 30
0.0
 40
3.0
  1
19mm0x2.4m LONG COPPER CLAD
  7
MONOTXT
 11
239.1168
 21
81.0353
 31
0.0
210
0.0
220
0.0
230
1.0
100
AcDbText
 73
     3
  0
TEXT
  5
4CB
100
AcDbEntity
  8
1
  6
CONTINUOUS
 62
     7
100
AcDbText
 10
239.1168
 20
72.6353
 30
0.0
 40
3.0
  1
GROUND ROD WITH DRIVING POINT.
  7
MONOTXT
 11
239.1168
 21
75.6353
 31
0.0
210
0.0
220
0.0
230
1.0
100
AcDbText
 73
     3
  0
TEXT
  5
4CC
100
AcDbEntity
  8
1
  6
CONTINUOUS
 62
     7
100
AcDbText
 10
239.1168
 20
67.2353
 30
0.0
 40
3.0
  1
TOP OF ROD SHALL BE 100mm
  7
MONOTXT
 11
239.1168
 21
70.2353
 31
0.0
210
0.0
220
0.0
230
1.0
100
AcDbText
 73
     3
  0
TEXT
  5
4CD
100
AcDbEntity
  8
1
  6
CONTINUOUS
 62
     7
100
AcDbText
 10
239.1168
 20
61.8353
 30
0.0
 40
3.0
  1
ABOVE FINISHED CONCRETE.
  7
MONOTXT
 11
239.1168
 21
64.8353
 31
0.0
210
0.0
220
0.0
230
1.0
100
AcDbText
 73
     3
  0
TEXT
  5
4CE
100
AcDbEntity
  8
1
  6
CONTINUOUS
 62
     7
100
AcDbText
 10
364.0752
 20
83.6145
 30
0.0
 40
3.0
  1
/
  7
MONOTXT
 72
     4
 11
364.9138
 21
85.1145
 31
0.0
210
0.0
220
0.0
230
1.0
100
AcDbText
  0
TEXT
  5
4CF
100
AcDbEntity
  8
1
  6
CONTINUOUS
 62
     7
100
AcDbText
 10
351.4295
 20
83.5807
 30
0.0
 40
3.0
  1
19mm0x2.4m LONG COPPER CLAD
  7
MONOTXT
 11
351.4295
 21
86.5807
 31
0.0
210
0.0
220
0.0
230
1.0
100
AcDbText
 73
     3
  0
TEXT
  5
4D0
100
AcDbEntity
  8
1
  6
CONTINUOUS
 62
     7
100
AcDbText
 10
351.4295
 20
78.1807
 30
0.0
 40
3.0
  1
GROUND ROD WITH DRIVING POINT.
  7
MONOTXT
 11
351.4295
 21
81.1807
 31
0.0
210
0.0
220
0.0
230
1.0
100
AcDbText
 73
     3
  0
TEXT
  5
4D1
100
AcDbEntity
  8
1
  6
CONTINUOUS
 62
     7
100
AcDbText
 10
351.4295
 20
72.7807
 30
0.0
 40
3.0
  1
TOP OF ROD SHALL BE 600mm
  7
MONOTXT
 11
351.4295
 21
75.7807
 31
0.0
210
0.0
220
0.0
230
1.0
100
AcDbText
 73
     3
  0
TEXT
  5
4D2
100
AcDbEntity
  8
1
  6
CONTINUOUS
 62
     7
100
AcDbText
 10
351.4295
 20
67.3807
 30
0.0
 40
3.0
  1
BELOW GRADE.
  7
MONOTXT
 11
351.4295
 21
70.3807
 31
0.0
210
0.0
220
0.0
230
1.0
100
AcDbText
 73
     3
  0
TEXT
  5
4D3
100
AcDbEntity
  8
1
  6
CONTINUOUS
 62
     7
100
AcDbText
 10
344.7188
 20
103.5477
 30
0.0
 40
3.0
  1
LEVELING CONCRETE PAD (1.1mx1.9m)
  7
MONOTXT
 11
344.7188
 21
106.5477
 31
0.0
210
0.0
220
0.0
230
1.0
100
AcDbText
 73
     3
  0
TEXT
  5
4D4
100
AcDbEntity
  8
1
  6
CONTINUOUS
 62
     7
100
AcDbText
 10
344.7188
 20
98.1477
 30
0.0
 40
3.0
  1
FOR CONTROL PANEL CABINET
  7
MONOTXT
 11
344.7188
 21
101.1477
 31
0.0
210
0.0
220
0.0
230
1.0
100
AcDbText
 73
     3
  0
TEXT
  5
4D5
100
AcDbEntity
  8
1
  6
CONTINUOUS
 62
     7
100
AcDbText
 10
327.1878
 20
137.3525
 30
0.0
 40
3.0
  1
100mm
  7
MONOTXT
210
0.0
220
0.0
230
1.0
100
AcDbText
  0
TEXT
  5
4D6
100
AcDbEntity
  8
1
  6
CONTINUOUS
 62
     7
100
AcDbText
 10
568.9253
 20
439.5252
 30
0.0
 40
3.0
  1
1.    TRANSFORMER SHALL ONLY BE INCLUDED IN THE ENCLOSURE IF CALLED FOR ON
  7
MONOTXT
 11
568.9253
 21
442.5252
 31
0.0
210
0.0
220
0.0
230
1.0
100
AcDbText
 73
     3
  0
TEXT
  5
4D7
100
AcDbEntity
  8
1
  6
CONTINUOUS
 62
     7
100
AcDbText
 10
568.9253
 20
434.1252
 30
0.0
 40
3.0
  1
   PLANS.
  7
MONOTXT
 11
568.9253
 21
437.1252
 31
0.0
210
0.0
220
0.0
230
1.0
100
AcDbText
 73
     3
  0
TEXT
  5
4D8
100
AcDbEntity
  8
1
  6
CONTINUOUS
 62
     7
100
AcDbText
 10
568.9253
 20
428.7252
 30
0.0
 40
3.0
  1
 
  7
MONOTXT
 11
568.9253
 21
431.7252
 31
0.0
210
0.0
220
0.0
230
1.0
100
AcDbText
 73
     3
  0
TEXT
  5
4D9
100
AcDbEntity
  8
1
  6
CONTINUOUS
 62
     7
100
AcDbText
 10
568.9253
 20
423.3252
 30
0.0
 40
3.0
  1
2.    IF TRANSFORMER IS NOT INCLUDED, THE DIMENSIONS OF THE ENCLOSURE SHALL
  7
MONOTXT
 11
568.9253
 21
426.3252
 31
0.0
210
0.0
220
0.0
230
1.0
100
AcDbText
 73
     3
  0
TEXT
  5
4DA
100
AcDbEntity
  8
1
  6
CONTINUOUS
 62
     7
100
AcDbText
 10
568.9253
 20
417.9252
 30
0.0
 40
3.0
  1
    BE REDUCED TO 3.0mx3.3mx0.36m.
  7
MONOTXT
 11
568.9253
 21
420.9252
 31
0.0
210
0.0
220
0.0
230
1.0
100
AcDbText
 73
     3
  0
TEXT
  5
4DB
100
AcDbEntity
  8
1
  6
CONTINUOUS
 62
     7
100
AcDbText
 10
568.9253
 20
412.5252
 30
0.0
 40
3.0
  1
 
  7
MONOTXT
 11
568.9253
 21
415.5252
 31
0.0
210
0.0
220
0.0
230
1.0
100
AcDbText
 73
     3
  0
TEXT
  5
4DC
100
AcDbEntity
  8
1
  6
CONTINUOUS
 62
     7
100
AcDbText
 10
568.9253
 20
407.1252
 30
0.0
 40
3.0
  1
3.    CONDUIT MOUNTED P.E. UNIT TO BE USED IF SYSTEM EMPLOYS PRIMARY VOLTAGE
  7
MONOTXT
 11
568.9253
 21
410.1252
 31
0.0
210
0.0
220
0.0
230
1.0
100
AcDbText
 73
     3
  0
TEXT
  5
4DD
100
AcDbEntity
  8
1
  6
CONTINUOUS
 62
     7
100
AcDbText
 10
568.9253
 20
401.7252
 30
0.0
 40
3.0
  1
    ON METERING POLE OR IF NOTED ON THE CONTRACT PLANS.
  7
MONOTXT
 11
568.9253
 21
404.7252
 31
0.0
210
0.0
220
0.0
230
1.0
100
AcDbText
 73
     3
  0
TEXT
  5
4DE
100
AcDbEntity
  8
1
  6
CONTINUOUS
 62
     7
100
AcDbText
 10
568.9253
 20
396.3252
 30
0.0
 40
3.0
  1
 
  7
MONOTXT
 11
568.9253
 21
399.3252
 31
0.0
210
0.0
220
0.0
230
1.0
100
AcDbText
 73
     3
  0
TEXT
  5
4DF
100
AcDbEntity
  8
1
  6
CONTINUOUS
 62
     7
100
AcDbText
 10
568.9253
 20
390.9252
 30
0.0
 40
3.0
  1
4.    CONDUIT TO SUPPORT P.E. UNIT SHALL BE 38.1mm O.D. GALVANIZED STEEL.
  7
MONOTXT
 11
568.9253
 21
393.9252
 31
0.0
210
0.0
220
0.0
230
1.0
100
AcDbText
 73
     3
  0
TEXT
  5
4E0
100
AcDbEntity
  8
1
  6
CONTINUOUS
 62
     7
100
AcDbText
 10
568.9253
 20
385.5252
 30
0.0
 40
3.0
  1
 
  7
MONOTXT
 11
568.9253
 21
388.5252
 31
0.0
210
0.0
220
0.0
230
1.0
100
AcDbText
 73
     3
  0
TEXT
  5
4E1
100
AcDbEntity
  8
1
  6
CONTINUOUS
 62
     7
100
AcDbText
 10
568.9253
 20
380.1252
 30
0.0
 40
3.0
  1
5.    REINFORCEMENT IN FOUNDATION SHALL BE  19's SPACED AT 200mm DEPTH WISE
  7
MONOTXT
 11
568.9253
 21
383.1252
 31
0.0
210
0.0
220
0.0
230
1.0
100
AcDbText
 73
     3
  0
TEXT
  5
4E2
100
AcDbEntity
  8
1
  6
CONTINUOUS
 62
     7
100
AcDbText
 10
568.9253
 20
374.7252
 30
0.0
 40
3.0
  1
    AND 400mm LENGTH WISE AT 75mm FROM BOTTOM OF FOUNDATION.
  7
MONOTXT
 11
568.9253
 21
377.7252
 31
0.0
210
0.0
220
0.0
230
1.0
100
AcDbText
 73
     3
  0
TEXT
  5
4E3
100
AcDbEntity
  8
1
  6
CONTINUOUS
 62
     7
100
AcDbText
 10
568.9253
 20
369.3252
 30
0.0
 40
3.0
  1
 
  7
MONOTXT
 11
568.9253
 21
372.3252
 31
0.0
210
0.0
220
0.0
230
1.0
100
AcDbText
 73
     3
  0
TEXT
  5
4E4
100
AcDbEntity
  8
1
  6
CONTINUOUS
 62
     7
100
AcDbText
 10
568.9253
 20
363.9252
 30
0.0
 40
3.0
  1
6.    ALL CONCRETE SHALL BE CLASS "B".
  7
MONOTXT
 11
568.9253
 21
366.9252
 31
0.0
210
0.0
220
0.0
230
1.0
100
AcDbText
 73
     3
  0
TEXT
  5
4E5
100
AcDbEntity
  8
1
  6
CONTINUOUS
 62
     7
100
AcDbText
 10
568.9253
 20
358.5252
 30
0.0
 40
3.0
  1
 
  7
MONOTXT
 11
568.9253
 21
361.5252
 31
0.0
210
0.0
220
0.0
230
1.0
100
AcDbText
 73
     3
  0
TEXT
  5
4E6
100
AcDbEntity
  8
1
  6
CONTINUOUS
 62
     7
100
AcDbText
 10
568.9253
 20
353.1252
 30
0.0
 40
3.0
  1
7.   THE ENCLOSURE MUST HAVE DOUBLE DOORS AND BE NEMA TYPE 4.  IT MUST
  7
MONOTXT
 11
568.9253
 21
356.1252
 31
0.0
210
0.0
220
0.0
230
1.0
100
AcDbText
 73
     3
  0
TEXT
  5
4E7
100
AcDbEntity
  8
1
  6
CONTINUOUS
 62
     7
100
AcDbText
 10
568.9253
 20
347.7252
 30
0.0
 40
3.0
  1
   HAVE ADJUSTABLE MOUNTING CHANNELS ON BOTH SIDES AND ON THE BACK
  7
MONOTXT
 11
568.9253
 21
350.7252
 31
0.0
210
0.0
220
0.0
230
1.0
100
AcDbText
 73
     3
  0
TEXT
  5
4E8
100
AcDbEntity
  8
1
  6
CONTINUOUS
 62
     7
100
AcDbText
 10
568.9253
 20
342.3252
 30
0.0
 40
3.0
  1
   WALL.  IT MUST BE OF 3.18mm THICK ALUMINUM TYPE 5052-H3 AND BE
  7
MONOTXT
 11
568.9253
 21
345.3252
 31
0.0
210
0.0
220
0.0
230
1.0
100
AcDbText
 73
     3
  0
TEXT
  5
4E9
100
AcDbEntity
  8
1
  6
CONTINUOUS
 62
     7
100
AcDbText
 10
568.9253
 20
336.9252
 30
0.0
 40
3.0
  1
   REINFORCED TO SUPPORT LOADING AND DOORWAYS.
  7
MONOTXT
 11
568.9253
 21
339.9252
 31
0.0
210
0.0
220
0.0
230
1.0
100
AcDbText
 73
     3
  0
TEXT
  5
4EA
100
AcDbEntity
  8
1
  6
CONTINUOUS
 62
     7
100
AcDbText
 10
568.9253
 20
331.5252
 30
0.0
 40
3.0
  1
 
  7
MONOTXT
 11
568.9253
 21
334.5252
 31
0.0
210
0.0
220
0.0
230
1.0
100
AcDbText
 73
     3
  0
TEXT
  5
4EB
100
AcDbEntity
  8
1
  6
CONTINUOUS
 62
     7
100
AcDbText
 10
568.9253
 20
326.1252
 30
0.0
 40
3.0
  1
8.   ENCLOSURE SIZES WILL BE DETERMINED BY COMPONENT REQUIREMENTS AND
  7
MONOTXT
 11
568.9253
 21
329.1252
 31
0.0
210
0.0
220
0.0
230
1.0
100
AcDbText
 73
     3
  0
TEXT
  5
4EC
100
AcDbEntity
  8
1
  6
CONTINUOUS
 62
     7
100
AcDbText
 10
568.9253
 20
320.7252
 30
0.0
 40
3.0
  1
   SUBMITTED FOR APPROVAL TO THE ENGINEER.
  7
MONOTXT
 11
568.9253
 21
323.7252
 31
0.0
210
0.0
220
0.0
230
1.0
100
AcDbText
 73
     3
  0
TEXT
  5
4ED
100
AcDbEntity
  8
1
  6
CONTINUOUS
 62
     7
100
AcDbText
 10
681.6792
 20
377.8218
 30
0.0
 40
6.0
  1
#
  7
MONOTXT
 11
681.6792
 21
383.8218
 31
0.0
210
0.0
220
0.0
230
1.0
100
AcDbText
 73
     3
  0
TEXT
  5
4EE
100
AcDbEntity
  8
1
  6
CONTINUOUS
 62
     7
100
AcDbText
 10
314.9915
 20
259.7036
 30
0.0
 40
3.0
  1
PHOTOELECTRIC CELL
  7
MONOTXT
 11
314.9915
 21
262.7036
 31
0.0
210
0.0
220
0.0
230
1.0
100
AcDbText
 73
     3
  0
TEXT
  5
4EF
100
AcDbEntity
  8
1
  6
CONTINUOUS
 62
     7
100
AcDbText
 10
314.9915
 20
254.3036
 30
0.0
 40
3.0
  1
FACE TOWARD NORTH SKY
  7
MONOTXT
 11
314.9915
 21
257.3036
 31
0.0
210
0.0
220
0.0
230
1.0
100
AcDbText
 73
     3
  0
TEXT
  5
4F0
100
AcDbEntity
  8
1
  6
CONTINUOUS
 62
     7
100
AcDbText
 10
314.9915
 20
248.9036
 30
0.0
 40
3.0
  1
(PHOTOELECTRIC CELL WILL BE
  7
MONOTXT
 11
314.9915
 21
251.9036
 31
0.0
210
0.0
220
0.0
230
1.0
100
AcDbText
 73
     3
  0
TEXT
  5
4F1
100
AcDbEntity
  8
1
  6
CONTINUOUS
 62
     7
100
AcDbText
 10
314.9915
 20
243.5036
 30
0.0
 40
3.0
  1
PHOTOCELL-TWISTLOCK TYPE,
  7
MONOTXT
 11
314.9915
 21
246.5036
 31
0.0
210
0.0
220
0.0
230
1.0
100
AcDbText
 73
     3
  0
TEXT
  5
4F2
100
AcDbEntity
  8
1
  6
CONTINUOUS
 62
     7
100
AcDbText
 10
314.9915
 20
238.1036
 30
0.0
 40
3.0
  1
STANDARD NEMA WITH 69.85mm
  7
MONOTXT
 11
314.9915
 21
241.1036
 31
0.0
210
0.0
220
0.0
230
1.0
100
AcDbText
 73
     3
  0
TEXT
  5
4F3
100
AcDbEntity
  8
1
  6
CONTINUOUS
 62
     7
100
AcDbText
 10
314.9915
 20
232.7036
 30
0.0
 40
3.0
  1
ID LOCKING BASE)
  7
MONOTXT
 11
314.9915
 21
235.7036
 31
0.0
210
0.0
220
0.0
230
1.0
100
AcDbText
 73
     3
  0
TEXT
  5
4F4
100
AcDbEntity
  8
1
  6
CONTINUOUS
 62
     7
100
AcDbText
 10
149.5893
 20
81.6126
 30
0.0
 40
3.0
  1
 4/0 BARE TINNED COPPER
  7
MONOTXT
 11
149.5893
 21
84.6126
 31
0.0
210
0.0
220
0.0
230
1.0
100
AcDbText
 73
     3
  0
TEXT
  5
4F5
100
AcDbEntity
  8
1
  6
CONTINUOUS
 62
     7
100
AcDbText
 10
149.5893
 20
76.2126
 30
0.0
 40
3.0
  1
GROUND WIRE. THERMO-WELD TO
  7
MONOTXT
 11
149.5893
 21
79.2126
 31
0.0
210
0.0
220
0.0
230
1.0
100
AcDbText
 73
     3
  0
TEXT
  5
4F6
100
AcDbEntity
  8
1
  6
CONTINUOUS
 62
     7
100
AcDbText
 10
149.5893
 20
70.8126
 30
0.0
 40
3.0
  1
GROUND RODS. GROUND WIRES
  7
MONOTXT
 11
149.5893
 21
73.8126
 31
0.0
210
0.0
220
0.0
230
1.0
100
AcDbText
 73
     3
  0
TEXT
  5
4F7
100
AcDbEntity
  8
1
  6
CONTINUOUS
 62
     7
100
AcDbText
 10
149.5893
 20
65.4126
 30
0.0
 40
3.0
  1
SHALL BE CONTINUOUS WITHOUT
  7
MONOTXT
 11
149.5893
 21
68.4126
 31
0.0
210
0.0
220
0.0
230
1.0
100
AcDbText
 73
     3
  0
TEXT
  5
4F8
100
AcDbEntity
  8
1
  6
CONTINUOUS
 62
     7
100
AcDbText
 10
149.5893
 20
60.0126
 30
0.0
 40
3.0
  1
SPLICES OR BREAKS.
  7
MONOTXT
 11
149.5893
 21
63.0126
 31
0.0
210
0.0
220
0.0
230
1.0
100
AcDbText
 73
     3
  0
TEXT
  5
4F9
100
AcDbEntity
  8
1
  6
CONTINUOUS
 62
     7
100
AcDbText
 10
148.8854
 20
79.1266
 30
0.0
 40
6.0
  1
#
  7
MONOTXT
 11
148.8854
 21
85.1266
 31
0.0
210
0.0
220
0.0
230
1.0
100
AcDbText
 73
     3
  0
ENDSEC
  0
SECTION
  2
OBJECTS
  0
DICTIONARY
  5
19
100
AcDbDictionary
  3
ACAD_GROUP
350
1A
  3
ACAD_MLINESTYLE
350
1B
  0
DICTIONARY
  5
1A
102
{ACAD_REACTORS
330
19
102
}
100
AcDbDictionary
  0
DICTIONARY
  5
1B
102
{ACAD_REACTORS
330
19
102
}
100
AcDbDictionary
  3
STANDARD
350
1C
  0
MLINESTYLE
  5
1C
102
{ACAD_REACTORS
330
1B
102
}
100
AcDbMlineStyle
  2
STANDARD
 70
     0
  3

 62
     0
 51
90.0
 52
90.0
 71
     2
 49
0.5
 62
   256
  6
BYLAYER
 49
-0.5
 62
   256
  6
BYLAYER
  0
ENDSEC
  0
EOF
