  0
SECTION
  2
HEADER
  9
$ACADVER
  1
AC1014
  9
$ACADMAINTVER
 70
     0
  9
$DWGCODEPAGE
  3
ANSI_1252
  9
$INSBASE
 10
0.0
 20
0.0
 30
0.0
  9
$EXTMIN
 10
11.3794
 20
-438.8118
 30
0.0
  9
$EXTMAX
 10
759.9272
 20
40.7841
 30
0.0
  9
$LIMMIN
 10
0.0
 20
0.0
  9
$LIMMAX
 10
12.0
 20
9.0
  9
$ORTHOMODE
 70
     0
  9
$REGENMODE
 70
     1
  9
$FILLMODE
 70
     1
  9
$QTEXTMODE
 70
     0
  9
$MIRRTEXT
 70
     1
  9
$DRAGMODE
 70
     2
  9
$LTSCALE
 40
1.0
  9
$OSMODE
 70
     0
  9
$ATTMODE
 70
     1
  9
$TEXTSIZE
 40
0.2
  9
$TRACEWID
 40
0.05
  9
$TEXTSTYLE
  7
STANDARD
  9
$CLAYER
  8
0
  9
$CELTYPE
  6
CONTINUOUS
  9
$CECOLOR
 62
   256
  9
$CELTSCALE
 40
1.0
  9
$DELOBJ
 70
     1
  9
$DISPSILH
 70
     0
  9
$DIMSCALE
 40
1.0
  9
$DIMASZ
 40
0.18
  9
$DIMEXO
 40
0.0625
  9
$DIMDLI
 40
0.38
  9
$DIMRND
 40
0.0
  9
$DIMDLE
 40
0.0
  9
$DIMEXE
 40
0.18
  9
$DIMTP
 40
0.0
  9
$DIMTM
 40
0.0
  9
$DIMTXT
 40
0.18
  9
$DIMCEN
 40
0.09
  9
$DIMTSZ
 40
0.0
  9
$DIMTOL
 70
     0
  9
$DIMLIM
 70
     0
  9
$DIMTIH
 70
     1
  9
$DIMTOH
 70
     1
  9
$DIMSE1
 70
     0
  9
$DIMSE2
 70
     0
  9
$DIMTAD
 70
     0
  9
$DIMZIN
 70
     0
  9
$DIMBLK
  1

  9
$DIMASO
 70
     1
  9
$DIMSHO
 70
     1
  9
$DIMPOST
  1

  9
$DIMAPOST
  1

  9
$DIMALT
 70
     0
  9
$DIMALTD
 70
     2
  9
$DIMALTF
 40
25.4
  9
$DIMLFAC
 40
1.0
  9
$DIMTOFL
 70
     0
  9
$DIMTVP
 40
0.0
  9
$DIMTIX
 70
     0
  9
$DIMSOXD
 70
     0
  9
$DIMSAH
 70
     0
  9
$DIMBLK1
  1

  9
$DIMBLK2
  1

  9
$DIMSTYLE
  2
STANDARD
  9
$DIMCLRD
 70
     0
  9
$DIMCLRE
 70
     0
  9
$DIMCLRT
 70
     0
  9
$DIMTFAC
 40
1.0
  9
$DIMGAP
 40
0.09
  9
$DIMJUST
 70
     0
  9
$DIMSD1
 70
     0
  9
$DIMSD2
 70
     0
  9
$DIMTOLJ
 70
     1
  9
$DIMTZIN
 70
     0
  9
$DIMALTZ
 70
     0
  9
$DIMALTTZ
 70
     0
  9
$DIMFIT
 70
     3
  9
$DIMUPT
 70
     0
  9
$DIMUNIT
 70
     2
  9
$DIMDEC
 70
     4
  9
$DIMTDEC
 70
     4
  9
$DIMALTU
 70
     2
  9
$DIMALTTD
 70
     2
  9
$DIMTXSTY
  7
STANDARD
  9
$DIMAUNIT
 70
     0
  9
$LUNITS
 70
     2
  9
$LUPREC
 70
     4
  9
$SKETCHINC
 40
0.1
  9
$FILLETRAD
 40
0.0
  9
$AUNITS
 70
     0
  9
$AUPREC
 70
     0
  9
$MENU
  1
acad
  9
$ELEVATION
 40
0.0
  9
$PELEVATION
 40
0.0
  9
$THICKNESS
 40
0.0
  9
$LIMCHECK
 70
     0
  9
$BLIPMODE
 70
     1
  9
$CHAMFERA
 40
0.0
  9
$CHAMFERB
 40
0.0
  9
$CHAMFERC
 40
0.0
  9
$CHAMFERD
 40
0.0
  9
$SKPOLY
 70
     0
  9
$TDCREATE
 40
2451803.558946759
  9
$TDUPDATE
 40
2451803.558946759
  9
$TDINDWG
 40
0.0000000000
  9
$TDUSRTIMER
 40
0.0000000000
  9
$USRTIMER
 70
     1
  9
$ANGBASE
 50
0.0
  9
$ANGDIR
 70
     0
  9
$PDMODE
 70
     0
  9
$PDSIZE
 40
0.0
  9
$PLINEWID
 40
0.0
  9
$COORDS
 70
     0
  9
$SPLFRAME
 70
     0
  9
$SPLINETYPE
 70
     6
  9
$SPLINESEGS
 70
    10
  9
$ATTDIA
 70
     0
  9
$ATTREQ
 70
     1
  9
$HANDLING
 70
     1
  9
$HANDSEED
  5
4B6
  9
$SURFTAB1
 70
     6
  9
$SURFTAB2
 70
     6
  9
$SURFTYPE
 70
     6
  9
$SURFU
 70
     6
  9
$SURFV
 70
     6
  9
$UCSNAME
  2

  9
$UCSORG
 10
0.0
 20
0.0
 30
0.0
  9
$UCSXDIR
 10
1.0
 20
0.0
 30
0.0
  9
$UCSYDIR
 10
0.0
 20
1.0
 30
0.0
  9
$PUCSNAME
  2

  9
$PUCSORG
 10
0.0
 20
0.0
 30
0.0
  9
$PUCSXDIR
 10
1.0
 20
0.0
 30
0.0
  9
$PUCSYDIR
 10
0.0
 20
1.0
 30
0.0
  9
$USERI1
 70
     0
  9
$USERI2
 70
     0
  9
$USERI3
 70
     0
  9
$USERI4
 70
     0
  9
$USERI5
 70
     0
  9
$USERR1
 40
0.0
  9
$USERR2
 40
0.0
  9
$USERR3
 40
0.0
  9
$USERR4
 40
0.0
  9
$USERR5
 40
0.0
  9
$WORLDVIEW
 70
     1
  9
$SHADEDGE
 70
     3
  9
$SHADEDIF
 70
    70
  9
$TILEMODE
 70
     1
  9
$MAXACTVP
 70
    16
  9
$PINSBASE
 10
0.0
 20
0.0
 30
0.0
  9
$PLIMCHECK
 70
     0
  9
$PEXTMIN
 10
-1.000000E+20
 20
-1.000000E+20
 30
-1.000000E+20
  9
$PEXTMAX
 10
-1.000000E+20
 20
-1.000000E+20
 30
-1.000000E+20
  9
$PLIMMIN
 10
0.0
 20
0.0
  9
$PLIMMAX
 10
12.0
 20
9.0
  9
$UNITMODE
 70
     0
  9
$VISRETAIN
 70
     0
  9
$PLINEGEN
 70
     1
  9
$PSLTSCALE
 70
     0
  9
$TREEDEPTH
 70
  3020
  9
$PICKSTYLE
 70
     1
  9
$CMLSTYLE
  2
STANDARD
  9
$CMLJUST
 70
     0
  9
$CMLSCALE
 40
1.0
  9
$PROXYGRAPHICS
 70
     0
  9
$MEASUREMENT
 70
     0
  0
ENDSEC
  0
SECTION
  2
CLASSES
  0
CLASS
  1
LWPOLYLINE
  2
AcDbPolyline
  3
"AutoCAD"
 90
        0
280
     0
281
     1
  0
CLASS
  1
IMAGE
  2
AcDbRasterImage
  3
ISM
 90
      127
280
     0
281
     1
  0
CLASS
  1
OLE2FRAME
  2
AcDbOle2Frame
  3
""
 90
        0
280
     0
281
     1
  0
CLASS
  1
HATCH
  2
AcDbHatch
  3
"ACAD_SEDONA"
 90
        0
280
     0
281
     1
  0
CLASS
  1
DICTIONARYVAR
  2
AcDbDictionaryVar
  3
"AutoCAD"
 90
        0
280
     0
281
     0
  0
CLASS
  1
RASTERVARIABLES
  2
AcDbRasterVariables
  3
ISM
 90
        0
280
     0
281
     0
  0
CLASS
  1
IMAGEDEF
  2
AcDbRasterImageDef
  3
ISM
 90
        0
280
     0
281
     0
  0
CLASS
  1
IMAGEDEF_REACTOR
  2
AcDbRasterImageDefReactor
  3
ISM
 90
        1
280
     0
281
     0
  0
CLASS
  1
IDBUFFER
  2
AcDbIdBuffer
  3
"Acad"
 90
        0
280
     0
281
     0
  0
CLASS
  1
SPATIAL_FILTER
  2
AcDbSpatialFilter
  3
"Acad"
 90
        0
280
     0
281
     0
  0
CLASS
  1
XRECORD
  2
AcDbXrecord
  3
"<Built In>"
 90
        0
280
     0
281
     0
  0
CLASS
  1
SORTENTSTABLE
  2
AcDbSortentsTable
  3
"AutoCAD"
 90
        0
280
     0
281
     0
  0
CLASS
  1
LAYER_INDEX
  2
AcDbLayerIndex
  3
"Acad"
 90
        0
280
     0
281
     0
  0
CLASS
  1
SPATIAL_INDEX
  2
AcDbSpatialIndex
  3
"Acad"
 90
        0
280
     0
281
     0
  0
CLASS
  1
OBJECT_PTR
  2
CAseDLPNTableRecord
  3
"ASE-LPNTableRecord"
 90
        1
280
     0
281
     0
  0
ENDSEC
  0
SECTION
  2
TABLES
  0
TABLE
  2
VPORT
  5
7
100
AcDbSymbolTable
 70
     1
  0
VPORT
  5
4B5
100
AcDbSymbolTableRecord
100
AcDbViewportTableRecord
  2
*ACTIVE
 70
     0
 10
0.0
 20
0.0
 11
1.0
 21
1.0
 12
0.0
 22
0.0
 13
0.0
 23
0.0
 14
0.0
 24
0.0
 15
0.0
 25
0.0
 16
0.0
 26
0.0
 36
1.0
 17
342.6566
 27
-193.7408
 37
0.0
 40
565.24
 41
1.545
 42
50.0
 43
0.0
 44
0.0
 50
0.0
 51
0.0
 71
     0
 72
   100
 73
     1
 74
     0
 75
     0
 76
     0
 77
     0
 78
     0
  0
ENDTAB
  0
TABLE
  2
LTYPE
  5
4
100
AcDbSymbolTable
 70
     9
  0
LTYPE
  5
11
100
AcDbSymbolTableRecord
100
AcDbLinetypeTableRecord
  2
BYBLOCK
 70
     0
  3

 72
    65
 73
     0
 40
0.0
  0
LTYPE
  5
12
100
AcDbSymbolTableRecord
100
AcDbLinetypeTableRecord
  2
BYLAYER
 70
     0
  3

 72
    65
 73
     0
 40
0.0
  0
LTYPE
  5
13
100
AcDbSymbolTableRecord
100
AcDbLinetypeTableRecord
  2
CONTINUOUS
 70
     0
  3
Solid line
 72
    65
 73
     0
 40
0.0
  0
LTYPE
  5
22
100
AcDbSymbolTableRecord
100
AcDbLinetypeTableRecord
  2
DOT
 70
    64
  3
. . . . . . . . . . . . . . . . . . . . . . . . . . . . . . . . .
 72
    65
 73
     2
 40
0.25
 49
0.0
 74
     0
 49
-0.25
 74
     0
  0
LTYPE
  5
23
100
AcDbSymbolTableRecord
100
AcDbLinetypeTableRecord
  2
HIDDEN
 70
    64
  3
__ __ __ __ __ __ __ __ __ __ __ __ __ __ __ __ __ __ __ __ __ 
 72
    65
 73
     2
 40
0.375
 49
0.25
 74
     0
 49
-0.125
 74
     0
  0
LTYPE
  5
24
100
AcDbSymbolTableRecord
100
AcDbLinetypeTableRecord
  2
DASHED
 70
    64
  3
__ __ __ __ __ __ __ __ __ __ __ __ __ __ __ __ __ __ __ __ __
 72
    65
 73
     2
 40
0.75
 49
0.5
 74
     0
 49
-0.25
 74
     0
  0
LTYPE
  5
25
100
AcDbSymbolTableRecord
100
AcDbLinetypeTableRecord
  2
DASHDOT
 70
    64
  3
__ . __ . __ . __ . __ . __ . __ . __ . __ . __ . __ . __ . _
 72
    65
 73
     4
 40
1.0
 49
0.5
 74
     0
 49
-0.25
 74
     0
 49
0.0
 74
     0
 49
-0.25
 74
     0
  0
LTYPE
  5
26
100
AcDbSymbolTableRecord
100
AcDbLinetypeTableRecord
  2
DIVIDE
 70
    64
  3
____ . . ____ . . ____ . . ____ . . ____ . . ____ . . ____ . .
 72
    65
 73
     6
 40
1.25
 49
0.5
 74
     0
 49
-0.25
 74
     0
 49
0.0
 74
     0
 49
-0.25
 74
     0
 49
0.0
 74
     0
 49
-0.25
 74
     0
  0
LTYPE
  5
27
100
AcDbSymbolTableRecord
100
AcDbLinetypeTableRecord
  2
CENTER
 70
    64
  3
____ _ ____ _ ____ _ ____ _ ____ _ ____ _ ____ _ ____ _ ____ _
 72
    65
 73
     4
 40
2.0
 49
1.25
 74
     0
 49
-0.25
 74
     0
 49
0.25
 74
     0
 49
-0.25
 74
     0
  0
ENDTAB
  0
TABLE
  2
LAYER
  5
2
100
AcDbSymbolTable
 70
     4
  0
LAYER
  5
14
102
{ACAD_XDICTIONARY
360
5F205F5F5F5F205F
102
}
100
AcDbSymbolTableRecord
100
AcDbLayerTableRecord
  2
0
 70
     0
 62
     7
  6
CONTINUOUS
  0
LAYER
  5
2A
102
{ACAD_XDICTIONARY
360
5F205F5F5F5F205F
102
}
100
AcDbSymbolTableRecord
100
AcDbLayerTableRecord
  2
61
 70
    64
 62
     7
  6
CONTINUOUS
  0
LAYER
  5
2D
102
{ACAD_XDICTIONARY
360
5F205F5F5F5F205F
102
}
100
AcDbSymbolTableRecord
100
AcDbLayerTableRecord
  2
1
 70
    64
 62
     7
  6
CONTINUOUS
  0
LAYER
  5
97
102
{ACAD_XDICTIONARY
360
5F205F5F5F5F205F
102
}
100
AcDbSymbolTableRecord
100
AcDbLayerTableRecord
  2
4
 70
    64
 62
     7
  6
CONTINUOUS
  0
ENDTAB
  0
TABLE
  2
STYLE
  5
3
100
AcDbSymbolTable
 70
     3
  0
STYLE
  5
17
100
AcDbSymbolTableRecord
100
AcDbTextStyleTableRecord
  2
STANDARD
 70
     0
 40
0.0
 41
1.0
 50
0.0
 71
     0
 42
0.0
  3
txt
  4

  0
STYLE
  5
2B
100
AcDbSymbolTableRecord
100
AcDbTextStyleTableRecord
  2
MONOTXT
 70
     0
 40
0.2
 41
1.0
 50
0.0
 71
     0
 42
0.2
  3
MONOTXT
  4

  0
STYLE
  5
37
100
AcDbSymbolTableRecord
100
AcDbTextStyleTableRecord
  2
TXT
 70
     0
 40
0.2
 41
1.0
 50
0.0
 71
     0
 42
0.2
  3
TXT
  4

  0
ENDTAB
  0
TABLE
  2
VIEW
  5
5
100
AcDbSymbolTable
 70
     0
  0
ENDTAB
  0
TABLE
  2
UCS
  5
6
100
AcDbSymbolTable
 70
     0
  0
ENDTAB
  0
TABLE
  2
APPID
  5
8
100
AcDbSymbolTable
 70
     1
  0
APPID
  5
16
100
AcDbSymbolTableRecord
100
AcDbRegAppTableRecord
  2
ACAD
 70
     0
  0
ENDTAB
  0
TABLE
  2
DIMSTYLE
  5
9
100
AcDbSymbolTable
 70
     1
  0
DIMSTYLE
105
18
100
AcDbSymbolTableRecord
100
AcDbDimStyleTableRecord
  2
STANDARD
 70
     0
  3

  4

  5

  6

  7

 40
1.0
 41
0.18
 42
0.0625
 43
0.38
 44
0.18
 45
0.0
 46
0.0
 47
0.0
 48
0.0
140
0.18
141
0.09
142
0.0
143
25.4
144
1.0
145
0.0
146
1.0
147
0.09
 71
     0
 72
     0
 73
     1
 74
     1
 75
     0
 76
     0
 77
     0
 78
     0
170
     0
171
     2
172
     0
173
     0
174
     0
175
     0
176
     0
177
     0
178
     0
270
     2
271
     4
272
     4
273
     2
274
     2
340
17
275
     0
280
     0
281
     0
282
     0
283
     1
284
     0
285
     0
286
     0
287
     0
288
     0
  0
ENDTAB
  0
TABLE
  2
BLOCK_RECORD
  5
1
100
AcDbSymbolTable
 70
     3
  0
BLOCK_RECORD
  5
A
100
AcDbSymbolTableRecord
100
AcDbBlockTableRecord
  2
*MODEL_SPACE
  0
BLOCK_RECORD
  5
B
100
AcDbSymbolTableRecord
100
AcDbBlockTableRecord
  2
*PAPER_SPACE
  0
BLOCK_RECORD
  5
81
102
{ACAD_XDICTIONARY
360
47AD022400000073
102
}
100
AcDbSymbolTableRecord
100
AcDbBlockTableRecord
  2
ARO
  0
BLOCK_RECORD
  5
94
102
{ACAD_XDICTIONARY
360
47AD022400000073
102
}
100
AcDbSymbolTableRecord
100
AcDbBlockTableRecord
  2
2SPT
  0
BLOCK_RECORD
  5
BA
102
{ACAD_XDICTIONARY
360
47AD022400000073
102
}
100
AcDbSymbolTableRecord
100
AcDbBlockTableRecord
  2
LDR
  0
ENDTAB
  0
ENDSEC
  0
SECTION
  2
BLOCKS
  0
BLOCK
  5
D
100
AcDbEntity
  8
0
100
AcDbBlockBegin
  2
*MODEL_SPACE
 70
     0
 10
0.0
 20
0.0
 30
0.0
  3
*MODEL_SPACE
  1

  0
ENDBLK
  5
E
100
AcDbEntity
  8
0
100
AcDbBlockEnd
  0
BLOCK
  5
F
100
AcDbEntity
 67
     1
  8
0
100
AcDbBlockBegin
  2
*PAPER_SPACE
 70
     0
 10
0.0
 20
0.0
 30
0.0
  3
*PAPER_SPACE
  1

  0
ENDBLK
  5
10
100
AcDbEntity
 67
     1
  8
0
100
AcDbBlockEnd
  0
BLOCK
  5
82
100
AcDbEntity
  8
1
  6
CONTINUOUS
 62
     1
100
AcDbBlockBegin
  2
ARO
 70
     0
 10
0.0
 20
0.0
 30
0.0
  3
ARO
  1

  0
POLYLINE
  5
83
100
AcDbEntity
  8
1
  6
CONTINUOUS
 62
     1
100
AcDb2dPolyline
 66
     1
 10
0.0
 20
0.0
 30
0.0
 70
     1
  0
VERTEX
  5
84
100
AcDbEntity
  8
1
  6
CONTINUOUS
 62
     1
100
AcDbVertex
100
AcDb2dVertex
 10
0.0
 20
0.0
 30
0.0
  0
VERTEX
  5
85
100
AcDbEntity
  8
1
  6
CONTINUOUS
 62
     1
100
AcDbVertex
100
AcDb2dVertex
 10
-0.0222
 20
0.0098
 30
0.0
  0
VERTEX
  5
86
100
AcDbEntity
  8
1
  6
CONTINUOUS
 62
     1
100
AcDbVertex
100
AcDb2dVertex
 10
-0.0222
 20
0.004
 30
0.0
  0
VERTEX
  5
87
100
AcDbEntity
  8
1
  6
CONTINUOUS
 62
     1
100
AcDbVertex
100
AcDb2dVertex
 10
-0.0714
 20
0.004
 30
0.0
  0
VERTEX
  5
88
100
AcDbEntity
  8
1
  6
CONTINUOUS
 62
     1
100
AcDbVertex
100
AcDb2dVertex
 10
-0.0714
 20
0.0038
 30
0.0
  0
VERTEX
  5
89
100
AcDbEntity
  8
1
  6
CONTINUOUS
 62
     1
100
AcDbVertex
100
AcDb2dVertex
 10
-0.0714
 20
-0.0042
 30
0.0
  0
VERTEX
  5
8A
100
AcDbEntity
  8
1
  6
CONTINUOUS
 62
     1
100
AcDbVertex
100
AcDb2dVertex
 10
-0.0222
 20
-0.0042
 30
0.0
  0
VERTEX
  5
8B
100
AcDbEntity
  8
1
  6
CONTINUOUS
 62
     1
100
AcDbVertex
100
AcDb2dVertex
 10
-0.0222
 20
-0.0101
 30
0.0
  0
VERTEX
  5
8C
100
AcDbEntity
  8
1
  6
CONTINUOUS
 62
     1
100
AcDbVertex
100
AcDb2dVertex
 10
0.0
 20
0.0
 30
0.0
  0
SEQEND
  5
8D
100
AcDbEntity
  8
1
  6
CONTINUOUS
 62
     1
  0
ENDBLK
  5
8E
100
AcDbEntity
  8
1
  6
CONTINUOUS
 62
     1
100
AcDbBlockEnd
  0
BLOCK
  5
95
100
AcDbEntity
  8
1
  6
CONTINUOUS
 62
     1
100
AcDbBlockBegin
  2
2SPT
 70
     0
 10
0.0
 20
0.0
 30
0.0
  3
2SPT
  1

  0
LINE
  5
96
100
AcDbEntity
  8
1
  6
CONTINUOUS
 62
     1
100
AcDbLine
 10
-0.0121
 20
-0.0016
 30
0.0
 11
0.0134
 21
-0.0016
 31
0.0
  0
CIRCLE
  5
98
100
AcDbEntity
  8
4
  6
CONTINUOUS
 62
     1
100
AcDbCircle
 10
0.00566
 20
0.000468
 30
0.0
 40
0.00205
210
0.0
220
0.0
230
1.0
  0
CIRCLE
  5
99
100
AcDbEntity
  8
4
  6
CONTINUOUS
 62
     1
100
AcDbCircle
 10
-0.004624
 20
0.000467
 30
0.0
 40
0.00205
210
0.0
220
0.0
230
1.0
  0
ENDBLK
  5
9A
100
AcDbEntity
  8
4
  6
CONTINUOUS
 62
     1
100
AcDbBlockEnd
  0
BLOCK
  5
BB
100
AcDbEntity
  8
1
  6
CONTINUOUS
 62
     1
100
AcDbBlockBegin
  2
LDR
 70
     0
 10
0.0
 20
0.0
 30
0.0
  3
LNR
  1

  0
ELLIPSE
  5
BC
100
AcDbEntity
  8
1
  6
CONTINUOUS
 62
     1
100
AcDbEllipse
 10
-0.005456
 20
-0.001381
 30
0.0
 11
0.0089285004623472
 21
0.0007807500129699
 31
0.0
210
0.0
220
0.0
230
1.0
 40
0.122415
 41
0.8963533496766982
 42
3.1415926535897931
  0
ELLIPSE
  5
BD
100
AcDbEntity
  8
1
  6
CONTINUOUS
 62
     1
100
AcDbEllipse
 10
-0.005602
 20
0.001058
 30
0.0
 11
0.0087822506056358
 21
-0.0008782502048316
 31
0.0
210
0.0
220
0.0
230
1.0
 40
0.07063
 41
3.1407147529760402
 42
5.4181099545465106
  0
ENDBLK
  5
BE
100
AcDbEntity
  8
1
  6
CONTINUOUS
 62
     1
100
AcDbBlockEnd
  0
ENDSEC
  0
SECTION
  2
ENTITIES
  0
TEXT
  5
2C
100
AcDbEntity
  8
61
  6
CONTINUOUS
 62
     1
100
AcDbText
 10
738.8443
 20
25.6842
 30
0.0
 40
2.881584
  1
     
 41
1.001399
  7
MONOTXT
210
0.0
220
0.0
230
1.0
100
AcDbText
  0
TEXT
  5
2E
100
AcDbEntity
  8
1
  6
CONTINUOUS
 62
     1
100
AcDbText
 10
581.9568
 20
-407.2905
 30
0.0
 40
2.400048
  1
05-00-73
  7
MONOTXT
 72
     1
 11
590.6971
 21
-404.8905
 31
0.0
210
0.0
220
0.0
230
1.0
100
AcDbText
 73
     3
  0
TEXT
  5
2F
100
AcDbEntity
  8
1
  6
CONTINUOUS
 62
     1
100
AcDbText
 10
582.3079
 20
-413.0419
 30
0.0
 40
2.400048
  1
10-00-74
  7
MONOTXT
 72
     1
 11
590.5947
 21
-410.6419
 31
0.0
210
0.0
220
0.0
230
1.0
100
AcDbText
 73
     3
  0
TEXT
  5
30
100
AcDbEntity
  8
1
  6
CONTINUOUS
 62
     1
100
AcDbText
 10
582.7228
 20
-418.4789
 30
0.0
 40
2.400048
  1
11-23-77
  7
MONOTXT
 72
     1
 11
590.452
 21
-416.0789
 31
0.0
210
0.0
220
0.0
230
1.0
100
AcDbText
 73
     3
  0
TEXT
  5
31
100
AcDbEntity
  8
1
  6
CONTINUOUS
 62
     1
100
AcDbText
 10
582.7606
 20
-423.9946
 30
0.0
 40
2.400048
  1
01-15-85
  7
MONOTXT
 72
     1
 11
590.4615
 21
-421.5946
 31
0.0
210
0.0
220
0.0
230
1.0
100
AcDbText
 73
     3
  0
TEXT
  5
32
100
AcDbEntity
  8
1
  6
CONTINUOUS
 62
     1
100
AcDbText
 10
582.1718
 20
-429.9859
 30
0.0
 40
2.400048
  1
12-09-93
  7
MONOTXT
 72
     1
 11
590.2696
 21
-427.5859
 31
0.0
210
0.0
220
0.0
230
1.0
100
AcDbText
 73
     3
  0
TEXT
  5
33
100
AcDbEntity
  8
1
  6
CONTINUOUS
 62
     1
100
AcDbText
 10
575.9083
 20
-421.7718
 30
0.0
 40
2.400048
  1
        
  7
MONOTXT
 72
     1
 11
585.1085
 21
-419.3718
 31
0.0
210
0.0
220
0.0
230
1.0
100
AcDbText
 73
     3
  0
TEXT
  5
34
100
AcDbEntity
  8
1
  6
CONTINUOUS
 62
     1
100
AcDbText
 10
575.7883
 20
-427.2918
 30
0.0
 40
2.400048
  1
        
  7
MONOTXT
 72
     1
 11
584.9885
 21
-424.8918
 31
0.0
210
0.0
220
0.0
230
1.0
100
AcDbText
 73
     3
  0
TEXT
  5
35
100
AcDbEntity
  8
1
  6
CONTINUOUS
 62
     1
100
AcDbText
 10
575.9083
 20
-432.7878
 30
0.0
 40
2.400048
  1
        
  7
MONOTXT
 72
     1
 11
585.1085
 21
-430.3878
 31
0.0
210
0.0
220
0.0
230
1.0
100
AcDbText
 73
     3
  0
TEXT
  5
36
100
AcDbEntity
  8
1
  6
CONTINUOUS
 62
     1
100
AcDbText
 10
575.9083
 20
-437.6118
 30
0.0
 40
2.400048
  1
        
  7
MONOTXT
 72
     1
 11
585.1085
 21
-435.2118
 31
0.0
210
0.0
220
0.0
230
1.0
100
AcDbText
 73
     3
  0
TEXT
  5
38
100
AcDbEntity
  8
1
  6
CONTINUOUS
 62
     1
100
AcDbText
 10
613.927
 20
-377.3735
 30
0.0
 40
8.3912
  1
TYPICAL MARKINGS OF
  7
TXT
 72
     1
 11
680.3853
 21
-368.9823
 31
0.0
210
0.0
220
0.0
230
1.0
100
AcDbText
 73
     3
  0
TEXT
  5
39
100
AcDbEntity
  8
1
  6
CONTINUOUS
 62
     1
100
AcDbText
 10
618.8512
 20
-389.6355
 30
0.0
 40
8.3912
  1
INTERCHANGE RAMPS
  7
TXT
 72
     1
 11
680.8393
 21
-381.2443
 31
0.0
210
0.0
220
0.0
230
1.0
100
AcDbText
 73
     3
  0
LWPOLYLINE
  5
3A
100
AcDbEntity
  8
1
  6
CONTINUOUS
 62
     7
100
AcDbPolyline
 90
        4
 70
     0
 10
573.7663
 20
-318.6791
 10
571.3663
 20
-322.836
 10
576.1663
 20
-322.836
 10
573.7663
 20
-318.6791
  0
LWPOLYLINE
  5
3B
100
AcDbEntity
  8
1
  6
CONTINUOUS
 62
     7
100
AcDbPolyline
 90
        4
 70
     0
 10
573.8327
 20
-312.8729
 10
571.4327
 20
-317.0298
 10
576.2327
 20
-317.0298
 10
573.8327
 20
-312.8729
  0
LWPOLYLINE
  5
3C
100
AcDbEntity
  8
1
  6
CONTINUOUS
 62
     7
100
AcDbPolyline
 90
        4
 70
     0
 10
573.7523
 20
-307.0668
 10
571.3523
 20
-311.2237
 10
576.1523
 20
-311.2237
 10
573.7523
 20
-307.0668
  0
LWPOLYLINE
  5
3D
100
AcDbEntity
  8
1
  6
CONTINUOUS
 62
     7
100
AcDbPolyline
 90
        4
 70
     0
 10
573.7838
 20
-301.2607
 10
571.3838
 20
-305.4176
 10
576.1838
 20
-305.4176
 10
573.7838
 20
-301.2607
  0
LWPOLYLINE
  5
3E
100
AcDbEntity
  8
1
  6
CONTINUOUS
 62
     7
100
AcDbPolyline
 90
        4
 70
     0
 10
575.5239
 20
-420.6024
 10
573.1239
 20
-424.7593
 10
577.9239
 20
-424.7593
 10
575.5239
 20
-420.6024
  0
LWPOLYLINE
  5
3F
100
AcDbEntity
  8
1
  6
CONTINUOUS
 62
     7
100
AcDbPolyline
 90
        4
 70
     0
 10
575.4804
 20
-414.926
 10
573.0804
 20
-419.0829
 10
577.8804
 20
-419.0829
 10
575.4804
 20
-414.926
  0
LWPOLYLINE
  5
40
100
AcDbEntity
  8
1
  6
CONTINUOUS
 62
     7
100
AcDbPolyline
 90
        4
 70
     0
 10
575.594
 20
-409.3718
 10
573.194
 20
-413.5287
 10
577.994
 20
-413.5287
 10
575.594
 20
-409.3718
  0
LWPOLYLINE
  5
41
100
AcDbEntity
  8
1
  6
CONTINUOUS
 62
     7
100
AcDbPolyline
 90
        4
 70
     0
 10
575.6725
 20
-403.4162
 10
573.2725
 20
-407.5731
 10
578.0725
 20
-407.5731
 10
575.6725
 20
-403.4162
  0
TEXT
  5
42
100
AcDbEntity
  8
1
  6
CONTINUOUS
 62
     7
100
AcDbText
 10
575.2862
 20
-406.92
 30
0.0
 40
1.8
  1
1
  7
MONOTXT
210
0.0
220
0.0
230
1.0
100
AcDbText
  0
TEXT
  5
43
100
AcDbEntity
  8
1
  6
CONTINUOUS
 62
     7
100
AcDbText
 10
574.9902
 20
-412.9191
 30
0.0
 40
1.8
  1
2
  7
MONOTXT
210
0.0
220
0.0
230
1.0
100
AcDbText
  0
TEXT
  5
44
100
AcDbEntity
  8
1
  6
CONTINUOUS
 62
     7
100
AcDbText
 10
574.7895
 20
-418.6039
 30
0.0
 40
1.8
  1
3
  7
MONOTXT
210
0.0
220
0.0
230
1.0
100
AcDbText
  0
TEXT
  5
45
100
AcDbEntity
  8
1
  6
CONTINUOUS
 62
     7
100
AcDbText
 10
574.746
 20
-424.0192
 30
0.0
 40
1.8
  1
4
  7
MONOTXT
210
0.0
220
0.0
230
1.0
100
AcDbText
  0
TEXT
  5
46
100
AcDbEntity
  8
1
  6
CONTINUOUS
 62
     7
100
AcDbText
 10
573.4463
 20
-304.6572
 30
0.0
 40
1.8
  1
1
  7
MONOTXT
210
0.0
220
0.0
230
1.0
100
AcDbText
  0
TEXT
  5
47
100
AcDbEntity
  8
1
  6
CONTINUOUS
 62
     7
100
AcDbText
 10
573.1375
 20
-310.5613
 30
0.0
 40
1.8
  1
2
  7
MONOTXT
210
0.0
220
0.0
230
1.0
100
AcDbText
  0
TEXT
  5
48
100
AcDbEntity
  8
1
  6
CONTINUOUS
 62
     7
100
AcDbText
 10
573.1031
 20
-316.4997
 30
0.0
 40
1.8
  1
3
  7
MONOTXT
210
0.0
220
0.0
230
1.0
100
AcDbText
  0
TEXT
  5
49
100
AcDbEntity
  8
1
  6
CONTINUOUS
 62
     7
100
AcDbText
 10
573.0345
 20
-322.1979
 30
0.0
 40
1.8
  1
4
  7
MONOTXT
210
0.0
220
0.0
230
1.0
100
AcDbText
  0
TEXT
  5
4A
100
AcDbEntity
  8
1
  6
CONTINUOUS
 62
     7
100
AcDbText
 10
577.3827
 20
-304.7787
 30
0.0
 40
2.4
  1
EDGE LINES
  7
MONOTXT
210
0.0
220
0.0
230
1.0
100
AcDbText
  0
TEXT
  5
4B
100
AcDbEntity
  8
1
  6
CONTINUOUS
 62
     7
100
AcDbText
 10
577.2347
 20
-310.2558
 30
0.0
 40
2.4
  1
RAMP EDGE LINES
  7
MONOTXT
210
0.0
220
0.0
230
1.0
100
AcDbText
  0
TEXT
  5
4C
100
AcDbEntity
  8
1
  6
CONTINUOUS
 62
     7
100
AcDbText
 10
577.3087
 20
-316.029
 30
0.0
 40
2.4
  1
MODIFIED SPACING & DOTTED LINES
  7
MONOTXT
210
0.0
220
0.0
230
1.0
100
AcDbText
  0
TEXT
  5
4D
100
AcDbEntity
  8
1
  6
CONTINUOUS
 62
     7
100
AcDbText
 10
577.1608
 20
-321.8761
 30
0.0
 40
2.4
  1
WHOLE SHEET
  7
MONOTXT
210
0.0
220
0.0
230
1.0
100
AcDbText
  0
LINE
  5
4E
100
AcDbEntity
  8
1
  6
CONTINUOUS
 62
     1
100
AcDbLine
 10
17.952
 20
-38.7669
 30
0.0
 11
277.152
 21
-38.7669
 31
0.0
  0
LINE
  5
4F
100
AcDbEntity
  8
1
  6
CONTINUOUS
 62
     1
100
AcDbLine
 10
17.952
 20
-34.5669
 30
0.0
 11
277.152
 21
-34.5669
 31
0.0
  0
LINE
  5
50
100
AcDbEntity
  8
1
  6
CONTINUOUS
 62
     1
100
AcDbLine
 10
17.952
 20
-27.3669
 30
0.0
 11
26.352
 21
-27.3669
 31
0.0
  0
LINE
  5
51
100
AcDbEntity
  8
1
  6
CONTINUOUS
 62
     1
100
AcDbLine
 10
43.152
 20
-27.3669
 30
0.0
 11
51.552
 21
-27.3669
 31
0.0
  0
LINE
  5
52
100
AcDbEntity
  8
1
  6
CONTINUOUS
 62
     1
100
AcDbLine
 10
68.352
 20
-27.3669
 30
0.0
 11
76.752
 21
-27.3669
 31
0.0
  0
LINE
  5
53
100
AcDbEntity
  8
1
  6
CONTINUOUS
 62
     1
100
AcDbLine
 10
93.552
 20
-27.3669
 30
0.0
 11
101.952
 21
-27.3669
 31
0.0
  0
LINE
  5
54
100
AcDbEntity
  8
1
  6
CONTINUOUS
 62
     1
100
AcDbLine
 10
118.752
 20
-27.3669
 30
0.0
 11
127.152
 21
-27.3669
 31
0.0
  0
LINE
  5
55
100
AcDbEntity
  8
1
  6
CONTINUOUS
 62
     1
100
AcDbLine
 10
143.952
 20
-27.3669
 30
0.0
 11
152.352
 21
-27.3669
 31
0.0
  0
LINE
  5
56
100
AcDbEntity
  8
1
  6
CONTINUOUS
 62
     1
100
AcDbLine
 10
169.152
 20
-27.3669
 30
0.0
 11
177.552
 21
-27.3669
 31
0.0
  0
LINE
  5
57
100
AcDbEntity
  8
1
  6
CONTINUOUS
 62
     1
100
AcDbLine
 10
194.352
 20
-27.3669
 30
0.0
 11
202.752
 21
-27.3669
 31
0.0
  0
LINE
  5
58
100
AcDbEntity
  8
1
  6
CONTINUOUS
 62
     1
100
AcDbLine
 10
219.552
 20
-27.3669
 30
0.0
 11
227.952
 21
-27.3669
 31
0.0
  0
LINE
  5
59
100
AcDbEntity
  8
1
  6
CONTINUOUS
 62
     1
100
AcDbLine
 10
244.752
 20
-27.3669
 30
0.0
 11
253.152
 21
-27.3669
 31
0.0
  0
LINE
  5
5A
100
AcDbEntity
  8
1
  6
CONTINUOUS
 62
     1
100
AcDbLine
 10
269.952
 20
-27.3669
 30
0.0
 11
277.152
 21
-27.3669
 31
0.0
  0
LINE
  5
5B
100
AcDbEntity
  8
1
  6
CONTINUOUS
 62
     1
100
AcDbLine
 10
232.3323
 20
-20.1669
 30
0.0
 11
277.152
 21
-20.1669
 31
0.0
  0
LINE
  5
5C
100
AcDbEntity
  8
1
  6
CONTINUOUS
 62
     1
100
AcDbLine
 10
217.152
 20
-20.1669
 30
0.0
 11
218.352
 21
-20.1669
 31
0.0
  0
LINE
  5
5D
100
AcDbEntity
  8
1
  6
CONTINUOUS
 62
     1
100
AcDbLine
 10
209.352
 20
-20.1669
 30
0.0
 11
210.552
 21
-20.1669
 31
0.0
  0
LINE
  5
5E
100
AcDbEntity
  8
1
  6
CONTINUOUS
 62
     1
100
AcDbLine
 10
201.552
 20
-20.1669
 30
0.0
 11
202.752
 21
-20.1669
 31
0.0
  0
LINE
  5
5F
100
AcDbEntity
  8
1
  6
CONTINUOUS
 62
     1
100
AcDbLine
 10
193.752
 20
-20.1669
 30
0.0
 11
194.952
 21
-20.1669
 31
0.0
  0
LINE
  5
60
100
AcDbEntity
  8
1
  6
CONTINUOUS
 62
     1
100
AcDbLine
 10
185.952
 20
-20.1669
 30
0.0
 11
187.152
 21
-20.1669
 31
0.0
  0
LINE
  5
61
100
AcDbEntity
  8
1
  6
CONTINUOUS
 62
     1
100
AcDbLine
 10
178.152
 20
-20.1669
 30
0.0
 11
179.352
 21
-20.1669
 31
0.0
  0
LINE
  5
62
100
AcDbEntity
  8
1
  6
CONTINUOUS
 62
     1
100
AcDbLine
 10
170.352
 20
-20.1669
 30
0.0
 11
171.552
 21
-20.1669
 31
0.0
  0
LINE
  5
63
100
AcDbEntity
  8
1
  6
CONTINUOUS
 62
     1
100
AcDbLine
 10
162.552
 20
-20.1669
 30
0.0
 11
163.752
 21
-20.1669
 31
0.0
  0
LINE
  5
64
100
AcDbEntity
  8
1
  6
CONTINUOUS
 62
     1
100
AcDbLine
 10
17.952
 20
-20.1669
 30
0.0
 11
40.152
 21
-20.1669
 31
0.0
  0
LINE
  5
65
100
AcDbEntity
  8
1
  6
CONTINUOUS
 62
     1
100
AcDbLine
 10
40.152
 20
-20.1669
 30
0.0
 11
155.952
 21
-20.1669
 31
0.0
  0
LINE
  5
66
100
AcDbEntity
  8
1
  6
CONTINUOUS
 62
     1
100
AcDbLine
 10
155.952
 20
-20.1669
 30
0.0
 11
40.152
 21
-3.8038
 31
0.0
  0
LINE
  5
67
100
AcDbEntity
  8
1
  6
CONTINUOUS
 62
     1
100
AcDbLine
 10
40.152
 20
-3.8039
 30
0.0
 11
17.952
 21
-0.6669
 31
0.0
  0
LINE
  5
68
100
AcDbEntity
  8
1
  6
CONTINUOUS
 62
     1
100
AcDbLine
 10
230.7782
 20
-20.0658
 30
0.0
 11
17.952
 21
7.7331
 31
0.0
  0
LINE
  5
69
100
AcDbEntity
  8
1
  6
CONTINUOUS
 62
     1
100
AcDbLine
 10
231.2073
 20
-13.4658
 30
0.0
 11
18.8068
 21
14.2775
 31
0.0
  0
LINE
  5
6A
100
AcDbEntity
  8
1
  6
CONTINUOUS
 62
     1
100
AcDbLine
 10
232.7616
 20
-13.5669
 30
0.0
 11
277.152
 21
-13.5669
 31
0.0
  0
ARC
  5
6B
100
AcDbEntity
  8
1
  6
CONTINUOUS
 62
     1
100
AcDbCircle
 10
232.761575
 20
-1.5669
 30
0.0
 40
12.0
210
0.0
220
0.0
230
1.0
100
AcDbArc
 50
262.557792
 51
270.0
  0
ARC
  5
6C
100
AcDbEntity
  8
1
  6
CONTINUOUS
 62
     1
100
AcDbCircle
 10
232.332325
 20
-8.1669
 30
0.0
 40
12.0
210
0.0
220
0.0
230
1.0
100
AcDbArc
 50
262.558922
 51
270.0
  0
LINE
  5
6D
100
AcDbEntity
  8
1
  6
CONTINUOUS
 62
     1
100
AcDbLine
 10
70.8162
 20
-12.3787
 30
0.0
 11
17.3643
 21
-4.8256
 31
0.0
  0
LINE
  5
6E
100
AcDbEntity
  8
1
  6
CONTINUOUS
 62
     1
100
AcDbLine
 10
17.952
 20
-14.7669
 30
0.0
 11
70.6483
 21
-14.7669
 31
0.0
  0
ARC
  5
6F
100
AcDbEntity
  8
1
  6
CONTINUOUS
 62
     1
100
AcDbCircle
 10
70.64834
 20
-13.5669
 30
0.0
 40
1.2
210
0.0
220
0.0
230
1.0
100
AcDbArc
 50
270.0
 51
81.957003
  0
LINE
  5
70
100
AcDbEntity
  8
1
  6
CONTINUOUS
 62
     1
100
AcDbLine
 10
45.243
 20
-20.1669
 30
0.0
 11
50.6431
 21
-14.7669
 31
0.0
  0
LINE
  5
71
100
AcDbEntity
  8
1
  6
CONTINUOUS
 62
     1
100
AcDbLine
 10
52.0312
 20
-20.1669
 30
0.0
 11
57.4314
 21
-14.7669
 31
0.0
  0
LINE
  5
72
100
AcDbEntity
  8
1
  6
CONTINUOUS
 62
     1
100
AcDbLine
 10
58.8194
 20
-20.1669
 30
0.0
 11
64.2195
 21
-14.7669
 31
0.0
  0
LINE
  5
73
100
AcDbEntity
  8
1
  6
CONTINUOUS
 62
     1
100
AcDbLine
 10
65.6078
 20
-20.1669
 30
0.0
 11
71.0079
 21
-14.7669
 31
0.0
  0
LINE
  5
74
100
AcDbEntity
  8
1
  6
CONTINUOUS
 62
     1
100
AcDbLine
 10
72.3961
 20
-20.1669
 30
0.0
 11
82.7413
 21
-9.8219
 31
0.0
  0
LINE
  5
75
100
AcDbEntity
  8
1
  6
CONTINUOUS
 62
     1
100
AcDbLine
 10
79.1844
 20
-20.1669
 30
0.0
 11
88.6892
 21
-10.6623
 31
0.0
  0
LINE
  5
76
100
AcDbEntity
  8
1
  6
CONTINUOUS
 62
     1
100
AcDbLine
 10
85.9726
 20
-20.1669
 30
0.0
 11
94.6369
 21
-11.5028
 31
0.0
  0
LINE
  5
77
100
AcDbEntity
  8
1
  6
CONTINUOUS
 62
     1
100
AcDbLine
 10
92.7609
 20
-20.1669
 30
0.0
 11
100.5847
 21
-12.3432
 31
0.0
  0
LINE
  5
78
100
AcDbEntity
  8
1
  6
CONTINUOUS
 62
     1
100
AcDbLine
 10
99.5492
 20
-20.1669
 30
0.0
 11
106.5325
 21
-13.1837
 31
0.0
  0
LINE
  5
79
100
AcDbEntity
  8
1
  6
CONTINUOUS
 62
     1
100
AcDbLine
 10
106.3374
 20
-20.1669
 30
0.0
 11
112.4803
 21
-14.0241
 31
0.0
  0
LINE
  5
7A
100
AcDbEntity
  8
1
  6
CONTINUOUS
 62
     1
100
AcDbLine
 10
113.1257
 20
-20.1669
 30
0.0
 11
118.4281
 21
-14.8646
 31
0.0
  0
LINE
  5
7B
100
AcDbEntity
  8
1
  6
CONTINUOUS
 62
     1
100
AcDbLine
 10
119.9139
 20
-20.1669
 30
0.0
 11
124.3759
 21
-15.705
 31
0.0
  0
LINE
  5
7C
100
AcDbEntity
  8
1
  6
CONTINUOUS
 62
     1
100
AcDbLine
 10
126.7022
 20
-20.1669
 30
0.0
 11
130.3237
 21
-16.5455
 31
0.0
  0
LINE
  5
7D
100
AcDbEntity
  8
1
  6
CONTINUOUS
 62
     1
100
AcDbLine
 10
133.4904
 20
-20.1669
 30
0.0
 11
136.2714
 21
-17.3859
 31
0.0
  0
LINE
  5
7E
100
AcDbEntity
  8
1
  6
CONTINUOUS
 62
     1
100
AcDbLine
 10
140.2787
 20
-20.1669
 30
0.0
 11
142.2193
 21
-18.2264
 31
0.0
  0
LINE
  5
7F
100
AcDbEntity
  8
1
  6
CONTINUOUS
 62
     1
100
AcDbLine
 10
147.0668
 20
-20.1669
 30
0.0
 11
148.1669
 21
-19.0668
 31
0.0
  0
LINE
  5
80
100
AcDbEntity
  8
1
  6
CONTINUOUS
 62
     1
100
AcDbLine
 10
153.855
 20
-20.1669
 30
0.0
 11
154.1146
 21
-19.9073
 31
0.0
  0
INSERT
  5
8F
100
AcDbEntity
  8
1
  6
CONTINUOUS
 62
     1
100
AcDbBlockReference
  2
ARO
 10
103.5507
 20
-7.9591
 30
0.0
 41
240.000002
 42
240.000002
 50
172.80426
210
0.0
220
0.0
230
1.0
  0
INSERT
  5
90
100
AcDbEntity
  8
1
  6
CONTINUOUS
 62
     1
100
AcDbBlockReference
  2
ARO
 10
101.818
 20
-23.7304
 30
0.0
 41
240.0
 42
240.0
 50
180.0
210
0.0
220
0.0
230
1.0
  0
INSERT
  5
91
100
AcDbEntity
  8
1
  6
CONTINUOUS
 62
     1
100
AcDbBlockReference
  2
ARO
 10
101.9953
 20
-31.3608
 30
0.0
 41
240.0
 42
240.0
 50
180.0
210
0.0
220
0.0
230
1.0
  0
INSERT
  5
92
100
AcDbEntity
  8
1
  6
CONTINUOUS
 62
     1
100
AcDbBlockReference
  2
ARO
 10
242.6125
 20
-31.2138
 30
0.0
 41
240.0
 42
240.0
 50
180.0
210
0.0
220
0.0
230
1.0
  0
INSERT
  5
93
100
AcDbEntity
  8
1
  6
CONTINUOUS
 62
     1
100
AcDbBlockReference
  2
ARO
 10
242.4352
 20
-23.5834
 30
0.0
 41
240.0
 42
240.0
 50
180.0
210
0.0
220
0.0
230
1.0
  0
INSERT
  5
9B
100
AcDbEntity
  8
1
  6
CONTINUOUS
 62
     1
100
AcDbBlockReference
  2
2SPT
 10
52.795
 20
-12.3786
 30
0.0
 41
174.96
 42
174.96
 50
90.0
210
0.0
220
0.0
230
1.0
  0
TEXT
  5
9C
100
AcDbEntity
  8
1
  6
CONTINUOUS
 62
     7
100
AcDbText
 10
85.3754
 20
18.2627
 30
0.0
 40
3.0
  1
SEE DETAIL "A"
  7
MONOTXT
 11
85.3754
 21
21.2627
 31
0.0
210
0.0
220
0.0
230
1.0
100
AcDbText
 73
     3
  0
TEXT
  5
9D
100
AcDbEntity
  8
1
  6
CONTINUOUS
 62
     7
100
AcDbText
 10
85.3754
 20
12.8627
 30
0.0
 40
3.0
  1
& NOTE 1
  7
MONOTXT
 11
85.3754
 21
15.8627
 31
0.0
210
0.0
220
0.0
230
1.0
100
AcDbText
 73
     3
  0
TEXT
  5
9E
100
AcDbEntity
  8
1
  6
CONTINUOUS
 62
     7
100
AcDbText
 10
16.1537
 20
-12.6453
 30
0.0
 40
3.0
  1
EXIT SIGN
  7
MONOTXT
210
0.0
220
0.0
230
1.0
100
AcDbText
  0
TEXT
  5
9F
100
AcDbEntity
  8
1
  6
CONTINUOUS
 62
     7
100
AcDbText
 10
174.9665
 20
-72.6297
 30
0.0
 40
3.0
  1
THEORETICAL GORE POINT
  7
MONOTXT
210
0.0
220
0.0
230
1.0
100
AcDbText
  0
LINE
  5
A0
100
AcDbEntity
  8
1
  6
CONTINUOUS
 62
     7
100
AcDbLine
 10
25.3756
 20
-1.7159
 30
0.0
 11
34.6315
 21
28.9543
 31
0.0
  0
LINE
  5
A1
100
AcDbEntity
  8
1
  6
CONTINUOUS
 62
     7
100
AcDbLine
 10
96.6728
 20
-16.255
 30
0.0
 11
78.2614
 21
19.6436
 31
0.0
  0
LINE
  5
A2
100
AcDbEntity
  8
1
  6
CONTINUOUS
 62
     7
100
AcDbLine
 10
66.0037
 20
-20.1669
 30
0.0
 11
89.6052
 21
-66.1898
 31
0.0
  0
LINE
  5
A3
100
AcDbEntity
  8
1
  6
CONTINUOUS
 62
     7
100
AcDbLine
 10
89.6052
 20
-66.1898
 30
0.0
 11
73.7296
 21
-8.5485
 31
0.0
  0
LINE
  5
A4
100
AcDbEntity
  8
1
  6
CONTINUOUS
 62
     7
100
AcDbLine
 10
155.952
 20
-20.1669
 30
0.0
 11
169.0117
 21
-71.4271
 31
0.0
  0
LINE
  5
A5
100
AcDbEntity
  8
1
  6
CONTINUOUS
 62
     7
100
AcDbLine
 10
178.752
 20
-20.1669
 30
0.0
 11
168.8097
 21
23.3737
 31
0.0
  0
LINE
  5
A6
100
AcDbEntity
  8
1
  6
CONTINUOUS
 62
     7
100
AcDbLine
 10
223.752
 20
-27.3669
 30
0.0
 11
240.1109
 21
-60.9525
 31
0.0
  0
LINE
  5
A7
100
AcDbEntity
  8
1
  6
CONTINUOUS
 62
     7
100
AcDbLine
 10
267.1831
 20
-34.5669
 30
0.0
 11
249.192
 21
11.5051
 31
0.0
  0
LINE
  5
A8
100
AcDbEntity
  8
1
  6
CONTINUOUS
 62
     7
100
AcDbLine
 10
272.3657
 20
-20.1669
 30
0.0
 11
249.4357
 21
36.8184
 31
0.0
  0
LINE
  5
A9
100
AcDbEntity
  8
1
  6
CONTINUOUS
 62
     7
100
AcDbLine
 10
154.6327
 20
-10.1198
 30
0.0
 11
153.368
 21
-19.8018
 31
0.0
  0
LINE
  5
AA
100
AcDbEntity
  8
1
  6
CONTINUOUS
 62
     7
100
AcDbLine
 10
154.0211
 20
-14.8021
 30
0.0
 11
125.0328
 21
36.0127
 31
0.0
  0
LINE
  5
AB
100
AcDbEntity
  8
1
  6
CONTINUOUS
 62
     7
100
AcDbLine
 10
193.752
 20
-18.9669
 30
0.0
 11
193.752
 21
-2.5124
 31
0.0
  0
LINE
  5
AC
100
AcDbEntity
  8
1
  6
CONTINUOUS
 62
     7
100
AcDbLine
 10
194.952
 20
-18.9669
 30
0.0
 11
194.952
 21
-2.5124
 31
0.0
  0
LINE
  5
AD
100
AcDbEntity
  8
1
  6
CONTINUOUS
 62
     7
100
AcDbLine
 10
201.552
 20
-18.9669
 30
0.0
 11
201.552
 21
-2.5124
 31
0.0
  0
LINE
  5
AE
100
AcDbEntity
  8
1
  6
CONTINUOUS
 62
     7
100
AcDbLine
 10
177.552
 20
-28.5669
 30
0.0
 11
177.552
 21
-61.8928
 31
0.0
  0
LINE
  5
AF
100
AcDbEntity
  8
1
  6
CONTINUOUS
 62
     7
100
AcDbLine
 10
194.352
 20
-28.5669
 30
0.0
 11
194.352
 21
-61.8928
 31
0.0
  0
LINE
  5
B0
100
AcDbEntity
  8
1
  6
CONTINUOUS
 62
     7
100
AcDbLine
 10
202.752
 20
-28.5669
 30
0.0
 11
202.752
 21
-61.8928
 31
0.0
  0
LINE
  5
B1
100
AcDbEntity
  8
1
  6
CONTINUOUS
 62
     7
100
AcDbLine
 10
243.4357
 20
36.8184
 30
0.0
 11
249.4357
 21
36.8184
 31
0.0
  0
LINE
  5
B2
100
AcDbEntity
  8
1
  6
CONTINUOUS
 62
     7
100
AcDbLine
 10
34.6315
 20
28.9543
 30
0.0
 11
40.6315
 21
28.9543
 31
0.0
  0
LINE
  5
B3
100
AcDbEntity
  8
1
  6
CONTINUOUS
 62
     7
100
AcDbLine
 10
78.2614
 20
19.6436
 30
0.0
 11
84.2614
 21
19.6436
 31
0.0
  0
LINE
  5
B4
100
AcDbEntity
  8
1
  6
CONTINUOUS
 62
     7
100
AcDbLine
 10
125.0328
 20
36.0127
 30
0.0
 11
131.0328
 21
36.0127
 31
0.0
  0
LINE
  5
B5
100
AcDbEntity
  8
1
  6
CONTINUOUS
 62
     7
100
AcDbLine
 10
168.8097
 20
23.3737
 30
0.0
 11
174.8097
 21
23.3737
 31
0.0
  0
LINE
  5
B6
100
AcDbEntity
  8
1
  6
CONTINUOUS
 62
     7
100
AcDbLine
 10
242.7478
 20
11.5051
 30
0.0
 11
249.192
 21
11.5051
 31
0.0
  0
LINE
  5
B7
100
AcDbEntity
  8
1
  6
CONTINUOUS
 62
     7
100
AcDbLine
 10
187.752
 20
-3.7124
 30
0.0
 11
193.752
 21
-3.7124
 31
0.0
  0
LINE
  5
B8
100
AcDbEntity
  8
1
  6
CONTINUOUS
 62
     7
100
AcDbLine
 10
194.952
 20
-3.7124
 30
0.0
 11
201.552
 21
-3.7124
 31
0.0
  0
LINE
  5
B9
100
AcDbEntity
  8
1
  6
CONTINUOUS
 62
     7
100
AcDbLine
 10
201.552
 20
-3.7124
 30
0.0
 11
207.552
 21
-3.7124
 31
0.0
  0
INSERT
  5
BF
100
AcDbEntity
  8
1
  6
CONTINUOUS
 62
     1
100
AcDbBlockReference
  2
LDR
 10
193.752
 20
-3.7124
 30
0.0
 41
240.0
 42
240.0
210
0.0
220
0.0
230
1.0
  0
INSERT
  5
C0
100
AcDbEntity
  8
1
  6
CONTINUOUS
 62
     1
100
AcDbBlockReference
  2
LDR
 10
193.752
 20
-3.7124
 30
0.0
 41
240.0
 42
240.0
210
0.0
220
0.0
230
1.0
  0
INSERT
  5
C1
100
AcDbEntity
  8
1
  6
CONTINUOUS
 62
     1
100
AcDbBlockReference
  2
LDR
 10
194.9601
 20
-3.7197
 30
0.0
 41
180.0
 42
180.0
 50
180.0
210
0.0
220
0.0
230
1.0
  0
INSERT
  5
C2
100
AcDbEntity
  8
1
  6
CONTINUOUS
 62
     1
100
AcDbBlockReference
  2
LDR
 10
201.5439
 20
-3.7052
 30
0.0
 41
180.0
 42
180.0
210
0.0
220
0.0
230
1.0
  0
INSERT
  5
C3
100
AcDbEntity
  8
1
  6
CONTINUOUS
 62
     1
100
AcDbBlockReference
  2
LDR
 10
154.6327
 20
-10.1198
 30
0.0
 41
239.999999
 42
239.999999
 50
82.557942
210
0.0
220
0.0
230
1.0
  0
INSERT
  5
C4
100
AcDbEntity
  8
1
  6
CONTINUOUS
 62
     1
100
AcDbBlockReference
  2
LDR
 10
154.6327
 20
-10.1198
 30
0.0
 41
239.999999
 42
239.999999
 50
82.557942
210
0.0
220
0.0
230
1.0
  0
INSERT
  5
C5
100
AcDbEntity
  8
1
  6
CONTINUOUS
 62
     1
100
AcDbBlockReference
  2
LDR
 10
153.368
 20
-19.8018
 30
0.0
 41
239.999999
 42
239.999999
 50
262.557942
210
0.0
220
0.0
230
1.0
  0
INSERT
  5
C6
100
AcDbEntity
  8
1
  6
CONTINUOUS
 62
     1
100
AcDbBlockReference
  2
LDR
 10
155.952
 20
-20.1669
 30
0.0
 41
240.000001
 42
240.000001
 50
104.293324
210
0.0
220
0.0
230
1.0
  0
INSERT
  5
C7
100
AcDbEntity
  8
1
  6
CONTINUOUS
 62
     1
100
AcDbBlockReference
  2
LDR
 10
155.952
 20
-20.1669
 30
0.0
 41
240.000001
 42
240.000001
 50
104.293324
210
0.0
220
0.0
230
1.0
  0
INSERT
  5
C8
100
AcDbEntity
  8
1
  6
CONTINUOUS
 62
     1
100
AcDbBlockReference
  2
LDR
 10
178.752
 20
-20.1669
 30
0.0
 41
239.999999
 42
239.999999
 50
282.862699
210
0.0
220
0.0
230
1.0
  0
LINE
  5
C9
100
AcDbEntity
  8
1
  6
CONTINUOUS
 62
     7
100
AcDbLine
 10
177.552
 20
-60.6928
 30
0.0
 11
194.352
 21
-60.6928
 31
0.0
  0
LINE
  5
CA
100
AcDbEntity
  8
1
  6
CONTINUOUS
 62
     7
100
AcDbLine
 10
194.352
 20
-60.6928
 30
0.0
 11
202.752
 21
-60.6928
 31
0.0
  0
INSERT
  5
CB
100
AcDbEntity
  8
1
  6
CONTINUOUS
 62
     1
100
AcDbBlockReference
  2
LDR
 10
194.352
 20
-60.6928
 30
0.0
 41
240.0
 42
240.0
210
0.0
220
0.0
230
1.0
  0
INSERT
  5
CC
100
AcDbEntity
  8
1
  6
CONTINUOUS
 62
     1
100
AcDbBlockReference
  2
LDR
 10
194.352
 20
-60.6928
 30
0.0
 41
240.0
 42
240.0
210
0.0
220
0.0
230
1.0
  0
INSERT
  5
CD
100
AcDbEntity
  8
1
  6
CONTINUOUS
 62
     1
100
AcDbBlockReference
  2
LDR
 10
194.352
 20
-60.6928
 30
0.0
 41
240.0
 42
240.0
 50
180.0
210
0.0
220
0.0
230
1.0
  0
INSERT
  5
CE
100
AcDbEntity
  8
1
  6
CONTINUOUS
 62
     1
100
AcDbBlockReference
  2
LDR
 10
194.352
 20
-60.6928
 30
0.0
 41
240.0
 42
240.0
 50
180.0
210
0.0
220
0.0
230
1.0
  0
INSERT
  5
CF
100
AcDbEntity
  8
1
  6
CONTINUOUS
 62
     1
100
AcDbBlockReference
  2
LDR
 10
202.752
 20
-60.6928
 30
0.0
 41
240.0
 42
240.0
210
0.0
220
0.0
230
1.0
  0
INSERT
  5
D0
100
AcDbEntity
  8
1
  6
CONTINUOUS
 62
     1
100
AcDbBlockReference
  2
LDR
 10
202.752
 20
-60.6928
 30
0.0
 41
240.0
 42
240.0
210
0.0
220
0.0
230
1.0
  0
INSERT
  5
D1
100
AcDbEntity
  8
1
  6
CONTINUOUS
 62
     1
100
AcDbBlockReference
  2
LDR
 10
177.552
 20
-60.6928
 30
0.0
 41
240.0
 42
240.0
 50
180.0
210
0.0
220
0.0
230
1.0
  0
INSERT
  5
D2
100
AcDbEntity
  8
1
  6
CONTINUOUS
 62
     1
100
AcDbBlockReference
  2
LDR
 10
25.3756
 20
-1.7159
 30
0.0
 41
239.999998
 42
239.999998
 50
253.206813
210
0.0
220
0.0
230
1.0
  0
INSERT
  5
D3
100
AcDbEntity
  8
1
  6
CONTINUOUS
 62
     1
100
AcDbBlockReference
  2
LDR
 10
25.3756
 20
-1.7159
 30
0.0
 41
239.999998
 42
239.999998
 50
253.206813
210
0.0
220
0.0
230
1.0
  0
INSERT
  5
D4
100
AcDbEntity
  8
1
  6
CONTINUOUS
 62
     1
100
AcDbBlockReference
  2
LDR
 10
96.6728
 20
-16.255
 30
0.0
 41
239.999999
 42
239.999999
 50
297.152034
210
0.0
220
0.0
230
1.0
  0
INSERT
  5
D5
100
AcDbEntity
  8
1
  6
CONTINUOUS
 62
     1
100
AcDbBlockReference
  2
LDR
 10
96.6728
 20
-16.255
 30
0.0
 41
239.999999
 42
239.999999
 50
297.152034
210
0.0
220
0.0
230
1.0
  0
INSERT
  5
D6
100
AcDbEntity
  8
1
  6
CONTINUOUS
 62
     1
100
AcDbBlockReference
  2
LDR
 10
267.1831
 20
-34.5669
 30
0.0
 41
240.0
 42
240.0
 50
291.330634
210
0.0
220
0.0
230
1.0
  0
INSERT
  5
D7
100
AcDbEntity
  8
1
  6
CONTINUOUS
 62
     1
100
AcDbBlockReference
  2
LDR
 10
267.1831
 20
-34.5669
 30
0.0
 41
240.0
 42
240.0
 50
291.330634
210
0.0
220
0.0
230
1.0
  0
INSERT
  5
D8
100
AcDbEntity
  8
1
  6
CONTINUOUS
 62
     1
100
AcDbBlockReference
  2
LDR
 10
272.3657
 20
-20.1669
 30
0.0
 41
240.0
 42
240.0
 50
291.919089
210
0.0
220
0.0
230
1.0
  0
INSERT
  5
D9
100
AcDbEntity
  8
1
  6
CONTINUOUS
 62
     1
100
AcDbBlockReference
  2
LDR
 10
66.0037
 20
-20.1669
 30
0.0
 41
240.000001
 42
240.000001
 50
117.149694
210
0.0
220
0.0
230
1.0
  0
INSERT
  5
DA
100
AcDbEntity
  8
1
  6
CONTINUOUS
 62
     1
100
AcDbBlockReference
  2
LDR
 10
66.0037
 20
-20.1669
 30
0.0
 41
240.000001
 42
240.000001
 50
117.149694
210
0.0
220
0.0
230
1.0
  0
INSERT
  5
DB
100
AcDbEntity
  8
1
  6
CONTINUOUS
 62
     1
100
AcDbBlockReference
  2
LDR
 10
73.7296
 20
-8.5485
 30
0.0
 41
239.999999
 42
239.999999
 50
105.398652
210
0.0
220
0.0
230
1.0
  0
INSERT
  5
DC
100
AcDbEntity
  8
1
  6
CONTINUOUS
 62
     1
100
AcDbBlockReference
  2
LDR
 10
73.7296
 20
-8.5485
 30
0.0
 41
239.999999
 42
239.999999
 50
105.398652
210
0.0
220
0.0
230
1.0
  0
INSERT
  5
DD
100
AcDbEntity
  8
1
  6
CONTINUOUS
 62
     1
100
AcDbBlockReference
  2
LDR
 10
223.752
 20
-27.3669
 30
0.0
 41
239.999999
 42
239.999999
 50
115.969823
210
0.0
220
0.0
230
1.0
  0
LINE
  5
DE
100
AcDbEntity
  8
1
  6
CONTINUOUS
 62
     7
100
AcDbLine
 10
36.1833
 20
-63.9865
 30
0.0
 11
42.1833
 21
-63.9865
 31
0.0
  0
LINE
  5
DF
100
AcDbEntity
  8
1
  6
CONTINUOUS
 62
     7
100
AcDbLine
 10
89.6052
 20
-66.1898
 30
0.0
 11
95.6052
 21
-66.1898
 31
0.0
  0
LINE
  5
E0
100
AcDbEntity
  8
1
  6
CONTINUOUS
 62
     7
100
AcDbLine
 10
169.0117
 20
-71.4271
 30
0.0
 11
175.0117
 21
-71.4271
 31
0.0
  0
LINE
  5
E1
100
AcDbEntity
  8
1
  6
CONTINUOUS
 62
     7
100
AcDbLine
 10
240.1109
 20
-60.9525
 30
0.0
 11
246.1109
 21
-60.9525
 31
0.0
  0
LINE
  5
E2
100
AcDbEntity
  8
1
  6
CONTINUOUS
 62
     7
100
AcDbLine
 10
53.075
 20
-12.2649
 30
0.0
 11
38.6274
 21
-11.2294
 31
0.0
  0
INSERT
  5
E3
100
AcDbEntity
  8
1
  6
CONTINUOUS
 62
     1
100
AcDbBlockReference
  2
LDR
 10
53.075
 20
-12.2649
 30
0.0
 41
240.000001
 42
240.000001
 50
355.900461
210
0.0
220
0.0
230
1.0
  0
LINE
  5
E4
100
AcDbEntity
  8
1
  6
CONTINUOUS
 62
     7
100
AcDbLine
 10
25.7796
 20
-20.1669
 30
0.0
 11
36.1833
 21
-63.9865
 31
0.0
  0
INSERT
  5
E5
100
AcDbEntity
  8
1
  6
CONTINUOUS
 62
     1
100
AcDbBlockReference
  2
LDR
 10
25.7796
 20
-20.1669
 30
0.0
 41
240.000001
 42
240.000001
 50
103.355941
210
0.0
220
0.0
230
1.0
  0
TEXT
  5
E6
100
AcDbEntity
  8
1
  6
CONTINUOUS
 62
     7
100
AcDbText
 10
62.6798
 20
-84.5703
 30
0.0
 40
4.8
  1
EXIT RAMP: STRAIGHT TAPERED DECELERATION LANE
  7
TXT
210
0.0
220
0.0
230
1.0
100
AcDbText
  0
LINE
  5
E7
100
AcDbEntity
  8
1
  6
CONTINUOUS
 62
     7
100
AcDbLine
 10
61.5919
 20
-86.0808
 30
0.0
 11
242.132
 21
-86.0808
 31
0.0
  0
LINE
  5
E8
100
AcDbEntity
  8
1
  6
CONTINUOUS
 62
     1
100
AcDbLine
 10
17.952
 20
-203.3748
 30
0.0
 11
277.152
 21
-203.3748
 31
0.0
  0
LINE
  5
E9
100
AcDbEntity
  8
1
  6
CONTINUOUS
 62
     1
100
AcDbLine
 10
17.952
 20
-199.1748
 30
0.0
 11
277.152
 21
-199.1748
 31
0.0
  0
LINE
  5
EA
100
AcDbEntity
  8
1
  6
CONTINUOUS
 62
     1
100
AcDbLine
 10
17.952
 20
-191.9748
 30
0.0
 11
26.352
 21
-191.9748
 31
0.0
  0
LINE
  5
EB
100
AcDbEntity
  8
1
  6
CONTINUOUS
 62
     1
100
AcDbLine
 10
43.152
 20
-191.9748
 30
0.0
 11
51.552
 21
-191.9748
 31
0.0
  0
LINE
  5
EC
100
AcDbEntity
  8
1
  6
CONTINUOUS
 62
     1
100
AcDbLine
 10
68.352
 20
-191.9748
 30
0.0
 11
76.752
 21
-191.9748
 31
0.0
  0
LINE
  5
ED
100
AcDbEntity
  8
1
  6
CONTINUOUS
 62
     1
100
AcDbLine
 10
93.552
 20
-191.9748
 30
0.0
 11
101.952
 21
-191.9748
 31
0.0
  0
LINE
  5
EE
100
AcDbEntity
  8
1
  6
CONTINUOUS
 62
     1
100
AcDbLine
 10
118.752
 20
-191.9748
 30
0.0
 11
127.152
 21
-191.9748
 31
0.0
  0
LINE
  5
EF
100
AcDbEntity
  8
1
  6
CONTINUOUS
 62
     1
100
AcDbLine
 10
143.952
 20
-191.9748
 30
0.0
 11
152.352
 21
-191.9748
 31
0.0
  0
LINE
  5
F0
100
AcDbEntity
  8
1
  6
CONTINUOUS
 62
     1
100
AcDbLine
 10
169.152
 20
-191.9748
 30
0.0
 11
177.552
 21
-191.9748
 31
0.0
  0
LINE
  5
F1
100
AcDbEntity
  8
1
  6
CONTINUOUS
 62
     1
100
AcDbLine
 10
194.352
 20
-191.9748
 30
0.0
 11
202.752
 21
-191.9748
 31
0.0
  0
LINE
  5
F2
100
AcDbEntity
  8
1
  6
CONTINUOUS
 62
     1
100
AcDbLine
 10
219.552
 20
-191.9748
 30
0.0
 11
227.952
 21
-191.9748
 31
0.0
  0
LINE
  5
F3
100
AcDbEntity
  8
1
  6
CONTINUOUS
 62
     1
100
AcDbLine
 10
244.752
 20
-191.9748
 30
0.0
 11
253.152
 21
-191.9748
 31
0.0
  0
LINE
  5
F4
100
AcDbEntity
  8
1
  6
CONTINUOUS
 62
     1
100
AcDbLine
 10
269.952
 20
-191.9748
 30
0.0
 11
277.152
 21
-191.9748
 31
0.0
  0
LINE
  5
F5
100
AcDbEntity
  8
1
  6
CONTINUOUS
 62
     1
100
AcDbLine
 10
265.152
 20
-184.7748
 30
0.0
 11
277.152
 21
-184.7748
 31
0.0
  0
LINE
  5
F6
100
AcDbEntity
  8
1
  6
CONTINUOUS
 62
     1
100
AcDbLine
 10
217.152
 20
-184.7748
 30
0.0
 11
218.352
 21
-184.7748
 31
0.0
  0
LINE
  5
F7
100
AcDbEntity
  8
1
  6
CONTINUOUS
 62
     1
100
AcDbLine
 10
209.352
 20
-184.7748
 30
0.0
 11
210.552
 21
-184.7748
 31
0.0
  0
LINE
  5
F8
100
AcDbEntity
  8
1
  6
CONTINUOUS
 62
     1
100
AcDbLine
 10
201.552
 20
-184.7748
 30
0.0
 11
202.752
 21
-184.7748
 31
0.0
  0
LINE
  5
F9
100
AcDbEntity
  8
1
  6
CONTINUOUS
 62
     1
100
AcDbLine
 10
193.752
 20
-184.7748
 30
0.0
 11
194.952
 21
-184.7748
 31
0.0
  0
LINE
  5
FA
100
AcDbEntity
  8
1
  6
CONTINUOUS
 62
     1
100
AcDbLine
 10
185.952
 20
-184.7748
 30
0.0
 11
187.152
 21
-184.7748
 31
0.0
  0
LINE
  5
FB
100
AcDbEntity
  8
1
  6
CONTINUOUS
 62
     1
100
AcDbLine
 10
17.952
 20
-184.7748
 30
0.0
 11
40.152
 21
-184.7748
 31
0.0
  0
LINE
  5
FC
100
AcDbEntity
  8
1
  6
CONTINUOUS
 62
     1
100
AcDbLine
 10
40.152
 20
-184.7748
 30
0.0
 11
120.552
 21
-184.7748
 31
0.0
  0
LINE
  5
FD
100
AcDbEntity
  8
1
  6
CONTINUOUS
 62
     1
100
AcDbLine
 10
265.152
 20
-178.1748
 30
0.0
 11
277.152
 21
-178.1748
 31
0.0
  0
LINE
  5
FE
100
AcDbEntity
  8
1
  6
CONTINUOUS
 62
     1
100
AcDbLine
 10
17.952
 20
-179.3748
 30
0.0
 11
54.3431
 21
-179.3748
 31
0.0
  0
LINE
  5
FF
100
AcDbEntity
  8
1
  6
CONTINUOUS
 62
     1
100
AcDbLine
 10
45.243
 20
-184.7748
 30
0.0
 11
50.6431
 21
-179.3748
 31
0.0
  0
LINE
  5
100
100
AcDbEntity
  8
1
  6
CONTINUOUS
 62
     1
100
AcDbLine
 10
52.0312
 20
-184.7748
 30
0.0
 11
61.7028
 21
-175.1035
 31
0.0
  0
LINE
  5
101
100
AcDbEntity
  8
1
  6
CONTINUOUS
 62
     1
100
AcDbLine
 10
58.8194
 20
-184.7748
 30
0.0
 11
66.5772
 21
-177.0172
 31
0.0
  0
LINE
  5
102
100
AcDbEntity
  8
1
  6
CONTINUOUS
 62
     1
100
AcDbLine
 10
65.6078
 20
-184.7748
 30
0.0
 11
71.6191
 21
-178.7637
 31
0.0
  0
LINE
  5
103
100
AcDbEntity
  8
1
  6
CONTINUOUS
 62
     1
100
AcDbLine
 10
72.3961
 20
-184.7748
 30
0.0
 11
76.8385
 21
-180.3325
 31
0.0
  0
LINE
  5
104
100
AcDbEntity
  8
1
  6
CONTINUOUS
 62
     1
100
AcDbLine
 10
79.1844
 20
-184.7748
 30
0.0
 11
82.248
 21
-181.7112
 31
0.0
  0
LINE
  5
105
100
AcDbEntity
  8
1
  6
CONTINUOUS
 62
     1
100
AcDbLine
 10
85.9726
 20
-184.7748
 30
0.0
 11
87.8627
 21
-182.8847
 31
0.0
  0
INSERT
  5
106
100
AcDbEntity
  8
1
  6
CONTINUOUS
 62
     1
100
AcDbBlockReference
  2
ARO
 10
64.7411
 20
-171.908
 30
0.0
 41
240.000003
 42
240.000003
 50
160.416704
210
0.0
220
0.0
230
1.0
  0
INSERT
  5
107
100
AcDbEntity
  8
1
  6
CONTINUOUS
 62
     1
100
AcDbBlockReference
  2
ARO
 10
29.623
 20
-188.0672
 30
0.0
 41
240.0
 42
240.0
 50
180.0
210
0.0
220
0.0
230
1.0
  0
INSERT
  5
108
100
AcDbEntity
  8
1
  6
CONTINUOUS
 62
     1
100
AcDbBlockReference
  2
ARO
 10
29.8003
 20
-195.6976
 30
0.0
 41
240.0
 42
240.0
 50
180.0
210
0.0
220
0.0
230
1.0
  0
INSERT
  5
109
100
AcDbEntity
  8
1
  6
CONTINUOUS
 62
     1
100
AcDbBlockReference
  2
ARO
 10
256.8165
 20
-195.8819
 30
0.0
 41
240.0
 42
240.0
 50
180.0
210
0.0
220
0.0
230
1.0
  0
INSERT
  5
10A
100
AcDbEntity
  8
1
  6
CONTINUOUS
 62
     1
100
AcDbBlockReference
  2
ARO
 10
256.6392
 20
-188.2515
 30
0.0
 41
240.0
 42
240.0
 50
180.0
210
0.0
220
0.0
230
1.0
  0
INSERT
  5
10B
100
AcDbEntity
  8
1
  6
CONTINUOUS
 62
     1
100
AcDbBlockReference
  2
2SPT
 10
50.4026
 20
-177.2721
 30
0.0
 41
127.54584
 42
127.54584
 50
90.0
210
0.0
220
0.0
230
1.0
  0
TEXT
  5
10C
100
AcDbEntity
  8
1
  6
CONTINUOUS
 62
     7
100
AcDbText
 10
56.2528
 20
-131.7654
 30
0.0
 40
3.0
  1
SEE DETAIL "A"
  7
MONOTXT
 11
56.2528
 21
-128.7654
 31
0.0
210
0.0
220
0.0
230
1.0
100
AcDbText
 73
     3
  0
TEXT
  5
10D
100
AcDbEntity
  8
1
  6
CONTINUOUS
 62
     7
100
AcDbText
 10
56.2528
 20
-137.1654
 30
0.0
 40
3.0
  1
& NOTE 1
  7
MONOTXT
 11
56.2528
 21
-134.1654
 31
0.0
210
0.0
220
0.0
230
1.0
100
AcDbText
 73
     3
  0
TEXT
  5
10E
100
AcDbEntity
  8
1
  6
CONTINUOUS
 62
     7
100
AcDbText
 10
16.1537
 20
-177.2532
 30
0.0
 40
3.0
  1
EXIT SIGN
  7
MONOTXT
210
0.0
220
0.0
230
1.0
100
AcDbText
  0
LINE
  5
10F
100
AcDbEntity
  8
1
  6
CONTINUOUS
 62
     7
100
AcDbLine
 10
223.752
 20
-191.9748
 30
0.0
 11
240.1109
 21
-225.5604
 31
0.0
  0
LINE
  5
110
100
AcDbEntity
  8
1
  6
CONTINUOUS
 62
     7
100
AcDbLine
 10
194.952
 20
-183.5748
 30
0.0
 11
194.952
 21
-163.5203
 31
0.0
  0
LINE
  5
111
100
AcDbEntity
  8
1
  6
CONTINUOUS
 62
     7
100
AcDbLine
 10
201.552
 20
-183.5748
 30
0.0
 11
201.552
 21
-163.5203
 31
0.0
  0
LINE
  5
112
100
AcDbEntity
  8
1
  6
CONTINUOUS
 62
     7
100
AcDbLine
 10
177.552
 20
-193.1748
 30
0.0
 11
177.552
 21
-214.5007
 31
0.0
  0
LINE
  5
113
100
AcDbEntity
  8
1
  6
CONTINUOUS
 62
     7
100
AcDbLine
 10
194.352
 20
-193.1748
 30
0.0
 11
194.352
 21
-214.5007
 31
0.0
  0
LINE
  5
114
100
AcDbEntity
  8
1
  6
CONTINUOUS
 62
     7
100
AcDbLine
 10
202.752
 20
-193.1748
 30
0.0
 11
202.752
 21
-214.5007
 31
0.0
  0
LINE
  5
115
100
AcDbEntity
  8
1
  6
CONTINUOUS
 62
     7
100
AcDbLine
 10
243.4357
 20
-127.7895
 30
0.0
 11
249.4357
 21
-127.7895
 31
0.0
  0
LINE
  5
116
100
AcDbEntity
  8
1
  6
CONTINUOUS
 62
     7
100
AcDbLine
 10
11.3794
 20
-118.7025
 30
0.0
 11
17.3794
 21
-118.7025
 31
0.0
  0
LINE
  5
117
100
AcDbEntity
  8
1
  6
CONTINUOUS
 62
     7
100
AcDbLine
 10
43.7614
 20
-130.3845
 30
0.0
 11
55.1388
 21
-130.3845
 31
0.0
  0
LINE
  5
118
100
AcDbEntity
  8
1
  6
CONTINUOUS
 62
     7
100
AcDbLine
 10
62.6243
 20
-145.35
 30
0.0
 11
74.4004
 21
-145.35
 31
0.0
  0
LINE
  5
119
100
AcDbEntity
  8
1
  6
CONTINUOUS
 62
     7
100
AcDbLine
 10
244.5628
 20
-143.0573
 30
0.0
 11
246.5336
 21
-143.0573
 31
0.0
  0
LINE
  5
11A
100
AcDbEntity
  8
1
  6
CONTINUOUS
 62
     7
100
AcDbLine
 10
250.0699
 20
-210.7803
 30
0.0
 11
253.9268
 21
-210.7803
 31
0.0
  0
LINE
  5
11B
100
AcDbEntity
  8
1
  6
CONTINUOUS
 62
     7
100
AcDbLine
 10
182.8417
 20
-164.7203
 30
0.0
 11
201.552
 21
-164.7203
 31
0.0
  0
LINE
  5
11C
100
AcDbEntity
  8
1
  6
CONTINUOUS
 62
     7
100
AcDbLine
 10
202.752
 20
-164.7203
 30
0.0
 11
208.752
 21
-164.7203
 31
0.0
  0
INSERT
  5
11D
100
AcDbEntity
  8
1
  6
CONTINUOUS
 62
     1
100
AcDbBlockReference
  2
LDR
 10
194.9601
 20
-164.7276
 30
0.0
 41
180.0
 42
180.0
 50
180.0
210
0.0
220
0.0
230
1.0
  0
INSERT
  5
11E
100
AcDbEntity
  8
1
  6
CONTINUOUS
 62
     1
100
AcDbBlockReference
  2
LDR
 10
201.5439
 20
-164.7131
 30
0.0
 41
180.0
 42
180.0
210
0.0
220
0.0
230
1.0
  0
INSERT
  5
11F
100
AcDbEntity
  8
1
  6
CONTINUOUS
 62
     1
100
AcDbBlockReference
  2
LDR
 10
223.752
 20
-191.9748
 30
0.0
 41
239.999999
 42
239.999999
 50
115.969823
210
0.0
220
0.0
230
1.0
  0
LINE
  5
120
100
AcDbEntity
  8
1
  6
CONTINUOUS
 62
     7
100
AcDbLine
 10
36.1833
 20
-228.5944
 30
0.0
 11
42.1833
 21
-228.5944
 31
0.0
  0
LINE
  5
121
100
AcDbEntity
  8
1
  6
CONTINUOUS
 62
     7
100
AcDbLine
 10
86.7412
 20
-223.7198
 30
0.0
 11
92.7412
 21
-223.7198
 31
0.0
  0
LINE
  5
122
100
AcDbEntity
  8
1
  6
CONTINUOUS
 62
     7
100
AcDbLine
 10
240.1109
 20
-225.5604
 30
0.0
 11
246.1109
 21
-225.5604
 31
0.0
  0
LINE
  5
123
100
AcDbEntity
  8
1
  6
CONTINUOUS
 62
     7
100
AcDbLine
 10
25.7796
 20
-184.7748
 30
0.0
 11
36.1833
 21
-228.5944
 31
0.0
  0
INSERT
  5
124
100
AcDbEntity
  8
1
  6
CONTINUOUS
 62
     1
100
AcDbBlockReference
  2
LDR
 10
25.7796
 20
-184.7748
 30
0.0
 41
240.000001
 42
240.000001
 50
103.355941
210
0.0
220
0.0
230
1.0
  0
LINE
  5
125
100
AcDbEntity
  8
1
  6
CONTINUOUS
 62
     7
100
AcDbLine
 10
77.1301
 20
-250.6887
 30
0.0
 11
225.4872
 21
-250.6887
 31
0.0
  0
LINE
  5
126
100
AcDbEntity
  8
1
  6
CONTINUOUS
 62
     1
100
AcDbLine
 10
128.952
 20
-184.7748
 30
0.0
 11
137.352
 21
-184.7748
 31
0.0
  0
LINE
  5
127
100
AcDbEntity
  8
1
  6
CONTINUOUS
 62
     1
100
AcDbLine
 10
154.152
 20
-184.7748
 30
0.0
 11
162.552
 21
-184.7748
 31
0.0
  0
LINE
  5
128
100
AcDbEntity
  8
1
  6
CONTINUOUS
 62
     1
100
AcDbLine
 10
179.352
 20
-184.7748
 30
0.0
 11
187.752
 21
-184.7748
 31
0.0
  0
LINE
  5
129
100
AcDbEntity
  8
1
  6
CONTINUOUS
 62
     1
100
AcDbLine
 10
224.952
 20
-184.7748
 30
0.0
 11
226.152
 21
-184.7748
 31
0.0
  0
LINE
  5
12A
100
AcDbEntity
  8
1
  6
CONTINUOUS
 62
     1
100
AcDbLine
 10
248.352
 20
-184.7748
 30
0.0
 11
249.552
 21
-184.7748
 31
0.0
  0
LINE
  5
12B
100
AcDbEntity
  8
1
  6
CONTINUOUS
 62
     1
100
AcDbLine
 10
240.552
 20
-184.7748
 30
0.0
 11
241.752
 21
-184.7748
 31
0.0
  0
LINE
  5
12C
100
AcDbEntity
  8
1
  6
CONTINUOUS
 62
     1
100
AcDbLine
 10
232.752
 20
-184.7748
 30
0.0
 11
233.952
 21
-184.7748
 31
0.0
  0
LINE
  5
12D
100
AcDbEntity
  8
1
  6
CONTINUOUS
 62
     1
100
AcDbLine
 10
256.152
 20
-184.7748
 30
0.0
 11
257.352
 21
-184.7748
 31
0.0
  0
LINE
  5
12E
100
AcDbEntity
  8
1
  6
CONTINUOUS
 62
     7
100
AcDbLine
 10
202.752
 20
-183.5748
 30
0.0
 11
202.752
 21
-163.5203
 31
0.0
  0
INSERT
  5
12F
100
AcDbEntity
  8
1
  6
CONTINUOUS
 62
     1
100
AcDbBlockReference
  2
LDR
 10
202.7631
 20
-164.7164
 30
0.0
 41
240.0
 42
240.0
 50
180.0
210
0.0
220
0.0
230
1.0
  0
LINE
  5
130
100
AcDbEntity
  8
1
  6
CONTINUOUS
 62
     1
100
AcDbLine
 10
106.752
 20
-177.5748
 30
0.0
 11
224.352
 21
-177.5748
 31
0.0
  0
LINE
  5
131
100
AcDbEntity
  8
1
  6
CONTINUOUS
 62
     1
100
AcDbLine
 10
109.1404
 20
-170.9748
 30
0.0
 11
224.352
 21
-170.9748
 31
0.0
  0
LINE
  5
132
100
AcDbEntity
  8
1
  6
CONTINUOUS
 62
     1
100
AcDbLine
 10
224.352
 20
-170.9748
 30
0.0
 11
265.152
 21
-178.1748
 31
0.0
  0
LINE
  5
133
100
AcDbEntity
  8
1
  6
CONTINUOUS
 62
     1
100
AcDbLine
 10
224.352
 20
-177.5748
 30
0.0
 11
265.152
 21
-184.7748
 31
0.0
  0
ARC
  5
134
100
AcDbEntity
  8
1
  6
CONTINUOUS
 62
     1
100
AcDbCircle
 10
111.654105
 20
-55.035033
 30
0.0
 40
130.044525
210
0.0
220
0.0
230
1.0
100
AcDbArc
 50
238.213275
 51
266.121003
  0
ARC
  5
135
100
AcDbEntity
  8
1
  6
CONTINUOUS
 62
     1
100
AcDbCircle
 10
110.110291
 20
-54.085564
 30
0.0
 40
130.044525
210
0.0
220
0.0
230
1.0
100
AcDbArc
 50
228.748464
 51
239.011783
  0
ARC
  5
136
100
AcDbEntity
  8
1
  6
CONTINUOUS
 62
     1
100
AcDbCircle
 10
110.110291
 20
-54.085564
 30
0.0
 40
134.844525
210
0.0
220
0.0
230
1.0
100
AcDbArc
 50
228.748464
 51
245.800297
  0
ARC
  5
137
100
AcDbEntity
  8
1
  6
CONTINUOUS
 62
     1
100
AcDbCircle
 10
54.343148
 20
-178.1748
 30
0.0
 40
1.2
210
0.0
220
0.0
230
1.0
100
AcDbArc
 50
270.0
 51
65.800297
  0
ARC
  5
138
100
AcDbEntity
  8
1
  6
CONTINUOUS
 62
     1
100
AcDbCircle
 10
115.549505
 20
-47.828233
 30
0.0
 40
130.044525
210
0.0
220
0.0
230
1.0
100
AcDbArc
 50
229.951856
 51
266.121003
  0
ARC
  5
139
100
AcDbEntity
  8
1
  6
CONTINUOUS
 62
     1
100
AcDbCircle
 10
117.937905
 20
-41.082833
 30
0.0
 40
130.044525
210
0.0
220
0.0
230
1.0
100
AcDbArc
 50
230.909206
 51
266.121003
  0
INSERT
  5
13A
100
AcDbEntity
  8
1
  6
CONTINUOUS
 62
     1
100
AcDbBlockReference
  2
ARO
 10
152.0438
 20
-195.7548
 30
0.0
 41
240.0
 42
240.0
 50
180.0
210
0.0
220
0.0
230
1.0
  0
INSERT
  5
13B
100
AcDbEntity
  8
1
  6
CONTINUOUS
 62
     1
100
AcDbBlockReference
  2
ARO
 10
151.8665
 20
-188.1244
 30
0.0
 41
240.0
 42
240.0
 50
180.0
210
0.0
220
0.0
230
1.0
  0
INSERT
  5
13C
100
AcDbEntity
  8
1
  6
CONTINUOUS
 62
     1
100
AcDbBlockReference
  2
ARO
 10
151.7673
 20
-181.0826
 30
0.0
 41
240.0
 42
240.0
 50
180.0
210
0.0
220
0.0
230
1.0
  0
LINE
  5
13D
100
AcDbEntity
  8
1
  6
CONTINUOUS
 62
     7
100
AcDbLine
 10
50.6067
 20
-177.1893
 30
0.0
 11
38.5783
 21
-175.7375
 31
0.0
  0
INSERT
  5
13E
100
AcDbEntity
  8
1
  6
CONTINUOUS
 62
     1
100
AcDbBlockReference
  2
LDR
 10
50.6067
 20
-177.1893
 30
0.0
 41
239.999998
 42
239.999998
 50
353.117823
210
0.0
220
0.0
230
1.0
  0
LINE
  5
13F
100
AcDbEntity
  8
1
  6
CONTINUOUS
 62
     7
100
AcDbLine
 10
120.552
 20
-183.5748
 30
0.0
 11
120.552
 21
-146.3671
 31
0.0
  0
LINE
  5
140
100
AcDbEntity
  8
1
  6
CONTINUOUS
 62
     7
100
AcDbLine
 10
187.152
 20
-183.5748
 30
0.0
 11
187.152
 21
-146.3671
 31
0.0
  0
LINE
  5
141
100
AcDbEntity
  8
1
  6
CONTINUOUS
 62
     7
100
AcDbLine
 10
120.552
 20
-147.5671
 30
0.0
 11
187.152
 21
-147.5671
 31
0.0
  0
INSERT
  5
142
100
AcDbEntity
  8
1
  6
CONTINUOUS
 62
     1
100
AcDbBlockReference
  2
LDR
 10
120.552
 20
-147.5671
 30
0.0
 41
240.0
 42
240.0
 50
180.0
210
0.0
220
0.0
230
1.0
  0
INSERT
  5
143
100
AcDbEntity
  8
1
  6
CONTINUOUS
 62
     1
100
AcDbBlockReference
  2
LDR
 10
120.552
 20
-147.5671
 30
0.0
 41
240.0
 42
240.0
 50
180.0
210
0.0
220
0.0
230
1.0
  0
INSERT
  5
144
100
AcDbEntity
  8
1
  6
CONTINUOUS
 62
     1
100
AcDbBlockReference
  2
LDR
 10
187.152
 20
-147.5671
 30
0.0
 41
240.0
 42
240.0
210
0.0
220
0.0
230
1.0
  0
LINE
  5
145
100
AcDbEntity
  8
1
  6
CONTINUOUS
 62
     7
100
AcDbLine
 10
103.9624
 20
-177.3555
 30
0.0
 11
103.9624
 21
-184.7748
 31
0.0
  0
INSERT
  5
146
100
AcDbEntity
  8
1
  6
CONTINUOUS
 62
     1
100
AcDbBlockReference
  2
LDR
 10
103.9537
 20
-177.3652
 30
0.0
 41
216.0
 42
216.0
 50
90.0
210
0.0
220
0.0
230
1.0
  0
INSERT
  5
147
100
AcDbEntity
  8
1
  6
CONTINUOUS
 62
     1
100
AcDbBlockReference
  2
LDR
 10
103.9711
 20
-184.7651
 30
0.0
 41
216.0
 42
216.0
 50
270.0
210
0.0
220
0.0
230
1.0
  0
LINE
  5
148
100
AcDbEntity
  8
1
  6
CONTINUOUS
 62
     7
100
AcDbLine
 10
32.0411
 20
-158.0893
 30
0.0
 11
11.3794
 21
-118.7025
 31
0.0
  0
INSERT
  5
149
100
AcDbEntity
  8
1
  6
CONTINUOUS
 62
     1
100
AcDbBlockReference
  2
LDR
 10
32.0411
 20
-158.0893
 30
0.0
 41
240.000001
 42
240.000001
 50
297.680801
210
0.0
220
0.0
230
1.0
  0
LINE
  5
14A
100
AcDbEntity
  8
1
  6
CONTINUOUS
 62
     7
100
AcDbLine
 10
62.6983
 20
-180.896
 30
0.0
 11
43.7614
 21
-130.3845
 31
0.0
  0
LINE
  5
14B
100
AcDbEntity
  8
1
  6
CONTINUOUS
 62
     7
100
AcDbLine
 10
103.9624
 20
-181.3447
 30
0.0
 11
62.6243
 21
-145.35
 31
0.0
  0
INSERT
  5
14C
100
AcDbEntity
  8
1
  6
CONTINUOUS
 62
     1
100
AcDbBlockReference
  2
LDR
 10
103.9624
 20
-181.3447
 30
0.0
 41
239.999998
 42
239.999998
 50
318.952722
210
0.0
220
0.0
230
1.0
  0
TEXT
  5
14D
100
AcDbEntity
  8
1
  6
CONTINUOUS
 62
     7
100
AcDbText
 10
75.7031
 20
-146.7156
 30
0.0
 40
3.0
  1
FULL RAMP
  7
MONOTXT
210
0.0
220
0.0
230
1.0
100
AcDbText
  0
TEXT
  5
14E
100
AcDbEntity
  8
1
  6
CONTINUOUS
 62
     7
100
AcDbText
 10
75.7031
 20
-152.1156
 30
0.0
 40
3.0
  1
LANE WIDTH
  7
MONOTXT
210
0.0
220
0.0
230
1.0
100
AcDbText
  0
LINE
  5
14F
100
AcDbEntity
  8
1
  6
CONTINUOUS
 62
     7
100
AcDbLine
 10
154.152
 20
-183.5748
 30
0.0
 11
154.152
 21
-157.4489
 31
0.0
  0
LINE
  5
150
100
AcDbEntity
  8
1
  6
CONTINUOUS
 62
     7
100
AcDbLine
 10
137.352
 20
-183.5748
 30
0.0
 11
137.352
 21
-157.4489
 31
0.0
  0
LINE
  5
151
100
AcDbEntity
  8
1
  6
CONTINUOUS
 62
     7
100
AcDbLine
 10
128.952
 20
-183.5748
 30
0.0
 11
128.952
 21
-157.4489
 31
0.0
  0
LINE
  5
152
100
AcDbEntity
  8
1
  6
CONTINUOUS
 62
     7
100
AcDbLine
 10
154.152
 20
-158.6489
 30
0.0
 11
137.352
 21
-158.6489
 31
0.0
  0
LINE
  5
153
100
AcDbEntity
  8
1
  6
CONTINUOUS
 62
     7
100
AcDbLine
 10
137.352
 20
-158.6489
 30
0.0
 11
128.952
 21
-158.6489
 31
0.0
  0
INSERT
  5
154
100
AcDbEntity
  8
1
  6
CONTINUOUS
 62
     1
100
AcDbBlockReference
  2
LDR
 10
137.3409
 20
-158.6528
 30
0.0
 41
240.0
 42
240.0
 50
180.0
210
0.0
220
0.0
230
1.0
  0
INSERT
  5
155
100
AcDbEntity
  8
1
  6
CONTINUOUS
 62
     1
100
AcDbBlockReference
  2
LDR
 10
137.3409
 20
-158.6528
 30
0.0
 41
240.0
 42
240.0
210
0.0
220
0.0
230
1.0
  0
INSERT
  5
156
100
AcDbEntity
  8
1
  6
CONTINUOUS
 62
     1
100
AcDbBlockReference
  2
LDR
 10
128.9409
 20
-158.6528
 30
0.0
 41
240.0
 42
240.0
 50
180.0
210
0.0
220
0.0
230
1.0
  0
INSERT
  5
157
100
AcDbEntity
  8
1
  6
CONTINUOUS
 62
     1
100
AcDbBlockReference
  2
LDR
 10
154.1409
 20
-158.6528
 30
0.0
 41
240.0
 42
240.0
210
0.0
220
0.0
230
1.0
  0
LINE
  5
158
100
AcDbEntity
  8
1
  6
CONTINUOUS
 62
     7
100
AcDbLine
 10
271.152
 20
-178.1748
 30
0.0
 11
249.4357
 21
-127.7895
 31
0.0
  0
INSERT
  5
159
100
AcDbEntity
  8
1
  6
CONTINUOUS
 62
     1
100
AcDbBlockReference
  2
LDR
 10
271.152
 20
-178.1748
 30
0.0
 41
239.999999
 42
239.999999
 50
293.316268
210
0.0
220
0.0
230
1.0
  0
TEXT
  5
15A
100
AcDbEntity
  8
1
  6
CONTINUOUS
 62
     7
100
AcDbText
 10
122.0103
 20
-128.9982
 30
0.0
 40
3.0
  1
DASHED LINE (OR BROKEN
  7
MONOTXT
 11
122.0103
 21
-125.9982
 31
0.0
210
0.0
220
0.0
230
1.0
100
AcDbText
 73
     3
  0
TEXT
  5
15B
100
AcDbEntity
  8
1
  6
CONTINUOUS
 62
     7
100
AcDbText
 10
122.0103
 20
-134.3982
 30
0.0
 40
3.0
  1
WHITE EDGE LINE) FOR
  7
MONOTXT
 11
122.0103
 21
-131.3982
 31
0.0
210
0.0
220
0.0
230
1.0
100
AcDbText
 73
     3
  0
TEXT
  5
15C
100
AcDbEntity
  8
1
  6
CONTINUOUS
 62
     7
100
AcDbText
 10
122.0103
 20
-139.7982
 30
0.0
 40
3.0
  1
ONE-HALF LENGTH OF FULL
  7
MONOTXT
 11
122.0103
 21
-136.7982
 31
0.0
210
0.0
220
0.0
230
1.0
100
AcDbText
 73
     3
  0
TEXT
  5
15D
100
AcDbEntity
  8
1
  6
CONTINUOUS
 62
     7
100
AcDbText
 10
122.0103
 20
-145.1982
 30
0.0
 40
3.0
  1
WIDTH DECELERATION LANE
  7
MONOTXT
 11
122.0103
 21
-142.1982
 31
0.0
210
0.0
220
0.0
230
1.0
100
AcDbText
 73
     3
  0
TEXT
  5
15E
100
AcDbEntity
  8
1
  6
CONTINUOUS
 62
     7
100
AcDbText
 10
95.5706
 20
-209.8212
 30
0.0
 40
3.0
  1
THEORETICAL
  7
MONOTXT
210
0.0
220
0.0
230
1.0
100
AcDbText
  0
TEXT
  5
15F
100
AcDbEntity
  8
1
  6
CONTINUOUS
 62
     7
100
AcDbText
 10
95.5706
 20
-215.2212
 30
0.0
 40
3.0
  1
GORE POINT
  7
MONOTXT
210
0.0
220
0.0
230
1.0
100
AcDbText
  0
LINE
  5
160
100
AcDbEntity
  8
1
  6
CONTINUOUS
 62
     7
100
AcDbLine
 10
68.5419
 20
-177.7254
 30
0.0
 11
86.7412
 21
-223.7198
 31
0.0
  0
LINE
  5
161
100
AcDbEntity
  8
1
  6
CONTINUOUS
 62
     7
100
AcDbLine
 10
86.7412
 20
-223.7198
 30
0.0
 11
62.345
 21
-184.7748
 31
0.0
  0
INSERT
  5
162
100
AcDbEntity
  8
1
  6
CONTINUOUS
 62
     1
100
AcDbBlockReference
  2
LDR
 10
68.5419
 20
-177.7254
 30
0.0
 41
240.000001
 42
240.000001
 50
111.587969
210
0.0
220
0.0
230
1.0
  0
INSERT
  5
163
100
AcDbEntity
  8
1
  6
CONTINUOUS
 62
     1
100
AcDbBlockReference
  2
LDR
 10
62.345
 20
-184.7748
 30
0.0
 41
240.000001
 42
240.000001
 50
122.064141
210
0.0
220
0.0
230
1.0
  0
LINE
  5
164
100
AcDbEntity
  8
1
  6
CONTINUOUS
 62
     7
100
AcDbLine
 10
120.552
 20
-184.7748
 30
0.0
 11
131.4929
 21
-208.0829
 31
0.0
  0
LINE
  5
165
100
AcDbEntity
  8
1
  6
CONTINUOUS
 62
     7
100
AcDbLine
 10
131.4929
 20
-208.0829
 30
0.0
 11
125.9664
 21
-208.0829
 31
0.0
  0
LINE
  5
166
100
AcDbEntity
  8
1
  6
CONTINUOUS
 62
     7
100
AcDbLine
 10
133.152
 20
-184.7748
 30
0.0
 11
162.2285
 21
-232.5654
 31
0.0
  0
LINE
  5
167
100
AcDbEntity
  8
1
  6
CONTINUOUS
 62
     7
100
AcDbLine
 10
168.5995
 20
-232.5654
 30
0.0
 11
162.2285
 21
-232.5654
 31
0.0
  0
LINE
  5
168
100
AcDbEntity
  8
1
  6
CONTINUOUS
 62
     7
100
AcDbLine
 10
240.253
 20
-199.1748
 30
0.0
 11
250.0699
 21
-210.7803
 31
0.0
  0
LINE
  5
169
100
AcDbEntity
  8
1
  6
CONTINUOUS
 62
     7
100
AcDbLine
 10
248.952
 20
-184.7748
 30
0.0
 11
246.5336
 21
-143.0573
 31
0.0
  0
INSERT
  5
16A
100
AcDbEntity
  8
1
  6
CONTINUOUS
 62
     1
100
AcDbBlockReference
  2
LDR
 10
248.952
 20
-184.7748
 30
0.0
 41
239.999999
 42
239.999999
 50
273.317773
210
0.0
220
0.0
230
1.0
  0
INSERT
  5
16B
100
AcDbEntity
  8
1
  6
CONTINUOUS
 62
     1
100
AcDbBlockReference
  2
LDR
 10
240.253
 20
-199.1748
 30
0.0
 41
240.000001
 42
240.000001
 50
130.227327
210
0.0
220
0.0
230
1.0
  0
LINE
  5
16C
100
AcDbEntity
  8
1
  6
CONTINUOUS
 62
     7
100
AcDbLine
 10
207.5578
 20
21.0838
 30
0.0
 11
227.2303
 21
21.0838
 31
0.0
  0
TEXT
  5
16D
100
AcDbEntity
  8
1
  6
CONTINUOUS
 62
     7
100
AcDbText
 10
78.4253
 20
-249.1782
 30
0.0
 40
4.8
  1
EXIT RAMP: PARALLEL DECELERATION LANE
  7
TXT
210
0.0
220
0.0
230
1.0
100
AcDbText
  0
LINE
  5
16E
100
AcDbEntity
  8
1
  6
CONTINUOUS
 62
     1
100
AcDbLine
 10
19.32
 20
-395.3943
 30
0.0
 11
352.3337
 21
-395.3943
 31
0.0
  0
LINE
  5
16F
100
AcDbEntity
  8
1
  6
CONTINUOUS
 62
     1
100
AcDbLine
 10
19.32
 20
-389.0943
 30
0.0
 11
352.3337
 21
-389.0943
 31
0.0
  0
LINE
  5
170
100
AcDbEntity
  8
1
  6
CONTINUOUS
 62
     1
100
AcDbLine
 10
19.32
 20
-378.2943
 30
0.0
 11
31.92
 21
-378.2943
 31
0.0
  0
LINE
  5
171
100
AcDbEntity
  8
1
  6
CONTINUOUS
 62
     1
100
AcDbLine
 10
57.12
 20
-378.2943
 30
0.0
 11
69.72
 21
-378.2943
 31
0.0
  0
LINE
  5
172
100
AcDbEntity
  8
1
  6
CONTINUOUS
 62
     1
100
AcDbLine
 10
94.92
 20
-378.2943
 30
0.0
 11
107.52
 21
-378.2943
 31
0.0
  0
LINE
  5
173
100
AcDbEntity
  8
1
  6
CONTINUOUS
 62
     1
100
AcDbLine
 10
132.72
 20
-378.2943
 30
0.0
 11
145.32
 21
-378.2943
 31
0.0
  0
LINE
  5
174
100
AcDbEntity
  8
1
  6
CONTINUOUS
 62
     1
100
AcDbLine
 10
170.52
 20
-378.2943
 30
0.0
 11
183.12
 21
-378.2943
 31
0.0
  0
LINE
  5
175
100
AcDbEntity
  8
1
  6
CONTINUOUS
 62
     1
100
AcDbLine
 10
208.32
 20
-378.2943
 30
0.0
 11
220.92
 21
-378.2943
 31
0.0
  0
LINE
  5
176
100
AcDbEntity
  8
1
  6
CONTINUOUS
 62
     1
100
AcDbLine
 10
246.12
 20
-378.2943
 30
0.0
 11
258.72
 21
-378.2943
 31
0.0
  0
LINE
  5
177
100
AcDbEntity
  8
1
  6
CONTINUOUS
 62
     1
100
AcDbLine
 10
283.92
 20
-378.2943
 30
0.0
 11
296.52
 21
-378.2943
 31
0.0
  0
LINE
  5
178
100
AcDbEntity
  8
1
  6
CONTINUOUS
 62
     1
100
AcDbLine
 10
321.72
 20
-378.2943
 30
0.0
 11
334.32
 21
-378.2943
 31
0.0
  0
LINE
  5
179
100
AcDbEntity
  8
1
  6
CONTINUOUS
 62
     1
100
AcDbLine
 10
19.32
 20
-367.4943
 30
0.0
 11
52.62
 21
-367.4943
 31
0.0
  0
LINE
  5
17A
100
AcDbEntity
  8
1
  6
CONTINUOUS
 62
     1
100
AcDbLine
 10
52.62
 20
-367.4943
 30
0.0
 11
226.32
 21
-367.4943
 31
0.0
  0
LINE
  5
17B
100
AcDbEntity
  8
1
  6
CONTINUOUS
 62
     1
100
AcDbLine
 10
226.32
 20
-367.4943
 30
0.0
 11
52.62
 21
-342.9496
 31
0.0
  0
LINE
  5
17C
100
AcDbEntity
  8
1
  6
CONTINUOUS
 62
     1
100
AcDbLine
 10
52.62
 20
-342.9498
 30
0.0
 11
19.32
 21
-338.2443
 31
0.0
  0
LINE
  5
17D
100
AcDbEntity
  8
1
  6
CONTINUOUS
 62
     1
100
AcDbLine
 10
338.5593
 20
-367.3426
 30
0.0
 11
19.32
 21
-325.6443
 31
0.0
  0
LINE
  5
17E
100
AcDbEntity
  8
1
  6
CONTINUOUS
 62
     1
100
AcDbLine
 10
339.203
 20
-357.4426
 30
0.0
 11
20.6022
 21
-315.8277
 31
0.0
  0
LINE
  5
17F
100
AcDbEntity
  8
1
  6
CONTINUOUS
 62
     1
100
AcDbLine
 10
98.6163
 20
-355.812
 30
0.0
 11
18.4385
 21
-344.4823
 31
0.0
  0
LINE
  5
180
100
AcDbEntity
  8
1
  6
CONTINUOUS
 62
     1
100
AcDbLine
 10
19.32
 20
-359.3943
 30
0.0
 11
98.3645
 21
-359.3943
 31
0.0
  0
ARC
  5
181
100
AcDbEntity
  8
1
  6
CONTINUOUS
 62
     1
100
AcDbCircle
 10
98.36451
 20
-357.59425
 30
0.0
 40
1.8
210
0.0
220
0.0
230
1.0
100
AcDbArc
 50
270.0
 51
81.957003
  0
LINE
  5
182
100
AcDbEntity
  8
1
  6
CONTINUOUS
 62
     1
100
AcDbLine
 10
60.2565
 20
-367.4943
 30
0.0
 11
68.3567
 21
-359.3943
 31
0.0
  0
LINE
  5
183
100
AcDbEntity
  8
1
  6
CONTINUOUS
 62
     1
100
AcDbLine
 10
70.4388
 20
-367.4943
 30
0.0
 11
78.5391
 21
-359.3943
 31
0.0
  0
LINE
  5
184
100
AcDbEntity
  8
1
  6
CONTINUOUS
 62
     1
100
AcDbLine
 10
80.6211
 20
-367.4943
 30
0.0
 11
88.7213
 21
-359.3943
 31
0.0
  0
LINE
  5
185
100
AcDbEntity
  8
1
  6
CONTINUOUS
 62
     1
100
AcDbLine
 10
90.8037
 20
-367.4943
 30
0.0
 11
98.9039
 21
-359.3943
 31
0.0
  0
LINE
  5
186
100
AcDbEntity
  8
1
  6
CONTINUOUS
 62
     1
100
AcDbLine
 10
100.9862
 20
-367.4943
 30
0.0
 11
116.504
 21
-351.9768
 31
0.0
  0
LINE
  5
187
100
AcDbEntity
  8
1
  6
CONTINUOUS
 62
     1
100
AcDbLine
 10
111.1686
 20
-367.4943
 30
0.0
 11
125.4258
 21
-353.2374
 31
0.0
  0
LINE
  5
188
100
AcDbEntity
  8
1
  6
CONTINUOUS
 62
     1
100
AcDbLine
 10
121.3509
 20
-367.4943
 30
0.0
 11
134.3474
 21
-354.4981
 31
0.0
  0
LINE
  5
189
100
AcDbEntity
  8
1
  6
CONTINUOUS
 62
     1
100
AcDbLine
 10
131.5334
 20
-367.4943
 30
0.0
 11
143.2691
 21
-355.7587
 31
0.0
  0
LINE
  5
18A
100
AcDbEntity
  8
1
  6
CONTINUOUS
 62
     1
100
AcDbLine
 10
141.7158
 20
-367.4943
 30
0.0
 11
152.1908
 21
-357.0195
 31
0.0
  0
LINE
  5
18B
100
AcDbEntity
  8
1
  6
CONTINUOUS
 62
     1
100
AcDbLine
 10
151.8981
 20
-367.4943
 30
0.0
 11
161.1125
 21
-358.2801
 31
0.0
  0
LINE
  5
18C
100
AcDbEntity
  8
1
  6
CONTINUOUS
 62
     1
100
AcDbLine
 10
162.0806
 20
-367.4943
 30
0.0
 11
170.0342
 21
-359.5408
 31
0.0
  0
LINE
  5
18D
100
AcDbEntity
  8
1
  6
CONTINUOUS
 62
     1
100
AcDbLine
 10
172.2629
 20
-367.4943
 30
0.0
 11
178.9559
 21
-360.8014
 31
0.0
  0
LINE
  5
18E
100
AcDbEntity
  8
1
  6
CONTINUOUS
 62
     1
100
AcDbLine
 10
182.4453
 20
-367.4943
 30
0.0
 11
187.8776
 21
-362.0622
 31
0.0
  0
LINE
  5
18F
100
AcDbEntity
  8
1
  6
CONTINUOUS
 62
     1
100
AcDbLine
 10
192.6276
 20
-367.4943
 30
0.0
 11
196.7991
 21
-363.3228
 31
0.0
  0
LINE
  5
190
100
AcDbEntity
  8
1
  6
CONTINUOUS
 62
     1
100
AcDbLine
 10
202.8101
 20
-367.4943
 30
0.0
 11
205.721
 21
-364.5835
 31
0.0
  0
LINE
  5
191
100
AcDbEntity
  8
1
  6
CONTINUOUS
 62
     1
100
AcDbLine
 10
212.9922
 20
-367.4943
 30
0.0
 11
214.6424
 21
-365.8441
 31
0.0
  0
LINE
  5
192
100
AcDbEntity
  8
1
  6
CONTINUOUS
 62
     1
100
AcDbLine
 10
223.1745
 20
-367.4943
 30
0.0
 11
223.5639
 21
-367.1049
 31
0.0
  0
INSERT
  5
193
100
AcDbEntity
  8
1
  6
CONTINUOUS
 62
     1
100
AcDbBlockReference
  2
2SPT
 10
71.5845
 20
-355.8118
 30
0.0
 41
262.439999
 42
262.439999
 50
90.0
210
0.0
220
0.0
230
1.0
  0
LINE
  5
194
100
AcDbEntity
  8
1
  6
CONTINUOUS
 62
     7
100
AcDbLine
 10
123.6821
 20
-409.0384
 30
0.0
 11
241.7678
 21
-409.0384
 31
0.0
  0
POLYLINE
  5
195
100
AcDbEntity
  8
1
  6
CONTINUOUS
 62
     7
100
AcDb2dPolyline
 66
     1
 10
0.0
 20
0.0
 30
0.0
 70
     1
  0
VERTEX
  5
196
100
AcDbEntity
  8
1
  6
CONTINUOUS
 62
     7
100
AcDbVertex
100
AcDb2dVertex
 10
63.5702
 20
-342.115
 30
0.0
  0
VERTEX
  5
197
100
AcDbEntity
  8
1
  6
CONTINUOUS
 62
     7
100
AcDbVertex
100
AcDb2dVertex
 10
65.3524
 20
-342.3664
 30
0.0
  0
VERTEX
  5
198
100
AcDbEntity
  8
1
  6
CONTINUOUS
 62
     7
100
AcDbVertex
100
AcDb2dVertex
 10
65.101
 20
-344.1488
 30
0.0
  0
VERTEX
  5
199
100
AcDbEntity
  8
1
  6
CONTINUOUS
 62
     7
100
AcDbVertex
100
AcDb2dVertex
 10
65.1012
 20
-344.1487
 30
0.0
  0
VERTEX
  5
19A
100
AcDbEntity
  8
1
  6
CONTINUOUS
 62
     7
100
AcDbVertex
100
AcDb2dVertex
 10
63.3188
 20
-343.8974
 30
0.0
  0
VERTEX
  5
19B
100
AcDbEntity
  8
1
  6
CONTINUOUS
 62
     7
100
AcDbVertex
100
AcDb2dVertex
 10
63.5702
 20
-342.115
 30
0.0
  0
SEQEND
  5
19C
100
AcDbEntity
  8
1
  6
CONTINUOUS
 62
     7
  0
POLYLINE
  5
19D
100
AcDbEntity
  8
1
  6
CONTINUOUS
 62
     7
100
AcDb2dPolyline
 66
     1
 10
0.0
 20
0.0
 30
0.0
 70
     1
  0
VERTEX
  5
19E
100
AcDbEntity
  8
1
  6
CONTINUOUS
 62
     7
100
AcDbVertex
100
AcDb2dVertex
 10
61.6362
 20
-367.8938
 30
0.0
  0
VERTEX
  5
19F
100
AcDbEntity
  8
1
  6
CONTINUOUS
 62
     7
100
AcDbVertex
100
AcDb2dVertex
 10
61.6449
 20
-369.6939
 30
0.0
  0
VERTEX
  5
1A0
100
AcDbEntity
  8
1
  6
CONTINUOUS
 62
     7
100
AcDbVertex
100
AcDb2dVertex
 10
63.4449
 20
-369.685
 30
0.0
  0
VERTEX
  5
1A1
100
AcDbEntity
  8
1
  6
CONTINUOUS
 62
     7
100
AcDbVertex
100
AcDb2dVertex
 10
63.4362
 20
-367.8849
 30
0.0
  0
VERTEX
  5
1A2
100
AcDbEntity
  8
1
  6
CONTINUOUS
 62
     7
100
AcDbVertex
100
AcDb2dVertex
 10
63.436
 20
-367.8852
 30
0.0
  0
VERTEX
  5
1A3
100
AcDbEntity
  8
1
  6
CONTINUOUS
 62
     7
100
AcDbVertex
100
AcDb2dVertex
 10
61.6362
 20
-367.8938
 30
0.0
  0
SEQEND
  5
1A4
100
AcDbEntity
  8
1
  6
CONTINUOUS
 62
     7
  0
POLYLINE
  5
1A5
100
AcDbEntity
  8
1
  6
CONTINUOUS
 62
     7
100
AcDb2dPolyline
 66
     1
 10
0.0
 20
0.0
 30
0.0
 70
     1
  0
VERTEX
  5
1A6
100
AcDbEntity
  8
1
  6
CONTINUOUS
 62
     7
100
AcDbVertex
100
AcDb2dVertex
 10
76.0448
 20
-369.6242
 30
0.0
  0
VERTEX
  5
1A7
100
AcDbEntity
  8
1
  6
CONTINUOUS
 62
     7
100
AcDbVertex
100
AcDb2dVertex
 10
76.0361
 20
-367.8241
 30
0.0
  0
VERTEX
  5
1A8
100
AcDbEntity
  8
1
  6
CONTINUOUS
 62
     7
100
AcDbVertex
100
AcDb2dVertex
 10
77.8359
 20
-367.8155
 30
0.0
  0
VERTEX
  5
1A9
100
AcDbEntity
  8
1
  6
CONTINUOUS
 62
     7
100
AcDbVertex
100
AcDb2dVertex
 10
77.8361
 20
-367.8152
 30
0.0
  0
VERTEX
  5
1AA
100
AcDbEntity
  8
1
  6
CONTINUOUS
 62
     7
100
AcDbVertex
100
AcDb2dVertex
 10
77.8448
 20
-369.6153
 30
0.0
  0
VERTEX
  5
1AB
100
AcDbEntity
  8
1
  6
CONTINUOUS
 62
     7
100
AcDbVertex
100
AcDb2dVertex
 10
76.0448
 20
-369.6242
 30
0.0
  0
SEQEND
  5
1AC
100
AcDbEntity
  8
1
  6
CONTINUOUS
 62
     7
  0
POLYLINE
  5
1AD
100
AcDbEntity
  8
1
  6
CONTINUOUS
 62
     7
100
AcDb2dPolyline
 66
     1
 10
0.0
 20
0.0
 30
0.0
 70
     1
  0
VERTEX
  5
1AE
100
AcDbEntity
  8
1
  6
CONTINUOUS
 62
     7
100
AcDbVertex
100
AcDb2dVertex
 10
90.4447
 20
-369.5545
 30
0.0
  0
VERTEX
  5
1AF
100
AcDbEntity
  8
1
  6
CONTINUOUS
 62
     7
100
AcDbVertex
100
AcDb2dVertex
 10
90.436
 20
-367.7544
 30
0.0
  0
VERTEX
  5
1B0
100
AcDbEntity
  8
1
  6
CONTINUOUS
 62
     7
100
AcDbVertex
100
AcDb2dVertex
 10
92.2358
 20
-367.7458
 30
0.0
  0
VERTEX
  5
1B1
100
AcDbEntity
  8
1
  6
CONTINUOUS
 62
     7
100
AcDbVertex
100
AcDb2dVertex
 10
92.236
 20
-367.7455
 30
0.0
  0
VERTEX
  5
1B2
100
AcDbEntity
  8
1
  6
CONTINUOUS
 62
     7
100
AcDbVertex
100
AcDb2dVertex
 10
92.2447
 20
-369.5456
 30
0.0
  0
VERTEX
  5
1B3
100
AcDbEntity
  8
1
  6
CONTINUOUS
 62
     7
100
AcDbVertex
100
AcDb2dVertex
 10
90.4447
 20
-369.5545
 30
0.0
  0
SEQEND
  5
1B4
100
AcDbEntity
  8
1
  6
CONTINUOUS
 62
     7
  0
POLYLINE
  5
1B5
100
AcDbEntity
  8
1
  6
CONTINUOUS
 62
     7
100
AcDb2dPolyline
 66
     1
 10
0.0
 20
0.0
 30
0.0
 70
     1
  0
VERTEX
  5
1B6
100
AcDbEntity
  8
1
  6
CONTINUOUS
 62
     7
100
AcDbVertex
100
AcDb2dVertex
 10
104.8446
 20
-369.4848
 30
0.0
  0
VERTEX
  5
1B7
100
AcDbEntity
  8
1
  6
CONTINUOUS
 62
     7
100
AcDbVertex
100
AcDb2dVertex
 10
104.8359
 20
-367.6847
 30
0.0
  0
VERTEX
  5
1B8
100
AcDbEntity
  8
1
  6
CONTINUOUS
 62
     7
100
AcDbVertex
100
AcDb2dVertex
 10
106.6357
 20
-367.6761
 30
0.0
  0
VERTEX
  5
1B9
100
AcDbEntity
  8
1
  6
CONTINUOUS
 62
     7
100
AcDbVertex
100
AcDb2dVertex
 10
106.6359
 20
-367.6758
 30
0.0
  0
VERTEX
  5
1BA
100
AcDbEntity
  8
1
  6
CONTINUOUS
 62
     7
100
AcDbVertex
100
AcDb2dVertex
 10
106.6446
 20
-369.4759
 30
0.0
  0
VERTEX
  5
1BB
100
AcDbEntity
  8
1
  6
CONTINUOUS
 62
     7
100
AcDbVertex
100
AcDb2dVertex
 10
104.8446
 20
-369.4848
 30
0.0
  0
SEQEND
  5
1BC
100
AcDbEntity
  8
1
  6
CONTINUOUS
 62
     7
  0
POLYLINE
  5
1BD
100
AcDbEntity
  8
1
  6
CONTINUOUS
 62
     7
100
AcDb2dPolyline
 66
     1
 10
0.0
 20
0.0
 30
0.0
 70
     1
  0
VERTEX
  5
1BE
100
AcDbEntity
  8
1
  6
CONTINUOUS
 62
     7
100
AcDbVertex
100
AcDb2dVertex
 10
119.2445
 20
-369.4151
 30
0.0
  0
VERTEX
  5
1BF
100
AcDbEntity
  8
1
  6
CONTINUOUS
 62
     7
100
AcDbVertex
100
AcDb2dVertex
 10
119.2358
 20
-367.615
 30
0.0
  0
VERTEX
  5
1C0
100
AcDbEntity
  8
1
  6
CONTINUOUS
 62
     7
100
AcDbVertex
100
AcDb2dVertex
 10
121.0356
 20
-367.6064
 30
0.0
  0
VERTEX
  5
1C1
100
AcDbEntity
  8
1
  6
CONTINUOUS
 62
     7
100
AcDbVertex
100
AcDb2dVertex
 10
121.0358
 20
-367.6061
 30
0.0
  0
VERTEX
  5
1C2
100
AcDbEntity
  8
1
  6
CONTINUOUS
 62
     7
100
AcDbVertex
100
AcDb2dVertex
 10
121.0445
 20
-369.4062
 30
0.0
  0
VERTEX
  5
1C3
100
AcDbEntity
  8
1
  6
CONTINUOUS
 62
     7
100
AcDbVertex
100
AcDb2dVertex
 10
119.2445
 20
-369.4151
 30
0.0
  0
SEQEND
  5
1C4
100
AcDbEntity
  8
1
  6
CONTINUOUS
 62
     7
  0
POLYLINE
  5
1C5
100
AcDbEntity
  8
1
  6
CONTINUOUS
 62
     7
100
AcDb2dPolyline
 66
     1
 10
0.0
 20
0.0
 30
0.0
 70
     1
  0
VERTEX
  5
1C6
100
AcDbEntity
  8
1
  6
CONTINUOUS
 62
     7
100
AcDbVertex
100
AcDb2dVertex
 10
133.6357
 20
-367.5453
 30
0.0
  0
VERTEX
  5
1C7
100
AcDbEntity
  8
1
  6
CONTINUOUS
 62
     7
100
AcDbVertex
100
AcDb2dVertex
 10
133.6444
 20
-369.3454
 30
0.0
  0
VERTEX
  5
1C8
100
AcDbEntity
  8
1
  6
CONTINUOUS
 62
     7
100
AcDbVertex
100
AcDb2dVertex
 10
135.4444
 20
-369.3365
 30
0.0
  0
VERTEX
  5
1C9
100
AcDbEntity
  8
1
  6
CONTINUOUS
 62
     7
100
AcDbVertex
100
AcDb2dVertex
 10
135.4357
 20
-367.5364
 30
0.0
  0
VERTEX
  5
1CA
100
AcDbEntity
  8
1
  6
CONTINUOUS
 62
     7
100
AcDbVertex
100
AcDb2dVertex
 10
135.4355
 20
-367.5367
 30
0.0
  0
VERTEX
  5
1CB
100
AcDbEntity
  8
1
  6
CONTINUOUS
 62
     7
100
AcDbVertex
100
AcDb2dVertex
 10
133.6357
 20
-367.5453
 30
0.0
  0
SEQEND
  5
1CC
100
AcDbEntity
  8
1
  6
CONTINUOUS
 62
     7
  0
POLYLINE
  5
1CD
100
AcDbEntity
  8
1
  6
CONTINUOUS
 62
     7
100
AcDb2dPolyline
 66
     1
 10
0.0
 20
0.0
 30
0.0
 70
     1
  0
VERTEX
  5
1CE
100
AcDbEntity
  8
1
  6
CONTINUOUS
 62
     7
100
AcDbVertex
100
AcDb2dVertex
 10
134.6128
 20
-353.9534
 30
0.0
  0
VERTEX
  5
1CF
100
AcDbEntity
  8
1
  6
CONTINUOUS
 62
     7
100
AcDbVertex
100
AcDb2dVertex
 10
134.8642
 20
-352.171
 30
0.0
  0
VERTEX
  5
1D0
100
AcDbEntity
  8
1
  6
CONTINUOUS
 62
     7
100
AcDbVertex
100
AcDb2dVertex
 10
136.6464
 20
-352.4224
 30
0.0
  0
VERTEX
  5
1D1
100
AcDbEntity
  8
1
  6
CONTINUOUS
 62
     7
100
AcDbVertex
100
AcDb2dVertex
 10
136.395
 20
-354.2048
 30
0.0
  0
VERTEX
  5
1D2
100
AcDbEntity
  8
1
  6
CONTINUOUS
 62
     7
100
AcDbVertex
100
AcDb2dVertex
 10
136.3952
 20
-354.2047
 30
0.0
  0
VERTEX
  5
1D3
100
AcDbEntity
  8
1
  6
CONTINUOUS
 62
     7
100
AcDbVertex
100
AcDb2dVertex
 10
134.6128
 20
-353.9534
 30
0.0
  0
SEQEND
  5
1D4
100
AcDbEntity
  8
1
  6
CONTINUOUS
 62
     7
  0
POLYLINE
  5
1D5
100
AcDbEntity
  8
1
  6
CONTINUOUS
 62
     7
100
AcDb2dPolyline
 66
     1
 10
0.0
 20
0.0
 30
0.0
 70
     1
  0
VERTEX
  5
1D6
100
AcDbEntity
  8
1
  6
CONTINUOUS
 62
     7
100
AcDbVertex
100
AcDb2dVertex
 10
120.354
 20
-351.9422
 30
0.0
  0
VERTEX
  5
1D7
100
AcDbEntity
  8
1
  6
CONTINUOUS
 62
     7
100
AcDbVertex
100
AcDb2dVertex
 10
120.6054
 20
-350.1598
 30
0.0
  0
VERTEX
  5
1D8
100
AcDbEntity
  8
1
  6
CONTINUOUS
 62
     7
100
AcDbVertex
100
AcDb2dVertex
 10
122.3876
 20
-350.4112
 30
0.0
  0
VERTEX
  5
1D9
100
AcDbEntity
  8
1
  6
CONTINUOUS
 62
     7
100
AcDbVertex
100
AcDb2dVertex
 10
122.1362
 20
-352.1936
 30
0.0
  0
VERTEX
  5
1DA
100
AcDbEntity
  8
1
  6
CONTINUOUS
 62
     7
100
AcDbVertex
100
AcDb2dVertex
 10
122.1364
 20
-352.1935
 30
0.0
  0
VERTEX
  5
1DB
100
AcDbEntity
  8
1
  6
CONTINUOUS
 62
     7
100
AcDbVertex
100
AcDb2dVertex
 10
120.354
 20
-351.9422
 30
0.0
  0
SEQEND
  5
1DC
100
AcDbEntity
  8
1
  6
CONTINUOUS
 62
     7
  0
POLYLINE
  5
1DD
100
AcDbEntity
  8
1
  6
CONTINUOUS
 62
     7
100
AcDb2dPolyline
 66
     1
 10
0.0
 20
0.0
 30
0.0
 70
     1
  0
VERTEX
  5
1DE
100
AcDbEntity
  8
1
  6
CONTINUOUS
 62
     7
100
AcDbVertex
100
AcDb2dVertex
 10
106.0952
 20
-349.931
 30
0.0
  0
VERTEX
  5
1DF
100
AcDbEntity
  8
1
  6
CONTINUOUS
 62
     7
100
AcDbVertex
100
AcDb2dVertex
 10
106.3466
 20
-348.1486
 30
0.0
  0
VERTEX
  5
1E0
100
AcDbEntity
  8
1
  6
CONTINUOUS
 62
     7
100
AcDbVertex
100
AcDb2dVertex
 10
108.1288
 20
-348.4
 30
0.0
  0
VERTEX
  5
1E1
100
AcDbEntity
  8
1
  6
CONTINUOUS
 62
     7
100
AcDbVertex
100
AcDb2dVertex
 10
107.8774
 20
-350.1824
 30
0.0
  0
VERTEX
  5
1E2
100
AcDbEntity
  8
1
  6
CONTINUOUS
 62
     7
100
AcDbVertex
100
AcDb2dVertex
 10
107.8776
 20
-350.1823
 30
0.0
  0
VERTEX
  5
1E3
100
AcDbEntity
  8
1
  6
CONTINUOUS
 62
     7
100
AcDbVertex
100
AcDb2dVertex
 10
106.0952
 20
-349.931
 30
0.0
  0
SEQEND
  5
1E4
100
AcDbEntity
  8
1
  6
CONTINUOUS
 62
     7
  0
POLYLINE
  5
1E5
100
AcDbEntity
  8
1
  6
CONTINUOUS
 62
     7
100
AcDb2dPolyline
 66
     1
 10
0.0
 20
0.0
 30
0.0
 70
     1
  0
VERTEX
  5
1E6
100
AcDbEntity
  8
1
  6
CONTINUOUS
 62
     7
100
AcDbVertex
100
AcDb2dVertex
 10
91.8364
 20
-347.9198
 30
0.0
  0
VERTEX
  5
1E7
100
AcDbEntity
  8
1
  6
CONTINUOUS
 62
     7
100
AcDbVertex
100
AcDb2dVertex
 10
92.0878
 20
-346.1374
 30
0.0
  0
VERTEX
  5
1E8
100
AcDbEntity
  8
1
  6
CONTINUOUS
 62
     7
100
AcDbVertex
100
AcDb2dVertex
 10
93.87
 20
-346.3888
 30
0.0
  0
VERTEX
  5
1E9
100
AcDbEntity
  8
1
  6
CONTINUOUS
 62
     7
100
AcDbVertex
100
AcDb2dVertex
 10
93.6186
 20
-348.1712
 30
0.0
  0
VERTEX
  5
1EA
100
AcDbEntity
  8
1
  6
CONTINUOUS
 62
     7
100
AcDbVertex
100
AcDb2dVertex
 10
93.6188
 20
-348.1711
 30
0.0
  0
VERTEX
  5
1EB
100
AcDbEntity
  8
1
  6
CONTINUOUS
 62
     7
100
AcDbVertex
100
AcDb2dVertex
 10
91.8364
 20
-347.9198
 30
0.0
  0
SEQEND
  5
1EC
100
AcDbEntity
  8
1
  6
CONTINUOUS
 62
     7
  0
POLYLINE
  5
1ED
100
AcDbEntity
  8
1
  6
CONTINUOUS
 62
     7
100
AcDb2dPolyline
 66
     1
 10
0.0
 20
0.0
 30
0.0
 70
     1
  0
VERTEX
  5
1EE
100
AcDbEntity
  8
1
  6
CONTINUOUS
 62
     7
100
AcDbVertex
100
AcDb2dVertex
 10
77.5776
 20
-345.9086
 30
0.0
  0
VERTEX
  5
1EF
100
AcDbEntity
  8
1
  6
CONTINUOUS
 62
     7
100
AcDbVertex
100
AcDb2dVertex
 10
77.829
 20
-344.1262
 30
0.0
  0
VERTEX
  5
1F0
100
AcDbEntity
  8
1
  6
CONTINUOUS
 62
     7
100
AcDbVertex
100
AcDb2dVertex
 10
79.6112
 20
-344.3776
 30
0.0
  0
VERTEX
  5
1F1
100
AcDbEntity
  8
1
  6
CONTINUOUS
 62
     7
100
AcDbVertex
100
AcDb2dVertex
 10
79.3598
 20
-346.16
 30
0.0
  0
VERTEX
  5
1F2
100
AcDbEntity
  8
1
  6
CONTINUOUS
 62
     7
100
AcDbVertex
100
AcDb2dVertex
 10
79.36
 20
-346.1599
 30
0.0
  0
VERTEX
  5
1F3
100
AcDbEntity
  8
1
  6
CONTINUOUS
 62
     7
100
AcDbVertex
100
AcDb2dVertex
 10
77.5776
 20
-345.9086
 30
0.0
  0
SEQEND
  5
1F4
100
AcDbEntity
  8
1
  6
CONTINUOUS
 62
     7
  0
POLYLINE
  5
1F5
100
AcDbEntity
  8
1
  6
CONTINUOUS
 62
     7
100
AcDb2dPolyline
 66
     1
 10
0.0
 20
0.0
 30
0.0
 70
     1
  0
VERTEX
  5
1F6
100
AcDbEntity
  8
1
  6
CONTINUOUS
 62
     7
100
AcDbVertex
100
AcDb2dVertex
 10
149.123
 20
-354.1822
 30
0.0
  0
VERTEX
  5
1F7
100
AcDbEntity
  8
1
  6
CONTINUOUS
 62
     7
100
AcDbVertex
100
AcDb2dVertex
 10
150.9052
 20
-354.4336
 30
0.0
  0
VERTEX
  5
1F8
100
AcDbEntity
  8
1
  6
CONTINUOUS
 62
     7
100
AcDbVertex
100
AcDb2dVertex
 10
150.6538
 20
-356.216
 30
0.0
  0
VERTEX
  5
1F9
100
AcDbEntity
  8
1
  6
CONTINUOUS
 62
     7
100
AcDbVertex
100
AcDb2dVertex
 10
150.654
 20
-356.2159
 30
0.0
  0
VERTEX
  5
1FA
100
AcDbEntity
  8
1
  6
CONTINUOUS
 62
     7
100
AcDbVertex
100
AcDb2dVertex
 10
148.8716
 20
-355.9646
 30
0.0
  0
VERTEX
  5
1FB
100
AcDbEntity
  8
1
  6
CONTINUOUS
 62
     7
100
AcDbVertex
100
AcDb2dVertex
 10
149.123
 20
-354.1822
 30
0.0
  0
SEQEND
  5
1FC
100
AcDbEntity
  8
1
  6
CONTINUOUS
 62
     7
  0
POLYLINE
  5
1FD
100
AcDbEntity
  8
1
  6
CONTINUOUS
 62
     7
100
AcDb2dPolyline
 66
     1
 10
0.0
 20
0.0
 30
0.0
 70
     1
  0
VERTEX
  5
1FE
100
AcDbEntity
  8
1
  6
CONTINUOUS
 62
     7
100
AcDbVertex
100
AcDb2dVertex
 10
163.3818
 20
-356.1934
 30
0.0
  0
VERTEX
  5
1FF
100
AcDbEntity
  8
1
  6
CONTINUOUS
 62
     7
100
AcDbVertex
100
AcDb2dVertex
 10
165.164
 20
-356.4448
 30
0.0
  0
VERTEX
  5
200
100
AcDbEntity
  8
1
  6
CONTINUOUS
 62
     7
100
AcDbVertex
100
AcDb2dVertex
 10
164.9126
 20
-358.2272
 30
0.0
  0
VERTEX
  5
201
100
AcDbEntity
  8
1
  6
CONTINUOUS
 62
     7
100
AcDbVertex
100
AcDb2dVertex
 10
164.9128
 20
-358.2271
 30
0.0
  0
VERTEX
  5
202
100
AcDbEntity
  8
1
  6
CONTINUOUS
 62
     7
100
AcDbVertex
100
AcDb2dVertex
 10
163.1304
 20
-357.9758
 30
0.0
  0
VERTEX
  5
203
100
AcDbEntity
  8
1
  6
CONTINUOUS
 62
     7
100
AcDbVertex
100
AcDb2dVertex
 10
163.3818
 20
-356.1934
 30
0.0
  0
SEQEND
  5
204
100
AcDbEntity
  8
1
  6
CONTINUOUS
 62
     7
  0
POLYLINE
  5
205
100
AcDbEntity
  8
1
  6
CONTINUOUS
 62
     7
100
AcDb2dPolyline
 66
     1
 10
0.0
 20
0.0
 30
0.0
 70
     1
  0
VERTEX
  5
206
100
AcDbEntity
  8
1
  6
CONTINUOUS
 62
     7
100
AcDbVertex
100
AcDb2dVertex
 10
177.6406
 20
-358.2046
 30
0.0
  0
VERTEX
  5
207
100
AcDbEntity
  8
1
  6
CONTINUOUS
 62
     7
100
AcDbVertex
100
AcDb2dVertex
 10
179.4228
 20
-358.456
 30
0.0
  0
VERTEX
  5
208
100
AcDbEntity
  8
1
  6
CONTINUOUS
 62
     7
100
AcDbVertex
100
AcDb2dVertex
 10
179.1714
 20
-360.2384
 30
0.0
  0
VERTEX
  5
209
100
AcDbEntity
  8
1
  6
CONTINUOUS
 62
     7
100
AcDbVertex
100
AcDb2dVertex
 10
179.1716
 20
-360.2383
 30
0.0
  0
VERTEX
  5
20A
100
AcDbEntity
  8
1
  6
CONTINUOUS
 62
     7
100
AcDbVertex
100
AcDb2dVertex
 10
177.3892
 20
-359.987
 30
0.0
  0
VERTEX
  5
20B
100
AcDbEntity
  8
1
  6
CONTINUOUS
 62
     7
100
AcDbVertex
100
AcDb2dVertex
 10
177.6406
 20
-358.2046
 30
0.0
  0
SEQEND
  5
20C
100
AcDbEntity
  8
1
  6
CONTINUOUS
 62
     7
  0
POLYLINE
  5
20D
100
AcDbEntity
  8
1
  6
CONTINUOUS
 62
     7
100
AcDb2dPolyline
 66
     1
 10
0.0
 20
0.0
 30
0.0
 70
     1
  0
VERTEX
  5
20E
100
AcDbEntity
  8
1
  6
CONTINUOUS
 62
     7
100
AcDbVertex
100
AcDb2dVertex
 10
191.8994
 20
-360.2158
 30
0.0
  0
VERTEX
  5
20F
100
AcDbEntity
  8
1
  6
CONTINUOUS
 62
     7
100
AcDbVertex
100
AcDb2dVertex
 10
193.6816
 20
-360.4672
 30
0.0
  0
VERTEX
  5
210
100
AcDbEntity
  8
1
  6
CONTINUOUS
 62
     7
100
AcDbVertex
100
AcDb2dVertex
 10
193.4302
 20
-362.2496
 30
0.0
  0
VERTEX
  5
211
100
AcDbEntity
  8
1
  6
CONTINUOUS
 62
     7
100
AcDbVertex
100
AcDb2dVertex
 10
193.4304
 20
-362.2495
 30
0.0
  0
VERTEX
  5
212
100
AcDbEntity
  8
1
  6
CONTINUOUS
 62
     7
100
AcDbVertex
100
AcDb2dVertex
 10
191.648
 20
-361.9982
 30
0.0
  0
VERTEX
  5
213
100
AcDbEntity
  8
1
  6
CONTINUOUS
 62
     7
100
AcDbVertex
100
AcDb2dVertex
 10
191.8994
 20
-360.2158
 30
0.0
  0
SEQEND
  5
214
100
AcDbEntity
  8
1
  6
CONTINUOUS
 62
     7
  0
POLYLINE
  5
215
100
AcDbEntity
  8
1
  6
CONTINUOUS
 62
     7
100
AcDb2dPolyline
 66
     1
 10
0.0
 20
0.0
 30
0.0
 70
     1
  0
VERTEX
  5
216
100
AcDbEntity
  8
1
  6
CONTINUOUS
 62
     7
100
AcDbVertex
100
AcDb2dVertex
 10
207.9404
 20
-362.4784
 30
0.0
  0
VERTEX
  5
217
100
AcDbEntity
  8
1
  6
CONTINUOUS
 62
     7
100
AcDbVertex
100
AcDb2dVertex
 10
206.1582
 20
-362.227
 30
0.0
  0
VERTEX
  5
218
100
AcDbEntity
  8
1
  6
CONTINUOUS
 62
     7
100
AcDbVertex
100
AcDb2dVertex
 10
205.9068
 20
-364.0094
 30
0.0
  0
VERTEX
  5
219
100
AcDbEntity
  8
1
  6
CONTINUOUS
 62
     7
100
AcDbVertex
100
AcDb2dVertex
 10
207.6892
 20
-364.2607
 30
0.0
  0
VERTEX
  5
21A
100
AcDbEntity
  8
1
  6
CONTINUOUS
 62
     7
100
AcDbVertex
100
AcDb2dVertex
 10
207.689
 20
-364.2608
 30
0.0
  0
VERTEX
  5
21B
100
AcDbEntity
  8
1
  6
CONTINUOUS
 62
     7
100
AcDbVertex
100
AcDb2dVertex
 10
207.9404
 20
-362.4784
 30
0.0
  0
SEQEND
  5
21C
100
AcDbEntity
  8
1
  6
CONTINUOUS
 62
     7
  0
POLYLINE
  5
21D
100
AcDbEntity
  8
1
  6
CONTINUOUS
 62
     7
100
AcDb2dPolyline
 66
     1
 10
0.0
 20
0.0
 30
0.0
 70
     1
  0
VERTEX
  5
21E
100
AcDbEntity
  8
1
  6
CONTINUOUS
 62
     7
100
AcDbVertex
100
AcDb2dVertex
 10
225.764
 20
-364.9924
 30
0.0
  0
VERTEX
  5
21F
100
AcDbEntity
  8
1
  6
CONTINUOUS
 62
     7
100
AcDbVertex
100
AcDb2dVertex
 10
227.5462
 20
-365.2438
 30
0.0
  0
VERTEX
  5
220
100
AcDbEntity
  8
1
  6
CONTINUOUS
 62
     7
100
AcDbVertex
100
AcDb2dVertex
 10
227.295
 20
-367.0261
 30
0.0
  0
VERTEX
  5
221
100
AcDbEntity
  8
1
  6
CONTINUOUS
 62
     7
100
AcDbVertex
100
AcDb2dVertex
 10
225.5126
 20
-366.7748
 30
0.0
  0
VERTEX
  5
222
100
AcDbEntity
  8
1
  6
CONTINUOUS
 62
     7
100
AcDbVertex
100
AcDb2dVertex
 10
225.764
 20
-364.9924
 30
0.0
  0
SEQEND
  5
223
100
AcDbEntity
  8
1
  6
CONTINUOUS
 62
     7
  0
POLYLINE
  5
224
100
AcDbEntity
  8
1
  6
CONTINUOUS
 62
     7
100
AcDb2dPolyline
 66
     1
 10
0.0
 20
0.0
 30
0.0
 70
     1
  0
VERTEX
  5
225
100
AcDbEntity
  8
1
  6
CONTINUOUS
 62
     7
100
AcDbVertex
100
AcDb2dVertex
 10
207.4439
 20
-368.988
 30
0.0
  0
VERTEX
  5
226
100
AcDbEntity
  8
1
  6
CONTINUOUS
 62
     7
100
AcDbVertex
100
AcDb2dVertex
 10
205.6439
 20
-368.9969
 30
0.0
  0
VERTEX
  5
227
100
AcDbEntity
  8
1
  6
CONTINUOUS
 62
     7
100
AcDbVertex
100
AcDb2dVertex
 10
205.6352
 20
-367.1968
 30
0.0
  0
VERTEX
  5
228
100
AcDbEntity
  8
1
  6
CONTINUOUS
 62
     7
100
AcDbVertex
100
AcDb2dVertex
 10
207.435
 20
-367.1882
 30
0.0
  0
VERTEX
  5
229
100
AcDbEntity
  8
1
  6
CONTINUOUS
 62
     7
100
AcDbVertex
100
AcDb2dVertex
 10
207.4352
 20
-367.1879
 30
0.0
  0
VERTEX
  5
22A
100
AcDbEntity
  8
1
  6
CONTINUOUS
 62
     7
100
AcDbVertex
100
AcDb2dVertex
 10
207.4439
 20
-368.988
 30
0.0
  0
SEQEND
  5
22B
100
AcDbEntity
  8
1
  6
CONTINUOUS
 62
     7
  0
POLYLINE
  5
22C
100
AcDbEntity
  8
1
  6
CONTINUOUS
 62
     7
100
AcDb2dPolyline
 66
     1
 10
0.0
 20
0.0
 30
0.0
 70
     1
  0
VERTEX
  5
22D
100
AcDbEntity
  8
1
  6
CONTINUOUS
 62
     7
100
AcDbVertex
100
AcDb2dVertex
 10
191.244
 20
-369.0666
 30
0.0
  0
VERTEX
  5
22E
100
AcDbEntity
  8
1
  6
CONTINUOUS
 62
     7
100
AcDbVertex
100
AcDb2dVertex
 10
193.044
 20
-369.0577
 30
0.0
  0
VERTEX
  5
22F
100
AcDbEntity
  8
1
  6
CONTINUOUS
 62
     7
100
AcDbVertex
100
AcDb2dVertex
 10
193.0353
 20
-367.2576
 30
0.0
  0
VERTEX
  5
230
100
AcDbEntity
  8
1
  6
CONTINUOUS
 62
     7
100
AcDbVertex
100
AcDb2dVertex
 10
193.0351
 20
-367.2579
 30
0.0
  0
VERTEX
  5
231
100
AcDbEntity
  8
1
  6
CONTINUOUS
 62
     7
100
AcDbVertex
100
AcDb2dVertex
 10
191.2353
 20
-367.2665
 30
0.0
  0
VERTEX
  5
232
100
AcDbEntity
  8
1
  6
CONTINUOUS
 62
     7
100
AcDbVertex
100
AcDb2dVertex
 10
191.244
 20
-369.0666
 30
0.0
  0
SEQEND
  5
233
100
AcDbEntity
  8
1
  6
CONTINUOUS
 62
     7
  0
POLYLINE
  5
234
100
AcDbEntity
  8
1
  6
CONTINUOUS
 62
     7
100
AcDb2dPolyline
 66
     1
 10
0.0
 20
0.0
 30
0.0
 70
     1
  0
VERTEX
  5
235
100
AcDbEntity
  8
1
  6
CONTINUOUS
 62
     7
100
AcDbVertex
100
AcDb2dVertex
 10
178.6441
 20
-369.1274
 30
0.0
  0
VERTEX
  5
236
100
AcDbEntity
  8
1
  6
CONTINUOUS
 62
     7
100
AcDbVertex
100
AcDb2dVertex
 10
176.8441
 20
-369.1363
 30
0.0
  0
VERTEX
  5
237
100
AcDbEntity
  8
1
  6
CONTINUOUS
 62
     7
100
AcDbVertex
100
AcDb2dVertex
 10
176.8354
 20
-367.3362
 30
0.0
  0
VERTEX
  5
238
100
AcDbEntity
  8
1
  6
CONTINUOUS
 62
     7
100
AcDbVertex
100
AcDb2dVertex
 10
178.6352
 20
-367.3276
 30
0.0
  0
VERTEX
  5
239
100
AcDbEntity
  8
1
  6
CONTINUOUS
 62
     7
100
AcDbVertex
100
AcDb2dVertex
 10
178.6354
 20
-367.3273
 30
0.0
  0
VERTEX
  5
23A
100
AcDbEntity
  8
1
  6
CONTINUOUS
 62
     7
100
AcDbVertex
100
AcDb2dVertex
 10
178.6441
 20
-369.1274
 30
0.0
  0
SEQEND
  5
23B
100
AcDbEntity
  8
1
  6
CONTINUOUS
 62
     7
  0
POLYLINE
  5
23C
100
AcDbEntity
  8
1
  6
CONTINUOUS
 62
     7
100
AcDb2dPolyline
 66
     1
 10
0.0
 20
0.0
 30
0.0
 70
     1
  0
VERTEX
  5
23D
100
AcDbEntity
  8
1
  6
CONTINUOUS
 62
     7
100
AcDbVertex
100
AcDb2dVertex
 10
162.4442
 20
-369.206
 30
0.0
  0
VERTEX
  5
23E
100
AcDbEntity
  8
1
  6
CONTINUOUS
 62
     7
100
AcDbVertex
100
AcDb2dVertex
 10
164.2442
 20
-369.1971
 30
0.0
  0
VERTEX
  5
23F
100
AcDbEntity
  8
1
  6
CONTINUOUS
 62
     7
100
AcDbVertex
100
AcDb2dVertex
 10
164.2355
 20
-367.397
 30
0.0
  0
VERTEX
  5
240
100
AcDbEntity
  8
1
  6
CONTINUOUS
 62
     7
100
AcDbVertex
100
AcDb2dVertex
 10
164.2353
 20
-367.3973
 30
0.0
  0
VERTEX
  5
241
100
AcDbEntity
  8
1
  6
CONTINUOUS
 62
     7
100
AcDbVertex
100
AcDb2dVertex
 10
162.4355
 20
-367.4059
 30
0.0
  0
VERTEX
  5
242
100
AcDbEntity
  8
1
  6
CONTINUOUS
 62
     7
100
AcDbVertex
100
AcDb2dVertex
 10
162.4442
 20
-369.206
 30
0.0
  0
SEQEND
  5
243
100
AcDbEntity
  8
1
  6
CONTINUOUS
 62
     7
  0
POLYLINE
  5
244
100
AcDbEntity
  8
1
  6
CONTINUOUS
 62
     7
100
AcDb2dPolyline
 66
     1
 10
0.0
 20
0.0
 30
0.0
 70
     1
  0
VERTEX
  5
245
100
AcDbEntity
  8
1
  6
CONTINUOUS
 62
     7
100
AcDbVertex
100
AcDb2dVertex
 10
148.0443
 20
-369.2757
 30
0.0
  0
VERTEX
  5
246
100
AcDbEntity
  8
1
  6
CONTINUOUS
 62
     7
100
AcDbVertex
100
AcDb2dVertex
 10
149.8443
 20
-369.2668
 30
0.0
  0
VERTEX
  5
247
100
AcDbEntity
  8
1
  6
CONTINUOUS
 62
     7
100
AcDbVertex
100
AcDb2dVertex
 10
149.8356
 20
-367.4667
 30
0.0
  0
VERTEX
  5
248
100
AcDbEntity
  8
1
  6
CONTINUOUS
 62
     7
100
AcDbVertex
100
AcDb2dVertex
 10
149.8354
 20
-367.467
 30
0.0
  0
VERTEX
  5
249
100
AcDbEntity
  8
1
  6
CONTINUOUS
 62
     7
100
AcDbVertex
100
AcDb2dVertex
 10
148.0356
 20
-367.4756
 30
0.0
  0
VERTEX
  5
24A
100
AcDbEntity
  8
1
  6
CONTINUOUS
 62
     7
100
AcDbVertex
100
AcDb2dVertex
 10
148.0443
 20
-369.2757
 30
0.0
  0
SEQEND
  5
24B
100
AcDbEntity
  8
1
  6
CONTINUOUS
 62
     7
  0
POLYLINE
  5
24C
100
AcDbEntity
  8
1
  6
CONTINUOUS
 62
     7
100
AcDb2dPolyline
 66
     1
 10
0.0
 20
0.0
 30
0.0
 70
     1
  0
VERTEX
  5
24D
100
AcDbEntity
  8
1
  6
CONTINUOUS
 62
     7
100
AcDbVertex
100
AcDb2dVertex
 10
225.4202
 20
-368.1029
 30
0.0
  0
VERTEX
  5
24E
100
AcDbEntity
  8
1
  6
CONTINUOUS
 62
     7
100
AcDbVertex
100
AcDb2dVertex
 10
225.4289
 20
-369.903
 30
0.0
  0
VERTEX
  5
24F
100
AcDbEntity
  8
1
  6
CONTINUOUS
 62
     7
100
AcDbVertex
100
AcDb2dVertex
 10
227.2289
 20
-369.8941
 30
0.0
  0
VERTEX
  5
250
100
AcDbEntity
  8
1
  6
CONTINUOUS
 62
     7
100
AcDbVertex
100
AcDb2dVertex
 10
227.22
 20
-368.0943
 30
0.0
  0
VERTEX
  5
251
100
AcDbEntity
  8
1
  6
CONTINUOUS
 62
     7
100
AcDbVertex
100
AcDb2dVertex
 10
225.4202
 20
-368.1029
 30
0.0
  0
SEQEND
  5
252
100
AcDbEntity
  8
1
  6
CONTINUOUS
 62
     7
  0
POLYLINE
  5
253
100
AcDbEntity
  8
1
  6
CONTINUOUS
 62
     7
100
AcDb2dPolyline
 66
     1
 10
0.0
 20
0.0
 30
0.0
 70
     1
  0
VERTEX
  5
254
100
AcDbEntity
  8
1
  6
CONTINUOUS
 62
     7
100
AcDbVertex
100
AcDb2dVertex
 10
194.8956
 20
-379.2132
 30
0.0
  0
VERTEX
  5
255
100
AcDbEntity
  8
1
  6
CONTINUOUS
 62
     7
100
AcDbVertex
100
AcDb2dVertex
 10
196.6956
 20
-379.2043
 30
0.0
  0
VERTEX
  5
256
100
AcDbEntity
  8
1
  6
CONTINUOUS
 62
     7
100
AcDbVertex
100
AcDb2dVertex
 10
196.6869
 20
-377.4042
 30
0.0
  0
VERTEX
  5
257
100
AcDbEntity
  8
1
  6
CONTINUOUS
 62
     7
100
AcDbVertex
100
AcDb2dVertex
 10
196.6867
 20
-377.4045
 30
0.0
  0
VERTEX
  5
258
100
AcDbEntity
  8
1
  6
CONTINUOUS
 62
     7
100
AcDbVertex
100
AcDb2dVertex
 10
194.8869
 20
-377.4131
 30
0.0
  0
VERTEX
  5
259
100
AcDbEntity
  8
1
  6
CONTINUOUS
 62
     7
100
AcDbVertex
100
AcDb2dVertex
 10
194.8956
 20
-379.2132
 30
0.0
  0
SEQEND
  5
25A
100
AcDbEntity
  8
1
  6
CONTINUOUS
 62
     7
  0
POLYLINE
  5
25B
100
AcDbEntity
  8
1
  6
CONTINUOUS
 62
     7
100
AcDb2dPolyline
 66
     1
 10
0.0
 20
0.0
 30
0.0
 70
     1
  0
VERTEX
  5
25C
100
AcDbEntity
  8
1
  6
CONTINUOUS
 62
     7
100
AcDbVertex
100
AcDb2dVertex
 10
270.4956
 20
-379.2132
 30
0.0
  0
VERTEX
  5
25D
100
AcDbEntity
  8
1
  6
CONTINUOUS
 62
     7
100
AcDbVertex
100
AcDb2dVertex
 10
272.2956
 20
-379.2043
 30
0.0
  0
VERTEX
  5
25E
100
AcDbEntity
  8
1
  6
CONTINUOUS
 62
     7
100
AcDbVertex
100
AcDb2dVertex
 10
272.2869
 20
-377.4042
 30
0.0
  0
VERTEX
  5
25F
100
AcDbEntity
  8
1
  6
CONTINUOUS
 62
     7
100
AcDbVertex
100
AcDb2dVertex
 10
272.2867
 20
-377.4045
 30
0.0
  0
VERTEX
  5
260
100
AcDbEntity
  8
1
  6
CONTINUOUS
 62
     7
100
AcDbVertex
100
AcDb2dVertex
 10
270.4869
 20
-377.4131
 30
0.0
  0
VERTEX
  5
261
100
AcDbEntity
  8
1
  6
CONTINUOUS
 62
     7
100
AcDbVertex
100
AcDb2dVertex
 10
270.4956
 20
-379.2132
 30
0.0
  0
SEQEND
  5
262
100
AcDbEntity
  8
1
  6
CONTINUOUS
 62
     7
  0
POLYLINE
  5
263
100
AcDbEntity
  8
1
  6
CONTINUOUS
 62
     7
100
AcDb2dPolyline
 66
     1
 10
0.0
 20
0.0
 30
0.0
 70
     1
  0
VERTEX
  5
264
100
AcDbEntity
  8
1
  6
CONTINUOUS
 62
     7
100
AcDbVertex
100
AcDb2dVertex
 10
119.2956
 20
-379.2132
 30
0.0
  0
VERTEX
  5
265
100
AcDbEntity
  8
1
  6
CONTINUOUS
 62
     7
100
AcDbVertex
100
AcDb2dVertex
 10
121.0956
 20
-379.2043
 30
0.0
  0
VERTEX
  5
266
100
AcDbEntity
  8
1
  6
CONTINUOUS
 62
     7
100
AcDbVertex
100
AcDb2dVertex
 10
121.0869
 20
-377.4042
 30
0.0
  0
VERTEX
  5
267
100
AcDbEntity
  8
1
  6
CONTINUOUS
 62
     7
100
AcDbVertex
100
AcDb2dVertex
 10
121.0867
 20
-377.4045
 30
0.0
  0
VERTEX
  5
268
100
AcDbEntity
  8
1
  6
CONTINUOUS
 62
     7
100
AcDbVertex
100
AcDb2dVertex
 10
119.2869
 20
-377.4131
 30
0.0
  0
VERTEX
  5
269
100
AcDbEntity
  8
1
  6
CONTINUOUS
 62
     7
100
AcDbVertex
100
AcDb2dVertex
 10
119.2956
 20
-379.2132
 30
0.0
  0
SEQEND
  5
26A
100
AcDbEntity
  8
1
  6
CONTINUOUS
 62
     7
  0
POLYLINE
  5
26B
100
AcDbEntity
  8
1
  6
CONTINUOUS
 62
     7
100
AcDb2dPolyline
 66
     1
 10
0.0
 20
0.0
 30
0.0
 70
     1
  0
VERTEX
  5
26C
100
AcDbEntity
  8
1
  6
CONTINUOUS
 62
     7
100
AcDbVertex
100
AcDb2dVertex
 10
37.9307
 20
-309.5455
 30
0.0
  0
VERTEX
  5
26D
100
AcDbEntity
  8
1
  6
CONTINUOUS
 62
     7
100
AcDbVertex
100
AcDb2dVertex
 10
39.7307
 20
-309.5366
 30
0.0
  0
VERTEX
  5
26E
100
AcDbEntity
  8
1
  6
CONTINUOUS
 62
     7
100
AcDbVertex
100
AcDb2dVertex
 10
39.722
 20
-307.7365
 30
0.0
  0
VERTEX
  5
26F
100
AcDbEntity
  8
1
  6
CONTINUOUS
 62
     7
100
AcDbVertex
100
AcDb2dVertex
 10
39.7218
 20
-307.7368
 30
0.0
  0
VERTEX
  5
270
100
AcDbEntity
  8
1
  6
CONTINUOUS
 62
     7
100
AcDbVertex
100
AcDb2dVertex
 10
37.922
 20
-307.7454
 30
0.0
  0
VERTEX
  5
271
100
AcDbEntity
  8
1
  6
CONTINUOUS
 62
     7
100
AcDbVertex
100
AcDb2dVertex
 10
37.9307
 20
-309.5455
 30
0.0
  0
SEQEND
  5
272
100
AcDbEntity
  8
1
  6
CONTINUOUS
 62
     7
  0
POLYLINE
  5
273
100
AcDbEntity
  8
1
  6
CONTINUOUS
 62
     7
100
AcDb2dPolyline
 66
     1
 10
0.0
 20
0.0
 30
0.0
 70
     1
  0
VERTEX
  5
274
100
AcDbEntity
  8
1
  6
CONTINUOUS
 62
     7
100
AcDbVertex
100
AcDb2dVertex
 10
37.6137
 20
-293.2044
 30
0.0
  0
VERTEX
  5
275
100
AcDbEntity
  8
1
  6
CONTINUOUS
 62
     7
100
AcDbVertex
100
AcDb2dVertex
 10
39.4137
 20
-293.1955
 30
0.0
  0
VERTEX
  5
276
100
AcDbEntity
  8
1
  6
CONTINUOUS
 62
     7
100
AcDbVertex
100
AcDb2dVertex
 10
39.405
 20
-291.3954
 30
0.0
  0
VERTEX
  5
277
100
AcDbEntity
  8
1
  6
CONTINUOUS
 62
     7
100
AcDbVertex
100
AcDb2dVertex
 10
39.4048
 20
-291.3957
 30
0.0
  0
VERTEX
  5
278
100
AcDbEntity
  8
1
  6
CONTINUOUS
 62
     7
100
AcDbVertex
100
AcDb2dVertex
 10
37.605
 20
-291.4043
 30
0.0
  0
VERTEX
  5
279
100
AcDbEntity
  8
1
  6
CONTINUOUS
 62
     7
100
AcDbVertex
100
AcDb2dVertex
 10
37.6137
 20
-293.2044
 30
0.0
  0
SEQEND
  5
27A
100
AcDbEntity
  8
1
  6
CONTINUOUS
 62
     7
  0
TEXT
  5
27B
100
AcDbEntity
  8
1
  6
CONTINUOUS
 62
     7
100
AcDbText
 10
22.9706
 20
-355.2368
 30
0.0
 40
3.0
  1
SEE NOTE 2
  7
MONOTXT
210
0.0
220
0.0
230
1.0
100
AcDbText
  0
LINE
  5
27C
100
AcDbEntity
  8
1
  6
CONTINUOUS
 62
     7
100
AcDbLine
 10
72.0045
 20
-355.6414
 30
0.0
 11
93.1098
 21
-341.5246
 31
0.0
  0
TEXT
  5
27D
100
AcDbEntity
  8
1
  6
CONTINUOUS
 62
     7
100
AcDbText
 10
60.4043
 20
-335.3793
 30
0.0
 40
3.0
  1
EXISTING
 50
352.558289
  7
MONOTXT
210
0.0
220
0.0
230
1.0
100
AcDbText
  0
TEXT
  5
27E
100
AcDbEntity
  8
1
  6
CONTINUOUS
 62
     7
100
AcDbText
 10
59.7049
 20
-340.7338
 30
0.0
 40
3.0
  1
EXIT SIGN
 50
352.558289
  7
MONOTXT
210
0.0
220
0.0
230
1.0
100
AcDbText
  0
LINE
  5
27F
100
AcDbEntity
  8
1
  6
CONTINUOUS
 62
     7
100
AcDbLine
 10
93.1098
 20
-341.5246
 30
0.0
 11
80.6557
 21
-336.7612
 31
0.0
  0
LINE
  5
280
100
AcDbEntity
  8
1
  6
CONTINUOUS
 62
     7
100
AcDbLine
 10
100.1601
 20
-357.7205
 30
0.0
 11
113.454
 21
-373.7211
 31
0.0
  0
TEXT
  5
281
100
AcDbEntity
  8
1
  6
CONTINUOUS
 62
     7
100
AcDbText
 10
121.7509
 20
-375.2302
 30
0.0
 40
3.0
  1
PHYSICAL GORE
  7
MONOTXT
210
0.0
220
0.0
230
1.0
100
AcDbText
  0
LINE
  5
282
100
AcDbEntity
  8
1
  6
CONTINUOUS
 62
     7
100
AcDbLine
 10
113.454
 20
-373.7211
 30
0.0
 11
120.5843
 21
-373.7211
 31
0.0
  0
INSERT
  5
283
100
AcDbEntity
  8
1
  6
CONTINUOUS
 62
     1
100
AcDbBlockReference
  2
LDR
 10
100.1601
 20
-357.7205
 30
0.0
 41
240.000003
 42
240.000003
 50
129.721077
210
0.0
220
0.0
230
1.0
  0
INSERT
  5
284
100
AcDbEntity
  8
1
  6
CONTINUOUS
 62
     1
100
AcDbBlockReference
  2
LDR
 10
72.0045
 20
-355.6414
 30
0.0
 41
239.999998
 42
239.999998
 50
213.77756
210
0.0
220
0.0
230
1.0
  0
LINE
  5
285
100
AcDbEntity
  8
1
  6
CONTINUOUS
 62
     7
100
AcDbLine
 10
151.129
 20
-346.4912
 30
0.0
 11
165.4084
 21
-348.3563
 31
0.0
  0
LINE
  5
286
100
AcDbEntity
  8
1
  6
CONTINUOUS
 62
     7
100
AcDbLine
 10
150.9007
 20
-348.0221
 30
0.0
 11
151.2845
 21
-345.3014
 31
0.0
  0
LINE
  5
287
100
AcDbEntity
  8
1
  6
CONTINUOUS
 62
     7
100
AcDbLine
 10
150.1817
 20
-353.1196
 30
0.0
 11
150.5655
 21
-350.3987
 31
0.0
  0
LINE
  5
288
100
AcDbEntity
  8
1
  6
CONTINUOUS
 62
     7
100
AcDbLine
 10
150.6493
 20
-349.8046
 30
0.0
 11
150.8169
 21
-348.6163
 31
0.0
  0
LINE
  5
289
100
AcDbEntity
  8
1
  6
CONTINUOUS
 62
     7
100
AcDbLine
 10
165.1698
 20
-349.9603
 30
0.0
 11
165.5639
 21
-347.1665
 31
0.0
  0
LINE
  5
28A
100
AcDbEntity
  8
1
  6
CONTINUOUS
 62
     7
100
AcDbLine
 10
164.4405
 20
-355.1308
 30
0.0
 11
164.8346
 21
-352.3369
 31
0.0
  0
LINE
  5
28B
100
AcDbEntity
  8
1
  6
CONTINUOUS
 62
     7
100
AcDbLine
 10
164.9184
 20
-351.7428
 30
0.0
 11
165.086
 21
-350.5545
 31
0.0
  0
INSERT
  5
28C
100
AcDbEntity
  8
1
  6
CONTINUOUS
 62
     1
100
AcDbBlockReference
  2
LDR
 10
151.129
 20
-346.4912
 30
0.0
 41
240.0
 42
240.0
 50
172.558454
210
0.0
220
0.0
230
1.0
  0
INSERT
  5
28D
100
AcDbEntity
  8
1
  6
CONTINUOUS
 62
     1
100
AcDbBlockReference
  2
LDR
 10
151.129
 20
-346.4912
 30
0.0
 41
240.0
 42
240.0
 50
172.558454
210
0.0
220
0.0
230
1.0
  0
INSERT
  5
28E
100
AcDbEntity
  8
1
  6
CONTINUOUS
 62
     1
100
AcDbBlockReference
  2
LDR
 10
165.4084
 20
-348.3563
 30
0.0
 41
240.0
 42
240.0
 50
352.558454
210
0.0
220
0.0
230
1.0
  0
TEXT
  5
28F
100
AcDbEntity
  8
1
  6
CONTINUOUS
 62
     7
100
AcDbText
 10
154.5624
 20
-346.0952
 30
0.0
 40
1.9999
  1
3.6m
 50
352.558456
  7
MONOTXT
210
0.0
220
0.0
230
1.0
100
AcDbText
  0
TEXT
  5
290
100
AcDbEntity
  8
1
  6
CONTINUOUS
 62
     7
100
AcDbText
 10
153.7959
 20
-350.3038
 30
0.0
 40
3.0
  1
c/c
 50
352.558456
  7
MONOTXT
 11
154.184444
 21
-347.329067
 31
0.0
210
0.0
220
0.0
230
1.0
100
AcDbText
 73
     3
  0
LINE
  5
291
100
AcDbEntity
  8
1
  6
CONTINUOUS
 62
     7
100
AcDbLine
 10
163.3442
 20
-370.4016
 30
0.0
 11
163.3442
 21
-372.5016
 31
0.0
  0
LINE
  5
292
100
AcDbEntity
  8
1
  6
CONTINUOUS
 62
     7
100
AcDbLine
 10
163.3442
 20
-373.1016
 30
0.0
 11
163.3442
 21
-374.3016
 31
0.0
  0
LINE
  5
293
100
AcDbEntity
  8
1
  6
CONTINUOUS
 62
     7
100
AcDbLine
 10
163.3442
 20
-374.9016
 30
0.0
 11
163.3442
 21
-377.0016
 31
0.0
  0
LINE
  5
294
100
AcDbEntity
  8
1
  6
CONTINUOUS
 62
     7
100
AcDbLine
 10
177.7441
 20
-370.3319
 30
0.0
 11
177.7441
 21
-372.5016
 31
0.0
  0
LINE
  5
295
100
AcDbEntity
  8
1
  6
CONTINUOUS
 62
     7
100
AcDbLine
 10
177.7441
 20
-373.1016
 30
0.0
 11
177.7441
 21
-374.3016
 31
0.0
  0
LINE
  5
296
100
AcDbEntity
  8
1
  6
CONTINUOUS
 62
     7
100
AcDbLine
 10
177.7441
 20
-374.9016
 30
0.0
 11
177.7441
 21
-377.0016
 31
0.0
  0
LINE
  5
297
100
AcDbEntity
  8
1
  6
CONTINUOUS
 62
     7
100
AcDbLine
 10
163.3442
 20
-375.8016
 30
0.0
 11
177.7441
 21
-375.8016
 31
0.0
  0
INSERT
  5
298
100
AcDbEntity
  8
1
  6
CONTINUOUS
 62
     1
100
AcDbBlockReference
  2
LDR
 10
163.3442
 20
-375.8016
 30
0.0
 41
240.0
 42
240.0
 50
180.0
210
0.0
220
0.0
230
1.0
  0
INSERT
  5
299
100
AcDbEntity
  8
1
  6
CONTINUOUS
 62
     1
100
AcDbBlockReference
  2
LDR
 10
163.3442
 20
-375.8016
 30
0.0
 41
240.0
 42
240.0
 50
180.0
210
0.0
220
0.0
230
1.0
  0
INSERT
  5
29A
100
AcDbEntity
  8
1
  6
CONTINUOUS
 62
     1
100
AcDbBlockReference
  2
LDR
 10
177.7441
 20
-375.8016
 30
0.0
 41
240.0
 42
240.0
210
0.0
220
0.0
230
1.0
  0
INSERT
  5
29B
100
AcDbEntity
  8
1
  6
CONTINUOUS
 62
     1
100
AcDbBlockReference
  2
LDR
 10
177.7441
 20
-375.8016
 30
0.0
 41
240.0
 42
240.0
210
0.0
220
0.0
230
1.0
  0
TEXT
  5
29C
100
AcDbEntity
  8
1
  6
CONTINUOUS
 62
     7
100
AcDbText
 10
165.304
 20
-371.4194
 30
0.0
 40
3.0
  1
3.6m
  7
MONOTXT
 72
     4
 11
170.5008
 21
-369.9194
 31
0.0
210
0.0
220
0.0
230
1.0
100
AcDbText
  0
TEXT
  5
29D
100
AcDbEntity
  8
1
  6
CONTINUOUS
 62
     7
100
AcDbText
 10
166.8985
 20
-375.6194
 30
0.0
 40
3.0
  1
c/c
  7
MONOTXT
 72
     4
 11
170.5008
 21
-374.1194
 31
0.0
210
0.0
220
0.0
230
1.0
100
AcDbText
  0
LINE
  5
29E
100
AcDbEntity
  8
1
  6
CONTINUOUS
 62
     7
100
AcDbLine
 10
58.3047
 20
-354.768
 30
0.0
 11
52.0774
 21
-354.3287
 31
0.0
  0
LINE
  5
29F
100
AcDbEntity
  8
1
  6
CONTINUOUS
 62
     7
100
AcDbLine
 10
58.3047
 20
-354.768
 30
0.0
 11
64.21
 21
-344.0231
 31
0.0
  0
LINE
  5
2A0
100
AcDbEntity
  8
1
  6
CONTINUOUS
 62
     7
100
AcDbLine
 10
58.3047
 20
-354.768
 30
0.0
 11
62.5361
 21
-367.8895
 31
0.0
  0
INSERT
  5
2A1
100
AcDbEntity
  8
1
  6
CONTINUOUS
 62
     1
100
AcDbBlockReference
  2
LDR
 10
64.21
 20
-344.0231
 30
0.0
 41
239.999999
 42
239.999999
 50
61.207202
210
0.0
220
0.0
230
1.0
  0
INSERT
  5
2A2
100
AcDbEntity
  8
1
  6
CONTINUOUS
 62
     1
100
AcDbBlockReference
  2
LDR
 10
64.21
 20
-344.0231
 30
0.0
 41
239.999999
 42
239.999999
 50
61.207202
210
0.0
220
0.0
230
1.0
  0
INSERT
  5
2A3
100
AcDbEntity
  8
1
  6
CONTINUOUS
 62
     1
100
AcDbBlockReference
  2
LDR
 10
62.5361
 20
-367.8895
 30
0.0
 41
240.000001
 42
240.000001
 50
287.873389
210
0.0
220
0.0
230
1.0
  0
LINE
  5
2A4
100
AcDbEntity
  8
1
  6
CONTINUOUS
 62
     7
100
AcDbLine
 10
62.5449
 20
-370.8895
 30
0.0
 11
62.5449
 21
-376.8895
 31
0.0
  0
LINE
  5
2A5
100
AcDbEntity
  8
1
  6
CONTINUOUS
 62
     7
100
AcDbLine
 10
62.5449
 20
-377.4895
 30
0.0
 11
62.5449
 21
-378.6894
 31
0.0
  0
LINE
  5
2A6
100
AcDbEntity
  8
1
  6
CONTINUOUS
 62
     7
100
AcDbLine
 10
62.5449
 20
-379.2894
 30
0.0
 11
62.5449
 21
-385.2895
 31
0.0
  0
LINE
  5
2A7
100
AcDbEntity
  8
1
  6
CONTINUOUS
 62
     7
100
AcDbLine
 10
226.3289
 20
-371.0986
 30
0.0
 11
226.3289
 21
-377.0986
 31
0.0
  0
LINE
  5
2A8
100
AcDbEntity
  8
1
  6
CONTINUOUS
 62
     7
100
AcDbLine
 10
226.3289
 20
-377.6986
 30
0.0
 11
226.3289
 21
-378.8985
 31
0.0
  0
LINE
  5
2A9
100
AcDbEntity
  8
1
  6
CONTINUOUS
 62
     7
100
AcDbLine
 10
226.3289
 20
-379.4985
 30
0.0
 11
226.3289
 21
-385.2895
 31
0.0
  0
LINE
  5
2AA
100
AcDbEntity
  8
1
  6
CONTINUOUS
 62
     7
100
AcDbLine
 10
62.5449
 20
-384.0895
 30
0.0
 11
226.3289
 21
-384.0895
 31
0.0
  0
INSERT
  5
2AB
100
AcDbEntity
  8
1
  6
CONTINUOUS
 62
     1
100
AcDbBlockReference
  2
LDR
 10
62.5449
 20
-384.0895
 30
0.0
 41
240.0
 42
240.0
 50
180.0
210
0.0
220
0.0
230
1.0
  0
INSERT
  5
2AC
100
AcDbEntity
  8
1
  6
CONTINUOUS
 62
     1
100
AcDbBlockReference
  2
LDR
 10
62.5449
 20
-384.0895
 30
0.0
 41
240.0
 42
240.0
 50
180.0
210
0.0
220
0.0
230
1.0
  0
INSERT
  5
2AD
100
AcDbEntity
  8
1
  6
CONTINUOUS
 62
     1
100
AcDbBlockReference
  2
LDR
 10
226.3289
 20
-384.0895
 30
0.0
 41
240.0
 42
240.0
210
0.0
220
0.0
230
1.0
  0
TEXT
  5
2AE
100
AcDbEntity
  8
1
  6
CONTINUOUS
 62
     7
100
AcDbText
 10
129.1683
 20
-383.5814
 30
0.0
 40
3.0
  1
VARIABLE
  7
MONOTXT
210
0.0
220
0.0
230
1.0
100
AcDbText
  0
LINE
  5
2AF
100
AcDbEntity
  8
1
  6
CONTINUOUS
 62
     7
100
AcDbLine
 10
227.52
 20
-367.4943
 30
0.0
 11
232.32
 21
-367.4943
 31
0.0
  0
LINE
  5
2B0
100
AcDbEntity
  8
1
  6
CONTINUOUS
 62
     7
100
AcDbLine
 10
231.12
 20
-367.4943
 30
0.0
 11
231.12
 21
-353.3091
 31
0.0
  0
INSERT
  5
2B1
100
AcDbEntity
  8
1
  6
CONTINUOUS
 62
     1
100
AcDbBlockReference
  2
LDR
 10
231.12
 20
-353.3091
 30
0.0
 41
240.0
 42
240.0
 50
90.0
210
0.0
220
0.0
230
1.0
  0
INSERT
  5
2B2
100
AcDbEntity
  8
1
  6
CONTINUOUS
 62
     1
100
AcDbBlockReference
  2
LDR
 10
231.12
 20
-353.3091
 30
0.0
 41
240.0
 42
240.0
 50
90.0
210
0.0
220
0.0
230
1.0
  0
INSERT
  5
2B3
100
AcDbEntity
  8
1
  6
CONTINUOUS
 62
     1
100
AcDbBlockReference
  2
LDR
 10
231.12
 20
-367.4943
 30
0.0
 41
240.0
 42
240.0
 50
270.0
210
0.0
220
0.0
230
1.0
  0
TEXT
  5
2B4
100
AcDbEntity
  8
1
  6
CONTINUOUS
 62
     7
100
AcDbText
 10
231.8786
 20
-361.8197
 30
0.0
 40
3.0
  1
4.8m
  7
MONOTXT
210
0.0
220
0.0
230
1.0
100
AcDbText
  0
LINE
  5
2B5
100
AcDbEntity
  8
1
  6
CONTINUOUS
 62
     7
100
AcDbLine
 10
226.32
 20
-367.4943
 30
0.0
 11
261.1815
 21
-382.4664
 31
0.0
  0
TEXT
  5
2B6
100
AcDbEntity
  8
1
  6
CONTINUOUS
 62
     7
100
AcDbText
 10
262.5131
 20
-383.2686
 30
0.0
 40
3.0
  1
BEGIN MARKINGS AT
  7
MONOTXT
 11
262.5131
 21
-380.2686
 31
0.0
210
0.0
220
0.0
230
1.0
100
AcDbText
 73
     3
  0
TEXT
  5
2B7
100
AcDbEntity
  8
1
  6
CONTINUOUS
 62
     7
100
AcDbText
 10
262.5131
 20
-387.4686
 30
0.0
 40
3.0
  1
THEORETICAL GORE POINT
  7
MONOTXT
 11
262.5131
 21
-384.4686
 31
0.0
210
0.0
220
0.0
230
1.0
100
AcDbText
 73
     3
  0
INSERT
  5
2B8
100
AcDbEntity
  8
1
  6
CONTINUOUS
 62
     1
100
AcDbBlockReference
  2
LDR
 10
226.32
 20
-367.4943
 30
0.0
 41
240.0
 42
240.0
 50
156.757746
210
0.0
220
0.0
230
1.0
  0
INSERT
  5
2B9
100
AcDbEntity
  8
1
  6
CONTINUOUS
 62
     1
100
AcDbBlockReference
  2
ARO
 10
26.372
 20
-384.096
 30
0.0
 41
240.0
 42
240.0
 50
180.0
210
0.0
220
0.0
230
1.0
  0
INSERT
  5
2BA
100
AcDbEntity
  8
1
  6
CONTINUOUS
 62
     1
100
AcDbBlockReference
  2
ARO
 10
183.977
 20
-353.8307
 30
0.0
 41
240.000002
 42
240.000002
 50
172.80426
210
0.0
220
0.0
230
1.0
  0
INSERT
  5
2BB
100
AcDbEntity
  8
1
  6
CONTINUOUS
 62
     1
100
AcDbBlockReference
  2
ARO
 10
26.0224
 20
-372.5581
 30
0.0
 41
240.0
 42
240.0
 50
180.0
210
0.0
220
0.0
230
1.0
  0
INSERT
  5
2BC
100
AcDbEntity
  8
1
  6
CONTINUOUS
 62
     1
100
AcDbBlockReference
  2
ARO
 10
325.1343
 20
-384.0913
 30
0.0
 41
240.0
 42
240.0
 50
180.0
210
0.0
220
0.0
230
1.0
  0
INSERT
  5
2BD
100
AcDbEntity
  8
1
  6
CONTINUOUS
 62
     1
100
AcDbBlockReference
  2
ARO
 10
324.7847
 20
-372.5534
 30
0.0
 41
240.0
 42
240.0
 50
180.0
210
0.0
220
0.0
230
1.0
  0
TEXT
  5
2BE
100
AcDbEntity
  8
1
  6
CONTINUOUS
 62
     7
100
AcDbText
 10
124.9679
 20
-407.1301
 30
0.0
 40
4.8
  1
GORE AREAS: MARKER PLACEMENT
  7
TXT
210
0.0
220
0.0
230
1.0
100
AcDbText
  0
LINE
  5
2BF
100
AcDbEntity
  8
1
  6
CONTINUOUS
 62
     3
100
AcDbLine
 10
337.5529
 20
-322.8301
 30
0.0
 11
527.5937
 21
-322.8301
 31
0.0
  0
LINE
  5
2C0
100
AcDbEntity
  8
1
  6
CONTINUOUS
 62
     3
100
AcDbLine
 10
337.5653
 20
-315.6176
 30
0.0
 11
373.6278
 21
-279.5552
 31
0.0
  0
LINE
  5
2C1
100
AcDbEntity
  8
1
  6
CONTINUOUS
 62
     3
100
AcDbLine
 10
356.8631
 20
-319.2301
 30
0.0
 11
392.5219
 21
-283.5713
 31
0.0
  0
LINE
  5
2C2
100
AcDbEntity
  8
1
  6
CONTINUOUS
 62
     3
100
AcDbLine
 10
356.8631
 20
-319.2301
 30
0.0
 11
388.0631
 21
-319.2301
 31
0.0
  0
LINE
  5
2C3
100
AcDbEntity
  8
1
  6
CONTINUOUS
 62
     3
100
AcDbLine
 10
388.0631
 20
-319.2301
 30
0.0
 11
418.2527
 21
-289.0405
 31
0.0
  0
LINE
  5
2C4
100
AcDbEntity
  8
1
  6
CONTINUOUS
 62
     3
100
AcDbLine
 10
410.973
 20
-319.2301
 30
0.0
 11
437.1468
 21
-293.0566
 31
0.0
  0
LINE
  5
2C5
100
AcDbEntity
  8
1
  6
CONTINUOUS
 62
     3
100
AcDbLine
 10
410.973
 20
-319.2301
 30
0.0
 11
442.1733
 21
-319.2301
 31
0.0
  0
LINE
  5
2C6
100
AcDbEntity
  8
1
  6
CONTINUOUS
 62
     3
100
AcDbLine
 10
442.1733
 20
-319.2301
 30
0.0
 11
462.8776
 21
-298.5258
 31
0.0
  0
LINE
  5
2C7
100
AcDbEntity
  8
1
  6
CONTINUOUS
 62
     3
100
AcDbLine
 10
465.0835
 20
-319.2301
 30
0.0
 11
481.7717
 21
-302.5419
 31
0.0
  0
LINE
  5
2C8
100
AcDbEntity
  8
1
  6
CONTINUOUS
 62
     3
100
AcDbLine
 10
465.0835
 20
-319.2301
 30
0.0
 11
496.2835
 21
-319.2301
 31
0.0
  0
LINE
  5
2C9
100
AcDbEntity
  8
1
  6
CONTINUOUS
 62
     3
100
AcDbLine
 10
496.2835
 20
-319.2301
 30
0.0
 11
507.5025
 21
-308.0111
 31
0.0
  0
LINE
  5
2CA
100
AcDbEntity
  8
1
  6
CONTINUOUS
 62
     3
100
AcDbLine
 10
519.1937
 20
-319.2301
 30
0.0
 11
526.3967
 21
-312.0272
 31
0.0
  0
LINE
  5
2CB
100
AcDbEntity
  8
1
  6
CONTINUOUS
 62
     3
100
AcDbLine
 10
519.1937
 20
-319.2301
 30
0.0
 11
527.5937
 21
-319.2301
 31
0.0
  0
LINE
  5
2CC
100
AcDbEntity
  8
1
  6
CONTINUOUS
 62
     3
100
AcDbLine
 10
373.6278
 20
-279.5552
 30
0.0
 11
343.1096
 21
-273.0682
 31
0.0
  0
LINE
  5
2CD
100
AcDbEntity
  8
1
  6
CONTINUOUS
 62
     3
100
AcDbLine
 10
418.2527
 20
-289.0405
 30
0.0
 11
392.522
 21
-283.5712
 31
0.0
  0
LINE
  5
2CE
100
AcDbEntity
  8
1
  6
CONTINUOUS
 62
     3
100
AcDbLine
 10
462.8776
 20
-298.5258
 30
0.0
 11
437.1469
 21
-293.0565
 31
0.0
  0
LINE
  5
2CF
100
AcDbEntity
  8
1
  6
CONTINUOUS
 62
     3
100
AcDbLine
 10
529.918
 20
-312.7756
 30
0.0
 11
526.3967
 21
-312.0272
 31
0.0
  0
LINE
  5
2D0
100
AcDbEntity
  8
1
  6
CONTINUOUS
 62
     3
100
AcDbLine
 10
507.5026
 20
-308.011
 30
0.0
 11
481.7718
 21
-302.5418
 31
0.0
  0
LINE
  5
2D1
100
AcDbEntity
  8
1
  6
CONTINUOUS
 62
     3
100
AcDbLine
 10
332.9272
 20
-283.2505
 30
0.0
 11
343.1095
 21
-273.0682
 31
0.0
  0
LINE
  5
2D2
100
AcDbEntity
  8
1
  6
CONTINUOUS
 62
     3
100
AcDbLine
 10
529.4314
 20
-308.9926
 30
0.0
 11
333.294
 21
-267.3013
 31
0.0
  0
SPLINE
  5
2D3
100
AcDbEntity
  8
1
  6
CONTINUOUS
 62
     3
100
AcDbSpline
210
0.0
220
0.0
230
1.0
 70
     8
 71
     3
 72
    77
 73
    73
 74
     0
 42
0.0
 43
0.0
 12
0.1966051783536794
 22
-0.980482740207352
 32
0.0
 13
-0.1030799217613523
 23
-0.9946730768094979
 33
0.0
 40
0.0
 40
0.0
 40
0.0
 40
0.0
 40
0.0299712190509092
 40
0.0299712190509092
 40
0.0299712190509092
 40
0.075883204905839
 40
0.075883204905839
 40
0.075883204905839
 40
0.1467531687779259
 40
0.1467531687779259
 40
0.1467531687779259
 40
0.1961820032758377
 40
0.1961820032758377
 40
0.1961820032758377
 40
0.2505630240840461
 40
0.2505630240840461
 40
0.2505630240840461
 40
0.2970507188206376
 40
0.2970507188206376
 40
0.2970507188206376
 40
0.3468816427058336
 40
0.3468816427058336
 40
0.3468816427058336
 40
0.3807505530374386
 40
0.3807505530374386
 40
0.3807505530374386
 40
0.4175156618702947
 40
0.4175156618702947
 40
0.4175156618702947
 40
0.4581715120836383
 40
0.4581715120836383
 40
0.4581715120836383
 40
0.5070932394790512
 40
0.5070932394790512
 40
0.5070932394790512
 40
0.5374873871087078
 40
0.5374873871087078
 40
0.5374873871087078
 40
0.5716709032257464
 40
0.5716709032257464
 40
0.5716709032257464
 40
0.598318545327309
 40
0.598318545327309
 40
0.598318545327309
 40
0.6369747624225582
 40
0.6369747624225582
 40
0.6369747624225582
 40
0.6766999011980597
 40
0.6766999011980597
 40
0.6766999011980597
 40
0.7095953442154714
 40
0.7095953442154714
 40
0.7095953442154714
 40
0.7489713334922183
 40
0.7489713334922183
 40
0.7489713334922183
 40
0.7918472861954472
 40
0.7918472861954472
 40
0.7918472861954472
 40
0.8235436424769324
 40
0.8235436424769324
 40
0.8235436424769324
 40
0.862639432053944
 40
0.862639432053944
 40
0.862639432053944
 40
0.9037430693072263
 40
0.9037430693072263
 40
0.9037430693072263
 40
0.9391384517729453
 40
0.9391384517729453
 40
0.9391384517729453
 40
1.0
 40
1.0
 40
1.0
 40
1.0
 10
333.29400000000004
 20
-267.30130000000003
 30
0.0
 10
333.32750000000004
 20
-267.46836666666667
 30
0.0
 10
333.36099999999999
 20
-267.63543333333337
 30
0.0
 10
333.39449999999999
 20
-267.80250000000001
 30
0.0
 10
333.44581761652836
 20
-268.05842427267646
 30
0.0
 10
333.77645588352368
 20
-268.2354106571056
 30
0.0
 10
333.81479999999999
 20
-268.46320000000003
 30
0.0
 10
333.87398816402259
 20
-268.814816733643
 30
0.0
 10
333.3076140520995
 20
-269.17190227721744
 30
0.0
 10
333.27440000000001
 20
-269.5444
 30
0.0
 10
333.2512345883851
 20
-269.80420157579169
 30
0.0
 10
333.27190874034028
 20
-270.13087158691656
 30
0.0
 10
333.33440000000002
 20
-270.38530000000003
 30
0.0
 10
333.40315214692816
 20
-270.66521913964056
 30
0.0
 10
333.85373408838728
 20
-270.9186107158514
 30
0.0
 10
333.78480000000002
 20
-271.1961
 30
0.0
 10
333.72587159427559
 20
-271.43331211817031
 30
0.0
 10
333.58160579570938
 20
-271.67985715420332
 30
0.0
 10
333.4545
 20
-271.9169
 30
0.0
 10
333.31825320894592
 20
-272.17099012155484
 30
0.0
 10
333.06445220103603
 20
-272.37089934735036
 30
0.0
 10
333.00420000000003
 20
-272.6377
 30
0.0
 10
332.96324799198845
 20
-272.81903814660598
 30
0.0
 10
333.04780791710914
 20
-273.02262604167828
 30
0.0
 10
333.0942
 20
-273.20830000000001
 30
0.0
 10
333.14455916301313
 20
-273.40985131116685
 30
0.0
 10
333.23308366868281
 20
-273.60721748986555
 30
0.0
 10
333.27440000000001
 20
-273.80889999999999
 30
0.0
 10
333.32008871494531
 20
-274.03192596627571
 30
0.0
 10
333.26862141902183
 20
-274.27681075329542
 30
0.0
 10
333.21430000000004
 20
-274.49970000000002
 30
0.0
 10
333.14893431119583
 20
-274.76790560655928
 30
0.0
 10
332.83702884807548
 20
-274.96503983235317
 30
0.0
 10
332.79400000000004
 20
-275.22050000000002
 30
0.0
 10
332.76726698728015
 20
-275.37921258972926
 30
0.0
 10
332.81272452522711
 20
-275.57248701914739
 30
0.0
 10
332.88409999999999
 20
-275.73099999999999
 30
0.0
 10
332.9643741607361
 20
-275.90927547269155
 30
0.0
 10
333.13652021289937
 20
-276.03312388534107
 30
0.0
 10
333.21430000000004
 20
-276.2115
 30
0.0
 10
333.27493296479798
 20
-276.35055248502306
 30
0.0
 10
333.31272952234912
 20
-276.52333416326616
 30
0.0
 10
333.27440000000001
 20
-276.66200000000003
 30
0.0
 10
333.21879754438919
 20
-276.86315463379646
 30
0.0
 10
333.01954959039074
 20
-277.02032903937919
 30
0.0
 10
332.94409999999999
 20
-277.23259999999999
 30
0.0
 10
332.86656407760381
 20
-277.45074067703251
 30
0.0
 10
332.77679689632566
 20
-277.67467448782537
 30
0.0
 10
332.79400000000004
 20
-277.89330000000001
 30
0.0
 10
332.80824548117602
 20
-278.07433858915476
 30
0.0
 10
332.88107621146077
 20
-278.25613146923376
 30
0.0
 10
332.94409999999999
 20
-278.43389999999999
 30
0.0
 10
333.01953975073957
 20
-278.64668970942841
 30
0.0
 10
333.20568237611258
 20
-278.82815164919248
 30
0.0
 10
333.24440000000004
 20
-279.03460000000001
 30
0.0
 10
333.28655906802777
 20
-279.25939866252173
 30
0.0
 10
333.01606786639047
 20
-279.48363205511288
 30
0.0
 10
333.00420000000003
 20
-279.7253
 30
0.0
 10
332.9954265944499
 20
-279.90395476566732
 30
0.0
 10
332.99161120239046
 20
-280.08719758020482
 30
0.0
 10
333.00420000000003
 20
-280.26589999999999
 30
0.0
 10
333.01972762020978
 20
-280.48632004258059
 30
0.0
 10
333.08684755616616
 20
-280.70696833666568
 30
0.0
 10
333.0942
 20
-280.92660000000001
 30
0.0
 10
333.1019300442718
 20
-281.15751131594226
 30
0.0
 10
332.97614331924962
 20
-281.38491865541005
 30
0.0
 10
332.9742
 20
-281.6173
 30
0.0
 10
332.97252655860427
 20
-281.81740945792887
 30
0.0
 10
333.05494274060914
 20
-282.01784224599129
 30
0.0
 10
333.0342
 20
-282.21800000000002
 30
0.0
 10
332.99853333333334
 20
-282.56216666666666
 30
0.0
 10
332.96286666666668
 20
-282.90633333333335
 30
0.0
 10
332.92720000000003
 20
-283.25049999999999
 30
0.0
  0
SPLINE
  5
2D4
100
AcDbEntity
  8
1
  6
CONTINUOUS
 62
     3
100
AcDbSpline
210
0.0
220
0.0
230
1.0
 70
     8
 71
     3
 72
    26
 73
    22
 74
     0
 42
0.0
 43
0.0
 12
-0.2827002653844425
 22
-0.9592082985210072
 32
0.0
 13
-0.2514346729338545
 23
-0.9678742714044245
 33
0.0
 40
0.0
 40
0.0
 40
0.0
 40
0.0
 40
0.1066906637011775
 40
0.1066906637011775
 40
0.1066906637011775
 40
0.29071980258761
 40
0.29071980258761
 40
0.29071980258761
 40
0.48573642700899
 40
0.48573642700899
 40
0.48573642700899
 40
0.6158513250060096
 40
0.6158513250060096
 40
0.6158513250060096
 40
0.7941091395189487
 40
0.7941091395189487
 40
0.7941091395189487
 40
0.9320291162994494
 40
0.9320291162994494
 40
0.9320291162994494
 40
1.0
 40
1.0
 40
1.0
 40
1.0
 10
337.56530000000004
 20
-315.61760000000004
 30
0.0
 10
337.48599999999999
 20
-315.88666666666666
 30
0.0
 10
337.4067
 20
-316.15573333333339
 30
0.0
 10
337.32740000000001
 20
-316.4248
 30
0.0
 10
337.19061660951922
 20
-316.8889090911984
 30
0.0
 10
337.93697702659927
 20
-317.32076494733434
 30
0.0
 10
337.92790000000002
 20
-317.74630000000002
 30
0.0
 10
337.91828102825525
 20
-318.19724168263775
 30
0.0
 10
336.79168398894387
 20
-318.46954224324872
 30
0.0
 10
336.96719999999999
 20
-318.94760000000002
 30
0.0
 10
337.08430410814037
 20
-319.26655966018762
 30
0.0
 10
337.20950721433678
 20
-319.58739535457823
 30
0.0
 10
337.32740000000001
 20
-319.90860000000004
 30
0.0
 10
337.48891348264249
 20
-320.3486513621861
 30
0.0
 10
337.66077301910798
 20
-320.78657887209573
 30
0.0
 10
337.80780000000004
 20
-321.23000000000002
 30
0.0
 10
337.92155634693006
 20
-321.57307966711949
 30
0.0
 10
337.77887439633872
 20
-321.96023268353014
 30
0.0
 10
337.68770000000001
 20
-322.31120000000004
 30
0.0
 10
337.64276666666666
 20
-322.48416666666668
 30
0.0
 10
337.59783333333337
 20
-322.65713333333338
 30
0.0
 10
337.55290000000002
 20
-322.83010000000002
 30
0.0
  0
SPLINE
  5
2D5
100
AcDbEntity
  8
1
  6
CONTINUOUS
 62
     3
100
AcDbSpline
210
0.0
220
0.0
230
1.0
 70
     8
 71
     3
 72
    23
 73
    19
 74
     0
 42
0.0
 43
0.0
 12
0.1168791323041935
 22
-0.9931461465624377
 32
0.0
 13
0.1700898077853333
 23
-0.9854285652890059
 33
0.0
 40
0.0
 40
0.0
 40
0.0
 40
0.0
 40
0.1531142185897435
 40
0.1531142185897435
 40
0.1531142185897435
 40
0.3311880301016411
 40
0.3311880301016411
 40
0.3311880301016411
 40
0.5664542235930865
 40
0.5664542235930865
 40
0.5664542235930865
 40
0.7715494402264846
 40
0.7715494402264846
 40
0.7715494402264846
 40
0.8077931185251929
 40
0.8077931185251929
 40
0.8077931185251929
 40
1.0
 40
1.0
 40
1.0
 40
1.0
 10
529.43140000000005
 20
-308.99260000000004
 30
0.0
 10
529.45526666666672
 20
-309.19540000000001
 30
0.0
 10
529.47913333333338
 20
-309.39820000000003
 30
0.0
 10
529.50300000000004
 20
-309.601
 30
0.0
 10
529.53075724123187
 20
-309.83685901627712
 30
0.0
 10
529.11126523387645
 20
-310.01368376229863
 30
0.0
 10
529.16190000000006
 20
-310.22649999999999
 30
0.0
 10
529.22879725222981
 20
-310.50766692584995
 30
0.0
 10
529.48106778640761
 20
-310.78051532005492
 30
0.0
 10
529.55989999999997
 20
-311.0795
 30
0.0
 10
529.62862262301906
 20
-311.34014232516108
 30
0.0
 10
529.70363971930578
 20
-311.60757296165474
 30
0.0
 10
529.75880000000006
 20
-311.87560000000002
 30
0.0
 10
529.76854772352658
 20
-311.92296476019578
 30
0.0
 10
529.7789785234238
 20
-311.97016823433165
 30
0.0
 10
529.78719999999998
 20
-312.01780000000002
 30
0.0
 10
529.83080000000007
 20
-312.2704
 30
0.0
 10
529.87440000000004
 20
-312.52300000000002
 30
0.0
 10
529.91800000000001
 20
-312.7756
 30
0.0
  0
SPLINE
  5
2D6
100
AcDbEntity
  8
1
  6
CONTINUOUS
 62
     3
100
AcDbSpline
210
0.0
220
0.0
230
1.0
 70
     8
 71
     3
 72
    23
 73
    19
 74
     0
 42
0.0
 43
0.0
 12
-0.064274860893696
 22
-0.9979322332989831
 32
0.0
 13
0.0896634055258936
 23
-0.9959721249661052
 33
0.0
 40
0.0
 40
0.0
 40
0.0
 40
0.0
 40
0.2056016664535646
 40
0.2056016664535646
 40
0.2056016664535646
 40
0.3882960391425222
 40
0.3882960391425222
 40
0.3882960391425222
 40
0.5562277012006106
 40
0.5562277012006106
 40
0.5562277012006106
 40
0.6998901262366871
 40
0.6998901262366871
 40
0.6998901262366871
 40
0.8526152510791913
 40
0.8526152510791913
 40
0.8526152510791913
 40
1.0
 40
1.0
 40
1.0
 40
1.0
 10
527.59370000000001
 20
-319.23009999999999
 30
0.0
 10
527.57640000000004
 20
-319.49870000000004
 30
0.0
 10
527.55910000000006
 20
-319.76730000000003
 30
0.0
 10
527.54180000000008
 20
-320.03590000000003
 30
0.0
 10
527.52642749499057
 20
-320.27457369049438
 30
0.0
 10
527.24017266534509
 20
-320.42129975429702
 30
0.0
 10
527.14380000000006
 20
-320.63290000000001
 30
0.0
 10
527.05521477632749
 20
-320.82740178147139
 30
0.0
 10
527.01080426774934
 20
-321.09251298683853
 30
0.0
 10
527.05860000000007
 20
-321.2869
 30
0.0
 10
527.09948836326259
 20
-321.45319448767464
 30
0.0
 10
527.46633266111871
 20
-321.46936883494789
 30
0.0
 10
527.48490000000004
 20
-321.65649999999999
 30
0.0
 10
527.50463862788365
 20
-321.85543601641018
 30
0.0
 10
527.52387314746534
 20
-322.05447031818329
 30
0.0
 10
527.54180000000008
 20
-322.25360000000001
 30
0.0
 10
527.55910000000006
 20
-322.44576666666666
 30
0.0
 10
527.57640000000004
 20
-322.63793333333336
 30
0.0
 10
527.59370000000001
 20
-322.83010000000002
 30
0.0
  0
LINE
  5
2D7
100
AcDbEntity
  8
1
  6
CONTINUOUS
 62
     7
100
AcDbLine
 10
377.5032
 20
-308.7723
 30
0.0
 11
372.4121
 21
-303.6812
 31
0.0
  0
LINE
  5
2D8
100
AcDbEntity
  8
1
  6
CONTINUOUS
 62
     7
100
AcDbLine
 10
360.9569
 20
-292.226
 30
0.0
 11
355.4709
 21
-286.74
 31
0.0
  0
INSERT
  5
2D9
100
AcDbEntity
  8
1
  6
CONTINUOUS
 62
     1
100
AcDbBlockReference
  2
LDR
 10
360.9569
 20
-292.226
 30
0.0
 41
239.999999
 42
239.999999
 50
315.0
210
0.0
220
0.0
230
1.0
  0
INSERT
  5
2DA
100
AcDbEntity
  8
1
  6
CONTINUOUS
 62
     1
100
AcDbBlockReference
  2
LDR
 10
360.9569
 20
-292.226
 30
0.0
 41
239.999999
 42
239.999999
 50
315.0
210
0.0
220
0.0
230
1.0
  0
INSERT
  5
2DB
100
AcDbEntity
  8
1
  6
CONTINUOUS
 62
     1
100
AcDbBlockReference
  2
LDR
 10
372.4121
 20
-303.6812
 30
0.0
 41
239.999999
 42
239.999999
 50
135.0
210
0.0
220
0.0
230
1.0
  0
INSERT
  5
2DC
100
AcDbEntity
  8
1
  6
CONTINUOUS
 62
     1
100
AcDbBlockReference
  2
LDR
 10
427.0919
 20
-303.122
 30
0.0
 41
239.999999
 42
239.999999
 50
117.993447
210
0.0
220
0.0
230
1.0
  0
INSERT
  5
2DD
100
AcDbEntity
  8
1
  6
CONTINUOUS
 62
     1
100
AcDbBlockReference
  2
LDR
 10
427.1867
 20
-319.2247
 30
0.0
 41
239.999999
 42
239.999999
 50
243.806324
210
0.0
220
0.0
230
1.0
  0
TEXT
  5
2DE
100
AcDbEntity
  8
1
  6
CONTINUOUS
 62
     7
100
AcDbText
 10
420.6448
 20
-312.6402
 30
0.0
 40
3.0
  1
45 NORMAL
  7
MONOTXT
210
0.0
220
0.0
230
1.0
100
AcDbText
  0
ARC
  5
2DF
100
AcDbEntity
  8
1
  6
CONTINUOUS
 62
     7
100
AcDbCircle
 10
413.673533
 20
-311.234174
 30
0.0
 40
15.690078
210
0.0
220
0.0
230
1.0
100
AcDbArc
 50
8.458094
 51
26.782622
  0
ARC
  5
2E0
100
AcDbEntity
  8
1
  6
CONTINUOUS
 62
     7
100
AcDbCircle
 10
413.673533
 20
-311.234174
 30
0.0
 40
15.690078
210
0.0
220
0.0
230
1.0
100
AcDbArc
 50
333.764533
 51
352.953689
  0
CIRCLE
  5
2E1
100
AcDbEntity
  8
1
  6
CONTINUOUS
 62
     7
100
AcDbCircle
 10
426.9853
 20
-310.224
 30
0.0
 40
0.649441
210
0.0
220
0.0
230
1.0
  0
TEXT
  5
2E2
100
AcDbEntity
  8
1
  6
CONTINUOUS
 62
     7
100
AcDbText
 10
464.4565
 20
-288.5619
 30
0.0
 40
3.0
  1
EXIT RAMP
 50
347.999719
  7
MONOTXT
210
0.0
220
0.0
230
1.0
100
AcDbText
  0
TEXT
  5
2E3
100
AcDbEntity
  8
1
  6
CONTINUOUS
 62
     7
100
AcDbText
 10
461.2192
 20
-332.3863
 30
0.0
 40
3.0
  1
THRU LANE
  7
MONOTXT
 11
461.2192
 21
-329.3863
 31
0.0
210
0.0
220
0.0
230
1.0
100
AcDbText
 73
     3
  0
LINE
  5
2E4
100
AcDbEntity
  8
1
  6
CONTINUOUS
 62
     7
100
AcDbLine
 10
505.9551
 20
-292.9351
 30
0.0
 11
498.159
 21
-292.9351
 31
0.0
  0
LINE
  5
2E5
100
AcDbEntity
  8
1
  6
CONTINUOUS
 62
     7
100
AcDbLine
 10
498.159
 20
-292.9351
 30
0.0
 11
488.492
 21
-300.2905
 31
0.0
  0
INSERT
  5
2E6
100
AcDbEntity
  8
1
  6
CONTINUOUS
 62
     1
100
AcDbBlockReference
  2
LDR
 10
488.492
 20
-300.2905
 30
0.0
 41
240.0
 42
240.0
 50
217.266679
210
0.0
220
0.0
230
1.0
  0
LINE
  5
2E7
100
AcDbEntity
  8
1
  6
CONTINUOUS
 62
     7
100
AcDbLine
 10
505.8209
 20
-330.2823
 30
0.0
 11
498.0248
 21
-330.2823
 31
0.0
  0
LINE
  5
2E8
100
AcDbEntity
  8
1
  6
CONTINUOUS
 62
     7
100
AcDbLine
 10
498.0248
 20
-330.2823
 30
0.0
 11
488.3578
 21
-322.9269
 31
0.0
  0
INSERT
  5
2E9
100
AcDbEntity
  8
1
  6
CONTINUOUS
 62
     1
100
AcDbBlockReference
  2
LDR
 10
488.3578
 20
-322.9269
 30
0.0
 41
240.0
 42
-240.0
 50
142.733321
210
0.0
220
0.0
230
1.0
  0
LINE
  5
2EA
100
AcDbEntity
  8
1
  6
CONTINUOUS
 62
     7
100
AcDbLine
 10
410.973
 20
-320.4301
 30
0.0
 11
410.973
 21
-337.2301
 31
0.0
  0
LINE
  5
2EB
100
AcDbEntity
  8
1
  6
CONTINUOUS
 62
     7
100
AcDbLine
 10
356.8631
 20
-320.4301
 30
0.0
 11
356.8631
 21
-337.2301
 31
0.0
  0
LINE
  5
2EC
100
AcDbEntity
  8
1
  6
CONTINUOUS
 62
     7
100
AcDbLine
 10
356.8631
 20
-336.0301
 30
0.0
 11
410.973
 21
-336.0301
 31
0.0
  0
INSERT
  5
2ED
100
AcDbEntity
  8
1
  6
CONTINUOUS
 62
     1
100
AcDbBlockReference
  2
LDR
 10
356.8631
 20
-336.0301
 30
0.0
 41
240.0
 42
240.0
 50
180.0
210
0.0
220
0.0
230
1.0
  0
INSERT
  5
2EE
100
AcDbEntity
  8
1
  6
CONTINUOUS
 62
     1
100
AcDbBlockReference
  2
LDR
 10
356.8631
 20
-336.0301
 30
0.0
 41
240.0
 42
240.0
 50
180.0
210
0.0
220
0.0
230
1.0
  0
INSERT
  5
2EF
100
AcDbEntity
  8
1
  6
CONTINUOUS
 62
     1
100
AcDbBlockReference
  2
LDR
 10
410.973
 20
-336.0301
 30
0.0
 41
240.0
 42
240.0
210
0.0
220
0.0
230
1.0
  0
LINE
  5
2F0
100
AcDbEntity
  8
1
  6
CONTINUOUS
 62
     7
100
AcDbLine
 10
417.0011
 20
-349.48
 30
0.0
 11
455.5662
 21
-349.48
 31
0.0
  0
TEXT
  5
2F1
100
AcDbEntity
  8
1
  6
CONTINUOUS
 62
     7
100
AcDbText
 10
418.2963
 20
-347.9695
 30
0.0
 40
4.8
  1
DETAIL "A"
  7
TXT
210
0.0
220
0.0
230
1.0
100
AcDbText
  0
LINE
  5
2F2
100
AcDbEntity
  8
1
  6
CONTINUOUS
 62
     1
100
AcDbLine
 10
594.0637
 20
-41.0341
 30
0.0
 11
334.8637
 21
-41.0341
 31
0.0
  0
LINE
  5
2F3
100
AcDbEntity
  8
1
  6
CONTINUOUS
 62
     1
100
AcDbLine
 10
594.0637
 20
-36.8341
 30
0.0
 11
334.8637
 21
-36.8341
 31
0.0
  0
LINE
  5
2F4
100
AcDbEntity
  8
1
  6
CONTINUOUS
 62
     1
100
AcDbLine
 10
594.0637
 20
-29.6341
 30
0.0
 11
585.6637
 21
-29.6341
 31
0.0
  0
LINE
  5
2F5
100
AcDbEntity
  8
1
  6
CONTINUOUS
 62
     1
100
AcDbLine
 10
568.8637
 20
-29.6341
 30
0.0
 11
560.4637
 21
-29.6341
 31
0.0
  0
LINE
  5
2F6
100
AcDbEntity
  8
1
  6
CONTINUOUS
 62
     1
100
AcDbLine
 10
543.6637
 20
-29.6341
 30
0.0
 11
535.2637
 21
-29.6341
 31
0.0
  0
LINE
  5
2F7
100
AcDbEntity
  8
1
  6
CONTINUOUS
 62
     1
100
AcDbLine
 10
518.4637
 20
-29.6341
 30
0.0
 11
510.0637
 21
-29.6341
 31
0.0
  0
LINE
  5
2F8
100
AcDbEntity
  8
1
  6
CONTINUOUS
 62
     1
100
AcDbLine
 10
493.2637
 20
-29.6341
 30
0.0
 11
484.8637
 21
-29.6341
 31
0.0
  0
LINE
  5
2F9
100
AcDbEntity
  8
1
  6
CONTINUOUS
 62
     1
100
AcDbLine
 10
468.0637
 20
-29.6341
 30
0.0
 11
459.6637
 21
-29.6341
 31
0.0
  0
LINE
  5
2FA
100
AcDbEntity
  8
1
  6
CONTINUOUS
 62
     1
100
AcDbLine
 10
442.8637
 20
-29.6341
 30
0.0
 11
434.4637
 21
-29.6341
 31
0.0
  0
LINE
  5
2FB
100
AcDbEntity
  8
1
  6
CONTINUOUS
 62
     1
100
AcDbLine
 10
417.6637
 20
-29.6341
 30
0.0
 11
409.2637
 21
-29.6341
 31
0.0
  0
LINE
  5
2FC
100
AcDbEntity
  8
1
  6
CONTINUOUS
 62
     1
100
AcDbLine
 10
392.4637
 20
-29.6341
 30
0.0
 11
384.0637
 21
-29.6341
 31
0.0
  0
LINE
  5
2FD
100
AcDbEntity
  8
1
  6
CONTINUOUS
 62
     1
100
AcDbLine
 10
367.2637
 20
-29.6341
 30
0.0
 11
358.8637
 21
-29.6341
 31
0.0
  0
LINE
  5
2FE
100
AcDbEntity
  8
1
  6
CONTINUOUS
 62
     1
100
AcDbLine
 10
342.0637
 20
-29.6341
 30
0.0
 11
334.8637
 21
-29.6341
 31
0.0
  0
LINE
  5
2FF
100
AcDbEntity
  8
1
  6
CONTINUOUS
 62
     1
100
AcDbLine
 10
379.6834
 20
-22.4341
 30
0.0
 11
334.8637
 21
-22.4341
 31
0.0
  0
LINE
  5
300
100
AcDbEntity
  8
1
  6
CONTINUOUS
 62
     1
100
AcDbLine
 10
394.8637
 20
-22.4341
 30
0.0
 11
393.6637
 21
-22.4341
 31
0.0
  0
LINE
  5
301
100
AcDbEntity
  8
1
  6
CONTINUOUS
 62
     1
100
AcDbLine
 10
402.6637
 20
-22.4341
 30
0.0
 11
401.4637
 21
-22.4341
 31
0.0
  0
LINE
  5
302
100
AcDbEntity
  8
1
  6
CONTINUOUS
 62
     1
100
AcDbLine
 10
410.4637
 20
-22.4341
 30
0.0
 11
409.2637
 21
-22.4341
 31
0.0
  0
LINE
  5
303
100
AcDbEntity
  8
1
  6
CONTINUOUS
 62
     1
100
AcDbLine
 10
418.2637
 20
-22.4341
 30
0.0
 11
417.0637
 21
-22.4341
 31
0.0
  0
LINE
  5
304
100
AcDbEntity
  8
1
  6
CONTINUOUS
 62
     1
100
AcDbLine
 10
426.0637
 20
-22.4341
 30
0.0
 11
424.8637
 21
-22.4341
 31
0.0
  0
LINE
  5
305
100
AcDbEntity
  8
1
  6
CONTINUOUS
 62
     1
100
AcDbLine
 10
433.8637
 20
-22.4341
 30
0.0
 11
432.6637
 21
-22.4341
 31
0.0
  0
LINE
  5
306
100
AcDbEntity
  8
1
  6
CONTINUOUS
 62
     1
100
AcDbLine
 10
441.6637
 20
-22.4341
 30
0.0
 11
440.4637
 21
-22.4341
 31
0.0
  0
LINE
  5
307
100
AcDbEntity
  8
1
  6
CONTINUOUS
 62
     1
100
AcDbLine
 10
449.4637
 20
-22.4341
 30
0.0
 11
448.2637
 21
-22.4341
 31
0.0
  0
LINE
  5
308
100
AcDbEntity
  8
1
  6
CONTINUOUS
 62
     1
100
AcDbLine
 10
594.0637
 20
-22.4341
 30
0.0
 11
571.8637
 21
-22.4341
 31
0.0
  0
LINE
  5
309
100
AcDbEntity
  8
1
  6
CONTINUOUS
 62
     1
100
AcDbLine
 10
571.8637
 20
-22.4341
 30
0.0
 11
515.4637
 21
-22.4341
 31
0.0
  0
LINE
  5
30A
100
AcDbEntity
  8
1
  6
CONTINUOUS
 62
     1
100
AcDbLine
 10
514.3009
 20
-14.2049
 30
0.0
 11
571.8637
 21
-6.071
 31
0.0
  0
LINE
  5
30B
100
AcDbEntity
  8
1
  6
CONTINUOUS
 62
     1
100
AcDbLine
 10
571.8637
 20
-6.0711
 30
0.0
 11
594.0637
 21
-2.9341
 31
0.0
  0
LINE
  5
30C
100
AcDbEntity
  8
1
  6
CONTINUOUS
 62
     1
100
AcDbLine
 10
381.2375
 20
-22.333
 30
0.0
 11
594.0637
 21
5.4659
 31
0.0
  0
LINE
  5
30D
100
AcDbEntity
  8
1
  6
CONTINUOUS
 62
     1
100
AcDbLine
 10
380.8084
 20
-15.733
 30
0.0
 11
593.2089
 21
12.0103
 31
0.0
  0
LINE
  5
30E
100
AcDbEntity
  8
1
  6
CONTINUOUS
 62
     1
100
AcDbLine
 10
379.2541
 20
-15.8341
 30
0.0
 11
334.8637
 21
-15.8341
 31
0.0
  0
ARC
  5
30F
100
AcDbEntity
  8
1
  6
CONTINUOUS
 62
     1
100
AcDbCircle
 10
379.254125
 20
-3.8341
 30
0.0
 40
12.0
210
0.0
220
0.0
230
1.0
100
AcDbArc
 50
270.0
 51
277.442208
  0
ARC
  5
310
100
AcDbEntity
  8
1
  6
CONTINUOUS
 62
     1
100
AcDbCircle
 10
379.683375
 20
-10.4341
 30
0.0
 40
12.0
210
0.0
220
0.0
230
1.0
100
AcDbArc
 50
270.0
 51
277.441078
  0
LINE
  5
311
100
AcDbEntity
  8
1
  6
CONTINUOUS
 62
     1
100
AcDbLine
 10
559.0224
 20
-12.1275
 30
0.0
 11
594.6514
 21
-7.0928
 31
0.0
  0
LINE
  5
312
100
AcDbEntity
  8
1
  6
CONTINUOUS
 62
     1
100
AcDbLine
 10
594.0637
 20
-17.0341
 30
0.0
 11
559.0224
 21
-17.0341
 31
0.0
  0
INSERT
  5
313
100
AcDbEntity
  8
1
  6
CONTINUOUS
 62
     1
100
AcDbBlockReference
  2
ARO
 10
522.5327
 20
-8.0376
 30
0.0
 41
240.000002
 42
-240.000002
 50
187.19574
210
0.0
220
0.0
230
1.0
  0
INSERT
  5
314
100
AcDbEntity
  8
1
  6
CONTINUOUS
 62
     1
100
AcDbBlockReference
  2
ARO
 10
559.0656
 20
-33.3519
 30
0.0
 41
240.0
 42
-240.0
 50
180.0
210
0.0
220
0.0
230
1.0
  0
INSERT
  5
315
100
AcDbEntity
  8
1
  6
CONTINUOUS
 62
     1
100
AcDbBlockReference
  2
ARO
 10
559.2429
 20
-25.7215
 30
0.0
 41
240.0
 42
-240.0
 50
180.0
210
0.0
220
0.0
230
1.0
  0
INSERT
  5
316
100
AcDbEntity
  8
1
  6
CONTINUOUS
 62
     1
100
AcDbBlockReference
  2
ARO
 10
350.6497
 20
-25.8443
 30
0.0
 41
240.0
 42
-240.0
 50
180.0
210
0.0
220
0.0
230
1.0
  0
INSERT
  5
317
100
AcDbEntity
  8
1
  6
CONTINUOUS
 62
     1
100
AcDbBlockReference
  2
ARO
 10
350.4724
 20
-33.4747
 30
0.0
 41
240.0
 42
-240.0
 50
180.0
210
0.0
220
0.0
230
1.0
  0
TEXT
  5
318
100
AcDbEntity
  8
1
  6
CONTINUOUS
 62
     7
100
AcDbText
 10
453.1701
 20
-51.3329
 30
0.0
 40
3.0
  1
THEORETICAL GORE POINT
  7
MONOTXT
210
0.0
220
0.0
230
1.0
100
AcDbText
  0
LINE
  5
319
100
AcDbEntity
  8
1
  6
CONTINUOUS
 62
     7
100
AcDbLine
 10
586.6401
 20
-3.9831
 30
0.0
 11
577.3842
 21
26.6871
 31
0.0
  0
LINE
  5
31A
100
AcDbEntity
  8
1
  6
CONTINUOUS
 62
     7
100
AcDbLine
 10
522.4105
 20
-68.457
 30
0.0
 11
538.2861
 21
-10.8157
 31
0.0
  0
LINE
  5
31B
100
AcDbEntity
  8
1
  6
CONTINUOUS
 62
     7
100
AcDbLine
 10
447.6978
 20
-22.2138
 30
0.0
 11
440.6416
 21
-49.91
 31
0.0
  0
LINE
  5
31C
100
AcDbEntity
  8
1
  6
CONTINUOUS
 62
     7
100
AcDbLine
 10
506.5272
 20
-15.3382
 30
0.0
 11
518.5601
 21
37.3578
 31
0.0
  0
LINE
  5
31D
100
AcDbEntity
  8
1
  6
CONTINUOUS
 62
     7
100
AcDbLine
 10
388.2637
 20
-29.6341
 30
0.0
 11
371.9048
 21
-63.2197
 31
0.0
  0
LINE
  5
31E
100
AcDbEntity
  8
1
  6
CONTINUOUS
 62
     7
100
AcDbLine
 10
497.0016
 20
-7.2121
 30
0.0
 11
498.1603
 21
-16.0824
 31
0.0
  0
LINE
  5
31F
100
AcDbEntity
  8
1
  6
CONTINUOUS
 62
     7
100
AcDbLine
 10
418.2637
 20
-21.2341
 30
0.0
 11
418.2637
 21
-4.7796
 31
0.0
  0
LINE
  5
320
100
AcDbEntity
  8
1
  6
CONTINUOUS
 62
     7
100
AcDbLine
 10
417.0637
 20
-21.2341
 30
0.0
 11
417.0637
 21
-4.7796
 31
0.0
  0
LINE
  5
321
100
AcDbEntity
  8
1
  6
CONTINUOUS
 62
     7
100
AcDbLine
 10
410.4637
 20
-21.2341
 30
0.0
 11
410.4637
 21
-4.7796
 31
0.0
  0
LINE
  5
322
100
AcDbEntity
  8
1
  6
CONTINUOUS
 62
     7
100
AcDbLine
 10
434.4637
 20
-30.8341
 30
0.0
 11
434.4637
 21
-64.16
 31
0.0
  0
LINE
  5
323
100
AcDbEntity
  8
1
  6
CONTINUOUS
 62
     7
100
AcDbLine
 10
417.6637
 20
-30.8341
 30
0.0
 11
417.6637
 21
-64.16
 31
0.0
  0
LINE
  5
324
100
AcDbEntity
  8
1
  6
CONTINUOUS
 62
     7
100
AcDbLine
 10
409.2637
 20
-30.8341
 30
0.0
 11
409.2637
 21
-64.16
 31
0.0
  0
LINE
  5
325
100
AcDbEntity
  8
1
  6
CONTINUOUS
 62
     7
100
AcDbLine
 10
577.3842
 20
26.6871
 30
0.0
 11
575.0642
 21
26.6871
 31
0.0
  0
LINE
  5
326
100
AcDbEntity
  8
1
  6
CONTINUOUS
 62
     7
100
AcDbLine
 10
518.5601
 20
37.3578
 30
0.0
 11
510.0716
 21
37.3578
 31
0.0
  0
LINE
  5
327
100
AcDbEntity
  8
1
  6
CONTINUOUS
 62
     7
100
AcDbLine
 10
422.8432
 20
-5.9796
 30
0.0
 11
418.2637
 21
-5.9796
 31
0.0
  0
LINE
  5
328
100
AcDbEntity
  8
1
  6
CONTINUOUS
 62
     7
100
AcDbLine
 10
417.0637
 20
-5.9796
 30
0.0
 11
410.4637
 21
-5.9796
 31
0.0
  0
LINE
  5
329
100
AcDbEntity
  8
1
  6
CONTINUOUS
 62
     7
100
AcDbLine
 10
410.4637
 20
-5.9796
 30
0.0
 11
404.4637
 21
-5.9796
 31
0.0
  0
INSERT
  5
32A
100
AcDbEntity
  8
1
  6
CONTINUOUS
 62
     1
100
AcDbBlockReference
  2
LDR
 10
418.2637
 20
-5.9796
 30
0.0
 41
240.0
 42
-240.0
 50
180.0
210
0.0
220
0.0
230
1.0
  0
INSERT
  5
32B
100
AcDbEntity
  8
1
  6
CONTINUOUS
 62
     1
100
AcDbBlockReference
  2
LDR
 10
418.2637
 20
-5.9796
 30
0.0
 41
240.0
 42
-240.0
 50
180.0
210
0.0
220
0.0
230
1.0
  0
INSERT
  5
32C
100
AcDbEntity
  8
1
  6
CONTINUOUS
 62
     1
100
AcDbBlockReference
  2
LDR
 10
417.0556
 20
-5.9869
 30
0.0
 41
180.0
 42
-180.0
210
0.0
220
0.0
230
1.0
  0
INSERT
  5
32D
100
AcDbEntity
  8
1
  6
CONTINUOUS
 62
     1
100
AcDbBlockReference
  2
LDR
 10
410.4718
 20
-5.9724
 30
0.0
 41
180.0
 42
-180.0
 50
180.0
210
0.0
220
0.0
230
1.0
  0
INSERT
  5
32E
100
AcDbEntity
  8
1
  6
CONTINUOUS
 62
     1
100
AcDbBlockReference
  2
LDR
 10
447.6978
 20
-22.2138
 30
0.0
 41
240.000001
 42
-240.000001
 50
75.706676
210
0.0
220
0.0
230
1.0
  0
INSERT
  5
32F
100
AcDbEntity
  8
1
  6
CONTINUOUS
 62
     1
100
AcDbBlockReference
  2
LDR
 10
447.6978
 20
-22.2138
 30
0.0
 41
240.000001
 42
-240.000001
 50
75.706676
210
0.0
220
0.0
230
1.0
  0
INSERT
  5
330
100
AcDbEntity
  8
1
  6
CONTINUOUS
 62
     1
100
AcDbBlockReference
  2
LDR
 10
506.5272
 20
-15.3382
 30
0.0
 41
239.999999
 42
-239.999999
 50
257.137301
210
0.0
220
0.0
230
1.0
  0
LINE
  5
331
100
AcDbEntity
  8
1
  6
CONTINUOUS
 62
     7
100
AcDbLine
 10
434.4637
 20
-62.96
 30
0.0
 11
417.6637
 21
-62.96
 31
0.0
  0
LINE
  5
332
100
AcDbEntity
  8
1
  6
CONTINUOUS
 62
     7
100
AcDbLine
 10
417.6637
 20
-62.96
 30
0.0
 11
403.2637
 21
-62.96
 31
0.0
  0
INSERT
  5
333
100
AcDbEntity
  8
1
  6
CONTINUOUS
 62
     1
100
AcDbBlockReference
  2
LDR
 10
417.6637
 20
-62.96
 30
0.0
 41
240.0
 42
-240.0
 50
180.0
210
0.0
220
0.0
230
1.0
  0
INSERT
  5
334
100
AcDbEntity
  8
1
  6
CONTINUOUS
 62
     1
100
AcDbBlockReference
  2
LDR
 10
417.6637
 20
-62.96
 30
0.0
 41
240.0
 42
-240.0
 50
180.0
210
0.0
220
0.0
230
1.0
  0
INSERT
  5
335
100
AcDbEntity
  8
1
  6
CONTINUOUS
 62
     1
100
AcDbBlockReference
  2
LDR
 10
417.6637
 20
-62.96
 30
0.0
 41
240.0
 42
-240.0
210
0.0
220
0.0
230
1.0
  0
INSERT
  5
336
100
AcDbEntity
  8
1
  6
CONTINUOUS
 62
     1
100
AcDbBlockReference
  2
LDR
 10
417.6637
 20
-62.96
 30
0.0
 41
240.0
 42
-240.0
210
0.0
220
0.0
230
1.0
  0
INSERT
  5
337
100
AcDbEntity
  8
1
  6
CONTINUOUS
 62
     1
100
AcDbBlockReference
  2
LDR
 10
409.2637
 20
-62.96
 30
0.0
 41
240.0
 42
-240.0
 50
180.0
210
0.0
220
0.0
230
1.0
  0
INSERT
  5
338
100
AcDbEntity
  8
1
  6
CONTINUOUS
 62
     1
100
AcDbBlockReference
  2
LDR
 10
409.2637
 20
-62.96
 30
0.0
 41
240.0
 42
-240.0
 50
180.0
210
0.0
220
0.0
230
1.0
  0
INSERT
  5
339
100
AcDbEntity
  8
1
  6
CONTINUOUS
 62
     1
100
AcDbBlockReference
  2
LDR
 10
434.4637
 20
-62.96
 30
0.0
 41
240.0
 42
-240.0
210
0.0
220
0.0
230
1.0
  0
INSERT
  5
33A
100
AcDbEntity
  8
1
  6
CONTINUOUS
 62
     1
100
AcDbBlockReference
  2
LDR
 10
586.6401
 20
-3.9831
 30
0.0
 41
239.999998
 42
-239.999998
 50
286.793187
210
0.0
220
0.0
230
1.0
  0
INSERT
  5
33B
100
AcDbEntity
  8
1
  6
CONTINUOUS
 62
     1
100
AcDbBlockReference
  2
LDR
 10
586.6401
 20
-3.9831
 30
0.0
 41
239.999998
 42
-239.999998
 50
286.793187
210
0.0
220
0.0
230
1.0
  0
INSERT
  5
33C
100
AcDbEntity
  8
1
  6
CONTINUOUS
 62
     1
100
AcDbBlockReference
  2
LDR
 10
538.2861
 20
-10.8157
 30
0.0
 41
239.999999
 42
-239.999999
 50
74.601348
210
0.0
220
0.0
230
1.0
  0
INSERT
  5
33D
100
AcDbEntity
  8
1
  6
CONTINUOUS
 62
     1
100
AcDbBlockReference
  2
LDR
 10
538.2861
 20
-10.8157
 30
0.0
 41
239.999999
 42
-239.999999
 50
74.601348
210
0.0
220
0.0
230
1.0
  0
INSERT
  5
33E
100
AcDbEntity
  8
1
  6
CONTINUOUS
 62
     1
100
AcDbBlockReference
  2
LDR
 10
388.2637
 20
-29.6341
 30
0.0
 41
239.999999
 42
-239.999999
 50
64.030177
210
0.0
220
0.0
230
1.0
  0
LINE
  5
33F
100
AcDbEntity
  8
1
  6
CONTINUOUS
 62
     7
100
AcDbLine
 10
522.4105
 20
-68.457
 30
0.0
 11
516.4105
 21
-68.457
 31
0.0
  0
LINE
  5
340
100
AcDbEntity
  8
1
  6
CONTINUOUS
 62
     7
100
AcDbLine
 10
451.5899
 20
-49.91
 30
0.0
 11
440.6416
 21
-49.91
 31
0.0
  0
LINE
  5
341
100
AcDbEntity
  8
1
  6
CONTINUOUS
 62
     7
100
AcDbLine
 10
371.9048
 20
-63.2197
 30
0.0
 11
365.9048
 21
-63.2197
 31
0.0
  0
LINE
  5
342
100
AcDbEntity
  8
1
  6
CONTINUOUS
 62
     7
100
AcDbLine
 10
586.2361
 20
-22.4341
 30
0.0
 11
575.8324
 21
-66.2537
 31
0.0
  0
INSERT
  5
343
100
AcDbEntity
  8
1
  6
CONTINUOUS
 62
     1
100
AcDbBlockReference
  2
LDR
 10
586.2361
 20
-22.4341
 30
0.0
 41
240.000001
 42
-240.000001
 50
76.644059
210
0.0
220
0.0
230
1.0
  0
LINE
  5
344
100
AcDbEntity
  8
1
  6
CONTINUOUS
 62
     7
100
AcDbLine
 10
377.1322
 20
-88.7665
 30
0.0
 11
542.3347
 21
-88.7665
 31
0.0
  0
LINE
  5
345
100
AcDbEntity
  8
1
  6
CONTINUOUS
 62
     1
100
AcDbLine
 10
594.0637
 20
-201.5342
 30
0.0
 11
334.8637
 21
-201.5342
 31
0.0
  0
LINE
  5
346
100
AcDbEntity
  8
1
  6
CONTINUOUS
 62
     1
100
AcDbLine
 10
594.0637
 20
-197.3342
 30
0.0
 11
334.8637
 21
-197.3342
 31
0.0
  0
LINE
  5
347
100
AcDbEntity
  8
1
  6
CONTINUOUS
 62
     1
100
AcDbLine
 10
594.0637
 20
-190.1342
 30
0.0
 11
585.6637
 21
-190.1342
 31
0.0
  0
LINE
  5
348
100
AcDbEntity
  8
1
  6
CONTINUOUS
 62
     1
100
AcDbLine
 10
568.8637
 20
-190.1342
 30
0.0
 11
560.4637
 21
-190.1342
 31
0.0
  0
LINE
  5
349
100
AcDbEntity
  8
1
  6
CONTINUOUS
 62
     1
100
AcDbLine
 10
543.6637
 20
-190.1342
 30
0.0
 11
535.2637
 21
-190.1342
 31
0.0
  0
LINE
  5
34A
100
AcDbEntity
  8
1
  6
CONTINUOUS
 62
     1
100
AcDbLine
 10
518.4637
 20
-190.1342
 30
0.0
 11
510.0637
 21
-190.1342
 31
0.0
  0
LINE
  5
34B
100
AcDbEntity
  8
1
  6
CONTINUOUS
 62
     1
100
AcDbLine
 10
493.2637
 20
-190.1342
 30
0.0
 11
484.8637
 21
-190.1342
 31
0.0
  0
LINE
  5
34C
100
AcDbEntity
  8
1
  6
CONTINUOUS
 62
     1
100
AcDbLine
 10
468.0637
 20
-190.1342
 30
0.0
 11
459.6637
 21
-190.1342
 31
0.0
  0
LINE
  5
34D
100
AcDbEntity
  8
1
  6
CONTINUOUS
 62
     1
100
AcDbLine
 10
442.8637
 20
-190.1342
 30
0.0
 11
434.4637
 21
-190.1342
 31
0.0
  0
LINE
  5
34E
100
AcDbEntity
  8
1
  6
CONTINUOUS
 62
     1
100
AcDbLine
 10
417.6637
 20
-190.1342
 30
0.0
 11
409.2637
 21
-190.1342
 31
0.0
  0
LINE
  5
34F
100
AcDbEntity
  8
1
  6
CONTINUOUS
 62
     1
100
AcDbLine
 10
392.4637
 20
-190.1342
 30
0.0
 11
384.0637
 21
-190.1342
 31
0.0
  0
LINE
  5
350
100
AcDbEntity
  8
1
  6
CONTINUOUS
 62
     1
100
AcDbLine
 10
367.2637
 20
-190.1342
 30
0.0
 11
358.8637
 21
-190.1342
 31
0.0
  0
LINE
  5
351
100
AcDbEntity
  8
1
  6
CONTINUOUS
 62
     1
100
AcDbLine
 10
342.0637
 20
-190.1342
 30
0.0
 11
334.8637
 21
-190.1342
 31
0.0
  0
LINE
  5
352
100
AcDbEntity
  8
1
  6
CONTINUOUS
 62
     1
100
AcDbLine
 10
346.8637
 20
-182.9342
 30
0.0
 11
334.8637
 21
-182.9342
 31
0.0
  0
LINE
  5
353
100
AcDbEntity
  8
1
  6
CONTINUOUS
 62
     1
100
AcDbLine
 10
394.8637
 20
-182.9342
 30
0.0
 11
393.6637
 21
-182.9342
 31
0.0
  0
LINE
  5
354
100
AcDbEntity
  8
1
  6
CONTINUOUS
 62
     1
100
AcDbLine
 10
402.6637
 20
-182.9342
 30
0.0
 11
401.4637
 21
-182.9342
 31
0.0
  0
LINE
  5
355
100
AcDbEntity
  8
1
  6
CONTINUOUS
 62
     1
100
AcDbLine
 10
410.4637
 20
-182.9342
 30
0.0
 11
409.2637
 21
-182.9342
 31
0.0
  0
LINE
  5
356
100
AcDbEntity
  8
1
  6
CONTINUOUS
 62
     1
100
AcDbLine
 10
418.2637
 20
-182.9342
 30
0.0
 11
417.0637
 21
-182.9342
 31
0.0
  0
LINE
  5
357
100
AcDbEntity
  8
1
  6
CONTINUOUS
 62
     1
100
AcDbLine
 10
426.0637
 20
-182.9342
 30
0.0
 11
424.8637
 21
-182.9342
 31
0.0
  0
LINE
  5
358
100
AcDbEntity
  8
1
  6
CONTINUOUS
 62
     1
100
AcDbLine
 10
594.0637
 20
-182.9342
 30
0.0
 11
571.8637
 21
-182.9342
 31
0.0
  0
LINE
  5
359
100
AcDbEntity
  8
1
  6
CONTINUOUS
 62
     1
100
AcDbLine
 10
571.8637
 20
-182.9342
 30
0.0
 11
491.4637
 21
-182.9342
 31
0.0
  0
LINE
  5
35A
100
AcDbEntity
  8
1
  6
CONTINUOUS
 62
     1
100
AcDbLine
 10
346.8637
 20
-176.3342
 30
0.0
 11
334.8637
 21
-176.3342
 31
0.0
  0
LINE
  5
35B
100
AcDbEntity
  8
1
  6
CONTINUOUS
 62
     1
100
AcDbLine
 10
594.0637
 20
-177.5342
 30
0.0
 11
564.8726
 21
-177.5342
 31
0.0
  0
INSERT
  5
35C
100
AcDbEntity
  8
1
  6
CONTINUOUS
 62
     1
100
AcDbBlockReference
  2
ARO
 10
529.4075
 20
-175.9668
 30
0.0
 41
240.000005
 42
240.000005
 50
197.6052
210
0.0
220
0.0
230
1.0
  0
INSERT
  5
35D
100
AcDbEntity
  8
1
  6
CONTINUOUS
 62
     1
100
AcDbBlockReference
  2
ARO
 10
523.075
 20
-186.9923
 30
0.0
 41
240.0
 42
240.0
 50
180.0
210
0.0
220
0.0
230
1.0
  0
INSERT
  5
35E
100
AcDbEntity
  8
1
  6
CONTINUOUS
 62
     1
100
AcDbBlockReference
  2
ARO
 10
523.2358
 20
-193.5288
 30
0.0
 41
240.0
 42
240.0
 50
180.0
210
0.0
220
0.0
230
1.0
  0
INSERT
  5
35F
100
AcDbEntity
  8
1
  6
CONTINUOUS
 62
     1
100
AcDbBlockReference
  2
ARO
 10
340.527
 20
-194.0413
 30
0.0
 41
240.0
 42
240.0
 50
180.0
210
0.0
220
0.0
230
1.0
  0
INSERT
  5
360
100
AcDbEntity
  8
1
  6
CONTINUOUS
 62
     1
100
AcDbBlockReference
  2
ARO
 10
340.6197
 20
-186.3672
 30
0.0
 41
240.0
 42
240.0
 50
180.0
210
0.0
220
0.0
230
1.0
  0
LINE
  5
361
100
AcDbEntity
  8
1
  6
CONTINUOUS
 62
     7
100
AcDbLine
 10
388.2637
 20
-190.1342
 30
0.0
 11
371.9048
 21
-223.7198
 31
0.0
  0
LINE
  5
362
100
AcDbEntity
  8
1
  6
CONTINUOUS
 62
     7
100
AcDbLine
 10
368.58
 20
-125.9489
 30
0.0
 11
362.58
 21
-125.9489
 31
0.0
  0
LINE
  5
363
100
AcDbEntity
  8
1
  6
CONTINUOUS
 62
     7
100
AcDbLine
 10
549.3914
 20
-143.5094
 30
0.0
 11
539.0068
 21
-143.5094
 31
0.0
  0
LINE
  5
364
100
AcDbEntity
  8
1
  6
CONTINUOUS
 62
     7
100
AcDbLine
 10
368.0528
 20
-141.2167
 30
0.0
 11
365.4821
 21
-141.2167
 31
0.0
  0
INSERT
  5
365
100
AcDbEntity
  8
1
  6
CONTINUOUS
 62
     1
100
AcDbBlockReference
  2
LDR
 10
385.8556
 20
-162.887
 30
0.0
 41
180.0
 42
-180.0
210
0.0
220
0.0
230
1.0
  0
INSERT
  5
366
100
AcDbEntity
  8
1
  6
CONTINUOUS
 62
     1
100
AcDbBlockReference
  2
LDR
 10
379.2718
 20
-162.8725
 30
0.0
 41
180.0
 42
-180.0
 50
180.0
210
0.0
220
0.0
230
1.0
  0
INSERT
  5
367
100
AcDbEntity
  8
1
  6
CONTINUOUS
 62
     1
100
AcDbBlockReference
  2
LDR
 10
388.2637
 20
-190.1342
 30
0.0
 41
239.999999
 42
-239.999999
 50
64.030177
210
0.0
220
0.0
230
1.0
  0
LINE
  5
368
100
AcDbEntity
  8
1
  6
CONTINUOUS
 62
     7
100
AcDbLine
 10
371.9048
 20
-223.7198
 30
0.0
 11
365.9048
 21
-223.7198
 31
0.0
  0
LINE
  5
369
100
AcDbEntity
  8
1
  6
CONTINUOUS
 62
     7
100
AcDbLine
 10
555.501
 20
-248.8481
 30
0.0
 11
386.5285
 21
-248.8481
 31
0.0
  0
LINE
  5
36A
100
AcDbEntity
  8
1
  6
CONTINUOUS
 62
     1
100
AcDbLine
 10
483.0637
 20
-182.9342
 30
0.0
 11
474.6637
 21
-182.9342
 31
0.0
  0
LINE
  5
36B
100
AcDbEntity
  8
1
  6
CONTINUOUS
 62
     1
100
AcDbLine
 10
457.8637
 20
-182.9342
 30
0.0
 11
449.4637
 21
-182.9342
 31
0.0
  0
LINE
  5
36C
100
AcDbEntity
  8
1
  6
CONTINUOUS
 62
     1
100
AcDbLine
 10
432.6637
 20
-182.9342
 30
0.0
 11
424.2637
 21
-182.9342
 31
0.0
  0
LINE
  5
36D
100
AcDbEntity
  8
1
  6
CONTINUOUS
 62
     1
100
AcDbLine
 10
387.0637
 20
-182.9342
 30
0.0
 11
385.8637
 21
-182.9342
 31
0.0
  0
LINE
  5
36E
100
AcDbEntity
  8
1
  6
CONTINUOUS
 62
     1
100
AcDbLine
 10
363.6637
 20
-182.9342
 30
0.0
 11
362.4637
 21
-182.9342
 31
0.0
  0
LINE
  5
36F
100
AcDbEntity
  8
1
  6
CONTINUOUS
 62
     1
100
AcDbLine
 10
371.4637
 20
-182.9342
 30
0.0
 11
370.2637
 21
-182.9342
 31
0.0
  0
LINE
  5
370
100
AcDbEntity
  8
1
  6
CONTINUOUS
 62
     1
100
AcDbLine
 10
379.2637
 20
-182.9342
 30
0.0
 11
378.0637
 21
-182.9342
 31
0.0
  0
LINE
  5
371
100
AcDbEntity
  8
1
  6
CONTINUOUS
 62
     1
100
AcDbLine
 10
355.8637
 20
-182.9342
 30
0.0
 11
354.6637
 21
-182.9342
 31
0.0
  0
LINE
  5
372
100
AcDbEntity
  8
1
  6
CONTINUOUS
 62
     1
100
AcDbLine
 10
505.2637
 20
-175.7342
 30
0.0
 11
387.6637
 21
-175.7342
 31
0.0
  0
LINE
  5
373
100
AcDbEntity
  8
1
  6
CONTINUOUS
 62
     1
100
AcDbLine
 10
502.8753
 20
-169.1342
 30
0.0
 11
387.6637
 21
-169.1342
 31
0.0
  0
LINE
  5
374
100
AcDbEntity
  8
1
  6
CONTINUOUS
 62
     1
100
AcDbLine
 10
387.6637
 20
-169.1342
 30
0.0
 11
346.8637
 21
-176.3342
 31
0.0
  0
LINE
  5
375
100
AcDbEntity
  8
1
  6
CONTINUOUS
 62
     1
100
AcDbLine
 10
387.6637
 20
-175.7342
 30
0.0
 11
346.8637
 21
-182.9342
 31
0.0
  0
ARC
  5
376
100
AcDbEntity
  8
1
  6
CONTINUOUS
 62
     1
100
AcDbCircle
 10
500.361595
 20
-53.194433
 30
0.0
 40
130.044525
210
0.0
220
0.0
230
1.0
100
AcDbArc
 50
273.878997
 51
301.786725
  0
ARC
  5
377
100
AcDbEntity
  8
1
  6
CONTINUOUS
 62
     1
100
AcDbCircle
 10
501.905409
 20
-52.244964
 30
0.0
 40
130.044525
210
0.0
220
0.0
230
1.0
100
AcDbArc
 50
300.988217
 51
311.251536
  0
ARC
  5
378
100
AcDbEntity
  8
1
  6
CONTINUOUS
 62
     1
100
AcDbCircle
 10
501.905409
 20
-52.244964
 30
0.0
 40
134.844525
210
0.0
220
0.0
230
1.0
100
AcDbArc
 50
297.837236
 51
311.251536
  0
ARC
  5
379
100
AcDbEntity
  8
1
  6
CONTINUOUS
 62
     1
100
AcDbCircle
 10
496.466195
 20
-45.987633
 30
0.0
 40
130.044525
210
0.0
220
0.0
230
1.0
100
AcDbArc
 50
273.878997
 51
310.048144
  0
ARC
  5
37A
100
AcDbEntity
  8
1
  6
CONTINUOUS
 62
     1
100
AcDbCircle
 10
494.077795
 20
-39.242233
 30
0.0
 40
130.044525
210
0.0
220
0.0
230
1.0
100
AcDbArc
 50
273.878997
 51
309.090794
  0
LINE
  5
37B
100
AcDbEntity
  8
1
  6
CONTINUOUS
 62
     7
100
AcDbLine
 10
491.4637
 20
-181.7342
 30
0.0
 11
491.4637
 21
-144.5265
 31
0.0
  0
LINE
  5
37C
100
AcDbEntity
  8
1
  6
CONTINUOUS
 62
     7
100
AcDbLine
 10
424.8637
 20
-181.7342
 30
0.0
 11
424.8637
 21
-144.5265
 31
0.0
  0
LINE
  5
37D
100
AcDbEntity
  8
1
  6
CONTINUOUS
 62
     7
100
AcDbLine
 10
491.4637
 20
-145.7265
 30
0.0
 11
424.8637
 21
-145.7265
 31
0.0
  0
INSERT
  5
37E
100
AcDbEntity
  8
1
  6
CONTINUOUS
 62
     1
100
AcDbBlockReference
  2
LDR
 10
491.4637
 20
-145.7265
 30
0.0
 41
240.0
 42
-240.0
210
0.0
220
0.0
230
1.0
  0
INSERT
  5
37F
100
AcDbEntity
  8
1
  6
CONTINUOUS
 62
     1
100
AcDbBlockReference
  2
LDR
 10
491.4637
 20
-145.7265
 30
0.0
 41
240.0
 42
-240.0
210
0.0
220
0.0
230
1.0
  0
INSERT
  5
380
100
AcDbEntity
  8
1
  6
CONTINUOUS
 62
     1
100
AcDbBlockReference
  2
LDR
 10
424.8637
 20
-145.7265
 30
0.0
 41
240.0
 42
-240.0
 50
180.0
210
0.0
220
0.0
230
1.0
  0
LINE
  5
381
100
AcDbEntity
  8
1
  6
CONTINUOUS
 62
     7
100
AcDbLine
 10
508.0533
 20
-175.5149
 30
0.0
 11
508.0533
 21
-182.9342
 31
0.0
  0
INSERT
  5
382
100
AcDbEntity
  8
1
  6
CONTINUOUS
 62
     1
100
AcDbBlockReference
  2
LDR
 10
508.062
 20
-175.5246
 30
0.0
 41
216.0
 42
-216.0
 50
90.0
210
0.0
220
0.0
230
1.0
  0
INSERT
  5
383
100
AcDbEntity
  8
1
  6
CONTINUOUS
 62
     1
100
AcDbBlockReference
  2
LDR
 10
508.0446
 20
-182.9245
 30
0.0
 41
216.0
 42
-216.0
 50
270.0
210
0.0
220
0.0
230
1.0
  0
LINE
  5
384
100
AcDbEntity
  8
1
  6
CONTINUOUS
 62
     7
100
AcDbLine
 10
508.0533
 20
-179.5041
 30
0.0
 11
549.3914
 21
-143.5094
 31
0.0
  0
INSERT
  5
385
100
AcDbEntity
  8
1
  6
CONTINUOUS
 62
     1
100
AcDbBlockReference
  2
LDR
 10
508.0533
 20
-179.5041
 30
0.0
 41
239.999998
 42
-239.999998
 50
221.047278
210
0.0
220
0.0
230
1.0
  0
TEXT
  5
386
100
AcDbEntity
  8
1
  6
CONTINUOUS
 62
     7
100
AcDbText
 10
512.0977
 20
-144.875
 30
0.0
 40
3.0
  1
FULL RAMP
  7
MONOTXT
210
0.0
220
0.0
230
1.0
100
AcDbText
  0
TEXT
  5
387
100
AcDbEntity
  8
1
  6
CONTINUOUS
 62
     7
100
AcDbText
 10
512.0977
 20
-150.275
 30
0.0
 40
3.0
  1
LANE WIDTH
  7
MONOTXT
210
0.0
220
0.0
230
1.0
100
AcDbText
  0
LINE
  5
388
100
AcDbEntity
  8
1
  6
CONTINUOUS
 62
     7
100
AcDbLine
 10
338.0191
 20
-182.9342
 30
0.0
 11
362.58
 21
-125.9489
 31
0.0
  0
TEXT
  5
389
100
AcDbEntity
  8
1
  6
CONTINUOUS
 62
     7
100
AcDbText
 10
425.6049
 20
-126.5639
 30
0.0
 40
3.0
  1
DASHED LINE (OR BROKEN
  7
MONOTXT
 11
425.6049
 21
-123.5639
 31
0.0
210
0.0
220
0.0
230
1.0
100
AcDbText
 73
     3
  0
TEXT
  5
38A
100
AcDbEntity
  8
1
  6
CONTINUOUS
 62
     7
100
AcDbText
 10
425.6049
 20
-131.9639
 30
0.0
 40
3.0
  1
WHITE EDGE LINE) FOR
  7
MONOTXT
 11
425.6049
 21
-128.9639
 31
0.0
210
0.0
220
0.0
230
1.0
100
AcDbText
 73
     3
  0
TEXT
  5
38B
100
AcDbEntity
  8
1
  6
CONTINUOUS
 62
     7
100
AcDbText
 10
425.6049
 20
-137.3639
 30
0.0
 40
3.0
  1
ONE-HALF LENGTH OF FULL
  7
MONOTXT
 11
425.6049
 21
-134.3639
 31
0.0
210
0.0
220
0.0
230
1.0
100
AcDbText
 73
     3
  0
TEXT
  5
38C
100
AcDbEntity
  8
1
  6
CONTINUOUS
 62
     7
100
AcDbText
 10
425.6049
 20
-142.7639
 30
0.0
 40
3.0
  1
WIDTH ACCELERATION LANE
  7
MONOTXT
 11
425.6049
 21
-139.7639
 31
0.0
210
0.0
220
0.0
230
1.0
100
AcDbText
 73
     3
  0
TEXT
  5
38D
100
AcDbEntity
  8
1
  6
CONTINUOUS
 62
     7
100
AcDbText
 10
486.6422
 20
-207.7712
 30
0.0
 40
3.0
  1
THEORETICAL
  7
MONOTXT
210
0.0
220
0.0
230
1.0
100
AcDbText
  0
TEXT
  5
38E
100
AcDbEntity
  8
1
  6
CONTINUOUS
 62
     7
100
AcDbText
 10
486.6422
 20
-213.1712
 30
0.0
 40
3.0
  1
GORE POINT
  7
MONOTXT
210
0.0
220
0.0
230
1.0
100
AcDbText
  0
LINE
  5
38F
100
AcDbEntity
  8
1
  6
CONTINUOUS
 62
     7
100
AcDbLine
 10
491.4637
 20
-182.9342
 30
0.0
 11
480.5228
 21
-206.2423
 31
0.0
  0
LINE
  5
390
100
AcDbEntity
  8
1
  6
CONTINUOUS
 62
     7
100
AcDbLine
 10
480.5228
 20
-206.2423
 30
0.0
 11
486.0493
 21
-206.2423
 31
0.0
  0
LINE
  5
391
100
AcDbEntity
  8
1
  6
CONTINUOUS
 62
     7
100
AcDbLine
 10
478.8637
 20
-182.9342
 30
0.0
 11
461.4079
 21
-211.6249
 31
0.0
  0
LINE
  5
392
100
AcDbEntity
  8
1
  6
CONTINUOUS
 62
     7
100
AcDbLine
 10
371.7627
 20
-197.3342
 30
0.0
 11
361.9458
 21
-208.9397
 31
0.0
  0
LINE
  5
393
100
AcDbEntity
  8
1
  6
CONTINUOUS
 62
     7
100
AcDbLine
 10
363.0637
 20
-182.9342
 30
0.0
 11
365.4821
 21
-141.2167
 31
0.0
  0
INSERT
  5
394
100
AcDbEntity
  8
1
  6
CONTINUOUS
 62
     1
100
AcDbBlockReference
  2
LDR
 10
363.0637
 20
-182.9342
 30
0.0
 41
239.999999
 42
-239.999999
 50
266.682227
210
0.0
220
0.0
230
1.0
  0
INSERT
  5
395
100
AcDbEntity
  8
1
  6
CONTINUOUS
 62
     1
100
AcDbBlockReference
  2
LDR
 10
371.7627
 20
-197.3342
 30
0.0
 41
240.000001
 42
-240.000001
 50
49.772673
210
0.0
220
0.0
230
1.0
  0
LINE
  5
396
100
AcDbEntity
  8
1
  6
CONTINUOUS
 62
     7
100
AcDbLine
 10
508.961
 20
34.9106
 30
0.0
 11
490.4712
 21
34.9106
 31
0.0
  0
LINE
  5
397
100
AcDbEntity
  8
1
  6
CONTINUOUS
 62
     1
100
AcDbLine
 10
457.2637
 20
-22.4341
 30
0.0
 11
456.0637
 21
-22.4341
 31
0.0
  0
LINE
  5
398
100
AcDbEntity
  8
1
  6
CONTINUOUS
 62
     1
100
AcDbLine
 10
465.0637
 20
-22.4341
 30
0.0
 11
463.8637
 21
-22.4341
 31
0.0
  0
LINE
  5
399
100
AcDbEntity
  8
1
  6
CONTINUOUS
 62
     1
100
AcDbLine
 10
472.8637
 20
-22.4341
 30
0.0
 11
471.6637
 21
-22.4341
 31
0.0
  0
LINE
  5
39A
100
AcDbEntity
  8
1
  6
CONTINUOUS
 62
     1
100
AcDbLine
 10
480.6637
 20
-22.4341
 30
0.0
 11
479.4637
 21
-22.4341
 31
0.0
  0
LINE
  5
39B
100
AcDbEntity
  8
1
  6
CONTINUOUS
 62
     1
100
AcDbLine
 10
488.4637
 20
-22.4341
 30
0.0
 11
487.2637
 21
-22.4341
 31
0.0
  0
LINE
  5
39C
100
AcDbEntity
  8
1
  6
CONTINUOUS
 62
     1
100
AcDbLine
 10
496.2637
 20
-22.4341
 30
0.0
 11
495.0637
 21
-22.4341
 31
0.0
  0
LINE
  5
39D
100
AcDbEntity
  8
1
  6
CONTINUOUS
 62
     1
100
AcDbLine
 10
504.0637
 20
-22.4341
 30
0.0
 11
502.8637
 21
-22.4341
 31
0.0
  0
LINE
  5
39E
100
AcDbEntity
  8
1
  6
CONTINUOUS
 62
     1
100
AcDbLine
 10
511.8637
 20
-22.4341
 30
0.0
 11
510.6637
 21
-22.4341
 31
0.0
  0
LINE
  5
39F
100
AcDbEntity
  8
1
  6
CONTINUOUS
 62
     1
100
AcDbLine
 10
559.0224
 20
-12.1275
 30
0.0
 11
559.0224
 21
-17.0341
 31
0.0
  0
LINE
  5
3A0
100
AcDbEntity
  8
1
  6
CONTINUOUS
 62
     1
100
AcDbLine
 10
506.5272
 20
-15.3382
 30
0.0
 11
498.1603
 21
-16.0824
 31
0.0
  0
LINE
  5
3A1
100
AcDbEntity
  8
1
  6
CONTINUOUS
 62
     1
100
AcDbLine
 10
481.4263
 20
-17.571
 30
0.0
 11
473.0592
 21
-18.3151
 31
0.0
  0
LINE
  5
3A2
100
AcDbEntity
  8
1
  6
CONTINUOUS
 62
     1
100
AcDbLine
 10
456.3256
 20
-19.8041
 30
0.0
 11
447.9586
 21
-20.5484
 31
0.0
  0
INSERT
  5
3A3
100
AcDbEntity
  8
1
  6
CONTINUOUS
 62
     1
100
AcDbBlockReference
  2
LDR
 10
497.0016
 20
-7.2121
 30
0.0
 41
240.000001
 42
240.000001
 50
97.442233
210
0.0
220
0.0
230
1.0
  0
INSERT
  5
3A4
100
AcDbEntity
  8
1
  6
CONTINUOUS
 62
     1
100
AcDbBlockReference
  2
LDR
 10
497.0016
 20
-7.2121
 30
0.0
 41
240.000001
 42
240.000001
 50
97.442233
210
0.0
220
0.0
230
1.0
  0
INSERT
  5
3A5
100
AcDbEntity
  8
1
  6
CONTINUOUS
 62
     1
100
AcDbBlockReference
  2
LDR
 10
498.1603
 20
-16.0824
 30
0.0
 41
240.000001
 42
240.000001
 50
277.442233
210
0.0
220
0.0
230
1.0
  0
LINE
  5
3A6
100
AcDbEntity
  8
1
  6
CONTINUOUS
 62
     7
100
AcDbLine
 10
571.8637
 20
-6.071
 30
0.0
 11
565.2428
 21
13.0365
 31
0.0
  0
LINE
  5
3A7
100
AcDbEntity
  8
1
  6
CONTINUOUS
 62
     7
100
AcDbLine
 10
565.2428
 20
13.0365
 30
0.0
 11
559.2428
 21
13.0365
 31
0.0
  0
TEXT
  5
3A8
100
AcDbEntity
  8
1
  6
CONTINUOUS
 62
     7
100
AcDbText
 10
529.5513
 20
11.4127
 30
0.0
 40
3.0
  1
SEE NOTE 3
  7
MONOTXT
210
0.0
220
0.0
230
1.0
100
AcDbText
  0
LINE
  5
3A9
100
AcDbEntity
  8
1
  6
CONTINUOUS
 62
     7
100
AcDbLine
 10
509.7336
 20
22.8923
 30
0.0
 11
503.7336
 21
22.8923
 31
0.0
  0
TEXT
  5
3AA
100
AcDbEntity
  8
1
  6
CONTINUOUS
 62
     7
100
AcDbText
 10
477.7058
 20
20.8609
 30
0.0
 40
3.0
  1
FULL RAMP
  7
MONOTXT
210
0.0
220
0.0
230
1.0
100
AcDbText
  0
TEXT
  5
3AB
100
AcDbEntity
  8
1
  6
CONTINUOUS
 62
     7
100
AcDbText
 10
477.7058
 20
15.4609
 30
0.0
 40
3.0
  1
LANE WIDTH
  7
MONOTXT
210
0.0
220
0.0
230
1.0
100
AcDbText
  0
LINE
  5
3AC
100
AcDbEntity
  8
1
  6
CONTINUOUS
 62
     7
100
AcDbLine
 10
346.2315
 20
-22.3808
 30
0.0
 11
340.4341
 21
12.835
 31
0.0
  0
LINE
  5
3AD
100
AcDbEntity
  8
1
  6
CONTINUOUS
 62
     7
100
AcDbLine
 10
340.4341
 20
12.835
 30
0.0
 11
349.8582
 21
12.835
 31
0.0
  0
INSERT
  5
3AE
100
AcDbEntity
  8
1
  6
CONTINUOUS
 62
     1
100
AcDbBlockReference
  2
LDR
 10
346.2315
 20
-22.3808
 30
0.0
 41
239.999998
 42
239.999998
 50
279.348438
210
0.0
220
0.0
230
1.0
  0
LINE
  5
3AF
100
AcDbEntity
  8
1
  6
CONTINUOUS
 62
     7
100
AcDbLine
 10
441.0637
 20
-22.4341
 30
0.0
 11
423.8538
 21
25.9302
 31
0.0
  0
LINE
  5
3B0
100
AcDbEntity
  8
1
  6
CONTINUOUS
 62
     7
100
AcDbLine
 10
423.8538
 20
25.9302
 30
0.0
 11
418.8763
 21
25.9302
 31
0.0
  0
INSERT
  5
3B1
100
AcDbEntity
  8
1
  6
CONTINUOUS
 62
     1
100
AcDbBlockReference
  2
LDR
 10
441.0637
 20
-22.4341
 30
0.0
 41
239.999999
 42
239.999999
 50
289.587538
210
0.0
220
0.0
230
1.0
  0
LINE
  5
3B2
100
AcDbEntity
  8
1
  6
CONTINUOUS
 62
     7
100
AcDbLine
 10
373.465
 20
-36.8455
 30
0.0
 11
367.3007
 21
-47.5264
 31
0.0
  0
LINE
  5
3B3
100
AcDbEntity
  8
1
  6
CONTINUOUS
 62
     7
100
AcDbLine
 10
367.3007
 20
-47.5264
 30
0.0
 11
360.1457
 21
-47.5264
 31
0.0
  0
INSERT
  5
3B4
100
AcDbEntity
  8
1
  6
CONTINUOUS
 62
     1
100
AcDbBlockReference
  2
LDR
 10
373.465
 20
-36.8455
 30
0.0
 41
239.999998
 42
239.999998
 50
60.009337
210
0.0
220
0.0
230
1.0
  0
LINE
  5
3B5
100
AcDbEntity
  8
1
  6
CONTINUOUS
 62
     7
100
AcDbLine
 10
497.581
 20
-11.6472
 30
0.0
 11
504.4611
 21
-10.1466
 31
0.0
  0
LINE
  5
3B6
100
AcDbEntity
  8
1
  6
CONTINUOUS
 62
     7
100
AcDbLine
 10
504.4611
 20
-10.1466
 30
0.0
 11
509.7336
 21
22.8923
 31
0.0
  0
INSERT
  5
3B7
100
AcDbEntity
  8
1
  6
CONTINUOUS
 62
     1
100
AcDbBlockReference
  2
LDR
 10
497.581
 20
-11.6472
 30
0.0
 41
240.000001
 42
240.000001
 50
192.30394
210
0.0
220
0.0
230
1.0
  0
LINE
  5
3B8
100
AcDbEntity
  8
1
  6
CONTINUOUS
 62
     7
100
AcDbLine
 10
447.8522
 20
-19.3532
 30
0.0
 11
445.9444
 21
2.094
 31
0.0
  0
LINE
  5
3B9
100
AcDbEntity
  8
1
  6
CONTINUOUS
 62
     7
100
AcDbLine
 10
456.2192
 20
-18.6089
 30
0.0
 11
454.3114
 21
2.8383
 31
0.0
  0
LINE
  5
3BA
100
AcDbEntity
  8
1
  6
CONTINUOUS
 62
     7
100
AcDbLine
 10
472.9528
 20
-17.1199
 30
0.0
 11
471.045
 21
4.3273
 31
0.0
  0
LINE
  5
3BB
100
AcDbEntity
  8
1
  6
CONTINUOUS
 62
     7
100
AcDbLine
 10
446.0507
 20
0.8987
 30
0.0
 11
454.4177
 21
1.643
 31
0.0
  0
LINE
  5
3BC
100
AcDbEntity
  8
1
  6
CONTINUOUS
 62
     7
100
AcDbLine
 10
454.4177
 20
1.643
 30
0.0
 11
471.1513
 21
3.132
 31
0.0
  0
INSERT
  5
3BD
100
AcDbEntity
  8
1
  6
CONTINUOUS
 62
     1
100
AcDbBlockReference
  2
LDR
 10
446.0507
 20
0.8987
 30
0.0
 41
240.0
 42
240.0
 50
185.083458
210
0.0
220
0.0
230
1.0
  0
INSERT
  5
3BE
100
AcDbEntity
  8
1
  6
CONTINUOUS
 62
     1
100
AcDbBlockReference
  2
LDR
 10
446.0507
 20
0.8987
 30
0.0
 41
240.0
 42
240.0
 50
185.083458
210
0.0
220
0.0
230
1.0
  0
INSERT
  5
3BF
100
AcDbEntity
  8
1
  6
CONTINUOUS
 62
     1
100
AcDbBlockReference
  2
LDR
 10
454.4177
 20
1.643
 30
0.0
 41
240.0
 42
240.0
 50
5.083458
210
0.0
220
0.0
230
1.0
  0
INSERT
  5
3C0
100
AcDbEntity
  8
1
  6
CONTINUOUS
 62
     1
100
AcDbBlockReference
  2
LDR
 10
454.4177
 20
1.643
 30
0.0
 41
240.0
 42
240.0
 50
5.083458
210
0.0
220
0.0
230
1.0
  0
INSERT
  5
3C1
100
AcDbEntity
  8
1
  6
CONTINUOUS
 62
     1
100
AcDbBlockReference
  2
LDR
 10
454.4177
 20
1.643
 30
0.0
 41
240.0
 42
240.0
 50
185.084938
210
0.0
220
0.0
230
1.0
  0
INSERT
  5
3C2
100
AcDbEntity
  8
1
  6
CONTINUOUS
 62
     1
100
AcDbBlockReference
  2
LDR
 10
454.4177
 20
1.643
 30
0.0
 41
240.0
 42
240.0
 50
185.084938
210
0.0
220
0.0
230
1.0
  0
INSERT
  5
3C3
100
AcDbEntity
  8
1
  6
CONTINUOUS
 62
     1
100
AcDbBlockReference
  2
LDR
 10
471.1513
 20
3.132
 30
0.0
 41
240.0
 42
240.0
 50
5.084938
210
0.0
220
0.0
230
1.0
  0
TEXT
  5
3C4
100
AcDbEntity
  8
1
  6
CONTINUOUS
 62
     7
100
AcDbText
 10
412.8423
 20
-69.2925
 30
0.0
 40
3.0
  1
TYPICAL
  7
MONOTXT
210
0.0
220
0.0
230
1.0
100
AcDbText
  0
TEXT
  5
3C5
100
AcDbEntity
  8
1
  6
CONTINUOUS
 62
     7
100
AcDbText
 10
405.7028
 20
-2.5849
 30
0.0
 40
3.0
  1
TYPICAL
  7
MONOTXT
210
0.0
220
0.0
230
1.0
100
AcDbText
  0
TEXT
  5
3C6
100
AcDbEntity
  8
1
  6
CONTINUOUS
 62
     7
100
AcDbText
 10
187.9017
 20
-1.6376
 30
0.0
 40
3.0
  1
TYPICAL
  7
MONOTXT
210
0.0
220
0.0
230
1.0
100
AcDbText
  0
TEXT
  5
3C7
100
AcDbEntity
  8
1
  6
CONTINUOUS
 62
     7
100
AcDbText
 10
208.1527
 20
-4.9046
 30
0.0
 40
3.0
  1
4.0m
  7
MONOTXT
210
0.0
220
0.0
230
1.0
100
AcDbText
  0
TEXT
  5
3C8
100
AcDbEntity
  8
1
  6
CONTINUOUS
 62
     7
100
AcDbText
 10
182.4684
 20
-65.7826
 30
0.0
 40
3.0
  1
TYPICAL
  7
MONOTXT
210
0.0
220
0.0
230
1.0
100
AcDbText
  0
TEXT
  5
3C9
100
AcDbEntity
  8
1
  6
CONTINUOUS
 62
     7
100
AcDbText
 10
130.1749
 20
-152.5301
 30
0.0
 40
3.0
  1
TYPICAL
  7
MONOTXT
210
0.0
220
0.0
230
1.0
100
AcDbText
  0
TEXT
  5
3CA
100
AcDbEntity
  8
1
  6
CONTINUOUS
 62
     7
100
AcDbText
 10
190.3426
 20
-161.53
 30
0.0
 40
3.0
  1
TYPICAL
  7
MONOTXT
210
0.0
220
0.0
230
1.0
100
AcDbText
  0
TEXT
  5
3CB
100
AcDbEntity
  8
1
  6
CONTINUOUS
 62
     7
100
AcDbText
 10
171.332
 20
-166.1719
 30
0.0
 40
3.0
  1
4.0m
  7
MONOTXT
210
0.0
220
0.0
230
1.0
100
AcDbText
  0
LINE
  5
3CC
100
AcDbEntity
  8
1
  6
CONTINUOUS
 62
     7
100
AcDbLine
 10
177.552
 20
-213.3007
 30
0.0
 11
194.352
 21
-213.3007
 31
0.0
  0
LINE
  5
3CD
100
AcDbEntity
  8
1
  6
CONTINUOUS
 62
     7
100
AcDbLine
 10
194.352
 20
-213.3007
 30
0.0
 11
202.752
 21
-213.3007
 31
0.0
  0
INSERT
  5
3CE
100
AcDbEntity
  8
1
  6
CONTINUOUS
 62
     1
100
AcDbBlockReference
  2
LDR
 10
177.552
 20
-213.3007
 30
0.0
 41
240.0
 42
240.0
 50
180.0
210
0.0
220
0.0
230
1.0
  0
INSERT
  5
3CF
100
AcDbEntity
  8
1
  6
CONTINUOUS
 62
     1
100
AcDbBlockReference
  2
LDR
 10
177.552
 20
-213.3007
 30
0.0
 41
240.0
 42
240.0
 50
180.0
210
0.0
220
0.0
230
1.0
  0
INSERT
  5
3D0
100
AcDbEntity
  8
1
  6
CONTINUOUS
 62
     1
100
AcDbBlockReference
  2
LDR
 10
194.352
 20
-213.3007
 30
0.0
 41
240.0
 42
240.0
210
0.0
220
0.0
230
1.0
  0
INSERT
  5
3D1
100
AcDbEntity
  8
1
  6
CONTINUOUS
 62
     1
100
AcDbBlockReference
  2
LDR
 10
194.352
 20
-213.3007
 30
0.0
 41
240.0
 42
240.0
210
0.0
220
0.0
230
1.0
  0
INSERT
  5
3D2
100
AcDbEntity
  8
1
  6
CONTINUOUS
 62
     1
100
AcDbBlockReference
  2
LDR
 10
194.352
 20
-213.3007
 30
0.0
 41
240.0
 42
240.0
 50
180.0
210
0.0
220
0.0
230
1.0
  0
INSERT
  5
3D3
100
AcDbEntity
  8
1
  6
CONTINUOUS
 62
     1
100
AcDbBlockReference
  2
LDR
 10
194.352
 20
-213.3007
 30
0.0
 41
240.0
 42
240.0
 50
180.0
210
0.0
220
0.0
230
1.0
  0
INSERT
  5
3D4
100
AcDbEntity
  8
1
  6
CONTINUOUS
 62
     1
100
AcDbBlockReference
  2
LDR
 10
202.752
 20
-213.3007
 30
0.0
 41
240.0
 42
240.0
210
0.0
220
0.0
230
1.0
  0
TEXT
  5
3D5
100
AcDbEntity
  8
1
  6
CONTINUOUS
 62
     7
100
AcDbText
 10
183.2011
 20
-221.4931
 30
0.0
 40
3.0
  1
TYPICAL
  7
MONOTXT
210
0.0
220
0.0
230
1.0
100
AcDbText
  0
LINE
  5
3D6
100
AcDbEntity
  8
1
  6
CONTINUOUS
 62
     1
100
AcDbLine
 10
564.8726
 20
-177.5342
 30
0.0
 11
564.8726
 21
-171.485
 31
0.0
  0
INSERT
  5
3D7
100
AcDbEntity
  8
1
  6
CONTINUOUS
 62
     1
100
AcDbBlockReference
  2
LDR
 10
338.0191
 20
-182.9342
 30
0.0
 41
240.000001
 42
240.000001
 50
246.683758
210
0.0
220
0.0
230
1.0
  0
LINE
  5
3D8
100
AcDbEntity
  8
1
  6
CONTINUOUS
 62
     7
100
AcDbLine
 10
379.2637
 20
-181.7342
 30
0.0
 11
379.2637
 21
-161.6797
 31
0.0
  0
LINE
  5
3D9
100
AcDbEntity
  8
1
  6
CONTINUOUS
 62
     7
100
AcDbLine
 10
385.8637
 20
-181.7342
 30
0.0
 11
385.8637
 21
-161.6797
 31
0.0
  0
LINE
  5
3DA
100
AcDbEntity
  8
1
  6
CONTINUOUS
 62
     7
100
AcDbLine
 10
387.0637
 20
-181.7342
 30
0.0
 11
387.0637
 21
-161.6797
 31
0.0
  0
LINE
  5
3DB
100
AcDbEntity
  8
1
  6
CONTINUOUS
 62
     7
100
AcDbLine
 10
373.2637
 20
-162.8797
 30
0.0
 11
385.8637
 21
-162.8797
 31
0.0
  0
LINE
  5
3DC
100
AcDbEntity
  8
1
  6
CONTINUOUS
 62
     7
100
AcDbLine
 10
387.0637
 20
-162.8797
 30
0.0
 11
393.0637
 21
-162.8797
 31
0.0
  0
INSERT
  5
3DD
100
AcDbEntity
  8
1
  6
CONTINUOUS
 62
     1
100
AcDbBlockReference
  2
LDR
 10
387.0637
 20
-162.8797
 30
0.0
 41
240.0
 42
240.0
 50
180.0
210
0.0
220
0.0
230
1.0
  0
TEXT
  5
3DE
100
AcDbEntity
  8
1
  6
CONTINUOUS
 62
     7
100
AcDbText
 10
374.9383
 20
-160.1213
 30
0.0
 40
3.0
  1
TYPICAL
  7
MONOTXT
210
0.0
220
0.0
230
1.0
100
AcDbText
  0
TEXT
  5
3DF
100
AcDbEntity
  8
1
  6
CONTINUOUS
 62
     7
100
AcDbText
 10
515.3459
 20
-133.1061
 30
0.0
 40
3.0
  1
SEE NOTE 2
  7
MONOTXT
 11
515.3459
 21
-130.1061
 31
0.0
210
0.0
220
0.0
230
1.0
100
AcDbText
 73
     3
  0
INSERT
  5
3E0
100
AcDbEntity
  8
1
  6
CONTINUOUS
 62
     1
100
AcDbBlockReference
  2
LDR
 10
478.8637
 20
-182.9342
 30
0.0
 41
239.999999
 42
239.999999
 50
58.683057
210
0.0
220
0.0
230
1.0
  0
INSERT
  5
3E1
100
AcDbEntity
  8
1
  6
CONTINUOUS
 62
     1
100
AcDbBlockReference
  2
LDR
 10
478.8637
 20
-182.9342
 30
0.0
 41
239.999999
 42
239.999999
 50
58.683057
210
0.0
220
0.0
230
1.0
  0
INSERT
  5
3E2
100
AcDbEntity
  8
1
  6
CONTINUOUS
 62
     1
100
AcDbBlockReference
  2
LDR
 10
491.4637
 20
-182.9342
 30
0.0
 41
240.000001
 42
240.000001
 50
64.854482
210
0.0
220
0.0
230
1.0
  0
LINE
  5
3E3
100
AcDbEntity
  8
1
  6
CONTINUOUS
 62
     7
100
AcDbLine
 10
568.8637
 20
-190.1342
 30
0.0
 11
568.8637
 21
-224.6601
 31
0.0
  0
LINE
  5
3E4
100
AcDbEntity
  8
1
  6
CONTINUOUS
 62
     7
100
AcDbLine
 10
585.6637
 20
-190.1342
 30
0.0
 11
585.6637
 21
-224.6601
 31
0.0
  0
LINE
  5
3E5
100
AcDbEntity
  8
1
  6
CONTINUOUS
 62
     7
100
AcDbLine
 10
594.0637
 20
-190.1342
 30
0.0
 11
594.0637
 21
-224.6601
 31
0.0
  0
LINE
  5
3E6
100
AcDbEntity
  8
1
  6
CONTINUOUS
 62
     7
100
AcDbLine
 10
568.8637
 20
-223.4601
 30
0.0
 11
585.6637
 21
-223.4601
 31
0.0
  0
LINE
  5
3E7
100
AcDbEntity
  8
1
  6
CONTINUOUS
 62
     7
100
AcDbLine
 10
585.6637
 20
-223.4601
 30
0.0
 11
594.0637
 21
-223.4601
 31
0.0
  0
INSERT
  5
3E8
100
AcDbEntity
  8
1
  6
CONTINUOUS
 62
     1
100
AcDbBlockReference
  2
LDR
 10
585.6745
 20
-223.4504
 30
0.0
 41
240.0
 42
-240.0
 50
180.0
210
0.0
220
0.0
230
1.0
  0
INSERT
  5
3E9
100
AcDbEntity
  8
1
  6
CONTINUOUS
 62
     1
100
AcDbBlockReference
  2
LDR
 10
594.0529
 20
-223.4698
 30
0.0
 41
240.0
 42
-240.0
210
0.0
220
0.0
230
1.0
  0
INSERT
  5
3EA
100
AcDbEntity
  8
1
  6
CONTINUOUS
 62
     1
100
AcDbBlockReference
  2
LDR
 10
568.8637
 20
-223.4601
 30
0.0
 41
240.0
 42
240.0
 50
180.0
210
0.0
220
0.0
230
1.0
  0
INSERT
  5
3EB
100
AcDbEntity
  8
1
  6
CONTINUOUS
 62
     1
100
AcDbBlockReference
  2
LDR
 10
568.8637
 20
-223.4601
 30
0.0
 41
240.0
 42
240.0
 50
180.0
210
0.0
220
0.0
230
1.0
  0
INSERT
  5
3EC
100
AcDbEntity
  8
1
  6
CONTINUOUS
 62
     1
100
AcDbBlockReference
  2
LDR
 10
585.6637
 20
-223.4601
 30
0.0
 41
240.0
 42
240.0
210
0.0
220
0.0
230
1.0
  0
TEXT
  5
3ED
100
AcDbEntity
  8
1
  6
CONTINUOUS
 62
     7
100
AcDbText
 10
574.9627
 20
-229.1815
 30
0.0
 40
3.0
  1
TYPICAL
  7
MONOTXT
210
0.0
220
0.0
230
1.0
100
AcDbText
  0
LINE
  5
3EE
100
AcDbEntity
  8
1
  6
CONTINUOUS
 62
     7
100
AcDbLine
 10
542.7995
 20
-176.1196
 30
0.0
 11
547.9264
 21
-227.999
 31
0.0
  0
LINE
  5
3EF
100
AcDbEntity
  8
1
  6
CONTINUOUS
 62
     7
100
AcDbLine
 10
547.9264
 20
-227.999
 30
0.0
 11
552.4481
 21
-182.9342
 31
0.0
  0
LINE
  5
3F0
100
AcDbEntity
  8
1
  6
CONTINUOUS
 62
     7
100
AcDbLine
 10
547.9264
 20
-227.999
 30
0.0
 11
537.0431
 21
-227.999
 31
0.0
  0
INSERT
  5
3F1
100
AcDbEntity
  8
1
  6
CONTINUOUS
 62
     1
100
AcDbBlockReference
  2
LDR
 10
542.7995
 20
-176.1196
 30
0.0
 41
239.999999
 42
239.999999
 50
95.64384
210
0.0
220
0.0
230
1.0
  0
INSERT
  5
3F2
100
AcDbEntity
  8
1
  6
CONTINUOUS
 62
     1
100
AcDbBlockReference
  2
LDR
 10
542.7995
 20
-176.1196
 30
0.0
 41
239.999999
 42
239.999999
 50
95.64384
210
0.0
220
0.0
230
1.0
  0
INSERT
  5
3F3
100
AcDbEntity
  8
1
  6
CONTINUOUS
 62
     1
100
AcDbBlockReference
  2
LDR
 10
552.4481
 20
-182.9342
 30
0.0
 41
239.999998
 42
239.999998
 50
84.270248
210
0.0
220
0.0
230
1.0
  0
LINE
  5
3F4
100
AcDbEntity
  8
1
  6
CONTINUOUS
 62
     7
100
AcDbLine
 10
501.0778
 20
-175.7342
 30
0.0
 11
498.7579
 21
-108.1462
 31
0.0
  0
LINE
  5
3F5
100
AcDbEntity
  8
1
  6
CONTINUOUS
 62
     7
100
AcDbLine
 10
498.7579
 20
-108.1462
 30
0.0
 11
491.8425
 21
-108.1462
 31
0.0
  0
INSERT
  5
3F6
100
AcDbEntity
  8
1
  6
CONTINUOUS
 62
     1
100
AcDbBlockReference
  2
LDR
 10
491.4637
 20
-181.7342
 30
0.0
 41
240.0
 42
240.0
 50
270.0
210
0.0
220
0.0
230
1.0
  0
INSERT
  5
3F7
100
AcDbEntity
  8
1
  6
CONTINUOUS
 62
     1
100
AcDbBlockReference
  2
LDR
 10
508.0533
 20
-175.5149
 30
0.0
 41
240.0
 42
240.0
 50
90.0
210
0.0
220
0.0
230
1.0
  0
INSERT
  5
3F8
100
AcDbEntity
  8
1
  6
CONTINUOUS
 62
     1
100
AcDbBlockReference
  2
LDR
 10
501.0778
 20
-175.7342
 30
0.0
 41
239.999999
 42
239.999999
 50
271.965857
210
0.0
220
0.0
230
1.0
  0
LINE
  5
3F9
100
AcDbEntity
  8
1
  6
CONTINUOUS
 62
     7
100
AcDbLine
 10
568.8637
 20
-163.7342
 30
0.0
 11
553.2062
 21
-131.2899
 31
0.0
  0
LINE
  5
3FA
100
AcDbEntity
  8
1
  6
CONTINUOUS
 62
     7
100
AcDbLine
 10
554.7927
 20
-134.5773
 30
0.0
 11
571.8637
 21
-182.9342
 31
0.0
  0
INSERT
  5
3FB
100
AcDbEntity
  8
1
  6
CONTINUOUS
 62
     1
100
AcDbBlockReference
  2
LDR
 10
568.8637
 20
-163.7342
 30
0.0
 41
240.000001
 42
240.000001
 50
295.761789
210
0.0
220
0.0
230
1.0
  0
INSERT
  5
3FC
100
AcDbEntity
  8
1
  6
CONTINUOUS
 62
     1
100
AcDbBlockReference
  2
LDR
 10
568.8637
 20
-163.7342
 30
0.0
 41
240.000001
 42
240.000001
 50
295.761789
210
0.0
220
0.0
230
1.0
  0
INSERT
  5
3FD
100
AcDbEntity
  8
1
  6
CONTINUOUS
 62
     1
100
AcDbBlockReference
  2
LDR
 10
571.8637
 20
-182.9342
 30
0.0
 41
240.000001
 42
240.000001
 50
289.444101
210
0.0
220
0.0
230
1.0
  0
LINE
  5
3FE
100
AcDbEntity
  8
1
  6
CONTINUOUS
 62
     7
100
AcDbLine
 10
553.2062
 20
-131.2899
 30
0.0
 11
545.3234
 21
-131.2899
 31
0.0
  0
LINE
  5
3FF
100
AcDbEntity
  8
1
  6
CONTINUOUS
 62
     7
100
AcDbLine
 10
579.8347
 20
-156.3536
 30
0.0
 11
560.1611
 21
-113.1599
 31
0.0
  0
LINE
  5
400
100
AcDbEntity
  8
1
  6
CONTINUOUS
 62
     7
100
AcDbLine
 10
560.1611
 20
-113.1599
 30
0.0
 11
551.7696
 21
-113.1599
 31
0.0
  0
LINE
  5
401
100
AcDbEntity
  8
1
  6
CONTINUOUS
 62
     7
100
AcDbLine
 10
594.0695
 20
-182.9209
 30
0.0
 11
611.0694
 21
-234.3449
 31
0.0
  0
INSERT
  5
402
100
AcDbEntity
  8
1
  6
CONTINUOUS
 62
     1
100
AcDbBlockReference
  2
LDR
 10
594.0637
 20
-182.9342
 30
0.0
 41
239.999999
 42
239.999999
 50
108.293011
210
0.0
220
0.0
230
1.0
  0
LINE
  5
403
100
AcDbEntity
  8
1
  6
CONTINUOUS
 62
     7
100
AcDbLine
 10
611.0694
 20
-234.3449
 30
0.0
 11
602.6547
 21
-234.3449
 31
0.0
  0
TEXT
  5
404
100
AcDbEntity
  8
1
  6
CONTINUOUS
 62
     7
100
AcDbText
 10
389.007
 20
-246.8289
 30
0.0
 40
4.8
  1
ENTRANCE RAMP: PARALLEL ACCELERATION LANE
  7
TXT
210
0.0
220
0.0
230
1.0
100
AcDbText
  0
TEXT
  5
405
100
AcDbEntity
  8
1
  6
CONTINUOUS
 62
     7
100
AcDbText
 10
665.9307
 20
13.3474
 30
0.0
 40
3.0
  1
GENERAL NOTES
  7
MONOTXT
210
0.0
220
0.0
230
1.0
100
AcDbText
  0
LINE
  5
406
100
AcDbEntity
  8
1
  6
CONTINUOUS
 62
     7
100
AcDbLine
 10
663.877
 20
11.6354
 30
0.0
 11
704.3589
 21
11.6354
 31
0.0
  0
INSERT
  5
407
100
AcDbEntity
  8
1
  6
CONTINUOUS
 62
     1
100
AcDbBlockReference
  2
LDR
 10
62.6983
 20
-180.896
 30
0.0
 41
239.999999
 42
239.999999
 50
290.55116
210
0.0
220
0.0
230
1.0
  0
INSERT
  5
408
100
AcDbEntity
  8
1
  6
CONTINUOUS
 62
     1
100
AcDbBlockReference
  2
LDR
 10
62.6983
 20
-180.896
 30
0.0
 41
239.999999
 42
239.999999
 50
290.55116
210
0.0
220
0.0
230
1.0
  0
INSERT
  5
409
100
AcDbEntity
  8
1
  6
CONTINUOUS
 62
     1
100
AcDbBlockReference
  2
LDR
 10
120.552
 20
-184.7748
 30
0.0
 41
240.000001
 42
240.000001
 50
115.145518
210
0.0
220
0.0
230
1.0
  0
INSERT
  5
40A
100
AcDbEntity
  8
1
  6
CONTINUOUS
 62
     1
100
AcDbBlockReference
  2
LDR
 10
120.552
 20
-184.7748
 30
0.0
 41
240.000001
 42
240.000001
 50
115.145518
210
0.0
220
0.0
230
1.0
  0
INSERT
  5
40B
100
AcDbEntity
  8
1
  6
CONTINUOUS
 62
     1
100
AcDbBlockReference
  2
LDR
 10
133.152
 20
-184.7748
 30
0.0
 41
239.999999
 42
239.999999
 50
121.316943
210
0.0
220
0.0
230
1.0
  0
TEXT
  5
40C
100
AcDbEntity
  8
1
  6
CONTINUOUS
 62
     7
100
AcDbText
 10
42.24
 20
-293.8446
 30
0.0
 40
3.0
  1
- BI-DIRECTIONAL (WHITE/RED) WITH
  7
MONOTXT
 11
42.24
 21
-290.8446
 31
0.0
210
0.0
220
0.0
230
1.0
100
AcDbText
 73
     3
  0
TEXT
  5
40D
100
AcDbEntity
  8
1
  6
CONTINUOUS
 62
     7
100
AcDbText
 10
42.24
 20
-299.2446
 30
0.0
 40
3.0
  1
  WHITE REFLECTOR FACING TRAFFIC
  7
MONOTXT
 11
42.24
 21
-296.2446
 31
0.0
210
0.0
220
0.0
230
1.0
100
AcDbText
 73
     3
  0
TEXT
  5
40E
100
AcDbEntity
  8
1
  6
CONTINUOUS
 62
     7
100
AcDbText
 10
42.24
 20
-304.6446
 30
0.0
 40
3.0
  1
 
  7
MONOTXT
 11
42.24
 21
-301.6446
 31
0.0
210
0.0
220
0.0
230
1.0
100
AcDbText
 73
     3
  0
TEXT
  5
40F
100
AcDbEntity
  8
1
  6
CONTINUOUS
 62
     7
100
AcDbText
 10
42.24
 20
-310.0446
 30
0.0
 40
3.0
  1
- MONO-DIRECTIONAL WITH WHITE
  7
MONOTXT
 11
42.24
 21
-307.0446
 31
0.0
210
0.0
220
0.0
230
1.0
100
AcDbText
 73
     3
  0
TEXT
  5
410
100
AcDbEntity
  8
1
  6
CONTINUOUS
 62
     7
100
AcDbText
 10
42.24
 20
-315.4446
 30
0.0
 40
3.0
  1
  REFLECTOR FACING TRAFFIC
  7
MONOTXT
 11
42.24
 21
-312.4446
 31
0.0
210
0.0
220
0.0
230
1.0
100
AcDbText
 73
     3
  0
INSERT
  5
411
100
AcDbEntity
  8
1
  6
CONTINUOUS
 62
     1
100
AcDbBlockReference
  2
LDR
 10
571.8637
 20
-6.071
 30
0.0
 41
239.999999
 42
239.999999
 50
289.111606
210
0.0
220
0.0
230
1.0
  0
TEXT
  5
412
100
AcDbEntity
  8
1
  6
CONTINUOUS
 62
     7
100
AcDbText
 10
378.2201
 20
-87.256
 30
0.0
 40
4.8
  1
ENTRANCE RAMP: TAPERED ACCELERATION LANE
  7
TXT
210
0.0
220
0.0
230
1.0
100
AcDbText
  0
LINE
  5
413
100
AcDbEntity
  8
1
  6
CONTINUOUS
 62
     7
100
AcDbLine
 10
682.0657
 20
-117.3571
 30
0.0
 11
694.0577
 21
-117.3571
 31
0.0
  0
INSERT
  5
414
100
AcDbEntity
  8
1
  6
CONTINUOUS
 62
     1
100
AcDbBlockReference
  2
ARO
 10
443.4851
 20
-282.0642
 30
0.0
 41
240.000001
 42
240.000001
 50
167.545626
210
0.0
220
0.0
230
1.0
  0
INSERT
  5
415
100
AcDbEntity
  8
1
  6
CONTINUOUS
 62
     1
100
AcDbBlockReference
  2
ARO
 10
439.6799
 20
-331.1606
 30
0.0
 41
239.999999
 42
239.999999
 50
179.955156
210
0.0
220
0.0
230
1.0
  0
INSERT
  5
416
100
AcDbEntity
  8
1
  6
CONTINUOUS
 62
     1
100
AcDbBlockReference
  2
ARO
 10
449.0499
 20
-399.8587
 30
0.0
 41
239.999999
 42
239.999999
 50
179.955156
210
0.0
220
0.0
230
1.0
  0
TEXT
  5
417
100
AcDbEntity
  8
1
  6
CONTINUOUS
 62
     7
100
AcDbText
 10
443.3787
 20
-401.5186
 30
0.0
 40
3.0
  1
         THIS ARROW ONLY
  7
MONOTXT
 11
443.3787
 21
-398.5186
 31
0.0
210
0.0
220
0.0
230
1.0
100
AcDbText
 73
     3
  0
TEXT
  5
418
100
AcDbEntity
  8
1
  6
CONTINUOUS
 62
     7
100
AcDbText
 10
443.3787
 20
-406.9186
 30
0.0
 40
3.0
  1
INDICATES DIRECTION OF TRAVEL.
  7
MONOTXT
 11
443.3787
 21
-403.9186
 31
0.0
210
0.0
220
0.0
230
1.0
100
AcDbText
 73
     3
  0
LWPOLYLINE
  5
419
100
AcDbEntity
  8
1
  6
CONTINUOUS
 62
     7
100
AcDbPolyline
 90
        4
 70
     0
 10
573.7663
 20
-324.5485
 10
571.3663
 20
-328.7054
 10
576.1663
 20
-328.7054
 10
573.7663
 20
-324.5485
  0
TEXT
  5
41A
100
AcDbEntity
  8
1
  6
CONTINUOUS
 62
     7
100
AcDbText
 10
573.2631
 20
-328.0673
 30
0.0
 40
1.8
  1
5
  7
MONOTXT
210
0.0
220
0.0
230
1.0
100
AcDbText
  0
TEXT
  5
41B
100
AcDbEntity
  8
1
  6
CONTINUOUS
 62
     7
100
AcDbText
 10
577.1608
 20
-327.7455
 30
0.0
 40
2.4
  1
ADDED NOTE ABOUT ARROWS
  7
MONOTXT
210
0.0
220
0.0
230
1.0
100
AcDbText
  0
LWPOLYLINE
  5
41C
100
AcDbEntity
  8
1
  6
CONTINUOUS
 62
     7
100
AcDbPolyline
 90
        4
 70
     0
 10
575.4426
 20
-426.4002
 10
573.0426
 20
-430.5571
 10
577.8426
 20
-430.5571
 10
575.4426
 20
-426.4002
  0
TEXT
  5
41D
100
AcDbEntity
  8
1
  6
CONTINUOUS
 62
     7
100
AcDbText
 10
574.9208
 20
-429.9877
 30
0.0
 40
1.8
  1
5
  7
MONOTXT
210
0.0
220
0.0
230
1.0
100
AcDbText
  0
TEXT
  5
41E
100
AcDbEntity
  8
1
  6
CONTINUOUS
 62
     7
100
AcDbText
 10
442.5495
 20
-393.5416
 30
0.0
 40
3.0
  1
NOTE:
  7
MONOTXT
 11
442.5495
 21
-390.5416
 31
0.0
210
0.0
220
0.0
230
1.0
100
AcDbText
 73
     3
  0
LWPOLYLINE
  5
41F
100
AcDbEntity
  8
1
  6
CONTINUOUS
 62
     7
100
AcDbPolyline
 90
        4
 70
     0
 10
573.5956
 20
-329.927
 10
571.1956
 20
-334.0839
 10
575.9956
 20
-334.0839
 10
573.5956
 20
-329.927
  0
TEXT
  5
420
100
AcDbEntity
  8
1
  6
CONTINUOUS
 62
     7
100
AcDbText
 10
573.0924
 20
-333.4458
 30
0.0
 40
1.8
  1
6
  7
MONOTXT
210
0.0
220
0.0
230
1.0
100
AcDbText
  0
TEXT
  5
421
100
AcDbEntity
  8
1
  6
CONTINUOUS
 62
     7
100
AcDbText
 10
576.9901
 20
-333.124
 30
0.0
 40
2.4
  1
ADDED METRIC
  7
MONOTXT
210
0.0
220
0.0
230
1.0
100
AcDbText
  0
LWPOLYLINE
  5
422
100
AcDbEntity
  8
1
  6
CONTINUOUS
 62
     7
100
AcDbPolyline
 90
        4
 70
     0
 10
575.3504
 20
-432.028
 10
572.9504
 20
-436.1849
 10
577.7504
 20
-436.1849
 10
575.3504
 20
-432.028
  0
TEXT
  5
423
100
AcDbEntity
  8
1
  6
CONTINUOUS
 62
     1
100
AcDbText
 10
581.9098
 20
-435.6137
 30
0.0
 40
2.4
  1
04-12-94
  7
MONOTXT
 72
     1
 11
590.1774
 21
-433.2137
 31
0.0
210
0.0
220
0.0
230
1.0
100
AcDbText
 73
     3
  0
TEXT
  5
424
100
AcDbEntity
  8
1
  6
CONTINUOUS
 62
     7
100
AcDbText
 10
574.9139
 20
-435.6156
 30
0.0
 40
1.8
  1
6
  7
MONOTXT
210
0.0
220
0.0
230
1.0
100
AcDbText
  0
TEXT
  5
425
100
AcDbEntity
  8
1
  6
CONTINUOUS
 62
     7
100
AcDbText
 10
608.7698
 20
2.4724
 30
0.0
 40
3.0
  1
1.   THE 150mm TO 200mm EDGE LINE SHALL BE EXTENDED
  7
MONOTXT
 11
608.7698
 21
5.4724
 31
0.0
210
0.0
220
0.0
230
1.0
100
AcDbText
 73
     3
  0
TEXT
  5
426
100
AcDbEntity
  8
1
  6
CONTINUOUS
 62
     7
100
AcDbText
 10
608.7698
 20
-2.9276
 30
0.0
 40
3.0
  1
   TO A POINT APPROXIMATELY 7.6m BEYOND THE EXIT
  7
MONOTXT
 11
608.7698
 21
0.0724
 31
0.0
210
0.0
220
0.0
230
1.0
100
AcDbText
 73
     3
  0
TEXT
  5
427
100
AcDbEntity
  8
1
  6
CONTINUOUS
 62
     7
100
AcDbText
 10
608.7698
 20
-8.3276
 30
0.0
 40
3.0
  1
   SIGN ON BOTH SIDES OF THE GORE.
  7
MONOTXT
 11
608.7698
 21
-5.3276
 31
0.0
210
0.0
220
0.0
230
1.0
100
AcDbText
 73
     3
  0
TEXT
  5
428
100
AcDbEntity
  8
1
  6
CONTINUOUS
 62
     7
100
AcDbText
 10
608.7698
 20
-13.7276
 30
0.0
 40
3.0
  1
 
  7
MONOTXT
 11
608.7698
 21
-10.7276
 31
0.0
210
0.0
220
0.0
230
1.0
100
AcDbText
 73
     3
  0
TEXT
  5
429
100
AcDbEntity
  8
1
  6
CONTINUOUS
 62
     7
100
AcDbText
 10
608.7698
 20
-19.1276
 30
0.0
 40
3.0
  1
2.   THE 150mm TO 200mm EDGE LINE ON BOTH SIDES OF
  7
MONOTXT
 11
608.7698
 21
-16.1276
 31
0.0
210
0.0
220
0.0
230
1.0
100
AcDbText
 73
     3
  0
TEXT
  5
42A
100
AcDbEntity
  8
1
  6
CONTINUOUS
 62
     7
100
AcDbText
 10
608.7698
 20
-24.5276
 30
0.0
 40
3.0
  1
   THE GORE SHALL BE PLACED BEGINNING AT A POINT
  7
MONOTXT
 11
608.7698
 21
-21.5276
 31
0.0
210
0.0
220
0.0
230
1.0
100
AcDbText
 73
     3
  0
TEXT
  5
42B
100
AcDbEntity
  8
1
  6
CONTINUOUS
 62
     7
100
AcDbText
 10
608.7698
 20
-29.9276
 30
0.0
 40
3.0
  1
   APPROXIMATELY 7.6m BEFORE THE POINT WHERE THE
  7
MONOTXT
 11
608.7698
 21
-26.9276
 31
0.0
210
0.0
220
0.0
230
1.0
100
AcDbText
 73
     3
  0
TEXT
  5
42C
100
AcDbEntity
  8
1
  6
CONTINUOUS
 62
     7
100
AcDbText
 10
608.7698
 20
-35.3276
 30
0.0
 40
3.0
  1
   RAMP AND MAINLINE SHOULDER AREAS JOIN AND EXTEND
  7
MONOTXT
 11
608.7698
 21
-32.3276
 31
0.0
210
0.0
220
0.0
230
1.0
100
AcDbText
 73
     3
  0
TEXT
  5
42D
100
AcDbEntity
  8
1
  6
CONTINUOUS
 62
     7
100
AcDbText
 10
608.7698
 20
-40.7276
 30
0.0
 40
3.0
  1
   UNTIL THE 150mm TO 200mm LINES MERGE INTO ONE
  7
MONOTXT
 11
608.7698
 21
-37.7276
 31
0.0
210
0.0
220
0.0
230
1.0
100
AcDbText
 73
     3
  0
TEXT
  5
42E
100
AcDbEntity
  8
1
  6
CONTINUOUS
 62
     7
100
AcDbText
 10
608.7698
 20
-46.1276
 30
0.0
 40
3.0
  1
   150mm TO 200mm LINE.
  7
MONOTXT
 11
608.7698
 21
-43.1276
 31
0.0
210
0.0
220
0.0
230
1.0
100
AcDbText
 73
     3
  0
TEXT
  5
42F
100
AcDbEntity
  8
1
  6
CONTINUOUS
 62
     7
100
AcDbText
 10
608.7698
 20
-51.5276
 30
0.0
 40
3.0
  1
 
  7
MONOTXT
 11
608.7698
 21
-48.5276
 31
0.0
210
0.0
220
0.0
230
1.0
100
AcDbText
 73
     3
  0
TEXT
  5
430
100
AcDbEntity
  8
1
  6
CONTINUOUS
 62
     7
100
AcDbText
 10
608.7698
 20
-56.9276
 30
0.0
 40
3.0
  1
3.   THE 150mm TO 200mm EDGE LINE ON THE RIGHT SIDE
  7
MONOTXT
 11
608.7698
 21
-53.9276
 31
0.0
210
0.0
220
0.0
230
1.0
100
AcDbText
 73
     3
  0
TEXT
  5
431
100
AcDbEntity
  8
1
  6
CONTINUOUS
 62
     7
100
AcDbText
 10
608.7698
 20
-62.3276
 30
0.0
 40
3.0
  1
   OF THE GORE SHALL BE PLACED BEGINNING AT A POINT
  7
MONOTXT
 11
608.7698
 21
-59.3276
 31
0.0
210
0.0
220
0.0
230
1.0
100
AcDbText
 73
     3
  0
TEXT
  5
432
100
AcDbEntity
  8
1
  6
CONTINUOUS
 62
     7
100
AcDbText
 10
608.7698
 20
-67.7276
 30
0.0
 40
3.0
  1
   APPROXIMATELY 7.6m BEFORE THE POINT WHERE THE
  7
MONOTXT
 11
608.7698
 21
-64.7276
 31
0.0
210
0.0
220
0.0
230
1.0
100
AcDbText
 73
     3
  0
TEXT
  5
433
100
AcDbEntity
  8
1
  6
CONTINUOUS
 62
     7
100
AcDbText
 10
608.7698
 20
-73.1276
 30
0.0
 40
3.0
  1
   RAMP AND MAINLINE SHOULDER AREAS JOIN AND EXTEND
  7
MONOTXT
 11
608.7698
 21
-70.1276
 31
0.0
210
0.0
220
0.0
230
1.0
100
AcDbText
 73
     3
  0
TEXT
  5
434
100
AcDbEntity
  8
1
  6
CONTINUOUS
 62
     7
100
AcDbText
 10
608.7698
 20
-78.5276
 30
0.0
 40
3.0
  1
   FOR APPROXIMATELY ONE-HALF THE LENGTH TO THE
  7
MONOTXT
 11
608.7698
 21
-75.5276
 31
0.0
210
0.0
220
0.0
230
1.0
100
AcDbText
 73
     3
  0
TEXT
  5
435
100
AcDbEntity
  8
1
  6
CONTINUOUS
 62
     7
100
AcDbText
 10
608.7698
 20
-83.9276
 30
0.0
 40
3.0
  1
   THEORETICAL GORE POINT.
  7
MONOTXT
 11
608.7698
 21
-80.9276
 31
0.0
210
0.0
220
0.0
230
1.0
100
AcDbText
 73
     3
  0
TEXT
  5
436
100
AcDbEntity
  8
1
  6
CONTINUOUS
 62
     7
100
AcDbText
 10
608.7698
 20
-89.3276
 30
0.0
 40
3.0
  1
 
  7
MONOTXT
 11
608.7698
 21
-86.3276
 31
0.0
210
0.0
220
0.0
230
1.0
100
AcDbText
 73
     3
  0
TEXT
  5
437
100
AcDbEntity
  8
1
  6
CONTINUOUS
 62
     7
100
AcDbText
 10
608.7698
 20
-94.7276
 30
0.0
 40
3.0
  1
4.   IF TYPICAL MARKINGS AS SHOWN ON THIS SHEET DO NOT
  7
MONOTXT
 11
608.7698
 21
-91.7276
 31
0.0
210
0.0
220
0.0
230
1.0
100
AcDbText
 73
     3
  0
TEXT
  5
438
100
AcDbEntity
  8
1
  6
CONTINUOUS
 62
     7
100
AcDbText
 10
608.7698
 20
-100.1276
 30
0.0
 40
3.0
  1
   APPLY, MARKINGS WILL BE AS SHOWN ON THE PLAN OR AS
  7
MONOTXT
 11
608.7698
 21
-97.1276
 31
0.0
210
0.0
220
0.0
230
1.0
100
AcDbText
 73
     3
  0
TEXT
  5
439
100
AcDbEntity
  8
1
  6
CONTINUOUS
 62
     7
100
AcDbText
 10
608.7698
 20
-105.5276
 30
0.0
 40
3.0
  1
   DIRECTED BY THE ENGINEER.
  7
MONOTXT
 11
608.7698
 21
-102.5276
 31
0.0
210
0.0
220
0.0
230
1.0
100
AcDbText
 73
     3
  0
TEXT
  5
43A
100
AcDbEntity
  8
1
  6
CONTINUOUS
 62
     7
100
AcDbText
 10
608.7698
 20
-110.9276
 30
0.0
 40
3.0
  1
 
  7
MONOTXT
 11
608.7698
 21
-107.9276
 31
0.0
210
0.0
220
0.0
230
1.0
100
AcDbText
 73
     3
  0
TEXT
  5
43B
100
AcDbEntity
  8
1
  6
CONTINUOUS
 62
     7
100
AcDbText
 10
608.7698
 20
-116.3276
 30
0.0
 40
3.0
  1
5.   THIS DIMENSION SHALL BE 3.6m UNLESS OTHERWISE SPEC-
  7
MONOTXT
 11
608.7698
 21
-113.3276
 31
0.0
210
0.0
220
0.0
230
1.0
100
AcDbText
 73
     3
  0
TEXT
  5
43C
100
AcDbEntity
  8
1
  6
CONTINUOUS
 62
     7
100
AcDbText
 10
608.7698
 20
-121.7276
 30
0.0
 40
3.0
  1
   IFIED. IN NO CASE SHALL THIS DIMENSION BE LESS THAN
  7
MONOTXT
 11
608.7698
 21
-118.7276
 31
0.0
210
0.0
220
0.0
230
1.0
100
AcDbText
 73
     3
  0
TEXT
  5
43D
100
AcDbEntity
  8
1
  6
CONTINUOUS
 62
     7
100
AcDbText
 10
608.7698
 20
-127.1276
 30
0.0
 40
3.0
  1
   2.4m OR GREATER THAN 3.6m. 
  7
MONOTXT
 11
608.7698
 21
-124.1276
 31
0.0
210
0.0
220
0.0
230
1.0
100
AcDbText
 73
     3
  0
TEXT
  5
43E
100
AcDbEntity
  8
1
  6
CONTINUOUS
 62
     7
100
AcDbText
 10
41.8366
 20
27.4279
 30
0.0
 40
3.0
  1
100mm SOLID YELLOW
  7
MONOTXT
 11
41.8366
 21
30.4279
 31
0.0
210
0.0
220
0.0
230
1.0
100
AcDbText
 73
     3
  0
TEXT
  5
43F
100
AcDbEntity
  8
1
  6
CONTINUOUS
 62
     7
100
AcDbText
 10
41.8366
 20
22.0279
 30
0.0
 40
3.0
  1
EDGE LINE
  7
MONOTXT
 11
41.8366
 21
25.0279
 31
0.0
210
0.0
220
0.0
230
1.0
100
AcDbText
 73
     3
  0
TEXT
  5
440
100
AcDbEntity
  8
1
  6
CONTINUOUS
 62
     7
100
AcDbText
 10
43.7043
 20
-65.1583
 30
0.0
 40
3.0
  1
100mm SOLID
  7
MONOTXT
 11
43.7043
 21
-62.1583
 31
0.0
210
0.0
220
0.0
230
1.0
100
AcDbText
 73
     3
  0
TEXT
  5
441
100
AcDbEntity
  8
1
  6
CONTINUOUS
 62
     7
100
AcDbText
 10
43.7043
 20
-70.5583
 30
0.0
 40
3.0
  1
WHITE
  7
MONOTXT
 11
43.7043
 21
-67.5583
 31
0.0
210
0.0
220
0.0
230
1.0
100
AcDbText
 73
     3
  0
TEXT
  5
442
100
AcDbEntity
  8
1
  6
CONTINUOUS
 62
     7
100
AcDbText
 10
43.7043
 20
-75.9583
 30
0.0
 40
3.0
  1
EDGE LINE
  7
MONOTXT
 11
43.7043
 21
-72.9583
 31
0.0
210
0.0
220
0.0
230
1.0
100
AcDbText
 73
     3
  0
TEXT
  5
443
100
AcDbEntity
  8
1
  6
CONTINUOUS
 62
     7
100
AcDbText
 10
96.8578
 20
-67.6444
 30
0.0
 40
3.0
  1
150mm TO 200mm SOLID
  7
MONOTXT
 11
96.8578
 21
-64.6444
 31
0.0
210
0.0
220
0.0
230
1.0
100
AcDbText
 73
     3
  0
TEXT
  5
444
100
AcDbEntity
  8
1
  6
CONTINUOUS
 62
     7
100
AcDbText
 10
96.8578
 20
-73.0444
 30
0.0
 40
3.0
  1
WHITE EDGE LINE
  7
MONOTXT
 11
96.8578
 21
-70.0444
 31
0.0
210
0.0
220
0.0
230
1.0
100
AcDbText
 73
     3
  0
TEXT
  5
445
100
AcDbEntity
  8
1
  6
CONTINUOUS
 62
     7
100
AcDbText
 10
183.1918
 20
-59.8019
 30
0.0
 40
3.0
  1
9m
  7
MONOTXT
210
0.0
220
0.0
230
1.0
100
AcDbText
  0
TEXT
  5
446
100
AcDbEntity
  8
1
  6
CONTINUOUS
 62
     7
100
AcDbText
 10
195.3006
 20
-59.2273
 30
0.0
 40
3.0
  1
3m
  7
MONOTXT
210
0.0
220
0.0
230
1.0
100
AcDbText
  0
TEXT
  5
447
100
AcDbEntity
  8
1
  6
CONTINUOUS
 62
     7
100
AcDbText
 10
246.8066
 20
-62.2813
 30
0.0
 40
3.0
  1
100mm BROKEN WHITE
  7
MONOTXT
 11
246.8066
 21
-59.2813
 31
0.0
210
0.0
220
0.0
230
1.0
100
AcDbText
 73
     3
  0
TEXT
  5
448
100
AcDbEntity
  8
1
  6
CONTINUOUS
 62
     7
100
AcDbText
 10
246.8066
 20
-67.6813
 30
0.0
 40
3.0
  1
LANE LINE
  7
MONOTXT
 11
246.8066
 21
-64.6813
 31
0.0
210
0.0
220
0.0
230
1.0
100
AcDbText
 73
     3
  0
TEXT
  5
449
100
AcDbEntity
  8
1
  6
CONTINUOUS
 62
     7
100
AcDbText
 10
195.1549
 20
35.4597
 30
0.0
 40
3.0
  1
100mm SOLID WHITE
  7
MONOTXT
 11
195.1549
 21
38.4597
 31
0.0
210
0.0
220
0.0
230
1.0
100
AcDbText
 73
     3
  0
TEXT
  5
44A
100
AcDbEntity
  8
1
  6
CONTINUOUS
 62
     7
100
AcDbText
 10
195.1549
 20
30.0597
 30
0.0
 40
3.0
  1
EDGE LINE
  7
MONOTXT
 11
195.1549
 21
33.0597
 31
0.0
210
0.0
220
0.0
230
1.0
100
AcDbText
 73
     3
  0
TEXT
  5
44B
100
AcDbEntity
  8
1
  6
CONTINUOUS
 62
     7
100
AcDbText
 10
175.71
 20
22.0068
 30
0.0
 40
3.0
  1
100mm WIDE DOTTED
  7
MONOTXT
 11
175.71
 21
25.0068
 31
0.0
210
0.0
220
0.0
230
1.0
100
AcDbText
 73
     3
  0
TEXT
  5
44C
100
AcDbEntity
  8
1
  6
CONTINUOUS
 62
     7
100
AcDbText
 10
175.71
 20
16.6068
 30
0.0
 40
3.0
  1
WHITE EDGE LINE
  7
MONOTXT
 11
175.71
 21
19.6068
 31
0.0
210
0.0
220
0.0
230
1.0
100
AcDbText
 73
     3
  0
TEXT
  5
44D
100
AcDbEntity
  8
1
  6
CONTINUOUS
 62
     7
100
AcDbText
 10
188.8962
 20
10.0931
 30
0.0
 40
3.0
  1
100mm SOLID YELLOW
  7
MONOTXT
 11
188.8962
 21
13.0931
 31
0.0
210
0.0
220
0.0
230
1.0
100
AcDbText
 73
     3
  0
TEXT
  5
44E
100
AcDbEntity
  8
1
  6
CONTINUOUS
 62
     7
100
AcDbText
 10
188.8962
 20
4.6931
 30
0.0
 40
3.0
  1
EDGE LINE
  7
MONOTXT
 11
188.8962
 21
7.6931
 31
0.0
210
0.0
220
0.0
230
1.0
100
AcDbText
 73
     3
  0
TEXT
  5
44F
100
AcDbEntity
  8
1
  6
CONTINUOUS
 62
     7
100
AcDbText
 10
176.5982
 20
-4.6067
 30
0.0
 40
3.0
  1
0.6m
  7
MONOTXT
210
0.0
220
0.0
230
1.0
100
AcDbText
  0
TEXT
  5
450
100
AcDbEntity
  8
1
  6
CONTINUOUS
 62
     7
100
AcDbText
 10
132.5029
 20
35.3869
 30
0.0
 40
3.0
  1
FULL RAMP
  7
MONOTXT
210
0.0
220
0.0
230
1.0
100
AcDbText
  0
TEXT
  5
451
100
AcDbEntity
  8
1
  6
CONTINUOUS
 62
     7
100
AcDbText
 10
132.5029
 20
29.9869
 30
0.0
 40
3.0
  1
LANE WIDTH
  7
MONOTXT
210
0.0
220
0.0
230
1.0
100
AcDbText
  0
TEXT
  5
452
100
AcDbEntity
  8
1
  6
CONTINUOUS
 62
     7
100
AcDbText
 10
351.3117
 20
11.4042
 30
0.0
 40
3.0
  1
100mm SOLID
  7
MONOTXT
 11
351.3117
 21
14.4042
 31
0.0
210
0.0
220
0.0
230
1.0
100
AcDbText
 73
     3
  0
TEXT
  5
453
100
AcDbEntity
  8
1
  6
CONTINUOUS
 62
     7
100
AcDbText
 10
351.3117
 20
6.0042
 30
0.0
 40
3.0
  1
WHITE
  7
MONOTXT
 11
351.3117
 21
9.0042
 31
0.0
210
0.0
220
0.0
230
1.0
100
AcDbText
 73
     3
  0
TEXT
  5
454
100
AcDbEntity
  8
1
  6
CONTINUOUS
 62
     7
100
AcDbText
 10
351.3117
 20
0.6042
 30
0.0
 40
3.0
  1
EDGE LINE
  7
MONOTXT
 11
351.3117
 21
3.6042
 31
0.0
210
0.0
220
0.0
230
1.0
100
AcDbText
 73
     3
  0
TEXT
  5
455
100
AcDbEntity
  8
1
  6
CONTINUOUS
 62
     7
100
AcDbText
 10
367.0704
 20
23.7956
 30
0.0
 40
3.0
  1
100mm WIDE DOTTED
  7
MONOTXT
 11
367.0704
 21
26.7956
 31
0.0
210
0.0
220
0.0
230
1.0
100
AcDbText
 73
     3
  0
TEXT
  5
456
100
AcDbEntity
  8
1
  6
CONTINUOUS
 62
     7
100
AcDbText
 10
367.0704
 20
18.3956
 30
0.0
 40
3.0
  1
WHITE EDGE LINE
  7
MONOTXT
 11
367.0704
 21
21.3956
 31
0.0
210
0.0
220
0.0
230
1.0
100
AcDbText
 73
     3
  0
LINE
  5
457
100
AcDbEntity
  8
1
  6
CONTINUOUS
 62
     7
100
AcDbLine
 10
398.9182
 20
22.8726
 30
0.0
 11
418.5907
 21
22.8726
 31
0.0
  0
TEXT
  5
458
100
AcDbEntity
  8
1
  6
CONTINUOUS
 62
     7
100
AcDbText
 10
305.8067
 20
-48.7768
 30
0.0
 40
3.0
  1
100mm SOLID YELLOW
  7
MONOTXT
 11
305.8067
 21
-45.7768
 31
0.0
210
0.0
220
0.0
230
1.0
100
AcDbText
 73
     3
  0
TEXT
  5
459
100
AcDbEntity
  8
1
  6
CONTINUOUS
 62
     7
100
AcDbText
 10
305.8067
 20
-54.1768
 30
0.0
 40
3.0
  1
EDGE LINE
  7
MONOTXT
 11
305.8067
 21
-51.1768
 31
0.0
210
0.0
220
0.0
230
1.0
100
AcDbText
 73
     3
  0
TEXT
  5
45A
100
AcDbEntity
  8
1
  6
CONTINUOUS
 62
     7
100
AcDbText
 10
311.5473
 20
-64.0702
 30
0.0
 40
3.0
  1
100mm BROKEN WHITE
  7
MONOTXT
 11
311.5473
 21
-61.0702
 31
0.0
210
0.0
220
0.0
230
1.0
100
AcDbText
 73
     3
  0
TEXT
  5
45B
100
AcDbEntity
  8
1
  6
CONTINUOUS
 62
     7
100
AcDbText
 10
311.5473
 20
-69.4702
 30
0.0
 40
3.0
  1
LANE LINE
  7
MONOTXT
 11
311.5473
 21
-66.4702
 31
0.0
210
0.0
220
0.0
230
1.0
100
AcDbText
 73
     3
  0
TEXT
  5
45C
100
AcDbEntity
  8
1
  6
CONTINUOUS
 62
     7
100
AcDbText
 10
422.8395
 20
-60.5175
 30
0.0
 40
3.0
  1
9m
  7
MONOTXT
210
0.0
220
0.0
230
1.0
100
AcDbText
  0
TEXT
  5
45D
100
AcDbEntity
  8
1
  6
CONTINUOUS
 62
     7
100
AcDbText
 10
395.6031
 20
-63.8783
 30
0.0
 40
3.0
  1
3m
  7
MONOTXT
210
0.0
220
0.0
230
1.0
100
AcDbText
  0
TEXT
  5
45E
100
AcDbEntity
  8
1
  6
CONTINUOUS
 62
     7
100
AcDbText
 10
423.6199
 20
-7.3723
 30
0.0
 40
3.0
  1
0.6m
  7
MONOTXT
210
0.0
220
0.0
230
1.0
100
AcDbText
  0
TEXT
  5
45F
100
AcDbEntity
  8
1
  6
CONTINUOUS
 62
     7
100
AcDbText
 10
393.1281
 20
-7.0512
 30
0.0
 40
3.0
  1
4.0m
  7
MONOTXT
210
0.0
220
0.0
230
1.0
100
AcDbText
  0
TEXT
  5
460
100
AcDbEntity
  8
1
  6
CONTINUOUS
 62
     7
100
AcDbText
 10
446.7518
 20
4.0976
 30
0.0
 40
3.0
  1
3m
  7
MONOTXT
210
0.0
220
0.0
230
1.0
100
AcDbText
  0
TEXT
  5
461
100
AcDbEntity
  8
1
  6
CONTINUOUS
 62
     7
100
AcDbText
 10
457.8925
 20
4.5965
 30
0.0
 40
3.0
  1
9m
  7
MONOTXT
210
0.0
220
0.0
230
1.0
100
AcDbText
  0
TEXT
  5
462
100
AcDbEntity
  8
1
  6
CONTINUOUS
 62
     7
100
AcDbText
 10
452.395
 20
-70.1488
 30
0.0
 40
3.0
  1
150mm TO 200mm SOLID
  7
MONOTXT
 11
452.395
 21
-67.1488
 31
0.0
210
0.0
220
0.0
230
1.0
100
AcDbText
 73
     3
  0
TEXT
  5
463
100
AcDbEntity
  8
1
  6
CONTINUOUS
 62
     7
100
AcDbText
 10
452.395
 20
-75.5488
 30
0.0
 40
3.0
  1
WHITE EDGE LINE
  7
MONOTXT
 11
452.395
 21
-72.5488
 31
0.0
210
0.0
220
0.0
230
1.0
100
AcDbText
 73
     3
  0
TEXT
  5
464
100
AcDbEntity
  8
1
  6
CONTINUOUS
 62
     7
100
AcDbText
 10
521.1321
 20
25.1025
 30
0.0
 40
3.0
  1
100mm SOLID YELLOW
  7
MONOTXT
 11
521.1321
 21
28.1025
 31
0.0
210
0.0
220
0.0
230
1.0
100
AcDbText
 73
     3
  0
TEXT
  5
465
100
AcDbEntity
  8
1
  6
CONTINUOUS
 62
     7
100
AcDbText
 10
521.1321
 20
19.7025
 30
0.0
 40
3.0
  1
EDGE LINE
  7
MONOTXT
 11
521.1321
 21
22.7025
 31
0.0
210
0.0
220
0.0
230
1.0
100
AcDbText
 73
     3
  0
TEXT
  5
466
100
AcDbEntity
  8
1
  6
CONTINUOUS
 62
     7
100
AcDbText
 10
533.3724
 20
-67.6627
 30
0.0
 40
3.0
  1
100mm SOLID
  7
MONOTXT
 11
533.3724
 21
-64.6627
 31
0.0
210
0.0
220
0.0
230
1.0
100
AcDbText
 73
     3
  0
TEXT
  5
467
100
AcDbEntity
  8
1
  6
CONTINUOUS
 62
     7
100
AcDbText
 10
533.3724
 20
-73.0627
 30
0.0
 40
3.0
  1
WHITE
  7
MONOTXT
 11
533.3724
 21
-70.0627
 31
0.0
210
0.0
220
0.0
230
1.0
100
AcDbText
 73
     3
  0
TEXT
  5
468
100
AcDbEntity
  8
1
  6
CONTINUOUS
 62
     7
100
AcDbText
 10
533.3724
 20
-78.4627
 30
0.0
 40
3.0
  1
EDGE LINE
  7
MONOTXT
 11
533.3724
 21
-75.4627
 31
0.0
210
0.0
220
0.0
230
1.0
100
AcDbText
 73
     3
  0
LINE
  5
469
100
AcDbEntity
  8
1
  6
CONTINUOUS
 62
     7
100
AcDbLine
 10
566.4083
 20
-66.2537
 30
0.0
 11
575.8324
 21
-66.2537
 31
0.0
  0
TEXT
  5
46A
100
AcDbEntity
  8
1
  6
CONTINUOUS
 62
     7
100
AcDbText
 10
458.0187
 20
36.2841
 30
0.0
 40
3.0
  1
100mm WIDE BROKEN
  7
MONOTXT
 11
458.0187
 21
39.2841
 31
0.0
210
0.0
220
0.0
230
1.0
100
AcDbText
 73
     3
  0
TEXT
  5
46B
100
AcDbEntity
  8
1
  6
CONTINUOUS
 62
     7
100
AcDbText
 10
458.0187
 20
30.8841
 30
0.0
 40
3.0
  1
WHITE EDGE LINE
  7
MONOTXT
 11
458.0187
 21
33.8841
 31
0.0
210
0.0
220
0.0
230
1.0
100
AcDbText
 73
     3
  0
TEXT
  5
46C
100
AcDbEntity
  8
1
  6
CONTINUOUS
 62
     7
100
AcDbText
 10
18.6389
 20
-117.9881
 30
0.0
 40
3.0
  1
100mm SOLID YELLOW
  7
MONOTXT
 11
18.6389
 21
-114.9881
 31
0.0
210
0.0
220
0.0
230
1.0
100
AcDbText
 73
     3
  0
TEXT
  5
46D
100
AcDbEntity
  8
1
  6
CONTINUOUS
 62
     7
100
AcDbText
 10
18.6389
 20
-123.3881
 30
0.0
 40
3.0
  1
EDGE LINE
  7
MONOTXT
 11
18.6389
 21
-120.3881
 31
0.0
210
0.0
220
0.0
230
1.0
100
AcDbText
 73
     3
  0
TEXT
  5
46E
100
AcDbEntity
  8
1
  6
CONTINUOUS
 62
     7
100
AcDbText
 10
218.9691
 20
-118.8237
 30
0.0
 40
3.0
  1
100mm SOLID
  7
MONOTXT
 11
218.9691
 21
-115.8237
 31
0.0
210
0.0
220
0.0
230
1.0
100
AcDbText
 73
     3
  0
TEXT
  5
46F
100
AcDbEntity
  8
1
  6
CONTINUOUS
 62
     7
100
AcDbText
 10
218.9691
 20
-124.2237
 30
0.0
 40
3.0
  1
WHITE
  7
MONOTXT
 11
218.9691
 21
-121.2237
 31
0.0
210
0.0
220
0.0
230
1.0
100
AcDbText
 73
     3
  0
TEXT
  5
470
100
AcDbEntity
  8
1
  6
CONTINUOUS
 62
     7
100
AcDbText
 10
218.9691
 20
-129.6237
 30
0.0
 40
3.0
  1
EDGE LINE
  7
MONOTXT
 11
218.9691
 21
-126.6237
 31
0.0
210
0.0
220
0.0
230
1.0
100
AcDbText
 73
     3
  0
TEXT
  5
471
100
AcDbEntity
  8
1
  6
CONTINUOUS
 62
     7
100
AcDbText
 10
192.8788
 20
-144.7135
 30
0.0
 40
3.0
  1
100mm WIDE DOTTED
  7
MONOTXT
 11
192.8788
 21
-141.7135
 31
0.0
210
0.0
220
0.0
230
1.0
100
AcDbText
 73
     3
  0
TEXT
  5
472
100
AcDbEntity
  8
1
  6
CONTINUOUS
 62
     7
100
AcDbText
 10
192.8788
 20
-150.1135
 30
0.0
 40
3.0
  1
WHITE EDGE LINE
  7
MONOTXT
 11
192.8788
 21
-147.1135
 31
0.0
210
0.0
220
0.0
230
1.0
100
AcDbText
 73
     3
  0
LINE
  5
473
100
AcDbEntity
  8
1
  6
CONTINUOUS
 62
     7
100
AcDbLine
 10
224.7266
 20
-145.6365
 30
0.0
 11
244.3991
 21
-145.6365
 31
0.0
  0
TEXT
  5
474
100
AcDbEntity
  8
1
  6
CONTINUOUS
 62
     7
100
AcDbText
 10
42.9889
 20
-229.732
 30
0.0
 40
3.0
  1
100mm SOLID
  7
MONOTXT
 11
42.9889
 21
-226.732
 31
0.0
210
0.0
220
0.0
230
1.0
100
AcDbText
 73
     3
  0
TEXT
  5
475
100
AcDbEntity
  8
1
  6
CONTINUOUS
 62
     7
100
AcDbText
 10
42.9889
 20
-235.132
 30
0.0
 40
3.0
  1
WHITE
  7
MONOTXT
 11
42.9889
 21
-232.132
 31
0.0
210
0.0
220
0.0
230
1.0
100
AcDbText
 73
     3
  0
TEXT
  5
476
100
AcDbEntity
  8
1
  6
CONTINUOUS
 62
     7
100
AcDbText
 10
42.9889
 20
-240.532
 30
0.0
 40
3.0
  1
EDGE LINE
  7
MONOTXT
 11
42.9889
 21
-237.532
 31
0.0
210
0.0
220
0.0
230
1.0
100
AcDbText
 73
     3
  0
TEXT
  5
477
100
AcDbEntity
  8
1
  6
CONTINUOUS
 62
     7
100
AcDbText
 10
93.9964
 20
-224.7049
 30
0.0
 40
3.0
  1
150mm TO 200mm SOLID
 41
0.833333
  7
MONOTXT
 11
93.9964
 21
-221.7049
 31
0.0
210
0.0
220
0.0
230
1.0
100
AcDbText
 73
     3
  0
TEXT
  5
478
100
AcDbEntity
  8
1
  6
CONTINUOUS
 62
     7
100
AcDbText
 10
93.9964
 20
-230.1049
 30
0.0
 40
3.0
  1
WHITE EDGE LINE
 41
0.833333
  7
MONOTXT
 11
93.9964
 21
-227.1049
 31
0.0
210
0.0
220
0.0
230
1.0
100
AcDbText
 73
     3
  0
LINE
  5
479
100
AcDbEntity
  8
1
  6
CONTINUOUS
 62
     7
100
AcDbLine
 10
284.7815
 20
-228.4075
 30
0.0
 11
265.6454
 21
-228.4075
 31
0.0
  0
TEXT
  5
47A
100
AcDbEntity
  8
1
  6
CONTINUOUS
 62
     7
100
AcDbText
 10
246.8067
 20
-226.8551
 30
0.0
 40
3.0
  1
100mm BROKEN
  7
MONOTXT
 11
246.8067
 21
-223.8551
 31
0.0
210
0.0
220
0.0
230
1.0
100
AcDbText
 73
     3
  0
TEXT
  5
47B
100
AcDbEntity
  8
1
  6
CONTINUOUS
 62
     7
100
AcDbText
 10
246.8067
 20
-232.2551
 30
0.0
 40
3.0
  1
WHITE LANE LINE
  7
MONOTXT
 11
246.8067
 21
-229.2551
 31
0.0
210
0.0
220
0.0
230
1.0
100
AcDbText
 73
     3
  0
TEXT
  5
47C
100
AcDbEntity
  8
1
  6
CONTINUOUS
 62
     7
100
AcDbText
 10
254.3003
 20
-211.9194
 30
0.0
 40
3.0
  1
100mm SOLID YELLOW
  7
MONOTXT
 11
254.3003
 21
-208.9194
 31
0.0
210
0.0
220
0.0
230
1.0
100
AcDbText
 73
     3
  0
TEXT
  5
47D
100
AcDbEntity
  8
1
  6
CONTINUOUS
 62
     7
100
AcDbText
 10
254.3003
 20
-217.3194
 30
0.0
 40
3.0
  1
EDGE LINE
  7
MONOTXT
 11
254.3003
 21
-214.3194
 31
0.0
210
0.0
220
0.0
230
1.0
100
AcDbText
 73
     3
  0
TEXT
  5
47E
100
AcDbEntity
  8
1
  6
CONTINUOUS
 62
     7
100
AcDbText
 10
129.8808
 20
-157.1562
 30
0.0
 40
3.0
  1
3m
  7
MONOTXT
210
0.0
220
0.0
230
1.0
100
AcDbText
  0
TEXT
  5
47F
100
AcDbEntity
  8
1
  6
CONTINUOUS
 62
     7
100
AcDbText
 10
142.3688
 20
-157.5101
 30
0.0
 40
3.0
  1
9m
  7
MONOTXT
210
0.0
220
0.0
230
1.0
100
AcDbText
  0
TEXT
  5
480
100
AcDbEntity
  8
1
  6
CONTINUOUS
 62
     7
100
AcDbText
 10
209.9082
 20
-166.2689
 30
0.0
 40
3.0
  1
0.6m
  7
MONOTXT
210
0.0
220
0.0
230
1.0
100
AcDbText
  0
TEXT
  5
481
100
AcDbEntity
  8
1
  6
CONTINUOUS
 62
     7
100
AcDbText
 10
182.787
 20
-217.0786
 30
0.0
 40
3.0
  1
9m
  7
MONOTXT
210
0.0
220
0.0
230
1.0
100
AcDbText
  0
TEXT
  5
482
100
AcDbEntity
  8
1
  6
CONTINUOUS
 62
     7
100
AcDbText
 10
195.3369
 20
-217.4402
 30
0.0
 40
3.0
  1
3m
  7
MONOTXT
210
0.0
220
0.0
230
1.0
100
AcDbText
  0
TEXT
  5
483
100
AcDbEntity
  8
1
  6
CONTINUOUS
 62
     7
100
AcDbText
 10
176.1833
 20
-279.6699
 30
0.0
 40
3.0
  1
NOTES:
  7
MONOTXT
 11
176.1833
 21
-276.6699
 31
0.0
210
0.0
220
0.0
230
1.0
100
AcDbText
 73
     3
  0
TEXT
  5
484
100
AcDbEntity
  8
1
  6
CONTINUOUS
 62
     7
100
AcDbText
 10
176.1833
 20
-285.0699
 30
0.0
 40
3.0
  1
 
  7
MONOTXT
 11
176.1833
 21
-282.0699
 31
0.0
210
0.0
220
0.0
230
1.0
100
AcDbText
 73
     3
  0
TEXT
  5
485
100
AcDbEntity
  8
1
  6
CONTINUOUS
 62
     7
100
AcDbText
 10
176.1833
 20
-290.4699
 30
0.0
 40
3.0
  1
1.   MARKER PLACEMENT AT GORES ONLY WHEN SPECIFIED.
  7
MONOTXT
 11
176.1833
 21
-287.4699
 31
0.0
210
0.0
220
0.0
230
1.0
100
AcDbText
 73
     3
  0
TEXT
  5
486
100
AcDbEntity
  8
1
  6
CONTINUOUS
 62
     7
100
AcDbText
 10
176.1833
 20
-295.8699
 30
0.0
 40
3.0
  1
 
  7
MONOTXT
 11
176.1833
 21
-292.8699
 31
0.0
210
0.0
220
0.0
230
1.0
100
AcDbText
 73
     3
  0
TEXT
  5
487
100
AcDbEntity
  8
1
  6
CONTINUOUS
 62
     7
100
AcDbText
 10
176.1833
 20
-301.2699
 30
0.0
 40
3.0
  1
2  THE SPACING BETWEEN MARKERS IN THE GORE AREA
  7
MONOTXT
 11
176.1833
 21
-298.2699
 31
0.0
210
0.0
220
0.0
230
1.0
100
AcDbText
 73
     3
  0
TEXT
  5
488
100
AcDbEntity
  8
1
  6
CONTINUOUS
 62
     7
100
AcDbText
 10
176.1833
 20
-306.6699
 30
0.0
 40
3.0
  1
   SHOULD BE APPROXIMATELY 3.6m APART AND CENTERED
  7
MONOTXT
 11
176.1833
 21
-303.6699
 31
0.0
210
0.0
220
0.0
230
1.0
100
AcDbText
 73
     3
  0
TEXT
  5
489
100
AcDbEntity
  8
1
  6
CONTINUOUS
 62
     7
100
AcDbText
 10
176.1833
 20
-312.0699
 30
0.0
 40
3.0
  1
   BETWEEN THE STRIPES (IF THEY ARE EXISTING).
  7
MONOTXT
 11
176.1833
 21
-309.0699
 31
0.0
210
0.0
220
0.0
230
1.0
100
AcDbText
 73
     3
  0
TEXT
  5
48A
100
AcDbEntity
  8
1
  6
CONTINUOUS
 62
     7
100
AcDbText
 10
176.1833
 20
-317.4699
 30
0.0
 40
3.0
  1
 
  7
MONOTXT
 11
176.1833
 21
-314.4699
 31
0.0
210
0.0
220
0.0
230
1.0
100
AcDbText
 73
     3
  0
TEXT
  5
48B
100
AcDbEntity
  8
1
  6
CONTINUOUS
 62
     7
100
AcDbText
 10
176.1833
 20
-322.8699
 30
0.0
 40
3.0
  1
3.   END MARKERS APPROXIMATELY 6.0m BEYOND EXISTING
  7
MONOTXT
 11
176.1833
 21
-319.8699
 31
0.0
210
0.0
220
0.0
230
1.0
100
AcDbText
 73
     3
  0
TEXT
  5
48C
100
AcDbEntity
  8
1
  6
CONTINUOUS
 62
     7
100
AcDbText
 10
176.1833
 20
-328.2699
 30
0.0
 40
3.0
  1
   EXIT SIGN OR PHYSICAL GORE IF NO SIGN.
  7
MONOTXT
 11
176.1833
 21
-325.2699
 31
0.0
210
0.0
220
0.0
230
1.0
100
AcDbText
 73
     3
  0
TEXT
  5
48D
100
AcDbEntity
  8
1
  6
CONTINUOUS
 62
     7
100
AcDbText
 10
507.5969
 20
-294.6164
 30
0.0
 40
3.0
  1
150mm TO 200mm
  7
MONOTXT
 11
507.5969
 21
-291.6164
 31
0.0
210
0.0
220
0.0
230
1.0
100
AcDbText
 73
     3
  0
TEXT
  5
48E
100
AcDbEntity
  8
1
  6
CONTINUOUS
 62
     7
100
AcDbText
 10
507.5969
 20
-300.0164
 30
0.0
 40
3.0
  1
WHITE EDGE LINE
  7
MONOTXT
 11
507.5969
 21
-297.0164
 31
0.0
210
0.0
220
0.0
230
1.0
100
AcDbText
 73
     3
  0
TEXT
  5
48F
100
AcDbEntity
  8
1
  6
CONTINUOUS
 62
     7
100
AcDbText
 10
507.0081
 20
-332.1515
 30
0.0
 40
3.0
  1
150mm TO 200mm
  7
MONOTXT
 11
507.0081
 21
-329.1515
 31
0.0
210
0.0
220
0.0
230
1.0
100
AcDbText
 73
     3
  0
TEXT
  5
490
100
AcDbEntity
  8
1
  6
CONTINUOUS
 62
     7
100
AcDbText
 10
507.0081
 20
-337.5515
 30
0.0
 40
3.0
  1
WHITE EDGE LINE
  7
MONOTXT
 11
507.0081
 21
-334.5515
 31
0.0
210
0.0
220
0.0
230
1.0
100
AcDbText
 73
     3
  0
TEXT
  5
491
100
AcDbEntity
  8
1
  6
CONTINUOUS
 62
     7
100
AcDbText
 10
342.8584
 20
-275.9393
 30
0.0
 40
3.0
  1
600mm
 50
315.0
  7
MONOTXT
210
0.0
220
0.0
230
1.0
100
AcDbText
  0
TEXT
  5
492
100
AcDbEntity
  8
1
  6
CONTINUOUS
 62
     7
100
AcDbText
 10
339.04
 20
-279.7577
 30
0.0
 40
3.0
  1
WHITE
 50
315.0
  7
MONOTXT
210
0.0
220
0.0
230
1.0
100
AcDbText
  0
TEXT
  5
493
100
AcDbEntity
  8
1
  6
CONTINUOUS
 62
     7
100
AcDbText
 10
335.2216
 20
-283.5761
 30
0.0
 40
3.0
  1
DIAGONAL
 50
315.0
  7
MONOTXT
210
0.0
220
0.0
230
1.0
100
AcDbText
  0
TEXT
  5
494
100
AcDbEntity
  8
1
  6
CONTINUOUS
 62
     7
100
AcDbText
 10
331.4033
 20
-287.3944
 30
0.0
 40
3.0
  1
STRIPES
 50
315.0
  7
MONOTXT
210
0.0
220
0.0
230
1.0
100
AcDbText
  0
TEXT
  5
495
100
AcDbEntity
  8
1
  6
CONTINUOUS
 62
     7
100
AcDbText
 10
393.9365
 20
-164.4801
 30
0.0
 40
3.0
  1
0.6m
  7
MONOTXT
210
0.0
220
0.0
230
1.0
100
AcDbText
  0
TEXT
  5
496
100
AcDbEntity
  8
1
  6
CONTINUOUS
 62
     7
100
AcDbText
 10
365.0177
 20
-163.4887
 30
0.0
 40
1.9999
  1
4.0m
  7
MONOTXT
210
0.0
220
0.0
230
1.0
100
AcDbText
  0
TEXT
  5
497
100
AcDbEntity
  8
1
  6
CONTINUOUS
 62
     7
100
AcDbText
 10
368.5015
 20
-142.5669
 30
0.0
 40
3.0
  1
100mm WIDE DOTTED
  7
MONOTXT
 11
368.5015
 21
-139.5669
 31
0.0
210
0.0
220
0.0
230
1.0
100
AcDbText
 73
     3
  0
TEXT
  5
498
100
AcDbEntity
  8
1
  6
CONTINUOUS
 62
     7
100
AcDbText
 10
368.5015
 20
-147.9669
 30
0.0
 40
3.0
  1
WHITE EDGE LINE
  7
MONOTXT
 11
368.5015
 21
-144.9669
 31
0.0
210
0.0
220
0.0
230
1.0
100
AcDbText
 73
     3
  0
LINE
  5
499
100
AcDbEntity
  8
1
  6
CONTINUOUS
 62
     7
100
AcDbLine
 10
400.3493
 20
-143.4899
 30
0.0
 11
420.0218
 21
-143.4899
 31
0.0
  0
TEXT
  5
49A
100
AcDbEntity
  8
1
  6
CONTINUOUS
 62
     7
100
AcDbText
 10
452.0
 20
-104.3341
 30
0.0
 40
3.0
  1
100mm SOLID
  7
MONOTXT
 11
452.0
 21
-101.3341
 31
0.0
210
0.0
220
0.0
230
1.0
100
AcDbText
 73
     3
  0
TEXT
  5
49B
100
AcDbEntity
  8
1
  6
CONTINUOUS
 62
     7
100
AcDbText
 10
452.0
 20
-109.7341
 30
0.0
 40
3.0
  1
WHITE EDGE LINE
  7
MONOTXT
 11
452.0
 21
-106.7341
 31
0.0
210
0.0
220
0.0
230
1.0
100
AcDbText
 73
     3
  0
TEXT
  5
49C
100
AcDbEntity
  8
1
  6
CONTINUOUS
 62
     7
100
AcDbText
 10
324.4063
 20
-205.8373
 30
0.0
 40
3.0
  1
100mm SOLID
  7
MONOTXT
 11
324.4063
 21
-202.8373
 31
0.0
210
0.0
220
0.0
230
1.0
100
AcDbText
 73
     3
  0
TEXT
  5
49D
100
AcDbEntity
  8
1
  6
CONTINUOUS
 62
     7
100
AcDbText
 10
324.4063
 20
-211.2373
 30
0.0
 40
3.0
  1
YELLOW
  7
MONOTXT
 11
324.4063
 21
-208.2373
 31
0.0
210
0.0
220
0.0
230
1.0
100
AcDbText
 73
     3
  0
TEXT
  5
49E
100
AcDbEntity
  8
1
  6
CONTINUOUS
 62
     7
100
AcDbText
 10
324.4063
 20
-216.6373
 30
0.0
 40
3.0
  1
EDGE LINE
  7
MONOTXT
 11
324.4063
 21
-213.6373
 31
0.0
210
0.0
220
0.0
230
1.0
100
AcDbText
 73
     3
  0
LINE
  5
49F
100
AcDbEntity
  8
1
  6
CONTINUOUS
 62
     7
100
AcDbLine
 10
344.2668
 20
-208.9397
 30
0.0
 11
361.9458
 21
-208.9397
 31
0.0
  0
TEXT
  5
4A0
100
AcDbEntity
  8
1
  6
CONTINUOUS
 62
     7
100
AcDbText
 10
311.1895
 20
-225.0662
 30
0.0
 40
3.0
  1
100mm BROKEN WHITE
  7
MONOTXT
 11
311.1895
 21
-222.0662
 31
0.0
210
0.0
220
0.0
230
1.0
100
AcDbText
 73
     3
  0
TEXT
  5
4A1
100
AcDbEntity
  8
1
  6
CONTINUOUS
 62
     7
100
AcDbText
 10
311.1895
 20
-230.4662
 30
0.0
 40
3.0
  1
EDGE LINE
  7
MONOTXT
 11
311.1895
 21
-227.4662
 31
0.0
210
0.0
220
0.0
230
1.0
100
AcDbText
 73
     3
  0
TEXT
  5
4A2
100
AcDbEntity
  8
1
  6
CONTINUOUS
 62
     7
100
AcDbText
 10
169.9155
 20
-233.9894
 30
0.0
 40
3.0
  1
100mm WIDE BROKEN
  7
MONOTXT
 11
169.9155
 21
-230.9894
 31
0.0
210
0.0
220
0.0
230
1.0
100
AcDbText
 73
     3
  0
TEXT
  5
4A3
100
AcDbEntity
  8
1
  6
CONTINUOUS
 62
     7
100
AcDbText
 10
169.9155
 20
-239.3894
 30
0.0
 40
3.0
  1
WHITE EDGE LINE
  7
MONOTXT
 11
169.9155
 21
-236.3894
 31
0.0
210
0.0
220
0.0
230
1.0
100
AcDbText
 73
     3
  0
LINE
  5
4A4
100
AcDbEntity
  8
1
  6
CONTINUOUS
 62
     7
100
AcDbLine
 10
461.4079
 20
-211.6249
 30
0.0
 11
455.4079
 21
-211.6249
 31
0.0
  0
TEXT
  5
4A5
100
AcDbEntity
  8
1
  6
CONTINUOUS
 62
     7
100
AcDbText
 10
403.4829
 20
-213.2388
 30
0.0
 40
3.0
  1
100mm WIDE BROKEN
  7
MONOTXT
 11
403.4829
 21
-210.2388
 31
0.0
210
0.0
220
0.0
230
1.0
100
AcDbText
 73
     3
  0
TEXT
  5
4A6
100
AcDbEntity
  8
1
  6
CONTINUOUS
 62
     7
100
AcDbText
 10
403.4829
 20
-218.6388
 30
0.0
 40
3.0
  1
WHITE EDGE LINE
  7
MONOTXT
 11
403.4829
 21
-215.6388
 31
0.0
210
0.0
220
0.0
230
1.0
100
AcDbText
 73
     3
  0
TEXT
  5
4A7
100
AcDbEntity
  8
1
  6
CONTINUOUS
 62
     7
100
AcDbText
 10
472.783
 20
-228.9983
 30
0.0
 40
3.0
  1
150mm TO 200mm SOLID
  7
MONOTXT
 11
472.783
 21
-225.9983
 31
0.0
210
0.0
220
0.0
230
1.0
100
AcDbText
 73
     3
  0
TEXT
  5
4A8
100
AcDbEntity
  8
1
  6
CONTINUOUS
 62
     7
100
AcDbText
 10
472.783
 20
-234.3983
 30
0.0
 40
3.0
  1
WHITE EDGE LINE
  7
MONOTXT
 11
472.783
 21
-231.3983
 31
0.0
210
0.0
220
0.0
230
1.0
100
AcDbText
 73
     3
  0
TEXT
  5
4A9
100
AcDbEntity
  8
1
  6
CONTINUOUS
 62
     7
100
AcDbText
 10
527.2129
 20
-103.8731
 30
0.0
 40
3.0
  1
100mm SOLID
  7
MONOTXT
 11
527.2129
 21
-100.8731
 31
0.0
210
0.0
220
0.0
230
1.0
100
AcDbText
 73
     3
  0
TEXT
  5
4AA
100
AcDbEntity
  8
1
  6
CONTINUOUS
 62
     7
100
AcDbText
 10
527.2129
 20
-109.2731
 30
0.0
 40
3.0
  1
YELLOW
  7
MONOTXT
 11
527.2129
 21
-106.2731
 31
0.0
210
0.0
220
0.0
230
1.0
100
AcDbText
 73
     3
  0
TEXT
  5
4AB
100
AcDbEntity
  8
1
  6
CONTINUOUS
 62
     7
100
AcDbText
 10
527.2129
 20
-114.6731
 30
0.0
 40
3.0
  1
EDGE LINE
  7
MONOTXT
 11
527.2129
 21
-111.6731
 31
0.0
210
0.0
220
0.0
230
1.0
100
AcDbText
 73
     3
  0
TEXT
  5
4AC
100
AcDbEntity
  8
1
  6
CONTINUOUS
 62
     7
100
AcDbText
 10
574.2291
 20
-222.5869
 30
0.0
 40
3.0
  1
9m
  7
MONOTXT
210
0.0
220
0.0
230
1.0
100
AcDbText
  0
TEXT
  5
4AD
100
AcDbEntity
  8
1
  6
CONTINUOUS
 62
     7
100
AcDbText
 10
587.0534
 20
-222.191
 30
0.0
 40
3.0
  1
3m
  7
MONOTXT
210
0.0
220
0.0
230
1.0
100
AcDbText
  0
TEXT
  5
4AE
100
AcDbEntity
  8
1
  6
CONTINUOUS
 62
     7
100
AcDbText
 10
587.3216
 20
-214.8568
 30
0.0
 40
3.0
  1
3m
  7
MONOTXT
210
0.0
220
0.0
230
1.0
100
AcDbText
  0
TEXT
  5
4AF
100
AcDbEntity
  8
1
  6
CONTINUOUS
 62
     7
100
AcDbText
 10
369.3751
 20
-125.0847
 30
0.0
 40
3.0
  1
100mm SOLID
  7
MONOTXT
 11
369.3751
 21
-122.0847
 31
0.0
210
0.0
220
0.0
230
1.0
100
AcDbText
 73
     3
  0
TEXT
  5
4B0
100
AcDbEntity
  8
1
  6
CONTINUOUS
 62
     7
100
AcDbText
 10
369.3751
 20
-130.4847
 30
0.0
 40
3.0
  1
WHITE EDGE LINE
  7
MONOTXT
 11
369.3751
 21
-127.4847
 31
0.0
210
0.0
220
0.0
230
1.0
100
AcDbText
 73
     3
  0
TEXT
  5
4B1
100
AcDbEntity
  8
1
  6
CONTINUOUS
 62
     7
100
AcDbText
 10
570.3039
 20
-235.9037
 30
0.0
 40
3.0
  1
100mm SOLID
  7
MONOTXT
 11
570.3039
 21
-232.9037
 31
0.0
210
0.0
220
0.0
230
1.0
100
AcDbText
 73
     3
  0
TEXT
  5
4B2
100
AcDbEntity
  8
1
  6
CONTINUOUS
 62
     7
100
AcDbText
 10
570.3039
 20
-241.3037
 30
0.0
 40
3.0
  1
WHITE EDGE LINE
  7
MONOTXT
 11
570.3039
 21
-238.3037
 31
0.0
210
0.0
220
0.0
230
1.0
100
AcDbText
 73
     3
  0
TEXT
  5
4B3
100
AcDbEntity
  8
1
  6
CONTINUOUS
 62
     7
100
AcDbText
 10
366.7643
 20
-334.8956
 30
0.0
 40
3.0
  1
2.4m TO 3.6m
  7
MONOTXT
 72
     4
 11
384.5281
 21
-333.3956
 31
0.0
210
0.0
220
0.0
230
1.0
100
AcDbText
  0
TEXT
  5
4B4
100
AcDbEntity
  8
1
  6
CONTINUOUS
 62
     7
100
AcDbText
 10
370.3431
 20
-340.2956
 30
0.0
 40
3.0
  1
SEE NOTE 5
  7
MONOTXT
 72
     4
 11
384.5281
 21
-338.7956
 31
0.0
210
0.0
220
0.0
230
1.0
100
AcDbText
  0
ENDSEC
  0
SECTION
  2
OBJECTS
  0
DICTIONARY
  5
19
100
AcDbDictionary
  3
ACAD_GROUP
350
1A
  3
ACAD_MLINESTYLE
350
1B
  0
DICTIONARY
  5
1A
102
{ACAD_REACTORS
330
19
102
}
100
AcDbDictionary
  0
DICTIONARY
  5
1B
102
{ACAD_REACTORS
330
19
102
}
100
AcDbDictionary
  3
STANDARD
350
1C
  0
MLINESTYLE
  5
1C
102
{ACAD_REACTORS
330
1B
102
}
100
AcDbMlineStyle
  2
STANDARD
 70
     0
  3

 62
     0
 51
90.0
 52
90.0
 71
     2
 49
0.5
 62
   256
  6
BYLAYER
 49
-0.5
 62
   256
  6
BYLAYER
  0
ENDSEC
  0
EOF
