  0
SECTION
  2
HEADER
  9
$ACADVER
  1
AC1014
  9
$ACADMAINTVER
 70
     0
  9
$DWGCODEPAGE
  3
ANSI_1252
  9
$INSBASE
 10
0.0
 20
0.0
 30
0.0
  9
$EXTMIN
 10
-89.9199
 20
-1135.4877
 30
0.0
  9
$EXTMAX
 10
765.0801
 20
-591.9877
 30
0.0
  9
$LIMMIN
 10
0.0
 20
0.0
  9
$LIMMAX
 10
12.0
 20
9.0
  9
$ORTHOMODE
 70
     0
  9
$REGENMODE
 70
     1
  9
$FILLMODE
 70
     1
  9
$QTEXTMODE
 70
     0
  9
$MIRRTEXT
 70
     1
  9
$DRAGMODE
 70
     2
  9
$LTSCALE
 40
1.0
  9
$OSMODE
 70
     0
  9
$ATTMODE
 70
     1
  9
$TEXTSIZE
 40
0.2
  9
$TRACEWID
 40
0.05
  9
$TEXTSTYLE
  7
STANDARD
  9
$CLAYER
  8
0
  9
$CELTYPE
  6
CONTINUOUS
  9
$CECOLOR
 62
   256
  9
$CELTSCALE
 40
1.0
  9
$DELOBJ
 70
     1
  9
$DISPSILH
 70
     0
  9
$DIMSCALE
 40
1.0
  9
$DIMASZ
 40
0.18
  9
$DIMEXO
 40
0.0625
  9
$DIMDLI
 40
0.38
  9
$DIMRND
 40
0.0
  9
$DIMDLE
 40
0.0
  9
$DIMEXE
 40
0.18
  9
$DIMTP
 40
0.0
  9
$DIMTM
 40
0.0
  9
$DIMTXT
 40
0.18
  9
$DIMCEN
 40
0.09
  9
$DIMTSZ
 40
0.0
  9
$DIMTOL
 70
     0
  9
$DIMLIM
 70
     0
  9
$DIMTIH
 70
     1
  9
$DIMTOH
 70
     1
  9
$DIMSE1
 70
     0
  9
$DIMSE2
 70
     0
  9
$DIMTAD
 70
     0
  9
$DIMZIN
 70
     0
  9
$DIMBLK
  1

  9
$DIMASO
 70
     1
  9
$DIMSHO
 70
     1
  9
$DIMPOST
  1

  9
$DIMAPOST
  1

  9
$DIMALT
 70
     0
  9
$DIMALTD
 70
     2
  9
$DIMALTF
 40
25.4
  9
$DIMLFAC
 40
1.0
  9
$DIMTOFL
 70
     0
  9
$DIMTVP
 40
0.0
  9
$DIMTIX
 70
     0
  9
$DIMSOXD
 70
     0
  9
$DIMSAH
 70
     0
  9
$DIMBLK1
  1

  9
$DIMBLK2
  1

  9
$DIMSTYLE
  2
STANDARD
  9
$DIMCLRD
 70
     0
  9
$DIMCLRE
 70
     0
  9
$DIMCLRT
 70
     0
  9
$DIMTFAC
 40
1.0
  9
$DIMGAP
 40
0.09
  9
$DIMJUST
 70
     0
  9
$DIMSD1
 70
     0
  9
$DIMSD2
 70
     0
  9
$DIMTOLJ
 70
     1
  9
$DIMTZIN
 70
     0
  9
$DIMALTZ
 70
     0
  9
$DIMALTTZ
 70
     0
  9
$DIMFIT
 70
     3
  9
$DIMUPT
 70
     0
  9
$DIMUNIT
 70
     2
  9
$DIMDEC
 70
     4
  9
$DIMTDEC
 70
     4
  9
$DIMALTU
 70
     2
  9
$DIMALTTD
 70
     2
  9
$DIMTXSTY
  7
STANDARD
  9
$DIMAUNIT
 70
     0
  9
$LUNITS
 70
     2
  9
$LUPREC
 70
     4
  9
$SKETCHINC
 40
0.1
  9
$FILLETRAD
 40
0.0
  9
$AUNITS
 70
     0
  9
$AUPREC
 70
     0
  9
$MENU
  1
acad
  9
$ELEVATION
 40
0.0
  9
$PELEVATION
 40
0.0
  9
$THICKNESS
 40
0.0
  9
$LIMCHECK
 70
     0
  9
$BLIPMODE
 70
     1
  9
$CHAMFERA
 40
0.0
  9
$CHAMFERB
 40
0.0
  9
$CHAMFERC
 40
0.0
  9
$CHAMFERD
 40
0.0
  9
$SKPOLY
 70
     0
  9
$TDCREATE
 40
2451813.695787037
  9
$TDUPDATE
 40
2451813.695787037
  9
$TDINDWG
 40
0.0000000000
  9
$TDUSRTIMER
 40
0.0000000000
  9
$USRTIMER
 70
     1
  9
$ANGBASE
 50
0.0
  9
$ANGDIR
 70
     0
  9
$PDMODE
 70
     0
  9
$PDSIZE
 40
0.0
  9
$PLINEWID
 40
0.0
  9
$COORDS
 70
     0
  9
$SPLFRAME
 70
     0
  9
$SPLINETYPE
 70
     6
  9
$SPLINESEGS
 70
    10
  9
$ATTDIA
 70
     0
  9
$ATTREQ
 70
     1
  9
$HANDLING
 70
     1
  9
$HANDSEED
  5
732
  9
$SURFTAB1
 70
     6
  9
$SURFTAB2
 70
     6
  9
$SURFTYPE
 70
     6
  9
$SURFU
 70
     6
  9
$SURFV
 70
     6
  9
$UCSNAME
  2

  9
$UCSORG
 10
0.0
 20
0.0
 30
0.0
  9
$UCSXDIR
 10
1.0
 20
0.0
 30
0.0
  9
$UCSYDIR
 10
0.0
 20
1.0
 30
0.0
  9
$PUCSNAME
  2

  9
$PUCSORG
 10
0.0
 20
0.0
 30
0.0
  9
$PUCSXDIR
 10
1.0
 20
0.0
 30
0.0
  9
$PUCSYDIR
 10
0.0
 20
1.0
 30
0.0
  9
$USERI1
 70
     0
  9
$USERI2
 70
     0
  9
$USERI3
 70
     0
  9
$USERI4
 70
     0
  9
$USERI5
 70
     0
  9
$USERR1
 40
0.0
  9
$USERR2
 40
0.0
  9
$USERR3
 40
0.0
  9
$USERR4
 40
0.0
  9
$USERR5
 40
0.0
  9
$WORLDVIEW
 70
     1
  9
$SHADEDGE
 70
     3
  9
$SHADEDIF
 70
    70
  9
$TILEMODE
 70
     1
  9
$MAXACTVP
 70
    16
  9
$PINSBASE
 10
0.0
 20
0.0
 30
0.0
  9
$PLIMCHECK
 70
     0
  9
$PEXTMIN
 10
-1.000000E+20
 20
-1.000000E+20
 30
-1.000000E+20
  9
$PEXTMAX
 10
-1.000000E+20
 20
-1.000000E+20
 30
-1.000000E+20
  9
$PLIMMIN
 10
0.0
 20
0.0
  9
$PLIMMAX
 10
12.0
 20
9.0
  9
$UNITMODE
 70
     0
  9
$VISRETAIN
 70
     0
  9
$PLINEGEN
 70
     1
  9
$PSLTSCALE
 70
     0
  9
$TREEDEPTH
 70
  3020
  9
$PICKSTYLE
 70
     1
  9
$CMLSTYLE
  2
STANDARD
  9
$CMLJUST
 70
     0
  9
$CMLSCALE
 40
1.0
  9
$PROXYGRAPHICS
 70
     0
  9
$MEASUREMENT
 70
     0
  0
ENDSEC
  0
SECTION
  2
CLASSES
  0
CLASS
  1
LWPOLYLINE
  2
AcDbPolyline
  3
"AutoCAD"
 90
        0
280
     0
281
     1
  0
CLASS
  1
IMAGE
  2
AcDbRasterImage
  3
ISM
 90
      127
280
     0
281
     1
  0
CLASS
  1
OLE2FRAME
  2
AcDbOle2Frame
  3
""
 90
        0
280
     0
281
     1
  0
CLASS
  1
HATCH
  2
AcDbHatch
  3
"ACAD_SEDONA"
 90
        0
280
     0
281
     1
  0
CLASS
  1
DICTIONARYVAR
  2
AcDbDictionaryVar
  3
"AutoCAD"
 90
        0
280
     0
281
     0
  0
CLASS
  1
RASTERVARIABLES
  2
AcDbRasterVariables
  3
ISM
 90
        0
280
     0
281
     0
  0
CLASS
  1
IMAGEDEF
  2
AcDbRasterImageDef
  3
ISM
 90
        0
280
     0
281
     0
  0
CLASS
  1
IMAGEDEF_REACTOR
  2
AcDbRasterImageDefReactor
  3
ISM
 90
        1
280
     0
281
     0
  0
CLASS
  1
IDBUFFER
  2
AcDbIdBuffer
  3
"Acad"
 90
        0
280
     0
281
     0
  0
CLASS
  1
SPATIAL_FILTER
  2
AcDbSpatialFilter
  3
"Acad"
 90
        0
280
     0
281
     0
  0
CLASS
  1
XRECORD
  2
AcDbXrecord
  3
"<Built In>"
 90
        0
280
     0
281
     0
  0
CLASS
  1
SORTENTSTABLE
  2
AcDbSortentsTable
  3
"AutoCAD"
 90
        0
280
     0
281
     0
  0
CLASS
  1
LAYER_INDEX
  2
AcDbLayerIndex
  3
"Acad"
 90
        0
280
     0
281
     0
  0
CLASS
  1
SPATIAL_INDEX
  2
AcDbSpatialIndex
  3
"Acad"
 90
        0
280
     0
281
     0
  0
CLASS
  1
OBJECT_PTR
  2
CAseDLPNTableRecord
  3
"ASE-LPNTableRecord"
 90
        1
280
     0
281
     0
  0
ENDSEC
  0
SECTION
  2
TABLES
  0
TABLE
  2
VPORT
  5
7
100
AcDbSymbolTable
 70
     1
  0
VPORT
  5
731
100
AcDbSymbolTableRecord
100
AcDbViewportTableRecord
  2
*ACTIVE
 70
     0
 10
0.0
 20
0.0
 11
1.0
 21
1.0
 12
0.0
 22
0.0
 13
0.0
 23
0.0
 14
0.0
 24
0.0
 15
0.0
 25
0.0
 16
0.0
 26
0.0
 36
1.0
 17
313.030164
 27
-863.7377
 37
0.0
 40
565.24
 41
1.542429
 42
50.0
 43
0.0
 44
0.0
 50
0.0
 51
0.0
 71
     0
 72
   100
 73
     1
 74
     0
 75
     0
 76
     0
 77
     0
 78
     0
  0
ENDTAB
  0
TABLE
  2
LTYPE
  5
4
100
AcDbSymbolTable
 70
     9
  0
LTYPE
  5
11
100
AcDbSymbolTableRecord
100
AcDbLinetypeTableRecord
  2
BYBLOCK
 70
     0
  3

 72
    65
 73
     0
 40
0.0
  0
LTYPE
  5
12
100
AcDbSymbolTableRecord
100
AcDbLinetypeTableRecord
  2
BYLAYER
 70
     0
  3

 72
    65
 73
     0
 40
0.0
  0
LTYPE
  5
13
100
AcDbSymbolTableRecord
100
AcDbLinetypeTableRecord
  2
CONTINUOUS
 70
     0
  3
Solid line
 72
    65
 73
     0
 40
0.0
  0
LTYPE
  5
22
102
{ACAD_XDICTIONARY
360
2100000000000000
102
}
100
AcDbSymbolTableRecord
100
AcDbLinetypeTableRecord
  2
DOT
 70
    64
  3
. . . . . . . . . . . . . . . . . . . . . . . . . . . . . . . . .
 72
    65
 73
     2
 40
0.25
 49
0.0
 74
     0
 49
-0.25
 74
     0
  0
LTYPE
  5
23
102
{ACAD_XDICTIONARY
360
2100000000000000
102
}
100
AcDbSymbolTableRecord
100
AcDbLinetypeTableRecord
  2
HIDDEN
 70
    64
  3
__ __ __ __ __ __ __ __ __ __ __ __ __ __ __ __ __ __ __ __ __ 
 72
    65
 73
     2
 40
0.375
 49
0.25
 74
     0
 49
-0.125
 74
     0
  0
LTYPE
  5
24
102
{ACAD_XDICTIONARY
360
2100000000000000
102
}
100
AcDbSymbolTableRecord
100
AcDbLinetypeTableRecord
  2
DASHED
 70
    64
  3
__ __ __ __ __ __ __ __ __ __ __ __ __ __ __ __ __ __ __ __ __
 72
    65
 73
     2
 40
0.75
 49
0.5
 74
     0
 49
-0.25
 74
     0
  0
LTYPE
  5
25
102
{ACAD_XDICTIONARY
360
2100000000000000
102
}
100
AcDbSymbolTableRecord
100
AcDbLinetypeTableRecord
  2
DASHDOT
 70
    64
  3
__ . __ . __ . __ . __ . __ . __ . __ . __ . __ . __ . __ . _
 72
    65
 73
     4
 40
1.0
 49
0.5
 74
     0
 49
-0.25
 74
     0
 49
0.0
 74
     0
 49
-0.25
 74
     0
  0
LTYPE
  5
26
102
{ACAD_XDICTIONARY
360
2100000000000000
102
}
100
AcDbSymbolTableRecord
100
AcDbLinetypeTableRecord
  2
DIVIDE
 70
    64
  3
____ . . ____ . . ____ . . ____ . . ____ . . ____ . . ____ . .
 72
    65
 73
     6
 40
1.25
 49
0.5
 74
     0
 49
-0.25
 74
     0
 49
0.0
 74
     0
 49
-0.25
 74
     0
 49
0.0
 74
     0
 49
-0.25
 74
     0
  0
LTYPE
  5
27
102
{ACAD_XDICTIONARY
360
2100000000000000
102
}
100
AcDbSymbolTableRecord
100
AcDbLinetypeTableRecord
  2
CENTER
 70
    64
  3
____ _ ____ _ ____ _ ____ _ ____ _ ____ _ ____ _ ____ _ ____ _
 72
    65
 73
     4
 40
2.0
 49
1.25
 74
     0
 49
-0.25
 74
     0
 49
0.25
 74
     0
 49
-0.25
 74
     0
  0
ENDTAB
  0
TABLE
  2
LAYER
  5
2
100
AcDbSymbolTable
 70
     5
  0
LAYER
  5
14
102
{ACAD_XDICTIONARY
360
5F205F5F5F5F205F
102
}
100
AcDbSymbolTableRecord
100
AcDbLayerTableRecord
  2
0
 70
     0
 62
     7
  6
CONTINUOUS
  0
LAYER
  5
1E
102
{ACAD_XDICTIONARY
360
5F205F5F5F5F205F
102
}
100
AcDbSymbolTableRecord
100
AcDbLayerTableRecord
  2
CONSTRUCTION_CLASS
 70
    64
 62
     7
  6
CONTINUOUS
  0
LAYER
  5
2A
102
{ACAD_XDICTIONARY
360
5F205F5F5F5F205F
102
}
100
AcDbSymbolTableRecord
100
AcDbLayerTableRecord
  2
61
 70
    64
 62
     7
  6
CONTINUOUS
  0
LAYER
  5
2D
102
{ACAD_XDICTIONARY
360
5F205F5F5F5F205F
102
}
100
AcDbSymbolTableRecord
100
AcDbLayerTableRecord
  2
1
 70
    64
 62
     7
  6
CONTINUOUS
  0
LAYER
  5
484
102
{ACAD_XDICTIONARY
360
5F205F5F5F5F205F
102
}
100
AcDbSymbolTableRecord
100
AcDbLayerTableRecord
  2
4
 70
    64
 62
     7
  6
CONTINUOUS
  0
ENDTAB
  0
TABLE
  2
STYLE
  5
3
100
AcDbSymbolTable
 70
     4
  0
STYLE
  5
17
100
AcDbSymbolTableRecord
100
AcDbTextStyleTableRecord
  2
STANDARD
 70
     0
 40
0.0
 41
1.0
 50
0.0
 71
     0
 42
0.0
  3
txt
  4

  0
STYLE
  5
2B
100
AcDbSymbolTableRecord
100
AcDbTextStyleTableRecord
  2
MONOTXT
 70
     0
 40
0.2
 41
1.0
 50
0.0
 71
     0
 42
0.2
  3
MONOTXT
  4

  0
STYLE
  5
37
100
AcDbSymbolTableRecord
100
AcDbTextStyleTableRecord
  2
TXT
 70
     0
 40
0.2
 41
1.0
 50
0.0
 71
     0
 42
0.2
  3
TXT
  4

  0
STYLE
  5
656
100
AcDbSymbolTableRecord
100
AcDbTextStyleTableRecord
  2
ROMANT
 70
     0
 40
0.2
 41
1.0
 50
0.0
 71
     0
 42
0.2
  3
ROMANT
  4

  0
ENDTAB
  0
TABLE
  2
VIEW
  5
5
100
AcDbSymbolTable
 70
     0
  0
ENDTAB
  0
TABLE
  2
UCS
  5
6
100
AcDbSymbolTable
 70
     0
  0
ENDTAB
  0
TABLE
  2
APPID
  5
8
100
AcDbSymbolTable
 70
     1
  0
APPID
  5
16
100
AcDbSymbolTableRecord
100
AcDbRegAppTableRecord
  2
ACAD
 70
     0
  0
ENDTAB
  0
TABLE
  2
DIMSTYLE
  5
9
100
AcDbSymbolTable
 70
     1
  0
DIMSTYLE
105
18
100
AcDbSymbolTableRecord
100
AcDbDimStyleTableRecord
  2
STANDARD
 70
     0
  3

  4

  5

  6

  7

 40
1.0
 41
0.18
 42
0.0625
 43
0.38
 44
0.18
 45
0.0
 46
0.0
 47
0.0
 48
0.0
140
0.18
141
0.09
142
0.0
143
25.4
144
1.0
145
0.0
146
1.0
147
0.09
 71
     0
 72
     0
 73
     1
 74
     1
 75
     0
 76
     0
 77
     0
 78
     0
170
     0
171
     2
172
     0
173
     0
174
     0
175
     0
176
     0
177
     0
178
     0
270
     2
271
     4
272
     4
273
     2
274
     2
340
17
275
     0
280
     0
281
     0
282
     0
283
     1
284
     0
285
     0
286
     0
287
     0
288
     0
  0
ENDTAB
  0
TABLE
  2
BLOCK_RECORD
  5
1
100
AcDbSymbolTable
 70
     6
  0
BLOCK_RECORD
  5
A
100
AcDbSymbolTableRecord
100
AcDbBlockTableRecord
  2
*MODEL_SPACE
  0
BLOCK_RECORD
  5
B
100
AcDbSymbolTableRecord
100
AcDbBlockTableRecord
  2
*PAPER_SPACE
  0
BLOCK_RECORD
  5
77
102
{ACAD_XDICTIONARY
360
59D4002400000000
102
}
100
AcDbSymbolTableRecord
100
AcDbBlockTableRecord
  2
LDR
  0
BLOCK_RECORD
  5
3C8
102
{ACAD_XDICTIONARY
360
59D4002400000000
102
}
100
AcDbSymbolTableRecord
100
AcDbBlockTableRecord
  2
LTAR
  0
BLOCK_RECORD
  5
3DC
102
{ACAD_XDICTIONARY
360
59D4002400000000
102
}
100
AcDbSymbolTableRecord
100
AcDbBlockTableRecord
  2
STLTAR
  0
BLOCK_RECORD
  5
485
102
{ACAD_XDICTIONARY
360
59D4002400000000
102
}
100
AcDbSymbolTableRecord
100
AcDbBlockTableRecord
  2
1SPT
  0
BLOCK_RECORD
  5
619
102
{ACAD_XDICTIONARY
360
59D4002400000000
102
}
100
AcDbSymbolTableRecord
100
AcDbBlockTableRecord
  2
MTSD97
  0
BLOCK_RECORD
  5
66A
102
{ACAD_XDICTIONARY
360
59D4002400000000
102
}
100
AcDbSymbolTableRecord
100
AcDbBlockTableRecord
  2
PT
  0
ENDTAB
  0
ENDSEC
  0
SECTION
  2
BLOCKS
  0
BLOCK
  5
D
100
AcDbEntity
  8
0
100
AcDbBlockBegin
  2
*MODEL_SPACE
 70
     0
 10
0.0
 20
0.0
 30
0.0
  3
*MODEL_SPACE
  1

  0
ENDBLK
  5
E
100
AcDbEntity
  8
0
100
AcDbBlockEnd
  0
BLOCK
  5
F
100
AcDbEntity
 67
     1
  8
0
100
AcDbBlockBegin
  2
*PAPER_SPACE
 70
     0
 10
0.0
 20
0.0
 30
0.0
  3
*PAPER_SPACE
  1

  0
ENDBLK
  5
10
100
AcDbEntity
 67
     1
  8
0
100
AcDbBlockEnd
  0
BLOCK
  5
78
100
AcDbEntity
  8
1
  6
CONTINUOUS
 62
     1
100
AcDbBlockBegin
  2
LDR
 70
     0
 10
0.0
 20
0.0
 30
0.0
  3
LNR
  1

  0
ELLIPSE
  5
79
100
AcDbEntity
  8
1
  6
CONTINUOUS
 62
     1
100
AcDbEllipse
 10
-0.005456
 20
-0.001381
 30
0.0
 11
0.0089285005245725
 21
0.0007807495822354
 31
0.0
210
0.0
220
0.0
230
1.0
 40
0.122415
 41
0.8963533496766982
 42
3.1415926535897931
  0
ELLIPSE
  5
7A
100
AcDbEntity
  8
1
  6
CONTINUOUS
 62
     1
100
AcDbEllipse
 10
-0.005603
 20
0.001058
 30
0.0
 11
0.0087822505870313
 21
-0.0008782506330047
 31
0.0
210
0.0
220
0.0
230
1.0
 40
0.07063
 41
3.1407147529760402
 42
5.4181099545465106
  0
ENDBLK
  5
7B
100
AcDbEntity
  8
1
  6
CONTINUOUS
 62
     1
100
AcDbBlockEnd
  0
BLOCK
  5
3C9
100
AcDbEntity
  8
1
  6
CONTINUOUS
 62
     1
100
AcDbBlockBegin
  2
LTAR
 70
     0
 10
0.0
 20
0.0
 30
0.0
  3
LTAR
  1

  0
POLYLINE
  5
3CA
100
AcDbEntity
  8
1
  6
CONTINUOUS
 62
     1
100
AcDb2dPolyline
 66
     1
 10
0.0
 20
0.0
 30
0.0
  0
VERTEX
  5
3CB
100
AcDbEntity
  8
1
  6
CONTINUOUS
 62
     1
100
AcDbVertex
100
AcDb2dVertex
 10
0.0
 20
0.0
 30
0.0
  0
VERTEX
  5
3CC
100
AcDbEntity
  8
1
  6
CONTINUOUS
 62
     1
100
AcDbVertex
100
AcDb2dVertex
 10
-0.0041
 20
-0.003
 30
0.0
  0
VERTEX
  5
3CD
100
AcDbEntity
  8
1
  6
CONTINUOUS
 62
     1
100
AcDbVertex
100
AcDb2dVertex
 10
-0.0008
 20
-0.0067
 30
0.0
  0
VERTEX
  5
3CE
100
AcDbEntity
  8
1
  6
CONTINUOUS
 62
     1
100
AcDbVertex
100
AcDb2dVertex
 10
-0.0008
 20
-0.0038
 30
0.0
  0
VERTEX
  5
3CF
100
AcDbEntity
  8
1
  6
CONTINUOUS
 62
     1
100
AcDbVertex
100
AcDb2dVertex
 10
0.0008
 20
-0.004
 30
0.0
 42
-0.334788
  0
VERTEX
  5
3D0
100
AcDbEntity
  8
1
  6
CONTINUOUS
 62
     1
100
AcDbVertex
100
AcDb2dVertex
 10
0.0024
 20
-0.0066
 30
0.0
  0
VERTEX
  5
3D1
100
AcDbEntity
  8
1
  6
CONTINUOUS
 62
     1
100
AcDbVertex
100
AcDb2dVertex
 10
0.0024
 20
-0.0091
 30
0.0
  0
VERTEX
  5
3D2
100
AcDbEntity
  8
1
  6
CONTINUOUS
 62
     1
100
AcDbVertex
100
AcDb2dVertex
 10
0.0034
 20
-0.0091
 30
0.0
  0
VERTEX
  5
3D3
100
AcDbEntity
  8
1
  6
CONTINUOUS
 62
     1
100
AcDbVertex
100
AcDb2dVertex
 10
0.0034
 20
-0.0066
 30
0.0
  0
VERTEX
  5
3D4
100
AcDbEntity
  8
1
  6
CONTINUOUS
 62
     1
100
AcDbVertex
100
AcDb2dVertex
 10
0.0033
 20
-0.0045
 30
0.0
 42
0.431544
  0
VERTEX
  5
3D5
100
AcDbEntity
  8
1
  6
CONTINUOUS
 62
     1
100
AcDbVertex
100
AcDb2dVertex
 10
0.0008
 20
-0.0026
 30
0.0
  0
VERTEX
  5
3D6
100
AcDbEntity
  8
1
  6
CONTINUOUS
 62
     1
100
AcDbVertex
100
AcDb2dVertex
 10
0.0014
 20
-0.0026
 30
0.0
  0
VERTEX
  5
3D7
100
AcDbEntity
  8
1
  6
CONTINUOUS
 62
     1
100
AcDbVertex
100
AcDb2dVertex
 10
-0.0007
 20
-0.0023
 30
0.0
  0
VERTEX
  5
3D8
100
AcDbEntity
  8
1
  6
CONTINUOUS
 62
     1
100
AcDbVertex
100
AcDb2dVertex
 10
0.0
 20
0.0
 30
0.0
  0
SEQEND
  5
3D9
100
AcDbEntity
  8
1
  6
CONTINUOUS
 62
     1
  0
ENDBLK
  5
3DA
100
AcDbEntity
  8
1
  6
CONTINUOUS
 62
     1
100
AcDbBlockEnd
  0
BLOCK
  5
3DD
100
AcDbEntity
  8
1
  6
CONTINUOUS
 62
     1
100
AcDbBlockBegin
  2
STLTAR
 70
     0
 10
0.0
 20
0.0
 30
0.0
  3
STLTAR
  1

  0
POLYLINE
  5
3DE
100
AcDbEntity
  8
1
  6
CONTINUOUS
 62
     1
100
AcDb2dPolyline
 66
     1
 10
0.0
 20
0.0
 30
0.0
  0
VERTEX
  5
3DF
100
AcDbEntity
  8
1
  6
CONTINUOUS
 62
     1
100
AcDbVertex
100
AcDb2dVertex
 10
-0.0005
 20
0.0135
 30
0.0
  0
VERTEX
  5
3E0
100
AcDbEntity
  8
1
  6
CONTINUOUS
 62
     1
100
AcDbVertex
100
AcDb2dVertex
 10
-0.0025
 20
0.0082
 30
0.0
  0
VERTEX
  5
3E1
100
AcDbEntity
  8
1
  6
CONTINUOUS
 62
     1
100
AcDbVertex
100
AcDb2dVertex
 10
-0.001
 20
0.0088
 30
0.0
  0
VERTEX
  5
3E2
100
AcDbEntity
  8
1
  6
CONTINUOUS
 62
     1
100
AcDbVertex
100
AcDb2dVertex
 10
-0.001
 20
0.006134
 30
0.0
 42
0.102607
  0
VERTEX
  5
3E3
100
AcDbEntity
  8
1
  6
CONTINUOUS
 62
     1
100
AcDbVertex
100
AcDb2dVertex
 10
-0.0018
 20
0.0065
 30
0.0
  0
VERTEX
  5
3E4
100
AcDbEntity
  8
1
  6
CONTINUOUS
 62
     1
100
AcDbVertex
100
AcDb2dVertex
 10
-0.0041
 20
0.0068
 30
0.0
  0
VERTEX
  5
3E5
100
AcDbEntity
  8
1
  6
CONTINUOUS
 62
     1
100
AcDbVertex
100
AcDb2dVertex
 10
-0.0034
 20
0.0091
 30
0.0
  0
VERTEX
  5
3E6
100
AcDbEntity
  8
1
  6
CONTINUOUS
 62
     1
100
AcDbVertex
100
AcDb2dVertex
 10
-0.0075
 20
0.0061
 30
0.0
  0
VERTEX
  5
3E7
100
AcDbEntity
  8
1
  6
CONTINUOUS
 62
     1
100
AcDbVertex
100
AcDb2dVertex
 10
-0.0042
 20
0.0024
 30
0.0
  0
VERTEX
  5
3E8
100
AcDbEntity
  8
1
  6
CONTINUOUS
 62
     1
100
AcDbVertex
100
AcDb2dVertex
 10
-0.0042
 20
0.0053
 30
0.0
  0
VERTEX
  5
3E9
100
AcDbEntity
  8
1
  6
CONTINUOUS
 62
     1
100
AcDbVertex
100
AcDb2dVertex
 10
-0.0026
 20
0.0051
 30
0.0
 42
-0.334788
  0
VERTEX
  5
3EA
100
AcDbEntity
  8
1
  6
CONTINUOUS
 62
     1
100
AcDbVertex
100
AcDb2dVertex
 10
-0.001
 20
0.0025
 30
0.0
  0
VERTEX
  5
3EB
100
AcDbEntity
  8
1
  6
CONTINUOUS
 62
     1
100
AcDbVertex
100
AcDb2dVertex
 10
-0.001
 20
0.0
 30
0.0
  0
VERTEX
  5
3EC
100
AcDbEntity
  8
1
  6
CONTINUOUS
 62
     1
100
AcDbVertex
100
AcDb2dVertex
 10
0.0
 20
0.0
 30
0.0
  0
VERTEX
  5
3ED
100
AcDbEntity
  8
1
  6
CONTINUOUS
 62
     1
100
AcDbVertex
100
AcDb2dVertex
 10
0.0
 20
0.0025
 30
0.0
  0
VERTEX
  5
3EE
100
AcDbEntity
  8
1
  6
CONTINUOUS
 62
     1
100
AcDbVertex
100
AcDb2dVertex
 10
0.0
 20
0.0
 30
0.0
  0
VERTEX
  5
3EF
100
AcDbEntity
  8
1
  6
CONTINUOUS
 62
     1
100
AcDbVertex
100
AcDb2dVertex
 10
0.0
 20
0.0088
 30
0.0
  0
VERTEX
  5
3F0
100
AcDbEntity
  8
1
  6
CONTINUOUS
 62
     1
100
AcDbVertex
100
AcDb2dVertex
 10
0.0015
 20
0.0082
 30
0.0
  0
VERTEX
  5
3F1
100
AcDbEntity
  8
1
  6
CONTINUOUS
 62
     1
100
AcDbVertex
100
AcDb2dVertex
 10
-0.0005
 20
0.0135
 30
0.0
  0
SEQEND
  5
3F2
100
AcDbEntity
  8
1
  6
CONTINUOUS
 62
     1
  0
ENDBLK
  5
3F3
100
AcDbEntity
  8
1
  6
CONTINUOUS
 62
     1
100
AcDbBlockEnd
  0
BLOCK
  5
486
100
AcDbEntity
  8
4
  6
CONTINUOUS
 62
     1
100
AcDbBlockBegin
  2
1SPT
 70
     0
 10
0.0
 20
0.0
 30
0.0
  3
1SPT
  1

  0
LINE
  5
487
100
AcDbEntity
  8
4
  6
CONTINUOUS
 62
     1
100
AcDbLine
 10
-0.008
 20
-0.002
 30
0.0
 11
0.008
 21
-0.002
 31
0.0
  0
CIRCLE
  5
488
100
AcDbEntity
  8
4
  6
CONTINUOUS
 62
     1
100
AcDbCircle
 10
0.0
 20
0.0
 30
0.0
 40
0.00205
210
0.0
220
0.0
230
1.0
  0
ENDBLK
  5
489
100
AcDbEntity
  8
4
  6
CONTINUOUS
 62
     1
100
AcDbBlockEnd
  0
BLOCK
  5
61A
100
AcDbEntity
  8
1
  6
CONTINUOUS
 62
     2
100
AcDbBlockBegin
  2
MTSD97
 70
     0
 10
0.0
 20
0.0
 30
0.0
  3
MTSD97
  1

  0
LINE
  5
61B
100
AcDbEntity
  8
61
  6
CONTINUOUS
 62
     2
100
AcDbLine
 10
0.8456
 20
-0.0091
 30
0.0
 11
0.7085
 21
-0.0091
 31
0.0
  0
LINE
  5
61C
100
AcDbEntity
  8
61
  6
CONTINUOUS
 62
     2
100
AcDbLine
 10
0.7085
 20
-0.0091
 30
0.0
 11
0.7085
 21
-0.0345
 31
0.0
  0
LINE
  5
61D
100
AcDbEntity
  8
61
  6
CONTINUOUS
 62
     2
100
AcDbLine
 10
0.8456
 20
-0.0091
 30
0.0
 11
0.8456
 21
-0.0345
 31
0.0
  0
LINE
  5
61E
100
AcDbEntity
  8
61
  6
CONTINUOUS
 62
     2
100
AcDbLine
 10
0.8456
 20
-0.0345
 30
0.0
 11
0.7085
 21
-0.0345
 31
0.0
  0
LINE
  5
61F
100
AcDbEntity
  8
61
  6
CONTINUOUS
 62
     2
100
AcDbLine
 10
0.8456
 20
-0.0218
 30
0.0
 11
0.7085
 21
-0.0218
 31
0.0
  0
LINE
  5
620
100
AcDbEntity
  8
61
  6
CONTINUOUS
 62
     2
100
AcDbLine
 10
0.7212
 20
-0.0091
 30
0.0
 11
0.7212
 21
-0.0345
 31
0.0
  0
LINE
  5
621
100
AcDbEntity
  8
61
  6
CONTINUOUS
 62
     2
100
AcDbLine
 10
0.7339
 20
-0.0091
 30
0.0
 11
0.7339
 21
-0.0345
 31
0.0
  0
LINE
  5
622
100
AcDbEntity
  8
61
  6
CONTINUOUS
 62
     2
100
AcDbLine
 10
0.7513
 20
-0.0091
 30
0.0
 11
0.7513
 21
-0.0345
 31
0.0
  0
LINE
  5
623
100
AcDbEntity
  8
61
  6
CONTINUOUS
 62
     2
100
AcDbLine
 10
0.8329
 20
-0.0091
 30
0.0
 11
0.8329
 21
-0.0345
 31
0.0
  0
LINE
  5
624
100
AcDbEntity
  8
61
  6
CONTINUOUS
 62
     2
100
AcDbLine
 10
0.8202
 20
-0.0091
 30
0.0
 11
0.8202
 21
-0.0345
 31
0.0
  0
LINE
  5
625
100
AcDbEntity
  8
61
  6
CONTINUOUS
 62
     2
100
AcDbLine
 10
0.7923
 20
-0.0091
 30
0.0
 11
0.7923
 21
-0.0345
 31
0.0
  0
LINE
  5
626
100
AcDbEntity
  8
61
  6
CONTINUOUS
 62
     2
100
AcDbLine
 10
0.7796
 20
-0.0091
 30
0.0
 11
0.7796
 21
-0.0345
 31
0.0
  0
TEXT
  5
627
100
AcDbEntity
  8
61
  6
CONTINUOUS
 62
     2
100
AcDbText
 10
0.7111
 20
-0.013
 30
0.0
 40
0.001525
  1
PUBLIC
 50
0.033272
 41
1.001968
  7
MONOTXT
210
0.0
220
0.0
230
1.0
100
AcDbText
  0
TEXT
  5
628
100
AcDbEntity
  8
61
  6
CONTINUOUS
 62
     2
100
AcDbText
 10
0.7112
 20
-0.0162
 30
0.0
 40
0.001525
  1
ROADS
 50
0.124322
 41
0.996852
  7
MONOTXT
210
0.0
220
0.0
230
1.0
100
AcDbText
  0
TEXT
  5
629
100
AcDbEntity
  8
61
  6
CONTINUOUS
 62
     2
100
AcDbText
 10
0.7127
 20
-0.0193
 30
0.0
 40
0.001525
  1
DIV.
 50
359.931522
 41
0.994884
  7
MONOTXT
210
0.0
220
0.0
230
1.0
100
AcDbText
  0
TEXT
  5
62A
100
AcDbEntity
  8
61
  6
CONTINUOUS
 62
     2
100
AcDbText
 10
0.724
 20
-0.0129
 30
0.0
 40
0.001525
  1
STATE
 50
0.058969
 41
0.998032
  7
MONOTXT
210
0.0
220
0.0
230
1.0
100
AcDbText
  0
TEXT
  5
62B
100
AcDbEntity
  8
61
  6
CONTINUOUS
 62
     2
100
AcDbText
 10
0.7251
 20
-0.0161
 30
0.0
 40
0.001525
  1
DIST.
 50
0.055889
 41
0.999606
  7
MONOTXT
210
0.0
220
0.0
230
1.0
100
AcDbText
  0
TEXT
  5
62C
100
AcDbEntity
  8
61
  6
CONTINUOUS
 62
     2
100
AcDbText
 10
0.7258
 20
-0.0193
 30
0.0
 40
0.001525
  1
NO.
 50
359.852072
 41
0.997639
  7
MONOTXT
210
0.0
220
0.0
230
1.0
100
AcDbText
  0
TEXT
  5
62D
100
AcDbEntity
  8
61
  6
CONTINUOUS
 62
     2
100
AcDbText
 10
0.7392
 20
-0.013
 30
0.0
 40
0.001525
  1
STATE
 50
0.058969
 41
0.998032
  7
MONOTXT
210
0.0
220
0.0
230
1.0
100
AcDbText
  0
TEXT
  5
62E
100
AcDbEntity
  8
61
  6
CONTINUOUS
 62
     2
100
AcDbText
 10
0.7378
 20
-0.016
 30
0.0
 40
0.001525
  1
PROJECT
 50
359.908431
  7
MONOTXT
210
0.0
220
0.0
230
1.0
100
AcDbText
  0
TEXT
  5
62F
100
AcDbEntity
  8
61
  6
CONTINUOUS
 62
     2
100
AcDbText
 10
0.7413
 20
-0.0193
 30
0.0
 40
0.001525
  1
NO.
 50
0.225453
 41
0.993703
  7
MONOTXT
210
0.0
220
0.0
230
1.0
100
AcDbText
  0
TEXT
  5
630
100
AcDbEntity
  8
61
  6
CONTINUOUS
 62
     2
100
AcDbText
 10
0.7612
 20
-0.0144
 30
0.0
 40
0.001523
  1
FEDERAL
 50
0.006714
 41
0.998425
  7
MONOTXT
210
0.0
220
0.0
230
1.0
100
AcDbText
  0
TEXT
  5
631
100
AcDbEntity
  8
61
  6
CONTINUOUS
 62
     2
100
AcDbText
 10
0.7592
 20
-0.0178
 30
0.0
 40
0.001525
  1
PROJECT NO.
 50
359.921531
 41
1.000787
  7
MONOTXT
210
0.0
220
0.0
230
1.0
100
AcDbText
  0
TEXT
  5
632
100
AcDbEntity
  8
61
  6
CONTINUOUS
 62
     2
100
AcDbText
 10
0.7824
 20
-0.0145
 30
0.0
 40
0.001525
  1
FISCAL
 50
359.941939
 41
0.998819
  7
MONOTXT
210
0.0
220
0.0
230
1.0
100
AcDbText
  0
TEXT
  5
633
100
AcDbEntity
  8
61
  6
CONTINUOUS
 62
     2
100
AcDbText
 10
0.7831
 20
-0.0181
 30
0.0
 40
0.001523
  1
YEAR
 50
0.104606
 41
0.993304
  7
MONOTXT
210
0.0
220
0.0
230
1.0
100
AcDbText
  0
TEXT
  5
634
100
AcDbEntity
  8
61
  6
CONTINUOUS
 62
     2
100
AcDbText
 10
0.801
 20
-0.0164
 30
0.0
 40
0.001523
  1
COUNTY
 50
0.068575
 41
1.001969
  7
MONOTXT
210
0.0
220
0.0
230
1.0
100
AcDbText
  0
TEXT
  5
635
100
AcDbEntity
  8
61
  6
CONTINUOUS
 62
     2
100
AcDbText
 10
0.8234
 20
-0.0143
 30
0.0
 40
0.001525
  1
SHEET
 50
0.058969
 41
0.997639
  7
MONOTXT
210
0.0
220
0.0
230
1.0
100
AcDbText
  0
TEXT
  5
636
100
AcDbEntity
  8
61
  6
CONTINUOUS
 62
     2
100
AcDbText
 10
0.8252
 20
-0.0178
 30
0.0
 40
0.001525
  1
NO.
 50
359.852072
 41
0.997639
  7
MONOTXT
210
0.0
220
0.0
230
1.0
100
AcDbText
  0
TEXT
  5
637
100
AcDbEntity
  8
61
  6
CONTINUOUS
 62
     2
100
AcDbText
 10
0.8358
 20
-0.0145
 30
0.0
 40
0.001525
  1
TOTAL
 50
359.926039
 41
0.998426
  7
MONOTXT
210
0.0
220
0.0
230
1.0
100
AcDbText
  0
TEXT
  5
638
100
AcDbEntity
  8
61
  6
CONTINUOUS
 62
     2
100
AcDbText
 10
0.8352
 20
-0.0179
 30
0.0
 40
0.001523
  1
SHEETS
 50
359.958675
  7
MONOTXT
210
0.0
220
0.0
230
1.0
100
AcDbText
  0
ATTDEF
  5
639
100
AcDbEntity
  8
61
  6
CONTINUOUS
 62
     2
100
AcDbText
 10
0.0
 20
0.0
 30
0.0
 40
0.003049
  1
  
 50
0.029406
 41
0.996655
  7
MONOTXT
210
0.0
220
0.0
230
1.0
100
AcDbAttributeDefinition
  3

  2
TAG00
 70
     0
  0
ATTDEF
  5
63A
100
AcDbEntity
  8
61
  6
CONTINUOUS
 62
     2
100
AcDbText
 10
0.0
 20
0.0
 30
0.0
 40
0.003049
  1
   
 50
0.011508
 41
1.000984
  7
MONOTXT
210
0.0
220
0.0
230
1.0
100
AcDbAttributeDefinition
  3

  2
TAG10
 70
     0
  0
ATTDEF
  5
63B
100
AcDbEntity
  8
61
  6
CONTINUOUS
 62
     2
100
AcDbText
 10
0.0
 20
0.0
 30
0.0
 40
0.003049
  1
   
 50
359.922128
 41
1.00059
  7
MONOTXT
210
0.0
220
0.0
230
1.0
100
AcDbAttributeDefinition
  3

  2
TAG20
 70
     0
  0
ATTDEF
  5
63C
100
AcDbEntity
  8
61
  6
CONTINUOUS
 62
     2
100
AcDbText
 10
0.0
 20
0.0
 30
0.0
 40
0.002548
  1
    
 50
0.054383
 41
0.993643
  7
MONOTXT
210
0.0
220
0.0
230
1.0
100
AcDbAttributeDefinition
  3

  2
TAG30
 70
     0
  0
ATTDEF
  5
63D
100
AcDbEntity
  8
61
  6
CONTINUOUS
 62
     2
100
AcDbText
 10
0.0
 20
0.0
 30
0.0
 40
0.002527
  1
       
 50
0.064678
 41
1.00095
  7
MONOTXT
210
0.0
220
0.0
230
1.0
100
AcDbAttributeDefinition
  3

  2
TAG40
 70
     0
  0
ATTDEF
  5
63E
100
AcDbEntity
  8
61
  6
CONTINUOUS
 62
     2
100
AcDbText
 10
0.0
 20
0.0
 30
0.0
 40
0.002527
  1
      
 50
359.958053
 41
1.000237
  7
MONOTXT
210
0.0
220
0.0
230
1.0
100
AcDbAttributeDefinition
  3

  2
TAG50
 70
     0
  0
ATTDEF
  5
63F
100
AcDbEntity
  8
61
  6
CONTINUOUS
 62
     2
100
AcDbText
 10
0.0
 20
0.0
 30
0.0
 40
0.003049
  1
           
 50
0.011508
 41
0.998819
  7
MONOTXT
210
0.0
220
0.0
230
1.0
100
AcDbAttributeDefinition
  3

  2
TAG60
 70
     0
  0
ATTDEF
  5
640
100
AcDbEntity
  8
61
  6
CONTINUOUS
 62
     2
100
AcDbText
 10
0.0
 20
0.0
 30
0.0
 40
0.003049
  1
           
 50
0.011508
 41
0.999606
  7
MONOTXT
210
0.0
220
0.0
230
1.0
100
AcDbAttributeDefinition
  3

  2
TAG70
 70
     0
  0
ATTDEF
  5
641
100
AcDbEntity
  8
61
  6
CONTINUOUS
 62
     2
100
AcDbText
 10
0.0
 20
0.0
 30
0.0
 40
0.002548
  1
          
 50
0.009222
 41
0.992701
  7
MONOTXT
210
0.0
220
0.0
230
1.0
100
AcDbAttributeDefinition
  3

  2
TAG80
 70
     0
  0
LINE
  5
642
100
AcDbEntity
  8
1
  6
CONTINUOUS
 62
     2
100
AcDbLine
 10
0.6307
 20
-0.5322
 30
0.0
 11
0.6307
 21
-0.4159
 31
0.0
  0
LINE
  5
643
100
AcDbEntity
  8
1
  6
CONTINUOUS
 62
     2
100
AcDbLine
 10
0.6307
 20
-0.4159
 30
0.0
 11
0.8487
 21
-0.4159
 31
0.0
  0
LINE
  5
644
100
AcDbEntity
  8
1
  6
CONTINUOUS
 62
     2
100
AcDbLine
 10
0.6752
 20
-0.5322
 30
0.0
 11
0.6752
 21
-0.4751
 31
0.0
  0
LINE
  5
645
100
AcDbEntity
  8
1
  6
CONTINUOUS
 62
     2
100
AcDbLine
 10
0.6752
 20
-0.4751
 30
0.0
 11
0.6307
 21
-0.4751
 31
0.0
  0
LINE
  5
646
100
AcDbEntity
  8
1
  6
CONTINUOUS
 62
     2
100
AcDbLine
 10
0.6752
 20
-0.4808
 30
0.0
 11
0.6307
 21
-0.4808
 31
0.0
  0
LINE
  5
647
100
AcDbEntity
  8
1
  6
CONTINUOUS
 62
     2
100
AcDbLine
 10
0.6752
 20
-0.4865
 30
0.0
 11
0.6307
 21
-0.4865
 31
0.0
  0
LINE
  5
648
100
AcDbEntity
  8
1
  6
CONTINUOUS
 62
     2
100
AcDbLine
 10
0.6752
 20
-0.4923
 30
0.0
 11
0.6307
 21
-0.4923
 31
0.0
  0
LINE
  5
649
100
AcDbEntity
  8
1
  6
CONTINUOUS
 62
     2
100
AcDbLine
 10
0.6752
 20
-0.498
 30
0.0
 11
0.6307
 21
-0.498
 31
0.0
  0
LINE
  5
64A
100
AcDbEntity
  8
1
  6
CONTINUOUS
 62
     2
100
AcDbLine
 10
0.6752
 20
-0.5037
 30
0.0
 11
0.6307
 21
-0.5037
 31
0.0
  0
LINE
  5
64B
100
AcDbEntity
  8
1
  6
CONTINUOUS
 62
     2
100
AcDbLine
 10
0.6752
 20
-0.5094
 30
0.0
 11
0.6307
 21
-0.5094
 31
0.0
  0
LINE
  5
64C
100
AcDbEntity
  8
1
  6
CONTINUOUS
 62
     2
100
AcDbLine
 10
0.6752
 20
-0.5151
 30
0.0
 11
0.6307
 21
-0.5151
 31
0.0
  0
LINE
  5
64D
100
AcDbEntity
  8
1
  6
CONTINUOUS
 62
     2
100
AcDbLine
 10
0.6752
 20
-0.5208
 30
0.0
 11
0.6307
 21
-0.5208
 31
0.0
  0
LINE
  5
64E
100
AcDbEntity
  8
1
  6
CONTINUOUS
 62
     2
100
AcDbLine
 10
0.6752
 20
-0.5265
 30
0.0
 11
0.6307
 21
-0.5265
 31
0.0
  0
TEXT
  5
64F
100
AcDbEntity
  8
1
  6
CONTINUOUS
 62
     2
100
AcDbText
 10
0.6438
 20
-0.4789
 30
0.0
 40
0.002537
  1
REVISIONS
  7
MONOTXT
210
0.0
220
0.0
230
1.0
100
AcDbText
  0
TEXT
  5
650
100
AcDbEntity
  8
1
  6
CONTINUOUS
 62
     2
100
AcDbText
 10
0.6332
 20
-0.4739
 30
0.0
 40
0.002537
  1
PREPARED: 
  7
MONOTXT
210
0.0
220
0.0
230
1.0
100
AcDbText
  0
ATTDEF
  5
651
100
AcDbEntity
  8
1
  6
CONTINUOUS
 62
     2
100
AcDbText
 10
0.0
 20
0.0
 30
0.0
 40
0.002537
  1
07
  7
MONOTXT
210
0.0
220
0.0
230
1.0
100
AcDbAttributeDefinition
  3

  2
TAG90
 70
     0
  0
TEXT
  5
652
100
AcDbEntity
  8
1
  6
CONTINUOUS
 62
     2
100
AcDbText
 10
0.6592
 20
-0.4739
 30
0.0
 40
0.002537
  1
/
  7
MONOTXT
210
0.0
220
0.0
230
1.0
100
AcDbText
  0
ATTDEF
  5
653
100
AcDbEntity
  8
1
  6
CONTINUOUS
 62
     2
100
AcDbText
 10
0.0
 20
0.0
 30
0.0
 40
0.002537
  1
00
  7
MONOTXT
210
0.0
220
0.0
230
1.0
100
AcDbAttributeDefinition
  3

  2
TAG91
 70
     0
  0
TEXT
  5
654
100
AcDbEntity
  8
1
  6
CONTINUOUS
 62
     2
100
AcDbText
 10
0.6647
 20
-0.4739
 30
0.0
 40
0.002537
  1
/
  7
MONOTXT
210
0.0
220
0.0
230
1.0
100
AcDbText
  0
ATTDEF
  5
655
100
AcDbEntity
  8
1
  6
CONTINUOUS
 62
     2
100
AcDbText
 10
0.0
 20
0.0
 30
0.0
 40
0.002537
  1
71
  7
MONOTXT
210
0.0
220
0.0
230
1.0
100
AcDbAttributeDefinition
  3

  2
TAG92
 70
     0
  0
TEXT
  5
657
100
AcDbEntity
  8
1
  6
CONTINUOUS
 62
     2
100
AcDbText
 10
0.6721
 20
-0.4268
 30
0.0
 40
0.006089
  1
WEST VIRGINIA DIVISION OF HIGHWAYS
  7
ROMANT
 72
     1
 11
0.7406
 21
-0.4207
 31
0.0
210
0.0
220
0.0
230
1.0
100
AcDbText
 73
     3
  0
TEXT
  5
658
100
AcDbEntity
  8
1
  6
CONTINUOUS
 62
     2
100
AcDbText
 10
0.6858
 20
-0.441
 30
0.0
 40
0.008881
  1
STANDARD DETAIL
  7
TXT
 72
     1
 11
0.7422
 21
-0.4321
 31
0.0
210
0.0
220
0.0
230
1.0
100
AcDbText
 73
     3
  0
TEXT
  5
659
100
AcDbEntity
  8
1
  6
CONTINUOUS
 62
     2
100
AcDbText
 10
0.68
 20
-0.527
 30
0.0
 40
0.008881
  1
STANDARD SHEET 
  7
TXT
210
0.0
220
0.0
230
1.0
100
AcDbText
  0
ATTDEF
  5
65A
100
AcDbEntity
  8
1
  6
CONTINUOUS
 62
     2
100
AcDbText
 10
0.0
 20
0.0
 30
0.0
 40
0.008881
  1
TEM-2 
  7
TXT
210
0.0
220
0.0
230
1.0
100
AcDbAttributeDefinition
  3

  2
TAG100
 70
     0
  0
ATTDEF
  5
65B
100
AcDbEntity
  8
1
  6
CONTINUOUS
 62
     2
100
AcDbText
 10
0.0
 20
0.0
 30
0.0
 40
0.00254
  1
        
  7
MONOTXT
 72
     1
 11
0.0
 21
0.0
 31
0.0
210
0.0
220
0.0
230
1.0
100
AcDbAttributeDefinition
  3

  2
TAG110
 70
     0
 74
     3
  0
ATTDEF
  5
65C
100
AcDbEntity
  8
1
  6
CONTINUOUS
 62
     2
100
AcDbText
 10
0.0
 20
0.0
 30
0.0
 40
0.00254
  1
        
  7
MONOTXT
 72
     1
 11
0.0
 21
0.0
 31
0.0
210
0.0
220
0.0
230
1.0
100
AcDbAttributeDefinition
  3

  2
TAG120
 70
     0
 74
     3
  0
ATTDEF
  5
65D
100
AcDbEntity
  8
1
  6
CONTINUOUS
 62
     2
100
AcDbText
 10
0.0
 20
0.0
 30
0.0
 40
0.00254
  1
        
  7
MONOTXT
 72
     1
 11
0.0
 21
0.0
 31
0.0
210
0.0
220
0.0
230
1.0
100
AcDbAttributeDefinition
  3

  2
TAG130
 70
     0
 74
     3
  0
ATTDEF
  5
65E
100
AcDbEntity
  8
1
  6
CONTINUOUS
 62
     2
100
AcDbText
 10
0.0
 20
0.0
 30
0.0
 40
0.00254
  1
        
  7
MONOTXT
 72
     1
 11
0.0
 21
0.0
 31
0.0
210
0.0
220
0.0
230
1.0
100
AcDbAttributeDefinition
  3

  2
TAG140
 70
     0
 74
     3
  0
ATTDEF
  5
65F
100
AcDbEntity
  8
1
  6
CONTINUOUS
 62
     2
100
AcDbText
 10
0.0
 20
0.0
 30
0.0
 40
0.00254
  1
        
  7
MONOTXT
 72
     1
 11
0.0
 21
0.0
 31
0.0
210
0.0
220
0.0
230
1.0
100
AcDbAttributeDefinition
  3

  2
TAG150
 70
     0
 74
     3
  0
ATTDEF
  5
660
100
AcDbEntity
  8
1
  6
CONTINUOUS
 62
     2
100
AcDbText
 10
0.0
 20
0.0
 30
0.0
 40
0.00254
  1
        
  7
MONOTXT
 72
     1
 11
0.0
 21
0.0
 31
0.0
210
0.0
220
0.0
230
1.0
100
AcDbAttributeDefinition
  3

  2
TAG160
 70
     0
 74
     3
  0
ATTDEF
  5
661
100
AcDbEntity
  8
1
  6
CONTINUOUS
 62
     2
100
AcDbText
 10
0.0
 20
0.0
 30
0.0
 40
0.00254
  1
        
  7
MONOTXT
 72
     1
 11
0.0
 21
0.0
 31
0.0
210
0.0
220
0.0
230
1.0
100
AcDbAttributeDefinition
  3

  2
TAG170
 70
     0
 74
     3
  0
ATTDEF
  5
662
100
AcDbEntity
  8
1
  6
CONTINUOUS
 62
     2
100
AcDbText
 10
0.0
 20
0.0
 30
0.0
 40
0.00254
  1
        
  7
MONOTXT
 72
     1
 11
0.0
 21
0.0
 31
0.0
210
0.0
220
0.0
230
1.0
100
AcDbAttributeDefinition
  3

  2
TAG180
 70
     0
 74
     3
  0
ATTDEF
  5
663
100
AcDbEntity
  8
1
  6
CONTINUOUS
 62
     2
100
AcDbText
 10
0.0
 20
0.0
 30
0.0
 40
0.00254
  1
        
  7
MONOTXT
 72
     1
 11
0.0
 21
0.0
 31
0.0
210
0.0
220
0.0
230
1.0
100
AcDbAttributeDefinition
  3

  2
TAG190
 70
     0
 74
     3
  0
LINE
  5
664
100
AcDbEntity
  8
1
  6
CONTINUOUS
 62
     2
100
AcDbLine
 10
0.8487
 20
-0.5322
 30
0.0
 11
0.8487
 21
-0.4159
 31
0.0
  0
LINE
  5
665
100
AcDbEntity
  8
1
  6
CONTINUOUS
 62
     7
100
AcDbLine
 10
0.8487
 20
-0.0061
 30
0.0
 11
0.057
 21
-0.0062
 31
0.0
  0
LINE
  5
666
100
AcDbEntity
  8
1
  6
CONTINUOUS
 62
     7
100
AcDbLine
 10
0.057
 20
-0.0062
 30
0.0
 11
0.0571
 21
-0.5322
 31
0.0
  0
LINE
  5
667
100
AcDbEntity
  8
1
  6
CONTINUOUS
 62
     7
100
AcDbLine
 10
0.8487
 20
-0.5322
 30
0.0
 11
0.8487
 21
-0.0061
 31
0.0
  0
LINE
  5
668
100
AcDbEntity
  8
61
  6
CONTINUOUS
 62
     2
100
AcDbLine
 10
0.8487
 20
-0.5322
 30
0.0
 11
0.696
 21
-0.5322
 31
0.0
  0
ATTDEF
  5
669
100
AcDbEntity
  8
61
  6
CONTINUOUS
 62
     2
100
AcDbText
 10
0.0
 20
0.0
 30
0.0
 40
0.003055
  1
     
 41
1.001375
  7
MONOTXT
210
0.0
220
0.0
230
1.0
100
AcDbAttributeDefinition
  3

  2
TAG200
 70
     0
  0
INSERT
  5
66E
100
AcDbEntity
  8
1
  6
CONTINUOUS
 62
     1
100
AcDbBlockReference
  2
PT
 10
0.0
 20
0.0
 30
0.0
 41
0.269386
 42
0.269386
210
0.0
220
0.0
230
1.0
  0
INSERT
  5
66F
100
AcDbEntity
  8
1
  6
CONTINUOUS
 62
     1
100
AcDbBlockReference
  2
PT
 10
0.855
 20
-0.5435
 30
0.0
 41
0.269386
 42
0.269386
210
0.0
220
0.0
230
1.0
  0
LINE
  5
670
100
AcDbEntity
  8
1
  6
CONTINUOUS
 62
     7
100
AcDbLine
 10
0.8487
 20
-0.5322
 30
0.0
 11
0.0571
 21
-0.5322
 31
0.0
  0
LINE
  5
671
100
AcDbEntity
  8
1
  6
CONTINUOUS
 62
     2
100
AcDbLine
 10
0.8487
 20
-0.5322
 30
0.0
 11
0.8487
 21
-0.0061
 31
0.0
  0
TEXT
  5
672
100
AcDbEntity
  8
CONSTRUCTION_CLASS
  6
CONTINUOUS
 62
     3
100
AcDbText
 10
0.7116
 20
-0.0299
 30
0.0
 40
0.003048
  1
WV
  7
MONOTXT
210
0.0
220
0.0
230
1.0
100
AcDbText
  0
TEXT
  5
673
100
AcDbEntity
  8
61
  6
CONTINUOUS
 62
     2
100
AcDbText
 10
0.7831
 20
-0.0294
 30
0.0
 40
0.003049
  1
  
 50
0.029406
 41
0.996655
  7
MONOTXT
210
0.0
220
0.0
230
1.0
100
AcDbText
  0
LINE
  5
674
100
AcDbEntity
  8
61
  6
CONTINUOUS
 62
     2
100
AcDbLine
 10
0.8487
 20
-0.5322
 30
0.0
 11
0.696
 21
-0.5322
 31
0.0
  0
LINE
  5
675
100
AcDbEntity
  8
61
  6
CONTINUOUS
 62
     2
100
AcDbLine
 10
0.8487
 20
-0.5322
 30
0.0
 11
0.6963
 21
-0.5322
 31
0.0
  0
LINE
  5
676
100
AcDbEntity
  8
61
  6
CONTINUOUS
 62
     2
100
AcDbLine
 10
0.8487
 20
-0.5322
 30
0.0
 11
0.696
 21
-0.5322
 31
0.0
  0
LINE
  5
677
100
AcDbEntity
  8
61
  6
CONTINUOUS
 62
     2
100
AcDbLine
 10
0.8487
 20
-0.5322
 30
0.0
 11
0.6963
 21
-0.5322
 31
0.0
  0
TEXT
  5
678
100
AcDbEntity
  8
1
  6
CONTINUOUS
 62
     2
100
AcDbText
 10
0.79
 20
-0.536
 30
0.0
 40
0.002031
  1
TRAFFIC ENGINEERING DIVISION
  7
TXT
210
0.0
220
0.0
230
1.0
100
AcDbText
  0
TEXT
  5
679
100
AcDbEntity
  8
1
  6
CONTINUOUS
 62
     7
100
AcDbText
 10
0.5757
 20
-0.536
 30
0.0
 40
0.0022
  1
$$$$$$$$$FILENAME$$$$$$$$
  7
MONOTXT
210
0.0
220
0.0
230
1.0
100
AcDbText
  0
TEXT
  5
67A
100
AcDbEntity
  8
1
  6
CONTINUOUS
 62
     7
100
AcDbText
 10
0.6965
 20
-0.536
 30
0.0
 40
0.0022
  1
$USERNAME$
  7
MONOTXT
210
0.0
220
0.0
230
1.0
100
AcDbText
  0
TEXT
  5
67B
100
AcDbEntity
  8
1
  6
CONTINUOUS
 62
     7
100
AcDbText
 10
0.7416
 20
-0.536
 30
0.0
 40
0.0022
  1
DD-MMM-YYYY HH:MM
  7
MONOTXT
210
0.0
220
0.0
230
1.0
100
AcDbText
  0
ENDBLK
  5
67C
100
AcDbEntity
  8
1
  6
CONTINUOUS
 62
     7
100
AcDbBlockEnd
  0
BLOCK
  5
66B
100
AcDbEntity
  8
1
  6
CONTINUOUS
 62
     1
100
AcDbBlockBegin
  2
PT
 70
     0
 10
0.0
 20
0.0
 30
0.0
  3
PT
  1

  0
POINT
  5
66C
100
AcDbEntity
  8
1
  6
CONTINUOUS
 62
     1
100
AcDbPoint
 10
0.0
 20
0.0
 30
0.0
  0
ENDBLK
  5
66D
100
AcDbEntity
  8
1
  6
CONTINUOUS
 62
     1
100
AcDbBlockEnd
  0
ENDSEC
  0
SECTION
  2
ENTITIES
  0
TEXT
  5
2C
100
AcDbEntity
  8
61
  6
CONTINUOUS
 62
     1
100
AcDbText
 10
460.8166
 20
-624.3199
 30
0.0
 40
2.881584
  1
     
 41
1.001399
  7
MONOTXT
210
0.0
220
0.0
230
1.0
100
AcDbText
  0
TEXT
  5
2E
100
AcDbEntity
  8
1
  6
CONTINUOUS
 62
     1
100
AcDbText
 10
551.4505
 20
-1076.9642
 30
0.0
 40
2.400048
  1
05-00-72
  7
MONOTXT
 72
     1
 11
560.1908
 21
-1074.5642
 31
0.0
210
0.0
220
0.0
230
1.0
100
AcDbText
 73
     3
  0
TEXT
  5
2F
100
AcDbEntity
  8
1
  6
CONTINUOUS
 62
     1
100
AcDbText
 10
551.5057
 20
-1082.877
 30
0.0
 40
2.400048
  1
05-00-73
  7
MONOTXT
 72
     1
 11
560.246
 21
-1080.477
 31
0.0
210
0.0
220
0.0
230
1.0
100
AcDbText
 73
     3
  0
TEXT
  5
30
100
AcDbEntity
  8
1
  6
CONTINUOUS
 62
     1
100
AcDbText
 10
551.4505
 20
-1088.3944
 30
0.0
 40
2.400048
  1
08-28-75
  7
MONOTXT
 72
     1
 11
560.1908
 21
-1085.9944
 31
0.0
210
0.0
220
0.0
230
1.0
100
AcDbText
 73
     3
  0
TEXT
  5
31
100
AcDbEntity
  8
1
  6
CONTINUOUS
 62
     1
100
AcDbText
 10
552.6103
 20
-1093.9116
 30
0.0
 40
2.400048
  1
11-23-77
  7
MONOTXT
 72
     1
 11
560.3395
 21
-1091.5116
 31
0.0
210
0.0
220
0.0
230
1.0
100
AcDbText
 73
     3
  0
TEXT
  5
32
100
AcDbEntity
  8
1
  6
CONTINUOUS
 62
     1
100
AcDbText
 10
552.6933
 20
-1100.0645
 30
0.0
 40
2.400048
  1
01-15-85
  7
MONOTXT
 72
     1
 11
560.3942
 21
-1097.6645
 31
0.0
210
0.0
220
0.0
230
1.0
100
AcDbText
 73
     3
  0
TEXT
  5
33
100
AcDbEntity
  8
1
  6
CONTINUOUS
 62
     1
100
AcDbText
 10
552.0797
 20
-1105.5195
 30
0.0
 40
2.400048
  1
02-03-93
  7
MONOTXT
 72
     1
 11
560.7444
 21
-1103.1195
 31
0.0
210
0.0
220
0.0
230
1.0
100
AcDbText
 73
     3
  0
TEXT
  5
34
100
AcDbEntity
  8
1
  6
CONTINUOUS
 62
     1
100
AcDbText
 10
549.1183
 20
-1096.6427
 30
0.0
 40
2.400048
  1
        
  7
MONOTXT
 72
     1
 11
558.3185
 21
-1094.2427
 31
0.0
210
0.0
220
0.0
230
1.0
100
AcDbText
 73
     3
  0
TEXT
  5
35
100
AcDbEntity
  8
1
  6
CONTINUOUS
 62
     1
100
AcDbText
 10
549.2383
 20
-1102.1387
 30
0.0
 40
2.400048
  1
        
  7
MONOTXT
 72
     1
 11
558.4385
 21
-1099.7387
 31
0.0
210
0.0
220
0.0
230
1.0
100
AcDbText
 73
     3
  0
TEXT
  5
36
100
AcDbEntity
  8
1
  6
CONTINUOUS
 62
     1
100
AcDbText
 10
549.2383
 20
-1106.9627
 30
0.0
 40
2.400048
  1
        
  7
MONOTXT
 72
     1
 11
558.4385
 21
-1104.5627
 31
0.0
210
0.0
220
0.0
230
1.0
100
AcDbText
 73
     3
  0
TEXT
  5
38
100
AcDbEntity
  8
1
  6
CONTINUOUS
 62
     1
100
AcDbText
 10
596.7553
 20
-1048.9748
 30
0.0
 40
8.3912
  1
TYPICAL PAVEMENT
  7
TXT
 72
     1
 11
652.7971
 21
-1040.5836
 31
0.0
210
0.0
220
0.0
230
1.0
100
AcDbText
 73
     3
  0
TEXT
  5
39
100
AcDbEntity
  8
1
  6
CONTINUOUS
 62
     1
100
AcDbText
 10
623.1571
 20
-1061.2763
 30
0.0
 40
8.3912
  1
MARKINGS
  7
TXT
 72
     1
 11
652.7971
 21
-1052.8851
 31
0.0
210
0.0
220
0.0
230
1.0
100
AcDbText
 73
     3
  0
LWPOLYLINE
  5
3A
100
AcDbEntity
  8
1
  6
CONTINUOUS
 62
     7
100
AcDbPolyline
 90
        4
 70
     0
 10
545.8231
 20
-1079.2251
 10
543.4231
 20
-1083.382
 10
548.2231
 20
-1083.382
 10
545.8231
 20
-1079.2251
  0
LWPOLYLINE
  5
3B
100
AcDbEntity
  8
1
  6
CONTINUOUS
 62
     7
100
AcDbPolyline
 90
        4
 70
     0
 10
545.9021
 20
-1090.5398
 10
543.5021
 20
-1094.6967
 10
548.3021
 20
-1094.6967
 10
545.9021
 20
-1090.5398
  0
LWPOLYLINE
  5
3C
100
AcDbEntity
  8
1
  6
CONTINUOUS
 62
     7
100
AcDbPolyline
 90
        4
 70
     0
 10
546.09
 20
-1096.3956
 10
543.69
 20
-1100.5525
 10
548.49
 20
-1100.5525
 10
546.09
 20
-1096.3956
  0
LWPOLYLINE
  5
3D
100
AcDbEntity
  8
1
  6
CONTINUOUS
 62
     7
100
AcDbPolyline
 90
        4
 70
     0
 10
546.199
 20
-1101.9439
 10
543.799
 20
-1106.1008
 10
548.599
 20
-1106.1008
 10
546.199
 20
-1101.9439
  0
TEXT
  5
3E
100
AcDbEntity
  8
1
  6
CONTINUOUS
 62
     7
100
AcDbText
 10
545.2618
 20
-1082.7783
 30
0.0
 40
1.8
  1
2
  7
MONOTXT
210
0.0
220
0.0
230
1.0
100
AcDbText
  0
TEXT
  5
3F
100
AcDbEntity
  8
1
  6
CONTINUOUS
 62
     7
100
AcDbText
 10
545.2915
 20
-1094.1914
 30
0.0
 40
1.8
  1
3
  7
MONOTXT
210
0.0
220
0.0
230
1.0
100
AcDbText
  0
TEXT
  5
40
100
AcDbEntity
  8
1
  6
CONTINUOUS
 62
     7
100
AcDbText
 10
545.2824
 20
-1099.8994
 30
0.0
 40
1.8
  1
4
  7
MONOTXT
210
0.0
220
0.0
230
1.0
100
AcDbText
  0
TEXT
  5
41
100
AcDbEntity
  8
1
  6
CONTINUOUS
 62
     7
100
AcDbText
 10
545.5884
 20
-1105.5463
 30
0.0
 40
1.8
  1
5
  7
MONOTXT
210
0.0
220
0.0
230
1.0
100
AcDbText
  0
LWPOLYLINE
  5
42
100
AcDbEntity
  8
1
  6
CONTINUOUS
 62
     7
100
AcDbPolyline
 90
        4
 70
     0
 10
499.673
 20
-1070.3508
 10
497.273
 20
-1074.5077
 10
502.073
 20
-1074.5077
 10
499.673
 20
-1070.3508
  0
TEXT
  5
43
100
AcDbEntity
  8
1
  6
CONTINUOUS
 62
     7
100
AcDbText
 10
499.1117
 20
-1073.904
 30
0.0
 40
1.8
  1
2
  7
MONOTXT
210
0.0
220
0.0
230
1.0
100
AcDbText
  0
LWPOLYLINE
  5
44
100
AcDbEntity
  8
1
  6
CONTINUOUS
 62
     7
100
AcDbPolyline
 90
        4
 70
     0
 10
499.476
 20
-1076.0664
 10
497.076
 20
-1080.2233
 10
501.876
 20
-1080.2233
 10
499.476
 20
-1076.0664
  0
TEXT
  5
45
100
AcDbEntity
  8
1
  6
CONTINUOUS
 62
     7
100
AcDbText
 10
498.8654
 20
-1079.718
 30
0.0
 40
1.8
  1
3
  7
MONOTXT
210
0.0
220
0.0
230
1.0
100
AcDbText
  0
LWPOLYLINE
  5
46
100
AcDbEntity
  8
1
  6
CONTINUOUS
 62
     7
100
AcDbPolyline
 90
        4
 70
     0
 10
499.2297
 20
-1085.0341
 10
496.8297
 20
-1089.191
 10
501.6297
 20
-1089.191
 10
499.2297
 20
-1085.0341
  0
TEXT
  5
47
100
AcDbEntity
  8
1
  6
CONTINUOUS
 62
     7
100
AcDbText
 10
498.4221
 20
-1088.5379
 30
0.0
 40
1.8
  1
4
  7
MONOTXT
210
0.0
220
0.0
230
1.0
100
AcDbText
  0
TEXT
  5
48
100
AcDbEntity
  8
1
  6
CONTINUOUS
 62
     7
100
AcDbText
 10
498.4221
 20
-1088.735
 30
0.0
 40
1.8
  1
4
  7
MONOTXT
210
0.0
220
0.0
230
1.0
100
AcDbText
  0
LWPOLYLINE
  5
49
100
AcDbEntity
  8
1
  6
CONTINUOUS
 62
     7
100
AcDbPolyline
 90
        4
 70
     0
 10
499.3775
 20
-1091.2918
 10
496.9775
 20
-1095.4487
 10
501.7775
 20
-1095.4487
 10
499.3775
 20
-1091.2918
  0
TEXT
  5
4A
100
AcDbEntity
  8
1
  6
CONTINUOUS
 62
     7
100
AcDbText
 10
498.7669
 20
-1094.8942
 30
0.0
 40
1.8
  1
5
  7
MONOTXT
210
0.0
220
0.0
230
1.0
100
AcDbText
  0
LINE
  5
4B
100
AcDbEntity
  8
1
  6
CONTINUOUS
 62
     3
100
AcDbLine
 10
-15.7062
 20
-634.349
 30
0.0
 11
209.8938
 21
-634.349
 31
0.0
  0
LINE
  5
4C
100
AcDbEntity
  8
1
  6
CONTINUOUS
 62
     3
100
AcDbLine
 10
-15.7062
 20
-635.249
 30
0.0
 11
209.8938
 21
-635.249
 31
0.0
  0
LINE
  5
4D
100
AcDbEntity
  8
1
  6
CONTINUOUS
 62
     3
100
AcDbLine
 10
-15.7062
 20
-642.149
 30
0.0
 11
209.8938
 21
-642.149
 31
0.0
  0
LINE
  5
4E
100
AcDbEntity
  8
1
  6
CONTINUOUS
 62
     3
100
AcDbLine
 10
-15.7062
 20
-643.949
 30
0.0
 11
209.8938
 21
-643.949
 31
0.0
  0
LINE
  5
4F
100
AcDbEntity
  8
1
  6
CONTINUOUS
 62
     3
100
AcDbLine
 10
-15.7062
 20
-655.949
 30
0.0
 11
209.8938
 21
-655.949
 31
0.0
  0
LINE
  5
50
100
AcDbEntity
  8
1
  6
CONTINUOUS
 62
     3
100
AcDbLine
 10
-15.7062
 20
-656.849
 30
0.0
 11
209.8938
 21
-656.849
 31
0.0
  0
LINE
  5
51
100
AcDbEntity
  8
1
  6
CONTINUOUS
 62
     3
100
AcDbLine
 10
-13.0062
 20
-649.949
 30
0.0
 11
-8.8062
 21
-649.949
 31
0.0
  0
LINE
  5
52
100
AcDbEntity
  8
1
  6
CONTINUOUS
 62
     3
100
AcDbLine
 10
-4.0062
 20
-649.949
 30
0.0
 11
0.1938
 21
-649.949
 31
0.0
  0
LINE
  5
53
100
AcDbEntity
  8
1
  6
CONTINUOUS
 62
     3
100
AcDbLine
 10
4.9938
 20
-649.949
 30
0.0
 11
9.1938
 21
-649.949
 31
0.0
  0
LINE
  5
54
100
AcDbEntity
  8
1
  6
CONTINUOUS
 62
     3
100
AcDbLine
 10
13.9938
 20
-649.949
 30
0.0
 11
18.1938
 21
-649.949
 31
0.0
  0
LINE
  5
55
100
AcDbEntity
  8
1
  6
CONTINUOUS
 62
     3
100
AcDbLine
 10
22.9938
 20
-649.949
 30
0.0
 11
27.1938
 21
-649.949
 31
0.0
  0
LINE
  5
56
100
AcDbEntity
  8
1
  6
CONTINUOUS
 62
     3
100
AcDbLine
 10
31.9938
 20
-649.949
 30
0.0
 11
36.1938
 21
-649.949
 31
0.0
  0
LINE
  5
57
100
AcDbEntity
  8
1
  6
CONTINUOUS
 62
     3
100
AcDbLine
 10
40.9938
 20
-649.949
 30
0.0
 11
45.1938
 21
-649.949
 31
0.0
  0
LINE
  5
58
100
AcDbEntity
  8
1
  6
CONTINUOUS
 62
     3
100
AcDbLine
 10
49.9938
 20
-649.949
 30
0.0
 11
54.1938
 21
-649.949
 31
0.0
  0
LINE
  5
59
100
AcDbEntity
  8
1
  6
CONTINUOUS
 62
     3
100
AcDbLine
 10
58.9938
 20
-649.949
 30
0.0
 11
63.1938
 21
-649.949
 31
0.0
  0
LINE
  5
5A
100
AcDbEntity
  8
1
  6
CONTINUOUS
 62
     3
100
AcDbLine
 10
67.9938
 20
-649.949
 30
0.0
 11
72.1938
 21
-649.949
 31
0.0
  0
LINE
  5
5B
100
AcDbEntity
  8
1
  6
CONTINUOUS
 62
     3
100
AcDbLine
 10
76.9938
 20
-649.949
 30
0.0
 11
81.1938
 21
-649.949
 31
0.0
  0
LINE
  5
5C
100
AcDbEntity
  8
1
  6
CONTINUOUS
 62
     3
100
AcDbLine
 10
85.9938
 20
-649.949
 30
0.0
 11
90.1938
 21
-649.949
 31
0.0
  0
LINE
  5
5D
100
AcDbEntity
  8
1
  6
CONTINUOUS
 62
     3
100
AcDbLine
 10
94.9938
 20
-649.949
 30
0.0
 11
99.1938
 21
-649.949
 31
0.0
  0
LINE
  5
5E
100
AcDbEntity
  8
1
  6
CONTINUOUS
 62
     3
100
AcDbLine
 10
103.9938
 20
-649.949
 30
0.0
 11
108.1938
 21
-649.949
 31
0.0
  0
LINE
  5
5F
100
AcDbEntity
  8
1
  6
CONTINUOUS
 62
     3
100
AcDbLine
 10
112.9938
 20
-649.949
 30
0.0
 11
117.1938
 21
-649.949
 31
0.0
  0
LINE
  5
60
100
AcDbEntity
  8
1
  6
CONTINUOUS
 62
     3
100
AcDbLine
 10
121.9938
 20
-649.949
 30
0.0
 11
126.1938
 21
-649.949
 31
0.0
  0
LINE
  5
61
100
AcDbEntity
  8
1
  6
CONTINUOUS
 62
     3
100
AcDbLine
 10
130.9938
 20
-649.949
 30
0.0
 11
135.1938
 21
-649.949
 31
0.0
  0
LINE
  5
62
100
AcDbEntity
  8
1
  6
CONTINUOUS
 62
     3
100
AcDbLine
 10
139.9938
 20
-649.949
 30
0.0
 11
144.1938
 21
-649.949
 31
0.0
  0
LINE
  5
63
100
AcDbEntity
  8
1
  6
CONTINUOUS
 62
     3
100
AcDbLine
 10
148.9938
 20
-649.949
 30
0.0
 11
153.1938
 21
-649.949
 31
0.0
  0
LINE
  5
64
100
AcDbEntity
  8
1
  6
CONTINUOUS
 62
     3
100
AcDbLine
 10
157.9938
 20
-649.949
 30
0.0
 11
162.1938
 21
-649.949
 31
0.0
  0
LINE
  5
65
100
AcDbEntity
  8
1
  6
CONTINUOUS
 62
     3
100
AcDbLine
 10
166.9938
 20
-649.949
 30
0.0
 11
171.1938
 21
-649.949
 31
0.0
  0
LINE
  5
66
100
AcDbEntity
  8
1
  6
CONTINUOUS
 62
     3
100
AcDbLine
 10
175.9938
 20
-649.949
 30
0.0
 11
180.1938
 21
-649.949
 31
0.0
  0
LINE
  5
67
100
AcDbEntity
  8
1
  6
CONTINUOUS
 62
     3
100
AcDbLine
 10
184.9938
 20
-649.949
 30
0.0
 11
189.1938
 21
-649.949
 31
0.0
  0
LINE
  5
68
100
AcDbEntity
  8
1
  6
CONTINUOUS
 62
     3
100
AcDbLine
 10
193.9938
 20
-649.949
 30
0.0
 11
198.1938
 21
-649.949
 31
0.0
  0
LINE
  5
69
100
AcDbEntity
  8
1
  6
CONTINUOUS
 62
     3
100
AcDbLine
 10
202.9938
 20
-649.949
 30
0.0
 11
207.1938
 21
-649.949
 31
0.0
  0
LINE
  5
6A
100
AcDbEntity
  8
1
  6
CONTINUOUS
 62
     1
100
AcDbLine
 10
184.9938
 20
-638.699
 30
0.0
 11
198.1938
 21
-638.699
 31
0.0
  0
POLYLINE
  5
6B
100
AcDbEntity
  8
1
  6
CONTINUOUS
 62
     1
100
AcDb2dPolyline
 66
     1
 10
0.0
 20
0.0
 30
0.0
 70
     1
  0
VERTEX
  5
6C
100
AcDbEntity
  8
1
  6
CONTINUOUS
 62
     1
100
AcDbVertex
100
AcDb2dVertex
 10
178.1884
 20
-638.699
 30
0.0
  0
VERTEX
  5
6D
100
AcDbEntity
  8
1
  6
CONTINUOUS
 62
     1
100
AcDbVertex
100
AcDb2dVertex
 10
184.9938
 20
-639.899
 30
0.0
  0
VERTEX
  5
6E
100
AcDbEntity
  8
1
  6
CONTINUOUS
 62
     1
100
AcDbVertex
100
AcDb2dVertex
 10
184.9938
 20
-637.499
 30
0.0
  0
VERTEX
  5
6F
100
AcDbEntity
  8
1
  6
CONTINUOUS
 62
     1
100
AcDbVertex
100
AcDb2dVertex
 10
178.1884
 20
-638.699
 30
0.0
  0
SEQEND
  5
70
100
AcDbEntity
  8
1
  6
CONTINUOUS
 62
     1
  0
LINE
  5
71
100
AcDbEntity
  8
1
  6
CONTINUOUS
 62
     7
100
AcDbLine
 10
-15.1855
 20
-656.849
 30
0.0
 11
-7.9123
 21
-664.1222
 31
0.0
  0
LINE
  5
72
100
AcDbEntity
  8
1
  6
CONTINUOUS
 62
     7
100
AcDbLine
 10
-7.9123
 20
-664.1222
 30
0.0
 11
-3.1123
 21
-664.1222
 31
0.0
  0
LINE
  5
73
100
AcDbEntity
  8
1
  6
CONTINUOUS
 62
     7
100
AcDbLine
 10
61.0938
 20
-649.949
 30
0.0
 11
69.9254
 21
-664.049
 31
0.0
  0
LINE
  5
74
100
AcDbEntity
  8
1
  6
CONTINUOUS
 62
     7
100
AcDbLine
 10
69.9254
 20
-664.049
 30
0.0
 11
74.7254
 21
-664.049
 31
0.0
  0
LINE
  5
75
100
AcDbEntity
  8
1
  6
CONTINUOUS
 62
     7
100
AcDbLine
 10
138.8387
 20
-643.949
 30
0.0
 11
151.4061
 21
-664.0134
 31
0.0
  0
LINE
  5
76
100
AcDbEntity
  8
1
  6
CONTINUOUS
 62
     7
100
AcDbLine
 10
151.4061
 20
-664.0134
 30
0.0
 11
156.2061
 21
-664.0134
 31
0.0
  0
INSERT
  5
7C
100
AcDbEntity
  8
1
  6
CONTINUOUS
 62
     1
100
AcDbBlockReference
  2
LDR
 10
138.8387
 20
-643.949
 30
0.0
 41
239.999999
 42
239.999999
 50
122.061101
210
0.0
220
0.0
230
1.0
  0
INSERT
  5
7D
100
AcDbEntity
  8
1
  6
CONTINUOUS
 62
     1
100
AcDbBlockReference
  2
LDR
 10
61.0938
 20
-649.949
 30
0.0
 41
240.000003
 42
240.000003
 50
122.061161
210
0.0
220
0.0
230
1.0
  0
INSERT
  5
7E
100
AcDbEntity
  8
1
  6
CONTINUOUS
 62
     1
100
AcDbBlockReference
  2
LDR
 10
-15.1855
 20
-656.849
 30
0.0
 41
239.999999
 42
239.999999
 50
135.0
210
0.0
220
0.0
230
1.0
  0
LINE
  5
7F
100
AcDbEntity
  8
1
  6
CONTINUOUS
 62
     7
100
AcDbLine
 10
108.1938
 20
-648.749
 30
0.0
 11
108.1938
 21
-625.949
 31
0.0
  0
LINE
  5
80
100
AcDbEntity
  8
1
  6
CONTINUOUS
 62
     7
100
AcDbLine
 10
112.9938
 20
-648.749
 30
0.0
 11
112.9938
 21
-625.949
 31
0.0
  0
LINE
  5
81
100
AcDbEntity
  8
1
  6
CONTINUOUS
 62
     7
100
AcDbLine
 10
117.1938
 20
-648.749
 30
0.0
 11
117.1938
 21
-625.949
 31
0.0
  0
TEXT
  5
82
100
AcDbEntity
  8
1
  6
CONTINUOUS
 62
     7
100
AcDbText
 10
27.18
 20
-682.0885
 30
0.0
 40
4.2
  1
(A)  TWO WAY MARKING, TRUCK CLIMBING LANE
  7
TXT
210
0.0
220
0.0
230
1.0
100
AcDbText
  0
LINE
  5
83
100
AcDbEntity
  8
1
  6
CONTINUOUS
 62
     7
100
AcDbLine
 10
26.4442
 20
-683.5597
 30
0.0
 11
171.056
 21
-683.5597
 31
0.0
  0
LINE
  5
84
100
AcDbEntity
  8
1
  6
CONTINUOUS
 62
     3
100
AcDbLine
 10
-15.7062
 20
-707.4182
 30
0.0
 11
209.8938
 21
-707.4182
 31
0.0
  0
LINE
  5
85
100
AcDbEntity
  8
1
  6
CONTINUOUS
 62
     7
100
AcDbLine
 10
33.2092
 20
-750.7099
 30
0.0
 11
169.7779
 21
-750.7099
 31
0.0
  0
LINE
  5
86
100
AcDbEntity
  8
1
  6
CONTINUOUS
 62
     3
100
AcDbLine
 10
-15.7062
 20
-733.8182
 30
0.0
 11
209.8938
 21
-733.8182
 31
0.0
  0
LINE
  5
87
100
AcDbEntity
  8
1
  6
CONTINUOUS
 62
     3
100
AcDbLine
 10
74.2938
 20
-719.7182
 30
0.0
 11
78.4938
 21
-719.7182
 31
0.0
  0
LINE
  5
88
100
AcDbEntity
  8
1
  6
CONTINUOUS
 62
     3
100
AcDbLine
 10
83.2938
 20
-719.7182
 30
0.0
 11
87.4938
 21
-719.7182
 31
0.0
  0
LINE
  5
89
100
AcDbEntity
  8
1
  6
CONTINUOUS
 62
     3
100
AcDbLine
 10
92.2938
 20
-719.7182
 30
0.0
 11
96.4938
 21
-719.7182
 31
0.0
  0
LINE
  5
8A
100
AcDbEntity
  8
1
  6
CONTINUOUS
 62
     3
100
AcDbLine
 10
101.2938
 20
-719.7182
 30
0.0
 11
105.4938
 21
-719.7182
 31
0.0
  0
LINE
  5
8B
100
AcDbEntity
  8
1
  6
CONTINUOUS
 62
     3
100
AcDbLine
 10
110.2938
 20
-719.7182
 30
0.0
 11
186.4938
 21
-719.7182
 31
0.0
  0
LINE
  5
8C
100
AcDbEntity
  8
1
  6
CONTINUOUS
 62
     3
100
AcDbLine
 10
-15.7062
 20
-721.5182
 30
0.0
 11
-11.5062
 21
-721.5182
 31
0.0
  0
LINE
  5
8D
100
AcDbEntity
  8
1
  6
CONTINUOUS
 62
     3
100
AcDbLine
 10
-6.7062
 20
-721.5182
 30
0.0
 11
-2.5062
 21
-721.5182
 31
0.0
  0
LINE
  5
8E
100
AcDbEntity
  8
1
  6
CONTINUOUS
 62
     3
100
AcDbLine
 10
2.2938
 20
-721.5182
 30
0.0
 11
6.4938
 21
-721.5182
 31
0.0
  0
LINE
  5
8F
100
AcDbEntity
  8
1
  6
CONTINUOUS
 62
     3
100
AcDbLine
 10
11.2938
 20
-721.5182
 30
0.0
 11
15.4938
 21
-721.5182
 31
0.0
  0
LINE
  5
90
100
AcDbEntity
  8
1
  6
CONTINUOUS
 62
     3
100
AcDbLine
 10
20.2938
 20
-721.5182
 30
0.0
 11
24.4938
 21
-721.5182
 31
0.0
  0
LINE
  5
91
100
AcDbEntity
  8
1
  6
CONTINUOUS
 62
     3
100
AcDbLine
 10
29.2938
 20
-721.5182
 30
0.0
 11
33.4938
 21
-721.5182
 31
0.0
  0
LINE
  5
92
100
AcDbEntity
  8
1
  6
CONTINUOUS
 62
     3
100
AcDbLine
 10
38.2938
 20
-721.5182
 30
0.0
 11
114.4938
 21
-721.5182
 31
0.0
  0
LINE
  5
93
100
AcDbEntity
  8
1
  6
CONTINUOUS
 62
     3
100
AcDbLine
 10
119.2938
 20
-721.5182
 30
0.0
 11
123.4938
 21
-721.5182
 31
0.0
  0
LINE
  5
94
100
AcDbEntity
  8
1
  6
CONTINUOUS
 62
     3
100
AcDbLine
 10
128.2938
 20
-721.5182
 30
0.0
 11
132.4938
 21
-721.5182
 31
0.0
  0
LINE
  5
95
100
AcDbEntity
  8
1
  6
CONTINUOUS
 62
     3
100
AcDbLine
 10
137.2938
 20
-721.5182
 30
0.0
 11
141.4938
 21
-721.5182
 31
0.0
  0
LINE
  5
96
100
AcDbEntity
  8
1
  6
CONTINUOUS
 62
     3
100
AcDbLine
 10
146.2938
 20
-721.5182
 30
0.0
 11
150.4938
 21
-721.5182
 31
0.0
  0
LINE
  5
97
100
AcDbEntity
  8
1
  6
CONTINUOUS
 62
     3
100
AcDbLine
 10
155.2938
 20
-721.5182
 30
0.0
 11
159.4938
 21
-721.5182
 31
0.0
  0
LINE
  5
98
100
AcDbEntity
  8
1
  6
CONTINUOUS
 62
     3
100
AcDbLine
 10
164.2938
 20
-721.5182
 30
0.0
 11
168.4938
 21
-721.5182
 31
0.0
  0
LINE
  5
99
100
AcDbEntity
  8
1
  6
CONTINUOUS
 62
     3
100
AcDbLine
 10
173.2938
 20
-721.5182
 30
0.0
 11
177.4938
 21
-721.5182
 31
0.0
  0
LINE
  5
9A
100
AcDbEntity
  8
1
  6
CONTINUOUS
 62
     3
100
AcDbLine
 10
182.2938
 20
-721.5182
 30
0.0
 11
186.4938
 21
-721.5182
 31
0.0
  0
LINE
  5
9B
100
AcDbEntity
  8
1
  6
CONTINUOUS
 62
     3
100
AcDbLine
 10
191.2938
 20
-721.5182
 30
0.0
 11
195.4938
 21
-721.5182
 31
0.0
  0
LINE
  5
9C
100
AcDbEntity
  8
1
  6
CONTINUOUS
 62
     3
100
AcDbLine
 10
200.2938
 20
-721.5182
 30
0.0
 11
204.4938
 21
-721.5182
 31
0.0
  0
TEXT
  5
9D
100
AcDbEntity
  8
1
  6
CONTINUOUS
 62
     7
100
AcDbText
 10
103.1745
 20
-617.6631
 30
0.0
 40
3.0
  1
TYPICAL
  7
MONOTXT
210
0.0
220
0.0
230
1.0
100
AcDbText
  0
LINE
  5
9E
100
AcDbEntity
  8
1
  6
CONTINUOUS
 62
     3
100
AcDbLine
 10
-13.0062
 20
-790.4648
 30
0.0
 11
-8.8062
 21
-790.4648
 31
0.0
  0
LINE
  5
9F
100
AcDbEntity
  8
1
  6
CONTINUOUS
 62
     3
100
AcDbLine
 10
-4.0062
 20
-790.4648
 30
0.0
 11
0.1938
 21
-790.4648
 31
0.0
  0
LINE
  5
A0
100
AcDbEntity
  8
1
  6
CONTINUOUS
 62
     3
100
AcDbLine
 10
4.9938
 20
-790.4648
 30
0.0
 11
9.1938
 21
-790.4648
 31
0.0
  0
LINE
  5
A1
100
AcDbEntity
  8
1
  6
CONTINUOUS
 62
     3
100
AcDbLine
 10
13.9938
 20
-790.4648
 30
0.0
 11
18.1938
 21
-790.4648
 31
0.0
  0
LINE
  5
A2
100
AcDbEntity
  8
1
  6
CONTINUOUS
 62
     3
100
AcDbLine
 10
22.9938
 20
-790.4648
 30
0.0
 11
27.1938
 21
-790.4648
 31
0.0
  0
LINE
  5
A3
100
AcDbEntity
  8
1
  6
CONTINUOUS
 62
     3
100
AcDbLine
 10
31.9938
 20
-790.4648
 30
0.0
 11
36.1938
 21
-790.4648
 31
0.0
  0
LINE
  5
A4
100
AcDbEntity
  8
1
  6
CONTINUOUS
 62
     3
100
AcDbLine
 10
40.9938
 20
-790.4648
 30
0.0
 11
45.1938
 21
-790.4648
 31
0.0
  0
LINE
  5
A5
100
AcDbEntity
  8
1
  6
CONTINUOUS
 62
     3
100
AcDbLine
 10
49.9938
 20
-790.4648
 30
0.0
 11
54.1938
 21
-790.4648
 31
0.0
  0
LINE
  5
A6
100
AcDbEntity
  8
1
  6
CONTINUOUS
 62
     3
100
AcDbLine
 10
58.9938
 20
-790.4648
 30
0.0
 11
63.1938
 21
-790.4648
 31
0.0
  0
LINE
  5
A7
100
AcDbEntity
  8
1
  6
CONTINUOUS
 62
     3
100
AcDbLine
 10
67.9938
 20
-790.4648
 30
0.0
 11
72.1938
 21
-790.4648
 31
0.0
  0
LINE
  5
A8
100
AcDbEntity
  8
1
  6
CONTINUOUS
 62
     3
100
AcDbLine
 10
76.9938
 20
-790.4648
 30
0.0
 11
81.1938
 21
-790.4648
 31
0.0
  0
LINE
  5
A9
100
AcDbEntity
  8
1
  6
CONTINUOUS
 62
     3
100
AcDbLine
 10
85.9938
 20
-790.4648
 30
0.0
 11
90.1938
 21
-790.4648
 31
0.0
  0
LINE
  5
AA
100
AcDbEntity
  8
1
  6
CONTINUOUS
 62
     3
100
AcDbLine
 10
94.9938
 20
-790.4648
 30
0.0
 11
99.1938
 21
-790.4648
 31
0.0
  0
LINE
  5
AB
100
AcDbEntity
  8
1
  6
CONTINUOUS
 62
     3
100
AcDbLine
 10
103.9938
 20
-790.4648
 30
0.0
 11
108.1938
 21
-790.4648
 31
0.0
  0
LINE
  5
AC
100
AcDbEntity
  8
1
  6
CONTINUOUS
 62
     3
100
AcDbLine
 10
112.9938
 20
-790.4648
 30
0.0
 11
117.1938
 21
-790.4648
 31
0.0
  0
LINE
  5
AD
100
AcDbEntity
  8
1
  6
CONTINUOUS
 62
     3
100
AcDbLine
 10
121.9938
 20
-790.4648
 30
0.0
 11
126.1938
 21
-790.4648
 31
0.0
  0
LINE
  5
AE
100
AcDbEntity
  8
1
  6
CONTINUOUS
 62
     3
100
AcDbLine
 10
130.9938
 20
-790.4648
 30
0.0
 11
135.1938
 21
-790.4648
 31
0.0
  0
LINE
  5
AF
100
AcDbEntity
  8
1
  6
CONTINUOUS
 62
     3
100
AcDbLine
 10
139.9938
 20
-790.4648
 30
0.0
 11
144.1938
 21
-790.4648
 31
0.0
  0
LINE
  5
B0
100
AcDbEntity
  8
1
  6
CONTINUOUS
 62
     3
100
AcDbLine
 10
184.9938
 20
-790.4648
 30
0.0
 11
189.1938
 21
-790.4648
 31
0.0
  0
LINE
  5
B1
100
AcDbEntity
  8
1
  6
CONTINUOUS
 62
     3
100
AcDbLine
 10
193.9938
 20
-790.4648
 30
0.0
 11
198.1938
 21
-790.4648
 31
0.0
  0
LINE
  5
B2
100
AcDbEntity
  8
1
  6
CONTINUOUS
 62
     3
100
AcDbLine
 10
202.9938
 20
-790.4648
 30
0.0
 11
207.1938
 21
-790.4648
 31
0.0
  0
LINE
  5
B3
100
AcDbEntity
  8
1
  6
CONTINUOUS
 62
     3
100
AcDbLine
 10
-13.0062
 20
-811.4648
 30
0.0
 11
-8.8062
 21
-811.4648
 31
0.0
  0
LINE
  5
B4
100
AcDbEntity
  8
1
  6
CONTINUOUS
 62
     3
100
AcDbLine
 10
-4.0062
 20
-811.4648
 30
0.0
 11
0.1938
 21
-811.4648
 31
0.0
  0
LINE
  5
B5
100
AcDbEntity
  8
1
  6
CONTINUOUS
 62
     3
100
AcDbLine
 10
4.9938
 20
-811.4648
 30
0.0
 11
9.1938
 21
-811.4648
 31
0.0
  0
LINE
  5
B6
100
AcDbEntity
  8
1
  6
CONTINUOUS
 62
     3
100
AcDbLine
 10
13.9938
 20
-811.4648
 30
0.0
 11
18.1938
 21
-811.4648
 31
0.0
  0
LINE
  5
B7
100
AcDbEntity
  8
1
  6
CONTINUOUS
 62
     3
100
AcDbLine
 10
22.9938
 20
-811.4648
 30
0.0
 11
27.1938
 21
-811.4648
 31
0.0
  0
LINE
  5
B8
100
AcDbEntity
  8
1
  6
CONTINUOUS
 62
     3
100
AcDbLine
 10
31.9938
 20
-811.4648
 30
0.0
 11
36.1938
 21
-811.4648
 31
0.0
  0
LINE
  5
B9
100
AcDbEntity
  8
1
  6
CONTINUOUS
 62
     3
100
AcDbLine
 10
40.9938
 20
-811.4648
 30
0.0
 11
45.1938
 21
-811.4648
 31
0.0
  0
LINE
  5
BA
100
AcDbEntity
  8
1
  6
CONTINUOUS
 62
     3
100
AcDbLine
 10
49.9938
 20
-811.4648
 30
0.0
 11
54.1938
 21
-811.4648
 31
0.0
  0
LINE
  5
BB
100
AcDbEntity
  8
1
  6
CONTINUOUS
 62
     3
100
AcDbLine
 10
58.9938
 20
-811.4648
 30
0.0
 11
63.1938
 21
-811.4648
 31
0.0
  0
LINE
  5
BC
100
AcDbEntity
  8
1
  6
CONTINUOUS
 62
     3
100
AcDbLine
 10
67.9938
 20
-811.4648
 30
0.0
 11
72.1938
 21
-811.4648
 31
0.0
  0
LINE
  5
BD
100
AcDbEntity
  8
1
  6
CONTINUOUS
 62
     3
100
AcDbLine
 10
76.9938
 20
-811.4648
 30
0.0
 11
81.1938
 21
-811.4648
 31
0.0
  0
LINE
  5
BE
100
AcDbEntity
  8
1
  6
CONTINUOUS
 62
     3
100
AcDbLine
 10
85.9938
 20
-811.4648
 30
0.0
 11
90.1938
 21
-811.4648
 31
0.0
  0
LINE
  5
BF
100
AcDbEntity
  8
1
  6
CONTINUOUS
 62
     3
100
AcDbLine
 10
94.9938
 20
-811.4648
 30
0.0
 11
99.1938
 21
-811.4648
 31
0.0
  0
LINE
  5
C0
100
AcDbEntity
  8
1
  6
CONTINUOUS
 62
     3
100
AcDbLine
 10
103.9938
 20
-811.4648
 30
0.0
 11
108.1938
 21
-811.4648
 31
0.0
  0
LINE
  5
C1
100
AcDbEntity
  8
1
  6
CONTINUOUS
 62
     3
100
AcDbLine
 10
112.9938
 20
-811.4648
 30
0.0
 11
117.1938
 21
-811.4648
 31
0.0
  0
LINE
  5
C2
100
AcDbEntity
  8
1
  6
CONTINUOUS
 62
     3
100
AcDbLine
 10
121.9938
 20
-811.4648
 30
0.0
 11
126.1938
 21
-811.4648
 31
0.0
  0
LINE
  5
C3
100
AcDbEntity
  8
1
  6
CONTINUOUS
 62
     3
100
AcDbLine
 10
130.9938
 20
-811.4648
 30
0.0
 11
135.1938
 21
-811.4648
 31
0.0
  0
LINE
  5
C4
100
AcDbEntity
  8
1
  6
CONTINUOUS
 62
     3
100
AcDbLine
 10
139.9938
 20
-811.4648
 30
0.0
 11
144.1938
 21
-811.4648
 31
0.0
  0
LINE
  5
C5
100
AcDbEntity
  8
1
  6
CONTINUOUS
 62
     3
100
AcDbLine
 10
184.9938
 20
-811.4648
 30
0.0
 11
189.1938
 21
-811.4648
 31
0.0
  0
LINE
  5
C6
100
AcDbEntity
  8
1
  6
CONTINUOUS
 62
     3
100
AcDbLine
 10
193.9938
 20
-811.4648
 30
0.0
 11
198.1938
 21
-811.4648
 31
0.0
  0
LINE
  5
C7
100
AcDbEntity
  8
1
  6
CONTINUOUS
 62
     3
100
AcDbLine
 10
202.9938
 20
-811.4648
 30
0.0
 11
207.1938
 21
-811.4648
 31
0.0
  0
LINE
  5
C8
100
AcDbEntity
  8
1
  6
CONTINUOUS
 62
     3
100
AcDbLine
 10
155.8938
 20
-771.5648
 30
0.0
 11
155.8938
 21
-778.7648
 31
0.0
  0
LINE
  5
C9
100
AcDbEntity
  8
1
  6
CONTINUOUS
 62
     3
100
AcDbLine
 10
178.0938
 20
-771.5648
 30
0.0
 11
178.0938
 21
-778.7648
 31
0.0
  0
LINE
  5
CA
100
AcDbEntity
  8
1
  6
CONTINUOUS
 62
     3
100
AcDbLine
 10
178.0938
 20
-823.1648
 30
0.0
 11
178.0938
 21
-830.3648
 31
0.0
  0
LINE
  5
CB
100
AcDbEntity
  8
1
  6
CONTINUOUS
 62
     3
100
AcDbLine
 10
-15.7062
 20
-778.7648
 30
0.0
 11
155.8938
 21
-778.7648
 31
0.0
  0
LINE
  5
CC
100
AcDbEntity
  8
1
  6
CONTINUOUS
 62
     3
100
AcDbLine
 10
178.0938
 20
-778.7648
 30
0.0
 11
209.8938
 21
-778.7648
 31
0.0
  0
LINE
  5
CD
100
AcDbEntity
  8
1
  6
CONTINUOUS
 62
     3
100
AcDbLine
 10
-15.7062
 20
-823.1648
 30
0.0
 11
155.8938
 21
-823.1648
 31
0.0
  0
LINE
  5
CE
100
AcDbEntity
  8
1
  6
CONTINUOUS
 62
     3
100
AcDbLine
 10
178.0938
 20
-823.1648
 30
0.0
 11
209.8938
 21
-823.1648
 31
0.0
  0
LINE
  5
CF
100
AcDbEntity
  8
1
  6
CONTINUOUS
 62
     3
100
AcDbLine
 10
155.8938
 20
-823.1648
 30
0.0
 11
155.8938
 21
-829.8684
 31
0.0
  0
LINE
  5
D0
100
AcDbEntity
  8
1
  6
CONTINUOUS
 62
     3
100
AcDbLine
 10
157.3938
 20
-771.5648
 30
0.0
 11
157.3938
 21
-778.1648
 31
0.0
  0
LINE
  5
D1
100
AcDbEntity
  8
1
  6
CONTINUOUS
 62
     3
100
AcDbLine
 10
176.5938
 20
-771.5648
 30
0.0
 11
176.5938
 21
-778.1648
 31
0.0
  0
LINE
  5
D2
100
AcDbEntity
  8
1
  6
CONTINUOUS
 62
     3
100
AcDbLine
 10
157.3938
 20
-823.7648
 30
0.0
 11
157.3938
 21
-829.8684
 31
0.0
  0
LINE
  5
D3
100
AcDbEntity
  8
1
  6
CONTINUOUS
 62
     3
100
AcDbLine
 10
176.5938
 20
-823.7648
 30
0.0
 11
176.5938
 21
-830.3648
 31
0.0
  0
LINE
  5
D4
100
AcDbEntity
  8
1
  6
CONTINUOUS
 62
     3
100
AcDbLine
 10
-15.7062
 20
-784.1648
 30
0.0
 11
151.3938
 21
-784.1648
 31
0.0
  0
LINE
  5
D5
100
AcDbEntity
  8
1
  6
CONTINUOUS
 62
     3
100
AcDbLine
 10
182.5938
 20
-784.1648
 30
0.0
 11
209.8938
 21
-784.1648
 31
0.0
  0
LINE
  5
D6
100
AcDbEntity
  8
1
  6
CONTINUOUS
 62
     3
100
AcDbLine
 10
-15.7062
 20
-785.0648
 30
0.0
 11
151.0938
 21
-785.0648
 31
0.0
  0
LINE
  5
D7
100
AcDbEntity
  8
1
  6
CONTINUOUS
 62
     3
100
AcDbLine
 10
182.8938
 20
-785.0648
 30
0.0
 11
209.8938
 21
-785.0648
 31
0.0
  0
LINE
  5
D8
100
AcDbEntity
  8
1
  6
CONTINUOUS
 62
     3
100
AcDbLine
 10
-15.7062
 20
-795.8648
 30
0.0
 11
145.7153
 21
-795.8648
 31
0.0
  0
LINE
  5
D9
100
AcDbEntity
  8
1
  6
CONTINUOUS
 62
     3
100
AcDbLine
 10
-15.7062
 20
-796.7648
 30
0.0
 11
145.7153
 21
-796.7648
 31
0.0
  0
LINE
  5
DA
100
AcDbEntity
  8
1
  6
CONTINUOUS
 62
     3
100
AcDbLine
 10
179.6019
 20
-805.1648
 30
0.0
 11
209.8938
 21
-805.1648
 31
0.0
  0
LINE
  5
DB
100
AcDbEntity
  8
1
  6
CONTINUOUS
 62
     3
100
AcDbLine
 10
179.5257
 20
-806.0648
 30
0.0
 11
209.8938
 21
-806.0648
 31
0.0
  0
LINE
  5
DC
100
AcDbEntity
  8
1
  6
CONTINUOUS
 62
     3
100
AcDbLine
 10
-15.7062
 20
-816.8648
 30
0.0
 11
151.0938
 21
-816.8648
 31
0.0
  0
LINE
  5
DD
100
AcDbEntity
  8
1
  6
CONTINUOUS
 62
     3
100
AcDbLine
 10
182.8938
 20
-816.8648
 30
0.0
 11
209.8938
 21
-816.8648
 31
0.0
  0
LINE
  5
DE
100
AcDbEntity
  8
1
  6
CONTINUOUS
 62
     3
100
AcDbLine
 10
-15.7062
 20
-817.7648
 30
0.0
 11
151.3938
 21
-817.7648
 31
0.0
  0
LINE
  5
DF
100
AcDbEntity
  8
1
  6
CONTINUOUS
 62
     3
100
AcDbLine
 10
182.5938
 20
-817.7648
 30
0.0
 11
209.8938
 21
-817.7648
 31
0.0
  0
ARC
  5
E0
100
AcDbEntity
  8
1
  6
CONTINUOUS
 62
     3
100
AcDbCircle
 10
151.3938
 20
-778.1648
 30
0.0
 40
6.0
210
0.0
220
0.0
230
1.0
100
AcDbArc
 50
270.0
 51
360.0
  0
ARC
  5
E1
100
AcDbEntity
  8
1
  6
CONTINUOUS
 62
     3
100
AcDbCircle
 10
182.5938
 20
-778.1648
 30
0.0
 40
6.0
210
0.0
220
0.0
230
1.0
100
AcDbArc
 50
180.0
 51
270.0
  0
ARC
  5
E2
100
AcDbEntity
  8
1
  6
CONTINUOUS
 62
     3
100
AcDbCircle
 10
182.5938
 20
-823.7648
 30
0.0
 40
6.0
210
0.0
220
0.0
230
1.0
100
AcDbArc
 50
90.0
 51
180.0
  0
ARC
  5
E3
100
AcDbEntity
  8
1
  6
CONTINUOUS
 62
     3
100
AcDbCircle
 10
151.3938
 20
-823.7648
 30
0.0
 40
6.0
210
0.0
220
0.0
230
1.0
100
AcDbArc
 50
0.0
 51
90.0
  0
LINE
  5
E4
100
AcDbEntity
  8
1
  6
CONTINUOUS
 62
     3
100
AcDbLine
 10
158.2938
 20
-771.5648
 30
0.0
 11
158.2938
 21
-777.8648
 31
0.0
  0
LINE
  5
E5
100
AcDbEntity
  8
1
  6
CONTINUOUS
 62
     3
100
AcDbLine
 10
175.6938
 20
-771.5648
 30
0.0
 11
175.6938
 21
-777.8648
 31
0.0
  0
LINE
  5
E6
100
AcDbEntity
  8
1
  6
CONTINUOUS
 62
     3
100
AcDbLine
 10
158.2938
 20
-824.0648
 30
0.0
 11
158.2938
 21
-829.8684
 31
0.0
  0
LINE
  5
E7
100
AcDbEntity
  8
1
  6
CONTINUOUS
 62
     3
100
AcDbLine
 10
175.6938
 20
-824.0648
 30
0.0
 11
175.6938
 21
-830.3648
 31
0.0
  0
ARC
  5
E8
100
AcDbEntity
  8
1
  6
CONTINUOUS
 62
     3
100
AcDbCircle
 10
151.0938
 20
-777.8648
 30
0.0
 40
7.2
210
0.0
220
0.0
230
1.0
100
AcDbArc
 50
270.0
 51
0.0
  0
ARC
  5
E9
100
AcDbEntity
  8
1
  6
CONTINUOUS
 62
     3
100
AcDbCircle
 10
182.8938
 20
-777.8648
 30
0.0
 40
7.2
210
0.0
220
0.0
230
1.0
100
AcDbArc
 50
180.0
 51
270.0
  0
ARC
  5
EA
100
AcDbEntity
  8
1
  6
CONTINUOUS
 62
     3
100
AcDbCircle
 10
151.0938
 20
-824.0648
 30
0.0
 40
7.2
210
0.0
220
0.0
230
1.0
100
AcDbArc
 50
0.0
 51
90.0
  0
ARC
  5
EB
100
AcDbEntity
  8
1
  6
CONTINUOUS
 62
     3
100
AcDbCircle
 10
182.8938
 20
-824.0648
 30
0.0
 40
7.2
210
0.0
220
0.0
230
1.0
100
AcDbArc
 50
90.0
 51
180.0
  0
LINE
  5
EC
100
AcDbEntity
  8
1
  6
HIDDEN
 62
     3
100
AcDbLine
 10
151.0938
 20
-785.0648
 30
0.0
 11
182.8938
 21
-785.0648
 31
0.0
  0
LINE
  5
ED
100
AcDbEntity
  8
1
  6
HIDDEN
 62
     3
100
AcDbLine
 10
151.0938
 20
-816.8648
 30
0.0
 11
182.8938
 21
-816.8648
 31
0.0
  0
LINE
  5
EE
100
AcDbEntity
  8
1
  6
CONTINUOUS
 62
     3
100
AcDbLine
 10
-15.7062
 20
-805.1648
 30
0.0
 11
64.6938
 21
-805.1648
 31
0.0
  0
LINE
  5
EF
100
AcDbEntity
  8
1
  6
CONTINUOUS
 62
     3
100
AcDbLine
 10
94.6938
 20
-800.3648
 30
0.0
 11
134.2938
 21
-800.3648
 31
0.0
  0
LINE
  5
F0
100
AcDbEntity
  8
1
  6
CONTINUOUS
 62
     3
100
AcDbLine
 10
-15.7062
 20
-806.0648
 30
0.0
 11
64.6938
 21
-806.0648
 31
0.0
  0
LINE
  5
F1
100
AcDbEntity
  8
1
  6
CONTINUOUS
 62
     3
100
AcDbLine
 10
94.6938
 20
-801.2648
 30
0.0
 11
134.2938
 21
-801.2648
 31
0.0
  0
ARC
  5
F2
100
AcDbEntity
  8
1
  6
CONTINUOUS
 62
     3
100
AcDbCircle
 10
65.106992
 20
-757.213872
 30
0.0
 40
48.852676
210
0.0
220
0.0
230
1.0
100
AcDbArc
 50
269.515392
 51
283.720078
  0
ARC
  5
F3
100
AcDbEntity
  8
1
  6
CONTINUOUS
 62
     3
100
AcDbCircle
 10
95.960068
 20
-857.195129
 30
0.0
 40
55.944661
210
0.0
220
0.0
230
1.0
100
AcDbArc
 50
91.296958
 51
110.144003
  0
ARC
  5
F4
100
AcDbEntity
  8
1
  6
CONTINUOUS
 62
     3
100
AcDbCircle
 10
65.106992
 20
-757.213872
 30
0.0
 40
47.952676
210
0.0
220
0.0
230
1.0
100
AcDbArc
 50
269.515392
 51
283.720078
  0
ARC
  5
F5
100
AcDbEntity
  8
1
  6
CONTINUOUS
 62
     3
100
AcDbCircle
 10
95.960068
 20
-857.195129
 30
0.0
 40
56.844661
210
0.0
220
0.0
230
1.0
100
AcDbArc
 50
91.296958
 51
110.144003
  0
ARC
  5
F6
100
AcDbEntity
  8
1
  6
CONTINUOUS
 62
     3
100
AcDbCircle
 10
130.168342
 20
-675.225902
 30
0.0
 40
125.206881
210
0.0
220
0.0
230
1.0
100
AcDbArc
 50
271.888189
 51
277.132836
  0
ARC
  5
F7
100
AcDbEntity
  8
1
  6
CONTINUOUS
 62
     3
100
AcDbCircle
 10
130.168342
 20
-675.225902
 30
0.0
 40
126.106881
210
0.0
220
0.0
230
1.0
100
AcDbArc
 50
271.888189
 51
277.132836
  0
ARC
  5
F8
100
AcDbEntity
  8
1
  6
CONTINUOUS
 62
     3
100
AcDbCircle
 10
145.611106
 20
-798.114785
 30
0.0
 40
2.252396
210
0.0
220
0.0
230
1.0
100
AcDbArc
 50
275.502853
 51
87.348594
  0
ARC
  5
F9
100
AcDbEntity
  8
1
  6
CONTINUOUS
 62
     3
100
AcDbCircle
 10
145.611106
 20
-798.114785
 30
0.0
 40
1.352396
210
0.0
220
0.0
230
1.0
100
AcDbArc
 50
275.502853
 51
87.348594
  0
ARC
  5
FA
100
AcDbEntity
  8
1
  6
CONTINUOUS
 62
     3
100
AcDbCircle
 10
179.629894
 20
-803.814815
 30
0.0
 40
2.252396
210
0.0
220
0.0
230
1.0
100
AcDbArc
 50
95.502853
 51
267.348594
  0
ARC
  5
FB
100
AcDbEntity
  8
1
  6
CONTINUOUS
 62
     3
100
AcDbCircle
 10
179.629894
 20
-803.814815
 30
0.0
 40
1.352396
210
0.0
220
0.0
230
1.0
100
AcDbArc
 50
95.502853
 51
267.348594
  0
ARC
  5
FC
100
AcDbEntity
  8
1
  6
CONTINUOUS
 62
     3
100
AcDbCircle
 10
219.529289
 20
-1094.063398
 30
0.0
 40
295.228716
210
0.0
220
0.0
230
1.0
100
AcDbArc
 50
91.916214
 51
97.809453
  0
ARC
  5
FD
100
AcDbEntity
  8
1
  6
CONTINUOUS
 62
     3
100
AcDbCircle
 10
219.529289
 20
-1094.063398
 30
0.0
 40
294.328716
210
0.0
220
0.0
230
1.0
100
AcDbArc
 50
91.916214
 51
97.809453
  0
ARC
  5
FE
100
AcDbEntity
  8
1
  6
DOT
 62
     1
100
AcDbCircle
 10
187.821447
 20
-822.414535
 30
0.0
 40
26.394153
210
0.0
220
0.0
230
1.0
100
AcDbArc
 50
93.750189
 51
125.333489
  0
LINE
  5
FF
100
AcDbEntity
  8
1
  6
CONTINUOUS
 62
     1
100
AcDbLine
 10
186.0951
 20
-796.0769
 30
0.0
 11
208.3452
 21
-795.288
 31
0.0
  0
LINE
  5
100
100
AcDbEntity
  8
1
  6
CONTINUOUS
 62
     3
100
AcDbLine
 10
94.9938
 20
-806.0648
 30
0.0
 11
99.1938
 21
-806.0648
 31
0.0
  0
LINE
  5
101
100
AcDbEntity
  8
1
  6
CONTINUOUS
 62
     3
100
AcDbLine
 10
103.9938
 20
-806.0648
 30
0.0
 11
108.1938
 21
-806.0648
 31
0.0
  0
LINE
  5
102
100
AcDbEntity
  8
1
  6
CONTINUOUS
 62
     3
100
AcDbLine
 10
112.9938
 20
-806.0648
 30
0.0
 11
138.4375
 21
-806.0648
 31
0.0
  0
ARC
  5
103
100
AcDbEntity
  8
1
  6
DOT
 62
     1
100
AcDbCircle
 10
136.711153
 20
-779.727165
 30
0.0
 40
26.394153
210
0.0
220
0.0
230
1.0
100
AcDbArc
 50
273.750189
 51
307.845925
  0
LINE
  5
104
100
AcDbEntity
  8
1
  6
CONTINUOUS
 62
     7
100
AcDbLine
 10
-12.3146
 20
-831.3174
 30
0.0
 11
-8.2965
 21
-831.3174
 31
0.0
  0
LINE
  5
105
100
AcDbEntity
  8
1
  6
CONTINUOUS
 62
     7
100
AcDbLine
 10
87.5487
 20
-840.8627
 30
0.0
 11
92.2801
 21
-840.8627
 31
0.0
  0
LINE
  5
106
100
AcDbEntity
  8
1
  6
CONTINUOUS
 62
     7
100
AcDbLine
 10
97.0938
 20
-811.4648
 30
0.0
 11
87.5487
 21
-840.8627
 31
0.0
  0
LINE
  5
107
100
AcDbEntity
  8
1
  6
CONTINUOUS
 62
     7
100
AcDbLine
 10
87.5487
 20
-840.8627
 30
0.0
 11
106.0938
 21
-806.0648
 31
0.0
  0
LINE
  5
108
100
AcDbEntity
  8
1
  6
CONTINUOUS
 62
     7
100
AcDbLine
 10
135.2108
 20
-835.0597
 30
0.0
 11
140.0108
 21
-835.0597
 31
0.0
  0
LINE
  5
109
100
AcDbEntity
  8
1
  6
CONTINUOUS
 62
     7
100
AcDbLine
 10
125.7157
 20
-806.0648
 30
0.0
 11
135.2108
 21
-835.0597
 31
0.0
  0
LINE
  5
10A
100
AcDbEntity
  8
1
  6
CONTINUOUS
 62
     7
100
AcDbLine
 10
115.9376
 20
-764.7337
 30
0.0
 11
128.5146
 21
-764.7337
 31
0.0
  0
LINE
  5
10B
100
AcDbEntity
  8
1
  6
CONTINUOUS
 62
     7
100
AcDbLine
 10
166.9938
 20
-785.0648
 30
0.0
 11
128.5146
 21
-764.7337
 31
0.0
  0
LINE
  5
10C
100
AcDbEntity
  8
1
  6
CONTINUOUS
 62
     7
100
AcDbLine
 10
128.5146
 20
-764.7337
 30
0.0
 11
174.6478
 21
-816.8648
 31
0.0
  0
INSERT
  5
10D
100
AcDbEntity
  8
1
  6
CONTINUOUS
 62
     1
100
AcDbBlockReference
  2
LDR
 10
166.9938
 20
-785.0648
 30
0.0
 41
239.999999
 42
239.999999
 50
332.149551
210
0.0
220
0.0
230
1.0
  0
INSERT
  5
10E
100
AcDbEntity
  8
1
  6
CONTINUOUS
 62
     1
100
AcDbBlockReference
  2
LDR
 10
174.6478
 20
-816.8648
 30
0.0
 41
239.999998
 42
239.999998
 50
311.507088
210
0.0
220
0.0
230
1.0
  0
INSERT
  5
10F
100
AcDbEntity
  8
1
  6
CONTINUOUS
 62
     1
100
AcDbBlockReference
  2
LDR
 10
174.6478
 20
-816.8648
 30
0.0
 41
239.999998
 42
239.999998
 50
311.507088
210
0.0
220
0.0
230
1.0
  0
INSERT
  5
110
100
AcDbEntity
  8
1
  6
CONTINUOUS
 62
     1
100
AcDbBlockReference
  2
LDR
 10
125.7157
 20
-806.0648
 30
0.0
 41
240.000001
 42
240.000001
 50
108.132319
210
0.0
220
0.0
230
1.0
  0
INSERT
  5
111
100
AcDbEntity
  8
1
  6
CONTINUOUS
 62
     1
100
AcDbBlockReference
  2
LDR
 10
125.7157
 20
-806.0648
 30
0.0
 41
240.000001
 42
240.000001
 50
108.132319
210
0.0
220
0.0
230
1.0
  0
INSERT
  5
112
100
AcDbEntity
  8
1
  6
CONTINUOUS
 62
     1
100
AcDbBlockReference
  2
LDR
 10
106.0938
 20
-806.0648
 30
0.0
 41
240.000002
 42
240.000002
 50
61.945181
210
0.0
220
0.0
230
1.0
  0
INSERT
  5
113
100
AcDbEntity
  8
1
  6
CONTINUOUS
 62
     1
100
AcDbBlockReference
  2
LDR
 10
106.0938
 20
-806.0648
 30
0.0
 41
240.000002
 42
240.000002
 50
61.945181
210
0.0
220
0.0
230
1.0
  0
INSERT
  5
114
100
AcDbEntity
  8
1
  6
CONTINUOUS
 62
     1
100
AcDbBlockReference
  2
LDR
 10
97.0938
 20
-811.4648
 30
0.0
 41
239.999999
 42
239.999999
 50
72.012088
210
0.0
220
0.0
230
1.0
  0
TEXT
  5
115
100
AcDbEntity
  8
1
  6
CONTINUOUS
 62
     7
100
AcDbText
 10
-14.4462
 20
-766.8951
 30
0.0
 40
3.0
  1
BEGIN AT FULL
  7
MONOTXT
210
0.0
220
0.0
230
1.0
100
AcDbText
  0
TEXT
  5
116
100
AcDbEntity
  8
1
  6
CONTINUOUS
 62
     7
100
AcDbText
 10
-14.4462
 20
-772.2951
 30
0.0
 40
3.0
  1
LANE WIDTH
  7
MONOTXT
210
0.0
220
0.0
230
1.0
100
AcDbText
  0
LINE
  5
117
100
AcDbEntity
  8
1
  6
CONTINUOUS
 62
     7
100
AcDbLine
 10
21.4419
 20
-765.3466
 30
0.0
 11
26.2419
 21
-765.3466
 31
0.0
  0
LINE
  5
118
100
AcDbEntity
  8
1
  6
CONTINUOUS
 62
     7
100
AcDbLine
 10
26.2419
 20
-765.3466
 30
0.0
 11
94.9938
 21
-806.0648
 31
0.0
  0
INSERT
  5
119
100
AcDbEntity
  8
1
  6
CONTINUOUS
 62
     1
100
AcDbBlockReference
  2
LDR
 10
94.9938
 20
-806.0648
 30
0.0
 41
239.999999
 42
239.999999
 50
329.363931
210
0.0
220
0.0
230
1.0
  0
LINE
  5
11A
100
AcDbEntity
  8
1
  6
CONTINUOUS
 62
     7
100
AcDbLine
 10
47.8738
 20
-865.805
 30
0.0
 11
158.9195
 21
-865.805
 31
0.0
  0
LINE
  5
11B
100
AcDbEntity
  8
1
  6
CONTINUOUS
 62
     7
100
AcDbLine
 10
52.5224
 20
-800.8186
 30
0.0
 11
57.3224
 21
-800.8186
 31
0.0
  0
LINE
  5
11C
100
AcDbEntity
  8
1
  6
CONTINUOUS
 62
     7
100
AcDbLine
 10
57.3224
 20
-800.8186
 30
0.0
 11
64.35
 21
-795.8648
 31
0.0
  0
LINE
  5
11D
100
AcDbEntity
  8
1
  6
CONTINUOUS
 62
     7
100
AcDbLine
 10
57.3224
 20
-800.8186
 30
0.0
 11
64.7648
 21
-806.0648
 31
0.0
  0
LINE
  5
11E
100
AcDbEntity
  8
1
  6
CONTINUOUS
 62
     7
100
AcDbLine
 10
152.905
 20
-800.5697
 30
0.0
 11
155.3947
 21
-803.6458
 31
0.0
  0
LINE
  5
11F
100
AcDbEntity
  8
1
  6
CONTINUOUS
 62
     7
100
AcDbLine
 10
138.4375
 20
-806.0648
 30
0.0
 11
139.594
 21
-809.8724
 31
0.0
  0
LINE
  5
120
100
AcDbEntity
  8
1
  6
CONTINUOUS
 62
     7
100
AcDbLine
 10
139.2441
 20
-808.7204
 30
0.0
 11
154.6032
 21
-802.6678
 31
0.0
  0
INSERT
  5
121
100
AcDbEntity
  8
1
  6
CONTINUOUS
 62
     1
100
AcDbBlockReference
  2
LDR
 10
139.2441
 20
-808.7204
 30
0.0
 41
240.000001
 42
240.000001
 50
201.50804
210
0.0
220
0.0
230
1.0
  0
INSERT
  5
122
100
AcDbEntity
  8
1
  6
CONTINUOUS
 62
     1
100
AcDbBlockReference
  2
LDR
 10
139.2441
 20
-808.7204
 30
0.0
 41
240.000001
 42
240.000001
 50
201.50804
210
0.0
220
0.0
230
1.0
  0
INSERT
  5
123
100
AcDbEntity
  8
1
  6
CONTINUOUS
 62
     1
100
AcDbBlockReference
  2
LDR
 10
154.6032
 20
-802.6678
 30
0.0
 41
240.000001
 42
240.000001
 50
21.50804
210
0.0
220
0.0
230
1.0
  0
TEXT
  5
124
100
AcDbEntity
  8
1
  6
CONTINUOUS
 62
     7
100
AcDbText
 10
144.6689
 20
-810.3183
 30
0.0
 40
3.0
  1
SEE
 50
21.508039
  7
MONOTXT
 11
143.569005
 21
-807.527202
 31
0.0
210
0.0
220
0.0
230
1.0
100
AcDbText
 73
     3
  0
TEXT
  5
125
100
AcDbEntity
  8
1
  6
CONTINUOUS
 62
     7
100
AcDbText
 10
146.2087
 20
-814.2258
 30
0.0
 40
3.0
  1
NOTE
 50
21.508039
  7
MONOTXT
 11
145.108805
 21
-811.434702
 31
0.0
210
0.0
220
0.0
230
1.0
100
AcDbText
 73
     3
  0
TEXT
  5
126
100
AcDbEntity
  8
1
  6
CONTINUOUS
 62
     7
100
AcDbText
 10
147.7486
 20
-818.1333
 30
0.0
 40
3.0
  1
  2
 50
21.508039
  7
MONOTXT
 11
146.648705
 21
-815.342202
 31
0.0
210
0.0
220
0.0
230
1.0
100
AcDbText
 73
     3
  0
INSERT
  5
127
100
AcDbEntity
  8
1
  6
CONTINUOUS
 62
     1
100
AcDbBlockReference
  2
LDR
 10
64.35
 20
-795.8648
 30
0.0
 41
240.000001
 42
240.000001
 50
35.180253
210
0.0
220
0.0
230
1.0
  0
INSERT
  5
128
100
AcDbEntity
  8
1
  6
CONTINUOUS
 62
     1
100
AcDbBlockReference
  2
LDR
 10
64.35
 20
-795.8648
 30
0.0
 41
240.000001
 42
240.000001
 50
35.180253
210
0.0
220
0.0
230
1.0
  0
INSERT
  5
129
100
AcDbEntity
  8
1
  6
CONTINUOUS
 62
     1
100
AcDbBlockReference
  2
LDR
 10
64.7648
 20
-806.0648
 30
0.0
 41
240.0
 42
240.0
 50
324.819723
210
0.0
220
0.0
230
1.0
  0
LINE
  5
12A
100
AcDbEntity
  8
1
  6
CONTINUOUS
 62
     3
100
AcDbLine
 10
-12.6892
 20
-908.0728
 30
0.0
 11
-8.4892
 21
-908.0728
 31
0.0
  0
LINE
  5
12B
100
AcDbEntity
  8
1
  6
CONTINUOUS
 62
     3
100
AcDbLine
 10
-3.6892
 20
-908.0728
 30
0.0
 11
0.5108
 21
-908.0728
 31
0.0
  0
LINE
  5
12C
100
AcDbEntity
  8
1
  6
CONTINUOUS
 62
     3
100
AcDbLine
 10
5.3108
 20
-908.0728
 30
0.0
 11
9.5108
 21
-908.0728
 31
0.0
  0
LINE
  5
12D
100
AcDbEntity
  8
1
  6
CONTINUOUS
 62
     3
100
AcDbLine
 10
50.3108
 20
-908.0728
 30
0.0
 11
54.5108
 21
-908.0728
 31
0.0
  0
LINE
  5
12E
100
AcDbEntity
  8
1
  6
CONTINUOUS
 62
     3
100
AcDbLine
 10
59.3108
 20
-908.0728
 30
0.0
 11
63.5108
 21
-908.0728
 31
0.0
  0
LINE
  5
12F
100
AcDbEntity
  8
1
  6
CONTINUOUS
 62
     3
100
AcDbLine
 10
68.3108
 20
-908.0728
 30
0.0
 11
72.5108
 21
-908.0728
 31
0.0
  0
LINE
  5
130
100
AcDbEntity
  8
1
  6
CONTINUOUS
 62
     3
100
AcDbLine
 10
77.3108
 20
-908.0728
 30
0.0
 11
81.5108
 21
-908.0728
 31
0.0
  0
LINE
  5
131
100
AcDbEntity
  8
1
  6
CONTINUOUS
 62
     3
100
AcDbLine
 10
86.3108
 20
-908.0728
 30
0.0
 11
90.5108
 21
-908.0728
 31
0.0
  0
LINE
  5
132
100
AcDbEntity
  8
1
  6
CONTINUOUS
 62
     3
100
AcDbLine
 10
95.3108
 20
-908.0728
 30
0.0
 11
99.5108
 21
-908.0728
 31
0.0
  0
LINE
  5
133
100
AcDbEntity
  8
1
  6
CONTINUOUS
 62
     3
100
AcDbLine
 10
104.3108
 20
-908.0728
 30
0.0
 11
108.5108
 21
-908.0728
 31
0.0
  0
LINE
  5
134
100
AcDbEntity
  8
1
  6
CONTINUOUS
 62
     3
100
AcDbLine
 10
113.3108
 20
-908.0728
 30
0.0
 11
117.5108
 21
-908.0728
 31
0.0
  0
LINE
  5
135
100
AcDbEntity
  8
1
  6
CONTINUOUS
 62
     3
100
AcDbLine
 10
122.3108
 20
-908.0728
 30
0.0
 11
126.5108
 21
-908.0728
 31
0.0
  0
LINE
  5
136
100
AcDbEntity
  8
1
  6
CONTINUOUS
 62
     3
100
AcDbLine
 10
131.3108
 20
-908.0728
 30
0.0
 11
135.5108
 21
-908.0728
 31
0.0
  0
LINE
  5
137
100
AcDbEntity
  8
1
  6
CONTINUOUS
 62
     3
100
AcDbLine
 10
140.3108
 20
-908.0728
 30
0.0
 11
144.5108
 21
-908.0728
 31
0.0
  0
LINE
  5
138
100
AcDbEntity
  8
1
  6
CONTINUOUS
 62
     3
100
AcDbLine
 10
185.3108
 20
-908.0728
 30
0.0
 11
189.5108
 21
-908.0728
 31
0.0
  0
LINE
  5
139
100
AcDbEntity
  8
1
  6
CONTINUOUS
 62
     3
100
AcDbLine
 10
194.3108
 20
-908.0728
 30
0.0
 11
198.5108
 21
-908.0728
 31
0.0
  0
LINE
  5
13A
100
AcDbEntity
  8
1
  6
CONTINUOUS
 62
     3
100
AcDbLine
 10
203.3108
 20
-908.0728
 30
0.0
 11
207.5108
 21
-908.0728
 31
0.0
  0
LINE
  5
13B
100
AcDbEntity
  8
1
  6
CONTINUOUS
 62
     3
100
AcDbLine
 10
-12.6892
 20
-929.0728
 30
0.0
 11
-8.4892
 21
-929.0728
 31
0.0
  0
LINE
  5
13C
100
AcDbEntity
  8
1
  6
CONTINUOUS
 62
     3
100
AcDbLine
 10
-3.6892
 20
-929.0728
 30
0.0
 11
0.5108
 21
-929.0728
 31
0.0
  0
LINE
  5
13D
100
AcDbEntity
  8
1
  6
CONTINUOUS
 62
     3
100
AcDbLine
 10
5.3108
 20
-929.0728
 30
0.0
 11
9.5108
 21
-929.0728
 31
0.0
  0
LINE
  5
13E
100
AcDbEntity
  8
1
  6
CONTINUOUS
 62
     3
100
AcDbLine
 10
50.3108
 20
-929.0728
 30
0.0
 11
54.5108
 21
-929.0728
 31
0.0
  0
LINE
  5
13F
100
AcDbEntity
  8
1
  6
CONTINUOUS
 62
     3
100
AcDbLine
 10
59.3108
 20
-929.0728
 30
0.0
 11
63.5108
 21
-929.0728
 31
0.0
  0
LINE
  5
140
100
AcDbEntity
  8
1
  6
CONTINUOUS
 62
     3
100
AcDbLine
 10
68.3108
 20
-929.0728
 30
0.0
 11
72.5108
 21
-929.0728
 31
0.0
  0
LINE
  5
141
100
AcDbEntity
  8
1
  6
CONTINUOUS
 62
     3
100
AcDbLine
 10
77.3108
 20
-929.0728
 30
0.0
 11
81.5108
 21
-929.0728
 31
0.0
  0
LINE
  5
142
100
AcDbEntity
  8
1
  6
CONTINUOUS
 62
     3
100
AcDbLine
 10
86.3108
 20
-929.0728
 30
0.0
 11
90.5108
 21
-929.0728
 31
0.0
  0
LINE
  5
143
100
AcDbEntity
  8
1
  6
CONTINUOUS
 62
     3
100
AcDbLine
 10
95.3108
 20
-929.0728
 30
0.0
 11
99.5108
 21
-929.0728
 31
0.0
  0
LINE
  5
144
100
AcDbEntity
  8
1
  6
CONTINUOUS
 62
     3
100
AcDbLine
 10
104.3108
 20
-929.0728
 30
0.0
 11
108.5108
 21
-929.0728
 31
0.0
  0
LINE
  5
145
100
AcDbEntity
  8
1
  6
CONTINUOUS
 62
     3
100
AcDbLine
 10
113.3108
 20
-929.0728
 30
0.0
 11
117.5108
 21
-929.0728
 31
0.0
  0
LINE
  5
146
100
AcDbEntity
  8
1
  6
CONTINUOUS
 62
     3
100
AcDbLine
 10
122.3108
 20
-929.0728
 30
0.0
 11
126.5108
 21
-929.0728
 31
0.0
  0
LINE
  5
147
100
AcDbEntity
  8
1
  6
CONTINUOUS
 62
     3
100
AcDbLine
 10
131.3108
 20
-929.0728
 30
0.0
 11
135.5108
 21
-929.0728
 31
0.0
  0
LINE
  5
148
100
AcDbEntity
  8
1
  6
CONTINUOUS
 62
     3
100
AcDbLine
 10
140.3108
 20
-929.0728
 30
0.0
 11
144.5108
 21
-929.0728
 31
0.0
  0
LINE
  5
149
100
AcDbEntity
  8
1
  6
CONTINUOUS
 62
     3
100
AcDbLine
 10
185.3108
 20
-929.0728
 30
0.0
 11
189.5108
 21
-929.0728
 31
0.0
  0
LINE
  5
14A
100
AcDbEntity
  8
1
  6
CONTINUOUS
 62
     3
100
AcDbLine
 10
194.3108
 20
-929.0728
 30
0.0
 11
198.5108
 21
-929.0728
 31
0.0
  0
LINE
  5
14B
100
AcDbEntity
  8
1
  6
CONTINUOUS
 62
     3
100
AcDbLine
 10
203.3108
 20
-929.0728
 30
0.0
 11
207.5108
 21
-929.0728
 31
0.0
  0
LINE
  5
14C
100
AcDbEntity
  8
1
  6
CONTINUOUS
 62
     3
100
AcDbLine
 10
43.1108
 20
-901.7728
 30
0.0
 11
151.7108
 21
-901.7728
 31
0.0
  0
LINE
  5
14D
100
AcDbEntity
  8
1
  6
CONTINUOUS
 62
     3
100
AcDbLine
 10
182.9108
 20
-901.7728
 30
0.0
 11
210.2108
 21
-901.7728
 31
0.0
  0
LINE
  5
14E
100
AcDbEntity
  8
1
  6
CONTINUOUS
 62
     3
100
AcDbLine
 10
183.2108
 20
-902.6728
 30
0.0
 11
210.2108
 21
-902.6728
 31
0.0
  0
LINE
  5
14F
100
AcDbEntity
  8
1
  6
CONTINUOUS
 62
     3
100
AcDbLine
 10
183.2108
 20
-923.6728
 30
0.0
 11
210.2108
 21
-923.6728
 31
0.0
  0
LINE
  5
150
100
AcDbEntity
  8
1
  6
CONTINUOUS
 62
     3
100
AcDbLine
 10
183.2108
 20
-934.4728
 30
0.0
 11
210.2108
 21
-934.4728
 31
0.0
  0
LINE
  5
151
100
AcDbEntity
  8
1
  6
CONTINUOUS
 62
     3
100
AcDbLine
 10
182.9108
 20
-935.3728
 30
0.0
 11
210.2108
 21
-935.3728
 31
0.0
  0
ARC
  5
152
100
AcDbEntity
  8
1
  6
CONTINUOUS
 62
     3
100
AcDbCircle
 10
151.7108
 20
-895.7728
 30
0.0
 40
6.0
210
0.0
220
0.0
230
1.0
100
AcDbArc
 50
270.0
 51
360.0
  0
ARC
  5
153
100
AcDbEntity
  8
1
  6
CONTINUOUS
 62
     3
100
AcDbCircle
 10
182.9108
 20
-895.7728
 30
0.0
 40
6.0
210
0.0
220
0.0
230
1.0
100
AcDbArc
 50
180.0
 51
270.0
  0
ARC
  5
154
100
AcDbEntity
  8
1
  6
CONTINUOUS
 62
     3
100
AcDbCircle
 10
182.9108
 20
-941.3728
 30
0.0
 40
6.0
210
0.0
220
0.0
230
1.0
100
AcDbArc
 50
90.0
 51
180.0
  0
ARC
  5
155
100
AcDbEntity
  8
1
  6
CONTINUOUS
 62
     3
100
AcDbCircle
 10
151.7108
 20
-941.3728
 30
0.0
 40
6.0
210
0.0
220
0.0
230
1.0
100
AcDbArc
 50
0.0
 51
90.0
  0
LINE
  5
156
100
AcDbEntity
  8
1
  6
CONTINUOUS
 62
     1
100
AcDbLine
 10
131.3108
 20
-905.3728
 30
0.0
 11
144.5108
 21
-905.3728
 31
0.0
  0
POLYLINE
  5
157
100
AcDbEntity
  8
1
  6
CONTINUOUS
 62
     1
100
AcDb2dPolyline
 66
     1
 10
0.0
 20
0.0
 30
0.0
 70
     1
  0
VERTEX
  5
158
100
AcDbEntity
  8
1
  6
CONTINUOUS
 62
     1
100
AcDbVertex
100
AcDb2dVertex
 10
124.5054
 20
-905.3728
 30
0.0
  0
VERTEX
  5
159
100
AcDbEntity
  8
1
  6
CONTINUOUS
 62
     1
100
AcDbVertex
100
AcDb2dVertex
 10
131.3108
 20
-906.5728
 30
0.0
  0
VERTEX
  5
15A
100
AcDbEntity
  8
1
  6
CONTINUOUS
 62
     1
100
AcDbVertex
100
AcDb2dVertex
 10
131.3108
 20
-904.1728
 30
0.0
  0
VERTEX
  5
15B
100
AcDbEntity
  8
1
  6
CONTINUOUS
 62
     1
100
AcDbVertex
100
AcDb2dVertex
 10
124.5054
 20
-905.3728
 30
0.0
  0
SEQEND
  5
15C
100
AcDbEntity
  8
1
  6
CONTINUOUS
 62
     1
  0
LINE
  5
15D
100
AcDbEntity
  8
1
  6
CONTINUOUS
 62
     1
100
AcDbLine
 10
131.3108
 20
-910.7728
 30
0.0
 11
144.5108
 21
-910.7728
 31
0.0
  0
POLYLINE
  5
15E
100
AcDbEntity
  8
1
  6
CONTINUOUS
 62
     1
100
AcDb2dPolyline
 66
     1
 10
0.0
 20
0.0
 30
0.0
 70
     1
  0
VERTEX
  5
15F
100
AcDbEntity
  8
1
  6
CONTINUOUS
 62
     1
100
AcDbVertex
100
AcDb2dVertex
 10
124.5054
 20
-910.7728
 30
0.0
  0
VERTEX
  5
160
100
AcDbEntity
  8
1
  6
CONTINUOUS
 62
     1
100
AcDbVertex
100
AcDb2dVertex
 10
131.3108
 20
-911.9728
 30
0.0
  0
VERTEX
  5
161
100
AcDbEntity
  8
1
  6
CONTINUOUS
 62
     1
100
AcDbVertex
100
AcDb2dVertex
 10
131.3108
 20
-909.5728
 30
0.0
  0
VERTEX
  5
162
100
AcDbEntity
  8
1
  6
CONTINUOUS
 62
     1
100
AcDbVertex
100
AcDb2dVertex
 10
124.5054
 20
-910.7728
 30
0.0
  0
SEQEND
  5
163
100
AcDbEntity
  8
1
  6
CONTINUOUS
 62
     1
  0
LINE
  5
164
100
AcDbEntity
  8
1
  6
CONTINUOUS
 62
     1
100
AcDbLine
 10
63.5108
 20
-926.3728
 30
0.0
 11
50.3108
 21
-926.3728
 31
0.0
  0
POLYLINE
  5
165
100
AcDbEntity
  8
1
  6
CONTINUOUS
 62
     1
100
AcDb2dPolyline
 66
     1
 10
0.0
 20
0.0
 30
0.0
 70
     1
  0
VERTEX
  5
166
100
AcDbEntity
  8
1
  6
CONTINUOUS
 62
     1
100
AcDbVertex
100
AcDb2dVertex
 10
70.3162
 20
-926.3728
 30
0.0
  0
VERTEX
  5
167
100
AcDbEntity
  8
1
  6
CONTINUOUS
 62
     1
100
AcDbVertex
100
AcDb2dVertex
 10
63.5108
 20
-927.5728
 30
0.0
  0
VERTEX
  5
168
100
AcDbEntity
  8
1
  6
CONTINUOUS
 62
     1
100
AcDbVertex
100
AcDb2dVertex
 10
63.5108
 20
-925.1728
 30
0.0
  0
VERTEX
  5
169
100
AcDbEntity
  8
1
  6
CONTINUOUS
 62
     1
100
AcDbVertex
100
AcDb2dVertex
 10
70.3162
 20
-926.3728
 30
0.0
  0
SEQEND
  5
16A
100
AcDbEntity
  8
1
  6
CONTINUOUS
 62
     1
  0
LINE
  5
16B
100
AcDbEntity
  8
1
  6
CONTINUOUS
 62
     1
100
AcDbLine
 10
63.5108
 20
-931.7728
 30
0.0
 11
50.3108
 21
-931.7728
 31
0.0
  0
POLYLINE
  5
16C
100
AcDbEntity
  8
1
  6
CONTINUOUS
 62
     1
100
AcDb2dPolyline
 66
     1
 10
0.0
 20
0.0
 30
0.0
 70
     1
  0
VERTEX
  5
16D
100
AcDbEntity
  8
1
  6
CONTINUOUS
 62
     1
100
AcDbVertex
100
AcDb2dVertex
 10
70.3162
 20
-931.7728
 30
0.0
  0
VERTEX
  5
16E
100
AcDbEntity
  8
1
  6
CONTINUOUS
 62
     1
100
AcDbVertex
100
AcDb2dVertex
 10
63.5108
 20
-932.9728
 30
0.0
  0
VERTEX
  5
16F
100
AcDbEntity
  8
1
  6
CONTINUOUS
 62
     1
100
AcDbVertex
100
AcDb2dVertex
 10
63.5108
 20
-930.5728
 30
0.0
  0
VERTEX
  5
170
100
AcDbEntity
  8
1
  6
CONTINUOUS
 62
     1
100
AcDbVertex
100
AcDb2dVertex
 10
70.3162
 20
-931.7728
 30
0.0
  0
SEQEND
  5
171
100
AcDbEntity
  8
1
  6
CONTINUOUS
 62
     1
  0
LINE
  5
172
100
AcDbEntity
  8
1
  6
CONTINUOUS
 62
     7
100
AcDbLine
 10
90.6529
 20
-955.4049
 30
0.0
 11
95.4529
 21
-955.4049
 31
0.0
  0
LINE
  5
173
100
AcDbEntity
  8
1
  6
CONTINUOUS
 62
     7
100
AcDbLine
 10
125.3272
 20
-947.2013
 30
0.0
 11
130.1272
 21
-947.2013
 31
0.0
  0
LINE
  5
174
100
AcDbEntity
  8
1
  6
CONTINUOUS
 62
     7
100
AcDbLine
 10
3.0619
 20
-978.1958
 30
0.0
 11
196.4832
 21
-978.1958
 31
0.0
  0
LINE
  5
175
100
AcDbEntity
  8
1
  6
CONTINUOUS
 62
     3
100
AcDbLine
 10
183.2108
 20
-913.4728
 30
0.0
 11
210.099
 21
-913.4728
 31
0.0
  0
LINE
  5
176
100
AcDbEntity
  8
1
  6
CONTINUOUS
 62
     3
100
AcDbLine
 10
11.9108
 20
-901.7728
 30
0.0
 11
-15.3892
 21
-901.7728
 31
0.0
  0
LINE
  5
177
100
AcDbEntity
  8
1
  6
CONTINUOUS
 62
     3
100
AcDbLine
 10
11.6108
 20
-902.6728
 30
0.0
 11
-15.3892
 21
-902.6728
 31
0.0
  0
LINE
  5
178
100
AcDbEntity
  8
1
  6
CONTINUOUS
 62
     3
100
AcDbLine
 10
11.6108
 20
-934.4728
 30
0.0
 11
-15.3892
 21
-934.4728
 31
0.0
  0
LINE
  5
179
100
AcDbEntity
  8
1
  6
CONTINUOUS
 62
     3
100
AcDbLine
 10
11.9108
 20
-935.3728
 30
0.0
 11
-15.3892
 21
-935.3728
 31
0.0
  0
ARC
  5
17A
100
AcDbEntity
  8
1
  6
CONTINUOUS
 62
     3
100
AcDbCircle
 10
43.1108
 20
-895.7728
 30
0.0
 40
6.0
210
0.0
220
0.0
230
1.0
100
AcDbArc
 50
180.0
 51
270.0
  0
ARC
  5
17B
100
AcDbEntity
  8
1
  6
CONTINUOUS
 62
     3
100
AcDbCircle
 10
11.9108
 20
-895.7728
 30
0.0
 40
6.0
210
0.0
220
0.0
230
1.0
100
AcDbArc
 50
270.0
 51
0.0
  0
ARC
  5
17C
100
AcDbEntity
  8
1
  6
CONTINUOUS
 62
     3
100
AcDbCircle
 10
11.9108
 20
-941.3728
 30
0.0
 40
6.0
210
0.0
220
0.0
230
1.0
100
AcDbArc
 50
0.0
 51
90.0
  0
ARC
  5
17D
100
AcDbEntity
  8
1
  6
CONTINUOUS
 62
     3
100
AcDbCircle
 10
43.1108
 20
-941.3728
 30
0.0
 40
6.0
210
0.0
220
0.0
230
1.0
100
AcDbArc
 50
90.0
 51
180.0
  0
LINE
  5
17E
100
AcDbEntity
  8
1
  6
CONTINUOUS
 62
     3
100
AcDbLine
 10
-15.3892
 20
-935.3728
 30
0.0
 11
11.9108
 21
-935.3728
 31
0.0
  0
LINE
  5
17F
100
AcDbEntity
  8
1
  6
CONTINUOUS
 62
     3
100
AcDbLine
 10
43.1108
 20
-935.3728
 30
0.0
 11
151.7108
 21
-935.3728
 31
0.0
  0
LINE
  5
180
100
AcDbEntity
  8
1
  6
CONTINUOUS
 62
     3
100
AcDbLine
 10
43.1108
 20
-934.4728
 30
0.0
 11
151.4108
 21
-934.4728
 31
0.0
  0
LINE
  5
181
100
AcDbEntity
  8
1
  6
CONTINUOUS
 62
     3
100
AcDbLine
 10
43.1108
 20
-902.6728
 30
0.0
 11
151.4108
 21
-902.6728
 31
0.0
  0
LINE
  5
182
100
AcDbEntity
  8
1
  6
CONTINUOUS
 62
     3
100
AcDbLine
 10
-15.3892
 20
-913.4728
 30
0.0
 11
11.6108
 21
-913.4728
 31
0.0
  0
LINE
  5
183
100
AcDbEntity
  8
1
  6
CONTINUOUS
 62
     3
100
AcDbLine
 10
86.3108
 20
-913.4728
 30
0.0
 11
146.0323
 21
-913.4728
 31
0.0
  0
LINE
  5
184
100
AcDbEntity
  8
1
  6
CONTINUOUS
 62
     3
100
AcDbLine
 10
-15.3892
 20
-914.3728
 30
0.0
 11
11.6108
 21
-914.3728
 31
0.0
  0
LINE
  5
185
100
AcDbEntity
  8
1
  6
CONTINUOUS
 62
     3
100
AcDbLine
 10
-15.3892
 20
-922.7728
 30
0.0
 11
11.6108
 21
-922.7728
 31
0.0
  0
LINE
  5
186
100
AcDbEntity
  8
1
  6
CONTINUOUS
 62
     3
100
AcDbLine
 10
43.1108
 20
-922.7728
 30
0.0
 11
86.3108
 21
-922.7728
 31
0.0
  0
LINE
  5
187
100
AcDbEntity
  8
1
  6
CONTINUOUS
 62
     3
100
AcDbLine
 10
43.1108
 20
-923.6728
 30
0.0
 11
146.0323
 21
-923.6728
 31
0.0
  0
LINE
  5
188
100
AcDbEntity
  8
1
  6
CONTINUOUS
 62
     3
100
AcDbLine
 10
185.3108
 20
-922.7728
 30
0.0
 11
189.5108
 21
-922.7728
 31
0.0
  0
LINE
  5
189
100
AcDbEntity
  8
1
  6
CONTINUOUS
 62
     3
100
AcDbLine
 10
194.3108
 20
-922.7728
 30
0.0
 11
198.5108
 21
-922.7728
 31
0.0
  0
LINE
  5
18A
100
AcDbEntity
  8
1
  6
CONTINUOUS
 62
     3
100
AcDbLine
 10
203.3108
 20
-922.7728
 30
0.0
 11
207.5108
 21
-922.7728
 31
0.0
  0
LINE
  5
18B
100
AcDbEntity
  8
1
  6
CONTINUOUS
 62
     3
100
AcDbLine
 10
185.3108
 20
-914.3728
 30
0.0
 11
189.5108
 21
-914.3728
 31
0.0
  0
LINE
  5
18C
100
AcDbEntity
  8
1
  6
CONTINUOUS
 62
     3
100
AcDbLine
 10
194.3108
 20
-914.3728
 30
0.0
 11
198.5108
 21
-914.3728
 31
0.0
  0
LINE
  5
18D
100
AcDbEntity
  8
1
  6
CONTINUOUS
 62
     3
100
AcDbLine
 10
203.3108
 20
-914.3728
 30
0.0
 11
207.5108
 21
-914.3728
 31
0.0
  0
LINE
  5
18E
100
AcDbEntity
  8
1
  6
CONTINUOUS
 62
     3
100
AcDbLine
 10
43.1108
 20
-914.3728
 30
0.0
 11
68.3108
 21
-914.3728
 31
0.0
  0
LINE
  5
18F
100
AcDbEntity
  8
1
  6
CONTINUOUS
 62
     3
100
AcDbLine
 10
86.3108
 20
-914.3728
 30
0.0
 11
90.5108
 21
-914.3728
 31
0.0
  0
LINE
  5
190
100
AcDbEntity
  8
1
  6
CONTINUOUS
 62
     3
100
AcDbLine
 10
95.3108
 20
-914.3728
 30
0.0
 11
99.5108
 21
-914.3728
 31
0.0
  0
LINE
  5
191
100
AcDbEntity
  8
1
  6
CONTINUOUS
 62
     3
100
AcDbLine
 10
104.3108
 20
-914.3728
 30
0.0
 11
108.5108
 21
-914.3728
 31
0.0
  0
LINE
  5
192
100
AcDbEntity
  8
1
  6
CONTINUOUS
 62
     3
100
AcDbLine
 10
113.3108
 20
-914.3728
 30
0.0
 11
117.5108
 21
-914.3728
 31
0.0
  0
LINE
  5
193
100
AcDbEntity
  8
1
  6
CONTINUOUS
 62
     3
100
AcDbLine
 10
122.3108
 20
-914.3728
 30
0.0
 11
126.5108
 21
-914.3728
 31
0.0
  0
LINE
  5
194
100
AcDbEntity
  8
1
  6
CONTINUOUS
 62
     3
100
AcDbLine
 10
131.3108
 20
-914.3728
 30
0.0
 11
135.5108
 21
-914.3728
 31
0.0
  0
LINE
  5
195
100
AcDbEntity
  8
1
  6
CONTINUOUS
 62
     3
100
AcDbLine
 10
140.3108
 20
-914.3728
 30
0.0
 11
144.5108
 21
-914.3728
 31
0.0
  0
LINE
  5
196
100
AcDbEntity
  8
1
  6
CONTINUOUS
 62
     3
100
AcDbLine
 10
140.3108
 20
-922.7728
 30
0.0
 11
144.5108
 21
-922.7728
 31
0.0
  0
LINE
  5
197
100
AcDbEntity
  8
1
  6
CONTINUOUS
 62
     3
100
AcDbLine
 10
95.3108
 20
-922.7728
 30
0.0
 11
99.5108
 21
-922.7728
 31
0.0
  0
LINE
  5
198
100
AcDbEntity
  8
1
  6
CONTINUOUS
 62
     3
100
AcDbLine
 10
104.3108
 20
-922.7728
 30
0.0
 11
108.5108
 21
-922.7728
 31
0.0
  0
LINE
  5
199
100
AcDbEntity
  8
1
  6
CONTINUOUS
 62
     3
100
AcDbLine
 10
113.3108
 20
-922.7728
 30
0.0
 11
117.5108
 21
-922.7728
 31
0.0
  0
LINE
  5
19A
100
AcDbEntity
  8
1
  6
CONTINUOUS
 62
     3
100
AcDbLine
 10
122.3108
 20
-922.7728
 30
0.0
 11
126.5108
 21
-922.7728
 31
0.0
  0
LINE
  5
19B
100
AcDbEntity
  8
1
  6
CONTINUOUS
 62
     3
100
AcDbLine
 10
131.3108
 20
-922.7728
 30
0.0
 11
135.5108
 21
-922.7728
 31
0.0
  0
POLYLINE
  5
19C
100
AcDbEntity
  8
1
  6
CONTINUOUS
 62
     1
100
AcDb2dPolyline
 66
     1
 10
0.0
 20
0.0
 30
0.0
  0
VERTEX
  5
19D
100
AcDbEntity
  8
1
  6
CONTINUOUS
 62
     1
100
AcDbVertex
100
AcDb2dVertex
 10
98.4071
 20
-915.842
 30
0.0
  0
VERTEX
  5
19E
100
AcDbEntity
  8
1
  6
CONTINUOUS
 62
     1
100
AcDbVertex
100
AcDb2dVertex
 10
95.859
 20
-918.0854
 30
0.0
  0
VERTEX
  5
19F
100
AcDbEntity
  8
1
  6
CONTINUOUS
 62
     1
100
AcDbVertex
100
AcDb2dVertex
 10
97.8446
 20
-918.098474
 30
0.0
 42
-0.416419
  0
VERTEX
  5
1A0
100
AcDbEntity
  8
1
  6
CONTINUOUS
 62
     1
100
AcDbVertex
100
AcDb2dVertex
 10
95.6732
 20
-921.1712
 30
0.0
  0
VERTEX
  5
1A1
100
AcDbEntity
  8
1
  6
CONTINUOUS
 62
     1
100
AcDbVertex
100
AcDb2dVertex
 10
96.013933
 20
-921.824711
 30
0.0
 42
0.408608
  0
VERTEX
  5
1A2
100
AcDbEntity
  8
1
  6
CONTINUOUS
 62
     1
100
AcDbVertex
100
AcDb2dVertex
 10
98.8712
 20
-918.1736
 30
0.0
  0
VERTEX
  5
1A3
100
AcDbEntity
  8
1
  6
CONTINUOUS
 62
     1
100
AcDbVertex
100
AcDb2dVertex
 10
100.4431
 20
-918.6632
 30
0.0
  0
VERTEX
  5
1A4
100
AcDbEntity
  8
1
  6
CONTINUOUS
 62
     1
100
AcDbVertex
100
AcDb2dVertex
 10
98.4071
 20
-915.842
 30
0.0
  0
SEQEND
  5
1A5
100
AcDbEntity
  8
1
  6
CONTINUOUS
 62
     1
  0
POLYLINE
  5
1A6
100
AcDbEntity
  8
1
  6
CONTINUOUS
 62
     1
100
AcDb2dPolyline
 66
     1
 10
0.0
 20
0.0
 30
0.0
  0
VERTEX
  5
1A7
100
AcDbEntity
  8
1
  6
CONTINUOUS
 62
     1
100
AcDbVertex
100
AcDb2dVertex
 10
106.298006
 20
-915.374136
 30
0.0
 42
0.408608
  0
VERTEX
  5
1A8
100
AcDbEntity
  8
1
  6
CONTINUOUS
 62
     1
100
AcDbVertex
100
AcDb2dVertex
 10
103.4409
 20
-919.0254
 30
0.0
  0
VERTEX
  5
1A9
100
AcDbEntity
  8
1
  6
CONTINUOUS
 62
     1
100
AcDbVertex
100
AcDb2dVertex
 10
101.8688
 20
-918.5359
 30
0.0
  0
VERTEX
  5
1AA
100
AcDbEntity
  8
1
  6
CONTINUOUS
 62
     1
100
AcDbVertex
100
AcDb2dVertex
 10
103.9049
 20
-921.357
 30
0.0
  0
VERTEX
  5
1AB
100
AcDbEntity
  8
1
  6
CONTINUOUS
 62
     1
100
AcDbVertex
100
AcDb2dVertex
 10
106.453
 20
-919.1134
 30
0.0
  0
VERTEX
  5
1AC
100
AcDbEntity
  8
1
  6
CONTINUOUS
 62
     1
100
AcDbVertex
100
AcDb2dVertex
 10
104.467339
 20
-919.100373
 30
0.0
 42
-0.416419
  0
VERTEX
  5
1AD
100
AcDbEntity
  8
1
  6
CONTINUOUS
 62
     1
100
AcDbVertex
100
AcDb2dVertex
 10
106.63879
 20
-916.027681
 30
0.0
  0
VERTEX
  5
1AE
100
AcDbEntity
  8
1
  6
CONTINUOUS
 62
     1
100
AcDbVertex
100
AcDb2dVertex
 10
106.6388
 20
-916.0278
 30
0.0
  0
VERTEX
  5
1AF
100
AcDbEntity
  8
1
  6
CONTINUOUS
 62
     1
100
AcDbVertex
100
AcDb2dVertex
 10
106.2981
 20
-915.3742
 30
0.0
  0
VERTEX
  5
1B0
100
AcDbEntity
  8
1
  6
CONTINUOUS
 62
     1
100
AcDbVertex
100
AcDb2dVertex
 10
106.298
 20
-915.3741
 30
0.0
  0
SEQEND
  5
1B1
100
AcDbEntity
  8
1
  6
CONTINUOUS
 62
     1
  0
POLYLINE
  5
1B2
100
AcDbEntity
  8
1
  6
CONTINUOUS
 62
     1
100
AcDb2dPolyline
 66
     1
 10
0.0
 20
0.0
 30
0.0
  0
VERTEX
  5
1B3
100
AcDbEntity
  8
1
  6
CONTINUOUS
 62
     1
100
AcDbVertex
100
AcDb2dVertex
 10
129.3828
 20
-915.9126
 30
0.0
  0
VERTEX
  5
1B4
100
AcDbEntity
  8
1
  6
CONTINUOUS
 62
     1
100
AcDbVertex
100
AcDb2dVertex
 10
126.8347
 20
-918.156
 30
0.0
  0
VERTEX
  5
1B5
100
AcDbEntity
  8
1
  6
CONTINUOUS
 62
     1
100
AcDbVertex
100
AcDb2dVertex
 10
128.8203
 20
-918.169074
 30
0.0
 42
-0.416419
  0
VERTEX
  5
1B6
100
AcDbEntity
  8
1
  6
CONTINUOUS
 62
     1
100
AcDbVertex
100
AcDb2dVertex
 10
126.6489
 20
-921.2418
 30
0.0
  0
VERTEX
  5
1B7
100
AcDbEntity
  8
1
  6
CONTINUOUS
 62
     1
100
AcDbVertex
100
AcDb2dVertex
 10
126.989633
 20
-921.895311
 30
0.0
 42
0.408608
  0
VERTEX
  5
1B8
100
AcDbEntity
  8
1
  6
CONTINUOUS
 62
     1
100
AcDbVertex
100
AcDb2dVertex
 10
129.8469
 20
-918.2442
 30
0.0
  0
VERTEX
  5
1B9
100
AcDbEntity
  8
1
  6
CONTINUOUS
 62
     1
100
AcDbVertex
100
AcDb2dVertex
 10
131.4188
 20
-918.7338
 30
0.0
  0
VERTEX
  5
1BA
100
AcDbEntity
  8
1
  6
CONTINUOUS
 62
     1
100
AcDbVertex
100
AcDb2dVertex
 10
129.3828
 20
-915.9126
 30
0.0
  0
SEQEND
  5
1BB
100
AcDbEntity
  8
1
  6
CONTINUOUS
 62
     1
  0
POLYLINE
  5
1BC
100
AcDbEntity
  8
1
  6
CONTINUOUS
 62
     1
100
AcDb2dPolyline
 66
     1
 10
0.0
 20
0.0
 30
0.0
  0
VERTEX
  5
1BD
100
AcDbEntity
  8
1
  6
CONTINUOUS
 62
     1
100
AcDbVertex
100
AcDb2dVertex
 10
137.273706
 20
-915.444736
 30
0.0
 42
0.408608
  0
VERTEX
  5
1BE
100
AcDbEntity
  8
1
  6
CONTINUOUS
 62
     1
100
AcDbVertex
100
AcDb2dVertex
 10
134.4166
 20
-919.096
 30
0.0
  0
VERTEX
  5
1BF
100
AcDbEntity
  8
1
  6
CONTINUOUS
 62
     1
100
AcDbVertex
100
AcDb2dVertex
 10
132.8445
 20
-918.6065
 30
0.0
  0
VERTEX
  5
1C0
100
AcDbEntity
  8
1
  6
CONTINUOUS
 62
     1
100
AcDbVertex
100
AcDb2dVertex
 10
134.8806
 20
-921.4276
 30
0.0
  0
VERTEX
  5
1C1
100
AcDbEntity
  8
1
  6
CONTINUOUS
 62
     1
100
AcDbVertex
100
AcDb2dVertex
 10
137.4287
 20
-919.184
 30
0.0
  0
VERTEX
  5
1C2
100
AcDbEntity
  8
1
  6
CONTINUOUS
 62
     1
100
AcDbVertex
100
AcDb2dVertex
 10
135.443039
 20
-919.170973
 30
0.0
 42
-0.416419
  0
VERTEX
  5
1C3
100
AcDbEntity
  8
1
  6
CONTINUOUS
 62
     1
100
AcDbVertex
100
AcDb2dVertex
 10
137.61449
 20
-916.098281
 30
0.0
  0
VERTEX
  5
1C4
100
AcDbEntity
  8
1
  6
CONTINUOUS
 62
     1
100
AcDbVertex
100
AcDb2dVertex
 10
137.6145
 20
-916.0984
 30
0.0
  0
VERTEX
  5
1C5
100
AcDbEntity
  8
1
  6
CONTINUOUS
 62
     1
100
AcDbVertex
100
AcDb2dVertex
 10
137.2738
 20
-915.4448
 30
0.0
  0
VERTEX
  5
1C6
100
AcDbEntity
  8
1
  6
CONTINUOUS
 62
     1
100
AcDbVertex
100
AcDb2dVertex
 10
137.2737
 20
-915.4447
 30
0.0
  0
SEQEND
  5
1C7
100
AcDbEntity
  8
1
  6
CONTINUOUS
 62
     1
  0
LINE
  5
1C8
100
AcDbEntity
  8
1
  6
CONTINUOUS
 62
     7
100
AcDbLine
 10
131.4188
 20
-917.5338
 30
0.0
 11
131.4188
 21
-881.7053
 31
0.0
  0
LINE
  5
1C9
100
AcDbEntity
  8
1
  6
CONTINUOUS
 62
     7
100
AcDbLine
 10
132.8445
 20
-917.4065
 30
0.0
 11
132.8445
 21
-881.7053
 31
0.0
  0
LINE
  5
1CA
100
AcDbEntity
  8
1
  6
CONTINUOUS
 62
     7
100
AcDbLine
 10
100.4431
 20
-882.9053
 30
0.0
 11
131.4188
 21
-882.9053
 31
0.0
  0
LINE
  5
1CB
100
AcDbEntity
  8
1
  6
CONTINUOUS
 62
     7
100
AcDbLine
 10
132.8445
 20
-882.9053
 30
0.0
 11
138.8445
 21
-882.9053
 31
0.0
  0
INSERT
  5
1CC
100
AcDbEntity
  8
1
  6
CONTINUOUS
 62
     1
100
AcDbBlockReference
  2
LDR
 10
100.4431
 20
-882.9053
 30
0.0
 41
240.0
 42
240.0
 50
180.0
210
0.0
220
0.0
230
1.0
  0
INSERT
  5
1CD
100
AcDbEntity
  8
1
  6
CONTINUOUS
 62
     1
100
AcDbBlockReference
  2
LDR
 10
131.4188
 20
-882.9053
 30
0.0
 41
240.0
 42
240.0
210
0.0
220
0.0
230
1.0
  0
INSERT
  5
1CE
100
AcDbEntity
  8
1
  6
CONTINUOUS
 62
     1
100
AcDbBlockReference
  2
LDR
 10
132.8445
 20
-882.9053
 30
0.0
 41
240.0
 42
240.0
 50
180.0
210
0.0
220
0.0
230
1.0
  0
TEXT
  5
1CF
100
AcDbEntity
  8
1
  6
CONTINUOUS
 62
     7
100
AcDbText
 10
99.2873
 20
-880.8923
 30
0.0
 40
3.0
  1
TYPICAL SPACING
 41
0.833333
  7
MONOTXT
 72
     4
 11
115.7735
 21
-879.3923
 31
0.0
210
0.0
220
0.0
230
1.0
100
AcDbText
  0
TEXT
  5
1D0
100
AcDbEntity
  8
1
  6
CONTINUOUS
 62
     7
100
AcDbText
 10
101.5807
 20
-887.4923
 30
0.0
 40
3.0
  1
60m TO 150m
 41
0.833333
  7
MONOTXT
 72
     4
 11
115.7735
 21
-885.9923
 31
0.0
210
0.0
220
0.0
230
1.0
100
AcDbText
  0
TEXT
  5
1D1
100
AcDbEntity
  8
1
  6
CONTINUOUS
 62
     7
100
AcDbText
 10
141.3731
 20
-880.5707
 30
0.0
 40
3.0
  1
TYPICAL SPACING
  7
MONOTXT
 11
141.3731
 21
-877.5707
 31
0.0
210
0.0
220
0.0
230
1.0
100
AcDbText
 73
     3
  0
TEXT
  5
1D2
100
AcDbEntity
  8
1
  6
CONTINUOUS
 62
     7
100
AcDbText
 10
141.3731
 20
-885.9707
 30
0.0
 40
3.0
  1
9.6m
  7
MONOTXT
 11
141.3731
 21
-882.9707
 31
0.0
210
0.0
220
0.0
230
1.0
100
AcDbText
 73
     3
  0
LINE
  5
1D3
100
AcDbEntity
  8
1
  6
CONTINUOUS
 62
     7
100
AcDbLine
 10
108.1793
 20
-892.3411
 30
0.0
 11
112.9793
 21
-892.3411
 31
0.0
  0
LINE
  5
1D4
100
AcDbEntity
  8
1
  6
CONTINUOUS
 62
     7
100
AcDbLine
 10
21.2362
 20
-888.7255
 30
0.0
 11
26.0362
 21
-888.7255
 31
0.0
  0
LINE
  5
1D5
100
AcDbEntity
  8
1
  6
CONTINUOUS
 62
     7
100
AcDbLine
 10
1.6738
 20
-947.7944
 30
0.0
 11
6.4738
 21
-947.7944
 31
0.0
  0
LINE
  5
1D6
100
AcDbEntity
  8
1
  6
CONTINUOUS
 62
     7
100
AcDbLine
 10
-1.8892
 20
-934.4728
 30
0.0
 11
1.6738
 21
-947.7944
 31
0.0
  0
LINE
  5
1D7
100
AcDbEntity
  8
1
  6
CONTINUOUS
 62
     7
100
AcDbLine
 10
97.4108
 20
-929.0728
 30
0.0
 11
95.4529
 21
-955.4049
 31
0.0
  0
INSERT
  5
1D8
100
AcDbEntity
  8
1
  6
CONTINUOUS
 62
     1
100
AcDbBlockReference
  2
LDR
 10
-1.8892
 20
-934.4728
 30
0.0
 41
240.000001
 42
240.000001
 50
104.973865
210
0.0
220
0.0
230
1.0
  0
INSERT
  5
1D9
100
AcDbEntity
  8
1
  6
CONTINUOUS
 62
     1
100
AcDbBlockReference
  2
LDR
 10
-1.8892
 20
-934.4728
 30
0.0
 41
240.000001
 42
240.000001
 50
104.973865
210
0.0
220
0.0
230
1.0
  0
INSERT
  5
1DA
100
AcDbEntity
  8
1
  6
CONTINUOUS
 62
     1
100
AcDbBlockReference
  2
LDR
 10
97.4108
 20
-929.0728
 30
0.0
 41
240.0
 42
240.0
 50
85.747648
210
0.0
220
0.0
230
1.0
  0
LINE
  5
1DB
100
AcDbEntity
  8
1
  6
CONTINUOUS
 62
     7
100
AcDbLine
 10
100.4431
 20
-917.4632
 30
0.0
 11
100.4431
 21
-895.4565
 31
0.0
  0
LINE
  5
1DC
100
AcDbEntity
  8
1
  6
CONTINUOUS
 62
     7
100
AcDbLine
 10
100.4431
 20
-889.079
 30
0.0
 11
100.4431
 21
-881.7053
 31
0.0
  0
LINE
  5
1DD
100
AcDbEntity
  8
1
  6
CONTINUOUS
 62
     7
100
AcDbLine
 10
124.4108
 20
-914.3728
 30
0.0
 11
112.9793
 21
-892.3411
 31
0.0
  0
LINE
  5
1DE
100
AcDbEntity
  8
1
  6
CONTINUOUS
 62
     7
100
AcDbLine
 10
112.9793
 20
-892.3411
 30
0.0
 11
124.4108
 21
-922.7728
 31
0.0
  0
INSERT
  5
1DF
100
AcDbEntity
  8
1
  6
CONTINUOUS
 62
     1
100
AcDbBlockReference
  2
LDR
 10
124.4108
 20
-914.3728
 30
0.0
 41
240.000002
 42
240.000002
 50
297.423264
210
0.0
220
0.0
230
1.0
  0
INSERT
  5
1E0
100
AcDbEntity
  8
1
  6
CONTINUOUS
 62
     1
100
AcDbBlockReference
  2
LDR
 10
124.4108
 20
-914.3728
 30
0.0
 41
240.000002
 42
240.000002
 50
297.423264
210
0.0
220
0.0
230
1.0
  0
INSERT
  5
1E1
100
AcDbEntity
  8
1
  6
CONTINUOUS
 62
     1
100
AcDbBlockReference
  2
LDR
 10
124.4108
 20
-922.7728
 30
0.0
 41
240.000001
 42
240.000001
 50
290.588412
210
0.0
220
0.0
230
1.0
  0
LINE
  5
1E2
100
AcDbEntity
  8
1
  6
CONTINUOUS
 62
     7
100
AcDbLine
 10
110.892
 20
-913.4728
 30
0.0
 11
125.3272
 21
-947.2013
 31
0.0
  0
LINE
  5
1E3
100
AcDbEntity
  8
1
  6
CONTINUOUS
 62
     7
100
AcDbLine
 10
125.3272
 20
-947.2013
 30
0.0
 11
110.6397
 21
-923.6728
 31
0.0
  0
INSERT
  5
1E4
100
AcDbEntity
  8
1
  6
CONTINUOUS
 62
     1
100
AcDbBlockReference
  2
LDR
 10
110.892
 20
-913.4728
 30
0.0
 41
239.999999
 42
239.999999
 50
113.170066
210
0.0
220
0.0
230
1.0
  0
INSERT
  5
1E5
100
AcDbEntity
  8
1
  6
CONTINUOUS
 62
     1
100
AcDbBlockReference
  2
LDR
 10
110.892
 20
-913.4728
 30
0.0
 41
239.999999
 42
239.999999
 50
113.170066
210
0.0
220
0.0
230
1.0
  0
INSERT
  5
1E6
100
AcDbEntity
  8
1
  6
CONTINUOUS
 62
     1
100
AcDbBlockReference
  2
LDR
 10
110.6397
 20
-923.6728
 30
0.0
 41
239.999999
 42
239.999999
 50
121.97418
210
0.0
220
0.0
230
1.0
  0
TEXT
  5
1E7
100
AcDbEntity
  8
1
  6
CONTINUOUS
 62
     7
100
AcDbText
 10
4.069
 20
-976.8205
 30
0.0
 40
4.2
  1
(D)  TWO WAY MARKING, MULTI-LANE HIGHWAY WITH DUAL LEFT
  7
TXT
 72
     4
 11
99.932
 21
-974.7205
 31
0.0
210
0.0
220
0.0
230
1.0
100
AcDbText
  0
TEXT
  5
1E8
100
AcDbEntity
  8
1
  6
CONTINUOUS
 62
     7
100
AcDbText
 10
65.9929
 20
-984.6205
 30
0.0
 40
4.2
  1
TURN CHANNELIZATION
  7
TXT
 72
     4
 11
99.9321
 21
-982.5205
 31
0.0
210
0.0
220
0.0
230
1.0
100
AcDbText
  0
LINE
  5
1E9
100
AcDbEntity
  8
1
  6
CONTINUOUS
 62
     7
100
AcDbLine
 10
65.1358
 20
-985.6264
 30
0.0
 11
135.7715
 21
-985.6264
 31
0.0
  0
LINE
  5
1EA
100
AcDbEntity
  8
1
  6
CONTINUOUS
 62
     3
100
AcDbLine
 10
-5.6443
 20
-1046.7734
 30
0.0
 11
-1.4443
 21
-1046.7734
 31
0.0
  0
LINE
  5
1EB
100
AcDbEntity
  8
1
  6
CONTINUOUS
 62
     3
100
AcDbLine
 10
-14.6443
 20
-1046.7734
 30
0.0
 11
-10.4443
 21
-1046.7734
 31
0.0
  0
LINE
  5
1EC
100
AcDbEntity
  8
1
  6
CONTINUOUS
 62
     3
100
AcDbLine
 10
3.3557
 20
-1046.7734
 30
0.0
 11
7.5557
 21
-1046.7734
 31
0.0
  0
LINE
  5
1ED
100
AcDbEntity
  8
1
  6
CONTINUOUS
 62
     3
100
AcDbLine
 10
12.3557
 20
-1046.7734
 30
0.0
 11
16.5557
 21
-1046.7734
 31
0.0
  0
LINE
  5
1EE
100
AcDbEntity
  8
1
  6
CONTINUOUS
 62
     3
100
AcDbLine
 10
21.3557
 20
-1046.7734
 30
0.0
 11
25.5557
 21
-1046.7734
 31
0.0
  0
LINE
  5
1EF
100
AcDbEntity
  8
1
  6
CONTINUOUS
 62
     3
100
AcDbLine
 10
30.3557
 20
-1046.7734
 30
0.0
 11
34.5557
 21
-1046.7734
 31
0.0
  0
LINE
  5
1F0
100
AcDbEntity
  8
1
  6
CONTINUOUS
 62
     3
100
AcDbLine
 10
39.3557
 20
-1046.7734
 30
0.0
 11
43.5557
 21
-1046.7734
 31
0.0
  0
LINE
  5
1F1
100
AcDbEntity
  8
1
  6
CONTINUOUS
 62
     3
100
AcDbLine
 10
48.3557
 20
-1046.7734
 30
0.0
 11
52.5557
 21
-1046.7734
 31
0.0
  0
LINE
  5
1F2
100
AcDbEntity
  8
1
  6
CONTINUOUS
 62
     3
100
AcDbLine
 10
57.3557
 20
-1046.7734
 30
0.0
 11
61.5557
 21
-1046.7734
 31
0.0
  0
LINE
  5
1F3
100
AcDbEntity
  8
1
  6
CONTINUOUS
 62
     3
100
AcDbLine
 10
66.3557
 20
-1046.7734
 30
0.0
 11
70.5557
 21
-1046.7734
 31
0.0
  0
LINE
  5
1F4
100
AcDbEntity
  8
1
  6
CONTINUOUS
 62
     3
100
AcDbLine
 10
75.3557
 20
-1046.7734
 30
0.0
 11
79.5557
 21
-1046.7734
 31
0.0
  0
LINE
  5
1F5
100
AcDbEntity
  8
1
  6
CONTINUOUS
 62
     3
100
AcDbLine
 10
84.3557
 20
-1046.7734
 30
0.0
 11
88.5557
 21
-1046.7734
 31
0.0
  0
LINE
  5
1F6
100
AcDbEntity
  8
1
  6
CONTINUOUS
 62
     3
100
AcDbLine
 10
93.3557
 20
-1046.7734
 30
0.0
 11
97.5557
 21
-1046.7734
 31
0.0
  0
LINE
  5
1F7
100
AcDbEntity
  8
1
  6
CONTINUOUS
 62
     3
100
AcDbLine
 10
102.3557
 20
-1046.7734
 30
0.0
 11
106.5557
 21
-1046.7734
 31
0.0
  0
LINE
  5
1F8
100
AcDbEntity
  8
1
  6
CONTINUOUS
 62
     3
100
AcDbLine
 10
111.3557
 20
-1046.7734
 30
0.0
 11
115.5557
 21
-1046.7734
 31
0.0
  0
LINE
  5
1F9
100
AcDbEntity
  8
1
  6
CONTINUOUS
 62
     3
100
AcDbLine
 10
120.3557
 20
-1046.7734
 30
0.0
 11
124.5557
 21
-1046.7734
 31
0.0
  0
LINE
  5
1FA
100
AcDbEntity
  8
1
  6
CONTINUOUS
 62
     3
100
AcDbLine
 10
129.3557
 20
-1046.7734
 30
0.0
 11
133.5557
 21
-1046.7734
 31
0.0
  0
LINE
  5
1FB
100
AcDbEntity
  8
1
  6
CONTINUOUS
 62
     3
100
AcDbLine
 10
138.3557
 20
-1046.7734
 30
0.0
 11
142.5557
 21
-1046.7734
 31
0.0
  0
LINE
  5
1FC
100
AcDbEntity
  8
1
  6
CONTINUOUS
 62
     3
100
AcDbLine
 10
203.1557
 20
-1048.2734
 30
0.0
 11
207.3557
 21
-1048.2734
 31
0.0
  0
LINE
  5
1FD
100
AcDbEntity
  8
1
  6
CONTINUOUS
 62
     3
100
AcDbLine
 10
194.1557
 20
-1048.2734
 30
0.0
 11
198.3557
 21
-1048.2734
 31
0.0
  0
LINE
  5
1FE
100
AcDbEntity
  8
1
  6
CONTINUOUS
 62
     7
100
AcDbLine
 10
187.5557
 20
-1046.7734
 30
0.0
 11
214.4424
 21
-1046.7734
 31
0.0
  0
LINE
  5
1FF
100
AcDbEntity
  8
1
  6
CONTINUOUS
 62
     3
100
AcDbLine
 10
-14.6443
 20
-1033.1234
 30
0.0
 11
128.7557
 21
-1033.1234
 31
0.0
  0
POLYLINE
  5
200
100
AcDbEntity
  8
1
  6
CONTINUOUS
 62
     7
100
AcDb2dPolyline
 66
     1
 10
0.0
 20
0.0
 30
0.0
 70
     1
  0
VERTEX
  5
201
100
AcDbEntity
  8
1
  6
CONTINUOUS
 62
     7
100
AcDbVertex
100
AcDb2dVertex
 10
187.5557
 20
-1033.1234
 30
0.0
  0
VERTEX
  5
202
100
AcDbEntity
  8
1
  6
CONTINUOUS
 62
     7
100
AcDbVertex
100
AcDb2dVertex
 10
187.5557
 20
-1046.7734
 30
0.0
  0
VERTEX
  5
203
100
AcDbEntity
  8
1
  6
CONTINUOUS
 62
     7
100
AcDbVertex
100
AcDb2dVertex
 10
189.9557
 20
-1046.7734
 30
0.0
  0
VERTEX
  5
204
100
AcDbEntity
  8
1
  6
CONTINUOUS
 62
     7
100
AcDbVertex
100
AcDb2dVertex
 10
189.9557
 20
-1033.1234
 30
0.0
  0
VERTEX
  5
205
100
AcDbEntity
  8
1
  6
CONTINUOUS
 62
     7
100
AcDbVertex
100
AcDb2dVertex
 10
187.5557
 20
-1033.1234
 30
0.0
  0
SEQEND
  5
206
100
AcDbEntity
  8
1
  6
CONTINUOUS
 62
     7
  0
LINE
  5
207
100
AcDbEntity
  8
1
  6
CONTINUOUS
 62
     3
100
AcDbLine
 10
123.3557
 20
-1061.9234
 30
0.0
 11
214.4424
 21
-1061.9234
 31
0.0
  0
POLYLINE
  5
208
100
AcDbEntity
  8
1
  6
CONTINUOUS
 62
     7
100
AcDb2dPolyline
 66
     1
 10
0.0
 20
0.0
 30
0.0
 70
     1
  0
VERTEX
  5
209
100
AcDbEntity
  8
1
  6
CONTINUOUS
 62
     7
100
AcDbVertex
100
AcDb2dVertex
 10
147.3557
 20
-1061.9234
 30
0.0
  0
VERTEX
  5
20A
100
AcDbEntity
  8
1
  6
CONTINUOUS
 62
     7
100
AcDbVertex
100
AcDb2dVertex
 10
149.7557
 20
-1061.9234
 30
0.0
  0
VERTEX
  5
20B
100
AcDbEntity
  8
1
  6
CONTINUOUS
 62
     7
100
AcDbVertex
100
AcDb2dVertex
 10
149.7557
 20
-1048.2734
 30
0.0
  0
VERTEX
  5
20C
100
AcDbEntity
  8
1
  6
CONTINUOUS
 62
     7
100
AcDbVertex
100
AcDb2dVertex
 10
147.3557
 20
-1048.2734
 30
0.0
  0
VERTEX
  5
20D
100
AcDbEntity
  8
1
  6
CONTINUOUS
 62
     7
100
AcDbVertex
100
AcDb2dVertex
 10
147.3557
 20
-1061.9234
 30
0.0
  0
SEQEND
  5
20E
100
AcDbEntity
  8
1
  6
CONTINUOUS
 62
     7
  0
POLYLINE
  5
20F
100
AcDbEntity
  8
1
  6
CONTINUOUS
 62
     7
100
AcDb2dPolyline
 66
     1
 10
0.0
 20
0.0
 30
0.0
 70
     1
  0
VERTEX
  5
210
100
AcDbEntity
  8
1
  6
CONTINUOUS
 62
     7
100
AcDbVertex
100
AcDb2dVertex
 10
104.1557
 20
-1048.2734
 30
0.0
  0
VERTEX
  5
211
100
AcDbEntity
  8
1
  6
CONTINUOUS
 62
     7
100
AcDbVertex
100
AcDb2dVertex
 10
104.1557
 20
-1061.9234
 30
0.0
  0
VERTEX
  5
212
100
AcDbEntity
  8
1
  6
CONTINUOUS
 62
     7
100
AcDbVertex
100
AcDb2dVertex
 10
106.5557
 20
-1061.9234
 30
0.0
  0
VERTEX
  5
213
100
AcDbEntity
  8
1
  6
CONTINUOUS
 62
     7
100
AcDbVertex
100
AcDb2dVertex
 10
106.5557
 20
-1048.2734
 30
0.0
  0
VERTEX
  5
214
100
AcDbEntity
  8
1
  6
CONTINUOUS
 62
     7
100
AcDbVertex
100
AcDb2dVertex
 10
104.1557
 20
-1048.2734
 30
0.0
  0
SEQEND
  5
215
100
AcDbEntity
  8
1
  6
CONTINUOUS
 62
     7
  0
LINE
  5
216
100
AcDbEntity
  8
1
  6
CONTINUOUS
 62
     7
100
AcDbLine
 10
-14.6443
 20
-1048.2734
 30
0.0
 11
29.7557
 21
-1048.2734
 31
0.0
  0
LINE
  5
217
100
AcDbEntity
  8
1
  6
CONTINUOUS
 62
     7
100
AcDbLine
 10
29.7557
 20
-1048.2734
 30
0.0
 11
106.5557
 21
-1048.2734
 31
0.0
  0
LINE
  5
218
100
AcDbEntity
  8
1
  6
CONTINUOUS
 62
     3
100
AcDbLine
 10
29.7557
 20
-1061.9234
 30
0.0
 11
104.1557
 21
-1061.9234
 31
0.0
  0
POLYLINE
  5
219
100
AcDbEntity
  8
1
  6
CONTINUOUS
 62
     7
100
AcDb2dPolyline
 66
     1
 10
0.0
 20
0.0
 30
0.0
 70
     1
  0
VERTEX
  5
21A
100
AcDbEntity
  8
1
  6
CONTINUOUS
 62
     7
100
AcDbVertex
100
AcDb2dVertex
 10
27.3557
 20
-1061.9234
 30
0.0
  0
VERTEX
  5
21B
100
AcDbEntity
  8
1
  6
CONTINUOUS
 62
     7
100
AcDbVertex
100
AcDb2dVertex
 10
29.7557
 20
-1061.9234
 30
0.0
  0
VERTEX
  5
21C
100
AcDbEntity
  8
1
  6
CONTINUOUS
 62
     7
100
AcDbVertex
100
AcDb2dVertex
 10
29.7557
 20
-1048.2734
 30
0.0
  0
VERTEX
  5
21D
100
AcDbEntity
  8
1
  6
CONTINUOUS
 62
     7
100
AcDbVertex
100
AcDb2dVertex
 10
27.3557
 20
-1048.2734
 30
0.0
  0
VERTEX
  5
21E
100
AcDbEntity
  8
1
  6
CONTINUOUS
 62
     7
100
AcDbVertex
100
AcDb2dVertex
 10
27.3557
 20
-1061.9234
 30
0.0
  0
SEQEND
  5
21F
100
AcDbEntity
  8
1
  6
CONTINUOUS
 62
     7
  0
SPLINE
  5
220
100
AcDbEntity
  8
1
  6
CONTINUOUS
 62
     7
100
AcDbSpline
210
0.0
220
0.0
230
1.0
 70
     8
 71
     3
 72
    29
 73
    25
 74
     0
 42
0.0
 43
0.0
 12
-0.3091838608954524
 22
-0.9510022818909435
 32
0.0
 13
-0.229917442743297
 23
-0.9732101363643839
 33
0.0
 40
0.0
 40
0.0
 40
0.0
 40
0.0
 40
0.1784530392329268
 40
0.1784530392329268
 40
0.1784530392329268
 40
0.2957408970217437
 40
0.2957408970217437
 40
0.2957408970217437
 40
0.3766048324182659
 40
0.3766048324182659
 40
0.3766048324182659
 40
0.5000903540082595
 40
0.5000903540082595
 40
0.5000903540082595
 40
0.6226595401886759
 40
0.6226595401886759
 40
0.6226595401886759
 40
0.7774519912966539
 40
0.7774519912966539
 40
0.7774519912966539
 40
0.8446069951229933
 40
0.8446069951229933
 40
0.8446069951229933
 40
1.0
 40
1.0
 40
1.0
 40
1.0
 10
130.5557
 20
-1033.1233999999999
 30
0.0
 10
130.00283333333334
 20
-1034.8239333333333
 30
0.0
 10
129.44996666666668
 20
-1036.5244666666667
 30
0.0
 10
128.89709999999999
 20
-1038.2250000000001
 30
0.0
 10
128.53372962953779
 20
-1039.3426717001989
 30
0.0
 10
129.63200400956512
 20
-1040.6320336926931
 30
0.0
 10
129.21620000000001
 20
-1041.7363
 30
0.0
 10
128.92952455719646
 20
-1042.4976347282327
 30
0.0
 10
128.60111998304455
 20
-1043.2338794243487
 30
0.0
 10
128.25890000000001
 20
-1043.9707000000001
 30
0.0
 10
127.73630345683706
 20
-1045.0958823530029
 30
0.0
 10
127.1713413801658
 20
-1046.1877986120637
 30
0.0
 10
126.66340000000001
 20
-1047.3224
 30
0.0
 10
126.15922784449019
 20
-1048.44858197638
 30
0.0
 10
125.82721263624279
 20
-1049.6364865173639
 30
0.0
 10
125.54660000000001
 20
-1050.8336000000002
 30
0.0
 10
125.19221470032156
 20
-1052.3454329166264
 30
0.0
 10
125.45868534697654
 20
-1053.9642083697606
 30
0.0
 10
125.06790000000001
 20
-1055.4621
 30
0.0
 10
124.89836207173772
 20
-1056.1119438227456
 30
0.0
 10
124.58441411592085
 20
-1056.7224156029911
 30
0.0
 10
124.42970000000001
 20
-1057.3773000000001
 30
0.0
 10
124.07170000000001
 20
-1058.8926666666666
 30
0.0
 10
123.7137
 20
-1060.4080333333334
 30
0.0
 10
123.35570000000001
 20
-1061.9234000000001
 30
0.0
  0
SPLINE
  5
221
100
AcDbEntity
  8
1
  6
CONTINUOUS
 62
     7
100
AcDbSpline
210
0.0
220
0.0
230
1.0
 70
     8
 71
     3
 72
    29
 73
    25
 74
     0
 42
0.0
 43
0.0
 12
-0.3091838608954667
 22
-0.9510022818909387
 32
0.0
 13
-0.2299174427432884
 23
-0.973210136364386
 33
0.0
 40
0.0
 40
0.0
 40
0.0
 40
0.0
 40
0.1784530392329268
 40
0.1784530392329268
 40
0.1784530392329268
 40
0.2957408970217437
 40
0.2957408970217437
 40
0.2957408970217437
 40
0.3766048324182659
 40
0.3766048324182659
 40
0.3766048324182659
 40
0.5000903540082595
 40
0.5000903540082595
 40
0.5000903540082595
 40
0.6226595401886759
 40
0.6226595401886759
 40
0.6226595401886759
 40
0.7774519912966539
 40
0.7774519912966539
 40
0.7774519912966539
 40
0.8446069951229933
 40
0.8446069951229933
 40
0.8446069951229933
 40
1.0
 40
1.0
 40
1.0
 40
1.0
 10
128.75570000000002
 20
-1033.1233999999999
 30
0.0
 10
128.20283333333333
 20
-1034.8239333333333
 30
0.0
 10
127.64996666666669
 20
-1036.5244666666667
 30
0.0
 10
127.09710000000001
 20
-1038.2250000000001
 30
0.0
 10
126.73372962953779
 20
-1039.3426717001989
 30
0.0
 10
127.83200400956511
 20
-1040.6320336926931
 30
0.0
 10
127.4162
 20
-1041.7363
 30
0.0
 10
127.12952455719648
 20
-1042.4976347282327
 30
0.0
 10
126.80111998304456
 20
-1043.2338794243487
 30
0.0
 10
126.4589
 20
-1043.9707000000001
 30
0.0
 10
125.93630345683707
 20
-1045.0958823530029
 30
0.0
 10
125.3713413801658
 20
-1046.1877986120637
 30
0.0
 10
124.86340000000001
 20
-1047.3224
 30
0.0
 10
124.35922784449019
 20
-1048.44858197638
 30
0.0
 10
124.02721263624279
 20
-1049.6364865173639
 30
0.0
 10
123.7466
 20
-1050.8336000000002
 30
0.0
 10
123.39221470032156
 20
-1052.3454329166264
 30
0.0
 10
123.65868534697654
 20
-1053.9642083697606
 30
0.0
 10
123.26790000000001
 20
-1055.4621
 30
0.0
 10
123.09836207173772
 20
-1056.1119438227456
 30
0.0
 10
122.78441411592085
 20
-1056.7224156029911
 30
0.0
 10
122.6297
 20
-1057.3773000000001
 30
0.0
 10
122.27170000000001
 20
-1058.8926666666666
 30
0.0
 10
121.91370000000001
 20
-1060.4080333333334
 30
0.0
 10
121.5557
 20
-1061.9234000000001
 30
0.0
  0
LINE
  5
222
100
AcDbEntity
  8
1
  6
CONTINUOUS
 62
     7
100
AcDbLine
 10
106.5557
 20
-1048.2734
 30
0.0
 11
124.4808
 21
-1048.2734
 31
0.0
  0
LINE
  5
223
100
AcDbEntity
  8
1
  6
CONTINUOUS
 62
     7
100
AcDbLine
 10
126.2808
 20
-1048.2734
 30
0.0
 11
149.7557
 21
-1048.2734
 31
0.0
  0
TEXT
  5
224
100
AcDbEntity
  8
1
  6
CONTINUOUS
 62
     7
100
AcDbText
 10
81.8293
 20
-1059.5346
 30
0.0
 40
30.0
  1
X
 50
90.0
 41
0.32
  7
TXT
210
0.0
220
0.0
230
1.0
100
AcDbText
  0
TEXT
  5
225
100
AcDbEntity
  8
1
  6
CONTINUOUS
 62
     7
100
AcDbText
 10
64.9533
 20
-1049.1401
 30
0.0
 40
4.2
  1
R
 50
270.0
  7
TXT
 72
     4
 11
67.0533
 21
-1050.9111
 31
0.0
210
0.0
220
0.0
230
1.0
100
AcDbText
  0
TEXT
  5
226
100
AcDbEntity
  8
1
  6
CONTINUOUS
 62
     7
100
AcDbText
 10
64.9204
 20
-1057.3294
 30
0.0
 40
4.2
  1
R
 50
270.0
  7
TXT
 72
     4
 11
67.0204
 21
-1059.1004
 31
0.0
210
0.0
220
0.0
230
1.0
100
AcDbText
  0
LINE
  5
227
100
AcDbEntity
  8
1
  6
CONTINUOUS
 62
     7
100
AcDbLine
 10
185.4283
 20
-1028.1701
 30
0.0
 11
156.9382
 21
-1069.8488
 31
0.0
  0
LINE
  5
228
100
AcDbEntity
  8
1
  6
CONTINUOUS
 62
     7
100
AcDbLine
 10
180.4749
 20
-1024.7842
 30
0.0
 11
151.9848
 21
-1066.4629
 31
0.0
  0
LINE
  5
229
100
AcDbEntity
  8
1
  6
CONTINUOUS
 62
     7
100
AcDbLine
 10
180.9702
 20
-1025.1228
 30
0.0
 11
152.4801
 21
-1066.8015
 31
0.0
  0
LINE
  5
22A
100
AcDbEntity
  8
1
  6
CONTINUOUS
 62
     7
100
AcDbLine
 10
184.9329
 20
-1027.8316
 30
0.0
 11
156.4428
 21
-1069.5103
 31
0.0
  0
LINE
  5
22B
100
AcDbEntity
  8
1
  6
CONTINUOUS
 62
     7
100
AcDbLine
 10
176.228
 20
-1033.1234
 30
0.0
 11
156.5413
 21
-1061.9234
 31
0.0
  0
LINE
  5
22C
100
AcDbEntity
  8
1
  6
CONTINUOUS
 62
     7
100
AcDbLine
 10
180.5888
 20
-1033.1234
 30
0.0
 11
160.9021
 21
-1061.9234
 31
0.0
  0
LINE
  5
22D
100
AcDbEntity
  8
1
  6
CONTINUOUS
 62
     7
100
AcDbLine
 10
180.4749
 20
-1024.7842
 30
0.0
 11
180.9702
 21
-1025.1228
 31
0.0
  0
LINE
  5
22E
100
AcDbEntity
  8
1
  6
CONTINUOUS
 62
     7
100
AcDbLine
 10
184.933
 20
-1027.8315
 30
0.0
 11
185.4283
 21
-1028.1701
 31
0.0
  0
LINE
  5
22F
100
AcDbEntity
  8
1
  6
CONTINUOUS
 62
     7
100
AcDbLine
 10
151.9848
 20
-1066.4629
 30
0.0
 11
152.4801
 21
-1066.8015
 31
0.0
  0
LINE
  5
230
100
AcDbEntity
  8
1
  6
CONTINUOUS
 62
     7
100
AcDbLine
 10
156.4429
 20
-1069.5102
 30
0.0
 11
156.9382
 21
-1069.8488
 31
0.0
  0
LINE
  5
231
100
AcDbEntity
  8
1
  6
CONTINUOUS
 62
     7
100
AcDbLine
 10
179.1455
 20
-1024.6024
 30
0.0
 11
178.4682
 21
-1025.5931
 31
0.0
  0
LINE
  5
232
100
AcDbEntity
  8
1
  6
CONTINUOUS
 62
     7
100
AcDbLine
 10
177.6216
 20
-1026.8314
 30
0.0
 11
176.9443
 21
-1027.8221
 31
0.0
  0
LINE
  5
233
100
AcDbEntity
  8
1
  6
CONTINUOUS
 62
     7
100
AcDbLine
 10
176.0977
 20
-1029.0604
 30
0.0
 11
175.4204
 21
-1030.0511
 31
0.0
  0
LINE
  5
234
100
AcDbEntity
  8
1
  6
CONTINUOUS
 62
     7
100
AcDbLine
 10
186.0801
 20
-1029.3431
 30
0.0
 11
185.4028
 21
-1030.3338
 31
0.0
  0
LINE
  5
235
100
AcDbEntity
  8
1
  6
CONTINUOUS
 62
     7
100
AcDbLine
 10
184.5562
 20
-1031.5721
 30
0.0
 11
183.8789
 21
-1032.5628
 31
0.0
  0
LINE
  5
236
100
AcDbEntity
  8
1
  6
CONTINUOUS
 62
     7
100
AcDbLine
 10
179.1455
 20
-1024.6024
 30
0.0
 11
180.1362
 21
-1025.2796
 31
0.0
  0
LINE
  5
237
100
AcDbEntity
  8
1
  6
CONTINUOUS
 62
     7
100
AcDbLine
 10
180.6315
 20
-1025.6183
 30
0.0
 11
184.5941
 21
-1028.3273
 31
0.0
  0
LINE
  5
238
100
AcDbEntity
  8
1
  6
CONTINUOUS
 62
     7
100
AcDbLine
 10
185.0895
 20
-1028.6658
 30
0.0
 11
186.0801
 21
-1029.3431
 31
0.0
  0
LINE
  5
239
100
AcDbEntity
  8
1
  6
CONTINUOUS
 62
     7
100
AcDbLine
 10
184.4122
 20
-1029.6566
 30
0.0
 11
185.4028
 21
-1030.3338
 31
0.0
  0
LINE
  5
23A
100
AcDbEntity
  8
1
  6
CONTINUOUS
 62
     7
100
AcDbLine
 10
178.4682
 20
-1025.5931
 30
0.0
 11
179.459
 21
-1026.2704
 31
0.0
  0
LINE
  5
23B
100
AcDbEntity
  8
1
  6
CONTINUOUS
 62
     7
100
AcDbLine
 10
179.9543
 20
-1026.609
 30
0.0
 11
183.9169
 21
-1029.318
 31
0.0
  0
LINE
  5
23C
100
AcDbEntity
  8
1
  6
CONTINUOUS
 62
     7
100
AcDbLine
 10
177.6216
 20
-1026.8314
 30
0.0
 11
178.6125
 21
-1027.5088
 31
0.0
  0
LINE
  5
23D
100
AcDbEntity
  8
1
  6
CONTINUOUS
 62
     7
100
AcDbLine
 10
179.1078
 20
-1027.8474
 30
0.0
 11
183.0703
 21
-1030.5564
 31
0.0
  0
LINE
  5
23E
100
AcDbEntity
  8
1
  6
CONTINUOUS
 62
     7
100
AcDbLine
 10
183.5657
 20
-1030.895
 30
0.0
 11
184.5562
 21
-1031.5721
 31
0.0
  0
LINE
  5
23F
100
AcDbEntity
  8
1
  6
CONTINUOUS
 62
     7
100
AcDbLine
 10
176.9443
 20
-1027.8221
 30
0.0
 11
177.9352
 21
-1028.4995
 31
0.0
  0
LINE
  5
240
100
AcDbEntity
  8
1
  6
CONTINUOUS
 62
     7
100
AcDbLine
 10
178.4305
 20
-1028.8381
 30
0.0
 11
182.3931
 21
-1031.5471
 31
0.0
  0
LINE
  5
241
100
AcDbEntity
  8
1
  6
CONTINUOUS
 62
     7
100
AcDbLine
 10
182.8884
 20
-1031.8857
 30
0.0
 11
183.8789
 21
-1032.5628
 31
0.0
  0
LINE
  5
242
100
AcDbEntity
  8
1
  6
CONTINUOUS
 62
     7
100
AcDbLine
 10
176.0977
 20
-1029.0604
 30
0.0
 11
177.0888
 21
-1029.7379
 31
0.0
  0
LINE
  5
243
100
AcDbEntity
  8
1
  6
CONTINUOUS
 62
     7
100
AcDbLine
 10
175.4204
 20
-1030.0511
 30
0.0
 11
176.4115
 21
-1030.7286
 31
0.0
  0
LINE
  5
244
100
AcDbEntity
  8
1
  6
CONTINUOUS
 62
     7
100
AcDbLine
 10
176.9068
 20
-1031.0673
 30
0.0
 11
179.9145
 21
-1033.1234
 31
0.0
  0
LINE
  5
245
100
AcDbEntity
  8
1
  6
CONTINUOUS
 62
     7
100
AcDbLine
 10
177.584
 20
-1030.0765
 30
0.0
 11
181.5467
 21
-1032.7854
 31
0.0
  0
LINE
  5
246
100
AcDbEntity
  8
1
  6
CONTINUOUS
 62
     7
100
AcDbLine
 10
158.9824
 20
-1065.795
 30
0.0
 11
155.0198
 21
-1063.086
 31
0.0
  0
LINE
  5
247
100
AcDbEntity
  8
1
  6
CONTINUOUS
 62
     7
100
AcDbLine
 10
158.2674
 20
-1070.0307
 30
0.0
 11
158.9447
 21
-1069.04
 31
0.0
  0
LINE
  5
248
100
AcDbEntity
  8
1
  6
CONTINUOUS
 62
     7
100
AcDbLine
 10
159.7913
 20
-1067.8017
 30
0.0
 11
160.4686
 21
-1066.811
 31
0.0
  0
LINE
  5
249
100
AcDbEntity
  8
1
  6
CONTINUOUS
 62
     7
100
AcDbLine
 10
161.3152
 20
-1065.5727
 30
0.0
 11
161.9925
 21
-1064.582
 31
0.0
  0
LINE
  5
24A
100
AcDbEntity
  8
1
  6
CONTINUOUS
 62
     7
100
AcDbLine
 10
151.3328
 20
-1065.29
 30
0.0
 11
152.0101
 21
-1064.2993
 31
0.0
  0
LINE
  5
24B
100
AcDbEntity
  8
1
  6
CONTINUOUS
 62
     7
100
AcDbLine
 10
152.8567
 20
-1063.061
 30
0.0
 11
153.534
 21
-1062.0703
 31
0.0
  0
LINE
  5
24C
100
AcDbEntity
  8
1
  6
CONTINUOUS
 62
     7
100
AcDbLine
 10
158.2674
 20
-1070.0307
 30
0.0
 11
157.2767
 21
-1069.3535
 31
0.0
  0
LINE
  5
24D
100
AcDbEntity
  8
1
  6
CONTINUOUS
 62
     7
100
AcDbLine
 10
156.7814
 20
-1069.0148
 30
0.0
 11
152.8188
 21
-1066.3058
 31
0.0
  0
LINE
  5
24E
100
AcDbEntity
  8
1
  6
CONTINUOUS
 62
     7
100
AcDbLine
 10
152.3234
 20
-1065.9673
 30
0.0
 11
151.3328
 21
-1065.29
 31
0.0
  0
LINE
  5
24F
100
AcDbEntity
  8
1
  6
CONTINUOUS
 62
     7
100
AcDbLine
 10
153.0007
 20
-1064.9765
 30
0.0
 11
152.0101
 21
-1064.2993
 31
0.0
  0
LINE
  5
250
100
AcDbEntity
  8
1
  6
CONTINUOUS
 62
     7
100
AcDbLine
 10
158.9447
 20
-1069.04
 30
0.0
 11
157.9539
 21
-1068.3627
 31
0.0
  0
LINE
  5
251
100
AcDbEntity
  8
1
  6
CONTINUOUS
 62
     7
100
AcDbLine
 10
157.4586
 20
-1068.0241
 30
0.0
 11
153.496
 21
-1065.3151
 31
0.0
  0
LINE
  5
252
100
AcDbEntity
  8
1
  6
CONTINUOUS
 62
     7
100
AcDbLine
 10
159.7913
 20
-1067.8017
 30
0.0
 11
158.8004
 21
-1067.1243
 31
0.0
  0
LINE
  5
253
100
AcDbEntity
  8
1
  6
CONTINUOUS
 62
     7
100
AcDbLine
 10
158.3051
 20
-1066.7857
 30
0.0
 11
154.3426
 21
-1064.0767
 31
0.0
  0
LINE
  5
254
100
AcDbEntity
  8
1
  6
CONTINUOUS
 62
     7
100
AcDbLine
 10
153.8472
 20
-1063.7381
 30
0.0
 11
152.8567
 21
-1063.061
 31
0.0
  0
LINE
  5
255
100
AcDbEntity
  8
1
  6
CONTINUOUS
 62
     7
100
AcDbLine
 10
160.4686
 20
-1066.811
 30
0.0
 11
159.4777
 21
-1066.1336
 31
0.0
  0
LINE
  5
256
100
AcDbEntity
  8
1
  6
CONTINUOUS
 62
     7
100
AcDbLine
 10
154.5245
 20
-1062.7474
 30
0.0
 11
153.534
 21
-1062.0703
 31
0.0
  0
LINE
  5
257
100
AcDbEntity
  8
1
  6
CONTINUOUS
 62
     7
100
AcDbLine
 10
161.3152
 20
-1065.5727
 30
0.0
 11
160.3241
 21
-1064.8952
 31
0.0
  0
LINE
  5
258
100
AcDbEntity
  8
1
  6
CONTINUOUS
 62
     7
100
AcDbLine
 10
161.9925
 20
-1064.582
 30
0.0
 11
161.0014
 21
-1063.9045
 31
0.0
  0
LINE
  5
259
100
AcDbEntity
  8
1
  6
CONTINUOUS
 62
     7
100
AcDbLine
 10
160.5061
 20
-1063.5658
 30
0.0
 11
158.1036
 21
-1061.9234
 31
0.0
  0
LINE
  5
25A
100
AcDbEntity
  8
1
  6
CONTINUOUS
 62
     7
100
AcDbLine
 10
159.8289
 20
-1064.5566
 30
0.0
 11
155.9769
 21
-1061.9234
 31
0.0
  0
LINE
  5
25B
100
AcDbEntity
  8
1
  6
HIDDEN
 62
     7
100
AcDbLine
 10
159.8009
 20
-1024.7842
 30
0.0
 11
159.3056
 21
-1025.1228
 31
0.0
  0
LINE
  5
25C
100
AcDbEntity
  8
1
  6
HIDDEN
 62
     7
100
AcDbLine
 10
155.3428
 20
-1027.8315
 30
0.0
 11
154.8475
 21
-1028.1701
 31
0.0
  0
LINE
  5
25D
100
AcDbEntity
  8
1
  6
HIDDEN
 62
     7
100
AcDbLine
 10
161.1303
 20
-1024.6024
 30
0.0
 11
161.8076
 21
-1025.5931
 31
0.0
  0
LINE
  5
25E
100
AcDbEntity
  8
1
  6
HIDDEN
 62
     7
100
AcDbLine
 10
162.6542
 20
-1026.8314
 30
0.0
 11
163.3315
 21
-1027.8221
 31
0.0
  0
LINE
  5
25F
100
AcDbEntity
  8
1
  6
HIDDEN
 62
     7
100
AcDbLine
 10
164.1781
 20
-1029.0604
 30
0.0
 11
164.8554
 21
-1030.0511
 31
0.0
  0
LINE
  5
260
100
AcDbEntity
  8
1
  6
HIDDEN
 62
     7
100
AcDbLine
 10
154.1957
 20
-1029.3431
 30
0.0
 11
154.873
 21
-1030.3338
 31
0.0
  0
LINE
  5
261
100
AcDbEntity
  8
1
  6
HIDDEN
 62
     7
100
AcDbLine
 10
155.7196
 20
-1031.5721
 30
0.0
 11
156.3969
 21
-1032.5628
 31
0.0
  0
LINE
  5
262
100
AcDbEntity
  8
1
  6
HIDDEN
 62
     7
100
AcDbLine
 10
161.1303
 20
-1024.6024
 30
0.0
 11
160.1396
 21
-1025.2796
 31
0.0
  0
LINE
  5
263
100
AcDbEntity
  8
1
  6
HIDDEN
 62
     7
100
AcDbLine
 10
159.6443
 20
-1025.6183
 30
0.0
 11
155.6817
 21
-1028.3273
 31
0.0
  0
LINE
  5
264
100
AcDbEntity
  8
1
  6
HIDDEN
 62
     7
100
AcDbLine
 10
155.1863
 20
-1028.6658
 30
0.0
 11
154.1957
 21
-1029.3431
 31
0.0
  0
LINE
  5
265
100
AcDbEntity
  8
1
  6
HIDDEN
 62
     7
100
AcDbLine
 10
155.8636
 20
-1029.6566
 30
0.0
 11
154.873
 21
-1030.3338
 31
0.0
  0
LINE
  5
266
100
AcDbEntity
  8
1
  6
HIDDEN
 62
     7
100
AcDbLine
 10
161.8076
 20
-1025.5931
 30
0.0
 11
160.8168
 21
-1026.2704
 31
0.0
  0
LINE
  5
267
100
AcDbEntity
  8
1
  6
HIDDEN
 62
     7
100
AcDbLine
 10
160.3215
 20
-1026.609
 30
0.0
 11
156.3589
 21
-1029.318
 31
0.0
  0
LINE
  5
268
100
AcDbEntity
  8
1
  6
HIDDEN
 62
     7
100
AcDbLine
 10
162.6542
 20
-1026.8314
 30
0.0
 11
161.6633
 21
-1027.5088
 31
0.0
  0
LINE
  5
269
100
AcDbEntity
  8
1
  6
HIDDEN
 62
     7
100
AcDbLine
 10
161.168
 20
-1027.8474
 30
0.0
 11
157.2055
 21
-1030.5564
 31
0.0
  0
LINE
  5
26A
100
AcDbEntity
  8
1
  6
HIDDEN
 62
     7
100
AcDbLine
 10
156.7101
 20
-1030.895
 30
0.0
 11
155.7196
 21
-1031.5721
 31
0.0
  0
LINE
  5
26B
100
AcDbEntity
  8
1
  6
HIDDEN
 62
     7
100
AcDbLine
 10
163.3315
 20
-1027.8221
 30
0.0
 11
162.3406
 21
-1028.4995
 31
0.0
  0
LINE
  5
26C
100
AcDbEntity
  8
1
  6
HIDDEN
 62
     7
100
AcDbLine
 10
161.8453
 20
-1028.8381
 30
0.0
 11
157.8827
 21
-1031.5471
 31
0.0
  0
LINE
  5
26D
100
AcDbEntity
  8
1
  6
HIDDEN
 62
     7
100
AcDbLine
 10
157.3874
 20
-1031.8857
 30
0.0
 11
156.3969
 21
-1032.5628
 31
0.0
  0
LINE
  5
26E
100
AcDbEntity
  8
1
  6
HIDDEN
 62
     7
100
AcDbLine
 10
164.1781
 20
-1029.0604
 30
0.0
 11
163.187
 21
-1029.7379
 31
0.0
  0
LINE
  5
26F
100
AcDbEntity
  8
1
  6
HIDDEN
 62
     7
100
AcDbLine
 10
164.8554
 20
-1030.0511
 30
0.0
 11
163.8643
 21
-1030.7286
 31
0.0
  0
LINE
  5
270
100
AcDbEntity
  8
1
  6
HIDDEN
 62
     7
100
AcDbLine
 10
163.369
 20
-1031.0673
 30
0.0
 11
160.3613
 21
-1033.1234
 31
0.0
  0
LINE
  5
271
100
AcDbEntity
  8
1
  6
HIDDEN
 62
     7
100
AcDbLine
 10
162.6918
 20
-1030.0765
 30
0.0
 11
158.7291
 21
-1032.7854
 31
0.0
  0
LINE
  5
272
100
AcDbEntity
  8
1
  6
HIDDEN
 62
     7
100
AcDbLine
 10
181.2934
 20
-1065.795
 30
0.0
 11
185.256
 21
-1063.086
 31
0.0
  0
LINE
  5
273
100
AcDbEntity
  8
1
  6
HIDDEN
 62
     7
100
AcDbLine
 10
182.0084
 20
-1070.0307
 30
0.0
 11
181.3311
 21
-1069.04
 31
0.0
  0
LINE
  5
274
100
AcDbEntity
  8
1
  6
HIDDEN
 62
     7
100
AcDbLine
 10
180.4845
 20
-1067.8017
 30
0.0
 11
179.8072
 21
-1066.811
 31
0.0
  0
LINE
  5
275
100
AcDbEntity
  8
1
  6
HIDDEN
 62
     7
100
AcDbLine
 10
178.9606
 20
-1065.5727
 30
0.0
 11
178.2833
 21
-1064.582
 31
0.0
  0
LINE
  5
276
100
AcDbEntity
  8
1
  6
HIDDEN
 62
     7
100
AcDbLine
 10
188.943
 20
-1065.29
 30
0.0
 11
188.2657
 21
-1064.2993
 31
0.0
  0
LINE
  5
277
100
AcDbEntity
  8
1
  6
HIDDEN
 62
     7
100
AcDbLine
 10
187.4191
 20
-1063.061
 30
0.0
 11
186.7418
 21
-1062.0703
 31
0.0
  0
LINE
  5
278
100
AcDbEntity
  8
1
  6
HIDDEN
 62
     7
100
AcDbLine
 10
182.0084
 20
-1070.0307
 30
0.0
 11
182.9991
 21
-1069.3535
 31
0.0
  0
LINE
  5
279
100
AcDbEntity
  8
1
  6
HIDDEN
 62
     7
100
AcDbLine
 10
183.4944
 20
-1069.0148
 30
0.0
 11
187.457
 21
-1066.3058
 31
0.0
  0
LINE
  5
27A
100
AcDbEntity
  8
1
  6
HIDDEN
 62
     7
100
AcDbLine
 10
187.9524
 20
-1065.9673
 30
0.0
 11
188.943
 21
-1065.29
 31
0.0
  0
LINE
  5
27B
100
AcDbEntity
  8
1
  6
HIDDEN
 62
     7
100
AcDbLine
 10
187.2751
 20
-1064.9765
 30
0.0
 11
188.2657
 21
-1064.2993
 31
0.0
  0
LINE
  5
27C
100
AcDbEntity
  8
1
  6
HIDDEN
 62
     7
100
AcDbLine
 10
181.3311
 20
-1069.04
 30
0.0
 11
182.3219
 21
-1068.3627
 31
0.0
  0
LINE
  5
27D
100
AcDbEntity
  8
1
  6
HIDDEN
 62
     7
100
AcDbLine
 10
182.8172
 20
-1068.0241
 30
0.0
 11
186.7798
 21
-1065.3151
 31
0.0
  0
LINE
  5
27E
100
AcDbEntity
  8
1
  6
HIDDEN
 62
     7
100
AcDbLine
 10
180.4845
 20
-1067.8017
 30
0.0
 11
181.4754
 21
-1067.1243
 31
0.0
  0
LINE
  5
27F
100
AcDbEntity
  8
1
  6
HIDDEN
 62
     7
100
AcDbLine
 10
181.9707
 20
-1066.7857
 30
0.0
 11
185.9332
 21
-1064.0767
 31
0.0
  0
LINE
  5
280
100
AcDbEntity
  8
1
  6
HIDDEN
 62
     7
100
AcDbLine
 10
186.4286
 20
-1063.7381
 30
0.0
 11
187.4191
 21
-1063.061
 31
0.0
  0
LINE
  5
281
100
AcDbEntity
  8
1
  6
HIDDEN
 62
     7
100
AcDbLine
 10
179.8072
 20
-1066.811
 30
0.0
 11
180.7981
 21
-1066.1336
 31
0.0
  0
LINE
  5
282
100
AcDbEntity
  8
1
  6
HIDDEN
 62
     7
100
AcDbLine
 10
185.7513
 20
-1062.7474
 30
0.0
 11
186.7418
 21
-1062.0703
 31
0.0
  0
LINE
  5
283
100
AcDbEntity
  8
1
  6
HIDDEN
 62
     7
100
AcDbLine
 10
178.9606
 20
-1065.5727
 30
0.0
 11
179.9517
 21
-1064.8952
 31
0.0
  0
LINE
  5
284
100
AcDbEntity
  8
1
  6
HIDDEN
 62
     7
100
AcDbLine
 10
178.2833
 20
-1064.582
 30
0.0
 11
179.2744
 21
-1063.9045
 31
0.0
  0
LINE
  5
285
100
AcDbEntity
  8
1
  6
HIDDEN
 62
     7
100
AcDbLine
 10
179.7697
 20
-1063.5658
 30
0.0
 11
182.1722
 21
-1061.9234
 31
0.0
  0
LINE
  5
286
100
AcDbEntity
  8
1
  6
HIDDEN
 62
     7
100
AcDbLine
 10
180.4469
 20
-1064.5566
 30
0.0
 11
184.2989
 21
-1061.9234
 31
0.0
  0
LINE
  5
287
100
AcDbEntity
  8
1
  6
HIDDEN
 62
     7
100
AcDbLine
 10
159.8009
 20
-1024.7842
 30
0.0
 11
170.1379
 21
-1039.9064
 31
0.0
  0
LINE
  5
288
100
AcDbEntity
  8
1
  6
HIDDEN
 62
     7
100
AcDbLine
 10
159.3056
 20
-1025.1228
 30
0.0
 11
169.7745
 21
-1040.438
 31
0.0
  0
LINE
  5
289
100
AcDbEntity
  8
1
  6
HIDDEN
 62
     7
100
AcDbLine
 10
164.0478
 20
-1033.1234
 30
0.0
 11
169.4112
 21
-1040.9695
 31
0.0
  0
LINE
  5
28A
100
AcDbEntity
  8
1
  6
HIDDEN
 62
     7
100
AcDbLine
 10
159.687
 20
-1033.1234
 30
0.0
 11
167.2308
 21
-1044.1593
 31
0.0
  0
LINE
  5
28B
100
AcDbEntity
  8
1
  6
HIDDEN
 62
     7
100
AcDbLine
 10
155.3429
 20
-1027.8316
 30
0.0
 11
166.8673
 21
-1044.691
 31
0.0
  0
LINE
  5
28C
100
AcDbEntity
  8
1
  6
HIDDEN
 62
     7
100
AcDbLine
 10
154.8475
 20
-1028.1701
 30
0.0
 11
166.504
 21
-1045.2225
 31
0.0
  0
LINE
  5
28D
100
AcDbEntity
  8
1
  6
HIDDEN
 62
     7
100
AcDbLine
 10
170.8647
 20
-1040.9695
 30
0.0
 11
173.045
 21
-1044.1593
 31
0.0
  0
LINE
  5
28E
100
AcDbEntity
  8
1
  6
HIDDEN
 62
     7
100
AcDbLine
 10
170.5013
 20
-1041.5011
 30
0.0
 11
172.6816
 21
-1044.6909
 31
0.0
  0
LINE
  5
28F
100
AcDbEntity
  8
1
  6
HIDDEN
 62
     7
100
AcDbLine
 10
170.1379
 20
-1042.0327
 30
0.0
 11
172.3183
 21
-1045.2224
 31
0.0
  0
LINE
  5
290
100
AcDbEntity
  8
1
  6
HIDDEN
 62
     7
100
AcDbLine
 10
167.9575
 20
-1045.2224
 30
0.0
 11
170.1379
 21
-1048.4122
 31
0.0
  0
LINE
  5
291
100
AcDbEntity
  8
1
  6
HIDDEN
 62
     7
100
AcDbLine
 10
170.8647
 20
-1049.4754
 30
0.0
 11
179.3737
 21
-1061.9234
 31
0.0
  0
LINE
  5
292
100
AcDbEntity
  8
1
  6
HIDDEN
 62
     7
100
AcDbLine
 10
167.5941
 20
-1045.7541
 30
0.0
 11
169.7745
 21
-1048.9438
 31
0.0
  0
LINE
  5
293
100
AcDbEntity
  8
1
  6
HIDDEN
 62
     7
100
AcDbLine
 10
170.5013
 20
-1050.0071
 30
0.0
 11
183.833
 21
-1069.5103
 31
0.0
  0
LINE
  5
294
100
AcDbEntity
  8
1
  6
HIDDEN
 62
     7
100
AcDbLine
 10
167.2307
 20
-1046.2857
 30
0.0
 11
169.4111
 21
-1049.4754
 31
0.0
  0
LINE
  5
295
100
AcDbEntity
  8
1
  6
HIDDEN
 62
     7
100
AcDbLine
 10
170.1379
 20
-1050.5387
 30
0.0
 11
183.3376
 21
-1069.8488
 31
0.0
  0
LINE
  5
296
100
AcDbEntity
  8
1
  6
CONTINUOUS
 62
     1
100
AcDbLine
 10
427.9628
 20
-1028.1691
 30
0.0
 11
441.1628
 21
-1028.1691
 31
0.0
  0
POLYLINE
  5
297
100
AcDbEntity
  8
1
  6
CONTINUOUS
 62
     1
100
AcDb2dPolyline
 66
     1
 10
0.0
 20
0.0
 30
0.0
 70
     1
  0
VERTEX
  5
298
100
AcDbEntity
  8
1
  6
CONTINUOUS
 62
     1
100
AcDbVertex
100
AcDb2dVertex
 10
421.1574
 20
-1028.1691
 30
0.0
  0
VERTEX
  5
299
100
AcDbEntity
  8
1
  6
CONTINUOUS
 62
     1
100
AcDbVertex
100
AcDb2dVertex
 10
427.9628
 20
-1029.3691
 30
0.0
  0
VERTEX
  5
29A
100
AcDbEntity
  8
1
  6
CONTINUOUS
 62
     1
100
AcDbVertex
100
AcDb2dVertex
 10
427.9628
 20
-1026.9691
 30
0.0
  0
VERTEX
  5
29B
100
AcDbEntity
  8
1
  6
CONTINUOUS
 62
     1
100
AcDbVertex
100
AcDb2dVertex
 10
421.1574
 20
-1028.1691
 30
0.0
  0
SEQEND
  5
29C
100
AcDbEntity
  8
1
  6
CONTINUOUS
 62
     1
  0
LINE
  5
29D
100
AcDbEntity
  8
1
  6
CONTINUOUS
 62
     1
100
AcDbLine
 10
0.9557
 20
-1055.0984
 30
0.0
 11
-12.2443
 21
-1055.0984
 31
0.0
  0
POLYLINE
  5
29E
100
AcDbEntity
  8
1
  6
CONTINUOUS
 62
     1
100
AcDb2dPolyline
 66
     1
 10
0.0
 20
0.0
 30
0.0
 70
     1
  0
VERTEX
  5
29F
100
AcDbEntity
  8
1
  6
CONTINUOUS
 62
     1
100
AcDbVertex
100
AcDb2dVertex
 10
7.7611
 20
-1055.0984
 30
0.0
  0
VERTEX
  5
2A0
100
AcDbEntity
  8
1
  6
CONTINUOUS
 62
     1
100
AcDbVertex
100
AcDb2dVertex
 10
0.9557
 20
-1056.2984
 30
0.0
  0
VERTEX
  5
2A1
100
AcDbEntity
  8
1
  6
CONTINUOUS
 62
     1
100
AcDbVertex
100
AcDb2dVertex
 10
0.9557
 20
-1053.8984
 30
0.0
  0
VERTEX
  5
2A2
100
AcDbEntity
  8
1
  6
CONTINUOUS
 62
     1
100
AcDbVertex
100
AcDb2dVertex
 10
7.7611
 20
-1055.0984
 30
0.0
  0
SEQEND
  5
2A3
100
AcDbEntity
  8
1
  6
CONTINUOUS
 62
     1
  0
LINE
  5
2A4
100
AcDbEntity
  8
1
  6
CONTINUOUS
 62
     7
100
AcDbLine
 10
19.3182
 20
-1048.2734
 30
0.0
 11
11.319
 21
-1019.0906
 31
0.0
  0
LINE
  5
2A5
100
AcDbEntity
  8
1
  6
CONTINUOUS
 62
     7
100
AcDbLine
 10
72.3031
 20
-1053.0239
 30
0.0
 11
93.7921
 21
-1023.7752
 31
0.0
  0
LINE
  5
2A6
100
AcDbEntity
  8
1
  6
CONTINUOUS
 62
     7
100
AcDbLine
 10
157.663
 20
-1026.9728
 30
0.0
 11
151.9182
 21
-1014.6129
 31
0.0
  0
LINE
  5
2A7
100
AcDbEntity
  8
1
  6
CONTINUOUS
 62
     7
100
AcDbLine
 10
27.3557
 20
-1047.0734
 30
0.0
 11
27.3557
 21
-1039.8734
 31
0.0
  0
LINE
  5
2A8
100
AcDbEntity
  8
1
  6
CONTINUOUS
 62
     7
100
AcDbLine
 10
29.7557
 20
-1047.0734
 30
0.0
 11
29.7557
 21
-1039.8734
 31
0.0
  0
INSERT
  5
2A9
100
AcDbEntity
  8
1
  6
CONTINUOUS
 62
     1
100
AcDbBlockReference
  2
LDR
 10
72.3031
 20
-1053.0239
 30
0.0
 41
240.0
 42
240.0
 50
233.6953
210
0.0
220
0.0
230
1.0
  0
INSERT
  5
2AA
100
AcDbEntity
  8
1
  6
CONTINUOUS
 62
     1
100
AcDbBlockReference
  2
LDR
 10
19.3182
 20
-1048.2734
 30
0.0
 41
240.0
 42
240.0
 50
285.328678
210
0.0
220
0.0
230
1.0
  0
INSERT
  5
2AB
100
AcDbEntity
  8
1
  6
CONTINUOUS
 62
     1
100
AcDbBlockReference
  2
LDR
 10
157.663
 20
-1026.9728
 30
0.0
 41
240.000001
 42
240.000001
 50
294.928694
210
0.0
220
0.0
230
1.0
  0
LINE
  5
2AC
100
AcDbEntity
  8
1
  6
CONTINUOUS
 62
     7
100
AcDbLine
 10
21.3557
 20
-1041.0734
 30
0.0
 11
27.3557
 21
-1041.0734
 31
0.0
  0
LINE
  5
2AD
100
AcDbEntity
  8
1
  6
CONTINUOUS
 62
     7
100
AcDbLine
 10
29.7557
 20
-1041.0734
 30
0.0
 11
34.5557
 21
-1041.0734
 31
0.0
  0
INSERT
  5
2AE
100
AcDbEntity
  8
1
  6
CONTINUOUS
 62
     1
100
AcDbBlockReference
  2
LDR
 10
27.3557
 20
-1041.0734
 30
0.0
 41
240.0
 42
240.0
210
0.0
220
0.0
230
1.0
  0
INSERT
  5
2AF
100
AcDbEntity
  8
1
  6
CONTINUOUS
 62
     1
100
AcDbBlockReference
  2
LDR
 10
27.3557
 20
-1041.0734
 30
0.0
 41
240.0
 42
240.0
210
0.0
220
0.0
230
1.0
  0
INSERT
  5
2B0
100
AcDbEntity
  8
1
  6
CONTINUOUS
 62
     1
100
AcDbBlockReference
  2
LDR
 10
27.3557
 20
-1041.0734
 30
0.0
 41
240.0
 42
240.0
210
0.0
220
0.0
230
1.0
  0
INSERT
  5
2B1
100
AcDbEntity
  8
1
  6
CONTINUOUS
 62
     1
100
AcDbBlockReference
  2
LDR
 10
29.7557
 20
-1041.0734
 30
0.0
 41
240.0
 42
240.0
 50
180.0
210
0.0
220
0.0
230
1.0
  0
LINE
  5
2B2
100
AcDbEntity
  8
1
  6
CONTINUOUS
 62
     3
100
AcDbLine
 10
130.5557
 20
-1033.1234
 30
0.0
 11
187.5557
 21
-1033.1234
 31
0.0
  0
LINE
  5
2B3
100
AcDbEntity
  8
1
  6
CONTINUOUS
 62
     3
100
AcDbLine
 10
187.5557
 20
-1033.1234
 30
0.0
 11
214.4424
 21
-1033.1234
 31
0.0
  0
LINE
  5
2B4
100
AcDbEntity
  8
1
  6
CONTINUOUS
 62
     7
100
AcDbLine
 10
183.8789
 20
-1034.3234
 30
0.0
 11
183.8789
 21
-1041.5234
 31
0.0
  0
LINE
  5
2B5
100
AcDbEntity
  8
1
  6
CONTINUOUS
 62
     7
100
AcDbLine
 10
183.8789
 20
-1040.3234
 30
0.0
 11
187.5557
 21
-1040.3234
 31
0.0
  0
INSERT
  5
2B6
100
AcDbEntity
  8
1
  6
CONTINUOUS
 62
     1
100
AcDbBlockReference
  2
LDR
 10
183.8831
 20
-1040.3271
 30
0.0
 41
92.980922
 42
92.980922
 50
180.0
210
0.0
220
0.0
230
1.0
  0
INSERT
  5
2B7
100
AcDbEntity
  8
1
  6
CONTINUOUS
 62
     1
100
AcDbBlockReference
  2
LDR
 10
187.5515
 20
-1040.3271
 30
0.0
 41
92.980922
 42
-92.980922
210
0.0
220
0.0
230
1.0
  0
LINE
  5
2B8
100
AcDbEntity
  8
1
  6
CONTINUOUS
 62
     7
100
AcDbLine
 10
187.5557
 20
-1047.9734
 30
0.0
 11
187.5557
 21
-1055.1734
 31
0.0
  0
LINE
  5
2B9
100
AcDbEntity
  8
1
  6
CONTINUOUS
 62
     7
100
AcDbLine
 10
175.4204
 20
-1047.9734
 30
0.0
 11
175.4204
 21
-1055.1734
 31
0.0
  0
LINE
  5
2BA
100
AcDbEntity
  8
1
  6
CONTINUOUS
 62
     7
100
AcDbLine
 10
175.4204
 20
-1053.9734
 30
0.0
 11
187.5557
 21
-1053.9734
 31
0.0
  0
INSERT
  5
2BB
100
AcDbEntity
  8
1
  6
CONTINUOUS
 62
     1
100
AcDbBlockReference
  2
LDR
 10
175.4204
 20
-1053.9734
 30
0.0
 41
240.0
 42
240.0
 50
180.0
210
0.0
220
0.0
230
1.0
  0
INSERT
  5
2BC
100
AcDbEntity
  8
1
  6
CONTINUOUS
 62
     1
100
AcDbBlockReference
  2
LDR
 10
187.5557
 20
-1053.9734
 30
0.0
 41
240.0
 42
240.0
210
0.0
220
0.0
230
1.0
  0
LINE
  5
2BD
100
AcDbEntity
  8
1
  6
CONTINUOUS
 62
     3
100
AcDbLine
 10
-14.6443
 20
-1061.9234
 30
0.0
 11
27.3557
 21
-1061.9234
 31
0.0
  0
LINE
  5
2BE
100
AcDbEntity
  8
1
  6
CONTINUOUS
 62
     3
100
AcDbLine
 10
27.3557
 20
-1061.9234
 30
0.0
 11
29.7557
 21
-1061.9234
 31
0.0
  0
LINE
  5
2BF
100
AcDbEntity
  8
1
  6
CONTINUOUS
 62
     7
100
AcDbLine
 10
28.5557
 20
-1063.1234
 30
0.0
 11
28.5557
 21
-1081.1234
 31
0.0
  0
LINE
  5
2C0
100
AcDbEntity
  8
1
  6
CONTINUOUS
 62
     3
100
AcDbLine
 10
104.1557
 20
-1061.9234
 30
0.0
 11
106.5557
 21
-1061.9234
 31
0.0
  0
LINE
  5
2C1
100
AcDbEntity
  8
1
  6
CONTINUOUS
 62
     3
100
AcDbLine
 10
106.5557
 20
-1061.9234
 30
0.0
 11
121.5557
 21
-1061.9234
 31
0.0
  0
LINE
  5
2C2
100
AcDbEntity
  8
1
  6
CONTINUOUS
 62
     7
100
AcDbLine
 10
105.3557
 20
-1063.1234
 30
0.0
 11
105.3557
 21
-1081.1234
 31
0.0
  0
LINE
  5
2C3
100
AcDbEntity
  8
1
  6
CONTINUOUS
 62
     7
100
AcDbLine
 10
28.5557
 20
-1079.9234
 30
0.0
 11
105.3557
 21
-1079.9234
 31
0.0
  0
INSERT
  5
2C4
100
AcDbEntity
  8
1
  6
CONTINUOUS
 62
     1
100
AcDbBlockReference
  2
LDR
 10
28.5557
 20
-1079.9234
 30
0.0
 41
240.0
 42
240.0
 50
180.0
210
0.0
220
0.0
230
1.0
  0
INSERT
  5
2C5
100
AcDbEntity
  8
1
  6
CONTINUOUS
 62
     1
100
AcDbBlockReference
  2
LDR
 10
105.3557
 20
-1079.9234
 30
0.0
 41
240.0
 42
240.0
210
0.0
220
0.0
230
1.0
  0
LINE
  5
2C6
100
AcDbEntity
  8
1
  6
CONTINUOUS
 62
     7
100
AcDbLine
 10
64.9156
 20
-1061.0234
 30
0.0
 11
64.9156
 21
-1070.3234
 31
0.0
  0
LINE
  5
2C7
100
AcDbEntity
  8
1
  6
CONTINUOUS
 62
     7
100
AcDbLine
 10
68.8811
 20
-1061.0234
 30
0.0
 11
68.8811
 21
-1070.3234
 31
0.0
  0
LINE
  5
2C8
100
AcDbEntity
  8
1
  6
CONTINUOUS
 62
     7
100
AcDbLine
 10
64.9156
 20
-1069.1234
 30
0.0
 11
28.5557
 21
-1069.1234
 31
0.0
  0
LINE
  5
2C9
100
AcDbEntity
  8
1
  6
CONTINUOUS
 62
     7
100
AcDbLine
 10
68.8811
 20
-1069.1234
 30
0.0
 11
105.3557
 21
-1069.1234
 31
0.0
  0
INSERT
  5
2CA
100
AcDbEntity
  8
1
  6
CONTINUOUS
 62
     1
100
AcDbBlockReference
  2
LDR
 10
28.5557
 20
-1069.1234
 30
0.0
 41
240.0
 42
240.0
 50
180.0
210
0.0
220
0.0
230
1.0
  0
INSERT
  5
2CB
100
AcDbEntity
  8
1
  6
CONTINUOUS
 62
     1
100
AcDbBlockReference
  2
LDR
 10
28.5557
 20
-1069.1234
 30
0.0
 41
240.0
 42
240.0
 50
180.0
210
0.0
220
0.0
230
1.0
  0
INSERT
  5
2CC
100
AcDbEntity
  8
1
  6
CONTINUOUS
 62
     1
100
AcDbBlockReference
  2
LDR
 10
64.9156
 20
-1069.1234
 30
0.0
 41
240.0
 42
240.0
210
0.0
220
0.0
230
1.0
  0
INSERT
  5
2CD
100
AcDbEntity
  8
1
  6
CONTINUOUS
 62
     1
100
AcDbBlockReference
  2
LDR
 10
64.9156
 20
-1069.1234
 30
0.0
 41
240.0
 42
240.0
210
0.0
220
0.0
230
1.0
  0
INSERT
  5
2CE
100
AcDbEntity
  8
1
  6
CONTINUOUS
 62
     1
100
AcDbBlockReference
  2
LDR
 10
68.8811
 20
-1069.1234
 30
0.0
 41
240.0
 42
240.0
 50
180.0
210
0.0
220
0.0
230
1.0
  0
INSERT
  5
2CF
100
AcDbEntity
  8
1
  6
CONTINUOUS
 62
     1
100
AcDbBlockReference
  2
LDR
 10
68.8811
 20
-1069.1234
 30
0.0
 41
240.0
 42
240.0
 50
180.0
210
0.0
220
0.0
230
1.0
  0
INSERT
  5
2D0
100
AcDbEntity
  8
1
  6
CONTINUOUS
 62
     1
100
AcDbBlockReference
  2
LDR
 10
105.3557
 20
-1069.1234
 30
0.0
 41
240.0
 42
240.0
210
0.0
220
0.0
230
1.0
  0
LINE
  5
2D1
100
AcDbEntity
  8
1
  6
CONTINUOUS
 62
     7
100
AcDbLine
 10
154.6106
 20
-1063.1234
 30
0.0
 11
154.6106
 21
-1081.1234
 31
0.0
  0
LINE
  5
2D2
100
AcDbEntity
  8
1
  6
CONTINUOUS
 62
     7
100
AcDbLine
 10
105.3557
 20
-1079.9234
 30
0.0
 11
154.6106
 21
-1079.9234
 31
0.0
  0
INSERT
  5
2D3
100
AcDbEntity
  8
1
  6
CONTINUOUS
 62
     1
100
AcDbBlockReference
  2
LDR
 10
105.3557
 20
-1079.9234
 30
0.0
 41
240.0
 42
240.0
 50
180.0
210
0.0
220
0.0
230
1.0
  0
INSERT
  5
2D4
100
AcDbEntity
  8
1
  6
CONTINUOUS
 62
     1
100
AcDbBlockReference
  2
LDR
 10
105.3557
 20
-1079.9234
 30
0.0
 41
240.0
 42
240.0
 50
180.0
210
0.0
220
0.0
230
1.0
  0
INSERT
  5
2D5
100
AcDbEntity
  8
1
  6
CONTINUOUS
 62
     1
100
AcDbBlockReference
  2
LDR
 10
154.6106
 20
-1079.9234
 30
0.0
 41
240.0
 42
240.0
210
0.0
220
0.0
230
1.0
  0
LINE
  5
2D6
100
AcDbEntity
  8
1
  6
CONTINUOUS
 62
     7
100
AcDbLine
 10
149.7557
 20
-1063.1234
 30
0.0
 11
149.7557
 21
-1070.3234
 31
0.0
  0
LINE
  5
2D7
100
AcDbEntity
  8
1
  6
CONTINUOUS
 62
     7
100
AcDbLine
 10
147.3557
 20
-1063.1234
 30
0.0
 11
147.3557
 21
-1070.3234
 31
0.0
  0
LINE
  5
2D8
100
AcDbEntity
  8
1
  6
CONTINUOUS
 62
     7
100
AcDbLine
 10
142.5557
 20
-1069.1234
 30
0.0
 11
147.3557
 21
-1069.1234
 31
0.0
  0
LINE
  5
2D9
100
AcDbEntity
  8
1
  6
CONTINUOUS
 62
     7
100
AcDbLine
 10
149.7557
 20
-1069.1234
 30
0.0
 11
153.7106
 21
-1069.1234
 31
0.0
  0
INSERT
  5
2DA
100
AcDbEntity
  8
1
  6
CONTINUOUS
 62
     1
100
AcDbBlockReference
  2
LDR
 10
147.3557
 20
-1069.1234
 30
0.0
 41
240.0
 42
-240.0
210
0.0
220
0.0
230
1.0
  0
INSERT
  5
2DB
100
AcDbEntity
  8
1
  6
CONTINUOUS
 62
     1
100
AcDbBlockReference
  2
LDR
 10
147.3557
 20
-1069.1234
 30
0.0
 41
240.0
 42
-240.0
210
0.0
220
0.0
230
1.0
  0
INSERT
  5
2DC
100
AcDbEntity
  8
1
  6
CONTINUOUS
 62
     1
100
AcDbBlockReference
  2
LDR
 10
147.3557
 20
-1069.1234
 30
0.0
 41
240.0
 42
-240.0
210
0.0
220
0.0
230
1.0
  0
INSERT
  5
2DD
100
AcDbEntity
  8
1
  6
CONTINUOUS
 62
     1
100
AcDbBlockReference
  2
LDR
 10
149.7557
 20
-1069.1234
 30
0.0
 41
240.0
 42
-240.0
 50
180.0
210
0.0
220
0.0
230
1.0
  0
LINE
  5
2DE
100
AcDbEntity
  8
1
  6
CONTINUOUS
 62
     7
100
AcDbLine
 10
-15.2988
 20
-1005.2326
 30
0.0
 11
-10.4988
 21
-1005.2326
 31
0.0
  0
LINE
  5
2DF
100
AcDbEntity
  8
1
  6
CONTINUOUS
 62
     7
100
AcDbLine
 10
11.319
 20
-1019.0906
 30
0.0
 11
16.119
 21
-1019.0906
 31
0.0
  0
LINE
  5
2E0
100
AcDbEntity
  8
1
  6
CONTINUOUS
 62
     7
100
AcDbLine
 10
93.7921
 20
-1023.7752
 30
0.0
 11
98.5921
 21
-1023.7752
 31
0.0
  0
LINE
  5
2E1
100
AcDbEntity
  8
1
  6
CONTINUOUS
 62
     7
100
AcDbLine
 10
151.9182
 20
-1014.6129
 30
0.0
 11
156.7182
 21
-1014.6129
 31
0.0
  0
TEXT
  5
2E2
100
AcDbEntity
  8
1
  6
CONTINUOUS
 62
     7
100
AcDbText
 10
99.7711
 20
-1025.2373
 30
0.0
 40
3.0
  1
FOR DETAILS SEE
  7
MONOTXT
 11
99.7711
 21
-1022.2373
 31
0.0
210
0.0
220
0.0
230
1.0
100
AcDbText
 73
     3
  0
TEXT
  5
2E3
100
AcDbEntity
  8
1
  6
CONTINUOUS
 62
     7
100
AcDbText
 10
99.7711
 20
-1030.6373
 30
0.0
 40
3.0
  1
SHEET TEM-3
  7
MONOTXT
 11
99.7711
 21
-1027.6373
 31
0.0
210
0.0
220
0.0
230
1.0
100
AcDbText
 73
     3
  0
TEXT
  5
2E4
100
AcDbEntity
  8
1
  6
CONTINUOUS
 62
     7
100
AcDbText
 10
157.5258
 20
-1015.5293
 30
0.0
 40
3.0
  1
ALT.
  7
MONOTXT
 72
     4
 11
161.9785
 21
-1014.0293
 31
0.0
210
0.0
220
0.0
230
1.0
100
AcDbText
  0
TEXT
  5
2E5
100
AcDbEntity
  8
1
  6
CONTINUOUS
 62
     7
100
AcDbText
 10
177.4158
 20
-1057.8223
 30
0.0
 40
3.0
  1
ALT.
  7
MONOTXT
 72
     4
 11
181.8685
 21
-1056.3223
 31
0.0
210
0.0
220
0.0
230
1.0
100
AcDbText
  0
LINE
  5
2E6
100
AcDbEntity
  8
1
  6
HIDDEN
 62
     7
100
AcDbLine
 10
173.0451
 20
-1046.2857
 30
0.0
 11
178.0018
 21
-1053.5369
 31
0.0
  0
LINE
  5
2E7
100
AcDbEntity
  8
1
  6
HIDDEN
 62
     7
100
AcDbLine
 10
181.1102
 20
-1058.0843
 30
0.0
 11
183.7345
 21
-1061.9234
 31
0.0
  0
LINE
  5
2E8
100
AcDbEntity
  8
1
  6
HIDDEN
 62
     7
100
AcDbLine
 10
173.4084
 20
-1045.7542
 30
0.0
 11
178.6321
 21
-1053.396
 31
0.0
  0
LINE
  5
2E9
100
AcDbEntity
  8
1
  6
HIDDEN
 62
     7
100
AcDbLine
 10
181.7791
 20
-1057.9998
 30
0.0
 11
187.7957
 21
-1066.8015
 31
0.0
  0
LINE
  5
2EA
100
AcDbEntity
  8
1
  6
HIDDEN
 62
     7
100
AcDbLine
 10
173.7719
 20
-1045.2225
 30
0.0
 11
179.1649
 21
-1053.112
 31
0.0
  0
LINE
  5
2EB
100
AcDbEntity
  8
1
  6
HIDDEN
 62
     7
100
AcDbLine
 10
182.4624
 20
-1057.9361
 30
0.0
 11
188.291
 21
-1066.4629
 31
0.0
  0
TEXT
  5
2EC
100
AcDbEntity
  8
1
  6
CONTINUOUS
 62
     7
100
AcDbText
 10
61.7784
 20
-1083.8636
 30
0.0
 40
3.0
  1
15m
  7
MONOTXT
 72
     4
 11
65.6524
 21
-1082.3636
 31
0.0
210
0.0
220
0.0
230
1.0
100
AcDbText
  0
TEXT
  5
2ED
100
AcDbEntity
  8
1
  6
CONTINUOUS
 62
     7
100
AcDbText
 10
118.9781
 20
-1073.6219
 30
0.0
 40
3.0
  1
VARIABLE
  7
MONOTXT
 72
     4
 11
129.1946
 21
-1072.1219
 31
0.0
210
0.0
220
0.0
230
1.0
100
AcDbText
  0
TEXT
  5
2EE
100
AcDbEntity
  8
1
  6
CONTINUOUS
 62
     7
100
AcDbText
 10
115.0096
 20
-1079.0219
 30
0.0
 40
3.0
  1
SEE NOTE 3
  7
MONOTXT
 72
     4
 11
129.1946
 21
-1077.5219
 31
0.0
210
0.0
220
0.0
230
1.0
100
AcDbText
  0
TEXT
  5
2EF
100
AcDbEntity
  8
1
  6
CONTINUOUS
 62
     7
100
AcDbText
 10
116.6395
 20
-1084.4219
 30
0.0
 40
3.0
  1
AND TABLE
  7
MONOTXT
 72
     4
 11
129.1945
 21
-1082.9219
 31
0.0
210
0.0
220
0.0
230
1.0
100
AcDbText
  0
TEXT
  5
2F0
100
AcDbEntity
  8
1
  6
CONTINUOUS
 62
     7
100
AcDbText
 10
160.248
 20
-1079.9644
 30
0.0
 40
3.0
  1
ALSO SEE NOTE 4
  7
MONOTXT
 72
     4
 11
182.0156
 21
-1078.4644
 31
0.0
210
0.0
220
0.0
230
1.0
100
AcDbText
  0
LINE
  5
2F1
100
AcDbEntity
  8
1
  6
CONTINUOUS
 62
     7
100
AcDbLine
 10
5.065
 20
-1096.8924
 30
0.0
 11
196.1822
 21
-1096.8924
 31
0.0
  0
TEXT
  5
2F2
100
AcDbEntity
  8
1
  6
CONTINUOUS
 62
     7
100
AcDbText
 10
5.8008
 20
-1095.4212
 30
0.0
 40
4.2
  1
(E)  TWO WAY MARKING, RAILROAD-HIGHWAY GRADE CROSSINGS
  7
TXT
210
0.0
220
0.0
230
1.0
100
AcDbText
  0
LINE
  5
2F3
100
AcDbEntity
  8
1
  6
CONTINUOUS
 62
     1
100
AcDbLine
 10
276.127
 20
-676.8125
 30
0.0
 11
276.127
 21
-666.0125
 31
0.0
  0
LINE
  5
2F4
100
AcDbEntity
  8
1
  6
CONTINUOUS
 62
     1
100
AcDbLine
 10
276.127
 20
-628.8125
 30
0.0
 11
276.127
 21
-618.0125
 31
0.0
  0
LINE
  5
2F5
100
AcDbEntity
  8
1
  6
CONTINUOUS
 62
     1
100
AcDbLine
 10
302.527
 20
-676.8125
 30
0.0
 11
302.527
 21
-666.0125
 31
0.0
  0
LINE
  5
2F6
100
AcDbEntity
  8
1
  6
CONTINUOUS
 62
     1
100
AcDbLine
 10
302.527
 20
-628.8125
 30
0.0
 11
302.527
 21
-618.0125
 31
0.0
  0
LINE
  5
2F7
100
AcDbEntity
  8
1
  6
CONTINUOUS
 62
     1
100
AcDbLine
 10
247.327
 20
-658.8125
 30
0.0
 11
268.927
 21
-658.8125
 31
0.0
  0
LINE
  5
2F8
100
AcDbEntity
  8
1
  6
CONTINUOUS
 62
     1
100
AcDbLine
 10
309.727
 20
-658.8125
 30
0.0
 11
331.327
 21
-658.8125
 31
0.0
  0
LINE
  5
2F9
100
AcDbEntity
  8
1
  6
CONTINUOUS
 62
     1
100
AcDbLine
 10
247.327
 20
-636.0125
 30
0.0
 11
268.927
 21
-636.0125
 31
0.0
  0
LINE
  5
2FA
100
AcDbEntity
  8
1
  6
CONTINUOUS
 62
     1
100
AcDbLine
 10
309.727
 20
-636.0125
 30
0.0
 11
331.327
 21
-636.0125
 31
0.0
  0
ARC
  5
2FB
100
AcDbEntity
  8
1
  6
CONTINUOUS
 62
     1
100
AcDbCircle
 10
268.927
 20
-628.8125
 30
0.0
 40
7.2
210
0.0
220
0.0
230
1.0
100
AcDbArc
 50
270.0
 51
0.0
  0
ARC
  5
2FC
100
AcDbEntity
  8
1
  6
CONTINUOUS
 62
     1
100
AcDbCircle
 10
309.727
 20
-628.8125
 30
0.0
 40
7.2
210
0.0
220
0.0
230
1.0
100
AcDbArc
 50
180.0
 51
270.0
  0
ARC
  5
2FD
100
AcDbEntity
  8
1
  6
CONTINUOUS
 62
     1
100
AcDbCircle
 10
309.727
 20
-666.0125
 30
0.0
 40
7.2
210
0.0
220
0.0
230
1.0
100
AcDbArc
 50
90.0
 51
180.0
  0
ARC
  5
2FE
100
AcDbEntity
  8
1
  6
CONTINUOUS
 62
     1
100
AcDbCircle
 10
268.927
 20
-666.0125
 30
0.0
 40
7.2
210
0.0
220
0.0
230
1.0
100
AcDbArc
 50
0.0
 51
90.0
  0
LINE
  5
2FF
100
AcDbEntity
  8
1
  6
CONTINUOUS
 62
     1
100
AcDbLine
 10
276.127
 20
-628.8125
 30
0.0
 11
302.527
 21
-628.8125
 31
0.0
  0
LINE
  5
300
100
AcDbEntity
  8
1
  6
CONTINUOUS
 62
     1
100
AcDbLine
 10
309.727
 20
-636.0125
 30
0.0
 11
309.727
 21
-658.8125
 31
0.0
  0
LINE
  5
301
100
AcDbEntity
  8
1
  6
CONTINUOUS
 62
     1
100
AcDbLine
 10
302.527
 20
-666.0125
 30
0.0
 11
276.127
 21
-666.0125
 31
0.0
  0
LINE
  5
302
100
AcDbEntity
  8
1
  6
CONTINUOUS
 62
     1
100
AcDbLine
 10
268.927
 20
-658.8125
 30
0.0
 11
268.927
 21
-636.0125
 31
0.0
  0
LINE
  5
303
100
AcDbEntity
  8
1
  6
CONTINUOUS
 62
     1
100
AcDbLine
 10
274.0182
 20
-633.9037
 30
0.0
 11
304.6358
 21
-633.9037
 31
0.0
  0
LINE
  5
304
100
AcDbEntity
  8
1
  6
CONTINUOUS
 62
     1
100
AcDbLine
 10
304.6358
 20
-633.9037
 30
0.0
 11
304.6358
 21
-660.9213
 31
0.0
  0
LINE
  5
305
100
AcDbEntity
  8
1
  6
CONTINUOUS
 62
     1
100
AcDbLine
 10
304.6358
 20
-660.9213
 30
0.0
 11
274.0182
 21
-660.9213
 31
0.0
  0
LINE
  5
306
100
AcDbEntity
  8
1
  6
CONTINUOUS
 62
     1
100
AcDbLine
 10
274.0182
 20
-660.9213
 30
0.0
 11
274.0182
 21
-633.9037
 31
0.0
  0
LINE
  5
307
100
AcDbEntity
  8
1
  6
CONTINUOUS
 62
     1
100
AcDbLine
 10
363.727
 20
-636.0125
 30
0.0
 11
385.327
 21
-636.0125
 31
0.0
  0
LINE
  5
308
100
AcDbEntity
  8
1
  6
CONTINUOUS
 62
     1
100
AcDbLine
 10
392.527
 20
-676.8125
 30
0.0
 11
392.527
 21
-666.0125
 31
0.0
  0
LINE
  5
309
100
AcDbEntity
  8
1
  6
CONTINUOUS
 62
     1
100
AcDbLine
 10
392.527
 20
-628.8125
 30
0.0
 11
392.527
 21
-618.0125
 31
0.0
  0
LINE
  5
30A
100
AcDbEntity
  8
1
  6
CONTINUOUS
 62
     1
100
AcDbLine
 10
418.927
 20
-676.8125
 30
0.0
 11
418.927
 21
-666.0125
 31
0.0
  0
LINE
  5
30B
100
AcDbEntity
  8
1
  6
CONTINUOUS
 62
     1
100
AcDbLine
 10
418.927
 20
-628.8125
 30
0.0
 11
418.927
 21
-618.0125
 31
0.0
  0
LINE
  5
30C
100
AcDbEntity
  8
1
  6
CONTINUOUS
 62
     1
100
AcDbLine
 10
363.727
 20
-658.8125
 30
0.0
 11
385.327
 21
-658.8125
 31
0.0
  0
LINE
  5
30D
100
AcDbEntity
  8
1
  6
CONTINUOUS
 62
     1
100
AcDbLine
 10
426.127
 20
-658.8125
 30
0.0
 11
447.727
 21
-658.8125
 31
0.0
  0
LINE
  5
30E
100
AcDbEntity
  8
1
  6
CONTINUOUS
 62
     1
100
AcDbLine
 10
426.127
 20
-636.0125
 30
0.0
 11
447.727
 21
-636.0125
 31
0.0
  0
LINE
  5
30F
100
AcDbEntity
  8
1
  6
CONTINUOUS
 62
     1
100
AcDbLine
 10
385.327
 20
-636.0125
 30
0.0
 11
385.327
 21
-658.8125
 31
0.0
  0
ARC
  5
310
100
AcDbEntity
  8
1
  6
CONTINUOUS
 62
     1
100
AcDbCircle
 10
385.327
 20
-666.0125
 30
0.0
 40
7.2
210
0.0
220
0.0
230
1.0
100
AcDbArc
 50
0.0
 51
90.0
  0
LINE
  5
311
100
AcDbEntity
  8
1
  6
CONTINUOUS
 62
     1
100
AcDbLine
 10
392.527
 20
-666.0125
 30
0.0
 11
418.927
 21
-666.0125
 31
0.0
  0
ARC
  5
312
100
AcDbEntity
  8
1
  6
CONTINUOUS
 62
     1
100
AcDbCircle
 10
426.127
 20
-666.0125
 30
0.0
 40
7.2
210
0.0
220
0.0
230
1.0
100
AcDbArc
 50
90.0
 51
180.0
  0
LINE
  5
313
100
AcDbEntity
  8
1
  6
CONTINUOUS
 62
     1
100
AcDbLine
 10
426.127
 20
-658.8125
 30
0.0
 11
426.127
 21
-636.0125
 31
0.0
  0
ARC
  5
314
100
AcDbEntity
  8
1
  6
CONTINUOUS
 62
     1
100
AcDbCircle
 10
426.127
 20
-628.8125
 30
0.0
 40
7.2
210
0.0
220
0.0
230
1.0
100
AcDbArc
 50
180.0
 51
270.0
  0
LINE
  5
315
100
AcDbEntity
  8
1
  6
CONTINUOUS
 62
     1
100
AcDbLine
 10
418.927
 20
-628.8125
 30
0.0
 11
392.527
 21
-628.8125
 31
0.0
  0
ARC
  5
316
100
AcDbEntity
  8
1
  6
CONTINUOUS
 62
     1
100
AcDbCircle
 10
385.327
 20
-628.8125
 30
0.0
 40
7.2
210
0.0
220
0.0
230
1.0
100
AcDbArc
 50
270.0
 51
0.0
  0
LINE
  5
317
100
AcDbEntity
  8
1
  6
CONTINUOUS
 62
     1
100
AcDbLine
 10
392.8182
 20
-636.3037
 30
0.0
 11
392.8182
 21
-658.5213
 31
0.0
  0
LINE
  5
318
100
AcDbEntity
  8
1
  6
CONTINUOUS
 62
     1
100
AcDbLine
 10
392.8182
 20
-658.5213
 30
0.0
 11
418.6358
 21
-658.5213
 31
0.0
  0
LINE
  5
319
100
AcDbEntity
  8
1
  6
CONTINUOUS
 62
     1
100
AcDbLine
 10
418.6358
 20
-658.5213
 30
0.0
 11
418.6358
 21
-636.3037
 31
0.0
  0
LINE
  5
31A
100
AcDbEntity
  8
1
  6
CONTINUOUS
 62
     1
100
AcDbLine
 10
418.6358
 20
-636.3037
 30
0.0
 11
392.8182
 21
-636.3037
 31
0.0
  0
LINE
  5
31B
100
AcDbEntity
  8
1
  6
CONTINUOUS
 62
     1
100
AcDbLine
 10
385.327
 20
-637.4222
 30
0.0
 11
386.9365
 21
-635.8127
 31
0.0
  0
LINE
  5
31C
100
AcDbEntity
  8
1
  6
CONTINUOUS
 62
     1
100
AcDbLine
 10
392.3196
 20
-630.4296
 30
0.0
 11
393.9367
 21
-628.8125
 31
0.0
  0
LINE
  5
31D
100
AcDbEntity
  8
1
  6
CONTINUOUS
 62
     1
100
AcDbLine
 10
385.327
 20
-640.8163
 30
0.0
 11
397.3308
 21
-628.8125
 31
0.0
  0
LINE
  5
31E
100
AcDbEntity
  8
1
  6
CONTINUOUS
 62
     1
100
AcDbLine
 10
385.327
 20
-644.2104
 30
0.0
 11
392.8182
 21
-636.7192
 31
0.0
  0
LINE
  5
31F
100
AcDbEntity
  8
1
  6
CONTINUOUS
 62
     1
100
AcDbLine
 10
393.2337
 20
-636.3037
 30
0.0
 11
400.7249
 21
-628.8125
 31
0.0
  0
LINE
  5
320
100
AcDbEntity
  8
1
  6
CONTINUOUS
 62
     1
100
AcDbLine
 10
385.327
 20
-647.6045
 30
0.0
 11
392.8182
 21
-640.1133
 31
0.0
  0
LINE
  5
321
100
AcDbEntity
  8
1
  6
CONTINUOUS
 62
     1
100
AcDbLine
 10
396.6278
 20
-636.3037
 30
0.0
 11
404.119
 21
-628.8125
 31
0.0
  0
LINE
  5
322
100
AcDbEntity
  8
1
  6
CONTINUOUS
 62
     1
100
AcDbLine
 10
385.327
 20
-650.9986
 30
0.0
 11
392.8182
 21
-643.5074
 31
0.0
  0
LINE
  5
323
100
AcDbEntity
  8
1
  6
CONTINUOUS
 62
     1
100
AcDbLine
 10
400.0219
 20
-636.3037
 30
0.0
 11
407.5131
 21
-628.8125
 31
0.0
  0
LINE
  5
324
100
AcDbEntity
  8
1
  6
CONTINUOUS
 62
     1
100
AcDbLine
 10
385.327
 20
-654.3927
 30
0.0
 11
392.8182
 21
-646.9015
 31
0.0
  0
LINE
  5
325
100
AcDbEntity
  8
1
  6
CONTINUOUS
 62
     1
100
AcDbLine
 10
403.416
 20
-636.3037
 30
0.0
 11
410.9072
 21
-628.8125
 31
0.0
  0
LINE
  5
326
100
AcDbEntity
  8
1
  6
CONTINUOUS
 62
     1
100
AcDbLine
 10
385.327
 20
-657.7868
 30
0.0
 11
392.8182
 21
-650.2956
 31
0.0
  0
LINE
  5
327
100
AcDbEntity
  8
1
  6
CONTINUOUS
 62
     1
100
AcDbLine
 10
406.8101
 20
-636.3037
 30
0.0
 11
414.3013
 21
-628.8125
 31
0.0
  0
LINE
  5
328
100
AcDbEntity
  8
1
  6
CONTINUOUS
 62
     1
100
AcDbLine
 10
387.3792
 20
-659.1287
 30
0.0
 11
392.8182
 21
-653.6898
 31
0.0
  0
LINE
  5
329
100
AcDbEntity
  8
1
  6
CONTINUOUS
 62
     1
100
AcDbLine
 10
410.2043
 20
-636.3037
 30
0.0
 11
417.6955
 21
-628.8125
 31
0.0
  0
LINE
  5
32A
100
AcDbEntity
  8
1
  6
CONTINUOUS
 62
     1
100
AcDbLine
 10
389.6446
 20
-660.2575
 30
0.0
 11
392.8182
 21
-657.0839
 31
0.0
  0
LINE
  5
32B
100
AcDbEntity
  8
1
  6
CONTINUOUS
 62
     1
100
AcDbLine
 10
413.5984
 20
-636.3037
 30
0.0
 11
419.1855
 21
-630.7166
 31
0.0
  0
LINE
  5
32C
100
AcDbEntity
  8
1
  6
CONTINUOUS
 62
     1
100
AcDbLine
 10
391.3011
 20
-661.9951
 30
0.0
 11
394.7749
 21
-658.5213
 31
0.0
  0
LINE
  5
32D
100
AcDbEntity
  8
1
  6
CONTINUOUS
 62
     1
100
AcDbLine
 10
416.9925
 20
-636.3037
 30
0.0
 11
420.2918
 21
-633.0044
 31
0.0
  0
LINE
  5
32E
100
AcDbEntity
  8
1
  6
CONTINUOUS
 62
     1
100
AcDbLine
 10
392.321
 20
-664.3693
 30
0.0
 11
398.169
 21
-658.5213
 31
0.0
  0
LINE
  5
32F
100
AcDbEntity
  8
1
  6
CONTINUOUS
 62
     1
100
AcDbLine
 10
418.6358
 20
-638.0545
 30
0.0
 11
422.0001
 21
-634.6902
 31
0.0
  0
LINE
  5
330
100
AcDbEntity
  8
1
  6
CONTINUOUS
 62
     1
100
AcDbLine
 10
394.0719
 20
-666.0125
 30
0.0
 11
401.5631
 21
-658.5213
 31
0.0
  0
LINE
  5
331
100
AcDbEntity
  8
1
  6
CONTINUOUS
 62
     1
100
AcDbLine
 10
418.6358
 20
-641.4486
 30
0.0
 11
424.3255
 21
-635.759
 31
0.0
  0
LINE
  5
332
100
AcDbEntity
  8
1
  6
CONTINUOUS
 62
     1
100
AcDbLine
 10
397.466
 20
-666.0125
 30
0.0
 11
404.9572
 21
-658.5213
 31
0.0
  0
LINE
  5
333
100
AcDbEntity
  8
1
  6
CONTINUOUS
 62
     1
100
AcDbLine
 10
418.6358
 20
-644.8427
 30
0.0
 11
426.127
 21
-637.3515
 31
0.0
  0
LINE
  5
334
100
AcDbEntity
  8
1
  6
CONTINUOUS
 62
     1
100
AcDbLine
 10
400.8601
 20
-666.0125
 30
0.0
 11
408.3513
 21
-658.5213
 31
0.0
  0
LINE
  5
335
100
AcDbEntity
  8
1
  6
CONTINUOUS
 62
     1
100
AcDbLine
 10
418.6358
 20
-648.2368
 30
0.0
 11
426.127
 21
-640.7456
 31
0.0
  0
LINE
  5
336
100
AcDbEntity
  8
1
  6
CONTINUOUS
 62
     1
100
AcDbLine
 10
404.2542
 20
-666.0125
 30
0.0
 11
411.7454
 21
-658.5213
 31
0.0
  0
LINE
  5
337
100
AcDbEntity
  8
1
  6
CONTINUOUS
 62
     1
100
AcDbLine
 10
418.6358
 20
-651.6309
 30
0.0
 11
426.127
 21
-644.1397
 31
0.0
  0
LINE
  5
338
100
AcDbEntity
  8
1
  6
CONTINUOUS
 62
     1
100
AcDbLine
 10
407.6484
 20
-666.0125
 30
0.0
 11
415.1396
 21
-658.5213
 31
0.0
  0
LINE
  5
339
100
AcDbEntity
  8
1
  6
CONTINUOUS
 62
     1
100
AcDbLine
 10
418.6358
 20
-655.0251
 30
0.0
 11
426.127
 21
-647.5339
 31
0.0
  0
LINE
  5
33A
100
AcDbEntity
  8
1
  6
CONTINUOUS
 62
     1
100
AcDbLine
 10
411.0425
 20
-666.0125
 30
0.0
 11
418.5337
 21
-658.5213
 31
0.0
  0
LINE
  5
33B
100
AcDbEntity
  8
1
  6
CONTINUOUS
 62
     1
100
AcDbLine
 10
418.6358
 20
-658.4192
 30
0.0
 11
426.127
 21
-650.928
 31
0.0
  0
LINE
  5
33C
100
AcDbEntity
  8
1
  6
CONTINUOUS
 62
     1
100
AcDbLine
 10
414.4366
 20
-666.0125
 30
0.0
 11
426.127
 21
-654.3221
 31
0.0
  0
LINE
  5
33D
100
AcDbEntity
  8
1
  6
CONTINUOUS
 62
     1
100
AcDbLine
 10
417.8307
 20
-666.0125
 30
0.0
 11
419.0299
 21
-664.8133
 31
0.0
  0
LINE
  5
33E
100
AcDbEntity
  8
1
  6
CONTINUOUS
 62
     1
100
AcDbLine
 10
424.9017
 20
-658.9415
 30
0.0
 11
426.127
 21
-657.7162
 31
0.0
  0
LINE
  5
33F
100
AcDbEntity
  8
1
  6
CONTINUOUS
 62
     7
100
AcDbLine
 10
268.927
 20
-634.8125
 30
0.0
 11
268.927
 21
-618.0125
 31
0.0
  0
LINE
  5
340
100
AcDbEntity
  8
1
  6
CONTINUOUS
 62
     7
100
AcDbLine
 10
385.327
 20
-634.8125
 30
0.0
 11
385.327
 21
-618.0125
 31
0.0
  0
LINE
  5
341
100
AcDbEntity
  8
1
  6
CONTINUOUS
 62
     7
100
AcDbLine
 10
264.127
 20
-619.2125
 30
0.0
 11
268.927
 21
-619.2125
 31
0.0
  0
LINE
  5
342
100
AcDbEntity
  8
1
  6
CONTINUOUS
 62
     7
100
AcDbLine
 10
276.127
 20
-619.2125
 30
0.0
 11
280.927
 21
-619.2125
 31
0.0
  0
INSERT
  5
343
100
AcDbEntity
  8
1
  6
CONTINUOUS
 62
     1
100
AcDbBlockReference
  2
LDR
 10
268.927
 20
-619.2125
 30
0.0
 41
240.0
 42
240.0
210
0.0
220
0.0
230
1.0
  0
INSERT
  5
344
100
AcDbEntity
  8
1
  6
CONTINUOUS
 62
     1
100
AcDbBlockReference
  2
LDR
 10
268.927
 20
-619.2125
 30
0.0
 41
240.0
 42
240.0
210
0.0
220
0.0
230
1.0
  0
INSERT
  5
345
100
AcDbEntity
  8
1
  6
CONTINUOUS
 62
     1
100
AcDbBlockReference
  2
LDR
 10
276.127
 20
-619.2125
 30
0.0
 41
240.0
 42
240.0
 50
180.0
210
0.0
220
0.0
230
1.0
  0
LINE
  5
346
100
AcDbEntity
  8
1
  6
CONTINUOUS
 62
     7
100
AcDbLine
 10
380.527
 20
-619.2125
 30
0.0
 11
385.327
 21
-619.2125
 31
0.0
  0
LINE
  5
347
100
AcDbEntity
  8
1
  6
CONTINUOUS
 62
     7
100
AcDbLine
 10
392.527
 20
-619.2125
 30
0.0
 11
397.327
 21
-619.2125
 31
0.0
  0
INSERT
  5
348
100
AcDbEntity
  8
1
  6
CONTINUOUS
 62
     1
100
AcDbBlockReference
  2
LDR
 10
385.327
 20
-619.2125
 30
0.0
 41
240.0
 42
240.0
210
0.0
220
0.0
230
1.0
  0
INSERT
  5
349
100
AcDbEntity
  8
1
  6
CONTINUOUS
 62
     1
100
AcDbBlockReference
  2
LDR
 10
385.327
 20
-619.2125
 30
0.0
 41
240.0
 42
240.0
210
0.0
220
0.0
230
1.0
  0
INSERT
  5
34A
100
AcDbEntity
  8
1
  6
CONTINUOUS
 62
     1
100
AcDbBlockReference
  2
LDR
 10
392.527
 20
-619.2125
 30
0.0
 41
240.0
 42
240.0
 50
180.0
210
0.0
220
0.0
230
1.0
  0
LINE
  5
34B
100
AcDbEntity
  8
1
  6
CONTINUOUS
 62
     7
100
AcDbLine
 10
320.9966
 20
-643.9033
 30
0.0
 11
328.0915
 21
-643.9033
 31
0.0
  0
LINE
  5
34C
100
AcDbEntity
  8
1
  6
CONTINUOUS
 62
     7
100
AcDbLine
 10
320.9966
 20
-643.9033
 30
0.0
 11
309.727
 21
-647.4125
 31
0.0
  0
LINE
  5
34D
100
AcDbEntity
  8
1
  6
CONTINUOUS
 62
     7
100
AcDbLine
 10
320.9966
 20
-643.9033
 30
0.0
 11
304.6358
 21
-653.1638
 31
0.0
  0
INSERT
  5
34E
100
AcDbEntity
  8
1
  6
CONTINUOUS
 62
     1
100
AcDbBlockReference
  2
LDR
 10
309.727
 20
-647.4125
 30
0.0
 41
240.000001
 42
240.000001
 50
197.295878
210
0.0
220
0.0
230
1.0
  0
INSERT
  5
34F
100
AcDbEntity
  8
1
  6
CONTINUOUS
 62
     1
100
AcDbBlockReference
  2
LDR
 10
304.6358
 20
-653.1638
 30
0.0
 41
240.000001
 42
240.000001
 50
209.510622
210
0.0
220
0.0
230
1.0
  0
LINE
  5
350
100
AcDbEntity
  8
1
  6
CONTINUOUS
 62
     7
100
AcDbLine
 10
420.0265
 20
-629.8485
 30
0.0
 11
426.0714
 21
-623.8034
 31
0.0
  0
ARC
  5
351
100
AcDbEntity
  8
1
  6
CONTINUOUS
 62
     7
100
AcDbCircle
 10
420.072979
 20
-632.375786
 30
0.0
 40
9.283241
210
0.0
220
0.0
230
1.0
100
AcDbArc
 50
352.394617
 51
42.675539
  0
INSERT
  5
352
100
AcDbEntity
  8
1
  6
CONTINUOUS
 62
     1
100
AcDbBlockReference
  2
LDR
 10
425.2243
 20
-624.6663
 30
0.0
 41
239.999998
 42
239.999998
 50
137.628393
210
0.0
220
0.0
230
1.0
  0
INSERT
  5
353
100
AcDbEntity
  8
1
  6
CONTINUOUS
 62
     1
100
AcDbBlockReference
  2
LDR
 10
428.6256
 20
-636.0038
 30
0.0
 41
239.999999
 42
239.999999
 50
259.081476
210
0.0
220
0.0
230
1.0
  0
LINE
  5
354
100
AcDbEntity
  8
1
  6
CONTINUOUS
 62
     7
100
AcDbLine
 10
418.6358
 20
-641.8643
 30
0.0
 11
429.5757
 21
-646.9831
 31
0.0
  0
INSERT
  5
355
100
AcDbEntity
  8
1
  6
CONTINUOUS
 62
     1
100
AcDbBlockReference
  2
LDR
 10
418.6358
 20
-641.8643
 30
0.0
 41
239.999998
 42
239.999998
 50
154.925029
210
0.0
220
0.0
230
1.0
  0
TEXT
  5
356
100
AcDbEntity
  8
1
  6
CONTINUOUS
 62
     7
100
AcDbText
 10
429.9055
 20
-630.1401
 30
0.0
 40
3.0
  1
45 TYPICAL
  7
MONOTXT
 72
     4
 11
443.3819
 21
-628.6401
 31
0.0
210
0.0
220
0.0
230
1.0
100
AcDbText
  0
LINE
  5
357
100
AcDbEntity
  8
1
  6
CONTINUOUS
 62
     7
100
AcDbLine
 10
429.5757
 20
-646.9831
 30
0.0
 11
434.3757
 21
-646.9831
 31
0.0
  0
CIRCLE
  5
358
100
AcDbEntity
  8
1
  6
CONTINUOUS
 62
     7
100
AcDbCircle
 10
436.4257
 20
-627.4803
 30
0.0
 40
0.614322
210
0.0
220
0.0
230
1.0
  0
TEXT
  5
359
100
AcDbEntity
  8
1
  6
CONTINUOUS
 62
     7
100
AcDbText
 10
423.3083
 20
-669.6216
 30
0.0
 40
3.0
  1
ALSO SEE NOTE 6
  7
MONOTXT
 72
     4
 11
444.9343
 21
-668.1216
 31
0.0
210
0.0
220
0.0
230
1.0
100
AcDbText
  0
LINE
  5
35A
100
AcDbEntity
  8
1
  6
CONTINUOUS
 62
     7
100
AcDbLine
 10
235.6322
 20
-688.2896
 30
0.0
 11
357.4659
 21
-688.2896
 31
0.0
  0
TEXT
  5
35B
100
AcDbEntity
  8
1
  6
CONTINUOUS
 62
     7
100
AcDbText
 10
236.999
 20
-686.1873
 30
0.0
 40
4.2
  1
(F)  TRANSVERSE CROSSWALK MARKINGS
  7
TXT
210
0.0
220
0.0
230
1.0
100
AcDbText
  0
LINE
  5
35C
100
AcDbEntity
  8
1
  6
CONTINUOUS
 62
     7
100
AcDbLine
 10
369.9289
 20
-687.6585
 30
0.0
 11
484.3369
 21
-687.6585
 31
0.0
  0
TEXT
  5
35D
100
AcDbEntity
  8
1
  6
CONTINUOUS
 62
     7
100
AcDbText
 10
370.6647
 20
-686.1873
 30
0.0
 40
4.2
  1
(G)  DIAGONAL CROSSWALK MARKINGS
  7
TXT
210
0.0
220
0.0
230
1.0
100
AcDbText
  0
TEXT
  5
35E
100
AcDbEntity
  8
1
  6
CONTINUOUS
 62
     7
100
AcDbText
 10
392.6438
 20
-692.7636
 30
0.0
 40
3.0
  1
(USED FOR ADDED VISIBILITY)
  7
MONOTXT
 72
     4
 11
427.2146
 21
-691.2636
 31
0.0
210
0.0
220
0.0
230
1.0
100
AcDbText
  0
LINE
  5
35F
100
AcDbEntity
  8
1
  6
CONTINUOUS
 62
     7
100
AcDbLine
 10
238.6833
 20
-706.8687
 30
0.0
 11
340.6833
 21
-706.8687
 31
0.0
  0
LINE
  5
360
100
AcDbEntity
  8
1
  6
CONTINUOUS
 62
     7
100
AcDbLine
 10
265.0833
 20
-734.4687
 30
0.0
 11
265.0833
 21
-746.7006
 31
0.0
  0
LINE
  5
361
100
AcDbEntity
  8
1
  6
CONTINUOUS
 62
     7
100
AcDbLine
 10
291.4833
 20
-739.2687
 30
0.0
 11
291.4833
 21
-746.7006
 31
0.0
  0
LINE
  5
362
100
AcDbEntity
  8
1
  6
CONTINUOUS
 62
     7
100
AcDbLine
 10
238.6833
 20
-729.6687
 30
0.0
 11
260.2833
 21
-729.6687
 31
0.0
  0
LINE
  5
363
100
AcDbEntity
  8
1
  6
CONTINUOUS
 62
     7
100
AcDbLine
 10
301.0833
 20
-729.6687
 30
0.0
 11
340.6833
 21
-729.6687
 31
0.0
  0
ARC
  5
364
100
AcDbEntity
  8
1
  6
CONTINUOUS
 62
     7
100
AcDbCircle
 10
260.2833
 20
-734.4687
 30
0.0
 40
4.8
210
0.0
220
0.0
230
1.0
100
AcDbArc
 50
0.0
 51
90.0
  0
ARC
  5
365
100
AcDbEntity
  8
1
  6
CONTINUOUS
 62
     7
100
AcDbCircle
 10
301.0833
 20
-739.2687
 30
0.0
 40
9.6
210
0.0
220
0.0
230
1.0
100
AcDbArc
 50
90.0
 51
180.0
  0
LINE
  5
366
100
AcDbEntity
  8
1
  6
CONTINUOUS
 62
     7
100
AcDbLine
 10
277.6833
 20
-731.0746
 30
0.0
 11
277.6833
 21
-746.7006
 31
0.0
  0
LINE
  5
367
100
AcDbEntity
  8
1
  6
CONTINUOUS
 62
     7
100
AcDbLine
 10
278.2833
 20
-731.6746
 30
0.0
 11
278.2833
 21
-746.7006
 31
0.0
  0
LINE
  5
368
100
AcDbEntity
  8
1
  6
CONTINUOUS
 62
     7
100
AcDbLine
 10
277.6833
 20
-731.0746
 30
0.0
 11
287.2833
 21
-731.0746
 31
0.0
  0
LINE
  5
369
100
AcDbEntity
  8
1
  6
CONTINUOUS
 62
     7
100
AcDbLine
 10
278.2833
 20
-731.6746
 30
0.0
 11
287.2242
 21
-731.6746
 31
0.0
  0
LINE
  5
36A
100
AcDbEntity
  8
1
  6
CONTINUOUS
 62
     7
100
AcDbLine
 10
287.2833
 20
-731.0746
 30
0.0
 11
294.2951
 21
-732.4805
 31
0.0
  0
LINE
  5
36B
100
AcDbEntity
  8
1
  6
CONTINUOUS
 62
     7
100
AcDbLine
 10
287.2242
 20
-731.6746
 30
0.0
 11
293.8158
 21
-732.9963
 31
0.0
  0
LINE
  5
36C
100
AcDbEntity
  8
1
  6
CONTINUOUS
 62
     7
100
AcDbLine
 10
295.9464
 20
-724.2445
 30
0.0
 11
294.531
 21
-731.3039
 31
0.0
  0
LINE
  5
36D
100
AcDbEntity
  8
1
  6
CONTINUOUS
 62
     7
100
AcDbLine
 10
288.9346
 20
-722.8386
 30
0.0
 11
287.5192
 21
-729.898
 31
0.0
  0
LINE
  5
36E
100
AcDbEntity
  8
1
  6
CONTINUOUS
 62
     7
100
AcDbLine
 10
288.6986
 20
-724.0151
 30
0.0
 11
295.7104
 21
-725.421
 31
0.0
  0
INSERT
  5
36F
100
AcDbEntity
  8
1
  6
CONTINUOUS
 62
     1
100
AcDbBlockReference
  2
LDR
 10
288.7056
 20
-724.0245
 30
0.0
 41
194.400002
 42
194.400002
 50
168.662256
210
0.0
220
0.0
230
1.0
  0
INSERT
  5
370
100
AcDbEntity
  8
1
  6
CONTINUOUS
 62
     1
100
AcDbBlockReference
  2
LDR
 10
295.7034
 20
-725.4116
 30
0.0
 41
194.400002
 42
194.400002
 50
348.662256
210
0.0
220
0.0
230
1.0
  0
LINE
  5
371
100
AcDbEntity
  8
1
  6
CONTINUOUS
 62
     7
100
AcDbLine
 10
292.2045
 20
-724.7181
 30
0.0
 11
301.5452
 21
-715.368
 31
0.0
  0
LINE
  5
372
100
AcDbEntity
  8
1
  6
CONTINUOUS
 62
     7
100
AcDbLine
 10
268.1211
 20
-753.4175
 30
0.0
 11
273.4201
 21
-753.4175
 31
0.0
  0
INSERT
  5
373
100
AcDbEntity
  8
1
  6
CONTINUOUS
 62
     1
100
AcDbBlockReference
  2
LDR
 10
292.2045
 20
-724.7181
 30
0.0
 41
240.0
 42
240.0
 50
225.028815
210
0.0
220
0.0
230
1.0
  0
INSERT
  5
374
100
AcDbEntity
  8
1
  6
CONTINUOUS
 62
     1
100
AcDbBlockReference
  2
LDR
 10
292.2045
 20
-724.7181
 30
0.0
 41
240.0
 42
240.0
 50
225.028815
210
0.0
220
0.0
230
1.0
  0
LINE
  5
375
100
AcDbEntity
  8
1
  6
CONTINUOUS
 62
     7
100
AcDbLine
 10
282.7538
 20
-731.6746
 30
0.0
 11
286.4303
 21
-740.6314
 31
0.0
  0
LINE
  5
376
100
AcDbEntity
  8
1
  6
CONTINUOUS
 62
     7
100
AcDbLine
 10
286.4303
 20
-740.6314
 30
0.0
 11
290.52
 21
-732.3355
 31
0.0
  0
LINE
  5
377
100
AcDbEntity
  8
1
  6
CONTINUOUS
 62
     7
100
AcDbLine
 10
286.4303
 20
-740.6314
 30
0.0
 11
296.2259
 21
-740.6314
 31
0.0
  0
INSERT
  5
378
100
AcDbEntity
  8
1
  6
CONTINUOUS
 62
     1
100
AcDbBlockReference
  2
LDR
 10
282.7538
 20
-731.6746
 30
0.0
 41
239.999998
 42
239.999998
 50
112.316692
210
0.0
220
0.0
230
1.0
  0
INSERT
  5
379
100
AcDbEntity
  8
1
  6
CONTINUOUS
 62
     1
100
AcDbBlockReference
  2
LDR
 10
282.7538
 20
-731.6746
 30
0.0
 41
239.999998
 42
239.999998
 50
112.316692
210
0.0
220
0.0
230
1.0
  0
INSERT
  5
37A
100
AcDbEntity
  8
1
  6
CONTINUOUS
 62
     1
100
AcDbBlockReference
  2
LDR
 10
290.52
 20
-732.3355
 30
0.0
 41
240.0
 42
240.0
 50
63.757696
210
0.0
220
0.0
230
1.0
  0
LINE
  5
37B
100
AcDbEntity
  8
1
  6
CONTINUOUS
 62
     7
100
AcDbLine
 10
277.6833
 20
-742.3873
 30
0.0
 11
268.1211
 21
-753.4175
 31
0.0
  0
INSERT
  5
37C
100
AcDbEntity
  8
1
  6
CONTINUOUS
 62
     1
100
AcDbBlockReference
  2
LDR
 10
277.6833
 20
-742.3873
 30
0.0
 41
240.000001
 42
240.000001
 50
49.077737
210
0.0
220
0.0
230
1.0
  0
LINE
  5
37D
100
AcDbEntity
  8
1
  6
CONTINUOUS
 62
     7
100
AcDbLine
 10
287.2833
 20
-731.0746
 30
0.0
 11
280.5272
 21
-718.4302
 31
0.0
  0
LINE
  5
37E
100
AcDbEntity
  8
1
  6
CONTINUOUS
 62
     7
100
AcDbLine
 10
275.8905
 20
-718.4302
 30
0.0
 11
280.5272
 21
-718.4302
 31
0.0
  0
LINE
  5
37F
100
AcDbEntity
  8
1
  6
CONTINUOUS
 62
     7
100
AcDbLine
 10
301.5452
 20
-715.368
 30
0.0
 11
306.3452
 21
-715.368
 31
0.0
  0
INSERT
  5
380
100
AcDbEntity
  8
1
  6
CONTINUOUS
 62
     1
100
AcDbBlockReference
  2
LDR
 10
287.2833
 20
-731.0746
 30
0.0
 41
240.0
 42
240.0
 50
298.116204
210
0.0
220
0.0
230
1.0
  0
TEXT
  5
381
100
AcDbEntity
  8
1
  6
CONTINUOUS
 62
     7
100
AcDbText
 10
241.1815
 20
-719.9948
 30
0.0
 40
3.0
  1
BEND POINT IN
  7
MONOTXT
 11
241.1815
 21
-716.9948
 31
0.0
210
0.0
220
0.0
230
1.0
100
AcDbText
 73
     3
  0
TEXT
  5
382
100
AcDbEntity
  8
1
  6
CONTINUOUS
 62
     7
100
AcDbText
 10
241.1815
 20
-725.3948
 30
0.0
 40
3.0
  1
STOP LINE
  7
MONOTXT
 11
241.1815
 21
-722.3948
 31
0.0
210
0.0
220
0.0
230
1.0
100
AcDbText
 73
     3
  0
TEXT
  5
383
100
AcDbEntity
  8
1
  6
CONTINUOUS
 62
     7
100
AcDbText
 10
328.1147
 20
-723.1269
 30
0.0
 40
4.8
  1
=
  7
MONOTXT
 72
     4
 11
329.1919
 21
-720.7269
 31
0.0
210
0.0
220
0.0
230
1.0
100
AcDbText
  0
LINE
  5
384
100
AcDbEntity
  8
1
  6
CONTINUOUS
 62
     7
100
AcDbLine
 10
223.0536
 20
-770.9812
 30
0.0
 11
361.353
 21
-770.9812
 31
0.0
  0
LINE
  5
385
100
AcDbEntity
  8
1
  6
CONTINUOUS
 62
     7
100
AcDbLine
 10
219.0332
 20
-778.4118
 30
0.0
 11
364.3682
 21
-778.4118
 31
0.0
  0
TEXT
  5
386
100
AcDbEntity
  8
1
  6
CONTINUOUS
 62
     7
100
AcDbText
 10
222.5222
 20
-769.6059
 30
0.0
 40
4.2
  1
(H)  METHODOLOGY FOR INSTALLING (BENDING)
  7
TXT
 72
     4
 11
291.7999
 21
-767.5059
 31
0.0
210
0.0
220
0.0
230
1.0
100
AcDbText
  0
TEXT
  5
387
100
AcDbEntity
  8
1
  6
CONTINUOUS
 62
     7
100
AcDbText
 10
220.4788
 20
-777.4059
 30
0.0
 40
4.2
  1
STOP LINES AT WIDE THROATED INTERSECTIONS
  7
TXT
 72
     4
 11
291.7998
 21
-775.3059
 31
0.0
210
0.0
220
0.0
230
1.0
100
AcDbText
  0
TEXT
  5
388
100
AcDbEntity
  8
1
  6
CONTINUOUS
 62
     7
100
AcDbText
 10
211.5541
 20
-1094.7584
 30
0.0
 40
3.0
  1
- THIS DISTANCE MAY BE REDUCED TO A MINIMUM OF 15m DEPENDING UPON LOCAL CONDITIONS.
  7
MONOTXT
 11
211.5541
 21
-1091.7584
 31
0.0
210
0.0
220
0.0
230
1.0
100
AcDbText
 73
     3
  0
TEXT
  5
389
100
AcDbEntity
  8
1
  6
CONTINUOUS
 62
     7
100
AcDbText
 10
211.5541
 20
-1100.1584
 30
0.0
 40
3.0
  1
  A MINIMUM OF 30m IS GENERALLY NECESSARY FOR THE EFFECTIVE DISPLAY OF PAVEMENT
  7
MONOTXT
 11
211.5541
 21
-1097.1584
 31
0.0
210
0.0
220
0.0
230
1.0
100
AcDbText
 73
     3
  0
TEXT
  5
38A
100
AcDbEntity
  8
1
  6
CONTINUOUS
 62
     7
100
AcDbText
 10
211.5541
 20
-1105.5584
 30
0.0
 40
3.0
  1
  MARKINGS. IF THE 30m MINIMUM CANNOT BE OBTAINED, MARKINGS MAY BE OMITTED.
  7
MONOTXT
 11
211.5541
 21
-1102.5584
 31
0.0
210
0.0
220
0.0
230
1.0
100
AcDbText
 73
     3
  0
TEXT
  5
38B
100
AcDbEntity
  8
1
  6
CONTINUOUS
 62
     7
100
AcDbText
 10
298.7169
 20
-1042.1155
 30
0.0
 40
3.0
  1
30m
  7
MONOTXT
 11
298.7169
 21
-1039.1155
 31
0.0
210
0.0
220
0.0
230
1.0
100
AcDbText
 73
     3
  0
TEXT
  5
38C
100
AcDbEntity
  8
1
  6
CONTINUOUS
 62
     7
100
AcDbText
 10
298.7169
 20
-1047.5155
 30
0.0
 40
3.0
  1
30m
  7
MONOTXT
 11
298.7169
 21
-1044.5155
 31
0.0
210
0.0
220
0.0
230
1.0
100
AcDbText
 73
     3
  0
TEXT
  5
38D
100
AcDbEntity
  8
1
  6
CONTINUOUS
 62
     7
100
AcDbText
 10
298.7169
 20
-1052.9155
 30
0.0
 40
3.0
  1
30m
  7
MONOTXT
 11
298.7169
 21
-1049.9155
 31
0.0
210
0.0
220
0.0
230
1.0
100
AcDbText
 73
     3
  0
TEXT
  5
38E
100
AcDbEntity
  8
1
  6
CONTINUOUS
 62
     7
100
AcDbText
 10
298.7169
 20
-1058.3155
 30
0.0
 40
3.0
  1
45m
  7
MONOTXT
 11
298.7169
 21
-1055.3155
 31
0.0
210
0.0
220
0.0
230
1.0
100
AcDbText
 73
     3
  0
TEXT
  5
38F
100
AcDbEntity
  8
1
  6
CONTINUOUS
 62
     7
100
AcDbText
 10
298.7169
 20
-1063.7155
 30
0.0
 40
3.0
  1
70m
  7
MONOTXT
 11
298.7169
 21
-1060.7155
 31
0.0
210
0.0
220
0.0
230
1.0
100
AcDbText
 73
     3
  0
TEXT
  5
390
100
AcDbEntity
  8
1
  6
CONTINUOUS
 62
     7
100
AcDbText
 10
298.7169
 20
-1069.1155
 30
0.0
 40
3.0
  1
90m
  7
MONOTXT
 11
298.7169
 21
-1066.1155
 31
0.0
210
0.0
220
0.0
230
1.0
100
AcDbText
 73
     3
  0
TEXT
  5
391
100
AcDbEntity
  8
1
  6
CONTINUOUS
 62
     7
100
AcDbText
 10
298.7169
 20
-1074.5155
 30
0.0
 40
3.0
  1
115m
  7
MONOTXT
 11
298.7169
 21
-1071.5155
 31
0.0
210
0.0
220
0.0
230
1.0
100
AcDbText
 73
     3
  0
TEXT
  5
392
100
AcDbEntity
  8
1
  6
CONTINUOUS
 62
     7
100
AcDbText
 10
298.7169
 20
-1079.9155
 30
0.0
 40
3.0
  1
140m
  7
MONOTXT
 11
298.7169
 21
-1076.9155
 31
0.0
210
0.0
220
0.0
230
1.0
100
AcDbText
 73
     3
  0
TEXT
  5
393
100
AcDbEntity
  8
1
  6
CONTINUOUS
 62
     7
100
AcDbText
 10
298.7169
 20
-1085.3155
 30
0.0
 40
3.0
  1
170m
  7
MONOTXT
 11
298.7169
 21
-1082.3155
 31
0.0
210
0.0
220
0.0
230
1.0
100
AcDbText
 73
     3
  0
TEXT
  5
394
100
AcDbEntity
  8
1
  6
CONTINUOUS
 62
     7
100
AcDbText
 10
230.8473
 20
-1024.9237
 30
0.0
 40
3.0
  1
POSTED OR
  7
MONOTXT
 72
     4
 11
243.9693
 21
-1023.4237
 31
0.0
210
0.0
220
0.0
230
1.0
100
AcDbText
  0
TEXT
  5
395
100
AcDbEntity
  8
1
  6
CONTINUOUS
 62
     7
100
AcDbText
 10
223.4063
 20
-1030.3237
 30
0.0
 40
3.0
  1
85TH PERCENTILE
  7
MONOTXT
 72
     4
 11
243.9693
 21
-1028.8237
 31
0.0
210
0.0
220
0.0
230
1.0
100
AcDbText
  0
TEXT
  5
396
100
AcDbEntity
  8
1
  6
CONTINUOUS
 62
     7
100
AcDbText
 10
226.3118
 20
-1035.7237
 30
0.0
 40
3.0
  1
TRAFFIC SPEED
  7
MONOTXT
 72
     4
 11
243.9692
 21
-1034.2237
 31
0.0
210
0.0
220
0.0
230
1.0
100
AcDbText
  0
LINE
  5
397
100
AcDbEntity
  8
1
  6
CONTINUOUS
 62
     7
100
AcDbLine
 10
248.1918
 20
-1040.7678
 30
0.0
 11
296.1918
 21
-1040.7678
 31
0.0
  0
LINE
  5
398
100
AcDbEntity
  8
1
  6
CONTINUOUS
 62
     7
100
AcDbLine
 10
248.1918
 20
-1046.1678
 30
0.0
 11
296.1918
 21
-1046.1678
 31
0.0
  0
LINE
  5
399
100
AcDbEntity
  8
1
  6
CONTINUOUS
 62
     7
100
AcDbLine
 10
248.1918
 20
-1051.5678
 30
0.0
 11
296.1918
 21
-1051.5678
 31
0.0
  0
LINE
  5
39A
100
AcDbEntity
  8
1
  6
CONTINUOUS
 62
     7
100
AcDbLine
 10
248.1918
 20
-1056.9678
 30
0.0
 11
296.1918
 21
-1056.9678
 31
0.0
  0
LINE
  5
39B
100
AcDbEntity
  8
1
  6
CONTINUOUS
 62
     7
100
AcDbLine
 10
248.1918
 20
-1062.3678
 30
0.0
 11
296.1918
 21
-1062.3678
 31
0.0
  0
LINE
  5
39C
100
AcDbEntity
  8
1
  6
CONTINUOUS
 62
     7
100
AcDbLine
 10
248.1918
 20
-1067.7678
 30
0.0
 11
296.1918
 21
-1067.7678
 31
0.0
  0
LINE
  5
39D
100
AcDbEntity
  8
1
  6
CONTINUOUS
 62
     7
100
AcDbLine
 10
248.1918
 20
-1073.1678
 30
0.0
 11
296.1918
 21
-1073.1678
 31
0.0
  0
LINE
  5
39E
100
AcDbEntity
  8
1
  6
CONTINUOUS
 62
     7
100
AcDbLine
 10
248.1918
 20
-1078.5678
 30
0.0
 11
296.1918
 21
-1078.5678
 31
0.0
  0
LINE
  5
39F
100
AcDbEntity
  8
1
  6
CONTINUOUS
 62
     7
100
AcDbLine
 10
248.1918
 20
-1083.9678
 30
0.0
 11
296.1918
 21
-1083.9678
 31
0.0
  0
TEXT
  5
3A0
100
AcDbEntity
  8
1
  6
CONTINUOUS
 62
     7
100
AcDbText
 10
206.2186
 20
-1095.6442
 30
0.0
 40
4.8
  1
*
  7
MONOTXT
 72
     4
 11
207.1446
 21
-1093.2442
 31
0.0
210
0.0
220
0.0
230
1.0
100
AcDbText
  0
TEXT
  5
3A1
100
AcDbEntity
  8
1
  6
CONTINUOUS
 62
     7
100
AcDbText
 10
309.8826
 20
-1043.2095
 30
0.0
 40
4.8
  1
*
  7
MONOTXT
 72
     4
 11
310.8086
 21
-1040.8095
 31
0.0
210
0.0
220
0.0
230
1.0
100
AcDbText
  0
TEXT
  5
3A2
100
AcDbEntity
  8
1
  6
CONTINUOUS
 62
     7
100
AcDbText
 10
309.884
 20
-1048.7387
 30
0.0
 40
4.8
  1
*
  7
MONOTXT
 72
     4
 11
310.81
 21
-1046.3387
 31
0.0
210
0.0
220
0.0
230
1.0
100
AcDbText
  0
LINE
  5
3A3
100
AcDbEntity
  8
1
  6
CONTINUOUS
 62
     7
100
AcDbLine
 10
226.9504
 20
-1016.444
 30
0.0
 11
373.196
 21
-1016.444
 31
0.0
  0
TEXT
  5
3A4
100
AcDbEntity
  8
1
  6
CONTINUOUS
 62
     7
100
AcDbText
 10
227.6862
 20
-1014.9728
 30
0.0
 40
4.2
  1
RAILROAD CROSSING MARKING DISTANCE TABLE
  7
TXT
210
0.0
220
0.0
230
1.0
100
AcDbText
  0
LINE
  5
3A5
100
AcDbEntity
  8
1
  6
CONTINUOUS
 62
     5
100
AcDbLine
 10
554.2517
 20
-968.5131
 30
0.0
 11
723.4517
 21
-968.5131
 31
0.0
  0
LINE
  5
3A6
100
AcDbEntity
  8
1
  6
CONTINUOUS
 62
     5
100
AcDbLine
 10
554.2517
 20
-954.1131
 30
0.0
 11
723.4517
 21
-954.1131
 31
0.0
  0
LINE
  5
3A7
100
AcDbEntity
  8
1
  6
CONTINUOUS
 62
     5
100
AcDbLine
 10
554.2517
 20
-982.9131
 30
0.0
 11
723.4517
 21
-982.9131
 31
0.0
  0
POLYLINE
  5
3A8
100
AcDbEntity
  8
1
  6
CONTINUOUS
 62
     5
100
AcDb2dPolyline
 66
     1
 10
0.0
 20
0.0
 30
0.0
 70
     1
  0
VERTEX
  5
3A9
100
AcDbEntity
  8
1
  6
CONTINUOUS
 62
     5
100
AcDbVertex
100
AcDb2dVertex
 10
721.0517
 20
-982.9131
 30
0.0
  0
VERTEX
  5
3AA
100
AcDbEntity
  8
1
  6
CONTINUOUS
 62
     5
100
AcDbVertex
100
AcDb2dVertex
 10
721.0517
 20
-954.1131
 30
0.0
  0
VERTEX
  5
3AB
100
AcDbEntity
  8
1
  6
CONTINUOUS
 62
     5
100
AcDbVertex
100
AcDb2dVertex
 10
723.4517
 20
-954.1131
 30
0.0
  0
VERTEX
  5
3AC
100
AcDbEntity
  8
1
  6
CONTINUOUS
 62
     5
100
AcDbVertex
100
AcDb2dVertex
 10
723.4517
 20
-982.9131
 30
0.0
  0
VERTEX
  5
3AD
100
AcDbEntity
  8
1
  6
CONTINUOUS
 62
     5
100
AcDbVertex
100
AcDb2dVertex
 10
721.0517
 20
-982.9131
 30
0.0
  0
SEQEND
  5
3AE
100
AcDbEntity
  8
1
  6
CONTINUOUS
 62
     5
  0
LINE
  5
3AF
100
AcDbEntity
  8
1
  6
CONTINUOUS
 62
     7
100
AcDbLine
 10
721.0517
 20
-952.9131
 30
0.0
 11
721.0517
 21
-944.5131
 31
0.0
  0
LINE
  5
3B0
100
AcDbEntity
  8
1
  6
CONTINUOUS
 62
     7
100
AcDbLine
 10
697.0517
 20
-952.9131
 30
0.0
 11
697.0517
 21
-944.5131
 31
0.0
  0
LINE
  5
3B1
100
AcDbEntity
  8
1
  6
CONTINUOUS
 62
     7
100
AcDbLine
 10
658.6517
 20
-952.9131
 30
0.0
 11
658.6517
 21
-944.5131
 31
0.0
  0
LINE
  5
3B2
100
AcDbEntity
  8
1
  6
CONTINUOUS
 62
     7
100
AcDbLine
 10
649.0517
 20
-952.9131
 30
0.0
 11
649.0517
 21
-944.5131
 31
0.0
  0
LINE
  5
3B3
100
AcDbEntity
  8
1
  6
CONTINUOUS
 62
     7
100
AcDbLine
 10
616.6517
 20
-952.9131
 30
0.0
 11
616.6517
 21
-944.5131
 31
0.0
  0
LINE
  5
3B4
100
AcDbEntity
  8
1
  6
CONTINUOUS
 62
     7
100
AcDbLine
 10
616.6517
 20
-945.7131
 30
0.0
 11
649.0517
 21
-945.7131
 31
0.0
  0
LINE
  5
3B5
100
AcDbEntity
  8
1
  6
CONTINUOUS
 62
     7
100
AcDbLine
 10
649.0517
 20
-945.7131
 30
0.0
 11
658.6517
 21
-945.7131
 31
0.0
  0
LINE
  5
3B6
100
AcDbEntity
  8
1
  6
CONTINUOUS
 62
     7
100
AcDbLine
 10
658.6517
 20
-945.7131
 30
0.0
 11
697.0517
 21
-945.7131
 31
0.0
  0
LINE
  5
3B7
100
AcDbEntity
  8
1
  6
CONTINUOUS
 62
     7
100
AcDbLine
 10
697.0517
 20
-945.7131
 30
0.0
 11
721.0517
 21
-945.7131
 31
0.0
  0
INSERT
  5
3B8
100
AcDbEntity
  8
1
  6
CONTINUOUS
 62
     1
100
AcDbBlockReference
  2
LDR
 10
616.6517
 20
-945.7131
 30
0.0
 41
240.0
 42
240.0
 50
180.0
210
0.0
220
0.0
230
1.0
  0
INSERT
  5
3B9
100
AcDbEntity
  8
1
  6
CONTINUOUS
 62
     1
100
AcDbBlockReference
  2
LDR
 10
616.6517
 20
-945.7131
 30
0.0
 41
240.0
 42
240.0
 50
180.0
210
0.0
220
0.0
230
1.0
  0
INSERT
  5
3BA
100
AcDbEntity
  8
1
  6
CONTINUOUS
 62
     1
100
AcDbBlockReference
  2
LDR
 10
649.0517
 20
-945.7131
 30
0.0
 41
240.0
 42
240.0
210
0.0
220
0.0
230
1.0
  0
INSERT
  5
3BB
100
AcDbEntity
  8
1
  6
CONTINUOUS
 62
     1
100
AcDbBlockReference
  2
LDR
 10
649.0517
 20
-945.7131
 30
0.0
 41
240.0
 42
240.0
210
0.0
220
0.0
230
1.0
  0
INSERT
  5
3BC
100
AcDbEntity
  8
1
  6
CONTINUOUS
 62
     1
100
AcDbBlockReference
  2
LDR
 10
649.0517
 20
-945.7131
 30
0.0
 41
240.0
 42
240.0
 50
180.0
210
0.0
220
0.0
230
1.0
  0
INSERT
  5
3BD
100
AcDbEntity
  8
1
  6
CONTINUOUS
 62
     1
100
AcDbBlockReference
  2
LDR
 10
658.6517
 20
-945.7131
 30
0.0
 41
240.0
 42
240.0
210
0.0
220
0.0
230
1.0
  0
INSERT
  5
3BE
100
AcDbEntity
  8
1
  6
CONTINUOUS
 62
     1
100
AcDbBlockReference
  2
LDR
 10
658.6517
 20
-945.7131
 30
0.0
 41
240.0
 42
240.0
210
0.0
220
0.0
230
1.0
  0
INSERT
  5
3BF
100
AcDbEntity
  8
1
  6
CONTINUOUS
 62
     1
100
AcDbBlockReference
  2
LDR
 10
658.6517
 20
-945.7131
 30
0.0
 41
240.0
 42
240.0
 50
180.0
210
0.0
220
0.0
230
1.0
  0
INSERT
  5
3C0
100
AcDbEntity
  8
1
  6
CONTINUOUS
 62
     1
100
AcDbBlockReference
  2
LDR
 10
658.6517
 20
-945.7131
 30
0.0
 41
240.0
 42
240.0
 50
180.0
210
0.0
220
0.0
230
1.0
  0
INSERT
  5
3C1
100
AcDbEntity
  8
1
  6
CONTINUOUS
 62
     1
100
AcDbBlockReference
  2
LDR
 10
697.0517
 20
-945.7131
 30
0.0
 41
240.0
 42
240.0
210
0.0
220
0.0
230
1.0
  0
INSERT
  5
3C2
100
AcDbEntity
  8
1
  6
CONTINUOUS
 62
     1
100
AcDbBlockReference
  2
LDR
 10
697.0517
 20
-945.7131
 30
0.0
 41
240.0
 42
240.0
210
0.0
220
0.0
230
1.0
  0
INSERT
  5
3C3
100
AcDbEntity
  8
1
  6
CONTINUOUS
 62
     1
100
AcDbBlockReference
  2
LDR
 10
697.0517
 20
-945.7131
 30
0.0
 41
240.0
 42
240.0
 50
180.0
210
0.0
220
0.0
230
1.0
  0
INSERT
  5
3C4
100
AcDbEntity
  8
1
  6
CONTINUOUS
 62
     1
100
AcDbBlockReference
  2
LDR
 10
697.0517
 20
-945.7131
 30
0.0
 41
240.0
 42
240.0
 50
180.0
210
0.0
220
0.0
230
1.0
  0
INSERT
  5
3C5
100
AcDbEntity
  8
1
  6
CONTINUOUS
 62
     1
100
AcDbBlockReference
  2
LDR
 10
721.0517
 20
-945.7131
 30
0.0
 41
240.0
 42
240.0
210
0.0
220
0.0
230
1.0
  0
TEXT
  5
3C6
100
AcDbEntity
  8
1
  6
CONTINUOUS
 62
     7
100
AcDbText
 10
705.7069
 20
-944.6728
 30
0.0
 40
3.0
  1
15m
  7
MONOTXT
 72
     4
 11
709.5809
 21
-943.1728
 31
0.0
210
0.0
220
0.0
230
1.0
100
AcDbText
  0
TEXT
  5
3C7
100
AcDbEntity
  8
1
  6
CONTINUOUS
 62
     7
100
AcDbText
 10
649.5564
 20
-956.8269
 30
0.0
 40
9.6
  1
ONLY
 50
270.0
 41
0.25
  7
TXT
 72
     4
 11
654.3564
 21
-961.1676
 31
0.0
210
0.0
220
0.0
230
1.0
100
AcDbText
  0
INSERT
  5
3DB
100
AcDbEntity
  8
1
  6
CONTINUOUS
 62
     1
100
AcDbBlockReference
  2
LTAR
 10
708.0366
 20
-961.5016
 30
0.0
 41
1215.0
 42
1215.0
 50
270.0
210
0.0
220
0.0
230
1.0
  0
INSERT
  5
3F4
100
AcDbEntity
  8
1
  6
CONTINUOUS
 62
     1
100
AcDbBlockReference
  2
STLTAR
 10
697.0631
 20
-972.2056
 30
0.0
 41
1215.0
 42
-1215.0
 50
90.0
210
0.0
220
0.0
230
1.0
  0
INSERT
  5
3F5
100
AcDbEntity
  8
1
  6
CONTINUOUS
 62
     1
100
AcDbBlockReference
  2
STLTAR
 10
600.2326
 20
-972.0784
 30
0.0
 41
1215.0
 42
-1215.0
 50
90.0
210
0.0
220
0.0
230
1.0
  0
INSERT
  5
3F6
100
AcDbEntity
  8
1
  6
CONTINUOUS
 62
     1
100
AcDbBlockReference
  2
LTAR
 10
616.7425
 20
-961.7566
 30
0.0
 41
1215.0
 42
1215.0
 50
270.0
210
0.0
220
0.0
230
1.0
  0
TEXT
  5
3F7
100
AcDbEntity
  8
1
  6
CONTINUOUS
 62
     7
100
AcDbText
 10
596.6608
 20
-915.1321
 30
0.0
 40
3.6
  1
TYPICAL LANE-USE MARKING
  7
TXT
 72
     4
 11
632.3853
 21
-913.3321
 31
0.0
210
0.0
220
0.0
230
1.0
100
AcDbText
  0
LINE
  5
3F8
100
AcDbEntity
  8
1
  6
CONTINUOUS
 62
     7
100
AcDbLine
 10
595.5768
 20
-916.0425
 30
0.0
 11
669.0706
 21
-916.0425
 31
0.0
  0
TEXT
  5
3F9
100
AcDbEntity
  8
1
  6
CONTINUOUS
 62
     7
100
AcDbText
 10
627.529
 20
-641.651
 30
0.0
 40
2.4
  1
GENERAL NOTES
  7
MONOTXT
 72
     4
 11
642.3352
 21
-640.451
 31
0.0
210
0.0
220
0.0
230
1.0
100
AcDbText
  0
LINE
  5
3FA
100
AcDbEntity
  8
1
  6
CONTINUOUS
 62
     7
100
AcDbLine
 10
626.387
 20
-643.1084
 30
0.0
 11
658.8071
 21
-643.1084
 31
0.0
  0
TEXT
  5
3FB
100
AcDbEntity
  8
1
  6
CONTINUOUS
 62
     7
100
AcDbText
 10
184.0552
 20
-848.4886
 30
0.0
 40
4.8
  1
=
  7
MONOTXT
 72
     4
 11
185.1324
 21
-846.0886
 31
0.0
210
0.0
220
0.0
230
1.0
100
AcDbText
  0
TEXT
  5
3FC
100
AcDbEntity
  8
1
  6
CONTINUOUS
 62
     7
100
AcDbText
 10
319.1558
 20
-1053.0528
 30
0.0
 40
3.0
  1
NOTE:  VALUES FOR GUIDANCE,
  7
MONOTXT
 11
319.1558
 21
-1050.0528
 31
0.0
210
0.0
220
0.0
230
1.0
100
AcDbText
 73
     3
  0
TEXT
  5
3FD
100
AcDbEntity
  8
1
  6
CONTINUOUS
 62
     7
100
AcDbText
 10
319.1558
 20
-1058.4528
 30
0.0
 40
3.0
  1
ARE TO BE APPLIED WITH
  7
MONOTXT
 11
319.1558
 21
-1055.4528
 31
0.0
210
0.0
220
0.0
230
1.0
100
AcDbText
 73
     3
  0
TEXT
  5
3FE
100
AcDbEntity
  8
1
  6
CONTINUOUS
 62
     7
100
AcDbText
 10
319.1558
 20
-1063.8528
 30
0.0
 40
3.0
  1
ENGINEERING JUDGEMENT TO
  7
MONOTXT
 11
319.1558
 21
-1060.8528
 31
0.0
210
0.0
220
0.0
230
1.0
100
AcDbText
 73
     3
  0
TEXT
  5
3FF
100
AcDbEntity
  8
1
  6
CONTINUOUS
 62
     7
100
AcDbText
 10
319.1558
 20
-1069.2528
 30
0.0
 40
3.0
  1
ASSURE EFFECTIVENESS.
  7
MONOTXT
 11
319.1558
 21
-1066.2528
 31
0.0
210
0.0
220
0.0
230
1.0
100
AcDbText
 73
     3
  0
LINE
  5
400
100
AcDbEntity
  8
1
  6
CONTINUOUS
 62
     7
100
AcDbLine
 10
110.5938
 20
-627.149
 30
0.0
 11
110.5938
 21
-621.149
 31
0.0
  0
LINE
  5
401
100
AcDbEntity
  8
1
  6
CONTINUOUS
 62
     7
100
AcDbLine
 10
110.5938
 20
-621.149
 30
0.0
 11
104.5938
 21
-621.149
 31
0.0
  0
LINE
  5
402
100
AcDbEntity
  8
1
  6
CONTINUOUS
 62
     7
100
AcDbLine
 10
115.0938
 20
-627.149
 30
0.0
 11
115.0938
 21
-621.149
 31
0.0
  0
LINE
  5
403
100
AcDbEntity
  8
1
  6
CONTINUOUS
 62
     7
100
AcDbLine
 10
115.0938
 20
-621.149
 30
0.0
 11
121.0938
 21
-621.149
 31
0.0
  0
INSERT
  5
404
100
AcDbEntity
  8
1
  6
CONTINUOUS
 62
     1
100
AcDbBlockReference
  2
LDR
 10
110.5938
 20
-627.149
 30
0.0
 41
240.0
 42
240.0
 50
270.0
210
0.0
220
0.0
230
1.0
  0
INSERT
  5
405
100
AcDbEntity
  8
1
  6
CONTINUOUS
 62
     1
100
AcDbBlockReference
  2
LDR
 10
110.5938
 20
-627.149
 30
0.0
 41
240.0
 42
240.0
 50
270.0
210
0.0
220
0.0
230
1.0
  0
INSERT
  5
406
100
AcDbEntity
  8
1
  6
CONTINUOUS
 62
     1
100
AcDbBlockReference
  2
LDR
 10
115.0938
 20
-627.149
 30
0.0
 41
240.0
 42
240.0
 50
270.0
210
0.0
220
0.0
230
1.0
  0
LINE
  5
407
100
AcDbEntity
  8
1
  6
CONTINUOUS
 62
     3
100
AcDbLine
 10
56.2938
 20
-719.7182
 30
0.0
 11
60.4938
 21
-719.7182
 31
0.0
  0
LINE
  5
408
100
AcDbEntity
  8
1
  6
CONTINUOUS
 62
     3
100
AcDbLine
 10
65.2938
 20
-719.7182
 30
0.0
 11
69.4938
 21
-719.7182
 31
0.0
  0
LINE
  5
409
100
AcDbEntity
  8
1
  6
CONTINUOUS
 62
     3
100
AcDbLine
 10
38.2938
 20
-719.7182
 30
0.0
 11
42.4938
 21
-719.7182
 31
0.0
  0
LINE
  5
40A
100
AcDbEntity
  8
1
  6
CONTINUOUS
 62
     3
100
AcDbLine
 10
47.2938
 20
-719.7182
 30
0.0
 11
51.4938
 21
-719.7182
 31
0.0
  0
LINE
  5
40B
100
AcDbEntity
  8
1
  6
CONTINUOUS
 62
     7
100
AcDbLine
 10
110.2938
 20
-717.3182
 30
0.0
 11
110.2938
 21
-709.8182
 31
0.0
  0
LINE
  5
40C
100
AcDbEntity
  8
1
  6
CONTINUOUS
 62
     7
100
AcDbLine
 10
186.4938
 20
-717.3182
 30
0.0
 11
186.4938
 21
-709.8182
 31
0.0
  0
LINE
  5
40D
100
AcDbEntity
  8
1
  6
CONTINUOUS
 62
     7
100
AcDbLine
 10
38.2938
 20
-723.9182
 30
0.0
 11
38.2938
 21
-731.4182
 31
0.0
  0
LINE
  5
40E
100
AcDbEntity
  8
1
  6
CONTINUOUS
 62
     7
100
AcDbLine
 10
114.4938
 20
-723.9182
 30
0.0
 11
114.4938
 21
-731.4182
 31
0.0
  0
LINE
  5
40F
100
AcDbEntity
  8
1
  6
CONTINUOUS
 62
     7
100
AcDbLine
 10
-6.7062
 20
-723.9182
 30
0.0
 11
-6.7062
 21
-731.4182
 31
0.0
  0
LINE
  5
410
100
AcDbEntity
  8
1
  6
CONTINUOUS
 62
     7
100
AcDbLine
 10
110.2938
 20
-713.5682
 30
0.0
 11
186.4938
 21
-713.5682
 31
0.0
  0
LINE
  5
411
100
AcDbEntity
  8
1
  6
CONTINUOUS
 62
     7
100
AcDbLine
 10
-6.7062
 20
-727.6682
 30
0.0
 11
38.2938
 21
-727.6682
 31
0.0
  0
LINE
  5
412
100
AcDbEntity
  8
1
  6
CONTINUOUS
 62
     7
100
AcDbLine
 10
38.2938
 20
-727.6682
 30
0.0
 11
114.4938
 21
-727.6682
 31
0.0
  0
INSERT
  5
413
100
AcDbEntity
  8
1
  6
CONTINUOUS
 62
     1
100
AcDbBlockReference
  2
LDR
 10
110.2938
 20
-713.5682
 30
0.0
 41
240.0
 42
240.0
 50
180.0
210
0.0
220
0.0
230
1.0
  0
INSERT
  5
414
100
AcDbEntity
  8
1
  6
CONTINUOUS
 62
     1
100
AcDbBlockReference
  2
LDR
 10
110.2938
 20
-713.5682
 30
0.0
 41
240.0
 42
240.0
 50
180.0
210
0.0
220
0.0
230
1.0
  0
INSERT
  5
415
100
AcDbEntity
  8
1
  6
CONTINUOUS
 62
     1
100
AcDbBlockReference
  2
LDR
 10
186.4938
 20
-713.5682
 30
0.0
 41
240.0
 42
240.0
210
0.0
220
0.0
230
1.0
  0
INSERT
  5
416
100
AcDbEntity
  8
1
  6
CONTINUOUS
 62
     1
100
AcDbBlockReference
  2
LDR
 10
186.4938
 20
-713.5682
 30
0.0
 41
240.0
 42
240.0
210
0.0
220
0.0
230
1.0
  0
INSERT
  5
417
100
AcDbEntity
  8
1
  6
CONTINUOUS
 62
     1
100
AcDbBlockReference
  2
LDR
 10
38.2938
 20
-727.6682
 30
0.0
 41
240.0
 42
240.0
 50
180.0
210
0.0
220
0.0
230
1.0
  0
INSERT
  5
418
100
AcDbEntity
  8
1
  6
CONTINUOUS
 62
     1
100
AcDbBlockReference
  2
LDR
 10
38.2938
 20
-727.6682
 30
0.0
 41
240.0
 42
240.0
 50
180.0
210
0.0
220
0.0
230
1.0
  0
INSERT
  5
419
100
AcDbEntity
  8
1
  6
CONTINUOUS
 62
     1
100
AcDbBlockReference
  2
LDR
 10
114.4938
 20
-727.6682
 30
0.0
 41
240.0
 42
240.0
210
0.0
220
0.0
230
1.0
  0
INSERT
  5
41A
100
AcDbEntity
  8
1
  6
CONTINUOUS
 62
     1
100
AcDbBlockReference
  2
LDR
 10
114.4938
 20
-727.6682
 30
0.0
 41
240.0
 42
240.0
210
0.0
220
0.0
230
1.0
  0
INSERT
  5
41B
100
AcDbEntity
  8
1
  6
CONTINUOUS
 62
     1
100
AcDbBlockReference
  2
LDR
 10
-6.7062
 20
-727.6682
 30
0.0
 41
240.0
 42
240.0
 50
180.0
210
0.0
220
0.0
230
1.0
  0
INSERT
  5
41C
100
AcDbEntity
  8
1
  6
CONTINUOUS
 62
     1
100
AcDbBlockReference
  2
LDR
 10
-6.7062
 20
-727.6682
 30
0.0
 41
240.0
 42
240.0
 50
180.0
210
0.0
220
0.0
230
1.0
  0
INSERT
  5
41D
100
AcDbEntity
  8
1
  6
CONTINUOUS
 62
     1
100
AcDbBlockReference
  2
LDR
 10
38.2938
 20
-727.6682
 30
0.0
 41
240.0
 42
240.0
210
0.0
220
0.0
230
1.0
  0
TEXT
  5
41E
100
AcDbEntity
  8
1
  6
CONTINUOUS
 62
     7
100
AcDbText
 10
61.6753
 20
-726.72
 30
0.0
 40
3.0
  1
MIN. PASSING
  7
MONOTXT
 72
     4
 11
75.7422
 21
-725.22
 31
0.0
210
0.0
220
0.0
230
1.0
100
AcDbText
  0
TEXT
  5
41F
100
AcDbEntity
  8
1
  6
CONTINUOUS
 62
     7
100
AcDbText
 10
45.2107
 20
-732.12
 30
0.0
 40
3.0
  1
SIGHT DISTANCE - NOTE 1
  7
MONOTXT
 72
     4
 11
75.7303
 21
-730.62
 31
0.0
210
0.0
220
0.0
230
1.0
100
AcDbText
  0
TEXT
  5
420
100
AcDbEntity
  8
1
  6
CONTINUOUS
 62
     7
100
AcDbText
 10
133.9671
 20
-712.4292
 30
0.0
 40
3.0
  1
MIN. PASSING
  7
MONOTXT
 72
     4
 11
148.034
 21
-710.9292
 31
0.0
210
0.0
220
0.0
230
1.0
100
AcDbText
  0
TEXT
  5
421
100
AcDbEntity
  8
1
  6
CONTINUOUS
 62
     7
100
AcDbText
 10
117.5025
 20
-717.8292
 30
0.0
 40
3.0
  1
SIGHT DISTANCE - NOTE 1
  7
MONOTXT
 72
     4
 11
148.0221
 21
-716.3292
 31
0.0
210
0.0
220
0.0
230
1.0
100
AcDbText
  0
LINE
  5
422
100
AcDbEntity
  8
1
  6
CONTINUOUS
 62
     7
100
AcDbLine
 10
-10.0474
 20
-733.8182
 30
0.0
 11
-3.6373
 21
-697.3703
 31
0.0
  0
LINE
  5
423
100
AcDbEntity
  8
1
  6
CONTINUOUS
 62
     7
100
AcDbLine
 10
-3.6373
 20
-697.3703
 30
0.0
 11
-11.9501
 21
-707.4182
 31
0.0
  0
LINE
  5
424
100
AcDbEntity
  8
1
  6
CONTINUOUS
 62
     7
100
AcDbLine
 10
-3.6373
 20
-697.3703
 30
0.0
 11
-0.3096
 21
-697.3703
 31
0.0
  0
LINE
  5
425
100
AcDbEntity
  8
1
  6
CONTINUOUS
 62
     7
100
AcDbLine
 10
31.3938
 20
-721.5182
 30
0.0
 11
46.2364
 21
-697.3703
 31
0.0
  0
LINE
  5
426
100
AcDbEntity
  8
1
  6
CONTINUOUS
 62
     7
100
AcDbLine
 10
46.2364
 20
-697.3703
 30
0.0
 11
48.1631
 21
-697.3703
 31
0.0
  0
LINE
  5
427
100
AcDbEntity
  8
1
  6
CONTINUOUS
 62
     7
100
AcDbLine
 10
98.7893
 20
-721.548
 30
0.0
 11
108.937
 21
-697.3703
 31
0.0
  0
LINE
  5
428
100
AcDbEntity
  8
1
  6
CONTINUOUS
 62
     7
100
AcDbLine
 10
108.937
 20
-697.3703
 30
0.0
 11
114.937
 21
-697.3703
 31
0.0
  0
INSERT
  5
429
100
AcDbEntity
  8
1
  6
CONTINUOUS
 62
     1
100
AcDbBlockReference
  2
LDR
 10
-11.9501
 20
-707.4182
 30
0.0
 41
239.999999
 42
239.999999
 50
230.398463
210
0.0
220
0.0
230
1.0
  0
INSERT
  5
42A
100
AcDbEntity
  8
1
  6
CONTINUOUS
 62
     1
100
AcDbBlockReference
  2
LDR
 10
-11.9501
 20
-707.4182
 30
0.0
 41
239.999999
 42
239.999999
 50
230.398463
210
0.0
220
0.0
230
1.0
  0
INSERT
  5
42B
100
AcDbEntity
  8
1
  6
CONTINUOUS
 62
     1
100
AcDbBlockReference
  2
LDR
 10
-10.0474
 20
-733.8182
 30
0.0
 41
240.0
 42
240.0
 50
260.025384
210
0.0
220
0.0
230
1.0
  0
INSERT
  5
42C
100
AcDbEntity
  8
1
  6
CONTINUOUS
 62
     1
100
AcDbBlockReference
  2
LDR
 10
-10.0474
 20
-733.8182
 30
0.0
 41
240.0
 42
240.0
 50
260.025384
210
0.0
220
0.0
230
1.0
  0
INSERT
  5
42D
100
AcDbEntity
  8
1
  6
CONTINUOUS
 62
     1
100
AcDbBlockReference
  2
LDR
 10
31.3938
 20
-721.5182
 30
0.0
 41
239.999998
 42
239.999998
 50
238.422876
210
0.0
220
0.0
230
1.0
  0
INSERT
  5
42E
100
AcDbEntity
  8
1
  6
CONTINUOUS
 62
     1
100
AcDbBlockReference
  2
LDR
 10
31.3938
 20
-721.5182
 30
0.0
 41
239.999998
 42
239.999998
 50
238.422876
210
0.0
220
0.0
230
1.0
  0
INSERT
  5
42F
100
AcDbEntity
  8
1
  6
CONTINUOUS
 62
     1
100
AcDbBlockReference
  2
LDR
 10
98.7893
 20
-721.548
 30
0.0
 41
240.000001
 42
240.000001
 50
247.231564
210
0.0
220
0.0
230
1.0
  0
TEXT
  5
430
100
AcDbEntity
  8
1
  6
CONTINUOUS
 62
     7
100
AcDbText
 10
33.9997
 20
-748.9006
 30
0.0
 40
4.2
  1
(B)  TWO WAY MARKING FOR PASSING ZONE
  7
TXT
210
0.0
220
0.0
230
1.0
100
AcDbText
  0
POLYLINE
  5
431
100
AcDbEntity
  8
1
  6
CONTINUOUS
 62
     1
100
AcDb2dPolyline
 66
     1
 10
0.0
 20
0.0
 30
0.0
  0
VERTEX
  5
432
100
AcDbEntity
  8
1
  6
CONTINUOUS
 62
     1
100
AcDbVertex
100
AcDb2dVertex
 10
132.3507
 20
-802.062
 30
0.0
  0
VERTEX
  5
433
100
AcDbEntity
  8
1
  6
CONTINUOUS
 62
     1
100
AcDbVertex
100
AcDb2dVertex
 10
129.2867
 20
-802.0708
 30
0.0
  0
VERTEX
  5
434
100
AcDbEntity
  8
1
  6
CONTINUOUS
 62
     1
100
AcDbVertex
100
AcDb2dVertex
 10
130.627347
 20
-803.259951
 30
0.0
 42
-0.416419
  0
VERTEX
  5
435
100
AcDbEntity
  8
1
  6
CONTINUOUS
 62
     1
100
AcDbVertex
100
AcDb2dVertex
 10
127.3262
 20
-804.0559
 30
0.0
  0
VERTEX
  5
436
100
AcDbEntity
  8
1
  6
CONTINUOUS
 62
     1
100
AcDbVertex
100
AcDb2dVertex
 10
127.169224
 20
-804.702299
 30
0.0
 42
0.408608
  0
VERTEX
  5
437
100
AcDbEntity
  8
1
  6
CONTINUOUS
 62
     1
100
AcDbVertex
100
AcDb2dVertex
 10
131.2799
 20
-803.9212
 30
0.0
  0
VERTEX
  5
438
100
AcDbEntity
  8
1
  6
CONTINUOUS
 62
     1
100
AcDbVertex
100
AcDb2dVertex
 10
132.0564
 20
-805.1881
 30
0.0
  0
VERTEX
  5
439
100
AcDbEntity
  8
1
  6
CONTINUOUS
 62
     1
100
AcDbVertex
100
AcDb2dVertex
 10
132.3507
 20
-802.062
 30
0.0
  0
SEQEND
  5
43A
100
AcDbEntity
  8
1
  6
CONTINUOUS
 62
     1
  0
POLYLINE
  5
43B
100
AcDbEntity
  8
1
  6
CONTINUOUS
 62
     1
100
AcDb2dPolyline
 66
     1
 10
0.0
 20
0.0
 30
0.0
  0
VERTEX
  5
43C
100
AcDbEntity
  8
1
  6
CONTINUOUS
 62
     1
100
AcDbVertex
100
AcDb2dVertex
 10
120.3607
 20
-802.1319
 30
0.0
  0
VERTEX
  5
43D
100
AcDbEntity
  8
1
  6
CONTINUOUS
 62
     1
100
AcDbVertex
100
AcDb2dVertex
 10
117.2967
 20
-802.1409
 30
0.0
  0
VERTEX
  5
43E
100
AcDbEntity
  8
1
  6
CONTINUOUS
 62
     1
100
AcDbVertex
100
AcDb2dVertex
 10
118.637382
 20
-803.329978
 30
0.0
 42
-0.416419
  0
VERTEX
  5
43F
100
AcDbEntity
  8
1
  6
CONTINUOUS
 62
     1
100
AcDbVertex
100
AcDb2dVertex
 10
115.3363
 20
-804.126
 30
0.0
  0
VERTEX
  5
440
100
AcDbEntity
  8
1
  6
CONTINUOUS
 62
     1
100
AcDbVertex
100
AcDb2dVertex
 10
115.179259
 20
-804.772325
 30
0.0
 42
0.408608
  0
VERTEX
  5
441
100
AcDbEntity
  8
1
  6
CONTINUOUS
 62
     1
100
AcDbVertex
100
AcDb2dVertex
 10
119.2899
 20
-803.9912
 30
0.0
  0
VERTEX
  5
442
100
AcDbEntity
  8
1
  6
CONTINUOUS
 62
     1
100
AcDbVertex
100
AcDb2dVertex
 10
120.0664
 20
-805.2581
 30
0.0
  0
VERTEX
  5
443
100
AcDbEntity
  8
1
  6
CONTINUOUS
 62
     1
100
AcDbVertex
100
AcDb2dVertex
 10
120.3607
 20
-802.1319
 30
0.0
  0
SEQEND
  5
444
100
AcDbEntity
  8
1
  6
CONTINUOUS
 62
     1
  0
POLYLINE
  5
445
100
AcDbEntity
  8
1
  6
CONTINUOUS
 62
     1
100
AcDb2dPolyline
 66
     1
 10
0.0
 20
0.0
 30
0.0
  0
VERTEX
  5
446
100
AcDbEntity
  8
1
  6
CONTINUOUS
 62
     1
100
AcDbVertex
100
AcDb2dVertex
 10
194.4537
 20
-799.2023
 30
0.0
  0
VERTEX
  5
447
100
AcDbEntity
  8
1
  6
CONTINUOUS
 62
     1
100
AcDbVertex
100
AcDb2dVertex
 10
197.0665
 20
-798.9297
 30
0.0
  0
VERTEX
  5
448
100
AcDbEntity
  8
1
  6
CONTINUOUS
 62
     1
100
AcDbVertex
100
AcDb2dVertex
 10
195.820035
 20
-798.031435
 30
0.0
 42
-0.416419
  0
VERTEX
  5
449
100
AcDbEntity
  8
1
  6
CONTINUOUS
 62
     1
100
AcDbVertex
100
AcDb2dVertex
 10
198.566993
 20
-797.066903
 30
0.0
  0
VERTEX
  5
44A
100
AcDbEntity
  8
1
  6
CONTINUOUS
 62
     1
100
AcDbVertex
100
AcDb2dVertex
 10
198.5671
 20
-797.0669
 30
0.0
  0
VERTEX
  5
44B
100
AcDbEntity
  8
1
  6
CONTINUOUS
 62
     1
100
AcDbVertex
100
AcDb2dVertex
 10
198.645031
 20
-796.501946
 30
0.0
 42
0.408608
  0
VERTEX
  5
44C
100
AcDbEntity
  8
1
  6
CONTINUOUS
 62
     1
100
AcDbVertex
100
AcDb2dVertex
 10
195.20624
 20
-797.523925
 30
0.0
  0
VERTEX
  5
44D
100
AcDbEntity
  8
1
  6
CONTINUOUS
 62
     1
100
AcDbVertex
100
AcDb2dVertex
 10
195.2062
 20
-797.5237
 30
0.0
  0
VERTEX
  5
44E
100
AcDbEntity
  8
1
  6
CONTINUOUS
 62
     1
100
AcDbVertex
100
AcDb2dVertex
 10
194.4343
 20
-796.5104
 30
0.0
  0
VERTEX
  5
44F
100
AcDbEntity
  8
1
  6
CONTINUOUS
 62
     1
100
AcDbVertex
100
AcDb2dVertex
 10
194.4537
 20
-799.2023
 30
0.0
  0
SEQEND
  5
450
100
AcDbEntity
  8
1
  6
CONTINUOUS
 62
     1
  0
TEXT
  5
451
100
AcDbEntity
  8
1
  6
CONTINUOUS
 62
     7
100
AcDbText
 10
48.9254
 20
-863.9147
 30
0.0
 40
4.2
  1
(C)  DIVIDED HIGHWAY WITH MEDIAN
  7
TXT
210
0.0
220
0.0
230
1.0
100
AcDbText
  0
LINE
  5
452
100
AcDbEntity
  8
1
  6
CONTINUOUS
 62
     7
100
AcDbLine
 10
-13.7251
 20
-816.8559
 30
0.0
 11
-12.3146
 21
-831.3174
 31
0.0
  0
INSERT
  5
453
100
AcDbEntity
  8
1
  6
CONTINUOUS
 62
     1
100
AcDbBlockReference
  2
LDR
 10
-13.7251
 20
-816.8559
 30
0.0
 41
240.000001
 42
240.000001
 50
95.570538
210
0.0
220
0.0
230
1.0
  0
POLYLINE
  5
454
100
AcDbEntity
  8
1
  6
CONTINUOUS
 62
     1
100
AcDb2dPolyline
 66
     1
 10
0.0
 20
0.0
 30
0.0
  0
VERTEX
  5
455
100
AcDbEntity
  8
1
  6
CONTINUOUS
 62
     1
100
AcDbVertex
100
AcDb2dVertex
 10
50.565191
 20
-917.477373
 30
0.0
 42
0.408608
  0
VERTEX
  5
456
100
AcDbEntity
  8
1
  6
CONTINUOUS
 62
     1
100
AcDbVertex
100
AcDb2dVertex
 10
46.005838
 20
-918.318263
 30
0.0
  0
VERTEX
  5
457
100
AcDbEntity
  8
1
  6
CONTINUOUS
 62
     1
100
AcDbVertex
100
AcDb2dVertex
 10
46.0058
 20
-918.3184
 30
0.0
  0
VERTEX
  5
458
100
AcDbEntity
  8
1
  6
CONTINUOUS
 62
     1
100
AcDbVertex
100
AcDb2dVertex
 10
45.1529
 20
-916.91
 30
0.0
  0
VERTEX
  5
459
100
AcDbEntity
  8
1
  6
CONTINUOUS
 62
     1
100
AcDbVertex
100
AcDb2dVertex
 10
44.8083
 20
-920.372
 30
0.0
  0
VERTEX
  5
45A
100
AcDbEntity
  8
1
  6
CONTINUOUS
 62
     1
100
AcDbVertex
100
AcDb2dVertex
 10
48.2033
 20
-920.3804
 30
0.0
  0
VERTEX
  5
45B
100
AcDbEntity
  8
1
  6
CONTINUOUS
 62
     1
100
AcDbVertex
100
AcDb2dVertex
 10
46.725
 20
-919.0548
 30
0.0
  0
VERTEX
  5
45C
100
AcDbEntity
  8
1
  6
CONTINUOUS
 62
     1
100
AcDbVertex
100
AcDb2dVertex
 10
46.724869
 20
-919.054748
 30
0.0
 42
-0.416419
  0
VERTEX
  5
45D
100
AcDbEntity
  8
1
  6
CONTINUOUS
 62
     1
100
AcDbVertex
100
AcDb2dVertex
 10
50.387301
 20
-918.192642
 30
0.0
  0
VERTEX
  5
45E
100
AcDbEntity
  8
1
  6
CONTINUOUS
 62
     1
100
AcDbVertex
100
AcDb2dVertex
 10
50.3872
 20
-918.1928
 30
0.0
  0
VERTEX
  5
45F
100
AcDbEntity
  8
1
  6
CONTINUOUS
 62
     1
100
AcDbVertex
100
AcDb2dVertex
 10
50.5653
 20
-917.4775
 30
0.0
  0
VERTEX
  5
460
100
AcDbEntity
  8
1
  6
CONTINUOUS
 62
     1
100
AcDbVertex
100
AcDb2dVertex
 10
50.5652
 20
-917.4774
 30
0.0
  0
SEQEND
  5
461
100
AcDbEntity
  8
1
  6
CONTINUOUS
 62
     1
  0
POLYLINE
  5
462
100
AcDbEntity
  8
1
  6
CONTINUOUS
 62
     1
100
AcDb2dPolyline
 66
     1
 10
0.0
 20
0.0
 30
0.0
  0
VERTEX
  5
463
100
AcDbEntity
  8
1
  6
CONTINUOUS
 62
     1
100
AcDbVertex
100
AcDb2dVertex
 10
66.262491
 20
-917.731273
 30
0.0
 42
0.408608
  0
VERTEX
  5
464
100
AcDbEntity
  8
1
  6
CONTINUOUS
 62
     1
100
AcDbVertex
100
AcDb2dVertex
 10
61.703138
 20
-918.572163
 30
0.0
  0
VERTEX
  5
465
100
AcDbEntity
  8
1
  6
CONTINUOUS
 62
     1
100
AcDbVertex
100
AcDb2dVertex
 10
61.7031
 20
-918.5723
 30
0.0
  0
VERTEX
  5
466
100
AcDbEntity
  8
1
  6
CONTINUOUS
 62
     1
100
AcDbVertex
100
AcDb2dVertex
 10
60.8502
 20
-917.1639
 30
0.0
  0
VERTEX
  5
467
100
AcDbEntity
  8
1
  6
CONTINUOUS
 62
     1
100
AcDbVertex
100
AcDb2dVertex
 10
60.5056
 20
-920.6259
 30
0.0
  0
VERTEX
  5
468
100
AcDbEntity
  8
1
  6
CONTINUOUS
 62
     1
100
AcDbVertex
100
AcDb2dVertex
 10
63.9006
 20
-920.6343
 30
0.0
  0
VERTEX
  5
469
100
AcDbEntity
  8
1
  6
CONTINUOUS
 62
     1
100
AcDbVertex
100
AcDb2dVertex
 10
62.4223
 20
-919.3087
 30
0.0
  0
VERTEX
  5
46A
100
AcDbEntity
  8
1
  6
CONTINUOUS
 62
     1
100
AcDbVertex
100
AcDb2dVertex
 10
62.422169
 20
-919.308648
 30
0.0
 42
-0.416419
  0
VERTEX
  5
46B
100
AcDbEntity
  8
1
  6
CONTINUOUS
 62
     1
100
AcDbVertex
100
AcDb2dVertex
 10
66.084601
 20
-918.446542
 30
0.0
  0
VERTEX
  5
46C
100
AcDbEntity
  8
1
  6
CONTINUOUS
 62
     1
100
AcDbVertex
100
AcDb2dVertex
 10
66.0845
 20
-918.4467
 30
0.0
  0
VERTEX
  5
46D
100
AcDbEntity
  8
1
  6
CONTINUOUS
 62
     1
100
AcDbVertex
100
AcDb2dVertex
 10
66.2626
 20
-917.7314
 30
0.0
  0
VERTEX
  5
46E
100
AcDbEntity
  8
1
  6
CONTINUOUS
 62
     1
100
AcDbVertex
100
AcDb2dVertex
 10
66.2625
 20
-917.7313
 30
0.0
  0
SEQEND
  5
46F
100
AcDbEntity
  8
1
  6
CONTINUOUS
 62
     1
  0
LINE
  5
470
100
AcDbEntity
  8
1
  6
CONTINUOUS
 62
     7
100
AcDbLine
 10
43.1108
 20
-913.1728
 30
0.0
 11
43.1108
 21
-909.2728
 31
0.0
  0
LINE
  5
471
100
AcDbEntity
  8
1
  6
CONTINUOUS
 62
     7
100
AcDbLine
 10
68.3108
 20
-913.1728
 30
0.0
 11
68.3108
 21
-909.2728
 31
0.0
  0
LINE
  5
472
100
AcDbEntity
  8
1
  6
CONTINUOUS
 62
     7
100
AcDbLine
 10
86.3108
 20
-913.1728
 30
0.0
 11
86.3108
 21
-909.2728
 31
0.0
  0
LINE
  5
473
100
AcDbEntity
  8
1
  6
CONTINUOUS
 62
     7
100
AcDbLine
 10
26.0362
 20
-888.7255
 30
0.0
 11
43.1108
 21
-914.3728
 31
0.0
  0
INSERT
  5
474
100
AcDbEntity
  8
1
  6
CONTINUOUS
 62
     1
100
AcDbBlockReference
  2
LDR
 10
43.1108
 20
-914.3728
 30
0.0
 41
240.0
 42
240.0
 50
303.653552
210
0.0
220
0.0
230
1.0
  0
INSERT
  5
475
100
AcDbEntity
  8
1
  6
CONTINUOUS
 62
     1
100
AcDbBlockReference
  2
LDR
 10
43.1108
 20
-910.4728
 30
0.0
 41
240.0
 42
240.0
 50
180.0
210
0.0
220
0.0
230
1.0
  0
INSERT
  5
476
100
AcDbEntity
  8
1
  6
CONTINUOUS
 62
     1
100
AcDbBlockReference
  2
LDR
 10
43.1108
 20
-910.4728
 30
0.0
 41
240.0
 42
240.0
 50
180.0
210
0.0
220
0.0
230
1.0
  0
INSERT
  5
477
100
AcDbEntity
  8
1
  6
CONTINUOUS
 62
     1
100
AcDbBlockReference
  2
LDR
 10
68.3108
 20
-910.4728
 30
0.0
 41
240.0
 42
240.0
210
0.0
220
0.0
230
1.0
  0
INSERT
  5
478
100
AcDbEntity
  8
1
  6
CONTINUOUS
 62
     1
100
AcDbBlockReference
  2
LDR
 10
68.3108
 20
-910.4728
 30
0.0
 41
240.0
 42
240.0
210
0.0
220
0.0
230
1.0
  0
INSERT
  5
479
100
AcDbEntity
  8
1
  6
CONTINUOUS
 62
     1
100
AcDbBlockReference
  2
LDR
 10
68.3108
 20
-910.4728
 30
0.0
 41
240.0
 42
240.0
 50
180.0
210
0.0
220
0.0
230
1.0
  0
INSERT
  5
47A
100
AcDbEntity
  8
1
  6
CONTINUOUS
 62
     1
100
AcDbBlockReference
  2
LDR
 10
68.3108
 20
-910.4728
 30
0.0
 41
240.0
 42
240.0
 50
180.0
210
0.0
220
0.0
230
1.0
  0
INSERT
  5
47B
100
AcDbEntity
  8
1
  6
CONTINUOUS
 62
     1
100
AcDbBlockReference
  2
LDR
 10
86.3108
 20
-910.4728
 30
0.0
 41
240.0
 42
240.0
210
0.0
220
0.0
230
1.0
  0
LINE
  5
47C
100
AcDbEntity
  8
1
  6
CONTINUOUS
 62
     7
100
AcDbLine
 10
43.1108
 20
-910.4728
 30
0.0
 11
50.2627
 21
-910.4728
 31
0.0
  0
LINE
  5
47D
100
AcDbEntity
  8
1
  6
CONTINUOUS
 62
     7
100
AcDbLine
 10
61.4487
 20
-910.4728
 30
0.0
 11
68.3108
 21
-910.4728
 31
0.0
  0
LINE
  5
47E
100
AcDbEntity
  8
1
  6
CONTINUOUS
 62
     7
100
AcDbLine
 10
68.3108
 20
-910.4728
 30
0.0
 11
72.6348
 21
-910.4728
 31
0.0
  0
LINE
  5
47F
100
AcDbEntity
  8
1
  6
CONTINUOUS
 62
     7
100
AcDbLine
 10
81.8677
 20
-910.4728
 30
0.0
 11
86.3108
 21
-910.4728
 31
0.0
  0
TEXT
  5
480
100
AcDbEntity
  8
1
  6
CONTINUOUS
 62
     7
100
AcDbText
 10
92.0882
 20
-921.877
 30
0.0
 40
6.0
  1
*
  7
MONOTXT
 72
     4
 11
93.2456
 21
-918.877
 31
0.0
210
0.0
220
0.0
230
1.0
100
AcDbText
  0
TEXT
  5
481
100
AcDbEntity
  8
1
  6
CONTINUOUS
 62
     7
100
AcDbText
 10
54.1209
 20
-921.4577
 30
0.0
 40
6.0
  1
*
  7
MONOTXT
 72
     4
 11
55.2783
 21
-918.4577
 31
0.0
210
0.0
220
0.0
230
1.0
100
AcDbText
  0
LINE
  5
482
100
AcDbEntity
  8
1
  6
CONTINUOUS
 62
     7
100
AcDbLine
 10
-12.5443
 20
-1046.7734
 30
0.0
 11
-15.2988
 21
-1005.2326
 31
0.0
  0
INSERT
  5
483
100
AcDbEntity
  8
1
  6
CONTINUOUS
 62
     1
100
AcDbBlockReference
  2
LDR
 10
-12.5443
 20
-1046.7734
 30
0.0
 41
240.0
 42
240.0
 50
273.793633
210
0.0
220
0.0
230
1.0
  0
INSERT
  5
48A
100
AcDbEntity
  8
4
  6
CONTINUOUS
 62
     1
100
AcDbBlockReference
  2
1SPT
 10
25.7404
 20
-1064.4398
 30
0.0
 41
240.0
 42
240.0
 50
270.0
210
0.0
220
0.0
230
1.0
  0
TEXT
  5
48B
100
AcDbEntity
  8
1
  6
CONTINUOUS
 62
     7
100
AcDbText
 10
-11.7024
 20
-1071.6514
 30
0.0
 40
3.0
  1
W10-1 SIGN
  7
MONOTXT
 72
     4
 11
0.0259
 21
-1070.1514
 31
0.0
210
0.0
220
0.0
230
1.0
100
AcDbText
  0
LINE
  5
48C
100
AcDbEntity
  8
1
  6
CONTINUOUS
 62
     7
100
AcDbLine
 10
12.7397
 20
-1070.1514
 30
0.0
 11
16.7981
 21
-1070.1514
 31
0.0
  0
LINE
  5
48D
100
AcDbEntity
  8
1
  6
CONTINUOUS
 62
     7
100
AcDbLine
 10
16.7981
 20
-1070.1514
 30
0.0
 11
25.2604
 21
-1064.4398
 31
0.0
  0
INSERT
  5
48E
100
AcDbEntity
  8
1
  6
CONTINUOUS
 62
     1
100
AcDbBlockReference
  2
LDR
 10
25.2604
 20
-1064.4398
 30
0.0
 41
240.0
 42
240.0
 50
34.017245
210
0.0
220
0.0
230
1.0
  0
TEXT
  5
48F
100
AcDbEntity
  8
1
  6
CONTINUOUS
 62
     7
100
AcDbText
 10
632.355
 20
-944.5608
 30
0.0
 40
3.0
  1
X
  7
MONOTXT
 72
     4
 11
633.3589
 21
-943.0608
 31
0.0
210
0.0
220
0.0
230
1.0
100
AcDbText
  0
TEXT
  5
490
100
AcDbEntity
  8
1
  6
CONTINUOUS
 62
     7
100
AcDbText
 10
677.6377
 20
-944.3612
 30
0.0
 40
3.0
  1
X
  7
MONOTXT
 72
     4
 11
678.6416
 21
-942.8612
 31
0.0
210
0.0
220
0.0
230
1.0
100
AcDbText
  0
TEXT
  5
491
100
AcDbEntity
  8
1
  6
CONTINUOUS
 62
     7
100
AcDbText
 10
582.4842
 20
-988.4612
 30
0.0
 40
3.0
  1
X
  7
MONOTXT
 72
     4
 11
583.4881
 21
-986.9612
 31
0.0
210
0.0
220
0.0
230
1.0
100
AcDbText
  0
TEXT
  5
492
100
AcDbEntity
  8
1
  6
CONTINUOUS
 62
     7
100
AcDbText
 10
582.6836
 20
-994.0486
 30
0.0
 40
3.0
  1
X
  7
MONOTXT
 72
     4
 11
583.6875
 21
-992.5486
 31
0.0
210
0.0
220
0.0
230
1.0
100
AcDbText
  0
TEXT
  5
493
100
AcDbEntity
  8
1
  6
CONTINUOUS
 62
     7
100
AcDbText
 10
577.4917
 20
-925.1083
 30
0.0
 40
3.0
  1
REQUIRED LANE-USE MARKINGS.
  7
MONOTXT
 11
577.4917
 21
-922.1083
 31
0.0
210
0.0
220
0.0
230
1.0
100
AcDbText
 73
     3
  0
TEXT
  5
494
100
AcDbEntity
  8
1
  6
CONTINUOUS
 62
     7
100
AcDbText
 10
577.4917
 20
-930.5083
 30
0.0
 40
3.0
  1
ALL OTHER SHOWN LANE USE ARROWS ON THIS
  7
MONOTXT
 11
577.4917
 21
-927.5083
 31
0.0
210
0.0
220
0.0
230
1.0
100
AcDbText
 73
     3
  0
TEXT
  5
495
100
AcDbEntity
  8
1
  6
CONTINUOUS
 62
     7
100
AcDbText
 10
577.4917
 20
-935.9083
 30
0.0
 40
3.0
  1
SHEET ARE OPTIONAL AS CALLED FOR ON PLANS.
  7
MONOTXT
 11
577.4917
 21
-932.9083
 31
0.0
210
0.0
220
0.0
230
1.0
100
AcDbText
 73
     3
  0
TEXT
  5
496
100
AcDbEntity
  8
1
  6
CONTINUOUS
 62
     7
100
AcDbText
 10
572.1451
 20
-926.5051
 30
0.0
 40
6.0
  1
*
  7
MONOTXT
 72
     4
 11
573.3025
 21
-923.5051
 31
0.0
210
0.0
220
0.0
230
1.0
100
AcDbText
  0
LINE
  5
497
100
AcDbEntity
  8
1
  6
CONTINUOUS
 62
     3
100
AcDbLine
 10
350.5906
 20
-935.3347
 30
0.0
 11
350.5906
 21
-976.6402
 31
0.0
  0
LINE
  5
498
100
AcDbEntity
  8
1
  6
CONTINUOUS
 62
     3
100
AcDbLine
 10
388.9098
 20
-925.9877
 30
0.0
 11
454.6128
 21
-925.9877
 31
0.0
  0
LINE
  5
499
100
AcDbEntity
  8
1
  6
CONTINUOUS
 62
     3
100
AcDbLine
 10
399.838
 20
-878.3753
 30
0.0
 11
414.001
 21
-878.3753
 31
0.0
  0
LINE
  5
49A
100
AcDbEntity
  8
1
  6
CONTINUOUS
 62
     3
100
AcDbLine
 10
350.5906
 20
-931.6502
 30
0.0
 11
380.679
 21
-931.6502
 31
0.0
  0
LINE
  5
49B
100
AcDbEntity
  8
1
  6
CONTINUOUS
 62
     3
100
AcDbLine
 10
394.1865
 20
-916.9121
 30
0.0
 11
399.3449
 21
-916.9121
 31
0.0
  0
LINE
  5
49C
100
AcDbEntity
  8
1
  6
CONTINUOUS
 62
     3
100
AcDbLine
 10
405.2401
 20
-916.9121
 30
0.0
 11
410.3986
 21
-916.9121
 31
0.0
  0
LINE
  5
49D
100
AcDbEntity
  8
1
  6
CONTINUOUS
 62
     3
100
AcDbLine
 10
416.2938
 20
-916.9121
 30
0.0
 11
421.4523
 21
-916.9121
 31
0.0
  0
LINE
  5
49E
100
AcDbEntity
  8
1
  6
CONTINUOUS
 62
     3
100
AcDbLine
 10
427.3475
 20
-916.9121
 30
0.0
 11
432.5057
 21
-916.9121
 31
0.0
  0
LINE
  5
49F
100
AcDbEntity
  8
1
  6
CONTINUOUS
 62
     3
100
AcDbLine
 10
380.0672
 20
-933.124
 30
0.0
 11
380.0672
 21
-976.6402
 31
0.0
  0
LINE
  5
4A0
100
AcDbEntity
  8
1
  6
CONTINUOUS
 62
     1
100
AcDbLine
 10
374.0188
 20
-959.9432
 30
0.0
 11
374.0188
 21
-965.8385
 31
0.0
  0
POLYLINE
  5
4A1
100
AcDbEntity
  8
1
  6
CONTINUOUS
 62
     1
100
AcDb2dPolyline
 66
     1
 10
0.0
 20
0.0
 30
0.0
 70
     1
  0
VERTEX
  5
4A2
100
AcDbEntity
  8
1
  6
CONTINUOUS
 62
     1
100
AcDbVertex
100
AcDb2dVertex
 10
378.2156
 20
-958.8685
 30
0.0
  0
VERTEX
  5
4A3
100
AcDbEntity
  8
1
  6
CONTINUOUS
 62
     1
100
AcDbVertex
100
AcDb2dVertex
 10
375.663
 20
-960.3423
 30
0.0
  0
VERTEX
  5
4A4
100
AcDbEntity
  8
1
  6
CONTINUOUS
 62
     1
100
AcDbVertex
100
AcDb2dVertex
 10
375.663
 20
-957.3948
 30
0.0
  0
VERTEX
  5
4A5
100
AcDbEntity
  8
1
  6
CONTINUOUS
 62
     1
100
AcDbVertex
100
AcDb2dVertex
 10
378.2156
 20
-958.8685
 30
0.0
  0
SEQEND
  5
4A6
100
AcDbEntity
  8
1
  6
CONTINUOUS
 62
     1
  0
ARC
  5
4A7
100
AcDbEntity
  8
1
  6
CONTINUOUS
 62
     1
100
AcDbCircle
 10
375.520111
 20
-960.444948
 30
0.0
 40
1.582922
210
0.0
220
0.0
230
1.0
100
AcDbArc
 50
84.822528
 51
161.522272
  0
LINE
  5
4A8
100
AcDbEntity
  8
1
  6
CONTINUOUS
 62
     3
100
AcDbLine
 10
359.6662
 20
-931.6502
 30
0.0
 11
359.6662
 21
-976.6402
 31
0.0
  0
LINE
  5
4A9
100
AcDbEntity
  8
1
  6
CONTINUOUS
 62
     3
100
AcDbLine
 10
370.9915
 20
-935.3347
 30
0.0
 11
370.9915
 21
-976.6402
 31
0.0
  0
LINE
  5
4AA
100
AcDbEntity
  8
1
  6
CONTINUOUS
 62
     3
100
AcDbLine
 10
361.9159
 20
-931.6502
 30
0.0
 11
361.9159
 21
-976.6402
 31
0.0
  0
POLYLINE
  5
4AB
100
AcDbEntity
  8
1
  6
CONTINUOUS
 62
     3
100
AcDb2dPolyline
 66
     1
 10
0.0
 20
0.0
 30
0.0
  0
VERTEX
  5
4AC
100
AcDbEntity
  8
1
  6
CONTINUOUS
 62
     3
100
AcDbVertex
100
AcDb2dVertex
 10
380.0672
 20
-935.3347
 30
0.0
  0
VERTEX
  5
4AD
100
AcDbEntity
  8
1
  6
CONTINUOUS
 62
     3
100
AcDbVertex
100
AcDb2dVertex
 10
361.9159
 20
-935.3347
 30
0.0
  0
VERTEX
  5
4AE
100
AcDbEntity
  8
1
  6
CONTINUOUS
 62
     3
100
AcDbVertex
100
AcDb2dVertex
 10
361.9159
 20
-933.124
 30
0.0
  0
VERTEX
  5
4AF
100
AcDbEntity
  8
1
  6
CONTINUOUS
 62
     3
100
AcDbVertex
100
AcDb2dVertex
 10
380.190685
 20
-933.124003
 30
0.0
 42
0.041886
  0
VERTEX
  5
4B0
100
AcDbEntity
  8
1
  6
CONTINUOUS
 62
     3
100
AcDbVertex
100
AcDb2dVertex
 10
380.067002
 20
-934.597816
 30
0.0
  0
VERTEX
  5
4B1
100
AcDbEntity
  8
1
  6
CONTINUOUS
 62
     3
100
AcDbVertex
100
AcDb2dVertex
 10
380.0672
 20
-934.5979
 30
0.0
  0
VERTEX
  5
4B2
100
AcDbEntity
  8
1
  6
CONTINUOUS
 62
     3
100
AcDbVertex
100
AcDb2dVertex
 10
380.0672
 20
-935.3347
 30
0.0
  0
SEQEND
  5
4B3
100
AcDbEntity
  8
1
  6
CONTINUOUS
 62
     3
  0
ARC
  5
4B4
100
AcDbEntity
  8
1
  6
HIDDEN
 62
     3
100
AcDbCircle
 10
393.865847
 20
-940.321571
 30
0.0
 40
23.411722
210
0.0
220
0.0
230
1.0
100
AcDbArc
 50
89.215156
 51
167.701444
  0
ARC
  5
4B5
100
AcDbEntity
  8
1
  6
CONTINUOUS
 62
     3
100
AcDbCircle
 10
389.260819
 20
-935.311104
 30
0.0
 40
9.330072
210
0.0
220
0.0
230
1.0
100
AcDbArc
 50
92.155906
 51
166.442975
  0
LINE
  5
4B6
100
AcDbEntity
  8
1
  6
CONTINUOUS
 62
     3
100
AcDbLine
 10
387.1743
 20
-887.4747
 30
0.0
 11
414.001
 21
-887.4747
 31
0.0
  0
LINE
  5
4B7
100
AcDbEntity
  8
1
  6
CONTINUOUS
 62
     3
100
AcDbLine
 10
387.1743
 20
-896.5502
 30
0.0
 11
414.001
 21
-896.5502
 31
0.0
  0
LINE
  5
4B8
100
AcDbEntity
  8
1
  6
CONTINUOUS
 62
     3
100
AcDbLine
 10
432.3965
 20
-878.399
 30
0.0
 11
454.6128
 21
-878.399
 31
0.0
  0
ARC
  5
4B9
100
AcDbEntity
  8
1
  6
CONTINUOUS
 62
     3
100
AcDbCircle
 10
432.619029
 20
-864.078709
 30
0.0
 40
14.321973
210
0.0
220
0.0
230
1.0
100
AcDbArc
 50
224.518322
 51
269.109628
  0
ARC
  5
4BA
100
AcDbEntity
  8
1
  6
CONTINUOUS
 62
     3
100
AcDbCircle
 10
410.573469
 20
-885.093306
 30
0.0
 40
16.138141
210
0.0
220
0.0
230
1.0
100
AcDbArc
 50
42.838758
 51
78.140108
  0
LINE
  5
4BB
100
AcDbEntity
  8
1
  6
CONTINUOUS
 62
     3
100
AcDbLine
 10
438.4009
 20
-916.9121
 30
0.0
 11
443.5592
 21
-916.9121
 31
0.0
  0
LINE
  5
4BC
100
AcDbEntity
  8
1
  6
CONTINUOUS
 62
     3
100
AcDbLine
 10
449.4545
 20
-916.9121
 30
0.0
 11
454.6128
 21
-916.9121
 31
0.0
  0
LINE
  5
4BD
100
AcDbEntity
  8
1
  6
CONTINUOUS
 62
     3
100
AcDbLine
 10
383.3514
 20
-928.0912
 30
0.0
 11
383.3514
 21
-878.3753
 31
0.0
  0
LINE
  5
4BE
100
AcDbEntity
  8
1
  6
CONTINUOUS
 62
     3
100
AcDbLine
 10
393.4321
 20
-876.8627
 30
0.0
 11
372.5041
 21
-876.8627
 31
0.0
  0
LINE
  5
4BF
100
AcDbEntity
  8
1
  6
CONTINUOUS
 62
     3
100
AcDbLine
 10
393.4321
 20
-876.8627
 30
0.0
 11
372.5041
 21
-866.3957
 31
0.0
  0
LINE
  5
4C0
100
AcDbEntity
  8
1
  6
CONTINUOUS
 62
     3
100
AcDbLine
 10
416.2936
 20
-887.4747
 30
0.0
 11
421.4522
 21
-887.4747
 31
0.0
  0
LINE
  5
4C1
100
AcDbEntity
  8
1
  6
CONTINUOUS
 62
     3
100
AcDbLine
 10
427.3473
 20
-887.4747
 30
0.0
 11
432.5055
 21
-887.4747
 31
0.0
  0
LINE
  5
4C2
100
AcDbEntity
  8
1
  6
CONTINUOUS
 62
     3
100
AcDbLine
 10
438.4008
 20
-887.4747
 30
0.0
 11
443.5592
 21
-887.4747
 31
0.0
  0
LINE
  5
4C3
100
AcDbEntity
  8
1
  6
CONTINUOUS
 62
     3
100
AcDbLine
 10
449.4545
 20
-887.4747
 30
0.0
 11
454.6128
 21
-887.4747
 31
0.0
  0
LINE
  5
4C4
100
AcDbEntity
  8
1
  6
CONTINUOUS
 62
     3
100
AcDbLine
 10
370.9915
 20
-878.3753
 30
0.0
 11
370.9915
 21
-863.9479
 31
0.0
  0
LINE
  5
4C5
100
AcDbEntity
  8
1
  6
CONTINUOUS
 62
     3
100
AcDbLine
 10
372.5041
 20
-876.8627
 30
0.0
 11
372.5041
 21
-866.3957
 31
0.0
  0
LINE
  5
4C6
100
AcDbEntity
  8
1
  6
CONTINUOUS
 62
     3
100
AcDbLine
 10
370.9915
 20
-821.1835
 30
0.0
 11
370.9915
 21
-794.3782
 31
0.0
  0
ARC
  5
4C7
100
AcDbEntity
  8
1
  6
CONTINUOUS
 62
     3
100
AcDbCircle
 10
435.679244
 20
-815.12549
 30
0.0
 40
64.970889
210
0.0
220
0.0
230
1.0
100
AcDbArc
 50
185.350139
 51
219.658181
  0
LINE
  5
4C8
100
AcDbEntity
  8
1
  6
CONTINUOUS
 62
     3
100
AcDbLine
 10
361.9159
 20
-866.3957
 30
0.0
 11
361.9159
 21
-794.3782
 31
0.0
  0
LINE
  5
4C9
100
AcDbEntity
  8
1
  6
CONTINUOUS
 62
     3
100
AcDbLine
 10
341.5149
 20
-849.9776
 30
0.0
 11
341.5149
 21
-794.3782
 31
0.0
  0
LINE
  5
4CA
100
AcDbEntity
  8
1
  6
CONTINUOUS
 62
     3
100
AcDbLine
 10
335.8806
 20
-905.4632
 30
0.0
 11
303.6427
 21
-903.4885
 31
0.0
  0
LINE
  5
4CB
100
AcDbEntity
  8
1
  6
CONTINUOUS
 62
     3
100
AcDbLine
 10
335.8806
 20
-894.2888
 30
0.0
 11
269.3668
 21
-894.2888
 31
0.0
  0
LINE
  5
4CC
100
AcDbEntity
  8
1
  6
CONTINUOUS
 62
     3
100
AcDbLine
 10
313.7727
 20
-876.1377
 30
0.0
 11
269.3668
 21
-876.1377
 31
0.0
  0
LINE
  5
4CD
100
AcDbEntity
  8
1
  6
CONTINUOUS
 62
     3
100
AcDbLine
 10
341.5149
 20
-917.1519
 30
0.0
 11
341.5149
 21
-872.0302
 31
0.0
  0
LINE
  5
4CE
100
AcDbEntity
  8
1
  6
CONTINUOUS
 62
     3
100
AcDbLine
 10
335.8806
 20
-914.7013
 30
0.0
 11
335.8806
 21
-866.446
 31
0.0
  0
LINE
  5
4CF
100
AcDbEntity
  8
1
  6
CONTINUOUS
 62
     3
100
AcDbLine
 10
370.9915
 20
-872.0302
 30
0.0
 11
341.5149
 21
-872.0302
 31
0.0
  0
LINE
  5
4D0
100
AcDbEntity
  8
1
  6
CONTINUOUS
 62
     3
100
AcDbLine
 10
349.0528
 20
-926.0158
 30
0.0
 11
377.7169
 21
-926.0158
 31
0.0
  0
LINE
  5
4D1
100
AcDbEntity
  8
1
  6
CONTINUOUS
 62
     3
100
AcDbLine
 10
377.7169
 20
-926.0158
 30
0.0
 11
377.7169
 21
-878.3753
 31
0.0
  0
ARC
  5
4D2
100
AcDbEntity
  8
1
  6
CONTINUOUS
 62
     3
100
AcDbCircle
 10
330.927022
 20
-933.793127
 30
0.0
 40
19.723985
210
0.0
220
0.0
230
1.0
100
AcDbArc
 50
355.517236
 51
75.454586
  0
LINE
  5
4D3
100
AcDbEntity
  8
1
  6
CONTINUOUS
 62
     3
100
AcDbLine
 10
399.838
 20
-878.3753
 30
0.0
 11
370.9915
 21
-878.3753
 31
0.0
  0
POLYLINE
  5
4D4
100
AcDbEntity
  8
1
  6
CONTINUOUS
 62
     3
100
AcDb2dPolyline
 66
     1
 10
0.0
 20
0.0
 30
0.0
 70
     1
  0
VERTEX
  5
4D5
100
AcDbEntity
  8
1
  6
CONTINUOUS
 62
     3
100
AcDbVertex
100
AcDb2dVertex
 10
384.9636
 20
-905.6258
 30
0.0
  0
VERTEX
  5
4D6
100
AcDbEntity
  8
1
  6
CONTINUOUS
 62
     3
100
AcDbVertex
100
AcDb2dVertex
 10
384.9636
 20
-878.3753
 30
0.0
  0
VERTEX
  5
4D7
100
AcDbEntity
  8
1
  6
CONTINUOUS
 62
     3
100
AcDbVertex
100
AcDb2dVertex
 10
387.1743
 20
-878.3753
 30
0.0
  0
VERTEX
  5
4D8
100
AcDbEntity
  8
1
  6
CONTINUOUS
 62
     3
100
AcDbVertex
100
AcDb2dVertex
 10
387.1743
 20
-905.6258
 30
0.0
  0
VERTEX
  5
4D9
100
AcDbEntity
  8
1
  6
CONTINUOUS
 62
     3
100
AcDbVertex
100
AcDb2dVertex
 10
384.9636
 20
-905.6258
 30
0.0
  0
SEQEND
  5
4DA
100
AcDbEntity
  8
1
  6
CONTINUOUS
 62
     3
  0
LINE
  5
4DB
100
AcDbEntity
  8
1
  6
CONTINUOUS
 62
     3
100
AcDbLine
 10
335.8806
 20
-914.7013
 30
0.0
 11
270.2712
 21
-905.6258
 31
0.0
  0
POLYLINE
  5
4DC
100
AcDbEntity
  8
1
  6
CONTINUOUS
 62
     3
100
AcDb2dPolyline
 66
     1
 10
0.0
 20
0.0
 30
0.0
 70
     1
  0
VERTEX
  5
4DD
100
AcDbEntity
  8
1
  6
CONTINUOUS
 62
     3
100
AcDbVertex
100
AcDb2dVertex
 10
332.2204
 20
-914.195
 30
0.0
  0
VERTEX
  5
4DE
100
AcDbEntity
  8
1
  6
CONTINUOUS
 62
     3
100
AcDbVertex
100
AcDb2dVertex
 10
332.2204
 20
-896.5502
 30
0.0
  0
VERTEX
  5
4DF
100
AcDbEntity
  8
1
  6
CONTINUOUS
 62
     3
100
AcDbVertex
100
AcDb2dVertex
 10
334.431
 20
-896.5502
 30
0.0
  0
VERTEX
  5
4E0
100
AcDbEntity
  8
1
  6
CONTINUOUS
 62
     3
100
AcDbVertex
100
AcDb2dVertex
 10
334.431
 20
-914.5008
 30
0.0
  0
VERTEX
  5
4E1
100
AcDbEntity
  8
1
  6
CONTINUOUS
 62
     3
100
AcDbVertex
100
AcDb2dVertex
 10
332.2204
 20
-914.195
 30
0.0
  0
SEQEND
  5
4E2
100
AcDbEntity
  8
1
  6
CONTINUOUS
 62
     3
  0
LINE
  5
4E3
100
AcDbEntity
  8
1
  6
CONTINUOUS
 62
     3
100
AcDbLine
 10
330.7223
 20
-885.2133
 30
0.0
 11
335.8806
 21
-885.2133
 31
0.0
  0
LINE
  5
4E4
100
AcDbEntity
  8
1
  6
CONTINUOUS
 62
     3
100
AcDbLine
 10
275.4545
 20
-885.2133
 30
0.0
 11
280.6129
 21
-885.2133
 31
0.0
  0
LINE
  5
4E5
100
AcDbEntity
  8
1
  6
CONTINUOUS
 62
     3
100
AcDbLine
 10
286.5081
 20
-885.2133
 30
0.0
 11
291.6665
 21
-885.2133
 31
0.0
  0
LINE
  5
4E6
100
AcDbEntity
  8
1
  6
CONTINUOUS
 62
     3
100
AcDbLine
 10
297.5618
 20
-885.2133
 30
0.0
 11
302.7202
 21
-885.2133
 31
0.0
  0
LINE
  5
4E7
100
AcDbEntity
  8
1
  6
CONTINUOUS
 62
     3
100
AcDbLine
 10
308.6153
 20
-885.2133
 30
0.0
 11
313.7736
 21
-885.2133
 31
0.0
  0
LINE
  5
4E8
100
AcDbEntity
  8
1
  6
CONTINUOUS
 62
     3
100
AcDbLine
 10
319.6689
 20
-885.2133
 30
0.0
 11
324.8272
 21
-885.2133
 31
0.0
  0
ARC
  5
4E9
100
AcDbEntity
  8
1
  6
CONTINUOUS
 62
     3
100
AcDbCircle
 10
418.260619
 20
-821.885722
 30
0.0
 40
47.614944
210
0.0
220
0.0
230
1.0
100
AcDbArc
 50
226.790833
 51
246.941903
  0
ARC
  5
4EA
100
AcDbEntity
  8
1
  6
CONTINUOUS
 62
     3
100
AcDbCircle
 10
418.260619
 20
-821.885722
 30
0.0
 40
47.614944
210
0.0
220
0.0
230
1.0
100
AcDbArc
 50
246.941906
 51
264.733533
  0
LINE
  5
4EB
100
AcDbEntity
  8
1
  6
CONTINUOUS
 62
     3
100
AcDbLine
 10
399.8381
 20
-878.3753
 30
0.0
 11
370.9915
 21
-863.9479
 31
0.0
  0
POLYLINE
  5
4EC
100
AcDbEntity
  8
1
  6
CONTINUOUS
 62
     3
100
AcDb2dPolyline
 66
     1
 10
0.0
 20
0.0
 30
0.0
  0
VERTEX
  5
4ED
100
AcDbEntity
  8
1
  6
CONTINUOUS
 62
     3
100
AcDbVertex
100
AcDb2dVertex
 10
387.9972
 20
-872.5088
 30
0.0
  0
VERTEX
  5
4EE
100
AcDbEntity
  8
1
  6
CONTINUOUS
 62
     3
100
AcDbVertex
100
AcDb2dVertex
 10
392.986221
 20
-862.533628
 30
0.0
 42
0.011883
  0
VERTEX
  5
4EF
100
AcDbEntity
  8
1
  6
CONTINUOUS
 62
     3
100
AcDbVertex
100
AcDb2dVertex
 10
395.0468
 20
-863.4692
 30
0.0
  0
VERTEX
  5
4F0
100
AcDbEntity
  8
1
  6
CONTINUOUS
 62
     3
100
AcDbVertex
100
AcDb2dVertex
 10
390.02
 20
-873.5206
 30
0.0
  0
VERTEX
  5
4F1
100
AcDbEntity
  8
1
  6
CONTINUOUS
 62
     3
100
AcDbVertex
100
AcDb2dVertex
 10
387.9972
 20
-872.5088
 30
0.0
  0
SEQEND
  5
4F2
100
AcDbEntity
  8
1
  6
CONTINUOUS
 62
     3
  0
LINE
  5
4F3
100
AcDbEntity
  8
1
  6
CONTINUOUS
 62
     3
100
AcDbLine
 10
359.6662
 20
-866.3957
 30
0.0
 11
359.6662
 21
-794.3782
 31
0.0
  0
POLYLINE
  5
4F4
100
AcDbEntity
  8
1
  6
CONTINUOUS
 62
     3
100
AcDb2dPolyline
 66
     1
 10
0.0
 20
0.0
 30
0.0
 70
     1
  0
VERTEX
  5
4F5
100
AcDbEntity
  8
1
  6
CONTINUOUS
 62
     3
100
AcDbVertex
100
AcDb2dVertex
 10
359.6662
 20
-862.4716
 30
0.0
  0
VERTEX
  5
4F6
100
AcDbEntity
  8
1
  6
CONTINUOUS
 62
     3
100
AcDbVertex
100
AcDb2dVertex
 10
350.5906
 20
-862.4716
 30
0.0
  0
VERTEX
  5
4F7
100
AcDbEntity
  8
1
  6
CONTINUOUS
 62
     3
100
AcDbVertex
100
AcDb2dVertex
 10
350.5906
 20
-864.6824
 30
0.0
  0
VERTEX
  5
4F8
100
AcDbEntity
  8
1
  6
CONTINUOUS
 62
     3
100
AcDbVertex
100
AcDb2dVertex
 10
359.6662
 20
-864.6824
 30
0.0
  0
VERTEX
  5
4F9
100
AcDbEntity
  8
1
  6
CONTINUOUS
 62
     3
100
AcDbVertex
100
AcDb2dVertex
 10
359.6662
 20
-862.4716
 30
0.0
  0
SEQEND
  5
4FA
100
AcDbEntity
  8
1
  6
CONTINUOUS
 62
     3
  0
ARC
  5
4FB
100
AcDbEntity
  8
1
  6
CONTINUOUS
 62
     3
100
AcDbCircle
 10
315.63331
 20
-850.320553
 30
0.0
 40
25.884038
210
0.0
220
0.0
230
1.0
100
AcDbArc
 50
339.658219
 51
0.759019
  0
ARC
  5
4FC
100
AcDbEntity
  8
1
  6
CONTINUOUS
 62
     3
100
AcDbCircle
 10
315.63331
 20
-850.320553
 30
0.0
 40
25.884038
210
0.0
220
0.0
230
1.0
100
AcDbArc
 50
265.87745
 51
339.658219
  0
POLYLINE
  5
4FD
100
AcDbEntity
  8
1
  6
CONTINUOUS
 62
     3
100
AcDb2dPolyline
 66
     1
 10
0.0
 20
0.0
 30
0.0
  0
VERTEX
  5
4FE
100
AcDbEntity
  8
1
  6
CONTINUOUS
 62
     3
100
AcDbVertex
100
AcDb2dVertex
 10
339.0468
 20
-861.3567
 30
0.0
  0
VERTEX
  5
4FF
100
AcDbEntity
  8
1
  6
CONTINUOUS
 62
     3
100
AcDbVertex
100
AcDb2dVertex
 10
346.7774
 20
-864.4501
 30
0.0
  0
VERTEX
  5
500
100
AcDbEntity
  8
1
  6
CONTINUOUS
 62
     3
100
AcDbVertex
100
AcDb2dVertex
 10
339.0468
 20
-861.3567
 30
0.0
  0
VERTEX
  5
501
100
AcDbEntity
  8
1
  6
CONTINUOUS
 62
     3
100
AcDbVertex
100
AcDb2dVertex
 10
346.7774
 20
-864.4501
 30
0.0
  0
SEQEND
  5
502
100
AcDbEntity
  8
1
  6
CONTINUOUS
 62
     3
  0
POLYLINE
  5
503
100
AcDbEntity
  8
1
  6
CONTINUOUS
 62
     3
100
AcDb2dPolyline
 66
     1
 10
0.0
 20
0.0
 30
0.0
  0
VERTEX
  5
504
100
AcDbEntity
  8
1
  6
CONTINUOUS
 62
     3
100
AcDbVertex
100
AcDb2dVertex
 10
339.9031
 20
-859.3183
 30
0.0
  0
VERTEX
  5
505
100
AcDbEntity
  8
1
  6
CONTINUOUS
 62
     3
100
AcDbVertex
100
AcDb2dVertex
 10
347.395232
 20
-862.316117
 30
0.0
 42
-0.006229
  0
VERTEX
  5
506
100
AcDbEntity
  8
1
  6
CONTINUOUS
 62
     3
100
AcDbVertex
100
AcDb2dVertex
 10
346.777279
 20
-864.449957
 30
0.0
  0
VERTEX
  5
507
100
AcDbEntity
  8
1
  6
CONTINUOUS
 62
     3
100
AcDbVertex
100
AcDb2dVertex
 10
346.7774
 20
-864.4501
 30
0.0
  0
VERTEX
  5
508
100
AcDbEntity
  8
1
  6
CONTINUOUS
 62
     3
100
AcDbVertex
100
AcDb2dVertex
 10
339.0468
 20
-861.3567
 30
0.0
  0
VERTEX
  5
509
100
AcDbEntity
  8
1
  6
CONTINUOUS
 62
     3
100
AcDbVertex
100
AcDb2dVertex
 10
339.9031
 20
-859.3183
 30
0.0
  0
SEQEND
  5
50A
100
AcDbEntity
  8
1
  6
CONTINUOUS
 62
     3
  0
INSERT
  5
50B
100
AcDbEntity
  8
1
  6
CONTINUOUS
 62
     1
100
AcDbBlockReference
  2
STLTAR
 10
368.5826
 20
-947.3478
 30
0.0
 41
765.753036
 42
765.753036
210
0.0
220
0.0
230
1.0
  0
LINE
  5
50C
100
AcDbEntity
  8
1
  6
CONTINUOUS
 62
     1
100
AcDbLine
 10
373.7972
 20
-940.4357
 30
0.0
 11
373.7972
 21
-946.3309
 31
0.0
  0
POLYLINE
  5
50D
100
AcDbEntity
  8
1
  6
CONTINUOUS
 62
     1
100
AcDb2dPolyline
 66
     1
 10
0.0
 20
0.0
 30
0.0
 70
     1
  0
VERTEX
  5
50E
100
AcDbEntity
  8
1
  6
CONTINUOUS
 62
     1
100
AcDbVertex
100
AcDb2dVertex
 10
377.9942
 20
-939.361
 30
0.0
  0
VERTEX
  5
50F
100
AcDbEntity
  8
1
  6
CONTINUOUS
 62
     1
100
AcDbVertex
100
AcDb2dVertex
 10
375.4414
 20
-940.8348
 30
0.0
  0
VERTEX
  5
510
100
AcDbEntity
  8
1
  6
CONTINUOUS
 62
     1
100
AcDbVertex
100
AcDb2dVertex
 10
375.4414
 20
-937.8871
 30
0.0
  0
VERTEX
  5
511
100
AcDbEntity
  8
1
  6
CONTINUOUS
 62
     1
100
AcDbVertex
100
AcDb2dVertex
 10
377.9942
 20
-939.361
 30
0.0
  0
SEQEND
  5
512
100
AcDbEntity
  8
1
  6
CONTINUOUS
 62
     1
  0
ARC
  5
513
100
AcDbEntity
  8
1
  6
CONTINUOUS
 62
     1
100
AcDbCircle
 10
375.298578
 20
-940.937406
 30
0.0
 40
1.582922
210
0.0
220
0.0
230
1.0
100
AcDbArc
 50
84.822528
 51
161.522272
  0
INSERT
  5
514
100
AcDbEntity
  8
1
  6
CONTINUOUS
 62
     1
100
AcDbBlockReference
  2
STLTAR
 10
368.6564
 20
-966.8553
 30
0.0
 41
765.753036
 42
765.753036
210
0.0
220
0.0
230
1.0
  0
TEXT
  5
515
100
AcDbEntity
  8
1
  6
CONTINUOUS
 62
     7
100
AcDbText
 10
372.1308
 20
-955.3263
 30
0.0
 40
7.320976
  1
ONLY
 50
360.0
 41
0.25
  7
TXT
 72
     4
 11
375.441
 21
-951.6658
 31
0.0
210
0.0
220
0.0
230
1.0
100
AcDbText
  0
TEXT
  5
516
100
AcDbEntity
  8
1
  6
CONTINUOUS
 62
     7
100
AcDbText
 10
314.4246
 20
-897.1225
 30
0.0
 40
7.320976
  1
ONLY
 50
270.0
 41
0.25
  7
TXT
 72
     4
 11
318.0851
 21
-900.4327
 31
0.0
210
0.0
220
0.0
230
1.0
100
AcDbText
  0
LINE
  5
517
100
AcDbEntity
  8
1
  6
CONTINUOUS
 62
     1
100
AcDbLine
 10
309.8076
 20
-902.0217
 30
0.0
 11
303.9125
 21
-902.0217
 31
0.0
  0
POLYLINE
  5
518
100
AcDbEntity
  8
1
  6
CONTINUOUS
 62
     1
100
AcDb2dPolyline
 66
     1
 10
0.0
 20
0.0
 30
0.0
 70
     1
  0
VERTEX
  5
519
100
AcDbEntity
  8
1
  6
CONTINUOUS
 62
     1
100
AcDbVertex
100
AcDb2dVertex
 10
310.8823
 20
-897.8248
 30
0.0
  0
VERTEX
  5
51A
100
AcDbEntity
  8
1
  6
CONTINUOUS
 62
     1
100
AcDbVertex
100
AcDb2dVertex
 10
309.4088
 20
-900.3775
 30
0.0
  0
VERTEX
  5
51B
100
AcDbEntity
  8
1
  6
CONTINUOUS
 62
     1
100
AcDbVertex
100
AcDb2dVertex
 10
312.3562
 20
-900.3775
 30
0.0
  0
VERTEX
  5
51C
100
AcDbEntity
  8
1
  6
CONTINUOUS
 62
     1
100
AcDbVertex
100
AcDb2dVertex
 10
310.8823
 20
-897.8248
 30
0.0
  0
SEQEND
  5
51D
100
AcDbEntity
  8
1
  6
CONTINUOUS
 62
     1
  0
ARC
  5
51E
100
AcDbEntity
  8
1
  6
CONTINUOUS
 62
     1
100
AcDbCircle
 10
309.305928
 20
-900.520403
 30
0.0
 40
1.582922
210
0.0
220
0.0
230
1.0
100
AcDbArc
 50
288.477728
 51
5.177472
  0
LINE
  5
51F
100
AcDbEntity
  8
1
  6
CONTINUOUS
 62
     1
100
AcDbLine
 10
329.3153
 20
-902.2434
 30
0.0
 11
323.4199
 21
-902.2434
 31
0.0
  0
POLYLINE
  5
520
100
AcDbEntity
  8
1
  6
CONTINUOUS
 62
     1
100
AcDb2dPolyline
 66
     1
 10
0.0
 20
0.0
 30
0.0
 70
     1
  0
VERTEX
  5
521
100
AcDbEntity
  8
1
  6
CONTINUOUS
 62
     1
100
AcDbVertex
100
AcDb2dVertex
 10
330.3899
 20
-898.0463
 30
0.0
  0
VERTEX
  5
522
100
AcDbEntity
  8
1
  6
CONTINUOUS
 62
     1
100
AcDbVertex
100
AcDb2dVertex
 10
328.9162
 20
-900.5991
 30
0.0
  0
VERTEX
  5
523
100
AcDbEntity
  8
1
  6
CONTINUOUS
 62
     1
100
AcDbVertex
100
AcDb2dVertex
 10
331.8637
 20
-900.5991
 30
0.0
  0
VERTEX
  5
524
100
AcDbEntity
  8
1
  6
CONTINUOUS
 62
     1
100
AcDbVertex
100
AcDb2dVertex
 10
330.3899
 20
-898.0463
 30
0.0
  0
SEQEND
  5
525
100
AcDbEntity
  8
1
  6
CONTINUOUS
 62
     1
  0
ARC
  5
526
100
AcDbEntity
  8
1
  6
CONTINUOUS
 62
     1
100
AcDbCircle
 10
328.813471
 20
-900.741936
 30
0.0
 40
1.582922
210
0.0
220
0.0
230
1.0
100
AcDbArc
 50
288.477728
 51
5.177472
  0
INSERT
  5
527
100
AcDbEntity
  8
1
  6
CONTINUOUS
 62
     1
100
AcDbBlockReference
  2
STLTAR
 10
321.4102
 20
-906.6026
 30
0.0
 41
765.753036
 42
-765.753036
 50
85.971497
210
0.0
220
0.0
230
1.0
  0
INSERT
  5
528
100
AcDbEntity
  8
1
  6
CONTINUOUS
 62
     1
100
AcDbBlockReference
  2
STLTAR
 10
303.5326
 20
-904.9909
 30
0.0
 41
671.964383
 42
-671.964383
 50
85.971497
210
0.0
220
0.0
230
1.0
  0
TEXT
  5
529
100
AcDbEntity
  8
1
  6
CONTINUOUS
 62
     7
100
AcDbText
 10
349.2619
 20
-841.2322
 30
0.0
 40
7.320976
  1
ONLY
 50
180.0
 41
0.25
  7
TXT
 72
     4
 11
345.9517
 21
-844.8927
 31
0.0
210
0.0
220
0.0
230
1.0
100
AcDbText
  0
LINE
  5
52A
100
AcDbEntity
  8
1
  6
CONTINUOUS
 62
     1
100
AcDbLine
 10
347.3738
 20
-836.6151
 30
0.0
 11
347.3738
 21
-830.7199
 31
0.0
  0
POLYLINE
  5
52B
100
AcDbEntity
  8
1
  6
CONTINUOUS
 62
     1
100
AcDb2dPolyline
 66
     1
 10
0.0
 20
0.0
 30
0.0
 70
     1
  0
VERTEX
  5
52C
100
AcDbEntity
  8
1
  6
CONTINUOUS
 62
     1
100
AcDbVertex
100
AcDb2dVertex
 10
343.1768
 20
-837.6897
 30
0.0
  0
VERTEX
  5
52D
100
AcDbEntity
  8
1
  6
CONTINUOUS
 62
     1
100
AcDbVertex
100
AcDb2dVertex
 10
345.7297
 20
-836.2162
 30
0.0
  0
VERTEX
  5
52E
100
AcDbEntity
  8
1
  6
CONTINUOUS
 62
     1
100
AcDbVertex
100
AcDb2dVertex
 10
345.7297
 20
-839.1637
 30
0.0
  0
VERTEX
  5
52F
100
AcDbEntity
  8
1
  6
CONTINUOUS
 62
     1
100
AcDbVertex
100
AcDb2dVertex
 10
343.1768
 20
-837.6897
 30
0.0
  0
SEQEND
  5
530
100
AcDbEntity
  8
1
  6
CONTINUOUS
 62
     1
  0
ARC
  5
531
100
AcDbEntity
  8
1
  6
CONTINUOUS
 62
     1
100
AcDbCircle
 10
345.87257
 20
-836.113439
 30
0.0
 40
1.582922
210
0.0
220
0.0
230
1.0
100
AcDbArc
 50
264.822528
 51
341.522272
  0
INSERT
  5
532
100
AcDbEntity
  8
1
  6
CONTINUOUS
 62
     1
100
AcDbBlockReference
  2
STLTAR
 10
352.8101
 20
-849.2107
 30
0.0
 41
765.753036
 42
765.753036
 50
180.0
210
0.0
220
0.0
230
1.0
  0
LINE
  5
533
100
AcDbEntity
  8
1
  6
CONTINUOUS
 62
     1
100
AcDbLine
 10
346.6883
 20
-856.5938
 30
0.0
 11
347.5486
 21
-850.7618
 31
0.0
  0
POLYLINE
  5
534
100
AcDbEntity
  8
1
  6
CONTINUOUS
 62
     1
100
AcDb2dPolyline
 66
     1
 10
0.0
 20
0.0
 30
0.0
 70
     1
  0
VERTEX
  5
535
100
AcDbEntity
  8
1
  6
CONTINUOUS
 62
     1
100
AcDbVertex
100
AcDb2dVertex
 10
342.3795
 20
-857.0446
 30
0.0
  0
VERTEX
  5
536
100
AcDbEntity
  8
1
  6
CONTINUOUS
 62
     1
100
AcDbVertex
100
AcDb2dVertex
 10
345.1199
 20
-855.9591
 30
0.0
  0
VERTEX
  5
537
100
AcDbEntity
  8
1
  6
CONTINUOUS
 62
     1
100
AcDbVertex
100
AcDb2dVertex
 10
344.6899
 20
-858.8751
 30
0.0
  0
VERTEX
  5
538
100
AcDbEntity
  8
1
  6
CONTINUOUS
 62
     1
100
AcDbVertex
100
AcDb2dVertex
 10
342.3795
 20
-857.0446
 30
0.0
  0
SEQEND
  5
539
100
AcDbEntity
  8
1
  6
CONTINUOUS
 62
     1
  0
ARC
  5
53A
100
AcDbEntity
  8
1
  6
CONTINUOUS
 62
     1
100
AcDbCircle
 10
345.276313
 20
-855.878445
 30
0.0
 40
1.582922
210
0.0
220
0.0
230
1.0
100
AcDbArc
 50
256.430986
 51
333.130731
  0
INSERT
  5
53B
100
AcDbEntity
  8
1
  6
CONTINUOUS
 62
     1
100
AcDbBlockReference
  2
STLTAR
 10
352.7361
 20
-829.7031
 30
0.0
 41
765.753036
 42
765.753036
 50
180.0
210
0.0
220
0.0
230
1.0
  0
LINE
  5
53C
100
AcDbEntity
  8
1
  6
CONTINUOUS
 62
     3
100
AcDbLine
 10
350.5906
 20
-823.5896
 30
0.0
 11
350.5906
 21
-818.4312
 31
0.0
  0
LINE
  5
53D
100
AcDbEntity
  8
1
  6
CONTINUOUS
 62
     3
100
AcDbLine
 10
350.5906
 20
-834.6432
 30
0.0
 11
350.5906
 21
-829.4847
 31
0.0
  0
LINE
  5
53E
100
AcDbEntity
  8
1
  6
CONTINUOUS
 62
     3
100
AcDbLine
 10
350.5906
 20
-812.5359
 30
0.0
 11
350.5906
 21
-807.3776
 31
0.0
  0
LINE
  5
53F
100
AcDbEntity
  8
1
  6
CONTINUOUS
 62
     3
100
AcDbLine
 10
350.5906
 20
-801.4823
 30
0.0
 11
350.5906
 21
-796.324
 31
0.0
  0
POLYLINE
  5
540
100
AcDbEntity
  8
1
  6
CONTINUOUS
 62
     1
100
AcDb2dPolyline
 66
     1
 10
0.0
 20
0.0
 30
0.0
 70
     1
  0
VERTEX
  5
541
100
AcDbEntity
  8
1
  6
CONTINUOUS
 62
     1
100
AcDbVertex
100
AcDb2dVertex
 10
400.379
 20
-869.3048
 30
0.0
  0
VERTEX
  5
542
100
AcDbEntity
  8
1
  6
CONTINUOUS
 62
     1
100
AcDbVertex
100
AcDb2dVertex
 10
401.3043
 20
-872.1032
 30
0.0
  0
VERTEX
  5
543
100
AcDbEntity
  8
1
  6
CONTINUOUS
 62
     1
100
AcDbVertex
100
AcDb2dVertex
 10
398.418
 20
-871.5055
 30
0.0
  0
VERTEX
  5
544
100
AcDbEntity
  8
1
  6
CONTINUOUS
 62
     1
100
AcDbVertex
100
AcDb2dVertex
 10
400.379
 20
-869.3048
 30
0.0
  0
SEQEND
  5
545
100
AcDbEntity
  8
1
  6
CONTINUOUS
 62
     1
  0
LINE
  5
546
100
AcDbEntity
  8
1
  6
CONTINUOUS
 62
     1
100
AcDbLine
 10
400.58
 20
-873.6323
 30
0.0
 11
406.3528
 21
-874.828
 31
0.0
  0
ARC
  5
547
100
AcDbEntity
  8
1
  6
CONTINUOUS
 62
     1
100
AcDbCircle
 10
401.375726
 20
-872.263955
 30
0.0
 40
1.582922
210
0.0
220
0.0
230
1.0
100
AcDbArc
 50
163.12105
 51
239.820794
  0
LINE
  5
548
100
AcDbEntity
  8
1
  6
CONTINUOUS
 62
     1
100
AcDbLine
 10
415.7748
 20
-876.2834
 30
0.0
 11
421.5473
 21
-877.479
 31
0.0
  0
POLYLINE
  5
549
100
AcDbEntity
  8
1
  6
CONTINUOUS
 62
     1
100
AcDb2dPolyline
 66
     1
 10
0.0
 20
0.0
 30
0.0
 70
     1
  0
VERTEX
  5
54A
100
AcDbEntity
  8
1
  6
CONTINUOUS
 62
     1
100
AcDbVertex
100
AcDb2dVertex
 10
415.5736
 20
-871.9558
 30
0.0
  0
VERTEX
  5
54B
100
AcDbEntity
  8
1
  6
CONTINUOUS
 62
     1
100
AcDbVertex
100
AcDb2dVertex
 10
416.4989
 20
-874.7544
 30
0.0
  0
VERTEX
  5
54C
100
AcDbEntity
  8
1
  6
CONTINUOUS
 62
     1
100
AcDbVertex
100
AcDb2dVertex
 10
413.6127
 20
-874.1565
 30
0.0
  0
VERTEX
  5
54D
100
AcDbEntity
  8
1
  6
CONTINUOUS
 62
     1
100
AcDbVertex
100
AcDb2dVertex
 10
415.5736
 20
-871.9558
 30
0.0
  0
SEQEND
  5
54E
100
AcDbEntity
  8
1
  6
CONTINUOUS
 62
     1
  0
ARC
  5
54F
100
AcDbEntity
  8
1
  6
CONTINUOUS
 62
     1
100
AcDbCircle
 10
416.570472
 20
-874.915036
 30
0.0
 40
1.582922
210
0.0
220
0.0
230
1.0
100
AcDbArc
 50
163.12105
 51
239.820794
  0
LINE
  5
550
100
AcDbEntity
  8
1
  6
CONTINUOUS
 62
     1
100
AcDbLine
 10
391.4996
 20
-899.2012
 30
0.0
 11
397.3947
 21
-899.1949
 31
0.0
  0
POLYLINE
  5
551
100
AcDbEntity
  8
1
  6
CONTINUOUS
 62
     1
100
AcDb2dPolyline
 66
     1
 10
0.0
 20
0.0
 30
0.0
 70
     1
  0
VERTEX
  5
552
100
AcDbEntity
  8
1
  6
CONTINUOUS
 62
     1
100
AcDbVertex
100
AcDb2dVertex
 10
390.4295
 20
-903.3992
 30
0.0
  0
VERTEX
  5
553
100
AcDbEntity
  8
1
  6
CONTINUOUS
 62
     1
100
AcDbVertex
100
AcDb2dVertex
 10
391.9003
 20
-900.8449
 30
0.0
  0
VERTEX
  5
554
100
AcDbEntity
  8
1
  6
CONTINUOUS
 62
     1
100
AcDbVertex
100
AcDb2dVertex
 10
388.953
 20
-900.8481
 30
0.0
  0
VERTEX
  5
555
100
AcDbEntity
  8
1
  6
CONTINUOUS
 62
     1
100
AcDbVertex
100
AcDb2dVertex
 10
390.4295
 20
-903.3992
 30
0.0
  0
SEQEND
  5
556
100
AcDbEntity
  8
1
  6
CONTINUOUS
 62
     1
  0
ARC
  5
557
100
AcDbEntity
  8
1
  6
CONTINUOUS
 62
     1
100
AcDbCircle
 10
392.002877
 20
-900.701966
 30
0.0
 40
1.582922
210
0.0
220
0.0
230
1.0
100
AcDbArc
 50
108.540056
 51
185.2398
  0
LINE
  5
558
100
AcDbEntity
  8
1
  6
CONTINUOUS
 62
     1
100
AcDbLine
 10
405.9132
 20
-899.2995
 30
0.0
 11
411.8083
 21
-899.2933
 31
0.0
  0
POLYLINE
  5
559
100
AcDbEntity
  8
1
  6
CONTINUOUS
 62
     1
100
AcDb2dPolyline
 66
     1
 10
0.0
 20
0.0
 30
0.0
 70
     1
  0
VERTEX
  5
55A
100
AcDbEntity
  8
1
  6
CONTINUOUS
 62
     1
100
AcDbVertex
100
AcDb2dVertex
 10
404.8431
 20
-903.4976
 30
0.0
  0
VERTEX
  5
55B
100
AcDbEntity
  8
1
  6
CONTINUOUS
 62
     1
100
AcDbVertex
100
AcDb2dVertex
 10
406.314
 20
-900.9433
 30
0.0
  0
VERTEX
  5
55C
100
AcDbEntity
  8
1
  6
CONTINUOUS
 62
     1
100
AcDbVertex
100
AcDb2dVertex
 10
403.3665
 20
-900.9464
 30
0.0
  0
VERTEX
  5
55D
100
AcDbEntity
  8
1
  6
CONTINUOUS
 62
     1
100
AcDbVertex
100
AcDb2dVertex
 10
404.8431
 20
-903.4976
 30
0.0
  0
SEQEND
  5
55E
100
AcDbEntity
  8
1
  6
CONTINUOUS
 62
     1
  0
ARC
  5
55F
100
AcDbEntity
  8
1
  6
CONTINUOUS
 62
     1
100
AcDbCircle
 10
406.416555
 20
-900.800285
 30
0.0
 40
1.582922
210
0.0
220
0.0
230
1.0
100
AcDbArc
 50
108.540056
 51
185.2398
  0
LINE
  5
560
100
AcDbEntity
  8
1
  6
CONTINUOUS
 62
     3
100
AcDbLine
 10
346.163
 20
-866.3957
 30
0.0
 11
335.9206
 21
-866.3957
 31
0.0
  0
LINE
  5
561
100
AcDbEntity
  8
1
  6
CONTINUOUS
 62
     3
100
AcDbLine
 10
370.9915
 20
-866.3957
 30
0.0
 11
350.5906
 21
-866.3957
 31
0.0
  0
POLYLINE
  5
562
100
AcDbEntity
  8
1
  6
CONTINUOUS
 62
     7
100
AcDb2dPolyline
 66
     1
 10
0.0
 20
0.0
 30
0.0
  0
VERTEX
  5
563
100
AcDbEntity
  8
1
  6
CONTINUOUS
 62
     7
100
AcDbVertex
100
AcDb2dVertex
 10
350.590669
 20
-840.53835
 30
0.0
 42
-0.068203
  0
VERTEX
  5
564
100
AcDbEntity
  8
1
  6
CONTINUOUS
 62
     7
100
AcDbVertex
100
AcDb2dVertex
 10
346.777279
 20
-864.449957
 30
0.0
 42
-0.005721
  0
VERTEX
  5
565
100
AcDbEntity
  8
1
  6
CONTINUOUS
 62
     7
100
AcDbVertex
100
AcDb2dVertex
 10
346.163
 20
-866.3957
 30
0.0
  0
VERTEX
  5
566
100
AcDbEntity
  8
1
  6
CONTINUOUS
 62
     7
100
AcDbVertex
100
AcDb2dVertex
 10
350.5906
 20
-866.3957
 30
0.0
  0
VERTEX
  5
567
100
AcDbEntity
  8
1
  6
CONTINUOUS
 62
     7
100
AcDbVertex
100
AcDb2dVertex
 10
350.5906
 20
-840.5383
 30
0.0
  0
SEQEND
  5
568
100
AcDbEntity
  8
1
  6
CONTINUOUS
 62
     7
  0
LINE
  5
569
100
AcDbEntity
  8
1
  6
CONTINUOUS
 62
     7
100
AcDbLine
 10
348.8796
 20
-866.3957
 30
0.0
 11
346.8136
 21
-864.3298
 31
0.0
  0
LINE
  5
56A
100
AcDbEntity
  8
1
  6
CONTINUOUS
 62
     7
100
AcDbLine
 10
350.5906
 20
-864.8982
 30
0.0
 11
347.5099
 21
-861.8174
 31
0.0
  0
LINE
  5
56B
100
AcDbEntity
  8
1
  6
CONTINUOUS
 62
     7
100
AcDbLine
 10
350.5906
 20
-861.6896
 30
0.0
 11
348.1617
 21
-859.2605
 31
0.0
  0
LINE
  5
56C
100
AcDbEntity
  8
1
  6
CONTINUOUS
 62
     7
100
AcDbLine
 10
350.5906
 20
-858.481
 30
0.0
 11
348.7592
 21
-856.6493
 31
0.0
  0
LINE
  5
56D
100
AcDbEntity
  8
1
  6
CONTINUOUS
 62
     7
100
AcDbLine
 10
350.5906
 20
-855.272
 30
0.0
 11
349.2585
 21
-853.94
 31
0.0
  0
LINE
  5
56E
100
AcDbEntity
  8
1
  6
CONTINUOUS
 62
     7
100
AcDbLine
 10
350.5906
 20
-852.0635
 30
0.0
 11
349.6982
 21
-851.1711
 31
0.0
  0
LINE
  5
56F
100
AcDbEntity
  8
1
  6
CONTINUOUS
 62
     7
100
AcDbLine
 10
350.5906
 20
-848.8548
 30
0.0
 11
350.0721
 21
-848.3361
 31
0.0
  0
LINE
  5
570
100
AcDbEntity
  8
1
  6
CONTINUOUS
 62
     7
100
AcDbLine
 10
350.5906
 20
-845.646
 30
0.0
 11
350.3366
 21
-845.392
 31
0.0
  0
LINE
  5
571
100
AcDbEntity
  8
1
  6
CONTINUOUS
 62
     7
100
AcDbLine
 10
350.5906
 20
-842.4373
 30
0.0
 11
350.5097
 21
-842.3564
 31
0.0
  0
LINE
  5
572
100
AcDbEntity
  8
1
  6
CONTINUOUS
 62
     3
100
AcDbLine
 10
335.8806
 20
-896.5502
 30
0.0
 11
302.2605
 21
-896.5502
 31
0.0
  0
POLYLINE
  5
573
100
AcDbEntity
  8
1
  6
CONTINUOUS
 62
     7
100
AcDb2dPolyline
 66
     1
 10
0.0
 20
0.0
 30
0.0
  0
VERTEX
  5
574
100
AcDbEntity
  8
1
  6
CONTINUOUS
 62
     7
100
AcDbVertex
100
AcDb2dVertex
 10
302.2605
 20
-896.5502
 30
0.0
  0
VERTEX
  5
575
100
AcDbEntity
  8
1
  6
CONTINUOUS
 62
     7
100
AcDbVertex
100
AcDb2dVertex
 10
269.366771
 20
-896.550136
 30
0.0
 42
0.067515
  0
VERTEX
  5
576
100
AcDbEntity
  8
1
  6
CONTINUOUS
 62
     7
100
AcDbVertex
100
AcDb2dVertex
 10
295.261262
 20
-901.183351
 30
0.0
 42
0.389685
  0
VERTEX
  5
577
100
AcDbEntity
  8
1
  6
CONTINUOUS
 62
     7
100
AcDbVertex
100
AcDb2dVertex
 10
302.260374
 20
-896.550136
 30
0.0
  0
SEQEND
  5
578
100
AcDbEntity
  8
1
  6
CONTINUOUS
 62
     7
  0
LINE
  5
579
100
AcDbEntity
  8
1
  6
CONTINUOUS
 62
     7
100
AcDbLine
 10
272.1591
 20
-897.3844
 30
0.0
 11
271.3248
 21
-896.5502
 31
0.0
  0
LINE
  5
57A
100
AcDbEntity
  8
1
  6
CONTINUOUS
 62
     7
100
AcDbLine
 10
276.5285
 20
-898.5451
 30
0.0
 11
274.5332
 21
-896.5502
 31
0.0
  0
LINE
  5
57B
100
AcDbEntity
  8
1
  6
CONTINUOUS
 62
     7
100
AcDbLine
 10
280.6302
 20
-899.4382
 30
0.0
 11
277.7421
 21
-896.5502
 31
0.0
  0
LINE
  5
57C
100
AcDbEntity
  8
1
  6
CONTINUOUS
 62
     7
100
AcDbLine
 10
284.5142
 20
-900.1136
 30
0.0
 11
280.9509
 21
-896.5502
 31
0.0
  0
LINE
  5
57D
100
AcDbEntity
  8
1
  6
CONTINUOUS
 62
     7
100
AcDbLine
 10
288.2177
 20
-900.6082
 30
0.0
 11
284.1595
 21
-896.5502
 31
0.0
  0
LINE
  5
57E
100
AcDbEntity
  8
1
  6
CONTINUOUS
 62
     7
100
AcDbLine
 10
291.7689
 20
-900.9508
 30
0.0
 11
287.3681
 21
-896.5502
 31
0.0
  0
LINE
  5
57F
100
AcDbEntity
  8
1
  6
CONTINUOUS
 62
     7
100
AcDbLine
 10
295.2076
 20
-901.1807
 30
0.0
 11
290.5769
 21
-896.5502
 31
0.0
  0
LINE
  5
580
100
AcDbEntity
  8
1
  6
CONTINUOUS
 62
     7
100
AcDbLine
 10
298.1718
 20
-900.9361
 30
0.0
 11
293.7856
 21
-896.5502
 31
0.0
  0
LINE
  5
581
100
AcDbEntity
  8
1
  6
CONTINUOUS
 62
     7
100
AcDbLine
 10
300.2401
 20
-899.796
 30
0.0
 11
296.9944
 21
-896.5502
 31
0.0
  0
LINE
  5
582
100
AcDbEntity
  8
1
  6
CONTINUOUS
 62
     7
100
AcDbLine
 10
301.6735
 20
-898.0206
 30
0.0
 11
300.2031
 21
-896.5502
 31
0.0
  0
LINE
  5
583
100
AcDbEntity
  8
1
  6
CONTINUOUS
 62
     7
100
AcDbLine
 10
414.001
 20
-905.6258
 30
0.0
 11
387.1743
 21
-905.6258
 31
0.0
  0
ARC
  5
584
100
AcDbEntity
  8
1
  6
CONTINUOUS
 62
     7
100
AcDbCircle
 10
387.271728
 20
-906.731065
 30
0.0
 40
1.109652
210
0.0
220
0.0
230
1.0
100
AcDbArc
 50
95.041183
 51
264.958817
  0
LINE
  5
585
100
AcDbEntity
  8
1
  6
CONTINUOUS
 62
     7
100
AcDbLine
 10
387.1743
 20
-907.8365
 30
0.0
 11
454.6128
 21
-907.8365
 31
0.0
  0
LINE
  5
586
100
AcDbEntity
  8
1
  6
CONTINUOUS
 62
     7
100
AcDbLine
 10
454.6128
 20
-896.5502
 30
0.0
 11
432.3965
 21
-896.5502
 31
0.0
  0
ARC
  5
587
100
AcDbEntity
  8
1
  6
CONTINUOUS
 62
     7
100
AcDbCircle
 10
432.619029
 20
-910.87038
 30
0.0
 40
14.321973
210
0.0
220
0.0
230
1.0
100
AcDbArc
 50
90.890372
 51
135.481678
  0
ARC
  5
588
100
AcDbEntity
  8
1
  6
CONTINUOUS
 62
     7
100
AcDbCircle
 10
410.573469
 20
-889.855783
 30
0.0
 40
16.138141
210
0.0
220
0.0
230
1.0
100
AcDbArc
 50
282.262528
 51
317.161242
  0
LINE
  5
589
100
AcDbEntity
  8
1
  6
CONTINUOUS
 62
     7
100
AcDbLine
 10
389.9343
 20
-907.8365
 30
0.0
 11
387.7236
 21
-905.6258
 31
0.0
  0
LINE
  5
58A
100
AcDbEntity
  8
1
  6
CONTINUOUS
 62
     7
100
AcDbLine
 10
393.143
 20
-907.8365
 30
0.0
 11
390.9323
 21
-905.6258
 31
0.0
  0
LINE
  5
58B
100
AcDbEntity
  8
1
  6
CONTINUOUS
 62
     7
100
AcDbLine
 10
396.3517
 20
-907.8365
 30
0.0
 11
394.141
 21
-905.6258
 31
0.0
  0
LINE
  5
58C
100
AcDbEntity
  8
1
  6
CONTINUOUS
 62
     7
100
AcDbLine
 10
399.5606
 20
-907.8365
 30
0.0
 11
397.3497
 21
-905.6258
 31
0.0
  0
LINE
  5
58D
100
AcDbEntity
  8
1
  6
CONTINUOUS
 62
     7
100
AcDbLine
 10
402.7691
 20
-907.8365
 30
0.0
 11
400.5585
 21
-905.6258
 31
0.0
  0
LINE
  5
58E
100
AcDbEntity
  8
1
  6
CONTINUOUS
 62
     7
100
AcDbLine
 10
405.978
 20
-907.8365
 30
0.0
 11
403.7671
 21
-905.6258
 31
0.0
  0
LINE
  5
58F
100
AcDbEntity
  8
1
  6
CONTINUOUS
 62
     7
100
AcDbLine
 10
409.1865
 20
-907.8365
 30
0.0
 11
406.9759
 21
-905.6258
 31
0.0
  0
LINE
  5
590
100
AcDbEntity
  8
1
  6
CONTINUOUS
 62
     7
100
AcDbLine
 10
412.3953
 20
-907.8365
 30
0.0
 11
410.1845
 21
-905.6258
 31
0.0
  0
LINE
  5
591
100
AcDbEntity
  8
1
  6
CONTINUOUS
 62
     7
100
AcDbLine
 10
415.6041
 20
-907.8365
 30
0.0
 11
413.3934
 21
-905.6258
 31
0.0
  0
LINE
  5
592
100
AcDbEntity
  8
1
  6
CONTINUOUS
 62
     7
100
AcDbLine
 10
418.8127
 20
-907.8365
 30
0.0
 11
416.0049
 21
-905.0285
 31
0.0
  0
LINE
  5
593
100
AcDbEntity
  8
1
  6
CONTINUOUS
 62
     7
100
AcDbLine
 10
422.0214
 20
-907.8365
 30
0.0
 11
418.2353
 21
-904.0504
 31
0.0
  0
LINE
  5
594
100
AcDbEntity
  8
1
  6
CONTINUOUS
 62
     7
100
AcDbLine
 10
425.2301
 20
-907.8365
 30
0.0
 11
420.1886
 21
-902.7948
 31
0.0
  0
LINE
  5
595
100
AcDbEntity
  8
1
  6
CONTINUOUS
 62
     7
100
AcDbLine
 10
428.4389
 20
-907.8365
 30
0.0
 11
421.9271
 21
-901.3247
 31
0.0
  0
LINE
  5
596
100
AcDbEntity
  8
1
  6
CONTINUOUS
 62
     7
100
AcDbLine
 10
431.6476
 20
-907.8365
 30
0.0
 11
423.5798
 21
-899.7688
 31
0.0
  0
LINE
  5
597
100
AcDbEntity
  8
1
  6
CONTINUOUS
 62
     7
100
AcDbLine
 10
434.8562
 20
-907.8365
 30
0.0
 11
425.493
 21
-898.4732
 31
0.0
  0
LINE
  5
598
100
AcDbEntity
  8
1
  6
CONTINUOUS
 62
     7
100
AcDbLine
 10
438.0649
 20
-907.8365
 30
0.0
 11
427.6621
 21
-897.4336
 31
0.0
  0
LINE
  5
599
100
AcDbEntity
  8
1
  6
CONTINUOUS
 62
     7
100
AcDbLine
 10
441.2737
 20
-907.8365
 30
0.0
 11
430.2109
 21
-896.7737
 31
0.0
  0
LINE
  5
59A
100
AcDbEntity
  8
1
  6
CONTINUOUS
 62
     7
100
AcDbLine
 10
444.4823
 20
-907.8365
 30
0.0
 11
433.196
 21
-896.5502
 31
0.0
  0
LINE
  5
59B
100
AcDbEntity
  8
1
  6
CONTINUOUS
 62
     7
100
AcDbLine
 10
447.6911
 20
-907.8365
 30
0.0
 11
436.4049
 21
-896.5502
 31
0.0
  0
LINE
  5
59C
100
AcDbEntity
  8
1
  6
CONTINUOUS
 62
     7
100
AcDbLine
 10
450.8998
 20
-907.8365
 30
0.0
 11
439.6134
 21
-896.5502
 31
0.0
  0
LINE
  5
59D
100
AcDbEntity
  8
1
  6
CONTINUOUS
 62
     7
100
AcDbLine
 10
454.1085
 20
-907.8365
 30
0.0
 11
442.8222
 21
-896.5502
 31
0.0
  0
LINE
  5
59E
100
AcDbEntity
  8
1
  6
CONTINUOUS
 62
     7
100
AcDbLine
 10
454.6128
 20
-905.1319
 30
0.0
 11
446.0307
 21
-896.5502
 31
0.0
  0
LINE
  5
59F
100
AcDbEntity
  8
1
  6
CONTINUOUS
 62
     7
100
AcDbLine
 10
454.6128
 20
-901.9232
 30
0.0
 11
449.2397
 21
-896.5502
 31
0.0
  0
LINE
  5
5A0
100
AcDbEntity
  8
1
  6
CONTINUOUS
 62
     7
100
AcDbLine
 10
454.6128
 20
-898.7147
 30
0.0
 11
452.4483
 21
-896.5502
 31
0.0
  0
LINE
  5
5A1
100
AcDbEntity
  8
1
  6
HIDDEN
 62
     7
100
AcDbLine
 10
295.2612
 20
-901.1834
 30
0.0
 11
303.6427
 21
-903.4885
 31
0.0
  0
LINE
  5
5A2
100
AcDbEntity
  8
1
  6
CONTINUOUS
 62
     7
100
AcDbLine
 10
382.1432
 20
-869.5253
 30
0.0
 11
387.7056
 21
-858.4038
 31
0.0
  0
LINE
  5
5A3
100
AcDbEntity
  8
1
  6
CONTINUOUS
 62
     7
100
AcDbLine
 10
386.6502
 20
-871.7795
 30
0.0
 11
391.8042
 21
-861.4742
 31
0.0
  0
LINE
  5
5A4
100
AcDbEntity
  8
1
  6
CONTINUOUS
 62
     7
100
AcDbLine
 10
309.2075
 20
-992.746
 30
0.0
 11
424.3049
 21
-992.746
 31
0.0
  0
TEXT
  5
5A5
100
AcDbEntity
  8
1
  6
CONTINUOUS
 62
     7
100
AcDbText
 10
310.5743
 20
-990.6437
 30
0.0
 40
4.2
  1
(I)  TYPICAL INTERSECTIONS MARKINGS
  7
TXT
210
0.0
220
0.0
230
1.0
100
AcDbText
  0
TEXT
  5
5A6
100
AcDbEntity
  8
1
  6
CONTINUOUS
 62
     7
100
AcDbText
 10
415.3753
 20
-1022.9315
 30
0.0
 40
3.0
  1
NOTE:
  7
MONOTXT
 72
     4
 11
421.6115
 21
-1021.4315
 31
0.0
210
0.0
220
0.0
230
1.0
100
AcDbText
  0
TEXT
  5
5A7
100
AcDbEntity
  8
1
  6
CONTINUOUS
 62
     7
100
AcDbText
 10
258.9503
 20
-852.1562
 30
0.0
 40
3.0
  1
TYPICAL PAINTED ISLAND
  7
MONOTXT
 72
     4
 11
287.7337
 21
-850.6562
 31
0.0
210
0.0
220
0.0
230
1.0
100
AcDbText
  0
TEXT
  5
5A8
100
AcDbEntity
  8
1
  6
CONTINUOUS
 62
     7
100
AcDbText
 10
266.6748
 20
-857.5562
 30
0.0
 40
3.0
  1
DETAIL A - TEM-3
  7
MONOTXT
 72
     4
 11
287.7338
 21
-856.0562
 31
0.0
210
0.0
220
0.0
230
1.0
100
AcDbText
  0
LINE
  5
5A9
100
AcDbEntity
  8
1
  6
CONTINUOUS
 62
     7
100
AcDbLine
 10
347.7494
 20
-860.9943
 30
0.0
 11
324.4743
 21
-850.3887
 31
0.0
  0
LINE
  5
5AA
100
AcDbEntity
  8
1
  6
CONTINUOUS
 62
     7
100
AcDbLine
 10
324.4743
 20
-850.3887
 30
0.0
 11
317.5524
 21
-850.3887
 31
0.0
  0
INSERT
  5
5AB
100
AcDbEntity
  8
1
  6
CONTINUOUS
 62
     1
100
AcDbBlockReference
  2
LDR
 10
347.7436
 20
-860.981
 30
0.0
 41
239.999999
 42
239.999999
 50
335.503011
210
0.0
220
0.0
230
1.0
  0
LINE
  5
5AC
100
AcDbEntity
  8
1
  6
CONTINUOUS
 62
     7
100
AcDbLine
 10
376.8784
 20
-866.8922
 30
0.0
 11
396.0415
 21
-831.4005
 31
0.0
  0
LINE
  5
5AD
100
AcDbEntity
  8
1
  6
CONTINUOUS
 62
     7
100
AcDbLine
 10
396.0415
 20
-831.4005
 30
0.0
 11
409.5285
 21
-831.4005
 31
0.0
  0
INSERT
  5
5AE
100
AcDbEntity
  8
1
  6
CONTINUOUS
 62
     1
100
AcDbBlockReference
  2
LDR
 10
376.8784
 20
-866.8922
 30
0.0
 41
240.000002
 42
240.000002
 50
241.633976
210
0.0
220
0.0
230
1.0
  0
LINE
  5
5AF
100
AcDbEntity
  8
1
  6
CONTINUOUS
 62
     7
100
AcDbLine
 10
438.9946
 20
-857.6843
 30
0.0
 11
444.507
 21
-857.6843
 31
0.0
  0
LINE
  5
5B0
100
AcDbEntity
  8
1
  6
CONTINUOUS
 62
     7
100
AcDbLine
 10
438.9946
 20
-857.6843
 30
0.0
 11
403.9821
 21
-878.3753
 31
0.0
  0
LINE
  5
5B1
100
AcDbEntity
  8
1
  6
CONTINUOUS
 62
     7
100
AcDbLine
 10
438.9946
 20
-857.6843
 30
0.0
 11
403.686
 21
-896.5502
 31
0.0
  0
INSERT
  5
5B2
100
AcDbEntity
  8
1
  6
CONTINUOUS
 62
     1
100
AcDbBlockReference
  2
LDR
 10
403.9821
 20
-878.3753
 30
0.0
 41
239.999998
 42
239.999998
 50
210.581405
210
0.0
220
0.0
230
1.0
  0
INSERT
  5
5B3
100
AcDbEntity
  8
1
  6
CONTINUOUS
 62
     1
100
AcDbBlockReference
  2
LDR
 10
403.9821
 20
-878.3753
 30
0.0
 41
239.999998
 42
239.999998
 50
210.581405
210
0.0
220
0.0
230
1.0
  0
INSERT
  5
5B4
100
AcDbEntity
  8
1
  6
CONTINUOUS
 62
     1
100
AcDbBlockReference
  2
LDR
 10
403.686
 20
-896.5502
 30
0.0
 41
240.000001
 42
240.000001
 50
227.745718
210
0.0
220
0.0
230
1.0
  0
LINE
  5
5B5
100
AcDbEntity
  8
1
  6
CONTINUOUS
 62
     7
100
AcDbLine
 10
425.8541
 20
-935.9688
 30
0.0
 11
429.7699
 21
-935.9688
 31
0.0
  0
LINE
  5
5B6
100
AcDbEntity
  8
1
  6
CONTINUOUS
 62
     7
100
AcDbLine
 10
425.8541
 20
-935.9688
 30
0.0
 11
392.303
 21
-887.4747
 31
0.0
  0
TEXT
  5
5B7
100
AcDbEntity
  8
1
  6
CONTINUOUS
 62
     7
100
AcDbText
 10
410.3858
 20
-958.8182
 30
0.0
 40
3.0
  1
NOTES 2 AND 7
  7
MONOTXT
 11
410.3858
 21
-955.8182
 31
0.0
210
0.0
220
0.0
230
1.0
100
AcDbText
 73
     3
  0
LINE
  5
5B8
100
AcDbEntity
  8
1
  6
CONTINUOUS
 62
     7
100
AcDbLine
 10
399.7985
 20
-957.1701
 30
0.0
 11
409.0091
 21
-957.1701
 31
0.0
  0
LINE
  5
5B9
100
AcDbEntity
  8
1
  6
CONTINUOUS
 62
     7
100
AcDbLine
 10
399.7985
 20
-957.1701
 30
0.0
 11
380.0343
 21
-921.4325
 31
0.0
  0
INSERT
  5
5BA
100
AcDbEntity
  8
1
  6
CONTINUOUS
 62
     1
100
AcDbBlockReference
  2
LDR
 10
380.0343
 20
-921.4325
 30
0.0
 41
240.000003
 42
240.000003
 50
118.944199
210
0.0
220
0.0
230
1.0
  0
TEXT
  5
5BB
100
AcDbEntity
  8
1
  6
CONTINUOUS
 62
     7
100
AcDbText
 10
302.9837
 20
-930.9359
 30
0.0
 40
3.0
  1
SEE NOTE 8
  7
MONOTXT
 11
302.9837
 21
-927.9359
 31
0.0
210
0.0
220
0.0
230
1.0
100
AcDbText
 73
     3
  0
TEXT
  5
5BC
100
AcDbEntity
  8
1
  6
CONTINUOUS
 62
     7
100
AcDbText
 10
282.1362
 20
-939.5101
 30
0.0
 40
3.0
  1
TYPICAL LANE SHUNT
  7
MONOTXT
 72
     4
 11
306.9511
 21
-938.0101
 31
0.0
210
0.0
220
0.0
230
1.0
100
AcDbText
  0
TEXT
  5
5BD
100
AcDbEntity
  8
1
  6
CONTINUOUS
 62
     7
100
AcDbText
 10
285.7503
 20
-944.9101
 30
0.0
 40
3.0
  1
DETAIL B - TEM-3
  7
MONOTXT
 72
     4
 11
306.9511
 21
-943.4101
 31
0.0
210
0.0
220
0.0
230
1.0
100
AcDbText
  0
LINE
  5
5BE
100
AcDbEntity
  8
1
  6
CONTINUOUS
 62
     7
100
AcDbLine
 10
334.431
 20
-910.444
 30
0.0
 11
342.0554
 21
-929.1481
 31
0.0
  0
LINE
  5
5BF
100
AcDbEntity
  8
1
  6
CONTINUOUS
 62
     7
100
AcDbLine
 10
342.0554
 20
-929.1481
 30
0.0
 11
332.0494
 21
-929.1481
 31
0.0
  0
INSERT
  5
5C0
100
AcDbEntity
  8
1
  6
CONTINUOUS
 62
     1
100
AcDbBlockReference
  2
LDR
 10
334.431
 20
-910.444
 30
0.0
 41
239.999999
 42
239.999999
 50
112.177409
210
0.0
220
0.0
230
1.0
  0
LINE
  5
5C1
100
AcDbEntity
  8
1
  6
CONTINUOUS
 62
     7
100
AcDbLine
 10
285.3634
 20
-900.2597
 30
0.0
 11
270.5447
 21
-937.5963
 31
0.0
  0
LINE
  5
5C2
100
AcDbEntity
  8
1
  6
CONTINUOUS
 62
     7
100
AcDbLine
 10
270.5447
 20
-937.5963
 30
0.0
 11
281.7441
 21
-937.5963
 31
0.0
  0
INSERT
  5
5C3
100
AcDbEntity
  8
1
  6
CONTINUOUS
 62
     1
100
AcDbBlockReference
  2
LDR
 10
285.3634
 20
-900.2597
 30
0.0
 41
239.999999
 42
239.999999
 50
68.352132
210
0.0
220
0.0
230
1.0
  0
TEXT
  5
5C4
100
AcDbEntity
  8
1
  6
CONTINUOUS
 62
     7
100
AcDbText
 10
302.0314
 20
-902.733
 30
0.0
 40
6.0
  1
*
  7
MONOTXT
 11
302.0314
 21
-896.733
 31
0.0
210
0.0
220
0.0
230
1.0
100
AcDbText
 73
     3
  0
TEXT
  5
5C5
100
AcDbEntity
  8
1
  6
CONTINUOUS
 62
     7
100
AcDbText
 10
376.2961
 20
-970.2263
 30
0.0
 40
6.0
  1
*
  7
MONOTXT
 11
376.2961
 21
-964.2263
 31
0.0
210
0.0
220
0.0
230
1.0
100
AcDbText
 73
     3
  0
TEXT
  5
5C6
100
AcDbEntity
  8
1
  6
CONTINUOUS
 62
     7
100
AcDbText
 10
343.616
 20
-831.0155
 30
0.0
 40
6.0
  1
*
  7
MONOTXT
 11
343.616
 21
-825.0155
 31
0.0
210
0.0
220
0.0
230
1.0
100
AcDbText
 73
     3
  0
INSERT
  5
5C7
100
AcDbEntity
  8
1
  6
CONTINUOUS
 62
     1
100
AcDbBlockReference
  2
LDR
 10
392.303
 20
-887.4747
 30
0.0
 41
240.000001
 42
240.000001
 50
124.677787
210
0.0
220
0.0
230
1.0
  0
TEXT
  5
5C8
100
AcDbEntity
  8
1
  6
CONTINUOUS
 62
     7
100
AcDbText
 10
350.961
 20
-896.8227
 30
0.0
 40
3.0
  1
TRAFFIC
  7
MONOTXT
 72
     4
 11
359.7602
 21
-895.3227
 31
0.0
210
0.0
220
0.0
230
1.0
100
AcDbText
  0
TEXT
  5
5C9
100
AcDbEntity
  8
1
  6
CONTINUOUS
 62
     7
100
AcDbText
 10
352.4492
 20
-902.2227
 30
0.0
 40
3.0
  1
SIGNAL
  7
MONOTXT
 72
     4
 11
359.7602
 21
-900.7227
 31
0.0
210
0.0
220
0.0
230
1.0
100
AcDbText
  0
LINE
  5
5CA
100
AcDbEntity
  8
1
  6
CONTINUOUS
 62
     3
100
AcDbLine
 10
-15.7062
 20
-706.5182
 30
0.0
 11
209.8938
 21
-706.5182
 31
0.0
  0
LINE
  5
5CB
100
AcDbEntity
  8
1
  6
CONTINUOUS
 62
     3
100
AcDbLine
 10
-15.7062
 20
-734.7182
 30
0.0
 11
209.8938
 21
-734.7182
 31
0.0
  0
LINE
  5
5CC
100
AcDbEntity
  8
1
  6
CONTINUOUS
 62
     7
100
AcDbLine
 10
181.6089
 20
-1004.9731
 30
0.0
 11
189.9281
 21
-1004.9731
 31
0.0
  0
LINE
  5
5CD
100
AcDbEntity
  8
1
  6
CONTINUOUS
 62
     7
100
AcDbLine
 10
181.4881
 20
-1053.9734
 30
0.0
 11
185.7173
 21
-1040.3234
 31
0.0
  0
LINE
  5
5CE
100
AcDbEntity
  8
1
  6
CONTINUOUS
 62
     7
100
AcDbLine
 10
185.7173
 20
-1040.3234
 30
0.0
 11
189.9281
 21
-1004.9731
 31
0.0
  0
INSERT
  5
5CF
100
AcDbEntity
  8
1
  6
CONTINUOUS
 62
     1
100
AcDbBlockReference
  2
LDR
 10
185.7173
 20
-1040.3234
 30
0.0
 41
240.000001
 42
240.000001
 50
263.20714
210
0.0
220
0.0
230
1.0
  0
INSERT
  5
5D0
100
AcDbEntity
  8
1
  6
CONTINUOUS
 62
     1
100
AcDbBlockReference
  2
LDR
 10
185.7173
 20
-1040.3234
 30
0.0
 41
240.000001
 42
240.000001
 50
263.20714
210
0.0
220
0.0
230
1.0
  0
INSERT
  5
5D1
100
AcDbEntity
  8
1
  6
CONTINUOUS
 62
     1
100
AcDbBlockReference
  2
LDR
 10
181.4881
 20
-1053.9734
 30
0.0
 41
240.000001
 42
240.000001
 50
252.785373
210
0.0
220
0.0
230
1.0
  0
POLYLINE
  5
5D2
100
AcDbEntity
  8
1
  6
CONTINUOUS
 62
     1
100
AcDb2dPolyline
 66
     1
 10
0.0
 20
0.0
 30
0.0
 70
     1
  0
VERTEX
  5
5D3
100
AcDbEntity
  8
1
  6
CONTINUOUS
 62
     1
100
AcDbVertex
100
AcDb2dVertex
 10
393.4272
 20
-881.3439
 30
0.0
  0
VERTEX
  5
5D4
100
AcDbEntity
  8
1
  6
CONTINUOUS
 62
     1
100
AcDbVertex
100
AcDb2dVertex
 10
389.3686
 20
-882.8754
 30
0.0
  0
VERTEX
  5
5D5
100
AcDbEntity
  8
1
  6
CONTINUOUS
 62
     1
100
AcDbVertex
100
AcDb2dVertex
 10
393.4272
 20
-884.4067
 30
0.0
  0
VERTEX
  5
5D6
100
AcDbEntity
  8
1
  6
CONTINUOUS
 62
     1
100
AcDbVertex
100
AcDb2dVertex
 10
392.9676
 20
-883.2581
 30
0.0
  0
VERTEX
  5
5D7
100
AcDbEntity
  8
1
  6
CONTINUOUS
 62
     1
100
AcDbVertex
100
AcDb2dVertex
 10
399.7064
 20
-883.2581
 30
0.0
  0
VERTEX
  5
5D8
100
AcDbEntity
  8
1
  6
CONTINUOUS
 62
     1
100
AcDbVertex
100
AcDb2dVertex
 10
399.7064
 20
-882.4925
 30
0.0
  0
VERTEX
  5
5D9
100
AcDbEntity
  8
1
  6
CONTINUOUS
 62
     1
100
AcDbVertex
100
AcDb2dVertex
 10
397.792
 20
-882.4925
 30
0.0
  0
VERTEX
  5
5DA
100
AcDbEntity
  8
1
  6
CONTINUOUS
 62
     1
100
AcDbVertex
100
AcDb2dVertex
 10
399.7064
 20
-882.4925
 30
0.0
  0
VERTEX
  5
5DB
100
AcDbEntity
  8
1
  6
CONTINUOUS
 62
     1
100
AcDbVertex
100
AcDb2dVertex
 10
392.9676
 20
-882.4925
 30
0.0
  0
VERTEX
  5
5DC
100
AcDbEntity
  8
1
  6
CONTINUOUS
 62
     1
100
AcDbVertex
100
AcDb2dVertex
 10
393.4272
 20
-881.3439
 30
0.0
  0
SEQEND
  5
5DD
100
AcDbEntity
  8
1
  6
CONTINUOUS
 62
     1
  0
POLYLINE
  5
5DE
100
AcDbEntity
  8
1
  6
CONTINUOUS
 62
     1
100
AcDb2dPolyline
 66
     1
 10
0.0
 20
0.0
 30
0.0
 70
     1
  0
VERTEX
  5
5DF
100
AcDbEntity
  8
1
  6
CONTINUOUS
 62
     1
100
AcDbVertex
100
AcDb2dVertex
 10
414.7173
 20
-881.3439
 30
0.0
  0
VERTEX
  5
5E0
100
AcDbEntity
  8
1
  6
CONTINUOUS
 62
     1
100
AcDbVertex
100
AcDb2dVertex
 10
410.6587
 20
-882.8754
 30
0.0
  0
VERTEX
  5
5E1
100
AcDbEntity
  8
1
  6
CONTINUOUS
 62
     1
100
AcDbVertex
100
AcDb2dVertex
 10
414.7173
 20
-884.4067
 30
0.0
  0
VERTEX
  5
5E2
100
AcDbEntity
  8
1
  6
CONTINUOUS
 62
     1
100
AcDbVertex
100
AcDb2dVertex
 10
414.2577
 20
-883.2581
 30
0.0
  0
VERTEX
  5
5E3
100
AcDbEntity
  8
1
  6
CONTINUOUS
 62
     1
100
AcDbVertex
100
AcDb2dVertex
 10
420.9965
 20
-883.2581
 30
0.0
  0
VERTEX
  5
5E4
100
AcDbEntity
  8
1
  6
CONTINUOUS
 62
     1
100
AcDbVertex
100
AcDb2dVertex
 10
420.9965
 20
-882.4925
 30
0.0
  0
VERTEX
  5
5E5
100
AcDbEntity
  8
1
  6
CONTINUOUS
 62
     1
100
AcDbVertex
100
AcDb2dVertex
 10
419.0821
 20
-882.4925
 30
0.0
  0
VERTEX
  5
5E6
100
AcDbEntity
  8
1
  6
CONTINUOUS
 62
     1
100
AcDbVertex
100
AcDb2dVertex
 10
420.9965
 20
-882.4925
 30
0.0
  0
VERTEX
  5
5E7
100
AcDbEntity
  8
1
  6
CONTINUOUS
 62
     1
100
AcDbVertex
100
AcDb2dVertex
 10
414.2577
 20
-882.4925
 30
0.0
  0
VERTEX
  5
5E8
100
AcDbEntity
  8
1
  6
CONTINUOUS
 62
     1
100
AcDbVertex
100
AcDb2dVertex
 10
414.7173
 20
-881.3439
 30
0.0
  0
SEQEND
  5
5E9
100
AcDbEntity
  8
1
  6
CONTINUOUS
 62
     1
  0
POLYLINE
  5
5EA
100
AcDbEntity
  8
1
  6
CONTINUOUS
 62
     1
100
AcDb2dPolyline
 66
     1
 10
0.0
 20
0.0
 30
0.0
 70
     1
  0
VERTEX
  5
5EB
100
AcDbEntity
  8
1
  6
CONTINUOUS
 62
     1
100
AcDbVertex
100
AcDb2dVertex
 10
393.0738
 20
-890.6228
 30
0.0
  0
VERTEX
  5
5EC
100
AcDbEntity
  8
1
  6
CONTINUOUS
 62
     1
100
AcDbVertex
100
AcDb2dVertex
 10
389.0152
 20
-892.1543
 30
0.0
  0
VERTEX
  5
5ED
100
AcDbEntity
  8
1
  6
CONTINUOUS
 62
     1
100
AcDbVertex
100
AcDb2dVertex
 10
393.0738
 20
-893.6856
 30
0.0
  0
VERTEX
  5
5EE
100
AcDbEntity
  8
1
  6
CONTINUOUS
 62
     1
100
AcDbVertex
100
AcDb2dVertex
 10
392.6142
 20
-892.537
 30
0.0
  0
VERTEX
  5
5EF
100
AcDbEntity
  8
1
  6
CONTINUOUS
 62
     1
100
AcDbVertex
100
AcDb2dVertex
 10
399.353
 20
-892.537
 30
0.0
  0
VERTEX
  5
5F0
100
AcDbEntity
  8
1
  6
CONTINUOUS
 62
     1
100
AcDbVertex
100
AcDb2dVertex
 10
399.353
 20
-891.7714
 30
0.0
  0
VERTEX
  5
5F1
100
AcDbEntity
  8
1
  6
CONTINUOUS
 62
     1
100
AcDbVertex
100
AcDb2dVertex
 10
397.4386
 20
-891.7714
 30
0.0
  0
VERTEX
  5
5F2
100
AcDbEntity
  8
1
  6
CONTINUOUS
 62
     1
100
AcDbVertex
100
AcDb2dVertex
 10
399.353
 20
-891.7714
 30
0.0
  0
VERTEX
  5
5F3
100
AcDbEntity
  8
1
  6
CONTINUOUS
 62
     1
100
AcDbVertex
100
AcDb2dVertex
 10
392.6142
 20
-891.7714
 30
0.0
  0
VERTEX
  5
5F4
100
AcDbEntity
  8
1
  6
CONTINUOUS
 62
     1
100
AcDbVertex
100
AcDb2dVertex
 10
393.0738
 20
-890.6228
 30
0.0
  0
SEQEND
  5
5F5
100
AcDbEntity
  8
1
  6
CONTINUOUS
 62
     1
  0
POLYLINE
  5
5F6
100
AcDbEntity
  8
1
  6
CONTINUOUS
 62
     1
100
AcDb2dPolyline
 66
     1
 10
0.0
 20
0.0
 30
0.0
 70
     1
  0
VERTEX
  5
5F7
100
AcDbEntity
  8
1
  6
CONTINUOUS
 62
     1
100
AcDbVertex
100
AcDb2dVertex
 10
414.7173
 20
-890.7112
 30
0.0
  0
VERTEX
  5
5F8
100
AcDbEntity
  8
1
  6
CONTINUOUS
 62
     1
100
AcDbVertex
100
AcDb2dVertex
 10
410.6587
 20
-892.2427
 30
0.0
  0
VERTEX
  5
5F9
100
AcDbEntity
  8
1
  6
CONTINUOUS
 62
     1
100
AcDbVertex
100
AcDb2dVertex
 10
414.7173
 20
-893.774
 30
0.0
  0
VERTEX
  5
5FA
100
AcDbEntity
  8
1
  6
CONTINUOUS
 62
     1
100
AcDbVertex
100
AcDb2dVertex
 10
414.2577
 20
-892.6254
 30
0.0
  0
VERTEX
  5
5FB
100
AcDbEntity
  8
1
  6
CONTINUOUS
 62
     1
100
AcDbVertex
100
AcDb2dVertex
 10
420.9965
 20
-892.6254
 30
0.0
  0
VERTEX
  5
5FC
100
AcDbEntity
  8
1
  6
CONTINUOUS
 62
     1
100
AcDbVertex
100
AcDb2dVertex
 10
420.9965
 20
-891.8598
 30
0.0
  0
VERTEX
  5
5FD
100
AcDbEntity
  8
1
  6
CONTINUOUS
 62
     1
100
AcDbVertex
100
AcDb2dVertex
 10
419.0821
 20
-891.8598
 30
0.0
  0
VERTEX
  5
5FE
100
AcDbEntity
  8
1
  6
CONTINUOUS
 62
     1
100
AcDbVertex
100
AcDb2dVertex
 10
420.9965
 20
-891.8598
 30
0.0
  0
VERTEX
  5
5FF
100
AcDbEntity
  8
1
  6
CONTINUOUS
 62
     1
100
AcDbVertex
100
AcDb2dVertex
 10
414.2577
 20
-891.8598
 30
0.0
  0
VERTEX
  5
600
100
AcDbEntity
  8
1
  6
CONTINUOUS
 62
     1
100
AcDbVertex
100
AcDb2dVertex
 10
414.7173
 20
-890.7112
 30
0.0
  0
SEQEND
  5
601
100
AcDbEntity
  8
1
  6
CONTINUOUS
 62
     1
  0
TEXT
  5
602
100
AcDbEntity
  8
1
  6
CONTINUOUS
 62
     7
100
AcDbText
 10
423.0963
 20
-1029.5709
 30
0.0
 40
3.0
  1
       THIS ARROW ONLY
  7
MONOTXT
 72
     4
 11
455.5057
 21
-1028.0709
 31
0.0
210
0.0
220
0.0
230
1.0
100
AcDbText
  0
TEXT
  5
603
100
AcDbEntity
  8
1
  6
CONTINUOUS
 62
     7
100
AcDbText
 10
416.175
 20
-1034.9709
 30
0.0
 40
3.0
  1
INDICATES DIRECTION OF TRAVEL.
  7
MONOTXT
 72
     4
 11
455.4938
 21
-1033.4709
 31
0.0
210
0.0
220
0.0
230
1.0
100
AcDbText
  0
TEXT
  5
604
100
AcDbEntity
  8
1
  6
CONTINUOUS
 62
     7
100
AcDbText
 10
313.5729
 20
-1048.5611
 30
0.0
 40
4.8
  1
*
  7
MONOTXT
 72
     4
 11
314.4989
 21
-1046.1611
 31
0.0
210
0.0
220
0.0
230
1.0
100
AcDbText
  0
TEXT
  5
605
100
AcDbEntity
  8
1
  6
CONTINUOUS
 62
     7
100
AcDbText
 10
313.3938
 20
-1043.2095
 30
0.0
 40
4.8
  1
*
  7
MONOTXT
 72
     4
 11
314.3198
 21
-1040.8095
 31
0.0
210
0.0
220
0.0
230
1.0
100
AcDbText
  0
TEXT
  5
606
100
AcDbEntity
  8
1
  6
CONTINUOUS
 62
     7
100
AcDbText
 10
202.7074
 20
-1095.6442
 30
0.0
 40
4.8
  1
*
  7
MONOTXT
 72
     4
 11
203.6334
 21
-1093.2442
 31
0.0
210
0.0
220
0.0
230
1.0
100
AcDbText
  0
LWPOLYLINE
  5
607
100
AcDbEntity
  8
1
  6
CONTINUOUS
 62
     7
100
AcDbPolyline
 90
        4
 70
     0
 10
499.0402
 20
-1107.0653
 10
496.6402
 20
-1111.2222
 10
501.4402
 20
-1111.2222
 10
499.0402
 20
-1107.0653
  0
TEXT
  5
608
100
AcDbEntity
  8
1
  6
CONTINUOUS
 62
     7
100
AcDbText
 10
498.4789
 20
-1110.6185
 30
0.0
 40
1.8
  1
6
  7
MONOTXT
210
0.0
220
0.0
230
1.0
100
AcDbText
  0
TEXT
  5
609
100
AcDbEntity
  8
1
  6
CONTINUOUS
 62
     7
100
AcDbText
 10
505.3674
 20
-1074.1765
 30
0.0
 40
1.8
  1
EDGE LINES
  7
MONOTXT
 11
505.3674
 21
-1072.3765
 31
0.0
210
0.0
220
0.0
230
1.0
100
AcDbText
 73
     3
  0
TEXT
  5
60A
100
AcDbEntity
  8
1
  6
CONTINUOUS
 62
     7
100
AcDbText
 10
505.3674
 20
-1077.1765
 30
0.0
 40
1.8
  1
 
  7
MONOTXT
 11
505.3674
 21
-1075.3765
 31
0.0
210
0.0
220
0.0
230
1.0
100
AcDbText
 73
     3
  0
TEXT
  5
60B
100
AcDbEntity
  8
1
  6
CONTINUOUS
 62
     7
100
AcDbText
 10
505.3674
 20
-1080.1765
 30
0.0
 40
1.8
  1
MODIFIED SPACING &
  7
MONOTXT
 11
505.3674
 21
-1078.3765
 31
0.0
210
0.0
220
0.0
230
1.0
100
AcDbText
 73
     3
  0
TEXT
  5
60C
100
AcDbEntity
  8
1
  6
CONTINUOUS
 62
     7
100
AcDbText
 10
505.3674
 20
-1083.1765
 30
0.0
 40
1.8
  1
NOTES 1, 2, 7 & 11
  7
MONOTXT
 11
505.3674
 21
-1081.3765
 31
0.0
210
0.0
220
0.0
230
1.0
100
AcDbText
 73
     3
  0
TEXT
  5
60D
100
AcDbEntity
  8
1
  6
CONTINUOUS
 62
     7
100
AcDbText
 10
505.3674
 20
-1086.1765
 30
0.0
 40
1.8
  1
 
  7
MONOTXT
 11
505.3674
 21
-1084.3765
 31
0.0
210
0.0
220
0.0
230
1.0
100
AcDbText
 73
     3
  0
TEXT
  5
60E
100
AcDbEntity
  8
1
  6
CONTINUOUS
 62
     7
100
AcDbText
 10
505.3674
 20
-1089.1765
 30
0.0
 40
1.8
  1
WHOLE SHEET
  7
MONOTXT
 11
505.3674
 21
-1087.3765
 31
0.0
210
0.0
220
0.0
230
1.0
100
AcDbText
 73
     3
  0
TEXT
  5
60F
100
AcDbEntity
  8
1
  6
CONTINUOUS
 62
     7
100
AcDbText
 10
505.3674
 20
-1092.1765
 30
0.0
 40
1.8
  1
 
  7
MONOTXT
 11
505.3674
 21
-1090.3765
 31
0.0
210
0.0
220
0.0
230
1.0
100
AcDbText
 73
     3
  0
TEXT
  5
610
100
AcDbEntity
  8
1
  6
CONTINUOUS
 62
     7
100
AcDbText
 10
505.3674
 20
-1095.1765
 30
0.0
 40
1.8
  1
ADDED R.R DISTANCE
  7
MONOTXT
 11
505.3674
 21
-1093.3765
 31
0.0
210
0.0
220
0.0
230
1.0
100
AcDbText
 73
     3
  0
TEXT
  5
611
100
AcDbEntity
  8
1
  6
CONTINUOUS
 62
     7
100
AcDbText
 10
505.3674
 20
-1098.1765
 30
0.0
 40
1.8
  1
TABLE AND EDGE
  7
MONOTXT
 11
505.3674
 21
-1096.3765
 31
0.0
210
0.0
220
0.0
230
1.0
100
AcDbText
 73
     3
  0
TEXT
  5
612
100
AcDbEntity
  8
1
  6
CONTINUOUS
 62
     7
100
AcDbText
 10
505.3674
 20
-1101.1765
 30
0.0
 40
1.8
  1
LINE EXTENSION
  7
MONOTXT
 11
505.3674
 21
-1099.3765
 31
0.0
210
0.0
220
0.0
230
1.0
100
AcDbText
 73
     3
  0
TEXT
  5
613
100
AcDbEntity
  8
1
  6
CONTINUOUS
 62
     7
100
AcDbText
 10
505.3674
 20
-1104.1765
 30
0.0
 40
1.8
  1
NOTE TO DETAIL C
  7
MONOTXT
 11
505.3674
 21
-1102.3765
 31
0.0
210
0.0
220
0.0
230
1.0
100
AcDbText
 73
     3
  0
TEXT
  5
614
100
AcDbEntity
  8
1
  6
CONTINUOUS
 62
     7
100
AcDbText
 10
505.3674
 20
-1107.1765
 30
0.0
 40
1.8
  1
 
  7
MONOTXT
 11
505.3674
 21
-1105.3765
 31
0.0
210
0.0
220
0.0
230
1.0
100
AcDbText
 73
     3
  0
TEXT
  5
615
100
AcDbEntity
  8
1
  6
CONTINUOUS
 62
     7
100
AcDbText
 10
505.3674
 20
-1110.1765
 30
0.0
 40
1.8
  1
ADDED METRIC
  7
MONOTXT
 11
505.3674
 21
-1108.3765
 31
0.0
210
0.0
220
0.0
230
1.0
100
AcDbText
 73
     3
  0
LWPOLYLINE
  5
616
100
AcDbEntity
  8
1
  6
CONTINUOUS
 62
     7
100
AcDbPolyline
 90
        4
 70
     0
 10
546.1199
 20
-1107.641
 10
543.7199
 20
-1111.7979
 10
548.5199
 20
-1111.7979
 10
546.1199
 20
-1107.641
  0
TEXT
  5
617
100
AcDbEntity
  8
1
  6
CONTINUOUS
 62
     1
100
AcDbText
 10
552.3977
 20
-1111.2166
 30
0.0
 40
2.4
  1
04-12-94
  7
MONOTXT
 72
     1
 11
560.6653
 21
-1108.8166
 31
0.0
210
0.0
220
0.0
230
1.0
100
AcDbText
 73
     3
  0
TEXT
  5
618
100
AcDbEntity
  8
1
  6
CONTINUOUS
 62
     7
100
AcDbText
 10
545.5093
 20
-1111.2434
 30
0.0
 40
1.8
  1
6
  7
MONOTXT
210
0.0
220
0.0
230
1.0
100
AcDbText
  0
INSERT
  5
67D
100
AcDbEntity
  8
1
  6
CONTINUOUS
 62
     2
100
AcDbBlockReference
 66
     1
  2
MTSD97
 10
-89.9199
 20
-591.9877
 30
0.0
 41
1000.0
 42
1000.0
210
0.0
220
0.0
230
1.0
  0
ATTRIB
  5
67E
100
AcDbEntity
  8
61
  6
CONTINUOUS
 62
     2
100
AcDbText
 10
634.5801
 20
-621.1877
 30
0.0
 40
3.0492
  1
  
 50
0.029406
 41
0.996655
  7
MONOTXT
210
0.0
220
0.0
230
1.0
100
AcDbAttribute
  2
TAG00
 70
     0
  0
ATTRIB
  5
67F
100
AcDbEntity
  8
61
  6
CONTINUOUS
 62
     2
100
AcDbText
 10
732.5801
 20
-621.4877
 30
0.0
 40
3.049199
  1
   
 50
0.011508
 41
1.000984
  7
MONOTXT
210
0.0
220
0.0
230
1.0
100
AcDbAttribute
  2
TAG10
 70
     0
  0
ATTRIB
  5
680
100
AcDbEntity
  8
61
  6
CONTINUOUS
 62
     2
100
AcDbText
 10
745.1801
 20
-621.5877
 30
0.0
 40
3.0492
  1
   
 50
359.922128
 41
1.00059
  7
MONOTXT
210
0.0
220
0.0
230
1.0
100
AcDbAttribute
  2
TAG20
 70
     0
  0
ATTRIB
  5
681
100
AcDbEntity
  8
61
  6
CONTINUOUS
 62
     2
100
AcDbText
 10
647.7801
 20
-617.1877
 30
0.0
 40
2.5482
  1
    
 50
0.054383
 41
0.993643
  7
MONOTXT
210
0.0
220
0.0
230
1.0
100
AcDbAttribute
  2
TAG30
 70
     0
  0
ATTRIB
  5
682
100
AcDbEntity
  8
61
  6
CONTINUOUS
 62
     2
100
AcDbText
 10
644.0801
 20
-621.0877
 30
0.0
 40
2.5266
  1
       
 50
0.064678
 41
1.00095
  7
MONOTXT
210
0.0
220
0.0
230
1.0
100
AcDbAttribute
  2
TAG40
 70
     0
  0
ATTRIB
  5
683
100
AcDbEntity
  8
61
  6
CONTINUOUS
 62
     2
100
AcDbText
 10
645.3801
 20
-624.7877
 30
0.0
 40
2.526599
  1
      
 50
359.958053
 41
1.000237
  7
MONOTXT
210
0.0
220
0.0
230
1.0
100
AcDbAttribute
  2
TAG50
 70
     0
  0
ATTRIB
  5
684
100
AcDbEntity
  8
61
  6
CONTINUOUS
 62
     2
100
AcDbText
 10
659.2801
 20
-618.8877
 30
0.0
 40
3.049199
  1
           
 50
0.011508
 41
0.998819
  7
MONOTXT
210
0.0
220
0.0
230
1.0
100
AcDbAttribute
  2
TAG60
 70
     0
  0
ATTRIB
  5
685
100
AcDbEntity
  8
61
  6
CONTINUOUS
 62
     2
100
AcDbText
 10
659.0801
 20
-623.4877
 30
0.0
 40
3.049199
  1
           
 50
0.011508
 41
0.999606
  7
MONOTXT
210
0.0
220
0.0
230
1.0
100
AcDbAttribute
  2
TAG70
 70
     0
  0
ATTRIB
  5
686
100
AcDbEntity
  8
61
  6
CONTINUOUS
 62
     2
100
AcDbText
 10
703.9801
 20
-621.2877
 30
0.0
 40
2.5482
  1
          
 50
0.009222
 41
0.992701
  7
MONOTXT
210
0.0
220
0.0
230
1.0
100
AcDbAttribute
  2
TAG80
 70
     0
  0
ATTRIB
  5
687
100
AcDbEntity
  8
1
  6
CONTINUOUS
 62
     2
100
AcDbText
 10
565.1857
 20
-1065.8877
 30
0.0
 40
2.5368
  1
07
  7
MONOTXT
210
0.0
220
0.0
230
1.0
100
AcDbAttribute
  2
TAG90
 70
     0
  0
ATTRIB
  5
688
100
AcDbEntity
  8
1
  6
CONTINUOUS
 62
     2
100
AcDbText
 10
570.8384
 20
-1065.8877
 30
0.0
 40
2.5368
  1
00
  7
MONOTXT
210
0.0
220
0.0
230
1.0
100
AcDbAttribute
  2
TAG91
 70
     0
  0
ATTRIB
  5
689
100
AcDbEntity
  8
1
  6
CONTINUOUS
 62
     2
100
AcDbText
 10
576.4512
 20
-1065.8877
 30
0.0
 40
2.5368
  1
71
  7
MONOTXT
210
0.0
220
0.0
230
1.0
100
AcDbAttribute
  2
TAG92
 70
     0
  0
ATTRIB
  5
68A
100
AcDbEntity
  8
1
  6
CONTINUOUS
 62
     2
100
AcDbText
 10
704.3985
 20
-1118.9877
 30
0.0
 40
8.8806
  1
TEM-2 
  7
TXT
210
0.0
220
0.0
230
1.0
100
AcDbAttribute
  2
TAG100
 70
     0
  0
ATTRIB
  5
68B
100
AcDbEntity
  8
1
  6
CONTINUOUS
 62
     2
100
AcDbText
 10
552.5801
 20
-1077.3877
 30
0.0
 40
2.5398
  1
        
  7
MONOTXT
 72
     1
 11
562.316
 21
-1074.8479
 31
0.0
210
0.0
220
0.0
230
1.0
100
AcDbAttribute
  2
TAG110
 70
     0
 74
     3
  0
ATTRIB
  5
68C
100
AcDbEntity
  8
1
  6
CONTINUOUS
 62
     2
100
AcDbText
 10
552.5801
 20
-1082.9877
 30
0.0
 40
2.5398
  1
        
  7
MONOTXT
 72
     1
 11
562.316
 21
-1080.4479
 31
0.0
210
0.0
220
0.0
230
1.0
100
AcDbAttribute
  2
TAG120
 70
     0
 74
     3
  0
ATTRIB
  5
68D
100
AcDbEntity
  8
1
  6
CONTINUOUS
 62
     2
100
AcDbText
 10
552.5801
 20
-1088.4877
 30
0.0
 40
2.5398
  1
        
  7
MONOTXT
 72
     1
 11
562.316
 21
-1085.9479
 31
0.0
210
0.0
220
0.0
230
1.0
100
AcDbAttribute
  2
TAG130
 70
     0
 74
     3
  0
ATTRIB
  5
68E
100
AcDbEntity
  8
1
  6
CONTINUOUS
 62
     2
100
AcDbText
 10
552.5801
 20
-1094.0877
 30
0.0
 40
2.5398
  1
        
  7
MONOTXT
 72
     1
 11
562.316
 21
-1091.5479
 31
0.0
210
0.0
220
0.0
230
1.0
100
AcDbAttribute
  2
TAG140
 70
     0
 74
     3
  0
ATTRIB
  5
68F
100
AcDbEntity
  8
1
  6
CONTINUOUS
 62
     2
100
AcDbText
 10
552.3801
 20
-1099.9877
 30
0.0
 40
2.5398
  1
        
  7
MONOTXT
 72
     1
 11
562.116
 21
-1097.4479
 31
0.0
210
0.0
220
0.0
230
1.0
100
AcDbAttribute
  2
TAG150
 70
     0
 74
     3
  0
ATTRIB
  5
690
100
AcDbEntity
  8
1
  6
CONTINUOUS
 62
     2
100
AcDbText
 10
552.5801
 20
-1105.6877
 30
0.0
 40
2.5398
  1
        
  7
MONOTXT
 72
     1
 11
562.316
 21
-1103.1479
 31
0.0
210
0.0
220
0.0
230
1.0
100
AcDbAttribute
  2
TAG160
 70
     0
 74
     3
  0
ATTRIB
  5
691
100
AcDbEntity
  8
1
  6
CONTINUOUS
 62
     2
100
AcDbText
 10
552.4801
 20
-1111.4877
 30
0.0
 40
2.5398
  1
        
  7
MONOTXT
 72
     1
 11
562.216
 21
-1108.9479
 31
0.0
210
0.0
220
0.0
230
1.0
100
AcDbAttribute
  2
TAG170
 70
     0
 74
     3
  0
ATTRIB
  5
692
100
AcDbEntity
  8
1
  6
CONTINUOUS
 62
     2
100
AcDbText
 10
552.5801
 20
-1117.2877
 30
0.0
 40
2.5398
  1
        
  7
MONOTXT
 72
     1
 11
562.316
 21
-1114.7479
 31
0.0
210
0.0
220
0.0
230
1.0
100
AcDbAttribute
  2
TAG180
 70
     0
 74
     3
  0
ATTRIB
  5
693
100
AcDbEntity
  8
1
  6
CONTINUOUS
 62
     2
100
AcDbText
 10
552.5801
 20
-1122.3877
 30
0.0
 40
2.5398
  1
        
  7
MONOTXT
 72
     1
 11
562.316
 21
-1119.8479
 31
0.0
210
0.0
220
0.0
230
1.0
100
AcDbAttribute
  2
TAG190
 70
     0
 74
     3
  0
ATTRIB
  5
694
100
AcDbEntity
  8
61
  6
CONTINUOUS
 62
     2
100
AcDbText
 10
728.2801
 20
-638.1877
 30
0.0
 40
3.0546
  1
     
 41
1.001375
  7
MONOTXT
210
0.0
220
0.0
230
1.0
100
AcDbAttribute
  2
TAG200
 70
     0
  0
ATTRIB
  5
695
100
AcDbEntity
  8
61
  6
CONTINUOUS
 62
     2
100
AcDbText
 10
693.1801
 20
-621.3877
 30
0.0
 40
3.0492
  1
  
 50
0.029406
 41
0.996655
  7
MONOTXT
210
0.0
220
0.0
230
1.0
100
AcDbAttribute
  2
TAG210
 70
     0
  0
SEQEND
  5
696
100
AcDbEntity
  8
61
  6
CONTINUOUS
 62
     2
  0
TEXT
  5
697
100
AcDbEntity
  8
1
  6
CONTINUOUS
 62
     7
100
AcDbText
 10
97.8883
 20
-622.4285
 30
0.0
 40
3.0
  1
9m
  7
MONOTXT
210
0.0
220
0.0
230
1.0
100
AcDbText
  0
TEXT
  5
698
100
AcDbEntity
  8
1
  6
CONTINUOUS
 62
     7
100
AcDbText
 10
121.8214
 20
-622.6776
 30
0.0
 40
3.0
  1
3m
  7
MONOTXT
210
0.0
220
0.0
230
1.0
100
AcDbText
  0
TEXT
  5
699
100
AcDbEntity
  8
1
  6
CONTINUOUS
 62
     7
100
AcDbText
 10
-2.5298
 20
-665.8292
 30
0.0
 40
3.0
  1
100mm SOLID WHITE
  7
MONOTXT
210
0.0
220
0.0
230
1.0
100
AcDbText
  0
TEXT
  5
69A
100
AcDbEntity
  8
1
  6
CONTINUOUS
 62
     7
100
AcDbText
 10
-2.5298
 20
-671.2292
 30
0.0
 40
3.0
  1
EDGE LINE
  7
MONOTXT
210
0.0
220
0.0
230
1.0
100
AcDbText
  0
TEXT
  5
69B
100
AcDbEntity
  8
1
  6
CONTINUOUS
 62
     7
100
AcDbText
 10
75.3902
 20
-665.5104
 30
0.0
 40
3.0
  1
100mm BROKEN WHITE
  7
MONOTXT
210
0.0
220
0.0
230
1.0
100
AcDbText
  0
TEXT
  5
69C
100
AcDbEntity
  8
1
  6
CONTINUOUS
 62
     7
100
AcDbText
 10
75.3902
 20
-670.9104
 30
0.0
 40
3.0
  1
LANE LINE
  7
MONOTXT
210
0.0
220
0.0
230
1.0
100
AcDbText
  0
TEXT
  5
69D
100
AcDbEntity
  8
1
  6
CONTINUOUS
 62
     7
100
AcDbText
 10
157.894
 20
-665.6775
 30
0.0
 40
3.0
  1
100mm SOLID DOUBLE YELLOW
  7
MONOTXT
 11
157.894
 21
-662.6775
 31
0.0
210
0.0
220
0.0
230
1.0
100
AcDbText
 73
     3
  0
TEXT
  5
69E
100
AcDbEntity
  8
1
  6
CONTINUOUS
 62
     7
100
AcDbText
 10
157.894
 20
-671.0775
 30
0.0
 40
3.0
  1
BARRIER LINES
  7
MONOTXT
 11
157.894
 21
-668.0775
 31
0.0
210
0.0
220
0.0
230
1.0
100
AcDbText
 73
     3
  0
TEXT
  5
69F
100
AcDbEntity
  8
1
  6
CONTINUOUS
 62
     7
100
AcDbText
 10
0.3111
 20
-698.685
 30
0.0
 40
3.0
  1
100mm SOLID
  7
MONOTXT
210
0.0
220
0.0
230
1.0
100
AcDbText
  0
TEXT
  5
6A0
100
AcDbEntity
  8
1
  6
CONTINUOUS
 62
     7
100
AcDbText
 10
0.3111
 20
-704.085
 30
0.0
 40
3.0
  1
WHITE EDGE LINE
  7
MONOTXT
210
0.0
220
0.0
230
1.0
100
AcDbText
  0
TEXT
  5
6A1
100
AcDbEntity
  8
1
  6
CONTINUOUS
 62
     7
100
AcDbText
 10
48.5231
 20
-698.9085
 30
0.0
 40
3.0
  1
100mm BROKEN YELLOW
  7
MONOTXT
 72
     4
 11
77.6609
 21
-697.4085
 31
0.0
210
0.0
220
0.0
230
1.0
100
AcDbText
  0
TEXT
  5
6A2
100
AcDbEntity
  8
1
  6
CONTINUOUS
 62
     7
100
AcDbText
 10
66.3105
 20
-704.3085
 30
0.0
 40
3.0
  1
LANE LINE
  7
MONOTXT
 72
     4
 11
77.6609
 21
-702.8085
 31
0.0
210
0.0
220
0.0
230
1.0
100
AcDbText
  0
TEXT
  5
6A3
100
AcDbEntity
  8
1
  6
CONTINUOUS
 62
     7
100
AcDbText
 10
114.9688
 20
-698.5803
 30
0.0
 40
3.0
  1
100mm SOLID YELLOW
  7
MONOTXT
 72
     4
 11
141.5554
 21
-697.0803
 31
0.0
210
0.0
220
0.0
230
1.0
100
AcDbText
  0
TEXT
  5
6A4
100
AcDbEntity
  8
1
  6
CONTINUOUS
 62
     7
100
AcDbText
 10
126.52
 20
-703.9803
 30
0.0
 40
3.0
  1
BARRIER LINE
  7
MONOTXT
 72
     4
 11
141.5554
 21
-702.4803
 31
0.0
210
0.0
220
0.0
230
1.0
100
AcDbText
  0
TEXT
  5
6A5
100
AcDbEntity
  8
1
  6
CONTINUOUS
 62
     7
100
AcDbText
 10
1.4203
 20
-726.72
 30
0.0
 40
3.0
  1
MIN. PASSING
  7
MONOTXT
 72
     4
 11
15.4872
 21
-725.22
 31
0.0
210
0.0
220
0.0
230
1.0
100
AcDbText
  0
TEXT
  5
6A6
100
AcDbEntity
  8
1
  6
CONTINUOUS
 62
     7
100
AcDbText
 10
2.684
 20
-732.12
 30
0.0
 40
3.0
  1
ZONE 120m
  7
MONOTXT
 72
     4
 11
15.4872
 21
-730.62
 31
0.0
210
0.0
220
0.0
230
1.0
100
AcDbText
  0
TEXT
  5
6A7
100
AcDbEntity
  8
1
  6
CONTINUOUS
 62
     7
100
AcDbText
 10
47.1679
 20
-761.0059
 30
0.0
 40
3.0
  1
EDGE LINE EXTENSIONS (OPT.)
  7
MONOTXT
210
0.0
220
0.0
230
1.0
100
AcDbText
  0
TEXT
  5
6A8
100
AcDbEntity
  8
1
  6
CONTINUOUS
 62
     7
100
AcDbText
 10
47.1679
 20
-766.4059
 30
0.0
 40
3.0
  1
100mm WHITE - 0.6m LONG
  7
MONOTXT
210
0.0
220
0.0
230
1.0
100
AcDbText
  0
TEXT
  5
6A9
100
AcDbEntity
  8
1
  6
CONTINUOUS
 62
     7
100
AcDbText
 10
47.1679
 20
-771.8059
 30
0.0
 40
3.0
  1
AND 1.8m SPACE
  7
MONOTXT
210
0.0
220
0.0
230
1.0
100
AcDbText
  0
TEXT
  5
6AA
100
AcDbEntity
  8
1
  6
CONTINUOUS
 62
     7
100
AcDbText
 10
-28.9251
 20
-802.4491
 30
0.0
 40
3.0
  1
100mm SOLID YELLOW EDGE LINE
  7
MONOTXT
210
0.0
220
0.0
230
1.0
100
AcDbText
  0
TEXT
  5
6AB
100
AcDbEntity
  8
1
  6
CONTINUOUS
 62
     7
100
AcDbText
 10
-6.9446
 20
-832.9713
 30
0.0
 40
3.0
  1
100mm SOLID WHITE EDGE LINE
  7
MONOTXT
210
0.0
220
0.0
230
1.0
100
AcDbText
  0
TEXT
  5
6AC
100
AcDbEntity
  8
1
  6
CONTINUOUS
 62
     7
100
AcDbText
 10
-6.9446
 20
-838.3713
 30
0.0
 40
3.0
  1
- USE WHEN SHOULDER PRESENT
  7
MONOTXT
210
0.0
220
0.0
230
1.0
100
AcDbText
  0
TEXT
  5
6AD
100
AcDbEntity
  8
1
  6
CONTINUOUS
 62
     7
100
AcDbText
 10
-6.9446
 20
-843.7713
 30
0.0
 40
3.0
  1
- USE WHEN CURB PRESENT
  7
MONOTXT
210
0.0
220
0.0
230
1.0
100
AcDbText
  0
TEXT
  5
6AE
100
AcDbEntity
  8
1
  6
CONTINUOUS
 62
     7
100
AcDbText
 10
-6.9446
 20
-849.1713
 30
0.0
 40
3.0
  1
- USE WITH EMERGENCY STOPPING LANE
  7
MONOTXT
210
0.0
220
0.0
230
1.0
100
AcDbText
  0
TEXT
  5
6AF
100
AcDbEntity
  8
1
  6
CONTINUOUS
 62
     7
100
AcDbText
 10
-6.9446
 20
-854.5713
 30
0.0
 40
3.0
  1
- DO NOT USE WITH PARKING LANE
  7
MONOTXT
210
0.0
220
0.0
230
1.0
100
AcDbText
  0
TEXT
  5
6B0
100
AcDbEntity
  8
1
  6
CONTINUOUS
 62
     7
100
AcDbText
 10
93.3464
 20
-837.2937
 30
0.0
 40
3.0
  1
100mm BROKEN
  7
MONOTXT
210
0.0
220
0.0
230
1.0
100
AcDbText
  0
TEXT
  5
6B1
100
AcDbEntity
  8
1
  6
CONTINUOUS
 62
     7
100
AcDbText
 10
93.3464
 20
-842.6937
 30
0.0
 40
3.0
  1
WHITE
  7
MONOTXT
210
0.0
220
0.0
230
1.0
100
AcDbText
  0
TEXT
  5
6B2
100
AcDbEntity
  8
1
  6
CONTINUOUS
 62
     7
100
AcDbText
 10
93.3464
 20
-848.0937
 30
0.0
 40
3.0
  1
LANE LINE
  7
MONOTXT
210
0.0
220
0.0
230
1.0
100
AcDbText
  0
TEXT
  5
6B3
100
AcDbEntity
  8
1
  6
CONTINUOUS
 62
     7
100
AcDbText
 10
141.2463
 20
-836.4369
 30
0.0
 40
3.0
  1
150mm TO 200mm SOLID WHITE
  7
MONOTXT
210
0.0
220
0.0
230
1.0
100
AcDbText
  0
TEXT
  5
6B4
100
AcDbEntity
  8
1
  6
CONTINUOUS
 62
     7
100
AcDbText
 10
141.2463
 20
-841.8369
 30
0.0
 40
3.0
  1
CHANNELIZING LINE
  7
MONOTXT
210
0.0
220
0.0
230
1.0
100
AcDbText
  0
TEXT
  5
6B5
100
AcDbEntity
  8
1
  6
CONTINUOUS
 62
     7
100
AcDbText
 10
141.2463
 20
-847.2369
 30
0.0
 40
3.0
  1
MAXIMUM LENGTH   60m
  7
MONOTXT
210
0.0
220
0.0
230
1.0
100
AcDbText
  0
TEXT
  5
6B6
100
AcDbEntity
  8
1
  6
CONTINUOUS
 62
     7
100
AcDbText
 10
-9.9368
 20
-879.5474
 30
0.0
 40
3.0
  1
150mm TO 200mm
  7
MONOTXT
210
0.0
220
0.0
230
1.0
100
AcDbText
  0
TEXT
  5
6B7
100
AcDbEntity
  8
1
  6
CONTINUOUS
 62
     7
100
AcDbText
 10
-9.9368
 20
-884.9474
 30
0.0
 40
3.0
  1
SOLID WHITE
  7
MONOTXT
210
0.0
220
0.0
230
1.0
100
AcDbText
  0
TEXT
  5
6B8
100
AcDbEntity
  8
1
  6
CONTINUOUS
 62
     7
100
AcDbText
 10
-9.9368
 20
-890.3474
 30
0.0
 40
3.0
  1
CHANNELIZING
  7
MONOTXT
210
0.0
220
0.0
230
1.0
100
AcDbText
  0
TEXT
  5
6B9
100
AcDbEntity
  8
1
  6
CONTINUOUS
 62
     7
100
AcDbText
 10
-9.9368
 20
-895.7474
 30
0.0
 40
3.0
  1
LINE
  7
MONOTXT
210
0.0
220
0.0
230
1.0
100
AcDbText
  0
TEXT
  5
6BA
100
AcDbEntity
  8
1
  6
CONTINUOUS
 62
     7
100
AcDbText
 10
49.1052
 20
-893.9754
 30
0.0
 40
3.0
  1
100mm BROKEN YELLOW
  7
MONOTXT
 11
49.1052
 21
-890.9754
 31
0.0
210
0.0
220
0.0
230
1.0
100
AcDbText
 73
     3
  0
TEXT
  5
6BB
100
AcDbEntity
  8
1
  6
CONTINUOUS
 62
     7
100
AcDbText
 10
49.1052
 20
-899.3754
 30
0.0
 40
3.0
  1
LANE LINES
  7
MONOTXT
 11
49.1052
 21
-896.3754
 31
0.0
210
0.0
220
0.0
230
1.0
100
AcDbText
 73
     3
  0
TEXT
  5
6BC
100
AcDbEntity
  8
1
  6
CONTINUOUS
 62
     7
100
AcDbText
 10
51.3292
 20
-912.0768
 30
0.0
 40
3.0
  1
30m
  7
MONOTXT
 72
     4
 11
55.841
 21
-910.5768
 31
0.0
210
0.0
220
0.0
230
1.0
100
AcDbText
  0
TEXT
  5
6BD
100
AcDbEntity
  8
1
  6
CONTINUOUS
 62
     7
100
AcDbText
 10
73.2065
 20
-912.0768
 30
0.0
 40
3.0
  1
15m
  7
MONOTXT
 72
     4
 11
77.0805
 21
-910.5768
 31
0.0
210
0.0
220
0.0
230
1.0
100
AcDbText
  0
TEXT
  5
6BE
100
AcDbEntity
  8
1
  6
CONTINUOUS
 62
     7
100
AcDbText
 10
7.8578
 20
-949.1788
 30
0.0
 40
3.0
  1
100mm SOLID WHITE EDGE LINE
  7
MONOTXT
210
0.0
220
0.0
230
1.0
100
AcDbText
  0
TEXT
  5
6BF
100
AcDbEntity
  8
1
  6
CONTINUOUS
 62
     7
100
AcDbText
 10
10.0614
 20
-956.8314
 30
0.0
 40
3.0
  1
100mm BROKEN WHITE LANE LINE
  7
MONOTXT
210
0.0
220
0.0
230
1.0
100
AcDbText
  0
TEXT
  5
6C0
100
AcDbEntity
  8
1
  6
CONTINUOUS
 62
     7
100
AcDbText
 10
131.5021
 20
-948.4806
 30
0.0
 40
3.0
  1
100mm SOLID YELLOW BARRIER LINES
  7
MONOTXT
210
0.0
220
0.0
230
1.0
100
AcDbText
  0
TEXT
  5
6C1
100
AcDbEntity
  8
1
  6
CONTINUOUS
 62
     7
100
AcDbText
 10
-10.0332
 20
-1006.6181
 30
0.0
 40
3.0
  1
100mm BROKEN YELLOW
  7
MONOTXT
 72
     4
 11
19.1046
 21
-1005.1181
 31
0.0
210
0.0
220
0.0
230
1.0
100
AcDbText
  0
TEXT
  5
6C2
100
AcDbEntity
  8
1
  6
CONTINUOUS
 62
     7
100
AcDbText
 10
7.7542
 20
-1012.0181
 30
0.0
 40
3.0
  1
LANE LINE
  7
MONOTXT
 72
     4
 11
19.1046
 21
-1010.5181
 31
0.0
210
0.0
220
0.0
230
1.0
100
AcDbText
  0
TEXT
  5
6C3
100
AcDbEntity
  8
1
  6
CONTINUOUS
 62
     7
100
AcDbText
 10
16.8137
 20
-1020.4263
 30
0.0
 40
3.0
  1
100mm SOLID YELLOW
  7
MONOTXT
 72
     4
 11
43.4003
 21
-1018.9263
 31
0.0
210
0.0
220
0.0
230
1.0
100
AcDbText
  0
TEXT
  5
6C4
100
AcDbEntity
  8
1
  6
CONTINUOUS
 62
     7
100
AcDbText
 10
28.3649
 20
-1027.0263
 30
0.0
 40
3.0
  1
BARRIER LINE
  7
MONOTXT
 72
     4
 11
43.4003
 21
-1025.5263
 31
0.0
210
0.0
220
0.0
230
1.0
100
AcDbText
  0
TEXT
  5
6C5
100
AcDbEntity
  8
1
  6
CONTINUOUS
 62
     7
100
AcDbText
 10
59.9252
 20
-1001.0821
 30
0.0
 40
3.0
  1
STOP LINES ARE LOCATED PERPENDICULAR TO
  7
MONOTXT
 11
59.9252
 21
-998.0821
 31
0.0
210
0.0
220
0.0
230
1.0
100
AcDbText
 73
     3
  0
TEXT
  5
6C6
100
AcDbEntity
  8
1
  6
CONTINUOUS
 62
     7
100
AcDbText
 10
59.9252
 20
-1006.4821
 30
0.0
 40
3.0
  1
ROADWAY AT APPROX. 4.6m (OR 2.4m FROM AND
  7
MONOTXT
 11
59.9252
 21
-1003.4821
 31
0.0
210
0.0
220
0.0
230
1.0
100
AcDbText
 73
     3
  0
TEXT
  5
6C7
100
AcDbEntity
  8
1
  6
CONTINUOUS
 62
     7
100
AcDbText
 10
59.9252
 20
-1011.8821
 30
0.0
 40
3.0
  1
PARALLEL TO GATE IF PRESENT)
  7
MONOTXT
 11
59.9252
 21
-1008.8821
 31
0.0
210
0.0
220
0.0
230
1.0
100
AcDbText
 73
     3
  0
TEXT
  5
6C8
100
AcDbEntity
  8
1
  6
CONTINUOUS
 62
     7
100
AcDbText
 10
34.9982
 20
-1039.0885
 30
0.0
 40
3.0
  1
0.6m WIDE
 41
0.833333
  7
MONOTXT
 72
     4
 11
45.4214
 21
-1037.5885
 31
0.0
210
0.0
220
0.0
230
1.0
100
AcDbText
  0
TEXT
  5
6C9
100
AcDbEntity
  8
1
  6
CONTINUOUS
 62
     7
100
AcDbText
 10
35.0178
 20
-1044.5885
 30
0.0
 40
3.0
  1
WHITE LINE
 41
0.833333
  7
MONOTXT
 72
     4
 11
45.4214
 21
-1043.0885
 31
0.0
210
0.0
220
0.0
230
1.0
100
AcDbText
  0
TEXT
  5
6CA
100
AcDbEntity
  8
1
  6
CONTINUOUS
 62
     7
100
AcDbText
 10
42.4429
 20
-1068.2915
 30
0.0
 40
3.0
  1
6.5m
  7
MONOTXT
 72
     4
 11
47.6397
 21
-1066.7915
 31
0.0
210
0.0
220
0.0
230
1.0
100
AcDbText
  0
TEXT
  5
6CB
100
AcDbEntity
  8
1
  6
CONTINUOUS
 62
     7
100
AcDbText
 10
61.2475
 20
-1073.8153
 30
0.0
 40
3.0
  1
2.0m
  7
MONOTXT
 72
     4
 11
66.5152
 21
-1072.3153
 31
0.0
210
0.0
220
0.0
230
1.0
100
AcDbText
  0
TEXT
  5
6CC
100
AcDbEntity
  8
1
  6
CONTINUOUS
 62
     7
100
AcDbText
 10
81.5053
 20
-1068.4691
 30
0.0
 40
3.0
  1
6.5m
  7
MONOTXT
 72
     4
 11
86.7021
 21
-1066.9691
 31
0.0
210
0.0
220
0.0
230
1.0
100
AcDbText
  0
TEXT
  5
6CD
100
AcDbEntity
  8
1
  6
CONTINUOUS
 62
     7
100
AcDbText
 10
135.1398
 20
-1067.6804
 30
0.0
 40
3.0
  1
0.6m
  7
MONOTXT
 72
     4
 11
140.3366
 21
-1066.1804
 31
0.0
210
0.0
220
0.0
230
1.0
100
AcDbText
  0
TEXT
  5
6CE
100
AcDbEntity
  8
1
  6
CONTINUOUS
 62
     7
100
AcDbText
 10
358.7093
 20
-620.6971
 30
0.0
 40
3.0
  1
1.8m MIN.
  7
MONOTXT
 72
     4
 11
369.6345
 21
-619.1971
 31
0.0
210
0.0
220
0.0
230
1.0
100
AcDbText
  0
TEXT
  5
6CF
100
AcDbEntity
  8
1
  6
CONTINUOUS
 62
     7
100
AcDbText
 10
242.055
 20
-620.8747
 30
0.0
 40
3.0
  1
1.8m MIN.
  7
MONOTXT
 72
     4
 11
252.9802
 21
-619.3747
 31
0.0
210
0.0
220
0.0
230
1.0
100
AcDbText
  0
TEXT
  5
6D0
100
AcDbEntity
  8
1
  6
CONTINUOUS
 62
     7
100
AcDbText
 10
329.1656
 20
-645.1854
 30
0.0
 40
3.0
  1
150mm-600mm SOLID
  7
MONOTXT
 11
329.1656
 21
-642.1854
 31
0.0
210
0.0
220
0.0
230
1.0
100
AcDbText
 73
     3
  0
TEXT
  5
6D1
100
AcDbEntity
  8
1
  6
CONTINUOUS
 62
     7
100
AcDbText
 10
329.1656
 20
-650.5854
 30
0.0
 40
3.0
  1
WHITE LINES
  7
MONOTXT
 11
329.1656
 21
-647.5854
 31
0.0
210
0.0
220
0.0
230
1.0
100
AcDbText
 73
     3
  0
TEXT
  5
6D2
100
AcDbEntity
  8
1
  6
CONTINUOUS
 62
     7
100
AcDbText
 10
329.1656
 20
-655.9854
 30
0.0
 40
3.0
  1
(SEE NOTE 5)
  7
MONOTXT
 11
329.1656
 21
-652.9854
 31
0.0
210
0.0
220
0.0
230
1.0
100
AcDbText
 73
     3
  0
TEXT
  5
6D3
100
AcDbEntity
  8
1
  6
CONTINUOUS
 62
     7
100
AcDbText
 10
434.4435
 20
-640.6922
 30
0.0
 40
3.0
  1
300mm-600mm SOLID
  7
MONOTXT
 11
434.4435
 21
-637.6922
 31
0.0
210
0.0
220
0.0
230
1.0
100
AcDbText
 73
     3
  0
TEXT
  5
6D4
100
AcDbEntity
  8
1
  6
CONTINUOUS
 62
     7
100
AcDbText
 10
434.4435
 20
-646.0922
 30
0.0
 40
3.0
  1
WHITE LINES WITH
  7
MONOTXT
 11
434.4435
 21
-643.0922
 31
0.0
210
0.0
220
0.0
230
1.0
100
AcDbText
 73
     3
  0
TEXT
  5
6D5
100
AcDbEntity
  8
1
  6
CONTINUOUS
 62
     7
100
AcDbText
 10
434.4435
 20
-651.4922
 30
0.0
 40
3.0
  1
300mm-600mm SPACES
  7
MONOTXT
 11
434.4435
 21
-648.4922
 31
0.0
210
0.0
220
0.0
230
1.0
100
AcDbText
 73
     3
  0
TEXT
  5
6D6
100
AcDbEntity
  8
1
  6
CONTINUOUS
 62
     7
100
AcDbText
 10
434.4435
 20
-656.8922
 30
0.0
 40
3.0
  1
(SEE NOTE 5)
  7
MONOTXT
 11
434.4435
 21
-653.8922
 31
0.0
210
0.0
220
0.0
230
1.0
100
AcDbText
 73
     3
  0
TEXT
  5
6D7
100
AcDbEntity
  8
1
  6
CONTINUOUS
 62
     7
100
AcDbText
 10
306.8067
 20
-716.9326
 30
0.0
 40
3.0
  1
WHERE THIS
  7
MONOTXT
 11
306.8067
 21
-713.9326
 31
0.0
210
0.0
220
0.0
230
1.0
100
AcDbText
 73
     3
  0
TEXT
  5
6D8
100
AcDbEntity
  8
1
  6
CONTINUOUS
 62
     7
100
AcDbText
 10
306.8067
 20
-722.3326
 30
0.0
 40
3.0
  1
DISTANCE 4.8m
  7
MONOTXT
 11
306.8067
 21
-719.3326
 31
0.0
210
0.0
220
0.0
230
1.0
100
AcDbText
 73
     3
  0
TEXT
  5
6D9
100
AcDbEntity
  8
1
  6
CONTINUOUS
 62
     7
100
AcDbText
 10
296.475
 20
-742.0045
 30
0.0
 40
3.0
  1
300mm SOLID WHITE
  7
MONOTXT
 11
296.475
 21
-739.0045
 31
0.0
210
0.0
220
0.0
230
1.0
100
AcDbText
 73
     3
  0
TEXT
  5
6DA
100
AcDbEntity
  8
1
  6
CONTINUOUS
 62
     7
100
AcDbText
 10
296.475
 20
-747.4045
 30
0.0
 40
3.0
  1
STOP LINE
  7
MONOTXT
 11
296.475
 21
-744.4045
 31
0.0
210
0.0
220
0.0
230
1.0
100
AcDbText
 73
     3
  0
TEXT
  5
6DB
100
AcDbEntity
  8
1
  6
CONTINUOUS
 62
     7
100
AcDbText
 10
274.1854
 20
-755.306
 30
0.0
 40
3.0
  1
100mm SOLID DOUBLE
  7
MONOTXT
 11
274.1854
 21
-752.306
 31
0.0
210
0.0
220
0.0
230
1.0
100
AcDbText
 73
     3
  0
TEXT
  5
6DC
100
AcDbEntity
  8
1
  6
CONTINUOUS
 62
     7
100
AcDbText
 10
274.1854
 20
-760.706
 30
0.0
 40
3.0
  1
YELLOW BARRIER LINES
  7
MONOTXT
 11
274.1854
 21
-757.706
 31
0.0
210
0.0
220
0.0
230
1.0
100
AcDbText
 73
     3
  0
TEXT
  5
6DD
100
AcDbEntity
  8
1
  6
CONTINUOUS
 62
     7
100
AcDbText
 10
410.9593
 20
-832.8897
 30
0.0
 40
3.0
  1
CURBED ISLAND WITH
  7
MONOTXT
 72
     4
 11
435.4907
 21
-831.3897
 31
0.0
210
0.0
220
0.0
230
1.0
100
AcDbText
  0
TEXT
  5
6DE
100
AcDbEntity
  8
1
  6
CONTINUOUS
 62
     7
100
AcDbText
 10
396.1483
 20
-838.2897
 30
0.0
 40
3.0
  1
150mm TO 200mm SOLID WHITE
  7
MONOTXT
 72
     4
 11
435.4907
 21
-836.7897
 31
0.0
210
0.0
220
0.0
230
1.0
100
AcDbText
  0
TEXT
  5
6DF
100
AcDbEntity
  8
1
  6
CONTINUOUS
 62
     7
100
AcDbText
 10
413.9357
 20
-843.6897
 30
0.0
 40
3.0
  1
CHANNELIZING LINE
  7
MONOTXT
 72
     4
 11
435.4907
 21
-842.1897
 31
0.0
210
0.0
220
0.0
230
1.0
100
AcDbText
  0
TEXT
  5
6E0
100
AcDbEntity
  8
1
  6
CONTINUOUS
 62
     7
100
AcDbText
 10
419.5341
 20
-849.0897
 30
0.0
 40
3.0
  1
ON ALL SIDES
  7
MONOTXT
 72
     4
 11
435.4907
 21
-847.5897
 31
0.0
210
0.0
220
0.0
230
1.0
100
AcDbText
  0
TEXT
  5
6E1
100
AcDbEntity
  8
1
  6
CONTINUOUS
 62
     7
100
AcDbText
 10
445.1579
 20
-858.9259
 30
0.0
 40
3.0
  1
150mm TO 200mm SOLID WHITE
  7
MONOTXT
 72
     4
 11
484.5003
 21
-857.4259
 31
0.0
210
0.0
220
0.0
230
1.0
100
AcDbText
  0
TEXT
  5
6E2
100
AcDbEntity
  8
1
  6
CONTINUOUS
 62
     7
100
AcDbText
 10
462.9453
 20
-864.3259
 30
0.0
 40
3.0
  1
CHANNELIZING LINE
  7
MONOTXT
 72
     4
 11
484.5003
 21
-862.8259
 31
0.0
210
0.0
220
0.0
230
1.0
100
AcDbText
  0
TEXT
  5
6E3
100
AcDbEntity
  8
1
  6
CONTINUOUS
 62
     7
100
AcDbText
 10
459.4727
 20
-869.7259
 30
0.0
 40
3.0
  1
(MAX. LENGTH - 60m)
  7
MONOTXT
 72
     4
 11
484.5003
 21
-868.2259
 31
0.0
210
0.0
220
0.0
230
1.0
100
AcDbText
  0
TEXT
  5
6E4
100
AcDbEntity
  8
1
  6
CONTINUOUS
 62
     7
100
AcDbText
 10
286.6325
 20
-1024.7414
 30
0.0
 40
3.0
  1
DISTANCE FROM
  7
MONOTXT
 72
     4
 11
304.5734
 21
-1023.2414
 31
0.0
210
0.0
220
0.0
230
1.0
100
AcDbText
  0
TEXT
  5
6E5
100
AcDbEntity
  8
1
  6
CONTINUOUS
 62
     7
100
AcDbText
 10
280.538
 20
-1030.1414
 30
0.0
 40
3.0
  1
NEAR RAIL TO FIRST
  7
MONOTXT
 72
     4
 11
304.5734
 21
-1028.6414
 31
0.0
210
0.0
220
0.0
230
1.0
100
AcDbText
  0
TEXT
  5
6E6
100
AcDbEntity
  8
1
  6
CONTINUOUS
 62
     7
100
AcDbText
 10
273.8294
 20
-1035.5414
 30
0.0
 40
3.0
  1
LINE 45m PLUS VARIABLE
  7
MONOTXT
 72
     4
 11
304.5734
 21
-1034.0414
 31
0.0
210
0.0
220
0.0
230
1.0
100
AcDbText
  0
TEXT
  5
6E7
100
AcDbEntity
  8
1
  6
CONTINUOUS
 62
     7
100
AcDbText
 10
228.5082
 20
-1041.4639
 30
0.0
 40
3.0
  1
30km/h
  7
MONOTXT
 11
228.5082
 21
-1038.4639
 31
0.0
210
0.0
220
0.0
230
1.0
100
AcDbText
 73
     3
  0
TEXT
  5
6E8
100
AcDbEntity
  8
1
  6
CONTINUOUS
 62
     7
100
AcDbText
 10
228.5082
 20
-1046.8639
 30
0.0
 40
3.0
  1
40km/h
  7
MONOTXT
 11
228.5082
 21
-1043.8639
 31
0.0
210
0.0
220
0.0
230
1.0
100
AcDbText
 73
     3
  0
TEXT
  5
6E9
100
AcDbEntity
  8
1
  6
CONTINUOUS
 62
     7
100
AcDbText
 10
228.5082
 20
-1052.2639
 30
0.0
 40
3.0
  1
50km/h
  7
MONOTXT
 11
228.5082
 21
-1049.2639
 31
0.0
210
0.0
220
0.0
230
1.0
100
AcDbText
 73
     3
  0
TEXT
  5
6EA
100
AcDbEntity
  8
1
  6
CONTINUOUS
 62
     7
100
AcDbText
 10
228.5082
 20
-1057.6639
 30
0.0
 40
3.0
  1
60km/h
  7
MONOTXT
 11
228.5082
 21
-1054.6639
 31
0.0
210
0.0
220
0.0
230
1.0
100
AcDbText
 73
     3
  0
TEXT
  5
6EB
100
AcDbEntity
  8
1
  6
CONTINUOUS
 62
     7
100
AcDbText
 10
228.5082
 20
-1063.0639
 30
0.0
 40
3.0
  1
65km/h
  7
MONOTXT
 11
228.5082
 21
-1060.0639
 31
0.0
210
0.0
220
0.0
230
1.0
100
AcDbText
 73
     3
  0
TEXT
  5
6EC
100
AcDbEntity
  8
1
  6
CONTINUOUS
 62
     7
100
AcDbText
 10
228.5082
 20
-1068.4639
 30
0.0
 40
3.0
  1
70km/h
  7
MONOTXT
 11
228.5082
 21
-1065.4639
 31
0.0
210
0.0
220
0.0
230
1.0
100
AcDbText
 73
     3
  0
TEXT
  5
6ED
100
AcDbEntity
  8
1
  6
CONTINUOUS
 62
     7
100
AcDbText
 10
228.5082
 20
-1073.8639
 30
0.0
 40
3.0
  1
80km/h
  7
MONOTXT
 11
228.5082
 21
-1070.8639
 31
0.0
210
0.0
220
0.0
230
1.0
100
AcDbText
 73
     3
  0
TEXT
  5
6EE
100
AcDbEntity
  8
1
  6
CONTINUOUS
 62
     7
100
AcDbText
 10
228.5082
 20
-1079.2639
 30
0.0
 40
3.0
  1
90km/h
  7
MONOTXT
 11
228.5082
 21
-1076.2639
 31
0.0
210
0.0
220
0.0
230
1.0
100
AcDbText
 73
     3
  0
TEXT
  5
6EF
100
AcDbEntity
  8
1
  6
CONTINUOUS
 62
     7
100
AcDbText
 10
228.5082
 20
-1084.6639
 30
0.0
 40
3.0
  1
100km/h
  7
MONOTXT
 11
228.5082
 21
-1081.6639
 31
0.0
210
0.0
220
0.0
230
1.0
100
AcDbText
 73
     3
  0
TEXT
  5
6F0
100
AcDbEntity
  8
1
  6
CONTINUOUS
 62
     7
100
AcDbText
 10
647.9225
 20
-943.5545
 30
0.0
 40
3.0
  1
2.4m
  7
MONOTXT
 72
     4
 11
653.2611
 21
-942.0545
 31
0.0
210
0.0
220
0.0
230
1.0
100
AcDbText
  0
TEXT
  5
6F1
100
AcDbEntity
  8
1
  6
CONTINUOUS
 62
     7
100
AcDbText
 10
586.0638
 20
-988.6634
 30
0.0
 40
3.0
  1
- 9.6m WHEN OPERATING SPEED IS 64.37km/h AND BELOW
  7
MONOTXT
 11
586.0638
 21
-985.6634
 31
0.0
210
0.0
220
0.0
230
1.0
100
AcDbText
 73
     3
  0
TEXT
  5
6F2
100
AcDbEntity
  8
1
  6
CONTINUOUS
 62
     7
100
AcDbText
 10
586.0638
 20
-994.0634
 30
0.0
 40
3.0
  1
- 24.4m WHEN OPERATING SPEED IS ABOVE 64.37km/h
  7
MONOTXT
 11
586.0638
 21
-991.0634
 31
0.0
210
0.0
220
0.0
230
1.0
100
AcDbText
 73
     3
  0
TEXT
  5
6F3
100
AcDbEntity
  8
1
  6
CONTINUOUS
 62
     7
100
AcDbText
 10
542.283
 20
-793.5408
 30
0.0
 40
2.4
  1
9.     SUPPLEMENTAL PAVEMENT WORD AND/OR SYMBOL MARKINGS SHOULD BE LIMITED TO NOT MORE
  7
MONOTXT
 11
542.283
 21
-791.1408
 31
0.0
210
0.0
220
0.0
230
1.0
100
AcDbText
 73
     3
  0
TEXT
  5
6F4
100
AcDbEntity
  8
1
  6
CONTINUOUS
 62
     7
100
AcDbText
 10
542.283
 20
-797.7408
 30
0.0
 40
2.4
  1
    MORE THAN A TOTAL OF THREE LINES OF INFORMATION (WORDS AND/OR SYMBOLS). THEY SHALL
  7
MONOTXT
 11
542.283
 21
-795.3408
 31
0.0
210
0.0
220
0.0
230
1.0
100
AcDbText
 73
     3
  0
TEXT
  5
6F5
100
AcDbEntity
  8
1
  6
CONTINUOUS
 62
     7
100
AcDbText
 10
542.283
 20
-801.9408
 30
0.0
 40
2.4
  1
    BE WHITE IN COLOR. LETTERS, SYMBOLS AND NUMERALS SHALL BE A MINIMUM OF 2.4m IN HEIGHT.
  7
MONOTXT
 11
542.283
 21
-799.5408
 31
0.0
210
0.0
220
0.0
230
1.0
100
AcDbText
 73
     3
  0
TEXT
  5
6F6
100
AcDbEntity
  8
1
  6
CONTINUOUS
 62
     7
100
AcDbText
 10
542.283
 20
-806.1408
 30
0.0
 40
2.4
  1
    THE WORD MARKING "ONLY" AND THE ARROW SHALL BE USED WHERE A MOVEMENT THAT WOULD
  7
MONOTXT
 11
542.283
 21
-803.7408
 31
0.0
210
0.0
220
0.0
230
1.0
100
AcDbText
 73
     3
  0
TEXT
  5
6F7
100
AcDbEntity
  8
1
  6
CONTINUOUS
 62
     7
100
AcDbText
 10
542.283
 20
-810.3408
 30
0.0
 40
2.4
  1
    OTHERWISE BE LEGAL IS TO BE PROHIBITED. THE SPACE BETWEEN LINES SHOULD BE AT LEAST
  7
MONOTXT
 11
542.283
 21
-807.9408
 31
0.0
210
0.0
220
0.0
230
1.0
100
AcDbText
 73
     3
  0
TEXT
  5
6F8
100
AcDbEntity
  8
1
  6
CONTINUOUS
 62
     7
100
AcDbText
 10
542.283
 20
-814.5408
 30
0.0
 40
2.4
  1
    FOUR TIMES THE HEIGHT OF THE CHARACTERS FOR LOW SPEEDS BUT NOT MORE THAN TEN
  7
MONOTXT
 11
542.283
 21
-812.1408
 31
0.0
210
0.0
220
0.0
230
1.0
100
AcDbText
 73
     3
  0
TEXT
  5
6F9
100
AcDbEntity
  8
1
  6
CONTINUOUS
 62
     7
100
AcDbText
 10
542.283
 20
-818.7408
 30
0.0
 40
2.4
  1
    TIMES THE HEIGHT OF THE CHARACTERS UNDER ANY CONDITIONS. LOCATION OF SUPPLEMENTAL
  7
MONOTXT
 11
542.283
 21
-816.3408
 31
0.0
210
0.0
220
0.0
230
1.0
100
AcDbText
 73
     3
  0
TEXT
  5
6FA
100
AcDbEntity
  8
1
  6
CONTINUOUS
 62
     7
100
AcDbText
 10
542.283
 20
-822.9408
 30
0.0
 40
2.4
  1
    PAVEMENT MARKINGS SHALL BE AS SHOWN BELOW OR AS DIMENSIONED ON THE PLANS.
  7
MONOTXT
 11
542.283
 21
-820.5408
 31
0.0
210
0.0
220
0.0
230
1.0
100
AcDbText
 73
     3
  0
TEXT
  5
6FB
100
AcDbEntity
  8
1
  6
CONTINUOUS
 62
     7
100
AcDbText
 10
542.283
 20
-827.1408
 30
0.0
 40
2.4
  1
 
  7
MONOTXT
 11
542.283
 21
-824.7408
 31
0.0
210
0.0
220
0.0
230
1.0
100
AcDbText
 73
     3
  0
TEXT
  5
6FC
100
AcDbEntity
  8
1
  6
CONTINUOUS
 62
     7
100
AcDbText
 10
542.283
 20
-831.3408
 30
0.0
 40
2.4
  1
10.    A NO-PASSING ZONE AT A HORIZONTAL OR VERTICAL CURVE IS WARRANTED WHERE THE SIGHT
  7
MONOTXT
 11
542.283
 21
-828.9408
 31
0.0
210
0.0
220
0.0
230
1.0
100
AcDbText
 73
     3
  0
TEXT
  5
6FD
100
AcDbEntity
  8
1
  6
CONTINUOUS
 62
     7
100
AcDbText
 10
542.283
 20
-835.5408
 30
0.0
 40
2.4
  1
    DISTANCE IS LESS THAN THE MINIMUM NECESSARY FOR SAFE PASSING BASED ON ONE OF THREE
  7
MONOTXT
 11
542.283
 21
-833.1408
 31
0.0
210
0.0
220
0.0
230
1.0
100
AcDbText
 73
     3
  0
TEXT
  5
6FE
100
AcDbEntity
  8
1
  6
CONTINUOUS
 62
     7
100
AcDbText
 10
542.283
 20
-839.7408
 30
0.0
 40
2.4
  1
    PREVAILING OFF PEAK 85 PERCENTILE SPEED.
  7
MONOTXT
 11
542.283
 21
-837.3408
 31
0.0
210
0.0
220
0.0
230
1.0
100
AcDbText
 73
     3
  0
TEXT
  5
6FF
100
AcDbEntity
  8
1
  6
CONTINUOUS
 62
     7
100
AcDbText
 10
542.283
 20
-843.9408
 30
0.0
 40
2.4
  1
                    85 PERCENTILE SPEED          MINIMUM PASSING SIGHT
  7
MONOTXT
 11
542.283
 21
-841.5408
 31
0.0
210
0.0
220
0.0
230
1.0
100
AcDbText
 73
     3
  0
TEXT
  5
700
100
AcDbEntity
  8
1
  6
CONTINUOUS
 62
     7
100
AcDbText
 10
542.283
 20
-848.1408
 30
0.0
 40
2.4
  1
                           (km/h)                              DISTANCE (FMETERS)
  7
MONOTXT
 11
542.283
 21
-845.7408
 31
0.0
210
0.0
220
0.0
230
1.0
100
AcDbText
 73
     3
  0
TEXT
  5
701
100
AcDbEntity
  8
1
  6
CONTINUOUS
 62
     7
100
AcDbText
 10
542.283
 20
-852.3408
 30
0.0
 40
2.4
  1
                            60                          180m
  7
MONOTXT
 11
542.283
 21
-849.9408
 31
0.0
210
0.0
220
0.0
230
1.0
100
AcDbText
 73
     3
  0
TEXT
  5
702
100
AcDbEntity
  8
1
  6
CONTINUOUS
 62
     7
100
AcDbText
 10
542.283
 20
-856.5408
 30
0.0
 40
2.4
  1
                            80                          240m
  7
MONOTXT
 11
542.283
 21
-854.1408
 31
0.0
210
0.0
220
0.0
230
1.0
100
AcDbText
 73
     3
  0
TEXT
  5
703
100
AcDbEntity
  8
1
  6
CONTINUOUS
 62
     7
100
AcDbText
 10
542.283
 20
-860.7408
 30
0.0
 40
2.4
  1
                            100                          300m
  7
MONOTXT
 11
542.283
 21
-858.3408
 31
0.0
210
0.0
220
0.0
230
1.0
100
AcDbText
 73
     3
  0
TEXT
  5
704
100
AcDbEntity
  8
1
  6
CONTINUOUS
 62
     7
100
AcDbText
 10
542.283
 20
-864.9408
 30
0.0
 40
2.4
  1
                         SEE MUTCD SECTION 3B-5 FOR MORE DETAILS.
  7
MONOTXT
 11
542.283
 21
-862.5408
 31
0.0
210
0.0
220
0.0
230
1.0
100
AcDbText
 73
     3
  0
TEXT
  5
705
100
AcDbEntity
  8
1
  6
CONTINUOUS
 62
     7
100
AcDbText
 10
542.283
 20
-869.1408
 30
0.0
 40
2.4
  1
 
  7
MONOTXT
 11
542.283
 21
-866.7408
 31
0.0
210
0.0
220
0.0
230
1.0
100
AcDbText
 73
     3
  0
TEXT
  5
706
100
AcDbEntity
  8
1
  6
CONTINUOUS
 62
     7
100
AcDbText
 10
542.283
 20
-873.3408
 30
0.0
 40
2.4
  1
11.    ALL DOUBLE LINES SHALL BE SPACED 200mm CENTER TO CENTER.
  7
MONOTXT
 11
542.283
 21
-870.9408
 31
0.0
210
0.0
220
0.0
230
1.0
100
AcDbText
 73
     3
  0
TEXT
  5
707
100
AcDbEntity
  8
1
  6
CONTINUOUS
 62
     7
100
AcDbText
 10
542.283
 20
-877.5408
 30
0.0
 40
2.4
  1
 
  7
MONOTXT
 11
542.283
 21
-875.1408
 31
0.0
210
0.0
220
0.0
230
1.0
100
AcDbText
 73
     3
  0
TEXT
  5
708
100
AcDbEntity
  8
1
  6
CONTINUOUS
 62
     7
100
AcDbText
 10
542.283
 20
-881.7408
 30
0.0
 40
2.4
  1
12.    WHERE APPLIED TO PORTLAND CEMENT CONCRETE PAVEMENT, THE CENTER OF THE STRIPE SHALL 
  7
MONOTXT
 11
542.283
 21
-879.3408
 31
0.0
210
0.0
220
0.0
230
1.0
100
AcDbText
 73
     3
  0
TEXT
  5
709
100
AcDbEntity
  8
1
  6
CONTINUOUS
 62
     7
100
AcDbText
 10
542.283
 20
-885.9408
 30
0.0
 40
2.4
  1
    BE OFFSET TO THE LEFT AND 100mm FROM THE LONGITUDINAL JOINT.
  7
MONOTXT
 11
542.283
 21
-883.5408
 31
0.0
210
0.0
220
0.0
230
1.0
100
AcDbText
 73
     3
  0
TEXT
  5
70A
100
AcDbEntity
  8
1
  6
CONTINUOUS
 62
     7
100
AcDbText
 10
542.283
 20
-890.1408
 30
0.0
 40
2.4
  1
 
  7
MONOTXT
 11
542.283
 21
-887.7408
 31
0.0
210
0.0
220
0.0
230
1.0
100
AcDbText
 73
     3
  0
TEXT
  5
70B
100
AcDbEntity
  8
1
  6
CONTINUOUS
 62
     7
100
AcDbText
 10
542.283
 20
-894.3408
 30
0.0
 40
2.4
  1
13.    NORMALLY, THE MAXIMUM LANE WIDTH SHALL BE 3.6m, EXCEPT A SINGLE-LANE RAMP WIDTH SHALL
  7
MONOTXT
 11
542.283
 21
-891.9408
 31
0.0
210
0.0
220
0.0
230
1.0
100
AcDbText
 73
     3
  0
TEXT
  5
70C
100
AcDbEntity
  8
1
  6
CONTINUOUS
 62
     7
100
AcDbText
 10
542.283
 20
-898.5408
 30
0.0
 40
2.4
  1
    BE 4.8m.
  7
MONOTXT
 11
542.283
 21
-896.1408
 31
0.0
210
0.0
220
0.0
230
1.0
100
AcDbText
 73
     3
  0
TEXT
  5
70D
100
AcDbEntity
  8
1
  6
CONTINUOUS
 62
     7
100
AcDbText
 10
542.3064
 20
-650.1288
 30
0.0
 40
2.4
  1
1.      BROKEN LINES SHALL BE 3m IN LENGTH WITH 9m SPACINGS, UNLESS OTHERWISE SPECIFIED. THE
  7
MONOTXT
 11
542.3064
 21
-647.7288
 31
0.0
210
0.0
220
0.0
230
1.0
100
AcDbText
 73
     3
  0
TEXT
  5
70E
100
AcDbEntity
  8
1
  6
CONTINUOUS
 62
     7
100
AcDbText
 10
542.3064
 20
-654.3288
 30
0.0
 40
2.4
  1
    RATIO OF PAINTED LINE LENGTH TO SKIP LENGTH SHALL BE 1 TO 3.
  7
MONOTXT
 11
542.3064
 21
-651.9288
 31
0.0
210
0.0
220
0.0
230
1.0
100
AcDbText
 73
     3
  0
TEXT
  5
70F
100
AcDbEntity
  8
1
  6
CONTINUOUS
 62
     7
100
AcDbText
 10
542.3064
 20
-658.5288
 30
0.0
 40
2.4
  1
 
  7
MONOTXT
 11
542.3064
 21
-656.1288
 31
0.0
210
0.0
220
0.0
230
1.0
100
AcDbText
 73
     3
  0
TEXT
  5
710
100
AcDbEntity
  8
1
  6
CONTINUOUS
 62
     7
100
AcDbText
 10
542.3064
 20
-662.7288
 30
0.0
 40
2.4
  1
2.     THE TURNING RADIUS EXTENSION SHALL BE OPTIONAL OR AS INDICATED ON THE PLANS AND
  7
MONOTXT
 11
542.3064
 21
-660.3288
 31
0.0
210
0.0
220
0.0
230
1.0
100
AcDbText
 73
     3
  0
TEXT
  5
711
100
AcDbEntity
  8
1
  6
CONTINUOUS
 62
     7
100
AcDbText
 10
542.3064
 20
-666.9288
 30
0.0
 40
2.4
  1
    SHALL BE EITHER AN EXTENSION OF THE SOLID WHITE CHANNELIZING LINE AND/OR C-4 WHITE
  7
MONOTXT
 11
542.3064
 21
-664.5288
 31
0.0
210
0.0
220
0.0
230
1.0
100
AcDbText
 73
     3
  0
TEXT
  5
712
100
AcDbEntity
  8
1
  6
CONTINUOUS
 62
     7
100
AcDbText
 10
542.3064
 20
-671.1288
 30
0.0
 40
2.4
  1
    MARKERS ON 300mm CENTERS, EVERY FIFTH ONE TO BE REFLECTIVE, OTHERS TO BE NON-
  7
MONOTXT
 11
542.3064
 21
-668.7288
 31
0.0
210
0.0
220
0.0
230
1.0
100
AcDbText
 73
     3
  0
TEXT
  5
713
100
AcDbEntity
  8
1
  6
CONTINUOUS
 62
     7
100
AcDbText
 10
542.3064
 20
-675.3288
 30
0.0
 40
2.4
  1
    REFLECTIVE.
  7
MONOTXT
 11
542.3064
 21
-672.9288
 31
0.0
210
0.0
220
0.0
230
1.0
100
AcDbText
 73
     3
  0
TEXT
  5
714
100
AcDbEntity
  8
1
  6
CONTINUOUS
 62
     7
100
AcDbText
 10
542.3064
 20
-679.5288
 30
0.0
 40
2.4
  1
 
  7
MONOTXT
 11
542.3064
 21
-677.1288
 31
0.0
210
0.0
220
0.0
230
1.0
100
AcDbText
 73
     3
  0
TEXT
  5
715
100
AcDbEntity
  8
1
  6
CONTINUOUS
 62
     7
100
AcDbText
 10
542.3064
 20
-683.7288
 30
0.0
 40
2.4
  1
3.     THE DISTANCE FROM THE RAILROAD CROSSING MARKING TO THE NEAREST TRACK WILL VARY
  7
MONOTXT
 11
542.3064
 21
-681.3288
 31
0.0
210
0.0
220
0.0
230
1.0
100
AcDbText
 73
     3
  0
TEXT
  5
716
100
AcDbEntity
  8
1
  6
CONTINUOUS
 62
     7
100
AcDbText
 10
542.3064
 20
-687.9288
 30
0.0
 40
2.4
  1
    ACCORDING TO THE APPROACH SPEED AND THE SIGHT DISTANCE OF THE VEHICULAR TRAFFIC
  7
MONOTXT
 11
542.3064
 21
-685.5288
 31
0.0
210
0.0
220
0.0
230
1.0
100
AcDbText
 73
     3
  0
TEXT
  5
717
100
AcDbEntity
  8
1
  6
CONTINUOUS
 62
     7
100
AcDbText
 10
542.3064
 20
-692.1288
 30
0.0
 40
2.4
  1
    APPROACHING, BUT SHOULD NOT BE LESS THAN 15 METERS. ALSO SEE TABLE.
  7
MONOTXT
 11
542.3064
 21
-689.7288
 31
0.0
210
0.0
220
0.0
230
1.0
100
AcDbText
 73
     3
  0
TEXT
  5
718
100
AcDbEntity
  8
1
  6
CONTINUOUS
 62
     7
100
AcDbText
 10
542.3064
 20
-696.3288
 30
0.0
 40
2.4
  1
 
  7
MONOTXT
 11
542.3064
 21
-693.9288
 31
0.0
210
0.0
220
0.0
230
1.0
100
AcDbText
 73
     3
  0
TEXT
  5
719
100
AcDbEntity
  8
1
  6
CONTINUOUS
 62
     7
100
AcDbText
 10
542.3064
 20
-700.5288
 30
0.0
 40
2.4
  1
4.     ALL RXR MARKINGS AND LINES SHALL BE WHITE. ON MULTI-LANE ROADS THE TRANSVERSE BANDS
  7
MONOTXT
 11
542.3064
 21
-698.1288
 31
0.0
210
0.0
220
0.0
230
1.0
100
AcDbText
 73
     3
  0
TEXT
  5
71A
100
AcDbEntity
  8
1
  6
CONTINUOUS
 62
     7
100
AcDbText
 10
542.3064
 20
-704.7288
 30
0.0
 40
2.4
  1
    SHOULD EXTEND ACROSS ALL APPROACH LANES, AND INDIVIDUAL RXR SYMBOLS SHOULD BE
  7
MONOTXT
 11
542.3064
 21
-702.3288
 31
0.0
210
0.0
220
0.0
230
1.0
100
AcDbText
 73
     3
  0
TEXT
  5
71B
100
AcDbEntity
  8
1
  6
CONTINUOUS
 62
     7
100
AcDbText
 10
542.3064
 20
-708.9288
 30
0.0
 40
2.4
  1
    USED IN EACH APPROACH LANE.
  7
MONOTXT
 11
542.3064
 21
-706.5288
 31
0.0
210
0.0
220
0.0
230
1.0
100
AcDbText
 73
     3
  0
TEXT
  5
71C
100
AcDbEntity
  8
1
  6
CONTINUOUS
 62
     7
100
AcDbText
 10
542.3064
 20
-713.1288
 30
0.0
 40
2.4
  1
 
  7
MONOTXT
 11
542.3064
 21
-710.7288
 31
0.0
210
0.0
220
0.0
230
1.0
100
AcDbText
 73
     3
  0
TEXT
  5
71D
100
AcDbEntity
  8
1
  6
CONTINUOUS
 62
     7
100
AcDbText
 10
542.3064
 20
-717.3288
 30
0.0
 40
2.4
  1
5.     LINES UP TO 300mm MAY BE REQUIRED UNDER SPECIAL CIRCUMSTANCES WHERE NO ADVANCE STOP
  7
MONOTXT
 11
542.3064
 21
-714.9288
 31
0.0
210
0.0
220
0.0
230
1.0
100
AcDbText
 73
     3
  0
TEXT
  5
71E
100
AcDbEntity
  8
1
  6
CONTINUOUS
 62
     7
100
AcDbText
 10
542.3064
 20
-721.5288
 30
0.0
 40
2.4
  1
    LINE IS PROVIDED OR WHERE VEHICULAR SPEEDS EXCEED 60km/h OR WHERE CROSSWALKS ARE
  7
MONOTXT
 11
542.3064
 21
-719.1288
 31
0.0
210
0.0
220
0.0
230
1.0
100
AcDbText
 73
     3
  0
TEXT
  5
71F
100
AcDbEntity
  8
1
  6
CONTINUOUS
 62
     7
100
AcDbText
 10
542.3064
 20
-725.7288
 30
0.0
 40
2.4
  1
    UNEXPECTED. WIDTH AND SPACING OF LINES SHALL BE AS SPECIFIED.
  7
MONOTXT
 11
542.3064
 21
-723.3288
 31
0.0
210
0.0
220
0.0
230
1.0
100
AcDbText
 73
     3
  0
TEXT
  5
720
100
AcDbEntity
  8
1
  6
CONTINUOUS
 62
     7
100
AcDbText
 10
542.3064
 20
-729.9288
 30
0.0
 40
2.4
  1
 
  7
MONOTXT
 11
542.3064
 21
-727.5288
 31
0.0
210
0.0
220
0.0
230
1.0
100
AcDbText
 73
     3
  0
TEXT
  5
721
100
AcDbEntity
  8
1
  6
CONTINUOUS
 62
     7
100
AcDbText
 10
542.3064
 20
-734.1288
 30
0.0
 40
2.4
  1
6.     WHEN DIAGONAL LINES ARE USED TO MARK A CROSSWALK, THE TRANSVERSE CROSSWALK LINES
  7
MONOTXT
 11
542.3064
 21
-731.7288
 31
0.0
210
0.0
220
0.0
230
1.0
100
AcDbText
 73
     3
  0
TEXT
  5
722
100
AcDbEntity
  8
1
  6
CONTINUOUS
 62
     7
100
AcDbText
 10
542.3064
 20
-738.3288
 30
0.0
 40
2.4
  1
    MAY BE OMITTED.
  7
MONOTXT
 11
542.3064
 21
-735.9288
 31
0.0
210
0.0
220
0.0
230
1.0
100
AcDbText
 73
     3
  0
TEXT
  5
723
100
AcDbEntity
  8
1
  6
CONTINUOUS
 62
     7
100
AcDbText
 10
542.3064
 20
-742.5288
 30
0.0
 40
2.4
  1
 
  7
MONOTXT
 11
542.3064
 21
-740.1288
 31
0.0
210
0.0
220
0.0
230
1.0
100
AcDbText
 73
     3
  0
TEXT
  5
724
100
AcDbEntity
  8
1
  6
CONTINUOUS
 62
     7
100
AcDbText
 10
542.3064
 20
-746.7288
 30
0.0
 40
2.4
  1
7.     LANE LINE EXTENSIONS THROUGH INTERSECTION MAY BE EITHER 150mm LONG LINE (100mm WIDTH)
  7
MONOTXT
 11
542.3064
 21
-744.3288
 31
0.0
210
0.0
220
0.0
230
1.0
100
AcDbText
 73
     3
  0
TEXT
  5
725
100
AcDbEntity
  8
1
  6
CONTINUOUS
 62
     7
100
AcDbText
 10
542.3064
 20
-750.9288
 30
0.0
 40
2.4
  1
    WITH 600mm SPACING OR WHITE C-4 MARKERS ON 300mm CENTERS, EVERY FIFTH ONE TO BE
  7
MONOTXT
 11
542.3064
 21
-748.5288
 31
0.0
210
0.0
220
0.0
230
1.0
100
AcDbText
 73
     3
  0
TEXT
  5
726
100
AcDbEntity
  8
1
  6
CONTINUOUS
 62
     7
100
AcDbText
 10
542.3064
 20
-755.1288
 30
0.0
 40
2.4
  1
    REFLECTIVE, OTHERS TO BE NON-REFLECTIVE (SEE TEM-3).
  7
MONOTXT
 11
542.3064
 21
-752.7288
 31
0.0
210
0.0
220
0.0
230
1.0
100
AcDbText
 73
     3
  0
TEXT
  5
727
100
AcDbEntity
  8
1
  6
CONTINUOUS
 62
     7
100
AcDbText
 10
542.3064
 20
-759.3288
 30
0.0
 40
2.4
  1
 
  7
MONOTXT
 11
542.3064
 21
-756.9288
 31
0.0
210
0.0
220
0.0
230
1.0
100
AcDbText
 73
     3
  0
TEXT
  5
728
100
AcDbEntity
  8
1
  6
CONTINUOUS
 62
     7
100
AcDbText
 10
542.3064
 20
-763.5288
 30
0.0
 40
2.4
  1
8.     STOP LINES SHALL BE 300mm TO 600mm WIDE EXTENDING ACROSS ALL APPROACH LANES. STOP
  7
MONOTXT
 11
542.3064
 21
-761.1288
 31
0.0
210
0.0
220
0.0
230
1.0
100
AcDbText
 73
     3
  0
TEXT
  5
729
100
AcDbEntity
  8
1
  6
CONTINUOUS
 62
     7
100
AcDbText
 10
542.3064
 20
-767.7288
 30
0.0
 40
2.4
  1
    LINES SHOULD BE PLACED 1.2m IN ADVANCE OF AND PARALLEL TO THE NEAREST CROSSWALK LINE.
  7
MONOTXT
 11
542.3064
 21
-765.3288
 31
0.0
210
0.0
220
0.0
230
1.0
100
AcDbText
 73
     3
  0
TEXT
  5
72A
100
AcDbEntity
  8
1
  6
CONTINUOUS
 62
     7
100
AcDbText
 10
542.3064
 20
-771.9288
 30
0.0
 40
2.4
  1
    IN THE ABSENCE OF A MARKED CROSSWALK, THE STOP LINE SHOULD BE PLACED AT THE DESIRED
  7
MONOTXT
 11
542.3064
 21
-769.5288
 31
0.0
210
0.0
220
0.0
230
1.0
100
AcDbText
 73
     3
  0
TEXT
  5
72B
100
AcDbEntity
  8
1
  6
CONTINUOUS
 62
     7
100
AcDbText
 10
542.3064
 20
-776.1288
 30
0.0
 40
2.4
  1
    STOPPING POINT AS NEAR AS POSSIBLE TO THE INTERSECTING ROADWAY, BUT IN NO CASE MORE
  7
MONOTXT
 11
542.3064
 21
-773.7288
 31
0.0
210
0.0
220
0.0
230
1.0
100
AcDbText
 73
     3
  0
TEXT
  5
72C
100
AcDbEntity
  8
1
  6
CONTINUOUS
 62
     7
100
AcDbText
 10
542.3064
 20
-780.3288
 30
0.0
 40
2.4
  1
    THAN 9.2m OR LESS THAN 1.2m FROM THE NEAREST EDGE OF THE INTERSECTING ROAD-
  7
MONOTXT
 11
542.3064
 21
-777.9288
 31
0.0
210
0.0
220
0.0
230
1.0
100
AcDbText
 73
     3
  0
TEXT
  5
72D
100
AcDbEntity
  8
1
  6
CONTINUOUS
 62
     7
100
AcDbText
 10
542.3064
 20
-784.5288
 30
0.0
 40
2.4
  1
    WAY.
  7
MONOTXT
 11
542.3064
 21
-782.1288
 31
0.0
210
0.0
220
0.0
230
1.0
100
AcDbText
 73
     3
  0
TEXT
  5
72E
100
AcDbEntity
  8
1
  6
CONTINUOUS
 62
     7
100
AcDbText
 10
430.2164
 20
-937.1973
 30
0.0
 40
3.0
  1
100mm SOLID WHITE
  7
MONOTXT
 72
     4
 11
454.3226
 21
-935.6973
 31
0.0
210
0.0
220
0.0
230
1.0
100
AcDbText
  0
TEXT
  5
72F
100
AcDbEntity
  8
1
  6
CONTINUOUS
 62
     7
100
AcDbText
 10
432.7676
 20
-942.5973
 30
0.0
 40
3.0
  1
CHANNELIZING LINE
  7
MONOTXT
 72
     4
 11
454.3226
 21
-941.0973
 31
0.0
210
0.0
220
0.0
230
1.0
100
AcDbText
  0
TEXT
  5
730
100
AcDbEntity
  8
1
  6
CONTINUOUS
 62
     7
100
AcDbText
 10
434.3974
 20
-947.9973
 30
0.0
 40
3.0
  1
(NORMALLY 30m)
  7
MONOTXT
 72
     4
 11
454.3226
 21
-946.4973
 31
0.0
210
0.0
220
0.0
230
1.0
100
AcDbText
  0
ENDSEC
  0
SECTION
  2
OBJECTS
  0
DICTIONARY
  5
19
100
AcDbDictionary
  3
ACAD_GROUP
350
1A
  3
ACAD_MLINESTYLE
350
1B
  0
DICTIONARY
  5
1A
102
{ACAD_REACTORS
330
19
102
}
100
AcDbDictionary
  0
DICTIONARY
  5
1B
102
{ACAD_REACTORS
330
19
102
}
100
AcDbDictionary
  3
STANDARD
350
1C
  0
MLINESTYLE
  5
1C
102
{ACAD_REACTORS
330
1B
102
}
100
AcDbMlineStyle
  2
STANDARD
 70
     0
  3

 62
     0
 51
90.0
 52
90.0
 71
     2
 49
0.5
 62
   256
  6
BYLAYER
 49
-0.5
 62
   256
  6
BYLAYER
  0
ENDSEC
  0
EOF
