  0
SECTION
  2
HEADER
  9
$ACADVER
  1
AC1014
  9
$ACADMAINTVER
 70
     0
  9
$DWGCODEPAGE
  3
ANSI_1252
  9
$INSBASE
 10
0.0
 20
0.0
 30
0.0
  9
$EXTMIN
 10
52.01
 20
11.8793
 30
0.0
  9
$EXTMAX
 10
800.6515
 20
476.3473
 30
0.0
  9
$LIMMIN
 10
0.0
 20
0.0
  9
$LIMMAX
 10
12.0
 20
9.0
  9
$ORTHOMODE
 70
     0
  9
$REGENMODE
 70
     1
  9
$FILLMODE
 70
     1
  9
$QTEXTMODE
 70
     0
  9
$MIRRTEXT
 70
     1
  9
$DRAGMODE
 70
     2
  9
$LTSCALE
 40
1.0
  9
$OSMODE
 70
     0
  9
$ATTMODE
 70
     1
  9
$TEXTSIZE
 40
0.2
  9
$TRACEWID
 40
0.05
  9
$TEXTSTYLE
  7
STANDARD
  9
$CLAYER
  8
0
  9
$CELTYPE
  6
CONTINUOUS
  9
$CECOLOR
 62
   256
  9
$CELTSCALE
 40
1.0
  9
$DELOBJ
 70
     1
  9
$DISPSILH
 70
     0
  9
$DIMSCALE
 40
1.0
  9
$DIMASZ
 40
0.18
  9
$DIMEXO
 40
0.0625
  9
$DIMDLI
 40
0.38
  9
$DIMRND
 40
0.0
  9
$DIMDLE
 40
0.0
  9
$DIMEXE
 40
0.18
  9
$DIMTP
 40
0.0
  9
$DIMTM
 40
0.0
  9
$DIMTXT
 40
0.18
  9
$DIMCEN
 40
0.09
  9
$DIMTSZ
 40
0.0
  9
$DIMTOL
 70
     0
  9
$DIMLIM
 70
     0
  9
$DIMTIH
 70
     1
  9
$DIMTOH
 70
     1
  9
$DIMSE1
 70
     0
  9
$DIMSE2
 70
     0
  9
$DIMTAD
 70
     0
  9
$DIMZIN
 70
     0
  9
$DIMBLK
  1

  9
$DIMASO
 70
     1
  9
$DIMSHO
 70
     1
  9
$DIMPOST
  1

  9
$DIMAPOST
  1

  9
$DIMALT
 70
     0
  9
$DIMALTD
 70
     2
  9
$DIMALTF
 40
25.4
  9
$DIMLFAC
 40
1.0
  9
$DIMTOFL
 70
     0
  9
$DIMTVP
 40
0.0
  9
$DIMTIX
 70
     0
  9
$DIMSOXD
 70
     0
  9
$DIMSAH
 70
     0
  9
$DIMBLK1
  1

  9
$DIMBLK2
  1

  9
$DIMSTYLE
  2
STANDARD
  9
$DIMCLRD
 70
     0
  9
$DIMCLRE
 70
     0
  9
$DIMCLRT
 70
     0
  9
$DIMTFAC
 40
1.0
  9
$DIMGAP
 40
0.09
  9
$DIMJUST
 70
     0
  9
$DIMSD1
 70
     0
  9
$DIMSD2
 70
     0
  9
$DIMTOLJ
 70
     1
  9
$DIMTZIN
 70
     0
  9
$DIMALTZ
 70
     0
  9
$DIMALTTZ
 70
     0
  9
$DIMFIT
 70
     3
  9
$DIMUPT
 70
     0
  9
$DIMUNIT
 70
     2
  9
$DIMDEC
 70
     4
  9
$DIMTDEC
 70
     4
  9
$DIMALTU
 70
     2
  9
$DIMALTTD
 70
     2
  9
$DIMTXSTY
  7
STANDARD
  9
$DIMAUNIT
 70
     0
  9
$LUNITS
 70
     2
  9
$LUPREC
 70
     4
  9
$SKETCHINC
 40
0.1
  9
$FILLETRAD
 40
0.0
  9
$AUNITS
 70
     0
  9
$AUPREC
 70
     0
  9
$MENU
  1
acad
  9
$ELEVATION
 40
0.0
  9
$PELEVATION
 40
0.0
  9
$THICKNESS
 40
0.0
  9
$LIMCHECK
 70
     0
  9
$BLIPMODE
 70
     1
  9
$CHAMFERA
 40
0.0
  9
$CHAMFERB
 40
0.0
  9
$CHAMFERC
 40
0.0
  9
$CHAMFERD
 40
0.0
  9
$SKPOLY
 70
     0
  9
$TDCREATE
 40
2451803.569247685
  9
$TDUPDATE
 40
2451803.569247685
  9
$TDINDWG
 40
0.0000000000
  9
$TDUSRTIMER
 40
0.0000000000
  9
$USRTIMER
 70
     1
  9
$ANGBASE
 50
0.0
  9
$ANGDIR
 70
     0
  9
$PDMODE
 70
     0
  9
$PDSIZE
 40
0.0
  9
$PLINEWID
 40
0.0
  9
$COORDS
 70
     0
  9
$SPLFRAME
 70
     0
  9
$SPLINETYPE
 70
     6
  9
$SPLINESEGS
 70
    10
  9
$ATTDIA
 70
     0
  9
$ATTREQ
 70
     1
  9
$HANDLING
 70
     1
  9
$HANDSEED
  5
579
  9
$SURFTAB1
 70
     6
  9
$SURFTAB2
 70
     6
  9
$SURFTYPE
 70
     6
  9
$SURFU
 70
     6
  9
$SURFV
 70
     6
  9
$UCSNAME
  2

  9
$UCSORG
 10
0.0
 20
0.0
 30
0.0
  9
$UCSXDIR
 10
1.0
 20
0.0
 30
0.0
  9
$UCSYDIR
 10
0.0
 20
1.0
 30
0.0
  9
$PUCSNAME
  2

  9
$PUCSORG
 10
0.0
 20
0.0
 30
0.0
  9
$PUCSXDIR
 10
1.0
 20
0.0
 30
0.0
  9
$PUCSYDIR
 10
0.0
 20
1.0
 30
0.0
  9
$USERI1
 70
     0
  9
$USERI2
 70
     0
  9
$USERI3
 70
     0
  9
$USERI4
 70
     0
  9
$USERI5
 70
     0
  9
$USERR1
 40
0.0
  9
$USERR2
 40
0.0
  9
$USERR3
 40
0.0
  9
$USERR4
 40
0.0
  9
$USERR5
 40
0.0
  9
$WORLDVIEW
 70
     1
  9
$SHADEDGE
 70
     3
  9
$SHADEDIF
 70
    70
  9
$TILEMODE
 70
     1
  9
$MAXACTVP
 70
    16
  9
$PINSBASE
 10
0.0
 20
0.0
 30
0.0
  9
$PLIMCHECK
 70
     0
  9
$PEXTMIN
 10
-1.000000E+20
 20
-1.000000E+20
 30
-1.000000E+20
  9
$PEXTMAX
 10
-1.000000E+20
 20
-1.000000E+20
 30
-1.000000E+20
  9
$PLIMMIN
 10
0.0
 20
0.0
  9
$PLIMMAX
 10
12.0
 20
9.0
  9
$UNITMODE
 70
     0
  9
$VISRETAIN
 70
     0
  9
$PLINEGEN
 70
     1
  9
$PSLTSCALE
 70
     0
  9
$TREEDEPTH
 70
  3020
  9
$PICKSTYLE
 70
     1
  9
$CMLSTYLE
  2
STANDARD
  9
$CMLJUST
 70
     0
  9
$CMLSCALE
 40
1.0
  9
$PROXYGRAPHICS
 70
     0
  9
$MEASUREMENT
 70
     0
  0
ENDSEC
  0
SECTION
  2
CLASSES
  0
CLASS
  1
LWPOLYLINE
  2
AcDbPolyline
  3
"AutoCAD"
 90
        0
280
     0
281
     1
  0
CLASS
  1
IMAGE
  2
AcDbRasterImage
  3
ISM
 90
      127
280
     0
281
     1
  0
CLASS
  1
OLE2FRAME
  2
AcDbOle2Frame
  3
""
 90
        0
280
     0
281
     1
  0
CLASS
  1
HATCH
  2
AcDbHatch
  3
"ACAD_SEDONA"
 90
        0
280
     0
281
     1
  0
CLASS
  1
DICTIONARYVAR
  2
AcDbDictionaryVar
  3
"AutoCAD"
 90
        0
280
     0
281
     0
  0
CLASS
  1
RASTERVARIABLES
  2
AcDbRasterVariables
  3
ISM
 90
        0
280
     0
281
     0
  0
CLASS
  1
IMAGEDEF
  2
AcDbRasterImageDef
  3
ISM
 90
        0
280
     0
281
     0
  0
CLASS
  1
IMAGEDEF_REACTOR
  2
AcDbRasterImageDefReactor
  3
ISM
 90
        1
280
     0
281
     0
  0
CLASS
  1
IDBUFFER
  2
AcDbIdBuffer
  3
"Acad"
 90
        0
280
     0
281
     0
  0
CLASS
  1
SPATIAL_FILTER
  2
AcDbSpatialFilter
  3
"Acad"
 90
        0
280
     0
281
     0
  0
CLASS
  1
XRECORD
  2
AcDbXrecord
  3
"<Built In>"
 90
        0
280
     0
281
     0
  0
CLASS
  1
SORTENTSTABLE
  2
AcDbSortentsTable
  3
"AutoCAD"
 90
        0
280
     0
281
     0
  0
CLASS
  1
LAYER_INDEX
  2
AcDbLayerIndex
  3
"Acad"
 90
        0
280
     0
281
     0
  0
CLASS
  1
SPATIAL_INDEX
  2
AcDbSpatialIndex
  3
"Acad"
 90
        0
280
     0
281
     0
  0
CLASS
  1
OBJECT_PTR
  2
CAseDLPNTableRecord
  3
"ASE-LPNTableRecord"
 90
        1
280
     0
281
     0
  0
ENDSEC
  0
SECTION
  2
TABLES
  0
TABLE
  2
VPORT
  5
7
100
AcDbSymbolTable
 70
     1
  0
VPORT
  5
578
100
AcDbSymbolTableRecord
100
AcDbViewportTableRecord
  2
*ACTIVE
 70
     0
 10
0.0
 20
0.0
 11
1.0
 21
1.0
 12
0.0
 22
0.0
 13
0.0
 23
0.0
 14
0.0
 24
0.0
 15
0.0
 25
0.0
 16
0.0
 26
0.0
 36
1.0
 17
374.851343
 27
272.253
 37
0.0
 40
565.24
 41
1.546823
 42
50.0
 43
0.0
 44
0.0
 50
0.0
 51
0.0
 71
     0
 72
   100
 73
     1
 74
     0
 75
     0
 76
     0
 77
     0
 78
     0
  0
ENDTAB
  0
TABLE
  2
LTYPE
  5
4
100
AcDbSymbolTable
 70
     9
  0
LTYPE
  5
11
100
AcDbSymbolTableRecord
100
AcDbLinetypeTableRecord
  2
BYBLOCK
 70
     0
  3

 72
    65
 73
     0
 40
0.0
  0
LTYPE
  5
12
100
AcDbSymbolTableRecord
100
AcDbLinetypeTableRecord
  2
BYLAYER
 70
     0
  3

 72
    65
 73
     0
 40
0.0
  0
LTYPE
  5
13
100
AcDbSymbolTableRecord
100
AcDbLinetypeTableRecord
  2
CONTINUOUS
 70
     0
  3
Solid line
 72
    65
 73
     0
 40
0.0
  0
LTYPE
  5
22
100
AcDbSymbolTableRecord
100
AcDbLinetypeTableRecord
  2
DOT
 70
    64
  3
. . . . . . . . . . . . . . . . . . . . . . . . . . . . . . . . .
 72
    65
 73
     2
 40
0.25
 49
0.0
 74
     0
 49
-0.25
 74
     0
  0
LTYPE
  5
23
100
AcDbSymbolTableRecord
100
AcDbLinetypeTableRecord
  2
HIDDEN
 70
    64
  3
__ __ __ __ __ __ __ __ __ __ __ __ __ __ __ __ __ __ __ __ __ 
 72
    65
 73
     2
 40
0.375
 49
0.25
 74
     0
 49
-0.125
 74
     0
  0
LTYPE
  5
24
100
AcDbSymbolTableRecord
100
AcDbLinetypeTableRecord
  2
DASHED
 70
    64
  3
__ __ __ __ __ __ __ __ __ __ __ __ __ __ __ __ __ __ __ __ __
 72
    65
 73
     2
 40
0.75
 49
0.5
 74
     0
 49
-0.25
 74
     0
  0
LTYPE
  5
25
100
AcDbSymbolTableRecord
100
AcDbLinetypeTableRecord
  2
DASHDOT
 70
    64
  3
__ . __ . __ . __ . __ . __ . __ . __ . __ . __ . __ . __ . _
 72
    65
 73
     4
 40
1.0
 49
0.5
 74
     0
 49
-0.25
 74
     0
 49
0.0
 74
     0
 49
-0.25
 74
     0
  0
LTYPE
  5
26
100
AcDbSymbolTableRecord
100
AcDbLinetypeTableRecord
  2
DIVIDE
 70
    64
  3
____ . . ____ . . ____ . . ____ . . ____ . . ____ . . ____ . .
 72
    65
 73
     6
 40
1.25
 49
0.5
 74
     0
 49
-0.25
 74
     0
 49
0.0
 74
     0
 49
-0.25
 74
     0
 49
0.0
 74
     0
 49
-0.25
 74
     0
  0
LTYPE
  5
27
100
AcDbSymbolTableRecord
100
AcDbLinetypeTableRecord
  2
CENTER
 70
    64
  3
____ _ ____ _ ____ _ ____ _ ____ _ ____ _ ____ _ ____ _ ____ _
 72
    65
 73
     4
 40
2.0
 49
1.25
 74
     0
 49
-0.25
 74
     0
 49
0.25
 74
     0
 49
-0.25
 74
     0
  0
ENDTAB
  0
TABLE
  2
LAYER
  5
2
100
AcDbSymbolTable
 70
     3
  0
LAYER
  5
14
102
{ACAD_XDICTIONARY
360
5F205F5F5F5F205F
102
}
100
AcDbSymbolTableRecord
100
AcDbLayerTableRecord
  2
0
 70
     0
 62
     7
  6
CONTINUOUS
  0
LAYER
  5
2A
102
{ACAD_XDICTIONARY
360
5F205F5F5F5F205F
102
}
100
AcDbSymbolTableRecord
100
AcDbLayerTableRecord
  2
61
 70
    64
 62
     7
  6
CONTINUOUS
  0
LAYER
  5
2D
102
{ACAD_XDICTIONARY
360
5F205F5F5F5F205F
102
}
100
AcDbSymbolTableRecord
100
AcDbLayerTableRecord
  2
1
 70
    64
 62
     7
  6
CONTINUOUS
  0
ENDTAB
  0
TABLE
  2
STYLE
  5
3
100
AcDbSymbolTable
 70
     3
  0
STYLE
  5
17
100
AcDbSymbolTableRecord
100
AcDbTextStyleTableRecord
  2
STANDARD
 70
     0
 40
0.0
 41
1.0
 50
0.0
 71
     0
 42
0.0
  3
txt
  4

  0
STYLE
  5
2B
100
AcDbSymbolTableRecord
100
AcDbTextStyleTableRecord
  2
MONOTXT
 70
     0
 40
0.2
 41
1.0
 50
0.0
 71
     0
 42
0.2
  3
MONOTXT
  4

  0
STYLE
  5
37
100
AcDbSymbolTableRecord
100
AcDbTextStyleTableRecord
  2
TXT
 70
     0
 40
0.2
 41
1.0
 50
0.0
 71
     0
 42
0.2
  3
TXT
  4

  0
ENDTAB
  0
TABLE
  2
VIEW
  5
5
100
AcDbSymbolTable
 70
     0
  0
ENDTAB
  0
TABLE
  2
UCS
  5
6
100
AcDbSymbolTable
 70
     0
  0
ENDTAB
  0
TABLE
  2
APPID
  5
8
100
AcDbSymbolTable
 70
     1
  0
APPID
  5
16
100
AcDbSymbolTableRecord
100
AcDbRegAppTableRecord
  2
ACAD
 70
     0
  0
ENDTAB
  0
TABLE
  2
DIMSTYLE
  5
9
100
AcDbSymbolTable
 70
     1
  0
DIMSTYLE
105
18
100
AcDbSymbolTableRecord
100
AcDbDimStyleTableRecord
  2
STANDARD
 70
     0
  3

  4

  5

  6

  7

 40
1.0
 41
0.18
 42
0.0625
 43
0.38
 44
0.18
 45
0.0
 46
0.0
 47
0.0
 48
0.0
140
0.18
141
0.09
142
0.0
143
25.4
144
1.0
145
0.0
146
1.0
147
0.09
 71
     0
 72
     0
 73
     1
 74
     1
 75
     0
 76
     0
 77
     0
 78
     0
170
     0
171
     2
172
     0
173
     0
174
     0
175
     0
176
     0
177
     0
178
     0
270
     2
271
     4
272
     4
273
     2
274
     2
340
17
275
     0
280
     0
281
     0
282
     0
283
     1
284
     0
285
     0
286
     0
287
     0
288
     0
  0
ENDTAB
  0
TABLE
  2
BLOCK_RECORD
  5
1
100
AcDbSymbolTable
 70
     1
  0
BLOCK_RECORD
  5
A
100
AcDbSymbolTableRecord
100
AcDbBlockTableRecord
  2
*MODEL_SPACE
  0
BLOCK_RECORD
  5
B
100
AcDbSymbolTableRecord
100
AcDbBlockTableRecord
  2
*PAPER_SPACE
  0
BLOCK_RECORD
  5
139
102
{ACAD_XDICTIONARY
360
5497022400000000
102
}
100
AcDbSymbolTableRecord
100
AcDbBlockTableRecord
  2
LDR
  0
ENDTAB
  0
ENDSEC
  0
SECTION
  2
BLOCKS
  0
BLOCK
  5
D
100
AcDbEntity
  8
0
100
AcDbBlockBegin
  2
*MODEL_SPACE
 70
     0
 10
0.0
 20
0.0
 30
0.0
  3
*MODEL_SPACE
  1

  0
ENDBLK
  5
E
100
AcDbEntity
  8
0
100
AcDbBlockEnd
  0
BLOCK
  5
F
100
AcDbEntity
 67
     1
  8
0
100
AcDbBlockBegin
  2
*PAPER_SPACE
 70
     0
 10
0.0
 20
0.0
 30
0.0
  3
*PAPER_SPACE
  1

  0
ENDBLK
  5
10
100
AcDbEntity
 67
     1
  8
0
100
AcDbBlockEnd
  0
BLOCK
  5
13A
100
AcDbEntity
  8
1
  6
CONTINUOUS
 62
     1
100
AcDbBlockBegin
  2
LDR
 70
     0
 10
0.0
 20
0.0
 30
0.0
  3
LNR
  1

  0
ELLIPSE
  5
13B
100
AcDbEntity
  8
1
  6
CONTINUOUS
 62
     1
100
AcDbEllipse
 10
-0.005456
 20
-0.001382
 30
0.0
 11
0.0089285004647137
 21
0.0007807500131769
 31
0.0
210
0.0
220
0.0
230
1.0
 40
0.122415
 41
0.8963533496766982
 42
3.1415926535897931
  0
ELLIPSE
  5
13C
100
AcDbEntity
  8
1
  6
CONTINUOUS
 62
     1
100
AcDbEllipse
 10
-0.005603
 20
0.001058
 30
0.0
 11
-0.0087822506079636
 21
0.0008782502050644
 31
0.0
210
0.0
220
0.0
230
1.0
 40
0.07063
 41
6.2823074065658329
 42
2.276517300956717
  0
ENDBLK
  5
13D
100
AcDbEntity
  8
1
  6
CONTINUOUS
 62
     1
100
AcDbBlockEnd
  0
ENDSEC
  0
SECTION
  2
ENTITIES
  0
TEXT
  5
2C
100
AcDbEntity
  8
61
  6
CONTINUOUS
 62
     7
100
AcDbText
 10
785.6594
 20
461.8793
 30
0.0
 40
2.881584
  1
     
 41
1.001399
  7
MONOTXT
210
0.0
220
0.0
230
1.0
100
AcDbText
  0
TEXT
  5
2E
100
AcDbEntity
  8
1
  6
CONTINUOUS
 62
     1
100
AcDbText
 10
612.2988
 20
58.996
 30
0.0
 40
2.400048
  1
09-12-69
  7
MONOTXT
 72
     1
 11
620.3398
 21
61.396
 31
0.0
210
0.0
220
0.0
230
1.0
100
AcDbText
 73
     3
  0
TEXT
  5
2F
100
AcDbEntity
  8
1
  6
CONTINUOUS
 62
     1
100
AcDbText
 10
612.2412
 20
53.0946
 30
0.0
 40
2.400048
  1
01-00-70
  7
MONOTXT
 72
     1
 11
620.4618
 21
55.4946
 31
0.0
210
0.0
220
0.0
230
1.0
100
AcDbText
 73
     3
  0
TEXT
  5
30
100
AcDbEntity
  8
1
  6
CONTINUOUS
 62
     1
100
AcDbText
 10
611.6207
 20
47.3484
 30
0.0
 40
2.400048
  1
04-00-72
  7
MONOTXT
 72
     1
 11
620.4177
 21
49.7484
 31
0.0
210
0.0
220
0.0
230
1.0
100
AcDbText
 73
     3
  0
TEXT
  5
31
100
AcDbEntity
  8
1
  6
CONTINUOUS
 62
     1
100
AcDbText
 10
612.4439
 20
41.6023
 30
0.0
 40
2.400048
  1
10-12-76
  7
MONOTXT
 72
     1
 11
620.107
 21
44.0023
 31
0.0
210
0.0
220
0.0
230
1.0
100
AcDbText
 73
     3
  0
TEXT
  5
32
100
AcDbEntity
  8
1
  6
CONTINUOUS
 62
     1
100
AcDbText
 10
612.1469
 20
35.8492
 30
0.0
 40
2.400048
  1
02-09-93
  7
MONOTXT
 72
     1
 11
620.7549
 21
38.2492
 31
0.0
210
0.0
220
0.0
230
1.0
100
AcDbText
 73
     3
  0
TEXT
  5
33
100
AcDbEntity
  8
1
  6
CONTINUOUS
 62
     1
100
AcDbText
 10
610.8857
 20
29.9293
 30
0.0
 40
2.400048
  1
        
  7
MONOTXT
 72
     1
 11
620.0859
 21
32.3293
 31
0.0
210
0.0
220
0.0
230
1.0
100
AcDbText
 73
     3
  0
TEXT
  5
34
100
AcDbEntity
  8
1
  6
CONTINUOUS
 62
     1
100
AcDbText
 10
606.5714
 20
23.3993
 30
0.0
 40
2.400048
  1
        
  7
MONOTXT
 72
     1
 11
615.7716
 21
25.7993
 31
0.0
210
0.0
220
0.0
230
1.0
100
AcDbText
 73
     3
  0
TEXT
  5
35
100
AcDbEntity
  8
1
  6
CONTINUOUS
 62
     1
100
AcDbText
 10
606.6914
 20
17.9033
 30
0.0
 40
2.400048
  1
        
  7
MONOTXT
 72
     1
 11
615.8916
 21
20.3033
 31
0.0
210
0.0
220
0.0
230
1.0
100
AcDbText
 73
     3
  0
TEXT
  5
36
100
AcDbEntity
  8
1
  6
CONTINUOUS
 62
     1
100
AcDbText
 10
606.6914
 20
13.0793
 30
0.0
 40
2.400048
  1
        
  7
MONOTXT
 72
     1
 11
615.8916
 21
15.4793
 31
0.0
210
0.0
220
0.0
230
1.0
100
AcDbText
 73
     3
  0
TEXT
  5
38
100
AcDbEntity
  8
1
  6
CONTINUOUS
 62
     7
100
AcDbText
 10
653.4053
 20
88.249
 30
0.0
 40
8.3912
  1
FLASHER AND SIGN
  7
TXT
 72
     1
 11
710.7668
 21
96.6402
 31
0.0
210
0.0
220
0.0
230
1.0
100
AcDbText
 73
     3
  0
TEXT
  5
39
100
AcDbEntity
  8
1
  6
CONTINUOUS
 62
     7
100
AcDbText
 10
671.0192
 20
76.2534
 30
0.0
 40
8.3912
  1
INSTALLATION
  7
TXT
 72
     1
 11
710.7668
 21
84.6446
 31
0.0
210
0.0
220
0.0
230
1.0
100
AcDbText
 73
     3
  0
LINE
  5
3A
100
AcDbEntity
  8
1
  6
CONTINUOUS
 62
     7
100
AcDbLine
 10
605.2032
 20
45.2053
 30
0.0
 11
602.8032
 21
41.0484
 31
0.0
  0
LINE
  5
3B
100
AcDbEntity
  8
1
  6
CONTINUOUS
 62
     7
100
AcDbLine
 10
602.8032
 20
41.0484
 30
0.0
 11
607.6032
 21
41.0484
 31
0.0
  0
LINE
  5
3C
100
AcDbEntity
  8
1
  6
CONTINUOUS
 62
     7
100
AcDbLine
 10
607.6032
 20
41.0484
 30
0.0
 11
605.2032
 21
45.2053
 31
0.0
  0
LINE
  5
3D
100
AcDbEntity
  8
1
  6
CONTINUOUS
 62
     7
100
AcDbLine
 10
600.055
 20
135.3633
 30
0.0
 11
604.855
 21
135.3633
 31
0.0
  0
LINE
  5
3E
100
AcDbEntity
  8
1
  6
CONTINUOUS
 62
     7
100
AcDbLine
 10
602.455
 20
139.5202
 30
0.0
 11
600.055
 21
135.3633
 31
0.0
  0
LINE
  5
3F
100
AcDbEntity
  8
1
  6
CONTINUOUS
 62
     7
100
AcDbLine
 10
604.855
 20
135.3633
 30
0.0
 11
602.455
 21
139.5202
 31
0.0
  0
TEXT
  5
40
100
AcDbEntity
  8
1
  6
CONTINUOUS
 62
     7
100
AcDbText
 10
601.6333
 20
135.765
 30
0.0
 40
2.4
  1
2
  7
MONOTXT
210
0.0
220
0.0
230
1.0
100
AcDbText
  0
TEXT
  5
41
100
AcDbEntity
  8
1
  6
CONTINUOUS
 62
     7
100
AcDbText
 10
604.7315
 20
41.3697
 30
0.0
 40
2.4
  1
1
  7
MONOTXT
210
0.0
220
0.0
230
1.0
100
AcDbText
  0
SPLINE
  5
42
100
AcDbEntity
  8
1
  6
CONTINUOUS
 62
     6
100
AcDbSpline
210
0.0
220
0.0
230
1.0
 70
     8
 71
     3
 72
    65
 73
    61
 74
     0
 42
0.0
 43
0.0
 12
0.9983868238322777
 22
-0.0567780767382655
 32
0.0
 13
0.983274045076738
 23
0.1821322384379795
 33
0.0
 40
0.0
 40
0.0
 40
0.0
 40
0.0
 40
0.0737857349314691
 40
0.0737857349314691
 40
0.0737857349314691
 40
0.154234290010903
 40
0.154234290010903
 40
0.154234290010903
 40
0.2109224884436731
 40
0.2109224884436731
 40
0.2109224884436731
 40
0.2537028816911787
 40
0.2537028816911787
 40
0.2537028816911787
 40
0.3009424718991405
 40
0.3009424718991405
 40
0.3009424718991405
 40
0.3718035826691229
 40
0.3718035826691229
 40
0.3718035826691229
 40
0.4005409702344979
 40
0.4005409702344979
 40
0.4005409702344979
 40
0.4857061282226176
 40
0.4857061282226176
 40
0.4857061282226176
 40
0.5068354020280869
 40
0.5068354020280869
 40
0.5068354020280869
 40
0.6206048336149519
 40
0.6206048336149519
 40
0.6206048336149519
 40
0.6355443949694489
 40
0.6355443949694489
 40
0.6355443949694489
 40
0.692232593402219
 40
0.692232593402219
 40
0.692232593402219
 40
0.7444142378787048
 40
0.7444142378787048
 40
0.7444142378787048
 40
0.7731482215542603
 40
0.7731482215542603
 40
0.7731482215542603
 40
0.8206272337834252
 40
0.8206272337834252
 40
0.8206272337834252
 40
0.8587123669536994
 40
0.8587123669536994
 40
0.8587123669536994
 40
0.9203063156678994
 40
0.9203063156678994
 40
0.9203063156678994
 40
0.9344792280051117
 40
0.9344792280051117
 40
0.9344792280051117
 40
0.9769979650167486
 40
0.9769979650167486
 40
0.9769979650167486
 40
1.0
 40
1.0
 40
1.0
 40
1.0
 10
117.2587
 20
436.82660000000004
 30
0.0
 10
117.97026666666667
 20
436.78613333333334
 30
0.0
 10
118.68183333333333
 20
436.74566666666669
 30
0.0
 10
119.3934
 20
436.70520000000005
 30
0.0
 10
120.16922083080409
 20
436.66107921072768
 30
0.0
 10
120.94484242453717
 20
436.61314293432162
 30
0.0
 10
121.7206
 20
436.56830000000002
 30
0.0
 10
122.26723877219595
 20
436.53670135715771
 30
0.0
 10
122.81647035180333
 20
436.54730759934853
 30
0.0
 10
123.36330000000001
 20
436.56830000000002
 30
0.0
 10
123.77597120910525
 20
436.58414215374472
 30
0.0
 10
124.18217259152968
 20
436.70520000000005
 30
0.0
 10
124.59540000000001
 20
436.70520000000005
 30
0.0
 10
125.05170000000001
 20
436.70520000000005
 30
0.0
 10
125.50800000000001
 20
436.70520000000005
 30
0.0
 10
125.96430000000001
 20
436.70520000000005
 30
0.0
 10
126.64876666666667
 20
436.70520000000005
 30
0.0
 10
127.33323333333333
 20
436.70520000000005
 30
0.0
 10
128.01770000000002
 20
436.70520000000005
 30
0.0
 10
128.29528221204617
 20
436.70520000000005
 30
0.0
 10
128.56491171021335
 20
436.80399536638356
 30
0.0
 10
128.8391
 20
436.84220000000005
 30
0.0
 10
129.6516752198265
 20
436.95542197087053
 30
0.0
 10
130.49089056869485
 20
437.02875618333576
 30
0.0
 10
131.3032
 20
436.97910000000002
 30
0.0
 10
131.50473204425694
 20
436.96678041862867
 30
0.0
 10
131.65398025641142
 20
436.75505825819653
 30
0.0
 10
131.85079999999999
 20
436.70520000000005
 30
0.0
 10
132.91056526024062
 20
436.43674090636739
 30
0.0
 10
134.07607996006763
 20
436.28778156780089
 30
0.0
 10
135.1362
 20
436.4314
 30
0.0
 10
135.27540899629008
 20
436.45025916409662
 30
0.0
 10
135.40317992472276
 20
436.55986527217971
 30
0.0
 10
135.54689999999999
 20
436.56830000000002
 30
0.0
 10
136.09224614188233
 20
436.60030559327379
 30
0.0
 10
136.64393012037306
 20
436.60847347503716
 30
0.0
 10
137.18960000000001
 20
436.56830000000002
 30
0.0
 10
137.69189064333366
 20
436.53132020438596
 30
0.0
 10
138.19507735295824
 20
436.48655505326553
 30
0.0
 10
138.69550000000001
 20
436.4314
 30
0.0
 10
138.97105927597215
 20
436.40102869959253
 30
0.0
 10
139.24116915855706
 20
436.28497918476063
 30
0.0
 10
139.51680000000002
 20
436.2944
 30
0.0
 10
139.97224259505992
 20
436.30996661989553
 30
0.0
 10
140.43028044261331
 20
436.37621692070132
 30
0.0
 10
140.88580000000002
 20
436.4314
 30
0.0
 10
141.25119351157943
 20
436.4756649251778
 30
0.0
 10
141.6150175308091
 20
436.52687932758676
 30
0.0
 10
141.98090000000002
 20
436.56830000000002
 30
0.0
 10
142.57263079274827
 20
436.63528841673792
 30
0.0
 10
143.16554736229588
 20
436.70520000000005
 30
0.0
 10
143.76050000000001
 20
436.70520000000005
 30
0.0
 10
143.8974
 20
436.70520000000005
 30
0.0
 10
144.0343
 20
436.70520000000005
 30
0.0
 10
144.1712
 20
436.70520000000005
 30
0.0
 10
144.58190000000002
 20
436.70520000000005
 30
0.0
 10
144.99603467484351
 20
436.66779914483675
 30
0.0
 10
145.4033
 20
436.70520000000005
 30
0.0
 10
145.62362477714828
 20
436.72543333333334
 30
0.0
 10
145.84023333333334
 20
436.78613333333334
 30
0.0
 10
146.05870000000002
 20
436.82660000000004
 30
0.0
  0
SPLINE
  5
43
100
AcDbEntity
  8
1
  6
CONTINUOUS
 62
     6
100
AcDbSpline
210
0.0
220
0.0
230
1.0
 70
     8
 71
     3
 72
    65
 73
    61
 74
     0
 42
0.0
 43
0.0
 12
0.9983868238322732
 22
0.056778076738345
 32
0.0
 13
0.983274045076738
 23
-0.1821322384379795
 33
0.0
 40
0.0
 40
0.0
 40
0.0
 40
0.0
 40
0.0737857349314691
 40
0.0737857349314691
 40
0.0737857349314691
 40
0.154234290010903
 40
0.154234290010903
 40
0.154234290010903
 40
0.2109224884436731
 40
0.2109224884436731
 40
0.2109224884436731
 40
0.2537028816911787
 40
0.2537028816911787
 40
0.2537028816911787
 40
0.3009424718991405
 40
0.3009424718991405
 40
0.3009424718991405
 40
0.3718035826691229
 40
0.3718035826691229
 40
0.3718035826691229
 40
0.4005409702344979
 40
0.4005409702344979
 40
0.4005409702344979
 40
0.4857061282226176
 40
0.4857061282226176
 40
0.4857061282226176
 40
0.5068354020280869
 40
0.5068354020280869
 40
0.5068354020280869
 40
0.6206048336149519
 40
0.6206048336149519
 40
0.6206048336149519
 40
0.6355443949694489
 40
0.6355443949694489
 40
0.6355443949694489
 40
0.692232593402219
 40
0.692232593402219
 40
0.692232593402219
 40
0.7444142378787048
 40
0.7444142378787048
 40
0.7444142378787048
 40
0.7731482215542603
 40
0.7731482215542603
 40
0.7731482215542603
 40
0.8206272337834252
 40
0.8206272337834252
 40
0.8206272337834252
 40
0.8587123669536994
 40
0.8587123669536994
 40
0.8587123669536994
 40
0.9203063156678994
 40
0.9203063156678994
 40
0.9203063156678994
 40
0.9344792280051117
 40
0.9344792280051117
 40
0.9344792280051117
 40
0.9769979650167486
 40
0.9769979650167486
 40
0.9769979650167486
 40
1.0
 40
1.0
 40
1.0
 40
1.0
 10
117.2587
 20
236.23700000000002
 30
0.0
 10
117.97026666666667
 20
236.27746666666667
 30
0.0
 10
118.68183333333333
 20
236.31793333333337
 30
0.0
 10
119.3934
 20
236.35840000000002
 30
0.0
 10
120.16922083080409
 20
236.40252078927236
 30
0.0
 10
120.94484242453717
 20
236.45045706567845
 30
0.0
 10
121.7206
 20
236.49530000000001
 30
0.0
 10
122.26723877219595
 20
236.52689864284224
 30
0.0
 10
122.81647035180333
 20
236.51629240065157
 30
0.0
 10
123.36330000000001
 20
236.49530000000001
 30
0.0
 10
123.77597120910525
 20
236.47945784625529
 30
0.0
 10
124.18217259152968
 20
236.35840000000002
 30
0.0
 10
124.59540000000001
 20
236.35840000000002
 30
0.0
 10
125.05170000000001
 20
236.35840000000002
 30
0.0
 10
125.50800000000001
 20
236.35840000000002
 30
0.0
 10
125.96430000000001
 20
236.35840000000002
 30
0.0
 10
126.64876666666667
 20
236.35840000000002
 30
0.0
 10
127.33323333333333
 20
236.35840000000002
 30
0.0
 10
128.01770000000002
 20
236.35840000000002
 30
0.0
 10
128.29528221204617
 20
236.35840000000002
 30
0.0
 10
128.56491171021335
 20
236.25960463361645
 30
0.0
 10
128.8391
 20
236.22140000000002
 30
0.0
 10
129.6516752198265
 20
236.10817802912953
 30
0.0
 10
130.49089056869485
 20
236.03484381666428
 30
0.0
 10
131.3032
 20
236.08450000000002
 30
0.0
 10
131.50473204425694
 20
236.09681958137134
 30
0.0
 10
131.65398025641142
 20
236.30854174180348
 30
0.0
 10
131.85079999999999
 20
236.35840000000002
 30
0.0
 10
132.91056526024062
 20
236.62685909363265
 30
0.0
 10
134.07607996006763
 20
236.77581843219909
 30
0.0
 10
135.1362
 20
236.63220000000001
 30
0.0
 10
135.27540899629008
 20
236.61334083590341
 30
0.0
 10
135.40317992472276
 20
236.50373472782024
 30
0.0
 10
135.54689999999999
 20
236.49530000000001
 30
0.0
 10
136.09224614188233
 20
236.46329440672616
 30
0.0
 10
136.64393012037306
 20
236.45512652496288
 30
0.0
 10
137.18960000000001
 20
236.49530000000001
 30
0.0
 10
137.69189064333366
 20
236.53227979561407
 30
0.0
 10
138.19507735295824
 20
236.57704494673456
 30
0.0
 10
138.69550000000001
 20
236.63220000000001
 30
0.0
 10
138.97105927597215
 20
236.66257130040751
 30
0.0
 10
139.24116915855706
 20
236.77862081523938
 30
0.0
 10
139.51680000000002
 20
236.76920000000001
 30
0.0
 10
139.97224259505992
 20
236.75363338010453
 30
0.0
 10
140.43028044261331
 20
236.68738307929874
 30
0.0
 10
140.88580000000002
 20
236.63220000000001
 30
0.0
 10
141.25119351157943
 20
236.5879350748223
 30
0.0
 10
141.6150175308091
 20
236.5367206724132
 30
0.0
 10
141.98090000000002
 20
236.49530000000001
 30
0.0
 10
142.57263079274827
 20
236.42831158326217
 30
0.0
 10
143.16554736229588
 20
236.35840000000002
 30
0.0
 10
143.76050000000001
 20
236.35840000000002
 30
0.0
 10
143.8974
 20
236.35840000000002
 30
0.0
 10
144.0343
 20
236.35840000000002
 30
0.0
 10
144.1712
 20
236.35840000000002
 30
0.0
 10
144.58190000000002
 20
236.35840000000002
 30
0.0
 10
144.99603467484351
 20
236.39580085516326
 30
0.0
 10
145.4033
 20
236.35840000000002
 30
0.0
 10
145.62362477714828
 20
236.33816666666667
 30
0.0
 10
145.84023333333334
 20
236.27746666666667
 30
0.0
 10
146.05870000000002
 20
236.23700000000002
 30
0.0
  0
LINE
  5
44
100
AcDbEntity
  8
1
  6
CONTINUOUS
 62
     6
100
AcDbLine
 10
141.2587
 20
406.9564
 30
0.0
 11
122.0587
 21
406.9564
 31
0.0
  0
LINE
  5
45
100
AcDbEntity
  8
1
  6
CONTINUOUS
 62
     6
100
AcDbLine
 10
122.0587
 20
406.9564
 30
0.0
 11
122.0587
 21
387.7564
 31
0.0
  0
LINE
  5
46
100
AcDbEntity
  8
1
  6
CONTINUOUS
 62
     6
100
AcDbLine
 10
141.2587
 20
406.9564
 30
0.0
 11
141.2587
 21
387.7564
 31
0.0
  0
LINE
  5
47
100
AcDbEntity
  8
1
  6
CONTINUOUS
 62
     6
100
AcDbLine
 10
141.2587
 20
387.7564
 30
0.0
 11
122.0587
 21
387.7564
 31
0.0
  0
LINE
  5
48
100
AcDbEntity
  8
1
  6
CONTINUOUS
 62
     6
100
AcDbLine
 10
129.8587
 20
436.9564
 30
0.0
 11
129.8587
 21
406.9564
 31
0.0
  0
LINE
  5
49
100
AcDbEntity
  8
1
  6
CONTINUOUS
 62
     6
100
AcDbLine
 10
133.4587
 20
436.4175
 30
0.0
 11
133.4587
 21
406.9564
 31
0.0
  0
CIRCLE
  5
4A
100
AcDbEntity
  8
1
  6
CONTINUOUS
 62
     6
100
AcDbCircle
 10
131.6449
 20
397.3925
 30
0.0
 40
7.2
210
0.0
220
0.0
230
1.0
  0
ARC
  5
4B
100
AcDbEntity
  8
1
  6
CONTINUOUS
 62
     6
100
AcDbCircle
 10
131.584346
 20
396.592966
 30
0.0
 40
7.913316
210
0.0
220
0.0
230
1.0
100
AcDbArc
 50
111.485261
 51
230.573544
  0
ARC
  5
4C
100
AcDbEntity
  8
1
  6
CONTINUOUS
 62
     6
100
AcDbCircle
 10
131.761054
 20
396.592966
 30
0.0
 40
7.913316
210
0.0
220
0.0
230
1.0
100
AcDbArc
 50
309.426456
 51
68.514739
  0
ARC
  5
4D
100
AcDbEntity
  8
1
  6
CONTINUOUS
 62
     6
100
AcDbCircle
 10
131.6727
 20
397.168119
 30
0.0
 40
8.418942
210
0.0
220
0.0
230
1.0
100
AcDbArc
 50
307.404608
 51
232.595389
  0
LINE
  5
4E
100
AcDbEntity
  8
1
  6
CONTINUOUS
 62
     6
100
AcDbLine
 10
126.078
 20
400.1184
 30
0.0
 11
129.4721
 21
403.5125
 31
0.0
  0
LINE
  5
4F
100
AcDbEntity
  8
1
  6
CONTINUOUS
 62
     6
100
AcDbLine
 10
126.0779
 20
398.4212
 30
0.0
 11
127.775
 21
400.1183
 31
0.0
  0
LINE
  5
50
100
AcDbEntity
  8
1
  6
CONTINUOUS
 62
     6
100
AcDbLine
 10
129.472
 20
401.8153
 30
0.0
 11
131.1691
 21
403.5124
 31
0.0
  0
LINE
  5
51
100
AcDbEntity
  8
1
  6
CONTINUOUS
 62
     6
100
AcDbLine
 10
127.775
 20
398.4213
 30
0.0
 11
131.1691
 21
401.8154
 31
0.0
  0
LINE
  5
52
100
AcDbEntity
  8
1
  6
CONTINUOUS
 62
     6
100
AcDbLine
 10
127.7749
 20
396.7241
 30
0.0
 11
129.472
 21
398.4212
 31
0.0
  0
LINE
  5
53
100
AcDbEntity
  8
1
  6
CONTINUOUS
 62
     6
100
AcDbLine
 10
124.3808
 20
400.1182
 30
0.0
 11
126.0779
 21
401.8153
 31
0.0
  0
LINE
  5
54
100
AcDbEntity
  8
1
  6
CONTINUOUS
 62
     6
100
AcDbLine
 10
127.7749
 20
396.7241
 30
0.0
 11
129.472
 21
398.4212
 31
0.0
  0
LINE
  5
55
100
AcDbEntity
  8
1
  6
CONTINUOUS
 62
     6
100
AcDbLine
 10
131.169
 20
400.1182
 30
0.0
 11
132.8661
 21
401.8153
 31
0.0
  0
LINE
  5
56
100
AcDbEntity
  8
1
  6
CONTINUOUS
 62
     6
100
AcDbLine
 10
129.472
 20
396.7242
 30
0.0
 11
132.8661
 21
400.1183
 31
0.0
  0
LINE
  5
57
100
AcDbEntity
  8
1
  6
CONTINUOUS
 62
     6
100
AcDbLine
 10
129.4719
 20
395.027
 30
0.0
 11
131.169
 21
396.7241
 31
0.0
  0
LINE
  5
58
100
AcDbEntity
  8
1
  6
CONTINUOUS
 62
     6
100
AcDbLine
 10
126.0778
 20
398.4211
 30
0.0
 11
127.7749
 21
400.1182
 31
0.0
  0
LINE
  5
59
100
AcDbEntity
  8
1
  6
CONTINUOUS
 62
     6
100
AcDbLine
 10
124.3807
 20
400.1182
 30
0.0
 11
126.0778
 21
401.8153
 31
0.0
  0
LINE
  5
5A
100
AcDbEntity
  8
1
  6
CONTINUOUS
 62
     6
100
AcDbLine
 10
129.4719
 20
395.027
 30
0.0
 11
131.169
 21
396.7241
 31
0.0
  0
LINE
  5
5B
100
AcDbEntity
  8
1
  6
CONTINUOUS
 62
     6
100
AcDbLine
 10
132.866
 20
398.4211
 30
0.0
 11
134.5631
 21
400.1182
 31
0.0
  0
LINE
  5
5C
100
AcDbEntity
  8
1
  6
CONTINUOUS
 62
     6
100
AcDbLine
 10
131.169
 20
395.0271
 30
0.0
 11
134.5631
 21
398.4212
 31
0.0
  0
LINE
  5
5D
100
AcDbEntity
  8
1
  6
CONTINUOUS
 62
     6
100
AcDbLine
 10
134.0587
 20
387.1564
 30
0.0
 11
129.2587
 21
387.1564
 31
0.0
  0
LINE
  5
5E
100
AcDbEntity
  8
1
  6
CONTINUOUS
 62
     6
100
AcDbLine
 10
129.2587
 20
387.1564
 30
0.0
 11
129.2587
 21
387.7564
 31
0.0
  0
LINE
  5
5F
100
AcDbEntity
  8
1
  6
CONTINUOUS
 62
     6
100
AcDbLine
 10
134.0587
 20
387.1564
 30
0.0
 11
134.0587
 21
387.7564
 31
0.0
  0
LINE
  5
60
100
AcDbEntity
  8
1
  6
CONTINUOUS
 62
     6
100
AcDbLine
 10
133.4587
 20
385.9564
 30
0.0
 11
129.8587
 21
385.9564
 31
0.0
  0
LINE
  5
61
100
AcDbEntity
  8
1
  6
CONTINUOUS
 62
     6
100
AcDbLine
 10
133.4587
 20
384.7564
 30
0.0
 11
129.8587
 21
384.7564
 31
0.0
  0
LINE
  5
62
100
AcDbEntity
  8
1
  6
CONTINUOUS
 62
     6
100
AcDbLine
 10
132.5587
 20
386.5564
 30
0.0
 11
130.7587
 21
386.5564
 31
0.0
  0
LINE
  5
63
100
AcDbEntity
  8
1
  6
CONTINUOUS
 62
     6
100
AcDbLine
 10
132.5587
 20
385.3564
 30
0.0
 11
130.7587
 21
385.3564
 31
0.0
  0
LINE
  5
64
100
AcDbEntity
  8
1
  6
HIDDEN
 62
     6
100
AcDbLine
 10
139.4587
 20
367.3564
 30
0.0
 11
123.8587
 21
367.3564
 31
0.0
  0
LINE
  5
65
100
AcDbEntity
  8
1
  6
CONTINUOUS
 62
     6
100
AcDbLine
 10
125.0587
 20
381.7564
 30
0.0
 11
125.0587
 21
380.2564
 31
0.0
  0
LINE
  5
66
100
AcDbEntity
  8
1
  6
HIDDEN
 62
     6
100
AcDbLine
 10
125.0587
 20
370.0564
 30
0.0
 11
125.0587
 21
368.5564
 31
0.0
  0
LINE
  5
67
100
AcDbEntity
  8
1
  6
CONTINUOUS
 62
     6
100
AcDbLine
 10
126.2587
 20
381.7564
 30
0.0
 11
126.2587
 21
380.2564
 31
0.0
  0
LINE
  5
68
100
AcDbEntity
  8
1
  6
HIDDEN
 62
     6
100
AcDbLine
 10
126.2587
 20
370.0564
 30
0.0
 11
126.2587
 21
368.5564
 31
0.0
  0
LINE
  5
69
100
AcDbEntity
  8
1
  6
CONTINUOUS
 62
     6
100
AcDbLine
 10
126.5587
 20
381.7564
 30
0.0
 11
126.5587
 21
380.2564
 31
0.0
  0
LINE
  5
6A
100
AcDbEntity
  8
1
  6
HIDDEN
 62
     6
100
AcDbLine
 10
126.5587
 20
370.0564
 30
0.0
 11
126.5587
 21
368.5564
 31
0.0
  0
LINE
  5
6B
100
AcDbEntity
  8
1
  6
CONTINUOUS
 62
     6
100
AcDbLine
 10
136.7587
 20
381.7564
 30
0.0
 11
136.7587
 21
380.2564
 31
0.0
  0
LINE
  5
6C
100
AcDbEntity
  8
1
  6
HIDDEN
 62
     6
100
AcDbLine
 10
136.7587
 20
370.0564
 30
0.0
 11
136.7587
 21
368.5564
 31
0.0
  0
LINE
  5
6D
100
AcDbEntity
  8
1
  6
CONTINUOUS
 62
     6
100
AcDbLine
 10
137.0587
 20
381.7564
 30
0.0
 11
137.0587
 21
380.2564
 31
0.0
  0
LINE
  5
6E
100
AcDbEntity
  8
1
  6
HIDDEN
 62
     6
100
AcDbLine
 10
137.0587
 20
370.0564
 30
0.0
 11
137.0587
 21
368.5564
 31
0.0
  0
LINE
  5
6F
100
AcDbEntity
  8
1
  6
CONTINUOUS
 62
     6
100
AcDbLine
 10
138.2587
 20
381.7564
 30
0.0
 11
138.2587
 21
380.2564
 31
0.0
  0
LINE
  5
70
100
AcDbEntity
  8
1
  6
HIDDEN
 62
     6
100
AcDbLine
 10
138.2587
 20
370.0564
 30
0.0
 11
138.2587
 21
368.5564
 31
0.0
  0
LINE
  5
71
100
AcDbEntity
  8
1
  6
CONTINUOUS
 62
     6
100
AcDbLine
 10
138.2587
 20
381.7564
 30
0.0
 11
136.7587
 21
381.7564
 31
0.0
  0
LINE
  5
72
100
AcDbEntity
  8
1
  6
CONTINUOUS
 62
     6
100
AcDbLine
 10
126.5587
 20
381.7564
 30
0.0
 11
125.0587
 21
381.7564
 31
0.0
  0
LINE
  5
73
100
AcDbEntity
  8
1
  6
CONTINUOUS
 62
     6
100
AcDbLine
 10
138.2587
 20
380.2564
 30
0.0
 11
136.7587
 21
380.2564
 31
0.0
  0
LINE
  5
74
100
AcDbEntity
  8
1
  6
CONTINUOUS
 62
     6
100
AcDbLine
 10
126.5587
 20
380.2564
 30
0.0
 11
125.0587
 21
380.2564
 31
0.0
  0
LINE
  5
75
100
AcDbEntity
  8
1
  6
HIDDEN
 62
     6
100
AcDbLine
 10
138.2587
 20
370.0564
 30
0.0
 11
136.7587
 21
370.0564
 31
0.0
  0
LINE
  5
76
100
AcDbEntity
  8
1
  6
HIDDEN
 62
     6
100
AcDbLine
 10
126.5587
 20
370.0564
 30
0.0
 11
125.0587
 21
370.0564
 31
0.0
  0
LINE
  5
77
100
AcDbEntity
  8
1
  6
HIDDEN
 62
     6
100
AcDbLine
 10
138.2587
 20
368.5564
 30
0.0
 11
136.7587
 21
368.5564
 31
0.0
  0
LINE
  5
78
100
AcDbEntity
  8
1
  6
HIDDEN
 62
     6
100
AcDbLine
 10
126.5587
 20
368.5564
 30
0.0
 11
125.0587
 21
368.5564
 31
0.0
  0
LINE
  5
79
100
AcDbEntity
  8
1
  6
CONTINUOUS
 62
     6
100
AcDbLine
 10
129.8587
 20
382.9564
 30
0.0
 11
123.8587
 21
382.9564
 31
0.0
  0
LINE
  5
7A
100
AcDbEntity
  8
1
  6
CONTINUOUS
 62
     6
100
AcDbLine
 10
139.4587
 20
382.9564
 30
0.0
 11
133.4587
 21
382.9564
 31
0.0
  0
LINE
  5
7B
100
AcDbEntity
  8
1
  6
CONTINUOUS
 62
     6
100
AcDbLine
 10
132.5587
 20
382.9564
 30
0.0
 11
130.7587
 21
382.9564
 31
0.0
  0
LINE
  5
7C
100
AcDbEntity
  8
1
  6
HIDDEN
 62
     6
100
AcDbLine
 10
133.4587
 20
380.5564
 30
0.0
 11
129.8587
 21
380.5564
 31
0.0
  0
LINE
  5
7D
100
AcDbEntity
  8
1
  6
HIDDEN
 62
     6
100
AcDbLine
 10
132.8587
 20
379.9564
 30
0.0
 11
130.4587
 21
379.9564
 31
0.0
  0
LINE
  5
7E
100
AcDbEntity
  8
1
  6
HIDDEN
 62
     6
100
AcDbLine
 10
133.4587
 20
379.3564
 30
0.0
 11
129.8587
 21
379.3564
 31
0.0
  0
LINE
  5
7F
100
AcDbEntity
  8
1
  6
HIDDEN
 62
     6
100
AcDbLine
 10
132.8587
 20
378.7564
 30
0.0
 11
130.4587
 21
378.7564
 31
0.0
  0
LINE
  5
80
100
AcDbEntity
  8
1
  6
HIDDEN
 62
     6
100
AcDbLine
 10
134.0587
 20
378.1564
 30
0.0
 11
129.2587
 21
378.1564
 31
0.0
  0
LINE
  5
81
100
AcDbEntity
  8
1
  6
HIDDEN
 62
     6
100
AcDbLine
 10
134.0587
 20
369.7564
 30
0.0
 11
129.2587
 21
369.7564
 31
0.0
  0
LINE
  5
82
100
AcDbEntity
  8
1
  6
HIDDEN
 62
     6
100
AcDbLine
 10
129.2587
 20
378.1564
 30
0.0
 11
129.2587
 21
369.7564
 31
0.0
  0
LINE
  5
83
100
AcDbEntity
  8
1
  6
HIDDEN
 62
     6
100
AcDbLine
 10
134.0587
 20
378.1564
 30
0.0
 11
134.0587
 21
369.7564
 31
0.0
  0
LINE
  5
84
100
AcDbEntity
  8
1
  6
CONTINUOUS
 62
     6
100
AcDbLine
 10
129.8587
 20
387.7564
 30
0.0
 11
129.8587
 21
380.5564
 31
0.0
  0
LINE
  5
85
100
AcDbEntity
  8
1
  6
HIDDEN
 62
     6
100
AcDbLine
 10
129.8587
 20
380.5564
 30
0.0
 11
129.8587
 21
378.1564
 31
0.0
  0
LINE
  5
86
100
AcDbEntity
  8
1
  6
CONTINUOUS
 62
     6
100
AcDbLine
 10
133.4587
 20
387.7564
 30
0.0
 11
133.4587
 21
380.5564
 31
0.0
  0
LINE
  5
87
100
AcDbEntity
  8
1
  6
HIDDEN
 62
     6
100
AcDbLine
 10
133.4587
 20
380.5564
 30
0.0
 11
133.4587
 21
378.1564
 31
0.0
  0
LINE
  5
88
100
AcDbEntity
  8
1
  6
HIDDEN
 62
     6
100
AcDbLine
 10
129.8587
 20
369.7564
 30
0.0
 11
129.8587
 21
367.3564
 31
0.0
  0
LINE
  5
89
100
AcDbEntity
  8
1
  6
HIDDEN
 62
     6
100
AcDbLine
 10
133.4587
 20
369.7564
 30
0.0
 11
133.4587
 21
367.3564
 31
0.0
  0
LINE
  5
8A
100
AcDbEntity
  8
1
  6
CONTINUOUS
 62
     6
100
AcDbLine
 10
133.4587
 20
342.4564
 30
0.0
 11
129.8587
 21
342.4564
 31
0.0
  0
LINE
  5
8B
100
AcDbEntity
  8
1
  6
CONTINUOUS
 62
     6
100
AcDbLine
 10
133.4587
 20
325.0564
 30
0.0
 11
129.8587
 21
325.0564
 31
0.0
  0
LINE
  5
8C
100
AcDbEntity
  8
1
  6
CONTINUOUS
 62
     6
100
AcDbLine
 10
133.4587
 20
341.2564
 30
0.0
 11
129.8587
 21
341.2564
 31
0.0
  0
LINE
  5
8D
100
AcDbEntity
  8
1
  6
CONTINUOUS
 62
     6
100
AcDbLine
 10
134.0587
 20
340.0564
 30
0.0
 11
129.2587
 21
340.0564
 31
0.0
  0
LINE
  5
8E
100
AcDbEntity
  8
1
  6
CONTINUOUS
 62
     6
100
AcDbLine
 10
133.4587
 20
326.2564
 30
0.0
 11
129.8587
 21
326.2564
 31
0.0
  0
LINE
  5
8F
100
AcDbEntity
  8
1
  6
CONTINUOUS
 62
     6
100
AcDbLine
 10
134.0587
 20
327.4564
 30
0.0
 11
129.2587
 21
327.4564
 31
0.0
  0
LINE
  5
90
100
AcDbEntity
  8
1
  6
CONTINUOUS
 62
     6
100
AcDbLine
 10
132.5587
 20
341.8564
 30
0.0
 11
130.7587
 21
341.8564
 31
0.0
  0
LINE
  5
91
100
AcDbEntity
  8
1
  6
CONTINUOUS
 62
     6
100
AcDbLine
 10
132.5587
 20
340.6564
 30
0.0
 11
130.7587
 21
340.6564
 31
0.0
  0
LINE
  5
92
100
AcDbEntity
  8
1
  6
CONTINUOUS
 62
     6
100
AcDbLine
 10
132.5587
 20
325.6564
 30
0.0
 11
130.7587
 21
325.6564
 31
0.0
  0
LINE
  5
93
100
AcDbEntity
  8
1
  6
CONTINUOUS
 62
     6
100
AcDbLine
 10
132.5587
 20
326.8564
 30
0.0
 11
130.7587
 21
326.8564
 31
0.0
  0
LINE
  5
94
100
AcDbEntity
  8
1
  6
CONTINUOUS
 62
     6
100
AcDbLine
 10
128.0587
 20
331.3564
 30
0.0
 11
128.0587
 21
336.1564
 31
0.0
  0
LINE
  5
95
100
AcDbEntity
  8
1
  6
CONTINUOUS
 62
     6
100
AcDbLine
 10
135.2587
 20
331.3564
 30
0.0
 11
135.2587
 21
336.1564
 31
0.0
  0
LINE
  5
96
100
AcDbEntity
  8
1
  6
CONTINUOUS
 62
     6
100
AcDbLine
 10
126.8587
 20
331.9564
 30
0.0
 11
126.8587
 21
335.5564
 31
0.0
  0
LINE
  5
97
100
AcDbEntity
  8
1
  6
CONTINUOUS
 62
     6
100
AcDbLine
 10
125.6587
 20
331.9564
 30
0.0
 11
125.6587
 21
335.5564
 31
0.0
  0
LINE
  5
98
100
AcDbEntity
  8
1
  6
CONTINUOUS
 62
     6
100
AcDbLine
 10
136.4587
 20
331.9564
 30
0.0
 11
136.4587
 21
335.5564
 31
0.0
  0
LINE
  5
99
100
AcDbEntity
  8
1
  6
CONTINUOUS
 62
     6
100
AcDbLine
 10
137.6587
 20
331.9564
 30
0.0
 11
137.6587
 21
335.5564
 31
0.0
  0
LINE
  5
9A
100
AcDbEntity
  8
1
  6
CONTINUOUS
 62
     6
100
AcDbLine
 10
127.4587
 20
332.8564
 30
0.0
 11
127.4587
 21
334.6564
 31
0.0
  0
LINE
  5
9B
100
AcDbEntity
  8
1
  6
CONTINUOUS
 62
     6
100
AcDbLine
 10
126.2587
 20
332.8564
 30
0.0
 11
126.2587
 21
334.6564
 31
0.0
  0
LINE
  5
9C
100
AcDbEntity
  8
1
  6
CONTINUOUS
 62
     6
100
AcDbLine
 10
137.0587
 20
332.8564
 30
0.0
 11
137.0587
 21
334.6564
 31
0.0
  0
LINE
  5
9D
100
AcDbEntity
  8
1
  6
CONTINUOUS
 62
     6
100
AcDbLine
 10
135.8587
 20
332.8564
 30
0.0
 11
135.8587
 21
334.6564
 31
0.0
  0
LINE
  5
9E
100
AcDbEntity
  8
1
  6
CONTINUOUS
 62
     6
100
AcDbLine
 10
129.2587
 20
340.0564
 30
0.0
 11
129.2587
 21
337.0564
 31
0.0
  0
LINE
  5
9F
100
AcDbEntity
  8
1
  6
CONTINUOUS
 62
     6
100
AcDbLine
 10
134.0587
 20
340.0564
 30
0.0
 11
134.0587
 21
337.0564
 31
0.0
  0
LINE
  5
A0
100
AcDbEntity
  8
1
  6
CONTINUOUS
 62
     6
100
AcDbLine
 10
129.2587
 20
327.4564
 30
0.0
 11
129.2587
 21
330.4564
 31
0.0
  0
LINE
  5
A1
100
AcDbEntity
  8
1
  6
CONTINUOUS
 62
     6
100
AcDbLine
 10
134.0587
 20
327.4564
 30
0.0
 11
134.0587
 21
330.4564
 31
0.0
  0
ARC
  5
A2
100
AcDbEntity
  8
1
  6
CONTINUOUS
 62
     6
100
AcDbCircle
 10
128.088256
 20
337.366992
 30
0.0
 40
1.210953
210
0.0
220
0.0
230
1.0
100
AcDbArc
 50
268.601444
 51
345.138356
  0
ARC
  5
A3
100
AcDbEntity
  8
1
  6
CONTINUOUS
 62
     6
100
AcDbCircle
 10
135.248544
 20
337.366992
 30
0.0
 40
1.210953
210
0.0
220
0.0
230
1.0
100
AcDbArc
 50
194.861644
 51
271.398556
  0
ARC
  5
A4
100
AcDbEntity
  8
1
  6
CONTINUOUS
 62
     6
100
AcDbCircle
 10
128.088256
 20
330.168008
 30
0.0
 40
1.210953
210
0.0
220
0.0
230
1.0
100
AcDbArc
 50
14.861644
 51
91.398556
  0
ARC
  5
A5
100
AcDbEntity
  8
1
  6
CONTINUOUS
 62
     6
100
AcDbCircle
 10
135.248544
 20
330.168008
 30
0.0
 40
1.210953
210
0.0
220
0.0
230
1.0
100
AcDbArc
 50
88.601444
 51
165.138356
  0
LINE
  5
A6
100
AcDbEntity
  8
1
  6
CONTINUOUS
 62
     6
100
AcDbLine
 10
129.8587
 20
367.3564
 30
0.0
 11
129.8587
 21
340.0564
 31
0.0
  0
LINE
  5
A7
100
AcDbEntity
  8
1
  6
CONTINUOUS
 62
     6
100
AcDbLine
 10
133.4587
 20
367.3564
 30
0.0
 11
133.4587
 21
340.0564
 31
0.0
  0
LINE
  5
A8
100
AcDbEntity
  8
1
  6
CONTINUOUS
 62
     6
100
AcDbLine
 10
117.2587
 20
436.8266
 30
0.0
 11
117.2587
 21
335.5564
 31
0.0
  0
LINE
  5
A9
100
AcDbEntity
  8
1
  6
CONTINUOUS
 62
     6
100
AcDbLine
 10
117.2587
 20
328.9564
 30
0.0
 11
117.2587
 21
236.4266
 31
0.0
  0
LINE
  5
AA
100
AcDbEntity
  8
1
  6
CONTINUOUS
 62
     6
100
AcDbLine
 10
146.0587
 20
436.8266
 30
0.0
 11
146.0587
 21
338.5564
 31
0.0
  0
LINE
  5
AB
100
AcDbEntity
  8
1
  6
CONTINUOUS
 62
     6
100
AcDbLine
 10
146.0587
 20
331.9564
 30
0.0
 11
146.0587
 21
236.4266
 31
0.0
  0
LINE
  5
AC
100
AcDbEntity
  8
1
  6
CONTINUOUS
 62
     6
100
AcDbLine
 10
93.2587
 20
336.1564
 30
0.0
 11
99.2587
 21
336.1564
 31
0.0
  0
LINE
  5
AD
100
AcDbEntity
  8
1
  6
CONTINUOUS
 62
     6
100
AcDbLine
 10
99.2587
 20
331.3564
 30
0.0
 11
93.2587
 21
331.3564
 31
0.0
  0
LINE
  5
AE
100
AcDbEntity
  8
1
  6
CONTINUOUS
 62
     6
100
AcDbLine
 10
92.0587
 20
331.9564
 30
0.0
 11
92.0587
 21
335.5564
 31
0.0
  0
LINE
  5
AF
100
AcDbEntity
  8
1
  6
CONTINUOUS
 62
     6
100
AcDbLine
 10
90.8587
 20
331.9564
 30
0.0
 11
90.8587
 21
335.5564
 31
0.0
  0
LINE
  5
B0
100
AcDbEntity
  8
1
  6
CONTINUOUS
 62
     6
100
AcDbLine
 10
89.6587
 20
331.3564
 30
0.0
 11
89.6587
 21
336.1564
 31
0.0
  0
LINE
  5
B1
100
AcDbEntity
  8
1
  6
CONTINUOUS
 62
     6
100
AcDbLine
 10
86.9587
 20
331.3564
 30
0.0
 11
86.9587
 21
336.1564
 31
0.0
  0
LINE
  5
B2
100
AcDbEntity
  8
1
  6
CONTINUOUS
 62
     6
100
AcDbLine
 10
86.9587
 20
336.1564
 30
0.0
 11
89.6587
 21
336.1564
 31
0.0
  0
LINE
  5
B3
100
AcDbEntity
  8
1
  6
CONTINUOUS
 62
     6
100
AcDbLine
 10
89.6587
 20
331.3564
 30
0.0
 11
86.9587
 21
331.3564
 31
0.0
  0
LINE
  5
B4
100
AcDbEntity
  8
1
  6
CONTINUOUS
 62
     6
100
AcDbLine
 10
91.4587
 20
332.8564
 30
0.0
 11
91.4587
 21
334.6564
 31
0.0
  0
LINE
  5
B5
100
AcDbEntity
  8
1
  6
CONTINUOUS
 62
     6
100
AcDbLine
 10
90.2587
 20
332.8564
 30
0.0
 11
90.2587
 21
334.6564
 31
0.0
  0
LINE
  5
B6
100
AcDbEntity
  8
1
  6
CONTINUOUS
 62
     6
100
AcDbLine
 10
93.2587
 20
335.5564
 30
0.0
 11
93.2587
 21
336.1564
 31
0.0
  0
LINE
  5
B7
100
AcDbEntity
  8
1
  6
CONTINUOUS
 62
     6
100
AcDbLine
 10
99.2587
 20
331.3564
 30
0.0
 11
99.2587
 21
331.9564
 31
0.0
  0
LINE
  5
B8
100
AcDbEntity
  8
1
  6
HIDDEN
 62
     6
100
AcDbLine
 10
99.2587
 20
331.9564
 30
0.0
 11
99.2587
 21
335.5564
 31
0.0
  0
LINE
  5
B9
100
AcDbEntity
  8
1
  6
CONTINUOUS
 62
     6
100
AcDbLine
 10
93.2587
 20
331.3564
 30
0.0
 11
93.2587
 21
331.9564
 31
0.0
  0
LINE
  5
BA
100
AcDbEntity
  8
1
  6
HIDDEN
 62
     6
100
AcDbLine
 10
93.2587
 20
331.9564
 30
0.0
 11
93.2587
 21
335.5564
 31
0.0
  0
LINE
  5
BB
100
AcDbEntity
  8
1
  6
HIDDEN
 62
     6
100
AcDbLine
 10
98.6587
 20
331.9564
 30
0.0
 11
98.6587
 21
335.5564
 31
0.0
  0
CIRCLE
  5
BC
100
AcDbEntity
  8
1
  6
CONTINUOUS
 62
     6
100
AcDbCircle
 10
95.982
 20
333.7646
 30
0.0
 40
1.904861
210
0.0
220
0.0
230
1.0
  0
LINE
  5
BD
100
AcDbEntity
  8
1
  6
CONTINUOUS
 62
     6
100
AcDbLine
 10
94.9803
 20
333.1564
 30
0.0
 11
94.9803
 21
334.3564
 31
0.0
  0
LINE
  5
BE
100
AcDbEntity
  8
1
  6
CONTINUOUS
 62
     6
100
AcDbLine
 10
95.3355
 20
335.5564
 30
0.0
 11
89.6587
 21
335.5564
 31
0.0
  0
LINE
  5
BF
100
AcDbEntity
  8
1
  6
CONTINUOUS
 62
     6
100
AcDbLine
 10
95.3829
 20
331.9564
 30
0.0
 11
89.6587
 21
331.9564
 31
0.0
  0
LINE
  5
C0
100
AcDbEntity
  8
1
  6
CONTINUOUS
 62
     6
100
AcDbLine
 10
96.9837
 20
333.1564
 30
0.0
 11
96.9837
 21
334.3564
 31
0.0
  0
LINE
  5
C1
100
AcDbEntity
  8
1
  6
CONTINUOUS
 62
     6
100
AcDbLine
 10
95.982
 20
334.9564
 30
0.0
 11
94.9803
 21
334.3564
 31
0.0
  0
LINE
  5
C2
100
AcDbEntity
  8
1
  6
CONTINUOUS
 62
     6
100
AcDbLine
 10
96.9837
 20
334.3564
 30
0.0
 11
95.982
 21
334.9564
 31
0.0
  0
LINE
  5
C3
100
AcDbEntity
  8
1
  6
CONTINUOUS
 62
     6
100
AcDbLine
 10
94.9803
 20
333.1564
 30
0.0
 11
95.982
 21
332.5564
 31
0.0
  0
LINE
  5
C4
100
AcDbEntity
  8
1
  6
CONTINUOUS
 62
     6
100
AcDbLine
 10
96.9837
 20
333.1564
 30
0.0
 11
95.982
 21
332.5564
 31
0.0
  0
LINE
  5
C5
100
AcDbEntity
  8
1
  6
CONTINUOUS
 62
     6
100
AcDbLine
 10
176.3375
 20
331.3391
 30
0.0
 11
176.3375
 21
336.1391
 31
0.0
  0
LINE
  5
C6
100
AcDbEntity
  8
1
  6
CONTINUOUS
 62
     6
100
AcDbLine
 10
170.0375
 20
336.1391
 30
0.0
 11
164.0375
 21
336.1391
 31
0.0
  0
LINE
  5
C7
100
AcDbEntity
  8
1
  6
CONTINUOUS
 62
     6
100
AcDbLine
 10
164.0375
 20
331.3391
 30
0.0
 11
170.0375
 21
331.3391
 31
0.0
  0
LINE
  5
C8
100
AcDbEntity
  8
1
  6
CONTINUOUS
 62
     6
100
AcDbLine
 10
171.2375
 20
331.9391
 30
0.0
 11
171.2375
 21
335.5391
 31
0.0
  0
LINE
  5
C9
100
AcDbEntity
  8
1
  6
CONTINUOUS
 62
     6
100
AcDbLine
 10
172.4375
 20
331.9391
 30
0.0
 11
172.4375
 21
335.5391
 31
0.0
  0
LINE
  5
CA
100
AcDbEntity
  8
1
  6
CONTINUOUS
 62
     6
100
AcDbLine
 10
173.6375
 20
331.3391
 30
0.0
 11
173.6375
 21
336.1391
 31
0.0
  0
LINE
  5
CB
100
AcDbEntity
  8
1
  6
CONTINUOUS
 62
     6
100
AcDbLine
 10
176.3375
 20
336.1391
 30
0.0
 11
173.6375
 21
336.1391
 31
0.0
  0
LINE
  5
CC
100
AcDbEntity
  8
1
  6
CONTINUOUS
 62
     6
100
AcDbLine
 10
173.6375
 20
331.3391
 30
0.0
 11
176.3375
 21
331.3391
 31
0.0
  0
LINE
  5
CD
100
AcDbEntity
  8
1
  6
CONTINUOUS
 62
     6
100
AcDbLine
 10
171.8375
 20
332.8391
 30
0.0
 11
171.8375
 21
334.6391
 31
0.0
  0
LINE
  5
CE
100
AcDbEntity
  8
1
  6
CONTINUOUS
 62
     6
100
AcDbLine
 10
173.0375
 20
332.8391
 30
0.0
 11
173.0375
 21
334.6391
 31
0.0
  0
LINE
  5
CF
100
AcDbEntity
  8
1
  6
CONTINUOUS
 62
     6
100
AcDbLine
 10
170.0375
 20
335.5391
 30
0.0
 11
170.0375
 21
336.1391
 31
0.0
  0
LINE
  5
D0
100
AcDbEntity
  8
1
  6
CONTINUOUS
 62
     6
100
AcDbLine
 10
164.0375
 20
335.5564
 30
0.0
 11
164.0375
 21
336.1391
 31
0.0
  0
LINE
  5
D1
100
AcDbEntity
  8
1
  6
CONTINUOUS
 62
     6
100
AcDbLine
 10
164.0375
 20
331.3391
 30
0.0
 11
164.0375
 21
331.9564
 31
0.0
  0
LINE
  5
D2
100
AcDbEntity
  8
1
  6
HIDDEN
 62
     6
100
AcDbLine
 10
164.0375
 20
331.9391
 30
0.0
 11
164.0375
 21
335.5391
 31
0.0
  0
LINE
  5
D3
100
AcDbEntity
  8
1
  6
CONTINUOUS
 62
     6
100
AcDbLine
 10
170.0375
 20
331.3391
 30
0.0
 11
170.0375
 21
331.9391
 31
0.0
  0
LINE
  5
D4
100
AcDbEntity
  8
1
  6
HIDDEN
 62
     6
100
AcDbLine
 10
170.0375
 20
331.9391
 30
0.0
 11
170.0375
 21
335.5391
 31
0.0
  0
LINE
  5
D5
100
AcDbEntity
  8
1
  6
HIDDEN
 62
     6
100
AcDbLine
 10
164.6375
 20
331.9391
 30
0.0
 11
164.6375
 21
335.5391
 31
0.0
  0
CIRCLE
  5
D6
100
AcDbEntity
  8
1
  6
CONTINUOUS
 62
     6
100
AcDbCircle
 10
167.3142
 20
333.7473
 30
0.0
 40
1.904861
210
0.0
220
0.0
230
1.0
  0
LINE
  5
D7
100
AcDbEntity
  8
1
  6
CONTINUOUS
 62
     6
100
AcDbLine
 10
168.3159
 20
333.1391
 30
0.0
 11
168.3159
 21
334.3391
 31
0.0
  0
LINE
  5
D8
100
AcDbEntity
  8
1
  6
CONTINUOUS
 62
     6
100
AcDbLine
 10
166.3125
 20
333.1391
 30
0.0
 11
166.3125
 21
334.3391
 31
0.0
  0
LINE
  5
D9
100
AcDbEntity
  8
1
  6
CONTINUOUS
 62
     6
100
AcDbLine
 10
167.3142
 20
334.9391
 30
0.0
 11
168.3159
 21
334.3391
 31
0.0
  0
LINE
  5
DA
100
AcDbEntity
  8
1
  6
CONTINUOUS
 62
     6
100
AcDbLine
 10
166.3125
 20
334.3391
 30
0.0
 11
167.3142
 21
334.9391
 31
0.0
  0
LINE
  5
DB
100
AcDbEntity
  8
1
  6
CONTINUOUS
 62
     6
100
AcDbLine
 10
168.3159
 20
333.1391
 30
0.0
 11
167.3142
 21
332.5391
 31
0.0
  0
LINE
  5
DC
100
AcDbEntity
  8
1
  6
CONTINUOUS
 62
     6
100
AcDbLine
 10
166.3125
 20
333.1391
 30
0.0
 11
167.3142
 21
332.5391
 31
0.0
  0
LINE
  5
DD
100
AcDbEntity
  8
1
  6
CONTINUOUS
 62
     6
100
AcDbLine
 10
167.9106
 20
335.5564
 30
0.0
 11
173.6587
 21
335.5564
 31
0.0
  0
LINE
  5
DE
100
AcDbEntity
  8
1
  6
CONTINUOUS
 62
     6
100
AcDbLine
 10
167.9632
 20
331.9564
 30
0.0
 11
173.6587
 21
331.9564
 31
0.0
  0
LINE
  5
DF
100
AcDbEntity
  8
1
  6
HIDDEN
 62
     6
100
AcDbLine
 10
129.2587
 20
336.1564
 30
0.0
 11
129.2587
 21
331.3564
 31
0.0
  0
LINE
  5
E0
100
AcDbEntity
  8
1
  6
HIDDEN
 62
     6
100
AcDbLine
 10
134.0587
 20
336.1564
 30
0.0
 11
134.0587
 21
331.3564
 31
0.0
  0
ARC
  5
E1
100
AcDbEntity
  8
1
  6
HIDDEN
 62
     6
100
AcDbCircle
 10
131.6587
 20
335.4564
 30
0.0
 40
2.5
210
0.0
220
0.0
230
1.0
100
AcDbArc
 50
16.260203
 51
163.739794
  0
ARC
  5
E2
100
AcDbEntity
  8
1
  6
HIDDEN
 62
     6
100
AcDbCircle
 10
131.6587
 20
332.0564
 30
0.0
 40
2.5
210
0.0
220
0.0
230
1.0
100
AcDbArc
 50
196.260206
 51
343.739797
  0
CIRCLE
  5
E3
100
AcDbEntity
  8
1
  6
HIDDEN
 62
     6
100
AcDbCircle
 10
131.6531
 20
372.4776
 30
0.0
 40
2.4
210
0.0
220
0.0
230
1.0
  0
CIRCLE
  5
E4
100
AcDbEntity
  8
1
  6
HIDDEN
 62
     6
100
AcDbCircle
 10
131.678
 20
372.4526
 30
0.0
 40
1.8
210
0.0
220
0.0
230
1.0
  0
LINE
  5
E5
100
AcDbEntity
  8
1
  6
CONTINUOUS
 62
     6
100
AcDbLine
 10
123.8587
 20
280.9564
 30
0.0
 11
123.8587
 21
265.3564
 31
0.0
  0
LINE
  5
E6
100
AcDbEntity
  8
1
  6
CONTINUOUS
 62
     6
100
AcDbLine
 10
139.4587
 20
280.9564
 30
0.0
 11
139.4587
 21
265.3564
 31
0.0
  0
LINE
  5
E7
100
AcDbEntity
  8
1
  6
CONTINUOUS
 62
     6
100
AcDbLine
 10
125.0587
 20
279.7564
 30
0.0
 11
125.0587
 21
278.2564
 31
0.0
  0
LINE
  5
E8
100
AcDbEntity
  8
1
  6
CONTINUOUS
 62
     6
100
AcDbLine
 10
125.0587
 20
268.0564
 30
0.0
 11
125.0587
 21
266.5564
 31
0.0
  0
LINE
  5
E9
100
AcDbEntity
  8
1
  6
CONTINUOUS
 62
     6
100
AcDbLine
 10
126.2587
 20
279.7564
 30
0.0
 11
126.2587
 21
278.2564
 31
0.0
  0
LINE
  5
EA
100
AcDbEntity
  8
1
  6
CONTINUOUS
 62
     6
100
AcDbLine
 10
126.2587
 20
268.0564
 30
0.0
 11
126.2587
 21
266.5564
 31
0.0
  0
LINE
  5
EB
100
AcDbEntity
  8
1
  6
CONTINUOUS
 62
     6
100
AcDbLine
 10
126.5587
 20
279.7564
 30
0.0
 11
126.5587
 21
278.2564
 31
0.0
  0
LINE
  5
EC
100
AcDbEntity
  8
1
  6
CONTINUOUS
 62
     6
100
AcDbLine
 10
126.5587
 20
268.0564
 30
0.0
 11
126.5587
 21
266.5564
 31
0.0
  0
LINE
  5
ED
100
AcDbEntity
  8
1
  6
CONTINUOUS
 62
     6
100
AcDbLine
 10
136.7587
 20
279.7564
 30
0.0
 11
136.7587
 21
278.2564
 31
0.0
  0
LINE
  5
EE
100
AcDbEntity
  8
1
  6
CONTINUOUS
 62
     6
100
AcDbLine
 10
136.7587
 20
268.0564
 30
0.0
 11
136.7587
 21
266.5564
 31
0.0
  0
LINE
  5
EF
100
AcDbEntity
  8
1
  6
CONTINUOUS
 62
     6
100
AcDbLine
 10
137.0587
 20
279.7564
 30
0.0
 11
137.0587
 21
278.2564
 31
0.0
  0
LINE
  5
F0
100
AcDbEntity
  8
1
  6
CONTINUOUS
 62
     6
100
AcDbLine
 10
137.0587
 20
268.0564
 30
0.0
 11
137.0587
 21
266.5564
 31
0.0
  0
LINE
  5
F1
100
AcDbEntity
  8
1
  6
CONTINUOUS
 62
     6
100
AcDbLine
 10
138.2587
 20
279.7564
 30
0.0
 11
138.2587
 21
278.2564
 31
0.0
  0
LINE
  5
F2
100
AcDbEntity
  8
1
  6
CONTINUOUS
 62
     6
100
AcDbLine
 10
138.2587
 20
268.0564
 30
0.0
 11
138.2587
 21
266.5564
 31
0.0
  0
LINE
  5
F3
100
AcDbEntity
  8
1
  6
CONTINUOUS
 62
     6
100
AcDbLine
 10
138.2587
 20
279.7564
 30
0.0
 11
136.7587
 21
279.7564
 31
0.0
  0
LINE
  5
F4
100
AcDbEntity
  8
1
  6
CONTINUOUS
 62
     6
100
AcDbLine
 10
126.5587
 20
279.7564
 30
0.0
 11
125.0587
 21
279.7564
 31
0.0
  0
LINE
  5
F5
100
AcDbEntity
  8
1
  6
CONTINUOUS
 62
     6
100
AcDbLine
 10
138.2587
 20
278.2564
 30
0.0
 11
136.7587
 21
278.2564
 31
0.0
  0
LINE
  5
F6
100
AcDbEntity
  8
1
  6
CONTINUOUS
 62
     6
100
AcDbLine
 10
126.5587
 20
278.2564
 30
0.0
 11
125.0587
 21
278.2564
 31
0.0
  0
LINE
  5
F7
100
AcDbEntity
  8
1
  6
CONTINUOUS
 62
     6
100
AcDbLine
 10
138.2587
 20
268.0564
 30
0.0
 11
136.7587
 21
268.0564
 31
0.0
  0
LINE
  5
F8
100
AcDbEntity
  8
1
  6
CONTINUOUS
 62
     6
100
AcDbLine
 10
126.5587
 20
268.0564
 30
0.0
 11
125.0587
 21
268.0564
 31
0.0
  0
LINE
  5
F9
100
AcDbEntity
  8
1
  6
CONTINUOUS
 62
     6
100
AcDbLine
 10
138.2587
 20
266.5564
 30
0.0
 11
136.7587
 21
266.5564
 31
0.0
  0
LINE
  5
FA
100
AcDbEntity
  8
1
  6
CONTINUOUS
 62
     6
100
AcDbLine
 10
126.5587
 20
266.5564
 30
0.0
 11
125.0587
 21
266.5564
 31
0.0
  0
LINE
  5
FB
100
AcDbEntity
  8
1
  6
CONTINUOUS
 62
     6
100
AcDbLine
 10
129.8587
 20
280.9564
 30
0.0
 11
123.8587
 21
280.9564
 31
0.0
  0
LINE
  5
FC
100
AcDbEntity
  8
1
  6
CONTINUOUS
 62
     6
100
AcDbLine
 10
139.4587
 20
280.9564
 30
0.0
 11
133.4587
 21
280.9564
 31
0.0
  0
LINE
  5
FD
100
AcDbEntity
  8
1
  6
CONTINUOUS
 62
     6
100
AcDbLine
 10
133.4587
 20
279.7564
 30
0.0
 11
129.8587
 21
279.7564
 31
0.0
  0
LINE
  5
FE
100
AcDbEntity
  8
1
  6
CONTINUOUS
 62
     6
100
AcDbLine
 10
132.8587
 20
279.1564
 30
0.0
 11
130.4587
 21
279.1564
 31
0.0
  0
LINE
  5
FF
100
AcDbEntity
  8
1
  6
CONTINUOUS
 62
     6
100
AcDbLine
 10
134.0587
 20
278.5576
 30
0.0
 11
129.2587
 21
278.5576
 31
0.0
  0
LINE
  5
100
100
AcDbEntity
  8
1
  6
CONTINUOUS
 62
     6
100
AcDbLine
 10
134.0587
 20
270.1576
 30
0.0
 11
129.2587
 21
270.1576
 31
0.0
  0
LINE
  5
101
100
AcDbEntity
  8
1
  6
CONTINUOUS
 62
     6
100
AcDbLine
 10
129.8587
 20
267.7564
 30
0.0
 11
129.8587
 21
265.3564
 31
0.0
  0
LINE
  5
102
100
AcDbEntity
  8
1
  6
CONTINUOUS
 62
     6
100
AcDbLine
 10
133.4587
 20
267.7564
 30
0.0
 11
133.4587
 21
265.3564
 31
0.0
  0
CIRCLE
  5
103
100
AcDbEntity
  8
1
  6
CONTINUOUS
 62
     6
100
AcDbCircle
 10
131.678
 20
275.7839
 30
0.0
 40
1.8
210
0.0
220
0.0
230
1.0
  0
LINE
  5
104
100
AcDbEntity
  8
1
  6
CONTINUOUS
 62
     6
100
AcDbLine
 10
133.4587
 20
327.4564
 30
0.0
 11
133.4587
 21
278.5576
 31
0.0
  0
LINE
  5
105
100
AcDbEntity
  8
1
  6
CONTINUOUS
 62
     6
100
AcDbLine
 10
129.8587
 20
327.4564
 30
0.0
 11
129.8587
 21
278.5576
 31
0.0
  0
LINE
  5
106
100
AcDbEntity
  8
1
  6
CONTINUOUS
 62
     6
100
AcDbLine
 10
129.8587
 20
270.1576
 30
0.0
 11
129.8587
 21
236.4266
 31
0.0
  0
LINE
  5
107
100
AcDbEntity
  8
1
  6
CONTINUOUS
 62
     6
100
AcDbLine
 10
133.4587
 20
270.1576
 30
0.0
 11
133.4587
 21
236.4266
 31
0.0
  0
LINE
  5
108
100
AcDbEntity
  8
1
  6
CONTINUOUS
 62
     6
100
AcDbLine
 10
133.4587
 20
268.9576
 30
0.0
 11
129.8587
 21
268.9576
 31
0.0
  0
LINE
  5
109
100
AcDbEntity
  8
1
  6
CONTINUOUS
 62
     6
100
AcDbLine
 10
133.4587
 20
267.7576
 30
0.0
 11
129.8587
 21
267.7576
 31
0.0
  0
LINE
  5
10A
100
AcDbEntity
  8
1
  6
CONTINUOUS
 62
     6
100
AcDbLine
 10
139.4587
 20
265.3564
 30
0.0
 11
133.4587
 21
265.3564
 31
0.0
  0
LINE
  5
10B
100
AcDbEntity
  8
1
  6
CONTINUOUS
 62
     6
100
AcDbLine
 10
129.8587
 20
265.3564
 30
0.0
 11
123.8587
 21
265.3564
 31
0.0
  0
LINE
  5
10C
100
AcDbEntity
  8
1
  6
CONTINUOUS
 62
     6
100
AcDbLine
 10
132.5587
 20
269.5576
 30
0.0
 11
130.7587
 21
269.5576
 31
0.0
  0
LINE
  5
10D
100
AcDbEntity
  8
1
  6
CONTINUOUS
 62
     6
100
AcDbLine
 10
132.5587
 20
268.3576
 30
0.0
 11
130.7587
 21
268.3576
 31
0.0
  0
LINE
  5
10E
100
AcDbEntity
  8
1
  6
CONTINUOUS
 62
     6
100
AcDbLine
 10
134.0587
 20
275.4621
 30
0.0
 11
134.0587
 21
270.1576
 31
0.0
  0
LINE
  5
10F
100
AcDbEntity
  8
1
  6
CONTINUOUS
 62
     6
100
AcDbLine
 10
134.0587
 20
278.5576
 30
0.0
 11
134.0587
 21
275.4621
 31
0.0
  0
ARC
  5
110
100
AcDbEntity
  8
1
  6
CONTINUOUS
 62
     6
100
AcDbCircle
 10
131.6531
 20
275.8089
 30
0.0
 40
2.4
210
0.0
220
0.0
230
1.0
100
AcDbArc
 50
183.914808
 51
351.691675
  0
ARC
  5
111
100
AcDbEntity
  8
1
  6
HIDDEN
 62
     6
100
AcDbCircle
 10
131.6531
 20
275.8089
 30
0.0
 40
2.4
210
0.0
220
0.0
230
1.0
100
AcDbArc
 50
183.914808
 51
176.085192
  0
LINE
  5
112
100
AcDbEntity
  8
1
  6
CONTINUOUS
 62
     6
100
AcDbLine
 10
129.2587
 20
278.5576
 30
0.0
 11
129.2587
 21
278.211
 31
0.0
  0
LINE
  5
113
100
AcDbEntity
  8
1
  6
CONTINUOUS
 62
     6
100
AcDbLine
 10
129.2587
 20
273.4022
 30
0.0
 11
129.2587
 21
270.1576
 31
0.0
  0
LINE
  5
114
100
AcDbEntity
  8
1
  6
CONTINUOUS
 62
     6
100
AcDbLine
 10
129.2587
 20
278.211
 30
0.0
 11
129.2587
 21
273.4022
 31
0.0
  0
LINE
  5
115
100
AcDbEntity
  8
1
  6
DASHED
 62
     6
100
AcDbLine
 10
86.5986
 20
327.8167
 30
0.0
 11
125.719
 21
288.6961
 31
0.0
  0
LINE
  5
116
100
AcDbEntity
  8
1
  6
DASHED
 62
     6
100
AcDbLine
 10
137.5984
 20
288.6961
 30
0.0
 11
176.719
 21
327.8167
 31
0.0
  0
LINE
  5
117
100
AcDbEntity
  8
1
  6
DASHED
 62
     6
100
AcDbLine
 10
125.719
 20
378.8167
 30
0.0
 11
86.5985
 21
339.6962
 31
0.0
  0
LINE
  5
118
100
AcDbEntity
  8
1
  6
DASHED
 62
     6
100
AcDbLine
 10
137.5984
 20
378.8167
 30
0.0
 11
176.7191
 21
339.6961
 31
0.0
  0
ARC
  5
119
100
AcDbEntity
  8
1
  6
DASHED
 62
     6
100
AcDbCircle
 10
131.6587
 20
372.877006
 30
0.0
 40
8.4
210
0.0
220
0.0
230
1.0
100
AcDbArc
 50
45.0
 51
135.0
  0
ARC
  5
11A
100
AcDbEntity
  8
1
  6
DASHED
 62
     6
100
AcDbCircle
 10
170.779342
 20
333.756436
 30
0.0
 40
8.4
210
0.0
220
0.0
230
1.0
100
AcDbArc
 50
315.0
 51
44.999653
  0
ARC
  5
11B
100
AcDbEntity
  8
1
  6
DASHED
 62
     6
100
AcDbCircle
 10
92.538191
 20
333.756497
 30
0.0
 40
8.4
210
0.0
220
0.0
230
1.0
100
AcDbArc
 50
135.0
 51
225.000936
  0
ARC
  5
11C
100
AcDbEntity
  8
1
  6
DASHED
 62
     6
100
AcDbCircle
 10
131.658716
 20
294.63581
 30
0.0
 40
8.4
210
0.0
220
0.0
230
1.0
100
AcDbArc
 50
224.999842
 51
315.0
  0
LINE
  5
11D
100
AcDbEntity
  8
1
  6
CONTINUOUS
 62
     6
100
AcDbLine
 10
123.8587
 20
382.9564
 30
0.0
 11
123.8587
 21
376.9564
 31
0.0
  0
LINE
  5
11E
100
AcDbEntity
  8
1
  6
HIDDEN
 62
     6
100
AcDbLine
 10
123.8587
 20
376.9564
 30
0.0
 11
123.8587
 21
367.3564
 31
0.0
  0
LINE
  5
11F
100
AcDbEntity
  8
1
  6
CONTINUOUS
 62
     6
100
AcDbLine
 10
139.4587
 20
382.9564
 30
0.0
 11
139.4587
 21
376.9564
 31
0.0
  0
LINE
  5
120
100
AcDbEntity
  8
1
  6
HIDDEN
 62
     6
100
AcDbLine
 10
139.4587
 20
376.9564
 30
0.0
 11
139.4587
 21
367.3564
 31
0.0
  0
LINE
  5
121
100
AcDbEntity
  8
1
  6
CONTINUOUS
 62
     6
100
AcDbLine
 10
146.0587
 20
338.5564
 30
0.0
 11
146.0587
 21
335.5564
 31
0.0
  0
LINE
  5
122
100
AcDbEntity
  8
1
  6
CONTINUOUS
 62
     6
100
AcDbLine
 10
117.2587
 20
328.9564
 30
0.0
 11
117.2587
 21
331.9564
 31
0.0
  0
LINE
  5
123
100
AcDbEntity
  8
1
  6
CONTINUOUS
 62
     6
100
AcDbLine
 10
117.2587
 20
328.9564
 30
0.0
 11
129.2587
 21
331.7064
 31
0.0
  0
LINE
  5
124
100
AcDbEntity
  8
1
  6
HIDDEN
 62
     6
100
AcDbLine
 10
129.2587
 20
331.7064
 30
0.0
 11
146.0587
 21
335.5564
 31
0.0
  0
LINE
  5
125
100
AcDbEntity
  8
1
  6
CONTINUOUS
 62
     6
100
AcDbLine
 10
146.0587
 20
338.5564
 30
0.0
 11
134.0587
 21
335.8064
 31
0.0
  0
LINE
  5
126
100
AcDbEntity
  8
1
  6
HIDDEN
 62
     6
100
AcDbLine
 10
134.0587
 20
335.8064
 30
0.0
 11
117.2587
 21
331.9564
 31
0.0
  0
LINE
  5
127
100
AcDbEntity
  8
1
  6
CONTINUOUS
 62
     6
100
AcDbLine
 10
99.2587
 20
335.5564
 30
0.0
 11
99.2587
 21
335.5725
 31
0.0
  0
LINE
  5
128
100
AcDbEntity
  8
1
  6
CONTINUOUS
 62
     6
100
AcDbLine
 10
99.2587
 20
335.5725
 30
0.0
 11
99.2587
 21
336.1564
 31
0.0
  0
LINE
  5
129
100
AcDbEntity
  8
1
  6
CONTINUOUS
 62
     6
100
AcDbLine
 10
128.0587
 20
335.5564
 30
0.0
 11
99.2587
 21
335.5564
 31
0.0
  0
LINE
  5
12A
100
AcDbEntity
  8
1
  6
CONTINUOUS
 62
     6
100
AcDbLine
 10
99.2587
 20
335.5564
 30
0.0
 11
96.6285
 21
335.5564
 31
0.0
  0
LINE
  5
12B
100
AcDbEntity
  8
1
  6
CONTINUOUS
 62
     6
100
AcDbLine
 10
128.0587
 20
331.9564
 30
0.0
 11
99.2587
 21
331.9564
 31
0.0
  0
LINE
  5
12C
100
AcDbEntity
  8
1
  6
CONTINUOUS
 62
     6
100
AcDbLine
 10
99.2587
 20
331.9564
 30
0.0
 11
96.5811
 21
331.9564
 31
0.0
  0
LINE
  5
12D
100
AcDbEntity
  8
1
  6
HIDDEN
 62
     6
100
AcDbLine
 10
99.2587
 20
331.9564
 30
0.0
 11
146.0587
 21
335.5564
 31
0.0
  0
LINE
  5
12E
100
AcDbEntity
  8
1
  6
CONTINUOUS
 62
     6
100
AcDbLine
 10
135.2587
 20
335.5564
 30
0.0
 11
164.0375
 21
335.5564
 31
0.0
  0
LINE
  5
12F
100
AcDbEntity
  8
1
  6
CONTINUOUS
 62
     6
100
AcDbLine
 10
164.0375
 20
335.5564
 30
0.0
 11
166.7178
 21
335.5564
 31
0.0
  0
LINE
  5
130
100
AcDbEntity
  8
1
  6
HIDDEN
 62
     6
100
AcDbLine
 10
117.2587
 20
331.9564
 30
0.0
 11
164.0375
 21
335.5564
 31
0.0
  0
LINE
  5
131
100
AcDbEntity
  8
1
  6
CONTINUOUS
 62
     6
100
AcDbLine
 10
135.2587
 20
331.9564
 30
0.0
 11
164.0375
 21
331.9564
 31
0.0
  0
LINE
  5
132
100
AcDbEntity
  8
1
  6
CONTINUOUS
 62
     6
100
AcDbLine
 10
164.0375
 20
331.9564
 30
0.0
 11
166.6652
 21
331.9564
 31
0.0
  0
LINE
  5
133
100
AcDbEntity
  8
1
  6
HIDDEN
 62
     6
100
AcDbLine
 10
117.2587
 20
328.9564
 30
0.0
 11
146.0587
 21
330.8034
 31
0.0
  0
LINE
  5
134
100
AcDbEntity
  8
1
  6
CONTINUOUS
 62
     6
100
AcDbLine
 10
146.0587
 20
330.8034
 30
0.0
 11
164.0375
 21
331.9564
 31
0.0
  0
LINE
  5
135
100
AcDbEntity
  8
1
  6
CONTINUOUS
 62
     6
100
AcDbLine
 10
99.2587
 20
335.5564
 30
0.0
 11
117.2587
 21
336.7103
 31
0.0
  0
LINE
  5
136
100
AcDbEntity
  8
1
  6
HIDDEN
 62
     6
100
AcDbLine
 10
117.2587
 20
336.7102
 30
0.0
 11
146.0587
 21
338.5564
 31
0.0
  0
LINE
  5
137
100
AcDbEntity
  8
1
  6
CONTINUOUS
 62
     7
100
AcDbLine
 10
133.5231
 20
427.1569
 30
0.0
 11
150.2906
 21
434.8034
 31
0.0
  0
LINE
  5
138
100
AcDbEntity
  8
1
  6
CONTINUOUS
 62
     7
100
AcDbLine
 10
150.2906
 20
434.8034
 30
0.0
 11
155.7153
 21
434.8034
 31
0.0
  0
INSERT
  5
13E
100
AcDbEntity
  8
1
  6
CONTINUOUS
 62
     1
100
AcDbBlockReference
  2
LDR
 10
133.5231
 20
427.1569
 30
0.0
 41
240.0
 42
240.0
 50
204.514456
210
0.0
220
0.0
230
1.0
  0
LINE
  5
13F
100
AcDbEntity
  8
1
  6
CONTINUOUS
 62
     7
100
AcDbLine
 10
174.9644
 20
336.277
 30
0.0
 11
164.5001
 21
344.2229
 31
0.0
  0
LINE
  5
140
100
AcDbEntity
  8
1
  6
CONTINUOUS
 62
     7
100
AcDbLine
 10
164.5001
 20
344.2229
 30
0.0
 11
160.6949
 21
344.2229
 31
0.0
  0
INSERT
  5
141
100
AcDbEntity
  8
1
  6
CONTINUOUS
 62
     1
100
AcDbBlockReference
  2
LDR
 10
174.9644
 20
336.277
 30
0.0
 41
240.0
 42
240.0
 50
322.789358
210
0.0
220
0.0
230
1.0
  0
LINE
  5
142
100
AcDbEntity
  8
1
  6
CONTINUOUS
 62
     7
100
AcDbLine
 10
133.6898
 20
239.2938
 30
0.0
 11
150.4573
 21
246.9403
 31
0.0
  0
LINE
  5
143
100
AcDbEntity
  8
1
  6
CONTINUOUS
 62
     7
100
AcDbLine
 10
150.4573
 20
246.9403
 30
0.0
 11
155.882
 21
246.9403
 31
0.0
  0
INSERT
  5
144
100
AcDbEntity
  8
1
  6
CONTINUOUS
 62
     1
100
AcDbBlockReference
  2
LDR
 10
133.6898
 20
239.2938
 30
0.0
 41
240.0
 42
240.0
 50
204.514456
210
0.0
220
0.0
230
1.0
  0
TEXT
  5
145
100
AcDbEntity
  8
1
  6
CONTINUOUS
 62
     7
100
AcDbText
 10
151.5891
 20
342.5491
 30
0.0
 40
3.0
  1
CAP
  7
MONOTXT
210
0.0
220
0.0
230
1.0
100
AcDbText
  0
LINE
  5
146
100
AcDbEntity
  8
1
  6
CONTINUOUS
 62
     6
100
AcDbLine
 10
123.2587
 20
207.7564
 30
0.0
 11
140.0587
 21
207.7564
 31
0.0
  0
LINE
  5
147
100
AcDbEntity
  8
1
  6
CONTINUOUS
 62
     6
100
AcDbLine
 10
121.7587
 20
195.7564
 30
0.0
 11
141.5587
 21
195.7564
 31
0.0
  0
LINE
  5
148
100
AcDbEntity
  8
1
  6
CONTINUOUS
 62
     6
100
AcDbLine
 10
123.2587
 20
207.7564
 30
0.0
 11
123.2587
 21
195.7564
 31
0.0
  0
LINE
  5
149
100
AcDbEntity
  8
1
  6
CONTINUOUS
 62
     6
100
AcDbLine
 10
140.0587
 20
207.7564
 30
0.0
 11
140.0587
 21
195.7564
 31
0.0
  0
LINE
  5
14A
100
AcDbEntity
  8
1
  6
CONTINUOUS
 62
     6
100
AcDbLine
 10
121.7587
 20
195.7564
 30
0.0
 11
121.7587
 21
183.7564
 31
0.0
  0
LINE
  5
14B
100
AcDbEntity
  8
1
  6
CONTINUOUS
 62
     6
100
AcDbLine
 10
141.5587
 20
195.7564
 30
0.0
 11
141.5587
 21
183.7564
 31
0.0
  0
LINE
  5
14C
100
AcDbEntity
  8
1
  6
HIDDEN
 62
     6
100
AcDbLine
 10
121.7587
 20
192.1564
 30
0.0
 11
141.5587
 21
192.1564
 31
0.0
  0
LINE
  5
14D
100
AcDbEntity
  8
1
  6
HIDDEN
 62
     6
100
AcDbLine
 10
121.7587
 20
191.5564
 30
0.0
 11
141.5587
 21
191.5564
 31
0.0
  0
LINE
  5
14E
100
AcDbEntity
  8
1
  6
CONTINUOUS
 62
     6
100
AcDbLine
 10
121.7587
 20
192.1564
 30
0.0
 11
82.1587
 21
192.1564
 31
0.0
  0
LINE
  5
14F
100
AcDbEntity
  8
1
  6
CONTINUOUS
 62
     6
100
AcDbLine
 10
121.7587
 20
191.5564
 30
0.0
 11
82.1587
 21
191.5564
 31
0.0
  0
LINE
  5
150
100
AcDbEntity
  8
1
  6
CONTINUOUS
 62
     6
100
AcDbLine
 10
141.5587
 20
192.1564
 30
0.0
 11
181.1587
 21
192.1564
 31
0.0
  0
LINE
  5
151
100
AcDbEntity
  8
1
  6
CONTINUOUS
 62
     6
100
AcDbLine
 10
141.5587
 20
191.5564
 30
0.0
 11
181.1587
 21
191.5564
 31
0.0
  0
LINE
  5
152
100
AcDbEntity
  8
1
  6
CONTINUOUS
 62
     6
100
AcDbLine
 10
121.7587
 20
189.7564
 30
0.0
 11
91.1587
 21
189.7564
 31
0.0
  0
LINE
  5
153
100
AcDbEntity
  8
1
  6
CONTINUOUS
 62
     6
100
AcDbLine
 10
121.7587
 20
186.7564
 30
0.0
 11
91.1587
 21
186.7564
 31
0.0
  0
LINE
  5
154
100
AcDbEntity
  8
1
  6
CONTINUOUS
 62
     6
100
AcDbLine
 10
141.5587
 20
189.7564
 30
0.0
 11
172.1587
 21
189.7564
 31
0.0
  0
LINE
  5
155
100
AcDbEntity
  8
1
  6
CONTINUOUS
 62
     6
100
AcDbLine
 10
141.5587
 20
186.7564
 30
0.0
 11
172.1587
 21
186.7564
 31
0.0
  0
LINE
  5
156
100
AcDbEntity
  8
1
  6
CONTINUOUS
 62
     6
100
AcDbLine
 10
82.1587
 20
192.1564
 30
0.0
 11
82.1587
 21
191.5564
 31
0.0
  0
LINE
  5
157
100
AcDbEntity
  8
1
  6
CONTINUOUS
 62
     6
100
AcDbLine
 10
181.1587
 20
192.1564
 30
0.0
 11
181.1587
 21
191.5564
 31
0.0
  0
LINE
  5
158
100
AcDbEntity
  8
1
  6
CONTINUOUS
 62
     6
100
AcDbLine
 10
91.1587
 20
190.3564
 30
0.0
 11
91.1587
 21
186.1564
 31
0.0
  0
LINE
  5
159
100
AcDbEntity
  8
1
  6
CONTINUOUS
 62
     6
100
AcDbLine
 10
172.1587
 20
190.3564
 30
0.0
 11
172.1587
 21
186.1564
 31
0.0
  0
LINE
  5
15A
100
AcDbEntity
  8
1
  6
CONTINUOUS
 62
     6
100
AcDbLine
 10
88.1587
 20
190.3564
 30
0.0
 11
88.1587
 21
186.1564
 31
0.0
  0
LINE
  5
15B
100
AcDbEntity
  8
1
  6
CONTINUOUS
 62
     6
100
AcDbLine
 10
88.1587
 20
190.3564
 30
0.0
 11
91.1587
 21
190.3564
 31
0.0
  0
LINE
  5
15C
100
AcDbEntity
  8
1
  6
CONTINUOUS
 62
     6
100
AcDbLine
 10
88.1587
 20
186.1564
 30
0.0
 11
91.1587
 21
186.1564
 31
0.0
  0
LINE
  5
15D
100
AcDbEntity
  8
1
  6
CONTINUOUS
 62
     6
100
AcDbLine
 10
92.3587
 20
189.7564
 30
0.0
 11
92.3587
 21
186.7564
 31
0.0
  0
LINE
  5
15E
100
AcDbEntity
  8
1
  6
CONTINUOUS
 62
     6
100
AcDbLine
 10
93.5587
 20
189.7564
 30
0.0
 11
93.5587
 21
186.7564
 31
0.0
  0
LINE
  5
15F
100
AcDbEntity
  8
1
  6
CONTINUOUS
 62
     6
100
AcDbLine
 10
91.7587
 20
188.8564
 30
0.0
 11
91.7587
 21
187.6564
 31
0.0
  0
LINE
  5
160
100
AcDbEntity
  8
1
  6
CONTINUOUS
 62
     6
100
AcDbLine
 10
92.9587
 20
188.8564
 30
0.0
 11
92.9587
 21
187.6564
 31
0.0
  0
LINE
  5
161
100
AcDbEntity
  8
1
  6
CONTINUOUS
 62
     6
100
AcDbLine
 10
175.1587
 20
190.3564
 30
0.0
 11
175.1587
 21
186.1564
 31
0.0
  0
LINE
  5
162
100
AcDbEntity
  8
1
  6
CONTINUOUS
 62
     6
100
AcDbLine
 10
172.1587
 20
190.3564
 30
0.0
 11
175.1587
 21
190.3564
 31
0.0
  0
LINE
  5
163
100
AcDbEntity
  8
1
  6
CONTINUOUS
 62
     6
100
AcDbLine
 10
175.1587
 20
186.1564
 30
0.0
 11
172.1587
 21
186.1564
 31
0.0
  0
LINE
  5
164
100
AcDbEntity
  8
1
  6
CONTINUOUS
 62
     6
100
AcDbLine
 10
170.9587
 20
189.7564
 30
0.0
 11
170.9587
 21
186.7564
 31
0.0
  0
LINE
  5
165
100
AcDbEntity
  8
1
  6
CONTINUOUS
 62
     6
100
AcDbLine
 10
169.7587
 20
189.7564
 30
0.0
 11
169.7587
 21
186.7564
 31
0.0
  0
LINE
  5
166
100
AcDbEntity
  8
1
  6
CONTINUOUS
 62
     6
100
AcDbLine
 10
170.3587
 20
188.8564
 30
0.0
 11
170.3587
 21
187.6564
 31
0.0
  0
LINE
  5
167
100
AcDbEntity
  8
1
  6
CONTINUOUS
 62
     6
100
AcDbLine
 10
171.5587
 20
188.8564
 30
0.0
 11
171.5587
 21
187.6564
 31
0.0
  0
LINE
  5
168
100
AcDbEntity
  8
1
  6
CONTINUOUS
 62
     6
100
AcDbLine
 10
94.7587
 20
186.7564
 30
0.0
 11
94.7587
 21
183.1564
 31
0.0
  0
LINE
  5
169
100
AcDbEntity
  8
1
  6
CONTINUOUS
 62
     6
100
AcDbLine
 10
95.3587
 20
192.7564
 30
0.0
 11
95.3587
 21
192.1564
 31
0.0
  0
LINE
  5
16A
100
AcDbEntity
  8
1
  6
CONTINUOUS
 62
     6
100
AcDbLine
 10
95.3587
 20
191.5564
 30
0.0
 11
95.3587
 21
189.7564
 31
0.0
  0
LINE
  5
16B
100
AcDbEntity
  8
1
  6
CONTINUOUS
 62
     6
100
AcDbLine
 10
98.9587
 20
192.7564
 30
0.0
 11
98.9587
 21
192.1564
 31
0.0
  0
LINE
  5
16C
100
AcDbEntity
  8
1
  6
CONTINUOUS
 62
     6
100
AcDbLine
 10
98.9587
 20
191.5564
 30
0.0
 11
98.9587
 21
189.7564
 31
0.0
  0
LINE
  5
16D
100
AcDbEntity
  8
1
  6
CONTINUOUS
 62
     6
100
AcDbLine
 10
95.3587
 20
192.7564
 30
0.0
 11
98.9587
 21
192.7564
 31
0.0
  0
LINE
  5
16E
100
AcDbEntity
  8
1
  6
CONTINUOUS
 62
     6
100
AcDbLine
 10
95.9587
 20
193.3564
 30
0.0
 11
95.9587
 21
192.7564
 31
0.0
  0
LINE
  5
16F
100
AcDbEntity
  8
1
  6
CONTINUOUS
 62
     6
100
AcDbLine
 10
98.3587
 20
193.3564
 30
0.0
 11
98.3587
 21
192.7564
 31
0.0
  0
LINE
  5
170
100
AcDbEntity
  8
1
  6
CONTINUOUS
 62
     6
100
AcDbLine
 10
97.1587
 20
193.3564
 30
0.0
 11
97.1587
 21
192.7564
 31
0.0
  0
LINE
  5
171
100
AcDbEntity
  8
1
  6
CONTINUOUS
 62
     6
100
AcDbLine
 10
95.9587
 20
193.3564
 30
0.0
 11
98.3587
 21
193.3564
 31
0.0
  0
LINE
  5
172
100
AcDbEntity
  8
1
  6
CONTINUOUS
 62
     6
100
AcDbLine
 10
95.3587
 20
185.8564
 30
0.0
 11
95.3587
 21
183.1564
 31
0.0
  0
LINE
  5
173
100
AcDbEntity
  8
1
  6
CONTINUOUS
 62
     6
100
AcDbLine
 10
98.9587
 20
185.8564
 30
0.0
 11
98.9587
 21
183.1564
 31
0.0
  0
LINE
  5
174
100
AcDbEntity
  8
1
  6
CONTINUOUS
 62
     6
100
AcDbLine
 10
95.3587
 20
185.8564
 30
0.0
 11
98.9587
 21
185.8564
 31
0.0
  0
LINE
  5
175
100
AcDbEntity
  8
1
  6
CONTINUOUS
 62
     6
100
AcDbLine
 10
94.7587
 20
183.1564
 30
0.0
 11
95.3587
 21
183.1564
 31
0.0
  0
LINE
  5
176
100
AcDbEntity
  8
1
  6
CONTINUOUS
 62
     6
100
AcDbLine
 10
98.9587
 20
183.1564
 30
0.0
 11
99.5587
 21
183.1564
 31
0.0
  0
LINE
  5
177
100
AcDbEntity
  8
1
  6
CONTINUOUS
 62
     6
100
AcDbLine
 10
94.4587
 20
183.9364
 30
0.0
 11
94.7587
 21
183.9364
 31
0.0
  0
LINE
  5
178
100
AcDbEntity
  8
1
  6
CONTINUOUS
 62
     6
100
AcDbLine
 10
94.4587
 20
183.4564
 30
0.0
 11
94.7587
 21
183.4564
 31
0.0
  0
LINE
  5
179
100
AcDbEntity
  8
1
  6
CONTINUOUS
 62
     6
100
AcDbLine
 10
99.5587
 20
186.7564
 30
0.0
 11
99.5587
 21
183.957
 31
0.0
  0
LINE
  5
17A
100
AcDbEntity
  8
1
  6
CONTINUOUS
 62
     6
100
AcDbLine
 10
99.5587
 20
183.9305
 30
0.0
 11
99.5587
 21
183.1564
 31
0.0
  0
LINE
  5
17B
100
AcDbEntity
  8
1
  6
CONTINUOUS
 62
     6
100
AcDbLine
 10
95.3587
 20
183.9364
 30
0.0
 11
98.9587
 21
183.9364
 31
0.0
  0
LINE
  5
17C
100
AcDbEntity
  8
1
  6
CONTINUOUS
 62
     6
100
AcDbLine
 10
99.5587
 20
183.9364
 30
0.0
 11
99.8587
 21
183.9364
 31
0.0
  0
LINE
  5
17D
100
AcDbEntity
  8
1
  6
CONTINUOUS
 62
     6
100
AcDbLine
 10
95.3587
 20
183.4564
 30
0.0
 11
98.9587
 21
183.4564
 31
0.0
  0
LINE
  5
17E
100
AcDbEntity
  8
1
  6
CONTINUOUS
 62
     6
100
AcDbLine
 10
99.5587
 20
183.4564
 30
0.0
 11
99.8587
 21
183.4564
 31
0.0
  0
ARC
  5
17F
100
AcDbEntity
  8
1
  6
CONTINUOUS
 62
     6
100
AcDbCircle
 10
94.625508
 20
182.071199
 30
0.0
 40
1.395208
210
0.0
220
0.0
230
1.0
100
AcDbArc
 50
96.866564
 51
233.498489
  0
ARC
  5
180
100
AcDbEntity
  8
1
  6
CONTINUOUS
 62
     6
100
AcDbCircle
 10
94.594102
 20
182.083006
 30
0.0
 40
1.858333
210
0.0
220
0.0
230
1.0
100
AcDbArc
 50
94.178386
 51
233.904056
  0
ARC
  5
181
100
AcDbEntity
  8
1
  6
CONTINUOUS
 62
     6
100
AcDbCircle
 10
99.685521
 20
182.383221
 30
0.0
 40
1.087062
210
0.0
220
0.0
230
1.0
100
AcDbArc
 50
24.779478
 51
80.833211
  0
ARC
  5
182
100
AcDbEntity
  8
1
  6
CONTINUOUS
 62
     6
100
AcDbCircle
 10
99.523446
 20
182.221146
 30
0.0
 40
1.74771
210
0.0
220
0.0
230
1.0
100
AcDbArc
 50
30.86815
 51
78.940708
  0
LINE
  5
183
100
AcDbEntity
  8
1
  6
CONTINUOUS
 62
     6
100
AcDbLine
 10
101.0236
 20
183.1178
 30
0.0
 11
103.5268
 21
176.0713
 31
0.0
  0
LINE
  5
184
100
AcDbEntity
  8
1
  6
CONTINUOUS
 62
     6
100
AcDbLine
 10
93.4993
 20
180.5814
 30
0.0
 11
102.6996
 21
175.5645
 31
0.0
  0
LINE
  5
185
100
AcDbEntity
  8
1
  6
CONTINUOUS
 62
     6
100
AcDbLine
 10
100.6725
 20
182.8388
 30
0.0
 11
103.1572
 21
175.8448
 31
0.0
  0
LINE
  5
186
100
AcDbEntity
  8
1
  6
CONTINUOUS
 62
     6
100
AcDbLine
 10
93.7956
 20
180.9497
 30
0.0
 11
103.1572
 21
175.8448
 31
0.0
  0
LINE
  5
187
100
AcDbEntity
  8
1
  6
CONTINUOUS
 62
     6
100
AcDbLine
 10
104.0229
 20
176.3752
 30
0.0
 11
102.2915
 21
175.3144
 31
0.0
  0
LINE
  5
188
100
AcDbEntity
  8
1
  6
CONTINUOUS
 62
     6
100
AcDbLine
 10
105.59
 20
173.817
 30
0.0
 11
103.8585
 21
172.7563
 31
0.0
  0
LINE
  5
189
100
AcDbEntity
  8
1
  6
CONTINUOUS
 62
     6
100
AcDbLine
 10
104.0229
 20
176.3752
 30
0.0
 11
105.59
 21
173.817
 31
0.0
  0
LINE
  5
18A
100
AcDbEntity
  8
1
  6
CONTINUOUS
 62
     6
100
AcDbLine
 10
102.2915
 20
175.3144
 30
0.0
 11
103.8585
 21
172.7563
 31
0.0
  0
LINE
  5
18B
100
AcDbEntity
  8
1
  6
CONTINUOUS
 62
     6
100
AcDbLine
 10
117.876
 20
152.2585
 30
0.0
 11
105.0869
 21
173.5088
 31
0.0
  0
LINE
  5
18C
100
AcDbEntity
  8
1
  6
CONTINUOUS
 62
     6
100
AcDbLine
 10
116.8899
 20
152.0867
 30
0.0
 11
104.2909
 21
173.0212
 31
0.0
  0
LINE
  5
18D
100
AcDbEntity
  8
1
  6
CONTINUOUS
 62
     6
100
AcDbLine
 10
146.096
 20
153.5107
 30
0.0
 11
158.1315
 21
173.5088
 31
0.0
  0
LINE
  5
18E
100
AcDbEntity
  8
1
  6
CONTINUOUS
 62
     6
100
AcDbLine
 10
168.4597
 20
186.7564
 30
0.0
 11
168.4597
 21
183.1564
 31
0.0
  0
LINE
  5
18F
100
AcDbEntity
  8
1
  6
CONTINUOUS
 62
     6
100
AcDbLine
 10
167.8597
 20
192.7564
 30
0.0
 11
167.8597
 21
192.1564
 31
0.0
  0
LINE
  5
190
100
AcDbEntity
  8
1
  6
CONTINUOUS
 62
     6
100
AcDbLine
 10
167.8597
 20
191.5564
 30
0.0
 11
167.8597
 21
189.7564
 31
0.0
  0
LINE
  5
191
100
AcDbEntity
  8
1
  6
CONTINUOUS
 62
     6
100
AcDbLine
 10
164.2597
 20
192.7564
 30
0.0
 11
164.2597
 21
192.1564
 31
0.0
  0
LINE
  5
192
100
AcDbEntity
  8
1
  6
CONTINUOUS
 62
     6
100
AcDbLine
 10
164.2597
 20
191.5564
 30
0.0
 11
164.2597
 21
189.7564
 31
0.0
  0
LINE
  5
193
100
AcDbEntity
  8
1
  6
CONTINUOUS
 62
     6
100
AcDbLine
 10
167.8597
 20
192.7564
 30
0.0
 11
164.2597
 21
192.7564
 31
0.0
  0
LINE
  5
194
100
AcDbEntity
  8
1
  6
CONTINUOUS
 62
     6
100
AcDbLine
 10
167.2597
 20
193.3564
 30
0.0
 11
167.2597
 21
192.7564
 31
0.0
  0
LINE
  5
195
100
AcDbEntity
  8
1
  6
CONTINUOUS
 62
     6
100
AcDbLine
 10
164.8597
 20
193.3564
 30
0.0
 11
164.8597
 21
192.7564
 31
0.0
  0
LINE
  5
196
100
AcDbEntity
  8
1
  6
CONTINUOUS
 62
     6
100
AcDbLine
 10
166.0597
 20
193.3564
 30
0.0
 11
166.0597
 21
192.7564
 31
0.0
  0
LINE
  5
197
100
AcDbEntity
  8
1
  6
CONTINUOUS
 62
     6
100
AcDbLine
 10
167.2597
 20
193.3564
 30
0.0
 11
164.8597
 21
193.3564
 31
0.0
  0
LINE
  5
198
100
AcDbEntity
  8
1
  6
CONTINUOUS
 62
     6
100
AcDbLine
 10
167.8597
 20
185.8564
 30
0.0
 11
167.8597
 21
183.1564
 31
0.0
  0
LINE
  5
199
100
AcDbEntity
  8
1
  6
CONTINUOUS
 62
     6
100
AcDbLine
 10
164.2597
 20
185.8564
 30
0.0
 11
164.2597
 21
183.1564
 31
0.0
  0
LINE
  5
19A
100
AcDbEntity
  8
1
  6
CONTINUOUS
 62
     6
100
AcDbLine
 10
167.8597
 20
185.8564
 30
0.0
 11
164.2597
 21
185.8564
 31
0.0
  0
LINE
  5
19B
100
AcDbEntity
  8
1
  6
CONTINUOUS
 62
     6
100
AcDbLine
 10
168.4597
 20
183.1564
 30
0.0
 11
167.8597
 21
183.1564
 31
0.0
  0
LINE
  5
19C
100
AcDbEntity
  8
1
  6
CONTINUOUS
 62
     6
100
AcDbLine
 10
164.2597
 20
183.1564
 30
0.0
 11
163.6597
 21
183.1564
 31
0.0
  0
LINE
  5
19D
100
AcDbEntity
  8
1
  6
CONTINUOUS
 62
     6
100
AcDbLine
 10
168.7597
 20
183.9364
 30
0.0
 11
168.4597
 21
183.9364
 31
0.0
  0
LINE
  5
19E
100
AcDbEntity
  8
1
  6
CONTINUOUS
 62
     6
100
AcDbLine
 10
163.6597
 20
186.7564
 30
0.0
 11
163.6597
 21
183.957
 31
0.0
  0
LINE
  5
19F
100
AcDbEntity
  8
1
  6
CONTINUOUS
 62
     6
100
AcDbLine
 10
163.6597
 20
183.9305
 30
0.0
 11
163.6597
 21
183.1564
 31
0.0
  0
LINE
  5
1A0
100
AcDbEntity
  8
1
  6
CONTINUOUS
 62
     6
100
AcDbLine
 10
167.8597
 20
183.9364
 30
0.0
 11
164.2597
 21
183.9364
 31
0.0
  0
LINE
  5
1A1
100
AcDbEntity
  8
1
  6
CONTINUOUS
 62
     6
100
AcDbLine
 10
163.6597
 20
183.9364
 30
0.0
 11
163.3597
 21
183.9364
 31
0.0
  0
LINE
  5
1A2
100
AcDbEntity
  8
1
  6
CONTINUOUS
 62
     6
100
AcDbLine
 10
167.8597
 20
183.4564
 30
0.0
 11
164.2597
 21
183.4564
 31
0.0
  0
LINE
  5
1A3
100
AcDbEntity
  8
1
  6
CONTINUOUS
 62
     6
100
AcDbLine
 10
163.6597
 20
183.4564
 30
0.0
 11
163.3597
 21
183.4564
 31
0.0
  0
ARC
  5
1A4
100
AcDbEntity
  8
1
  6
CONTINUOUS
 62
     6
100
AcDbCircle
 10
168.592892
 20
182.071199
 30
0.0
 40
1.395208
210
0.0
220
0.0
230
1.0
100
AcDbArc
 50
306.501511
 51
83.133436
  0
ARC
  5
1A5
100
AcDbEntity
  8
1
  6
CONTINUOUS
 62
     6
100
AcDbCircle
 10
168.624298
 20
182.083006
 30
0.0
 40
1.858333
210
0.0
220
0.0
230
1.0
100
AcDbArc
 50
306.095944
 51
85.821614
  0
ARC
  5
1A6
100
AcDbEntity
  8
1
  6
CONTINUOUS
 62
     6
100
AcDbCircle
 10
163.532879
 20
182.383221
 30
0.0
 40
1.087062
210
0.0
220
0.0
230
1.0
100
AcDbArc
 50
99.166789
 51
155.220522
  0
ARC
  5
1A7
100
AcDbEntity
  8
1
  6
CONTINUOUS
 62
     6
100
AcDbCircle
 10
163.694954
 20
182.221146
 30
0.0
 40
1.74771
210
0.0
220
0.0
230
1.0
100
AcDbArc
 50
101.059292
 51
149.13185
  0
LINE
  5
1A8
100
AcDbEntity
  8
1
  6
CONTINUOUS
 62
     6
100
AcDbLine
 10
162.1948
 20
183.1178
 30
0.0
 11
159.6916
 21
176.0713
 31
0.0
  0
LINE
  5
1A9
100
AcDbEntity
  8
1
  6
CONTINUOUS
 62
     6
100
AcDbLine
 10
169.7191
 20
180.5814
 30
0.0
 11
160.5188
 21
175.5645
 31
0.0
  0
LINE
  5
1AA
100
AcDbEntity
  8
1
  6
CONTINUOUS
 62
     6
100
AcDbLine
 10
162.5459
 20
182.8388
 30
0.0
 11
160.0612
 21
175.8448
 31
0.0
  0
LINE
  5
1AB
100
AcDbEntity
  8
1
  6
CONTINUOUS
 62
     6
100
AcDbLine
 10
169.4228
 20
180.9497
 30
0.0
 11
160.0612
 21
175.8448
 31
0.0
  0
LINE
  5
1AC
100
AcDbEntity
  8
1
  6
CONTINUOUS
 62
     6
100
AcDbLine
 10
159.1955
 20
176.3752
 30
0.0
 11
160.9269
 21
175.3144
 31
0.0
  0
LINE
  5
1AD
100
AcDbEntity
  8
1
  6
CONTINUOUS
 62
     6
100
AcDbLine
 10
157.6284
 20
173.817
 30
0.0
 11
159.3599
 21
172.7563
 31
0.0
  0
LINE
  5
1AE
100
AcDbEntity
  8
1
  6
CONTINUOUS
 62
     6
100
AcDbLine
 10
159.1955
 20
176.3752
 30
0.0
 11
157.6284
 21
173.817
 31
0.0
  0
LINE
  5
1AF
100
AcDbEntity
  8
1
  6
CONTINUOUS
 62
     6
100
AcDbLine
 10
160.9269
 20
175.3144
 30
0.0
 11
159.3599
 21
172.7563
 31
0.0
  0
LINE
  5
1B0
100
AcDbEntity
  8
1
  6
CONTINUOUS
 62
     6
100
AcDbLine
 10
145.7744
 20
151.166
 30
0.0
 11
158.9275
 21
173.0212
 31
0.0
  0
ARC
  5
1B1
100
AcDbEntity
  8
1
  6
CONTINUOUS
 62
     6
100
AcDbCircle
 10
157.539755
 20
144.641118
 30
0.0
 40
13.8
210
0.0
220
0.0
230
1.0
100
AcDbArc
 50
155.725128
 51
155.725131
  0
CIRCLE
  5
1B2
100
AcDbEntity
  8
1
  6
CONTINUOUS
 62
     6
100
AcDbCircle
 10
131.3651
 20
156.8798
 30
0.0
 40
14.258742
210
0.0
220
0.0
230
1.0
  0
ARC
  5
1B3
100
AcDbEntity
  8
1
  6
CONTINUOUS
 62
     6
100
AcDbCircle
 10
129.881616
 20
157.885141
 30
0.0
 40
14.226968
210
0.0
220
0.0
230
1.0
100
AcDbArc
 50
204.052083
 51
211.984317
  0
ARC
  5
1B4
100
AcDbEntity
  8
1
  6
CONTINUOUS
 62
     6
100
AcDbCircle
 10
88.016287
 20
190.786002
 30
0.0
 40
70.041017
210
0.0
220
0.0
230
1.0
100
AcDbArc
 50
323.71745
 51
325.551269
  0
ARC
  5
1B5
100
AcDbEntity
  8
1
  6
CONTINUOUS
 62
     6
100
AcDbCircle
 10
131.409861
 20
156.808564
 30
0.0
 40
15.051853
210
0.0
220
0.0
230
1.0
100
AcDbArc
 50
121.431319
 51
188.900953
  0
ARC
  5
1B6
100
AcDbEntity
  8
1
  6
CONTINUOUS
 62
     6
100
AcDbCircle
 10
131.409861
 20
156.808564
 30
0.0
 40
15.051853
210
0.0
220
0.0
230
1.0
100
AcDbArc
 50
205.412625
 51
56.931756
  0
ARC
  5
1B7
100
AcDbEntity
  8
1
  6
CONTINUOUS
 62
     6
100
AcDbCircle
 10
131.39342
 20
157.46823
 30
0.0
 40
15.051853
210
0.0
220
0.0
230
1.0
100
AcDbArc
 50
55.608975
 51
122.644172
  0
LINE
  5
1B8
100
AcDbEntity
  8
1
  6
CONTINUOUS
 62
     6
100
AcDbLine
 10
123.2741
 20
170.1424
 30
0.0
 11
123.9183
 21
169.0394
 31
0.0
  0
LINE
  5
1B9
100
AcDbEntity
  8
1
  6
CONTINUOUS
 62
     6
100
AcDbLine
 10
139.8953
 20
169.889
 30
0.0
 11
139.2399
 21
168.7668
 31
0.0
  0
LINE
  5
1BA
100
AcDbEntity
  8
1
  6
CONTINUOUS
 62
     6
100
AcDbLine
 10
129.5587
 20
172.9296
 30
0.0
 11
129.5587
 21
180.3177
 31
0.0
  0
LINE
  5
1BB
100
AcDbEntity
  8
1
  6
CONTINUOUS
 62
     6
100
AcDbLine
 10
133.7587
 20
172.8366
 30
0.0
 11
133.7587
 21
180.3177
 31
0.0
  0
ARC
  5
1BC
100
AcDbEntity
  8
1
  6
CONTINUOUS
 62
     6
100
AcDbCircle
 10
128.9587
 20
172.929557
 30
0.0
 40
0.6
210
0.0
220
0.0
230
1.0
100
AcDbArc
 50
278.948969
 51
360.0
  0
ARC
  5
1BD
100
AcDbEntity
  8
1
  6
CONTINUOUS
 62
     6
100
AcDbCircle
 10
134.3587
 20
172.836627
 30
0.0
 40
0.6
210
0.0
220
0.0
230
1.0
100
AcDbArc
 50
180.0
 51
259.079175
  0
LINE
  5
1BE
100
AcDbEntity
  8
1
  6
CONTINUOUS
 62
     6
100
AcDbLine
 10
129.5587
 20
180.3177
 30
0.0
 11
133.7587
 21
180.3177
 31
0.0
  0
ARC
  5
1BF
100
AcDbEntity
  8
1
  6
CONTINUOUS
 62
     6
100
AcDbCircle
 10
131.6587
 20
175.4927
 30
0.0
 40
2.125
210
0.0
220
0.0
230
1.0
100
AcDbArc
 50
8.797411
 51
171.202589
  0
CIRCLE
  5
1C0
100
AcDbEntity
  8
1
  6
CONTINUOUS
 62
     6
100
AcDbCircle
 10
131.6514
 20
175.7261
 30
0.0
 40
1.5
210
0.0
220
0.0
230
1.0
  0
LINE
  5
1C1
100
AcDbEntity
  8
1
  6
CONTINUOUS
 62
     6
100
AcDbLine
 10
130.1587
 20
181.5177
 30
0.0
 11
133.1587
 21
181.5177
 31
0.0
  0
LINE
  5
1C2
100
AcDbEntity
  8
1
  6
CONTINUOUS
 62
     6
100
AcDbLine
 10
130.7587
 20
180.9177
 30
0.0
 11
132.5587
 21
180.9177
 31
0.0
  0
LINE
  5
1C3
100
AcDbEntity
  8
1
  6
CONTINUOUS
 62
     6
100
AcDbLine
 10
130.1587
 20
180.3177
 30
0.0
 11
130.1587
 21
185.4177
 31
0.0
  0
LINE
  5
1C4
100
AcDbEntity
  8
1
  6
CONTINUOUS
 62
     6
100
AcDbLine
 10
133.1587
 20
180.3177
 30
0.0
 11
133.1587
 21
185.4177
 31
0.0
  0
LINE
  5
1C5
100
AcDbEntity
  8
1
  6
CONTINUOUS
 62
     6
100
AcDbLine
 10
128.9587
 20
185.4177
 30
0.0
 11
134.3587
 21
185.4177
 31
0.0
  0
LINE
  5
1C6
100
AcDbEntity
  8
1
  6
HIDDEN
 62
     6
100
AcDbLine
 10
130.1587
 20
185.1177
 30
0.0
 11
133.1587
 21
185.1177
 31
0.0
  0
LINE
  5
1C7
100
AcDbEntity
  8
1
  6
CONTINUOUS
 62
     6
100
AcDbLine
 10
128.9587
 20
185.4177
 30
0.0
 11
128.9587
 21
187.8177
 31
0.0
  0
LINE
  5
1C8
100
AcDbEntity
  8
1
  6
CONTINUOUS
 62
     6
100
AcDbLine
 10
134.3587
 20
185.4177
 30
0.0
 11
134.3587
 21
187.8177
 31
0.0
  0
ARC
  5
1C9
100
AcDbEntity
  8
1
  6
CONTINUOUS
 62
     6
100
AcDbCircle
 10
131.6587
 20
187.2141
 30
0.0
 40
2.766646
210
0.0
220
0.0
230
1.0
100
AcDbArc
 50
12.601581
 51
167.398419
  0
LINE
  5
1CA
100
AcDbEntity
  8
1
  6
HIDDEN
 62
     6
100
AcDbLine
 10
121.7587
 20
186.7564
 30
0.0
 11
128.9587
 21
186.7564
 31
0.0
  0
LINE
  5
1CB
100
AcDbEntity
  8
1
  6
HIDDEN
 62
     6
100
AcDbLine
 10
134.3587
 20
186.7564
 30
0.0
 11
141.5587
 21
186.7564
 31
0.0
  0
LINE
  5
1CC
100
AcDbEntity
  8
1
  6
HIDDEN
 62
     6
100
AcDbLine
 10
121.7587
 20
189.7564
 30
0.0
 11
130.5673
 21
189.7564
 31
0.0
  0
LINE
  5
1CD
100
AcDbEntity
  8
1
  6
HIDDEN
 62
     6
100
AcDbLine
 10
132.7501
 20
189.7564
 30
0.0
 11
141.5587
 21
189.7564
 31
0.0
  0
CIRCLE
  5
1CE
100
AcDbEntity
  8
1
  6
CONTINUOUS
 62
     6
100
AcDbCircle
 10
131.6773
 20
184.5385
 30
0.0
 40
0.6
210
0.0
220
0.0
230
1.0
  0
LINE
  5
1CF
100
AcDbEntity
  8
1
  6
CONTINUOUS
 62
     6
100
AcDbLine
 10
121.7587
 20
183.7564
 30
0.0
 11
130.1587
 21
183.7564
 31
0.0
  0
LINE
  5
1D0
100
AcDbEntity
  8
1
  6
CONTINUOUS
 62
     6
100
AcDbLine
 10
133.1587
 20
183.7564
 30
0.0
 11
141.5587
 21
183.7564
 31
0.0
  0
CIRCLE
  5
1D1
100
AcDbEntity
  8
1
  6
HIDDEN
 62
     6
100
AcDbCircle
 10
131.6543
 20
187.7422
 30
0.0
 40
1.35
210
0.0
220
0.0
230
1.0
  0
LINE
  5
1D2
100
AcDbEntity
  8
1
  6
HIDDEN
 62
     6
100
AcDbLine
 10
128.0587
 20
186.1564
 30
0.0
 11
128.0587
 21
189.7564
 31
0.0
  0
LINE
  5
1D3
100
AcDbEntity
  8
1
  6
HIDDEN
 62
     6
100
AcDbLine
 10
135.2587
 20
186.1564
 30
0.0
 11
135.2587
 21
189.7564
 31
0.0
  0
LINE
  5
1D4
100
AcDbEntity
  8
1
  6
HIDDEN
 62
     6
100
AcDbLine
 10
128.0587
 20
186.1564
 30
0.0
 11
130.1587
 21
185.1177
 31
0.0
  0
LINE
  5
1D5
100
AcDbEntity
  8
1
  6
HIDDEN
 62
     6
100
AcDbLine
 10
135.2587
 20
186.1564
 30
0.0
 11
133.1587
 21
185.1177
 31
0.0
  0
LINE
  5
1D6
100
AcDbEntity
  8
1
  6
CONTINUOUS
 62
     6
100
AcDbLine
 10
129.8587
 20
141.8369
 30
0.0
 11
129.8587
 21
140.6968
 31
0.0
  0
LINE
  5
1D7
100
AcDbEntity
  8
1
  6
CONTINUOUS
 62
     6
100
AcDbLine
 10
133.4587
 20
141.8968
 30
0.0
 11
133.4587
 21
140.6968
 31
0.0
  0
LINE
  5
1D8
100
AcDbEntity
  8
1
  6
CONTINUOUS
 62
     6
100
AcDbLine
 10
129.8587
 20
140.6968
 30
0.0
 11
133.4587
 21
140.6968
 31
0.0
  0
LINE
  5
1D9
100
AcDbEntity
  8
1
  6
CONTINUOUS
 62
     6
100
AcDbLine
 10
96.2587
 20
185.2564
 30
0.0
 11
98.0587
 21
185.2564
 31
0.0
  0
LINE
  5
1DA
100
AcDbEntity
  8
1
  6
CONTINUOUS
 62
     6
100
AcDbLine
 10
96.2587
 20
185.2564
 30
0.0
 11
96.2587
 21
185.8564
 31
0.0
  0
LINE
  5
1DB
100
AcDbEntity
  8
1
  6
CONTINUOUS
 62
     6
100
AcDbLine
 10
98.0587
 20
185.2564
 30
0.0
 11
98.0587
 21
185.8564
 31
0.0
  0
ARC
  5
1DC
100
AcDbEntity
  8
1
  6
CONTINUOUS
 62
     6
100
AcDbCircle
 10
97.1587
 20
185.304588
 30
0.0
 40
0.303845
210
0.0
220
0.0
230
1.0
100
AcDbArc
 50
189.125211
 51
350.874786
  0
LINE
  5
1DD
100
AcDbEntity
  8
1
  6
CONTINUOUS
 62
     6
100
AcDbLine
 10
166.9801
 20
185.2564
 30
0.0
 11
165.1801
 21
185.2564
 31
0.0
  0
LINE
  5
1DE
100
AcDbEntity
  8
1
  6
CONTINUOUS
 62
     6
100
AcDbLine
 10
166.9801
 20
185.2564
 30
0.0
 11
166.9801
 21
185.8564
 31
0.0
  0
LINE
  5
1DF
100
AcDbEntity
  8
1
  6
CONTINUOUS
 62
     6
100
AcDbLine
 10
165.1801
 20
185.2564
 30
0.0
 11
165.1801
 21
185.8564
 31
0.0
  0
ARC
  5
1E0
100
AcDbEntity
  8
1
  6
CONTINUOUS
 62
     6
100
AcDbCircle
 10
166.0801
 20
185.304588
 30
0.0
 40
0.303845
210
0.0
220
0.0
230
1.0
100
AcDbArc
 50
189.125214
 51
350.874789
  0
LINE
  5
1E1
100
AcDbEntity
  8
1
  6
CONTINUOUS
 62
     7
100
AcDbLine
 10
95.3094
 20
190.7036
 30
0.0
 11
84.2845
 21
197.2131
 31
0.0
  0
LINE
  5
1E2
100
AcDbEntity
  8
1
  6
CONTINUOUS
 62
     7
100
AcDbLine
 10
84.2845
 20
197.2131
 30
0.0
 11
82.2409
 21
197.2131
 31
0.0
  0
INSERT
  5
1E3
100
AcDbEntity
  8
1
  6
CONTINUOUS
 62
     1
100
AcDbBlockReference
  2
LDR
 10
95.3094
 20
190.7036
 30
0.0
 41
239.999998
 42
239.999998
 50
329.44086
210
0.0
220
0.0
230
1.0
  0
INSERT
  5
1E4
100
AcDbEntity
  8
1
  6
CONTINUOUS
 62
     1
100
AcDbBlockReference
  2
LDR
 10
95.3094
 20
190.7036
 30
0.0
 41
239.999998
 42
239.999998
 50
329.44086
210
0.0
220
0.0
230
1.0
  0
LINE
  5
1E5
100
AcDbEntity
  8
1
  6
CONTINUOUS
 62
     7
100
AcDbLine
 10
166.7049
 20
193.3897
 30
0.0
 11
174.4386
 21
203.7852
 31
0.0
  0
LINE
  5
1E6
100
AcDbEntity
  8
1
  6
CONTINUOUS
 62
     7
100
AcDbLine
 10
174.4386
 20
203.7852
 30
0.0
 11
175.9355
 21
203.7852
 31
0.0
  0
LINE
  5
1E7
100
AcDbEntity
  8
1
  6
CONTINUOUS
 62
     7
100
AcDbLine
 10
167.8454
 20
192.748
 30
0.0
 11
171.3051
 21
196.0515
 31
0.0
  0
LINE
  5
1E8
100
AcDbEntity
  8
1
  6
CONTINUOUS
 62
     7
100
AcDbLine
 10
168.6652
 20
184.8687
 30
0.0
 11
175.5083
 21
179.2356
 31
0.0
  0
LINE
  5
1E9
100
AcDbEntity
  8
1
  6
CONTINUOUS
 62
     7
100
AcDbLine
 10
175.5083
 20
179.2356
 30
0.0
 11
178.0032
 21
179.2356
 31
0.0
  0
LINE
  5
1EA
100
AcDbEntity
  8
1
  6
CONTINUOUS
 62
     7
100
AcDbLine
 10
160.1469
 20
173.8876
 30
0.0
 11
166.7049
 21
164.1187
 31
0.0
  0
LINE
  5
1EB
100
AcDbEntity
  8
1
  6
CONTINUOUS
 62
     7
100
AcDbLine
 10
166.7049
 20
164.1187
 30
0.0
 11
169.9839
 21
164.1187
 31
0.0
  0
LINE
  5
1EC
100
AcDbEntity
  8
1
  6
CONTINUOUS
 62
     7
100
AcDbLine
 10
171.3051
 20
196.0515
 30
0.0
 11
183.0667
 21
196.0515
 31
0.0
  0
LINE
  5
1ED
100
AcDbEntity
  8
1
  6
CONTINUOUS
 62
     7
100
AcDbLine
 10
121.5831
 20
145.2941
 30
0.0
 11
111.6036
 21
126.4694
 31
0.0
  0
LINE
  5
1EE
100
AcDbEntity
  8
1
  6
CONTINUOUS
 62
     7
100
AcDbLine
 10
111.6036
 20
126.4694
 30
0.0
 11
121.4405
 21
126.4694
 31
0.0
  0
INSERT
  5
1EF
100
AcDbEntity
  8
1
  6
CONTINUOUS
 62
     1
100
AcDbBlockReference
  2
LDR
 10
166.7049
 20
193.3897
 30
0.0
 41
240.000001
 42
240.000001
 50
233.352744
210
0.0
220
0.0
230
1.0
  0
INSERT
  5
1F0
100
AcDbEntity
  8
1
  6
CONTINUOUS
 62
     1
100
AcDbBlockReference
  2
LDR
 10
167.8454
 20
192.748
 30
0.0
 41
240.000002
 42
240.000002
 50
223.67699
210
0.0
220
0.0
230
1.0
  0
INSERT
  5
1F1
100
AcDbEntity
  8
1
  6
CONTINUOUS
 62
     1
100
AcDbBlockReference
  2
LDR
 10
168.6652
 20
184.8687
 30
0.0
 41
240.0
 42
240.0
 50
140.539488
210
0.0
220
0.0
230
1.0
  0
INSERT
  5
1F2
100
AcDbEntity
  8
1
  6
CONTINUOUS
 62
     1
100
AcDbBlockReference
  2
LDR
 10
160.1469
 20
173.8876
 30
0.0
 41
240.0
 42
240.0
 50
123.874017
210
0.0
220
0.0
230
1.0
  0
INSERT
  5
1F3
100
AcDbEntity
  8
1
  6
CONTINUOUS
 62
     1
100
AcDbBlockReference
  2
LDR
 10
160.1469
 20
173.8876
 30
0.0
 41
240.0
 42
240.0
 50
123.874017
210
0.0
220
0.0
230
1.0
  0
INSERT
  5
1F4
100
AcDbEntity
  8
1
  6
CONTINUOUS
 62
     1
100
AcDbBlockReference
  2
LDR
 10
121.5831
 20
145.2941
 30
0.0
 41
240.000002
 42
240.000002
 50
62.070686
210
0.0
220
0.0
230
1.0
  0
TEXT
  5
1F5
100
AcDbEntity
  8
1
  6
CONTINUOUS
 62
     7
100
AcDbText
 10
52.01
 20
195.8638
 30
0.0
 40
3.0
  1
FIBER FILLER
  7
MONOTXT
210
0.0
220
0.0
230
1.0
100
AcDbText
  0
TEXT
  5
1F6
100
AcDbEntity
  8
1
  6
CONTINUOUS
 62
     7
100
AcDbText
 10
183.8555
 20
194.6254
 30
0.0
 40
3.0
  1
FIBER WASHER
  7
MONOTXT
210
0.0
220
0.0
230
1.0
100
AcDbText
  0
TEXT
  5
1F7
100
AcDbEntity
  8
1
  6
CONTINUOUS
 62
     7
100
AcDbText
 10
178.7331
 20
177.8736
 30
0.0
 40
3.0
  1
BRACKET
  7
MONOTXT
210
0.0
220
0.0
230
1.0
100
AcDbText
  0
TEXT
  5
1F8
100
AcDbEntity
  8
1
  6
CONTINUOUS
 62
     7
100
AcDbText
 10
170.7539
 20
162.5999
 30
0.0
 40
3.0
  1
CRIMP TYPE SEAL
  7
MONOTXT
210
0.0
220
0.0
230
1.0
100
AcDbText
  0
TEXT
  5
1F9
100
AcDbEntity
  8
1
  6
CONTINUOUS
 62
     7
100
AcDbText
 10
122.5835
 20
125.0562
 30
0.0
 40
3.6
  1
SEE DETAIL "A"
  7
MONOTXT
210
0.0
220
0.0
230
1.0
100
AcDbText
  0
SPLINE
  5
1FA
100
AcDbEntity
  8
1
  6
CONTINUOUS
 62
     6
100
AcDbSpline
210
0.0
220
0.0
230
1.0
 70
     8
 71
     3
 72
    65
 73
    61
 74
     0
 42
0.0
 43
0.0
 12
0.9983868238322686
 22
-0.0567780767384268
 32
0.0
 13
0.983274045076688
 23
0.1821322384382497
 33
0.0
 40
0.0
 40
0.0
 40
0.0
 40
0.0
 40
0.0737857349314691
 40
0.0737857349314691
 40
0.0737857349314691
 40
0.154234290010903
 40
0.154234290010903
 40
0.154234290010903
 40
0.2109224884436731
 40
0.2109224884436731
 40
0.2109224884436731
 40
0.2537028816911787
 40
0.2537028816911787
 40
0.2537028816911787
 40
0.3009424718991405
 40
0.3009424718991405
 40
0.3009424718991405
 40
0.3718035826691229
 40
0.3718035826691229
 40
0.3718035826691229
 40
0.4005409702344979
 40
0.4005409702344979
 40
0.4005409702344979
 40
0.4857061282226176
 40
0.4857061282226176
 40
0.4857061282226176
 40
0.5068354020280869
 40
0.5068354020280869
 40
0.5068354020280869
 40
0.6206048336149519
 40
0.6206048336149519
 40
0.6206048336149519
 40
0.6355443949694489
 40
0.6355443949694489
 40
0.6355443949694489
 40
0.692232593402219
 40
0.692232593402219
 40
0.692232593402219
 40
0.7444142378787048
 40
0.7444142378787048
 40
0.7444142378787048
 40
0.7731482215542603
 40
0.7731482215542603
 40
0.7731482215542603
 40
0.8206272337834252
 40
0.8206272337834252
 40
0.8206272337834252
 40
0.8587123669536994
 40
0.8587123669536994
 40
0.8587123669536994
 40
0.9203063156678994
 40
0.9203063156678994
 40
0.9203063156678994
 40
0.9344792280051117
 40
0.9344792280051117
 40
0.9344792280051117
 40
0.9769979650167486
 40
0.9769979650167486
 40
0.9769979650167486
 40
1.0
 40
1.0
 40
1.0
 40
1.0
 10
243.25980000000001
 20
436.82680000000005
 30
0.0
 10
243.97136666666665
 20
436.78633333333335
 30
0.0
 10
244.68293333333335
 20
436.7458666666667
 30
0.0
 10
245.39450000000002
 20
436.7054
 30
0.0
 10
246.17032083080412
 20
436.66127921072768
 30
0.0
 10
246.94594242453721
 20
436.61334293432162
 30
0.0
 10
247.7217
 20
436.56850000000003
 30
0.0
 10
248.26833877219596
 20
436.53690135715772
 30
0.0
 10
248.81757035180331
 20
436.54750759934848
 30
0.0
 10
249.36440000000002
 20
436.56850000000003
 30
0.0
 10
249.77707120910526
 20
436.58434215374467
 30
0.0
 10
250.18327259152966
 20
436.7054
 30
0.0
 10
250.59650000000002
 20
436.7054
 30
0.0
 10
251.05280000000002
 20
436.7054
 30
0.0
 10
251.50910000000002
 20
436.7054
 30
0.0
 10
251.96540000000002
 20
436.7054
 30
0.0
 10
252.64986666666667
 20
436.7054
 30
0.0
 10
253.33433333333335
 20
436.7054
 30
0.0
 10
254.0188
 20
436.7054
 30
0.0
 10
254.29638221204618
 20
436.7054
 30
0.0
 10
254.56601171021336
 20
436.80419536638357
 30
0.0
 10
254.84020000000001
 20
436.8424
 30
0.0
 10
255.65277521982651
 20
436.95562197087054
 30
0.0
 10
256.49199056869486
 20
437.02895618333577
 30
0.0
 10
257.30430000000001
 20
436.97930000000002
 30
0.0
 10
257.50583204425698
 20
436.96698041862868
 30
0.0
 10
257.6550802564114
 20
436.75525825819653
 30
0.0
 10
257.8519
 20
436.7054
 30
0.0
 10
258.91166526024057
 20
436.4369409063674
 30
0.0
 10
260.07717996006761
 20
436.2879815678009
 30
0.0
 10
261.13730000000004
 20
436.4316
 30
0.0
 10
261.27650899629015
 20
436.45045916409663
 30
0.0
 10
261.4042799247228
 20
436.56006527217971
 30
0.0
 10
261.548
 20
436.56850000000003
 30
0.0
 10
262.09334614188236
 20
436.60050559327379
 30
0.0
 10
262.64503012037306
 20
436.60867347503716
 30
0.0
 10
263.19069999999999
 20
436.56850000000003
 30
0.0
 10
263.69299064333364
 20
436.53152020438597
 30
0.0
 10
264.19617735295822
 20
436.48675505326548
 30
0.0
 10
264.69659999999999
 20
436.4316
 30
0.0
 10
264.97215927597216
 20
436.40122869959254
 30
0.0
 10
265.24226915855706
 20
436.28517918476064
 30
0.0
 10
265.5179
 20
436.2946
 30
0.0
 10
265.97334259505988
 20
436.31016661989554
 30
0.0
 10
266.43138044261332
 20
436.37641692070133
 30
0.0
 10
266.88690000000003
 20
436.4316
 30
0.0
 10
267.25229351157941
 20
436.4758649251778
 30
0.0
 10
267.61611753080911
 20
436.52707932758676
 30
0.0
 10
267.98200000000003
 20
436.56850000000003
 30
0.0
 10
268.57373079274828
 20
436.63548841673787
 30
0.0
 10
269.16664736229586
 20
436.7054
 30
0.0
 10
269.76159999999999
 20
436.7054
 30
0.0
 10
269.89850000000001
 20
436.7054
 30
0.0
 10
270.03540000000004
 20
436.7054
 30
0.0
 10
270.17230000000001
 20
436.7054
 30
0.0
 10
270.58300000000003
 20
436.7054
 30
0.0
 10
270.99713467484349
 20
436.6679991448367
 30
0.0
 10
271.40440000000001
 20
436.7054
 30
0.0
 10
271.62472477714829
 20
436.72563333333335
 30
0.0
 10
271.84133333333335
 20
436.78633333333335
 30
0.0
 10
272.0598
 20
436.82680000000005
 30
0.0
  0
SPLINE
  5
1FB
100
AcDbEntity
  8
1
  6
CONTINUOUS
 62
     6
100
AcDbSpline
210
0.0
220
0.0
230
1.0
 70
     8
 71
     3
 72
    65
 73
    61
 74
     0
 42
0.0
 43
0.0
 12
0.9983868238322802
 22
0.0567780767382235
 32
0.0
 13
0.9832740450767338
 23
-0.1821322384380024
 33
0.0
 40
0.0
 40
0.0
 40
0.0
 40
0.0
 40
0.0737857349314691
 40
0.0737857349314691
 40
0.0737857349314691
 40
0.154234290010903
 40
0.154234290010903
 40
0.154234290010903
 40
0.2109224884436731
 40
0.2109224884436731
 40
0.2109224884436731
 40
0.2537028816911787
 40
0.2537028816911787
 40
0.2537028816911787
 40
0.3009424718991405
 40
0.3009424718991405
 40
0.3009424718991405
 40
0.3718035826691229
 40
0.3718035826691229
 40
0.3718035826691229
 40
0.4005409702344979
 40
0.4005409702344979
 40
0.4005409702344979
 40
0.4857061282226176
 40
0.4857061282226176
 40
0.4857061282226176
 40
0.5068354020280869
 40
0.5068354020280869
 40
0.5068354020280869
 40
0.6206048336149519
 40
0.6206048336149519
 40
0.6206048336149519
 40
0.6355443949694489
 40
0.6355443949694489
 40
0.6355443949694489
 40
0.692232593402219
 40
0.692232593402219
 40
0.692232593402219
 40
0.7444142378787048
 40
0.7444142378787048
 40
0.7444142378787048
 40
0.7731482215542603
 40
0.7731482215542603
 40
0.7731482215542603
 40
0.8206272337834252
 40
0.8206272337834252
 40
0.8206272337834252
 40
0.8587123669536994
 40
0.8587123669536994
 40
0.8587123669536994
 40
0.9203063156678994
 40
0.9203063156678994
 40
0.9203063156678994
 40
0.9344792280051117
 40
0.9344792280051117
 40
0.9344792280051117
 40
0.9769979650167486
 40
0.9769979650167486
 40
0.9769979650167486
 40
1.0
 40
1.0
 40
1.0
 40
1.0
 10
243.2587
 20
236.42660000000001
 30
0.0
 10
243.97026666666667
 20
236.46706666666665
 30
0.0
 10
244.68183333333337
 20
236.50753333333336
 30
0.0
 10
245.39340000000001
 20
236.548
 30
0.0
 10
246.16922083080411
 20
236.59212078927234
 30
0.0
 10
246.9448424245372
 20
236.64005706567843
 30
0.0
 10
247.72060000000002
 20
236.6849
 30
0.0
 10
248.26723877219595
 20
236.71649864284225
 30
0.0
 10
248.8164703518033
 20
236.70589240065158
 30
0.0
 10
249.36330000000001
 20
236.6849
 30
0.0
 10
249.77597120910525
 20
236.6690578462553
 30
0.0
 10
250.18217259152965
 20
236.548
 30
0.0
 10
250.59540000000001
 20
236.548
 30
0.0
 10
251.05170000000001
 20
236.548
 30
0.0
 10
251.50800000000001
 20
236.548
 30
0.0
 10
251.96430000000001
 20
236.548
 30
0.0
 10
252.64876666666666
 20
236.548
 30
0.0
 10
253.33323333333337
 20
236.548
 30
0.0
 10
254.01770000000002
 20
236.548
 30
0.0
 10
254.29528221204617
 20
236.548
 30
0.0
 10
254.56491171021338
 20
236.44920463361643
 30
0.0
 10
254.8391
 20
236.411
 30
0.0
 10
255.6516752198265
 20
236.29777802912952
 30
0.0
 10
256.49089056869485
 20
236.22444381666426
 30
0.0
 10
257.3032
 20
236.2741
 30
0.0
 10
257.50473204425697
 20
236.28641958137132
 30
0.0
 10
257.65398025641139
 20
236.49814174180349
 30
0.0
 10
257.85079999999999
 20
236.548
 30
0.0
 10
258.91056526024056
 20
236.81645909363266
 30
0.0
 10
260.0760799600676
 20
236.96541843219907
 30
0.0
 10
261.13620000000003
 20
236.82180000000002
 30
0.0
 10
261.27540899629014
 20
236.8029408359034
 30
0.0
 10
261.40317992472279
 20
236.69333472782026
 30
0.0
 10
261.54689999999999
 20
236.6849
 30
0.0
 10
262.09224614188236
 20
236.65289440672618
 30
0.0
 10
262.64393012037306
 20
236.64472652496286
 30
0.0
 10
263.18959999999998
 20
236.6849
 30
0.0
 10
263.69189064333364
 20
236.72187979561409
 30
0.0
 10
264.19507735295821
 20
236.76664494673457
 30
0.0
 10
264.69550000000004
 20
236.82180000000002
 30
0.0
 10
264.97105927597215
 20
236.85217130040752
 30
0.0
 10
265.24116915855706
 20
236.96822081523939
 30
0.0
 10
265.51679999999999
 20
236.95880000000002
 30
0.0
 10
265.97224259505992
 20
236.94323338010452
 30
0.0
 10
266.43028044261331
 20
236.87698307929872
 30
0.0
 10
266.88580000000002
 20
236.82180000000002
 30
0.0
 10
267.25119351157946
 20
236.77753507482228
 30
0.0
 10
267.6150175308091
 20
236.72632067241321
 30
0.0
 10
267.98090000000002
 20
236.6849
 30
0.0
 10
268.57263079274827
 20
236.61791158326218
 30
0.0
 10
269.16554736229585
 20
236.548
 30
0.0
 10
269.76050000000004
 20
236.548
 30
0.0
 10
269.8974
 20
236.548
 30
0.0
 10
270.03430000000003
 20
236.548
 30
0.0
 10
270.1712
 20
236.548
 30
0.0
 10
270.58190000000002
 20
236.548
 30
0.0
 10
270.99603467484349
 20
236.58540085516327
 30
0.0
 10
271.4033
 20
236.548
 30
0.0
 10
271.62362477714828
 20
236.52776666666665
 30
0.0
 10
271.84023333333334
 20
236.46706666666665
 30
0.0
 10
272.05869999999999
 20
236.42660000000001
 30
0.0
  0
LINE
  5
1FC
100
AcDbEntity
  8
1
  6
CONTINUOUS
 62
     6
100
AcDbLine
 10
247.1595
 20
368.4268
 30
0.0
 11
241.7595
 21
368.4268
 31
0.0
  0
LINE
  5
1FD
100
AcDbEntity
  8
1
  6
CONTINUOUS
 62
     6
100
AcDbLine
 10
247.1595
 20
384.0268
 30
0.0
 11
247.1595
 21
368.4268
 31
0.0
  0
LINE
  5
1FE
100
AcDbEntity
  8
1
  6
CONTINUOUS
 62
     6
100
AcDbLine
 10
246.5595
 20
384.0268
 30
0.0
 11
246.5595
 21
368.4268
 31
0.0
  0
LINE
  5
1FF
100
AcDbEntity
  8
1
  6
CONTINUOUS
 62
     6
100
AcDbLine
 10
243.2598
 20
436.8268
 30
0.0
 11
243.2595
 21
384.0268
 31
0.0
  0
LINE
  5
200
100
AcDbEntity
  8
1
  6
CONTINUOUS
 62
     6
100
AcDbLine
 10
241.7595
 20
368.4268
 30
0.0
 11
241.7595
 21
371.4268
 31
0.0
  0
LINE
  5
201
100
AcDbEntity
  8
1
  6
CONTINUOUS
 62
     6
100
AcDbLine
 10
241.7595
 20
384.0268
 30
0.0
 11
241.7595
 21
381.6268
 31
0.0
  0
LINE
  5
202
100
AcDbEntity
  8
1
  6
CONTINUOUS
 62
     6
100
AcDbLine
 10
240.5595
 20
380.4268
 30
0.0
 11
236.6595
 21
380.4268
 31
0.0
  0
LINE
  5
203
100
AcDbEntity
  8
1
  6
CONTINUOUS
 62
     6
100
AcDbLine
 10
241.1595
 20
372.0268
 30
0.0
 11
234.2595
 21
372.0268
 31
0.0
  0
LINE
  5
204
100
AcDbEntity
  8
1
  6
CONTINUOUS
 62
     6
100
AcDbLine
 10
234.2595
 20
372.0268
 30
0.0
 11
234.2595
 21
376.8268
 31
0.0
  0
LINE
  5
205
100
AcDbEntity
  8
1
  6
CONTINUOUS
 62
     6
100
AcDbLine
 10
234.2595
 20
376.8268
 30
0.0
 11
235.4595
 21
376.8268
 31
0.0
  0
LINE
  5
206
100
AcDbEntity
  8
1
  6
CONTINUOUS
 62
     6
100
AcDbLine
 10
236.6595
 20
380.4268
 30
0.0
 11
236.6595
 21
378.0268
 31
0.0
  0
LINE
  5
207
100
AcDbEntity
  8
1
  6
CONTINUOUS
 62
     6
100
AcDbLine
 10
237.2598
 20
436.8268
 30
0.0
 11
237.2595
 21
380.4268
 31
0.0
  0
LINE
  5
208
100
AcDbEntity
  8
1
  6
CONTINUOUS
 62
     6
100
AcDbLine
 10
240.8598
 20
436.8268
 30
0.0
 11
240.8595
 21
380.4268
 31
0.0
  0
ARC
  5
209
100
AcDbEntity
  8
1
  6
CONTINUOUS
 62
     6
100
AcDbCircle
 10
240.5595
 20
381.6268
 30
0.0
 40
1.2
210
0.0
220
0.0
230
1.0
100
AcDbArc
 50
270.0
 51
360.0
  0
ARC
  5
20A
100
AcDbEntity
  8
1
  6
CONTINUOUS
 62
     6
100
AcDbCircle
 10
235.4595
 20
378.0268
 30
0.0
 40
1.2
210
0.0
220
0.0
230
1.0
100
AcDbArc
 50
270.0
 51
360.0
  0
ARC
  5
20B
100
AcDbEntity
  8
1
  6
CONTINUOUS
 62
     6
100
AcDbCircle
 10
241.1595
 20
371.4268
 30
0.0
 40
0.6
210
0.0
220
0.0
230
1.0
100
AcDbArc
 50
0.0
 51
90.0
  0
LINE
  5
20C
100
AcDbEntity
  8
1
  6
CONTINUOUS
 62
     6
100
AcDbLine
 10
241.4703
 20
380.7988
 30
0.0
 11
242.6529
 21
379.489
 31
0.0
  0
LINE
  5
20D
100
AcDbEntity
  8
1
  6
CONTINUOUS
 62
     6
100
AcDbLine
 10
241.6392
 20
371.7996
 30
0.0
 11
242.7512
 21
373.0974
 31
0.0
  0
LINE
  5
20E
100
AcDbEntity
  8
1
  6
CONTINUOUS
 62
     6
100
AcDbLine
 10
236.3175
 20
377.1653
 30
0.0
 11
237.5001
 21
375.9823
 31
0.0
  0
LINE
  5
20F
100
AcDbEntity
  8
1
  6
CONTINUOUS
 62
     6
100
AcDbLine
 10
240.5595
 20
270.4964
 30
0.0
 11
236.6595
 21
270.4964
 31
0.0
  0
LINE
  5
210
100
AcDbEntity
  8
1
  6
CONTINUOUS
 62
     6
100
AcDbLine
 10
247.1595
 20
266.8964
 30
0.0
 11
241.7595
 21
266.8964
 31
0.0
  0
LINE
  5
211
100
AcDbEntity
  8
1
  6
CONTINUOUS
 62
     6
100
AcDbLine
 10
247.1595
 20
282.4964
 30
0.0
 11
241.7595
 21
282.4964
 31
0.0
  0
LINE
  5
212
100
AcDbEntity
  8
1
  6
CONTINUOUS
 62
     6
100
AcDbLine
 10
247.1595
 20
266.8964
 30
0.0
 11
247.1595
 21
282.4964
 31
0.0
  0
LINE
  5
213
100
AcDbEntity
  8
1
  6
CONTINUOUS
 62
     6
100
AcDbLine
 10
246.5595
 20
266.8964
 30
0.0
 11
246.5595
 21
282.4964
 31
0.0
  0
LINE
  5
214
100
AcDbEntity
  8
1
  6
CONTINUOUS
 62
     6
100
AcDbLine
 10
241.7595
 20
282.4964
 30
0.0
 11
241.7595
 21
279.4964
 31
0.0
  0
LINE
  5
215
100
AcDbEntity
  8
1
  6
CONTINUOUS
 62
     6
100
AcDbLine
 10
241.7595
 20
266.8964
 30
0.0
 11
241.7595
 21
269.2964
 31
0.0
  0
LINE
  5
216
100
AcDbEntity
  8
1
  6
CONTINUOUS
 62
     6
100
AcDbLine
 10
241.1595
 20
278.8964
 30
0.0
 11
234.2595
 21
278.8964
 31
0.0
  0
LINE
  5
217
100
AcDbEntity
  8
1
  6
CONTINUOUS
 62
     6
100
AcDbLine
 10
234.2595
 20
278.8964
 30
0.0
 11
234.2595
 21
274.0964
 31
0.0
  0
LINE
  5
218
100
AcDbEntity
  8
1
  6
CONTINUOUS
 62
     6
100
AcDbLine
 10
234.2595
 20
274.0964
 30
0.0
 11
235.4595
 21
274.0964
 31
0.0
  0
LINE
  5
219
100
AcDbEntity
  8
1
  6
CONTINUOUS
 62
     6
100
AcDbLine
 10
236.6595
 20
270.4964
 30
0.0
 11
236.6595
 21
272.8964
 31
0.0
  0
ARC
  5
21A
100
AcDbEntity
  8
1
  6
CONTINUOUS
 62
     6
100
AcDbCircle
 10
240.5595
 20
269.2964
 30
0.0
 40
1.2
210
0.0
220
0.0
230
1.0
100
AcDbArc
 50
0.0
 51
90.0
  0
ARC
  5
21B
100
AcDbEntity
  8
1
  6
CONTINUOUS
 62
     6
100
AcDbCircle
 10
235.4595
 20
272.8964
 30
0.0
 40
1.2
210
0.0
220
0.0
230
1.0
100
AcDbArc
 50
0.0
 51
90.0
  0
ARC
  5
21C
100
AcDbEntity
  8
1
  6
CONTINUOUS
 62
     6
100
AcDbCircle
 10
241.1595
 20
279.4964
 30
0.0
 40
0.6
210
0.0
220
0.0
230
1.0
100
AcDbArc
 50
270.0
 51
360.0
  0
LINE
  5
21D
100
AcDbEntity
  8
1
  6
CONTINUOUS
 62
     6
100
AcDbLine
 10
241.4703
 20
270.1244
 30
0.0
 11
242.6529
 21
271.4342
 31
0.0
  0
LINE
  5
21E
100
AcDbEntity
  8
1
  6
CONTINUOUS
 62
     6
100
AcDbLine
 10
241.6392
 20
279.1236
 30
0.0
 11
242.7512
 21
277.8258
 31
0.0
  0
LINE
  5
21F
100
AcDbEntity
  8
1
  6
CONTINUOUS
 62
     6
100
AcDbLine
 10
236.3175
 20
273.7579
 30
0.0
 11
237.5001
 21
274.9409
 31
0.0
  0
LINE
  5
220
100
AcDbEntity
  8
1
  6
CONTINUOUS
 62
     6
100
AcDbLine
 10
237.2589
 20
270.4964
 30
0.0
 11
237.2587
 21
236.4266
 31
0.0
  0
LINE
  5
221
100
AcDbEntity
  8
1
  6
CONTINUOUS
 62
     6
100
AcDbLine
 10
240.8589
 20
270.4964
 30
0.0
 11
240.8587
 21
236.4266
 31
0.0
  0
LINE
  5
222
100
AcDbEntity
  8
1
  6
CONTINUOUS
 62
     6
100
AcDbLine
 10
243.2594
 20
368.4268
 30
0.0
 11
243.2594
 21
282.4964
 31
0.0
  0
LINE
  5
223
100
AcDbEntity
  8
1
  6
CONTINUOUS
 62
     6
100
AcDbLine
 10
243.2594
 20
266.8964
 30
0.0
 11
243.2594
 21
236.4266
 31
0.0
  0
LINE
  5
224
100
AcDbEntity
  8
1
  6
CONTINUOUS
 62
     6
100
AcDbLine
 10
245.0595
 20
383.1268
 30
0.0
 11
243.2595
 21
383.1268
 31
0.0
  0
LINE
  5
225
100
AcDbEntity
  8
1
  6
CONTINUOUS
 62
     6
100
AcDbLine
 10
245.0595
 20
369.3268
 30
0.0
 11
243.2595
 21
369.3268
 31
0.0
  0
LINE
  5
226
100
AcDbEntity
  8
1
  6
CONTINUOUS
 62
     6
100
AcDbLine
 10
243.2595
 20
383.1268
 30
0.0
 11
243.2595
 21
381.6268
 31
0.0
  0
LINE
  5
227
100
AcDbEntity
  8
1
  6
CONTINUOUS
 62
     6
100
AcDbLine
 10
243.2595
 20
370.8268
 30
0.0
 11
243.2595
 21
369.3268
 31
0.0
  0
LINE
  5
228
100
AcDbEntity
  8
1
  6
CONTINUOUS
 62
     6
100
AcDbLine
 10
245.0595
 20
381.6268
 30
0.0
 11
243.2595
 21
381.6268
 31
0.0
  0
LINE
  5
229
100
AcDbEntity
  8
1
  6
CONTINUOUS
 62
     6
100
AcDbLine
 10
245.0595
 20
370.8268
 30
0.0
 11
243.2595
 21
370.8268
 31
0.0
  0
LINE
  5
22A
100
AcDbEntity
  8
1
  6
CONTINUOUS
 62
     6
100
AcDbLine
 10
244.7595
 20
383.1268
 30
0.0
 11
244.7595
 21
381.6268
 31
0.0
  0
LINE
  5
22B
100
AcDbEntity
  8
1
  6
CONTINUOUS
 62
     6
100
AcDbLine
 10
244.7595
 20
370.8268
 30
0.0
 11
244.7595
 21
369.3268
 31
0.0
  0
LINE
  5
22C
100
AcDbEntity
  8
1
  6
CONTINUOUS
 62
     6
100
AcDbLine
 10
245.0595
 20
383.1268
 30
0.0
 11
245.0595
 21
381.6268
 31
0.0
  0
LINE
  5
22D
100
AcDbEntity
  8
1
  6
CONTINUOUS
 62
     6
100
AcDbLine
 10
245.0595
 20
370.8268
 30
0.0
 11
245.0595
 21
369.3268
 31
0.0
  0
LINE
  5
22E
100
AcDbEntity
  8
1
  6
CONTINUOUS
 62
     6
100
AcDbLine
 10
247.1595
 20
384.0268
 30
0.0
 11
246.5595
 21
384.0268
 31
0.0
  0
LINE
  5
22F
100
AcDbEntity
  8
1
  6
CONTINUOUS
 62
     6
100
AcDbLine
 10
246.5595
 20
384.0268
 30
0.0
 11
241.7595
 21
384.0268
 31
0.0
  0
LINE
  5
230
100
AcDbEntity
  8
1
  6
CONTINUOUS
 62
     6
100
AcDbLine
 10
245.0595
 20
280.2018
 30
0.0
 11
243.2595
 21
280.2018
 31
0.0
  0
LINE
  5
231
100
AcDbEntity
  8
1
  6
CONTINUOUS
 62
     6
100
AcDbLine
 10
245.0595
 20
267.9018
 30
0.0
 11
243.2595
 21
267.9018
 31
0.0
  0
LINE
  5
232
100
AcDbEntity
  8
1
  6
CONTINUOUS
 62
     6
100
AcDbLine
 10
245.0595
 20
281.7018
 30
0.0
 11
243.2595
 21
281.7018
 31
0.0
  0
LINE
  5
233
100
AcDbEntity
  8
1
  6
CONTINUOUS
 62
     6
100
AcDbLine
 10
243.2595
 20
267.9018
 30
0.0
 11
243.2595
 21
269.4018
 31
0.0
  0
LINE
  5
234
100
AcDbEntity
  8
1
  6
CONTINUOUS
 62
     6
100
AcDbLine
 10
243.2595
 20
280.2018
 30
0.0
 11
243.2595
 21
281.7018
 31
0.0
  0
LINE
  5
235
100
AcDbEntity
  8
1
  6
CONTINUOUS
 62
     6
100
AcDbLine
 10
245.0595
 20
269.4018
 30
0.0
 11
243.2595
 21
269.4018
 31
0.0
  0
LINE
  5
236
100
AcDbEntity
  8
1
  6
CONTINUOUS
 62
     6
100
AcDbLine
 10
244.7595
 20
267.9018
 30
0.0
 11
244.7595
 21
269.4018
 31
0.0
  0
LINE
  5
237
100
AcDbEntity
  8
1
  6
CONTINUOUS
 62
     6
100
AcDbLine
 10
244.7595
 20
280.2018
 30
0.0
 11
244.7595
 21
281.7018
 31
0.0
  0
LINE
  5
238
100
AcDbEntity
  8
1
  6
CONTINUOUS
 62
     6
100
AcDbLine
 10
245.0595
 20
267.9018
 30
0.0
 11
245.0595
 21
269.4018
 31
0.0
  0
LINE
  5
239
100
AcDbEntity
  8
1
  6
CONTINUOUS
 62
     6
100
AcDbLine
 10
245.0595
 20
280.2018
 30
0.0
 11
245.0595
 21
281.7018
 31
0.0
  0
SPLINE
  5
23A
100
AcDbEntity
  8
1
  6
CONTINUOUS
 62
     6
100
AcDbSpline
210
0.0
220
0.0
230
1.0
 70
     8
 71
     3
 72
    26
 73
    22
 74
     0
 42
0.0
 43
0.0
 12
0.9719526188385257
 22
0.2351767563619576
 32
0.0
 13
0.9992859015744856
 23
-0.0377847444674104
 33
0.0
 40
0.0
 40
0.0
 40
0.0
 40
0.0
 40
0.1156555244592693
 40
0.1156555244592693
 40
0.1156555244592693
 40
0.2604894383092653
 40
0.2604894383092653
 40
0.2604894383092653
 40
0.3885536271696196
 40
0.3885536271696196
 40
0.3885536271696196
 40
0.6544965761532849
 40
0.6544965761532849
 40
0.6544965761532849
 40
0.7579780363529038
 40
0.7579780363529038
 40
0.7579780363529038
 40
0.9313729662929758
 40
0.9313729662929758
 40
0.9313729662929758
 40
1.0
 40
1.0
 40
1.0
 40
1.0
 10
237.25980000000001
 20
436.82680000000005
 30
0.0
 10
237.39563333333336
 20
436.85966666666673
 30
0.0
 10
237.53146666666666
 20
436.89253333333335
 30
0.0
 10
237.66730000000001
 20
436.92540000000002
 30
0.0
 10
237.83740232230528
 20
436.96655850056271
 30
0.0
 10
238.00982658041087
 20
436.8429845791909
 30
0.0
 10
238.18470000000002
 20
436.83620000000002
 30
0.0
 10
238.33932554340768
 20
436.83020097941329
 30
0.0
 10
238.49395925730911
 20
436.82414566148077
 30
0.0
 10
238.64860000000002
 20
436.8184
 30
0.0
 10
238.96973282807801
 20
436.80646834157426
 30
0.0
 10
239.29086800476506
 20
436.79462769059774
 30
0.0
 10
239.61200000000002
 20
436.78270000000003
 30
0.0
 10
239.7369561528543
 20
436.77805879840184
 30
0.0
 10
239.86184866054472
 20
436.76943664294606
 30
0.0
 10
239.98670000000001
 20
436.76480000000004
 30
0.0
 10
240.19590258774869
 20
436.75703077856434
 30
0.0
 10
240.40182682612254
 20
436.84411676522308
 30
0.0
 10
240.61120000000003
 20
436.83620000000002
 30
0.0
 10
240.69406666666666
 20
436.8330666666667
 30
0.0
 10
240.77693333333335
 20
436.82993333333332
 30
0.0
 10
240.85980000000001
 20
436.82680000000005
 30
0.0
  0
SPLINE
  5
23B
100
AcDbEntity
  8
1
  6
CONTINUOUS
 62
     6
100
AcDbSpline
210
0.0
220
0.0
230
1.0
 70
     8
 71
     3
 72
    23
 73
    19
 74
     0
 42
0.0
 43
0.0
 12
0.9889264547069206
 22
0.148406425672209
 32
0.0
 13
0.9532588183042987
 23
-0.3021549690557679
 33
0.0
 40
0.0
 40
0.0
 40
0.0
 40
0.0
 40
0.2038253420178758
 40
0.2038253420178758
 40
0.2038253420178758
 40
0.3809047634723339
 40
0.3809047634723339
 40
0.3809047634723339
 40
0.5368888008203969
 40
0.5368888008203969
 40
0.5368888008203969
 40
0.6858360256272262
 40
0.6858360256272262
 40
0.6858360256272262
 40
0.8765906261885138
 40
0.8765906261885138
 40
0.8765906261885138
 40
1.0
 40
1.0
 40
1.0
 40
1.0
 10
237.2587
 20
236.42660000000001
 30
0.0
 10
237.50303333333335
 20
236.46326666666667
 30
0.0
 10
237.74736666666666
 20
236.49993333333336
 30
0.0
 10
237.99170000000001
 20
236.53660000000002
 30
0.0
 10
238.20397196226125
 20
236.56845527400921
 30
0.0
 10
238.41982452618933
 20
236.57016451544925
 30
0.0
 10
238.6336
 20
236.58790000000002
 30
0.0
 10
238.82190850709304
 20
236.60352266502699
 30
0.0
 10
239.01021481694417
 20
236.6277496009709
 30
0.0
 10
239.19850000000002
 20
236.63930000000002
 30
0.0
 10
239.37829118867037
 20
236.65032933293722
 30
0.0
 10
239.55796073584906
 20
236.60073363216841
 30
0.0
 10
239.73770000000002
 20
236.58790000000002
 30
0.0
 10
239.967889529095
 20
236.57146414910579
 30
0.0
 10
240.21048233479422
 20
236.63206590790534
 30
0.0
 10
240.43090000000001
 20
236.56220000000002
 30
0.0
 10
240.57350000000002
 20
236.51700000000002
 30
0.0
 10
240.71610000000001
 20
236.4718
 30
0.0
 10
240.8587
 20
236.42660000000001
 30
0.0
  0
LINE
  5
23C
100
AcDbEntity
  8
1
  6
CONTINUOUS
 62
     6
100
AcDbLine
 10
229.4595
 20
372.0268
 30
0.0
 11
229.4595
 21
376.8268
 31
0.0
  0
LINE
  5
23D
100
AcDbEntity
  8
1
  6
CONTINUOUS
 62
     6
100
AcDbLine
 10
234.2595
 20
376.2268
 30
0.0
 11
229.4595
 21
376.2268
 31
0.0
  0
LINE
  5
23E
100
AcDbEntity
  8
1
  6
CONTINUOUS
 62
     6
100
AcDbLine
 10
234.2595
 20
372.6268
 30
0.0
 11
229.4595
 21
372.6268
 31
0.0
  0
LINE
  5
23F
100
AcDbEntity
  8
1
  6
CONTINUOUS
 62
     6
100
AcDbLine
 10
233.0595
 20
372.6268
 30
0.0
 11
233.0595
 21
376.2268
 31
0.0
  0
LINE
  5
240
100
AcDbEntity
  8
1
  6
CONTINUOUS
 62
     6
100
AcDbLine
 10
230.6595
 20
372.6268
 30
0.0
 11
230.6595
 21
376.2268
 31
0.0
  0
LINE
  5
241
100
AcDbEntity
  8
1
  6
CONTINUOUS
 62
     6
100
AcDbLine
 10
233.6595
 20
373.2268
 30
0.0
 11
233.6595
 21
375.6268
 31
0.0
  0
LINE
  5
242
100
AcDbEntity
  8
1
  6
CONTINUOUS
 62
     6
100
AcDbLine
 10
230.0595
 20
373.2268
 30
0.0
 11
230.0595
 21
375.6268
 31
0.0
  0
LINE
  5
243
100
AcDbEntity
  8
1
  6
CONTINUOUS
 62
     6
100
AcDbLine
 10
228.5595
 20
370.8268
 30
0.0
 11
228.5595
 21
378.0268
 31
0.0
  0
LINE
  5
244
100
AcDbEntity
  8
1
  6
CONTINUOUS
 62
     6
100
AcDbLine
 10
229.4595
 20
376.8268
 30
0.0
 11
228.5595
 21
376.8268
 31
0.0
  0
LINE
  5
245
100
AcDbEntity
  8
1
  6
CONTINUOUS
 62
     6
100
AcDbLine
 10
229.4595
 20
372.0268
 30
0.0
 11
228.5595
 21
372.0268
 31
0.0
  0
LINE
  5
246
100
AcDbEntity
  8
1
  6
CONTINUOUS
 62
     6
100
AcDbLine
 10
228.2595
 20
370.5268
 30
0.0
 11
228.2595
 21
378.3268
 31
0.0
  0
LINE
  5
247
100
AcDbEntity
  8
1
  6
CONTINUOUS
 62
     6
100
AcDbLine
 10
223.4595
 20
367.5268
 30
0.0
 11
223.4595
 21
381.3268
 31
0.0
  0
LINE
  5
248
100
AcDbEntity
  8
1
  6
CONTINUOUS
 62
     6
100
AcDbLine
 10
223.4595
 20
381.3268
 30
0.0
 11
227.9595
 21
381.3268
 31
0.0
  0
LINE
  5
249
100
AcDbEntity
  8
1
  6
CONTINUOUS
 62
     6
100
AcDbLine
 10
223.4595
 20
367.5268
 30
0.0
 11
227.9595
 21
367.5268
 31
0.0
  0
LINE
  5
24A
100
AcDbEntity
  8
1
  6
CONTINUOUS
 62
     6
100
AcDbLine
 10
227.9595
 20
381.3268
 30
0.0
 11
227.9595
 21
380.1268
 31
0.0
  0
LINE
  5
24B
100
AcDbEntity
  8
1
  6
CONTINUOUS
 62
     6
100
AcDbLine
 10
227.9595
 20
367.5268
 30
0.0
 11
227.9595
 21
368.7268
 31
0.0
  0
LINE
  5
24C
100
AcDbEntity
  8
1
  6
CONTINUOUS
 62
     6
100
AcDbLine
 10
227.9595
 20
380.1268
 30
0.0
 11
228.2595
 21
378.3268
 31
0.0
  0
LINE
  5
24D
100
AcDbEntity
  8
1
  6
CONTINUOUS
 62
     6
100
AcDbLine
 10
228.2595
 20
370.5268
 30
0.0
 11
227.9595
 21
368.7268
 31
0.0
  0
LINE
  5
24E
100
AcDbEntity
  8
1
  6
CONTINUOUS
 62
     6
100
AcDbLine
 10
228.2595
 20
378.3268
 30
0.0
 11
228.5595
 21
378.0268
 31
0.0
  0
LINE
  5
24F
100
AcDbEntity
  8
1
  6
CONTINUOUS
 62
     6
100
AcDbLine
 10
228.2595
 20
370.5268
 30
0.0
 11
228.5595
 21
370.8268
 31
0.0
  0
LINE
  5
250
100
AcDbEntity
  8
1
  6
CONTINUOUS
 62
     6
100
AcDbLine
 10
227.9595
 20
380.1268
 30
0.0
 11
227.0349
 21
379.1021
 31
0.0
  0
LINE
  5
251
100
AcDbEntity
  8
1
  6
CONTINUOUS
 62
     6
100
AcDbLine
 10
227.9595
 20
368.7268
 30
0.0
 11
227.0349
 21
369.7515
 31
0.0
  0
LINE
  5
252
100
AcDbEntity
  8
1
  6
CONTINUOUS
 62
     6
100
AcDbLine
 10
223.4595
 20
387.9268
 30
0.0
 11
227.9595
 21
387.9268
 31
0.0
  0
LINE
  5
253
100
AcDbEntity
  8
1
  6
CONTINUOUS
 62
     6
100
AcDbLine
 10
223.9095
 20
386.7268
 30
0.0
 11
227.5095
 21
386.7268
 31
0.0
  0
LINE
  5
254
100
AcDbEntity
  8
1
  6
CONTINUOUS
 62
     6
100
AcDbLine
 10
223.9095
 20
385.5268
 30
0.0
 11
227.5095
 21
385.5268
 31
0.0
  0
LINE
  5
255
100
AcDbEntity
  8
1
  6
CONTINUOUS
 62
     6
100
AcDbLine
 10
223.9095
 20
382.5268
 30
0.0
 11
227.5095
 21
382.5268
 31
0.0
  0
LINE
  5
256
100
AcDbEntity
  8
1
  6
CONTINUOUS
 62
     6
100
AcDbLine
 10
223.9095
 20
383.7268
 30
0.0
 11
227.5095
 21
383.7268
 31
0.0
  0
LINE
  5
257
100
AcDbEntity
  8
1
  6
CONTINUOUS
 62
     6
100
AcDbLine
 10
224.8095
 20
387.3268
 30
0.0
 11
226.6095
 21
387.3268
 31
0.0
  0
LINE
  5
258
100
AcDbEntity
  8
1
  6
CONTINUOUS
 62
     6
100
AcDbLine
 10
224.8095
 20
386.1268
 30
0.0
 11
226.6095
 21
386.1268
 31
0.0
  0
LINE
  5
259
100
AcDbEntity
  8
1
  6
CONTINUOUS
 62
     6
100
AcDbLine
 10
224.8095
 20
383.1268
 30
0.0
 11
226.6095
 21
383.1268
 31
0.0
  0
LINE
  5
25A
100
AcDbEntity
  8
1
  6
CONTINUOUS
 62
     6
100
AcDbLine
 10
224.8095
 20
381.9268
 30
0.0
 11
226.6095
 21
381.9268
 31
0.0
  0
LINE
  5
25B
100
AcDbEntity
  8
1
  6
CONTINUOUS
 62
     6
100
AcDbLine
 10
219.7095
 20
388.8268
 30
0.0
 11
231.7095
 21
388.8268
 31
0.0
  0
LINE
  5
25C
100
AcDbEntity
  8
1
  6
CONTINUOUS
 62
     6
100
AcDbLine
 10
223.4595
 20
387.9268
 30
0.0
 11
223.4595
 21
388.8268
 31
0.0
  0
LINE
  5
25D
100
AcDbEntity
  8
1
  6
CONTINUOUS
 62
     6
100
AcDbLine
 10
227.9595
 20
387.9268
 30
0.0
 11
227.9595
 21
388.8268
 31
0.0
  0
LINE
  5
25E
100
AcDbEntity
  8
1
  6
CONTINUOUS
 62
     6
100
AcDbLine
 10
219.7095
 20
408.6268
 30
0.0
 11
231.7095
 21
408.6268
 31
0.0
  0
LINE
  5
25F
100
AcDbEntity
  8
1
  6
CONTINUOUS
 62
     6
100
AcDbLine
 10
231.7095
 20
408.6268
 30
0.0
 11
231.7095
 21
388.8268
 31
0.0
  0
LINE
  5
260
100
AcDbEntity
  8
1
  6
CONTINUOUS
 62
     6
100
AcDbLine
 10
219.7095
 20
408.6268
 30
0.0
 11
219.7095
 21
388.8268
 31
0.0
  0
LINE
  5
261
100
AcDbEntity
  8
1
  6
CONTINUOUS
 62
     6
100
AcDbLine
 10
219.7095
 20
407.4268
 30
0.0
 11
207.7095
 21
405.3268
 31
0.0
  0
LINE
  5
262
100
AcDbEntity
  8
1
  6
CONTINUOUS
 62
     6
100
AcDbLine
 10
219.7095
 20
390.6268
 30
0.0
 11
209.5095
 21
389.7268
 31
0.0
  0
LINE
  5
263
100
AcDbEntity
  8
1
  6
CONTINUOUS
 62
     6
100
AcDbLine
 10
207.7095
 20
405.3268
 30
0.0
 11
209.5095
 21
389.7268
 31
0.0
  0
LINE
  5
264
100
AcDbEntity
  8
1
  6
CONTINUOUS
 62
     6
100
AcDbLine
 10
240.8595
 20
381.6268
 30
0.0
 11
237.2595
 21
381.6268
 31
0.0
  0
LINE
  5
265
100
AcDbEntity
  8
1
  6
CONTINUOUS
 62
     6
100
AcDbLine
 10
240.8595
 20
382.8268
 30
0.0
 11
237.2595
 21
382.8268
 31
0.0
  0
LINE
  5
266
100
AcDbEntity
  8
1
  6
CONTINUOUS
 62
     6
100
AcDbLine
 10
239.9595
 20
382.2268
 30
0.0
 11
238.1595
 21
382.2268
 31
0.0
  0
LINE
  5
267
100
AcDbEntity
  8
1
  6
CONTINUOUS
 62
     6
100
AcDbLine
 10
239.9595
 20
381.0268
 30
0.0
 11
238.1595
 21
381.0268
 31
0.0
  0
LINE
  5
268
100
AcDbEntity
  8
1
  6
CONTINUOUS
 62
     6
100
AcDbLine
 10
240.8589
 20
269.2964
 30
0.0
 11
237.2589
 21
269.2964
 31
0.0
  0
LINE
  5
269
100
AcDbEntity
  8
1
  6
CONTINUOUS
 62
     6
100
AcDbLine
 10
240.8589
 20
268.0964
 30
0.0
 11
237.2589
 21
268.0964
 31
0.0
  0
LINE
  5
26A
100
AcDbEntity
  8
1
  6
CONTINUOUS
 62
     6
100
AcDbLine
 10
239.9589
 20
269.8964
 30
0.0
 11
238.1589
 21
269.8964
 31
0.0
  0
LINE
  5
26B
100
AcDbEntity
  8
1
  6
CONTINUOUS
 62
     6
100
AcDbLine
 10
239.9589
 20
268.6964
 30
0.0
 11
238.1589
 21
268.6964
 31
0.0
  0
LINE
  5
26C
100
AcDbEntity
  8
1
  6
CONTINUOUS
 62
     6
100
AcDbLine
 10
224.3595
 20
387.9268
 30
0.0
 11
224.3595
 21
388.8268
 31
0.0
  0
LINE
  5
26D
100
AcDbEntity
  8
1
  6
CONTINUOUS
 62
     6
100
AcDbLine
 10
227.0595
 20
387.9268
 30
0.0
 11
227.0595
 21
388.8268
 31
0.0
  0
LINE
  5
26E
100
AcDbEntity
  8
1
  6
CONTINUOUS
 62
     6
100
AcDbLine
 10
234.2174
 20
278.3072
 30
0.0
 11
229.4174
 21
278.3072
 31
0.0
  0
LINE
  5
26F
100
AcDbEntity
  8
1
  6
CONTINUOUS
 62
     6
100
AcDbLine
 10
234.2174
 20
274.7072
 30
0.0
 11
229.4174
 21
274.7072
 31
0.0
  0
LINE
  5
270
100
AcDbEntity
  8
1
  6
CONTINUOUS
 62
     6
100
AcDbLine
 10
233.0174
 20
278.3072
 30
0.0
 11
233.0174
 21
274.7072
 31
0.0
  0
LINE
  5
271
100
AcDbEntity
  8
1
  6
CONTINUOUS
 62
     6
100
AcDbLine
 10
230.6174
 20
278.3072
 30
0.0
 11
230.6174
 21
274.7072
 31
0.0
  0
LINE
  5
272
100
AcDbEntity
  8
1
  6
CONTINUOUS
 62
     6
100
AcDbLine
 10
233.6174
 20
277.7072
 30
0.0
 11
233.6174
 21
275.3072
 31
0.0
  0
LINE
  5
273
100
AcDbEntity
  8
1
  6
CONTINUOUS
 62
     6
100
AcDbLine
 10
230.0174
 20
277.7072
 30
0.0
 11
230.0174
 21
275.3072
 31
0.0
  0
LINE
  5
274
100
AcDbEntity
  8
1
  6
CONTINUOUS
 62
     6
100
AcDbLine
 10
229.4595
 20
278.8964
 30
0.0
 11
229.4595
 21
274.0964
 31
0.0
  0
LINE
  5
275
100
AcDbEntity
  8
1
  6
CONTINUOUS
 62
     6
100
AcDbLine
 10
223.9095
 20
381.3268
 30
0.0
 11
223.9095
 21
387.9268
 31
0.0
  0
LINE
  5
276
100
AcDbEntity
  8
1
  6
CONTINUOUS
 62
     6
100
AcDbLine
 10
227.5095
 20
381.3268
 30
0.0
 11
227.5095
 21
387.9268
 31
0.0
  0
LINE
  5
277
100
AcDbEntity
  8
1
  6
CONTINUOUS
 62
     6
100
AcDbLine
 10
223.3095
 20
282.0268
 30
0.0
 11
228.1095
 21
282.0268
 31
0.0
  0
ARC
  5
278
100
AcDbEntity
  8
1
  6
CONTINUOUS
 62
     6
100
AcDbCircle
 10
229.411085
 20
280.408707
 30
0.0
 40
6.312493
210
0.0
220
0.0
230
1.0
100
AcDbArc
 50
165.147483
 51
270.439444
  0
ARC
  5
279
100
AcDbEntity
  8
1
  6
CONTINUOUS
 62
     6
100
AcDbCircle
 10
231.301561
 20
281.547095
 30
0.0
 40
3.227905
210
0.0
220
0.0
230
1.0
100
AcDbArc
 50
171.4535
 51
235.203203
  0
LINE
  5
27A
100
AcDbEntity
  8
1
  6
CONTINUOUS
 62
     6
100
AcDbLine
 10
223.9095
 20
283.2268
 30
0.0
 11
227.5095
 21
283.2268
 31
0.0
  0
LINE
  5
27B
100
AcDbEntity
  8
1
  6
CONTINUOUS
 62
     6
100
AcDbLine
 10
223.9095
 20
284.4268
 30
0.0
 11
227.5095
 21
284.4268
 31
0.0
  0
LINE
  5
27C
100
AcDbEntity
  8
1
  6
CONTINUOUS
 62
     6
100
AcDbLine
 10
224.8095
 20
283.8268
 30
0.0
 11
226.6095
 21
283.8268
 31
0.0
  0
LINE
  5
27D
100
AcDbEntity
  8
1
  6
CONTINUOUS
 62
     6
100
AcDbLine
 10
224.8095
 20
282.6268
 30
0.0
 11
226.6095
 21
282.6268
 31
0.0
  0
LINE
  5
27E
100
AcDbEntity
  8
1
  6
CONTINUOUS
 62
     6
100
AcDbLine
 10
223.9095
 20
367.5268
 30
0.0
 11
223.9095
 21
340.5268
 31
0.0
  0
LINE
  5
27F
100
AcDbEntity
  8
1
  6
CONTINUOUS
 62
     6
100
AcDbLine
 10
227.5095
 20
367.5268
 30
0.0
 11
227.5095
 21
340.5268
 31
0.0
  0
LINE
  5
280
100
AcDbEntity
  8
1
  6
CONTINUOUS
 62
     6
100
AcDbLine
 10
223.9095
 20
282.0268
 30
0.0
 11
223.9095
 21
326.7268
 31
0.0
  0
LINE
  5
281
100
AcDbEntity
  8
1
  6
CONTINUOUS
 62
     6
100
AcDbLine
 10
227.5095
 20
282.0268
 30
0.0
 11
227.5095
 21
326.7268
 31
0.0
  0
LINE
  5
282
100
AcDbEntity
  8
1
  6
CONTINUOUS
 62
     6
100
AcDbLine
 10
223.9095
 20
366.3268
 30
0.0
 11
227.5095
 21
366.3268
 31
0.0
  0
LINE
  5
283
100
AcDbEntity
  8
1
  6
CONTINUOUS
 62
     6
100
AcDbLine
 10
223.9095
 20
365.1268
 30
0.0
 11
227.5095
 21
365.1268
 31
0.0
  0
LINE
  5
284
100
AcDbEntity
  8
1
  6
CONTINUOUS
 62
     6
100
AcDbLine
 10
224.8095
 20
366.9268
 30
0.0
 11
226.6095
 21
366.9268
 31
0.0
  0
LINE
  5
285
100
AcDbEntity
  8
1
  6
CONTINUOUS
 62
     6
100
AcDbLine
 10
224.8095
 20
365.7268
 30
0.0
 11
226.6095
 21
365.7268
 31
0.0
  0
LINE
  5
286
100
AcDbEntity
  8
1
  6
CONTINUOUS
 62
     6
100
AcDbLine
 10
223.9095
 20
341.7268
 30
0.0
 11
227.5095
 21
341.7268
 31
0.0
  0
LINE
  5
287
100
AcDbEntity
  8
1
  6
CONTINUOUS
 62
     6
100
AcDbLine
 10
223.9095
 20
342.9268
 30
0.0
 11
227.5095
 21
342.9268
 31
0.0
  0
LINE
  5
288
100
AcDbEntity
  8
1
  6
CONTINUOUS
 62
     6
100
AcDbLine
 10
224.8095
 20
342.3268
 30
0.0
 11
226.6095
 21
342.3268
 31
0.0
  0
LINE
  5
289
100
AcDbEntity
  8
1
  6
CONTINUOUS
 62
     6
100
AcDbLine
 10
224.8095
 20
341.1268
 30
0.0
 11
226.6095
 21
341.1268
 31
0.0
  0
LINE
  5
28A
100
AcDbEntity
  8
1
  6
CONTINUOUS
 62
     6
100
AcDbLine
 10
223.4595
 20
326.7268
 30
0.0
 11
227.9595
 21
326.7268
 31
0.0
  0
LINE
  5
28B
100
AcDbEntity
  8
1
  6
CONTINUOUS
 62
     6
100
AcDbLine
 10
227.9595
 20
340.5268
 30
0.0
 11
227.9595
 21
339.3268
 31
0.0
  0
LINE
  5
28C
100
AcDbEntity
  8
1
  6
CONTINUOUS
 62
     6
100
AcDbLine
 10
227.9595
 20
326.7268
 30
0.0
 11
227.9595
 21
327.9268
 31
0.0
  0
LINE
  5
28D
100
AcDbEntity
  8
1
  6
CONTINUOUS
 62
     6
100
AcDbLine
 10
227.9595
 20
339.3268
 30
0.0
 11
228.2595
 21
337.5268
 31
0.0
  0
LINE
  5
28E
100
AcDbEntity
  8
1
  6
CONTINUOUS
 62
     6
100
AcDbLine
 10
228.2595
 20
329.7268
 30
0.0
 11
227.9595
 21
327.9268
 31
0.0
  0
LINE
  5
28F
100
AcDbEntity
  8
1
  6
CONTINUOUS
 62
     6
100
AcDbLine
 10
228.2595
 20
337.5268
 30
0.0
 11
228.5595
 21
337.2268
 31
0.0
  0
LINE
  5
290
100
AcDbEntity
  8
1
  6
CONTINUOUS
 62
     6
100
AcDbLine
 10
228.2595
 20
329.7268
 30
0.0
 11
228.5595
 21
330.0268
 31
0.0
  0
LINE
  5
291
100
AcDbEntity
  8
1
  6
CONTINUOUS
 62
     6
100
AcDbLine
 10
227.9595
 20
339.3268
 30
0.0
 11
227.0349
 21
338.3021
 31
0.0
  0
LINE
  5
292
100
AcDbEntity
  8
1
  6
CONTINUOUS
 62
     6
100
AcDbLine
 10
227.9595
 20
327.9268
 30
0.0
 11
227.0349
 21
328.9515
 31
0.0
  0
LINE
  5
293
100
AcDbEntity
  8
1
  6
CONTINUOUS
 62
     6
100
AcDbLine
 10
223.4595
 20
340.5268
 30
0.0
 11
227.9595
 21
340.5268
 31
0.0
  0
LINE
  5
294
100
AcDbEntity
  8
1
  6
CONTINUOUS
 62
     6
100
AcDbLine
 10
223.9095
 20
325.5268
 30
0.0
 11
227.5095
 21
325.5268
 31
0.0
  0
LINE
  5
295
100
AcDbEntity
  8
1
  6
CONTINUOUS
 62
     6
100
AcDbLine
 10
223.9095
 20
324.3268
 30
0.0
 11
227.5095
 21
324.3268
 31
0.0
  0
LINE
  5
296
100
AcDbEntity
  8
1
  6
CONTINUOUS
 62
     6
100
AcDbLine
 10
224.8095
 20
326.1268
 30
0.0
 11
226.6095
 21
326.1268
 31
0.0
  0
LINE
  5
297
100
AcDbEntity
  8
1
  6
CONTINUOUS
 62
     6
100
AcDbLine
 10
224.8095
 20
324.9268
 30
0.0
 11
226.6095
 21
324.9268
 31
0.0
  0
LINE
  5
298
100
AcDbEntity
  8
1
  6
CONTINUOUS
 62
     6
100
AcDbLine
 10
226.7595
 20
336.0268
 30
0.0
 11
230.3595
 21
336.0268
 31
0.0
  0
LINE
  5
299
100
AcDbEntity
  8
1
  6
CONTINUOUS
 62
     6
100
AcDbLine
 10
226.7595
 20
331.2268
 30
0.0
 11
230.3595
 21
331.2268
 31
0.0
  0
LINE
  5
29A
100
AcDbEntity
  8
1
  6
CONTINUOUS
 62
     6
100
AcDbLine
 10
228.2595
 20
329.7268
 30
0.0
 11
228.2595
 21
331.2268
 31
0.0
  0
LINE
  5
29B
100
AcDbEntity
  8
1
  6
CONTINUOUS
 62
     6
100
AcDbLine
 10
228.2595
 20
336.0268
 30
0.0
 11
228.2595
 21
337.5268
 31
0.0
  0
LINE
  5
29C
100
AcDbEntity
  8
1
  6
CONTINUOUS
 62
     6
100
AcDbLine
 10
228.5595
 20
336.0268
 30
0.0
 11
228.5595
 21
337.2268
 31
0.0
  0
LINE
  5
29D
100
AcDbEntity
  8
1
  6
CONTINUOUS
 62
     6
100
AcDbLine
 10
228.5595
 20
330.0268
 30
0.0
 11
228.5595
 21
331.2268
 31
0.0
  0
LINE
  5
29E
100
AcDbEntity
  8
1
  6
CONTINUOUS
 62
     6
100
AcDbLine
 10
228.5595
 20
331.5268
 30
0.0
 11
228.5595
 21
335.7268
 31
0.0
  0
LINE
  5
29F
100
AcDbEntity
  8
1
  6
CONTINUOUS
 62
     6
100
AcDbLine
 10
229.7595
 20
331.5268
 30
0.0
 11
229.7595
 21
332.7268
 31
0.0
  0
LINE
  5
2A0
100
AcDbEntity
  8
1
  6
CONTINUOUS
 62
     6
100
AcDbLine
 10
228.5595
 20
331.5268
 30
0.0
 11
229.7595
 21
331.5268
 31
0.0
  0
LINE
  5
2A1
100
AcDbEntity
  8
1
  6
CONTINUOUS
 62
     6
100
AcDbLine
 10
228.5595
 20
335.7268
 30
0.0
 11
229.4595
 21
335.7268
 31
0.0
  0
LINE
  5
2A2
100
AcDbEntity
  8
1
  6
CONTINUOUS
 62
     6
100
AcDbLine
 10
229.4595
 20
332.7268
 30
0.0
 11
229.4595
 21
335.7268
 31
0.0
  0
LINE
  5
2A3
100
AcDbEntity
  8
1
  6
CONTINUOUS
 62
     6
100
AcDbLine
 10
229.4595
 20
332.7268
 30
0.0
 11
229.7595
 21
332.7268
 31
0.0
  0
LINE
  5
2A4
100
AcDbEntity
  8
1
  6
CONTINUOUS
 62
     6
100
AcDbLine
 10
221.0595
 20
335.7268
 30
0.0
 11
221.0595
 21
331.5268
 31
0.0
  0
CIRCLE
  5
2A5
100
AcDbEntity
  8
1
  6
CONTINUOUS
 62
     6
100
AcDbCircle
 10
225.4454
 20
333.6295
 30
0.0
 40
2.1
210
0.0
220
0.0
230
1.0
  0
LINE
  5
2A6
100
AcDbEntity
  8
1
  6
CONTINUOUS
 62
     6
100
AcDbLine
 10
226.7595
 20
331.2268
 30
0.0
 11
226.7595
 21
331.9915
 31
0.0
  0
LINE
  5
2A7
100
AcDbEntity
  8
1
  6
CONTINUOUS
 62
     6
100
AcDbLine
 10
226.7595
 20
335.2675
 30
0.0
 11
226.7595
 21
336.0268
 31
0.0
  0
LINE
  5
2A8
100
AcDbEntity
  8
1
  6
CONTINUOUS
 62
     6
100
AcDbLine
 10
224.0595
 20
335.7268
 30
0.0
 11
224.0595
 21
335.2072
 31
0.0
  0
LINE
  5
2A9
100
AcDbEntity
  8
1
  6
CONTINUOUS
 62
     6
100
AcDbLine
 10
224.0595
 20
331.5268
 30
0.0
 11
224.0595
 21
332.0518
 31
0.0
  0
LINE
  5
2AA
100
AcDbEntity
  8
1
  6
CONTINUOUS
 62
     6
100
AcDbLine
 10
223.4595
 20
340.5268
 30
0.0
 11
223.4595
 21
335.7268
 31
0.0
  0
LINE
  5
2AB
100
AcDbEntity
  8
1
  6
CONTINUOUS
 62
     6
100
AcDbLine
 10
223.4595
 20
331.5268
 30
0.0
 11
223.4595
 21
326.7268
 31
0.0
  0
LINE
  5
2AC
100
AcDbEntity
  8
1
  6
CONTINUOUS
 62
     6
100
AcDbLine
 10
220.1595
 20
334.8268
 30
0.0
 11
220.1595
 21
332.4268
 31
0.0
  0
LINE
  5
2AD
100
AcDbEntity
  8
1
  6
CONTINUOUS
 62
     6
100
AcDbLine
 10
220.1595
 20
334.8268
 30
0.0
 11
221.0595
 21
334.8268
 31
0.0
  0
LINE
  5
2AE
100
AcDbEntity
  8
1
  6
CONTINUOUS
 62
     6
100
AcDbLine
 10
220.1595
 20
332.4268
 30
0.0
 11
221.0595
 21
332.4268
 31
0.0
  0
LINE
  5
2AF
100
AcDbEntity
  8
1
  6
CONTINUOUS
 62
     6
100
AcDbLine
 10
220.1595
 20
334.2268
 30
0.0
 11
221.0595
 21
334.2268
 31
0.0
  0
LINE
  5
2B0
100
AcDbEntity
  8
1
  6
CONTINUOUS
 62
     6
100
AcDbLine
 10
220.1595
 20
333.0268
 30
0.0
 11
221.0595
 21
333.0268
 31
0.0
  0
CIRCLE
  5
2B1
100
AcDbEntity
  8
1
  6
HIDDEN
 62
     6
100
AcDbCircle
 10
225.4454
 20
333.6295
 30
0.0
 40
1.5
210
0.0
220
0.0
230
1.0
  0
LINE
  5
2B2
100
AcDbEntity
  8
1
  6
CONTINUOUS
 62
     6
100
AcDbLine
 10
272.0597
 20
436.8267
 30
0.0
 11
272.0593
 21
341.4266
 31
0.0
  0
LINE
  5
2B3
100
AcDbEntity
  8
1
  6
CONTINUOUS
 62
     6
100
AcDbLine
 10
272.0591
 20
331.8267
 30
0.0
 11
272.0587
 21
236.4266
 31
0.0
  0
LINE
  5
2B4
100
AcDbEntity
  8
1
  6
CONTINUOUS
 62
     6
100
AcDbLine
 10
229.4595
 20
335.7268
 30
0.0
 11
272.0593
 21
341.4266
 31
0.0
  0
LINE
  5
2B5
100
AcDbEntity
  8
1
  6
CONTINUOUS
 62
     6
100
AcDbLine
 10
229.7595
 20
332.7268
 30
0.0
 11
243.2594
 21
332.4395
 31
0.0
  0
LINE
  5
2B6
100
AcDbEntity
  8
1
  6
HIDDEN
 62
     6
100
AcDbLine
 10
243.2594
 20
332.4395
 30
0.0
 11
272.0591
 21
331.8267
 31
0.0
  0
LINE
  5
2B7
100
AcDbEntity
  8
1
  6
CONTINUOUS
 62
     6
100
AcDbLine
 10
230.3595
 20
335.8472
 30
0.0
 11
230.3595
 21
336.0268
 31
0.0
  0
LINE
  5
2B8
100
AcDbEntity
  8
1
  6
CONTINUOUS
 62
     6
100
AcDbLine
 10
230.3595
 20
331.2268
 30
0.0
 11
230.3595
 21
332.714
 31
0.0
  0
LINE
  5
2B9
100
AcDbEntity
  8
1
  6
HIDDEN
 62
     6
100
AcDbLine
 10
230.3595
 20
332.714
 30
0.0
 11
230.3595
 21
335.8472
 31
0.0
  0
LINE
  5
2BA
100
AcDbEntity
  8
1
  6
CONTINUOUS
 62
     6
100
AcDbLine
 10
272.0593
 20
341.4266
 30
0.0
 11
272.0591
 21
331.8267
 31
0.0
  0
LINE
  5
2BB
100
AcDbEntity
  8
1
  6
CONTINUOUS
 62
     6
100
AcDbLine
 10
272.6591
 20
339.0265
 30
0.0
 11
272.659
 21
334.2265
 31
0.0
  0
LINE
  5
2BC
100
AcDbEntity
  8
1
  6
CONTINUOUS
 62
     6
100
AcDbLine
 10
272.6591
 20
339.0265
 30
0.0
 11
272.0592
 21
339.0265
 31
0.0
  0
LINE
  5
2BD
100
AcDbEntity
  8
1
  6
CONTINUOUS
 62
     6
100
AcDbLine
 10
272.659
 20
334.2265
 30
0.0
 11
272.0591
 21
334.2265
 31
0.0
  0
LINE
  5
2BE
100
AcDbEntity
  8
1
  6
HIDDEN
 62
     6
100
AcDbLine
 10
230.3528
 20
335.7807
 30
0.0
 11
243.2594
 21
335.2997
 31
0.0
  0
LINE
  5
2BF
100
AcDbEntity
  8
1
  6
CONTINUOUS
 62
     6
100
AcDbLine
 10
243.2594
 20
335.2997
 30
0.0
 11
272.0591
 21
334.2265
 31
0.0
  0
LINE
  5
2C0
100
AcDbEntity
  8
1
  6
CONTINUOUS
 62
     6
100
AcDbLine
 10
229.7595
 20
332.7268
 30
0.0
 11
229.8551
 21
332.2955
 31
0.0
  0
LINE
  5
2C1
100
AcDbEntity
  8
1
  6
CONTINUOUS
 62
     6
100
AcDbLine
 10
229.7595
 20
332.7268
 30
0.0
 11
272.0592
 21
338.9384
 31
0.0
  0
LINE
  5
2C2
100
AcDbEntity
  8
1
  6
HIDDEN
 62
     6
100
AcDbLine
 10
243.2521
 20
336.5275
 30
0.0
 11
272.0593
 21
341.4266
 31
0.0
  0
LINE
  5
2C3
100
AcDbEntity
  8
1
  6
HIDDEN
 62
     6
100
AcDbLine
 10
243.2521
 20
336.5275
 30
0.0
 11
272.0591
 21
334.2265
 31
0.0
  0
LINE
  5
2C4
100
AcDbEntity
  8
1
  6
HIDDEN
 62
     6
100
AcDbLine
 10
243.2521
 20
333.6647
 30
0.0
 11
272.0592
 21
338.9384
 31
0.0
  0
LINE
  5
2C5
100
AcDbEntity
  8
1
  6
CONTINUOUS
 62
     6
100
AcDbLine
 10
243.2521
 20
333.6647
 30
0.0
 11
272.0591
 21
331.8267
 31
0.0
  0
LINE
  5
2C6
100
AcDbEntity
  8
1
  6
CONTINUOUS
 62
     6
100
AcDbLine
 10
221.3595
 20
383.7268
 30
0.0
 11
221.3595
 21
286.5949
 31
0.0
  0
LINE
  5
2C7
100
AcDbEntity
  8
1
  6
CONTINUOUS
 62
     6
100
AcDbLine
 10
221.9595
 20
383.7268
 30
0.0
 11
221.9595
 21
286.5949
 31
0.0
  0
LINE
  5
2C8
100
AcDbEntity
  8
1
  6
CONTINUOUS
 62
     6
100
AcDbLine
 10
221.0595
 20
335.7268
 30
0.0
 11
221.3595
 21
335.7268
 31
0.0
  0
LINE
  5
2C9
100
AcDbEntity
  8
1
  6
CONTINUOUS
 62
     6
100
AcDbLine
 10
221.9595
 20
335.7268
 30
0.0
 11
224.0595
 21
335.7268
 31
0.0
  0
LINE
  5
2CA
100
AcDbEntity
  8
1
  6
CONTINUOUS
 62
     6
100
AcDbLine
 10
221.0595
 20
331.5268
 30
0.0
 11
221.3595
 21
331.5268
 31
0.0
  0
LINE
  5
2CB
100
AcDbEntity
  8
1
  6
CONTINUOUS
 62
     6
100
AcDbLine
 10
221.9595
 20
331.5268
 30
0.0
 11
224.0595
 21
331.5268
 31
0.0
  0
LINE
  5
2CC
100
AcDbEntity
  8
1
  6
CONTINUOUS
 62
     6
100
AcDbLine
 10
221.3595
 20
383.7268
 30
0.0
 11
221.9595
 21
383.7268
 31
0.0
  0
LINE
  5
2CD
100
AcDbEntity
  8
1
  6
CONTINUOUS
 62
     6
100
AcDbLine
 10
221.3595
 20
286.5949
 30
0.0
 11
221.9595
 21
286.5949
 31
0.0
  0
LINE
  5
2CE
100
AcDbEntity
  8
1
  6
CONTINUOUS
 62
     7
100
AcDbLine
 10
237.2598
 20
430.8432
 30
0.0
 11
223.9976
 21
443.5067
 31
0.0
  0
LINE
  5
2CF
100
AcDbEntity
  8
1
  6
CONTINUOUS
 62
     7
100
AcDbLine
 10
223.9976
 20
443.5067
 30
0.0
 11
218.574
 21
443.5067
 31
0.0
  0
INSERT
  5
2D0
100
AcDbEntity
  8
1
  6
CONTINUOUS
 62
     1
100
AcDbBlockReference
  2
LDR
 10
237.2598
 20
430.8432
 30
0.0
 41
240.0
 42
240.0
 50
316.322891
210
0.0
220
0.0
230
1.0
  0
LINE
  5
2D1
100
AcDbEntity
  8
1
  6
CONTINUOUS
 62
     7
100
AcDbLine
 10
247.2026
 20
376.5324
 30
0.0
 11
280.8897
 21
398.0876
 31
0.0
  0
LINE
  5
2D2
100
AcDbEntity
  8
1
  6
CONTINUOUS
 62
     7
100
AcDbLine
 10
280.8897
 20
398.0876
 30
0.0
 11
286.5641
 21
398.0876
 31
0.0
  0
INSERT
  5
2D3
100
AcDbEntity
  8
1
  6
CONTINUOUS
 62
     1
100
AcDbBlockReference
  2
LDR
 10
247.2026
 20
376.5324
 30
0.0
 41
239.999998
 42
239.999998
 50
212.61376
210
0.0
220
0.0
230
1.0
  0
INSERT
  5
2D4
100
AcDbEntity
  8
1
  6
CONTINUOUS
 62
     1
100
AcDbBlockReference
  2
LDR
 10
247.2026
 20
376.5324
 30
0.0
 41
239.999998
 42
239.999998
 50
212.61376
210
0.0
220
0.0
230
1.0
  0
LINE
  5
2D5
100
AcDbEntity
  8
1
  6
CONTINUOUS
 62
     7
100
AcDbLine
 10
272.1737
 20
340.1911
 30
0.0
 11
285.8936
 21
353.5405
 31
0.0
  0
LINE
  5
2D6
100
AcDbEntity
  8
1
  6
CONTINUOUS
 62
     7
100
AcDbLine
 10
285.8936
 20
353.5405
 30
0.0
 11
290.6918
 21
353.5405
 31
0.0
  0
INSERT
  5
2D7
100
AcDbEntity
  8
1
  6
CONTINUOUS
 62
     1
100
AcDbBlockReference
  2
LDR
 10
272.1737
 20
340.1911
 30
0.0
 41
240.0
 42
240.0
 50
224.215836
210
0.0
220
0.0
230
1.0
  0
INSERT
  5
2D8
100
AcDbEntity
  8
1
  6
CONTINUOUS
 62
     1
100
AcDbBlockReference
  2
LDR
 10
272.1737
 20
340.1911
 30
0.0
 41
240.0
 42
240.0
 50
224.215836
210
0.0
220
0.0
230
1.0
  0
LINE
  5
2D9
100
AcDbEntity
  8
1
  6
CONTINUOUS
 62
     7
100
AcDbLine
 10
272.7735
 20
336.2913
 30
0.0
 11
284.3942
 21
341.5411
 31
0.0
  0
LINE
  5
2DA
100
AcDbEntity
  8
1
  6
CONTINUOUS
 62
     7
100
AcDbLine
 10
284.3942
 20
341.5411
 30
0.0
 11
290.3169
 21
341.5411
 31
0.0
  0
INSERT
  5
2DB
100
AcDbEntity
  8
1
  6
CONTINUOUS
 62
     1
100
AcDbBlockReference
  2
LDR
 10
272.7735
 20
336.2913
 30
0.0
 41
240.000001
 42
240.000001
 50
204.311683
210
0.0
220
0.0
230
1.0
  0
INSERT
  5
2DC
100
AcDbEntity
  8
1
  6
CONTINUOUS
 62
     1
100
AcDbBlockReference
  2
LDR
 10
272.7735
 20
336.2913
 30
0.0
 41
240.000001
 42
240.000001
 50
204.311683
210
0.0
220
0.0
230
1.0
  0
LINE
  5
2DD
100
AcDbEntity
  8
1
  6
CONTINUOUS
 62
     7
100
AcDbLine
 10
237.1487
 20
245.007
 30
0.0
 11
215.1511
 21
267.8193
 31
0.0
  0
LINE
  5
2DE
100
AcDbEntity
  8
1
  6
CONTINUOUS
 62
     7
100
AcDbLine
 10
215.1511
 20
267.8193
 30
0.0
 11
208.4913
 21
267.8193
 31
0.0
  0
INSERT
  5
2DF
100
AcDbEntity
  8
1
  6
CONTINUOUS
 62
     1
100
AcDbBlockReference
  2
LDR
 10
237.1487
 20
245.007
 30
0.0
 41
239.999999
 42
239.999999
 50
313.958406
210
0.0
220
0.0
230
1.0
  0
INSERT
  5
2E0
100
AcDbEntity
  8
1
  6
CONTINUOUS
 62
     1
100
AcDbBlockReference
  2
LDR
 10
237.1487
 20
245.007
 30
0.0
 41
239.999999
 42
239.999999
 50
313.958406
210
0.0
220
0.0
230
1.0
  0
LINE
  5
2E1
100
AcDbEntity
  8
1
  6
CONTINUOUS
 62
     7
100
AcDbLine
 10
223.37
 20
338.5495
 30
0.0
 11
209.8373
 21
359.9468
 31
0.0
  0
LINE
  5
2E2
100
AcDbEntity
  8
1
  6
CONTINUOUS
 62
     7
100
AcDbLine
 10
209.8373
 20
359.9468
 30
0.0
 11
204.5988
 21
359.9468
 31
0.0
  0
INSERT
  5
2E3
100
AcDbEntity
  8
1
  6
CONTINUOUS
 62
     1
100
AcDbBlockReference
  2
LDR
 10
223.37
 20
338.5495
 30
0.0
 41
240.000001
 42
240.000001
 50
302.311264
210
0.0
220
0.0
230
1.0
  0
TEXT
  5
2E4
100
AcDbEntity
  8
1
  6
CONTINUOUS
 62
     7
100
AcDbText
 10
177.3151
 20
358.3093
 30
0.0
 40
3.6
  1
CONDULET
  7
MONOTXT
210
0.0
220
0.0
230
1.0
100
AcDbText
  0
TEXT
  5
2E5
100
AcDbEntity
  8
1
  6
CONTINUOUS
 62
     7
100
AcDbText
 10
287.5414
 20
396.0822
 30
0.0
 40
3.6
  1
POLE PLATE
  7
MONOTXT
210
0.0
220
0.0
230
1.0
100
AcDbText
  0
TEXT
  5
2E6
100
AcDbEntity
  8
1
  6
CONTINUOUS
 62
     7
100
AcDbText
 10
291.7976
 20
351.7591
 30
0.0
 40
3.6
  1
BAND
  7
MONOTXT
210
0.0
220
0.0
230
1.0
100
AcDbText
  0
TEXT
  5
2E7
100
AcDbEntity
  8
1
  6
CONTINUOUS
 62
     7
100
AcDbText
 10
291.0337
 20
339.7503
 30
0.0
 40
3.6
  1
SEAL
  7
MONOTXT
210
0.0
220
0.0
230
1.0
100
AcDbText
  0
CIRCLE
  5
2E8
100
AcDbEntity
  8
1
  6
CONTINUOUS
 62
     6
100
AcDbCircle
 10
274.75
 20
167.6176
 30
0.0
 40
4.8
210
0.0
220
0.0
230
1.0
  0
LINE
  5
2E9
100
AcDbEntity
  8
1
  6
CONTINUOUS
 62
     6
100
AcDbLine
 10
270.0027
 20
166.9822
 30
0.0
 11
271.0453
 21
161.0695
 31
0.0
  0
LINE
  5
2EA
100
AcDbEntity
  8
1
  6
CONTINUOUS
 62
     6
100
AcDbLine
 10
270.9095
 20
164.7682
 30
0.0
 11
263.1095
 21
178.2782
 31
0.0
  0
LINE
  5
2EB
100
AcDbEntity
  8
1
  6
CONTINUOUS
 62
     6
100
AcDbLine
 10
264.1719
 20
179.6514
 30
0.0
 11
272.5719
 21
179.6514
 31
0.0
  0
ARC
  5
2EC
100
AcDbEntity
  8
1
  6
CONTINUOUS
 62
     6
100
AcDbCircle
 10
263.983838
 20
178.699325
 30
0.0
 40
0.970471
210
0.0
220
0.0
230
1.0
100
AcDbArc
 50
78.826289
 51
205.717811
  0
LINE
  5
2ED
100
AcDbEntity
  8
1
  6
CONTINUOUS
 62
     6
100
AcDbLine
 10
264.7719
 20
182.6514
 30
0.0
 11
271.9719
 21
182.6514
 31
0.0
  0
LINE
  5
2EE
100
AcDbEntity
  8
1
  6
CONTINUOUS
 62
     6
100
AcDbLine
 10
264.7719
 20
182.6514
 30
0.0
 11
264.7719
 21
179.3514
 31
0.0
  0
LINE
  5
2EF
100
AcDbEntity
  8
1
  6
CONTINUOUS
 62
     6
100
AcDbLine
 10
271.9719
 20
182.6514
 30
0.0
 11
271.9719
 21
179.3514
 31
0.0
  0
INSERT
  5
2F0
100
AcDbEntity
  8
1
  6
CONTINUOUS
 62
     1
100
AcDbBlockReference
  2
LDR
 10
271.0453
 20
161.0695
 30
0.0
 41
240.000002
 42
240.000002
 50
280.000296
210
0.0
220
0.0
230
1.0
  0
INSERT
  5
2F1
100
AcDbEntity
  8
1
  6
CONTINUOUS
 62
     1
100
AcDbBlockReference
  2
LDR
 10
271.0453
 20
161.0695
 30
0.0
 41
240.000002
 42
240.000002
 50
280.000296
210
0.0
220
0.0
230
1.0
  0
TEXT
  5
2F2
100
AcDbEntity
  8
1
  6
CONTINUOUS
 62
     7
100
AcDbText
 10
239.5157
 20
151.0928
 30
0.0
 40
3.0
  1
EACH SIDE OF BRACE BANDING
  7
MONOTXT
 11
239.5157
 21
154.0928
 31
0.0
210
0.0
220
0.0
230
1.0
100
AcDbText
 73
     3
  0
TEXT
  5
2F3
100
AcDbEntity
  8
1
  6
CONTINUOUS
 62
     7
100
AcDbText
 10
239.5157
 20
145.6928
 30
0.0
 40
3.0
  1
MAKES ONE COMPLETE LOOP
  7
MONOTXT
 11
239.5157
 21
148.6928
 31
0.0
210
0.0
220
0.0
230
1.0
100
AcDbText
 73
     3
  0
TEXT
  5
2F4
100
AcDbEntity
  8
1
  6
CONTINUOUS
 62
     7
100
AcDbText
 10
239.5157
 20
140.2928
 30
0.0
 40
3.0
  1
AROUND POLE SEAL ON BACK
  7
MONOTXT
 11
239.5157
 21
143.2928
 31
0.0
210
0.0
220
0.0
230
1.0
100
AcDbText
 73
     3
  0
TEXT
  5
2F5
100
AcDbEntity
  8
1
  6
CONTINUOUS
 62
     7
100
AcDbText
 10
239.5157
 20
134.8928
 30
0.0
 40
3.0
  1
OF POLE
  7
MONOTXT
 11
239.5157
 21
137.8928
 31
0.0
210
0.0
220
0.0
230
1.0
100
AcDbText
 73
     3
  0
TEXT
  5
2F6
100
AcDbEntity
  8
1
  6
CONTINUOUS
 62
     7
100
AcDbText
 10
259.9036
 20
124.1869
 30
0.0
 40
3.6
  1
DETAIL "A"
  7
MONOTXT
210
0.0
220
0.0
230
1.0
100
AcDbText
  0
LINE
  5
2F7
100
AcDbEntity
  8
1
  6
CONTINUOUS
 62
     7
100
AcDbLine
 10
258.2017
 20
121.7803
 30
0.0
 11
291.8524
 21
121.7803
 31
0.0
  0
TEXT
  5
2F8
100
AcDbEntity
  8
1
  6
CONTINUOUS
 62
     7
100
AcDbText
 10
129.221
 20
102.9942
 30
0.0
 40
4.8
  1
FLASHER AND SIGN MOUNTING DETAIL
  7
MONOTXT
 72
     4
 11
199.539
 21
105.3942
 31
0.0
210
0.0
220
0.0
230
1.0
100
AcDbText
  0
TEXT
  5
2F9
100
AcDbEntity
  8
1
  6
CONTINUOUS
 62
     7
100
AcDbText
 10
175.8226
 20
94.5942
 30
0.0
 40
4.8
  1
POST MOUNT
  7
MONOTXT
 72
     4
 11
199.5391
 21
96.9942
 31
0.0
210
0.0
220
0.0
230
1.0
100
AcDbText
  0
LINE
  5
2FA
100
AcDbEntity
  8
1
  6
CONTINUOUS
 62
     7
100
AcDbLine
 10
126.9328
 20
101.4652
 30
0.0
 11
271.5391
 21
101.4652
 31
0.0
  0
LINE
  5
2FB
100
AcDbEntity
  8
1
  6
CONTINUOUS
 62
     7
100
AcDbLine
 10
174.6021
 20
93.3371
 30
0.0
 11
224.712
 21
93.3371
 31
0.0
  0
LINE
  5
2FC
100
AcDbEntity
  8
1
  6
CONTINUOUS
 62
     4
100
AcDbLine
 10
337.0526
 20
345.616
 30
0.0
 11
337.0526
 21
212.416
 31
0.0
  0
LINE
  5
2FD
100
AcDbEntity
  8
1
  6
CONTINUOUS
 62
     4
100
AcDbLine
 10
345.4526
 20
339.616
 30
0.0
 11
345.4526
 21
218.416
 31
0.0
  0
LINE
  5
2FE
100
AcDbEntity
  8
1
  6
CONTINUOUS
 62
     4
100
AcDbLine
 10
346.6526
 20
337.816
 30
0.0
 11
346.6526
 21
220.216
 31
0.0
  0
LINE
  5
2FF
100
AcDbEntity
  8
1
  6
CONTINUOUS
 62
     4
100
AcDbLine
 10
345.4526
 20
337.816
 30
0.0
 11
357.4526
 21
337.816
 31
0.0
  0
LINE
  5
300
100
AcDbEntity
  8
1
  6
CONTINUOUS
 62
     4
100
AcDbLine
 10
345.4526
 20
220.216
 30
0.0
 11
357.4526
 21
220.216
 31
0.0
  0
ARC
  5
301
100
AcDbEntity
  8
1
  6
CONTINUOUS
 62
     4
100
AcDbCircle
 10
346.6526
 20
338.767598
 30
0.0
 40
1.469621
210
0.0
220
0.0
230
1.0
100
AcDbArc
 50
35.260367
 51
144.739631
  0
ARC
  5
302
100
AcDbEntity
  8
1
  6
CONTINUOUS
 62
     4
100
AcDbCircle
 10
349.0526
 20
340.464402
 30
0.0
 40
1.469621
210
0.0
220
0.0
230
1.0
100
AcDbArc
 50
215.260369
 51
324.739633
  0
ARC
  5
303
100
AcDbEntity
  8
1
  6
CONTINUOUS
 62
     4
100
AcDbCircle
 10
349.0526
 20
338.776798
 30
0.0
 40
1.469621
210
0.0
220
0.0
230
1.0
100
AcDbArc
 50
35.260367
 51
144.739631
  0
ARC
  5
304
100
AcDbEntity
  8
1
  6
CONTINUOUS
 62
     4
100
AcDbCircle
 10
349.0526
 20
219.264402
 30
0.0
 40
1.469621
210
0.0
220
0.0
230
1.0
100
AcDbArc
 50
215.260367
 51
324.739631
  0
ARC
  5
305
100
AcDbEntity
  8
1
  6
CONTINUOUS
 62
     4
100
AcDbCircle
 10
346.6526
 20
217.567598
 30
0.0
 40
1.469621
210
0.0
220
0.0
230
1.0
100
AcDbArc
 50
35.260369
 51
144.739633
  0
ARC
  5
306
100
AcDbEntity
  8
1
  6
CONTINUOUS
 62
     4
100
AcDbCircle
 10
346.6526
 20
219.255202
 30
0.0
 40
1.469621
210
0.0
220
0.0
230
1.0
100
AcDbArc
 50
215.260367
 51
324.739631
  0
LINE
  5
307
100
AcDbEntity
  8
1
  6
CONTINUOUS
 62
     4
100
AcDbLine
 10
345.4526
 20
335.416
 30
0.0
 11
344.2526
 21
335.416
 31
0.0
  0
LINE
  5
308
100
AcDbEntity
  8
1
  6
CONTINUOUS
 62
     4
100
AcDbLine
 10
344.2526
 20
335.416
 30
0.0
 11
344.2526
 21
331.216
 31
0.0
  0
LINE
  5
309
100
AcDbEntity
  8
1
  6
CONTINUOUS
 62
     4
100
AcDbLine
 10
344.2526
 20
331.216
 30
0.0
 11
337.0526
 21
329.2867
 31
0.0
  0
LINE
  5
30A
100
AcDbEntity
  8
1
  6
CONTINUOUS
 62
     4
100
AcDbLine
 10
345.4526
 20
330.2951
 30
0.0
 11
338.2117
 21
328.3548
 31
0.0
  0
LINE
  5
30B
100
AcDbEntity
  8
1
  6
CONTINUOUS
 62
     4
100
AcDbLine
 10
338.2117
 20
328.3548
 30
0.0
 11
338.2117
 21
324.1548
 31
0.0
  0
LINE
  5
30C
100
AcDbEntity
  8
1
  6
CONTINUOUS
 62
     4
100
AcDbLine
 10
338.2117
 20
324.1548
 30
0.0
 11
337.0117
 21
324.1548
 31
0.0
  0
LINE
  5
30D
100
AcDbEntity
  8
1
  6
CONTINUOUS
 62
     4
100
AcDbLine
 10
343.3526
 20
334.516
 30
0.0
 11
343.3526
 21
332.116
 31
0.0
  0
LINE
  5
30E
100
AcDbEntity
  8
1
  6
CONTINUOUS
 62
     4
100
AcDbLine
 10
339.1117
 20
327.4548
 30
0.0
 11
339.1117
 21
325.0548
 31
0.0
  0
LINE
  5
30F
100
AcDbEntity
  8
1
  6
CONTINUOUS
 62
     4
100
AcDbLine
 10
347.5526
 20
334.516
 30
0.0
 11
347.5526
 21
332.116
 31
0.0
  0
LINE
  5
310
100
AcDbEntity
  8
1
  6
CONTINUOUS
 62
     4
100
AcDbLine
 10
336.1335
 20
327.4548
 30
0.0
 11
336.1335
 21
325.0548
 31
0.0
  0
LINE
  5
311
100
AcDbEntity
  8
1
  6
CONTINUOUS
 62
     4
100
AcDbLine
 10
343.3526
 20
334.516
 30
0.0
 11
344.2526
 21
334.516
 31
0.0
  0
LINE
  5
312
100
AcDbEntity
  8
1
  6
CONTINUOUS
 62
     4
100
AcDbLine
 10
346.6526
 20
334.516
 30
0.0
 11
347.5526
 21
334.516
 31
0.0
  0
LINE
  5
313
100
AcDbEntity
  8
1
  6
CONTINUOUS
 62
     4
100
AcDbLine
 10
343.3526
 20
332.116
 30
0.0
 11
344.2526
 21
332.116
 31
0.0
  0
LINE
  5
314
100
AcDbEntity
  8
1
  6
CONTINUOUS
 62
     4
100
AcDbLine
 10
346.6526
 20
332.116
 30
0.0
 11
347.5526
 21
332.116
 31
0.0
  0
LINE
  5
315
100
AcDbEntity
  8
1
  6
CONTINUOUS
 62
     4
100
AcDbLine
 10
336.1335
 20
327.4548
 30
0.0
 11
337.0526
 21
327.4548
 31
0.0
  0
LINE
  5
316
100
AcDbEntity
  8
1
  6
CONTINUOUS
 62
     4
100
AcDbLine
 10
338.2117
 20
327.4548
 30
0.0
 11
339.1117
 21
327.4548
 31
0.0
  0
LINE
  5
317
100
AcDbEntity
  8
1
  6
CONTINUOUS
 62
     4
100
AcDbLine
 10
339.1117
 20
325.0548
 30
0.0
 11
338.2117
 21
325.0548
 31
0.0
  0
LINE
  5
318
100
AcDbEntity
  8
1
  6
CONTINUOUS
 62
     4
100
AcDbLine
 10
337.0526
 20
325.0548
 30
0.0
 11
336.1335
 21
325.0548
 31
0.0
  0
LINE
  5
319
100
AcDbEntity
  8
1
  6
CONTINUOUS
 62
     4
100
AcDbLine
 10
342.4526
 20
333.916
 30
0.0
 11
344.2526
 21
333.916
 31
0.0
  0
LINE
  5
31A
100
AcDbEntity
  8
1
  6
CONTINUOUS
 62
     4
100
AcDbLine
 10
342.4526
 20
332.716
 30
0.0
 11
344.2526
 21
332.716
 31
0.0
  0
LINE
  5
31B
100
AcDbEntity
  8
1
  6
HIDDEN
 62
     4
100
AcDbLine
 10
344.2526
 20
333.916
 30
0.0
 11
351.1526
 21
333.916
 31
0.0
  0
LINE
  5
31C
100
AcDbEntity
  8
1
  6
HIDDEN
 62
     4
100
AcDbLine
 10
344.2526
 20
332.716
 30
0.0
 11
351.1526
 21
332.716
 31
0.0
  0
ARC
  5
31D
100
AcDbEntity
  8
1
  6
CONTINUOUS
 62
     4
100
AcDbCircle
 10
342.470681
 20
333.316
 30
0.0
 40
0.600272
210
0.0
220
0.0
230
1.0
100
AcDbArc
 50
91.726089
 51
268.273914
  0
ARC
  5
31E
100
AcDbEntity
  8
1
  6
HIDDEN
 62
     4
100
AcDbCircle
 10
351.134519
 20
333.316
 30
0.0
 40
0.600272
210
0.0
220
0.0
230
1.0
100
AcDbArc
 50
271.726086
 51
88.273911
  0
LINE
  5
31F
100
AcDbEntity
  8
1
  6
CONTINUOUS
 62
     4
100
AcDbLine
 10
336.1335
 20
326.8548
 30
0.0
 11
337.0526
 21
326.8548
 31
0.0
  0
LINE
  5
320
100
AcDbEntity
  8
1
  6
CONTINUOUS
 62
     4
100
AcDbLine
 10
337.0526
 20
325.6548
 30
0.0
 11
336.1335
 21
325.6548
 31
0.0
  0
LINE
  5
321
100
AcDbEntity
  8
1
  6
CONTINUOUS
 62
     4
100
AcDbLine
 10
338.2117
 20
326.8548
 30
0.0
 11
340.3117
 21
326.8548
 31
0.0
  0
LINE
  5
322
100
AcDbEntity
  8
1
  6
CONTINUOUS
 62
     4
100
AcDbLine
 10
340.3117
 20
325.6548
 30
0.0
 11
338.2117
 21
325.6548
 31
0.0
  0
ARC
  5
323
100
AcDbEntity
  8
1
  6
CONTINUOUS
 62
     4
100
AcDbCircle
 10
340.293619
 20
326.2548
 30
0.0
 40
0.600272
210
0.0
220
0.0
230
1.0
100
AcDbArc
 50
271.726086
 51
88.273911
  0
LINE
  5
324
100
AcDbEntity
  8
1
  6
CONTINUOUS
 62
     4
100
AcDbLine
 10
339.7117
 20
326.8548
 30
0.0
 11
339.7117
 21
325.6548
 31
0.0
  0
LINE
  5
325
100
AcDbEntity
  8
1
  6
CONTINUOUS
 62
     4
100
AcDbLine
 10
340.3117
 20
326.8548
 30
0.0
 11
340.3117
 21
325.6548
 31
0.0
  0
LINE
  5
326
100
AcDbEntity
  8
1
  6
CONTINUOUS
 62
     4
100
AcDbLine
 10
340.0117
 20
326.5548
 30
0.0
 11
340.0117
 21
325.9548
 31
0.0
  0
LINE
  5
327
100
AcDbEntity
  8
1
  6
CONTINUOUS
 62
     4
100
AcDbLine
 10
339.4117
 20
326.5548
 30
0.0
 11
339.4117
 21
325.9548
 31
0.0
  0
LINE
  5
328
100
AcDbEntity
  8
1
  6
CONTINUOUS
 62
     4
100
AcDbLine
 10
344.2526
 20
226.969
 30
0.0
 11
337.0526
 21
228.8983
 31
0.0
  0
LINE
  5
329
100
AcDbEntity
  8
1
  6
CONTINUOUS
 62
     4
100
AcDbLine
 10
345.4526
 20
222.769
 30
0.0
 11
344.2526
 21
222.769
 31
0.0
  0
LINE
  5
32A
100
AcDbEntity
  8
1
  6
CONTINUOUS
 62
     4
100
AcDbLine
 10
344.2526
 20
222.769
 30
0.0
 11
344.2526
 21
226.969
 31
0.0
  0
LINE
  5
32B
100
AcDbEntity
  8
1
  6
CONTINUOUS
 62
     4
100
AcDbLine
 10
345.4526
 20
227.8899
 30
0.0
 11
338.2117
 21
229.8302
 31
0.0
  0
LINE
  5
32C
100
AcDbEntity
  8
1
  6
CONTINUOUS
 62
     4
100
AcDbLine
 10
338.2117
 20
229.8302
 30
0.0
 11
338.2117
 21
234.0302
 31
0.0
  0
LINE
  5
32D
100
AcDbEntity
  8
1
  6
CONTINUOUS
 62
     4
100
AcDbLine
 10
338.2117
 20
234.0302
 30
0.0
 11
337.0117
 21
234.0302
 31
0.0
  0
LINE
  5
32E
100
AcDbEntity
  8
1
  6
CONTINUOUS
 62
     4
100
AcDbLine
 10
343.3526
 20
223.669
 30
0.0
 11
343.3526
 21
226.069
 31
0.0
  0
LINE
  5
32F
100
AcDbEntity
  8
1
  6
CONTINUOUS
 62
     4
100
AcDbLine
 10
339.1117
 20
230.7302
 30
0.0
 11
339.1117
 21
233.1302
 31
0.0
  0
LINE
  5
330
100
AcDbEntity
  8
1
  6
CONTINUOUS
 62
     4
100
AcDbLine
 10
347.5526
 20
223.669
 30
0.0
 11
347.5526
 21
226.069
 31
0.0
  0
LINE
  5
331
100
AcDbEntity
  8
1
  6
CONTINUOUS
 62
     4
100
AcDbLine
 10
336.1335
 20
230.7302
 30
0.0
 11
336.1335
 21
233.1302
 31
0.0
  0
LINE
  5
332
100
AcDbEntity
  8
1
  6
CONTINUOUS
 62
     4
100
AcDbLine
 10
343.3526
 20
223.669
 30
0.0
 11
344.2526
 21
223.669
 31
0.0
  0
LINE
  5
333
100
AcDbEntity
  8
1
  6
CONTINUOUS
 62
     4
100
AcDbLine
 10
346.6526
 20
223.669
 30
0.0
 11
347.5526
 21
223.669
 31
0.0
  0
LINE
  5
334
100
AcDbEntity
  8
1
  6
CONTINUOUS
 62
     4
100
AcDbLine
 10
343.3526
 20
226.069
 30
0.0
 11
344.2526
 21
226.069
 31
0.0
  0
LINE
  5
335
100
AcDbEntity
  8
1
  6
CONTINUOUS
 62
     4
100
AcDbLine
 10
346.6526
 20
226.069
 30
0.0
 11
347.5526
 21
226.069
 31
0.0
  0
LINE
  5
336
100
AcDbEntity
  8
1
  6
CONTINUOUS
 62
     4
100
AcDbLine
 10
336.1335
 20
230.7302
 30
0.0
 11
337.0526
 21
230.7302
 31
0.0
  0
LINE
  5
337
100
AcDbEntity
  8
1
  6
CONTINUOUS
 62
     4
100
AcDbLine
 10
338.2117
 20
230.7302
 30
0.0
 11
339.1117
 21
230.7302
 31
0.0
  0
LINE
  5
338
100
AcDbEntity
  8
1
  6
CONTINUOUS
 62
     4
100
AcDbLine
 10
339.1117
 20
233.1302
 30
0.0
 11
338.2117
 21
233.1302
 31
0.0
  0
LINE
  5
339
100
AcDbEntity
  8
1
  6
CONTINUOUS
 62
     4
100
AcDbLine
 10
337.0526
 20
233.1302
 30
0.0
 11
336.1335
 21
233.1302
 31
0.0
  0
LINE
  5
33A
100
AcDbEntity
  8
1
  6
CONTINUOUS
 62
     4
100
AcDbLine
 10
342.4526
 20
224.269
 30
0.0
 11
344.2526
 21
224.269
 31
0.0
  0
LINE
  5
33B
100
AcDbEntity
  8
1
  6
CONTINUOUS
 62
     4
100
AcDbLine
 10
342.4526
 20
225.469
 30
0.0
 11
344.2526
 21
225.469
 31
0.0
  0
LINE
  5
33C
100
AcDbEntity
  8
1
  6
HIDDEN
 62
     4
100
AcDbLine
 10
344.2526
 20
224.269
 30
0.0
 11
351.1526
 21
224.269
 31
0.0
  0
LINE
  5
33D
100
AcDbEntity
  8
1
  6
HIDDEN
 62
     4
100
AcDbLine
 10
344.2526
 20
225.469
 30
0.0
 11
351.1526
 21
225.469
 31
0.0
  0
ARC
  5
33E
100
AcDbEntity
  8
1
  6
CONTINUOUS
 62
     4
100
AcDbCircle
 10
342.470681
 20
224.869
 30
0.0
 40
0.600272
210
0.0
220
0.0
230
1.0
100
AcDbArc
 50
91.726086
 51
268.273911
  0
ARC
  5
33F
100
AcDbEntity
  8
1
  6
HIDDEN
 62
     4
100
AcDbCircle
 10
351.134519
 20
224.869
 30
0.0
 40
0.600272
210
0.0
220
0.0
230
1.0
100
AcDbArc
 50
271.726089
 51
88.273914
  0
LINE
  5
340
100
AcDbEntity
  8
1
  6
CONTINUOUS
 62
     4
100
AcDbLine
 10
336.1335
 20
231.3302
 30
0.0
 11
337.0526
 21
231.3302
 31
0.0
  0
LINE
  5
341
100
AcDbEntity
  8
1
  6
CONTINUOUS
 62
     4
100
AcDbLine
 10
337.0526
 20
232.5302
 30
0.0
 11
336.1335
 21
232.5302
 31
0.0
  0
LINE
  5
342
100
AcDbEntity
  8
1
  6
CONTINUOUS
 62
     4
100
AcDbLine
 10
338.2117
 20
231.3302
 30
0.0
 11
340.3117
 21
231.3302
 31
0.0
  0
LINE
  5
343
100
AcDbEntity
  8
1
  6
CONTINUOUS
 62
     4
100
AcDbLine
 10
340.3117
 20
232.5302
 30
0.0
 11
338.2117
 21
232.5302
 31
0.0
  0
ARC
  5
344
100
AcDbEntity
  8
1
  6
CONTINUOUS
 62
     4
100
AcDbCircle
 10
340.293619
 20
231.9302
 30
0.0
 40
0.600272
210
0.0
220
0.0
230
1.0
100
AcDbArc
 50
271.726089
 51
88.273914
  0
LINE
  5
345
100
AcDbEntity
  8
1
  6
CONTINUOUS
 62
     4
100
AcDbLine
 10
339.7117
 20
231.3302
 30
0.0
 11
339.7117
 21
232.5302
 31
0.0
  0
LINE
  5
346
100
AcDbEntity
  8
1
  6
CONTINUOUS
 62
     4
100
AcDbLine
 10
340.3117
 20
231.3302
 30
0.0
 11
340.3117
 21
232.5302
 31
0.0
  0
LINE
  5
347
100
AcDbEntity
  8
1
  6
CONTINUOUS
 62
     4
100
AcDbLine
 10
340.0117
 20
231.6302
 30
0.0
 11
340.0117
 21
232.2302
 31
0.0
  0
LINE
  5
348
100
AcDbEntity
  8
1
  6
CONTINUOUS
 62
     4
100
AcDbLine
 10
339.4117
 20
231.6302
 30
0.0
 11
339.4117
 21
232.2302
 31
0.0
  0
LINE
  5
349
100
AcDbEntity
  8
1
  6
CONTINUOUS
 62
     4
100
AcDbLine
 10
352.3526
 20
293.416
 30
0.0
 11
346.6526
 21
293.416
 31
0.0
  0
LINE
  5
34A
100
AcDbEntity
  8
1
  6
CONTINUOUS
 62
     4
100
AcDbLine
 10
352.3526
 20
264.616
 30
0.0
 11
346.6526
 21
264.616
 31
0.0
  0
LINE
  5
34B
100
AcDbEntity
  8
1
  6
CONTINUOUS
 62
     4
100
AcDbLine
 10
347.8526
 20
291.616
 30
0.0
 11
360.0914
 21
287.8742
 31
0.0
  0
LINE
  5
34C
100
AcDbEntity
  8
1
  6
CONTINUOUS
 62
     4
100
AcDbLine
 10
347.8526
 20
292.8708
 30
0.0
 11
360.8266
 21
288.9042
 31
0.0
  0
LINE
  5
34D
100
AcDbEntity
  8
1
  6
CONTINUOUS
 62
     4
100
AcDbLine
 10
347.8526
 20
293.416
 30
0.0
 11
347.8526
 21
292.8708
 31
0.0
  0
LINE
  5
34E
100
AcDbEntity
  8
1
  6
HIDDEN
 62
     4
100
AcDbLine
 10
350.2526
 20
339.616
 30
0.0
 11
350.2526
 21
292.137
 31
0.0
  0
LINE
  5
34F
100
AcDbEntity
  8
1
  6
CONTINUOUS
 62
     4
100
AcDbLine
 10
352.3526
 20
293.416
 30
0.0
 11
352.3526
 21
291.495
 31
0.0
  0
LINE
  5
350
100
AcDbEntity
  8
1
  6
CONTINUOUS
 62
     4
100
AcDbLine
 10
347.8526
 20
266.4674
 30
0.0
 11
360.0914
 21
270.2092
 31
0.0
  0
LINE
  5
351
100
AcDbEntity
  8
1
  6
CONTINUOUS
 62
     4
100
AcDbLine
 10
347.8526
 20
265.2126
 30
0.0
 11
360.8266
 21
269.1792
 31
0.0
  0
LINE
  5
352
100
AcDbEntity
  8
1
  6
CONTINUOUS
 62
     4
100
AcDbLine
 10
347.8526
 20
291.616
 30
0.0
 11
347.8526
 21
266.4674
 31
0.0
  0
LINE
  5
353
100
AcDbEntity
  8
1
  6
CONTINUOUS
 62
     4
100
AcDbLine
 10
347.8526
 20
265.2126
 30
0.0
 11
347.8526
 21
264.616
 31
0.0
  0
LINE
  5
354
100
AcDbEntity
  8
1
  6
HIDDEN
 62
     4
100
AcDbLine
 10
350.2526
 20
290.8822
 30
0.0
 11
350.2526
 21
267.2012
 31
0.0
  0
LINE
  5
355
100
AcDbEntity
  8
1
  6
CONTINUOUS
 62
     4
100
AcDbLine
 10
352.3526
 20
290.2402
 30
0.0
 11
352.3526
 21
267.8432
 31
0.0
  0
LINE
  5
356
100
AcDbEntity
  8
1
  6
CONTINUOUS
 62
     4
100
AcDbLine
 10
352.3526
 20
266.5884
 30
0.0
 11
352.3526
 21
264.616
 31
0.0
  0
LINE
  5
357
100
AcDbEntity
  8
1
  6
HIDDEN
 62
     4
100
AcDbLine
 10
347.8526
 20
265.2126
 30
0.0
 11
350.8526
 21
265.2126
 31
0.0
  0
LINE
  5
358
100
AcDbEntity
  8
1
  6
HIDDEN
 62
     4
100
AcDbLine
 10
346.6526
 20
251.4126
 30
0.0
 11
350.8526
 21
251.4126
 31
0.0
  0
LINE
  5
359
100
AcDbEntity
  8
1
  6
HIDDEN
 62
     4
100
AcDbLine
 10
350.8526
 20
265.2126
 30
0.0
 11
350.8526
 21
251.4126
 31
0.0
  0
LINE
  5
35A
100
AcDbEntity
  8
1
  6
HIDDEN
 62
     4
100
AcDbLine
 10
350.2526
 20
265.9464
 30
0.0
 11
350.2526
 21
265.2126
 31
0.0
  0
LINE
  5
35B
100
AcDbEntity
  8
1
  6
HIDDEN
 62
     4
100
AcDbLine
 10
350.2526
 20
251.4126
 30
0.0
 11
350.2526
 21
218.416
 31
0.0
  0
CIRCLE
  5
35C
100
AcDbEntity
  8
1
  6
HIDDEN
 62
     4
100
AcDbCircle
 10
348.7427
 20
258.3063
 30
0.0
 40
2.071849
210
0.0
220
0.0
230
1.0
  0
CIRCLE
  5
35D
100
AcDbEntity
  8
1
  6
HIDDEN
 62
     4
100
AcDbCircle
 10
348.7496
 20
258.3136
 30
0.0
 40
1.8
210
0.0
220
0.0
230
1.0
  0
ARC
  5
35E
100
AcDbEntity
  8
1
  6
CONTINUOUS
 62
     4
100
AcDbCircle
 10
374.549216
 20
279.0417
 30
0.0
 40
16.899086
210
0.0
220
0.0
230
1.0
100
AcDbArc
 50
116.594019
 51
243.484492
  0
ARC
  5
35F
100
AcDbEntity
  8
1
  6
CONTINUOUS
 62
     4
100
AcDbCircle
 10
374.78095
 20
279.042219
 30
0.0
 40
16.209082
210
0.0
220
0.0
230
1.0
100
AcDbArc
 50
118.751869
 51
241.331556
  0
LINE
  5
360
100
AcDbEntity
  8
1
  6
CONTINUOUS
 62
     4
100
AcDbLine
 10
357.4526
 20
337.816
 30
0.0
 11
357.4526
 21
289.9357
 31
0.0
  0
LINE
  5
361
100
AcDbEntity
  8
1
  6
CONTINUOUS
 62
     4
100
AcDbLine
 10
357.4526
 20
288.681
 30
0.0
 11
357.4526
 21
269.4024
 31
0.0
  0
LINE
  5
362
100
AcDbEntity
  8
1
  6
CONTINUOUS
 62
     4
100
AcDbLine
 10
357.4526
 20
268.1477
 30
0.0
 11
357.4526
 21
220.216
 31
0.0
  0
LINE
  5
363
100
AcDbEntity
  8
1
  6
CONTINUOUS
 62
     4
100
AcDbLine
 10
363.4526
 20
296.5871
 30
0.0
 11
363.4526
 21
291.7871
 31
0.0
  0
LINE
  5
364
100
AcDbEntity
  8
1
  6
CONTINUOUS
 62
     4
100
AcDbLine
 10
364.3526
 20
296.5871
 30
0.0
 11
364.3526
 21
292.5179
 31
0.0
  0
ARC
  5
365
100
AcDbEntity
  8
1
  6
CONTINUOUS
 62
     4
100
AcDbCircle
 10
365.039951
 20
296.914502
 30
0.0
 40
1.620764
210
0.0
220
0.0
230
1.0
100
AcDbArc
 50
39.669258
 51
191.654219
  0
ARC
  5
366
100
AcDbEntity
  8
1
  6
CONTINUOUS
 62
     4
100
AcDbCircle
 10
366.508074
 20
295.041671
 30
0.0
 40
1.851028
210
0.0
220
0.0
230
1.0
100
AcDbArc
 50
284.902108
 51
26.983797
  0
LINE
  5
367
100
AcDbEntity
  8
1
  6
CONTINUOUS
 62
     4
100
AcDbLine
 10
366.2875
 20
297.9491
 30
0.0
 11
368.1576
 21
295.8816
 31
0.0
  0
LINE
  5
368
100
AcDbEntity
  8
1
  6
CONTINUOUS
 62
     4
100
AcDbLine
 10
365.62
 20
297.3453
 30
0.0
 11
367.4901
 21
295.2778
 31
0.0
  0
ARC
  5
369
100
AcDbEntity
  8
1
  6
CONTINUOUS
 62
     4
100
AcDbCircle
 10
365.057658
 20
296.846919
 30
0.0
 40
0.751407
210
0.0
220
0.0
230
1.0
100
AcDbArc
 50
41.549244
 51
200.229233
  0
ARC
  5
36A
100
AcDbEntity
  8
1
  6
CONTINUOUS
 62
     4
100
AcDbCircle
 10
366.867558
 20
294.881577
 30
0.0
 40
0.737938
210
0.0
220
0.0
230
1.0
100
AcDbArc
 50
279.086756
 51
32.475119
  0
ARC
  5
36B
100
AcDbEntity
  8
1
  6
CONTINUOUS
 62
     4
100
AcDbCircle
 10
365.057658
 20
261.191081
 30
0.0
 40
0.751407
210
0.0
220
0.0
230
1.0
100
AcDbArc
 50
159.770767
 51
318.450756
  0
LINE
  5
36C
100
AcDbEntity
  8
1
  6
CONTINUOUS
 62
     4
100
AcDbLine
 10
363.4526
 20
261.4509
 30
0.0
 11
363.4526
 21
266.2509
 31
0.0
  0
LINE
  5
36D
100
AcDbEntity
  8
1
  6
CONTINUOUS
 62
     4
100
AcDbLine
 10
364.3526
 20
261.4509
 30
0.0
 11
364.3526
 21
265.5201
 31
0.0
  0
ARC
  5
36E
100
AcDbEntity
  8
1
  6
CONTINUOUS
 62
     4
100
AcDbCircle
 10
365.039951
 20
261.123498
 30
0.0
 40
1.620764
210
0.0
220
0.0
230
1.0
100
AcDbArc
 50
168.345781
 51
320.330742
  0
ARC
  5
36F
100
AcDbEntity
  8
1
  6
CONTINUOUS
 62
     4
100
AcDbCircle
 10
366.508074
 20
262.996329
 30
0.0
 40
1.851028
210
0.0
220
0.0
230
1.0
100
AcDbArc
 50
333.016203
 51
75.097892
  0
LINE
  5
370
100
AcDbEntity
  8
1
  6
CONTINUOUS
 62
     4
100
AcDbLine
 10
366.2875
 20
260.0889
 30
0.0
 11
368.1576
 21
262.1564
 31
0.0
  0
LINE
  5
371
100
AcDbEntity
  8
1
  6
CONTINUOUS
 62
     4
100
AcDbLine
 10
365.62
 20
260.6927
 30
0.0
 11
367.4901
 21
262.7602
 31
0.0
  0
ARC
  5
372
100
AcDbEntity
  8
1
  6
CONTINUOUS
 62
     4
100
AcDbCircle
 10
366.867558
 20
263.156423
 30
0.0
 40
0.737938
210
0.0
220
0.0
230
1.0
100
AcDbArc
 50
327.524881
 51
80.913244
  0
ARC
  5
373
100
AcDbEntity
  8
1
  6
CONTINUOUS
 62
     4
100
AcDbCircle
 10
375.86245
 20
279.042219
 30
0.0
 40
16.209082
210
0.0
220
0.0
230
1.0
100
AcDbArc
 50
298.668444
 51
61.248131
  0
ARC
  5
374
100
AcDbEntity
  8
1
  6
CONTINUOUS
 62
     4
100
AcDbCircle
 10
376.094184
 20
279.0417
 30
0.0
 40
16.899086
210
0.0
220
0.0
230
1.0
100
AcDbArc
 50
296.515508
 51
63.405981
  0
LINE
  5
375
100
AcDbEntity
  8
1
  6
CONTINUOUS
 62
     4
100
AcDbLine
 10
387.1908
 20
296.5871
 30
0.0
 11
387.1908
 21
291.7871
 31
0.0
  0
LINE
  5
376
100
AcDbEntity
  8
1
  6
CONTINUOUS
 62
     4
100
AcDbLine
 10
386.2908
 20
296.5871
 30
0.0
 11
386.2908
 21
292.5179
 31
0.0
  0
ARC
  5
377
100
AcDbEntity
  8
1
  6
CONTINUOUS
 62
     4
100
AcDbCircle
 10
385.603449
 20
296.914502
 30
0.0
 40
1.620764
210
0.0
220
0.0
230
1.0
100
AcDbArc
 50
348.345781
 51
140.330742
  0
ARC
  5
378
100
AcDbEntity
  8
1
  6
CONTINUOUS
 62
     4
100
AcDbCircle
 10
384.135326
 20
295.041671
 30
0.0
 40
1.851028
210
0.0
220
0.0
230
1.0
100
AcDbArc
 50
153.016203
 51
255.097892
  0
LINE
  5
379
100
AcDbEntity
  8
1
  6
CONTINUOUS
 62
     4
100
AcDbLine
 10
384.3559
 20
297.9491
 30
0.0
 11
382.4858
 21
295.8816
 31
0.0
  0
LINE
  5
37A
100
AcDbEntity
  8
1
  6
CONTINUOUS
 62
     4
100
AcDbLine
 10
385.0234
 20
297.3453
 30
0.0
 11
383.1533
 21
295.2778
 31
0.0
  0
ARC
  5
37B
100
AcDbEntity
  8
1
  6
CONTINUOUS
 62
     4
100
AcDbCircle
 10
385.585742
 20
296.846919
 30
0.0
 40
0.751407
210
0.0
220
0.0
230
1.0
100
AcDbArc
 50
339.770767
 51
138.450756
  0
ARC
  5
37C
100
AcDbEntity
  8
1
  6
CONTINUOUS
 62
     4
100
AcDbCircle
 10
383.775842
 20
294.881577
 30
0.0
 40
0.737938
210
0.0
220
0.0
230
1.0
100
AcDbArc
 50
147.524881
 51
260.913244
  0
ARC
  5
37D
100
AcDbEntity
  8
1
  6
CONTINUOUS
 62
     4
100
AcDbCircle
 10
385.585742
 20
261.191081
 30
0.0
 40
0.751407
210
0.0
220
0.0
230
1.0
100
AcDbArc
 50
221.549244
 51
20.229233
  0
LINE
  5
37E
100
AcDbEntity
  8
1
  6
CONTINUOUS
 62
     4
100
AcDbLine
 10
387.1908
 20
261.4509
 30
0.0
 11
387.1908
 21
266.2509
 31
0.0
  0
LINE
  5
37F
100
AcDbEntity
  8
1
  6
CONTINUOUS
 62
     4
100
AcDbLine
 10
386.2908
 20
261.4509
 30
0.0
 11
386.2908
 21
265.5201
 31
0.0
  0
ARC
  5
380
100
AcDbEntity
  8
1
  6
CONTINUOUS
 62
     4
100
AcDbCircle
 10
385.603449
 20
261.123498
 30
0.0
 40
1.620764
210
0.0
220
0.0
230
1.0
100
AcDbArc
 50
219.669258
 51
11.654219
  0
ARC
  5
381
100
AcDbEntity
  8
1
  6
CONTINUOUS
 62
     4
100
AcDbCircle
 10
384.135326
 20
262.996329
 30
0.0
 40
1.851028
210
0.0
220
0.0
230
1.0
100
AcDbArc
 50
104.902108
 51
206.983797
  0
LINE
  5
382
100
AcDbEntity
  8
1
  6
CONTINUOUS
 62
     4
100
AcDbLine
 10
384.3559
 20
260.0889
 30
0.0
 11
382.4858
 21
262.1564
 31
0.0
  0
LINE
  5
383
100
AcDbEntity
  8
1
  6
CONTINUOUS
 62
     4
100
AcDbLine
 10
385.0234
 20
260.6927
 30
0.0
 11
383.1533
 21
262.7602
 31
0.0
  0
ARC
  5
384
100
AcDbEntity
  8
1
  6
CONTINUOUS
 62
     4
100
AcDbCircle
 10
383.775842
 20
263.156423
 30
0.0
 40
0.737938
210
0.0
220
0.0
230
1.0
100
AcDbArc
 50
99.086756
 51
212.475119
  0
LINE
  5
385
100
AcDbEntity
  8
1
  6
CONTINUOUS
 62
     4
100
AcDbLine
 10
362.2526
 20
296.5871
 30
0.0
 11
363.4526
 21
296.5871
 31
0.0
  0
LINE
  5
386
100
AcDbEntity
  8
1
  6
CONTINUOUS
 62
     4
100
AcDbLine
 10
387.1908
 20
296.5871
 30
0.0
 11
388.3908
 21
296.5871
 31
0.0
  0
LINE
  5
387
100
AcDbEntity
  8
1
  6
CONTINUOUS
 62
     4
100
AcDbLine
 10
362.2526
 20
292.9871
 30
0.0
 11
363.4526
 21
292.9871
 31
0.0
  0
LINE
  5
388
100
AcDbEntity
  8
1
  6
CONTINUOUS
 62
     4
100
AcDbLine
 10
387.1908
 20
292.9871
 30
0.0
 11
388.3908
 21
292.9871
 31
0.0
  0
LINE
  5
389
100
AcDbEntity
  8
1
  6
CONTINUOUS
 62
     4
100
AcDbLine
 10
362.2526
 20
296.5871
 30
0.0
 11
362.2526
 21
292.9871
 31
0.0
  0
LINE
  5
38A
100
AcDbEntity
  8
1
  6
CONTINUOUS
 62
     4
100
AcDbLine
 10
388.3908
 20
296.5871
 30
0.0
 11
388.3908
 21
292.9871
 31
0.0
  0
LINE
  5
38B
100
AcDbEntity
  8
1
  6
CONTINUOUS
 62
     4
100
AcDbLine
 10
387.1908
 20
295.6871
 30
0.0
 11
389.5908
 21
295.6871
 31
0.0
  0
LINE
  5
38C
100
AcDbEntity
  8
1
  6
CONTINUOUS
 62
     4
100
AcDbLine
 10
387.1908
 20
293.8871
 30
0.0
 11
389.5908
 21
293.8871
 31
0.0
  0
LINE
  5
38D
100
AcDbEntity
  8
1
  6
CONTINUOUS
 62
     4
100
AcDbLine
 10
362.2526
 20
292.9871
 30
0.0
 11
362.5526
 21
293.8871
 31
0.0
  0
LINE
  5
38E
100
AcDbEntity
  8
1
  6
CONTINUOUS
 62
     4
100
AcDbLine
 10
362.2526
 20
296.5871
 30
0.0
 11
362.5526
 21
295.6871
 31
0.0
  0
LINE
  5
38F
100
AcDbEntity
  8
1
  6
CONTINUOUS
 62
     4
100
AcDbLine
 10
362.2526
 20
294.7871
 30
0.0
 11
362.5526
 21
295.6871
 31
0.0
  0
LINE
  5
390
100
AcDbEntity
  8
1
  6
CONTINUOUS
 62
     4
100
AcDbLine
 10
362.2526
 20
294.7871
 30
0.0
 11
362.5526
 21
293.8871
 31
0.0
  0
LINE
  5
391
100
AcDbEntity
  8
1
  6
CONTINUOUS
 62
     4
100
AcDbLine
 10
361.0526
 20
295.6871
 30
0.0
 11
362.2526
 21
295.6871
 31
0.0
  0
LINE
  5
392
100
AcDbEntity
  8
1
  6
CONTINUOUS
 62
     4
100
AcDbLine
 10
362.5526
 20
295.6871
 30
0.0
 11
363.4526
 21
295.6871
 31
0.0
  0
LINE
  5
393
100
AcDbEntity
  8
1
  6
CONTINUOUS
 62
     4
100
AcDbLine
 10
361.0526
 20
293.8871
 30
0.0
 11
362.2526
 21
293.8871
 31
0.0
  0
LINE
  5
394
100
AcDbEntity
  8
1
  6
CONTINUOUS
 62
     4
100
AcDbLine
 10
362.5526
 20
293.8871
 30
0.0
 11
363.4526
 21
293.8871
 31
0.0
  0
ARC
  5
395
100
AcDbEntity
  8
1
  6
CONTINUOUS
 62
     4
100
AcDbCircle
 10
362.530176
 20
294.7871
 30
0.0
 40
1.730095
210
0.0
220
0.0
230
1.0
100
AcDbArc
 50
148.654161
 51
211.345836
  0
LINE
  5
396
100
AcDbEntity
  8
1
  6
CONTINUOUS
 62
     4
100
AcDbLine
 10
361.0526
 20
295.6871
 30
0.0
 11
361.0526
 21
293.8871
 31
0.0
  0
LINE
  5
397
100
AcDbEntity
  8
1
  6
CONTINUOUS
 62
     4
100
AcDbLine
 10
361.6526
 20
295.6871
 30
0.0
 11
361.6526
 21
293.8871
 31
0.0
  0
LINE
  5
398
100
AcDbEntity
  8
1
  6
CONTINUOUS
 62
     4
100
AcDbLine
 10
361.3526
 20
295.3871
 30
0.0
 11
361.3526
 21
294.1871
 31
0.0
  0
LINE
  5
399
100
AcDbEntity
  8
1
  6
CONTINUOUS
 62
     4
100
AcDbLine
 10
361.9526
 20
295.3871
 30
0.0
 11
361.9526
 21
294.1871
 31
0.0
  0
LINE
  5
39A
100
AcDbEntity
  8
1
  6
CONTINUOUS
 62
     4
100
AcDbLine
 10
389.5908
 20
295.6871
 30
0.0
 11
389.5908
 21
293.8871
 31
0.0
  0
LINE
  5
39B
100
AcDbEntity
  8
1
  6
CONTINUOUS
 62
     4
100
AcDbLine
 10
388.9908
 20
295.6871
 30
0.0
 11
388.9908
 21
293.8871
 31
0.0
  0
LINE
  5
39C
100
AcDbEntity
  8
1
  6
CONTINUOUS
 62
     4
100
AcDbLine
 10
389.2908
 20
295.3871
 30
0.0
 11
389.2908
 21
294.1871
 31
0.0
  0
LINE
  5
39D
100
AcDbEntity
  8
1
  6
CONTINUOUS
 62
     4
100
AcDbLine
 10
388.6908
 20
295.3871
 30
0.0
 11
388.6908
 21
294.1871
 31
0.0
  0
LINE
  5
39E
100
AcDbEntity
  8
1
  6
CONTINUOUS
 62
     4
100
AcDbLine
 10
364.3526
 20
295.6871
 30
0.0
 11
367.1199
 21
295.6871
 31
0.0
  0
LINE
  5
39F
100
AcDbEntity
  8
1
  6
CONTINUOUS
 62
     4
100
AcDbLine
 10
364.3526
 20
293.8871
 30
0.0
 11
366.475
 21
293.8871
 31
0.0
  0
LINE
  5
3A0
100
AcDbEntity
  8
1
  6
CONTINUOUS
 62
     4
100
AcDbLine
 10
368.2429
 20
295.6871
 30
0.0
 11
382.4005
 21
295.6871
 31
0.0
  0
LINE
  5
3A1
100
AcDbEntity
  8
1
  6
CONTINUOUS
 62
     4
100
AcDbLine
 10
383.5235
 20
295.6871
 30
0.0
 11
386.2908
 21
295.6871
 31
0.0
  0
LINE
  5
3A2
100
AcDbEntity
  8
1
  6
CONTINUOUS
 62
     4
100
AcDbLine
 10
367.9549
 20
293.8871
 30
0.0
 11
382.6885
 21
293.8871
 31
0.0
  0
LINE
  5
3A3
100
AcDbEntity
  8
1
  6
CONTINUOUS
 62
     4
100
AcDbLine
 10
384.1684
 20
293.8871
 30
0.0
 11
386.2908
 21
293.8871
 31
0.0
  0
LINE
  5
3A4
100
AcDbEntity
  8
1
  6
CONTINUOUS
 62
     4
100
AcDbLine
 10
375.3026
 20
293.8871
 30
0.0
 11
375.3026
 21
295.6871
 31
0.0
  0
LINE
  5
3A5
100
AcDbEntity
  8
1
  6
CONTINUOUS
 62
     4
100
AcDbLine
 10
376.5026
 20
293.8871
 30
0.0
 11
376.5026
 21
295.6871
 31
0.0
  0
LINE
  5
3A6
100
AcDbEntity
  8
1
  6
CONTINUOUS
 62
     4
100
AcDbLine
 10
377.7026
 20
293.8871
 30
0.0
 11
377.7026
 21
295.6871
 31
0.0
  0
LINE
  5
3A7
100
AcDbEntity
  8
1
  6
CONTINUOUS
 62
     4
100
AcDbLine
 10
378.9026
 20
293.8871
 30
0.0
 11
378.9026
 21
295.6871
 31
0.0
  0
LINE
  5
3A8
100
AcDbEntity
  8
1
  6
CONTINUOUS
 62
     4
100
AcDbLine
 10
380.1026
 20
293.8871
 30
0.0
 11
380.1026
 21
295.6871
 31
0.0
  0
LINE
  5
3A9
100
AcDbEntity
  8
1
  6
CONTINUOUS
 62
     4
100
AcDbLine
 10
381.3026
 20
293.8871
 30
0.0
 11
381.3026
 21
295.6871
 31
0.0
  0
LINE
  5
3AA
100
AcDbEntity
  8
1
  6
CONTINUOUS
 62
     4
100
AcDbLine
 10
383.7026
 20
294.1311
 30
0.0
 11
383.7026
 21
295.6871
 31
0.0
  0
LINE
  5
3AB
100
AcDbEntity
  8
1
  6
CONTINUOUS
 62
     4
100
AcDbLine
 10
384.9026
 20
293.8871
 30
0.0
 11
384.9026
 21
295.6871
 31
0.0
  0
LINE
  5
3AC
100
AcDbEntity
  8
1
  6
CONTINUOUS
 62
     4
100
AcDbLine
 10
386.1026
 20
293.8871
 30
0.0
 11
386.1026
 21
295.6871
 31
0.0
  0
LINE
  5
3AD
100
AcDbEntity
  8
1
  6
CONTINUOUS
 62
     4
100
AcDbLine
 10
375.9026
 20
294.1871
 30
0.0
 11
375.9026
 21
295.3871
 31
0.0
  0
LINE
  5
3AE
100
AcDbEntity
  8
1
  6
CONTINUOUS
 62
     4
100
AcDbLine
 10
377.1026
 20
294.1871
 30
0.0
 11
377.1026
 21
295.3871
 31
0.0
  0
LINE
  5
3AF
100
AcDbEntity
  8
1
  6
CONTINUOUS
 62
     4
100
AcDbLine
 10
378.3026
 20
294.1871
 30
0.0
 11
378.3026
 21
295.3871
 31
0.0
  0
LINE
  5
3B0
100
AcDbEntity
  8
1
  6
CONTINUOUS
 62
     4
100
AcDbLine
 10
379.5026
 20
294.1871
 30
0.0
 11
379.5026
 21
295.3871
 31
0.0
  0
LINE
  5
3B1
100
AcDbEntity
  8
1
  6
CONTINUOUS
 62
     4
100
AcDbLine
 10
380.7026
 20
294.1871
 30
0.0
 11
380.7026
 21
295.3871
 31
0.0
  0
LINE
  5
3B2
100
AcDbEntity
  8
1
  6
CONTINUOUS
 62
     4
100
AcDbLine
 10
381.9026
 20
294.1871
 30
0.0
 11
381.9026
 21
295.3871
 31
0.0
  0
LINE
  5
3B3
100
AcDbEntity
  8
1
  6
CONTINUOUS
 62
     4
100
AcDbLine
 10
384.3026
 20
294.1871
 30
0.0
 11
384.3026
 21
295.3871
 31
0.0
  0
LINE
  5
3B4
100
AcDbEntity
  8
1
  6
CONTINUOUS
 62
     4
100
AcDbLine
 10
385.5026
 20
294.1871
 30
0.0
 11
385.5026
 21
295.3871
 31
0.0
  0
LINE
  5
3B5
100
AcDbEntity
  8
1
  6
CONTINUOUS
 62
     4
100
AcDbLine
 10
368.2429
 20
262.3111
 30
0.0
 11
382.4005
 21
262.3111
 31
0.0
  0
LINE
  5
3B6
100
AcDbEntity
  8
1
  6
CONTINUOUS
 62
     4
100
AcDbLine
 10
362.2526
 20
261.4111
 30
0.0
 11
363.4526
 21
261.4111
 31
0.0
  0
LINE
  5
3B7
100
AcDbEntity
  8
1
  6
CONTINUOUS
 62
     4
100
AcDbLine
 10
387.1908
 20
261.4111
 30
0.0
 11
388.3908
 21
261.4111
 31
0.0
  0
LINE
  5
3B8
100
AcDbEntity
  8
1
  6
CONTINUOUS
 62
     4
100
AcDbLine
 10
362.2526
 20
265.0111
 30
0.0
 11
363.4526
 21
265.0111
 31
0.0
  0
LINE
  5
3B9
100
AcDbEntity
  8
1
  6
CONTINUOUS
 62
     4
100
AcDbLine
 10
387.1908
 20
265.0111
 30
0.0
 11
388.3908
 21
265.0111
 31
0.0
  0
LINE
  5
3BA
100
AcDbEntity
  8
1
  6
CONTINUOUS
 62
     4
100
AcDbLine
 10
362.2526
 20
261.4111
 30
0.0
 11
362.2526
 21
265.0111
 31
0.0
  0
LINE
  5
3BB
100
AcDbEntity
  8
1
  6
CONTINUOUS
 62
     4
100
AcDbLine
 10
388.3908
 20
261.4111
 30
0.0
 11
388.3908
 21
265.0111
 31
0.0
  0
LINE
  5
3BC
100
AcDbEntity
  8
1
  6
CONTINUOUS
 62
     4
100
AcDbLine
 10
387.1908
 20
262.3111
 30
0.0
 11
389.5908
 21
262.3111
 31
0.0
  0
LINE
  5
3BD
100
AcDbEntity
  8
1
  6
CONTINUOUS
 62
     4
100
AcDbLine
 10
387.1908
 20
264.1111
 30
0.0
 11
389.5908
 21
264.1111
 31
0.0
  0
LINE
  5
3BE
100
AcDbEntity
  8
1
  6
CONTINUOUS
 62
     4
100
AcDbLine
 10
362.2526
 20
265.0111
 30
0.0
 11
362.5526
 21
264.1111
 31
0.0
  0
LINE
  5
3BF
100
AcDbEntity
  8
1
  6
CONTINUOUS
 62
     4
100
AcDbLine
 10
362.2526
 20
261.4111
 30
0.0
 11
362.5526
 21
262.3111
 31
0.0
  0
LINE
  5
3C0
100
AcDbEntity
  8
1
  6
CONTINUOUS
 62
     4
100
AcDbLine
 10
362.2526
 20
263.2111
 30
0.0
 11
362.5526
 21
262.3111
 31
0.0
  0
LINE
  5
3C1
100
AcDbEntity
  8
1
  6
CONTINUOUS
 62
     4
100
AcDbLine
 10
362.2526
 20
263.2111
 30
0.0
 11
362.5526
 21
264.1111
 31
0.0
  0
LINE
  5
3C2
100
AcDbEntity
  8
1
  6
CONTINUOUS
 62
     4
100
AcDbLine
 10
361.0526
 20
262.3111
 30
0.0
 11
362.2526
 21
262.3111
 31
0.0
  0
LINE
  5
3C3
100
AcDbEntity
  8
1
  6
CONTINUOUS
 62
     4
100
AcDbLine
 10
362.5526
 20
262.3111
 30
0.0
 11
363.4526
 21
262.3111
 31
0.0
  0
LINE
  5
3C4
100
AcDbEntity
  8
1
  6
CONTINUOUS
 62
     4
100
AcDbLine
 10
361.0526
 20
264.1111
 30
0.0
 11
362.2526
 21
264.1111
 31
0.0
  0
LINE
  5
3C5
100
AcDbEntity
  8
1
  6
CONTINUOUS
 62
     4
100
AcDbLine
 10
362.5526
 20
264.1111
 30
0.0
 11
363.4526
 21
264.1111
 31
0.0
  0
ARC
  5
3C6
100
AcDbEntity
  8
1
  6
CONTINUOUS
 62
     4
100
AcDbCircle
 10
362.530176
 20
263.2111
 30
0.0
 40
1.730095
210
0.0
220
0.0
230
1.0
100
AcDbArc
 50
148.654164
 51
211.345839
  0
LINE
  5
3C7
100
AcDbEntity
  8
1
  6
CONTINUOUS
 62
     4
100
AcDbLine
 10
361.0526
 20
262.3111
 30
0.0
 11
361.0526
 21
264.1111
 31
0.0
  0
LINE
  5
3C8
100
AcDbEntity
  8
1
  6
CONTINUOUS
 62
     4
100
AcDbLine
 10
361.6526
 20
262.3111
 30
0.0
 11
361.6526
 21
264.1111
 31
0.0
  0
LINE
  5
3C9
100
AcDbEntity
  8
1
  6
CONTINUOUS
 62
     4
100
AcDbLine
 10
361.3526
 20
262.6111
 30
0.0
 11
361.3526
 21
263.8111
 31
0.0
  0
LINE
  5
3CA
100
AcDbEntity
  8
1
  6
CONTINUOUS
 62
     4
100
AcDbLine
 10
361.9526
 20
262.6111
 30
0.0
 11
361.9526
 21
263.8111
 31
0.0
  0
LINE
  5
3CB
100
AcDbEntity
  8
1
  6
CONTINUOUS
 62
     4
100
AcDbLine
 10
389.5908
 20
262.3111
 30
0.0
 11
389.5908
 21
264.1111
 31
0.0
  0
LINE
  5
3CC
100
AcDbEntity
  8
1
  6
CONTINUOUS
 62
     4
100
AcDbLine
 10
388.9908
 20
262.3111
 30
0.0
 11
388.9908
 21
264.1111
 31
0.0
  0
LINE
  5
3CD
100
AcDbEntity
  8
1
  6
CONTINUOUS
 62
     4
100
AcDbLine
 10
389.2908
 20
262.6111
 30
0.0
 11
389.2908
 21
263.8111
 31
0.0
  0
LINE
  5
3CE
100
AcDbEntity
  8
1
  6
CONTINUOUS
 62
     4
100
AcDbLine
 10
388.6908
 20
262.6111
 30
0.0
 11
388.6908
 21
263.8111
 31
0.0
  0
LINE
  5
3CF
100
AcDbEntity
  8
1
  6
CONTINUOUS
 62
     4
100
AcDbLine
 10
364.3526
 20
262.3111
 30
0.0
 11
367.1199
 21
262.3111
 31
0.0
  0
LINE
  5
3D0
100
AcDbEntity
  8
1
  6
CONTINUOUS
 62
     4
100
AcDbLine
 10
364.3526
 20
264.1111
 30
0.0
 11
366.475
 21
264.1111
 31
0.0
  0
LINE
  5
3D1
100
AcDbEntity
  8
1
  6
CONTINUOUS
 62
     4
100
AcDbLine
 10
383.5235
 20
262.3111
 30
0.0
 11
386.2908
 21
262.3111
 31
0.0
  0
LINE
  5
3D2
100
AcDbEntity
  8
1
  6
CONTINUOUS
 62
     4
100
AcDbLine
 10
367.9549
 20
264.1111
 30
0.0
 11
382.6885
 21
264.1111
 31
0.0
  0
LINE
  5
3D3
100
AcDbEntity
  8
1
  6
CONTINUOUS
 62
     4
100
AcDbLine
 10
384.1684
 20
264.1111
 30
0.0
 11
386.2908
 21
264.1111
 31
0.0
  0
LINE
  5
3D4
100
AcDbEntity
  8
1
  6
CONTINUOUS
 62
     4
100
AcDbLine
 10
375.3026
 20
264.1111
 30
0.0
 11
375.3026
 21
262.3111
 31
0.0
  0
LINE
  5
3D5
100
AcDbEntity
  8
1
  6
CONTINUOUS
 62
     4
100
AcDbLine
 10
376.5026
 20
264.1111
 30
0.0
 11
376.5026
 21
262.3111
 31
0.0
  0
LINE
  5
3D6
100
AcDbEntity
  8
1
  6
CONTINUOUS
 62
     4
100
AcDbLine
 10
377.7026
 20
264.1111
 30
0.0
 11
377.7026
 21
262.3111
 31
0.0
  0
LINE
  5
3D7
100
AcDbEntity
  8
1
  6
CONTINUOUS
 62
     4
100
AcDbLine
 10
378.9026
 20
264.1111
 30
0.0
 11
378.9026
 21
262.3111
 31
0.0
  0
LINE
  5
3D8
100
AcDbEntity
  8
1
  6
CONTINUOUS
 62
     4
100
AcDbLine
 10
380.1026
 20
264.1111
 30
0.0
 11
380.1026
 21
262.3111
 31
0.0
  0
LINE
  5
3D9
100
AcDbEntity
  8
1
  6
CONTINUOUS
 62
     4
100
AcDbLine
 10
381.3026
 20
264.1111
 30
0.0
 11
381.3026
 21
262.3111
 31
0.0
  0
LINE
  5
3DA
100
AcDbEntity
  8
1
  6
CONTINUOUS
 62
     4
100
AcDbLine
 10
383.7026
 20
263.8671
 30
0.0
 11
383.7026
 21
262.3111
 31
0.0
  0
LINE
  5
3DB
100
AcDbEntity
  8
1
  6
CONTINUOUS
 62
     4
100
AcDbLine
 10
384.9026
 20
264.1111
 30
0.0
 11
384.9026
 21
262.3111
 31
0.0
  0
LINE
  5
3DC
100
AcDbEntity
  8
1
  6
CONTINUOUS
 62
     4
100
AcDbLine
 10
386.1026
 20
264.1111
 30
0.0
 11
386.1026
 21
262.3111
 31
0.0
  0
LINE
  5
3DD
100
AcDbEntity
  8
1
  6
CONTINUOUS
 62
     4
100
AcDbLine
 10
375.9026
 20
263.8111
 30
0.0
 11
375.9026
 21
262.6111
 31
0.0
  0
LINE
  5
3DE
100
AcDbEntity
  8
1
  6
CONTINUOUS
 62
     4
100
AcDbLine
 10
377.1026
 20
263.8111
 30
0.0
 11
377.1026
 21
262.6111
 31
0.0
  0
LINE
  5
3DF
100
AcDbEntity
  8
1
  6
CONTINUOUS
 62
     4
100
AcDbLine
 10
378.3026
 20
263.8111
 30
0.0
 11
378.3026
 21
262.6111
 31
0.0
  0
LINE
  5
3E0
100
AcDbEntity
  8
1
  6
CONTINUOUS
 62
     4
100
AcDbLine
 10
379.5026
 20
263.8111
 30
0.0
 11
379.5026
 21
262.6111
 31
0.0
  0
LINE
  5
3E1
100
AcDbEntity
  8
1
  6
CONTINUOUS
 62
     4
100
AcDbLine
 10
380.7026
 20
263.8111
 30
0.0
 11
380.7026
 21
262.6111
 31
0.0
  0
LINE
  5
3E2
100
AcDbEntity
  8
1
  6
CONTINUOUS
 62
     4
100
AcDbLine
 10
381.9026
 20
263.8111
 30
0.0
 11
381.9026
 21
262.6111
 31
0.0
  0
LINE
  5
3E3
100
AcDbEntity
  8
1
  6
CONTINUOUS
 62
     4
100
AcDbLine
 10
384.3026
 20
263.8111
 30
0.0
 11
384.3026
 21
262.6111
 31
0.0
  0
LINE
  5
3E4
100
AcDbEntity
  8
1
  6
CONTINUOUS
 62
     4
100
AcDbLine
 10
385.5026
 20
263.8111
 30
0.0
 11
385.5026
 21
262.6111
 31
0.0
  0
LINE
  5
3E5
100
AcDbEntity
  8
1
  6
CONTINUOUS
 62
     7
100
AcDbLine
 10
372.9299
 20
279.016
 30
0.0
 11
356.2526
 21
279.016
 31
0.0
  0
LINE
  5
3E6
100
AcDbEntity
  8
1
  6
CONTINUOUS
 62
     7
100
AcDbLine
 10
394.1933
 20
279.016
 30
0.0
 11
377.7297
 21
279.016
 31
0.0
  0
LINE
  5
3E7
100
AcDbEntity
  8
1
  6
CONTINUOUS
 62
     7
100
AcDbLine
 10
376.5297
 20
279.016
 30
0.0
 11
374.1299
 21
279.016
 31
0.0
  0
LINE
  5
3E8
100
AcDbEntity
  8
1
  6
CONTINUOUS
 62
     7
100
AcDbLine
 10
375.3026
 20
281.3989
 30
0.0
 11
375.3026
 21
292.6871
 31
0.0
  0
LINE
  5
3E9
100
AcDbEntity
  8
1
  6
CONTINUOUS
 62
     7
100
AcDbLine
 10
375.3026
 20
265.3111
 30
0.0
 11
375.3026
 21
276.5993
 31
0.0
  0
LINE
  5
3EA
100
AcDbEntity
  8
1
  6
CONTINUOUS
 62
     7
100
AcDbLine
 10
375.3026
 20
277.7994
 30
0.0
 11
375.3026
 21
280.1988
 31
0.0
  0
LINE
  5
3EB
100
AcDbEntity
  8
1
  6
CONTINUOUS
 62
     7
100
AcDbLine
 10
387.0253
 20
267.2895
 30
0.0
 11
363.5679
 21
290.7469
 31
0.0
  0
INSERT
  5
3EC
100
AcDbEntity
  8
1
  6
CONTINUOUS
 62
     1
100
AcDbBlockReference
  2
LDR
 10
363.5679
 20
290.7469
 30
0.0
 41
239.999999
 42
239.999999
 50
135.0
210
0.0
220
0.0
230
1.0
  0
INSERT
  5
3ED
100
AcDbEntity
  8
1
  6
CONTINUOUS
 62
     1
100
AcDbBlockReference
  2
LDR
 10
387.0253
 20
267.2895
 30
0.0
 41
239.999999
 42
239.999999
 50
315.0
210
0.0
220
0.0
230
1.0
  0
LINE
  5
3EE
100
AcDbEntity
  8
1
  6
CONTINUOUS
 62
     7
100
AcDbLine
 10
396.5933
 20
279.016
 30
0.0
 11
389.5908
 21
293.8871
 31
0.0
  0
LINE
  5
3EF
100
AcDbEntity
  8
1
  6
CONTINUOUS
 62
     7
100
AcDbLine
 10
396.5933
 20
279.016
 30
0.0
 11
389.5908
 21
264.1111
 31
0.0
  0
LINE
  5
3F0
100
AcDbEntity
  8
1
  6
CONTINUOUS
 62
     7
100
AcDbLine
 10
396.5933
 20
279.016
 30
0.0
 11
398.9933
 21
279.016
 31
0.0
  0
INSERT
  5
3F1
100
AcDbEntity
  8
1
  6
CONTINUOUS
 62
     1
100
AcDbBlockReference
  2
LDR
 10
389.5908
 20
293.8871
 30
0.0
 41
239.999999
 42
239.999999
 50
115.214797
210
0.0
220
0.0
230
1.0
  0
INSERT
  5
3F2
100
AcDbEntity
  8
1
  6
CONTINUOUS
 62
     1
100
AcDbBlockReference
  2
LDR
 10
389.5908
 20
293.8871
 30
0.0
 41
239.999999
 42
239.999999
 50
115.214797
210
0.0
220
0.0
230
1.0
  0
INSERT
  5
3F3
100
AcDbEntity
  8
1
  6
CONTINUOUS
 62
     1
100
AcDbBlockReference
  2
LDR
 10
389.5908
 20
264.1111
 30
0.0
 41
240.0
 42
240.0
 50
244.835302
210
0.0
220
0.0
230
1.0
  0
LINE
  5
3F4
100
AcDbEntity
  8
1
  6
CONTINUOUS
 62
     4
100
AcDbLine
 10
348.3439
 20
287.8742
 30
0.0
 11
348.3439
 21
286.6742
 31
0.0
  0
LINE
  5
3F5
100
AcDbEntity
  8
1
  6
CONTINUOUS
 62
     4
100
AcDbLine
 10
350.2073
 20
287.8742
 30
0.0
 11
350.2073
 21
286.6742
 31
0.0
  0
LINE
  5
3F6
100
AcDbEntity
  8
1
  6
CONTINUOUS
 62
     4
100
AcDbLine
 10
348.3439
 20
287.8742
 30
0.0
 11
349.2756
 21
288.3401
 31
0.0
  0
LINE
  5
3F7
100
AcDbEntity
  8
1
  6
CONTINUOUS
 62
     4
100
AcDbLine
 10
349.2756
 20
288.3401
 30
0.0
 11
350.2073
 21
287.8742
 31
0.0
  0
LINE
  5
3F8
100
AcDbEntity
  8
1
  6
CONTINUOUS
 62
     4
100
AcDbLine
 10
350.2072
 20
286.6741
 30
0.0
 11
349.2756
 21
286.2083
 31
0.0
  0
LINE
  5
3F9
100
AcDbEntity
  8
1
  6
CONTINUOUS
 62
     4
100
AcDbLine
 10
349.2756
 20
286.2083
 30
0.0
 11
348.3439
 21
286.6742
 31
0.0
  0
CIRCLE
  5
3FA
100
AcDbEntity
  8
1
  6
CONTINUOUS
 62
     4
100
AcDbCircle
 10
349.2668
 20
287.2859
 30
0.0
 40
0.6
210
0.0
220
0.0
230
1.0
  0
LINE
  5
3FB
100
AcDbEntity
  8
1
  6
CONTINUOUS
 62
     4
100
AcDbLine
 10
348.8254
 20
288.1133
 30
0.0
 11
348.8254
 21
288.4133
 31
0.0
  0
LINE
  5
3FC
100
AcDbEntity
  8
1
  6
CONTINUOUS
 62
     4
100
AcDbLine
 10
349.7254
 20
288.1133
 30
0.0
 11
349.7254
 21
288.4133
 31
0.0
  0
LINE
  5
3FD
100
AcDbEntity
  8
1
  6
CONTINUOUS
 62
     4
100
AcDbLine
 10
348.8254
 20
286.4347
 30
0.0
 11
348.8254
 21
286.1347
 31
0.0
  0
LINE
  5
3FE
100
AcDbEntity
  8
1
  6
CONTINUOUS
 62
     4
100
AcDbLine
 10
349.7254
 20
286.4347
 30
0.0
 11
349.7254
 21
286.1347
 31
0.0
  0
ARC
  5
3FF
100
AcDbEntity
  8
1
  6
CONTINUOUS
 62
     4
100
AcDbCircle
 10
349.2754
 20
288.372465
 30
0.0
 40
0.451849
210
0.0
220
0.0
230
1.0
100
AcDbArc
 50
5.185022
 51
174.814978
  0
ARC
  5
400
100
AcDbEntity
  8
1
  6
CONTINUOUS
 62
     4
100
AcDbCircle
 10
349.2754
 20
286.175535
 30
0.0
 40
0.451849
210
0.0
220
0.0
230
1.0
100
AcDbArc
 50
185.185022
 51
354.814978
  0
CIRCLE
  5
401
100
AcDbEntity
  8
1
  6
CONTINUOUS
 62
     4
100
AcDbCircle
 10
349.2668
 20
270.7825
 30
0.0
 40
0.6
210
0.0
220
0.0
230
1.0
  0
LINE
  5
402
100
AcDbEntity
  8
1
  6
CONTINUOUS
 62
     4
100
AcDbLine
 10
348.3439
 20
270.1942
 30
0.0
 11
348.3439
 21
271.3942
 31
0.0
  0
LINE
  5
403
100
AcDbEntity
  8
1
  6
CONTINUOUS
 62
     4
100
AcDbLine
 10
350.2073
 20
270.1942
 30
0.0
 11
350.2073
 21
271.3942
 31
0.0
  0
LINE
  5
404
100
AcDbEntity
  8
1
  6
CONTINUOUS
 62
     4
100
AcDbLine
 10
348.3439
 20
270.1942
 30
0.0
 11
349.2756
 21
269.7283
 31
0.0
  0
LINE
  5
405
100
AcDbEntity
  8
1
  6
CONTINUOUS
 62
     4
100
AcDbLine
 10
349.2756
 20
269.7283
 30
0.0
 11
350.2073
 21
270.1942
 31
0.0
  0
LINE
  5
406
100
AcDbEntity
  8
1
  6
CONTINUOUS
 62
     4
100
AcDbLine
 10
350.2072
 20
271.3943
 30
0.0
 11
349.2756
 21
271.8601
 31
0.0
  0
LINE
  5
407
100
AcDbEntity
  8
1
  6
CONTINUOUS
 62
     4
100
AcDbLine
 10
349.2756
 20
271.8601
 30
0.0
 11
348.3439
 21
271.3942
 31
0.0
  0
LINE
  5
408
100
AcDbEntity
  8
1
  6
CONTINUOUS
 62
     4
100
AcDbLine
 10
348.8254
 20
269.9551
 30
0.0
 11
348.8254
 21
269.6551
 31
0.0
  0
LINE
  5
409
100
AcDbEntity
  8
1
  6
CONTINUOUS
 62
     4
100
AcDbLine
 10
349.7254
 20
269.9551
 30
0.0
 11
349.7254
 21
269.6551
 31
0.0
  0
LINE
  5
40A
100
AcDbEntity
  8
1
  6
CONTINUOUS
 62
     4
100
AcDbLine
 10
348.8254
 20
271.6337
 30
0.0
 11
348.8254
 21
271.9337
 31
0.0
  0
LINE
  5
40B
100
AcDbEntity
  8
1
  6
CONTINUOUS
 62
     4
100
AcDbLine
 10
349.7254
 20
271.6337
 30
0.0
 11
349.7254
 21
271.9337
 31
0.0
  0
ARC
  5
40C
100
AcDbEntity
  8
1
  6
CONTINUOUS
 62
     4
100
AcDbCircle
 10
349.2754
 20
269.695935
 30
0.0
 40
0.451849
210
0.0
220
0.0
230
1.0
100
AcDbArc
 50
185.185022
 51
354.814978
  0
ARC
  5
40D
100
AcDbEntity
  8
1
  6
CONTINUOUS
 62
     4
100
AcDbCircle
 10
349.2754
 20
271.892865
 30
0.0
 40
0.451849
210
0.0
220
0.0
230
1.0
100
AcDbArc
 50
5.185022
 51
174.814978
  0
LINE
  5
40E
100
AcDbEntity
  8
1
  6
CONTINUOUS
 62
     7
100
AcDbLine
 10
339.1181
 20
329.9704
 30
0.0
 11
343.5244
 21
351.8544
 31
0.0
  0
LINE
  5
40F
100
AcDbEntity
  8
1
  6
CONTINUOUS
 62
     7
100
AcDbLine
 10
343.5244
 20
351.8544
 30
0.0
 11
348.0853
 21
351.8544
 31
0.0
  0
INSERT
  5
410
100
AcDbEntity
  8
1
  6
CONTINUOUS
 62
     1
100
AcDbBlockReference
  2
LDR
 10
339.1181
 20
329.9704
 30
0.0
 41
240.0
 42
240.0
 50
258.615821
210
0.0
220
0.0
230
1.0
  0
LINE
  5
411
100
AcDbEntity
  8
1
  6
CONTINUOUS
 62
     7
100
AcDbLine
 10
349.1659
 20
288.9541
 30
0.0
 11
360.1206
 21
322.1965
 31
0.0
  0
LINE
  5
412
100
AcDbEntity
  8
1
  6
CONTINUOUS
 62
     7
100
AcDbLine
 10
360.1206
 20
322.1965
 30
0.0
 11
363.5025
 21
322.1965
 31
0.0
  0
LINE
  5
413
100
AcDbEntity
  8
1
  6
CONTINUOUS
 62
     7
100
AcDbLine
 10
350.0482
 20
287.7774
 30
0.0
 11
361.738
 21
311.9002
 31
0.0
  0
LINE
  5
414
100
AcDbEntity
  8
1
  6
CONTINUOUS
 62
     7
100
AcDbLine
 10
349.8035
 20
271.6035
 30
0.0
 11
361.738
 21
311.9002
 31
0.0
  0
LINE
  5
415
100
AcDbEntity
  8
1
  6
CONTINUOUS
 62
     7
100
AcDbLine
 10
361.738
 20
311.9002
 30
0.0
 11
365.288
 21
311.9309
 31
0.0
  0
INSERT
  5
416
100
AcDbEntity
  8
1
  6
CONTINUOUS
 62
     1
100
AcDbBlockReference
  2
LDR
 10
349.1659
 20
288.9541
 30
0.0
 41
240.000002
 42
240.000002
 50
251.760882
210
0.0
220
0.0
230
1.0
  0
INSERT
  5
417
100
AcDbEntity
  8
1
  6
CONTINUOUS
 62
     1
100
AcDbBlockReference
  2
LDR
 10
349.1659
 20
288.9541
 30
0.0
 41
240.000002
 42
240.000002
 50
251.760882
210
0.0
220
0.0
230
1.0
  0
INSERT
  5
418
100
AcDbEntity
  8
1
  6
CONTINUOUS
 62
     1
100
AcDbBlockReference
  2
LDR
 10
350.0482
 20
287.7774
 30
0.0
 41
240.000002
 42
240.000002
 50
244.145381
210
0.0
220
0.0
230
1.0
  0
INSERT
  5
419
100
AcDbEntity
  8
1
  6
CONTINUOUS
 62
     1
100
AcDbBlockReference
  2
LDR
 10
350.0482
 20
287.7774
 30
0.0
 41
240.000002
 42
240.000002
 50
244.145381
210
0.0
220
0.0
230
1.0
  0
INSERT
  5
41A
100
AcDbEntity
  8
1
  6
CONTINUOUS
 62
     1
100
AcDbBlockReference
  2
LDR
 10
349.8035
 20
271.6035
 30
0.0
 41
240.0
 42
240.0
 50
253.502518
210
0.0
220
0.0
230
1.0
  0
LINE
  5
41B
100
AcDbEntity
  8
1
  6
CONTINUOUS
 62
     7
100
AcDbLine
 10
364.947
 20
259.1846
 30
0.0
 11
362.2184
 21
253.5893
 31
0.0
  0
LINE
  5
41C
100
AcDbEntity
  8
1
  6
CONTINUOUS
 62
     7
100
AcDbLine
 10
362.2184
 20
253.5893
 30
0.0
 11
366.4477
 21
253.5893
 31
0.0
  0
INSERT
  5
41D
100
AcDbEntity
  8
1
  6
CONTINUOUS
 62
     1
100
AcDbBlockReference
  2
LDR
 10
364.947
 20
259.1846
 30
0.0
 41
240.000001
 42
240.000001
 50
64.003393
210
0.0
220
0.0
230
1.0
  0
LINE
  5
41E
100
AcDbEntity
  8
1
  6
CONTINUOUS
 62
     7
100
AcDbLine
 10
357.4435
 20
243.4904
 30
0.0
 11
367.5391
 21
233.6644
 31
0.0
  0
LINE
  5
41F
100
AcDbEntity
  8
1
  6
CONTINUOUS
 62
     7
100
AcDbLine
 10
367.5391
 20
233.6644
 30
0.0
 11
371.6275
 21
233.6644
 31
0.0
  0
INSERT
  5
420
100
AcDbEntity
  8
1
  6
CONTINUOUS
 62
     1
100
AcDbBlockReference
  2
LDR
 10
357.4435
 20
243.4904
 30
0.0
 41
240.000001
 42
240.000001
 50
135.775339
210
0.0
220
0.0
230
1.0
  0
LINE
  5
421
100
AcDbEntity
  8
1
  6
CONTINUOUS
 62
     7
100
AcDbLine
 10
341.6786
 20
204.5169
 30
0.0
 11
345.9281
 21
204.5169
 31
0.0
  0
LINE
  5
422
100
AcDbEntity
  8
1
  6
CONTINUOUS
 62
     7
100
AcDbLine
 10
345.4526
 20
217.216
 30
0.0
 11
345.4526
 21
213.616
 31
0.0
  0
LINE
  5
423
100
AcDbEntity
  8
1
  6
CONTINUOUS
 62
     7
100
AcDbLine
 10
357.4526
 20
219.016
 30
0.0
 11
357.4526
 21
213.616
 31
0.0
  0
LINE
  5
424
100
AcDbEntity
  8
1
  6
CONTINUOUS
 62
     7
100
AcDbLine
 10
341.004
 20
214.816
 30
0.0
 11
345.4526
 21
214.816
 31
0.0
  0
LINE
  5
425
100
AcDbEntity
  8
1
  6
CONTINUOUS
 62
     7
100
AcDbLine
 10
357.4526
 20
214.816
 30
0.0
 11
361.8469
 21
214.816
 31
0.0
  0
INSERT
  5
426
100
AcDbEntity
  8
1
  6
CONTINUOUS
 62
     1
100
AcDbBlockReference
  2
LDR
 10
345.4526
 20
214.816
 30
0.0
 41
240.0
 42
240.0
210
0.0
220
0.0
230
1.0
  0
INSERT
  5
427
100
AcDbEntity
  8
1
  6
CONTINUOUS
 62
     1
100
AcDbBlockReference
  2
LDR
 10
357.4526
 20
214.816
 30
0.0
 41
240.0
 42
240.0
 50
180.0
210
0.0
220
0.0
230
1.0
  0
LINE
  5
428
100
AcDbEntity
  8
1
  6
CONTINUOUS
 62
     7
100
AcDbLine
 10
341.6786
 20
204.5169
 30
0.0
 11
337.8338
 21
228.5757
 31
0.0
  0
INSERT
  5
429
100
AcDbEntity
  8
1
  6
CONTINUOUS
 62
     1
100
AcDbBlockReference
  2
LDR
 10
337.8338
 20
228.5757
 30
0.0
 41
240.0
 42
240.0
 50
99.079577
210
0.0
220
0.0
230
1.0
  0
LINE
  5
42A
100
AcDbEntity
  8
1
  6
CONTINUOUS
 62
     7
100
AcDbLine
 10
338.2526
 20
287.3163
 30
0.0
 11
329.8486
 21
287.3163
 31
0.0
  0
LINE
  5
42B
100
AcDbEntity
  8
1
  6
CONTINUOUS
 62
     7
100
AcDbLine
 10
348.1486
 20
287.3163
 30
0.0
 11
341.8526
 21
287.3163
 31
0.0
  0
LINE
  5
42C
100
AcDbEntity
  8
1
  6
CONTINUOUS
 62
     7
100
AcDbLine
 10
340.6526
 20
287.3163
 30
0.0
 11
339.4526
 21
287.3163
 31
0.0
  0
LINE
  5
42D
100
AcDbEntity
  8
1
  6
CONTINUOUS
 62
     7
100
AcDbLine
 10
338.2526
 20
270.8664
 30
0.0
 11
329.8836
 21
270.8664
 31
0.0
  0
LINE
  5
42E
100
AcDbEntity
  8
1
  6
CONTINUOUS
 62
     7
100
AcDbLine
 10
348.1836
 20
270.8664
 30
0.0
 11
341.8526
 21
270.8664
 31
0.0
  0
LINE
  5
42F
100
AcDbEntity
  8
1
  6
CONTINUOUS
 62
     7
100
AcDbLine
 10
340.6526
 20
270.8664
 30
0.0
 11
339.4526
 21
270.8664
 31
0.0
  0
LINE
  5
430
100
AcDbEntity
  8
1
  6
CONTINUOUS
 62
     7
100
AcDbLine
 10
331.0486
 20
287.3163
 30
0.0
 11
331.0836
 21
270.8664
 31
0.0
  0
INSERT
  5
431
100
AcDbEntity
  8
1
  6
CONTINUOUS
 62
     1
100
AcDbBlockReference
  2
LDR
 10
331.0486
 20
287.3163
 30
0.0
 41
239.999998
 42
239.999998
 50
90.121907
210
0.0
220
0.0
230
1.0
  0
INSERT
  5
432
100
AcDbEntity
  8
1
  6
CONTINUOUS
 62
     1
100
AcDbBlockReference
  2
LDR
 10
331.0836
 20
270.8664
 30
0.0
 41
239.999998
 42
239.999998
 50
270.121907
210
0.0
220
0.0
230
1.0
  0
TEXT
  5
433
100
AcDbEntity
  8
1
  6
CONTINUOUS
 62
     7
100
AcDbText
 10
366.3532
 20
310.7513
 30
0.0
 40
3.0
  1
2 HEX. HD. BOLTS, NUTS & LOCKWASHERS
  7
MONOTXT
210
0.0
220
0.0
230
1.0
100
AcDbText
  0
LINE
  5
434
100
AcDbEntity
  8
1
  6
CONTINUOUS
 62
     4
100
AcDbLine
 10
474.8907
 20
273.016
 30
0.0
 11
558.8907
 21
189.016
 31
0.0
  0
LINE
  5
435
100
AcDbEntity
  8
1
  6
CONTINUOUS
 62
     4
100
AcDbLine
 10
558.8907
 20
189.016
 30
0.0
 11
642.8907
 21
273.016
 31
0.0
  0
LINE
  5
436
100
AcDbEntity
  8
1
  6
CONTINUOUS
 62
     4
100
AcDbLine
 10
555.5907
 20
222.616
 30
0.0
 11
562.1907
 21
222.616
 31
0.0
  0
LINE
  5
437
100
AcDbEntity
  8
1
  6
CONTINUOUS
 62
     4
100
AcDbLine
 10
555.5907
 20
217.216
 30
0.0
 11
562.1907
 21
217.216
 31
0.0
  0
LINE
  5
438
100
AcDbEntity
  8
1
  6
CONTINUOUS
 62
     4
100
AcDbLine
 10
555.5907
 20
222.616
 30
0.0
 11
555.5907
 21
217.216
 31
0.0
  0
LINE
  5
439
100
AcDbEntity
  8
1
  6
CONTINUOUS
 62
     4
100
AcDbLine
 10
562.1907
 20
217.216
 30
0.0
 11
562.1907
 21
222.616
 31
0.0
  0
LINE
  5
43A
100
AcDbEntity
  8
1
  6
CONTINUOUS
 62
     4
100
AcDbLine
 10
555.2907
 20
362.416
 30
0.0
 11
562.4907
 21
362.416
 31
0.0
  0
LINE
  5
43B
100
AcDbEntity
  8
1
  6
CONTINUOUS
 62
     4
100
AcDbLine
 10
555.2907
 20
362.416
 30
0.0
 11
555.2907
 21
363.316
 31
0.0
  0
LINE
  5
43C
100
AcDbEntity
  8
1
  6
CONTINUOUS
 62
     4
100
AcDbLine
 10
562.4907
 20
362.416
 30
0.0
 11
562.4907
 21
363.316
 31
0.0
  0
LINE
  5
43D
100
AcDbEntity
  8
1
  6
CONTINUOUS
 62
     4
100
AcDbLine
 10
557.6907
 20
362.416
 30
0.0
 11
557.6907
 21
363.316
 31
0.0
  0
LINE
  5
43E
100
AcDbEntity
  8
1
  6
CONTINUOUS
 62
     4
100
AcDbLine
 10
560.0907
 20
362.416
 30
0.0
 11
560.0907
 21
363.316
 31
0.0
  0
LINE
  5
43F
100
AcDbEntity
  8
1
  6
CONTINUOUS
 62
     4
100
AcDbLine
 10
557.6907
 20
362.416
 30
0.0
 11
557.6907
 21
363.316
 31
0.0
  0
LINE
  5
440
100
AcDbEntity
  8
1
  6
CONTINUOUS
 62
     4
100
AcDbLine
 10
548.6907
 20
363.316
 30
0.0
 11
569.0907
 21
363.316
 31
0.0
  0
LINE
  5
441
100
AcDbEntity
  8
1
  6
CONTINUOUS
 62
     4
100
AcDbLine
 10
548.6907
 20
383.716
 30
0.0
 11
569.0907
 21
383.716
 31
0.0
  0
LINE
  5
442
100
AcDbEntity
  8
1
  6
CONTINUOUS
 62
     4
100
AcDbLine
 10
548.6907
 20
383.716
 30
0.0
 11
548.6907
 21
363.316
 31
0.0
  0
LINE
  5
443
100
AcDbEntity
  8
1
  6
CONTINUOUS
 62
     4
100
AcDbLine
 10
569.0907
 20
363.316
 30
0.0
 11
569.0907
 21
383.716
 31
0.0
  0
LINE
  5
444
100
AcDbEntity
  8
1
  6
CONTINUOUS
 62
     4
100
AcDbLine
 10
556.7907
 20
384.916
 30
0.0
 11
560.9907
 21
384.916
 31
0.0
  0
LINE
  5
445
100
AcDbEntity
  8
1
  6
CONTINUOUS
 62
     4
100
AcDbLine
 10
556.7907
 20
384.916
 30
0.0
 11
555.8907
 21
383.716
 31
0.0
  0
LINE
  5
446
100
AcDbEntity
  8
1
  6
CONTINUOUS
 62
     4
100
AcDbLine
 10
560.9907
 20
384.916
 30
0.0
 11
561.8907
 21
383.716
 31
0.0
  0
CIRCLE
  5
447
100
AcDbEntity
  8
1
  6
HIDDEN
 62
     4
100
AcDbCircle
 10
558.899
 20
373.5103
 30
0.0
 40
6.9
210
0.0
220
0.0
230
1.0
  0
ARC
  5
448
100
AcDbEntity
  8
1
  6
HIDDEN
 62
     4
100
AcDbCircle
 10
558.899
 20
373.5103
 30
0.0
 40
8.1
210
0.0
220
0.0
230
1.0
100
AcDbArc
 50
311.731594
 51
228.110869
  0
LINE
  5
449
100
AcDbEntity
  8
1
  6
CONTINUOUS
 62
     4
100
AcDbLine
 10
556.4907
 20
361.216
 30
0.0
 11
561.2907
 21
361.216
 31
0.0
  0
LINE
  5
44A
100
AcDbEntity
  8
1
  6
CONTINUOUS
 62
     4
100
AcDbLine
 10
557.6907
 20
361.816
 30
0.0
 11
560.0907
 21
361.816
 31
0.0
  0
LINE
  5
44B
100
AcDbEntity
  8
1
  6
HIDDEN
 62
     4
100
AcDbLine
 10
558.8907
 20
357.016
 30
0.0
 11
556.4907
 21
354.616
 31
0.0
  0
LINE
  5
44C
100
AcDbEntity
  8
1
  6
CONTINUOUS
 62
     4
100
AcDbLine
 10
556.4907
 20
354.616
 30
0.0
 11
474.8907
 21
273.016
 31
0.0
  0
LINE
  5
44D
100
AcDbEntity
  8
1
  6
CONTINUOUS
 62
     4
100
AcDbLine
 10
642.8907
 20
273.016
 30
0.0
 11
561.2907
 21
354.6161
 31
0.0
  0
LINE
  5
44E
100
AcDbEntity
  8
1
  6
HIDDEN
 62
     4
100
AcDbLine
 10
561.2907
 20
354.616
 30
0.0
 11
558.8907
 21
357.016
 31
0.0
  0
LINE
  5
44F
100
AcDbEntity
  8
1
  6
CONTINUOUS
 62
     4
100
AcDbLine
 10
555.2907
 20
253.816
 30
0.0
 11
562.4907
 21
253.816
 31
0.0
  0
LINE
  5
450
100
AcDbEntity
  8
1
  6
CONTINUOUS
 62
     4
100
AcDbLine
 10
555.2907
 20
267.616
 30
0.0
 11
562.4907
 21
267.616
 31
0.0
  0
LINE
  5
451
100
AcDbEntity
  8
1
  6
CONTINUOUS
 62
     4
100
AcDbLine
 10
562.4907
 20
267.616
 30
0.0
 11
562.4907
 21
253.816
 31
0.0
  0
LINE
  5
452
100
AcDbEntity
  8
1
  6
CONTINUOUS
 62
     4
100
AcDbLine
 10
556.4907
 20
362.416
 30
0.0
 11
556.4907
 21
267.616
 31
0.0
  0
LINE
  5
453
100
AcDbEntity
  8
1
  6
CONTINUOUS
 62
     4
100
AcDbLine
 10
561.2907
 20
362.416
 30
0.0
 11
561.2907
 21
267.616
 31
0.0
  0
LINE
  5
454
100
AcDbEntity
  8
1
  6
CONTINUOUS
 62
     4
100
AcDbLine
 10
552.2907
 20
264.016
 30
0.0
 11
552.2907
 21
257.416
 31
0.0
  0
ARC
  5
455
100
AcDbEntity
  8
1
  6
CONTINUOUS
 62
     4
100
AcDbCircle
 10
550.907615
 20
268.218571
 30
0.0
 40
4.424311
210
0.0
220
0.0
230
1.0
100
AcDbArc
 50
288.216611
 51
352.172244
  0
ARC
  5
456
100
AcDbEntity
  8
1
  6
CONTINUOUS
 62
     4
100
AcDbCircle
 10
553.948517
 20
259.409231
 30
0.0
 40
4.895986
210
0.0
220
0.0
230
1.0
100
AcDbArc
 50
63.946292
 51
109.792047
  0
ARC
  5
457
100
AcDbEntity
  8
1
  6
CONTINUOUS
 62
     4
100
AcDbCircle
 10
559.524783
 20
266.524651
 30
0.0
 40
4.372471
210
0.0
220
0.0
230
1.0
100
AcDbArc
 50
165.546428
 51
218.416744
  0
ARC
  5
458
100
AcDbEntity
  8
1
  6
CONTINUOUS
 62
     4
100
AcDbCircle
 10
559.524783
 20
254.907349
 30
0.0
 40
4.372471
210
0.0
220
0.0
230
1.0
100
AcDbArc
 50
141.583256
 51
194.453572
  0
ARC
  5
459
100
AcDbEntity
  8
1
  6
CONTINUOUS
 62
     4
100
AcDbCircle
 10
550.907615
 20
253.213429
 30
0.0
 40
4.424311
210
0.0
220
0.0
230
1.0
100
AcDbArc
 50
7.827756
 51
71.783389
  0
ARC
  5
45A
100
AcDbEntity
  8
1
  6
CONTINUOUS
 62
     4
100
AcDbCircle
 10
553.948517
 20
262.022769
 30
0.0
 40
4.895986
210
0.0
220
0.0
230
1.0
100
AcDbArc
 50
250.207953
 51
296.053708
  0
LINE
  5
45B
100
AcDbEntity
  8
1
  6
CONTINUOUS
 62
     4
100
AcDbLine
 10
552.2907
 20
263.416
 30
0.0
 11
548.6907
 21
263.416
 31
0.0
  0
LINE
  5
45C
100
AcDbEntity
  8
1
  6
CONTINUOUS
 62
     4
100
AcDbLine
 10
552.2907
 20
258.016
 30
0.0
 11
548.6907
 21
258.016
 31
0.0
  0
ARC
  5
45D
100
AcDbEntity
  8
1
  6
CONTINUOUS
 62
     4
100
AcDbCircle
 10
549.378139
 20
262.066
 30
0.0
 40
1.51495
210
0.0
220
0.0
230
1.0
100
AcDbArc
 50
116.985842
 51
243.014161
  0
ARC
  5
45E
100
AcDbEntity
  8
1
  6
CONTINUOUS
 62
     4
100
AcDbCircle
 10
549.378139
 20
259.366
 30
0.0
 40
1.51495
210
0.0
220
0.0
230
1.0
100
AcDbArc
 50
116.985842
 51
243.014161
  0
ARC
  5
45F
100
AcDbEntity
  8
1
  6
CONTINUOUS
 62
     4
100
AcDbCircle
 10
548.003261
 20
262.066
 30
0.0
 40
1.51495
210
0.0
220
0.0
230
1.0
100
AcDbArc
 50
296.985839
 51
63.014158
  0
LINE
  5
460
100
AcDbEntity
  8
1
  6
CONTINUOUS
 62
     4
100
AcDbLine
 10
519.2907
 20
240.616
 30
0.0
 11
519.2907
 21
234.616
 31
0.0
  0
LINE
  5
461
100
AcDbEntity
  8
1
  6
CONTINUOUS
 62
     4
100
AcDbLine
 10
598.4907
 20
240.616
 30
0.0
 11
598.4907
 21
234.616
 31
0.0
  0
LINE
  5
462
100
AcDbEntity
  8
1
  6
CONTINUOUS
 62
     4
100
AcDbLine
 10
525.2907
 20
240.616
 30
0.0
 11
524.0907
 21
239.416
 31
0.0
  0
LINE
  5
463
100
AcDbEntity
  8
1
  6
CONTINUOUS
 62
     4
100
AcDbLine
 10
524.0907
 20
239.416
 30
0.0
 11
525.2907
 21
238.216
 31
0.0
  0
LINE
  5
464
100
AcDbEntity
  8
1
  6
CONTINUOUS
 62
     4
100
AcDbLine
 10
525.2907
 20
238.216
 30
0.0
 11
526.4907
 21
239.416
 31
0.0
  0
LINE
  5
465
100
AcDbEntity
  8
1
  6
CONTINUOUS
 62
     4
100
AcDbLine
 10
526.4907
 20
239.416
 30
0.0
 11
525.2907
 21
240.616
 31
0.0
  0
CIRCLE
  5
466
100
AcDbEntity
  8
1
  6
CONTINUOUS
 62
     4
100
AcDbCircle
 10
525.2776
 20
239.4176
 30
0.0
 40
0.6
210
0.0
220
0.0
230
1.0
  0
LINE
  5
467
100
AcDbEntity
  8
1
  6
CONTINUOUS
 62
     4
100
AcDbLine
 10
560.0907
 20
239.416
 30
0.0
 11
558.8907
 21
240.616
 31
0.0
  0
LINE
  5
468
100
AcDbEntity
  8
1
  6
CONTINUOUS
 62
     4
100
AcDbLine
 10
558.8907
 20
240.616
 30
0.0
 11
557.6907
 21
239.416
 31
0.0
  0
LINE
  5
469
100
AcDbEntity
  8
1
  6
CONTINUOUS
 62
     4
100
AcDbLine
 10
557.6907
 20
239.416
 30
0.0
 11
558.8907
 21
238.216
 31
0.0
  0
LINE
  5
46A
100
AcDbEntity
  8
1
  6
CONTINUOUS
 62
     4
100
AcDbLine
 10
558.8907
 20
238.216
 30
0.0
 11
560.0907
 21
239.416
 31
0.0
  0
CIRCLE
  5
46B
100
AcDbEntity
  8
1
  6
CONTINUOUS
 62
     4
100
AcDbCircle
 10
558.8776
 20
239.4176
 30
0.0
 40
0.6
210
0.0
220
0.0
230
1.0
  0
LINE
  5
46C
100
AcDbEntity
  8
1
  6
HIDDEN
 62
     4
100
AcDbLine
 10
556.4907
 20
240.616
 30
0.0
 11
561.2907
 21
240.616
 31
0.0
  0
LINE
  5
46D
100
AcDbEntity
  8
1
  6
HIDDEN
 62
     4
100
AcDbLine
 10
556.4907
 20
238.216
 30
0.0
 11
561.2907
 21
238.216
 31
0.0
  0
LINE
  5
46E
100
AcDbEntity
  8
1
  6
HIDDEN
 62
     4
100
AcDbLine
 10
556.4907
 20
237.016
 30
0.0
 11
561.2907
 21
237.016
 31
0.0
  0
LINE
  5
46F
100
AcDbEntity
  8
1
  6
HIDDEN
 62
     4
100
AcDbLine
 10
556.4907
 20
234.616
 30
0.0
 11
561.2907
 21
234.616
 31
0.0
  0
CIRCLE
  5
470
100
AcDbEntity
  8
1
  6
CONTINUOUS
 62
     4
100
AcDbCircle
 10
592.4776
 20
239.4176
 30
0.0
 40
0.6
210
0.0
220
0.0
230
1.0
  0
LINE
  5
471
100
AcDbEntity
  8
1
  6
CONTINUOUS
 62
     4
100
AcDbLine
 10
593.6907
 20
239.416
 30
0.0
 11
592.4907
 21
240.616
 31
0.0
  0
LINE
  5
472
100
AcDbEntity
  8
1
  6
CONTINUOUS
 62
     4
100
AcDbLine
 10
592.4907
 20
240.616
 30
0.0
 11
591.2907
 21
239.416
 31
0.0
  0
LINE
  5
473
100
AcDbEntity
  8
1
  6
CONTINUOUS
 62
     4
100
AcDbLine
 10
591.2907
 20
239.416
 30
0.0
 11
592.4907
 21
238.216
 31
0.0
  0
LINE
  5
474
100
AcDbEntity
  8
1
  6
CONTINUOUS
 62
     4
100
AcDbLine
 10
592.4907
 20
238.216
 30
0.0
 11
593.6907
 21
239.416
 31
0.0
  0
LINE
  5
475
100
AcDbEntity
  8
1
  6
CONTINUOUS
 62
     4
100
AcDbLine
 10
561.2907
 20
236.416
 30
0.0
 11
556.4907
 21
236.416
 31
0.0
  0
LINE
  5
476
100
AcDbEntity
  8
1
  6
CONTINUOUS
 62
     4
100
AcDbLine
 10
561.2907
 20
235.216
 30
0.0
 11
556.4907
 21
235.216
 31
0.0
  0
LINE
  5
477
100
AcDbEntity
  8
1
  6
CONTINUOUS
 62
     4
100
AcDbLine
 10
556.4907
 20
253.816
 30
0.0
 11
556.4907
 21
236.416
 31
0.0
  0
LINE
  5
478
100
AcDbEntity
  8
1
  6
CONTINUOUS
 62
     4
100
AcDbLine
 10
556.4907
 20
235.216
 30
0.0
 11
556.4907
 21
222.616
 31
0.0
  0
LINE
  5
479
100
AcDbEntity
  8
1
  6
CONTINUOUS
 62
     4
100
AcDbLine
 10
561.2907
 20
253.816
 30
0.0
 11
561.2907
 21
236.416
 31
0.0
  0
LINE
  5
47A
100
AcDbEntity
  8
1
  6
CONTINUOUS
 62
     4
100
AcDbLine
 10
561.2907
 20
235.216
 30
0.0
 11
561.2907
 21
222.616
 31
0.0
  0
ARC
  5
47B
100
AcDbEntity
  8
1
  6
CONTINUOUS
 62
     4
100
AcDbCircle
 10
556.4907
 20
235.816
 30
0.0
 40
0.6
210
0.0
220
0.0
230
1.0
100
AcDbArc
 50
90.0
 51
270.0
  0
ARC
  5
47C
100
AcDbEntity
  8
1
  6
CONTINUOUS
 62
     4
100
AcDbCircle
 10
561.2907
 20
235.816
 30
0.0
 40
0.6
210
0.0
220
0.0
230
1.0
100
AcDbArc
 50
270.0
 51
90.0
  0
LINE
  5
47D
100
AcDbEntity
  8
1
  6
CONTINUOUS
 62
     4
100
AcDbLine
 10
519.2907
 20
305.4424
 30
0.0
 11
519.2907
 21
311.4424
 31
0.0
  0
LINE
  5
47E
100
AcDbEntity
  8
1
  6
CONTINUOUS
 62
     4
100
AcDbLine
 10
598.4907
 20
305.4424
 30
0.0
 11
598.4907
 21
311.4424
 31
0.0
  0
LINE
  5
47F
100
AcDbEntity
  8
1
  6
CONTINUOUS
 62
     4
100
AcDbLine
 10
525.2907
 20
305.4424
 30
0.0
 11
524.0907
 21
306.6424
 31
0.0
  0
LINE
  5
480
100
AcDbEntity
  8
1
  6
CONTINUOUS
 62
     4
100
AcDbLine
 10
524.0907
 20
306.6424
 30
0.0
 11
525.2907
 21
307.8424
 31
0.0
  0
LINE
  5
481
100
AcDbEntity
  8
1
  6
CONTINUOUS
 62
     4
100
AcDbLine
 10
525.2907
 20
307.8424
 30
0.0
 11
526.4907
 21
306.6424
 31
0.0
  0
LINE
  5
482
100
AcDbEntity
  8
1
  6
CONTINUOUS
 62
     4
100
AcDbLine
 10
526.4907
 20
306.6424
 30
0.0
 11
525.2907
 21
305.4424
 31
0.0
  0
CIRCLE
  5
483
100
AcDbEntity
  8
1
  6
CONTINUOUS
 62
     4
100
AcDbCircle
 10
525.2776
 20
306.6408
 30
0.0
 40
0.6
210
0.0
220
0.0
230
1.0
  0
LINE
  5
484
100
AcDbEntity
  8
1
  6
CONTINUOUS
 62
     4
100
AcDbLine
 10
560.0907
 20
306.6424
 30
0.0
 11
558.8907
 21
305.4424
 31
0.0
  0
LINE
  5
485
100
AcDbEntity
  8
1
  6
CONTINUOUS
 62
     4
100
AcDbLine
 10
558.8907
 20
305.4424
 30
0.0
 11
557.6907
 21
306.6424
 31
0.0
  0
LINE
  5
486
100
AcDbEntity
  8
1
  6
CONTINUOUS
 62
     4
100
AcDbLine
 10
557.6907
 20
306.6424
 30
0.0
 11
558.8907
 21
307.8424
 31
0.0
  0
LINE
  5
487
100
AcDbEntity
  8
1
  6
CONTINUOUS
 62
     4
100
AcDbLine
 10
558.8907
 20
307.8424
 30
0.0
 11
560.0907
 21
306.6424
 31
0.0
  0
CIRCLE
  5
488
100
AcDbEntity
  8
1
  6
CONTINUOUS
 62
     4
100
AcDbCircle
 10
558.8776
 20
306.6408
 30
0.0
 40
0.6
210
0.0
220
0.0
230
1.0
  0
LINE
  5
489
100
AcDbEntity
  8
1
  6
HIDDEN
 62
     4
100
AcDbLine
 10
556.4907
 20
305.4424
 30
0.0
 11
561.2907
 21
305.4424
 31
0.0
  0
LINE
  5
48A
100
AcDbEntity
  8
1
  6
HIDDEN
 62
     4
100
AcDbLine
 10
556.4907
 20
307.8424
 30
0.0
 11
561.2907
 21
307.8424
 31
0.0
  0
LINE
  5
48B
100
AcDbEntity
  8
1
  6
HIDDEN
 62
     4
100
AcDbLine
 10
556.4907
 20
309.0424
 30
0.0
 11
561.2907
 21
309.0424
 31
0.0
  0
LINE
  5
48C
100
AcDbEntity
  8
1
  6
HIDDEN
 62
     4
100
AcDbLine
 10
556.4907
 20
311.4424
 30
0.0
 11
561.2907
 21
311.4424
 31
0.0
  0
CIRCLE
  5
48D
100
AcDbEntity
  8
1
  6
CONTINUOUS
 62
     4
100
AcDbCircle
 10
592.4776
 20
306.6408
 30
0.0
 40
0.6
210
0.0
220
0.0
230
1.0
  0
LINE
  5
48E
100
AcDbEntity
  8
1
  6
CONTINUOUS
 62
     4
100
AcDbLine
 10
593.6907
 20
306.6424
 30
0.0
 11
592.4907
 21
305.4424
 31
0.0
  0
LINE
  5
48F
100
AcDbEntity
  8
1
  6
CONTINUOUS
 62
     4
100
AcDbLine
 10
592.4907
 20
305.4424
 30
0.0
 11
591.2907
 21
306.6424
 31
0.0
  0
LINE
  5
490
100
AcDbEntity
  8
1
  6
CONTINUOUS
 62
     4
100
AcDbLine
 10
591.2907
 20
306.6424
 30
0.0
 11
592.4907
 21
307.8424
 31
0.0
  0
LINE
  5
491
100
AcDbEntity
  8
1
  6
CONTINUOUS
 62
     4
100
AcDbLine
 10
592.4907
 20
307.8424
 30
0.0
 11
593.6907
 21
306.6424
 31
0.0
  0
LINE
  5
492
100
AcDbEntity
  8
1
  6
CONTINUOUS
 62
     4
100
AcDbLine
 10
561.2907
 20
309.6424
 30
0.0
 11
556.4907
 21
309.6424
 31
0.0
  0
LINE
  5
493
100
AcDbEntity
  8
1
  6
CONTINUOUS
 62
     4
100
AcDbLine
 10
561.2907
 20
310.8424
 30
0.0
 11
556.4907
 21
310.8424
 31
0.0
  0
ARC
  5
494
100
AcDbEntity
  8
1
  6
CONTINUOUS
 62
     4
100
AcDbCircle
 10
556.4907
 20
310.2424
 30
0.0
 40
0.6
210
0.0
220
0.0
230
1.0
100
AcDbArc
 50
90.0
 51
270.0
  0
ARC
  5
495
100
AcDbEntity
  8
1
  6
CONTINUOUS
 62
     4
100
AcDbCircle
 10
561.2907
 20
310.2424
 30
0.0
 40
0.6
210
0.0
220
0.0
230
1.0
100
AcDbArc
 50
270.0
 51
90.0
  0
LINE
  5
496
100
AcDbEntity
  8
1
  6
CONTINUOUS
 62
     4
100
AcDbLine
 10
536.6907
 20
322.8424
 30
0.0
 11
536.6907
 21
229.816
 31
0.0
  0
LINE
  5
497
100
AcDbEntity
  8
1
  6
CONTINUOUS
 62
     4
100
AcDbLine
 10
533.6907
 20
322.8424
 30
0.0
 11
536.6907
 21
322.8424
 31
0.0
  0
LINE
  5
498
100
AcDbEntity
  8
1
  6
CONTINUOUS
 62
     4
100
AcDbLine
 10
533.6907
 20
229.816
 30
0.0
 11
536.6907
 21
229.816
 31
0.0
  0
LINE
  5
499
100
AcDbEntity
  8
1
  6
CONTINUOUS
 62
     4
100
AcDbLine
 10
556.4907
 20
311.4424
 30
0.0
 11
536.6907
 21
311.4424
 31
0.0
  0
LINE
  5
49A
100
AcDbEntity
  8
1
  6
CONTINUOUS
 62
     4
100
AcDbLine
 10
533.6907
 20
311.4424
 30
0.0
 11
519.2907
 21
311.4424
 31
0.0
  0
LINE
  5
49B
100
AcDbEntity
  8
1
  6
CONTINUOUS
 62
     4
100
AcDbLine
 10
556.4907
 20
309.0424
 30
0.0
 11
536.6907
 21
309.0424
 31
0.0
  0
LINE
  5
49C
100
AcDbEntity
  8
1
  6
CONTINUOUS
 62
     4
100
AcDbLine
 10
533.6907
 20
309.0424
 30
0.0
 11
519.2907
 21
309.0424
 31
0.0
  0
LINE
  5
49D
100
AcDbEntity
  8
1
  6
CONTINUOUS
 62
     4
100
AcDbLine
 10
556.4907
 20
307.8424
 30
0.0
 11
536.6907
 21
307.8424
 31
0.0
  0
LINE
  5
49E
100
AcDbEntity
  8
1
  6
CONTINUOUS
 62
     4
100
AcDbLine
 10
533.6907
 20
307.8424
 30
0.0
 11
519.2907
 21
307.8424
 31
0.0
  0
LINE
  5
49F
100
AcDbEntity
  8
1
  6
CONTINUOUS
 62
     4
100
AcDbLine
 10
556.4907
 20
305.4424
 30
0.0
 11
536.6907
 21
305.4424
 31
0.0
  0
LINE
  5
4A0
100
AcDbEntity
  8
1
  6
CONTINUOUS
 62
     4
100
AcDbLine
 10
533.6907
 20
305.4424
 30
0.0
 11
519.2907
 21
305.4424
 31
0.0
  0
LINE
  5
4A1
100
AcDbEntity
  8
1
  6
HIDDEN
 62
     4
100
AcDbLine
 10
533.6907
 20
311.4424
 30
0.0
 11
536.6907
 21
311.4424
 31
0.0
  0
LINE
  5
4A2
100
AcDbEntity
  8
1
  6
HIDDEN
 62
     4
100
AcDbLine
 10
533.6907
 20
309.0424
 30
0.0
 11
536.6907
 21
309.0424
 31
0.0
  0
LINE
  5
4A3
100
AcDbEntity
  8
1
  6
HIDDEN
 62
     4
100
AcDbLine
 10
533.6907
 20
307.8424
 30
0.0
 11
536.6907
 21
307.8424
 31
0.0
  0
LINE
  5
4A4
100
AcDbEntity
  8
1
  6
HIDDEN
 62
     4
100
AcDbLine
 10
533.6907
 20
305.4424
 30
0.0
 11
536.6907
 21
305.4424
 31
0.0
  0
LINE
  5
4A5
100
AcDbEntity
  8
1
  6
CONTINUOUS
 62
     4
100
AcDbLine
 10
556.4907
 20
240.616
 30
0.0
 11
536.6907
 21
240.616
 31
0.0
  0
LINE
  5
4A6
100
AcDbEntity
  8
1
  6
CONTINUOUS
 62
     4
100
AcDbLine
 10
533.6907
 20
240.616
 30
0.0
 11
519.2907
 21
240.616
 31
0.0
  0
LINE
  5
4A7
100
AcDbEntity
  8
1
  6
CONTINUOUS
 62
     4
100
AcDbLine
 10
556.4907
 20
238.216
 30
0.0
 11
536.6907
 21
238.216
 31
0.0
  0
LINE
  5
4A8
100
AcDbEntity
  8
1
  6
CONTINUOUS
 62
     4
100
AcDbLine
 10
533.6907
 20
238.216
 30
0.0
 11
519.2907
 21
238.216
 31
0.0
  0
LINE
  5
4A9
100
AcDbEntity
  8
1
  6
CONTINUOUS
 62
     4
100
AcDbLine
 10
556.4907
 20
237.016
 30
0.0
 11
536.6907
 21
237.016
 31
0.0
  0
LINE
  5
4AA
100
AcDbEntity
  8
1
  6
CONTINUOUS
 62
     4
100
AcDbLine
 10
533.6907
 20
237.016
 30
0.0
 11
519.2907
 21
237.016
 31
0.0
  0
LINE
  5
4AB
100
AcDbEntity
  8
1
  6
CONTINUOUS
 62
     4
100
AcDbLine
 10
556.4907
 20
234.616
 30
0.0
 11
536.6907
 21
234.616
 31
0.0
  0
LINE
  5
4AC
100
AcDbEntity
  8
1
  6
CONTINUOUS
 62
     4
100
AcDbLine
 10
533.6907
 20
234.616
 30
0.0
 11
519.2907
 21
234.616
 31
0.0
  0
LINE
  5
4AD
100
AcDbEntity
  8
1
  6
HIDDEN
 62
     4
100
AcDbLine
 10
533.6907
 20
240.616
 30
0.0
 11
536.6907
 21
240.616
 31
0.0
  0
LINE
  5
4AE
100
AcDbEntity
  8
1
  6
HIDDEN
 62
     4
100
AcDbLine
 10
533.6907
 20
238.216
 30
0.0
 11
536.6907
 21
238.216
 31
0.0
  0
LINE
  5
4AF
100
AcDbEntity
  8
1
  6
HIDDEN
 62
     4
100
AcDbLine
 10
533.6907
 20
237.016
 30
0.0
 11
536.6907
 21
237.016
 31
0.0
  0
LINE
  5
4B0
100
AcDbEntity
  8
1
  6
HIDDEN
 62
     4
100
AcDbLine
 10
533.6907
 20
234.616
 30
0.0
 11
536.6907
 21
234.616
 31
0.0
  0
LINE
  5
4B1
100
AcDbEntity
  8
1
  6
CONTINUOUS
 62
     4
100
AcDbLine
 10
534.4407
 20
310.6924
 30
0.0
 11
534.4407
 21
309.7924
 31
0.0
  0
LINE
  5
4B2
100
AcDbEntity
  8
1
  6
CONTINUOUS
 62
     4
100
AcDbLine
 10
535.9407
 20
310.6924
 30
0.0
 11
535.9407
 21
309.7924
 31
0.0
  0
LINE
  5
4B3
100
AcDbEntity
  8
1
  6
CONTINUOUS
 62
     4
100
AcDbLine
 10
534.4407
 20
310.6924
 30
0.0
 11
535.1907
 21
311.1424
 31
0.0
  0
LINE
  5
4B4
100
AcDbEntity
  8
1
  6
CONTINUOUS
 62
     4
100
AcDbLine
 10
535.9407
 20
310.6924
 30
0.0
 11
535.1907
 21
311.1424
 31
0.0
  0
LINE
  5
4B5
100
AcDbEntity
  8
1
  6
CONTINUOUS
 62
     4
100
AcDbLine
 10
534.4407
 20
309.7924
 30
0.0
 11
535.1907
 21
309.3424
 31
0.0
  0
LINE
  5
4B6
100
AcDbEntity
  8
1
  6
CONTINUOUS
 62
     4
100
AcDbLine
 10
535.9407
 20
309.7924
 30
0.0
 11
535.1907
 21
309.3424
 31
0.0
  0
LINE
  5
4B7
100
AcDbEntity
  8
1
  6
CONTINUOUS
 62
     4
100
AcDbLine
 10
534.4407
 20
236.266
 30
0.0
 11
534.4407
 21
235.366
 31
0.0
  0
LINE
  5
4B8
100
AcDbEntity
  8
1
  6
CONTINUOUS
 62
     4
100
AcDbLine
 10
535.9407
 20
236.266
 30
0.0
 11
535.9407
 21
235.366
 31
0.0
  0
LINE
  5
4B9
100
AcDbEntity
  8
1
  6
CONTINUOUS
 62
     4
100
AcDbLine
 10
534.4407
 20
236.266
 30
0.0
 11
535.1907
 21
236.716
 31
0.0
  0
LINE
  5
4BA
100
AcDbEntity
  8
1
  6
CONTINUOUS
 62
     4
100
AcDbLine
 10
535.9407
 20
236.266
 30
0.0
 11
535.1907
 21
236.716
 31
0.0
  0
LINE
  5
4BB
100
AcDbEntity
  8
1
  6
CONTINUOUS
 62
     4
100
AcDbLine
 10
534.4407
 20
235.366
 30
0.0
 11
535.1907
 21
234.916
 31
0.0
  0
LINE
  5
4BC
100
AcDbEntity
  8
1
  6
CONTINUOUS
 62
     4
100
AcDbLine
 10
535.9407
 20
235.366
 30
0.0
 11
535.1907
 21
234.916
 31
0.0
  0
LINE
  5
4BD
100
AcDbEntity
  8
1
  6
CONTINUOUS
 62
     4
100
AcDbLine
 10
532.7907
 20
288.316
 30
0.0
 11
536.6907
 21
288.316
 31
0.0
  0
LINE
  5
4BE
100
AcDbEntity
  8
1
  6
CONTINUOUS
 62
     4
100
AcDbLine
 10
532.7907
 20
266.716
 30
0.0
 11
536.6907
 21
266.716
 31
0.0
  0
LINE
  5
4BF
100
AcDbEntity
  8
1
  6
CONTINUOUS
 62
     4
100
AcDbLine
 10
532.7907
 20
270.316
 30
0.0
 11
536.6907
 21
270.316
 31
0.0
  0
LINE
  5
4C0
100
AcDbEntity
  8
1
  6
CONTINUOUS
 62
     4
100
AcDbLine
 10
532.7907
 20
288.316
 30
0.0
 11
532.7907
 21
266.716
 31
0.0
  0
LINE
  5
4C1
100
AcDbEntity
  8
1
  6
CONTINUOUS
 62
     4
100
AcDbLine
 10
533.6907
 20
322.8424
 30
0.0
 11
533.6907
 21
288.316
 31
0.0
  0
LINE
  5
4C2
100
AcDbEntity
  8
1
  6
HIDDEN
 62
     4
100
AcDbLine
 10
533.6907
 20
288.316
 30
0.0
 11
533.6907
 21
266.716
 31
0.0
  0
LINE
  5
4C3
100
AcDbEntity
  8
1
  6
CONTINUOUS
 62
     4
100
AcDbLine
 10
533.6907
 20
266.716
 30
0.0
 11
533.6907
 21
229.816
 31
0.0
  0
LINE
  5
4C4
100
AcDbEntity
  8
1
  6
DASHED
 62
     4
100
AcDbLine
 10
473.3907
 20
284.116
 30
0.0
 11
532.7907
 21
284.116
 31
0.0
  0
LINE
  5
4C5
100
AcDbEntity
  8
1
  6
DASHED
 62
     4
100
AcDbLine
 10
473.3907
 20
270.916
 30
0.0
 11
532.7907
 21
270.916
 31
0.0
  0
LINE
  5
4C6
100
AcDbEntity
  8
1
  6
CONTINUOUS
 62
     4
100
AcDbLine
 10
536.2704
 20
287.1541
 30
0.0
 11
536.2704
 21
285.8581
 31
0.0
  0
LINE
  5
4C7
100
AcDbEntity
  8
1
  6
CONTINUOUS
 62
     4
100
AcDbLine
 10
534.1104
 20
287.1541
 30
0.0
 11
534.1104
 21
285.8581
 31
0.0
  0
LINE
  5
4C8
100
AcDbEntity
  8
1
  6
CONTINUOUS
 62
     4
100
AcDbLine
 10
534.1104
 20
287.1541
 30
0.0
 11
535.1904
 21
287.8021
 31
0.0
  0
LINE
  5
4C9
100
AcDbEntity
  8
1
  6
CONTINUOUS
 62
     4
100
AcDbLine
 10
536.2704
 20
287.1541
 30
0.0
 11
535.1904
 21
287.8021
 31
0.0
  0
LINE
  5
4CA
100
AcDbEntity
  8
1
  6
CONTINUOUS
 62
     4
100
AcDbLine
 10
534.1104
 20
285.8581
 30
0.0
 11
535.1904
 21
285.2101
 31
0.0
  0
LINE
  5
4CB
100
AcDbEntity
  8
1
  6
CONTINUOUS
 62
     4
100
AcDbLine
 10
536.2704
 20
285.8581
 30
0.0
 11
535.1904
 21
285.2101
 31
0.0
  0
LINE
  5
4CC
100
AcDbEntity
  8
1
  6
CONTINUOUS
 62
     4
100
AcDbLine
 10
532.7907
 20
284.716
 30
0.0
 11
533.6907
 21
284.716
 31
0.0
  0
LINE
  5
4CD
100
AcDbEntity
  8
1
  6
CONTINUOUS
 62
     4
100
AcDbLine
 10
533.6907
 20
284.716
 30
0.0
 11
536.6907
 21
284.716
 31
0.0
  0
LINE
  5
4CE
100
AcDbEntity
  8
1
  6
CONTINUOUS
 62
     4
100
AcDbLine
 10
536.2704
 20
267.8961
 30
0.0
 11
535.1904
 21
267.2481
 31
0.0
  0
LINE
  5
4CF
100
AcDbEntity
  8
1
  6
CONTINUOUS
 62
     4
100
AcDbLine
 10
536.2704
 20
267.8961
 30
0.0
 11
536.2704
 21
269.1921
 31
0.0
  0
LINE
  5
4D0
100
AcDbEntity
  8
1
  6
CONTINUOUS
 62
     4
100
AcDbLine
 10
534.1104
 20
267.8961
 30
0.0
 11
534.1104
 21
269.1921
 31
0.0
  0
LINE
  5
4D1
100
AcDbEntity
  8
1
  6
CONTINUOUS
 62
     4
100
AcDbLine
 10
534.1104
 20
267.8961
 30
0.0
 11
535.1904
 21
267.2481
 31
0.0
  0
LINE
  5
4D2
100
AcDbEntity
  8
1
  6
CONTINUOUS
 62
     4
100
AcDbLine
 10
534.1104
 20
269.1921
 30
0.0
 11
535.1904
 21
269.8401
 31
0.0
  0
LINE
  5
4D3
100
AcDbEntity
  8
1
  6
CONTINUOUS
 62
     4
100
AcDbLine
 10
536.2704
 20
269.1921
 30
0.0
 11
535.1904
 21
269.8401
 31
0.0
  0
CIRCLE
  5
4D4
100
AcDbEntity
  8
1
  6
CONTINUOUS
 62
     4
100
AcDbCircle
 10
535.2118
 20
286.5166
 30
0.0
 40
0.6
210
0.0
220
0.0
230
1.0
  0
CIRCLE
  5
4D5
100
AcDbEntity
  8
1
  6
CONTINUOUS
 62
     4
100
AcDbCircle
 10
535.1782
 20
268.5457
 30
0.0
 40
0.6
210
0.0
220
0.0
230
1.0
  0
LINE
  5
4D6
100
AcDbEntity
  8
1
  6
CONTINUOUS
 62
     4
100
AcDbLine
 10
580.7525
 20
322.8424
 30
0.0
 11
580.7525
 21
229.816
 31
0.0
  0
LINE
  5
4D7
100
AcDbEntity
  8
1
  6
CONTINUOUS
 62
     4
100
AcDbLine
 10
583.7525
 20
322.8424
 30
0.0
 11
580.7525
 21
322.8424
 31
0.0
  0
LINE
  5
4D8
100
AcDbEntity
  8
1
  6
CONTINUOUS
 62
     4
100
AcDbLine
 10
583.7525
 20
229.816
 30
0.0
 11
580.7525
 21
229.816
 31
0.0
  0
LINE
  5
4D9
100
AcDbEntity
  8
1
  6
HIDDEN
 62
     4
100
AcDbLine
 10
583.7525
 20
311.4424
 30
0.0
 11
580.7525
 21
311.4424
 31
0.0
  0
LINE
  5
4DA
100
AcDbEntity
  8
1
  6
HIDDEN
 62
     4
100
AcDbLine
 10
583.7525
 20
309.0424
 30
0.0
 11
580.7525
 21
309.0424
 31
0.0
  0
LINE
  5
4DB
100
AcDbEntity
  8
1
  6
HIDDEN
 62
     4
100
AcDbLine
 10
583.7525
 20
307.8424
 30
0.0
 11
580.7525
 21
307.8424
 31
0.0
  0
LINE
  5
4DC
100
AcDbEntity
  8
1
  6
HIDDEN
 62
     4
100
AcDbLine
 10
583.7525
 20
305.4424
 30
0.0
 11
580.7525
 21
305.4424
 31
0.0
  0
LINE
  5
4DD
100
AcDbEntity
  8
1
  6
HIDDEN
 62
     4
100
AcDbLine
 10
583.7525
 20
240.616
 30
0.0
 11
580.7525
 21
240.616
 31
0.0
  0
LINE
  5
4DE
100
AcDbEntity
  8
1
  6
HIDDEN
 62
     4
100
AcDbLine
 10
583.7525
 20
238.216
 30
0.0
 11
580.7525
 21
238.216
 31
0.0
  0
LINE
  5
4DF
100
AcDbEntity
  8
1
  6
HIDDEN
 62
     4
100
AcDbLine
 10
583.7525
 20
237.016
 30
0.0
 11
580.7525
 21
237.016
 31
0.0
  0
LINE
  5
4E0
100
AcDbEntity
  8
1
  6
HIDDEN
 62
     4
100
AcDbLine
 10
583.7525
 20
234.616
 30
0.0
 11
580.7525
 21
234.616
 31
0.0
  0
LINE
  5
4E1
100
AcDbEntity
  8
1
  6
CONTINUOUS
 62
     4
100
AcDbLine
 10
583.0025
 20
310.6924
 30
0.0
 11
583.0025
 21
309.7924
 31
0.0
  0
LINE
  5
4E2
100
AcDbEntity
  8
1
  6
CONTINUOUS
 62
     4
100
AcDbLine
 10
581.5025
 20
310.6924
 30
0.0
 11
581.5025
 21
309.7924
 31
0.0
  0
LINE
  5
4E3
100
AcDbEntity
  8
1
  6
CONTINUOUS
 62
     4
100
AcDbLine
 10
583.0025
 20
310.6924
 30
0.0
 11
582.2525
 21
311.1424
 31
0.0
  0
LINE
  5
4E4
100
AcDbEntity
  8
1
  6
CONTINUOUS
 62
     4
100
AcDbLine
 10
581.5025
 20
310.6924
 30
0.0
 11
582.2525
 21
311.1424
 31
0.0
  0
LINE
  5
4E5
100
AcDbEntity
  8
1
  6
CONTINUOUS
 62
     4
100
AcDbLine
 10
583.0025
 20
309.7924
 30
0.0
 11
582.2525
 21
309.3424
 31
0.0
  0
LINE
  5
4E6
100
AcDbEntity
  8
1
  6
CONTINUOUS
 62
     4
100
AcDbLine
 10
581.5025
 20
309.7924
 30
0.0
 11
582.2525
 21
309.3424
 31
0.0
  0
LINE
  5
4E7
100
AcDbEntity
  8
1
  6
CONTINUOUS
 62
     4
100
AcDbLine
 10
583.0025
 20
236.266
 30
0.0
 11
583.0025
 21
235.366
 31
0.0
  0
LINE
  5
4E8
100
AcDbEntity
  8
1
  6
CONTINUOUS
 62
     4
100
AcDbLine
 10
581.5025
 20
236.266
 30
0.0
 11
581.5025
 21
235.366
 31
0.0
  0
LINE
  5
4E9
100
AcDbEntity
  8
1
  6
CONTINUOUS
 62
     4
100
AcDbLine
 10
583.0025
 20
236.266
 30
0.0
 11
582.2525
 21
236.716
 31
0.0
  0
LINE
  5
4EA
100
AcDbEntity
  8
1
  6
CONTINUOUS
 62
     4
100
AcDbLine
 10
581.5025
 20
236.266
 30
0.0
 11
582.2525
 21
236.716
 31
0.0
  0
LINE
  5
4EB
100
AcDbEntity
  8
1
  6
CONTINUOUS
 62
     4
100
AcDbLine
 10
583.0025
 20
235.366
 30
0.0
 11
582.2525
 21
234.916
 31
0.0
  0
LINE
  5
4EC
100
AcDbEntity
  8
1
  6
CONTINUOUS
 62
     4
100
AcDbLine
 10
581.5025
 20
235.366
 30
0.0
 11
582.2525
 21
234.916
 31
0.0
  0
LINE
  5
4ED
100
AcDbEntity
  8
1
  6
CONTINUOUS
 62
     4
100
AcDbLine
 10
584.6525
 20
288.316
 30
0.0
 11
580.7525
 21
288.316
 31
0.0
  0
LINE
  5
4EE
100
AcDbEntity
  8
1
  6
CONTINUOUS
 62
     4
100
AcDbLine
 10
584.6525
 20
266.716
 30
0.0
 11
580.7525
 21
266.716
 31
0.0
  0
LINE
  5
4EF
100
AcDbEntity
  8
1
  6
CONTINUOUS
 62
     4
100
AcDbLine
 10
584.6525
 20
270.316
 30
0.0
 11
580.7525
 21
270.316
 31
0.0
  0
LINE
  5
4F0
100
AcDbEntity
  8
1
  6
CONTINUOUS
 62
     4
100
AcDbLine
 10
584.6525
 20
288.316
 30
0.0
 11
584.6525
 21
266.716
 31
0.0
  0
LINE
  5
4F1
100
AcDbEntity
  8
1
  6
CONTINUOUS
 62
     4
100
AcDbLine
 10
583.7525
 20
322.8424
 30
0.0
 11
583.7525
 21
288.316
 31
0.0
  0
LINE
  5
4F2
100
AcDbEntity
  8
1
  6
HIDDEN
 62
     4
100
AcDbLine
 10
583.7525
 20
288.316
 30
0.0
 11
583.7525
 21
266.716
 31
0.0
  0
LINE
  5
4F3
100
AcDbEntity
  8
1
  6
CONTINUOUS
 62
     4
100
AcDbLine
 10
583.7525
 20
266.716
 30
0.0
 11
583.7525
 21
229.816
 31
0.0
  0
LINE
  5
4F4
100
AcDbEntity
  8
1
  6
CONTINUOUS
 62
     4
100
AcDbLine
 10
583.3328
 20
287.1541
 30
0.0
 11
583.3328
 21
285.8581
 31
0.0
  0
LINE
  5
4F5
100
AcDbEntity
  8
1
  6
CONTINUOUS
 62
     4
100
AcDbLine
 10
583.3328
 20
287.1541
 30
0.0
 11
582.2528
 21
287.8021
 31
0.0
  0
LINE
  5
4F6
100
AcDbEntity
  8
1
  6
CONTINUOUS
 62
     4
100
AcDbLine
 10
581.1728
 20
287.1541
 30
0.0
 11
582.2528
 21
287.8021
 31
0.0
  0
LINE
  5
4F7
100
AcDbEntity
  8
1
  6
CONTINUOUS
 62
     4
100
AcDbLine
 10
583.3328
 20
285.8581
 30
0.0
 11
582.2528
 21
285.2101
 31
0.0
  0
LINE
  5
4F8
100
AcDbEntity
  8
1
  6
CONTINUOUS
 62
     4
100
AcDbLine
 10
581.1728
 20
285.8581
 30
0.0
 11
582.2528
 21
285.2101
 31
0.0
  0
LINE
  5
4F9
100
AcDbEntity
  8
1
  6
CONTINUOUS
 62
     4
100
AcDbLine
 10
584.6525
 20
284.716
 30
0.0
 11
580.7525
 21
284.716
 31
0.0
  0
LINE
  5
4FA
100
AcDbEntity
  8
1
  6
CONTINUOUS
 62
     4
100
AcDbLine
 10
581.1728
 20
267.8961
 30
0.0
 11
582.2528
 21
267.2481
 31
0.0
  0
LINE
  5
4FB
100
AcDbEntity
  8
1
  6
CONTINUOUS
 62
     4
100
AcDbLine
 10
581.1728
 20
267.8961
 30
0.0
 11
581.1728
 21
269.1921
 31
0.0
  0
LINE
  5
4FC
100
AcDbEntity
  8
1
  6
CONTINUOUS
 62
     4
100
AcDbLine
 10
583.3328
 20
267.8961
 30
0.0
 11
583.3328
 21
269.1921
 31
0.0
  0
LINE
  5
4FD
100
AcDbEntity
  8
1
  6
CONTINUOUS
 62
     4
100
AcDbLine
 10
583.3328
 20
267.8961
 30
0.0
 11
582.2528
 21
267.2481
 31
0.0
  0
LINE
  5
4FE
100
AcDbEntity
  8
1
  6
CONTINUOUS
 62
     4
100
AcDbLine
 10
583.3328
 20
269.1921
 30
0.0
 11
582.2528
 21
269.8401
 31
0.0
  0
LINE
  5
4FF
100
AcDbEntity
  8
1
  6
CONTINUOUS
 62
     4
100
AcDbLine
 10
581.1728
 20
269.1921
 30
0.0
 11
582.2528
 21
269.8401
 31
0.0
  0
CIRCLE
  5
500
100
AcDbEntity
  8
1
  6
CONTINUOUS
 62
     4
100
AcDbCircle
 10
582.2314
 20
286.5166
 30
0.0
 40
0.6
210
0.0
220
0.0
230
1.0
  0
CIRCLE
  5
501
100
AcDbEntity
  8
1
  6
CONTINUOUS
 62
     4
100
AcDbCircle
 10
582.265
 20
268.5457
 30
0.0
 40
0.6
210
0.0
220
0.0
230
1.0
  0
LINE
  5
502
100
AcDbEntity
  8
1
  6
CONTINUOUS
 62
     4
100
AcDbLine
 10
598.4907
 20
311.4424
 30
0.0
 11
583.7525
 21
311.4424
 31
0.0
  0
LINE
  5
503
100
AcDbEntity
  8
1
  6
CONTINUOUS
 62
     4
100
AcDbLine
 10
580.7525
 20
311.4424
 30
0.0
 11
561.2907
 21
311.4424
 31
0.0
  0
LINE
  5
504
100
AcDbEntity
  8
1
  6
CONTINUOUS
 62
     4
100
AcDbLine
 10
598.4907
 20
309.0424
 30
0.0
 11
583.7525
 21
309.0424
 31
0.0
  0
LINE
  5
505
100
AcDbEntity
  8
1
  6
CONTINUOUS
 62
     4
100
AcDbLine
 10
580.7525
 20
309.0424
 30
0.0
 11
561.2907
 21
309.0424
 31
0.0
  0
LINE
  5
506
100
AcDbEntity
  8
1
  6
CONTINUOUS
 62
     4
100
AcDbLine
 10
598.4907
 20
307.8424
 30
0.0
 11
583.7525
 21
307.8424
 31
0.0
  0
LINE
  5
507
100
AcDbEntity
  8
1
  6
CONTINUOUS
 62
     4
100
AcDbLine
 10
580.7525
 20
307.8424
 30
0.0
 11
561.2907
 21
307.8424
 31
0.0
  0
LINE
  5
508
100
AcDbEntity
  8
1
  6
CONTINUOUS
 62
     4
100
AcDbLine
 10
598.4907
 20
305.4424
 30
0.0
 11
583.7525
 21
305.4424
 31
0.0
  0
LINE
  5
509
100
AcDbEntity
  8
1
  6
CONTINUOUS
 62
     4
100
AcDbLine
 10
580.7525
 20
305.4424
 30
0.0
 11
561.2907
 21
305.4424
 31
0.0
  0
LINE
  5
50A
100
AcDbEntity
  8
1
  6
CONTINUOUS
 62
     4
100
AcDbLine
 10
581.1728
 20
285.8581
 30
0.0
 11
581.1728
 21
287.1541
 31
0.0
  0
LINE
  5
50B
100
AcDbEntity
  8
1
  6
CONTINUOUS
 62
     4
100
AcDbLine
 10
598.4907
 20
240.616
 30
0.0
 11
583.7525
 21
240.616
 31
0.0
  0
LINE
  5
50C
100
AcDbEntity
  8
1
  6
CONTINUOUS
 62
     4
100
AcDbLine
 10
580.7525
 20
240.616
 30
0.0
 11
561.2907
 21
240.616
 31
0.0
  0
LINE
  5
50D
100
AcDbEntity
  8
1
  6
CONTINUOUS
 62
     4
100
AcDbLine
 10
598.4907
 20
238.216
 30
0.0
 11
583.7525
 21
238.216
 31
0.0
  0
LINE
  5
50E
100
AcDbEntity
  8
1
  6
CONTINUOUS
 62
     4
100
AcDbLine
 10
580.7525
 20
238.216
 30
0.0
 11
561.2907
 21
238.216
 31
0.0
  0
LINE
  5
50F
100
AcDbEntity
  8
1
  6
CONTINUOUS
 62
     4
100
AcDbLine
 10
598.4907
 20
237.016
 30
0.0
 11
583.7525
 21
237.016
 31
0.0
  0
LINE
  5
510
100
AcDbEntity
  8
1
  6
CONTINUOUS
 62
     4
100
AcDbLine
 10
580.7525
 20
237.016
 30
0.0
 11
561.2907
 21
237.016
 31
0.0
  0
LINE
  5
511
100
AcDbEntity
  8
1
  6
CONTINUOUS
 62
     4
100
AcDbLine
 10
598.4907
 20
234.616
 30
0.0
 11
583.7525
 21
234.616
 31
0.0
  0
LINE
  5
512
100
AcDbEntity
  8
1
  6
CONTINUOUS
 62
     4
100
AcDbLine
 10
580.7525
 20
234.616
 30
0.0
 11
561.2907
 21
234.616
 31
0.0
  0
LINE
  5
513
100
AcDbEntity
  8
1
  6
DASHED
 62
     4
100
AcDbLine
 10
536.6907
 20
284.116
 30
0.0
 11
580.7525
 21
284.116
 31
0.0
  0
LINE
  5
514
100
AcDbEntity
  8
1
  6
DASHED
 62
     4
100
AcDbLine
 10
584.6525
 20
284.116
 30
0.0
 11
644.3907
 21
284.116
 31
0.0
  0
LINE
  5
515
100
AcDbEntity
  8
1
  6
DASHED
 62
     4
100
AcDbLine
 10
536.6907
 20
270.916
 30
0.0
 11
580.7525
 21
270.916
 31
0.0
  0
LINE
  5
516
100
AcDbEntity
  8
1
  6
DASHED
 62
     4
100
AcDbLine
 10
584.6525
 20
270.916
 30
0.0
 11
644.3907
 21
270.916
 31
0.0
  0
LINE
  5
517
100
AcDbEntity
  8
1
  6
CONTINUOUS
 62
     7
100
AcDbLine
 10
584.9525
 20
322.8424
 30
0.0
 11
653.9525
 21
322.8424
 31
0.0
  0
LINE
  5
518
100
AcDbEntity
  8
1
  6
CONTINUOUS
 62
     7
100
AcDbLine
 10
584.9525
 20
229.816
 30
0.0
 11
653.9525
 21
229.816
 31
0.0
  0
INSERT
  5
519
100
AcDbEntity
  8
1
  6
CONTINUOUS
 62
     1
100
AcDbBlockReference
  2
LDR
 10
652.7525
 20
322.8424
 30
0.0
 41
240.0
 42
240.0
 50
90.0
210
0.0
220
0.0
230
1.0
  0
INSERT
  5
51A
100
AcDbEntity
  8
1
  6
CONTINUOUS
 62
     1
100
AcDbBlockReference
  2
LDR
 10
652.7525
 20
322.8424
 30
0.0
 41
240.0
 42
240.0
 50
90.0
210
0.0
220
0.0
230
1.0
  0
INSERT
  5
51B
100
AcDbEntity
  8
1
  6
CONTINUOUS
 62
     1
100
AcDbBlockReference
  2
LDR
 10
652.7525
 20
229.816
 30
0.0
 41
240.0
 42
240.0
 50
270.0
210
0.0
220
0.0
230
1.0
  0
INSERT
  5
51C
100
AcDbEntity
  8
1
  6
CONTINUOUS
 62
     1
100
AcDbBlockReference
  2
LDR
 10
652.7525
 20
229.816
 30
0.0
 41
240.0
 42
240.0
 50
270.0
210
0.0
220
0.0
230
1.0
  0
LINE
  5
51D
100
AcDbEntity
  8
1
  6
CONTINUOUS
 62
     7
100
AcDbLine
 10
561.5282
 20
338.5747
 30
0.0
 11
576.2325
 21
349.2416
 31
0.0
  0
LINE
  5
51E
100
AcDbEntity
  8
1
  6
CONTINUOUS
 62
     7
100
AcDbLine
 10
576.2325
 20
349.2416
 30
0.0
 11
584.6804
 21
349.2416
 31
0.0
  0
LINE
  5
51F
100
AcDbEntity
  8
1
  6
CONTINUOUS
 62
     7
100
AcDbLine
 10
558.9736
 20
310.8372
 30
0.0
 11
586.5365
 21
340.6982
 31
0.0
  0
LINE
  5
520
100
AcDbEntity
  8
1
  6
CONTINUOUS
 62
     7
100
AcDbLine
 10
586.5365
 20
340.6982
 30
0.0
 11
594.2979
 21
340.6982
 31
0.0
  0
INSERT
  5
521
100
AcDbEntity
  8
1
  6
CONTINUOUS
 62
     1
100
AcDbBlockReference
  2
LDR
 10
561.5282
 20
338.5747
 30
0.0
 41
240.0
 42
240.0
 50
215.958116
210
0.0
220
0.0
230
1.0
  0
INSERT
  5
522
100
AcDbEntity
  8
1
  6
CONTINUOUS
 62
     1
100
AcDbBlockReference
  2
LDR
 10
561.5282
 20
338.5747
 30
0.0
 41
240.0
 42
240.0
 50
215.958116
210
0.0
220
0.0
230
1.0
  0
INSERT
  5
523
100
AcDbEntity
  8
1
  6
CONTINUOUS
 62
     1
100
AcDbBlockReference
  2
LDR
 10
558.9736
 20
310.8372
 30
0.0
 41
240.000001
 42
240.000001
 50
227.291749
210
0.0
220
0.0
230
1.0
  0
LINE
  5
524
100
AcDbEntity
  8
1
  6
CONTINUOUS
 62
     7
100
AcDbLine
 10
562.5536
 20
260.8569
 30
0.0
 11
565.7218
 21
253.905
 31
0.0
  0
LINE
  5
525
100
AcDbEntity
  8
1
  6
CONTINUOUS
 62
     7
100
AcDbLine
 10
565.7218
 20
253.905
 30
0.0
 11
568.6856
 21
253.905
 31
0.0
  0
LINE
  5
526
100
AcDbEntity
  8
1
  6
CONTINUOUS
 62
     7
100
AcDbLine
 10
547.8367
 20
259.5279
 30
0.0
 11
542.7267
 21
251.8604
 31
0.0
  0
LINE
  5
527
100
AcDbEntity
  8
1
  6
CONTINUOUS
 62
     7
100
AcDbLine
 10
542.7267
 20
251.8604
 30
0.0
 11
528.3164
 21
251.8604
 31
0.0
  0
INSERT
  5
528
100
AcDbEntity
  8
1
  6
CONTINUOUS
 62
     1
100
AcDbBlockReference
  2
LDR
 10
562.5536
 20
260.8569
 30
0.0
 41
240.0
 42
240.0
 50
114.50025
210
0.0
220
0.0
230
1.0
  0
INSERT
  5
529
100
AcDbEntity
  8
1
  6
CONTINUOUS
 62
     1
100
AcDbBlockReference
  2
LDR
 10
547.8367
 20
259.5279
 30
0.0
 41
240.000001
 42
240.000001
 50
56.318555
210
0.0
220
0.0
230
1.0
  0
INSERT
  5
52A
100
AcDbEntity
  8
1
  6
CONTINUOUS
 62
     1
100
AcDbBlockReference
  2
LDR
 10
547.8367
 20
259.5279
 30
0.0
 41
240.000001
 42
240.000001
 50
56.318555
210
0.0
220
0.0
230
1.0
  0
LINE
  5
52B
100
AcDbEntity
  8
1
  6
CONTINUOUS
 62
     7
100
AcDbLine
 10
558.4655
 20
235.1964
 30
0.0
 11
563.0646
 21
224.8708
 31
0.0
  0
LINE
  5
52C
100
AcDbEntity
  8
1
  6
CONTINUOUS
 62
     7
100
AcDbLine
 10
563.0646
 20
224.8708
 30
0.0
 11
565.2108
 21
224.8708
 31
0.0
  0
INSERT
  5
52D
100
AcDbEntity
  8
1
  6
CONTINUOUS
 62
     1
100
AcDbBlockReference
  2
LDR
 10
558.4655
 20
235.1964
 30
0.0
 41
239.999999
 42
239.999999
 50
114.008551
210
0.0
220
0.0
230
1.0
  0
INSERT
  5
52E
100
AcDbEntity
  8
1
  6
CONTINUOUS
 62
     1
100
AcDbBlockReference
  2
LDR
 10
558.4655
 20
235.1964
 30
0.0
 41
239.999999
 42
239.999999
 50
114.008551
210
0.0
220
0.0
230
1.0
  0
TEXT
  5
52F
100
AcDbEntity
  8
1
  6
CONTINUOUS
 62
     7
100
AcDbText
 10
568.7878
 20
252.2693
 30
0.0
 40
3.0
  1
TEE
  7
MONOTXT
210
0.0
220
0.0
230
1.0
100
AcDbText
  0
TEXT
  5
530
100
AcDbEntity
  8
1
  6
CONTINUOUS
 62
     7
100
AcDbText
 10
565.9262
 20
223.644
 30
0.0
 40
3.0
  1
"U" BOLT
  7
MONOTXT
210
0.0
220
0.0
230
1.0
100
AcDbText
  0
TEXT
  5
531
100
AcDbEntity
  8
1
  6
CONTINUOUS
 62
     7
100
AcDbText
 10
596.1775
 20
340.1898
 30
0.0
 40
3.0
  1
"U" BOLT
  7
MONOTXT
210
0.0
220
0.0
230
1.0
100
AcDbText
  0
LINE
  5
532
100
AcDbEntity
  8
1
  6
CONTINUOUS
 62
     7
100
AcDbLine
 10
652.7525
 20
322.8424
 30
0.0
 11
652.7525
 21
286.325
 31
0.0
  0
LINE
  5
533
100
AcDbEntity
  8
1
  6
CONTINUOUS
 62
     7
100
AcDbLine
 10
652.7525
 20
268.3875
 30
0.0
 11
652.7525
 21
229.816
 31
0.0
  0
TEXT
  5
534
100
AcDbEntity
  8
1
  6
CONTINUOUS
 62
     7
100
AcDbText
 10
435.2688
 20
213.7006
 30
0.0
 40
3.0
  1
BOLT SIZE AS REQUIRED
  7
MONOTXT
 72
     4
 11
463.8396
 21
215.2006
 31
0.0
210
0.0
220
0.0
230
1.0
100
AcDbText
  0
TEXT
  5
535
100
AcDbEntity
  8
1
  6
CONTINUOUS
 62
     7
100
AcDbText
 10
449.5602
 20
208.3006
 30
0.0
 40
3.0
  1
SCALE: NONE
  7
MONOTXT
 72
     4
 11
463.8397
 21
209.8006
 31
0.0
210
0.0
220
0.0
230
1.0
100
AcDbText
  0
LINE
  5
536
100
AcDbEntity
  8
1
  6
CONTINUOUS
 62
     7
100
AcDbLine
 10
377.7274
 20
160.434
 30
0.0
 11
522.3337
 21
160.434
 31
0.0
  0
LINE
  5
537
100
AcDbEntity
  8
1
  6
CONTINUOUS
 62
     7
100
AcDbLine
 10
415.1626
 20
152.3059
 30
0.0
 11
484.852
 21
152.3059
 31
0.0
  0
TEXT
  5
538
100
AcDbEntity
  8
1
  6
CONTINUOUS
 62
     7
100
AcDbText
 10
380.0156
 20
161.963
 30
0.0
 40
4.8
  1
FLASHER AND SIGN MOUNTING DETAIL
  7
MONOTXT
 72
     4
 11
450.3336
 21
164.363
 31
0.0
210
0.0
220
0.0
230
1.0
100
AcDbText
  0
TEXT
  5
539
100
AcDbEntity
  8
1
  6
CONTINUOUS
 62
     7
100
AcDbText
 10
416.866
 20
153.563
 30
0.0
 40
4.8
  1
MAST ARM MOUNT
  7
MONOTXT
 72
     4
 11
450.3336
 21
155.963
 31
0.0
210
0.0
220
0.0
230
1.0
100
AcDbText
  0
LINE
  5
53A
100
AcDbEntity
  8
1
  6
CONTINUOUS
 62
     7
100
AcDbLine
 10
720.3793
 20
416.3642
 30
0.0
 11
741.8354
 21
416.3642
 31
0.0
  0
TEXT
  5
53B
100
AcDbEntity
  8
1
  6
CONTINUOUS
 62
     7
100
AcDbText
 10
569.4324
 20
471.8473
 30
0.0
 40
3.0
  1
GENERAL NOTES:
  7
MONOTXT
210
0.0
220
0.0
230
1.0
100
AcDbText
  0
LINE
  5
53C
100
AcDbEntity
  8
1
  6
CONTINUOUS
 62
     7
100
AcDbLine
 10
567.6595
 20
470.3272
 30
0.0
 11
609.0197
 21
470.3272
 31
0.0
  0
LINE
  5
53D
100
AcDbEntity
  8
1
  6
CONTINUOUS
 62
     7
100
AcDbLine
 10
570.2907
 20
363.316
 30
0.0
 11
581.0907
 21
363.316
 31
0.0
  0
LINE
  5
53E
100
AcDbEntity
  8
1
  6
CONTINUOUS
 62
     7
100
AcDbLine
 10
562.4907
 20
354.6161
 30
0.0
 11
581.0907
 21
354.6161
 31
0.0
  0
LINE
  5
53F
100
AcDbEntity
  8
1
  6
CONTINUOUS
 62
     7
100
AcDbLine
 10
579.8907
 20
363.316
 30
0.0
 11
579.8907
 21
354.6161
 31
0.0
  0
INSERT
  5
540
100
AcDbEntity
  8
1
  6
CONTINUOUS
 62
     1
100
AcDbBlockReference
  2
LDR
 10
579.8907
 20
363.316
 30
0.0
 41
240.0
 42
240.0
 50
90.0
210
0.0
220
0.0
230
1.0
  0
INSERT
  5
541
100
AcDbEntity
  8
1
  6
CONTINUOUS
 62
     1
100
AcDbBlockReference
  2
LDR
 10
579.8907
 20
363.316
 30
0.0
 41
240.0
 42
240.0
 50
90.0
210
0.0
220
0.0
230
1.0
  0
INSERT
  5
542
100
AcDbEntity
  8
1
  6
CONTINUOUS
 62
     1
100
AcDbBlockReference
  2
LDR
 10
579.8907
 20
354.6161
 30
0.0
 41
240.0
 42
240.0
 50
270.0
210
0.0
220
0.0
230
1.0
  0
INSERT
  5
543
100
AcDbEntity
  8
1
  6
CONTINUOUS
 62
     1
100
AcDbBlockReference
  2
LDR
 10
579.8907
 20
354.6161
 30
0.0
 41
240.0
 42
240.0
 50
270.0
210
0.0
220
0.0
230
1.0
  0
LINE
  5
544
100
AcDbEntity
  8
1
  6
CONTINUOUS
 62
     7
100
AcDbLine
 10
600.2001
 20
140.8782
 30
0.0
 11
605.0001
 21
140.8782
 31
0.0
  0
LINE
  5
545
100
AcDbEntity
  8
1
  6
CONTINUOUS
 62
     7
100
AcDbLine
 10
602.6001
 20
145.0351
 30
0.0
 11
600.2001
 21
140.8782
 31
0.0
  0
LINE
  5
546
100
AcDbEntity
  8
1
  6
CONTINUOUS
 62
     7
100
AcDbLine
 10
605.0001
 20
140.8782
 30
0.0
 11
602.6001
 21
145.0351
 31
0.0
  0
TEXT
  5
547
100
AcDbEntity
  8
1
  6
CONTINUOUS
 62
     7
100
AcDbText
 10
602.2136
 20
141.2799
 30
0.0
 40
2.4
  1
1
  7
MONOTXT
210
0.0
220
0.0
230
1.0
100
AcDbText
  0
TEXT
  5
548
100
AcDbEntity
  8
1
  6
CONTINUOUS
 62
     7
100
AcDbText
 10
607.2614
 20
141.5605
 30
0.0
 40
2.4
  1
SIGNATURE BLOCK
  7
MONOTXT
210
0.0
220
0.0
230
1.0
100
AcDbText
  0
TEXT
  5
549
100
AcDbEntity
  8
1
  6
CONTINUOUS
 62
     7
100
AcDbText
 10
607.1163
 20
136.0456
 30
0.0
 40
2.4
  1
REVISED NOTE 1, ADDED NOTE 6.
  7
MONOTXT
210
0.0
220
0.0
230
1.0
100
AcDbText
  0
LINE
  5
54A
100
AcDbEntity
  8
1
  6
CONTINUOUS
 62
     7
100
AcDbLine
 10
603.2456
 20
35.3666
 30
0.0
 11
608.0456
 21
35.3666
 31
0.0
  0
LINE
  5
54B
100
AcDbEntity
  8
1
  6
CONTINUOUS
 62
     7
100
AcDbLine
 10
605.6456
 20
39.5235
 30
0.0
 11
603.2456
 21
35.3666
 31
0.0
  0
LINE
  5
54C
100
AcDbEntity
  8
1
  6
CONTINUOUS
 62
     7
100
AcDbLine
 10
608.0456
 20
35.3666
 30
0.0
 11
605.6456
 21
39.5235
 31
0.0
  0
TEXT
  5
54D
100
AcDbEntity
  8
1
  6
CONTINUOUS
 62
     7
100
AcDbText
 10
604.8239
 20
35.7683
 30
0.0
 40
2.4
  1
2
  7
MONOTXT
210
0.0
220
0.0
230
1.0
100
AcDbText
  0
LINE
  5
54E
100
AcDbEntity
  8
1
  6
CONTINUOUS
 62
     7
100
AcDbLine
 10
599.8855
 20
130.1083
 30
0.0
 11
604.6855
 21
130.1083
 31
0.0
  0
LINE
  5
54F
100
AcDbEntity
  8
1
  6
CONTINUOUS
 62
     7
100
AcDbLine
 10
602.2855
 20
134.2652
 30
0.0
 11
599.8855
 21
130.1083
 31
0.0
  0
LINE
  5
550
100
AcDbEntity
  8
1
  6
CONTINUOUS
 62
     7
100
AcDbLine
 10
604.6855
 20
130.1083
 30
0.0
 11
602.2855
 21
134.2652
 31
0.0
  0
TEXT
  5
551
100
AcDbEntity
  8
1
  6
CONTINUOUS
 62
     7
100
AcDbText
 10
601.4638
 20
130.51
 30
0.0
 40
2.4
  1
3
  7
MONOTXT
210
0.0
220
0.0
230
1.0
100
AcDbText
  0
TEXT
  5
552
100
AcDbEntity
  8
1
  6
CONTINUOUS
 62
     7
100
AcDbText
 10
606.8467
 20
130.9843
 30
0.0
 40
2.4
  1
ADDED METRIC
  7
MONOTXT
210
0.0
220
0.0
230
1.0
100
AcDbText
  0
LINE
  5
553
100
AcDbEntity
  8
1
  6
CONTINUOUS
 62
     7
100
AcDbLine
 10
602.9207
 20
29.7373
 30
0.0
 11
607.7207
 21
29.7373
 31
0.0
  0
LINE
  5
554
100
AcDbEntity
  8
1
  6
CONTINUOUS
 62
     7
100
AcDbLine
 10
605.3207
 20
33.8942
 30
0.0
 11
602.9207
 21
29.7373
 31
0.0
  0
LINE
  5
555
100
AcDbEntity
  8
1
  6
CONTINUOUS
 62
     7
100
AcDbLine
 10
607.7207
 20
29.7373
 30
0.0
 11
605.3207
 21
33.8942
 31
0.0
  0
TEXT
  5
556
100
AcDbEntity
  8
1
  6
CONTINUOUS
 62
     7
100
AcDbText
 10
604.499
 20
30.139
 30
0.0
 40
2.4
  1
3
  7
MONOTXT
210
0.0
220
0.0
230
1.0
100
AcDbText
  0
TEXT
  5
557
100
AcDbEntity
  8
1
  6
CONTINUOUS
 62
     1
100
AcDbText
 10
611.8783
 20
30.3045
 30
0.0
 40
2.4
  1
05-02-94
  7
MONOTXT
 72
     1
 11
620.5995
 21
32.7045
 31
0.0
210
0.0
220
0.0
230
1.0
100
AcDbText
 73
     3
  0
TEXT
  5
558
100
AcDbEntity
  8
1
  6
CONTINUOUS
 62
     7
100
AcDbText
 10
349.315
 20
350.706
 30
0.0
 40
3.0
  1
50.8mmx57.2mmx3.18mm "Z" BAR
  7
MONOTXT
210
0.0
220
0.0
230
1.0
100
AcDbText
  0
TEXT
  5
559
100
AcDbEntity
  8
1
  6
CONTINUOUS
 62
     7
100
AcDbText
 10
365.2359
 20
322.5597
 30
0.0
 40
3.0
  1
17.5mmx50.0mm SLOTTED HOLES IN
  7
MONOTXT
 11
365.2359
 21
325.5597
 31
0.0
210
0.0
220
0.0
230
1.0
100
AcDbText
 73
     3
  0
TEXT
  5
55A
100
AcDbEntity
  8
1
  6
CONTINUOUS
 62
     7
100
AcDbText
 10
365.2359
 20
317.1597
 30
0.0
 40
3.0
  1
MOUNTING ANGLE
  7
MONOTXT
 11
365.2359
 21
320.1597
 31
0.0
210
0.0
220
0.0
230
1.0
100
AcDbText
 73
     3
  0
TEXT
  5
55B
100
AcDbEntity
  8
1
  6
CONTINUOUS
 62
     7
100
AcDbText
 10
328.8994
 20
271.4357
 30
0.0
 40
3.0
  1
140mm
 50
90.0
  7
MONOTXT
210
0.0
220
0.0
230
1.0
100
AcDbText
  0
TEXT
  5
55C
100
AcDbEntity
  8
1
  6
CONTINUOUS
 62
     7
100
AcDbText
 10
400.0244
 20
277.7817
 30
0.0
 40
3.0
  1
15.88mm BOLT
  7
MONOTXT
210
0.0
220
0.0
230
1.0
100
AcDbText
  0
TEXT
  5
55D
100
AcDbEntity
  8
1
  6
CONTINUOUS
 62
     7
100
AcDbText
 10
368.029
 20
251.5912
 30
0.0
 40
3.0
  1
4.76mmx76.2mm WIDE CLAMP HI-STRENGTH
  7
MONOTXT
 11
368.029
 21
254.5912
 31
0.0
210
0.0
220
0.0
230
1.0
100
AcDbText
 73
     3
  0
TEXT
  5
55E
100
AcDbEntity
  8
1
  6
CONTINUOUS
 62
     7
100
AcDbText
 10
368.029
 20
246.1912
 30
0.0
 40
3.0
  1
LOW ALLOY
  7
MONOTXT
 11
368.029
 21
249.1912
 31
0.0
210
0.0
220
0.0
230
1.0
100
AcDbText
 73
     3
  0
TEXT
  5
55F
100
AcDbEntity
  8
1
  6
CONTINUOUS
 62
     7
100
AcDbText
 10
373.336
 20
232.5918
 30
0.0
 40
3.0
  1
88.9mmx63.5mmx7.94mm SIGN MOUNTING
  7
MONOTXT
 11
373.336
 21
235.5918
 31
0.0
210
0.0
220
0.0
230
1.0
100
AcDbText
 73
     3
  0
TEXT
  5
560
100
AcDbEntity
  8
1
  6
CONTINUOUS
 62
     7
100
AcDbText
 10
373.336
 20
227.1918
 30
0.0
 40
3.0
  1
ANGLES
  7
MONOTXT
 11
373.336
 21
230.1918
 31
0.0
210
0.0
220
0.0
230
1.0
100
AcDbText
 73
     3
  0
TEXT
  5
561
100
AcDbEntity
  8
1
  6
CONTINUOUS
 62
     7
100
AcDbText
 10
362.6038
 20
212.9601
 30
0.0
 40
3.0
  1
88.9mm
  7
MONOTXT
210
0.0
220
0.0
230
1.0
100
AcDbText
  0
TEXT
  5
562
100
AcDbEntity
  8
1
  6
CONTINUOUS
 62
     7
100
AcDbText
 10
347.1843
 20
202.9438
 30
0.0
 40
3.0
  1
50.8mmx57.2mmx3.18mm "Z" BAR
  7
MONOTXT
210
0.0
220
0.0
230
1.0
100
AcDbText
  0
TEXT
  5
563
100
AcDbEntity
  8
1
  6
CONTINUOUS
 62
     7
100
AcDbText
 10
653.8322
 20
269.3842
 30
0.0
 40
3.0
  1
750mm
 50
90.0
  7
MONOTXT
210
0.0
220
0.0
230
1.0
100
AcDbText
  0
TEXT
  5
564
100
AcDbEntity
  8
1
  6
CONTINUOUS
 62
     7
100
AcDbText
 10
581.3999
 20
357.4807
 30
0.0
 40
3.0
  1
305mm
  7
MONOTXT
210
0.0
220
0.0
230
1.0
100
AcDbText
  0
TEXT
  5
565
100
AcDbEntity
  8
1
  6
CONTINUOUS
 62
     7
100
AcDbText
 10
569.1791
 20
461.2469
 30
0.0
 40
3.0
  1
1.   TRAFFIC SIGN AND SIGNAL HEAD SIZE (12mm MIN.) WILL BE AS SHOWN ON CONTRACT PLANS.
  7
MONOTXT
 11
569.1791
 21
464.2469
 31
0.0
210
0.0
220
0.0
230
1.0
100
AcDbText
 73
     3
  0
TEXT
  5
566
100
AcDbEntity
  8
1
  6
CONTINUOUS
 62
     7
100
AcDbText
 10
569.1791
 20
455.8469
 30
0.0
 40
3.0
  1
 
  7
MONOTXT
 11
569.1791
 21
458.8469
 31
0.0
210
0.0
220
0.0
230
1.0
100
AcDbText
 73
     3
  0
TEXT
  5
567
100
AcDbEntity
  8
1
  6
CONTINUOUS
 62
     7
100
AcDbText
 10
569.1791
 20
450.4469
 30
0.0
 40
3.0
  1
2.   ALL LENS VISORS SHALL BE OF THE "CUT-AWAY" TYPE UNLESS OTHERWISE SPECIFIED.
  7
MONOTXT
 11
569.1791
 21
453.4469
 31
0.0
210
0.0
220
0.0
230
1.0
100
AcDbText
 73
     3
  0
TEXT
  5
568
100
AcDbEntity
  8
1
  6
CONTINUOUS
 62
     7
100
AcDbText
 10
569.1791
 20
445.0469
 30
0.0
 40
3.0
  1
 
  7
MONOTXT
 11
569.1791
 21
448.0469
 31
0.0
210
0.0
220
0.0
230
1.0
100
AcDbText
 73
     3
  0
TEXT
  5
569
100
AcDbEntity
  8
1
  6
CONTINUOUS
 62
     7
100
AcDbText
 10
569.1791
 20
439.6469
 30
0.0
 40
3.0
  1
3.   ALL CONDUIT SHALL BE 38mm DIAMETER UNLESS OTHERWISE NOTED.
  7
MONOTXT
 11
569.1791
 21
442.6469
 31
0.0
210
0.0
220
0.0
230
1.0
100
AcDbText
 73
     3
  0
TEXT
  5
56A
100
AcDbEntity
  8
1
  6
CONTINUOUS
 62
     7
100
AcDbText
 10
569.1791
 20
434.2469
 30
0.0
 40
3.0
  1
 
  7
MONOTXT
 11
569.1791
 21
437.2469
 31
0.0
210
0.0
220
0.0
230
1.0
100
AcDbText
 73
     3
  0
TEXT
  5
56B
100
AcDbEntity
  8
1
  6
CONTINUOUS
 62
     7
100
AcDbText
 10
569.1791
 20
428.8469
 30
0.0
 40
3.0
  1
4.   ALL MESSENGER CABLES SHALL BE A MINIMUM OF 9.5mm.
  7
MONOTXT
 11
569.1791
 21
431.8469
 31
0.0
210
0.0
220
0.0
230
1.0
100
AcDbText
 73
     3
  0
TEXT
  5
56C
100
AcDbEntity
  8
1
  6
CONTINUOUS
 62
     7
100
AcDbText
 10
569.1791
 20
423.4469
 30
0.0
 40
3.0
  1
 
  7
MONOTXT
 11
569.1791
 21
426.4469
 31
0.0
210
0.0
220
0.0
230
1.0
100
AcDbText
 73
     3
  0
TEXT
  5
56D
100
AcDbEntity
  8
1
  6
CONTINUOUS
 62
     7
100
AcDbText
 10
569.1791
 20
418.0469
 30
0.0
 40
3.0
  1
5.   BOLT AND NUT ASSEMBLIES MAY BE STAINLESS STEEL OR CADMIUM PLATED.
  7
MONOTXT
 11
569.1791
 21
421.0469
 31
0.0
210
0.0
220
0.0
230
1.0
100
AcDbText
 73
     3
  0
TEXT
  5
56E
100
AcDbEntity
  8
1
  6
CONTINUOUS
 62
     7
100
AcDbText
 10
569.1791
 20
412.6469
 30
0.0
 40
3.0
  1
 
  7
MONOTXT
 11
569.1791
 21
415.6469
 31
0.0
210
0.0
220
0.0
230
1.0
100
AcDbText
 73
     3
  0
TEXT
  5
56F
100
AcDbEntity
  8
1
  6
CONTINUOUS
 62
     7
100
AcDbText
 10
569.1791
 20
407.2469
 30
0.0
 40
3.0
  1
6.   BOTTOM OF SIGN SHALL BE 2.4m MIN. TO 3.0m MAX.
  7
MONOTXT
 11
569.1791
 21
410.2469
 31
0.0
210
0.0
220
0.0
230
1.0
100
AcDbText
 73
     3
  0
TEXT
  5
570
100
AcDbEntity
  8
1
  6
CONTINUOUS
 62
     7
100
AcDbText
 10
170.6788
 20
441.9607
 30
0.0
 40
3.6
  1
31.8mm CONDUIT
  7
MONOTXT
210
0.0
220
0.0
230
1.0
100
AcDbText
  0
TEXT
  5
571
100
AcDbEntity
  8
1
  6
CONTINUOUS
 62
     7
100
AcDbText
 10
156.2968
 20
432.9032
 30
0.0
 40
3.6
  1
31.8mm CONDUIT
  7
MONOTXT
210
0.0
220
0.0
230
1.0
100
AcDbText
  0
TEXT
  5
572
100
AcDbEntity
  8
1
  6
CONTINUOUS
 62
     7
100
AcDbText
 10
160.7357
 20
266.1379
 30
0.0
 40
3.6
  1
31.8mm CONDUIT
  7
MONOTXT
210
0.0
220
0.0
230
1.0
100
AcDbText
  0
TEXT
  5
573
100
AcDbEntity
  8
1
  6
CONTINUOUS
 62
     7
100
AcDbText
 10
156.2968
 20
245.0036
 30
0.0
 40
3.6
  1
31.8mm CONDUIT
  7
MONOTXT
210
0.0
220
0.0
230
1.0
100
AcDbText
  0
TEXT
  5
574
100
AcDbEntity
  8
1
  6
CONTINUOUS
 62
     7
100
AcDbText
 10
176.9599
 20
202.3115
 30
0.0
 40
3.0
  1
7.94mm STAINLESS STEEL BOLT
  7
MONOTXT
210
0.0
220
0.0
230
1.0
100
AcDbText
  0
TEXT
  5
575
100
AcDbEntity
  8
1
  6
CONTINUOUS
 62
     7
100
AcDbText
 10
585.4709
 20
347.4613
 30
0.0
 40
3.0
  1
38.1mm CONDUIT
  7
MONOTXT
210
0.0
220
0.0
230
1.0
100
AcDbText
  0
TEXT
  5
576
100
AcDbEntity
  8
1
  6
CONTINUOUS
 62
     7
100
AcDbText
 10
508.8742
 20
255.8023
 30
0.0
 40
3.0
  1
31.8mm
  7
MONOTXT
210
0.0
220
0.0
230
1.0
100
AcDbText
  0
TEXT
  5
577
100
AcDbEntity
  8
1
  6
CONTINUOUS
 62
     7
100
AcDbText
 10
508.8742
 20
250.4023
 30
0.0
 40
3.0
  1
CONDUIT
  7
MONOTXT
210
0.0
220
0.0
230
1.0
100
AcDbText
  0
ENDSEC
  0
SECTION
  2
OBJECTS
  0
DICTIONARY
  5
19
100
AcDbDictionary
  3
ACAD_GROUP
350
1A
  3
ACAD_MLINESTYLE
350
1B
  0
DICTIONARY
  5
1A
102
{ACAD_REACTORS
330
19
102
}
100
AcDbDictionary
  0
DICTIONARY
  5
1B
102
{ACAD_REACTORS
330
19
102
}
100
AcDbDictionary
  3
STANDARD
350
1C
  0
MLINESTYLE
  5
1C
102
{ACAD_REACTORS
330
1B
102
}
100
AcDbMlineStyle
  2
STANDARD
 70
     0
  3

 62
     0
 51
90.0
 52
90.0
 71
     2
 49
0.5
 62
   256
  6
BYLAYER
 49
-0.5
 62
   256
  6
BYLAYER
  0
ENDSEC
  0
EOF
