  0
SECTION
  2
HEADER
  9
$ACADVER
  1
AC1014
  9
$ACADMAINTVER
 70
     0
  9
$DWGCODEPAGE
  3
ANSI_1252
  9
$INSBASE
 10
0.0
 20
0.0
 30
0.0
  9
$EXTMIN
 10
-279.3525
 20
-92.063
 30
0.0
  9
$EXTMAX
 10
426.652
 20
375.9574
 30
0.0
  9
$LIMMIN
 10
0.0
 20
0.0
  9
$LIMMAX
 10
12.0
 20
9.0
  9
$ORTHOMODE
 70
     0
  9
$REGENMODE
 70
     1
  9
$FILLMODE
 70
     1
  9
$QTEXTMODE
 70
     0
  9
$MIRRTEXT
 70
     1
  9
$DRAGMODE
 70
     2
  9
$LTSCALE
 40
1.0
  9
$OSMODE
 70
     0
  9
$ATTMODE
 70
     1
  9
$TEXTSIZE
 40
0.2
  9
$TRACEWID
 40
0.05
  9
$TEXTSTYLE
  7
STANDARD
  9
$CLAYER
  8
0
  9
$CELTYPE
  6
CONTINUOUS
  9
$CECOLOR
 62
   256
  9
$CELTSCALE
 40
1.0
  9
$DELOBJ
 70
     1
  9
$DISPSILH
 70
     0
  9
$DIMSCALE
 40
1.0
  9
$DIMASZ
 40
0.18
  9
$DIMEXO
 40
0.0625
  9
$DIMDLI
 40
0.38
  9
$DIMRND
 40
0.0
  9
$DIMDLE
 40
0.0
  9
$DIMEXE
 40
0.18
  9
$DIMTP
 40
0.0
  9
$DIMTM
 40
0.0
  9
$DIMTXT
 40
0.18
  9
$DIMCEN
 40
0.09
  9
$DIMTSZ
 40
0.0
  9
$DIMTOL
 70
     0
  9
$DIMLIM
 70
     0
  9
$DIMTIH
 70
     1
  9
$DIMTOH
 70
     1
  9
$DIMSE1
 70
     0
  9
$DIMSE2
 70
     0
  9
$DIMTAD
 70
     0
  9
$DIMZIN
 70
     0
  9
$DIMBLK
  1

  9
$DIMASO
 70
     1
  9
$DIMSHO
 70
     1
  9
$DIMPOST
  1

  9
$DIMAPOST
  1

  9
$DIMALT
 70
     0
  9
$DIMALTD
 70
     2
  9
$DIMALTF
 40
25.4
  9
$DIMLFAC
 40
1.0
  9
$DIMTOFL
 70
     0
  9
$DIMTVP
 40
0.0
  9
$DIMTIX
 70
     0
  9
$DIMSOXD
 70
     0
  9
$DIMSAH
 70
     0
  9
$DIMBLK1
  1

  9
$DIMBLK2
  1

  9
$DIMSTYLE
  2
STANDARD
  9
$DIMCLRD
 70
     0
  9
$DIMCLRE
 70
     0
  9
$DIMCLRT
 70
     0
  9
$DIMTFAC
 40
1.0
  9
$DIMGAP
 40
0.09
  9
$DIMJUST
 70
     0
  9
$DIMSD1
 70
     0
  9
$DIMSD2
 70
     0
  9
$DIMTOLJ
 70
     1
  9
$DIMTZIN
 70
     0
  9
$DIMALTZ
 70
     0
  9
$DIMALTTZ
 70
     0
  9
$DIMFIT
 70
     3
  9
$DIMUPT
 70
     0
  9
$DIMUNIT
 70
     2
  9
$DIMDEC
 70
     4
  9
$DIMTDEC
 70
     4
  9
$DIMALTU
 70
     2
  9
$DIMALTTD
 70
     2
  9
$DIMTXSTY
  7
STANDARD
  9
$DIMAUNIT
 70
     0
  9
$LUNITS
 70
     2
  9
$LUPREC
 70
     4
  9
$SKETCHINC
 40
0.1
  9
$FILLETRAD
 40
0.0
  9
$AUNITS
 70
     0
  9
$AUPREC
 70
     0
  9
$MENU
  1
acad
  9
$ELEVATION
 40
0.0
  9
$PELEVATION
 40
0.0
  9
$THICKNESS
 40
0.0
  9
$LIMCHECK
 70
     0
  9
$BLIPMODE
 70
     1
  9
$CHAMFERA
 40
0.0
  9
$CHAMFERB
 40
0.0
  9
$CHAMFERC
 40
0.0
  9
$CHAMFERD
 40
0.0
  9
$SKPOLY
 70
     0
  9
$TDCREATE
 40
2451803.572870371
  9
$TDUPDATE
 40
2451803.572870371
  9
$TDINDWG
 40
0.0000000000
  9
$TDUSRTIMER
 40
0.0000000000
  9
$USRTIMER
 70
     1
  9
$ANGBASE
 50
0.0
  9
$ANGDIR
 70
     0
  9
$PDMODE
 70
     0
  9
$PDSIZE
 40
0.0
  9
$PLINEWID
 40
0.0
  9
$COORDS
 70
     0
  9
$SPLFRAME
 70
     0
  9
$SPLINETYPE
 70
     6
  9
$SPLINESEGS
 70
    10
  9
$ATTDIA
 70
     0
  9
$ATTREQ
 70
     1
  9
$HANDLING
 70
     1
  9
$HANDSEED
  5
542
  9
$SURFTAB1
 70
     6
  9
$SURFTAB2
 70
     6
  9
$SURFTYPE
 70
     6
  9
$SURFU
 70
     6
  9
$SURFV
 70
     6
  9
$UCSNAME
  2

  9
$UCSORG
 10
0.0
 20
0.0
 30
0.0
  9
$UCSXDIR
 10
1.0
 20
0.0
 30
0.0
  9
$UCSYDIR
 10
0.0
 20
1.0
 30
0.0
  9
$PUCSNAME
  2

  9
$PUCSORG
 10
0.0
 20
0.0
 30
0.0
  9
$PUCSXDIR
 10
1.0
 20
0.0
 30
0.0
  9
$PUCSYDIR
 10
0.0
 20
1.0
 30
0.0
  9
$USERI1
 70
     0
  9
$USERI2
 70
     0
  9
$USERI3
 70
     0
  9
$USERI4
 70
     0
  9
$USERI5
 70
     0
  9
$USERR1
 40
0.0
  9
$USERR2
 40
0.0
  9
$USERR3
 40
0.0
  9
$USERR4
 40
0.0
  9
$USERR5
 40
0.0
  9
$WORLDVIEW
 70
     1
  9
$SHADEDGE
 70
     3
  9
$SHADEDIF
 70
    70
  9
$TILEMODE
 70
     1
  9
$MAXACTVP
 70
    16
  9
$PINSBASE
 10
0.0
 20
0.0
 30
0.0
  9
$PLIMCHECK
 70
     0
  9
$PEXTMIN
 10
-1.000000E+20
 20
-1.000000E+20
 30
-1.000000E+20
  9
$PEXTMAX
 10
-1.000000E+20
 20
-1.000000E+20
 30
-1.000000E+20
  9
$PLIMMIN
 10
0.0
 20
0.0
  9
$PLIMMAX
 10
12.0
 20
9.0
  9
$UNITMODE
 70
     0
  9
$VISRETAIN
 70
     0
  9
$PLINEGEN
 70
     1
  9
$PSLTSCALE
 70
     0
  9
$TREEDEPTH
 70
  3020
  9
$PICKSTYLE
 70
     1
  9
$CMLSTYLE
  2
STANDARD
  9
$CMLJUST
 70
     0
  9
$CMLSCALE
 40
1.0
  9
$PROXYGRAPHICS
 70
     0
  9
$MEASUREMENT
 70
     0
  0
ENDSEC
  0
SECTION
  2
CLASSES
  0
CLASS
  1
LWPOLYLINE
  2
AcDbPolyline
  3
"AutoCAD"
 90
        0
280
     0
281
     1
  0
CLASS
  1
IMAGE
  2
AcDbRasterImage
  3
ISM
 90
      127
280
     0
281
     1
  0
CLASS
  1
OLE2FRAME
  2
AcDbOle2Frame
  3
""
 90
        0
280
     0
281
     1
  0
CLASS
  1
HATCH
  2
AcDbHatch
  3
"ACAD_SEDONA"
 90
        0
280
     0
281
     1
  0
CLASS
  1
DICTIONARYVAR
  2
AcDbDictionaryVar
  3
"AutoCAD"
 90
        0
280
     0
281
     0
  0
CLASS
  1
RASTERVARIABLES
  2
AcDbRasterVariables
  3
ISM
 90
        0
280
     0
281
     0
  0
CLASS
  1
IMAGEDEF
  2
AcDbRasterImageDef
  3
ISM
 90
        0
280
     0
281
     0
  0
CLASS
  1
IMAGEDEF_REACTOR
  2
AcDbRasterImageDefReactor
  3
ISM
 90
        1
280
     0
281
     0
  0
CLASS
  1
IDBUFFER
  2
AcDbIdBuffer
  3
"Acad"
 90
        0
280
     0
281
     0
  0
CLASS
  1
SPATIAL_FILTER
  2
AcDbSpatialFilter
  3
"Acad"
 90
        0
280
     0
281
     0
  0
CLASS
  1
XRECORD
  2
AcDbXrecord
  3
"<Built In>"
 90
        0
280
     0
281
     0
  0
CLASS
  1
SORTENTSTABLE
  2
AcDbSortentsTable
  3
"AutoCAD"
 90
        0
280
     0
281
     0
  0
CLASS
  1
LAYER_INDEX
  2
AcDbLayerIndex
  3
"Acad"
 90
        0
280
     0
281
     0
  0
CLASS
  1
SPATIAL_INDEX
  2
AcDbSpatialIndex
  3
"Acad"
 90
        0
280
     0
281
     0
  0
CLASS
  1
OBJECT_PTR
  2
CAseDLPNTableRecord
  3
"ASE-LPNTableRecord"
 90
        1
280
     0
281
     0
  0
ENDSEC
  0
SECTION
  2
TABLES
  0
TABLE
  2
VPORT
  5
7
100
AcDbSymbolTable
 70
     1
  0
VPORT
  5
541
100
AcDbSymbolTableRecord
100
AcDbViewportTableRecord
  2
*ACTIVE
 70
     0
 10
0.0
 20
0.0
 11
1.0
 21
1.0
 12
0.0
 22
0.0
 13
0.0
 23
0.0
 14
0.0
 24
0.0
 15
0.0
 25
0.0
 16
0.0
 26
0.0
 36
1.0
 17
20.8358
 27
140.123
 37
0.0
 40
565.24
 41
1.545
 42
50.0
 43
0.0
 44
0.0
 50
0.0
 51
0.0
 71
     0
 72
   100
 73
     1
 74
     0
 75
     0
 76
     0
 77
     0
 78
     0
  0
ENDTAB
  0
TABLE
  2
LTYPE
  5
4
100
AcDbSymbolTable
 70
     9
  0
LTYPE
  5
11
100
AcDbSymbolTableRecord
100
AcDbLinetypeTableRecord
  2
BYBLOCK
 70
     0
  3

 72
    65
 73
     0
 40
0.0
  0
LTYPE
  5
12
100
AcDbSymbolTableRecord
100
AcDbLinetypeTableRecord
  2
BYLAYER
 70
     0
  3

 72
    65
 73
     0
 40
0.0
  0
LTYPE
  5
13
100
AcDbSymbolTableRecord
100
AcDbLinetypeTableRecord
  2
CONTINUOUS
 70
     0
  3
Solid line
 72
    65
 73
     0
 40
0.0
  0
LTYPE
  5
22
102
{ACAD_XDICTIONARY
360
F09761C03AC4493C
102
}
100
AcDbSymbolTableRecord
100
AcDbLinetypeTableRecord
  2
DOT
 70
    64
  3
. . . . . . . . . . . . . . . . . . . . . . . . . . . . . . . . .
 72
    65
 73
     2
 40
0.25
 49
0.0
 74
     0
 49
-0.25
 74
     0
  0
LTYPE
  5
23
102
{ACAD_XDICTIONARY
360
F09761C03AC4493C
102
}
100
AcDbSymbolTableRecord
100
AcDbLinetypeTableRecord
  2
HIDDEN
 70
    64
  3
__ __ __ __ __ __ __ __ __ __ __ __ __ __ __ __ __ __ __ __ __ 
 72
    65
 73
     2
 40
0.375
 49
0.25
 74
     0
 49
-0.125
 74
     0
  0
LTYPE
  5
24
102
{ACAD_XDICTIONARY
360
F09761C03AC4493C
102
}
100
AcDbSymbolTableRecord
100
AcDbLinetypeTableRecord
  2
DASHED
 70
    64
  3
__ __ __ __ __ __ __ __ __ __ __ __ __ __ __ __ __ __ __ __ __
 72
    65
 73
     2
 40
0.75
 49
0.5
 74
     0
 49
-0.25
 74
     0
  0
LTYPE
  5
25
102
{ACAD_XDICTIONARY
360
F09761C03AC4493C
102
}
100
AcDbSymbolTableRecord
100
AcDbLinetypeTableRecord
  2
DASHDOT
 70
    64
  3
__ . __ . __ . __ . __ . __ . __ . __ . __ . __ . __ . __ . _
 72
    65
 73
     4
 40
1.0
 49
0.5
 74
     0
 49
-0.25
 74
     0
 49
0.0
 74
     0
 49
-0.25
 74
     0
  0
LTYPE
  5
26
102
{ACAD_XDICTIONARY
360
F09761C03AC4493C
102
}
100
AcDbSymbolTableRecord
100
AcDbLinetypeTableRecord
  2
DIVIDE
 70
    64
  3
____ . . ____ . . ____ . . ____ . . ____ . . ____ . . ____ . .
 72
    65
 73
     6
 40
1.25
 49
0.5
 74
     0
 49
-0.25
 74
     0
 49
0.0
 74
     0
 49
-0.25
 74
     0
 49
0.0
 74
     0
 49
-0.25
 74
     0
  0
LTYPE
  5
27
102
{ACAD_XDICTIONARY
360
F09761C03AC4493C
102
}
100
AcDbSymbolTableRecord
100
AcDbLinetypeTableRecord
  2
CENTER
 70
    64
  3
____ _ ____ _ ____ _ ____ _ ____ _ ____ _ ____ _ ____ _ ____ _
 72
    65
 73
     4
 40
2.0
 49
1.25
 74
     0
 49
-0.25
 74
     0
 49
0.25
 74
     0
 49
-0.25
 74
     0
  0
ENDTAB
  0
TABLE
  2
LAYER
  5
2
100
AcDbSymbolTable
 70
     2
  0
LAYER
  5
14
102
{ACAD_XDICTIONARY
360
5F205F5F5F5F205F
102
}
100
AcDbSymbolTableRecord
100
AcDbLayerTableRecord
  2
0
 70
     0
 62
     7
  6
CONTINUOUS
  0
LAYER
  5
2A
102
{ACAD_XDICTIONARY
360
5F205F5F5F5F205F
102
}
100
AcDbSymbolTableRecord
100
AcDbLayerTableRecord
  2
1
 70
    64
 62
     7
  6
CONTINUOUS
  0
ENDTAB
  0
TABLE
  2
STYLE
  5
3
100
AcDbSymbolTable
 70
     3
  0
STYLE
  5
17
100
AcDbSymbolTableRecord
100
AcDbTextStyleTableRecord
  2
STANDARD
 70
     0
 40
0.0
 41
1.0
 50
0.0
 71
     0
 42
0.0
  3
txt
  4

  0
STYLE
  5
8A
100
AcDbSymbolTableRecord
100
AcDbTextStyleTableRecord
  2
TXT
 70
     0
 40
0.2
 41
1.0
 50
0.0
 71
     0
 42
0.2
  3
TXT
  4

  0
STYLE
  5
394
100
AcDbSymbolTableRecord
100
AcDbTextStyleTableRecord
  2
MONOTXT
 70
     0
 40
0.2
 41
1.0
 50
0.0
 71
     0
 42
0.2
  3
MONOTXT
  4

  0
ENDTAB
  0
TABLE
  2
VIEW
  5
5
100
AcDbSymbolTable
 70
     0
  0
ENDTAB
  0
TABLE
  2
UCS
  5
6
100
AcDbSymbolTable
 70
     0
  0
ENDTAB
  0
TABLE
  2
APPID
  5
8
100
AcDbSymbolTable
 70
     1
  0
APPID
  5
16
100
AcDbSymbolTableRecord
100
AcDbRegAppTableRecord
  2
ACAD
 70
     0
  0
ENDTAB
  0
TABLE
  2
DIMSTYLE
  5
9
100
AcDbSymbolTable
 70
     1
  0
DIMSTYLE
105
18
100
AcDbSymbolTableRecord
100
AcDbDimStyleTableRecord
  2
STANDARD
 70
     0
  3

  4

  5

  6

  7

 40
1.0
 41
0.18
 42
0.0625
 43
0.38
 44
0.18
 45
0.0
 46
0.0
 47
0.0
 48
0.0
140
0.18
141
0.09
142
0.0
143
25.4
144
1.0
145
0.0
146
1.0
147
0.09
 71
     0
 72
     0
 73
     1
 74
     1
 75
     0
 76
     0
 77
     0
 78
     0
170
     0
171
     2
172
     0
173
     0
174
     0
175
     0
176
     0
177
     0
178
     0
270
     2
271
     4
272
     4
273
     2
274
     2
340
17
275
     0
280
     0
281
     0
282
     0
283
     1
284
     0
285
     0
286
     0
287
     0
288
     0
  0
ENDTAB
  0
TABLE
  2
BLOCK_RECORD
  5
1
100
AcDbSymbolTable
 70
     1
  0
BLOCK_RECORD
  5
A
100
AcDbSymbolTableRecord
100
AcDbBlockTableRecord
  2
*MODEL_SPACE
  0
BLOCK_RECORD
  5
B
100
AcDbSymbolTableRecord
100
AcDbBlockTableRecord
  2
*PAPER_SPACE
  0
BLOCK_RECORD
  5
4E6
102
{ACAD_XDICTIONARY
360
6E0002000200E6FF
102
}
100
AcDbSymbolTableRecord
100
AcDbBlockTableRecord
  2
LDR
  0
ENDTAB
  0
ENDSEC
  0
SECTION
  2
BLOCKS
  0
BLOCK
  5
D
100
AcDbEntity
  8
0
100
AcDbBlockBegin
  2
*MODEL_SPACE
 70
     0
 10
0.0
 20
0.0
 30
0.0
  3
*MODEL_SPACE
  1

  0
ENDBLK
  5
E
100
AcDbEntity
  8
0
100
AcDbBlockEnd
  0
BLOCK
  5
F
100
AcDbEntity
 67
     1
  8
0
100
AcDbBlockBegin
  2
*PAPER_SPACE
 70
     0
 10
0.0
 20
0.0
 30
0.0
  3
*PAPER_SPACE
  1

  0
ENDBLK
  5
10
100
AcDbEntity
 67
     1
  8
0
100
AcDbBlockEnd
  0
BLOCK
  5
4E7
100
AcDbEntity
  8
1
  6
CONTINUOUS
 62
     1
100
AcDbBlockBegin
  2
LDR
 70
     0
 10
0.0
 20
0.0
 30
0.0
  3
LNR
  1

  0
ELLIPSE
  5
4E8
100
AcDbEntity
  8
1
  6
CONTINUOUS
 62
     1
100
AcDbEllipse
 10
-0.005456
 20
-0.001381
 30
0.0
 11
0.0089285004361969
 21
0.0007807500106832
 31
0.0
210
0.0
220
0.0
230
1.0
 40
0.122415
 41
0.8963533496766982
 42
3.1415926535897931
  0
ELLIPSE
  5
4E9
100
AcDbEntity
  8
1
  6
CONTINUOUS
 62
     1
100
AcDbEllipse
 10
-0.005602
 20
0.001058
 30
0.0
 11
0.0087822505799138
 21
-0.0008782502022594
 31
0.0
210
0.0
220
0.0
230
1.0
 40
0.07063
 41
3.1407147529760402
 42
5.4181099545465106
  0
ENDBLK
  5
4EA
100
AcDbEntity
  8
1
  6
CONTINUOUS
 62
     1
100
AcDbBlockEnd
  0
ENDSEC
  0
SECTION
  2
ENTITIES
  0
LINE
  5
2B
100
AcDbEntity
  8
1
  6
CONTINUOUS
 62
     5
100
AcDbLine
 10
-257.3903
 20
352.9839
 30
0.0
 11
-244.7903
 21
352.9839
 31
0.0
  0
LINE
  5
2C
100
AcDbEntity
  8
1
  6
CONTINUOUS
 62
     5
100
AcDbLine
 10
-257.3903
 20
340.3839
 30
0.0
 11
-244.7903
 21
340.3839
 31
0.0
  0
LINE
  5
2D
100
AcDbEntity
  8
1
  6
CONTINUOUS
 62
     5
100
AcDbLine
 10
-257.3903
 20
336.7839
 30
0.0
 11
-244.7903
 21
336.7839
 31
0.0
  0
LINE
  5
2E
100
AcDbEntity
  8
1
  6
CONTINUOUS
 62
     5
100
AcDbLine
 10
-257.3903
 20
324.1839
 30
0.0
 11
-244.7903
 21
324.1839
 31
0.0
  0
LINE
  5
2F
100
AcDbEntity
  8
1
  6
CONTINUOUS
 62
     5
100
AcDbLine
 10
-257.3903
 20
320.5839
 30
0.0
 11
-244.7903
 21
320.5839
 31
0.0
  0
LINE
  5
30
100
AcDbEntity
  8
1
  6
CONTINUOUS
 62
     5
100
AcDbLine
 10
-257.3903
 20
307.9839
 30
0.0
 11
-244.7903
 21
307.9839
 31
0.0
  0
LINE
  5
31
100
AcDbEntity
  8
1
  6
CONTINUOUS
 62
     5
100
AcDbLine
 10
-257.3903
 20
352.9839
 30
0.0
 11
-257.3903
 21
340.3839
 31
0.0
  0
LINE
  5
32
100
AcDbEntity
  8
1
  6
CONTINUOUS
 62
     5
100
AcDbLine
 10
-257.3903
 20
336.7839
 30
0.0
 11
-257.3903
 21
324.1839
 31
0.0
  0
LINE
  5
33
100
AcDbEntity
  8
1
  6
CONTINUOUS
 62
     5
100
AcDbLine
 10
-257.3903
 20
320.5839
 30
0.0
 11
-257.0078
 21
320.6
 31
0.0
  0
LINE
  5
34
100
AcDbEntity
  8
1
  6
CONTINUOUS
 62
     5
100
AcDbLine
 10
-257.3903
 20
320.5839
 30
0.0
 11
-257.3903
 21
307.9839
 31
0.0
  0
LINE
  5
35
100
AcDbEntity
  8
1
  6
CONTINUOUS
 62
     5
100
AcDbLine
 10
-244.7903
 20
353.5839
 30
0.0
 11
-244.7903
 21
339.1839
 31
0.0
  0
LINE
  5
36
100
AcDbEntity
  8
1
  6
CONTINUOUS
 62
     5
100
AcDbLine
 10
-244.7903
 20
337.3839
 30
0.0
 11
-244.7903
 21
322.9839
 31
0.0
  0
LINE
  5
37
100
AcDbEntity
  8
1
  6
CONTINUOUS
 62
     5
100
AcDbLine
 10
-244.7903
 20
321.1839
 30
0.0
 11
-244.7903
 21
306.7839
 31
0.0
  0
LINE
  5
38
100
AcDbEntity
  8
1
  6
CONTINUOUS
 62
     5
100
AcDbLine
 10
-244.7903
 20
353.5839
 30
0.0
 11
-244.1903
 21
353.5839
 31
0.0
  0
LINE
  5
39
100
AcDbEntity
  8
1
  6
CONTINUOUS
 62
     5
100
AcDbLine
 10
-244.7903
 20
339.1839
 30
0.0
 11
-244.1903
 21
339.1839
 31
0.0
  0
LINE
  5
3A
100
AcDbEntity
  8
1
  6
CONTINUOUS
 62
     5
100
AcDbLine
 10
-244.7903
 20
337.3839
 30
0.0
 11
-244.1903
 21
337.3839
 31
0.0
  0
LINE
  5
3B
100
AcDbEntity
  8
1
  6
CONTINUOUS
 62
     5
100
AcDbLine
 10
-244.7903
 20
322.9839
 30
0.0
 11
-244.1903
 21
322.9839
 31
0.0
  0
LINE
  5
3C
100
AcDbEntity
  8
1
  6
CONTINUOUS
 62
     5
100
AcDbLine
 10
-244.7903
 20
321.1839
 30
0.0
 11
-244.1903
 21
321.1839
 31
0.0
  0
LINE
  5
3D
100
AcDbEntity
  8
1
  6
CONTINUOUS
 62
     5
100
AcDbLine
 10
-244.7903
 20
306.7839
 30
0.0
 11
-244.1903
 21
306.7839
 31
0.0
  0
LINE
  5
3E
100
AcDbEntity
  8
1
  6
CONTINUOUS
 62
     5
100
AcDbLine
 10
-244.1903
 20
354.1839
 30
0.0
 11
-244.1903
 21
306.1839
 31
0.0
  0
LINE
  5
3F
100
AcDbEntity
  8
1
  6
CONTINUOUS
 62
     5
100
AcDbLine
 10
-236.6903
 20
354.1839
 30
0.0
 11
-236.6903
 21
306.1839
 31
0.0
  0
LINE
  5
40
100
AcDbEntity
  8
1
  6
CONTINUOUS
 62
     5
100
AcDbLine
 10
-244.1903
 20
354.1839
 30
0.0
 11
-236.6903
 21
354.1839
 31
0.0
  0
LINE
  5
41
100
AcDbEntity
  8
1
  6
CONTINUOUS
 62
     5
100
AcDbLine
 10
-244.1903
 20
306.1839
 30
0.0
 11
-236.6903
 21
306.1839
 31
0.0
  0
LINE
  5
42
100
AcDbEntity
  8
1
  6
CONTINUOUS
 62
     5
100
AcDbLine
 10
-244.1903
 20
338.1879
 30
0.0
 11
-236.6903
 21
338.1879
 31
0.0
  0
LINE
  5
43
100
AcDbEntity
  8
1
  6
CONTINUOUS
 62
     5
100
AcDbLine
 10
-244.1903
 20
322.1799
 30
0.0
 11
-236.6903
 21
322.1799
 31
0.0
  0
LINE
  5
44
100
AcDbEntity
  8
1
  6
CONTINUOUS
 62
     5
100
AcDbLine
 10
-239.3903
 20
353.8839
 30
0.0
 11
-239.3903
 21
306.4839
 31
0.0
  0
LINE
  5
45
100
AcDbEntity
  8
1
  6
CONTINUOUS
 62
     5
100
AcDbLine
 10
-242.2403
 20
355.0839
 30
0.0
 11
-242.2403
 21
354.1839
 31
0.0
  0
LINE
  5
46
100
AcDbEntity
  8
1
  6
CONTINUOUS
 62
     5
100
AcDbLine
 10
-238.6403
 20
355.0839
 30
0.0
 11
-238.6403
 21
354.1839
 31
0.0
  0
LINE
  5
47
100
AcDbEntity
  8
1
  6
CONTINUOUS
 62
     5
100
AcDbLine
 10
-242.2403
 20
355.0839
 30
0.0
 11
-238.6403
 21
355.0839
 31
0.0
  0
LINE
  5
48
100
AcDbEntity
  8
1
  6
CONTINUOUS
 62
     5
100
AcDbLine
 10
-241.3403
 20
355.6839
 30
0.0
 11
-241.3403
 21
354.1839
 31
0.0
  0
LINE
  5
49
100
AcDbEntity
  8
1
  6
CONTINUOUS
 62
     5
100
AcDbLine
 10
-239.5403
 20
355.6839
 30
0.0
 11
-239.5403
 21
354.1839
 31
0.0
  0
LINE
  5
4A
100
AcDbEntity
  8
1
  6
CONTINUOUS
 62
     5
100
AcDbLine
 10
-242.2403
 20
305.2895
 30
0.0
 11
-238.6403
 21
305.2895
 31
0.0
  0
LINE
  5
4B
100
AcDbEntity
  8
1
  6
CONTINUOUS
 62
     5
100
AcDbLine
 10
-242.2403
 20
305.2895
 30
0.0
 11
-242.2403
 21
306.1895
 31
0.0
  0
LINE
  5
4C
100
AcDbEntity
  8
1
  6
CONTINUOUS
 62
     5
100
AcDbLine
 10
-238.6403
 20
305.2895
 30
0.0
 11
-238.6403
 21
306.1895
 31
0.0
  0
LINE
  5
4D
100
AcDbEntity
  8
1
  6
CONTINUOUS
 62
     5
100
AcDbLine
 10
-242.2403
 20
355.6839
 30
0.0
 11
-238.6403
 21
355.6839
 31
0.0
  0
LINE
  5
4E
100
AcDbEntity
  8
1
  6
CONTINUOUS
 62
     5
100
AcDbLine
 10
-237.7403
 20
356.5839
 30
0.0
 11
-237.7403
 21
360.1839
 31
0.0
  0
ARC
  5
4F
100
AcDbEntity
  8
1
  6
CONTINUOUS
 62
     5
100
AcDbCircle
 10
-237.929717
 20
355.873317
 30
0.0
 40
4.314743
210
0.0
220
0.0
230
1.0
100
AcDbArc
 50
87.483914
 51
182.516086
  0
ARC
  5
50
100
AcDbEntity
  8
1
  6
CONTINUOUS
 62
     5
100
AcDbCircle
 10
-237.784424
 20
355.728024
 30
0.0
 40
0.857012
210
0.0
220
0.0
230
1.0
100
AcDbArc
 50
87.048753
 51
182.951247
  0
LINE
  5
51
100
AcDbEntity
  8
1
  6
CONTINUOUS
 62
     5
100
AcDbLine
 10
-232.3403
 20
359.2839
 30
0.0
 11
-237.7403
 21
359.2839
 31
0.0
  0
LINE
  5
52
100
AcDbEntity
  8
1
  6
CONTINUOUS
 62
     5
100
AcDbLine
 10
-232.3403
 20
357.4839
 30
0.0
 11
-237.7403
 21
357.4839
 31
0.0
  0
LINE
  5
53
100
AcDbEntity
  8
1
  6
CONTINUOUS
 62
     5
100
AcDbLine
 10
-232.3403
 20
360.1839
 30
0.0
 11
-225.1403
 21
360.1839
 31
0.0
  0
LINE
  5
54
100
AcDbEntity
  8
1
  6
CONTINUOUS
 62
     5
100
AcDbLine
 10
-225.1403
 20
356.5839
 30
0.0
 11
-225.1403
 21
360.1839
 31
0.0
  0
LINE
  5
55
100
AcDbEntity
  8
1
  6
CONTINUOUS
 62
     5
100
AcDbLine
 10
-232.3403
 20
356.5839
 30
0.0
 11
-225.1403
 21
356.5839
 31
0.0
  0
LINE
  5
56
100
AcDbEntity
  8
1
  6
CONTINUOUS
 62
     5
100
AcDbLine
 10
-232.3403
 20
359.8839
 30
0.0
 11
-225.1403
 21
359.8839
 31
0.0
  0
ARC
  5
57
100
AcDbEntity
  8
1
  6
CONTINUOUS
 62
     5
100
AcDbCircle
 10
-236.002656
 20
358.2339
 30
0.0
 40
4.016883
210
0.0
220
0.0
230
1.0
100
AcDbArc
 50
335.747022
 51
24.252978
  0
ARC
  5
58
100
AcDbEntity
  8
1
  6
CONTINUOUS
 62
     5
100
AcDbCircle
 10
-221.514744
 20
358.2339
 30
0.0
 40
4.016883
210
0.0
220
0.0
230
1.0
100
AcDbArc
 50
155.747022
 51
204.252978
  0
LINE
  5
59
100
AcDbEntity
  8
1
  6
CONTINUOUS
 62
     5
100
AcDbLine
 10
-232.3403
 20
356.5839
 30
0.0
 11
-232.3403
 21
359.8839
 31
0.0
  0
LINE
  5
5A
100
AcDbEntity
  8
1
  6
CONTINUOUS
 62
     5
100
AcDbLine
 10
-232.3403
 20
359.8839
 30
0.0
 11
-232.3403
 21
360.1839
 31
0.0
  0
LINE
  5
5B
100
AcDbEntity
  8
1
  6
CONTINUOUS
 62
     5
100
AcDbLine
 10
-230.0903
 20
359.0739
 30
0.0
 11
-230.0903
 21
357.3939
 31
0.0
  0
LINE
  5
5C
100
AcDbEntity
  8
1
  6
CONTINUOUS
 62
     5
100
AcDbLine
 10
-227.3903
 20
359.0739
 30
0.0
 11
-227.3903
 21
357.5139
 31
0.0
  0
LINE
  5
5D
100
AcDbEntity
  8
1
  6
CONTINUOUS
 62
     5
100
AcDbLine
 10
-228.7403
 20
359.8839
 30
0.0
 11
-230.0903
 21
359.0739
 31
0.0
  0
LINE
  5
5E
100
AcDbEntity
  8
1
  6
CONTINUOUS
 62
     5
100
AcDbLine
 10
-228.7403
 20
359.8839
 30
0.0
 11
-227.3903
 21
359.0739
 31
0.0
  0
LINE
  5
5F
100
AcDbEntity
  8
1
  6
CONTINUOUS
 62
     5
100
AcDbLine
 10
-230.0903
 20
357.3939
 30
0.0
 11
-228.7403
 21
356.5839
 31
0.0
  0
LINE
  5
60
100
AcDbEntity
  8
1
  6
CONTINUOUS
 62
     5
100
AcDbLine
 10
-227.3903
 20
357.5139
 30
0.0
 11
-228.7403
 21
356.5839
 31
0.0
  0
LINE
  5
61
100
AcDbEntity
  8
1
  6
CONTINUOUS
 62
     5
100
AcDbLine
 10
-219.1282
 20
356.594
 30
0.0
 11
-219.1282
 21
360.194
 31
0.0
  0
LINE
  5
62
100
AcDbEntity
  8
1
  6
CONTINUOUS
 62
     5
100
AcDbLine
 10
-214.6282
 20
355.094
 30
0.0
 11
-214.6282
 21
354.194
 31
0.0
  0
LINE
  5
63
100
AcDbEntity
  8
1
  6
CONTINUOUS
 62
     5
100
AcDbLine
 10
-218.2282
 20
355.094
 30
0.0
 11
-218.2282
 21
354.194
 31
0.0
  0
LINE
  5
64
100
AcDbEntity
  8
1
  6
CONTINUOUS
 62
     5
100
AcDbLine
 10
-214.6282
 20
355.094
 30
0.0
 11
-218.2282
 21
355.094
 31
0.0
  0
LINE
  5
65
100
AcDbEntity
  8
1
  6
CONTINUOUS
 62
     5
100
AcDbLine
 10
-215.5282
 20
355.694
 30
0.0
 11
-215.5282
 21
354.194
 31
0.0
  0
LINE
  5
66
100
AcDbEntity
  8
1
  6
CONTINUOUS
 62
     5
100
AcDbLine
 10
-217.3282
 20
355.694
 30
0.0
 11
-217.3282
 21
354.194
 31
0.0
  0
LINE
  5
67
100
AcDbEntity
  8
1
  6
CONTINUOUS
 62
     5
100
AcDbLine
 10
-214.6282
 20
355.694
 30
0.0
 11
-218.2282
 21
355.694
 31
0.0
  0
ARC
  5
68
100
AcDbEntity
  8
1
  6
CONTINUOUS
 62
     5
100
AcDbCircle
 10
-218.938783
 20
355.883417
 30
0.0
 40
4.314743
210
0.0
220
0.0
230
1.0
100
AcDbArc
 50
357.483914
 51
92.516086
  0
ARC
  5
69
100
AcDbEntity
  8
1
  6
CONTINUOUS
 62
     5
100
AcDbCircle
 10
-219.084076
 20
355.738124
 30
0.0
 40
0.857012
210
0.0
220
0.0
230
1.0
100
AcDbArc
 50
357.048753
 51
92.951247
  0
LINE
  5
6A
100
AcDbEntity
  8
1
  6
CONTINUOUS
 62
     5
100
AcDbLine
 10
-225.1282
 20
359.294
 30
0.0
 11
-219.1282
 21
359.294
 31
0.0
  0
LINE
  5
6B
100
AcDbEntity
  8
1
  6
CONTINUOUS
 62
     5
100
AcDbLine
 10
-225.1282
 20
357.494
 30
0.0
 11
-219.1282
 21
357.494
 31
0.0
  0
LINE
  5
6C
100
AcDbEntity
  8
1
  6
CONTINUOUS
 62
     5
100
AcDbLine
 10
-204.4282
 20
354.194
 30
0.0
 11
-228.4282
 21
354.194
 31
0.0
  0
LINE
  5
6D
100
AcDbEntity
  8
1
  6
CONTINUOUS
 62
     5
100
AcDbLine
 10
-204.4282
 20
330.194
 30
0.0
 11
-228.4282
 21
330.194
 31
0.0
  0
LINE
  5
6E
100
AcDbEntity
  8
1
  6
CONTINUOUS
 62
     5
100
AcDbLine
 10
-206.8282
 20
352.994
 30
0.0
 11
-226.0282
 21
352.994
 31
0.0
  0
LINE
  5
6F
100
AcDbEntity
  8
1
  6
CONTINUOUS
 62
     5
100
AcDbLine
 10
-206.8282
 20
331.394
 30
0.0
 11
-226.0282
 21
331.394
 31
0.0
  0
ARC
  5
70
100
AcDbEntity
  8
1
  6
CONTINUOUS
 62
     5
100
AcDbCircle
 10
-226.0282
 20
351.794
 30
0.0
 40
1.2
210
0.0
220
0.0
230
1.0
100
AcDbArc
 50
90.0
 51
180.0
  0
ARC
  5
71
100
AcDbEntity
  8
1
  6
CONTINUOUS
 62
     5
100
AcDbCircle
 10
-206.8282
 20
351.794
 30
0.0
 40
1.2
210
0.0
220
0.0
230
1.0
100
AcDbArc
 50
0.0
 51
90.0
  0
ARC
  5
72
100
AcDbEntity
  8
1
  6
CONTINUOUS
 62
     5
100
AcDbCircle
 10
-226.0282
 20
332.594
 30
0.0
 40
1.2
210
0.0
220
0.0
230
1.0
100
AcDbArc
 50
180.0
 51
270.0
  0
ARC
  5
73
100
AcDbEntity
  8
1
  6
CONTINUOUS
 62
     5
100
AcDbCircle
 10
-206.8282
 20
332.594
 30
0.0
 40
1.2
210
0.0
220
0.0
230
1.0
100
AcDbArc
 50
270.0
 51
0.0
  0
LINE
  5
74
100
AcDbEntity
  8
1
  6
CONTINUOUS
 62
     5
100
AcDbLine
 10
-226.6282
 20
350.594
 30
0.0
 11
-229.0282
 21
350.594
 31
0.0
  0
LINE
  5
75
100
AcDbEntity
  8
1
  6
CONTINUOUS
 62
     5
100
AcDbLine
 10
-226.6282
 20
333.794
 30
0.0
 11
-229.0282
 21
333.794
 31
0.0
  0
LINE
  5
76
100
AcDbEntity
  8
1
  6
CONTINUOUS
 62
     5
100
AcDbLine
 10
-226.6282
 20
351.794
 30
0.0
 11
-229.0282
 21
351.794
 31
0.0
  0
LINE
  5
77
100
AcDbEntity
  8
1
  6
CONTINUOUS
 62
     5
100
AcDbLine
 10
-226.6282
 20
332.594
 30
0.0
 11
-229.0282
 21
332.594
 31
0.0
  0
LINE
  5
78
100
AcDbEntity
  8
1
  6
CONTINUOUS
 62
     5
100
AcDbLine
 10
-228.4282
 20
354.194
 30
0.0
 11
-228.4282
 21
351.794
 31
0.0
  0
LINE
  5
79
100
AcDbEntity
  8
1
  6
CONTINUOUS
 62
     5
100
AcDbLine
 10
-229.0282
 20
351.794
 30
0.0
 11
-229.0282
 21
349.994
 31
0.0
  0
LINE
  5
7A
100
AcDbEntity
  8
1
  6
CONTINUOUS
 62
     5
100
AcDbLine
 10
-229.0282
 20
349.994
 30
0.0
 11
-228.4282
 21
349.994
 31
0.0
  0
LINE
  5
7B
100
AcDbEntity
  8
1
  6
CONTINUOUS
 62
     5
100
AcDbLine
 10
-228.4282
 20
350.594
 30
0.0
 11
-228.4282
 21
333.794
 31
0.0
  0
LINE
  5
7C
100
AcDbEntity
  8
1
  6
CONTINUOUS
 62
     5
100
AcDbLine
 10
-228.4282
 20
332.594
 30
0.0
 11
-228.4282
 21
330.194
 31
0.0
  0
LINE
  5
7D
100
AcDbEntity
  8
1
  6
CONTINUOUS
 62
     5
100
AcDbLine
 10
-227.2282
 20
350.594
 30
0.0
 11
-227.2282
 21
333.794
 31
0.0
  0
LINE
  5
7E
100
AcDbEntity
  8
1
  6
CONTINUOUS
 62
     5
100
AcDbLine
 10
-229.0282
 20
332.594
 30
0.0
 11
-229.0282
 21
334.394
 31
0.0
  0
LINE
  5
7F
100
AcDbEntity
  8
1
  6
CONTINUOUS
 62
     5
100
AcDbLine
 10
-229.0282
 20
334.394
 30
0.0
 11
-228.4282
 21
334.394
 31
0.0
  0
LINE
  5
80
100
AcDbEntity
  8
1
  6
CONTINUOUS
 62
     5
100
AcDbLine
 10
-203.8282
 20
342.794
 30
0.0
 11
-206.2282
 21
342.794
 31
0.0
  0
LINE
  5
81
100
AcDbEntity
  8
1
  6
CONTINUOUS
 62
     5
100
AcDbLine
 10
-203.8282
 20
341.594
 30
0.0
 11
-206.2282
 21
341.594
 31
0.0
  0
LINE
  5
82
100
AcDbEntity
  8
1
  6
CONTINUOUS
 62
     5
100
AcDbLine
 10
-205.6282
 20
351.794
 30
0.0
 11
-205.6282
 21
342.794
 31
0.0
  0
LINE
  5
83
100
AcDbEntity
  8
1
  6
CONTINUOUS
 62
     5
100
AcDbLine
 10
-205.6282
 20
341.594
 30
0.0
 11
-205.6282
 21
332.594
 31
0.0
  0
LINE
  5
84
100
AcDbEntity
  8
1
  6
CONTINUOUS
 62
     5
100
AcDbLine
 10
-204.4282
 20
354.194
 30
0.0
 11
-204.4282
 21
342.794
 31
0.0
  0
LINE
  5
85
100
AcDbEntity
  8
1
  6
CONTINUOUS
 62
     5
100
AcDbLine
 10
-204.4282
 20
341.594
 30
0.0
 11
-204.4282
 21
330.194
 31
0.0
  0
LINE
  5
86
100
AcDbEntity
  8
1
  6
CONTINUOUS
 62
     5
100
AcDbLine
 10
-203.8282
 20
342.794
 30
0.0
 11
-203.8282
 21
341.594
 31
0.0
  0
LINE
  5
87
100
AcDbEntity
  8
1
  6
CONTINUOUS
 62
     5
100
AcDbLine
 10
-204.1282
 20
343.394
 30
0.0
 11
-204.1282
 21
342.794
 31
0.0
  0
LINE
  5
88
100
AcDbEntity
  8
1
  6
CONTINUOUS
 62
     5
100
AcDbLine
 10
-204.1282
 20
341.594
 30
0.0
 11
-204.1282
 21
340.994
 31
0.0
  0
CIRCLE
  5
89
100
AcDbEntity
  8
1
  6
CONTINUOUS
 62
     5
100
AcDbCircle
 10
-216.4174
 20
342.1963
 30
0.0
 40
9.6
210
0.0
220
0.0
230
1.0
  0
TEXT
  5
8B
100
AcDbEntity
  8
1
  6
CONTINUOUS
 62
     5
100
AcDbText
 10
-219.0889
 20
339.4353
 30
0.0
 40
6.0
  1
R
  7
TXT
210
0.0
220
0.0
230
1.0
100
AcDbText
  0
LINE
  5
8C
100
AcDbEntity
  8
1
  6
CONTINUOUS
 62
     5
100
AcDbLine
 10
-208.0282
 20
313.394
 30
0.0
 11
-224.8282
 21
313.394
 31
0.0
  0
LINE
  5
8D
100
AcDbEntity
  8
1
  6
CONTINUOUS
 62
     5
100
AcDbLine
 10
-208.0282
 20
296.594
 30
0.0
 11
-224.8282
 21
296.594
 31
0.0
  0
LINE
  5
8E
100
AcDbEntity
  8
1
  6
CONTINUOUS
 62
     5
100
AcDbLine
 10
-210.1282
 20
328.994
 30
0.0
 11
-222.7282
 21
328.994
 31
0.0
  0
LINE
  5
8F
100
AcDbEntity
  8
1
  6
CONTINUOUS
 62
     5
100
AcDbLine
 10
-210.1282
 20
314.594
 30
0.0
 11
-222.7282
 21
314.594
 31
0.0
  0
LINE
  5
90
100
AcDbEntity
  8
1
  6
CONTINUOUS
 62
     5
100
AcDbLine
 10
-210.1282
 20
312.194
 30
0.0
 11
-222.7282
 21
312.194
 31
0.0
  0
LINE
  5
91
100
AcDbEntity
  8
1
  6
CONTINUOUS
 62
     5
100
AcDbLine
 10
-210.1282
 20
297.794
 30
0.0
 11
-222.7282
 21
297.794
 31
0.0
  0
ARC
  5
92
100
AcDbEntity
  8
1
  6
CONTINUOUS
 62
     5
100
AcDbCircle
 10
-222.7282
 20
311.294
 30
0.0
 40
0.9
210
0.0
220
0.0
230
1.0
100
AcDbArc
 50
90.0
 51
180.0
  0
ARC
  5
93
100
AcDbEntity
  8
1
  6
CONTINUOUS
 62
     5
100
AcDbCircle
 10
-210.1282
 20
311.294
 30
0.0
 40
0.9
210
0.0
220
0.0
230
1.0
100
AcDbArc
 50
0.0
 51
90.0
  0
ARC
  5
94
100
AcDbEntity
  8
1
  6
CONTINUOUS
 62
     5
100
AcDbCircle
 10
-222.7282
 20
298.694
 30
0.0
 40
0.9
210
0.0
220
0.0
230
1.0
100
AcDbArc
 50
180.0
 51
270.0
  0
ARC
  5
95
100
AcDbEntity
  8
1
  6
CONTINUOUS
 62
     5
100
AcDbCircle
 10
-210.1282
 20
298.694
 30
0.0
 40
0.9
210
0.0
220
0.0
230
1.0
100
AcDbArc
 50
270.0
 51
0.0
  0
ARC
  5
96
100
AcDbEntity
  8
1
  6
CONTINUOUS
 62
     5
100
AcDbCircle
 10
-222.7282
 20
328.094
 30
0.0
 40
0.9
210
0.0
220
0.0
230
1.0
100
AcDbArc
 50
90.0
 51
180.0
  0
ARC
  5
97
100
AcDbEntity
  8
1
  6
CONTINUOUS
 62
     5
100
AcDbCircle
 10
-210.1282
 20
328.094
 30
0.0
 40
0.9
210
0.0
220
0.0
230
1.0
100
AcDbArc
 50
0.0
 51
90.0
  0
ARC
  5
98
100
AcDbEntity
  8
1
  6
CONTINUOUS
 62
     5
100
AcDbCircle
 10
-222.7282
 20
315.494
 30
0.0
 40
0.9
210
0.0
220
0.0
230
1.0
100
AcDbArc
 50
180.0
 51
270.0
  0
ARC
  5
99
100
AcDbEntity
  8
1
  6
CONTINUOUS
 62
     5
100
AcDbCircle
 10
-210.1282
 20
315.494
 30
0.0
 40
0.9
210
0.0
220
0.0
230
1.0
100
AcDbArc
 50
270.0
 51
0.0
  0
TEXT
  5
9A
100
AcDbEntity
  8
1
  6
CONTINUOUS
 62
     5
100
AcDbText
 10
-219.0708
 20
318.5341
 30
0.0
 40
6.0
  1
Y
  7
TXT
210
0.0
220
0.0
230
1.0
100
AcDbText
  0
TEXT
  5
9B
100
AcDbEntity
  8
1
  6
CONTINUOUS
 62
     5
100
AcDbText
 10
-219.3048
 20
302.312
 30
0.0
 40
6.0
  1
G
  7
TXT
210
0.0
220
0.0
230
1.0
100
AcDbText
  0
LINE
  5
9C
100
AcDbEntity
  8
1
  6
CONTINUOUS
 62
     5
100
AcDbLine
 10
-225.4282
 20
328.094
 30
0.0
 11
-223.0282
 21
328.094
 31
0.0
  0
LINE
  5
9D
100
AcDbEntity
  8
1
  6
CONTINUOUS
 62
     5
100
AcDbLine
 10
-225.4282
 20
326.894
 30
0.0
 11
-223.0282
 21
326.894
 31
0.0
  0
LINE
  5
9E
100
AcDbEntity
  8
1
  6
CONTINUOUS
 62
     5
100
AcDbLine
 10
-225.4282
 20
315.494
 30
0.0
 11
-223.0282
 21
315.494
 31
0.0
  0
LINE
  5
9F
100
AcDbEntity
  8
1
  6
CONTINUOUS
 62
     5
100
AcDbLine
 10
-225.4282
 20
316.694
 30
0.0
 11
-223.0282
 21
316.694
 31
0.0
  0
LINE
  5
A0
100
AcDbEntity
  8
1
  6
CONTINUOUS
 62
     5
100
AcDbLine
 10
-225.4282
 20
328.094
 30
0.0
 11
-225.4282
 21
326.294
 31
0.0
  0
LINE
  5
A1
100
AcDbEntity
  8
1
  6
CONTINUOUS
 62
     5
100
AcDbLine
 10
-225.4282
 20
317.294
 30
0.0
 11
-225.4282
 21
315.494
 31
0.0
  0
LINE
  5
A2
100
AcDbEntity
  8
1
  6
CONTINUOUS
 62
     5
100
AcDbLine
 10
-225.4282
 20
326.294
 30
0.0
 11
-224.8282
 21
326.294
 31
0.0
  0
LINE
  5
A3
100
AcDbEntity
  8
1
  6
CONTINUOUS
 62
     5
100
AcDbLine
 10
-225.4282
 20
317.294
 30
0.0
 11
-224.8282
 21
317.294
 31
0.0
  0
LINE
  5
A4
100
AcDbEntity
  8
1
  6
CONTINUOUS
 62
     5
100
AcDbLine
 10
-224.8282
 20
330.194
 30
0.0
 11
-224.8282
 21
328.094
 31
0.0
  0
LINE
  5
A5
100
AcDbEntity
  8
1
  6
CONTINUOUS
 62
     5
100
AcDbLine
 10
-224.8282
 20
326.894
 30
0.0
 11
-224.8282
 21
316.694
 31
0.0
  0
LINE
  5
A6
100
AcDbEntity
  8
1
  6
CONTINUOUS
 62
     5
100
AcDbLine
 10
-223.6282
 20
326.894
 30
0.0
 11
-223.6282
 21
316.694
 31
0.0
  0
LINE
  5
A7
100
AcDbEntity
  8
1
  6
CONTINUOUS
 62
     5
100
AcDbLine
 10
-209.2282
 20
322.394
 30
0.0
 11
-207.4282
 21
322.394
 31
0.0
  0
LINE
  5
A8
100
AcDbEntity
  8
1
  6
CONTINUOUS
 62
     5
100
AcDbLine
 10
-209.2282
 20
321.194
 30
0.0
 11
-207.4282
 21
321.194
 31
0.0
  0
LINE
  5
A9
100
AcDbEntity
  8
1
  6
CONTINUOUS
 62
     5
100
AcDbLine
 10
-209.2282
 20
328.094
 30
0.0
 11
-209.2282
 21
322.394
 31
0.0
  0
LINE
  5
AA
100
AcDbEntity
  8
1
  6
CONTINUOUS
 62
     5
100
AcDbLine
 10
-209.2282
 20
321.194
 30
0.0
 11
-209.2282
 21
315.494
 31
0.0
  0
LINE
  5
AB
100
AcDbEntity
  8
1
  6
CONTINUOUS
 62
     5
100
AcDbLine
 10
-208.0282
 20
330.194
 30
0.0
 11
-208.0282
 21
322.394
 31
0.0
  0
LINE
  5
AC
100
AcDbEntity
  8
1
  6
CONTINUOUS
 62
     5
100
AcDbLine
 10
-207.4282
 20
322.994
 30
0.0
 11
-207.4282
 21
320.594
 31
0.0
  0
LINE
  5
AD
100
AcDbEntity
  8
1
  6
CONTINUOUS
 62
     5
100
AcDbLine
 10
-225.4282
 20
311.294
 30
0.0
 11
-223.0282
 21
311.294
 31
0.0
  0
LINE
  5
AE
100
AcDbEntity
  8
1
  6
CONTINUOUS
 62
     5
100
AcDbLine
 10
-225.4282
 20
310.094
 30
0.0
 11
-223.0282
 21
310.094
 31
0.0
  0
LINE
  5
AF
100
AcDbEntity
  8
1
  6
CONTINUOUS
 62
     5
100
AcDbLine
 10
-225.4282
 20
298.694
 30
0.0
 11
-223.0282
 21
298.694
 31
0.0
  0
LINE
  5
B0
100
AcDbEntity
  8
1
  6
CONTINUOUS
 62
     5
100
AcDbLine
 10
-225.4282
 20
299.894
 30
0.0
 11
-223.0282
 21
299.894
 31
0.0
  0
LINE
  5
B1
100
AcDbEntity
  8
1
  6
CONTINUOUS
 62
     5
100
AcDbLine
 10
-224.8282
 20
315.494
 30
0.0
 11
-224.8282
 21
311.294
 31
0.0
  0
LINE
  5
B2
100
AcDbEntity
  8
1
  6
CONTINUOUS
 62
     5
100
AcDbLine
 10
-224.8282
 20
310.094
 30
0.0
 11
-224.8282
 21
299.894
 31
0.0
  0
LINE
  5
B3
100
AcDbEntity
  8
1
  6
CONTINUOUS
 62
     5
100
AcDbLine
 10
-224.8282
 20
298.694
 30
0.0
 11
-224.8282
 21
296.594
 31
0.0
  0
LINE
  5
B4
100
AcDbEntity
  8
1
  6
CONTINUOUS
 62
     5
100
AcDbLine
 10
-223.6282
 20
310.094
 30
0.0
 11
-223.6282
 21
299.894
 31
0.0
  0
LINE
  5
B5
100
AcDbEntity
  8
1
  6
CONTINUOUS
 62
     5
100
AcDbLine
 10
-225.4282
 20
311.294
 30
0.0
 11
-225.4282
 21
309.494
 31
0.0
  0
LINE
  5
B6
100
AcDbEntity
  8
1
  6
CONTINUOUS
 62
     5
100
AcDbLine
 10
-225.4282
 20
298.694
 30
0.0
 11
-225.4282
 21
300.494
 31
0.0
  0
LINE
  5
B7
100
AcDbEntity
  8
1
  6
CONTINUOUS
 62
     5
100
AcDbLine
 10
-225.4282
 20
309.494
 30
0.0
 11
-224.8282
 21
309.494
 31
0.0
  0
LINE
  5
B8
100
AcDbEntity
  8
1
  6
CONTINUOUS
 62
     5
100
AcDbLine
 10
-225.4282
 20
300.494
 30
0.0
 11
-224.8282
 21
300.494
 31
0.0
  0
LINE
  5
B9
100
AcDbEntity
  8
1
  6
CONTINUOUS
 62
     5
100
AcDbLine
 10
-209.2282
 20
305.594
 30
0.0
 11
-207.4282
 21
305.594
 31
0.0
  0
LINE
  5
BA
100
AcDbEntity
  8
1
  6
CONTINUOUS
 62
     5
100
AcDbLine
 10
-209.2282
 20
304.394
 30
0.0
 11
-207.4282
 21
304.394
 31
0.0
  0
LINE
  5
BB
100
AcDbEntity
  8
1
  6
CONTINUOUS
 62
     5
100
AcDbLine
 10
-207.4282
 20
306.194
 30
0.0
 11
-207.4282
 21
303.794
 31
0.0
  0
LINE
  5
BC
100
AcDbEntity
  8
1
  6
CONTINUOUS
 62
     5
100
AcDbLine
 10
-209.2282
 20
311.294
 30
0.0
 11
-209.2282
 21
305.594
 31
0.0
  0
LINE
  5
BD
100
AcDbEntity
  8
1
  6
CONTINUOUS
 62
     5
100
AcDbLine
 10
-209.2282
 20
304.394
 30
0.0
 11
-209.2282
 21
298.694
 31
0.0
  0
LINE
  5
BE
100
AcDbEntity
  8
1
  6
CONTINUOUS
 62
     5
100
AcDbLine
 10
-208.0282
 20
321.194
 30
0.0
 11
-208.0282
 21
305.594
 31
0.0
  0
LINE
  5
BF
100
AcDbEntity
  8
1
  6
CONTINUOUS
 62
     5
100
AcDbLine
 10
-208.0282
 20
304.394
 30
0.0
 11
-208.0282
 21
296.594
 31
0.0
  0
LINE
  5
C0
100
AcDbEntity
  8
1
  6
CONTINUOUS
 62
     5
100
AcDbLine
 10
-229.6403
 20
362.5839
 30
0.0
 11
-229.6403
 21
360.1839
 31
0.0
  0
LINE
  5
C1
100
AcDbEntity
  8
1
  6
CONTINUOUS
 62
     5
100
AcDbLine
 10
-227.8403
 20
362.5839
 30
0.0
 11
-227.8403
 21
360.1839
 31
0.0
  0
ARC
  5
C2
100
AcDbEntity
  8
1
  6
CONTINUOUS
 62
     5
100
AcDbCircle
 10
-229.1903
 20
362.163561
 30
0.0
 40
0.61578
210
0.0
220
0.0
230
1.0
100
AcDbArc
 50
43.048108
 51
136.951892
  0
ARC
  5
C3
100
AcDbEntity
  8
1
  6
CONTINUOUS
 62
     5
100
AcDbCircle
 10
-228.2903
 20
362.163561
 30
0.0
 40
0.61578
210
0.0
220
0.0
230
1.0
100
AcDbArc
 50
43.048108
 51
136.951892
  0
ARC
  5
C4
100
AcDbEntity
  8
1
  6
CONTINUOUS
 62
     5
100
AcDbCircle
 10
-228.2903
 20
363.000039
 30
0.0
 40
0.61578
210
0.0
220
0.0
230
1.0
100
AcDbArc
 50
223.048108
 51
316.951892
  0
LINE
  5
C5
100
AcDbEntity
  8
1
  6
CONTINUOUS
 62
     5
100
AcDbLine
 10
-241.3403
 20
297.4895
 30
0.0
 11
-241.3403
 21
305.2895
 31
0.0
  0
LINE
  5
C6
100
AcDbEntity
  8
1
  6
CONTINUOUS
 62
     5
100
AcDbLine
 10
-241.3403
 20
305.2895
 30
0.0
 11
-241.3403
 21
306.1895
 31
0.0
  0
LINE
  5
C7
100
AcDbEntity
  8
1
  6
CONTINUOUS
 62
     5
100
AcDbLine
 10
-239.5403
 20
297.4895
 30
0.0
 11
-239.5403
 21
305.2895
 31
0.0
  0
LINE
  5
C8
100
AcDbEntity
  8
1
  6
CONTINUOUS
 62
     5
100
AcDbLine
 10
-239.5403
 20
305.2895
 30
0.0
 11
-239.5403
 21
306.1895
 31
0.0
  0
LINE
  5
C9
100
AcDbEntity
  8
1
  6
CONTINUOUS
 62
     5
100
AcDbLine
 10
-242.2403
 20
297.4649
 30
0.0
 11
-238.6403
 21
297.4649
 31
0.0
  0
LINE
  5
CA
100
AcDbEntity
  8
1
  6
CONTINUOUS
 62
     5
100
AcDbLine
 10
-238.6403
 20
297.4649
 30
0.0
 11
-238.6403
 21
296.474
 31
0.0
  0
LINE
  5
CB
100
AcDbEntity
  8
1
  6
CONTINUOUS
 62
     5
100
AcDbLine
 10
-241.3403
 20
297.4649
 30
0.0
 11
-241.3403
 21
296.474
 31
0.0
  0
LINE
  5
CC
100
AcDbEntity
  8
1
  6
CONTINUOUS
 62
     5
100
AcDbLine
 10
-239.5403
 20
297.4649
 30
0.0
 11
-239.5403
 21
296.474
 31
0.0
  0
LINE
  5
CD
100
AcDbEntity
  8
1
  6
CONTINUOUS
 62
     5
100
AcDbLine
 10
-218.2282
 20
295.094
 30
0.0
 11
-218.2282
 21
295.994
 31
0.0
  0
LINE
  5
CE
100
AcDbEntity
  8
1
  6
CONTINUOUS
 62
     5
100
AcDbLine
 10
-214.6282
 20
295.094
 30
0.0
 11
-214.6282
 21
296.594
 31
0.0
  0
LINE
  5
CF
100
AcDbEntity
  8
1
  6
CONTINUOUS
 62
     5
100
AcDbLine
 10
-217.3282
 20
295.094
 30
0.0
 11
-217.3282
 21
295.994
 31
0.0
  0
LINE
  5
D0
100
AcDbEntity
  8
1
  6
CONTINUOUS
 62
     5
100
AcDbLine
 10
-215.5282
 20
295.094
 30
0.0
 11
-215.5282
 21
295.994
 31
0.0
  0
LINE
  5
D1
100
AcDbEntity
  8
1
  6
CONTINUOUS
 62
     5
100
AcDbLine
 10
-214.6282
 20
295.994
 30
0.0
 11
-242.2403
 21
295.994
 31
0.0
  0
LINE
  5
D2
100
AcDbEntity
  8
1
  6
CONTINUOUS
 62
     5
100
AcDbLine
 10
-218.2282
 20
295.094
 30
0.0
 11
-214.6282
 21
295.094
 31
0.0
  0
LINE
  5
D3
100
AcDbEntity
  8
1
  6
CONTINUOUS
 62
     5
100
AcDbLine
 10
-214.6282
 20
296.474
 30
0.0
 11
-242.2403
 21
296.474
 31
0.0
  0
LINE
  5
D4
100
AcDbEntity
  8
1
  6
CONTINUOUS
 62
     5
100
AcDbLine
 10
-242.2403
 20
297.4649
 30
0.0
 11
-242.2403
 21
296.474
 31
0.0
  0
LINE
  5
D5
100
AcDbEntity
  8
1
  6
CONTINUOUS
 62
     5
100
AcDbLine
 10
-242.2403
 20
296.474
 30
0.0
 11
-242.2403
 21
295.994
 31
0.0
  0
LINE
  5
D6
100
AcDbEntity
  8
1
  6
CONTINUOUS
 62
     5
100
AcDbLine
 10
-242.2403
 20
295.0043
 30
0.0
 11
-238.6403
 21
295.0043
 31
0.0
  0
LINE
  5
D7
100
AcDbEntity
  8
1
  6
CONTINUOUS
 62
     5
100
AcDbLine
 10
-238.6403
 20
295.0043
 30
0.0
 11
-238.6403
 21
295.9952
 31
0.0
  0
LINE
  5
D8
100
AcDbEntity
  8
1
  6
CONTINUOUS
 62
     5
100
AcDbLine
 10
-241.3403
 20
295.0043
 30
0.0
 11
-241.3403
 21
295.9952
 31
0.0
  0
LINE
  5
D9
100
AcDbEntity
  8
1
  6
CONTINUOUS
 62
     5
100
AcDbLine
 10
-239.5403
 20
295.0043
 30
0.0
 11
-239.5403
 21
295.9952
 31
0.0
  0
LINE
  5
DA
100
AcDbEntity
  8
1
  6
CONTINUOUS
 62
     5
100
AcDbLine
 10
-242.2403
 20
295.0043
 30
0.0
 11
-242.2403
 21
295.9952
 31
0.0
  0
LINE
  5
DB
100
AcDbEntity
  8
1
  6
CONTINUOUS
 62
     5
100
AcDbLine
 10
-159.5903
 20
352.9839
 30
0.0
 11
-146.9903
 21
352.9839
 31
0.0
  0
LINE
  5
DC
100
AcDbEntity
  8
1
  6
CONTINUOUS
 62
     5
100
AcDbLine
 10
-159.5903
 20
340.3839
 30
0.0
 11
-146.9903
 21
340.3839
 31
0.0
  0
LINE
  5
DD
100
AcDbEntity
  8
1
  6
CONTINUOUS
 62
     5
100
AcDbLine
 10
-159.5903
 20
336.7839
 30
0.0
 11
-146.9903
 21
336.7839
 31
0.0
  0
LINE
  5
DE
100
AcDbEntity
  8
1
  6
CONTINUOUS
 62
     5
100
AcDbLine
 10
-159.5903
 20
324.1839
 30
0.0
 11
-146.9903
 21
324.1839
 31
0.0
  0
LINE
  5
DF
100
AcDbEntity
  8
1
  6
CONTINUOUS
 62
     5
100
AcDbLine
 10
-159.5903
 20
320.5839
 30
0.0
 11
-146.9903
 21
320.5839
 31
0.0
  0
LINE
  5
E0
100
AcDbEntity
  8
1
  6
CONTINUOUS
 62
     5
100
AcDbLine
 10
-159.5903
 20
307.9839
 30
0.0
 11
-146.9903
 21
307.9839
 31
0.0
  0
LINE
  5
E1
100
AcDbEntity
  8
1
  6
CONTINUOUS
 62
     5
100
AcDbLine
 10
-159.5903
 20
352.9839
 30
0.0
 11
-159.5903
 21
340.3839
 31
0.0
  0
LINE
  5
E2
100
AcDbEntity
  8
1
  6
CONTINUOUS
 62
     5
100
AcDbLine
 10
-159.5903
 20
336.7839
 30
0.0
 11
-159.5903
 21
324.1839
 31
0.0
  0
LINE
  5
E3
100
AcDbEntity
  8
1
  6
CONTINUOUS
 62
     5
100
AcDbLine
 10
-159.5903
 20
320.5839
 30
0.0
 11
-159.2078
 21
320.6
 31
0.0
  0
LINE
  5
E4
100
AcDbEntity
  8
1
  6
CONTINUOUS
 62
     5
100
AcDbLine
 10
-159.5903
 20
320.5839
 30
0.0
 11
-159.5903
 21
307.9839
 31
0.0
  0
LINE
  5
E5
100
AcDbEntity
  8
1
  6
CONTINUOUS
 62
     5
100
AcDbLine
 10
-146.9903
 20
353.5839
 30
0.0
 11
-146.9903
 21
339.1839
 31
0.0
  0
LINE
  5
E6
100
AcDbEntity
  8
1
  6
CONTINUOUS
 62
     5
100
AcDbLine
 10
-146.9903
 20
337.3839
 30
0.0
 11
-146.9903
 21
322.9839
 31
0.0
  0
LINE
  5
E7
100
AcDbEntity
  8
1
  6
CONTINUOUS
 62
     5
100
AcDbLine
 10
-146.9903
 20
321.1839
 30
0.0
 11
-146.9903
 21
306.7839
 31
0.0
  0
LINE
  5
E8
100
AcDbEntity
  8
1
  6
CONTINUOUS
 62
     5
100
AcDbLine
 10
-146.9903
 20
353.5839
 30
0.0
 11
-146.3903
 21
353.5839
 31
0.0
  0
LINE
  5
E9
100
AcDbEntity
  8
1
  6
CONTINUOUS
 62
     5
100
AcDbLine
 10
-146.9903
 20
339.1839
 30
0.0
 11
-146.3903
 21
339.1839
 31
0.0
  0
LINE
  5
EA
100
AcDbEntity
  8
1
  6
CONTINUOUS
 62
     5
100
AcDbLine
 10
-146.9903
 20
337.3839
 30
0.0
 11
-146.3903
 21
337.3839
 31
0.0
  0
LINE
  5
EB
100
AcDbEntity
  8
1
  6
CONTINUOUS
 62
     5
100
AcDbLine
 10
-146.9903
 20
322.9839
 30
0.0
 11
-146.3903
 21
322.9839
 31
0.0
  0
LINE
  5
EC
100
AcDbEntity
  8
1
  6
CONTINUOUS
 62
     5
100
AcDbLine
 10
-146.9903
 20
321.1839
 30
0.0
 11
-146.3903
 21
321.1839
 31
0.0
  0
LINE
  5
ED
100
AcDbEntity
  8
1
  6
CONTINUOUS
 62
     5
100
AcDbLine
 10
-146.9903
 20
306.7839
 30
0.0
 11
-146.3903
 21
306.7839
 31
0.0
  0
LINE
  5
EE
100
AcDbEntity
  8
1
  6
CONTINUOUS
 62
     5
100
AcDbLine
 10
-146.3903
 20
354.1839
 30
0.0
 11
-146.3903
 21
306.1839
 31
0.0
  0
LINE
  5
EF
100
AcDbEntity
  8
1
  6
CONTINUOUS
 62
     5
100
AcDbLine
 10
-138.8903
 20
354.1839
 30
0.0
 11
-138.8903
 21
306.1839
 31
0.0
  0
LINE
  5
F0
100
AcDbEntity
  8
1
  6
CONTINUOUS
 62
     5
100
AcDbLine
 10
-146.3903
 20
354.1839
 30
0.0
 11
-138.8903
 21
354.1839
 31
0.0
  0
LINE
  5
F1
100
AcDbEntity
  8
1
  6
CONTINUOUS
 62
     5
100
AcDbLine
 10
-146.3903
 20
306.1839
 30
0.0
 11
-138.8903
 21
306.1839
 31
0.0
  0
LINE
  5
F2
100
AcDbEntity
  8
1
  6
CONTINUOUS
 62
     5
100
AcDbLine
 10
-146.3903
 20
338.1879
 30
0.0
 11
-138.8903
 21
338.1879
 31
0.0
  0
LINE
  5
F3
100
AcDbEntity
  8
1
  6
CONTINUOUS
 62
     5
100
AcDbLine
 10
-146.3903
 20
322.1799
 30
0.0
 11
-138.8903
 21
322.1799
 31
0.0
  0
LINE
  5
F4
100
AcDbEntity
  8
1
  6
CONTINUOUS
 62
     5
100
AcDbLine
 10
-141.5903
 20
353.8839
 30
0.0
 11
-141.5903
 21
306.4839
 31
0.0
  0
LINE
  5
F5
100
AcDbEntity
  8
1
  6
CONTINUOUS
 62
     5
100
AcDbLine
 10
-144.4403
 20
355.0839
 30
0.0
 11
-144.4403
 21
354.1839
 31
0.0
  0
LINE
  5
F6
100
AcDbEntity
  8
1
  6
CONTINUOUS
 62
     5
100
AcDbLine
 10
-140.8403
 20
355.0839
 30
0.0
 11
-140.8403
 21
354.1839
 31
0.0
  0
LINE
  5
F7
100
AcDbEntity
  8
1
  6
CONTINUOUS
 62
     5
100
AcDbLine
 10
-144.4403
 20
355.0839
 30
0.0
 11
-140.8403
 21
355.0839
 31
0.0
  0
LINE
  5
F8
100
AcDbEntity
  8
1
  6
CONTINUOUS
 62
     5
100
AcDbLine
 10
-143.5403
 20
355.6839
 30
0.0
 11
-143.5403
 21
354.1839
 31
0.0
  0
LINE
  5
F9
100
AcDbEntity
  8
1
  6
CONTINUOUS
 62
     5
100
AcDbLine
 10
-141.7403
 20
355.6839
 30
0.0
 11
-141.7403
 21
354.1839
 31
0.0
  0
LINE
  5
FA
100
AcDbEntity
  8
1
  6
CONTINUOUS
 62
     5
100
AcDbLine
 10
-144.4403
 20
305.2895
 30
0.0
 11
-140.8403
 21
305.2895
 31
0.0
  0
LINE
  5
FB
100
AcDbEntity
  8
1
  6
CONTINUOUS
 62
     5
100
AcDbLine
 10
-144.4403
 20
305.2895
 30
0.0
 11
-144.4403
 21
306.1895
 31
0.0
  0
LINE
  5
FC
100
AcDbEntity
  8
1
  6
CONTINUOUS
 62
     5
100
AcDbLine
 10
-140.8403
 20
305.2895
 30
0.0
 11
-140.8403
 21
306.1895
 31
0.0
  0
LINE
  5
FD
100
AcDbEntity
  8
1
  6
CONTINUOUS
 62
     5
100
AcDbLine
 10
-144.4403
 20
355.6839
 30
0.0
 11
-140.8403
 21
355.6839
 31
0.0
  0
ARC
  5
FE
100
AcDbEntity
  8
1
  6
CONTINUOUS
 62
     5
100
AcDbCircle
 10
-139.984424
 20
355.728024
 30
0.0
 40
0.857012
210
0.0
220
0.0
230
1.0
100
AcDbArc
 50
87.048753
 51
182.951247
  0
LINE
  5
FF
100
AcDbEntity
  8
1
  6
CONTINUOUS
 62
     5
100
AcDbLine
 10
-134.5403
 20
359.2839
 30
0.0
 11
-139.9403
 21
359.2839
 31
0.0
  0
LINE
  5
100
100
AcDbEntity
  8
1
  6
CONTINUOUS
 62
     5
100
AcDbLine
 10
-134.5403
 20
357.4839
 30
0.0
 11
-139.9403
 21
357.4839
 31
0.0
  0
LINE
  5
101
100
AcDbEntity
  8
1
  6
CONTINUOUS
 62
     5
100
AcDbLine
 10
-134.5403
 20
360.1839
 30
0.0
 11
-127.3403
 21
360.1839
 31
0.0
  0
LINE
  5
102
100
AcDbEntity
  8
1
  6
CONTINUOUS
 62
     5
100
AcDbLine
 10
-127.3403
 20
356.5839
 30
0.0
 11
-127.3403
 21
360.1839
 31
0.0
  0
LINE
  5
103
100
AcDbEntity
  8
1
  6
CONTINUOUS
 62
     5
100
AcDbLine
 10
-134.5403
 20
356.5839
 30
0.0
 11
-127.3403
 21
356.5839
 31
0.0
  0
LINE
  5
104
100
AcDbEntity
  8
1
  6
CONTINUOUS
 62
     5
100
AcDbLine
 10
-134.5403
 20
359.8839
 30
0.0
 11
-127.3403
 21
359.8839
 31
0.0
  0
ARC
  5
105
100
AcDbEntity
  8
1
  6
CONTINUOUS
 62
     5
100
AcDbCircle
 10
-138.202656
 20
358.2339
 30
0.0
 40
4.016883
210
0.0
220
0.0
230
1.0
100
AcDbArc
 50
335.747022
 51
24.252978
  0
ARC
  5
106
100
AcDbEntity
  8
1
  6
CONTINUOUS
 62
     5
100
AcDbCircle
 10
-123.714744
 20
358.2339
 30
0.0
 40
4.016883
210
0.0
220
0.0
230
1.0
100
AcDbArc
 50
155.747022
 51
204.252978
  0
LINE
  5
107
100
AcDbEntity
  8
1
  6
CONTINUOUS
 62
     5
100
AcDbLine
 10
-134.5403
 20
356.5839
 30
0.0
 11
-134.5403
 21
359.8839
 31
0.0
  0
LINE
  5
108
100
AcDbEntity
  8
1
  6
CONTINUOUS
 62
     5
100
AcDbLine
 10
-134.5403
 20
359.8839
 30
0.0
 11
-134.5403
 21
360.1839
 31
0.0
  0
LINE
  5
109
100
AcDbEntity
  8
1
  6
CONTINUOUS
 62
     5
100
AcDbLine
 10
-132.2903
 20
359.0739
 30
0.0
 11
-132.2903
 21
357.3939
 31
0.0
  0
LINE
  5
10A
100
AcDbEntity
  8
1
  6
CONTINUOUS
 62
     5
100
AcDbLine
 10
-129.5903
 20
359.0739
 30
0.0
 11
-129.5903
 21
357.5139
 31
0.0
  0
LINE
  5
10B
100
AcDbEntity
  8
1
  6
CONTINUOUS
 62
     5
100
AcDbLine
 10
-130.9403
 20
359.8839
 30
0.0
 11
-132.2903
 21
359.0739
 31
0.0
  0
LINE
  5
10C
100
AcDbEntity
  8
1
  6
CONTINUOUS
 62
     5
100
AcDbLine
 10
-130.9403
 20
359.8839
 30
0.0
 11
-129.5903
 21
359.0739
 31
0.0
  0
LINE
  5
10D
100
AcDbEntity
  8
1
  6
CONTINUOUS
 62
     5
100
AcDbLine
 10
-132.2903
 20
357.3939
 30
0.0
 11
-130.9403
 21
356.5839
 31
0.0
  0
LINE
  5
10E
100
AcDbEntity
  8
1
  6
CONTINUOUS
 62
     5
100
AcDbLine
 10
-129.5903
 20
357.5139
 30
0.0
 11
-130.9403
 21
356.5839
 31
0.0
  0
LINE
  5
10F
100
AcDbEntity
  8
1
  6
CONTINUOUS
 62
     5
100
AcDbLine
 10
-121.3282
 20
356.594
 30
0.0
 11
-121.3282
 21
360.194
 31
0.0
  0
LINE
  5
110
100
AcDbEntity
  8
1
  6
CONTINUOUS
 62
     5
100
AcDbLine
 10
-116.8282
 20
355.094
 30
0.0
 11
-116.8282
 21
354.194
 31
0.0
  0
LINE
  5
111
100
AcDbEntity
  8
1
  6
CONTINUOUS
 62
     5
100
AcDbLine
 10
-120.4282
 20
355.094
 30
0.0
 11
-120.4282
 21
354.194
 31
0.0
  0
LINE
  5
112
100
AcDbEntity
  8
1
  6
CONTINUOUS
 62
     5
100
AcDbLine
 10
-116.8282
 20
355.094
 30
0.0
 11
-120.4282
 21
355.094
 31
0.0
  0
LINE
  5
113
100
AcDbEntity
  8
1
  6
CONTINUOUS
 62
     5
100
AcDbLine
 10
-117.7282
 20
355.694
 30
0.0
 11
-117.7282
 21
354.194
 31
0.0
  0
LINE
  5
114
100
AcDbEntity
  8
1
  6
CONTINUOUS
 62
     5
100
AcDbLine
 10
-119.5282
 20
355.694
 30
0.0
 11
-119.5282
 21
354.194
 31
0.0
  0
LINE
  5
115
100
AcDbEntity
  8
1
  6
CONTINUOUS
 62
     5
100
AcDbLine
 10
-116.8282
 20
355.694
 30
0.0
 11
-120.4282
 21
355.694
 31
0.0
  0
ARC
  5
116
100
AcDbEntity
  8
1
  6
CONTINUOUS
 62
     5
100
AcDbCircle
 10
-121.138783
 20
355.883417
 30
0.0
 40
4.314743
210
0.0
220
0.0
230
1.0
100
AcDbArc
 50
357.483914
 51
92.516086
  0
ARC
  5
117
100
AcDbEntity
  8
1
  6
CONTINUOUS
 62
     5
100
AcDbCircle
 10
-121.284076
 20
355.738124
 30
0.0
 40
0.857012
210
0.0
220
0.0
230
1.0
100
AcDbArc
 50
357.048753
 51
92.951247
  0
LINE
  5
118
100
AcDbEntity
  8
1
  6
CONTINUOUS
 62
     5
100
AcDbLine
 10
-127.3282
 20
359.294
 30
0.0
 11
-121.3282
 21
359.294
 31
0.0
  0
LINE
  5
119
100
AcDbEntity
  8
1
  6
CONTINUOUS
 62
     5
100
AcDbLine
 10
-127.3282
 20
357.494
 30
0.0
 11
-121.3282
 21
357.494
 31
0.0
  0
LINE
  5
11A
100
AcDbEntity
  8
1
  6
CONTINUOUS
 62
     5
100
AcDbLine
 10
-106.6282
 20
354.194
 30
0.0
 11
-130.6282
 21
354.194
 31
0.0
  0
LINE
  5
11B
100
AcDbEntity
  8
1
  6
CONTINUOUS
 62
     5
100
AcDbLine
 10
-109.0282
 20
352.994
 30
0.0
 11
-128.2282
 21
352.994
 31
0.0
  0
LINE
  5
11C
100
AcDbEntity
  8
1
  6
CONTINUOUS
 62
     5
100
AcDbLine
 10
-109.0282
 20
331.394
 30
0.0
 11
-128.2282
 21
331.394
 31
0.0
  0
ARC
  5
11D
100
AcDbEntity
  8
1
  6
CONTINUOUS
 62
     5
100
AcDbCircle
 10
-128.2282
 20
351.794
 30
0.0
 40
1.2
210
0.0
220
0.0
230
1.0
100
AcDbArc
 50
90.0
 51
180.0
  0
ARC
  5
11E
100
AcDbEntity
  8
1
  6
CONTINUOUS
 62
     5
100
AcDbCircle
 10
-109.0282
 20
351.794
 30
0.0
 40
1.2
210
0.0
220
0.0
230
1.0
100
AcDbArc
 50
0.0
 51
90.0
  0
ARC
  5
11F
100
AcDbEntity
  8
1
  6
CONTINUOUS
 62
     5
100
AcDbCircle
 10
-128.2282
 20
332.594
 30
0.0
 40
1.2
210
0.0
220
0.0
230
1.0
100
AcDbArc
 50
180.0
 51
270.0
  0
ARC
  5
120
100
AcDbEntity
  8
1
  6
CONTINUOUS
 62
     5
100
AcDbCircle
 10
-109.0282
 20
332.594
 30
0.0
 40
1.2
210
0.0
220
0.0
230
1.0
100
AcDbArc
 50
270.0
 51
0.0
  0
LINE
  5
121
100
AcDbEntity
  8
1
  6
CONTINUOUS
 62
     5
100
AcDbLine
 10
-128.8282
 20
350.594
 30
0.0
 11
-131.2282
 21
350.594
 31
0.0
  0
LINE
  5
122
100
AcDbEntity
  8
1
  6
CONTINUOUS
 62
     5
100
AcDbLine
 10
-128.8282
 20
333.794
 30
0.0
 11
-131.2282
 21
333.794
 31
0.0
  0
LINE
  5
123
100
AcDbEntity
  8
1
  6
CONTINUOUS
 62
     5
100
AcDbLine
 10
-128.8282
 20
351.794
 30
0.0
 11
-131.2282
 21
351.794
 31
0.0
  0
LINE
  5
124
100
AcDbEntity
  8
1
  6
CONTINUOUS
 62
     5
100
AcDbLine
 10
-128.8282
 20
332.594
 30
0.0
 11
-131.2282
 21
332.594
 31
0.0
  0
LINE
  5
125
100
AcDbEntity
  8
1
  6
CONTINUOUS
 62
     5
100
AcDbLine
 10
-130.6282
 20
354.194
 30
0.0
 11
-130.6282
 21
351.794
 31
0.0
  0
LINE
  5
126
100
AcDbEntity
  8
1
  6
CONTINUOUS
 62
     5
100
AcDbLine
 10
-131.2282
 20
351.794
 30
0.0
 11
-131.2282
 21
349.994
 31
0.0
  0
LINE
  5
127
100
AcDbEntity
  8
1
  6
CONTINUOUS
 62
     5
100
AcDbLine
 10
-131.2282
 20
349.994
 30
0.0
 11
-130.6282
 21
349.994
 31
0.0
  0
LINE
  5
128
100
AcDbEntity
  8
1
  6
CONTINUOUS
 62
     5
100
AcDbLine
 10
-130.6282
 20
350.594
 30
0.0
 11
-130.6282
 21
333.794
 31
0.0
  0
LINE
  5
129
100
AcDbEntity
  8
1
  6
CONTINUOUS
 62
     5
100
AcDbLine
 10
-130.6282
 20
332.594
 30
0.0
 11
-130.6282
 21
330.194
 31
0.0
  0
LINE
  5
12A
100
AcDbEntity
  8
1
  6
CONTINUOUS
 62
     5
100
AcDbLine
 10
-129.4282
 20
350.594
 30
0.0
 11
-129.4282
 21
333.794
 31
0.0
  0
LINE
  5
12B
100
AcDbEntity
  8
1
  6
CONTINUOUS
 62
     5
100
AcDbLine
 10
-131.2282
 20
332.594
 30
0.0
 11
-131.2282
 21
334.394
 31
0.0
  0
LINE
  5
12C
100
AcDbEntity
  8
1
  6
CONTINUOUS
 62
     5
100
AcDbLine
 10
-131.2282
 20
334.394
 30
0.0
 11
-130.6282
 21
334.394
 31
0.0
  0
LINE
  5
12D
100
AcDbEntity
  8
1
  6
CONTINUOUS
 62
     5
100
AcDbLine
 10
-106.0282
 20
342.794
 30
0.0
 11
-108.4282
 21
342.794
 31
0.0
  0
LINE
  5
12E
100
AcDbEntity
  8
1
  6
CONTINUOUS
 62
     5
100
AcDbLine
 10
-106.0282
 20
341.594
 30
0.0
 11
-108.4282
 21
341.594
 31
0.0
  0
LINE
  5
12F
100
AcDbEntity
  8
1
  6
CONTINUOUS
 62
     5
100
AcDbLine
 10
-107.8282
 20
351.794
 30
0.0
 11
-107.8282
 21
342.794
 31
0.0
  0
LINE
  5
130
100
AcDbEntity
  8
1
  6
CONTINUOUS
 62
     5
100
AcDbLine
 10
-107.8282
 20
341.594
 30
0.0
 11
-107.8282
 21
332.594
 31
0.0
  0
LINE
  5
131
100
AcDbEntity
  8
1
  6
CONTINUOUS
 62
     5
100
AcDbLine
 10
-106.6282
 20
354.194
 30
0.0
 11
-106.6282
 21
342.794
 31
0.0
  0
LINE
  5
132
100
AcDbEntity
  8
1
  6
CONTINUOUS
 62
     5
100
AcDbLine
 10
-106.6282
 20
341.594
 30
0.0
 11
-106.6282
 21
330.194
 31
0.0
  0
LINE
  5
133
100
AcDbEntity
  8
1
  6
CONTINUOUS
 62
     5
100
AcDbLine
 10
-106.0282
 20
342.794
 30
0.0
 11
-106.0282
 21
341.594
 31
0.0
  0
LINE
  5
134
100
AcDbEntity
  8
1
  6
CONTINUOUS
 62
     5
100
AcDbLine
 10
-106.3282
 20
343.394
 30
0.0
 11
-106.3282
 21
342.794
 31
0.0
  0
LINE
  5
135
100
AcDbEntity
  8
1
  6
CONTINUOUS
 62
     5
100
AcDbLine
 10
-106.3282
 20
341.594
 30
0.0
 11
-106.3282
 21
340.994
 31
0.0
  0
CIRCLE
  5
136
100
AcDbEntity
  8
1
  6
CONTINUOUS
 62
     5
100
AcDbCircle
 10
-118.6174
 20
342.1963
 30
0.0
 40
9.6
210
0.0
220
0.0
230
1.0
  0
TEXT
  5
137
100
AcDbEntity
  8
1
  6
CONTINUOUS
 62
     5
100
AcDbText
 10
-121.1602
 20
339.4818
 30
0.0
 40
6.0
  1
R
  7
TXT
210
0.0
220
0.0
230
1.0
100
AcDbText
  0
LINE
  5
138
100
AcDbEntity
  8
1
  6
CONTINUOUS
 62
     5
100
AcDbLine
 10
-131.8403
 20
362.5839
 30
0.0
 11
-131.8403
 21
360.1839
 31
0.0
  0
LINE
  5
139
100
AcDbEntity
  8
1
  6
CONTINUOUS
 62
     5
100
AcDbLine
 10
-130.0403
 20
362.5839
 30
0.0
 11
-130.0403
 21
360.1839
 31
0.0
  0
ARC
  5
13A
100
AcDbEntity
  8
1
  6
CONTINUOUS
 62
     5
100
AcDbCircle
 10
-131.3903
 20
362.163561
 30
0.0
 40
0.61578
210
0.0
220
0.0
230
1.0
100
AcDbArc
 50
43.048108
 51
136.951892
  0
ARC
  5
13B
100
AcDbEntity
  8
1
  6
CONTINUOUS
 62
     5
100
AcDbCircle
 10
-130.4903
 20
362.163561
 30
0.0
 40
0.61578
210
0.0
220
0.0
230
1.0
100
AcDbArc
 50
43.048108
 51
136.951892
  0
ARC
  5
13C
100
AcDbEntity
  8
1
  6
CONTINUOUS
 62
     5
100
AcDbCircle
 10
-130.4903
 20
363.000039
 30
0.0
 40
0.61578
210
0.0
220
0.0
230
1.0
100
AcDbArc
 50
223.048108
 51
316.951892
  0
LINE
  5
13D
100
AcDbEntity
  8
1
  6
CONTINUOUS
 62
     5
100
AcDbLine
 10
-143.5403
 20
283.0649
 30
0.0
 11
-143.5403
 21
305.2895
 31
0.0
  0
LINE
  5
13E
100
AcDbEntity
  8
1
  6
CONTINUOUS
 62
     5
100
AcDbLine
 10
-143.5403
 20
305.2895
 30
0.0
 11
-143.5403
 21
306.1895
 31
0.0
  0
LINE
  5
13F
100
AcDbEntity
  8
1
  6
CONTINUOUS
 62
     5
100
AcDbLine
 10
-141.7403
 20
283.0649
 30
0.0
 11
-141.7403
 21
305.2895
 31
0.0
  0
LINE
  5
140
100
AcDbEntity
  8
1
  6
CONTINUOUS
 62
     5
100
AcDbLine
 10
-141.7403
 20
305.2895
 30
0.0
 11
-141.7403
 21
306.1895
 31
0.0
  0
LINE
  5
141
100
AcDbEntity
  8
1
  6
CONTINUOUS
 62
     5
100
AcDbLine
 10
-144.4403
 20
283.0649
 30
0.0
 11
-140.8403
 21
283.0649
 31
0.0
  0
LINE
  5
142
100
AcDbEntity
  8
1
  6
CONTINUOUS
 62
     5
100
AcDbLine
 10
-140.8403
 20
283.0649
 30
0.0
 11
-140.8403
 21
282.074
 31
0.0
  0
LINE
  5
143
100
AcDbEntity
  8
1
  6
CONTINUOUS
 62
     5
100
AcDbLine
 10
-143.5403
 20
283.0649
 30
0.0
 11
-143.5403
 21
282.074
 31
0.0
  0
LINE
  5
144
100
AcDbEntity
  8
1
  6
CONTINUOUS
 62
     5
100
AcDbLine
 10
-141.7403
 20
283.0649
 30
0.0
 11
-141.7403
 21
282.074
 31
0.0
  0
LINE
  5
145
100
AcDbEntity
  8
1
  6
CONTINUOUS
 62
     5
100
AcDbLine
 10
-120.4282
 20
280.694
 30
0.0
 11
-120.4282
 21
281.594
 31
0.0
  0
LINE
  5
146
100
AcDbEntity
  8
1
  6
CONTINUOUS
 62
     5
100
AcDbLine
 10
-116.8282
 20
280.694
 30
0.0
 11
-116.8282
 21
282.194
 31
0.0
  0
LINE
  5
147
100
AcDbEntity
  8
1
  6
CONTINUOUS
 62
     5
100
AcDbLine
 10
-119.5282
 20
280.694
 30
0.0
 11
-119.5282
 21
281.594
 31
0.0
  0
LINE
  5
148
100
AcDbEntity
  8
1
  6
CONTINUOUS
 62
     5
100
AcDbLine
 10
-117.7282
 20
280.694
 30
0.0
 11
-117.7282
 21
281.594
 31
0.0
  0
LINE
  5
149
100
AcDbEntity
  8
1
  6
CONTINUOUS
 62
     5
100
AcDbLine
 10
-116.8282
 20
281.594
 30
0.0
 11
-144.4403
 21
281.594
 31
0.0
  0
LINE
  5
14A
100
AcDbEntity
  8
1
  6
CONTINUOUS
 62
     5
100
AcDbLine
 10
-120.4282
 20
280.694
 30
0.0
 11
-116.8282
 21
280.694
 31
0.0
  0
LINE
  5
14B
100
AcDbEntity
  8
1
  6
CONTINUOUS
 62
     5
100
AcDbLine
 10
-116.8282
 20
282.074
 30
0.0
 11
-144.4403
 21
282.074
 31
0.0
  0
LINE
  5
14C
100
AcDbEntity
  8
1
  6
CONTINUOUS
 62
     5
100
AcDbLine
 10
-144.4403
 20
283.0649
 30
0.0
 11
-144.4403
 21
282.074
 31
0.0
  0
LINE
  5
14D
100
AcDbEntity
  8
1
  6
CONTINUOUS
 62
     5
100
AcDbLine
 10
-144.4403
 20
282.074
 30
0.0
 11
-144.4403
 21
281.594
 31
0.0
  0
LINE
  5
14E
100
AcDbEntity
  8
1
  6
CONTINUOUS
 62
     5
100
AcDbLine
 10
-144.4403
 20
280.6043
 30
0.0
 11
-140.8403
 21
280.6043
 31
0.0
  0
LINE
  5
14F
100
AcDbEntity
  8
1
  6
CONTINUOUS
 62
     5
100
AcDbLine
 10
-140.8403
 20
280.6043
 30
0.0
 11
-140.8403
 21
281.5952
 31
0.0
  0
LINE
  5
150
100
AcDbEntity
  8
1
  6
CONTINUOUS
 62
     5
100
AcDbLine
 10
-143.5403
 20
280.6043
 30
0.0
 11
-143.5403
 21
281.5952
 31
0.0
  0
LINE
  5
151
100
AcDbEntity
  8
1
  6
CONTINUOUS
 62
     5
100
AcDbLine
 10
-141.7403
 20
280.6043
 30
0.0
 11
-141.7403
 21
281.5952
 31
0.0
  0
LINE
  5
152
100
AcDbEntity
  8
1
  6
CONTINUOUS
 62
     5
100
AcDbLine
 10
-144.4403
 20
280.6043
 30
0.0
 11
-144.4403
 21
281.5952
 31
0.0
  0
ARC
  5
153
100
AcDbEntity
  8
1
  6
CONTINUOUS
 62
     5
100
AcDbCircle
 10
-140.129717
 20
355.873317
 30
0.0
 40
4.314743
210
0.0
220
0.0
230
1.0
100
AcDbArc
 50
87.483914
 51
182.516086
  0
LINE
  5
154
100
AcDbEntity
  8
1
  6
CONTINUOUS
 62
     5
100
AcDbLine
 10
-139.9403
 20
356.5839
 30
0.0
 11
-139.9403
 21
360.1839
 31
0.0
  0
LINE
  5
155
100
AcDbEntity
  8
1
  6
CONTINUOUS
 62
     5
100
AcDbLine
 10
-106.6282
 20
330.194
 30
0.0
 11
-130.6282
 21
330.194
 31
0.0
  0
LINE
  5
156
100
AcDbEntity
  8
1
  6
CONTINUOUS
 62
     5
100
AcDbLine
 10
-109.0282
 20
328.994
 30
0.0
 11
-128.2282
 21
328.994
 31
0.0
  0
LINE
  5
157
100
AcDbEntity
  8
1
  6
CONTINUOUS
 62
     5
100
AcDbLine
 10
-109.0282
 20
307.394
 30
0.0
 11
-128.2282
 21
307.394
 31
0.0
  0
ARC
  5
158
100
AcDbEntity
  8
1
  6
CONTINUOUS
 62
     5
100
AcDbCircle
 10
-128.2282
 20
327.794
 30
0.0
 40
1.2
210
0.0
220
0.0
230
1.0
100
AcDbArc
 50
90.0
 51
180.0
  0
ARC
  5
159
100
AcDbEntity
  8
1
  6
CONTINUOUS
 62
     5
100
AcDbCircle
 10
-109.0282
 20
327.794
 30
0.0
 40
1.2
210
0.0
220
0.0
230
1.0
100
AcDbArc
 50
0.0
 51
90.0
  0
ARC
  5
15A
100
AcDbEntity
  8
1
  6
CONTINUOUS
 62
     5
100
AcDbCircle
 10
-128.2282
 20
308.594
 30
0.0
 40
1.2
210
0.0
220
0.0
230
1.0
100
AcDbArc
 50
180.0
 51
270.0
  0
ARC
  5
15B
100
AcDbEntity
  8
1
  6
CONTINUOUS
 62
     5
100
AcDbCircle
 10
-109.0282
 20
308.594
 30
0.0
 40
1.2
210
0.0
220
0.0
230
1.0
100
AcDbArc
 50
270.0
 51
0.0
  0
LINE
  5
15C
100
AcDbEntity
  8
1
  6
CONTINUOUS
 62
     5
100
AcDbLine
 10
-128.8282
 20
326.594
 30
0.0
 11
-131.2282
 21
326.594
 31
0.0
  0
LINE
  5
15D
100
AcDbEntity
  8
1
  6
CONTINUOUS
 62
     5
100
AcDbLine
 10
-128.8282
 20
309.794
 30
0.0
 11
-131.2282
 21
309.794
 31
0.0
  0
LINE
  5
15E
100
AcDbEntity
  8
1
  6
CONTINUOUS
 62
     5
100
AcDbLine
 10
-128.8282
 20
327.794
 30
0.0
 11
-131.2282
 21
327.794
 31
0.0
  0
LINE
  5
15F
100
AcDbEntity
  8
1
  6
CONTINUOUS
 62
     5
100
AcDbLine
 10
-128.8282
 20
308.594
 30
0.0
 11
-131.2282
 21
308.594
 31
0.0
  0
LINE
  5
160
100
AcDbEntity
  8
1
  6
CONTINUOUS
 62
     5
100
AcDbLine
 10
-130.6282
 20
330.194
 30
0.0
 11
-130.6282
 21
327.794
 31
0.0
  0
LINE
  5
161
100
AcDbEntity
  8
1
  6
CONTINUOUS
 62
     5
100
AcDbLine
 10
-131.2282
 20
327.794
 30
0.0
 11
-131.2282
 21
325.994
 31
0.0
  0
LINE
  5
162
100
AcDbEntity
  8
1
  6
CONTINUOUS
 62
     5
100
AcDbLine
 10
-131.2282
 20
325.994
 30
0.0
 11
-130.6282
 21
325.994
 31
0.0
  0
LINE
  5
163
100
AcDbEntity
  8
1
  6
CONTINUOUS
 62
     5
100
AcDbLine
 10
-130.6282
 20
326.594
 30
0.0
 11
-130.6282
 21
309.794
 31
0.0
  0
LINE
  5
164
100
AcDbEntity
  8
1
  6
CONTINUOUS
 62
     5
100
AcDbLine
 10
-130.6282
 20
308.594
 30
0.0
 11
-130.6282
 21
306.194
 31
0.0
  0
LINE
  5
165
100
AcDbEntity
  8
1
  6
CONTINUOUS
 62
     5
100
AcDbLine
 10
-129.4282
 20
326.594
 30
0.0
 11
-129.4282
 21
309.794
 31
0.0
  0
LINE
  5
166
100
AcDbEntity
  8
1
  6
CONTINUOUS
 62
     5
100
AcDbLine
 10
-131.2282
 20
308.594
 30
0.0
 11
-131.2282
 21
310.394
 31
0.0
  0
LINE
  5
167
100
AcDbEntity
  8
1
  6
CONTINUOUS
 62
     5
100
AcDbLine
 10
-131.2282
 20
310.394
 30
0.0
 11
-130.6282
 21
310.394
 31
0.0
  0
LINE
  5
168
100
AcDbEntity
  8
1
  6
CONTINUOUS
 62
     5
100
AcDbLine
 10
-106.0282
 20
318.794
 30
0.0
 11
-108.4282
 21
318.794
 31
0.0
  0
LINE
  5
169
100
AcDbEntity
  8
1
  6
CONTINUOUS
 62
     5
100
AcDbLine
 10
-106.0282
 20
317.594
 30
0.0
 11
-108.4282
 21
317.594
 31
0.0
  0
LINE
  5
16A
100
AcDbEntity
  8
1
  6
CONTINUOUS
 62
     5
100
AcDbLine
 10
-107.8282
 20
327.794
 30
0.0
 11
-107.8282
 21
318.794
 31
0.0
  0
LINE
  5
16B
100
AcDbEntity
  8
1
  6
CONTINUOUS
 62
     5
100
AcDbLine
 10
-107.8282
 20
317.594
 30
0.0
 11
-107.8282
 21
308.594
 31
0.0
  0
LINE
  5
16C
100
AcDbEntity
  8
1
  6
CONTINUOUS
 62
     5
100
AcDbLine
 10
-106.6282
 20
330.194
 30
0.0
 11
-106.6282
 21
318.794
 31
0.0
  0
LINE
  5
16D
100
AcDbEntity
  8
1
  6
CONTINUOUS
 62
     5
100
AcDbLine
 10
-106.6282
 20
317.594
 30
0.0
 11
-106.6282
 21
306.194
 31
0.0
  0
LINE
  5
16E
100
AcDbEntity
  8
1
  6
CONTINUOUS
 62
     5
100
AcDbLine
 10
-106.0282
 20
318.794
 30
0.0
 11
-106.0282
 21
317.594
 31
0.0
  0
LINE
  5
16F
100
AcDbEntity
  8
1
  6
CONTINUOUS
 62
     5
100
AcDbLine
 10
-106.3282
 20
319.394
 30
0.0
 11
-106.3282
 21
318.794
 31
0.0
  0
LINE
  5
170
100
AcDbEntity
  8
1
  6
CONTINUOUS
 62
     5
100
AcDbLine
 10
-106.3282
 20
317.594
 30
0.0
 11
-106.3282
 21
316.994
 31
0.0
  0
CIRCLE
  5
171
100
AcDbEntity
  8
1
  6
CONTINUOUS
 62
     5
100
AcDbCircle
 10
-118.6174
 20
318.1963
 30
0.0
 40
9.6
210
0.0
220
0.0
230
1.0
  0
LINE
  5
172
100
AcDbEntity
  8
1
  6
CONTINUOUS
 62
     5
100
AcDbLine
 10
-106.6282
 20
306.194
 30
0.0
 11
-130.6282
 21
306.194
 31
0.0
  0
LINE
  5
173
100
AcDbEntity
  8
1
  6
CONTINUOUS
 62
     5
100
AcDbLine
 10
-106.6282
 20
282.194
 30
0.0
 11
-130.6282
 21
282.194
 31
0.0
  0
LINE
  5
174
100
AcDbEntity
  8
1
  6
CONTINUOUS
 62
     5
100
AcDbLine
 10
-109.0282
 20
304.994
 30
0.0
 11
-128.2282
 21
304.994
 31
0.0
  0
LINE
  5
175
100
AcDbEntity
  8
1
  6
CONTINUOUS
 62
     5
100
AcDbLine
 10
-109.0282
 20
283.394
 30
0.0
 11
-128.2282
 21
283.394
 31
0.0
  0
ARC
  5
176
100
AcDbEntity
  8
1
  6
CONTINUOUS
 62
     5
100
AcDbCircle
 10
-128.2282
 20
303.794
 30
0.0
 40
1.2
210
0.0
220
0.0
230
1.0
100
AcDbArc
 50
90.0
 51
180.0
  0
ARC
  5
177
100
AcDbEntity
  8
1
  6
CONTINUOUS
 62
     5
100
AcDbCircle
 10
-109.0282
 20
303.794
 30
0.0
 40
1.2
210
0.0
220
0.0
230
1.0
100
AcDbArc
 50
0.0
 51
90.0
  0
ARC
  5
178
100
AcDbEntity
  8
1
  6
CONTINUOUS
 62
     5
100
AcDbCircle
 10
-128.2282
 20
284.594
 30
0.0
 40
1.2
210
0.0
220
0.0
230
1.0
100
AcDbArc
 50
180.0
 51
270.0
  0
ARC
  5
179
100
AcDbEntity
  8
1
  6
CONTINUOUS
 62
     5
100
AcDbCircle
 10
-109.0282
 20
284.594
 30
0.0
 40
1.2
210
0.0
220
0.0
230
1.0
100
AcDbArc
 50
270.0
 51
0.0
  0
LINE
  5
17A
100
AcDbEntity
  8
1
  6
CONTINUOUS
 62
     5
100
AcDbLine
 10
-128.8282
 20
302.594
 30
0.0
 11
-131.2282
 21
302.594
 31
0.0
  0
LINE
  5
17B
100
AcDbEntity
  8
1
  6
CONTINUOUS
 62
     5
100
AcDbLine
 10
-128.8282
 20
285.794
 30
0.0
 11
-131.2282
 21
285.794
 31
0.0
  0
LINE
  5
17C
100
AcDbEntity
  8
1
  6
CONTINUOUS
 62
     5
100
AcDbLine
 10
-128.8282
 20
303.794
 30
0.0
 11
-131.2282
 21
303.794
 31
0.0
  0
LINE
  5
17D
100
AcDbEntity
  8
1
  6
CONTINUOUS
 62
     5
100
AcDbLine
 10
-128.8282
 20
284.594
 30
0.0
 11
-131.2282
 21
284.594
 31
0.0
  0
LINE
  5
17E
100
AcDbEntity
  8
1
  6
CONTINUOUS
 62
     5
100
AcDbLine
 10
-130.6282
 20
306.194
 30
0.0
 11
-130.6282
 21
303.794
 31
0.0
  0
LINE
  5
17F
100
AcDbEntity
  8
1
  6
CONTINUOUS
 62
     5
100
AcDbLine
 10
-131.2282
 20
303.794
 30
0.0
 11
-131.2282
 21
301.994
 31
0.0
  0
LINE
  5
180
100
AcDbEntity
  8
1
  6
CONTINUOUS
 62
     5
100
AcDbLine
 10
-131.2282
 20
301.994
 30
0.0
 11
-130.6282
 21
301.994
 31
0.0
  0
LINE
  5
181
100
AcDbEntity
  8
1
  6
CONTINUOUS
 62
     5
100
AcDbLine
 10
-130.6282
 20
302.594
 30
0.0
 11
-130.6282
 21
285.794
 31
0.0
  0
LINE
  5
182
100
AcDbEntity
  8
1
  6
CONTINUOUS
 62
     5
100
AcDbLine
 10
-130.6282
 20
284.594
 30
0.0
 11
-130.6282
 21
282.194
 31
0.0
  0
LINE
  5
183
100
AcDbEntity
  8
1
  6
CONTINUOUS
 62
     5
100
AcDbLine
 10
-129.4282
 20
302.594
 30
0.0
 11
-129.4282
 21
285.794
 31
0.0
  0
LINE
  5
184
100
AcDbEntity
  8
1
  6
CONTINUOUS
 62
     5
100
AcDbLine
 10
-131.2282
 20
284.594
 30
0.0
 11
-131.2282
 21
286.394
 31
0.0
  0
LINE
  5
185
100
AcDbEntity
  8
1
  6
CONTINUOUS
 62
     5
100
AcDbLine
 10
-131.2282
 20
286.394
 30
0.0
 11
-130.6282
 21
286.394
 31
0.0
  0
LINE
  5
186
100
AcDbEntity
  8
1
  6
CONTINUOUS
 62
     5
100
AcDbLine
 10
-106.0282
 20
294.794
 30
0.0
 11
-108.4282
 21
294.794
 31
0.0
  0
LINE
  5
187
100
AcDbEntity
  8
1
  6
CONTINUOUS
 62
     5
100
AcDbLine
 10
-106.0282
 20
293.594
 30
0.0
 11
-108.4282
 21
293.594
 31
0.0
  0
LINE
  5
188
100
AcDbEntity
  8
1
  6
CONTINUOUS
 62
     5
100
AcDbLine
 10
-107.8282
 20
303.794
 30
0.0
 11
-107.8282
 21
294.794
 31
0.0
  0
LINE
  5
189
100
AcDbEntity
  8
1
  6
CONTINUOUS
 62
     5
100
AcDbLine
 10
-107.8282
 20
293.594
 30
0.0
 11
-107.8282
 21
284.594
 31
0.0
  0
LINE
  5
18A
100
AcDbEntity
  8
1
  6
CONTINUOUS
 62
     5
100
AcDbLine
 10
-106.6282
 20
306.194
 30
0.0
 11
-106.6282
 21
294.794
 31
0.0
  0
LINE
  5
18B
100
AcDbEntity
  8
1
  6
CONTINUOUS
 62
     5
100
AcDbLine
 10
-106.6282
 20
293.594
 30
0.0
 11
-106.6282
 21
282.194
 31
0.0
  0
LINE
  5
18C
100
AcDbEntity
  8
1
  6
CONTINUOUS
 62
     5
100
AcDbLine
 10
-106.0282
 20
294.794
 30
0.0
 11
-106.0282
 21
293.594
 31
0.0
  0
LINE
  5
18D
100
AcDbEntity
  8
1
  6
CONTINUOUS
 62
     5
100
AcDbLine
 10
-106.3282
 20
295.394
 30
0.0
 11
-106.3282
 21
294.794
 31
0.0
  0
LINE
  5
18E
100
AcDbEntity
  8
1
  6
CONTINUOUS
 62
     5
100
AcDbLine
 10
-106.3282
 20
293.594
 30
0.0
 11
-106.3282
 21
292.994
 31
0.0
  0
CIRCLE
  5
18F
100
AcDbEntity
  8
1
  6
CONTINUOUS
 62
     5
100
AcDbCircle
 10
-118.6174
 20
294.1963
 30
0.0
 40
9.6
210
0.0
220
0.0
230
1.0
  0
POLYLINE
  5
190
100
AcDbEntity
  8
1
  6
CONTINUOUS
 62
     5
100
AcDb2dPolyline
 66
     1
 10
0.0
 20
0.0
 30
0.0
 70
     1
  0
VERTEX
  5
191
100
AcDbEntity
  8
1
  6
CONTINUOUS
 62
     5
100
AcDbVertex
100
AcDb2dVertex
 10
-120.7909
 20
324.794
 30
0.0
  0
VERTEX
  5
192
100
AcDbEntity
  8
1
  6
CONTINUOUS
 62
     5
100
AcDbVertex
100
AcDb2dVertex
 10
-125.8174
 20
318.194
 30
0.0
  0
VERTEX
  5
193
100
AcDbEntity
  8
1
  6
CONTINUOUS
 62
     5
100
AcDbVertex
100
AcDb2dVertex
 10
-120.7866
 20
311.594
 30
0.0
  0
VERTEX
  5
194
100
AcDbEntity
  8
1
  6
CONTINUOUS
 62
     5
100
AcDbVertex
100
AcDb2dVertex
 10
-119.3551
 20
312.6852
 30
0.0
  0
VERTEX
  5
195
100
AcDbEntity
  8
1
  6
CONTINUOUS
 62
     5
100
AcDbVertex
100
AcDb2dVertex
 10
-123.5546
 20
318.1946
 30
0.0
  0
VERTEX
  5
196
100
AcDbEntity
  8
1
  6
CONTINUOUS
 62
     5
100
AcDbVertex
100
AcDb2dVertex
 10
-119.359
 20
323.7035
 30
0.0
  0
VERTEX
  5
197
100
AcDbEntity
  8
1
  6
CONTINUOUS
 62
     5
100
AcDbVertex
100
AcDb2dVertex
 10
-120.7909
 20
324.794
 30
0.0
  0
SEQEND
  5
198
100
AcDbEntity
  8
1
  6
CONTINUOUS
 62
     5
  0
POLYLINE
  5
199
100
AcDbEntity
  8
1
  6
CONTINUOUS
 62
     5
100
AcDb2dPolyline
 66
     1
 10
0.0
 20
0.0
 30
0.0
 70
     1
  0
VERTEX
  5
19A
100
AcDbEntity
  8
1
  6
CONTINUOUS
 62
     5
100
AcDbVertex
100
AcDb2dVertex
 10
-121.6174
 20
317.294
 30
0.0
  0
VERTEX
  5
19B
100
AcDbEntity
  8
1
  6
CONTINUOUS
 62
     5
100
AcDbVertex
100
AcDb2dVertex
 10
-121.6174
 20
319.094
 30
0.0
  0
VERTEX
  5
19C
100
AcDbEntity
  8
1
  6
CONTINUOUS
 62
     5
100
AcDbVertex
100
AcDb2dVertex
 10
-113.8174
 20
319.094
 30
0.0
  0
VERTEX
  5
19D
100
AcDbEntity
  8
1
  6
CONTINUOUS
 62
     5
100
AcDbVertex
100
AcDb2dVertex
 10
-113.8174
 20
317.294
 30
0.0
  0
VERTEX
  5
19E
100
AcDbEntity
  8
1
  6
CONTINUOUS
 62
     5
100
AcDbVertex
100
AcDb2dVertex
 10
-121.6174
 20
317.294
 30
0.0
  0
SEQEND
  5
19F
100
AcDbEntity
  8
1
  6
CONTINUOUS
 62
     5
  0
POLYLINE
  5
1A0
100
AcDbEntity
  8
1
  6
CONTINUOUS
 62
     5
100
AcDb2dPolyline
 66
     1
 10
0.0
 20
0.0
 30
0.0
 70
     1
  0
VERTEX
  5
1A1
100
AcDbEntity
  8
1
  6
CONTINUOUS
 62
     5
100
AcDbVertex
100
AcDb2dVertex
 10
-120.7909
 20
300.794
 30
0.0
  0
VERTEX
  5
1A2
100
AcDbEntity
  8
1
  6
CONTINUOUS
 62
     5
100
AcDbVertex
100
AcDb2dVertex
 10
-125.8174
 20
294.194
 30
0.0
  0
VERTEX
  5
1A3
100
AcDbEntity
  8
1
  6
CONTINUOUS
 62
     5
100
AcDbVertex
100
AcDb2dVertex
 10
-120.7866
 20
287.594
 30
0.0
  0
VERTEX
  5
1A4
100
AcDbEntity
  8
1
  6
CONTINUOUS
 62
     5
100
AcDbVertex
100
AcDb2dVertex
 10
-119.3551
 20
288.6852
 30
0.0
  0
VERTEX
  5
1A5
100
AcDbEntity
  8
1
  6
CONTINUOUS
 62
     5
100
AcDbVertex
100
AcDb2dVertex
 10
-123.5546
 20
294.1946
 30
0.0
  0
VERTEX
  5
1A6
100
AcDbEntity
  8
1
  6
CONTINUOUS
 62
     5
100
AcDbVertex
100
AcDb2dVertex
 10
-119.359
 20
299.7035
 30
0.0
  0
VERTEX
  5
1A7
100
AcDbEntity
  8
1
  6
CONTINUOUS
 62
     5
100
AcDbVertex
100
AcDb2dVertex
 10
-120.7909
 20
300.794
 30
0.0
  0
SEQEND
  5
1A8
100
AcDbEntity
  8
1
  6
CONTINUOUS
 62
     5
  0
POLYLINE
  5
1A9
100
AcDbEntity
  8
1
  6
CONTINUOUS
 62
     5
100
AcDb2dPolyline
 66
     1
 10
0.0
 20
0.0
 30
0.0
 70
     1
  0
VERTEX
  5
1AA
100
AcDbEntity
  8
1
  6
CONTINUOUS
 62
     5
100
AcDbVertex
100
AcDb2dVertex
 10
-121.6174
 20
293.294
 30
0.0
  0
VERTEX
  5
1AB
100
AcDbEntity
  8
1
  6
CONTINUOUS
 62
     5
100
AcDbVertex
100
AcDb2dVertex
 10
-121.6174
 20
295.094
 30
0.0
  0
VERTEX
  5
1AC
100
AcDbEntity
  8
1
  6
CONTINUOUS
 62
     5
100
AcDbVertex
100
AcDb2dVertex
 10
-113.8174
 20
295.094
 30
0.0
  0
VERTEX
  5
1AD
100
AcDbEntity
  8
1
  6
CONTINUOUS
 62
     5
100
AcDbVertex
100
AcDb2dVertex
 10
-113.8174
 20
293.294
 30
0.0
  0
VERTEX
  5
1AE
100
AcDbEntity
  8
1
  6
CONTINUOUS
 62
     5
100
AcDbVertex
100
AcDb2dVertex
 10
-121.6174
 20
293.294
 30
0.0
  0
SEQEND
  5
1AF
100
AcDbEntity
  8
1
  6
CONTINUOUS
 62
     5
  0
LINE
  5
1B0
100
AcDbEntity
  8
1
  6
CONTINUOUS
 62
     5
100
AcDbLine
 10
-151.0282
 20
188.294
 30
0.0
 11
-151.0282
 21
187.394
 31
0.0
  0
LINE
  5
1B1
100
AcDbEntity
  8
1
  6
CONTINUOUS
 62
     5
100
AcDbLine
 10
-147.4282
 20
188.294
 30
0.0
 11
-147.4282
 21
187.394
 31
0.0
  0
LINE
  5
1B2
100
AcDbEntity
  8
1
  6
CONTINUOUS
 62
     5
100
AcDbLine
 10
-151.0282
 20
188.294
 30
0.0
 11
-147.4282
 21
188.294
 31
0.0
  0
LINE
  5
1B3
100
AcDbEntity
  8
1
  6
CONTINUOUS
 62
     5
100
AcDbLine
 10
-150.1282
 20
212.8839
 30
0.0
 11
-150.1282
 21
187.394
 31
0.0
  0
LINE
  5
1B4
100
AcDbEntity
  8
1
  6
CONTINUOUS
 62
     5
100
AcDbLine
 10
-148.3282
 20
212.8839
 30
0.0
 11
-148.3282
 21
187.394
 31
0.0
  0
LINE
  5
1B5
100
AcDbEntity
  8
1
  6
CONTINUOUS
 62
     5
100
AcDbLine
 10
-151.0282
 20
212.8839
 30
0.0
 11
-147.4282
 21
212.8839
 31
0.0
  0
ARC
  5
1B6
100
AcDbEntity
  8
1
  6
CONTINUOUS
 62
     5
100
AcDbCircle
 10
-146.572324
 20
212.928024
 30
0.0
 40
0.857012
210
0.0
220
0.0
230
1.0
100
AcDbArc
 50
87.048753
 51
182.951247
  0
LINE
  5
1B7
100
AcDbEntity
  8
1
  6
CONTINUOUS
 62
     5
100
AcDbLine
 10
-137.5282
 20
217.3839
 30
0.0
 11
-130.3282
 21
217.3839
 31
0.0
  0
LINE
  5
1B8
100
AcDbEntity
  8
1
  6
CONTINUOUS
 62
     5
100
AcDbLine
 10
-130.3282
 20
213.7839
 30
0.0
 11
-130.3282
 21
217.3839
 31
0.0
  0
LINE
  5
1B9
100
AcDbEntity
  8
1
  6
CONTINUOUS
 62
     5
100
AcDbLine
 10
-137.5282
 20
213.7839
 30
0.0
 11
-130.3282
 21
213.7839
 31
0.0
  0
LINE
  5
1BA
100
AcDbEntity
  8
1
  6
CONTINUOUS
 62
     5
100
AcDbLine
 10
-137.5282
 20
217.0839
 30
0.0
 11
-130.3282
 21
217.0839
 31
0.0
  0
ARC
  5
1BB
100
AcDbEntity
  8
1
  6
CONTINUOUS
 62
     5
100
AcDbCircle
 10
-141.190556
 20
215.4339
 30
0.0
 40
4.016883
210
0.0
220
0.0
230
1.0
100
AcDbArc
 50
335.747022
 51
24.252978
  0
ARC
  5
1BC
100
AcDbEntity
  8
1
  6
CONTINUOUS
 62
     5
100
AcDbCircle
 10
-126.702644
 20
215.4339
 30
0.0
 40
4.016883
210
0.0
220
0.0
230
1.0
100
AcDbArc
 50
155.747022
 51
204.252978
  0
LINE
  5
1BD
100
AcDbEntity
  8
1
  6
CONTINUOUS
 62
     5
100
AcDbLine
 10
-137.5282
 20
213.7839
 30
0.0
 11
-137.5282
 21
217.0839
 31
0.0
  0
LINE
  5
1BE
100
AcDbEntity
  8
1
  6
CONTINUOUS
 62
     5
100
AcDbLine
 10
-137.5282
 20
217.0839
 30
0.0
 11
-137.5282
 21
217.3839
 31
0.0
  0
LINE
  5
1BF
100
AcDbEntity
  8
1
  6
CONTINUOUS
 62
     5
100
AcDbLine
 10
-135.2782
 20
216.2739
 30
0.0
 11
-135.2782
 21
214.5939
 31
0.0
  0
LINE
  5
1C0
100
AcDbEntity
  8
1
  6
CONTINUOUS
 62
     5
100
AcDbLine
 10
-132.5782
 20
216.2739
 30
0.0
 11
-132.5782
 21
214.7139
 31
0.0
  0
LINE
  5
1C1
100
AcDbEntity
  8
1
  6
CONTINUOUS
 62
     5
100
AcDbLine
 10
-133.9282
 20
217.0839
 30
0.0
 11
-135.2782
 21
216.2739
 31
0.0
  0
LINE
  5
1C2
100
AcDbEntity
  8
1
  6
CONTINUOUS
 62
     5
100
AcDbLine
 10
-133.9282
 20
217.0839
 30
0.0
 11
-132.5782
 21
216.2739
 31
0.0
  0
LINE
  5
1C3
100
AcDbEntity
  8
1
  6
CONTINUOUS
 62
     5
100
AcDbLine
 10
-135.2782
 20
214.5939
 30
0.0
 11
-133.9282
 21
213.7839
 31
0.0
  0
LINE
  5
1C4
100
AcDbEntity
  8
1
  6
CONTINUOUS
 62
     5
100
AcDbLine
 10
-132.5782
 20
214.7139
 30
0.0
 11
-133.9282
 21
213.7839
 31
0.0
  0
LINE
  5
1C5
100
AcDbEntity
  8
1
  6
CONTINUOUS
 62
     5
100
AcDbLine
 10
-121.3282
 20
213.794
 30
0.0
 11
-121.3282
 21
217.394
 31
0.0
  0
LINE
  5
1C6
100
AcDbEntity
  8
1
  6
CONTINUOUS
 62
     5
100
AcDbLine
 10
-116.8282
 20
212.294
 30
0.0
 11
-116.8282
 21
211.394
 31
0.0
  0
LINE
  5
1C7
100
AcDbEntity
  8
1
  6
CONTINUOUS
 62
     5
100
AcDbLine
 10
-120.4282
 20
212.294
 30
0.0
 11
-120.4282
 21
211.394
 31
0.0
  0
LINE
  5
1C8
100
AcDbEntity
  8
1
  6
CONTINUOUS
 62
     5
100
AcDbLine
 10
-116.8282
 20
212.294
 30
0.0
 11
-120.4282
 21
212.294
 31
0.0
  0
LINE
  5
1C9
100
AcDbEntity
  8
1
  6
CONTINUOUS
 62
     5
100
AcDbLine
 10
-117.7282
 20
212.894
 30
0.0
 11
-117.7282
 21
211.394
 31
0.0
  0
LINE
  5
1CA
100
AcDbEntity
  8
1
  6
CONTINUOUS
 62
     5
100
AcDbLine
 10
-119.5282
 20
212.894
 30
0.0
 11
-119.5282
 21
211.394
 31
0.0
  0
LINE
  5
1CB
100
AcDbEntity
  8
1
  6
CONTINUOUS
 62
     5
100
AcDbLine
 10
-116.8282
 20
212.894
 30
0.0
 11
-120.4282
 21
212.894
 31
0.0
  0
ARC
  5
1CC
100
AcDbEntity
  8
1
  6
CONTINUOUS
 62
     5
100
AcDbCircle
 10
-121.138783
 20
213.083417
 30
0.0
 40
4.314743
210
0.0
220
0.0
230
1.0
100
AcDbArc
 50
357.483914
 51
92.516086
  0
ARC
  5
1CD
100
AcDbEntity
  8
1
  6
CONTINUOUS
 62
     5
100
AcDbCircle
 10
-121.284076
 20
212.938124
 30
0.0
 40
0.857012
210
0.0
220
0.0
230
1.0
100
AcDbArc
 50
357.048753
 51
92.951247
  0
LINE
  5
1CE
100
AcDbEntity
  8
1
  6
CONTINUOUS
 62
     5
100
AcDbLine
 10
-106.6282
 20
211.394
 30
0.0
 11
-130.6282
 21
211.394
 31
0.0
  0
LINE
  5
1CF
100
AcDbEntity
  8
1
  6
CONTINUOUS
 62
     5
100
AcDbLine
 10
-109.0282
 20
210.194
 30
0.0
 11
-128.2282
 21
210.194
 31
0.0
  0
LINE
  5
1D0
100
AcDbEntity
  8
1
  6
CONTINUOUS
 62
     5
100
AcDbLine
 10
-109.0282
 20
188.594
 30
0.0
 11
-128.2282
 21
188.594
 31
0.0
  0
ARC
  5
1D1
100
AcDbEntity
  8
1
  6
CONTINUOUS
 62
     5
100
AcDbCircle
 10
-128.2282
 20
208.994
 30
0.0
 40
1.2
210
0.0
220
0.0
230
1.0
100
AcDbArc
 50
90.0
 51
180.0
  0
ARC
  5
1D2
100
AcDbEntity
  8
1
  6
CONTINUOUS
 62
     5
100
AcDbCircle
 10
-109.0282
 20
208.994
 30
0.0
 40
1.2
210
0.0
220
0.0
230
1.0
100
AcDbArc
 50
0.0
 51
90.0
  0
ARC
  5
1D3
100
AcDbEntity
  8
1
  6
CONTINUOUS
 62
     5
100
AcDbCircle
 10
-128.2282
 20
189.794
 30
0.0
 40
1.2
210
0.0
220
0.0
230
1.0
100
AcDbArc
 50
180.0
 51
270.0
  0
ARC
  5
1D4
100
AcDbEntity
  8
1
  6
CONTINUOUS
 62
     5
100
AcDbCircle
 10
-109.0282
 20
189.794
 30
0.0
 40
1.2
210
0.0
220
0.0
230
1.0
100
AcDbArc
 50
270.0
 51
0.0
  0
LINE
  5
1D5
100
AcDbEntity
  8
1
  6
CONTINUOUS
 62
     5
100
AcDbLine
 10
-128.8282
 20
207.794
 30
0.0
 11
-131.2282
 21
207.794
 31
0.0
  0
LINE
  5
1D6
100
AcDbEntity
  8
1
  6
CONTINUOUS
 62
     5
100
AcDbLine
 10
-128.8282
 20
190.994
 30
0.0
 11
-131.2282
 21
190.994
 31
0.0
  0
LINE
  5
1D7
100
AcDbEntity
  8
1
  6
CONTINUOUS
 62
     5
100
AcDbLine
 10
-128.8282
 20
208.994
 30
0.0
 11
-131.2282
 21
208.994
 31
0.0
  0
LINE
  5
1D8
100
AcDbEntity
  8
1
  6
CONTINUOUS
 62
     5
100
AcDbLine
 10
-128.8282
 20
189.794
 30
0.0
 11
-131.2282
 21
189.794
 31
0.0
  0
LINE
  5
1D9
100
AcDbEntity
  8
1
  6
CONTINUOUS
 62
     5
100
AcDbLine
 10
-130.6282
 20
211.394
 30
0.0
 11
-130.6282
 21
208.994
 31
0.0
  0
LINE
  5
1DA
100
AcDbEntity
  8
1
  6
CONTINUOUS
 62
     5
100
AcDbLine
 10
-131.2282
 20
208.994
 30
0.0
 11
-131.2282
 21
207.194
 31
0.0
  0
LINE
  5
1DB
100
AcDbEntity
  8
1
  6
CONTINUOUS
 62
     5
100
AcDbLine
 10
-131.2282
 20
207.194
 30
0.0
 11
-130.6282
 21
207.194
 31
0.0
  0
LINE
  5
1DC
100
AcDbEntity
  8
1
  6
CONTINUOUS
 62
     5
100
AcDbLine
 10
-130.6282
 20
207.794
 30
0.0
 11
-130.6282
 21
190.994
 31
0.0
  0
LINE
  5
1DD
100
AcDbEntity
  8
1
  6
CONTINUOUS
 62
     5
100
AcDbLine
 10
-130.6282
 20
189.794
 30
0.0
 11
-130.6282
 21
187.394
 31
0.0
  0
LINE
  5
1DE
100
AcDbEntity
  8
1
  6
CONTINUOUS
 62
     5
100
AcDbLine
 10
-129.4282
 20
207.794
 30
0.0
 11
-129.4282
 21
190.994
 31
0.0
  0
LINE
  5
1DF
100
AcDbEntity
  8
1
  6
CONTINUOUS
 62
     5
100
AcDbLine
 10
-131.2282
 20
189.794
 30
0.0
 11
-131.2282
 21
191.594
 31
0.0
  0
LINE
  5
1E0
100
AcDbEntity
  8
1
  6
CONTINUOUS
 62
     5
100
AcDbLine
 10
-131.2282
 20
191.594
 30
0.0
 11
-130.6282
 21
191.594
 31
0.0
  0
LINE
  5
1E1
100
AcDbEntity
  8
1
  6
CONTINUOUS
 62
     5
100
AcDbLine
 10
-106.0282
 20
199.994
 30
0.0
 11
-108.4282
 21
199.994
 31
0.0
  0
LINE
  5
1E2
100
AcDbEntity
  8
1
  6
CONTINUOUS
 62
     5
100
AcDbLine
 10
-106.0282
 20
198.794
 30
0.0
 11
-108.4282
 21
198.794
 31
0.0
  0
LINE
  5
1E3
100
AcDbEntity
  8
1
  6
CONTINUOUS
 62
     5
100
AcDbLine
 10
-107.8282
 20
208.994
 30
0.0
 11
-107.8282
 21
199.994
 31
0.0
  0
LINE
  5
1E4
100
AcDbEntity
  8
1
  6
CONTINUOUS
 62
     5
100
AcDbLine
 10
-107.8282
 20
198.794
 30
0.0
 11
-107.8282
 21
189.794
 31
0.0
  0
LINE
  5
1E5
100
AcDbEntity
  8
1
  6
CONTINUOUS
 62
     5
100
AcDbLine
 10
-106.6282
 20
211.394
 30
0.0
 11
-106.6282
 21
199.994
 31
0.0
  0
LINE
  5
1E6
100
AcDbEntity
  8
1
  6
CONTINUOUS
 62
     5
100
AcDbLine
 10
-106.6282
 20
198.794
 30
0.0
 11
-106.6282
 21
187.394
 31
0.0
  0
LINE
  5
1E7
100
AcDbEntity
  8
1
  6
CONTINUOUS
 62
     5
100
AcDbLine
 10
-106.0282
 20
199.994
 30
0.0
 11
-106.0282
 21
198.794
 31
0.0
  0
LINE
  5
1E8
100
AcDbEntity
  8
1
  6
CONTINUOUS
 62
     5
100
AcDbLine
 10
-106.3282
 20
200.594
 30
0.0
 11
-106.3282
 21
199.994
 31
0.0
  0
LINE
  5
1E9
100
AcDbEntity
  8
1
  6
CONTINUOUS
 62
     5
100
AcDbLine
 10
-106.3282
 20
198.794
 30
0.0
 11
-106.3282
 21
198.194
 31
0.0
  0
CIRCLE
  5
1EA
100
AcDbEntity
  8
1
  6
CONTINUOUS
 62
     5
100
AcDbCircle
 10
-118.6174
 20
199.3963
 30
0.0
 40
9.6
210
0.0
220
0.0
230
1.0
  0
TEXT
  5
1EB
100
AcDbEntity
  8
1
  6
CONTINUOUS
 62
     5
100
AcDbText
 10
-121.2452
 20
196.5945
 30
0.0
 40
6.0
  1
R
  7
TXT
210
0.0
220
0.0
230
1.0
100
AcDbText
  0
LINE
  5
1EC
100
AcDbEntity
  8
1
  6
CONTINUOUS
 62
     5
100
AcDbLine
 10
-134.8282
 20
219.7839
 30
0.0
 11
-134.8282
 21
217.3839
 31
0.0
  0
LINE
  5
1ED
100
AcDbEntity
  8
1
  6
CONTINUOUS
 62
     5
100
AcDbLine
 10
-133.0282
 20
219.7839
 30
0.0
 11
-133.0282
 21
217.3839
 31
0.0
  0
ARC
  5
1EE
100
AcDbEntity
  8
1
  6
CONTINUOUS
 62
     5
100
AcDbCircle
 10
-134.3782
 20
219.363561
 30
0.0
 40
0.61578
210
0.0
220
0.0
230
1.0
100
AcDbArc
 50
43.048108
 51
136.951892
  0
ARC
  5
1EF
100
AcDbEntity
  8
1
  6
CONTINUOUS
 62
     5
100
AcDbCircle
 10
-133.4782
 20
219.363561
 30
0.0
 40
0.61578
210
0.0
220
0.0
230
1.0
100
AcDbArc
 50
43.048108
 51
136.951892
  0
ARC
  5
1F0
100
AcDbEntity
  8
1
  6
CONTINUOUS
 62
     5
100
AcDbCircle
 10
-133.4782
 20
220.200039
 30
0.0
 40
0.61578
210
0.0
220
0.0
230
1.0
100
AcDbArc
 50
223.048108
 51
316.951892
  0
LINE
  5
1F1
100
AcDbEntity
  8
1
  6
CONTINUOUS
 62
     5
100
AcDbLine
 10
-120.4282
 20
137.894
 30
0.0
 11
-120.4282
 21
138.794
 31
0.0
  0
LINE
  5
1F2
100
AcDbEntity
  8
1
  6
CONTINUOUS
 62
     5
100
AcDbLine
 10
-116.8282
 20
137.894
 30
0.0
 11
-116.8282
 21
139.394
 31
0.0
  0
LINE
  5
1F3
100
AcDbEntity
  8
1
  6
CONTINUOUS
 62
     5
100
AcDbLine
 10
-119.5282
 20
137.894
 30
0.0
 11
-119.5282
 21
138.794
 31
0.0
  0
LINE
  5
1F4
100
AcDbEntity
  8
1
  6
CONTINUOUS
 62
     5
100
AcDbLine
 10
-117.7282
 20
137.894
 30
0.0
 11
-117.7282
 21
138.794
 31
0.0
  0
LINE
  5
1F5
100
AcDbEntity
  8
1
  6
CONTINUOUS
 62
     5
100
AcDbLine
 10
-116.8282
 20
138.794
 30
0.0
 11
-151.0282
 21
138.794
 31
0.0
  0
LINE
  5
1F6
100
AcDbEntity
  8
1
  6
CONTINUOUS
 62
     5
100
AcDbLine
 10
-120.4282
 20
137.894
 30
0.0
 11
-116.8282
 21
137.894
 31
0.0
  0
LINE
  5
1F7
100
AcDbEntity
  8
1
  6
CONTINUOUS
 62
     5
100
AcDbLine
 10
-116.8282
 20
139.274
 30
0.0
 11
-151.0282
 21
139.274
 31
0.0
  0
LINE
  5
1F8
100
AcDbEntity
  8
1
  6
CONTINUOUS
 62
     5
100
AcDbLine
 10
-151.0282
 20
139.394
 30
0.0
 11
-151.0282
 21
138.914
 31
0.0
  0
LINE
  5
1F9
100
AcDbEntity
  8
1
  6
CONTINUOUS
 62
     5
100
AcDbLine
 10
-151.0282
 20
137.9243
 30
0.0
 11
-147.4282
 21
137.9243
 31
0.0
  0
LINE
  5
1FA
100
AcDbEntity
  8
1
  6
CONTINUOUS
 62
     5
100
AcDbLine
 10
-147.4282
 20
137.9243
 30
0.0
 11
-147.4282
 21
138.794
 31
0.0
  0
LINE
  5
1FB
100
AcDbEntity
  8
1
  6
CONTINUOUS
 62
     5
100
AcDbLine
 10
-150.1282
 20
137.9243
 30
0.0
 11
-150.1282
 21
138.794
 31
0.0
  0
LINE
  5
1FC
100
AcDbEntity
  8
1
  6
CONTINUOUS
 62
     5
100
AcDbLine
 10
-148.3282
 20
137.9243
 30
0.0
 11
-148.3282
 21
138.794
 31
0.0
  0
LINE
  5
1FD
100
AcDbEntity
  8
1
  6
CONTINUOUS
 62
     5
100
AcDbLine
 10
-151.0282
 20
137.9243
 30
0.0
 11
-151.0282
 21
138.9152
 31
0.0
  0
ARC
  5
1FE
100
AcDbEntity
  8
1
  6
CONTINUOUS
 62
     5
100
AcDbCircle
 10
-146.717617
 20
213.073317
 30
0.0
 40
4.314743
210
0.0
220
0.0
230
1.0
100
AcDbArc
 50
87.483914
 51
182.516086
  0
LINE
  5
1FF
100
AcDbEntity
  8
1
  6
CONTINUOUS
 62
     5
100
AcDbLine
 10
-146.5282
 20
213.7839
 30
0.0
 11
-146.5282
 21
217.3839
 31
0.0
  0
LINE
  5
200
100
AcDbEntity
  8
1
  6
CONTINUOUS
 62
     5
100
AcDbLine
 10
-106.6282
 20
187.394
 30
0.0
 11
-130.6282
 21
187.394
 31
0.0
  0
LINE
  5
201
100
AcDbEntity
  8
1
  6
CONTINUOUS
 62
     5
100
AcDbLine
 10
-109.0282
 20
186.194
 30
0.0
 11
-128.2282
 21
186.194
 31
0.0
  0
LINE
  5
202
100
AcDbEntity
  8
1
  6
CONTINUOUS
 62
     5
100
AcDbLine
 10
-109.0282
 20
164.594
 30
0.0
 11
-128.2282
 21
164.594
 31
0.0
  0
ARC
  5
203
100
AcDbEntity
  8
1
  6
CONTINUOUS
 62
     5
100
AcDbCircle
 10
-128.2282
 20
184.994
 30
0.0
 40
1.2
210
0.0
220
0.0
230
1.0
100
AcDbArc
 50
90.0
 51
180.0
  0
ARC
  5
204
100
AcDbEntity
  8
1
  6
CONTINUOUS
 62
     5
100
AcDbCircle
 10
-109.0282
 20
184.994
 30
0.0
 40
1.2
210
0.0
220
0.0
230
1.0
100
AcDbArc
 50
0.0
 51
90.0
  0
ARC
  5
205
100
AcDbEntity
  8
1
  6
CONTINUOUS
 62
     5
100
AcDbCircle
 10
-128.2282
 20
165.794
 30
0.0
 40
1.2
210
0.0
220
0.0
230
1.0
100
AcDbArc
 50
180.0
 51
270.0
  0
ARC
  5
206
100
AcDbEntity
  8
1
  6
CONTINUOUS
 62
     5
100
AcDbCircle
 10
-109.0282
 20
165.794
 30
0.0
 40
1.2
210
0.0
220
0.0
230
1.0
100
AcDbArc
 50
270.0
 51
0.0
  0
LINE
  5
207
100
AcDbEntity
  8
1
  6
CONTINUOUS
 62
     5
100
AcDbLine
 10
-128.8282
 20
183.794
 30
0.0
 11
-131.2282
 21
183.794
 31
0.0
  0
LINE
  5
208
100
AcDbEntity
  8
1
  6
CONTINUOUS
 62
     5
100
AcDbLine
 10
-128.8282
 20
166.994
 30
0.0
 11
-131.2282
 21
166.994
 31
0.0
  0
LINE
  5
209
100
AcDbEntity
  8
1
  6
CONTINUOUS
 62
     5
100
AcDbLine
 10
-128.8282
 20
184.994
 30
0.0
 11
-131.2282
 21
184.994
 31
0.0
  0
LINE
  5
20A
100
AcDbEntity
  8
1
  6
CONTINUOUS
 62
     5
100
AcDbLine
 10
-128.8282
 20
165.794
 30
0.0
 11
-131.2282
 21
165.794
 31
0.0
  0
LINE
  5
20B
100
AcDbEntity
  8
1
  6
CONTINUOUS
 62
     5
100
AcDbLine
 10
-130.6282
 20
187.394
 30
0.0
 11
-130.6282
 21
184.994
 31
0.0
  0
LINE
  5
20C
100
AcDbEntity
  8
1
  6
CONTINUOUS
 62
     5
100
AcDbLine
 10
-131.2282
 20
184.994
 30
0.0
 11
-131.2282
 21
183.194
 31
0.0
  0
LINE
  5
20D
100
AcDbEntity
  8
1
  6
CONTINUOUS
 62
     5
100
AcDbLine
 10
-131.2282
 20
183.194
 30
0.0
 11
-130.6282
 21
183.194
 31
0.0
  0
LINE
  5
20E
100
AcDbEntity
  8
1
  6
CONTINUOUS
 62
     5
100
AcDbLine
 10
-130.6282
 20
183.794
 30
0.0
 11
-130.6282
 21
166.994
 31
0.0
  0
LINE
  5
20F
100
AcDbEntity
  8
1
  6
CONTINUOUS
 62
     5
100
AcDbLine
 10
-130.6282
 20
165.794
 30
0.0
 11
-130.6282
 21
163.394
 31
0.0
  0
LINE
  5
210
100
AcDbEntity
  8
1
  6
CONTINUOUS
 62
     5
100
AcDbLine
 10
-129.4282
 20
183.794
 30
0.0
 11
-129.4282
 21
166.994
 31
0.0
  0
LINE
  5
211
100
AcDbEntity
  8
1
  6
CONTINUOUS
 62
     5
100
AcDbLine
 10
-131.2282
 20
165.794
 30
0.0
 11
-131.2282
 21
167.594
 31
0.0
  0
LINE
  5
212
100
AcDbEntity
  8
1
  6
CONTINUOUS
 62
     5
100
AcDbLine
 10
-131.2282
 20
167.594
 30
0.0
 11
-130.6282
 21
167.594
 31
0.0
  0
LINE
  5
213
100
AcDbEntity
  8
1
  6
CONTINUOUS
 62
     5
100
AcDbLine
 10
-106.0282
 20
175.994
 30
0.0
 11
-108.4282
 21
175.994
 31
0.0
  0
LINE
  5
214
100
AcDbEntity
  8
1
  6
CONTINUOUS
 62
     5
100
AcDbLine
 10
-106.0282
 20
174.794
 30
0.0
 11
-108.4282
 21
174.794
 31
0.0
  0
LINE
  5
215
100
AcDbEntity
  8
1
  6
CONTINUOUS
 62
     5
100
AcDbLine
 10
-107.8282
 20
184.994
 30
0.0
 11
-107.8282
 21
175.994
 31
0.0
  0
LINE
  5
216
100
AcDbEntity
  8
1
  6
CONTINUOUS
 62
     5
100
AcDbLine
 10
-107.8282
 20
174.794
 30
0.0
 11
-107.8282
 21
165.794
 31
0.0
  0
LINE
  5
217
100
AcDbEntity
  8
1
  6
CONTINUOUS
 62
     5
100
AcDbLine
 10
-106.6282
 20
187.394
 30
0.0
 11
-106.6282
 21
175.994
 31
0.0
  0
LINE
  5
218
100
AcDbEntity
  8
1
  6
CONTINUOUS
 62
     5
100
AcDbLine
 10
-106.6282
 20
174.794
 30
0.0
 11
-106.6282
 21
163.394
 31
0.0
  0
LINE
  5
219
100
AcDbEntity
  8
1
  6
CONTINUOUS
 62
     5
100
AcDbLine
 10
-106.0282
 20
175.994
 30
0.0
 11
-106.0282
 21
174.794
 31
0.0
  0
LINE
  5
21A
100
AcDbEntity
  8
1
  6
CONTINUOUS
 62
     5
100
AcDbLine
 10
-106.3282
 20
176.594
 30
0.0
 11
-106.3282
 21
175.994
 31
0.0
  0
LINE
  5
21B
100
AcDbEntity
  8
1
  6
CONTINUOUS
 62
     5
100
AcDbLine
 10
-106.3282
 20
174.794
 30
0.0
 11
-106.3282
 21
174.194
 31
0.0
  0
CIRCLE
  5
21C
100
AcDbEntity
  8
1
  6
CONTINUOUS
 62
     5
100
AcDbCircle
 10
-118.6174
 20
175.3963
 30
0.0
 40
9.6
210
0.0
220
0.0
230
1.0
  0
LINE
  5
21D
100
AcDbEntity
  8
1
  6
CONTINUOUS
 62
     5
100
AcDbLine
 10
-106.6282
 20
163.394
 30
0.0
 11
-130.6282
 21
163.394
 31
0.0
  0
LINE
  5
21E
100
AcDbEntity
  8
1
  6
CONTINUOUS
 62
     5
100
AcDbLine
 10
-106.6282
 20
139.394
 30
0.0
 11
-130.6282
 21
139.394
 31
0.0
  0
LINE
  5
21F
100
AcDbEntity
  8
1
  6
CONTINUOUS
 62
     5
100
AcDbLine
 10
-109.0282
 20
162.194
 30
0.0
 11
-128.2282
 21
162.194
 31
0.0
  0
LINE
  5
220
100
AcDbEntity
  8
1
  6
CONTINUOUS
 62
     5
100
AcDbLine
 10
-109.0282
 20
140.594
 30
0.0
 11
-128.2282
 21
140.594
 31
0.0
  0
ARC
  5
221
100
AcDbEntity
  8
1
  6
CONTINUOUS
 62
     5
100
AcDbCircle
 10
-128.2282
 20
160.994
 30
0.0
 40
1.2
210
0.0
220
0.0
230
1.0
100
AcDbArc
 50
90.0
 51
180.0
  0
ARC
  5
222
100
AcDbEntity
  8
1
  6
CONTINUOUS
 62
     5
100
AcDbCircle
 10
-109.0282
 20
160.994
 30
0.0
 40
1.2
210
0.0
220
0.0
230
1.0
100
AcDbArc
 50
0.0
 51
90.0
  0
ARC
  5
223
100
AcDbEntity
  8
1
  6
CONTINUOUS
 62
     5
100
AcDbCircle
 10
-128.2282
 20
141.794
 30
0.0
 40
1.2
210
0.0
220
0.0
230
1.0
100
AcDbArc
 50
180.0
 51
270.0
  0
ARC
  5
224
100
AcDbEntity
  8
1
  6
CONTINUOUS
 62
     5
100
AcDbCircle
 10
-109.0282
 20
141.794
 30
0.0
 40
1.2
210
0.0
220
0.0
230
1.0
100
AcDbArc
 50
270.0
 51
0.0
  0
LINE
  5
225
100
AcDbEntity
  8
1
  6
CONTINUOUS
 62
     5
100
AcDbLine
 10
-128.8282
 20
159.794
 30
0.0
 11
-131.2282
 21
159.794
 31
0.0
  0
LINE
  5
226
100
AcDbEntity
  8
1
  6
CONTINUOUS
 62
     5
100
AcDbLine
 10
-128.8282
 20
142.994
 30
0.0
 11
-131.2282
 21
142.994
 31
0.0
  0
LINE
  5
227
100
AcDbEntity
  8
1
  6
CONTINUOUS
 62
     5
100
AcDbLine
 10
-128.8282
 20
160.994
 30
0.0
 11
-131.2282
 21
160.994
 31
0.0
  0
LINE
  5
228
100
AcDbEntity
  8
1
  6
CONTINUOUS
 62
     5
100
AcDbLine
 10
-128.8282
 20
141.794
 30
0.0
 11
-131.2282
 21
141.794
 31
0.0
  0
LINE
  5
229
100
AcDbEntity
  8
1
  6
CONTINUOUS
 62
     5
100
AcDbLine
 10
-130.6282
 20
163.394
 30
0.0
 11
-130.6282
 21
160.994
 31
0.0
  0
LINE
  5
22A
100
AcDbEntity
  8
1
  6
CONTINUOUS
 62
     5
100
AcDbLine
 10
-131.2282
 20
160.994
 30
0.0
 11
-131.2282
 21
159.194
 31
0.0
  0
LINE
  5
22B
100
AcDbEntity
  8
1
  6
CONTINUOUS
 62
     5
100
AcDbLine
 10
-131.2282
 20
159.194
 30
0.0
 11
-130.6282
 21
159.194
 31
0.0
  0
LINE
  5
22C
100
AcDbEntity
  8
1
  6
CONTINUOUS
 62
     5
100
AcDbLine
 10
-130.6282
 20
159.794
 30
0.0
 11
-130.6282
 21
142.994
 31
0.0
  0
LINE
  5
22D
100
AcDbEntity
  8
1
  6
CONTINUOUS
 62
     5
100
AcDbLine
 10
-130.6282
 20
141.794
 30
0.0
 11
-130.6282
 21
139.394
 31
0.0
  0
LINE
  5
22E
100
AcDbEntity
  8
1
  6
CONTINUOUS
 62
     5
100
AcDbLine
 10
-129.4282
 20
159.794
 30
0.0
 11
-129.4282
 21
142.994
 31
0.0
  0
LINE
  5
22F
100
AcDbEntity
  8
1
  6
CONTINUOUS
 62
     5
100
AcDbLine
 10
-131.2282
 20
141.794
 30
0.0
 11
-131.2282
 21
143.594
 31
0.0
  0
LINE
  5
230
100
AcDbEntity
  8
1
  6
CONTINUOUS
 62
     5
100
AcDbLine
 10
-131.2282
 20
143.594
 30
0.0
 11
-130.6282
 21
143.594
 31
0.0
  0
LINE
  5
231
100
AcDbEntity
  8
1
  6
CONTINUOUS
 62
     5
100
AcDbLine
 10
-106.0282
 20
151.994
 30
0.0
 11
-108.4282
 21
151.994
 31
0.0
  0
LINE
  5
232
100
AcDbEntity
  8
1
  6
CONTINUOUS
 62
     5
100
AcDbLine
 10
-106.0282
 20
150.794
 30
0.0
 11
-108.4282
 21
150.794
 31
0.0
  0
LINE
  5
233
100
AcDbEntity
  8
1
  6
CONTINUOUS
 62
     5
100
AcDbLine
 10
-107.8282
 20
160.994
 30
0.0
 11
-107.8282
 21
151.994
 31
0.0
  0
LINE
  5
234
100
AcDbEntity
  8
1
  6
CONTINUOUS
 62
     5
100
AcDbLine
 10
-107.8282
 20
150.794
 30
0.0
 11
-107.8282
 21
141.794
 31
0.0
  0
LINE
  5
235
100
AcDbEntity
  8
1
  6
CONTINUOUS
 62
     5
100
AcDbLine
 10
-106.6282
 20
163.394
 30
0.0
 11
-106.6282
 21
151.994
 31
0.0
  0
LINE
  5
236
100
AcDbEntity
  8
1
  6
CONTINUOUS
 62
     5
100
AcDbLine
 10
-106.6282
 20
150.794
 30
0.0
 11
-106.6282
 21
139.394
 31
0.0
  0
LINE
  5
237
100
AcDbEntity
  8
1
  6
CONTINUOUS
 62
     5
100
AcDbLine
 10
-106.0282
 20
151.994
 30
0.0
 11
-106.0282
 21
150.794
 31
0.0
  0
LINE
  5
238
100
AcDbEntity
  8
1
  6
CONTINUOUS
 62
     5
100
AcDbLine
 10
-106.3282
 20
152.594
 30
0.0
 11
-106.3282
 21
151.994
 31
0.0
  0
LINE
  5
239
100
AcDbEntity
  8
1
  6
CONTINUOUS
 62
     5
100
AcDbLine
 10
-106.3282
 20
150.794
 30
0.0
 11
-106.3282
 21
150.194
 31
0.0
  0
CIRCLE
  5
23A
100
AcDbEntity
  8
1
  6
CONTINUOUS
 62
     5
100
AcDbCircle
 10
-118.6174
 20
151.3963
 30
0.0
 40
9.6
210
0.0
220
0.0
230
1.0
  0
LINE
  5
23B
100
AcDbEntity
  8
1
  6
CONTINUOUS
 62
     5
100
AcDbLine
 10
-257.3903
 20
184.6839
 30
0.0
 11
-244.7903
 21
184.6839
 31
0.0
  0
LINE
  5
23C
100
AcDbEntity
  8
1
  6
CONTINUOUS
 62
     5
100
AcDbLine
 10
-257.3903
 20
172.0839
 30
0.0
 11
-244.7903
 21
172.0839
 31
0.0
  0
LINE
  5
23D
100
AcDbEntity
  8
1
  6
CONTINUOUS
 62
     5
100
AcDbLine
 10
-257.3903
 20
168.4839
 30
0.0
 11
-244.7903
 21
168.4839
 31
0.0
  0
LINE
  5
23E
100
AcDbEntity
  8
1
  6
CONTINUOUS
 62
     5
100
AcDbLine
 10
-257.3903
 20
155.8839
 30
0.0
 11
-244.7903
 21
155.8839
 31
0.0
  0
LINE
  5
23F
100
AcDbEntity
  8
1
  6
CONTINUOUS
 62
     5
100
AcDbLine
 10
-257.3903
 20
184.6839
 30
0.0
 11
-257.3903
 21
172.0839
 31
0.0
  0
LINE
  5
240
100
AcDbEntity
  8
1
  6
CONTINUOUS
 62
     5
100
AcDbLine
 10
-257.3903
 20
168.4839
 30
0.0
 11
-257.3903
 21
155.8839
 31
0.0
  0
LINE
  5
241
100
AcDbEntity
  8
1
  6
CONTINUOUS
 62
     5
100
AcDbLine
 10
-244.7903
 20
185.2839
 30
0.0
 11
-244.7903
 21
170.8839
 31
0.0
  0
LINE
  5
242
100
AcDbEntity
  8
1
  6
CONTINUOUS
 62
     5
100
AcDbLine
 10
-244.7903
 20
169.0839
 30
0.0
 11
-244.7903
 21
154.6839
 31
0.0
  0
LINE
  5
243
100
AcDbEntity
  8
1
  6
CONTINUOUS
 62
     5
100
AcDbLine
 10
-244.7903
 20
185.2839
 30
0.0
 11
-244.1903
 21
185.2839
 31
0.0
  0
LINE
  5
244
100
AcDbEntity
  8
1
  6
CONTINUOUS
 62
     5
100
AcDbLine
 10
-244.7903
 20
170.8839
 30
0.0
 11
-244.1903
 21
170.8839
 31
0.0
  0
LINE
  5
245
100
AcDbEntity
  8
1
  6
CONTINUOUS
 62
     5
100
AcDbLine
 10
-244.7903
 20
169.0839
 30
0.0
 11
-244.1903
 21
169.0839
 31
0.0
  0
LINE
  5
246
100
AcDbEntity
  8
1
  6
CONTINUOUS
 62
     5
100
AcDbLine
 10
-244.7903
 20
154.6839
 30
0.0
 11
-244.1903
 21
154.6839
 31
0.0
  0
LINE
  5
247
100
AcDbEntity
  8
1
  6
CONTINUOUS
 62
     5
100
AcDbLine
 10
-244.1903
 20
211.3839
 30
0.0
 11
-244.1903
 21
154.0839
 31
0.0
  0
LINE
  5
248
100
AcDbEntity
  8
1
  6
CONTINUOUS
 62
     5
100
AcDbLine
 10
-236.6903
 20
186.0879
 30
0.0
 11
-236.6903
 21
154.0839
 31
0.0
  0
LINE
  5
249
100
AcDbEntity
  8
1
  6
CONTINUOUS
 62
     5
100
AcDbLine
 10
-244.1903
 20
211.3839
 30
0.0
 11
-233.3903
 21
211.3839
 31
0.0
  0
LINE
  5
24A
100
AcDbEntity
  8
1
  6
CONTINUOUS
 62
     5
100
AcDbLine
 10
-244.1903
 20
154.0839
 30
0.0
 11
-236.6903
 21
154.0839
 31
0.0
  0
LINE
  5
24B
100
AcDbEntity
  8
1
  6
CONTINUOUS
 62
     5
100
AcDbLine
 10
-244.1903
 20
186.0879
 30
0.0
 11
-233.3903
 21
186.0879
 31
0.0
  0
LINE
  5
24C
100
AcDbEntity
  8
1
  6
CONTINUOUS
 62
     5
100
AcDbLine
 10
-244.1903
 20
170.0799
 30
0.0
 11
-236.6903
 21
170.0799
 31
0.0
  0
LINE
  5
24D
100
AcDbEntity
  8
1
  6
CONTINUOUS
 62
     5
100
AcDbLine
 10
-239.3903
 20
185.7879
 30
0.0
 11
-239.3903
 21
154.3839
 31
0.0
  0
LINE
  5
24E
100
AcDbEntity
  8
1
  6
CONTINUOUS
 62
     5
100
AcDbLine
 10
-240.5903
 20
212.2839
 30
0.0
 11
-240.5903
 21
211.3839
 31
0.0
  0
LINE
  5
24F
100
AcDbEntity
  8
1
  6
CONTINUOUS
 62
     5
100
AcDbLine
 10
-236.9903
 20
212.2839
 30
0.0
 11
-236.9903
 21
211.3839
 31
0.0
  0
LINE
  5
250
100
AcDbEntity
  8
1
  6
CONTINUOUS
 62
     5
100
AcDbLine
 10
-240.5903
 20
212.2839
 30
0.0
 11
-236.9903
 21
212.2839
 31
0.0
  0
LINE
  5
251
100
AcDbEntity
  8
1
  6
CONTINUOUS
 62
     5
100
AcDbLine
 10
-239.6903
 20
212.8839
 30
0.0
 11
-239.6903
 21
211.3839
 31
0.0
  0
LINE
  5
252
100
AcDbEntity
  8
1
  6
CONTINUOUS
 62
     5
100
AcDbLine
 10
-237.8903
 20
212.8839
 30
0.0
 11
-237.8903
 21
211.3839
 31
0.0
  0
LINE
  5
253
100
AcDbEntity
  8
1
  6
CONTINUOUS
 62
     5
100
AcDbLine
 10
-242.2403
 20
153.1895
 30
0.0
 11
-238.6403
 21
153.1895
 31
0.0
  0
LINE
  5
254
100
AcDbEntity
  8
1
  6
CONTINUOUS
 62
     5
100
AcDbLine
 10
-242.2403
 20
153.1895
 30
0.0
 11
-242.2403
 21
154.0895
 31
0.0
  0
LINE
  5
255
100
AcDbEntity
  8
1
  6
CONTINUOUS
 62
     5
100
AcDbLine
 10
-238.6403
 20
153.1895
 30
0.0
 11
-238.6403
 21
154.0895
 31
0.0
  0
LINE
  5
256
100
AcDbEntity
  8
1
  6
CONTINUOUS
 62
     5
100
AcDbLine
 10
-240.5903
 20
212.8839
 30
0.0
 11
-236.9903
 21
212.8839
 31
0.0
  0
ARC
  5
257
100
AcDbEntity
  8
1
  6
CONTINUOUS
 62
     5
100
AcDbCircle
 10
-236.134424
 20
212.928024
 30
0.0
 40
0.857012
210
0.0
220
0.0
230
1.0
100
AcDbArc
 50
87.048753
 51
182.951247
  0
LINE
  5
258
100
AcDbEntity
  8
1
  6
CONTINUOUS
 62
     5
100
AcDbLine
 10
-228.035
 20
214.6839
 30
0.0
 11
-236.0903
 21
214.6839
 31
0.0
  0
LINE
  5
259
100
AcDbEntity
  8
1
  6
CONTINUOUS
 62
     5
100
AcDbLine
 10
-228.035
 20
217.3839
 30
0.0
 11
-220.835
 21
217.3839
 31
0.0
  0
LINE
  5
25A
100
AcDbEntity
  8
1
  6
CONTINUOUS
 62
     5
100
AcDbLine
 10
-220.835
 20
213.7839
 30
0.0
 11
-220.835
 21
217.3839
 31
0.0
  0
LINE
  5
25B
100
AcDbEntity
  8
1
  6
CONTINUOUS
 62
     5
100
AcDbLine
 10
-228.035
 20
213.7839
 30
0.0
 11
-220.835
 21
213.7839
 31
0.0
  0
LINE
  5
25C
100
AcDbEntity
  8
1
  6
CONTINUOUS
 62
     5
100
AcDbLine
 10
-228.035
 20
217.0839
 30
0.0
 11
-220.835
 21
217.0839
 31
0.0
  0
ARC
  5
25D
100
AcDbEntity
  8
1
  6
CONTINUOUS
 62
     5
100
AcDbCircle
 10
-231.697356
 20
215.4339
 30
0.0
 40
4.016883
210
0.0
220
0.0
230
1.0
100
AcDbArc
 50
335.747022
 51
24.252978
  0
ARC
  5
25E
100
AcDbEntity
  8
1
  6
CONTINUOUS
 62
     5
100
AcDbCircle
 10
-217.209444
 20
215.4339
 30
0.0
 40
4.016883
210
0.0
220
0.0
230
1.0
100
AcDbArc
 50
155.747022
 51
204.252978
  0
LINE
  5
25F
100
AcDbEntity
  8
1
  6
CONTINUOUS
 62
     5
100
AcDbLine
 10
-228.035
 20
213.7839
 30
0.0
 11
-228.035
 21
217.0839
 31
0.0
  0
LINE
  5
260
100
AcDbEntity
  8
1
  6
CONTINUOUS
 62
     5
100
AcDbLine
 10
-228.035
 20
217.0839
 30
0.0
 11
-228.035
 21
217.3839
 31
0.0
  0
LINE
  5
261
100
AcDbEntity
  8
1
  6
CONTINUOUS
 62
     5
100
AcDbLine
 10
-225.785
 20
216.2739
 30
0.0
 11
-225.785
 21
214.5939
 31
0.0
  0
LINE
  5
262
100
AcDbEntity
  8
1
  6
CONTINUOUS
 62
     5
100
AcDbLine
 10
-223.085
 20
216.2739
 30
0.0
 11
-223.085
 21
214.7139
 31
0.0
  0
LINE
  5
263
100
AcDbEntity
  8
1
  6
CONTINUOUS
 62
     5
100
AcDbLine
 10
-224.435
 20
217.0839
 30
0.0
 11
-225.785
 21
216.2739
 31
0.0
  0
LINE
  5
264
100
AcDbEntity
  8
1
  6
CONTINUOUS
 62
     5
100
AcDbLine
 10
-224.435
 20
217.0839
 30
0.0
 11
-223.085
 21
216.2739
 31
0.0
  0
LINE
  5
265
100
AcDbEntity
  8
1
  6
CONTINUOUS
 62
     5
100
AcDbLine
 10
-225.785
 20
214.5939
 30
0.0
 11
-224.435
 21
213.7839
 31
0.0
  0
LINE
  5
266
100
AcDbEntity
  8
1
  6
CONTINUOUS
 62
     5
100
AcDbLine
 10
-223.085
 20
214.7139
 30
0.0
 11
-224.435
 21
213.7839
 31
0.0
  0
LINE
  5
267
100
AcDbEntity
  8
1
  6
CONTINUOUS
 62
     5
100
AcDbLine
 10
-212.7798
 20
213.9076
 30
0.0
 11
-212.7798
 21
217.5076
 31
0.0
  0
LINE
  5
268
100
AcDbEntity
  8
1
  6
CONTINUOUS
 62
     5
100
AcDbLine
 10
-208.2798
 20
212.4076
 30
0.0
 11
-208.2798
 21
211.5076
 31
0.0
  0
LINE
  5
269
100
AcDbEntity
  8
1
  6
CONTINUOUS
 62
     5
100
AcDbLine
 10
-211.8798
 20
212.4076
 30
0.0
 11
-211.8798
 21
211.5076
 31
0.0
  0
LINE
  5
26A
100
AcDbEntity
  8
1
  6
CONTINUOUS
 62
     5
100
AcDbLine
 10
-208.2798
 20
212.4076
 30
0.0
 11
-211.8798
 21
212.4076
 31
0.0
  0
LINE
  5
26B
100
AcDbEntity
  8
1
  6
CONTINUOUS
 62
     5
100
AcDbLine
 10
-209.1798
 20
213.0076
 30
0.0
 11
-209.1798
 21
211.5076
 31
0.0
  0
LINE
  5
26C
100
AcDbEntity
  8
1
  6
CONTINUOUS
 62
     5
100
AcDbLine
 10
-210.9798
 20
213.0076
 30
0.0
 11
-210.9798
 21
211.5076
 31
0.0
  0
LINE
  5
26D
100
AcDbEntity
  8
1
  6
CONTINUOUS
 62
     5
100
AcDbLine
 10
-208.2798
 20
213.0076
 30
0.0
 11
-211.8798
 21
213.0076
 31
0.0
  0
ARC
  5
26E
100
AcDbEntity
  8
1
  6
CONTINUOUS
 62
     5
100
AcDbCircle
 10
-212.590383
 20
213.197017
 30
0.0
 40
4.314743
210
0.0
220
0.0
230
1.0
100
AcDbArc
 50
357.483914
 51
92.516086
  0
ARC
  5
26F
100
AcDbEntity
  8
1
  6
CONTINUOUS
 62
     5
100
AcDbCircle
 10
-212.735676
 20
213.051724
 30
0.0
 40
0.857012
210
0.0
220
0.0
230
1.0
100
AcDbArc
 50
357.048753
 51
92.951247
  0
LINE
  5
270
100
AcDbEntity
  8
1
  6
CONTINUOUS
 62
     5
100
AcDbLine
 10
-220.835
 20
214.694
 30
0.0
 11
-212.7798
 21
214.694
 31
0.0
  0
LINE
  5
271
100
AcDbEntity
  8
1
  6
CONTINUOUS
 62
     5
100
AcDbLine
 10
-198.0798
 20
211.5076
 30
0.0
 11
-222.0798
 21
211.5076
 31
0.0
  0
LINE
  5
272
100
AcDbEntity
  8
1
  6
CONTINUOUS
 62
     5
100
AcDbLine
 10
-200.4798
 20
210.3076
 30
0.0
 11
-219.6798
 21
210.3076
 31
0.0
  0
LINE
  5
273
100
AcDbEntity
  8
1
  6
CONTINUOUS
 62
     5
100
AcDbLine
 10
-200.4798
 20
188.7076
 30
0.0
 11
-219.6798
 21
188.7076
 31
0.0
  0
ARC
  5
274
100
AcDbEntity
  8
1
  6
CONTINUOUS
 62
     5
100
AcDbCircle
 10
-219.6798
 20
209.1076
 30
0.0
 40
1.2
210
0.0
220
0.0
230
1.0
100
AcDbArc
 50
90.0
 51
180.0
  0
ARC
  5
275
100
AcDbEntity
  8
1
  6
CONTINUOUS
 62
     5
100
AcDbCircle
 10
-200.4798
 20
209.1076
 30
0.0
 40
1.2
210
0.0
220
0.0
230
1.0
100
AcDbArc
 50
0.0
 51
90.0
  0
ARC
  5
276
100
AcDbEntity
  8
1
  6
CONTINUOUS
 62
     5
100
AcDbCircle
 10
-219.6798
 20
189.9076
 30
0.0
 40
1.2
210
0.0
220
0.0
230
1.0
100
AcDbArc
 50
180.0
 51
270.0
  0
ARC
  5
277
100
AcDbEntity
  8
1
  6
CONTINUOUS
 62
     5
100
AcDbCircle
 10
-200.4798
 20
189.9076
 30
0.0
 40
1.2
210
0.0
220
0.0
230
1.0
100
AcDbArc
 50
270.0
 51
0.0
  0
LINE
  5
278
100
AcDbEntity
  8
1
  6
CONTINUOUS
 62
     5
100
AcDbLine
 10
-220.2798
 20
207.9076
 30
0.0
 11
-222.6798
 21
207.9076
 31
0.0
  0
LINE
  5
279
100
AcDbEntity
  8
1
  6
CONTINUOUS
 62
     5
100
AcDbLine
 10
-220.2798
 20
191.1076
 30
0.0
 11
-222.6798
 21
191.1076
 31
0.0
  0
LINE
  5
27A
100
AcDbEntity
  8
1
  6
CONTINUOUS
 62
     5
100
AcDbLine
 10
-220.2798
 20
209.1076
 30
0.0
 11
-222.6798
 21
209.1076
 31
0.0
  0
LINE
  5
27B
100
AcDbEntity
  8
1
  6
CONTINUOUS
 62
     5
100
AcDbLine
 10
-220.2798
 20
189.9076
 30
0.0
 11
-222.6798
 21
189.9076
 31
0.0
  0
LINE
  5
27C
100
AcDbEntity
  8
1
  6
CONTINUOUS
 62
     5
100
AcDbLine
 10
-222.0798
 20
211.5076
 30
0.0
 11
-222.0798
 21
209.1076
 31
0.0
  0
LINE
  5
27D
100
AcDbEntity
  8
1
  6
CONTINUOUS
 62
     5
100
AcDbLine
 10
-222.6798
 20
209.1076
 30
0.0
 11
-222.6798
 21
207.3076
 31
0.0
  0
LINE
  5
27E
100
AcDbEntity
  8
1
  6
CONTINUOUS
 62
     5
100
AcDbLine
 10
-222.6798
 20
207.3076
 30
0.0
 11
-222.0798
 21
207.3076
 31
0.0
  0
LINE
  5
27F
100
AcDbEntity
  8
1
  6
CONTINUOUS
 62
     5
100
AcDbLine
 10
-222.0798
 20
207.9076
 30
0.0
 11
-222.0798
 21
191.1076
 31
0.0
  0
LINE
  5
280
100
AcDbEntity
  8
1
  6
CONTINUOUS
 62
     5
100
AcDbLine
 10
-222.0798
 20
189.9076
 30
0.0
 11
-222.0798
 21
187.5076
 31
0.0
  0
LINE
  5
281
100
AcDbEntity
  8
1
  6
CONTINUOUS
 62
     5
100
AcDbLine
 10
-220.8798
 20
207.9076
 30
0.0
 11
-220.8798
 21
191.1076
 31
0.0
  0
LINE
  5
282
100
AcDbEntity
  8
1
  6
CONTINUOUS
 62
     5
100
AcDbLine
 10
-222.6798
 20
189.9076
 30
0.0
 11
-222.6798
 21
191.7076
 31
0.0
  0
LINE
  5
283
100
AcDbEntity
  8
1
  6
CONTINUOUS
 62
     5
100
AcDbLine
 10
-222.6798
 20
191.7076
 30
0.0
 11
-222.0798
 21
191.7076
 31
0.0
  0
LINE
  5
284
100
AcDbEntity
  8
1
  6
CONTINUOUS
 62
     5
100
AcDbLine
 10
-197.4798
 20
200.1076
 30
0.0
 11
-199.8798
 21
200.1076
 31
0.0
  0
LINE
  5
285
100
AcDbEntity
  8
1
  6
CONTINUOUS
 62
     5
100
AcDbLine
 10
-197.4798
 20
198.9076
 30
0.0
 11
-199.8798
 21
198.9076
 31
0.0
  0
LINE
  5
286
100
AcDbEntity
  8
1
  6
CONTINUOUS
 62
     5
100
AcDbLine
 10
-199.2798
 20
209.1076
 30
0.0
 11
-199.2798
 21
200.1076
 31
0.0
  0
LINE
  5
287
100
AcDbEntity
  8
1
  6
CONTINUOUS
 62
     5
100
AcDbLine
 10
-199.2798
 20
198.9076
 30
0.0
 11
-199.2798
 21
189.9076
 31
0.0
  0
LINE
  5
288
100
AcDbEntity
  8
1
  6
CONTINUOUS
 62
     5
100
AcDbLine
 10
-198.0798
 20
211.5076
 30
0.0
 11
-198.0798
 21
200.1076
 31
0.0
  0
LINE
  5
289
100
AcDbEntity
  8
1
  6
CONTINUOUS
 62
     5
100
AcDbLine
 10
-198.0798
 20
198.9076
 30
0.0
 11
-198.0798
 21
187.5076
 31
0.0
  0
LINE
  5
28A
100
AcDbEntity
  8
1
  6
CONTINUOUS
 62
     5
100
AcDbLine
 10
-197.4798
 20
200.1076
 30
0.0
 11
-197.4798
 21
198.9076
 31
0.0
  0
LINE
  5
28B
100
AcDbEntity
  8
1
  6
CONTINUOUS
 62
     5
100
AcDbLine
 10
-197.7798
 20
200.7076
 30
0.0
 11
-197.7798
 21
200.1076
 31
0.0
  0
LINE
  5
28C
100
AcDbEntity
  8
1
  6
CONTINUOUS
 62
     5
100
AcDbLine
 10
-197.7798
 20
198.9076
 30
0.0
 11
-197.7798
 21
198.3076
 31
0.0
  0
CIRCLE
  5
28D
100
AcDbEntity
  8
1
  6
CONTINUOUS
 62
     5
100
AcDbCircle
 10
-210.069
 20
199.5099
 30
0.0
 40
9.6
210
0.0
220
0.0
230
1.0
  0
TEXT
  5
28E
100
AcDbEntity
  8
1
  6
CONTINUOUS
 62
     5
100
AcDbText
 10
-212.756
 20
196.8142
 30
0.0
 40
6.0
  1
R
  7
TXT
210
0.0
220
0.0
230
1.0
100
AcDbText
  0
LINE
  5
28F
100
AcDbEntity
  8
1
  6
CONTINUOUS
 62
     5
100
AcDbLine
 10
-225.335
 20
219.7839
 30
0.0
 11
-225.335
 21
217.3839
 31
0.0
  0
LINE
  5
290
100
AcDbEntity
  8
1
  6
CONTINUOUS
 62
     5
100
AcDbLine
 10
-223.535
 20
219.7839
 30
0.0
 11
-223.535
 21
217.3839
 31
0.0
  0
ARC
  5
291
100
AcDbEntity
  8
1
  6
CONTINUOUS
 62
     5
100
AcDbCircle
 10
-224.885
 20
219.363561
 30
0.0
 40
0.61578
210
0.0
220
0.0
230
1.0
100
AcDbArc
 50
43.048108
 51
136.951892
  0
ARC
  5
292
100
AcDbEntity
  8
1
  6
CONTINUOUS
 62
     5
100
AcDbCircle
 10
-223.985
 20
219.363561
 30
0.0
 40
0.61578
210
0.0
220
0.0
230
1.0
100
AcDbArc
 50
43.048108
 51
136.951892
  0
ARC
  5
293
100
AcDbEntity
  8
1
  6
CONTINUOUS
 62
     5
100
AcDbCircle
 10
-223.985
 20
220.200039
 30
0.0
 40
0.61578
210
0.0
220
0.0
230
1.0
100
AcDbArc
 50
223.048108
 51
316.951892
  0
LINE
  5
294
100
AcDbEntity
  8
1
  6
CONTINUOUS
 62
     5
100
AcDbLine
 10
-241.3403
 20
140.2649
 30
0.0
 11
-241.3403
 21
153.1895
 31
0.0
  0
LINE
  5
295
100
AcDbEntity
  8
1
  6
CONTINUOUS
 62
     5
100
AcDbLine
 10
-241.3403
 20
153.1895
 30
0.0
 11
-241.3403
 21
154.0895
 31
0.0
  0
LINE
  5
296
100
AcDbEntity
  8
1
  6
CONTINUOUS
 62
     5
100
AcDbLine
 10
-239.5403
 20
140.2649
 30
0.0
 11
-239.5403
 21
153.1895
 31
0.0
  0
LINE
  5
297
100
AcDbEntity
  8
1
  6
CONTINUOUS
 62
     5
100
AcDbLine
 10
-239.5403
 20
153.1895
 30
0.0
 11
-239.5403
 21
154.0895
 31
0.0
  0
LINE
  5
298
100
AcDbEntity
  8
1
  6
CONTINUOUS
 62
     5
100
AcDbLine
 10
-242.2403
 20
140.2649
 30
0.0
 11
-238.6403
 21
140.2649
 31
0.0
  0
LINE
  5
299
100
AcDbEntity
  8
1
  6
CONTINUOUS
 62
     5
100
AcDbLine
 10
-238.6403
 20
140.2649
 30
0.0
 11
-238.6403
 21
139.274
 31
0.0
  0
LINE
  5
29A
100
AcDbEntity
  8
1
  6
CONTINUOUS
 62
     5
100
AcDbLine
 10
-241.3403
 20
140.2649
 30
0.0
 11
-241.3403
 21
139.274
 31
0.0
  0
LINE
  5
29B
100
AcDbEntity
  8
1
  6
CONTINUOUS
 62
     5
100
AcDbLine
 10
-239.5403
 20
140.2649
 30
0.0
 11
-239.5403
 21
139.274
 31
0.0
  0
LINE
  5
29C
100
AcDbEntity
  8
1
  6
CONTINUOUS
 62
     5
100
AcDbLine
 10
-211.8798
 20
138.0076
 30
0.0
 11
-211.8798
 21
138.9076
 31
0.0
  0
LINE
  5
29D
100
AcDbEntity
  8
1
  6
CONTINUOUS
 62
     5
100
AcDbLine
 10
-208.2798
 20
138.0076
 30
0.0
 11
-208.2798
 21
139.5076
 31
0.0
  0
LINE
  5
29E
100
AcDbEntity
  8
1
  6
CONTINUOUS
 62
     5
100
AcDbLine
 10
-210.9798
 20
138.0076
 30
0.0
 11
-210.9798
 21
138.9076
 31
0.0
  0
LINE
  5
29F
100
AcDbEntity
  8
1
  6
CONTINUOUS
 62
     5
100
AcDbLine
 10
-209.1798
 20
138.0076
 30
0.0
 11
-209.1798
 21
138.9076
 31
0.0
  0
LINE
  5
2A0
100
AcDbEntity
  8
1
  6
CONTINUOUS
 62
     5
100
AcDbLine
 10
-208.2798
 20
138.794
 30
0.0
 11
-242.2403
 21
138.794
 31
0.0
  0
LINE
  5
2A1
100
AcDbEntity
  8
1
  6
CONTINUOUS
 62
     5
100
AcDbLine
 10
-211.8798
 20
138.0076
 30
0.0
 11
-208.2798
 21
138.0076
 31
0.0
  0
LINE
  5
2A2
100
AcDbEntity
  8
1
  6
CONTINUOUS
 62
     5
100
AcDbLine
 10
-208.2798
 20
139.274
 30
0.0
 11
-242.2403
 21
139.274
 31
0.0
  0
LINE
  5
2A3
100
AcDbEntity
  8
1
  6
CONTINUOUS
 62
     5
100
AcDbLine
 10
-242.2403
 20
140.2649
 30
0.0
 11
-242.2403
 21
139.274
 31
0.0
  0
LINE
  5
2A4
100
AcDbEntity
  8
1
  6
CONTINUOUS
 62
     5
100
AcDbLine
 10
-242.2403
 20
139.274
 30
0.0
 11
-242.2403
 21
138.794
 31
0.0
  0
LINE
  5
2A5
100
AcDbEntity
  8
1
  6
CONTINUOUS
 62
     5
100
AcDbLine
 10
-242.2403
 20
137.8043
 30
0.0
 11
-238.6403
 21
137.8043
 31
0.0
  0
LINE
  5
2A6
100
AcDbEntity
  8
1
  6
CONTINUOUS
 62
     5
100
AcDbLine
 10
-238.6403
 20
137.8043
 30
0.0
 11
-238.6403
 21
138.7952
 31
0.0
  0
LINE
  5
2A7
100
AcDbEntity
  8
1
  6
CONTINUOUS
 62
     5
100
AcDbLine
 10
-241.3403
 20
137.8043
 30
0.0
 11
-241.3403
 21
138.7952
 31
0.0
  0
LINE
  5
2A8
100
AcDbEntity
  8
1
  6
CONTINUOUS
 62
     5
100
AcDbLine
 10
-239.5403
 20
137.8043
 30
0.0
 11
-239.5403
 21
138.7952
 31
0.0
  0
LINE
  5
2A9
100
AcDbEntity
  8
1
  6
CONTINUOUS
 62
     5
100
AcDbLine
 10
-242.2403
 20
137.8043
 30
0.0
 11
-242.2403
 21
138.7952
 31
0.0
  0
ARC
  5
2AA
100
AcDbEntity
  8
1
  6
CONTINUOUS
 62
     5
100
AcDbCircle
 10
-236.279717
 20
213.073317
 30
0.0
 40
4.314743
210
0.0
220
0.0
230
1.0
100
AcDbArc
 50
87.483914
 51
182.516086
  0
LINE
  5
2AB
100
AcDbEntity
  8
1
  6
CONTINUOUS
 62
     5
100
AcDbLine
 10
-236.0903
 20
213.7839
 30
0.0
 11
-236.0903
 21
217.3839
 31
0.0
  0
LINE
  5
2AC
100
AcDbEntity
  8
1
  6
CONTINUOUS
 62
     5
100
AcDbLine
 10
-198.0798
 20
187.5076
 30
0.0
 11
-222.0798
 21
187.5076
 31
0.0
  0
LINE
  5
2AD
100
AcDbEntity
  8
1
  6
CONTINUOUS
 62
     5
100
AcDbLine
 10
-200.4798
 20
186.3076
 30
0.0
 11
-219.6798
 21
186.3076
 31
0.0
  0
LINE
  5
2AE
100
AcDbEntity
  8
1
  6
CONTINUOUS
 62
     5
100
AcDbLine
 10
-200.4798
 20
164.7076
 30
0.0
 11
-219.6798
 21
164.7076
 31
0.0
  0
ARC
  5
2AF
100
AcDbEntity
  8
1
  6
CONTINUOUS
 62
     5
100
AcDbCircle
 10
-219.6798
 20
185.1076
 30
0.0
 40
1.2
210
0.0
220
0.0
230
1.0
100
AcDbArc
 50
90.0
 51
180.0
  0
ARC
  5
2B0
100
AcDbEntity
  8
1
  6
CONTINUOUS
 62
     5
100
AcDbCircle
 10
-200.4798
 20
185.1076
 30
0.0
 40
1.2
210
0.0
220
0.0
230
1.0
100
AcDbArc
 50
0.0
 51
90.0
  0
ARC
  5
2B1
100
AcDbEntity
  8
1
  6
CONTINUOUS
 62
     5
100
AcDbCircle
 10
-219.6798
 20
165.9076
 30
0.0
 40
1.2
210
0.0
220
0.0
230
1.0
100
AcDbArc
 50
180.0
 51
270.0
  0
ARC
  5
2B2
100
AcDbEntity
  8
1
  6
CONTINUOUS
 62
     5
100
AcDbCircle
 10
-200.4798
 20
165.9076
 30
0.0
 40
1.2
210
0.0
220
0.0
230
1.0
100
AcDbArc
 50
270.0
 51
0.0
  0
LINE
  5
2B3
100
AcDbEntity
  8
1
  6
CONTINUOUS
 62
     5
100
AcDbLine
 10
-220.2798
 20
183.9076
 30
0.0
 11
-222.6798
 21
183.9076
 31
0.0
  0
LINE
  5
2B4
100
AcDbEntity
  8
1
  6
CONTINUOUS
 62
     5
100
AcDbLine
 10
-220.2798
 20
167.1076
 30
0.0
 11
-222.6798
 21
167.1076
 31
0.0
  0
LINE
  5
2B5
100
AcDbEntity
  8
1
  6
CONTINUOUS
 62
     5
100
AcDbLine
 10
-220.2798
 20
185.1076
 30
0.0
 11
-222.6798
 21
185.1076
 31
0.0
  0
LINE
  5
2B6
100
AcDbEntity
  8
1
  6
CONTINUOUS
 62
     5
100
AcDbLine
 10
-220.2798
 20
165.9076
 30
0.0
 11
-222.6798
 21
165.9076
 31
0.0
  0
LINE
  5
2B7
100
AcDbEntity
  8
1
  6
CONTINUOUS
 62
     5
100
AcDbLine
 10
-222.0798
 20
187.5076
 30
0.0
 11
-222.0798
 21
185.1076
 31
0.0
  0
LINE
  5
2B8
100
AcDbEntity
  8
1
  6
CONTINUOUS
 62
     5
100
AcDbLine
 10
-222.6798
 20
185.1076
 30
0.0
 11
-222.6798
 21
183.3076
 31
0.0
  0
LINE
  5
2B9
100
AcDbEntity
  8
1
  6
CONTINUOUS
 62
     5
100
AcDbLine
 10
-222.6798
 20
183.3076
 30
0.0
 11
-222.0798
 21
183.3076
 31
0.0
  0
LINE
  5
2BA
100
AcDbEntity
  8
1
  6
CONTINUOUS
 62
     5
100
AcDbLine
 10
-222.0798
 20
183.9076
 30
0.0
 11
-222.0798
 21
167.1076
 31
0.0
  0
LINE
  5
2BB
100
AcDbEntity
  8
1
  6
CONTINUOUS
 62
     5
100
AcDbLine
 10
-222.0798
 20
165.9076
 30
0.0
 11
-222.0798
 21
163.5076
 31
0.0
  0
LINE
  5
2BC
100
AcDbEntity
  8
1
  6
CONTINUOUS
 62
     5
100
AcDbLine
 10
-220.8798
 20
183.9076
 30
0.0
 11
-220.8798
 21
167.1076
 31
0.0
  0
LINE
  5
2BD
100
AcDbEntity
  8
1
  6
CONTINUOUS
 62
     5
100
AcDbLine
 10
-222.6798
 20
165.9076
 30
0.0
 11
-222.6798
 21
167.7076
 31
0.0
  0
LINE
  5
2BE
100
AcDbEntity
  8
1
  6
CONTINUOUS
 62
     5
100
AcDbLine
 10
-222.6798
 20
167.7076
 30
0.0
 11
-222.0798
 21
167.7076
 31
0.0
  0
LINE
  5
2BF
100
AcDbEntity
  8
1
  6
CONTINUOUS
 62
     5
100
AcDbLine
 10
-197.4798
 20
176.1076
 30
0.0
 11
-199.8798
 21
176.1076
 31
0.0
  0
LINE
  5
2C0
100
AcDbEntity
  8
1
  6
CONTINUOUS
 62
     5
100
AcDbLine
 10
-197.4798
 20
174.9076
 30
0.0
 11
-199.8798
 21
174.9076
 31
0.0
  0
LINE
  5
2C1
100
AcDbEntity
  8
1
  6
CONTINUOUS
 62
     5
100
AcDbLine
 10
-199.2798
 20
185.1076
 30
0.0
 11
-199.2798
 21
176.1076
 31
0.0
  0
LINE
  5
2C2
100
AcDbEntity
  8
1
  6
CONTINUOUS
 62
     5
100
AcDbLine
 10
-199.2798
 20
174.9076
 30
0.0
 11
-199.2798
 21
165.9076
 31
0.0
  0
LINE
  5
2C3
100
AcDbEntity
  8
1
  6
CONTINUOUS
 62
     5
100
AcDbLine
 10
-198.0798
 20
187.5076
 30
0.0
 11
-198.0798
 21
176.1076
 31
0.0
  0
LINE
  5
2C4
100
AcDbEntity
  8
1
  6
CONTINUOUS
 62
     5
100
AcDbLine
 10
-198.0798
 20
174.9076
 30
0.0
 11
-198.0798
 21
163.5076
 31
0.0
  0
LINE
  5
2C5
100
AcDbEntity
  8
1
  6
CONTINUOUS
 62
     5
100
AcDbLine
 10
-197.4798
 20
176.1076
 30
0.0
 11
-197.4798
 21
174.9076
 31
0.0
  0
LINE
  5
2C6
100
AcDbEntity
  8
1
  6
CONTINUOUS
 62
     5
100
AcDbLine
 10
-197.7798
 20
176.7076
 30
0.0
 11
-197.7798
 21
176.1076
 31
0.0
  0
LINE
  5
2C7
100
AcDbEntity
  8
1
  6
CONTINUOUS
 62
     5
100
AcDbLine
 10
-197.7798
 20
174.9076
 30
0.0
 11
-197.7798
 21
174.3076
 31
0.0
  0
CIRCLE
  5
2C8
100
AcDbEntity
  8
1
  6
CONTINUOUS
 62
     5
100
AcDbCircle
 10
-210.069
 20
175.5099
 30
0.0
 40
9.6
210
0.0
220
0.0
230
1.0
  0
LINE
  5
2C9
100
AcDbEntity
  8
1
  6
CONTINUOUS
 62
     5
100
AcDbLine
 10
-198.0798
 20
163.5076
 30
0.0
 11
-222.0798
 21
163.5076
 31
0.0
  0
LINE
  5
2CA
100
AcDbEntity
  8
1
  6
CONTINUOUS
 62
     5
100
AcDbLine
 10
-198.0798
 20
139.5076
 30
0.0
 11
-222.0798
 21
139.5076
 31
0.0
  0
LINE
  5
2CB
100
AcDbEntity
  8
1
  6
CONTINUOUS
 62
     5
100
AcDbLine
 10
-200.4798
 20
162.3076
 30
0.0
 11
-219.6798
 21
162.3076
 31
0.0
  0
LINE
  5
2CC
100
AcDbEntity
  8
1
  6
CONTINUOUS
 62
     5
100
AcDbLine
 10
-200.4798
 20
140.7076
 30
0.0
 11
-219.6798
 21
140.7076
 31
0.0
  0
ARC
  5
2CD
100
AcDbEntity
  8
1
  6
CONTINUOUS
 62
     5
100
AcDbCircle
 10
-219.6798
 20
161.1076
 30
0.0
 40
1.2
210
0.0
220
0.0
230
1.0
100
AcDbArc
 50
90.0
 51
180.0
  0
ARC
  5
2CE
100
AcDbEntity
  8
1
  6
CONTINUOUS
 62
     5
100
AcDbCircle
 10
-200.4798
 20
161.1076
 30
0.0
 40
1.2
210
0.0
220
0.0
230
1.0
100
AcDbArc
 50
0.0
 51
90.0
  0
ARC
  5
2CF
100
AcDbEntity
  8
1
  6
CONTINUOUS
 62
     5
100
AcDbCircle
 10
-219.6798
 20
141.9076
 30
0.0
 40
1.2
210
0.0
220
0.0
230
1.0
100
AcDbArc
 50
180.0
 51
270.0
  0
ARC
  5
2D0
100
AcDbEntity
  8
1
  6
CONTINUOUS
 62
     5
100
AcDbCircle
 10
-200.4798
 20
141.9076
 30
0.0
 40
1.2
210
0.0
220
0.0
230
1.0
100
AcDbArc
 50
270.0
 51
0.0
  0
LINE
  5
2D1
100
AcDbEntity
  8
1
  6
CONTINUOUS
 62
     5
100
AcDbLine
 10
-220.2798
 20
159.9076
 30
0.0
 11
-222.6798
 21
159.9076
 31
0.0
  0
LINE
  5
2D2
100
AcDbEntity
  8
1
  6
CONTINUOUS
 62
     5
100
AcDbLine
 10
-220.2798
 20
143.1076
 30
0.0
 11
-222.6798
 21
143.1076
 31
0.0
  0
LINE
  5
2D3
100
AcDbEntity
  8
1
  6
CONTINUOUS
 62
     5
100
AcDbLine
 10
-220.2798
 20
161.1076
 30
0.0
 11
-222.6798
 21
161.1076
 31
0.0
  0
LINE
  5
2D4
100
AcDbEntity
  8
1
  6
CONTINUOUS
 62
     5
100
AcDbLine
 10
-220.2798
 20
141.9076
 30
0.0
 11
-222.6798
 21
141.9076
 31
0.0
  0
LINE
  5
2D5
100
AcDbEntity
  8
1
  6
CONTINUOUS
 62
     5
100
AcDbLine
 10
-222.0798
 20
163.5076
 30
0.0
 11
-222.0798
 21
161.1076
 31
0.0
  0
LINE
  5
2D6
100
AcDbEntity
  8
1
  6
CONTINUOUS
 62
     5
100
AcDbLine
 10
-222.6798
 20
161.1076
 30
0.0
 11
-222.6798
 21
159.3076
 31
0.0
  0
LINE
  5
2D7
100
AcDbEntity
  8
1
  6
CONTINUOUS
 62
     5
100
AcDbLine
 10
-222.6798
 20
159.3076
 30
0.0
 11
-222.0798
 21
159.3076
 31
0.0
  0
LINE
  5
2D8
100
AcDbEntity
  8
1
  6
CONTINUOUS
 62
     5
100
AcDbLine
 10
-222.0798
 20
159.9076
 30
0.0
 11
-222.0798
 21
143.1076
 31
0.0
  0
LINE
  5
2D9
100
AcDbEntity
  8
1
  6
CONTINUOUS
 62
     5
100
AcDbLine
 10
-222.0798
 20
141.9076
 30
0.0
 11
-222.0798
 21
139.5076
 31
0.0
  0
LINE
  5
2DA
100
AcDbEntity
  8
1
  6
CONTINUOUS
 62
     5
100
AcDbLine
 10
-220.8798
 20
159.9076
 30
0.0
 11
-220.8798
 21
143.1076
 31
0.0
  0
LINE
  5
2DB
100
AcDbEntity
  8
1
  6
CONTINUOUS
 62
     5
100
AcDbLine
 10
-222.6798
 20
141.9076
 30
0.0
 11
-222.6798
 21
143.7076
 31
0.0
  0
LINE
  5
2DC
100
AcDbEntity
  8
1
  6
CONTINUOUS
 62
     5
100
AcDbLine
 10
-222.6798
 20
143.7076
 30
0.0
 11
-222.0798
 21
143.7076
 31
0.0
  0
LINE
  5
2DD
100
AcDbEntity
  8
1
  6
CONTINUOUS
 62
     5
100
AcDbLine
 10
-197.4798
 20
152.1076
 30
0.0
 11
-199.8798
 21
152.1076
 31
0.0
  0
LINE
  5
2DE
100
AcDbEntity
  8
1
  6
CONTINUOUS
 62
     5
100
AcDbLine
 10
-197.4798
 20
150.9076
 30
0.0
 11
-199.8798
 21
150.9076
 31
0.0
  0
LINE
  5
2DF
100
AcDbEntity
  8
1
  6
CONTINUOUS
 62
     5
100
AcDbLine
 10
-199.2798
 20
161.1076
 30
0.0
 11
-199.2798
 21
152.1076
 31
0.0
  0
LINE
  5
2E0
100
AcDbEntity
  8
1
  6
CONTINUOUS
 62
     5
100
AcDbLine
 10
-199.2798
 20
150.9076
 30
0.0
 11
-199.2798
 21
141.9076
 31
0.0
  0
LINE
  5
2E1
100
AcDbEntity
  8
1
  6
CONTINUOUS
 62
     5
100
AcDbLine
 10
-198.0798
 20
163.5076
 30
0.0
 11
-198.0798
 21
152.1076
 31
0.0
  0
LINE
  5
2E2
100
AcDbEntity
  8
1
  6
CONTINUOUS
 62
     5
100
AcDbLine
 10
-198.0798
 20
150.9076
 30
0.0
 11
-198.0798
 21
139.5076
 31
0.0
  0
LINE
  5
2E3
100
AcDbEntity
  8
1
  6
CONTINUOUS
 62
     5
100
AcDbLine
 10
-197.4798
 20
152.1076
 30
0.0
 11
-197.4798
 21
150.9076
 31
0.0
  0
LINE
  5
2E4
100
AcDbEntity
  8
1
  6
CONTINUOUS
 62
     5
100
AcDbLine
 10
-197.7798
 20
152.7076
 30
0.0
 11
-197.7798
 21
152.1076
 31
0.0
  0
LINE
  5
2E5
100
AcDbEntity
  8
1
  6
CONTINUOUS
 62
     5
100
AcDbLine
 10
-197.7798
 20
150.9076
 30
0.0
 11
-197.7798
 21
150.3076
 31
0.0
  0
CIRCLE
  5
2E6
100
AcDbEntity
  8
1
  6
CONTINUOUS
 62
     5
100
AcDbCircle
 10
-210.069
 20
151.5099
 30
0.0
 40
9.6
210
0.0
220
0.0
230
1.0
  0
LINE
  5
2E7
100
AcDbEntity
  8
1
  6
CONTINUOUS
 62
     5
100
AcDbLine
 10
-244.7903
 20
187.0839
 30
0.0
 11
-244.1903
 21
187.0839
 31
0.0
  0
LINE
  5
2E8
100
AcDbEntity
  8
1
  6
CONTINUOUS
 62
     5
100
AcDbLine
 10
-244.7903
 20
210.4839
 30
0.0
 11
-244.1903
 21
210.4839
 31
0.0
  0
LINE
  5
2E9
100
AcDbEntity
  8
1
  6
CONTINUOUS
 62
     5
100
AcDbLine
 10
-233.3903
 20
211.3839
 30
0.0
 11
-233.3903
 21
186.0879
 31
0.0
  0
LINE
  5
2EA
100
AcDbEntity
  8
1
  6
CONTINUOUS
 62
     5
100
AcDbLine
 10
-244.7903
 20
210.4839
 30
0.0
 11
-244.7903
 21
187.0839
 31
0.0
  0
LINE
  5
2EB
100
AcDbEntity
  8
1
  6
CONTINUOUS
 62
     5
100
AcDbLine
 10
-238.1903
 20
211.0839
 30
0.0
 11
-238.1903
 21
186.3879
 31
0.0
  0
LINE
  5
2EC
100
AcDbEntity
  8
1
  6
CONTINUOUS
 62
     5
100
AcDbLine
 10
-262.7903
 20
209.8839
 30
0.0
 11
-244.7903
 21
209.8839
 31
0.0
  0
LINE
  5
2ED
100
AcDbEntity
  8
1
  6
CONTINUOUS
 62
     5
100
AcDbLine
 10
-262.7903
 20
187.6839
 30
0.0
 11
-244.7903
 21
187.6839
 31
0.0
  0
LINE
  5
2EE
100
AcDbEntity
  8
1
  6
CONTINUOUS
 62
     5
100
AcDbLine
 10
-262.7903
 20
209.8839
 30
0.0
 11
-262.7903
 21
187.6839
 31
0.0
  0
LINE
  5
2EF
100
AcDbEntity
  8
1
  6
CONTINUOUS
 62
     5
100
AcDbLine
 10
-236.0903
 20
216.494
 30
0.0
 11
-228.035
 21
216.494
 31
0.0
  0
LINE
  5
2F0
100
AcDbEntity
  8
1
  6
CONTINUOUS
 62
     5
100
AcDbLine
 10
-220.835
 20
216.494
 30
0.0
 11
-212.7798
 21
216.494
 31
0.0
  0
TEXT
  5
2F1
100
AcDbEntity
  8
1
  6
CONTINUOUS
 62
     5
100
AcDbText
 10
-212.7058
 20
172.202
 30
0.0
 40
6.0
  1
Y
  7
TXT
210
0.0
220
0.0
230
1.0
100
AcDbText
  0
TEXT
  5
2F2
100
AcDbEntity
  8
1
  6
CONTINUOUS
 62
     5
100
AcDbText
 10
-213.2488
 20
148.9469
 30
0.0
 40
6.0
  1
G
  7
TXT
210
0.0
220
0.0
230
1.0
100
AcDbText
  0
LINE
  5
2F3
100
AcDbEntity
  8
1
  6
CONTINUOUS
 62
     5
100
AcDbLine
 10
-137.2282
 20
174.794
 30
0.0
 11
-137.2282
 21
163.394
 31
0.0
  0
LINE
  5
2F4
100
AcDbEntity
  8
1
  6
CONTINUOUS
 62
     5
100
AcDbLine
 10
-137.2282
 20
187.394
 30
0.0
 11
-161.2282
 21
187.394
 31
0.0
  0
LINE
  5
2F5
100
AcDbEntity
  8
1
  6
CONTINUOUS
 62
     5
100
AcDbLine
 10
-139.6282
 20
186.194
 30
0.0
 11
-158.8282
 21
186.194
 31
0.0
  0
LINE
  5
2F6
100
AcDbEntity
  8
1
  6
CONTINUOUS
 62
     5
100
AcDbLine
 10
-139.6282
 20
164.594
 30
0.0
 11
-158.8282
 21
164.594
 31
0.0
  0
ARC
  5
2F7
100
AcDbEntity
  8
1
  6
CONTINUOUS
 62
     5
100
AcDbCircle
 10
-158.8282
 20
184.994
 30
0.0
 40
1.2
210
0.0
220
0.0
230
1.0
100
AcDbArc
 50
90.0
 51
180.0
  0
ARC
  5
2F8
100
AcDbEntity
  8
1
  6
CONTINUOUS
 62
     5
100
AcDbCircle
 10
-139.6282
 20
184.994
 30
0.0
 40
1.2
210
0.0
220
0.0
230
1.0
100
AcDbArc
 50
0.0
 51
90.0
  0
ARC
  5
2F9
100
AcDbEntity
  8
1
  6
CONTINUOUS
 62
     5
100
AcDbCircle
 10
-158.8282
 20
165.794
 30
0.0
 40
1.2
210
0.0
220
0.0
230
1.0
100
AcDbArc
 50
180.0
 51
270.0
  0
ARC
  5
2FA
100
AcDbEntity
  8
1
  6
CONTINUOUS
 62
     5
100
AcDbCircle
 10
-139.6282
 20
165.794
 30
0.0
 40
1.2
210
0.0
220
0.0
230
1.0
100
AcDbArc
 50
270.0
 51
0.0
  0
LINE
  5
2FB
100
AcDbEntity
  8
1
  6
CONTINUOUS
 62
     5
100
AcDbLine
 10
-159.4282
 20
183.794
 30
0.0
 11
-161.8282
 21
183.794
 31
0.0
  0
LINE
  5
2FC
100
AcDbEntity
  8
1
  6
CONTINUOUS
 62
     5
100
AcDbLine
 10
-159.4282
 20
166.994
 30
0.0
 11
-161.8282
 21
166.994
 31
0.0
  0
LINE
  5
2FD
100
AcDbEntity
  8
1
  6
CONTINUOUS
 62
     5
100
AcDbLine
 10
-159.4282
 20
184.994
 30
0.0
 11
-161.8282
 21
184.994
 31
0.0
  0
LINE
  5
2FE
100
AcDbEntity
  8
1
  6
CONTINUOUS
 62
     5
100
AcDbLine
 10
-159.4282
 20
165.794
 30
0.0
 11
-161.8282
 21
165.794
 31
0.0
  0
LINE
  5
2FF
100
AcDbEntity
  8
1
  6
CONTINUOUS
 62
     5
100
AcDbLine
 10
-161.2282
 20
187.394
 30
0.0
 11
-161.2282
 21
184.994
 31
0.0
  0
LINE
  5
300
100
AcDbEntity
  8
1
  6
CONTINUOUS
 62
     5
100
AcDbLine
 10
-161.8282
 20
184.994
 30
0.0
 11
-161.8282
 21
183.194
 31
0.0
  0
LINE
  5
301
100
AcDbEntity
  8
1
  6
CONTINUOUS
 62
     5
100
AcDbLine
 10
-161.8282
 20
183.194
 30
0.0
 11
-161.2282
 21
183.194
 31
0.0
  0
LINE
  5
302
100
AcDbEntity
  8
1
  6
CONTINUOUS
 62
     5
100
AcDbLine
 10
-161.2282
 20
183.794
 30
0.0
 11
-161.2282
 21
166.994
 31
0.0
  0
LINE
  5
303
100
AcDbEntity
  8
1
  6
CONTINUOUS
 62
     5
100
AcDbLine
 10
-161.2282
 20
165.794
 30
0.0
 11
-161.2282
 21
163.394
 31
0.0
  0
LINE
  5
304
100
AcDbEntity
  8
1
  6
CONTINUOUS
 62
     5
100
AcDbLine
 10
-160.0282
 20
183.794
 30
0.0
 11
-160.0282
 21
166.994
 31
0.0
  0
LINE
  5
305
100
AcDbEntity
  8
1
  6
CONTINUOUS
 62
     5
100
AcDbLine
 10
-161.8282
 20
165.794
 30
0.0
 11
-161.8282
 21
167.594
 31
0.0
  0
LINE
  5
306
100
AcDbEntity
  8
1
  6
CONTINUOUS
 62
     5
100
AcDbLine
 10
-161.8282
 20
167.594
 30
0.0
 11
-161.2282
 21
167.594
 31
0.0
  0
LINE
  5
307
100
AcDbEntity
  8
1
  6
CONTINUOUS
 62
     5
100
AcDbLine
 10
-136.6282
 20
175.994
 30
0.0
 11
-139.0282
 21
175.994
 31
0.0
  0
LINE
  5
308
100
AcDbEntity
  8
1
  6
CONTINUOUS
 62
     5
100
AcDbLine
 10
-136.6282
 20
174.794
 30
0.0
 11
-139.0282
 21
174.794
 31
0.0
  0
LINE
  5
309
100
AcDbEntity
  8
1
  6
CONTINUOUS
 62
     5
100
AcDbLine
 10
-138.4282
 20
184.994
 30
0.0
 11
-138.4282
 21
175.994
 31
0.0
  0
LINE
  5
30A
100
AcDbEntity
  8
1
  6
CONTINUOUS
 62
     5
100
AcDbLine
 10
-138.4282
 20
174.794
 30
0.0
 11
-138.4282
 21
165.794
 31
0.0
  0
LINE
  5
30B
100
AcDbEntity
  8
1
  6
CONTINUOUS
 62
     5
100
AcDbLine
 10
-137.2282
 20
187.394
 30
0.0
 11
-137.2282
 21
175.994
 31
0.0
  0
LINE
  5
30C
100
AcDbEntity
  8
1
  6
CONTINUOUS
 62
     5
100
AcDbLine
 10
-136.6282
 20
175.994
 30
0.0
 11
-136.6282
 21
174.794
 31
0.0
  0
LINE
  5
30D
100
AcDbEntity
  8
1
  6
CONTINUOUS
 62
     5
100
AcDbLine
 10
-136.9282
 20
176.594
 30
0.0
 11
-136.9282
 21
175.994
 31
0.0
  0
LINE
  5
30E
100
AcDbEntity
  8
1
  6
CONTINUOUS
 62
     5
100
AcDbLine
 10
-136.9282
 20
174.794
 30
0.0
 11
-136.9282
 21
174.194
 31
0.0
  0
CIRCLE
  5
30F
100
AcDbEntity
  8
1
  6
CONTINUOUS
 62
     5
100
AcDbCircle
 10
-149.2174
 20
175.3963
 30
0.0
 40
9.6
210
0.0
220
0.0
230
1.0
  0
LINE
  5
310
100
AcDbEntity
  8
1
  6
CONTINUOUS
 62
     5
100
AcDbLine
 10
-137.2282
 20
163.394
 30
0.0
 11
-161.2282
 21
163.394
 31
0.0
  0
LINE
  5
311
100
AcDbEntity
  8
1
  6
CONTINUOUS
 62
     5
100
AcDbLine
 10
-137.2282
 20
139.394
 30
0.0
 11
-161.2282
 21
139.394
 31
0.0
  0
LINE
  5
312
100
AcDbEntity
  8
1
  6
CONTINUOUS
 62
     5
100
AcDbLine
 10
-139.6282
 20
162.194
 30
0.0
 11
-158.8282
 21
162.194
 31
0.0
  0
LINE
  5
313
100
AcDbEntity
  8
1
  6
CONTINUOUS
 62
     5
100
AcDbLine
 10
-139.6282
 20
140.594
 30
0.0
 11
-158.8282
 21
140.594
 31
0.0
  0
ARC
  5
314
100
AcDbEntity
  8
1
  6
CONTINUOUS
 62
     5
100
AcDbCircle
 10
-158.8282
 20
160.994
 30
0.0
 40
1.2
210
0.0
220
0.0
230
1.0
100
AcDbArc
 50
90.0
 51
180.0
  0
ARC
  5
315
100
AcDbEntity
  8
1
  6
CONTINUOUS
 62
     5
100
AcDbCircle
 10
-139.6282
 20
160.994
 30
0.0
 40
1.2
210
0.0
220
0.0
230
1.0
100
AcDbArc
 50
0.0
 51
90.0
  0
ARC
  5
316
100
AcDbEntity
  8
1
  6
CONTINUOUS
 62
     5
100
AcDbCircle
 10
-158.8282
 20
141.794
 30
0.0
 40
1.2
210
0.0
220
0.0
230
1.0
100
AcDbArc
 50
180.0
 51
270.0
  0
ARC
  5
317
100
AcDbEntity
  8
1
  6
CONTINUOUS
 62
     5
100
AcDbCircle
 10
-139.6282
 20
141.794
 30
0.0
 40
1.2
210
0.0
220
0.0
230
1.0
100
AcDbArc
 50
270.0
 51
0.0
  0
LINE
  5
318
100
AcDbEntity
  8
1
  6
CONTINUOUS
 62
     5
100
AcDbLine
 10
-159.4282
 20
159.794
 30
0.0
 11
-161.8282
 21
159.794
 31
0.0
  0
LINE
  5
319
100
AcDbEntity
  8
1
  6
CONTINUOUS
 62
     5
100
AcDbLine
 10
-159.4282
 20
142.994
 30
0.0
 11
-161.8282
 21
142.994
 31
0.0
  0
LINE
  5
31A
100
AcDbEntity
  8
1
  6
CONTINUOUS
 62
     5
100
AcDbLine
 10
-159.4282
 20
160.994
 30
0.0
 11
-161.8282
 21
160.994
 31
0.0
  0
LINE
  5
31B
100
AcDbEntity
  8
1
  6
CONTINUOUS
 62
     5
100
AcDbLine
 10
-159.4282
 20
141.794
 30
0.0
 11
-161.8282
 21
141.794
 31
0.0
  0
LINE
  5
31C
100
AcDbEntity
  8
1
  6
CONTINUOUS
 62
     5
100
AcDbLine
 10
-161.2282
 20
163.394
 30
0.0
 11
-161.2282
 21
160.994
 31
0.0
  0
LINE
  5
31D
100
AcDbEntity
  8
1
  6
CONTINUOUS
 62
     5
100
AcDbLine
 10
-161.8282
 20
160.994
 30
0.0
 11
-161.8282
 21
159.194
 31
0.0
  0
LINE
  5
31E
100
AcDbEntity
  8
1
  6
CONTINUOUS
 62
     5
100
AcDbLine
 10
-161.8282
 20
159.194
 30
0.0
 11
-161.2282
 21
159.194
 31
0.0
  0
LINE
  5
31F
100
AcDbEntity
  8
1
  6
CONTINUOUS
 62
     5
100
AcDbLine
 10
-161.2282
 20
159.794
 30
0.0
 11
-161.2282
 21
142.994
 31
0.0
  0
LINE
  5
320
100
AcDbEntity
  8
1
  6
CONTINUOUS
 62
     5
100
AcDbLine
 10
-161.2282
 20
141.794
 30
0.0
 11
-161.2282
 21
139.394
 31
0.0
  0
LINE
  5
321
100
AcDbEntity
  8
1
  6
CONTINUOUS
 62
     5
100
AcDbLine
 10
-160.0282
 20
159.794
 30
0.0
 11
-160.0282
 21
142.994
 31
0.0
  0
LINE
  5
322
100
AcDbEntity
  8
1
  6
CONTINUOUS
 62
     5
100
AcDbLine
 10
-161.8282
 20
141.794
 30
0.0
 11
-161.8282
 21
143.594
 31
0.0
  0
LINE
  5
323
100
AcDbEntity
  8
1
  6
CONTINUOUS
 62
     5
100
AcDbLine
 10
-161.8282
 20
143.594
 30
0.0
 11
-161.2282
 21
143.594
 31
0.0
  0
LINE
  5
324
100
AcDbEntity
  8
1
  6
CONTINUOUS
 62
     5
100
AcDbLine
 10
-136.6282
 20
151.994
 30
0.0
 11
-139.0282
 21
151.994
 31
0.0
  0
LINE
  5
325
100
AcDbEntity
  8
1
  6
CONTINUOUS
 62
     5
100
AcDbLine
 10
-136.6282
 20
150.794
 30
0.0
 11
-139.0282
 21
150.794
 31
0.0
  0
LINE
  5
326
100
AcDbEntity
  8
1
  6
CONTINUOUS
 62
     5
100
AcDbLine
 10
-138.4282
 20
160.994
 30
0.0
 11
-138.4282
 21
151.994
 31
0.0
  0
LINE
  5
327
100
AcDbEntity
  8
1
  6
CONTINUOUS
 62
     5
100
AcDbLine
 10
-138.4282
 20
150.794
 30
0.0
 11
-138.4282
 21
141.794
 31
0.0
  0
LINE
  5
328
100
AcDbEntity
  8
1
  6
CONTINUOUS
 62
     5
100
AcDbLine
 10
-137.2282
 20
163.394
 30
0.0
 11
-137.2282
 21
151.994
 31
0.0
  0
LINE
  5
329
100
AcDbEntity
  8
1
  6
CONTINUOUS
 62
     5
100
AcDbLine
 10
-137.2282
 20
150.794
 30
0.0
 11
-137.2282
 21
139.394
 31
0.0
  0
LINE
  5
32A
100
AcDbEntity
  8
1
  6
CONTINUOUS
 62
     5
100
AcDbLine
 10
-136.6282
 20
151.994
 30
0.0
 11
-136.6282
 21
150.794
 31
0.0
  0
LINE
  5
32B
100
AcDbEntity
  8
1
  6
CONTINUOUS
 62
     5
100
AcDbLine
 10
-136.9282
 20
152.594
 30
0.0
 11
-136.9282
 21
151.994
 31
0.0
  0
LINE
  5
32C
100
AcDbEntity
  8
1
  6
CONTINUOUS
 62
     5
100
AcDbLine
 10
-136.9282
 20
150.794
 30
0.0
 11
-136.9282
 21
150.194
 31
0.0
  0
CIRCLE
  5
32D
100
AcDbEntity
  8
1
  6
CONTINUOUS
 62
     5
100
AcDbCircle
 10
-149.2174
 20
151.3963
 30
0.0
 40
9.6
210
0.0
220
0.0
230
1.0
  0
POLYLINE
  5
32E
100
AcDbEntity
  8
1
  6
CONTINUOUS
 62
     5
100
AcDb2dPolyline
 66
     1
 10
0.0
 20
0.0
 30
0.0
 70
     1
  0
VERTEX
  5
32F
100
AcDbEntity
  8
1
  6
CONTINUOUS
 62
     5
100
AcDbVertex
100
AcDb2dVertex
 10
-151.3909
 20
181.994
 30
0.0
  0
VERTEX
  5
330
100
AcDbEntity
  8
1
  6
CONTINUOUS
 62
     5
100
AcDbVertex
100
AcDb2dVertex
 10
-156.4174
 20
175.394
 30
0.0
  0
VERTEX
  5
331
100
AcDbEntity
  8
1
  6
CONTINUOUS
 62
     5
100
AcDbVertex
100
AcDb2dVertex
 10
-151.3866
 20
168.794
 30
0.0
  0
VERTEX
  5
332
100
AcDbEntity
  8
1
  6
CONTINUOUS
 62
     5
100
AcDbVertex
100
AcDb2dVertex
 10
-149.9551
 20
169.8852
 30
0.0
  0
VERTEX
  5
333
100
AcDbEntity
  8
1
  6
CONTINUOUS
 62
     5
100
AcDbVertex
100
AcDb2dVertex
 10
-154.1546
 20
175.3946
 30
0.0
  0
VERTEX
  5
334
100
AcDbEntity
  8
1
  6
CONTINUOUS
 62
     5
100
AcDbVertex
100
AcDb2dVertex
 10
-149.959
 20
180.9035
 30
0.0
  0
VERTEX
  5
335
100
AcDbEntity
  8
1
  6
CONTINUOUS
 62
     5
100
AcDbVertex
100
AcDb2dVertex
 10
-151.3909
 20
181.994
 30
0.0
  0
SEQEND
  5
336
100
AcDbEntity
  8
1
  6
CONTINUOUS
 62
     5
  0
POLYLINE
  5
337
100
AcDbEntity
  8
1
  6
CONTINUOUS
 62
     5
100
AcDb2dPolyline
 66
     1
 10
0.0
 20
0.0
 30
0.0
 70
     1
  0
VERTEX
  5
338
100
AcDbEntity
  8
1
  6
CONTINUOUS
 62
     5
100
AcDbVertex
100
AcDb2dVertex
 10
-152.2174
 20
174.494
 30
0.0
  0
VERTEX
  5
339
100
AcDbEntity
  8
1
  6
CONTINUOUS
 62
     5
100
AcDbVertex
100
AcDb2dVertex
 10
-152.2174
 20
176.294
 30
0.0
  0
VERTEX
  5
33A
100
AcDbEntity
  8
1
  6
CONTINUOUS
 62
     5
100
AcDbVertex
100
AcDb2dVertex
 10
-144.4174
 20
176.294
 30
0.0
  0
VERTEX
  5
33B
100
AcDbEntity
  8
1
  6
CONTINUOUS
 62
     5
100
AcDbVertex
100
AcDb2dVertex
 10
-144.4174
 20
174.494
 30
0.0
  0
VERTEX
  5
33C
100
AcDbEntity
  8
1
  6
CONTINUOUS
 62
     5
100
AcDbVertex
100
AcDb2dVertex
 10
-152.2174
 20
174.494
 30
0.0
  0
SEQEND
  5
33D
100
AcDbEntity
  8
1
  6
CONTINUOUS
 62
     5
  0
POLYLINE
  5
33E
100
AcDbEntity
  8
1
  6
CONTINUOUS
 62
     5
100
AcDb2dPolyline
 66
     1
 10
0.0
 20
0.0
 30
0.0
 70
     1
  0
VERTEX
  5
33F
100
AcDbEntity
  8
1
  6
CONTINUOUS
 62
     5
100
AcDbVertex
100
AcDb2dVertex
 10
-151.3909
 20
157.994
 30
0.0
  0
VERTEX
  5
340
100
AcDbEntity
  8
1
  6
CONTINUOUS
 62
     5
100
AcDbVertex
100
AcDb2dVertex
 10
-156.4174
 20
151.394
 30
0.0
  0
VERTEX
  5
341
100
AcDbEntity
  8
1
  6
CONTINUOUS
 62
     5
100
AcDbVertex
100
AcDb2dVertex
 10
-151.3866
 20
144.794
 30
0.0
  0
VERTEX
  5
342
100
AcDbEntity
  8
1
  6
CONTINUOUS
 62
     5
100
AcDbVertex
100
AcDb2dVertex
 10
-149.9551
 20
145.8852
 30
0.0
  0
VERTEX
  5
343
100
AcDbEntity
  8
1
  6
CONTINUOUS
 62
     5
100
AcDbVertex
100
AcDb2dVertex
 10
-154.1546
 20
151.3946
 30
0.0
  0
VERTEX
  5
344
100
AcDbEntity
  8
1
  6
CONTINUOUS
 62
     5
100
AcDbVertex
100
AcDb2dVertex
 10
-149.959
 20
156.9035
 30
0.0
  0
VERTEX
  5
345
100
AcDbEntity
  8
1
  6
CONTINUOUS
 62
     5
100
AcDbVertex
100
AcDb2dVertex
 10
-151.3909
 20
157.994
 30
0.0
  0
SEQEND
  5
346
100
AcDbEntity
  8
1
  6
CONTINUOUS
 62
     5
  0
POLYLINE
  5
347
100
AcDbEntity
  8
1
  6
CONTINUOUS
 62
     5
100
AcDb2dPolyline
 66
     1
 10
0.0
 20
0.0
 30
0.0
 70
     1
  0
VERTEX
  5
348
100
AcDbEntity
  8
1
  6
CONTINUOUS
 62
     5
100
AcDbVertex
100
AcDb2dVertex
 10
-152.2174
 20
150.494
 30
0.0
  0
VERTEX
  5
349
100
AcDbEntity
  8
1
  6
CONTINUOUS
 62
     5
100
AcDbVertex
100
AcDb2dVertex
 10
-152.2174
 20
152.294
 30
0.0
  0
VERTEX
  5
34A
100
AcDbEntity
  8
1
  6
CONTINUOUS
 62
     5
100
AcDbVertex
100
AcDb2dVertex
 10
-144.4174
 20
152.294
 30
0.0
  0
VERTEX
  5
34B
100
AcDbEntity
  8
1
  6
CONTINUOUS
 62
     5
100
AcDbVertex
100
AcDb2dVertex
 10
-144.4174
 20
150.494
 30
0.0
  0
VERTEX
  5
34C
100
AcDbEntity
  8
1
  6
CONTINUOUS
 62
     5
100
AcDbVertex
100
AcDb2dVertex
 10
-152.2174
 20
150.494
 30
0.0
  0
SEQEND
  5
34D
100
AcDbEntity
  8
1
  6
CONTINUOUS
 62
     5
  0
LINE
  5
34E
100
AcDbEntity
  8
1
  6
CONTINUOUS
 62
     5
100
AcDbLine
 10
-121.3282
 20
216.4839
 30
0.0
 11
-130.3282
 21
216.4839
 31
0.0
  0
LINE
  5
34F
100
AcDbEntity
  8
1
  6
CONTINUOUS
 62
     5
100
AcDbLine
 10
-137.5282
 20
216.4839
 30
0.0
 11
-146.5282
 21
216.4839
 31
0.0
  0
LINE
  5
350
100
AcDbEntity
  8
1
  6
CONTINUOUS
 62
     5
100
AcDbLine
 10
-121.3282
 20
214.6839
 30
0.0
 11
-130.3282
 21
214.6839
 31
0.0
  0
LINE
  5
351
100
AcDbEntity
  8
1
  6
CONTINUOUS
 62
     5
100
AcDbLine
 10
-137.5282
 20
214.6839
 30
0.0
 11
-146.5282
 21
214.6839
 31
0.0
  0
TEXT
  5
352
100
AcDbEntity
  8
1
  6
CONTINUOUS
 62
     5
100
AcDbText
 10
-121.2888
 20
172.1353
 30
0.0
 40
6.0
  1
Y
  7
TXT
210
0.0
220
0.0
230
1.0
100
AcDbText
  0
TEXT
  5
353
100
AcDbEntity
  8
1
  6
CONTINUOUS
 62
     5
100
AcDbText
 10
-121.5337
 20
148.8656
 30
0.0
 40
6.0
  1
G
  7
TXT
210
0.0
220
0.0
230
1.0
100
AcDbText
  0
TEXT
  5
354
100
AcDbEntity
  8
1
  6
CONTINUOUS
 62
     7
100
AcDbText
 10
-275.0107
 20
106.2113
 30
0.0
 40
6.0
  1
TYPICAL COMBINATIONS IN TWO-WAY AND
  7
TXT
 72
     4
 11
-184.1098
 21
109.2113
 31
0.0
210
0.0
220
0.0
230
1.0
100
AcDbText
  0
TEXT
  5
355
100
AcDbEntity
  8
1
  6
CONTINUOUS
 62
     7
100
AcDbText
 10
-239.9134
 20
94.2113
 30
0.0
 40
6.0
  1
FIVE SECTION ASSEMBLIES
  7
TXT
 72
     4
 11
-184.1098
 21
97.2113
 31
0.0
210
0.0
220
0.0
230
1.0
100
AcDbText
  0
LINE
  5
356
100
AcDbEntity
  8
1
  6
CONTINUOUS
 62
     7
100
AcDbLine
 10
-277.0585
 20
104.1148
 30
0.0
 11
-242.4725
 21
104.1148
 31
0.0
  0
LINE
  5
357
100
AcDbEntity
  8
1
  6
CONTINUOUS
 62
     7
100
AcDbLine
 10
-239.329
 20
104.1148
 30
0.0
 11
-175.8324
 21
104.1148
 31
0.0
  0
LINE
  5
358
100
AcDbEntity
  8
1
  6
CONTINUOUS
 62
     7
100
AcDbLine
 10
-171.3373
 20
103.9182
 30
0.0
 11
-161.6904
 21
103.9182
 31
0.0
  0
LINE
  5
359
100
AcDbEntity
  8
1
  6
CONTINUOUS
 62
     7
100
AcDbLine
 10
-157.1888
 20
104.1148
 30
0.0
 11
-115.1136
 21
104.1148
 31
0.0
  0
LINE
  5
35A
100
AcDbEntity
  8
1
  6
CONTINUOUS
 62
     7
100
AcDbLine
 10
-111.0094
 20
104.1148
 30
0.0
 11
-92.9296
 21
104.1148
 31
0.0
  0
LINE
  5
35B
100
AcDbEntity
  8
1
  6
CONTINUOUS
 62
     7
100
AcDbLine
 10
-240.901
 20
91.7308
 30
0.0
 11
-222.2163
 21
91.7308
 31
0.0
  0
LINE
  5
35C
100
AcDbEntity
  8
1
  6
CONTINUOUS
 62
     7
100
AcDbLine
 10
-218.4992
 20
91.9273
 30
0.0
 11
-183.5009
 21
91.9273
 31
0.0
  0
LINE
  5
35D
100
AcDbEntity
  8
1
  6
CONTINUOUS
 62
     7
100
AcDbLine
 10
-178.8046
 20
91.9273
 30
0.0
 11
-126.5154
 21
91.9273
 31
0.0
  0
CIRCLE
  5
35E
100
AcDbEntity
  8
1
  6
CONTINUOUS
 62
     1
100
AcDbCircle
 10
-273.0525
 20
3.5377
 30
0.0
 40
6.3
210
0.0
220
0.0
230
1.0
  0
CIRCLE
  5
35F
100
AcDbEntity
  8
1
  6
CONTINUOUS
 62
     1
100
AcDbCircle
 10
-273.0525
 20
-18.0547
 30
0.0
 40
6.3
210
0.0
220
0.0
230
1.0
  0
CIRCLE
  5
360
100
AcDbEntity
  8
1
  6
CONTINUOUS
 62
     1
100
AcDbCircle
 10
-273.0525
 20
-39.647
 30
0.0
 40
6.3
210
0.0
220
0.0
230
1.0
  0
CIRCLE
  5
361
100
AcDbEntity
  8
1
  6
CONTINUOUS
 62
     1
100
AcDbCircle
 10
-233.4794
 20
3.5377
 30
0.0
 40
6.3
210
0.0
220
0.0
230
1.0
  0
CIRCLE
  5
362
100
AcDbEntity
  8
1
  6
CONTINUOUS
 62
     1
100
AcDbCircle
 10
-233.4794
 20
-18.0547
 30
0.0
 40
6.3
210
0.0
220
0.0
230
1.0
  0
CIRCLE
  5
363
100
AcDbEntity
  8
1
  6
CONTINUOUS
 62
     1
100
AcDbCircle
 10
-233.4794
 20
-39.647
 30
0.0
 40
6.3
210
0.0
220
0.0
230
1.0
  0
CIRCLE
  5
364
100
AcDbEntity
  8
1
  6
CONTINUOUS
 62
     1
100
AcDbCircle
 10
-211.8713
 20
-18.0493
 30
0.0
 40
6.3
210
0.0
220
0.0
230
1.0
  0
CIRCLE
  5
365
100
AcDbEntity
  8
1
  6
CONTINUOUS
 62
     1
100
AcDbCircle
 10
-164.3208
 20
3.4035
 30
0.0
 40
6.3
210
0.0
220
0.0
230
1.0
  0
CIRCLE
  5
366
100
AcDbEntity
  8
1
  6
CONTINUOUS
 62
     1
100
AcDbCircle
 10
-150.5423
 20
-18.1339
 30
0.0
 40
6.3
210
0.0
220
0.0
230
1.0
  0
CIRCLE
  5
367
100
AcDbEntity
  8
1
  6
CONTINUOUS
 62
     1
100
AcDbCircle
 10
-150.5423
 20
-39.0722
 30
0.0
 40
6.3
210
0.0
220
0.0
230
1.0
  0
CIRCLE
  5
368
100
AcDbEntity
  8
1
  6
CONTINUOUS
 62
     1
100
AcDbCircle
 10
-136.7531
 20
3.2554
 30
0.0
 40
6.3
210
0.0
220
0.0
230
1.0
  0
CIRCLE
  5
369
100
AcDbEntity
  8
1
  6
CONTINUOUS
 62
     1
100
AcDbCircle
 10
-89.3579
 20
3.6097
 30
0.0
 40
6.3
210
0.0
220
0.0
230
1.0
  0
CIRCLE
  5
36A
100
AcDbEntity
  8
1
  6
CONTINUOUS
 62
     1
100
AcDbCircle
 10
-89.3579
 20
-18.1339
 30
0.0
 40
6.3
210
0.0
220
0.0
230
1.0
  0
CIRCLE
  5
36B
100
AcDbEntity
  8
1
  6
CONTINUOUS
 62
     1
100
AcDbCircle
 10
-89.3579
 20
-39.3407
 30
0.0
 40
6.3
210
0.0
220
0.0
230
1.0
  0
CIRCLE
  5
36C
100
AcDbEntity
  8
1
  6
CONTINUOUS
 62
     1
100
AcDbCircle
 10
-67.6213
 20
-18.1339
 30
0.0
 40
6.3
210
0.0
220
0.0
230
1.0
  0
CIRCLE
  5
36D
100
AcDbEntity
  8
1
  6
CONTINUOUS
 62
     1
100
AcDbCircle
 10
-67.8897
 20
-39.6091
 30
0.0
 40
6.3
210
0.0
220
0.0
230
1.0
  0
CIRCLE
  5
36E
100
AcDbEntity
  8
1
  6
CONTINUOUS
 62
     1
100
AcDbCircle
 10
-28.2581
 20
-18.0964
 30
0.0
 40
6.3
210
0.0
220
0.0
230
1.0
  0
CIRCLE
  5
36F
100
AcDbEntity
  8
1
  6
CONTINUOUS
 62
     1
100
AcDbCircle
 10
-28.2581
 20
-39.705
 30
0.0
 40
6.3
210
0.0
220
0.0
230
1.0
  0
CIRCLE
  5
370
100
AcDbEntity
  8
1
  6
CONTINUOUS
 62
     1
100
AcDbCircle
 10
-6.6565
 20
-39.705
 30
0.0
 40
6.3
210
0.0
220
0.0
230
1.0
  0
CIRCLE
  5
371
100
AcDbEntity
  8
1
  6
CONTINUOUS
 62
     1
100
AcDbCircle
 10
-6.7702
 20
-18.0964
 30
0.0
 40
6.3
210
0.0
220
0.0
230
1.0
  0
CIRCLE
  5
372
100
AcDbEntity
  8
1
  6
CONTINUOUS
 62
     1
100
AcDbCircle
 10
-6.6565
 20
3.5121
 30
0.0
 40
6.3
210
0.0
220
0.0
230
1.0
  0
CIRCLE
  5
373
100
AcDbEntity
  8
1
  6
CONTINUOUS
 62
     1
100
AcDbCircle
 10
33.4769
 20
3.6259
 30
0.0
 40
6.3
210
0.0
220
0.0
230
1.0
  0
CIRCLE
  5
374
100
AcDbEntity
  8
1
  6
CONTINUOUS
 62
     1
100
AcDbCircle
 10
54.6237
 20
3.6259
 30
0.0
 40
6.3
210
0.0
220
0.0
230
1.0
  0
CIRCLE
  5
375
100
AcDbEntity
  8
1
  6
CONTINUOUS
 62
     1
100
AcDbCircle
 10
76.2253
 20
3.6259
 30
0.0
 40
6.3
210
0.0
220
0.0
230
1.0
  0
CIRCLE
  5
376
100
AcDbEntity
  8
1
  6
CONTINUOUS
 62
     1
100
AcDbCircle
 10
115.752
 20
3.554
 30
0.0
 40
6.3
210
0.0
220
0.0
230
1.0
  0
CIRCLE
  5
377
100
AcDbEntity
  8
1
  6
CONTINUOUS
 62
     1
100
AcDbCircle
 10
137.3807
 20
3.554
 30
0.0
 40
6.3
210
0.0
220
0.0
230
1.0
  0
CIRCLE
  5
378
100
AcDbEntity
  8
1
  6
CONTINUOUS
 62
     1
100
AcDbCircle
 10
158.9034
 20
3.554
 30
0.0
 40
6.3
210
0.0
220
0.0
230
1.0
  0
TEXT
  5
379
100
AcDbEntity
  8
1
  6
CONTINUOUS
 62
     1
100
AcDbText
 10
-275.0833
 20
1.2413
 30
0.0
 40
4.8
  1
R
  7
TXT
210
0.0
220
0.0
230
1.0
100
AcDbText
  0
TEXT
  5
37A
100
AcDbEntity
  8
1
  6
CONTINUOUS
 62
     1
100
AcDbText
 10
-235.4457
 20
1.4875
 30
0.0
 40
4.8
  1
R
  7
TXT
210
0.0
220
0.0
230
1.0
100
AcDbText
  0
TEXT
  5
37B
100
AcDbEntity
  8
1
  6
CONTINUOUS
 62
     1
100
AcDbText
 10
-275.1566
 20
-20.4471
 30
0.0
 40
4.8
  1
Y
  7
TXT
210
0.0
220
0.0
230
1.0
100
AcDbText
  0
TEXT
  5
37C
100
AcDbEntity
  8
1
  6
CONTINUOUS
 62
     1
100
AcDbText
 10
-235.6275
 20
-20.9002
 30
0.0
 40
4.8
  1
Y
  7
TXT
210
0.0
220
0.0
230
1.0
100
AcDbText
  0
TEXT
  5
37D
100
AcDbEntity
  8
1
  6
CONTINUOUS
 62
     1
100
AcDbText
 10
-213.8772
 20
-20.6731
 30
0.0
 40
4.8
  1
Y
  7
TXT
210
0.0
220
0.0
230
1.0
100
AcDbText
  0
TEXT
  5
37E
100
AcDbEntity
  8
1
  6
CONTINUOUS
 62
     1
100
AcDbText
 10
-275.6078
 20
-41.7312
 30
0.0
 40
4.8
  1
G
  7
TXT
210
0.0
220
0.0
230
1.0
100
AcDbText
  0
TEXT
  5
37F
100
AcDbEntity
  8
1
  6
CONTINUOUS
 62
     1
100
AcDbText
 10
-235.9308
 20
-41.9188
 30
0.0
 40
4.8
  1
G
  7
TXT
210
0.0
220
0.0
230
1.0
100
AcDbText
  0
TEXT
  5
380
100
AcDbEntity
  8
1
  6
CONTINUOUS
 62
     1
100
AcDbText
 10
-166.4086
 20
1.2266
 30
0.0
 40
4.8
  1
R
  7
TXT
 72
     4
 11
-164.3846
 21
3.6266
 31
0.0
210
0.0
220
0.0
230
1.0
100
AcDbText
  0
TEXT
  5
381
100
AcDbEntity
  8
1
  6
CONTINUOUS
 62
     1
100
AcDbText
 10
-138.6171
 20
1.0785
 30
0.0
 40
4.8
  1
R
  7
TXT
 72
     4
 11
-136.5931
 21
3.4785
 31
0.0
210
0.0
220
0.0
230
1.0
100
AcDbText
  0
TEXT
  5
382
100
AcDbEntity
  8
1
  6
CONTINUOUS
 62
     1
100
AcDbText
 10
-152.7149
 20
-20.4583
 30
0.0
 40
4.8
  1
Y
  7
TXT
 72
     4
 11
-150.6865
 21
-18.0583
 31
0.0
210
0.0
220
0.0
230
1.0
100
AcDbText
  0
TEXT
  5
383
100
AcDbEntity
  8
1
  6
CONTINUOUS
 62
     1
100
AcDbText
 10
-152.8338
 20
-41.8934
 30
0.0
 40
4.8
  1
G
  7
TXT
 72
     4
 11
-150.6106
 21
-39.4934
 31
0.0
210
0.0
220
0.0
230
1.0
100
AcDbText
  0
TEXT
  5
384
100
AcDbEntity
  8
1
  6
CONTINUOUS
 62
     1
100
AcDbText
 10
-91.6618
 20
1.3321
 30
0.0
 40
4.8
  1
R
  7
TXT
 72
     4
 11
-89.6378
 21
3.7321
 31
0.0
210
0.0
220
0.0
230
1.0
100
AcDbText
  0
TEXT
  5
385
100
AcDbEntity
  8
1
  6
CONTINUOUS
 62
     1
100
AcDbText
 10
-91.5173
 20
-20.6399
 30
0.0
 40
4.8
  1
Y
  7
TXT
 72
     4
 11
-89.4889
 21
-18.2399
 31
0.0
210
0.0
220
0.0
230
1.0
100
AcDbText
  0
TEXT
  5
386
100
AcDbEntity
  8
1
  6
CONTINUOUS
 62
     1
100
AcDbText
 10
-69.9246
 20
-20.491
 30
0.0
 40
4.8
  1
Y
  7
TXT
 72
     4
 11
-67.8962
 21
-18.091
 31
0.0
210
0.0
220
0.0
230
1.0
100
AcDbText
  0
TEXT
  5
387
100
AcDbEntity
  8
1
  6
CONTINUOUS
 62
     1
100
AcDbText
 10
-91.7122
 20
-42.0907
 30
0.0
 40
4.8
  1
G
  7
TXT
 72
     4
 11
-89.489
 21
-39.6907
 31
0.0
210
0.0
220
0.0
230
1.0
100
AcDbText
  0
TEXT
  5
388
100
AcDbEntity
  8
1
  6
CONTINUOUS
 62
     1
100
AcDbText
 10
-70.194
 20
-42.0907
 30
0.0
 40
4.8
  1
G
  7
TXT
 72
     4
 11
-67.9708
 21
-39.6907
 31
0.0
210
0.0
220
0.0
230
1.0
100
AcDbText
  0
TEXT
  5
389
100
AcDbEntity
  8
1
  6
CONTINUOUS
 62
     1
100
AcDbText
 10
-8.6725
 20
1.1196
 30
0.0
 40
4.8
  1
R
  7
TXT
 72
     4
 11
-6.6485
 21
3.5196
 31
0.0
210
0.0
220
0.0
230
1.0
100
AcDbText
  0
TEXT
  5
38A
100
AcDbEntity
  8
1
  6
CONTINUOUS
 62
     1
100
AcDbText
 10
-30.2792
 20
-20.4898
 30
0.0
 40
4.8
  1
Y
  7
TXT
 72
     4
 11
-28.2508
 21
-18.0898
 31
0.0
210
0.0
220
0.0
230
1.0
100
AcDbText
  0
TEXT
  5
38B
100
AcDbEntity
  8
1
  6
CONTINUOUS
 62
     1
100
AcDbText
 10
-8.6769
 20
-20.4898
 30
0.0
 40
4.8
  1
Y
  7
TXT
 72
     4
 11
-6.6485
 21
-18.0898
 31
0.0
210
0.0
220
0.0
230
1.0
100
AcDbText
  0
TEXT
  5
38C
100
AcDbEntity
  8
1
  6
CONTINUOUS
 62
     1
100
AcDbText
 10
-30.4741
 20
-41.8591
 30
0.0
 40
4.8
  1
G
  7
TXT
 72
     4
 11
-28.2509
 21
-39.4591
 31
0.0
210
0.0
220
0.0
230
1.0
100
AcDbText
  0
TEXT
  5
38D
100
AcDbEntity
  8
1
  6
CONTINUOUS
 62
     1
100
AcDbText
 10
-8.8718
 20
-41.8591
 30
0.0
 40
4.8
  1
G
  7
TXT
 72
     4
 11
-6.6486
 21
-39.4591
 31
0.0
210
0.0
220
0.0
230
1.0
100
AcDbText
  0
TEXT
  5
38E
100
AcDbEntity
  8
1
  6
CONTINUOUS
 62
     1
100
AcDbText
 10
30.9226
 20
1.0207
 30
0.0
 40
4.8
  1
R
  7
TXT
 72
     4
 11
32.9466
 21
3.4207
 31
0.0
210
0.0
220
0.0
230
1.0
100
AcDbText
  0
TEXT
  5
38F
100
AcDbEntity
  8
1
  6
CONTINUOUS
 62
     1
100
AcDbText
 10
52.4869
 20
1.1333
 30
0.0
 40
4.8
  1
Y
  7
TXT
 72
     4
 11
54.5153
 21
3.5333
 31
0.0
210
0.0
220
0.0
230
1.0
100
AcDbText
  0
TEXT
  5
390
100
AcDbEntity
  8
1
  6
CONTINUOUS
 62
     1
100
AcDbText
 10
73.917
 20
1.1333
 30
0.0
 40
4.8
  1
G
  7
TXT
 72
     4
 11
76.1402
 21
3.5333
 31
0.0
210
0.0
220
0.0
230
1.0
100
AcDbText
  0
TEXT
  5
391
100
AcDbEntity
  8
1
  6
CONTINUOUS
 62
     1
100
AcDbText
 10
113.72
 20
1.076
 30
0.0
 40
4.8
  1
R
  7
TXT
 72
     4
 11
115.744
 21
3.476
 31
0.0
210
0.0
220
0.0
230
1.0
100
AcDbText
  0
TEXT
  5
392
100
AcDbEntity
  8
1
  6
CONTINUOUS
 62
     1
100
AcDbText
 10
135.2537
 20
1.1306
 30
0.0
 40
4.8
  1
Y
  7
TXT
 72
     4
 11
137.2821
 21
3.5306
 31
0.0
210
0.0
220
0.0
230
1.0
100
AcDbText
  0
TEXT
  5
393
100
AcDbEntity
  8
1
  6
CONTINUOUS
 62
     1
100
AcDbText
 10
156.7059
 20
1.1306
 30
0.0
 40
4.8
  1
G
  7
TXT
 72
     4
 11
158.9291
 21
3.5306
 31
0.0
210
0.0
220
0.0
230
1.0
100
AcDbText
  0
TEXT
  5
395
100
AcDbEntity
  8
1
  6
CONTINUOUS
 62
     1
100
AcDbText
 10
-224.6379
 20
-19.334
 30
0.0
 40
2.4
  1
OR
  7
MONOTXT
 72
     4
 11
-222.5309
 21
-18.134
 31
0.0
210
0.0
220
0.0
230
1.0
100
AcDbText
  0
TEXT
  5
396
100
AcDbEntity
  8
1
  6
CONTINUOUS
 62
     1
100
AcDbText
 10
-277.5244
 20
17.2104
 30
0.0
 40
4.8
  1
(A)
  7
TXT
 72
     4
 11
-273.4284
 21
19.6104
 31
0.0
210
0.0
220
0.0
230
1.0
100
AcDbText
  0
TEXT
  5
397
100
AcDbEntity
  8
1
  6
CONTINUOUS
 62
     1
100
AcDbText
 10
-237.4417
 20
17.0322
 30
0.0
 40
4.8
  1
(B)
  7
TXT
 72
     4
 11
-233.4723
 21
19.4322
 31
0.0
210
0.0
220
0.0
230
1.0
100
AcDbText
  0
TEXT
  5
398
100
AcDbEntity
  8
1
  6
CONTINUOUS
 62
     1
100
AcDbText
 10
-154.6556
 20
17.1023
 30
0.0
 40
4.8
  1
(C)
  7
TXT
 72
     4
 11
-150.5727
 21
19.5023
 31
0.0
210
0.0
220
0.0
230
1.0
100
AcDbText
  0
TEXT
  5
399
100
AcDbEntity
  8
1
  6
CONTINUOUS
 62
     1
100
AcDbText
 10
-93.5428
 20
17.1024
 30
0.0
 40
4.8
  1
(D)
  7
TXT
 72
     4
 11
-89.385
 21
19.5024
 31
0.0
210
0.0
220
0.0
230
1.0
100
AcDbText
  0
TEXT
  5
39A
100
AcDbEntity
  8
1
  6
CONTINUOUS
 62
     1
100
AcDbText
 10
-31.9883
 20
17.1725
 30
0.0
 40
4.8
  1
(E)
  7
TXT
 72
     4
 11
-28.2123
 21
19.5725
 31
0.0
210
0.0
220
0.0
230
1.0
100
AcDbText
  0
TEXT
  5
39B
100
AcDbEntity
  8
1
  6
CONTINUOUS
 62
     1
100
AcDbText
 10
50.8958
 20
17.1641
 30
0.0
 40
4.8
  1
(F)
  7
TXT
 72
     4
 11
54.5168
 21
19.5641
 31
0.0
210
0.0
220
0.0
230
1.0
100
AcDbText
  0
TEXT
  5
39C
100
AcDbEntity
  8
1
  6
CONTINUOUS
 62
     1
100
AcDbText
 10
133.1373
 20
17.2515
 30
0.0
 40
4.8
  1
(G)
  7
TXT
 72
     4
 11
137.45
 21
19.6515
 31
0.0
210
0.0
220
0.0
230
1.0
100
AcDbText
  0
LINE
  5
39D
100
AcDbEntity
  8
1
  6
CONTINUOUS
 62
     1
100
AcDbLine
 10
-239.1794
 20
-18.0548
 30
0.0
 11
-235.0834
 21
-18.0548
 31
0.0
  0
LINE
  5
39E
100
AcDbEntity
  8
1
  6
CONTINUOUS
 62
     1
100
AcDbLine
 10
-227.7794
 20
-18.0548
 30
0.0
 11
-231.9794
 21
-18.0548
 31
0.0
  0
LINE
  5
39F
100
AcDbEntity
  8
1
  6
CONTINUOUS
 62
     1
100
AcDbLine
 10
158.9294
 20
-2.1868
 30
0.0
 11
158.9294
 21
0.626
 31
0.0
  0
LINE
  5
3A0
100
AcDbEntity
  8
1
  6
CONTINUOUS
 62
     1
100
AcDbLine
 10
158.9294
 20
9.3394
 30
0.0
 11
158.9294
 21
5.9498
 31
0.0
  0
LINE
  5
3A1
100
AcDbEntity
  8
1
  6
CONTINUOUS
 62
     1
100
AcDbLine
 10
-22.6313
 20
-18.3621
 30
0.0
 11
-26.8313
 21
-18.3621
 31
0.0
  0
LINE
  5
3A2
100
AcDbEntity
  8
1
  6
CONTINUOUS
 62
     1
100
AcDbLine
 10
-34.0313
 20
-18.3621
 30
0.0
 11
-29.9353
 21
-18.3621
 31
0.0
  0
LINE
  5
3A3
100
AcDbEntity
  8
1
  6
CONTINUOUS
 62
     1
100
AcDbLine
 10
-22.4163
 20
-39.5552
 30
0.0
 11
-25.6819
 21
-39.5552
 31
0.0
  0
LINE
  5
3A4
100
AcDbEntity
  8
1
  6
CONTINUOUS
 62
     1
100
AcDbLine
 10
-33.8163
 20
-39.5552
 30
0.0
 11
-30.2644
 21
-39.5552
 31
0.0
  0
LINE
  5
3A5
100
AcDbEntity
  8
1
  6
CONTINUOUS
 62
     1
100
AcDbLine
 10
-73.2028
 20
-18.6224
 30
0.0
 11
-69.0028
 21
-18.6224
 31
0.0
  0
LINE
  5
3A6
100
AcDbEntity
  8
1
  6
CONTINUOUS
 62
     1
100
AcDbLine
 10
-61.8028
 20
-18.6224
 30
0.0
 11
-65.8988
 21
-18.6224
 31
0.0
  0
LINE
  5
3A7
100
AcDbEntity
  8
1
  6
CONTINUOUS
 62
     1
100
AcDbLine
 10
-73.3136
 20
-39.9196
 30
0.0
 11
-70.048
 21
-39.9196
 31
0.0
  0
LINE
  5
3A8
100
AcDbEntity
  8
1
  6
CONTINUOUS
 62
     1
100
AcDbLine
 10
-61.9136
 20
-39.9196
 30
0.0
 11
-65.4655
 21
-39.9196
 31
0.0
  0
LINE
  5
3A9
100
AcDbEntity
  8
1
  6
CONTINUOUS
 62
     1
100
AcDbLine
 10
119.7384
 20
-0.52
 30
0.0
 11
117.9378
 21
1.2947
 31
0.0
  0
LINE
  5
3AA
100
AcDbEntity
  8
1
  6
CONTINUOUS
 62
     1
100
AcDbLine
 10
113.8752
 20
5.3893
 30
0.0
 11
111.7244
 21
7.557
 31
0.0
  0
LINE
  5
3AB
100
AcDbEntity
  8
1
  6
CONTINUOUS
 62
     1
100
AcDbLine
 10
111.7062
 20
-0.4612
 30
0.0
 11
113.8725
 21
1.6966
 31
0.0
  0
LINE
  5
3AC
100
AcDbEntity
  8
1
  6
CONTINUOUS
 62
     1
100
AcDbLine
 10
117.5087
 20
5.3186
 30
0.0
 11
119.7903
 21
7.5913
 31
0.0
  0
LINE
  5
3AD
100
AcDbEntity
  8
1
  6
CONTINUOUS
 62
     1
100
AcDbLine
 10
139.6135
 20
6.1088
 30
0.0
 11
141.443
 21
7.9313
 31
0.0
  0
LINE
  5
3AE
100
AcDbEntity
  8
1
  6
CONTINUOUS
 62
     1
100
AcDbLine
 10
141.4379
 20
-0.5697
 30
0.0
 11
138.0742
 21
2.8204
 31
0.0
  0
LINE
  5
3AF
100
AcDbEntity
  8
1
  6
CONTINUOUS
 62
     1
100
AcDbLine
 10
135.0528
 20
5.8656
 30
0.0
 11
133.126
 21
7.8075
 31
0.0
  0
LINE
  5
3B0
100
AcDbEntity
  8
1
  6
CONTINUOUS
 62
     1
100
AcDbLine
 10
133.1021
 20
-0.3771
 30
0.0
 11
136.4168
 21
2.9246
 31
0.0
  0
TEXT
  5
3B1
100
AcDbEntity
  8
1
  6
CONTINUOUS
 62
     1
100
AcDbText
 10
-183.6555
 20
-74.4593
 30
0.0
 40
6.0
  1
TYPICAL ARRANGEMENTS OF LENSES IN FACES
  7
TXT
 72
     4
 11
-84.8447
 21
-71.4593
 31
0.0
210
0.0
220
0.0
230
1.0
100
AcDbText
  0
LINE
  5
3B2
100
AcDbEntity
  8
1
  6
CONTINUOUS
 62
     1
100
AcDbLine
 10
-185.3404
 20
-77.2521
 30
0.0
 11
-150.6833
 21
-77.2521
 31
0.0
  0
LINE
  5
3B3
100
AcDbEntity
  8
1
  6
CONTINUOUS
 62
     1
100
AcDbLine
 10
-148.1915
 20
-77.2521
 30
0.0
 11
-80.7609
 21
-77.2521
 31
0.0
  0
LINE
  5
3B4
100
AcDbEntity
  8
1
  6
CONTINUOUS
 62
     1
100
AcDbLine
 10
-77.0155
 20
-77.2521
 30
0.0
 11
-65.1488
 21
-77.2521
 31
0.0
  0
LINE
  5
3B5
100
AcDbEntity
  8
1
  6
CONTINUOUS
 62
     1
100
AcDbLine
 10
-61.7189
 20
-77.2521
 30
0.0
 11
-30.7994
 21
-77.2521
 31
0.0
  0
LINE
  5
3B6
100
AcDbEntity
  8
1
  6
CONTINUOUS
 62
     1
100
AcDbLine
 10
-26.4431
 20
-76.9399
 30
0.0
 11
-16.4486
 21
-76.9399
 31
0.0
  0
LINE
  5
3B7
100
AcDbEntity
  8
1
  6
CONTINUOUS
 62
     1
100
AcDbLine
 10
-11.7709
 20
-76.9399
 30
0.0
 11
15.078
 21
-76.9399
 31
0.0
  0
LINE
  5
3B8
100
AcDbEntity
  8
1
  6
CONTINUOUS
 62
     1
100
AcDbLine
 10
158.9294
 20
-2.1868
 30
0.0
 11
159.7502
 21
0.0685
 31
0.0
  0
LINE
  5
3B9
100
AcDbEntity
  8
1
  6
CONTINUOUS
 62
     1
100
AcDbLine
 10
158.9294
 20
-2.1868
 30
0.0
 11
158.1086
 21
0.0685
 31
0.0
  0
LINE
  5
3BA
100
AcDbEntity
  8
1
  6
CONTINUOUS
 62
     1
100
AcDbLine
 10
-239.1794
 20
-18.0548
 30
0.0
 11
-236.9241
 21
-17.234
 31
0.0
  0
LINE
  5
3BB
100
AcDbEntity
  8
1
  6
CONTINUOUS
 62
     1
100
AcDbLine
 10
-239.1794
 20
-18.0548
 30
0.0
 11
-236.9241
 21
-18.8756
 31
0.0
  0
LINE
  5
3BC
100
AcDbEntity
  8
1
  6
CONTINUOUS
 62
     1
100
AcDbLine
 10
-34.0313
 20
-18.3621
 30
0.0
 11
-31.776
 21
-17.5413
 31
0.0
  0
LINE
  5
3BD
100
AcDbEntity
  8
1
  6
CONTINUOUS
 62
     1
100
AcDbLine
 10
-34.0313
 20
-18.3621
 30
0.0
 11
-31.776
 21
-19.1829
 31
0.0
  0
LINE
  5
3BE
100
AcDbEntity
  8
1
  6
CONTINUOUS
 62
     1
100
AcDbLine
 10
-33.8163
 20
-39.5552
 30
0.0
 11
-31.561
 21
-38.7344
 31
0.0
  0
LINE
  5
3BF
100
AcDbEntity
  8
1
  6
CONTINUOUS
 62
     1
100
AcDbLine
 10
-33.8163
 20
-39.5552
 30
0.0
 11
-31.561
 21
-40.376
 31
0.0
  0
LINE
  5
3C0
100
AcDbEntity
  8
1
  6
CONTINUOUS
 62
     1
100
AcDbLine
 10
-61.8028
 20
-18.6224
 30
0.0
 11
-64.0581
 21
-17.8016
 31
0.0
  0
LINE
  5
3C1
100
AcDbEntity
  8
1
  6
CONTINUOUS
 62
     1
100
AcDbLine
 10
-61.8028
 20
-18.6224
 30
0.0
 11
-64.0581
 21
-19.4432
 31
0.0
  0
LINE
  5
3C2
100
AcDbEntity
  8
1
  6
CONTINUOUS
 62
     1
100
AcDbLine
 10
-61.9136
 20
-39.9196
 30
0.0
 11
-64.1689
 21
-39.0988
 31
0.0
  0
LINE
  5
3C3
100
AcDbEntity
  8
1
  6
CONTINUOUS
 62
     1
100
AcDbLine
 10
-61.9136
 20
-39.9196
 30
0.0
 11
-64.1689
 21
-40.7404
 31
0.0
  0
TEXT
  5
3C4
100
AcDbEntity
  8
1
  6
CONTINUOUS
 62
     2
100
AcDbText
 10
311.5006
 20
337.7489
 30
0.0
 40
2.64
  1
GENERAL NOTES
  7
MONOTXT
 72
     4
 11
327.7875
 21
339.0689
 31
0.0
210
0.0
220
0.0
230
1.0
100
AcDbText
  0
LINE
  5
3C5
100
AcDbEntity
  8
1
  6
CONTINUOUS
 62
     2
100
AcDbLine
 10
310.4897
 20
336.2955
 30
0.0
 11
345.5601
 21
336.2955
 31
0.0
  0
LINE
  5
3C6
100
AcDbEntity
  8
1
  6
CONTINUOUS
 62
     2
100
AcDbLine
 10
251.4664
 20
13.3291
 30
0.0
 11
253.8664
 21
9.1722
 31
0.0
  0
LINE
  5
3C7
100
AcDbEntity
  8
1
  6
CONTINUOUS
 62
     2
100
AcDbLine
 10
251.4664
 20
13.3291
 30
0.0
 11
249.0664
 21
9.1722
 31
0.0
  0
LINE
  5
3C8
100
AcDbEntity
  8
1
  6
CONTINUOUS
 62
     2
100
AcDbLine
 10
249.0664
 20
9.1722
 30
0.0
 11
253.8664
 21
9.1722
 31
0.0
  0
LINE
  5
3C9
100
AcDbEntity
  8
1
  6
CONTINUOUS
 62
     2
100
AcDbLine
 10
249.0664
 20
15.157
 30
0.0
 11
253.8664
 21
15.157
 31
0.0
  0
LINE
  5
3CA
100
AcDbEntity
  8
1
  6
CONTINUOUS
 62
     2
100
AcDbLine
 10
251.4664
 20
19.3139
 30
0.0
 11
249.0664
 21
15.157
 31
0.0
  0
LINE
  5
3CB
100
AcDbEntity
  8
1
  6
CONTINUOUS
 62
     2
100
AcDbLine
 10
251.4664
 20
19.3139
 30
0.0
 11
253.8664
 21
15.157
 31
0.0
  0
TEXT
  5
3CC
100
AcDbEntity
  8
1
  6
CONTINUOUS
 62
     2
100
AcDbText
 10
251.0756
 20
15.547
 30
0.0
 40
2.4
  1
1
  7
MONOTXT
 72
     4
 11
251.359
 21
16.747
 31
0.0
210
0.0
220
0.0
230
1.0
100
AcDbText
  0
TEXT
  5
3CD
100
AcDbEntity
  8
1
  6
CONTINUOUS
 62
     2
100
AcDbText
 10
250.6967
 20
9.5066
 30
0.0
 40
2.4
  1
2
  7
MONOTXT
 72
     4
 11
251.4998
 21
10.7066
 31
0.0
210
0.0
220
0.0
230
1.0
100
AcDbText
  0
TEXT
  5
3CE
100
AcDbEntity
  8
1
  6
CONTINUOUS
 62
     2
100
AcDbText
 10
255.8086
 20
16.1379
 30
0.0
 40
2.4
  1
WHOLE SHEET
  7
MONOTXT
 72
     4
 11
268.6306
 21
17.3379
 31
0.0
210
0.0
220
0.0
230
1.0
100
AcDbText
  0
TEXT
  5
3CF
100
AcDbEntity
  8
1
  6
CONTINUOUS
 62
     2
100
AcDbText
 10
256.2573
 20
10.1631
 30
0.0
 40
2.4
  1
LABELED UPPER LEFT & DELETED CLEARANCE INTERVALS
  7
MONOTXT
 72
     4
 11
310.8997
 21
11.3631
 31
0.0
210
0.0
220
0.0
230
1.0
100
AcDbText
  0
TEXT
  5
3D0
100
AcDbEntity
  8
1
  6
CONTINUOUS
 62
     7
100
AcDbText
 10
261.6615
 20
-73.553
 30
0.0
 40
2.3973
  1
12/03/76
  7
MONOTXT
210
0.0
220
0.0
230
1.0
100
AcDbText
  0
LINE
  5
3D1
100
AcDbEntity
  8
1
  6
CONTINUOUS
 62
     2
100
AcDbLine
 10
253.1868
 20
-73.9962
 30
0.0
 11
257.9868
 21
-73.9962
 31
0.0
  0
LINE
  5
3D2
100
AcDbEntity
  8
1
  6
CONTINUOUS
 62
     2
100
AcDbLine
 10
255.5868
 20
-69.8393
 30
0.0
 11
253.1868
 21
-73.9962
 31
0.0
  0
LINE
  5
3D3
100
AcDbEntity
  8
1
  6
CONTINUOUS
 62
     2
100
AcDbLine
 10
255.5868
 20
-69.8393
 30
0.0
 11
257.9868
 21
-73.9962
 31
0.0
  0
LINE
  5
3D4
100
AcDbEntity
  8
1
  6
CONTINUOUS
 62
     2
100
AcDbLine
 10
253.1852
 20
-79.6055
 30
0.0
 11
257.9852
 21
-79.6055
 31
0.0
  0
LINE
  5
3D5
100
AcDbEntity
  8
1
  6
CONTINUOUS
 62
     2
100
AcDbLine
 10
255.5852
 20
-75.4486
 30
0.0
 11
253.1852
 21
-79.6055
 31
0.0
  0
LINE
  5
3D6
100
AcDbEntity
  8
1
  6
CONTINUOUS
 62
     2
100
AcDbLine
 10
255.5852
 20
-75.4486
 30
0.0
 11
257.9852
 21
-79.6055
 31
0.0
  0
TEXT
  5
3D7
100
AcDbEntity
  8
1
  6
CONTINUOUS
 62
     7
100
AcDbText
 10
261.5852
 20
-78.7883
 30
0.0
 40
2.3973
  1
12/10/84
  7
MONOTXT
210
0.0
220
0.0
230
1.0
100
AcDbText
  0
TEXT
  5
3D8
100
AcDbEntity
  8
1
  6
CONTINUOUS
 62
     2
100
AcDbText
 10
255.2148
 20
-73.4678
 30
0.0
 40
2.4
  1
1
  7
MONOTXT
 72
     4
 11
255.4982
 21
-72.2678
 31
0.0
210
0.0
220
0.0
230
1.0
100
AcDbText
  0
TEXT
  5
3D9
100
AcDbEntity
  8
1
  6
CONTINUOUS
 62
     2
100
AcDbText
 10
254.7778
 20
-79.2267
 30
0.0
 40
2.4
  1
2
  7
MONOTXT
 72
     4
 11
255.5809
 21
-78.0267
 31
0.0
210
0.0
220
0.0
230
1.0
100
AcDbText
  0
LINE
  5
3DA
100
AcDbEntity
  8
1
  6
CONTINUOUS
 62
     2
100
AcDbLine
 10
249.0663
 20
3.3665
 30
0.0
 11
253.8663
 21
3.3665
 31
0.0
  0
LINE
  5
3DB
100
AcDbEntity
  8
1
  6
CONTINUOUS
 62
     2
100
AcDbLine
 10
251.4663
 20
7.5234
 30
0.0
 11
249.0663
 21
3.3665
 31
0.0
  0
LINE
  5
3DC
100
AcDbEntity
  8
1
  6
CONTINUOUS
 62
     2
100
AcDbLine
 10
251.4663
 20
7.5234
 30
0.0
 11
253.8663
 21
3.3665
 31
0.0
  0
TEXT
  5
3DD
100
AcDbEntity
  8
1
  6
CONTINUOUS
 62
     2
100
AcDbText
 10
250.5653
 20
3.7565
 30
0.0
 40
2.4
  1
3
  7
MONOTXT
 72
     4
 11
251.3684
 21
4.9565
 31
0.0
210
0.0
220
0.0
230
1.0
100
AcDbText
  0
TEXT
  5
3DE
100
AcDbEntity
  8
1
  6
CONTINUOUS
 62
     2
100
AcDbText
 10
255.931
 20
4.2392
 30
0.0
 40
2.4
  1
ADDED DETAIL "A" AND NOTE 3.
  7
MONOTXT
 72
     4
 11
286.1388
 21
5.4392
 31
0.0
210
0.0
220
0.0
230
1.0
100
AcDbText
  0
LINE
  5
3DF
100
AcDbEntity
  8
1
  6
CONTINUOUS
 62
     2
100
AcDbLine
 10
253.2586
 20
-85.5169
 30
0.0
 11
258.0586
 21
-85.5169
 31
0.0
  0
LINE
  5
3E0
100
AcDbEntity
  8
1
  6
CONTINUOUS
 62
     2
100
AcDbLine
 10
255.6586
 20
-81.36
 30
0.0
 11
253.2586
 21
-85.5169
 31
0.0
  0
LINE
  5
3E1
100
AcDbEntity
  8
1
  6
CONTINUOUS
 62
     2
100
AcDbLine
 10
255.6586
 20
-81.36
 30
0.0
 11
258.0586
 21
-85.5169
 31
0.0
  0
TEXT
  5
3E2
100
AcDbEntity
  8
1
  6
CONTINUOUS
 62
     2
100
AcDbText
 10
254.8512
 20
-85.1381
 30
0.0
 40
2.4
  1
3
  7
MONOTXT
 72
     4
 11
255.6543
 21
-83.9381
 31
0.0
210
0.0
220
0.0
230
1.0
100
AcDbText
  0
TEXT
  5
3E3
100
AcDbEntity
  8
1
  6
CONTINUOUS
 62
     7
100
AcDbText
 10
261.8479
 20
-84.605
 30
0.0
 40
2.3973
  1
12/23/93
  7
MONOTXT
210
0.0
220
0.0
230
1.0
100
AcDbText
  0
TEXT
  5
3E4
100
AcDbEntity
  8
1
  6
CONTINUOUS
 62
     7
100
AcDbText
 10
303.1603
 20
-45.1234
 30
0.0
 40
8.3912
  1
SIGNAL FACES AND
  7
TXT
 72
     1
 11
359.9471
 21
-36.7322
 31
0.0
210
0.0
220
0.0
230
1.0
100
AcDbText
 73
     3
  0
TEXT
  5
3E5
100
AcDbEntity
  8
1
  6
CONTINUOUS
 62
     7
100
AcDbText
 10
293.2421
 20
-55.9146
 30
0.0
 40
8.3912
  1
MOUNTING HARDWARE
  7
TXT
 72
     1
 11
359.947
 21
-47.5234
 31
0.0
210
0.0
220
0.0
230
1.0
100
AcDbText
 73
     3
  0
TEXT
  5
3E6
100
AcDbEntity
  8
1
  6
CONTINUOUS
 62
     7
100
AcDbText
 10
-198.5244
 20
371.4574
 30
0.0
 40
3.0
  1
SEE DETAIL "A"
  7
MONOTXT
 72
     4
 11
-180.5598
 21
372.9574
 31
0.0
210
0.0
220
0.0
230
1.0
100
AcDbText
  0
LINE
  5
3E7
100
AcDbEntity
  8
1
  6
CONTINUOUS
 62
     7
100
AcDbLine
 10
-204.6112
 20
372.79
 30
0.0
 11
-199.6203
 21
372.79
 31
0.0
  0
LINE
  5
3E8
100
AcDbEntity
  8
1
  6
CONTINUOUS
 62
     7
100
AcDbLine
 10
-161.4292
 20
372.79
 30
0.0
 11
-156.4384
 21
372.79
 31
0.0
  0
LINE
  5
3E9
100
AcDbEntity
  8
1
  6
CONTINUOUS
 62
     7
100
AcDbLine
 10
-204.6112
 20
372.79
 30
0.0
 11
-222.8387
 21
361.5026
 31
0.0
  0
LINE
  5
3EA
100
AcDbEntity
  8
1
  6
CONTINUOUS
 62
     7
100
AcDbLine
 10
-156.4384
 20
372.79
 30
0.0
 11
-135.1729
 21
361.7197
 31
0.0
  0
TEXT
  5
3EB
100
AcDbEntity
  8
1
  6
CONTINUOUS
 62
     7
100
AcDbText
 10
-197.4395
 20
233.404
 30
0.0
 40
3.0
  1
SEE DETAIL "A"
  7
MONOTXT
 72
     4
 11
-179.4749
 21
234.904
 31
0.0
210
0.0
220
0.0
230
1.0
100
AcDbText
  0
LINE
  5
3EC
100
AcDbEntity
  8
1
  6
CONTINUOUS
 62
     7
100
AcDbLine
 10
-203.5263
 20
234.7366
 30
0.0
 11
-198.5354
 21
234.7366
 31
0.0
  0
LINE
  5
3ED
100
AcDbEntity
  8
1
  6
CONTINUOUS
 62
     7
100
AcDbLine
 10
-160.3443
 20
234.7366
 30
0.0
 11
-155.3535
 21
234.7366
 31
0.0
  0
LINE
  5
3EE
100
AcDbEntity
  8
1
  6
CONTINUOUS
 62
     7
100
AcDbLine
 10
-203.5263
 20
234.7366
 30
0.0
 11
-217.6308
 21
218.4567
 31
0.0
  0
LINE
  5
3EF
100
AcDbEntity
  8
1
  6
CONTINUOUS
 62
     7
100
AcDbLine
 10
-155.3535
 20
234.7366
 30
0.0
 11
-141.6827
 21
218.0226
 31
0.0
  0
LINE
  5
3F0
100
AcDbEntity
  8
1
  6
HIDDEN
 62
     7
100
AcDbLine
 10
3.2696
 20
350.6927
 30
0.0
 11
3.2696
 21
341.0927
 31
0.0
  0
LINE
  5
3F1
100
AcDbEntity
  8
1
  6
HIDDEN
 62
     7
100
AcDbLine
 10
60.2696
 20
350.6927
 30
0.0
 11
60.2696
 21
341.0927
 31
0.0
  0
LINE
  5
3F2
100
AcDbEntity
  8
1
  6
CONTINUOUS
 62
     7
100
AcDbLine
 10
19.7696
 20
339.8927
 30
0.0
 11
43.7696
 21
339.8927
 31
0.0
  0
LINE
  5
3F3
100
AcDbEntity
  8
1
  6
HIDDEN
 62
     7
100
AcDbLine
 10
23.0696
 20
350.6927
 30
0.0
 11
23.0696
 21
341.0927
 31
0.0
  0
LINE
  5
3F4
100
AcDbEntity
  8
1
  6
HIDDEN
 62
     7
100
AcDbLine
 10
40.4696
 20
350.6927
 30
0.0
 11
40.4696
 21
341.0927
 31
0.0
  0
LINE
  5
3F5
100
AcDbEntity
  8
1
  6
CONTINUOUS
 62
     7
100
AcDbLine
 10
19.7696
 20
351.8927
 30
0.0
 11
43.7696
 21
351.8927
 31
0.0
  0
LINE
  5
3F6
100
AcDbEntity
  8
1
  6
CONTINUOUS
 62
     7
100
AcDbLine
 10
19.7696
 20
353.0927
 30
0.0
 11
19.7696
 21
339.8927
 31
0.0
  0
LINE
  5
3F7
100
AcDbEntity
  8
1
  6
CONTINUOUS
 62
     7
100
AcDbLine
 10
43.7696
 20
353.0927
 30
0.0
 11
43.7696
 21
339.8927
 31
0.0
  0
LINE
  5
3F8
100
AcDbEntity
  8
1
  6
CONTINUOUS
 62
     7
100
AcDbLine
 10
24.8696
 20
354.2927
 30
0.0
 11
38.6696
 21
354.2927
 31
0.0
  0
LINE
  5
3F9
100
AcDbEntity
  8
1
  6
CONTINUOUS
 62
     7
100
AcDbLine
 10
24.8696
 20
354.2927
 30
0.0
 11
24.8696
 21
351.8927
 31
0.0
  0
LINE
  5
3FA
100
AcDbEntity
  8
1
  6
CONTINUOUS
 62
     7
100
AcDbLine
 10
38.6696
 20
354.2927
 30
0.0
 11
38.6696
 21
351.8927
 31
0.0
  0
LINE
  5
3FB
100
AcDbEntity
  8
1
  6
CONTINUOUS
 62
     7
100
AcDbLine
 10
19.7696
 20
353.0927
 30
0.0
 11
24.8696
 21
353.0927
 31
0.0
  0
LINE
  5
3FC
100
AcDbEntity
  8
1
  6
CONTINUOUS
 62
     7
100
AcDbLine
 10
38.6696
 20
353.0927
 30
0.0
 11
43.7696
 21
353.0927
 31
0.0
  0
ARC
  5
3FD
100
AcDbEntity
  8
1
  6
CONTINUOUS
 62
     7
100
AcDbCircle
 10
9.685509
 20
345.8927
 30
0.0
 40
11.734091
210
0.0
220
0.0
230
1.0
100
AcDbArc
 50
329.247497
 51
30.752503
  0
ARC
  5
3FE
100
AcDbEntity
  8
1
  6
CONTINUOUS
 62
     7
100
AcDbCircle
 10
53.853691
 20
345.8927
 30
0.0
 40
11.734091
210
0.0
220
0.0
230
1.0
100
AcDbArc
 50
149.247497
 51
210.752503
  0
LINE
  5
3FF
100
AcDbEntity
  8
1
  6
HIDDEN
 62
     7
100
AcDbLine
 10
19.7696
 20
350.6927
 30
0.0
 11
23.0696
 21
350.6927
 31
0.0
  0
LINE
  5
400
100
AcDbEntity
  8
1
  6
HIDDEN
 62
     7
100
AcDbLine
 10
19.7696
 20
341.0927
 30
0.0
 11
23.0696
 21
341.0927
 31
0.0
  0
LINE
  5
401
100
AcDbEntity
  8
1
  6
HIDDEN
 62
     7
100
AcDbLine
 10
40.4696
 20
350.6927
 30
0.0
 11
43.7696
 21
350.6927
 31
0.0
  0
LINE
  5
402
100
AcDbEntity
  8
1
  6
HIDDEN
 62
     7
100
AcDbLine
 10
40.4696
 20
341.0927
 30
0.0
 11
43.7696
 21
341.0927
 31
0.0
  0
LINE
  5
403
100
AcDbEntity
  8
1
  6
CONTINUOUS
 62
     7
100
AcDbLine
 10
26.0696
 20
354.2927
 30
0.0
 11
26.0696
 21
358.4927
 31
0.0
  0
LINE
  5
404
100
AcDbEntity
  8
1
  6
CONTINUOUS
 62
     7
100
AcDbLine
 10
37.4696
 20
354.2927
 30
0.0
 11
37.4696
 21
358.4927
 31
0.0
  0
LINE
  5
405
100
AcDbEntity
  8
1
  6
HIDDEN
 62
     7
100
AcDbLine
 10
26.0696
 20
351.2927
 30
0.0
 11
37.4696
 21
351.2927
 31
0.0
  0
LINE
  5
406
100
AcDbEntity
  8
1
  6
HIDDEN
 62
     7
100
AcDbLine
 10
26.0696
 20
354.2927
 30
0.0
 11
26.0696
 21
351.2927
 31
0.0
  0
LINE
  5
407
100
AcDbEntity
  8
1
  6
HIDDEN
 62
     7
100
AcDbLine
 10
37.4696
 20
351.2927
 30
0.0
 11
37.4696
 21
354.2927
 31
0.0
  0
ARC
  5
408
100
AcDbEntity
  8
1
  6
CONTINUOUS
 62
     7
100
AcDbCircle
 10
28.9196
 20
356.202972
 30
0.0
 40
3.655866
210
0.0
220
0.0
230
1.0
100
AcDbArc
 50
38.778864
 51
141.221136
  0
ARC
  5
409
100
AcDbEntity
  8
1
  6
CONTINUOUS
 62
     7
100
AcDbCircle
 10
34.6196
 20
356.202972
 30
0.0
 40
3.655866
210
0.0
220
0.0
230
1.0
100
AcDbArc
 50
38.778864
 51
141.221136
  0
ARC
  5
40A
100
AcDbEntity
  8
1
  6
CONTINUOUS
 62
     7
100
AcDbCircle
 10
34.6196
 20
360.782428
 30
0.0
 40
3.655866
210
0.0
220
0.0
230
1.0
100
AcDbArc
 50
218.778864
 51
321.221136
  0
LINE
  5
40B
100
AcDbEntity
  8
1
  6
CONTINUOUS
 62
     7
100
AcDbLine
 10
6.5696
 20
351.2927
 30
0.0
 11
6.5696
 21
340.4927
 31
0.0
  0
LINE
  5
40C
100
AcDbEntity
  8
1
  6
CONTINUOUS
 62
     7
100
AcDbLine
 10
56.9696
 20
351.2927
 30
0.0
 11
56.9696
 21
340.4927
 31
0.0
  0
LINE
  5
40D
100
AcDbEntity
  8
1
  6
HIDDEN
 62
     7
100
AcDbLine
 10
3.2696
 20
350.6927
 30
0.0
 11
6.5696
 21
350.6927
 31
0.0
  0
LINE
  5
40E
100
AcDbEntity
  8
1
  6
CONTINUOUS
 62
     7
100
AcDbLine
 10
6.5696
 20
350.6927
 30
0.0
 11
19.7696
 21
350.6927
 31
0.0
  0
LINE
  5
40F
100
AcDbEntity
  8
1
  6
HIDDEN
 62
     7
100
AcDbLine
 10
3.2696
 20
341.0927
 30
0.0
 11
6.5696
 21
341.0927
 31
0.0
  0
LINE
  5
410
100
AcDbEntity
  8
1
  6
CONTINUOUS
 62
     7
100
AcDbLine
 10
6.5696
 20
341.0927
 30
0.0
 11
19.7696
 21
341.0927
 31
0.0
  0
LINE
  5
411
100
AcDbEntity
  8
1
  6
CONTINUOUS
 62
     7
100
AcDbLine
 10
43.7696
 20
350.6927
 30
0.0
 11
56.9696
 21
350.6927
 31
0.0
  0
LINE
  5
412
100
AcDbEntity
  8
1
  6
HIDDEN
 62
     7
100
AcDbLine
 10
56.9696
 20
350.6927
 30
0.0
 11
60.2696
 21
350.6927
 31
0.0
  0
LINE
  5
413
100
AcDbEntity
  8
1
  6
CONTINUOUS
 62
     7
100
AcDbLine
 10
43.7696
 20
341.0927
 30
0.0
 11
56.9696
 21
341.0927
 31
0.0
  0
LINE
  5
414
100
AcDbEntity
  8
1
  6
HIDDEN
 62
     7
100
AcDbLine
 10
56.9696
 20
341.0927
 30
0.0
 11
60.2696
 21
341.0927
 31
0.0
  0
LINE
  5
415
100
AcDbEntity
  8
1
  6
CONTINUOUS
 62
     7
100
AcDbLine
 10
6.5696
 20
351.2927
 30
0.0
 11
1.7696
 21
351.2927
 31
0.0
  0
LINE
  5
416
100
AcDbEntity
  8
1
  6
CONTINUOUS
 62
     7
100
AcDbLine
 10
6.5696
 20
340.4927
 30
0.0
 11
2.3696
 21
340.4927
 31
0.0
  0
LINE
  5
417
100
AcDbEntity
  8
1
  6
CONTINUOUS
 62
     7
100
AcDbLine
 10
-1.2304
 20
336.8927
 30
0.0
 11
-1.2304
 21
334.4927
 31
0.0
  0
LINE
  5
418
100
AcDbEntity
  8
1
  6
CONTINUOUS
 62
     7
100
AcDbLine
 10
-1.2304
 20
334.4927
 30
0.0
 11
-12.0304
 21
334.4927
 31
0.0
  0
ARC
  5
419
100
AcDbEntity
  8
1
  6
CONTINUOUS
 62
     7
100
AcDbCircle
 10
2.293787
 20
336.794261
 30
0.0
 40
14.507912
210
0.0
220
0.0
230
1.0
100
AcDbArc
 50
92.070608
 51
189.128067
  0
ARC
  5
41A
100
AcDbEntity
  8
1
  6
CONTINUOUS
 62
     7
100
AcDbCircle
 10
2.319147
 20
336.943153
 30
0.0
 40
3.549905
210
0.0
220
0.0
230
1.0
100
AcDbArc
 50
89.185653
 51
180.81435
  0
LINE
  5
41B
100
AcDbEntity
  8
1
  6
HIDDEN
 62
     7
100
AcDbLine
 10
-1.8304
 20
337.7927
 30
0.0
 11
-11.4304
 21
337.7927
 31
0.0
  0
LINE
  5
41C
100
AcDbEntity
  8
1
  6
HIDDEN
 62
     7
100
AcDbLine
 10
-1.8304
 20
337.7927
 30
0.0
 11
-1.8304
 21
334.4927
 31
0.0
  0
LINE
  5
41D
100
AcDbEntity
  8
1
  6
HIDDEN
 62
     7
100
AcDbLine
 10
-11.4304
 20
337.7927
 30
0.0
 11
-11.4304
 21
334.4927
 31
0.0
  0
LINE
  5
41E
100
AcDbEntity
  8
1
  6
CONTINUOUS
 62
     7
100
AcDbLine
 10
-11.4304
 20
334.4927
 30
0.0
 11
-11.4304
 21
330.2927
 31
0.0
  0
LINE
  5
41F
100
AcDbEntity
  8
1
  6
CONTINUOUS
 62
     7
100
AcDbLine
 10
-1.8304
 20
334.4927
 30
0.0
 11
-1.8304
 21
330.2927
 31
0.0
  0
ARC
  5
420
100
AcDbEntity
  8
1
  6
CONTINUOUS
 62
     7
100
AcDbCircle
 10
-4.2304
 20
331.672704
 30
0.0
 40
2.768467
210
0.0
220
0.0
230
1.0
100
AcDbArc
 50
209.898972
 51
330.101028
  0
ARC
  5
421
100
AcDbEntity
  8
1
  6
CONTINUOUS
 62
     7
100
AcDbCircle
 10
-9.0304
 20
331.672704
 30
0.0
 40
2.768467
210
0.0
220
0.0
230
1.0
100
AcDbArc
 50
209.898972
 51
330.101028
  0
ARC
  5
422
100
AcDbEntity
  8
1
  6
CONTINUOUS
 62
     7
100
AcDbCircle
 10
-9.0304
 20
328.912696
 30
0.0
 40
2.768467
210
0.0
220
0.0
230
1.0
100
AcDbArc
 50
29.898972
 51
150.101028
  0
ARC
  5
423
100
AcDbEntity
  8
1
  6
CONTINUOUS
 62
     7
100
AcDbCircle
 10
61.245413
 20
336.794261
 30
0.0
 40
14.507912
210
0.0
220
0.0
230
1.0
100
AcDbArc
 50
350.871933
 51
87.929392
  0
LINE
  5
424
100
AcDbEntity
  8
1
  6
CONTINUOUS
 62
     7
100
AcDbLine
 10
56.9696
 20
351.2927
 30
0.0
 11
61.7696
 21
351.2927
 31
0.0
  0
LINE
  5
425
100
AcDbEntity
  8
1
  6
CONTINUOUS
 62
     7
100
AcDbLine
 10
56.9696
 20
340.4927
 30
0.0
 11
61.1696
 21
340.4927
 31
0.0
  0
LINE
  5
426
100
AcDbEntity
  8
1
  6
CONTINUOUS
 62
     7
100
AcDbLine
 10
64.7696
 20
336.8927
 30
0.0
 11
64.7696
 21
334.4927
 31
0.0
  0
LINE
  5
427
100
AcDbEntity
  8
1
  6
CONTINUOUS
 62
     7
100
AcDbLine
 10
64.7696
 20
334.4927
 30
0.0
 11
75.5696
 21
334.4927
 31
0.0
  0
ARC
  5
428
100
AcDbEntity
  8
1
  6
CONTINUOUS
 62
     7
100
AcDbCircle
 10
61.220053
 20
336.943153
 30
0.0
 40
3.549905
210
0.0
220
0.0
230
1.0
100
AcDbArc
 50
359.18565
 51
90.814347
  0
LINE
  5
429
100
AcDbEntity
  8
1
  6
HIDDEN
 62
     7
100
AcDbLine
 10
65.3696
 20
337.7927
 30
0.0
 11
74.9696
 21
337.7927
 31
0.0
  0
LINE
  5
42A
100
AcDbEntity
  8
1
  6
HIDDEN
 62
     7
100
AcDbLine
 10
65.3696
 20
337.7927
 30
0.0
 11
65.3696
 21
334.4927
 31
0.0
  0
LINE
  5
42B
100
AcDbEntity
  8
1
  6
HIDDEN
 62
     7
100
AcDbLine
 10
74.9696
 20
337.7927
 30
0.0
 11
74.9696
 21
334.4927
 31
0.0
  0
LINE
  5
42C
100
AcDbEntity
  8
1
  6
CONTINUOUS
 62
     7
100
AcDbLine
 10
74.9696
 20
334.4927
 30
0.0
 11
74.9696
 21
330.2927
 31
0.0
  0
LINE
  5
42D
100
AcDbEntity
  8
1
  6
CONTINUOUS
 62
     7
100
AcDbLine
 10
65.3696
 20
334.4927
 30
0.0
 11
65.3696
 21
330.2927
 31
0.0
  0
ARC
  5
42E
100
AcDbEntity
  8
1
  6
CONTINUOUS
 62
     7
100
AcDbCircle
 10
67.7696
 20
331.672704
 30
0.0
 40
2.768467
210
0.0
220
0.0
230
1.0
100
AcDbArc
 50
209.898972
 51
330.101028
  0
ARC
  5
42F
100
AcDbEntity
  8
1
  6
CONTINUOUS
 62
     7
100
AcDbCircle
 10
72.5696
 20
331.672704
 30
0.0
 40
2.768467
210
0.0
220
0.0
230
1.0
100
AcDbArc
 50
209.898972
 51
330.101028
  0
ARC
  5
430
100
AcDbEntity
  8
1
  6
CONTINUOUS
 62
     7
100
AcDbCircle
 10
72.5696
 20
328.912696
 30
0.0
 40
2.768467
210
0.0
220
0.0
230
1.0
100
AcDbArc
 50
29.898972
 51
150.101028
  0
CIRCLE
  5
431
100
AcDbEntity
  8
1
  6
CONTINUOUS
 62
     7
100
AcDbCircle
 10
31.7696
 20
345.5927
 30
0.0
 40
5.58
210
0.0
220
0.0
230
1.0
  0
CIRCLE
  5
432
100
AcDbEntity
  8
1
  6
CONTINUOUS
 62
     7
100
AcDbCircle
 10
31.7696
 20
345.5927
 30
0.0
 40
4.38
210
0.0
220
0.0
230
1.0
  0
LINE
  5
433
100
AcDbEntity
  8
1
  6
CONTINUOUS
 62
     7
100
AcDbLine
 10
18.6981
 20
292.7447
 30
0.0
 11
46.2981
 21
292.7447
 31
0.0
  0
LINE
  5
434
100
AcDbEntity
  8
1
  6
CONTINUOUS
 62
     7
100
AcDbLine
 10
18.6981
 20
292.7447
 30
0.0
 11
18.6981
 21
287.9447
 31
0.0
  0
LINE
  5
435
100
AcDbEntity
  8
1
  6
CONTINUOUS
 62
     7
100
AcDbLine
 10
46.2981
 20
292.7447
 30
0.0
 11
46.2981
 21
287.9447
 31
0.0
  0
LINE
  5
436
100
AcDbEntity
  8
1
  6
CONTINUOUS
 62
     7
100
AcDbLine
 10
7.8981
 20
287.9447
 30
0.0
 11
57.0981
 21
287.9447
 31
0.0
  0
LINE
  5
437
100
AcDbEntity
  8
1
  6
CONTINUOUS
 62
     7
100
AcDbLine
 10
18.6981
 20
290.3447
 30
0.0
 11
7.8981
 21
290.3447
 31
0.0
  0
LINE
  5
438
100
AcDbEntity
  8
1
  6
CONTINUOUS
 62
     7
100
AcDbLine
 10
46.2981
 20
290.3447
 30
0.0
 11
57.0981
 21
290.3447
 31
0.0
  0
LINE
  5
439
100
AcDbEntity
  8
1
  6
CONTINUOUS
 62
     7
100
AcDbLine
 10
7.8981
 20
290.3447
 30
0.0
 11
7.8981
 21
263.3447
 31
0.0
  0
LINE
  5
43A
100
AcDbEntity
  8
1
  6
CONTINUOUS
 62
     7
100
AcDbLine
 10
57.0981
 20
290.3447
 30
0.0
 11
57.0981
 21
263.3447
 31
0.0
  0
LINE
  5
43B
100
AcDbEntity
  8
1
  6
CONTINUOUS
 62
     7
100
AcDbLine
 10
7.8981
 20
263.3447
 30
0.0
 11
57.0981
 21
263.3447
 31
0.0
  0
LINE
  5
43C
100
AcDbEntity
  8
1
  6
CONTINUOUS
 62
     7
100
AcDbLine
 10
9.0981
 20
262.7447
 30
0.0
 11
55.8981
 21
262.7447
 31
0.0
  0
LINE
  5
43D
100
AcDbEntity
  8
1
  6
CONTINUOUS
 62
     7
100
AcDbLine
 10
9.0981
 20
262.7447
 30
0.0
 11
9.0981
 21
263.3447
 31
0.0
  0
LINE
  5
43E
100
AcDbEntity
  8
1
  6
CONTINUOUS
 62
     7
100
AcDbLine
 10
55.8981
 20
262.7447
 30
0.0
 11
55.8981
 21
263.3447
 31
0.0
  0
LINE
  5
43F
100
AcDbEntity
  8
1
  6
HIDDEN
 62
     7
100
AcDbLine
 10
15.0981
 20
287.9447
 30
0.0
 11
15.0981
 21
263.3447
 31
0.0
  0
LINE
  5
440
100
AcDbEntity
  8
1
  6
HIDDEN
 62
     7
100
AcDbLine
 10
49.8981
 20
287.9447
 30
0.0
 11
49.8981
 21
263.3447
 31
0.0
  0
LINE
  5
441
100
AcDbEntity
  8
1
  6
HIDDEN
 62
     7
100
AcDbLine
 10
7.8981
 20
285.5447
 30
0.0
 11
15.0981
 21
285.5447
 31
0.0
  0
LINE
  5
442
100
AcDbEntity
  8
1
  6
HIDDEN
 62
     7
100
AcDbLine
 10
49.8981
 20
285.5447
 30
0.0
 11
57.0981
 21
285.5447
 31
0.0
  0
LINE
  5
443
100
AcDbEntity
  8
1
  6
HIDDEN
 62
     7
100
AcDbLine
 10
7.8981
 20
265.7447
 30
0.0
 11
15.0981
 21
265.7447
 31
0.0
  0
LINE
  5
444
100
AcDbEntity
  8
1
  6
HIDDEN
 62
     7
100
AcDbLine
 10
49.8981
 20
265.7447
 30
0.0
 11
57.0981
 21
265.7447
 31
0.0
  0
LINE
  5
445
100
AcDbEntity
  8
1
  6
CONTINUOUS
 62
     7
100
AcDbLine
 10
7.8981
 20
285.5447
 30
0.0
 11
-0.5019
 21
285.5447
 31
0.0
  0
LINE
  5
446
100
AcDbEntity
  8
1
  6
CONTINUOUS
 62
     7
100
AcDbLine
 10
7.8981
 20
265.7447
 30
0.0
 11
-0.5019
 21
265.7447
 31
0.0
  0
LINE
  5
447
100
AcDbEntity
  8
1
  6
CONTINUOUS
 62
     7
100
AcDbLine
 10
65.4981
 20
285.5447
 30
0.0
 11
57.0981
 21
285.5447
 31
0.0
  0
LINE
  5
448
100
AcDbEntity
  8
1
  6
CONTINUOUS
 62
     7
100
AcDbLine
 10
65.4981
 20
265.7447
 30
0.0
 11
57.0981
 21
265.7447
 31
0.0
  0
ARC
  5
449
100
AcDbEntity
  8
1
  6
CONTINUOUS
 62
     7
100
AcDbCircle
 10
1.848945
 20
280.5947
 30
0.0
 40
5.47987
210
0.0
220
0.0
230
1.0
100
AcDbArc
 50
115.403892
 51
244.596108
  0
ARC
  5
44A
100
AcDbEntity
  8
1
  6
CONTINUOUS
 62
     7
100
AcDbCircle
 10
1.848945
 20
270.6947
 30
0.0
 40
5.47987
210
0.0
220
0.0
230
1.0
100
AcDbArc
 50
115.403892
 51
244.596108
  0
ARC
  5
44B
100
AcDbEntity
  8
1
  6
CONTINUOUS
 62
     7
100
AcDbCircle
 10
-2.852745
 20
280.5947
 30
0.0
 40
5.47987
210
0.0
220
0.0
230
1.0
100
AcDbArc
 50
295.403892
 51
64.596108
  0
ARC
  5
44C
100
AcDbEntity
  8
1
  6
CONTINUOUS
 62
     7
100
AcDbCircle
 10
63.147255
 20
280.5947
 30
0.0
 40
5.47987
210
0.0
220
0.0
230
1.0
100
AcDbArc
 50
295.403892
 51
64.596108
  0
ARC
  5
44D
100
AcDbEntity
  8
1
  6
CONTINUOUS
 62
     7
100
AcDbCircle
 10
63.147255
 20
270.6947
 30
0.0
 40
5.47987
210
0.0
220
0.0
230
1.0
100
AcDbArc
 50
295.403892
 51
64.596108
  0
ARC
  5
44E
100
AcDbEntity
  8
1
  6
CONTINUOUS
 62
     7
100
AcDbCircle
 10
67.848945
 20
270.6947
 30
0.0
 40
5.47987
210
0.0
220
0.0
230
1.0
100
AcDbArc
 50
115.403892
 51
244.596108
  0
LINE
  5
44F
100
AcDbEntity
  8
1
  6
HIDDEN
 62
     7
100
AcDbLine
 10
22.2981
 20
287.3447
 30
0.0
 11
42.6981
 21
287.3447
 31
0.0
  0
LINE
  5
450
100
AcDbEntity
  8
1
  6
CONTINUOUS
 62
     7
100
AcDbLine
 10
22.2981
 20
292.7447
 30
0.0
 11
22.2981
 21
301.1447
 31
0.0
  0
LINE
  5
451
100
AcDbEntity
  8
1
  6
CONTINUOUS
 62
     7
100
AcDbLine
 10
42.6981
 20
292.7447
 30
0.0
 11
42.6981
 21
301.1447
 31
0.0
  0
LINE
  5
452
100
AcDbEntity
  8
1
  6
HIDDEN
 62
     7
100
AcDbLine
 10
22.2981
 20
292.7447
 30
0.0
 11
22.2981
 21
287.3447
 31
0.0
  0
LINE
  5
453
100
AcDbEntity
  8
1
  6
HIDDEN
 62
     7
100
AcDbLine
 10
42.6981
 20
292.7447
 30
0.0
 11
42.6981
 21
287.3447
 31
0.0
  0
ARC
  5
454
100
AcDbEntity
  8
1
  6
CONTINUOUS
 62
     7
100
AcDbCircle
 10
27.3981
 20
297.514162
 30
0.0
 40
6.260256
210
0.0
220
0.0
230
1.0
100
AcDbArc
 50
35.445931
 51
144.554067
  0
ARC
  5
455
100
AcDbEntity
  8
1
  6
CONTINUOUS
 62
     7
100
AcDbCircle
 10
37.5981
 20
297.514162
 30
0.0
 40
6.260256
210
0.0
220
0.0
230
1.0
100
AcDbArc
 50
35.445931
 51
144.554067
  0
ARC
  5
456
100
AcDbEntity
  8
1
  6
CONTINUOUS
 62
     7
100
AcDbCircle
 10
37.5981
 20
304.775238
 30
0.0
 40
6.260256
210
0.0
220
0.0
230
1.0
100
AcDbArc
 50
215.445933
 51
324.554069
  0
CIRCLE
  5
457
100
AcDbEntity
  8
1
  6
CONTINUOUS
 62
     7
100
AcDbCircle
 10
32.4981
 20
275.3447
 30
0.0
 40
11.58
210
0.0
220
0.0
230
1.0
  0
CIRCLE
  5
458
100
AcDbEntity
  8
1
  6
CONTINUOUS
 62
     7
100
AcDbCircle
 10
32.4981
 20
275.3447
 30
0.0
 40
9.18
210
0.0
220
0.0
230
1.0
  0
CIRCLE
  5
459
100
AcDbEntity
  8
1
  6
CONTINUOUS
 62
     7
100
AcDbCircle
 10
31.7696
 20
197.509
 30
0.0
 40
9.18
210
0.0
220
0.0
230
1.0
  0
CIRCLE
  5
45A
100
AcDbEntity
  8
1
  6
CONTINUOUS
 62
     7
100
AcDbCircle
 10
31.7696
 20
197.509
 30
0.0
 40
12.78
210
0.0
220
0.0
230
1.0
  0
LINE
  5
45B
100
AcDbEntity
  8
1
  6
CONTINUOUS
 62
     7
100
AcDbLine
 10
7.1696
 20
187.6532
 30
0.0
 11
-1.2304
 21
187.6532
 31
0.0
  0
LINE
  5
45C
100
AcDbEntity
  8
1
  6
HIDDEN
 62
     7
100
AcDbLine
 10
14.3696
 20
211.0532
 30
0.0
 11
14.3696
 21
184.0532
 31
0.0
  0
LINE
  5
45D
100
AcDbEntity
  8
1
  6
HIDDEN
 62
     7
100
AcDbLine
 10
49.1696
 20
211.0532
 30
0.0
 11
49.1696
 21
184.0532
 31
0.0
  0
LINE
  5
45E
100
AcDbEntity
  8
1
  6
HIDDEN
 62
     7
100
AcDbLine
 10
7.1696
 20
207.4532
 30
0.0
 11
14.3696
 21
207.4532
 31
0.0
  0
LINE
  5
45F
100
AcDbEntity
  8
1
  6
HIDDEN
 62
     7
100
AcDbLine
 10
49.1696
 20
207.4532
 30
0.0
 11
56.3696
 21
207.4532
 31
0.0
  0
LINE
  5
460
100
AcDbEntity
  8
1
  6
HIDDEN
 62
     7
100
AcDbLine
 10
7.1696
 20
187.6532
 30
0.0
 11
14.3696
 21
187.6532
 31
0.0
  0
LINE
  5
461
100
AcDbEntity
  8
1
  6
HIDDEN
 62
     7
100
AcDbLine
 10
49.1696
 20
187.6532
 30
0.0
 11
56.3696
 21
187.6532
 31
0.0
  0
LINE
  5
462
100
AcDbEntity
  8
1
  6
CONTINUOUS
 62
     7
100
AcDbLine
 10
7.1696
 20
207.4532
 30
0.0
 11
-1.2304
 21
207.4532
 31
0.0
  0
LINE
  5
463
100
AcDbEntity
  8
1
  6
CONTINUOUS
 62
     7
100
AcDbLine
 10
64.7696
 20
207.4532
 30
0.0
 11
56.3696
 21
207.4532
 31
0.0
  0
LINE
  5
464
100
AcDbEntity
  8
1
  6
CONTINUOUS
 62
     7
100
AcDbLine
 10
64.7696
 20
187.6532
 30
0.0
 11
56.3696
 21
187.6532
 31
0.0
  0
ARC
  5
465
100
AcDbEntity
  8
1
  6
CONTINUOUS
 62
     7
100
AcDbCircle
 10
1.120445
 20
202.5032
 30
0.0
 40
5.47987
210
0.0
220
0.0
230
1.0
100
AcDbArc
 50
115.403892
 51
244.596108
  0
ARC
  5
466
100
AcDbEntity
  8
1
  6
CONTINUOUS
 62
     7
100
AcDbCircle
 10
1.120445
 20
192.6032
 30
0.0
 40
5.47987
210
0.0
220
0.0
230
1.0
100
AcDbArc
 50
115.403892
 51
244.596108
  0
ARC
  5
467
100
AcDbEntity
  8
1
  6
CONTINUOUS
 62
     7
100
AcDbCircle
 10
-3.581245
 20
202.5032
 30
0.0
 40
5.47987
210
0.0
220
0.0
230
1.0
100
AcDbArc
 50
295.403892
 51
64.596108
  0
ARC
  5
468
100
AcDbEntity
  8
1
  6
CONTINUOUS
 62
     7
100
AcDbCircle
 10
62.418755
 20
202.5032
 30
0.0
 40
5.47987
210
0.0
220
0.0
230
1.0
100
AcDbArc
 50
295.403892
 51
64.596108
  0
ARC
  5
469
100
AcDbEntity
  8
1
  6
CONTINUOUS
 62
     7
100
AcDbCircle
 10
62.418755
 20
192.6032
 30
0.0
 40
5.47987
210
0.0
220
0.0
230
1.0
100
AcDbArc
 50
295.403892
 51
64.596108
  0
ARC
  5
46A
100
AcDbEntity
  8
1
  6
CONTINUOUS
 62
     7
100
AcDbCircle
 10
67.120445
 20
192.6032
 30
0.0
 40
5.47987
210
0.0
220
0.0
230
1.0
100
AcDbArc
 50
115.403892
 51
244.596108
  0
LINE
  5
46B
100
AcDbEntity
  8
1
  6
HIDDEN
 62
     7
100
AcDbLine
 10
18.2696
 20
180.109
 30
0.0
 11
45.2696
 21
180.109
 31
0.0
  0
LINE
  5
46C
100
AcDbEntity
  8
1
  6
HIDDEN
 62
     7
100
AcDbLine
 10
18.2696
 20
214.909
 30
0.0
 11
45.2696
 21
214.909
 31
0.0
  0
LINE
  5
46D
100
AcDbEntity
  8
1
  6
HIDDEN
 62
     7
100
AcDbLine
 10
14.3696
 20
211.0532
 30
0.0
 11
18.2696
 21
214.909
 31
0.0
  0
LINE
  5
46E
100
AcDbEntity
  8
1
  6
HIDDEN
 62
     7
100
AcDbLine
 10
45.2696
 20
214.909
 30
0.0
 11
49.1696
 21
211.0532
 31
0.0
  0
LINE
  5
46F
100
AcDbEntity
  8
1
  6
HIDDEN
 62
     7
100
AcDbLine
 10
49.1696
 20
184.0532
 30
0.0
 11
45.2696
 21
180.109
 31
0.0
  0
LINE
  5
470
100
AcDbEntity
  8
1
  6
HIDDEN
 62
     7
100
AcDbLine
 10
18.2696
 20
180.109
 30
0.0
 11
14.3696
 21
184.0532
 31
0.0
  0
LINE
  5
471
100
AcDbEntity
  8
1
  6
CONTINUOUS
 62
     7
100
AcDbLine
 10
7.1696
 20
209.2532
 30
0.0
 11
7.1696
 21
185.8532
 31
0.0
  0
LINE
  5
472
100
AcDbEntity
  8
1
  6
CONTINUOUS
 62
     7
100
AcDbLine
 10
56.3696
 20
209.2532
 30
0.0
 11
56.3696
 21
185.8532
 31
0.0
  0
CIRCLE
  5
473
100
AcDbEntity
  8
1
  6
CONTINUOUS
 62
     7
100
AcDbCircle
 10
31.7696
 20
197.509
 30
0.0
 40
24.60004
210
0.0
220
0.0
230
1.0
  0
LINE
  5
474
100
AcDbEntity
  8
1
  6
CONTINUOUS
 62
     7
100
AcDbLine
 10
7.1696
 20
209.2532
 30
0.0
 11
10.154
 21
209.2532
 31
0.0
  0
LINE
  5
475
100
AcDbEntity
  8
1
  6
CONTINUOUS
 62
     7
100
AcDbLine
 10
7.1696
 20
185.8532
 30
0.0
 11
10.1062
 21
185.8532
 31
0.0
  0
LINE
  5
476
100
AcDbEntity
  8
1
  6
CONTINUOUS
 62
     7
100
AcDbLine
 10
56.3696
 20
209.2532
 30
0.0
 11
53.3852
 21
209.2532
 31
0.0
  0
LINE
  5
477
100
AcDbEntity
  8
1
  6
CONTINUOUS
 62
     7
100
AcDbLine
 10
56.3696
 20
185.8532
 30
0.0
 11
53.433
 21
185.8532
 31
0.0
  0
LINE
  5
478
100
AcDbEntity
  8
1
  6
CONTINUOUS
 62
     7
100
AcDbLine
 10
7.1696
 20
198.7532
 30
0.0
 11
19.0503
 21
198.7532
 31
0.0
  0
LINE
  5
479
100
AcDbEntity
  8
1
  6
CONTINUOUS
 62
     7
100
AcDbLine
 10
7.1696
 20
196.3532
 30
0.0
 11
19.042
 21
196.3532
 31
0.0
  0
LINE
  5
47A
100
AcDbEntity
  8
1
  6
CONTINUOUS
 62
     7
100
AcDbLine
 10
56.3696
 20
198.7532
 30
0.0
 11
44.4889
 21
198.7532
 31
0.0
  0
LINE
  5
47B
100
AcDbEntity
  8
1
  6
CONTINUOUS
 62
     7
100
AcDbLine
 10
56.3696
 20
196.3532
 30
0.0
 11
44.4972
 21
196.3532
 31
0.0
  0
LINE
  5
47C
100
AcDbEntity
  8
1
  6
CONTINUOUS
 62
     7
100
AcDbLine
 10
43.4217
 20
187.6269
 30
0.0
 11
41.631
 21
185.816
 31
0.0
  0
LINE
  5
47D
100
AcDbEntity
  8
1
  6
CONTINUOUS
 62
     7
100
AcDbLine
 10
42.1417
 20
188.8925
 30
0.0
 11
40.351
 21
187.0816
 31
0.0
  0
LINE
  5
47E
100
AcDbEntity
  8
1
  6
CONTINUOUS
 62
     7
100
AcDbLine
 10
42.1417
 20
188.8925
 30
0.0
 11
43.4217
 21
187.6269
 31
0.0
  0
LINE
  5
47F
100
AcDbEntity
  8
1
  6
CONTINUOUS
 62
     7
100
AcDbLine
 10
40.351
 20
187.0816
 30
0.0
 11
41.631
 21
185.816
 31
0.0
  0
LINE
  5
480
100
AcDbEntity
  8
1
  6
CONTINUOUS
 62
     7
100
AcDbLine
 10
40.4565
 20
187.1882
 30
0.0
 11
39.9493
 21
187.6896
 31
0.0
  0
LINE
  5
481
100
AcDbEntity
  8
1
  6
HIDDEN
 62
     7
100
AcDbLine
 10
39.9493
 20
187.6896
 30
0.0
 11
37.3727
 21
190.2373
 31
0.0
  0
LINE
  5
482
100
AcDbEntity
  8
1
  6
HIDDEN
 62
     7
100
AcDbLine
 10
38.9714
 20
191.8163
 30
0.0
 11
41.5427
 21
189.274
 31
0.0
  0
LINE
  5
483
100
AcDbEntity
  8
1
  6
CONTINUOUS
 62
     7
100
AcDbLine
 10
41.5427
 20
189.274
 30
0.0
 11
42.0363
 21
188.7859
 31
0.0
  0
LINE
  5
484
100
AcDbEntity
  8
1
  6
CONTINUOUS
 62
     7
100
AcDbLine
 10
20.0696
 20
222.109
 30
0.0
 11
20.0696
 21
219.1724
 31
0.0
  0
LINE
  5
485
100
AcDbEntity
  8
1
  6
HIDDEN
 62
     7
100
AcDbLine
 10
41.6696
 20
222.109
 30
0.0
 11
41.6696
 21
214.909
 31
0.0
  0
LINE
  5
486
100
AcDbEntity
  8
1
  6
HIDDEN
 62
     7
100
AcDbLine
 10
21.8696
 20
222.109
 30
0.0
 11
21.8696
 21
214.909
 31
0.0
  0
LINE
  5
487
100
AcDbEntity
  8
1
  6
CONTINUOUS
 62
     7
100
AcDbLine
 10
43.4696
 20
222.109
 30
0.0
 11
20.0696
 21
222.109
 31
0.0
  0
LINE
  5
488
100
AcDbEntity
  8
1
  6
CONTINUOUS
 62
     7
100
AcDbLine
 10
43.4696
 20
222.109
 30
0.0
 11
43.4696
 21
219.1246
 31
0.0
  0
LINE
  5
489
100
AcDbEntity
  8
1
  6
CONTINUOUS
 62
     7
100
AcDbLine
 10
20.6696
 20
222.109
 30
0.0
 11
20.6696
 21
223.909
 31
0.0
  0
LINE
  5
48A
100
AcDbEntity
  8
1
  6
CONTINUOUS
 62
     7
100
AcDbLine
 10
42.8696
 20
222.109
 30
0.0
 11
42.8696
 21
223.909
 31
0.0
  0
LINE
  5
48B
100
AcDbEntity
  8
1
  6
CONTINUOUS
 62
     7
100
AcDbLine
 10
20.6696
 20
223.909
 30
0.0
 11
42.8696
 21
223.909
 31
0.0
  0
LINE
  5
48C
100
AcDbEntity
  8
1
  6
CONTINUOUS
 62
     7
100
AcDbLine
 10
23.0696
 20
222.109
 30
0.0
 11
23.0696
 21
223.909
 31
0.0
  0
LINE
  5
48D
100
AcDbEntity
  8
1
  6
CONTINUOUS
 62
     7
100
AcDbLine
 10
40.4696
 20
222.109
 30
0.0
 11
40.4696
 21
223.909
 31
0.0
  0
LINE
  5
48E
100
AcDbEntity
  8
1
  6
CONTINUOUS
 62
     7
100
AcDbLine
 10
31.7696
 20
222.109
 30
0.0
 11
31.7696
 21
226.309
 31
0.0
  0
LINE
  5
48F
100
AcDbEntity
  8
1
  6
CONTINUOUS
 62
     7
100
AcDbLine
 10
31.7696
 20
226.309
 30
0.0
 11
20.6696
 21
223.909
 31
0.0
  0
LINE
  5
490
100
AcDbEntity
  8
1
  6
CONTINUOUS
 62
     7
100
AcDbLine
 10
31.7696
 20
226.309
 30
0.0
 11
42.8696
 21
223.909
 31
0.0
  0
LINE
  5
491
100
AcDbEntity
  8
1
  6
CONTINUOUS
 62
     7
100
AcDbLine
 10
23.0696
 20
223.909
 30
0.0
 11
31.7696
 21
226.309
 31
0.0
  0
LINE
  5
492
100
AcDbEntity
  8
1
  6
CONTINUOUS
 62
     7
100
AcDbLine
 10
31.7696
 20
226.309
 30
0.0
 11
40.4696
 21
223.909
 31
0.0
  0
LINE
  5
493
100
AcDbEntity
  8
1
  6
CONTINUOUS
 62
     7
100
AcDbLine
 10
31.7696
 20
168.7974
 30
0.0
 11
42.8696
 21
171.1974
 31
0.0
  0
LINE
  5
494
100
AcDbEntity
  8
1
  6
CONTINUOUS
 62
     7
100
AcDbLine
 10
20.0696
 20
172.9974
 30
0.0
 11
20.0696
 21
175.934
 31
0.0
  0
LINE
  5
495
100
AcDbEntity
  8
1
  6
HIDDEN
 62
     7
100
AcDbLine
 10
41.6696
 20
172.9974
 30
0.0
 11
41.6696
 21
180.1974
 31
0.0
  0
LINE
  5
496
100
AcDbEntity
  8
1
  6
HIDDEN
 62
     7
100
AcDbLine
 10
21.8696
 20
172.9974
 30
0.0
 11
21.8696
 21
180.1974
 31
0.0
  0
LINE
  5
497
100
AcDbEntity
  8
1
  6
CONTINUOUS
 62
     7
100
AcDbLine
 10
43.4696
 20
172.9974
 30
0.0
 11
20.0696
 21
172.9974
 31
0.0
  0
LINE
  5
498
100
AcDbEntity
  8
1
  6
CONTINUOUS
 62
     7
100
AcDbLine
 10
43.4696
 20
172.9974
 30
0.0
 11
43.4696
 21
175.9818
 31
0.0
  0
LINE
  5
499
100
AcDbEntity
  8
1
  6
CONTINUOUS
 62
     7
100
AcDbLine
 10
20.6696
 20
172.9974
 30
0.0
 11
20.6696
 21
171.1974
 31
0.0
  0
LINE
  5
49A
100
AcDbEntity
  8
1
  6
CONTINUOUS
 62
     7
100
AcDbLine
 10
42.8696
 20
172.9974
 30
0.0
 11
42.8696
 21
171.1974
 31
0.0
  0
LINE
  5
49B
100
AcDbEntity
  8
1
  6
CONTINUOUS
 62
     7
100
AcDbLine
 10
20.6696
 20
171.1974
 30
0.0
 11
42.8696
 21
171.1974
 31
0.0
  0
LINE
  5
49C
100
AcDbEntity
  8
1
  6
CONTINUOUS
 62
     7
100
AcDbLine
 10
23.0696
 20
172.9974
 30
0.0
 11
23.0696
 21
171.1974
 31
0.0
  0
LINE
  5
49D
100
AcDbEntity
  8
1
  6
CONTINUOUS
 62
     7
100
AcDbLine
 10
40.4696
 20
172.9974
 30
0.0
 11
40.4696
 21
171.1974
 31
0.0
  0
LINE
  5
49E
100
AcDbEntity
  8
1
  6
CONTINUOUS
 62
     7
100
AcDbLine
 10
31.7696
 20
172.9974
 30
0.0
 11
31.7696
 21
168.7974
 31
0.0
  0
LINE
  5
49F
100
AcDbEntity
  8
1
  6
CONTINUOUS
 62
     7
100
AcDbLine
 10
31.7696
 20
168.7974
 30
0.0
 11
20.6696
 21
171.1974
 31
0.0
  0
LINE
  5
4A0
100
AcDbEntity
  8
1
  6
CONTINUOUS
 62
     7
100
AcDbLine
 10
23.0696
 20
171.1974
 30
0.0
 11
31.7696
 21
168.7974
 31
0.0
  0
LINE
  5
4A1
100
AcDbEntity
  8
1
  6
CONTINUOUS
 62
     7
100
AcDbLine
 10
31.7696
 20
168.7974
 30
0.0
 11
40.4696
 21
171.1974
 31
0.0
  0
CIRCLE
  5
4A2
100
AcDbEntity
  8
1
  6
CONTINUOUS
 62
     7
100
AcDbCircle
 10
118.1696
 20
197.509
 30
0.0
 40
9.18
210
0.0
220
0.0
230
1.0
  0
LINE
  5
4A3
100
AcDbEntity
  8
1
  6
CONTINUOUS
 62
     7
100
AcDbLine
 10
93.5696
 20
187.6532
 30
0.0
 11
85.1696
 21
187.6532
 31
0.0
  0
LINE
  5
4A4
100
AcDbEntity
  8
1
  6
CONTINUOUS
 62
     7
100
AcDbLine
 10
100.7696
 20
211.0532
 30
0.0
 11
100.7696
 21
184.0532
 31
0.0
  0
LINE
  5
4A5
100
AcDbEntity
  8
1
  6
CONTINUOUS
 62
     7
100
AcDbLine
 10
135.5696
 20
211.0532
 30
0.0
 11
135.5696
 21
184.0532
 31
0.0
  0
LINE
  5
4A6
100
AcDbEntity
  8
1
  6
HIDDEN
 62
     7
100
AcDbLine
 10
93.5696
 20
207.4532
 30
0.0
 11
100.7696
 21
207.4532
 31
0.0
  0
LINE
  5
4A7
100
AcDbEntity
  8
1
  6
HIDDEN
 62
     7
100
AcDbLine
 10
135.5696
 20
207.4532
 30
0.0
 11
142.7696
 21
207.4532
 31
0.0
  0
LINE
  5
4A8
100
AcDbEntity
  8
1
  6
HIDDEN
 62
     7
100
AcDbLine
 10
93.5696
 20
187.6532
 30
0.0
 11
100.7696
 21
187.6532
 31
0.0
  0
LINE
  5
4A9
100
AcDbEntity
  8
1
  6
HIDDEN
 62
     7
100
AcDbLine
 10
135.5696
 20
187.6532
 30
0.0
 11
142.7696
 21
187.6532
 31
0.0
  0
LINE
  5
4AA
100
AcDbEntity
  8
1
  6
CONTINUOUS
 62
     7
100
AcDbLine
 10
93.5696
 20
207.4532
 30
0.0
 11
85.1696
 21
207.4532
 31
0.0
  0
LINE
  5
4AB
100
AcDbEntity
  8
1
  6
CONTINUOUS
 62
     7
100
AcDbLine
 10
151.1696
 20
207.4532
 30
0.0
 11
142.7696
 21
207.4532
 31
0.0
  0
LINE
  5
4AC
100
AcDbEntity
  8
1
  6
CONTINUOUS
 62
     7
100
AcDbLine
 10
151.1696
 20
187.6532
 30
0.0
 11
142.7696
 21
187.6532
 31
0.0
  0
ARC
  5
4AD
100
AcDbEntity
  8
1
  6
CONTINUOUS
 62
     7
100
AcDbCircle
 10
87.520445
 20
202.5032
 30
0.0
 40
5.47987
210
0.0
220
0.0
230
1.0
100
AcDbArc
 50
115.403892
 51
244.596108
  0
ARC
  5
4AE
100
AcDbEntity
  8
1
  6
CONTINUOUS
 62
     7
100
AcDbCircle
 10
87.520445
 20
192.6032
 30
0.0
 40
5.47987
210
0.0
220
0.0
230
1.0
100
AcDbArc
 50
115.403892
 51
244.596108
  0
ARC
  5
4AF
100
AcDbEntity
  8
1
  6
CONTINUOUS
 62
     7
100
AcDbCircle
 10
82.818755
 20
202.5032
 30
0.0
 40
5.47987
210
0.0
220
0.0
230
1.0
100
AcDbArc
 50
295.403892
 51
64.596108
  0
ARC
  5
4B0
100
AcDbEntity
  8
1
  6
CONTINUOUS
 62
     7
100
AcDbCircle
 10
148.818755
 20
202.5032
 30
0.0
 40
5.47987
210
0.0
220
0.0
230
1.0
100
AcDbArc
 50
295.403892
 51
64.596108
  0
ARC
  5
4B1
100
AcDbEntity
  8
1
  6
CONTINUOUS
 62
     7
100
AcDbCircle
 10
148.818755
 20
192.6032
 30
0.0
 40
5.47987
210
0.0
220
0.0
230
1.0
100
AcDbArc
 50
295.403892
 51
64.596108
  0
ARC
  5
4B2
100
AcDbEntity
  8
1
  6
CONTINUOUS
 62
     7
100
AcDbCircle
 10
153.520445
 20
192.6032
 30
0.0
 40
5.47987
210
0.0
220
0.0
230
1.0
100
AcDbArc
 50
115.403892
 51
244.596108
  0
LINE
  5
4B3
100
AcDbEntity
  8
1
  6
CONTINUOUS
 62
     7
100
AcDbLine
 10
104.6696
 20
180.109
 30
0.0
 11
131.6696
 21
180.109
 31
0.0
  0
LINE
  5
4B4
100
AcDbEntity
  8
1
  6
CONTINUOUS
 62
     7
100
AcDbLine
 10
104.6696
 20
214.909
 30
0.0
 11
131.6696
 21
214.909
 31
0.0
  0
LINE
  5
4B5
100
AcDbEntity
  8
1
  6
CONTINUOUS
 62
     7
100
AcDbLine
 10
100.7696
 20
211.0532
 30
0.0
 11
104.6696
 21
214.909
 31
0.0
  0
LINE
  5
4B6
100
AcDbEntity
  8
1
  6
CONTINUOUS
 62
     7
100
AcDbLine
 10
131.6696
 20
214.909
 30
0.0
 11
135.5696
 21
211.0532
 31
0.0
  0
LINE
  5
4B7
100
AcDbEntity
  8
1
  6
CONTINUOUS
 62
     7
100
AcDbLine
 10
135.5696
 20
184.0532
 30
0.0
 11
131.6696
 21
180.109
 31
0.0
  0
LINE
  5
4B8
100
AcDbEntity
  8
1
  6
CONTINUOUS
 62
     7
100
AcDbLine
 10
104.6696
 20
180.109
 30
0.0
 11
100.7696
 21
184.0532
 31
0.0
  0
LINE
  5
4B9
100
AcDbEntity
  8
1
  6
CONTINUOUS
 62
     7
100
AcDbLine
 10
93.5696
 20
209.2532
 30
0.0
 11
93.5696
 21
185.8532
 31
0.0
  0
LINE
  5
4BA
100
AcDbEntity
  8
1
  6
CONTINUOUS
 62
     7
100
AcDbLine
 10
142.7696
 20
209.2532
 30
0.0
 11
142.7696
 21
185.8532
 31
0.0
  0
CIRCLE
  5
4BB
100
AcDbEntity
  8
1
  6
CONTINUOUS
 62
     7
100
AcDbCircle
 10
118.1696
 20
197.509
 30
0.0
 40
24.60004
210
0.0
220
0.0
230
1.0
  0
LINE
  5
4BC
100
AcDbEntity
  8
1
  6
CONTINUOUS
 62
     7
100
AcDbLine
 10
93.5696
 20
209.2532
 30
0.0
 11
96.554
 21
209.2532
 31
0.0
  0
LINE
  5
4BD
100
AcDbEntity
  8
1
  6
CONTINUOUS
 62
     7
100
AcDbLine
 10
93.5696
 20
185.8532
 30
0.0
 11
96.5062
 21
185.8532
 31
0.0
  0
LINE
  5
4BE
100
AcDbEntity
  8
1
  6
CONTINUOUS
 62
     7
100
AcDbLine
 10
142.7696
 20
209.2532
 30
0.0
 11
139.7852
 21
209.2532
 31
0.0
  0
LINE
  5
4BF
100
AcDbEntity
  8
1
  6
CONTINUOUS
 62
     7
100
AcDbLine
 10
142.7696
 20
185.8532
 30
0.0
 11
139.833
 21
185.8532
 31
0.0
  0
LINE
  5
4C0
100
AcDbEntity
  8
1
  6
CONTINUOUS
 62
     7
100
AcDbLine
 10
106.4696
 20
222.109
 30
0.0
 11
106.4696
 21
219.1724
 31
0.0
  0
LINE
  5
4C1
100
AcDbEntity
  8
1
  6
HIDDEN
 62
     7
100
AcDbLine
 10
128.0696
 20
222.109
 30
0.0
 11
128.0696
 21
214.909
 31
0.0
  0
LINE
  5
4C2
100
AcDbEntity
  8
1
  6
HIDDEN
 62
     7
100
AcDbLine
 10
108.2696
 20
222.109
 30
0.0
 11
108.2696
 21
214.909
 31
0.0
  0
LINE
  5
4C3
100
AcDbEntity
  8
1
  6
CONTINUOUS
 62
     7
100
AcDbLine
 10
129.8696
 20
222.109
 30
0.0
 11
106.4696
 21
222.109
 31
0.0
  0
LINE
  5
4C4
100
AcDbEntity
  8
1
  6
CONTINUOUS
 62
     7
100
AcDbLine
 10
129.8696
 20
222.109
 30
0.0
 11
129.8696
 21
219.1246
 31
0.0
  0
LINE
  5
4C5
100
AcDbEntity
  8
1
  6
CONTINUOUS
 62
     7
100
AcDbLine
 10
107.0696
 20
222.109
 30
0.0
 11
107.0696
 21
223.909
 31
0.0
  0
LINE
  5
4C6
100
AcDbEntity
  8
1
  6
CONTINUOUS
 62
     7
100
AcDbLine
 10
129.2696
 20
222.109
 30
0.0
 11
129.2696
 21
223.909
 31
0.0
  0
LINE
  5
4C7
100
AcDbEntity
  8
1
  6
CONTINUOUS
 62
     7
100
AcDbLine
 10
107.0696
 20
223.909
 30
0.0
 11
129.2696
 21
223.909
 31
0.0
  0
LINE
  5
4C8
100
AcDbEntity
  8
1
  6
CONTINUOUS
 62
     7
100
AcDbLine
 10
109.4696
 20
222.109
 30
0.0
 11
109.4696
 21
223.909
 31
0.0
  0
LINE
  5
4C9
100
AcDbEntity
  8
1
  6
CONTINUOUS
 62
     7
100
AcDbLine
 10
126.8696
 20
222.109
 30
0.0
 11
126.8696
 21
223.909
 31
0.0
  0
LINE
  5
4CA
100
AcDbEntity
  8
1
  6
CONTINUOUS
 62
     7
100
AcDbLine
 10
118.1696
 20
222.109
 30
0.0
 11
118.1696
 21
226.309
 31
0.0
  0
LINE
  5
4CB
100
AcDbEntity
  8
1
  6
CONTINUOUS
 62
     7
100
AcDbLine
 10
118.1696
 20
226.309
 30
0.0
 11
107.0696
 21
223.909
 31
0.0
  0
LINE
  5
4CC
100
AcDbEntity
  8
1
  6
CONTINUOUS
 62
     7
100
AcDbLine
 10
118.1696
 20
226.309
 30
0.0
 11
129.2696
 21
223.909
 31
0.0
  0
LINE
  5
4CD
100
AcDbEntity
  8
1
  6
CONTINUOUS
 62
     7
100
AcDbLine
 10
109.4696
 20
223.909
 30
0.0
 11
118.1696
 21
226.309
 31
0.0
  0
LINE
  5
4CE
100
AcDbEntity
  8
1
  6
CONTINUOUS
 62
     7
100
AcDbLine
 10
118.1696
 20
226.309
 30
0.0
 11
126.8696
 21
223.909
 31
0.0
  0
LINE
  5
4CF
100
AcDbEntity
  8
1
  6
CONTINUOUS
 62
     7
100
AcDbLine
 10
118.1696
 20
168.7974
 30
0.0
 11
129.2696
 21
171.1974
 31
0.0
  0
LINE
  5
4D0
100
AcDbEntity
  8
1
  6
CONTINUOUS
 62
     7
100
AcDbLine
 10
106.4696
 20
172.9974
 30
0.0
 11
106.4696
 21
175.934
 31
0.0
  0
LINE
  5
4D1
100
AcDbEntity
  8
1
  6
HIDDEN
 62
     7
100
AcDbLine
 10
128.0696
 20
172.9974
 30
0.0
 11
128.0696
 21
180.1974
 31
0.0
  0
LINE
  5
4D2
100
AcDbEntity
  8
1
  6
HIDDEN
 62
     7
100
AcDbLine
 10
108.2696
 20
172.9974
 30
0.0
 11
108.2696
 21
180.1974
 31
0.0
  0
LINE
  5
4D3
100
AcDbEntity
  8
1
  6
CONTINUOUS
 62
     7
100
AcDbLine
 10
129.8696
 20
172.9974
 30
0.0
 11
106.4696
 21
172.9974
 31
0.0
  0
LINE
  5
4D4
100
AcDbEntity
  8
1
  6
CONTINUOUS
 62
     7
100
AcDbLine
 10
129.8696
 20
172.9974
 30
0.0
 11
129.8696
 21
175.9818
 31
0.0
  0
LINE
  5
4D5
100
AcDbEntity
  8
1
  6
CONTINUOUS
 62
     7
100
AcDbLine
 10
107.0696
 20
172.9974
 30
0.0
 11
107.0696
 21
171.1974
 31
0.0
  0
LINE
  5
4D6
100
AcDbEntity
  8
1
  6
CONTINUOUS
 62
     7
100
AcDbLine
 10
129.2696
 20
172.9974
 30
0.0
 11
129.2696
 21
171.1974
 31
0.0
  0
LINE
  5
4D7
100
AcDbEntity
  8
1
  6
CONTINUOUS
 62
     7
100
AcDbLine
 10
107.0696
 20
171.1974
 30
0.0
 11
129.2696
 21
171.1974
 31
0.0
  0
LINE
  5
4D8
100
AcDbEntity
  8
1
  6
CONTINUOUS
 62
     7
100
AcDbLine
 10
109.4696
 20
172.9974
 30
0.0
 11
109.4696
 21
171.1974
 31
0.0
  0
LINE
  5
4D9
100
AcDbEntity
  8
1
  6
CONTINUOUS
 62
     7
100
AcDbLine
 10
126.8696
 20
172.9974
 30
0.0
 11
126.8696
 21
171.1974
 31
0.0
  0
LINE
  5
4DA
100
AcDbEntity
  8
1
  6
CONTINUOUS
 62
     7
100
AcDbLine
 10
118.1696
 20
172.9974
 30
0.0
 11
118.1696
 21
168.7974
 31
0.0
  0
LINE
  5
4DB
100
AcDbEntity
  8
1
  6
CONTINUOUS
 62
     7
100
AcDbLine
 10
118.1696
 20
168.7974
 30
0.0
 11
107.0696
 21
171.1974
 31
0.0
  0
LINE
  5
4DC
100
AcDbEntity
  8
1
  6
CONTINUOUS
 62
     7
100
AcDbLine
 10
109.4696
 20
171.1974
 30
0.0
 11
118.1696
 21
168.7974
 31
0.0
  0
LINE
  5
4DD
100
AcDbEntity
  8
1
  6
CONTINUOUS
 62
     7
100
AcDbLine
 10
118.1696
 20
168.7974
 30
0.0
 11
126.8696
 21
171.1974
 31
0.0
  0
CIRCLE
  5
4DE
100
AcDbEntity
  8
1
  6
CONTINUOUS
 62
     7
100
AcDbCircle
 10
118.1696
 20
218.509
 30
0.0
 40
0.9
210
0.0
220
0.0
230
1.0
  0
CIRCLE
  5
4DF
100
AcDbEntity
  8
1
  6
CONTINUOUS
 62
     7
100
AcDbCircle
 10
98.5622
 20
193.3786
 30
0.0
 40
0.9
210
0.0
220
0.0
230
1.0
  0
CIRCLE
  5
4E0
100
AcDbEntity
  8
1
  6
CONTINUOUS
 62
     7
100
AcDbCircle
 10
137.777
 20
193.3786
 30
0.0
 40
0.9
210
0.0
220
0.0
230
1.0
  0
TEXT
  5
4E1
100
AcDbEntity
  8
1
  6
CONTINUOUS
 62
     7
100
AcDbText
 10
60.8733
 20
359.1153
 30
0.0
 40
3.0
  1
FOUR-WAY CENTER HUB
  7
MONOTXT
 72
     4
 11
89.0425
 21
360.6153
 31
0.0
210
0.0
220
0.0
230
1.0
100
AcDbText
  0
TEXT
  5
4E2
100
AcDbEntity
  8
1
  6
CONTINUOUS
 62
     7
100
AcDbText
 10
15.3947
 20
329.4785
 30
0.0
 40
3.0
  1
SMOOTH RADIAL
  7
MONOTXT
 11
15.3947
 21
332.4785
 31
0.0
210
0.0
220
0.0
230
1.0
100
AcDbText
 73
     3
  0
TEXT
  5
4E3
100
AcDbEntity
  8
1
  6
CONTINUOUS
 62
     7
100
AcDbText
 10
15.3947
 20
324.0785
 30
0.0
 40
3.0
  1
CABLEWAY INSIDE
  7
MONOTXT
 11
15.3947
 21
327.0785
 31
0.0
210
0.0
220
0.0
230
1.0
100
AcDbText
 73
     3
  0
LINE
  5
4E4
100
AcDbEntity
  8
1
  6
CONTINUOUS
 62
     7
100
AcDbLine
 10
43.7696
 20
353.0927
 30
0.0
 11
54.2693
 21
360.7481
 31
0.0
  0
LINE
  5
4E5
100
AcDbEntity
  8
1
  6
CONTINUOUS
 62
     7
100
AcDbLine
 10
54.2693
 20
360.7481
 30
0.0
 11
59.5764
 21
360.7481
 31
0.0
  0
INSERT
  5
4EB
100
AcDbEntity
  8
1
  6
CONTINUOUS
 62
     1
100
AcDbBlockReference
  2
LDR
 10
43.7696
 20
353.0927
 30
0.0
 41
240.000001
 42
240.000001
 50
216.096035
210
0.0
220
0.0
230
1.0
  0
LINE
  5
4EC
100
AcDbEntity
  8
1
  6
CONTINUOUS
 62
     7
100
AcDbLine
 10
63.7302
 20
339.4533
 30
0.0
 11
57.3209
 21
331.2841
 31
0.0
  0
LINE
  5
4ED
100
AcDbEntity
  8
1
  6
CONTINUOUS
 62
     7
100
AcDbLine
 10
57.3209
 20
331.2841
 30
0.0
 11
52.2792
 21
331.2841
 31
0.0
  0
INSERT
  5
4EE
100
AcDbEntity
  8
1
  6
CONTINUOUS
 62
     1
100
AcDbBlockReference
  2
LDR
 10
63.7302
 20
339.4533
 30
0.0
 41
240.0
 42
240.0
 50
51.883373
210
0.0
220
0.0
230
1.0
  0
TEXT
  5
4EF
100
AcDbEntity
  8
1
  6
CONTINUOUS
 62
     7
100
AcDbText
 10
-43.6253
 20
251.4298
 30
0.0
 40
3.0
  1
REMOVABLE COVER PLATE
  7
MONOTXT
 72
     4
 11
-12.8577
 21
252.9298
 31
0.0
210
0.0
220
0.0
230
1.0
100
AcDbText
  0
TEXT
  5
4F0
100
AcDbEntity
  8
1
  6
CONTINUOUS
 62
     7
100
AcDbText
 10
-30.5623
 20
246.0298
 30
0.0
 40
3.0
  1
W/WATER SEAL
  7
MONOTXT
 72
     4
 11
-12.8576
 21
247.5298
 31
0.0
210
0.0
220
0.0
230
1.0
100
AcDbText
  0
LINE
  5
4F1
100
AcDbEntity
  8
1
  6
CONTINUOUS
 62
     7
100
AcDbLine
 10
32.3553
 20
262.7447
 30
0.0
 11
25.8306
 21
252.9654
 31
0.0
  0
LINE
  5
4F2
100
AcDbEntity
  8
1
  6
CONTINUOUS
 62
     7
100
AcDbLine
 10
25.8306
 20
252.9654
 30
0.0
 11
19.8235
 21
252.9654
 31
0.0
  0
INSERT
  5
4F3
100
AcDbEntity
  8
1
  6
CONTINUOUS
 62
     1
100
AcDbBlockReference
  2
LDR
 10
32.3553
 20
262.7447
 30
0.0
 41
240.0
 42
-240.0
 50
56.288981
210
0.0
220
0.0
230
1.0
  0
TEXT
  5
4F4
100
AcDbEntity
  8
1
  6
CONTINUOUS
 62
     7
100
AcDbText
 10
24.721
 20
274.1521
 30
0.0
 40
2.4
  1
FRONTAL
  7
MONOTXT
 72
     4
 11
32.554
 21
275.3521
 31
0.0
210
0.0
220
0.0
230
1.0
100
AcDbText
  0
TEXT
  5
4F5
100
AcDbEntity
  8
1
  6
CONTINUOUS
 62
     7
100
AcDbText
 10
27.598
 20
195.8768
 30
0.0
 40
3.0
  1
TOP
  7
MONOTXT
 72
     4
 11
31.72
 21
197.3768
 31
0.0
210
0.0
220
0.0
230
1.0
100
AcDbText
  0
TEXT
  5
4F6
100
AcDbEntity
  8
1
  6
CONTINUOUS
 62
     7
100
AcDbText
 10
59.747
 20
171.3848
 30
0.0
 40
3.0
  1
SET SCREW(S)
  7
MONOTXT
 11
59.747
 21
174.3848
 31
0.0
210
0.0
220
0.0
230
1.0
100
AcDbText
 73
     3
  0
TEXT
  5
4F7
100
AcDbEntity
  8
1
  6
CONTINUOUS
 62
     7
100
AcDbText
 10
59.747
 20
165.9848
 30
0.0
 40
3.0
  1
REQ'D
  7
MONOTXT
 11
59.747
 21
168.9848
 31
0.0
210
0.0
220
0.0
230
1.0
100
AcDbText
 73
     3
  0
TEXT
  5
4F8
100
AcDbEntity
  8
1
  6
CONTINUOUS
 62
     7
100
AcDbText
 10
28.284
 20
157.069
 30
0.0
 40
3.0
  1
PIPING CLOSURE (TYP)
  7
MONOTXT
 72
     4
 11
54.6344
 21
158.569
 31
0.0
210
0.0
220
0.0
230
1.0
100
AcDbText
  0
LINE
  5
4F9
100
AcDbEntity
  8
1
  6
CONTINUOUS
 62
     7
100
AcDbLine
 10
42.5264
 20
186.7215
 30
0.0
 11
52.6282
 21
173.3847
 31
0.0
  0
LINE
  5
4FA
100
AcDbEntity
  8
1
  6
CONTINUOUS
 62
     7
100
AcDbLine
 10
52.6282
 20
173.3847
 30
0.0
 11
57.9979
 21
173.3847
 31
0.0
  0
INSERT
  5
4FB
100
AcDbEntity
  8
1
  6
CONTINUOUS
 62
     1
100
AcDbBlockReference
  2
LDR
 10
42.5264
 20
186.7215
 30
0.0
 41
239.999998
 42
239.999998
 50
127.141674
210
0.0
220
0.0
230
1.0
  0
LINE
  5
4FC
100
AcDbEntity
  8
1
  6
CONTINUOUS
 62
     7
100
AcDbLine
 10
26.2196
 20
169.9974
 30
0.0
 11
20.5516
 21
158.684
 31
0.0
  0
LINE
  5
4FD
100
AcDbEntity
  8
1
  6
CONTINUOUS
 62
     7
100
AcDbLine
 10
20.5516
 20
158.684
 30
0.0
 11
27.0517
 21
158.684
 31
0.0
  0
INSERT
  5
4FE
100
AcDbEntity
  8
1
  6
CONTINUOUS
 62
     1
100
AcDbBlockReference
  2
LDR
 10
26.2196
 20
169.9974
 30
0.0
 41
239.999999
 42
239.999999
 50
63.389185
210
0.0
220
0.0
230
1.0
  0
TEXT
  5
4FF
100
AcDbEntity
  8
1
  6
CONTINUOUS
 62
     7
100
AcDbText
 10
111.1079
 20
196.2146
 30
0.0
 40
2.4
  1
BOTTOM
  7
MONOTXT
 72
     4
 11
118.2039
 21
197.4146
 31
0.0
210
0.0
220
0.0
230
1.0
100
AcDbText
  0
LINE
  5
500
100
AcDbEntity
  8
1
  6
CONTINUOUS
 62
     7
100
AcDbLine
 10
100.7696
 20
212.2532
 30
0.0
 11
100.7696
 21
242.5229
 31
0.0
  0
LINE
  5
501
100
AcDbEntity
  8
1
  6
CONTINUOUS
 62
     7
100
AcDbLine
 10
135.5696
 20
212.2532
 30
0.0
 11
135.5696
 21
242.5229
 31
0.0
  0
LINE
  5
502
100
AcDbEntity
  8
1
  6
CONTINUOUS
 62
     7
100
AcDbLine
 10
100.7696
 20
241.3229
 30
0.0
 11
135.5696
 21
241.3229
 31
0.0
  0
INSERT
  5
503
100
AcDbEntity
  8
1
  6
CONTINUOUS
 62
     1
100
AcDbBlockReference
  2
LDR
 10
100.7696
 20
241.3229
 30
0.0
 41
240.0
 42
240.0
 50
180.0
210
0.0
220
0.0
230
1.0
  0
INSERT
  5
504
100
AcDbEntity
  8
1
  6
CONTINUOUS
 62
     1
100
AcDbBlockReference
  2
LDR
 10
100.7696
 20
241.3229
 30
0.0
 41
240.0
 42
240.0
 50
180.0
210
0.0
220
0.0
230
1.0
  0
INSERT
  5
505
100
AcDbEntity
  8
1
  6
CONTINUOUS
 62
     1
100
AcDbBlockReference
  2
LDR
 10
135.5696
 20
241.3229
 30
0.0
 41
240.0
 42
240.0
210
0.0
220
0.0
230
1.0
  0
TEXT
  5
506
100
AcDbEntity
  8
1
  6
CONTINUOUS
 62
     7
100
AcDbText
 10
54.7197
 20
130.1703
 30
0.0
 40
6.0
  1
DETAIL "A"
  7
TXT
 72
     4
 11
76.9379
 21
133.1703
 31
0.0
210
0.0
220
0.0
230
1.0
100
AcDbText
  0
LINE
  5
507
100
AcDbEntity
  8
1
  6
CONTINUOUS
 62
     7
100
AcDbLine
 10
52.4275
 20
126.8529
 30
0.0
 11
99.9897
 21
126.8529
 31
0.0
  0
LINE
  5
508
100
AcDbEntity
  8
1
  6
CONTINUOUS
 62
     2
100
AcDbLine
 10
249.0663
 20
-2.1235
 30
0.0
 11
253.8663
 21
-2.1235
 31
0.0
  0
LINE
  5
509
100
AcDbEntity
  8
1
  6
CONTINUOUS
 62
     2
100
AcDbLine
 10
251.4663
 20
2.0334
 30
0.0
 11
249.0663
 21
-2.1235
 31
0.0
  0
LINE
  5
50A
100
AcDbEntity
  8
1
  6
CONTINUOUS
 62
     2
100
AcDbLine
 10
251.4663
 20
2.0334
 30
0.0
 11
253.8663
 21
-2.1235
 31
0.0
  0
TEXT
  5
50B
100
AcDbEntity
  8
1
  6
CONTINUOUS
 62
     2
100
AcDbText
 10
250.5086
 20
-1.7335
 30
0.0
 40
2.4
  1
4
  7
MONOTXT
 72
     4
 11
251.3684
 21
-0.5335
 31
0.0
210
0.0
220
0.0
230
1.0
100
AcDbText
  0
TEXT
  5
50C
100
AcDbEntity
  8
1
  6
CONTINUOUS
 62
     2
100
AcDbText
 10
256.2015
 20
-1.6168
 30
0.0
 40
2.4
  1
ADDED METRIC
  7
MONOTXT
 72
     4
 11
269.3069
 21
-0.4168
 31
0.0
210
0.0
220
0.0
230
1.0
100
AcDbText
  0
LINE
  5
50D
100
AcDbEntity
  8
1
  6
CONTINUOUS
 62
     2
100
AcDbLine
 10
253.4239
 20
-91.2273
 30
0.0
 11
258.2239
 21
-91.2273
 31
0.0
  0
LINE
  5
50E
100
AcDbEntity
  8
1
  6
CONTINUOUS
 62
     2
100
AcDbLine
 10
255.8239
 20
-87.0704
 30
0.0
 11
253.4239
 21
-91.2273
 31
0.0
  0
LINE
  5
50F
100
AcDbEntity
  8
1
  6
CONTINUOUS
 62
     2
100
AcDbLine
 10
255.8239
 20
-87.0704
 30
0.0
 11
258.2239
 21
-91.2273
 31
0.0
  0
TEXT
  5
510
100
AcDbEntity
  8
1
  6
CONTINUOUS
 62
     2
100
AcDbText
 10
254.9598
 20
-90.8485
 30
0.0
 40
2.4
  1
4
  7
MONOTXT
 72
     4
 11
255.8196
 21
-89.6485
 31
0.0
210
0.0
220
0.0
230
1.0
100
AcDbText
  0
TEXT
  5
511
100
AcDbEntity
  8
1
  6
CONTINUOUS
 62
     7
100
AcDbText
 10
262.2876
 20
-90.8644
 30
0.0
 40
2.3973
  1
04/29/94
  7
MONOTXT
210
0.0
220
0.0
230
1.0
100
AcDbText
  0
TEXT
  5
512
100
AcDbEntity
  8
1
  6
CONTINUOUS
 62
     7
100
AcDbText
 10
104.6898
 20
247.9718
 30
0.0
 40
3.0
  1
JB OPENING
  7
MONOTXT
 72
     4
 11
117.9536
 21
249.4718
 31
0.0
210
0.0
220
0.0
230
1.0
100
AcDbText
  0
TEXT
  5
513
100
AcDbEntity
  8
1
  6
CONTINUOUS
 62
     7
100
AcDbText
 10
109.1898
 20
242.5718
 30
0.0
 40
3.0
  1
82.5mm
  7
MONOTXT
 72
     4
 11
117.9536
 21
244.0718
 31
0.0
210
0.0
220
0.0
230
1.0
100
AcDbText
  0
TEXT
  5
514
100
AcDbEntity
  8
1
  6
CONTINUOUS
 62
     7
100
AcDbText
 10
103.7922
 20
237.1718
 30
0.0
 40
3.0
  1
SQUARE MIN.
  7
MONOTXT
 72
     4
 11
117.9536
 21
238.6718
 31
0.0
210
0.0
220
0.0
230
1.0
100
AcDbText
  0
TEXT
  5
515
100
AcDbEntity
  8
1
  6
CONTINUOUS
 62
     2
100
AcDbText
 10
250.8957
 20
324.6928
 30
0.0
 40
2.64
  1
1.    COMBINATION SIGNAL HEADS:
  7
MONOTXT
 11
250.8957
 21
327.3328
 31
0.0
210
0.0
220
0.0
230
1.0
100
AcDbText
 73
     3
  0
TEXT
  5
516
100
AcDbEntity
  8
1
  6
CONTINUOUS
 62
     2
100
AcDbText
 10
250.8957
 20
319.4128
 30
0.0
 40
2.64
  1
 
  7
MONOTXT
 11
250.8957
 21
322.0528
 31
0.0
210
0.0
220
0.0
230
1.0
100
AcDbText
 73
     3
  0
TEXT
  5
517
100
AcDbEntity
  8
1
  6
CONTINUOUS
 62
     2
100
AcDbText
 10
250.8957
 20
314.1328
 30
0.0
 40
2.64
  1
A.    TWO-WAY, THREE-WAY, AND FOUR-WAY SIGNAL HEAD ASSEMBLIES SHALL HAVE
  7
MONOTXT
 11
250.8957
 21
316.7728
 31
0.0
210
0.0
220
0.0
230
1.0
100
AcDbText
 73
     3
  0
TEXT
  5
518
100
AcDbEntity
  8
1
  6
CONTINUOUS
 62
     2
100
AcDbText
 10
250.8957
 20
308.8528
 30
0.0
 40
2.64
  1
THE RED SECTIONS LEVEL. IN SUCH CASES THE BOTTOM OF THE LOWEST SIGNAL
  7
MONOTXT
 11
250.8957
 21
311.4928
 31
0.0
210
0.0
220
0.0
230
1.0
100
AcDbText
 73
     3
  0
TEXT
  5
519
100
AcDbEntity
  8
1
  6
CONTINUOUS
 62
     2
100
AcDbText
 10
250.8957
 20
303.5728
 30
0.0
 40
2.64
  1
HEAD SHALL BE 5.2m (PLUS OR MINUS 75mm) ABOVE THE PAVEMENT
  7
MONOTXT
 11
250.8957
 21
306.2128
 31
0.0
210
0.0
220
0.0
230
1.0
100
AcDbText
 73
     3
  0
TEXT
  5
51A
100
AcDbEntity
  8
1
  6
CONTINUOUS
 62
     2
100
AcDbText
 10
250.8957
 20
298.2928
 30
0.0
 40
2.64
  1
DIRECTLY BELOW IT, UNLESS OTHERWISE SPECIFIED.
  7
MONOTXT
 11
250.8957
 21
300.9328
 31
0.0
210
0.0
220
0.0
230
1.0
100
AcDbText
 73
     3
  0
TEXT
  5
51B
100
AcDbEntity
  8
1
  6
CONTINUOUS
 62
     2
100
AcDbText
 10
250.8957
 20
293.0128
 30
0.0
 40
2.64
  1
 
  7
MONOTXT
 11
250.8957
 21
295.6528
 31
0.0
210
0.0
220
0.0
230
1.0
100
AcDbText
 73
     3
  0
TEXT
  5
51C
100
AcDbEntity
  8
1
  6
CONTINUOUS
 62
     2
100
AcDbText
 10
250.8957
 20
287.7328
 30
0.0
 40
2.64
  1
B.    THE BOTTOM HORIZONTAL BRACKET OF THE SIGNAL HEAD ASSEMBLIES SHALL
  7
MONOTXT
 11
250.8957
 21
290.3728
 31
0.0
210
0.0
220
0.0
230
1.0
100
AcDbText
 73
     3
  0
TEXT
  5
51D
100
AcDbEntity
  8
1
  6
CONTINUOUS
 62
     2
100
AcDbText
 10
250.8957
 20
282.4528
 30
0.0
 40
2.64
  1
BE ON THE BOTTOM OF THE LOWEST HEAD.
  7
MONOTXT
 11
250.8957
 21
285.0928
 31
0.0
210
0.0
220
0.0
230
1.0
100
AcDbText
 73
     3
  0
TEXT
  5
51E
100
AcDbEntity
  8
1
  6
CONTINUOUS
 62
     2
100
AcDbText
 10
250.8957
 20
277.1728
 30
0.0
 40
2.64
  1
 
  7
MONOTXT
 11
250.8957
 21
279.8128
 31
0.0
210
0.0
220
0.0
230
1.0
100
AcDbText
 73
     3
  0
TEXT
  5
51F
100
AcDbEntity
  8
1
  6
CONTINUOUS
 62
     2
100
AcDbText
 10
250.8957
 20
271.8928
 30
0.0
 40
2.64
  1
C.    PIPING TO COMPENSATE FOR DIFFERENT LENGTH SECTIONS SHALL BE DONE
  7
MONOTXT
 11
250.8957
 21
274.5328
 31
0.0
210
0.0
220
0.0
230
1.0
100
AcDbText
 73
     3
  0
TEXT
  5
520
100
AcDbEntity
  8
1
  6
CONTINUOUS
 62
     2
100
AcDbText
 10
250.8957
 20
266.6128
 30
0.0
 40
2.64
  1
AT THE BOTTOM AS SHOWN ON TES-90. THE PIPE SHALL BE 38.1mm GALVANIZED
  7
MONOTXT
 11
250.8957
 21
269.2528
 31
0.0
210
0.0
220
0.0
230
1.0
100
AcDbText
 73
     3
  0
TEXT
  5
521
100
AcDbEntity
  8
1
  6
CONTINUOUS
 62
     2
100
AcDbText
 10
250.8957
 20
261.3328
 30
0.0
 40
2.64
  1
STEEL PIPE PAINTED TO MATCH SIGNAL HEADS.
  7
MONOTXT
 11
250.8957
 21
263.9728
 31
0.0
210
0.0
220
0.0
230
1.0
100
AcDbText
 73
     3
  0
TEXT
  5
522
100
AcDbEntity
  8
1
  6
CONTINUOUS
 62
     2
100
AcDbText
 10
250.8957
 20
256.0528
 30
0.0
 40
2.64
  1
 
  7
MONOTXT
 11
250.8957
 21
258.6928
 31
0.0
210
0.0
220
0.0
230
1.0
100
AcDbText
 73
     3
  0
TEXT
  5
523
100
AcDbEntity
  8
1
  6
CONTINUOUS
 62
     2
100
AcDbText
 10
250.8957
 20
250.7728
 30
0.0
 40
2.64
  1
2.    LENSE ARRANGEMENT:
  7
MONOTXT
 11
250.8957
 21
253.4128
 31
0.0
210
0.0
220
0.0
230
1.0
100
AcDbText
 73
     3
  0
TEXT
  5
524
100
AcDbEntity
  8
1
  6
CONTINUOUS
 62
     2
100
AcDbText
 10
250.8957
 20
245.4928
 30
0.0
 40
2.64
  1
 
  7
MONOTXT
 11
250.8957
 21
248.1328
 31
0.0
210
0.0
220
0.0
230
1.0
100
AcDbText
 73
     3
  0
TEXT
  5
525
100
AcDbEntity
  8
1
  6
CONTINUOUS
 62
     2
100
AcDbText
 10
250.8957
 20
240.2128
 30
0.0
 40
2.64
  1
A.    LENSE ARRANGEMENT (A) IS TYPICAL FOR DUAL INDICATIONS ON STANDARD
  7
MONOTXT
 11
250.8957
 21
242.8528
 31
0.0
210
0.0
220
0.0
230
1.0
100
AcDbText
 73
     3
  0
TEXT
  5
526
100
AcDbEntity
  8
1
  6
CONTINUOUS
 62
     2
100
AcDbText
 10
250.8957
 20
234.9328
 30
0.0
 40
2.64
  1
LANE TREATMENT.
  7
MONOTXT
 11
250.8957
 21
237.5728
 31
0.0
210
0.0
220
0.0
230
1.0
100
AcDbText
 73
     3
  0
TEXT
  5
527
100
AcDbEntity
  8
1
  6
CONTINUOUS
 62
     2
100
AcDbText
 10
250.8957
 20
229.6528
 30
0.0
 40
2.64
  1
 
  7
MONOTXT
 11
250.8957
 21
232.2928
 31
0.0
210
0.0
220
0.0
230
1.0
100
AcDbText
 73
     3
  0
TEXT
  5
528
100
AcDbEntity
  8
1
  6
CONTINUOUS
 62
     2
100
AcDbText
 10
250.8957
 20
224.3728
 30
0.0
 40
2.64
  1
B.    LENSE ARRANGEMENT (B) IS TYPICAL FOR EXCLUSIVE (PROTECTED) LEFT TURN
  7
MONOTXT
 11
250.8957
 21
227.0128
 31
0.0
210
0.0
220
0.0
230
1.0
100
AcDbText
 73
     3
  0
TEXT
  5
529
100
AcDbEntity
  8
1
  6
CONTINUOUS
 62
     2
100
AcDbText
 10
250.8957
 20
219.0928
 30
0.0
 40
2.64
  1
MOVEMENTS.
  7
MONOTXT
 11
250.8957
 21
221.7328
 31
0.0
210
0.0
220
0.0
230
1.0
100
AcDbText
 73
     3
  0
TEXT
  5
52A
100
AcDbEntity
  8
1
  6
CONTINUOUS
 62
     2
100
AcDbText
 10
250.8957
 20
213.8128
 30
0.0
 40
2.64
  1
 
  7
MONOTXT
 11
250.8957
 21
216.4528
 31
0.0
210
0.0
220
0.0
230
1.0
100
AcDbText
 73
     3
  0
TEXT
  5
52B
100
AcDbEntity
  8
1
  6
CONTINUOUS
 62
     2
100
AcDbText
 10
250.8957
 20
208.5328
 30
0.0
 40
2.64
  1
C.    LENSE ARRANGEMENT (C) IS TYPICAL FOR SPECIAL USE LANE TREATMENT
  7
MONOTXT
 11
250.8957
 21
211.1728
 31
0.0
210
0.0
220
0.0
230
1.0
100
AcDbText
 73
     3
  0
TEXT
  5
52C
100
AcDbEntity
  8
1
  6
CONTINUOUS
 62
     2
100
AcDbText
 10
250.8957
 20
203.2528
 30
0.0
 40
2.64
  1
WHERE ONLY ONE SIGNAL HEAD IS USED TO CONTROL THE LANE.
  7
MONOTXT
 11
250.8957
 21
205.8928
 31
0.0
210
0.0
220
0.0
230
1.0
100
AcDbText
 73
     3
  0
TEXT
  5
52D
100
AcDbEntity
  8
1
  6
CONTINUOUS
 62
     2
100
AcDbText
 10
250.8957
 20
197.9728
 30
0.0
 40
2.64
  1
 
  7
MONOTXT
 11
250.8957
 21
200.6128
 31
0.0
210
0.0
220
0.0
230
1.0
100
AcDbText
 73
     3
  0
TEXT
  5
52E
100
AcDbEntity
  8
1
  6
CONTINUOUS
 62
     2
100
AcDbText
 10
250.8957
 20
192.6928
 30
0.0
 40
2.64
  1
D.    LENSE ARRANGEMENT (D) IS TYPICAL FOR SITUATION ALLOWING A RIGHT
  7
MONOTXT
 11
250.8957
 21
195.3328
 31
0.0
210
0.0
220
0.0
230
1.0
100
AcDbText
 73
     3
  0
TEXT
  5
52F
100
AcDbEntity
  8
1
  6
CONTINUOUS
 62
     2
100
AcDbText
 10
250.8957
 20
187.4128
 30
0.0
 40
2.64
  1
TURN ON RED THAT IS EXCLUSIVE (PROTECTED).
  7
MONOTXT
 11
250.8957
 21
190.0528
 31
0.0
210
0.0
220
0.0
230
1.0
100
AcDbText
 73
     3
  0
TEXT
  5
530
100
AcDbEntity
  8
1
  6
CONTINUOUS
 62
     2
100
AcDbText
 10
250.8957
 20
182.1328
 30
0.0
 40
2.64
  1
 
  7
MONOTXT
 11
250.8957
 21
184.7728
 31
0.0
210
0.0
220
0.0
230
1.0
100
AcDbText
 73
     3
  0
TEXT
  5
531
100
AcDbEntity
  8
1
  6
CONTINUOUS
 62
     2
100
AcDbText
 10
250.8957
 20
176.8528
 30
0.0
 40
2.64
  1
E.    LENSE ARRANGEMENT (E) IS TYPICAL FOR SITUATION ALLOWING PROTECTED
  7
MONOTXT
 11
250.8957
 21
179.4928
 31
0.0
210
0.0
220
0.0
230
1.0
100
AcDbText
 73
     3
  0
TEXT
  5
532
100
AcDbEntity
  8
1
  6
CONTINUOUS
 62
     2
100
AcDbText
 10
250.8957
 20
171.5728
 30
0.0
 40
2.64
  1
AND PERMISSIVE LEFT TURN MOVEMENTS DURING THE DIFFERENT PHASES.
  7
MONOTXT
 11
250.8957
 21
174.2128
 31
0.0
210
0.0
220
0.0
230
1.0
100
AcDbText
 73
     3
  0
TEXT
  5
533
100
AcDbEntity
  8
1
  6
CONTINUOUS
 62
     2
100
AcDbText
 10
250.8957
 20
166.2928
 30
0.0
 40
2.64
  1
 
  7
MONOTXT
 11
250.8957
 21
168.9328
 31
0.0
210
0.0
220
0.0
230
1.0
100
AcDbText
 73
     3
  0
TEXT
  5
534
100
AcDbEntity
  8
1
  6
CONTINUOUS
 62
     2
100
AcDbText
 10
250.8957
 20
161.0128
 30
0.0
 40
2.64
  1
F.    LENSE ARRANGEMENT (F) IS TYPICAL FOR DUAL INDICATIONS ON STANDARD
  7
MONOTXT
 11
250.8957
 21
163.6528
 31
0.0
210
0.0
220
0.0
230
1.0
100
AcDbText
 73
     3
  0
TEXT
  5
535
100
AcDbEntity
  8
1
  6
CONTINUOUS
 62
     2
100
AcDbText
 10
250.8957
 20
155.7328
 30
0.0
 40
2.64
  1
LANE TREATMENT WHERE THERE IS A VERTICAL SIGHT DISTANCE OR OBSTRUCTION
  7
MONOTXT
 11
250.8957
 21
158.3728
 31
0.0
210
0.0
220
0.0
230
1.0
100
AcDbText
 73
     3
  0
TEXT
  5
536
100
AcDbEntity
  8
1
  6
CONTINUOUS
 62
     2
100
AcDbText
 10
250.8957
 20
150.4528
 30
0.0
 40
2.64
  1
PROBLEM.
  7
MONOTXT
 11
250.8957
 21
153.0928
 31
0.0
210
0.0
220
0.0
230
1.0
100
AcDbText
 73
     3
  0
TEXT
  5
537
100
AcDbEntity
  8
1
  6
CONTINUOUS
 62
     2
100
AcDbText
 10
250.8957
 20
145.1728
 30
0.0
 40
2.64
  1
 
  7
MONOTXT
 11
250.8957
 21
147.8128
 31
0.0
210
0.0
220
0.0
230
1.0
100
AcDbText
 73
     3
  0
TEXT
  5
538
100
AcDbEntity
  8
1
  6
CONTINUOUS
 62
     2
100
AcDbText
 10
250.8957
 20
139.8928
 30
0.0
 40
2.64
  1
G.    LENSE ARRANGEMENT (G) IS USED FOR REVERSIBLE LANE SITUATIONS.
  7
MONOTXT
 11
250.8957
 21
142.5328
 31
0.0
210
0.0
220
0.0
230
1.0
100
AcDbText
 73
     3
  0
TEXT
  5
539
100
AcDbEntity
  8
1
  6
CONTINUOUS
 62
     2
100
AcDbText
 10
250.8957
 20
134.6128
 30
0.0
 40
2.64
  1
 
  7
MONOTXT
 11
250.8957
 21
137.2528
 31
0.0
210
0.0
220
0.0
230
1.0
100
AcDbText
 73
     3
  0
TEXT
  5
53A
100
AcDbEntity
  8
1
  6
CONTINUOUS
 62
     2
100
AcDbText
 10
250.8957
 20
129.3328
 30
0.0
 40
2.64
  1
3.   SUPPORT HARDWARE:
  7
MONOTXT
 11
250.8957
 21
131.9728
 31
0.0
210
0.0
220
0.0
230
1.0
100
AcDbText
 73
     3
  0
TEXT
  5
53B
100
AcDbEntity
  8
1
  6
CONTINUOUS
 62
     2
100
AcDbText
 10
250.8957
 20
124.0528
 30
0.0
 40
2.64
  1
 
  7
MONOTXT
 11
250.8957
 21
126.6928
 31
0.0
210
0.0
220
0.0
230
1.0
100
AcDbText
 73
     3
  0
TEXT
  5
53C
100
AcDbEntity
  8
1
  6
CONTINUOUS
 62
     2
100
AcDbText
 10
250.8957
 20
118.7728
 30
0.0
 40
2.64
  1
A.   ALL UPPER SIGNAL SUPPORT HARDWARE AND PIPING UP TO, AND INCLUDING THE
  7
MONOTXT
 11
250.8957
 21
121.4128
 31
0.0
210
0.0
220
0.0
230
1.0
100
AcDbText
 73
     3
  0
TEXT
  5
53D
100
AcDbEntity
  8
1
  6
CONTINUOUS
 62
     2
100
AcDbText
 10
250.8957
 20
113.4928
 30
0.0
 40
2.64
  1
WIRE INLET FITTING MUST BE FERROUS METAL FOR SIGNAL DISPLAYS OF TWO OR
  7
MONOTXT
 11
250.8957
 21
116.1328
 31
0.0
210
0.0
220
0.0
230
1.0
100
AcDbText
 73
     3
  0
TEXT
  5
53E
100
AcDbEntity
  8
1
  6
CONTINUOUS
 62
     2
100
AcDbText
 10
250.8957
 20
108.2128
 30
0.0
 40
2.64
  1
MORE HEADS.
  7
MONOTXT
 11
250.8957
 21
110.8528
 31
0.0
210
0.0
220
0.0
230
1.0
100
AcDbText
 73
     3
  0
TEXT
  5
53F
100
AcDbEntity
  8
1
  6
CONTINUOUS
 62
     2
100
AcDbText
 10
250.8957
 20
102.9328
 30
0.0
 40
2.64
  1
 
  7
MONOTXT
 11
250.8957
 21
105.5728
 31
0.0
210
0.0
220
0.0
230
1.0
100
AcDbText
 73
     3
  0
TEXT
  5
540
100
AcDbEntity
  8
1
  6
CONTINUOUS
 62
     2
100
AcDbText
 10
250.8957
 20
97.6528
 30
0.0
 40
2.64
  1
B.   FOUR-WAY CENTER HUB REQUIRED FOR ALL APPLICATIONS.
  7
MONOTXT
 11
250.8957
 21
100.2928
 31
0.0
210
0.0
220
0.0
230
1.0
100
AcDbText
 73
     3
  0
ENDSEC
  0
SECTION
  2
OBJECTS
  0
DICTIONARY
  5
19
100
AcDbDictionary
  3
ACAD_GROUP
350
1A
  3
ACAD_MLINESTYLE
350
1B
  0
DICTIONARY
  5
1A
102
{ACAD_REACTORS
330
19
102
}
100
AcDbDictionary
  0
DICTIONARY
  5
1B
102
{ACAD_REACTORS
330
19
102
}
100
AcDbDictionary
  3
STANDARD
350
1C
  0
MLINESTYLE
  5
1C
102
{ACAD_REACTORS
330
1B
102
}
100
AcDbMlineStyle
  2
STANDARD
 70
     0
  3

 62
     0
 51
90.0
 52
90.0
 71
     2
 49
0.5
 62
   256
  6
BYLAYER
 49
-0.5
 62
   256
  6
BYLAYER
  0
ENDSEC
  0
EOF
