  0
SECTION
  2
HEADER
  9
$ACADVER
  1
AC1014
  9
$ACADMAINTVER
 70
     0
  9
$DWGCODEPAGE
  3
ANSI_1252
  9
$INSBASE
 10
0.0
 20
0.0
 30
0.0
  9
$EXTMIN
 10
-2.935167
 20
0.485917
 30
0.0
  9
$EXTMAX
 10
3.599333
 20
4.002917
 30
0.0
  9
$LIMMIN
 10
0.0
 20
0.0
  9
$LIMMAX
 10
12.0
 20
9.0
  9
$ORTHOMODE
 70
     0
  9
$REGENMODE
 70
     1
  9
$FILLMODE
 70
     1
  9
$QTEXTMODE
 70
     0
  9
$MIRRTEXT
 70
     1
  9
$DRAGMODE
 70
     2
  9
$LTSCALE
 40
1.0
  9
$OSMODE
 70
     0
  9
$ATTMODE
 70
     1
  9
$TEXTSIZE
 40
0.2
  9
$TRACEWID
 40
0.05
  9
$TEXTSTYLE
  7
STANDARD
  9
$CLAYER
  8
0
  9
$CELTYPE
  6
CONTINUOUS
  9
$CECOLOR
 62
   256
  9
$CELTSCALE
 40
1.0
  9
$DELOBJ
 70
     1
  9
$DISPSILH
 70
     0
  9
$DIMSCALE
 40
1.0
  9
$DIMASZ
 40
0.18
  9
$DIMEXO
 40
0.0625
  9
$DIMDLI
 40
0.38
  9
$DIMRND
 40
0.0
  9
$DIMDLE
 40
0.0
  9
$DIMEXE
 40
0.18
  9
$DIMTP
 40
0.0
  9
$DIMTM
 40
0.0
  9
$DIMTXT
 40
0.18
  9
$DIMCEN
 40
0.09
  9
$DIMTSZ
 40
0.0
  9
$DIMTOL
 70
     0
  9
$DIMLIM
 70
     0
  9
$DIMTIH
 70
     1
  9
$DIMTOH
 70
     1
  9
$DIMSE1
 70
     0
  9
$DIMSE2
 70
     0
  9
$DIMTAD
 70
     0
  9
$DIMZIN
 70
     0
  9
$DIMBLK
  1

  9
$DIMASO
 70
     1
  9
$DIMSHO
 70
     1
  9
$DIMPOST
  1

  9
$DIMAPOST
  1

  9
$DIMALT
 70
     0
  9
$DIMALTD
 70
     2
  9
$DIMALTF
 40
25.4
  9
$DIMLFAC
 40
1.0
  9
$DIMTOFL
 70
     0
  9
$DIMTVP
 40
0.0
  9
$DIMTIX
 70
     0
  9
$DIMSOXD
 70
     0
  9
$DIMSAH
 70
     0
  9
$DIMBLK1
  1

  9
$DIMBLK2
  1

  9
$DIMSTYLE
  2
STANDARD
  9
$DIMCLRD
 70
     0
  9
$DIMCLRE
 70
     0
  9
$DIMCLRT
 70
     0
  9
$DIMTFAC
 40
1.0
  9
$DIMGAP
 40
0.09
  9
$DIMJUST
 70
     0
  9
$DIMSD1
 70
     0
  9
$DIMSD2
 70
     0
  9
$DIMTOLJ
 70
     1
  9
$DIMTZIN
 70
     0
  9
$DIMALTZ
 70
     0
  9
$DIMALTTZ
 70
     0
  9
$DIMFIT
 70
     3
  9
$DIMUPT
 70
     0
  9
$DIMUNIT
 70
     2
  9
$DIMDEC
 70
     4
  9
$DIMTDEC
 70
     4
  9
$DIMALTU
 70
     2
  9
$DIMALTTD
 70
     2
  9
$DIMTXSTY
  7
STANDARD
  9
$DIMAUNIT
 70
     0
  9
$LUNITS
 70
     2
  9
$LUPREC
 70
     4
  9
$SKETCHINC
 40
0.1
  9
$FILLETRAD
 40
0.0
  9
$AUNITS
 70
     0
  9
$AUPREC
 70
     0
  9
$MENU
  1
acad
  9
$ELEVATION
 40
0.0
  9
$PELEVATION
 40
0.0
  9
$THICKNESS
 40
0.0
  9
$LIMCHECK
 70
     0
  9
$BLIPMODE
 70
     1
  9
$CHAMFERA
 40
0.0
  9
$CHAMFERB
 40
0.0
  9
$CHAMFERC
 40
0.0
  9
$CHAMFERD
 40
0.0
  9
$SKPOLY
 70
     0
  9
$TDCREATE
 40
2451800.346273148
  9
$TDUPDATE
 40
2451800.346273148
  9
$TDINDWG
 40
0.0000000000
  9
$TDUSRTIMER
 40
0.0000000000
  9
$USRTIMER
 70
     1
  9
$ANGBASE
 50
0.0
  9
$ANGDIR
 70
     0
  9
$PDMODE
 70
     0
  9
$PDSIZE
 40
0.0
  9
$PLINEWID
 40
0.0
  9
$COORDS
 70
     0
  9
$SPLFRAME
 70
     0
  9
$SPLINETYPE
 70
     6
  9
$SPLINESEGS
 70
    10
  9
$ATTDIA
 70
     0
  9
$ATTREQ
 70
     1
  9
$HANDLING
 70
     1
  9
$HANDSEED
  5
493
  9
$SURFTAB1
 70
     6
  9
$SURFTAB2
 70
     6
  9
$SURFTYPE
 70
     6
  9
$SURFU
 70
     6
  9
$SURFV
 70
     6
  9
$UCSNAME
  2

  9
$UCSORG
 10
0.0
 20
0.0
 30
0.0
  9
$UCSXDIR
 10
1.0
 20
0.0
 30
0.0
  9
$UCSYDIR
 10
0.0
 20
1.0
 30
0.0
  9
$PUCSNAME
  2

  9
$PUCSORG
 10
0.0
 20
0.0
 30
0.0
  9
$PUCSXDIR
 10
1.0
 20
0.0
 30
0.0
  9
$PUCSYDIR
 10
0.0
 20
1.0
 30
0.0
  9
$USERI1
 70
     0
  9
$USERI2
 70
     0
  9
$USERI3
 70
     0
  9
$USERI4
 70
     0
  9
$USERI5
 70
     0
  9
$USERR1
 40
0.0
  9
$USERR2
 40
0.0
  9
$USERR3
 40
0.0
  9
$USERR4
 40
0.0
  9
$USERR5
 40
0.0
  9
$WORLDVIEW
 70
     1
  9
$SHADEDGE
 70
     3
  9
$SHADEDIF
 70
    70
  9
$TILEMODE
 70
     1
  9
$MAXACTVP
 70
    16
  9
$PINSBASE
 10
0.0
 20
0.0
 30
0.0
  9
$PLIMCHECK
 70
     0
  9
$PEXTMIN
 10
-1.000000E+20
 20
-1.000000E+20
 30
-1.000000E+20
  9
$PEXTMAX
 10
-1.000000E+20
 20
-1.000000E+20
 30
-1.000000E+20
  9
$PLIMMIN
 10
0.0
 20
0.0
  9
$PLIMMAX
 10
12.0
 20
9.0
  9
$UNITMODE
 70
     0
  9
$VISRETAIN
 70
     0
  9
$PLINEGEN
 70
     1
  9
$PSLTSCALE
 70
     0
  9
$TREEDEPTH
 70
  3020
  9
$PICKSTYLE
 70
     1
  9
$CMLSTYLE
  2
STANDARD
  9
$CMLJUST
 70
     0
  9
$CMLSCALE
 40
1.0
  9
$PROXYGRAPHICS
 70
     0
  9
$MEASUREMENT
 70
     0
  0
ENDSEC
  0
SECTION
  2
CLASSES
  0
CLASS
  1
LWPOLYLINE
  2
AcDbPolyline
  3
"AutoCAD"
 90
        0
280
     0
281
     1
  0
CLASS
  1
IMAGE
  2
AcDbRasterImage
  3
ISM
 90
      127
280
     0
281
     1
  0
CLASS
  1
OLE2FRAME
  2
AcDbOle2Frame
  3
""
 90
        0
280
     0
281
     1
  0
CLASS
  1
HATCH
  2
AcDbHatch
  3
"ACAD_SEDONA"
 90
        0
280
     0
281
     1
  0
CLASS
  1
DICTIONARYVAR
  2
AcDbDictionaryVar
  3
"AutoCAD"
 90
        0
280
     0
281
     0
  0
CLASS
  1
RASTERVARIABLES
  2
AcDbRasterVariables
  3
ISM
 90
        0
280
     0
281
     0
  0
CLASS
  1
IMAGEDEF
  2
AcDbRasterImageDef
  3
ISM
 90
        0
280
     0
281
     0
  0
CLASS
  1
IMAGEDEF_REACTOR
  2
AcDbRasterImageDefReactor
  3
ISM
 90
        1
280
     0
281
     0
  0
CLASS
  1
IDBUFFER
  2
AcDbIdBuffer
  3
"Acad"
 90
        0
280
     0
281
     0
  0
CLASS
  1
SPATIAL_FILTER
  2
AcDbSpatialFilter
  3
"Acad"
 90
        0
280
     0
281
     0
  0
CLASS
  1
XRECORD
  2
AcDbXrecord
  3
"<Built In>"
 90
        0
280
     0
281
     0
  0
CLASS
  1
SORTENTSTABLE
  2
AcDbSortentsTable
  3
"AutoCAD"
 90
        0
280
     0
281
     0
  0
CLASS
  1
LAYER_INDEX
  2
AcDbLayerIndex
  3
"Acad"
 90
        0
280
     0
281
     0
  0
CLASS
  1
SPATIAL_INDEX
  2
AcDbSpatialIndex
  3
"Acad"
 90
        0
280
     0
281
     0
  0
CLASS
  1
OBJECT_PTR
  2
CAseDLPNTableRecord
  3
"ASE-LPNTableRecord"
 90
        1
280
     0
281
     0
  0
ENDSEC
  0
SECTION
  2
TABLES
  0
TABLE
  2
VPORT
  5
7
100
AcDbSymbolTable
 70
     1
  0
VPORT
  5
492
100
AcDbSymbolTableRecord
100
AcDbViewportTableRecord
  2
*ACTIVE
 70
     0
 10
0.0
 20
0.0
 11
1.0
 21
1.0
 12
0.0
 22
0.0
 13
0.0
 23
0.0
 14
0.0
 24
0.0
 15
0.0
 25
0.0
 16
0.0
 26
0.0
 36
1.0
 17
0.081738
 27
2.244375
 37
0.0
 40
4.07075
 41
1.545
 42
50.0
 43
0.0
 44
0.0
 50
0.0
 51
0.0
 71
     0
 72
   100
 73
     1
 74
     0
 75
     0
 76
     0
 77
     0
 78
     0
  0
ENDTAB
  0
TABLE
  2
LTYPE
  5
4
100
AcDbSymbolTable
 70
     9
  0
LTYPE
  5
11
100
AcDbSymbolTableRecord
100
AcDbLinetypeTableRecord
  2
BYBLOCK
 70
     0
  3

 72
    65
 73
     0
 40
0.0
  0
LTYPE
  5
12
100
AcDbSymbolTableRecord
100
AcDbLinetypeTableRecord
  2
BYLAYER
 70
     0
  3

 72
    65
 73
     0
 40
0.0
  0
LTYPE
  5
13
100
AcDbSymbolTableRecord
100
AcDbLinetypeTableRecord
  2
CONTINUOUS
 70
     0
  3
Solid line
 72
    65
 73
     0
 40
0.0
  0
LTYPE
  5
22
102
{ACAD_XDICTIONARY
360
8825000084000000
102
}
100
AcDbSymbolTableRecord
100
AcDbLinetypeTableRecord
  2
DOT
 70
    64
  3
. . . . . . . . . . . . . . . . . . . . . . . . . . . . . . . . .
 72
    65
 73
     2
 40
0.25
 49
0.0
 74
     0
 49
-0.25
 74
     0
  0
LTYPE
  5
23
102
{ACAD_XDICTIONARY
360
8825000084000000
102
}
100
AcDbSymbolTableRecord
100
AcDbLinetypeTableRecord
  2
HIDDEN
 70
    64
  3
__ __ __ __ __ __ __ __ __ __ __ __ __ __ __ __ __ __ __ __ __ 
 72
    65
 73
     2
 40
0.375
 49
0.25
 74
     0
 49
-0.125
 74
     0
  0
LTYPE
  5
24
102
{ACAD_XDICTIONARY
360
8825000084000000
102
}
100
AcDbSymbolTableRecord
100
AcDbLinetypeTableRecord
  2
DASHED
 70
    64
  3
__ __ __ __ __ __ __ __ __ __ __ __ __ __ __ __ __ __ __ __ __
 72
    65
 73
     2
 40
0.75
 49
0.5
 74
     0
 49
-0.25
 74
     0
  0
LTYPE
  5
25
102
{ACAD_XDICTIONARY
360
8825000084000000
102
}
100
AcDbSymbolTableRecord
100
AcDbLinetypeTableRecord
  2
DASHDOT
 70
    64
  3
__ . __ . __ . __ . __ . __ . __ . __ . __ . __ . __ . __ . _
 72
    65
 73
     4
 40
1.0
 49
0.5
 74
     0
 49
-0.25
 74
     0
 49
0.0
 74
     0
 49
-0.25
 74
     0
  0
LTYPE
  5
26
102
{ACAD_XDICTIONARY
360
8825000084000000
102
}
100
AcDbSymbolTableRecord
100
AcDbLinetypeTableRecord
  2
DIVIDE
 70
    64
  3
____ . . ____ . . ____ . . ____ . . ____ . . ____ . . ____ . .
 72
    65
 73
     6
 40
1.25
 49
0.5
 74
     0
 49
-0.25
 74
     0
 49
0.0
 74
     0
 49
-0.25
 74
     0
 49
0.0
 74
     0
 49
-0.25
 74
     0
  0
LTYPE
  5
27
102
{ACAD_XDICTIONARY
360
8825000084000000
102
}
100
AcDbSymbolTableRecord
100
AcDbLinetypeTableRecord
  2
CENTER
 70
    64
  3
____ _ ____ _ ____ _ ____ _ ____ _ ____ _ ____ _ ____ _ ____ _
 72
    65
 73
     4
 40
2.0
 49
1.25
 74
     0
 49
-0.25
 74
     0
 49
0.25
 74
     0
 49
-0.25
 74
     0
  0
ENDTAB
  0
TABLE
  2
LAYER
  5
2
100
AcDbSymbolTable
 70
     6
  0
LAYER
  5
14
102
{ACAD_XDICTIONARY
360
5F205F5F5F5F205F
102
}
100
AcDbSymbolTableRecord
100
AcDbLayerTableRecord
  2
0
 70
     0
 62
     7
  6
CONTINUOUS
  0
LAYER
  5
1E
102
{ACAD_XDICTIONARY
360
5F205F5F5F5F205F
102
}
100
AcDbSymbolTableRecord
100
AcDbLayerTableRecord
  2
CONSTRUCTION_CLASS
 70
    64
 62
     7
  6
CONTINUOUS
  0
LAYER
  5
2A
102
{ACAD_XDICTIONARY
360
5F205F5F5F5F205F
102
}
100
AcDbSymbolTableRecord
100
AcDbLayerTableRecord
  2
1
 70
    64
 62
     7
  6
CONTINUOUS
  0
LAYER
  5
7F
102
{ACAD_XDICTIONARY
360
5F205F5F5F5F205F
102
}
100
AcDbSymbolTableRecord
100
AcDbLayerTableRecord
  2
2
 70
    64
 62
     7
  6
CONTINUOUS
  0
LAYER
  5
FE
102
{ACAD_XDICTIONARY
360
5F205F5F5F5F205F
102
}
100
AcDbSymbolTableRecord
100
AcDbLayerTableRecord
  2
3
 70
    64
 62
     7
  6
CONTINUOUS
  0
LAYER
  5
260
102
{ACAD_XDICTIONARY
360
5F205F5F5F5F205F
102
}
100
AcDbSymbolTableRecord
100
AcDbLayerTableRecord
  2
61
 70
    64
 62
     7
  6
CONTINUOUS
  0
ENDTAB
  0
TABLE
  2
STYLE
  5
3
100
AcDbSymbolTable
 70
     3
  0
STYLE
  5
17
100
AcDbSymbolTableRecord
100
AcDbTextStyleTableRecord
  2
STANDARD
 70
     0
 40
0.0
 41
1.0
 50
0.0
 71
     0
 42
0.0
  3
txt
  4

  0
STYLE
  5
35
100
AcDbSymbolTableRecord
100
AcDbTextStyleTableRecord
  2
MONOTXT
 70
     0
 40
0.2
 41
1.0
 50
0.0
 71
     0
 42
0.2
  3
MONOTXT
  4

  0
STYLE
  5
3F
100
AcDbSymbolTableRecord
100
AcDbTextStyleTableRecord
  2
TXT
 70
     0
 40
0.2
 41
1.0
 50
0.0
 71
     0
 42
0.2
  3
TXT
  4

  0
ENDTAB
  0
TABLE
  2
VIEW
  5
5
100
AcDbSymbolTable
 70
     4
  0
VIEW
  5
48E
102
{ACAD_XDICTIONARY
360
F43F
102
}
100
AcDbSymbolTableRecord
100
AcDbViewTableRecord
  2
BR$2B
 70
     0
 40
2.66475
 10
0.0
 20
0.0
 41
3.438667
 11
0.0
 21
0.0
 31
1.0
 12
-1.296417
 22
2.795292
 32
0.0
 42
50.0
 43
0.083333
 44
0.0
 50
0.0
 71
     0
  0
VIEW
  5
48F
102
{ACAD_XDICTIONARY
360
F43F
102
}
100
AcDbSymbolTableRecord
100
AcDbViewTableRecord
  2
WHOLE
 70
     0
 40
5.696917
 10
0.0
 20
0.0
 41
7.351333
 11
0.0
 21
0.0
 31
1.0
 12
0.332083
 22
3.114542
 32
0.0
 42
50.0
 43
0.083333
 44
0.0
 50
0.0
 71
     0
  0
VIEW
  5
490
102
{ACAD_XDICTIONARY
360
F43F
102
}
100
AcDbSymbolTableRecord
100
AcDbViewTableRecord
  2
BR2A
 70
     0
 40
2.511917
 10
0.0
 20
0.0
 41
3.2415
 11
0.0
 21
0.0
 31
1.0
 12
1.945333
 22
2.749792
 32
0.0
 42
50.0
 43
0.083333
 44
0.0
 50
0.0
 71
     0
  0
VIEW
  5
491
102
{ACAD_XDICTIONARY
360
F43F
102
}
100
AcDbSymbolTableRecord
100
AcDbViewTableRecord
  2
GRID
 70
     0
 40
0.544833
 10
0.0
 20
0.0
 41
0.703083
 11
0.0
 21
0.0
 31
1.0
 12
2.339792
 22
2.687167
 32
0.0
 42
50.0
 43
0.083333
 44
0.0
 50
0.0
 71
     0
  0
ENDTAB
  0
TABLE
  2
UCS
  5
6
100
AcDbSymbolTable
 70
     0
  0
ENDTAB
  0
TABLE
  2
APPID
  5
8
100
AcDbSymbolTable
 70
     1
  0
APPID
  5
16
100
AcDbSymbolTableRecord
100
AcDbRegAppTableRecord
  2
ACAD
 70
     0
  0
ENDTAB
  0
TABLE
  2
DIMSTYLE
  5
9
100
AcDbSymbolTable
 70
     1
  0
DIMSTYLE
105
18
100
AcDbSymbolTableRecord
100
AcDbDimStyleTableRecord
  2
STANDARD
 70
     0
  3

  4

  5

  6

  7

 40
1.0
 41
0.18
 42
0.0625
 43
0.38
 44
0.18
 45
0.0
 46
0.0
 47
0.0
 48
0.0
140
0.18
141
0.09
142
0.0
143
25.4
144
1.0
145
0.0
146
1.0
147
0.09
 71
     0
 72
     0
 73
     1
 74
     1
 75
     0
 76
     0
 77
     0
 78
     0
170
     0
171
     2
172
     0
173
     0
174
     0
175
     0
176
     0
177
     0
178
     0
270
     2
271
     4
272
     4
273
     2
274
     2
340
17
275
     0
280
     0
281
     0
282
     0
283
     1
284
     0
285
     0
286
     0
287
     0
288
     0
  0
ENDTAB
  0
TABLE
  2
BLOCK_RECORD
  5
1
100
AcDbSymbolTable
 70
     0
  0
BLOCK_RECORD
  5
A
100
AcDbSymbolTableRecord
100
AcDbBlockTableRecord
  2
*MODEL_SPACE
  0
BLOCK_RECORD
  5
B
100
AcDbSymbolTableRecord
100
AcDbBlockTableRecord
  2
*PAPER_SPACE
  0
ENDTAB
  0
ENDSEC
  0
SECTION
  2
BLOCKS
  0
BLOCK
  5
D
100
AcDbEntity
  8
0
100
AcDbBlockBegin
  2
*MODEL_SPACE
 70
     0
 10
0.0
 20
0.0
 30
0.0
  3
*MODEL_SPACE
  1

  0
ENDBLK
  5
E
100
AcDbEntity
  8
0
100
AcDbBlockEnd
  0
BLOCK
  5
F
100
AcDbEntity
 67
     1
  8
0
100
AcDbBlockBegin
  2
*PAPER_SPACE
 70
     0
 10
0.0
 20
0.0
 30
0.0
  3
*PAPER_SPACE
  1

  0
ENDBLK
  5
10
100
AcDbEntity
 67
     1
  8
0
100
AcDbBlockEnd
  0
ENDSEC
  0
SECTION
  2
ENTITIES
  0
LINE
  5
2B
100
AcDbEntity
  8
1
  6
CONTINUOUS
 62
     1
100
AcDbLine
 10
3.411833
 20
3.455
 30
0.0
 11
0.599333
 21
3.455
 31
0.0
  0
LINE
  5
2C
100
AcDbEntity
  8
1
  6
CONTINUOUS
 62
     1
100
AcDbLine
 10
3.411833
 20
1.705
 30
0.0
 11
0.599333
 21
1.705
 31
0.0
  0
ARC
  5
2D
100
AcDbEntity
  8
1
  6
CONTINUOUS
 62
     3
100
AcDbCircle
 10
0.491
 20
3.12575
 30
0.0
 40
0.010417
210
0.0
220
0.0
230
1.0
100
AcDbArc
 50
323.130094
 51
36.869886
  0
ARC
  5
2E
100
AcDbEntity
  8
1
  6
CONTINUOUS
 62
     3
100
AcDbCircle
 10
0.491
 20
2.896583
 30
0.0
 40
0.010417
210
0.0
220
0.0
230
1.0
100
AcDbArc
 50
323.130094
 51
36.501431
  0
ARC
  5
2F
100
AcDbEntity
  8
1
  6
CONTINUOUS
 62
     3
100
AcDbCircle
 10
0.491
 20
2.279917
 30
0.0
 40
0.010417
210
0.0
220
0.0
230
1.0
100
AcDbArc
 50
322.671753
 51
36.411544
  0
ARC
  5
30
100
AcDbEntity
  8
1
  6
CONTINUOUS
 62
     3
100
AcDbCircle
 10
0.491
 20
2.05075
 30
0.0
 40
0.010417
210
0.0
220
0.0
230
1.0
100
AcDbArc
 50
323.130094
 51
36.869886
  0
LINE
  5
31
100
AcDbEntity
  8
1
  6
CONTINUOUS
 62
     2
100
AcDbLine
 10
0.499333
 20
3.12575
 30
0.0
 11
0.532667
 21
3.12575
 31
0.0
  0
LINE
  5
32
100
AcDbEntity
  8
1
  6
CONTINUOUS
 62
     2
100
AcDbLine
 10
0.499333
 20
2.896583
 30
0.0
 11
0.532667
 21
2.896583
 31
0.0
  0
LINE
  5
33
100
AcDbEntity
  8
1
  6
CONTINUOUS
 62
     2
100
AcDbLine
 10
0.499333
 20
2.28
 30
0.0
 11
0.532667
 21
2.28
 31
0.0
  0
LINE
  5
34
100
AcDbEntity
  8
1
  6
CONTINUOUS
 62
     2
100
AcDbLine
 10
0.499333
 20
2.05075
 30
0.0
 11
0.532667
 21
2.05075
 31
0.0
  0
TEXT
  5
36
100
AcDbEntity
  8
1
  6
CONTINUOUS
 62
     1
100
AcDbText
 10
0.602583
 20
1.697
 30
0.0
 40
0.005
  1
D03K14C90-SS
  7
MONOTXT
210
0.0
220
0.0
230
1.0
100
AcDbText
  0
LINE
  5
37
100
AcDbEntity
  8
1
  6
CONTINUOUS
 62
     1
100
AcDbLine
 10
2.93425
 20
3.455
 30
0.0
 11
2.93425
 21
3.373
 31
0.0
  0
LINE
  5
38
100
AcDbEntity
  8
1
  6
CONTINUOUS
 62
     1
100
AcDbLine
 10
2.93425
 20
3.373
 30
0.0
 11
3.411833
 21
3.373
 31
0.0
  0
LINE
  5
39
100
AcDbEntity
  8
1
  6
CONTINUOUS
 62
     1
100
AcDbLine
 10
2.93425
 20
3.414083
 30
0.0
 11
3.411833
 21
3.414083
 31
0.0
  0
LINE
  5
3A
100
AcDbEntity
  8
1
  6
CONTINUOUS
 62
     1
100
AcDbLine
 10
2.990917
 20
3.455
 30
0.0
 11
2.990917
 21
3.373
 31
0.0
  0
LINE
  5
3B
100
AcDbEntity
  8
1
  6
CONTINUOUS
 62
     1
100
AcDbLine
 10
3.0475
 20
3.455
 30
0.0
 11
3.0475
 21
3.373
 31
0.0
  0
LINE
  5
3C
100
AcDbEntity
  8
1
  6
CONTINUOUS
 62
     1
100
AcDbLine
 10
3.180917
 20
3.455
 30
0.0
 11
3.180917
 21
3.373
 31
0.0
  0
LINE
  5
3D
100
AcDbEntity
  8
1
  6
CONTINUOUS
 62
     1
100
AcDbLine
 10
3.314167
 20
3.455
 30
0.0
 11
3.314167
 21
3.373
 31
0.0
  0
LINE
  5
3E
100
AcDbEntity
  8
1
  6
CONTINUOUS
 62
     1
100
AcDbLine
 10
3.3615
 20
3.455
 30
0.0
 11
3.3615
 21
3.373
 31
0.0
  0
TEXT
  5
40
100
AcDbEntity
  8
1
  6
CONTINUOUS
 62
   253
100
AcDbText
 10
2.9425
 20
3.440833
 30
0.0
 40
0.007834
  1
PUBLIC
 41
0.984811
  7
TXT
 72
     1
 11
2.9625
 21
3.448667
 31
0.0
210
0.0
220
0.0
230
1.0
100
AcDbText
 73
     3
  0
TEXT
  5
41
100
AcDbEntity
  8
1
  6
CONTINUOUS
 62
   253
100
AcDbText
 10
2.943417
 20
3.429583
 30
0.0
 40
0.007918
  1
ROADS
 41
0.983454
  7
TXT
 72
     1
 11
2.961083
 21
3.4375
 31
0.0
210
0.0
220
0.0
230
1.0
100
AcDbText
 73
     3
  0
TEXT
  5
42
100
AcDbEntity
  8
1
  6
CONTINUOUS
 62
   253
100
AcDbText
 10
2.950333
 20
3.418417
 30
0.0
 40
0.007834
  1
DIV.
 41
0.976642
  7
TXT
 72
     1
 11
2.96075
 21
3.42625
 31
0.0
210
0.0
220
0.0
230
1.0
100
AcDbText
 73
     3
  0
TEXT
  5
43
100
AcDbEntity
  8
1
  6
CONTINUOUS
 62
   253
100
AcDbText
 10
2.947417
 20
3.391083
 30
0.0
 40
0.007834
  1
W.VA.
 41
0.968345
  7
TXT
 72
     1
 11
2.96125
 21
3.398917
 31
0.0
210
0.0
220
0.0
230
1.0
100
AcDbText
 73
     3
  0
TEXT
  5
44
100
AcDbEntity
  8
1
  6
CONTINUOUS
 62
   253
100
AcDbText
 10
3.000167
 20
3.440833
 30
0.0
 40
0.007834
  1
STATE
 41
0.975429
  7
TXT
 72
     1
 11
3.017667
 21
3.448667
 31
0.0
210
0.0
220
0.0
230
1.0
100
AcDbText
 73
     3
  0
TEXT
  5
45
100
AcDbEntity
  8
1
  6
CONTINUOUS
 62
   253
100
AcDbText
 10
3.002583
 20
3.428667
 30
0.0
 40
0.007834
  1
DIST.
 41
0.982705
  7
TXT
 72
     1
 11
3.017
 21
3.4365
 31
0.0
210
0.0
220
0.0
230
1.0
100
AcDbText
 73
     3
  0
TEXT
  5
46
100
AcDbEntity
  8
1
  6
CONTINUOUS
 62
   253
100
AcDbText
 10
3.007
 20
3.418417
 30
0.0
 40
0.007834
  1
NO.
 41
0.963559
  7
TXT
 72
     1
 11
3.015
 21
3.42625
 31
0.0
210
0.0
220
0.0
230
1.0
100
AcDbText
 73
     3
  0
TEXT
  5
47
100
AcDbEntity
  8
1
  6
CONTINUOUS
 62
   253
100
AcDbText
 10
3.05875
 20
3.431167
 30
0.0
 40
0.007834
  1
PROJECT NUMBER
 41
0.981109
  7
TXT
 72
     1
 11
3.110583
 21
3.439
 31
0.0
210
0.0
220
0.0
230
1.0
100
AcDbText
 73
     3
  0
TEXT
  5
48
100
AcDbEntity
  8
1
  6
CONTINUOUS
 62
   253
100
AcDbText
 10
3.22425
 20
3.429583
 30
0.0
 40
0.007918
  1
COUNTY
 41
0.96893
  7
TXT
 72
     1
 11
3.245583
 21
3.4375
 31
0.0
210
0.0
220
0.0
230
1.0
100
AcDbText
 73
     3
  0
TEXT
  5
49
100
AcDbEntity
  8
1
  6
CONTINUOUS
 62
   253
100
AcDbText
 10
3.3185
 20
3.441417
 30
0.0
 40
0.007751
  1
SHEET
 41
1.000581
  7
TXT
 72
     1
 11
3.336167
 21
3.449167
 31
0.0
210
0.0
220
0.0
230
1.0
100
AcDbText
 73
     3
  0
TEXT
  5
4A
100
AcDbEntity
  8
1
  6
CONTINUOUS
 62
   253
100
AcDbText
 10
3.32725
 20
3.42425
 30
0.0
 40
0.007333
  1
NO.
 41
1.061499
  7
TXT
 72
     1
 11
3.335417
 21
3.431583
 31
0.0
210
0.0
220
0.0
230
1.0
100
AcDbText
 73
     3
  0
TEXT
  5
4B
100
AcDbEntity
  8
1
  6
CONTINUOUS
 62
   253
100
AcDbText
 10
3.365417
 20
3.441417
 30
0.0
 40
0.007751
  1
TOTAL
 41
1.000323
  7
TXT
 72
     1
 11
3.383167
 21
3.449167
 31
0.0
210
0.0
220
0.0
230
1.0
100
AcDbText
 73
     3
  0
TEXT
  5
4C
100
AcDbEntity
  8
1
  6
CONTINUOUS
 62
   253
100
AcDbText
 10
3.368333
 20
3.424833
 30
0.0
 40
0.007251
  1
SHTS
 41
1.06572
  7
TXT
 72
     1
 11
3.38225
 21
3.432083
 31
0.0
210
0.0
220
0.0
230
1.0
100
AcDbText
 73
     3
  0
POINT
  5
4D
100
AcDbEntity
  8
1
  6
CONTINUOUS
 62
     1
100
AcDbPoint
 10
3.411833
 20
1.705
 30
0.0
  0
LINE
  5
4E
100
AcDbEntity
  8
1
  6
CONTINUOUS
 62
     1
100
AcDbLine
 10
2.857583
 20
1.705
 30
0.0
 11
2.857583
 21
2.012667
 31
0.0
  0
LINE
  5
4F
100
AcDbEntity
  8
1
  6
CONTINUOUS
 62
     1
100
AcDbLine
 10
2.857583
 20
2.012667
 30
0.0
 11
3.411833
 21
2.012667
 31
0.0
  0
LINE
  5
50
100
AcDbEntity
  8
1
  6
CONTINUOUS
 62
     1
100
AcDbLine
 10
2.857583
 20
1.951167
 30
0.0
 11
3.411833
 21
1.951167
 31
0.0
  0
LINE
  5
51
100
AcDbEntity
  8
1
  6
CONTINUOUS
 62
     1
100
AcDbLine
 10
2.857583
 20
1.77675
 30
0.0
 11
3.267667
 21
1.77675
 31
0.0
  0
LINE
  5
52
100
AcDbEntity
  8
1
  6
CONTINUOUS
 62
     1
100
AcDbLine
 10
3.267667
 20
1.951167
 30
0.0
 11
3.267667
 21
1.705
 31
0.0
  0
LINE
  5
53
100
AcDbEntity
  8
1
  6
CONTINUOUS
 62
     1
100
AcDbLine
 10
3.267667
 20
1.92575
 30
0.0
 11
3.411833
 21
1.92575
 31
0.0
  0
LINE
  5
54
100
AcDbEntity
  8
1
  6
CONTINUOUS
 62
     1
100
AcDbLine
 10
3.267667
 20
1.899833
 30
0.0
 11
3.411833
 21
1.899833
 31
0.0
  0
LINE
  5
55
100
AcDbEntity
  8
1
  6
CONTINUOUS
 62
     1
100
AcDbLine
 10
3.267667
 20
1.874
 30
0.0
 11
3.411833
 21
1.874
 31
0.0
  0
LINE
  5
56
100
AcDbEntity
  8
1
  6
CONTINUOUS
 62
     1
100
AcDbLine
 10
3.267667
 20
1.8485
 30
0.0
 11
3.411833
 21
1.8485
 31
0.0
  0
LINE
  5
57
100
AcDbEntity
  8
1
  6
CONTINUOUS
 62
     1
100
AcDbLine
 10
3.267667
 20
1.82275
 30
0.0
 11
3.411833
 21
1.82275
 31
0.0
  0
LINE
  5
58
100
AcDbEntity
  8
1
  6
CONTINUOUS
 62
     1
100
AcDbLine
 10
3.267667
 20
1.797333
 30
0.0
 11
3.411833
 21
1.797333
 31
0.0
  0
LINE
  5
59
100
AcDbEntity
  8
1
  6
CONTINUOUS
 62
     1
100
AcDbLine
 10
3.267667
 20
1.771333
 30
0.0
 11
3.411833
 21
1.771333
 31
0.0
  0
LINE
  5
5A
100
AcDbEntity
  8
1
  6
CONTINUOUS
 62
     1
100
AcDbLine
 10
2.446917
 20
1.705
 30
0.0
 11
2.446917
 21
1.910083
 31
0.0
  0
LINE
  5
5B
100
AcDbEntity
  8
1
  6
CONTINUOUS
 62
     1
100
AcDbLine
 10
2.446917
 20
1.910083
 30
0.0
 11
2.857583
 21
1.910083
 31
0.0
  0
LINE
  5
5C
100
AcDbEntity
  8
1
  6
CONTINUOUS
 62
     1
100
AcDbLine
 10
2.446917
 20
1.863667
 30
0.0
 11
2.857583
 21
1.863667
 31
0.0
  0
LINE
  5
5D
100
AcDbEntity
  8
1
  6
CONTINUOUS
 62
     1
100
AcDbLine
 10
2.755
 20
1.863667
 30
0.0
 11
2.755
 21
1.705
 31
0.0
  0
LINE
  5
5E
100
AcDbEntity
  8
1
  6
CONTINUOUS
 62
     1
100
AcDbLine
 10
2.755
 20
1.7255
 30
0.0
 11
2.857583
 21
1.7255
 31
0.0
  0
LINE
  5
5F
100
AcDbEntity
  8
1
  6
CONTINUOUS
 62
     1
100
AcDbLine
 10
2.755
 20
1.746083
 30
0.0
 11
2.857583
 21
1.746083
 31
0.0
  0
LINE
  5
60
100
AcDbEntity
  8
1
  6
CONTINUOUS
 62
     1
100
AcDbLine
 10
2.755
 20
1.7665
 30
0.0
 11
2.857583
 21
1.7665
 31
0.0
  0
LINE
  5
61
100
AcDbEntity
  8
1
  6
CONTINUOUS
 62
     1
100
AcDbLine
 10
2.755
 20
1.787
 30
0.0
 11
2.857583
 21
1.787
 31
0.0
  0
LINE
  5
62
100
AcDbEntity
  8
1
  6
CONTINUOUS
 62
     1
100
AcDbLine
 10
2.755
 20
1.807583
 30
0.0
 11
2.857583
 21
1.807583
 31
0.0
  0
LINE
  5
63
100
AcDbEntity
  8
1
  6
CONTINUOUS
 62
     1
100
AcDbLine
 10
2.755
 20
1.828167
 30
0.0
 11
2.857583
 21
1.828167
 31
0.0
  0
LINE
  5
64
100
AcDbEntity
  8
1
  6
CONTINUOUS
 62
     1
100
AcDbLine
 10
2.80625
 20
1.828583
 30
0.0
 11
2.80625
 21
1.705
 31
0.0
  0
TEXT
  5
65
100
AcDbEntity
  8
1
  6
CONTINUOUS
 62
   253
100
AcDbText
 10
3.274583
 20
1.943833
 30
0.0
 40
0.005335
  1
DESIGNED BY:
 41
0.965795
  7
TXT
 11
3.274583
 21
1.949167
 31
0.0
210
0.0
220
0.0
230
1.0
100
AcDbText
 73
     3
  0
LINE
  5
66
100
AcDbEntity
  8
1
  6
CONTINUOUS
 62
   253
100
AcDbLine
 10
3.273583
 20
1.9585
 30
0.0
 11
3.273583
 21
1.959
 31
0.0
  0
TEXT
  5
67
100
AcDbEntity
  8
1
  6
CONTINUOUS
 62
   253
100
AcDbText
 10
3.274083
 20
1.918417
 30
0.0
 40
0.004918
  1
DRAWN BY:
 41
1.043412
  7
TXT
 11
3.274083
 21
1.923333
 31
0.0
210
0.0
220
0.0
230
1.0
100
AcDbText
 73
     3
  0
TEXT
  5
68
100
AcDbEntity
  8
1
  6
CONTINUOUS
 62
   253
100
AcDbText
 10
3.274583
 20
1.892
 30
0.0
 40
0.005419
  1
CHECKED BY:
 41
0.945839
  7
TXT
 11
3.274583
 21
1.897417
 31
0.0
210
0.0
220
0.0
230
1.0
100
AcDbText
 73
     3
  0
TEXT
  5
69
100
AcDbEntity
  8
1
  6
CONTINUOUS
 62
   253
100
AcDbText
 10
3.274583
 20
1.865667
 30
0.0
 40
0.004835
  1
REVIEWED BY:
 41
1.065467
  7
TXT
 11
3.274583
 21
1.8705
 31
0.0
210
0.0
220
0.0
230
1.0
100
AcDbText
 73
     3
  0
TEXT
  5
6A
100
AcDbEntity
  8
1
  6
CONTINUOUS
 62
   253
100
AcDbText
 10
3.274083
 20
1.840333
 30
0.0
 40
0.005335
  1
DATE:
 41
0.958017
  7
TXT
 11
3.274083
 21
1.845667
 31
0.0
210
0.0
220
0.0
230
1.0
100
AcDbText
 73
     3
  0
TEXT
  5
6B
100
AcDbEntity
  8
1
  6
CONTINUOUS
 62
   253
100
AcDbText
 10
3.273583
 20
1.814333
 30
0.0
 40
0.004918
  1
SCALE:
 41
1.052155
  7
TXT
 11
3.273583
 21
1.81925
 31
0.0
210
0.0
220
0.0
230
1.0
100
AcDbText
 73
     3
  0
TEXT
  5
6C
100
AcDbEntity
  8
1
  6
CONTINUOUS
 62
   253
100
AcDbText
 10
3.273583
 20
1.789083
 30
0.0
 40
0.005335
  1
SHEET NO.:
 41
0.958579
  7
TXT
 11
3.273583
 21
1.794417
 31
0.0
210
0.0
220
0.0
230
1.0
100
AcDbText
 73
     3
  0
TEXT
  5
6D
100
AcDbEntity
  8
1
  6
CONTINUOUS
 62
   253
100
AcDbText
 10
3.325417
 20
1.772917
 30
0.0
 40
0.005419
  1
OF
 41
0.958479
  7
TXT
 11
3.325417
 21
1.778333
 31
0.0
210
0.0
220
0.0
230
1.0
100
AcDbText
 73
     3
  0
TEXT
  5
6E
100
AcDbEntity
  8
1
  6
CONTINUOUS
 62
   253
100
AcDbText
 10
3.284333
 20
1.75475
 30
0.0
 40
0.008415
  1
BRIDGE NUMBER
 41
1.038738
  7
TXT
 72
     1
 11
3.3375
 21
1.763167
 31
0.0
210
0.0
220
0.0
230
1.0
100
AcDbText
 73
     3
  0
TEXT
  5
6F
100
AcDbEntity
  8
1
  6
CONTINUOUS
 62
   253
100
AcDbText
 10
2.569917
 20
1.876417
 30
0.0
 40
0.004835
  1
DIRECTOR, STRUCTURES DIVISION
 41
1.061227
  7
TXT
 11
2.569917
 21
1.88125
 31
0.0
210
0.0
220
0.0
230
1.0
100
AcDbText
 73
     3
  0
TEXT
  5
70
100
AcDbEntity
  8
1
  6
CONTINUOUS
 62
   253
100
AcDbText
 10
2.756917
 20
1.856
 30
0.0
 40
0.004751
  1
PREPARED:
 41
1.081457
  7
TXT
 11
2.756917
 21
1.86075
 31
0.0
210
0.0
220
0.0
230
1.0
100
AcDbText
 73
     3
  0
TEXT
  5
71
100
AcDbEntity
  8
1
  6
CONTINUOUS
 62
   253
100
AcDbText
 10
2.757917
 20
1.821167
 30
0.0
 40
0.005335
  1
REVISED:
 41
0.95708
  7
TXT
 11
2.757917
 21
1.8265
 31
0.0
210
0.0
220
0.0
230
1.0
100
AcDbText
 73
     3
  0
TEXT
  5
72
100
AcDbEntity
  8
1
  6
CONTINUOUS
 62
   253
100
AcDbText
 10
3.315083
 20
1.805667
 30
0.0
 40
0.007251
  1
NONE
 41
1.066547
  7
TXT
 11
3.315083
 21
1.812917
 31
0.0
210
0.0
220
0.0
230
1.0
100
AcDbText
 73
     3
  0
TEXT
  5
73
100
AcDbEntity
  8
1
  6
CONTINUOUS
 62
     2
100
AcDbText
 10
2.462167
 20
1.83725
 30
0.0
 40
0.010417
  1
WEST VIRGINIA DEPARTMENT OF TRANSPORTATION
 41
0.744012
  7
TXT
 72
     1
 11
2.59925
 21
1.83725
 31
0.0
210
0.0
220
0.0
230
1.0
100
AcDbText
  0
TEXT
  5
74
100
AcDbEntity
  8
1
  6
CONTINUOUS
 62
     2
100
AcDbText
 10
2.50125
 20
1.8175
 30
0.0
 40
0.010417
  1
DIVISION OF HIGHWAYS-STRUCTURES
 41
0.744012
  7
TXT
 72
     4
 11
2.6015
 21
1.822667
 31
0.0
210
0.0
220
0.0
230
1.0
100
AcDbText
  0
TEXT
  5
75
100
AcDbEntity
  8
1
  6
CONTINUOUS
 62
     4
100
AcDbText
 10
2.882167
 20
1.986917
 30
0.0
 40
0.015583
  1
THE WEST VIRGINIA DEPARTMENT OF TRANSPORTATION
 41
0.834242
  7
TXT
 72
     1
 11
3.130167
 21
2.0025
 31
0.0
210
0.0
220
0.0
230
1.0
100
AcDbText
 73
     3
  0
TEXT
  5
76
100
AcDbEntity
  8
1
  6
CONTINUOUS
 62
     2
100
AcDbText
 10
3.0
 20
1.962833
 30
0.0
 40
0.010417
  1
DIVISION OF HIGHWAYS-STRUCTURES 
  7
TXT
 72
     1
 11
3.138083
 21
1.962833
 31
0.0
210
0.0
220
0.0
230
1.0
100
AcDbText
  0
LINE
  5
77
100
AcDbEntity
  8
1
  6
DASHED
 62
     1
100
AcDbLine
 10
0.45325
 20
3.53825
 30
0.0
 11
3.45375
 21
3.53825
 31
0.0
  0
LINE
  5
78
100
AcDbEntity
  8
1
  6
CONTINUOUS
 62
     1
100
AcDbLine
 10
0.45325
 20
3.496583
 30
0.0
 11
3.45375
 21
3.496583
 31
0.0
  0
LINE
  5
79
100
AcDbEntity
  8
1
  6
CONTINUOUS
 62
     1
100
AcDbLine
 10
3.45375
 20
1.66325
 30
0.0
 11
0.45325
 21
1.66325
 31
0.0
  0
LINE
  5
7A
100
AcDbEntity
  8
1
  6
DASHED
 62
     1
100
AcDbLine
 10
3.45375
 20
1.621583
 30
0.0
 11
0.45325
 21
1.621583
 31
0.0
  0
POINT
  5
7B
100
AcDbEntity
  8
CONSTRUCTION_CLASS
  6
CONTINUOUS
 62
     2
100
AcDbPoint
 10
3.45375
 20
1.621583
 30
0.0
  0
LINE
  5
7C
100
AcDbEntity
  8
1
  6
CONTINUOUS
 62
     1
100
AcDbLine
 10
3.411833
 20
3.455
 30
0.0
 11
3.411833
 21
1.705
 31
0.0
  0
POINT
  5
7D
100
AcDbEntity
  8
CONSTRUCTION_CLASS
  6
CONTINUOUS
 62
     2
100
AcDbPoint
 10
0.45325
 20
3.53825
 30
0.0
  0
LINE
  5
7E
100
AcDbEntity
  8
1
  6
CONTINUOUS
 62
     1
100
AcDbLine
 10
0.599333
 20
3.455
 30
0.0
 11
0.599333
 21
1.705
 31
0.0
  0
LINE
  5
80
100
AcDbEntity
  8
2
  6
CONTINUOUS
 62
     1
100
AcDbLine
 10
0.641
 20
3.42925
 30
0.0
 11
0.641
 21
1.705
 31
0.0
  0
LINE
  5
81
100
AcDbEntity
  8
2
  6
CONTINUOUS
 62
     1
100
AcDbLine
 10
3.3495
 20
3.42925
 30
0.0
 11
3.3495
 21
1.705
 31
0.0
  0
LINE
  5
82
100
AcDbEntity
  8
2
  6
CONTINUOUS
 62
     2
100
AcDbLine
 10
0.599333
 20
3.413667
 30
0.0
 11
3.599333
 21
3.413667
 31
0.0
  0
LINE
  5
83
100
AcDbEntity
  8
2
  6
CONTINUOUS
 62
     2
100
AcDbLine
 10
0.599333
 20
3.398083
 30
0.0
 11
3.599333
 21
3.398083
 31
0.0
  0
LINE
  5
84
100
AcDbEntity
  8
2
  6
CONTINUOUS
 62
     2
100
AcDbLine
 10
0.599333
 20
3.382417
 30
0.0
 11
3.599333
 21
3.382417
 31
0.0
  0
LINE
  5
85
100
AcDbEntity
  8
2
  6
CONTINUOUS
 62
     2
100
AcDbLine
 10
0.599333
 20
3.36675
 30
0.0
 11
3.599333
 21
3.36675
 31
0.0
  0
LINE
  5
86
100
AcDbEntity
  8
2
  6
CONTINUOUS
 62
     2
100
AcDbLine
 10
0.599333
 20
3.351167
 30
0.0
 11
3.599333
 21
3.351167
 31
0.0
  0
LINE
  5
87
100
AcDbEntity
  8
2
  6
CONTINUOUS
 62
     2
100
AcDbLine
 10
0.599333
 20
3.3355
 30
0.0
 11
3.599333
 21
3.3355
 31
0.0
  0
LINE
  5
88
100
AcDbEntity
  8
2
  6
CONTINUOUS
 62
     2
100
AcDbLine
 10
0.599333
 20
3.319917
 30
0.0
 11
3.599333
 21
3.319917
 31
0.0
  0
LINE
  5
89
100
AcDbEntity
  8
2
  6
CONTINUOUS
 62
     2
100
AcDbLine
 10
0.599333
 20
3.30425
 30
0.0
 11
3.599333
 21
3.30425
 31
0.0
  0
LINE
  5
8A
100
AcDbEntity
  8
2
  6
CONTINUOUS
 62
     2
100
AcDbLine
 10
0.599333
 20
3.288667
 30
0.0
 11
3.599333
 21
3.288667
 31
0.0
  0
LINE
  5
8B
100
AcDbEntity
  8
2
  6
CONTINUOUS
 62
     2
100
AcDbLine
 10
0.599333
 20
3.273
 30
0.0
 11
3.599333
 21
3.273
 31
0.0
  0
LINE
  5
8C
100
AcDbEntity
  8
2
  6
CONTINUOUS
 62
     2
100
AcDbLine
 10
0.599333
 20
3.257417
 30
0.0
 11
3.599333
 21
3.257417
 31
0.0
  0
LINE
  5
8D
100
AcDbEntity
  8
2
  6
CONTINUOUS
 62
     2
100
AcDbLine
 10
0.599333
 20
3.24175
 30
0.0
 11
3.599333
 21
3.24175
 31
0.0
  0
LINE
  5
8E
100
AcDbEntity
  8
2
  6
CONTINUOUS
 62
     2
100
AcDbLine
 10
0.599333
 20
3.226167
 30
0.0
 11
3.599333
 21
3.226167
 31
0.0
  0
LINE
  5
8F
100
AcDbEntity
  8
2
  6
CONTINUOUS
 62
     2
100
AcDbLine
 10
0.599333
 20
3.2105
 30
0.0
 11
3.599333
 21
3.2105
 31
0.0
  0
LINE
  5
90
100
AcDbEntity
  8
2
  6
CONTINUOUS
 62
     2
100
AcDbLine
 10
0.599333
 20
3.194917
 30
0.0
 11
3.599333
 21
3.194917
 31
0.0
  0
LINE
  5
91
100
AcDbEntity
  8
2
  6
CONTINUOUS
 62
     2
100
AcDbLine
 10
0.599333
 20
3.17925
 30
0.0
 11
3.599333
 21
3.17925
 31
0.0
  0
LINE
  5
92
100
AcDbEntity
  8
2
  6
CONTINUOUS
 62
     2
100
AcDbLine
 10
0.599333
 20
3.163667
 30
0.0
 11
3.599333
 21
3.163667
 31
0.0
  0
LINE
  5
93
100
AcDbEntity
  8
2
  6
CONTINUOUS
 62
     2
100
AcDbLine
 10
0.599333
 20
3.148
 30
0.0
 11
3.599333
 21
3.148
 31
0.0
  0
LINE
  5
94
100
AcDbEntity
  8
2
  6
CONTINUOUS
 62
     2
100
AcDbLine
 10
0.599333
 20
3.132417
 30
0.0
 11
3.599333
 21
3.132417
 31
0.0
  0
LINE
  5
95
100
AcDbEntity
  8
2
  6
CONTINUOUS
 62
     2
100
AcDbLine
 10
0.599333
 20
3.11675
 30
0.0
 11
3.599333
 21
3.11675
 31
0.0
  0
LINE
  5
96
100
AcDbEntity
  8
2
  6
CONTINUOUS
 62
     2
100
AcDbLine
 10
0.599333
 20
3.101167
 30
0.0
 11
3.599333
 21
3.101167
 31
0.0
  0
LINE
  5
97
100
AcDbEntity
  8
2
  6
CONTINUOUS
 62
     2
100
AcDbLine
 10
0.599333
 20
3.0855
 30
0.0
 11
3.599333
 21
3.0855
 31
0.0
  0
LINE
  5
98
100
AcDbEntity
  8
2
  6
CONTINUOUS
 62
     2
100
AcDbLine
 10
0.599333
 20
3.069917
 30
0.0
 11
3.599333
 21
3.069917
 31
0.0
  0
LINE
  5
99
100
AcDbEntity
  8
2
  6
CONTINUOUS
 62
     2
100
AcDbLine
 10
0.599333
 20
3.05425
 30
0.0
 11
3.599333
 21
3.05425
 31
0.0
  0
LINE
  5
9A
100
AcDbEntity
  8
2
  6
CONTINUOUS
 62
     2
100
AcDbLine
 10
0.599333
 20
3.038667
 30
0.0
 11
3.599333
 21
3.038667
 31
0.0
  0
LINE
  5
9B
100
AcDbEntity
  8
2
  6
CONTINUOUS
 62
     2
100
AcDbLine
 10
0.599333
 20
3.023
 30
0.0
 11
3.599333
 21
3.023
 31
0.0
  0
LINE
  5
9C
100
AcDbEntity
  8
2
  6
CONTINUOUS
 62
     2
100
AcDbLine
 10
0.599333
 20
3.007417
 30
0.0
 11
3.599333
 21
3.007417
 31
0.0
  0
LINE
  5
9D
100
AcDbEntity
  8
2
  6
CONTINUOUS
 62
     2
100
AcDbLine
 10
0.599333
 20
2.99175
 30
0.0
 11
3.599333
 21
2.99175
 31
0.0
  0
LINE
  5
9E
100
AcDbEntity
  8
2
  6
CONTINUOUS
 62
     2
100
AcDbLine
 10
0.599333
 20
2.976167
 30
0.0
 11
3.599333
 21
2.976167
 31
0.0
  0
LINE
  5
9F
100
AcDbEntity
  8
2
  6
CONTINUOUS
 62
     2
100
AcDbLine
 10
0.599333
 20
2.9605
 30
0.0
 11
3.599333
 21
2.9605
 31
0.0
  0
LINE
  5
A0
100
AcDbEntity
  8
2
  6
CONTINUOUS
 62
     2
100
AcDbLine
 10
0.599333
 20
2.944917
 30
0.0
 11
3.599333
 21
2.944917
 31
0.0
  0
LINE
  5
A1
100
AcDbEntity
  8
2
  6
CONTINUOUS
 62
     2
100
AcDbLine
 10
0.599333
 20
2.92925
 30
0.0
 11
3.599333
 21
2.92925
 31
0.0
  0
LINE
  5
A2
100
AcDbEntity
  8
2
  6
CONTINUOUS
 62
     2
100
AcDbLine
 10
0.599333
 20
2.913667
 30
0.0
 11
3.599333
 21
2.913667
 31
0.0
  0
LINE
  5
A3
100
AcDbEntity
  8
2
  6
CONTINUOUS
 62
     2
100
AcDbLine
 10
0.599333
 20
2.898
 30
0.0
 11
3.599333
 21
2.898
 31
0.0
  0
LINE
  5
A4
100
AcDbEntity
  8
2
  6
CONTINUOUS
 62
     2
100
AcDbLine
 10
0.599333
 20
2.882417
 30
0.0
 11
3.599333
 21
2.882417
 31
0.0
  0
LINE
  5
A5
100
AcDbEntity
  8
2
  6
CONTINUOUS
 62
     2
100
AcDbLine
 10
0.599333
 20
2.86675
 30
0.0
 11
3.599333
 21
2.86675
 31
0.0
  0
LINE
  5
A6
100
AcDbEntity
  8
2
  6
CONTINUOUS
 62
     2
100
AcDbLine
 10
0.599333
 20
2.851167
 30
0.0
 11
3.599333
 21
2.851167
 31
0.0
  0
LINE
  5
A7
100
AcDbEntity
  8
2
  6
CONTINUOUS
 62
     2
100
AcDbLine
 10
0.599333
 20
2.8355
 30
0.0
 11
3.599333
 21
2.8355
 31
0.0
  0
LINE
  5
A8
100
AcDbEntity
  8
2
  6
CONTINUOUS
 62
     2
100
AcDbLine
 10
0.599333
 20
2.819917
 30
0.0
 11
3.599333
 21
2.819917
 31
0.0
  0
LINE
  5
A9
100
AcDbEntity
  8
2
  6
CONTINUOUS
 62
     2
100
AcDbLine
 10
0.599333
 20
2.80425
 30
0.0
 11
3.599333
 21
2.80425
 31
0.0
  0
LINE
  5
AA
100
AcDbEntity
  8
2
  6
CONTINUOUS
 62
     2
100
AcDbLine
 10
0.599333
 20
2.788667
 30
0.0
 11
3.599333
 21
2.788667
 31
0.0
  0
LINE
  5
AB
100
AcDbEntity
  8
2
  6
CONTINUOUS
 62
     2
100
AcDbLine
 10
0.599333
 20
2.773
 30
0.0
 11
3.599333
 21
2.773
 31
0.0
  0
LINE
  5
AC
100
AcDbEntity
  8
2
  6
CONTINUOUS
 62
     2
100
AcDbLine
 10
0.599333
 20
2.757417
 30
0.0
 11
3.599333
 21
2.757417
 31
0.0
  0
LINE
  5
AD
100
AcDbEntity
  8
2
  6
CONTINUOUS
 62
     2
100
AcDbLine
 10
0.599333
 20
2.74175
 30
0.0
 11
3.599333
 21
2.74175
 31
0.0
  0
LINE
  5
AE
100
AcDbEntity
  8
2
  6
CONTINUOUS
 62
     2
100
AcDbLine
 10
0.599333
 20
2.726167
 30
0.0
 11
3.599333
 21
2.726167
 31
0.0
  0
LINE
  5
AF
100
AcDbEntity
  8
2
  6
CONTINUOUS
 62
     2
100
AcDbLine
 10
0.599333
 20
2.7105
 30
0.0
 11
3.599333
 21
2.7105
 31
0.0
  0
LINE
  5
B0
100
AcDbEntity
  8
2
  6
CONTINUOUS
 62
     2
100
AcDbLine
 10
0.599333
 20
2.694917
 30
0.0
 11
3.599333
 21
2.694917
 31
0.0
  0
LINE
  5
B1
100
AcDbEntity
  8
2
  6
CONTINUOUS
 62
     2
100
AcDbLine
 10
0.599333
 20
2.67925
 30
0.0
 11
3.599333
 21
2.67925
 31
0.0
  0
LINE
  5
B2
100
AcDbEntity
  8
2
  6
CONTINUOUS
 62
     2
100
AcDbLine
 10
0.599333
 20
2.663667
 30
0.0
 11
3.599333
 21
2.663667
 31
0.0
  0
LINE
  5
B3
100
AcDbEntity
  8
2
  6
CONTINUOUS
 62
     2
100
AcDbLine
 10
0.599333
 20
2.648
 30
0.0
 11
3.599333
 21
2.648
 31
0.0
  0
LINE
  5
B4
100
AcDbEntity
  8
2
  6
CONTINUOUS
 62
     2
100
AcDbLine
 10
0.599333
 20
2.632417
 30
0.0
 11
3.599333
 21
2.632417
 31
0.0
  0
LINE
  5
B5
100
AcDbEntity
  8
2
  6
CONTINUOUS
 62
     2
100
AcDbLine
 10
0.599333
 20
2.61675
 30
0.0
 11
3.599333
 21
2.61675
 31
0.0
  0
LINE
  5
B6
100
AcDbEntity
  8
2
  6
CONTINUOUS
 62
     2
100
AcDbLine
 10
0.599333
 20
2.601167
 30
0.0
 11
3.599333
 21
2.601167
 31
0.0
  0
LINE
  5
B7
100
AcDbEntity
  8
2
  6
CONTINUOUS
 62
     2
100
AcDbLine
 10
0.599333
 20
2.5855
 30
0.0
 11
3.599333
 21
2.5855
 31
0.0
  0
LINE
  5
B8
100
AcDbEntity
  8
2
  6
CONTINUOUS
 62
     2
100
AcDbLine
 10
0.599333
 20
2.569917
 30
0.0
 11
3.599333
 21
2.569917
 31
0.0
  0
LINE
  5
B9
100
AcDbEntity
  8
2
  6
CONTINUOUS
 62
     2
100
AcDbLine
 10
0.599333
 20
2.55425
 30
0.0
 11
3.599333
 21
2.55425
 31
0.0
  0
LINE
  5
BA
100
AcDbEntity
  8
2
  6
CONTINUOUS
 62
     2
100
AcDbLine
 10
0.599333
 20
2.538667
 30
0.0
 11
3.599333
 21
2.538667
 31
0.0
  0
LINE
  5
BB
100
AcDbEntity
  8
2
  6
CONTINUOUS
 62
     2
100
AcDbLine
 10
0.599333
 20
2.523
 30
0.0
 11
3.599333
 21
2.523
 31
0.0
  0
LINE
  5
BC
100
AcDbEntity
  8
2
  6
CONTINUOUS
 62
     2
100
AcDbLine
 10
0.599333
 20
2.507417
 30
0.0
 11
3.599333
 21
2.507417
 31
0.0
  0
LINE
  5
BD
100
AcDbEntity
  8
2
  6
CONTINUOUS
 62
     2
100
AcDbLine
 10
0.599333
 20
2.49175
 30
0.0
 11
3.599333
 21
2.49175
 31
0.0
  0
LINE
  5
BE
100
AcDbEntity
  8
2
  6
CONTINUOUS
 62
     2
100
AcDbLine
 10
0.599333
 20
2.476167
 30
0.0
 11
3.599333
 21
2.476167
 31
0.0
  0
LINE
  5
BF
100
AcDbEntity
  8
2
  6
CONTINUOUS
 62
     2
100
AcDbLine
 10
0.599333
 20
2.4605
 30
0.0
 11
3.599333
 21
2.4605
 31
0.0
  0
LINE
  5
C0
100
AcDbEntity
  8
2
  6
CONTINUOUS
 62
     2
100
AcDbLine
 10
0.599333
 20
2.444917
 30
0.0
 11
3.599333
 21
2.444917
 31
0.0
  0
LINE
  5
C1
100
AcDbEntity
  8
2
  6
CONTINUOUS
 62
     2
100
AcDbLine
 10
0.599333
 20
2.42925
 30
0.0
 11
3.599333
 21
2.42925
 31
0.0
  0
LINE
  5
C2
100
AcDbEntity
  8
2
  6
CONTINUOUS
 62
     2
100
AcDbLine
 10
0.599333
 20
2.413667
 30
0.0
 11
3.599333
 21
2.413667
 31
0.0
  0
LINE
  5
C3
100
AcDbEntity
  8
2
  6
CONTINUOUS
 62
     2
100
AcDbLine
 10
0.599333
 20
2.398
 30
0.0
 11
3.599333
 21
2.398
 31
0.0
  0
LINE
  5
C4
100
AcDbEntity
  8
2
  6
CONTINUOUS
 62
     2
100
AcDbLine
 10
0.599333
 20
2.382417
 30
0.0
 11
3.599333
 21
2.382417
 31
0.0
  0
LINE
  5
C5
100
AcDbEntity
  8
2
  6
CONTINUOUS
 62
     2
100
AcDbLine
 10
0.599333
 20
2.36675
 30
0.0
 11
3.599333
 21
2.36675
 31
0.0
  0
LINE
  5
C6
100
AcDbEntity
  8
2
  6
CONTINUOUS
 62
     2
100
AcDbLine
 10
0.599333
 20
2.351167
 30
0.0
 11
3.599333
 21
2.351167
 31
0.0
  0
LINE
  5
C7
100
AcDbEntity
  8
2
  6
CONTINUOUS
 62
     2
100
AcDbLine
 10
0.599333
 20
2.3355
 30
0.0
 11
3.599333
 21
2.3355
 31
0.0
  0
LINE
  5
C8
100
AcDbEntity
  8
2
  6
CONTINUOUS
 62
     2
100
AcDbLine
 10
0.599333
 20
2.319917
 30
0.0
 11
3.599333
 21
2.319917
 31
0.0
  0
LINE
  5
C9
100
AcDbEntity
  8
2
  6
CONTINUOUS
 62
     2
100
AcDbLine
 10
0.599333
 20
2.30425
 30
0.0
 11
3.599333
 21
2.30425
 31
0.0
  0
LINE
  5
CA
100
AcDbEntity
  8
2
  6
CONTINUOUS
 62
     2
100
AcDbLine
 10
0.599333
 20
2.288667
 30
0.0
 11
3.599333
 21
2.288667
 31
0.0
  0
LINE
  5
CB
100
AcDbEntity
  8
2
  6
CONTINUOUS
 62
     2
100
AcDbLine
 10
0.599333
 20
2.273
 30
0.0
 11
3.599333
 21
2.273
 31
0.0
  0
LINE
  5
CC
100
AcDbEntity
  8
2
  6
CONTINUOUS
 62
     2
100
AcDbLine
 10
0.599333
 20
2.257417
 30
0.0
 11
3.599333
 21
2.257417
 31
0.0
  0
LINE
  5
CD
100
AcDbEntity
  8
2
  6
CONTINUOUS
 62
     2
100
AcDbLine
 10
0.599333
 20
2.24175
 30
0.0
 11
3.599333
 21
2.24175
 31
0.0
  0
LINE
  5
CE
100
AcDbEntity
  8
2
  6
CONTINUOUS
 62
     2
100
AcDbLine
 10
0.599333
 20
2.226167
 30
0.0
 11
3.599333
 21
2.226167
 31
0.0
  0
LINE
  5
CF
100
AcDbEntity
  8
2
  6
CONTINUOUS
 62
     2
100
AcDbLine
 10
0.599333
 20
2.2105
 30
0.0
 11
3.599333
 21
2.2105
 31
0.0
  0
LINE
  5
D0
100
AcDbEntity
  8
2
  6
CONTINUOUS
 62
     2
100
AcDbLine
 10
0.599333
 20
2.194917
 30
0.0
 11
3.599333
 21
2.194917
 31
0.0
  0
LINE
  5
D1
100
AcDbEntity
  8
2
  6
CONTINUOUS
 62
     2
100
AcDbLine
 10
0.599333
 20
2.17925
 30
0.0
 11
3.599333
 21
2.17925
 31
0.0
  0
LINE
  5
D2
100
AcDbEntity
  8
2
  6
CONTINUOUS
 62
     2
100
AcDbLine
 10
0.599333
 20
2.163667
 30
0.0
 11
3.599333
 21
2.163667
 31
0.0
  0
LINE
  5
D3
100
AcDbEntity
  8
2
  6
CONTINUOUS
 62
     2
100
AcDbLine
 10
0.599333
 20
2.148
 30
0.0
 11
3.599333
 21
2.148
 31
0.0
  0
LINE
  5
D4
100
AcDbEntity
  8
2
  6
CONTINUOUS
 62
     2
100
AcDbLine
 10
0.599333
 20
2.132417
 30
0.0
 11
3.599333
 21
2.132417
 31
0.0
  0
LINE
  5
D5
100
AcDbEntity
  8
2
  6
CONTINUOUS
 62
     2
100
AcDbLine
 10
0.599333
 20
2.11675
 30
0.0
 11
3.599333
 21
2.11675
 31
0.0
  0
LINE
  5
D6
100
AcDbEntity
  8
2
  6
CONTINUOUS
 62
     2
100
AcDbLine
 10
0.599333
 20
2.101167
 30
0.0
 11
3.599333
 21
2.101167
 31
0.0
  0
LINE
  5
D7
100
AcDbEntity
  8
2
  6
CONTINUOUS
 62
     2
100
AcDbLine
 10
0.599333
 20
2.0855
 30
0.0
 11
3.599333
 21
2.0855
 31
0.0
  0
LINE
  5
D8
100
AcDbEntity
  8
2
  6
CONTINUOUS
 62
     2
100
AcDbLine
 10
0.599333
 20
2.069917
 30
0.0
 11
3.599333
 21
2.069917
 31
0.0
  0
LINE
  5
D9
100
AcDbEntity
  8
2
  6
CONTINUOUS
 62
     2
100
AcDbLine
 10
0.599333
 20
2.05425
 30
0.0
 11
3.599333
 21
2.05425
 31
0.0
  0
LINE
  5
DA
100
AcDbEntity
  8
2
  6
CONTINUOUS
 62
     2
100
AcDbLine
 10
0.599333
 20
2.038667
 30
0.0
 11
3.599333
 21
2.038667
 31
0.0
  0
LINE
  5
DB
100
AcDbEntity
  8
2
  6
CONTINUOUS
 62
     2
100
AcDbLine
 10
0.599333
 20
2.023
 30
0.0
 11
3.599333
 21
2.023
 31
0.0
  0
LINE
  5
DC
100
AcDbEntity
  8
2
  6
CONTINUOUS
 62
     2
100
AcDbLine
 10
0.599333
 20
2.007417
 30
0.0
 11
3.599333
 21
2.007417
 31
0.0
  0
LINE
  5
DD
100
AcDbEntity
  8
2
  6
CONTINUOUS
 62
     2
100
AcDbLine
 10
0.599333
 20
1.99175
 30
0.0
 11
3.599333
 21
1.99175
 31
0.0
  0
LINE
  5
DE
100
AcDbEntity
  8
2
  6
CONTINUOUS
 62
     2
100
AcDbLine
 10
0.599333
 20
1.976167
 30
0.0
 11
3.599333
 21
1.976167
 31
0.0
  0
LINE
  5
DF
100
AcDbEntity
  8
2
  6
CONTINUOUS
 62
     2
100
AcDbLine
 10
0.599333
 20
1.9605
 30
0.0
 11
3.599333
 21
1.9605
 31
0.0
  0
LINE
  5
E0
100
AcDbEntity
  8
2
  6
CONTINUOUS
 62
     2
100
AcDbLine
 10
0.599333
 20
1.944917
 30
0.0
 11
3.599333
 21
1.944917
 31
0.0
  0
LINE
  5
E1
100
AcDbEntity
  8
2
  6
CONTINUOUS
 62
     2
100
AcDbLine
 10
0.599333
 20
1.92925
 30
0.0
 11
3.599333
 21
1.92925
 31
0.0
  0
LINE
  5
E2
100
AcDbEntity
  8
2
  6
CONTINUOUS
 62
     2
100
AcDbLine
 10
0.599333
 20
1.913667
 30
0.0
 11
3.599333
 21
1.913667
 31
0.0
  0
LINE
  5
E3
100
AcDbEntity
  8
2
  6
CONTINUOUS
 62
     2
100
AcDbLine
 10
0.599333
 20
1.898
 30
0.0
 11
3.599333
 21
1.898
 31
0.0
  0
LINE
  5
E4
100
AcDbEntity
  8
2
  6
CONTINUOUS
 62
     2
100
AcDbLine
 10
0.599333
 20
1.882417
 30
0.0
 11
3.599333
 21
1.882417
 31
0.0
  0
LINE
  5
E5
100
AcDbEntity
  8
2
  6
CONTINUOUS
 62
     2
100
AcDbLine
 10
0.599333
 20
1.86675
 30
0.0
 11
3.599333
 21
1.86675
 31
0.0
  0
LINE
  5
E6
100
AcDbEntity
  8
2
  6
CONTINUOUS
 62
     2
100
AcDbLine
 10
0.599333
 20
1.851167
 30
0.0
 11
3.599333
 21
1.851167
 31
0.0
  0
LINE
  5
E7
100
AcDbEntity
  8
2
  6
CONTINUOUS
 62
     2
100
AcDbLine
 10
0.599333
 20
1.8355
 30
0.0
 11
3.599333
 21
1.8355
 31
0.0
  0
LINE
  5
E8
100
AcDbEntity
  8
2
  6
CONTINUOUS
 62
     2
100
AcDbLine
 10
0.599333
 20
1.819917
 30
0.0
 11
3.599333
 21
1.819917
 31
0.0
  0
LINE
  5
E9
100
AcDbEntity
  8
2
  6
CONTINUOUS
 62
     2
100
AcDbLine
 10
0.599333
 20
1.80425
 30
0.0
 11
3.599333
 21
1.80425
 31
0.0
  0
LINE
  5
EA
100
AcDbEntity
  8
2
  6
CONTINUOUS
 62
     2
100
AcDbLine
 10
0.599333
 20
1.788667
 30
0.0
 11
3.599333
 21
1.788667
 31
0.0
  0
LINE
  5
EB
100
AcDbEntity
  8
2
  6
CONTINUOUS
 62
     2
100
AcDbLine
 10
0.599333
 20
1.773
 30
0.0
 11
3.599333
 21
1.773
 31
0.0
  0
LINE
  5
EC
100
AcDbEntity
  8
2
  6
CONTINUOUS
 62
     2
100
AcDbLine
 10
0.599333
 20
1.757417
 30
0.0
 11
3.599333
 21
1.757417
 31
0.0
  0
LINE
  5
ED
100
AcDbEntity
  8
2
  6
CONTINUOUS
 62
     2
100
AcDbLine
 10
0.599333
 20
1.74175
 30
0.0
 11
3.599333
 21
1.74175
 31
0.0
  0
LINE
  5
EE
100
AcDbEntity
  8
2
  6
CONTINUOUS
 62
     2
100
AcDbLine
 10
0.599333
 20
1.726167
 30
0.0
 11
3.599333
 21
1.726167
 31
0.0
  0
LINE
  5
EF
100
AcDbEntity
  8
2
  6
CONTINUOUS
 62
     2
100
AcDbLine
 10
0.599333
 20
1.7105
 30
0.0
 11
3.599333
 21
1.7105
 31
0.0
  0
LINE
  5
F0
100
AcDbEntity
  8
2
  6
CONTINUOUS
 62
     1
100
AcDbLine
 10
1.255583
 20
3.42925
 30
0.0
 11
1.255583
 21
1.705
 31
0.0
  0
LINE
  5
F1
100
AcDbEntity
  8
2
  6
CONTINUOUS
 62
     1
100
AcDbLine
 10
1.338917
 20
3.42925
 30
0.0
 11
1.338917
 21
1.705
 31
0.0
  0
LINE
  5
F2
100
AcDbEntity
  8
2
  6
CONTINUOUS
 62
     1
100
AcDbLine
 10
1.9535
 20
3.42925
 30
0.0
 11
1.9535
 21
1.705
 31
0.0
  0
LINE
  5
F3
100
AcDbEntity
  8
2
  6
CONTINUOUS
 62
     1
100
AcDbLine
 10
2.036833
 20
3.42925
 30
0.0
 11
2.036833
 21
1.705
 31
0.0
  0
LINE
  5
F4
100
AcDbEntity
  8
2
  6
CONTINUOUS
 62
     1
100
AcDbLine
 10
2.651417
 20
3.42925
 30
0.0
 11
2.651417
 21
1.705
 31
0.0
  0
LINE
  5
F5
100
AcDbEntity
  8
2
  6
CONTINUOUS
 62
     1
100
AcDbLine
 10
2.73475
 20
3.42925
 30
0.0
 11
2.73475
 21
1.705
 31
0.0
  0
LINE
  5
F6
100
AcDbEntity
  8
2
  6
CONTINUOUS
 62
     3
100
AcDbLine
 10
0.682667
 20
3.42925
 30
0.0
 11
0.682667
 21
1.705
 31
0.0
  0
LINE
  5
F7
100
AcDbEntity
  8
2
  6
CONTINUOUS
 62
     3
100
AcDbLine
 10
1.380583
 20
3.42925
 30
0.0
 11
1.380583
 21
1.705
 31
0.0
  0
LINE
  5
F8
100
AcDbEntity
  8
2
  6
CONTINUOUS
 62
     3
100
AcDbLine
 10
2.0785
 20
3.42925
 30
0.0
 11
2.0785
 21
1.705
 31
0.0
  0
LINE
  5
F9
100
AcDbEntity
  8
2
  6
CONTINUOUS
 62
     3
100
AcDbLine
 10
2.776417
 20
3.42925
 30
0.0
 11
2.776417
 21
1.705
 31
0.0
  0
LINE
  5
FA
100
AcDbEntity
  8
2
  6
CONTINUOUS
 62
   165
100
AcDbLine
 10
0.94825
 20
3.42925
 30
0.0
 11
0.94825
 21
1.705
 31
0.0
  0
LINE
  5
FB
100
AcDbEntity
  8
2
  6
CONTINUOUS
 62
   165
100
AcDbLine
 10
1.646167
 20
3.42925
 30
0.0
 11
1.646167
 21
1.705
 31
0.0
  0
LINE
  5
FC
100
AcDbEntity
  8
2
  6
CONTINUOUS
 62
   165
100
AcDbLine
 10
2.344083
 20
3.42925
 30
0.0
 11
2.344083
 21
1.705
 31
0.0
  0
LINE
  5
FD
100
AcDbEntity
  8
2
  6
CONTINUOUS
 62
   165
100
AcDbLine
 10
3.042
 20
3.42925
 30
0.0
 11
3.042
 21
1.705
 31
0.0
  0
TEXT
  5
FF
100
AcDbEntity
  8
3
  6
CONTINUOUS
 62
   233
100
AcDbText
 10
0.793417
 20
3.353
 30
0.0
 40
0.015584
  1
GOVERNING SPECIFICATIONS
  7
TXT
 72
     1
 11
0.946833
 21
3.353
 31
0.0
210
0.0
220
0.0
230
1.0
100
AcDbText
  0
TEXT
  5
100
100
AcDbEntity
  8
3
  6
CONTINUOUS
 62
   233
100
AcDbText
 10
0.802583
 20
3.180833
 30
0.0
 40
0.015584
  1
DESIGN-NEW STRUCTURES
  7
TXT
 72
     1
 11
0.948083
 21
3.180833
 31
0.0
210
0.0
220
0.0
230
1.0
100
AcDbText
  0
TEXT
  5
101
100
AcDbEntity
  8
3
  6
CONTINUOUS
 62
   233
100
AcDbText
 10
0.700667
 20
3.02475
 30
0.0
 40
0.015584
  1
DESIGN-REHABILITAION AND STRENGTHENING
  7
TXT
 72
     1
 11
0.946833
 21
3.02475
 31
0.0
210
0.0
220
0.0
230
1.0
100
AcDbText
  0
TEXT
  5
102
100
AcDbEntity
  8
3
  6
CONTINUOUS
 62
   233
100
AcDbText
 10
0.802083
 20
2.914
 30
0.0
 40
0.015584
  1
CONCRETE (CAST-IN-PLACE)
  7
TXT
 72
     1
 11
0.949917
 21
2.914
 31
0.0
210
0.0
220
0.0
230
1.0
100
AcDbText
  0
TEXT
  5
103
100
AcDbEntity
  8
3
  6
CONTINUOUS
 62
     4
100
AcDbText
 10
0.683167
 20
3.320333
 30
0.0
 40
0.009083
  1
The governing provisions applicable to this project are the West Virginia Department of Highways Stand-
  7
TXT
210
0.0
220
0.0
230
1.0
100
AcDbText
  0
TEXT
  5
104
100
AcDbEntity
  8
3
  6
CONTINUOUS
 62
     4
100
AcDbText
 10
0.641
 20
3.288667
 30
0.0
 40
0.009083
  1
the West Virginia Department of Highways, the contract plans and the contract documents.
  7
TXT
210
0.0
220
0.0
230
1.0
100
AcDbText
  0
TEXT
  5
105
100
AcDbEntity
  8
3
  6
CONTINUOUS
 62
     4
100
AcDbText
 10
0.641
 20
3.259417
 30
0.0
 40
0.009083
  1
*Current Supplemental Specifications shall be the Specifications in effect on the first day of project advertisement 
  7
TXT
210
0.0
220
0.0
230
1.0
100
AcDbText
  0
TEXT
  5
106
100
AcDbEntity
  8
3
  6
CONTINUOUS
 62
     4
100
AcDbText
 10
0.641
 20
3.24175
 30
0.0
 40
0.009083
  1
for letting to contract.
  7
TXT
210
0.0
220
0.0
230
1.0
100
AcDbText
  0
TEXT
  5
107
100
AcDbEntity
  8
3
  6
CONTINUOUS
 62
     4
100
AcDbText
 10
0.641
 20
3.132833
 30
0.0
 40
0.009083
  1
Design Unit Stresses:
  7
TXT
210
0.0
220
0.0
230
1.0
100
AcDbText
  0
TEXT
  5
108
100
AcDbEntity
  8
3
  6
CONTINUOUS
 62
     4
100
AcDbText
 10
0.682417
 20
3.116667
 30
0.0
 40
0.009083
  1
Reinforcing Steel-f = 20,000 p.s.i.
  7
TXT
210
0.0
220
0.0
230
1.0
100
AcDbText
  0
TEXT
  5
109
100
AcDbEntity
  8
3
  6
CONTINUOUS
 62
     4
100
AcDbText
 10
0.681583
 20
3.100833
 30
0.0
 40
0.009083
  1
Structural Steel (A36)-f = 20,000 p.s.i.
  7
TXT
210
0.0
220
0.0
230
1.0
100
AcDbText
  0
TEXT
  5
10A
100
AcDbEntity
  8
3
  6
CONTINUOUS
 62
     4
100
AcDbText
 10
0.682417
 20
3.085833
 30
0.0
 40
0.009083
  1
Structural Steel (A588)-f = 27,000 p.s.i.
  7
TXT
210
0.0
220
0.0
230
1.0
100
AcDbText
  0
TEXT
  5
10B
100
AcDbEntity
  8
3
  6
CONTINUOUS
 62
     4
100
AcDbText
 10
0.948667
 20
3.116667
 30
0.0
 40
0.009083
  1
Class B Concrete-f = 3,000 p.s.i.
  7
TXT
210
0.0
220
0.0
230
1.0
100
AcDbText
  0
TEXT
  5
10C
100
AcDbEntity
  8
3
  6
CONTINUOUS
 62
     4
100
AcDbText
 10
0.947833
 20
3.100083
 30
0.0
 40
0.009083
  1
Class B Concrete-f = 1,200 p.s.i.
  7
TXT
210
0.0
220
0.0
230
1.0
100
AcDbText
  0
TEXT
  5
10D
100
AcDbEntity
  8
3
  6
CONTINUOUS
 62
     4
100
AcDbText
 10
0.948667
 20
3.085833
 30
0.0
 40
0.009083
  1
Class B Concrete-n = 10
  7
TXT
210
0.0
220
0.0
230
1.0
100
AcDbText
  0
LINE
  5
10E
100
AcDbEntity
  8
3
  6
CONTINUOUS
 62
   165
100
AcDbLine
 10
0.79325
 20
3.347
 30
0.0
 11
1.104333
 21
3.347
 31
0.0
  0
LINE
  5
10F
100
AcDbEntity
  8
3
  6
CONTINUOUS
 62
   165
100
AcDbLine
 10
0.800333
 20
3.175583
 30
0.0
 11
1.100333
 21
3.175583
 31
0.0
  0
LINE
  5
110
100
AcDbEntity
  8
3
  6
CONTINUOUS
 62
   165
100
AcDbLine
 10
0.696083
 20
3.02075
 30
0.0
 11
1.19925
 21
3.02075
 31
0.0
  0
TEXT
  5
111
100
AcDbEntity
  8
3
  6
CONTINUOUS
 62
     4
100
AcDbText
 10
0.6825
 20
2.990833
 30
0.0
 40
0.009083
  1
This bridge is strengthened for a live load capacity of         .  Strengthening steel design stress-
  7
TXT
210
0.0
220
0.0
230
1.0
100
AcDbText
  0
TEXT
  5
112
100
AcDbEntity
  8
3
  6
CONTINUOUS
 62
     4
100
AcDbText
 10
0.640583
 20
2.975833
 30
0.0
 40
0.009083
  1
f           p.s.i.  All structural steel shall be ASTM A36 unless otherwise designated on the construction plans.
  7
TXT
210
0.0
220
0.0
230
1.0
100
AcDbText
  0
TEXT
  5
113
100
AcDbEntity
  8
3
  6
CONTINUOUS
 62
     4
100
AcDbText
 10
0.6475
 20
2.979
 30
0.0
 40
0.009083
  1
=
  7
TXT
210
0.0
220
0.0
230
1.0
100
AcDbText
  0
TEXT
  5
114
100
AcDbEntity
  8
3
  6
CONTINUOUS
 62
     4
100
AcDbText
 10
0.682417
 20
2.882667
 30
0.0
 40
0.009083
  1
Concrete shall be cured in accordance with Subsection 601.12 of the Standard Specifications.  If
  7
TXT
210
0.0
220
0.0
230
1.0
100
AcDbText
  0
TEXT
  5
115
100
AcDbEntity
  8
3
  6
CONTINUOUS
 62
     4
100
AcDbText
 10
0.640167
 20
2.866917
 30
0.0
 40
0.009083
  1
used, polyethylene coated burlap shall conform to the requirements of Subsection 707.5 of the Standard
  7
TXT
210
0.0
220
0.0
230
1.0
100
AcDbText
  0
TEXT
  5
116
100
AcDbEntity
  8
3
  6
CONTINUOUS
 62
     4
100
AcDbText
 10
0.640833
 20
2.851167
 30
0.0
 40
0.009083
  1
Specifications.
  7
TXT
210
0.0
220
0.0
230
1.0
100
AcDbText
  0
TEXT
  5
117
100
AcDbEntity
  8
3
  6
CONTINUOUS
 62
     4
100
AcDbText
 10
0.682417
 20
2.836
 30
0.0
 40
0.009083
  1
The minimum covering, measured from the surface of the concrete to the face of any reinforcing steel
  7
TXT
210
0.0
220
0.0
230
1.0
100
AcDbText
  0
TEXT
  5
118
100
AcDbEntity
  8
3
  6
CONTINUOUS
 62
     4
100
AcDbText
 10
0.640833
 20
2.82025
 30
0.0
 40
0.009083
  1
bar, shall be 3 inches if the concrete is in contact with the ground surface and 2 inches otherwise, except as
  7
TXT
210
0.0
220
0.0
230
1.0
100
AcDbText
  0
TEXT
  5
119
100
AcDbEntity
  8
3
  6
CONTINUOUS
 62
     4
100
AcDbText
 10
0.640833
 20
2.8045
 30
0.0
 40
0.009083
  1
specified differently on the plans.
  7
TXT
210
0.0
220
0.0
230
1.0
100
AcDbText
  0
LINE
  5
11A
100
AcDbEntity
  8
3
  6
CONTINUOUS
 62
   165
100
AcDbLine
 10
0.799833
 20
2.91125
 30
0.0
 11
1.103917
 21
2.91125
 31
0.0
  0
TEXT
  5
11B
100
AcDbEntity
  8
3
  6
CONTINUOUS
 62
   233
100
AcDbText
 10
0.712583
 20
2.742167
 30
0.0
 40
0.015584
  1
SUBSTRUCTURE CONCRETE (CAST-IN-PLACE)
  7
TXT
 72
     1
 11
0.94875
 21
2.742167
 31
0.0
210
0.0
220
0.0
230
1.0
100
AcDbText
  0
LINE
  5
11C
100
AcDbEntity
  8
3
  6
CONTINUOUS
 62
   165
100
AcDbLine
 10
0.709083
 20
2.739667
 30
0.0
 11
1.190917
 21
2.739667
 31
0.0
  0
TEXT
  5
11D
100
AcDbEntity
  8
3
  6
CONTINUOUS
 62
     4
100
AcDbText
 10
0.681667
 20
2.710667
 30
0.0
 40
0.009083
  1
All concrete in the substructure shall be Class B, air entrained.
  7
TXT
210
0.0
220
0.0
230
1.0
100
AcDbText
  0
TEXT
  5
11E
100
AcDbEntity
  8
3
  6
CONTINUOUS
 62
     4
100
AcDbText
 10
0.681833
 20
2.694917
 30
0.0
 40
0.009083
  1
Chamfer all exposed edges of the substructure concrete 1 inch, except for the abutment curbs, which
  7
TXT
210
0.0
220
0.0
230
1.0
100
AcDbText
  0
TEXT
  5
11F
100
AcDbEntity
  8
3
  6
CONTINUOUS
 62
     4
100
AcDbText
 10
0.640833
 20
2.679333
 30
0.0
 40
0.009083
  1
shall be chamfered 3/4 inch.
  7
TXT
210
0.0
220
0.0
230
1.0
100
AcDbText
  0
TEXT
  5
120
100
AcDbEntity
  8
3
  6
CONTINUOUS
 62
     4
100
AcDbText
 10
0.681833
 20
2.66375
 30
0.0
 40
0.009083
  1
The exposed surface of the substructure shall be Class 1, Ordinary Surface Finish, in accordance with
  7
TXT
210
0.0
220
0.0
230
1.0
100
AcDbText
  0
TEXT
  5
121
100
AcDbEntity
  8
3
  6
CONTINUOUS
 62
     4
100
AcDbText
 10
0.640167
 20
2.6325
 30
0.0
 40
0.009083
  1
be Class 2, Rubbed Finish, in accordance with Subsection 601.11.2 of the Standard Specifications.
  7
TXT
210
0.0
220
0.0
230
1.0
100
AcDbText
  0
TEXT
  5
122
100
AcDbEntity
  8
3
  6
CONTINUOUS
 62
     4
100
AcDbText
 10
0.6825
 20
2.616917
 30
0.0
 40
0.009083
  1
The abutment curtain wall shall not be poured until after the superstructure is in place.
  7
TXT
210
0.0
220
0.0
230
1.0
100
AcDbText
  0
TEXT
  5
123
100
AcDbEntity
  8
3
  6
CONTINUOUS
 62
     4
100
AcDbText
 10
0.681167
 20
2.601917
 30
0.0
 40
0.009083
  1
For footings embedded in rock, the top of the abutment footing shall be maintained at the elevations 
  7
TXT
210
0.0
220
0.0
230
1.0
100
AcDbText
  0
TEXT
  5
124
100
AcDbEntity
  8
3
  6
CONTINUOUS
 62
     4
100
AcDbText
 10
0.640167
 20
2.585667
 30
0.0
 40
0.009083
  1
shown on the plans.  The footings shall be carried a minimum of 1 foot into solid rock and poured against 
  7
TXT
210
0.0
220
0.0
230
1.0
100
AcDbText
  0
TEXT
  5
125
100
AcDbEntity
  8
3
  6
CONTINUOUS
 62
     4
100
AcDbText
 10
0.640167
 20
2.570083
 30
0.0
 40
0.009083
  1
the face of the rock without forms, except where the rock excavation is not the entire depth of the footing.
  7
TXT
210
0.0
220
0.0
230
1.0
100
AcDbText
  0
TEXT
  5
126
100
AcDbEntity
  8
3
  6
CONTINUOUS
 62
     4
100
AcDbText
 10
0.640167
 20
2.538917
 30
0.0
 40
0.009083
  1
finished to true elevations as shown on the plans.
  7
TXT
210
0.0
220
0.0
230
1.0
100
AcDbText
  0
TEXT
  5
127
100
AcDbEntity
  8
3
  6
CONTINUOUS
 62
     4
100
AcDbText
 10
0.681833
 20
2.5545
 30
0.0
 40
0.009083
  1
The abutment bearing seat, upon which the shoes or other bearing devices will be set, shall be
  7
TXT
210
0.0
220
0.0
230
1.0
100
AcDbText
  0
TEXT
  5
128
100
AcDbEntity
  8
3
  6
CONTINUOUS
 62
     4
100
AcDbText
 10
0.6825
 20
2.52325
 30
0.0
 40
0.009083
  1
Fill anchor bolt holes with non-shrink grout after anchor bolts are set.  The non-shrink grout shall 
  7
TXT
210
0.0
220
0.0
230
1.0
100
AcDbText
  0
TEXT
  5
129
100
AcDbEntity
  8
3
  6
CONTINUOUS
 62
     4
100
AcDbText
 10
0.640833
 20
2.507
 30
0.0
 40
0.009083
  1
consist of 1 part regular portland cement, 1 part silica sand and 1 part non-shrink admixture.  The cost of the
  7
TXT
210
0.0
220
0.0
230
1.0
100
AcDbText
  0
TEXT
  5
12A
100
AcDbEntity
  8
3
  6
CONTINUOUS
 62
     4
100
AcDbText
 10
0.640167
 20
2.492083
 30
0.0
 40
0.009083
  1
non-shrink grout shall be included in Pay Item 601-2, "Class B Concrete".
  7
TXT
210
0.0
220
0.0
230
1.0
100
AcDbText
  0
LINE
  5
12B
100
AcDbEntity
  8
3
  6
CONTINUOUS
 62
   165
100
AcDbLine
 10
0.6955
 20
2.425667
 30
0.0
 11
1.198667
 21
2.425667
 31
0.0
  0
TEXT
  5
12C
100
AcDbEntity
  8
3
  6
CONTINUOUS
 62
   233
100
AcDbText
 10
0.69975
 20
2.430083
 30
0.0
 40
0.015584
  1
SUPERSTRUCTURE CONCRETE (CAST-IN-PLACE)
  7
TXT
 72
     1
 11
0.948167
 21
2.430083
 31
0.0
210
0.0
220
0.0
230
1.0
100
AcDbText
  0
TEXT
  5
12D
100
AcDbEntity
  8
3
  6
CONTINUOUS
 62
     4
100
AcDbText
 10
0.681917
 20
2.398333
 30
0.0
 40
0.009083
  1
All concrete in the superstructure shall be Class K, air entrained.  All concrete for decks, curbs,
  7
TXT
210
0.0
220
0.0
230
1.0
100
AcDbText
  0
TEXT
  5
12E
100
AcDbEntity
  8
3
  6
CONTINUOUS
 62
     4
100
AcDbText
 10
0.640917
 20
2.383333
 30
0.0
 40
0.009083
  1
parapets or medians shall be Class K, air entrained, containing 7 bags of cement per cubic yard.
  7
TXT
210
0.0
220
0.0
230
1.0
100
AcDbText
  0
TEXT
  5
12F
100
AcDbEntity
  8
3
  6
CONTINUOUS
 62
     4
100
AcDbText
 10
0.681917
 20
2.366417
 30
0.0
 40
0.009083
  1
Chamfer all exposed edges of the curbs, parapets or mediams 3/4".  The exposed surfaces of the curbs
  7
TXT
210
0.0
220
0.0
230
1.0
100
AcDbText
  0
TEXT
  5
130
100
AcDbEntity
  8
3
  6
CONTINUOUS
 62
     4
100
AcDbText
 10
0.640917
 20
2.3515
 30
0.0
 40
0.009083
  1
shall be Class 2, Rubbed Finish, in accordance with Subsection 601.11.2 of the Standard Specifications.
  7
TXT
210
0.0
220
0.0
230
1.0
100
AcDbText
  0
TEXT
  5
131
100
AcDbEntity
  8
3
  6
CONTINUOUS
 62
     4
100
AcDbText
 10
0.640917
 20
2.33525
 30
0.0
 40
0.009083
  1
Bridge decks shall be finished in accordance with Subsection 601.11.4 of the Standard Specifications.
  7
TXT
210
0.0
220
0.0
230
1.0
100
AcDbText
  0
TEXT
  5
132
100
AcDbEntity
  8
3
  6
CONTINUOUS
 62
   233
100
AcDbText
 10
0.807667
 20
2.274
 30
0.0
 40
0.015584
  1
REINFORCING STEEL BARS
  7
TXT
 72
     1
 11
0.948833
 21
2.274
 31
0.0
210
0.0
220
0.0
230
1.0
100
AcDbText
  0
LINE
  5
133
100
AcDbEntity
  8
3
  6
CONTINUOUS
 62
   165
100
AcDbLine
 10
0.80475
 20
2.270917
 30
0.0
 11
1.096667
 21
2.270917
 31
0.0
  0
TEXT
  5
134
100
AcDbEntity
  8
3
  6
CONTINUOUS
 62
     4
100
AcDbText
 10
0.682583
 20
2.241583
 30
0.0
 40
0.009083
  1
All reinforcing steel bars shall be intermediate grade billet steel, Grade 40 or 60 in accordance with 
  7
TXT
210
0.0
220
0.0
230
1.0
100
AcDbText
  0
TEXT
  5
135
100
AcDbEntity
  8
3
  6
CONTINUOUS
 62
     4
100
AcDbText
 10
0.640417
 20
2.210833
 30
0.0
 40
0.009083
  1
Specifications shall be followed.
  7
TXT
210
0.0
220
0.0
230
1.0
100
AcDbText
  0
TEXT
  5
136
100
AcDbEntity
  8
3
  6
CONTINUOUS
 62
     4
100
AcDbText
 10
0.681333
 20
2.19525
 30
0.0
 40
0.009083
  1
The minimum splice length or dowel bar embedment shall be 30 bar diameters.
  7
TXT
210
0.0
220
0.0
230
1.0
100
AcDbText
  0
TEXT
  5
137
100
AcDbEntity
  8
3
  6
CONTINUOUS
 62
     4
100
AcDbText
 10
0.642333
 20
2.16475
 30
0.0
 40
0.009083
  1
with drilling of anchor bolt holes.
  7
TXT
210
0.0
220
0.0
230
1.0
100
AcDbText
  0
TEXT
  5
138
100
AcDbEntity
  8
3
  6
CONTINUOUS
 62
     4
100
AcDbText
 10
0.682667
 20
2.180333
 30
0.0
 40
0.009083
  1
Reinforcement under the shoes or other bearing device shall be so placed so as to avoid interference 
  7
TXT
210
0.0
220
0.0
230
1.0
100
AcDbText
  0
TEXT
  5
139
100
AcDbEntity
  8
3
  6
CONTINUOUS
 62
     4
100
AcDbText
 10
0.682
 20
2.147833
 30
0.0
 40
0.009083
  1
The inspector shall select random bars from the reinforcing bar list for test bars.  He shall cut 5'-0"
  7
TXT
210
0.0
220
0.0
230
1.0
100
AcDbText
  0
TEXT
  5
13A
100
AcDbEntity
  8
3
  6
CONTINUOUS
 62
     4
100
AcDbText
 10
0.641083
 20
2.132833
 30
0.0
 40
0.009083
  1
from the bars chosen, rebars have been detailed to allow a 30 bar diameter splice at each end.  One 
  7
TXT
210
0.0
220
0.0
230
1.0
100
AcDbText
  0
TEXT
  5
13B
100
AcDbEntity
  8
3
  6
CONTINUOUS
 62
     4
100
AcDbText
 10
0.640417
 20
2.116583
 30
0.0
 40
0.009083
  1
rebar for each 10 tons or fraction thereof, of each size has been included in the bill of steel and will be paid
  7
TXT
210
0.0
220
0.0
230
1.0
100
AcDbText
  0
TEXT
  5
13C
100
AcDbEntity
  8
3
  6
CONTINUOUS
 62
     4
100
AcDbText
 10
0.640417
 20
2.101
 30
0.0
 40
0.009083
  1
for under Item 602-1.  In the event all bars of any one size are not sent in one shipment, the supplier shall,  
  7
TXT
210
0.0
220
0.0
230
1.0
100
AcDbText
  0
TEXT
  5
13D
100
AcDbEntity
  8
3
  6
CONTINUOUS
 62
     4
100
AcDbText
 10
0.640417
 20
2.085417
 30
0.0
 40
0.009083
  1
at his expense, furnish one bar for each 10 tons or fraction thereof, for each extra shipment.
  7
TXT
210
0.0
220
0.0
230
1.0
100
AcDbText
  0
TEXT
  5
13E
100
AcDbEntity
  8
3
  6
CONTINUOUS
 62
     4
100
AcDbText
 10
0.640417
 20
2.038583
 30
0.0
 40
0.009083
  1
shipment may be accepted without further testing subject to record sampling procedures.
  7
TXT
210
0.0
220
0.0
230
1.0
100
AcDbText
  0
LINE
  5
13F
100
AcDbEntity
  8
3
  6
CONTINUOUS
 62
   165
100
AcDbLine
 10
0.63275
 20
1.9745
 30
0.0
 11
1.264
 21
1.9745
 31
0.0
  0
TEXT
  5
140
100
AcDbEntity
  8
3
  6
CONTINUOUS
 62
   233
100
AcDbText
 10
0.6215
 20
1.9775
 30
0.0
 40
0.015584
  1
 STRUCTURE EXCAVATION (FOOTINGS FOUNDED IN ROCK)
  7
TXT
 72
     1
 11
0.941667
 21
1.9775
 31
0.0
210
0.0
220
0.0
230
1.0
100
AcDbText
  0
TEXT
  5
141
100
AcDbEntity
  8
3
  6
CONTINUOUS
 62
     4
100
AcDbText
 10
0.682833
 20
1.94475
 30
0.0
 40
0.009083
  1
Structure excavation quantities through earth fill shall be measured from the top of rock to the 
  7
TXT
210
0.0
220
0.0
230
1.0
100
AcDbText
  0
TEXT
  5
142
100
AcDbEntity
  8
3
  6
CONTINUOUS
 62
     4
100
AcDbText
 10
0.6405
 20
1.912917
 30
0.0
 40
0.009083
  1
or rock excavation.  Rock shall be excavated and paid for as structure excavation to the neat lines of the
  7
TXT
210
0.0
220
0.0
230
1.0
100
AcDbText
  0
TEXT
  5
143
100
AcDbEntity
  8
3
  6
CONTINUOUS
 62
     4
100
AcDbText
 10
0.6405
 20
1.882333
 30
0.0
 40
0.009083
  1
hard rock.
  7
TXT
210
0.0
220
0.0
230
1.0
100
AcDbText
  0
TEXT
  5
144
100
AcDbEntity
  8
3
  6
CONTINUOUS
 62
     4
100
AcDbText
 10
0.6405
 20
1.898583
 30
0.0
 40
0.009083
  1
footings only.  Rock shall be excavated until a level surface is provided with the entire footing resting on 
  7
TXT
210
0.0
220
0.0
230
1.0
100
AcDbText
  0
TEXT
  5
145
100
AcDbEntity
  8
3
  6
CONTINUOUS
 62
   233
100
AcDbText
 10
0.743917
 20
1.820167
 30
0.0
 40
0.015584
  1
  STEEL TOUGHNESS REQUIREMENT
  7
TXT
 72
     1
 11
0.941
 21
1.820167
 31
0.0
210
0.0
220
0.0
230
1.0
100
AcDbText
  0
LINE
  5
146
100
AcDbEntity
  8
3
  6
CONTINUOUS
 62
   165
100
AcDbLine
 10
0.77075
 20
1.817833
 30
0.0
 11
1.141917
 21
1.817833
 31
0.0
  0
TEXT
  5
147
100
AcDbEntity
  8
3
  6
CONTINUOUS
 62
     4
100
AcDbText
 10
0.682333
 20
1.7885
 30
0.0
 40
0.009083
  1
The provisions of the AASHTO Specifications in accordance with Article 615.4.9 of the Standard
  7
TXT
210
0.0
220
0.0
230
1.0
100
AcDbText
  0
TEXT
  5
148
100
AcDbEntity
  8
3
  6
CONTINUOUS
 62
     4
100
AcDbText
 10
0.640667
 20
1.772917
 30
0.0
 40
0.009083
  1
Specifications shall apply to those items of structural steel as shown and/or designated by these plans.
  7
TXT
210
0.0
220
0.0
230
1.0
100
AcDbText
  0
TEXT
  5
149
100
AcDbEntity
  8
3
  6
CONTINUOUS
 62
   233
100
AcDbText
 10
1.33125
 20
1.91825
 30
0.0
 40
0.015584
  1
STRUCTURE EXCAVATION (FOOTINGS FOUNDED ON PILES)
  7
TXT
 72
     1
 11
1.647917
 21
1.91825
 31
0.0
210
0.0
220
0.0
230
1.0
100
AcDbText
  0
TEXT
  5
14A
100
AcDbEntity
  8
3
  6
CONTINUOUS
 62
   233
100
AcDbText
 10
2.240083
 20
3.319333
 30
0.0
 40
0.015584
  1
BRIDGE GUARDRAIL
  7
TXT
 72
     1
 11
2.343083
 21
3.319333
 31
0.0
210
0.0
220
0.0
230
1.0
100
AcDbText
  0
TEXT
  5
14B
100
AcDbEntity
  8
3
  6
CONTINUOUS
 62
   233
100
AcDbText
 10
1.42275
 20
1.806833
 30
0.0
 40
0.015584
  1
PREFORMED ELASTOMERIC JOINT SEALER
  7
TXT
 72
     1
 11
1.646917
 21
1.806833
 31
0.0
210
0.0
220
0.0
230
1.0
100
AcDbText
  0
TEXT
  5
14C
100
AcDbEntity
  8
3
  6
CONTINUOUS
 62
   233
100
AcDbText
 10
2.254833
 20
3.151833
 30
0.0
 40
0.015584
  1
STRUCTURAL STEEL
  7
TXT
 72
     1
 11
2.359167
 21
3.151833
 31
0.0
210
0.0
220
0.0
230
1.0
100
AcDbText
  0
TEXT
  5
14D
100
AcDbEntity
  8
3
  6
CONTINUOUS
 62
   233
100
AcDbText
 10
1.479167
 20
3.3675
 30
0.0
 40
0.015584
  1
PAINTING (NEW STRUCTURES)
  7
TXT
 72
     1
 11
1.644
 21
3.3675
 31
0.0
210
0.0
220
0.0
230
1.0
100
AcDbText
  0
TEXT
  5
14E
100
AcDbEntity
  8
3
  6
CONTINUOUS
 62
   233
100
AcDbText
 10
1.367917
 20
2.773083
 30
0.0
 40
0.015584
  1
CLEANING AND PAINTING (EXISTING STRUCTURES)
  7
TXT
 72
     1
 11
1.644667
 21
2.773083
 31
0.0
210
0.0
220
0.0
230
1.0
100
AcDbText
  0
TEXT
  5
14F
100
AcDbEntity
  8
3
  6
CONTINUOUS
 62
   233
100
AcDbText
 10
2.244833
 20
2.311083
 30
0.0
 40
0.015584
  1
MAINTAINING TRAFFIC
  7
TXT
 72
     1
 11
2.363917
 21
2.311083
 31
0.0
210
0.0
220
0.0
230
1.0
100
AcDbText
  0
TEXT
  5
150
100
AcDbEntity
  8
3
  6
CONTINUOUS
 62
   233
100
AcDbText
 10
2.895333
 20
3.321583
 30
0.0
 40
0.015584
  1
NAIL LAMINATED WOOD DECK
  7
TXT
 72
     1
 11
3.060333
 21
3.321583
 31
0.0
210
0.0
220
0.0
230
1.0
100
AcDbText
  0
TEXT
  5
151
100
AcDbEntity
  8
3
  6
CONTINUOUS
 62
   233
100
AcDbText
 10
2.810167
 20
2.445917
 30
0.0
 40
0.015584
  1
PRESTRESSED CONCRETE SUPERSTRUCTURE
  7
TXT
 72
     1
 11
3.044333
 21
2.445917
 31
0.0
210
0.0
220
0.0
230
1.0
100
AcDbText
  0
TEXT
  5
152
100
AcDbEntity
  8
3
  6
CONTINUOUS
 62
   233
100
AcDbText
 10
-2.614167
 20
3.813667
 30
0.0
 40
0.015584
  1
DOWEL LAMINATED WOOD DECK
  7
TXT
 72
     1
 11
-2.435667
 21
3.813667
 31
0.0
210
0.0
220
0.0
230
1.0
100
AcDbText
  0
LINE
  5
153
100
AcDbEntity
  8
3
  6
CONTINUOUS
 62
   165
100
AcDbLine
 10
1.327667
 20
1.913917
 30
0.0
 11
1.972917
 21
1.913917
 31
0.0
  0
LINE
  5
154
100
AcDbEntity
  8
3
  6
CONTINUOUS
 62
   165
100
AcDbLine
 10
1.420417
 20
1.803083
 30
0.0
 11
1.875667
 21
1.803083
 31
0.0
  0
LINE
  5
155
100
AcDbEntity
  8
3
  6
CONTINUOUS
 62
   165
100
AcDbLine
 10
1.477667
 20
3.363
 30
0.0
 11
1.812583
 21
3.363
 31
0.0
  0
LINE
  5
156
100
AcDbEntity
  8
3
  6
CONTINUOUS
 62
   165
100
AcDbLine
 10
1.367083
 20
2.769667
 30
0.0
 11
1.92525
 21
2.769667
 31
0.0
  0
LINE
  5
157
100
AcDbEntity
  8
3
  6
CONTINUOUS
 62
   165
100
AcDbLine
 10
2.072167
 20
2.929167
 30
0.0
 11
2.607917
 21
2.929167
 31
0.0
  0
LINE
  5
158
100
AcDbEntity
  8
3
  6
CONTINUOUS
 62
   165
100
AcDbLine
 10
2.14225
 20
2.594583
 30
0.0
 11
2.558917
 21
2.594583
 31
0.0
  0
LINE
  5
159
100
AcDbEntity
  8
3
  6
CONTINUOUS
 62
   165
100
AcDbLine
 10
2.891833
 20
3.317417
 30
0.0
 11
3.22925
 21
3.317417
 31
0.0
  0
LINE
  5
15A
100
AcDbEntity
  8
3
  6
CONTINUOUS
 62
   165
100
AcDbLine
 10
2.810417
 20
2.442833
 30
0.0
 11
3.28275
 21
2.442833
 31
0.0
  0
LINE
  5
15B
100
AcDbEntity
  8
3
  6
CONTINUOUS
 62
   165
100
AcDbLine
 10
-2.616417
 20
3.809917
 30
0.0
 11
-2.255417
 21
3.809917
 31
0.0
  0
TEXT
  5
15C
100
AcDbEntity
  8
3
  6
CONTINUOUS
 62
     4
100
AcDbText
 10
1.380917
 20
1.885833
 30
0.0
 40
0.009083
  1
Structure excavation quantities through earth fill shall be measured from the bottom of the footing 
  7
TXT
210
0.0
220
0.0
230
1.0
100
AcDbText
  0
TEXT
  5
15D
100
AcDbEntity
  8
3
  6
CONTINUOUS
 62
     4
100
AcDbText
 10
1.339167
 20
1.87025
 30
0.0
 40
0.009083
  1
to the original ground line, 18 inches outside the neat line of the footings.  No excavation will be classiified as
  7
TXT
210
0.0
220
0.0
230
1.0
100
AcDbText
  0
TEXT
  5
15E
100
AcDbEntity
  8
3
  6
CONTINUOUS
 62
     4
100
AcDbText
 10
1.339167
 20
1.85475
 30
0.0
 40
0.009083
  1
wet or rock excavation.
  7
TXT
210
0.0
220
0.0
230
1.0
100
AcDbText
  0
LINE
  5
15F
100
AcDbEntity
  8
3
  6
CONTINUOUS
 62
   165
100
AcDbLine
 10
2.234
 20
3.314667
 30
0.0
 11
2.45475
 21
3.314667
 31
0.0
  0
TEXT
  5
160
100
AcDbEntity
  8
3
  6
CONTINUOUS
 62
     4
100
AcDbText
 10
2.078083
 20
3.287167
 30
0.0
 40
0.009083
  1
The guardrail, buffer end terminal sections, posts and end anchors shall conform to the
  7
TXT
210
0.0
220
0.0
230
1.0
100
AcDbText
  0
TEXT
  5
161
100
AcDbEntity
  8
3
  6
CONTINUOUS
 62
     4
100
AcDbText
 10
2.036333
 20
3.269917
 30
0.0
 40
0.009083
  1
requirements as set forth by the West Virginia Department of Highways Standard Details Book (Standard
  7
TXT
210
0.0
220
0.0
230
1.0
100
AcDbText
  0
TEXT
  5
162
100
AcDbEntity
  8
3
  6
CONTINUOUS
 62
     4
100
AcDbText
 10
2.038
 20
3.255167
 30
0.0
 40
0.009083
  1
Sheets G.R.1 through G.R.7, as applicable) and Standard Bridge Plan Sheet BR-G1.  Blocks are required.  End
  7
TXT
210
0.0
220
0.0
230
1.0
100
AcDbText
  0
TEXT
  5
163
100
AcDbEntity
  8
3
  6
CONTINUOUS
 62
     4
100
AcDbText
 10
2.036333
 20
3.238833
 30
0.0
 40
0.009083
  1
anchorage shall be in accordance with Design Directive DD 16.4.  All  guardrail mounting hardware will be 
  7
TXT
210
0.0
220
0.0
230
1.0
100
AcDbText
  0
TEXT
  5
164
100
AcDbEntity
  8
3
  6
CONTINUOUS
 62
     4
100
AcDbText
 10
2.036333
 20
3.22325
 30
0.0
 40
0.009083
  1
hot-dip galvanized after fabrication.  Threads shall be retapped to ensure proper fit.  Guardrail posts may be 
  7
TXT
210
0.0
220
0.0
230
1.0
100
AcDbText
  0
TEXT
  5
165
100
AcDbEntity
  8
3
  6
CONTINUOUS
 62
     4
100
AcDbText
 10
2.037167
 20
3.2085
 30
0.0
 40
0.009083
  1
square or beveled.
  7
TXT
210
0.0
220
0.0
230
1.0
100
AcDbText
  0
TEXT
  5
166
100
AcDbEntity
  8
3
  6
CONTINUOUS
 62
     4
100
AcDbText
 10
1.38025
 20
1.774667
 30
0.0
 40
0.009083
  1
The preformed elastomeric joint sealer shall conform to the requirements of Section 624 of the
  7
TXT
210
0.0
220
0.0
230
1.0
100
AcDbText
  0
TEXT
  5
167
100
AcDbEntity
  8
3
  6
CONTINUOUS
 62
     4
100
AcDbText
 10
1.339333
 20
1.759083
 30
0.0
 40
0.009083
  1
Standard Specifications.
  7
TXT
210
0.0
220
0.0
230
1.0
100
AcDbText
  0
LINE
  5
168
100
AcDbEntity
  8
3
  6
CONTINUOUS
 62
   165
100
AcDbLine
 10
2.253833
 20
3.146833
 30
0.0
 11
2.468917
 21
3.146833
 31
0.0
  0
TEXT
  5
169
100
AcDbEntity
  8
3
  6
CONTINUOUS
 62
     4
100
AcDbText
 10
2.079083
 20
3.118333
 30
0.0
 40
0.009083
  1
All structural steel shall conform to the requirements of ASTM A36 (f =20,000 p.s.i.) unless
  7
TXT
210
0.0
220
0.0
230
1.0
100
AcDbText
  0
TEXT
  5
16A
100
AcDbEntity
  8
3
  6
CONTINUOUS
 62
     4
100
AcDbText
 10
2.038167
 20
3.103583
 30
0.0
 40
0.009083
  1
otherwise noted.
  7
TXT
210
0.0
220
0.0
230
1.0
100
AcDbText
  0
TEXT
  5
16B
100
AcDbEntity
  8
3
  6
CONTINUOUS
 62
     4
100
AcDbText
 10
2.0365
 20
3.071667
 30
0.0
 40
0.009083
  1
of ASTM A588 (f =27,000 p.s.i.) may be substituted for ASTM A36 steel.  No painting shall be required for
  7
TXT
210
0.0
220
0.0
230
1.0
100
AcDbText
  0
TEXT
  5
16C
100
AcDbEntity
  8
3
  6
CONTINUOUS
 62
     4
100
AcDbText
 10
2.038167
 20
3.056083
 30
0.0
 40
0.009083
  1
ASTM A588 steel.
  7
TXT
210
0.0
220
0.0
230
1.0
100
AcDbText
  0
TEXT
  5
16D
100
AcDbEntity
  8
3
  6
CONTINUOUS
 62
     4
100
AcDbText
 10
2.080167
 20
3.035917
 30
0.0
 40
0.009083
  1
OPTION:
  7
TXT
210
0.0
220
0.0
230
1.0
100
AcDbText
  0
TEXT
  5
16E
100
AcDbEntity
  8
3
  6
CONTINUOUS
 62
     4
100
AcDbText
 10
2.080167
 20
3.016083
 30
0.0
 40
0.009083
  1
All ASTM A36 steel shall be blast cleamed and shop primed in accordance with Section 615 of the 
  7
TXT
210
0.0
220
0.0
230
1.0
100
AcDbText
  0
TEXT
  5
16F
100
AcDbEntity
  8
3
  6
CONTINUOUS
 62
     4
100
AcDbText
 10
2.038667
 20
2.9995
 30
0.0
 40
0.009083
  1
Standard Specifications.
  7
TXT
210
0.0
220
0.0
230
1.0
100
AcDbText
  0
TEXT
  5
170
100
AcDbEntity
  8
3
  6
CONTINUOUS
 62
     4
100
AcDbText
 10
1.338917
 20
3.239583
 30
0.0
 40
0.009083
  1
Subsection 711.7 of the Standard Specifications.  This will replace the shop paint specified in Subsection 615.6.3.
  7
TXT
210
0.0
220
0.0
230
1.0
100
AcDbText
  0
TEXT
  5
171
100
AcDbEntity
  8
3
  6
CONTINUOUS
 62
     4
100
AcDbText
 10
1.338083
 20
3.194583
 30
0.0
 40
0.009083
  1
Subsection 711.8 of the Standard Specifications.
  7
TXT
210
0.0
220
0.0
230
1.0
100
AcDbText
  0
TEXT
  5
172
100
AcDbEntity
  8
3
  6
CONTINUOUS
 62
     4
100
AcDbText
 10
1.340333
 20
3.117333
 30
0.0
 40
0.009083
  1
711.11 of the Standard Specifications.  The color shall be  D  in accordance with Federal Standard 595,
  7
TXT
210
0.0
220
0.0
230
1.0
100
AcDbText
  0
TEXT
  5
173
100
AcDbEntity
  8
3
  6
CONTINUOUS
 62
     4
100
AcDbText
 10
1.340667
 20
3.075667
 30
0.0
 40
0.009083
  1
OPTION:
  7
TXT
210
0.0
220
0.0
230
1.0
100
AcDbText
  0
LINE
  5
174
100
AcDbEntity
  8
3
  6
CONTINUOUS
 62
   233
100
AcDbLine
 10
1.38225
 20
3.003667
 30
0.0
 11
1.48125
 21
3.003667
 31
0.0
  0
LINE
  5
175
100
AcDbEntity
  8
3
  6
CONTINUOUS
 62
   233
100
AcDbLine
 10
1.38275
 20
2.972083
 30
0.0
 11
1.515167
 21
2.972083
 31
0.0
  0
LINE
  5
176
100
AcDbEntity
  8
3
  6
CONTINUOUS
 62
   233
100
AcDbLine
 10
1.33825
 20
3.072167
 30
0.0
 11
1.3915
 21
3.072167
 31
0.0
  0
CIRCLE
  5
177
100
AcDbEntity
  8
3
  6
CONTINUOUS
 62
   233
100
AcDbCircle
 10
1.456083
 20
2.93325
 30
0.0
 40
0.006667
210
0.0
220
0.0
230
1.0
  0
CIRCLE
  5
178
100
AcDbEntity
  8
3
  6
CONTINUOUS
 62
   233
100
AcDbCircle
 10
1.776667
 20
2.933167
 30
0.0
 40
0.006667
210
0.0
220
0.0
230
1.0
  0
CIRCLE
  5
179
100
AcDbEntity
  8
3
  6
CONTINUOUS
 62
   233
100
AcDbCircle
 10
1.434917
 20
2.633833
 30
0.0
 40
0.006667
210
0.0
220
0.0
230
1.0
  0
TEXT
  5
17A
100
AcDbEntity
  8
3
  6
CONTINUOUS
 62
     4
100
AcDbText
 10
2.76775
 20
3.209417
 30
0.0
 40
0.009083
  1
,
  7
TXT
210
0.0
220
0.0
230
1.0
100
AcDbText
  0
LINE
  5
17B
100
AcDbEntity
  8
3
  6
CONTINUOUS
 62
   165
100
AcDbLine
 10
2.23875
 20
2.308833
 30
0.0
 11
2.486583
 21
2.308833
 31
0.0
  0
TEXT
  5
17C
100
AcDbEntity
  8
3
  6
CONTINUOUS
 62
     4
100
AcDbText
 10
2.078
 20
2.280667
 30
0.0
 40
0.009083
  1
Traffic shall be maintained in accordance with Section 636 and Subsection 104.5 of the Standard
  7
TXT
210
0.0
220
0.0
230
1.0
100
AcDbText
  0
TEXT
  5
17D
100
AcDbEntity
  8
3
  6
CONTINUOUS
 62
     4
100
AcDbText
 10
2.036583
 20
2.2645
 30
0.0
 40
0.009083
  1
Specifications.
  7
TXT
210
0.0
220
0.0
230
1.0
100
AcDbText
  0
TEXT
  5
17E
100
AcDbEntity
  8
3
  6
CONTINUOUS
 62
     4
100
AcDbText
 10
2.732833
 20
3.27225
 30
0.0
 40
0.009083
  1
better Southern Pine as specified by current Grading Rules for Southern Pine Lumber published by the
  7
TXT
210
0.0
220
0.0
230
1.0
100
AcDbText
  0
TEXT
  5
17F
100
AcDbEntity
  8
3
  6
CONTINUOUS
 62
     4
100
AcDbText
 10
2.733583
 20
3.256833
 30
0.0
 40
0.009083
  1
Southern Pine Inspection Bureau, New Orleans, Louisiana.
  7
TXT
210
0.0
220
0.0
230
1.0
100
AcDbText
  0
TEXT
  5
180
100
AcDbEntity
  8
3
  6
CONTINUOUS
 62
     4
100
AcDbText
 10
2.775667
 20
3.242083
 30
0.0
 40
0.009083
  1
General Timber Deck Notes:
  7
TXT
210
0.0
220
0.0
230
1.0
100
AcDbText
  0
TEXT
  5
181
100
AcDbEntity
  8
3
  6
CONTINUOUS
 62
     4
100
AcDbText
 10
2.776417
 20
3.225917
 30
0.0
 40
0.009083
  1
The allowable bending stress shall not be less than 1,200 p.s.i. and the allowable shearing stress shall
  7
TXT
210
0.0
220
0.0
230
1.0
100
AcDbText
  0
TEXT
  5
182
100
AcDbEntity
  8
3
  6
CONTINUOUS
 62
     4
100
AcDbText
 10
2.775667
 20
3.194333
 30
0.0
 40
0.009083
  1
All lumber shall be sized by being processed through a hit-or-miss surfacer.
  7
TXT
210
0.0
220
0.0
230
1.0
100
AcDbText
  0
TEXT
  5
183
100
AcDbEntity
  8
3
  6
CONTINUOUS
 62
     4
100
AcDbText
 10
2.73425
 20
3.163417
 30
0.0
 40
0.009083
  1
specifications upon delivery.
  7
TXT
210
0.0
220
0.0
230
1.0
100
AcDbText
  0
TEXT
  5
184
100
AcDbEntity
  8
3
  6
CONTINUOUS
 62
     4
100
AcDbText
 10
2.776417
 20
3.14725
 30
0.0
 40
0.009083
  1
Material will be accepted in bundles when the shipment is accompanied by a certificated, issued by 
  7
TXT
210
0.0
220
0.0
230
1.0
100
AcDbText
  0
TEXT
  5
185
100
AcDbEntity
  8
3
  6
CONTINUOUS
 62
     4
100
AcDbText
 10
2.73425
 20
3.131833
 30
0.0
 40
0.009083
  1
a Department of Highways Materials Control, Soil and Testing Division certified inspector, showing that the
  7
TXT
210
0.0
220
0.0
230
1.0
100
AcDbText
  0
TEXT
  5
186
100
AcDbEntity
  8
3
  6
CONTINUOUS
 62
     4
100
AcDbText
 10
2.73425
 20
3.116417
 30
0.0
 40
0.009083
  1
lumber in the "white" meets the above requirements.  When said certificate is not availabe, the material will be 
  7
TXT
210
0.0
220
0.0
230
1.0
100
AcDbText
  0
TEXT
  5
187
100
AcDbEntity
  8
3
  6
CONTINUOUS
 62
     4
100
AcDbText
 10
2.733583
 20
3.10025
 30
0.0
 40
0.009083
  1
inspected by Department of Highways personnel at the delivery site and stacked and struck by the vendor.
  7
TXT
210
0.0
220
0.0
230
1.0
100
AcDbText
  0
TEXT
  5
188
100
AcDbEntity
  8
3
  6
CONTINUOUS
 62
     4
100
AcDbText
 10
2.775667
 20
3.08475
 30
0.0
 40
0.009083
  1
Treatment: material for pressure treatment shall be in accordance with Subsection 710.5 of the
  7
TXT
210
0.0
220
0.0
230
1.0
100
AcDbText
  0
TEXT
  5
189
100
AcDbEntity
  8
3
  6
CONTINUOUS
 62
     4
100
AcDbText
 10
2.733583
 20
3.068667
 30
0.0
 40
0.009083
  1
Standard Specifications.  Treatment shall be by either the full cell or empty cell process at 150 to 200 p.s.i.
  7
TXT
210
0.0
220
0.0
230
1.0
100
AcDbText
  0
TEXT
  5
18A
100
AcDbEntity
  8
3
  6
CONTINUOUS
 62
     4
100
AcDbText
 10
2.733583
 20
3.038417
 30
0.0
 40
0.009083
  1
shall be obtained.
  7
TXT
210
0.0
220
0.0
230
1.0
100
AcDbText
  0
TEXT
  5
18B
100
AcDbEntity
  8
3
  6
CONTINUOUS
 62
     4
100
AcDbText
 10
2.733583
 20
3.053917
 30
0.0
 40
0.009083
  1
and a minimum retention as specified by the American Wood Preservative Association Standard C-2 
  7
TXT
210
0.0
220
0.0
230
1.0
100
AcDbText
  0
TEXT
  5
18C
100
AcDbEntity
  8
3
  6
CONTINUOUS
 62
     4
100
AcDbText
 10
2.775667
 20
3.021583
 30
0.0
 40
0.009083
  1
Material and/or workmanship shall conform to the requirements of Subsection 710.1 of the Standard
  7
TXT
210
0.0
220
0.0
230
1.0
100
AcDbText
  0
TEXT
  5
18D
100
AcDbEntity
  8
3
  6
CONTINUOUS
 62
     4
100
AcDbText
 10
2.73425
 20
3.006833
 30
0.0
 40
0.009083
  1
Specifications.
  7
TXT
210
0.0
220
0.0
230
1.0
100
AcDbText
  0
TEXT
  5
18E
100
AcDbEntity
  8
3
  6
CONTINUOUS
 62
     4
100
AcDbText
 10
2.775667
 20
2.991417
 30
0.0
 40
0.009083
  1
Delivery: material shall be delivered in minimum shipments of 2,000 board feet or as directed by the 
  7
TXT
210
0.0
220
0.0
230
1.0
100
AcDbText
  0
TEXT
  5
18F
100
AcDbEntity
  8
3
  6
CONTINUOUS
 62
     4
100
AcDbText
 10
2.73425
 20
2.975917
 30
0.0
 40
0.009083
  1
Engineer.  A maximum of 15 calendar days will be allowed for delivery following notification by the Engineer.
  7
TXT
210
0.0
220
0.0
230
1.0
100
AcDbText
  0
TEXT
  5
190
100
AcDbEntity
  8
3
  6
CONTINUOUS
 62
     4
100
AcDbText
 10
2.733583
 20
2.959083
 30
0.0
 40
0.009083
  1
The vendor shall notify the Engineer one working day prior to delivery of the material.
  7
TXT
210
0.0
220
0.0
230
1.0
100
AcDbText
  0
LINE
  5
191
100
AcDbEntity
  8
3
  6
CONTINUOUS
 62
   233
100
AcDbLine
 10
2.772917
 20
2.98925
 30
0.0
 11
2.82625
 21
2.98925
 31
0.0
  0
LINE
  5
192
100
AcDbEntity
  8
3
  6
CONTINUOUS
 62
   233
100
AcDbLine
 10
2.772917
 20
3.083417
 30
0.0
 11
2.83675
 21
3.083417
 31
0.0
  0
TEXT
  5
193
100
AcDbEntity
  8
3
  6
CONTINUOUS
 62
     4
100
AcDbText
 10
2.775667
 20
2.943667
 30
0.0
 40
0.009083
  1
General: any deviation from the above requirements may be cause for rejection, by the Engineer,
  7
TXT
210
0.0
220
0.0
230
1.0
100
AcDbText
  0
TEXT
  5
194
100
AcDbEntity
  8
3
  6
CONTINUOUS
 62
     4
100
AcDbText
 10
2.733583
 20
2.928167
 30
0.0
 40
0.009083
  1
of the entire shipment of lumber.
  7
TXT
210
0.0
220
0.0
230
1.0
100
AcDbText
  0
LINE
  5
195
100
AcDbEntity
  8
2
  6
CONTINUOUS
 62
     2
100
AcDbLine
 10
0.599333
 20
2.398
 30
0.0
 11
3.599333
 21
2.398
 31
0.0
  0
LINE
  5
196
100
AcDbEntity
  8
3
  6
CONTINUOUS
 62
   233
100
AcDbLine
 10
2.774333
 20
2.942917
 30
0.0
 11
2.821333
 21
2.942917
 31
0.0
  0
TEXT
  5
197
100
AcDbEntity
  8
3
  6
CONTINUOUS
 62
     4
100
AcDbText
 10
2.761917
 20
2.98875
 30
0.0
 40
0.009083
  1
*
  7
TXT
210
0.0
220
0.0
230
1.0
100
AcDbText
  0
TEXT
  5
198
100
AcDbEntity
  8
3
  6
CONTINUOUS
 62
     4
100
AcDbText
 10
2.762917
 20
2.941333
 30
0.0
 40
0.009083
  1
*
  7
TXT
210
0.0
220
0.0
230
1.0
100
AcDbText
  0
TEXT
  5
199
100
AcDbEntity
  8
3
  6
CONTINUOUS
 62
     4
100
AcDbText
 10
2.776417
 20
2.913417
 30
0.0
 40
0.009083
  1
All non-specified material in any shipment shall be rejected and will be removed from the West Virginia
  7
TXT
210
0.0
220
0.0
230
1.0
100
AcDbText
  0
TEXT
  5
19A
100
AcDbEntity
  8
3
  6
CONTINUOUS
 62
     4
100
AcDbText
 10
2.7345
 20
2.866583
 30
0.0
 40
0.009083
  1
rejection of any portion of a shipment.  The signatures of both the Department of Highways and delivering 
  7
TXT
210
0.0
220
0.0
230
1.0
100
AcDbText
  0
TEXT
  5
19B
100
AcDbEntity
  8
3
  6
CONTINUOUS
 62
     4
100
AcDbText
 10
2.733083
 20
2.850417
 30
0.0
 40
0.009083
  1
agency representatives shall be  affixed to documents on which rejection reason(s) is recorded.
  7
TXT
210
0.0
220
0.0
230
1.0
100
AcDbText
  0
TEXT
  5
19C
100
AcDbEntity
  8
3
  6
CONTINUOUS
 62
     4
100
AcDbText
 10
2.775917
 20
2.835
 30
0.0
 40
0.009083
  1
The vendor must furnish to the Engineer a certificate of inspection, certifying that the total order
  7
TXT
210
0.0
220
0.0
230
1.0
100
AcDbText
  0
TEXT
  5
19D
100
AcDbEntity
  8
3
  6
CONTINUOUS
 62
     4
100
AcDbText
 10
2.73375
 20
2.80475
 30
0.0
 40
0.009083
  1
certificate of inspection must be attached to the invoice.
  7
TXT
210
0.0
220
0.0
230
1.0
100
AcDbText
  0
TEXT
  5
19E
100
AcDbEntity
  8
3
  6
CONTINUOUS
 62
     4
100
AcDbText
 10
2.775917
 20
2.787917
 30
0.0
 40
0.009083
  1
Under no circumstances may the vendor ship nor will the Department of Highways accept or pay
  7
TXT
210
0.0
220
0.0
230
1.0
100
AcDbText
  0
TEXT
  5
19F
100
AcDbEntity
  8
3
  6
CONTINUOUS
 62
     4
100
AcDbText
 10
2.7345
 20
2.7725
 30
0.0
 40
0.009083
  1
for quantities of material in excess of the quantity stated on the purchase order, except upon advance
  7
TXT
210
0.0
220
0.0
230
1.0
100
AcDbText
  0
TEXT
  5
1A0
100
AcDbEntity
  8
3
  6
CONTINUOUS
 62
     4
100
AcDbText
 10
2.733083
 20
2.75775
 30
0.0
 40
0.009083
  1
approval of the Engineer.
  7
TXT
210
0.0
220
0.0
230
1.0
100
AcDbText
  0
TEXT
  5
1A1
100
AcDbEntity
  8
3
  6
CONTINUOUS
 62
     4
100
AcDbText
 10
2.775917
 20
2.741583
 30
0.0
 40
0.009083
  1
The inspection agencies listed hereinafter may be considered as prequalified.  If a vendor desires
  7
TXT
210
0.0
220
0.0
230
1.0
100
AcDbText
  0
TEXT
  5
1A2
100
AcDbEntity
  8
3
  6
CONTINUOUS
 62
     4
100
AcDbText
 10
2.7345
 20
2.71
 30
0.0
 40
0.009083
  1
Director, Materials Control, Soil and Testing Division, 312 Michigan Avenue, Charleston, West Virginia 25305.
  7
TXT
210
0.0
220
0.0
230
1.0
100
AcDbText
  0
TEXT
  5
1A3
100
AcDbEntity
  8
3
  6
CONTINUOUS
 62
     4
100
AcDbText
 10
2.77525
 20
2.693833
 30
0.0
 40
0.009083
  1
Qualified Lumber Inspection Agencies:
  7
TXT
210
0.0
220
0.0
230
1.0
100
AcDbText
  0
LINE
  5
1A4
100
AcDbEntity
  8
2
  6
CONTINUOUS
 62
   165
100
AcDbLine
 10
2.1285
 20
3.404667
 30
0.0
 11
2.1285
 21
1.680417
 31
0.0
  0
TEXT
  5
1A5
100
AcDbEntity
  8
3
  6
CONTINUOUS
 62
     4
100
AcDbText
 10
2.82575
 20
2.662917
 30
0.0
 40
0.009083
  1
McCallum Inspection Company
  7
TXT
210
0.0
220
0.0
230
1.0
100
AcDbText
  0
TEXT
  5
1A6
100
AcDbEntity
  8
3
  6
CONTINUOUS
 62
     4
100
AcDbText
 10
2.825083
 20
2.6475
 30
0.0
 40
0.009083
  1
Norfolk, virginia
  7
TXT
210
0.0
220
0.0
230
1.0
100
AcDbText
  0
TEXT
  5
1A7
100
AcDbEntity
  8
3
  6
CONTINUOUS
 62
     4
100
AcDbText
 10
2.825833
 20
2.62425
 30
0.0
 40
0.009083
  1
Froehling and Robertson, Inc.
  7
TXT
210
0.0
220
0.0
230
1.0
100
AcDbText
  0
TEXT
  5
1A8
100
AcDbEntity
  8
3
  6
CONTINUOUS
 62
     4
100
AcDbText
 10
2.825
 20
2.608167
 30
0.0
 40
0.009083
  1
Richmond, Virginia
  7
TXT
210
0.0
220
0.0
230
1.0
100
AcDbText
  0
TEXT
  5
1A9
100
AcDbEntity
  8
3
  6
CONTINUOUS
 62
     4
100
AcDbText
 10
2.827167
 20
2.58575
 30
0.0
 40
0.009083
  1
A. W. Williams Inspection Company
  7
TXT
210
0.0
220
0.0
230
1.0
100
AcDbText
  0
TEXT
  5
1AA
100
AcDbEntity
  8
3
  6
CONTINUOUS
 62
     4
100
AcDbText
 10
2.828583
 20
2.571
 30
0.0
 40
0.009083
  1
Mobile, Alabama
  7
TXT
210
0.0
220
0.0
230
1.0
100
AcDbText
  0
TEXT
  5
1AB
100
AcDbEntity
  8
3
  6
CONTINUOUS
 62
     4
100
AcDbText
 10
2.827167
 20
2.545
 30
0.0
 40
0.009083
  1
Southern Pines Inspection Bureau
  7
TXT
210
0.0
220
0.0
230
1.0
100
AcDbText
  0
TEXT
  5
1AC
100
AcDbEntity
  8
3
  6
CONTINUOUS
 62
     4
100
AcDbText
 10
2.827917
 20
2.53025
 30
0.0
 40
0.009083
  1
New Orleans, Louisiana
  7
TXT
210
0.0
220
0.0
230
1.0
100
AcDbText
  0
TEXT
  5
1AD
100
AcDbEntity
  8
3
  6
CONTINUOUS
 62
     4
100
AcDbText
 10
-0.417333
 20
2.507083
 30
0.0
 40
0.009083
  1
These items are for Purchase Order Contract only.
  7
TXT
210
0.0
220
0.0
230
1.0
100
AcDbText
  0
TEXT
  5
1AE
100
AcDbEntity
  8
3
  6
CONTINUOUS
 62
     4
100
AcDbText
 10
-0.43425
 20
2.505833
 30
0.0
 40
0.009083
  1
*
  7
TXT
210
0.0
220
0.0
230
1.0
100
AcDbText
  0
TEXT
  5
1AF
100
AcDbEntity
  8
3
  6
CONTINUOUS
 62
     4
100
AcDbText
 10
2.776333
 20
2.39875
 30
0.0
 40
0.009083
  1
Although the plans are detailed for a particular type of prestressed concrete beam, alternate
  7
TXT
210
0.0
220
0.0
230
1.0
100
AcDbText
  0
TEXT
  5
1B0
100
AcDbEntity
  8
3
  6
CONTINUOUS
 62
     4
100
AcDbText
 10
2.734083
 20
2.382333
 30
0.0
 40
0.009083
  1
types or shaped prestressed concrete beams may be furnished with the following stipulations:
  7
TXT
210
0.0
220
0.0
230
1.0
100
AcDbText
  0
TEXT
  5
1B1
100
AcDbEntity
  8
3
  6
CONTINUOUS
 62
     4
100
AcDbText
 10
2.777417
 20
2.36675
 30
0.0
 40
0.009083
  1
a)  Supplier must submit proposed alternate with design computations for review and approval
  7
TXT
210
0.0
220
0.0
230
1.0
100
AcDbText
  0
TEXT
  5
1B2
100
AcDbEntity
  8
3
  6
CONTINUOUS
 62
     4
100
AcDbText
 10
2.776083
 20
2.335583
 30
0.0
 40
0.009083
  1
b)  Contractor must supply revised modified construction plans showing all revisions and
  7
TXT
210
0.0
220
0.0
230
1.0
100
AcDbText
  0
TEXT
  5
1B3
100
AcDbEntity
  8
3
  6
CONTINUOUS
 62
     4
100
AcDbText
 10
2.79375
 20
2.320417
 30
0.0
 40
0.009083
  1
modifications as required by the use of the alternate beam for review and approval by the
  7
TXT
210
0.0
220
0.0
230
1.0
100
AcDbText
  0
TEXT
  5
1B4
100
AcDbEntity
  8
3
  6
CONTINUOUS
 62
     4
100
AcDbText
 10
2.793083
 20
2.304833
 30
0.0
 40
0.009083
  1
Department of Highways.
  7
TXT
210
0.0
220
0.0
230
1.0
100
AcDbText
  0
TEXT
  5
1B5
100
AcDbEntity
  8
3
  6
CONTINUOUS
 62
     4
100
AcDbText
 10
2.776833
 20
2.28925
 30
0.0
 40
0.009083
  1
c)  Completion date of the project will not be extended due to any delay encountered in obtaining
  7
TXT
210
0.0
220
0.0
230
1.0
100
AcDbText
  0
TEXT
  5
1B6
100
AcDbEntity
  8
3
  6
CONTINUOUS
 62
     4
100
AcDbText
 10
2.79375
 20
2.273
 30
0.0
 40
0.009083
  1
alternate beam and revised modified plan approval by the Department of Highways.
  7
TXT
210
0.0
220
0.0
230
1.0
100
AcDbText
  0
TEXT
  5
1B7
100
AcDbEntity
  8
3
  6
CONTINUOUS
 62
     4
100
AcDbText
 10
2.79375
 20
2.2425
 30
0.0
 40
0.009083
  1
of Highways.
  7
TXT
210
0.0
220
0.0
230
1.0
100
AcDbText
  0
LINE
  5
1B8
100
AcDbEntity
  8
3
  6
CONTINUOUS
 62
     4
100
AcDbLine
 10
3.193667
 20
2.333333
 30
0.0
 11
3.2145
 21
2.333333
 31
0.0
  0
TEXT
  5
1B9
100
AcDbEntity
  8
3
  6
CONTINUOUS
 62
     4
100
AcDbText
 10
-2.7055
 20
3.781333
 30
0.0
 40
0.009083
  1
MATERIAL:
  7
TXT
210
0.0
220
0.0
230
1.0
100
AcDbText
  0
LINE
  5
1BA
100
AcDbEntity
  8
3
  6
CONTINUOUS
 62
     4
100
AcDbLine
 10
-2.710917
 20
3.779333
 30
0.0
 11
-2.640417
 21
3.779333
 31
0.0
  0
TEXT
  5
1BB
100
AcDbEntity
  8
3
  6
CONTINUOUS
 62
     4
100
AcDbText
 10
-2.746167
 20
3.734583
 30
0.0
 40
0.009083
  1
the current requirements as specified by Rules for the Measurements & Inspection of Hardwood and Cypress
  7
TXT
210
0.0
220
0.0
230
1.0
100
AcDbText
  0
TEXT
  5
1BC
100
AcDbEntity
  8
3
  6
CONTINUOUS
 62
     4
100
AcDbText
 10
-2.746167
 20
3.719667
 30
0.0
 40
0.009083
  1
Lumber, issued by National Hardwood Assoc. for Hardwoods for Construction, Sound Square Edge
  7
TXT
210
0.0
220
0.0
230
1.0
100
AcDbText
  0
TEXT
  5
1BD
100
AcDbEntity
  8
3
  6
CONTINUOUS
 62
     4
100
AcDbText
 10
-2.7475
 20
3.703417
 30
0.0
 40
0.009083
  1
(Boxed Hearts and Planking).
  7
TXT
210
0.0
220
0.0
230
1.0
100
AcDbText
  0
TEXT
  5
1BE
100
AcDbEntity
  8
3
  6
CONTINUOUS
 62
     4
100
AcDbText
 10
-2.7475
 20
3.6715
 30
0.0
 40
0.009083
  1
Southern Pine as specified by the current Grading Rules for Southern Pine Lumber published by the
  7
TXT
210
0.0
220
0.0
230
1.0
100
AcDbText
  0
TEXT
  5
1BF
100
AcDbEntity
  8
3
  6
CONTINUOUS
 62
     4
100
AcDbText
 10
-2.746167
 20
3.656583
 30
0.0
 40
0.009083
  1
Southern Pine Inspection Bureau, New Orleans, Louisiana.
  7
TXT
210
0.0
220
0.0
230
1.0
100
AcDbText
  0
LINE
  5
1C0
100
AcDbEntity
  8
3
  6
CONTINUOUS
 62
     4
100
AcDbLine
 10
-2.713583
 20
3.748167
 30
0.0
 11
-2.595
 21
3.748167
 31
0.0
  0
LINE
  5
1C1
100
AcDbEntity
  8
3
  6
CONTINUOUS
 62
     4
100
AcDbLine
 10
-2.712917
 20
3.68575
 30
0.0
 11
-2.590917
 21
3.68575
 31
0.0
  0
LINE
  5
1C2
100
AcDbEntity
  8
3
  6
CONTINUOUS
 62
     4
100
AcDbLine
 10
-2.510917
 20
3.73325
 30
0.0
 11
-2.107583
 21
3.73325
 31
0.0
  0
LINE
  5
1C3
100
AcDbEntity
  8
3
  6
CONTINUOUS
 62
     4
100
AcDbLine
 10
-2.501417
 20
3.6695
 30
0.0
 11
-2.25875
 21
3.6695
 31
0.0
  0
LINE
  5
1C4
100
AcDbEntity
  8
3
  6
CONTINUOUS
 62
     4
100
AcDbLine
 10
-2.749583
 20
3.717667
 30
0.0
 11
-2.700083
 21
3.717667
 31
0.0
  0
TEXT
  5
1C5
100
AcDbEntity
  8
3
  6
CONTINUOUS
 62
     4
100
AcDbText
 10
-2.703417
 20
3.640333
 30
0.0
 40
0.009083
  1
All lumber shall be sized prior to incorporation into the panels and the panels shall be sized by
  7
TXT
210
0.0
220
0.0
230
1.0
100
AcDbText
  0
TEXT
  5
1C6
100
AcDbEntity
  8
3
  6
CONTINUOUS
 62
     4
100
AcDbText
 10
-2.746833
 20
3.62475
 30
0.0
 40
0.009083
  1
being processed through a hit-or-miss surfacer.
  7
TXT
210
0.0
220
0.0
230
1.0
100
AcDbText
  0
TEXT
  5
1C7
100
AcDbEntity
  8
3
  6
CONTINUOUS
 62
     4
100
AcDbText
 10
-2.704833
 20
3.593583
 30
0.0
 40
0.009083
  1
TREATMENT:
  7
TXT
210
0.0
220
0.0
230
1.0
100
AcDbText
  0
LINE
  5
1C8
100
AcDbEntity
  8
3
  6
CONTINUOUS
 62
     4
100
AcDbLine
 10
-2.704833
 20
3.5915
 30
0.0
 11
-2.6275
 21
3.5915
 31
0.0
  0
TEXT
  5
1C9
100
AcDbEntity
  8
3
  6
CONTINUOUS
 62
     4
100
AcDbText
 10
-2.704833
 20
3.56375
 30
0.0
 40
0.009083
  1
Panels shall be pressure treated after laminating.  Material for pressure treatment shall be in
  7
TXT
210
0.0
220
0.0
230
1.0
100
AcDbText
  0
TEXT
  5
1CA
100
AcDbEntity
  8
3
  6
CONTINUOUS
 62
     4
100
AcDbText
 10
-2.746833
 20
3.53125
 30
0.0
 40
0.009083
  1
or empty cell process at 150 to 200 p.s.i. and a minimum retention as specified by the American Wood
  7
TXT
210
0.0
220
0.0
230
1.0
100
AcDbText
  0
TEXT
  5
1CB
100
AcDbEntity
  8
3
  6
CONTINUOUS
 62
     4
100
AcDbText
 10
-2.746833
 20
3.516333
 30
0.0
 40
0.009083
  1
Preservative Association Standard C-2 shall be obtained.
  7
TXT
210
0.0
220
0.0
230
1.0
100
AcDbText
  0
TEXT
  5
1CC
100
AcDbEntity
  8
3
  6
CONTINUOUS
 62
     4
100
AcDbText
 10
-2.7475
 20
3.48375
 30
0.0
 40
0.009083
  1
Standard Specifications.
  7
TXT
210
0.0
220
0.0
230
1.0
100
AcDbText
  0
TEXT
  5
1CD
100
AcDbEntity
  8
3
  6
CONTINUOUS
 62
     4
100
AcDbText
 10
-2.704833
 20
3.453917
 30
0.0
 40
0.009083
  1
LAMINATING:
  7
TXT
210
0.0
220
0.0
230
1.0
100
AcDbText
  0
LINE
  5
1CE
100
AcDbEntity
  8
3
  6
CONTINUOUS
 62
     4
100
AcDbLine
 10
-2.704083
 20
3.45125
 30
0.0
 11
-2.62675
 21
3.45125
 31
0.0
  0
TEXT
  5
1CF
100
AcDbEntity
  8
3
  6
CONTINUOUS
 62
     4
100
AcDbText
 10
-2.705167
 20
3.422667
 30
0.0
 40
0.009083
  1
The lumber shall be laminataed with hot dipped galvanized spiral steel dowels as provided by 
  7
TXT
210
0.0
220
0.0
230
1.0
100
AcDbText
  0
TEXT
  5
1D0
100
AcDbEntity
  8
3
  6
CONTINUOUS
 62
     4
100
AcDbText
 10
-2.705167
 20
3.375167
 30
0.0
 40
0.009083
  1
CERTIFICATION:
  7
TXT
210
0.0
220
0.0
230
1.0
100
AcDbText
  0
LINE
  5
1D1
100
AcDbEntity
  8
3
  6
CONTINUOUS
 62
     4
100
AcDbLine
 10
-2.707417
 20
3.372583
 30
0.0
 11
-2.611667
 21
3.372583
 31
0.0
  0
TEXT
  5
1D2
100
AcDbEntity
  8
3
  6
CONTINUOUS
 62
     4
100
AcDbText
 10
-2.705833
 20
3.29725
 30
0.0
 40
0.009083
  1
Prior to shipment or installation the panel shall be certified by Department of Highways Certified
  7
TXT
210
0.0
220
0.0
230
1.0
100
AcDbText
  0
TEXT
  5
1D3
100
AcDbEntity
  8
3
  6
CONTINUOUS
 62
     4
100
AcDbText
 10
-2.745833
 20
3.281667
 30
0.0
 40
0.009083
  1
inspectors as to treatment.
  7
TXT
210
0.0
220
0.0
230
1.0
100
AcDbText
  0
TEXT
  5
1D4
100
AcDbEntity
  8
3
  6
CONTINUOUS
 62
     4
100
AcDbText
 10
-2.745833
 20
3.250417
 30
0.0
 40
0.009083
  1
certified inspectors.
  7
TXT
210
0.0
220
0.0
230
1.0
100
AcDbText
  0
TEXT
  5
1D5
100
AcDbEntity
  8
3
  6
CONTINUOUS
 62
     4
100
AcDbText
 10
-2.7045
 20
3.21925
 30
0.0
 40
0.009083
  1
DELIVERY:
  7
TXT
210
0.0
220
0.0
230
1.0
100
AcDbText
  0
LINE
  5
1D6
100
AcDbEntity
  8
3
  6
CONTINUOUS
 62
     4
100
AcDbLine
 10
-2.70475
 20
3.21675
 30
0.0
 11
-2.6435
 21
3.21675
 31
0.0
  0
TEXT
  5
1D7
100
AcDbEntity
  8
3
  6
CONTINUOUS
 62
     4
100
AcDbText
 10
-2.7045
 20
3.187417
 30
0.0
 40
0.009083
  1
Material shall be delivered as directed by the Engineer.  A maximum of fifteen (15) calendar days
  7
TXT
210
0.0
220
0.0
230
1.0
100
AcDbText
  0
TEXT
  5
1D8
100
AcDbEntity
  8
3
  6
CONTINUOUS
 62
     4
100
AcDbText
 10
-2.74725
 20
3.171833
 30
0.0
 40
0.009083
  1
will be allowed for delivery following notification by the Engineer.  The vendor shall notify the Engineer one (1)
  7
TXT
210
0.0
220
0.0
230
1.0
100
AcDbText
  0
TEXT
  5
1D9
100
AcDbEntity
  8
3
  6
CONTINUOUS
 62
     4
100
AcDbText
 10
-2.7465
 20
3.156917
 30
0.0
 40
0.009083
  1
working day prior to delivery of the material.
  7
TXT
210
0.0
220
0.0
230
1.0
100
AcDbText
  0
TEXT
  5
1DA
100
AcDbEntity
  8
3
  6
CONTINUOUS
 62
     4
100
AcDbText
 10
-2.718917
 20
3.217917
 30
0.0
 40
0.009083
  1
*
  7
TXT
210
0.0
220
0.0
230
1.0
100
AcDbText
  0
LWPOLYLINE
  5
1DB
100
AcDbEntity
  8
3
  6
CONTINUOUS
 62
     4
100
AcDbPolyline
 90
        4
 70
     1
 10
-2.723833
 20
3.2315
 10
-2.723833
 20
3.21725
 10
-2.70825
 20
3.21725
 10
-2.70825
 20
3.2315
  0
TEXT
  5
1DC
100
AcDbEntity
  8
3
  6
CONTINUOUS
 62
     4
100
AcDbText
 10
-2.705083
 20
3.1255
 30
0.0
 40
0.009083
  1
GENERAL:
  7
TXT
210
0.0
220
0.0
230
1.0
100
AcDbText
  0
LINE
  5
1DD
100
AcDbEntity
  8
3
  6
CONTINUOUS
 62
     4
100
AcDbLine
 10
-2.706833
 20
3.122583
 30
0.0
 11
-2.645583
 21
3.122583
 31
0.0
  0
TEXT
  5
1DE
100
AcDbEntity
  8
3
  6
CONTINUOUS
 62
     4
100
AcDbText
 10
-2.719583
 20
3.125833
 30
0.0
 40
0.009083
  1
*
  7
TXT
210
0.0
220
0.0
230
1.0
100
AcDbText
  0
LWPOLYLINE
  5
1DF
100
AcDbEntity
  8
3
  6
CONTINUOUS
 62
     4
100
AcDbPolyline
 90
        4
 70
     1
 10
-2.72525
 20
3.139417
 10
-2.72525
 20
3.125167
 10
-2.709667
 20
3.125167
 10
-2.709667
 20
3.139417
  0
TEXT
  5
1E0
100
AcDbEntity
  8
3
  6
CONTINUOUS
 62
     4
100
AcDbText
 10
-2.70425
 20
3.109917
 30
0.0
 40
0.009083
  1
All non-specified material in any shipment shall be rejected and will be removed from the storage
  7
TXT
210
0.0
220
0.0
230
1.0
100
AcDbText
  0
TEXT
  5
1E1
100
AcDbEntity
  8
3
  6
CONTINUOUS
 62
     4
100
AcDbText
 10
-2.746083
 20
3.093833
 30
0.0
 40
0.009083
  1
area by the vendor prior to acceptance of the suitable material.
  7
TXT
210
0.0
220
0.0
230
1.0
100
AcDbText
  0
TEXT
  5
1E2
100
AcDbEntity
  8
3
  6
CONTINUOUS
 62
     4
100
AcDbText
 10
-2.703583
 20
3.0785
 30
0.0
 40
0.009083
  1
Notification shall be made on all receiving documents and/or delivery slips specifying reason(s)
  7
TXT
210
0.0
220
0.0
230
1.0
100
AcDbText
  0
TEXT
  5
1E3
100
AcDbEntity
  8
3
  6
CONTINUOUS
 62
     4
100
AcDbText
 10
-2.746083
 20
3.0625
 30
0.0
 40
0.009083
  1
for rejection of any portion of a shipment.  The signatures of both Department of Highways and delivering
  7
TXT
210
0.0
220
0.0
230
1.0
100
AcDbText
  0
TEXT
  5
1E4
100
AcDbEntity
  8
3
  6
CONTINUOUS
 62
     4
100
AcDbText
 10
-2.7475
 20
3.04575
 30
0.0
 40
0.009083
  1
agency representatives shall be affixed to documents on which rejection reason(s) are recorded.
  7
TXT
210
0.0
220
0.0
230
1.0
100
AcDbText
  0
TEXT
  5
1E5
100
AcDbEntity
  8
3
  6
CONTINUOUS
 62
     4
100
AcDbText
 10
-2.703583
 20
3.031833
 30
0.0
 40
0.009083
  1
The vendor must furnish to the Engineer a certificate of inspection, certifying that the total order
  7
TXT
210
0.0
220
0.0
230
1.0
100
AcDbText
  0
TEXT
  5
1E6
100
AcDbEntity
  8
3
  6
CONTINUOUS
 62
     4
100
AcDbText
 10
-2.746833
 20
3.016417
 30
0.0
 40
0.009083
  1
meets the specifications for lumber, preservative, retention, dowels and fabrication.
  7
TXT
210
0.0
220
0.0
230
1.0
100
AcDbText
  0
TEXT
  5
1E7
100
AcDbEntity
  8
3
  6
CONTINUOUS
 62
     4
100
AcDbText
 10
-2.746083
 20
3.000417
 30
0.0
 40
0.009083
  1
A certified copy of the certificate of inspection must be attached to the invoice.
  7
TXT
210
0.0
220
0.0
230
1.0
100
AcDbText
  0
TEXT
  5
1E8
100
AcDbEntity
  8
3
  6
CONTINUOUS
 62
     4
100
AcDbText
 10
-2.705667
 20
2.984333
 30
0.0
 40
0.009083
  1
Under no circumstances may the vendor ship nor will the Department of Highways accept or pay for
  7
TXT
210
0.0
220
0.0
230
1.0
100
AcDbText
  0
TEXT
  5
1E9
100
AcDbEntity
  8
3
  6
CONTINUOUS
 62
     4
100
AcDbText
 10
-2.746833
 20
2.96975
 30
0.0
 40
0.009083
  1
quantities of material in excess of the quantity stated on the purchase order, except upon advance
  7
TXT
210
0.0
220
0.0
230
1.0
100
AcDbText
  0
TEXT
  5
1EA
100
AcDbEntity
  8
3
  6
CONTINUOUS
 62
     4
100
AcDbText
 10
-2.746083
 20
2.953667
 30
0.0
 40
0.009083
  1
approval of the Engineer.
  7
TXT
210
0.0
220
0.0
230
1.0
100
AcDbText
  0
TEXT
  5
1EB
100
AcDbEntity
  8
3
  6
CONTINUOUS
 62
     4
100
AcDbText
 10
-2.746083
 20
2.922333
 30
0.0
 40
0.009083
  1
furnished in Dowel Laminated Decks.
  7
TXT
210
0.0
220
0.0
230
1.0
100
AcDbText
  0
TEXT
  5
1EC
100
AcDbEntity
  8
3
  6
CONTINUOUS
 62
     4
100
AcDbText
 10
-2.705
 20
2.937667
 30
0.0
 40
0.009083
  1
The inspection agencies listed under "Nail Laminated Wood Deck" shall apply equally to material 
  7
TXT
210
0.0
220
0.0
230
1.0
100
AcDbText
  0
TEXT
  5
1ED
100
AcDbEntity
  8
3
  6
CONTINUOUS
 62
   233
100
AcDbText
 10
2.508833
 20
1.763
 30
0.0
 40
0.015584
  1
GENERAL NOTES
  7
TXT
210
0.0
220
0.0
230
1.0
100
AcDbText
  0
TEXT
  5
1EE
100
AcDbEntity
  8
3
  6
CONTINUOUS
 62
   233
100
AcDbText
 10
2.926917
 20
1.731333
 30
0.0
 40
0.020833
  1
GENERAL NOTES
  7
TXT
210
0.0
220
0.0
230
1.0
100
AcDbText
  0
TEXT
  5
1EF
100
AcDbEntity
  8
1
  6
CONTINUOUS
 62
     2
100
AcDbText
 10
3.332583
 20
1.905083
 30
0.0
 40
0.015583
  1
DWW
  7
TXT
 11
3.332583
 21
1.920667
 31
0.0
210
0.0
220
0.0
230
1.0
100
AcDbText
 73
     3
  0
TEXT
  5
1F0
100
AcDbEntity
  8
3
  6
CONTINUOUS
 62
   233
100
AcDbText
 10
2.504917
 20
1.798
 30
0.0
 40
0.010417
  1
STANDARD BRIDGE PLANS
  7
TXT
210
0.0
220
0.0
230
1.0
100
AcDbText
  0
TEXT
  5
1F1
100
AcDbEntity
  8
3
  6
CONTINUOUS
 62
     4
100
AcDbText
 10
0.789
 20
3.113583
 30
0.0
 40
0.009083
  1
s
  7
TXT
 11
0.789
 21
3.118083
 31
0.0
210
0.0
220
0.0
230
1.0
100
AcDbText
 73
     2
  0
TEXT
  5
1F2
100
AcDbEntity
  8
3
  6
CONTINUOUS
 62
     4
100
AcDbText
 10
0.806667
 20
3.097917
 30
0.0
 40
0.009083
  1
s
  7
TXT
 11
0.806667
 21
3.102417
 31
0.0
210
0.0
220
0.0
230
1.0
100
AcDbText
 73
     2
  0
TEXT
  5
1F3
100
AcDbEntity
  8
3
  6
CONTINUOUS
 62
     4
100
AcDbText
 10
0.814417
 20
3.08325
 30
0.0
 40
0.009083
  1
s
  7
TXT
 11
0.814417
 21
3.08775
 31
0.0
210
0.0
220
0.0
230
1.0
100
AcDbText
 73
     2
  0
TEXT
  5
1F4
100
AcDbEntity
  8
3
  6
CONTINUOUS
 62
     4
100
AcDbText
 10
1.05675
 20
3.113917
 30
0.0
 40
0.009083
  1
c
  7
TXT
 11
1.05675
 21
3.118417
 31
0.0
210
0.0
220
0.0
230
1.0
100
AcDbText
 73
     2
  0
TEXT
  5
1F5
100
AcDbEntity
  8
3
  6
CONTINUOUS
 62
     4
100
AcDbText
 10
1.055917
 20
3.097333
 30
0.0
 40
0.009083
  1
c
  7
TXT
 11
1.055917
 21
3.101833
 31
0.0
210
0.0
220
0.0
230
1.0
100
AcDbText
 73
     2
  0
LINE
  5
1F6
100
AcDbEntity
  8
3
  6
CONTINUOUS
 62
     4
100
AcDbLine
 10
1.060417
 20
3.127583
 30
0.0
 11
1.060417
 21
3.12425
 31
0.0
  0
CIRCLE
  5
1F7
100
AcDbEntity
  8
3
  6
CONTINUOUS
 62
     2
100
AcDbCircle
 10
1.11825
 20
3.18925
 30
0.0
 40
0.0125
210
0.0
220
0.0
230
1.0
  0
TEXT
  5
1F8
100
AcDbEntity
  8
3
  6
CONTINUOUS
 62
     2
100
AcDbText
 10
1.11525
 20
3.184667
 30
0.0
 40
0.009083
  1
1
  7
TXT
 11
1.11525
 21
3.189167
 31
0.0
210
0.0
220
0.0
230
1.0
100
AcDbText
 73
     2
  0
CIRCLE
  5
1F9
100
AcDbEntity
  8
3
  6
CONTINUOUS
 62
     2
100
AcDbCircle
 10
1.216583
 20
3.03275
 30
0.0
 40
0.0125
210
0.0
220
0.0
230
1.0
  0
TEXT
  5
1FA
100
AcDbEntity
  8
3
  6
CONTINUOUS
 62
     2
100
AcDbText
 10
1.2135
 20
3.027583
 30
0.0
 40
0.009083
  1
2
  7
TXT
 72
     4
 11
1.2165
 21
3.032083
 31
0.0
210
0.0
220
0.0
230
1.0
100
AcDbText
  0
TEXT
  5
1FB
100
AcDbEntity
  8
3
  6
CONTINUOUS
 62
     2
100
AcDbText
 10
1.012667
 20
2.9945
 30
0.0
 40
0.009083
  1
A
  7
TXT
 72
     4
 11
1.016833
 21
2.999
 31
0.0
210
0.0
220
0.0
230
1.0
100
AcDbText
  0
TEXT
  5
1FC
100
AcDbEntity
  8
3
  6
CONTINUOUS
 62
     2
100
AcDbText
 10
0.66325
 20
2.97925
 30
0.0
 40
0.009083
  1
B
  7
TXT
 72
     4
 11
0.66675
 21
2.98375
 31
0.0
210
0.0
220
0.0
230
1.0
100
AcDbText
  0
TEXT
  5
1FD
100
AcDbEntity
  8
3
  6
CONTINUOUS
 62
     2
100
AcDbText
 10
0.643417
 20
2.97225
 30
0.0
 40
0.009083
  1
s
  7
TXT
 72
     4
 11
0.646083
 21
2.97675
 31
0.0
210
0.0
220
0.0
230
1.0
100
AcDbText
  0
CIRCLE
  5
1FE
100
AcDbEntity
  8
3
  6
CONTINUOUS
 62
     2
100
AcDbCircle
 10
1.016833
 20
2.998417
 30
0.0
 40
0.006667
210
0.0
220
0.0
230
1.0
  0
CIRCLE
  5
1FF
100
AcDbEntity
  8
3
  6
CONTINUOUS
 62
     2
100
AcDbCircle
 10
0.666833
 20
2.983583
 30
0.0
 40
0.006667
210
0.0
220
0.0
230
1.0
  0
CIRCLE
  5
200
100
AcDbEntity
  8
3
  6
CONTINUOUS
 62
     2
100
AcDbCircle
 10
1.12
 20
2.921167
 30
0.0
 40
0.0125
210
0.0
220
0.0
230
1.0
  0
CIRCLE
  5
201
100
AcDbEntity
  8
3
  6
CONTINUOUS
 62
     2
100
AcDbCircle
 10
1.2125
 20
2.748583
 30
0.0
 40
0.0125
210
0.0
220
0.0
230
1.0
  0
TEXT
  5
202
100
AcDbEntity
  8
3
  6
CONTINUOUS
 62
     4
100
AcDbText
 10
0.640167
 20
2.64875
 30
0.0
 40
0.009083
  1
Subsection 601.11.1 of the Standard Specifications, except for the abutment curbs and wingwalls, which shall
  7
TXT
210
0.0
220
0.0
230
1.0
100
AcDbText
  0
TEXT
  5
203
100
AcDbEntity
  8
3
  6
CONTINUOUS
 62
     2
100
AcDbText
 10
1.211583
 20
2.43275
 30
0.0
 40
0.009083
  1
5
  7
TXT
 72
     4
 11
1.214583
 21
2.43725
 31
0.0
210
0.0
220
0.0
230
1.0
100
AcDbText
  0
CIRCLE
  5
204
100
AcDbEntity
  8
3
  6
CONTINUOUS
 62
     2
100
AcDbCircle
 10
1.214
 20
2.43725
 30
0.0
 40
0.0125
210
0.0
220
0.0
230
1.0
  0
TEXT
  5
205
100
AcDbEntity
  8
3
  6
CONTINUOUS
 62
     2
100
AcDbText
 10
1.116333
 20
2.9165
 30
0.0
 40
0.009083
  1
3
  7
TXT
 72
     4
 11
1.119333
 21
2.921
 31
0.0
210
0.0
220
0.0
230
1.0
100
AcDbText
  0
TEXT
  5
206
100
AcDbEntity
  8
3
  6
CONTINUOUS
 62
     2
100
AcDbText
 10
1.209333
 20
2.744083
 30
0.0
 40
0.009083
  1
4
  7
TXT
 72
     4
 11
1.2125
 21
2.748583
 31
0.0
210
0.0
220
0.0
230
1.0
100
AcDbText
  0
CIRCLE
  5
207
100
AcDbEntity
  8
3
  6
CONTINUOUS
 62
     2
100
AcDbCircle
 10
1.116583
 20
2.281667
 30
0.0
 40
0.0125
210
0.0
220
0.0
230
1.0
  0
TEXT
  5
208
100
AcDbEntity
  8
3
  6
CONTINUOUS
 62
     2
100
AcDbText
 10
1.114833
 20
2.2765
 30
0.0
 40
0.009083
  1
6
  7
TXT
 72
     4
 11
1.117917
 21
2.281
 31
0.0
210
0.0
220
0.0
230
1.0
100
AcDbText
  0
TEXT
  5
209
100
AcDbEntity
  8
3
  6
CONTINUOUS
 62
     4
100
AcDbText
 10
0.641083
 20
2.054167
 30
0.0
 40
0.009083
  1
with Materials Control, Soil and Testing Division's Informatiional Memorandum Number 17(1M-17),the 
  7
TXT
210
0.0
220
0.0
230
1.0
100
AcDbText
  0
TEXT
  5
20A
100
AcDbEntity
  8
3
  6
CONTINUOUS
 62
     4
100
AcDbText
 10
0.682667
 20
2.069833
 30
0.0
 40
0.009083
  1
In the event that any shipment of material has been pre-tested and has been identified in accordance 
  7
TXT
210
0.0
220
0.0
230
1.0
100
AcDbText
  0
CIRCLE
  5
20B
100
AcDbEntity
  8
3
  6
CONTINUOUS
 62
     2
100
AcDbCircle
 10
1.2815
 20
1.984583
 30
0.0
 40
0.0125
210
0.0
220
0.0
230
1.0
  0
CIRCLE
  5
20C
100
AcDbEntity
  8
3
  6
CONTINUOUS
 62
     2
100
AcDbCircle
 10
1.1595
 20
1.82975
 30
0.0
 40
0.0125
210
0.0
220
0.0
230
1.0
  0
TEXT
  5
20D
100
AcDbEntity
  8
3
  6
CONTINUOUS
 62
     2
100
AcDbText
 10
1.278583
 20
1.979417
 30
0.0
 40
0.009083
  1
7
  7
TXT
 72
     4
 11
1.2815
 21
1.983917
 31
0.0
210
0.0
220
0.0
230
1.0
100
AcDbText
  0
TEXT
  5
20E
100
AcDbEntity
  8
3
  6
CONTINUOUS
 62
     2
100
AcDbText
 10
1.156417
 20
1.82525
 30
0.0
 40
0.009083
  1
8
  7
TXT
 72
     4
 11
1.1595
 21
1.82975
 31
0.0
210
0.0
220
0.0
230
1.0
100
AcDbText
  0
CIRCLE
  5
20F
100
AcDbEntity
  8
3
  6
CONTINUOUS
 62
     2
100
AcDbCircle
 10
1.98775
 20
1.926083
 30
0.0
 40
0.0125
210
0.0
220
0.0
230
1.0
  0
CIRCLE
  5
210
100
AcDbEntity
  8
3
  6
CONTINUOUS
 62
     2
100
AcDbCircle
 10
2.471083
 20
3.323667
 30
0.0
 40
0.0125
210
0.0
220
0.0
230
1.0
  0
CIRCLE
  5
211
100
AcDbEntity
  8
3
  6
CONTINUOUS
 62
     2
100
AcDbCircle
 10
1.889333
 20
1.812917
 30
0.0
 40
0.0125
210
0.0
220
0.0
230
1.0
  0
CIRCLE
  5
212
100
AcDbEntity
  8
3
  6
CONTINUOUS
 62
     2
100
AcDbCircle
 10
2.483
 20
3.157833
 30
0.0
 40
0.0125
210
0.0
220
0.0
230
1.0
  0
CIRCLE
  5
213
100
AcDbEntity
  8
3
  6
CONTINUOUS
 62
     2
100
AcDbCircle
 10
1.835
 20
3.372833
 30
0.0
 40
0.0125
210
0.0
220
0.0
230
1.0
  0
CIRCLE
  5
214
100
AcDbEntity
  8
3
  6
CONTINUOUS
 62
     2
100
AcDbCircle
 10
2.14375
 20
3.040583
 30
0.0
 40
0.0125
210
0.0
220
0.0
230
1.0
  0
LINE
  5
215
100
AcDbEntity
  8
3
  6
CONTINUOUS
 62
     2
100
AcDbLine
 10
2.077583
 20
3.034083
 30
0.0
 11
2.126083
 21
3.034083
 31
0.0
  0
TEXT
  5
216
100
AcDbEntity
  8
3
  6
CONTINUOUS
 62
     4
100
AcDbText
 10
2.137417
 20
3.068833
 30
0.0
 40
0.009083
  1
s
  7
TXT
 72
     4
 11
2.140083
 21
3.073333
 31
0.0
210
0.0
220
0.0
230
1.0
100
AcDbText
  0
TEXT
  5
217
100
AcDbEntity
  8
3
  6
CONTINUOUS
 62
     4
100
AcDbText
 10
2.0775
 20
3.088
 30
0.0
 40
0.009083
  1
For superstructures utilizing steel grid flooring, structural steel conforming to the requirements
  7
TXT
210
0.0
220
0.0
230
1.0
100
AcDbText
  0
TEXT
  5
218
100
AcDbEntity
  8
3
  6
CONTINUOUS
 62
     4
100
AcDbText
 10
2.480333
 20
3.115333
 30
0.0
 40
0.009083
  1
s
  7
TXT
 72
     4
 11
2.483
 21
3.119833
 31
0.0
210
0.0
220
0.0
230
1.0
100
AcDbText
  0
CIRCLE
  5
219
100
AcDbEntity
  8
3
  6
CONTINUOUS
 62
     2
100
AcDbCircle
 10
1.674417
 20
3.168833
 30
0.0
 40
0.006667
210
0.0
220
0.0
230
1.0
  0
CIRCLE
  5
21A
100
AcDbEntity
  8
3
  6
CONTINUOUS
 62
     2
100
AcDbCircle
 10
1.671333
 20
3.121667
 30
0.0
 40
0.006667
210
0.0
220
0.0
230
1.0
  0
TEXT
  5
21B
100
AcDbEntity
  8
3
  6
CONTINUOUS
 62
     4
100
AcDbText
 10
1.338667
 20
3.164
 30
0.0
 40
0.009083
  1
711.10 of the Standard Specifications.  The color shall be  D  in accordance with Federal Standard 595,
  7
TXT
210
0.0
220
0.0
230
1.0
100
AcDbText
  0
CIRCLE
  5
21C
100
AcDbEntity
  8
3
  6
CONTINUOUS
 62
     2
100
AcDbCircle
 10
1.394
 20
3.105667
 30
0.0
 40
0.006667
210
0.0
220
0.0
230
1.0
  0
CIRCLE
  5
21D
100
AcDbEntity
  8
3
  6
CONTINUOUS
 62
     2
100
AcDbCircle
 10
1.407167
 20
3.079
 30
0.0
 40
0.0125
210
0.0
220
0.0
230
1.0
  0
CIRCLE
  5
21E
100
AcDbEntity
  8
3
  6
CONTINUOUS
 62
     2
100
AcDbCircle
 10
1.948333
 20
2.77925
 30
0.0
 40
0.0125
210
0.0
220
0.0
230
1.0
  0
CIRCLE
  5
21F
100
AcDbEntity
  8
3
  6
CONTINUOUS
 62
     2
100
AcDbCircle
 10
2.644083
 20
2.939583
 30
0.0
 40
0.0125
210
0.0
220
0.0
230
1.0
  0
TEXT
  5
220
100
AcDbEntity
  8
3
  6
CONTINUOUS
 62
     2
100
AcDbText
 10
2.639167
 20
2.934417
 30
0.0
 40
0.009083
  1
15
  7
TXT
 72
     4
 11
2.644667
 21
2.938917
 31
0.0
210
0.0
220
0.0
230
1.0
100
AcDbText
  0
CIRCLE
  5
221
100
AcDbEntity
  8
3
  6
CONTINUOUS
 62
     2
100
AcDbCircle
 10
2.57625
 20
2.607833
 30
0.0
 40
0.0125
210
0.0
220
0.0
230
1.0
  0
CIRCLE
  5
222
100
AcDbEntity
  8
3
  6
CONTINUOUS
 62
     2
100
AcDbCircle
 10
2.50625
 20
2.319167
 30
0.0
 40
0.0125
210
0.0
220
0.0
230
1.0
  0
CIRCLE
  5
223
100
AcDbEntity
  8
3
  6
CONTINUOUS
 62
     2
100
AcDbCircle
 10
3.25025
 20
3.32725
 30
0.0
 40
0.0125
210
0.0
220
0.0
230
1.0
  0
TEXT
  5
224
100
AcDbEntity
  8
3
  6
CONTINUOUS
 62
     2
100
AcDbText
 10
2.570667
 20
2.604417
 30
0.0
 40
0.009083
  1
16
  7
TXT
 72
     4
 11
2.576167
 21
2.608917
 31
0.0
210
0.0
220
0.0
230
1.0
100
AcDbText
  0
TEXT
  5
225
100
AcDbEntity
  8
3
  6
CONTINUOUS
 62
     2
100
AcDbText
 10
2.49975
 20
2.314667
 30
0.0
 40
0.009083
  1
17
  7
TXT
 72
     4
 11
2.505083
 21
2.319167
 31
0.0
210
0.0
220
0.0
230
1.0
100
AcDbText
  0
TEXT
  5
226
100
AcDbEntity
  8
3
  6
CONTINUOUS
 62
     2
100
AcDbText
 10
3.244917
 20
3.323583
 30
0.0
 40
0.009083
  1
18
  7
TXT
 72
     4
 11
3.250417
 21
3.328083
 31
0.0
210
0.0
220
0.0
230
1.0
100
AcDbText
  0
TEXT
  5
227
100
AcDbEntity
  8
3
  6
CONTINUOUS
 62
     4
100
AcDbText
 10
2.776333
 20
3.288667
 30
0.0
 40
0.009083
  1
Pine Bridge Lumber all lumber shall be surfaced four sides, pressure treated No. 2 Medium Grain or 
  7
TXT
210
0.0
220
0.0
230
1.0
100
AcDbText
  0
LINE
  5
228
100
AcDbEntity
  8
3
  6
CONTINUOUS
 62
     2
100
AcDbLine
 10
2.99325
 20
3.270417
 30
0.0
 11
3.232583
 21
3.270417
 31
0.0
  0
TEXT
  5
229
100
AcDbEntity
  8
3
  6
CONTINUOUS
 62
     4
100
AcDbText
 10
2.733583
 20
3.2105
 30
0.0
 40
0.009083
  1
not be less than 125 p.s.i.
  7
TXT
210
0.0
220
0.0
230
1.0
100
AcDbText
  0
TEXT
  5
22A
100
AcDbEntity
  8
3
  6
CONTINUOUS
 62
     4
100
AcDbText
 10
2.775667
 20
3.178917
 30
0.0
 40
0.009083
  1
This material shall be subject to random sampling and testing for compliance with the above 
  7
TXT
210
0.0
220
0.0
230
1.0
100
AcDbText
  0
TEXT
  5
22B
100
AcDbEntity
  8
3
  6
CONTINUOUS
 62
     4
100
AcDbText
 10
2.732833
 20
2.89725
 30
0.0
 40
0.009083
  1
Department of Highways storage area by the vendor prior to acceptance of the suitable material.
  7
TXT
210
0.0
220
0.0
230
1.0
100
AcDbText
  0
TEXT
  5
22C
100
AcDbEntity
  8
3
  6
CONTINUOUS
 62
     4
100
AcDbText
 10
2.73375
 20
2.8195
 30
0.0
 40
0.009083
  1
meets the specifications for quality of lumber, preservative and retention required.  A certified copy of the  
  7
TXT
210
0.0
220
0.0
230
1.0
100
AcDbText
  0
TEXT
  5
22D
100
AcDbEntity
  8
3
  6
CONTINUOUS
 62
     4
100
AcDbText
 10
2.77525
 20
2.882
 30
0.0
 40
0.009083
  1
Notification shall be made on all receiving documents and/or delivery slips specifying reason(s) for
  7
TXT
210
0.0
220
0.0
230
1.0
100
AcDbText
  0
TEXT
  5
22E
100
AcDbEntity
  8
3
  6
CONTINUOUS
 62
     4
100
AcDbText
 10
2.7345
 20
2.725417
 30
0.0
 40
0.009083
  1
inspection by responsible agencies other than those listed, advance approval must be obtained from the 
  7
TXT
210
0.0
220
0.0
230
1.0
100
AcDbText
  0
CIRCLE
  5
22F
100
AcDbEntity
  8
3
  6
CONTINUOUS
 62
     2
100
AcDbCircle
 10
3.300417
 20
2.454167
 30
0.0
 40
0.0125
210
0.0
220
0.0
230
1.0
  0
TEXT
  5
230
100
AcDbEntity
  8
3
  6
CONTINUOUS
 62
     2
100
AcDbText
 10
3.29425
 20
2.449667
 30
0.0
 40
0.009083
  1
19
  7
TXT
 72
     4
 11
3.29975
 21
2.454167
 31
0.0
210
0.0
220
0.0
230
1.0
100
AcDbText
  0
TEXT
  5
231
100
AcDbEntity
  8
3
  6
CONTINUOUS
 62
     4
100
AcDbText
 10
2.775583
 20
2.413667
 30
0.0
 40
0.009083
  1
Refer to the appropriate Standard Plan sheet for design stresses, specifications or notes.
  7
TXT
210
0.0
220
0.0
230
1.0
100
AcDbText
  0
TEXT
  5
232
100
AcDbEntity
  8
3
  6
CONTINUOUS
 62
     4
100
AcDbText
 10
2.795083
 20
2.351167
 30
0.0
 40
0.009083
  1
by the Department of Highways.
  7
TXT
210
0.0
220
0.0
230
1.0
100
AcDbText
  0
TEXT
  5
233
100
AcDbEntity
  8
3
  6
CONTINUOUS
 62
     4
100
AcDbText
 10
2.776833
 20
2.257417
 30
0.0
 40
0.009083
  1
d)  The project canot be started until the revised modified plans are approved by the Department
  7
TXT
210
0.0
220
0.0
230
1.0
100
AcDbText
  0
CIRCLE
  5
234
100
AcDbEntity
  8
3
  6
CONTINUOUS
 62
     2
100
AcDbCircle
 10
-2.227
 20
3.820583
 30
0.0
 40
0.0125
210
0.0
220
0.0
230
1.0
  0
TEXT
  5
235
100
AcDbEntity
  8
3
  6
CONTINUOUS
 62
     2
100
AcDbText
 10
-2.234
 20
3.816083
 30
0.0
 40
0.009083
  1
20
  7
TXT
 72
     4
 11
-2.227667
 21
3.820583
 31
0.0
210
0.0
220
0.0
230
1.0
100
AcDbText
  0
TEXT
  5
236
100
AcDbEntity
  8
3
  6
CONTINUOUS
 62
     4
100
AcDbText
 10
-2.746833
 20
3.750833
 30
0.0
 40
0.009083
  1
  A.  Oak Bridge Lumber: All lumber shall be surfaced four (4) sides, red or white oak, and shall meet
  7
TXT
210
0.0
220
0.0
230
1.0
100
AcDbText
  0
TEXT
  5
237
100
AcDbEntity
  8
3
  6
CONTINUOUS
 62
     4
100
AcDbText
 10
-2.746167
 20
3.687833
 30
0.0
 40
0.009083
  1
  B.  Pine Bridge Lumber: All lumber shAll be surfaced four (4) sides, No. 2 medium grain or better
  7
TXT
210
0.0
220
0.0
230
1.0
100
AcDbText
  0
TEXT
  5
238
100
AcDbEntity
  8
3
  6
CONTINUOUS
 62
     4
100
AcDbText
 10
-2.746833
 20
3.546833
 30
0.0
 40
0.009083
  1
accordance with Subsection 710.5 of the Standard Specifications.  Treatment shall be by either the full cell
  7
TXT
210
0.0
220
0.0
230
1.0
100
AcDbText
  0
TEXT
  5
239
100
AcDbEntity
  8
3
  6
CONTINUOUS
 62
     4
100
AcDbText
 10
-2.7055
 20
3.5
 30
0.0
 40
0.009083
  1
Material and/or workmanship shall conform to the requirements of Subsection 710.1 of the
  7
TXT
210
0.0
220
0.0
230
1.0
100
AcDbText
  0
TEXT
  5
23A
100
AcDbEntity
  8
3
  6
CONTINUOUS
 62
     4
100
AcDbText
 10
-2.74725
 20
3.406333
 30
0.0
 40
0.009083
  1
Wadsworth Equipment Company, P.O. Box 6122, Akron, Ohio, or approved equal.
  7
TXT
210
0.0
220
0.0
230
1.0
100
AcDbText
  0
TEXT
  5
23B
100
AcDbEntity
  8
3
  6
CONTINUOUS
 62
     4
100
AcDbText
 10
-2.745833
 20
3.328417
 30
0.0
 40
0.009083
  1
Certified inspectors that they meet the above requirements prior to fabrication.  Upon approval and certification 
  7
TXT
210
0.0
220
0.0
230
1.0
100
AcDbText
  0
TEXT
  5
23C
100
AcDbEntity
  8
3
  6
CONTINUOUS
 62
     4
100
AcDbText
 10
-2.745833
 20
3.312167
 30
0.0
 40
0.009083
  1
the material shall be stockpiled for use in fabrication.
  7
TXT
210
0.0
220
0.0
230
1.0
100
AcDbText
  0
TEXT
  5
23D
100
AcDbEntity
  8
3
  6
CONTINUOUS
 62
     4
100
AcDbText
 10
-2.705167
 20
3.266
 30
0.0
 40
0.009083
  1
Certifications shall be issued by the Department of Highways Materials Control, Soil and Testing Division
  7
TXT
210
0.0
220
0.0
230
1.0
100
AcDbText
  0
TEXT
  5
23E
100
AcDbEntity
  8
3
  6
CONTINUOUS
 62
     4
100
AcDbText
 10
-2.705167
 20
3.344
 30
0.0
 40
0.009083
  1
All lumber and dowels to be utilized in the panels shall be certified by Department of Highways
  7
TXT
210
0.0
220
0.0
230
1.0
100
AcDbText
  0
LWPOLYLINE
  5
23F
100
AcDbEntity
  8
3
  6
CONTINUOUS
 62
     4
100
AcDbPolyline
 90
        4
 70
     1
 10
-0.439083
 20
2.519583
 10
-0.439083
 20
2.505333
 10
-0.4235
 20
2.505333
 10
-0.4235
 20
2.519583
  0
LWPOLYLINE
  5
240
100
AcDbEntity
  8
3
  6
CONTINUOUS
 62
     4
100
AcDbPolyline
 90
        4
 70
     1
 10
2.757833
 20
2.955
 10
2.757833
 20
2.94075
 10
2.773417
 20
2.94075
 10
2.773417
 20
2.955
  0
LWPOLYLINE
  5
241
100
AcDbEntity
  8
3
  6
CONTINUOUS
 62
     4
100
AcDbPolyline
 90
        4
 70
     1
 10
2.756833
 20
3.001833
 10
2.756833
 20
2.987583
 10
2.772417
 20
2.987583
 10
2.772417
 20
3.001833
  0
TEXT
  5
242
100
AcDbEntity
  8
3
  6
CONTINUOUS
 62
     4
100
AcDbText
 10
1.380083
 20
2.427333
 30
0.0
 40
0.009083
  1
Prime Coat: One complete coat of linseed/alkyd primer shall be applied to the entrire structure
  7
TXT
210
0.0
220
0.0
230
1.0
100
AcDbText
  0
TEXT
  5
243
100
AcDbEntity
  8
3
  6
CONTINUOUS
 62
     4
100
AcDbText
 10
1.339333
 20
2.411333
 30
0.0
 40
0.009083
  1
upon completion of the spot painting.  The primer shall conform to the requirements of Section 711.8 of the 
  7
TXT
210
0.0
220
0.0
230
1.0
100
AcDbText
  0
TEXT
  5
244
100
AcDbEntity
  8
3
  6
CONTINUOUS
 62
     4
100
AcDbText
 10
1.338
 20
2.396667
 30
0.0
 40
0.009083
  1
Standard Specifications.  Dry film thickness shall be a minimum of two (2) mils.
  7
TXT
210
0.0
220
0.0
230
1.0
100
AcDbText
  0
TEXT
  5
245
100
AcDbEntity
  8
3
  6
CONTINUOUS
 62
     4
100
AcDbText
 10
1.338
 20
2.34925
 30
0.0
 40
0.009083
  1
Standard Specifications.  Dry film thickness shall be a minimum two (2) mils.  The color shall be  D  in 
  7
TXT
210
0.0
220
0.0
230
1.0
100
AcDbText
  0
TEXT
  5
246
100
AcDbEntity
  8
3
  6
CONTINUOUS
 62
     4
100
AcDbText
 10
1.338667
 20
2.287167
 30
0.0
 40
0.009083
  1
Section 711.11 of the Standard Specifications.  Dry film thickness shall be a minimum two (2) mils.  The color
  7
TXT
210
0.0
220
0.0
230
1.0
100
AcDbText
  0
TEXT
  5
247
100
AcDbEntity
  8
3
  6
CONTINUOUS
 62
     4
100
AcDbText
 10
1.380917
 20
2.22575
 30
0.0
 40
0.009083
  1
Cleaning: All surfaces to be painted shall be cleaned and prepared in accordance with Section
  7
TXT
210
0.0
220
0.0
230
1.0
100
AcDbText
  0
TEXT
  5
248
100
AcDbEntity
  8
3
  6
CONTINUOUS
 62
     4
100
AcDbText
 10
1.338833
 20
2.195083
 30
0.0
 40
0.009083
  1
system shall be as follows:
  7
TXT
210
0.0
220
0.0
230
1.0
100
AcDbText
  0
TEXT
  5
249
100
AcDbEntity
  8
3
  6
CONTINUOUS
 62
     4
100
AcDbText
 10
1.338833
 20
2.147667
 30
0.0
 40
0.009083
  1
be a minimum of four (4) mils.
  7
TXT
210
0.0
220
0.0
230
1.0
100
AcDbText
  0
TEXT
  5
24A
100
AcDbEntity
  8
3
  6
CONTINUOUS
 62
     4
100
AcDbText
 10
1.380917
 20
2.132333
 30
0.0
 40
0.009083
  1
Field Intermediate Coat: The field intermediate coat shall conform to the requirements of
  7
TXT
210
0.0
220
0.0
230
1.0
100
AcDbText
  0
TEXT
  5
24B
100
AcDbEntity
  8
3
  6
CONTINUOUS
 62
     4
100
AcDbText
 10
1.338833
 20
2.116333
 30
0.0
 40
0.009083
  1
Article 711.20.3 of the Standard Specifications.
  7
TXT
210
0.0
220
0.0
230
1.0
100
AcDbText
  0
LINE
  5
24C
100
AcDbEntity
  8
3
  6
CONTINUOUS
 62
   233
100
AcDbLine
 10
1.378667
 20
2.66175
 30
0.0
 11
1.426667
 21
2.66175
 31
0.0
  0
CIRCLE
  5
24D
100
AcDbEntity
  8
3
  6
CONTINUOUS
 62
     2
100
AcDbCircle
 10
1.447583
 20
2.668
 30
0.0
 40
0.0125
210
0.0
220
0.0
230
1.0
  0
LINE
  5
24E
100
AcDbEntity
  8
3
  6
CONTINUOUS
 62
   233
100
AcDbLine
 10
1.38075
 20
2.642083
 30
0.0
 11
1.42875
 21
2.642083
 31
0.0
  0
LINE
  5
24F
100
AcDbEntity
  8
3
  6
CONTINUOUS
 62
   233
100
AcDbLine
 10
1.37875
 20
2.473167
 30
0.0
 11
1.459083
 21
2.473167
 31
0.0
  0
LINE
  5
250
100
AcDbEntity
  8
3
  6
CONTINUOUS
 62
   233
100
AcDbLine
 10
1.377083
 20
2.42525
 30
0.0
 11
1.444667
 21
2.42525
 31
0.0
  0
LINE
  5
251
100
AcDbEntity
  8
3
  6
CONTINUOUS
 62
   233
100
AcDbLine
 10
1.381167
 20
2.378333
 30
0.0
 11
1.51725
 21
2.378333
 31
0.0
  0
LINE
  5
252
100
AcDbEntity
  8
3
  6
CONTINUOUS
 62
   233
100
AcDbLine
 10
1.380333
 20
2.316083
 30
0.0
 11
1.572
 21
2.316083
 31
0.0
  0
LINE
  5
253
100
AcDbEntity
  8
3
  6
CONTINUOUS
 62
   233
100
AcDbLine
 10
1.379167
 20
2.239083
 30
0.0
 11
1.42825
 21
2.239083
 31
0.0
  0
LINE
  5
254
100
AcDbEntity
  8
3
  6
CONTINUOUS
 62
   233
100
AcDbLine
 10
1.380833
 20
2.223917
 30
0.0
 11
1.434417
 21
2.223917
 31
0.0
  0
LINE
  5
255
100
AcDbEntity
  8
3
  6
CONTINUOUS
 62
   233
100
AcDbLine
 10
1.3795
 20
2.129917
 30
0.0
 11
1.516833
 21
2.129917
 31
0.0
  0
LINE
  5
256
100
AcDbEntity
  8
3
  6
CONTINUOUS
 62
   233
100
AcDbLine
 10
1.36925
 20
2.177417
 30
0.0
 11
1.480417
 21
2.177417
 31
0.0
  0
CIRCLE
  5
257
100
AcDbEntity
  8
3
  6
CONTINUOUS
 62
     2
100
AcDbCircle
 10
1.44575
 20
2.250417
 30
0.0
 40
0.0125
210
0.0
220
0.0
230
1.0
  0
CIRCLE
  5
258
100
AcDbEntity
  8
3
  6
CONTINUOUS
 62
   233
100
AcDbCircle
 10
1.62075
 20
2.339083
 30
0.0
 40
0.006667
210
0.0
220
0.0
230
1.0
  0
CIRCLE
  5
259
100
AcDbEntity
  8
3
  6
CONTINUOUS
 62
   233
100
AcDbCircle
 10
1.715
 20
2.275917
 30
0.0
 40
0.006667
210
0.0
220
0.0
230
1.0
  0
CIRCLE
  5
25A
100
AcDbEntity
  8
3
  6
CONTINUOUS
 62
   233
100
AcDbCircle
 10
1.915833
 20
2.354
 30
0.0
 40
0.006667
210
0.0
220
0.0
230
1.0
  0
CIRCLE
  5
25B
100
AcDbEntity
  8
3
  6
CONTINUOUS
 62
   233
100
AcDbCircle
 10
1.397417
 20
2.276167
 30
0.0
 40
0.006667
210
0.0
220
0.0
230
1.0
  0
TEXT
  5
25C
100
AcDbEntity
  8
3
  6
CONTINUOUS
 62
     4
100
AcDbText
 10
1.3395
 20
2.271167
 30
0.0
 40
0.009083
  1
shall be  F  in accordance with Federal Standard 595, number  G .
  7
TXT
210
0.0
220
0.0
230
1.0
100
AcDbText
  0
TEXT
  5
25D
100
AcDbEntity
  8
3
  6
CONTINUOUS
 62
     4
100
AcDbText
 10
1.338
 20
2.334583
 30
0.0
 40
0.009083
  1
accordance with Federal Standard 595, number  E .
  7
TXT
210
0.0
220
0.0
230
1.0
100
AcDbText
  0
POINT
  5
25E
100
AcDbEntity
  8
1
  6
CONTINUOUS
 62
     4
100
AcDbPoint
 10
0.599333
 20
1.705
 30
0.0
  0
LINE
  5
25F
100
AcDbEntity
  8
1
  6
CONTINUOUS
 62
     1
100
AcDbLine
 10
2.446917
 20
1.910083
 30
0.0
 11
2.857583
 21
1.910083
 31
0.0
  0
LINE
  5
261
100
AcDbEntity
  8
61
  6
CONTINUOUS
 62
     2
100
AcDbLine
 10
2.469583
 20
2.058167
 30
0.0
 11
2.469583
 21
2.042583
 31
0.0
  0
LINE
  5
262
100
AcDbEntity
  8
61
  6
CONTINUOUS
 62
     3
100
AcDbLine
 10
2.469583
 20
2.059833
 30
0.0
 11
2.469583
 21
2.046667
 31
0.0
  0
LINE
  5
263
100
AcDbEntity
  8
61
  6
CONTINUOUS
 62
     2
100
AcDbLine
 10
2.469583
 20
2.0335
 30
0.0
 11
2.469583
 21
2.020333
 31
0.0
  0
LINE
  5
264
100
AcDbEntity
  8
61
  6
CONTINUOUS
 62
     2
100
AcDbLine
 10
2.469583
 20
2.02075
 30
0.0
 11
2.469583
 21
1.9825
 31
0.0
  0
LINE
  5
265
100
AcDbEntity
  8
61
  6
CONTINUOUS
 62
     2
100
AcDbLine
 10
2.469583
 20
2.007167
 30
0.0
 11
2.469583
 21
1.994
 31
0.0
  0
LINE
  5
266
100
AcDbEntity
  8
61
  6
CONTINUOUS
 62
     2
100
AcDbLine
 10
2.4695
 20
2.045833
 30
0.0
 11
2.656
 21
2.045833
 31
0.0
  0
LINE
  5
267
100
AcDbEntity
  8
61
  6
CONTINUOUS
 62
     2
100
AcDbLine
 10
2.670333
 20
2.033083
 30
0.0
 11
2.857583
 21
2.033083
 31
0.0
  0
LINE
  5
268
100
AcDbEntity
  8
61
  6
CONTINUOUS
 62
     2
100
AcDbLine
 10
2.469583
 20
2.020333
 30
0.0
 11
2.655917
 21
2.020333
 31
0.0
  0
LINE
  5
269
100
AcDbEntity
  8
61
  6
CONTINUOUS
 62
     2
100
AcDbLine
 10
2.670333
 20
2.020333
 30
0.0
 11
2.85675
 21
2.020333
 31
0.0
  0
LINE
  5
26A
100
AcDbEntity
  8
61
  6
CONTINUOUS
 62
     2
100
AcDbLine
 10
2.469583
 20
2.007583
 30
0.0
 11
2.656
 21
2.007583
 31
0.0
  0
LINE
  5
26B
100
AcDbEntity
  8
61
  6
CONTINUOUS
 62
     2
100
AcDbLine
 10
2.670333
 20
2.007583
 30
0.0
 11
2.858417
 21
2.007583
 31
0.0
  0
LINE
  5
26C
100
AcDbEntity
  8
61
  6
CONTINUOUS
 62
     2
100
AcDbLine
 10
2.469583
 20
1.994
 30
0.0
 11
2.656
 21
1.994
 31
0.0
  0
LINE
  5
26D
100
AcDbEntity
  8
61
  6
CONTINUOUS
 62
     2
100
AcDbLine
 10
2.469583
 20
1.9805
 30
0.0
 11
2.656
 21
1.9805
 31
0.0
  0
LINE
  5
26E
100
AcDbEntity
  8
61
  6
CONTINUOUS
 62
     2
100
AcDbLine
 10
2.670333
 20
1.9805
 30
0.0
 11
2.857583
 21
1.9805
 31
0.0
  0
LINE
  5
26F
100
AcDbEntity
  8
61
  6
CONTINUOUS
 62
     3
100
AcDbLine
 10
2.655917
 20
1.910083
 30
0.0
 11
2.655917
 21
2.114
 31
0.0
  0
TEXT
  5
270
100
AcDbEntity
  8
61
  6
CONTINUOUS
 62
     2
100
AcDbText
 10
2.565917
 20
2.118917
 30
0.0
 40
0.01125
  1
NOTE SELECTION TABLE
  7
TXT
210
0.0
220
0.0
230
1.0
100
AcDbText
  0
TEXT
  5
271
100
AcDbEntity
  8
61
  6
CONTINUOUS
 62
     2
100
AcDbText
 10
2.488667
 20
2.099583
 30
0.0
 40
0.007833
  1
CODE
 41
0.997383
  7
TXT
210
0.0
220
0.0
230
1.0
100
AcDbText
  0
TEXT
  5
272
100
AcDbEntity
  8
61
  6
CONTINUOUS
 62
     2
100
AcDbText
 10
2.6855
 20
2.100417
 30
0.0
 40
0.007833
  1
CODE
 41
0.997383
  7
TXT
210
0.0
220
0.0
230
1.0
100
AcDbText
  0
TEXT
  5
273
100
AcDbEntity
  8
61
  6
CONTINUOUS
 62
     2
100
AcDbText
 10
2.551667
 20
2.099583
 30
0.0
 40
0.007833
  1
YES
 41
0.994127
  7
TXT
210
0.0
220
0.0
230
1.0
100
AcDbText
  0
TEXT
  5
274
100
AcDbEntity
  8
61
  6
CONTINUOUS
 62
     2
100
AcDbText
 10
2.751667
 20
2.099583
 30
0.0
 40
0.007833
  1
YES
 41
0.994127
  7
TXT
210
0.0
220
0.0
230
1.0
100
AcDbText
  0
TEXT
  5
275
100
AcDbEntity
  8
61
  6
CONTINUOUS
 62
     2
100
AcDbText
 10
2.615417
 20
2.099583
 30
0.0
 40
0.007833
  1
NO
 41
0.99317
  7
TXT
210
0.0
220
0.0
230
1.0
100
AcDbText
  0
TEXT
  5
276
100
AcDbEntity
  8
61
  6
CONTINUOUS
 62
     2
100
AcDbText
 10
2.816167
 20
2.099583
 30
0.0
 40
0.007833
  1
NO
 41
0.99317
  7
TXT
210
0.0
220
0.0
230
1.0
100
AcDbText
  0
TEXT
  5
277
100
AcDbEntity
  8
61
  6
CONTINUOUS
 62
     2
100
AcDbText
 10
2.499083
 20
2.086167
 30
0.0
 40
0.007833
  1
1
 41
0.990297
  7
TXT
 11
2.499083
 21
2.090083
 31
0.0
210
0.0
220
0.0
230
1.0
100
AcDbText
 73
     2
  0
TEXT
  5
278
100
AcDbEntity
  8
61
  6
CONTINUOUS
 62
     2
100
AcDbText
 10
2.499083
 20
2.073417
 30
0.0
 40
0.007833
  1
2
 41
1.001468
  7
TXT
 11
2.499083
 21
2.077333
 31
0.0
210
0.0
220
0.0
230
1.0
100
AcDbText
 73
     2
  0
TEXT
  5
279
100
AcDbEntity
  8
61
  6
CONTINUOUS
 62
     2
100
AcDbText
 10
2.499083
 20
2.0615
 30
0.0
 40
0.007833
  1
3
 41
0.993361
  7
TXT
 11
2.499083
 21
2.065417
 31
0.0
210
0.0
220
0.0
230
1.0
100
AcDbText
 73
     2
  0
TEXT
  5
27A
100
AcDbEntity
  8
61
  6
CONTINUOUS
 62
     2
100
AcDbText
 10
2.499083
 20
2.04875
 30
0.0
 40
0.007833
  1
4
 41
0.989659
  7
TXT
 11
2.499083
 21
2.052667
 31
0.0
210
0.0
220
0.0
230
1.0
100
AcDbText
 73
     2
  0
TEXT
  5
27B
100
AcDbEntity
  8
61
  6
CONTINUOUS
 62
     2
100
AcDbText
 10
2.499083
 20
2.035167
 30
0.0
 40
0.007833
  1
5
 41
0.993361
  7
TXT
 11
2.499083
 21
2.039083
 31
0.0
210
0.0
220
0.0
230
1.0
100
AcDbText
 73
     2
  0
TEXT
  5
27C
100
AcDbEntity
  8
61
  6
CONTINUOUS
 62
     2
100
AcDbText
 10
2.499083
 20
2.022417
 30
0.0
 40
0.007833
  1
6
 41
0.993361
  7
TXT
 11
2.499083
 21
2.026333
 31
0.0
210
0.0
220
0.0
230
1.0
100
AcDbText
 73
     2
  0
TEXT
  5
27D
100
AcDbEntity
  8
61
  6
CONTINUOUS
 62
     2
100
AcDbText
 10
2.499083
 20
2.009667
 30
0.0
 40
0.007833
  1
7
 41
1.001468
  7
TXT
 11
2.499083
 21
2.013583
 31
0.0
210
0.0
220
0.0
230
1.0
100
AcDbText
 73
     2
  0
TEXT
  5
27E
100
AcDbEntity
  8
61
  6
CONTINUOUS
 62
     2
100
AcDbText
 10
2.49825
 20
1.996917
 30
0.0
 40
0.007833
  1
8
 41
0.997383
  7
TXT
 11
2.49825
 21
2.000833
 31
0.0
210
0.0
220
0.0
230
1.0
100
AcDbText
 73
     2
  0
TEXT
  5
27F
100
AcDbEntity
  8
61
  6
CONTINUOUS
 62
     2
100
AcDbText
 10
2.695
 20
2.0615
 30
0.0
 40
0.007833
  1
11
 41
0.991319
  7
TXT
 11
2.695
 21
2.065417
 31
0.0
210
0.0
220
0.0
230
1.0
100
AcDbText
 73
     2
  0
TEXT
  5
280
100
AcDbEntity
  8
61
  6
CONTINUOUS
 62
     2
100
AcDbText
 10
2.69475
 20
2.048583
 30
0.0
 40
0.007833
  1
12
 41
0.997383
  7
TXT
 11
2.69475
 21
2.0525
 31
0.0
210
0.0
220
0.0
230
1.0
100
AcDbText
 73
     2
  0
TEXT
  5
281
100
AcDbEntity
  8
61
  6
CONTINUOUS
 62
     2
100
AcDbText
 10
2.69575
 20
2.022917
 30
0.0
 40
0.00775
  1
14
 41
1.010323
  7
TXT
 11
2.69575
 21
2.02675
 31
0.0
210
0.0
220
0.0
230
1.0
100
AcDbText
 73
     2
  0
LINE
  5
282
100
AcDbEntity
  8
61
  6
CONTINUOUS
 62
     2
100
AcDbLine
 10
2.656
 20
2.058833
 30
0.0
 11
2.469583
 21
2.058833
 31
0.0
  0
LINE
  5
283
100
AcDbEntity
  8
61
  6
CONTINUOUS
 62
     2
100
AcDbLine
 10
2.656
 20
2.07125
 30
0.0
 11
2.469583
 21
2.07125
 31
0.0
  0
LINE
  5
284
100
AcDbEntity
  8
61
  6
CONTINUOUS
 62
     2
100
AcDbLine
 10
2.655917
 20
2.083833
 30
0.0
 11
2.4695
 21
2.083833
 31
0.0
  0
LINE
  5
285
100
AcDbEntity
  8
61
  6
CONTINUOUS
 62
     2
100
AcDbLine
 10
2.655917
 20
2.09625
 30
0.0
 11
2.469417
 21
2.09625
 31
0.0
  0
LINE
  5
286
100
AcDbEntity
  8
61
  6
CONTINUOUS
 62
     3
100
AcDbLine
 10
2.469583
 20
2.134333
 30
0.0
 11
2.469583
 21
1.910083
 31
0.0
  0
LINE
  5
287
100
AcDbEntity
  8
61
  6
CONTINUOUS
 62
     3
100
AcDbLine
 10
2.532417
 20
1.910083
 30
0.0
 11
2.532417
 21
2.11375
 31
0.0
  0
LINE
  5
288
100
AcDbEntity
  8
61
  6
CONTINUOUS
 62
     3
100
AcDbLine
 10
2.594583
 20
1.910083
 30
0.0
 11
2.594583
 21
2.113917
 31
0.0
  0
LINE
  5
289
100
AcDbEntity
  8
61
  6
CONTINUOUS
 62
     3
100
AcDbLine
 10
2.670417
 20
1.910083
 30
0.0
 11
2.670417
 21
2.113833
 31
0.0
  0
LINE
  5
28A
100
AcDbEntity
  8
61
  6
CONTINUOUS
 62
     2
100
AcDbLine
 10
2.670417
 20
1.994
 30
0.0
 11
2.857583
 21
1.994
 31
0.0
  0
LINE
  5
28B
100
AcDbEntity
  8
61
  6
CONTINUOUS
 62
     3
100
AcDbLine
 10
2.733167
 20
1.910083
 30
0.0
 11
2.733167
 21
2.113833
 31
0.0
  0
LINE
  5
28C
100
AcDbEntity
  8
61
  6
CONTINUOUS
 62
     3
100
AcDbLine
 10
2.794583
 20
1.910083
 30
0.0
 11
2.794583
 21
2.113917
 31
0.0
  0
LINE
  5
28D
100
AcDbEntity
  8
61
  6
CONTINUOUS
 62
     2
100
AcDbLine
 10
2.4695
 20
2.033083
 30
0.0
 11
2.655917
 21
2.033083
 31
0.0
  0
LINE
  5
28E
100
AcDbEntity
  8
61
  6
CONTINUOUS
 62
     2
100
AcDbLine
 10
2.670333
 20
2.045833
 30
0.0
 11
2.857583
 21
2.045833
 31
0.0
  0
LINE
  5
28F
100
AcDbEntity
  8
61
  6
CONTINUOUS
 62
     2
100
AcDbLine
 10
2.858583
 20
2.09625
 30
0.0
 11
2.670333
 21
2.09625
 31
0.0
  0
LINE
  5
290
100
AcDbEntity
  8
61
  6
CONTINUOUS
 62
     2
100
AcDbLine
 10
2.858583
 20
2.083833
 30
0.0
 11
2.670333
 21
2.083833
 31
0.0
  0
LINE
  5
291
100
AcDbEntity
  8
61
  6
CONTINUOUS
 62
     2
100
AcDbLine
 10
2.858583
 20
2.07125
 30
0.0
 11
2.670333
 21
2.07125
 31
0.0
  0
LINE
  5
292
100
AcDbEntity
  8
61
  6
CONTINUOUS
 62
     2
100
AcDbLine
 10
2.858583
 20
2.058833
 30
0.0
 11
2.670333
 21
2.058833
 31
0.0
  0
LINE
  5
293
100
AcDbEntity
  8
61
  6
CONTINUOUS
 62
     3
100
AcDbLine
 10
2.4695
 20
2.113917
 30
0.0
 11
2.858583
 21
2.113917
 31
0.0
  0
LINE
  5
294
100
AcDbEntity
  8
61
  6
CONTINUOUS
 62
     3
100
AcDbLine
 10
2.469583
 20
2.134333
 30
0.0
 11
2.858667
 21
2.134333
 31
0.0
  0
LINE
  5
295
100
AcDbEntity
  8
61
  6
CONTINUOUS
 62
     2
100
AcDbLine
 10
2.469583
 20
1.964833
 30
0.0
 11
2.656
 21
1.964833
 31
0.0
  0
LINE
  5
296
100
AcDbEntity
  8
61
  6
CONTINUOUS
 62
     2
100
AcDbLine
 10
2.469583
 20
1.94925
 30
0.0
 11
2.656
 21
1.94925
 31
0.0
  0
LINE
  5
297
100
AcDbEntity
  8
61
  6
CONTINUOUS
 62
     2
100
AcDbLine
 10
2.670333
 20
1.964833
 30
0.0
 11
2.857583
 21
1.964833
 31
0.0
  0
LINE
  5
298
100
AcDbEntity
  8
61
  6
CONTINUOUS
 62
     2
100
AcDbLine
 10
2.670333
 20
1.94925
 30
0.0
 11
2.857583
 21
1.94925
 31
0.0
  0
LINE
  5
299
100
AcDbEntity
  8
61
  6
CONTINUOUS
 62
     2
100
AcDbLine
 10
2.858583
 20
2.012667
 30
0.0
 11
2.858583
 21
2.134333
 31
0.0
  0
TEXT
  5
29A
100
AcDbEntity
  8
61
  6
CONTINUOUS
 62
     2
100
AcDbText
 10
2.694
 20
2.035833
 30
0.0
 40
0.007833
  1
13
 41
0.992787
  7
TXT
 11
2.694
 21
2.03975
 31
0.0
210
0.0
220
0.0
230
1.0
100
AcDbText
 73
     2
  0
TEXT
  5
29B
100
AcDbEntity
  8
61
  6
CONTINUOUS
 62
     2
100
AcDbText
 10
2.695917
 20
2.009583
 30
0.0
 40
0.00775
  1
14A
 41
1.010323
  7
TXT
 11
2.695917
 21
2.013417
 31
0.0
210
0.0
220
0.0
230
1.0
100
AcDbText
 73
     2
  0
TEXT
  5
29C
100
AcDbEntity
  8
61
  6
CONTINUOUS
 62
     2
100
AcDbText
 10
2.695583
 20
1.995917
 30
0.0
 40
0.007833
  1
15
 41
0.990297
  7
TXT
 11
2.695583
 21
1.999833
 31
0.0
210
0.0
220
0.0
230
1.0
100
AcDbText
 73
     2
  0
TEXT
  5
29D
100
AcDbEntity
  8
61
  6
CONTINUOUS
 62
     2
100
AcDbText
 10
2.694667
 20
1.9815
 30
0.0
 40
0.007833
  1
16
 41
0.990297
  7
TXT
 11
2.694667
 21
1.985417
 31
0.0
210
0.0
220
0.0
230
1.0
100
AcDbText
 73
     2
  0
TEXT
  5
29E
100
AcDbEntity
  8
61
  6
CONTINUOUS
 62
     2
100
AcDbText
 10
2.695667
 20
1.965
 30
0.0
 40
0.007833
  1
17
 41
0.990297
  7
TXT
 11
2.695667
 21
1.968917
 31
0.0
210
0.0
220
0.0
230
1.0
100
AcDbText
 73
     2
  0
TEXT
  5
29F
100
AcDbEntity
  8
61
  6
CONTINUOUS
 62
     2
100
AcDbText
 10
2.695167
 20
1.951417
 30
0.0
 40
0.007833
  1
18
 41
0.990297
  7
TXT
 11
2.695167
 21
1.955333
 31
0.0
210
0.0
220
0.0
230
1.0
100
AcDbText
 73
     2
  0
TEXT
  5
2A0
100
AcDbEntity
  8
61
  6
CONTINUOUS
 62
     2
100
AcDbText
 10
2.695583
 20
1.93875
 30
0.0
 40
0.007833
  1
19
 41
0.990297
  7
TXT
 11
2.695583
 21
1.942667
 31
0.0
210
0.0
220
0.0
230
1.0
100
AcDbText
 73
     2
  0
LINE
  5
2A1
100
AcDbEntity
  8
61
  6
CONTINUOUS
 62
     2
100
AcDbLine
 10
2.282
 20
1.796333
 30
0.0
 11
2.282
 21
1.780667
 31
0.0
  0
LINE
  5
2A2
100
AcDbEntity
  8
61
  6
CONTINUOUS
 62
     3
100
AcDbLine
 10
2.282
 20
1.797917
 30
0.0
 11
2.282
 21
1.784833
 31
0.0
  0
LINE
  5
2A3
100
AcDbEntity
  8
61
  6
CONTINUOUS
 62
     2
100
AcDbLine
 10
2.282
 20
1.771583
 30
0.0
 11
2.282
 21
1.7585
 31
0.0
  0
LINE
  5
2A4
100
AcDbEntity
  8
61
  6
CONTINUOUS
 62
     2
100
AcDbLine
 10
2.282
 20
1.758833
 30
0.0
 11
2.282
 21
1.720583
 31
0.0
  0
LINE
  5
2A5
100
AcDbEntity
  8
61
  6
CONTINUOUS
 62
     2
100
AcDbLine
 10
2.282
 20
1.745333
 30
0.0
 11
2.282
 21
1.732167
 31
0.0
  0
TEXT
  5
2A6
100
AcDbEntity
  8
61
  6
CONTINUOUS
 62
     2
100
AcDbText
 10
2.301083
 20
1.839083
 30
0.0
 40
0.007833
  1
CODE
 41
0.997383
  7
TXT
210
0.0
220
0.0
230
1.0
100
AcDbText
  0
LINE
  5
2A7
100
AcDbEntity
  8
61
  6
CONTINUOUS
 62
     2
100
AcDbLine
 10
2.282
 20
1.731833
 30
0.0
 11
2.282
 21
1.705583
 31
0.0
  0
LINE
  5
2A8
100
AcDbEntity
  8
61
  6
CONTINUOUS
 62
     3
100
AcDbLine
 10
2.282
 20
1.852167
 30
0.0
 11
2.282
 21
1.705583
 31
0.0
  0
LINE
  5
2A9
100
AcDbEntity
  8
61
  6
CONTINUOUS
 62
     3
100
AcDbLine
 10
2.344833
 20
1.7055
 30
0.0
 11
2.344833
 21
1.851833
 31
0.0
  0
LINE
  5
2AA
100
AcDbEntity
  8
61
  6
CONTINUOUS
 62
     3
100
AcDbLine
 10
2.407
 20
1.705583
 30
0.0
 11
2.407
 21
1.852083
 31
0.0
  0
LINE
  5
2AB
100
AcDbEntity
  8
61
  6
CONTINUOUS
 62
     3
100
AcDbLine
 10
2.282
 20
1.7055
 30
0.0
 11
2.407
 21
1.7055
 31
0.0
  0
LINE
  5
2AC
100
AcDbEntity
  8
61
  6
CONTINUOUS
 62
     3
100
AcDbLine
 10
2.281917
 20
1.852083
 30
0.0
 11
2.407
 21
1.852083
 31
0.0
  0
LINE
  5
2AD
100
AcDbEntity
  8
61
  6
CONTINUOUS
 62
     2
100
AcDbLine
 10
2.407
 20
1.834333
 30
0.0
 11
2.281833
 21
1.834333
 31
0.0
  0
LINE
  5
2AE
100
AcDbEntity
  8
61
  6
CONTINUOUS
 62
     2
100
AcDbLine
 10
2.407
 20
1.821917
 30
0.0
 11
2.281917
 21
1.821917
 31
0.0
  0
LINE
  5
2AF
100
AcDbEntity
  8
61
  6
CONTINUOUS
 62
     2
100
AcDbLine
 10
2.407
 20
1.809333
 30
0.0
 11
2.282
 21
1.809333
 31
0.0
  0
LINE
  5
2B0
100
AcDbEntity
  8
61
  6
CONTINUOUS
 62
     2
100
AcDbLine
 10
2.407
 20
1.796917
 30
0.0
 11
2.282
 21
1.796917
 31
0.0
  0
LINE
  5
2B1
100
AcDbEntity
  8
61
  6
CONTINUOUS
 62
     2
100
AcDbLine
 10
2.281917
 20
1.784
 30
0.0
 11
2.407
 21
1.784
 31
0.0
  0
LINE
  5
2B2
100
AcDbEntity
  8
61
  6
CONTINUOUS
 62
     2
100
AcDbLine
 10
2.281917
 20
1.77125
 30
0.0
 11
2.407
 21
1.77125
 31
0.0
  0
LINE
  5
2B3
100
AcDbEntity
  8
61
  6
CONTINUOUS
 62
     2
100
AcDbLine
 10
2.282
 20
1.7585
 30
0.0
 11
2.407
 21
1.7585
 31
0.0
  0
LINE
  5
2B4
100
AcDbEntity
  8
61
  6
CONTINUOUS
 62
     2
100
AcDbLine
 10
2.282
 20
1.74575
 30
0.0
 11
2.407
 21
1.74575
 31
0.0
  0
LINE
  5
2B5
100
AcDbEntity
  8
61
  6
CONTINUOUS
 62
     2
100
AcDbLine
 10
2.282
 20
1.732167
 30
0.0
 11
2.407
 21
1.732167
 31
0.0
  0
LINE
  5
2B6
100
AcDbEntity
  8
61
  6
CONTINUOUS
 62
     2
100
AcDbLine
 10
2.282
 20
1.718667
 30
0.0
 11
2.407
 21
1.718667
 31
0.0
  0
TEXT
  5
2B7
100
AcDbEntity
  8
61
  6
CONTINUOUS
 62
     2
100
AcDbText
 10
2.360083
 20
1.838667
 30
0.0
 40
0.007833
  1
VALUE
 41
0.994127
  7
TXT
210
0.0
220
0.0
230
1.0
100
AcDbText
  0
LINE
  5
2B8
100
AcDbEntity
  8
61
  6
CONTINUOUS
 62
     2
100
AcDbLine
 10
2.2805
 20
1.86375
 30
0.0
 11
2.40625
 21
1.86375
 31
0.0
  0
TEXT
  5
2B9
100
AcDbEntity
  8
61
  6
CONTINUOUS
 62
     2
100
AcDbText
 10
2.3115
 20
1.824333
 30
0.0
 40
0.00775
  1
A
 41
1.000903
  7
TXT
 11
2.3115
 21
1.828167
 31
0.0
210
0.0
220
0.0
230
1.0
100
AcDbText
 73
     2
  0
TEXT
  5
2BA
100
AcDbEntity
  8
61
  6
CONTINUOUS
 62
     2
100
AcDbText
 10
2.3115
 20
1.811583
 30
0.0
 40
0.00775
  1
B
 41
1.012194
  7
TXT
 11
2.3115
 21
1.815417
 31
0.0
210
0.0
220
0.0
230
1.0
100
AcDbText
 73
     2
  0
TEXT
  5
2BB
100
AcDbEntity
  8
61
  6
CONTINUOUS
 62
     2
100
AcDbText
 10
2.3115
 20
1.799583
 30
0.0
 40
0.007833
  1
C
 41
0.993361
  7
TXT
 11
2.3115
 21
1.8035
 31
0.0
210
0.0
220
0.0
230
1.0
100
AcDbText
 73
     2
  0
TEXT
  5
2BC
100
AcDbEntity
  8
61
  6
CONTINUOUS
 62
     2
100
AcDbText
 10
2.3115
 20
1.786833
 30
0.0
 40
0.007833
  1
D
 41
0.989659
  7
TXT
 11
2.3115
 21
1.79075
 31
0.0
210
0.0
220
0.0
230
1.0
100
AcDbText
 73
     2
  0
TEXT
  5
2BD
100
AcDbEntity
  8
61
  6
CONTINUOUS
 62
     2
100
AcDbText
 10
2.3115
 20
1.773333
 30
0.0
 40
0.00775
  1
E
 41
1.004
  7
TXT
 11
2.3115
 21
1.777167
 31
0.0
210
0.0
220
0.0
230
1.0
100
AcDbText
 73
     2
  0
TEXT
  5
2BE
100
AcDbEntity
  8
61
  6
CONTINUOUS
 62
     2
100
AcDbText
 10
2.3115
 20
1.760583
 30
0.0
 40
0.00775
  1
F
 41
1.004
  7
TXT
 11
2.3115
 21
1.764417
 31
0.0
210
0.0
220
0.0
230
1.0
100
AcDbText
 73
     2
  0
TEXT
  5
2BF
100
AcDbEntity
  8
61
  6
CONTINUOUS
 62
     2
100
AcDbText
 10
2.3115
 20
1.747833
 30
0.0
 40
0.00775
  1
G
 41
1.012194
  7
TXT
 11
2.3115
 21
1.751667
 31
0.0
210
0.0
220
0.0
230
1.0
100
AcDbText
 73
     2
  0
TEXT
  5
2C0
100
AcDbEntity
  8
61
  6
CONTINUOUS
 62
     2
100
AcDbText
 10
2.282833
 20
1.867083
 30
0.0
 40
0.01125
  1
CONTROL VALUE
  7
TXT
210
0.0
220
0.0
230
1.0
100
AcDbText
  0
LINE
  5
2C1
100
AcDbEntity
  8
1
  6
CONTINUOUS
 62
     1
100
AcDbLine
 10
0.023417
 20
3.919667
 30
0.0
 11
-2.789083
 21
3.919667
 31
0.0
  0
LINE
  5
2C2
100
AcDbEntity
  8
1
  6
CONTINUOUS
 62
     1
100
AcDbLine
 10
0.023417
 20
2.169667
 30
0.0
 11
-2.789083
 21
2.169667
 31
0.0
  0
ARC
  5
2C3
100
AcDbEntity
  8
1
  6
CONTINUOUS
 62
     3
100
AcDbCircle
 10
-2.897417
 20
3.590417
 30
0.0
 40
0.010417
210
0.0
220
0.0
230
1.0
100
AcDbArc
 50
323.130094
 51
36.869886
  0
ARC
  5
2C4
100
AcDbEntity
  8
1
  6
CONTINUOUS
 62
     3
100
AcDbCircle
 10
-2.897417
 20
3.36125
 30
0.0
 40
0.010417
210
0.0
220
0.0
230
1.0
100
AcDbArc
 50
323.130094
 51
36.501431
  0
ARC
  5
2C5
100
AcDbEntity
  8
1
  6
CONTINUOUS
 62
     3
100
AcDbCircle
 10
-2.897417
 20
2.744583
 30
0.0
 40
0.010417
210
0.0
220
0.0
230
1.0
100
AcDbArc
 50
322.671753
 51
36.411544
  0
ARC
  5
2C6
100
AcDbEntity
  8
1
  6
CONTINUOUS
 62
     3
100
AcDbCircle
 10
-2.897417
 20
2.515417
 30
0.0
 40
0.010417
210
0.0
220
0.0
230
1.0
100
AcDbArc
 50
323.130094
 51
36.869886
  0
LINE
  5
2C7
100
AcDbEntity
  8
1
  6
CONTINUOUS
 62
     2
100
AcDbLine
 10
-2.889083
 20
3.590417
 30
0.0
 11
-2.85575
 21
3.590417
 31
0.0
  0
LINE
  5
2C8
100
AcDbEntity
  8
1
  6
CONTINUOUS
 62
     2
100
AcDbLine
 10
-2.889083
 20
3.36125
 30
0.0
 11
-2.85575
 21
3.36125
 31
0.0
  0
LINE
  5
2C9
100
AcDbEntity
  8
1
  6
CONTINUOUS
 62
     2
100
AcDbLine
 10
-2.889083
 20
2.744667
 30
0.0
 11
-2.85575
 21
2.744667
 31
0.0
  0
LINE
  5
2CA
100
AcDbEntity
  8
1
  6
CONTINUOUS
 62
     2
100
AcDbLine
 10
-2.889083
 20
2.515417
 30
0.0
 11
-2.85575
 21
2.515417
 31
0.0
  0
TEXT
  5
2CB
100
AcDbEntity
  8
1
  6
CONTINUOUS
 62
     1
100
AcDbText
 10
-2.785833
 20
2.161667
 30
0.0
 40
0.005
  1
D03K14C90-SS
  7
MONOTXT
210
0.0
220
0.0
230
1.0
100
AcDbText
  0
LINE
  5
2CC
100
AcDbEntity
  8
1
  6
CONTINUOUS
 62
     1
100
AcDbLine
 10
-0.454167
 20
3.919667
 30
0.0
 11
-0.454167
 21
3.837667
 31
0.0
  0
LINE
  5
2CD
100
AcDbEntity
  8
1
  6
CONTINUOUS
 62
     1
100
AcDbLine
 10
-0.454167
 20
3.837667
 30
0.0
 11
0.023417
 21
3.837667
 31
0.0
  0
LINE
  5
2CE
100
AcDbEntity
  8
1
  6
CONTINUOUS
 62
     1
100
AcDbLine
 10
-0.454167
 20
3.87875
 30
0.0
 11
0.023417
 21
3.87875
 31
0.0
  0
LINE
  5
2CF
100
AcDbEntity
  8
1
  6
CONTINUOUS
 62
     1
100
AcDbLine
 10
-0.3975
 20
3.919667
 30
0.0
 11
-0.3975
 21
3.837667
 31
0.0
  0
LINE
  5
2D0
100
AcDbEntity
  8
1
  6
CONTINUOUS
 62
     1
100
AcDbLine
 10
-0.340917
 20
3.919667
 30
0.0
 11
-0.340917
 21
3.837667
 31
0.0
  0
LINE
  5
2D1
100
AcDbEntity
  8
1
  6
CONTINUOUS
 62
     1
100
AcDbLine
 10
-0.2075
 20
3.919667
 30
0.0
 11
-0.2075
 21
3.837667
 31
0.0
  0
LINE
  5
2D2
100
AcDbEntity
  8
1
  6
CONTINUOUS
 62
     1
100
AcDbLine
 10
-0.07425
 20
3.919667
 30
0.0
 11
-0.07425
 21
3.837667
 31
0.0
  0
LINE
  5
2D3
100
AcDbEntity
  8
1
  6
CONTINUOUS
 62
     1
100
AcDbLine
 10
-0.026917
 20
3.919667
 30
0.0
 11
-0.026917
 21
3.837667
 31
0.0
  0
TEXT
  5
2D4
100
AcDbEntity
  8
1
  6
CONTINUOUS
 62
   253
100
AcDbText
 10
-0.445917
 20
3.9055
 30
0.0
 40
0.007834
  1
PUBLIC
 41
0.984811
  7
TXT
 72
     1
 11
-0.425917
 21
3.913333
 31
0.0
210
0.0
220
0.0
230
1.0
100
AcDbText
 73
     3
  0
TEXT
  5
2D5
100
AcDbEntity
  8
1
  6
CONTINUOUS
 62
   253
100
AcDbText
 10
-0.445
 20
3.89425
 30
0.0
 40
0.007918
  1
ROADS
 41
0.983454
  7
TXT
 72
     1
 11
-0.427333
 21
3.902167
 31
0.0
210
0.0
220
0.0
230
1.0
100
AcDbText
 73
     3
  0
TEXT
  5
2D6
100
AcDbEntity
  8
1
  6
CONTINUOUS
 62
   253
100
AcDbText
 10
-0.438083
 20
3.883083
 30
0.0
 40
0.007834
  1
DIV.
 41
0.976642
  7
TXT
 72
     1
 11
-0.427667
 21
3.890917
 31
0.0
210
0.0
220
0.0
230
1.0
100
AcDbText
 73
     3
  0
TEXT
  5
2D7
100
AcDbEntity
  8
1
  6
CONTINUOUS
 62
   253
100
AcDbText
 10
-0.441
 20
3.85575
 30
0.0
 40
0.007834
  1
W.VA.
 41
0.968345
  7
TXT
 72
     1
 11
-0.427167
 21
3.863583
 31
0.0
210
0.0
220
0.0
230
1.0
100
AcDbText
 73
     3
  0
TEXT
  5
2D8
100
AcDbEntity
  8
1
  6
CONTINUOUS
 62
   253
100
AcDbText
 10
-0.38825
 20
3.9055
 30
0.0
 40
0.007834
  1
STATE
 41
0.975429
  7
TXT
 72
     1
 11
-0.37075
 21
3.913333
 31
0.0
210
0.0
220
0.0
230
1.0
100
AcDbText
 73
     3
  0
TEXT
  5
2D9
100
AcDbEntity
  8
1
  6
CONTINUOUS
 62
   253
100
AcDbText
 10
-0.385833
 20
3.893333
 30
0.0
 40
0.007834
  1
DIST.
 41
0.982705
  7
TXT
 72
     1
 11
-0.371417
 21
3.901167
 31
0.0
210
0.0
220
0.0
230
1.0
100
AcDbText
 73
     3
  0
TEXT
  5
2DA
100
AcDbEntity
  8
1
  6
CONTINUOUS
 62
   253
100
AcDbText
 10
-0.381417
 20
3.883083
 30
0.0
 40
0.007834
  1
NO.
 41
0.963559
  7
TXT
 72
     1
 11
-0.373417
 21
3.890917
 31
0.0
210
0.0
220
0.0
230
1.0
100
AcDbText
 73
     3
  0
TEXT
  5
2DB
100
AcDbEntity
  8
1
  6
CONTINUOUS
 62
   253
100
AcDbText
 10
-0.329667
 20
3.895833
 30
0.0
 40
0.007834
  1
PROJECT NUMBER
 41
0.981109
  7
TXT
 72
     1
 11
-0.277833
 21
3.903667
 31
0.0
210
0.0
220
0.0
230
1.0
100
AcDbText
 73
     3
  0
TEXT
  5
2DC
100
AcDbEntity
  8
1
  6
CONTINUOUS
 62
   253
100
AcDbText
 10
-0.164167
 20
3.89425
 30
0.0
 40
0.007918
  1
COUNTY
 41
0.96893
  7
TXT
 72
     1
 11
-0.142833
 21
3.902167
 31
0.0
210
0.0
220
0.0
230
1.0
100
AcDbText
 73
     3
  0
TEXT
  5
2DD
100
AcDbEntity
  8
1
  6
CONTINUOUS
 62
   253
100
AcDbText
 10
-0.069917
 20
3.906083
 30
0.0
 40
0.007751
  1
SHEET
 41
1.000581
  7
TXT
 72
     1
 11
-0.05225
 21
3.913833
 31
0.0
210
0.0
220
0.0
230
1.0
100
AcDbText
 73
     3
  0
TEXT
  5
2DE
100
AcDbEntity
  8
1
  6
CONTINUOUS
 62
   253
100
AcDbText
 10
-0.061167
 20
3.888917
 30
0.0
 40
0.007333
  1
NO.
 41
1.061499
  7
TXT
 72
     1
 11
-0.053
 21
3.89625
 31
0.0
210
0.0
220
0.0
230
1.0
100
AcDbText
 73
     3
  0
TEXT
  5
2DF
100
AcDbEntity
  8
1
  6
CONTINUOUS
 62
   253
100
AcDbText
 10
-0.023
 20
3.906083
 30
0.0
 40
0.007751
  1
TOTAL
 41
1.000323
  7
TXT
 72
     1
 11
-0.00525
 21
3.913833
 31
0.0
210
0.0
220
0.0
230
1.0
100
AcDbText
 73
     3
  0
TEXT
  5
2E0
100
AcDbEntity
  8
1
  6
CONTINUOUS
 62
   253
100
AcDbText
 10
-0.020083
 20
3.8895
 30
0.0
 40
0.007251
  1
SHTS
 41
1.06572
  7
TXT
 72
     1
 11
-0.006167
 21
3.89675
 31
0.0
210
0.0
220
0.0
230
1.0
100
AcDbText
 73
     3
  0
POINT
  5
2E1
100
AcDbEntity
  8
1
  6
CONTINUOUS
 62
     1
100
AcDbPoint
 10
0.023417
 20
2.169667
 30
0.0
  0
LINE
  5
2E2
100
AcDbEntity
  8
1
  6
CONTINUOUS
 62
     1
100
AcDbLine
 10
-0.530833
 20
2.169667
 30
0.0
 11
-0.530833
 21
2.477333
 31
0.0
  0
LINE
  5
2E3
100
AcDbEntity
  8
1
  6
CONTINUOUS
 62
     1
100
AcDbLine
 10
-0.530833
 20
2.477333
 30
0.0
 11
0.023417
 21
2.477333
 31
0.0
  0
LINE
  5
2E4
100
AcDbEntity
  8
1
  6
CONTINUOUS
 62
     1
100
AcDbLine
 10
-0.530833
 20
2.415833
 30
0.0
 11
0.023417
 21
2.415833
 31
0.0
  0
LINE
  5
2E5
100
AcDbEntity
  8
1
  6
CONTINUOUS
 62
     1
100
AcDbLine
 10
-0.530833
 20
2.241417
 30
0.0
 11
-0.12075
 21
2.241417
 31
0.0
  0
LINE
  5
2E6
100
AcDbEntity
  8
1
  6
CONTINUOUS
 62
     1
100
AcDbLine
 10
-0.12075
 20
2.415833
 30
0.0
 11
-0.12075
 21
2.169667
 31
0.0
  0
LINE
  5
2E7
100
AcDbEntity
  8
1
  6
CONTINUOUS
 62
     1
100
AcDbLine
 10
-0.12075
 20
2.390417
 30
0.0
 11
0.023417
 21
2.390417
 31
0.0
  0
LINE
  5
2E8
100
AcDbEntity
  8
1
  6
CONTINUOUS
 62
     1
100
AcDbLine
 10
-0.12075
 20
2.3645
 30
0.0
 11
0.023417
 21
2.3645
 31
0.0
  0
LINE
  5
2E9
100
AcDbEntity
  8
1
  6
CONTINUOUS
 62
     1
100
AcDbLine
 10
-0.12075
 20
2.338667
 30
0.0
 11
0.023417
 21
2.338667
 31
0.0
  0
LINE
  5
2EA
100
AcDbEntity
  8
1
  6
CONTINUOUS
 62
     1
100
AcDbLine
 10
-0.12075
 20
2.313167
 30
0.0
 11
0.023417
 21
2.313167
 31
0.0
  0
LINE
  5
2EB
100
AcDbEntity
  8
1
  6
CONTINUOUS
 62
     1
100
AcDbLine
 10
-0.12075
 20
2.287417
 30
0.0
 11
0.023417
 21
2.287417
 31
0.0
  0
LINE
  5
2EC
100
AcDbEntity
  8
1
  6
CONTINUOUS
 62
     1
100
AcDbLine
 10
-0.12075
 20
2.262
 30
0.0
 11
0.023417
 21
2.262
 31
0.0
  0
LINE
  5
2ED
100
AcDbEntity
  8
1
  6
CONTINUOUS
 62
     1
100
AcDbLine
 10
-0.12075
 20
2.236
 30
0.0
 11
0.023417
 21
2.236
 31
0.0
  0
LINE
  5
2EE
100
AcDbEntity
  8
1
  6
CONTINUOUS
 62
     1
100
AcDbLine
 10
-0.9415
 20
2.169667
 30
0.0
 11
-0.9415
 21
2.37475
 31
0.0
  0
LINE
  5
2EF
100
AcDbEntity
  8
1
  6
CONTINUOUS
 62
     1
100
AcDbLine
 10
-0.9415
 20
2.37475
 30
0.0
 11
-0.530833
 21
2.37475
 31
0.0
  0
LINE
  5
2F0
100
AcDbEntity
  8
1
  6
CONTINUOUS
 62
     1
100
AcDbLine
 10
-0.9415
 20
2.328333
 30
0.0
 11
-0.530833
 21
2.328333
 31
0.0
  0
LINE
  5
2F1
100
AcDbEntity
  8
1
  6
CONTINUOUS
 62
     1
100
AcDbLine
 10
-0.633417
 20
2.328333
 30
0.0
 11
-0.633417
 21
2.169667
 31
0.0
  0
LINE
  5
2F2
100
AcDbEntity
  8
1
  6
CONTINUOUS
 62
     1
100
AcDbLine
 10
-0.633417
 20
2.190167
 30
0.0
 11
-0.530833
 21
2.190167
 31
0.0
  0
LINE
  5
2F3
100
AcDbEntity
  8
1
  6
CONTINUOUS
 62
     1
100
AcDbLine
 10
-0.633417
 20
2.21075
 30
0.0
 11
-0.530833
 21
2.21075
 31
0.0
  0
LINE
  5
2F4
100
AcDbEntity
  8
1
  6
CONTINUOUS
 62
     1
100
AcDbLine
 10
-0.633417
 20
2.231167
 30
0.0
 11
-0.530833
 21
2.231167
 31
0.0
  0
LINE
  5
2F5
100
AcDbEntity
  8
1
  6
CONTINUOUS
 62
     1
100
AcDbLine
 10
-0.633417
 20
2.251667
 30
0.0
 11
-0.530833
 21
2.251667
 31
0.0
  0
LINE
  5
2F6
100
AcDbEntity
  8
1
  6
CONTINUOUS
 62
     1
100
AcDbLine
 10
-0.633417
 20
2.27225
 30
0.0
 11
-0.530833
 21
2.27225
 31
0.0
  0
LINE
  5
2F7
100
AcDbEntity
  8
1
  6
CONTINUOUS
 62
     1
100
AcDbLine
 10
-0.633417
 20
2.292833
 30
0.0
 11
-0.530833
 21
2.292833
 31
0.0
  0
LINE
  5
2F8
100
AcDbEntity
  8
1
  6
CONTINUOUS
 62
     1
100
AcDbLine
 10
-0.582167
 20
2.29325
 30
0.0
 11
-0.582167
 21
2.169667
 31
0.0
  0
TEXT
  5
2F9
100
AcDbEntity
  8
1
  6
CONTINUOUS
 62
   253
100
AcDbText
 10
-0.113833
 20
2.4085
 30
0.0
 40
0.005335
  1
DESIGNED BY:
 41
0.965795
  7
TXT
 11
-0.113833
 21
2.413833
 31
0.0
210
0.0
220
0.0
230
1.0
100
AcDbText
 73
     3
  0
TEXT
  5
2FA
100
AcDbEntity
  8
1
  6
CONTINUOUS
 62
   253
100
AcDbText
 10
-0.114333
 20
2.383083
 30
0.0
 40
0.004918
  1
DRAWN BY:
 41
1.043412
  7
TXT
 11
-0.114333
 21
2.388
 31
0.0
210
0.0
220
0.0
230
1.0
100
AcDbText
 73
     3
  0
TEXT
  5
2FB
100
AcDbEntity
  8
1
  6
CONTINUOUS
 62
   253
100
AcDbText
 10
-0.113833
 20
2.356667
 30
0.0
 40
0.005419
  1
CHECKED BY:
 41
0.945839
  7
TXT
 11
-0.113833
 21
2.362083
 31
0.0
210
0.0
220
0.0
230
1.0
100
AcDbText
 73
     3
  0
TEXT
  5
2FC
100
AcDbEntity
  8
1
  6
CONTINUOUS
 62
   253
100
AcDbText
 10
-0.113833
 20
2.330333
 30
0.0
 40
0.004835
  1
REVIEWED BY:
 41
1.065467
  7
TXT
 11
-0.113833
 21
2.335167
 31
0.0
210
0.0
220
0.0
230
1.0
100
AcDbText
 73
     3
  0
TEXT
  5
2FD
100
AcDbEntity
  8
1
  6
CONTINUOUS
 62
   253
100
AcDbText
 10
-0.114333
 20
2.305
 30
0.0
 40
0.005335
  1
DATE:
 41
0.958017
  7
TXT
 11
-0.114333
 21
2.310333
 31
0.0
210
0.0
220
0.0
230
1.0
100
AcDbText
 73
     3
  0
TEXT
  5
2FE
100
AcDbEntity
  8
1
  6
CONTINUOUS
 62
   253
100
AcDbText
 10
-0.114833
 20
2.279
 30
0.0
 40
0.004918
  1
SCALE:
 41
1.052155
  7
TXT
 11
-0.114833
 21
2.283917
 31
0.0
210
0.0
220
0.0
230
1.0
100
AcDbText
 73
     3
  0
TEXT
  5
2FF
100
AcDbEntity
  8
1
  6
CONTINUOUS
 62
   253
100
AcDbText
 10
-0.114833
 20
2.25375
 30
0.0
 40
0.005335
  1
SHEET NO.:
 41
0.958579
  7
TXT
 11
-0.114833
 21
2.259083
 31
0.0
210
0.0
220
0.0
230
1.0
100
AcDbText
 73
     3
  0
TEXT
  5
300
100
AcDbEntity
  8
1
  6
CONTINUOUS
 62
   253
100
AcDbText
 10
-0.063
 20
2.237583
 30
0.0
 40
0.005419
  1
OF
 41
0.958479
  7
TXT
 11
-0.063
 21
2.243
 31
0.0
210
0.0
220
0.0
230
1.0
100
AcDbText
 73
     3
  0
TEXT
  5
301
100
AcDbEntity
  8
1
  6
CONTINUOUS
 62
   253
100
AcDbText
 10
-0.104083
 20
2.219417
 30
0.0
 40
0.008415
  1
BRIDGE NUMBER
 41
1.038738
  7
TXT
 72
     1
 11
-0.050917
 21
2.227833
 31
0.0
210
0.0
220
0.0
230
1.0
100
AcDbText
 73
     3
  0
TEXT
  5
302
100
AcDbEntity
  8
1
  6
CONTINUOUS
 62
   253
100
AcDbText
 10
-0.6315
 20
2.320667
 30
0.0
 40
0.004751
  1
PREPARED:
 41
1.081457
  7
TXT
 11
-0.6315
 21
2.325417
 31
0.0
210
0.0
220
0.0
230
1.0
100
AcDbText
 73
     3
  0
TEXT
  5
303
100
AcDbEntity
  8
1
  6
CONTINUOUS
 62
   253
100
AcDbText
 10
-0.6305
 20
2.285833
 30
0.0
 40
0.005335
  1
REVISED:
 41
0.95708
  7
TXT
 11
-0.6305
 21
2.291167
 31
0.0
210
0.0
220
0.0
230
1.0
100
AcDbText
 73
     3
  0
TEXT
  5
304
100
AcDbEntity
  8
1
  6
CONTINUOUS
 62
   253
100
AcDbText
 10
-0.073333
 20
2.270333
 30
0.0
 40
0.007251
  1
NONE
 41
1.066547
  7
TXT
 11
-0.073333
 21
2.277583
 31
0.0
210
0.0
220
0.0
230
1.0
100
AcDbText
 73
     3
  0
TEXT
  5
305
100
AcDbEntity
  8
1
  6
CONTINUOUS
 62
     2
100
AcDbText
 10
-0.92625
 20
2.301917
 30
0.0
 40
0.010417
  1
WEST VIRGINIA DEPARTMENT OF TRANSPORTATION
 41
0.744012
  7
TXT
 72
     1
 11
-0.789167
 21
2.301917
 31
0.0
210
0.0
220
0.0
230
1.0
100
AcDbText
  0
TEXT
  5
306
100
AcDbEntity
  8
1
  6
CONTINUOUS
 62
     2
100
AcDbText
 10
-0.887167
 20
2.282167
 30
0.0
 40
0.010417
  1
DIVISION OF HIGHWAYS-STRUCTURES
 41
0.744012
  7
TXT
 72
     4
 11
-0.786917
 21
2.287333
 31
0.0
210
0.0
220
0.0
230
1.0
100
AcDbText
  0
TEXT
  5
307
100
AcDbEntity
  8
1
  6
CONTINUOUS
 62
     4
100
AcDbText
 10
-0.50625
 20
2.451583
 30
0.0
 40
0.015583
  1
THE WEST VIRGINIA DEPARTMENT OF TRANSPORTATION
 41
0.834242
  7
TXT
 72
     1
 11
-0.25825
 21
2.467167
 31
0.0
210
0.0
220
0.0
230
1.0
100
AcDbText
 73
     3
  0
TEXT
  5
308
100
AcDbEntity
  8
1
  6
CONTINUOUS
 62
     2
100
AcDbText
 10
-0.388417
 20
2.4275
 30
0.0
 40
0.010417
  1
DIVISION OF HIGHWAYS-STRUCTURES 
  7
TXT
 72
     1
 11
-0.250333
 21
2.4275
 31
0.0
210
0.0
220
0.0
230
1.0
100
AcDbText
  0
LINE
  5
309
100
AcDbEntity
  8
1
  6
DASHED
 62
     1
100
AcDbLine
 10
-2.935167
 20
4.002917
 30
0.0
 11
0.065333
 21
4.002917
 31
0.0
  0
LINE
  5
30A
100
AcDbEntity
  8
1
  6
CONTINUOUS
 62
     1
100
AcDbLine
 10
-2.935167
 20
3.96125
 30
0.0
 11
0.065333
 21
3.96125
 31
0.0
  0
LINE
  5
30B
100
AcDbEntity
  8
1
  6
CONTINUOUS
 62
     1
100
AcDbLine
 10
0.065333
 20
2.127917
 30
0.0
 11
-2.935167
 21
2.127917
 31
0.0
  0
LINE
  5
30C
100
AcDbEntity
  8
1
  6
DASHED
 62
     1
100
AcDbLine
 10
0.065333
 20
2.08625
 30
0.0
 11
-2.935167
 21
2.08625
 31
0.0
  0
POINT
  5
30D
100
AcDbEntity
  8
CONSTRUCTION_CLASS
  6
CONTINUOUS
 62
     2
100
AcDbPoint
 10
0.065333
 20
2.08625
 30
0.0
  0
LINE
  5
30E
100
AcDbEntity
  8
1
  6
CONTINUOUS
 62
     1
100
AcDbLine
 10
0.023417
 20
3.919667
 30
0.0
 11
0.023417
 21
2.169667
 31
0.0
  0
POINT
  5
30F
100
AcDbEntity
  8
CONSTRUCTION_CLASS
  6
CONTINUOUS
 62
     2
100
AcDbPoint
 10
-2.935167
 20
4.002917
 30
0.0
  0
LINE
  5
310
100
AcDbEntity
  8
1
  6
CONTINUOUS
 62
     1
100
AcDbLine
 10
-2.789083
 20
3.919667
 30
0.0
 11
-2.789083
 21
2.169667
 31
0.0
  0
TEXT
  5
311
100
AcDbEntity
  8
3
  6
CONTINUOUS
 62
     4
100
AcDbText
 10
2.971083
 20
2.042417
 30
0.0
 40
0.009083
  1
These items are for Purchase Order Contract only.
  7
TXT
210
0.0
220
0.0
230
1.0
100
AcDbText
  0
TEXT
  5
312
100
AcDbEntity
  8
3
  6
CONTINUOUS
 62
     4
100
AcDbText
 10
2.954167
 20
2.041167
 30
0.0
 40
0.009083
  1
*
  7
TXT
210
0.0
220
0.0
230
1.0
100
AcDbText
  0
LWPOLYLINE
  5
313
100
AcDbEntity
  8
3
  6
CONTINUOUS
 62
     4
100
AcDbPolyline
 90
        4
 70
     1
 10
2.949333
 20
2.054917
 10
2.949333
 20
2.040667
 10
2.964917
 20
2.040667
 10
2.964917
 20
2.054917
  0
TEXT
  5
314
100
AcDbEntity
  8
3
  6
CONTINUOUS
 62
     2
100
AcDbText
 10
1.9835
 20
1.9215
 30
0.0
 40
0.009083
  1
11
  7
TXT
 72
     4
 11
1.988
 21
1.926
 31
0.0
210
0.0
220
0.0
230
1.0
100
AcDbText
  0
TEXT
  5
315
100
AcDbEntity
  8
3
  6
CONTINUOUS
 62
     2
100
AcDbText
 10
2.476583
 20
3.1525
 30
0.0
 40
0.009083
  1
14
  7
TXT
 72
     4
 11
2.48225
 21
3.157
 31
0.0
210
0.0
220
0.0
230
1.0
100
AcDbText
  0
TEXT
  5
316
100
AcDbEntity
  8
3
  6
CONTINUOUS
 62
     2
100
AcDbText
 10
2.134833
 20
3.036
 30
0.0
 40
0.009083
  1
14A
  7
TXT
 72
     4
 11
2.144667
 21
3.0405
 31
0.0
210
0.0
220
0.0
230
1.0
100
AcDbText
  0
TEXT
  5
317
100
AcDbEntity
  8
3
  6
CONTINUOUS
 62
     4
100
AcDbText
 10
1.38025
 20
2.246417
 30
0.0
 40
0.009083
  1
OPTION:  10B
  7
TXT
210
0.0
220
0.0
230
1.0
100
AcDbText
  0
TEXT
  5
318
100
AcDbEntity
  8
1
  6
CONTINUOUS
 62
     4
100
AcDbText
 10
1.379333
 20
2.10025
 30
0.0
 40
0.009083
  1
Field Top Coat: The field top coat shall conform to the requirements of Article 711.20.4
  7
TXT
210
0.0
220
0.0
230
1.0
100
AcDbText
  0
TEXT
  5
319
100
AcDbEntity
  8
1
  6
CONTINUOUS
 62
     4
100
AcDbText
 10
1.338417
 20
2.08375
 30
0.0
 40
0.009083
  1
of the Standard Specifications.  The color shall be  F  in accordance with Federal Standard 595, number  G .
  7
TXT
210
0.0
220
0.0
230
1.0
100
AcDbText
  0
TEXT
  5
31A
100
AcDbEntity
  8
1
  6
CONTINUOUS
 62
     4
100
AcDbText
 10
1.337833
 20
2.068
 30
0.0
 40
0.009083
  1
Dry  film thickness of the total paint system shall be a minimum seven (7) mils.
  7
TXT
210
0.0
220
0.0
230
1.0
100
AcDbText
  0
TEXT
  5
31B
100
AcDbEntity
  8
1
  6
CONTINUOUS
 62
     4
100
AcDbText
 10
1.381333
 20
2.043667
 30
0.0
 40
0.009083
  1
OPTION:  10C
  7
TXT
210
0.0
220
0.0
230
1.0
100
AcDbText
  0
CIRCLE
  5
31C
100
AcDbEntity
  8
3
  6
CONTINUOUS
 62
     2
100
AcDbCircle
 10
1.446417
 20
2.047417
 30
0.0
 40
0.0125
210
0.0
220
0.0
230
1.0
  0
TEXT
  5
31D
100
AcDbEntity
  8
1
  6
CONTINUOUS
 62
     4
100
AcDbText
 10
1.379333
 20
2.021167
 30
0.0
 40
0.009083
  1
Environmental Protection: All portions of the structure shall be cleaned in accordance with the 
  7
TXT
210
0.0
220
0.0
230
1.0
100
AcDbText
  0
TEXT
  5
31E
100
AcDbEntity
  8
1
  6
CONTINUOUS
 62
     4
100
AcDbText
 10
1.338417
 20
1.990917
 30
0.0
 40
0.009083
  1
and 620.12 as contained in these plans.
  7
TXT
210
0.0
220
0.0
230
1.0
100
AcDbText
  0
LINE
  5
31F
100
AcDbEntity
  8
3
  6
CONTINUOUS
 62
   233
100
AcDbLine
 10
1.38
 20
2.098583
 30
0.0
 11
1.469667
 21
2.098583
 31
0.0
  0
LINE
  5
320
100
AcDbEntity
  8
3
  6
CONTINUOUS
 62
   233
100
AcDbLine
 10
1.37925
 20
2.019667
 30
0.0
 11
1.521083
 21
2.019667
 31
0.0
  0
LINE
  5
321
100
AcDbEntity
  8
3
  6
CONTINUOUS
 62
   233
100
AcDbLine
 10
1.3815
 20
2.040083
 30
0.0
 11
1.429167
 21
2.040083
 31
0.0
  0
TEXT
  5
322
100
AcDbEntity
  8
3
  6
CONTINUOUS
 62
     4
100
AcDbText
 10
1.380583
 20
2.6635
 30
0.0
 40
0.009083
  1
OPTION:  10A
  7
TXT
210
0.0
220
0.0
230
1.0
100
AcDbText
  0
TEXT
  5
323
100
AcDbEntity
  8
3
  6
CONTINUOUS
 62
     2
100
AcDbText
 10
1.94275
 20
2.774333
 30
0.0
 40
0.009083
  1
10
  7
TXT
 72
     4
 11
1.94825
 21
2.778833
 31
0.0
210
0.0
220
0.0
230
1.0
100
AcDbText
  0
TEXT
  5
324
100
AcDbEntity
  8
3
  6
CONTINUOUS
 62
     2
100
AcDbText
 10
1.83275
 20
3.368333
 30
0.0
 40
0.009083
  1
9
  7
TXT
 72
     4
 11
1.83575
 21
3.372833
 31
0.0
210
0.0
220
0.0
230
1.0
100
AcDbText
  0
TEXT
  5
325
100
AcDbEntity
  8
3
  6
CONTINUOUS
 62
     4
100
AcDbText
 10
1.339167
 20
3.295333
 30
0.0
 40
0.009083
  1
OPTION:
  7
TXT
210
0.0
220
0.0
230
1.0
100
AcDbText
  0
CIRCLE
  5
326
100
AcDbEntity
  8
3
  6
CONTINUOUS
 62
     2
100
AcDbCircle
 10
1.404917
 20
3.300167
 30
0.0
 40
0.0125
210
0.0
220
0.0
230
1.0
  0
TEXT
  5
327
100
AcDbEntity
  8
3
  6
CONTINUOUS
 62
     2
100
AcDbText
 10
1.39825
 20
3.296
 30
0.0
 40
0.009083
  1
9A
  7
TXT
 72
     4
 11
1.405667
 21
3.3005
 31
0.0
210
0.0
220
0.0
230
1.0
100
AcDbText
  0
LINE
  5
328
100
AcDbEntity
  8
3
  6
CONTINUOUS
 62
   233
100
AcDbLine
 10
1.336
 20
3.291833
 30
0.0
 11
1.38925
 21
3.291833
 31
0.0
  0
LINE
  5
329
100
AcDbEntity
  8
3
  6
CONTINUOUS
 62
   233
100
AcDbLine
 10
1.3795
 20
3.254083
 30
0.0
 11
1.480917
 21
3.254083
 31
0.0
  0
LINE
  5
32A
100
AcDbEntity
  8
3
  6
CONTINUOUS
 62
   233
100
AcDbLine
 10
1.3745
 20
3.20775
 30
0.0
 11
1.475917
 21
3.20775
 31
0.0
  0
LINE
  5
32B
100
AcDbEntity
  8
3
  6
CONTINUOUS
 62
   233
100
AcDbLine
 10
1.378
 20
3.1785
 30
0.0
 11
1.468
 21
3.1785
 31
0.0
  0
CIRCLE
  5
32C
100
AcDbEntity
  8
3
  6
CONTINUOUS
 62
     2
100
AcDbCircle
 10
1.394583
 20
3.152833
 30
0.0
 40
0.006667
210
0.0
220
0.0
230
1.0
  0
TEXT
  5
32D
100
AcDbEntity
  8
3
  6
CONTINUOUS
 62
     4
100
AcDbText
 10
1.340333
 20
3.147667
 30
0.0
 40
0.009083
  1
number  E .
  7
TXT
210
0.0
220
0.0
230
1.0
100
AcDbText
  0
LINE
  5
32E
100
AcDbEntity
  8
3
  6
CONTINUOUS
 62
   233
100
AcDbLine
 10
1.381583
 20
3.131417
 30
0.0
 11
1.471583
 21
3.131417
 31
0.0
  0
TEXT
  5
32F
100
AcDbEntity
  8
3
  6
CONTINUOUS
 62
     4
100
AcDbText
 10
1.340333
 20
3.101
 30
0.0
 40
0.009083
  1
number  F .
  7
TXT
210
0.0
220
0.0
230
1.0
100
AcDbText
  0
TEXT
  5
330
100
AcDbEntity
  8
3
  6
CONTINUOUS
 62
     2
100
AcDbText
 10
1.401667
 20
3.074917
 30
0.0
 40
0.009083
  1
9B
  7
TXT
 72
     4
 11
1.408667
 21
3.079417
 31
0.0
210
0.0
220
0.0
230
1.0
100
AcDbText
  0
TEXT
  5
331
100
AcDbEntity
  8
3
  6
CONTINUOUS
 62
     4
100
AcDbText
 10
1.380667
 20
3.25675
 30
0.0
 40
0.009083
  1
Shop Prime Coat: One complete coat of vinyl shop primer conforming to the requirements of
  7
TXT
210
0.0
220
0.0
230
1.0
100
AcDbText
  0
TEXT
  5
332
100
AcDbEntity
  8
3
  6
CONTINUOUS
 62
     4
100
AcDbText
 10
1.379
 20
3.210083
 30
0.0
 40
0.009083
  1
Field Prime Coat: One complete coat of linseed/alkyd primer conforming to the requirements of
  7
TXT
210
0.0
220
0.0
230
1.0
100
AcDbText
  0
TEXT
  5
333
100
AcDbEntity
  8
3
  6
CONTINUOUS
 62
     4
100
AcDbText
 10
1.38125
 20
3.179583
 30
0.0
 40
0.009083
  1
First Finish Coat: One complete pigmented finish coat conforming to the requirements of Subsection
  7
TXT
210
0.0
220
0.0
230
1.0
100
AcDbText
  0
TEXT
  5
334
100
AcDbEntity
  8
3
  6
CONTINUOUS
 62
     4
100
AcDbText
 10
1.38125
 20
3.132917
 30
0.0
 40
0.009083
  1
Top Finish Coat: One complete pigmented finish coat conforming to the requirements of Subsection
  7
TXT
210
0.0
220
0.0
230
1.0
100
AcDbText
  0
TEXT
  5
335
100
AcDbEntity
  8
1
  6
CONTINUOUS
 62
     4
100
AcDbText
 10
1.33825
 20
3.037833
 30
0.0
 40
0.009083
  1
shall also include touch-up and repair of shop paint.  Paint system shall be the inorganic zinc rich system
  7
TXT
210
0.0
220
0.0
230
1.0
100
AcDbText
  0
TEXT
  5
336
100
AcDbEntity
  8
1
  6
CONTINUOUS
 62
     4
100
AcDbText
 10
1.339
 20
3.02075
 30
0.0
 40
0.009083
  1
meeting the requirements of Section 711.20 of the Standard Specifications.
  7
TXT
210
0.0
220
0.0
230
1.0
100
AcDbText
  0
TEXT
  5
337
100
AcDbEntity
  8
1
  6
CONTINUOUS
 62
     4
100
AcDbText
 10
1.381083
 20
3.00575
 30
0.0
 40
0.009083
  1
Shop Prime Coat: Shall conform to the requirements of Subsection 711.20.2 of the Standard
  7
TXT
210
0.0
220
0.0
230
1.0
100
AcDbText
  0
TEXT
  5
338
100
AcDbEntity
  8
1
  6
CONTINUOUS
 62
     4
100
AcDbText
 10
1.337583
 20
2.990083
 30
0.0
 40
0.009083
  1
Specifications.  Dry film thickness shall be minimum three (3) mils.
  7
TXT
210
0.0
220
0.0
230
1.0
100
AcDbText
  0
TEXT
  5
339
100
AcDbEntity
  8
1
  6
CONTINUOUS
 62
     4
100
AcDbText
 10
1.33825
 20
2.959417
 30
0.0
 40
0.009083
  1
Specifications.
  7
TXT
210
0.0
220
0.0
230
1.0
100
AcDbText
  0
TEXT
  5
33A
100
AcDbEntity
  8
1
  6
CONTINUOUS
 62
     4
100
AcDbText
 10
1.379667
 20
2.973667
 30
0.0
 40
0.009083
  1
Intermediate Field Coat: Shall conform to the requirements of Subsection 711.20.3 of the Standard 
  7
TXT
210
0.0
220
0.0
230
1.0
100
AcDbText
  0
TEXT
  5
33B
100
AcDbEntity
  8
1
  6
CONTINUOUS
 62
     4
100
AcDbText
 10
1.380417
 20
2.944083
 30
0.0
 40
0.009083
  1
Topcoat: Shall conform to the requirements of Subsection 711.20.4 of the Standard Specifications.
  7
TXT
210
0.0
220
0.0
230
1.0
100
AcDbText
  0
TEXT
  5
33C
100
AcDbEntity
  8
1
  6
CONTINUOUS
 62
     4
100
AcDbText
 10
1.338333
 20
2.928417
 30
0.0
 40
0.009083
  1
The color shall be  D  in accordance with Federal Standard 595, number  F .  Dry film thickness
  7
TXT
210
0.0
220
0.0
230
1.0
100
AcDbText
  0
LINE
  5
33D
100
AcDbEntity
  8
3
  6
CONTINUOUS
 62
   233
100
AcDbLine
 10
1.376
 20
2.941
 30
0.0
 11
1.42925
 21
2.941
 31
0.0
  0
TEXT
  5
33E
100
AcDbEntity
  8
3
  6
CONTINUOUS
 62
     4
100
AcDbText
 10
1.337833
 20
2.888083
 30
0.0
 40
0.009083
  1
OPTION:
  7
TXT
210
0.0
220
0.0
230
1.0
100
AcDbText
  0
CIRCLE
  5
33F
100
AcDbEntity
  8
3
  6
CONTINUOUS
 62
     2
100
AcDbCircle
 10
1.401417
 20
2.892833
 30
0.0
 40
0.0125
210
0.0
220
0.0
230
1.0
  0
LINE
  5
340
100
AcDbEntity
  8
3
  6
CONTINUOUS
 62
   233
100
AcDbLine
 10
1.334
 20
2.884583
 30
0.0
 11
1.38725
 21
2.884583
 31
0.0
  0
TEXT
  5
341
100
AcDbEntity
  8
3
  6
CONTINUOUS
 62
     2
100
AcDbText
 10
1.394917
 20
2.888833
 30
0.0
 40
0.009083
  1
9C
  7
TXT
 72
     4
 11
1.402083
 21
2.893333
 31
0.0
210
0.0
220
0.0
230
1.0
100
AcDbText
  0
TEXT
  5
342
100
AcDbEntity
  8
1
  6
CONTINUOUS
 62
     4
100
AcDbText
 10
1.380417
 20
2.866333
 30
0.0
 40
0.009083
  1
Paint system shall consist of application of shop prime coat and field touch-up and repair
  7
TXT
210
0.0
220
0.0
230
1.0
100
AcDbText
  0
TEXT
  5
343
100
AcDbEntity
  8
1
  6
CONTINUOUS
 62
     4
100
AcDbText
 10
1.338333
 20
2.850667
 30
0.0
 40
0.009083
  1
of shop coat.  Paint system shall be the inorganic zinc rich primer meeting the requirements of Subsection
  7
TXT
210
0.0
220
0.0
230
1.0
100
AcDbText
  0
TEXT
  5
344
100
AcDbEntity
  8
1
  6
CONTINUOUS
 62
     4
100
AcDbText
 10
1.339
 20
2.835
 30
0.0
 40
0.009083
  1
711.20.2 of the Standard Specifications.  Dry film thickness shall be a minimum three (3) mils.
  7
TXT
210
0.0
220
0.0
230
1.0
100
AcDbText
  0
TEXT
  5
345
100
AcDbEntity
  8
3
  6
CONTINUOUS
 62
     2
100
AcDbText
 10
1.883833
 20
1.808417
 30
0.0
 40
0.009083
  1
12
  7
TXT
 72
     4
 11
1.889333
 21
1.812917
 31
0.0
210
0.0
220
0.0
230
1.0
100
AcDbText
  0
TEXT
  5
346
100
AcDbEntity
  8
3
  6
CONTINUOUS
 62
     2
100
AcDbText
 10
2.464833
 20
3.319167
 30
0.0
 40
0.009083
  1
13
  7
TXT
 72
     4
 11
2.47025
 21
3.323667
 31
0.0
210
0.0
220
0.0
230
1.0
100
AcDbText
  0
LINE
  5
347
100
AcDbEntity
  8
61
  6
CONTINUOUS
 62
     2
100
AcDbLine
 10
2.469583
 20
1.93625
 30
0.0
 11
2.656
 21
1.93625
 31
0.0
  0
LINE
  5
348
100
AcDbEntity
  8
61
  6
CONTINUOUS
 62
     2
100
AcDbLine
 10
2.670333
 20
1.93625
 30
0.0
 11
2.857583
 21
1.93625
 31
0.0
  0
LINE
  5
349
100
AcDbEntity
  8
61
  6
CONTINUOUS
 62
     2
100
AcDbLine
 10
2.469583
 20
1.92325
 30
0.0
 11
2.656
 21
1.92325
 31
0.0
  0
LINE
  5
34A
100
AcDbEntity
  8
61
  6
CONTINUOUS
 62
     2
100
AcDbLine
 10
2.670333
 20
1.92325
 30
0.0
 11
2.857583
 21
1.92325
 31
0.0
  0
TEXT
  5
34B
100
AcDbEntity
  8
61
  6
CONTINUOUS
 62
     2
100
AcDbText
 10
2.49675
 20
1.9265
 30
0.0
 40
0.007833
  1
10
 41
0.999681
  7
TXT
 11
2.49675
 21
1.930417
 31
0.0
210
0.0
220
0.0
230
1.0
100
AcDbText
 73
     2
  0
TEXT
  5
34C
100
AcDbEntity
  8
61
  6
CONTINUOUS
 62
     2
100
AcDbText
 10
2.498583
 20
1.982667
 30
0.0
 40
0.007833
  1
9
 41
0.993361
  7
TXT
 11
2.498583
 21
1.986583
 31
0.0
210
0.0
220
0.0
230
1.0
100
AcDbText
 73
     2
  0
TEXT
  5
34D
100
AcDbEntity
  8
61
  6
CONTINUOUS
 62
     2
100
AcDbText
 10
2.498167
 20
1.968
 30
0.0
 40
0.007833
  1
9A
 41
0.993361
  7
TXT
 11
2.498167
 21
1.971917
 31
0.0
210
0.0
220
0.0
230
1.0
100
AcDbText
 73
     2
  0
TEXT
  5
34E
100
AcDbEntity
  8
61
  6
CONTINUOUS
 62
     2
100
AcDbText
 10
2.498
 20
1.95275
 30
0.0
 40
0.007833
  1
9B
 41
0.993361
  7
TXT
 11
2.498
 21
1.956667
 31
0.0
210
0.0
220
0.0
230
1.0
100
AcDbText
 73
     2
  0
TEXT
  5
34F
100
AcDbEntity
  8
61
  6
CONTINUOUS
 62
     2
100
AcDbText
 10
2.497333
 20
1.91275
 30
0.0
 40
0.007833
  1
10A
 41
0.999681
  7
TXT
 11
2.497333
 21
1.916667
 31
0.0
210
0.0
220
0.0
230
1.0
100
AcDbText
 73
     2
  0
TEXT
  5
350
100
AcDbEntity
  8
61
  6
CONTINUOUS
 62
     2
100
AcDbText
 10
2.694917
 20
2.0865
 30
0.0
 40
0.007833
  1
10B
 41
0.999681
  7
TXT
 11
2.694917
 21
2.090417
 31
0.0
210
0.0
220
0.0
230
1.0
100
AcDbText
 73
     2
  0
TEXT
  5
351
100
AcDbEntity
  8
61
  6
CONTINUOUS
 62
     2
100
AcDbText
 10
2.694
 20
2.073583
 30
0.0
 40
0.007833
  1
10C
 41
0.999681
  7
TXT
 11
2.694
 21
2.0775
 31
0.0
210
0.0
220
0.0
230
1.0
100
AcDbText
 73
     2
  0
LINE
  5
352
100
AcDbEntity
  8
1
  6
CONTINUOUS
 62
     1
100
AcDbLine
 10
-0.9415
 20
2.37475
 30
0.0
 11
-0.530833
 21
2.37475
 31
0.0
  0
TEXT
  5
353
100
AcDbEntity
  8
3
  6
CONTINUOUS
 62
   233
100
AcDbText
 10
-0.879583
 20
2.227667
 30
0.0
 40
0.015584
  1
GENERAL NOTES
  7
TXT
210
0.0
220
0.0
230
1.0
100
AcDbText
  0
TEXT
  5
354
100
AcDbEntity
  8
3
  6
CONTINUOUS
 62
   233
100
AcDbText
 10
-0.4615
 20
2.196
 30
0.0
 40
0.020833
  1
GENERAL NOTES
  7
TXT
210
0.0
220
0.0
230
1.0
100
AcDbText
  0
TEXT
  5
355
100
AcDbEntity
  8
3
  6
CONTINUOUS
 62
   233
100
AcDbText
 10
-0.8835
 20
2.262667
 30
0.0
 40
0.010417
  1
STANDARD BRIDGE PLANS
  7
TXT
210
0.0
220
0.0
230
1.0
100
AcDbText
  0
LINE
  5
356
100
AcDbEntity
  8
1
  6
CONTINUOUS
 62
     1
100
AcDbLine
 10
-0.9415
 20
2.37475
 30
0.0
 11
-0.530833
 21
2.37475
 31
0.0
  0
LINE
  5
357
100
AcDbEntity
  8
61
  6
CONTINUOUS
 62
     2
100
AcDbLine
 10
-0.918833
 20
2.522833
 30
0.0
 11
-0.918833
 21
2.50725
 31
0.0
  0
LINE
  5
358
100
AcDbEntity
  8
61
  6
CONTINUOUS
 62
     3
100
AcDbLine
 10
-0.918833
 20
2.5245
 30
0.0
 11
-0.918833
 21
2.511333
 31
0.0
  0
LINE
  5
359
100
AcDbEntity
  8
61
  6
CONTINUOUS
 62
     2
100
AcDbLine
 10
-0.918833
 20
2.498167
 30
0.0
 11
-0.918833
 21
2.485
 31
0.0
  0
LINE
  5
35A
100
AcDbEntity
  8
61
  6
CONTINUOUS
 62
     2
100
AcDbLine
 10
-0.918833
 20
2.485417
 30
0.0
 11
-0.918833
 21
2.447167
 31
0.0
  0
LINE
  5
35B
100
AcDbEntity
  8
61
  6
CONTINUOUS
 62
     2
100
AcDbLine
 10
-0.918833
 20
2.471833
 30
0.0
 11
-0.918833
 21
2.458667
 31
0.0
  0
LINE
  5
35C
100
AcDbEntity
  8
61
  6
CONTINUOUS
 62
     2
100
AcDbLine
 10
-0.918917
 20
2.5105
 30
0.0
 11
-0.732417
 21
2.5105
 31
0.0
  0
LINE
  5
35D
100
AcDbEntity
  8
61
  6
CONTINUOUS
 62
     2
100
AcDbLine
 10
-0.718083
 20
2.49775
 30
0.0
 11
-0.530833
 21
2.49775
 31
0.0
  0
LINE
  5
35E
100
AcDbEntity
  8
61
  6
CONTINUOUS
 62
     2
100
AcDbLine
 10
-0.918833
 20
2.485
 30
0.0
 11
-0.7325
 21
2.485
 31
0.0
  0
LINE
  5
35F
100
AcDbEntity
  8
61
  6
CONTINUOUS
 62
     2
100
AcDbLine
 10
-0.718083
 20
2.485
 30
0.0
 11
-0.531667
 21
2.485
 31
0.0
  0
LINE
  5
360
100
AcDbEntity
  8
61
  6
CONTINUOUS
 62
     2
100
AcDbLine
 10
-0.918833
 20
2.47225
 30
0.0
 11
-0.732417
 21
2.47225
 31
0.0
  0
LINE
  5
361
100
AcDbEntity
  8
61
  6
CONTINUOUS
 62
     2
100
AcDbLine
 10
-0.718083
 20
2.47225
 30
0.0
 11
-0.53
 21
2.47225
 31
0.0
  0
LINE
  5
362
100
AcDbEntity
  8
61
  6
CONTINUOUS
 62
     2
100
AcDbLine
 10
-0.918833
 20
2.458667
 30
0.0
 11
-0.732417
 21
2.458667
 31
0.0
  0
LINE
  5
363
100
AcDbEntity
  8
61
  6
CONTINUOUS
 62
     2
100
AcDbLine
 10
-0.918833
 20
2.445167
 30
0.0
 11
-0.732417
 21
2.445167
 31
0.0
  0
LINE
  5
364
100
AcDbEntity
  8
61
  6
CONTINUOUS
 62
     2
100
AcDbLine
 10
-0.718083
 20
2.445167
 30
0.0
 11
-0.530833
 21
2.445167
 31
0.0
  0
LINE
  5
365
100
AcDbEntity
  8
61
  6
CONTINUOUS
 62
     3
100
AcDbLine
 10
-0.7325
 20
2.37475
 30
0.0
 11
-0.7325
 21
2.578667
 31
0.0
  0
TEXT
  5
366
100
AcDbEntity
  8
61
  6
CONTINUOUS
 62
     2
100
AcDbText
 10
-0.8225
 20
2.583583
 30
0.0
 40
0.01125
  1
NOTE SELECTION TABLE
  7
TXT
210
0.0
220
0.0
230
1.0
100
AcDbText
  0
TEXT
  5
367
100
AcDbEntity
  8
61
  6
CONTINUOUS
 62
     2
100
AcDbText
 10
-0.89975
 20
2.56425
 30
0.0
 40
0.007833
  1
CODE
 41
0.997383
  7
TXT
210
0.0
220
0.0
230
1.0
100
AcDbText
  0
TEXT
  5
368
100
AcDbEntity
  8
61
  6
CONTINUOUS
 62
     2
100
AcDbText
 10
-0.702917
 20
2.565083
 30
0.0
 40
0.007833
  1
CODE
 41
0.997383
  7
TXT
210
0.0
220
0.0
230
1.0
100
AcDbText
  0
TEXT
  5
369
100
AcDbEntity
  8
61
  6
CONTINUOUS
 62
     2
100
AcDbText
 10
-0.83675
 20
2.56425
 30
0.0
 40
0.007833
  1
YES
 41
0.994127
  7
TXT
210
0.0
220
0.0
230
1.0
100
AcDbText
  0
TEXT
  5
36A
100
AcDbEntity
  8
61
  6
CONTINUOUS
 62
     2
100
AcDbText
 10
-0.63675
 20
2.56425
 30
0.0
 40
0.007833
  1
YES
 41
0.994127
  7
TXT
210
0.0
220
0.0
230
1.0
100
AcDbText
  0
TEXT
  5
36B
100
AcDbEntity
  8
61
  6
CONTINUOUS
 62
     2
100
AcDbText
 10
-0.773
 20
2.56425
 30
0.0
 40
0.007833
  1
NO
 41
0.99317
  7
TXT
210
0.0
220
0.0
230
1.0
100
AcDbText
  0
TEXT
  5
36C
100
AcDbEntity
  8
61
  6
CONTINUOUS
 62
     2
100
AcDbText
 10
-0.57225
 20
2.56425
 30
0.0
 40
0.007833
  1
NO
 41
0.99317
  7
TXT
210
0.0
220
0.0
230
1.0
100
AcDbText
  0
LINE
  5
36D
100
AcDbEntity
  8
61
  6
CONTINUOUS
 62
     2
100
AcDbLine
 10
-0.732417
 20
2.5235
 30
0.0
 11
-0.918833
 21
2.5235
 31
0.0
  0
LINE
  5
36E
100
AcDbEntity
  8
61
  6
CONTINUOUS
 62
     2
100
AcDbLine
 10
-0.732417
 20
2.535917
 30
0.0
 11
-0.918833
 21
2.535917
 31
0.0
  0
LINE
  5
36F
100
AcDbEntity
  8
61
  6
CONTINUOUS
 62
     2
100
AcDbLine
 10
-0.7325
 20
2.5485
 30
0.0
 11
-0.918917
 21
2.5485
 31
0.0
  0
LINE
  5
370
100
AcDbEntity
  8
61
  6
CONTINUOUS
 62
     2
100
AcDbLine
 10
-0.7325
 20
2.560917
 30
0.0
 11
-0.919
 21
2.560917
 31
0.0
  0
LINE
  5
371
100
AcDbEntity
  8
61
  6
CONTINUOUS
 62
     3
100
AcDbLine
 10
-0.918833
 20
2.599
 30
0.0
 11
-0.918833
 21
2.37475
 31
0.0
  0
LINE
  5
372
100
AcDbEntity
  8
61
  6
CONTINUOUS
 62
     3
100
AcDbLine
 10
-0.856
 20
2.37475
 30
0.0
 11
-0.856
 21
2.578417
 31
0.0
  0
LINE
  5
373
100
AcDbEntity
  8
61
  6
CONTINUOUS
 62
     3
100
AcDbLine
 10
-0.793833
 20
2.37475
 30
0.0
 11
-0.793833
 21
2.578583
 31
0.0
  0
LINE
  5
374
100
AcDbEntity
  8
61
  6
CONTINUOUS
 62
     3
100
AcDbLine
 10
-0.718
 20
2.37475
 30
0.0
 11
-0.718
 21
2.5785
 31
0.0
  0
LINE
  5
375
100
AcDbEntity
  8
61
  6
CONTINUOUS
 62
     2
100
AcDbLine
 10
-0.718
 20
2.458667
 30
0.0
 11
-0.530833
 21
2.458667
 31
0.0
  0
LINE
  5
376
100
AcDbEntity
  8
61
  6
CONTINUOUS
 62
     3
100
AcDbLine
 10
-0.65525
 20
2.37475
 30
0.0
 11
-0.65525
 21
2.5785
 31
0.0
  0
LINE
  5
377
100
AcDbEntity
  8
61
  6
CONTINUOUS
 62
     3
100
AcDbLine
 10
-0.593833
 20
2.37475
 30
0.0
 11
-0.593833
 21
2.578583
 31
0.0
  0
LINE
  5
378
100
AcDbEntity
  8
61
  6
CONTINUOUS
 62
     2
100
AcDbLine
 10
-0.918917
 20
2.49775
 30
0.0
 11
-0.7325
 21
2.49775
 31
0.0
  0
LINE
  5
379
100
AcDbEntity
  8
61
  6
CONTINUOUS
 62
     2
100
AcDbLine
 10
-0.718083
 20
2.5105
 30
0.0
 11
-0.530833
 21
2.5105
 31
0.0
  0
LINE
  5
37A
100
AcDbEntity
  8
61
  6
CONTINUOUS
 62
     2
100
AcDbLine
 10
-0.529833
 20
2.560917
 30
0.0
 11
-0.718083
 21
2.560917
 31
0.0
  0
LINE
  5
37B
100
AcDbEntity
  8
61
  6
CONTINUOUS
 62
     2
100
AcDbLine
 10
-0.529833
 20
2.5485
 30
0.0
 11
-0.718083
 21
2.5485
 31
0.0
  0
LINE
  5
37C
100
AcDbEntity
  8
61
  6
CONTINUOUS
 62
     2
100
AcDbLine
 10
-0.529833
 20
2.535917
 30
0.0
 11
-0.718083
 21
2.535917
 31
0.0
  0
LINE
  5
37D
100
AcDbEntity
  8
61
  6
CONTINUOUS
 62
     2
100
AcDbLine
 10
-0.529833
 20
2.5235
 30
0.0
 11
-0.718083
 21
2.5235
 31
0.0
  0
LINE
  5
37E
100
AcDbEntity
  8
61
  6
CONTINUOUS
 62
     3
100
AcDbLine
 10
-0.918917
 20
2.578583
 30
0.0
 11
-0.529833
 21
2.578583
 31
0.0
  0
LINE
  5
37F
100
AcDbEntity
  8
61
  6
CONTINUOUS
 62
     3
100
AcDbLine
 10
-0.918833
 20
2.599
 30
0.0
 11
-0.52975
 21
2.599
 31
0.0
  0
LINE
  5
380
100
AcDbEntity
  8
61
  6
CONTINUOUS
 62
     2
100
AcDbLine
 10
-0.918833
 20
2.4295
 30
0.0
 11
-0.732417
 21
2.4295
 31
0.0
  0
LINE
  5
381
100
AcDbEntity
  8
61
  6
CONTINUOUS
 62
     2
100
AcDbLine
 10
-0.918833
 20
2.413917
 30
0.0
 11
-0.732417
 21
2.413917
 31
0.0
  0
LINE
  5
382
100
AcDbEntity
  8
61
  6
CONTINUOUS
 62
     2
100
AcDbLine
 10
-0.718083
 20
2.4295
 30
0.0
 11
-0.530833
 21
2.4295
 31
0.0
  0
LINE
  5
383
100
AcDbEntity
  8
61
  6
CONTINUOUS
 62
     2
100
AcDbLine
 10
-0.718083
 20
2.413917
 30
0.0
 11
-0.530833
 21
2.413917
 31
0.0
  0
LINE
  5
384
100
AcDbEntity
  8
61
  6
CONTINUOUS
 62
     2
100
AcDbLine
 10
-0.529833
 20
2.477333
 30
0.0
 11
-0.529833
 21
2.599
 31
0.0
  0
LINE
  5
385
100
AcDbEntity
  8
61
  6
CONTINUOUS
 62
     2
100
AcDbLine
 10
-1.106417
 20
2.261
 30
0.0
 11
-1.106417
 21
2.245333
 31
0.0
  0
LINE
  5
386
100
AcDbEntity
  8
61
  6
CONTINUOUS
 62
     3
100
AcDbLine
 10
-1.106417
 20
2.262583
 30
0.0
 11
-1.106417
 21
2.2495
 31
0.0
  0
LINE
  5
387
100
AcDbEntity
  8
61
  6
CONTINUOUS
 62
     2
100
AcDbLine
 10
-1.106417
 20
2.23625
 30
0.0
 11
-1.106417
 21
2.223167
 31
0.0
  0
LINE
  5
388
100
AcDbEntity
  8
61
  6
CONTINUOUS
 62
     2
100
AcDbLine
 10
-1.106417
 20
2.2235
 30
0.0
 11
-1.106417
 21
2.18525
 31
0.0
  0
LINE
  5
389
100
AcDbEntity
  8
61
  6
CONTINUOUS
 62
     2
100
AcDbLine
 10
-1.106417
 20
2.21
 30
0.0
 11
-1.106417
 21
2.196833
 31
0.0
  0
TEXT
  5
38A
100
AcDbEntity
  8
61
  6
CONTINUOUS
 62
     2
100
AcDbText
 10
-1.087333
 20
2.30375
 30
0.0
 40
0.007833
  1
CODE
 41
0.997383
  7
TXT
210
0.0
220
0.0
230
1.0
100
AcDbText
  0
LINE
  5
38B
100
AcDbEntity
  8
61
  6
CONTINUOUS
 62
     2
100
AcDbLine
 10
-1.106417
 20
2.1965
 30
0.0
 11
-1.106417
 21
2.17025
 31
0.0
  0
LINE
  5
38C
100
AcDbEntity
  8
61
  6
CONTINUOUS
 62
     3
100
AcDbLine
 10
-1.106417
 20
2.316833
 30
0.0
 11
-1.106417
 21
2.17025
 31
0.0
  0
LINE
  5
38D
100
AcDbEntity
  8
61
  6
CONTINUOUS
 62
     3
100
AcDbLine
 10
-1.043583
 20
2.170167
 30
0.0
 11
-1.043583
 21
2.3165
 31
0.0
  0
LINE
  5
38E
100
AcDbEntity
  8
61
  6
CONTINUOUS
 62
     3
100
AcDbLine
 10
-0.981417
 20
2.17025
 30
0.0
 11
-0.981417
 21
2.31675
 31
0.0
  0
LINE
  5
38F
100
AcDbEntity
  8
61
  6
CONTINUOUS
 62
     3
100
AcDbLine
 10
-1.106417
 20
2.170167
 30
0.0
 11
-0.981417
 21
2.170167
 31
0.0
  0
LINE
  5
390
100
AcDbEntity
  8
61
  6
CONTINUOUS
 62
     3
100
AcDbLine
 10
-1.1065
 20
2.31675
 30
0.0
 11
-0.981417
 21
2.31675
 31
0.0
  0
LINE
  5
391
100
AcDbEntity
  8
61
  6
CONTINUOUS
 62
     2
100
AcDbLine
 10
-0.981417
 20
2.299
 30
0.0
 11
-1.106583
 21
2.299
 31
0.0
  0
LINE
  5
392
100
AcDbEntity
  8
61
  6
CONTINUOUS
 62
     2
100
AcDbLine
 10
-0.981417
 20
2.286583
 30
0.0
 11
-1.1065
 21
2.286583
 31
0.0
  0
LINE
  5
393
100
AcDbEntity
  8
61
  6
CONTINUOUS
 62
     2
100
AcDbLine
 10
-0.981417
 20
2.274
 30
0.0
 11
-1.106417
 21
2.274
 31
0.0
  0
LINE
  5
394
100
AcDbEntity
  8
61
  6
CONTINUOUS
 62
     2
100
AcDbLine
 10
-0.981417
 20
2.261583
 30
0.0
 11
-1.106417
 21
2.261583
 31
0.0
  0
LINE
  5
395
100
AcDbEntity
  8
61
  6
CONTINUOUS
 62
     2
100
AcDbLine
 10
-1.1065
 20
2.248667
 30
0.0
 11
-0.981417
 21
2.248667
 31
0.0
  0
LINE
  5
396
100
AcDbEntity
  8
61
  6
CONTINUOUS
 62
     2
100
AcDbLine
 10
-1.1065
 20
2.235917
 30
0.0
 11
-0.981417
 21
2.235917
 31
0.0
  0
LINE
  5
397
100
AcDbEntity
  8
61
  6
CONTINUOUS
 62
     2
100
AcDbLine
 10
-1.106417
 20
2.223167
 30
0.0
 11
-0.981417
 21
2.223167
 31
0.0
  0
LINE
  5
398
100
AcDbEntity
  8
61
  6
CONTINUOUS
 62
     2
100
AcDbLine
 10
-1.106417
 20
2.210417
 30
0.0
 11
-0.981417
 21
2.210417
 31
0.0
  0
LINE
  5
399
100
AcDbEntity
  8
61
  6
CONTINUOUS
 62
     2
100
AcDbLine
 10
-1.106417
 20
2.196833
 30
0.0
 11
-0.981417
 21
2.196833
 31
0.0
  0
LINE
  5
39A
100
AcDbEntity
  8
61
  6
CONTINUOUS
 62
     2
100
AcDbLine
 10
-1.106417
 20
2.183333
 30
0.0
 11
-0.981417
 21
2.183333
 31
0.0
  0
TEXT
  5
39B
100
AcDbEntity
  8
61
  6
CONTINUOUS
 62
     2
100
AcDbText
 10
-1.028333
 20
2.303333
 30
0.0
 40
0.007833
  1
VALUE
 41
0.994127
  7
TXT
210
0.0
220
0.0
230
1.0
100
AcDbText
  0
LINE
  5
39C
100
AcDbEntity
  8
61
  6
CONTINUOUS
 62
     2
100
AcDbLine
 10
-1.107917
 20
2.328417
 30
0.0
 11
-0.982167
 21
2.328417
 31
0.0
  0
TEXT
  5
39D
100
AcDbEntity
  8
61
  6
CONTINUOUS
 62
     2
100
AcDbText
 10
-1.076917
 20
2.289
 30
0.0
 40
0.00775
  1
A
 41
1.000903
  7
TXT
 11
-1.076917
 21
2.292833
 31
0.0
210
0.0
220
0.0
230
1.0
100
AcDbText
 73
     2
  0
TEXT
  5
39E
100
AcDbEntity
  8
61
  6
CONTINUOUS
 62
     2
100
AcDbText
 10
-1.076917
 20
2.27625
 30
0.0
 40
0.00775
  1
B
 41
1.012194
  7
TXT
 11
-1.076917
 21
2.280083
 31
0.0
210
0.0
220
0.0
230
1.0
100
AcDbText
 73
     2
  0
TEXT
  5
39F
100
AcDbEntity
  8
61
  6
CONTINUOUS
 62
     2
100
AcDbText
 10
-1.076917
 20
2.26425
 30
0.0
 40
0.007833
  1
C
 41
0.993361
  7
TXT
 11
-1.076917
 21
2.268167
 31
0.0
210
0.0
220
0.0
230
1.0
100
AcDbText
 73
     2
  0
TEXT
  5
3A0
100
AcDbEntity
  8
61
  6
CONTINUOUS
 62
     2
100
AcDbText
 10
-1.076917
 20
2.2515
 30
0.0
 40
0.007833
  1
D
 41
0.989659
  7
TXT
 11
-1.076917
 21
2.255417
 31
0.0
210
0.0
220
0.0
230
1.0
100
AcDbText
 73
     2
  0
TEXT
  5
3A1
100
AcDbEntity
  8
61
  6
CONTINUOUS
 62
     2
100
AcDbText
 10
-1.076917
 20
2.238
 30
0.0
 40
0.00775
  1
E
 41
1.004
  7
TXT
 11
-1.076917
 21
2.241833
 31
0.0
210
0.0
220
0.0
230
1.0
100
AcDbText
 73
     2
  0
TEXT
  5
3A2
100
AcDbEntity
  8
61
  6
CONTINUOUS
 62
     2
100
AcDbText
 10
-1.076917
 20
2.22525
 30
0.0
 40
0.00775
  1
F
 41
1.004
  7
TXT
 11
-1.076917
 21
2.229083
 31
0.0
210
0.0
220
0.0
230
1.0
100
AcDbText
 73
     2
  0
TEXT
  5
3A3
100
AcDbEntity
  8
61
  6
CONTINUOUS
 62
     2
100
AcDbText
 10
-1.076917
 20
2.2125
 30
0.0
 40
0.00775
  1
G
 41
1.012194
  7
TXT
 11
-1.076917
 21
2.216333
 31
0.0
210
0.0
220
0.0
230
1.0
100
AcDbText
 73
     2
  0
TEXT
  5
3A4
100
AcDbEntity
  8
61
  6
CONTINUOUS
 62
     2
100
AcDbText
 10
-1.105583
 20
2.33175
 30
0.0
 40
0.01125
  1
CONTROL VALUE
  7
TXT
210
0.0
220
0.0
230
1.0
100
AcDbText
  0
LINE
  5
3A5
100
AcDbEntity
  8
61
  6
CONTINUOUS
 62
     2
100
AcDbLine
 10
-0.918833
 20
2.400917
 30
0.0
 11
-0.732417
 21
2.400917
 31
0.0
  0
LINE
  5
3A6
100
AcDbEntity
  8
61
  6
CONTINUOUS
 62
     2
100
AcDbLine
 10
-0.718083
 20
2.400917
 30
0.0
 11
-0.530833
 21
2.400917
 31
0.0
  0
LINE
  5
3A7
100
AcDbEntity
  8
61
  6
CONTINUOUS
 62
     2
100
AcDbLine
 10
-0.918833
 20
2.387917
 30
0.0
 11
-0.732417
 21
2.387917
 31
0.0
  0
LINE
  5
3A8
100
AcDbEntity
  8
61
  6
CONTINUOUS
 62
     2
100
AcDbLine
 10
-0.718083
 20
2.387917
 30
0.0
 11
-0.530833
 21
2.387917
 31
0.0
  0
TEXT
  5
3A9
100
AcDbEntity
  8
61
  6
CONTINUOUS
 62
     2
100
AcDbText
 10
-0.889333
 20
2.550833
 30
0.0
 40
0.007833
  1
20
 41
0.990297
  7
TXT
 11
-0.889333
 21
2.55475
 31
0.0
210
0.0
220
0.0
230
1.0
100
AcDbText
 73
     2
  0
LINE
  5
3AA
100
AcDbEntity
  8
2
  6
CONTINUOUS
 62
     1
100
AcDbLine
 10
-2.747417
 20
3.888417
 30
0.0
 11
-2.747417
 21
2.164167
 31
0.0
  0
LINE
  5
3AB
100
AcDbEntity
  8
2
  6
CONTINUOUS
 62
     1
100
AcDbLine
 10
-0.038917
 20
3.888417
 30
0.0
 11
-0.038917
 21
2.164167
 31
0.0
  0
LINE
  5
3AC
100
AcDbEntity
  8
2
  6
CONTINUOUS
 62
     2
100
AcDbLine
 10
-2.789083
 20
3.872833
 30
0.0
 11
0.210917
 21
3.872833
 31
0.0
  0
LINE
  5
3AD
100
AcDbEntity
  8
2
  6
CONTINUOUS
 62
     2
100
AcDbLine
 10
-2.789083
 20
3.85725
 30
0.0
 11
0.210917
 21
3.85725
 31
0.0
  0
LINE
  5
3AE
100
AcDbEntity
  8
2
  6
CONTINUOUS
 62
     2
100
AcDbLine
 10
-2.789083
 20
3.841583
 30
0.0
 11
0.210917
 21
3.841583
 31
0.0
  0
LINE
  5
3AF
100
AcDbEntity
  8
2
  6
CONTINUOUS
 62
     2
100
AcDbLine
 10
-2.789083
 20
3.825917
 30
0.0
 11
0.210917
 21
3.825917
 31
0.0
  0
LINE
  5
3B0
100
AcDbEntity
  8
2
  6
CONTINUOUS
 62
     2
100
AcDbLine
 10
-2.789083
 20
3.810333
 30
0.0
 11
0.210917
 21
3.810333
 31
0.0
  0
LINE
  5
3B1
100
AcDbEntity
  8
2
  6
CONTINUOUS
 62
     2
100
AcDbLine
 10
-2.789083
 20
3.794667
 30
0.0
 11
0.210917
 21
3.794667
 31
0.0
  0
LINE
  5
3B2
100
AcDbEntity
  8
2
  6
CONTINUOUS
 62
     2
100
AcDbLine
 10
-2.789083
 20
3.779083
 30
0.0
 11
0.210917
 21
3.779083
 31
0.0
  0
LINE
  5
3B3
100
AcDbEntity
  8
2
  6
CONTINUOUS
 62
     2
100
AcDbLine
 10
-2.789083
 20
3.763417
 30
0.0
 11
0.210917
 21
3.763417
 31
0.0
  0
LINE
  5
3B4
100
AcDbEntity
  8
2
  6
CONTINUOUS
 62
     2
100
AcDbLine
 10
-2.789083
 20
3.747833
 30
0.0
 11
0.210917
 21
3.747833
 31
0.0
  0
LINE
  5
3B5
100
AcDbEntity
  8
2
  6
CONTINUOUS
 62
     2
100
AcDbLine
 10
-2.789083
 20
3.732167
 30
0.0
 11
0.210917
 21
3.732167
 31
0.0
  0
LINE
  5
3B6
100
AcDbEntity
  8
2
  6
CONTINUOUS
 62
     2
100
AcDbLine
 10
-2.789083
 20
3.716583
 30
0.0
 11
0.210917
 21
3.716583
 31
0.0
  0
LINE
  5
3B7
100
AcDbEntity
  8
2
  6
CONTINUOUS
 62
     2
100
AcDbLine
 10
-2.789083
 20
3.700917
 30
0.0
 11
0.210917
 21
3.700917
 31
0.0
  0
LINE
  5
3B8
100
AcDbEntity
  8
2
  6
CONTINUOUS
 62
     2
100
AcDbLine
 10
-2.789083
 20
3.685333
 30
0.0
 11
0.210917
 21
3.685333
 31
0.0
  0
LINE
  5
3B9
100
AcDbEntity
  8
2
  6
CONTINUOUS
 62
     2
100
AcDbLine
 10
-2.789083
 20
3.669667
 30
0.0
 11
0.210917
 21
3.669667
 31
0.0
  0
LINE
  5
3BA
100
AcDbEntity
  8
2
  6
CONTINUOUS
 62
     2
100
AcDbLine
 10
-2.789083
 20
3.654083
 30
0.0
 11
0.210917
 21
3.654083
 31
0.0
  0
LINE
  5
3BB
100
AcDbEntity
  8
2
  6
CONTINUOUS
 62
     2
100
AcDbLine
 10
-2.789083
 20
3.638417
 30
0.0
 11
0.210917
 21
3.638417
 31
0.0
  0
LINE
  5
3BC
100
AcDbEntity
  8
2
  6
CONTINUOUS
 62
     2
100
AcDbLine
 10
-2.789083
 20
3.622833
 30
0.0
 11
0.210917
 21
3.622833
 31
0.0
  0
LINE
  5
3BD
100
AcDbEntity
  8
2
  6
CONTINUOUS
 62
     2
100
AcDbLine
 10
-2.789083
 20
3.607167
 30
0.0
 11
0.210917
 21
3.607167
 31
0.0
  0
LINE
  5
3BE
100
AcDbEntity
  8
2
  6
CONTINUOUS
 62
     2
100
AcDbLine
 10
-2.789083
 20
3.591583
 30
0.0
 11
0.210917
 21
3.591583
 31
0.0
  0
LINE
  5
3BF
100
AcDbEntity
  8
2
  6
CONTINUOUS
 62
     2
100
AcDbLine
 10
-2.789083
 20
3.575917
 30
0.0
 11
0.210917
 21
3.575917
 31
0.0
  0
LINE
  5
3C0
100
AcDbEntity
  8
2
  6
CONTINUOUS
 62
     2
100
AcDbLine
 10
-2.789083
 20
3.560333
 30
0.0
 11
0.210917
 21
3.560333
 31
0.0
  0
LINE
  5
3C1
100
AcDbEntity
  8
2
  6
CONTINUOUS
 62
     2
100
AcDbLine
 10
-2.789083
 20
3.544667
 30
0.0
 11
0.210917
 21
3.544667
 31
0.0
  0
LINE
  5
3C2
100
AcDbEntity
  8
2
  6
CONTINUOUS
 62
     2
100
AcDbLine
 10
-2.789083
 20
3.529083
 30
0.0
 11
0.210917
 21
3.529083
 31
0.0
  0
LINE
  5
3C3
100
AcDbEntity
  8
2
  6
CONTINUOUS
 62
     2
100
AcDbLine
 10
-2.789083
 20
3.513417
 30
0.0
 11
0.210917
 21
3.513417
 31
0.0
  0
LINE
  5
3C4
100
AcDbEntity
  8
2
  6
CONTINUOUS
 62
     2
100
AcDbLine
 10
-2.789083
 20
3.497833
 30
0.0
 11
0.210917
 21
3.497833
 31
0.0
  0
LINE
  5
3C5
100
AcDbEntity
  8
2
  6
CONTINUOUS
 62
     2
100
AcDbLine
 10
-2.789083
 20
3.482167
 30
0.0
 11
0.210917
 21
3.482167
 31
0.0
  0
LINE
  5
3C6
100
AcDbEntity
  8
2
  6
CONTINUOUS
 62
     2
100
AcDbLine
 10
-2.789083
 20
3.466583
 30
0.0
 11
0.210917
 21
3.466583
 31
0.0
  0
LINE
  5
3C7
100
AcDbEntity
  8
2
  6
CONTINUOUS
 62
     2
100
AcDbLine
 10
-2.789083
 20
3.450917
 30
0.0
 11
0.210917
 21
3.450917
 31
0.0
  0
LINE
  5
3C8
100
AcDbEntity
  8
2
  6
CONTINUOUS
 62
     2
100
AcDbLine
 10
-2.789083
 20
3.435333
 30
0.0
 11
0.210917
 21
3.435333
 31
0.0
  0
LINE
  5
3C9
100
AcDbEntity
  8
2
  6
CONTINUOUS
 62
     2
100
AcDbLine
 10
-2.789083
 20
3.419667
 30
0.0
 11
0.210917
 21
3.419667
 31
0.0
  0
LINE
  5
3CA
100
AcDbEntity
  8
2
  6
CONTINUOUS
 62
     2
100
AcDbLine
 10
-2.789083
 20
3.404083
 30
0.0
 11
0.210917
 21
3.404083
 31
0.0
  0
LINE
  5
3CB
100
AcDbEntity
  8
2
  6
CONTINUOUS
 62
     2
100
AcDbLine
 10
-2.789083
 20
3.388417
 30
0.0
 11
0.210917
 21
3.388417
 31
0.0
  0
LINE
  5
3CC
100
AcDbEntity
  8
2
  6
CONTINUOUS
 62
     2
100
AcDbLine
 10
-2.789083
 20
3.372833
 30
0.0
 11
0.210917
 21
3.372833
 31
0.0
  0
LINE
  5
3CD
100
AcDbEntity
  8
2
  6
CONTINUOUS
 62
     2
100
AcDbLine
 10
-2.789083
 20
3.357167
 30
0.0
 11
0.210917
 21
3.357167
 31
0.0
  0
LINE
  5
3CE
100
AcDbEntity
  8
2
  6
CONTINUOUS
 62
     2
100
AcDbLine
 10
-2.789083
 20
3.341583
 30
0.0
 11
0.210917
 21
3.341583
 31
0.0
  0
LINE
  5
3CF
100
AcDbEntity
  8
2
  6
CONTINUOUS
 62
     2
100
AcDbLine
 10
-2.789083
 20
3.325917
 30
0.0
 11
0.210917
 21
3.325917
 31
0.0
  0
LINE
  5
3D0
100
AcDbEntity
  8
2
  6
CONTINUOUS
 62
     2
100
AcDbLine
 10
-2.789083
 20
3.310333
 30
0.0
 11
0.210917
 21
3.310333
 31
0.0
  0
LINE
  5
3D1
100
AcDbEntity
  8
2
  6
CONTINUOUS
 62
     2
100
AcDbLine
 10
-2.789083
 20
3.294667
 30
0.0
 11
0.210917
 21
3.294667
 31
0.0
  0
LINE
  5
3D2
100
AcDbEntity
  8
2
  6
CONTINUOUS
 62
     2
100
AcDbLine
 10
-2.789083
 20
3.279083
 30
0.0
 11
0.210917
 21
3.279083
 31
0.0
  0
LINE
  5
3D3
100
AcDbEntity
  8
2
  6
CONTINUOUS
 62
     2
100
AcDbLine
 10
-2.789083
 20
3.263417
 30
0.0
 11
0.210917
 21
3.263417
 31
0.0
  0
LINE
  5
3D4
100
AcDbEntity
  8
2
  6
CONTINUOUS
 62
     2
100
AcDbLine
 10
-2.789083
 20
3.247833
 30
0.0
 11
0.210917
 21
3.247833
 31
0.0
  0
LINE
  5
3D5
100
AcDbEntity
  8
2
  6
CONTINUOUS
 62
     2
100
AcDbLine
 10
-2.789083
 20
3.232167
 30
0.0
 11
0.210917
 21
3.232167
 31
0.0
  0
LINE
  5
3D6
100
AcDbEntity
  8
2
  6
CONTINUOUS
 62
     2
100
AcDbLine
 10
-2.789083
 20
3.216583
 30
0.0
 11
0.210917
 21
3.216583
 31
0.0
  0
LINE
  5
3D7
100
AcDbEntity
  8
2
  6
CONTINUOUS
 62
     2
100
AcDbLine
 10
-2.789083
 20
3.200917
 30
0.0
 11
0.210917
 21
3.200917
 31
0.0
  0
LINE
  5
3D8
100
AcDbEntity
  8
2
  6
CONTINUOUS
 62
     2
100
AcDbLine
 10
-2.789083
 20
3.185333
 30
0.0
 11
0.210917
 21
3.185333
 31
0.0
  0
LINE
  5
3D9
100
AcDbEntity
  8
2
  6
CONTINUOUS
 62
     2
100
AcDbLine
 10
-2.789083
 20
3.169667
 30
0.0
 11
0.210917
 21
3.169667
 31
0.0
  0
LINE
  5
3DA
100
AcDbEntity
  8
2
  6
CONTINUOUS
 62
     2
100
AcDbLine
 10
-2.789083
 20
3.154083
 30
0.0
 11
0.210917
 21
3.154083
 31
0.0
  0
LINE
  5
3DB
100
AcDbEntity
  8
2
  6
CONTINUOUS
 62
     2
100
AcDbLine
 10
-2.789083
 20
3.138417
 30
0.0
 11
0.210917
 21
3.138417
 31
0.0
  0
LINE
  5
3DC
100
AcDbEntity
  8
2
  6
CONTINUOUS
 62
     2
100
AcDbLine
 10
-2.789083
 20
3.122833
 30
0.0
 11
0.210917
 21
3.122833
 31
0.0
  0
LINE
  5
3DD
100
AcDbEntity
  8
2
  6
CONTINUOUS
 62
     2
100
AcDbLine
 10
-2.789083
 20
3.107167
 30
0.0
 11
0.210917
 21
3.107167
 31
0.0
  0
LINE
  5
3DE
100
AcDbEntity
  8
2
  6
CONTINUOUS
 62
     2
100
AcDbLine
 10
-2.789083
 20
3.091583
 30
0.0
 11
0.210917
 21
3.091583
 31
0.0
  0
LINE
  5
3DF
100
AcDbEntity
  8
2
  6
CONTINUOUS
 62
     2
100
AcDbLine
 10
-2.789083
 20
3.075917
 30
0.0
 11
0.210917
 21
3.075917
 31
0.0
  0
LINE
  5
3E0
100
AcDbEntity
  8
2
  6
CONTINUOUS
 62
     2
100
AcDbLine
 10
-2.789083
 20
3.060333
 30
0.0
 11
0.210917
 21
3.060333
 31
0.0
  0
LINE
  5
3E1
100
AcDbEntity
  8
2
  6
CONTINUOUS
 62
     2
100
AcDbLine
 10
-2.789083
 20
3.044667
 30
0.0
 11
0.210917
 21
3.044667
 31
0.0
  0
LINE
  5
3E2
100
AcDbEntity
  8
2
  6
CONTINUOUS
 62
     2
100
AcDbLine
 10
-2.789083
 20
3.029083
 30
0.0
 11
0.210917
 21
3.029083
 31
0.0
  0
LINE
  5
3E3
100
AcDbEntity
  8
2
  6
CONTINUOUS
 62
     2
100
AcDbLine
 10
-2.789083
 20
3.013417
 30
0.0
 11
0.210917
 21
3.013417
 31
0.0
  0
LINE
  5
3E4
100
AcDbEntity
  8
2
  6
CONTINUOUS
 62
     2
100
AcDbLine
 10
-2.789083
 20
2.997833
 30
0.0
 11
0.210917
 21
2.997833
 31
0.0
  0
LINE
  5
3E5
100
AcDbEntity
  8
2
  6
CONTINUOUS
 62
     2
100
AcDbLine
 10
-2.789083
 20
2.982167
 30
0.0
 11
0.210917
 21
2.982167
 31
0.0
  0
LINE
  5
3E6
100
AcDbEntity
  8
2
  6
CONTINUOUS
 62
     2
100
AcDbLine
 10
-2.789083
 20
2.966583
 30
0.0
 11
0.210917
 21
2.966583
 31
0.0
  0
LINE
  5
3E7
100
AcDbEntity
  8
2
  6
CONTINUOUS
 62
     2
100
AcDbLine
 10
-2.789083
 20
2.950917
 30
0.0
 11
0.210917
 21
2.950917
 31
0.0
  0
LINE
  5
3E8
100
AcDbEntity
  8
2
  6
CONTINUOUS
 62
     2
100
AcDbLine
 10
-2.789083
 20
2.935333
 30
0.0
 11
0.210917
 21
2.935333
 31
0.0
  0
LINE
  5
3E9
100
AcDbEntity
  8
2
  6
CONTINUOUS
 62
     2
100
AcDbLine
 10
-2.789083
 20
2.919667
 30
0.0
 11
0.210917
 21
2.919667
 31
0.0
  0
LINE
  5
3EA
100
AcDbEntity
  8
2
  6
CONTINUOUS
 62
     2
100
AcDbLine
 10
-2.789083
 20
2.904083
 30
0.0
 11
0.210917
 21
2.904083
 31
0.0
  0
LINE
  5
3EB
100
AcDbEntity
  8
2
  6
CONTINUOUS
 62
     2
100
AcDbLine
 10
-2.789083
 20
2.888417
 30
0.0
 11
0.210917
 21
2.888417
 31
0.0
  0
LINE
  5
3EC
100
AcDbEntity
  8
2
  6
CONTINUOUS
 62
     2
100
AcDbLine
 10
-2.789083
 20
2.872833
 30
0.0
 11
0.210917
 21
2.872833
 31
0.0
  0
LINE
  5
3ED
100
AcDbEntity
  8
2
  6
CONTINUOUS
 62
     2
100
AcDbLine
 10
-2.789083
 20
2.857167
 30
0.0
 11
0.210917
 21
2.857167
 31
0.0
  0
LINE
  5
3EE
100
AcDbEntity
  8
2
  6
CONTINUOUS
 62
     2
100
AcDbLine
 10
-2.789083
 20
2.841583
 30
0.0
 11
0.210917
 21
2.841583
 31
0.0
  0
LINE
  5
3EF
100
AcDbEntity
  8
2
  6
CONTINUOUS
 62
     2
100
AcDbLine
 10
-2.789083
 20
2.825917
 30
0.0
 11
0.210917
 21
2.825917
 31
0.0
  0
LINE
  5
3F0
100
AcDbEntity
  8
2
  6
CONTINUOUS
 62
     2
100
AcDbLine
 10
-2.789083
 20
2.810333
 30
0.0
 11
0.210917
 21
2.810333
 31
0.0
  0
LINE
  5
3F1
100
AcDbEntity
  8
2
  6
CONTINUOUS
 62
     2
100
AcDbLine
 10
-2.789083
 20
2.794667
 30
0.0
 11
0.210917
 21
2.794667
 31
0.0
  0
LINE
  5
3F2
100
AcDbEntity
  8
2
  6
CONTINUOUS
 62
     2
100
AcDbLine
 10
-2.789083
 20
2.779083
 30
0.0
 11
0.210917
 21
2.779083
 31
0.0
  0
LINE
  5
3F3
100
AcDbEntity
  8
2
  6
CONTINUOUS
 62
     2
100
AcDbLine
 10
-2.789083
 20
2.763417
 30
0.0
 11
0.210917
 21
2.763417
 31
0.0
  0
LINE
  5
3F4
100
AcDbEntity
  8
2
  6
CONTINUOUS
 62
     2
100
AcDbLine
 10
-2.789083
 20
2.747833
 30
0.0
 11
0.210917
 21
2.747833
 31
0.0
  0
LINE
  5
3F5
100
AcDbEntity
  8
2
  6
CONTINUOUS
 62
     2
100
AcDbLine
 10
-2.789083
 20
2.732167
 30
0.0
 11
0.210917
 21
2.732167
 31
0.0
  0
LINE
  5
3F6
100
AcDbEntity
  8
2
  6
CONTINUOUS
 62
     2
100
AcDbLine
 10
-2.789083
 20
2.716583
 30
0.0
 11
0.210917
 21
2.716583
 31
0.0
  0
LINE
  5
3F7
100
AcDbEntity
  8
2
  6
CONTINUOUS
 62
     2
100
AcDbLine
 10
-2.789083
 20
2.700917
 30
0.0
 11
0.210917
 21
2.700917
 31
0.0
  0
LINE
  5
3F8
100
AcDbEntity
  8
2
  6
CONTINUOUS
 62
     2
100
AcDbLine
 10
-2.789083
 20
2.685333
 30
0.0
 11
0.210917
 21
2.685333
 31
0.0
  0
LINE
  5
3F9
100
AcDbEntity
  8
2
  6
CONTINUOUS
 62
     2
100
AcDbLine
 10
-2.789083
 20
2.669667
 30
0.0
 11
0.210917
 21
2.669667
 31
0.0
  0
LINE
  5
3FA
100
AcDbEntity
  8
2
  6
CONTINUOUS
 62
     2
100
AcDbLine
 10
-2.789083
 20
2.654083
 30
0.0
 11
0.210917
 21
2.654083
 31
0.0
  0
LINE
  5
3FB
100
AcDbEntity
  8
2
  6
CONTINUOUS
 62
     2
100
AcDbLine
 10
-2.789083
 20
2.638417
 30
0.0
 11
0.210917
 21
2.638417
 31
0.0
  0
LINE
  5
3FC
100
AcDbEntity
  8
2
  6
CONTINUOUS
 62
     2
100
AcDbLine
 10
-2.789083
 20
2.622833
 30
0.0
 11
0.210917
 21
2.622833
 31
0.0
  0
LINE
  5
3FD
100
AcDbEntity
  8
2
  6
CONTINUOUS
 62
     2
100
AcDbLine
 10
-2.789083
 20
2.607167
 30
0.0
 11
0.210917
 21
2.607167
 31
0.0
  0
LINE
  5
3FE
100
AcDbEntity
  8
2
  6
CONTINUOUS
 62
     2
100
AcDbLine
 10
-2.789083
 20
2.591583
 30
0.0
 11
0.210917
 21
2.591583
 31
0.0
  0
LINE
  5
3FF
100
AcDbEntity
  8
2
  6
CONTINUOUS
 62
     2
100
AcDbLine
 10
-2.789083
 20
2.575917
 30
0.0
 11
0.210917
 21
2.575917
 31
0.0
  0
LINE
  5
400
100
AcDbEntity
  8
2
  6
CONTINUOUS
 62
     2
100
AcDbLine
 10
-2.789083
 20
2.560333
 30
0.0
 11
0.210917
 21
2.560333
 31
0.0
  0
LINE
  5
401
100
AcDbEntity
  8
2
  6
CONTINUOUS
 62
     2
100
AcDbLine
 10
-2.789083
 20
2.544667
 30
0.0
 11
0.210917
 21
2.544667
 31
0.0
  0
LINE
  5
402
100
AcDbEntity
  8
2
  6
CONTINUOUS
 62
     2
100
AcDbLine
 10
-2.789083
 20
2.529083
 30
0.0
 11
0.210917
 21
2.529083
 31
0.0
  0
LINE
  5
403
100
AcDbEntity
  8
2
  6
CONTINUOUS
 62
     2
100
AcDbLine
 10
-2.789083
 20
2.513417
 30
0.0
 11
0.210917
 21
2.513417
 31
0.0
  0
LINE
  5
404
100
AcDbEntity
  8
2
  6
CONTINUOUS
 62
     2
100
AcDbLine
 10
-2.789083
 20
2.497833
 30
0.0
 11
0.210917
 21
2.497833
 31
0.0
  0
LINE
  5
405
100
AcDbEntity
  8
2
  6
CONTINUOUS
 62
     2
100
AcDbLine
 10
-2.789083
 20
2.482167
 30
0.0
 11
0.210917
 21
2.482167
 31
0.0
  0
LINE
  5
406
100
AcDbEntity
  8
2
  6
CONTINUOUS
 62
     2
100
AcDbLine
 10
-2.789083
 20
2.466583
 30
0.0
 11
0.210917
 21
2.466583
 31
0.0
  0
LINE
  5
407
100
AcDbEntity
  8
2
  6
CONTINUOUS
 62
     2
100
AcDbLine
 10
-2.789083
 20
2.450917
 30
0.0
 11
0.210917
 21
2.450917
 31
0.0
  0
LINE
  5
408
100
AcDbEntity
  8
2
  6
CONTINUOUS
 62
     2
100
AcDbLine
 10
-2.789083
 20
2.435333
 30
0.0
 11
0.210917
 21
2.435333
 31
0.0
  0
LINE
  5
409
100
AcDbEntity
  8
2
  6
CONTINUOUS
 62
     2
100
AcDbLine
 10
-2.789083
 20
2.419667
 30
0.0
 11
0.210917
 21
2.419667
 31
0.0
  0
LINE
  5
40A
100
AcDbEntity
  8
2
  6
CONTINUOUS
 62
     2
100
AcDbLine
 10
-2.789083
 20
2.404083
 30
0.0
 11
0.210917
 21
2.404083
 31
0.0
  0
LINE
  5
40B
100
AcDbEntity
  8
2
  6
CONTINUOUS
 62
     2
100
AcDbLine
 10
-2.789083
 20
2.388417
 30
0.0
 11
0.210917
 21
2.388417
 31
0.0
  0
LINE
  5
40C
100
AcDbEntity
  8
2
  6
CONTINUOUS
 62
     2
100
AcDbLine
 10
-2.789083
 20
2.372833
 30
0.0
 11
0.210917
 21
2.372833
 31
0.0
  0
LINE
  5
40D
100
AcDbEntity
  8
2
  6
CONTINUOUS
 62
     2
100
AcDbLine
 10
-2.789083
 20
2.357167
 30
0.0
 11
0.210917
 21
2.357167
 31
0.0
  0
LINE
  5
40E
100
AcDbEntity
  8
2
  6
CONTINUOUS
 62
     2
100
AcDbLine
 10
-2.789083
 20
2.341583
 30
0.0
 11
0.210917
 21
2.341583
 31
0.0
  0
LINE
  5
40F
100
AcDbEntity
  8
2
  6
CONTINUOUS
 62
     2
100
AcDbLine
 10
-2.789083
 20
2.325917
 30
0.0
 11
0.210917
 21
2.325917
 31
0.0
  0
LINE
  5
410
100
AcDbEntity
  8
2
  6
CONTINUOUS
 62
     2
100
AcDbLine
 10
-2.789083
 20
2.310333
 30
0.0
 11
0.210917
 21
2.310333
 31
0.0
  0
LINE
  5
411
100
AcDbEntity
  8
2
  6
CONTINUOUS
 62
     2
100
AcDbLine
 10
-2.789083
 20
2.294667
 30
0.0
 11
0.210917
 21
2.294667
 31
0.0
  0
LINE
  5
412
100
AcDbEntity
  8
2
  6
CONTINUOUS
 62
     2
100
AcDbLine
 10
-2.789083
 20
2.279083
 30
0.0
 11
0.210917
 21
2.279083
 31
0.0
  0
LINE
  5
413
100
AcDbEntity
  8
2
  6
CONTINUOUS
 62
     2
100
AcDbLine
 10
-2.789083
 20
2.263417
 30
0.0
 11
0.210917
 21
2.263417
 31
0.0
  0
LINE
  5
414
100
AcDbEntity
  8
2
  6
CONTINUOUS
 62
     2
100
AcDbLine
 10
-2.789083
 20
2.247833
 30
0.0
 11
0.210917
 21
2.247833
 31
0.0
  0
LINE
  5
415
100
AcDbEntity
  8
2
  6
CONTINUOUS
 62
     2
100
AcDbLine
 10
-2.789083
 20
2.232167
 30
0.0
 11
0.210917
 21
2.232167
 31
0.0
  0
LINE
  5
416
100
AcDbEntity
  8
2
  6
CONTINUOUS
 62
     2
100
AcDbLine
 10
-2.789083
 20
2.216583
 30
0.0
 11
0.210917
 21
2.216583
 31
0.0
  0
LINE
  5
417
100
AcDbEntity
  8
2
  6
CONTINUOUS
 62
     2
100
AcDbLine
 10
-2.789083
 20
2.200917
 30
0.0
 11
0.210917
 21
2.200917
 31
0.0
  0
LINE
  5
418
100
AcDbEntity
  8
2
  6
CONTINUOUS
 62
     2
100
AcDbLine
 10
-2.789083
 20
2.185333
 30
0.0
 11
0.210917
 21
2.185333
 31
0.0
  0
LINE
  5
419
100
AcDbEntity
  8
2
  6
CONTINUOUS
 62
     2
100
AcDbLine
 10
-2.789083
 20
2.169667
 30
0.0
 11
0.210917
 21
2.169667
 31
0.0
  0
LINE
  5
41A
100
AcDbEntity
  8
2
  6
CONTINUOUS
 62
     1
100
AcDbLine
 10
-2.132833
 20
3.888417
 30
0.0
 11
-2.132833
 21
2.164167
 31
0.0
  0
LINE
  5
41B
100
AcDbEntity
  8
2
  6
CONTINUOUS
 62
     1
100
AcDbLine
 10
-2.0495
 20
3.888417
 30
0.0
 11
-2.0495
 21
2.164167
 31
0.0
  0
LINE
  5
41C
100
AcDbEntity
  8
2
  6
CONTINUOUS
 62
     1
100
AcDbLine
 10
-1.434917
 20
3.888417
 30
0.0
 11
-1.434917
 21
2.164167
 31
0.0
  0
LINE
  5
41D
100
AcDbEntity
  8
2
  6
CONTINUOUS
 62
     1
100
AcDbLine
 10
-1.351583
 20
3.888417
 30
0.0
 11
-1.351583
 21
2.164167
 31
0.0
  0
LINE
  5
41E
100
AcDbEntity
  8
2
  6
CONTINUOUS
 62
     1
100
AcDbLine
 10
-0.737
 20
3.888417
 30
0.0
 11
-0.737
 21
2.164167
 31
0.0
  0
LINE
  5
41F
100
AcDbEntity
  8
2
  6
CONTINUOUS
 62
     1
100
AcDbLine
 10
-0.653667
 20
3.888417
 30
0.0
 11
-0.653667
 21
2.164167
 31
0.0
  0
LINE
  5
420
100
AcDbEntity
  8
2
  6
CONTINUOUS
 62
     3
100
AcDbLine
 10
-2.70575
 20
3.888417
 30
0.0
 11
-2.70575
 21
2.164167
 31
0.0
  0
LINE
  5
421
100
AcDbEntity
  8
2
  6
CONTINUOUS
 62
     3
100
AcDbLine
 10
-2.007833
 20
3.888417
 30
0.0
 11
-2.007833
 21
2.164167
 31
0.0
  0
LINE
  5
422
100
AcDbEntity
  8
2
  6
CONTINUOUS
 62
     3
100
AcDbLine
 10
-1.309917
 20
3.888417
 30
0.0
 11
-1.309917
 21
2.164167
 31
0.0
  0
LINE
  5
423
100
AcDbEntity
  8
2
  6
CONTINUOUS
 62
     3
100
AcDbLine
 10
-0.612
 20
3.888417
 30
0.0
 11
-0.612
 21
2.164167
 31
0.0
  0
LINE
  5
424
100
AcDbEntity
  8
2
  6
CONTINUOUS
 62
   165
100
AcDbLine
 10
-2.440167
 20
3.888417
 30
0.0
 11
-2.440167
 21
2.164167
 31
0.0
  0
LINE
  5
425
100
AcDbEntity
  8
2
  6
CONTINUOUS
 62
   165
100
AcDbLine
 10
-1.74225
 20
3.888417
 30
0.0
 11
-1.74225
 21
2.164167
 31
0.0
  0
LINE
  5
426
100
AcDbEntity
  8
2
  6
CONTINUOUS
 62
   165
100
AcDbLine
 10
-1.044333
 20
3.888417
 30
0.0
 11
-1.044333
 21
2.164167
 31
0.0
  0
LINE
  5
427
100
AcDbEntity
  8
2
  6
CONTINUOUS
 62
   165
100
AcDbLine
 10
-0.346417
 20
3.888417
 30
0.0
 11
-0.346417
 21
2.164167
 31
0.0
  0
LINE
  5
428
100
AcDbEntity
  8
2
  6
CONTINUOUS
 62
     2
100
AcDbLine
 10
-2.789083
 20
2.857167
 30
0.0
 11
0.210917
 21
2.857167
 31
0.0
  0
LINE
  5
429
100
AcDbEntity
  8
2
  6
CONTINUOUS
 62
   165
100
AcDbLine
 10
-1.259917
 20
3.863833
 30
0.0
 11
-1.259917
 21
2.139583
 31
0.0
  0
TEXT
  5
42A
100
AcDbEntity
  8
3
  6
CONTINUOUS
 62
     4
100
AcDbText
 10
1.380917
 20
2.179
 30
0.0
 40
0.009083
  1
Field Prime Coat: All bare surfaces shall be primed with an organic zinc rich primer conforming  
  7
TXT
210
0.0
220
0.0
230
1.0
100
AcDbText
  0
TEXT
  5
42B
100
AcDbEntity
  8
3
  6
CONTINUOUS
 62
     4
100
AcDbText
 10
1.3395
 20
2.163
 30
0.0
 40
0.009083
  1
to the requirements of SSPC Specification Number 20, Type 2.  Dry film thickness of the primer shall
  7
TXT
210
0.0
220
0.0
230
1.0
100
AcDbText
  0
TEXT
  5
42C
100
AcDbEntity
  8
3
  6
CONTINUOUS
 62
     4
100
AcDbText
 10
1.37325
 20
3.273917
 30
0.0
 40
0.009083
  1
 Paint system shall consist of one shop prime coat, one field prime coat and two field finish coats. 
  7
TXT
210
0.0
220
0.0
230
1.0
100
AcDbText
  0
TEXT
  5
42D
100
AcDbEntity
  8
3
  6
CONTINUOUS
 62
     4
100
AcDbText
 10
1.338917
 20
3.224833
 30
0.0
 40
0.009083
  1
Dry film thickness shall be a minimum of two (2) mils.
  7
TXT
210
0.0
220
0.0
230
1.0
100
AcDbText
  0
TEXT
  5
42E
100
AcDbEntity
  8
3
  6
CONTINUOUS
 62
     4
100
AcDbText
 10
1.624167
 20
3.195583
 30
0.0
 40
0.009083
  1
Dry film thickness shall be a minimum of two (2) mils.
  7
TXT
210
0.0
220
0.0
230
1.0
100
AcDbText
  0
TEXT
  5
42F
100
AcDbEntity
  8
3
  6
CONTINUOUS
 62
     4
100
AcDbText
 10
1.418667
 20
3.14925
 30
0.0
 40
0.009083
  1
Dry film thickness shall be a minimum of two (2) mils.
  7
TXT
210
0.0
220
0.0
230
1.0
100
AcDbText
  0
TEXT
  5
430
100
AcDbEntity
  8
3
  6
CONTINUOUS
 62
     4
100
AcDbText
 10
1.415833
 20
3.102833
 30
0.0
 40
0.009083
  1
Dry film thickness shall be a minimum of two (2) mils.
  7
TXT
210
0.0
220
0.0
230
1.0
100
AcDbText
  0
TEXT
  5
431
100
AcDbEntity
  8
1
  6
CONTINUOUS
 62
     4
100
AcDbText
 10
1.379667
 20
3.052833
 30
0.0
 40
0.009083
  1
Paint system shall consist of shop prime coat, intermediate field fogcoat and finish topcoat.  Field painting
  7
TXT
210
0.0
220
0.0
230
1.0
100
AcDbText
  0
TEXT
  5
432
100
AcDbEntity
  8
3
  6
CONTINUOUS
 62
     4
100
AcDbText
 10
1.380583
 20
2.742583
 30
0.0
 40
0.009083
  1
Field cleaning and painting shall be in accordance with either OPTION 10A or 10B
  7
TXT
210
0.0
220
0.0
230
1.0
100
AcDbText
  0
CIRCLE
  5
433
100
AcDbEntity
  8
3
  6
CONTINUOUS
 62
     2
100
AcDbCircle
 10
1.810333
 20
2.747167
 30
0.0
 40
0.0125
210
0.0
220
0.0
230
1.0
  0
CIRCLE
  5
434
100
AcDbEntity
  8
3
  6
CONTINUOUS
 62
     2
100
AcDbCircle
 10
1.853833
 20
2.747917
 30
0.0
 40
0.0125
210
0.0
220
0.0
230
1.0
  0
CIRCLE
  5
435
100
AcDbEntity
  8
3
  6
CONTINUOUS
 62
     2
100
AcDbCircle
 10
1.614083
 20
2.697
 30
0.0
 40
0.0125
210
0.0
220
0.0
230
1.0
  0
TEXT
  5
436
100
AcDbEntity
  8
3
  6
CONTINUOUS
 62
     4
100
AcDbText
 10
1.339083
 20
2.629
 30
0.0
 40
0.009083
  1
approximately  C  per cent, shall be cleaned in accordance with Subsection 620.6.1 of the Standard 
  7
TXT
210
0.0
220
0.0
230
1.0
100
AcDbText
  0
TEXT
  5
437
100
AcDbEntity
  8
3
  6
CONTINUOUS
 62
     4
100
AcDbText
 10
1.338667
 20
2.443417
 30
0.0
 40
0.009083
  1
a tinting agent, type as recommended by the paint manufacturer and approved by the Engineer.
  7
TXT
210
0.0
220
0.0
230
1.0
100
AcDbText
  0
TEXT
  5
438
100
AcDbEntity
  8
3
  6
CONTINUOUS
 62
     4
100
AcDbText
 10
1.38075
 20
2.380667
 30
0.0
 40
0.009083
  1
Intermediate Field Coat: Upon completion of application of the prime coat, the entire structure shall 
  7
TXT
210
0.0
220
0.0
230
1.0
100
AcDbText
  0
TEXT
  5
439
100
AcDbEntity
  8
3
  6
CONTINUOUS
 62
     4
100
AcDbText
 10
1.379417
 20
2.317917
 30
0.0
 40
0.009083
  1
Top Coat-Pigmented Finish Coat: Upon completion of applicaton of the intermediate coat, the entire
  7
TXT
210
0.0
220
0.0
230
1.0
100
AcDbText
  0
TEXT
  5
43A
100
AcDbEntity
  8
3
  6
CONTINUOUS
 62
     4
100
AcDbText
 10
1.338167
 20
2.20975
 30
0.0
 40
0.009083
  1
620.5 of the Standard Specifications to a "white metal" or "near white metal" condition.  The paint 
  7
TXT
210
0.0
220
0.0
230
1.0
100
AcDbText
  0
CIRCLE
  5
43B
100
AcDbEntity
  8
3
  6
CONTINUOUS
 62
   233
100
AcDbCircle
 10
1.953833
 20
2.089083
 30
0.0
 40
0.006667
210
0.0
220
0.0
230
1.0
  0
CIRCLE
  5
43C
100
AcDbEntity
  8
3
  6
CONTINUOUS
 62
   233
100
AcDbCircle
 10
1.637833
 20
2.088583
 30
0.0
 40
0.006667
210
0.0
220
0.0
230
1.0
  0
TEXT
  5
43D
100
AcDbEntity
  8
1
  6
CONTINUOUS
 62
     4
100
AcDbText
 10
1.337833
 20
2.006083
 30
0.0
 40
0.009083
  1
Special Provision for 620-Cleaning and Painting Existing Steel Bridges,   Sub-articles 620.1, 620.9, 620.10, 620.11,
  7
TXT
210
0.0
220
0.0
230
1.0
100
AcDbText
  0
TEXT
  5
43E
100
AcDbEntity
  8
61
  6
CONTINUOUS
 62
     2
100
AcDbText
 10
2.49775
 20
1.93825
 30
0.0
 40
0.007833
  1
9C
 41
0.993361
  7
TXT
 11
2.49775
 21
1.942167
 31
0.0
210
0.0
220
0.0
230
1.0
100
AcDbText
 73
     2
  0
TEXT
  5
43F
100
AcDbEntity
  8
1
  6
CONTINUOUS
 62
     2
100
AcDbText
 10
-0.05075
 20
2.36925
 30
0.0
 40
0.015583
  1
DWW
  7
TXT
 11
-0.05075
 21
2.384833
 31
0.0
210
0.0
220
0.0
230
1.0
100
AcDbText
 73
     3
  0
TEXT
  5
440
100
AcDbEntity
  8
3
  6
CONTINUOUS
 62
   233
100
AcDbText
 10
-0.100917
 20
0.56925
 30
0.0
 40
0.166667
  1
WHOLE
  7
TXT
 72
     4
 11
0.284583
 21
0.652583
 31
0.0
210
0.0
220
0.0
230
1.0
100
AcDbText
  0
TEXT
  5
441
100
AcDbEntity
  8
3
  6
CONTINUOUS
 62
     4
100
AcDbText
 10
0.682
 20
3.148
 30
0.0
 40
0.009083
  1
This bridge is designed for an HS-25 live load capacity, as well as for a 25 p.s.f. wearing surface.
  7
TXT
210
0.0
220
0.0
230
1.0
100
AcDbText
  0
TEXT
  5
442
100
AcDbEntity
  8
3
  6
CONTINUOUS
 62
     4
100
AcDbText
 10
1.339
 20
3.3205
 30
0.0
 40
0.009083
  1
and/or Special Provisions.
  7
TXT
210
0.0
220
0.0
230
1.0
100
AcDbText
  0
TEXT
  5
443
100
AcDbEntity
  8
3
  6
CONTINUOUS
 62
     4
100
AcDbText
 10
1.380583
 20
3.3355
 30
0.0
 40
0.009083
  1
Shop and field painting shall be in accordance with Section 615 of the current Standard Specifications
  7
TXT
210
0.0
220
0.0
230
1.0
100
AcDbText
  0
TEXT
  5
444
100
AcDbEntity
  8
1
  6
CONTINUOUS
 62
     4
100
AcDbText
 10
1.33975
 20
2.912
 30
0.0
 40
0.009083
  1
of the total paint system shall be a minimum of seven (7) mils.
  7
TXT
210
0.0
220
0.0
230
1.0
100
AcDbText
  0
TEXT
  5
445
100
AcDbEntity
  8
3
  6
CONTINUOUS
 62
     4
100
AcDbText
 10
1.338417
 20
2.725417
 30
0.0
 40
0.009083
  1
and shall also conform to all applicable requirements of Section 620 of the current Standard 
  7
TXT
210
0.0
220
0.0
230
1.0
100
AcDbText
  0
TEXT
  5
446
100
AcDbEntity
  8
3
  6
CONTINUOUS
 62
     4
100
AcDbText
 10
1.339083
 20
2.710167
 30
0.0
 40
0.009083
  1
Specifications and/or Special Provisions.  When it is determined that the structure contains an enviromentally
  7
TXT
210
0.0
220
0.0
230
1.0
100
AcDbText
  0
TEXT
  5
447
100
AcDbEntity
  8
3
  6
CONTINUOUS
 62
     4
100
AcDbText
 10
1.339083
 20
2.6935
 30
0.0
 40
0.009083
  1
hazardous existing paint system then option 10C shall also apply.
  7
TXT
210
0.0
220
0.0
230
1.0
100
AcDbText
  0
TEXT
  5
448
100
AcDbEntity
  8
3
  6
CONTINUOUS
 62
     4
100
AcDbText
 10
1.381167
 20
2.644333
 30
0.0
 40
0.009083
  1
Cleaning: The portions of the structure listed in the special notes and quantity sheet, which is
  7
TXT
210
0.0
220
0.0
230
1.0
100
AcDbText
  0
LINE
  5
449
100
AcDbEntity
  8
3
  6
CONTINUOUS
 62
   233
100
AcDbLine
 10
1.428583
 20
2.625667
 30
0.0
 11
1.445333
 21
2.625667
 31
0.0
  0
TEXT
  5
44A
100
AcDbEntity
  8
1
  6
CONTINUOUS
 62
     4
100
AcDbText
 10
1.340333
 20
2.61475
 30
0.0
 40
0.009083
  1
Specifications.
  7
TXT
210
0.0
220
0.0
230
1.0
100
AcDbText
  0
TEXT
  5
44B
100
AcDbEntity
  8
3
  6
CONTINUOUS
 62
     4
100
AcDbText
 10
1.381083
 20
2.599167
 30
0.0
 40
0.009083
  1
The remaining portions of the structure not specified, shall  be cleaned in accordance with
  7
TXT
210
0.0
220
0.0
230
1.0
100
AcDbText
  0
TEXT
  5
44C
100
AcDbEntity
  8
1
  6
CONTINUOUS
 62
     4
100
AcDbText
 10
1.33875
 20
2.5855
 30
0.0
 40
0.009083
  1
Subsection 620.6.2.
  7
TXT
210
0.0
220
0.0
230
1.0
100
AcDbText
  0
TEXT
  5
44D
100
AcDbEntity
  8
3
  6
CONTINUOUS
 62
     4
100
AcDbText
 10
1.3805
 20
2.56975
 30
0.0
 40
0.009083
  1
It is not intended that sound, adherent old paint be removed unless it is excessively 
  7
TXT
210
0.0
220
0.0
230
1.0
100
AcDbText
  0
TEXT
  5
44E
100
AcDbEntity
  8
1
  6
CONTINUOUS
 62
     4
100
AcDbText
 10
1.33875
 20
2.55425
 30
0.0
 40
0.009083
  1
thick or inflexible.
  7
TXT
210
0.0
220
0.0
230
1.0
100
AcDbText
  0
TEXT
  5
44F
100
AcDbEntity
  8
3
  6
CONTINUOUS
 62
     4
100
AcDbText
 10
1.38075
 20
2.53875
 30
0.0
 40
0.009083
  1
Attention is called to the requirements of paragraph 2 of Section 620.6 which requires 
  7
TXT
210
0.0
220
0.0
230
1.0
100
AcDbText
  0
TEXT
  5
450
100
AcDbEntity
  8
1
  6
CONTINUOUS
 62
     4
100
AcDbText
 10
1.380167
 20
2.507583
 30
0.0
 40
0.009083
  1
In the event that there is a difference of opinion as to which areas must be sandblasted or hand
  7
TXT
210
0.0
220
0.0
230
1.0
100
AcDbText
  0
TEXT
  5
451
100
AcDbEntity
  8
3
  6
CONTINUOUS
 62
     4
100
AcDbText
 10
1.339917
 20
2.522583
 30
0.0
 40
0.009083
  1
that edges of paint be properly feathered to produce a smooth apperance.  
  7
TXT
210
0.0
220
0.0
230
1.0
100
AcDbText
  0
TEXT
  5
452
100
AcDbEntity
  8
1
  6
CONTINUOUS
 62
     4
100
AcDbText
 10
1.338583
 20
2.49325
 30
0.0
 40
0.009083
  1
cleaned or to the extent of surface cleaning or surface preparation, the decision of the Engineer shall be final.
  7
TXT
210
0.0
220
0.0
230
1.0
100
AcDbText
  0
TEXT
  5
453
100
AcDbEntity
  8
3
  6
CONTINUOUS
 62
     4
100
AcDbText
 10
1.380083
 20
2.475417
 30
0.0
 40
0.009083
  1
Spot Painting: All steel surfaces cleaned to bare metal shall receive one coat of linseed/alykd primer
  7
TXT
210
0.0
220
0.0
230
1.0
100
AcDbText
  0
TEXT
  5
454
100
AcDbEntity
  8
3
  6
CONTINUOUS
 62
     4
100
AcDbText
 10
1.338667
 20
2.45875
 30
0.0
 40
0.009083
  1
conforming to the requirements of Section 711.8 of the Standard Specifications.  This coat shall be tinted with
  7
TXT
210
0.0
220
0.0
230
1.0
100
AcDbText
  0
TEXT
  5
455
100
AcDbEntity
  8
3
  6
CONTINUOUS
 62
     4
100
AcDbText
 10
1.337333
 20
2.36525
 30
0.0
 40
0.009083
  1
receive a minimum of one complete color undercoat conforming to the requirements of Section 711.10 of the 
  7
TXT
210
0.0
220
0.0
230
1.0
100
AcDbText
  0
TEXT
  5
456
100
AcDbEntity
  8
3
  6
CONTINUOUS
 62
     4
100
AcDbText
 10
1.337333
 20
2.301917
 30
0.0
 40
0.009083
  1
structure shall receive a minimum of one complete pigmented finish coat conforming to the requirements of 
  7
TXT
210
0.0
220
0.0
230
1.0
100
AcDbText
  0
TEXT
  5
457
100
AcDbEntity
  8
1
  6
CONTINUOUS
 62
     4
100
AcDbText
 10
2.078583
 20
2.897083
 30
0.0
 40
0.009083
  1
The steel grid flooring shall conform to all applicable requirements of Section 621 of the current
  7
TXT
210
0.0
220
0.0
230
1.0
100
AcDbText
  0
TEXT
  5
458
100
AcDbEntity
  8
1
  6
CONTINUOUS
 62
     4
100
AcDbText
 10
2.036833
 20
2.881583
 30
0.0
 40
0.009083
  1
Standard Specifications and/or all Special Provisions of the West Virginia Department of Highways.
  7
TXT
210
0.0
220
0.0
230
1.0
100
AcDbText
  0
TEXT
  5
459
100
AcDbEntity
  8
1
  6
CONTINUOUS
 62
     4
100
AcDbText
 10
2.036833
 20
2.86675
 30
0.0
 40
0.009083
  1
The grid shall conform to all applicable requirements as set forth by the Bridge Grid Flooring Manufacturers 
  7
TXT
210
0.0
220
0.0
230
1.0
100
AcDbText
  0
TEXT
  5
45A
100
AcDbEntity
  8
1
  6
CONTINUOUS
 62
     4
100
AcDbText
 10
2.036167
 20
2.85125
 30
0.0
 40
0.009083
  1
Association.  Size and type shall be as specified on the plans.
  7
TXT
210
0.0
220
0.0
230
1.0
100
AcDbText
  0
TEXT
  5
45B
100
AcDbEntity
  8
1
  6
CONTINUOUS
 62
     4
100
AcDbText
 10
2.036833
 20
2.83575
 30
0.0
 40
0.009083
  1
The steel grid flooring shall conform to all requirements of ASTM A36, A572 or A588, type as specified
  7
TXT
210
0.0
220
0.0
230
1.0
100
AcDbText
  0
TEXT
  5
45C
100
AcDbEntity
  8
1
  6
CONTINUOUS
 62
     4
100
AcDbText
 10
2.036833
 20
2.820917
 30
0.0
 40
0.009083
  1
on the plans.
  7
TXT
210
0.0
220
0.0
230
1.0
100
AcDbText
  0
TEXT
  5
45D
100
AcDbEntity
  8
1
  6
CONTINUOUS
 62
     4
100
AcDbText
 10
2.0785
 20
2.755583
 30
0.0
 40
0.009083
  1
The steel grid flooring and all components shall either be shop painted with an inorganic  
  7
TXT
210
0.0
220
0.0
230
1.0
100
AcDbText
  0
TEXT
  5
45E
100
AcDbEntity
  8
1
  6
CONTINUOUS
 62
     4
100
AcDbText
 10
2.035333
 20
2.740667
 30
0.0
 40
0.009083
  1
zinc rich primer meeting Subsection 711.20.2 of the Standard Specifications or hot dipped galvanized
  7
TXT
210
0.0
220
0.0
230
1.0
100
AcDbText
  0
TEXT
  5
45F
100
AcDbEntity
  8
1
  6
CONTINUOUS
 62
     4
100
AcDbText
 10
2.035333
 20
2.725167
 30
0.0
 40
0.009083
  1
meeting requirements of ASTM A123.  Type of coating shall be as specified on the plans.
  7
TXT
210
0.0
220
0.0
230
1.0
100
AcDbText
  0
TEXT
  5
460
100
AcDbEntity
  8
1
  6
CONTINUOUS
 62
     4
100
AcDbText
 10
2.078583
 20
2.563333
 30
0.0
 40
0.009083
  1
The steel grid flooring shall conform to all applicable requirements of Section 621 of the current
  7
TXT
210
0.0
220
0.0
230
1.0
100
AcDbText
  0
TEXT
  5
461
100
AcDbEntity
  8
1
  6
CONTINUOUS
 62
     4
100
AcDbText
 10
2.036833
 20
2.547833
 30
0.0
 40
0.009083
  1
Standard Specifications and/or all Special Provisions of the West Virginia Department of Highways.
  7
TXT
210
0.0
220
0.0
230
1.0
100
AcDbText
  0
TEXT
  5
462
100
AcDbEntity
  8
1
  6
CONTINUOUS
 62
     4
100
AcDbText
 10
2.036833
 20
2.533
 30
0.0
 40
0.009083
  1
The grid shall conform to all applicable requirements as set forth by the Bridge Grid Flooring Manufacturers 
  7
TXT
210
0.0
220
0.0
230
1.0
100
AcDbText
  0
TEXT
  5
463
100
AcDbEntity
  8
1
  6
CONTINUOUS
 62
     4
100
AcDbText
 10
2.036167
 20
2.5175
 30
0.0
 40
0.009083
  1
Association.  Size and type shall be as specified on the plans.
  7
TXT
210
0.0
220
0.0
230
1.0
100
AcDbText
  0
TEXT
  5
464
100
AcDbEntity
  8
1
  6
CONTINUOUS
 62
     4
100
AcDbText
 10
2.036833
 20
2.502
 30
0.0
 40
0.009083
  1
The steel grid flooring shall conform to all requirements of ASTM A36, A572 or A588, type as specified
  7
TXT
210
0.0
220
0.0
230
1.0
100
AcDbText
  0
TEXT
  5
465
100
AcDbEntity
  8
1
  6
CONTINUOUS
 62
     4
100
AcDbText
 10
2.036833
 20
2.487167
 30
0.0
 40
0.009083
  1
on the plans.
  7
TXT
210
0.0
220
0.0
230
1.0
100
AcDbText
  0
TEXT
  5
466
100
AcDbEntity
  8
1
  6
CONTINUOUS
 62
     4
100
AcDbText
 10
2.08075
 20
2.413917
 30
0.0
 40
0.009083
  1
The steel grid flooring and all components shall either be shop painted with an inorganic  
  7
TXT
210
0.0
220
0.0
230
1.0
100
AcDbText
  0
TEXT
  5
467
100
AcDbEntity
  8
1
  6
CONTINUOUS
 62
     4
100
AcDbText
 10
2.036833
 20
2.397583
 30
0.0
 40
0.009083
  1
zinc rich primer meeting Subsection 711.20.2 of the Standard Specifications or hot dipped galvanized
  7
TXT
210
0.0
220
0.0
230
1.0
100
AcDbText
  0
TEXT
  5
468
100
AcDbEntity
  8
1
  6
CONTINUOUS
 62
     4
100
AcDbText
 10
2.035417
 20
2.382083
 30
0.0
 40
0.009083
  1
meeting requirements of ASTM A123.  Type of coating shall be as specified on the plans.
  7
TXT
210
0.0
220
0.0
230
1.0
100
AcDbText
  0
TEXT
  5
469
100
AcDbEntity
  8
1
  6
CONTINUOUS
 62
     4
100
AcDbText
 10
2.07775
 20
2.707917
 30
0.0
 40
0.009083
  1
All reinforcing steel shall be number 3 billet steel bars either Grade 40 or 60 in accordance with 
  7
TXT
210
0.0
220
0.0
230
1.0
100
AcDbText
  0
TEXT
  5
46A
100
AcDbEntity
  8
1
  6
CONTINUOUS
 62
     4
100
AcDbText
 10
2.036583
 20
2.69325
 30
0.0
 40
0.009083
  1
Subsection 709.1 of the Standard Specifications.
  7
TXT
210
0.0
220
0.0
230
1.0
100
AcDbText
  0
TEXT
  5
46B
100
AcDbEntity
  8
1
  6
CONTINUOUS
 62
     4
100
AcDbText
 10
2.07775
 20
2.678583
 30
0.0
 40
0.009083
  1
The concrete used to fill the steel grid shall be Class A air entrained.  The design stresses for this
  7
TXT
210
0.0
220
0.0
230
1.0
100
AcDbText
  0
TEXT
  5
46C
100
AcDbEntity
  8
1
  6
CONTINUOUS
 62
     4
100
AcDbText
 10
2.035917
 20
2.661833
 30
0.0
 40
0.009083
  1
concrete are f' =3,500 psi, f =1,400 psi and n=10.
  7
TXT
210
0.0
220
0.0
230
1.0
100
AcDbText
  0
TEXT
  5
46D
100
AcDbEntity
  8
1
  6
CONTINUOUS
 62
     4
100
AcDbText
 10
2.118417
 20
2.660083
 30
0.0
 40
0.0065
  1
c
  7
TXT
 11
2.118417
 21
2.663333
 31
0.0
210
0.0
220
0.0
230
1.0
100
AcDbText
 73
     2
  0
TEXT
  5
46E
100
AcDbEntity
  8
1
  6
CONTINUOUS
 62
     4
100
AcDbText
 10
2.198417
 20
2.660083
 30
0.0
 40
0.0065
  1
c
  7
TXT
 11
2.198417
 21
2.663333
 31
0.0
210
0.0
220
0.0
230
1.0
100
AcDbText
 73
     2
  0
TEXT
  5
46F
100
AcDbEntity
  8
3
  6
CONTINUOUS
 62
   233
100
AcDbText
 10
2.084333
 20
2.932167
 30
0.0
 40
0.015584
  1
STEEL GRID FLOORING (CONCRETE FILLED TYPE)
  7
TXT
 72
     1
 11
2.347333
 21
2.932167
 31
0.0
210
0.0
220
0.0
230
1.0
100
AcDbText
  0
TEXT
  5
470
100
AcDbEntity
  8
3
  6
CONTINUOUS
 62
   233
100
AcDbText
 10
2.152583
 20
2.598417
 30
0.0
 40
0.015584
  1
STEEL GRID FLOORING (OPEN TYPE)
  7
TXT
 72
     1
 11
2.34925
 21
2.598417
 31
0.0
210
0.0
220
0.0
230
1.0
100
AcDbText
  0
TEXT
  5
471
100
AcDbEntity
  8
3
  6
CONTINUOUS
 62
   233
100
AcDbText
 10
2.471917
 20
1.740167
 30
0.0
 40
0.015583
  1
STANDARD SHEET BR-2A
  7
TXT
210
0.0
220
0.0
230
1.0
100
AcDbText
  0
TEXT
  5
472
100
AcDbEntity
  8
61
  6
CONTINUOUS
 62
     2
100
AcDbText
 10
2.78025
 20
1.837833
 30
0.0
 40
0.007833
  1
11-26-90
 41
0.997383
  7
TXT
 11
2.78025
 21
1.84175
 31
0.0
210
0.0
220
0.0
230
1.0
100
AcDbText
 73
     2
  0
TEXT
  5
473
100
AcDbEntity
  8
3
  6
CONTINUOUS
 62
   233
100
AcDbText
 10
-0.9165
 20
2.204833
 30
0.0
 40
0.015583
  1
STANDARD SHEET BR-2B
  7
TXT
210
0.0
220
0.0
230
1.0
100
AcDbText
  0
TEXT
  5
474
100
AcDbEntity
  8
61
  6
CONTINUOUS
 62
     2
100
AcDbText
 10
-0.606583
 20
2.301667
 30
0.0
 40
0.007833
  1
11-26-90
 41
0.990297
  7
TXT
 11
-0.606583
 21
2.305583
 31
0.0
210
0.0
220
0.0
230
1.0
100
AcDbText
 73
     2
  0
TEXT
  5
475
100
AcDbEntity
  8
3
  6
CONTINUOUS
 62
   233
100
AcDbText
 10
1.896667
 20
1.20475
 30
0.0
 40
0.166667
  1
BR-2A
  7
TXT
 72
     4
 11
2.229167
 21
1.288083
 31
0.0
210
0.0
220
0.0
230
1.0
100
AcDbText
  0
TEXT
  5
476
100
AcDbEntity
  8
3
  6
CONTINUOUS
 62
   233
100
AcDbText
 10
-0.89825
 20
1.546167
 30
0.0
 40
0.166667
  1
BR2-B
  7
TXT
 72
     4
 11
-0.578417
 21
1.6295
 31
0.0
210
0.0
220
0.0
230
1.0
100
AcDbText
  0
TEXT
  5
477
100
AcDbEntity
  8
3
  6
CONTINUOUS
 62
     4
100
AcDbText
 10
0.639833
 20
3.303917
 30
0.0
 40
0.009083
  1
ard Specifications, Roads and Bridges, adopted 1993, as amended by the current* Supplemental Specifications of
  7
TXT
210
0.0
220
0.0
230
1.0
100
AcDbText
  0
TEXT
  5
478
100
AcDbEntity
  8
3
  6
CONTINUOUS
 62
     4
100
AcDbText
 10
0.640417
 20
2.2265
 30
0.0
 40
0.009083
  1
Subsection 709.1 of the Standard Specifications .  The requirements of Section 602 of the Standard 
  7
TXT
210
0.0
220
0.0
230
1.0
100
AcDbText
  0
TEXT
  5
479
100
AcDbEntity
  8
3
  6
CONTINUOUS
 62
     4
100
AcDbText
 10
0.6405
 20
1.929167
 30
0.0
 40
0.009083
  1
original ground line, 18 inches outside the neat lines of the footings.  No excavation will be classified as wet 
  7
TXT
210
0.0
220
0.0
230
1.0
100
AcDbText
  0
TEXT
  5
47A
100
AcDbEntity
  8
61
  6
CONTINUOUS
 62
     2
100
AcDbText
 10
2.769083
 20
1.810417
 30
0.0
 40
0.007833
  1
5-91
 41
0.997383
  7
TXT
 11
2.769083
 21
1.814333
 31
0.0
210
0.0
220
0.0
230
1.0
100
AcDbText
 73
     2
  0
POINT
  5
47B
100
AcDbEntity
  8
1
  6
CONTINUOUS
 62
     4
100
AcDbPoint
 10
2.363917
 20
2.311083
 30
0.0
  0
TEXT
  5
47C
100
AcDbEntity
  8
3
  6
CONTINUOUS
 62
     4
100
AcDbText
 10
2.07975
 20
2.803333
 30
0.0
 40
0.009083
  1
Cleaning: All surfaces to be painted shall be cleaned and prepared in accordance with Section
  7
TXT
210
0.0
220
0.0
230
1.0
100
AcDbText
  0
TEXT
  5
47D
100
AcDbEntity
  8
3
  6
CONTINUOUS
 62
     4
100
AcDbText
 10
2.037667
 20
2.772667
 30
0.0
 40
0.009083
  1
system shall be as follows:
  7
TXT
210
0.0
220
0.0
230
1.0
100
AcDbText
  0
LINE
  5
47E
100
AcDbEntity
  8
3
  6
CONTINUOUS
 62
   233
100
AcDbLine
 10
2.079667
 20
2.8015
 30
0.0
 11
2.13325
 21
2.8015
 31
0.0
  0
TEXT
  5
47F
100
AcDbEntity
  8
3
  6
CONTINUOUS
 62
     4
100
AcDbText
 10
2.07975
 20
2.466083
 30
0.0
 40
0.009083
  1
Cleaning: All surfaces to be painted shall be cleaned and prepared in accordance with Section
  7
TXT
210
0.0
220
0.0
230
1.0
100
AcDbText
  0
TEXT
  5
480
100
AcDbEntity
  8
3
  6
CONTINUOUS
 62
     4
100
AcDbText
 10
2.037667
 20
2.435417
 30
0.0
 40
0.009083
  1
system shall be as follows:
  7
TXT
210
0.0
220
0.0
230
1.0
100
AcDbText
  0
LINE
  5
481
100
AcDbEntity
  8
3
  6
CONTINUOUS
 62
   233
100
AcDbLine
 10
2.079667
 20
2.46425
 30
0.0
 11
2.13325
 21
2.46425
 31
0.0
  0
TEXT
  5
482
100
AcDbEntity
  8
3
  6
CONTINUOUS
 62
     4
100
AcDbText
 10
2.037
 20
2.787333
 30
0.0
 40
0.009083
  1
615.6 of the Standard Specifications to a "white metal" or "near white metal" condition.  The paint 
  7
TXT
210
0.0
220
0.0
230
1.0
100
AcDbText
  0
TEXT
  5
483
100
AcDbEntity
  8
3
  6
CONTINUOUS
 62
     4
100
AcDbText
 10
2.037
 20
2.450083
 30
0.0
 40
0.009083
  1
615.6 of the Standard Specifications to a "white metal" or "near white metal" condition.  The paint 
  7
TXT
210
0.0
220
0.0
230
1.0
100
AcDbText
  0
TEXT
  5
484
100
AcDbEntity
  8
61
  6
CONTINUOUS
 62
     2
100
AcDbText
 10
2.769083
 20
1.792917
 30
0.0
 40
0.007834
  1
8-93
  7
TXT
 11
2.769083
 21
1.796833
 31
0.0
210
0.0
220
0.0
230
1.0
100
AcDbText
 73
     2
  0
TEXT
  5
485
100
AcDbEntity
  8
1
  6
CONTINUOUS
 62
   253
100
AcDbText
 10
2.456083
 20
1.887083
 30
0.0
 40
0.004916
  1
APPROVED
 41
1.050849
  7
TXT
 11
2.456083
 21
1.892
 31
0.0
210
0.0
220
0.0
230
1.0
100
AcDbText
 73
     3
  0
TEXT
  5
486
100
AcDbEntity
  8
1
  6
CONTINUOUS
 62
   253
100
AcDbText
 10
2.741167
 20
1.887083
 30
0.0
 40
0.004916
  1
DATE
 41
1.050849
  7
TXT
 11
2.741167
 21
1.892
 31
0.0
210
0.0
220
0.0
230
1.0
100
AcDbText
 73
     3
  0
LINE
  5
487
100
AcDbEntity
  8
1
  6
DOT
 62
     2
100
AcDbLine
 10
2.497167
 20
1.884417
 30
0.0
 11
2.736833
 21
1.884417
 31
0.0
  0
LINE
  5
488
100
AcDbEntity
  8
1
  6
DOT
 62
     2
100
AcDbLine
 10
2.766
 20
1.884417
 30
0.0
 11
2.841333
 21
1.884417
 31
0.0
  0
TEXT
  5
489
100
AcDbEntity
  8
1
  6
CONTINUOUS
 62
   253
100
AcDbText
 10
-0.8185
 20
2.341083
 30
0.0
 40
0.004835
  1
DIRECTOR, STRUCTURES DIVISION
 41
1.061227
  7
TXT
 11
-0.8185
 21
2.345917
 31
0.0
210
0.0
220
0.0
230
1.0
100
AcDbText
 73
     3
  0
TEXT
  5
48A
100
AcDbEntity
  8
1
  6
CONTINUOUS
 62
   253
100
AcDbText
 10
-0.932333
 20
2.35175
 30
0.0
 40
0.004916
  1
APPROVED
 41
1.050849
  7
TXT
 11
-0.932333
 21
2.356667
 31
0.0
210
0.0
220
0.0
230
1.0
100
AcDbText
 73
     3
  0
TEXT
  5
48B
100
AcDbEntity
  8
1
  6
CONTINUOUS
 62
   253
100
AcDbText
 10
-0.64725
 20
2.35175
 30
0.0
 40
0.004916
  1
DATE
 41
1.050849
  7
TXT
 11
-0.64725
 21
2.356667
 31
0.0
210
0.0
220
0.0
230
1.0
100
AcDbText
 73
     3
  0
LINE
  5
48C
100
AcDbEntity
  8
1
  6
DOT
 62
     2
100
AcDbLine
 10
-0.89125
 20
2.349083
 30
0.0
 11
-0.651583
 21
2.349083
 31
0.0
  0
LINE
  5
48D
100
AcDbEntity
  8
1
  6
DOT
 62
     2
100
AcDbLine
 10
-0.622417
 20
2.349083
 30
0.0
 11
-0.547083
 21
2.349083
 31
0.0
  0
ENDSEC
  0
SECTION
  2
OBJECTS
  0
DICTIONARY
  5
19
100
AcDbDictionary
  3
ACAD_GROUP
350
1A
  3
ACAD_MLINESTYLE
350
1B
  0
DICTIONARY
  5
1A
102
{ACAD_REACTORS
330
19
102
}
100
AcDbDictionary
  0
DICTIONARY
  5
1B
102
{ACAD_REACTORS
330
19
102
}
100
AcDbDictionary
  3
STANDARD
350
1C
  0
MLINESTYLE
  5
1C
102
{ACAD_REACTORS
330
1B
102
}
100
AcDbMlineStyle
  2
STANDARD
 70
     0
  3

 62
     0
 51
90.0
 52
90.0
 71
     2
 49
0.5
 62
   256
  6
BYLAYER
 49
-0.5
 62
   256
  6
BYLAYER
  0
ENDSEC
  0
EOF
